  0
SECTION
  2
HEADER
  9
$ACADVER
  1
AC1012
  9
$DWGCODEPAGE
  3
ansi_1252
  9
$INSBASE
 10
0.0
 20
0.0
 30
0.0
  9
$EXTMIN
 10
0.0
 20
0.0
 30
0.0
  9
$EXTMAX
 10
11.0
 20
8.5
 30
0.0
  9
$LIMMIN
 10
0.0
 20
0.0
  9
$LIMMAX
 10
11.0
 20
8.5
  9
$ORTHOMODE
 70
     0
  9
$REGENMODE
 70
     1
  9
$FILLMODE
 70
     1
  9
$QTEXTMODE
 70
     0
  9
$MIRRTEXT
 70
     1
  9
$DRAGMODE
 70
     2
  9
$LTSCALE
 40
1.0
  9
$OSMODE
 70
    37
  9
$ATTMODE
 70
     1
  9
$TEXTSIZE
 40
0.125
  9
$TRACEWID
 40
0.05
  9
$TEXTSTYLE
  7
STANDARD
  9
$CLAYER
  8
0
  9
$CELTYPE
  6
BYLAYER
  9
$CECOLOR
 62
   256
  9
$CELTSCALE
 40
1.0
  9
$DELOBJ
 70
     1
  9
$DISPSILH
 70
     0
  9
$DIMSCALE
 40
1.0
  9
$DIMASZ
 40
0.13
  9
$DIMEXO
 40
0.05
  9
$DIMDLI
 40
0.38
  9
$DIMRND
 40
0.0
  9
$DIMDLE
 40
0.0
  9
$DIMEXE
 40
0.125
  9
$DIMTP
 40
0.0
  9
$DIMTM
 40
0.0
  9
$DIMTXT
 40
0.125
  9
$DIMCEN
 40
0.09
  9
$DIMTSZ
 40
0.0
  9
$DIMTOL
 70
     0
  9
$DIMLIM
 70
     0
  9
$DIMTIH
 70
     1
  9
$DIMTOH
 70
     1
  9
$DIMSE1
 70
     0
  9
$DIMSE2
 70
     0
  9
$DIMTAD
 70
     0
  9
$DIMZIN
 70
     0
  9
$DIMBLK
  1

  9
$DIMASO
 70
     1
  9
$DIMSHO
 70
     1
  9
$DIMPOST
  1

  9
$DIMAPOST
  1

  9
$DIMALT
 70
     0
  9
$DIMALTD
 70
     2
  9
$DIMALTF
 40
25.4
  9
$DIMLFAC
 40
1.0
  9
$DIMTOFL
 70
     0
  9
$DIMTVP
 40
0.0
  9
$DIMTIX
 70
     0
  9
$DIMSOXD
 70
     0
  9
$DIMSAH
 70
     0
  9
$DIMBLK1
  1

  9
$DIMBLK2
  1

  9
$DIMSTYLE
  2
STANDARD
  9
$DIMCLRD
 70
     0
  9
$DIMCLRE
 70
     0
  9
$DIMCLRT
 70
     0
  9
$DIMTFAC
 40
1.0
  9
$DIMGAP
 40
0.06
  9
$DIMJUST
 70
     0
  9
$DIMSD1
 70
     0
  9
$DIMSD2
 70
     0
  9
$DIMTOLJ
 70
     1
  9
$DIMTZIN
 70
     0
  9
$DIMALTZ
 70
     0
  9
$DIMALTTZ
 70
     0
  9
$DIMFIT
 70
     3
  9
$DIMUPT
 70
     0
  9
$DIMUNIT
 70
     2
  9
$DIMDEC
 70
     3
  9
$DIMTDEC
 70
     3
  9
$DIMALTU
 70
     2
  9
$DIMALTTD
 70
     2
  9
$DIMTXSTY
  7
STANDARD
  9
$DIMAUNIT
 70
     0
  9
$LUNITS
 70
     2
  9
$LUPREC
 70
     2
  9
$SKETCHINC
 40
0.1
  9
$FILLETRAD
 40
0.5
  9
$AUNITS
 70
     0
  9
$AUPREC
 70
     2
  9
$MENU
  1
.
  9
$ELEVATION
 40
0.0
  9
$PELEVATION
 40
0.0
  9
$THICKNESS
 40
0.0
  9
$LIMCHECK
 70
     0
  9
$CHAMFERA
 40
0.5
  9
$CHAMFERB
 40
0.5
  9
$CHAMFERC
 40
1.0
  9
$CHAMFERD
 40
0.0
  9
$SKPOLY
 70
     0
  9
$TDCREATE
 40
2455784.034171261
  9
$TDUPDATE
 40
2455784.034171273
  9
$TDINDWG
 40
0.0000000116
  9
$TDUSRTIMER
 40
0.0000000116
  9
$USRTIMER
 70
     1
  9
$ANGBASE
 50
0.0
  9
$ANGDIR
 70
     0
  9
$PDMODE
 70
     0
  9
$PDSIZE
 40
-1.0
  9
$PLINEWID
 40
0.0
  9
$COORDS
 70
     1
  9
$SPLFRAME
 70
     0
  9
$SPLINETYPE
 70
     6
  9
$SPLINESEGS
 70
     8
  9
$ATTDIA
 70
     0
  9
$ATTREQ
 70
     1
  9
$HANDLING
 70
     1
  9
$HANDSEED
  5
475
  9
$SURFTAB1
 70
     6
  9
$SURFTAB2
 70
     6
  9
$SURFTYPE
 70
     6
  9
$SURFU
 70
     6
  9
$SURFV
 70
     6
  9
$UCSNAME
  2

  9
$UCSORG
 10
0.0
 20
0.0
 30
0.0
  9
$UCSXDIR
 10
1.0
 20
0.0
 30
0.0
  9
$UCSYDIR
 10
0.0
 20
1.0
 30
0.0
  9
$PUCSNAME
  2

  9
$PUCSORG
 10
0.0
 20
0.0
 30
0.0
  9
$PUCSXDIR
 10
1.0
 20
0.0
 30
0.0
  9
$PUCSYDIR
 10
0.0
 20
1.0
 30
0.0
  9
$USERI1
 70
     0
  9
$USERI2
 70
     0
  9
$USERI3
 70
     0
  9
$USERI4
 70
     0
  9
$USERI5
 70
     0
  9
$USERR1
 40
0.0
  9
$USERR2
 40
0.0
  9
$USERR3
 40
0.0
  9
$USERR4
 40
0.0
  9
$USERR5
 40
0.0
  9
$WORLDVIEW
 70
     1
  9
$SHADEDGE
 70
     3
  9
$SHADEDIF
 70
    70
  9
$TILEMODE
 70
     1
  9
$MAXACTVP
 70
    64
  9
$PINSBASE
 10
0.0
 20
0.0
 30
0.0
  9
$PLIMCHECK
 70
     0
  9
$PEXTMIN
 10
1.0000000000E+20
 20
1.0000000000E+20
 30
1.0000000000E+20
  9
$PEXTMAX
 10
-1.0000000000E+20
 20
-1.0000000000E+20
 30
-1.0000000000E+20
  9
$PLIMMIN
 10
0.0
 20
0.0
  9
$PLIMMAX
 10
12.0
 20
9.0
  9
$UNITMODE
 70
     0
  9
$VISRETAIN
 70
     1
  9
$PLINEGEN
 70
     0
  9
$PSLTSCALE
 70
     1
  9
$TREEDEPTH
 70
  3020
  9
$PICKSTYLE
 70
     1
  9
$CMLSTYLE
  2
STANDARD
  9
$CMLJUST
 70
     0
  9
$CMLSCALE
 40
1.0
  9
$SAVEIMAGES
 70
     1
  0
ENDSEC
  0
SECTION
  2
CLASSES
  0
CLASS
  1
ACDBDICTIONARYWDFLT
  2
AcDbDictionaryWithDefault
  3
ObjectDBX Classes
 90
    32768
280
     0
281
     0
  0
CLASS
  1
VISUALSTYLE
  2
AcDbVisualStyle
  3
ObjectDBX Classes
 90
     4095
280
     0
281
     0
  0
CLASS
  1
SCALE
  2
AcDbScale
  3
ObjectDBX Classes
 90
     1153
280
     0
281
     0
  0
CLASS
  1
DICTIONARYVAR
  2
AcDbDictionaryVar
  3
ObjectDBX Classes
 90
        0
280
     0
281
     0
  0
CLASS
  1
XRECORD
  2
AcDbXrecord
  3
AutoCAD 2000
 90
    32768
280
     0
281
     0
  0
CLASS
  1
LWPOLYLINE
  2
AcDbPolyline
  3
AutoCAD 2000
 90
    32768
280
     0
281
     1
  0
CLASS
  1
HATCH
  2
AcDbHatch
  3
AutoCAD 2000
 90
    32768
280
     0
281
     1
  0
CLASS
  1
ACDBPLACEHOLDER
  2
AcDbPlaceHolder
  3
ObjectDBX Classes
 90
        0
280
     0
281
     0
  0
CLASS
  1
LAYOUT
  2
AcDbLayout
  3
ObjectDBX Classes
 90
        0
280
     0
281
     0
  0
ENDSEC
  0
SECTION
  2
TABLES
  0
TABLE
  2
VPORT
  5
8
330
0
100
AcDbSymbolTable
 70
     1
  0
VPORT
  5
29
330
8
100
AcDbSymbolTableRecord
100
AcDbViewportTableRecord
  2
*ACTIVE
 70
     0
 10
0.0
 20
0.0
 11
1.0
 21
1.0
 12
5.5
 22
4.25
 13
0.0
 23
0.0
 14
0.5
 24
0.5
 15
0.5
 25
0.5
 16
0.0
 26
0.0
 36
1.0
 17
0.0
 27
0.0
 37
0.0
 40
8.5
 41
1.2941176471
 42
50.0
 43
0.0
 44
0.0
 50
0.0
 51
0.0
 71
     0
 72
  2000
 73
     1
 74
     3
 75
     0
 76
     0
 77
     0
 78
     0
  0
ENDTAB
  0
TABLE
  2
LTYPE
  5
5
330
0
100
AcDbSymbolTable
 70
     6
  0
LTYPE
  5
14
330
5
100
AcDbSymbolTableRecord
100
AcDbLinetypeTableRecord
  2
BYBLOCK
 70
     0
  3

 72
    65
 73
     0
 40
0.0
  0
LTYPE
  5
15
330
5
100
AcDbSymbolTableRecord
100
AcDbLinetypeTableRecord
  2
BYLAYER
 70
     0
  3

 72
    65
 73
     0
 40
0.0
  0
LTYPE
  5
16
330
5
100
AcDbSymbolTableRecord
100
AcDbLinetypeTableRecord
  2
CONTINUOUS
 70
     0
  3
Solid line
 72
    65
 73
     0
 40
0.0
  0
LTYPE
  5
3B
330
5
100
AcDbSymbolTableRecord
100
AcDbLinetypeTableRecord
  2
HIDDEN
 70
     0
  3
Hidden __ __ __ __ __ __ __ __ __ __ __ __ __ __
 72
    65
 73
     2
 40
0.075
 49
0.05
 74
     0
 49
-0.025
 74
     0
  0
LTYPE
  5
3C
330
5
100
AcDbSymbolTableRecord
100
AcDbLinetypeTableRecord
  2
PHANTOM
 70
     0
  3
Phantom ______  __  __  ______  __  __  ______
 72
    65
 73
     6
 40
0.5
 49
0.25
 74
     0
 49
-0.05
 74
     0
 49
0.05
 74
     0
 49
-0.05
 74
     0
 49
0.05
 74
     0
 49
-0.05
 74
     0
  0
LTYPE
  5
3D
330
5
100
AcDbSymbolTableRecord
100
AcDbLinetypeTableRecord
  2
CENTER
 70
     0
  3
Center ____ _ ____ _ ____ _ ____ _ ____ _ ____
 72
    65
 73
     4
 40
0.4
 49
0.25
 74
     0
 49
-0.05
 74
     0
 49
0.05
 74
     0
 49
-0.05
 74
     0
  0
LTYPE
  5
3E
330
5
100
AcDbSymbolTableRecord
100
AcDbLinetypeTableRecord
  2
CENTERX2
 70
     0
  3
Center (2x) ________  __  ________  __  _____
 72
    65
 73
     4
 40
0.8
 49
0.5
 74
     0
 49
-0.1
 74
     0
 49
0.1
 74
     0
 49
-0.1
 74
     0
  0
LTYPE
  5
3F
330
5
100
AcDbSymbolTableRecord
100
AcDbLinetypeTableRecord
  2
DOT2
 70
     0
  3
Dot (.5x) ........................................
 72
    65
 73
     2
 40
0.025
 49
0.0
 74
     0
 49
-0.025
 74
     0
  0
ENDTAB
  0
TABLE
  2
LAYER
  5
2
330
0
100
AcDbSymbolTable
 70
     2
  0
LAYER
  5
10
330
2
100
AcDbSymbolTableRecord
100
AcDbLayerTableRecord
  2
0
 70
     0
 62
     7
  6
CONTINUOUS
  0
LAYER
  5
40
330
2
100
AcDbSymbolTableRecord
100
AcDbLayerTableRecord
  2
FORMAT
 70
     0
 62
     7
  6
CONTINUOUS
  0
ENDTAB
  0
TABLE
  2
STYLE
  5
3
330
0
100
AcDbSymbolTable
 70
     4
  0
STYLE
  5
11
330
3
100
AcDbSymbolTableRecord
100
AcDbTextStyleTableRecord
  2
STANDARD
 70
     0
 40
0.0
 41
1.0
 50
0.0
 71
     0
 42
0.2
  3
txt
  4

  0
STYLE
  5
6E
330
3
100
AcDbSymbolTableRecord
100
AcDbTextStyleTableRecord
  2
SLDTEXTSTYLE0
 70
     0
 40
0.0
 41
0.75
 50
0.0
 71
     0
 42
0.2
  3
TXT
  4

  0
STYLE
  5
93
330
3
100
AcDbSymbolTableRecord
100
AcDbTextStyleTableRecord
  2
SLDTEXTSTYLE1
 70
     0
 40
0.0
 41
0.6875
 50
0.0
 71
     0
 42
0.2
  3
TXT
  4

  0
STYLE
  5
99
330
3
100
AcDbSymbolTableRecord
100
AcDbTextStyleTableRecord
  2
SLDTEXTSTYLE2
 70
     0
 40
0.0
 41
0.6944444444
 50
0.0
 71
     0
 42
0.2
  3
TXT
  4

  0
ENDTAB
  0
TABLE
  2
VIEW
  5
6
330
0
100
AcDbSymbolTable
 70
     0
  0
ENDTAB
  0
TABLE
  2
UCS
  5
7
330
0
100
AcDbSymbolTable
 70
     0
  0
ENDTAB
  0
TABLE
  2
APPID
  5
9
330
0
100
AcDbSymbolTable
 70
     1
  0
APPID
  5
12
330
9
100
AcDbSymbolTableRecord
100
AcDbRegAppTableRecord
  2
ACAD
 70
     0
  0
ENDTAB
  0
TABLE
  2
DIMSTYLE
  5
A
330
0
100
AcDbSymbolTable
 70
     1
  0
DIMSTYLE
105
27
330
A
100
AcDbSymbolTableRecord
100
AcDbDimStyleTableRecord
  2
STANDARD
 70
     0
  3

  4

  5

  6

  7

 40
1.0
 41
0.18
 42
0.0625
 43
0.38
 44
0.18
 45
0.0
 46
0.0
 47
0.0
 48
0.0
140
0.18
141
0.09
142
0.0
143
25.4
144
1.0
145
0.0
146
1.0
147
0.09
 71
     0
 72
     0
 73
     1
 74
     1
 75
     0
 76
     0
 77
     0
 78
     0
170
     0
171
     2
172
     0
173
     0
174
     0
175
     0
176
     0
177
     0
178
     0
270
     2
271
     4
272
     4
273
     2
274
     2
340
11
275
     0
280
     0
281
     0
282
     0
283
     1
284
     0
285
     0
286
     0
287
     3
288
     0
  0
ENDTAB
  0
TABLE
  2
BLOCK_RECORD
  5
1
330
0
100
AcDbSymbolTable
 70
     4
  0
BLOCK_RECORD
  5
1F
330
1
100
AcDbSymbolTableRecord
100
AcDbBlockTableRecord
  2
*MODEL_SPACE
  0
BLOCK_RECORD
  5
1B
330
1
100
AcDbSymbolTableRecord
100
AcDbBlockTableRecord
  2
*PAPER_SPACE
  0
BLOCK_RECORD
  5
A8
330
1
100
AcDbSymbolTableRecord
100
AcDbBlockTableRecord
  2
SW_NOTE_0
  0
BLOCK_RECORD
  5
AE
330
1
100
AcDbSymbolTableRecord
100
AcDbBlockTableRecord
  2
SW_NOTE_1
  0
BLOCK_RECORD
  5
C2
330
1
100
AcDbSymbolTableRecord
100
AcDbBlockTableRecord
  2
SW_NOTE_2
  0
ENDTAB
  0
ENDSEC
  0
SECTION
  2
BLOCKS
  0
BLOCK
  5
20
330
1F
100
AcDbEntity
  8
0
100
AcDbBlockBegin
  2
*MODEL_SPACE
 70
     0
 10
0.0
 20
0.0
 30
0.0
  3
*MODEL_SPACE
  1

  0
ENDBLK
  5
21
330
1F
100
AcDbEntity
  8
0
100
AcDbBlockEnd
  0
BLOCK
  5
1C
330
1B
100
AcDbEntity
 67
     1
  8
0
100
AcDbBlockBegin
  2
*PAPER_SPACE
 70
     0
 10
0.0
 20
0.0
 30
0.0
  3
*PAPER_SPACE
  1

  0
ENDBLK
  5
1D
330
1B
100
AcDbEntity
 67
     1
  8
0
100
AcDbBlockEnd
  0
BLOCK
  5
A9
330
A8
100
AcDbEntity
  8
0
100
AcDbBlockBegin
  2
SW_NOTE_0
 70
     0
 10
0.0
 20
0.0
 30
0.0
  3
SW_NOTE_0
  1

  0
MTEXT
  5
AB
330
A8
100
AcDbEntity
  8
0
  6
CONTINUOUS
 62
     0
100
AcDbMText
 10
0.0
 20
0.0773440644
 30
0.0
 40
0.06
 41
0.0
 71
     1
 72
     1
  1
INTERPRET GEOMETRIC
  7
SLDTEXTSTYLE0
  0
MTEXT
  5
AC
330
A8
100
AcDbEntity
  8
0
  6
CONTINUOUS
 62
     0
100
AcDbMText
 10
0.0
 20
-0.0220260102
 30
0.0
 40
0.06
 41
0.0
 71
     1
 72
     1
  1
TOLERANCING PER:
  7
SLDTEXTSTYLE0
  0
ENDBLK
  5
AA
330
A8
100
AcDbEntity
  8
0
100
AcDbBlockEnd
  0
BLOCK
  5
AF
330
AE
100
AcDbEntity
  8
0
100
AcDbBlockBegin
  2
SW_NOTE_1
 70
     0
 10
0.0
 20
0.0
 30
0.0
  3
SW_NOTE_1
  1

  0
MTEXT
  5
B1
330
AE
100
AcDbEntity
  8
0
  6
CONTINUOUS
 62
     0
100
AcDbMText
 10
0.0
 20
0.0837894031
 30
0.0
 40
0.065
 41
0.0
 71
     1
 72
     1
  1
DIMENSIONS ARE IN INCHES
  7
SLDTEXTSTYLE0
  0
MTEXT
  5
B2
330
AE
100
AcDbEntity
  8
0
  6
CONTINUOUS
 62
     0
100
AcDbMText
 10
0.0
 20
-0.0205806729
 30
0.0
 40
0.065
 41
0.0
 71
     1
 72
     1
  1
TOLERANCES:
  7
SLDTEXTSTYLE0
  0
MTEXT
  5
B3
330
AE
100
AcDbEntity
  8
0
  6
CONTINUOUS
 62
     0
100
AcDbMText
 10
0.0
 20
-0.1249507489
 30
0.0
 40
0.065
 41
0.0
 71
     1
 72
     1
  1
FRACTIONAL
  7
SLDTEXTSTYLE0
  0
MTEXT
  5
B4
330
AE
100
AcDbEntity
  8
0
  6
CONTINUOUS
 62
     0
100
AcDbMText
 10
0.5175850875
 20
-0.1249507489
 30
0.0
 40
0.065
 41
0.0
 71
     1
 72
     1
  1
%%p
  7
SLDTEXTSTYLE0
  0
MTEXT
  5
B5
330
AE
100
AcDbEntity
  8
0
  6
CONTINUOUS
 62
     0
100
AcDbMText
 10
0.0
 20
-0.2293208248
 30
0.0
 40
0.065
 41
0.0
 71
     1
 72
     1
  1
ANGULAR: MACH
  7
SLDTEXTSTYLE0
  0
MTEXT
  5
B6
330
AE
100
AcDbEntity
  8
0
  6
CONTINUOUS
 62
     0
100
AcDbMText
 10
0.7233732769
 20
-0.2293208248
 30
0.0
 40
0.065
 41
0.0
 71
     1
 72
     1
  1
%%p
  7
SLDTEXTSTYLE0
  0
MTEXT
  5
B7
330
AE
100
AcDbEntity
  8
0
  6
CONTINUOUS
 62
     0
100
AcDbMText
 10
0.7852857683
 20
-0.2293208248
 30
0.0
 40
0.065
 41
0.0
 71
     1
 72
     1
  1
     BEND 
  7
SLDTEXTSTYLE0
  0
MTEXT
  5
B8
330
AE
100
AcDbEntity
  8
0
  6
CONTINUOUS
 62
     0
100
AcDbMText
 10
1.14784136
 20
-0.2293208248
 30
0.0
 40
0.065
 41
0.0
 71
     1
 72
     1
  1
%%p
  7
SLDTEXTSTYLE0
  0
MTEXT
  5
B9
330
AE
100
AcDbEntity
  8
0
  6
CONTINUOUS
 62
     0
100
AcDbMText
 10
0.0
 20
-0.3336909008
 30
0.0
 40
0.065
 41
0.0
 71
     1
 72
     1
  1
TWO PLACE DECIMAL    
  7
SLDTEXTSTYLE0
  0
MTEXT
  5
BA
330
AE
100
AcDbEntity
  8
0
  6
CONTINUOUS
 62
     0
100
AcDbMText
 10
0.9794349188
 20
-0.3336909008
 30
0.0
 40
0.065
 41
0.0
 71
     1
 72
     1
  1
%%p
  7
SLDTEXTSTYLE0
  0
MTEXT
  5
BB
330
AE
100
AcDbEntity
  8
0
  6
CONTINUOUS
 62
     0
100
AcDbMText
 10
0.0
 20
-0.4380609768
 30
0.0
 40
0.065
 41
0.0
 71
     1
 72
     1
  1
THREE PLACE DECIMAL  
  7
SLDTEXTSTYLE0
  0
MTEXT
  5
BC
330
AE
100
AcDbEntity
  8
0
  6
CONTINUOUS
 62
     0
100
AcDbMText
 10
0.9738038639
 20
-0.4380609768
 30
0.0
 40
0.065
 41
0.0
 71
     1
 72
     1
  1
%%p
  7
SLDTEXTSTYLE0
  0
ENDBLK
  5
B0
330
AE
100
AcDbEntity
  8
0
100
AcDbBlockEnd
  0
BLOCK
  5
C3
330
C2
100
AcDbEntity
  8
0
100
AcDbBlockBegin
  2
SW_NOTE_2
 70
     0
 10
0.0
 20
0.0
 30
0.0
  3
SW_NOTE_2
  1

  0
MTEXT
  5
C5
330
C2
100
AcDbEntity
  8
0
  6
CONTINUOUS
 62
     0
100
AcDbMText
 10
0.0
 20
0.0773440644
 30
0.0
 40
0.06
 41
0.0
 71
     1
 72
     1
  1
THE INFORMATION CONTAINED IN THIS
  7
SLDTEXTSTYLE0
  0
MTEXT
  5
C6
330
C2
100
AcDbEntity
  8
0
  6
CONTINUOUS
 62
     0
100
AcDbMText
 10
0.0
 20
-0.0220260102
 30
0.0
 40
0.06
 41
0.0
 71
     1
 72
     1
  1
DRAWING IS THE SOLE PROPERTY OF
  7
SLDTEXTSTYLE0
  0
MTEXT
  5
C7
330
C2
100
AcDbEntity
  8
0
  6
CONTINUOUS
 62
     0
100
AcDbMText
 10
0.0
 20
-0.1213960848
 30
0.0
 40
0.06
 41
0.0
 71
     1
 72
     1
  1
Candy Controls.  ANY 
  7
SLDTEXTSTYLE0
  0
MTEXT
  5
C8
330
C2
100
AcDbEntity
  8
0
  6
CONTINUOUS
 62
     0
100
AcDbMText
 10
0.0
 20
-0.2207661593
 30
0.0
 40
0.06
 41
0.0
 71
     1
 72
     1
  1
REPRODUCTION IN PART OR AS A WHOLE
  7
SLDTEXTSTYLE0
  0
MTEXT
  5
C9
330
C2
100
AcDbEntity
  8
0
  6
CONTINUOUS
 62
     0
100
AcDbMText
 10
0.0
 20
-0.3201362339
 30
0.0
 40
0.06
 41
0.0
 71
     1
 72
     1
  1
WITHOUT THE WRITTEN PERMISSION OF
  7
SLDTEXTSTYLE0
  0
MTEXT
  5
CA
330
C2
100
AcDbEntity
  8
0
  6
CONTINUOUS
 62
     0
100
AcDbMText
 10
0.0
 20
-0.4195063085
 30
0.0
 40
0.06
 41
0.0
 71
     1
 72
     1
  1
Candy Controls IS 
  7
SLDTEXTSTYLE0
  0
MTEXT
  5
CB
330
C2
100
AcDbEntity
  8
0
  6
CONTINUOUS
 62
     0
100
AcDbMText
 10
0.0
 20
-0.518876383
 30
0.0
 40
0.06
 41
0.0
 71
     1
 72
     1
  1
PROHIBITED.
  7
SLDTEXTSTYLE0
  0
ENDBLK
  5
C4
330
C2
100
AcDbEntity
  8
0
100
AcDbBlockEnd
  0
ENDSEC
  0
SECTION
  2
ENTITIES
  0
LINE
  5
41
330
1F
100
AcDbEntity
  8
0
  6
CONTINUOUS
 62
     7
100
AcDbLine
 10
0.329927
 20
8.1920731707
 30
0.0
 11
10.629927
 21
8.1920731707
 31
0.0
  0
LINE
  5
42
330
1F
100
AcDbEntity
  8
0
  6
CONTINUOUS
 62
     7
100
AcDbLine
 10
0.329927
 20
8.1920731707
 30
0.0
 11
0.329927
 21
0.3920731707
 31
0.0
  0
LINE
  5
43
330
1F
100
AcDbEntity
  8
0
  6
CONTINUOUS
 62
     7
100
AcDbLine
 10
10.629927
 20
0.3920731707
 30
0.0
 11
0.329927
 21
0.3920731707
 31
0.0
  0
LINE
  5
44
330
1F
100
AcDbEntity
  8
0
  6
CONTINUOUS
 62
     7
100
AcDbLine
 10
10.629927
 20
0.3920731707
 30
0.0
 11
10.629927
 21
8.1920731707
 31
0.0
  0
LINE
  5
45
330
1F
100
AcDbEntity
  8
0
  6
CONTINUOUS
 62
     7
100
AcDbLine
 10
4.7981841288
 20
0.3920731707
 30
0.0
 11
4.7981841288
 21
2.3564211366
 31
0.0
  0
LINE
  5
46
330
1F
100
AcDbEntity
  8
0
  6
CONTINUOUS
 62
     7
100
AcDbLine
 10
2.8210345579
 20
2.3564211366
 30
0.0
 11
10.629927
 21
2.3564211366
 31
0.0
  0
LINE
  5
47
330
1F
100
AcDbEntity
  8
0
  6
CONTINUOUS
 62
     7
100
AcDbLine
 10
6.1796352514
 20
2.3564211366
 30
0.0
 11
6.1796352514
 21
0.3920731707
 31
0.0
  0
LINE
  5
48
330
1F
100
AcDbEntity
  8
0
  6
CONTINUOUS
 62
     7
100
AcDbLine
 10
7.8712070044
 20
2.3564211366
 30
0.0
 11
7.8712070044
 21
0.3920731707
 31
0.0
  0
LINE
  5
49
330
1F
100
AcDbEntity
  8
0
  6
CONTINUOUS
 62
     7
100
AcDbLine
 10
7.8712070044
 20
0.6049590101
 30
0.0
 11
10.629927
 21
0.6049590101
 31
0.0
  0
LINE
  5
4A
330
1F
100
AcDbEntity
  8
0
  6
CONTINUOUS
 62
     7
100
AcDbLine
 10
7.8712070044
 20
1.1119362457
 30
0.0
 11
10.629927
 21
1.1119362457
 31
0.0
  0
LINE
  5
4B
330
1F
100
AcDbEntity
  8
0
  6
CONTINUOUS
 62
     7
100
AcDbLine
 10
7.8712070044
 20
1.9892703708
 30
0.0
 11
10.629927
 21
1.9892703708
 31
0.0
  0
LINE
  5
4C
330
1F
100
AcDbEntity
  8
0
  6
CONTINUOUS
 62
     7
100
AcDbLine
 10
8.266751752
 20
1.1119362457
 30
0.0
 11
8.266751752
 21
0.6049590101
 31
0.0
  0
LINE
  5
4D
330
1F
100
AcDbEntity
  8
0
  6
CONTINUOUS
 62
     7
100
AcDbLine
 10
8.6943435176
 20
0.6049590101
 30
0.0
 11
8.6943435176
 21
0.3920731707
 31
0.0
  0
LINE
  5
4E
330
1F
100
AcDbEntity
  8
0
  6
CONTINUOUS
 62
     7
100
AcDbLine
 10
10.0579917045
 20
1.1119362457
 30
0.0
 11
10.0579917045
 21
0.6049590101
 31
0.0
  0
LINE
  5
4F
330
1F
100
AcDbEntity
  8
0
  6
CONTINUOUS
 62
     7
100
AcDbLine
 10
9.6662556631
 20
0.6049590101
 30
0.0
 11
9.6662556631
 21
0.3920731707
 31
0.0
  0
LINE
  5
50
330
1F
100
AcDbEntity
  8
0
  6
CONTINUOUS
 62
     7
100
AcDbLine
 10
2.8210345579
 20
0.5883479999
 30
0.0
 11
6.1796352514
 21
0.5883479999
 31
0.0
  0
LINE
  5
51
330
1F
100
AcDbEntity
  8
0
  6
CONTINUOUS
 62
     7
100
AcDbLine
 10
6.1796352514
 20
1.7939211366
 30
0.0
 11
7.8712070044
 21
1.7939211366
 31
0.0
  0
LINE
  5
52
330
1F
100
AcDbEntity
  8
0
  6
CONTINUOUS
 62
     7
100
AcDbLine
 10
6.1796352514
 20
1.9814211366
 30
0.0
 11
7.8712070044
 21
1.9814211366
 31
0.0
  0
LINE
  5
53
330
1F
100
AcDbEntity
  8
0
  6
CONTINUOUS
 62
     7
100
AcDbLine
 10
6.1796352514
 20
2.1689211366
 30
0.0
 11
7.8712070044
 21
2.1689211366
 31
0.0
  0
LINE
  5
54
330
1F
100
AcDbEntity
  8
0
  6
CONTINUOUS
 62
     7
100
AcDbLine
 10
7.8712070044
 20
1.2314211366
 30
0.0
 11
6.1796352514
 21
1.2314211366
 31
0.0
  0
LINE
  5
55
330
1F
100
AcDbEntity
  8
0
  6
CONTINUOUS
 62
     7
100
AcDbLine
 10
7.3921580388
 20
2.3564211366
 30
0.0
 11
7.3921580388
 21
1.2314211366
 31
0.0
  0
LINE
  5
56
330
1F
100
AcDbEntity
  8
0
  6
CONTINUOUS
 62
     7
100
AcDbLine
 10
6.9236308342
 20
2.3564211366
 30
0.0
 11
6.9236308342
 21
1.2314211366
 31
0.0
  0
LINE
  5
57
330
1F
100
AcDbEntity
  8
0
  6
CONTINUOUS
 62
     7
100
AcDbLine
 10
4.7981841288
 20
0.8557965305
 30
0.0
 11
6.1796352514
 21
0.8557965305
 31
0.0
  0
LINE
  5
58
330
1F
100
AcDbEntity
  8
0
  6
CONTINUOUS
 62
     7
100
AcDbLine
 10
4.7981841288
 20
1.1257965305
 30
0.0
 11
6.1796352514
 21
1.1257965305
 31
0.0
  0
LINE
  5
59
330
1F
100
AcDbEntity
  8
0
  6
CONTINUOUS
 62
     7
100
AcDbLine
 10
2.8210345579
 20
0.3920731707
 30
0.0
 11
2.8210345579
 21
2.3564211366
 31
0.0
  0
LINE
  5
5A
330
1F
100
AcDbEntity
  8
0
  6
CONTINUOUS
 62
     7
100
AcDbLine
 10
2.8210345579
 20
1.1064211366
 30
0.0
 11
4.7981841288
 21
1.1064211366
 31
0.0
  0
LINE
  5
5B
330
1F
100
AcDbEntity
  8
0
  6
CONTINUOUS
 62
     7
100
AcDbLine
 10
2.8210345579
 20
1.3564211366
 30
0.0
 11
4.7981841288
 21
1.3564211366
 31
0.0
  0
LINE
  5
5C
330
1F
100
AcDbEntity
  8
0
  6
CONTINUOUS
 62
     7
100
AcDbLine
 10
2.8210345579
 20
1.6064211366
 30
0.0
 11
4.7981841288
 21
1.6064211366
 31
0.0
  0
LINE
  5
5D
330
1F
100
AcDbEntity
  8
0
  6
CONTINUOUS
 62
     7
100
AcDbLine
 10
2.8210345579
 20
1.8564211366
 30
0.0
 11
4.7981841288
 21
1.8564211366
 31
0.0
  0
LINE
  5
5E
330
1F
100
AcDbEntity
  8
0
  6
CONTINUOUS
 62
     7
100
AcDbLine
 10
3.8190146875
 20
2.3564211366
 30
0.0
 11
3.8190146875
 21
0.5883479999
 31
0.0
  0
LINE
  5
5F
330
1F
100
AcDbEntity
  8
0
  6
CONTINUOUS
 62
     7
100
AcDbLine
 10
6.1796352514
 20
2.2020813496
 30
0.0
 11
4.7981841288
 21
2.2020813496
 31
0.0
  0
LINE
  5
60
330
1F
100
AcDbEntity
  8
0
  6
CONTINUOUS
 62
     7
100
AcDbLine
 10
7.8712070044
 20
1.6064211366
 30
0.0
 11
6.1796352514
 21
1.6064211366
 31
0.0
  0
LINE
  5
61
330
1F
100
AcDbEntity
  8
0
  6
CONTINUOUS
 62
     7
100
AcDbLine
 10
7.8712070044
 20
1.4189211366
 30
0.0
 11
6.1796352514
 21
1.4189211366
 31
0.0
  0
LINE
  5
62
330
1F
100
AcDbEntity
  8
0
  6
CONTINUOUS
 62
     7
100
AcDbLine
 10
2.8210345579
 20
2.1064211366
 30
0.0
 11
4.7981841288
 21
2.1064211366
 31
0.0
  0
LINE
  5
63
330
1F
100
AcDbEntity
  8
0
  6
CONTINUOUS
 62
     7
100
AcDbLine
 10
4.7981841288
 20
1.3957965305
 30
0.0
 11
6.1796352514
 21
1.3957965305
 31
0.0
  0
LINE
  5
64
330
1F
100
AcDbEntity
  8
0
  6
CONTINUOUS
 62
     7
100
AcDbLine
 10
2.8210345579
 20
0.8564211366
 30
0.0
 11
4.7981841288
 21
0.8564211366
 31
0.0
  0
LINE
  5
65
330
1F
100
AcDbEntity
  8
0
  6
CONTINUOUS
 62
     7
100
AcDbLine
 10
1.1838252943
 20
0.3920731707
 30
0.0
 11
1.1838252943
 21
1.3064211366
 31
0.0
  0
LINE
  5
66
330
1F
100
AcDbEntity
  8
0
  6
CONTINUOUS
 62
     7
100
AcDbLine
 10
2.8210345579
 20
1.3064211366
 30
0.0
 11
1.1838252943
 21
1.3064211366
 31
0.0
  0
LINE
  5
67
330
1F
100
AcDbEntity
  8
0
  6
CONTINUOUS
 62
     7
100
AcDbLine
 10
8.660927
 20
0.3920731707
 30
0.0
 11
8.660927
 21
0.3072739649
 31
0.0
  0
LINE
  5
68
330
1F
100
AcDbEntity
  8
0
  6
CONTINUOUS
 62
     7
100
AcDbLine
 10
6.692177
 20
0.3920731707
 30
0.0
 11
6.692177
 21
0.3072739649
 31
0.0
  0
LINE
  5
69
330
1F
100
AcDbEntity
  8
0
  6
CONTINUOUS
 62
     7
100
AcDbLine
 10
4.723427
 20
0.3920731707
 30
0.0
 11
4.723427
 21
0.3072739649
 31
0.0
  0
LINE
  5
6A
330
1F
100
AcDbEntity
  8
0
  6
CONTINUOUS
 62
     7
100
AcDbLine
 10
2.754677
 20
0.3920731707
 30
0.0
 11
2.754677
 21
0.3072739649
 31
0.0
  0
LINE
  5
6B
330
1F
100
AcDbEntity
  8
0
  6
CONTINUOUS
 62
     7
100
AcDbLine
 10
2.754677
 20
0.3920731707
 30
0.0
 11
2.7672319738
 21
0.3575
 31
0.0
  0
LINE
  5
6C
330
1F
100
AcDbEntity
  8
0
  6
CONTINUOUS
 62
     7
100
AcDbLine
 10
2.7672319738
 20
0.3575
 30
0.0
 11
2.7414258825
 21
0.3575
 31
0.0
  0
LINE
  5
6D
330
1F
100
AcDbEntity
  8
0
  6
CONTINUOUS
 62
     7
100
AcDbLine
 10
2.7414258825
 20
0.3575
 30
0.0
 11
2.754677
 21
0.3920731707
 31
0.0
  0
MTEXT
  5
91
330
1F
100
AcDbEntity
  8
0
  6
CONTINUOUS
 62
     7
100
AcDbMText
 10
4.9775846961
 20
0.5178452352
 30
0.0
 40
0.0625
 41
0.0
 71
     1
 72
     1
  1
DO NOT SCALE DRAWING
  7
SLDTEXTSTYLE0
  0
MTEXT
  5
92
330
1F
100
AcDbEntity
  8
0
  6
CONTINUOUS
 62
     7
100
AcDbMText
 10
8.8195424984
 20
0.9417064595
 30
0.0
 40
0.125
 41
0.0
 71
     1
 72
     1
  1
SCL13-25
  7
SLDTEXTSTYLE0
  0
MTEXT
  5
94
330
1F
100
AcDbEntity
  8
0
  6
CONTINUOUS
 62
     7
100
AcDbMText
 10
9.7571278483
 20
0.5524239532
 30
0.0
 40
0.1
 41
0.0
 71
     1
 72
     1
  1
SHEET 1 OF 1
  7
SLDTEXTSTYLE1
  0
MTEXT
  5
95
330
1F
100
AcDbEntity
  8
0
  6
CONTINUOUS
 62
     7
100
AcDbMText
 10
4.8448077858
 20
2.3132954224
 30
0.0
 40
0.07
 41
0.0
 71
     1
 72
     1
  1
UNLESS OTHERWISE SPECIFIED:
  7
SLDTEXTSTYLE0
  0
MTEXT
  5
96
330
1F
100
AcDbEntity
  8
0
  6
CONTINUOUS
 62
     7
100
AcDbMText
 10
7.9586139647
 20
0.5520987879
 30
0.0
 40
0.1
 41
0.0
 71
     1
 72
     1
  1
SCALE: 1:1
  7
SLDTEXTSTYLE0
  0
MTEXT
  5
97
330
1F
100
AcDbEntity
  8
0
  6
CONTINUOUS
 62
     7
100
AcDbMText
 10
8.7023691647
 20
0.5486763345
 30
0.0
 40
0.1
 41
0.0
 71
     1
 72
     1
  1
WEIGHT: 
  7
SLDTEXTSTYLE0
  0
MTEXT
  5
98
330
1F
100
AcDbEntity
  8
0
  6
CONTINUOUS
 62
     7
100
AcDbMText
 10
10.2277580983
 20
1.081966299
 30
0.0
 40
0.1
 41
0.0
 71
     1
 72
     1
  1
REV
  7
SLDTEXTSTYLE0
  0
MTEXT
  5
9A
330
1F
100
AcDbEntity
  8
0
  6
CONTINUOUS
 62
     7
100
AcDbMText
 10
8.2984570898
 20
1.0858725293
 30
0.0
 40
0.1
 41
0.0
 71
     1
 72
     1
  1
DWG.  NO.
  7
SLDTEXTSTYLE2
  0
MTEXT
  5
9B
330
1F
100
AcDbEntity
  8
0
  6
CONTINUOUS
 62
     7
100
AcDbMText
 10
7.9598482632
 20
0.9442140768
 30
0.0
 40
0.25
 41
0.0
 71
     1
 72
     1
  1
A
  7
SLDTEXTSTYLE0
  0
MTEXT
  5
9C
330
1F
100
AcDbEntity
  8
0
  6
CONTINUOUS
 62
     7
100
AcDbMText
 10
7.9519581822
 20
1.0872713483
 30
0.0
 40
0.1
 41
0.0
 71
     1
 72
     1
  1
SIZE
  7
SLDTEXTSTYLE0
  0
MTEXT
  5
9D
330
1F
100
AcDbEntity
  8
0
  6
CONTINUOUS
 62
     7
100
AcDbMText
 10
7.9170704177
 20
1.9547881128
 30
0.0
 40
0.1
 41
0.0
 71
     1
 72
     1
  1
TITLE:
  7
SLDTEXTSTYLE0
  0
MTEXT
  5
9E
330
1F
100
AcDbEntity
  8
0
  6
CONTINUOUS
 62
     7
100
AcDbMText
 10
7.0363774929
 20
2.2906161274
 30
0.0
 40
0.065
 41
0.0
 71
     1
 72
     1
  1
NAME
  7
SLDTEXTSTYLE0
  0
MTEXT
  5
9F
330
1F
100
AcDbEntity
  8
0
  6
CONTINUOUS
 62
     7
100
AcDbMText
 10
7.5281510634
 20
2.2888799118
 30
0.0
 40
0.065
 41
0.0
 71
     1
 72
     1
  1
DATE
  7
SLDTEXTSTYLE0
  0
MTEXT
  5
A0
330
1F
100
AcDbEntity
  8
0
  6
CONTINUOUS
 62
     7
100
AcDbMText
 10
6.2277147029
 20
1.1876913145
 30
0.0
 40
0.065
 41
0.0
 71
     1
 72
     1
  1
COMMENTS:
  7
SLDTEXTSTYLE0
  0
MTEXT
  5
A1
330
1F
100
AcDbEntity
  8
0
  6
CONTINUOUS
 62
     7
100
AcDbMText
 10
6.2268411461
 20
1.3536101679
 30
0.0
 40
0.065
 41
0.0
 71
     1
 72
     1
  1
Q.A.
  7
SLDTEXTSTYLE0
  0
MTEXT
  5
A2
330
1F
100
AcDbEntity
  8
0
  6
CONTINUOUS
 62
     7
100
AcDbMText
 10
6.2284654509
 20
1.5395328424
 30
0.0
 40
0.065
 41
0.0
 71
     1
 72
     1
  1
MFG APPR.
  7
SLDTEXTSTYLE0
  0
MTEXT
  5
A3
330
1F
100
AcDbEntity
  8
0
  6
CONTINUOUS
 62
     7
100
AcDbMText
 10
6.2235171344
 20
1.7267501785
 30
0.0
 40
0.065
 41
0.0
 71
     1
 72
     1
  1
ENG APPR.
  7
SLDTEXTSTYLE0
  0
MTEXT
  5
A4
330
1F
100
AcDbEntity
  8
0
  6
CONTINUOUS
 62
     7
100
AcDbMText
 10
6.2264103951
 20
1.9092699088
 30
0.0
 40
0.065
 41
0.0
 71
     1
 72
     1
  1
CHECKED
  7
SLDTEXTSTYLE0
  0
MTEXT
  5
A5
330
1F
100
AcDbEntity
  8
0
  6
CONTINUOUS
 62
     7
100
AcDbMText
 10
6.2242794356
 20
2.1016301232
 30
0.0
 40
0.065
 41
0.0
 71
     1
 72
     1
  1
DRAWN
  7
SLDTEXTSTYLE0
  0
MTEXT
  5
A6
330
1F
100
AcDbEntity
  8
0
  6
CONTINUOUS
 62
     7
100
AcDbMText
 10
4.8208600979
 20
0.834523235
 30
0.0
 40
0.06
 41
0.0
 71
     1
 72
     1
  1
FINISH
  7
SLDTEXTSTYLE0
  0
MTEXT
  5
A7
330
1F
100
AcDbEntity
  8
0
  6
CONTINUOUS
 62
     7
100
AcDbMText
 10
4.8181240648
 20
1.1028217587
 30
0.0
 40
0.06
 41
0.0
 71
     1
 72
     1
  1
MATERIAL
  7
SLDTEXTSTYLE0
  0
INSERT
  5
AD
330
1F
100
AcDbEntity
  8
0
  6
CONTINUOUS
 62
     7
100
AcDbBlockReference
  2
SW_NOTE_0
 10
4.8231926633
 20
1.2646542947
 30
0.0
  0
INSERT
  5
BD
330
1F
100
AcDbEntity
  8
0
  6
CONTINUOUS
 62
     7
100
AcDbBlockReference
  2
SW_NOTE_1
 10
4.8353339353
 20
2.0049168724
 30
0.0
  0
MTEXT
  5
BE
330
1F
100
AcDbEntity
  8
0
  6
CONTINUOUS
 62
     7
100
AcDbMText
 10
3.5531400086
 20
0.5200091997
 30
0.0
 40
0.0625
 41
0.0
 71
     1
 72
     1
  1
APPLICATION
  7
SLDTEXTSTYLE0
  0
MTEXT
  5
BF
330
1F
100
AcDbEntity
  8
0
  6
CONTINUOUS
 62
     7
100
AcDbMText
 10
4.1005607758
 20
0.7502454275
 30
0.0
 40
0.0625
 41
0.0
 71
     1
 72
     1
  1
USED ON
  7
SLDTEXTSTYLE0
  0
MTEXT
  5
C0
330
1F
100
AcDbEntity
  8
0
  6
CONTINUOUS
 62
     7
100
AcDbMText
 10
3.1040019536
 20
0.7492094783
 30
0.0
 40
0.0625
 41
0.0
 71
     1
 72
     1
  1
NEXT ASSY
  7
SLDTEXTSTYLE0
  0
MTEXT
  5
C1
330
1F
100
AcDbEntity
  8
0
  6
CONTINUOUS
 62
     7
100
AcDbMText
 10
1.3712489489
 20
1.2496672684
 30
0.0
 40
0.06
 41
0.0
 71
     1
 72
     1
  1
PROPRIETARY AND CONFIDENTIAL
  7
SLDTEXTSTYLE0
  0
INSERT
  5
CC
330
1F
100
AcDbEntity
  8
0
  6
CONTINUOUS
 62
     7
100
AcDbBlockReference
  2
SW_NOTE_2
 10
1.2226209074
 20
1.0313492921
 30
0.0
  0
MTEXT
  5
CD
330
1F
100
AcDbEntity
  8
0
  6
CONTINUOUS
 62
     7
100
AcDbMText
 10
1.7387909509
 20
0.3105864247
 30
0.0
 40
0.09375
 41
0.0
 71
     1
 72
     1
  1
5
  7
SLDTEXTSTYLE0
  0
MTEXT
  5
CE
330
1F
100
AcDbEntity
  8
0
  6
CONTINUOUS
 62
     7
100
AcDbMText
 10
3.723800327
 20
0.3137237518
 30
0.0
 40
0.09375
 41
0.0
 71
     1
 72
     1
  1
4
  7
SLDTEXTSTYLE0
  0
MTEXT
  5
CF
330
1F
100
AcDbEntity
  8
0
  6
CONTINUOUS
 62
     7
100
AcDbMText
 10
5.6324457277
 20
0.3116191842
 30
0.0
 40
0.09375
 41
0.0
 71
     1
 72
     1
  1
3
  7
SLDTEXTSTYLE0
  0
MTEXT
  5
D0
330
1F
100
AcDbEntity
  8
0
  6
CONTINUOUS
 62
     7
100
AcDbMText
 10
7.6059721724
 20
0.3124391351
 30
0.0
 40
0.09375
 41
0.0
 71
     1
 72
     1
  1
2
  7
SLDTEXTSTYLE0
  0
MTEXT
  5
D1
330
1F
100
AcDbEntity
  8
0
  6
CONTINUOUS
 62
     7
100
AcDbMText
 10
9.6619921328
 20
0.301372012
 30
0.0
 40
0.09375
 41
0.0
 71
     1
 72
     1
  1
1
  7
SLDTEXTSTYLE0
  0
LINE
  5
D2
330
1F
100
AcDbEntity
  8
0
  6
CONTINUOUS
 62
     7
100
AcDbLine
 10
2.6329746861
 20
3.2645837982
 30
0.0
 11
4.0202975207
 21
3.2645837982
 31
0.0
  0
LINE
  5
D3
330
1F
100
AcDbEntity
  8
0
  6
CONTINUOUS
 62
     7
100
AcDbLine
 10
2.8810389019
 20
4.2488357667
 30
0.0
 11
2.6329746861
 21
4.2488357667
 31
0.0
  0
LINE
  5
D4
330
1F
100
AcDbEntity
  8
0
  6
CONTINUOUS
 62
     7
100
AcDbLine
 10
3.5897003193
 20
4.2488357667
 30
0.0
 11
3.063571771
 21
4.2488357667
 31
0.0
  0
LINE
  5
D5
330
1F
100
AcDbEntity
  8
0
  6
CONTINUOUS
 62
     7
100
AcDbLine
 10
4.0202975207
 20
4.2488357667
 30
0.0
 11
3.7722331883
 21
4.2488357667
 31
0.0
  0
LINE
  5
D6
330
1F
100
AcDbEntity
  8
0
  6
CONTINUOUS
 62
     7
100
AcDbLine
 10
4.0202975207
 20
3.2645837982
 30
0.0
 11
4.0352975207
 21
3.2795837982
 31
0.0
  0
LINE
  5
D7
330
1F
100
AcDbEntity
  8
0
  6
CONTINUOUS
 62
     7
100
AcDbLine
 10
4.0352975207
 20
4.2338357667
 30
0.0
 11
4.0202975207
 21
4.2488357667
 31
0.0
  0
LINE
  5
D8
330
1F
100
AcDbEntity
  8
0
  6
CONTINUOUS
 62
     7
100
AcDbLine
 10
2.6329746861
 20
4.2488357667
 30
0.0
 11
2.6179746861
 21
4.2338357667
 31
0.0
  0
LINE
  5
D9
330
1F
100
AcDbEntity
  8
0
  6
CONTINUOUS
 62
     7
100
AcDbLine
 10
2.6179746861
 20
3.2795837982
 30
0.0
 11
2.6329746861
 21
3.2645837982
 31
0.0
  0
LINE
  5
DA
330
1F
100
AcDbEntity
  8
0
  6
CONTINUOUS
 62
     7
100
AcDbLine
 10
3.7530180023
 20
4.2455247339
 30
0.0
 11
3.7497069695
 21
4.2488357667
 31
0.0
  0
LINE
  5
DB
330
1F
100
AcDbEntity
  8
0
  6
CONTINUOUS
 62
     7
100
AcDbLine
 10
3.6122266546
 20
4.2488357667
 30
0.0
 11
3.6089170057
 21
4.2455261178
 31
0.0
  0
LINE
  5
DC
330
1F
100
AcDbEntity
  8
0
  6
CONTINUOUS
 62
     7
100
AcDbLine
 10
3.044356585
 20
4.2455247339
 30
0.0
 11
3.0410455522
 21
4.2488357667
 31
0.0
  0
LINE
  5
DD
330
1F
100
AcDbEntity
  8
0
  6
CONTINUOUS
 62
     7
100
AcDbLine
 10
2.9035652372
 20
4.2488357667
 30
0.0
 11
2.9002555884
 21
4.2455261178
 31
0.0
  0
LINE
  5
DE
330
1F
100
AcDbEntity
  8
0
  6
CONTINUOUS
 62
     7
100
AcDbLine
 10
4.0202975207
 20
3.2645837982
 30
0.0
 11
4.0202975207
 21
4.2488357667
 31
0.0
  0
LINE
  5
DF
330
1F
100
AcDbEntity
  8
0
  6
CONTINUOUS
 62
     7
100
AcDbLine
 10
2.6329746861
 20
4.2488357667
 30
0.0
 11
2.6329746861
 21
3.2645837982
 31
0.0
  0
POLYLINE
  5
E0
330
1F
100
AcDbEntity
  8
0
  6
CONTINUOUS
 62
     7
100
AcDb2dPolyline
 66
     1
 10
0.0
 20
0.0
 30
0.0
  0
VERTEX
  5
205
330
E0
100
AcDbEntity
  8
0
  6
CONTINUOUS
 62
     7
100
AcDbVertex
100
AcDb2dVertex
 10
3.7722331883
 20
4.2488357445
 30
0.0
  0
VERTEX
  5
206
330
E0
100
AcDbEntity
  8
0
  6
CONTINUOUS
 62
     7
100
AcDbVertex
100
AcDb2dVertex
 10
3.7722333048
 20
4.2488357667
 30
0.0
  0
VERTEX
  5
207
330
E0
100
AcDbEntity
  8
0
  6
CONTINUOUS
 62
     7
100
AcDbVertex
100
AcDb2dVertex
 10
3.7704712835
 20
4.2485009177
 30
0.0
  0
VERTEX
  5
208
330
E0
100
AcDbEntity
  8
0
  6
CONTINUOUS
 62
     7
100
AcDbVertex
100
AcDb2dVertex
 10
3.7651838831
 20
4.2475338841
 30
0.0
  0
VERTEX
  5
209
330
E0
100
AcDbEntity
  8
0
  6
CONTINUOUS
 62
     7
100
AcDbVertex
100
AcDb2dVertex
 10
3.7567536927
 20
4.2460863755
 30
0.0
  0
VERTEX
  5
20A
330
E0
100
AcDbEntity
  8
0
  6
CONTINUOUS
 62
     7
100
AcDbVertex
100
AcDb2dVertex
 10
3.7454714955
 20
4.2443901559
 30
0.0
  0
VERTEX
  5
20B
330
E0
100
AcDbEntity
  8
0
  6
CONTINUOUS
 62
     7
100
AcDbVertex
100
AcDb2dVertex
 10
3.7317304841
 20
4.2426948062
 30
0.0
  0
VERTEX
  5
20C
330
E0
100
AcDbEntity
  8
0
  6
CONTINUOUS
 62
     7
100
AcDbVertex
100
AcDb2dVertex
 10
3.7158576675
 20
4.2412436234
 30
0.0
  0
VERTEX
  5
20D
330
E0
100
AcDbEntity
  8
0
  6
CONTINUOUS
 62
     7
100
AcDbVertex
100
AcDb2dVertex
 10
3.6986420273
 20
4.2402561774
 30
0.0
  0
VERTEX
  5
20E
330
E0
100
AcDbEntity
  8
0
  6
CONTINUOUS
 62
     7
100
AcDbVertex
100
AcDb2dVertex
 10
3.6809253
 20
4.2399121499
 30
0.0
  0
VERTEX
  5
20F
330
E0
100
AcDbEntity
  8
0
  6
CONTINUOUS
 62
     7
100
AcDbVertex
100
AcDb2dVertex
 10
3.6632461915
 20
4.2402543587
 30
0.0
  0
VERTEX
  5
210
330
E0
100
AcDbEntity
  8
0
  6
CONTINUOUS
 62
     7
100
AcDbVertex
100
AcDb2dVertex
 10
3.6460064226
 20
4.2412455459
 30
0.0
  0
VERTEX
  5
211
330
E0
100
AcDbEntity
  8
0
  6
CONTINUOUS
 62
     7
100
AcDbVertex
100
AcDb2dVertex
 10
3.6301717153
 20
4.2426962955
 30
0.0
  0
VERTEX
  5
212
330
E0
100
AcDbEntity
  8
0
  6
CONTINUOUS
 62
     7
100
AcDbVertex
100
AcDb2dVertex
 10
3.6164356981
 20
4.2443938094
 30
0.0
  0
VERTEX
  5
213
330
E0
100
AcDbEntity
  8
0
  6
CONTINUOUS
 62
     7
100
AcDbVertex
100
AcDb2dVertex
 10
3.6051880764
 20
4.2460876913
 30
0.0
  0
VERTEX
  5
214
330
E0
100
AcDbEntity
  8
0
  6
CONTINUOUS
 62
     7
100
AcDbVertex
100
AcDb2dVertex
 10
3.5967517869
 20
4.2475375494
 30
0.0
  0
VERTEX
  5
215
330
E0
100
AcDbEntity
  8
0
  6
CONTINUOUS
 62
     7
100
AcDbVertex
100
AcDb2dVertex
 10
3.5914614464
 20
4.2485025278
 30
0.0
  0
VERTEX
  5
216
330
E0
100
AcDbEntity
  8
0
  6
CONTINUOUS
 62
     7
100
AcDbVertex
100
AcDb2dVertex
 10
3.5897003193
 20
4.2488357667
 30
0.0
  0
VERTEX
  5
217
330
E0
100
AcDbEntity
  8
0
  6
CONTINUOUS
 62
     7
100
AcDbVertex
100
AcDb2dVertex
 10
3.5897003193
 20
4.2488357667
 30
0.0
  0
SEQEND
  5
218
330
E0
100
AcDbEntity
  8
0
  6
CONTINUOUS
 62
     7
  0
POLYLINE
  5
E1
330
1F
100
AcDbEntity
  8
0
  6
CONTINUOUS
 62
     7
100
AcDb2dPolyline
 66
     1
 10
0.0
 20
0.0
 30
0.0
  0
VERTEX
  5
219
330
E1
100
AcDbEntity
  8
0
  6
CONTINUOUS
 62
     7
100
AcDbVertex
100
AcDb2dVertex
 10
3.063571771
 20
4.2488357445
 30
0.0
  0
VERTEX
  5
21A
330
E1
100
AcDbEntity
  8
0
  6
CONTINUOUS
 62
     7
100
AcDbVertex
100
AcDb2dVertex
 10
3.0635718875
 20
4.2488357667
 30
0.0
  0
VERTEX
  5
21B
330
E1
100
AcDbEntity
  8
0
  6
CONTINUOUS
 62
     7
100
AcDbVertex
100
AcDb2dVertex
 10
3.0618098662
 20
4.2485009177
 30
0.0
  0
VERTEX
  5
21C
330
E1
100
AcDbEntity
  8
0
  6
CONTINUOUS
 62
     7
100
AcDbVertex
100
AcDb2dVertex
 10
3.0565224658
 20
4.2475338841
 30
0.0
  0
VERTEX
  5
21D
330
E1
100
AcDbEntity
  8
0
  6
CONTINUOUS
 62
     7
100
AcDbVertex
100
AcDb2dVertex
 10
3.0480922754
 20
4.2460863755
 30
0.0
  0
VERTEX
  5
21E
330
E1
100
AcDbEntity
  8
0
  6
CONTINUOUS
 62
     7
100
AcDbVertex
100
AcDb2dVertex
 10
3.0368100782
 20
4.2443901559
 30
0.0
  0
VERTEX
  5
21F
330
E1
100
AcDbEntity
  8
0
  6
CONTINUOUS
 62
     7
100
AcDbVertex
100
AcDb2dVertex
 10
3.0230690668
 20
4.2426948062
 30
0.0
  0
VERTEX
  5
220
330
E1
100
AcDbEntity
  8
0
  6
CONTINUOUS
 62
     7
100
AcDbVertex
100
AcDb2dVertex
 10
3.0071962502
 20
4.2412436234
 30
0.0
  0
VERTEX
  5
221
330
E1
100
AcDbEntity
  8
0
  6
CONTINUOUS
 62
     7
100
AcDbVertex
100
AcDb2dVertex
 10
2.98998061
 20
4.2402561774
 30
0.0
  0
VERTEX
  5
222
330
E1
100
AcDbEntity
  8
0
  6
CONTINUOUS
 62
     7
100
AcDbVertex
100
AcDb2dVertex
 10
2.9722638827
 20
4.2399121499
 30
0.0
  0
VERTEX
  5
223
330
E1
100
AcDbEntity
  8
0
  6
CONTINUOUS
 62
     7
100
AcDbVertex
100
AcDb2dVertex
 10
2.9545847742
 20
4.2402543587
 30
0.0
  0
VERTEX
  5
224
330
E1
100
AcDbEntity
  8
0
  6
CONTINUOUS
 62
     7
100
AcDbVertex
100
AcDb2dVertex
 10
2.9373450053
 20
4.2412455459
 30
0.0
  0
VERTEX
  5
225
330
E1
100
AcDbEntity
  8
0
  6
CONTINUOUS
 62
     7
100
AcDbVertex
100
AcDb2dVertex
 10
2.9215102979
 20
4.2426962955
 30
0.0
  0
VERTEX
  5
226
330
E1
100
AcDbEntity
  8
0
  6
CONTINUOUS
 62
     7
100
AcDbVertex
100
AcDb2dVertex
 10
2.9077742808
 20
4.2443938094
 30
0.0
  0
VERTEX
  5
227
330
E1
100
AcDbEntity
  8
0
  6
CONTINUOUS
 62
     7
100
AcDbVertex
100
AcDb2dVertex
 10
2.8965266591
 20
4.2460876913
 30
0.0
  0
VERTEX
  5
228
330
E1
100
AcDbEntity
  8
0
  6
CONTINUOUS
 62
     7
100
AcDbVertex
100
AcDb2dVertex
 10
2.8880903695
 20
4.2475375494
 30
0.0
  0
VERTEX
  5
229
330
E1
100
AcDbEntity
  8
0
  6
CONTINUOUS
 62
     7
100
AcDbVertex
100
AcDb2dVertex
 10
2.8828000291
 20
4.2485025278
 30
0.0
  0
VERTEX
  5
22A
330
E1
100
AcDbEntity
  8
0
  6
CONTINUOUS
 62
     7
100
AcDbVertex
100
AcDb2dVertex
 10
2.8810389019
 20
4.2488357667
 30
0.0
  0
VERTEX
  5
22B
330
E1
100
AcDbEntity
  8
0
  6
CONTINUOUS
 62
     7
100
AcDbVertex
100
AcDb2dVertex
 10
2.8810389019
 20
4.2488357667
 30
0.0
  0
SEQEND
  5
22C
330
E1
100
AcDbEntity
  8
0
  6
CONTINUOUS
 62
     7
  0
LINE
  5
E2
330
1F
100
AcDbEntity
  8
0
  6
CONTINUOUS
 62
     7
100
AcDbLine
 10
4.0352975207
 20
4.2338357667
 30
0.0
 11
4.0352975207
 21
3.2795837982
 31
0.0
  0
LINE
  5
E3
330
1F
100
AcDbEntity
  8
0
  6
CONTINUOUS
 62
     7
100
AcDbLine
 10
2.6179746861
 20
3.2795837982
 30
0.0
 11
2.6179746861
 21
4.2338357667
 31
0.0
  0
LINE
  5
E4
330
1F
100
AcDbEntity
  8
0
  6
CONTINUOUS
 62
     7
100
AcDbLine
 10
3.6122266546
 20
4.2488357667
 30
0.0
 11
3.7497069695
 21
4.2488357667
 31
0.0
  0
LINE
  5
E5
330
1F
100
AcDbEntity
  8
0
  6
CONTINUOUS
 62
     7
100
AcDbLine
 10
3.0410455522
 20
4.2488357667
 30
0.0
 11
2.9035652372
 21
4.2488357667
 31
0.0
  0
SPLINE
  5
E6
330
1F
100
AcDbEntity
  8
0
  6
HIDDEN
 62
     7
100
AcDbSpline
210
0.0
220
0.0
230
1.0
 70
     8
 71
     3
 72
    12
 73
     8
 74
     0
 42
0.00000001
 43
0.00000001
 40
0.0
 40
0.0
 40
0.0
 40
0.0
 40
0.0001601014040577
 40
0.2476661003813589
 40
0.498284460122246
 40
0.7501289962530149
 40
1.0
 40
1.0
 40
1.0
 40
1.0
 10
3.74548244955662
 20
4.244391802739618
 30
0.0
 10
3.745485425541563
 20
4.24439216982594
 30
0.0
 10
3.750089074022917
 20
4.244960027669482
 30
0.0
 10
3.757133031785104
 20
4.246147313632549
 30
0.0
 10
3.76573462559567
 20
4.247610578207293
 30
0.0
 10
3.771205812166581
 20
4.248636696119348
 30
0.0
 10
3.771891628842295
 20
4.248769569266916
 30
0.0
 10
3.772233188326757
 20
4.248835744507893
 30
0.0
  0
SPLINE
  5
E7
330
1F
100
AcDbEntity
  8
0
  6
HIDDEN
 62
     7
100
AcDbSpline
210
0.0
220
0.0
230
1.0
 70
     8
 71
     3
 72
    39
 73
    35
 74
     0
 42
0.00000001
 43
0.00000001
 40
-0.0947295368803794
 40
-0.0631220562492623
 40
-0.0313700572328809
 40
0.0
 40
0.031385766847338
 40
0.0631300926508312
 40
0.0947107913187887
 40
0.1258915232101508
 40
0.1569025400536299
 40
0.1880875961666516
 40
0.2192248879166556
 40
0.2499114061504761
 40
0.2805814827738819
 40
0.3117983423887312
 40
0.3430159418755738
 40
0.3740900329697678
 40
0.4052589495814929
 40
0.4368198118972476
 40
0.4685350890145328
 40
0.500003918499833
 40
0.5314470500523771
 40
0.5632087383002624
 40
0.5947532424805588
 40
0.6259576707116007
 40
0.6569904382089249
 40
0.6882209229808259
 40
0.7193642321976387
 40
0.7500710465313416
 40
0.7807116163386012
 40
0.8119054237466138
 40
0.8430770819441461
 40
0.8741231018598041
 40
0.9052704631196206
 40
0.9368779437507377
 40
0.9686299427671191
 40
1.0
 40
1.031385766847338
 40
1.063130092650831
 40
1.094710791318789
 10
3.590880551694605
 20
3.775013073226965
 30
0.0
 10
3.589112668020054
 20
3.756706554234806
 30
0.0
 10
3.590884561767569
 20
3.738402637711715
 30
0.0
 10
3.596220453365028
 20
3.720794615988433
 30
0.0
 10
3.604632126675995
 20
3.704516150965949
 30
0.0
 10
3.615996992400661
 20
3.690345372024923
 30
0.0
 10
3.62984219343209
 20
3.678701470905725
 30
0.0
 10
3.645765284197678
 20
3.670094226477778
 30
0.0
 10
3.662992269280442
 20
3.664628430741799
 30
0.0
 10
3.680911125406412
 20
3.662817057686456
 30
0.0
 10
3.698844899477398
 20
3.664627689298984
 30
0.0
 10
3.716092721493052
 20
3.670087544837952
 30
0.0
 10
3.732057151758817
 20
3.678689849876857
 30
0.0
 10
3.745924955791526
 20
3.690333314740112
 30
0.0
 10
3.757307075255782
 20
3.704497580554143
 30
0.0
 10
3.765727059582026
 20
3.720759481022954
 30
0.0
 10
3.771059930287646
 20
3.738376441683583
 30
0.0
 10
3.77281865604834
 20
3.756706142497674
 30
0.0
 10
3.771054763522667
 20
3.775044021778387
 30
0.0
 10
3.765719232519208
 20
3.792661205388254
 30
0.0
 10
3.757294581875062
 20
3.808934479863855
 30
0.0
 10
3.745915397051797
 20
3.823096151531892
 30
0.0
 10
3.732046797264858
 20
3.834739957351776
 30
0.0
 10
3.716099869632678
 20
3.843334486419843
 30
0.0
 10
3.698855460463649
 20
3.848787789632423
 30
0.0
 10
3.680938454635379
 20
3.850602046301594
 30
0.0
 10
3.663009728145748
 20
3.848797248611895
 30
0.0
 10
3.64578286120402
 20
3.843331343885596
 30
0.0
 10
3.629843914750691
 20
3.83472224772444
 30
0.0
 10
3.6160007479084
 20
3.823078373899486
 30
0.0
 10
3.604634579884897
 20
3.808901855289233
 30
0.0
 10
3.596225659555047
 20
3.792622141043221
 30
0.0
 10
3.590880551694605
 20
3.775013073226965
 30
0.0
 10
3.589112668020054
 20
3.756706554234806
 30
0.0
 10
3.590884561767569
 20
3.738402637711715
 30
0.0
  0
SPLINE
  5
E8
330
1F
100
AcDbEntity
  8
0
  6
HIDDEN
 62
     7
100
AcDbSpline
210
0.0
220
0.0
230
1.0
 70
     8
 71
     3
 72
    39
 73
    35
 74
     0
 42
0.00000001
 43
0.00000001
 40
-0.0947295368804915
 40
-0.0631220562492617
 40
-0.0313700572328813
 40
0.0
 40
0.0313857668474338
 40
0.0631300926508343
 40
0.0947107913188282
 40
0.1258915232101486
 40
0.1569025400535753
 40
0.1880875961666515
 40
0.2192248879166553
 40
0.2499114061504758
 40
0.2805814827737911
 40
0.311798342388727
 40
0.3430159418753661
 40
0.3740900329697629
 40
0.4052589495812267
 40
0.4368198118972416
 40
0.4685350890145399
 40
0.5000039184998379
 40
0.5314470500524575
 40
0.5632087383002591
 40
0.5947532424804853
 40
0.6259576707116009
 40
0.6569904382086349
 40
0.6882209229808142
 40
0.7193642321973537
 40
0.7500710465313414
 40
0.7807116163387215
 40
0.8119054237466188
 40
0.8430770819441598
 40
0.8741231018598006
 40
0.9052704631195085
 40
0.9368779437507383
 40
0.9686299427671187
 40
1.0
 40
1.031385766847434
 40
1.063130092650834
 40
1.094710791318828
 10
2.882219134371768
 20
3.775013073226966
 30
0.0
 10
2.880451250697222
 20
3.756706554234788
 30
0.0
 10
2.882223144444721
 20
3.738402637711695
 30
0.0
 10
2.887559036042202
 20
3.720794615988408
 30
0.0
 10
2.895970709353186
 20
3.704516150965957
 30
0.0
 10
2.907335575077821
 20
3.690345372024923
 30
0.0
 10
2.921180776109241
 20
3.678701470905723
 30
0.0
 10
2.937103866874834
 20
3.670094226477782
 30
0.0
 10
2.954330851957606
 20
3.664628430741799
 30
0.0
 10
2.97224970808356
 20
3.662817057686452
 30
0.0
 10
2.990183482154541
 20
3.664627689298997
 30
0.0
 10
3.007431304170166
 20
3.670087544837926
 30
0.0
 10
3.023395734435946
 20
3.678689849876839
 30
0.0
 10
3.037263538468629
 20
3.690333314740047
 30
0.0
 10
3.048645657932918
 20
3.704497580554101
 30
0.0
 10
3.057065642259166
 20
3.720759481022911
 30
0.0
 10
3.062398512964865
 20
3.738376441683573
 30
0.0
 10
3.064157238725503
 20
3.756706142497693
 30
0.0
 10
3.062393346199791
 20
3.775044021778394
 30
0.0
 10
3.057057815196377
 20
3.792661205388257
 30
0.0
 10
3.048633164552242
 20
3.808934479863848
 30
0.0
 10
3.037253979729015
 20
3.823096151531848
 30
0.0
 10
3.02338537994204
 20
3.834739957351703
 30
0.0
 10
3.007438452309945
 20
3.8433344864198
 30
0.0
 10
2.99019404314088
 20
3.848787789632466
 30
0.0
 10
2.972277037312575
 20
3.850602046301584
 30
0.0
 10
2.954348310822887
 20
3.848797248611916
 30
0.0
 10
2.937121443881159
 20
3.843331343885589
 30
0.0
 10
2.921182497427878
 20
3.834722247724405
 30
0.0
 10
2.907339330585575
 20
3.823078373899503
 30
0.0
 10
2.895973162562057
 20
3.808901855289261
 30
0.0
 10
2.887564242232223
 20
3.79262214104324
 30
0.0
 10
2.882219134371768
 20
3.775013073226966
 30
0.0
 10
2.880451250697222
 20
3.756706554234788
 30
0.0
 10
2.882223144444721
 20
3.738402637711695
 30
0.0
  0
LINE
  5
E9
330
1F
100
AcDbEntity
  8
0
  6
HIDDEN
 62
     7
100
AcDbLine
 10
3.3766361034
 20
3.9291900974
 30
0.0
 11
3.3766361034
 21
3.5842294675
 31
0.0
  0
LINE
  5
EA
330
1F
100
AcDbEntity
  8
0
  6
HIDDEN
 62
     7
100
AcDbLine
 10
3.2766361034
 20
3.9291900974
 30
0.0
 11
3.2766361034
 21
3.5842294675
 31
0.0
  0
SPLINE
  5
EB
330
1F
100
AcDbEntity
  8
0
  6
HIDDEN
 62
     7
100
AcDbSpline
210
0.0
220
0.0
230
1.0
 70
     8
 71
     3
 72
    62
 73
    58
 74
     0
 42
0.00000001
 43
0.00000001
 40
-0.0312500000000003
 40
-0.0312500000000003
 40
0.0
 40
0.0
 40
0.0312499999999998
 40
0.0312499999999998
 40
0.0624999999999997
 40
0.0624999999999997
 40
0.1249999999999993
 40
0.1249999999999993
 40
0.187499999999999
 40
0.187499999999999
 40
0.2187499999999988
 40
0.2187499999999988
 40
0.2499999999999986
 40
0.2499999999999986
 40
0.2812499999999984
 40
0.2812499999999984
 40
0.3124999999999983
 40
0.3124999999999983
 40
0.3437499999999981
 40
0.3437499999999981
 40
0.3749999999999981
 40
0.3749999999999981
 40
0.4374999999999981
 40
0.4374999999999981
 40
0.4687499999999982
 40
0.4687499999999982
 40
0.4999999999999982
 40
0.4999999999999982
 40
0.5312499999999982
 40
0.5312499999999982
 40
0.5624999999999983
 40
0.5624999999999983
 40
0.5937499999999983
 40
0.5937499999999983
 40
0.6249999999999984
 40
0.6249999999999984
 40
0.6562499999999984
 40
0.6562499999999984
 40
0.6874999999999986
 40
0.6874999999999986
 40
0.7187499999999986
 40
0.7187499999999986
 40
0.7499999999999987
 40
0.7499999999999987
 40
0.7812499999999987
 40
0.7812499999999987
 40
0.8124999999999988
 40
0.8124999999999988
 40
0.8749999999999989
 40
0.8749999999999989
 40
0.9062499999999991
 40
0.9062499999999991
 40
0.9374999999999994
 40
0.9374999999999994
 40
0.9687499999999997
 40
0.9687499999999997
 40
1.0
 40
1.0
 40
1.03125
 40
1.03125
 10
2.89356523724282
 20
3.762004198296554
 30
0.0
 10
2.89356523724282
 20
3.751415366613525
 30
0.0
 10
2.89409365335146
 20
3.746225515697328
 30
0.0
 10
2.896148826869168
 20
3.736041606179887
 30
0.0
 10
2.897703854931914
 20
3.730996514248167
 30
0.0
 10
2.903684510415327
 20
3.716742487811307
 30
0.0
 10
2.909516029063069
 20
3.708137146579018
 30
0.0
 10
2.923790998731871
 20
3.693875406691921
 30
0.0
 10
2.93237438939091
 20
3.688080960446435
 30
0.0
 10
2.946502529454015
 20
3.682142218841864
 30
0.0
 10
2.951532764566726
 20
3.680581364579163
 30
0.0
 10
2.961721841418255
 20
3.678511147100311
 30
0.0
 10
2.966885082990421
 20
3.677982179727236
 30
0.0
 10
2.97735459269088
 20
3.677957507501048
 30
0.0
 10
2.982660805445577
 20
3.678480911533064
 30
0.0
 10
2.992847050644808
 20
3.680519027445306
 30
0.0
 10
2.997843054539572
 20
3.682047077075221
 30
0.0
 10
3.00737768967735
 20
3.686022967770982
 30
0.0
 10
3.011862220193129
 20
3.688437090158533
 30
0.0
 10
3.020320244726074
 20
3.694096068830369
 30
0.0
 10
3.024288991900188
 20
3.697353235367787
 30
0.0
 10
3.035019769897424
 20
3.708038988576438
 30
0.0
 10
3.040872553312612
 20
3.716667148531363
 30
0.0
 10
3.046843265205252
 20
3.730819009848671
 30
0.0
 10
3.048401139140112
 20
3.735805710450581
 30
0.0
 10
3.050501950704598
 20
3.74608710965676
 30
0.0
 10
3.051030757601026
 20
3.751268804820861
 30
0.0
 10
3.051059740539344
 20
3.761713782148509
 30
0.0
 10
3.050539948226335
 20
3.767031248442524
 30
0.0
 10
3.048496901516508
 20
3.777253207547542
 30
0.0
 10
3.046984188606151
 20
3.782208398484269
 30
0.0
 10
3.042978189755291
 20
3.791816159618895
 30
0.0
 10
3.040539559444248
 20
3.796333244558861
 30
0.0
 10
3.034870290077247
 20
3.80478840404104
 30
0.0
 10
3.031597194790689
 20
3.808768906779495
 30
0.0
 10
3.024438188733161
 20
3.815936818252791
 30
0.0
 10
3.020548649061825
 20
3.819147678842266
 30
0.0
 10
3.012111431328077
 20
3.824837470983681
 30
0.0
 10
3.007558034052774
 20
3.82730269589523
 30
0.0
 10
2.998141272263622
 20
3.831265905204233
 30
0.0
 10
2.993232123226231
 20
3.832799049019657
 30
0.0
 10
2.982958563344695
 20
3.834901946068181
 30
0.0
 10
2.977711769827945
 20
3.8354368417247
 30
0.0
 10
2.967287531216996
 20
3.835462558906771
 30
0.0
 10
2.962001592598138
 20
3.834948022998425
 30
0.0
 10
2.951739772861721
 20
3.832896696154239
 30
0.0
 10
2.946798589153302
 20
3.831382974260663
 30
0.0
 10
2.932496506075018
 20
3.825426199735005
 30
0.0
 10
2.923920102351121
 20
3.819656866015614
 30
0.0
 10
2.913114447921315
 20
3.808885534279038
 30
0.0
 10
2.909895563887217
 20
3.804989082811679
 30
0.0
 10
2.904203342734943
 20
3.796559353881742
 30
0.0
 10
2.901713506060986
 20
3.791970113087253
 30
0.0
 10
2.897723985051335
 20
3.782480288708299
 30
0.0
 10
2.896195717290095
 20
3.777556434328251
 30
0.0
 10
2.894109725569
 20
3.767325959677621
 30
0.0
 10
2.89356523724282
 20
3.762004198296554
 30
0.0
 10
2.89356523724282
 20
3.751415366613525
 30
0.0
  0
SPLINE
  5
EC
330
1F
100
AcDbEntity
  8
0
  6
HIDDEN
 62
     7
100
AcDbSpline
210
0.0
220
0.0
230
1.0
 70
     8
 71
     3
 72
    28
 73
    24
 74
     0
 42
0.00000001
 43
0.00000001
 40
0.0
 40
0.0
 40
0.0
 40
0.0
 40
0.0184898602065783
 40
0.065577063952041
 40
0.1140011750849517
 40
0.1618454724580076
 40
0.2108549361628239
 40
0.2632189466429489
 40
0.3169234888333592
 40
0.3723802877283467
 40
0.4297114260333141
 40
0.4806581176169136
 40
0.5334705992581453
 40
0.579056502849798
 40
0.62586208054119
 40
0.673668412666407
 40
0.7225731862006863
 40
0.7763123147261348
 40
0.8315213521678332
 40
0.8864587683783142
 40
0.9433141856643241
 40
0.9932196332439275
 40
1.0
 40
1.0
 40
1.0
 40
1.0
 10
3.050787400072457
 20
3.914061245593187
 30
0.0
 10
3.050858722001163
 20
3.914096829122208
 30
0.0
 10
3.051111675924433
 20
3.914223031447818
 30
0.0
 10
3.049513793283734
 20
3.913424772020382
 30
0.0
 10
3.046240223806969
 20
3.911829099108931
 30
0.0
 10
3.041119960920512
 20
3.909439639959972
 30
0.0
 10
3.034344562356258
 20
3.906486288018246
 30
0.0
 10
3.025782490905852
 20
3.903112895449742
 30
0.0
 10
3.015413714153253
 20
3.89961065840443
 30
0.0
 10
3.003383112753902
 20
3.896401314327422
 30
0.0
 10
2.990439164947236
 20
3.894081558311585
 30
0.0
 10
2.977046978068631
 20
3.892963957278337
 30
0.0
 10
2.964450418611631
 20
3.893131595603757
 30
0.0
 10
2.952487273387537
 20
3.894375588120152
 30
0.0
 10
2.941475855115925
 20
3.896400886863495
 30
0.0
 10
2.931007039026591
 20
3.899098195121443
 30
0.0
 10
2.921076126519411
 20
3.902303856105543
 30
0.0
 10
2.911977248618703
 20
3.905770142381403
 30
0.0
 10
2.904209789487039
 20
3.909105178628983
 30
0.0
 10
2.898180008610269
 20
3.911915446878135
 30
0.0
 10
2.894729755638819
 20
3.913606731725546
 30
0.0
 10
2.893318054506178
 20
3.914313247025642
 30
0.0
 10
2.893647716417902
 20
3.914148993188941
 30
0.0
 10
2.893687148305636
 20
3.914129346276094
 30
0.0
  0
SPLINE
  5
ED
330
1F
100
AcDbEntity
  8
0
  6
HIDDEN
 62
     7
100
AcDbSpline
210
0.0
220
0.0
230
1.0
 70
     8
 71
     3
 72
    28
 73
    24
 74
     0
 42
0.00000001
 43
0.00000001
 40
0.0
 40
0.0
 40
0.0
 40
0.0
 40
0.0184898602065782
 40
0.0655770639520409
 40
0.1140011750849516
 40
0.1618454724580076
 40
0.2108549361628239
 40
0.2632189466429491
 40
0.3169234888333592
 40
0.3723802877283467
 40
0.4297114260333139
 40
0.4806581176169131
 40
0.5334705992581449
 40
0.5790565028497978
 40
0.6258620805411897
 40
0.6736684126664068
 40
0.7225731862006862
 40
0.7763123147261347
 40
0.8315213521678333
 40
0.8864587683783143
 40
0.9433141856643245
 40
0.9932196332439278
 40
1.0
 40
1.0
 40
1.0
 40
1.0
 10
3.759448817395292
 20
3.914061245593187
 30
0.0
 10
3.759520139323998
 20
3.914096829122208
 30
0.0
 10
3.759773093247267
 20
3.914223031447818
 30
0.0
 10
3.758175210606568
 20
3.913424772020382
 30
0.0
 10
3.754901641129804
 20
3.911829099108931
 30
0.0
 10
3.749781378243347
 20
3.909439639959972
 30
0.0
 10
3.743005979679093
 20
3.906486288018246
 30
0.0
 10
3.734443908228687
 20
3.903112895449742
 30
0.0
 10
3.724075131476087
 20
3.89961065840443
 30
0.0
 10
3.712044530076737
 20
3.896401314327422
 30
0.0
 10
3.69910058227007
 20
3.894081558311586
 30
0.0
 10
3.685708395391466
 20
3.892963957278337
 30
0.0
 10
3.673111835934466
 20
3.893131595603757
 30
0.0
 10
3.661148690710371
 20
3.894375588120152
 30
0.0
 10
3.65013727243876
 20
3.896400886863494
 30
0.0
 10
3.639668456349425
 20
3.899098195121443
 30
0.0
 10
3.629737543842246
 20
3.902303856105543
 30
0.0
 10
3.620638665941537
 20
3.905770142381403
 30
0.0
 10
3.612871206809873
 20
3.909105178628983
 30
0.0
 10
3.606841425933104
 20
3.911915446878135
 30
0.0
 10
3.603391172961655
 20
3.913606731725546
 30
0.0
 10
3.601979471829013
 20
3.914313247025642
 30
0.0
 10
3.602309133740736
 20
3.914148993188941
 30
0.0
 10
3.60234856562847
 20
3.914129346276094
 30
0.0
  0
SPLINE
  5
EE
330
1F
100
AcDbEntity
  8
0
  6
HIDDEN
 62
     7
100
AcDbSpline
210
0.0
220
0.0
230
1.0
 70
     8
 71
     3
 72
    62
 73
    58
 74
     0
 42
0.00000001
 43
0.00000001
 40
-0.0312499999999998
 40
-0.0312499999999998
 40
0.0
 40
0.0
 40
0.0312500000000001
 40
0.0312500000000001
 40
0.0625000000000002
 40
0.0625000000000002
 40
0.1250000000000003
 40
0.1250000000000003
 40
0.1875000000000005
 40
0.1875000000000005
 40
0.2187500000000006
 40
0.2187500000000006
 40
0.2500000000000006
 40
0.2500000000000006
 40
0.2812500000000007
 40
0.2812500000000007
 40
0.3125000000000008
 40
0.3125000000000008
 40
0.3437500000000008
 40
0.3437500000000008
 40
0.3750000000000009
 40
0.3750000000000009
 40
0.4375000000000011
 40
0.4375000000000011
 40
0.4687500000000011
 40
0.4687500000000011
 40
0.500000000000001
 40
0.500000000000001
 40
0.531250000000001
 40
0.531250000000001
 40
0.5625000000000009
 40
0.5625000000000009
 40
0.5937500000000009
 40
0.5937500000000009
 40
0.6250000000000009
 40
0.6250000000000009
 40
0.6562500000000009
 40
0.6562500000000009
 40
0.6875000000000008
 40
0.6875000000000008
 40
0.7187500000000008
 40
0.7187500000000008
 40
0.7500000000000008
 40
0.7500000000000008
 40
0.7812500000000008
 40
0.7812500000000008
 40
0.8125000000000007
 40
0.8125000000000007
 40
0.8750000000000007
 40
0.8750000000000007
 40
0.9062500000000006
 40
0.9062500000000006
 40
0.9375000000000003
 40
0.9375000000000003
 40
0.9687500000000002
 40
0.9687500000000002
 40
1.0
 40
1.0
 40
1.03125
 40
1.03125
 10
3.602226654565655
 20
3.762004198296554
 30
0.0
 10
3.602226654565654
 20
3.751415366613525
 30
0.0
 10
3.602755070674295
 20
3.746225515697328
 30
0.0
 10
3.604810244192003
 20
3.736041606179887
 30
0.0
 10
3.606365272254749
 20
3.730996514248167
 30
0.0
 10
3.612345927738162
 20
3.716742487811307
 30
0.0
 10
3.618177446385905
 20
3.708137146579018
 30
0.0
 10
3.632452416054706
 20
3.693875406691921
 30
0.0
 10
3.641035806713744
 20
3.688080960446435
 30
0.0
 10
3.65516394677685
 20
3.682142218841864
 30
0.0
 10
3.660194181889561
 20
3.680581364579163
 30
0.0
 10
3.67038325874109
 20
3.678511147100311
 30
0.0
 10
3.675546500313255
 20
3.677982179727236
 30
0.0
 10
3.686016010013715
 20
3.677957507501048
 30
0.0
 10
3.691322222768412
 20
3.678480911533064
 30
0.0
 10
3.701508467967642
 20
3.680519027445306
 30
0.0
 10
3.706504471862408
 20
3.682047077075221
 30
0.0
 10
3.716039107000185
 20
3.686022967770982
 30
0.0
 10
3.720523637515964
 20
3.688437090158533
 30
0.0
 10
3.728981662048909
 20
3.694096068830369
 30
0.0
 10
3.732950409223022
 20
3.697353235367786
 30
0.0
 10
3.743681187220258
 20
3.708038988576438
 30
0.0
 10
3.749533970635447
 20
3.716667148531363
 30
0.0
 10
3.755504682528087
 20
3.730819009848671
 30
0.0
 10
3.757062556462946
 20
3.735805710450581
 30
0.0
 10
3.759163368027433
 20
3.74608710965676
 30
0.0
 10
3.759692174923861
 20
3.751268804820861
 30
0.0
 10
3.759721157862178
 20
3.761713782148509
 30
0.0
 10
3.75920136554917
 20
3.767031248442524
 30
0.0
 10
3.757158318839343
 20
3.777253207547542
 30
0.0
 10
3.755645605928986
 20
3.782208398484269
 30
0.0
 10
3.751639607078125
 20
3.791816159618895
 30
0.0
 10
3.749200976767082
 20
3.796333244558861
 30
0.0
 10
3.743531707400082
 20
3.80478840404104
 30
0.0
 10
3.740258612113524
 20
3.808768906779495
 30
0.0
 10
3.733099606055995
 20
3.815936818252791
 30
0.0
 10
3.72921006638466
 20
3.819147678842265
 30
0.0
 10
3.720772848650912
 20
3.824837470983681
 30
0.0
 10
3.716219451375609
 20
3.82730269589523
 30
0.0
 10
3.706802689586457
 20
3.831265905204233
 30
0.0
 10
3.701893540549066
 20
3.832799049019657
 30
0.0
 10
3.69161998066753
 20
3.834901946068181
 30
0.0
 10
3.68637318715078
 20
3.8354368417247
 30
0.0
 10
3.675948948539831
 20
3.83546255890677
 30
0.0
 10
3.670663009920973
 20
3.834948022998425
 30
0.0
 10
3.660401190184556
 20
3.832896696154238
 30
0.0
 10
3.655460006476137
 20
3.831382974260663
 30
0.0
 10
3.641157923397853
 20
3.825426199735005
 30
0.0
 10
3.632581519673956
 20
3.819656866015614
 30
0.0
 10
3.621775865244151
 20
3.808885534279038
 30
0.0
 10
3.618556981210053
 20
3.804989082811679
 30
0.0
 10
3.612864760057777
 20
3.796559353881742
 30
0.0
 10
3.610374923383822
 20
3.791970113087253
 30
0.0
 10
3.606385402374169
 20
3.782480288708299
 30
0.0
 10
3.604857134612931
 20
3.777556434328251
 30
0.0
 10
3.602771142891835
 20
3.767325959677621
 30
0.0
 10
3.602226654565655
 20
3.762004198296554
 30
0.0
 10
3.602226654565654
 20
3.751415366613525
 30
0.0
  0
SPLINE
  5
EF
330
1F
100
AcDbEntity
  8
0
  6
HIDDEN
 62
     7
100
AcDbSpline
210
0.0
220
0.0
230
1.0
 70
     8
 71
     3
 72
    24
 73
    20
 74
     0
 42
0.00000001
 43
0.00000001
 40
0.0
 40
0.0
 40
0.0
 40
0.0
 40
0.0510099439634977
 40
0.1096541447767609
 40
0.175978152763354
 40
0.2500097316493708
 40
0.3245916498792209
 40
0.3910709005142043
 40
0.4494734875105084
 40
0.4998441112733643
 40
0.5502563292154777
 40
0.6086989294454009
 40
0.6752165872295542
 40
0.7498353011545266
 40
0.8240036467084167
 40
0.8903943550897604
 40
0.9490348677126114
 40
0.9999705574185358
 40
1.0
 40
1.0
 40
1.0
 40
1.0
 10
2.89356523724282
 20
4.23814929809337
 30
0.0
 10
2.893763295132591
 20
4.238088891396778
 30
0.0
 10
2.89418905267772
 20
4.237959037408734
 30
0.0
 10
2.897979489931134
 20
4.237070355203308
 30
0.0
 10
2.905098362585052
 20
4.235718142068892
 30
0.0
 10
2.916160845833477
 20
4.233798697740871
 30
0.0
 10
2.930139732939584
 20
4.231878946523401
 30
0.0
 10
2.945045873537047
 20
4.230499545688371
 30
0.0
 10
2.959117823307019
 20
4.229644895839431
 30
0.0
 10
2.972272881620047
 20
4.229315222503219
 30
0.0
 10
2.985432106451106
 20
4.229644179045802
 30
0.0
 10
2.999517000398412
 20
4.230498048522731
 30
0.0
 10
3.014433803495625
 20
4.231875847912923
 30
0.0
 10
3.02844229389076
 20
4.233798235125308
 30
0.0
 10
3.039482472692093
 20
4.235707798722627
 30
0.0
 10
3.046728752603024
 20
4.237095874170213
 30
0.0
 10
3.050137599760958
 20
4.237878756488436
 30
0.0
 10
3.05138189462963
 20
4.238239700540173
 30
0.0
 10
3.051045163442841
 20
4.238149193606352
 30
0.0
 10
3.051044968913073
 20
4.238149141320453
 30
0.0
  0
SPLINE
  5
F0
330
1F
100
AcDbEntity
  8
0
  6
HIDDEN
 62
     7
100
AcDbSpline
210
0.0
220
0.0
230
1.0
 70
     8
 71
     3
 72
    24
 73
    20
 74
     0
 42
0.00000001
 43
0.00000001
 40
0.0
 40
0.0
 40
0.0
 40
0.0
 40
0.0510099439635521
 40
0.1096541447768333
 40
0.175978152763408
 40
0.2500097316493706
 40
0.3245916498791654
 40
0.3910709005141303
 40
0.4494734875104526
 40
0.4998441112733634
 40
0.5502563292155312
 40
0.608698929445472
 40
0.6752165872296074
 40
0.7498353011545255
 40
0.8240036467083584
 40
0.8903943550896831
 40
0.9490348677125534
 40
0.9999705574185357
 40
1.0
 40
1.0
 40
1.0
 40
1.0
 10
3.602226654565655
 20
4.23814929809337
 30
0.0
 10
3.602424712455426
 20
4.238088891396778
 30
0.0
 10
3.602850470000556
 20
4.237959037408734
 30
0.0
 10
3.606640907253974
 20
4.237070355203308
 30
0.0
 10
3.613759779907893
 20
4.235718142068892
 30
0.0
 10
3.624822263156313
 20
4.233798697740871
 30
0.0
 10
3.63880115026241
 20
4.2318789465234
 30
0.0
 10
3.653707290859868
 20
4.230499545688371
 30
0.0
 10
3.667779240629843
 20
4.229644895839431
 30
0.0
 10
3.680934298942882
 20
4.229315222503219
 30
0.0
 10
3.694093523773951
 20
4.229644179045802
 30
0.0
 10
3.708178417721261
 20
4.230498048522731
 30
0.0
 10
3.723095220818468
 20
4.231875847912922
 30
0.0
 10
3.737103711213595
 20
4.233798235125307
 30
0.0
 10
3.748143890014919
 20
4.235707798722629
 30
0.0
 10
3.755390169925862
 20
4.237095874170208
 30
0.0
 10
3.758799017083767
 20
4.237878756488449
 30
0.0
 10
3.760043311952511
 20
4.238239700540147
 30
0.0
 10
3.759706580765676
 20
4.238149193606351
 30
0.0
 10
3.759706386235907
 20
4.238149141320453
 30
0.0
  0
CIRCLE
  5
F1
330
1F
100
AcDbEntity
  8
0
  6
HIDDEN
 62
     7
100
AcDbCircle
 10
3.680966812
 20
3.7567097825
 30
0.0
 40
0.068740157480315
  0
LINE
  5
F2
330
1F
100
AcDbEntity
  8
0
  6
HIDDEN
 62
     7
100
AcDbLine
 10
3.7597069695
 20
3.7567097825
 30
0.0
 11
3.7596875556
 21
3.7549613735
 31
0.0
  0
ARC
  5
F3
330
1F
100
AcDbEntity
  8
0
  6
HIDDEN
 62
     7
100
AcDbCircle
 10
3.680966812
 20
3.7567097825
 30
0.0
 40
0.0787401574803152
100
AcDbArc
 50
179.4996579636
 51
192.8254040572
  0
POLYLINE
  5
F4
330
1F
100
AcDbEntity
  8
0
  6
HIDDEN
 62
     7
100
AcDb2dPolyline
 66
     1
 10
0.0
 20
0.0
 30
0.0
  0
VERTEX
  5
22D
330
F4
100
AcDbEntity
  8
0
  6
HIDDEN
 62
     7
100
AcDbVertex
100
AcDb2dVertex
 10
3.7578520833
 20
3.7736999993
 30
0.0
  0
VERTEX
  5
22E
330
F4
100
AcDbEntity
  8
0
  6
HIDDEN
 62
     7
100
AcDbVertex
100
AcDb2dVertex
 10
3.7590044095
 20
3.7672048183
 30
0.0
  0
VERTEX
  5
22F
330
F4
100
AcDbEntity
  8
0
  6
HIDDEN
 62
     7
100
AcDbVertex
100
AcDb2dVertex
 10
3.7597069695
 20
3.7567097825
 30
0.0
  0
SEQEND
  5
230
330
F4
100
AcDbEntity
  8
0
  6
HIDDEN
 62
     7
  0
LINE
  5
F5
330
1F
100
AcDbEntity
  8
0
  6
HIDDEN
 62
     7
100
AcDbLine
 10
3.6415967333
 20
3.779440108
 30
0.0
 11
3.680966812
 21
3.8021704336
 31
0.0
  0
LINE
  5
F6
330
1F
100
AcDbEntity
  8
0
  6
HIDDEN
 62
     7
100
AcDbLine
 10
3.680966812
 20
3.8021704336
 30
0.0
 11
3.7203368908
 21
3.779440108
 31
0.0
  0
LINE
  5
F7
330
1F
100
AcDbEntity
  8
0
  6
HIDDEN
 62
     7
100
AcDbLine
 10
3.680966812
 20
3.7112491313
 30
0.0
 11
3.6415967333
 21
3.7339794569
 31
0.0
  0
LINE
  5
F8
330
1F
100
AcDbEntity
  8
0
  6
HIDDEN
 62
     7
100
AcDbLine
 10
3.7203368908
 20
3.779440108
 30
0.0
 11
3.7203368908
 21
3.7339794569
 31
0.0
  0
LINE
  5
F9
330
1F
100
AcDbEntity
  8
0
  6
HIDDEN
 62
     7
100
AcDbLine
 10
3.6415967333
 20
3.7339794569
 30
0.0
 11
3.6415967333
 21
3.779440108
 31
0.0
  0
LINE
  5
FA
330
1F
100
AcDbEntity
  8
0
  6
HIDDEN
 62
     7
100
AcDbLine
 10
3.7203368908
 20
3.7339794569
 30
0.0
 11
3.680966812
 21
3.7112491313
 31
0.0
  0
CIRCLE
  5
FB
330
1F
100
AcDbEntity
  8
0
  6
HIDDEN
 62
     7
100
AcDbCircle
 10
2.9723053947
 20
3.7567097825
 30
0.0
 40
0.0687401574803155
  0
LINE
  5
FC
330
1F
100
AcDbEntity
  8
0
  6
HIDDEN
 62
     7
100
AcDbLine
 10
2.932935316
 20
3.7339794569
 30
0.0
 11
2.9723053947
 21
3.7112491313
 31
0.0
  0
LINE
  5
FD
330
1F
100
AcDbEntity
  8
0
  6
HIDDEN
 62
     7
100
AcDbLine
 10
2.9723053947
 20
3.7112491313
 30
0.0
 11
3.0116754735
 21
3.7339794569
 31
0.0
  0
LINE
  5
FE
330
1F
100
AcDbEntity
  8
0
  6
HIDDEN
 62
     7
100
AcDbLine
 10
3.0116754735
 20
3.7339794569
 30
0.0
 11
3.0116754735
 21
3.779440108
 31
0.0
  0
LINE
  5
FF
330
1F
100
AcDbEntity
  8
0
  6
HIDDEN
 62
     7
100
AcDbLine
 10
3.0116754735
 20
3.779440108
 30
0.0
 11
2.9723053947
 21
3.8021704336
 31
0.0
  0
LINE
  5
100
330
1F
100
AcDbEntity
  8
0
  6
HIDDEN
 62
     7
100
AcDbLine
 10
2.932935316
 20
3.779440108
 30
0.0
 11
2.932935316
 21
3.7339794569
 31
0.0
  0
LINE
  5
101
330
1F
100
AcDbEntity
  8
0
  6
HIDDEN
 62
     7
100
AcDbLine
 10
2.9723053947
 20
3.8021704336
 30
0.0
 11
2.932935316
 21
3.779440108
 31
0.0
  0
LINE
  5
102
330
1F
100
AcDbEntity
  8
0
  6
HIDDEN
 62
     7
100
AcDbLine
 10
3.7597069695
 20
4.2388357667
 30
0.0
 11
3.6022266546
 21
4.2388357667
 31
0.0
  0
LINE
  5
103
330
1F
100
AcDbEntity
  8
0
  6
HIDDEN
 62
     7
100
AcDbLine
 10
3.6022266546
 20
3.9241900974
 30
0.0
 11
3.7597069695
 21
3.9241900974
 31
0.0
  0
LINE
  5
104
330
1F
100
AcDbEntity
  8
0
  6
HIDDEN
 62
     7
100
AcDbLine
 10
3.7497069695
 20
3.9141900974
 30
0.0
 11
3.6122266546
 21
3.9141900974
 31
0.0
  0
LINE
  5
105
330
1F
100
AcDbEntity
  8
0
  6
HIDDEN
 62
     7
100
AcDbLine
 10
3.680966812
 20
4.1700956092
 30
0.0
 11
3.680966812
 21
4.2488357667
 31
0.0
  0
LINE
  5
106
330
1F
100
AcDbEntity
  8
0
  6
HIDDEN
 62
     7
100
AcDbLine
 10
3.6415967333
 20
4.1700956092
 30
0.0
 11
3.680966812
 21
4.1700956092
 31
0.0
  0
LINE
  5
107
330
1F
100
AcDbEntity
  8
0
  6
HIDDEN
 62
     7
100
AcDbLine
 10
3.680966812
 20
4.1700956092
 30
0.0
 11
3.7203368908
 21
4.1700956092
 31
0.0
  0
LINE
  5
108
330
1F
100
AcDbEntity
  8
0
  6
HIDDEN
 62
     7
100
AcDbLine
 10
3.6415967333
 20
4.1700956092
 30
0.0
 11
3.6415967333
 21
4.2488357667
 31
0.0
  0
LINE
  5
109
330
1F
100
AcDbEntity
  8
0
  6
HIDDEN
 62
     7
100
AcDbLine
 10
3.7203368908
 20
4.1700956092
 30
0.0
 11
3.7203368908
 21
4.2488357667
 31
0.0
  0
LINE
  5
10A
330
1F
100
AcDbEntity
  8
0
  6
HIDDEN
 62
     7
100
AcDbLine
 10
2.8935652372
 20
4.2388357667
 30
0.0
 11
3.0510455522
 21
4.2388357667
 31
0.0
  0
LINE
  5
10B
330
1F
100
AcDbEntity
  8
0
  6
HIDDEN
 62
     7
100
AcDbLine
 10
3.0510455522
 20
3.9241900974
 30
0.0
 11
2.8935652372
 21
3.9241900974
 31
0.0
  0
LINE
  5
10C
330
1F
100
AcDbEntity
  8
0
  6
HIDDEN
 62
     7
100
AcDbLine
 10
2.9035652372
 20
3.9141900974
 30
0.0
 11
3.0410455522
 21
3.9141900974
 31
0.0
  0
LINE
  5
10D
330
1F
100
AcDbEntity
  8
0
  6
HIDDEN
 62
     7
100
AcDbLine
 10
2.9723053947
 20
4.1700956092
 30
0.0
 11
2.9723053947
 21
4.2488357667
 31
0.0
  0
LINE
  5
10E
330
1F
100
AcDbEntity
  8
0
  6
HIDDEN
 62
     7
100
AcDbLine
 10
3.0116754735
 20
4.1700956092
 30
0.0
 11
2.9723053947
 21
4.1700956092
 31
0.0
  0
LINE
  5
10F
330
1F
100
AcDbEntity
  8
0
  6
HIDDEN
 62
     7
100
AcDbLine
 10
2.9723053947
 20
4.1700956092
 30
0.0
 11
2.932935316
 21
4.1700956092
 31
0.0
  0
LINE
  5
110
330
1F
100
AcDbEntity
  8
0
  6
HIDDEN
 62
     7
100
AcDbLine
 10
3.0116754735
 20
4.1700956092
 30
0.0
 11
3.0116754735
 21
4.2488357667
 31
0.0
  0
LINE
  5
111
330
1F
100
AcDbEntity
  8
0
  6
HIDDEN
 62
     7
100
AcDbLine
 10
2.932935316
 20
4.1700956092
 30
0.0
 11
2.932935316
 21
4.2488357667
 31
0.0
  0
LINE
  5
112
330
1F
100
AcDbEntity
  8
0
  6
HIDDEN
 62
     7
100
AcDbLine
 10
3.3766361034
 20
3.9291900974
 30
0.0
 11
3.2766361034
 21
3.9291900974
 31
0.0
  0
LINE
  5
113
330
1F
100
AcDbEntity
  8
0
  6
HIDDEN
 62
     7
100
AcDbLine
 10
3.2766361034
 20
3.5842294675
 30
0.0
 11
3.3766361034
 21
3.5842294675
 31
0.0
  0
LINE
  5
114
330
1F
100
AcDbEntity
  8
0
  6
HIDDEN
 62
     7
100
AcDbLine
 10
2.6179746861
 20
3.5842294675
 30
0.0
 11
2.6329746861
 21
3.5992294675
 31
0.0
  0
LINE
  5
115
330
1F
100
AcDbEntity
  8
0
  6
HIDDEN
 62
     7
100
AcDbLine
 10
2.6329746861
 20
3.9141900974
 30
0.0
 11
2.6179746861
 21
3.9291900974
 31
0.0
  0
LINE
  5
116
330
1F
100
AcDbEntity
  8
0
  6
HIDDEN
 62
     7
100
AcDbLine
 10
4.0352975207
 20
3.9291900974
 30
0.0
 11
4.0202975207
 21
3.9141900974
 31
0.0
  0
LINE
  5
117
330
1F
100
AcDbEntity
  8
0
  6
HIDDEN
 62
     7
100
AcDbLine
 10
4.0202975207
 20
3.5992294675
 30
0.0
 11
4.0352975207
 21
3.5842294675
 31
0.0
  0
LINE
  5
118
330
1F
100
AcDbEntity
  8
0
  6
HIDDEN
 62
     7
100
AcDbLine
 10
2.8936871483
 20
3.9141900974
 30
0.0
 11
2.6329746861
 21
3.9141900974
 31
0.0
  0
LINE
  5
119
330
1F
100
AcDbEntity
  8
0
  6
HIDDEN
 62
     7
100
AcDbLine
 10
3.2766361034
 20
3.9141900974
 30
0.0
 11
3.0507874001
 21
3.9141900974
 31
0.0
  0
LINE
  5
11A
330
1F
100
AcDbEntity
  8
0
  6
HIDDEN
 62
     7
100
AcDbLine
 10
2.6329746861
 20
3.5992294675
 30
0.0
 11
3.2766361034
 21
3.5992294675
 31
0.0
  0
LINE
  5
11B
330
1F
100
AcDbEntity
  8
0
  6
HIDDEN
 62
     7
100
AcDbLine
 10
3.6023485656
 20
3.9141900974
 30
0.0
 11
3.3766361034
 21
3.9141900974
 31
0.0
  0
LINE
  5
11C
330
1F
100
AcDbEntity
  8
0
  6
HIDDEN
 62
     7
100
AcDbLine
 10
4.0202975207
 20
3.9141900974
 30
0.0
 11
3.7594488174
 21
3.9141900974
 31
0.0
  0
LINE
  5
11D
330
1F
100
AcDbEntity
  8
0
  6
HIDDEN
 62
     7
100
AcDbLine
 10
3.3766361034
 20
3.5992294675
 30
0.0
 11
4.0202975207
 21
3.5992294675
 31
0.0
  0
LINE
  5
11E
330
1F
100
AcDbEntity
  8
0
  6
HIDDEN
 62
     7
100
AcDbLine
 10
3.0510455532
 20
4.2381492981
 30
0.0
 11
3.0635718887
 21
4.2488357667
 31
0.0
  0
LINE
  5
11F
330
1F
100
AcDbEntity
  8
0
  6
HIDDEN
 62
     7
100
AcDbLine
 10
2.8810388999
 20
4.2488357669
 30
0.0
 11
2.8935652355
 21
4.2381492983
 31
0.0
  0
LINE
  5
120
330
1F
100
AcDbEntity
  8
0
  6
HIDDEN
 62
     7
100
AcDbLine
 10
3.7597069706
 20
4.2381492981
 30
0.0
 11
3.772233306
 21
4.2488357667
 31
0.0
  0
LINE
  5
121
330
1F
100
AcDbEntity
  8
0
  6
HIDDEN
 62
     7
100
AcDbLine
 10
3.5897003172
 20
4.2488357669
 30
0.0
 11
3.6022266528
 21
4.2381492983
 31
0.0
  0
LINE
  5
122
330
1F
100
AcDbEntity
  8
0
  6
HIDDEN
 62
     7
100
AcDbLine
 10
3.0510455522
 20
3.9140613108
 30
0.0
 11
3.0510455522
 21
4.2381492763
 31
0.0
  0
LINE
  5
123
330
1F
100
AcDbEntity
  8
0
  6
HIDDEN
 62
     7
100
AcDbLine
 10
2.8935652372
 20
4.2381492981
 30
0.0
 11
2.8935652372
 21
3.9141295146
 31
0.0
  0
LINE
  5
124
330
1F
100
AcDbEntity
  8
0
  6
HIDDEN
 62
     7
100
AcDbLine
 10
3.7597069695
 20
3.9140613108
 30
0.0
 11
3.7597069695
 21
4.2381492763
 31
0.0
  0
LINE
  5
125
330
1F
100
AcDbEntity
  8
0
  6
HIDDEN
 62
     7
100
AcDbLine
 10
3.6022266546
 20
4.2381492981
 30
0.0
 11
3.6022266546
 21
3.9141295146
 31
0.0
  0
LINE
  5
126
330
1F
100
AcDbEntity
  8
0
  6
HIDDEN
 62
     7
100
AcDbLine
 10
3.7597069695
 20
3.9241900974
 30
0.0
 11
3.7597069695
 21
4.2388357667
 31
0.0
  0
LINE
  5
127
330
1F
100
AcDbEntity
  8
0
  6
HIDDEN
 62
     7
100
AcDbLine
 10
3.6022266546
 20
4.2388357667
 30
0.0
 11
3.6022266546
 21
3.9241900974
 31
0.0
  0
LINE
  5
128
330
1F
100
AcDbEntity
  8
0
  6
HIDDEN
 62
     7
100
AcDbLine
 10
3.7597069695
 20
4.2388357667
 30
0.0
 11
3.7530180023
 21
4.2455247339
 31
0.0
  0
LINE
  5
129
330
1F
100
AcDbEntity
  8
0
  6
HIDDEN
 62
     7
100
AcDbLine
 10
3.6089170057
 20
4.2455261178
 30
0.0
 11
3.6022266546
 21
4.2388357667
 31
0.0
  0
LINE
  5
12A
330
1F
100
AcDbEntity
  8
0
  6
HIDDEN
 62
     7
100
AcDbLine
 10
3.6022266546
 20
3.9241900974
 30
0.0
 11
3.6122266546
 21
3.9141900974
 31
0.0
  0
LINE
  5
12B
330
1F
100
AcDbEntity
  8
0
  6
HIDDEN
 62
     7
100
AcDbLine
 10
3.7497069695
 20
3.9141900974
 30
0.0
 11
3.7597069695
 21
3.9241900974
 31
0.0
  0
LINE
  5
12C
330
1F
100
AcDbEntity
  8
0
  6
HIDDEN
 62
     7
100
AcDbLine
 10
3.0510455522
 20
4.2388357667
 30
0.0
 11
3.044356585
 21
4.2455247339
 31
0.0
  0
LINE
  5
12D
330
1F
100
AcDbEntity
  8
0
  6
HIDDEN
 62
     7
100
AcDbLine
 10
2.9002555884
 20
4.2455261178
 30
0.0
 11
2.8935652372
 21
4.2388357667
 31
0.0
  0
LINE
  5
12E
330
1F
100
AcDbEntity
  8
0
  6
HIDDEN
 62
     7
100
AcDbLine
 10
3.0510455522
 20
3.9241900974
 30
0.0
 11
3.0510455522
 21
4.2388357667
 31
0.0
  0
LINE
  5
12F
330
1F
100
AcDbEntity
  8
0
  6
HIDDEN
 62
     7
100
AcDbLine
 10
2.8935652372
 20
4.2388357667
 30
0.0
 11
2.8935652372
 21
3.9241900974
 31
0.0
  0
LINE
  5
130
330
1F
100
AcDbEntity
  8
0
  6
HIDDEN
 62
     7
100
AcDbLine
 10
2.8935652372
 20
3.9241900974
 30
0.0
 11
2.9035652372
 21
3.9141900974
 31
0.0
  0
LINE
  5
131
330
1F
100
AcDbEntity
  8
0
  6
HIDDEN
 62
     7
100
AcDbLine
 10
3.0410455522
 20
3.9141900974
 30
0.0
 11
3.0510455522
 21
3.9241900974
 31
0.0
  0
LINE
  5
132
330
1F
100
AcDbEntity
  8
0
  6
CONTINUOUS
 62
     7
100
AcDbLine
 10
8.7353862693
 20
3.6823138076
 30
0.0
 11
8.7410420866
 21
3.687969625
 31
0.0
  0
LINE
  5
133
330
1F
100
AcDbEntity
  8
0
  6
CONTINUOUS
 62
     7
100
AcDbLine
 10
8.7410420866
 20
3.8254499399
 30
0.0
 11
8.7353862693
 21
3.8311057573
 31
0.0
  0
LINE
  5
134
330
1F
100
AcDbEntity
  8
0
  6
CONTINUOUS
 62
     7
100
AcDbLine
 10
8.3233120772
 20
4.2431799494
 30
0.0
 11
8.3176562599
 21
4.2488357667
 31
0.0
  0
LINE
  5
135
330
1F
100
AcDbEntity
  8
0
  6
CONTINUOUS
 62
     7
100
AcDbLine
 10
8.1801759449
 20
4.2488357667
 30
0.0
 11
8.1745201276
 21
4.2431799494
 31
0.0
  0
CIRCLE
  5
136
330
1F
100
AcDbEntity
  8
0
  6
CONTINUOUS
 62
     7
100
AcDbCircle
 10
8.2489161024
 20
3.7567097825
 30
0.0
 40
0.4771259842519679
  0
CIRCLE
  5
137
330
1F
100
AcDbEntity
  8
0
  6
CONTINUOUS
 62
     7
100
AcDbCircle
 10
8.2489161024
 20
3.7567097825
 30
0.0
 40
0.4921259842519685
  0
CIRCLE
  5
138
330
1F
100
AcDbEntity
  8
0
  6
CONTINUOUS
 62
     7
100
AcDbCircle
 10
8.2489161024
 20
3.7567097825
 30
0.0
 40
0.1724803149606302
  0
CIRCLE
  5
139
330
1F
100
AcDbEntity
  8
0
  6
CONTINUOUS
 62
     7
100
AcDbCircle
 10
8.2489161024
 20
3.7567097825
 30
0.0
 40
0.1574803149606314
  0
LINE
  5
13A
330
1F
100
AcDbEntity
  8
0
  6
CONTINUOUS
 62
     7
100
AcDbLine
 10
8.7410420866
 20
3.8254499399
 30
0.0
 11
8.7410420866
 21
3.687969625
 31
0.0
  0
LINE
  5
13B
330
1F
100
AcDbEntity
  8
0
  6
CONTINUOUS
 62
     7
100
AcDbLine
 10
8.1801759449
 20
4.2488357667
 30
0.0
 11
8.3176562599
 21
4.2488357667
 31
0.0
  0
SPLINE
  5
13C
330
1F
100
AcDbEntity
  8
0
  6
HIDDEN
 62
     7
100
AcDbSpline
210
0.0
220
0.0
230
1.0
 70
     8
 71
     3
 72
    25
 73
    21
 74
     0
 42
0.00000001
 43
0.00000001
 40
0.0
 40
0.0
 40
0.0
 40
0.0
 40
0.0000391455508623
 40
0.0504354454806575
 40
0.1088595920485394
 40
0.1753562464144
 40
0.2499513989555908
 40
0.3240963253326771
 40
0.3904660703808938
 40
0.4490880668494751
 40
0.5000076732531937
 40
0.5508787033457048
 40
0.6094720188589052
 40
0.6758330852793347
 40
0.749989947839412
 40
0.8245999445022438
 40
0.8911063780543786
 40
0.9495351440053812
 40
0.9999306826466294
 40
1.0
 40
1.0
 40
1.0
 40
1.0
 10
8.170176725435102
 20
4.229419670019394
 30
0.0
 10
8.170176467793945
 20
4.229419598900357
 30
0.0
 10
8.169844520835676
 20
4.229327968555814
 30
0.0
 10
8.17106297749172
 20
4.229693318833068
 30
0.0
 10
8.174427740141006
 20
4.23048190397616
 30
0.0
 10
8.18164901496709
 20
4.231881342217499
 30
0.0
 10
8.192673945276832
 20
4.233795371692016
 30
0.0
 10
8.206654300458016
 20
4.235713147714404
 30
0.0
 10
8.221524780823037
 20
4.237080088998346
 30
0.0
 10
8.23564967288027
 20
4.23792719875504
 30
0.0
 10
8.248911066624315
 20
4.238252114852563
 30
0.0
 10
8.262170118653644
 20
4.237928968412115
 30
0.0
 10
8.276288878524507
 20
4.237082471181611
 30
0.0
 10
8.29115945857467
 20
4.235715773784748
 30
0.0
 10
8.305144072729139
 20
4.233797446270831
 30
0.0
 10
8.316174263256116
 20
4.231883575427431
 30
0.0
 10
8.323399453098503
 20
4.230483652036795
 30
0.0
 10
8.326767145762728
 20
4.229694413223124
 30
0.0
 10
8.327986992790848
 20
4.22932825778464
 30
0.0
 10
8.327655347276828
 20
4.229419709982899
 30
0.0
 10
8.327654891736259
 20
4.229419835599513
 30
0.0
  0
SPLINE
  5
13D
330
1F
100
AcDbEntity
  8
0
  6
HIDDEN
 62
     7
100
AcDbSpline
210
0.0
220
0.0
230
1.0
 70
     8
 71
     3
 72
    12
 73
     8
 74
     0
 42
0.00000001
 43
0.00000001
 40
0.0
 40
0.0
 40
0.0
 40
0.0
 40
0.000127305841116
 40
0.2966223835230131
 40
0.5620137999430554
 40
0.7964121160190829
 40
1.0
 40
1.0
 40
1.0
 40
1.0
 10
8.304603940930532
 20
4.233802705244823
 30
0.0
 10
8.304602321181934
 20
4.23380297814546
 30
0.0
 10
8.300828309825857
 20
4.234438836143632
 30
0.0
 10
8.2909355057185
 20
4.235731104824136
 30
0.0
 10
8.276342587302791
 20
4.237071056966792
 30
0.0
 10
8.262164566834787
 20
4.237962429749194
 30
0.0
 10
8.253120179375175
 20
4.238089999983113
 30
0.0
 10
8.248916102386982
 20
4.23814929809337
 30
0.0
  0
SPLINE
  5
13E
330
1F
100
AcDbEntity
  8
0
  6
HIDDEN
 62
     7
100
AcDbSpline
210
0.0
220
0.0
230
1.0
 70
     8
 71
     3
 72
    25
 73
    21
 74
     0
 42
0.00000001
 43
0.00000001
 40
0.0
 40
0.0
 40
0.0
 40
0.0
 40
0.0000391455508625
 40
0.0504354454806582
 40
0.1088595920485417
 40
0.1753562464144041
 40
0.249951398955598
 40
0.3240963253321045
 40
0.3904660703801284
 40
0.4490880668489046
 40
0.5000076732532047
 40
0.5508787033441188
 40
0.6094720188567889
 40
0.6758330852777524
 40
0.7499899478394226
 40
0.8245999445038504
 40
0.8911063780565186
 40
0.9495351440069867
 40
0.9999306826466302
 40
1.0
 40
1.0
 40
1.0
 40
1.0
 10
8.721625989951338
 20
3.835449159406918
 30
0.0
 10
8.721625918832299
 20
3.835449417048075
 30
0.0
 10
8.721534288487785
 20
3.835781364006341
 30
0.0
 10
8.721899638764995
 20
3.8345629073503
 30
0.0
 10
8.722688223908108
 20
3.831198144701012
 30
0.0
 10
8.72408766214944
 20
3.82397686987493
 30
0.0
 10
8.726001691623955
 20
3.812951939565217
 30
0.0
 10
8.727919467646332
 20
3.798971584384095
 30
0.0
 10
8.729286408930271
 20
3.784101104019135
 30
0.0
 10
8.730133518686964
 20
3.769976211961863
 30
0.0
 10
8.730458434784506
 20
3.756714818217885
 30
0.0
 10
8.730135288344073
 20
3.743455766188683
 30
0.0
 10
8.729288791113568
 20
3.72933700631793
 30
0.0
 10
8.727922093716698
 20
3.714466426267603
 30
0.0
 10
8.726003766202775
 20
3.700481812112859
 30
0.0
 10
8.72408989535937
 20
3.68945162158572
 30
0.0
 10
8.722689971968721
 20
3.682226431743362
 30
0.0
 10
8.721900733155062
 20
3.678858739079253
 30
0.0
 10
8.721534577716564
 20
3.677638892051182
 30
0.0
 10
8.721626029914843
 20
3.677970537565191
 30
0.0
 10
8.721626155531457
 20
3.677970993105761
 30
0.0
  0
SPLINE
  5
13F
330
1F
100
AcDbEntity
  8
0
  6
HIDDEN
 62
     7
100
AcDbSpline
210
0.0
220
0.0
230
1.0
 70
     8
 71
     3
 72
    12
 73
     8
 74
     0
 42
0.00000001
 43
0.00000001
 40
0.0
 40
0.0
 40
0.0
 40
0.0
 40
0.000127305841608
 40
0.2966223835314692
 40
0.5620137999541064
 40
0.7964121160273245
 40
0.9999999999999999
 40
0.9999999999999999
 40
0.9999999999999999
 40
0.9999999999999999
 10
8.726009025176763
 20
3.701021943911469
 30
0.0
 10
8.7260092980774
 20
3.701023563660075
 30
0.0
 10
8.7266451560756
 20
3.704797575016253
 30
0.0
 10
8.727937424756051
 20
3.714690379123851
 30
0.0
 10
8.729277376898724
 20
3.729283297539764
 30
0.0
 10
8.730168749681129
 20
3.743461318007628
 30
0.0
 10
8.730296319915054
 20
3.752505705467013
 30
0.0
 10
8.730355618025312
 20
3.756709782455038
 30
0.0
  0
LINE
  5
140
330
1F
100
AcDbEntity
  8
0
  6
HIDDEN
 62
     7
100
AcDbLine
 10
8.7310420866
 20
3.677969625
 30
0.0
 11
8.7310420866
 21
3.8354499399
 31
0.0
  0
LINE
  5
141
330
1F
100
AcDbEntity
  8
0
  6
HIDDEN
 62
     7
100
AcDbLine
 10
8.4163964173
 20
3.7567097825
 30
0.0
 11
8.4163964173
 21
3.677969625
 31
0.0
  0
LINE
  5
142
330
1F
100
AcDbEntity
  8
0
  6
HIDDEN
 62
     7
100
AcDbLine
 10
8.4163964173
 20
3.8354499399
 30
0.0
 11
8.4163964173
 21
3.7567097825
 31
0.0
  0
LINE
  5
143
330
1F
100
AcDbEntity
  8
0
  6
HIDDEN
 62
     7
100
AcDbLine
 10
8.4063964173
 20
3.7567097825
 30
0.0
 11
8.4063964173
 21
3.8254499399
 31
0.0
  0
LINE
  5
144
330
1F
100
AcDbEntity
  8
0
  6
HIDDEN
 62
     7
100
AcDbLine
 10
8.4063964173
 20
3.687969625
 30
0.0
 11
8.4063964173
 21
3.7567097825
 31
0.0
  0
LINE
  5
145
330
1F
100
AcDbEntity
  8
0
  6
HIDDEN
 62
     7
100
AcDbLine
 10
8.6623019292
 20
3.7339794569
 30
0.0
 11
8.7410420866
 21
3.7339794569
 31
0.0
  0
LINE
  5
146
330
1F
100
AcDbEntity
  8
0
  6
HIDDEN
 62
     7
100
AcDbLine
 10
8.6623019292
 20
3.779440108
 30
0.0
 11
8.7410420866
 21
3.779440108
 31
0.0
  0
LINE
  5
147
330
1F
100
AcDbEntity
  8
0
  6
HIDDEN
 62
     7
100
AcDbLine
 10
8.6623019292
 20
3.8021704336
 30
0.0
 11
8.6623019292
 21
3.779440108
 31
0.0
  0
LINE
  5
148
330
1F
100
AcDbEntity
  8
0
  6
HIDDEN
 62
     7
100
AcDbLine
 10
8.6623019292
 20
3.7339794569
 30
0.0
 11
8.6623019292
 21
3.7112491313
 31
0.0
  0
LINE
  5
149
330
1F
100
AcDbEntity
  8
0
  6
HIDDEN
 62
     7
100
AcDbLine
 10
8.6623019292
 20
3.779440108
 30
0.0
 11
8.6623019292
 21
3.7339794569
 31
0.0
  0
LINE
  5
14A
330
1F
100
AcDbEntity
  8
0
  6
HIDDEN
 62
     7
100
AcDbLine
 10
8.6623019292
 20
3.7112491313
 30
0.0
 11
8.7410420866
 21
3.7112491313
 31
0.0
  0
LINE
  5
14B
330
1F
100
AcDbEntity
  8
0
  6
HIDDEN
 62
     7
100
AcDbLine
 10
8.6623019292
 20
3.8021704336
 30
0.0
 11
8.7410420866
 21
3.8021704336
 31
0.0
  0
LINE
  5
14C
330
1F
100
AcDbEntity
  8
0
  6
HIDDEN
 62
     7
100
AcDbLine
 10
8.2489161024
 20
3.9141900974
 30
0.0
 11
8.1801759449
 21
3.9141900974
 31
0.0
  0
LINE
  5
14D
330
1F
100
AcDbEntity
  8
0
  6
HIDDEN
 62
     7
100
AcDbLine
 10
8.3176562599
 20
3.9141900974
 30
0.0
 11
8.2489161024
 21
3.9141900974
 31
0.0
  0
LINE
  5
14E
330
1F
100
AcDbEntity
  8
0
  6
HIDDEN
 62
     7
100
AcDbLine
 10
8.2489161024
 20
3.9241900974
 30
0.0
 11
8.3276562599
 21
3.9241900974
 31
0.0
  0
LINE
  5
14F
330
1F
100
AcDbEntity
  8
0
  6
HIDDEN
 62
     7
100
AcDbLine
 10
8.1701759449
 20
3.9241900974
 30
0.0
 11
8.2489161024
 21
3.9241900974
 31
0.0
  0
LINE
  5
150
330
1F
100
AcDbEntity
  8
0
  6
HIDDEN
 62
     7
100
AcDbLine
 10
8.3276562599
 20
4.2388357667
 30
0.0
 11
8.1701759449
 21
4.2388357667
 31
0.0
  0
LINE
  5
151
330
1F
100
AcDbEntity
  8
0
  6
HIDDEN
 62
     7
100
AcDbLine
 10
8.2716464279
 20
4.1700956092
 30
0.0
 11
8.2943767535
 21
4.1700956092
 31
0.0
  0
LINE
  5
152
330
1F
100
AcDbEntity
  8
0
  6
HIDDEN
 62
     7
100
AcDbLine
 10
8.2716464279
 20
4.1700956092
 30
0.0
 11
8.2716464279
 21
4.2488357667
 31
0.0
  0
LINE
  5
153
330
1F
100
AcDbEntity
  8
0
  6
HIDDEN
 62
     7
100
AcDbLine
 10
8.2261857768
 20
4.1700956092
 30
0.0
 11
8.2716464279
 21
4.1700956092
 31
0.0
  0
LINE
  5
154
330
1F
100
AcDbEntity
  8
0
  6
HIDDEN
 62
     7
100
AcDbLine
 10
8.2261857768
 20
4.1700956092
 30
0.0
 11
8.2261857768
 21
4.2488357667
 31
0.0
  0
LINE
  5
155
330
1F
100
AcDbEntity
  8
0
  6
HIDDEN
 62
     7
100
AcDbLine
 10
8.2034554513
 20
4.1700956092
 30
0.0
 11
8.2261857768
 21
4.1700956092
 31
0.0
  0
LINE
  5
156
330
1F
100
AcDbEntity
  8
0
  6
HIDDEN
 62
     7
100
AcDbLine
 10
8.2943767535
 20
4.1700956092
 30
0.0
 11
8.2943767535
 21
4.2488357667
 31
0.0
  0
LINE
  5
157
330
1F
100
AcDbEntity
  8
0
  6
HIDDEN
 62
     7
100
AcDbLine
 10
8.2034554513
 20
4.1700956092
 30
0.0
 11
8.2034554513
 21
4.2488357667
 31
0.0
  0
LINE
  5
158
330
1F
100
AcDbEntity
  8
0
  6
HIDDEN
 62
     7
100
AcDbLine
 10
8.327656248
 20
4.2294194581
 30
0.0
 11
8.342208415
 21
4.2399121512
 31
0.0
  0
LINE
  5
159
330
1F
100
AcDbEntity
  8
0
  6
HIDDEN
 62
     7
100
AcDbLine
 10
8.1556237822
 20
4.2399121499
 30
0.0
 11
8.1701759504
 21
4.2294194568
 31
0.0
  0
LINE
  5
15A
330
1F
100
AcDbEntity
  8
0
  6
HIDDEN
 62
     7
100
AcDbLine
 10
8.721625778
 20
3.6779696369
 30
0.0
 11
8.7321184712
 21
3.6634174698
 31
0.0
  0
LINE
  5
15B
330
1F
100
AcDbEntity
  8
0
  6
HIDDEN
 62
     7
100
AcDbLine
 10
8.7321184699
 20
3.8500021027
 30
0.0
 11
8.7216257767
 21
3.8354499344
 31
0.0
  0
LINE
  5
15C
330
1F
100
AcDbEntity
  8
0
  6
HIDDEN
 62
     7
100
AcDbLine
 10
8.3854559215
 20
3.677969625
 30
0.0
 11
8.7216262714
 21
3.677969625
 31
0.0
  0
LINE
  5
15D
330
1F
100
AcDbEntity
  8
0
  6
HIDDEN
 62
     7
100
AcDbLine
 10
8.7216265592
 20
3.8354499399
 30
0.0
 11
8.3853576114
 21
3.8354499399
 31
0.0
  0
LINE
  5
15E
330
1F
100
AcDbEntity
  8
0
  6
HIDDEN
 62
     7
100
AcDbLine
 10
8.3276562599
 20
3.8930917358
 30
0.0
 11
8.3276562599
 21
4.2294199515
 31
0.0
  0
LINE
  5
15F
330
1F
100
AcDbEntity
  8
0
  6
HIDDEN
 62
     7
100
AcDbLine
 10
8.1701759449
 20
4.2294202392
 30
0.0
 11
8.1701759449
 21
3.8932415785
 31
0.0
  0
LINE
  5
160
330
1F
100
AcDbEntity
  8
0
  6
HIDDEN
 62
     7
100
AcDbLine
 10
8.7310420866
 20
3.677969625
 30
0.0
 11
8.7353862693
 21
3.6823138076
 31
0.0
  0
LINE
  5
161
330
1F
100
AcDbEntity
  8
0
  6
HIDDEN
 62
     7
100
AcDbLine
 10
8.7353862693
 20
3.8311057573
 30
0.0
 11
8.7310420866
 21
3.8354499399
 31
0.0
  0
LINE
  5
162
330
1F
100
AcDbEntity
  8
0
  6
HIDDEN
 62
     7
100
AcDbLine
 10
8.4163964173
 20
3.677969625
 30
0.0
 11
8.7310420866
 21
3.677969625
 31
0.0
  0
LINE
  5
163
330
1F
100
AcDbEntity
  8
0
  6
HIDDEN
 62
     7
100
AcDbLine
 10
8.7310420866
 20
3.8354499399
 30
0.0
 11
8.4163964173
 21
3.8354499399
 31
0.0
  0
LINE
  5
164
330
1F
100
AcDbEntity
  8
0
  6
HIDDEN
 62
     7
100
AcDbLine
 10
8.4163964173
 20
3.8354499399
 30
0.0
 11
8.4063964173
 21
3.8254499399
 31
0.0
  0
LINE
  5
165
330
1F
100
AcDbEntity
  8
0
  6
HIDDEN
 62
     7
100
AcDbLine
 10
8.4063964173
 20
3.687969625
 30
0.0
 11
8.4163964173
 21
3.677969625
 31
0.0
  0
LINE
  5
166
330
1F
100
AcDbEntity
  8
0
  6
HIDDEN
 62
     7
100
AcDbLine
 10
8.1701759449
 20
3.9241900974
 30
0.0
 11
8.1801759449
 21
3.9141900974
 31
0.0
  0
LINE
  5
167
330
1F
100
AcDbEntity
  8
0
  6
HIDDEN
 62
     7
100
AcDbLine
 10
8.3176562599
 20
3.9141900974
 30
0.0
 11
8.3276562599
 21
3.9241900974
 31
0.0
  0
LINE
  5
168
330
1F
100
AcDbEntity
  8
0
  6
HIDDEN
 62
     7
100
AcDbLine
 10
8.3276562599
 20
3.9241900974
 30
0.0
 11
8.3276562599
 21
4.2388357667
 31
0.0
  0
LINE
  5
169
330
1F
100
AcDbEntity
  8
0
  6
HIDDEN
 62
     7
100
AcDbLine
 10
8.1701759449
 20
4.2388357667
 30
0.0
 11
8.1701759449
 21
3.9241900974
 31
0.0
  0
LINE
  5
16A
330
1F
100
AcDbEntity
  8
0
  6
HIDDEN
 62
     7
100
AcDbLine
 10
8.3276562599
 20
4.2388357667
 30
0.0
 11
8.3233120772
 21
4.2431799494
 31
0.0
  0
LINE
  5
16B
330
1F
100
AcDbEntity
  8
0
  6
HIDDEN
 62
     7
100
AcDbLine
 10
8.1745201276
 20
4.2431799494
 30
0.0
 11
8.1701759449
 21
4.2388357667
 31
0.0
  0
LINE
  5
16C
330
1F
100
AcDbEntity
  8
0
  6
CONTINUOUS
 62
     7
100
AcDbLine
 10
2.6329746861
 20
6.1778826507
 30
0.0
 11
4.0202975207
 21
6.1778826507
 31
0.0
  0
LINE
  5
16D
330
1F
100
AcDbEntity
  8
0
  6
CONTINUOUS
 62
     7
100
AcDbLine
 10
2.8810389019
 20
7.1621346192
 30
0.0
 11
2.6329746861
 21
7.1621346192
 31
0.0
  0
LINE
  5
16E
330
1F
100
AcDbEntity
  8
0
  6
CONTINUOUS
 62
     7
100
AcDbLine
 10
3.5897003193
 20
7.1621346192
 30
0.0
 11
3.063571771
 21
7.1621346192
 31
0.0
  0
LINE
  5
16F
330
1F
100
AcDbEntity
  8
0
  6
CONTINUOUS
 62
     7
100
AcDbLine
 10
4.0202975207
 20
7.1621346192
 30
0.0
 11
3.7722331883
 21
7.1621346192
 31
0.0
  0
LINE
  5
170
330
1F
100
AcDbEntity
  8
0
  6
CONTINUOUS
 62
     7
100
AcDbLine
 10
4.0202975207
 20
6.1778826507
 30
0.0
 11
4.0352975207
 21
6.1928826507
 31
0.0
  0
LINE
  5
171
330
1F
100
AcDbEntity
  8
0
  6
CONTINUOUS
 62
     7
100
AcDbLine
 10
4.0352975207
 20
7.1471346192
 30
0.0
 11
4.0202975207
 21
7.1621346192
 31
0.0
  0
LINE
  5
172
330
1F
100
AcDbEntity
  8
0
  6
CONTINUOUS
 62
     7
100
AcDbLine
 10
2.6329746861
 20
7.1621346192
 30
0.0
 11
2.6179746861
 21
7.1471346192
 31
0.0
  0
LINE
  5
173
330
1F
100
AcDbEntity
  8
0
  6
CONTINUOUS
 62
     7
100
AcDbLine
 10
2.6179746861
 20
6.1928826507
 30
0.0
 11
2.6329746861
 21
6.1778826507
 31
0.0
  0
LINE
  5
174
330
1F
100
AcDbEntity
  8
0
  6
CONTINUOUS
 62
     7
100
AcDbLine
 10
3.7530180023
 20
7.1588235864
 30
0.0
 11
3.7497069695
 21
7.1621346192
 31
0.0
  0
LINE
  5
175
330
1F
100
AcDbEntity
  8
0
  6
CONTINUOUS
 62
     7
100
AcDbLine
 10
3.6122266546
 20
7.1621346192
 30
0.0
 11
3.6089170057
 21
7.1588249704
 31
0.0
  0
LINE
  5
176
330
1F
100
AcDbEntity
  8
0
  6
CONTINUOUS
 62
     7
100
AcDbLine
 10
3.044356585
 20
7.1588235864
 30
0.0
 11
3.0410455522
 21
7.1621346192
 31
0.0
  0
LINE
  5
177
330
1F
100
AcDbEntity
  8
0
  6
CONTINUOUS
 62
     7
100
AcDbLine
 10
2.9035652372
 20
7.1621346192
 30
0.0
 11
2.9002555884
 21
7.1588249704
 31
0.0
  0
LINE
  5
178
330
1F
100
AcDbEntity
  8
0
  6
CONTINUOUS
 62
     7
100
AcDbLine
 10
4.0202975207
 20
6.1778826507
 30
0.0
 11
4.0202975207
 21
7.1621346192
 31
0.0
  0
LINE
  5
179
330
1F
100
AcDbEntity
  8
0
  6
CONTINUOUS
 62
     7
100
AcDbLine
 10
2.6329746861
 20
7.1621346192
 30
0.0
 11
2.6329746861
 21
6.1778826507
 31
0.0
  0
SPLINE
  5
17A
330
1F
100
AcDbEntity
  8
0
  6
CONTINUOUS
 62
     7
100
AcDbSpline
210
0.0
220
0.0
230
1.0
 70
     8
 71
     3
 72
    39
 73
    35
 74
     0
 42
0.00000001
 43
0.00000001
 40
-0.0947295368804532
 40
-0.0631220562492651
 40
-0.0313700572329558
 40
0.0
 40
0.0313857668473377
 40
0.0631300926508309
 40
0.0947107913187888
 40
0.1258915232101506
 40
0.1569025400535988
 40
0.1880875961666499
 40
0.2192248879165663
 40
0.2499114061504731
 40
0.2805814827739038
 40
0.3117983423887339
 40
0.3430159418754873
 40
0.3740900329697608
 40
0.4052589495813183
 40
0.4368198118972471
 40
0.4685350890144542
 40
0.5000039184998295
 40
0.5314470500523252
 40
0.5632087383002627
 40
0.5947532424804413
 40
0.625957670711595
 40
0.656990438208671
 40
0.6882209229808212
 40
0.7193642321975262
 40
0.7500710465313413
 40
0.7807116163386011
 40
0.8119054237466138
 40
0.843077081944146
 40
0.874123101859804
 40
0.9052704631195468
 40
0.9368779437507349
 40
0.9686299427670442
 40
1.0
 40
1.031385766847338
 40
1.063130092650831
 40
1.094710791318789
 10
3.590880551694595
 20
6.651705344207474
 30
0.0
 10
3.589112668020056
 20
6.670011863199636
 30
0.0
 10
3.590884561767568
 20
6.688315779722741
 30
0.0
 10
3.596220453365029
 20
6.705923801446023
 30
0.0
 10
3.604632126675995
 20
6.722202266468506
 30
0.0
 10
3.615996992400656
 20
6.73637304540953
 30
0.0
 10
3.629842193432089
 20
6.748016946528723
 30
0.0
 10
3.645765284197656
 20
6.75662419095667
 30
0.0
 10
3.662992269280426
 20
6.76208998669265
 30
0.0
 10
3.680911125406399
 20
6.763901359747998
 30
0.0
 10
3.698844899477406
 20
6.762090728135496
 30
0.0
 10
3.716092721493042
 20
6.756630872596511
 30
0.0
 10
3.732057151758776
 20
6.74802856755757
 30
0.0
 10
3.745924955791492
 20
6.736385102694382
 30
0.0
 10
3.757307075255789
 20
6.722220836880357
 30
0.0
 10
3.765727059582006
 20
6.705958936411546
 30
0.0
 10
3.771059930287631
 20
6.688341975750887
 30
0.0
 10
3.772818656048339
 20
6.670012274936806
 30
0.0
 10
3.771054763522685
 20
6.651674395656077
 30
0.0
 10
3.765719232519221
 20
6.634057212046231
 30
0.0
 10
3.757294581875048
 20
6.617783937570637
 30
0.0
 10
3.745915397051849
 20
6.603622265902612
 30
0.0
 10
3.7320467972649
 20
6.591978460082704
 30
0.0
 10
3.71609986963274
 20
6.583383931014644
 30
0.0
 10
3.698855460463676
 20
6.577930627802016
 30
0.0
 10
3.6809384546354
 20
6.576116371132866
 30
0.0
 10
3.663009728145749
 20
6.577921168822559
 30
0.0
 10
3.645782861204019
 20
6.58338707354886
 30
0.0
 10
3.629843914750692
 20
6.591996169710016
 30
0.0
 10
3.616000747908408
 20
6.603640043534958
 30
0.0
 10
3.604634579884915
 20
6.617816562145219
 30
0.0
 10
3.596225659555058
 20
6.634096276391209
 30
0.0
 10
3.590880551694595
 20
6.651705344207474
 30
0.0
 10
3.589112668020056
 20
6.670011863199636
 30
0.0
 10
3.590884561767568
 20
6.688315779722741
 30
0.0
  0
SPLINE
  5
17B
330
1F
100
AcDbEntity
  8
0
  6
CONTINUOUS
 62
     7
100
AcDbSpline
210
0.0
220
0.0
230
1.0
 70
     8
 71
     3
 72
    39
 73
    35
 74
     0
 42
0.00000001
 43
0.00000001
 40
-0.0947295368804917
 40
-0.0631220562492624
 40
-0.0313700572328818
 40
0.0
 40
0.0313857668473375
 40
0.0631300926508307
 40
0.094710791318845
 40
0.1258915232101526
 40
0.1569025400537459
 40
0.1880875961666536
 40
0.2192248879166559
 40
0.2499114061504728
 40
0.2805814827740754
 40
0.3117983423887409
 40
0.3430159418757174
 40
0.3740900329697627
 40
0.405258949581226
 40
0.4368198118972415
 40
0.4685350890145399
 40
0.5000039184998384
 40
0.5314470500524577
 40
0.563208738300259
 40
0.5947532424804846
 40
0.6259576707116
 40
0.6569904382087483
 40
0.6882209229808182
 40
0.7193642321974656
 40
0.7500710465313412
 40
0.7807116163387212
 40
0.8119054237466186
 40
0.8430770819441591
 40
0.8741231018598
 40
0.9052704631195082
 40
0.9368779437507375
 40
0.9686299427671181
 40
0.9999999999999999
 40
1.031385766847337
 40
1.063130092650831
 40
1.094710791318845
 10
2.882219134371769
 20
6.65170534420749
 30
0.0
 10
2.88045125069722
 20
6.67001186319965
 30
0.0
 10
2.882223144444734
 20
6.688315779722741
 30
0.0
 10
2.887559036042199
 20
6.705923801446032
 30
0.0
 10
2.895970709353157
 20
6.722202266468522
 30
0.0
 10
2.90733557507785
 20
6.736373045409556
 30
0.0
 10
2.921180776109273
 20
6.748016946528744
 30
0.0
 10
2.937103866874863
 20
6.756624190956689
 30
0.0
 10
2.954330851957613
 20
6.762089986692639
 30
0.0
 10
2.972249708083613
 20
6.763901359747996
 30
0.0
 10
2.99018348215461
 20
6.76209072813552
 30
0.0
 10
3.007431304170278
 20
6.75663087259648
 30
0.0
 10
3.023395734435965
 20
6.748028567557527
 30
0.0
 10
3.037263538468681
 20
6.736385102694369
 30
0.0
 10
3.048645657932914
 20
6.722220836880351
 30
0.0
 10
3.057065642259166
 20
6.705958936411546
 30
0.0
 10
3.062398512964864
 20
6.688341975750882
 30
0.0
 10
3.064157238725502
 20
6.670012274936763
 30
0.0
 10
3.062393346199791
 20
6.651674395656062
 30
0.0
 10
3.057057815196376
 20
6.634057212046199
 30
0.0
 10
3.048633164552243
 20
6.617783937570608
 30
0.0
 10
3.037253979728997
 20
6.603622265902596
 30
0.0
 10
3.023385379942033
 20
6.591978460082725
 30
0.0
 10
3.007438452309904
 20
6.58338393101464
 30
0.0
 10
2.990194043140854
 20
6.577930627802007
 30
0.0
 10
2.972277037312554
 20
6.57611637113287
 30
0.0
 10
2.954348310822887
 20
6.577921168822543
 30
0.0
 10
2.93712144388116
 20
6.583387073548868
 30
0.0
 10
2.921182497427878
 20
6.591996169710052
 30
0.0
 10
2.907339330585576
 20
6.603640043534954
 30
0.0
 10
2.895973162562058
 20
6.617816562145196
 30
0.0
 10
2.887564242232223
 20
6.634096276391217
 30
0.0
 10
2.882219134371769
 20
6.65170534420749
 30
0.0
 10
2.88045125069722
 20
6.67001186319965
 30
0.0
 10
2.882223144444734
 20
6.688315779722741
 30
0.0
  0
POLYLINE
  5
17C
330
1F
100
AcDbEntity
  8
0
  6
CONTINUOUS
 62
     7
100
AcDb2dPolyline
 66
     1
 10
0.0
 20
0.0
 30
0.0
  0
VERTEX
  5
231
330
17C
100
AcDbEntity
  8
0
  6
CONTINUOUS
 62
     7
100
AcDbVertex
100
AcDb2dVertex
 10
3.7722331883
 20
7.162134597
 30
0.0
  0
VERTEX
  5
232
330
17C
100
AcDbEntity
  8
0
  6
CONTINUOUS
 62
     7
100
AcDbVertex
100
AcDb2dVertex
 10
3.7722333048
 20
7.1621346192
 30
0.0
  0
VERTEX
  5
233
330
17C
100
AcDbEntity
  8
0
  6
CONTINUOUS
 62
     7
100
AcDbVertex
100
AcDb2dVertex
 10
3.7704712835
 20
7.1617997702
 30
0.0
  0
VERTEX
  5
234
330
17C
100
AcDbEntity
  8
0
  6
CONTINUOUS
 62
     7
100
AcDbVertex
100
AcDb2dVertex
 10
3.7651838831
 20
7.1608327367
 30
0.0
  0
VERTEX
  5
235
330
17C
100
AcDbEntity
  8
0
  6
CONTINUOUS
 62
     7
100
AcDbVertex
100
AcDb2dVertex
 10
3.7567536927
 20
7.1593852281
 30
0.0
  0
VERTEX
  5
236
330
17C
100
AcDbEntity
  8
0
  6
CONTINUOUS
 62
     7
100
AcDbVertex
100
AcDb2dVertex
 10
3.7454714955
 20
7.1576890084
 30
0.0
  0
VERTEX
  5
237
330
17C
100
AcDbEntity
  8
0
  6
CONTINUOUS
 62
     7
100
AcDbVertex
100
AcDb2dVertex
 10
3.7317304841
 20
7.1559936587
 30
0.0
  0
VERTEX
  5
238
330
17C
100
AcDbEntity
  8
0
  6
CONTINUOUS
 62
     7
100
AcDbVertex
100
AcDb2dVertex
 10
3.7158576675
 20
7.1545424759
 30
0.0
  0
VERTEX
  5
239
330
17C
100
AcDbEntity
  8
0
  6
CONTINUOUS
 62
     7
100
AcDbVertex
100
AcDb2dVertex
 10
3.6986420273
 20
7.15355503
 30
0.0
  0
VERTEX
  5
23A
330
17C
100
AcDbEntity
  8
0
  6
CONTINUOUS
 62
     7
100
AcDbVertex
100
AcDb2dVertex
 10
3.6809253
 20
7.1532110025
 30
0.0
  0
VERTEX
  5
23B
330
17C
100
AcDbEntity
  8
0
  6
CONTINUOUS
 62
     7
100
AcDbVertex
100
AcDb2dVertex
 10
3.6632461915
 20
7.1535532112
 30
0.0
  0
VERTEX
  5
23C
330
17C
100
AcDbEntity
  8
0
  6
CONTINUOUS
 62
     7
100
AcDbVertex
100
AcDb2dVertex
 10
3.6460064226
 20
7.1545443985
 30
0.0
  0
VERTEX
  5
23D
330
17C
100
AcDbEntity
  8
0
  6
CONTINUOUS
 62
     7
100
AcDbVertex
100
AcDb2dVertex
 10
3.6301717153
 20
7.155995148
 30
0.0
  0
VERTEX
  5
23E
330
17C
100
AcDbEntity
  8
0
  6
CONTINUOUS
 62
     7
100
AcDbVertex
100
AcDb2dVertex
 10
3.6164356981
 20
7.1576926619
 30
0.0
  0
VERTEX
  5
23F
330
17C
100
AcDbEntity
  8
0
  6
CONTINUOUS
 62
     7
100
AcDbVertex
100
AcDb2dVertex
 10
3.6051880764
 20
7.1593865438
 30
0.0
  0
VERTEX
  5
240
330
17C
100
AcDbEntity
  8
0
  6
CONTINUOUS
 62
     7
100
AcDbVertex
100
AcDb2dVertex
 10
3.5967517869
 20
7.1608364019
 30
0.0
  0
VERTEX
  5
241
330
17C
100
AcDbEntity
  8
0
  6
CONTINUOUS
 62
     7
100
AcDbVertex
100
AcDb2dVertex
 10
3.5914614464
 20
7.1618013804
 30
0.0
  0
VERTEX
  5
242
330
17C
100
AcDbEntity
  8
0
  6
CONTINUOUS
 62
     7
100
AcDbVertex
100
AcDb2dVertex
 10
3.5897003193
 20
7.1621346192
 30
0.0
  0
VERTEX
  5
243
330
17C
100
AcDbEntity
  8
0
  6
CONTINUOUS
 62
     7
100
AcDbVertex
100
AcDb2dVertex
 10
3.5897003193
 20
7.1621346192
 30
0.0
  0
SEQEND
  5
244
330
17C
100
AcDbEntity
  8
0
  6
CONTINUOUS
 62
     7
  0
POLYLINE
  5
17D
330
1F
100
AcDbEntity
  8
0
  6
CONTINUOUS
 62
     7
100
AcDb2dPolyline
 66
     1
 10
0.0
 20
0.0
 30
0.0
  0
VERTEX
  5
245
330
17D
100
AcDbEntity
  8
0
  6
CONTINUOUS
 62
     7
100
AcDbVertex
100
AcDb2dVertex
 10
3.063571771
 20
7.162134597
 30
0.0
  0
VERTEX
  5
246
330
17D
100
AcDbEntity
  8
0
  6
CONTINUOUS
 62
     7
100
AcDbVertex
100
AcDb2dVertex
 10
3.0635718875
 20
7.1621346192
 30
0.0
  0
VERTEX
  5
247
330
17D
100
AcDbEntity
  8
0
  6
CONTINUOUS
 62
     7
100
AcDbVertex
100
AcDb2dVertex
 10
3.0618098662
 20
7.1617997702
 30
0.0
  0
VERTEX
  5
248
330
17D
100
AcDbEntity
  8
0
  6
CONTINUOUS
 62
     7
100
AcDbVertex
100
AcDb2dVertex
 10
3.0565224658
 20
7.1608327367
 30
0.0
  0
VERTEX
  5
249
330
17D
100
AcDbEntity
  8
0
  6
CONTINUOUS
 62
     7
100
AcDbVertex
100
AcDb2dVertex
 10
3.0480922754
 20
7.1593852281
 30
0.0
  0
VERTEX
  5
24A
330
17D
100
AcDbEntity
  8
0
  6
CONTINUOUS
 62
     7
100
AcDbVertex
100
AcDb2dVertex
 10
3.0368100782
 20
7.1576890084
 30
0.0
  0
VERTEX
  5
24B
330
17D
100
AcDbEntity
  8
0
  6
CONTINUOUS
 62
     7
100
AcDbVertex
100
AcDb2dVertex
 10
3.0230690668
 20
7.1559936587
 30
0.0
  0
VERTEX
  5
24C
330
17D
100
AcDbEntity
  8
0
  6
CONTINUOUS
 62
     7
100
AcDbVertex
100
AcDb2dVertex
 10
3.0071962502
 20
7.1545424759
 30
0.0
  0
VERTEX
  5
24D
330
17D
100
AcDbEntity
  8
0
  6
CONTINUOUS
 62
     7
100
AcDbVertex
100
AcDb2dVertex
 10
2.98998061
 20
7.15355503
 30
0.0
  0
VERTEX
  5
24E
330
17D
100
AcDbEntity
  8
0
  6
CONTINUOUS
 62
     7
100
AcDbVertex
100
AcDb2dVertex
 10
2.9722638827
 20
7.1532110025
 30
0.0
  0
VERTEX
  5
24F
330
17D
100
AcDbEntity
  8
0
  6
CONTINUOUS
 62
     7
100
AcDbVertex
100
AcDb2dVertex
 10
2.9545847742
 20
7.1535532112
 30
0.0
  0
VERTEX
  5
250
330
17D
100
AcDbEntity
  8
0
  6
CONTINUOUS
 62
     7
100
AcDbVertex
100
AcDb2dVertex
 10
2.9373450053
 20
7.1545443985
 30
0.0
  0
VERTEX
  5
251
330
17D
100
AcDbEntity
  8
0
  6
CONTINUOUS
 62
     7
100
AcDbVertex
100
AcDb2dVertex
 10
2.9215102979
 20
7.155995148
 30
0.0
  0
VERTEX
  5
252
330
17D
100
AcDbEntity
  8
0
  6
CONTINUOUS
 62
     7
100
AcDbVertex
100
AcDb2dVertex
 10
2.9077742808
 20
7.1576926619
 30
0.0
  0
VERTEX
  5
253
330
17D
100
AcDbEntity
  8
0
  6
CONTINUOUS
 62
     7
100
AcDbVertex
100
AcDb2dVertex
 10
2.8965266591
 20
7.1593865438
 30
0.0
  0
VERTEX
  5
254
330
17D
100
AcDbEntity
  8
0
  6
CONTINUOUS
 62
     7
100
AcDbVertex
100
AcDb2dVertex
 10
2.8880903695
 20
7.1608364019
 30
0.0
  0
VERTEX
  5
255
330
17D
100
AcDbEntity
  8
0
  6
CONTINUOUS
 62
     7
100
AcDbVertex
100
AcDb2dVertex
 10
2.8828000291
 20
7.1618013804
 30
0.0
  0
VERTEX
  5
256
330
17D
100
AcDbEntity
  8
0
  6
CONTINUOUS
 62
     7
100
AcDbVertex
100
AcDb2dVertex
 10
2.8810389019
 20
7.1621346192
 30
0.0
  0
VERTEX
  5
257
330
17D
100
AcDbEntity
  8
0
  6
CONTINUOUS
 62
     7
100
AcDbVertex
100
AcDb2dVertex
 10
2.8810389019
 20
7.1621346192
 30
0.0
  0
SEQEND
  5
258
330
17D
100
AcDbEntity
  8
0
  6
CONTINUOUS
 62
     7
  0
SPLINE
  5
17E
330
1F
100
AcDbEntity
  8
0
  6
CONTINUOUS
 62
     7
100
AcDbSpline
210
0.0
220
0.0
230
1.0
 70
     8
 71
     3
 72
    33
 73
    29
 74
     0
 42
0.00000001
 43
0.00000001
 40
-0.0881364761919469
 40
-0.0548809402293786
 40
-0.0255097459299284
 40
0.0
 40
0.0255543765620762
 40
0.0549332755437218
 40
0.0881595162235019
 40
0.1252470073544213
 40
0.1626102011765506
 40
0.1959142135374424
 40
0.2251720716007608
 40
0.2504061688627342
 40
0.3047324089647352
 40
0.3750058053978865
 40
0.4121618123251454
 40
0.4454214678035283
 40
0.4747985191178513
 40
0.500315696633784
 40
0.5549459184249586
 40
0.6249139740480567
 40
0.6622984183115682
 40
0.6956239091919117
 40
0.7249034066932147
 40
0.7501591986637782
 40
0.8044511424394032
 40
0.8747097927964055
 40
0.9118635238080531
 40
0.9451190597706214
 40
0.9744902540700716
 40
1.0
 40
1.025554376562076
 40
1.054933275543722
 40
1.088159516223502
 10
3.602954582596604
 20
6.683270834732683
 30
0.0
 10
3.60188776876491
 20
6.670001247977289
 30
0.0
 10
3.602956286497464
 20
6.656730542866359
 30
0.0
 10
3.606606637118012
 20
6.642605845561671
 30
0.0
 10
3.613770699383678
 20
6.62774989303644
 30
0.0
 10
3.624819108564505
 20
6.613790071089324
 30
0.0
 10
3.638802100214899
 20
6.60274591442826
 30
0.0
 10
3.653706459854661
 20
6.595596488290539
 30
0.0
 10
3.667781317199531
 20
6.591989576216745
 30
0.0
 10
3.685720278379002
 20
6.590551464566102
 30
0.0
 10
3.710544956978793
 20
6.594796942908922
 30
0.0
 10
3.733757921597882
 20
6.609519993366451
 30
0.0
 10
3.748156322930172
 20
6.62774370274581
 30
0.0
 10
3.755333395706984
 20
6.642617375155901
 30
0.0
 10
3.758977938689365
 20
6.656744158880446
 30
0.0
 10
3.760434338570809
 20
6.674800490192577
 30
0.0
 10
3.756143643314114
 20
6.699673255002013
 30
0.0
 10
3.741371778499604
 20
6.722889998894344
 30
0.0
 10
3.723130959430633
 20
6.737267909257008
 30
0.0
 10
3.708213332149986
 20
6.744427771683483
 30
0.0
 10
3.69412764161688
 20
6.74803221825884
 30
0.0
 10
3.676186382982706
 20
6.749463955492645
 30
0.0
 10
3.651368402704522
 20
6.745210505014059
 30
0.0
 10
3.628166164097877
 20
6.730488081930816
 30
0.0
 10
3.613772371302074
 20
6.712265796226533
 30
0.0
 10
3.60659804626276
 20
6.697392340943899
 30
0.0
 10
3.602954582596604
 20
6.683270834732683
 30
0.0
 10
3.60188776876491
 20
6.670001247977289
 30
0.0
 10
3.602956286497464
 20
6.656730542866359
 30
0.0
  0
SPLINE
  5
17F
330
1F
100
AcDbEntity
  8
0
  6
CONTINUOUS
 62
     7
100
AcDbSpline
210
0.0
220
0.0
230
1.0
 70
     8
 71
     3
 72
     9
 73
     5
 74
     0
 42
0.00000001
 43
0.00000001
 40
0.0
 40
0.0
 40
0.0
 40
0.0
 40
0.6708463890361037
 40
1.0
 40
1.0
 40
1.0
 40
1.0
 10
2.89356523724282
 20
6.670008634979419
 30
0.0
 10
2.893663456892134
 20
6.665769569609766
 30
0.0
 10
2.893809868426755
 20
6.659450588932618
 30
0.0
 10
2.895552803462763
 20
6.653412775957852
 30
0.0
 10
2.89612649682354
 20
6.651425408014884
 30
0.0
  0
SPLINE
  5
180
330
1F
100
AcDbEntity
  8
0
  6
CONTINUOUS
 62
     7
100
AcDbSpline
210
0.0
220
0.0
230
1.0
 70
     8
 71
     3
 72
     9
 73
     5
 74
     0
 42
0.00000001
 43
0.00000001
 40
0.0
 40
0.0
 40
0.0
 40
0.0
 40
0.7012271242840227
 40
0.9999999999999999
 40
0.9999999999999999
 40
0.9999999999999999
 40
0.9999999999999999
 10
3.05104550354488
 20
6.670008225883075
 30
0.0
 10
3.050958868823
 20
6.674238724767114
 30
0.0
 10
3.050835321517312
 20
6.680271718554056
 30
0.0
 10
3.049190244010654
 20
6.686037229429088
 30
0.0
 10
3.048698739473214
 20
6.687759807693193
 30
0.0
  0
SPLINE
  5
181
330
1F
100
AcDbEntity
  8
0
  6
CONTINUOUS
 62
     7
100
AcDbSpline
210
0.0
220
0.0
230
1.0
 70
     8
 71
     3
 72
     9
 73
     5
 74
     0
 42
0.00000001
 43
0.00000001
 40
0.0
 40
0.0
 40
0.0
 40
0.0
 40
0.2661395724149416
 40
0.9999999999999999
 40
0.9999999999999999
 40
0.9999999999999999
 40
0.9999999999999999
 10
2.895714635588623
 20
6.686995043635832
 30
0.0
 10
2.895300186200762
 20
6.685527477040352
 30
0.0
 10
2.893742922904285
 20
6.680013202773797
 30
0.0
 10
2.89364044310912
 20
6.674243091388123
 30
0.0
 10
2.89356523724282
 20
6.670008634979419
 30
0.0
  0
LINE
  5
182
330
1F
100
AcDbEntity
  8
0
  6
CONTINUOUS
 62
     7
100
AcDbLine
 10
4.0352975207
 20
7.1471346192
 30
0.0
 11
4.0352975207
 21
6.1928826507
 31
0.0
  0
LINE
  5
183
330
1F
100
AcDbEntity
  8
0
  6
CONTINUOUS
 62
     7
100
AcDbLine
 10
2.6179746861
 20
6.1928826507
 30
0.0
 11
2.6179746861
 21
7.1471346192
 31
0.0
  0
LINE
  5
184
330
1F
100
AcDbEntity
  8
0
  6
CONTINUOUS
 62
     7
100
AcDbLine
 10
3.6122266546
 20
7.1621346192
 30
0.0
 11
3.7497069695
 21
7.1621346192
 31
0.0
  0
LINE
  5
185
330
1F
100
AcDbEntity
  8
0
  6
CONTINUOUS
 62
     7
100
AcDbLine
 10
3.0410455522
 20
7.1621346192
 30
0.0
 11
2.9035652372
 21
7.1621346192
 31
0.0
  0
CIRCLE
  5
186
330
1F
100
AcDbEntity
  8
0
  6
CONTINUOUS
 62
     7
100
AcDbCircle
 10
3.680966812
 20
6.670008635
 30
0.0
 40
0.068740157480315
  0
LINE
  5
187
330
1F
100
AcDbEntity
  8
0
  6
CONTINUOUS
 62
     7
100
AcDbLine
 10
3.680966812
 20
6.7154692861
 30
0.0
 11
3.6415967333
 21
6.6927389605
 31
0.0
  0
LINE
  5
188
330
1F
100
AcDbEntity
  8
0
  6
CONTINUOUS
 62
     7
100
AcDbLine
 10
3.6415967333
 20
6.6927389605
 30
0.0
 11
3.6415967333
 21
6.6472783094
 31
0.0
  0
LINE
  5
189
330
1F
100
AcDbEntity
  8
0
  6
CONTINUOUS
 62
     7
100
AcDbLine
 10
3.6415967333
 20
6.6472783094
 30
0.0
 11
3.680966812
 21
6.6245479839
 31
0.0
  0
LINE
  5
18A
330
1F
100
AcDbEntity
  8
0
  6
CONTINUOUS
 62
     7
100
AcDbLine
 10
3.680966812
 20
6.6245479839
 30
0.0
 11
3.7203368908
 21
6.6472783094
 31
0.0
  0
LINE
  5
18B
330
1F
100
AcDbEntity
  8
0
  6
CONTINUOUS
 62
     7
100
AcDbLine
 10
3.7203368908
 20
6.6472783094
 30
0.0
 11
3.7203368908
 21
6.6927389605
 31
0.0
  0
LINE
  5
18C
330
1F
100
AcDbEntity
  8
0
  6
CONTINUOUS
 62
     7
100
AcDbLine
 10
3.7203368908
 20
6.6927389605
 30
0.0
 11
3.680966812
 21
6.7154692861
 31
0.0
  0
CIRCLE
  5
18D
330
1F
100
AcDbEntity
  8
0
  6
CONTINUOUS
 62
     7
100
AcDbCircle
 10
3.680966812
 20
6.670008635
 30
0.0
 40
0.0787401574803148
  0
CIRCLE
  5
18E
330
1F
100
AcDbEntity
  8
0
  6
CONTINUOUS
 62
     7
100
AcDbCircle
 10
2.9723053947
 20
6.670008635
 30
0.0
 40
0.0687401574803146
  0
LINE
  5
18F
330
1F
100
AcDbEntity
  8
0
  6
CONTINUOUS
 62
     7
100
AcDbLine
 10
2.932935316
 20
6.6472783094
 30
0.0
 11
2.932935316
 21
6.6927389605
 31
0.0
  0
LINE
  5
190
330
1F
100
AcDbEntity
  8
0
  6
CONTINUOUS
 62
     7
100
AcDbLine
 10
2.9723053947
 20
6.6245479839
 30
0.0
 11
2.932935316
 21
6.6472783094
 31
0.0
  0
LINE
  5
191
330
1F
100
AcDbEntity
  8
0
  6
CONTINUOUS
 62
     7
100
AcDbLine
 10
3.0116754735
 20
6.6472783094
 30
0.0
 11
2.9723053947
 21
6.6245479839
 31
0.0
  0
LINE
  5
192
330
1F
100
AcDbEntity
  8
0
  6
CONTINUOUS
 62
     7
100
AcDbLine
 10
3.0116754735
 20
6.6927389605
 30
0.0
 11
3.0116754735
 21
6.6472783094
 31
0.0
  0
LINE
  5
193
330
1F
100
AcDbEntity
  8
0
  6
CONTINUOUS
 62
     7
100
AcDbLine
 10
2.9723053947
 20
6.7154692861
 30
0.0
 11
3.0116754735
 21
6.6927389605
 31
0.0
  0
LINE
  5
194
330
1F
100
AcDbEntity
  8
0
  6
CONTINUOUS
 62
     7
100
AcDbLine
 10
2.932935316
 20
6.6927389605
 30
0.0
 11
2.9723053947
 21
6.7154692861
 31
0.0
  0
CIRCLE
  5
195
330
1F
100
AcDbEntity
  8
0
  6
CONTINUOUS
 62
     7
100
AcDbCircle
 10
2.9723053947
 20
6.670008635
 30
0.0
 40
0.0787401574803144
  0
SPLINE
  5
196
330
1F
100
AcDbEntity
  8
0
  6
HIDDEN
 62
     7
100
AcDbSpline
210
0.0
220
0.0
230
1.0
 70
     8
 71
     3
 72
    12
 73
     8
 74
     0
 42
0.00000001
 43
0.00000001
 40
0.0
 40
0.0
 40
0.0
 40
0.0
 40
0.0001601014040051
 40
0.2476661003805636
 40
0.4982844601221351
 40
0.7501289962536285
 40
1.0
 40
1.0
 40
1.0
 40
1.0
 10
3.036821032233789
 20
7.157690655263997
 30
0.0
 10
3.036824008218731
 20
7.15769102235032
 30
0.0
 10
3.041427656700083
 20
7.158258880193735
 30
0.0
 10
3.048471614462223
 20
7.159446166156987
 30
0.0
 10
3.057073208272833
 20
7.160909430731657
 30
0.0
 10
3.062544394843814
 20
7.161935548643731
 30
0.0
 10
3.063230211519484
 20
7.162068421791296
 30
0.0
 10
3.063571771003923
 20
7.162134597032273
 30
0.0
  0
SPLINE
  5
197
330
1F
100
AcDbEntity
  8
0
  6
HIDDEN
 62
     7
100
AcDbSpline
210
0.0
220
0.0
230
1.0
 70
     8
 71
     3
 72
    23
 73
    19
 74
     0
 42
0.00000001
 43
0.00000001
 40
0.0
 40
0.0
 40
0.0
 40
0.0
 40
0.0363834717487159
 40
0.1081677645224245
 40
0.1882941726600024
 40
0.2690162281624168
 40
0.3409685443119936
 40
0.4041792659036703
 40
0.458696773411933
 40
0.5132592994411226
 40
0.5765133284529045
 40
0.6485072137133403
 40
0.7292690942057041
 40
0.8095435286587346
 40
0.881400013098934
 40
0.9448682481213108
 40
0.9999973419966381
 40
1.0
 40
1.0
 40
1.0
 40
1.0
 10
2.89612649682354
 20
6.651425408014884
 30
0.0
 10
2.896745522652847
 20
6.648718336190474
 30
0.0
 10
2.898585881390468
 20
6.640670233753459
 30
0.0
 10
2.905208595394049
 20
6.627775516611569
 30
0.0
 10
2.916129564586083
 20
6.613782813847872
 30
0.0
 10
2.930147167971793
 20
6.602747588986006
 30
0.0
 10
2.945044225707726
 20
6.595596273291714
 30
0.0
 10
2.95911817666184
 20
6.591989144614539
 30
0.0
 10
2.97227279330739
 20
6.590937276084969
 30
0.0
 10
2.985432134186861
 20
6.591978227494109
 30
0.0
 10
2.999516991573054
 20
6.595578281429353
 30
0.0
 10
3.014433805211068
 20
6.60272286642238
 30
0.0
 10
3.028442298134669
 20
6.613771983954483
 30
0.0
 10
3.039482455030134
 20
6.627744561249455
 30
0.0
 10
3.046728808589748
 20
6.642620835483884
 30
0.0
 10
3.050137427043635
 20
6.656732139917767
 30
0.0
 10
3.051381911183785
 20
6.665816965528735
 30
0.0
 10
3.05104551976293
 20
6.670008023824431
 30
0.0
 10
3.05104550354488
 20
6.670008225883075
 30
0.0
  0
SPLINE
  5
198
330
1F
100
AcDbEntity
  8
0
  6
HIDDEN
 62
     7
100
AcDbSpline
210
0.0
220
0.0
230
1.0
 70
     8
 71
     3
 72
    21
 73
    17
 74
     0
 42
0.00000001
 43
0.00000001
 40
0.0
 40
0.0
 40
0.0
 40
0.0
 40
0.0430414139811739
 40
0.1204059838583371
 40
0.2068589913957864
 40
0.2938402683974284
 40
0.3713743091140496
 40
0.4394913028579518
 40
0.4982430586824453
 40
0.5569525863041025
 40
0.6250278431907029
 40
0.7025210498765229
 40
0.7894618818555246
 40
0.875866921750536
 40
0.9532076860655101
 40
1.0
 40
1.0
 40
1.0
 40
1.0
 10
3.048698739473214
 20
6.687759807693193
 30
0.0
 10
3.048024859249607
 20
6.690735749583166
 30
0.0
 10
3.046139716457563
 20
6.699060783034068
 30
0.0
 10
3.039422373348609
 20
6.712230596154921
 30
0.0
 10
3.028477207192105
 20
6.726237811801298
 30
0.0
 10
3.014443681924904
 20
6.737283870246305
 30
0.0
 10
2.999531979011925
 20
6.744434375674242
 30
0.0
 10
2.985445372006578
 20
6.748036726849238
 30
0.0
 10
2.972285849039551
 20
6.749080037773886
 30
0.0
 10
2.959129827612211
 20
6.748030218372144
 30
0.0
 10
2.945053528466559
 20
6.744424416984072
 30
0.0
 10
2.930151297557874
 20
6.737273719416993
 30
0.0
 10
2.916130233373909
 20
6.726230254918224
 30
0.0
 10
2.905180166019853
 20
6.712232434791067
 30
0.0
 10
2.898374007717855
 20
6.698818623889994
 30
0.0
 10
2.896442661857568
 20
6.690231851649044
 30
0.0
 10
2.895714635588623
 20
6.686995043635832
 30
0.0
  0
LINE
  5
199
330
1F
100
AcDbEntity
  8
0
  6
HIDDEN
 62
     7
100
AcDbLine
 10
3.3766361034
 20
6.8424889499
 30
0.0
 11
3.3766361034
 21
6.49752832
 31
0.0
  0
LINE
  5
19A
330
1F
100
AcDbEntity
  8
0
  6
HIDDEN
 62
     7
100
AcDbLine
 10
3.2766361034
 20
6.8424889499
 30
0.0
 11
3.2766361034
 21
6.49752832
 31
0.0
  0
ARC
  5
19B
330
1F
100
AcDbEntity
  8
0
  6
HIDDEN
 62
     7
100
AcDbCircle
 10
2.9722951554
 20
6.9726641096
 30
0.0
 40
0.1651491053034204
100
AcDbArc
 50
241.5285872751
 51
298.3753071798
  0
ARC
  5
19C
330
1F
100
AcDbEntity
  8
0
  6
HIDDEN
 62
     7
100
AcDbCircle
 10
3.6809565727
 20
6.9726641096
 30
0.0
 40
0.1651491053034219
100
AcDbArc
 50
241.5285872751
 51
298.3753071798
  0
SPLINE
  5
19D
330
1F
100
AcDbEntity
  8
0
  6
HIDDEN
 62
     7
100
AcDbSpline
210
0.0
220
0.0
230
1.0
 70
     8
 71
     3
 72
    24
 73
    20
 74
     0
 42
0.00000001
 43
0.00000001
 40
0.0
 40
0.0
 40
0.0
 40
0.0
 40
0.0510099439635524
 40
0.1096541447768336
 40
0.1759781527634078
 40
0.2500097316493701
 40
0.3245916498785916
 40
0.3910709005133655
 40
0.4494734875098793
 40
0.4998441112733641
 40
0.5502563292148999
 40
0.6086989294446299
 40
0.6752165872289754
 40
0.7498353011545246
 40
0.8240036467078349
 40
0.8903943550889853
 40
0.94903486771203
 40
0.9999705574185346
 40
0.9999999999999999
 40
0.9999999999999999
 40
0.9999999999999999
 40
0.9999999999999999
 10
2.89356523724282
 20
7.151448150617749
 30
0.0
 10
2.893763295132591
 20
7.151387743921157
 30
0.0
 10
2.894189052677721
 20
7.151257889933113
 30
0.0
 10
2.89797948993114
 20
7.150369207727687
 30
0.0
 10
2.905098362585059
 20
7.149016994593271
 30
0.0
 10
2.916160845833448
 20
7.147097550265254
 30
0.0
 10
2.930139732939484
 20
7.145177799047793
 30
0.0
 10
2.945045873536883
 20
7.143798398212769
 30
0.0
 10
2.959117823306898
 20
7.142943748363828
 30
0.0
 10
2.972272881619948
 20
7.142614075027598
 30
0.0
 10
2.985432106450995
 20
7.142943031570161
 30
0.0
 10
2.999517000398261
 20
7.143796901047092
 30
0.0
 10
3.014433803495533
 20
7.145174700437288
 30
0.0
 10
3.028442293890693
 20
7.147097087649677
 30
0.0
 10
3.039482472692026
 20
7.149006651246992
 30
0.0
 10
3.046728752602971
 20
7.150394726694572
 30
0.0
 10
3.050137599760934
 20
7.151177609012795
 30
0.0
 10
3.051381894629651
 20
7.151538553064548
 30
0.0
 10
3.051045163442841
 20
7.151448046130731
 30
0.0
 10
3.051044968913073
 20
7.151447993844831
 30
0.0
  0
SPLINE
  5
19E
330
1F
100
AcDbEntity
  8
0
  6
HIDDEN
 62
     7
100
AcDbSpline
210
0.0
220
0.0
230
1.0
 70
     8
 71
     3
 72
    24
 73
    20
 74
     0
 42
0.00000001
 43
0.00000001
 40
0.0
 40
0.0
 40
0.0
 40
0.0
 40
0.0510099439635528
 40
0.1096541447768348
 40
0.1759781527634096
 40
0.2500097316493722
 40
0.3245916498791674
 40
0.3910709005141322
 40
0.4494734875104544
 40
0.4998441112733648
 40
0.5502563292155319
 40
0.6086989294454731
 40
0.6752165872296089
 40
0.7498353011545285
 40
0.8240036467077799
 40
0.8903943550889104
 40
0.9490348677119743
 40
0.9999705574185372
 40
0.9999999999999999
 40
0.9999999999999999
 40
0.9999999999999999
 40
0.9999999999999999
 10
3.602226654565655
 20
7.151448150617749
 30
0.0
 10
3.602424712455426
 20
7.151387743921157
 30
0.0
 10
3.602850470000556
 20
7.151257889933114
 30
0.0
 10
3.606640907253975
 20
7.150369207727687
 30
0.0
 10
3.613759779907893
 20
7.149016994593271
 30
0.0
 10
3.624822263156313
 20
7.14709755026525
 30
0.0
 10
3.63880115026241
 20
7.145177799047779
 30
0.0
 10
3.653707290859868
 20
7.14379839821275
 30
0.0
 10
3.667779240629843
 20
7.142943748363811
 30
0.0
 10
3.680934298942882
 20
7.142614075027598
 30
0.0
 10
3.694093523773951
 20
7.14294303157018
 30
0.0
 10
3.70817841772126
 20
7.143796901047111
 30
0.0
 10
3.723095220818469
 20
7.145174700437302
 30
0.0
 10
3.737103711213555
 20
7.147097087649682
 30
0.0
 10
3.748143890014861
 20
7.149006651246995
 30
0.0
 10
3.755390169925779
 20
7.150394726694566
 30
0.0
 10
3.758799017083833
 20
7.151177609012816
 30
0.0
 10
3.760043311952365
 20
7.151538553064512
 30
0.0
 10
3.759706580765676
 20
7.151448046130731
 30
0.0
 10
3.759706386235907
 20
7.151447993844831
 30
0.0
  0
LINE
  5
19F
330
1F
100
AcDbEntity
  8
0
  6
HIDDEN
 62
     7
100
AcDbLine
 10
3.7597069695
 20
7.1521346192
 30
0.0
 11
3.6022266546
 21
7.1521346192
 31
0.0
  0
LINE
  5
1A0
330
1F
100
AcDbEntity
  8
0
  6
HIDDEN
 62
     7
100
AcDbLine
 10
3.6022266546
 20
6.8374889499
 30
0.0
 11
3.7597069695
 21
6.8374889499
 31
0.0
  0
LINE
  5
1A1
330
1F
100
AcDbEntity
  8
0
  6
HIDDEN
 62
     7
100
AcDbLine
 10
3.7497069695
 20
6.8274889499
 30
0.0
 11
3.6122266546
 21
6.8274889499
 31
0.0
  0
LINE
  5
1A2
330
1F
100
AcDbEntity
  8
0
  6
HIDDEN
 62
     7
100
AcDbLine
 10
3.680966812
 20
7.0833944618
 30
0.0
 11
3.680966812
 21
7.1621346192
 31
0.0
  0
LINE
  5
1A3
330
1F
100
AcDbEntity
  8
0
  6
HIDDEN
 62
     7
100
AcDbLine
 10
3.680966812
 20
7.0833944618
 30
0.0
 11
3.7203368908
 21
7.0833944618
 31
0.0
  0
LINE
  5
1A4
330
1F
100
AcDbEntity
  8
0
  6
HIDDEN
 62
     7
100
AcDbLine
 10
3.6415967333
 20
7.0833944618
 30
0.0
 11
3.680966812
 21
7.0833944618
 31
0.0
  0
LINE
  5
1A5
330
1F
100
AcDbEntity
  8
0
  6
HIDDEN
 62
     7
100
AcDbLine
 10
3.6415967333
 20
7.0833944618
 30
0.0
 11
3.6415967333
 21
7.1621346192
 31
0.0
  0
LINE
  5
1A6
330
1F
100
AcDbEntity
  8
0
  6
HIDDEN
 62
     7
100
AcDbLine
 10
3.7203368908
 20
7.0833944618
 30
0.0
 11
3.7203368908
 21
7.1621346192
 31
0.0
  0
LINE
  5
1A7
330
1F
100
AcDbEntity
  8
0
  6
HIDDEN
 62
     7
100
AcDbLine
 10
2.8935652372
 20
7.1521346192
 30
0.0
 11
3.0510455522
 21
7.1521346192
 31
0.0
  0
LINE
  5
1A8
330
1F
100
AcDbEntity
  8
0
  6
HIDDEN
 62
     7
100
AcDbLine
 10
3.0510455522
 20
6.8374889499
 30
0.0
 11
2.8935652372
 21
6.8374889499
 31
0.0
  0
LINE
  5
1A9
330
1F
100
AcDbEntity
  8
0
  6
HIDDEN
 62
     7
100
AcDbLine
 10
2.9035652372
 20
6.8274889499
 30
0.0
 11
3.0410455522
 21
6.8274889499
 31
0.0
  0
LINE
  5
1AA
330
1F
100
AcDbEntity
  8
0
  6
HIDDEN
 62
     7
100
AcDbLine
 10
2.9723053947
 20
7.0833944618
 30
0.0
 11
2.9723053947
 21
7.1621346192
 31
0.0
  0
LINE
  5
1AB
330
1F
100
AcDbEntity
  8
0
  6
HIDDEN
 62
     7
100
AcDbLine
 10
2.9723053947
 20
7.0833944618
 30
0.0
 11
2.932935316
 21
7.0833944618
 31
0.0
  0
LINE
  5
1AC
330
1F
100
AcDbEntity
  8
0
  6
HIDDEN
 62
     7
100
AcDbLine
 10
3.0116754735
 20
7.0833944618
 30
0.0
 11
2.9723053947
 21
7.0833944618
 31
0.0
  0
LINE
  5
1AD
330
1F
100
AcDbEntity
  8
0
  6
HIDDEN
 62
     7
100
AcDbLine
 10
3.0116754735
 20
7.0833944618
 30
0.0
 11
3.0116754735
 21
7.1621346192
 31
0.0
  0
LINE
  5
1AE
330
1F
100
AcDbEntity
  8
0
  6
HIDDEN
 62
     7
100
AcDbLine
 10
2.932935316
 20
7.0833944618
 30
0.0
 11
2.932935316
 21
7.1621346192
 31
0.0
  0
LINE
  5
1AF
330
1F
100
AcDbEntity
  8
0
  6
HIDDEN
 62
     7
100
AcDbLine
 10
2.6179746861
 20
6.49752832
 30
0.0
 11
2.6329746861
 21
6.51252832
 31
0.0
  0
LINE
  5
1B0
330
1F
100
AcDbEntity
  8
0
  6
HIDDEN
 62
     7
100
AcDbLine
 10
2.6329746861
 20
6.8274889499
 30
0.0
 11
2.6179746861
 21
6.8424889499
 31
0.0
  0
LINE
  5
1B1
330
1F
100
AcDbEntity
  8
0
  6
HIDDEN
 62
     7
100
AcDbLine
 10
4.0352975207
 20
6.8424889499
 30
0.0
 11
4.0202975207
 21
6.8274889499
 31
0.0
  0
LINE
  5
1B2
330
1F
100
AcDbEntity
  8
0
  6
HIDDEN
 62
     7
100
AcDbLine
 10
4.0202975207
 20
6.51252832
 30
0.0
 11
4.0352975207
 21
6.49752832
 31
0.0
  0
LINE
  5
1B3
330
1F
100
AcDbEntity
  8
0
  6
HIDDEN
 62
     7
100
AcDbLine
 10
3.3766361034
 20
6.8424889499
 30
0.0
 11
3.2766361034
 21
6.8424889499
 31
0.0
  0
LINE
  5
1B4
330
1F
100
AcDbEntity
  8
0
  6
HIDDEN
 62
     7
100
AcDbLine
 10
3.2766361034
 20
6.49752832
 30
0.0
 11
3.3766361034
 21
6.49752832
 31
0.0
  0
LINE
  5
1B5
330
1F
100
AcDbEntity
  8
0
  6
HIDDEN
 62
     7
100
AcDbLine
 10
2.8935652372
 20
6.8274889499
 30
0.0
 11
2.6329746861
 21
6.8274889499
 31
0.0
  0
LINE
  5
1B6
330
1F
100
AcDbEntity
  8
0
  6
HIDDEN
 62
     7
100
AcDbLine
 10
3.2766361034
 20
6.8274889499
 30
0.0
 11
3.0507814522
 21
6.8274889499
 31
0.0
  0
LINE
  5
1B7
330
1F
100
AcDbEntity
  8
0
  6
HIDDEN
 62
     7
100
AcDbLine
 10
2.6329746861
 20
6.51252832
 30
0.0
 11
3.2766361034
 21
6.51252832
 31
0.0
  0
LINE
  5
1B8
330
1F
100
AcDbEntity
  8
0
  6
HIDDEN
 62
     7
100
AcDbLine
 10
3.6022266546
 20
6.8274889499
 30
0.0
 11
3.3766361034
 21
6.8274889499
 31
0.0
  0
LINE
  5
1B9
330
1F
100
AcDbEntity
  8
0
  6
HIDDEN
 62
     7
100
AcDbLine
 10
4.0202975207
 20
6.8274889499
 30
0.0
 11
3.7594428695
 21
6.8274889499
 31
0.0
  0
LINE
  5
1BA
330
1F
100
AcDbEntity
  8
0
  6
HIDDEN
 62
     7
100
AcDbLine
 10
3.3766361034
 20
6.51252832
 30
0.0
 11
4.0202975207
 21
6.51252832
 31
0.0
  0
LINE
  5
1BB
330
1F
100
AcDbEntity
  8
0
  6
HIDDEN
 62
     7
100
AcDbLine
 10
3.0510455532
 20
7.1514481506
 30
0.0
 11
3.0635718887
 21
7.1621346193
 31
0.0
  0
LINE
  5
1BC
330
1F
100
AcDbEntity
  8
0
  6
HIDDEN
 62
     7
100
AcDbLine
 10
2.8810388999
 20
7.1621346194
 30
0.0
 11
2.8935652355
 21
7.1514481508
 31
0.0
  0
LINE
  5
1BD
330
1F
100
AcDbEntity
  8
0
  6
HIDDEN
 62
     7
100
AcDbLine
 10
3.7597069706
 20
7.1514481506
 30
0.0
 11
3.772233306
 21
7.1621346193
 31
0.0
  0
LINE
  5
1BE
330
1F
100
AcDbEntity
  8
0
  6
HIDDEN
 62
     7
100
AcDbLine
 10
3.5897003172
 20
7.1621346194
 30
0.0
 11
3.6022266528
 21
7.1514481508
 31
0.0
  0
LINE
  5
1BF
330
1F
100
AcDbEntity
  8
0
  6
HIDDEN
 62
     7
100
AcDbLine
 10
3.0510455522
 20
6.8273571257
 30
0.0
 11
3.0510455522
 21
7.1514481289
 31
0.0
  0
LINE
  5
1C0
330
1F
100
AcDbEntity
  8
0
  6
HIDDEN
 62
     7
100
AcDbLine
 10
2.8935652372
 20
7.1514481506
 30
0.0
 11
2.8935652372
 21
6.8274889499
 31
0.0
  0
LINE
  5
1C1
330
1F
100
AcDbEntity
  8
0
  6
HIDDEN
 62
     7
100
AcDbLine
 10
3.7597069695
 20
6.8273571257
 30
0.0
 11
3.7597069695
 21
7.1514481289
 31
0.0
  0
LINE
  5
1C2
330
1F
100
AcDbEntity
  8
0
  6
HIDDEN
 62
     7
100
AcDbLine
 10
3.6022266546
 20
7.1514481506
 30
0.0
 11
3.6022266546
 21
6.8274889499
 31
0.0
  0
LINE
  5
1C3
330
1F
100
AcDbEntity
  8
0
  6
HIDDEN
 62
     7
100
AcDbLine
 10
3.7597069695
 20
7.1521346192
 30
0.0
 11
3.7530180023
 21
7.1588235864
 31
0.0
  0
LINE
  5
1C4
330
1F
100
AcDbEntity
  8
0
  6
HIDDEN
 62
     7
100
AcDbLine
 10
3.6089170057
 20
7.1588249704
 30
0.0
 11
3.6022266546
 21
7.1521346192
 31
0.0
  0
LINE
  5
1C5
330
1F
100
AcDbEntity
  8
0
  6
HIDDEN
 62
     7
100
AcDbLine
 10
3.7597069695
 20
6.8374889499
 30
0.0
 11
3.7597069695
 21
7.1521346192
 31
0.0
  0
LINE
  5
1C6
330
1F
100
AcDbEntity
  8
0
  6
HIDDEN
 62
     7
100
AcDbLine
 10
3.6022266546
 20
7.1521346192
 30
0.0
 11
3.6022266546
 21
6.8374889499
 31
0.0
  0
LINE
  5
1C7
330
1F
100
AcDbEntity
  8
0
  6
HIDDEN
 62
     7
100
AcDbLine
 10
3.6022266546
 20
6.8374889499
 30
0.0
 11
3.6122266546
 21
6.8274889499
 31
0.0
  0
LINE
  5
1C8
330
1F
100
AcDbEntity
  8
0
  6
HIDDEN
 62
     7
100
AcDbLine
 10
3.7497069695
 20
6.8274889499
 30
0.0
 11
3.7597069695
 21
6.8374889499
 31
0.0
  0
LINE
  5
1C9
330
1F
100
AcDbEntity
  8
0
  6
HIDDEN
 62
     7
100
AcDbLine
 10
3.0510455522
 20
7.1521346192
 30
0.0
 11
3.044356585
 21
7.1588235864
 31
0.0
  0
LINE
  5
1CA
330
1F
100
AcDbEntity
  8
0
  6
HIDDEN
 62
     7
100
AcDbLine
 10
2.9002555884
 20
7.1588249704
 30
0.0
 11
2.8935652372
 21
7.1521346192
 31
0.0
  0
LINE
  5
1CB
330
1F
100
AcDbEntity
  8
0
  6
HIDDEN
 62
     7
100
AcDbLine
 10
3.0510455522
 20
6.8374889499
 30
0.0
 11
3.0510455522
 21
7.1521346192
 31
0.0
  0
LINE
  5
1CC
330
1F
100
AcDbEntity
  8
0
  6
HIDDEN
 62
     7
100
AcDbLine
 10
2.8935652372
 20
7.1521346192
 30
0.0
 11
2.8935652372
 21
6.8374889499
 31
0.0
  0
LINE
  5
1CD
330
1F
100
AcDbEntity
  8
0
  6
HIDDEN
 62
     7
100
AcDbLine
 10
2.8935652372
 20
6.8374889499
 30
0.0
 11
2.9035652372
 21
6.8274889499
 31
0.0
  0
LINE
  5
1CE
330
1F
100
AcDbEntity
  8
0
  6
HIDDEN
 62
     7
100
AcDbLine
 10
3.0410455522
 20
6.8274889499
 30
0.0
 11
3.0510455522
 21
6.8374889499
 31
0.0
  0
LINE
  5
1CF
330
1F
100
AcDbEntity
  8
0
  6
CONTINUOUS
 62
     7
100
AcDbLine
 10
8.662697696
 20
6.1650723648
 30
0.0
 11
8.6733025739
 21
6.1711964208
 31
0.0
  0
LINE
  5
1D0
330
1F
100
AcDbEntity
  8
0
  6
CONTINUOUS
 62
     7
100
AcDbLine
 10
9.0106267592
 20
6.7555223614
 30
0.0
 11
9.0106267592
 21
6.7677684831
 31
0.0
  0
LINE
  5
1D1
330
1F
100
AcDbEntity
  8
0
  6
CONTINUOUS
 62
     7
100
AcDbLine
 10
7.4356127592
 20
6.7069863194
 30
0.0
 11
8.4165981433
 21
6.1406755115
 31
0.0
  0
LINE
  5
1D2
330
1F
100
AcDbEntity
  8
0
  6
CONTINUOUS
 62
     7
100
AcDbLine
 10
8.9086841338
 20
6.9930858091
 30
0.0
 11
7.9276987497
 21
7.559396617
 31
0.0
  0
LINE
  5
1D3
330
1F
100
AcDbEntity
  8
0
  6
CONTINUOUS
 62
     7
100
AcDbLine
 10
7.681599197
 20
7.5349997637
 30
0.0
 11
7.6709943192
 21
7.5288757077
 31
0.0
  0
LINE
  5
1D4
330
1F
100
AcDbEntity
  8
0
  6
CONTINUOUS
 62
     7
100
AcDbLine
 10
7.3336701338
 20
6.9445497671
 30
0.0
 11
7.3336701338
 21
6.9323036454
 31
0.0
  0
LINE
  5
1D5
330
1F
100
AcDbEntity
  8
0
  6
CONTINUOUS
 62
     7
100
AcDbLine
 10
8.4783848397
 20
7.1312092025
 30
0.0
 11
8.4713126229
 21
7.1352932335
 31
0.0
  0
LINE
  5
1D6
330
1F
100
AcDbEntity
  8
0
  6
CONTINUOUS
 62
     7
100
AcDbLine
 10
8.3740835639
 20
7.1352932335
 30
0.0
 11
8.3670113471
 21
7.1312092025
 31
0.0
  0
LINE
  5
1D7
330
1F
100
AcDbEntity
  8
0
  6
CONTINUOUS
 62
     7
100
AcDbLine
 10
8.5014382509
 20
7.0932610763
 30
0.0
 11
8.5014382509
 21
7.0990723744
 31
0.0
  0
LINE
  5
1D8
330
1F
100
AcDbEntity
  8
0
  6
CONTINUOUS
 62
     7
100
AcDbLine
 10
8.3439579359
 20
7.0990723744
 30
0.0
 11
8.3439579359
 21
7.0949623567
 31
0.0
  0
LINE
  5
1D9
330
1F
100
AcDbEntity
  8
0
  6
CONTINUOUS
 62
     7
100
AcDbLine
 10
7.9772855459
 20
7.4204876673
 30
0.0
 11
7.9702133292
 21
7.4245716983
 31
0.0
  0
LINE
  5
1DA
330
1F
100
AcDbEntity
  8
0
  6
CONTINUOUS
 62
     7
100
AcDbLine
 10
7.8729842701
 20
7.4245716983
 30
0.0
 11
7.8659120533
 21
7.4204876673
 31
0.0
  0
LINE
  5
1DB
330
1F
100
AcDbEntity
  8
0
  6
CONTINUOUS
 62
     7
100
AcDbLine
 10
8.0003389571
 20
7.3825395412
 30
0.0
 11
8.0003389571
 21
7.3883508393
 31
0.0
  0
LINE
  5
1DC
330
1F
100
AcDbEntity
  8
0
  6
CONTINUOUS
 62
     7
100
AcDbLine
 10
7.8428586422
 20
7.3883508393
 30
0.0
 11
7.8428586422
 21
7.3842408216
 31
0.0
  0
POLYLINE
  5
1DD
330
1F
100
AcDbEntity
  8
0
  6
CONTINUOUS
 62
     7
100
AcDb2dPolyline
 66
     1
 10
0.0
 20
0.0
 30
0.0
  0
VERTEX
  5
259
330
1DD
100
AcDbEntity
  8
0
  6
CONTINUOUS
 62
     7
100
AcDbVertex
100
AcDb2dVertex
 10
9.0106267592
 20
6.7555223614
 30
0.0
  0
VERTEX
  5
25A
330
1DD
100
AcDbEntity
  8
0
  6
CONTINUOUS
 62
     7
100
AcDbVertex
100
AcDb2dVertex
 10
9.0101403837
 20
6.7761536133
 30
0.0
  0
VERTEX
  5
25B
330
1DD
100
AcDbEntity
  8
0
  6
CONTINUOUS
 62
     7
100
AcDbVertex
100
AcDb2dVertex
 10
9.0086826595
 20
6.7961638227
 30
0.0
  0
VERTEX
  5
25C
330
1DD
100
AcDbEntity
  8
0
  6
CONTINUOUS
 62
     7
100
AcDbVertex
100
AcDb2dVertex
 10
9.0062577895
 20
6.8154952951
 30
0.0
  0
VERTEX
  5
25D
330
1DD
100
AcDbEntity
  8
0
  6
CONTINUOUS
 62
     7
100
AcDbVertex
100
AcDb2dVertex
 10
9.0028727654
 20
6.8340922928
 30
0.0
  0
VERTEX
  5
25E
330
1DD
100
AcDbEntity
  8
0
  6
CONTINUOUS
 62
     7
100
AcDbVertex
100
AcDb2dVertex
 10
8.998537347
 20
6.8519011957
 30
0.0
  0
VERTEX
  5
25F
330
1DD
100
AcDbEntity
  8
0
  6
CONTINUOUS
 62
     7
100
AcDbVertex
100
AcDb2dVertex
 10
8.9932640345
 20
6.8688706563
 30
0.0
  0
VERTEX
  5
260
330
1DD
100
AcDbEntity
  8
0
  6
CONTINUOUS
 62
     7
100
AcDbVertex
100
AcDb2dVertex
 10
8.9870680321
 20
6.8849517472
 30
0.0
  0
VERTEX
  5
261
330
1DD
100
AcDbEntity
  8
0
  6
CONTINUOUS
 62
     7
100
AcDbVertex
100
AcDb2dVertex
 10
8.9799672046
 20
6.9000981025
 30
0.0
  0
VERTEX
  5
262
330
1DD
100
AcDbEntity
  8
0
  6
CONTINUOUS
 62
     7
100
AcDbVertex
100
AcDb2dVertex
 10
8.9719820255
 20
6.9142660512
 30
0.0
  0
VERTEX
  5
263
330
1DD
100
AcDbEntity
  8
0
  6
CONTINUOUS
 62
     7
100
AcDbVertex
100
AcDb2dVertex
 10
8.9631355181
 20
6.9274147436
 30
0.0
  0
VERTEX
  5
264
330
1DD
100
AcDbEntity
  8
0
  6
CONTINUOUS
 62
     7
100
AcDbVertex
100
AcDb2dVertex
 10
8.9534531892
 20
6.9395062685
 30
0.0
  0
VERTEX
  5
265
330
1DD
100
AcDbEntity
  8
0
  6
CONTINUOUS
 62
     7
100
AcDbVertex
100
AcDb2dVertex
 10
8.9429629555
 20
6.9505057629
 30
0.0
  0
VERTEX
  5
266
330
1DD
100
AcDbEntity
  8
0
  6
CONTINUOUS
 62
     7
100
AcDbVertex
100
AcDb2dVertex
 10
8.931695063
 20
6.9603815125
 30
0.0
  0
VERTEX
  5
267
330
1DD
100
AcDbEntity
  8
0
  6
CONTINUOUS
 62
     7
100
AcDbVertex
100
AcDb2dVertex
 10
8.9196819999
 20
6.9691050429
 30
0.0
  0
VERTEX
  5
268
330
1DD
100
AcDbEntity
  8
0
  6
CONTINUOUS
 62
     7
100
AcDbVertex
100
AcDb2dVertex
 10
8.9069584031
 20
6.9766512019
 30
0.0
  0
VERTEX
  5
269
330
1DD
100
AcDbEntity
  8
0
  6
CONTINUOUS
 62
     7
100
AcDbVertex
100
AcDb2dVertex
 10
8.8935609579
 20
6.9829982319
 30
0.0
  0
VERTEX
  5
26A
330
1DD
100
AcDbEntity
  8
0
  6
CONTINUOUS
 62
     7
100
AcDbVertex
100
AcDb2dVertex
 10
8.8795282927
 20
6.988127833
 30
0.0
  0
VERTEX
  5
26B
330
1DD
100
AcDbEntity
  8
0
  6
CONTINUOUS
 62
     7
100
AcDbVertex
100
AcDb2dVertex
 10
8.8649008672
 20
6.992025215
 30
0.0
  0
VERTEX
  5
26C
330
1DD
100
AcDbEntity
  8
0
  6
CONTINUOUS
 62
     7
100
AcDbVertex
100
AcDb2dVertex
 10
8.8497208562
 20
6.9946791408
 30
0.0
  0
VERTEX
  5
26D
330
1DD
100
AcDbEntity
  8
0
  6
CONTINUOUS
 62
     7
100
AcDbVertex
100
AcDb2dVertex
 10
8.8340320275
 20
6.9960819585
 30
0.0
  0
VERTEX
  5
26E
330
1DD
100
AcDbEntity
  8
0
  6
CONTINUOUS
 62
     7
100
AcDbVertex
100
AcDb2dVertex
 10
8.8178796161
 20
6.9962296234
 30
0.0
  0
VERTEX
  5
26F
330
1DD
100
AcDbEntity
  8
0
  6
CONTINUOUS
 62
     7
100
AcDbVertex
100
AcDb2dVertex
 10
8.8013101935
 20
6.9951217097
 30
0.0
  0
VERTEX
  5
270
330
1DD
100
AcDbEntity
  8
0
  6
CONTINUOUS
 62
     7
100
AcDbVertex
100
AcDb2dVertex
 10
8.7843715337
 20
6.9927614118
 30
0.0
  0
VERTEX
  5
271
330
1DD
100
AcDbEntity
  8
0
  6
CONTINUOUS
 62
     7
100
AcDbVertex
100
AcDb2dVertex
 10
8.7671124753
 20
6.9891555351
 30
0.0
  0
VERTEX
  5
272
330
1DD
100
AcDbEntity
  8
0
  6
CONTINUOUS
 62
     7
100
AcDbVertex
100
AcDb2dVertex
 10
8.7495827805
 20
6.9843144763
 30
0.0
  0
VERTEX
  5
273
330
1DD
100
AcDbEntity
  8
0
  6
CONTINUOUS
 62
     7
100
AcDbVertex
100
AcDb2dVertex
 10
8.7318329921
 20
6.9782521933
 30
0.0
  0
VERTEX
  5
274
330
1DD
100
AcDbEntity
  8
0
  6
CONTINUOUS
 62
     7
100
AcDbVertex
100
AcDb2dVertex
 10
8.7139142872
 20
6.9709861654
 30
0.0
  0
VERTEX
  5
275
330
1DD
100
AcDbEntity
  8
0
  6
CONTINUOUS
 62
     7
100
AcDbVertex
100
AcDb2dVertex
 10
8.6958783301
 20
6.9625373423
 30
0.0
  0
VERTEX
  5
276
330
1DD
100
AcDbEntity
  8
0
  6
CONTINUOUS
 62
     7
100
AcDbVertex
100
AcDb2dVertex
 10
8.6777771232
 20
6.9529300841
 30
0.0
  0
VERTEX
  5
277
330
1DD
100
AcDbEntity
  8
0
  6
CONTINUOUS
 62
     7
100
AcDbVertex
100
AcDb2dVertex
 10
8.6596628569
 20
6.9421920912
 30
0.0
  0
VERTEX
  5
278
330
1DD
100
AcDbEntity
  8
0
  6
CONTINUOUS
 62
     7
100
AcDbVertex
100
AcDb2dVertex
 10
8.6415877593
 20
6.9303543239
 30
0.0
  0
VERTEX
  5
279
330
1DD
100
AcDbEntity
  8
0
  6
CONTINUOUS
 62
     7
100
AcDbVertex
100
AcDb2dVertex
 10
8.6236039457
 20
6.9174509136
 30
0.0
  0
VERTEX
  5
27A
330
1DD
100
AcDbEntity
  8
0
  6
CONTINUOUS
 62
     7
100
AcDbVertex
100
AcDb2dVertex
 10
8.6057632679
 20
6.9035190641
 30
0.0
  0
VERTEX
  5
27B
330
1DD
100
AcDbEntity
  8
0
  6
CONTINUOUS
 62
     7
100
AcDbVertex
100
AcDb2dVertex
 10
8.5881171654
 20
6.8885989446
 30
0.0
  0
VERTEX
  5
27C
330
1DD
100
AcDbEntity
  8
0
  6
CONTINUOUS
 62
     7
100
AcDbVertex
100
AcDb2dVertex
 10
8.5707165164
 20
6.8727335736
 30
0.0
  0
VERTEX
  5
27D
330
1DD
100
AcDbEntity
  8
0
  6
CONTINUOUS
 62
     7
100
AcDbVertex
100
AcDb2dVertex
 10
8.5536114914
 20
6.8559686951
 30
0.0
  0
VERTEX
  5
27E
330
1DD
100
AcDbEntity
  8
0
  6
CONTINUOUS
 62
     7
100
AcDbVertex
100
AcDb2dVertex
 10
8.5368514087
 20
6.8383526466
 30
0.0
  0
VERTEX
  5
27F
330
1DD
100
AcDbEntity
  8
0
  6
CONTINUOUS
 62
     7
100
AcDbVertex
100
AcDb2dVertex
 10
8.5204845919
 20
6.8199362197
 30
0.0
  0
VERTEX
  5
280
330
1DD
100
AcDbEntity
  8
0
  6
CONTINUOUS
 62
     7
100
AcDbVertex
100
AcDb2dVertex
 10
8.5045582308
 20
6.8007725138
 30
0.0
  0
VERTEX
  5
281
330
1DD
100
AcDbEntity
  8
0
  6
CONTINUOUS
 62
     7
100
AcDbVertex
100
AcDb2dVertex
 10
8.4891182452
 20
6.7809167827
 30
0.0
  0
VERTEX
  5
282
330
1DD
100
AcDbEntity
  8
0
  6
CONTINUOUS
 62
     7
100
AcDbVertex
100
AcDb2dVertex
 10
8.4742091527
 20
6.7604262757
 30
0.0
  0
VERTEX
  5
283
330
1DD
100
AcDbEntity
  8
0
  6
CONTINUOUS
 62
     7
100
AcDbVertex
100
AcDb2dVertex
 10
8.4598739399
 20
6.7393600722
 30
0.0
  0
VERTEX
  5
284
330
1DD
100
AcDbEntity
  8
0
  6
CONTINUOUS
 62
     7
100
AcDbVertex
100
AcDb2dVertex
 10
8.446153939
 20
6.7177789116
 30
0.0
  0
VERTEX
  5
285
330
1DD
100
AcDbEntity
  8
0
  6
CONTINUOUS
 62
     7
100
AcDbVertex
100
AcDb2dVertex
 10
8.4330887084
 20
6.6957450179
 30
0.0
  0
VERTEX
  5
286
330
1DD
100
AcDbEntity
  8
0
  6
CONTINUOUS
 62
     7
100
AcDbVertex
100
AcDb2dVertex
 10
8.4207159184
 20
6.6733219205
 30
0.0
  0
VERTEX
  5
287
330
1DD
100
AcDbEntity
  8
0
  6
CONTINUOUS
 62
     7
100
AcDbVertex
100
AcDb2dVertex
 10
8.409071243
 20
6.650574271
 30
0.0
  0
VERTEX
  5
288
330
1DD
100
AcDbEntity
  8
0
  6
CONTINUOUS
 62
     7
100
AcDbVertex
100
AcDb2dVertex
 10
8.3981882568
 20
6.6275676568
 30
0.0
  0
VERTEX
  5
289
330
1DD
100
AcDbEntity
  8
0
  6
CONTINUOUS
 62
     7
100
AcDbVertex
100
AcDb2dVertex
 10
8.3880983384
 20
6.6043684119
 30
0.0
  0
VERTEX
  5
28A
330
1DD
100
AcDbEntity
  8
0
  6
CONTINUOUS
 62
     7
100
AcDbVertex
100
AcDb2dVertex
 10
8.3788305795
 20
6.5810434258
 30
0.0
  0
VERTEX
  5
28B
330
1DD
100
AcDbEntity
  8
0
  6
CONTINUOUS
 62
     7
100
AcDbVertex
100
AcDb2dVertex
 10
8.3704117014
 20
6.5576599503
 30
0.0
  0
VERTEX
  5
28C
330
1DD
100
AcDbEntity
  8
0
  6
CONTINUOUS
 62
     7
100
AcDbVertex
100
AcDb2dVertex
 10
8.3628659781
 20
6.5342854062
 30
0.0
  0
VERTEX
  5
28D
330
1DD
100
AcDbEntity
  8
0
  6
CONTINUOUS
 62
     7
100
AcDbVertex
100
AcDb2dVertex
 10
8.3562151658
 20
6.5109871883
 30
0.0
  0
VERTEX
  5
28E
330
1DD
100
AcDbEntity
  8
0
  6
CONTINUOUS
 62
     7
100
AcDbVertex
100
AcDb2dVertex
 10
8.3504784404
 20
6.4878324714
 30
0.0
  0
VERTEX
  5
28F
330
1DD
100
AcDbEntity
  8
0
  6
CONTINUOUS
 62
     7
100
AcDbVertex
100
AcDb2dVertex
 10
8.3456723425
 20
6.4648880164
 30
0.0
  0
VERTEX
  5
290
330
1DD
100
AcDbEntity
  8
0
  6
CONTINUOUS
 62
     7
100
AcDbVertex
100
AcDb2dVertex
 10
8.3418107292
 20
6.4422199783
 30
0.0
  0
VERTEX
  5
291
330
1DD
100
AcDbEntity
  8
0
  6
CONTINUOUS
 62
     7
100
AcDbVertex
100
AcDb2dVertex
 10
8.3389047346
 20
6.4198937149
 30
0.0
  0
VERTEX
  5
292
330
1DD
100
AcDbEntity
  8
0
  6
CONTINUOUS
 62
     7
100
AcDbVertex
100
AcDb2dVertex
 10
8.3369627375
 20
6.3979735985
 30
0.0
  0
VERTEX
  5
293
330
1DD
100
AcDbEntity
  8
0
  6
CONTINUOUS
 62
     7
100
AcDbVertex
100
AcDb2dVertex
 10
8.3359903371
 20
6.3765228305
 30
0.0
  0
VERTEX
  5
294
330
1DD
100
AcDbEntity
  8
0
  6
CONTINUOUS
 62
     7
100
AcDbVertex
100
AcDb2dVertex
 10
8.3359903371
 20
6.3556032591
 30
0.0
  0
VERTEX
  5
295
330
1DD
100
AcDbEntity
  8
0
  6
CONTINUOUS
 62
     7
100
AcDbVertex
100
AcDb2dVertex
 10
8.3369627375
 20
6.3352752007
 30
0.0
  0
VERTEX
  5
296
330
1DD
100
AcDbEntity
  8
0
  6
CONTINUOUS
 62
     7
100
AcDbVertex
100
AcDb2dVertex
 10
8.3389047346
 20
6.3155972664
 30
0.0
  0
VERTEX
  5
297
330
1DD
100
AcDbEntity
  8
0
  6
CONTINUOUS
 62
     7
100
AcDbVertex
100
AcDb2dVertex
 10
8.3418107292
 20
6.2966261929
 30
0.0
  0
VERTEX
  5
298
330
1DD
100
AcDbEntity
  8
0
  6
CONTINUOUS
 62
     7
100
AcDbVertex
100
AcDb2dVertex
 10
8.3456723425
 20
6.2784166785
 30
0.0
  0
VERTEX
  5
299
330
1DD
100
AcDbEntity
  8
0
  6
CONTINUOUS
 62
     7
100
AcDbVertex
100
AcDb2dVertex
 10
8.3504784404
 20
6.2610212262
 30
0.0
  0
VERTEX
  5
29A
330
1DD
100
AcDbEntity
  8
0
  6
CONTINUOUS
 62
     7
100
AcDbVertex
100
AcDb2dVertex
 10
8.3562151658
 20
6.2444899913
 30
0.0
  0
VERTEX
  5
29B
330
1DD
100
AcDbEntity
  8
0
  6
CONTINUOUS
 62
     7
100
AcDbVertex
100
AcDb2dVertex
 10
8.3628659781
 20
6.2288706379
 30
0.0
  0
VERTEX
  5
29C
330
1DD
100
AcDbEntity
  8
0
  6
CONTINUOUS
 62
     7
100
AcDbVertex
100
AcDb2dVertex
 10
8.3704117014
 20
6.2142082005
 30
0.0
  0
VERTEX
  5
29D
330
1DD
100
AcDbEntity
  8
0
  6
CONTINUOUS
 62
     7
100
AcDbVertex
100
AcDb2dVertex
 10
8.3788305795
 20
6.2005449548
 30
0.0
  0
VERTEX
  5
29E
330
1DD
100
AcDbEntity
  8
0
  6
CONTINUOUS
 62
     7
100
AcDbVertex
100
AcDb2dVertex
 10
8.3880983384
 20
6.1879202953
 30
0.0
  0
VERTEX
  5
29F
330
1DD
100
AcDbEntity
  8
0
  6
CONTINUOUS
 62
     7
100
AcDbVertex
100
AcDb2dVertex
 10
8.3981882568
 20
6.1763706223
 30
0.0
  0
VERTEX
  5
2A0
330
1DD
100
AcDbEntity
  8
0
  6
CONTINUOUS
 62
     7
100
AcDbVertex
100
AcDb2dVertex
 10
8.409071243
 20
6.1659292365
 30
0.0
  0
VERTEX
  5
2A1
330
1DD
100
AcDbEntity
  8
0
  6
CONTINUOUS
 62
     7
100
AcDbVertex
100
AcDb2dVertex
 10
8.4207159184
 20
6.156626243
 30
0.0
  0
VERTEX
  5
2A2
330
1DD
100
AcDbEntity
  8
0
  6
CONTINUOUS
 62
     7
100
AcDbVertex
100
AcDb2dVertex
 10
8.4330887084
 20
6.1484884649
 30
0.0
  0
VERTEX
  5
2A3
330
1DD
100
AcDbEntity
  8
0
  6
CONTINUOUS
 62
     7
100
AcDbVertex
100
AcDb2dVertex
 10
8.446153939
 20
6.1415393654
 30
0.0
  0
VERTEX
  5
2A4
330
1DD
100
AcDbEntity
  8
0
  6
CONTINUOUS
 62
     7
100
AcDbVertex
100
AcDb2dVertex
 10
8.4598739399
 20
6.1357989806
 30
0.0
  0
VERTEX
  5
2A5
330
1DD
100
AcDbEntity
  8
0
  6
CONTINUOUS
 62
     7
100
AcDbVertex
100
AcDb2dVertex
 10
8.4742091527
 20
6.1312838615
 30
0.0
  0
VERTEX
  5
2A6
330
1DD
100
AcDbEntity
  8
0
  6
CONTINUOUS
 62
     7
100
AcDbVertex
100
AcDb2dVertex
 10
8.4891182452
 20
6.1280070263
 30
0.0
  0
VERTEX
  5
2A7
330
1DD
100
AcDbEntity
  8
0
  6
CONTINUOUS
 62
     7
100
AcDbVertex
100
AcDb2dVertex
 10
8.5045582308
 20
6.1259779231
 30
0.0
  0
VERTEX
  5
2A8
330
1DD
100
AcDbEntity
  8
0
  6
CONTINUOUS
 62
     7
100
AcDbVertex
100
AcDb2dVertex
 10
8.5204845919
 20
6.1252024023
 30
0.0
  0
VERTEX
  5
2A9
330
1DD
100
AcDbEntity
  8
0
  6
CONTINUOUS
 62
     7
100
AcDbVertex
100
AcDb2dVertex
 10
8.5368514087
 20
6.1256826998
 30
0.0
  0
VERTEX
  5
2AA
330
1DD
100
AcDbEntity
  8
0
  6
CONTINUOUS
 62
     7
100
AcDbVertex
100
AcDb2dVertex
 10
8.5536114914
 20
6.1274174309
 30
0.0
  0
VERTEX
  5
2AB
330
1DD
100
AcDbEntity
  8
0
  6
CONTINUOUS
 62
     7
100
AcDbVertex
100
AcDb2dVertex
 10
8.5707165164
 20
6.1304015939
 30
0.0
  0
VERTEX
  5
2AC
330
1DD
100
AcDbEntity
  8
0
  6
CONTINUOUS
 62
     7
100
AcDbVertex
100
AcDb2dVertex
 10
8.5881171654
 20
6.1346265847
 30
0.0
  0
VERTEX
  5
2AD
330
1DD
100
AcDbEntity
  8
0
  6
CONTINUOUS
 62
     7
100
AcDbVertex
100
AcDb2dVertex
 10
8.6057632679
 20
6.1400802215
 30
0.0
  0
VERTEX
  5
2AE
330
1DD
100
AcDbEntity
  8
0
  6
CONTINUOUS
 62
     7
100
AcDbVertex
100
AcDb2dVertex
 10
8.6236039457
 20
6.14674678
 30
0.0
  0
VERTEX
  5
2AF
330
1DD
100
AcDbEntity
  8
0
  6
CONTINUOUS
 62
     7
100
AcDbVertex
100
AcDb2dVertex
 10
8.6415877593
 20
6.154607039
 30
0.0
  0
VERTEX
  5
2B0
330
1DD
100
AcDbEntity
  8
0
  6
CONTINUOUS
 62
     7
100
AcDbVertex
100
AcDb2dVertex
 10
8.6596628569
 20
6.1636383351
 30
0.0
  0
VERTEX
  5
2B1
330
1DD
100
AcDbEntity
  8
0
  6
CONTINUOUS
 62
     7
100
AcDbVertex
100
AcDb2dVertex
 10
8.6777771232
 20
6.1738146289
 30
0.0
  0
VERTEX
  5
2B2
330
1DD
100
AcDbEntity
  8
0
  6
CONTINUOUS
 62
     7
100
AcDbVertex
100
AcDb2dVertex
 10
8.6958783301
 20
6.1851065795
 30
0.0
  0
VERTEX
  5
2B3
330
1DD
100
AcDbEntity
  8
0
  6
CONTINUOUS
 62
     7
100
AcDbVertex
100
AcDb2dVertex
 10
8.7139142872
 20
6.1974816291
 30
0.0
  0
VERTEX
  5
2B4
330
1DD
100
AcDbEntity
  8
0
  6
CONTINUOUS
 62
     7
100
AcDbVertex
100
AcDb2dVertex
 10
8.7318329921
 20
6.2109040975
 30
0.0
  0
VERTEX
  5
2B5
330
1DD
100
AcDbEntity
  8
0
  6
CONTINUOUS
 62
     7
100
AcDbVertex
100
AcDb2dVertex
 10
8.7495827805
 20
6.225335284
 30
0.0
  0
VERTEX
  5
2B6
330
1DD
100
AcDbEntity
  8
0
  6
CONTINUOUS
 62
     7
100
AcDbVertex
100
AcDb2dVertex
 10
8.7671124753
 20
6.24073358
 30
0.0
  0
VERTEX
  5
2B7
330
1DD
100
AcDbEntity
  8
0
  6
CONTINUOUS
 62
     7
100
AcDbVertex
100
AcDb2dVertex
 10
8.7843715337
 20
6.257054588
 30
0.0
  0
VERTEX
  5
2B8
330
1DD
100
AcDbEntity
  8
0
  6
CONTINUOUS
 62
     7
100
AcDbVertex
100
AcDb2dVertex
 10
8.8013101935
 20
6.2742512504
 30
0.0
  0
VERTEX
  5
2B9
330
1DD
100
AcDbEntity
  8
0
  6
CONTINUOUS
 62
     7
100
AcDbVertex
100
AcDb2dVertex
 10
8.8178796161
 20
6.2922739848
 30
0.0
  0
VERTEX
  5
2BA
330
1DD
100
AcDbEntity
  8
0
  6
CONTINUOUS
 62
     7
100
AcDbVertex
100
AcDb2dVertex
 10
8.8340320275
 20
6.3110708269
 30
0.0
  0
VERTEX
  5
2BB
330
1DD
100
AcDbEntity
  8
0
  6
CONTINUOUS
 62
     7
100
AcDbVertex
100
AcDb2dVertex
 10
8.8497208562
 20
6.3305875807
 30
0.0
  0
VERTEX
  5
2BC
330
1DD
100
AcDbEntity
  8
0
  6
CONTINUOUS
 62
     7
100
AcDbVertex
100
AcDb2dVertex
 10
8.8649008672
 20
6.3507679742
 30
0.0
  0
VERTEX
  5
2BD
330
1DD
100
AcDbEntity
  8
0
  6
CONTINUOUS
 62
     7
100
AcDbVertex
100
AcDb2dVertex
 10
8.8795282927
 20
6.3715538222
 30
0.0
  0
VERTEX
  5
2BE
330
1DD
100
AcDbEntity
  8
0
  6
CONTINUOUS
 62
     7
100
AcDbVertex
100
AcDb2dVertex
 10
8.8935609579
 20
6.3928851936
 30
0.0
  0
VERTEX
  5
2BF
330
1DD
100
AcDbEntity
  8
0
  6
CONTINUOUS
 62
     7
100
AcDbVertex
100
AcDb2dVertex
 10
8.9069584031
 20
6.4147005846
 30
0.0
  0
VERTEX
  5
2C0
330
1DD
100
AcDbEntity
  8
0
  6
CONTINUOUS
 62
     7
100
AcDbVertex
100
AcDb2dVertex
 10
8.9196819999
 20
6.4369370958
 30
0.0
  0
VERTEX
  5
2C1
330
1DD
100
AcDbEntity
  8
0
  6
CONTINUOUS
 62
     7
100
AcDbVertex
100
AcDb2dVertex
 10
8.931695063
 20
6.4595306136
 30
0.0
  0
VERTEX
  5
2C2
330
1DD
100
AcDbEntity
  8
0
  6
CONTINUOUS
 62
     7
100
AcDbVertex
100
AcDb2dVertex
 10
8.9429629555
 20
6.482415995
 30
0.0
  0
VERTEX
  5
2C3
330
1DD
100
AcDbEntity
  8
0
  6
CONTINUOUS
 62
     7
100
AcDbVertex
100
AcDb2dVertex
 10
8.9534531892
 20
6.5055272555
 30
0.0
  0
VERTEX
  5
2C4
330
1DD
100
AcDbEntity
  8
0
  6
CONTINUOUS
 62
     7
100
AcDbVertex
100
AcDb2dVertex
 10
8.9631355181
 20
6.5287977594
 30
0.0
  0
VERTEX
  5
2C5
330
1DD
100
AcDbEntity
  8
0
  6
CONTINUOUS
 62
     7
100
AcDbVertex
100
AcDb2dVertex
 10
8.9719820255
 20
6.5521604117
 30
0.0
  0
VERTEX
  5
2C6
330
1DD
100
AcDbEntity
  8
0
  6
CONTINUOUS
 62
     7
100
AcDbVertex
100
AcDb2dVertex
 10
8.9799672046
 20
6.575547852
 30
0.0
  0
VERTEX
  5
2C7
330
1DD
100
AcDbEntity
  8
0
  6
CONTINUOUS
 62
     7
100
AcDbVertex
100
AcDb2dVertex
 10
8.9870680321
 20
6.5988926482
 30
0.0
  0
VERTEX
  5
2C8
330
1DD
100
AcDbEntity
  8
0
  6
CONTINUOUS
 62
     7
100
AcDbVertex
100
AcDb2dVertex
 10
8.9932640345
 20
6.6221274912
 30
0.0
  0
VERTEX
  5
2C9
330
1DD
100
AcDbEntity
  8
0
  6
CONTINUOUS
 62
     7
100
AcDbVertex
100
AcDb2dVertex
 10
8.998537347
 20
6.6451853888
 30
0.0
  0
VERTEX
  5
2CA
330
1DD
100
AcDbEntity
  8
0
  6
CONTINUOUS
 62
     7
100
AcDbVertex
100
AcDb2dVertex
 10
9.0028727654
 20
6.6679998593
 30
0.0
  0
VERTEX
  5
2CB
330
1DD
100
AcDbEntity
  8
0
  6
CONTINUOUS
 62
     7
100
AcDbVertex
100
AcDb2dVertex
 10
9.0062577895
 20
6.6905051226
 30
0.0
  0
VERTEX
  5
2CC
330
1DD
100
AcDbEntity
  8
0
  6
CONTINUOUS
 62
     7
100
AcDbVertex
100
AcDb2dVertex
 10
9.0086826595
 20
6.7126362902
 30
0.0
  0
VERTEX
  5
2CD
330
1DD
100
AcDbEntity
  8
0
  6
CONTINUOUS
 62
     7
100
AcDbVertex
100
AcDb2dVertex
 10
9.0101403837
 20
6.7343295522
 30
0.0
  0
VERTEX
  5
2CE
330
1DD
100
AcDbEntity
  8
0
  6
CONTINUOUS
 62
     7
100
AcDbVertex
100
AcDb2dVertex
 10
9.0106267592
 20
6.7555223614
 30
0.0
  0
SEQEND
  5
2CF
330
1DD
100
AcDbEntity
  8
0
  6
CONTINUOUS
 62
     7
  0
POLYLINE
  5
1DE
330
1F
100
AcDbEntity
  8
0
  6
CONTINUOUS
 62
     7
100
AcDb2dPolyline
 66
     1
 10
0.0
 20
0.0
 30
0.0
  0
VERTEX
  5
2D0
330
1DE
100
AcDbEntity
  8
0
  6
CONTINUOUS
 62
     7
100
AcDbVertex
100
AcDb2dVertex
 10
8.662697696
 20
6.1650723648
 30
0.0
  0
VERTEX
  5
2D1
330
1DE
100
AcDbEntity
  8
0
  6
CONTINUOUS
 62
     7
100
AcDbVertex
100
AcDb2dVertex
 10
8.6580478725
 20
6.1624230812
 30
0.0
  0
VERTEX
  5
2D2
330
1DE
100
AcDbEntity
  8
0
  6
CONTINUOUS
 62
     7
100
AcDbVertex
100
AcDb2dVertex
 10
8.6396908116
 20
6.1526656557
 30
0.0
  0
VERTEX
  5
2D3
330
1DE
100
AcDbEntity
  8
0
  6
CONTINUOUS
 62
     7
100
AcDbVertex
100
AcDb2dVertex
 10
8.6213977174
 20
6.1440627216
 30
0.0
  0
VERTEX
  5
2D4
330
1DE
100
AcDbEntity
  8
0
  6
CONTINUOUS
 62
     7
100
AcDbVertex
100
AcDb2dVertex
 10
8.6032195761
 20
6.136638257
 30
0.0
  0
VERTEX
  5
2D5
330
1DE
100
AcDbEntity
  8
0
  6
CONTINUOUS
 62
     7
100
AcDbVertex
100
AcDb2dVertex
 10
8.5852070532
 20
6.1304129552
 30
0.0
  0
VERTEX
  5
2D6
330
1DE
100
AcDbEntity
  8
0
  6
CONTINUOUS
 62
     7
100
AcDbVertex
100
AcDb2dVertex
 10
8.5674103531
 20
6.1254041671
 30
0.0
  0
VERTEX
  5
2D7
330
1DE
100
AcDbEntity
  8
0
  6
CONTINUOUS
 62
     7
100
AcDbVertex
100
AcDb2dVertex
 10
8.5498790782
 20
6.1216258532
 30
0.0
  0
VERTEX
  5
2D8
330
1DE
100
AcDbEntity
  8
0
  6
CONTINUOUS
 62
     7
100
AcDbVertex
100
AcDb2dVertex
 10
8.5326620915
 20
6.1190885443
 30
0.0
  0
VERTEX
  5
2D9
330
1DE
100
AcDbEntity
  8
0
  6
CONTINUOUS
 62
     7
100
AcDbVertex
100
AcDb2dVertex
 10
8.5158073796
 20
6.1177993124
 30
0.0
  0
VERTEX
  5
2DA
330
1DE
100
AcDbEntity
  8
0
  6
CONTINUOUS
 62
     7
100
AcDbVertex
100
AcDb2dVertex
 10
8.4993619198
 20
6.1177617507
 30
0.0
  0
VERTEX
  5
2DB
330
1DE
100
AcDbEntity
  8
0
  6
CONTINUOUS
 62
     7
100
AcDbVertex
100
AcDb2dVertex
 10
8.4833715484
 20
6.1189759639
 30
0.0
  0
VERTEX
  5
2DC
330
1DE
100
AcDbEntity
  8
0
  6
CONTINUOUS
 62
     7
100
AcDbVertex
100
AcDb2dVertex
 10
8.4678808335
 20
6.1214385679
 30
0.0
  0
VERTEX
  5
2DD
330
1DE
100
AcDbEntity
  8
0
  6
CONTINUOUS
 62
     7
100
AcDbVertex
100
AcDb2dVertex
 10
8.4529329506
 20
6.1251426989
 30
0.0
  0
VERTEX
  5
2DE
330
1DE
100
AcDbEntity
  8
0
  6
CONTINUOUS
 62
     7
100
AcDbVertex
100
AcDb2dVertex
 10
8.4385695619
 20
6.1300780328
 30
0.0
  0
VERTEX
  5
2DF
330
1DE
100
AcDbEntity
  8
0
  6
CONTINUOUS
 62
     7
100
AcDbVertex
100
AcDb2dVertex
 10
8.424830701
 20
6.136230814
 30
0.0
  0
VERTEX
  5
2E0
330
1DE
100
AcDbEntity
  8
0
  6
CONTINUOUS
 62
     7
100
AcDbVertex
100
AcDb2dVertex
 10
8.4117546604
 20
6.1435838936
 30
0.0
  0
VERTEX
  5
2E1
330
1DE
100
AcDbEntity
  8
0
  6
CONTINUOUS
 62
     7
100
AcDbVertex
100
AcDb2dVertex
 10
8.3993778854
 20
6.1521167771
 30
0.0
  0
VERTEX
  5
2E2
330
1DE
100
AcDbEntity
  8
0
  6
CONTINUOUS
 62
     7
100
AcDbVertex
100
AcDb2dVertex
 10
8.3877348723
 20
6.161805682
 30
0.0
  0
VERTEX
  5
2E3
330
1DE
100
AcDbEntity
  8
0
  6
CONTINUOUS
 62
     7
100
AcDbVertex
100
AcDb2dVertex
 10
8.3768580722
 20
6.1726236035
 30
0.0
  0
VERTEX
  5
2E4
330
1DE
100
AcDbEntity
  8
0
  6
CONTINUOUS
 62
     7
100
AcDbVertex
100
AcDb2dVertex
 10
8.3667778009
 20
6.1845403901
 30
0.0
  0
VERTEX
  5
2E5
330
1DE
100
AcDbEntity
  8
0
  6
CONTINUOUS
 62
     7
100
AcDbVertex
100
AcDb2dVertex
 10
8.3575221537
 20
6.1975228277
 30
0.0
  0
VERTEX
  5
2E6
330
1DE
100
AcDbEntity
  8
0
  6
CONTINUOUS
 62
     7
100
AcDbVertex
100
AcDb2dVertex
 10
8.3491169279
 20
6.2115347318
 30
0.0
  0
VERTEX
  5
2E7
330
1DE
100
AcDbEntity
  8
0
  6
CONTINUOUS
 62
     7
100
AcDbVertex
100
AcDb2dVertex
 10
8.3415855502
 20
6.2265370487
 30
0.0
  0
VERTEX
  5
2E8
330
1DE
100
AcDbEntity
  8
0
  6
CONTINUOUS
 62
     7
100
AcDbVertex
100
AcDb2dVertex
 10
8.3349490121
 20
6.2424879643
 30
0.0
  0
VERTEX
  5
2E9
330
1DE
100
AcDbEntity
  8
0
  6
CONTINUOUS
 62
     7
100
AcDbVertex
100
AcDb2dVertex
 10
8.3292258107
 20
6.2593430205
 30
0.0
  0
VERTEX
  5
2EA
330
1DE
100
AcDbEntity
  8
0
  6
CONTINUOUS
 62
     7
100
AcDbVertex
100
AcDb2dVertex
 10
8.3244318976
 20
6.2770552393
 30
0.0
  0
VERTEX
  5
2EB
330
1DE
100
AcDbEntity
  8
0
  6
CONTINUOUS
 62
     7
100
AcDbVertex
100
AcDb2dVertex
 10
8.3205806344
 20
6.2955752535
 30
0.0
  0
VERTEX
  5
2EC
330
1DE
100
AcDbEntity
  8
0
  6
CONTINUOUS
 62
     7
100
AcDbVertex
100
AcDb2dVertex
 10
8.3176827551
 20
6.3148514445
 30
0.0
  0
VERTEX
  5
2ED
330
1DE
100
AcDbEntity
  8
0
  6
CONTINUOUS
 62
     7
100
AcDbVertex
100
AcDb2dVertex
 10
8.3157463367
 20
6.3348300862
 30
0.0
  0
VERTEX
  5
2EE
330
1DE
100
AcDbEntity
  8
0
  6
CONTINUOUS
 62
     7
100
AcDbVertex
100
AcDb2dVertex
 10
8.3147767763
 20
6.3554554944
 30
0.0
  0
VERTEX
  5
2EF
330
1DE
100
AcDbEntity
  8
0
  6
CONTINUOUS
 62
     7
100
AcDbVertex
100
AcDb2dVertex
 10
8.3147767763
 20
6.3766701825
 30
0.0
  0
VERTEX
  5
2F0
330
1DE
100
AcDbEntity
  8
0
  6
CONTINUOUS
 62
     7
100
AcDbVertex
100
AcDb2dVertex
 10
8.3157463367
 20
6.3984150213
 30
0.0
  0
VERTEX
  5
2F1
330
1DE
100
AcDbEntity
  8
0
  6
CONTINUOUS
 62
     7
100
AcDbVertex
100
AcDb2dVertex
 10
8.3176827551
 20
6.4206294041
 30
0.0
  0
VERTEX
  5
2F2
330
1DE
100
AcDbEntity
  8
0
  6
CONTINUOUS
 62
     7
100
AcDbVertex
100
AcDb2dVertex
 10
8.3205806344
 20
6.4432514153
 30
0.0
  0
VERTEX
  5
2F3
330
1DE
100
AcDbEntity
  8
0
  6
CONTINUOUS
 62
     7
100
AcDbVertex
100
AcDb2dVertex
 10
8.3244318976
 20
6.4662180035
 30
0.0
  0
VERTEX
  5
2F4
330
1DE
100
AcDbEntity
  8
0
  6
CONTINUOUS
 62
     7
100
AcDbVertex
100
AcDb2dVertex
 10
8.3292258107
 20
6.4894651565
 30
0.0
  0
VERTEX
  5
2F5
330
1DE
100
AcDbEntity
  8
0
  6
CONTINUOUS
 62
     7
100
AcDbVertex
100
AcDb2dVertex
 10
8.3349490121
 20
6.5129280804
 30
0.0
  0
VERTEX
  5
2F6
330
1DE
100
AcDbEntity
  8
0
  6
CONTINUOUS
 62
     7
100
AcDbVertex
100
AcDb2dVertex
 10
8.3415855502
 20
6.5365413798
 30
0.0
  0
VERTEX
  5
2F7
330
1DE
100
AcDbEntity
  8
0
  6
CONTINUOUS
 62
     7
100
AcDbVertex
100
AcDb2dVertex
 10
8.3491169279
 20
6.5602392402
 30
0.0
  0
VERTEX
  5
2F8
330
1DE
100
AcDbEntity
  8
0
  6
CONTINUOUS
 62
     7
100
AcDbVertex
100
AcDb2dVertex
 10
8.3575221537
 20
6.5839556115
 30
0.0
  0
VERTEX
  5
2F9
330
1DE
100
AcDbEntity
  8
0
  6
CONTINUOUS
 62
     7
100
AcDbVertex
100
AcDb2dVertex
 10
8.3667778009
 20
6.6076243918
 30
0.0
  0
VERTEX
  5
2FA
330
1DE
100
AcDbEntity
  8
0
  6
CONTINUOUS
 62
     7
100
AcDbVertex
100
AcDb2dVertex
 10
8.3768580722
 20
6.631179612
 30
0.0
  0
VERTEX
  5
2FB
330
1DE
100
AcDbEntity
  8
0
  6
CONTINUOUS
 62
     7
100
AcDbVertex
100
AcDb2dVertex
 10
8.3877348723
 20
6.6545556195
 30
0.0
  0
VERTEX
  5
2FC
330
1DE
100
AcDbEntity
  8
0
  6
CONTINUOUS
 62
     7
100
AcDbVertex
100
AcDb2dVertex
 10
8.3993778854
 20
6.6776872612
 30
0.0
  0
VERTEX
  5
2FD
330
1DE
100
AcDbEntity
  8
0
  6
CONTINUOUS
 62
     7
100
AcDbVertex
100
AcDb2dVertex
 10
8.4117546604
 20
6.700510065
 30
0.0
  0
VERTEX
  5
2FE
330
1DE
100
AcDbEntity
  8
0
  6
CONTINUOUS
 62
     7
100
AcDbVertex
100
AcDb2dVertex
 10
8.424830701
 20
6.7229604197
 30
0.0
  0
VERTEX
  5
2FF
330
1DE
100
AcDbEntity
  8
0
  6
CONTINUOUS
 62
     7
100
AcDbVertex
100
AcDb2dVertex
 10
8.4385695619
 20
6.7449757521
 30
0.0
  0
VERTEX
  5
300
330
1DE
100
AcDbEntity
  8
0
  6
CONTINUOUS
 62
     7
100
AcDbVertex
100
AcDb2dVertex
 10
8.4529329506
 20
6.7664947015
 30
0.0
  0
VERTEX
  5
301
330
1DE
100
AcDbEntity
  8
0
  6
CONTINUOUS
 62
     7
100
AcDbVertex
100
AcDb2dVertex
 10
8.4678808335
 20
6.7874572908
 30
0.0
  0
VERTEX
  5
302
330
1DE
100
AcDbEntity
  8
0
  6
CONTINUOUS
 62
     7
100
AcDbVertex
100
AcDb2dVertex
 10
8.4833715484
 20
6.8078050935
 30
0.0
  0
VERTEX
  5
303
330
1DE
100
AcDbEntity
  8
0
  6
CONTINUOUS
 62
     7
100
AcDbVertex
100
AcDb2dVertex
 10
8.4993619198
 20
6.8274813966
 30
0.0
  0
VERTEX
  5
304
330
1DE
100
AcDbEntity
  8
0
  6
CONTINUOUS
 62
     7
100
AcDbVertex
100
AcDb2dVertex
 10
8.5158073796
 20
6.8464313586
 30
0.0
  0
VERTEX
  5
305
330
1DE
100
AcDbEntity
  8
0
  6
CONTINUOUS
 62
     7
100
AcDbVertex
100
AcDb2dVertex
 10
8.5326620915
 20
6.8646021628
 30
0.0
  0
VERTEX
  5
306
330
1DE
100
AcDbEntity
  8
0
  6
CONTINUOUS
 62
     7
100
AcDbVertex
100
AcDb2dVertex
 10
8.5498790782
 20
6.8819431637
 30
0.0
  0
VERTEX
  5
307
330
1DE
100
AcDbEntity
  8
0
  6
CONTINUOUS
 62
     7
100
AcDbVertex
100
AcDb2dVertex
 10
8.5674103531
 20
6.8984060289
 30
0.0
  0
VERTEX
  5
308
330
1DE
100
AcDbEntity
  8
0
  6
CONTINUOUS
 62
     7
100
AcDbVertex
100
AcDb2dVertex
 10
8.5852070532
 20
6.9139448734
 30
0.0
  0
VERTEX
  5
309
330
1DE
100
AcDbEntity
  8
0
  6
CONTINUOUS
 62
     7
100
AcDbVertex
100
AcDb2dVertex
 10
8.6032195761
 20
6.9285163878
 30
0.0
  0
VERTEX
  5
30A
330
1DE
100
AcDbEntity
  8
0
  6
CONTINUOUS
 62
     7
100
AcDbVertex
100
AcDb2dVertex
 10
8.6213977174
 20
6.9420799585
 30
0.0
  0
VERTEX
  5
30B
330
1DE
100
AcDbEntity
  8
0
  6
CONTINUOUS
 62
     7
100
AcDbVertex
100
AcDb2dVertex
 10
8.6396908116
 20
6.9545977814
 30
0.0
  0
VERTEX
  5
30C
330
1DE
100
AcDbEntity
  8
0
  6
CONTINUOUS
 62
     7
100
AcDbVertex
100
AcDb2dVertex
 10
8.6580478725
 20
6.9660349672
 30
0.0
  0
VERTEX
  5
30D
330
1DE
100
AcDbEntity
  8
0
  6
CONTINUOUS
 62
     7
100
AcDbVertex
100
AcDb2dVertex
 10
8.6764177356
 20
6.9763596384
 30
0.0
  0
VERTEX
  5
30E
330
1DE
100
AcDbEntity
  8
0
  6
CONTINUOUS
 62
     7
100
AcDbVertex
100
AcDb2dVertex
 10
8.6947492009
 20
6.9855430182
 30
0.0
  0
VERTEX
  5
30F
330
1DE
100
AcDbEntity
  8
0
  6
CONTINUOUS
 62
     7
100
AcDbVertex
100
AcDb2dVertex
 10
8.7129911752
 20
6.9935595109
 30
0.0
  0
VERTEX
  5
310
330
1DE
100
AcDbEntity
  8
0
  6
CONTINUOUS
 62
     7
100
AcDbVertex
100
AcDb2dVertex
 10
8.731092815
 20
7.0003867731
 30
0.0
  0
VERTEX
  5
311
330
1DE
100
AcDbEntity
  8
0
  6
CONTINUOUS
 62
     7
100
AcDbVertex
100
AcDb2dVertex
 10
8.7490036677
 20
7.0060057761
 30
0.0
  0
VERTEX
  5
312
330
1DE
100
AcDbEntity
  8
0
  6
CONTINUOUS
 62
     7
100
AcDbVertex
100
AcDb2dVertex
 10
8.7666738125
 20
7.0104008586
 30
0.0
  0
VERTEX
  5
313
330
1DE
100
AcDbEntity
  8
0
  6
CONTINUOUS
 62
     7
100
AcDbVertex
100
AcDb2dVertex
 10
8.7840539996
 20
7.0135597707
 30
0.0
  0
VERTEX
  5
314
330
1DE
100
AcDbEntity
  8
0
  6
CONTINUOUS
 62
     7
100
AcDbVertex
100
AcDb2dVertex
 10
8.8010957872
 20
7.0154737081
 30
0.0
  0
VERTEX
  5
315
330
1DE
100
AcDbEntity
  8
0
  6
CONTINUOUS
 62
     7
100
AcDbVertex
100
AcDb2dVertex
 10
8.8177516769
 20
7.0161373361
 30
0.0
  0
VERTEX
  5
316
330
1DE
100
AcDbEntity
  8
0
  6
CONTINUOUS
 62
     7
100
AcDbVertex
100
AcDb2dVertex
 10
8.8339752458
 20
7.0155488053
 30
0.0
  0
VERTEX
  5
317
330
1DE
100
AcDbEntity
  8
0
  6
CONTINUOUS
 62
     7
100
AcDbVertex
100
AcDb2dVertex
 10
8.8497212757
 20
7.0137097558
 30
0.0
  0
VERTEX
  5
318
330
1DE
100
AcDbEntity
  8
0
  6
CONTINUOUS
 62
     7
100
AcDbVertex
100
AcDb2dVertex
 10
8.8649458798
 20
7.0106253135
 30
0.0
  0
VERTEX
  5
319
330
1DE
100
AcDbEntity
  8
0
  6
CONTINUOUS
 62
     7
100
AcDbVertex
100
AcDb2dVertex
 10
8.8796066242
 20
7.0063040753
 30
0.0
  0
VERTEX
  5
31A
330
1DE
100
AcDbEntity
  8
0
  6
CONTINUOUS
 62
     7
100
AcDbVertex
100
AcDb2dVertex
 10
8.893662647
 20
7.0007580852
 30
0.0
  0
VERTEX
  5
31B
330
1DE
100
AcDbEntity
  8
0
  6
CONTINUOUS
 62
     7
100
AcDbVertex
100
AcDb2dVertex
 10
8.9070747713
 20
6.9940028009
 30
0.0
  0
VERTEX
  5
31C
330
1DE
100
AcDbEntity
  8
0
  6
CONTINUOUS
 62
     7
100
AcDbVertex
100
AcDb2dVertex
 10
8.9198056153
 20
6.9860570506
 30
0.0
  0
VERTEX
  5
31D
330
1DE
100
AcDbEntity
  8
0
  6
CONTINUOUS
 62
     7
100
AcDbVertex
100
AcDb2dVertex
 10
8.9318196957
 20
6.9769429805
 30
0.0
  0
VERTEX
  5
31E
330
1DE
100
AcDbEntity
  8
0
  6
CONTINUOUS
 62
     7
100
AcDbVertex
100
AcDb2dVertex
 10
8.9430835273
 20
6.9666859932
 30
0.0
  0
VERTEX
  5
31F
330
1DE
100
AcDbEntity
  8
0
  6
CONTINUOUS
 62
     7
100
AcDbVertex
100
AcDb2dVertex
 10
8.9535657156
 20
6.9553146767
 30
0.0
  0
VERTEX
  5
320
330
1DE
100
AcDbEntity
  8
0
  6
CONTINUOUS
 62
     7
100
AcDbVertex
100
AcDb2dVertex
 10
8.9632370449
 20
6.9428607249
 30
0.0
  0
VERTEX
  5
321
330
1DE
100
AcDbEntity
  8
0
  6
CONTINUOUS
 62
     7
100
AcDbVertex
100
AcDb2dVertex
 10
8.9720705595
 20
6.9293588493
 30
0.0
  0
VERTEX
  5
322
330
1DE
100
AcDbEntity
  8
0
  6
CONTINUOUS
 62
     7
100
AcDbVertex
100
AcDb2dVertex
 10
8.9800416389
 20
6.9148466819
 30
0.0
  0
VERTEX
  5
323
330
1DE
100
AcDbEntity
  8
0
  6
CONTINUOUS
 62
     7
100
AcDbVertex
100
AcDb2dVertex
 10
8.9871280661
 20
6.8993646708
 30
0.0
  0
VERTEX
  5
324
330
1DE
100
AcDbEntity
  8
0
  6
CONTINUOUS
 62
     7
100
AcDbVertex
100
AcDb2dVertex
 10
8.99331009
 20
6.8829559672
 30
0.0
  0
VERTEX
  5
325
330
1DE
100
AcDbEntity
  8
0
  6
CONTINUOUS
 62
     7
100
AcDbVertex
100
AcDb2dVertex
 10
8.9985704803
 20
6.8656663049
 30
0.0
  0
VERTEX
  5
326
330
1DE
100
AcDbEntity
  8
0
  6
CONTINUOUS
 62
     7
100
AcDbVertex
100
AcDb2dVertex
 10
9.0028945752
 20
6.8475438735
 30
0.0
  0
VERTEX
  5
327
330
1DE
100
AcDbEntity
  8
0
  6
CONTINUOUS
 62
     7
100
AcDbVertex
100
AcDb2dVertex
 10
9.0062703228
 20
6.8286391834
 30
0.0
  0
VERTEX
  5
328
330
1DE
100
AcDbEntity
  8
0
  6
CONTINUOUS
 62
     7
100
AcDbVertex
100
AcDb2dVertex
 10
9.0086883142
 20
6.8090049254
 30
0.0
  0
VERTEX
  5
329
330
1DE
100
AcDbEntity
  8
0
  6
CONTINUOUS
 62
     7
100
AcDbVertex
100
AcDb2dVertex
 10
9.01014181
 20
6.7886958235
 30
0.0
  0
VERTEX
  5
32A
330
1DE
100
AcDbEntity
  8
0
  6
CONTINUOUS
 62
     7
100
AcDbVertex
100
AcDb2dVertex
 10
9.0106267592
 20
6.7677684831
 30
0.0
  0
VERTEX
  5
32B
330
1DE
100
AcDbEntity
  8
0
  6
CONTINUOUS
 62
     7
100
AcDbVertex
100
AcDb2dVertex
 10
9.0106267592
 20
6.7677684831
 30
0.0
  0
SEQEND
  5
32C
330
1DE
100
AcDbEntity
  8
0
  6
CONTINUOUS
 62
     7
  0
POLYLINE
  5
1DF
330
1F
100
AcDbEntity
  8
0
  6
CONTINUOUS
 62
     7
100
AcDb2dPolyline
 66
     1
 10
0.0
 20
0.0
 30
0.0
  0
VERTEX
  5
32D
330
1DF
100
AcDbEntity
  8
0
  6
CONTINUOUS
 62
     7
100
AcDbVertex
100
AcDb2dVertex
 10
7.9276987497
 20
7.559396617
 30
0.0
  0
VERTEX
  5
32E
330
1DF
100
AcDbEntity
  8
0
  6
CONTINUOUS
 62
     7
100
AcDbVertex
100
AcDb2dVertex
 10
7.9260893872
 20
7.5603136089
 30
0.0
  0
VERTEX
  5
32F
330
1DF
100
AcDbEntity
  8
0
  6
CONTINUOUS
 62
     7
100
AcDbVertex
100
AcDb2dVertex
 10
7.9126772629
 20
7.5670688932
 30
0.0
  0
VERTEX
  5
330
330
1DF
100
AcDbEntity
  8
0
  6
CONTINUOUS
 62
     7
100
AcDbVertex
100
AcDb2dVertex
 10
7.8986212402
 20
7.5726148833
 30
0.0
  0
VERTEX
  5
331
330
1DF
100
AcDbEntity
  8
0
  6
CONTINUOUS
 62
     7
100
AcDbVertex
100
AcDb2dVertex
 10
7.8839604957
 20
7.5769361215
 30
0.0
  0
VERTEX
  5
332
330
1DF
100
AcDbEntity
  8
0
  6
CONTINUOUS
 62
     7
100
AcDbVertex
100
AcDb2dVertex
 10
7.8687358917
 20
7.5800205638
 30
0.0
  0
VERTEX
  5
333
330
1DF
100
AcDbEntity
  8
0
  6
CONTINUOUS
 62
     7
100
AcDbVertex
100
AcDb2dVertex
 10
7.8529898617
 20
7.5818596132
 30
0.0
  0
VERTEX
  5
334
330
1DF
100
AcDbEntity
  8
0
  6
CONTINUOUS
 62
     7
100
AcDbVertex
100
AcDb2dVertex
 10
7.8367662929
 20
7.5824481441
 30
0.0
  0
VERTEX
  5
335
330
1DF
100
AcDbEntity
  8
0
  6
CONTINUOUS
 62
     7
100
AcDbVertex
100
AcDb2dVertex
 10
7.8201104031
 20
7.581784516
 30
0.0
  0
VERTEX
  5
336
330
1DF
100
AcDbEntity
  8
0
  6
CONTINUOUS
 62
     7
100
AcDbVertex
100
AcDb2dVertex
 10
7.8030686155
 20
7.5798705787
 30
0.0
  0
VERTEX
  5
337
330
1DF
100
AcDbEntity
  8
0
  6
CONTINUOUS
 62
     7
100
AcDbVertex
100
AcDb2dVertex
 10
7.7856884284
 20
7.5767116665
 30
0.0
  0
VERTEX
  5
338
330
1DF
100
AcDbEntity
  8
0
  6
CONTINUOUS
 62
     7
100
AcDbVertex
100
AcDb2dVertex
 10
7.7680182836
 20
7.5723165841
 30
0.0
  0
VERTEX
  5
339
330
1DF
100
AcDbEntity
  8
0
  6
CONTINUOUS
 62
     7
100
AcDbVertex
100
AcDb2dVertex
 10
7.7501074309
 20
7.5666975811
 30
0.0
  0
VERTEX
  5
33A
330
1DF
100
AcDbEntity
  8
0
  6
CONTINUOUS
 62
     7
100
AcDbVertex
100
AcDb2dVertex
 10
7.7320057912
 20
7.5598703189
 30
0.0
  0
VERTEX
  5
33B
330
1DF
100
AcDbEntity
  8
0
  6
CONTINUOUS
 62
     7
100
AcDbVertex
100
AcDb2dVertex
 10
7.7137638168
 20
7.5518538261
 30
0.0
  0
VERTEX
  5
33C
330
1DF
100
AcDbEntity
  8
0
  6
CONTINUOUS
 62
     7
100
AcDbVertex
100
AcDb2dVertex
 10
7.6954323515
 20
7.5426704463
 30
0.0
  0
VERTEX
  5
33D
330
1DF
100
AcDbEntity
  8
0
  6
CONTINUOUS
 62
     7
100
AcDbVertex
100
AcDb2dVertex
 10
7.6770624884
 20
7.5323457752
 30
0.0
  0
VERTEX
  5
33E
330
1DF
100
AcDbEntity
  8
0
  6
CONTINUOUS
 62
     7
100
AcDbVertex
100
AcDb2dVertex
 10
7.6587054276
 20
7.5209085894
 30
0.0
  0
VERTEX
  5
33F
330
1DF
100
AcDbEntity
  8
0
  6
CONTINUOUS
 62
     7
100
AcDbVertex
100
AcDb2dVertex
 10
7.6404123334
 20
7.5083907664
 30
0.0
  0
VERTEX
  5
340
330
1DF
100
AcDbEntity
  8
0
  6
CONTINUOUS
 62
     7
100
AcDbVertex
100
AcDb2dVertex
 10
7.622234192
 20
7.4948271957
 30
0.0
  0
VERTEX
  5
341
330
1DF
100
AcDbEntity
  8
0
  6
CONTINUOUS
 62
     7
100
AcDbVertex
100
AcDb2dVertex
 10
7.6042216692
 20
7.4802556814
 30
0.0
  0
VERTEX
  5
342
330
1DF
100
AcDbEntity
  8
0
  6
CONTINUOUS
 62
     7
100
AcDbVertex
100
AcDb2dVertex
 10
7.586424969
 20
7.4647168369
 30
0.0
  0
VERTEX
  5
343
330
1DF
100
AcDbEntity
  8
0
  6
CONTINUOUS
 62
     7
100
AcDbVertex
100
AcDb2dVertex
 10
7.5688936942
 20
7.4482539717
 30
0.0
  0
VERTEX
  5
344
330
1DF
100
AcDbEntity
  8
0
  6
CONTINUOUS
 62
     7
100
AcDbVertex
100
AcDb2dVertex
 10
7.5516767074
 20
7.4309129707
 30
0.0
  0
VERTEX
  5
345
330
1DF
100
AcDbEntity
  8
0
  6
CONTINUOUS
 62
     7
100
AcDbVertex
100
AcDb2dVertex
 10
7.5348219955
 20
7.4127421666
 30
0.0
  0
VERTEX
  5
346
330
1DF
100
AcDbEntity
  8
0
  6
CONTINUOUS
 62
     7
100
AcDbVertex
100
AcDb2dVertex
 10
7.5183765357
 20
7.3937922045
 30
0.0
  0
VERTEX
  5
347
330
1DF
100
AcDbEntity
  8
0
  6
CONTINUOUS
 62
     7
100
AcDbVertex
100
AcDb2dVertex
 10
7.5023861643
 20
7.3741159015
 30
0.0
  0
VERTEX
  5
348
330
1DF
100
AcDbEntity
  8
0
  6
CONTINUOUS
 62
     7
100
AcDbVertex
100
AcDb2dVertex
 10
7.4868954495
 20
7.3537680988
 30
0.0
  0
VERTEX
  5
349
330
1DF
100
AcDbEntity
  8
0
  6
CONTINUOUS
 62
     7
100
AcDbVertex
100
AcDb2dVertex
 10
7.4719475665
 20
7.3328055095
 30
0.0
  0
VERTEX
  5
34A
330
1DF
100
AcDbEntity
  8
0
  6
CONTINUOUS
 62
     7
100
AcDbVertex
100
AcDb2dVertex
 10
7.4575841779
 20
7.3112865601
 30
0.0
  0
VERTEX
  5
34B
330
1DF
100
AcDbEntity
  8
0
  6
CONTINUOUS
 62
     7
100
AcDbVertex
100
AcDb2dVertex
 10
7.4438453169
 20
7.2892712277
 30
0.0
  0
VERTEX
  5
34C
330
1DF
100
AcDbEntity
  8
0
  6
CONTINUOUS
 62
     7
100
AcDbVertex
100
AcDb2dVertex
 10
7.4307692763
 20
7.266820873
 30
0.0
  0
VERTEX
  5
34D
330
1DF
100
AcDbEntity
  8
0
  6
CONTINUOUS
 62
     7
100
AcDbVertex
100
AcDb2dVertex
 10
7.4183925013
 20
7.2439980692
 30
0.0
  0
VERTEX
  5
34E
330
1DF
100
AcDbEntity
  8
0
  6
CONTINUOUS
 62
     7
100
AcDbVertex
100
AcDb2dVertex
 10
7.4067494882
 20
7.2208664275
 30
0.0
  0
VERTEX
  5
34F
330
1DF
100
AcDbEntity
  8
0
  6
CONTINUOUS
 62
     7
100
AcDbVertex
100
AcDb2dVertex
 10
7.3958726882
 20
7.19749042
 30
0.0
  0
VERTEX
  5
350
330
1DF
100
AcDbEntity
  8
0
  6
CONTINUOUS
 62
     7
100
AcDbVertex
100
AcDb2dVertex
 10
7.3857924168
 20
7.1739351998
 30
0.0
  0
VERTEX
  5
351
330
1DF
100
AcDbEntity
  8
0
  6
CONTINUOUS
 62
     7
100
AcDbVertex
100
AcDb2dVertex
 10
7.3765367696
 20
7.1502664194
 30
0.0
  0
VERTEX
  5
352
330
1DF
100
AcDbEntity
  8
0
  6
CONTINUOUS
 62
     7
100
AcDbVertex
100
AcDb2dVertex
 10
7.3681315438
 20
7.1265500482
 30
0.0
  0
VERTEX
  5
353
330
1DF
100
AcDbEntity
  8
0
  6
CONTINUOUS
 62
     7
100
AcDbVertex
100
AcDb2dVertex
 10
7.3606001662
 20
7.1028521878
 30
0.0
  0
VERTEX
  5
354
330
1DF
100
AcDbEntity
  8
0
  6
CONTINUOUS
 62
     7
100
AcDbVertex
100
AcDb2dVertex
 10
7.353963628
 20
7.0792388883
 30
0.0
  0
VERTEX
  5
355
330
1DF
100
AcDbEntity
  8
0
  6
CONTINUOUS
 62
     7
100
AcDbVertex
100
AcDb2dVertex
 10
7.3482404266
 20
7.0557759644
 30
0.0
  0
VERTEX
  5
356
330
1DF
100
AcDbEntity
  8
0
  6
CONTINUOUS
 62
     7
100
AcDbVertex
100
AcDb2dVertex
 10
7.3434465136
 20
7.0325288114
 30
0.0
  0
VERTEX
  5
357
330
1DF
100
AcDbEntity
  8
0
  6
CONTINUOUS
 62
     7
100
AcDbVertex
100
AcDb2dVertex
 10
7.3395952503
 20
7.0095622233
 30
0.0
  0
VERTEX
  5
358
330
1DF
100
AcDbEntity
  8
0
  6
CONTINUOUS
 62
     7
100
AcDbVertex
100
AcDb2dVertex
 10
7.336697371
 20
6.9869402121
 30
0.0
  0
VERTEX
  5
359
330
1DF
100
AcDbEntity
  8
0
  6
CONTINUOUS
 62
     7
100
AcDbVertex
100
AcDb2dVertex
 10
7.3347609526
 20
6.9647258293
 30
0.0
  0
VERTEX
  5
35A
330
1DF
100
AcDbEntity
  8
0
  6
CONTINUOUS
 62
     7
100
AcDbVertex
100
AcDb2dVertex
 10
7.3337913922
 20
6.9429809905
 30
0.0
  0
VERTEX
  5
35B
330
1DF
100
AcDbEntity
  8
0
  6
CONTINUOUS
 62
     7
100
AcDbVertex
100
AcDb2dVertex
 10
7.3337913922
 20
6.9217663024
 30
0.0
  0
VERTEX
  5
35C
330
1DF
100
AcDbEntity
  8
0
  6
CONTINUOUS
 62
     7
100
AcDbVertex
100
AcDb2dVertex
 10
7.3347609526
 20
6.9011408941
 30
0.0
  0
VERTEX
  5
35D
330
1DF
100
AcDbEntity
  8
0
  6
CONTINUOUS
 62
     7
100
AcDbVertex
100
AcDb2dVertex
 10
7.336697371
 20
6.8811622525
 30
0.0
  0
VERTEX
  5
35E
330
1DF
100
AcDbEntity
  8
0
  6
CONTINUOUS
 62
     7
100
AcDbVertex
100
AcDb2dVertex
 10
7.3395952503
 20
6.8618860614
 30
0.0
  0
VERTEX
  5
35F
330
1DF
100
AcDbEntity
  8
0
  6
CONTINUOUS
 62
     7
100
AcDbVertex
100
AcDb2dVertex
 10
7.3434465136
 20
6.8433660472
 30
0.0
  0
VERTEX
  5
360
330
1DF
100
AcDbEntity
  8
0
  6
CONTINUOUS
 62
     7
100
AcDbVertex
100
AcDb2dVertex
 10
7.3482404266
 20
6.8256538284
 30
0.0
  0
VERTEX
  5
361
330
1DF
100
AcDbEntity
  8
0
  6
CONTINUOUS
 62
     7
100
AcDbVertex
100
AcDb2dVertex
 10
7.353963628
 20
6.8087987722
 30
0.0
  0
VERTEX
  5
362
330
1DF
100
AcDbEntity
  8
0
  6
CONTINUOUS
 62
     7
100
AcDbVertex
100
AcDb2dVertex
 10
7.3606001662
 20
6.7928478566
 30
0.0
  0
VERTEX
  5
363
330
1DF
100
AcDbEntity
  8
0
  6
CONTINUOUS
 62
     7
100
AcDbVertex
100
AcDb2dVertex
 10
7.3681315438
 20
6.7778455397
 30
0.0
  0
VERTEX
  5
364
330
1DF
100
AcDbEntity
  8
0
  6
CONTINUOUS
 62
     7
100
AcDbVertex
100
AcDb2dVertex
 10
7.3765367696
 20
6.7638336356
 30
0.0
  0
VERTEX
  5
365
330
1DF
100
AcDbEntity
  8
0
  6
CONTINUOUS
 62
     7
100
AcDbVertex
100
AcDb2dVertex
 10
7.3857924168
 20
6.7508511981
 30
0.0
  0
VERTEX
  5
366
330
1DF
100
AcDbEntity
  8
0
  6
CONTINUOUS
 62
     7
100
AcDbVertex
100
AcDb2dVertex
 10
7.3958726882
 20
6.7389344115
 30
0.0
  0
VERTEX
  5
367
330
1DF
100
AcDbEntity
  8
0
  6
CONTINUOUS
 62
     7
100
AcDbVertex
100
AcDb2dVertex
 10
7.4067494882
 20
6.72811649
 30
0.0
  0
VERTEX
  5
368
330
1DF
100
AcDbEntity
  8
0
  6
CONTINUOUS
 62
     7
100
AcDbVertex
100
AcDb2dVertex
 10
7.4183925013
 20
6.7184275851
 30
0.0
  0
VERTEX
  5
369
330
1DF
100
AcDbEntity
  8
0
  6
CONTINUOUS
 62
     7
100
AcDbVertex
100
AcDb2dVertex
 10
7.4307692763
 20
6.7098947015
 30
0.0
  0
VERTEX
  5
36A
330
1DF
100
AcDbEntity
  8
0
  6
CONTINUOUS
 62
     7
100
AcDbVertex
100
AcDb2dVertex
 10
7.4356127592
 20
6.7069863194
 30
0.0
  0
SEQEND
  5
36B
330
1DF
100
AcDbEntity
  8
0
  6
CONTINUOUS
 62
     7
  0
SPLINE
  5
1E0
330
1F
100
AcDbEntity
  8
0
  6
CONTINUOUS
 62
     7
100
AcDbSpline
210
0.0
220
0.0
230
1.0
 70
     8
 71
     3
 72
    39
 73
    35
 74
     0
 42
0.00000001
 43
0.00000001
 40
-0.0947295368804532
 40
-0.0631220562492651
 40
-0.0313700572329558
 40
0.0
 40
0.0313857668473377
 40
0.0631300926508309
 40
0.0947107913187888
 40
0.1258915232101506
 40
0.1569025400535988
 40
0.1880875961666499
 40
0.2192248879165663
 40
0.2499114061504731
 40
0.2805814827739038
 40
0.3117983423887339
 40
0.3430159418754873
 40
0.3740900329697608
 40
0.4052589495813183
 40
0.4368198118972471
 40
0.4685350890144542
 40
0.5000039184998295
 40
0.5314470500523252
 40
0.5632087383002627
 40
0.5947532424804413
 40
0.625957670711595
 40
0.656990438208671
 40
0.6882209229808212
 40
0.7193642321975262
 40
0.7500710465313413
 40
0.7807116163386011
 40
0.8119054237466138
 40
0.843077081944146
 40
0.874123101859804
 40
0.9052704631195468
 40
0.9368779437507349
 40
0.9686299427670442
 40
1.0
 40
1.031385766847338
 40
1.063130092650831
 40
1.094710791318789
 10
8.34605510678574
 20
7.136352347332473
 30
0.0
 10
8.357749687970403
 20
7.144827573857573
 30
0.0
 10
8.37194542955057
 20
7.151295149878562
 30
0.0
 10
8.388169226246625
 20
7.155502336860093
 30
0.0
 10
8.40562779049064
 20
7.157503001722534
 30
0.0
 10
8.423684217995715
 20
7.15722581521808
 30
0.0
 10
8.441707734972779
 20
7.154899242352915
 30
0.0
 10
8.459053301332894
 20
7.15070521724966
 30
0.0
 10
8.475099520533812
 20
7.145069587510458
 30
0.0
 10
8.489050899382288
 20
7.138205698385952
 30
0.0
 10
8.500451682748734
 20
7.130434577349403
 30
0.0
 10
8.508787033780774
 20
7.121999003880761
 30
0.0
 10
8.513992842452584
 20
7.113177888205182
 30
0.0
 10
8.515565687763015
 20
7.104192292592108
 30
0.0
 10
8.513598413212868
 20
7.095186275970385
 30
0.0
 10
8.508053341130944
 20
7.08632116256981
 30
0.0
 10
8.499367177823034
 20
7.077756910667909
 30
0.0
 10
8.48764972899192
 20
7.069838665086293
 30
0.0
 10
8.473435629833762
 20
7.062791193575189
 30
0.0
 10
8.45720560968405
 20
7.056973780407593
 30
0.0
 10
8.439741539350628
 20
7.052558779625939
 30
0.0
 10
8.421681426528371
 20
7.050000739362925
 30
0.0
 10
8.40364143151938
 20
7.049480478030034
 30
0.0
 10
8.386288001066458
 20
7.051275572619587
 30
0.0
 10
8.370238294723942
 20
7.055256004422939
 30
0.0
 10
8.356286185210639
 20
7.061540022383519
 30
0.0
 10
8.344884845816821
 20
7.069883039268429
 30
0.0
 10
8.336568589681013
 20
7.079981088618479
 30
0.0
 10
8.331385602834336
 20
7.091209675487099
 30
0.0
 10
8.329830467827957
 20
7.103041700617093
 30
0.0
 10
8.331817685785373
 20
7.1148914577714
 30
0.0
 10
8.337383177536791
 20
7.12618017210782
 30
0.0
 10
8.34605510678574
 20
7.136352347332473
 30
0.0
 10
8.357749687970403
 20
7.144827573857573
 30
0.0
 10
8.37194542955057
 20
7.151295149878562
 30
0.0
  0
SPLINE
  5
1E1
330
1F
100
AcDbEntity
  8
0
  6
CONTINUOUS
 62
     7
100
AcDbSpline
210
0.0
220
0.0
230
1.0
 70
     8
 71
     3
 72
    39
 73
    35
 74
     0
 42
0.00000001
 43
0.00000001
 40
-0.0947295368804917
 40
-0.0631220562492624
 40
-0.0313700572328818
 40
0.0
 40
0.0313857668473375
 40
0.0631300926508307
 40
0.094710791318845
 40
0.1258915232101526
 40
0.1569025400537459
 40
0.1880875961666536
 40
0.2192248879166559
 40
0.2499114061504728
 40
0.2805814827740754
 40
0.3117983423887409
 40
0.3430159418757174
 40
0.3740900329697627
 40
0.405258949581226
 40
0.4368198118972415
 40
0.4685350890145399
 40
0.5000039184998384
 40
0.5314470500524577
 40
0.563208738300259
 40
0.5947532424804846
 40
0.6259576707116
 40
0.6569904382087483
 40
0.6882209229808182
 40
0.7193642321974656
 40
0.7500710465313412
 40
0.7807116163387212
 40
0.8119054237466186
 40
0.8430770819441591
 40
0.8741231018598
 40
0.9052704631195082
 40
0.9368779437507375
 40
0.9686299427671181
 40
0.9999999999999999
 40
1.031385766847337
 40
1.063130092650831
 40
1.094710791318845
 10
7.844955813031512
 20
7.425630812151547
 30
0.0
 10
7.856650394216167
 20
7.43410603867665
 30
0.0
 10
7.870846135796325
 20
7.440573614697632
 30
0.0
 10
7.887069932492389
 20
7.444780801679164
 30
0.0
 10
7.904528496736403
 20
7.446781466541611
 30
0.0
 10
7.922584924241509
 20
7.446504280037146
 30
0.0
 10
7.940608441218563
 20
7.444177707171984
 30
0.0
 10
7.957954007578691
 20
7.439983682068718
 30
0.0
 10
7.974000226779572
 20
7.434348052329516
 30
0.0
 10
7.987951605628075
 20
7.427484163205002
 30
0.0
 10
7.999352388994533
 20
7.419713042168463
 30
0.0
 10
8.007687740026556
 20
7.411277468699795
 30
0.0
 10
8.012893548698324
 20
7.40245635302423
 30
0.0
 10
8.014466394008776
 20
7.393470757411165
 30
0.0
 10
8.01249911945859
 20
7.38446474078947
 30
0.0
 10
8.006954047376695
 20
7.375599627388885
 30
0.0
 10
7.998267884068834
 20
7.36703537548695
 30
0.0
 10
7.986550435237644
 20
7.359117129905348
 30
0.0
 10
7.972336336079464
 20
7.352069658394278
 30
0.0
 10
7.956106315929777
 20
7.346252245226653
 30
0.0
 10
7.938642245596382
 20
7.341837244444983
 30
0.0
 10
7.920582132774101
 20
7.339279204181994
 30
0.0
 10
7.902542137765126
 20
7.33875894284913
 30
0.0
 10
7.885188707312209
 20
7.340554037438657
 30
0.0
 10
7.8691390009697
 20
7.344534469241999
 30
0.0
 10
7.855186891456389
 20
7.350818487202598
 30
0.0
 10
7.843785552062544
 20
7.359161504087502
 30
0.0
 10
7.835469295926755
 20
7.369259553437564
 30
0.0
 10
7.830286309080131
 20
7.380488140306181
 30
0.0
 10
7.82873117407371
 20
7.392320165436158
 30
0.0
 10
7.830718392031095
 20
7.404169922590469
 30
0.0
 10
7.836283883782552
 20
7.415458636926894
 30
0.0
 10
7.844955813031512
 20
7.425630812151547
 30
0.0
 10
7.856650394216167
 20
7.43410603867665
 30
0.0
 10
7.870846135796325
 20
7.440573614697632
 30
0.0
  0
POLYLINE
  5
1E2
330
1F
100
AcDbEntity
  8
0
  6
CONTINUOUS
 62
     7
100
AcDb2dPolyline
 66
     1
 10
0.0
 20
0.0
 30
0.0
  0
VERTEX
  5
36C
330
1E2
100
AcDbEntity
  8
0
  6
CONTINUOUS
 62
     7
100
AcDbVertex
100
AcDb2dVertex
 10
8.7952097406
 20
6.6311647636
 30
0.0
  0
VERTEX
  5
36D
330
1E2
100
AcDbEntity
  8
0
  6
CONTINUOUS
 62
     7
100
AcDbVertex
100
AcDb2dVertex
 10
8.7947187574
 20
6.6182567743
 30
0.0
  0
VERTEX
  5
36E
330
1E2
100
AcDbEntity
  8
0
  6
CONTINUOUS
 62
     7
100
AcDbVertex
100
AcDb2dVertex
 10
8.7932497611
 20
6.6048858354
 30
0.0
  0
VERTEX
  5
36F
330
1E2
100
AcDbEntity
  8
0
  6
CONTINUOUS
 62
     7
100
AcDbVertex
100
AcDb2dVertex
 10
8.790814579
 20
6.591159602
 30
0.0
  0
VERTEX
  5
370
330
1E2
100
AcDbEntity
  8
0
  6
CONTINUOUS
 62
     7
100
AcDbVertex
100
AcDb2dVertex
 10
8.7874328179
 20
6.5771885895
 30
0.0
  0
VERTEX
  5
371
330
1E2
100
AcDbEntity
  8
0
  6
CONTINUOUS
 62
     7
100
AcDbVertex
100
AcDb2dVertex
 10
8.7831317056
 20
6.5630852843
 30
0.0
  0
VERTEX
  5
372
330
1E2
100
AcDbEntity
  8
0
  6
CONTINUOUS
 62
     7
100
AcDbVertex
100
AcDb2dVertex
 10
8.7779458723
 20
6.548963238
 30
0.0
  0
VERTEX
  5
373
330
1E2
100
AcDbEntity
  8
0
  6
CONTINUOUS
 62
     7
100
AcDbVertex
100
AcDb2dVertex
 10
8.7719170712
 20
6.534936153
 30
0.0
  0
VERTEX
  5
374
330
1E2
100
AcDbEntity
  8
0
  6
CONTINUOUS
 62
     7
100
AcDbVertex
100
AcDb2dVertex
 10
8.7650938427
 20
6.521116967
 30
0.0
  0
VERTEX
  5
375
330
1E2
100
AcDbEntity
  8
0
  6
CONTINUOUS
 62
     7
100
AcDbVertex
100
AcDb2dVertex
 10
8.7575311233
 20
6.5076169441
 30
0.0
  0
VERTEX
  5
376
330
1E2
100
AcDbEntity
  8
0
  6
CONTINUOUS
 62
     7
100
AcDbVertex
100
AcDb2dVertex
 10
8.7492898037
 20
6.4945447785
 30
0.0
  0
VERTEX
  5
377
330
1E2
100
AcDbEntity
  8
0
  6
CONTINUOUS
 62
     7
100
AcDbVertex
100
AcDb2dVertex
 10
8.7404362381
 20
6.4820057197
 30
0.0
  0
VERTEX
  5
378
330
1E2
100
AcDbEntity
  8
0
  6
CONTINUOUS
 62
     7
100
AcDbVertex
100
AcDb2dVertex
 10
8.7310417102
 20
6.4701007246
 30
0.0
  0
VERTEX
  5
379
330
1E2
100
AcDbEntity
  8
0
  6
CONTINUOUS
 62
     7
100
AcDbVertex
100
AcDb2dVertex
 10
8.7211818593
 20
6.4589256454
 30
0.0
  0
VERTEX
  5
37A
330
1E2
100
AcDbEntity
  8
0
  6
CONTINUOUS
 62
     7
100
AcDbVertex
100
AcDb2dVertex
 10
8.710936071
 20
6.4485704573
 30
0.0
  0
VERTEX
  5
37B
330
1E2
100
AcDbEntity
  8
0
  6
CONTINUOUS
 62
     7
100
AcDbVertex
100
AcDb2dVertex
 10
8.7003868385
 20
6.439118534
 30
0.0
  0
VERTEX
  5
37C
330
1E2
100
AcDbEntity
  8
0
  6
CONTINUOUS
 62
     7
100
AcDbVertex
100
AcDb2dVertex
 10
8.6896190979
 20
6.430645977
 30
0.0
  0
VERTEX
  5
37D
330
1E2
100
AcDbEntity
  8
0
  6
CONTINUOUS
 62
     7
100
AcDbVertex
100
AcDb2dVertex
 10
8.6787195447
 20
6.4232210022
 30
0.0
  0
VERTEX
  5
37E
330
1E2
100
AcDbEntity
  8
0
  6
CONTINUOUS
 62
     7
100
AcDbVertex
100
AcDb2dVertex
 10
8.6677759358
 20
6.4169033912
 30
0.0
  0
VERTEX
  5
37F
330
1E2
100
AcDbEntity
  8
0
  6
CONTINUOUS
 62
     7
100
AcDbVertex
100
AcDb2dVertex
 10
8.6568763827
 20
6.4117440098
 30
0.0
  0
VERTEX
  5
380
330
1E2
100
AcDbEntity
  8
0
  6
CONTINUOUS
 62
     7
100
AcDbVertex
100
AcDb2dVertex
 10
8.6461086421
 20
6.4077843982
 30
0.0
  0
VERTEX
  5
381
330
1E2
100
AcDbEntity
  8
0
  6
CONTINUOUS
 62
     7
100
AcDbVertex
100
AcDb2dVertex
 10
8.6355594095
 20
6.4050564368
 30
0.0
  0
VERTEX
  5
382
330
1E2
100
AcDbEntity
  8
0
  6
CONTINUOUS
 62
     7
100
AcDbVertex
100
AcDb2dVertex
 10
8.6253136212
 20
6.4035820896
 30
0.0
  0
VERTEX
  5
383
330
1E2
100
AcDbEntity
  8
0
  6
CONTINUOUS
 62
     7
100
AcDbVertex
100
AcDb2dVertex
 10
8.6154537703
 20
6.4033732272
 30
0.0
  0
VERTEX
  5
384
330
1E2
100
AcDbEntity
  8
0
  6
CONTINUOUS
 62
     7
100
AcDbVertex
100
AcDb2dVertex
 10
8.6060592424
 20
6.4044315313
 30
0.0
  0
VERTEX
  5
385
330
1E2
100
AcDbEntity
  8
0
  6
CONTINUOUS
 62
     7
100
AcDbVertex
100
AcDb2dVertex
 10
8.5972056769
 20
6.4067484809
 30
0.0
  0
VERTEX
  5
386
330
1E2
100
AcDbEntity
  8
0
  6
CONTINUOUS
 62
     7
100
AcDbVertex
100
AcDb2dVertex
 10
8.5889643572
 20
6.4103054214
 30
0.0
  0
VERTEX
  5
387
330
1E2
100
AcDbEntity
  8
0
  6
CONTINUOUS
 62
     7
100
AcDbVertex
100
AcDb2dVertex
 10
8.5814016379
 20
6.4150737144
 30
0.0
  0
VERTEX
  5
388
330
1E2
100
AcDbEntity
  8
0
  6
CONTINUOUS
 62
     7
100
AcDbVertex
100
AcDb2dVertex
 10
8.5745784093
 20
6.4210149683
 30
0.0
  0
VERTEX
  5
389
330
1E2
100
AcDbEntity
  8
0
  6
CONTINUOUS
 62
     7
100
AcDbVertex
100
AcDb2dVertex
 10
8.5685496082
 20
6.4280813478
 30
0.0
  0
VERTEX
  5
38A
330
1E2
100
AcDbEntity
  8
0
  6
CONTINUOUS
 62
     7
100
AcDbVertex
100
AcDb2dVertex
 10
8.5633637749
 20
6.4362159584
 30
0.0
  0
VERTEX
  5
38B
330
1E2
100
AcDbEntity
  8
0
  6
CONTINUOUS
 62
     7
100
AcDbVertex
100
AcDb2dVertex
 10
8.5590626627
 20
6.4453533051
 30
0.0
  0
VERTEX
  5
38C
330
1E2
100
AcDbEntity
  8
0
  6
CONTINUOUS
 62
     7
100
AcDbVertex
100
AcDb2dVertex
 10
8.5556809015
 20
6.4554198193
 30
0.0
  0
VERTEX
  5
38D
330
1E2
100
AcDbEntity
  8
0
  6
CONTINUOUS
 62
     7
100
AcDbVertex
100
AcDb2dVertex
 10
8.5532457195
 20
6.4663344514
 30
0.0
  0
VERTEX
  5
38E
330
1E2
100
AcDbEntity
  8
0
  6
CONTINUOUS
 62
     7
100
AcDbVertex
100
AcDb2dVertex
 10
8.5517767231
 20
6.4780093231
 30
0.0
  0
VERTEX
  5
38F
330
1E2
100
AcDbEntity
  8
0
  6
CONTINUOUS
 62
     7
100
AcDbVertex
100
AcDb2dVertex
 10
8.5512857399
 20
6.4903504353
 30
0.0
  0
VERTEX
  5
390
330
1E2
100
AcDbEntity
  8
0
  6
CONTINUOUS
 62
     7
100
AcDbVertex
100
AcDb2dVertex
 10
8.5517767231
 20
6.5032584246
 30
0.0
  0
VERTEX
  5
391
330
1E2
100
AcDbEntity
  8
0
  6
CONTINUOUS
 62
     7
100
AcDbVertex
100
AcDb2dVertex
 10
8.5532457195
 20
6.5166293634
 30
0.0
  0
VERTEX
  5
392
330
1E2
100
AcDbEntity
  8
0
  6
CONTINUOUS
 62
     7
100
AcDbVertex
100
AcDb2dVertex
 10
8.5556809015
 20
6.5303555969
 30
0.0
  0
VERTEX
  5
393
330
1E2
100
AcDbEntity
  8
0
  6
CONTINUOUS
 62
     7
100
AcDbVertex
100
AcDb2dVertex
 10
8.5590626627
 20
6.5443266094
 30
0.0
  0
VERTEX
  5
394
330
1E2
100
AcDbEntity
  8
0
  6
CONTINUOUS
 62
     7
100
AcDbVertex
100
AcDb2dVertex
 10
8.5633637749
 20
6.5584299145
 30
0.0
  0
VERTEX
  5
395
330
1E2
100
AcDbEntity
  8
0
  6
CONTINUOUS
 62
     7
100
AcDbVertex
100
AcDb2dVertex
 10
8.5685496082
 20
6.5725519608
 30
0.0
  0
VERTEX
  5
396
330
1E2
100
AcDbEntity
  8
0
  6
CONTINUOUS
 62
     7
100
AcDbVertex
100
AcDb2dVertex
 10
8.5745784093
 20
6.5865790459
 30
0.0
  0
VERTEX
  5
397
330
1E2
100
AcDbEntity
  8
0
  6
CONTINUOUS
 62
     7
100
AcDbVertex
100
AcDb2dVertex
 10
8.5814016379
 20
6.6003982318
 30
0.0
  0
VERTEX
  5
398
330
1E2
100
AcDbEntity
  8
0
  6
CONTINUOUS
 62
     7
100
AcDbVertex
100
AcDb2dVertex
 10
8.5889643572
 20
6.6138982547
 30
0.0
  0
VERTEX
  5
399
330
1E2
100
AcDbEntity
  8
0
  6
CONTINUOUS
 62
     7
100
AcDbVertex
100
AcDb2dVertex
 10
8.5972056769
 20
6.6269704203
 30
0.0
  0
VERTEX
  5
39A
330
1E2
100
AcDbEntity
  8
0
  6
CONTINUOUS
 62
     7
100
AcDbVertex
100
AcDb2dVertex
 10
8.6060592424
 20
6.6395094792
 30
0.0
  0
VERTEX
  5
39B
330
1E2
100
AcDbEntity
  8
0
  6
CONTINUOUS
 62
     7
100
AcDbVertex
100
AcDb2dVertex
 10
8.6154537703
 20
6.6514144742
 30
0.0
  0
VERTEX
  5
39C
330
1E2
100
AcDbEntity
  8
0
  6
CONTINUOUS
 62
     7
100
AcDbVertex
100
AcDb2dVertex
 10
8.6253136212
 20
6.6625895534
 30
0.0
  0
VERTEX
  5
39D
330
1E2
100
AcDbEntity
  8
0
  6
CONTINUOUS
 62
     7
100
AcDbVertex
100
AcDb2dVertex
 10
8.6355594095
 20
6.6729447416
 30
0.0
  0
VERTEX
  5
39E
330
1E2
100
AcDbEntity
  8
0
  6
CONTINUOUS
 62
     7
100
AcDbVertex
100
AcDb2dVertex
 10
8.6461086421
 20
6.6823966649
 30
0.0
  0
VERTEX
  5
39F
330
1E2
100
AcDbEntity
  8
0
  6
CONTINUOUS
 62
     7
100
AcDbVertex
100
AcDb2dVertex
 10
8.6568763827
 20
6.6908692219
 30
0.0
  0
VERTEX
  5
3A0
330
1E2
100
AcDbEntity
  8
0
  6
CONTINUOUS
 62
     7
100
AcDbVertex
100
AcDb2dVertex
 10
8.6677759358
 20
6.6982941967
 30
0.0
  0
VERTEX
  5
3A1
330
1E2
100
AcDbEntity
  8
0
  6
CONTINUOUS
 62
     7
100
AcDbVertex
100
AcDb2dVertex
 10
8.6787195447
 20
6.7046118076
 30
0.0
  0
VERTEX
  5
3A2
330
1E2
100
AcDbEntity
  8
0
  6
CONTINUOUS
 62
     7
100
AcDbVertex
100
AcDb2dVertex
 10
8.6896190979
 20
6.7097711891
 30
0.0
  0
VERTEX
  5
3A3
330
1E2
100
AcDbEntity
  8
0
  6
CONTINUOUS
 62
     7
100
AcDbVertex
100
AcDb2dVertex
 10
8.7003868385
 20
6.7137308007
 30
0.0
  0
VERTEX
  5
3A4
330
1E2
100
AcDbEntity
  8
0
  6
CONTINUOUS
 62
     7
100
AcDbVertex
100
AcDb2dVertex
 10
8.710936071
 20
6.7164587621
 30
0.0
  0
VERTEX
  5
3A5
330
1E2
100
AcDbEntity
  8
0
  6
CONTINUOUS
 62
     7
100
AcDbVertex
100
AcDb2dVertex
 10
8.7211818593
 20
6.7179331092
 30
0.0
  0
VERTEX
  5
3A6
330
1E2
100
AcDbEntity
  8
0
  6
CONTINUOUS
 62
     7
100
AcDbVertex
100
AcDb2dVertex
 10
8.7310417102
 20
6.7181419716
 30
0.0
  0
VERTEX
  5
3A7
330
1E2
100
AcDbEntity
  8
0
  6
CONTINUOUS
 62
     7
100
AcDbVertex
100
AcDb2dVertex
 10
8.7404362381
 20
6.7170836676
 30
0.0
  0
VERTEX
  5
3A8
330
1E2
100
AcDbEntity
  8
0
  6
CONTINUOUS
 62
     7
100
AcDbVertex
100
AcDb2dVertex
 10
8.7492898037
 20
6.7147667179
 30
0.0
  0
VERTEX
  5
3A9
330
1E2
100
AcDbEntity
  8
0
  6
CONTINUOUS
 62
     7
100
AcDbVertex
100
AcDb2dVertex
 10
8.7575311233
 20
6.7112097774
 30
0.0
  0
VERTEX
  5
3AA
330
1E2
100
AcDbEntity
  8
0
  6
CONTINUOUS
 62
     7
100
AcDbVertex
100
AcDb2dVertex
 10
8.7650938427
 20
6.7064414845
 30
0.0
  0
VERTEX
  5
3AB
330
1E2
100
AcDbEntity
  8
0
  6
CONTINUOUS
 62
     7
100
AcDbVertex
100
AcDb2dVertex
 10
8.7719170712
 20
6.7005002305
 30
0.0
  0
VERTEX
  5
3AC
330
1E2
100
AcDbEntity
  8
0
  6
CONTINUOUS
 62
     7
100
AcDbVertex
100
AcDb2dVertex
 10
8.7779458723
 20
6.6934338511
 30
0.0
  0
VERTEX
  5
3AD
330
1E2
100
AcDbEntity
  8
0
  6
CONTINUOUS
 62
     7
100
AcDbVertex
100
AcDb2dVertex
 10
8.7831317056
 20
6.6852992404
 30
0.0
  0
VERTEX
  5
3AE
330
1E2
100
AcDbEntity
  8
0
  6
CONTINUOUS
 62
     7
100
AcDbVertex
100
AcDb2dVertex
 10
8.7874328179
 20
6.6761618938
 30
0.0
  0
VERTEX
  5
3AF
330
1E2
100
AcDbEntity
  8
0
  6
CONTINUOUS
 62
     7
100
AcDbVertex
100
AcDb2dVertex
 10
8.790814579
 20
6.6660953796
 30
0.0
  0
VERTEX
  5
3B0
330
1E2
100
AcDbEntity
  8
0
  6
CONTINUOUS
 62
     7
100
AcDbVertex
100
AcDb2dVertex
 10
8.7932497611
 20
6.6551807475
 30
0.0
  0
VERTEX
  5
3B1
330
1E2
100
AcDbEntity
  8
0
  6
CONTINUOUS
 62
     7
100
AcDbVertex
100
AcDb2dVertex
 10
8.7947187574
 20
6.6435058758
 30
0.0
  0
VERTEX
  5
3B2
330
1E2
100
AcDbEntity
  8
0
  6
CONTINUOUS
 62
     7
100
AcDbVertex
100
AcDb2dVertex
 10
8.7952097406
 20
6.6311647636
 30
0.0
  0
SEQEND
  5
3B3
330
1E2
100
AcDbEntity
  8
0
  6
CONTINUOUS
 62
     7
  0
ARC
  5
1E3
330
1F
100
AcDbEntity
  8
0
  6
CONTINUOUS
 62
     7
100
AcDbCircle
 10
8.7067125337
 20
6.6423004795
 30
0.0
 40
0.0681992763701359
100
AcDbArc
 50
350.602551691
 51
124.785096486
  0
POLYLINE
  5
1E4
330
1F
100
AcDbEntity
  8
0
  6
CONTINUOUS
 62
     7
100
AcDb2dPolyline
 66
     1
 10
0.0
 20
0.0
 30
0.0
  0
VERTEX
  5
3B4
330
1E4
100
AcDbEntity
  8
0
  6
CONTINUOUS
 62
     7
100
AcDbVertex
100
AcDb2dVertex
 10
8.5514063695
 20
6.4966824552
 30
0.0
  0
VERTEX
  5
3B5
330
1E4
100
AcDbEntity
  8
0
  6
CONTINUOUS
 62
     7
100
AcDbVertex
100
AcDb2dVertex
 10
8.5514081316
 20
6.4966399499
 30
0.0
  0
VERTEX
  5
3B6
330
1E4
100
AcDbEntity
  8
0
  6
CONTINUOUS
 62
     7
100
AcDbVertex
100
AcDb2dVertex
 10
8.5523856513
 20
6.4852027033
 30
0.0
  0
VERTEX
  5
3B7
330
1E4
100
AcDbEntity
  8
0
  6
CONTINUOUS
 62
     7
100
AcDbVertex
100
AcDb2dVertex
 10
8.5543321001
 20
6.4744832456
 30
0.0
  0
VERTEX
  5
3B8
330
1E4
100
AcDbEntity
  8
0
  6
CONTINUOUS
 62
     7
100
AcDbVertex
100
AcDb2dVertex
 10
8.5572303727
 20
6.4645757796
 30
0.0
  0
VERTEX
  5
3B9
330
1E4
100
AcDbEntity
  8
0
  6
CONTINUOUS
 62
     7
100
AcDbVertex
100
AcDb2dVertex
 10
8.5610549989
 20
6.4555673726
 30
0.0
  0
VERTEX
  5
3BA
330
1E4
100
AcDbEntity
  8
0
  6
CONTINUOUS
 62
     7
100
AcDbVertex
100
AcDb2dVertex
 10
8.5657723677
 20
6.4475371907
 30
0.0
  0
VERTEX
  5
3BB
330
1E4
100
AcDbEntity
  8
0
  6
CONTINUOUS
 62
     7
100
AcDbVertex
100
AcDb2dVertex
 10
8.5713410228
 20
6.4405558036
 30
0.0
  0
VERTEX
  5
3BC
330
1E4
100
AcDbEntity
  8
0
  6
CONTINUOUS
 62
     7
100
AcDbVertex
100
AcDb2dVertex
 10
8.5777120265
 20
6.4346845639
 30
0.0
  0
VERTEX
  5
3BD
330
1E4
100
AcDbEntity
  8
0
  6
CONTINUOUS
 62
     7
100
AcDbVertex
100
AcDb2dVertex
 10
8.5848293904
 20
6.4299750682
 30
0.0
  0
VERTEX
  5
3BE
330
1E4
100
AcDbEntity
  8
0
  6
CONTINUOUS
 62
     7
100
AcDbVertex
100
AcDb2dVertex
 10
8.5926305667
 20
6.4264687037
 30
0.0
  0
VERTEX
  5
3BF
330
1E4
100
AcDbEntity
  8
0
  6
CONTINUOUS
 62
     7
100
AcDbVertex
100
AcDb2dVertex
 10
8.6010469984
 20
6.4241962846
 30
0.0
  0
VERTEX
  5
3C0
330
1E4
100
AcDbEntity
  8
0
  6
CONTINUOUS
 62
     7
100
AcDbVertex
100
AcDb2dVertex
 10
8.6100047216
 20
6.4231777809
 30
0.0
  0
VERTEX
  5
3C1
330
1E4
100
AcDbEntity
  8
0
  6
CONTINUOUS
 62
     7
100
AcDbVertex
100
AcDb2dVertex
 10
8.6194250156
 20
6.4234221433
 30
0.0
  0
VERTEX
  5
3C2
330
1E4
100
AcDbEntity
  8
0
  6
CONTINUOUS
 62
     7
100
AcDbVertex
100
AcDb2dVertex
 10
8.6292250944
 20
6.4249272243
 30
0.0
  0
VERTEX
  5
3C3
330
1E4
100
AcDbEntity
  8
0
  6
CONTINUOUS
 62
     7
100
AcDbVertex
100
AcDb2dVertex
 10
8.6393188346
 20
6.4276797972
 30
0.0
  0
VERTEX
  5
3C4
330
1E4
100
AcDbEntity
  8
0
  6
CONTINUOUS
 62
     7
100
AcDbVertex
100
AcDb2dVertex
 10
8.6496175321
 20
6.4316556723
 30
0.0
  0
VERTEX
  5
3C5
330
1E4
100
AcDbEntity
  8
0
  6
CONTINUOUS
 62
     7
100
AcDbVertex
100
AcDb2dVertex
 10
8.6600306814
 20
6.4368199094
 30
0.0
  0
VERTEX
  5
3C6
330
1E4
100
AcDbEntity
  8
0
  6
CONTINUOUS
 62
     7
100
AcDbVertex
100
AcDb2dVertex
 10
8.6704667716
 20
6.4431271251
 30
0.0
  0
VERTEX
  5
3C7
330
1E4
100
AcDbEntity
  8
0
  6
CONTINUOUS
 62
     7
100
AcDbVertex
100
AcDb2dVertex
 10
8.6808340898
 20
6.4505218913
 30
0.0
  0
VERTEX
  5
3C8
330
1E4
100
AcDbEntity
  8
0
  6
CONTINUOUS
 62
     7
100
AcDbVertex
100
AcDb2dVertex
 10
8.6910415277
 20
6.4589392226
 30
0.0
  0
VERTEX
  5
3C9
330
1E4
100
AcDbEntity
  8
0
  6
CONTINUOUS
 62
     7
100
AcDbVertex
100
AcDb2dVertex
 10
8.700999382
 20
6.468305147
 30
0.0
  0
VERTEX
  5
3CA
330
1E4
100
AcDbEntity
  8
0
  6
CONTINUOUS
 62
     7
100
AcDbVertex
100
AcDb2dVertex
 10
8.7106201426
 20
6.4785373567
 30
0.0
  0
VERTEX
  5
3CB
330
1E4
100
AcDbEntity
  8
0
  6
CONTINUOUS
 62
     7
100
AcDbVertex
100
AcDb2dVertex
 10
8.719819262
 20
6.4895459305
 30
0.0
  0
VERTEX
  5
3CC
330
1E4
100
AcDbEntity
  8
0
  6
CONTINUOUS
 62
     7
100
AcDbVertex
100
AcDb2dVertex
 10
8.7285158981
 20
6.5012341246
 30
0.0
  0
VERTEX
  5
3CD
330
1E4
100
AcDbEntity
  8
0
  6
CONTINUOUS
 62
     7
100
AcDbVertex
100
AcDb2dVertex
 10
8.7366336243
 20
6.5134992229
 30
0.0
  0
VERTEX
  5
3CE
330
1E4
100
AcDbEntity
  8
0
  6
CONTINUOUS
 62
     7
100
AcDbVertex
100
AcDb2dVertex
 10
8.744101102
 20
6.5262334391
 30
0.0
  0
VERTEX
  5
3CF
330
1E4
100
AcDbEntity
  8
0
  6
CONTINUOUS
 62
     7
100
AcDbVertex
100
AcDb2dVertex
 10
8.7508527065
 20
6.5393248647
 30
0.0
  0
VERTEX
  5
3D0
330
1E4
100
AcDbEntity
  8
0
  6
CONTINUOUS
 62
     7
100
AcDbVertex
100
AcDb2dVertex
 10
8.7568291047
 20
6.5526584515
 30
0.0
  0
VERTEX
  5
3D1
330
1E4
100
AcDbEntity
  8
0
  6
CONTINUOUS
 62
     7
100
AcDbVertex
100
AcDb2dVertex
 10
8.7619777756
 20
6.5661170236
 30
0.0
  0
VERTEX
  5
3D2
330
1E4
100
AcDbEntity
  8
0
  6
CONTINUOUS
 62
     7
100
AcDbVertex
100
AcDb2dVertex
 10
8.7662534725
 20
6.5795823066
 30
0.0
  0
VERTEX
  5
3D3
330
1E4
100
AcDbEntity
  8
0
  6
CONTINUOUS
 62
     7
100
AcDbVertex
100
AcDb2dVertex
 10
8.7696186206
 20
6.592935967
 30
0.0
  0
VERTEX
  5
3D4
330
1E4
100
AcDbEntity
  8
0
  6
CONTINUOUS
 62
     7
100
AcDbVertex
100
AcDb2dVertex
 10
8.7720436466
 20
6.6060606525
 30
0.0
  0
VERTEX
  5
3D5
330
1E4
100
AcDbEntity
  8
0
  6
CONTINUOUS
 62
     7
100
AcDbVertex
100
AcDb2dVertex
 10
8.7735072395
 20
6.6188410228
 30
0.0
  0
VERTEX
  5
3D6
330
1E4
100
AcDbEntity
  8
0
  6
CONTINUOUS
 62
     7
100
AcDbVertex
100
AcDb2dVertex
 10
8.7739965372
 20
6.6311647636
 30
0.0
  0
SEQEND
  5
3D7
330
1E4
100
AcDbEntity
  8
0
  6
CONTINUOUS
 62
     7
  0
SPLINE
  5
1E5
330
1F
100
AcDbEntity
  8
0
  6
CONTINUOUS
 62
     7
100
AcDbSpline
210
0.0
220
0.0
230
1.0
 70
     8
 71
     3
 72
    14
 73
    10
 74
     0
 42
0.00000001
 43
0.00000001
 40
0.0
 40
0.0
 40
0.0
 40
0.0
 40
0.0000561372235887
 40
0.2106195150105048
 40
0.3983070389933499
 40
0.5631921248334606
 40
0.7054009729362078
 40
0.8477272517927958
 40
1.0
 40
1.0
 40
1.0
 40
1.0
 10
8.343958503045327
 20
7.094963944710137
 30
0.0
 10
8.343958314006784
 20
7.094962869568684
 30
0.0
 10
8.343249066133973
 20
7.090929079563591
 30
0.0
 10
8.345614109716795
 20
7.083124073477157
 30
0.0
 10
8.350741703673444
 20
7.073024610753073
 30
0.0
 10
8.358214636433944
 20
7.065095910439736
 30
0.0
 10
8.36677321922434
 20
7.059053812909395
 30
0.0
 10
8.376468826947967
 20
7.054415049415837
 30
0.0
 10
8.384045878578524
 20
7.052488714469889
 30
0.0
 10
8.387962315392974
 20
7.051493027827232
 30
0.0
  0
SPLINE
  5
1E6
330
1F
100
AcDbEntity
  8
0
  6
CONTINUOUS
 62
     7
100
AcDbSpline
210
0.0
220
0.0
230
1.0
 70
     8
 71
     3
 72
    12
 73
     8
 74
     0
 42
0.00000001
 43
0.00000001
 40
0.0
 40
0.0
 40
0.0
 40
0.0
 40
0.1677284256911265
 40
0.3371403616501862
 40
0.5322692394672802
 40
0.753266469406364
 40
1.0
 40
1.0
 40
1.0
 40
1.0
 10
8.46887509726839
 20
7.06148093606163
 30
0.0
 10
8.47213676123059
 20
7.063083470995839
 30
0.0
 10
8.478692826866252
 20
7.06630462569905
 30
0.0
 10
8.48722538154409
 20
7.071905745078785
 30
0.0
 10
8.49460953015868
 20
7.078452705802945
 30
0.0
 10
8.500258593384656
 20
7.08633287666714
 30
0.0
 10
8.501029601024538
 20
7.091983345247357
 30
0.0
 10
8.50143631671047
 20
7.094964034524062
 30
0.0
  0
SPLINE
  5
1E7
330
1F
100
AcDbEntity
  8
0
  6
CONTINUOUS
 62
     7
100
AcDbSpline
210
0.0
220
0.0
230
1.0
 70
     8
 71
     3
 72
    14
 73
    10
 74
     0
 42
0.00000001
 43
0.00000001
 40
0.0
 40
0.0
 40
0.0
 40
0.0
 40
0.0000561372235873
 40
0.2106195150106751
 40
0.3983070389935867
 40
0.5631921248336584
 40
0.7054009729362611
 40
0.8477272517927064
 40
1.0
 40
1.0
 40
1.0
 40
1.0
 10
7.842859209291082
 20
7.384242409529208
 30
0.0
 10
7.842859020252538
 20
7.384241334387754
 30
0.0
 10
7.84214977237968
 20
7.38020754438269
 30
0.0
 10
7.844514815962571
 20
7.37240253829621
 30
0.0
 10
7.8496424099192
 20
7.362303075572139
 30
0.0
 10
7.857115342679706
 20
7.354374375258802
 30
0.0
 10
7.865673925470094
 20
7.348332277728467
 30
0.0
 10
7.875369533193715
 20
7.343693514234911
 30
0.0
 10
7.882946584824271
 20
7.341767179288962
 30
0.0
 10
7.886863021638721
 20
7.340771492646304
 30
0.0
  0
SPLINE
  5
1E8
330
1F
100
AcDbEntity
  8
0
  6
CONTINUOUS
 62
     7
100
AcDbSpline
210
0.0
220
0.0
230
1.0
 70
     8
 71
     3
 72
    12
 73
     8
 74
     0
 42
0.00000001
 43
0.00000001
 40
0.0
 40
0.0
 40
0.0
 40
0.0
 40
0.1677284256895586
 40
0.3371403616462931
 40
0.5322692394628799
 40
0.7532664694032659
 40
0.9999999999999999
 40
0.9999999999999999
 40
0.9999999999999999
 40
0.9999999999999999
 10
7.967775803514252
 20
7.350759400880754
 30
0.0
 10
7.971037467476415
 20
7.352361935814948
 30
0.0
 10
7.977593533111987
 20
7.355583090518116
 30
0.0
 10
7.986126087789748
 20
7.361184209897783
 30
0.0
 10
7.993510236404341
 20
7.367731170621896
 30
0.0
 10
7.999159299630387
 20
7.375611341486118
 30
0.0
 10
7.999930307270283
 20
7.381261810066388
 30
0.0
 10
8.000337022956225
 20
7.384242499343133
 30
0.0
  0
ARC
  5
1E9
330
1F
100
AcDbEntity
  8
0
  6
CONTINUOUS
 62
     7
100
AcDbCircle
 10
8.0638254644
 20
6.9125695908
 30
0.0
 40
0.7308553471525859
100
AcDbArc
 50
122.5132795932
 51
177.4920969395
  0
POLYLINE
  5
1EA
330
1F
100
AcDbEntity
  8
0
  6
CONTINUOUS
 62
     7
100
AcDb2dPolyline
 66
     1
 10
0.0
 20
0.0
 30
0.0
  0
VERTEX
  5
3D8
330
1EA
100
AcDbEntity
  8
0
  6
CONTINUOUS
 62
     7
100
AcDbVertex
100
AcDb2dVertex
 10
8.4783848397
 20
7.1312092025
 30
0.0
  0
VERTEX
  5
3D9
330
1EA
100
AcDbEntity
  8
0
  6
CONTINUOUS
 62
     7
100
AcDbVertex
100
AcDb2dVertex
 10
8.4802051693
 20
7.1301224509
 30
0.0
  0
VERTEX
  5
3DA
330
1EA
100
AcDbEntity
  8
0
  6
CONTINUOUS
 62
     7
100
AcDbVertex
100
AcDb2dVertex
 10
8.4868610523
 20
7.1254205288
 30
0.0
  0
VERTEX
  5
3DB
330
1EA
100
AcDbEntity
  8
0
  6
CONTINUOUS
 62
     7
100
AcDbVertex
100
AcDb2dVertex
 10
8.4923719457
 20
7.1202484232
 30
0.0
  0
VERTEX
  5
3DC
330
1EA
100
AcDbEntity
  8
0
  6
CONTINUOUS
 62
     7
100
AcDbVertex
100
AcDb2dVertex
 10
8.4966395077
 20
7.1146984306
 30
0.0
  0
VERTEX
  5
3DD
330
1EA
100
AcDbEntity
  8
0
  6
CONTINUOUS
 62
     7
100
AcDbVertex
100
AcDb2dVertex
 10
8.4995875833
 20
7.1088695906
 30
0.0
  0
VERTEX
  5
3DE
330
1EA
100
AcDbEntity
  8
0
  6
CONTINUOUS
 62
     7
100
AcDbVertex
100
AcDb2dVertex
 10
8.5011635642
 20
7.102865919
 30
0.0
  0
VERTEX
  5
3DF
330
1EA
100
AcDbEntity
  8
0
  6
CONTINUOUS
 62
     7
100
AcDbVertex
100
AcDb2dVertex
 10
8.5013393268
 20
7.0967945516
 30
0.0
  0
VERTEX
  5
3E0
330
1EA
100
AcDbEntity
  8
0
  6
CONTINUOUS
 62
     7
100
AcDbVertex
100
AcDb2dVertex
 10
8.5001117348
 20
7.090763832
 30
0.0
  0
VERTEX
  5
3E1
330
1EA
100
AcDbEntity
  8
0
  6
CONTINUOUS
 62
     7
100
AcDbVertex
100
AcDb2dVertex
 10
8.4975026946
 20
7.0848813785
 30
0.0
  0
VERTEX
  5
3E2
330
1EA
100
AcDbEntity
  8
0
  6
CONTINUOUS
 62
     7
100
AcDbVertex
100
AcDb2dVertex
 10
8.4935587644
 20
7.0792521636
 30
0.0
  0
VERTEX
  5
3E3
330
1EA
100
AcDbEntity
  8
0
  6
CONTINUOUS
 62
     7
100
AcDbVertex
100
AcDb2dVertex
 10
8.4883503239
 20
7.0739766409
 30
0.0
  0
VERTEX
  5
3E4
330
1EA
100
AcDbEntity
  8
0
  6
CONTINUOUS
 62
     7
100
AcDbVertex
100
AcDb2dVertex
 10
8.4819703178
 20
7.0691489522
 30
0.0
  0
VERTEX
  5
3E5
330
1EA
100
AcDbEntity
  8
0
  6
CONTINUOUS
 62
     7
100
AcDbVertex
100
AcDb2dVertex
 10
8.4745325975
 20
7.0648552476
 30
0.0
  0
VERTEX
  5
3E6
330
1EA
100
AcDbEntity
  8
0
  6
CONTINUOUS
 62
     7
100
AcDbVertex
100
AcDb2dVertex
 10
8.4661698892
 20
7.0611721485
 30
0.0
  0
VERTEX
  5
3E7
330
1EA
100
AcDbEntity
  8
0
  6
CONTINUOUS
 62
     7
100
AcDbVertex
100
AcDb2dVertex
 10
8.4570314256
 20
7.0581653798
 30
0.0
  0
VERTEX
  5
3E8
330
1EA
100
AcDbEntity
  8
0
  6
CONTINUOUS
 62
     7
100
AcDbVertex
100
AcDb2dVertex
 10
8.447280283
 20
7.0558885974
 30
0.0
  0
VERTEX
  5
3E9
330
1EA
100
AcDbEntity
  8
0
  6
CONTINUOUS
 62
     7
100
AcDbVertex
100
AcDb2dVertex
 10
8.4370904705
 20
7.0543824305
 30
0.0
  0
VERTEX
  5
3EA
330
1EA
100
AcDbEntity
  8
0
  6
CONTINUOUS
 62
     7
100
AcDbVertex
100
AcDb2dVertex
 10
8.4266438258
 20
7.0536737567
 30
0.0
  0
VERTEX
  5
3EB
330
1EA
100
AcDbEntity
  8
0
  6
CONTINUOUS
 62
     7
100
AcDbVertex
100
AcDb2dVertex
 10
8.4161267694
 20
7.0537752224
 30
0.0
  0
VERTEX
  5
3EC
330
1EA
100
AcDbEntity
  8
0
  6
CONTINUOUS
 62
     7
100
AcDbVertex
100
AcDb2dVertex
 10
8.4057269784
 20
7.0546850167
 30
0.0
  0
VERTEX
  5
3ED
330
1EA
100
AcDbEntity
  8
0
  6
CONTINUOUS
 62
     7
100
AcDbVertex
100
AcDb2dVertex
 10
8.3956300374
 20
7.0563869046
 30
0.0
  0
VERTEX
  5
3EE
330
1EA
100
AcDbEntity
  8
0
  6
CONTINUOUS
 62
     7
100
AcDbVertex
100
AcDb2dVertex
 10
8.3860161265
 20
7.0588505156
 30
0.0
  0
VERTEX
  5
3EF
330
1EA
100
AcDbEntity
  8
0
  6
CONTINUOUS
 62
     7
100
AcDbVertex
100
AcDb2dVertex
 10
8.3770568061
 20
7.0620318867
 30
0.0
  0
VERTEX
  5
3F0
330
1EA
100
AcDbEntity
  8
0
  6
CONTINUOUS
 62
     7
100
AcDbVertex
100
AcDb2dVertex
 10
8.3689119556
 20
7.0658742462
 30
0.0
  0
VERTEX
  5
3F1
330
1EA
100
AcDbEntity
  8
0
  6
CONTINUOUS
 62
     7
100
AcDbVertex
100
AcDb2dVertex
 10
8.36172692
 20
7.070309027
 30
0.0
  0
VERTEX
  5
3F2
330
1EA
100
AcDbEntity
  8
0
  6
CONTINUOUS
 62
     7
100
AcDbVertex
100
AcDb2dVertex
 10
8.3556299164
 20
7.0752570905
 30
0.0
  0
VERTEX
  5
3F3
330
1EA
100
AcDbEntity
  8
0
  6
CONTINUOUS
 62
     7
100
AcDbVertex
100
AcDb2dVertex
 10
8.350729746
 20
7.0806301382
 30
0.0
  0
VERTEX
  5
3F4
330
1EA
100
AcDbEntity
  8
0
  6
CONTINUOUS
 62
     7
100
AcDbVertex
100
AcDb2dVertex
 10
8.3471138525
 20
7.0863322882
 30
0.0
  0
VERTEX
  5
3F5
330
1EA
100
AcDbEntity
  8
0
  6
CONTINUOUS
 62
     7
100
AcDbVertex
100
AcDb2dVertex
 10
8.3448467616
 20
7.0922617852
 30
0.0
  0
VERTEX
  5
3F6
330
1EA
100
AcDbEntity
  8
0
  6
CONTINUOUS
 62
     7
100
AcDbVertex
100
AcDb2dVertex
 10
8.3439689295
 20
7.0983128174
 30
0.0
  0
VERTEX
  5
3F7
330
1EA
100
AcDbEntity
  8
0
  6
CONTINUOUS
 62
     7
100
AcDbVertex
100
AcDb2dVertex
 10
8.3444960212
 20
7.1043774039
 30
0.0
  0
VERTEX
  5
3F8
330
1EA
100
AcDbEntity
  8
0
  6
CONTINUOUS
 62
     7
100
AcDbVertex
100
AcDb2dVertex
 10
8.3464186308
 20
7.110347322
 30
0.0
  0
VERTEX
  5
3F9
330
1EA
100
AcDbEntity
  8
0
  6
CONTINUOUS
 62
     7
100
AcDbVertex
100
AcDb2dVertex
 10
8.3497024492
 20
7.1161160384
 30
0.0
  0
VERTEX
  5
3FA
330
1EA
100
AcDbEntity
  8
0
  6
CONTINUOUS
 62
     7
100
AcDbVertex
100
AcDb2dVertex
 10
8.3542888765
 20
7.1215806102
 30
0.0
  0
VERTEX
  5
3FB
330
1EA
100
AcDbEntity
  8
0
  6
CONTINUOUS
 62
     7
100
AcDbVertex
100
AcDb2dVertex
 10
8.360096068
 20
7.1266435221
 30
0.0
  0
VERTEX
  5
3FC
330
1EA
100
AcDbEntity
  8
0
  6
CONTINUOUS
 62
     7
100
AcDbVertex
100
AcDb2dVertex
 10
8.3670203941
 20
7.1312144261
 30
0.0
  0
VERTEX
  5
3FD
330
1EA
100
AcDbEntity
  8
0
  6
CONTINUOUS
 62
     7
100
AcDbVertex
100
AcDb2dVertex
 10
8.3670203941
 20
7.1312144261
 30
0.0
  0
SEQEND
  5
3FE
330
1EA
100
AcDbEntity
  8
0
  6
CONTINUOUS
 62
     7
  0
POLYLINE
  5
1EB
330
1F
100
AcDbEntity
  8
0
  6
CONTINUOUS
 62
     7
100
AcDb2dPolyline
 66
     1
 10
0.0
 20
0.0
 30
0.0
  0
VERTEX
  5
3FF
330
1EB
100
AcDbEntity
  8
0
  6
CONTINUOUS
 62
     7
100
AcDbVertex
100
AcDb2dVertex
 10
8.3740914619
 20
7.1352977937
 30
0.0
  0
VERTEX
  5
400
330
1EB
100
AcDbEntity
  8
0
  6
CONTINUOUS
 62
     7
100
AcDbVertex
100
AcDb2dVertex
 10
8.3676687624
 20
7.1310188273
 30
0.0
  0
VERTEX
  5
401
330
1EB
100
AcDbEntity
  8
0
  6
CONTINUOUS
 62
     7
100
AcDbVertex
100
AcDb2dVertex
 10
8.3623663014
 20
7.1262557474
 30
0.0
  0
VERTEX
  5
402
330
1EB
100
AcDbEntity
  8
0
  6
CONTINUOUS
 62
     7
100
AcDbVertex
100
AcDb2dVertex
 10
8.3582920217
 20
7.1211055166
 30
0.0
  0
VERTEX
  5
403
330
1EB
100
AcDbEntity
  8
0
  6
CONTINUOUS
 62
     7
100
AcDbVertex
100
AcDb2dVertex
 10
8.3555288639
 20
7.1156729787
 30
0.0
  0
VERTEX
  5
404
330
1EB
100
AcDbEntity
  8
0
  6
CONTINUOUS
 62
     7
100
AcDbVertex
100
AcDb2dVertex
 10
8.354133078
 20
7.1100687245
 30
0.0
  0
VERTEX
  5
405
330
1EB
100
AcDbEntity
  8
0
  6
CONTINUOUS
 62
     7
100
AcDbVertex
100
AcDb2dVertex
 10
8.354133078
 20
7.1044068406
 30
0.0
  0
VERTEX
  5
406
330
1EB
100
AcDbEntity
  8
0
  6
CONTINUOUS
 62
     7
100
AcDbVertex
100
AcDb2dVertex
 10
8.3555288639
 20
7.0988025864
 30
0.0
  0
VERTEX
  5
407
330
1EB
100
AcDbEntity
  8
0
  6
CONTINUOUS
 62
     7
100
AcDbVertex
100
AcDb2dVertex
 10
8.3582920217
 20
7.0933700486
 30
0.0
  0
VERTEX
  5
408
330
1EB
100
AcDbEntity
  8
0
  6
CONTINUOUS
 62
     7
100
AcDbVertex
100
AcDb2dVertex
 10
8.3623663014
 20
7.0882198178
 30
0.0
  0
VERTEX
  5
409
330
1EB
100
AcDbEntity
  8
0
  6
CONTINUOUS
 62
     7
100
AcDbVertex
100
AcDb2dVertex
 10
8.3676687624
 20
7.0834567379
 30
0.0
  0
VERTEX
  5
40A
330
1EB
100
AcDbEntity
  8
0
  6
CONTINUOUS
 62
     7
100
AcDbVertex
100
AcDb2dVertex
 10
8.3740914619
 20
7.0791777715
 30
0.0
  0
VERTEX
  5
40B
330
1EB
100
AcDbEntity
  8
0
  6
CONTINUOUS
 62
     7
100
AcDbVertex
100
AcDb2dVertex
 10
8.3815036522
 20
7.075470026
 30
0.0
  0
VERTEX
  5
40C
330
1EB
100
AcDbEntity
  8
0
  6
CONTINUOUS
 62
     7
100
AcDbVertex
100
AcDb2dVertex
 10
8.3897544426
 20
7.0724089804
 30
0.0
  0
VERTEX
  5
40D
330
1EB
100
AcDbEntity
  8
0
  6
CONTINUOUS
 62
     7
100
AcDbVertex
100
AcDb2dVertex
 10
8.3986758707
 20
7.0700569488
 30
0.0
  0
VERTEX
  5
40E
330
1EB
100
AcDbEntity
  8
0
  6
CONTINUOUS
 62
     7
100
AcDbVertex
100
AcDb2dVertex
 10
8.4080863219
 20
7.0684618118
 30
0.0
  0
VERTEX
  5
40F
330
1EB
100
AcDbEntity
  8
0
  6
CONTINUOUS
 62
     7
100
AcDbVertex
100
AcDb2dVertex
 10
8.4177942267
 20
7.0676560417
 30
0.0
  0
VERTEX
  5
410
330
1EB
100
AcDbEntity
  8
0
  6
CONTINUOUS
 62
     7
100
AcDbVertex
100
AcDb2dVertex
 10
8.4276019601
 20
7.0676560417
 30
0.0
  0
VERTEX
  5
411
330
1EB
100
AcDbEntity
  8
0
  6
CONTINUOUS
 62
     7
100
AcDbVertex
100
AcDb2dVertex
 10
8.4373098649
 20
7.0684618118
 30
0.0
  0
VERTEX
  5
412
330
1EB
100
AcDbEntity
  8
0
  6
CONTINUOUS
 62
     7
100
AcDbVertex
100
AcDb2dVertex
 10
8.4467203161
 20
7.0700569488
 30
0.0
  0
VERTEX
  5
413
330
1EB
100
AcDbEntity
  8
0
  6
CONTINUOUS
 62
     7
100
AcDbVertex
100
AcDb2dVertex
 10
8.4556417442
 20
7.0724089804
 30
0.0
  0
VERTEX
  5
414
330
1EB
100
AcDbEntity
  8
0
  6
CONTINUOUS
 62
     7
100
AcDbVertex
100
AcDb2dVertex
 10
8.4638925346
 20
7.075470026
 30
0.0
  0
VERTEX
  5
415
330
1EB
100
AcDbEntity
  8
0
  6
CONTINUOUS
 62
     7
100
AcDbVertex
100
AcDb2dVertex
 10
8.4713047249
 20
7.0791777715
 30
0.0
  0
VERTEX
  5
416
330
1EB
100
AcDbEntity
  8
0
  6
CONTINUOUS
 62
     7
100
AcDbVertex
100
AcDb2dVertex
 10
8.4777274244
 20
7.0834567379
 30
0.0
  0
VERTEX
  5
417
330
1EB
100
AcDbEntity
  8
0
  6
CONTINUOUS
 62
     7
100
AcDbVertex
100
AcDb2dVertex
 10
8.4830298854
 20
7.0882198178
 30
0.0
  0
VERTEX
  5
418
330
1EB
100
AcDbEntity
  8
0
  6
CONTINUOUS
 62
     7
100
AcDbVertex
100
AcDb2dVertex
 10
8.487104165
 20
7.0933700486
 30
0.0
  0
VERTEX
  5
419
330
1EB
100
AcDbEntity
  8
0
  6
CONTINUOUS
 62
     7
100
AcDbVertex
100
AcDb2dVertex
 10
8.4898673228
 20
7.0988025864
 30
0.0
  0
VERTEX
  5
41A
330
1EB
100
AcDbEntity
  8
0
  6
CONTINUOUS
 62
     7
100
AcDbVertex
100
AcDb2dVertex
 10
8.4912631088
 20
7.1044068406
 30
0.0
  0
VERTEX
  5
41B
330
1EB
100
AcDbEntity
  8
0
  6
CONTINUOUS
 62
     7
100
AcDbVertex
100
AcDb2dVertex
 10
8.4912631088
 20
7.1100687245
 30
0.0
  0
VERTEX
  5
41C
330
1EB
100
AcDbEntity
  8
0
  6
CONTINUOUS
 62
     7
100
AcDbVertex
100
AcDb2dVertex
 10
8.4898673228
 20
7.1156729787
 30
0.0
  0
VERTEX
  5
41D
330
1EB
100
AcDbEntity
  8
0
  6
CONTINUOUS
 62
     7
100
AcDbVertex
100
AcDb2dVertex
 10
8.487104165
 20
7.1211055166
 30
0.0
  0
VERTEX
  5
41E
330
1EB
100
AcDbEntity
  8
0
  6
CONTINUOUS
 62
     7
100
AcDbVertex
100
AcDb2dVertex
 10
8.4830298854
 20
7.1262557474
 30
0.0
  0
VERTEX
  5
41F
330
1EB
100
AcDbEntity
  8
0
  6
CONTINUOUS
 62
     7
100
AcDbVertex
100
AcDb2dVertex
 10
8.4777274244
 20
7.1310188273
 30
0.0
  0
VERTEX
  5
420
330
1EB
100
AcDbEntity
  8
0
  6
CONTINUOUS
 62
     7
100
AcDbVertex
100
AcDb2dVertex
 10
8.4713047249
 20
7.1352977937
 30
0.0
  0
VERTEX
  5
421
330
1EB
100
AcDbEntity
  8
0
  6
CONTINUOUS
 62
     7
100
AcDbVertex
100
AcDb2dVertex
 10
8.4638925346
 20
7.1390055391
 30
0.0
  0
VERTEX
  5
422
330
1EB
100
AcDbEntity
  8
0
  6
CONTINUOUS
 62
     7
100
AcDbVertex
100
AcDb2dVertex
 10
8.4556417442
 20
7.1420665847
 30
0.0
  0
VERTEX
  5
423
330
1EB
100
AcDbEntity
  8
0
  6
CONTINUOUS
 62
     7
100
AcDbVertex
100
AcDb2dVertex
 10
8.4467203161
 20
7.1444186163
 30
0.0
  0
VERTEX
  5
424
330
1EB
100
AcDbEntity
  8
0
  6
CONTINUOUS
 62
     7
100
AcDbVertex
100
AcDb2dVertex
 10
8.4373098649
 20
7.1460137534
 30
0.0
  0
VERTEX
  5
425
330
1EB
100
AcDbEntity
  8
0
  6
CONTINUOUS
 62
     7
100
AcDbVertex
100
AcDb2dVertex
 10
8.4276019601
 20
7.1468195235
 30
0.0
  0
VERTEX
  5
426
330
1EB
100
AcDbEntity
  8
0
  6
CONTINUOUS
 62
     7
100
AcDbVertex
100
AcDb2dVertex
 10
8.4177942267
 20
7.1468195235
 30
0.0
  0
VERTEX
  5
427
330
1EB
100
AcDbEntity
  8
0
  6
CONTINUOUS
 62
     7
100
AcDbVertex
100
AcDb2dVertex
 10
8.4080863219
 20
7.1460137534
 30
0.0
  0
VERTEX
  5
428
330
1EB
100
AcDbEntity
  8
0
  6
CONTINUOUS
 62
     7
100
AcDbVertex
100
AcDb2dVertex
 10
8.3986758707
 20
7.1444186163
 30
0.0
  0
VERTEX
  5
429
330
1EB
100
AcDbEntity
  8
0
  6
CONTINUOUS
 62
     7
100
AcDbVertex
100
AcDb2dVertex
 10
8.3897544426
 20
7.1420665847
 30
0.0
  0
VERTEX
  5
42A
330
1EB
100
AcDbEntity
  8
0
  6
CONTINUOUS
 62
     7
100
AcDbVertex
100
AcDb2dVertex
 10
8.3815036522
 20
7.1390055391
 30
0.0
  0
VERTEX
  5
42B
330
1EB
100
AcDbEntity
  8
0
  6
CONTINUOUS
 62
     7
100
AcDbVertex
100
AcDb2dVertex
 10
8.3740914619
 20
7.1352977937
 30
0.0
  0
SEQEND
  5
42C
330
1EB
100
AcDbEntity
  8
0
  6
CONTINUOUS
 62
     7
  0
LINE
  5
1EC
330
1F
100
AcDbEntity
  8
0
  6
CONTINUOUS
 62
     7
100
AcDbLine
 10
8.4548436281
 20
7.1257950047
 30
0.0
 11
8.4109320111
 21
7.1325874195
 31
0.0
  0
LINE
  5
1ED
330
1F
100
AcDbEntity
  8
0
  6
CONTINUOUS
 62
     7
100
AcDbLine
 10
8.4109320111
 20
7.1325874195
 30
0.0
 11
8.3787864764
 21
7.1140301973
 31
0.0
  0
LINE
  5
1EE
330
1F
100
AcDbEntity
  8
0
  6
CONTINUOUS
 62
     7
100
AcDbLine
 10
8.3787864764
 20
7.1140301973
 30
0.0
 11
8.3905525587
 21
7.0886805604
 31
0.0
  0
LINE
  5
1EF
330
1F
100
AcDbEntity
  8
0
  6
CONTINUOUS
 62
     7
100
AcDbLine
 10
8.3905525587
 20
7.0886805604
 30
0.0
 11
8.4344641757
 21
7.0818881457
 31
0.0
  0
LINE
  5
1F0
330
1F
100
AcDbEntity
  8
0
  6
CONTINUOUS
 62
     7
100
AcDbLine
 10
8.4344641757
 20
7.0818881457
 30
0.0
 11
8.4666097104
 21
7.1004453678
 31
0.0
  0
LINE
  5
1F1
330
1F
100
AcDbEntity
  8
0
  6
CONTINUOUS
 62
     7
100
AcDbLine
 10
8.4666097104
 20
7.1004453678
 30
0.0
 11
8.4548436281
 21
7.1257950047
 31
0.0
  0
LINE
  5
1F2
330
1F
100
AcDbEntity
  8
0
  6
CONTINUOUS
 62
     7
100
AcDbLine
 10
8.4548436281
 20
7.0936529531
 30
0.0
 11
8.4548436281
 21
7.1257950047
 31
0.0
  0
LINE
  5
1F3
330
1F
100
AcDbEntity
  8
0
  6
CONTINUOUS
 62
     7
100
AcDbLine
 10
8.4109320111
 20
7.0855281897
 30
0.0
 11
8.4109320111
 21
7.1325874195
 31
0.0
  0
ARC
  5
1F4
330
1F
100
AcDbEntity
  8
0
  6
CONTINUOUS
 62
     7
100
AcDbCircle
 10
7.9650190731
 20
7.3883499533
 30
0.0
 40
0.0343991136413544
100
AcDbArc
 50
290.8749606077
 51
69.1089111044
  0
POLYLINE
  5
1F5
330
1F
100
AcDbEntity
  8
0
  6
CONTINUOUS
 62
     7
100
AcDb2dPolyline
 66
     1
 10
0.0
 20
0.0
 30
0.0
  0
VERTEX
  5
42D
330
1F5
100
AcDbEntity
  8
0
  6
CONTINUOUS
 62
     7
100
AcDbVertex
100
AcDb2dVertex
 10
7.8659120533
 20
7.4204876673
 30
0.0
  0
VERTEX
  5
42E
330
1F5
100
AcDbEntity
  8
0
  6
CONTINUOUS
 62
     7
100
AcDbVertex
100
AcDb2dVertex
 10
7.8623265752
 20
7.4182742615
 30
0.0
  0
VERTEX
  5
42F
330
1F5
100
AcDbEntity
  8
0
  6
CONTINUOUS
 62
     7
100
AcDbVertex
100
AcDb2dVertex
 10
7.8559465691
 20
7.4134465728
 30
0.0
  0
VERTEX
  5
430
330
1F5
100
AcDbEntity
  8
0
  6
CONTINUOUS
 62
     7
100
AcDbVertex
100
AcDb2dVertex
 10
7.8507381286
 20
7.4081710501
 30
0.0
  0
VERTEX
  5
431
330
1F5
100
AcDbEntity
  8
0
  6
CONTINUOUS
 62
     7
100
AcDbVertex
100
AcDb2dVertex
 10
7.8467941985
 20
7.4025418352
 30
0.0
  0
VERTEX
  5
432
330
1F5
100
AcDbEntity
  8
0
  6
CONTINUOUS
 62
     7
100
AcDbVertex
100
AcDb2dVertex
 10
7.8441851582
 20
7.3966593817
 30
0.0
  0
VERTEX
  5
433
330
1F5
100
AcDbEntity
  8
0
  6
CONTINUOUS
 62
     7
100
AcDbVertex
100
AcDb2dVertex
 10
7.8429575662
 20
7.3906286621
 30
0.0
  0
VERTEX
  5
434
330
1F5
100
AcDbEntity
  8
0
  6
CONTINUOUS
 62
     7
100
AcDbVertex
100
AcDb2dVertex
 10
7.8431333289
 20
7.3845572947
 30
0.0
  0
VERTEX
  5
435
330
1F5
100
AcDbEntity
  8
0
  6
CONTINUOUS
 62
     7
100
AcDbVertex
100
AcDb2dVertex
 10
7.8447093097
 20
7.3785536231
 30
0.0
  0
VERTEX
  5
436
330
1F5
100
AcDbEntity
  8
0
  6
CONTINUOUS
 62
     7
100
AcDbVertex
100
AcDb2dVertex
 10
7.8476573854
 20
7.3727247831
 30
0.0
  0
VERTEX
  5
437
330
1F5
100
AcDbEntity
  8
0
  6
CONTINUOUS
 62
     7
100
AcDbVertex
100
AcDb2dVertex
 10
7.8519249473
 20
7.3671747905
 30
0.0
  0
VERTEX
  5
438
330
1F5
100
AcDbEntity
  8
0
  6
CONTINUOUS
 62
     7
100
AcDbVertex
100
AcDb2dVertex
 10
7.8574358408
 20
7.3620026849
 30
0.0
  0
VERTEX
  5
439
330
1F5
100
AcDbEntity
  8
0
  6
CONTINUOUS
 62
     7
100
AcDbVertex
100
AcDb2dVertex
 10
7.8640917237
 20
7.3573007628
 30
0.0
  0
VERTEX
  5
43A
330
1F5
100
AcDbEntity
  8
0
  6
CONTINUOUS
 62
     7
100
AcDbVertex
100
AcDb2dVertex
 10
7.8717738219
 20
7.3531529301
 30
0.0
  0
VERTEX
  5
43B
330
1F5
100
AcDbEntity
  8
0
  6
CONTINUOUS
 62
     7
100
AcDbVertex
100
AcDb2dVertex
 10
7.8803450479
 20
7.3496332048
 30
0.0
  0
VERTEX
  5
43C
330
1F5
100
AcDbEntity
  8
0
  6
CONTINUOUS
 62
     7
100
AcDbVertex
100
AcDb2dVertex
 10
7.8896524481
 20
7.3468043967
 30
0.0
  0
VERTEX
  5
43D
330
1F5
100
AcDbEntity
  8
0
  6
CONTINUOUS
 62
     7
100
AcDbVertex
100
AcDb2dVertex
 10
7.8995299317
 20
7.3447169858
 30
0.0
  0
VERTEX
  5
43E
330
1F5
100
AcDbEntity
  8
0
  6
CONTINUOUS
 62
     7
100
AcDbVertex
100
AcDb2dVertex
 10
7.9098012348
 20
7.343408222
 30
0.0
  0
VERTEX
  5
43F
330
1F5
100
AcDbEntity
  8
0
  6
CONTINUOUS
 62
     7
100
AcDbVertex
100
AcDb2dVertex
 10
7.9202830657
 20
7.3429014604
 30
0.0
  0
VERTEX
  5
440
330
1F5
100
AcDbEntity
  8
0
  6
CONTINUOUS
 62
     7
100
AcDbVertex
100
AcDb2dVertex
 10
7.9307883759
 20
7.343205744
 30
0.0
  0
VERTEX
  5
441
330
1F5
100
AcDbEntity
  8
0
  6
CONTINUOUS
 62
     7
100
AcDbVertex
100
AcDb2dVertex
 10
7.9411296979
 20
7.3443156428
 30
0.0
  0
VERTEX
  5
442
330
1F5
100
AcDbEntity
  8
0
  6
CONTINUOUS
 62
     7
100
AcDbVertex
100
AcDb2dVertex
 10
7.9511224905
 20
7.3462113508
 30
0.0
  0
VERTEX
  5
443
330
1F5
100
AcDbEntity
  8
0
  6
CONTINUOUS
 62
     7
100
AcDbVertex
100
AcDb2dVertex
 10
7.9605884322
 20
7.348859039
 30
0.0
  0
VERTEX
  5
444
330
1F5
100
AcDbEntity
  8
0
  6
CONTINUOUS
 62
     7
100
AcDbVertex
100
AcDb2dVertex
 10
7.969358603
 20
7.3522114593
 30
0.0
  0
VERTEX
  5
445
330
1F5
100
AcDbEntity
  8
0
  6
CONTINUOUS
 62
     7
100
AcDbVertex
100
AcDb2dVertex
 10
7.9772764989
 20
7.3562087876
 30
0.0
  0
SEQEND
  5
446
330
1F5
100
AcDbEntity
  8
0
  6
CONTINUOUS
 62
     7
  0
POLYLINE
  5
1F6
330
1F
100
AcDbEntity
  8
0
  6
CONTINUOUS
 62
     7
100
AcDb2dPolyline
 66
     1
 10
0.0
 20
0.0
 30
0.0
  0
VERTEX
  5
447
330
1F6
100
AcDbEntity
  8
0
  6
CONTINUOUS
 62
     7
100
AcDbVertex
100
AcDb2dVertex
 10
7.9702054311
 20
7.3684562363
 30
0.0
  0
VERTEX
  5
448
330
1F6
100
AcDbEntity
  8
0
  6
CONTINUOUS
 62
     7
100
AcDbVertex
100
AcDb2dVertex
 10
7.9627932408
 20
7.3647484908
 30
0.0
  0
VERTEX
  5
449
330
1F6
100
AcDbEntity
  8
0
  6
CONTINUOUS
 62
     7
100
AcDbVertex
100
AcDb2dVertex
 10
7.9545424505
 20
7.3616874452
 30
0.0
  0
VERTEX
  5
44A
330
1F6
100
AcDbEntity
  8
0
  6
CONTINUOUS
 62
     7
100
AcDbVertex
100
AcDb2dVertex
 10
7.9456210224
 20
7.3593354136
 30
0.0
  0
VERTEX
  5
44B
330
1F6
100
AcDbEntity
  8
0
  6
CONTINUOUS
 62
     7
100
AcDbVertex
100
AcDb2dVertex
 10
7.9362105711
 20
7.3577402766
 30
0.0
  0
VERTEX
  5
44C
330
1F6
100
AcDbEntity
  8
0
  6
CONTINUOUS
 62
     7
100
AcDbVertex
100
AcDb2dVertex
 10
7.9265026663
 20
7.3569345065
 30
0.0
  0
VERTEX
  5
44D
330
1F6
100
AcDbEntity
  8
0
  6
CONTINUOUS
 62
     7
100
AcDbVertex
100
AcDb2dVertex
 10
7.916694933
 20
7.3569345065
 30
0.0
  0
VERTEX
  5
44E
330
1F6
100
AcDbEntity
  8
0
  6
CONTINUOUS
 62
     7
100
AcDbVertex
100
AcDb2dVertex
 10
7.9069870282
 20
7.3577402766
 30
0.0
  0
VERTEX
  5
44F
330
1F6
100
AcDbEntity
  8
0
  6
CONTINUOUS
 62
     7
100
AcDbVertex
100
AcDb2dVertex
 10
7.8975765769
 20
7.3593354136
 30
0.0
  0
VERTEX
  5
450
330
1F6
100
AcDbEntity
  8
0
  6
CONTINUOUS
 62
     7
100
AcDbVertex
100
AcDb2dVertex
 10
7.8886551488
 20
7.3616874452
 30
0.0
  0
VERTEX
  5
451
330
1F6
100
AcDbEntity
  8
0
  6
CONTINUOUS
 62
     7
100
AcDbVertex
100
AcDb2dVertex
 10
7.8804043585
 20
7.3647484908
 30
0.0
  0
VERTEX
  5
452
330
1F6
100
AcDbEntity
  8
0
  6
CONTINUOUS
 62
     7
100
AcDbVertex
100
AcDb2dVertex
 10
7.8729921681
 20
7.3684562363
 30
0.0
  0
VERTEX
  5
453
330
1F6
100
AcDbEntity
  8
0
  6
CONTINUOUS
 62
     7
100
AcDbVertex
100
AcDb2dVertex
 10
7.8665694687
 20
7.3727352027
 30
0.0
  0
VERTEX
  5
454
330
1F6
100
AcDbEntity
  8
0
  6
CONTINUOUS
 62
     7
100
AcDbVertex
100
AcDb2dVertex
 10
7.8612670077
 20
7.3774982826
 30
0.0
  0
VERTEX
  5
455
330
1F6
100
AcDbEntity
  8
0
  6
CONTINUOUS
 62
     7
100
AcDbVertex
100
AcDb2dVertex
 10
7.857192728
 20
7.3826485134
 30
0.0
  0
VERTEX
  5
456
330
1F6
100
AcDbEntity
  8
0
  6
CONTINUOUS
 62
     7
100
AcDbVertex
100
AcDb2dVertex
 10
7.8544295702
 20
7.3880810513
 30
0.0
  0
VERTEX
  5
457
330
1F6
100
AcDbEntity
  8
0
  6
CONTINUOUS
 62
     7
100
AcDbVertex
100
AcDb2dVertex
 10
7.8530337842
 20
7.3936853054
 30
0.0
  0
VERTEX
  5
458
330
1F6
100
AcDbEntity
  8
0
  6
CONTINUOUS
 62
     7
100
AcDbVertex
100
AcDb2dVertex
 10
7.8530337842
 20
7.3993471894
 30
0.0
  0
VERTEX
  5
459
330
1F6
100
AcDbEntity
  8
0
  6
CONTINUOUS
 62
     7
100
AcDbVertex
100
AcDb2dVertex
 10
7.8544295702
 20
7.4049514435
 30
0.0
  0
VERTEX
  5
45A
330
1F6
100
AcDbEntity
  8
0
  6
CONTINUOUS
 62
     7
100
AcDbVertex
100
AcDb2dVertex
 10
7.857192728
 20
7.4103839814
 30
0.0
  0
VERTEX
  5
45B
330
1F6
100
AcDbEntity
  8
0
  6
CONTINUOUS
 62
     7
100
AcDbVertex
100
AcDb2dVertex
 10
7.8612670077
 20
7.4155342122
 30
0.0
  0
VERTEX
  5
45C
330
1F6
100
AcDbEntity
  8
0
  6
CONTINUOUS
 62
     7
100
AcDbVertex
100
AcDb2dVertex
 10
7.8665694687
 20
7.4202972921
 30
0.0
  0
VERTEX
  5
45D
330
1F6
100
AcDbEntity
  8
0
  6
CONTINUOUS
 62
     7
100
AcDbVertex
100
AcDb2dVertex
 10
7.8729921681
 20
7.4245762585
 30
0.0
  0
VERTEX
  5
45E
330
1F6
100
AcDbEntity
  8
0
  6
CONTINUOUS
 62
     7
100
AcDbVertex
100
AcDb2dVertex
 10
7.8804043585
 20
7.428284004
 30
0.0
  0
VERTEX
  5
45F
330
1F6
100
AcDbEntity
  8
0
  6
CONTINUOUS
 62
     7
100
AcDbVertex
100
AcDb2dVertex
 10
7.8886551488
 20
7.4313450495
 30
0.0
  0
VERTEX
  5
460
330
1F6
100
AcDbEntity
  8
0
  6
CONTINUOUS
 62
     7
100
AcDbVertex
100
AcDb2dVertex
 10
7.8975765769
 20
7.4336970811
 30
0.0
  0
VERTEX
  5
461
330
1F6
100
AcDbEntity
  8
0
  6
CONTINUOUS
 62
     7
100
AcDbVertex
100
AcDb2dVertex
 10
7.9069870282
 20
7.4352922182
 30
0.0
  0
VERTEX
  5
462
330
1F6
100
AcDbEntity
  8
0
  6
CONTINUOUS
 62
     7
100
AcDbVertex
100
AcDb2dVertex
 10
7.916694933
 20
7.4360979883
 30
0.0
  0
VERTEX
  5
463
330
1F6
100
AcDbEntity
  8
0
  6
CONTINUOUS
 62
     7
100
AcDbVertex
100
AcDb2dVertex
 10
7.9265026663
 20
7.4360979883
 30
0.0
  0
VERTEX
  5
464
330
1F6
100
AcDbEntity
  8
0
  6
CONTINUOUS
 62
     7
100
AcDbVertex
100
AcDb2dVertex
 10
7.9362105711
 20
7.4352922182
 30
0.0
  0
VERTEX
  5
465
330
1F6
100
AcDbEntity
  8
0
  6
CONTINUOUS
 62
     7
100
AcDbVertex
100
AcDb2dVertex
 10
7.9456210224
 20
7.4336970811
 30
0.0
  0
VERTEX
  5
466
330
1F6
100
AcDbEntity
  8
0
  6
CONTINUOUS
 62
     7
100
AcDbVertex
100
AcDb2dVertex
 10
7.9545424505
 20
7.4313450495
 30
0.0
  0
VERTEX
  5
467
330
1F6
100
AcDbEntity
  8
0
  6
CONTINUOUS
 62
     7
100
AcDbVertex
100
AcDb2dVertex
 10
7.9627932408
 20
7.428284004
 30
0.0
  0
VERTEX
  5
468
330
1F6
100
AcDbEntity
  8
0
  6
CONTINUOUS
 62
     7
100
AcDbVertex
100
AcDb2dVertex
 10
7.9702054311
 20
7.4245762585
 30
0.0
  0
VERTEX
  5
469
330
1F6
100
AcDbEntity
  8
0
  6
CONTINUOUS
 62
     7
100
AcDbVertex
100
AcDb2dVertex
 10
7.9766281306
 20
7.4202972921
 30
0.0
  0
VERTEX
  5
46A
330
1F6
100
AcDbEntity
  8
0
  6
CONTINUOUS
 62
     7
100
AcDbVertex
100
AcDb2dVertex
 10
7.9819305916
 20
7.4155342122
 30
0.0
  0
VERTEX
  5
46B
330
1F6
100
AcDbEntity
  8
0
  6
CONTINUOUS
 62
     7
100
AcDbVertex
100
AcDb2dVertex
 10
7.9860048713
 20
7.4103839814
 30
0.0
  0
VERTEX
  5
46C
330
1F6
100
AcDbEntity
  8
0
  6
CONTINUOUS
 62
     7
100
AcDbVertex
100
AcDb2dVertex
 10
7.9887680291
 20
7.4049514435
 30
0.0
  0
VERTEX
  5
46D
330
1F6
100
AcDbEntity
  8
0
  6
CONTINUOUS
 62
     7
100
AcDbVertex
100
AcDb2dVertex
 10
7.9901638151
 20
7.3993471894
 30
0.0
  0
VERTEX
  5
46E
330
1F6
100
AcDbEntity
  8
0
  6
CONTINUOUS
 62
     7
100
AcDbVertex
100
AcDb2dVertex
 10
7.9901638151
 20
7.3936853054
 30
0.0
  0
VERTEX
  5
46F
330
1F6
100
AcDbEntity
  8
0
  6
CONTINUOUS
 62
     7
100
AcDbVertex
100
AcDb2dVertex
 10
7.9887680291
 20
7.3880810513
 30
0.0
  0
VERTEX
  5
470
330
1F6
100
AcDbEntity
  8
0
  6
CONTINUOUS
 62
     7
100
AcDbVertex
100
AcDb2dVertex
 10
7.9860048713
 20
7.3826485134
 30
0.0
  0
VERTEX
  5
471
330
1F6
100
AcDbEntity
  8
0
  6
CONTINUOUS
 62
     7
100
AcDbVertex
100
AcDb2dVertex
 10
7.9819305916
 20
7.3774982826
 30
0.0
  0
VERTEX
  5
472
330
1F6
100
AcDbEntity
  8
0
  6
CONTINUOUS
 62
     7
100
AcDbVertex
100
AcDb2dVertex
 10
7.9766281306
 20
7.3727352027
 30
0.0
  0
VERTEX
  5
473
330
1F6
100
AcDbEntity
  8
0
  6
CONTINUOUS
 62
     7
100
AcDbVertex
100
AcDb2dVertex
 10
7.9702054311
 20
7.3684562363
 30
0.0
  0
SEQEND
  5
474
330
1F6
100
AcDbEntity
  8
0
  6
CONTINUOUS
 62
     7
  0
LINE
  5
1F7
330
1F
100
AcDbEntity
  8
0
  6
CONTINUOUS
 62
     7
100
AcDbLine
 10
7.8776871826
 20
7.4033086621
 30
0.0
 11
7.9098327173
 21
7.4218658843
 31
0.0
  0
LINE
  5
1F8
330
1F
100
AcDbEntity
  8
0
  6
CONTINUOUS
 62
     7
100
AcDbLine
 10
7.889453265
 20
7.3779590252
 30
0.0
 11
7.8776871826
 21
7.4033086621
 31
0.0
  0
LINE
  5
1F9
330
1F
100
AcDbEntity
  8
0
  6
CONTINUOUS
 62
     7
100
AcDbLine
 10
7.933364882
 20
7.3711666105
 30
0.0
 11
7.889453265
 21
7.3779590252
 31
0.0
  0
LINE
  5
1FA
330
1F
100
AcDbEntity
  8
0
  6
CONTINUOUS
 62
     7
100
AcDbLine
 10
7.9655104166
 20
7.3897238326
 30
0.0
 11
7.933364882
 21
7.3711666105
 31
0.0
  0
LINE
  5
1FB
330
1F
100
AcDbEntity
  8
0
  6
CONTINUOUS
 62
     7
100
AcDbLine
 10
7.9537443343
 20
7.4150734696
 30
0.0
 11
7.9655104166
 21
7.3897238326
 31
0.0
  0
LINE
  5
1FC
330
1F
100
AcDbEntity
  8
0
  6
CONTINUOUS
 62
     7
100
AcDbLine
 10
7.9098327173
 20
7.4218658843
 30
0.0
 11
7.9537443343
 21
7.4150734696
 31
0.0
  0
LINE
  5
1FD
330
1F
100
AcDbEntity
  8
0
  6
CONTINUOUS
 62
     7
100
AcDbLine
 10
7.9537443343
 20
7.3829314179
 30
0.0
 11
7.9537443343
 21
7.4150734696
 31
0.0
  0
LINE
  5
1FE
330
1F
100
AcDbEntity
  8
0
  6
CONTINUOUS
 62
     7
100
AcDbLine
 10
7.9098327173
 20
7.3748066546
 30
0.0
 11
7.9098327173
 21
7.4218658843
 31
0.0
  0
ENDSEC
  0
SECTION
  2
OBJECTS
  0
DICTIONARY
  5
C
330
0
100
AcDbDictionary
  3
ACAD_GROUP
350
D
  3
ACAD_LAYOUT
350
1A
  3
ACAD_MLEADERSTYLE
350
201
  3
ACAD_MLINESTYLE
350
17
  3
ACAD_PLOTSETTINGS
350
19
  3
ACAD_SCALELIST
350
6F
  3
ACAD_VISUALSTYLE
350
2A
  3
ACDBVARIABLEDICTIONARY
350
1FF
1001
ACAD
1000
TREAT_AS_HARD
1070
     0
  0
DICTIONARY
  5
D
102
{ACAD_REACTORS
330
C
102
}
330
C
100
AcDbDictionary
1001
ACAD
1000
TREAT_AS_HARD
1070
     0
  0
DICTIONARY
  5
1A
102
{ACAD_REACTORS
330
C
102
}
330
C
100
AcDbDictionary
1001
ACAD
1000
TREAT_AS_HARD
1070
     0
  0
DICTIONARY
  5
201
102
{ACAD_REACTORS
330
C
102
}
330
C
100
AcDbDictionary
1001
ACAD
1000
TREAT_AS_HARD
1070
     0
  0
DICTIONARY
  5
17
102
{ACAD_REACTORS
330
C
102
}
330
C
100
AcDbDictionary
  3
STANDARD
350
18
1001
ACAD
1000
TREAT_AS_HARD
1070
     0
  0
DICTIONARY
  5
19
102
{ACAD_REACTORS
330
C
102
}
330
C
100
AcDbDictionary
1001
ACAD
1000
TREAT_AS_HARD
1070
     0
  0
DICTIONARY
  5
6F
102
{ACAD_REACTORS
330
C
102
}
330
C
100
AcDbDictionary
  3
A0
350
70
  3
A1
350
71
  3
A2
350
72
  3
A3
350
73
  3
A4
350
74
  3
A5
350
75
  3
A6
350
76
  3
A7
350
77
  3
A8
350
78
  3
A9
350
79
  3
B0
350
7A
  3
B1
350
7B
  3
B2
350
7C
  3
B3
350
7D
  3
B4
350
7E
  3
B5
350
7F
  3
B6
350
80
  3
B7
350
81
  3
B8
350
82
  3
B9
350
83
  3
C0
350
84
  3
C1
350
85
  3
C2
350
86
  3
C3
350
87
  3
C4
350
88
  3
C5
350
89
  3
C6
350
8A
  3
C7
350
8B
  3
C8
350
8C
  3
C9
350
8D
  3
D0
350
8E
  3
D1
350
8F
  3
D2
350
90
1001
ACAD
1000
TREAT_AS_HARD
1070
     0
  0
DICTIONARY
  5
2A
102
{ACAD_REACTORS
330
C
102
}
330
C
100
AcDbDictionary
  3
2DWIREFRAME
350
2F
  3
3D_HIDDEN
350
31
  3
3DWIREFRAME
350
30
  3
BASIC
350
32
  3
BRIGHTEN
350
36
  3
COLORCHANGE
350
3A
  3
CONCEPTUAL
350
34
  3
DIM
350
35
  3
FACEPATTERN
350
39
  3
FLAT
350
2B
  3
FLATWITHEDGES
350
2C
  3
GOURAUD
350
2D
  3
GOURAUDWITHEDGES
350
2E
  3
LINEPATTERN
350
38
  3
REALISTIC
350
33
  3
THICKEN
350
37
1001
ACAD
1000
TREAT_AS_HARD
1070
     0
  0
DICTIONARY
  5
1FF
102
{ACAD_REACTORS
330
C
102
}
330
C
100
AcDbDictionary
  3
CANNOSCALE
350
202
  3
DIMASSOC
350
203
  3
HIDETEXT
350
204
1001
ACAD
1000
TREAT_AS_HARD
1070
     0
  0
MLINESTYLE
  5
18
102
{ACAD_REACTORS
330
17
102
}
330
17
100
AcDbMlineStyle
  2
Standard
 70
     0
  3

 62
   256
 51
90.0
 52
90.0
 71
     2
 49
0.5
 62
   256
  6
BYLAYER
 49
-0.5
 62
   256
  6
BYLAYER
  0
ACAD_PROXY_OBJECT
  5
70
102
{ACAD_REACTORS
330
6F
102
}
330
6F
100
AcDbZombieObject
 90
      499
 91
      502
 93
       41
310
903313A31580
  0
ACAD_PROXY_OBJECT
  5
71
102
{ACAD_REACTORS
330
6F
102
}
330
6F
100
AcDbZombieObject
 90
      499
 91
      502
 93
      105
310
903313A324000000000000004000
  0
ACAD_PROXY_OBJECT
  5
72
102
{ACAD_REACTORS
330
6F
102
}
330
6F
100
AcDbZombieObject
 90
      499
 91
      502
 93
      105
310
903313A344000000000000104000
  0
ACAD_PROXY_OBJECT
  5
73
102
{ACAD_REACTORS
330
6F
102
}
330
6F
100
AcDbZombieObject
 90
      499
 91
      502
 93
      105
310
903313A354000000000000144000
  0
ACAD_PROXY_OBJECT
  5
74
102
{ACAD_REACTORS
330
6F
102
}
330
6F
100
AcDbZombieObject
 90
      499
 91
      502
 93
      105
310
903313A384000000000000204000
  0
ACAD_PROXY_OBJECT
  5
75
102
{ACAD_REACTORS
330
6F
102
}
330
6F
100
AcDbZombieObject
 90
      499
 91
      502
 93
      113
310
904313A31304000000000000244000
  0
ACAD_PROXY_OBJECT
  5
76
102
{ACAD_REACTORS
330
6F
102
}
330
6F
100
AcDbZombieObject
 90
      499
 91
      502
 93
      113
310
904313A31364000000000000304000
  0
ACAD_PROXY_OBJECT
  5
77
102
{ACAD_REACTORS
330
6F
102
}
330
6F
100
AcDbZombieObject
 90
      499
 91
      502
 93
      113
310
904313A32304000000000000344000
  0
ACAD_PROXY_OBJECT
  5
78
102
{ACAD_REACTORS
330
6F
102
}
330
6F
100
AcDbZombieObject
 90
      499
 91
      502
 93
      113
310
904313A333040000000000003E4000
  0
ACAD_PROXY_OBJECT
  5
79
102
{ACAD_REACTORS
330
6F
102
}
330
6F
100
AcDbZombieObject
 90
      499
 91
      502
 93
      113
310
904313A34304000000000000444000
  0
ACAD_PROXY_OBJECT
  5
7A
102
{ACAD_REACTORS
330
6F
102
}
330
6F
100
AcDbZombieObject
 90
      499
 91
      502
 93
      113
310
904313A35304000000000000494000
  0
ACAD_PROXY_OBJECT
  5
7B
102
{ACAD_REACTORS
330
6F
102
}
330
6F
100
AcDbZombieObject
 90
      499
 91
      502
 93
      121
310
905313A3130304000000000000594000
  0
ACAD_PROXY_OBJECT
  5
7C
102
{ACAD_REACTORS
330
6F
102
}
330
6F
100
AcDbZombieObject
 90
      499
 91
      502
 93
      105
310
903323A310000000000000010100
  0
ACAD_PROXY_OBJECT
  5
7D
102
{ACAD_REACTORS
330
6F
102
}
330
6F
100
AcDbZombieObject
 90
      499
 91
      502
 93
      105
310
903343A310000000000000410100
  0
ACAD_PROXY_OBJECT
  5
7E
102
{ACAD_REACTORS
330
6F
102
}
330
6F
100
AcDbZombieObject
 90
      499
 91
      502
 93
      105
310
903383A310000000000000810100
  0
ACAD_PROXY_OBJECT
  5
7F
102
{ACAD_REACTORS
330
6F
102
}
330
6F
100
AcDbZombieObject
 90
      499
 91
      502
 93
      113
310
90431303A310000000000000910100
  0
ACAD_PROXY_OBJECT
  5
80
102
{ACAD_REACTORS
330
6F
102
}
330
6F
100
AcDbZombieObject
 90
      499
 91
      502
 93
      121
310
9053130303A310000000000001650100
  0
ACAD_PROXY_OBJECT
  5
81
102
{ACAD_REACTORS
330
6F
102
}
330
6F
100
AcDbZombieObject
 90
      499
 91
      502
 93
      257
310
90E312F31323822203D2031272D3022000000000000200FC000000000000284000
  0
ACAD_PROXY_OBJECT
  5
82
102
{ACAD_REACTORS
330
6F
102
}
330
6F
100
AcDbZombieObject
 90
      499
 91
      502
 93
      249
310
90D312F363422203D2031272D3022000000000000240FC000000000000284000
  0
ACAD_PROXY_OBJECT
  5
83
102
{ACAD_REACTORS
330
6F
102
}
330
6F
100
AcDbZombieObject
 90
      499
 91
      502
 93
      249
310
90D312F333222203D2031272D3022000000000000280FC000000000000284000
  0
ACAD_PROXY_OBJECT
  5
84
102
{ACAD_REACTORS
330
6F
102
}
330
6F
100
AcDbZombieObject
 90
      499
 91
      502
 93
      249
310
90D312F313622203D2031272D30220000000000002C0FC000000000000284000
  0
ACAD_PROXY_OBJECT
  5
85
102
{ACAD_REACTORS
330
6F
102
}
330
6F
100
AcDbZombieObject
 90
      499
 91
      502
 93
      249
310
90D332F333222203D2031272D30220000000000002E0FC000000000000284000
  0
ACAD_PROXY_OBJECT
  5
86
102
{ACAD_REACTORS
330
6F
102
}
330
6F
100
AcDbZombieObject
 90
      499
 91
      502
 93
      241
310
90C312F3822203D2031272D3022000000000000300FC000000000000284000
  0
ACAD_PROXY_OBJECT
  5
87
102
{ACAD_REACTORS
330
6F
102
}
330
6F
100
AcDbZombieObject
 90
      499
 91
      502
 93
      249
310
90D332F313622203D2031272D3022000000000000320FC000000000000284000
  0
ACAD_PROXY_OBJECT
  5
88
102
{ACAD_REACTORS
330
6F
102
}
330
6F
100
AcDbZombieObject
 90
      499
 91
      502
 93
      241
310
90C312F3422203D2031272D3022000000000000340FC000000000000284000
  0
ACAD_PROXY_OBJECT
  5
89
102
{ACAD_REACTORS
330
6F
102
}
330
6F
100
AcDbZombieObject
 90
      499
 91
      502
 93
      241
310
90C332F3822203D2031272D3022000000000000360FC000000000000284000
  0
ACAD_PROXY_OBJECT
  5
8A
102
{ACAD_REACTORS
330
6F
102
}
330
6F
100
AcDbZombieObject
 90
      499
 91
      502
 93
      241
310
90C312F3222203D2031272D3022000000000000380FC000000000000284000
  0
ACAD_PROXY_OBJECT
  5
8B
102
{ACAD_REACTORS
330
6F
102
}
330
6F
100
AcDbZombieObject
 90
      499
 91
      502
 93
      241
310
90C332F3422203D2031272D30220000000000003A0FC000000000000284000
  0
ACAD_PROXY_OBJECT
  5
8C
102
{ACAD_REACTORS
330
6F
102
}
330
6F
100
AcDbZombieObject
 90
      499
 91
      502
 93
      161
310
90A3122203D2031272D30224000000000000284000
  0
ACAD_PROXY_OBJECT
  5
8D
102
{ACAD_REACTORS
330
6F
102
}
330
6F
100
AcDbZombieObject
 90
      499
 91
      502
 93
      257
310
90E312D312F3222203D2031272D30220000000000003E0FC000000000000284000
  0
ACAD_PROXY_OBJECT
  5
8E
102
{ACAD_REACTORS
330
6F
102
}
330
6F
100
AcDbZombieObject
 90
      499
 91
      502
 93
      225
310
90A3322203D2031272D302200000000000002100000000000000284000
  0
ACAD_PROXY_OBJECT
  5
8F
102
{ACAD_REACTORS
330
6F
102
}
330
6F
100
AcDbZombieObject
 90
      499
 91
      502
 93
      225
310
90A3622203D2031272D302200000000000006100000000000000284000
  0
ACAD_PROXY_OBJECT
  5
90
102
{ACAD_REACTORS
330
6F
102
}
330
6F
100
AcDbZombieObject
 90
      499
 91
      502
 93
      249
310
90D31272D3022203D2031272D30220000000000000A100000000000000284000
  0
ACAD_PROXY_OBJECT
  5
2F
102
{ACAD_REACTORS
330
2A
102
}
330
2A
100
AcDbZombieObject
 90
      499
 91
      501
 93
      436
310
42CC9915DA5C99599C985B595049028333333333333E3BF0000000000000FB0107901411070040501600405405064090741402480A0340
1001
ACAD
1000
AcDbSavedByObjectVersion
1070
     0
  0
ACAD_PROXY_OBJECT
  5
31
102
{ACAD_REACTORS
330
2A
102
}
330
2A
100
AcDbZombieObject
 90
      499
 91
      501
 93
      500
310
424CD108121A5919195B90640502408333333333333E3BF0000000000000FB01079024090700405020000000000001110200405405064090740C02480A0340
1001
ACAD
1000
AcDbSavedByObjectVersion
1070
     0
  0
ACAD_PROXY_OBJECT
  5
30
102
{ACAD_REACTORS
330
2A
102
}
330
2A
100
AcDbZombieObject
 90
      499
 91
      501
 93
      436
310
42CCD915DA5C99599C985B595059028333333333333E3BF0000000000000FB0107901411070040501600405405064090741402480A0340
1001
ACAD
1000
AcDbSavedByObjectVersion
1070
     0
  0
ACAD_PROXY_OBJECT
  5
32
102
{ACAD_REACTORS
330
2A
102
}
330
2A
100
AcDbZombieObject
 90
      499
 91
      501
 93
      388
310
4150985CDA58D07406404333333333333E3BF0000000000000FB0107A41107004050150841D405064090741402480A0350
1001
ACAD
1000
AcDbSavedByObjectVersion
1070
     0
  0
ACAD_PROXY_OBJECT
  5
36
102
{ACAD_REACTORS
330
2A
102
}
330
2A
100
AcDbZombieObject
 90
      499
 91
      501
 93
      428
310
42109C9A59DA1D195B90C409028333333333333E3BF0000000000000FB010790141107004050150841D405064090741402480A029950
1001
ACAD
1000
AcDbSavedByObjectVersion
1070
     0
  0
ACAD_PROXY_OBJECT
  5
3A
102
{ACAD_REACTORS
330
2A
102
}
330
2A
100
AcDbZombieObject
 90
      499
 91
      501
 93
      452
310
42D0DBDB1BDC90DA185B99D95104090240C333333333333E3BF0000000000000FB0108901411070040501508421405064090741402480A0350
1001
ACAD
1000
AcDbSavedByObjectVersion
1070
     0
  0
ACAD_PROXY_OBJECT
  5
34
102
{ACAD_REACTORS
330
2A
102
}
330
2A
100
AcDbZombieObject
 90
      499
 91
      501
 93
      500
310
4290DBDB98D95C1D1D585B10940D028333333333333E3BF0000000000000FB0107902409070040501000000000000111010841D405064090740C02480A0340
1001
ACAD
1000
AcDbSavedByObjectVersion
1070
     0
  0
ACAD_PROXY_OBJECT
  5
35
102
{ACAD_REACTORS
330
2A
102
}
330
2A
100
AcDbZombieObject
 90
      499
 91
      501
 93
      412
310
40D11A5B50B409028333333333333E3BF0000000000000FB010790141107004050150841D405064090741402480A02677FFFFFD0
1001
ACAD
1000
AcDbSavedByObjectVersion
1070
     0
  0
ACAD_PROXY_OBJECT
  5
39
102
{ACAD_REACTORS
330
2A
102
}
330
2A
100
AcDbZombieObject
 90
      499
 91
      501
 93
      444
310
42D19858D95C185D1D195C9B90F409028333333333333E3BF0000000000000FB010790141107004050150841D405064090741402480A0350
1001
ACAD
1000
AcDbSavedByObjectVersion
1070
     0
  0
ACAD_PROXY_OBJECT
  5
2B
102
{ACAD_REACTORS
330
2A
102
}
330
2A
100
AcDbZombieObject
 90
      499
 91
      501
 93
      388
310
41119B185D240901404333333333333E3BF0000000000000F9010740A41107004050150841D405064090741402480A1B50
1001
ACAD
1000
AcDbSavedByObjectVersion
1070
     0
  0
ACAD_PROXY_OBJECT
  5
2C
102
{ACAD_REACTORS
330
2A
102
}
330
2A
100
AcDbZombieObject
 90
      499
 91
      501
 93
      476
310
43519B185D15DA5D1A115919D95CD0140901404333333333333E3BF0000000000000F9010740901411070040501600405405064090741402480A1B50
1001
ACAD
1000
AcDbSavedByObjectVersion
1070
     0
  0
ACAD_PROXY_OBJECT
  5
2D
102
{ACAD_REACTORS
330
2A
102
}
330
2A
100
AcDbZombieObject
 90
      499
 91
      501
 93
      412
310
41D1DBDD5C985D5910240902404333333333333E3BF0000000000000F9010740A411070040501641D405064090741402480A1B50
1001
ACAD
1000
AcDbSavedByObjectVersion
1070
     0
  0
ACAD_PROXY_OBJECT
  5
2E
102
{ACAD_REACTORS
330
2A
102
}
330
2A
100
AcDbZombieObject
 90
      499
 91
      501
 93
      500
310
4411DBDD5C985D5915DA5D1A115919D95CD0340902404333333333333E3BF0000000000000F9010740901411070040501600405405064090741402480A1B50
1001
ACAD
1000
AcDbSavedByObjectVersion
1070
     0
  0
ACAD_PROXY_OBJECT
  5
38
102
{ACAD_REACTORS
330
2A
102
}
330
2A
100
AcDbZombieObject
 90
      499
 91
      501
 93
      444
310
42D31A5B995C185D1D195C9B90E409028333333333333E3BF0000000000000FB010790141107004050750841D405064090741402483A0350
1001
ACAD
1000
AcDbSavedByObjectVersion
1070
     0
  0
ACAD_PROXY_OBJECT
  5
33
102
{ACAD_REACTORS
330
2A
102
}
330
2A
100
AcDbZombieObject
 90
      499
 91
      501
 93
      420
310
425499585B1A5CDD1A58D08409028333333333333E3BF0000000000000FB01079019070040501508421405064090741402480A1B40
1001
ACAD
1000
AcDbSavedByObjectVersion
1070
     0
  0
ACAD_PROXY_OBJECT
  5
37
102
{ACAD_REACTORS
330
2A
102
}
330
2A
100
AcDbZombieObject
 90
      499
 91
      501
 93
      412
310
41D51A1A58DAD95B90D409028333333333333E3BF0000000000000FB010790141107004050150C41D405064090741402480A0350
1001
ACAD
1000
AcDbSavedByObjectVersion
1070
     0
  0
DICTIONARYVAR
  5
202
102
{ACAD_REACTORS
330
1FF
102
}
330
1FF
100
DictionaryVariables
280
     0
  1
1:1
  0
DICTIONARYVAR
  5
203
102
{ACAD_REACTORS
330
1FF
102
}
330
1FF
100
DictionaryVariables
280
     0
  1
2
  0
DICTIONARYVAR
  5
204
102
{ACAD_REACTORS
330
1FF
102
}
330
1FF
100
DictionaryVariables
280
     0
  1
1
  0
ENDSEC
  0
EOF
