  0
SECTION
  2
HEADER
  9
$ACADVER
  1
AC1012
  9
$DWGCODEPAGE
  3
ansi_1252
  9
$INSBASE
 10
0.0
 20
0.0
 30
0.0
  9
$EXTMIN
 10
0.0
 20
0.0
 30
0.0
  9
$EXTMAX
 10
11.0
 20
8.5
 30
0.0
  9
$LIMMIN
 10
0.0
 20
0.0
  9
$LIMMAX
 10
11.0
 20
8.5
  9
$ORTHOMODE
 70
     0
  9
$REGENMODE
 70
     1
  9
$FILLMODE
 70
     1
  9
$QTEXTMODE
 70
     0
  9
$MIRRTEXT
 70
     1
  9
$DRAGMODE
 70
     2
  9
$LTSCALE
 40
1.0
  9
$OSMODE
 70
    37
  9
$ATTMODE
 70
     1
  9
$TEXTSIZE
 40
0.125
  9
$TRACEWID
 40
0.05
  9
$TEXTSTYLE
  7
STANDARD
  9
$CLAYER
  8
0
  9
$CELTYPE
  6
BYLAYER
  9
$CECOLOR
 62
   256
  9
$CELTSCALE
 40
1.0
  9
$DELOBJ
 70
     1
  9
$DISPSILH
 70
     0
  9
$DIMSCALE
 40
1.0
  9
$DIMASZ
 40
0.13
  9
$DIMEXO
 40
0.05
  9
$DIMDLI
 40
0.38
  9
$DIMRND
 40
0.0
  9
$DIMDLE
 40
0.0
  9
$DIMEXE
 40
0.125
  9
$DIMTP
 40
0.0
  9
$DIMTM
 40
0.0
  9
$DIMTXT
 40
0.125
  9
$DIMCEN
 40
0.09
  9
$DIMTSZ
 40
0.0
  9
$DIMTOL
 70
     0
  9
$DIMLIM
 70
     0
  9
$DIMTIH
 70
     1
  9
$DIMTOH
 70
     1
  9
$DIMSE1
 70
     0
  9
$DIMSE2
 70
     0
  9
$DIMTAD
 70
     0
  9
$DIMZIN
 70
     0
  9
$DIMBLK
  1

  9
$DIMASO
 70
     1
  9
$DIMSHO
 70
     1
  9
$DIMPOST
  1

  9
$DIMAPOST
  1

  9
$DIMALT
 70
     0
  9
$DIMALTD
 70
     2
  9
$DIMALTF
 40
25.4
  9
$DIMLFAC
 40
0.5
  9
$DIMTOFL
 70
     0
  9
$DIMTVP
 40
0.0
  9
$DIMTIX
 70
     0
  9
$DIMSOXD
 70
     0
  9
$DIMSAH
 70
     0
  9
$DIMBLK1
  1

  9
$DIMBLK2
  1

  9
$DIMSTYLE
  2
STANDARD
  9
$DIMCLRD
 70
     0
  9
$DIMCLRE
 70
     0
  9
$DIMCLRT
 70
     0
  9
$DIMTFAC
 40
1.0
  9
$DIMGAP
 40
0.06
  9
$DIMJUST
 70
     0
  9
$DIMSD1
 70
     0
  9
$DIMSD2
 70
     0
  9
$DIMTOLJ
 70
     1
  9
$DIMTZIN
 70
     0
  9
$DIMALTZ
 70
     0
  9
$DIMALTTZ
 70
     0
  9
$DIMFIT
 70
     3
  9
$DIMUPT
 70
     0
  9
$DIMUNIT
 70
     2
  9
$DIMDEC
 70
     3
  9
$DIMTDEC
 70
     3
  9
$DIMALTU
 70
     2
  9
$DIMALTTD
 70
     2
  9
$DIMTXSTY
  7
STANDARD
  9
$DIMAUNIT
 70
     0
  9
$LUNITS
 70
     2
  9
$LUPREC
 70
     2
  9
$SKETCHINC
 40
0.1
  9
$FILLETRAD
 40
0.5
  9
$AUNITS
 70
     0
  9
$AUPREC
 70
     2
  9
$MENU
  1
.
  9
$ELEVATION
 40
0.0
  9
$PELEVATION
 40
0.0
  9
$THICKNESS
 40
0.0
  9
$LIMCHECK
 70
     0
  9
$CHAMFERA
 40
0.5
  9
$CHAMFERB
 40
0.5
  9
$CHAMFERC
 40
1.0
  9
$CHAMFERD
 40
0.0
  9
$SKPOLY
 70
     0
  9
$TDCREATE
 40
2455784.03387713
  9
$TDUPDATE
 40
2455784.033877141
  9
$TDINDWG
 40
0.0000000116
  9
$TDUSRTIMER
 40
0.0000000116
  9
$USRTIMER
 70
     1
  9
$ANGBASE
 50
0.0
  9
$ANGDIR
 70
     0
  9
$PDMODE
 70
     0
  9
$PDSIZE
 40
-1.0
  9
$PLINEWID
 40
0.0
  9
$COORDS
 70
     1
  9
$SPLFRAME
 70
     0
  9
$SPLINETYPE
 70
     6
  9
$SPLINESEGS
 70
     8
  9
$ATTDIA
 70
     0
  9
$ATTREQ
 70
     1
  9
$HANDLING
 70
     1
  9
$HANDSEED
  5
40E
  9
$SURFTAB1
 70
     6
  9
$SURFTAB2
 70
     6
  9
$SURFTYPE
 70
     6
  9
$SURFU
 70
     6
  9
$SURFV
 70
     6
  9
$UCSNAME
  2

  9
$UCSORG
 10
0.0
 20
0.0
 30
0.0
  9
$UCSXDIR
 10
1.0
 20
0.0
 30
0.0
  9
$UCSYDIR
 10
0.0
 20
1.0
 30
0.0
  9
$PUCSNAME
  2

  9
$PUCSORG
 10
0.0
 20
0.0
 30
0.0
  9
$PUCSXDIR
 10
1.0
 20
0.0
 30
0.0
  9
$PUCSYDIR
 10
0.0
 20
1.0
 30
0.0
  9
$USERI1
 70
     0
  9
$USERI2
 70
     0
  9
$USERI3
 70
     0
  9
$USERI4
 70
     0
  9
$USERI5
 70
     0
  9
$USERR1
 40
0.0
  9
$USERR2
 40
0.0
  9
$USERR3
 40
0.0
  9
$USERR4
 40
0.0
  9
$USERR5
 40
0.0
  9
$WORLDVIEW
 70
     1
  9
$SHADEDGE
 70
     3
  9
$SHADEDIF
 70
    70
  9
$TILEMODE
 70
     1
  9
$MAXACTVP
 70
    64
  9
$PINSBASE
 10
0.0
 20
0.0
 30
0.0
  9
$PLIMCHECK
 70
     0
  9
$PEXTMIN
 10
1.0000000000E+20
 20
1.0000000000E+20
 30
1.0000000000E+20
  9
$PEXTMAX
 10
-1.0000000000E+20
 20
-1.0000000000E+20
 30
-1.0000000000E+20
  9
$PLIMMIN
 10
0.0
 20
0.0
  9
$PLIMMAX
 10
12.0
 20
9.0
  9
$UNITMODE
 70
     0
  9
$VISRETAIN
 70
     1
  9
$PLINEGEN
 70
     0
  9
$PSLTSCALE
 70
     1
  9
$TREEDEPTH
 70
  3020
  9
$PICKSTYLE
 70
     1
  9
$CMLSTYLE
  2
STANDARD
  9
$CMLJUST
 70
     0
  9
$CMLSCALE
 40
1.0
  9
$SAVEIMAGES
 70
     1
  0
ENDSEC
  0
SECTION
  2
CLASSES
  0
CLASS
  1
ACDBDICTIONARYWDFLT
  2
AcDbDictionaryWithDefault
  3
ObjectDBX Classes
 90
    32768
280
     0
281
     0
  0
CLASS
  1
VISUALSTYLE
  2
AcDbVisualStyle
  3
ObjectDBX Classes
 90
     4095
280
     0
281
     0
  0
CLASS
  1
SCALE
  2
AcDbScale
  3
ObjectDBX Classes
 90
     1153
280
     0
281
     0
  0
CLASS
  1
DICTIONARYVAR
  2
AcDbDictionaryVar
  3
ObjectDBX Classes
 90
        0
280
     0
281
     0
  0
CLASS
  1
XRECORD
  2
AcDbXrecord
  3
AutoCAD 2000
 90
    32768
280
     0
281
     0
  0
CLASS
  1
LWPOLYLINE
  2
AcDbPolyline
  3
AutoCAD 2000
 90
    32768
280
     0
281
     1
  0
CLASS
  1
HATCH
  2
AcDbHatch
  3
AutoCAD 2000
 90
    32768
280
     0
281
     1
  0
CLASS
  1
ACDBPLACEHOLDER
  2
AcDbPlaceHolder
  3
ObjectDBX Classes
 90
        0
280
     0
281
     0
  0
CLASS
  1
LAYOUT
  2
AcDbLayout
  3
ObjectDBX Classes
 90
        0
280
     0
281
     0
  0
ENDSEC
  0
SECTION
  2
TABLES
  0
TABLE
  2
VPORT
  5
8
330
0
100
AcDbSymbolTable
 70
     1
  0
VPORT
  5
29
330
8
100
AcDbSymbolTableRecord
100
AcDbViewportTableRecord
  2
*ACTIVE
 70
     0
 10
0.0
 20
0.0
 11
1.0
 21
1.0
 12
5.5
 22
4.25
 13
0.0
 23
0.0
 14
0.5
 24
0.5
 15
0.5
 25
0.5
 16
0.0
 26
0.0
 36
1.0
 17
0.0
 27
0.0
 37
0.0
 40
8.5
 41
1.2941176471
 42
50.0
 43
0.0
 44
0.0
 50
0.0
 51
0.0
 71
     0
 72
  2000
 73
     1
 74
     3
 75
     0
 76
     0
 77
     0
 78
     0
  0
ENDTAB
  0
TABLE
  2
LTYPE
  5
5
330
0
100
AcDbSymbolTable
 70
     6
  0
LTYPE
  5
14
330
5
100
AcDbSymbolTableRecord
100
AcDbLinetypeTableRecord
  2
BYBLOCK
 70
     0
  3

 72
    65
 73
     0
 40
0.0
  0
LTYPE
  5
15
330
5
100
AcDbSymbolTableRecord
100
AcDbLinetypeTableRecord
  2
BYLAYER
 70
     0
  3

 72
    65
 73
     0
 40
0.0
  0
LTYPE
  5
16
330
5
100
AcDbSymbolTableRecord
100
AcDbLinetypeTableRecord
  2
CONTINUOUS
 70
     0
  3
Solid line
 72
    65
 73
     0
 40
0.0
  0
LTYPE
  5
3B
330
5
100
AcDbSymbolTableRecord
100
AcDbLinetypeTableRecord
  2
HIDDEN
 70
     0
  3
Hidden __ __ __ __ __ __ __ __ __ __ __ __ __ __
 72
    65
 73
     2
 40
0.075
 49
0.05
 74
     0
 49
-0.025
 74
     0
  0
LTYPE
  5
3C
330
5
100
AcDbSymbolTableRecord
100
AcDbLinetypeTableRecord
  2
PHANTOM
 70
     0
  3
Phantom ______  __  __  ______  __  __  ______
 72
    65
 73
     6
 40
0.5
 49
0.25
 74
     0
 49
-0.05
 74
     0
 49
0.05
 74
     0
 49
-0.05
 74
     0
 49
0.05
 74
     0
 49
-0.05
 74
     0
  0
LTYPE
  5
3D
330
5
100
AcDbSymbolTableRecord
100
AcDbLinetypeTableRecord
  2
CENTER
 70
     0
  3
Center ____ _ ____ _ ____ _ ____ _ ____ _ ____
 72
    65
 73
     4
 40
0.4
 49
0.25
 74
     0
 49
-0.05
 74
     0
 49
0.05
 74
     0
 49
-0.05
 74
     0
  0
LTYPE
  5
3E
330
5
100
AcDbSymbolTableRecord
100
AcDbLinetypeTableRecord
  2
CENTERX2
 70
     0
  3
Center (2x) ________  __  ________  __  _____
 72
    65
 73
     4
 40
0.8
 49
0.5
 74
     0
 49
-0.1
 74
     0
 49
0.1
 74
     0
 49
-0.1
 74
     0
  0
LTYPE
  5
3F
330
5
100
AcDbSymbolTableRecord
100
AcDbLinetypeTableRecord
  2
DOT2
 70
     0
  3
Dot (.5x) ........................................
 72
    65
 73
     2
 40
0.025
 49
0.0
 74
     0
 49
-0.025
 74
     0
  0
ENDTAB
  0
TABLE
  2
LAYER
  5
2
330
0
100
AcDbSymbolTable
 70
     2
  0
LAYER
  5
10
330
2
100
AcDbSymbolTableRecord
100
AcDbLayerTableRecord
  2
0
 70
     0
 62
     7
  6
CONTINUOUS
  0
LAYER
  5
40
330
2
100
AcDbSymbolTableRecord
100
AcDbLayerTableRecord
  2
FORMAT
 70
     0
 62
     7
  6
CONTINUOUS
  0
ENDTAB
  0
TABLE
  2
STYLE
  5
3
330
0
100
AcDbSymbolTable
 70
     4
  0
STYLE
  5
11
330
3
100
AcDbSymbolTableRecord
100
AcDbTextStyleTableRecord
  2
STANDARD
 70
     0
 40
0.0
 41
1.0
 50
0.0
 71
     0
 42
0.2
  3
txt
  4

  0
STYLE
  5
6E
330
3
100
AcDbSymbolTableRecord
100
AcDbTextStyleTableRecord
  2
SLDTEXTSTYLE0
 70
     0
 40
0.0
 41
0.75
 50
0.0
 71
     0
 42
0.2
  3
TXT
  4

  0
STYLE
  5
93
330
3
100
AcDbSymbolTableRecord
100
AcDbTextStyleTableRecord
  2
SLDTEXTSTYLE1
 70
     0
 40
0.0
 41
0.6875
 50
0.0
 71
     0
 42
0.2
  3
TXT
  4

  0
STYLE
  5
99
330
3
100
AcDbSymbolTableRecord
100
AcDbTextStyleTableRecord
  2
SLDTEXTSTYLE2
 70
     0
 40
0.0
 41
0.6944444444
 50
0.0
 71
     0
 42
0.2
  3
TXT
  4

  0
ENDTAB
  0
TABLE
  2
VIEW
  5
6
330
0
100
AcDbSymbolTable
 70
     0
  0
ENDTAB
  0
TABLE
  2
UCS
  5
7
330
0
100
AcDbSymbolTable
 70
     0
  0
ENDTAB
  0
TABLE
  2
APPID
  5
9
330
0
100
AcDbSymbolTable
 70
     1
  0
APPID
  5
12
330
9
100
AcDbSymbolTableRecord
100
AcDbRegAppTableRecord
  2
ACAD
 70
     0
  0
ENDTAB
  0
TABLE
  2
DIMSTYLE
  5
A
330
0
100
AcDbSymbolTable
 70
     1
  0
DIMSTYLE
105
27
330
A
100
AcDbSymbolTableRecord
100
AcDbDimStyleTableRecord
  2
STANDARD
 70
     0
  3

  4

  5

  6

  7

 40
1.0
 41
0.18
 42
0.0625
 43
0.38
 44
0.18
 45
0.0
 46
0.0
 47
0.0
 48
0.0
140
0.18
141
0.09
142
0.0
143
25.4
144
1.0
145
0.0
146
1.0
147
0.09
 71
     0
 72
     0
 73
     1
 74
     1
 75
     0
 76
     0
 77
     0
 78
     0
170
     0
171
     2
172
     0
173
     0
174
     0
175
     0
176
     0
177
     0
178
     0
270
     2
271
     4
272
     4
273
     2
274
     2
340
11
275
     0
280
     0
281
     0
282
     0
283
     1
284
     0
285
     0
286
     0
287
     3
288
     0
  0
ENDTAB
  0
TABLE
  2
BLOCK_RECORD
  5
1
330
0
100
AcDbSymbolTable
 70
     4
  0
BLOCK_RECORD
  5
1F
330
1
100
AcDbSymbolTableRecord
100
AcDbBlockTableRecord
  2
*MODEL_SPACE
  0
BLOCK_RECORD
  5
1B
330
1
100
AcDbSymbolTableRecord
100
AcDbBlockTableRecord
  2
*PAPER_SPACE
  0
BLOCK_RECORD
  5
A8
330
1
100
AcDbSymbolTableRecord
100
AcDbBlockTableRecord
  2
SW_NOTE_0
  0
BLOCK_RECORD
  5
AE
330
1
100
AcDbSymbolTableRecord
100
AcDbBlockTableRecord
  2
SW_NOTE_1
  0
BLOCK_RECORD
  5
C2
330
1
100
AcDbSymbolTableRecord
100
AcDbBlockTableRecord
  2
SW_NOTE_2
  0
ENDTAB
  0
ENDSEC
  0
SECTION
  2
BLOCKS
  0
BLOCK
  5
20
330
1F
100
AcDbEntity
  8
0
100
AcDbBlockBegin
  2
*MODEL_SPACE
 70
     0
 10
0.0
 20
0.0
 30
0.0
  3
*MODEL_SPACE
  1

  0
ENDBLK
  5
21
330
1F
100
AcDbEntity
  8
0
100
AcDbBlockEnd
  0
BLOCK
  5
1C
330
1B
100
AcDbEntity
 67
     1
  8
0
100
AcDbBlockBegin
  2
*PAPER_SPACE
 70
     0
 10
0.0
 20
0.0
 30
0.0
  3
*PAPER_SPACE
  1

  0
ENDBLK
  5
1D
330
1B
100
AcDbEntity
 67
     1
  8
0
100
AcDbBlockEnd
  0
BLOCK
  5
A9
330
A8
100
AcDbEntity
  8
0
100
AcDbBlockBegin
  2
SW_NOTE_0
 70
     0
 10
0.0
 20
0.0
 30
0.0
  3
SW_NOTE_0
  1

  0
MTEXT
  5
AB
330
A8
100
AcDbEntity
  8
0
  6
CONTINUOUS
 62
     0
100
AcDbMText
 10
0.0
 20
0.0773440644
 30
0.0
 40
0.06
 41
0.0
 71
     1
 72
     1
  1
INTERPRET GEOMETRIC
  7
SLDTEXTSTYLE0
  0
MTEXT
  5
AC
330
A8
100
AcDbEntity
  8
0
  6
CONTINUOUS
 62
     0
100
AcDbMText
 10
0.0
 20
-0.0220260102
 30
0.0
 40
0.06
 41
0.0
 71
     1
 72
     1
  1
TOLERANCING PER:
  7
SLDTEXTSTYLE0
  0
ENDBLK
  5
AA
330
A8
100
AcDbEntity
  8
0
100
AcDbBlockEnd
  0
BLOCK
  5
AF
330
AE
100
AcDbEntity
  8
0
100
AcDbBlockBegin
  2
SW_NOTE_1
 70
     0
 10
0.0
 20
0.0
 30
0.0
  3
SW_NOTE_1
  1

  0
MTEXT
  5
B1
330
AE
100
AcDbEntity
  8
0
  6
CONTINUOUS
 62
     0
100
AcDbMText
 10
0.0
 20
0.0837894031
 30
0.0
 40
0.065
 41
0.0
 71
     1
 72
     1
  1
DIMENSIONS ARE IN INCHES
  7
SLDTEXTSTYLE0
  0
MTEXT
  5
B2
330
AE
100
AcDbEntity
  8
0
  6
CONTINUOUS
 62
     0
100
AcDbMText
 10
0.0
 20
-0.0205806729
 30
0.0
 40
0.065
 41
0.0
 71
     1
 72
     1
  1
TOLERANCES:
  7
SLDTEXTSTYLE0
  0
MTEXT
  5
B3
330
AE
100
AcDbEntity
  8
0
  6
CONTINUOUS
 62
     0
100
AcDbMText
 10
0.0
 20
-0.1249507489
 30
0.0
 40
0.065
 41
0.0
 71
     1
 72
     1
  1
FRACTIONAL
  7
SLDTEXTSTYLE0
  0
MTEXT
  5
B4
330
AE
100
AcDbEntity
  8
0
  6
CONTINUOUS
 62
     0
100
AcDbMText
 10
0.5175850875
 20
-0.1249507489
 30
0.0
 40
0.065
 41
0.0
 71
     1
 72
     1
  1
%%p
  7
SLDTEXTSTYLE0
  0
MTEXT
  5
B5
330
AE
100
AcDbEntity
  8
0
  6
CONTINUOUS
 62
     0
100
AcDbMText
 10
0.0
 20
-0.2293208248
 30
0.0
 40
0.065
 41
0.0
 71
     1
 72
     1
  1
ANGULAR: MACH
  7
SLDTEXTSTYLE0
  0
MTEXT
  5
B6
330
AE
100
AcDbEntity
  8
0
  6
CONTINUOUS
 62
     0
100
AcDbMText
 10
0.7233732769
 20
-0.2293208248
 30
0.0
 40
0.065
 41
0.0
 71
     1
 72
     1
  1
%%p
  7
SLDTEXTSTYLE0
  0
MTEXT
  5
B7
330
AE
100
AcDbEntity
  8
0
  6
CONTINUOUS
 62
     0
100
AcDbMText
 10
0.7852857683
 20
-0.2293208248
 30
0.0
 40
0.065
 41
0.0
 71
     1
 72
     1
  1
     BEND 
  7
SLDTEXTSTYLE0
  0
MTEXT
  5
B8
330
AE
100
AcDbEntity
  8
0
  6
CONTINUOUS
 62
     0
100
AcDbMText
 10
1.14784136
 20
-0.2293208248
 30
0.0
 40
0.065
 41
0.0
 71
     1
 72
     1
  1
%%p
  7
SLDTEXTSTYLE0
  0
MTEXT
  5
B9
330
AE
100
AcDbEntity
  8
0
  6
CONTINUOUS
 62
     0
100
AcDbMText
 10
0.0
 20
-0.3336909008
 30
0.0
 40
0.065
 41
0.0
 71
     1
 72
     1
  1
TWO PLACE DECIMAL    
  7
SLDTEXTSTYLE0
  0
MTEXT
  5
BA
330
AE
100
AcDbEntity
  8
0
  6
CONTINUOUS
 62
     0
100
AcDbMText
 10
0.9794349188
 20
-0.3336909008
 30
0.0
 40
0.065
 41
0.0
 71
     1
 72
     1
  1
%%p
  7
SLDTEXTSTYLE0
  0
MTEXT
  5
BB
330
AE
100
AcDbEntity
  8
0
  6
CONTINUOUS
 62
     0
100
AcDbMText
 10
0.0
 20
-0.4380609768
 30
0.0
 40
0.065
 41
0.0
 71
     1
 72
     1
  1
THREE PLACE DECIMAL  
  7
SLDTEXTSTYLE0
  0
MTEXT
  5
BC
330
AE
100
AcDbEntity
  8
0
  6
CONTINUOUS
 62
     0
100
AcDbMText
 10
0.9738038639
 20
-0.4380609768
 30
0.0
 40
0.065
 41
0.0
 71
     1
 72
     1
  1
%%p
  7
SLDTEXTSTYLE0
  0
ENDBLK
  5
B0
330
AE
100
AcDbEntity
  8
0
100
AcDbBlockEnd
  0
BLOCK
  5
C3
330
C2
100
AcDbEntity
  8
0
100
AcDbBlockBegin
  2
SW_NOTE_2
 70
     0
 10
0.0
 20
0.0
 30
0.0
  3
SW_NOTE_2
  1

  0
MTEXT
  5
C5
330
C2
100
AcDbEntity
  8
0
  6
CONTINUOUS
 62
     0
100
AcDbMText
 10
0.0
 20
0.0773440644
 30
0.0
 40
0.06
 41
0.0
 71
     1
 72
     1
  1
THE INFORMATION CONTAINED IN THIS
  7
SLDTEXTSTYLE0
  0
MTEXT
  5
C6
330
C2
100
AcDbEntity
  8
0
  6
CONTINUOUS
 62
     0
100
AcDbMText
 10
0.0
 20
-0.0220260102
 30
0.0
 40
0.06
 41
0.0
 71
     1
 72
     1
  1
DRAWING IS THE SOLE PROPERTY OF
  7
SLDTEXTSTYLE0
  0
MTEXT
  5
C7
330
C2
100
AcDbEntity
  8
0
  6
CONTINUOUS
 62
     0
100
AcDbMText
 10
0.0
 20
-0.1213960848
 30
0.0
 40
0.06
 41
0.0
 71
     1
 72
     1
  1
Candy Controls.  ANY 
  7
SLDTEXTSTYLE0
  0
MTEXT
  5
C8
330
C2
100
AcDbEntity
  8
0
  6
CONTINUOUS
 62
     0
100
AcDbMText
 10
0.0
 20
-0.2207661593
 30
0.0
 40
0.06
 41
0.0
 71
     1
 72
     1
  1
REPRODUCTION IN PART OR AS A WHOLE
  7
SLDTEXTSTYLE0
  0
MTEXT
  5
C9
330
C2
100
AcDbEntity
  8
0
  6
CONTINUOUS
 62
     0
100
AcDbMText
 10
0.0
 20
-0.3201362339
 30
0.0
 40
0.06
 41
0.0
 71
     1
 72
     1
  1
WITHOUT THE WRITTEN PERMISSION OF
  7
SLDTEXTSTYLE0
  0
MTEXT
  5
CA
330
C2
100
AcDbEntity
  8
0
  6
CONTINUOUS
 62
     0
100
AcDbMText
 10
0.0
 20
-0.4195063085
 30
0.0
 40
0.06
 41
0.0
 71
     1
 72
     1
  1
Candy Controls IS 
  7
SLDTEXTSTYLE0
  0
MTEXT
  5
CB
330
C2
100
AcDbEntity
  8
0
  6
CONTINUOUS
 62
     0
100
AcDbMText
 10
0.0
 20
-0.518876383
 30
0.0
 40
0.06
 41
0.0
 71
     1
 72
     1
  1
PROHIBITED.
  7
SLDTEXTSTYLE0
  0
ENDBLK
  5
C4
330
C2
100
AcDbEntity
  8
0
100
AcDbBlockEnd
  0
ENDSEC
  0
SECTION
  2
ENTITIES
  0
LINE
  5
41
330
1F
100
AcDbEntity
  8
0
  6
CONTINUOUS
 62
     7
100
AcDbLine
 10
0.329927
 20
8.1920731707
 30
0.0
 11
10.629927
 21
8.1920731707
 31
0.0
  0
LINE
  5
42
330
1F
100
AcDbEntity
  8
0
  6
CONTINUOUS
 62
     7
100
AcDbLine
 10
0.329927
 20
8.1920731707
 30
0.0
 11
0.329927
 21
0.3920731707
 31
0.0
  0
LINE
  5
43
330
1F
100
AcDbEntity
  8
0
  6
CONTINUOUS
 62
     7
100
AcDbLine
 10
10.629927
 20
0.3920731707
 30
0.0
 11
0.329927
 21
0.3920731707
 31
0.0
  0
LINE
  5
44
330
1F
100
AcDbEntity
  8
0
  6
CONTINUOUS
 62
     7
100
AcDbLine
 10
10.629927
 20
0.3920731707
 30
0.0
 11
10.629927
 21
8.1920731707
 31
0.0
  0
LINE
  5
45
330
1F
100
AcDbEntity
  8
0
  6
CONTINUOUS
 62
     7
100
AcDbLine
 10
4.7981841288
 20
0.3920731707
 30
0.0
 11
4.7981841288
 21
2.3564211366
 31
0.0
  0
LINE
  5
46
330
1F
100
AcDbEntity
  8
0
  6
CONTINUOUS
 62
     7
100
AcDbLine
 10
2.8210345579
 20
2.3564211366
 30
0.0
 11
10.629927
 21
2.3564211366
 31
0.0
  0
LINE
  5
47
330
1F
100
AcDbEntity
  8
0
  6
CONTINUOUS
 62
     7
100
AcDbLine
 10
6.1796352514
 20
2.3564211366
 30
0.0
 11
6.1796352514
 21
0.3920731707
 31
0.0
  0
LINE
  5
48
330
1F
100
AcDbEntity
  8
0
  6
CONTINUOUS
 62
     7
100
AcDbLine
 10
7.8712070044
 20
2.3564211366
 30
0.0
 11
7.8712070044
 21
0.3920731707
 31
0.0
  0
LINE
  5
49
330
1F
100
AcDbEntity
  8
0
  6
CONTINUOUS
 62
     7
100
AcDbLine
 10
7.8712070044
 20
0.6049590101
 30
0.0
 11
10.629927
 21
0.6049590101
 31
0.0
  0
LINE
  5
4A
330
1F
100
AcDbEntity
  8
0
  6
CONTINUOUS
 62
     7
100
AcDbLine
 10
7.8712070044
 20
1.1119362457
 30
0.0
 11
10.629927
 21
1.1119362457
 31
0.0
  0
LINE
  5
4B
330
1F
100
AcDbEntity
  8
0
  6
CONTINUOUS
 62
     7
100
AcDbLine
 10
7.8712070044
 20
1.9892703708
 30
0.0
 11
10.629927
 21
1.9892703708
 31
0.0
  0
LINE
  5
4C
330
1F
100
AcDbEntity
  8
0
  6
CONTINUOUS
 62
     7
100
AcDbLine
 10
8.266751752
 20
1.1119362457
 30
0.0
 11
8.266751752
 21
0.6049590101
 31
0.0
  0
LINE
  5
4D
330
1F
100
AcDbEntity
  8
0
  6
CONTINUOUS
 62
     7
100
AcDbLine
 10
8.6943435176
 20
0.6049590101
 30
0.0
 11
8.6943435176
 21
0.3920731707
 31
0.0
  0
LINE
  5
4E
330
1F
100
AcDbEntity
  8
0
  6
CONTINUOUS
 62
     7
100
AcDbLine
 10
10.0579917045
 20
1.1119362457
 30
0.0
 11
10.0579917045
 21
0.6049590101
 31
0.0
  0
LINE
  5
4F
330
1F
100
AcDbEntity
  8
0
  6
CONTINUOUS
 62
     7
100
AcDbLine
 10
9.6662556631
 20
0.6049590101
 30
0.0
 11
9.6662556631
 21
0.3920731707
 31
0.0
  0
LINE
  5
50
330
1F
100
AcDbEntity
  8
0
  6
CONTINUOUS
 62
     7
100
AcDbLine
 10
2.8210345579
 20
0.5883479999
 30
0.0
 11
6.1796352514
 21
0.5883479999
 31
0.0
  0
LINE
  5
51
330
1F
100
AcDbEntity
  8
0
  6
CONTINUOUS
 62
     7
100
AcDbLine
 10
6.1796352514
 20
1.7939211366
 30
0.0
 11
7.8712070044
 21
1.7939211366
 31
0.0
  0
LINE
  5
52
330
1F
100
AcDbEntity
  8
0
  6
CONTINUOUS
 62
     7
100
AcDbLine
 10
6.1796352514
 20
1.9814211366
 30
0.0
 11
7.8712070044
 21
1.9814211366
 31
0.0
  0
LINE
  5
53
330
1F
100
AcDbEntity
  8
0
  6
CONTINUOUS
 62
     7
100
AcDbLine
 10
6.1796352514
 20
2.1689211366
 30
0.0
 11
7.8712070044
 21
2.1689211366
 31
0.0
  0
LINE
  5
54
330
1F
100
AcDbEntity
  8
0
  6
CONTINUOUS
 62
     7
100
AcDbLine
 10
7.8712070044
 20
1.2314211366
 30
0.0
 11
6.1796352514
 21
1.2314211366
 31
0.0
  0
LINE
  5
55
330
1F
100
AcDbEntity
  8
0
  6
CONTINUOUS
 62
     7
100
AcDbLine
 10
7.3921580388
 20
2.3564211366
 30
0.0
 11
7.3921580388
 21
1.2314211366
 31
0.0
  0
LINE
  5
56
330
1F
100
AcDbEntity
  8
0
  6
CONTINUOUS
 62
     7
100
AcDbLine
 10
6.9236308342
 20
2.3564211366
 30
0.0
 11
6.9236308342
 21
1.2314211366
 31
0.0
  0
LINE
  5
57
330
1F
100
AcDbEntity
  8
0
  6
CONTINUOUS
 62
     7
100
AcDbLine
 10
4.7981841288
 20
0.8557965305
 30
0.0
 11
6.1796352514
 21
0.8557965305
 31
0.0
  0
LINE
  5
58
330
1F
100
AcDbEntity
  8
0
  6
CONTINUOUS
 62
     7
100
AcDbLine
 10
4.7981841288
 20
1.1257965305
 30
0.0
 11
6.1796352514
 21
1.1257965305
 31
0.0
  0
LINE
  5
59
330
1F
100
AcDbEntity
  8
0
  6
CONTINUOUS
 62
     7
100
AcDbLine
 10
2.8210345579
 20
0.3920731707
 30
0.0
 11
2.8210345579
 21
2.3564211366
 31
0.0
  0
LINE
  5
5A
330
1F
100
AcDbEntity
  8
0
  6
CONTINUOUS
 62
     7
100
AcDbLine
 10
2.8210345579
 20
1.1064211366
 30
0.0
 11
4.7981841288
 21
1.1064211366
 31
0.0
  0
LINE
  5
5B
330
1F
100
AcDbEntity
  8
0
  6
CONTINUOUS
 62
     7
100
AcDbLine
 10
2.8210345579
 20
1.3564211366
 30
0.0
 11
4.7981841288
 21
1.3564211366
 31
0.0
  0
LINE
  5
5C
330
1F
100
AcDbEntity
  8
0
  6
CONTINUOUS
 62
     7
100
AcDbLine
 10
2.8210345579
 20
1.6064211366
 30
0.0
 11
4.7981841288
 21
1.6064211366
 31
0.0
  0
LINE
  5
5D
330
1F
100
AcDbEntity
  8
0
  6
CONTINUOUS
 62
     7
100
AcDbLine
 10
2.8210345579
 20
1.8564211366
 30
0.0
 11
4.7981841288
 21
1.8564211366
 31
0.0
  0
LINE
  5
5E
330
1F
100
AcDbEntity
  8
0
  6
CONTINUOUS
 62
     7
100
AcDbLine
 10
3.8190146875
 20
2.3564211366
 30
0.0
 11
3.8190146875
 21
0.5883479999
 31
0.0
  0
LINE
  5
5F
330
1F
100
AcDbEntity
  8
0
  6
CONTINUOUS
 62
     7
100
AcDbLine
 10
6.1796352514
 20
2.2020813496
 30
0.0
 11
4.7981841288
 21
2.2020813496
 31
0.0
  0
LINE
  5
60
330
1F
100
AcDbEntity
  8
0
  6
CONTINUOUS
 62
     7
100
AcDbLine
 10
7.8712070044
 20
1.6064211366
 30
0.0
 11
6.1796352514
 21
1.6064211366
 31
0.0
  0
LINE
  5
61
330
1F
100
AcDbEntity
  8
0
  6
CONTINUOUS
 62
     7
100
AcDbLine
 10
7.8712070044
 20
1.4189211366
 30
0.0
 11
6.1796352514
 21
1.4189211366
 31
0.0
  0
LINE
  5
62
330
1F
100
AcDbEntity
  8
0
  6
CONTINUOUS
 62
     7
100
AcDbLine
 10
2.8210345579
 20
2.1064211366
 30
0.0
 11
4.7981841288
 21
2.1064211366
 31
0.0
  0
LINE
  5
63
330
1F
100
AcDbEntity
  8
0
  6
CONTINUOUS
 62
     7
100
AcDbLine
 10
4.7981841288
 20
1.3957965305
 30
0.0
 11
6.1796352514
 21
1.3957965305
 31
0.0
  0
LINE
  5
64
330
1F
100
AcDbEntity
  8
0
  6
CONTINUOUS
 62
     7
100
AcDbLine
 10
2.8210345579
 20
0.8564211366
 30
0.0
 11
4.7981841288
 21
0.8564211366
 31
0.0
  0
LINE
  5
65
330
1F
100
AcDbEntity
  8
0
  6
CONTINUOUS
 62
     7
100
AcDbLine
 10
1.1838252943
 20
0.3920731707
 30
0.0
 11
1.1838252943
 21
1.3064211366
 31
0.0
  0
LINE
  5
66
330
1F
100
AcDbEntity
  8
0
  6
CONTINUOUS
 62
     7
100
AcDbLine
 10
2.8210345579
 20
1.3064211366
 30
0.0
 11
1.1838252943
 21
1.3064211366
 31
0.0
  0
LINE
  5
67
330
1F
100
AcDbEntity
  8
0
  6
CONTINUOUS
 62
     7
100
AcDbLine
 10
8.660927
 20
0.3920731707
 30
0.0
 11
8.660927
 21
0.3072739649
 31
0.0
  0
LINE
  5
68
330
1F
100
AcDbEntity
  8
0
  6
CONTINUOUS
 62
     7
100
AcDbLine
 10
6.692177
 20
0.3920731707
 30
0.0
 11
6.692177
 21
0.3072739649
 31
0.0
  0
LINE
  5
69
330
1F
100
AcDbEntity
  8
0
  6
CONTINUOUS
 62
     7
100
AcDbLine
 10
4.723427
 20
0.3920731707
 30
0.0
 11
4.723427
 21
0.3072739649
 31
0.0
  0
LINE
  5
6A
330
1F
100
AcDbEntity
  8
0
  6
CONTINUOUS
 62
     7
100
AcDbLine
 10
2.754677
 20
0.3920731707
 30
0.0
 11
2.754677
 21
0.3072739649
 31
0.0
  0
LINE
  5
6B
330
1F
100
AcDbEntity
  8
0
  6
CONTINUOUS
 62
     7
100
AcDbLine
 10
2.754677
 20
0.3920731707
 30
0.0
 11
2.7672319738
 21
0.3575
 31
0.0
  0
LINE
  5
6C
330
1F
100
AcDbEntity
  8
0
  6
CONTINUOUS
 62
     7
100
AcDbLine
 10
2.7672319738
 20
0.3575
 30
0.0
 11
2.7414258825
 21
0.3575
 31
0.0
  0
LINE
  5
6D
330
1F
100
AcDbEntity
  8
0
  6
CONTINUOUS
 62
     7
100
AcDbLine
 10
2.7414258825
 20
0.3575
 30
0.0
 11
2.754677
 21
0.3920731707
 31
0.0
  0
MTEXT
  5
91
330
1F
100
AcDbEntity
  8
0
  6
CONTINUOUS
 62
     7
100
AcDbMText
 10
4.9775846961
 20
0.5178452352
 30
0.0
 40
0.0625
 41
0.0
 71
     1
 72
     1
  1
DO NOT SCALE DRAWING
  7
SLDTEXTSTYLE0
  0
MTEXT
  5
92
330
1F
100
AcDbEntity
  8
0
  6
CONTINUOUS
 62
     7
100
AcDbMText
 10
8.8193110244
 20
0.9417064595
 30
0.0
 40
0.125
 41
0.0
 71
     1
 72
     1
  1
SCL13-20
  7
SLDTEXTSTYLE0
  0
MTEXT
  5
94
330
1F
100
AcDbEntity
  8
0
  6
CONTINUOUS
 62
     7
100
AcDbMText
 10
9.7571278483
 20
0.5524239532
 30
0.0
 40
0.1
 41
0.0
 71
     1
 72
     1
  1
SHEET 1 OF 1
  7
SLDTEXTSTYLE1
  0
MTEXT
  5
95
330
1F
100
AcDbEntity
  8
0
  6
CONTINUOUS
 62
     7
100
AcDbMText
 10
4.8448077858
 20
2.3132954224
 30
0.0
 40
0.07
 41
0.0
 71
     1
 72
     1
  1
UNLESS OTHERWISE SPECIFIED:
  7
SLDTEXTSTYLE0
  0
MTEXT
  5
96
330
1F
100
AcDbEntity
  8
0
  6
CONTINUOUS
 62
     7
100
AcDbMText
 10
7.9586139647
 20
0.5520987879
 30
0.0
 40
0.1
 41
0.0
 71
     1
 72
     1
  1
SCALE: 2:1
  7
SLDTEXTSTYLE0
  0
MTEXT
  5
97
330
1F
100
AcDbEntity
  8
0
  6
CONTINUOUS
 62
     7
100
AcDbMText
 10
8.7023691647
 20
0.5486763345
 30
0.0
 40
0.1
 41
0.0
 71
     1
 72
     1
  1
WEIGHT: 
  7
SLDTEXTSTYLE0
  0
MTEXT
  5
98
330
1F
100
AcDbEntity
  8
0
  6
CONTINUOUS
 62
     7
100
AcDbMText
 10
10.2277580983
 20
1.081966299
 30
0.0
 40
0.1
 41
0.0
 71
     1
 72
     1
  1
REV
  7
SLDTEXTSTYLE0
  0
MTEXT
  5
9A
330
1F
100
AcDbEntity
  8
0
  6
CONTINUOUS
 62
     7
100
AcDbMText
 10
8.2984570898
 20
1.0858725293
 30
0.0
 40
0.1
 41
0.0
 71
     1
 72
     1
  1
DWG.  NO.
  7
SLDTEXTSTYLE2
  0
MTEXT
  5
9B
330
1F
100
AcDbEntity
  8
0
  6
CONTINUOUS
 62
     7
100
AcDbMText
 10
7.9598482632
 20
0.9442140768
 30
0.0
 40
0.25
 41
0.0
 71
     1
 72
     1
  1
A
  7
SLDTEXTSTYLE0
  0
MTEXT
  5
9C
330
1F
100
AcDbEntity
  8
0
  6
CONTINUOUS
 62
     7
100
AcDbMText
 10
7.9519581822
 20
1.0872713483
 30
0.0
 40
0.1
 41
0.0
 71
     1
 72
     1
  1
SIZE
  7
SLDTEXTSTYLE0
  0
MTEXT
  5
9D
330
1F
100
AcDbEntity
  8
0
  6
CONTINUOUS
 62
     7
100
AcDbMText
 10
7.9170704177
 20
1.9547881128
 30
0.0
 40
0.1
 41
0.0
 71
     1
 72
     1
  1
TITLE:
  7
SLDTEXTSTYLE0
  0
MTEXT
  5
9E
330
1F
100
AcDbEntity
  8
0
  6
CONTINUOUS
 62
     7
100
AcDbMText
 10
7.0363774929
 20
2.2906161274
 30
0.0
 40
0.065
 41
0.0
 71
     1
 72
     1
  1
NAME
  7
SLDTEXTSTYLE0
  0
MTEXT
  5
9F
330
1F
100
AcDbEntity
  8
0
  6
CONTINUOUS
 62
     7
100
AcDbMText
 10
7.5281510634
 20
2.2888799118
 30
0.0
 40
0.065
 41
0.0
 71
     1
 72
     1
  1
DATE
  7
SLDTEXTSTYLE0
  0
MTEXT
  5
A0
330
1F
100
AcDbEntity
  8
0
  6
CONTINUOUS
 62
     7
100
AcDbMText
 10
6.2277147029
 20
1.1876913145
 30
0.0
 40
0.065
 41
0.0
 71
     1
 72
     1
  1
COMMENTS:
  7
SLDTEXTSTYLE0
  0
MTEXT
  5
A1
330
1F
100
AcDbEntity
  8
0
  6
CONTINUOUS
 62
     7
100
AcDbMText
 10
6.2268411461
 20
1.3536101679
 30
0.0
 40
0.065
 41
0.0
 71
     1
 72
     1
  1
Q.A.
  7
SLDTEXTSTYLE0
  0
MTEXT
  5
A2
330
1F
100
AcDbEntity
  8
0
  6
CONTINUOUS
 62
     7
100
AcDbMText
 10
6.2284654509
 20
1.5395328424
 30
0.0
 40
0.065
 41
0.0
 71
     1
 72
     1
  1
MFG APPR.
  7
SLDTEXTSTYLE0
  0
MTEXT
  5
A3
330
1F
100
AcDbEntity
  8
0
  6
CONTINUOUS
 62
     7
100
AcDbMText
 10
6.2235171344
 20
1.7267501785
 30
0.0
 40
0.065
 41
0.0
 71
     1
 72
     1
  1
ENG APPR.
  7
SLDTEXTSTYLE0
  0
MTEXT
  5
A4
330
1F
100
AcDbEntity
  8
0
  6
CONTINUOUS
 62
     7
100
AcDbMText
 10
6.2264103951
 20
1.9092699088
 30
0.0
 40
0.065
 41
0.0
 71
     1
 72
     1
  1
CHECKED
  7
SLDTEXTSTYLE0
  0
MTEXT
  5
A5
330
1F
100
AcDbEntity
  8
0
  6
CONTINUOUS
 62
     7
100
AcDbMText
 10
6.2242794356
 20
2.1016301232
 30
0.0
 40
0.065
 41
0.0
 71
     1
 72
     1
  1
DRAWN
  7
SLDTEXTSTYLE0
  0
MTEXT
  5
A6
330
1F
100
AcDbEntity
  8
0
  6
CONTINUOUS
 62
     7
100
AcDbMText
 10
4.8208600979
 20
0.834523235
 30
0.0
 40
0.06
 41
0.0
 71
     1
 72
     1
  1
FINISH
  7
SLDTEXTSTYLE0
  0
MTEXT
  5
A7
330
1F
100
AcDbEntity
  8
0
  6
CONTINUOUS
 62
     7
100
AcDbMText
 10
4.8181240648
 20
1.1028217587
 30
0.0
 40
0.06
 41
0.0
 71
     1
 72
     1
  1
MATERIAL
  7
SLDTEXTSTYLE0
  0
INSERT
  5
AD
330
1F
100
AcDbEntity
  8
0
  6
CONTINUOUS
 62
     7
100
AcDbBlockReference
  2
SW_NOTE_0
 10
4.8231926633
 20
1.2646542947
 30
0.0
  0
INSERT
  5
BD
330
1F
100
AcDbEntity
  8
0
  6
CONTINUOUS
 62
     7
100
AcDbBlockReference
  2
SW_NOTE_1
 10
4.8353339353
 20
2.0049168724
 30
0.0
  0
MTEXT
  5
BE
330
1F
100
AcDbEntity
  8
0
  6
CONTINUOUS
 62
     7
100
AcDbMText
 10
3.5531400086
 20
0.5200091997
 30
0.0
 40
0.0625
 41
0.0
 71
     1
 72
     1
  1
APPLICATION
  7
SLDTEXTSTYLE0
  0
MTEXT
  5
BF
330
1F
100
AcDbEntity
  8
0
  6
CONTINUOUS
 62
     7
100
AcDbMText
 10
4.1005607758
 20
0.7502454275
 30
0.0
 40
0.0625
 41
0.0
 71
     1
 72
     1
  1
USED ON
  7
SLDTEXTSTYLE0
  0
MTEXT
  5
C0
330
1F
100
AcDbEntity
  8
0
  6
CONTINUOUS
 62
     7
100
AcDbMText
 10
3.1040019536
 20
0.7492094783
 30
0.0
 40
0.0625
 41
0.0
 71
     1
 72
     1
  1
NEXT ASSY
  7
SLDTEXTSTYLE0
  0
MTEXT
  5
C1
330
1F
100
AcDbEntity
  8
0
  6
CONTINUOUS
 62
     7
100
AcDbMText
 10
1.3712489489
 20
1.2496672684
 30
0.0
 40
0.06
 41
0.0
 71
     1
 72
     1
  1
PROPRIETARY AND CONFIDENTIAL
  7
SLDTEXTSTYLE0
  0
INSERT
  5
CC
330
1F
100
AcDbEntity
  8
0
  6
CONTINUOUS
 62
     7
100
AcDbBlockReference
  2
SW_NOTE_2
 10
1.2226209074
 20
1.0313492921
 30
0.0
  0
MTEXT
  5
CD
330
1F
100
AcDbEntity
  8
0
  6
CONTINUOUS
 62
     7
100
AcDbMText
 10
1.7387909509
 20
0.3105864247
 30
0.0
 40
0.09375
 41
0.0
 71
     1
 72
     1
  1
5
  7
SLDTEXTSTYLE0
  0
MTEXT
  5
CE
330
1F
100
AcDbEntity
  8
0
  6
CONTINUOUS
 62
     7
100
AcDbMText
 10
3.723800327
 20
0.3137237518
 30
0.0
 40
0.09375
 41
0.0
 71
     1
 72
     1
  1
4
  7
SLDTEXTSTYLE0
  0
MTEXT
  5
CF
330
1F
100
AcDbEntity
  8
0
  6
CONTINUOUS
 62
     7
100
AcDbMText
 10
5.6324457277
 20
0.3116191842
 30
0.0
 40
0.09375
 41
0.0
 71
     1
 72
     1
  1
3
  7
SLDTEXTSTYLE0
  0
MTEXT
  5
D0
330
1F
100
AcDbEntity
  8
0
  6
CONTINUOUS
 62
     7
100
AcDbMText
 10
7.6059721724
 20
0.3124391351
 30
0.0
 40
0.09375
 41
0.0
 71
     1
 72
     1
  1
2
  7
SLDTEXTSTYLE0
  0
MTEXT
  5
D1
330
1F
100
AcDbEntity
  8
0
  6
CONTINUOUS
 62
     7
100
AcDbMText
 10
9.6619921328
 20
0.301372012
 30
0.0
 40
0.09375
 41
0.0
 71
     1
 72
     1
  1
1
  7
SLDTEXTSTYLE0
  0
LINE
  5
D2
330
1F
100
AcDbEntity
  8
0
  6
CONTINUOUS
 62
     7
100
AcDbLine
 10
2.1755337412
 20
2.9673397037
 30
0.0
 11
4.4777384656
 21
2.9673397037
 31
0.0
  0
LINE
  5
D3
330
1F
100
AcDbEntity
  8
0
  6
CONTINUOUS
 62
     7
100
AcDbLine
 10
2.5536390825
 20
4.5421428533
 30
0.0
 11
2.1755337412
 21
4.5421428533
 31
0.0
  0
LINE
  5
D4
330
1F
100
AcDbEntity
  8
0
  6
CONTINUOUS
 62
     7
100
AcDbLine
 10
3.8134816022
 20
4.5421428533
 30
0.0
 11
2.8397905818
 21
4.5421428533
 31
0.0
  0
LINE
  5
D5
330
1F
100
AcDbEntity
  8
0
  6
CONTINUOUS
 62
     7
100
AcDbLine
 10
4.4777384656
 20
4.5421428533
 30
0.0
 11
4.0996331015
 21
4.5421428533
 31
0.0
  0
LINE
  5
D6
330
1F
100
AcDbEntity
  8
0
  6
CONTINUOUS
 62
     7
100
AcDbLine
 10
4.4777384656
 20
2.9673397037
 30
0.0
 11
4.5077384656
 21
2.9973397037
 31
0.0
  0
LINE
  5
D7
330
1F
100
AcDbEntity
  8
0
  6
CONTINUOUS
 62
     7
100
AcDbLine
 10
4.5077384656
 20
4.5121428533
 30
0.0
 11
4.4777384656
 21
4.5421428533
 31
0.0
  0
LINE
  5
D8
330
1F
100
AcDbEntity
  8
0
  6
CONTINUOUS
 62
     7
100
AcDbLine
 10
2.1755337412
 20
4.5421428533
 30
0.0
 11
2.1455337412
 21
4.5121428533
 31
0.0
  0
LINE
  5
D9
330
1F
100
AcDbEntity
  8
0
  6
CONTINUOUS
 62
     7
100
AcDbLine
 10
2.1455337412
 20
2.9973397037
 30
0.0
 11
2.1755337412
 21
2.9673397037
 31
0.0
  0
LINE
  5
DA
330
1F
100
AcDbEntity
  8
0
  6
CONTINUOUS
 62
     7
100
AcDbLine
 10
4.0610799332
 20
4.5357305196
 30
0.0
 11
4.0546675994
 21
4.5421428533
 31
0.0
  0
LINE
  5
DB
330
1F
100
AcDbEntity
  8
0
  6
CONTINUOUS
 62
     7
100
AcDbLine
 10
3.858447127
 20
4.5421428533
 30
0.0
 11
3.8520345923
 21
4.5357303187
 31
0.0
  0
LINE
  5
DC
330
1F
100
AcDbEntity
  8
0
  6
CONTINUOUS
 62
     7
100
AcDbLine
 10
2.8012374135
 20
4.5357305196
 30
0.0
 11
2.7948250798
 21
4.5421428533
 31
0.0
  0
LINE
  5
DD
330
1F
100
AcDbEntity
  8
0
  6
CONTINUOUS
 62
     7
100
AcDbLine
 10
2.5986046073
 20
4.5421428533
 30
0.0
 11
2.5921920727
 21
4.5357303187
 31
0.0
  0
LINE
  5
DE
330
1F
100
AcDbEntity
  8
0
  6
CONTINUOUS
 62
     7
100
AcDbLine
 10
4.4777384656
 20
2.9673397037
 30
0.0
 11
4.4777384656
 21
4.5421428533
 31
0.0
  0
LINE
  5
DF
330
1F
100
AcDbEntity
  8
0
  6
CONTINUOUS
 62
     7
100
AcDbLine
 10
2.1755337412
 20
4.5421428533
 30
0.0
 11
2.1755337412
 21
2.9673397037
 31
0.0
  0
ARC
  5
E0
330
1F
100
AcDbEntity
  8
0
  6
CONTINUOUS
 62
     7
100
AcDbCircle
 10
3.9565573632
 20
5.2749561681
 30
0.0
 40
0.7466498695394249
100
AcDbArc
 50
258.9524472188
 51
281.0475527812
  0
ARC
  5
E1
330
1F
100
AcDbEntity
  8
0
  6
CONTINUOUS
 62
     7
100
AcDbCircle
 10
2.6967148435
 20
5.2749561681
 30
0.0
 40
0.7466498695398579
100
AcDbArc
 50
258.9524472188
 51
281.0475527812
  0
LINE
  5
E2
330
1F
100
AcDbEntity
  8
0
  6
CONTINUOUS
 62
     7
100
AcDbLine
 10
4.5077384656
 20
4.5121428533
 30
0.0
 11
4.5077384656
 21
2.9973397037
 31
0.0
  0
LINE
  5
E3
330
1F
100
AcDbEntity
  8
0
  6
CONTINUOUS
 62
     7
100
AcDbLine
 10
2.1455337412
 20
2.9973397037
 30
0.0
 11
2.1455337412
 21
4.5121428533
 31
0.0
  0
LINE
  5
E4
330
1F
100
AcDbEntity
  8
0
  6
CONTINUOUS
 62
     7
100
AcDbLine
 10
3.858447127
 20
4.5421428533
 30
0.0
 11
4.0546675994
 21
4.5421428533
 31
0.0
  0
LINE
  5
E5
330
1F
100
AcDbEntity
  8
0
  6
CONTINUOUS
 62
     7
100
AcDbLine
 10
2.7948250798
 20
4.5421428533
 30
0.0
 11
2.5986046073
 21
4.5421428533
 31
0.0
  0
SPLINE
  5
E6
330
1F
100
AcDbEntity
  8
0
  6
HIDDEN
 62
     7
100
AcDbSpline
210
0.0
220
0.0
230
1.0
 70
     8
 71
     3
 72
    12
 73
     8
 74
     0
 42
0.00000001
 43
0.00000001
 40
0.0
 40
0.0
 40
0.0
 40
0.0
 40
0.0001500569485381
 40
0.2541008302196848
 40
0.4989224888800417
 40
0.7443373662980455
 40
1.0
 40
1.0
 40
1.0
 40
1.0
 10
4.057696195848717
 20
4.535234234293892
 30
0.0
 10
4.057700560533569
 20
4.535234777739535
 30
0.0
 10
4.065091554786956
 20
4.536155028287661
 30
0.0
 10
4.076394607404572
 20
4.537969595708451
 30
0.0
 10
4.090075559320399
 20
4.54022290937108
 30
0.0
 10
4.098206429178865
 20
4.541825305125121
 30
0.0
 10
4.099151119139759
 20
4.542035570512533
 30
0.0
 10
4.099633124254884
 20
4.542142853321139
 30
0.0
  0
SPLINE
  5
E7
330
1F
100
AcDbEntity
  8
0
  6
HIDDEN
 62
     7
100
AcDbSpline
210
0.0
220
0.0
230
1.0
 70
     8
 71
     3
 72
    12
 73
     8
 74
     0
 42
0.00000001
 43
0.00000001
 40
0.0
 40
0.0
 40
0.0
 40
0.0
 40
0.0001500569485348
 40
0.2541008302182234
 40
0.4989224888780363
 40
0.7443373662965267
 40
1.0
 40
1.0
 40
1.0
 40
1.0
 10
2.797853676163678
 20
4.535234234293892
 30
0.0
 10
2.797858040848529
 20
4.535234777739535
 30
0.0
 10
2.805249035101894
 20
4.536155028287695
 30
0.0
 10
2.81655208771952
 20
4.537969595708415
 30
0.0
 10
2.830233039635321
 20
4.540222909371071
 30
0.0
 10
2.838363909493785
 20
4.541825305125116
 30
0.0
 10
2.839308599454705
 20
4.542035570512532
 30
0.0
 10
2.839790604569844
 20
4.542142853321139
 30
0.0
  0
SPLINE
  5
E8
330
1F
100
AcDbEntity
  8
0
  6
HIDDEN
 62
     7
100
AcDbSpline
210
0.0
220
0.0
230
1.0
 70
     8
 71
     3
 72
    31
 73
    27
 74
     0
 42
0.00000001
 43
0.00000001
 40
-0.1261202054355339
 40
-0.0836798205600869
 40
-0.042611908107721
 40
0.0
 40
0.0426216130870402
 40
0.0836913141795154
 40
0.1261195178979524
 40
0.1682793248180091
 40
0.2084855799155013
 40
0.2499067927967766
 40
0.2913619713116588
 40
0.3316224479922553
 40
0.3738581062766742
 40
0.4162626079443896
 40
0.457335286440023
 40
0.4999972665413302
 40
0.542639636631559
 40
0.5837268479524341
 40
0.6261788426282185
 40
0.6683249926213947
 40
0.7085632764788051
 40
0.75005552298306
 40
0.7914450068357535
 40
0.8316605972580738
 40
0.8738797945644661
 40
0.9163201794399131
 40
0.957388091892279
 40
1.0
 40
1.04262161308704
 40
1.083691314179515
 40
1.126119517897952
 10
3.816325888344661
 20
3.793306557386065
 30
0.0
 10
3.812028843108233
 20
3.75473784426803
 30
0.0
 10
3.816342820136519
 20
3.716171375240256
 30
0.0
 10
3.830821733759052
 20
3.680177223069159
 30
0.0
 10
3.85428730395729
 20
3.649717439507295
 30
0.0
 10
3.883819685235339
 20
3.625509200107545
 30
0.0
 10
3.918882382476847
 20
3.610550088189328
 30
0.0
 10
3.956481948086399
 20
3.60610526494546
 30
0.0
 10
3.994101926298279
 20
3.610528753167
 30
0.0
 10
4.02921780711976
 20
3.625489562998145
 30
0.0
 10
4.058800753554379
 20
3.649686669288492
 30
0.0
 10
4.082304218871958
 20
3.680141462327334
 30
0.0
 10
4.096781200630687
 20
3.716145423969962
 30
0.0
 10
4.101085701094222
 20
3.754735305327192
 30
0.0
 10
4.096781829326169
 20
3.793331046006653
 30
0.0
 10
4.082287182584448
 20
3.829341156886401
 30
0.0
 10
4.058800508776234
 20
3.859796574178769
 30
0.0
 10
4.029235928158938
 20
3.883988106646047
 30
0.0
 10
3.994135460733884
 20
3.898923810378315
 30
0.0
 10
3.956527898526063
 20
3.903376505619806
 30
0.0
 10
3.918916820881286
 20
3.898966164078848
 30
0.0
 10
3.883844867360558
 20
3.883994476271545
 30
0.0
 10
3.854294573633462
 20
3.859771401470877
 30
0.0
 10
3.830806276869478
 20
3.829302191624716
 30
0.0
 10
3.816325888344661
 20
3.793306557386065
 30
0.0
 10
3.812028843108233
 20
3.75473784426803
 30
0.0
 10
3.816342820136519
 20
3.716171375240256
 30
0.0
  0
SPLINE
  5
E9
330
1F
100
AcDbEntity
  8
0
  6
HIDDEN
 62
     7
100
AcDbSpline
210
0.0
220
0.0
230
1.0
 70
     8
 71
     3
 72
    31
 73
    27
 74
     0
 42
0.00000001
 43
0.00000001
 40
-0.1261202054355105
 40
-0.0836798205599724
 40
-0.0426119081076067
 40
0.0
 40
0.0426216130869823
 40
0.0836913141794572
 40
0.1261195178979402
 40
0.1682793248179536
 40
0.2084855799154461
 40
0.249906792796776
 40
0.2913619713116031
 40
0.3316224479921996
 40
0.3738581062766616
 40
0.4162626079441739
 40
0.4573352864398079
 40
0.4999972665412978
 40
0.5426396366312294
 40
0.5837268479521039
 40
0.626178842628183
 40
0.6683249926212292
 40
0.7085632764786396
 40
0.7500555229830593
 40
0.7914450068358627
 40
0.8316605972581823
 40
0.8738797945644895
 40
0.9163201794400276
 40
0.9573880918923933
 40
1.0
 40
1.042621613086982
 40
1.083691314179457
 40
1.12611951789794
 10
2.556483368659634
 20
3.793306557385995
 30
0.0
 10
2.552186323423191
 20
3.754737844268013
 30
0.0
 10
2.556500300451486
 20
3.71617137524029
 30
0.0
 10
2.570979214074027
 20
3.680177223069204
 30
0.0
 10
2.59444478427223
 20
3.649717439507317
 30
0.0
 10
2.623977165550256
 20
3.625509200107533
 30
0.0
 10
2.659039862791774
 20
3.610550088189324
 30
0.0
 10
2.696639428401326
 20
3.606105264945461
 30
0.0
 10
2.734259406613206
 20
3.610528753167004
 30
0.0
 10
2.769375287434675
 20
3.625489562998161
 30
0.0
 10
2.798958233869287
 20
3.649686669288435
 30
0.0
 10
2.822461699186856
 20
3.680141462327231
 30
0.0
 10
2.836938680945539
 20
3.716145423969866
 30
0.0
 10
2.841243181409184
 20
3.754735305327038
 30
0.0
 10
2.836939309641224
 20
3.793331046006486
 30
0.0
 10
2.822444662899445
 20
3.82934115688621
 30
0.0
 10
2.798957989091288
 20
3.859796574178669
 30
0.0
 10
2.769393408474031
 20
3.883988106646086
 30
0.0
 10
2.734292941048944
 20
3.898923810378332
 30
0.0
 10
2.69668537884104
 20
3.903376505619801
 30
0.0
 10
2.659074301196179
 20
3.89896616407886
 30
0.0
 10
2.62400234767543
 20
3.88399447627157
 30
0.0
 10
2.594452053948381
 20
3.859771401470834
 30
0.0
 10
2.570963757184465
 20
3.829302191624626
 30
0.0
 10
2.556483368659634
 20
3.793306557385995
 30
0.0
 10
2.552186323423191
 20
3.754737844268013
 30
0.0
 10
2.556500300451486
 20
3.71617137524029
 30
0.0
  0
LINE
  5
EA
330
1F
100
AcDbEntity
  8
0
  6
HIDDEN
 62
     7
100
AcDbLine
 10
3.4266361034
 20
3.9815916722
 30
0.0
 11
3.4266361034
 21
3.5278908848
 31
0.0
  0
LINE
  5
EB
330
1F
100
AcDbEntity
  8
0
  6
HIDDEN
 62
     7
100
AcDbLine
 10
3.2266361034
 20
3.9815916722
 30
0.0
 11
3.2266361034
 21
3.5278908848
 31
0.0
  0
SPLINE
  5
EC
330
1F
100
AcDbEntity
  8
0
  6
HIDDEN
 62
     7
100
AcDbSpline
210
0.0
220
0.0
230
1.0
 70
     8
 71
     3
 72
    52
 73
    48
 74
     0
 42
0.00000001
 43
0.00000001
 40
-0.0312499999999997
 40
-0.0312499999999997
 40
0.0
 40
0.0
 40
0.03125
 40
0.03125
 40
0.0625000000000001
 40
0.0625000000000001
 40
0.1250000000000002
 40
0.1250000000000002
 40
0.1875000000000002
 40
0.1875000000000002
 40
0.2500000000000003
 40
0.2500000000000003
 40
0.2812500000000004
 40
0.2812500000000004
 40
0.3125000000000005
 40
0.3125000000000005
 40
0.3750000000000006
 40
0.3750000000000006
 40
0.4375000000000007
 40
0.4375000000000007
 40
0.5000000000000008
 40
0.5000000000000008
 40
0.5312500000000008
 40
0.5312500000000008
 40
0.5625000000000009
 40
0.5625000000000009
 40
0.625000000000001
 40
0.625000000000001
 40
0.6562500000000009
 40
0.6562500000000009
 40
0.6875000000000009
 40
0.6875000000000009
 40
0.7187500000000008
 40
0.7187500000000008
 40
0.7500000000000007
 40
0.7500000000000007
 40
0.8125000000000011
 40
0.8125000000000011
 40
0.8437500000000011
 40
0.8437500000000011
 40
0.875000000000001
 40
0.875000000000001
 40
0.9375000000000004
 40
0.9375000000000004
 40
0.9687500000000003
 40
0.9687500000000003
 40
1.0
 40
1.0
 40
1.03125
 40
1.03125
 10
2.57860460732156
 20
3.762753246647342
 30
0.0
 10
2.578604607321561
 20
3.746729310388722
 30
0.0
 10
2.579411104890401
 20
3.738886051067086
 30
0.0
 10
2.582538020159474
 20
3.72351295257123
 30
0.0
 10
2.584900934172724
 20
3.71591545121761
 30
0.0
 10
2.593923498331017
 20
3.694549614430862
 30
0.0
 10
2.602656312476415
 20
3.681745381316795
 30
0.0
 10
2.623908843880467
 20
3.660535680554242
 30
0.0
 10
2.636581044110493
 20
3.651942541274048
 30
0.0
 10
2.664730487433548
 20
3.640021379732529
 30
0.0
 10
2.680494659426191
 20
3.636662596097618
 30
0.0
 10
2.704477812894008
 20
3.636615605459184
 30
0.0
 10
2.712320328235148
 20
3.637403155019134
 30
0.0
 10
2.727726053764963
 20
3.640504370212271
 30
0.0
 10
2.735265057532749
 20
3.642835659146246
 30
0.0
 10
2.756511746494247
 20
3.651735486059514
 30
0.0
 10
2.769227778396217
 20
3.660297542719508
 30
0.0
 10
2.790643932558882
 20
3.681562926601547
 30
0.0
 10
2.799289542030253
 20
3.69415510642005
 30
0.0
 10
2.811482736777506
 20
3.72279470277467
 30
0.0
 10
2.814772890880263
 20
3.738381759520738
 30
0.0
 10
2.814850251334417
 20
3.762349198835285
 30
0.0
 10
2.814073415825329
 20
3.770204575298452
 30
0.0
 10
2.810978224891193
 20
3.785660976420006
 30
0.0
 10
2.808631544866261
 20
3.793271844401857
 30
0.0
 10
2.799651816376729
 20
3.814688806356628
 30
0.0
 10
2.790938760366513
 20
3.827536849552828
 30
0.0
 10
2.774957448502614
 20
3.84353852571653
 30
0.0
 10
2.769065215148956
 20
3.848401206684162
 30
0.0
 10
2.756582018095113
 20
3.856832805231935
 30
0.0
 10
2.749947896457942
 20
3.86045617219234
 30
0.0
 10
2.735762202384035
 20
3.866476234708037
 30
0.0
 10
2.728247086130307
 20
3.868833874226422
 30
0.0
 10
2.712901701054874
 20
3.871999064451346
 30
0.0
 10
2.70487063952725
 20
3.872836911022093
 30
0.0
 10
2.681046159406376
 20
3.872880138915606
 30
0.0
 10
2.665237531372822
 20
3.869616634688709
 30
0.0
 10
2.643935873501825
 20
3.860683212641027
 30
0.0
 10
2.637136965512613
 20
3.857004007118074
 30
0.0
 10
2.62458450149322
 20
3.848573058673454
 30
0.0
 10
2.618763769414724
 20
3.843800323385334
 30
0.0
 10
2.602594528782219
 20
3.827698912597377
 30
0.0
 10
2.593995887968485
 20
3.815085281026867
 30
0.0
 10
2.584897552465148
 20
3.793568587972791
 30
0.0
 10
2.58258803247352
 20
3.78615011133107
 30
0.0
 10
2.579438732341699
 20
3.770796107233167
 30
0.0
 10
2.57860460732156
 20
3.762753246647342
 30
0.0
 10
2.578604607321561
 20
3.746729310388722
 30
0.0
  0
SPLINE
  5
ED
330
1F
100
AcDbEntity
  8
0
  6
HIDDEN
 62
     7
100
AcDbSpline
210
0.0
220
0.0
230
1.0
 70
     8
 71
     3
 72
    29
 73
    25
 74
     0
 42
0.00000001
 43
0.00000001
 40
0.0
 40
0.0
 40
0.0
 40
0.0
 40
0.0111442263889105
 40
0.0562488448067606
 40
0.102656492030527
 40
0.148154918933712
 40
0.1947152424007499
 40
0.2456889413189931
 40
0.2978535599277863
 40
0.3544462520286702
 40
0.4129153590292816
 40
0.455534766319653
 40
0.4993513638615744
 40
0.5419938835449809
 40
0.5858911243516716
 40
0.628681569120748
 40
0.6723734756248743
 40
0.7228719692723726
 40
0.7745148726164937
 40
0.8312887368068566
 40
0.8899540575873827
 40
0.9424193040055637
 40
0.9969056926626546
 40
1.0
 40
1.0
 40
1.0
 40
1.0
 10
2.814537239777075
 20
3.951419379297552
 30
0.0
 10
2.81462787555314
 20
3.951473618866115
 30
0.0
 10
2.815085346311891
 20
3.951747385116728
 30
0.0
 10
2.813120160251001
 20
3.950568084645545
 30
0.0
 10
2.808943208424577
 20
3.948103187657648
 30
0.0
 10
2.802155237825272
 20
3.94422450865705
 30
0.0
 10
2.793068064701443
 20
3.939291312442228
 30
0.0
 10
2.781423089966256
 20
3.933435888610005
 30
0.0
 10
2.766888337560198
 20
3.926948811197556
 30
0.0
 10
2.749564715752348
 20
3.920531055020792
 30
0.0
 10
2.731358780049238
 20
3.915651699537487
 30
0.0
 10
2.713518697946696
 20
3.912839259445724
 30
0.0
 10
2.697120195083604
 20
3.911930874701182
 30
0.0
 10
2.680554818033043
 20
3.912769845053858
 30
0.0
 10
2.664594101643113
 20
3.915219907994343
 30
0.0
 10
2.649367555977602
 20
3.918986027972187
 30
0.0
 10
2.634509856021486
 20
3.923877293235789
 30
0.0
 10
2.62018270086472
 20
3.929679806055227
 30
0.0
 10
2.606520533147447
 20
3.936107079500109
 30
0.0
 10
2.594609155250962
 20
3.942352142601424
 30
0.0
 10
2.585535391114325
 20
3.947485800657332
 30
0.0
 10
2.580221176263946
 20
3.950618518586227
 30
0.0
 10
2.578166695593308
 20
3.951853674590767
 30
0.0
 10
2.578658837022196
 20
3.951559225606388
 30
0.0
 10
2.578685284025105
 20
3.951543402323305
 30
0.0
  0
SPLINE
  5
EE
330
1F
100
AcDbEntity
  8
0
  6
HIDDEN
 62
     7
100
AcDbSpline
210
0.0
220
0.0
230
1.0
 70
     8
 71
     3
 72
    29
 73
    25
 74
     0
 42
0.00000001
 43
0.00000001
 40
0.0
 40
0.0
 40
0.0
 40
0.0
 40
0.0111442263889103
 40
0.0562488448067605
 40
0.1026564920305268
 40
0.1481549189337119
 40
0.1947152424007496
 40
0.2456889413189932
 40
0.2978535599277862
 40
0.3544462520286702
 40
0.4129153590292817
 40
0.4555347663196529
 40
0.4993513638615747
 40
0.5419938835449808
 40
0.5858911243516718
 40
0.6286815691207487
 40
0.6723734756248749
 40
0.7228719692723733
 40
0.7745148726164945
 40
0.8312887368068573
 40
0.8899540575873834
 40
0.9424193040055645
 40
0.9969056926626553
 40
1.0
 40
1.0
 40
1.0
 40
1.0
 10
4.074379759462114
 20
3.951419379297552
 30
0.0
 10
4.07447039523818
 20
3.951473618866115
 30
0.0
 10
4.074927865996931
 20
3.951747385116728
 30
0.0
 10
4.07296267993604
 20
3.950568084645545
 30
0.0
 10
4.068785728109617
 20
3.948103187657648
 30
0.0
 10
4.061997757510311
 20
3.94422450865705
 30
0.0
 10
4.052910584386482
 20
3.939291312442228
 30
0.0
 10
4.041265609651295
 20
3.933435888610005
 30
0.0
 10
4.026730857245238
 20
3.926948811197555
 30
0.0
 10
4.009407235437387
 20
3.920531055020793
 30
0.0
 10
3.991201299734277
 20
3.915651699537487
 30
0.0
 10
3.973361217631735
 20
3.912839259445724
 30
0.0
 10
3.956962714768644
 20
3.911930874701183
 30
0.0
 10
3.940397337718081
 20
3.912769845053858
 30
0.0
 10
3.924436621328152
 20
3.915219907994343
 30
0.0
 10
3.909210075662641
 20
3.918986027972187
 30
0.0
 10
3.894352375706525
 20
3.923877293235789
 30
0.0
 10
3.88002522054976
 20
3.929679806055227
 30
0.0
 10
3.866363052832486
 20
3.936107079500109
 30
0.0
 10
3.854451674936001
 20
3.942352142601425
 30
0.0
 10
3.845377910799364
 20
3.947485800657332
 30
0.0
 10
3.840063695948986
 20
3.950618518586227
 30
0.0
 10
3.838009215278346
 20
3.951853674590767
 30
0.0
 10
3.838501356707236
 20
3.951559225606388
 30
0.0
 10
3.838527803710145
 20
3.951543402323305
 30
0.0
  0
SPLINE
  5
EF
330
1F
100
AcDbEntity
  8
0
  6
HIDDEN
 62
     7
100
AcDbSpline
210
0.0
220
0.0
230
1.0
 70
     8
 71
     3
 72
    52
 73
    48
 74
     0
 42
0.00000001
 43
0.00000001
 40
-0.0312500000000001
 40
-0.0312500000000001
 40
0.0
 40
0.0
 40
0.0312499999999999
 40
0.0312499999999999
 40
0.0624999999999997
 40
0.0624999999999997
 40
0.1249999999999995
 40
0.1249999999999995
 40
0.1874999999999992
 40
0.1874999999999992
 40
0.2499999999999989
 40
0.2499999999999989
 40
0.2812499999999987
 40
0.2812499999999987
 40
0.3124999999999984
 40
0.3124999999999984
 40
0.3749999999999984
 40
0.3749999999999984
 40
0.4374999999999984
 40
0.4374999999999984
 40
0.4999999999999983
 40
0.4999999999999983
 40
0.5312499999999983
 40
0.5312499999999983
 40
0.5624999999999983
 40
0.5624999999999983
 40
0.6249999999999984
 40
0.6249999999999984
 40
0.6562499999999986
 40
0.6562499999999986
 40
0.6874999999999987
 40
0.6874999999999987
 40
0.7187499999999988
 40
0.7187499999999988
 40
0.7499999999999988
 40
0.7499999999999988
 40
0.8124999999999992
 40
0.8124999999999992
 40
0.8437499999999994
 40
0.8437499999999994
 40
0.8749999999999997
 40
0.8749999999999997
 40
0.9374999999999998
 40
0.9374999999999998
 40
0.9687499999999999
 40
0.9687499999999999
 40
1.0
 40
1.0
 40
1.03125
 40
1.03125
 10
3.8384471270066
 20
3.762753246647342
 30
0.0
 10
3.8384471270066
 20
3.746729310388722
 30
0.0
 10
3.83925362457544
 20
3.738886051067085
 30
0.0
 10
3.842380539844513
 20
3.72351295257123
 30
0.0
 10
3.844743453857763
 20
3.71591545121761
 30
0.0
 10
3.853766018016056
 20
3.694549614430862
 30
0.0
 10
3.862498832161455
 20
3.681745381316795
 30
0.0
 10
3.883751363565505
 20
3.660535680554242
 30
0.0
 10
3.896423563795532
 20
3.651942541274048
 30
0.0
 10
3.924573007118588
 20
3.640021379732529
 30
0.0
 10
3.940337179111231
 20
3.636662596097618
 30
0.0
 10
3.964320332579048
 20
3.636615605459183
 30
0.0
 10
3.972162847920188
 20
3.637403155019134
 30
0.0
 10
3.987568573450003
 20
3.640504370212271
 30
0.0
 10
3.995107577217789
 20
3.642835659146246
 30
0.0
 10
4.016354266179287
 20
3.651735486059514
 30
0.0
 10
4.029070298081256
 20
3.660297542719508
 30
0.0
 10
4.050486452243923
 20
3.681562926601546
 30
0.0
 10
4.059132061715292
 20
3.69415510642005
 30
0.0
 10
4.071325256462545
 20
3.722794702774669
 30
0.0
 10
4.074615410565303
 20
3.738381759520738
 30
0.0
 10
4.074692771019456
 20
3.762349198835285
 30
0.0
 10
4.073915935510368
 20
3.770204575298452
 30
0.0
 10
4.070820744576232
 20
3.785660976420006
 30
0.0
 10
4.068474064551301
 20
3.793271844401857
 30
0.0
 10
4.059494336061769
 20
3.814688806356628
 30
0.0
 10
4.050781280051552
 20
3.827536849552828
 30
0.0
 10
4.034799968187654
 20
3.84353852571653
 30
0.0
 10
4.028907734833997
 20
3.848401206684162
 30
0.0
 10
4.016424537780153
 20
3.856832805231935
 30
0.0
 10
4.009790416142982
 20
3.86045617219234
 30
0.0
 10
3.995604722069075
 20
3.866476234708037
 30
0.0
 10
3.988089605815347
 20
3.868833874226422
 30
0.0
 10
3.972744220739914
 20
3.871999064451345
 30
0.0
 10
3.96471315921229
 20
3.872836911022093
 30
0.0
 10
3.940888679091416
 20
3.872880138915606
 30
0.0
 10
3.925080051057862
 20
3.869616634688709
 30
0.0
 10
3.903778393186865
 20
3.860683212641027
 30
0.0
 10
3.896979485197654
 20
3.857004007118074
 30
0.0
 10
3.88442702117826
 20
3.848573058673454
 30
0.0
 10
3.878606289099763
 20
3.843800323385334
 30
0.0
 10
3.862437048467259
 20
3.827698912597377
 30
0.0
 10
3.853838407653526
 20
3.815085281026867
 30
0.0
 10
3.844740072150187
 20
3.793568587972791
 30
0.0
 10
3.842430552158559
 20
3.78615011133107
 30
0.0
 10
3.839281252026738
 20
3.770796107233167
 30
0.0
 10
3.8384471270066
 20
3.762753246647342
 30
0.0
 10
3.8384471270066
 20
3.746729310388722
 30
0.0
  0
SPLINE
  5
F0
330
1F
100
AcDbEntity
  8
0
  6
HIDDEN
 62
     7
100
AcDbSpline
210
0.0
220
0.0
230
1.0
 70
     8
 71
     3
 72
    24
 73
    20
 74
     0
 42
0.00000001
 43
0.00000001
 40
0.0
 40
0.0
 40
0.0
 40
0.0
 40
0.0510059562450023
 40
0.1096476218551792
 40
0.1759737576023359
 40
0.2500143360402021
 40
0.3245927752327875
 40
0.3910688864030782
 40
0.4494708896910571
 40
0.4998467378733334
 40
0.550249320950015
 40
0.6086854235290782
 40
0.6752029924262334
 40
0.7498302280358001
 40
0.8240114133687447
 40
0.8904052478761552
 40
0.9490413796313273
 40
0.9999684118590723
 40
1.0
 40
1.0
 40
1.0
 40
1.0
 10
3.8384471270066
 20
4.5203752724339
 30
0.0
 10
3.838744290266181
 20
4.52028169889399
 30
0.0
 10
3.839383102811117
 20
4.520080543639293
 30
0.0
 10
3.845069760198127
 20
4.518707147707619
 30
0.0
 10
3.855749133620281
 20
4.516617816352601
 30
0.0
 10
3.87234135526088
 20
4.513652769643012
 30
0.0
 10
3.893306050882864
 20
4.510687499881245
 30
0.0
 10
3.915663452520129
 20
4.508556777956313
 30
0.0
 10
3.936773146926495
 20
4.507236551840397
 30
0.0
 10
3.9565087920678
 20
4.506727025889518
 30
0.0
 10
3.97624989811603
 20
4.507234868506082
 30
0.0
 10
3.997376976783217
 20
4.508553906409175
 30
0.0
 10
4.019751687199911
 20
4.510682413523253
 30
0.0
 10
4.040762740118412
 20
4.513652181677049
 30
0.0
 10
4.057322330453453
 20
4.5166022574184
 30
0.0
 10
4.068192324622906
 20
4.518747082053193
 30
0.0
 10
4.073305842106206
 20
4.519956837749472
 30
0.0
 10
4.075172019004031
 20
4.520514917453747
 30
0.0
 10
4.074666973841819
 20
4.520375099246761
 30
0.0
 10
4.074666660775303
 20
4.520375012576493
 30
0.0
  0
SPLINE
  5
F1
330
1F
100
AcDbEntity
  8
0
  6
HIDDEN
 62
     7
100
AcDbSpline
210
0.0
220
0.0
230
1.0
 70
     8
 71
     3
 72
    24
 73
    20
 74
     0
 42
0.00000001
 43
0.00000001
 40
0.0
 40
0.0
 40
0.0
 40
0.0
 40
0.051005956245771
 40
0.1096476218562025
 40
0.1759737576031036
 40
0.2500143360402052
 40
0.3245927752314638
 40
0.3910688864013106
 40
0.4494708896897319
 40
0.4998467378733389
 40
0.5502493209494626
 40
0.6086854235283387
 40
0.6752029924256792
 40
0.7498302280358023
 40
0.8240114133687456
 40
0.8904052478761554
 40
0.9490413796313268
 40
0.9999684118590714
 40
1.0
 40
1.0
 40
1.0
 40
1.0
 10
2.57860460732156
 20
4.5203752724339
 30
0.0
 10
2.57890177058115
 20
4.520281698893992
 30
0.0
 10
2.579540583126102
 20
4.520080543639297
 30
0.0
 10
2.585227240513199
 20
4.518707147707626
 30
0.0
 10
2.595906613935375
 20
4.516617816352611
 30
0.0
 10
2.612498835575813
 20
4.513652769643019
 30
0.0
 10
2.633463531197505
 20
4.510687499881256
 30
0.0
 10
2.655820932834567
 20
4.508556777956335
 30
0.0
 10
2.676930627241069
 20
4.507236551840419
 30
0.0
 10
2.696666272382526
 20
4.50672702588952
 30
0.0
 10
2.716407378430828
 20
4.507234868506054
 30
0.0
 10
2.737534457097959
 20
4.508553906409147
 30
0.0
 10
2.759909167514738
 20
4.510682413523234
 30
0.0
 10
2.780920220433329
 20
4.513652181677044
 30
0.0
 10
2.797479810768416
 20
4.516602257418395
 30
0.0
 10
2.808349804937858
 20
4.518747082053209
 30
0.0
 10
2.813463322421191
 20
4.519956837749423
 30
0.0
 10
2.815329499318945
 20
4.520514917453839
 30
0.0
 10
2.81482445415678
 20
4.520375099246761
 30
0.0
 10
2.814824141090263
 20
4.520375012576494
 30
0.0
  0
CIRCLE
  5
F2
330
1F
100
AcDbEntity
  8
0
  6
HIDDEN
 62
     7
100
AcDbCircle
 10
3.9565573632
 20
3.7547412785
 30
0.0
 40
0.0981102362204722
  0
ARC
  5
F3
330
1F
100
AcDbEntity
  8
0
  6
HIDDEN
 62
     7
100
AcDbCircle
 10
3.9565573632
 20
3.7547412785
 30
0.0
 40
0.1181102362204722
100
AcDbArc
 50
172.7032852225
 51
185.7707192564
  0
POLYLINE
  5
F4
330
1F
100
AcDbEntity
  8
0
  6
HIDDEN
 62
     7
100
AcDb2dPolyline
 66
     1
 10
0.0
 20
0.0
 30
0.0
  0
VERTEX
  5
206
330
F4
100
AcDbEntity
  8
0
  6
HIDDEN
 62
     7
100
AcDbVertex
100
AcDb2dVertex
 10
4.071765448
 20
3.7807629061
 30
0.0
  0
VERTEX
  5
207
330
F4
100
AcDbEntity
  8
0
  6
HIDDEN
 62
     7
100
AcDbVertex
100
AcDb2dVertex
 10
4.0735181587
 20
3.7711790463
 30
0.0
  0
VERTEX
  5
208
330
F4
100
AcDbEntity
  8
0
  6
HIDDEN
 62
     7
100
AcDbVertex
100
AcDb2dVertex
 10
4.0746675994
 20
3.7547412785
 30
0.0
  0
SEQEND
  5
209
330
F4
100
AcDbEntity
  8
0
  6
HIDDEN
 62
     7
  0
LINE
  5
F5
330
1F
100
AcDbEntity
  8
0
  6
HIDDEN
 62
     7
100
AcDbLine
 10
3.8975022451
 20
3.7888367669
 30
0.0
 11
3.9565573632
 21
3.8229322552
 31
0.0
  0
LINE
  5
F6
330
1F
100
AcDbEntity
  8
0
  6
HIDDEN
 62
     7
100
AcDbLine
 10
3.9565573632
 20
3.8229322552
 30
0.0
 11
4.0156124813
 21
3.7888367669
 31
0.0
  0
LINE
  5
F7
330
1F
100
AcDbEntity
  8
0
  6
HIDDEN
 62
     7
100
AcDbLine
 10
3.9565573632
 20
3.6865503018
 30
0.0
 11
3.8975022451
 21
3.7206457902
 31
0.0
  0
LINE
  5
F8
330
1F
100
AcDbEntity
  8
0
  6
HIDDEN
 62
     7
100
AcDbLine
 10
4.0156124813
 20
3.7888367669
 30
0.0
 11
4.0156124813
 21
3.7206457902
 31
0.0
  0
LINE
  5
F9
330
1F
100
AcDbEntity
  8
0
  6
HIDDEN
 62
     7
100
AcDbLine
 10
3.8975022451
 20
3.7206457902
 30
0.0
 11
3.8975022451
 21
3.7888367669
 31
0.0
  0
LINE
  5
FA
330
1F
100
AcDbEntity
  8
0
  6
HIDDEN
 62
     7
100
AcDbLine
 10
4.0156124813
 20
3.7206457902
 30
0.0
 11
3.9565573632
 21
3.6865503018
 31
0.0
  0
CIRCLE
  5
FB
330
1F
100
AcDbEntity
  8
0
  6
HIDDEN
 62
     7
100
AcDbCircle
 10
2.6967148435
 20
3.7547412785
 30
0.0
 40
0.0981102362204722
  0
LINE
  5
FC
330
1F
100
AcDbEntity
  8
0
  6
HIDDEN
 62
     7
100
AcDbLine
 10
2.6376597254
 20
3.7206457902
 30
0.0
 11
2.6967148435
 21
3.6865503018
 31
0.0
  0
LINE
  5
FD
330
1F
100
AcDbEntity
  8
0
  6
HIDDEN
 62
     7
100
AcDbLine
 10
2.6967148435
 20
3.6865503018
 30
0.0
 11
2.7557699617
 21
3.7206457902
 31
0.0
  0
LINE
  5
FE
330
1F
100
AcDbEntity
  8
0
  6
HIDDEN
 62
     7
100
AcDbLine
 10
2.7557699617
 20
3.7206457902
 30
0.0
 11
2.7557699617
 21
3.7888367669
 31
0.0
  0
LINE
  5
FF
330
1F
100
AcDbEntity
  8
0
  6
HIDDEN
 62
     7
100
AcDbLine
 10
2.7557699617
 20
3.7888367669
 30
0.0
 11
2.6967148435
 21
3.8229322552
 31
0.0
  0
LINE
  5
100
330
1F
100
AcDbEntity
  8
0
  6
HIDDEN
 62
     7
100
AcDbLine
 10
2.6376597254
 20
3.7888367669
 30
0.0
 11
2.6376597254
 21
3.7206457902
 31
0.0
  0
LINE
  5
101
330
1F
100
AcDbEntity
  8
0
  6
HIDDEN
 62
     7
100
AcDbLine
 10
2.6967148435
 20
3.8229322552
 30
0.0
 11
2.6376597254
 21
3.7888367669
 31
0.0
  0
LINE
  5
102
330
1F
100
AcDbEntity
  8
0
  6
HIDDEN
 62
     7
100
AcDbLine
 10
4.0746675994
 20
4.5221428533
 30
0.0
 11
3.838447127
 21
4.5221428533
 31
0.0
  0
LINE
  5
103
330
1F
100
AcDbEntity
  8
0
  6
HIDDEN
 62
     7
100
AcDbLine
 10
3.838447127
 20
3.9715916722
 30
0.0
 11
4.0746675994
 21
3.9715916722
 31
0.0
  0
LINE
  5
104
330
1F
100
AcDbEntity
  8
0
  6
HIDDEN
 62
     7
100
AcDbLine
 10
4.0546675994
 20
3.9515916722
 30
0.0
 11
3.858447127
 21
3.9515916722
 31
0.0
  0
LINE
  5
105
330
1F
100
AcDbEntity
  8
0
  6
HIDDEN
 62
     7
100
AcDbLine
 10
3.9565573632
 20
4.4240326171
 30
0.0
 11
3.9565573632
 21
4.5421428533
 31
0.0
  0
LINE
  5
106
330
1F
100
AcDbEntity
  8
0
  6
HIDDEN
 62
     7
100
AcDbLine
 10
3.8975022451
 20
4.4240326171
 30
0.0
 11
3.9565573632
 21
4.4240326171
 31
0.0
  0
LINE
  5
107
330
1F
100
AcDbEntity
  8
0
  6
HIDDEN
 62
     7
100
AcDbLine
 10
3.9565573632
 20
4.4240326171
 30
0.0
 11
4.0156124813
 21
4.4240326171
 31
0.0
  0
LINE
  5
108
330
1F
100
AcDbEntity
  8
0
  6
HIDDEN
 62
     7
100
AcDbLine
 10
3.8975022451
 20
4.4240326171
 30
0.0
 11
3.8975022451
 21
4.5421428533
 31
0.0
  0
LINE
  5
109
330
1F
100
AcDbEntity
  8
0
  6
HIDDEN
 62
     7
100
AcDbLine
 10
4.0156124813
 20
4.4240326171
 30
0.0
 11
4.0156124813
 21
4.5421428533
 31
0.0
  0
LINE
  5
10A
330
1F
100
AcDbEntity
  8
0
  6
HIDDEN
 62
     7
100
AcDbLine
 10
2.5786046073
 20
4.5221428533
 30
0.0
 11
2.8148250798
 21
4.5221428533
 31
0.0
  0
LINE
  5
10B
330
1F
100
AcDbEntity
  8
0
  6
HIDDEN
 62
     7
100
AcDbLine
 10
2.8148250798
 20
3.9715916722
 30
0.0
 11
2.5786046073
 21
3.9715916722
 31
0.0
  0
LINE
  5
10C
330
1F
100
AcDbEntity
  8
0
  6
HIDDEN
 62
     7
100
AcDbLine
 10
2.5986046073
 20
3.9515916722
 30
0.0
 11
2.7948250798
 21
3.9515916722
 31
0.0
  0
LINE
  5
10D
330
1F
100
AcDbEntity
  8
0
  6
HIDDEN
 62
     7
100
AcDbLine
 10
2.6967148435
 20
4.4240326171
 30
0.0
 11
2.6967148435
 21
4.5421428533
 31
0.0
  0
LINE
  5
10E
330
1F
100
AcDbEntity
  8
0
  6
HIDDEN
 62
     7
100
AcDbLine
 10
2.7557699617
 20
4.4240326171
 30
0.0
 11
2.6967148435
 21
4.4240326171
 31
0.0
  0
LINE
  5
10F
330
1F
100
AcDbEntity
  8
0
  6
HIDDEN
 62
     7
100
AcDbLine
 10
2.6967148435
 20
4.4240326171
 30
0.0
 11
2.6376597254
 21
4.4240326171
 31
0.0
  0
LINE
  5
110
330
1F
100
AcDbEntity
  8
0
  6
HIDDEN
 62
     7
100
AcDbLine
 10
2.7557699617
 20
4.4240326171
 30
0.0
 11
2.7557699617
 21
4.5421428533
 31
0.0
  0
LINE
  5
111
330
1F
100
AcDbEntity
  8
0
  6
HIDDEN
 62
     7
100
AcDbLine
 10
2.6376597254
 20
4.4240326171
 30
0.0
 11
2.6376597254
 21
4.5421428533
 31
0.0
  0
LINE
  5
112
330
1F
100
AcDbEntity
  8
0
  6
HIDDEN
 62
     7
100
AcDbLine
 10
2.1455337412
 20
3.5278908848
 30
0.0
 11
2.1755337412
 21
3.5578908848
 31
0.0
  0
LINE
  5
113
330
1F
100
AcDbEntity
  8
0
  6
HIDDEN
 62
     7
100
AcDbLine
 10
2.1755337412
 20
3.9515916722
 30
0.0
 11
2.1455337412
 21
3.9815916722
 31
0.0
  0
LINE
  5
114
330
1F
100
AcDbEntity
  8
0
  6
HIDDEN
 62
     7
100
AcDbLine
 10
3.4266361034
 20
3.9815916722
 30
0.0
 11
3.2266361034
 21
3.9815916722
 31
0.0
  0
LINE
  5
115
330
1F
100
AcDbEntity
  8
0
  6
HIDDEN
 62
     7
100
AcDbLine
 10
3.2266361034
 20
3.5278908848
 30
0.0
 11
3.4266361034
 21
3.5278908848
 31
0.0
  0
LINE
  5
116
330
1F
100
AcDbEntity
  8
0
  6
HIDDEN
 62
     7
100
AcDbLine
 10
4.5077384656
 20
3.9815916722
 30
0.0
 11
4.4777384656
 21
3.9515916722
 31
0.0
  0
LINE
  5
117
330
1F
100
AcDbEntity
  8
0
  6
HIDDEN
 62
     7
100
AcDbLine
 10
4.4777384656
 20
3.5578908848
 30
0.0
 11
4.5077384656
 21
3.5278908848
 31
0.0
  0
LINE
  5
118
330
1F
100
AcDbEntity
  8
0
  6
HIDDEN
 62
     7
100
AcDbLine
 10
2.578685284
 20
3.9515916722
 30
0.0
 11
2.1755337412
 21
3.9515916722
 31
0.0
  0
LINE
  5
119
330
1F
100
AcDbEntity
  8
0
  6
HIDDEN
 62
     7
100
AcDbLine
 10
3.2266361034
 20
3.9515916722
 30
0.0
 11
2.8145372398
 21
3.9515916722
 31
0.0
  0
LINE
  5
11A
330
1F
100
AcDbEntity
  8
0
  6
HIDDEN
 62
     7
100
AcDbLine
 10
2.1755337412
 20
3.5578908848
 30
0.0
 11
3.2266361034
 21
3.5578908848
 31
0.0
  0
LINE
  5
11B
330
1F
100
AcDbEntity
  8
0
  6
HIDDEN
 62
     7
100
AcDbLine
 10
3.8385278037
 20
3.9515916722
 30
0.0
 11
3.4266361034
 21
3.9515916722
 31
0.0
  0
LINE
  5
11C
330
1F
100
AcDbEntity
  8
0
  6
HIDDEN
 62
     7
100
AcDbLine
 10
4.4777384656
 20
3.9515916722
 30
0.0
 11
4.0743797595
 21
3.9515916722
 31
0.0
  0
LINE
  5
11D
330
1F
100
AcDbEntity
  8
0
  6
HIDDEN
 62
     7
100
AcDbLine
 10
3.4266361034
 20
3.5578908848
 30
0.0
 11
4.4777384656
 21
3.5578908848
 31
0.0
  0
LINE
  5
11E
330
1F
100
AcDbEntity
  8
0
  6
HIDDEN
 62
     7
100
AcDbLine
 10
4.0746676012
 20
4.5203752725
 30
0.0
 11
4.0996331264
 21
4.5421428534
 31
0.0
  0
LINE
  5
11F
330
1F
100
AcDbEntity
  8
0
  6
HIDDEN
 62
     7
100
AcDbLine
 10
3.813481598
 20
4.5421428537
 30
0.0
 11
3.8384471235
 21
4.5203752728
 31
0.0
  0
LINE
  5
120
330
1F
100
AcDbEntity
  8
0
  6
HIDDEN
 62
     7
100
AcDbLine
 10
2.8148250815
 20
4.5203752725
 30
0.0
 11
2.8397906067
 21
4.5421428534
 31
0.0
  0
LINE
  5
121
330
1F
100
AcDbEntity
  8
0
  6
HIDDEN
 62
     7
100
AcDbLine
 10
2.5536390783
 20
4.5421428537
 30
0.0
 11
2.5786046038
 21
4.5203752728
 31
0.0
  0
LINE
  5
122
330
1F
100
AcDbEntity
  8
0
  6
HIDDEN
 62
     7
100
AcDbLine
 10
2.8148250798
 20
3.9514196547
 30
0.0
 11
2.8148250798
 21
4.5203752679
 31
0.0
  0
LINE
  5
123
330
1F
100
AcDbEntity
  8
0
  6
HIDDEN
 62
     7
100
AcDbLine
 10
2.5786046073
 20
4.5203752724
 30
0.0
 11
2.5786046073
 21
3.9515435275
 31
0.0
  0
LINE
  5
124
330
1F
100
AcDbEntity
  8
0
  6
HIDDEN
 62
     7
100
AcDbLine
 10
4.0746675994
 20
3.9514196547
 30
0.0
 11
4.0746675994
 21
4.5203752679
 31
0.0
  0
LINE
  5
125
330
1F
100
AcDbEntity
  8
0
  6
HIDDEN
 62
     7
100
AcDbLine
 10
3.838447127
 20
4.5203752724
 30
0.0
 11
3.838447127
 21
3.9515435275
 31
0.0
  0
LINE
  5
126
330
1F
100
AcDbEntity
  8
0
  6
HIDDEN
 62
     7
100
AcDbLine
 10
4.0746675994
 20
3.9715916722
 30
0.0
 11
4.0746675994
 21
4.5221428533
 31
0.0
  0
LINE
  5
127
330
1F
100
AcDbEntity
  8
0
  6
HIDDEN
 62
     7
100
AcDbLine
 10
3.838447127
 20
4.5221428533
 30
0.0
 11
3.838447127
 21
3.9715916722
 31
0.0
  0
LINE
  5
128
330
1F
100
AcDbEntity
  8
0
  6
HIDDEN
 62
     7
100
AcDbLine
 10
4.0746675994
 20
4.5221428533
 30
0.0
 11
4.0610799332
 21
4.5357305196
 31
0.0
  0
LINE
  5
129
330
1F
100
AcDbEntity
  8
0
  6
HIDDEN
 62
     7
100
AcDbLine
 10
3.8520345923
 20
4.5357303187
 30
0.0
 11
3.838447127
 21
4.5221428533
 31
0.0
  0
LINE
  5
12A
330
1F
100
AcDbEntity
  8
0
  6
HIDDEN
 62
     7
100
AcDbLine
 10
3.838447127
 20
3.9715916722
 30
0.0
 11
3.858447127
 21
3.9515916722
 31
0.0
  0
LINE
  5
12B
330
1F
100
AcDbEntity
  8
0
  6
HIDDEN
 62
     7
100
AcDbLine
 10
4.0546675994
 20
3.9515916722
 30
0.0
 11
4.0746675994
 21
3.9715916722
 31
0.0
  0
LINE
  5
12C
330
1F
100
AcDbEntity
  8
0
  6
HIDDEN
 62
     7
100
AcDbLine
 10
2.8148250798
 20
4.5221428533
 30
0.0
 11
2.8012374135
 21
4.5357305196
 31
0.0
  0
LINE
  5
12D
330
1F
100
AcDbEntity
  8
0
  6
HIDDEN
 62
     7
100
AcDbLine
 10
2.5921920727
 20
4.5357303187
 30
0.0
 11
2.5786046073
 21
4.5221428533
 31
0.0
  0
LINE
  5
12E
330
1F
100
AcDbEntity
  8
0
  6
HIDDEN
 62
     7
100
AcDbLine
 10
2.8148250798
 20
3.9715916722
 30
0.0
 11
2.8148250798
 21
4.5221428533
 31
0.0
  0
LINE
  5
12F
330
1F
100
AcDbEntity
  8
0
  6
HIDDEN
 62
     7
100
AcDbLine
 10
2.5786046073
 20
4.5221428533
 30
0.0
 11
2.5786046073
 21
3.9715916722
 31
0.0
  0
LINE
  5
130
330
1F
100
AcDbEntity
  8
0
  6
HIDDEN
 62
     7
100
AcDbLine
 10
2.5786046073
 20
3.9715916722
 30
0.0
 11
2.5986046073
 21
3.9515916722
 31
0.0
  0
LINE
  5
131
330
1F
100
AcDbEntity
  8
0
  6
HIDDEN
 62
     7
100
AcDbLine
 10
2.7948250798
 20
3.9515916722
 30
0.0
 11
2.8148250798
 21
3.9715916722
 31
0.0
  0
LINE
  5
132
330
1F
100
AcDbEntity
  8
0
  6
CONTINUOUS
 62
     7
100
AcDbLine
 10
9.0272947185
 20
3.6495765875
 30
0.0
 11
9.0343491733
 21
3.6566310423
 31
0.0
  0
LINE
  5
133
330
1F
100
AcDbEntity
  8
0
  6
CONTINUOUS
 62
     7
100
AcDbLine
 10
9.0343491733
 20
3.8528515147
 30
0.0
 11
9.0272947185
 21
3.8599059695
 31
0.0
  0
LINE
  5
134
330
1F
100
AcDbEntity
  8
0
  6
CONTINUOUS
 62
     7
100
AcDbLine
 10
8.3521122894
 20
4.5350883986
 30
0.0
 11
8.3450578347
 21
4.5421428533
 31
0.0
  0
LINE
  5
135
330
1F
100
AcDbEntity
  8
0
  6
CONTINUOUS
 62
     7
100
AcDbLine
 10
8.1488373622
 20
4.5421428533
 30
0.0
 11
8.1417829075
 21
4.5350883986
 31
0.0
  0
CIRCLE
  5
136
330
1F
100
AcDbEntity
  8
0
  6
CONTINUOUS
 62
     7
100
AcDbCircle
 10
8.2469475984
 20
3.7547412785
 30
0.0
 40
0.7574015748031506
  0
CIRCLE
  5
137
330
1F
100
AcDbEntity
  8
0
  6
CONTINUOUS
 62
     7
100
AcDbCircle
 10
8.2469475984
 20
3.7547412785
 30
0.0
 40
0.78740157480315
  0
CIRCLE
  5
138
330
1F
100
AcDbEntity
  8
0
  6
CONTINUOUS
 62
     7
100
AcDbCircle
 10
8.2469475984
 20
3.7547412785
 30
0.0
 40
0.2268503937007864
  0
CIRCLE
  5
139
330
1F
100
AcDbEntity
  8
0
  6
CONTINUOUS
 62
     7
100
AcDbCircle
 10
8.2469475984
 20
3.7547412785
 30
0.0
 40
0.1968503937007871
  0
LINE
  5
13A
330
1F
100
AcDbEntity
  8
0
  6
CONTINUOUS
 62
     7
100
AcDbLine
 10
9.0343491733
 20
3.8528515147
 30
0.0
 11
9.0343491733
 21
3.6566310423
 31
0.0
  0
LINE
  5
13B
330
1F
100
AcDbEntity
  8
0
  6
CONTINUOUS
 62
     7
100
AcDbLine
 10
8.1488373622
 20
4.5421428533
 30
0.0
 11
8.3450578347
 21
4.5421428533
 31
0.0
  0
SPLINE
  5
13C
330
1F
100
AcDbEntity
  8
0
  6
HIDDEN
 62
     7
100
AcDbSpline
210
0.0
220
0.0
230
1.0
 70
     8
 71
     3
 72
    25
 73
    21
 74
     0
 42
0.00000001
 43
0.00000001
 40
0.0
 40
0.0
 40
0.0
 40
0.0
 40
0.0000382927746879
 40
0.0504255226102174
 40
0.1088438248407006
 40
0.1753411316766658
 40
0.2499456349222477
 40
0.3241042237624265
 40
0.390477833899273
 40
0.4490961043749185
 40
0.5000076236090389
 40
0.5508542125027585
 40
0.6094376922704668
 40
0.6758067811234213
 40
0.7499916736311822
 40
0.824599773656842
 40
0.8911035025887172
 40
0.9495309643143037
 40
0.9999298229042355
 40
0.9999999999999999
 40
0.9999999999999999
 40
0.9999999999999999
 40
0.9999999999999999
 10
8.99909467717114
 20
3.872850369848576
 30
0.0
 10
8.999094569654108
 20
3.872850747966675
 30
0.0
 10
8.998952986742704
 20
3.873348669647889
 30
0.0
 10
8.999517093283387
 20
3.871520452980789
 30
0.0
 10
9.00073528456831
 20
3.866473043436314
 30
0.0
 10
9.0028972232411
 20
3.855640735568501
 30
0.0
 10
9.005854075735346
 20
3.839104313321711
 30
0.0
 10
9.008816846547296
 20
3.818135080770179
 30
0.0
 10
9.010929002970377
 20
3.795828583624671
 30
0.0
 10
9.012238022120135
 20
3.774640594746595
 30
0.0
 10
9.01274048923342
 20
3.754749536992966
 30
0.0
 10
9.012241340130515
 20
3.734862789194916
 30
0.0
 10
9.010933261811804
 20
3.713686013450617
 30
0.0
 10
9.008821246420036
 20
3.69137751723762
 30
0.0
 10
9.005857468944914
 20
3.670400895849922
 30
0.0
 10
9.002900997327822
 20
3.653856469841175
 30
0.0
 10
9.000738526347908
 20
3.643018190132755
 30
0.0
 10
8.999519321313683
 20
3.637965268814735
 30
0.0
 10
8.998953519973286
 20
3.636134796625102
 30
0.0
 10
8.999094750645057
 20
3.636632428410508
 30
0.0
 10
8.99909494702603
 20
3.636633120366536
 30
0.0
  0
SPLINE
  5
13D
330
1F
100
AcDbEntity
  8
0
  6
HIDDEN
 62
     7
100
AcDbSpline
210
0.0
220
0.0
230
1.0
 70
     8
 71
     3
 72
    12
 73
     8
 74
     0
 42
0.00000001
 43
0.00000001
 40
0.0
 40
0.0
 40
0.0
 40
0.0
 40
0.0001634402503438
 40
0.296771861655349
 40
0.5621884389918451
 40
0.7965325510783857
 40
1.0
 40
1.0
 40
1.0
 40
1.0
 10
9.005865365712557
 20
3.671209449805005
 30
0.0
 10
9.005865906919116
 20
3.671212568645634
 30
0.0
 10
9.006848620036871
 20
3.676875703261398
 30
0.0
 10
9.008845532206744
 20
3.691717106798065
 30
0.0
 10
9.010916172081272
 20
3.713609412295536
 30
0.0
 10
9.012293450896642
 20
3.734874047796976
 30
0.0
 10
9.012490169742057
 20
3.748437727818011
 30
0.0
 10
9.012581592365843
 20
3.754741278518028
 30
0.0
  0
SPLINE
  5
13E
330
1F
100
AcDbEntity
  8
0
  6
HIDDEN
 62
     7
100
AcDbSpline
210
0.0
220
0.0
230
1.0
 70
     8
 71
     3
 72
    25
 73
    21
 74
     0
 42
0.00000001
 43
0.00000001
 40
0.0
 40
0.0
 40
0.0
 40
0.0
 40
0.0000382927746875
 40
0.0504255226108612
 40
0.1088438248415596
 40
0.1753411316773094
 40
0.2499456349222468
 40
0.3241042237629074
 40
0.3904778338999141
 40
0.4490961043753989
 40
0.5000076236090387
 40
0.5508542125033207
 40
0.6094376922712168
 40
0.6758067811239834
 40
0.7499916736311821
 40
0.8245997736568401
 40
0.8911035025887152
 40
0.949530964314302
 40
0.9999298229042348
 40
1.0
 40
1.0
 40
1.0
 40
1.0
 10
8.128838507119427
 20
4.506888357239198
 30
0.0
 10
8.128838129001327
 20
4.506888249722166
 30
0.0
 10
8.128340207320113
 20
4.506746666810733
 30
0.0
 10
8.130168423987234
 20
4.50731077335149
 30
0.0
 10
8.135215833531783
 20
4.508528964636391
 30
0.0
 10
8.146048141399612
 20
4.510690903309178
 30
0.0
 10
8.162584563646393
 20
4.513647755803419
 30
0.0
 10
8.183553796197938
 20
4.516610526615374
 30
0.0
 10
8.20586029334352
 20
4.518722683038465
 30
0.0
 10
8.227048282221546
 20
4.520031702188222
 30
0.0
 10
8.246939339975166
 20
4.520534169301479
 30
0.0
 10
8.26682608777325
 20
4.520035020198546
 30
0.0
 10
8.288002863517605
 20
4.518726941879833
 30
0.0
 10
8.310311359730518
 20
4.516614926488072
 30
0.0
 10
8.331287981118123
 20
4.513651149012966
 30
0.0
 10
8.347832407126829
 20
4.510694677395878
 30
0.0
 10
8.35867068683525
 20
4.508532206415977
 30
0.0
 10
8.36372360815326
 20
4.507313001381704
 30
0.0
 10
8.365554080342918
 20
4.506747200041413
 30
0.0
 10
8.365056448557494
 20
4.506888430713115
 30
0.0
 10
8.365055756601468
 20
4.506888627094089
 30
0.0
  0
SPLINE
  5
13F
330
1F
100
AcDbEntity
  8
0
  6
HIDDEN
 62
     7
100
AcDbSpline
210
0.0
220
0.0
230
1.0
 70
     8
 71
     3
 72
    12
 73
     8
 74
     0
 42
0.00000001
 43
0.00000001
 40
0.0
 40
0.0
 40
0.0
 40
0.0
 40
0.0001634402497195
 40
0.2967718616549118
 40
0.562188438991574
 40
0.7965325510782606
 40
1.0
 40
1.0
 40
1.0
 40
1.0
 10
8.330479427162961
 20
4.513659045780622
 30
0.0
 10
8.330476308322346
 20
4.513659586987179
 30
0.0
 10
8.32481317370658
 20
4.514642300104886
 30
0.0
 10
8.309971770169941
 20
4.516639212274821
 30
0.0
 10
8.288079464672466
 20
4.518709852149327
 30
0.0
 10
8.266814829171027
 20
4.520087130964701
 30
0.0
 10
8.253251149149992
 20
4.520283849810114
 30
0.0
 10
8.246947598449974
 20
4.5203752724339
 30
0.0
  0
LINE
  5
140
330
1F
100
AcDbEntity
  8
0
  6
HIDDEN
 62
     7
100
AcDbLine
 10
9.0143491733
 20
3.6366310423
 30
0.0
 11
9.0143491733
 21
3.8728515147
 31
0.0
  0
LINE
  5
141
330
1F
100
AcDbEntity
  8
0
  6
HIDDEN
 62
     7
100
AcDbLine
 10
8.4637979922
 20
3.7547412785
 30
0.0
 11
8.4637979922
 21
3.6366310423
 31
0.0
  0
LINE
  5
142
330
1F
100
AcDbEntity
  8
0
  6
HIDDEN
 62
     7
100
AcDbLine
 10
8.4637979922
 20
3.8728515147
 30
0.0
 11
8.4637979922
 21
3.7547412785
 31
0.0
  0
LINE
  5
143
330
1F
100
AcDbEntity
  8
0
  6
HIDDEN
 62
     7
100
AcDbLine
 10
8.4437979922
 20
3.7547412785
 30
0.0
 11
8.4437979922
 21
3.8528515147
 31
0.0
  0
LINE
  5
144
330
1F
100
AcDbEntity
  8
0
  6
HIDDEN
 62
     7
100
AcDbLine
 10
8.4437979922
 20
3.6566310423
 30
0.0
 11
8.4437979922
 21
3.7547412785
 31
0.0
  0
LINE
  5
145
330
1F
100
AcDbEntity
  8
0
  6
HIDDEN
 62
     7
100
AcDbLine
 10
8.916238937
 20
3.7206457902
 30
0.0
 11
9.0343491733
 21
3.7206457902
 31
0.0
  0
LINE
  5
146
330
1F
100
AcDbEntity
  8
0
  6
HIDDEN
 62
     7
100
AcDbLine
 10
8.916238937
 20
3.7888367669
 30
0.0
 11
9.0343491733
 21
3.7888367669
 31
0.0
  0
LINE
  5
147
330
1F
100
AcDbEntity
  8
0
  6
HIDDEN
 62
     7
100
AcDbLine
 10
8.916238937
 20
3.8229322552
 30
0.0
 11
8.916238937
 21
3.7888367669
 31
0.0
  0
LINE
  5
148
330
1F
100
AcDbEntity
  8
0
  6
HIDDEN
 62
     7
100
AcDbLine
 10
8.916238937
 20
3.7206457902
 30
0.0
 11
8.916238937
 21
3.6865503018
 31
0.0
  0
LINE
  5
149
330
1F
100
AcDbEntity
  8
0
  6
HIDDEN
 62
     7
100
AcDbLine
 10
8.916238937
 20
3.7888367669
 30
0.0
 11
8.916238937
 21
3.7206457902
 31
0.0
  0
LINE
  5
14A
330
1F
100
AcDbEntity
  8
0
  6
HIDDEN
 62
     7
100
AcDbLine
 10
8.916238937
 20
3.6865503018
 30
0.0
 11
9.0343491733
 21
3.6865503018
 31
0.0
  0
LINE
  5
14B
330
1F
100
AcDbEntity
  8
0
  6
HIDDEN
 62
     7
100
AcDbLine
 10
8.916238937
 20
3.8229322552
 30
0.0
 11
9.0343491733
 21
3.8229322552
 31
0.0
  0
LINE
  5
14C
330
1F
100
AcDbEntity
  8
0
  6
HIDDEN
 62
     7
100
AcDbLine
 10
8.2469475984
 20
3.9515916722
 30
0.0
 11
8.1488373622
 21
3.9515916722
 31
0.0
  0
LINE
  5
14D
330
1F
100
AcDbEntity
  8
0
  6
HIDDEN
 62
     7
100
AcDbLine
 10
8.3450578347
 20
3.9515916722
 30
0.0
 11
8.2469475984
 21
3.9515916722
 31
0.0
  0
LINE
  5
14E
330
1F
100
AcDbEntity
  8
0
  6
HIDDEN
 62
     7
100
AcDbLine
 10
8.2469475984
 20
3.9715916722
 30
0.0
 11
8.3650578347
 21
3.9715916722
 31
0.0
  0
LINE
  5
14F
330
1F
100
AcDbEntity
  8
0
  6
HIDDEN
 62
     7
100
AcDbLine
 10
8.1288373622
 20
3.9715916722
 30
0.0
 11
8.2469475984
 21
3.9715916722
 31
0.0
  0
LINE
  5
150
330
1F
100
AcDbEntity
  8
0
  6
HIDDEN
 62
     7
100
AcDbLine
 10
8.3650578347
 20
4.5221428533
 30
0.0
 11
8.1288373622
 21
4.5221428533
 31
0.0
  0
LINE
  5
151
330
1F
100
AcDbEntity
  8
0
  6
HIDDEN
 62
     7
100
AcDbLine
 10
8.2810430868
 20
4.4240326171
 30
0.0
 11
8.3151385751
 21
4.4240326171
 31
0.0
  0
LINE
  5
152
330
1F
100
AcDbEntity
  8
0
  6
HIDDEN
 62
     7
100
AcDbLine
 10
8.2810430868
 20
4.4240326171
 30
0.0
 11
8.2810430868
 21
4.5421428533
 31
0.0
  0
LINE
  5
153
330
1F
100
AcDbEntity
  8
0
  6
HIDDEN
 62
     7
100
AcDbLine
 10
8.2128521101
 20
4.4240326171
 30
0.0
 11
8.2810430868
 21
4.4240326171
 31
0.0
  0
LINE
  5
154
330
1F
100
AcDbEntity
  8
0
  6
HIDDEN
 62
     7
100
AcDbLine
 10
8.2128521101
 20
4.4240326171
 30
0.0
 11
8.2128521101
 21
4.5421428533
 31
0.0
  0
LINE
  5
155
330
1F
100
AcDbEntity
  8
0
  6
HIDDEN
 62
     7
100
AcDbLine
 10
8.1787566218
 20
4.4240326171
 30
0.0
 11
8.2128521101
 21
4.4240326171
 31
0.0
  0
LINE
  5
156
330
1F
100
AcDbEntity
  8
0
  6
HIDDEN
 62
     7
100
AcDbLine
 10
8.3151385751
 20
4.4240326171
 30
0.0
 11
8.3151385751
 21
4.5421428533
 31
0.0
  0
LINE
  5
157
330
1F
100
AcDbEntity
  8
0
  6
HIDDEN
 62
     7
100
AcDbLine
 10
8.1787566218
 20
4.4240326171
 30
0.0
 11
8.1787566218
 21
4.5421428533
 31
0.0
  0
LINE
  5
158
330
1F
100
AcDbEntity
  8
0
  6
HIDDEN
 62
     7
100
AcDbLine
 10
8.9990943573
 20
3.6366310617
 30
0.0
 11
9.0204784854
 21
3.6075977844
 31
0.0
  0
LINE
  5
159
330
1F
100
AcDbEntity
  8
0
  6
HIDDEN
 62
     7
100
AcDbLine
 10
9.0204784829
 20
3.9018847874
 30
0.0
 11
8.9990943548
 21
3.8728515072
 31
0.0
  0
LINE
  5
15A
330
1F
100
AcDbEntity
  8
0
  6
HIDDEN
 62
     7
100
AcDbLine
 10
8.3650578153
 20
4.5068880374
 30
0.0
 11
8.3940910925
 21
4.5282721655
 31
0.0
  0
LINE
  5
15B
330
1F
100
AcDbEntity
  8
0
  6
HIDDEN
 62
     7
100
AcDbLine
 10
8.0998040896
 20
4.5282721629
 30
0.0
 11
8.1288373698
 21
4.5068880349
 31
0.0
  0
LINE
  5
15C
330
1F
100
AcDbEntity
  8
0
  6
HIDDEN
 62
     7
100
AcDbLine
 10
8.4045301589
 20
3.6366310423
 30
0.0
 11
8.9990951194
 21
3.6366310423
 31
0.0
  0
LINE
  5
15D
330
1F
100
AcDbEntity
  8
0
  6
HIDDEN
 62
     7
100
AcDbLine
 10
8.9990955171
 20
3.8728515147
 30
0.0
 11
8.4046639891
 21
3.8728515147
 31
0.0
  0
LINE
  5
15E
330
1F
100
AcDbEntity
  8
0
  6
HIDDEN
 62
     7
100
AcDbLine
 10
8.3650578347
 20
3.9122215935
 30
0.0
 11
8.3650578347
 21
4.5068887994
 31
0.0
  0
LINE
  5
15F
330
1F
100
AcDbEntity
  8
0
  6
HIDDEN
 62
     7
100
AcDbLine
 10
8.1288373622
 20
4.5068891972
 30
0.0
 11
8.1288373622
 21
3.9122344176
 31
0.0
  0
LINE
  5
160
330
1F
100
AcDbEntity
  8
0
  6
HIDDEN
 62
     7
100
AcDbLine
 10
9.0143491733
 20
3.6366310423
 30
0.0
 11
9.0272947185
 21
3.6495765875
 31
0.0
  0
LINE
  5
161
330
1F
100
AcDbEntity
  8
0
  6
HIDDEN
 62
     7
100
AcDbLine
 10
9.0272947185
 20
3.8599059695
 30
0.0
 11
9.0143491733
 21
3.8728515147
 31
0.0
  0
LINE
  5
162
330
1F
100
AcDbEntity
  8
0
  6
HIDDEN
 62
     7
100
AcDbLine
 10
8.4637979922
 20
3.6366310423
 30
0.0
 11
9.0143491733
 21
3.6366310423
 31
0.0
  0
LINE
  5
163
330
1F
100
AcDbEntity
  8
0
  6
HIDDEN
 62
     7
100
AcDbLine
 10
9.0143491733
 20
3.8728515147
 30
0.0
 11
8.4637979922
 21
3.8728515147
 31
0.0
  0
LINE
  5
164
330
1F
100
AcDbEntity
  8
0
  6
HIDDEN
 62
     7
100
AcDbLine
 10
8.4637979922
 20
3.8728515147
 30
0.0
 11
8.4437979922
 21
3.8528515147
 31
0.0
  0
LINE
  5
165
330
1F
100
AcDbEntity
  8
0
  6
HIDDEN
 62
     7
100
AcDbLine
 10
8.4437979922
 20
3.6566310423
 30
0.0
 11
8.4637979922
 21
3.6366310423
 31
0.0
  0
LINE
  5
166
330
1F
100
AcDbEntity
  8
0
  6
HIDDEN
 62
     7
100
AcDbLine
 10
8.1288373622
 20
3.9715916722
 30
0.0
 11
8.1488373622
 21
3.9515916722
 31
0.0
  0
LINE
  5
167
330
1F
100
AcDbEntity
  8
0
  6
HIDDEN
 62
     7
100
AcDbLine
 10
8.3450578347
 20
3.9515916722
 30
0.0
 11
8.3650578347
 21
3.9715916722
 31
0.0
  0
LINE
  5
168
330
1F
100
AcDbEntity
  8
0
  6
HIDDEN
 62
     7
100
AcDbLine
 10
8.3650578347
 20
3.9715916722
 30
0.0
 11
8.3650578347
 21
4.5221428533
 31
0.0
  0
LINE
  5
169
330
1F
100
AcDbEntity
  8
0
  6
HIDDEN
 62
     7
100
AcDbLine
 10
8.1288373622
 20
4.5221428533
 30
0.0
 11
8.1288373622
 21
3.9715916722
 31
0.0
  0
LINE
  5
16A
330
1F
100
AcDbEntity
  8
0
  6
HIDDEN
 62
     7
100
AcDbLine
 10
8.3650578347
 20
4.5221428533
 30
0.0
 11
8.3521122894
 21
4.5350883986
 31
0.0
  0
LINE
  5
16B
330
1F
100
AcDbEntity
  8
0
  6
HIDDEN
 62
     7
100
AcDbLine
 10
8.1417829075
 20
4.5350883986
 30
0.0
 11
8.1288373622
 21
4.5221428533
 31
0.0
  0
LINE
  5
16C
330
1F
100
AcDbEntity
  8
0
  6
CONTINUOUS
 62
     7
100
AcDbLine
 10
2.1755337412
 20
5.8806385562
 30
0.0
 11
4.4777384656
 21
5.8806385562
 31
0.0
  0
LINE
  5
16D
330
1F
100
AcDbEntity
  8
0
  6
CONTINUOUS
 62
     7
100
AcDbLine
 10
2.5536390825
 20
7.4554417058
 30
0.0
 11
2.1755337412
 21
7.4554417058
 31
0.0
  0
LINE
  5
16E
330
1F
100
AcDbEntity
  8
0
  6
CONTINUOUS
 62
     7
100
AcDbLine
 10
3.8134816022
 20
7.4554417058
 30
0.0
 11
2.8397905818
 21
7.4554417058
 31
0.0
  0
LINE
  5
16F
330
1F
100
AcDbEntity
  8
0
  6
CONTINUOUS
 62
     7
100
AcDbLine
 10
4.4777384656
 20
7.4554417058
 30
0.0
 11
4.0996331015
 21
7.4554417058
 31
0.0
  0
LINE
  5
170
330
1F
100
AcDbEntity
  8
0
  6
CONTINUOUS
 62
     7
100
AcDbLine
 10
2.1755337412
 20
7.4554417058
 30
0.0
 11
2.1455337412
 21
7.4254417058
 31
0.0
  0
LINE
  5
171
330
1F
100
AcDbEntity
  8
0
  6
CONTINUOUS
 62
     7
100
AcDbLine
 10
2.1455337412
 20
5.9106385562
 30
0.0
 11
2.1755337412
 21
5.8806385562
 31
0.0
  0
LINE
  5
172
330
1F
100
AcDbEntity
  8
0
  6
CONTINUOUS
 62
     7
100
AcDbLine
 10
4.4777384656
 20
5.8806385562
 30
0.0
 11
4.5077384656
 21
5.9106385562
 31
0.0
  0
LINE
  5
173
330
1F
100
AcDbEntity
  8
0
  6
CONTINUOUS
 62
     7
100
AcDbLine
 10
4.5077384656
 20
7.4254417058
 30
0.0
 11
4.4777384656
 21
7.4554417058
 31
0.0
  0
LINE
  5
174
330
1F
100
AcDbEntity
  8
0
  6
CONTINUOUS
 62
     7
100
AcDbLine
 10
4.0610799332
 20
7.4490293721
 30
0.0
 11
4.0546675994
 21
7.4554417058
 31
0.0
  0
LINE
  5
175
330
1F
100
AcDbEntity
  8
0
  6
CONTINUOUS
 62
     7
100
AcDbLine
 10
3.858447127
 20
7.4554417058
 30
0.0
 11
3.8520345923
 21
7.4490291712
 31
0.0
  0
LINE
  5
176
330
1F
100
AcDbEntity
  8
0
  6
CONTINUOUS
 62
     7
100
AcDbLine
 10
2.8012374135
 20
7.4490293721
 30
0.0
 11
2.7948250798
 21
7.4554417058
 31
0.0
  0
LINE
  5
177
330
1F
100
AcDbEntity
  8
0
  6
CONTINUOUS
 62
     7
100
AcDbLine
 10
2.5986046073
 20
7.4554417058
 30
0.0
 11
2.5921920727
 21
7.4490291712
 31
0.0
  0
LINE
  5
178
330
1F
100
AcDbEntity
  8
0
  6
CONTINUOUS
 62
     7
100
AcDbLine
 10
4.4777384656
 20
5.8806385562
 30
0.0
 11
4.4777384656
 21
7.4554417058
 31
0.0
  0
LINE
  5
179
330
1F
100
AcDbEntity
  8
0
  6
CONTINUOUS
 62
     7
100
AcDbLine
 10
2.1755337412
 20
7.4554417058
 30
0.0
 11
2.1755337412
 21
5.8806385562
 31
0.0
  0
SPLINE
  5
17A
330
1F
100
AcDbEntity
  8
0
  6
CONTINUOUS
 62
     7
100
AcDbSpline
210
0.0
220
0.0
230
1.0
 70
     8
 71
     3
 72
    31
 73
    27
 74
     0
 42
0.00000001
 43
0.00000001
 40
-0.1261202054355338
 40
-0.0836798205600873
 40
-0.042611908107721
 40
0.0
 40
0.0426216130868988
 40
0.0836913141793738
 40
0.126119517897924
 40
0.1682793248177779
 40
0.2084855799152699
 40
0.2499067927967568
 40
0.2913619713114949
 40
0.3316224479920911
 40
0.3738581062766598
 40
0.4162626079443968
 40
0.4573352864400308
 40
0.4999972665413454
 40
0.5426396366315094
 40
0.583726847952384
 40
0.6261788426281928
 40
0.6683249926213208
 40
0.7085632764787311
 40
0.75005552298307
 40
0.7914450068358015
 40
0.8316605972581218
 40
0.8738797945644662
 40
0.9163201794399127
 40
0.957388091892279
 40
1.0
 40
1.042621613086899
 40
1.083691314179374
 40
1.126119517897924
 10
3.816325888344664
 20
6.629474852174376
 30
0.0
 10
3.812028843108232
 20
6.668043565292367
 30
0.0
 10
3.816342820136532
 20
6.706610034320098
 30
0.0
 10
3.830821733759087
 20
6.74260418649117
 30
0.0
 10
3.854287303957218
 20
6.773063970053071
 30
0.0
 10
3.883819685235197
 20
6.797272209452877
 30
0.0
 10
3.918882382476728
 20
6.812231321371052
 30
0.0
 10
3.956481948086286
 20
6.816676144614978
 30
0.0
 10
3.9941019262982
 20
6.812252656393504
 30
0.0
 10
4.029217807119672
 20
6.797291846562326
 30
0.0
 10
4.058800753554346
 20
6.773094740271976
 30
0.0
 10
4.082304218872014
 20
6.742639947233132
 30
0.0
 10
4.096781200630746
 20
6.706635985590487
 30
0.0
 10
4.101085701094222
 20
6.668046104233266
 30
0.0
 10
4.096781829326101
 20
6.629450363553833
 30
0.0
 10
4.08228718258438
 20
6.593440252674108
 30
0.0
 10
4.058800508776253
 20
6.562984835381691
 30
0.0
 10
4.029235928159018
 20
6.538793302914342
 30
0.0
 10
3.994135460733941
 20
6.523857599182078
 30
0.0
 10
3.956527898526075
 20
6.519404903940637
 30
0.0
 10
3.918916820881269
 20
6.523815245481626
 30
0.0
 10
3.883844867360541
 20
6.538786933288919
 30
0.0
 10
3.854294573633451
 20
6.563010008089574
 30
0.0
 10
3.830806276869478
 20
6.593479217935725
 30
0.0
 10
3.816325888344664
 20
6.629474852174376
 30
0.0
 10
3.812028843108232
 20
6.668043565292367
 30
0.0
 10
3.816342820136532
 20
6.706610034320098
 30
0.0
  0
SPLINE
  5
17B
330
1F
100
AcDbEntity
  8
0
  6
CONTINUOUS
 62
     7
100
AcDbSpline
210
0.0
220
0.0
230
1.0
 70
     8
 71
     3
 72
    31
 73
    27
 74
     0
 42
0.00000001
 43
0.00000001
 40
-0.1261202054355115
 40
-0.0836798205599727
 40
-0.0426119081076066
 40
0.0
 40
0.0426216130868417
 40
0.0836913141793167
 40
0.1261195178979127
 40
0.168279324817723
 40
0.2084855799152158
 40
0.2499067927967573
 40
0.2913619713113301
 40
0.3316224479919266
 40
0.373858106276625
 40
0.4162626079441461
 40
0.4573352864397798
 40
0.4999972665413282
 40
0.5426396366313854
 40
0.5837268479522602
 40
0.6261788426281826
 40
0.6683249926212771
 40
0.7085632764786877
 40
0.7500555229830691
 40
0.7914450068359102
 40
0.8316605972582304
 40
0.8738797945644885
 40
0.9163201794400273
 40
0.9573880918923934
 40
1.0
 40
1.042621613086842
 40
1.083691314179317
 40
1.126119517897913
 10
2.556483368659636
 20
6.629474852174446
 30
0.0
 10
2.55218632342319
 20
6.668043565292384
 30
0.0
 10
2.5565003004515
 20
6.706610034320064
 30
0.0
 10
2.570979214074062
 20
6.742604186491126
 30
0.0
 10
2.59444478427216
 20
6.773063970053048
 30
0.0
 10
2.623977165550114
 20
6.79727220945289
 30
0.0
 10
2.659039862791655
 20
6.812231321371054
 30
0.0
 10
2.69663942840118
 20
6.816676144614979
 30
0.0
 10
2.734259406613059
 20
6.812252656393488
 30
0.0
 10
2.7693752874345
 20
6.797291846562286
 30
0.0
 10
2.798958233869229
 20
6.773094740272056
 30
0.0
 10
2.822461699186975
 20
6.742639947233293
 30
0.0
 10
2.836938680945664
 20
6.706635985590622
 30
0.0
 10
2.84124318140918
 20
6.668046104233373
 30
0.0
 10
2.836939309641114
 20
6.62945036355389
 30
0.0
 10
2.822444662899367
 20
6.593440252674171
 30
0.0
 10
2.798957989091244
 20
6.562984835381725
 30
0.0
 10
2.769393408474011
 20
6.538793302914332
 30
0.0
 10
2.734292941048926
 20
6.523857599182074
 30
0.0
 10
2.696685378841014
 20
6.519404903940639
 30
0.0
 10
2.659074301196162
 20
6.523815245481616
 30
0.0
 10
2.624002347675414
 20
6.538786933288894
 30
0.0
 10
2.594452053948371
 20
6.563010008089617
 30
0.0
 10
2.570963757184465
 20
6.593479217935815
 30
0.0
 10
2.556483368659636
 20
6.629474852174446
 30
0.0
 10
2.55218632342319
 20
6.668043565292384
 30
0.0
 10
2.5565003004515
 20
6.706610034320064
 30
0.0
  0
ARC
  5
17C
330
1F
100
AcDbEntity
  8
0
  6
CONTINUOUS
 62
     7
100
AcDbCircle
 10
3.9565573632
 20
8.1882550206
 30
0.0
 40
0.7466498695393728
100
AcDbArc
 50
258.9524472188
 51
281.0475527812
  0
ARC
  5
17D
330
1F
100
AcDbEntity
  8
0
  6
CONTINUOUS
 62
     7
100
AcDbCircle
 10
2.6967148435
 20
8.1882550206
 30
0.0
 40
0.746649869539812
100
AcDbArc
 50
258.9524472188
 51
281.0475527812
  0
SPLINE
  5
17E
330
1F
100
AcDbEntity
  8
0
  6
CONTINUOUS
 62
     7
100
AcDbSpline
210
0.0
220
0.0
230
1.0
 70
     8
 71
     3
 72
    29
 73
    25
 74
     0
 42
0.00000001
 43
0.00000001
 40
-0.0881771917844472
 40
-0.0548960641923674
 40
-0.0255118522834293
 40
0.0
 40
0.0349098082171367
 40
0.0766195181141593
 40
0.125167297287657
 40
0.1740298805796404
 40
0.2157098588205758
 40
0.2502429678047923
 40
0.3045973451716806
 40
0.3749224006845886
 40
0.4235556238877933
 40
0.4652860545297353
 40
0.5001514010349198
 40
0.5548003641185028
 40
0.6248326997703365
 40
0.6737239267555604
 40
0.715432015612565
 40
0.749992479323071
 40
0.8043168013534044
 40
0.8746297963046867
 40
0.9118228082155528
 40
0.9451039358076326
 40
0.9744881477165707
 40
1.0
 40
1.034909808217137
 40
1.076619518114159
 40
1.125167297287657
 10
3.839538682195622
 20
6.68792681635448
 30
0.0
 10
3.8377521917324
 20
6.665719794364528
 30
0.0
 10
3.840536856812627
 20
6.640431083325661
 30
0.0
 10
3.851252219736188
 20
6.611129112060876
 30
0.0
 10
3.871797884986107
 20
6.583156990870793
 30
0.0
 10
3.899791008912494
 20
6.56264353182043
 30
0.0
 10
3.929099167757662
 20
6.551999161861919
 30
0.0
 10
3.961395553261157
 20
6.548457338382137
 30
0.0
 10
4.000931559739103
 20
6.555232940797969
 30
0.0
 10
4.03818226072562
 20
6.578839252808493
 30
0.0
 10
4.061857410468923
 20
6.611123528754788
 30
0.0
 10
4.072581674925274
 20
6.640455006880522
 30
0.0
 10
4.076159935871014
 20
6.672920571744253
 30
0.0
 10
4.069313774824916
 20
6.712541704362605
 30
0.0
 10
4.045627076550002
 20
6.749803613651454
 30
0.0
 10
4.013318879517129
 20
6.773433580774026
 30
0.0
 10
3.983984832511064
 20
6.784092192866215
 30
0.0
 10
3.951680451987033
 20
6.787619311005347
 30
0.0
 10
3.912157793781707
 20
6.780840343366531
 30
0.0
 10
3.87735094622434
 20
6.758755185020742
 30
0.0
 10
3.855762342465863
 20
6.73142070271765
 30
0.0
 10
3.845001238437461
 20
6.709108260228035
 30
0.0
 10
3.839538682195622
 20
6.68792681635448
 30
0.0
 10
3.8377521917324
 20
6.665719794364528
 30
0.0
 10
3.840536856812627
 20
6.640431083325661
 30
0.0
  0
LINE
  5
17F
330
1F
100
AcDbEntity
  8
0
  6
CONTINUOUS
 62
     7
100
AcDbLine
 10
2.5786046073
 20
6.668040131
 30
0.0
 11
2.5799505504
 21
6.6513153035
 31
0.0
  0
SPLINE
  5
180
330
1F
100
AcDbEntity
  8
0
  6
CONTINUOUS
 62
     7
100
AcDbSpline
210
0.0
220
0.0
230
1.0
 70
     8
 71
     3
 72
     9
 73
     5
 74
     0
 42
0.00000001
 43
0.00000001
 40
0.0
 40
0.0
 40
0.0
 40
0.0
 40
0.6674357605451582
 40
1.0
 40
1.0
 40
1.0
 40
1.0
 10
2.814825069829433
 20
6.668040050287868
 30
0.0
 10
2.814677112611693
 20
6.674381005551147
 30
0.0
 10
2.814455432524281
 20
6.6838814783129
 30
0.0
 10
2.81183733283624
 20
6.692959558980148
 30
0.0
 10
2.81096664650467
 20
6.695978603972962
 30
0.0
  0
LINE
  5
181
330
1F
100
AcDbEntity
  8
0
  6
CONTINUOUS
 62
     7
100
AcDbLine
 10
2.579530858
 20
6.6795790347
 30
0.0
 11
2.5786046073
 21
6.668040131
 31
0.0
  0
LINE
  5
182
330
1F
100
AcDbEntity
  8
0
  6
CONTINUOUS
 62
     7
100
AcDbLine
 10
2.1455337412
 20
5.9106385562
 30
0.0
 11
2.1455337412
 21
7.4254417058
 31
0.0
  0
LINE
  5
183
330
1F
100
AcDbEntity
  8
0
  6
CONTINUOUS
 62
     7
100
AcDbLine
 10
4.5077384656
 20
7.4254417058
 30
0.0
 11
4.5077384656
 21
5.9106385562
 31
0.0
  0
LINE
  5
184
330
1F
100
AcDbEntity
  8
0
  6
CONTINUOUS
 62
     7
100
AcDbLine
 10
3.858447127
 20
7.4554417058
 30
0.0
 11
4.0546675994
 21
7.4554417058
 31
0.0
  0
LINE
  5
185
330
1F
100
AcDbEntity
  8
0
  6
CONTINUOUS
 62
     7
100
AcDbLine
 10
2.7948250798
 20
7.4554417058
 30
0.0
 11
2.5986046073
 21
7.4554417058
 31
0.0
  0
CIRCLE
  5
186
330
1F
100
AcDbEntity
  8
0
  6
CONTINUOUS
 62
     7
100
AcDbCircle
 10
3.9565573632
 20
6.668040131
 30
0.0
 40
0.0981102362204722
  0
LINE
  5
187
330
1F
100
AcDbEntity
  8
0
  6
CONTINUOUS
 62
     7
100
AcDbLine
 10
3.9565573632
 20
6.7362311077
 30
0.0
 11
3.8975022451
 21
6.7021356194
 31
0.0
  0
LINE
  5
188
330
1F
100
AcDbEntity
  8
0
  6
CONTINUOUS
 62
     7
100
AcDbLine
 10
3.8975022451
 20
6.7021356194
 30
0.0
 11
3.8975022451
 21
6.6339446427
 31
0.0
  0
LINE
  5
189
330
1F
100
AcDbEntity
  8
0
  6
CONTINUOUS
 62
     7
100
AcDbLine
 10
3.8975022451
 20
6.6339446427
 30
0.0
 11
3.9565573632
 21
6.5998491544
 31
0.0
  0
LINE
  5
18A
330
1F
100
AcDbEntity
  8
0
  6
CONTINUOUS
 62
     7
100
AcDbLine
 10
3.9565573632
 20
6.5998491544
 30
0.0
 11
4.0156124813
 21
6.6339446427
 31
0.0
  0
LINE
  5
18B
330
1F
100
AcDbEntity
  8
0
  6
CONTINUOUS
 62
     7
100
AcDbLine
 10
4.0156124813
 20
6.6339446427
 30
0.0
 11
4.0156124813
 21
6.7021356194
 31
0.0
  0
LINE
  5
18C
330
1F
100
AcDbEntity
  8
0
  6
CONTINUOUS
 62
     7
100
AcDbLine
 10
4.0156124813
 20
6.7021356194
 30
0.0
 11
3.9565573632
 21
6.7362311077
 31
0.0
  0
CIRCLE
  5
18D
330
1F
100
AcDbEntity
  8
0
  6
CONTINUOUS
 62
     7
100
AcDbCircle
 10
3.9565573632
 20
6.668040131
 30
0.0
 40
0.1181102362204722
  0
CIRCLE
  5
18E
330
1F
100
AcDbEntity
  8
0
  6
CONTINUOUS
 62
     7
100
AcDbCircle
 10
2.6967148435
 20
6.668040131
 30
0.0
 40
0.0981102362204722
  0
LINE
  5
18F
330
1F
100
AcDbEntity
  8
0
  6
CONTINUOUS
 62
     7
100
AcDbLine
 10
2.6376597254
 20
6.6339446427
 30
0.0
 11
2.6376597254
 21
6.7021356194
 31
0.0
  0
LINE
  5
190
330
1F
100
AcDbEntity
  8
0
  6
CONTINUOUS
 62
     7
100
AcDbLine
 10
2.6967148435
 20
6.5998491544
 30
0.0
 11
2.6376597254
 21
6.6339446427
 31
0.0
  0
LINE
  5
191
330
1F
100
AcDbEntity
  8
0
  6
CONTINUOUS
 62
     7
100
AcDbLine
 10
2.7557699617
 20
6.6339446427
 30
0.0
 11
2.6967148435
 21
6.5998491544
 31
0.0
  0
LINE
  5
192
330
1F
100
AcDbEntity
  8
0
  6
CONTINUOUS
 62
     7
100
AcDbLine
 10
2.7557699617
 20
6.7021356194
 30
0.0
 11
2.7557699617
 21
6.6339446427
 31
0.0
  0
LINE
  5
193
330
1F
100
AcDbEntity
  8
0
  6
CONTINUOUS
 62
     7
100
AcDbLine
 10
2.6967148435
 20
6.7362311077
 30
0.0
 11
2.7557699617
 21
6.7021356194
 31
0.0
  0
LINE
  5
194
330
1F
100
AcDbEntity
  8
0
  6
CONTINUOUS
 62
     7
100
AcDbLine
 10
2.6376597254
 20
6.7021356194
 30
0.0
 11
2.6967148435
 21
6.7362311077
 31
0.0
  0
CIRCLE
  5
195
330
1F
100
AcDbEntity
  8
0
  6
CONTINUOUS
 62
     7
100
AcDbCircle
 10
2.6967148435
 20
6.668040131
 30
0.0
 40
0.1181102362204727
  0
SPLINE
  5
196
330
1F
100
AcDbEntity
  8
0
  6
HIDDEN
 62
     7
100
AcDbSpline
210
0.0
220
0.0
230
1.0
 70
     8
 71
     3
 72
    12
 73
     8
 74
     0
 42
0.00000001
 43
0.00000001
 40
0.0
 40
0.0
 40
0.0
 40
0.0
 40
0.0001500569485006
 40
0.2541008302195648
 40
0.4989224888799629
 40
0.744337366298036
 40
1.0
 40
1.0
 40
1.0
 40
1.0
 10
4.057696195848721
 20
7.448533086818271
 30
0.0
 10
4.057700560533571
 20
7.448533630263914
 30
0.0
 10
4.065091554786924
 20
7.449453880811996
 30
0.0
 10
4.076394607404537
 20
7.451268448232851
 30
0.0
 10
4.090075559320337
 20
7.453521761895455
 30
0.0
 10
4.098206429178818
 20
7.455124157649502
 30
0.0
 10
4.099151119139744
 20
7.455334423036914
 30
0.0
 10
4.099633124254885
 20
7.455441705845518
 30
0.0
  0
SPLINE
  5
197
330
1F
100
AcDbEntity
  8
0
  6
HIDDEN
 62
     7
100
AcDbSpline
210
0.0
220
0.0
230
1.0
 70
     8
 71
     3
 72
    12
 73
     8
 74
     0
 42
0.00000001
 43
0.00000001
 40
0.0
 40
0.0
 40
0.0
 40
0.0
 40
0.0001500569484951
 40
0.2541008302182501
 40
0.4989224888782369
 40
0.7443373662967859
 40
1.0
 40
1.0
 40
1.0
 40
1.0
 10
2.797853676163681
 20
7.448533086818271
 30
0.0
 10
2.797858040848531
 20
7.448533630263914
 30
0.0
 10
2.805249035101879
 20
7.449453880811999
 30
0.0
 10
2.816552087719423
 20
7.451268448232836
 30
0.0
 10
2.830233039635199
 20
7.453521761895446
 30
0.0
 10
2.838363909493688
 20
7.455124157649498
 30
0.0
 10
2.839308599454673
 20
7.455334423036912
 30
0.0
 10
2.839790604569846
 20
7.455441705845518
 30
0.0
  0
ARC
  5
198
330
1F
100
AcDbEntity
  8
0
  6
HIDDEN
 62
     7
100
AcDbCircle
 10
2.6967999106
 20
6.6679338628
 30
0.0
 40
0.118025207027182
100
AcDbArc
 50
188.0944406045
 51
0.0515491302
  0
SPLINE
  5
199
330
1F
100
AcDbEntity
  8
0
  6
HIDDEN
 62
     7
100
AcDbSpline
210
0.0
220
0.0
230
1.0
 70
     8
 71
     3
 72
    22
 73
    18
 74
     0
 42
0.00000001
 43
0.00000001
 40
0.0
 40
0.0
 40
0.0
 40
0.0
 40
0.0372599104712766
 40
0.1116369728806725
 40
0.1947728795975912
 40
0.2783830572818237
 40
0.3529110051971932
 40
0.4183882181951595
 40
0.4748681114064292
 40
0.5312987947638499
 40
0.5967351812363151
 40
0.6712311470275174
 40
0.7548177229479593
 40
0.8379087496542772
 40
0.9122617832301897
 40
0.9779102661132125
 40
0.9999999999999999
 40
0.9999999999999999
 40
0.9999999999999999
 40
0.9999999999999999
 10
2.81096664650467
 20
6.695978603972962
 30
0.0
 10
2.810049080360584
 20
6.699996620446433
 30
0.0
 10
2.807299897513713
 20
6.71203527514016
 30
0.0
 10
2.797376115683869
 20
6.731366726517063
 30
0.0
 10
2.780978363491504
 20
6.752383753343929
 30
0.0
 10
2.759924599562216
 20
6.768950215156864
 30
0.0
 10
2.737560279691367
 20
6.779676866676764
 30
0.0
 10
2.716428804203213
 20
6.785081752220568
 30
0.0
 10
2.696686629538446
 20
6.786647395776737
 30
0.0
 10
2.676948818945869
 20
6.785072350732202
 30
0.0
 10
2.655836403530387
 20
6.779662170780571
 30
0.0
 10
2.633468258255852
 20
6.768937801852952
 30
0.0
 10
2.6124980617369
 20
6.752359293300811
 30
0.0
 10
2.595848532286895
 20
6.731405422875476
 30
0.0
 10
2.585320323481234
 20
6.709082222004817
 30
0.0
 10
2.580278233277117
 20
6.691710195296507
 30
0.0
 10
2.579681177881382
 20
6.682018979219046
 30
0.0
 10
2.579530858040234
 20
6.679579034664984
 30
0.0
  0
LINE
  5
19A
330
1F
100
AcDbEntity
  8
0
  6
HIDDEN
 62
     7
100
AcDbLine
 10
3.4266361034
 20
6.8948905247
 30
0.0
 11
3.4266361034
 21
6.4411897373
 31
0.0
  0
LINE
  5
19B
330
1F
100
AcDbEntity
  8
0
  6
HIDDEN
 62
     7
100
AcDbLine
 10
3.2266361034
 20
6.8948905247
 30
0.0
 11
3.2266361034
 21
6.4411897373
 31
0.0
  0
ARC
  5
19C
330
1F
100
AcDbEntity
  8
0
  6
HIDDEN
 62
     7
100
AcDbCircle
 10
2.6967036237
 20
7.0393549907
 30
0.0
 40
0.2106780187214604
100
AcDbArc
 50
235.9050235648
 51
304.0379357107
  0
ARC
  5
19D
330
1F
100
AcDbEntity
  8
0
  6
HIDDEN
 62
     7
100
AcDbCircle
 10
3.9565461434
 20
7.0393549907
 30
0.0
 40
0.2106780187214601
100
AcDbArc
 50
235.9050235648
 51
304.0379357107
  0
SPLINE
  5
19E
330
1F
100
AcDbEntity
  8
0
  6
HIDDEN
 62
     7
100
AcDbSpline
210
0.0
220
0.0
230
1.0
 70
     8
 71
     3
 72
    24
 73
    20
 74
     0
 42
0.00000001
 43
0.00000001
 40
0.0
 40
0.0
 40
0.0
 40
0.0
 40
0.0510059562449175
 40
0.1096476218550661
 40
0.1759737576022516
 40
0.2500143360402025
 40
0.3245927752323139
 40
0.3910688864024462
 40
0.4494708896905828
 40
0.4998467378733312
 40
0.5502493209493685
 40
0.6086854235282164
 40
0.675202992425587
 40
0.7498302280357986
 40
0.8240114133682613
 40
0.8904052478755113
 40
0.9490413796308443
 40
0.99996841185907
 40
1.0
 40
1.0
 40
1.0
 40
1.0
 10
3.8384471270066
 20
7.433674124958278
 30
0.0
 10
3.83874429026618
 20
7.43358055141837
 30
0.0
 10
3.839383102811115
 20
7.433379396163671
 30
0.0
 10
3.845069760198114
 20
7.432006000231995
 30
0.0
 10
3.855749133620266
 20
7.429916668876979
 30
0.0
 10
3.872341355260835
 20
7.426951622167397
 30
0.0
 10
3.893306050882751
 20
7.423986352405644
 30
0.0
 10
3.915663452519945
 20
7.421855630480721
 30
0.0
 10
3.936773146926358
 20
7.420535404364802
 30
0.0
 10
3.956508792067662
 20
7.420025878413897
 30
0.0
 10
3.976249898115843
 20
7.420533721030433
 30
0.0
 10
3.997376976782964
 20
7.421852758933525
 30
0.0
 10
4.019751687199757
 20
7.423981266047612
 30
0.0
 10
4.040762740118316
 20
7.426951034201416
 30
0.0
 10
4.05732233045337
 20
7.429901109942747
 30
0.0
 10
4.068192324622841
 20
7.432045934577577
 30
0.0
 10
4.073305842106175
 20
7.433255690273715
 30
0.0
 10
4.07517201900406
 20
7.43381376997832
 30
0.0
 10
4.074666973841819
 20
7.433673951771138
 30
0.0
 10
4.074666660775303
 20
7.433673865100872
 30
0.0
  0
SPLINE
  5
19F
330
1F
100
AcDbEntity
  8
0
  6
HIDDEN
 62
     7
100
AcDbSpline
210
0.0
220
0.0
230
1.0
 70
     8
 71
     3
 72
    24
 73
    20
 74
     0
 42
0.00000001
 43
0.00000001
 40
0.0
 40
0.0
 40
0.0
 40
0.0
 40
0.0510059562450029
 40
0.109647621855179
 40
0.1759737576023336
 40
0.250014336040196
 40
0.3245927752327804
 40
0.3910688864030701
 40
0.4494708896910473
 40
0.499846737873321
 40
0.5502493209509871
 40
0.6086854235303767
 40
0.6752029924272039
 40
0.7498302280357925
 40
0.8240114133672014
 40
0.890405247874098
 40
0.9490413796297829
 40
0.9999684118590692
 40
1.0
 40
1.0
 40
1.0
 40
1.0
 10
2.57860460732156
 20
7.433674124958278
 30
0.0
 10
2.578901770581141
 20
7.43358055141837
 30
0.0
 10
2.579540583126078
 20
7.433379396163671
 30
0.0
 10
2.585227240513087
 20
7.432006000231996
 30
0.0
 10
2.595906613935242
 20
7.42991666887698
 30
0.0
 10
2.61249883557584
 20
7.426951622167391
 30
0.0
 10
2.633463531197824
 20
7.423986352405624
 30
0.0
 10
2.65582093283509
 20
7.421855630480692
 30
0.0
 10
2.676930627241456
 20
7.420535404364774
 30
0.0
 10
2.696666272382882
 20
7.420025878413898
 30
0.0
 10
2.716407378431276
 20
7.420533721030456
 30
0.0
 10
2.737534457098564
 20
7.421852758933544
 30
0.0
 10
2.759909167515108
 20
7.423981266047621
 30
0.0
 10
2.780920220433297
 20
7.426951034201418
 30
0.0
 10
2.797479810768149
 20
7.429901109942775
 30
0.0
 10
2.808349804937639
 20
7.432045934577536
 30
0.0
 10
2.813463322421119
 20
7.433255690273877
 30
0.0
 10
2.81532949931899
 20
7.433813769978034
 30
0.0
 10
2.81482445415678
 20
7.43367395177114
 30
0.0
 10
2.814824141090263
 20
7.433673865100872
 30
0.0
  0
LINE
  5
1A0
330
1F
100
AcDbEntity
  8
0
  6
HIDDEN
 62
     7
100
AcDbLine
 10
4.0746675994
 20
7.4354417058
 30
0.0
 11
3.838447127
 21
7.4354417058
 31
0.0
  0
LINE
  5
1A1
330
1F
100
AcDbEntity
  8
0
  6
HIDDEN
 62
     7
100
AcDbLine
 10
3.838447127
 20
6.8848905247
 30
0.0
 11
4.0746675994
 21
6.8848905247
 31
0.0
  0
LINE
  5
1A2
330
1F
100
AcDbEntity
  8
0
  6
HIDDEN
 62
     7
100
AcDbLine
 10
4.0546675994
 20
6.8648905247
 30
0.0
 11
3.858447127
 21
6.8648905247
 31
0.0
  0
LINE
  5
1A3
330
1F
100
AcDbEntity
  8
0
  6
HIDDEN
 62
     7
100
AcDbLine
 10
3.9565573632
 20
7.3373314696
 30
0.0
 11
3.9565573632
 21
7.4554417058
 31
0.0
  0
LINE
  5
1A4
330
1F
100
AcDbEntity
  8
0
  6
HIDDEN
 62
     7
100
AcDbLine
 10
3.9565573632
 20
7.3373314696
 30
0.0
 11
4.0156124813
 21
7.3373314696
 31
0.0
  0
LINE
  5
1A5
330
1F
100
AcDbEntity
  8
0
  6
HIDDEN
 62
     7
100
AcDbLine
 10
3.8975022451
 20
7.3373314696
 30
0.0
 11
3.9565573632
 21
7.3373314696
 31
0.0
  0
LINE
  5
1A6
330
1F
100
AcDbEntity
  8
0
  6
HIDDEN
 62
     7
100
AcDbLine
 10
3.8975022451
 20
7.3373314696
 30
0.0
 11
3.8975022451
 21
7.4554417058
 31
0.0
  0
LINE
  5
1A7
330
1F
100
AcDbEntity
  8
0
  6
HIDDEN
 62
     7
100
AcDbLine
 10
4.0156124813
 20
7.3373314696
 30
0.0
 11
4.0156124813
 21
7.4554417058
 31
0.0
  0
LINE
  5
1A8
330
1F
100
AcDbEntity
  8
0
  6
HIDDEN
 62
     7
100
AcDbLine
 10
2.5786046073
 20
7.4354417058
 30
0.0
 11
2.8148250798
 21
7.4354417058
 31
0.0
  0
LINE
  5
1A9
330
1F
100
AcDbEntity
  8
0
  6
HIDDEN
 62
     7
100
AcDbLine
 10
2.8148250798
 20
6.8848905247
 30
0.0
 11
2.5786046073
 21
6.8848905247
 31
0.0
  0
LINE
  5
1AA
330
1F
100
AcDbEntity
  8
0
  6
HIDDEN
 62
     7
100
AcDbLine
 10
2.5986046073
 20
6.8648905247
 30
0.0
 11
2.7948250798
 21
6.8648905247
 31
0.0
  0
LINE
  5
1AB
330
1F
100
AcDbEntity
  8
0
  6
HIDDEN
 62
     7
100
AcDbLine
 10
2.6967148435
 20
7.3373314696
 30
0.0
 11
2.6967148435
 21
7.4554417058
 31
0.0
  0
LINE
  5
1AC
330
1F
100
AcDbEntity
  8
0
  6
HIDDEN
 62
     7
100
AcDbLine
 10
2.6967148435
 20
7.3373314696
 30
0.0
 11
2.6376597254
 21
7.3373314696
 31
0.0
  0
LINE
  5
1AD
330
1F
100
AcDbEntity
  8
0
  6
HIDDEN
 62
     7
100
AcDbLine
 10
2.7557699617
 20
7.3373314696
 30
0.0
 11
2.6967148435
 21
7.3373314696
 31
0.0
  0
LINE
  5
1AE
330
1F
100
AcDbEntity
  8
0
  6
HIDDEN
 62
     7
100
AcDbLine
 10
2.7557699617
 20
7.3373314696
 30
0.0
 11
2.7557699617
 21
7.4554417058
 31
0.0
  0
LINE
  5
1AF
330
1F
100
AcDbEntity
  8
0
  6
HIDDEN
 62
     7
100
AcDbLine
 10
2.6376597254
 20
7.3373314696
 30
0.0
 11
2.6376597254
 21
7.4554417058
 31
0.0
  0
LINE
  5
1B0
330
1F
100
AcDbEntity
  8
0
  6
HIDDEN
 62
     7
100
AcDbLine
 10
2.1455337412
 20
6.4411897373
 30
0.0
 11
2.1755337412
 21
6.4711897373
 31
0.0
  0
LINE
  5
1B1
330
1F
100
AcDbEntity
  8
0
  6
HIDDEN
 62
     7
100
AcDbLine
 10
2.1755337412
 20
6.8648905247
 30
0.0
 11
2.1455337412
 21
6.8948905247
 31
0.0
  0
LINE
  5
1B2
330
1F
100
AcDbEntity
  8
0
  6
HIDDEN
 62
     7
100
AcDbLine
 10
3.4266361034
 20
6.8948905247
 30
0.0
 11
3.2266361034
 21
6.8948905247
 31
0.0
  0
LINE
  5
1B3
330
1F
100
AcDbEntity
  8
0
  6
HIDDEN
 62
     7
100
AcDbLine
 10
3.2266361034
 20
6.4411897373
 30
0.0
 11
3.4266361034
 21
6.4411897373
 31
0.0
  0
LINE
  5
1B4
330
1F
100
AcDbEntity
  8
0
  6
HIDDEN
 62
     7
100
AcDbLine
 10
4.5077384656
 20
6.8948905247
 30
0.0
 11
4.4777384656
 21
6.8648905247
 31
0.0
  0
LINE
  5
1B5
330
1F
100
AcDbEntity
  8
0
  6
HIDDEN
 62
     7
100
AcDbLine
 10
4.4777384656
 20
6.4711897373
 30
0.0
 11
4.5077384656
 21
6.4411897373
 31
0.0
  0
LINE
  5
1B6
330
1F
100
AcDbEntity
  8
0
  6
HIDDEN
 62
     7
100
AcDbLine
 10
2.5786046073
 20
6.8648905247
 30
0.0
 11
2.1755337412
 21
6.8648905247
 31
0.0
  0
LINE
  5
1B7
330
1F
100
AcDbEntity
  8
0
  6
HIDDEN
 62
     7
100
AcDbLine
 10
3.2266361034
 20
6.8648905247
 30
0.0
 11
2.8146288938
 21
6.8648905247
 31
0.0
  0
LINE
  5
1B8
330
1F
100
AcDbEntity
  8
0
  6
HIDDEN
 62
     7
100
AcDbLine
 10
2.1755337412
 20
6.4711897373
 30
0.0
 11
3.2266361034
 21
6.4711897373
 31
0.0
  0
LINE
  5
1B9
330
1F
100
AcDbEntity
  8
0
  6
HIDDEN
 62
     7
100
AcDbLine
 10
3.838447127
 20
6.8648905247
 30
0.0
 11
3.4266361034
 21
6.8648905247
 31
0.0
  0
LINE
  5
1BA
330
1F
100
AcDbEntity
  8
0
  6
HIDDEN
 62
     7
100
AcDbLine
 10
4.4777384656
 20
6.8648905247
 30
0.0
 11
4.0744714135
 21
6.8648905247
 31
0.0
  0
LINE
  5
1BB
330
1F
100
AcDbEntity
  8
0
  6
HIDDEN
 62
     7
100
AcDbLine
 10
3.4266361034
 20
6.4711897373
 30
0.0
 11
4.4777384656
 21
6.4711897373
 31
0.0
  0
LINE
  5
1BC
330
1F
100
AcDbEntity
  8
0
  6
HIDDEN
 62
     7
100
AcDbLine
 10
4.0746676012
 20
7.433674125
 30
0.0
 11
4.0996331264
 21
7.4554417059
 31
0.0
  0
LINE
  5
1BD
330
1F
100
AcDbEntity
  8
0
  6
HIDDEN
 62
     7
100
AcDbLine
 10
3.813481598
 20
7.4554417063
 30
0.0
 11
3.8384471235
 21
7.4336741254
 31
0.0
  0
LINE
  5
1BE
330
1F
100
AcDbEntity
  8
0
  6
HIDDEN
 62
     7
100
AcDbLine
 10
2.8148250815
 20
7.433674125
 30
0.0
 11
2.8397906067
 21
7.4554417059
 31
0.0
  0
LINE
  5
1BF
330
1F
100
AcDbEntity
  8
0
  6
HIDDEN
 62
     7
100
AcDbLine
 10
2.5536390783
 20
7.4554417063
 30
0.0
 11
2.5786046038
 21
7.4336741254
 31
0.0
  0
LINE
  5
1C0
330
1F
100
AcDbEntity
  8
0
  6
HIDDEN
 62
     7
100
AcDbLine
 10
2.8148250798
 20
6.8647731997
 30
0.0
 11
2.8148250798
 21
7.4336741204
 31
0.0
  0
LINE
  5
1C1
330
1F
100
AcDbEntity
  8
0
  6
HIDDEN
 62
     7
100
AcDbLine
 10
2.5786046073
 20
7.433674125
 30
0.0
 11
2.5786046073
 21
6.8648905247
 31
0.0
  0
LINE
  5
1C2
330
1F
100
AcDbEntity
  8
0
  6
HIDDEN
 62
     7
100
AcDbLine
 10
4.0746675994
 20
6.8647731997
 30
0.0
 11
4.0746675994
 21
7.4336741204
 31
0.0
  0
LINE
  5
1C3
330
1F
100
AcDbEntity
  8
0
  6
HIDDEN
 62
     7
100
AcDbLine
 10
3.838447127
 20
7.433674125
 30
0.0
 11
3.838447127
 21
6.8648905247
 31
0.0
  0
LINE
  5
1C4
330
1F
100
AcDbEntity
  8
0
  6
HIDDEN
 62
     7
100
AcDbLine
 10
4.0746675994
 20
7.4354417058
 30
0.0
 11
4.0610799332
 21
7.4490293721
 31
0.0
  0
LINE
  5
1C5
330
1F
100
AcDbEntity
  8
0
  6
HIDDEN
 62
     7
100
AcDbLine
 10
3.8520345923
 20
7.4490291712
 30
0.0
 11
3.838447127
 21
7.4354417058
 31
0.0
  0
LINE
  5
1C6
330
1F
100
AcDbEntity
  8
0
  6
HIDDEN
 62
     7
100
AcDbLine
 10
4.0746675994
 20
6.8848905247
 30
0.0
 11
4.0746675994
 21
7.4354417058
 31
0.0
  0
LINE
  5
1C7
330
1F
100
AcDbEntity
  8
0
  6
HIDDEN
 62
     7
100
AcDbLine
 10
3.838447127
 20
7.4354417058
 30
0.0
 11
3.838447127
 21
6.8848905247
 31
0.0
  0
LINE
  5
1C8
330
1F
100
AcDbEntity
  8
0
  6
HIDDEN
 62
     7
100
AcDbLine
 10
3.838447127
 20
6.8848905247
 30
0.0
 11
3.858447127
 21
6.8648905247
 31
0.0
  0
LINE
  5
1C9
330
1F
100
AcDbEntity
  8
0
  6
HIDDEN
 62
     7
100
AcDbLine
 10
4.0546675994
 20
6.8648905247
 30
0.0
 11
4.0746675994
 21
6.8848905247
 31
0.0
  0
LINE
  5
1CA
330
1F
100
AcDbEntity
  8
0
  6
HIDDEN
 62
     7
100
AcDbLine
 10
2.8148250798
 20
7.4354417058
 30
0.0
 11
2.8012374135
 21
7.4490293721
 31
0.0
  0
LINE
  5
1CB
330
1F
100
AcDbEntity
  8
0
  6
HIDDEN
 62
     7
100
AcDbLine
 10
2.5921920727
 20
7.4490291712
 30
0.0
 11
2.5786046073
 21
7.4354417058
 31
0.0
  0
LINE
  5
1CC
330
1F
100
AcDbEntity
  8
0
  6
HIDDEN
 62
     7
100
AcDbLine
 10
2.8148250798
 20
6.8848905247
 30
0.0
 11
2.8148250798
 21
7.4354417058
 31
0.0
  0
LINE
  5
1CD
330
1F
100
AcDbEntity
  8
0
  6
HIDDEN
 62
     7
100
AcDbLine
 10
2.5786046073
 20
7.4354417058
 30
0.0
 11
2.5786046073
 21
6.8848905247
 31
0.0
  0
LINE
  5
1CE
330
1F
100
AcDbEntity
  8
0
  6
HIDDEN
 62
     7
100
AcDbLine
 10
2.5786046073
 20
6.8848905247
 30
0.0
 11
2.5986046073
 21
6.8648905247
 31
0.0
  0
LINE
  5
1CF
330
1F
100
AcDbEntity
  8
0
  6
HIDDEN
 62
     7
100
AcDbLine
 10
2.7948250798
 20
6.8648905247
 30
0.0
 11
2.8148250798
 21
6.8848905247
 31
0.0
  0
LINE
  5
1D0
330
1F
100
AcDbEntity
  8
0
  6
CONTINUOUS
 62
     7
100
AcDbLine
 10
8.9847992821
 20
5.7348472233
 30
0.0
 11
9.0060090378
 21
5.7470953353
 31
0.0
  0
LINE
  5
1D1
330
1F
100
AcDbEntity
  8
0
  6
CONTINUOUS
 62
     7
100
AcDbLine
 10
9.5414857833
 20
6.6746687692
 30
0.0
 11
9.5414857833
 21
6.6991610126
 31
0.0
  0
LINE
  5
1D2
330
1F
100
AcDbEntity
  8
0
  6
CONTINUOUS
 62
     7
100
AcDbLine
 10
6.9631354255
 20
6.6355815641
 30
0.0
 11
8.5910399978
 21
5.695812258
 31
0.0
  0
LINE
  5
1D3
330
1F
100
AcDbEntity
  8
0
  6
CONTINUOUS
 62
     7
100
AcDbLine
 10
9.3783775826
 20
7.0596687342
 30
0.0
 11
7.7504730103
 21
7.9994380403
 31
0.0
  0
LINE
  5
1D4
330
1F
100
AcDbEntity
  8
0
  6
CONTINUOUS
 62
     7
100
AcDbLine
 10
7.356713726
 20
7.960403075
 30
0.0
 11
7.3355039703
 21
7.948154963
 31
0.0
  0
LINE
  5
1D5
330
1F
100
AcDbEntity
  8
0
  6
CONTINUOUS
 62
     7
100
AcDbLine
 10
6.8000272248
 20
7.0205815291
 30
0.0
 11
6.8000272248
 21
6.9960892857
 31
0.0
  0
LINE
  5
1D6
330
1F
100
AcDbEntity
  8
0
  6
CONTINUOUS
 62
     7
100
AcDbLine
 10
8.6997082179
 20
7.265308683
 30
0.0
 11
8.6855637844
 21
7.2734767449
 31
0.0
  0
LINE
  5
1D7
330
1F
100
AcDbEntity
  8
0
  6
CONTINUOUS
 62
     7
100
AcDbLine
 10
8.5467924126
 20
7.2734767449
 30
0.0
 11
8.532647979
 21
7.265308683
 31
0.0
  0
LINE
  5
1D8
330
1F
100
AcDbEntity
  8
0
  6
CONTINUOUS
 62
     7
100
AcDbLine
 10
8.7342883347
 20
7.2067878655
 30
0.0
 11
8.7342883347
 21
7.2171034409
 31
0.0
  0
LINE
  5
1D9
330
1F
100
AcDbEntity
  8
0
  6
CONTINUOUS
 62
     7
100
AcDbLine
 10
8.4980678623
 20
7.2171034409
 30
0.0
 11
8.4980678623
 21
7.210174889
 31
0.0
  0
LINE
  5
1DA
330
1F
100
AcDbEntity
  8
0
  6
CONTINUOUS
 62
     7
100
AcDbLine
 10
7.808865029
 20
7.7795815094
 30
0.0
 11
7.7947205955
 21
7.7877495713
 31
0.0
  0
LINE
  5
1DB
330
1F
100
AcDbEntity
  8
0
  6
CONTINUOUS
 62
     7
100
AcDbLine
 10
7.6559492237
 20
7.7877495713
 30
0.0
 11
7.6418047901
 21
7.7795815094
 31
0.0
  0
LINE
  5
1DC
330
1F
100
AcDbEntity
  8
0
  6
CONTINUOUS
 62
     7
100
AcDbLine
 10
7.8434451458
 20
7.7210606918
 30
0.0
 11
7.8434451458
 21
7.7313762673
 31
0.0
  0
LINE
  5
1DD
330
1F
100
AcDbEntity
  8
0
  6
CONTINUOUS
 62
     7
100
AcDbLine
 10
7.6072246734
 20
7.7313762673
 30
0.0
 11
7.6072246734
 21
7.7244477153
 31
0.0
  0
POLYLINE
  5
1DE
330
1F
100
AcDbEntity
  8
0
  6
CONTINUOUS
 62
     7
100
AcDb2dPolyline
 66
     1
 10
0.0
 20
0.0
 30
0.0
  0
VERTEX
  5
20A
330
1DE
100
AcDbEntity
  8
0
  6
CONTINUOUS
 62
     7
100
AcDbVertex
100
AcDb2dVertex
 10
9.5414857833
 20
6.6746687692
 30
0.0
  0
VERTEX
  5
20B
330
1DE
100
AcDbEntity
  8
0
  6
CONTINUOUS
 62
     7
100
AcDbVertex
100
AcDb2dVertex
 10
9.5407003328
 20
6.7076975083
 30
0.0
  0
VERTEX
  5
20C
330
1DE
100
AcDbEntity
  8
0
  6
CONTINUOUS
 62
     7
100
AcDbVertex
100
AcDb2dVertex
 10
9.5383462854
 20
6.7397225066
 30
0.0
  0
VERTEX
  5
20D
330
1DE
100
AcDbEntity
  8
0
  6
CONTINUOUS
 62
     7
100
AcDbVertex
100
AcDb2dVertex
 10
9.5344305457
 20
6.7706498293
 30
0.0
  0
VERTEX
  5
20E
330
1DE
100
AcDbEntity
  8
0
  6
CONTINUOUS
 62
     7
100
AcDbVertex
100
AcDb2dVertex
 10
9.5289645995
 20
6.8003887613
 30
0.0
  0
VERTEX
  5
20F
330
1DE
100
AcDbEntity
  8
0
  6
CONTINUOUS
 62
     7
100
AcDbVertex
100
AcDb2dVertex
 10
9.5219644791
 20
6.8288520731
 30
0.0
  0
VERTEX
  5
210
330
1DE
100
AcDbEntity
  8
0
  6
CONTINUOUS
 62
     7
100
AcDbVertex
100
AcDb2dVertex
 10
9.5134507172
 20
6.8559562769
 30
0.0
  0
VERTEX
  5
211
330
1DE
100
AcDbEntity
  8
0
  6
CONTINUOUS
 62
     7
100
AcDbVertex
100
AcDb2dVertex
 10
9.5034482862
 20
6.8816218715
 30
0.0
  0
VERTEX
  5
212
330
1DE
100
AcDbEntity
  8
0
  6
CONTINUOUS
 62
     7
100
AcDbVertex
100
AcDb2dVertex
 10
9.4919865248
 20
6.9057735752
 30
0.0
  0
VERTEX
  5
213
330
1DE
100
AcDbEntity
  8
0
  6
CONTINUOUS
 62
     7
100
AcDbVertex
100
AcDb2dVertex
 10
9.4790990523
 20
6.9283405469
 30
0.0
  0
VERTEX
  5
214
330
1DE
100
AcDbEntity
  8
0
  6
CONTINUOUS
 62
     7
100
AcDbVertex
100
AcDb2dVertex
 10
9.4648236701
 20
6.9492565938
 30
0.0
  0
VERTEX
  5
215
330
1DE
100
AcDbEntity
  8
0
  6
CONTINUOUS
 62
     7
100
AcDbVertex
100
AcDb2dVertex
 10
9.4492022501
 20
6.9684603655
 30
0.0
  0
VERTEX
  5
216
330
1DE
100
AcDbEntity
  8
0
  6
CONTINUOUS
 62
     7
100
AcDbVertex
100
AcDb2dVertex
 10
9.4322806128
 20
6.9858955341
 30
0.0
  0
VERTEX
  5
217
330
1DE
100
AcDbEntity
  8
0
  6
CONTINUOUS
 62
     7
100
AcDbVertex
100
AcDb2dVertex
 10
9.4141083922
 20
7.0015109592
 30
0.0
  0
VERTEX
  5
218
330
1DE
100
AcDbEntity
  8
0
  6
CONTINUOUS
 62
     7
100
AcDbVertex
100
AcDb2dVertex
 10
9.3947388905
 20
7.015260838
 30
0.0
  0
VERTEX
  5
219
330
1DE
100
AcDbEntity
  8
0
  6
CONTINUOUS
 62
     7
100
AcDbVertex
100
AcDb2dVertex
 10
9.3742289219
 20
7.0271048399
 30
0.0
  0
VERTEX
  5
21A
330
1DE
100
AcDbEntity
  8
0
  6
CONTINUOUS
 62
     7
100
AcDbVertex
100
AcDb2dVertex
 10
9.3526386457
 20
7.0370082243
 30
0.0
  0
VERTEX
  5
21B
330
1DE
100
AcDbEntity
  8
0
  6
CONTINUOUS
 62
     7
100
AcDbVertex
100
AcDb2dVertex
 10
9.3300313897
 20
7.0449419429
 30
0.0
  0
VERTEX
  5
21C
330
1DE
100
AcDbEntity
  8
0
  6
CONTINUOUS
 62
     7
100
AcDbVertex
100
AcDb2dVertex
 10
9.306473465
 20
7.0508827246
 30
0.0
  0
VERTEX
  5
21D
330
1DE
100
AcDbEntity
  8
0
  6
CONTINUOUS
 62
     7
100
AcDbVertex
100
AcDb2dVertex
 10
9.2820339711
 20
7.0548131443
 30
0.0
  0
VERTEX
  5
21E
330
1DE
100
AcDbEntity
  8
0
  6
CONTINUOUS
 62
     7
100
AcDbVertex
100
AcDb2dVertex
 10
9.2567845932
 20
7.0567216732
 30
0.0
  0
VERTEX
  5
21F
330
1DE
100
AcDbEntity
  8
0
  6
CONTINUOUS
 62
     7
100
AcDbVertex
100
AcDb2dVertex
 10
9.2307993921
 20
7.0566027134
 30
0.0
  0
VERTEX
  5
220
330
1DE
100
AcDbEntity
  8
0
  6
CONTINUOUS
 62
     7
100
AcDbVertex
100
AcDb2dVertex
 10
9.2041545868
 20
7.0544566137
 30
0.0
  0
VERTEX
  5
221
330
1DE
100
AcDbEntity
  8
0
  6
CONTINUOUS
 62
     7
100
AcDbVertex
100
AcDb2dVertex
 10
9.1769283311
 20
7.0502896691
 30
0.0
  0
VERTEX
  5
222
330
1DE
100
AcDbEntity
  8
0
  6
CONTINUOUS
 62
     7
100
AcDbVertex
100
AcDb2dVertex
 10
9.1492004844
 20
7.0441141019
 30
0.0
  0
VERTEX
  5
223
330
1DE
100
AcDbEntity
  8
0
  6
CONTINUOUS
 62
     7
100
AcDbVertex
100
AcDb2dVertex
 10
9.1210523772
 20
7.0359480261
 30
0.0
  0
VERTEX
  5
224
330
1DE
100
AcDbEntity
  8
0
  6
CONTINUOUS
 62
     7
100
AcDbVertex
100
AcDb2dVertex
 10
9.0925665728
 20
7.0258153943
 30
0.0
  0
VERTEX
  5
225
330
1DE
100
AcDbEntity
  8
0
  6
CONTINUOUS
 62
     7
100
AcDbVertex
100
AcDb2dVertex
 10
9.0638266249
 20
7.0137459271
 30
0.0
  0
VERTEX
  5
226
330
1DE
100
AcDbEntity
  8
0
  6
CONTINUOUS
 62
     7
100
AcDbVertex
100
AcDb2dVertex
 10
9.0349168327
 20
6.9997750264
 30
0.0
  0
VERTEX
  5
227
330
1DE
100
AcDbEntity
  8
0
  6
CONTINUOUS
 62
     7
100
AcDbVertex
100
AcDb2dVertex
 10
9.0059219936
 20
6.9839436713
 30
0.0
  0
VERTEX
  5
228
330
1DE
100
AcDbEntity
  8
0
  6
CONTINUOUS
 62
     7
100
AcDbVertex
100
AcDb2dVertex
 10
8.9769271546
 20
6.9662982978
 30
0.0
  0
VERTEX
  5
229
330
1DE
100
AcDbEntity
  8
0
  6
CONTINUOUS
 62
     7
100
AcDbVertex
100
AcDb2dVertex
 10
8.9480173624
 20
6.9468906629
 30
0.0
  0
VERTEX
  5
22A
330
1DE
100
AcDbEntity
  8
0
  6
CONTINUOUS
 62
     7
100
AcDbVertex
100
AcDb2dVertex
 10
8.9192774145
 20
6.9257776925
 30
0.0
  0
VERTEX
  5
22B
330
1DE
100
AcDbEntity
  8
0
  6
CONTINUOUS
 62
     7
100
AcDbVertex
100
AcDb2dVertex
 10
8.89079161
 20
6.9030213146
 30
0.0
  0
VERTEX
  5
22C
330
1DE
100
AcDbEntity
  8
0
  6
CONTINUOUS
 62
     7
100
AcDbVertex
100
AcDb2dVertex
 10
8.8626435028
 20
6.8786882776
 30
0.0
  0
VERTEX
  5
22D
330
1DE
100
AcDbEntity
  8
0
  6
CONTINUOUS
 62
     7
100
AcDbVertex
100
AcDb2dVertex
 10
8.8349156561
 20
6.8528499545
 30
0.0
  0
VERTEX
  5
22E
330
1DE
100
AcDbEntity
  8
0
  6
CONTINUOUS
 62
     7
100
AcDbVertex
100
AcDb2dVertex
 10
8.8076894005
 20
6.8255821334
 30
0.0
  0
VERTEX
  5
22F
330
1DE
100
AcDbEntity
  8
0
  6
CONTINUOUS
 62
     7
100
AcDbVertex
100
AcDb2dVertex
 10
8.7810445952
 20
6.7969647957
 30
0.0
  0
VERTEX
  5
230
330
1DE
100
AcDbEntity
  8
0
  6
CONTINUOUS
 62
     7
100
AcDbVertex
100
AcDb2dVertex
 10
8.755059394
 20
6.7670818809
 30
0.0
  0
VERTEX
  5
231
330
1DE
100
AcDbEntity
  8
0
  6
CONTINUOUS
 62
     7
100
AcDbVertex
100
AcDb2dVertex
 10
8.7298100161
 20
6.7360210407
 30
0.0
  0
VERTEX
  5
232
330
1DE
100
AcDbEntity
  8
0
  6
CONTINUOUS
 62
     7
100
AcDbVertex
100
AcDb2dVertex
 10
8.7053705222
 20
6.703873382
 30
0.0
  0
VERTEX
  5
233
330
1DE
100
AcDbEntity
  8
0
  6
CONTINUOUS
 62
     7
100
AcDbVertex
100
AcDb2dVertex
 10
8.6818125976
 20
6.6707331994
 30
0.0
  0
VERTEX
  5
234
330
1DE
100
AcDbEntity
  8
0
  6
CONTINUOUS
 62
     7
100
AcDbVertex
100
AcDb2dVertex
 10
8.6592053416
 20
6.6366976987
 30
0.0
  0
VERTEX
  5
235
330
1DE
100
AcDbEntity
  8
0
  6
CONTINUOUS
 62
     7
100
AcDbVertex
100
AcDb2dVertex
 10
8.6376150653
 20
6.6018667119
 30
0.0
  0
VERTEX
  5
236
330
1DE
100
AcDbEntity
  8
0
  6
CONTINUOUS
 62
     7
100
AcDbVertex
100
AcDb2dVertex
 10
8.6171050967
 20
6.5663424044
 30
0.0
  0
VERTEX
  5
237
330
1DE
100
AcDbEntity
  8
0
  6
CONTINUOUS
 62
     7
100
AcDbVertex
100
AcDb2dVertex
 10
8.5977355951
 20
6.5302289749
 30
0.0
  0
VERTEX
  5
238
330
1DE
100
AcDbEntity
  8
0
  6
CONTINUOUS
 62
     7
100
AcDbVertex
100
AcDb2dVertex
 10
8.5795633745
 20
6.4936323505
 30
0.0
  0
VERTEX
  5
239
330
1DE
100
AcDbEntity
  8
0
  6
CONTINUOUS
 62
     7
100
AcDbVertex
100
AcDb2dVertex
 10
8.5626417371
 20
6.4566598753
 30
0.0
  0
VERTEX
  5
23A
330
1DE
100
AcDbEntity
  8
0
  6
CONTINUOUS
 62
     7
100
AcDbVertex
100
AcDb2dVertex
 10
8.5470203172
 20
6.419419996
 30
0.0
  0
VERTEX
  5
23B
330
1DE
100
AcDbEntity
  8
0
  6
CONTINUOUS
 62
     7
100
AcDbVertex
100
AcDb2dVertex
 10
8.5327449349
 20
6.3820219436
 30
0.0
  0
VERTEX
  5
23C
330
1DE
100
AcDbEntity
  8
0
  6
CONTINUOUS
 62
     7
100
AcDbVertex
100
AcDb2dVertex
 10
8.5198574625
 20
6.3445754129
 30
0.0
  0
VERTEX
  5
23D
330
1DE
100
AcDbEntity
  8
0
  6
CONTINUOUS
 62
     7
100
AcDbVertex
100
AcDb2dVertex
 10
8.5083957011
 20
6.3071902412
 30
0.0
  0
VERTEX
  5
23E
330
1DE
100
AcDbEntity
  8
0
  6
CONTINUOUS
 62
     7
100
AcDbVertex
100
AcDb2dVertex
 10
8.49839327
 20
6.2699760856
 30
0.0
  0
VERTEX
  5
23F
330
1DE
100
AcDbEntity
  8
0
  6
CONTINUOUS
 62
     7
100
AcDbVertex
100
AcDb2dVertex
 10
8.4898795081
 20
6.2330421015
 30
0.0
  0
VERTEX
  5
240
330
1DE
100
AcDbEntity
  8
0
  6
CONTINUOUS
 62
     7
100
AcDbVertex
100
AcDb2dVertex
 10
8.4828793878
 20
6.1964966228
 30
0.0
  0
VERTEX
  5
241
330
1DE
100
AcDbEntity
  8
0
  6
CONTINUOUS
 62
     7
100
AcDbVertex
100
AcDb2dVertex
 10
8.4774134415
 20
6.1604468436
 30
0.0
  0
VERTEX
  5
242
330
1DE
100
AcDbEntity
  8
0
  6
CONTINUOUS
 62
     7
100
AcDbVertex
100
AcDb2dVertex
 10
8.4734977019
 20
6.1249985041
 30
0.0
  0
VERTEX
  5
243
330
1DE
100
AcDbEntity
  8
0
  6
CONTINUOUS
 62
     7
100
AcDbVertex
100
AcDb2dVertex
 10
8.4711436544
 20
6.0902555805
 30
0.0
  0
VERTEX
  5
244
330
1DE
100
AcDbEntity
  8
0
  6
CONTINUOUS
 62
     7
100
AcDbVertex
100
AcDb2dVertex
 10
8.470358204
 20
6.0563199797
 30
0.0
  0
VERTEX
  5
245
330
1DE
100
AcDbEntity
  8
0
  6
CONTINUOUS
 62
     7
100
AcDbVertex
100
AcDb2dVertex
 10
8.4711436544
 20
6.0232912406
 30
0.0
  0
VERTEX
  5
246
330
1DE
100
AcDbEntity
  8
0
  6
CONTINUOUS
 62
     7
100
AcDbVertex
100
AcDb2dVertex
 10
8.4734977019
 20
5.9912662423
 30
0.0
  0
VERTEX
  5
247
330
1DE
100
AcDbEntity
  8
0
  6
CONTINUOUS
 62
     7
100
AcDbVertex
100
AcDb2dVertex
 10
8.4774134415
 20
5.9603389196
 30
0.0
  0
VERTEX
  5
248
330
1DE
100
AcDbEntity
  8
0
  6
CONTINUOUS
 62
     7
100
AcDbVertex
100
AcDb2dVertex
 10
8.4828793878
 20
5.9305999876
 30
0.0
  0
VERTEX
  5
249
330
1DE
100
AcDbEntity
  8
0
  6
CONTINUOUS
 62
     7
100
AcDbVertex
100
AcDb2dVertex
 10
8.4898795081
 20
5.9021366758
 30
0.0
  0
VERTEX
  5
24A
330
1DE
100
AcDbEntity
  8
0
  6
CONTINUOUS
 62
     7
100
AcDbVertex
100
AcDb2dVertex
 10
8.49839327
 20
5.875032472
 30
0.0
  0
VERTEX
  5
24B
330
1DE
100
AcDbEntity
  8
0
  6
CONTINUOUS
 62
     7
100
AcDbVertex
100
AcDb2dVertex
 10
8.5083957011
 20
5.8493668774
 30
0.0
  0
VERTEX
  5
24C
330
1DE
100
AcDbEntity
  8
0
  6
CONTINUOUS
 62
     7
100
AcDbVertex
100
AcDb2dVertex
 10
8.5198574625
 20
5.8252151738
 30
0.0
  0
VERTEX
  5
24D
330
1DE
100
AcDbEntity
  8
0
  6
CONTINUOUS
 62
     7
100
AcDbVertex
100
AcDb2dVertex
 10
8.5327449349
 20
5.802648202
 30
0.0
  0
VERTEX
  5
24E
330
1DE
100
AcDbEntity
  8
0
  6
CONTINUOUS
 62
     7
100
AcDbVertex
100
AcDb2dVertex
 10
8.5470203172
 20
5.7817321551
 30
0.0
  0
VERTEX
  5
24F
330
1DE
100
AcDbEntity
  8
0
  6
CONTINUOUS
 62
     7
100
AcDbVertex
100
AcDb2dVertex
 10
8.5626417371
 20
5.7625283834
 30
0.0
  0
VERTEX
  5
250
330
1DE
100
AcDbEntity
  8
0
  6
CONTINUOUS
 62
     7
100
AcDbVertex
100
AcDb2dVertex
 10
8.5795633745
 20
5.7450932148
 30
0.0
  0
VERTEX
  5
251
330
1DE
100
AcDbEntity
  8
0
  6
CONTINUOUS
 62
     7
100
AcDbVertex
100
AcDb2dVertex
 10
8.5977355951
 20
5.7294777897
 30
0.0
  0
VERTEX
  5
252
330
1DE
100
AcDbEntity
  8
0
  6
CONTINUOUS
 62
     7
100
AcDbVertex
100
AcDb2dVertex
 10
8.6171050967
 20
5.7157279109
 30
0.0
  0
VERTEX
  5
253
330
1DE
100
AcDbEntity
  8
0
  6
CONTINUOUS
 62
     7
100
AcDbVertex
100
AcDb2dVertex
 10
8.6376150653
 20
5.703883909
 30
0.0
  0
VERTEX
  5
254
330
1DE
100
AcDbEntity
  8
0
  6
CONTINUOUS
 62
     7
100
AcDbVertex
100
AcDb2dVertex
 10
8.6592053416
 20
5.6939805246
 30
0.0
  0
VERTEX
  5
255
330
1DE
100
AcDbEntity
  8
0
  6
CONTINUOUS
 62
     7
100
AcDbVertex
100
AcDb2dVertex
 10
8.6818125976
 20
5.686046806
 30
0.0
  0
VERTEX
  5
256
330
1DE
100
AcDbEntity
  8
0
  6
CONTINUOUS
 62
     7
100
AcDbVertex
100
AcDb2dVertex
 10
8.7053705222
 20
5.6801060243
 30
0.0
  0
VERTEX
  5
257
330
1DE
100
AcDbEntity
  8
0
  6
CONTINUOUS
 62
     7
100
AcDbVertex
100
AcDb2dVertex
 10
8.7298100161
 20
5.6761756046
 30
0.0
  0
VERTEX
  5
258
330
1DE
100
AcDbEntity
  8
0
  6
CONTINUOUS
 62
     7
100
AcDbVertex
100
AcDb2dVertex
 10
8.755059394
 20
5.6742670757
 30
0.0
  0
VERTEX
  5
259
330
1DE
100
AcDbEntity
  8
0
  6
CONTINUOUS
 62
     7
100
AcDbVertex
100
AcDb2dVertex
 10
8.7810445952
 20
5.6743860355
 30
0.0
  0
VERTEX
  5
25A
330
1DE
100
AcDbEntity
  8
0
  6
CONTINUOUS
 62
     7
100
AcDbVertex
100
AcDb2dVertex
 10
8.8076894005
 20
5.6765321352
 30
0.0
  0
VERTEX
  5
25B
330
1DE
100
AcDbEntity
  8
0
  6
CONTINUOUS
 62
     7
100
AcDbVertex
100
AcDb2dVertex
 10
8.8349156561
 20
5.6806990798
 30
0.0
  0
VERTEX
  5
25C
330
1DE
100
AcDbEntity
  8
0
  6
CONTINUOUS
 62
     7
100
AcDbVertex
100
AcDb2dVertex
 10
8.8626435028
 20
5.686874647
 30
0.0
  0
VERTEX
  5
25D
330
1DE
100
AcDbEntity
  8
0
  6
CONTINUOUS
 62
     7
100
AcDbVertex
100
AcDb2dVertex
 10
8.89079161
 20
5.6950407228
 30
0.0
  0
VERTEX
  5
25E
330
1DE
100
AcDbEntity
  8
0
  6
CONTINUOUS
 62
     7
100
AcDbVertex
100
AcDb2dVertex
 10
8.9192774145
 20
5.7051733546
 30
0.0
  0
VERTEX
  5
25F
330
1DE
100
AcDbEntity
  8
0
  6
CONTINUOUS
 62
     7
100
AcDbVertex
100
AcDb2dVertex
 10
8.9480173624
 20
5.7172428218
 30
0.0
  0
VERTEX
  5
260
330
1DE
100
AcDbEntity
  8
0
  6
CONTINUOUS
 62
     7
100
AcDbVertex
100
AcDb2dVertex
 10
8.9769271546
 20
5.7312137225
 30
0.0
  0
VERTEX
  5
261
330
1DE
100
AcDbEntity
  8
0
  6
CONTINUOUS
 62
     7
100
AcDbVertex
100
AcDb2dVertex
 10
9.0059219936
 20
5.7470450776
 30
0.0
  0
VERTEX
  5
262
330
1DE
100
AcDbEntity
  8
0
  6
CONTINUOUS
 62
     7
100
AcDbVertex
100
AcDb2dVertex
 10
9.0349168327
 20
5.7646904511
 30
0.0
  0
VERTEX
  5
263
330
1DE
100
AcDbEntity
  8
0
  6
CONTINUOUS
 62
     7
100
AcDbVertex
100
AcDb2dVertex
 10
9.0638266249
 20
5.784098086
 30
0.0
  0
VERTEX
  5
264
330
1DE
100
AcDbEntity
  8
0
  6
CONTINUOUS
 62
     7
100
AcDbVertex
100
AcDb2dVertex
 10
9.0925665728
 20
5.8052110564
 30
0.0
  0
VERTEX
  5
265
330
1DE
100
AcDbEntity
  8
0
  6
CONTINUOUS
 62
     7
100
AcDbVertex
100
AcDb2dVertex
 10
9.1210523772
 20
5.8279674343
 30
0.0
  0
VERTEX
  5
266
330
1DE
100
AcDbEntity
  8
0
  6
CONTINUOUS
 62
     7
100
AcDbVertex
100
AcDb2dVertex
 10
9.1492004844
 20
5.8523004713
 30
0.0
  0
VERTEX
  5
267
330
1DE
100
AcDbEntity
  8
0
  6
CONTINUOUS
 62
     7
100
AcDbVertex
100
AcDb2dVertex
 10
9.1769283311
 20
5.8781387944
 30
0.0
  0
VERTEX
  5
268
330
1DE
100
AcDbEntity
  8
0
  6
CONTINUOUS
 62
     7
100
AcDbVertex
100
AcDb2dVertex
 10
9.2041545868
 20
5.9054066155
 30
0.0
  0
VERTEX
  5
269
330
1DE
100
AcDbEntity
  8
0
  6
CONTINUOUS
 62
     7
100
AcDbVertex
100
AcDb2dVertex
 10
9.2307993921
 20
5.9340239532
 30
0.0
  0
VERTEX
  5
26A
330
1DE
100
AcDbEntity
  8
0
  6
CONTINUOUS
 62
     7
100
AcDbVertex
100
AcDb2dVertex
 10
9.2567845932
 20
5.963906868
 30
0.0
  0
VERTEX
  5
26B
330
1DE
100
AcDbEntity
  8
0
  6
CONTINUOUS
 62
     7
100
AcDbVertex
100
AcDb2dVertex
 10
9.2820339711
 20
5.9949677082
 30
0.0
  0
VERTEX
  5
26C
330
1DE
100
AcDbEntity
  8
0
  6
CONTINUOUS
 62
     7
100
AcDbVertex
100
AcDb2dVertex
 10
9.306473465
 20
6.0271153669
 30
0.0
  0
VERTEX
  5
26D
330
1DE
100
AcDbEntity
  8
0
  6
CONTINUOUS
 62
     7
100
AcDbVertex
100
AcDb2dVertex
 10
9.3300313897
 20
6.0602555495
 30
0.0
  0
VERTEX
  5
26E
330
1DE
100
AcDbEntity
  8
0
  6
CONTINUOUS
 62
     7
100
AcDbVertex
100
AcDb2dVertex
 10
9.3526386457
 20
6.0942910502
 30
0.0
  0
VERTEX
  5
26F
330
1DE
100
AcDbEntity
  8
0
  6
CONTINUOUS
 62
     7
100
AcDbVertex
100
AcDb2dVertex
 10
9.3742289219
 20
6.129122037
 30
0.0
  0
VERTEX
  5
270
330
1DE
100
AcDbEntity
  8
0
  6
CONTINUOUS
 62
     7
100
AcDbVertex
100
AcDb2dVertex
 10
9.3947388905
 20
6.1646463445
 30
0.0
  0
VERTEX
  5
271
330
1DE
100
AcDbEntity
  8
0
  6
CONTINUOUS
 62
     7
100
AcDbVertex
100
AcDb2dVertex
 10
9.4141083922
 20
6.200759774
 30
0.0
  0
VERTEX
  5
272
330
1DE
100
AcDbEntity
  8
0
  6
CONTINUOUS
 62
     7
100
AcDbVertex
100
AcDb2dVertex
 10
9.4322806128
 20
6.2373563984
 30
0.0
  0
VERTEX
  5
273
330
1DE
100
AcDbEntity
  8
0
  6
CONTINUOUS
 62
     7
100
AcDbVertex
100
AcDb2dVertex
 10
9.4492022501
 20
6.2743288736
 30
0.0
  0
VERTEX
  5
274
330
1DE
100
AcDbEntity
  8
0
  6
CONTINUOUS
 62
     7
100
AcDbVertex
100
AcDb2dVertex
 10
9.4648236701
 20
6.3115687529
 30
0.0
  0
VERTEX
  5
275
330
1DE
100
AcDbEntity
  8
0
  6
CONTINUOUS
 62
     7
100
AcDbVertex
100
AcDb2dVertex
 10
9.4790990523
 20
6.3489668053
 30
0.0
  0
VERTEX
  5
276
330
1DE
100
AcDbEntity
  8
0
  6
CONTINUOUS
 62
     7
100
AcDbVertex
100
AcDb2dVertex
 10
9.4919865248
 20
6.386413336
 30
0.0
  0
VERTEX
  5
277
330
1DE
100
AcDbEntity
  8
0
  6
CONTINUOUS
 62
     7
100
AcDbVertex
100
AcDb2dVertex
 10
9.5034482862
 20
6.4237985077
 30
0.0
  0
VERTEX
  5
278
330
1DE
100
AcDbEntity
  8
0
  6
CONTINUOUS
 62
     7
100
AcDbVertex
100
AcDb2dVertex
 10
9.5134507172
 20
6.4610126633
 30
0.0
  0
VERTEX
  5
279
330
1DE
100
AcDbEntity
  8
0
  6
CONTINUOUS
 62
     7
100
AcDbVertex
100
AcDb2dVertex
 10
9.5219644791
 20
6.4979466474
 30
0.0
  0
VERTEX
  5
27A
330
1DE
100
AcDbEntity
  8
0
  6
CONTINUOUS
 62
     7
100
AcDbVertex
100
AcDb2dVertex
 10
9.5289645995
 20
6.5344921261
 30
0.0
  0
VERTEX
  5
27B
330
1DE
100
AcDbEntity
  8
0
  6
CONTINUOUS
 62
     7
100
AcDbVertex
100
AcDb2dVertex
 10
9.5344305457
 20
6.5705419053
 30
0.0
  0
VERTEX
  5
27C
330
1DE
100
AcDbEntity
  8
0
  6
CONTINUOUS
 62
     7
100
AcDbVertex
100
AcDb2dVertex
 10
9.5383462854
 20
6.6059902448
 30
0.0
  0
VERTEX
  5
27D
330
1DE
100
AcDbEntity
  8
0
  6
CONTINUOUS
 62
     7
100
AcDbVertex
100
AcDb2dVertex
 10
9.5407003328
 20
6.6407331684
 30
0.0
  0
VERTEX
  5
27E
330
1DE
100
AcDbEntity
  8
0
  6
CONTINUOUS
 62
     7
100
AcDbVertex
100
AcDb2dVertex
 10
9.5414857833
 20
6.6746687692
 30
0.0
  0
SEQEND
  5
27F
330
1DE
100
AcDbEntity
  8
0
  6
CONTINUOUS
 62
     7
  0
POLYLINE
  5
1DF
330
1F
100
AcDbEntity
  8
0
  6
CONTINUOUS
 62
     7
100
AcDb2dPolyline
 66
     1
 10
0.0
 20
0.0
 30
0.0
  0
VERTEX
  5
280
330
1DF
100
AcDbEntity
  8
0
  6
CONTINUOUS
 62
     7
100
AcDbVertex
100
AcDb2dVertex
 10
8.9847992821
 20
5.7348472233
 30
0.0
  0
VERTEX
  5
281
330
1DF
100
AcDbEntity
  8
0
  6
CONTINUOUS
 62
     7
100
AcDbVertex
100
AcDb2dVertex
 10
8.9698870963
 20
5.726466446
 30
0.0
  0
VERTEX
  5
282
330
1DF
100
AcDbEntity
  8
0
  6
CONTINUOUS
 62
     7
100
AcDbVertex
100
AcDb2dVertex
 10
8.9402857223
 20
5.7111997895
 30
0.0
  0
VERTEX
  5
283
330
1DF
100
AcDbEntity
  8
0
  6
CONTINUOUS
 62
     7
100
AcDbVertex
100
AcDb2dVertex
 10
8.9108102702
 20
5.6978225151
 30
0.0
  0
VERTEX
  5
284
330
1DF
100
AcDbEntity
  8
0
  6
CONTINUOUS
 62
     7
100
AcDbVertex
100
AcDb2dVertex
 10
8.8815442915
 20
5.6863725421
 30
0.0
  0
VERTEX
  5
285
330
1DF
100
AcDbEntity
  8
0
  6
CONTINUOUS
 62
     7
100
AcDbVertex
100
AcDb2dVertex
 10
8.8525707439
 20
5.6768823267
 30
0.0
  0
VERTEX
  5
286
330
1DF
100
AcDbEntity
  8
0
  6
CONTINUOUS
 62
     7
100
AcDbVertex
100
AcDb2dVertex
 10
8.8239717558
 20
5.6693787699
 30
0.0
  0
VERTEX
  5
287
330
1DF
100
AcDbEntity
  8
0
  6
CONTINUOUS
 62
     7
100
AcDbVertex
100
AcDb2dVertex
 10
8.7958283944
 20
5.6638831414
 30
0.0
  0
VERTEX
  5
288
330
1DF
100
AcDbEntity
  8
0
  6
CONTINUOUS
 62
     7
100
AcDbVertex
100
AcDb2dVertex
 10
8.7682204349
 20
5.6604110191
 30
0.0
  0
VERTEX
  5
289
330
1DF
100
AcDbEntity
  8
0
  6
CONTINUOUS
 62
     7
100
AcDbVertex
100
AcDb2dVertex
 10
8.7412261353
 20
5.6589722451
 30
0.0
  0
VERTEX
  5
28A
330
1DF
100
AcDbEntity
  8
0
  6
CONTINUOUS
 62
     7
100
AcDbVertex
100
AcDb2dVertex
 10
8.7149220136
 20
5.6595708978
 30
0.0
  0
VERTEX
  5
28B
330
1DF
100
AcDbEntity
  8
0
  6
CONTINUOUS
 62
     7
100
AcDbVertex
100
AcDb2dVertex
 10
8.6893826319
 20
5.6622052803
 30
0.0
  0
VERTEX
  5
28C
330
1DF
100
AcDbEntity
  8
0
  6
CONTINUOUS
 62
     7
100
AcDbVertex
100
AcDb2dVertex
 10
8.6646803843
 20
5.6668679251
 30
0.0
  0
VERTEX
  5
28D
330
1DF
100
AcDbEntity
  8
0
  6
CONTINUOUS
 62
     7
100
AcDbVertex
100
AcDb2dVertex
 10
8.6408852919
 20
5.6735456155
 30
0.0
  0
VERTEX
  5
28E
330
1DF
100
AcDbEntity
  8
0
  6
CONTINUOUS
 62
     7
100
AcDbVertex
100
AcDb2dVertex
 10
8.6180648047
 20
5.6822194227
 30
0.0
  0
VERTEX
  5
28F
330
1DF
100
AcDbEntity
  8
0
  6
CONTINUOUS
 62
     7
100
AcDbVertex
100
AcDb2dVertex
 10
8.5962836096
 20
5.69286476
 30
0.0
  0
VERTEX
  5
290
330
1DF
100
AcDbEntity
  8
0
  6
CONTINUOUS
 62
     7
100
AcDbVertex
100
AcDb2dVertex
 10
8.5756034479
 20
5.705451452
 30
0.0
  0
VERTEX
  5
291
330
1DF
100
AcDbEntity
  8
0
  6
CONTINUOUS
 62
     7
100
AcDbVertex
100
AcDb2dVertex
 10
8.5560829397
 20
5.7199438203
 30
0.0
  0
VERTEX
  5
292
330
1DF
100
AcDbEntity
  8
0
  6
CONTINUOUS
 62
     7
100
AcDbVertex
100
AcDb2dVertex
 10
8.5377774181
 20
5.7363007847
 30
0.0
  0
VERTEX
  5
293
330
1DF
100
AcDbEntity
  8
0
  6
CONTINUOUS
 62
     7
100
AcDbVertex
100
AcDb2dVertex
 10
8.520738772
 20
5.7544759798
 30
0.0
  0
VERTEX
  5
294
330
1DF
100
AcDbEntity
  8
0
  6
CONTINUOUS
 62
     7
100
AcDbVertex
100
AcDb2dVertex
 10
8.5050152994
 20
5.7744178857
 30
0.0
  0
VERTEX
  5
295
330
1DF
100
AcDbEntity
  8
0
  6
CONTINUOUS
 62
     7
100
AcDbVertex
100
AcDb2dVertex
 10
8.4906515701
 20
5.7960699752
 30
0.0
  0
VERTEX
  5
296
330
1DF
100
AcDbEntity
  8
0
  6
CONTINUOUS
 62
     7
100
AcDbVertex
100
AcDb2dVertex
 10
8.4776882996
 20
5.819370873
 30
0.0
  0
VERTEX
  5
297
330
1DF
100
AcDbEntity
  8
0
  6
CONTINUOUS
 62
     7
100
AcDbVertex
100
AcDb2dVertex
 10
8.4661622338
 20
5.8442545301
 30
0.0
  0
VERTEX
  5
298
330
1DF
100
AcDbEntity
  8
0
  6
CONTINUOUS
 62
     7
100
AcDbVertex
100
AcDb2dVertex
 10
8.4561060445
 20
5.8706504112
 30
0.0
  0
VERTEX
  5
299
330
1DF
100
AcDbEntity
  8
0
  6
CONTINUOUS
 62
     7
100
AcDbVertex
100
AcDb2dVertex
 10
8.4475482372
 20
5.8984836942
 30
0.0
  0
VERTEX
  5
29A
330
1DF
100
AcDbEntity
  8
0
  6
CONTINUOUS
 62
     7
100
AcDbVertex
100
AcDb2dVertex
 10
8.4405130698
 20
5.9276754827
 30
0.0
  0
VERTEX
  5
29B
330
1DF
100
AcDbEntity
  8
0
  6
CONTINUOUS
 62
     7
100
AcDbVertex
100
AcDb2dVertex
 10
8.4350204843
 20
5.9581430293
 30
0.0
  0
VERTEX
  5
29C
330
1DF
100
AcDbEntity
  8
0
  6
CONTINUOUS
 62
     7
100
AcDbVertex
100
AcDb2dVertex
 10
8.43108605
 20
5.9897999706
 30
0.0
  0
VERTEX
  5
29D
330
1DF
100
AcDbEntity
  8
0
  6
CONTINUOUS
 62
     7
100
AcDbVertex
100
AcDb2dVertex
 10
8.4287209196
 20
6.0225565714
 30
0.0
  0
VERTEX
  5
29E
330
1DF
100
AcDbEntity
  8
0
  6
CONTINUOUS
 62
     7
100
AcDbVertex
100
AcDb2dVertex
 10
8.4279317971
 20
6.0563199797
 30
0.0
  0
VERTEX
  5
29F
330
1DF
100
AcDbEntity
  8
0
  6
CONTINUOUS
 62
     7
100
AcDbVertex
100
AcDb2dVertex
 10
8.4287209196
 20
6.0909944893
 30
0.0
  0
VERTEX
  5
2A0
330
1DF
100
AcDbEntity
  8
0
  6
CONTINUOUS
 62
     7
100
AcDbVertex
100
AcDb2dVertex
 10
8.43108605
 20
6.1264818116
 30
0.0
  0
VERTEX
  5
2A1
330
1DF
100
AcDbEntity
  8
0
  6
CONTINUOUS
 62
     7
100
AcDbVertex
100
AcDb2dVertex
 10
8.4350204843
 20
6.162681354
 30
0.0
  0
VERTEX
  5
2A2
330
1DF
100
AcDbEntity
  8
0
  6
CONTINUOUS
 62
     7
100
AcDbVertex
100
AcDb2dVertex
 10
8.4405130698
 20
6.1994905049
 30
0.0
  0
VERTEX
  5
2A3
330
1DF
100
AcDbEntity
  8
0
  6
CONTINUOUS
 62
     7
100
AcDbVertex
100
AcDb2dVertex
 10
8.4475482372
 20
6.2368049247
 30
0.0
  0
VERTEX
  5
2A4
330
1DF
100
AcDbEntity
  8
0
  6
CONTINUOUS
 62
     7
100
AcDbVertex
100
AcDb2dVertex
 10
8.4561060445
 20
6.2745188418
 30
0.0
  0
VERTEX
  5
2A5
330
1DF
100
AcDbEntity
  8
0
  6
CONTINUOUS
 62
     7
100
AcDbVertex
100
AcDb2dVertex
 10
8.4661622338
 20
6.3125253518
 30
0.0
  0
VERTEX
  5
2A6
330
1DF
100
AcDbEntity
  8
0
  6
CONTINUOUS
 62
     7
100
AcDbVertex
100
AcDb2dVertex
 10
8.4776882996
 20
6.3507167213
 30
0.0
  0
VERTEX
  5
2A7
330
1DF
100
AcDbEntity
  8
0
  6
CONTINUOUS
 62
     7
100
AcDbVertex
100
AcDb2dVertex
 10
8.4906515701
 20
6.3889846925
 30
0.0
  0
VERTEX
  5
2A8
330
1DF
100
AcDbEntity
  8
0
  6
CONTINUOUS
 62
     7
100
AcDbVertex
100
AcDb2dVertex
 10
8.5050152994
 20
6.4272207909
 30
0.0
  0
VERTEX
  5
2A9
330
1DF
100
AcDbEntity
  8
0
  6
CONTINUOUS
 62
     7
100
AcDbVertex
100
AcDb2dVertex
 10
8.520738772
 20
6.465316632
 30
0.0
  0
VERTEX
  5
2AA
330
1DF
100
AcDbEntity
  8
0
  6
CONTINUOUS
 62
     7
100
AcDbVertex
100
AcDb2dVertex
 10
8.5377774181
 20
6.503164229
 30
0.0
  0
VERTEX
  5
2AB
330
1DF
100
AcDbEntity
  8
0
  6
CONTINUOUS
 62
     7
100
AcDbVertex
100
AcDb2dVertex
 10
8.5560829397
 20
6.5406562989
 30
0.0
  0
VERTEX
  5
2AC
330
1DF
100
AcDbEntity
  8
0
  6
CONTINUOUS
 62
     7
100
AcDbVertex
100
AcDb2dVertex
 10
8.5756034479
 20
6.5776865662
 30
0.0
  0
VERTEX
  5
2AD
330
1DF
100
AcDbEntity
  8
0
  6
CONTINUOUS
 62
     7
100
AcDbVertex
100
AcDb2dVertex
 10
8.5962836096
 20
6.6141500646
 30
0.0
  0
VERTEX
  5
2AE
330
1DF
100
AcDbEntity
  8
0
  6
CONTINUOUS
 62
     7
100
AcDbVertex
100
AcDb2dVertex
 10
8.6180648047
 20
6.6499434344
 30
0.0
  0
VERTEX
  5
2AF
330
1DF
100
AcDbEntity
  8
0
  6
CONTINUOUS
 62
     7
100
AcDbVertex
100
AcDb2dVertex
 10
8.6408852919
 20
6.6849652154
 30
0.0
  0
VERTEX
  5
2B0
330
1DF
100
AcDbEntity
  8
0
  6
CONTINUOUS
 62
     7
100
AcDbVertex
100
AcDb2dVertex
 10
8.6646803843
 20
6.7191161346
 30
0.0
  0
VERTEX
  5
2B1
330
1DF
100
AcDbEntity
  8
0
  6
CONTINUOUS
 62
     7
100
AcDbVertex
100
AcDb2dVertex
 10
8.6893826319
 20
6.7522993875
 30
0.0
  0
VERTEX
  5
2B2
330
1DF
100
AcDbEntity
  8
0
  6
CONTINUOUS
 62
     7
100
AcDbVertex
100
AcDb2dVertex
 10
8.7149220136
 20
6.7844209124
 30
0.0
  0
VERTEX
  5
2B3
330
1DF
100
AcDbEntity
  8
0
  6
CONTINUOUS
 62
     7
100
AcDbVertex
100
AcDb2dVertex
 10
8.7412261353
 20
6.8153896576
 30
0.0
  0
VERTEX
  5
2B4
330
1DF
100
AcDbEntity
  8
0
  6
CONTINUOUS
 62
     7
100
AcDbVertex
100
AcDb2dVertex
 10
8.7682204349
 20
6.8451178386
 30
0.0
  0
VERTEX
  5
2B5
330
1DF
100
AcDbEntity
  8
0
  6
CONTINUOUS
 62
     7
100
AcDbVertex
100
AcDb2dVertex
 10
8.7958283944
 20
6.8735211878
 30
0.0
  0
VERTEX
  5
2B6
330
1DF
100
AcDbEntity
  8
0
  6
CONTINUOUS
 62
     7
100
AcDbVertex
100
AcDb2dVertex
 10
8.8239717558
 20
6.9005191927
 30
0.0
  0
VERTEX
  5
2B7
330
1DF
100
AcDbEntity
  8
0
  6
CONTINUOUS
 62
     7
100
AcDbVertex
100
AcDb2dVertex
 10
8.8525707439
 20
6.9260353247
 30
0.0
  0
VERTEX
  5
2B8
330
1DF
100
AcDbEntity
  8
0
  6
CONTINUOUS
 62
     7
100
AcDbVertex
100
AcDb2dVertex
 10
8.8815442915
 20
6.9499972554
 30
0.0
  0
VERTEX
  5
2B9
330
1DF
100
AcDbEntity
  8
0
  6
CONTINUOUS
 62
     7
100
AcDbVertex
100
AcDb2dVertex
 10
8.9108102702
 20
6.9723370621
 30
0.0
  0
VERTEX
  5
2BA
330
1DF
100
AcDbEntity
  8
0
  6
CONTINUOUS
 62
     7
100
AcDbVertex
100
AcDb2dVertex
 10
8.9402857223
 20
6.9929914202
 30
0.0
  0
VERTEX
  5
2BB
330
1DF
100
AcDbEntity
  8
0
  6
CONTINUOUS
 62
     7
100
AcDbVertex
100
AcDb2dVertex
 10
8.9698870963
 20
7.0119017828
 30
0.0
  0
VERTEX
  5
2BC
330
1DF
100
AcDbEntity
  8
0
  6
CONTINUOUS
 62
     7
100
AcDbVertex
100
AcDb2dVertex
 10
8.9995304841
 20
7.0290145463
 30
0.0
  0
VERTEX
  5
2BD
330
1DF
100
AcDbEntity
  8
0
  6
CONTINUOUS
 62
     7
100
AcDbVertex
100
AcDb2dVertex
 10
9.0291318581
 20
7.0442812028
 30
0.0
  0
VERTEX
  5
2BE
330
1DF
100
AcDbEntity
  8
0
  6
CONTINUOUS
 62
     7
100
AcDbVertex
100
AcDb2dVertex
 10
9.0586073102
 20
7.0576584771
 30
0.0
  0
VERTEX
  5
2BF
330
1DF
100
AcDbEntity
  8
0
  6
CONTINUOUS
 62
     7
100
AcDbVertex
100
AcDb2dVertex
 10
9.0878732888
 20
7.0691084502
 30
0.0
  0
VERTEX
  5
2C0
330
1DF
100
AcDbEntity
  8
0
  6
CONTINUOUS
 62
     7
100
AcDbVertex
100
AcDb2dVertex
 10
9.1168468365
 20
7.0785986656
 30
0.0
  0
VERTEX
  5
2C1
330
1DF
100
AcDbEntity
  8
0
  6
CONTINUOUS
 62
     7
100
AcDbVertex
100
AcDb2dVertex
 10
9.1454458246
 20
7.0861022224
 30
0.0
  0
VERTEX
  5
2C2
330
1DF
100
AcDbEntity
  8
0
  6
CONTINUOUS
 62
     7
100
AcDbVertex
100
AcDb2dVertex
 10
9.173589186
 20
7.0915978509
 30
0.0
  0
VERTEX
  5
2C3
330
1DF
100
AcDbEntity
  8
0
  6
CONTINUOUS
 62
     7
100
AcDbVertex
100
AcDb2dVertex
 10
9.2011971454
 20
7.0950699732
 30
0.0
  0
VERTEX
  5
2C4
330
1DF
100
AcDbEntity
  8
0
  6
CONTINUOUS
 62
     7
100
AcDbVertex
100
AcDb2dVertex
 10
9.2281914451
 20
7.0965087472
 30
0.0
  0
VERTEX
  5
2C5
330
1DF
100
AcDbEntity
  8
0
  6
CONTINUOUS
 62
     7
100
AcDbVertex
100
AcDb2dVertex
 10
9.2544955668
 20
7.0959100944
 30
0.0
  0
VERTEX
  5
2C6
330
1DF
100
AcDbEntity
  8
0
  6
CONTINUOUS
 62
     7
100
AcDbVertex
100
AcDb2dVertex
 10
9.2800349485
 20
7.0932757119
 30
0.0
  0
VERTEX
  5
2C7
330
1DF
100
AcDbEntity
  8
0
  6
CONTINUOUS
 62
     7
100
AcDbVertex
100
AcDb2dVertex
 10
9.3047371961
 20
7.0886130671
 30
0.0
  0
VERTEX
  5
2C8
330
1DF
100
AcDbEntity
  8
0
  6
CONTINUOUS
 62
     7
100
AcDbVertex
100
AcDb2dVertex
 10
9.3285322884
 20
7.0819353768
 30
0.0
  0
VERTEX
  5
2C9
330
1DF
100
AcDbEntity
  8
0
  6
CONTINUOUS
 62
     7
100
AcDbVertex
100
AcDb2dVertex
 10
9.3513527757
 20
7.0732615695
 30
0.0
  0
VERTEX
  5
2CA
330
1DF
100
AcDbEntity
  8
0
  6
CONTINUOUS
 62
     7
100
AcDbVertex
100
AcDb2dVertex
 10
9.3731339708
 20
7.0626162322
 30
0.0
  0
VERTEX
  5
2CB
330
1DF
100
AcDbEntity
  8
0
  6
CONTINUOUS
 62
     7
100
AcDbVertex
100
AcDb2dVertex
 10
9.3938141325
 20
7.0500295403
 30
0.0
  0
VERTEX
  5
2CC
330
1DF
100
AcDbEntity
  8
0
  6
CONTINUOUS
 62
     7
100
AcDbVertex
100
AcDb2dVertex
 10
9.4133346406
 20
7.035537172
 30
0.0
  0
VERTEX
  5
2CD
330
1DF
100
AcDbEntity
  8
0
  6
CONTINUOUS
 62
     7
100
AcDbVertex
100
AcDb2dVertex
 10
9.4316401623
 20
7.0191802075
 30
0.0
  0
VERTEX
  5
2CE
330
1DF
100
AcDbEntity
  8
0
  6
CONTINUOUS
 62
     7
100
AcDbVertex
100
AcDb2dVertex
 10
9.4486788083
 20
7.0010050125
 30
0.0
  0
VERTEX
  5
2CF
330
1DF
100
AcDbEntity
  8
0
  6
CONTINUOUS
 62
     7
100
AcDbVertex
100
AcDb2dVertex
 10
9.464402281
 20
6.9810631065
 30
0.0
  0
VERTEX
  5
2D0
330
1DF
100
AcDbEntity
  8
0
  6
CONTINUOUS
 62
     7
100
AcDbVertex
100
AcDb2dVertex
 10
9.4787660103
 20
6.959411017
 30
0.0
  0
VERTEX
  5
2D1
330
1DF
100
AcDbEntity
  8
0
  6
CONTINUOUS
 62
     7
100
AcDbVertex
100
AcDb2dVertex
 10
9.4917292808
 20
6.9361101193
 30
0.0
  0
VERTEX
  5
2D2
330
1DF
100
AcDbEntity
  8
0
  6
CONTINUOUS
 62
     7
100
AcDbVertex
100
AcDb2dVertex
 10
9.5032553466
 20
6.9112264621
 30
0.0
  0
VERTEX
  5
2D3
330
1DF
100
AcDbEntity
  8
0
  6
CONTINUOUS
 62
     7
100
AcDbVertex
100
AcDb2dVertex
 10
9.5133115359
 20
6.8848305811
 30
0.0
  0
VERTEX
  5
2D4
330
1DF
100
AcDbEntity
  8
0
  6
CONTINUOUS
 62
     7
100
AcDbVertex
100
AcDb2dVertex
 10
9.5218693432
 20
6.8569972981
 30
0.0
  0
VERTEX
  5
2D5
330
1DF
100
AcDbEntity
  8
0
  6
CONTINUOUS
 62
     7
100
AcDbVertex
100
AcDb2dVertex
 10
9.5289045106
 20
6.8278055096
 30
0.0
  0
VERTEX
  5
2D6
330
1DF
100
AcDbEntity
  8
0
  6
CONTINUOUS
 62
     7
100
AcDbVertex
100
AcDb2dVertex
 10
9.5343970961
 20
6.7973379629
 30
0.0
  0
VERTEX
  5
2D7
330
1DF
100
AcDbEntity
  8
0
  6
CONTINUOUS
 62
     7
100
AcDbVertex
100
AcDb2dVertex
 10
9.5383315303
 20
6.7656810217
 30
0.0
  0
VERTEX
  5
2D8
330
1DF
100
AcDbEntity
  8
0
  6
CONTINUOUS
 62
     7
100
AcDbVertex
100
AcDb2dVertex
 10
9.5406966608
 20
6.7329244208
 30
0.0
  0
VERTEX
  5
2D9
330
1DF
100
AcDbEntity
  8
0
  6
CONTINUOUS
 62
     7
100
AcDbVertex
100
AcDb2dVertex
 10
9.5414857833
 20
6.6991610126
 30
0.0
  0
VERTEX
  5
2DA
330
1DF
100
AcDbEntity
  8
0
  6
CONTINUOUS
 62
     7
100
AcDbVertex
100
AcDb2dVertex
 10
9.5414857833
 20
6.6991610126
 30
0.0
  0
SEQEND
  5
2DB
330
1DF
100
AcDbEntity
  8
0
  6
CONTINUOUS
 62
     7
  0
POLYLINE
  5
1E0
330
1F
100
AcDbEntity
  8
0
  6
CONTINUOUS
 62
     7
100
AcDb2dPolyline
 66
     1
 10
0.0
 20
0.0
 30
0.0
  0
VERTEX
  5
2DC
330
1E0
100
AcDbEntity
  8
0
  6
CONTINUOUS
 62
     7
100
AcDbVertex
100
AcDb2dVertex
 10
7.7504730103
 20
7.9994380403
 30
0.0
  0
VERTEX
  5
2DD
330
1E0
100
AcDbEntity
  8
0
  6
CONTINUOUS
 62
     7
100
AcDbVertex
100
AcDb2dVertex
 10
7.7452293985
 20
8.0023855383
 30
0.0
  0
VERTEX
  5
2DE
330
1E0
100
AcDbEntity
  8
0
  6
CONTINUOUS
 62
     7
100
AcDbVertex
100
AcDb2dVertex
 10
7.7234482034
 20
8.0130308756
 30
0.0
  0
VERTEX
  5
2DF
330
1E0
100
AcDbEntity
  8
0
  6
CONTINUOUS
 62
     7
100
AcDbVertex
100
AcDb2dVertex
 10
7.7006277161
 20
8.0217046828
 30
0.0
  0
VERTEX
  5
2E0
330
1E0
100
AcDbEntity
  8
0
  6
CONTINUOUS
 62
     7
100
AcDbVertex
100
AcDb2dVertex
 10
7.6768326238
 20
8.0283823732
 30
0.0
  0
VERTEX
  5
2E1
330
1E0
100
AcDbEntity
  8
0
  6
CONTINUOUS
 62
     7
100
AcDbVertex
100
AcDb2dVertex
 10
7.6521303762
 20
8.033045018
 30
0.0
  0
VERTEX
  5
2E2
330
1E0
100
AcDbEntity
  8
0
  6
CONTINUOUS
 62
     7
100
AcDbVertex
100
AcDb2dVertex
 10
7.6265909944
 20
8.0356794005
 30
0.0
  0
VERTEX
  5
2E3
330
1E0
100
AcDbEntity
  8
0
  6
CONTINUOUS
 62
     7
100
AcDbVertex
100
AcDb2dVertex
 10
7.6002868728
 20
8.0362780532
 30
0.0
  0
VERTEX
  5
2E4
330
1E0
100
AcDbEntity
  8
0
  6
CONTINUOUS
 62
     7
100
AcDbVertex
100
AcDb2dVertex
 10
7.5732925731
 20
8.0348392792
 30
0.0
  0
VERTEX
  5
2E5
330
1E0
100
AcDbEntity
  8
0
  6
CONTINUOUS
 62
     7
100
AcDbVertex
100
AcDb2dVertex
 10
7.5456846137
 20
8.0313671569
 30
0.0
  0
VERTEX
  5
2E6
330
1E0
100
AcDbEntity
  8
0
  6
CONTINUOUS
 62
     7
100
AcDbVertex
100
AcDb2dVertex
 10
7.5175412522
 20
8.0258715284
 30
0.0
  0
VERTEX
  5
2E7
330
1E0
100
AcDbEntity
  8
0
  6
CONTINUOUS
 62
     7
100
AcDbVertex
100
AcDb2dVertex
 10
7.4889422642
 20
8.0183679716
 30
0.0
  0
VERTEX
  5
2E8
330
1E0
100
AcDbEntity
  8
0
  6
CONTINUOUS
 62
     7
100
AcDbVertex
100
AcDb2dVertex
 10
7.4599687165
 20
8.0088777562
 30
0.0
  0
VERTEX
  5
2E9
330
1E0
100
AcDbEntity
  8
0
  6
CONTINUOUS
 62
     7
100
AcDbVertex
100
AcDb2dVertex
 10
7.4307027379
 20
7.9974277832
 30
0.0
  0
VERTEX
  5
2EA
330
1E0
100
AcDbEntity
  8
0
  6
CONTINUOUS
 62
     7
100
AcDbVertex
100
AcDb2dVertex
 10
7.4012272858
 20
7.9840505088
 30
0.0
  0
VERTEX
  5
2EB
330
1E0
100
AcDbEntity
  8
0
  6
CONTINUOUS
 62
     7
100
AcDbVertex
100
AcDb2dVertex
 10
7.3716259118
 20
7.9687838523
 30
0.0
  0
VERTEX
  5
2EC
330
1E0
100
AcDbEntity
  8
0
  6
CONTINUOUS
 62
     7
100
AcDbVertex
100
AcDb2dVertex
 10
7.341982524
 20
7.9516710889
 30
0.0
  0
VERTEX
  5
2ED
330
1E0
100
AcDbEntity
  8
0
  6
CONTINUOUS
 62
     7
100
AcDbVertex
100
AcDb2dVertex
 10
7.3123811499
 20
7.9327607263
 30
0.0
  0
VERTEX
  5
2EE
330
1E0
100
AcDbEntity
  8
0
  6
CONTINUOUS
 62
     7
100
AcDbVertex
100
AcDb2dVertex
 10
7.2829056979
 20
7.9121063681
 30
0.0
  0
VERTEX
  5
2EF
330
1E0
100
AcDbEntity
  8
0
  6
CONTINUOUS
 62
     7
100
AcDbVertex
100
AcDb2dVertex
 10
7.2536397192
 20
7.8897665614
 30
0.0
  0
VERTEX
  5
2F0
330
1E0
100
AcDbEntity
  8
0
  6
CONTINUOUS
 62
     7
100
AcDbVertex
100
AcDb2dVertex
 10
7.2246661716
 20
7.8658046307
 30
0.0
  0
VERTEX
  5
2F1
330
1E0
100
AcDbEntity
  8
0
  6
CONTINUOUS
 62
     7
100
AcDbVertex
100
AcDb2dVertex
 10
7.1960671835
 20
7.8402884988
 30
0.0
  0
VERTEX
  5
2F2
330
1E0
100
AcDbEntity
  8
0
  6
CONTINUOUS
 62
     7
100
AcDbVertex
100
AcDb2dVertex
 10
7.1679238221
 20
7.8132904938
 30
0.0
  0
VERTEX
  5
2F3
330
1E0
100
AcDbEntity
  8
0
  6
CONTINUOUS
 62
     7
100
AcDbVertex
100
AcDb2dVertex
 10
7.1403158626
 20
7.7848871446
 30
0.0
  0
VERTEX
  5
2F4
330
1E0
100
AcDbEntity
  8
0
  6
CONTINUOUS
 62
     7
100
AcDbVertex
100
AcDb2dVertex
 10
7.113321563
 20
7.7551589636
 30
0.0
  0
VERTEX
  5
2F5
330
1E0
100
AcDbEntity
  8
0
  6
CONTINUOUS
 62
     7
100
AcDbVertex
100
AcDb2dVertex
 10
7.0870174413
 20
7.7241902185
 30
0.0
  0
VERTEX
  5
2F6
330
1E0
100
AcDbEntity
  8
0
  6
CONTINUOUS
 62
     7
100
AcDbVertex
100
AcDb2dVertex
 10
7.0614780596
 20
7.6920686935
 30
0.0
  0
VERTEX
  5
2F7
330
1E0
100
AcDbEntity
  8
0
  6
CONTINUOUS
 62
     7
100
AcDbVertex
100
AcDb2dVertex
 10
7.036775812
 20
7.6588854407
 30
0.0
  0
VERTEX
  5
2F8
330
1E0
100
AcDbEntity
  8
0
  6
CONTINUOUS
 62
     7
100
AcDbVertex
100
AcDb2dVertex
 10
7.0129807196
 20
7.6247345215
 30
0.0
  0
VERTEX
  5
2F9
330
1E0
100
AcDbEntity
  8
0
  6
CONTINUOUS
 62
     7
100
AcDbVertex
100
AcDb2dVertex
 10
6.9901602323
 20
7.5897127405
 30
0.0
  0
VERTEX
  5
2FA
330
1E0
100
AcDbEntity
  8
0
  6
CONTINUOUS
 62
     7
100
AcDbVertex
100
AcDb2dVertex
 10
6.9683790373
 20
7.5539193706
 30
0.0
  0
VERTEX
  5
2FB
330
1E0
100
AcDbEntity
  8
0
  6
CONTINUOUS
 62
     7
100
AcDbVertex
100
AcDb2dVertex
 10
6.9476988756
 20
7.5174558722
 30
0.0
  0
VERTEX
  5
2FC
330
1E0
100
AcDbEntity
  8
0
  6
CONTINUOUS
 62
     7
100
AcDbVertex
100
AcDb2dVertex
 10
6.9281783674
 20
7.4804256049
 30
0.0
  0
VERTEX
  5
2FD
330
1E0
100
AcDbEntity
  8
0
  6
CONTINUOUS
 62
     7
100
AcDbVertex
100
AcDb2dVertex
 10
6.9098728458
 20
7.4429335351
 30
0.0
  0
VERTEX
  5
2FE
330
1E0
100
AcDbEntity
  8
0
  6
CONTINUOUS
 62
     7
100
AcDbVertex
100
AcDb2dVertex
 10
6.8928341997
 20
7.405085938
 30
0.0
  0
VERTEX
  5
2FF
330
1E0
100
AcDbEntity
  8
0
  6
CONTINUOUS
 62
     7
100
AcDbVertex
100
AcDb2dVertex
 10
6.8771107271
 20
7.3669900969
 30
0.0
  0
VERTEX
  5
300
330
1E0
100
AcDbEntity
  8
0
  6
CONTINUOUS
 62
     7
100
AcDbVertex
100
AcDb2dVertex
 10
6.8627469977
 20
7.3287539986
 30
0.0
  0
VERTEX
  5
301
330
1E0
100
AcDbEntity
  8
0
  6
CONTINUOUS
 62
     7
100
AcDbVertex
100
AcDb2dVertex
 10
6.8497837273
 20
7.2904860273
 30
0.0
  0
VERTEX
  5
302
330
1E0
100
AcDbEntity
  8
0
  6
CONTINUOUS
 62
     7
100
AcDbVertex
100
AcDb2dVertex
 10
6.8382576615
 20
7.2522946579
 30
0.0
  0
VERTEX
  5
303
330
1E0
100
AcDbEntity
  8
0
  6
CONTINUOUS
 62
     7
100
AcDbVertex
100
AcDb2dVertex
 10
6.8282014722
 20
7.2142881478
 30
0.0
  0
VERTEX
  5
304
330
1E0
100
AcDbEntity
  8
0
  6
CONTINUOUS
 62
     7
100
AcDbVertex
100
AcDb2dVertex
 10
6.8196436649
 20
7.1765742308
 30
0.0
  0
VERTEX
  5
305
330
1E0
100
AcDbEntity
  8
0
  6
CONTINUOUS
 62
     7
100
AcDbVertex
100
AcDb2dVertex
 10
6.8126084975
 20
7.1392598109
 30
0.0
  0
VERTEX
  5
306
330
1E0
100
AcDbEntity
  8
0
  6
CONTINUOUS
 62
     7
100
AcDbVertex
100
AcDb2dVertex
 10
6.807115912
 20
7.1024506601
 30
0.0
  0
VERTEX
  5
307
330
1E0
100
AcDbEntity
  8
0
  6
CONTINUOUS
 62
     7
100
AcDbVertex
100
AcDb2dVertex
 10
6.8031814777
 20
7.0662511177
 30
0.0
  0
VERTEX
  5
308
330
1E0
100
AcDbEntity
  8
0
  6
CONTINUOUS
 62
     7
100
AcDbVertex
100
AcDb2dVertex
 10
6.8008163473
 20
7.0307637953
 30
0.0
  0
VERTEX
  5
309
330
1E0
100
AcDbEntity
  8
0
  6
CONTINUOUS
 62
     7
100
AcDbVertex
100
AcDb2dVertex
 10
6.8000272248
 20
6.9960892857
 30
0.0
  0
VERTEX
  5
30A
330
1E0
100
AcDbEntity
  8
0
  6
CONTINUOUS
 62
     7
100
AcDbVertex
100
AcDb2dVertex
 10
6.8008163473
 20
6.9623258775
 30
0.0
  0
VERTEX
  5
30B
330
1E0
100
AcDbEntity
  8
0
  6
CONTINUOUS
 62
     7
100
AcDbVertex
100
AcDb2dVertex
 10
6.8031814777
 20
6.9295692766
 30
0.0
  0
VERTEX
  5
30C
330
1E0
100
AcDbEntity
  8
0
  6
CONTINUOUS
 62
     7
100
AcDbVertex
100
AcDb2dVertex
 10
6.807115912
 20
6.8979123354
 30
0.0
  0
VERTEX
  5
30D
330
1E0
100
AcDbEntity
  8
0
  6
CONTINUOUS
 62
     7
100
AcDbVertex
100
AcDb2dVertex
 10
6.8126084975
 20
6.8674447887
 30
0.0
  0
VERTEX
  5
30E
330
1E0
100
AcDbEntity
  8
0
  6
CONTINUOUS
 62
     7
100
AcDbVertex
100
AcDb2dVertex
 10
6.8196436649
 20
6.8382530002
 30
0.0
  0
VERTEX
  5
30F
330
1E0
100
AcDbEntity
  8
0
  6
CONTINUOUS
 62
     7
100
AcDbVertex
100
AcDb2dVertex
 10
6.8282014722
 20
6.8104197172
 30
0.0
  0
VERTEX
  5
310
330
1E0
100
AcDbEntity
  8
0
  6
CONTINUOUS
 62
     7
100
AcDbVertex
100
AcDb2dVertex
 10
6.8382576615
 20
6.7840238362
 30
0.0
  0
VERTEX
  5
311
330
1E0
100
AcDbEntity
  8
0
  6
CONTINUOUS
 62
     7
100
AcDbVertex
100
AcDb2dVertex
 10
6.8497837273
 20
6.759140179
 30
0.0
  0
VERTEX
  5
312
330
1E0
100
AcDbEntity
  8
0
  6
CONTINUOUS
 62
     7
100
AcDbVertex
100
AcDb2dVertex
 10
6.8627469977
 20
6.7358392813
 30
0.0
  0
VERTEX
  5
313
330
1E0
100
AcDbEntity
  8
0
  6
CONTINUOUS
 62
     7
100
AcDbVertex
100
AcDb2dVertex
 10
6.8771107271
 20
6.7141871918
 30
0.0
  0
VERTEX
  5
314
330
1E0
100
AcDbEntity
  8
0
  6
CONTINUOUS
 62
     7
100
AcDbVertex
100
AcDb2dVertex
 10
6.8928341997
 20
6.6942452858
 30
0.0
  0
VERTEX
  5
315
330
1E0
100
AcDbEntity
  8
0
  6
CONTINUOUS
 62
     7
100
AcDbVertex
100
AcDb2dVertex
 10
6.9098728458
 20
6.6760700908
 30
0.0
  0
VERTEX
  5
316
330
1E0
100
AcDbEntity
  8
0
  6
CONTINUOUS
 62
     7
100
AcDbVertex
100
AcDb2dVertex
 10
6.9281783674
 20
6.6597131263
 30
0.0
  0
VERTEX
  5
317
330
1E0
100
AcDbEntity
  8
0
  6
CONTINUOUS
 62
     7
100
AcDbVertex
100
AcDb2dVertex
 10
6.9476988756
 20
6.645220758
 30
0.0
  0
VERTEX
  5
318
330
1E0
100
AcDbEntity
  8
0
  6
CONTINUOUS
 62
     7
100
AcDbVertex
100
AcDb2dVertex
 10
6.9631354255
 20
6.6355815641
 30
0.0
  0
SEQEND
  5
319
330
1E0
100
AcDbEntity
  8
0
  6
CONTINUOUS
 62
     7
  0
SPLINE
  5
1E1
330
1F
100
AcDbEntity
  8
0
  6
CONTINUOUS
 62
     7
100
AcDbSpline
210
0.0
220
0.0
230
1.0
 70
     8
 71
     3
 72
    31
 73
    27
 74
     0
 42
0.00000001
 43
0.00000001
 40
-0.1261202054355338
 40
-0.0836798205600873
 40
-0.042611908107721
 40
0.0
 40
0.0426216130868988
 40
0.0836913141793738
 40
0.126119517897924
 40
0.1682793248177779
 40
0.2084855799152699
 40
0.2499067927967568
 40
0.2913619713114949
 40
0.3316224479920911
 40
0.3738581062766598
 40
0.4162626079443968
 40
0.4573352864400308
 40
0.4999972665413454
 40
0.5426396366315094
 40
0.583726847952384
 40
0.6261788426281928
 40
0.6683249926213208
 40
0.7085632764787311
 40
0.75005552298307
 40
0.7914450068358015
 40
0.8316605972581218
 40
0.8738797945644662
 40
0.9163201794399127
 40
0.957388091892279
 40
1.0
 40
1.042621613086899
 40
1.083691314179374
 40
1.126119517897924
 10
8.489749701452169
 20
7.274407532860914
 30
0.0
 10
8.513983430213793
 20
7.292701345978923
 30
0.0
 10
8.544304484400318
 20
7.305887345263718
 30
0.0
 10
8.579994331490266
 20
7.312502610188941
 30
0.0
 10
8.618125314811868
 20
7.312445123268236
 30
0.0
 10
8.656125672118304
 20
7.307229073204117
 30
0.0
 10
8.691496432582351
 20
7.296814813143669
 30
0.0
 10
8.721226305051493
 20
7.28257624538341
 30
0.0
 10
8.744699768235325
 20
7.266115323122852
 30
0.0
 10
8.758951555607858
 20
7.24788234041988
 30
0.0
 10
8.762759919696297
 20
7.228970992012313
 30
0.0
 10
8.757844588726403
 20
7.20985809651371
 30
0.0
 10
8.742622715272022
 20
7.191421128327112
 30
0.0
 10
8.71837928994649
 20
7.174708642377256
 30
0.0
 10
8.68804468307455
 20
7.159913564725246
 30
0.0
 10
8.652332426478242
 20
7.148961420292998
 30
0.0
 10
8.614189608069665
 20
7.143203228907737
 30
0.0
 10
8.576178295977325
 20
7.142355240382603
 30
0.0
 10
8.540797380047358
 20
7.148382184606515
 30
0.0
 10
8.511056286786502
 20
7.161210290613976
 30
0.0
 10
8.487579821147108
 20
7.179062958339259
 30
0.0
 10
8.473366786957488
 20
7.201701337413151
 30
0.0
 10
8.46959987432974
 20
7.226696771149398
 30
0.0
 10
8.47453612530902
 20
7.251635753391158
 30
0.0
 10
8.489749701452169
 20
7.274407532860914
 30
0.0
 10
8.513983430213793
 20
7.292701345978923
 30
0.0
 10
8.544304484400318
 20
7.305887345263718
 30
0.0
  0
SPLINE
  5
1E2
330
1F
100
AcDbEntity
  8
0
  6
CONTINUOUS
 62
     7
100
AcDbSpline
210
0.0
220
0.0
230
1.0
 70
     8
 71
     3
 72
    31
 73
    27
 74
     0
 42
0.00000001
 43
0.00000001
 40
-0.1261202054355115
 40
-0.0836798205599727
 40
-0.0426119081076066
 40
0.0
 40
0.0426216130868417
 40
0.0836913141793167
 40
0.1261195178979127
 40
0.168279324817723
 40
0.2084855799152158
 40
0.2499067927967573
 40
0.2913619713113301
 40
0.3316224479919266
 40
0.373858106276625
 40
0.4162626079441461
 40
0.4573352864397798
 40
0.4999972665413282
 40
0.5426396366313854
 40
0.5837268479522602
 40
0.6261788426281826
 40
0.6683249926212771
 40
0.7085632764786877
 40
0.7500555229830691
 40
0.7914450068359102
 40
0.8316605972582304
 40
0.8738797945644885
 40
0.9163201794400273
 40
0.9573880918923934
 40
1.0
 40
1.042621613086842
 40
1.083691314179317
 40
1.126119517897913
 10
7.598906512555791
 20
7.788680359205954
 30
0.0
 10
7.623140241317368
 20
7.806974172323945
 30
0.0
 10
7.653461295503861
 20
7.820160171608716
 30
0.0
 10
7.689151142593808
 20
7.826775436533934
 30
0.0
 10
7.727282125915401
 20
7.826717949613252
 30
0.0
 10
7.765282483221847
 20
7.821501899549153
 30
0.0
 10
7.800653243685892
 20
7.811087639488698
 30
0.0
 10
7.83038311615501
 20
7.796849071728452
 30
0.0
 10
7.853856579338806
 20
7.780388149467902
 30
0.0
 10
7.868108366711299
 20
7.762155166764937
 30
0.0
 10
7.871916730799862
 20
7.743243818357382
 30
0.0
 10
7.86700139983008
 20
7.724130922858776
 30
0.0
 10
7.851779526375651
 20
7.705693954672194
 30
0.0
 10
7.827536101050128
 20
7.688981468722316
 30
0.0
 10
7.797201494178192
 20
7.674186391070264
 30
0.0
 10
7.76148923758187
 20
7.663234246638031
 30
0.0
 10
7.723346419173276
 20
7.657476055252756
 30
0.0
 10
7.685335107080905
 20
7.656628066727598
 30
0.0
 10
7.649954191150936
 20
7.662655010951517
 30
0.0
 10
7.620213097890052
 20
7.675483116959001
 30
0.0
 10
7.596736632250616
 20
7.693335784684295
 30
0.0
 10
7.582523598060972
 20
7.715974163758188
 30
0.0
 10
7.578756685433304
 20
7.740969597494452
 30
0.0
 10
7.583692936412668
 20
7.765908579736204
 30
0.0
 10
7.598906512555791
 20
7.788680359205954
 30
0.0
 10
7.623140241317368
 20
7.806974172323945
 30
0.0
 10
7.653461295503861
 20
7.820160171608716
 30
0.0
  0
POLYLINE
  5
1E3
330
1F
100
AcDbEntity
  8
0
  6
CONTINUOUS
 62
     7
100
AcDb2dPolyline
 66
     1
 10
0.0
 20
0.0
 30
0.0
  0
VERTEX
  5
31A
330
1E3
100
AcDbEntity
  8
0
  6
CONTINUOUS
 62
     7
100
AcDbVertex
100
AcDb2dVertex
 10
9.1663294453
 20
6.4580956252
 30
0.0
  0
VERTEX
  5
31B
330
1E3
100
AcDbEntity
  8
0
  6
CONTINUOUS
 62
     7
100
AcDbVertex
100
AcDb2dVertex
 10
9.1655323447
 20
6.4391922573
 30
0.0
  0
VERTEX
  5
31C
330
1E3
100
AcDbEntity
  8
0
  6
CONTINUOUS
 62
     7
100
AcDbVertex
100
AcDb2dVertex
 10
9.1631489646
 20
6.4195564466
 30
0.0
  0
VERTEX
  5
31D
330
1E3
100
AcDbEntity
  8
0
  6
CONTINUOUS
 62
     7
100
AcDbVertex
100
AcDb2dVertex
 10
9.1592029923
 20
6.3993833428
 30
0.0
  0
VERTEX
  5
31E
330
1E3
100
AcDbEntity
  8
0
  6
CONTINUOUS
 62
     7
100
AcDbVertex
100
AcDb2dVertex
 10
9.1537336446
 20
6.3788734352
 30
0.0
  0
VERTEX
  5
31F
330
1E3
100
AcDbEntity
  8
0
  6
CONTINUOUS
 62
     7
100
AcDbVertex
100
AcDb2dVertex
 10
9.1467952782
 20
6.3582305605
 30
0.0
  0
VERTEX
  5
320
330
1E3
100
AcDbEntity
  8
0
  6
CONTINUOUS
 62
     7
100
AcDbVertex
100
AcDb2dVertex
 10
9.1384568499
 20
6.3376598768
 30
0.0
  0
VERTEX
  5
321
330
1E3
100
AcDbEntity
  8
0
  6
CONTINUOUS
 62
     7
100
AcDbVertex
100
AcDb2dVertex
 10
9.1288012306
 20
6.3173658249
 30
0.0
  0
VERTEX
  5
322
330
1E3
100
AcDbEntity
  8
0
  6
CONTINUOUS
 62
     7
100
AcDbVertex
100
AcDb2dVertex
 10
9.1179243823
 20
6.2975500961
 30
0.0
  0
VERTEX
  5
323
330
1E3
100
AcDbEntity
  8
0
  6
CONTINUOUS
 62
     7
100
AcDbVertex
100
AcDb2dVertex
 10
9.1059344039
 20
6.2784096281
 30
0.0
  0
VERTEX
  5
324
330
1E3
100
AcDbEntity
  8
0
  6
CONTINUOUS
 62
     7
100
AcDbVertex
100
AcDb2dVertex
 10
9.0929504572
 20
6.2601346474
 30
0.0
  0
VERTEX
  5
325
330
1E3
100
AcDbEntity
  8
0
  6
CONTINUOUS
 62
     7
100
AcDbVertex
100
AcDb2dVertex
 10
9.0791015826
 20
6.242906779
 30
0.0
  0
VERTEX
  5
326
330
1E3
100
AcDbEntity
  8
0
  6
CONTINUOUS
 62
     7
100
AcDbVertex
100
AcDb2dVertex
 10
9.0645254163
 20
6.2268972412
 30
0.0
  0
VERTEX
  5
327
330
1E3
100
AcDbEntity
  8
0
  6
CONTINUOUS
 62
     7
100
AcDbVertex
100
AcDb2dVertex
 10
9.0493668229
 20
6.212265144
 30
0.0
  0
VERTEX
  5
328
330
1E3
100
AcDbEntity
  8
0
  6
CONTINUOUS
 62
     7
100
AcDbVertex
100
AcDb2dVertex
 10
9.0337764553
 20
6.1991559077
 30
0.0
  0
VERTEX
  5
329
330
1E3
100
AcDbEntity
  8
0
  6
CONTINUOUS
 62
     7
100
AcDbVertex
100
AcDb2dVertex
 10
9.0179092575
 20
6.1876998179
 30
0.0
  0
VERTEX
  5
32A
330
1E3
100
AcDbEntity
  8
0
  6
CONTINUOUS
 62
     7
100
AcDbVertex
100
AcDb2dVertex
 10
9.0019229249
 20
6.1780107302
 30
0.0
  0
VERTEX
  5
32B
330
1E3
100
AcDbEntity
  8
0
  6
CONTINUOUS
 62
     7
100
AcDbVertex
100
AcDb2dVertex
 10
8.9859763368
 20
6.1701849392
 30
0.0
  0
VERTEX
  5
32C
330
1E3
100
AcDbEntity
  8
0
  6
CONTINUOUS
 62
     7
100
AcDbVertex
100
AcDb2dVertex
 10
8.9702279777
 20
6.1643002211
 30
0.0
  0
VERTEX
  5
32D
330
1E3
100
AcDbEntity
  8
0
  6
CONTINUOUS
 62
     7
100
AcDbVertex
100
AcDb2dVertex
 10
8.9548343617
 20
6.1604150609
 30
0.0
  0
VERTEX
  5
32E
330
1E3
100
AcDbEntity
  8
0
  6
CONTINUOUS
 62
     7
100
AcDbVertex
100
AcDb2dVertex
 10
8.9399484775
 20
6.1585680711
 30
0.0
  0
VERTEX
  5
32F
330
1E3
100
AcDbEntity
  8
0
  6
CONTINUOUS
 62
     7
100
AcDbVertex
100
AcDb2dVertex
 10
8.9257182678
 20
6.1587776078
 30
0.0
  0
VERTEX
  5
330
330
1E3
100
AcDbEntity
  8
0
  6
CONTINUOUS
 62
     7
100
AcDbVertex
100
AcDb2dVertex
 10
8.9122851587
 20
6.1610415886
 30
0.0
  0
VERTEX
  5
331
330
1E3
100
AcDbEntity
  8
0
  6
CONTINUOUS
 62
     7
100
AcDbVertex
100
AcDb2dVertex
 10
8.8997826546
 20
6.1653375131
 30
0.0
  0
VERTEX
  5
332
330
1E3
100
AcDbEntity
  8
0
  6
CONTINUOUS
 62
     7
100
AcDbVertex
100
AcDb2dVertex
 10
8.8883350109
 20
6.1716226864
 30
0.0
  0
VERTEX
  5
333
330
1E3
100
AcDbEntity
  8
0
  6
CONTINUOUS
 62
     7
100
AcDbVertex
100
AcDb2dVertex
 10
8.8780559995
 20
6.1798346436
 30
0.0
  0
VERTEX
  5
334
330
1E3
100
AcDbEntity
  8
0
  6
CONTINUOUS
 62
     7
100
AcDbVertex
100
AcDb2dVertex
 10
8.8690477777
 20
6.1898917706
 30
0.0
  0
VERTEX
  5
335
330
1E3
100
AcDbEntity
  8
0
  6
CONTINUOUS
 62
     7
100
AcDbVertex
100
AcDb2dVertex
 10
8.8613998735
 20
6.2016941152
 30
0.0
  0
VERTEX
  5
336
330
1E3
100
AcDbEntity
  8
0
  6
CONTINUOUS
 62
     7
100
AcDbVertex
100
AcDb2dVertex
 10
8.8551882949
 20
6.2151243804
 30
0.0
  0
VERTEX
  5
337
330
1E3
100
AcDbEntity
  8
0
  6
CONTINUOUS
 62
     7
100
AcDbVertex
100
AcDb2dVertex
 10
8.8504747756
 20
6.2300490901
 30
0.0
  0
VERTEX
  5
338
330
1E3
100
AcDbEntity
  8
0
  6
CONTINUOUS
 62
     7
100
AcDbVertex
100
AcDb2dVertex
 10
8.8473061606
 20
6.246319916
 30
0.0
  0
VERTEX
  5
339
330
1E3
100
AcDbEntity
  8
0
  6
CONTINUOUS
 62
     7
100
AcDbVertex
100
AcDb2dVertex
 10
8.845713941
 20
6.2637751511
 30
0.0
  0
VERTEX
  5
33A
330
1E3
100
AcDbEntity
  8
0
  6
CONTINUOUS
 62
     7
100
AcDbVertex
100
AcDb2dVertex
 10
8.845713941
 20
6.2822413175
 30
0.0
  0
VERTEX
  5
33B
330
1E3
100
AcDbEntity
  8
0
  6
CONTINUOUS
 62
     7
100
AcDbVertex
100
AcDb2dVertex
 10
8.8473061606
 20
6.3015348903
 30
0.0
  0
VERTEX
  5
33C
330
1E3
100
AcDbEntity
  8
0
  6
CONTINUOUS
 62
     7
100
AcDbVertex
100
AcDb2dVertex
 10
8.8504747756
 20
6.3214641211
 30
0.0
  0
VERTEX
  5
33D
330
1E3
100
AcDbEntity
  8
0
  6
CONTINUOUS
 62
     7
100
AcDbVertex
100
AcDb2dVertex
 10
8.8551882949
 20
6.3418309444
 30
0.0
  0
VERTEX
  5
33E
330
1E3
100
AcDbEntity
  8
0
  6
CONTINUOUS
 62
     7
100
AcDbVertex
100
AcDb2dVertex
 10
8.8613998735
 20
6.3624329455
 30
0.0
  0
VERTEX
  5
33F
330
1E3
100
AcDbEntity
  8
0
  6
CONTINUOUS
 62
     7
100
AcDbVertex
100
AcDb2dVertex
 10
8.8690477777
 20
6.3830653724
 30
0.0
  0
VERTEX
  5
340
330
1E3
100
AcDbEntity
  8
0
  6
CONTINUOUS
 62
     7
100
AcDbVertex
100
AcDb2dVertex
 10
8.8780559995
 20
6.4035231709
 30
0.0
  0
VERTEX
  5
341
330
1E3
100
AcDbEntity
  8
0
  6
CONTINUOUS
 62
     7
100
AcDbVertex
100
AcDb2dVertex
 10
8.8883350109
 20
6.4236030221
 30
0.0
  0
VERTEX
  5
342
330
1E3
100
AcDbEntity
  8
0
  6
CONTINUOUS
 62
     7
100
AcDbVertex
100
AcDb2dVertex
 10
8.8997826546
 20
6.4431053634
 30
0.0
  0
VERTEX
  5
343
330
1E3
100
AcDbEntity
  8
0
  6
CONTINUOUS
 62
     7
100
AcDbVertex
100
AcDb2dVertex
 10
8.9122851587
 20
6.4618363719
 30
0.0
  0
VERTEX
  5
344
330
1E3
100
AcDbEntity
  8
0
  6
CONTINUOUS
 62
     7
100
AcDbVertex
100
AcDb2dVertex
 10
8.9257182678
 20
6.4796098903
 30
0.0
  0
VERTEX
  5
345
330
1E3
100
AcDbEntity
  8
0
  6
CONTINUOUS
 62
     7
100
AcDbVertex
100
AcDb2dVertex
 10
8.9399484775
 20
6.4962492774
 30
0.0
  0
VERTEX
  5
346
330
1E3
100
AcDbEntity
  8
0
  6
CONTINUOUS
 62
     7
100
AcDbVertex
100
AcDb2dVertex
 10
8.9548343617
 20
6.5115891636
 30
0.0
  0
VERTEX
  5
347
330
1E3
100
AcDbEntity
  8
0
  6
CONTINUOUS
 62
     7
100
AcDbVertex
100
AcDb2dVertex
 10
8.9702279777
 20
6.5254770942
 30
0.0
  0
VERTEX
  5
348
330
1E3
100
AcDbEntity
  8
0
  6
CONTINUOUS
 62
     7
100
AcDbVertex
100
AcDb2dVertex
 10
8.9859763368
 20
6.5377750445
 30
0.0
  0
VERTEX
  5
349
330
1E3
100
AcDbEntity
  8
0
  6
CONTINUOUS
 62
     7
100
AcDbVertex
100
AcDb2dVertex
 10
9.0019229249
 20
6.5483607922
 30
0.0
  0
VERTEX
  5
34A
330
1E3
100
AcDbEntity
  8
0
  6
CONTINUOUS
 62
     7
100
AcDbVertex
100
AcDb2dVertex
 10
9.0179092575
 20
6.5571291313
 30
0.0
  0
VERTEX
  5
34B
330
1E3
100
AcDbEntity
  8
0
  6
CONTINUOUS
 62
     7
100
AcDbVertex
100
AcDb2dVertex
 10
9.0337764553
 20
6.5639929181
 30
0.0
  0
VERTEX
  5
34C
330
1E3
100
AcDbEntity
  8
0
  6
CONTINUOUS
 62
     7
100
AcDbVertex
100
AcDb2dVertex
 10
9.0493668229
 20
6.5688839371
 30
0.0
  0
VERTEX
  5
34D
330
1E3
100
AcDbEntity
  8
0
  6
CONTINUOUS
 62
     7
100
AcDbVertex
100
AcDb2dVertex
 10
9.0645254163
 20
6.5717535793
 30
0.0
  0
VERTEX
  5
34E
330
1E3
100
AcDbEntity
  8
0
  6
CONTINUOUS
 62
     7
100
AcDbVertex
100
AcDb2dVertex
 10
9.0791015826
 20
6.5725733249
 30
0.0
  0
VERTEX
  5
34F
330
1E3
100
AcDbEntity
  8
0
  6
CONTINUOUS
 62
     7
100
AcDbVertex
100
AcDb2dVertex
 10
9.0929504572
 20
6.5713350268
 30
0.0
  0
VERTEX
  5
350
330
1E3
100
AcDbEntity
  8
0
  6
CONTINUOUS
 62
     7
100
AcDbVertex
100
AcDb2dVertex
 10
9.1059344039
 20
6.5680509919
 30
0.0
  0
VERTEX
  5
351
330
1E3
100
AcDbEntity
  8
0
  6
CONTINUOUS
 62
     7
100
AcDbVertex
100
AcDb2dVertex
 10
9.1179243823
 20
6.5627538582
 30
0.0
  0
VERTEX
  5
352
330
1E3
100
AcDbEntity
  8
0
  6
CONTINUOUS
 62
     7
100
AcDbVertex
100
AcDb2dVertex
 10
9.1288012306
 20
6.5554962712
 30
0.0
  0
VERTEX
  5
353
330
1E3
100
AcDbEntity
  8
0
  6
CONTINUOUS
 62
     7
100
AcDbVertex
100
AcDb2dVertex
 10
9.1384568499
 20
6.54635036
 30
0.0
  0
VERTEX
  5
354
330
1E3
100
AcDbEntity
  8
0
  6
CONTINUOUS
 62
     7
100
AcDbVertex
100
AcDb2dVertex
 10
9.1467952782
 20
6.5354070208
 30
0.0
  0
VERTEX
  5
355
330
1E3
100
AcDbEntity
  8
0
  6
CONTINUOUS
 62
     7
100
AcDbVertex
100
AcDb2dVertex
 10
9.1537336446
 20
6.5227750133
 30
0.0
  0
VERTEX
  5
356
330
1E3
100
AcDbEntity
  8
0
  6
CONTINUOUS
 62
     7
100
AcDbVertex
100
AcDb2dVertex
 10
9.1592029923
 20
6.5085798802
 30
0.0
  0
VERTEX
  5
357
330
1E3
100
AcDbEntity
  8
0
  6
CONTINUOUS
 62
     7
100
AcDbVertex
100
AcDb2dVertex
 10
9.1631489646
 20
6.492962699
 30
0.0
  0
VERTEX
  5
358
330
1E3
100
AcDbEntity
  8
0
  6
CONTINUOUS
 62
     7
100
AcDbVertex
100
AcDb2dVertex
 10
9.1655323447
 20
6.4760786804
 30
0.0
  0
VERTEX
  5
359
330
1E3
100
AcDbEntity
  8
0
  6
CONTINUOUS
 62
     7
100
AcDbVertex
100
AcDb2dVertex
 10
9.1663294453
 20
6.4580956252
 30
0.0
  0
SEQEND
  5
35A
330
1E3
100
AcDbEntity
  8
0
  6
CONTINUOUS
 62
     7
  0
SPLINE
  5
1E4
330
1F
100
AcDbEntity
  8
0
  6
CONTINUOUS
 62
     7
100
AcDbSpline
210
0.0
220
0.0
230
1.0
 70
     8
 71
     3
 72
    14
 73
    10
 74
     0
 42
0.00000001
 43
0.00000001
 40
0.0
 40
0.0
 40
0.0
 40
0.0
 40
0.0000733520254492
 40
0.2096754310204324
 40
0.3965059849398265
 40
0.5606443262507997
 40
0.702225225830561
 40
0.8438812636072295
 40
1.0
 40
1.0
 40
1.0
 40
1.0
 10
8.498068978601289
 20
7.210178027565742
 30
0.0
 10
8.498068606501551
 20
7.210175902847197
 30
0.0
 10
8.497004966162493
 20
7.204102433517627
 30
0.0
 10
8.500551510215914
 20
7.192349751887521
 30
0.0
 10
8.508241293303255
 20
7.177150981510678
 30
0.0
 10
8.519451576663919
 20
7.165226011066995
 30
0.0
 10
8.53228921612782
 20
7.156146988798728
 30
0.0
 10
8.546994726475237
 20
7.149135185230186
 30
0.0
 10
8.558539418186603
 20
7.14622575979222
 30
0.0
 10
8.564592122573837
 20
7.144700392761814
 30
0.0
  0
SPLINE
  5
1E5
330
1F
100
AcDbEntity
  8
0
  6
CONTINUOUS
 62
     7
100
AcDbSpline
210
0.0
220
0.0
230
1.0
 70
     8
 71
     3
 72
    12
 73
     8
 74
     0
 42
0.00000001
 43
0.00000001
 40
0.0
 40
0.0
 40
0.0
 40
0.0
 40
0.1569676201711095
 40
0.3284891074012758
 40
0.5261095534414211
 40
0.7499933000936525
 40
1.0
 40
1.0
 40
1.0
 40
1.0
 10
8.686527146386515
 20
7.160661857829754
 30
0.0
 10
8.691043049223516
 20
7.162888902657278
 30
0.0
 10
8.70049356449807
 20
7.167549481487095
 30
0.0
 10
8.712961691377128
 20
7.175743259005481
 30
0.0
 10
8.7240453914466
 20
7.185529532869603
 30
0.0
 10
8.732518084124946
 20
7.197300724642536
 30
0.0
 10
8.733674942712023
 20
7.20573080267667
 30
0.0
 10
8.734285257605928
 20
7.210178193428209
 30
0.0
  0
ARC
  5
1E6
330
1F
100
AcDbEntity
  8
0
  6
CONTINUOUS
 62
     7
100
AcDbCircle
 10
9.0402895281
 20
6.4722860482
 30
0.0
 40
0.0848091222602611
100
AcDbArc
 50
350.3678553694
 51
122.345450471
  0
POLYLINE
  5
1E7
330
1F
100
AcDbEntity
  8
0
  6
CONTINUOUS
 62
     7
100
AcDb2dPolyline
 66
     1
 10
0.0
 20
0.0
 30
0.0
  0
VERTEX
  5
35B
330
1E7
100
AcDbEntity
  8
0
  6
CONTINUOUS
 62
     7
100
AcDbVertex
100
AcDb2dVertex
 10
8.845890864
 20
6.2857911248
 30
0.0
  0
VERTEX
  5
35C
330
1E7
100
AcDbEntity
  8
0
  6
CONTINUOUS
 62
     7
100
AcDbVertex
100
AcDb2dVertex
 10
8.8472867137
 20
6.2728411294
 30
0.0
  0
VERTEX
  5
35D
330
1E7
100
AcDbEntity
  8
0
  6
CONTINUOUS
 62
     7
100
AcDbVertex
100
AcDb2dVertex
 10
8.8504186519
 20
6.2579262956
 30
0.0
  0
VERTEX
  5
35E
330
1E7
100
AcDbEntity
  8
0
  6
CONTINUOUS
 62
     7
100
AcDbVertex
100
AcDb2dVertex
 10
8.8550721511
 20
6.2443690046
 30
0.0
  0
VERTEX
  5
35F
330
1E7
100
AcDbEntity
  8
0
  6
CONTINUOUS
 62
     7
100
AcDbVertex
100
AcDb2dVertex
 10
8.8611944852
 20
6.2323228659
 30
0.0
  0
VERTEX
  5
360
330
1E7
100
AcDbEntity
  8
0
  6
CONTINUOUS
 62
     7
100
AcDbVertex
100
AcDb2dVertex
 10
8.8687162857
 20
6.221924367
 30
0.0
  0
VERTEX
  5
361
330
1E7
100
AcDbEntity
  8
0
  6
CONTINUOUS
 62
     7
100
AcDbVertex
100
AcDb2dVertex
 10
8.8775523276
 20
6.2132913272
 30
0.0
  0
VERTEX
  5
362
330
1E7
100
AcDbEntity
  8
0
  6
CONTINUOUS
 62
     7
100
AcDbVertex
100
AcDb2dVertex
 10
8.887602495
 20
6.2065215621
 30
0.0
  0
VERTEX
  5
363
330
1E7
100
AcDbEntity
  8
0
  6
CONTINUOUS
 62
     7
100
AcDbVertex
100
AcDb2dVertex
 10
8.8987529156
 20
6.201691776
 30
0.0
  0
VERTEX
  5
364
330
1E7
100
AcDbEntity
  8
0
  6
CONTINUOUS
 62
     7
100
AcDbVertex
100
AcDb2dVertex
 10
8.9108772506
 20
6.1988566922
 30
0.0
  0
VERTEX
  5
365
330
1E7
100
AcDbEntity
  8
0
  6
CONTINUOUS
 62
     7
100
AcDbVertex
100
AcDb2dVertex
 10
8.9238381265
 20
6.1980484334
 30
0.0
  0
VERTEX
  5
366
330
1E7
100
AcDbEntity
  8
0
  6
CONTINUOUS
 62
     7
100
AcDbVertex
100
AcDb2dVertex
 10
8.9374886912
 20
6.1992761574
 30
0.0
  0
VERTEX
  5
367
330
1E7
100
AcDbEntity
  8
0
  6
CONTINUOUS
 62
     7
100
AcDbVertex
100
AcDb2dVertex
 10
8.9516742786
 20
6.2025259538
 30
0.0
  0
VERTEX
  5
368
330
1E7
100
AcDbEntity
  8
0
  6
CONTINUOUS
 62
     7
100
AcDbVertex
100
AcDb2dVertex
 10
8.9662341602
 20
6.2077610009
 30
0.0
  0
VERTEX
  5
369
330
1E7
100
AcDbEntity
  8
0
  6
CONTINUOUS
 62
     7
100
AcDbVertex
100
AcDb2dVertex
 10
8.9810033667
 20
6.2149219836
 30
0.0
  0
VERTEX
  5
36A
330
1E7
100
AcDbEntity
  8
0
  6
CONTINUOUS
 62
     7
100
AcDbVertex
100
AcDb2dVertex
 10
8.9958145572
 20
6.2239277651
 30
0.0
  0
VERTEX
  5
36B
330
1E7
100
AcDbEntity
  8
0
  6
CONTINUOUS
 62
     7
100
AcDbVertex
100
AcDb2dVertex
 10
9.0104999149
 20
6.2346763063
 30
0.0
  0
VERTEX
  5
36C
330
1E7
100
AcDbEntity
  8
0
  6
CONTINUOUS
 62
     7
100
AcDbVertex
100
AcDb2dVertex
 10
9.0248930488
 20
6.247045822
 30
0.0
  0
VERTEX
  5
36D
330
1E7
100
AcDbEntity
  8
0
  6
CONTINUOUS
 62
     7
100
AcDbVertex
100
AcDb2dVertex
 10
9.038830879
 20
6.2608961605
 30
0.0
  0
VERTEX
  5
36E
330
1E7
100
AcDbEntity
  8
0
  6
CONTINUOUS
 62
     7
100
AcDbVertex
100
AcDb2dVertex
 10
9.0521554843
 20
6.2760703921
 30
0.0
  0
VERTEX
  5
36F
330
1E7
100
AcDbEntity
  8
0
  6
CONTINUOUS
 62
     7
100
AcDbVertex
100
AcDb2dVertex
 10
9.0647158917
 20
6.2923965865
 30
0.0
  0
VERTEX
  5
370
330
1E7
100
AcDbEntity
  8
0
  6
CONTINUOUS
 62
     7
100
AcDbVertex
100
AcDb2dVertex
 10
9.0763697866
 20
6.3096897616
 30
0.0
  0
VERTEX
  5
371
330
1E7
100
AcDbEntity
  8
0
  6
CONTINUOUS
 62
     7
100
AcDbVertex
100
AcDb2dVertex
 10
9.0869851258
 20
6.3277539786
 30
0.0
  0
VERTEX
  5
372
330
1E7
100
AcDbEntity
  8
0
  6
CONTINUOUS
 62
     7
100
AcDbVertex
100
AcDb2dVertex
 10
9.0964416332
 20
6.3463845629
 30
0.0
  0
VERTEX
  5
373
330
1E7
100
AcDbEntity
  8
0
  6
CONTINUOUS
 62
     7
100
AcDbVertex
100
AcDb2dVertex
 10
9.1046321629
 20
6.3653704224
 30
0.0
  0
VERTEX
  5
374
330
1E7
100
AcDbEntity
  8
0
  6
CONTINUOUS
 62
     7
100
AcDbVertex
100
AcDb2dVertex
 10
9.1114639128
 20
6.3844964398
 30
0.0
  0
VERTEX
  5
375
330
1E7
100
AcDbEntity
  8
0
  6
CONTINUOUS
 62
     7
100
AcDbVertex
100
AcDb2dVertex
 10
9.1168594766
 20
6.4035459097
 30
0.0
  0
VERTEX
  5
376
330
1E7
100
AcDbEntity
  8
0
  6
CONTINUOUS
 62
     7
100
AcDbVertex
100
AcDb2dVertex
 10
9.1207577203
 20
6.4223029939
 30
0.0
  0
VERTEX
  5
377
330
1E7
100
AcDbEntity
  8
0
  6
CONTINUOUS
 62
     7
100
AcDbVertex
100
AcDb2dVertex
 10
9.1231144752
 20
6.4405551673
 30
0.0
  0
VERTEX
  5
378
330
1E7
100
AcDbEntity
  8
0
  6
CONTINUOUS
 62
     7
100
AcDbVertex
100
AcDb2dVertex
 10
9.1239030385
 20
6.4580956252
 30
0.0
  0
SEQEND
  5
379
330
1E7
100
AcDbEntity
  8
0
  6
CONTINUOUS
 62
     7
  0
SPLINE
  5
1E8
330
1F
100
AcDbEntity
  8
0
  6
CONTINUOUS
 62
     7
100
AcDbSpline
210
0.0
220
0.0
230
1.0
 70
     8
 71
     3
 72
    14
 73
    10
 74
     0
 42
0.00000001
 43
0.00000001
 40
0.0
 40
0.0
 40
0.0
 40
0.0
 40
0.0000733520254458
 40
0.2096754310167043
 40
0.3965059849348542
 40
0.5606443262470738
 40
0.702225225830578
 40
0.8438812636056809
 40
1.0
 40
1.0
 40
1.0
 40
1.0
 10
7.607225789704853
 20
7.724450853910756
 30
0.0
 10
7.607225417605114
 20
7.72444872919221
 30
0.0
 10
7.606161777266114
 20
7.718375259862669
 30
0.0
 10
7.609708321319395
 20
7.7066225782328
 30
0.0
 10
7.617398104406587
 20
7.691423807855995
 30
0.0
 10
7.628608387767242
 20
7.679498837412206
 30
0.0
 10
7.641446027231213
 20
7.670419815143835
 30
0.0
 10
7.656151537578745
 20
7.663408011575209
 30
0.0
 10
7.667696229290101
 20
7.660498586137232
 30
0.0
 10
7.673748933677388
 20
7.658973219106805
 30
0.0
  0
SPLINE
  5
1E9
330
1F
100
AcDbEntity
  8
0
  6
CONTINUOUS
 62
     7
100
AcDbSpline
210
0.0
220
0.0
230
1.0
 70
     8
 71
     3
 72
    12
 73
     8
 74
     0
 42
0.00000001
 43
0.00000001
 40
0.0
 40
0.0
 40
0.0
 40
0.0
 40
0.1569676201720724
 40
0.3284891074087266
 40
0.5261095534508549
 40
0.749993300100588
 40
0.9999999999999999
 40
0.9999999999999999
 40
0.9999999999999999
 40
0.9999999999999999
 10
7.795683957489982
 20
7.674934684174718
 30
0.0
 10
7.800199860327016
 20
7.677161729002258
 30
0.0
 10
7.809650375601795
 20
7.681822307832182
 30
0.0
 10
7.82211850248105
 20
7.690016085350768
 30
0.0
 10
7.833202202550511
 20
7.699802359215068
 30
0.0
 10
7.841674895228594
 20
7.711573550987906
 30
0.0
 10
7.84283175381562
 20
7.72000362902183
 30
0.0
 10
7.843442068709491
 20
7.724451019773222
 30
0.0
  0
ARC
  5
1EA
330
1F
100
AcDbEntity
  8
0
  6
CONTINUOUS
 62
     7
100
AcDbCircle
 10
7.9614504654
 20
6.9684549533
 30
0.0
 40
1.162592415104623
100
AcDbArc
 50
122.575180305
 51
177.4301962277
  0
POLYLINE
  5
1EB
330
1F
100
AcDbEntity
  8
0
  6
CONTINUOUS
 62
     7
100
AcDb2dPolyline
 66
     1
 10
0.0
 20
0.0
 30
0.0
  0
VERTEX
  5
37A
330
1EB
100
AcDbEntity
  8
0
  6
CONTINUOUS
 62
     7
100
AcDbVertex
100
AcDb2dVertex
 10
8.6997082179
 20
7.265308683
 30
0.0
  0
VERTEX
  5
37B
330
1EB
100
AcDbEntity
  8
0
  6
CONTINUOUS
 62
     7
100
AcDbVertex
100
AcDb2dVertex
 10
8.7079669916
 20
7.2600127632
 30
0.0
  0
VERTEX
  5
37C
330
1EB
100
AcDbEntity
  8
0
  6
CONTINUOUS
 62
     7
100
AcDbVertex
100
AcDb2dVertex
 10
8.7174183308
 20
7.2522205848
 30
0.0
  0
VERTEX
  5
37D
330
1EB
100
AcDbEntity
  8
0
  6
CONTINUOUS
 62
     7
100
AcDbVertex
100
AcDb2dVertex
 10
8.7248991442
 20
7.2437448912
 30
0.0
  0
VERTEX
  5
37E
330
1EB
100
AcDbEntity
  8
0
  6
CONTINUOUS
 62
     7
100
AcDbVertex
100
AcDb2dVertex
 10
8.730263826
 20
7.2347506521
 30
0.0
  0
VERTEX
  5
37F
330
1EB
100
AcDbEntity
  8
0
  6
CONTINUOUS
 62
     7
100
AcDbVertex
100
AcDb2dVertex
 10
8.7334079589
 20
7.22541293
 30
0.0
  0
VERTEX
  5
380
330
1EB
100
AcDbEntity
  8
0
  6
CONTINUOUS
 62
     7
100
AcDbVertex
100
AcDb2dVertex
 10
8.7342703459
 20
7.2159134732
 30
0.0
  0
VERTEX
  5
381
330
1EB
100
AcDbEntity
  8
0
  6
CONTINUOUS
 62
     7
100
AcDbVertex
100
AcDb2dVertex
 10
8.7328342017
 20
7.2064371778
 30
0.0
  0
VERTEX
  5
382
330
1EB
100
AcDbEntity
  8
0
  6
CONTINUOUS
 62
     7
100
AcDbVertex
100
AcDb2dVertex
 10
8.7291274791
 20
7.197168489
 30
0.0
  0
VERTEX
  5
383
330
1EB
100
AcDbEntity
  8
0
  6
CONTINUOUS
 62
     7
100
AcDbVertex
100
AcDb2dVertex
 10
8.7232223253
 20
7.1882878115
 30
0.0
  0
VERTEX
  5
384
330
1EB
100
AcDbEntity
  8
0
  6
CONTINUOUS
 62
     7
100
AcDbVertex
100
AcDb2dVertex
 10
8.7152336774
 20
7.1799679973
 30
0.0
  0
VERTEX
  5
385
330
1EB
100
AcDbEntity
  8
0
  6
CONTINUOUS
 62
     7
100
AcDbVertex
100
AcDb2dVertex
 10
8.7053170253
 20
7.1723709823
 30
0.0
  0
VERTEX
  5
386
330
1EB
100
AcDbEntity
  8
0
  6
CONTINUOUS
 62
     7
100
AcDbVertex
100
AcDb2dVertex
 10
8.6936653854
 20
7.1656446338
 30
0.0
  0
VERTEX
  5
387
330
1EB
100
AcDbEntity
  8
0
  6
CONTINUOUS
 62
     7
100
AcDbVertex
100
AcDb2dVertex
 10
8.6805055436
 20
7.1599198724
 30
0.0
  0
VERTEX
  5
388
330
1EB
100
AcDbEntity
  8
0
  6
CONTINUOUS
 62
     7
100
AcDbVertex
100
AcDb2dVertex
 10
8.6660936412
 20
7.1553081241
 30
0.0
  0
VERTEX
  5
389
330
1EB
100
AcDbEntity
  8
0
  6
CONTINUOUS
 62
     7
100
AcDbVertex
100
AcDb2dVertex
 10
8.6507101896
 20
7.1518991514
 30
0.0
  0
VERTEX
  5
38A
330
1EB
100
AcDbEntity
  8
0
  6
CONTINUOUS
 62
     7
100
AcDbVertex
100
AcDb2dVertex
 10
8.6346546101
 20
7.149759306
 30
0.0
  0
VERTEX
  5
38B
330
1EB
100
AcDbEntity
  8
0
  6
CONTINUOUS
 62
     7
100
AcDbVertex
100
AcDb2dVertex
 10
8.6182394063
 20
7.1489302376
 30
0.0
  0
VERTEX
  5
38C
330
1EB
100
AcDbEntity
  8
0
  6
CONTINUOUS
 62
     7
100
AcDbVertex
100
AcDb2dVertex
 10
8.6017840815
 20
7.149428083
 30
0.0
  0
VERTEX
  5
38D
330
1EB
100
AcDbEntity
  8
0
  6
CONTINUOUS
 62
     7
100
AcDbVertex
100
AcDb2dVertex
 10
8.5856089199
 20
7.1512431523
 30
0.0
  0
VERTEX
  5
38E
330
1EB
100
AcDbEntity
  8
0
  6
CONTINUOUS
 62
     7
100
AcDbVertex
100
AcDb2dVertex
 10
8.5700287526
 20
7.1543401172
 30
0.0
  0
VERTEX
  5
38F
330
1EB
100
AcDbEntity
  8
0
  6
CONTINUOUS
 62
     7
100
AcDbVertex
100
AcDb2dVertex
 10
8.5553468298
 20
7.1586586988
 30
0.0
  0
VERTEX
  5
390
330
1EB
100
AcDbEntity
  8
0
  6
CONTINUOUS
 62
     7
100
AcDbVertex
100
AcDb2dVertex
 10
8.5418489184
 20
7.1641148408
 30
0.0
  0
VERTEX
  5
391
330
1EB
100
AcDbEntity
  8
0
  6
CONTINUOUS
 62
     7
100
AcDbVertex
100
AcDb2dVertex
 10
8.52979774
 20
7.1706023457
 30
0.0
  0
VERTEX
  5
392
330
1EB
100
AcDbEntity
  8
0
  6
CONTINUOUS
 62
     7
100
AcDbVertex
100
AcDb2dVertex
 10
8.519427857
 20
7.1779949415
 30
0.0
  0
VERTEX
  5
393
330
1EB
100
AcDbEntity
  8
0
  6
CONTINUOUS
 62
     7
100
AcDbVertex
100
AcDb2dVertex
 10
8.5109411074
 20
7.1861487397
 30
0.0
  0
VERTEX
  5
394
330
1EB
100
AcDbEntity
  8
0
  6
CONTINUOUS
 62
     7
100
AcDbVertex
100
AcDb2dVertex
 10
8.5045026762
 20
7.194905036
 30
0.0
  0
VERTEX
  5
395
330
1EB
100
AcDbEntity
  8
0
  6
CONTINUOUS
 62
     7
100
AcDbVertex
100
AcDb2dVertex
 10
8.50023788
 20
7.204093399
 30
0.0
  0
VERTEX
  5
396
330
1EB
100
AcDbEntity
  8
0
  6
CONTINUOUS
 62
     7
100
AcDbVertex
100
AcDb2dVertex
 10
8.4982297282
 20
7.2135349876
 30
0.0
  0
VERTEX
  5
397
330
1EB
100
AcDbEntity
  8
0
  6
CONTINUOUS
 62
     7
100
AcDbVertex
100
AcDb2dVertex
 10
8.4985173074
 20
7.2230460322
 30
0.0
  0
VERTEX
  5
398
330
1EB
100
AcDbEntity
  8
0
  6
CONTINUOUS
 62
     7
100
AcDbVertex
100
AcDb2dVertex
 10
8.50109502
 20
7.2324414109
 30
0.0
  0
VERTEX
  5
399
330
1EB
100
AcDbEntity
  8
0
  6
CONTINUOUS
 62
     7
100
AcDbVertex
100
AcDb2dVertex
 10
8.5059126938
 20
7.2415382535
 30
0.0
  0
VERTEX
  5
39A
330
1EB
100
AcDbEntity
  8
0
  6
CONTINUOUS
 62
     7
100
AcDbVertex
100
AcDb2dVertex
 10
8.5128765583
 20
7.2501595003
 30
0.0
  0
VERTEX
  5
39B
330
1EB
100
AcDbEntity
  8
0
  6
CONTINUOUS
 62
     7
100
AcDbVertex
100
AcDb2dVertex
 10
8.5218510697
 20
7.2581373485
 30
0.0
  0
VERTEX
  5
39C
330
1EB
100
AcDbEntity
  8
0
  6
CONTINUOUS
 62
     7
100
AcDbVertex
100
AcDb2dVertex
 10
8.5326615495
 20
7.2653165184
 30
0.0
  0
VERTEX
  5
39D
330
1EB
100
AcDbEntity
  8
0
  6
CONTINUOUS
 62
     7
100
AcDbVertex
100
AcDb2dVertex
 10
8.5326615495
 20
7.2653165184
 30
0.0
  0
SEQEND
  5
39E
330
1EB
100
AcDbEntity
  8
0
  6
CONTINUOUS
 62
     7
  0
POLYLINE
  5
1EC
330
1F
100
AcDbEntity
  8
0
  6
CONTINUOUS
 62
     7
100
AcDb2dPolyline
 66
     1
 10
0.0
 20
0.0
 30
0.0
  0
VERTEX
  5
39F
330
1EC
100
AcDbEntity
  8
0
  6
CONTINUOUS
 62
     7
100
AcDbVertex
100
AcDb2dVertex
 10
8.5468036851
 20
7.2734832535
 30
0.0
  0
VERTEX
  5
3A0
330
1EC
100
AcDbEntity
  8
0
  6
CONTINUOUS
 62
     7
100
AcDbVertex
100
AcDb2dVertex
 10
8.5370267693
 20
7.2669004456
 30
0.0
  0
VERTEX
  5
3A1
330
1EC
100
AcDbEntity
  8
0
  6
CONTINUOUS
 62
     7
100
AcDbVertex
100
AcDb2dVertex
 10
8.5291050936
 20
7.2595332186
 30
0.0
  0
VERTEX
  5
3A2
330
1EC
100
AcDbEntity
  8
0
  6
CONTINUOUS
 62
     7
100
AcDbVertex
100
AcDb2dVertex
 10
8.5232243353
 20
7.2515542541
 30
0.0
  0
VERTEX
  5
3A3
330
1EC
100
AcDbEntity
  8
0
  6
CONTINUOUS
 62
     7
100
AcDbVertex
100
AcDb2dVertex
 10
8.5195223344
 20
7.2431505722
 30
0.0
  0
VERTEX
  5
3A4
330
1EC
100
AcDbEntity
  8
0
  6
CONTINUOUS
 62
     7
100
AcDbVertex
100
AcDb2dVertex
 10
8.5180858627
 20
7.2345191481
 30
0.0
  0
VERTEX
  5
3A5
330
1EC
100
AcDbEntity
  8
0
  6
CONTINUOUS
 62
     7
100
AcDbVertex
100
AcDb2dVertex
 10
8.5189485899
 20
7.2258622951
 30
0.0
  0
VERTEX
  5
3A6
330
1EC
100
AcDbEntity
  8
0
  6
CONTINUOUS
 62
     7
100
AcDbVertex
100
AcDb2dVertex
 10
8.5220902943
 20
7.2173829225
 30
0.0
  0
VERTEX
  5
3A7
330
1EC
100
AcDbEntity
  8
0
  6
CONTINUOUS
 62
     7
100
AcDbVertex
100
AcDb2dVertex
 10
8.5274373372
 20
7.2092797795
 30
0.0
  0
VERTEX
  5
3A8
330
1EC
100
AcDbEntity
  8
0
  6
CONTINUOUS
 62
     7
100
AcDbVertex
100
AcDb2dVertex
 10
8.5348643882
 20
7.2017427971
 30
0.0
  0
VERTEX
  5
3A9
330
1EC
100
AcDbEntity
  8
0
  6
CONTINUOUS
 62
     7
100
AcDbVertex
100
AcDb2dVertex
 10
8.5441973637
 20
7.1949486356
 30
0.0
  0
VERTEX
  5
3AA
330
1EC
100
AcDbEntity
  8
0
  6
CONTINUOUS
 62
     7
100
AcDbVertex
100
AcDb2dVertex
 10
8.5552175067
 20
7.1890565444
 30
0.0
  0
VERTEX
  5
3AB
330
1EC
100
AcDbEntity
  8
0
  6
CONTINUOUS
 62
     7
100
AcDbVertex
100
AcDb2dVertex
 10
8.5676665142
 20
7.1842046292
 30
0.0
  0
VERTEX
  5
3AC
330
1EC
100
AcDbEntity
  8
0
  6
CONTINUOUS
 62
     7
100
AcDbVertex
100
AcDb2dVertex
 10
8.5812525921
 20
7.1805066148
 30
0.0
  0
VERTEX
  5
3AD
330
1EC
100
AcDbEntity
  8
0
  6
CONTINUOUS
 62
     7
100
AcDbVertex
100
AcDb2dVertex
 10
8.5956572944
 20
7.1780491794
 30
0.0
  0
VERTEX
  5
3AE
330
1EC
100
AcDbEntity
  8
0
  6
CONTINUOUS
 62
     7
100
AcDbVertex
100
AcDb2dVertex
 10
8.6105429868
 20
7.1768899234
 30
0.0
  0
VERTEX
  5
3AF
330
1EC
100
AcDbEntity
  8
0
  6
CONTINUOUS
 62
     7
100
AcDbVertex
100
AcDb2dVertex
 10
8.6255607616
 20
7.1770560185
 30
0.0
  0
VERTEX
  5
3B0
330
1EC
100
AcDbEntity
  8
0
  6
CONTINUOUS
 62
     7
100
AcDbVertex
100
AcDb2dVertex
 10
8.6403586146
 20
7.1785435719
 30
0.0
  0
VERTEX
  5
3B1
330
1EC
100
AcDbEntity
  8
0
  6
CONTINUOUS
 62
     7
100
AcDbVertex
100
AcDb2dVertex
 10
8.6545896968
 20
7.1813177163
 30
0.0
  0
VERTEX
  5
3B2
330
1EC
100
AcDbEntity
  8
0
  6
CONTINUOUS
 62
     7
100
AcDbVertex
100
AcDb2dVertex
 10
8.6679204438
 20
7.1853134283
 30
0.0
  0
VERTEX
  5
3B3
330
1EC
100
AcDbEntity
  8
0
  6
CONTINUOUS
 62
     7
100
AcDbVertex
100
AcDb2dVertex
 10
8.680038394
 20
7.1904370518
 30
0.0
  0
VERTEX
  5
3B4
330
1EC
100
AcDbEntity
  8
0
  6
CONTINUOUS
 62
     7
100
AcDbVertex
100
AcDb2dVertex
 10
8.690659513
 20
7.1965684933
 30
0.0
  0
VERTEX
  5
3B5
330
1EC
100
AcDbEntity
  8
0
  6
CONTINUOUS
 62
     7
100
AcDbVertex
100
AcDb2dVertex
 10
8.6995348508
 20
7.203564037
 30
0.0
  0
VERTEX
  5
3B6
330
1EC
100
AcDbEntity
  8
0
  6
CONTINUOUS
 62
     7
100
AcDbVertex
100
AcDb2dVertex
 10
8.7064563769
 20
7.2112597134
 30
0.0
  0
VERTEX
  5
3B7
330
1EC
100
AcDbEntity
  8
0
  6
CONTINUOUS
 62
     7
100
AcDbVertex
100
AcDb2dVertex
 10
8.7112618568
 20
7.2194751423
 30
0.0
  0
VERTEX
  5
3B8
330
1EC
100
AcDbEntity
  8
0
  6
CONTINUOUS
 62
     7
100
AcDbVertex
100
AcDb2dVertex
 10
8.7138386539
 20
7.2280177611
 30
0.0
  0
VERTEX
  5
3B9
330
1EC
100
AcDbEntity
  8
0
  6
CONTINUOUS
 62
     7
100
AcDbVertex
100
AcDb2dVertex
 10
8.7141263704
 20
7.2366873379
 30
0.0
  0
VERTEX
  5
3BA
330
1EC
100
AcDbEntity
  8
0
  6
CONTINUOUS
 62
     7
100
AcDbVertex
100
AcDb2dVertex
 10
8.7121182624
 20
7.2452806652
 30
0.0
  0
VERTEX
  5
3BB
330
1EC
100
AcDbEntity
  8
0
  6
CONTINUOUS
 62
     7
100
AcDbVertex
100
AcDb2dVertex
 10
8.7078613983
 20
7.2535963228
 30
0.0
  0
VERTEX
  5
3BC
330
1EC
100
AcDbEntity
  8
0
  6
CONTINUOUS
 62
     7
100
AcDbVertex
100
AcDb2dVertex
 10
8.7014555553
 20
7.2614393987
 30
0.0
  0
VERTEX
  5
3BD
330
1EC
100
AcDbEntity
  8
0
  6
CONTINUOUS
 62
     7
100
AcDbVertex
100
AcDb2dVertex
 10
8.693050881
 20
7.2686260577
 30
0.0
  0
VERTEX
  5
3BE
330
1EC
100
AcDbEntity
  8
0
  6
CONTINUOUS
 62
     7
100
AcDbVertex
100
AcDb2dVertex
 10
8.6828443739
 20
7.2749878508
 30
0.0
  0
VERTEX
  5
3BF
330
1EC
100
AcDbEntity
  8
0
  6
CONTINUOUS
 62
     7
100
AcDbVertex
100
AcDb2dVertex
 10
8.6710752657
 20
7.2803756629
 30
0.0
  0
VERTEX
  5
3C0
330
1EC
100
AcDbEntity
  8
0
  6
CONTINUOUS
 62
     7
100
AcDbVertex
100
AcDb2dVertex
 10
8.6580194145
 20
7.2846632082
 30
0.0
  0
VERTEX
  5
3C1
330
1EC
100
AcDbEntity
  8
0
  6
CONTINUOUS
 62
     7
100
AcDbVertex
100
AcDb2dVertex
 10
8.6439828384
 20
7.2877499903
 30
0.0
  0
VERTEX
  5
3C2
330
1EC
100
AcDbEntity
  8
0
  6
CONTINUOUS
 62
     7
100
AcDbVertex
100
AcDb2dVertex
 10
8.6292945426
 20
7.2895636577
 30
0.0
  0
VERTEX
  5
3C3
330
1EC
100
AcDbEntity
  8
0
  6
CONTINUOUS
 62
     7
100
AcDbVertex
100
AcDb2dVertex
 10
8.6142988086
 20
7.2900616995
 30
0.0
  0
VERTEX
  5
3C4
330
1EC
100
AcDbEntity
  8
0
  6
CONTINUOUS
 62
     7
100
AcDbVertex
100
AcDb2dVertex
 10
8.5993471235
 20
7.2892324421
 30
0.0
  0
VERTEX
  5
3C5
330
1EC
100
AcDbEntity
  8
0
  6
CONTINUOUS
 62
     7
100
AcDbVertex
100
AcDb2dVertex
 10
8.5847899422
 20
7.2870953224
 30
0.0
  0
VERTEX
  5
3C6
330
1EC
100
AcDbEntity
  8
0
  6
CONTINUOUS
 62
     7
100
AcDbVertex
100
AcDb2dVertex
 10
8.5709684726
 20
7.2837004329
 30
0.0
  0
VERTEX
  5
3C7
330
1EC
100
AcDbEntity
  8
0
  6
CONTINUOUS
 62
     7
100
AcDbVertex
100
AcDb2dVertex
 10
8.5582066784
 20
7.2791273469
 30
0.0
  0
VERTEX
  5
3C8
330
1EC
100
AcDbEntity
  8
0
  6
CONTINUOUS
 62
     7
100
AcDbVertex
100
AcDb2dVertex
 10
8.5468036851
 20
7.2734832535
 30
0.0
  0
SEQEND
  5
3C9
330
1EC
100
AcDbEntity
  8
0
  6
CONTINUOUS
 62
     7
  0
LINE
  5
1ED
330
1F
100
AcDbEntity
  8
0
  6
CONTINUOUS
 62
     7
100
AcDbLine
 10
8.6643964005
 20
7.2612700904
 30
0.0
 11
8.598528975
 21
7.2714587125
 31
0.0
  0
LINE
  5
1EE
330
1F
100
AcDbEntity
  8
0
  6
CONTINUOUS
 62
     7
100
AcDbLine
 10
8.598528975
 20
7.2714587125
 30
0.0
 11
8.550310673
 21
7.2436228793
 31
0.0
  0
LINE
  5
1EF
330
1F
100
AcDbEntity
  8
0
  6
CONTINUOUS
 62
     7
100
AcDbLine
 10
8.550310673
 20
7.2436228793
 30
0.0
 11
8.5679597965
 21
7.2055984239
 31
0.0
  0
LINE
  5
1F0
330
1F
100
AcDbEntity
  8
0
  6
CONTINUOUS
 62
     7
100
AcDbLine
 10
8.5679597965
 20
7.2055984239
 30
0.0
 11
8.633827222
 21
7.1954098018
 31
0.0
  0
LINE
  5
1F1
330
1F
100
AcDbEntity
  8
0
  6
CONTINUOUS
 62
     7
100
AcDbLine
 10
8.633827222
 20
7.1954098018
 30
0.0
 11
8.682045524
 21
7.223245635
 31
0.0
  0
LINE
  5
1F2
330
1F
100
AcDbEntity
  8
0
  6
CONTINUOUS
 62
     7
100
AcDbLine
 10
8.682045524
 20
7.223245635
 30
0.0
 11
8.6643964005
 21
7.2612700904
 31
0.0
  0
LINE
  5
1F3
330
1F
100
AcDbEntity
  8
0
  6
CONTINUOUS
 62
     7
100
AcDbLine
 10
8.6643964005
 20
7.2130570129
 30
0.0
 11
8.6643964005
 21
7.2612700904
 31
0.0
  0
LINE
  5
1F4
330
1F
100
AcDbEntity
  8
0
  6
CONTINUOUS
 62
     7
100
AcDbLine
 10
8.598528975
 20
7.2008698679
 30
0.0
 11
8.598528975
 21
7.2714587125
 31
0.0
  0
ARC
  5
1F5
330
1F
100
AcDbEntity
  8
0
  6
CONTINUOUS
 62
     7
100
AcDbCircle
 10
7.7902332944
 20
7.731374971
 30
0.0
 40
0.0516818331985187
100
AcDbArc
 50
291.115293216
 51
68.8685784961
  0
POLYLINE
  5
1F6
330
1F
100
AcDbEntity
  8
0
  6
CONTINUOUS
 62
     7
100
AcDb2dPolyline
 66
     1
 10
0.0
 20
0.0
 30
0.0
  0
VERTEX
  5
3CA
330
1F6
100
AcDbEntity
  8
0
  6
CONTINUOUS
 62
     7
100
AcDbVertex
100
AcDb2dVertex
 10
7.6418047901
 20
7.7795815094
 30
0.0
  0
VERTEX
  5
3CB
330
1F6
100
AcDbEntity
  8
0
  6
CONTINUOUS
 62
     7
100
AcDbVertex
100
AcDb2dVertex
 10
7.6361959828
 20
7.7761087258
 30
0.0
  0
VERTEX
  5
3CC
330
1F6
100
AcDbEntity
  8
0
  6
CONTINUOUS
 62
     7
100
AcDbVertex
100
AcDb2dVertex
 10
7.6262793307
 20
7.7685117108
 30
0.0
  0
VERTEX
  5
3CD
330
1F6
100
AcDbEntity
  8
0
  6
CONTINUOUS
 62
     7
100
AcDbVertex
100
AcDb2dVertex
 10
7.6182906828
 20
7.7601918967
 30
0.0
  0
VERTEX
  5
3CE
330
1F6
100
AcDbEntity
  8
0
  6
CONTINUOUS
 62
     7
100
AcDbVertex
100
AcDb2dVertex
 10
7.612385529
 20
7.7513112191
 30
0.0
  0
VERTEX
  5
3CF
330
1F6
100
AcDbEntity
  8
0
  6
CONTINUOUS
 62
     7
100
AcDbVertex
100
AcDb2dVertex
 10
7.6086788064
 20
7.7420425304
 30
0.0
  0
VERTEX
  5
3D0
330
1F6
100
AcDbEntity
  8
0
  6
CONTINUOUS
 62
     7
100
AcDbVertex
100
AcDb2dVertex
 10
7.6072426621
 20
7.7325662349
 30
0.0
  0
VERTEX
  5
3D1
330
1F6
100
AcDbEntity
  8
0
  6
CONTINUOUS
 62
     7
100
AcDbVertex
100
AcDb2dVertex
 10
7.6081050492
 20
7.7230667781
 30
0.0
  0
VERTEX
  5
3D2
330
1F6
100
AcDbEntity
  8
0
  6
CONTINUOUS
 62
     7
100
AcDbVertex
100
AcDb2dVertex
 10
7.6112491821
 20
7.7137290561
 30
0.0
  0
VERTEX
  5
3D3
330
1F6
100
AcDbEntity
  8
0
  6
CONTINUOUS
 62
     7
100
AcDbVertex
100
AcDb2dVertex
 10
7.6166138639
 20
7.704734817
 30
0.0
  0
VERTEX
  5
3D4
330
1F6
100
AcDbEntity
  8
0
  6
CONTINUOUS
 62
     7
100
AcDbVertex
100
AcDb2dVertex
 10
7.6240946772
 20
7.6962591233
 30
0.0
  0
VERTEX
  5
3D5
330
1F6
100
AcDbEntity
  8
0
  6
CONTINUOUS
 62
     7
100
AcDbVertex
100
AcDb2dVertex
 10
7.6335460165
 20
7.688466945
 30
0.0
  0
VERTEX
  5
3D6
330
1F6
100
AcDbEntity
  8
0
  6
CONTINUOUS
 62
     7
100
AcDbVertex
100
AcDb2dVertex
 10
7.6447839222
 20
7.6815099478
 30
0.0
  0
VERTEX
  5
3D7
330
1F6
100
AcDbEntity
  8
0
  6
CONTINUOUS
 62
     7
100
AcDbVertex
100
AcDb2dVertex
 10
7.6575896612
 20
7.6755235417
 30
0.0
  0
VERTEX
  5
3D8
330
1F6
100
AcDbEntity
  8
0
  6
CONTINUOUS
 62
     7
100
AcDbVertex
100
AcDb2dVertex
 10
7.6717139844
 20
7.6706242455
 30
0.0
  0
VERTEX
  5
3D9
330
1F6
100
AcDbEntity
  8
0
  6
CONTINUOUS
 62
     7
100
AcDbVertex
100
AcDb2dVertex
 10
7.686881978
 20
7.6669074182
 30
0.0
  0
VERTEX
  5
3DA
330
1F6
100
AcDbEntity
  8
0
  6
CONTINUOUS
 62
     7
100
AcDbVertex
100
AcDb2dVertex
 10
7.7027984141
 20
7.6644454038
 30
0.0
  0
VERTEX
  5
3DB
330
1F6
100
AcDbEntity
  8
0
  6
CONTINUOUS
 62
     7
100
AcDbVertex
100
AcDb2dVertex
 10
7.7191534974
 20
7.6632861225
 30
0.0
  0
VERTEX
  5
3DC
330
1F6
100
AcDbEntity
  8
0
  6
CONTINUOUS
 62
     7
100
AcDbVertex
100
AcDb2dVertex
 10
7.735628895
 20
7.6634521384
 30
0.0
  0
VERTEX
  5
3DD
330
1F6
100
AcDbEntity
  8
0
  6
CONTINUOUS
 62
     7
100
AcDbVertex
100
AcDb2dVertex
 10
7.7519039318
 20
7.6649402202
 30
0.0
  0
VERTEX
  5
3DE
330
1F6
100
AcDbEntity
  8
0
  6
CONTINUOUS
 62
     7
100
AcDbVertex
100
AcDb2dVertex
 10
7.7676618328
 20
7.6677214041
 30
0.0
  0
VERTEX
  5
3DF
330
1F6
100
AcDbEntity
  8
0
  6
CONTINUOUS
 62
     7
100
AcDbVertex
100
AcDb2dVertex
 10
7.7825958884
 20
7.6717415575
 30
0.0
  0
VERTEX
  5
3E0
330
1F6
100
AcDbEntity
  8
0
  6
CONTINUOUS
 62
     7
100
AcDbVertex
100
AcDb2dVertex
 10
7.7964154241
 20
7.6769224326
 30
0.0
  0
VERTEX
  5
3E1
330
1F6
100
AcDbEntity
  8
0
  6
CONTINUOUS
 62
     7
100
AcDbVertex
100
AcDb2dVertex
 10
7.8088514585
 20
7.6831631898
 30
0.0
  0
SEQEND
  5
3E2
330
1F6
100
AcDbEntity
  8
0
  6
CONTINUOUS
 62
     7
  0
POLYLINE
  5
1F7
330
1F
100
AcDbEntity
  8
0
  6
CONTINUOUS
 62
     7
100
AcDb2dPolyline
 66
     1
 10
0.0
 20
0.0
 30
0.0
  0
VERTEX
  5
3E3
330
1F7
100
AcDbEntity
  8
0
  6
CONTINUOUS
 62
     7
100
AcDbVertex
100
AcDb2dVertex
 10
7.7947093229
 20
7.7076580871
 30
0.0
  0
VERTEX
  5
3E4
330
1F7
100
AcDbEntity
  8
0
  6
CONTINUOUS
 62
     7
100
AcDbVertex
100
AcDb2dVertex
 10
7.7833063297
 20
7.7020139938
 30
0.0
  0
VERTEX
  5
3E5
330
1F7
100
AcDbEntity
  8
0
  6
CONTINUOUS
 62
     7
100
AcDbVertex
100
AcDb2dVertex
 10
7.7705445354
 20
7.6974409077
 30
0.0
  0
VERTEX
  5
3E6
330
1F7
100
AcDbEntity
  8
0
  6
CONTINUOUS
 62
     7
100
AcDbVertex
100
AcDb2dVertex
 10
7.7567230659
 20
7.6940460182
 30
0.0
  0
VERTEX
  5
3E7
330
1F7
100
AcDbEntity
  8
0
  6
CONTINUOUS
 62
     7
100
AcDbVertex
100
AcDb2dVertex
 10
7.7421658846
 20
7.6919088986
 30
0.0
  0
VERTEX
  5
3E8
330
1F7
100
AcDbEntity
  8
0
  6
CONTINUOUS
 62
     7
100
AcDbVertex
100
AcDb2dVertex
 10
7.7272141995
 20
7.6910796411
 30
0.0
  0
VERTEX
  5
3E9
330
1F7
100
AcDbEntity
  8
0
  6
CONTINUOUS
 62
     7
100
AcDbVertex
100
AcDb2dVertex
 10
7.7122184654
 20
7.6915776829
 30
0.0
  0
VERTEX
  5
3EA
330
1F7
100
AcDbEntity
  8
0
  6
CONTINUOUS
 62
     7
100
AcDbVertex
100
AcDb2dVertex
 10
7.6975301697
 20
7.6933913503
 30
0.0
  0
VERTEX
  5
3EB
330
1F7
100
AcDbEntity
  8
0
  6
CONTINUOUS
 62
     7
100
AcDbVertex
100
AcDb2dVertex
 10
7.6834935935
 20
7.6964781324
 30
0.0
  0
VERTEX
  5
3EC
330
1F7
100
AcDbEntity
  8
0
  6
CONTINUOUS
 62
     7
100
AcDbVertex
100
AcDb2dVertex
 10
7.6704377423
 20
7.7007656777
 30
0.0
  0
VERTEX
  5
3ED
330
1F7
100
AcDbEntity
  8
0
  6
CONTINUOUS
 62
     7
100
AcDbVertex
100
AcDb2dVertex
 10
7.6586686342
 20
7.7061534898
 30
0.0
  0
VERTEX
  5
3EE
330
1F7
100
AcDbEntity
  8
0
  6
CONTINUOUS
 62
     7
100
AcDbVertex
100
AcDb2dVertex
 10
7.648462127
 20
7.7125152829
 30
0.0
  0
VERTEX
  5
3EF
330
1F7
100
AcDbEntity
  8
0
  6
CONTINUOUS
 62
     7
100
AcDbVertex
100
AcDb2dVertex
 10
7.6400574528
 20
7.719701942
 30
0.0
  0
VERTEX
  5
3F0
330
1F7
100
AcDbEntity
  8
0
  6
CONTINUOUS
 62
     7
100
AcDbVertex
100
AcDb2dVertex
 10
7.6336516098
 20
7.7275450178
 30
0.0
  0
VERTEX
  5
3F1
330
1F7
100
AcDbEntity
  8
0
  6
CONTINUOUS
 62
     7
100
AcDbVertex
100
AcDb2dVertex
 10
7.6293947457
 20
7.7358606754
 30
0.0
  0
VERTEX
  5
3F2
330
1F7
100
AcDbEntity
  8
0
  6
CONTINUOUS
 62
     7
100
AcDbVertex
100
AcDb2dVertex
 10
7.6273866377
 20
7.7444540028
 30
0.0
  0
VERTEX
  5
3F3
330
1F7
100
AcDbEntity
  8
0
  6
CONTINUOUS
 62
     7
100
AcDbVertex
100
AcDb2dVertex
 10
7.6276743542
 20
7.7531235796
 30
0.0
  0
VERTEX
  5
3F4
330
1F7
100
AcDbEntity
  8
0
  6
CONTINUOUS
 62
     7
100
AcDbVertex
100
AcDb2dVertex
 10
7.6302511513
 20
7.7616661983
 30
0.0
  0
VERTEX
  5
3F5
330
1F7
100
AcDbEntity
  8
0
  6
CONTINUOUS
 62
     7
100
AcDbVertex
100
AcDb2dVertex
 10
7.6350566311
 20
7.7698816272
 30
0.0
  0
VERTEX
  5
3F6
330
1F7
100
AcDbEntity
  8
0
  6
CONTINUOUS
 62
     7
100
AcDbVertex
100
AcDb2dVertex
 10
7.6419781573
 20
7.7775773036
 30
0.0
  0
VERTEX
  5
3F7
330
1F7
100
AcDbEntity
  8
0
  6
CONTINUOUS
 62
     7
100
AcDbVertex
100
AcDb2dVertex
 10
7.6508534951
 20
7.7845728474
 30
0.0
  0
VERTEX
  5
3F8
330
1F7
100
AcDbEntity
  8
0
  6
CONTINUOUS
 62
     7
100
AcDbVertex
100
AcDb2dVertex
 10
7.6614746141
 20
7.7907042889
 30
0.0
  0
VERTEX
  5
3F9
330
1F7
100
AcDbEntity
  8
0
  6
CONTINUOUS
 62
     7
100
AcDbVertex
100
AcDb2dVertex
 10
7.6735925643
 20
7.7958279123
 30
0.0
  0
VERTEX
  5
3FA
330
1F7
100
AcDbEntity
  8
0
  6
CONTINUOUS
 62
     7
100
AcDbVertex
100
AcDb2dVertex
 10
7.6869233112
 20
7.7998236243
 30
0.0
  0
VERTEX
  5
3FB
330
1F7
100
AcDbEntity
  8
0
  6
CONTINUOUS
 62
     7
100
AcDbVertex
100
AcDb2dVertex
 10
7.7011543935
 20
7.8025977688
 30
0.0
  0
VERTEX
  5
3FC
330
1F7
100
AcDbEntity
  8
0
  6
CONTINUOUS
 62
     7
100
AcDbVertex
100
AcDb2dVertex
 10
7.7159522465
 20
7.8040853221
 30
0.0
  0
VERTEX
  5
3FD
330
1F7
100
AcDbEntity
  8
0
  6
CONTINUOUS
 62
     7
100
AcDbVertex
100
AcDb2dVertex
 10
7.7309700212
 20
7.8042514173
 30
0.0
  0
VERTEX
  5
3FE
330
1F7
100
AcDbEntity
  8
0
  6
CONTINUOUS
 62
     7
100
AcDbVertex
100
AcDb2dVertex
 10
7.7458557137
 20
7.8030921612
 30
0.0
  0
VERTEX
  5
3FF
330
1F7
100
AcDbEntity
  8
0
  6
CONTINUOUS
 62
     7
100
AcDbVertex
100
AcDb2dVertex
 10
7.7602604159
 20
7.8006347259
 30
0.0
  0
VERTEX
  5
400
330
1F7
100
AcDbEntity
  8
0
  6
CONTINUOUS
 62
     7
100
AcDbVertex
100
AcDb2dVertex
 10
7.7738464939
 20
7.7969367114
 30
0.0
  0
VERTEX
  5
401
330
1F7
100
AcDbEntity
  8
0
  6
CONTINUOUS
 62
     7
100
AcDbVertex
100
AcDb2dVertex
 10
7.7862955014
 20
7.7920847962
 30
0.0
  0
VERTEX
  5
402
330
1F7
100
AcDbEntity
  8
0
  6
CONTINUOUS
 62
     7
100
AcDbVertex
100
AcDb2dVertex
 10
7.7973156443
 20
7.7861927051
 30
0.0
  0
VERTEX
  5
403
330
1F7
100
AcDbEntity
  8
0
  6
CONTINUOUS
 62
     7
100
AcDbVertex
100
AcDb2dVertex
 10
7.8066486199
 20
7.7793985436
 30
0.0
  0
VERTEX
  5
404
330
1F7
100
AcDbEntity
  8
0
  6
CONTINUOUS
 62
     7
100
AcDbVertex
100
AcDb2dVertex
 10
7.8140756709
 20
7.7718615611
 30
0.0
  0
VERTEX
  5
405
330
1F7
100
AcDbEntity
  8
0
  6
CONTINUOUS
 62
     7
100
AcDbVertex
100
AcDb2dVertex
 10
7.8194227137
 20
7.7637584182
 30
0.0
  0
VERTEX
  5
406
330
1F7
100
AcDbEntity
  8
0
  6
CONTINUOUS
 62
     7
100
AcDbVertex
100
AcDb2dVertex
 10
7.8225644182
 20
7.7552790455
 30
0.0
  0
VERTEX
  5
407
330
1F7
100
AcDbEntity
  8
0
  6
CONTINUOUS
 62
     7
100
AcDbVertex
100
AcDb2dVertex
 10
7.8234271454
 20
7.7466221925
 30
0.0
  0
VERTEX
  5
408
330
1F7
100
AcDbEntity
  8
0
  6
CONTINUOUS
 62
     7
100
AcDbVertex
100
AcDb2dVertex
 10
7.8219906737
 20
7.7379907684
 30
0.0
  0
VERTEX
  5
409
330
1F7
100
AcDbEntity
  8
0
  6
CONTINUOUS
 62
     7
100
AcDbVertex
100
AcDb2dVertex
 10
7.8182886728
 20
7.7295870865
 30
0.0
  0
VERTEX
  5
40A
330
1F7
100
AcDbEntity
  8
0
  6
CONTINUOUS
 62
     7
100
AcDbVertex
100
AcDb2dVertex
 10
7.8124079145
 20
7.721608122
 30
0.0
  0
VERTEX
  5
40B
330
1F7
100
AcDbEntity
  8
0
  6
CONTINUOUS
 62
     7
100
AcDbVertex
100
AcDb2dVertex
 10
7.8044862387
 20
7.714240895
 30
0.0
  0
VERTEX
  5
40C
330
1F7
100
AcDbEntity
  8
0
  6
CONTINUOUS
 62
     7
100
AcDbVertex
100
AcDb2dVertex
 10
7.7947093229
 20
7.7076580871
 30
0.0
  0
SEQEND
  5
40D
330
1F7
100
AcDbEntity
  8
0
  6
CONTINUOUS
 62
     7
  0
LINE
  5
1F8
330
1F
100
AcDbEntity
  8
0
  6
CONTINUOUS
 62
     7
100
AcDbLine
 10
7.6594674841
 20
7.7578957056
 30
0.0
 11
7.7076857861
 21
7.7857315389
 31
0.0
  0
LINE
  5
1F9
330
1F
100
AcDbEntity
  8
0
  6
CONTINUOUS
 62
     7
100
AcDbLine
 10
7.6771166076
 20
7.7198712502
 30
0.0
 11
7.6594674841
 21
7.7578957056
 31
0.0
  0
LINE
  5
1FA
330
1F
100
AcDbEntity
  8
0
  6
CONTINUOUS
 62
     7
100
AcDbLine
 10
7.7429840331
 20
7.7096826281
 30
0.0
 11
7.6771166076
 21
7.7198712502
 31
0.0
  0
LINE
  5
1FB
330
1F
100
AcDbEntity
  8
0
  6
CONTINUOUS
 62
     7
100
AcDbLine
 10
7.7912023351
 20
7.7375184614
 30
0.0
 11
7.7429840331
 21
7.7096826281
 31
0.0
  0
LINE
  5
1FC
330
1F
100
AcDbEntity
  8
0
  6
CONTINUOUS
 62
     7
100
AcDbLine
 10
7.7735532116
 20
7.7755429167
 30
0.0
 11
7.7912023351
 21
7.7375184614
 31
0.0
  0
LINE
  5
1FD
330
1F
100
AcDbEntity
  8
0
  6
CONTINUOUS
 62
     7
100
AcDbLine
 10
7.7076857861
 20
7.7857315389
 30
0.0
 11
7.7735532116
 21
7.7755429167
 31
0.0
  0
LINE
  5
1FE
330
1F
100
AcDbEntity
  8
0
  6
CONTINUOUS
 62
     7
100
AcDbLine
 10
7.7735532116
 20
7.7273298393
 30
0.0
 11
7.7735532116
 21
7.7755429167
 31
0.0
  0
LINE
  5
1FF
330
1F
100
AcDbEntity
  8
0
  6
CONTINUOUS
 62
     7
100
AcDbLine
 10
7.7076857861
 20
7.7151426943
 30
0.0
 11
7.7076857861
 21
7.7857315389
 31
0.0
  0
ENDSEC
  0
SECTION
  2
OBJECTS
  0
DICTIONARY
  5
C
330
0
100
AcDbDictionary
  3
ACAD_GROUP
350
D
  3
ACAD_LAYOUT
350
1A
  3
ACAD_MLEADERSTYLE
350
202
  3
ACAD_MLINESTYLE
350
17
  3
ACAD_PLOTSETTINGS
350
19
  3
ACAD_SCALELIST
350
6F
  3
ACAD_VISUALSTYLE
350
2A
  3
ACDBVARIABLEDICTIONARY
350
200
1001
ACAD
1000
TREAT_AS_HARD
1070
     0
  0
DICTIONARY
  5
D
102
{ACAD_REACTORS
330
C
102
}
330
C
100
AcDbDictionary
1001
ACAD
1000
TREAT_AS_HARD
1070
     0
  0
DICTIONARY
  5
1A
102
{ACAD_REACTORS
330
C
102
}
330
C
100
AcDbDictionary
1001
ACAD
1000
TREAT_AS_HARD
1070
     0
  0
DICTIONARY
  5
202
102
{ACAD_REACTORS
330
C
102
}
330
C
100
AcDbDictionary
1001
ACAD
1000
TREAT_AS_HARD
1070
     0
  0
DICTIONARY
  5
17
102
{ACAD_REACTORS
330
C
102
}
330
C
100
AcDbDictionary
  3
STANDARD
350
18
1001
ACAD
1000
TREAT_AS_HARD
1070
     0
  0
DICTIONARY
  5
19
102
{ACAD_REACTORS
330
C
102
}
330
C
100
AcDbDictionary
1001
ACAD
1000
TREAT_AS_HARD
1070
     0
  0
DICTIONARY
  5
6F
102
{ACAD_REACTORS
330
C
102
}
330
C
100
AcDbDictionary
  3
A0
350
70
  3
A1
350
71
  3
A2
350
72
  3
A3
350
73
  3
A4
350
74
  3
A5
350
75
  3
A6
350
76
  3
A7
350
77
  3
A8
350
78
  3
A9
350
79
  3
B0
350
7A
  3
B1
350
7B
  3
B2
350
7C
  3
B3
350
7D
  3
B4
350
7E
  3
B5
350
7F
  3
B6
350
80
  3
B7
350
81
  3
B8
350
82
  3
B9
350
83
  3
C0
350
84
  3
C1
350
85
  3
C2
350
86
  3
C3
350
87
  3
C4
350
88
  3
C5
350
89
  3
C6
350
8A
  3
C7
350
8B
  3
C8
350
8C
  3
C9
350
8D
  3
D0
350
8E
  3
D1
350
8F
  3
D2
350
90
1001
ACAD
1000
TREAT_AS_HARD
1070
     0
  0
DICTIONARY
  5
2A
102
{ACAD_REACTORS
330
C
102
}
330
C
100
AcDbDictionary
  3
2DWIREFRAME
350
2F
  3
3D_HIDDEN
350
31
  3
3DWIREFRAME
350
30
  3
BASIC
350
32
  3
BRIGHTEN
350
36
  3
COLORCHANGE
350
3A
  3
CONCEPTUAL
350
34
  3
DIM
350
35
  3
FACEPATTERN
350
39
  3
FLAT
350
2B
  3
FLATWITHEDGES
350
2C
  3
GOURAUD
350
2D
  3
GOURAUDWITHEDGES
350
2E
  3
LINEPATTERN
350
38
  3
REALISTIC
350
33
  3
THICKEN
350
37
1001
ACAD
1000
TREAT_AS_HARD
1070
     0
  0
DICTIONARY
  5
200
102
{ACAD_REACTORS
330
C
102
}
330
C
100
AcDbDictionary
  3
CANNOSCALE
350
203
  3
DIMASSOC
350
204
  3
HIDETEXT
350
205
1001
ACAD
1000
TREAT_AS_HARD
1070
     0
  0
MLINESTYLE
  5
18
102
{ACAD_REACTORS
330
17
102
}
330
17
100
AcDbMlineStyle
  2
Standard
 70
     0
  3

 62
   256
 51
90.0
 52
90.0
 71
     2
 49
0.5
 62
   256
  6
BYLAYER
 49
-0.5
 62
   256
  6
BYLAYER
  0
ACAD_PROXY_OBJECT
  5
70
102
{ACAD_REACTORS
330
6F
102
}
330
6F
100
AcDbZombieObject
 90
      499
 91
      502
 93
       41
310
903313A31580
  0
ACAD_PROXY_OBJECT
  5
71
102
{ACAD_REACTORS
330
6F
102
}
330
6F
100
AcDbZombieObject
 90
      499
 91
      502
 93
      105
310
903313A324000000000000004000
  0
ACAD_PROXY_OBJECT
  5
72
102
{ACAD_REACTORS
330
6F
102
}
330
6F
100
AcDbZombieObject
 90
      499
 91
      502
 93
      105
310
903313A344000000000000104000
  0
ACAD_PROXY_OBJECT
  5
73
102
{ACAD_REACTORS
330
6F
102
}
330
6F
100
AcDbZombieObject
 90
      499
 91
      502
 93
      105
310
903313A354000000000000144000
  0
ACAD_PROXY_OBJECT
  5
74
102
{ACAD_REACTORS
330
6F
102
}
330
6F
100
AcDbZombieObject
 90
      499
 91
      502
 93
      105
310
903313A384000000000000204000
  0
ACAD_PROXY_OBJECT
  5
75
102
{ACAD_REACTORS
330
6F
102
}
330
6F
100
AcDbZombieObject
 90
      499
 91
      502
 93
      113
310
904313A31304000000000000244000
  0
ACAD_PROXY_OBJECT
  5
76
102
{ACAD_REACTORS
330
6F
102
}
330
6F
100
AcDbZombieObject
 90
      499
 91
      502
 93
      113
310
904313A31364000000000000304000
  0
ACAD_PROXY_OBJECT
  5
77
102
{ACAD_REACTORS
330
6F
102
}
330
6F
100
AcDbZombieObject
 90
      499
 91
      502
 93
      113
310
904313A32304000000000000344000
  0
ACAD_PROXY_OBJECT
  5
78
102
{ACAD_REACTORS
330
6F
102
}
330
6F
100
AcDbZombieObject
 90
      499
 91
      502
 93
      113
310
904313A333040000000000003E4000
  0
ACAD_PROXY_OBJECT
  5
79
102
{ACAD_REACTORS
330
6F
102
}
330
6F
100
AcDbZombieObject
 90
      499
 91
      502
 93
      113
310
904313A34304000000000000444000
  0
ACAD_PROXY_OBJECT
  5
7A
102
{ACAD_REACTORS
330
6F
102
}
330
6F
100
AcDbZombieObject
 90
      499
 91
      502
 93
      113
310
904313A35304000000000000494000
  0
ACAD_PROXY_OBJECT
  5
7B
102
{ACAD_REACTORS
330
6F
102
}
330
6F
100
AcDbZombieObject
 90
      499
 91
      502
 93
      121
310
905313A3130304000000000000594000
  0
ACAD_PROXY_OBJECT
  5
7C
102
{ACAD_REACTORS
330
6F
102
}
330
6F
100
AcDbZombieObject
 90
      499
 91
      502
 93
      105
310
903323A310000000000000010100
  0
ACAD_PROXY_OBJECT
  5
7D
102
{ACAD_REACTORS
330
6F
102
}
330
6F
100
AcDbZombieObject
 90
      499
 91
      502
 93
      105
310
903343A310000000000000410100
  0
ACAD_PROXY_OBJECT
  5
7E
102
{ACAD_REACTORS
330
6F
102
}
330
6F
100
AcDbZombieObject
 90
      499
 91
      502
 93
      105
310
903383A310000000000000810100
  0
ACAD_PROXY_OBJECT
  5
7F
102
{ACAD_REACTORS
330
6F
102
}
330
6F
100
AcDbZombieObject
 90
      499
 91
      502
 93
      113
310
90431303A310000000000000910100
  0
ACAD_PROXY_OBJECT
  5
80
102
{ACAD_REACTORS
330
6F
102
}
330
6F
100
AcDbZombieObject
 90
      499
 91
      502
 93
      121
310
9053130303A310000000000001650100
  0
ACAD_PROXY_OBJECT
  5
81
102
{ACAD_REACTORS
330
6F
102
}
330
6F
100
AcDbZombieObject
 90
      499
 91
      502
 93
      257
310
90E312F31323822203D2031272D3022000000000000200FC000000000000284000
  0
ACAD_PROXY_OBJECT
  5
82
102
{ACAD_REACTORS
330
6F
102
}
330
6F
100
AcDbZombieObject
 90
      499
 91
      502
 93
      249
310
90D312F363422203D2031272D3022000000000000240FC000000000000284000
  0
ACAD_PROXY_OBJECT
  5
83
102
{ACAD_REACTORS
330
6F
102
}
330
6F
100
AcDbZombieObject
 90
      499
 91
      502
 93
      249
310
90D312F333222203D2031272D3022000000000000280FC000000000000284000
  0
ACAD_PROXY_OBJECT
  5
84
102
{ACAD_REACTORS
330
6F
102
}
330
6F
100
AcDbZombieObject
 90
      499
 91
      502
 93
      249
310
90D312F313622203D2031272D30220000000000002C0FC000000000000284000
  0
ACAD_PROXY_OBJECT
  5
85
102
{ACAD_REACTORS
330
6F
102
}
330
6F
100
AcDbZombieObject
 90
      499
 91
      502
 93
      249
310
90D332F333222203D2031272D30220000000000002E0FC000000000000284000
  0
ACAD_PROXY_OBJECT
  5
86
102
{ACAD_REACTORS
330
6F
102
}
330
6F
100
AcDbZombieObject
 90
      499
 91
      502
 93
      241
310
90C312F3822203D2031272D3022000000000000300FC000000000000284000
  0
ACAD_PROXY_OBJECT
  5
87
102
{ACAD_REACTORS
330
6F
102
}
330
6F
100
AcDbZombieObject
 90
      499
 91
      502
 93
      249
310
90D332F313622203D2031272D3022000000000000320FC000000000000284000
  0
ACAD_PROXY_OBJECT
  5
88
102
{ACAD_REACTORS
330
6F
102
}
330
6F
100
AcDbZombieObject
 90
      499
 91
      502
 93
      241
310
90C312F3422203D2031272D3022000000000000340FC000000000000284000
  0
ACAD_PROXY_OBJECT
  5
89
102
{ACAD_REACTORS
330
6F
102
}
330
6F
100
AcDbZombieObject
 90
      499
 91
      502
 93
      241
310
90C332F3822203D2031272D3022000000000000360FC000000000000284000
  0
ACAD_PROXY_OBJECT
  5
8A
102
{ACAD_REACTORS
330
6F
102
}
330
6F
100
AcDbZombieObject
 90
      499
 91
      502
 93
      241
310
90C312F3222203D2031272D3022000000000000380FC000000000000284000
  0
ACAD_PROXY_OBJECT
  5
8B
102
{ACAD_REACTORS
330
6F
102
}
330
6F
100
AcDbZombieObject
 90
      499
 91
      502
 93
      241
310
90C332F3422203D2031272D30220000000000003A0FC000000000000284000
  0
ACAD_PROXY_OBJECT
  5
8C
102
{ACAD_REACTORS
330
6F
102
}
330
6F
100
AcDbZombieObject
 90
      499
 91
      502
 93
      161
310
90A3122203D2031272D30224000000000000284000
  0
ACAD_PROXY_OBJECT
  5
8D
102
{ACAD_REACTORS
330
6F
102
}
330
6F
100
AcDbZombieObject
 90
      499
 91
      502
 93
      257
310
90E312D312F3222203D2031272D30220000000000003E0FC000000000000284000
  0
ACAD_PROXY_OBJECT
  5
8E
102
{ACAD_REACTORS
330
6F
102
}
330
6F
100
AcDbZombieObject
 90
      499
 91
      502
 93
      225
310
90A3322203D2031272D302200000000000002100000000000000284000
  0
ACAD_PROXY_OBJECT
  5
8F
102
{ACAD_REACTORS
330
6F
102
}
330
6F
100
AcDbZombieObject
 90
      499
 91
      502
 93
      225
310
90A3622203D2031272D302200000000000006100000000000000284000
  0
ACAD_PROXY_OBJECT
  5
90
102
{ACAD_REACTORS
330
6F
102
}
330
6F
100
AcDbZombieObject
 90
      499
 91
      502
 93
      249
310
90D31272D3022203D2031272D30220000000000000A100000000000000284000
  0
ACAD_PROXY_OBJECT
  5
2F
102
{ACAD_REACTORS
330
2A
102
}
330
2A
100
AcDbZombieObject
 90
      499
 91
      501
 93
      436
310
42CC9915DA5C99599C985B595049028333333333333E3BF0000000000000FB0107901411070040501600405405064090741402480A0340
1001
ACAD
1000
AcDbSavedByObjectVersion
1070
     0
  0
ACAD_PROXY_OBJECT
  5
31
102
{ACAD_REACTORS
330
2A
102
}
330
2A
100
AcDbZombieObject
 90
      499
 91
      501
 93
      500
310
424CD108121A5919195B90640502408333333333333E3BF0000000000000FB01079024090700405020000000000001110200405405064090740C02480A0340
1001
ACAD
1000
AcDbSavedByObjectVersion
1070
     0
  0
ACAD_PROXY_OBJECT
  5
30
102
{ACAD_REACTORS
330
2A
102
}
330
2A
100
AcDbZombieObject
 90
      499
 91
      501
 93
      436
310
42CCD915DA5C99599C985B595059028333333333333E3BF0000000000000FB0107901411070040501600405405064090741402480A0340
1001
ACAD
1000
AcDbSavedByObjectVersion
1070
     0
  0
ACAD_PROXY_OBJECT
  5
32
102
{ACAD_REACTORS
330
2A
102
}
330
2A
100
AcDbZombieObject
 90
      499
 91
      501
 93
      388
310
4150985CDA58D07406404333333333333E3BF0000000000000FB0107A41107004050150841D405064090741402480A0350
1001
ACAD
1000
AcDbSavedByObjectVersion
1070
     0
  0
ACAD_PROXY_OBJECT
  5
36
102
{ACAD_REACTORS
330
2A
102
}
330
2A
100
AcDbZombieObject
 90
      499
 91
      501
 93
      428
310
42109C9A59DA1D195B90C409028333333333333E3BF0000000000000FB010790141107004050150841D405064090741402480A029950
1001
ACAD
1000
AcDbSavedByObjectVersion
1070
     0
  0
ACAD_PROXY_OBJECT
  5
3A
102
{ACAD_REACTORS
330
2A
102
}
330
2A
100
AcDbZombieObject
 90
      499
 91
      501
 93
      452
310
42D0DBDB1BDC90DA185B99D95104090240C333333333333E3BF0000000000000FB0108901411070040501508421405064090741402480A0350
1001
ACAD
1000
AcDbSavedByObjectVersion
1070
     0
  0
ACAD_PROXY_OBJECT
  5
34
102
{ACAD_REACTORS
330
2A
102
}
330
2A
100
AcDbZombieObject
 90
      499
 91
      501
 93
      500
310
4290DBDB98D95C1D1D585B10940D028333333333333E3BF0000000000000FB0107902409070040501000000000000111010841D405064090740C02480A0340
1001
ACAD
1000
AcDbSavedByObjectVersion
1070
     0
  0
ACAD_PROXY_OBJECT
  5
35
102
{ACAD_REACTORS
330
2A
102
}
330
2A
100
AcDbZombieObject
 90
      499
 91
      501
 93
      412
310
40D11A5B50B409028333333333333E3BF0000000000000FB010790141107004050150841D405064090741402480A02677FFFFFD0
1001
ACAD
1000
AcDbSavedByObjectVersion
1070
     0
  0
ACAD_PROXY_OBJECT
  5
39
102
{ACAD_REACTORS
330
2A
102
}
330
2A
100
AcDbZombieObject
 90
      499
 91
      501
 93
      444
310
42D19858D95C185D1D195C9B90F409028333333333333E3BF0000000000000FB010790141107004050150841D405064090741402480A0350
1001
ACAD
1000
AcDbSavedByObjectVersion
1070
     0
  0
ACAD_PROXY_OBJECT
  5
2B
102
{ACAD_REACTORS
330
2A
102
}
330
2A
100
AcDbZombieObject
 90
      499
 91
      501
 93
      388
310
41119B185D240901404333333333333E3BF0000000000000F9010740A41107004050150841D405064090741402480A1B50
1001
ACAD
1000
AcDbSavedByObjectVersion
1070
     0
  0
ACAD_PROXY_OBJECT
  5
2C
102
{ACAD_REACTORS
330
2A
102
}
330
2A
100
AcDbZombieObject
 90
      499
 91
      501
 93
      476
310
43519B185D15DA5D1A115919D95CD0140901404333333333333E3BF0000000000000F9010740901411070040501600405405064090741402480A1B50
1001
ACAD
1000
AcDbSavedByObjectVersion
1070
     0
  0
ACAD_PROXY_OBJECT
  5
2D
102
{ACAD_REACTORS
330
2A
102
}
330
2A
100
AcDbZombieObject
 90
      499
 91
      501
 93
      412
310
41D1DBDD5C985D5910240902404333333333333E3BF0000000000000F9010740A411070040501641D405064090741402480A1B50
1001
ACAD
1000
AcDbSavedByObjectVersion
1070
     0
  0
ACAD_PROXY_OBJECT
  5
2E
102
{ACAD_REACTORS
330
2A
102
}
330
2A
100
AcDbZombieObject
 90
      499
 91
      501
 93
      500
310
4411DBDD5C985D5915DA5D1A115919D95CD0340902404333333333333E3BF0000000000000F9010740901411070040501600405405064090741402480A1B50
1001
ACAD
1000
AcDbSavedByObjectVersion
1070
     0
  0
ACAD_PROXY_OBJECT
  5
38
102
{ACAD_REACTORS
330
2A
102
}
330
2A
100
AcDbZombieObject
 90
      499
 91
      501
 93
      444
310
42D31A5B995C185D1D195C9B90E409028333333333333E3BF0000000000000FB010790141107004050750841D405064090741402483A0350
1001
ACAD
1000
AcDbSavedByObjectVersion
1070
     0
  0
ACAD_PROXY_OBJECT
  5
33
102
{ACAD_REACTORS
330
2A
102
}
330
2A
100
AcDbZombieObject
 90
      499
 91
      501
 93
      420
310
425499585B1A5CDD1A58D08409028333333333333E3BF0000000000000FB01079019070040501508421405064090741402480A1B40
1001
ACAD
1000
AcDbSavedByObjectVersion
1070
     0
  0
ACAD_PROXY_OBJECT
  5
37
102
{ACAD_REACTORS
330
2A
102
}
330
2A
100
AcDbZombieObject
 90
      499
 91
      501
 93
      412
310
41D51A1A58DAD95B90D409028333333333333E3BF0000000000000FB010790141107004050150C41D405064090741402480A0350
1001
ACAD
1000
AcDbSavedByObjectVersion
1070
     0
  0
DICTIONARYVAR
  5
203
102
{ACAD_REACTORS
330
200
102
}
330
200
100
DictionaryVariables
280
     0
  1
1:1
  0
DICTIONARYVAR
  5
204
102
{ACAD_REACTORS
330
200
102
}
330
200
100
DictionaryVariables
280
     0
  1
2
  0
DICTIONARYVAR
  5
205
102
{ACAD_REACTORS
330
200
102
}
330
200
100
DictionaryVariables
280
     0
  1
1
  0
ENDSEC
  0
EOF
