  0
SECTION
  2
HEADER
  9
$ACADVER
  1
AC1012
  9
$DWGCODEPAGE
  3
ansi_1252
  9
$INSBASE
 10
0.0
 20
0.0
 30
0.0
  9
$EXTMIN
 10
0.0
 20
0.0
 30
0.0
  9
$EXTMAX
 10
11.0
 20
8.5
 30
0.0
  9
$LIMMIN
 10
0.0
 20
0.0
  9
$LIMMAX
 10
11.0
 20
8.5
  9
$ORTHOMODE
 70
     0
  9
$REGENMODE
 70
     1
  9
$FILLMODE
 70
     1
  9
$QTEXTMODE
 70
     0
  9
$MIRRTEXT
 70
     1
  9
$DRAGMODE
 70
     2
  9
$LTSCALE
 40
1.0
  9
$OSMODE
 70
    37
  9
$ATTMODE
 70
     1
  9
$TEXTSIZE
 40
0.125
  9
$TRACEWID
 40
0.05
  9
$TEXTSTYLE
  7
STANDARD
  9
$CLAYER
  8
0
  9
$CELTYPE
  6
BYLAYER
  9
$CECOLOR
 62
   256
  9
$CELTSCALE
 40
1.0
  9
$DELOBJ
 70
     1
  9
$DISPSILH
 70
     0
  9
$DIMSCALE
 40
1.0
  9
$DIMASZ
 40
0.13
  9
$DIMEXO
 40
0.05
  9
$DIMDLI
 40
0.38
  9
$DIMRND
 40
0.0
  9
$DIMDLE
 40
0.0
  9
$DIMEXE
 40
0.125
  9
$DIMTP
 40
0.0
  9
$DIMTM
 40
0.0
  9
$DIMTXT
 40
0.125
  9
$DIMCEN
 40
0.09
  9
$DIMTSZ
 40
0.0
  9
$DIMTOL
 70
     0
  9
$DIMLIM
 70
     0
  9
$DIMTIH
 70
     1
  9
$DIMTOH
 70
     1
  9
$DIMSE1
 70
     0
  9
$DIMSE2
 70
     0
  9
$DIMTAD
 70
     0
  9
$DIMZIN
 70
     0
  9
$DIMBLK
  1

  9
$DIMASO
 70
     1
  9
$DIMSHO
 70
     1
  9
$DIMPOST
  1

  9
$DIMAPOST
  1

  9
$DIMALT
 70
     0
  9
$DIMALTD
 70
     2
  9
$DIMALTF
 40
25.4
  9
$DIMLFAC
 40
0.5
  9
$DIMTOFL
 70
     0
  9
$DIMTVP
 40
0.0
  9
$DIMTIX
 70
     0
  9
$DIMSOXD
 70
     0
  9
$DIMSAH
 70
     0
  9
$DIMBLK1
  1

  9
$DIMBLK2
  1

  9
$DIMSTYLE
  2
STANDARD
  9
$DIMCLRD
 70
     0
  9
$DIMCLRE
 70
     0
  9
$DIMCLRT
 70
     0
  9
$DIMTFAC
 40
1.0
  9
$DIMGAP
 40
0.06
  9
$DIMJUST
 70
     0
  9
$DIMSD1
 70
     0
  9
$DIMSD2
 70
     0
  9
$DIMTOLJ
 70
     1
  9
$DIMTZIN
 70
     0
  9
$DIMALTZ
 70
     0
  9
$DIMALTTZ
 70
     0
  9
$DIMFIT
 70
     3
  9
$DIMUPT
 70
     0
  9
$DIMUNIT
 70
     2
  9
$DIMDEC
 70
     3
  9
$DIMTDEC
 70
     3
  9
$DIMALTU
 70
     2
  9
$DIMALTTD
 70
     2
  9
$DIMTXSTY
  7
STANDARD
  9
$DIMAUNIT
 70
     0
  9
$LUNITS
 70
     2
  9
$LUPREC
 70
     2
  9
$SKETCHINC
 40
0.1
  9
$FILLETRAD
 40
0.5
  9
$AUNITS
 70
     0
  9
$AUPREC
 70
     2
  9
$MENU
  1
.
  9
$ELEVATION
 40
0.0
  9
$PELEVATION
 40
0.0
  9
$THICKNESS
 40
0.0
  9
$LIMCHECK
 70
     0
  9
$CHAMFERA
 40
0.5
  9
$CHAMFERB
 40
0.5
  9
$CHAMFERC
 40
1.0
  9
$CHAMFERD
 40
0.0
  9
$SKPOLY
 70
     0
  9
$TDCREATE
 40
2455784.034025185
  9
$TDUPDATE
 40
2455784.034025197
  9
$TDINDWG
 40
0.0000000116
  9
$TDUSRTIMER
 40
0.0000000116
  9
$USRTIMER
 70
     1
  9
$ANGBASE
 50
0.0
  9
$ANGDIR
 70
     0
  9
$PDMODE
 70
     0
  9
$PDSIZE
 40
-1.0
  9
$PLINEWID
 40
0.0
  9
$COORDS
 70
     1
  9
$SPLFRAME
 70
     0
  9
$SPLINETYPE
 70
     6
  9
$SPLINESEGS
 70
     8
  9
$ATTDIA
 70
     0
  9
$ATTREQ
 70
     1
  9
$HANDLING
 70
     1
  9
$HANDSEED
  5
430
  9
$SURFTAB1
 70
     6
  9
$SURFTAB2
 70
     6
  9
$SURFTYPE
 70
     6
  9
$SURFU
 70
     6
  9
$SURFV
 70
     6
  9
$UCSNAME
  2

  9
$UCSORG
 10
0.0
 20
0.0
 30
0.0
  9
$UCSXDIR
 10
1.0
 20
0.0
 30
0.0
  9
$UCSYDIR
 10
0.0
 20
1.0
 30
0.0
  9
$PUCSNAME
  2

  9
$PUCSORG
 10
0.0
 20
0.0
 30
0.0
  9
$PUCSXDIR
 10
1.0
 20
0.0
 30
0.0
  9
$PUCSYDIR
 10
0.0
 20
1.0
 30
0.0
  9
$USERI1
 70
     0
  9
$USERI2
 70
     0
  9
$USERI3
 70
     0
  9
$USERI4
 70
     0
  9
$USERI5
 70
     0
  9
$USERR1
 40
0.0
  9
$USERR2
 40
0.0
  9
$USERR3
 40
0.0
  9
$USERR4
 40
0.0
  9
$USERR5
 40
0.0
  9
$WORLDVIEW
 70
     1
  9
$SHADEDGE
 70
     3
  9
$SHADEDIF
 70
    70
  9
$TILEMODE
 70
     1
  9
$MAXACTVP
 70
    64
  9
$PINSBASE
 10
0.0
 20
0.0
 30
0.0
  9
$PLIMCHECK
 70
     0
  9
$PEXTMIN
 10
1.0000000000E+20
 20
1.0000000000E+20
 30
1.0000000000E+20
  9
$PEXTMAX
 10
-1.0000000000E+20
 20
-1.0000000000E+20
 30
-1.0000000000E+20
  9
$PLIMMIN
 10
0.0
 20
0.0
  9
$PLIMMAX
 10
12.0
 20
9.0
  9
$UNITMODE
 70
     0
  9
$VISRETAIN
 70
     1
  9
$PLINEGEN
 70
     0
  9
$PSLTSCALE
 70
     1
  9
$TREEDEPTH
 70
  3020
  9
$PICKSTYLE
 70
     1
  9
$CMLSTYLE
  2
STANDARD
  9
$CMLJUST
 70
     0
  9
$CMLSCALE
 40
1.0
  9
$SAVEIMAGES
 70
     1
  0
ENDSEC
  0
SECTION
  2
CLASSES
  0
CLASS
  1
ACDBDICTIONARYWDFLT
  2
AcDbDictionaryWithDefault
  3
ObjectDBX Classes
 90
    32768
280
     0
281
     0
  0
CLASS
  1
VISUALSTYLE
  2
AcDbVisualStyle
  3
ObjectDBX Classes
 90
     4095
280
     0
281
     0
  0
CLASS
  1
SCALE
  2
AcDbScale
  3
ObjectDBX Classes
 90
     1153
280
     0
281
     0
  0
CLASS
  1
DICTIONARYVAR
  2
AcDbDictionaryVar
  3
ObjectDBX Classes
 90
        0
280
     0
281
     0
  0
CLASS
  1
XRECORD
  2
AcDbXrecord
  3
AutoCAD 2000
 90
    32768
280
     0
281
     0
  0
CLASS
  1
LWPOLYLINE
  2
AcDbPolyline
  3
AutoCAD 2000
 90
    32768
280
     0
281
     1
  0
CLASS
  1
HATCH
  2
AcDbHatch
  3
AutoCAD 2000
 90
    32768
280
     0
281
     1
  0
CLASS
  1
ACDBPLACEHOLDER
  2
AcDbPlaceHolder
  3
ObjectDBX Classes
 90
        0
280
     0
281
     0
  0
CLASS
  1
LAYOUT
  2
AcDbLayout
  3
ObjectDBX Classes
 90
        0
280
     0
281
     0
  0
ENDSEC
  0
SECTION
  2
TABLES
  0
TABLE
  2
VPORT
  5
8
330
0
100
AcDbSymbolTable
 70
     1
  0
VPORT
  5
29
330
8
100
AcDbSymbolTableRecord
100
AcDbViewportTableRecord
  2
*ACTIVE
 70
     0
 10
0.0
 20
0.0
 11
1.0
 21
1.0
 12
5.5
 22
4.25
 13
0.0
 23
0.0
 14
0.5
 24
0.5
 15
0.5
 25
0.5
 16
0.0
 26
0.0
 36
1.0
 17
0.0
 27
0.0
 37
0.0
 40
8.5
 41
1.2941176471
 42
50.0
 43
0.0
 44
0.0
 50
0.0
 51
0.0
 71
     0
 72
  2000
 73
     1
 74
     3
 75
     0
 76
     0
 77
     0
 78
     0
  0
ENDTAB
  0
TABLE
  2
LTYPE
  5
5
330
0
100
AcDbSymbolTable
 70
     6
  0
LTYPE
  5
14
330
5
100
AcDbSymbolTableRecord
100
AcDbLinetypeTableRecord
  2
BYBLOCK
 70
     0
  3

 72
    65
 73
     0
 40
0.0
  0
LTYPE
  5
15
330
5
100
AcDbSymbolTableRecord
100
AcDbLinetypeTableRecord
  2
BYLAYER
 70
     0
  3

 72
    65
 73
     0
 40
0.0
  0
LTYPE
  5
16
330
5
100
AcDbSymbolTableRecord
100
AcDbLinetypeTableRecord
  2
CONTINUOUS
 70
     0
  3
Solid line
 72
    65
 73
     0
 40
0.0
  0
LTYPE
  5
3B
330
5
100
AcDbSymbolTableRecord
100
AcDbLinetypeTableRecord
  2
HIDDEN
 70
     0
  3
Hidden __ __ __ __ __ __ __ __ __ __ __ __ __ __
 72
    65
 73
     2
 40
0.075
 49
0.05
 74
     0
 49
-0.025
 74
     0
  0
LTYPE
  5
3C
330
5
100
AcDbSymbolTableRecord
100
AcDbLinetypeTableRecord
  2
PHANTOM
 70
     0
  3
Phantom ______  __  __  ______  __  __  ______
 72
    65
 73
     6
 40
0.5
 49
0.25
 74
     0
 49
-0.05
 74
     0
 49
0.05
 74
     0
 49
-0.05
 74
     0
 49
0.05
 74
     0
 49
-0.05
 74
     0
  0
LTYPE
  5
3D
330
5
100
AcDbSymbolTableRecord
100
AcDbLinetypeTableRecord
  2
CENTER
 70
     0
  3
Center ____ _ ____ _ ____ _ ____ _ ____ _ ____
 72
    65
 73
     4
 40
0.4
 49
0.25
 74
     0
 49
-0.05
 74
     0
 49
0.05
 74
     0
 49
-0.05
 74
     0
  0
LTYPE
  5
3E
330
5
100
AcDbSymbolTableRecord
100
AcDbLinetypeTableRecord
  2
CENTERX2
 70
     0
  3
Center (2x) ________  __  ________  __  _____
 72
    65
 73
     4
 40
0.8
 49
0.5
 74
     0
 49
-0.1
 74
     0
 49
0.1
 74
     0
 49
-0.1
 74
     0
  0
LTYPE
  5
3F
330
5
100
AcDbSymbolTableRecord
100
AcDbLinetypeTableRecord
  2
DOT2
 70
     0
  3
Dot (.5x) ........................................
 72
    65
 73
     2
 40
0.025
 49
0.0
 74
     0
 49
-0.025
 74
     0
  0
ENDTAB
  0
TABLE
  2
LAYER
  5
2
330
0
100
AcDbSymbolTable
 70
     2
  0
LAYER
  5
10
330
2
100
AcDbSymbolTableRecord
100
AcDbLayerTableRecord
  2
0
 70
     0
 62
     7
  6
CONTINUOUS
  0
LAYER
  5
40
330
2
100
AcDbSymbolTableRecord
100
AcDbLayerTableRecord
  2
FORMAT
 70
     0
 62
     7
  6
CONTINUOUS
  0
ENDTAB
  0
TABLE
  2
STYLE
  5
3
330
0
100
AcDbSymbolTable
 70
     4
  0
STYLE
  5
11
330
3
100
AcDbSymbolTableRecord
100
AcDbTextStyleTableRecord
  2
STANDARD
 70
     0
 40
0.0
 41
1.0
 50
0.0
 71
     0
 42
0.2
  3
txt
  4

  0
STYLE
  5
6E
330
3
100
AcDbSymbolTableRecord
100
AcDbTextStyleTableRecord
  2
SLDTEXTSTYLE0
 70
     0
 40
0.0
 41
0.75
 50
0.0
 71
     0
 42
0.2
  3
TXT
  4

  0
STYLE
  5
93
330
3
100
AcDbSymbolTableRecord
100
AcDbTextStyleTableRecord
  2
SLDTEXTSTYLE1
 70
     0
 40
0.0
 41
0.6875
 50
0.0
 71
     0
 42
0.2
  3
TXT
  4

  0
STYLE
  5
99
330
3
100
AcDbSymbolTableRecord
100
AcDbTextStyleTableRecord
  2
SLDTEXTSTYLE2
 70
     0
 40
0.0
 41
0.6944444444
 50
0.0
 71
     0
 42
0.2
  3
TXT
  4

  0
ENDTAB
  0
TABLE
  2
VIEW
  5
6
330
0
100
AcDbSymbolTable
 70
     0
  0
ENDTAB
  0
TABLE
  2
UCS
  5
7
330
0
100
AcDbSymbolTable
 70
     0
  0
ENDTAB
  0
TABLE
  2
APPID
  5
9
330
0
100
AcDbSymbolTable
 70
     1
  0
APPID
  5
12
330
9
100
AcDbSymbolTableRecord
100
AcDbRegAppTableRecord
  2
ACAD
 70
     0
  0
ENDTAB
  0
TABLE
  2
DIMSTYLE
  5
A
330
0
100
AcDbSymbolTable
 70
     1
  0
DIMSTYLE
105
27
330
A
100
AcDbSymbolTableRecord
100
AcDbDimStyleTableRecord
  2
STANDARD
 70
     0
  3

  4

  5

  6

  7

 40
1.0
 41
0.18
 42
0.0625
 43
0.38
 44
0.18
 45
0.0
 46
0.0
 47
0.0
 48
0.0
140
0.18
141
0.09
142
0.0
143
25.4
144
1.0
145
0.0
146
1.0
147
0.09
 71
     0
 72
     0
 73
     1
 74
     1
 75
     0
 76
     0
 77
     0
 78
     0
170
     0
171
     2
172
     0
173
     0
174
     0
175
     0
176
     0
177
     0
178
     0
270
     2
271
     4
272
     4
273
     2
274
     2
340
11
275
     0
280
     0
281
     0
282
     0
283
     1
284
     0
285
     0
286
     0
287
     3
288
     0
  0
ENDTAB
  0
TABLE
  2
BLOCK_RECORD
  5
1
330
0
100
AcDbSymbolTable
 70
     4
  0
BLOCK_RECORD
  5
1F
330
1
100
AcDbSymbolTableRecord
100
AcDbBlockTableRecord
  2
*MODEL_SPACE
  0
BLOCK_RECORD
  5
1B
330
1
100
AcDbSymbolTableRecord
100
AcDbBlockTableRecord
  2
*PAPER_SPACE
  0
BLOCK_RECORD
  5
A8
330
1
100
AcDbSymbolTableRecord
100
AcDbBlockTableRecord
  2
SW_NOTE_0
  0
BLOCK_RECORD
  5
AE
330
1
100
AcDbSymbolTableRecord
100
AcDbBlockTableRecord
  2
SW_NOTE_1
  0
BLOCK_RECORD
  5
C2
330
1
100
AcDbSymbolTableRecord
100
AcDbBlockTableRecord
  2
SW_NOTE_2
  0
ENDTAB
  0
ENDSEC
  0
SECTION
  2
BLOCKS
  0
BLOCK
  5
20
330
1F
100
AcDbEntity
  8
0
100
AcDbBlockBegin
  2
*MODEL_SPACE
 70
     0
 10
0.0
 20
0.0
 30
0.0
  3
*MODEL_SPACE
  1

  0
ENDBLK
  5
21
330
1F
100
AcDbEntity
  8
0
100
AcDbBlockEnd
  0
BLOCK
  5
1C
330
1B
100
AcDbEntity
 67
     1
  8
0
100
AcDbBlockBegin
  2
*PAPER_SPACE
 70
     0
 10
0.0
 20
0.0
 30
0.0
  3
*PAPER_SPACE
  1

  0
ENDBLK
  5
1D
330
1B
100
AcDbEntity
 67
     1
  8
0
100
AcDbBlockEnd
  0
BLOCK
  5
A9
330
A8
100
AcDbEntity
  8
0
100
AcDbBlockBegin
  2
SW_NOTE_0
 70
     0
 10
0.0
 20
0.0
 30
0.0
  3
SW_NOTE_0
  1

  0
MTEXT
  5
AB
330
A8
100
AcDbEntity
  8
0
  6
CONTINUOUS
 62
     0
100
AcDbMText
 10
0.0
 20
0.0773440644
 30
0.0
 40
0.06
 41
0.0
 71
     1
 72
     1
  1
INTERPRET GEOMETRIC
  7
SLDTEXTSTYLE0
  0
MTEXT
  5
AC
330
A8
100
AcDbEntity
  8
0
  6
CONTINUOUS
 62
     0
100
AcDbMText
 10
0.0
 20
-0.0220260102
 30
0.0
 40
0.06
 41
0.0
 71
     1
 72
     1
  1
TOLERANCING PER:
  7
SLDTEXTSTYLE0
  0
ENDBLK
  5
AA
330
A8
100
AcDbEntity
  8
0
100
AcDbBlockEnd
  0
BLOCK
  5
AF
330
AE
100
AcDbEntity
  8
0
100
AcDbBlockBegin
  2
SW_NOTE_1
 70
     0
 10
0.0
 20
0.0
 30
0.0
  3
SW_NOTE_1
  1

  0
MTEXT
  5
B1
330
AE
100
AcDbEntity
  8
0
  6
CONTINUOUS
 62
     0
100
AcDbMText
 10
0.0
 20
0.0837894031
 30
0.0
 40
0.065
 41
0.0
 71
     1
 72
     1
  1
DIMENSIONS ARE IN INCHES
  7
SLDTEXTSTYLE0
  0
MTEXT
  5
B2
330
AE
100
AcDbEntity
  8
0
  6
CONTINUOUS
 62
     0
100
AcDbMText
 10
0.0
 20
-0.0205806729
 30
0.0
 40
0.065
 41
0.0
 71
     1
 72
     1
  1
TOLERANCES:
  7
SLDTEXTSTYLE0
  0
MTEXT
  5
B3
330
AE
100
AcDbEntity
  8
0
  6
CONTINUOUS
 62
     0
100
AcDbMText
 10
0.0
 20
-0.1249507489
 30
0.0
 40
0.065
 41
0.0
 71
     1
 72
     1
  1
FRACTIONAL
  7
SLDTEXTSTYLE0
  0
MTEXT
  5
B4
330
AE
100
AcDbEntity
  8
0
  6
CONTINUOUS
 62
     0
100
AcDbMText
 10
0.5175850875
 20
-0.1249507489
 30
0.0
 40
0.065
 41
0.0
 71
     1
 72
     1
  1
%%p
  7
SLDTEXTSTYLE0
  0
MTEXT
  5
B5
330
AE
100
AcDbEntity
  8
0
  6
CONTINUOUS
 62
     0
100
AcDbMText
 10
0.0
 20
-0.2293208248
 30
0.0
 40
0.065
 41
0.0
 71
     1
 72
     1
  1
ANGULAR: MACH
  7
SLDTEXTSTYLE0
  0
MTEXT
  5
B6
330
AE
100
AcDbEntity
  8
0
  6
CONTINUOUS
 62
     0
100
AcDbMText
 10
0.7233732769
 20
-0.2293208248
 30
0.0
 40
0.065
 41
0.0
 71
     1
 72
     1
  1
%%p
  7
SLDTEXTSTYLE0
  0
MTEXT
  5
B7
330
AE
100
AcDbEntity
  8
0
  6
CONTINUOUS
 62
     0
100
AcDbMText
 10
0.7852857683
 20
-0.2293208248
 30
0.0
 40
0.065
 41
0.0
 71
     1
 72
     1
  1
     BEND 
  7
SLDTEXTSTYLE0
  0
MTEXT
  5
B8
330
AE
100
AcDbEntity
  8
0
  6
CONTINUOUS
 62
     0
100
AcDbMText
 10
1.14784136
 20
-0.2293208248
 30
0.0
 40
0.065
 41
0.0
 71
     1
 72
     1
  1
%%p
  7
SLDTEXTSTYLE0
  0
MTEXT
  5
B9
330
AE
100
AcDbEntity
  8
0
  6
CONTINUOUS
 62
     0
100
AcDbMText
 10
0.0
 20
-0.3336909008
 30
0.0
 40
0.065
 41
0.0
 71
     1
 72
     1
  1
TWO PLACE DECIMAL    
  7
SLDTEXTSTYLE0
  0
MTEXT
  5
BA
330
AE
100
AcDbEntity
  8
0
  6
CONTINUOUS
 62
     0
100
AcDbMText
 10
0.9794349188
 20
-0.3336909008
 30
0.0
 40
0.065
 41
0.0
 71
     1
 72
     1
  1
%%p
  7
SLDTEXTSTYLE0
  0
MTEXT
  5
BB
330
AE
100
AcDbEntity
  8
0
  6
CONTINUOUS
 62
     0
100
AcDbMText
 10
0.0
 20
-0.4380609768
 30
0.0
 40
0.065
 41
0.0
 71
     1
 72
     1
  1
THREE PLACE DECIMAL  
  7
SLDTEXTSTYLE0
  0
MTEXT
  5
BC
330
AE
100
AcDbEntity
  8
0
  6
CONTINUOUS
 62
     0
100
AcDbMText
 10
0.9738038639
 20
-0.4380609768
 30
0.0
 40
0.065
 41
0.0
 71
     1
 72
     1
  1
%%p
  7
SLDTEXTSTYLE0
  0
ENDBLK
  5
B0
330
AE
100
AcDbEntity
  8
0
100
AcDbBlockEnd
  0
BLOCK
  5
C3
330
C2
100
AcDbEntity
  8
0
100
AcDbBlockBegin
  2
SW_NOTE_2
 70
     0
 10
0.0
 20
0.0
 30
0.0
  3
SW_NOTE_2
  1

  0
MTEXT
  5
C5
330
C2
100
AcDbEntity
  8
0
  6
CONTINUOUS
 62
     0
100
AcDbMText
 10
0.0
 20
0.0773440644
 30
0.0
 40
0.06
 41
0.0
 71
     1
 72
     1
  1
THE INFORMATION CONTAINED IN THIS
  7
SLDTEXTSTYLE0
  0
MTEXT
  5
C6
330
C2
100
AcDbEntity
  8
0
  6
CONTINUOUS
 62
     0
100
AcDbMText
 10
0.0
 20
-0.0220260102
 30
0.0
 40
0.06
 41
0.0
 71
     1
 72
     1
  1
DRAWING IS THE SOLE PROPERTY OF
  7
SLDTEXTSTYLE0
  0
MTEXT
  5
C7
330
C2
100
AcDbEntity
  8
0
  6
CONTINUOUS
 62
     0
100
AcDbMText
 10
0.0
 20
-0.1213960848
 30
0.0
 40
0.06
 41
0.0
 71
     1
 72
     1
  1
Candy Controls.  ANY 
  7
SLDTEXTSTYLE0
  0
MTEXT
  5
C8
330
C2
100
AcDbEntity
  8
0
  6
CONTINUOUS
 62
     0
100
AcDbMText
 10
0.0
 20
-0.2207661593
 30
0.0
 40
0.06
 41
0.0
 71
     1
 72
     1
  1
REPRODUCTION IN PART OR AS A WHOLE
  7
SLDTEXTSTYLE0
  0
MTEXT
  5
C9
330
C2
100
AcDbEntity
  8
0
  6
CONTINUOUS
 62
     0
100
AcDbMText
 10
0.0
 20
-0.3201362339
 30
0.0
 40
0.06
 41
0.0
 71
     1
 72
     1
  1
WITHOUT THE WRITTEN PERMISSION OF
  7
SLDTEXTSTYLE0
  0
MTEXT
  5
CA
330
C2
100
AcDbEntity
  8
0
  6
CONTINUOUS
 62
     0
100
AcDbMText
 10
0.0
 20
-0.4195063085
 30
0.0
 40
0.06
 41
0.0
 71
     1
 72
     1
  1
Candy Controls IS 
  7
SLDTEXTSTYLE0
  0
MTEXT
  5
CB
330
C2
100
AcDbEntity
  8
0
  6
CONTINUOUS
 62
     0
100
AcDbMText
 10
0.0
 20
-0.518876383
 30
0.0
 40
0.06
 41
0.0
 71
     1
 72
     1
  1
PROHIBITED.
  7
SLDTEXTSTYLE0
  0
ENDBLK
  5
C4
330
C2
100
AcDbEntity
  8
0
100
AcDbBlockEnd
  0
ENDSEC
  0
SECTION
  2
ENTITIES
  0
LINE
  5
41
330
1F
100
AcDbEntity
  8
0
  6
CONTINUOUS
 62
     7
100
AcDbLine
 10
0.329927
 20
8.1920731707
 30
0.0
 11
10.629927
 21
8.1920731707
 31
0.0
  0
LINE
  5
42
330
1F
100
AcDbEntity
  8
0
  6
CONTINUOUS
 62
     7
100
AcDbLine
 10
0.329927
 20
8.1920731707
 30
0.0
 11
0.329927
 21
0.3920731707
 31
0.0
  0
LINE
  5
43
330
1F
100
AcDbEntity
  8
0
  6
CONTINUOUS
 62
     7
100
AcDbLine
 10
10.629927
 20
0.3920731707
 30
0.0
 11
0.329927
 21
0.3920731707
 31
0.0
  0
LINE
  5
44
330
1F
100
AcDbEntity
  8
0
  6
CONTINUOUS
 62
     7
100
AcDbLine
 10
10.629927
 20
0.3920731707
 30
0.0
 11
10.629927
 21
8.1920731707
 31
0.0
  0
LINE
  5
45
330
1F
100
AcDbEntity
  8
0
  6
CONTINUOUS
 62
     7
100
AcDbLine
 10
4.7981841288
 20
0.3920731707
 30
0.0
 11
4.7981841288
 21
2.3564211366
 31
0.0
  0
LINE
  5
46
330
1F
100
AcDbEntity
  8
0
  6
CONTINUOUS
 62
     7
100
AcDbLine
 10
2.8210345579
 20
2.3564211366
 30
0.0
 11
10.629927
 21
2.3564211366
 31
0.0
  0
LINE
  5
47
330
1F
100
AcDbEntity
  8
0
  6
CONTINUOUS
 62
     7
100
AcDbLine
 10
6.1796352514
 20
2.3564211366
 30
0.0
 11
6.1796352514
 21
0.3920731707
 31
0.0
  0
LINE
  5
48
330
1F
100
AcDbEntity
  8
0
  6
CONTINUOUS
 62
     7
100
AcDbLine
 10
7.8712070044
 20
2.3564211366
 30
0.0
 11
7.8712070044
 21
0.3920731707
 31
0.0
  0
LINE
  5
49
330
1F
100
AcDbEntity
  8
0
  6
CONTINUOUS
 62
     7
100
AcDbLine
 10
7.8712070044
 20
0.6049590101
 30
0.0
 11
10.629927
 21
0.6049590101
 31
0.0
  0
LINE
  5
4A
330
1F
100
AcDbEntity
  8
0
  6
CONTINUOUS
 62
     7
100
AcDbLine
 10
7.8712070044
 20
1.1119362457
 30
0.0
 11
10.629927
 21
1.1119362457
 31
0.0
  0
LINE
  5
4B
330
1F
100
AcDbEntity
  8
0
  6
CONTINUOUS
 62
     7
100
AcDbLine
 10
7.8712070044
 20
1.9892703708
 30
0.0
 11
10.629927
 21
1.9892703708
 31
0.0
  0
LINE
  5
4C
330
1F
100
AcDbEntity
  8
0
  6
CONTINUOUS
 62
     7
100
AcDbLine
 10
8.266751752
 20
1.1119362457
 30
0.0
 11
8.266751752
 21
0.6049590101
 31
0.0
  0
LINE
  5
4D
330
1F
100
AcDbEntity
  8
0
  6
CONTINUOUS
 62
     7
100
AcDbLine
 10
8.6943435176
 20
0.6049590101
 30
0.0
 11
8.6943435176
 21
0.3920731707
 31
0.0
  0
LINE
  5
4E
330
1F
100
AcDbEntity
  8
0
  6
CONTINUOUS
 62
     7
100
AcDbLine
 10
10.0579917045
 20
1.1119362457
 30
0.0
 11
10.0579917045
 21
0.6049590101
 31
0.0
  0
LINE
  5
4F
330
1F
100
AcDbEntity
  8
0
  6
CONTINUOUS
 62
     7
100
AcDbLine
 10
9.6662556631
 20
0.6049590101
 30
0.0
 11
9.6662556631
 21
0.3920731707
 31
0.0
  0
LINE
  5
50
330
1F
100
AcDbEntity
  8
0
  6
CONTINUOUS
 62
     7
100
AcDbLine
 10
2.8210345579
 20
0.5883479999
 30
0.0
 11
6.1796352514
 21
0.5883479999
 31
0.0
  0
LINE
  5
51
330
1F
100
AcDbEntity
  8
0
  6
CONTINUOUS
 62
     7
100
AcDbLine
 10
6.1796352514
 20
1.7939211366
 30
0.0
 11
7.8712070044
 21
1.7939211366
 31
0.0
  0
LINE
  5
52
330
1F
100
AcDbEntity
  8
0
  6
CONTINUOUS
 62
     7
100
AcDbLine
 10
6.1796352514
 20
1.9814211366
 30
0.0
 11
7.8712070044
 21
1.9814211366
 31
0.0
  0
LINE
  5
53
330
1F
100
AcDbEntity
  8
0
  6
CONTINUOUS
 62
     7
100
AcDbLine
 10
6.1796352514
 20
2.1689211366
 30
0.0
 11
7.8712070044
 21
2.1689211366
 31
0.0
  0
LINE
  5
54
330
1F
100
AcDbEntity
  8
0
  6
CONTINUOUS
 62
     7
100
AcDbLine
 10
7.8712070044
 20
1.2314211366
 30
0.0
 11
6.1796352514
 21
1.2314211366
 31
0.0
  0
LINE
  5
55
330
1F
100
AcDbEntity
  8
0
  6
CONTINUOUS
 62
     7
100
AcDbLine
 10
7.3921580388
 20
2.3564211366
 30
0.0
 11
7.3921580388
 21
1.2314211366
 31
0.0
  0
LINE
  5
56
330
1F
100
AcDbEntity
  8
0
  6
CONTINUOUS
 62
     7
100
AcDbLine
 10
6.9236308342
 20
2.3564211366
 30
0.0
 11
6.9236308342
 21
1.2314211366
 31
0.0
  0
LINE
  5
57
330
1F
100
AcDbEntity
  8
0
  6
CONTINUOUS
 62
     7
100
AcDbLine
 10
4.7981841288
 20
0.8557965305
 30
0.0
 11
6.1796352514
 21
0.8557965305
 31
0.0
  0
LINE
  5
58
330
1F
100
AcDbEntity
  8
0
  6
CONTINUOUS
 62
     7
100
AcDbLine
 10
4.7981841288
 20
1.1257965305
 30
0.0
 11
6.1796352514
 21
1.1257965305
 31
0.0
  0
LINE
  5
59
330
1F
100
AcDbEntity
  8
0
  6
CONTINUOUS
 62
     7
100
AcDbLine
 10
2.8210345579
 20
0.3920731707
 30
0.0
 11
2.8210345579
 21
2.3564211366
 31
0.0
  0
LINE
  5
5A
330
1F
100
AcDbEntity
  8
0
  6
CONTINUOUS
 62
     7
100
AcDbLine
 10
2.8210345579
 20
1.1064211366
 30
0.0
 11
4.7981841288
 21
1.1064211366
 31
0.0
  0
LINE
  5
5B
330
1F
100
AcDbEntity
  8
0
  6
CONTINUOUS
 62
     7
100
AcDbLine
 10
2.8210345579
 20
1.3564211366
 30
0.0
 11
4.7981841288
 21
1.3564211366
 31
0.0
  0
LINE
  5
5C
330
1F
100
AcDbEntity
  8
0
  6
CONTINUOUS
 62
     7
100
AcDbLine
 10
2.8210345579
 20
1.6064211366
 30
0.0
 11
4.7981841288
 21
1.6064211366
 31
0.0
  0
LINE
  5
5D
330
1F
100
AcDbEntity
  8
0
  6
CONTINUOUS
 62
     7
100
AcDbLine
 10
2.8210345579
 20
1.8564211366
 30
0.0
 11
4.7981841288
 21
1.8564211366
 31
0.0
  0
LINE
  5
5E
330
1F
100
AcDbEntity
  8
0
  6
CONTINUOUS
 62
     7
100
AcDbLine
 10
3.8190146875
 20
2.3564211366
 30
0.0
 11
3.8190146875
 21
0.5883479999
 31
0.0
  0
LINE
  5
5F
330
1F
100
AcDbEntity
  8
0
  6
CONTINUOUS
 62
     7
100
AcDbLine
 10
6.1796352514
 20
2.2020813496
 30
0.0
 11
4.7981841288
 21
2.2020813496
 31
0.0
  0
LINE
  5
60
330
1F
100
AcDbEntity
  8
0
  6
CONTINUOUS
 62
     7
100
AcDbLine
 10
7.8712070044
 20
1.6064211366
 30
0.0
 11
6.1796352514
 21
1.6064211366
 31
0.0
  0
LINE
  5
61
330
1F
100
AcDbEntity
  8
0
  6
CONTINUOUS
 62
     7
100
AcDbLine
 10
7.8712070044
 20
1.4189211366
 30
0.0
 11
6.1796352514
 21
1.4189211366
 31
0.0
  0
LINE
  5
62
330
1F
100
AcDbEntity
  8
0
  6
CONTINUOUS
 62
     7
100
AcDbLine
 10
2.8210345579
 20
2.1064211366
 30
0.0
 11
4.7981841288
 21
2.1064211366
 31
0.0
  0
LINE
  5
63
330
1F
100
AcDbEntity
  8
0
  6
CONTINUOUS
 62
     7
100
AcDbLine
 10
4.7981841288
 20
1.3957965305
 30
0.0
 11
6.1796352514
 21
1.3957965305
 31
0.0
  0
LINE
  5
64
330
1F
100
AcDbEntity
  8
0
  6
CONTINUOUS
 62
     7
100
AcDbLine
 10
2.8210345579
 20
0.8564211366
 30
0.0
 11
4.7981841288
 21
0.8564211366
 31
0.0
  0
LINE
  5
65
330
1F
100
AcDbEntity
  8
0
  6
CONTINUOUS
 62
     7
100
AcDbLine
 10
1.1838252943
 20
0.3920731707
 30
0.0
 11
1.1838252943
 21
1.3064211366
 31
0.0
  0
LINE
  5
66
330
1F
100
AcDbEntity
  8
0
  6
CONTINUOUS
 62
     7
100
AcDbLine
 10
2.8210345579
 20
1.3064211366
 30
0.0
 11
1.1838252943
 21
1.3064211366
 31
0.0
  0
LINE
  5
67
330
1F
100
AcDbEntity
  8
0
  6
CONTINUOUS
 62
     7
100
AcDbLine
 10
8.660927
 20
0.3920731707
 30
0.0
 11
8.660927
 21
0.3072739649
 31
0.0
  0
LINE
  5
68
330
1F
100
AcDbEntity
  8
0
  6
CONTINUOUS
 62
     7
100
AcDbLine
 10
6.692177
 20
0.3920731707
 30
0.0
 11
6.692177
 21
0.3072739649
 31
0.0
  0
LINE
  5
69
330
1F
100
AcDbEntity
  8
0
  6
CONTINUOUS
 62
     7
100
AcDbLine
 10
4.723427
 20
0.3920731707
 30
0.0
 11
4.723427
 21
0.3072739649
 31
0.0
  0
LINE
  5
6A
330
1F
100
AcDbEntity
  8
0
  6
CONTINUOUS
 62
     7
100
AcDbLine
 10
2.754677
 20
0.3920731707
 30
0.0
 11
2.754677
 21
0.3072739649
 31
0.0
  0
LINE
  5
6B
330
1F
100
AcDbEntity
  8
0
  6
CONTINUOUS
 62
     7
100
AcDbLine
 10
2.754677
 20
0.3920731707
 30
0.0
 11
2.7672319738
 21
0.3575
 31
0.0
  0
LINE
  5
6C
330
1F
100
AcDbEntity
  8
0
  6
CONTINUOUS
 62
     7
100
AcDbLine
 10
2.7672319738
 20
0.3575
 30
0.0
 11
2.7414258825
 21
0.3575
 31
0.0
  0
LINE
  5
6D
330
1F
100
AcDbEntity
  8
0
  6
CONTINUOUS
 62
     7
100
AcDbLine
 10
2.7414258825
 20
0.3575
 30
0.0
 11
2.754677
 21
0.3920731707
 31
0.0
  0
MTEXT
  5
91
330
1F
100
AcDbEntity
  8
0
  6
CONTINUOUS
 62
     7
100
AcDbMText
 10
4.9775846961
 20
0.5178452352
 30
0.0
 40
0.0625
 41
0.0
 71
     1
 72
     1
  1
DO NOT SCALE DRAWING
  7
SLDTEXTSTYLE0
  0
MTEXT
  5
92
330
1F
100
AcDbEntity
  8
0
  6
CONTINUOUS
 62
     7
100
AcDbMText
 10
8.4891895113
 20
0.9417064595
 30
0.0
 40
0.125
 41
0.0
 71
     1
 72
     1
  1
SCL13-20_CLAMP
  7
SLDTEXTSTYLE0
  0
MTEXT
  5
94
330
1F
100
AcDbEntity
  8
0
  6
CONTINUOUS
 62
     7
100
AcDbMText
 10
9.7571278483
 20
0.5524239532
 30
0.0
 40
0.1
 41
0.0
 71
     1
 72
     1
  1
SHEET 1 OF 1
  7
SLDTEXTSTYLE1
  0
MTEXT
  5
95
330
1F
100
AcDbEntity
  8
0
  6
CONTINUOUS
 62
     7
100
AcDbMText
 10
4.8448077858
 20
2.3132954224
 30
0.0
 40
0.07
 41
0.0
 71
     1
 72
     1
  1
UNLESS OTHERWISE SPECIFIED:
  7
SLDTEXTSTYLE0
  0
MTEXT
  5
96
330
1F
100
AcDbEntity
  8
0
  6
CONTINUOUS
 62
     7
100
AcDbMText
 10
7.9586139647
 20
0.5520987879
 30
0.0
 40
0.1
 41
0.0
 71
     1
 72
     1
  1
SCALE: 2:1
  7
SLDTEXTSTYLE0
  0
MTEXT
  5
97
330
1F
100
AcDbEntity
  8
0
  6
CONTINUOUS
 62
     7
100
AcDbMText
 10
8.7023691647
 20
0.5486763345
 30
0.0
 40
0.1
 41
0.0
 71
     1
 72
     1
  1
WEIGHT: 
  7
SLDTEXTSTYLE0
  0
MTEXT
  5
98
330
1F
100
AcDbEntity
  8
0
  6
CONTINUOUS
 62
     7
100
AcDbMText
 10
10.2277580983
 20
1.081966299
 30
0.0
 40
0.1
 41
0.0
 71
     1
 72
     1
  1
REV
  7
SLDTEXTSTYLE0
  0
MTEXT
  5
9A
330
1F
100
AcDbEntity
  8
0
  6
CONTINUOUS
 62
     7
100
AcDbMText
 10
8.2984570898
 20
1.0858725293
 30
0.0
 40
0.1
 41
0.0
 71
     1
 72
     1
  1
DWG.  NO.
  7
SLDTEXTSTYLE2
  0
MTEXT
  5
9B
330
1F
100
AcDbEntity
  8
0
  6
CONTINUOUS
 62
     7
100
AcDbMText
 10
7.9598482632
 20
0.9442140768
 30
0.0
 40
0.25
 41
0.0
 71
     1
 72
     1
  1
A
  7
SLDTEXTSTYLE0
  0
MTEXT
  5
9C
330
1F
100
AcDbEntity
  8
0
  6
CONTINUOUS
 62
     7
100
AcDbMText
 10
7.9519581822
 20
1.0872713483
 30
0.0
 40
0.1
 41
0.0
 71
     1
 72
     1
  1
SIZE
  7
SLDTEXTSTYLE0
  0
MTEXT
  5
9D
330
1F
100
AcDbEntity
  8
0
  6
CONTINUOUS
 62
     7
100
AcDbMText
 10
7.9170704177
 20
1.9547881128
 30
0.0
 40
0.1
 41
0.0
 71
     1
 72
     1
  1
TITLE:
  7
SLDTEXTSTYLE0
  0
MTEXT
  5
9E
330
1F
100
AcDbEntity
  8
0
  6
CONTINUOUS
 62
     7
100
AcDbMText
 10
7.0363774929
 20
2.2906161274
 30
0.0
 40
0.065
 41
0.0
 71
     1
 72
     1
  1
NAME
  7
SLDTEXTSTYLE0
  0
MTEXT
  5
9F
330
1F
100
AcDbEntity
  8
0
  6
CONTINUOUS
 62
     7
100
AcDbMText
 10
7.5281510634
 20
2.2888799118
 30
0.0
 40
0.065
 41
0.0
 71
     1
 72
     1
  1
DATE
  7
SLDTEXTSTYLE0
  0
MTEXT
  5
A0
330
1F
100
AcDbEntity
  8
0
  6
CONTINUOUS
 62
     7
100
AcDbMText
 10
6.2277147029
 20
1.1876913145
 30
0.0
 40
0.065
 41
0.0
 71
     1
 72
     1
  1
COMMENTS:
  7
SLDTEXTSTYLE0
  0
MTEXT
  5
A1
330
1F
100
AcDbEntity
  8
0
  6
CONTINUOUS
 62
     7
100
AcDbMText
 10
6.2268411461
 20
1.3536101679
 30
0.0
 40
0.065
 41
0.0
 71
     1
 72
     1
  1
Q.A.
  7
SLDTEXTSTYLE0
  0
MTEXT
  5
A2
330
1F
100
AcDbEntity
  8
0
  6
CONTINUOUS
 62
     7
100
AcDbMText
 10
6.2284654509
 20
1.5395328424
 30
0.0
 40
0.065
 41
0.0
 71
     1
 72
     1
  1
MFG APPR.
  7
SLDTEXTSTYLE0
  0
MTEXT
  5
A3
330
1F
100
AcDbEntity
  8
0
  6
CONTINUOUS
 62
     7
100
AcDbMText
 10
6.2235171344
 20
1.7267501785
 30
0.0
 40
0.065
 41
0.0
 71
     1
 72
     1
  1
ENG APPR.
  7
SLDTEXTSTYLE0
  0
MTEXT
  5
A4
330
1F
100
AcDbEntity
  8
0
  6
CONTINUOUS
 62
     7
100
AcDbMText
 10
6.2264103951
 20
1.9092699088
 30
0.0
 40
0.065
 41
0.0
 71
     1
 72
     1
  1
CHECKED
  7
SLDTEXTSTYLE0
  0
MTEXT
  5
A5
330
1F
100
AcDbEntity
  8
0
  6
CONTINUOUS
 62
     7
100
AcDbMText
 10
6.2242794356
 20
2.1016301232
 30
0.0
 40
0.065
 41
0.0
 71
     1
 72
     1
  1
DRAWN
  7
SLDTEXTSTYLE0
  0
MTEXT
  5
A6
330
1F
100
AcDbEntity
  8
0
  6
CONTINUOUS
 62
     7
100
AcDbMText
 10
4.8208600979
 20
0.834523235
 30
0.0
 40
0.06
 41
0.0
 71
     1
 72
     1
  1
FINISH
  7
SLDTEXTSTYLE0
  0
MTEXT
  5
A7
330
1F
100
AcDbEntity
  8
0
  6
CONTINUOUS
 62
     7
100
AcDbMText
 10
4.8181240648
 20
1.1028217587
 30
0.0
 40
0.06
 41
0.0
 71
     1
 72
     1
  1
MATERIAL
  7
SLDTEXTSTYLE0
  0
INSERT
  5
AD
330
1F
100
AcDbEntity
  8
0
  6
CONTINUOUS
 62
     7
100
AcDbBlockReference
  2
SW_NOTE_0
 10
4.8231926633
 20
1.2646542947
 30
0.0
  0
INSERT
  5
BD
330
1F
100
AcDbEntity
  8
0
  6
CONTINUOUS
 62
     7
100
AcDbBlockReference
  2
SW_NOTE_1
 10
4.8353339353
 20
2.0049168724
 30
0.0
  0
MTEXT
  5
BE
330
1F
100
AcDbEntity
  8
0
  6
CONTINUOUS
 62
     7
100
AcDbMText
 10
3.5531400086
 20
0.5200091997
 30
0.0
 40
0.0625
 41
0.0
 71
     1
 72
     1
  1
APPLICATION
  7
SLDTEXTSTYLE0
  0
MTEXT
  5
BF
330
1F
100
AcDbEntity
  8
0
  6
CONTINUOUS
 62
     7
100
AcDbMText
 10
4.1005607758
 20
0.7502454275
 30
0.0
 40
0.0625
 41
0.0
 71
     1
 72
     1
  1
USED ON
  7
SLDTEXTSTYLE0
  0
MTEXT
  5
C0
330
1F
100
AcDbEntity
  8
0
  6
CONTINUOUS
 62
     7
100
AcDbMText
 10
3.1040019536
 20
0.7492094783
 30
0.0
 40
0.0625
 41
0.0
 71
     1
 72
     1
  1
NEXT ASSY
  7
SLDTEXTSTYLE0
  0
MTEXT
  5
C1
330
1F
100
AcDbEntity
  8
0
  6
CONTINUOUS
 62
     7
100
AcDbMText
 10
1.3712489489
 20
1.2496672684
 30
0.0
 40
0.06
 41
0.0
 71
     1
 72
     1
  1
PROPRIETARY AND CONFIDENTIAL
  7
SLDTEXTSTYLE0
  0
INSERT
  5
CC
330
1F
100
AcDbEntity
  8
0
  6
CONTINUOUS
 62
     7
100
AcDbBlockReference
  2
SW_NOTE_2
 10
1.2226209074
 20
1.0313492921
 30
0.0
  0
MTEXT
  5
CD
330
1F
100
AcDbEntity
  8
0
  6
CONTINUOUS
 62
     7
100
AcDbMText
 10
1.7387909509
 20
0.3105864247
 30
0.0
 40
0.09375
 41
0.0
 71
     1
 72
     1
  1
5
  7
SLDTEXTSTYLE0
  0
MTEXT
  5
CE
330
1F
100
AcDbEntity
  8
0
  6
CONTINUOUS
 62
     7
100
AcDbMText
 10
3.723800327
 20
0.3137237518
 30
0.0
 40
0.09375
 41
0.0
 71
     1
 72
     1
  1
4
  7
SLDTEXTSTYLE0
  0
MTEXT
  5
CF
330
1F
100
AcDbEntity
  8
0
  6
CONTINUOUS
 62
     7
100
AcDbMText
 10
5.6324457277
 20
0.3116191842
 30
0.0
 40
0.09375
 41
0.0
 71
     1
 72
     1
  1
3
  7
SLDTEXTSTYLE0
  0
MTEXT
  5
D0
330
1F
100
AcDbEntity
  8
0
  6
CONTINUOUS
 62
     7
100
AcDbMText
 10
7.6059721724
 20
0.3124391351
 30
0.0
 40
0.09375
 41
0.0
 71
     1
 72
     1
  1
2
  7
SLDTEXTSTYLE0
  0
MTEXT
  5
D1
330
1F
100
AcDbEntity
  8
0
  6
CONTINUOUS
 62
     7
100
AcDbMText
 10
9.6619921328
 20
0.301372012
 30
0.0
 40
0.09375
 41
0.0
 71
     1
 72
     1
  1
1
  7
SLDTEXTSTYLE0
  0
LINE
  5
D2
330
1F
100
AcDbEntity
  8
0
  6
CONTINUOUS
 62
     7
100
AcDbLine
 10
4.4289983081
 20
2.9712767116
 30
0.0
 11
4.4683683868
 21
3.0106467903
 31
0.0
  0
LINE
  5
D3
330
1F
100
AcDbEntity
  8
0
  6
CONTINUOUS
 62
     7
100
AcDbLine
 10
4.4683683868
 20
4.5067097825
 30
0.0
 11
4.4289983081
 21
4.5460798612
 31
0.0
  0
LINE
  5
D4
330
1F
100
AcDbEntity
  8
0
  6
CONTINUOUS
 62
     7
100
AcDbLine
 10
2.2242738987
 20
2.9712767116
 30
0.0
 11
4.4289983081
 21
2.9712767116
 31
0.0
  0
LINE
  5
D5
330
1F
100
AcDbEntity
  8
0
  6
CONTINUOUS
 62
     7
100
AcDbLine
 10
2.932935316
 20
4.5460798612
 30
0.0
 11
2.2242738987
 21
4.5460798612
 31
0.0
  0
LINE
  5
D6
330
1F
100
AcDbEntity
  8
0
  6
CONTINUOUS
 62
     7
100
AcDbLine
 10
4.4289983081
 20
4.5460798612
 30
0.0
 11
3.7203368908
 21
4.5460798612
 31
0.0
  0
LINE
  5
D7
330
1F
100
AcDbEntity
  8
0
  6
CONTINUOUS
 62
     7
100
AcDbLine
 10
2.2242738987
 20
4.5460798612
 30
0.0
 11
2.1849038199
 21
4.5067097825
 31
0.0
  0
LINE
  5
D8
330
1F
100
AcDbEntity
  8
0
  6
CONTINUOUS
 62
     7
100
AcDbLine
 10
2.1849038199
 20
3.0106467903
 30
0.0
 11
2.2242738987
 21
2.9712767116
 31
0.0
  0
ARC
  5
D9
330
1F
100
AcDbEntity
  8
0
  6
CONTINUOUS
 62
     7
100
AcDbCircle
 10
3.9368723239
 20
4.3295444281
 30
0.0
 40
0.0196850393700787
100
AcDbArc
 50
90.0
 51
157.2736342563
  0
ARC
  5
DA
330
1F
100
AcDbEntity
  8
0
  6
CONTINUOUS
 62
     7
100
AcDbCircle
 10
4.2518329538
 20
4.3295444281
 30
0.0
 40
0.0196850393700787
100
AcDbArc
 50
25.7232958227
 51
90.0
  0
LINE
  5
DB
330
1F
100
AcDbEntity
  8
0
  6
CONTINUOUS
 62
     7
100
AcDbLine
 10
3.995927442
 20
3.7882058454
 30
0.0
 11
3.995927442
 21
3.7291507273
 31
0.0
  0
LINE
  5
DC
330
1F
100
AcDbEntity
  8
0
  6
CONTINUOUS
 62
     7
100
AcDbLine
 10
4.1927778357
 20
3.7291507273
 30
0.0
 11
4.1927778357
 21
3.7882058454
 31
0.0
  0
ARC
  5
DD
330
1F
100
AcDbEntity
  8
0
  6
CONTINUOUS
 62
     7
100
AcDbCircle
 10
2.401439253
 20
4.3295444281
 30
0.0
 40
0.0196850393700787
100
AcDbArc
 50
90.0
 51
155.0318384223
  0
ARC
  5
DE
330
1F
100
AcDbEntity
  8
0
  6
CONTINUOUS
 62
     7
100
AcDbCircle
 10
2.7163998829
 20
4.3295444281
 30
0.0
 40
0.0196850393700787
100
AcDbArc
 50
22.4775413318
 51
90.0
  0
LINE
  5
DF
330
1F
100
AcDbEntity
  8
0
  6
CONTINUOUS
 62
     7
100
AcDbLine
 10
2.4604943711
 20
3.7882058454
 30
0.0
 11
2.4604943711
 21
3.7291507273
 31
0.0
  0
LINE
  5
E0
330
1F
100
AcDbEntity
  8
0
  6
CONTINUOUS
 62
     7
100
AcDbLine
 10
2.6573447648
 20
3.7291507273
 30
0.0
 11
2.6573447648
 21
3.7882058454
 31
0.0
  0
LINE
  5
E1
330
1F
100
AcDbEntity
  8
0
  6
CONTINUOUS
 62
     7
100
AcDbLine
 10
4.4683683868
 20
3.7291507273
 30
0.0
 11
4.4683683868
 21
3.0106467903
 31
0.0
  0
LINE
  5
E2
330
1F
100
AcDbEntity
  8
0
  6
CONTINUOUS
 62
     7
100
AcDbLine
 10
4.4683683868
 20
4.5067097825
 30
0.0
 11
4.4683683868
 21
3.7882058454
 31
0.0
  0
LINE
  5
E3
330
1F
100
AcDbEntity
  8
0
  6
CONTINUOUS
 62
     7
100
AcDbLine
 10
4.4683683868
 20
3.7882058454
 30
0.0
 11
4.4289983081
 21
3.7882058454
 31
0.0
  0
LINE
  5
E4
330
1F
100
AcDbEntity
  8
0
  6
CONTINUOUS
 62
     7
100
AcDbLine
 10
4.4289983081
 20
3.7882058454
 30
0.0
 11
4.4289983081
 21
4.5460798612
 31
0.0
  0
LINE
  5
E5
330
1F
100
AcDbEntity
  8
0
  6
CONTINUOUS
 62
     7
100
AcDbLine
 10
4.4289983081
 20
2.9712767116
 30
0.0
 11
4.4289983081
 21
3.7291507273
 31
0.0
  0
LINE
  5
E6
330
1F
100
AcDbEntity
  8
0
  6
CONTINUOUS
 62
     7
100
AcDbLine
 10
4.4289983081
 20
3.7291507273
 30
0.0
 11
4.4683683868
 21
3.7291507273
 31
0.0
  0
SPLINE
  5
E7
330
1F
100
AcDbEntity
  8
0
  6
CONTINUOUS
 62
     7
100
AcDbSpline
210
0.0
220
0.0
230
1.0
 70
     8
 71
     3
 72
    42
 73
    38
 74
     0
 42
0.00000001
 43
0.00000001
 40
-0.0625000000000004
 40
-0.0625000000000004
 40
0.0
 40
0.0
 40
0.0625
 40
0.0625
 40
0.1250000000000001
 40
0.1250000000000001
 40
0.1875000000000001
 40
0.1875000000000001
 40
0.2500000000000001
 40
0.2500000000000001
 40
0.3125000000000001
 40
0.3125000000000001
 40
0.3750000000000002
 40
0.3750000000000002
 40
0.4062500000000003
 40
0.4062500000000003
 40
0.4375000000000004
 40
0.4375000000000004
 40
0.5000000000000002
 40
0.5000000000000002
 40
0.5625
 40
0.5625
 40
0.6249999999999998
 40
0.6249999999999998
 40
0.6874999999999997
 40
0.6874999999999997
 40
0.7499999999999994
 40
0.7499999999999994
 40
0.8124999999999992
 40
0.8124999999999992
 40
0.874999999999999
 40
0.874999999999999
 40
0.9062499999999993
 40
0.9062499999999993
 40
0.9374999999999996
 40
0.9374999999999996
 40
1.0
 40
1.0
 40
1.0625
 40
1.0625
 10
2.574220417039585
 20
3.259599007743863
 30
0.0
 10
2.543618718863378
 20
3.259599007743863
 30
0.0
 10
2.529084703913884
 20
3.255087692812502
 30
0.0
 10
2.504611765527242
 20
3.241494204208437
 30
0.0
 10
2.494714905300772
 20
3.232755225884246
 30
0.0
 10
2.478579800011227
 20
3.213930144419447
 30
0.0
 10
2.47256650426119
 20
3.204097954703865
 30
0.0
 10
2.463859803166865
 20
3.18400697392536
 30
0.0
 10
2.461291559809384
 20
3.173871760593793
 30
0.0
 10
2.460011946628859
 20
3.154252830479812
 30
0.0
 10
2.461327316253033
 20
3.144574292948005
 30
0.0
 10
2.468451426624687
 20
3.126771830560772
 30
0.0
 10
2.474381897681837
 20
3.118410272757533
 30
0.0
 10
2.486966013762224
 20
3.107770416493803
 30
0.0
 10
2.491866120253982
 20
3.104469010590493
 30
0.0
 10
2.502704893358082
 20
3.098720867889305
 30
0.0
 10
2.508630648076462
 20
3.096255727376275
 30
0.0
 10
2.528084753509548
 20
3.090108637192074
 30
0.0
 10
2.543107111816961
 20
3.087842753804192
 30
0.0
 10
2.573397852136722
 20
3.087716620298082
 30
0.0
 10
2.588439982336895
 20
3.089840989929453
 30
0.0
 10
2.614717924147068
 20
3.09786129444587
 30
0.0
 10
2.625949646308691
 20
3.103759677388953
 30
0.0
 10
2.64305864057472
 20
3.117930959644819
 30
0.0
 10
2.64908189610035
 20
3.126250446501639
 30
0.0
 10
2.656415372714741
 20
3.14410357063483
 30
0.0
 10
2.657799451662071
 20
3.153774558210845
 30
0.0
 10
2.656630063022895
 20
3.173471214306704
 30
0.0
 10
2.6540684730869
 20
3.18370656429156
 30
0.0
 10
2.645469772137177
 20
3.203734674202694
 30
0.0
 10
2.639348110647286
 20
3.213787640951326
 30
0.0
 10
2.627351377091821
 20
3.227842239476148
 30
0.0
 10
2.622898168520868
 20
3.232341648195253
 30
0.0
 10
2.612861714727448
 20
3.240818307415374
 30
0.0
 10
2.60727171491821
 20
3.244783856067913
 30
0.0
 10
2.589019973431187
 20
3.254976149903275
 30
0.0
 10
2.574220417039585
 20
3.259599007743863
 30
0.0
 10
2.543618718863378
 20
3.259599007743863
 30
0.0
  0
SPLINE
  5
E8
330
1F
100
AcDbEntity
  8
0
  6
CONTINUOUS
 62
     7
100
AcDbSpline
210
0.0
220
0.0
230
1.0
 70
     8
 71
     3
 72
    58
 73
    54
 74
     0
 42
0.00000001
 43
0.00000001
 40
0.0
 40
0.0
 40
0.0
 40
0.0
 40
0.0312499999999998
 40
0.0312499999999998
 40
0.0624999999999996
 40
0.0624999999999996
 40
0.1249999999999993
 40
0.1249999999999993
 40
0.1874999999999989
 40
0.1874999999999989
 40
0.2499999999999986
 40
0.2499999999999986
 40
0.2812499999999983
 40
0.2812499999999983
 40
0.3124999999999982
 40
0.3124999999999982
 40
0.3437499999999981
 40
0.3437499999999981
 40
0.3749999999999979
 40
0.3749999999999979
 40
0.4062499999999978
 40
0.4062499999999978
 40
0.4374999999999977
 40
0.4374999999999977
 40
0.4687499999999976
 40
0.4687499999999976
 40
0.4999999999999974
 40
0.4999999999999974
 40
0.5312499999999972
 40
0.5312499999999972
 40
0.5624999999999971
 40
0.5624999999999971
 40
0.624999999999997
 40
0.624999999999997
 40
0.6562499999999972
 40
0.6562499999999972
 40
0.6874999999999974
 40
0.6874999999999974
 40
0.7499999999999979
 40
0.7499999999999979
 40
0.8124999999999984
 40
0.8124999999999984
 40
0.8437499999999987
 40
0.8437499999999987
 40
0.8749999999999989
 40
0.8749999999999989
 40
0.9062499999999992
 40
0.9062499999999992
 40
0.9374999999999994
 40
0.9374999999999994
 40
0.9687499999999998
 40
0.9687499999999998
 40
1.0
 40
1.0
 40
1.0
 40
1.0
 10
4.13955415566925
 20
4.152379073793622
 30
0.0
 10
4.151149996860297
 20
4.157678799397815
 30
0.0
 10
4.161410029669813
 20
4.164323321218793
 30
0.0
 10
4.180360627337784
 20
4.179056850330526
 30
0.0
 10
4.189090455427416
 20
4.187245714023018
 30
0.0
 10
4.212919707167306
 20
4.212645051328178
 30
0.0
 10
4.225830134256146
 20
4.230610822418418
 30
0.0
 10
4.24747251500088
 20
4.267283294132232
 30
0.0
 10
4.255937754047646
 20
4.285739800096064
 30
0.0
 10
4.267821205305419
 20
4.321747472364209
 30
0.0
 10
4.27127766831363
 20
4.339608649787659
 30
0.0
 10
4.27161989453455
 20
4.364650693936023
 30
0.0
 10
4.270941001161699
 20
4.37274933364762
 30
0.0
 10
4.267742499556646
 20
4.388448671876049
 30
0.0
 10
4.265197271911355
 20
4.396055017960847
 30
0.0
 10
4.258153948851335
 20
4.410261573106568
 30
0.0
 10
4.253651118214907
 20
4.416931072437428
 30
0.0
 10
4.242371960114196
 20
4.429424890939795
 30
0.0
 10
4.235610496401538
 20
4.435188439234826
 30
0.0
 10
4.220201123280523
 20
4.445412488379295
 30
0.0
 10
4.211499388272183
 20
4.449943395799254
 30
0.0
 10
4.191841189121885
 20
4.457900562657559
 30
0.0
 10
4.181095783738566
 20
4.461223697872966
 30
0.0
 10
4.158381232158119
 20
4.466528818643351
 30
0.0
 10
4.146142818918072
 20
4.468565267269059
 30
0.0
 10
4.121037275743504
 20
4.47127364476529
 30
0.0
 10
4.108278952763304
 20
4.471958626016523
 30
0.0
 10
4.082345713785059
 20
4.472024295146597
 30
0.0
 10
4.069350787513109
 20
4.471387314219488
 30
0.0
 10
4.044301363598788
 20
4.468812036476292
 30
0.0
 10
4.031952259127391
 20
4.466833600218841
 30
0.0
 10
3.997469777349378
 20
4.458992662575572
 30
0.0
 10
3.977314414379605
 20
4.45107613367344
 30
0.0
 10
3.953761357990948
 20
4.435714754724651
 30
0.0
 10
3.946897050580164
 20
4.429942730718757
 30
0.0
 10
3.935516223296071
 20
4.4175402568958
 30
0.0
 10
3.930915853981702
 20
4.410867504894235
 30
0.0
 10
3.920064358049988
 20
4.389353744796078
 30
0.0
 10
3.917017496128449
 20
4.373580234763103
 30
0.0
 10
3.917371383158906
 20
4.339857305741935
 30
0.0
 10
3.920727653824164
 20
4.322378470644356
 30
0.0
 10
3.929595682369191
 20
4.295275810295377
 30
0.0
 10
3.933232066149329
 20
4.286045974202339
 30
0.0
 10
3.941647519973282
 20
4.267678780726358
 30
0.0
 10
3.946427918995539
 20
4.258515378711901
 30
0.0
 10
3.957148999579332
 20
4.240280178899809
 30
0.0
 10
3.963087484793067
 20
4.231207257721203
 30
0.0
 10
3.976288111017096
 20
4.213257175644592
 30
0.0
 10
3.983565209882387
 20
4.204370148317211
 30
0.0
 10
3.999414390142125
 20
4.187442416537708
 30
0.0
 10
4.008010030012962
 20
4.179339963468859
 30
0.0
 10
4.027177797129157
 20
4.164392215054376
 30
0.0
 10
4.037599047766431
 20
4.157658796274148
 30
0.0
 10
4.049151121965997
 20
4.152379073793622
 30
0.0
  0
SPLINE
  5
E9
330
1F
100
AcDbEntity
  8
0
  6
CONTINUOUS
 62
     7
100
AcDbSpline
210
0.0
220
0.0
230
1.0
 70
     8
 71
     3
 72
    42
 73
    38
 74
     0
 42
0.00000001
 43
0.00000001
 40
-0.0624999999999998
 40
-0.0624999999999998
 40
0.0
 40
0.0
 40
0.0625000000000002
 40
0.0625000000000002
 40
0.1250000000000004
 40
0.1250000000000004
 40
0.1875000000000006
 40
0.1875000000000006
 40
0.2500000000000008
 40
0.2500000000000008
 40
0.312500000000001
 40
0.312500000000001
 40
0.3750000000000012
 40
0.3750000000000012
 40
0.4062500000000014
 40
0.4062500000000014
 40
0.4375000000000016
 40
0.4375000000000016
 40
0.5000000000000013
 40
0.5000000000000013
 40
0.5625000000000012
 40
0.5625000000000012
 40
0.625000000000001
 40
0.625000000000001
 40
0.6875000000000009
 40
0.6875000000000009
 40
0.7500000000000008
 40
0.7500000000000008
 40
0.8125000000000007
 40
0.8125000000000007
 40
0.8750000000000004
 40
0.8750000000000004
 40
0.9062500000000003
 40
0.9062500000000003
 40
0.9375000000000002
 40
0.9375000000000002
 40
1.0
 40
1.0
 40
1.0625
 40
1.0625
 10
4.07905178972952
 20
3.259599007743863
 30
0.0
 10
4.109653487905728
 20
3.259599007743863
 30
0.0
 10
4.124187502855222
 20
3.255087692812502
 30
0.0
 10
4.148660441241863
 20
3.241494204208437
 30
0.0
 10
4.158557301468333
 20
3.232755225884246
 30
0.0
 10
4.174692406757878
 20
3.213930144419447
 30
0.0
 10
4.180705702507915
 20
3.204097954703865
 30
0.0
 10
4.18941240360224
 20
3.18400697392536
 30
0.0
 10
4.191980646959721
 20
3.173871760593794
 30
0.0
 10
4.193260260140246
 20
3.154252830479812
 30
0.0
 10
4.191944890516071
 20
3.144574292948005
 30
0.0
 10
4.184820780144418
 20
3.126771830560772
 30
0.0
 10
4.178890309087269
 20
3.118410272757532
 30
0.0
 10
4.166306193006881
 20
3.107770416493803
 30
0.0
 10
4.161406086515123
 20
3.104469010590494
 30
0.0
 10
4.150567313411023
 20
3.098720867889305
 30
0.0
 10
4.144641558692643
 20
3.096255727376276
 30
0.0
 10
4.125187453259557
 20
3.090108637192074
 30
0.0
 10
4.110165094952144
 20
3.087842753804192
 30
0.0
 10
4.079874354632382
 20
3.087716620298082
 30
0.0
 10
4.064832224432211
 20
3.089840989929453
 30
0.0
 10
4.038554282622036
 20
3.097861294445871
 30
0.0
 10
4.027322560460414
 20
3.103759677388953
 30
0.0
 10
4.010213566194385
 20
3.117930959644819
 30
0.0
 10
4.004190310668756
 20
3.126250446501639
 30
0.0
 10
3.996856834054364
 20
3.144103570634831
 30
0.0
 10
3.995472755107033
 20
3.153774558210845
 30
0.0
 10
3.99664214374621
 20
3.173471214306705
 30
0.0
 10
3.999203733682204
 20
3.18370656429156
 30
0.0
 10
4.007802434631929
 20
3.203734674202694
 30
0.0
 10
4.013924096121819
 20
3.213787640951326
 30
0.0
 10
4.025920829677283
 20
3.227842239476147
 30
0.0
 10
4.030374038248237
 20
3.232341648195253
 30
0.0
 10
4.040410492041657
 20
3.240818307415374
 30
0.0
 10
4.046000491850895
 20
3.244783856067913
 30
0.0
 10
4.064252233337919
 20
3.254976149903275
 30
0.0
 10
4.07905178972952
 20
3.259599007743863
 30
0.0
 10
4.109653487905728
 20
3.259599007743863
 30
0.0
  0
LINE
  5
EA
330
1F
100
AcDbEntity
  8
0
  6
CONTINUOUS
 62
     7
100
AcDbLine
 10
3.7203368908
 20
3.7882058454
 30
0.0
 11
4.4289983081
 21
3.7882058454
 31
0.0
  0
LINE
  5
EB
330
1F
100
AcDbEntity
  8
0
  6
CONTINUOUS
 62
     7
100
AcDbLine
 10
3.7203368908
 20
3.7882058454
 30
0.0
 11
3.7203368908
 21
4.5460798612
 31
0.0
  0
LINE
  5
EC
330
1F
100
AcDbEntity
  8
0
  6
CONTINUOUS
 62
     7
100
AcDbLine
 10
2.932935316
 20
4.4405880532
 30
0.0
 11
3.7203368908
 21
4.4405880532
 31
0.0
  0
LINE
  5
ED
330
1F
100
AcDbEntity
  8
0
  6
CONTINUOUS
 62
     7
100
AcDbLine
 10
2.932935316
 20
4.5460798612
 30
0.0
 11
2.932935316
 21
3.7882058454
 31
0.0
  0
LINE
  5
EE
330
1F
100
AcDbEntity
  8
0
  6
CONTINUOUS
 62
     7
100
AcDbLine
 10
2.2242738987
 20
3.7882058454
 30
0.0
 11
2.932935316
 21
3.7882058454
 31
0.0
  0
LINE
  5
EF
330
1F
100
AcDbEntity
  8
0
  6
CONTINUOUS
 62
     7
100
AcDbLine
 10
2.2242738987
 20
3.7291507273
 30
0.0
 11
2.2242738987
 21
2.9712767116
 31
0.0
  0
LINE
  5
F0
330
1F
100
AcDbEntity
  8
0
  6
CONTINUOUS
 62
     7
100
AcDbLine
 10
2.2242738987
 20
4.5460798612
 30
0.0
 11
2.2242738987
 21
3.7882058454
 31
0.0
  0
LINE
  5
F1
330
1F
100
AcDbEntity
  8
0
  6
CONTINUOUS
 62
     7
100
AcDbLine
 10
2.2242738987
 20
3.7291507273
 30
0.0
 11
4.4289983081
 21
3.7291507273
 31
0.0
  0
SPLINE
  5
F2
330
1F
100
AcDbEntity
  8
0
  6
CONTINUOUS
 62
     7
100
AcDbSpline
210
0.0
220
0.0
230
1.0
 70
     8
 71
     3
 72
    58
 73
    54
 74
     0
 42
0.00000001
 43
0.00000001
 40
0.0
 40
0.0
 40
0.0
 40
0.0
 40
0.03125
 40
0.03125
 40
0.0624999999999999
 40
0.0624999999999999
 40
0.1249999999999998
 40
0.1249999999999998
 40
0.1874999999999997
 40
0.1874999999999997
 40
0.2499999999999996
 40
0.2499999999999996
 40
0.2812499999999996
 40
0.2812499999999996
 40
0.3124999999999997
 40
0.3124999999999997
 40
0.3437499999999998
 40
0.3437499999999998
 40
0.3749999999999999
 40
0.3749999999999999
 40
0.4062500000000001
 40
0.4062500000000001
 40
0.4375000000000002
 40
0.4375000000000002
 40
0.4687500000000003
 40
0.4687500000000003
 40
0.5000000000000004
 40
0.5000000000000004
 40
0.5312500000000006
 40
0.5312500000000006
 40
0.5625000000000006
 40
0.5625000000000006
 40
0.6250000000000004
 40
0.6250000000000004
 40
0.6562500000000004
 40
0.6562500000000004
 40
0.6875000000000003
 40
0.6875000000000003
 40
0.7500000000000003
 40
0.7500000000000003
 40
0.8125000000000004
 40
0.8125000000000004
 40
0.8437500000000003
 40
0.8437500000000003
 40
0.8750000000000003
 40
0.8750000000000003
 40
0.9062500000000002
 40
0.9062500000000002
 40
0.9375000000000002
 40
0.9375000000000002
 40
0.9687500000000001
 40
0.9687500000000001
 40
1.0
 40
1.0
 40
1.0
 40
1.0
 10
2.513718051099854
 20
4.152379073793622
 30
0.0
 10
2.502122209908809
 20
4.157678799397815
 30
0.0
 10
2.491862177099292
 20
4.164323321218793
 30
0.0
 10
2.472911579431321
 20
4.179056850330526
 30
0.0
 10
2.464181751341689
 20
4.187245714023018
 30
0.0
 10
2.440352499601798
 20
4.212645051328178
 30
0.0
 10
2.427442072512958
 20
4.230610822418418
 30
0.0
 10
2.405799691768225
 20
4.267283294132232
 30
0.0
 10
2.397334452721459
 20
4.285739800096064
 30
0.0
 10
2.385451001463685
 20
4.321747472364209
 30
0.0
 10
2.381994538455475
 20
4.339608649787659
 30
0.0
 10
2.381652312234555
 20
4.364650693936023
 30
0.0
 10
2.382331205607406
 20
4.37274933364762
 30
0.0
 10
2.385529707212459
 20
4.388448671876049
 30
0.0
 10
2.38807493485775
 20
4.396055017960847
 30
0.0
 10
2.39511825791777
 20
4.410261573106568
 30
0.0
 10
2.399621088554198
 20
4.416931072437428
 30
0.0
 10
2.41090024665491
 20
4.429424890939794
 30
0.0
 10
2.417661710367568
 20
4.435188439234826
 30
0.0
 10
2.433071083488582
 20
4.445412488379296
 30
0.0
 10
2.441772818496922
 20
4.449943395799254
 30
0.0
 10
2.461431017647221
 20
4.457900562657559
 30
0.0
 10
2.472176423030539
 20
4.461223697872966
 30
0.0
 10
2.494890974610987
 20
4.466528818643351
 30
0.0
 10
2.507129387851033
 20
4.468565267269058
 30
0.0
 10
2.532234931025601
 20
4.47127364476529
 30
0.0
 10
2.544993254005802
 20
4.471958626016523
 30
0.0
 10
2.570926492984047
 20
4.472024295146597
 30
0.0
 10
2.583921419255996
 20
4.471387314219488
 30
0.0
 10
2.608970843170317
 20
4.468812036476292
 30
0.0
 10
2.621319947641714
 20
4.466833600218841
 30
0.0
 10
2.655802429419728
 20
4.458992662575572
 30
0.0
 10
2.6759577923895
 20
4.45107613367344
 30
0.0
 10
2.699510848778158
 20
4.435714754724651
 30
0.0
 10
2.70637515618894
 20
4.429942730718757
 30
0.0
 10
2.717755983473034
 20
4.4175402568958
 30
0.0
 10
2.722356352787403
 20
4.410867504894235
 30
0.0
 10
2.733207848719117
 20
4.389353744796078
 30
0.0
 10
2.736254710640656
 20
4.373580234763104
 30
0.0
 10
2.735900823610198
 20
4.339857305741936
 30
0.0
 10
2.73254455294494
 20
4.322378470644356
 30
0.0
 10
2.723676524399914
 20
4.295275810295377
 30
0.0
 10
2.720040140619775
 20
4.286045974202339
 30
0.0
 10
2.711624686795823
 20
4.267678780726358
 30
0.0
 10
2.706844287773567
 20
4.258515378711901
 30
0.0
 10
2.696123207189772
 20
4.240280178899809
 30
0.0
 10
2.690184721976038
 20
4.231207257721203
 30
0.0
 10
2.676984095752009
 20
4.213257175644592
 30
0.0
 10
2.669706996886718
 20
4.204370148317211
 30
0.0
 10
2.65385781662698
 20
4.187442416537708
 30
0.0
 10
2.645262176756144
 20
4.179339963468859
 30
0.0
 10
2.626094409639947
 20
4.164392215054376
 30
0.0
 10
2.615673159002674
 20
4.157658796274149
 30
0.0
 10
2.604121084803108
 20
4.152379073793622
 30
0.0
  0
LINE
  5
F3
330
1F
100
AcDbEntity
  8
0
  6
CONTINUOUS
 62
     7
100
AcDbLine
 10
2.1849038199
 20
3.7882058454
 30
0.0
 11
2.1849038199
 21
4.5067097825
 31
0.0
  0
LINE
  5
F4
330
1F
100
AcDbEntity
  8
0
  6
CONTINUOUS
 62
     7
100
AcDbLine
 10
2.1849038199
 20
3.0106467903
 30
0.0
 11
2.1849038199
 21
3.7291507273
 31
0.0
  0
LINE
  5
F5
330
1F
100
AcDbEntity
  8
0
  6
CONTINUOUS
 62
     7
100
AcDbLine
 10
2.1849038199
 20
3.7291507273
 30
0.0
 11
2.2242738987
 21
3.7291507273
 31
0.0
  0
LINE
  5
F6
330
1F
100
AcDbEntity
  8
0
  6
CONTINUOUS
 62
     7
100
AcDbLine
 10
2.2242738987
 20
3.7882058454
 30
0.0
 11
2.1849038199
 21
3.7882058454
 31
0.0
  0
LINE
  5
F7
330
1F
100
AcDbEntity
  8
0
  6
CONTINUOUS
 62
     7
100
AcDbLine
 10
2.1849038199
 20
3.7291507273
 30
0.0
 11
2.1849038199
 21
3.7882058454
 31
0.0
  0
LINE
  5
F8
330
1F
100
AcDbEntity
  8
0
  6
CONTINUOUS
 62
     7
100
AcDbLine
 10
4.4683683868
 20
3.7291507273
 30
0.0
 11
4.4683683868
 21
3.7882058454
 31
0.0
  0
LINE
  5
F9
330
1F
100
AcDbEntity
  8
0
  6
CONTINUOUS
 62
     7
100
AcDbLine
 10
4.0943526388
 20
4.1523790738
 30
0.0
 11
4.1395541557
 21
4.1523790738
 31
0.0
  0
LINE
  5
FA
330
1F
100
AcDbEntity
  8
0
  6
CONTINUOUS
 62
     7
100
AcDbLine
 10
4.0490292391
 20
4.1523790738
 30
0.0
 11
4.0943526388
 21
4.1523790738
 31
0.0
  0
LINE
  5
FB
330
1F
100
AcDbEntity
  8
0
  6
CONTINUOUS
 62
     7
100
AcDbLine
 10
4.0943526388
 20
4.3492294675
 30
0.0
 11
4.2518329538
 21
4.3492294675
 31
0.0
  0
LINE
  5
FC
330
1F
100
AcDbEntity
  8
0
  6
CONTINUOUS
 62
     7
100
AcDbLine
 10
3.9368723239
 20
4.3492294675
 30
0.0
 11
4.0943526388
 21
4.3492294675
 31
0.0
  0
LINE
  5
FD
330
1F
100
AcDbEntity
  8
0
  6
CONTINUOUS
 62
     7
100
AcDbLine
 10
2.558919568
 20
4.3492294675
 30
0.0
 11
2.401439253
 21
4.3492294675
 31
0.0
  0
LINE
  5
FE
330
1F
100
AcDbEntity
  8
0
  6
CONTINUOUS
 62
     7
100
AcDbLine
 10
2.7163998829
 20
4.3492294675
 30
0.0
 11
2.558919568
 21
4.3492294675
 31
0.0
  0
LINE
  5
FF
330
1F
100
AcDbEntity
  8
0
  6
CONTINUOUS
 62
     7
100
AcDbLine
 10
2.558919568
 20
4.1523790738
 30
0.0
 11
2.5135335184
 21
4.1523790738
 31
0.0
  0
LINE
  5
100
330
1F
100
AcDbEntity
  8
0
  6
CONTINUOUS
 62
     7
100
AcDbLine
 10
2.6042429677
 20
4.1523790738
 30
0.0
 11
2.558919568
 21
4.1523790738
 31
0.0
  0
LINE
  5
101
330
1F
100
AcDbEntity
  8
0
  6
CONTINUOUS
 62
     8
100
AcDbLine
 10
4.0943526388
 20
4.3295444281
 30
0.0
 11
3.9194214592
 21
4.3295444281
 31
0.0
  0
LINE
  5
102
330
1F
100
AcDbEntity
  8
0
  6
CONTINUOUS
 62
     8
100
AcDbLine
 10
4.2686563162
 20
4.3295444281
 30
0.0
 11
4.0943526388
 21
4.3295444281
 31
0.0
  0
LINE
  5
103
330
1F
100
AcDbEntity
  8
0
  6
CONTINUOUS
 62
     8
100
AcDbLine
 10
2.558919568
 20
4.3295444281
 30
0.0
 11
2.7338507475
 21
4.3295444281
 31
0.0
  0
LINE
  5
104
330
1F
100
AcDbEntity
  8
0
  6
CONTINUOUS
 62
     8
100
AcDbLine
 10
2.3846158905
 20
4.3295444281
 30
0.0
 11
2.558919568
 21
4.3295444281
 31
0.0
  0
LINE
  5
105
330
1F
100
AcDbEntity
  8
0
  6
HIDDEN
 62
     7
100
AcDbLine
 10
4.4289983081
 20
3.7882058454
 30
0.0
 11
4.4289983081
 21
3.7291507273
 31
0.0
  0
LINE
  5
106
330
1F
100
AcDbEntity
  8
0
  6
HIDDEN
 62
     7
100
AcDbLine
 10
2.2242738987
 20
3.7291507273
 30
0.0
 11
2.2242738987
 21
3.7882058454
 31
0.0
  0
LINE
  5
107
330
1F
100
AcDbEntity
  8
0
  6
HIDDEN
 62
     7
100
AcDbLine
 10
4.1395541557
 20
4.1523790738
 30
0.0
 11
4.2715179931
 21
4.1523790738
 31
0.0
  0
LINE
  5
108
330
1F
100
AcDbEntity
  8
0
  6
HIDDEN
 62
     7
100
AcDbLine
 10
3.9171872845
 20
4.1523790738
 30
0.0
 11
4.049151122
 21
4.1523790738
 31
0.0
  0
LINE
  5
109
330
1F
100
AcDbEntity
  8
0
  6
HIDDEN
 62
     7
100
AcDbLine
 10
2.5137180511
 20
4.1523790738
 30
0.0
 11
2.3817542136
 21
4.1523790738
 31
0.0
  0
LINE
  5
10A
330
1F
100
AcDbEntity
  8
0
  6
HIDDEN
 62
     7
100
AcDbLine
 10
2.7360849223
 20
4.1523790738
 30
0.0
 11
2.6041210848
 21
4.1523790738
 31
0.0
  0
LINE
  5
10B
330
1F
100
AcDbEntity
  8
0
  6
HIDDEN
 62
     7
100
AcDbLine
 10
3.9171872845
 20
4.1523790738
 30
0.0
 11
4.0490292391
 21
4.1523790738
 31
0.0
  0
LINE
  5
10C
330
1F
100
AcDbEntity
  8
0
  6
HIDDEN
 62
     7
100
AcDbLine
 10
4.1925026189
 20
3.3846625384
 30
0.0
 11
3.9962026588
 21
3.3846625384
 31
0.0
  0
LINE
  5
10D
330
1F
100
AcDbEntity
  8
0
  6
HIDDEN
 62
     7
100
AcDbLine
 10
4.1730927963
 20
3.364977499
 30
0.0
 11
4.0156124813
 21
3.364977499
 31
0.0
  0
LINE
  5
10E
330
1F
100
AcDbEntity
  8
0
  6
HIDDEN
 62
     7
100
AcDbLine
 10
4.0156124813
 20
4.1917491525
 30
0.0
 11
4.0943526388
 21
4.1917491525
 31
0.0
  0
LINE
  5
10F
330
1F
100
AcDbEntity
  8
0
  6
HIDDEN
 62
     7
100
AcDbLine
 10
4.0943526388
 20
4.1917491525
 30
0.0
 11
4.1730927963
 21
4.1917491525
 31
0.0
  0
LINE
  5
110
330
1F
100
AcDbEntity
  8
0
  6
HIDDEN
 62
     7
100
AcDbLine
 10
4.0943526388
 20
4.1917491525
 30
0.0
 11
4.0943526388
 21
4.3492294675
 31
0.0
  0
LINE
  5
111
330
1F
100
AcDbEntity
  8
0
  6
HIDDEN
 62
     7
100
AcDbLine
 10
4.0156124813
 20
4.1917491525
 30
0.0
 11
4.0156124813
 21
4.3492294675
 31
0.0
  0
LINE
  5
112
330
1F
100
AcDbEntity
  8
0
  6
HIDDEN
 62
     7
100
AcDbLine
 10
4.1730927963
 20
4.1917491525
 30
0.0
 11
4.1730927963
 21
4.3492294675
 31
0.0
  0
LINE
  5
113
330
1F
100
AcDbEntity
  8
0
  6
HIDDEN
 62
     7
100
AcDbLine
 10
2.5135335184
 20
4.1523790738
 30
0.0
 11
2.3817542136
 21
4.1523790738
 31
0.0
  0
LINE
  5
114
330
1F
100
AcDbEntity
  8
0
  6
HIDDEN
 62
     7
100
AcDbLine
 10
2.7360849223
 20
4.1523790738
 30
0.0
 11
2.6042429677
 21
4.1523790738
 31
0.0
  0
LINE
  5
115
330
1F
100
AcDbEntity
  8
0
  6
HIDDEN
 62
     7
100
AcDbLine
 10
2.4607695879
 20
3.3846625384
 30
0.0
 11
2.657069548
 21
3.3846625384
 31
0.0
  0
LINE
  5
116
330
1F
100
AcDbEntity
  8
0
  6
HIDDEN
 62
     7
100
AcDbLine
 10
2.4801794105
 20
3.364977499
 30
0.0
 11
2.6376597254
 21
3.364977499
 31
0.0
  0
LINE
  5
117
330
1F
100
AcDbEntity
  8
0
  6
HIDDEN
 62
     7
100
AcDbLine
 10
2.6376597254
 20
4.1917491525
 30
0.0
 11
2.558919568
 21
4.1917491525
 31
0.0
  0
LINE
  5
118
330
1F
100
AcDbEntity
  8
0
  6
HIDDEN
 62
     7
100
AcDbLine
 10
2.558919568
 20
4.1917491525
 30
0.0
 11
2.4801794105
 21
4.1917491525
 31
0.0
  0
LINE
  5
119
330
1F
100
AcDbEntity
  8
0
  6
HIDDEN
 62
     7
100
AcDbLine
 10
2.558919568
 20
4.1917491525
 30
0.0
 11
2.558919568
 21
4.3492294675
 31
0.0
  0
LINE
  5
11A
330
1F
100
AcDbEntity
  8
0
  6
HIDDEN
 62
     7
100
AcDbLine
 10
2.4801794105
 20
4.1917491525
 30
0.0
 11
2.4801794105
 21
4.3492294675
 31
0.0
  0
LINE
  5
11B
330
1F
100
AcDbEntity
  8
0
  6
HIDDEN
 62
     7
100
AcDbLine
 10
2.6376597254
 20
4.1917491525
 30
0.0
 11
2.6376597254
 21
4.3492294675
 31
0.0
  0
LINE
  5
11C
330
1F
100
AcDbEntity
  8
0
  6
HIDDEN
 62
     7
100
AcDbLine
 10
4.2715179931
 20
4.1523790738
 30
0.0
 11
4.2715179931
 21
4.3579271212
 31
0.0
  0
LINE
  5
11D
330
1F
100
AcDbEntity
  8
0
  6
HIDDEN
 62
     7
100
AcDbLine
 10
3.9171872845
 20
4.3579766487
 30
0.0
 11
3.9171872845
 21
4.1523790738
 31
0.0
  0
LINE
  5
11E
330
1F
100
AcDbEntity
  8
0
  6
HIDDEN
 62
     7
100
AcDbLine
 10
2.7360849223
 20
4.1523790738
 30
0.0
 11
2.7360849223
 21
4.3579766487
 31
0.0
  0
LINE
  5
11F
330
1F
100
AcDbEntity
  8
0
  6
HIDDEN
 62
     7
100
AcDbLine
 10
2.3817542136
 20
4.3579271212
 30
0.0
 11
2.3817542136
 21
4.1523790738
 31
0.0
  0
LINE
  5
120
330
1F
100
AcDbEntity
  8
0
  6
HIDDEN
 62
     7
100
AcDbLine
 10
3.995927442
 20
4.1523790738
 30
0.0
 11
3.995927442
 21
3.7882058454
 31
0.0
  0
LINE
  5
121
330
1F
100
AcDbEntity
  8
0
  6
HIDDEN
 62
     7
100
AcDbLine
 10
4.1927778357
 20
3.7882058454
 30
0.0
 11
4.1927778357
 21
4.1523790738
 31
0.0
  0
LINE
  5
122
330
1F
100
AcDbEntity
  8
0
  6
HIDDEN
 62
     7
100
AcDbLine
 10
2.4604943711
 20
4.1523790738
 30
0.0
 11
2.4604943711
 21
3.7882058454
 31
0.0
  0
LINE
  5
123
330
1F
100
AcDbEntity
  8
0
  6
HIDDEN
 62
     7
100
AcDbLine
 10
2.6573447648
 20
3.7882058454
 30
0.0
 11
2.6573447648
 21
4.1523790738
 31
0.0
  0
LINE
  5
124
330
1F
100
AcDbEntity
  8
0
  6
HIDDEN
 62
     7
100
AcDbLine
 10
2.4604943711
 20
3.7291507273
 30
0.0
 11
2.4604943711
 21
3.1594383656
 31
0.0
  0
LINE
  5
125
330
1F
100
AcDbEntity
  8
0
  6
HIDDEN
 62
     7
100
AcDbLine
 10
2.6573447648
 20
3.1593643795
 30
0.0
 11
2.6573447648
 21
3.7291507273
 31
0.0
  0
LINE
  5
126
330
1F
100
AcDbEntity
  8
0
  6
HIDDEN
 62
     7
100
AcDbLine
 10
3.995927442
 20
3.7291507273
 30
0.0
 11
3.995927442
 21
3.1593643795
 31
0.0
  0
LINE
  5
127
330
1F
100
AcDbEntity
  8
0
  6
HIDDEN
 62
     7
100
AcDbLine
 10
4.1927778357
 20
3.1594383656
 30
0.0
 11
4.1927778357
 21
3.7291507273
 31
0.0
  0
LINE
  5
128
330
1F
100
AcDbEntity
  8
0
  6
HIDDEN
 62
     7
100
AcDbLine
 10
4.4289983081
 20
3.522457814
 30
0.0
 11
4.4683683868
 21
3.4830877352
 31
0.0
  0
LINE
  5
129
330
1F
100
AcDbEntity
  8
0
  6
HIDDEN
 62
     7
100
AcDbLine
 10
4.4683683868
 20
4.0342688376
 30
0.0
 11
4.4289983081
 21
3.9948987588
 31
0.0
  0
LINE
  5
12A
330
1F
100
AcDbEntity
  8
0
  6
HIDDEN
 62
     7
100
AcDbLine
 10
2.2242738987
 20
3.9948987588
 30
0.0
 11
2.1849038199
 21
4.0342688376
 31
0.0
  0
LINE
  5
12B
330
1F
100
AcDbEntity
  8
0
  6
HIDDEN
 62
     7
100
AcDbLine
 10
2.1849038199
 20
3.4830877352
 30
0.0
 11
2.2242738987
 21
3.522457814
 31
0.0
  0
LINE
  5
12C
330
1F
100
AcDbEntity
  8
0
  6
HIDDEN
 62
     7
100
AcDbLine
 10
2.932935316
 20
3.9948987588
 30
0.0
 11
2.2242738987
 21
3.9948987588
 31
0.0
  0
LINE
  5
12D
330
1F
100
AcDbEntity
  8
0
  6
HIDDEN
 62
     7
100
AcDbLine
 10
4.4289983081
 20
3.9948987588
 30
0.0
 11
3.7203368908
 21
3.9948987588
 31
0.0
  0
LINE
  5
12E
330
1F
100
AcDbEntity
  8
0
  6
HIDDEN
 62
     7
100
AcDbLine
 10
2.2242738987
 20
3.522457814
 30
0.0
 11
4.4289983081
 21
3.522457814
 31
0.0
  0
LINE
  5
12F
330
1F
100
AcDbEntity
  8
0
  6
HIDDEN
 62
     7
100
AcDbLine
 10
4.2715179931
 20
4.1523790738
 30
0.0
 11
4.2715179931
 21
4.3295444281
 31
0.0
  0
LINE
  5
130
330
1F
100
AcDbEntity
  8
0
  6
HIDDEN
 62
     7
100
AcDbLine
 10
3.9171872845
 20
4.3295444281
 30
0.0
 11
3.9171872845
 21
4.1523790738
 31
0.0
  0
ARC
  5
131
330
1F
100
AcDbEntity
  8
0
  6
HIDDEN
 62
     7
100
AcDbCircle
 10
3.9368723239
 20
4.3295444281
 30
0.0
 40
0.0196850393700787
100
AcDbArc
 50
157.2736342563
 51
180.0
  0
ARC
  5
132
330
1F
100
AcDbEntity
  8
0
  6
HIDDEN
 62
     7
100
AcDbCircle
 10
4.2518329538
 20
4.3295444281
 30
0.0
 40
0.0196850393700787
100
AcDbArc
 50
0.0
 51
25.7232958227
  0
ARC
  5
133
330
1F
100
AcDbEntity
  8
0
  6
HIDDEN
 62
     7
100
AcDbCircle
 10
4.1730927963
 20
3.3846625384
 30
0.0
 40
0.0196850393700787
100
AcDbArc
 50
270.0
 51
0.0
  0
ARC
  5
134
330
1F
100
AcDbEntity
  8
0
  6
HIDDEN
 62
     7
100
AcDbCircle
 10
4.0156124813
 20
3.3846625384
 30
0.0
 40
0.0196850393700787
100
AcDbArc
 50
180.0
 51
270.0
  0
LINE
  5
135
330
1F
100
AcDbEntity
  8
0
  6
HIDDEN
 62
     7
100
AcDbLine
 10
3.995927442
 20
4.1523790738
 30
0.0
 11
3.995927442
 21
3.7882058454
 31
0.0
  0
LINE
  5
136
330
1F
100
AcDbEntity
  8
0
  6
HIDDEN
 62
     7
100
AcDbLine
 10
3.995927442
 20
3.7291507273
 30
0.0
 11
3.995927442
 21
3.3846625384
 31
0.0
  0
LINE
  5
137
330
1F
100
AcDbEntity
  8
0
  6
HIDDEN
 62
     7
100
AcDbLine
 10
4.1927778357
 20
3.3846625384
 30
0.0
 11
4.1927778357
 21
3.7291507273
 31
0.0
  0
LINE
  5
138
330
1F
100
AcDbEntity
  8
0
  6
HIDDEN
 62
     7
100
AcDbLine
 10
4.1927778357
 20
3.7882058454
 30
0.0
 11
4.1927778357
 21
4.1523790738
 31
0.0
  0
ARC
  5
139
330
1F
100
AcDbEntity
  8
0
  6
HIDDEN
 62
     7
100
AcDbCircle
 10
2.401439253
 20
4.3295444281
 30
0.0
 40
0.0196850393700787
100
AcDbArc
 50
155.0318384223
 51
180.0
  0
POLYLINE
  5
13A
330
1F
100
AcDbEntity
  8
0
  6
HIDDEN
 62
     7
100
AcDb2dPolyline
 66
     1
 10
0.0
 20
0.0
 30
0.0
  0
VERTEX
  5
20D
330
13A
100
AcDbEntity
  8
0
  6
HIDDEN
 62
     7
100
AcDbVertex
100
AcDb2dVertex
 10
2.7360849223
 20
4.3295444281
 30
0.0
  0
VERTEX
  5
20E
330
13A
100
AcDbEntity
  8
0
  6
HIDDEN
 62
     7
100
AcDbVertex
100
AcDb2dVertex
 10
2.7357066798
 20
4.3333847888
 30
0.0
  0
VERTEX
  5
20F
330
13A
100
AcDbEntity
  8
0
  6
HIDDEN
 62
     7
100
AcDbVertex
100
AcDb2dVertex
 10
2.7345894393
 20
4.3370704372
 30
0.0
  0
SEQEND
  5
210
330
13A
100
AcDbEntity
  8
0
  6
HIDDEN
 62
     7
  0
LINE
  5
13B
330
1F
100
AcDbEntity
  8
0
  6
HIDDEN
 62
     7
100
AcDbLine
 10
2.7360849223
 20
4.1523790738
 30
0.0
 11
2.7360849223
 21
4.3295444281
 31
0.0
  0
LINE
  5
13C
330
1F
100
AcDbEntity
  8
0
  6
HIDDEN
 62
     7
100
AcDbLine
 10
2.3817542136
 20
4.3295444281
 30
0.0
 11
2.3817542136
 21
4.1523790738
 31
0.0
  0
ARC
  5
13D
330
1F
100
AcDbEntity
  8
0
  6
HIDDEN
 62
     7
100
AcDbCircle
 10
2.6376597254
 20
3.3846625384
 30
0.0
 40
0.0196850393700787
100
AcDbArc
 50
270.0
 51
0.0
  0
ARC
  5
13E
330
1F
100
AcDbEntity
  8
0
  6
HIDDEN
 62
     7
100
AcDbCircle
 10
2.4801794105
 20
3.3846625384
 30
0.0
 40
0.0196850393700787
100
AcDbArc
 50
180.0
 51
270.0
  0
LINE
  5
13F
330
1F
100
AcDbEntity
  8
0
  6
HIDDEN
 62
     7
100
AcDbLine
 10
2.4604943711
 20
4.1523790738
 30
0.0
 11
2.4604943711
 21
3.7882058454
 31
0.0
  0
LINE
  5
140
330
1F
100
AcDbEntity
  8
0
  6
HIDDEN
 62
     7
100
AcDbLine
 10
2.4604943711
 20
3.7291507273
 30
0.0
 11
2.4604943711
 21
3.3846625384
 31
0.0
  0
LINE
  5
141
330
1F
100
AcDbEntity
  8
0
  6
HIDDEN
 62
     7
100
AcDbLine
 10
2.6573447648
 20
3.3846625384
 30
0.0
 11
2.6573447648
 21
3.7291507273
 31
0.0
  0
LINE
  5
142
330
1F
100
AcDbEntity
  8
0
  6
HIDDEN
 62
     7
100
AcDbLine
 10
2.6573447648
 20
3.7882058454
 30
0.0
 11
2.6573447648
 21
4.1523790738
 31
0.0
  0
LINE
  5
143
330
1F
100
AcDbEntity
  8
0
  6
HIDDEN
 62
     7
100
AcDbLine
 10
4.2715179931
 20
4.3295444281
 30
0.0
 11
3.9171872845
 21
4.3295444281
 31
0.0
  0
LINE
  5
144
330
1F
100
AcDbEntity
  8
0
  6
HIDDEN
 62
     7
100
AcDbLine
 10
2.3817542136
 20
4.3295444281
 30
0.0
 11
2.7360849223
 21
4.3295444281
 31
0.0
  0
ARC
  5
145
330
1F
100
AcDbEntity
  8
0
  6
CONTINUOUS
 62
     7
100
AcDbCircle
 10
7.5825196368
 20
4.3295444281
 30
0.0
 40
0.0196850393700787
100
AcDbArc
 50
90.0
 51
180.0
  0
LINE
  5
146
330
1F
100
AcDbEntity
  8
0
  6
CONTINUOUS
 62
     7
100
AcDbLine
 10
7.5628345975
 20
4.3295444281
 30
0.0
 11
7.5628345975
 21
4.1523790738
 31
0.0
  0
LINE
  5
147
330
1F
100
AcDbEntity
  8
0
  6
CONTINUOUS
 62
     7
100
AcDbLine
 10
7.6415747549
 20
3.7882058454
 30
0.0
 11
7.6415747549
 21
3.7291507273
 31
0.0
  0
LINE
  5
148
330
1F
100
AcDbEntity
  8
0
  6
CONTINUOUS
 62
     7
100
AcDbLine
 10
7.8384251486
 20
3.7291507273
 30
0.0
 11
7.8384251486
 21
3.7882058454
 31
0.0
  0
ARC
  5
149
330
1F
100
AcDbEntity
  8
0
  6
CONTINUOUS
 62
     7
100
AcDbCircle
 10
8.2506076881
 20
3.7586782864
 30
0.0
 40
0.7480314960629951
100
AcDbArc
 50
182.2622632658
 51
177.7377367342
  0
LINE
  5
14A
330
1F
100
AcDbEntity
  8
0
  6
CONTINUOUS
 62
     7
100
AcDbLine
 10
7.5031592
 20
3.7882058454
 30
0.0
 11
7.4637599498
 21
3.7882058454
 31
0.0
  0
ARC
  5
14B
330
1F
100
AcDbEntity
  8
0
  6
CONTINUOUS
 62
     7
100
AcDbCircle
 10
8.2506076881
 20
3.7586782864
 30
0.0
 40
0.7874015748031508
100
AcDbArc
 50
182.1490956269
 51
177.8509043731
  0
LINE
  5
14C
330
1F
100
AcDbEntity
  8
0
  6
CONTINUOUS
 62
     7
100
AcDbLine
 10
7.4637599498
 20
3.7291507273
 30
0.0
 11
7.5031592
 21
3.7291507273
 31
0.0
  0
LINE
  5
14D
330
1F
100
AcDbEntity
  8
0
  6
CONTINUOUS
 62
     7
100
AcDbLine
 10
8.6443084755
 20
3.7291507273
 30
0.0
 11
8.6443084755
 21
3.7882058454
 31
0.0
  0
LINE
  5
14E
330
1F
100
AcDbEntity
  8
0
  6
CONTINUOUS
 62
     7
100
AcDbLine
 10
8.6443084755
 20
3.7882058454
 30
0.0
 11
8.5246118398
 21
3.7882058454
 31
0.0
  0
ARC
  5
14F
330
1F
100
AcDbEntity
  8
0
  6
CONTINUOUS
 62
     7
100
AcDbCircle
 10
8.2506076881
 20
3.7586782864
 30
0.0
 40
0.2755905511811065
100
AcDbArc
 50
6.1506398279
 51
173.8493601721
  0
LINE
  5
150
330
1F
100
AcDbEntity
  8
0
  6
CONTINUOUS
 62
     7
100
AcDbLine
 10
7.9766035364
 20
3.7882058454
 30
0.0
 11
7.5031592
 21
3.7882058454
 31
0.0
  0
LINE
  5
151
330
1F
100
AcDbEntity
  8
0
  6
CONTINUOUS
 62
     7
100
AcDbLine
 10
7.5031592
 20
3.7291507273
 30
0.0
 11
7.9766035364
 21
3.7291507273
 31
0.0
  0
ARC
  5
152
330
1F
100
AcDbEntity
  8
0
  6
CONTINUOUS
 62
     7
100
AcDbCircle
 10
8.2506076881
 20
3.7586782864
 30
0.0
 40
0.2755905511811065
100
AcDbArc
 50
186.1506398279
 51
353.8493601721
  0
LINE
  5
153
330
1F
100
AcDbEntity
  8
0
  6
CONTINUOUS
 62
     7
100
AcDbLine
 10
8.5246118398
 20
3.7291507273
 30
0.0
 11
8.6443084755
 21
3.7291507273
 31
0.0
  0
ARC
  5
154
330
1F
100
AcDbEntity
  8
0
  6
CONTINUOUS
 62
     7
100
AcDbCircle
 10
8.2506076881
 20
3.7586782864
 30
0.0
 40
0.2362204724409462
100
AcDbArc
 50
7.1807557815
 51
172.8192442185
  0
SPLINE
  5
155
330
1F
100
AcDbEntity
  8
0
  6
CONTINUOUS
 62
     7
100
AcDbSpline
210
0.0
220
0.0
230
1.0
 70
    24
 71
     3
 72
     8
 73
     4
 74
     0
 42
0.00000001
 43
0.00000001
 40
0.0
 40
0.0
 40
0.0
 40
0.0
 40
0.0007095026026307
 40
0.0007095026026307
 40
0.0007095026026307
 40
0.0007095026026307
 10
8.016239953821676
 20
3.788205845447165
 30
0.0
 10
8.00302038945649
 20
3.788205845447165
 30
0.0
 10
7.989809314319485
 20
3.788205845447165
 30
0.0
 10
7.976603536355445
 20
3.788205845447165
 30
0.0
  0
SPLINE
  5
156
330
1F
100
AcDbEntity
  8
0
  6
CONTINUOUS
 62
     7
100
AcDbSpline
210
0.0
220
0.0
230
1.0
 70
    24
 71
     3
 72
     8
 73
     4
 74
     0
 42
0.00000001
 43
0.00000001
 40
0.0
 40
0.0
 40
0.0
 40
0.0
 40
0.0007095026026307
 40
0.0007095026026307
 40
0.0007095026026307
 40
0.0007095026026307
 10
8.524611839783603
 20
3.788205845447165
 30
0.0
 10
8.511406061819564
 20
3.788205845447165
 30
0.0
 10
8.49819498668256
 20
3.788205845447165
 30
0.0
 10
8.484975422317373
 20
3.788205845447165
 30
0.0
  0
ARC
  5
157
330
1F
100
AcDbEntity
  8
0
  6
CONTINUOUS
 62
     7
100
AcDbCircle
 10
8.2506076881
 20
3.7586782864
 30
0.0
 40
0.2362204724409462
100
AcDbArc
 50
187.1807557815
 51
352.8192442185
  0
SPLINE
  5
158
330
1F
100
AcDbEntity
  8
0
  6
CONTINUOUS
 62
     7
100
AcDbSpline
210
0.0
220
0.0
230
1.0
 70
    24
 71
     3
 72
     8
 73
     4
 74
     0
 42
0.00000001
 43
0.00000001
 40
0.0
 40
0.0
 40
0.0
 40
0.0
 40
0.0007095026026307
 40
0.0007095026026307
 40
0.0007095026026307
 40
0.0007095026026307
 10
7.976603536355445
 20
3.729150727336929
 30
0.0
 10
7.989809314319485
 20
3.729150727336929
 30
0.0
 10
8.00302038945649
 20
3.729150727336929
 30
0.0
 10
8.016239953821676
 20
3.729150727336929
 30
0.0
  0
SPLINE
  5
159
330
1F
100
AcDbEntity
  8
0
  6
CONTINUOUS
 62
     7
100
AcDbSpline
210
0.0
220
0.0
230
1.0
 70
    24
 71
     3
 72
     8
 73
     4
 74
     0
 42
0.00000001
 43
0.00000001
 40
0.0
 40
0.0
 40
0.0
 40
0.0
 40
0.0007095026026307
 40
0.0007095026026307
 40
0.0007095026026307
 40
0.0007095026026307
 10
8.484975422317373
 20
3.729150727336929
 30
0.0
 10
8.49819498668256
 20
3.729150727336929
 30
0.0
 10
8.511406061819564
 20
3.729150727336929
 30
0.0
 10
8.524611839783603
 20
3.729150727336929
 30
0.0
  0
LINE
  5
15A
330
1F
100
AcDbEntity
  8
0
  6
CONTINUOUS
 62
     7
100
AcDbLine
 10
7.5825196368
 20
4.3492294675
 30
0.0
 11
7.7297905009
 21
4.3492294675
 31
0.0
  0
LINE
  5
15B
330
1F
100
AcDbEntity
  8
0
  6
CONTINUOUS
 62
     7
100
AcDbLine
 10
7.5628345975
 20
4.1523790738
 30
0.0
 11
7.5686979213
 21
4.1523790738
 31
0.0
  0
LINE
  5
15C
330
1F
100
AcDbEntity
  8
0
  6
CONTINUOUS
 62
     8
100
AcDbLine
 10
7.7082857466
 20
4.3295444281
 30
0.0
 11
7.5628345975
 21
4.3295444281
 31
0.0
  0
LINE
  5
15D
330
1F
100
AcDbEntity
  8
0
  6
HIDDEN
 62
     7
100
AcDbLine
 10
7.5686979213
 20
4.1523790738
 30
0.0
 11
7.9171653061
 21
4.1523790738
 31
0.0
  0
LINE
  5
15E
330
1F
100
AcDbEntity
  8
0
  6
HIDDEN
 62
     7
100
AcDbLine
 10
8.6443084755
 20
3.7882058454
 30
0.0
 11
8.6443084755
 21
4.4405880532
 31
0.0
  0
LINE
  5
15F
330
1F
100
AcDbEntity
  8
0
  6
HIDDEN
 62
     7
100
AcDbLine
 10
7.7297905009
 20
4.3492294675
 30
0.0
 11
7.8974802663
 21
4.3492294675
 31
0.0
  0
LINE
  5
160
330
1F
100
AcDbEntity
  8
0
  6
HIDDEN
 62
     7
100
AcDbLine
 10
7.8384251486
 20
3.3846625384
 30
0.0
 11
7.6415747549
 21
3.3846625384
 31
0.0
  0
LINE
  5
161
330
1F
100
AcDbEntity
  8
0
  6
HIDDEN
 62
     7
100
AcDbLine
 10
7.8187401093
 20
3.364977499
 30
0.0
 11
7.6612597947
 21
3.364977499
 31
0.0
  0
LINE
  5
162
330
1F
100
AcDbEntity
  8
0
  6
HIDDEN
 62
     7
100
AcDbLine
 10
7.7854606029
 20
4.1917491525
 30
0.0
 11
7.830921254
 21
4.1917491525
 31
0.0
  0
LINE
  5
163
330
1F
100
AcDbEntity
  8
0
  6
HIDDEN
 62
     7
100
AcDbLine
 10
7.6945393007
 20
4.1917491525
 30
0.0
 11
7.7854606029
 21
4.1917491525
 31
0.0
  0
LINE
  5
164
330
1F
100
AcDbEntity
  8
0
  6
HIDDEN
 62
     7
100
AcDbLine
 10
7.7854606029
 20
4.1917491525
 30
0.0
 11
7.7854606029
 21
4.3492294675
 31
0.0
  0
LINE
  5
165
330
1F
100
AcDbEntity
  8
0
  6
HIDDEN
 62
     7
100
AcDbLine
 10
7.6945393007
 20
4.1917491525
 30
0.0
 11
7.6945393007
 21
4.3492294675
 31
0.0
  0
LINE
  5
166
330
1F
100
AcDbEntity
  8
0
  6
HIDDEN
 62
     7
100
AcDbLine
 10
7.6490786496
 20
4.1917491525
 30
0.0
 11
7.6945393007
 21
4.1917491525
 31
0.0
  0
LINE
  5
167
330
1F
100
AcDbEntity
  8
0
  6
HIDDEN
 62
     7
100
AcDbLine
 10
7.6490786496
 20
4.1917491525
 30
0.0
 11
7.6490786496
 21
4.3492294675
 31
0.0
  0
LINE
  5
168
330
1F
100
AcDbEntity
  8
0
  6
HIDDEN
 62
     7
100
AcDbLine
 10
7.830921254
 20
4.1917491525
 30
0.0
 11
7.830921254
 21
4.3492294675
 31
0.0
  0
LINE
  5
169
330
1F
100
AcDbEntity
  8
0
  6
HIDDEN
 62
     7
100
AcDbLine
 10
7.5628345975
 20
4.3295444281
 30
0.0
 11
7.9171653061
 21
4.3295444281
 31
0.0
  0
LINE
  5
16A
330
1F
100
AcDbEntity
  8
0
  6
HIDDEN
 62
     7
100
AcDbLine
 10
7.8384251486
 20
3.3846625384
 30
0.0
 11
7.6415747549
 21
3.3846625384
 31
0.0
  0
LINE
  5
16B
330
1F
100
AcDbEntity
  8
0
  6
HIDDEN
 62
     7
100
AcDbLine
 10
7.9171653061
 20
4.1523790738
 30
0.0
 11
7.9171653061
 21
4.4718024253
 31
0.0
  0
LINE
  5
16C
330
1F
100
AcDbEntity
  8
0
  6
HIDDEN
 62
     7
100
AcDbLine
 10
7.6415747549
 20
4.1523790738
 30
0.0
 11
7.6415747549
 21
3.7882058454
 31
0.0
  0
LINE
  5
16D
330
1F
100
AcDbEntity
  8
0
  6
HIDDEN
 62
     7
100
AcDbLine
 10
7.8384251486
 20
3.7882058454
 30
0.0
 11
7.8384251486
 21
4.1523790738
 31
0.0
  0
LINE
  5
16E
330
1F
100
AcDbEntity
  8
0
  6
HIDDEN
 62
     7
100
AcDbLine
 10
7.6415747549
 20
3.7291507273
 30
0.0
 11
7.6415747549
 21
3.2595990077
 31
0.0
  0
LINE
  5
16F
330
1F
100
AcDbEntity
  8
0
  6
HIDDEN
 62
     7
100
AcDbLine
 10
7.8384251486
 20
3.0879362632
 30
0.0
 11
7.8384251486
 21
3.7291507273
 31
0.0
  0
ARC
  5
170
330
1F
100
AcDbEntity
  8
0
  6
HIDDEN
 62
     7
100
AcDbCircle
 10
7.8974802668
 20
4.3295444281
 30
0.0
 40
0.0196850393700787
100
AcDbArc
 50
0.0
 51
90.0
  0
LINE
  5
171
330
1F
100
AcDbEntity
  8
0
  6
HIDDEN
 62
     7
100
AcDbLine
 10
7.9171653061
 20
4.1523790738
 30
0.0
 11
7.9171653061
 21
4.3295444281
 31
0.0
  0
LINE
  5
172
330
1F
100
AcDbEntity
  8
0
  6
HIDDEN
 62
     7
100
AcDbLine
 10
7.6415747549
 20
4.1523790738
 30
0.0
 11
7.6415747549
 21
3.7882058454
 31
0.0
  0
LINE
  5
173
330
1F
100
AcDbEntity
  8
0
  6
HIDDEN
 62
     7
100
AcDbLine
 10
7.6415747549
 20
3.7291507273
 30
0.0
 11
7.6415747549
 21
3.3846625384
 31
0.0
  0
LINE
  5
174
330
1F
100
AcDbEntity
  8
0
  6
HIDDEN
 62
     7
100
AcDbLine
 10
7.8384251486
 20
3.3846625384
 30
0.0
 11
7.8384251486
 21
3.7291507273
 31
0.0
  0
LINE
  5
175
330
1F
100
AcDbEntity
  8
0
  6
HIDDEN
 62
     7
100
AcDbLine
 10
7.8384251486
 20
3.7882058454
 30
0.0
 11
7.8384251486
 21
4.1523790738
 31
0.0
  0
ARC
  5
176
330
1F
100
AcDbEntity
  8
0
  6
HIDDEN
 62
     7
100
AcDbCircle
 10
7.8187401093
 20
3.3846625384
 30
0.0
 40
0.0196850393700787
100
AcDbArc
 50
270.0
 51
0.0
  0
ARC
  5
177
330
1F
100
AcDbEntity
  8
0
  6
HIDDEN
 62
     7
100
AcDbCircle
 10
7.6612597943
 20
3.3846625384
 30
0.0
 40
0.0196850393700787
100
AcDbArc
 50
180.0
 51
270.0
  0
LINE
  5
178
330
1F
100
AcDbEntity
  8
0
  6
HIDDEN
 62
     7
100
AcDbLine
 10
7.5628345975
 20
4.3295444281
 30
0.0
 11
7.9171653061
 21
4.3295444281
 31
0.0
  0
LINE
  5
179
330
1F
100
AcDbEntity
  8
0
  6
CONTINUOUS
 62
     7
100
AcDbLine
 10
4.4683683868
 20
7.4197317167
 30
0.0
 11
4.4289983081
 21
7.4591017955
 31
0.0
  0
LINE
  5
17A
330
1F
100
AcDbEntity
  8
0
  6
CONTINUOUS
 62
     7
100
AcDbLine
 10
4.4289983081
 20
7.4591017955
 30
0.0
 11
2.2242738987
 21
7.4591017955
 31
0.0
  0
LINE
  5
17B
330
1F
100
AcDbEntity
  8
0
  6
CONTINUOUS
 62
     7
100
AcDbLine
 10
2.2242738987
 20
7.4591017955
 30
0.0
 11
2.1849038199
 21
7.4197317167
 31
0.0
  0
LINE
  5
17C
330
1F
100
AcDbEntity
  8
0
  6
CONTINUOUS
 62
     7
100
AcDbLine
 10
4.4683683868
 20
7.4197317167
 30
0.0
 11
4.4683683868
 21
5.9242517326
 31
0.0
  0
LINE
  5
17D
330
1F
100
AcDbEntity
  8
0
  6
CONTINUOUS
 62
     7
100
AcDbLine
 10
4.4683683868
 20
5.9242517326
 30
0.0
 11
4.4289983081
 21
5.8848524824
 31
0.0
  0
LINE
  5
17E
330
1F
100
AcDbEntity
  8
0
  6
CONTINUOUS
 62
     7
100
AcDbLine
 10
4.4289983081
 20
5.8848524824
 30
0.0
 11
4.4289983081
 21
7.4591017955
 31
0.0
  0
SPLINE
  5
17F
330
1F
100
AcDbEntity
  8
0
  6
CONTINUOUS
 62
     7
100
AcDbSpline
210
0.0
220
0.0
230
1.0
 70
     8
 71
     3
 72
    58
 73
    54
 74
     0
 42
0.00000001
 43
0.00000001
 40
0.0
 40
0.0
 40
0.0
 40
0.0
 40
0.0312499999999998
 40
0.0312499999999998
 40
0.0624999999999996
 40
0.0624999999999996
 40
0.1249999999999993
 40
0.1249999999999993
 40
0.1874999999999989
 40
0.1874999999999989
 40
0.2499999999999986
 40
0.2499999999999986
 40
0.2812499999999983
 40
0.2812499999999983
 40
0.3124999999999982
 40
0.3124999999999982
 40
0.3437499999999981
 40
0.3437499999999981
 40
0.3749999999999979
 40
0.3749999999999979
 40
0.4062499999999978
 40
0.4062499999999978
 40
0.4374999999999977
 40
0.4374999999999977
 40
0.4687499999999976
 40
0.4687499999999976
 40
0.4999999999999974
 40
0.4999999999999974
 40
0.5312499999999972
 40
0.5312499999999972
 40
0.5624999999999971
 40
0.5624999999999971
 40
0.624999999999997
 40
0.624999999999997
 40
0.6562499999999972
 40
0.6562499999999972
 40
0.6874999999999974
 40
0.6874999999999974
 40
0.7499999999999979
 40
0.7499999999999979
 40
0.8124999999999984
 40
0.8124999999999984
 40
0.8437499999999987
 40
0.8437499999999987
 40
0.8749999999999989
 40
0.8749999999999989
 40
0.9062499999999992
 40
0.9062499999999992
 40
0.9374999999999994
 40
0.9374999999999994
 40
0.9687499999999998
 40
0.9687499999999998
 40
1.0
 40
1.0
 40
1.0
 40
1.0
 10
4.13955415566925
 20
5.98979045390256
 30
0.0
 10
4.151149996860297
 20
5.992850251906773
 30
0.0
 10
4.161410029669813
 20
5.996771918633976
 30
0.0
 10
4.180360627337784
 20
6.005848908326397
 30
0.0
 10
4.189090455427416
 20
6.011068103642159
 30
0.0
 10
4.212919707167306
 20
6.028015676352288
 30
0.0
 10
4.225830134256146
 20
6.040962548234637
 30
0.0
 10
4.24747251500088
 20
6.070142845110031
 30
0.0
 10
4.255937754047646
 20
6.086183551660867
 30
0.0
 10
4.267821205305419
 20
6.120722271271287
 30
0.0
 10
4.27127766831363
 20
6.139554956561446
 30
0.0
 10
4.27161989453455
 20
6.168745910011273
 30
0.0
 10
4.270941001161699
 20
6.178666958392891
 30
0.0
 10
4.267742499556646
 20
6.198884918087511
 30
0.0
 10
4.265197271911355
 20
6.209201565451193
 30
0.0
 10
4.258153948851335
 20
6.229440879899781
 30
0.0
 10
4.253651118214907
 20
6.239450177785619
 30
0.0
 10
4.242371960114196
 20
6.259103780552775
 30
0.0
 10
4.235610496401538
 20
6.268662355819682
 30
0.0
 10
4.220201123280523
 20
6.286341111236844
 30
0.0
 10
4.211499388272183
 20
6.294572106885781
 30
0.0
 10
4.191841189121885
 20
6.309538276142366
 30
0.0
 10
4.181095783738566
 20
6.316078597514915
 30
0.0
 10
4.158381232158119
 20
6.326759040119278
 30
0.0
 10
4.146142818918072
 20
6.331007285810591
 30
0.0
 10
4.121037275743504
 20
6.336709091374591
 30
0.0
 10
4.108278952763304
 20
6.338184998941118
 30
0.0
 10
4.082345713785059
 20
6.338325479854768
 30
0.0
 10
4.069350787513109
 20
6.336952392622885
 30
0.0
 10
4.044301363598788
 20
6.331523320042736
 30
0.0
 10
4.031952259127391
 20
6.327386487348327
 30
0.0
 10
3.997469777349378
 20
6.311561863497345
 30
0.0
 10
3.977314414379605
 20
6.296191390859518
 30
0.0
 10
3.953761357990948
 20
6.269546064156707
 30
0.0
 10
3.946897050580164
 20
6.259948519194389
 30
0.0
 10
3.935516223296071
 20
6.240380940194927
 30
0.0
 10
3.930915853981702
 20
6.23033099097123
 30
0.0
 10
3.920064358049988
 20
6.199603789037484
 30
0.0
 10
3.917017496128449
 20
6.179187547784328
 30
0.0
 10
3.917371383158906
 20
6.139812933238119
 30
0.0
 10
3.920727653824164
 20
6.121362699414354
 30
0.0
 10
3.929595682369191
 20
6.095313762981492
 30
0.0
 10
3.933232066149329
 20
6.086864064239108
 30
0.0
 10
3.941647519973282
 20
6.070810459746319
 30
0.0
 10
3.946427918995539
 20
6.063177383525758
 30
0.0
 10
3.957148999579332
 20
6.048645825518165
 30
0.0
 10
3.963087484793067
 20
6.041747136314379
 30
0.0
 10
3.976288111017096
 20
6.028674132022982
 30
0.0
 10
3.983565209882387
 20
6.022497959323613
 30
0.0
 10
3.999414390142125
 20
6.011195767525136
 30
0.0
 10
4.008010030012962
 20
6.006026067311407
 30
0.0
 10
4.027177797129157
 20
5.99681168683624
 30
0.0
 10
4.037599047766431
 20
5.992838703097938
 30
0.0
 10
4.049151121965997
 20
5.98979045390256
 30
0.0
  0
LINE
  5
180
330
1F
100
AcDbEntity
  8
0
  6
CONTINUOUS
 62
     7
100
AcDbLine
 10
3.7203368908
 20
5.8848524824
 30
0.0
 11
4.4289983081
 21
5.8848524824
 31
0.0
  0
LINE
  5
181
330
1F
100
AcDbEntity
  8
0
  6
CONTINUOUS
 62
     7
100
AcDbLine
 10
3.7203368908
 20
5.8848524824
 30
0.0
 11
3.7203368908
 21
7.0654010081
 31
0.0
  0
LINE
  5
182
330
1F
100
AcDbEntity
  8
0
  6
CONTINUOUS
 62
     7
100
AcDbLine
 10
2.932935316
 20
7.0654010081
 30
0.0
 11
3.7203368908
 21
7.0654010081
 31
0.0
  0
LINE
  5
183
330
1F
100
AcDbEntity
  8
0
  6
CONTINUOUS
 62
     7
100
AcDbLine
 10
2.932935316
 20
7.0654010081
 30
0.0
 11
2.932935316
 21
5.8848524824
 31
0.0
  0
LINE
  5
184
330
1F
100
AcDbEntity
  8
0
  6
CONTINUOUS
 62
     7
100
AcDbLine
 10
2.2242738987
 20
5.8848524824
 30
0.0
 11
2.932935316
 21
5.8848524824
 31
0.0
  0
LINE
  5
185
330
1F
100
AcDbEntity
  8
0
  6
CONTINUOUS
 62
     7
100
AcDbLine
 10
2.2242738987
 20
7.4591017955
 30
0.0
 11
2.2242738987
 21
5.8848524824
 31
0.0
  0
LINE
  5
186
330
1F
100
AcDbEntity
  8
0
  6
CONTINUOUS
 62
     7
100
AcDbLine
 10
2.932935316
 20
5.8848524824
 30
0.0
 11
3.7203368908
 21
5.8848524824
 31
0.0
  0
SPLINE
  5
187
330
1F
100
AcDbEntity
  8
0
  6
CONTINUOUS
 62
     7
100
AcDbSpline
210
0.0
220
0.0
230
1.0
 70
     8
 71
     3
 72
    58
 73
    54
 74
     0
 42
0.00000001
 43
0.00000001
 40
0.0
 40
0.0
 40
0.0
 40
0.0
 40
0.03125
 40
0.03125
 40
0.0624999999999999
 40
0.0624999999999999
 40
0.1249999999999998
 40
0.1249999999999998
 40
0.1874999999999997
 40
0.1874999999999997
 40
0.2499999999999996
 40
0.2499999999999996
 40
0.2812499999999996
 40
0.2812499999999996
 40
0.3124999999999997
 40
0.3124999999999997
 40
0.3437499999999998
 40
0.3437499999999998
 40
0.3749999999999999
 40
0.3749999999999999
 40
0.4062500000000001
 40
0.4062500000000001
 40
0.4375000000000002
 40
0.4375000000000002
 40
0.4687500000000003
 40
0.4687500000000003
 40
0.5000000000000004
 40
0.5000000000000004
 40
0.5312500000000006
 40
0.5312500000000006
 40
0.5625000000000006
 40
0.5625000000000006
 40
0.6250000000000004
 40
0.6250000000000004
 40
0.6562500000000004
 40
0.6562500000000004
 40
0.6875000000000003
 40
0.6875000000000003
 40
0.7500000000000003
 40
0.7500000000000003
 40
0.8125000000000004
 40
0.8125000000000004
 40
0.8437500000000003
 40
0.8437500000000003
 40
0.8750000000000003
 40
0.8750000000000003
 40
0.9062500000000002
 40
0.9062500000000002
 40
0.9375000000000002
 40
0.9375000000000002
 40
0.9687500000000001
 40
0.9687500000000001
 40
1.0
 40
1.0
 40
1.0
 40
1.0
 10
2.513718051099854
 20
5.98979045390256
 30
0.0
 10
2.502122209908809
 20
5.992850251906773
 30
0.0
 10
2.491862177099292
 20
5.996771918633976
 30
0.0
 10
2.472911579431321
 20
6.005848908326397
 30
0.0
 10
2.464181751341689
 20
6.011068103642159
 30
0.0
 10
2.440352499601798
 20
6.028015676352288
 30
0.0
 10
2.427442072512958
 20
6.040962548234637
 30
0.0
 10
2.405799691768225
 20
6.070142845110031
 30
0.0
 10
2.397334452721459
 20
6.086183551660867
 30
0.0
 10
2.385451001463685
 20
6.120722271271287
 30
0.0
 10
2.381994538455475
 20
6.139554956561447
 30
0.0
 10
2.381652312234555
 20
6.168745910011273
 30
0.0
 10
2.382331205607406
 20
6.178666958392891
 30
0.0
 10
2.385529707212459
 20
6.198884918087512
 30
0.0
 10
2.38807493485775
 20
6.209201565451193
 30
0.0
 10
2.39511825791777
 20
6.229440879899781
 30
0.0
 10
2.399621088554198
 20
6.239450177785619
 30
0.0
 10
2.41090024665491
 20
6.259103780552775
 30
0.0
 10
2.417661710367568
 20
6.268662355819682
 30
0.0
 10
2.433071083488582
 20
6.286341111236844
 30
0.0
 10
2.441772818496922
 20
6.294572106885781
 30
0.0
 10
2.461431017647221
 20
6.309538276142368
 30
0.0
 10
2.472176423030539
 20
6.316078597514915
 30
0.0
 10
2.494890974610987
 20
6.326759040119278
 30
0.0
 10
2.507129387851033
 20
6.331007285810591
 30
0.0
 10
2.532234931025601
 20
6.336709091374591
 30
0.0
 10
2.544993254005802
 20
6.338184998941118
 30
0.0
 10
2.570926492984047
 20
6.338325479854768
 30
0.0
 10
2.583921419255996
 20
6.336952392622885
 30
0.0
 10
2.608970843170317
 20
6.331523320042736
 30
0.0
 10
2.621319947641714
 20
6.327386487348327
 30
0.0
 10
2.655802429419728
 20
6.311561863497345
 30
0.0
 10
2.6759577923895
 20
6.296191390859518
 30
0.0
 10
2.699510848778158
 20
6.269546064156707
 30
0.0
 10
2.70637515618894
 20
6.259948519194389
 30
0.0
 10
2.717755983473034
 20
6.240380940194927
 30
0.0
 10
2.722356352787403
 20
6.23033099097123
 30
0.0
 10
2.733207848719117
 20
6.199603789037484
 30
0.0
 10
2.736254710640656
 20
6.179187547784328
 30
0.0
 10
2.735900823610198
 20
6.139812933238119
 30
0.0
 10
2.73254455294494
 20
6.121362699414354
 30
0.0
 10
2.723676524399914
 20
6.095313762981492
 30
0.0
 10
2.720040140619775
 20
6.086864064239108
 30
0.0
 10
2.711624686795823
 20
6.070810459746321
 30
0.0
 10
2.706844287773567
 20
6.063177383525758
 30
0.0
 10
2.696123207189772
 20
6.048645825518165
 30
0.0
 10
2.690184721976038
 20
6.041747136314379
 30
0.0
 10
2.676984095752009
 20
6.028674132022982
 30
0.0
 10
2.669706996886718
 20
6.022497959323614
 30
0.0
 10
2.65385781662698
 20
6.011195767525136
 30
0.0
 10
2.645262176756144
 20
6.006026067311407
 30
0.0
 10
2.626094409639947
 20
5.99681168683624
 30
0.0
 10
2.615673159002674
 20
5.992838703097938
 30
0.0
 10
2.604121084803108
 20
5.98979045390256
 30
0.0
  0
LINE
  5
188
330
1F
100
AcDbEntity
  8
0
  6
CONTINUOUS
 62
     7
100
AcDbLine
 10
2.2242738987
 20
5.8848524824
 30
0.0
 11
2.1849038199
 21
5.9242517326
 31
0.0
  0
LINE
  5
189
330
1F
100
AcDbEntity
  8
0
  6
CONTINUOUS
 62
     7
100
AcDbLine
 10
2.1849038199
 20
5.9242517326
 30
0.0
 11
2.1849038199
 21
7.4197317167
 31
0.0
  0
LINE
  5
18A
330
1F
100
AcDbEntity
  8
0
  6
CONTINUOUS
 62
     7
100
AcDbLine
 10
3.7203368908
 20
6.9060679549
 30
0.0
 11
2.932935316
 21
6.9060679549
 31
0.0
  0
LINE
  5
18B
330
1F
100
AcDbEntity
  8
0
  6
CONTINUOUS
 62
     7
100
AcDbLine
 10
2.932935316
 20
6.4373324864
 30
0.0
 11
3.7203368908
 21
6.4373324864
 31
0.0
  0
CIRCLE
  5
18C
330
1F
100
AcDbEntity
  8
0
  6
CONTINUOUS
 62
     7
100
AcDbCircle
 10
4.0943526388
 20
6.1610924844
 30
0.0
 40
0.1574803149606296
  0
CIRCLE
  5
18D
330
1F
100
AcDbEntity
  8
0
  6
CONTINUOUS
 62
     7
100
AcDbCircle
 10
4.0943526388
 20
6.1610924844
 30
0.0
 40
0.1771653543307083
  0
LINE
  5
18E
330
1F
100
AcDbEntity
  8
0
  6
CONTINUOUS
 62
     7
100
AcDbLine
 10
4.0943526388
 20
6.2520137866
 30
0.0
 11
4.0156124813
 21
6.2065531355
 31
0.0
  0
LINE
  5
18F
330
1F
100
AcDbEntity
  8
0
  6
CONTINUOUS
 62
     7
100
AcDbLine
 10
4.0156124813
 20
6.2065531355
 30
0.0
 11
4.0156124813
 21
6.1156318333
 31
0.0
  0
LINE
  5
190
330
1F
100
AcDbEntity
  8
0
  6
CONTINUOUS
 62
     7
100
AcDbLine
 10
4.0156124813
 20
6.1156318333
 30
0.0
 11
4.0943526388
 21
6.0701711822
 31
0.0
  0
LINE
  5
191
330
1F
100
AcDbEntity
  8
0
  6
CONTINUOUS
 62
     7
100
AcDbLine
 10
4.0943526388
 20
6.0701711822
 30
0.0
 11
4.1730927963
 21
6.1156318333
 31
0.0
  0
LINE
  5
192
330
1F
100
AcDbEntity
  8
0
  6
CONTINUOUS
 62
     7
100
AcDbLine
 10
4.1730927963
 20
6.1156318333
 30
0.0
 11
4.1730927963
 21
6.2065531355
 31
0.0
  0
LINE
  5
193
330
1F
100
AcDbEntity
  8
0
  6
CONTINUOUS
 62
     7
100
AcDbLine
 10
4.1730927963
 20
6.2065531355
 30
0.0
 11
4.0943526388
 21
6.2520137866
 31
0.0
  0
CIRCLE
  5
194
330
1F
100
AcDbEntity
  8
0
  6
CONTINUOUS
 62
     7
100
AcDbCircle
 10
2.558919568
 20
6.1610924844
 30
0.0
 40
0.1574803149606296
  0
ARC
  5
195
330
1F
100
AcDbEntity
  8
0
  6
CONTINUOUS
 62
     7
100
AcDbCircle
 10
2.558919568
 20
6.1610924844
 30
0.0
 40
0.1771653543307087
100
AcDbArc
 50
270.0
 51
349.6879537667
  0
ARC
  5
196
330
1F
100
AcDbEntity
  8
0
  6
CONTINUOUS
 62
     7
100
AcDbCircle
 10
2.558919568
 20
6.1610924844
 30
0.0
 40
0.1771653543307087
100
AcDbArc
 50
190.3120462333
 51
270.0
  0
LINE
  5
197
330
1F
100
AcDbEntity
  8
0
  6
CONTINUOUS
 62
     7
100
AcDbLine
 10
2.4801794105
 20
6.1156318333
 30
0.0
 11
2.4801794105
 21
6.2065531355
 31
0.0
  0
LINE
  5
198
330
1F
100
AcDbEntity
  8
0
  6
CONTINUOUS
 62
     7
100
AcDbLine
 10
2.558919568
 20
6.0701711822
 30
0.0
 11
2.4801794105
 21
6.1156318333
 31
0.0
  0
LINE
  5
199
330
1F
100
AcDbEntity
  8
0
  6
CONTINUOUS
 62
     7
100
AcDbLine
 10
2.6376597254
 20
6.1156318333
 30
0.0
 11
2.558919568
 21
6.0701711822
 31
0.0
  0
LINE
  5
19A
330
1F
100
AcDbEntity
  8
0
  6
CONTINUOUS
 62
     7
100
AcDbLine
 10
2.6376597254
 20
6.2065531355
 30
0.0
 11
2.6376597254
 21
6.1156318333
 31
0.0
  0
LINE
  5
19B
330
1F
100
AcDbEntity
  8
0
  6
CONTINUOUS
 62
     7
100
AcDbLine
 10
2.558919568
 20
6.2520137866
 30
0.0
 11
2.6376597254
 21
6.2065531355
 31
0.0
  0
LINE
  5
19C
330
1F
100
AcDbEntity
  8
0
  6
CONTINUOUS
 62
     7
100
AcDbLine
 10
2.4801794105
 20
6.2065531355
 30
0.0
 11
2.558919568
 21
6.2520137866
 31
0.0
  0
LINE
  5
19D
330
1F
100
AcDbEntity
  8
0
  6
HIDDEN
 62
     7
100
AcDbLine
 10
4.049151122
 20
5.9897904539
 30
0.0
 11
4.1395541557
 21
5.9897904539
 31
0.0
  0
LINE
  5
19E
330
1F
100
AcDbEntity
  8
0
  6
HIDDEN
 62
     7
100
AcDbLine
 10
2.5137180511
 20
5.9897904539
 30
0.0
 11
2.6041210848
 21
5.9897904539
 31
0.0
  0
CIRCLE
  5
19F
330
1F
100
AcDbEntity
  8
0
  6
HIDDEN
 62
     7
100
AcDbCircle
 10
4.0943526388
 20
6.1610924844
 30
0.0
 40
0.0984251968503935
  0
CIRCLE
  5
1A0
330
1F
100
AcDbEntity
  8
0
  6
HIDDEN
 62
     7
100
AcDbCircle
 10
2.558919568
 20
6.1610924844
 30
0.0
 40
0.0984251968503935
  0
LINE
  5
1A1
330
1F
100
AcDbEntity
  8
0
  6
HIDDEN
 62
     7
100
AcDbLine
 10
3.7203368908
 20
6.9060679549
 30
0.0
 11
4.4289983081
 21
6.9060679549
 31
0.0
  0
SPLINE
  5
1A2
330
1F
100
AcDbEntity
  8
0
  6
HIDDEN
 62
     7
100
AcDbSpline
210
0.0
220
0.0
230
1.0
 70
     8
 71
     3
 72
     8
 73
     4
 74
     0
 42
0.00000001
 43
0.00000001
 40
0.0
 40
0.0
 40
0.0
 40
0.0
 40
0.0007095026026307
 40
0.0007095026026307
 40
0.0007095026026307
 40
0.0007095026026307
 10
4.46836838684912
 20
6.945704372376039
 30
0.0
 10
4.455238626147043
 20
6.932498594411999
 30
0.0
 10
4.442114188015545
 20
6.919287519274995
 30
0.0
 10
4.428998308108959
 20
6.906067954909808
 30
0.0
  0
LINE
  5
1A3
330
1F
100
AcDbEntity
  8
0
  6
HIDDEN
 62
     7
100
AcDbLine
 10
3.7203368908
 20
7.0654010081
 30
0.0
 11
4.4683683868
 21
7.0654010081
 31
0.0
  0
LINE
  5
1A4
330
1F
100
AcDbEntity
  8
0
  6
HIDDEN
 62
     7
100
AcDbLine
 10
2.2242738987
 20
6.9060679549
 30
0.0
 11
2.932935316
 21
6.9060679549
 31
0.0
  0
SPLINE
  5
1A5
330
1F
100
AcDbEntity
  8
0
  6
HIDDEN
 62
     7
100
AcDbSpline
210
0.0
220
0.0
230
1.0
 70
     8
 71
     3
 72
     8
 73
     4
 74
     0
 42
0.00000001
 43
0.00000001
 40
0.0
 40
0.0
 40
0.0
 40
0.0
 40
0.0007095026026306
 40
0.0007095026026306
 40
0.0007095026026306
 40
0.0007095026026306
 10
2.224273898660141
 20
6.906067954909808
 30
0.0
 10
2.211158018753557
 20
6.919287519274993
 30
0.0
 10
2.19803358062206
 20
6.932498594411997
 30
0.0
 10
2.184903819919986
 20
6.945704372376034
 30
0.0
  0
LINE
  5
1A6
330
1F
100
AcDbEntity
  8
0
  6
HIDDEN
 62
     7
100
AcDbLine
 10
2.1849038199
 20
7.0654010081
 30
0.0
 11
2.932935316
 21
7.0654010081
 31
0.0
  0
LINE
  5
1A7
330
1F
100
AcDbEntity
  8
0
  6
HIDDEN
 62
     7
100
AcDbLine
 10
2.932935316
 20
6.4373324864
 30
0.0
 11
2.2242738987
 21
6.4373324864
 31
0.0
  0
SPLINE
  5
1A8
330
1F
100
AcDbEntity
  8
0
  6
HIDDEN
 62
     7
100
AcDbSpline
210
0.0
220
0.0
230
1.0
 70
     8
 71
     3
 72
     8
 73
     4
 74
     0
 42
0.00000001
 43
0.00000001
 40
0.0
 40
0.0
 40
0.0
 40
0.0
 40
0.0007095026026306
 40
0.0007095026026306
 40
0.0007095026026306
 40
0.0007095026026306
 10
2.184903819919986
 20
6.397696068947886
 30
0.0
 10
2.19803358062206
 20
6.410901846911925
 30
0.0
 10
2.211158018753557
 20
6.424112922048927
 30
0.0
 10
2.224273898660141
 20
6.437332486414113
 30
0.0
  0
LINE
  5
1A9
330
1F
100
AcDbEntity
  8
0
  6
HIDDEN
 62
     7
100
AcDbLine
 10
4.4289983081
 20
6.4373324864
 30
0.0
 11
3.7203368908
 21
6.4373324864
 31
0.0
  0
SPLINE
  5
1AA
330
1F
100
AcDbEntity
  8
0
  6
HIDDEN
 62
     7
100
AcDbSpline
210
0.0
220
0.0
230
1.0
 70
     8
 71
     3
 72
     8
 73
     4
 74
     0
 42
0.00000001
 43
0.00000001
 40
0.0
 40
0.0
 40
0.0
 40
0.0
 40
0.0007095026026307
 40
0.0007095026026307
 40
0.0007095026026307
 40
0.0007095026026307
 10
4.428998308108959
 20
6.437332486414113
 30
0.0
 10
4.442114188015545
 20
6.424112922048926
 30
0.0
 10
4.455238626147043
 20
6.410901846911922
 30
0.0
 10
4.46836838684912
 20
6.397696068947882
 30
0.0
  0
CIRCLE
  5
1AB
330
1F
100
AcDbEntity
  8
0
  6
HIDDEN
 62
     7
100
AcDbCircle
 10
4.0943526388
 20
6.1610924844
 30
0.0
 40
0.0787401574803157
  0
ARC
  5
1AC
330
1F
100
AcDbEntity
  8
0
  6
HIDDEN
 62
     7
100
AcDbCircle
 10
2.558919568
 20
6.1610924844
 30
0.0
 40
0.1771653543307087
100
AcDbArc
 50
349.6879537667
 51
190.3120462333
  0
CIRCLE
  5
1AD
330
1F
100
AcDbEntity
  8
0
  6
HIDDEN
 62
     7
100
AcDbCircle
 10
2.558919568
 20
6.1610924844
 30
0.0
 40
0.0787401574803157
  0
LINE
  5
1AE
330
1F
100
AcDbEntity
  8
0
  6
CONTINUOUS
 62
     7
100
AcDbLine
 10
8.9529228604
 20
5.7594519443
 30
0.0
 11
8.9807571855
 21
5.7755255821
 31
0.0
  0
LINE
  5
1AF
330
1F
100
AcDbEntity
  8
0
  6
CONTINUOUS
 62
     7
100
AcDbLine
 10
9.5096093616
 20
6.691623682
 30
0.0
 11
9.5096093616
 21
6.7237657336
 31
0.0
  0
LINE
  5
1B0
330
1F
100
AcDbEntity
  8
0
  6
CONTINUOUS
 62
     7
100
AcDbLine
 10
8.3836953892
 20
5.8217126072
 30
0.0
 11
8.5591635761
 21
5.720416979
 31
0.0
  0
LINE
  5
1B1
330
1F
100
AcDbEntity
  8
0
  6
CONTINUOUS
 62
     7
100
AcDbLine
 10
7.2979335301
 20
6.4485095867
 30
0.0
 11
8.2614180416
 21
5.8923018174
 31
0.0
  0
LINE
  5
1B2
330
1F
100
AcDbEntity
  8
0
  6
CONTINUOUS
 62
     7
100
AcDbLine
 10
7.0001879956
 20
6.6203944251
 30
0.0
 11
7.1756561825
 21
6.5190987969
 31
0.0
  0
LINE
  5
1B3
330
1F
100
AcDbEntity
  8
0
  6
CONTINUOUS
 62
     7
100
AcDbLine
 10
9.3465011609
 20
7.0842734552
 30
0.0
 11
7.7875255803
 21
7.9842509013
 31
0.0
  0
LINE
  5
1B4
330
1F
100
AcDbEntity
  8
0
  6
CONTINUOUS
 62
     7
100
AcDbLine
 10
7.393766296
 20
7.945215936
 30
0.0
 11
7.365931971
 21
7.9291422982
 31
0.0
  0
SPLINE
  5
1B5
330
1F
100
AcDbEntity
  8
0
  6
CONTINUOUS
 62
     7
100
AcDbSpline
210
0.0
220
0.0
230
1.0
 70
     8
 71
     3
 72
    34
 73
    30
 74
     0
 42
0.00000001
 43
0.00000001
 40
0.0
 40
0.0
 40
0.0
 40
0.0
 40
0.0200950194054355
 40
0.0566652536049131
 40
0.0940345145436518
 40
0.1320645172422131
 40
0.1705234774098494
 40
0.2091847322098244
 40
0.247865389779586
 40
0.2864817163720645
 40
0.3250123908265043
 40
0.3634629767896925
 40
0.4018528463257345
 40
0.4402079385934485
 40
0.4785572094321094
 40
0.5169269923087605
 40
0.5553423445502961
 40
0.5938346483960196
 40
0.6324342159904632
 40
0.6711672326068824
 40
0.7100491620454621
 40
0.7490719444420781
 40
0.7881750886048776
 40
0.8271751352879901
 40
0.8658185794563706
 40
0.903803968322926
 40
0.9409041139447725
 40
0.9770925877287231
 40
1.0
 40
1.0
 40
1.0
 40
1.0
 10
8.52203268190568
 20
6.834023477236084
 30
0.0
 10
8.520916969999309
 20
6.836088017616989
 30
0.0
 10
8.517770812394335
 20
6.841909743981177
 30
0.0
 10
8.510652800901884
 20
6.850815365035083
 30
0.0
 10
8.500888577978392
 20
6.860740978686158
 30
0.0
 10
8.489348112039393
 20
6.869935556329749
 30
0.0
 10
8.476272032926154
 20
6.878316516761655
 30
0.0
 10
8.461806435763014
 20
6.885761687549383
 30
0.0
 10
8.446157500975618
 20
6.892187941479055
 30
0.0
 10
8.42952449259117
 20
6.897533420505268
 30
0.0
 10
8.412102737611335
 20
6.901756636474435
 30
0.0
 10
8.39408377295735
 20
6.904827976264486
 30
0.0
 10
8.375659786966816
 20
6.906726889264476
 30
0.0
 10
8.357023899387997
 20
6.907440954527972
 30
0.0
 10
8.338370396888203
 20
6.90696570588899
 30
0.0
 10
8.319893801702325
 20
6.905304735235654
 30
0.0
 10
8.301786164698884
 20
6.902469500313112
 30
0.0
 10
8.284234777656943
 20
6.898478363770983
 30
0.0
 10
8.267420930695339
 20
6.89335518471206
 30
0.0
 10
8.251520888006901
 20
6.887128310350571
 30
0.0
 10
8.236707541358525
 20
6.879830097126132
 30
0.0
 10
8.223154548990538
 20
6.871498927568027
 30
0.0
 10
8.211046792203454
 20
6.862189041317221
 30
0.0
 10
8.20057325607527
 20
6.851982783457479
 30
0.0
 10
8.191929269618761
 20
6.841005690503166
 30
0.0
 10
8.18523985697127
 20
6.829431178326324
 30
0.0
 10
8.18071356786665
 20
6.817469781275066
 30
0.0
 10
8.178290469834186
 20
6.806751286606277
 30
0.0
 10
8.178236998373908
 20
6.800073714648698
 30
0.0
 10
8.178216271164839
 20
6.797485279073666
 30
0.0
  0
LINE
  5
1B6
330
1F
100
AcDbEntity
  8
0
  6
CONTINUOUS
 62
     7
100
AcDbLine
 10
8.1779825993
 20
6.7966522906
 30
0.0
 11
8.1779825993
 21
6.702499777
 31
0.0
  0
SPLINE
  5
1B7
330
1F
100
AcDbEntity
  8
0
  6
CONTINUOUS
 62
     7
100
AcDbSpline
210
0.0
220
0.0
230
1.0
 70
     8
 71
     3
 72
    34
 73
    30
 74
     0
 42
0.00000001
 43
0.00000001
 40
0.0
 40
0.0
 40
0.0
 40
0.0
 40
0.0210529295450358
 40
0.0574366563872471
 40
0.0946153349506431
 40
0.1324513855060096
 40
0.1707142058571783
 40
0.2091782891426925
 40
0.2476616762443132
 40
0.286081060455161
 40
0.3244152293519135
 40
0.3626697182068849
 40
0.4008638002871001
 40
0.4390232824622607
 40
0.4771769728975196
 40
0.5153510707598448
 40
0.5535705055843364
 40
0.591866499561596
 40
0.6302692102449153
 40
0.6688046893632544
 40
0.7074883218517657
 40
0.7463120889514532
 40
0.785215807974156
 40
0.8240169553119595
 40
0.8624633187996918
 40
0.900254983052572
 40
0.9371659187810307
 40
0.9731698321770975
 40
1.0
 40
1.0
 40
1.0
 40
1.0
 10
7.436502701052457
 20
7.460468013973313
 30
0.0
 10
7.435329417883925
 20
7.46264269587761
 30
0.0
 10
7.432128463733971
 20
7.46857566862715
 30
0.0
 10
7.424940296728198
 20
7.477586420293617
 30
0.0
 10
7.415172716023133
 20
7.487510696912886
 30
0.0
 10
7.403633173828046
 20
7.496705642381176
 30
0.0
 10
7.390556842772584
 20
7.50508650249245
 30
0.0
 10
7.37609131372143
 20
7.512531700401624
 30
0.0
 10
7.360442360648696
 20
7.518957947050274
 30
0.0
 10
7.343809357154556
 20
7.524303428023754
 30
0.0
 10
7.326387600868443
 20
7.52852664347278
 30
0.0
 10
7.308368636563434
 20
7.531597983401772
 30
0.0
 10
7.289944650479488
 20
7.533496896364632
 30
0.0
 10
7.271308762926136
 20
7.534210961638033
 30
0.0
 10
7.252655260417756
 20
7.533735712996511
 30
0.0
 10
7.234178665240775
 20
7.532074742343428
 30
0.0
 10
7.216071028210286
 20
7.529239507422415
 30
0.0
 10
7.198519641267942
 20
7.525248370873898
 30
0.0
 10
7.181705793933505
 20
7.520125191839094
 30
0.0
 10
7.165805752643603
 20
7.513898317387073
 30
0.0
 10
7.150992400746462
 20
7.506600104502422
 30
0.0
 10
7.137439428064389
 20
7.498268933669917
 30
0.0
 10
7.125331597674077
 20
7.488959052183937
 30
0.0
 10
7.1148583348101
 20
7.478752776633985
 30
0.0
 10
7.106213343827807
 20
7.467775748709306
 30
0.0
 10
7.099527582976666
 20
7.456201000127407
 30
0.0
 10
7.094988127066235
 20
7.444240455451036
 30
0.0
 10
7.092506473333143
 20
7.433066718935924
 30
0.0
 10
7.092468224417149
 20
7.425929128975678
 30
0.0
 10
7.092451892120803
 20
7.422881376342564
 30
0.0
  0
LINE
  5
1B8
330
1F
100
AcDbEntity
  8
0
  6
CONTINUOUS
 62
     7
100
AcDbLine
 10
7.0922674628
 20
7.4234222977
 30
0.0
 11
7.0922674628
 21
7.3271532686
 31
0.0
  0
POLYLINE
  5
1B9
330
1F
100
AcDbEntity
  8
0
  6
CONTINUOUS
 62
     7
100
AcDb2dPolyline
 66
     1
 10
0.0
 20
0.0
 30
0.0
  0
VERTEX
  5
211
330
1B9
100
AcDbEntity
  8
0
  6
CONTINUOUS
 62
     7
100
AcDbVertex
100
AcDb2dVertex
 10
8.4521453236
 20
6.0570522298
 30
0.0
  0
VERTEX
  5
212
330
1B9
100
AcDbEntity
  8
0
  6
CONTINUOUS
 62
     7
100
AcDbVertex
100
AcDb2dVertex
 10
8.4540635835
 20
6.0249961686
 30
0.0
  0
VERTEX
  5
213
330
1B9
100
AcDbEntity
  8
0
  6
CONTINUOUS
 62
     7
100
AcDbVertex
100
AcDb2dVertex
 10
8.4575411958
 20
5.9940098978
 30
0.0
  0
VERTEX
  5
214
330
1B9
100
AcDbEntity
  8
0
  6
CONTINUOUS
 62
     7
100
AcDbVertex
100
AcDb2dVertex
 10
8.4625678629
 20
5.9641851715
 30
0.0
  0
VERTEX
  5
215
330
1B9
100
AcDbEntity
  8
0
  6
CONTINUOUS
 62
     7
100
AcDbVertex
100
AcDb2dVertex
 10
8.4691287
 20
5.9356103047
 30
0.0
  0
VERTEX
  5
216
330
1B9
100
AcDbEntity
  8
0
  6
CONTINUOUS
 62
     7
100
AcDbVertex
100
AcDb2dVertex
 10
8.4772042799
 20
5.9083699111
 30
0.0
  0
VERTEX
  5
217
330
1B9
100
AcDbEntity
  8
0
  6
CONTINUOUS
 62
     7
100
AcDbVertex
100
AcDb2dVertex
 10
8.4867706895
 20
5.8825446531
 30
0.0
  0
VERTEX
  5
218
330
1B9
100
AcDbEntity
  8
0
  6
CONTINUOUS
 62
     7
100
AcDbVertex
100
AcDb2dVertex
 10
8.4977996017
 20
5.8582110025
 30
0.0
  0
VERTEX
  5
219
330
1B9
100
AcDbEntity
  8
0
  6
CONTINUOUS
 62
     7
100
AcDbVertex
100
AcDb2dVertex
 10
8.5102583583
 20
5.8354410144
 30
0.0
  0
VERTEX
  5
21A
330
1B9
100
AcDbEntity
  8
0
  6
CONTINUOUS
 62
     7
100
AcDbVertex
100
AcDb2dVertex
 10
8.5241100673
 20
5.8143021136
 30
0.0
  0
VERTEX
  5
21B
330
1B9
100
AcDbEntity
  8
0
  6
CONTINUOUS
 62
     7
100
AcDbVertex
100
AcDb2dVertex
 10
8.5393137123
 20
5.7948568951
 30
0.0
  0
VERTEX
  5
21C
330
1B9
100
AcDbEntity
  8
0
  6
CONTINUOUS
 62
     7
100
AcDbVertex
100
AcDb2dVertex
 10
8.555824273
 20
5.7771629387
 30
0.0
  0
VERTEX
  5
21D
330
1B9
100
AcDbEntity
  8
0
  6
CONTINUOUS
 62
     7
100
AcDbVertex
100
AcDb2dVertex
 10
8.5735928598
 20
5.7612726384
 30
0.0
  0
VERTEX
  5
21E
330
1B9
100
AcDbEntity
  8
0
  6
CONTINUOUS
 62
     7
100
AcDbVertex
100
AcDb2dVertex
 10
8.5925668576
 20
5.7472330474
 30
0.0
  0
VERTEX
  5
21F
330
1B9
100
AcDbEntity
  8
0
  6
CONTINUOUS
 62
     7
100
AcDbVertex
100
AcDb2dVertex
 10
8.6126900819
 20
5.7350857388
 30
0.0
  0
VERTEX
  5
220
330
1B9
100
AcDbEntity
  8
0
  6
CONTINUOUS
 62
     7
100
AcDbVertex
100
AcDb2dVertex
 10
8.6339029452
 20
5.7248666823
 30
0.0
  0
VERTEX
  5
221
330
1B9
100
AcDbEntity
  8
0
  6
CONTINUOUS
 62
     7
100
AcDbVertex
100
AcDb2dVertex
 10
8.6561426337
 20
5.7166061377
 30
0.0
  0
VERTEX
  5
222
330
1B9
100
AcDbEntity
  8
0
  6
CONTINUOUS
 62
     7
100
AcDbVertex
100
AcDb2dVertex
 10
8.6793432927
 20
5.7103285658
 30
0.0
  0
VERTEX
  5
223
330
1B9
100
AcDbEntity
  8
0
  6
CONTINUOUS
 62
     7
100
AcDbVertex
100
AcDb2dVertex
 10
8.7034362221
 20
5.706052555
 30
0.0
  0
VERTEX
  5
224
330
1B9
100
AcDbEntity
  8
0
  6
CONTINUOUS
 62
     7
100
AcDbVertex
100
AcDb2dVertex
 10
8.7283500798
 20
5.7037907673
 30
0.0
  0
VERTEX
  5
225
330
1B9
100
AcDbEntity
  8
0
  6
CONTINUOUS
 62
     7
100
AcDbVertex
100
AcDb2dVertex
 10
8.7540110925
 20
5.7035499001
 30
0.0
  0
VERTEX
  5
226
330
1B9
100
AcDbEntity
  8
0
  6
CONTINUOUS
 62
     7
100
AcDbVertex
100
AcDb2dVertex
 10
8.7803432748
 20
5.7053306667
 30
0.0
  0
VERTEX
  5
227
330
1B9
100
AcDbEntity
  8
0
  6
CONTINUOUS
 62
     7
100
AcDbVertex
100
AcDb2dVertex
 10
8.8072686536
 20
5.7091277938
 30
0.0
  0
VERTEX
  5
228
330
1B9
100
AcDbEntity
  8
0
  6
CONTINUOUS
 62
     7
100
AcDbVertex
100
AcDb2dVertex
 10
8.8347074996
 20
5.7149300379
 30
0.0
  0
VERTEX
  5
229
330
1B9
100
AcDbEntity
  8
0
  6
CONTINUOUS
 62
     7
100
AcDbVertex
100
AcDb2dVertex
 10
8.8625785628
 20
5.7227202176
 30
0.0
  0
VERTEX
  5
22A
330
1B9
100
AcDbEntity
  8
0
  6
CONTINUOUS
 62
     7
100
AcDbVertex
100
AcDb2dVertex
 10
8.8907993133
 20
5.7324752653
 30
0.0
  0
VERTEX
  5
22B
330
1B9
100
AcDbEntity
  8
0
  6
CONTINUOUS
 62
     7
100
AcDbVertex
100
AcDb2dVertex
 10
8.9192861861
 20
5.7441662951
 30
0.0
  0
VERTEX
  5
22C
330
1B9
100
AcDbEntity
  8
0
  6
CONTINUOUS
 62
     7
100
AcDbVertex
100
AcDb2dVertex
 10
8.9479548278
 20
5.7577586882
 30
0.0
  0
VERTEX
  5
22D
330
1B9
100
AcDbEntity
  8
0
  6
CONTINUOUS
 62
     7
100
AcDbVertex
100
AcDb2dVertex
 10
8.9767203469
 20
5.773212196
 30
0.0
  0
VERTEX
  5
22E
330
1B9
100
AcDbEntity
  8
0
  6
CONTINUOUS
 62
     7
100
AcDbVertex
100
AcDb2dVertex
 10
9.005497565
 20
5.7904810585
 30
0.0
  0
VERTEX
  5
22F
330
1B9
100
AcDbEntity
  8
0
  6
CONTINUOUS
 62
     7
100
AcDbVertex
100
AcDb2dVertex
 10
9.0342012691
 20
5.8095141405
 30
0.0
  0
VERTEX
  5
230
330
1B9
100
AcDbEntity
  8
0
  6
CONTINUOUS
 62
     7
100
AcDbVertex
100
AcDb2dVertex
 10
9.0627464639
 20
5.8302550826
 30
0.0
  0
VERTEX
  5
231
330
1B9
100
AcDbEntity
  8
0
  6
CONTINUOUS
 62
     7
100
AcDbVertex
100
AcDb2dVertex
 10
9.0910486235
 20
5.8526424682
 30
0.0
  0
VERTEX
  5
232
330
1B9
100
AcDbEntity
  8
0
  6
CONTINUOUS
 62
     7
100
AcDbVertex
100
AcDb2dVertex
 10
9.1190239415
 20
5.8766100054
 30
0.0
  0
VERTEX
  5
233
330
1B9
100
AcDbEntity
  8
0
  6
CONTINUOUS
 62
     7
100
AcDbVertex
100
AcDb2dVertex
 10
9.1465895794
 20
5.9020867233
 30
0.0
  0
VERTEX
  5
234
330
1B9
100
AcDbEntity
  8
0
  6
CONTINUOUS
 62
     7
100
AcDbVertex
100
AcDb2dVertex
 10
9.1736639118
 20
5.928997182
 30
0.0
  0
VERTEX
  5
235
330
1B9
100
AcDbEntity
  8
0
  6
CONTINUOUS
 62
     7
100
AcDbVertex
100
AcDb2dVertex
 10
9.2001667683
 20
5.9572616964
 30
0.0
  0
VERTEX
  5
236
330
1B9
100
AcDbEntity
  8
0
  6
CONTINUOUS
 62
     7
100
AcDbVertex
100
AcDb2dVertex
 10
9.2260196705
 20
5.9867965714
 30
0.0
  0
VERTEX
  5
237
330
1B9
100
AcDbEntity
  8
0
  6
CONTINUOUS
 62
     7
100
AcDbVertex
100
AcDb2dVertex
 10
9.2511460646
 20
6.0175143507
 30
0.0
  0
VERTEX
  5
238
330
1B9
100
AcDbEntity
  8
0
  6
CONTINUOUS
 62
     7
100
AcDbVertex
100
AcDb2dVertex
 10
9.2754715481
 20
6.0493240749
 30
0.0
  0
VERTEX
  5
239
330
1B9
100
AcDbEntity
  8
0
  6
CONTINUOUS
 62
     7
100
AcDbVertex
100
AcDb2dVertex
 10
9.2989240903
 20
6.0821315513
 30
0.0
  0
VERTEX
  5
23A
330
1B9
100
AcDbEntity
  8
0
  6
CONTINUOUS
 62
     7
100
AcDbVertex
100
AcDb2dVertex
 10
9.3214342451
 20
6.115839633
 30
0.0
  0
VERTEX
  5
23B
330
1B9
100
AcDbEntity
  8
0
  6
CONTINUOUS
 62
     7
100
AcDbVertex
100
AcDb2dVertex
 10
9.3429353571
 20
6.1503485058
 30
0.0
  0
VERTEX
  5
23C
330
1B9
100
AcDbEntity
  8
0
  6
CONTINUOUS
 62
     7
100
AcDbVertex
100
AcDb2dVertex
 10
9.3633637588
 20
6.1855559847
 30
0.0
  0
VERTEX
  5
23D
330
1B9
100
AcDbEntity
  8
0
  6
CONTINUOUS
 62
     7
100
AcDbVertex
100
AcDb2dVertex
 10
9.3826589591
 20
6.2213578159
 30
0.0
  0
VERTEX
  5
23E
330
1B9
100
AcDbEntity
  8
0
  6
CONTINUOUS
 62
     7
100
AcDbVertex
100
AcDb2dVertex
 10
9.4007638223
 20
6.2576479854
 30
0.0
  0
VERTEX
  5
23F
330
1B9
100
AcDbEntity
  8
0
  6
CONTINUOUS
 62
     7
100
AcDbVertex
100
AcDb2dVertex
 10
9.4176247378
 20
6.2943190336
 30
0.0
  0
VERTEX
  5
240
330
1B9
100
AcDbEntity
  8
0
  6
CONTINUOUS
 62
     7
100
AcDbVertex
100
AcDb2dVertex
 10
9.4331917781
 20
6.3312623727
 30
0.0
  0
VERTEX
  5
241
330
1B9
100
AcDbEntity
  8
0
  6
CONTINUOUS
 62
     7
100
AcDbVertex
100
AcDb2dVertex
 10
9.4474188474
 20
6.3683686088
 30
0.0
  0
VERTEX
  5
242
330
1B9
100
AcDbEntity
  8
0
  6
CONTINUOUS
 62
     7
100
AcDbVertex
100
AcDb2dVertex
 10
9.4602638173
 20
6.4055278657
 30
0.0
  0
VERTEX
  5
243
330
1B9
100
AcDbEntity
  8
0
  6
CONTINUOUS
 62
     7
100
AcDbVertex
100
AcDb2dVertex
 10
9.4716886524
 20
6.4426301099
 30
0.0
  0
VERTEX
  5
244
330
1B9
100
AcDbEntity
  8
0
  6
CONTINUOUS
 62
     7
100
AcDbVertex
100
AcDb2dVertex
 10
9.4816595222
 20
6.4795654771
 30
0.0
  0
VERTEX
  5
245
330
1B9
100
AcDbEntity
  8
0
  6
CONTINUOUS
 62
     7
100
AcDbVertex
100
AcDb2dVertex
 10
9.4901469018
 20
6.5162245969
 30
0.0
  0
VERTEX
  5
246
330
1B9
100
AcDbEntity
  8
0
  6
CONTINUOUS
 62
     7
100
AcDbVertex
100
AcDb2dVertex
 10
9.4971256588
 20
6.552498917
 30
0.0
  0
VERTEX
  5
247
330
1B9
100
AcDbEntity
  8
0
  6
CONTINUOUS
 62
     7
100
AcDbVertex
100
AcDb2dVertex
 10
9.5025751284
 20
6.5882810244
 30
0.0
  0
VERTEX
  5
248
330
1B9
100
AcDbEntity
  8
0
  6
CONTINUOUS
 62
     7
100
AcDbVertex
100
AcDb2dVertex
 10
9.5064791739
 20
6.6234649639
 30
0.0
  0
VERTEX
  5
249
330
1B9
100
AcDbEntity
  8
0
  6
CONTINUOUS
 62
     7
100
AcDbVertex
100
AcDb2dVertex
 10
9.5088262349
 20
6.6579465512
 30
0.0
  0
VERTEX
  5
24A
330
1B9
100
AcDbEntity
  8
0
  6
CONTINUOUS
 62
     7
100
AcDbVertex
100
AcDb2dVertex
 10
9.5096093616
 20
6.691623682
 30
0.0
  0
VERTEX
  5
24B
330
1B9
100
AcDbEntity
  8
0
  6
CONTINUOUS
 62
     7
100
AcDbVertex
100
AcDb2dVertex
 10
9.5088262349
 20
6.7243966339
 30
0.0
  0
VERTEX
  5
24C
330
1B9
100
AcDbEntity
  8
0
  6
CONTINUOUS
 62
     7
100
AcDbVertex
100
AcDb2dVertex
 10
9.5064791739
 20
6.7561683622
 30
0.0
  0
VERTEX
  5
24D
330
1B9
100
AcDbEntity
  8
0
  6
CONTINUOUS
 62
     7
100
AcDbVertex
100
AcDb2dVertex
 10
9.5025751284
 20
6.7868447867
 30
0.0
  0
VERTEX
  5
24E
330
1B9
100
AcDbEntity
  8
0
  6
CONTINUOUS
 62
     7
100
AcDbVertex
100
AcDb2dVertex
 10
9.4971256588
 20
6.8163350705
 30
0.0
  0
VERTEX
  5
24F
330
1B9
100
AcDbEntity
  8
0
  6
CONTINUOUS
 62
     7
100
AcDbVertex
100
AcDb2dVertex
 10
9.4901469018
 20
6.8445518892
 30
0.0
  0
VERTEX
  5
250
330
1B9
100
AcDbEntity
  8
0
  6
CONTINUOUS
 62
     7
100
AcDbVertex
100
AcDb2dVertex
 10
9.4816595222
 20
6.8714116892
 30
0.0
  0
VERTEX
  5
251
330
1B9
100
AcDbEntity
  8
0
  6
CONTINUOUS
 62
     7
100
AcDbVertex
100
AcDb2dVertex
 10
9.4716886524
 20
6.8968349351
 30
0.0
  0
VERTEX
  5
252
330
1B9
100
AcDbEntity
  8
0
  6
CONTINUOUS
 62
     7
100
AcDbVertex
100
AcDb2dVertex
 10
9.4602638173
 20
6.9207463456
 30
0.0
  0
VERTEX
  5
253
330
1B9
100
AcDbEntity
  8
0
  6
CONTINUOUS
 62
     7
100
AcDbVertex
100
AcDb2dVertex
 10
9.4474188474
 20
6.9430751158
 30
0.0
  0
VERTEX
  5
254
330
1B9
100
AcDbEntity
  8
0
  6
CONTINUOUS
 62
     7
100
AcDbVertex
100
AcDb2dVertex
 10
9.4331917781
 20
6.9637551274
 30
0.0
  0
VERTEX
  5
255
330
1B9
100
AcDbEntity
  8
0
  6
CONTINUOUS
 62
     7
100
AcDbVertex
100
AcDb2dVertex
 10
9.4176247378
 20
6.9827251443
 30
0.0
  0
VERTEX
  5
256
330
1B9
100
AcDbEntity
  8
0
  6
CONTINUOUS
 62
     7
100
AcDbVertex
100
AcDb2dVertex
 10
9.4007638223
 20
6.9999289938
 30
0.0
  0
VERTEX
  5
257
330
1B9
100
AcDbEntity
  8
0
  6
CONTINUOUS
 62
     7
100
AcDbVertex
100
AcDb2dVertex
 10
9.3826589591
 20
7.0153157332
 30
0.0
  0
VERTEX
  5
258
330
1B9
100
AcDbEntity
  8
0
  6
CONTINUOUS
 62
     7
100
AcDbVertex
100
AcDb2dVertex
 10
9.3633637588
 20
7.0288398003
 30
0.0
  0
VERTEX
  5
259
330
1B9
100
AcDbEntity
  8
0
  6
CONTINUOUS
 62
     7
100
AcDbVertex
100
AcDb2dVertex
 10
9.3429353571
 20
7.0404611487
 30
0.0
  0
VERTEX
  5
25A
330
1B9
100
AcDbEntity
  8
0
  6
CONTINUOUS
 62
     7
100
AcDbVertex
100
AcDb2dVertex
 10
9.3214342451
 20
7.050145366
 30
0.0
  0
VERTEX
  5
25B
330
1B9
100
AcDbEntity
  8
0
  6
CONTINUOUS
 62
     7
100
AcDbVertex
100
AcDb2dVertex
 10
9.2989240903
 20
7.0578637761
 30
0.0
  0
VERTEX
  5
25C
330
1B9
100
AcDbEntity
  8
0
  6
CONTINUOUS
 62
     7
100
AcDbVertex
100
AcDb2dVertex
 10
9.2754715481
 20
7.0635935238
 30
0.0
  0
VERTEX
  5
25D
330
1B9
100
AcDbEntity
  8
0
  6
CONTINUOUS
 62
     7
100
AcDbVertex
100
AcDb2dVertex
 10
9.2511460646
 20
7.0673176425
 30
0.0
  0
VERTEX
  5
25E
330
1B9
100
AcDbEntity
  8
0
  6
CONTINUOUS
 62
     7
100
AcDbVertex
100
AcDb2dVertex
 10
9.2260196705
 20
7.0690251046
 30
0.0
  0
VERTEX
  5
25F
330
1B9
100
AcDbEntity
  8
0
  6
CONTINUOUS
 62
     7
100
AcDbVertex
100
AcDb2dVertex
 10
9.2001667683
 20
7.0687108542
 30
0.0
  0
VERTEX
  5
260
330
1B9
100
AcDbEntity
  8
0
  6
CONTINUOUS
 62
     7
100
AcDbVertex
100
AcDb2dVertex
 10
9.1736639118
 20
7.0663758217
 30
0.0
  0
VERTEX
  5
261
330
1B9
100
AcDbEntity
  8
0
  6
CONTINUOUS
 62
     7
100
AcDbVertex
100
AcDb2dVertex
 10
9.1465895794
 20
7.0620269216
 30
0.0
  0
VERTEX
  5
262
330
1B9
100
AcDbEntity
  8
0
  6
CONTINUOUS
 62
     7
100
AcDbVertex
100
AcDb2dVertex
 10
9.1190239415
 20
7.0556770314
 30
0.0
  0
VERTEX
  5
263
330
1B9
100
AcDbEntity
  8
0
  6
CONTINUOUS
 62
     7
100
AcDbVertex
100
AcDb2dVertex
 10
9.0910486235
 20
7.047344954
 30
0.0
  0
VERTEX
  5
264
330
1B9
100
AcDbEntity
  8
0
  6
CONTINUOUS
 62
     7
100
AcDbVertex
100
AcDb2dVertex
 10
9.0627464639
 20
7.0370553618
 30
0.0
  0
VERTEX
  5
265
330
1B9
100
AcDbEntity
  8
0
  6
CONTINUOUS
 62
     7
100
AcDbVertex
100
AcDb2dVertex
 10
9.0342012691
 20
7.0248387234
 30
0.0
  0
VERTEX
  5
266
330
1B9
100
AcDbEntity
  8
0
  6
CONTINUOUS
 62
     7
100
AcDbVertex
100
AcDb2dVertex
 10
9.005497565
 20
7.010731214
 30
0.0
  0
VERTEX
  5
267
330
1B9
100
AcDbEntity
  8
0
  6
CONTINUOUS
 62
     7
100
AcDbVertex
100
AcDb2dVertex
 10
8.9767203469
 20
6.9947746077
 30
0.0
  0
VERTEX
  5
268
330
1B9
100
AcDbEntity
  8
0
  6
CONTINUOUS
 62
     7
100
AcDbVertex
100
AcDb2dVertex
 10
8.9479548278
 20
6.9770161541
 30
0.0
  0
VERTEX
  5
269
330
1B9
100
AcDbEntity
  8
0
  6
CONTINUOUS
 62
     7
100
AcDbVertex
100
AcDb2dVertex
 10
8.9192861861
 20
6.9575084381
 30
0.0
  0
VERTEX
  5
26A
330
1B9
100
AcDbEntity
  8
0
  6
CONTINUOUS
 62
     7
100
AcDbVertex
100
AcDb2dVertex
 10
8.8907993133
 20
6.9363092246
 30
0.0
  0
VERTEX
  5
26B
330
1B9
100
AcDbEntity
  8
0
  6
CONTINUOUS
 62
     7
100
AcDbVertex
100
AcDb2dVertex
 10
8.8625785628
 20
6.9134812873
 30
0.0
  0
VERTEX
  5
26C
330
1B9
100
AcDbEntity
  8
0
  6
CONTINUOUS
 62
     7
100
AcDbVertex
100
AcDb2dVertex
 10
8.8347074996
 20
6.8890922224
 30
0.0
  0
VERTEX
  5
26D
330
1B9
100
AcDbEntity
  8
0
  6
CONTINUOUS
 62
     7
100
AcDbVertex
100
AcDb2dVertex
 10
8.8072686536
 20
6.8632142493
 30
0.0
  0
VERTEX
  5
26E
330
1B9
100
AcDbEntity
  8
0
  6
CONTINUOUS
 62
     7
100
AcDbVertex
100
AcDb2dVertex
 10
8.7803432748
 20
6.8359239957
 30
0.0
  0
VERTEX
  5
26F
330
1B9
100
AcDbEntity
  8
0
  6
CONTINUOUS
 62
     7
100
AcDbVertex
100
AcDb2dVertex
 10
8.7540110925
 20
6.8073022717
 30
0.0
  0
VERTEX
  5
270
330
1B9
100
AcDbEntity
  8
0
  6
CONTINUOUS
 62
     7
100
AcDbVertex
100
AcDb2dVertex
 10
8.7283500798
 20
6.7774338299
 30
0.0
  0
VERTEX
  5
271
330
1B9
100
AcDbEntity
  8
0
  6
CONTINUOUS
 62
     7
100
AcDbVertex
100
AcDb2dVertex
 10
8.7034362221
 20
6.7464071145
 30
0.0
  0
VERTEX
  5
272
330
1B9
100
AcDbEntity
  8
0
  6
CONTINUOUS
 62
     7
100
AcDbVertex
100
AcDb2dVertex
 10
8.6793432927
 20
6.7143139995
 30
0.0
  0
VERTEX
  5
273
330
1B9
100
AcDbEntity
  8
0
  6
CONTINUOUS
 62
     7
100
AcDbVertex
100
AcDb2dVertex
 10
8.6561426337
 20
6.6812495168
 30
0.0
  0
VERTEX
  5
274
330
1B9
100
AcDbEntity
  8
0
  6
CONTINUOUS
 62
     7
100
AcDbVertex
100
AcDb2dVertex
 10
8.6339029452
 20
6.6473115746
 30
0.0
  0
VERTEX
  5
275
330
1B9
100
AcDbEntity
  8
0
  6
CONTINUOUS
 62
     7
100
AcDbVertex
100
AcDb2dVertex
 10
8.6126900819
 20
6.6126006673
 30
0.0
  0
VERTEX
  5
276
330
1B9
100
AcDbEntity
  8
0
  6
CONTINUOUS
 62
     7
100
AcDbVertex
100
AcDb2dVertex
 10
8.5925668576
 20
6.5772195785
 30
0.0
  0
VERTEX
  5
277
330
1B9
100
AcDbEntity
  8
0
  6
CONTINUOUS
 62
     7
100
AcDbVertex
100
AcDb2dVertex
 10
8.5735928598
 20
6.541273076
 30
0.0
  0
VERTEX
  5
278
330
1B9
100
AcDbEntity
  8
0
  6
CONTINUOUS
 62
     7
100
AcDbVertex
100
AcDb2dVertex
 10
8.555824273
 20
6.5048676021
 30
0.0
  0
VERTEX
  5
279
330
1B9
100
AcDbEntity
  8
0
  6
CONTINUOUS
 62
     7
100
AcDbVertex
100
AcDb2dVertex
 10
8.5393137123
 20
6.4681109579
 30
0.0
  0
VERTEX
  5
27A
330
1B9
100
AcDbEntity
  8
0
  6
CONTINUOUS
 62
     7
100
AcDbVertex
100
AcDb2dVertex
 10
8.5241100673
 20
6.4311119846
 30
0.0
  0
VERTEX
  5
27B
330
1B9
100
AcDbEntity
  8
0
  6
CONTINUOUS
 62
     7
100
AcDbVertex
100
AcDb2dVertex
 10
8.5102583583
 20
6.3939802409
 30
0.0
  0
VERTEX
  5
27C
330
1B9
100
AcDbEntity
  8
0
  6
CONTINUOUS
 62
     7
100
AcDbVertex
100
AcDb2dVertex
 10
8.4977996017
 20
6.3568256786
 30
0.0
  0
VERTEX
  5
27D
330
1B9
100
AcDbEntity
  8
0
  6
CONTINUOUS
 62
     7
100
AcDbVertex
100
AcDb2dVertex
 10
8.4867706895
 20
6.3197583171
 30
0.0
  0
VERTEX
  5
27E
330
1B9
100
AcDbEntity
  8
0
  6
CONTINUOUS
 62
     7
100
AcDbVertex
100
AcDb2dVertex
 10
8.4772042799
 20
6.2828879176
 30
0.0
  0
VERTEX
  5
27F
330
1B9
100
AcDbEntity
  8
0
  6
CONTINUOUS
 62
     7
100
AcDbVertex
100
AcDb2dVertex
 10
8.4691287
 20
6.2463236581
 30
0.0
  0
VERTEX
  5
280
330
1B9
100
AcDbEntity
  8
0
  6
CONTINUOUS
 62
     7
100
AcDbVertex
100
AcDb2dVertex
 10
8.4625678629
 20
6.2101738099
 30
0.0
  0
VERTEX
  5
281
330
1B9
100
AcDbEntity
  8
0
  6
CONTINUOUS
 62
     7
100
AcDbVertex
100
AcDb2dVertex
 10
8.4575411958
 20
6.1745454174
 30
0.0
  0
VERTEX
  5
282
330
1B9
100
AcDbEntity
  8
0
  6
CONTINUOUS
 62
     7
100
AcDbVertex
100
AcDb2dVertex
 10
8.4540635835
 20
6.1395439809
 30
0.0
  0
VERTEX
  5
283
330
1B9
100
AcDbEntity
  8
0
  6
CONTINUOUS
 62
     7
100
AcDbVertex
100
AcDb2dVertex
 10
8.4521453236
 20
6.1052731439
 30
0.0
  0
SEQEND
  5
284
330
1B9
100
AcDbEntity
  8
0
  6
CONTINUOUS
 62
     7
  0
LINE
  5
1BA
330
1F
100
AcDbEntity
  8
0
  6
CONTINUOUS
 62
     7
100
AcDbLine
 10
8.4521453236
 20
6.1052731439
 30
0.0
 11
8.396446997
 21
6.105261236
 31
0.0
  0
POLYLINE
  5
1BB
330
1F
100
AcDbEntity
  8
0
  6
CONTINUOUS
 62
     7
100
AcDb2dPolyline
 66
     1
 10
0.0
 20
0.0
 30
0.0
  0
VERTEX
  5
285
330
1BB
100
AcDbEntity
  8
0
  6
CONTINUOUS
 62
     7
100
AcDbVertex
100
AcDb2dVertex
 10
8.396446997
 20
6.105261236
 30
0.0
  0
VERTEX
  5
286
330
1BB
100
AcDbEntity
  8
0
  6
CONTINUOUS
 62
     7
100
AcDbVertex
100
AcDb2dVertex
 10
8.398314829
 20
6.1400931537
 30
0.0
  0
VERTEX
  5
287
330
1BB
100
AcDbEntity
  8
0
  6
CONTINUOUS
 62
     7
100
AcDbVertex
100
AcDb2dVertex
 10
8.4017172001
 20
6.1756508123
 30
0.0
  0
VERTEX
  5
288
330
1BB
100
AcDbEntity
  8
0
  6
CONTINUOUS
 62
     7
100
AcDbVertex
100
AcDb2dVertex
 10
8.4066446949
 20
6.2118358116
 30
0.0
  0
VERTEX
  5
289
330
1BB
100
AcDbEntity
  8
0
  6
CONTINUOUS
 62
     7
100
AcDbVertex
100
AcDb2dVertex
 10
8.4130836773
 20
6.2485480154
 30
0.0
  0
VERTEX
  5
28A
330
1BB
100
AcDbEntity
  8
0
  6
CONTINUOUS
 62
     7
100
AcDbVertex
100
AcDb2dVertex
 10
8.4210163283
 20
6.2856858285
 30
0.0
  0
VERTEX
  5
28B
330
1BB
100
AcDbEntity
  8
0
  6
CONTINUOUS
 62
     7
100
AcDbVertex
100
AcDb2dVertex
 10
8.4304206958
 20
6.323146478
 30
0.0
  0
VERTEX
  5
28C
330
1BB
100
AcDbEntity
  8
0
  6
CONTINUOUS
 62
     7
100
AcDbVertex
100
AcDb2dVertex
 10
8.4412707545
 20
6.3608262973
 30
0.0
  0
VERTEX
  5
28D
330
1BB
100
AcDbEntity
  8
0
  6
CONTINUOUS
 62
     7
100
AcDbVertex
100
AcDb2dVertex
 10
8.4535364787
 20
6.3986210137
 30
0.0
  0
VERTEX
  5
28E
330
1BB
100
AcDbEntity
  8
0
  6
CONTINUOUS
 62
     7
100
AcDbVertex
100
AcDb2dVertex
 10
8.467183925
 20
6.4364260363
 30
0.0
  0
VERTEX
  5
28F
330
1BB
100
AcDbEntity
  8
0
  6
CONTINUOUS
 62
     7
100
AcDbVertex
100
AcDb2dVertex
 10
8.4821753261
 20
6.4741367455
 30
0.0
  0
VERTEX
  5
290
330
1BB
100
AcDbEntity
  8
0
  6
CONTINUOUS
 62
     7
100
AcDbVertex
100
AcDb2dVertex
 10
8.4984691957
 20
6.5116487832
 30
0.0
  0
VERTEX
  5
291
330
1BB
100
AcDbEntity
  8
0
  6
CONTINUOUS
 62
     7
100
AcDbVertex
100
AcDb2dVertex
 10
8.5160204433
 20
6.5488583405
 30
0.0
  0
VERTEX
  5
292
330
1BB
100
AcDbEntity
  8
0
  6
CONTINUOUS
 62
     7
100
AcDbVertex
100
AcDb2dVertex
 10
8.5347804984
 20
6.5856624461
 30
0.0
  0
VERTEX
  5
293
330
1BB
100
AcDbEntity
  8
0
  6
CONTINUOUS
 62
     7
100
AcDbVertex
100
AcDb2dVertex
 10
8.5546974457
 20
6.6219592504
 30
0.0
  0
VERTEX
  5
294
330
1BB
100
AcDbEntity
  8
0
  6
CONTINUOUS
 62
     7
100
AcDbVertex
100
AcDb2dVertex
 10
8.575716168
 20
6.6576483078
 30
0.0
  0
VERTEX
  5
295
330
1BB
100
AcDbEntity
  8
0
  6
CONTINUOUS
 62
     7
100
AcDbVertex
100
AcDb2dVertex
 10
8.5977784995
 20
6.6926308544
 30
0.0
  0
VERTEX
  5
296
330
1BB
100
AcDbEntity
  8
0
  6
CONTINUOUS
 62
     7
100
AcDbVertex
100
AcDb2dVertex
 10
8.6208233862
 20
6.7268100817
 30
0.0
  0
VERTEX
  5
297
330
1BB
100
AcDbEntity
  8
0
  6
CONTINUOUS
 62
     7
100
AcDbVertex
100
AcDb2dVertex
 10
8.6447870549
 20
6.760091404
 30
0.0
  0
VERTEX
  5
298
330
1BB
100
AcDbEntity
  8
0
  6
CONTINUOUS
 62
     7
100
AcDbVertex
100
AcDb2dVertex
 10
8.6696031902
 20
6.7923827206
 30
0.0
  0
VERTEX
  5
299
330
1BB
100
AcDbEntity
  8
0
  6
CONTINUOUS
 62
     7
100
AcDbVertex
100
AcDb2dVertex
 10
8.6952031171
 20
6.8235946704
 30
0.0
  0
VERTEX
  5
29A
330
1BB
100
AcDbEntity
  8
0
  6
CONTINUOUS
 62
     7
100
AcDbVertex
100
AcDb2dVertex
 10
8.7215159921
 20
6.8536408793
 30
0.0
  0
VERTEX
  5
29B
330
1BB
100
AcDbEntity
  8
0
  6
CONTINUOUS
 62
     7
100
AcDbVertex
100
AcDb2dVertex
 10
8.7484689983
 20
6.8824381992
 30
0.0
  0
VERTEX
  5
29C
330
1BB
100
AcDbEntity
  8
0
  6
CONTINUOUS
 62
     7
100
AcDbVertex
100
AcDb2dVertex
 10
8.7759875477
 20
6.909906938
 30
0.0
  0
VERTEX
  5
29D
330
1BB
100
AcDbEntity
  8
0
  6
CONTINUOUS
 62
     7
100
AcDbVertex
100
AcDb2dVertex
 10
8.8039954871
 20
6.9359710805
 30
0.0
  0
VERTEX
  5
29E
330
1BB
100
AcDbEntity
  8
0
  6
CONTINUOUS
 62
     7
100
AcDbVertex
100
AcDb2dVertex
 10
8.8324153088
 20
6.9605584981
 30
0.0
  0
VERTEX
  5
29F
330
1BB
100
AcDbEntity
  8
0
  6
CONTINUOUS
 62
     7
100
AcDbVertex
100
AcDb2dVertex
 10
8.8611683657
 20
6.9836011493
 30
0.0
  0
VERTEX
  5
2A0
330
1BB
100
AcDbEntity
  8
0
  6
CONTINUOUS
 62
     7
100
AcDbVertex
100
AcDb2dVertex
 10
8.8901750881
 20
7.005035267
 30
0.0
  0
VERTEX
  5
2A1
330
1BB
100
AcDbEntity
  8
0
  6
CONTINUOUS
 62
     7
100
AcDbVertex
100
AcDb2dVertex
 10
8.9193552045
 20
7.0248015358
 30
0.0
  0
VERTEX
  5
2A2
330
1BB
100
AcDbEntity
  8
0
  6
CONTINUOUS
 62
     7
100
AcDbVertex
100
AcDb2dVertex
 10
8.9486279637
 20
7.0428452556
 30
0.0
  0
VERTEX
  5
2A3
330
1BB
100
AcDbEntity
  8
0
  6
CONTINUOUS
 62
     7
100
AcDbVertex
100
AcDb2dVertex
 10
8.977912358
 20
7.0591164934
 30
0.0
  0
VERTEX
  5
2A4
330
1BB
100
AcDbEntity
  8
0
  6
CONTINUOUS
 62
     7
100
AcDbVertex
100
AcDb2dVertex
 10
9.0071273473
 20
7.0735702211
 30
0.0
  0
VERTEX
  5
2A5
330
1BB
100
AcDbEntity
  8
0
  6
CONTINUOUS
 62
     7
100
AcDbVertex
100
AcDb2dVertex
 10
9.0361920839
 20
7.0861664402
 30
0.0
  0
VERTEX
  5
2A6
330
1BB
100
AcDbEntity
  8
0
  6
CONTINUOUS
 62
     7
100
AcDbVertex
100
AcDb2dVertex
 10
9.0650261357
 20
7.0968702928
 30
0.0
  0
VERTEX
  5
2A7
330
1BB
100
AcDbEntity
  8
0
  6
CONTINUOUS
 62
     7
100
AcDbVertex
100
AcDb2dVertex
 10
9.0935497092
 20
7.1056521576
 30
0.0
  0
VERTEX
  5
2A8
330
1BB
100
AcDbEntity
  8
0
  6
CONTINUOUS
 62
     7
100
AcDbVertex
100
AcDb2dVertex
 10
9.1216838697
 20
7.1124877323
 30
0.0
  0
VERTEX
  5
2A9
330
1BB
100
AcDbEntity
  8
0
  6
CONTINUOUS
 62
     7
100
AcDbVertex
100
AcDb2dVertex
 10
9.1493507606
 20
7.1173581003
 30
0.0
  0
VERTEX
  5
2AA
330
1BB
100
AcDbEntity
  8
0
  6
CONTINUOUS
 62
     7
100
AcDbVertex
100
AcDb2dVertex
 10
9.176473818
 20
7.1202497839
 30
0.0
  0
VERTEX
  5
2AB
330
1BB
100
AcDbEntity
  8
0
  6
CONTINUOUS
 62
     7
100
AcDbVertex
100
AcDb2dVertex
 10
9.2029779833
 20
7.1211547807
 30
0.0
  0
VERTEX
  5
2AC
330
1BB
100
AcDbEntity
  8
0
  6
CONTINUOUS
 62
     7
100
AcDbVertex
100
AcDb2dVertex
 10
9.2287899103
 20
7.1200705862
 30
0.0
  0
VERTEX
  5
2AD
330
1BB
100
AcDbEntity
  8
0
  6
CONTINUOUS
 62
     7
100
AcDbVertex
100
AcDb2dVertex
 10
9.2538381687
 20
7.1170002009
 30
0.0
  0
VERTEX
  5
2AE
330
1BB
100
AcDbEntity
  8
0
  6
CONTINUOUS
 62
     7
100
AcDbVertex
100
AcDb2dVertex
 10
9.2780534414
 20
7.1119521214
 30
0.0
  0
VERTEX
  5
2AF
330
1BB
100
AcDbEntity
  8
0
  6
CONTINUOUS
 62
     7
100
AcDbVertex
100
AcDb2dVertex
 10
9.3013687164
 20
7.1049403176
 30
0.0
  0
VERTEX
  5
2B0
330
1BB
100
AcDbEntity
  8
0
  6
CONTINUOUS
 62
     7
100
AcDbVertex
100
AcDb2dVertex
 10
9.3237194725
 20
7.0959841936
 30
0.0
  0
VERTEX
  5
2B1
330
1BB
100
AcDbEntity
  8
0
  6
CONTINUOUS
 62
     7
100
AcDbVertex
100
AcDb2dVertex
 10
9.3450438575
 20
7.0851085339
 30
0.0
  0
VERTEX
  5
2B2
330
1BB
100
AcDbEntity
  8
0
  6
CONTINUOUS
 62
     7
100
AcDbVertex
100
AcDb2dVertex
 10
9.3652828595
 20
7.0723434352
 30
0.0
  0
VERTEX
  5
2B3
330
1BB
100
AcDbEntity
  8
0
  6
CONTINUOUS
 62
     7
100
AcDbVertex
100
AcDb2dVertex
 10
9.3843804703
 20
7.057724223
 30
0.0
  0
VERTEX
  5
2B4
330
1BB
100
AcDbEntity
  8
0
  6
CONTINUOUS
 62
     7
100
AcDbVertex
100
AcDb2dVertex
 10
9.4022838404
 20
7.0412913535
 30
0.0
  0
VERTEX
  5
2B5
330
1BB
100
AcDbEntity
  8
0
  6
CONTINUOUS
 62
     7
100
AcDbVertex
100
AcDb2dVertex
 10
9.4189434249
 20
7.0230903022
 30
0.0
  0
VERTEX
  5
2B6
330
1BB
100
AcDbEntity
  8
0
  6
CONTINUOUS
 62
     7
100
AcDbVertex
100
AcDb2dVertex
 10
9.4343131211
 20
7.0031714374
 30
0.0
  0
VERTEX
  5
2B7
330
1BB
100
AcDbEntity
  8
0
  6
CONTINUOUS
 62
     7
100
AcDbVertex
100
AcDb2dVertex
 10
9.4483503959
 20
6.9815898816
 30
0.0
  0
VERTEX
  5
2B8
330
1BB
100
AcDbEntity
  8
0
  6
CONTINUOUS
 62
     7
100
AcDbVertex
100
AcDb2dVertex
 10
9.4610164033
 20
6.9584053582
 30
0.0
  0
VERTEX
  5
2B9
330
1BB
100
AcDbEntity
  8
0
  6
CONTINUOUS
 62
     7
100
AcDbVertex
100
AcDb2dVertex
 10
9.4722760922
 20
6.9336820268
 30
0.0
  0
VERTEX
  5
2BA
330
1BB
100
AcDbEntity
  8
0
  6
CONTINUOUS
 62
     7
100
AcDbVertex
100
AcDb2dVertex
 10
9.4820983031
 20
6.9074883052
 30
0.0
  0
VERTEX
  5
2BB
330
1BB
100
AcDbEntity
  8
0
  6
CONTINUOUS
 62
     7
100
AcDbVertex
100
AcDb2dVertex
 10
9.4904558546
 20
6.8798966804
 30
0.0
  0
VERTEX
  5
2BC
330
1BB
100
AcDbEntity
  8
0
  6
CONTINUOUS
 62
     7
100
AcDbVertex
100
AcDb2dVertex
 10
9.4973256186
 20
6.8509835078
 30
0.0
  0
VERTEX
  5
2BD
330
1BB
100
AcDbEntity
  8
0
  6
CONTINUOUS
 62
     7
100
AcDbVertex
100
AcDb2dVertex
 10
9.5026885841
 20
6.8208288
 30
0.0
  0
VERTEX
  5
2BE
330
1BB
100
AcDbEntity
  8
0
  6
CONTINUOUS
 62
     7
100
AcDbVertex
100
AcDb2dVertex
 10
9.5065299098
 20
6.7895160054
 30
0.0
  0
VERTEX
  5
2BF
330
1BB
100
AcDbEntity
  8
0
  6
CONTINUOUS
 62
     7
100
AcDbVertex
100
AcDb2dVertex
 10
9.5088389656
 20
6.7571317772
 30
0.0
  0
VERTEX
  5
2C0
330
1BB
100
AcDbEntity
  8
0
  6
CONTINUOUS
 62
     7
100
AcDbVertex
100
AcDb2dVertex
 10
9.5096093616
 20
6.7237657336
 30
0.0
  0
SEQEND
  5
2C1
330
1BB
100
AcDbEntity
  8
0
  6
CONTINUOUS
 62
     7
  0
POLYLINE
  5
1BC
330
1F
100
AcDbEntity
  8
0
  6
CONTINUOUS
 62
     7
100
AcDb2dPolyline
 66
     1
 10
0.0
 20
0.0
 30
0.0
  0
VERTEX
  5
2C2
330
1BC
100
AcDbEntity
  8
0
  6
CONTINUOUS
 62
     7
100
AcDbVertex
100
AcDb2dVertex
 10
8.9529228604
 20
5.7594519443
 30
0.0
  0
VERTEX
  5
2C3
330
1BC
100
AcDbEntity
  8
0
  6
CONTINUOUS
 62
     7
100
AcDbVertex
100
AcDb2dVertex
 10
8.9486279637
 20
5.7569908762
 30
0.0
  0
VERTEX
  5
2C4
330
1BC
100
AcDbEntity
  8
0
  6
CONTINUOUS
 62
     7
100
AcDbVertex
100
AcDb2dVertex
 10
8.9193552045
 20
5.7412369877
 30
0.0
  0
VERTEX
  5
2C5
330
1BC
100
AcDbEntity
  8
0
  6
CONTINUOUS
 62
     7
100
AcDbVertex
100
AcDb2dVertex
 10
8.8901750881
 20
5.7273126111
 30
0.0
  0
VERTEX
  5
2C6
330
1BC
100
AcDbEntity
  8
0
  6
CONTINUOUS
 62
     7
100
AcDbVertex
100
AcDb2dVertex
 10
8.8611683657
 20
5.71525628
 30
0.0
  0
VERTEX
  5
2C7
330
1BC
100
AcDbEntity
  8
0
  6
CONTINUOUS
 62
     7
100
AcDbVertex
100
AcDb2dVertex
 10
8.8324153088
 20
5.7051013584
 30
0.0
  0
VERTEX
  5
2C8
330
1BC
100
AcDbEntity
  8
0
  6
CONTINUOUS
 62
     7
100
AcDbVertex
100
AcDb2dVertex
 10
8.8039954871
 20
5.6968759483
 30
0.0
  0
VERTEX
  5
2C9
330
1BC
100
AcDbEntity
  8
0
  6
CONTINUOUS
 62
     7
100
AcDbVertex
100
AcDb2dVertex
 10
8.7759875477
 20
5.6906028123
 30
0.0
  0
VERTEX
  5
2CA
330
1BC
100
AcDbEntity
  8
0
  6
CONTINUOUS
 62
     7
100
AcDbVertex
100
AcDb2dVertex
 10
8.7484689983
 20
5.6862993103
 30
0.0
  0
VERTEX
  5
2CB
330
1BC
100
AcDbEntity
  8
0
  6
CONTINUOUS
 62
     7
100
AcDbVertex
100
AcDb2dVertex
 10
8.7215159921
 20
5.6839773515
 30
0.0
  0
VERTEX
  5
2CC
330
1BC
100
AcDbEntity
  8
0
  6
CONTINUOUS
 62
     7
100
AcDbVertex
100
AcDb2dVertex
 10
8.6952031171
 20
5.6836433616
 30
0.0
  0
VERTEX
  5
2CD
330
1BC
100
AcDbEntity
  8
0
  6
CONTINUOUS
 62
     7
100
AcDbVertex
100
AcDb2dVertex
 10
8.6696031902
 20
5.6852982649
 30
0.0
  0
VERTEX
  5
2CE
330
1BC
100
AcDbEntity
  8
0
  6
CONTINUOUS
 62
     7
100
AcDbVertex
100
AcDb2dVertex
 10
8.6447870549
 20
5.6889374817
 30
0.0
  0
VERTEX
  5
2CF
330
1BC
100
AcDbEntity
  8
0
  6
CONTINUOUS
 62
     7
100
AcDbVertex
100
AcDb2dVertex
 10
8.6208233862
 20
5.694550941
 30
0.0
  0
VERTEX
  5
2D0
330
1BC
100
AcDbEntity
  8
0
  6
CONTINUOUS
 62
     7
100
AcDbVertex
100
AcDb2dVertex
 10
8.5977784995
 20
5.7021231084
 30
0.0
  0
VERTEX
  5
2D1
330
1BC
100
AcDbEntity
  8
0
  6
CONTINUOUS
 62
     7
100
AcDbVertex
100
AcDb2dVertex
 10
8.575716168
 20
5.7116330293
 30
0.0
  0
VERTEX
  5
2D2
330
1BC
100
AcDbEntity
  8
0
  6
CONTINUOUS
 62
     7
100
AcDbVertex
100
AcDb2dVertex
 10
8.5546974457
 20
5.7230543864
 30
0.0
  0
VERTEX
  5
2D3
330
1BC
100
AcDbEntity
  8
0
  6
CONTINUOUS
 62
     7
100
AcDbVertex
100
AcDb2dVertex
 10
8.5347804984
 20
5.7363555729
 30
0.0
  0
VERTEX
  5
2D4
330
1BC
100
AcDbEntity
  8
0
  6
CONTINUOUS
 62
     7
100
AcDbVertex
100
AcDb2dVertex
 10
8.5160204433
 20
5.7514997799
 30
0.0
  0
VERTEX
  5
2D5
330
1BC
100
AcDbEntity
  8
0
  6
CONTINUOUS
 62
     7
100
AcDbVertex
100
AcDb2dVertex
 10
8.4984691957
 20
5.7684450982
 30
0.0
  0
VERTEX
  5
2D6
330
1BC
100
AcDbEntity
  8
0
  6
CONTINUOUS
 62
     7
100
AcDbVertex
100
AcDb2dVertex
 10
8.4821753261
 20
5.7871446343
 30
0.0
  0
VERTEX
  5
2D7
330
1BC
100
AcDbEntity
  8
0
  6
CONTINUOUS
 62
     7
100
AcDbVertex
100
AcDb2dVertex
 10
8.467183925
 20
5.8075466403
 30
0.0
  0
VERTEX
  5
2D8
330
1BC
100
AcDbEntity
  8
0
  6
CONTINUOUS
 62
     7
100
AcDbVertex
100
AcDb2dVertex
 10
8.4535364787
 20
5.8295946568
 30
0.0
  0
VERTEX
  5
2D9
330
1BC
100
AcDbEntity
  8
0
  6
CONTINUOUS
 62
     7
100
AcDbVertex
100
AcDb2dVertex
 10
8.4412707545
 20
5.8532276695
 30
0.0
  0
VERTEX
  5
2DA
330
1BC
100
AcDbEntity
  8
0
  6
CONTINUOUS
 62
     7
100
AcDbVertex
100
AcDb2dVertex
 10
8.4304206958
 20
5.8783802777
 30
0.0
  0
VERTEX
  5
2DB
330
1BC
100
AcDbEntity
  8
0
  6
CONTINUOUS
 62
     7
100
AcDbVertex
100
AcDb2dVertex
 10
8.4210163283
 20
5.9049828756
 30
0.0
  0
VERTEX
  5
2DC
330
1BC
100
AcDbEntity
  8
0
  6
CONTINUOUS
 62
     7
100
AcDbVertex
100
AcDb2dVertex
 10
8.4130836773
 20
5.9329618447
 30
0.0
  0
VERTEX
  5
2DD
330
1BC
100
AcDbEntity
  8
0
  6
CONTINUOUS
 62
     7
100
AcDbVertex
100
AcDb2dVertex
 10
8.4066446949
 20
5.9622397577
 30
0.0
  0
VERTEX
  5
2DE
330
1BC
100
AcDbEntity
  8
0
  6
CONTINUOUS
 62
     7
100
AcDbVertex
100
AcDb2dVertex
 10
8.4017172001
 20
5.9927355927
 30
0.0
  0
VERTEX
  5
2DF
330
1BC
100
AcDbEntity
  8
0
  6
CONTINUOUS
 62
     7
100
AcDbVertex
100
AcDb2dVertex
 10
8.398314829
 20
6.0243649572
 30
0.0
  0
VERTEX
  5
2E0
330
1BC
100
AcDbEntity
  8
0
  6
CONTINUOUS
 62
     7
100
AcDbVertex
100
AcDb2dVertex
 10
8.396446997
 20
6.0570403219
 30
0.0
  0
SEQEND
  5
2E1
330
1BC
100
AcDbEntity
  8
0
  6
CONTINUOUS
 62
     7
  0
LINE
  5
1BD
330
1F
100
AcDbEntity
  8
0
  6
CONTINUOUS
 62
     7
100
AcDbLine
 10
8.396446997
 20
6.0570403219
 30
0.0
 11
8.4521453236
 21
6.0570522298
 31
0.0
  0
SPLINE
  5
1BE
330
1F
100
AcDbEntity
  8
0
  6
CONTINUOUS
 62
     7
100
AcDbSpline
210
0.0
220
0.0
230
1.0
 70
     8
 71
     3
 72
    17
 73
    13
 74
     0
 42
0.00000001
 43
0.00000001
 40
0.0
 40
0.0
 40
0.0
 40
0.0
 40
0.0612943899558239
 40
0.1249834229570216
 40
0.2484842240768776
 40
0.343750271190691
 40
0.4416544923215041
 40
0.5763018991109354
 40
0.7147806552411031
 40
0.8520562281658545
 40
0.9929964564703198
 40
0.9999999999999999
 40
0.9999999999999999
 40
0.9999999999999999
 40
0.9999999999999999
 10
7.199835693014905
 20
6.509590630871156
 30
0.0
 10
7.197024773605699
 20
6.511185684272344
 30
0.0
 10
7.191293118071283
 20
6.51443810646014
 30
0.0
 10
7.182203957961581
 20
6.519120078297947
 30
0.0
 10
7.175191205906312
 20
6.522137633141898
 30
0.0
 10
7.171411514319376
 20
6.523115194821214
 30
0.0
 10
7.17054342627822
 20
6.522579275291298
 30
0.0
 10
7.173220194502302
 20
6.520385824450876
 30
0.0
 10
7.180202223182808
 20
6.516552168785258
 30
0.0
 10
7.191535819287397
 20
6.511419951831213
 30
0.0
 10
7.201047538092386
 20
6.507454690446535
 30
0.0
 10
7.207545532864244
 20
6.504959201749608
 30
0.0
 10
7.207853142902004
 20
6.504841067248236
 30
0.0
  0
SPLINE
  5
1BF
330
1F
100
AcDbEntity
  8
0
  6
CONTINUOUS
 62
     7
100
AcDbSpline
210
0.0
220
0.0
230
1.0
 70
     8
 71
     3
 72
    14
 73
    10
 74
     0
 42
0.00000001
 43
0.00000001
 40
0.0
 40
0.0
 40
0.0
 40
0.0
 40
0.162138784286836
 40
0.3305231592680364
 40
0.5026527845874131
 40
0.6188342164166917
 40
0.7376375148969135
 40
0.921750639824378
 40
0.9999999999999999
 40
0.9999999999999999
 40
0.9999999999999999
 40
0.9999999999999999
 10
7.297979579143656
 20
6.448588636542844
 30
0.0
 10
7.293178764735732
 20
6.451367356999188
 30
0.0
 10
7.283392208409025
 20
6.457031834304806
 30
0.0
 10
7.267143344574422
 20
6.467214145502592
 30
0.0
 10
7.251818871660292
 20
6.477016905012886
 30
0.0
 10
7.237757882941617
 20
6.486088046044299
 30
0.0
 10
7.223214772817427
 20
6.495401825666765
 30
0.0
 10
7.210054435350066
 20
6.50361589703888
 30
0.0
 10
7.202183262721037
 20
6.508218044726323
 30
0.0
 10
7.199835693014905
 20
6.509590630871156
 30
0.0
  0
SPLINE
  5
1C0
330
1F
100
AcDbEntity
  8
0
  6
CONTINUOUS
 62
     7
100
AcDbSpline
210
0.0
220
0.0
230
1.0
 70
     8
 71
     3
 72
    37
 73
    33
 74
     0
 42
0.00000001
 43
0.00000001
 40
0.0
 40
0.0
 40
0.0
 40
0.0
 40
0.0340065383562373
 40
0.068155603627708
 40
0.1028145975247286
 40
0.1376019758637017
 40
0.1723179342846975
 40
0.2089763455504228
 40
0.2457208484652371
 40
0.2823601171757992
 40
0.3296280711276978
 40
0.3768437942939339
 40
0.4146703567444059
 40
0.4524617821137772
 40
0.4905826734594316
 40
0.5286671629443721
 40
0.5612327668815735
 40
0.5937872445977824
 40
0.6231350511948357
 40
0.6524810462088777
 40
0.6808030444544906
 40
0.7091275468042068
 40
0.7375107155281919
 40
0.7659009499697812
 40
0.7953158218247046
 40
0.8247434745494591
 40
0.8566384239100759
 40
0.8885522109913125
 40
0.9251434701162788
 40
0.9617591472307244
 40
0.9984347321233735
 40
1.0
 40
1.0
 40
1.0
 40
1.0
 10
8.265981425311326
 20
6.563611922145675
 30
0.0
 10
8.274580657591791
 20
6.565130655168801
 30
0.0
 10
8.291815162929277
 20
6.568174486471361
 30
0.0
 10
8.316908474009646
 20
6.580762255870908
 30
0.0
 10
8.341485235575234
 20
6.596469733416378
 30
0.0
 10
8.365436360533067
 20
6.615322284533875
 30
0.0
 10
8.389131900000384
 20
6.63675307723313
 30
0.0
 10
8.412601001718215
 20
6.660456904847918
 30
0.0
 10
8.435549372758272
 20
6.686360638525859
 30
0.0
 10
8.4594335514032
 20
6.716457380146467
 30
0.0
 10
8.483366471616723
 20
6.751013856136729
 30
0.0
 10
8.504127033363796
 20
6.787573228923806
 30
0.0
 10
8.519269997619995
 20
6.822300034911378
 30
0.0
 10
8.529021577404901
 20
6.854593513148256
 30
0.0
 10
8.533223725964257
 20
6.886255124088581
 30
0.0
 10
8.531300983844847
 20
6.914941500161185
 30
0.0
 10
8.523434637783078
 20
6.939715055361254
 30
0.0
 10
8.511368028751567
 20
6.959787640076212
 30
0.0
 10
8.495222837760254
 20
6.976029667104943
 30
0.0
 10
8.47635988256005
 20
6.98837963144249
 30
0.0
 10
8.454743250638577
 20
6.997033660802991
 30
0.0
 10
8.431243807818749
 20
7.002029123575022
 30
0.0
 10
8.406231115593313
 20
7.003145452401419
 30
0.0
 10
8.380214882205125
 20
7.000459789741234
 30
0.0
 10
8.353931771126
 20
6.993737213633495
 30
0.0
 10
8.327399964322284
 20
6.982930176462464
 30
0.0
 10
8.301693217311687
 20
6.967980230632306
 30
0.0
 10
8.276301001403622
 20
6.948302253988525
 30
0.0
 10
8.252627554767491
 20
6.924273641017479
 30
0.0
 10
8.231797197437551
 20
6.896050388262555
 30
0.0
 10
8.219058305588577
 20
6.875696180348503
 30
0.0
 10
8.214198187349629
 20
6.86455672122776
 30
0.0
 10
8.213999253842525
 20
6.864100762841322
 30
0.0
  0
SPLINE
  5
1C1
330
1F
100
AcDbEntity
  8
0
  6
CONTINUOUS
 62
     7
100
AcDbSpline
210
0.0
220
0.0
230
1.0
 70
     8
 71
     3
 72
    12
 73
     8
 74
     0
 42
0.00000001
 43
0.00000001
 40
0.0
 40
0.0
 40
0.0
 40
0.0
 40
0.1268216327004347
 40
0.4154457059216404
 40
0.703579142022483
 40
0.8518593251780715
 40
0.9999999999999999
 40
0.9999999999999999
 40
0.9999999999999999
 40
0.9999999999999999
 10
8.178426961750834
 20
6.709839145212531
 30
0.0
 10
8.178319374591172
 20
6.704940109720346
 30
0.0
 10
8.177966937687925
 20
6.688891717856523
 30
0.0
 10
8.181062201379778
 20
6.661989839231117
 30
0.0
 10
8.187109547489438
 20
6.635175131355534
 30
0.0
 10
8.194501440752525
 20
6.614689097561329
 30
0.0
 10
8.1995391553321
 20
6.605238087950686
 30
0.0
 10
8.202056827139918
 20
6.600514807170035
 30
0.0
  0
SPLINE
  5
1C2
330
1F
100
AcDbEntity
  8
0
  6
CONTINUOUS
 62
     7
100
AcDbSpline
210
0.0
220
0.0
230
1.0
 70
     8
 71
     3
 72
    14
 73
    10
 74
     0
 42
0.00000001
 43
0.00000001
 40
0.0
 40
0.0
 40
0.0
 40
0.0
 40
0.1000624950506794
 40
0.2040342215668901
 40
0.4056480774143349
 40
0.5611689721437558
 40
0.7209966602797029
 40
0.9408072413975614
 40
1.0
 40
1.0
 40
1.0
 40
1.0
 10
8.285550829482437
 20
5.882820623763169
 30
0.0
 10
8.288577187390233
 20
5.881045911527119
 30
0.0
 10
8.294748136651368
 20
5.87742715277636
 30
0.0
 10
8.308392648979119
 20
5.868984781261972
 30
0.0
 10
8.324577624610784
 20
5.858613817595631
 30
0.0
 10
8.342328244303818
 20
5.847151458410111
 30
0.0
 10
8.359984531945525
 20
5.83596500176081
 30
0.0
 10
8.374036410615263
 20
5.827219394873386
 30
0.0
 10
8.382040065223222
 20
5.822738131271945
 30
0.0
 10
8.383738103661116
 20
5.821787395861896
 30
0.0
  0
SPLINE
  5
1C3
330
1F
100
AcDbEntity
  8
0
  6
CONTINUOUS
 62
     7
100
AcDbSpline
210
0.0
220
0.0
230
1.0
 70
     8
 71
     3
 72
    17
 73
    13
 74
     0
 42
0.00000001
 43
0.00000001
 40
0.0
 40
0.0
 40
0.0
 40
0.0
 40
0.0876810232230725
 40
0.2066373994738985
 40
0.3444411511253054
 40
0.4858452451715308
 40
0.5891745620223098
 40
0.6948021571956593
 40
0.7660970619812425
 40
0.8390008790542399
 40
0.9519821662083537
 40
1.0
 40
1.0
 40
1.0
 40
1.0
 10
8.293473247810901
 20
5.87812905885334
 30
0.0
 10
8.289975359424062
 20
5.879506381922982
 30
0.0
 10
8.281731904531123
 20
5.882752311850401
 30
0.0
 10
8.271311054939222
 20
5.887267808677289
 30
0.0
 10
8.262283189796698
 20
5.891659209114934
 30
0.0
 10
8.257429227357395
 20
5.894687050982452
 30
0.0
 10
8.256273248954926
 20
5.896186261067596
 30
0.0
 10
8.25791612725523
 20
5.896211996931807
 30
0.0
 10
8.26165885717345
 20
5.895001991954943
 30
0.0
 10
8.267674913050104
 20
5.892448090599247
 30
0.0
 10
8.275925146115243
 20
5.888301803530997
 30
0.0
 10
8.283339504259382
 20
5.884079824861971
 30
0.0
 10
8.285550829482437
 20
5.88282062376317
 30
0.0
  0
LINE
  5
1C4
330
1F
100
AcDbEntity
  8
0
  6
CONTINUOUS
 62
     7
100
AcDbLine
 10
7.8953477032
 20
6.3945397008
 30
0.0
 11
8.396446997
 21
6.105261236
 31
0.0
  0
POLYLINE
  5
1C5
330
1F
100
AcDbEntity
  8
0
  6
CONTINUOUS
 62
     7
100
AcDb2dPolyline
 66
     1
 10
0.0
 20
0.0
 30
0.0
  0
VERTEX
  5
2E2
330
1C5
100
AcDbEntity
  8
0
  6
CONTINUOUS
 62
     7
100
AcDbVertex
100
AcDb2dVertex
 10
7.8953477032
 20
6.3945397008
 30
0.0
  0
VERTEX
  5
2E3
330
1C5
100
AcDbEntity
  8
0
  6
CONTINUOUS
 62
     7
100
AcDbVertex
100
AcDb2dVertex
 10
7.8972220081
 20
6.4294580118
 30
0.0
  0
VERTEX
  5
2E4
330
1C5
100
AcDbEntity
  8
0
  6
CONTINUOUS
 62
     7
100
AcDbVertex
100
AcDb2dVertex
 10
7.9006383717
 20
6.4651053881
 30
0.0
  0
VERTEX
  5
2E5
330
1C5
100
AcDbEntity
  8
0
  6
CONTINUOUS
 62
     7
100
AcDbVertex
100
AcDb2dVertex
 10
7.9055872933
 20
6.5013826969
 30
0.0
  0
VERTEX
  5
2E6
330
1C5
100
AcDbEntity
  8
0
  6
CONTINUOUS
 62
     7
100
AcDbVertex
100
AcDb2dVertex
 10
7.9120550103
 20
6.5381890533
 30
0.0
  0
VERTEX
  5
2E7
330
1C5
100
AcDbEntity
  8
0
  6
CONTINUOUS
 62
     7
100
AcDbVertex
100
AcDb2dVertex
 10
7.9200235363
 20
6.5754221013
 30
0.0
  0
VERTEX
  5
2E8
330
1C5
100
AcDbEntity
  8
0
  6
CONTINUOUS
 62
     7
100
AcDbVertex
100
AcDb2dVertex
 10
7.9294707116
 20
6.6129782982
 30
0.0
  0
VERTEX
  5
2E9
330
1C5
100
AcDbEntity
  8
0
  6
CONTINUOUS
 62
     7
100
AcDbVertex
100
AcDb2dVertex
 10
7.940370264
 20
6.6507532028
 30
0.0
  0
VERTEX
  5
2EA
330
1C5
100
AcDbEntity
  8
0
  6
CONTINUOUS
 62
     7
100
AcDbVertex
100
AcDb2dVertex
 10
7.9526918827
 20
6.6886417655
 30
0.0
  0
VERTEX
  5
2EB
330
1C5
100
AcDbEntity
  8
0
  6
CONTINUOUS
 62
     7
100
AcDbVertex
100
AcDb2dVertex
 10
7.9664013021
 20
6.7265386206
 30
0.0
  0
VERTEX
  5
2EC
330
1C5
100
AcDbEntity
  8
0
  6
CONTINUOUS
 62
     7
100
AcDbVertex
100
AcDb2dVertex
 10
7.981460397
 20
6.7643383797
 30
0.0
  0
VERTEX
  5
2ED
330
1C5
100
AcDbEntity
  8
0
  6
CONTINUOUS
 62
     7
100
AcDbVertex
100
AcDb2dVertex
 10
7.9978272893
 20
6.8019359239
 30
0.0
  0
VERTEX
  5
2EE
330
1C5
100
AcDbEntity
  8
0
  6
CONTINUOUS
 62
     7
100
AcDbVertex
100
AcDb2dVertex
 10
8.0154564637
 20
6.8392266971
 30
0.0
  0
VERTEX
  5
2EF
330
1C5
100
AcDbEntity
  8
0
  6
CONTINUOUS
 62
     7
100
AcDbVertex
100
AcDb2dVertex
 10
8.0342988945
 20
6.8761069961
 30
0.0
  0
VERTEX
  5
2F0
330
1C5
100
AcDbEntity
  8
0
  6
CONTINUOUS
 62
     7
100
AcDbVertex
100
AcDb2dVertex
 10
8.0543021822
 20
6.9124742591
 30
0.0
  0
VERTEX
  5
2F1
330
1C5
100
AcDbEntity
  8
0
  6
CONTINUOUS
 62
     7
100
AcDbVertex
100
AcDb2dVertex
 10
8.0754106991
 20
6.9482273512
 30
0.0
  0
VERTEX
  5
2F2
330
1C5
100
AcDbEntity
  8
0
  6
CONTINUOUS
 62
     7
100
AcDbVertex
100
AcDb2dVertex
 10
8.0975657436
 20
6.9832668454
 30
0.0
  0
VERTEX
  5
2F3
330
1C5
100
AcDbEntity
  8
0
  6
CONTINUOUS
 62
     7
100
AcDbVertex
100
AcDb2dVertex
 10
8.1207057042
 20
7.0174952993
 30
0.0
  0
VERTEX
  5
2F4
330
1C5
100
AcDbEntity
  8
0
  6
CONTINUOUS
 62
     7
100
AcDbVertex
100
AcDb2dVertex
 10
8.14476623
 20
7.0508175256
 30
0.0
  0
VERTEX
  5
2F5
330
1C5
100
AcDbEntity
  8
0
  6
CONTINUOUS
 62
     7
100
AcDbVertex
100
AcDb2dVertex
 10
8.1696804104
 20
7.0831408576
 30
0.0
  0
VERTEX
  5
2F6
330
1C5
100
AcDbEntity
  8
0
  6
CONTINUOUS
 62
     7
100
AcDbVertex
100
AcDb2dVertex
 10
8.1953789606
 20
7.1143754061
 30
0.0
  0
VERTEX
  5
2F7
330
1C5
100
AcDbEntity
  8
0
  6
CONTINUOUS
 62
     7
100
AcDbVertex
100
AcDb2dVertex
 10
8.2217904147
 20
7.14443431
 30
0.0
  0
VERTEX
  5
2F8
330
1C5
100
AcDbEntity
  8
0
  6
CONTINUOUS
 62
     7
100
AcDbVertex
100
AcDb2dVertex
 10
8.2488413242
 20
7.1732339774
 30
0.0
  0
VERTEX
  5
2F9
330
1C5
100
AcDbEntity
  8
0
  6
CONTINUOUS
 62
     7
100
AcDbVertex
100
AcDb2dVertex
 10
8.2764564623
 20
7.2006943183
 30
0.0
  0
VERTEX
  5
2FA
330
1C5
100
AcDbEntity
  8
0
  6
CONTINUOUS
 62
     7
100
AcDbVertex
100
AcDb2dVertex
 10
8.3045590331
 20
7.2267389673
 30
0.0
  0
VERTEX
  5
2FB
330
1C5
100
AcDbEntity
  8
0
  6
CONTINUOUS
 62
     7
100
AcDbVertex
100
AcDb2dVertex
 10
8.3330708851
 20
7.251295496
 30
0.0
  0
VERTEX
  5
2FC
330
1C5
100
AcDbEntity
  8
0
  6
CONTINUOUS
 62
     7
100
AcDbVertex
100
AcDb2dVertex
 10
8.3619127289
 20
7.2742956144
 30
0.0
  0
VERTEX
  5
2FD
330
1C5
100
AcDbEntity
  8
0
  6
CONTINUOUS
 62
     7
100
AcDbVertex
100
AcDb2dVertex
 10
8.3910043572
 20
7.2956753605
 30
0.0
  0
VERTEX
  5
2FE
330
1C5
100
AcDbEntity
  8
0
  6
CONTINUOUS
 62
     7
100
AcDbVertex
100
AcDb2dVertex
 10
8.420264868
 20
7.3153752787
 30
0.0
  0
VERTEX
  5
2FF
330
1C5
100
AcDbEntity
  8
0
  6
CONTINUOUS
 62
     7
100
AcDbVertex
100
AcDb2dVertex
 10
8.4496128898
 20
7.3333405848
 30
0.0
  0
VERTEX
  5
300
330
1C5
100
AcDbEntity
  8
0
  6
CONTINUOUS
 62
     7
100
AcDbVertex
100
AcDb2dVertex
 10
8.4789668077
 20
7.3495213186
 30
0.0
  0
VERTEX
  5
301
330
1C5
100
AcDbEntity
  8
0
  6
CONTINUOUS
 62
     7
100
AcDbVertex
100
AcDb2dVertex
 10
8.5082449904
 20
7.3638724825
 30
0.0
  0
VERTEX
  5
302
330
1C5
100
AcDbEntity
  8
0
  6
CONTINUOUS
 62
     7
100
AcDbVertex
100
AcDb2dVertex
 10
8.5373660172
 20
7.3763541668
 30
0.0
  0
VERTEX
  5
303
330
1C5
100
AcDbEntity
  8
0
  6
CONTINUOUS
 62
     7
100
AcDbVertex
100
AcDb2dVertex
 10
8.5662489044
 20
7.3869316607
 30
0.0
  0
VERTEX
  5
304
330
1C5
100
AcDbEntity
  8
0
  6
CONTINUOUS
 62
     7
100
AcDbVertex
100
AcDb2dVertex
 10
8.5948133307
 20
7.395575549
 30
0.0
  0
VERTEX
  5
305
330
1C5
100
AcDbEntity
  8
0
  6
CONTINUOUS
 62
     7
100
AcDbVertex
100
AcDb2dVertex
 10
8.6229798602
 20
7.4022617936
 30
0.0
  0
VERTEX
  5
306
330
1C5
100
AcDbEntity
  8
0
  6
CONTINUOUS
 62
     7
100
AcDbVertex
100
AcDb2dVertex
 10
8.6506701637
 20
7.4069718005
 30
0.0
  0
VERTEX
  5
307
330
1C5
100
AcDbEntity
  8
0
  6
CONTINUOUS
 62
     7
100
AcDbVertex
100
AcDb2dVertex
 10
8.6778072362
 20
7.4096924715
 30
0.0
  0
VERTEX
  5
308
330
1C5
100
AcDbEntity
  8
0
  6
CONTINUOUS
 62
     7
100
AcDbVertex
100
AcDb2dVertex
 10
8.7043156114
 20
7.4104162405
 30
0.0
  0
VERTEX
  5
309
330
1C5
100
AcDbEntity
  8
0
  6
CONTINUOUS
 62
     7
100
AcDbVertex
100
AcDb2dVertex
 10
8.7301215713
 20
7.4091410948
 30
0.0
  0
SEQEND
  5
30A
330
1C5
100
AcDbEntity
  8
0
  6
CONTINUOUS
 62
     7
  0
LINE
  5
1C6
330
1F
100
AcDbEntity
  8
0
  6
CONTINUOUS
 62
     7
100
AcDbLine
 10
8.1733445782
 20
7.7305616112
 30
0.0
 11
8.7301215713
 21
7.4091410948
 31
0.0
  0
POLYLINE
  5
1C7
330
1F
100
AcDbEntity
  8
0
  6
CONTINUOUS
 62
     7
100
AcDb2dPolyline
 66
     1
 10
0.0
 20
0.0
 30
0.0
  0
VERTEX
  5
30B
330
1C7
100
AcDbEntity
  8
0
  6
CONTINUOUS
 62
     7
100
AcDbVertex
100
AcDb2dVertex
 10
8.1733445782
 20
7.7305616112
 30
0.0
  0
VERTEX
  5
30C
330
1C7
100
AcDbEntity
  8
0
  6
CONTINUOUS
 62
     7
100
AcDbVertex
100
AcDb2dVertex
 10
8.1475386184
 20
7.7318367569
 30
0.0
  0
VERTEX
  5
30D
330
1C7
100
AcDbEntity
  8
0
  6
CONTINUOUS
 62
     7
100
AcDbVertex
100
AcDb2dVertex
 10
8.1210302432
 20
7.7311129879
 30
0.0
  0
VERTEX
  5
30E
330
1C7
100
AcDbEntity
  8
0
  6
CONTINUOUS
 62
     7
100
AcDbVertex
100
AcDb2dVertex
 10
8.0938931706
 20
7.728392317
 30
0.0
  0
VERTEX
  5
30F
330
1C7
100
AcDbEntity
  8
0
  6
CONTINUOUS
 62
     7
100
AcDbVertex
100
AcDb2dVertex
 10
8.0662028671
 20
7.7236823101
 30
0.0
  0
VERTEX
  5
310
330
1C7
100
AcDbEntity
  8
0
  6
CONTINUOUS
 62
     7
100
AcDbVertex
100
AcDb2dVertex
 10
8.0380363376
 20
7.7169960655
 30
0.0
  0
VERTEX
  5
311
330
1C7
100
AcDbEntity
  8
0
  6
CONTINUOUS
 62
     7
100
AcDbVertex
100
AcDb2dVertex
 10
8.0094719114
 20
7.7083521772
 30
0.0
  0
VERTEX
  5
312
330
1C7
100
AcDbEntity
  8
0
  6
CONTINUOUS
 62
     7
100
AcDbVertex
100
AcDb2dVertex
 10
7.9805890241
 20
7.6977746832
 30
0.0
  0
VERTEX
  5
313
330
1C7
100
AcDbEntity
  8
0
  6
CONTINUOUS
 62
     7
100
AcDbVertex
100
AcDb2dVertex
 10
7.9514679974
 20
7.6852929989
 30
0.0
  0
VERTEX
  5
314
330
1C7
100
AcDbEntity
  8
0
  6
CONTINUOUS
 62
     7
100
AcDbVertex
100
AcDb2dVertex
 10
7.9221898147
 20
7.6709418351
 30
0.0
  0
VERTEX
  5
315
330
1C7
100
AcDbEntity
  8
0
  6
CONTINUOUS
 62
     7
100
AcDbVertex
100
AcDb2dVertex
 10
7.8928358967
 20
7.6547611013
 30
0.0
  0
VERTEX
  5
316
330
1C7
100
AcDbEntity
  8
0
  6
CONTINUOUS
 62
     7
100
AcDbVertex
100
AcDb2dVertex
 10
7.8634878749
 20
7.6367957951
 30
0.0
  0
VERTEX
  5
317
330
1C7
100
AcDbEntity
  8
0
  6
CONTINUOUS
 62
     7
100
AcDbVertex
100
AcDb2dVertex
 10
7.8342273641
 20
7.6170958769
 30
0.0
  0
VERTEX
  5
318
330
1C7
100
AcDbEntity
  8
0
  6
CONTINUOUS
 62
     7
100
AcDbVertex
100
AcDb2dVertex
 10
7.8051357359
 20
7.5957161308
 30
0.0
  0
VERTEX
  5
319
330
1C7
100
AcDbEntity
  8
0
  6
CONTINUOUS
 62
     7
100
AcDbVertex
100
AcDb2dVertex
 10
7.7762938921
 20
7.5727160125
 30
0.0
  0
VERTEX
  5
31A
330
1C7
100
AcDbEntity
  8
0
  6
CONTINUOUS
 62
     7
100
AcDbVertex
100
AcDb2dVertex
 10
7.74778204
 20
7.5481594838
 30
0.0
  0
VERTEX
  5
31B
330
1C7
100
AcDbEntity
  8
0
  6
CONTINUOUS
 62
     7
100
AcDbVertex
100
AcDb2dVertex
 10
7.7196794692
 20
7.5221148347
 30
0.0
  0
VERTEX
  5
31C
330
1C7
100
AcDbEntity
  8
0
  6
CONTINUOUS
 62
     7
100
AcDbVertex
100
AcDb2dVertex
 10
7.6920643312
 20
7.4946544938
 30
0.0
  0
VERTEX
  5
31D
330
1C7
100
AcDbEntity
  8
0
  6
CONTINUOUS
 62
     7
100
AcDbVertex
100
AcDb2dVertex
 10
7.6650134217
 20
7.4658548265
 30
0.0
  0
VERTEX
  5
31E
330
1C7
100
AcDbEntity
  8
0
  6
CONTINUOUS
 62
     7
100
AcDbVertex
100
AcDb2dVertex
 10
7.6386019675
 20
7.4357959226
 30
0.0
  0
VERTEX
  5
31F
330
1C7
100
AcDbEntity
  8
0
  6
CONTINUOUS
 62
     7
100
AcDbVertex
100
AcDb2dVertex
 10
7.6129034173
 20
7.4045613741
 30
0.0
  0
VERTEX
  5
320
330
1C7
100
AcDbEntity
  8
0
  6
CONTINUOUS
 62
     7
100
AcDbVertex
100
AcDb2dVertex
 10
7.5879892369
 20
7.3722380421
 30
0.0
  0
VERTEX
  5
321
330
1C7
100
AcDbEntity
  8
0
  6
CONTINUOUS
 62
     7
100
AcDbVertex
100
AcDb2dVertex
 10
7.5639287111
 20
7.3389158157
 30
0.0
  0
VERTEX
  5
322
330
1C7
100
AcDbEntity
  8
0
  6
CONTINUOUS
 62
     7
100
AcDbVertex
100
AcDb2dVertex
 10
7.5407887506
 20
7.3046873619
 30
0.0
  0
VERTEX
  5
323
330
1C7
100
AcDbEntity
  8
0
  6
CONTINUOUS
 62
     7
100
AcDbVertex
100
AcDb2dVertex
 10
7.518633706
 20
7.2696478677
 30
0.0
  0
VERTEX
  5
324
330
1C7
100
AcDbEntity
  8
0
  6
CONTINUOUS
 62
     7
100
AcDbVertex
100
AcDb2dVertex
 10
7.4975251892
 20
7.2338947755
 30
0.0
  0
VERTEX
  5
325
330
1C7
100
AcDbEntity
  8
0
  6
CONTINUOUS
 62
     7
100
AcDbVertex
100
AcDb2dVertex
 10
7.4775219014
 20
7.1975275125
 30
0.0
  0
VERTEX
  5
326
330
1C7
100
AcDbEntity
  8
0
  6
CONTINUOUS
 62
     7
100
AcDbVertex
100
AcDb2dVertex
 10
7.4586794706
 20
7.1606472136
 30
0.0
  0
VERTEX
  5
327
330
1C7
100
AcDbEntity
  8
0
  6
CONTINUOUS
 62
     7
100
AcDbVertex
100
AcDb2dVertex
 10
7.4410502963
 20
7.1233564404
 30
0.0
  0
VERTEX
  5
328
330
1C7
100
AcDbEntity
  8
0
  6
CONTINUOUS
 62
     7
100
AcDbVertex
100
AcDb2dVertex
 10
7.424683404
 20
7.0857588962
 30
0.0
  0
VERTEX
  5
329
330
1C7
100
AcDbEntity
  8
0
  6
CONTINUOUS
 62
     7
100
AcDbVertex
100
AcDb2dVertex
 10
7.409624309
 20
7.0479591371
 30
0.0
  0
VERTEX
  5
32A
330
1C7
100
AcDbEntity
  8
0
  6
CONTINUOUS
 62
     7
100
AcDbVertex
100
AcDb2dVertex
 10
7.3959148897
 20
7.0100622819
 30
0.0
  0
VERTEX
  5
32B
330
1C7
100
AcDbEntity
  8
0
  6
CONTINUOUS
 62
     7
100
AcDbVertex
100
AcDb2dVertex
 10
7.383593271
 20
6.9721737193
 30
0.0
  0
VERTEX
  5
32C
330
1C7
100
AcDbEntity
  8
0
  6
CONTINUOUS
 62
     7
100
AcDbVertex
100
AcDb2dVertex
 10
7.3726937185
 20
6.9343988147
 30
0.0
  0
VERTEX
  5
32D
330
1C7
100
AcDbEntity
  8
0
  6
CONTINUOUS
 62
     7
100
AcDbVertex
100
AcDb2dVertex
 10
7.3632465433
 20
6.8968426178
 30
0.0
  0
VERTEX
  5
32E
330
1C7
100
AcDbEntity
  8
0
  6
CONTINUOUS
 62
     7
100
AcDbVertex
100
AcDb2dVertex
 10
7.3552780172
 20
6.8596095698
 30
0.0
  0
VERTEX
  5
32F
330
1C7
100
AcDbEntity
  8
0
  6
CONTINUOUS
 62
     7
100
AcDbVertex
100
AcDb2dVertex
 10
7.3488103002
 20
6.8228032134
 30
0.0
  0
VERTEX
  5
330
330
1C7
100
AcDbEntity
  8
0
  6
CONTINUOUS
 62
     7
100
AcDbVertex
100
AcDb2dVertex
 10
7.3438613786
 20
6.7865259046
 30
0.0
  0
VERTEX
  5
331
330
1C7
100
AcDbEntity
  8
0
  6
CONTINUOUS
 62
     7
100
AcDbVertex
100
AcDb2dVertex
 10
7.340445015
 20
6.7508785282
 30
0.0
  0
VERTEX
  5
332
330
1C7
100
AcDbEntity
  8
0
  6
CONTINUOUS
 62
     7
100
AcDbVertex
100
AcDb2dVertex
 10
7.3385707102
 20
6.7159602173
 30
0.0
  0
SEQEND
  5
333
330
1C7
100
AcDbEntity
  8
0
  6
CONTINUOUS
 62
     7
  0
LINE
  5
1C8
330
1F
100
AcDbEntity
  8
0
  6
CONTINUOUS
 62
     7
100
AcDbLine
 10
6.8374714164
 20
7.0052386821
 30
0.0
 11
7.3385707102
 21
6.7159602173
 31
0.0
  0
ARC
  5
1C9
330
1F
100
AcDbEntity
  8
0
  6
CONTINUOUS
 62
     7
100
AcDbCircle
 10
7.2137818603
 20
6.9312797076
 30
0.0
 40
0.3771896047236364
100
AcDbArc
 50
176.0873019173
 51
235.5089721276
  0
POLYLINE
  5
1CA
330
1F
100
AcDbEntity
  8
0
  6
CONTINUOUS
 62
     7
100
AcDb2dPolyline
 66
     1
 10
0.0
 20
0.0
 30
0.0
  0
VERTEX
  5
334
330
1CA
100
AcDbEntity
  8
0
  6
CONTINUOUS
 62
     7
100
AcDbVertex
100
AcDb2dVertex
 10
7.7875255803
 20
7.9842509013
 30
0.0
  0
VERTEX
  5
335
330
1CA
100
AcDbEntity
  8
0
  6
CONTINUOUS
 62
     7
100
AcDbVertex
100
AcDb2dVertex
 10
7.7860682769
 20
7.98508598
 30
0.0
  0
VERTEX
  5
336
330
1CA
100
AcDbEntity
  8
0
  6
CONTINUOUS
 62
     7
100
AcDbVertex
100
AcDb2dVertex
 10
7.7647438919
 20
7.9959616397
 30
0.0
  0
VERTEX
  5
337
330
1CA
100
AcDbEntity
  8
0
  6
CONTINUOUS
 62
     7
100
AcDbVertex
100
AcDb2dVertex
 10
7.7423931358
 20
8.0049177637
 30
0.0
  0
VERTEX
  5
338
330
1CA
100
AcDbEntity
  8
0
  6
CONTINUOUS
 62
     7
100
AcDbVertex
100
AcDb2dVertex
 10
7.7190778608
 20
8.0119295675
 30
0.0
  0
VERTEX
  5
339
330
1CA
100
AcDbEntity
  8
0
  6
CONTINUOUS
 62
     7
100
AcDbVertex
100
AcDb2dVertex
 10
7.6948625881
 20
8.016977647
 30
0.0
  0
VERTEX
  5
33A
330
1CA
100
AcDbEntity
  8
0
  6
CONTINUOUS
 62
     7
100
AcDbVertex
100
AcDb2dVertex
 10
7.6698143297
 20
8.0200480323
 30
0.0
  0
VERTEX
  5
33B
330
1CA
100
AcDbEntity
  8
0
  6
CONTINUOUS
 62
     7
100
AcDbVertex
100
AcDb2dVertex
 10
7.6440024027
 20
8.0211322268
 30
0.0
  0
VERTEX
  5
33C
330
1CA
100
AcDbEntity
  8
0
  6
CONTINUOUS
 62
     7
100
AcDbVertex
100
AcDb2dVertex
 10
7.6174982374
 20
8.02022723
 30
0.0
  0
VERTEX
  5
33D
330
1CA
100
AcDbEntity
  8
0
  6
CONTINUOUS
 62
     7
100
AcDbVertex
100
AcDb2dVertex
 10
7.59037518
 20
8.0173355464
 30
0.0
  0
VERTEX
  5
33E
330
1CA
100
AcDbEntity
  8
0
  6
CONTINUOUS
 62
     7
100
AcDbVertex
100
AcDb2dVertex
 10
7.5627082891
 20
8.0124651784
 30
0.0
  0
VERTEX
  5
33F
330
1CA
100
AcDbEntity
  8
0
  6
CONTINUOUS
 62
     7
100
AcDbVertex
100
AcDb2dVertex
 10
7.5345741286
 20
8.0056296037
 30
0.0
  0
VERTEX
  5
340
330
1CA
100
AcDbEntity
  8
0
  6
CONTINUOUS
 62
     7
100
AcDbVertex
100
AcDb2dVertex
 10
7.5060505552
 20
7.9968477389
 30
0.0
  0
VERTEX
  5
341
330
1CA
100
AcDbEntity
  8
0
  6
CONTINUOUS
 62
     7
100
AcDbVertex
100
AcDb2dVertex
 10
7.4772165033
 20
7.9861438863
 30
0.0
  0
VERTEX
  5
342
330
1CA
100
AcDbEntity
  8
0
  6
CONTINUOUS
 62
     7
100
AcDbVertex
100
AcDb2dVertex
 10
7.4481517667
 20
7.9735476672
 30
0.0
  0
VERTEX
  5
343
330
1CA
100
AcDbEntity
  8
0
  6
CONTINUOUS
 62
     7
100
AcDbVertex
100
AcDb2dVertex
 10
7.4189367774
 20
7.9590939395
 30
0.0
  0
VERTEX
  5
344
330
1CA
100
AcDbEntity
  8
0
  6
CONTINUOUS
 62
     7
100
AcDbVertex
100
AcDb2dVertex
 10
7.3896523832
 20
7.9428227017
 30
0.0
  0
VERTEX
  5
345
330
1CA
100
AcDbEntity
  8
0
  6
CONTINUOUS
 62
     7
100
AcDbVertex
100
AcDb2dVertex
 10
7.360379624
 20
7.9247789819
 30
0.0
  0
VERTEX
  5
346
330
1CA
100
AcDbEntity
  8
0
  6
CONTINUOUS
 62
     7
100
AcDbVertex
100
AcDb2dVertex
 10
7.3311995075
 20
7.9050127131
 30
0.0
  0
VERTEX
  5
347
330
1CA
100
AcDbEntity
  8
0
  6
CONTINUOUS
 62
     7
100
AcDbVertex
100
AcDb2dVertex
 10
7.3021927851
 20
7.8835785954
 30
0.0
  0
VERTEX
  5
348
330
1CA
100
AcDbEntity
  8
0
  6
CONTINUOUS
 62
     7
100
AcDbVertex
100
AcDb2dVertex
 10
7.2734397283
 20
7.8605359443
 30
0.0
  0
VERTEX
  5
349
330
1CA
100
AcDbEntity
  8
0
  6
CONTINUOUS
 62
     7
100
AcDbVertex
100
AcDb2dVertex
 10
7.2450199065
 20
7.8359485266
 30
0.0
  0
VERTEX
  5
34A
330
1CA
100
AcDbEntity
  8
0
  6
CONTINUOUS
 62
     7
100
AcDbVertex
100
AcDb2dVertex
 10
7.2170119672
 20
7.8098843841
 30
0.0
  0
VERTEX
  5
34B
330
1CA
100
AcDbEntity
  8
0
  6
CONTINUOUS
 62
     7
100
AcDbVertex
100
AcDb2dVertex
 10
7.1894934178
 20
7.7824156453
 30
0.0
  0
VERTEX
  5
34C
330
1CA
100
AcDbEntity
  8
0
  6
CONTINUOUS
 62
     7
100
AcDbVertex
100
AcDb2dVertex
 10
7.1625404115
 20
7.7536183254
 30
0.0
  0
VERTEX
  5
34D
330
1CA
100
AcDbEntity
  8
0
  6
CONTINUOUS
 62
     7
100
AcDbVertex
100
AcDb2dVertex
 10
7.1362275365
 20
7.7235721165
 30
0.0
  0
VERTEX
  5
34E
330
1CA
100
AcDbEntity
  8
0
  6
CONTINUOUS
 62
     7
100
AcDbVertex
100
AcDb2dVertex
 10
7.1106276096
 20
7.6923601667
 30
0.0
  0
VERTEX
  5
34F
330
1CA
100
AcDbEntity
  8
0
  6
CONTINUOUS
 62
     7
100
AcDbVertex
100
AcDb2dVertex
 10
7.0858114744
 20
7.6600688501
 30
0.0
  0
VERTEX
  5
350
330
1CA
100
AcDbEntity
  8
0
  6
CONTINUOUS
 62
     7
100
AcDbVertex
100
AcDb2dVertex
 10
7.0618478056
 20
7.6267875278
 30
0.0
  0
VERTEX
  5
351
330
1CA
100
AcDbEntity
  8
0
  6
CONTINUOUS
 62
     7
100
AcDbVertex
100
AcDb2dVertex
 10
7.038802919
 20
7.5926083005
 30
0.0
  0
VERTEX
  5
352
330
1CA
100
AcDbEntity
  8
0
  6
CONTINUOUS
 62
     7
100
AcDbVertex
100
AcDb2dVertex
 10
7.0167405874
 20
7.5576257539
 30
0.0
  0
VERTEX
  5
353
330
1CA
100
AcDbEntity
  8
0
  6
CONTINUOUS
 62
     7
100
AcDbVertex
100
AcDb2dVertex
 10
6.9957218651
 20
7.5219366965
 30
0.0
  0
VERTEX
  5
354
330
1CA
100
AcDbEntity
  8
0
  6
CONTINUOUS
 62
     7
100
AcDbVertex
100
AcDb2dVertex
 10
6.9758049178
 20
7.4856398922
 30
0.0
  0
VERTEX
  5
355
330
1CA
100
AcDbEntity
  8
0
  6
CONTINUOUS
 62
     7
100
AcDbVertex
100
AcDb2dVertex
 10
6.9570448627
 20
7.4488357866
 30
0.0
  0
VERTEX
  5
356
330
1CA
100
AcDbEntity
  8
0
  6
CONTINUOUS
 62
     7
100
AcDbVertex
100
AcDb2dVertex
 10
6.9394936152
 20
7.4116262293
 30
0.0
  0
VERTEX
  5
357
330
1CA
100
AcDbEntity
  8
0
  6
CONTINUOUS
 62
     7
100
AcDbVertex
100
AcDb2dVertex
 10
6.9231997455
 20
7.3741141916
 30
0.0
  0
VERTEX
  5
358
330
1CA
100
AcDbEntity
  8
0
  6
CONTINUOUS
 62
     7
100
AcDbVertex
100
AcDb2dVertex
 10
6.9082083444
 20
7.3364034824
 30
0.0
  0
VERTEX
  5
359
330
1CA
100
AcDbEntity
  8
0
  6
CONTINUOUS
 62
     7
100
AcDbVertex
100
AcDb2dVertex
 10
6.8945608982
 20
7.2985984598
 30
0.0
  0
VERTEX
  5
35A
330
1CA
100
AcDbEntity
  8
0
  6
CONTINUOUS
 62
     7
100
AcDbVertex
100
AcDb2dVertex
 10
6.882295174
 20
7.2608037434
 30
0.0
  0
VERTEX
  5
35B
330
1CA
100
AcDbEntity
  8
0
  6
CONTINUOUS
 62
     7
100
AcDbVertex
100
AcDb2dVertex
 10
6.8714451152
 20
7.2231239241
 30
0.0
  0
VERTEX
  5
35C
330
1CA
100
AcDbEntity
  8
0
  6
CONTINUOUS
 62
     7
100
AcDbVertex
100
AcDb2dVertex
 10
6.8620407478
 20
7.1856632746
 30
0.0
  0
VERTEX
  5
35D
330
1CA
100
AcDbEntity
  8
0
  6
CONTINUOUS
 62
     7
100
AcDbVertex
100
AcDb2dVertex
 10
6.8541080967
 20
7.1485254615
 30
0.0
  0
VERTEX
  5
35E
330
1CA
100
AcDbEntity
  8
0
  6
CONTINUOUS
 62
     7
100
AcDbVertex
100
AcDb2dVertex
 10
6.8476691143
 20
7.1118132577
 30
0.0
  0
VERTEX
  5
35F
330
1CA
100
AcDbEntity
  8
0
  6
CONTINUOUS
 62
     7
100
AcDbVertex
100
AcDb2dVertex
 10
6.8427416195
 20
7.0756282584
 30
0.0
  0
VERTEX
  5
360
330
1CA
100
AcDbEntity
  8
0
  6
CONTINUOUS
 62
     7
100
AcDbVertex
100
AcDb2dVertex
 10
6.8393392484
 20
7.0400705998
 30
0.0
  0
VERTEX
  5
361
330
1CA
100
AcDbEntity
  8
0
  6
CONTINUOUS
 62
     7
100
AcDbVertex
100
AcDb2dVertex
 10
6.8374714164
 20
7.0052386821
 30
0.0
  0
SEQEND
  5
362
330
1CA
100
AcDbEntity
  8
0
  6
CONTINUOUS
 62
     7
  0
LINE
  5
1CB
330
1F
100
AcDbEntity
  8
0
  6
CONTINUOUS
 62
     7
100
AcDbLine
 10
6.8374714164
 20
6.957017768
 30
0.0
 11
8.396446997
 21
6.0570403219
 31
0.0
  0
SPLINE
  5
1CC
330
1F
100
AcDbEntity
  8
0
  6
CONTINUOUS
 62
     7
100
AcDbSpline
210
0.0
220
0.0
230
1.0
 70
     8
 71
     3
 72
    11
 73
     7
 74
     0
 42
0.00000001
 43
0.00000001
 40
0.0
 40
0.0
 40
0.0
 40
0.0
 40
0.2768242735357639
 40
0.5548087624793847
 40
0.8369442361496549
 40
1.0
 40
1.0
 40
1.0
 40
1.0
 10
7.116341690672386
 20
7.227284814278021
 30
0.0
 10
7.111880571638692
 20
7.236338153579762
 30
0.0
 10
7.10293963629822
 20
7.254482776195943
 30
0.0
 10
7.09600155162989
 20
7.2856372580066
 30
0.0
 10
7.09242198225558
 20
7.313090853892526
 30
0.0
 10
7.092582295789065
 20
7.33028387282578
 30
0.0
 10
7.092641012231471
 20
7.336580988758852
 30
0.0
  0
SPLINE
  5
1CD
330
1F
100
AcDbEntity
  8
0
  6
CONTINUOUS
 62
     7
100
AcDbSpline
210
0.0
220
0.0
230
1.0
 70
     8
 71
     3
 72
    37
 73
    33
 74
     0
 42
0.00000001
 43
0.00000001
 40
0.0
 40
0.0
 40
0.0
 40
0.0
 40
0.0374421544847362
 40
0.0847037957306764
 40
0.1225671451451734
 40
0.1603953233071714
 40
0.1985532878566194
 40
0.2366748151439354
 40
0.2692720896751026
 40
0.3018582271648412
 40
0.3312345749941811
 40
0.360609109478715
 40
0.3889586513408524
 40
0.4173106997423761
 40
0.4457214715721982
 40
0.4741393159911527
 40
0.5035827943004463
 40
0.5330390659091803
 40
0.5649650336409815
 40
0.5969098574134001
 40
0.6335367021492667
 40
0.6701879886215154
 40
0.7068992411332827
 40
0.7437434109413655
 40
0.780494497003445
 40
0.8178284570999654
 40
0.855252987592289
 40
0.8925684898427599
 40
0.9280793559098874
 40
0.9635298564334401
 40
0.9817735104214138
 40
1.0
 40
1.0
 40
1.0
 40
1.0
 10
7.129127215393103
 20
7.491519841333739
 30
0.0
 10
7.134645601101403
 20
7.502087033425121
 30
0.0
 10
7.147129610695175
 20
7.525992743250663
 30
0.0
 10
7.171729035942705
 20
7.556757725186166
 30
0.0
 10
7.200455127999972
 20
7.583633836059179
 30
0.0
 10
7.230539043576452
 20
7.604192016044161
 30
0.0
 10
7.263451144304608
 20
7.619279099824037
 30
0.0
 10
7.296307940495726
 20
7.627887838485599
 30
0.0
 10
7.327406550619576
 20
7.630167365895168
 30
0.0
 10
7.354768875930457
 20
7.627478120593875
 30
0.0
 10
7.379056923396007
 20
7.620378533670372
 30
0.0
 10
7.399656690776172
 20
7.609947153692691
 30
0.0
 10
7.416747892770823
 20
7.596255626243247
 30
0.0
 10
7.430194313667038
 20
7.579922695101263
 30
0.0
 10
7.439733369902217
 20
7.561092727159588
 30
0.0
 10
7.445496279366965
 20
7.540061344267405
 30
0.0
 10
7.447215529901961
 20
7.517173393572281
 30
0.0
 10
7.445093109897623
 20
7.492274944599144
 30
0.0
 10
7.439016732717544
 20
7.465993324880095
 30
0.0
 10
7.428877997486274
 20
7.437506925354438
 30
0.0
 10
7.414854535756237
 20
7.407919340323906
 30
0.0
 10
7.397311834673614
 20
7.377752706762771
 30
0.0
 10
7.377539312160281
 20
7.348583597872529
 30
0.0
 10
7.356093112998528
 20
7.32069922681043
 30
0.0
 10
7.333252094600824
 20
7.29417679686424
 30
0.0
 10
7.309364617554922
 20
7.269192887964047
 30
0.0
 10
7.284500482055671
 20
7.24611465356182
 30
0.0
 10
7.259243732268927
 20
7.225868300351577
 30
0.0
 10
7.233760929016687
 20
7.208772447287805
 30
0.0
 10
7.211996757785279
 20
7.198106283187257
 30
0.0
 10
7.194071613125802
 20
7.192223057868836
 30
0.0
 10
7.184866619516567
 20
7.190995446203202
 30
0.0
 10
7.180266288843793
 20
7.190381929253661
 30
0.0
  0
LINE
  5
1CE
330
1F
100
AcDbEntity
  8
0
  6
CONTINUOUS
 62
     7
100
AcDbLine
 10
9.2590597147
 20
6.5228739925
 30
0.0
 11
9.2590597147
 21
6.5710949066
 31
0.0
  0
LINE
  5
1CF
330
1F
100
AcDbEntity
  8
0
  6
CONTINUOUS
 62
     7
100
AcDbLine
 10
9.2590597147
 20
6.5710949066
 30
0.0
 11
9.1744214119
 21
6.5222342544
 31
0.0
  0
POLYLINE
  5
1D0
330
1F
100
AcDbEntity
  8
0
  6
CONTINUOUS
 62
     7
100
AcDb2dPolyline
 66
     1
 10
0.0
 20
0.0
 30
0.0
  0
VERTEX
  5
363
330
1D0
100
AcDbEntity
  8
0
  6
CONTINUOUS
 62
     7
100
AcDbVertex
100
AcDb2dVertex
 10
8.7869210244
 20
6.2985350423
 30
0.0
  0
VERTEX
  5
364
330
1D0
100
AcDbEntity
  8
0
  6
CONTINUOUS
 62
     7
100
AcDbVertex
100
AcDb2dVertex
 10
8.7896379682
 20
6.3204382738
 30
0.0
  0
VERTEX
  5
365
330
1D0
100
AcDbEntity
  8
0
  6
CONTINUOUS
 62
     7
100
AcDbVertex
100
AcDb2dVertex
 10
8.7939519692
 20
6.3428919003
 30
0.0
  0
VERTEX
  5
366
330
1D0
100
AcDbEntity
  8
0
  6
CONTINUOUS
 62
     7
100
AcDbVertex
100
AcDb2dVertex
 10
8.7998269617
 20
6.365708207
 30
0.0
  0
VERTEX
  5
367
330
1D0
100
AcDbEntity
  8
0
  6
CONTINUOUS
 62
     7
100
AcDbVertex
100
AcDb2dVertex
 10
8.8072138304
 20
6.3886964474
 30
0.0
  0
VERTEX
  5
368
330
1D0
100
AcDbEntity
  8
0
  6
CONTINUOUS
 62
     7
100
AcDbVertex
100
AcDb2dVertex
 10
8.8160508202
 20
6.4116644375
 30
0.0
  0
VERTEX
  5
369
330
1D0
100
AcDbEntity
  8
0
  6
CONTINUOUS
 62
     7
100
AcDbVertex
100
AcDb2dVertex
 10
8.826264053
 20
6.4344201626
 30
0.0
  0
VERTEX
  5
36A
330
1D0
100
AcDbEntity
  8
0
  6
CONTINUOUS
 62
     7
100
AcDbVertex
100
AcDb2dVertex
 10
8.8377681452
 20
6.4567733826
 30
0.0
  0
VERTEX
  5
36B
330
1D0
100
AcDbEntity
  8
0
  6
CONTINUOUS
 62
     7
100
AcDbVertex
100
AcDb2dVertex
 10
8.8504669214
 20
6.4785372222
 30
0.0
  0
VERTEX
  5
36C
330
1D0
100
AcDbEntity
  8
0
  6
CONTINUOUS
 62
     7
100
AcDbVertex
100
AcDb2dVertex
 10
8.8642542185
 20
6.4995297337
 30
0.0
  0
VERTEX
  5
36D
330
1D0
100
AcDbEntity
  8
0
  6
CONTINUOUS
 62
     7
100
AcDbVertex
100
AcDb2dVertex
 10
8.8790147734
 20
6.5195754175
 30
0.0
  0
VERTEX
  5
36E
330
1D0
100
AcDbEntity
  8
0
  6
CONTINUOUS
 62
     7
100
AcDbVertex
100
AcDb2dVertex
 10
8.8946251864
 20
6.5385066897
 30
0.0
  0
VERTEX
  5
36F
330
1D0
100
AcDbEntity
  8
0
  6
CONTINUOUS
 62
     7
100
AcDbVertex
100
AcDb2dVertex
 10
8.9109549529
 20
6.5561652829
 30
0.0
  0
VERTEX
  5
370
330
1D0
100
AcDbEntity
  8
0
  6
CONTINUOUS
 62
     7
100
AcDbVertex
100
AcDb2dVertex
 10
8.9278675543
 20
6.5724035696
 30
0.0
  0
VERTEX
  5
371
330
1D0
100
AcDbEntity
  8
0
  6
CONTINUOUS
 62
     7
100
AcDbVertex
100
AcDb2dVertex
 10
8.9452215996
 20
6.5870857961
 30
0.0
  0
VERTEX
  5
372
330
1D0
100
AcDbEntity
  8
0
  6
CONTINUOUS
 62
     7
100
AcDbVertex
100
AcDb2dVertex
 10
8.9628720073
 20
6.6000892174
 30
0.0
  0
VERTEX
  5
373
330
1D0
100
AcDbEntity
  8
0
  6
CONTINUOUS
 62
     7
100
AcDbVertex
100
AcDb2dVertex
 10
8.9806712182
 20
6.6113051237
 30
0.0
  0
VERTEX
  5
374
330
1D0
100
AcDbEntity
  8
0
  6
CONTINUOUS
 62
     7
100
AcDbVertex
100
AcDb2dVertex
 10
8.998470429
 20
6.6206397489
 30
0.0
  0
VERTEX
  5
375
330
1D0
100
AcDbEntity
  8
0
  6
CONTINUOUS
 62
     7
100
AcDbVertex
100
AcDb2dVertex
 10
9.0161208367
 20
6.6280150545
 30
0.0
  0
VERTEX
  5
376
330
1D0
100
AcDbEntity
  8
0
  6
CONTINUOUS
 62
     7
100
AcDbVertex
100
AcDb2dVertex
 10
9.033474882
 20
6.6333693823
 30
0.0
  0
VERTEX
  5
377
330
1D0
100
AcDbEntity
  8
0
  6
CONTINUOUS
 62
     7
100
AcDbVertex
100
AcDb2dVertex
 10
9.0503874834
 20
6.6366579695
 30
0.0
  0
VERTEX
  5
378
330
1D0
100
AcDbEntity
  8
0
  6
CONTINUOUS
 62
     7
100
AcDbVertex
100
AcDb2dVertex
 10
9.0667172499
 20
6.6378533232
 30
0.0
  0
VERTEX
  5
379
330
1D0
100
AcDbEntity
  8
0
  6
CONTINUOUS
 62
     7
100
AcDbVertex
100
AcDb2dVertex
 10
9.0823276629
 20
6.6369454503
 30
0.0
  0
VERTEX
  5
37A
330
1D0
100
AcDbEntity
  8
0
  6
CONTINUOUS
 62
     7
100
AcDbVertex
100
AcDb2dVertex
 10
9.0970882178
 20
6.6339419404
 30
0.0
  0
VERTEX
  5
37B
330
1D0
100
AcDbEntity
  8
0
  6
CONTINUOUS
 62
     7
100
AcDbVertex
100
AcDb2dVertex
 10
9.110875515
 20
6.6288679034
 30
0.0
  0
VERTEX
  5
37C
330
1D0
100
AcDbEntity
  8
0
  6
CONTINUOUS
 62
     7
100
AcDbVertex
100
AcDb2dVertex
 10
9.1235742912
 20
6.6217657587
 30
0.0
  0
VERTEX
  5
37D
330
1D0
100
AcDbEntity
  8
0
  6
CONTINUOUS
 62
     7
100
AcDbVertex
100
AcDb2dVertex
 10
9.1350783833
 20
6.6126948808
 30
0.0
  0
VERTEX
  5
37E
330
1D0
100
AcDbEntity
  8
0
  6
CONTINUOUS
 62
     7
100
AcDbVertex
100
AcDb2dVertex
 10
9.1452916162
 20
6.6017311033
 30
0.0
  0
VERTEX
  5
37F
330
1D0
100
AcDbEntity
  8
0
  6
CONTINUOUS
 62
     7
100
AcDbVertex
100
AcDb2dVertex
 10
9.1541286059
 20
6.5889660845
 30
0.0
  0
VERTEX
  5
380
330
1D0
100
AcDbEntity
  8
0
  6
CONTINUOUS
 62
     7
100
AcDbVertex
100
AcDb2dVertex
 10
9.1615154746
 20
6.5745065411
 30
0.0
  0
VERTEX
  5
381
330
1D0
100
AcDbEntity
  8
0
  6
CONTINUOUS
 62
     7
100
AcDbVertex
100
AcDb2dVertex
 10
9.1673904672
 20
6.5584733564
 30
0.0
  0
VERTEX
  5
382
330
1D0
100
AcDbEntity
  8
0
  6
CONTINUOUS
 62
     7
100
AcDbVertex
100
AcDb2dVertex
 10
9.1717044681
 20
6.5410005694
 30
0.0
  0
VERTEX
  5
383
330
1D0
100
AcDbEntity
  8
0
  6
CONTINUOUS
 62
     7
100
AcDbVertex
100
AcDb2dVertex
 10
9.1744214119
 20
6.5222342544
 30
0.0
  0
SEQEND
  5
384
330
1D0
100
AcDbEntity
  8
0
  6
CONTINUOUS
 62
     7
  0
LINE
  5
1D1
330
1F
100
AcDbEntity
  8
0
  6
CONTINUOUS
 62
     7
100
AcDbLine
 10
8.7869210244
 20
6.2985350423
 30
0.0
 11
8.4521453236
 21
6.1052731439
 31
0.0
  0
LINE
  5
1D2
330
1F
100
AcDbEntity
  8
0
  6
CONTINUOUS
 62
     7
100
AcDbLine
 10
8.4521453236
 20
6.0570522298
 30
0.0
 11
8.7869210244
 21
6.2503141282
 31
0.0
  0
POLYLINE
  5
1D3
330
1F
100
AcDbEntity
  8
0
  6
CONTINUOUS
 62
     7
100
AcDb2dPolyline
 66
     1
 10
0.0
 20
0.0
 30
0.0
  0
VERTEX
  5
385
330
1D3
100
AcDbEntity
  8
0
  6
CONTINUOUS
 62
     7
100
AcDbVertex
100
AcDb2dVertex
 10
9.1744214119
 20
6.4740133403
 30
0.0
  0
VERTEX
  5
386
330
1D3
100
AcDbEntity
  8
0
  6
CONTINUOUS
 62
     7
100
AcDbVertex
100
AcDb2dVertex
 10
9.1717044681
 20
6.4521101088
 30
0.0
  0
VERTEX
  5
387
330
1D3
100
AcDbEntity
  8
0
  6
CONTINUOUS
 62
     7
100
AcDbVertex
100
AcDb2dVertex
 10
9.1673904672
 20
6.4296564824
 30
0.0
  0
VERTEX
  5
388
330
1D3
100
AcDbEntity
  8
0
  6
CONTINUOUS
 62
     7
100
AcDbVertex
100
AcDb2dVertex
 10
9.1615154746
 20
6.4068401756
 30
0.0
  0
VERTEX
  5
389
330
1D3
100
AcDbEntity
  8
0
  6
CONTINUOUS
 62
     7
100
AcDbVertex
100
AcDb2dVertex
 10
9.1541286059
 20
6.3838519352
 30
0.0
  0
VERTEX
  5
38A
330
1D3
100
AcDbEntity
  8
0
  6
CONTINUOUS
 62
     7
100
AcDbVertex
100
AcDb2dVertex
 10
9.1452916162
 20
6.3608839451
 30
0.0
  0
VERTEX
  5
38B
330
1D3
100
AcDbEntity
  8
0
  6
CONTINUOUS
 62
     7
100
AcDbVertex
100
AcDb2dVertex
 10
9.1350783833
 20
6.33812822
 30
0.0
  0
VERTEX
  5
38C
330
1D3
100
AcDbEntity
  8
0
  6
CONTINUOUS
 62
     7
100
AcDbVertex
100
AcDb2dVertex
 10
9.1235742912
 20
6.3157750001
 30
0.0
  0
VERTEX
  5
38D
330
1D3
100
AcDbEntity
  8
0
  6
CONTINUOUS
 62
     7
100
AcDbVertex
100
AcDb2dVertex
 10
9.110875515
 20
6.2940111604
 30
0.0
  0
VERTEX
  5
38E
330
1D3
100
AcDbEntity
  8
0
  6
CONTINUOUS
 62
     7
100
AcDbVertex
100
AcDb2dVertex
 10
9.0970882178
 20
6.2730186489
 30
0.0
  0
VERTEX
  5
38F
330
1D3
100
AcDbEntity
  8
0
  6
CONTINUOUS
 62
     7
100
AcDbVertex
100
AcDb2dVertex
 10
9.0823276629
 20
6.2529729651
 30
0.0
  0
VERTEX
  5
390
330
1D3
100
AcDbEntity
  8
0
  6
CONTINUOUS
 62
     7
100
AcDbVertex
100
AcDb2dVertex
 10
9.0667172499
 20
6.2340416929
 30
0.0
  0
VERTEX
  5
391
330
1D3
100
AcDbEntity
  8
0
  6
CONTINUOUS
 62
     7
100
AcDbVertex
100
AcDb2dVertex
 10
9.0503874834
 20
6.2163830997
 30
0.0
  0
VERTEX
  5
392
330
1D3
100
AcDbEntity
  8
0
  6
CONTINUOUS
 62
     7
100
AcDbVertex
100
AcDb2dVertex
 10
9.033474882
 20
6.200144813
 30
0.0
  0
VERTEX
  5
393
330
1D3
100
AcDbEntity
  8
0
  6
CONTINUOUS
 62
     7
100
AcDbVertex
100
AcDb2dVertex
 10
9.0161208367
 20
6.1854625865
 30
0.0
  0
VERTEX
  5
394
330
1D3
100
AcDbEntity
  8
0
  6
CONTINUOUS
 62
     7
100
AcDbVertex
100
AcDb2dVertex
 10
8.998470429
 20
6.1724591652
 30
0.0
  0
VERTEX
  5
395
330
1D3
100
AcDbEntity
  8
0
  6
CONTINUOUS
 62
     7
100
AcDbVertex
100
AcDb2dVertex
 10
8.9806712182
 20
6.1612432589
 30
0.0
  0
VERTEX
  5
396
330
1D3
100
AcDbEntity
  8
0
  6
CONTINUOUS
 62
     7
100
AcDbVertex
100
AcDb2dVertex
 10
8.9628720073
 20
6.1519086337
 30
0.0
  0
VERTEX
  5
397
330
1D3
100
AcDbEntity
  8
0
  6
CONTINUOUS
 62
     7
100
AcDbVertex
100
AcDb2dVertex
 10
8.9452215996
 20
6.1445333281
 30
0.0
  0
VERTEX
  5
398
330
1D3
100
AcDbEntity
  8
0
  6
CONTINUOUS
 62
     7
100
AcDbVertex
100
AcDb2dVertex
 10
8.9278675543
 20
6.1391790004
 30
0.0
  0
VERTEX
  5
399
330
1D3
100
AcDbEntity
  8
0
  6
CONTINUOUS
 62
     7
100
AcDbVertex
100
AcDb2dVertex
 10
8.9109549529
 20
6.1358904131
 30
0.0
  0
VERTEX
  5
39A
330
1D3
100
AcDbEntity
  8
0
  6
CONTINUOUS
 62
     7
100
AcDbVertex
100
AcDb2dVertex
 10
8.8946251864
 20
6.1346950594
 30
0.0
  0
VERTEX
  5
39B
330
1D3
100
AcDbEntity
  8
0
  6
CONTINUOUS
 62
     7
100
AcDbVertex
100
AcDb2dVertex
 10
8.8790147734
 20
6.1356029324
 30
0.0
  0
VERTEX
  5
39C
330
1D3
100
AcDbEntity
  8
0
  6
CONTINUOUS
 62
     7
100
AcDbVertex
100
AcDb2dVertex
 10
8.8642542185
 20
6.1386064422
 30
0.0
  0
VERTEX
  5
39D
330
1D3
100
AcDbEntity
  8
0
  6
CONTINUOUS
 62
     7
100
AcDbVertex
100
AcDb2dVertex
 10
8.8504669214
 20
6.1436804792
 30
0.0
  0
VERTEX
  5
39E
330
1D3
100
AcDbEntity
  8
0
  6
CONTINUOUS
 62
     7
100
AcDbVertex
100
AcDb2dVertex
 10
8.8377681452
 20
6.1507826239
 30
0.0
  0
VERTEX
  5
39F
330
1D3
100
AcDbEntity
  8
0
  6
CONTINUOUS
 62
     7
100
AcDbVertex
100
AcDb2dVertex
 10
8.826264053
 20
6.1598535018
 30
0.0
  0
VERTEX
  5
3A0
330
1D3
100
AcDbEntity
  8
0
  6
CONTINUOUS
 62
     7
100
AcDbVertex
100
AcDb2dVertex
 10
8.8160508202
 20
6.1708172793
 30
0.0
  0
VERTEX
  5
3A1
330
1D3
100
AcDbEntity
  8
0
  6
CONTINUOUS
 62
     7
100
AcDbVertex
100
AcDb2dVertex
 10
8.8072138304
 20
6.1835822982
 30
0.0
  0
VERTEX
  5
3A2
330
1D3
100
AcDbEntity
  8
0
  6
CONTINUOUS
 62
     7
100
AcDbVertex
100
AcDb2dVertex
 10
8.7998269617
 20
6.1980418415
 30
0.0
  0
VERTEX
  5
3A3
330
1D3
100
AcDbEntity
  8
0
  6
CONTINUOUS
 62
     7
100
AcDbVertex
100
AcDb2dVertex
 10
8.7939519692
 20
6.2140750262
 30
0.0
  0
VERTEX
  5
3A4
330
1D3
100
AcDbEntity
  8
0
  6
CONTINUOUS
 62
     7
100
AcDbVertex
100
AcDb2dVertex
 10
8.7896379682
 20
6.2315478132
 30
0.0
  0
VERTEX
  5
3A5
330
1D3
100
AcDbEntity
  8
0
  6
CONTINUOUS
 62
     7
100
AcDbVertex
100
AcDb2dVertex
 10
8.7869210244
 20
6.2503141282
 30
0.0
  0
SEQEND
  5
3A6
330
1D3
100
AcDbEntity
  8
0
  6
CONTINUOUS
 62
     7
  0
LINE
  5
1D4
330
1F
100
AcDbEntity
  8
0
  6
CONTINUOUS
 62
     7
100
AcDbLine
 10
9.1744214119
 20
6.4740133403
 30
0.0
 11
9.2590597147
 21
6.5228739925
 31
0.0
  0
SPLINE
  5
1D5
330
1F
100
AcDbEntity
  8
0
  6
CONTINUOUS
 62
     7
100
AcDbSpline
210
0.0
220
0.0
230
1.0
 70
     8
 71
     3
 72
     8
 73
     4
 74
     0
 42
0.00000001
 43
0.00000001
 40
0.0
 40
0.0
 40
0.0
 40
0.0
 40
0.0007095026026307
 40
0.0007095026026307
 40
0.0007095026026307
 40
0.0007095026026307
 10
8.786921024411868
 20
6.250314128198382
 30
0.0
 10
8.78697477673329
 20
6.261064401896501
 30
0.0
 10
8.787036038347384
 20
6.271814665227211
 30
0.0
 10
8.787109354331166
 20
6.282564900393177
 30
0.0
  0
LINE
  5
1D6
330
1F
100
AcDbEntity
  8
0
  6
CONTINUOUS
 62
     7
100
AcDbLine
 10
6.8374920438
 20
6.9891717276
 30
0.0
 11
6.8374714164
 21
6.957017768
 31
0.0
  0
LINE
  5
1D7
330
1F
100
AcDbEntity
  8
0
  6
CONTINUOUS
 62
     7
100
AcDbLine
 10
6.8374920438
 20
6.9891717276
 30
0.0
 11
6.8513976287
 21
6.9971992509
 31
0.0
  0
LINE
  5
1D8
330
1F
100
AcDbEntity
  8
0
  6
CONTINUOUS
 62
     7
100
AcDbLine
 10
7.6874680056
 20
6.9173743387
 30
0.0
 11
7.9759273692
 21
6.7508502927
 31
0.0
  0
LINE
  5
1D9
330
1F
100
AcDbEntity
  8
0
  6
CONTINUOUS
 62
     7
100
AcDbLine
 10
8.7731831421
 20
6.2906043316
 30
0.0
 11
8.7871093543
 21
6.2825649004
 31
0.0
  0
ARC
  5
1DA
330
1F
100
AcDbEntity
  8
0
  6
CONTINUOUS
 62
     7
100
AcDbCircle
 10
9.0200190597
 20
6.519755153
 30
0.0
 40
0.0985648296833416
100
AcDbArc
 50
1.3780363374
 51
123.1048648187
  0
SPLINE
  5
1DB
330
1F
100
AcDbEntity
  8
0
  6
CONTINUOUS
 62
     7
100
AcDbSpline
210
0.0
220
0.0
230
1.0
 70
     8
 71
     3
 72
     8
 73
     4
 74
     0
 42
0.00000001
 43
0.00000001
 40
0.0
 40
0.0
 40
0.0
 40
0.0
 40
0.0007095026026307
 40
0.0007095026026307
 40
0.0007095026026307
 40
0.0007095026026307
 10
9.174421411912455
 20
6.522234254418598
 30
0.0
 10
9.155799373935443
 20
6.522203223863945
 30
0.0
 10
9.137177353917258
 20
6.522167858286905
 30
0.0
 10
9.118555382687125
 20
6.52212553387037
 30
0.0
  0
LINE
  5
1DC
330
1F
100
AcDbEntity
  8
0
  6
CONTINUOUS
 62
     7
100
AcDbLine
 10
8.9736845708
 20
6.6057576734
 30
0.0
 11
9.1185553827
 21
6.5221255339
 31
0.0
  0
LINE
  5
1DD
330
1F
100
AcDbEntity
  8
0
  6
CONTINUOUS
 62
     7
100
AcDbLine
 10
8.1315795163
 20
7.1737544566
 30
0.0
 11
8.2083788892
 21
7.1294191224
 31
0.0
  0
LINE
  5
1DE
330
1F
100
AcDbEntity
  8
0
  6
CONTINUOUS
 62
     7
100
AcDbLine
 10
9.2172946528
 20
6.5469844495
 30
0.0
 11
9.2590597147
 21
6.5228739925
 31
0.0
  0
LINE
  5
1DF
330
1F
100
AcDbEntity
  8
0
  6
CONTINUOUS
 62
     7
100
AcDbLine
 10
8.1733445782
 20
7.7305616112
 30
0.0
 11
8.1733445782
 21
7.1978649137
 31
0.0
  0
POLYLINE
  5
1E0
330
1F
100
AcDbEntity
  8
0
  6
CONTINUOUS
 62
     7
100
AcDb2dPolyline
 66
     1
 10
0.0
 20
0.0
 30
0.0
  0
VERTEX
  5
3A7
330
1E0
100
AcDbEntity
  8
0
  6
CONTINUOUS
 62
     7
100
AcDbVertex
100
AcDb2dVertex
 10
8.7871093543
 20
6.2825649004
 30
0.0
  0
VERTEX
  5
3A8
330
1E0
100
AcDbEntity
  8
0
  6
CONTINUOUS
 62
     7
100
AcDbVertex
100
AcDb2dVertex
 10
8.7898871183
 20
6.2658674913
 30
0.0
  0
VERTEX
  5
3A9
330
1E0
100
AcDbEntity
  8
0
  6
CONTINUOUS
 62
     7
100
AcDbVertex
100
AcDb2dVertex
 10
8.7941768423
 20
6.2504364517
 30
0.0
  0
VERTEX
  5
3AA
330
1E0
100
AcDbEntity
  8
0
  6
CONTINUOUS
 62
     7
100
AcDbVertex
100
AcDb2dVertex
 10
8.7999387225
 20
6.2364149653
 30
0.0
  0
VERTEX
  5
3AB
330
1E0
100
AcDbEntity
  8
0
  6
CONTINUOUS
 62
     7
100
AcDbVertex
100
AcDb2dVertex
 10
8.8071192944
 20
6.2239331367
 30
0.0
  0
VERTEX
  5
3AC
330
1E0
100
AcDbEntity
  8
0
  6
CONTINUOUS
 62
     7
100
AcDbVertex
100
AcDb2dVertex
 10
8.8156519302
 20
6.2131067841
 30
0.0
  0
VERTEX
  5
3AD
330
1E0
100
AcDbEntity
  8
0
  6
CONTINUOUS
 62
     7
100
AcDbVertex
100
AcDb2dVertex
 10
8.8254574557
 20
6.2040363648
 30
0.0
  0
VERTEX
  5
3AE
330
1E0
100
AcDbEntity
  8
0
  6
CONTINUOUS
 62
     7
100
AcDbVertex
100
AcDb2dVertex
 10
8.8364448862
 20
6.1968060425
 30
0.0
  0
VERTEX
  5
3AF
330
1E0
100
AcDbEntity
  8
0
  6
CONTINUOUS
 62
     7
100
AcDbVertex
100
AcDb2dVertex
 10
8.8485122699
 20
6.1914829071
 30
0.0
  0
VERTEX
  5
3B0
330
1E0
100
AcDbEntity
  8
0
  6
CONTINUOUS
 62
     7
100
AcDbVertex
100
AcDb2dVertex
 10
8.861547634
 20
6.1881163516
 30
0.0
  0
VERTEX
  5
3B1
330
1E0
100
AcDbEntity
  8
0
  6
CONTINUOUS
 62
     7
100
AcDbVertex
100
AcDb2dVertex
 10
8.8754300243
 20
6.1867376142
 30
0.0
  0
VERTEX
  5
3B2
330
1E0
100
AcDbEntity
  8
0
  6
CONTINUOUS
 62
     7
100
AcDbVertex
100
AcDb2dVertex
 10
8.8900306268
 20
6.1873594881
 30
0.0
  0
VERTEX
  5
3B3
330
1E0
100
AcDbEntity
  8
0
  6
CONTINUOUS
 62
     7
100
AcDbVertex
100
AcDb2dVertex
 10
8.9052139632
 20
6.1899762029
 30
0.0
  0
VERTEX
  5
3B4
330
1E0
100
AcDbEntity
  8
0
  6
CONTINUOUS
 62
     7
100
AcDbVertex
100
AcDb2dVertex
 10
8.9208391482
 20
6.1945634783
 30
0.0
  0
VERTEX
  5
3B5
330
1E0
100
AcDbEntity
  8
0
  6
CONTINUOUS
 62
     7
100
AcDbVertex
100
AcDb2dVertex
 10
8.9367611966
 20
6.2010787492
 30
0.0
  0
VERTEX
  5
3B6
330
1E0
100
AcDbEntity
  8
0
  6
CONTINUOUS
 62
     7
100
AcDbVertex
100
AcDb2dVertex
 10
8.9528323685
 20
6.2094615608
 30
0.0
  0
VERTEX
  5
3B7
330
1E0
100
AcDbEntity
  8
0
  6
CONTINUOUS
 62
     7
100
AcDbVertex
100
AcDb2dVertex
 10
8.9689035404
 20
6.2196341293
 30
0.0
  0
VERTEX
  5
3B8
330
1E0
100
AcDbEntity
  8
0
  6
CONTINUOUS
 62
     7
100
AcDbVertex
100
AcDb2dVertex
 10
8.9848255888
 20
6.2315020642
 30
0.0
  0
VERTEX
  5
3B9
330
1E0
100
AcDbEntity
  8
0
  6
CONTINUOUS
 62
     7
100
AcDbVertex
100
AcDb2dVertex
 10
9.0004507738
 20
6.2449552434
 30
0.0
  0
VERTEX
  5
3BA
330
1E0
100
AcDbEntity
  8
0
  6
CONTINUOUS
 62
     7
100
AcDbVertex
100
AcDb2dVertex
 10
9.0156341102
 20
6.2598688357
 30
0.0
  0
VERTEX
  5
3BB
330
1E0
100
AcDbEntity
  8
0
  6
CONTINUOUS
 62
     7
100
AcDbVertex
100
AcDb2dVertex
 10
9.0302347127
 20
6.2761044586
 30
0.0
  0
VERTEX
  5
3BC
330
1E0
100
AcDbEntity
  8
0
  6
CONTINUOUS
 62
     7
100
AcDbVertex
100
AcDb2dVertex
 10
9.044117103
 20
6.2935114627
 30
0.0
  0
VERTEX
  5
3BD
330
1E0
100
AcDbEntity
  8
0
  6
CONTINUOUS
 62
     7
100
AcDbVertex
100
AcDb2dVertex
 10
9.0571524672
 20
6.3119283292
 30
0.0
  0
VERTEX
  5
3BE
330
1E0
100
AcDbEntity
  8
0
  6
CONTINUOUS
 62
     7
100
AcDbVertex
100
AcDb2dVertex
 10
9.0692198508
 20
6.3311841692
 30
0.0
  0
VERTEX
  5
3BF
330
1E0
100
AcDbEntity
  8
0
  6
CONTINUOUS
 62
     7
100
AcDbVertex
100
AcDb2dVertex
 10
9.0802072813
 20
6.3511003087
 30
0.0
  0
VERTEX
  5
3C0
330
1E0
100
AcDbEntity
  8
0
  6
CONTINUOUS
 62
     7
100
AcDbVertex
100
AcDb2dVertex
 10
9.0900128069
 20
6.3714919469
 30
0.0
  0
VERTEX
  5
3C1
330
1E0
100
AcDbEntity
  8
0
  6
CONTINUOUS
 62
     7
100
AcDbVertex
100
AcDb2dVertex
 10
9.0985454426
 20
6.392169871
 30
0.0
  0
VERTEX
  5
3C2
330
1E0
100
AcDbEntity
  8
0
  6
CONTINUOUS
 62
     7
100
AcDbVertex
100
AcDb2dVertex
 10
9.1057260146
 20
6.4129422115
 30
0.0
  0
VERTEX
  5
3C3
330
1E0
100
AcDbEntity
  8
0
  6
CONTINUOUS
 62
     7
100
AcDbVertex
100
AcDb2dVertex
 10
9.1114878947
 20
6.4336162231
 30
0.0
  0
VERTEX
  5
3C4
330
1E0
100
AcDbEntity
  8
0
  6
CONTINUOUS
 62
     7
100
AcDbVertex
100
AcDb2dVertex
 10
9.1157776188
 20
6.4540000728
 30
0.0
  0
VERTEX
  5
3C5
330
1E0
100
AcDbEntity
  8
0
  6
CONTINUOUS
 62
     7
100
AcDbVertex
100
AcDb2dVertex
 10
9.1185553827
 20
6.4739046198
 30
0.0
  0
SEQEND
  5
3C6
330
1E0
100
AcDbEntity
  8
0
  6
CONTINUOUS
 62
     7
  0
SPLINE
  5
1E1
330
1F
100
AcDbEntity
  8
0
  6
CONTINUOUS
 62
     7
100
AcDbSpline
210
0.0
220
0.0
230
1.0
 70
     8
 71
     3
 72
     8
 73
     4
 74
     0
 42
0.00000001
 43
0.00000001
 40
0.0
 40
0.0
 40
0.0
 40
0.0
 40
0.0007095026026307
 40
0.0007095026026307
 40
0.0007095026026307
 40
0.0007095026026307
 10
9.118555382687125
 20
6.473904619782628
 30
0.0
 10
9.137177353917258
 20
6.473946944199165
 30
0.0
 10
9.155799373935443
 20
6.473982309776204
 30
0.0
 10
9.174421411912455
 20
6.474013340330856
 30
0.0
  0
LINE
  5
1E2
330
1F
100
AcDbEntity
  8
0
  6
CONTINUOUS
 62
     7
100
AcDbLine
 10
9.1185553827
 20
6.4739046198
 30
0.0
 11
8.9358366396
 21
6.5793859049
 31
0.0
  0
LINE
  5
1E3
330
1F
100
AcDbEntity
  8
0
  6
CONTINUOUS
 62
     7
100
AcDbLine
 10
8.1371262871
 20
7.040471577
 30
0.0
 11
7.8740500101
 21
7.192342279
 31
0.0
  0
POLYLINE
  5
1E4
330
1F
100
AcDbEntity
  8
0
  6
CONTINUOUS
 62
     7
100
AcDb2dPolyline
 66
     1
 10
0.0
 20
0.0
 30
0.0
  0
VERTEX
  5
3C7
330
1E4
100
AcDbEntity
  8
0
  6
CONTINUOUS
 62
     7
100
AcDbVertex
100
AcDb2dVertex
 10
7.7292330675
 20
6.9414847958
 30
0.0
  0
VERTEX
  5
3C8
330
1E4
100
AcDbEntity
  8
0
  6
CONTINUOUS
 62
     7
100
AcDbVertex
100
AcDb2dVertex
 10
7.7320108314
 20
6.9613893428
 30
0.0
  0
VERTEX
  5
3C9
330
1E4
100
AcDbEntity
  8
0
  6
CONTINUOUS
 62
     7
100
AcDbVertex
100
AcDb2dVertex
 10
7.7363005555
 20
6.9817731924
 30
0.0
  0
VERTEX
  5
3CA
330
1E4
100
AcDbEntity
  8
0
  6
CONTINUOUS
 62
     7
100
AcDbVertex
100
AcDb2dVertex
 10
7.7420624356
 20
7.002447204
 30
0.0
  0
VERTEX
  5
3CB
330
1E4
100
AcDbEntity
  8
0
  6
CONTINUOUS
 62
     7
100
AcDbVertex
100
AcDb2dVertex
 10
7.7492430076
 20
7.0232195445
 30
0.0
  0
VERTEX
  5
3CC
330
1E4
100
AcDbEntity
  8
0
  6
CONTINUOUS
 62
     7
100
AcDbVertex
100
AcDb2dVertex
 10
7.7577756433
 20
7.0438974686
 30
0.0
  0
VERTEX
  5
3CD
330
1E4
100
AcDbEntity
  8
0
  6
CONTINUOUS
 62
     7
100
AcDbVertex
100
AcDb2dVertex
 10
7.7675811689
 20
7.0642891068
 30
0.0
  0
VERTEX
  5
3CE
330
1E4
100
AcDbEntity
  8
0
  6
CONTINUOUS
 62
     7
100
AcDbVertex
100
AcDb2dVertex
 10
7.7785685994
 20
7.0842052463
 30
0.0
  0
VERTEX
  5
3CF
330
1E4
100
AcDbEntity
  8
0
  6
CONTINUOUS
 62
     7
100
AcDbVertex
100
AcDb2dVertex
 10
7.790635983
 20
7.1034610863
 30
0.0
  0
VERTEX
  5
3D0
330
1E4
100
AcDbEntity
  8
0
  6
CONTINUOUS
 62
     7
100
AcDbVertex
100
AcDb2dVertex
 10
7.8036713472
 20
7.1218779529
 30
0.0
  0
VERTEX
  5
3D1
330
1E4
100
AcDbEntity
  8
0
  6
CONTINUOUS
 62
     7
100
AcDbVertex
100
AcDb2dVertex
 10
7.8175537375
 20
7.1392849569
 30
0.0
  0
VERTEX
  5
3D2
330
1E4
100
AcDbEntity
  8
0
  6
CONTINUOUS
 62
     7
100
AcDbVertex
100
AcDb2dVertex
 10
7.83215434
 20
7.1555205798
 30
0.0
  0
VERTEX
  5
3D3
330
1E4
100
AcDbEntity
  8
0
  6
CONTINUOUS
 62
     7
100
AcDbVertex
100
AcDb2dVertex
 10
7.8473376764
 20
7.1704341721
 30
0.0
  0
VERTEX
  5
3D4
330
1E4
100
AcDbEntity
  8
0
  6
CONTINUOUS
 62
     7
100
AcDbVertex
100
AcDb2dVertex
 10
7.8629628614
 20
7.1838873513
 30
0.0
  0
VERTEX
  5
3D5
330
1E4
100
AcDbEntity
  8
0
  6
CONTINUOUS
 62
     7
100
AcDbVertex
100
AcDb2dVertex
 10
7.8788849098
 20
7.1957552862
 30
0.0
  0
VERTEX
  5
3D6
330
1E4
100
AcDbEntity
  8
0
  6
CONTINUOUS
 62
     7
100
AcDbVertex
100
AcDb2dVertex
 10
7.8949560817
 20
7.2059278548
 30
0.0
  0
VERTEX
  5
3D7
330
1E4
100
AcDbEntity
  8
0
  6
CONTINUOUS
 62
     7
100
AcDbVertex
100
AcDb2dVertex
 10
7.9110272536
 20
7.2143106663
 30
0.0
  0
VERTEX
  5
3D8
330
1E4
100
AcDbEntity
  8
0
  6
CONTINUOUS
 62
     7
100
AcDbVertex
100
AcDb2dVertex
 10
7.926949302
 20
7.2208259372
 30
0.0
  0
VERTEX
  5
3D9
330
1E4
100
AcDbEntity
  8
0
  6
CONTINUOUS
 62
     7
100
AcDbVertex
100
AcDb2dVertex
 10
7.942574487
 20
7.2254132126
 30
0.0
  0
VERTEX
  5
3DA
330
1E4
100
AcDbEntity
  8
0
  6
CONTINUOUS
 62
     7
100
AcDbVertex
100
AcDb2dVertex
 10
7.9577578234
 20
7.2280299274
 30
0.0
  0
VERTEX
  5
3DB
330
1E4
100
AcDbEntity
  8
0
  6
CONTINUOUS
 62
     7
100
AcDbVertex
100
AcDb2dVertex
 10
7.9723584259
 20
7.2286518013
 30
0.0
  0
VERTEX
  5
3DC
330
1E4
100
AcDbEntity
  8
0
  6
CONTINUOUS
 62
     7
100
AcDbVertex
100
AcDb2dVertex
 10
7.9862408162
 20
7.2272730639
 30
0.0
  0
VERTEX
  5
3DD
330
1E4
100
AcDbEntity
  8
0
  6
CONTINUOUS
 62
     7
100
AcDbVertex
100
AcDb2dVertex
 10
7.9992761804
 20
7.2239065085
 30
0.0
  0
VERTEX
  5
3DE
330
1E4
100
AcDbEntity
  8
0
  6
CONTINUOUS
 62
     7
100
AcDbVertex
100
AcDb2dVertex
 10
8.011343564
 20
7.2185833731
 30
0.0
  0
VERTEX
  5
3DF
330
1E4
100
AcDbEntity
  8
0
  6
CONTINUOUS
 62
     7
100
AcDbVertex
100
AcDb2dVertex
 10
8.0223309945
 20
7.2113530508
 30
0.0
  0
VERTEX
  5
3E0
330
1E4
100
AcDbEntity
  8
0
  6
CONTINUOUS
 62
     7
100
AcDbVertex
100
AcDb2dVertex
 10
8.03213652
 20
7.2022826314
 30
0.0
  0
VERTEX
  5
3E1
330
1E4
100
AcDbEntity
  8
0
  6
CONTINUOUS
 62
     7
100
AcDbVertex
100
AcDb2dVertex
 10
8.0406691558
 20
7.1914562788
 30
0.0
  0
VERTEX
  5
3E2
330
1E4
100
AcDbEntity
  8
0
  6
CONTINUOUS
 62
     7
100
AcDbVertex
100
AcDb2dVertex
 10
8.0478497277
 20
7.1789744503
 30
0.0
  0
VERTEX
  5
3E3
330
1E4
100
AcDbEntity
  8
0
  6
CONTINUOUS
 62
     7
100
AcDbVertex
100
AcDb2dVertex
 10
8.0536116079
 20
7.1649529638
 30
0.0
  0
VERTEX
  5
3E4
330
1E4
100
AcDbEntity
  8
0
  6
CONTINUOUS
 62
     7
100
AcDbVertex
100
AcDb2dVertex
 10
8.0579013319
 20
7.1495219242
 30
0.0
  0
VERTEX
  5
3E5
330
1E4
100
AcDbEntity
  8
0
  6
CONTINUOUS
 62
     7
100
AcDbVertex
100
AcDb2dVertex
 10
8.0606790959
 20
7.1328245152
 30
0.0
  0
SEQEND
  5
3E6
330
1E4
100
AcDbEntity
  8
0
  6
CONTINUOUS
 62
     7
  0
LINE
  5
1E5
330
1F
100
AcDbEntity
  8
0
  6
CONTINUOUS
 62
     7
100
AcDbLine
 10
7.3385707102
 20
6.7159602173
 30
0.0
 11
7.7292330675
 21
6.9414847958
 31
0.0
  0
LINE
  5
1E6
330
1F
100
AcDbEntity
  8
0
  6
CONTINUOUS
 62
     7
100
AcDbLine
 10
8.0606790959
 20
7.1328245152
 30
0.0
 11
8.1733445782
 21
7.1978649137
 31
0.0
  0
LINE
  5
1E7
330
1F
100
AcDbEntity
  8
0
  6
CONTINUOUS
 62
     7
100
AcDbLine
 10
6.8374714164
 20
7.0052386821
 30
0.0
 11
6.8374920438
 21
7.0373926417
 31
0.0
  0
ARC
  5
1E8
330
1F
100
AcDbEntity
  8
0
  6
CONTINUOUS
 62
     7
100
AcDbCircle
 10
7.9875296141
 20
6.9583428028
 30
0.0
 40
1.152751183151417
100
AcDbArc
 50
122.6312147118
 51
176.067859629
  0
LINE
  5
1E9
330
1F
100
AcDbEntity
  8
0
  6
CONTINUOUS
 62
     7
100
AcDbLine
 10
7.915808284
 20
7.2164566547
 30
0.0
 11
8.0606790959
 21
7.1328245152
 31
0.0
  0
LINE
  5
1EA
330
1F
100
AcDbEntity
  8
0
  6
CONTINUOUS
 62
     7
100
AcDbLine
 10
8.1779825993
 20
6.7966522906
 30
0.0
 11
8.1779865753
 21
6.7973374947
 31
0.0
  0
ARC
  5
1EB
330
1F
100
AcDbEntity
  8
0
  6
CONTINUOUS
 62
     7
100
AcDbCircle
 10
8.3299456475
 20
6.7560687307
 30
0.0
 40
0.2028079013926529
100
AcDbArc
 50
240.433394518
 51
251.6154506703
  0
ARC
  5
1EC
330
1F
100
AcDbEntity
  8
0
  6
CONTINUOUS
 62
     7
100
AcDbCircle
 10
8.2946279792
 20
6.6950073281
 30
0.0
 40
0.1322720884945097
100
AcDbArc
 50
225.0303614719
 51
240.6884706603
  0
LINE
  5
1ED
330
1F
100
AcDbEntity
  8
0
  6
CONTINUOUS
 62
     7
100
AcDbLine
 10
8.419439023
 20
6.8498403729
 30
0.0
 11
8.331615789
 21
6.8634252024
 31
0.0
  0
LINE
  5
1EE
330
1F
100
AcDbEntity
  8
0
  6
CONTINUOUS
 62
     7
100
AcDbLine
 10
8.331615789
 20
6.8634252024
 30
0.0
 11
8.2673247196
 21
6.8263107581
 31
0.0
  0
LINE
  5
1EF
330
1F
100
AcDbEntity
  8
0
  6
CONTINUOUS
 62
     7
100
AcDbLine
 10
8.2673247196
 20
6.8263107581
 30
0.0
 11
8.2908568843
 21
6.7756114842
 31
0.0
  0
LINE
  5
1F0
330
1F
100
AcDbEntity
  8
0
  6
CONTINUOUS
 62
     7
100
AcDbLine
 10
8.2908568843
 20
6.7756114842
 30
0.0
 11
8.3786801182
 21
6.7620266548
 31
0.0
  0
LINE
  5
1F1
330
1F
100
AcDbEntity
  8
0
  6
CONTINUOUS
 62
     7
100
AcDbLine
 10
8.3786801182
 20
6.7620266548
 30
0.0
 11
8.4429711876
 21
6.7991410991
 31
0.0
  0
LINE
  5
1F2
330
1F
100
AcDbEntity
  8
0
  6
CONTINUOUS
 62
     7
100
AcDbLine
 10
8.4429711876
 20
6.7991410991
 30
0.0
 11
8.419439023
 21
6.8498403729
 31
0.0
  0
LINE
  5
1F3
330
1F
100
AcDbEntity
  8
0
  6
CONTINUOUS
 62
     7
100
AcDbLine
 10
8.419439023
 20
6.7855562696
 30
0.0
 11
8.419439023
 21
6.8498403729
 31
0.0
  0
LINE
  5
1F4
330
1F
100
AcDbEntity
  8
0
  6
CONTINUOUS
 62
     7
100
AcDbLine
 10
8.331615789
 20
6.7693067429
 30
0.0
 11
8.331615789
 21
6.8634252024
 31
0.0
  0
ARC
  5
1F5
330
1F
100
AcDbEntity
  8
0
  6
CONTINUOUS
 62
     7
100
AcDbCircle
 10
7.208659543
 20
7.3214066027
 30
0.0
 40
0.1318248215485868
100
AcDbArc
 50
224.6698402495
 51
240.7055843961
  0
ARC
  5
1F6
330
1F
100
AcDbEntity
  8
0
  6
CONTINUOUS
 62
     7
100
AcDbCircle
 10
7.2443335442
 20
7.3830499776
 30
0.0
 40
0.2030424748108526
100
AcDbArc
 50
240.4375191323
 51
251.7376714136
  0
LINE
  5
1F7
330
1F
100
AcDbEntity
  8
0
  6
CONTINUOUS
 62
     7
100
AcDbLine
 10
7.1816095832
 20
7.4530807652
 30
0.0
 11
7.2459006525
 21
7.4901952095
 31
0.0
  0
LINE
  5
1F8
330
1F
100
AcDbEntity
  8
0
  6
CONTINUOUS
 62
     7
100
AcDbLine
 10
7.2051417478
 20
7.4023814913
 30
0.0
 11
7.1816095832
 21
7.4530807652
 31
0.0
  0
LINE
  5
1F9
330
1F
100
AcDbEntity
  8
0
  6
CONTINUOUS
 62
     7
100
AcDbLine
 10
7.2929649818
 20
7.3887966619
 30
0.0
 11
7.2051417478
 21
7.4023814913
 31
0.0
  0
LINE
  5
1FA
330
1F
100
AcDbEntity
  8
0
  6
CONTINUOUS
 62
     7
100
AcDbLine
 10
7.3572560511
 20
7.4259111062
 30
0.0
 11
7.2929649818
 21
7.3887966619
 31
0.0
  0
LINE
  5
1FB
330
1F
100
AcDbEntity
  8
0
  6
CONTINUOUS
 62
     7
100
AcDbLine
 10
7.3337238865
 20
7.47661038
 30
0.0
 11
7.3572560511
 21
7.4259111062
 31
0.0
  0
LINE
  5
1FC
330
1F
100
AcDbEntity
  8
0
  6
CONTINUOUS
 62
     7
100
AcDbLine
 10
7.2459006525
 20
7.4901952095
 30
0.0
 11
7.3337238865
 21
7.47661038
 31
0.0
  0
LINE
  5
1FD
330
1F
100
AcDbEntity
  8
0
  6
CONTINUOUS
 62
     7
100
AcDbLine
 10
7.3337238865
 20
7.4123262767
 30
0.0
 11
7.3337238865
 21
7.47661038
 31
0.0
  0
LINE
  5
1FE
330
1F
100
AcDbEntity
  8
0
  6
CONTINUOUS
 62
     7
100
AcDbLine
 10
7.2459006525
 20
7.39607675
 30
0.0
 11
7.2459006525
 21
7.4901952095
 31
0.0
  0
ARC
  5
1FF
330
1F
100
AcDbEntity
  8
0
  6
CONTINUOUS
 62
     8
100
AcDbCircle
 10
8.3530515532
 20
6.9463618641
 30
0.0
 40
0.2260749222449335
100
AcDbArc
 50
241.0997188982
 51
308.2933115534
  0
POLYLINE
  5
200
330
1F
100
AcDbEntity
  8
0
  6
CONTINUOUS
 62
     8
100
AcDb2dPolyline
 66
     1
 10
0.0
 20
0.0
 30
0.0
  0
VERTEX
  5
3E7
330
200
100
AcDbEntity
  8
0
  6
CONTINUOUS
 62
     8
100
AcDbVertex
100
AcDb2dVertex
 10
8.5120499004
 20
6.8049415578
 30
0.0
  0
VERTEX
  5
3E8
330
200
100
AcDbEntity
  8
0
  6
CONTINUOUS
 62
     8
100
AcDbVertex
100
AcDb2dVertex
 10
8.5126109777
 20
6.8140730809
 30
0.0
  0
VERTEX
  5
3E9
330
200
100
AcDbEntity
  8
0
  6
CONTINUOUS
 62
     8
100
AcDbVertex
100
AcDb2dVertex
 10
8.5112297589
 20
6.8248148303
 30
0.0
  0
VERTEX
  5
3EA
330
200
100
AcDbEntity
  8
0
  6
CONTINUOUS
 62
     8
100
AcDbVertex
100
AcDb2dVertex
 10
8.5076574936
 20
6.8353868781
 30
0.0
  0
VERTEX
  5
3EB
330
200
100
AcDbEntity
  8
0
  6
CONTINUOUS
 62
     8
100
AcDbVertex
100
AcDb2dVertex
 10
8.5019443288
 20
6.8456408158
 30
0.0
  0
VERTEX
  5
3EC
330
200
100
AcDbEntity
  8
0
  6
CONTINUOUS
 62
     8
100
AcDbVertex
100
AcDb2dVertex
 10
8.4941704646
 20
6.8554327006
 30
0.0
  0
VERTEX
  5
3ED
330
200
100
AcDbEntity
  8
0
  6
CONTINUOUS
 62
     8
100
AcDbVertex
100
AcDb2dVertex
 10
8.484445029
 20
6.864625076
 30
0.0
  0
VERTEX
  5
3EE
330
200
100
AcDbEntity
  8
0
  6
CONTINUOUS
 62
     8
100
AcDbVertex
100
AcDb2dVertex
 10
8.472904546
 20
6.8730889011
 30
0.0
  0
VERTEX
  5
3EF
330
200
100
AcDbEntity
  8
0
  6
CONTINUOUS
 62
     8
100
AcDbVertex
100
AcDb2dVertex
 10
8.4597110185
 20
6.8807053624
 30
0.0
  0
VERTEX
  5
3F0
330
200
100
AcDbEntity
  8
0
  6
CONTINUOUS
 62
     8
100
AcDbVertex
100
AcDb2dVertex
 10
8.4450496549
 20
6.8873675414
 30
0.0
  0
VERTEX
  5
3F1
330
200
100
AcDbEntity
  8
0
  6
CONTINUOUS
 62
     8
100
AcDbVertex
100
AcDb2dVertex
 10
8.4291262683
 20
6.8929819159
 30
0.0
  0
VERTEX
  5
3F2
330
200
100
AcDbEntity
  8
0
  6
CONTINUOUS
 62
     8
100
AcDbVertex
100
AcDb2dVertex
 10
8.4121643885
 20
6.8974696721
 30
0.0
  0
VERTEX
  5
3F3
330
200
100
AcDbEntity
  8
0
  6
CONTINUOUS
 62
     8
100
AcDbVertex
100
AcDb2dVertex
 10
8.3944021228
 20
6.900767812
 30
0.0
  0
VERTEX
  5
3F4
330
200
100
AcDbEntity
  8
0
  6
CONTINUOUS
 62
     8
100
AcDbVertex
100
AcDb2dVertex
 10
8.3760888147
 20
6.9028300368
 30
0.0
  0
VERTEX
  5
3F5
330
200
100
AcDbEntity
  8
0
  6
CONTINUOUS
 62
     8
100
AcDbVertex
100
AcDb2dVertex
 10
8.3574815427
 20
6.9036273975
 30
0.0
  0
VERTEX
  5
3F6
330
200
100
AcDbEntity
  8
0
  6
CONTINUOUS
 62
     8
100
AcDbVertex
100
AcDb2dVertex
 10
8.3388415123
 20
6.9031487008
 30
0.0
  0
VERTEX
  5
3F7
330
200
100
AcDbEntity
  8
0
  6
CONTINUOUS
 62
     8
100
AcDbVertex
100
AcDb2dVertex
 10
8.3204303886
 20
6.9014006666
 30
0.0
  0
VERTEX
  5
3F8
330
200
100
AcDbEntity
  8
0
  6
CONTINUOUS
 62
     8
100
AcDbVertex
100
AcDb2dVertex
 10
8.3025066234
 20
6.8984078334
 30
0.0
  0
VERTEX
  5
3F9
330
200
100
AcDbEntity
  8
0
  6
CONTINUOUS
 62
     8
100
AcDbVertex
100
AcDb2dVertex
 10
8.2853218271
 20
6.8942122141
 30
0.0
  0
VERTEX
  5
3FA
330
200
100
AcDbEntity
  8
0
  6
CONTINUOUS
 62
     8
100
AcDbVertex
100
AcDb2dVertex
 10
8.2691172365
 20
6.888872706
 30
0.0
  0
VERTEX
  5
3FB
330
200
100
AcDbEntity
  8
0
  6
CONTINUOUS
 62
     8
100
AcDbVertex
100
AcDb2dVertex
 10
8.2541203287
 20
6.8824642641
 30
0.0
  0
VERTEX
  5
3FC
330
200
100
AcDbEntity
  8
0
  6
CONTINUOUS
 62
     8
100
AcDbVertex
100
AcDb2dVertex
 10
8.2405416272
 20
6.8750768487
 30
0.0
  0
VERTEX
  5
3FD
330
200
100
AcDbEntity
  8
0
  6
CONTINUOUS
 62
     8
100
AcDbVertex
100
AcDb2dVertex
 10
8.2285717473
 20
6.8668141632
 30
0.0
  0
VERTEX
  5
3FE
330
200
100
AcDbEntity
  8
0
  6
CONTINUOUS
 62
     8
100
AcDbVertex
100
AcDb2dVertex
 10
8.2183787199
 20
6.8577921974
 30
0.0
  0
VERTEX
  5
3FF
330
200
100
AcDbEntity
  8
0
  6
CONTINUOUS
 62
     8
100
AcDbVertex
100
AcDb2dVertex
 10
8.2101056328
 20
6.8481375999
 30
0.0
  0
VERTEX
  5
400
330
200
100
AcDbEntity
  8
0
  6
CONTINUOUS
 62
     8
100
AcDbVertex
100
AcDb2dVertex
 10
8.2038686219
 20
6.8379859002
 30
0.0
  0
VERTEX
  5
401
330
200
100
AcDbEntity
  8
0
  6
CONTINUOUS
 62
     8
100
AcDbVertex
100
AcDb2dVertex
 10
8.1997552412
 20
6.8274796059
 30
0.0
  0
VERTEX
  5
402
330
200
100
AcDbEntity
  8
0
  6
CONTINUOUS
 62
     8
100
AcDbVertex
100
AcDb2dVertex
 10
8.1978232335
 20
6.8167662023
 30
0.0
  0
VERTEX
  5
403
330
200
100
AcDbEntity
  8
0
  6
CONTINUOUS
 62
     8
100
AcDbVertex
100
AcDb2dVertex
 10
8.1980997201
 20
6.8059960821
 30
0.0
  0
VERTEX
  5
404
330
200
100
AcDbEntity
  8
0
  6
CONTINUOUS
 62
     8
100
AcDbVertex
100
AcDb2dVertex
 10
8.2005808196
 20
6.7953204342
 30
0.0
  0
VERTEX
  5
405
330
200
100
AcDbEntity
  8
0
  6
CONTINUOUS
 62
     8
100
AcDbVertex
100
AcDb2dVertex
 10
8.2052317029
 20
6.7848891213
 30
0.0
  0
VERTEX
  5
406
330
200
100
AcDbEntity
  8
0
  6
CONTINUOUS
 62
     8
100
AcDbVertex
100
AcDb2dVertex
 10
8.2119870817
 20
6.7748485762
 30
0.0
  0
VERTEX
  5
407
330
200
100
AcDbEntity
  8
0
  6
CONTINUOUS
 62
     8
100
AcDbVertex
100
AcDb2dVertex
 10
8.2207521253
 20
6.765339746
 30
0.0
  0
VERTEX
  5
408
330
200
100
AcDbEntity
  8
0
  6
CONTINUOUS
 62
     8
100
AcDbVertex
100
AcDb2dVertex
 10
8.2314037918
 20
6.756496114
 30
0.0
  0
VERTEX
  5
409
330
200
100
AcDbEntity
  8
0
  6
CONTINUOUS
 62
     8
100
AcDbVertex
100
AcDb2dVertex
 10
8.243792555
 20
6.7484418253
 30
0.0
  0
VERTEX
  5
40A
330
200
100
AcDbEntity
  8
0
  6
CONTINUOUS
 62
     8
100
AcDbVertex
100
AcDb2dVertex
 10
8.243792555
 20
6.7484418253
 30
0.0
  0
SEQEND
  5
40B
330
200
100
AcDbEntity
  8
0
  6
CONTINUOUS
 62
     8
  0
ARC
  5
201
330
1F
100
AcDbEntity
  8
0
  6
CONTINUOUS
 62
     8
100
AcDbCircle
 10
8.2647293535
 20
6.8041185648
 30
0.0
 40
0.0870674715980417
100
AcDbArc
 50
184.9193117152
 51
246.4008292424
  0
ARC
  5
202
330
1F
100
AcDbEntity
  8
0
  6
CONTINUOUS
 62
     8
100
AcDbCircle
 10
8.3560365204
 20
6.9702275158
 30
0.0
 40
0.2763719850140364
100
AcDbArc
 50
242.8386096084
 51
291.2411250043
  0
POLYLINE
  5
203
330
1F
100
AcDbEntity
  8
0
  6
CONTINUOUS
 62
     8
100
AcDb2dPolyline
 66
     1
 10
0.0
 20
0.0
 30
0.0
  0
VERTEX
  5
40C
330
203
100
AcDbEntity
  8
0
  6
CONTINUOUS
 62
     8
100
AcDbVertex
100
AcDb2dVertex
 10
7.1580774185
 20
7.3752118324
 30
0.0
  0
VERTEX
  5
40D
330
203
100
AcDbEntity
  8
0
  6
CONTINUOUS
 62
     8
100
AcDbVertex
100
AcDb2dVertex
 10
7.1456886553
 20
7.3832661211
 30
0.0
  0
VERTEX
  5
40E
330
203
100
AcDbEntity
  8
0
  6
CONTINUOUS
 62
     8
100
AcDbVertex
100
AcDb2dVertex
 10
7.1350369888
 20
7.3921097531
 30
0.0
  0
VERTEX
  5
40F
330
203
100
AcDbEntity
  8
0
  6
CONTINUOUS
 62
     8
100
AcDbVertex
100
AcDb2dVertex
 10
7.1262719452
 20
7.4016185833
 30
0.0
  0
VERTEX
  5
410
330
203
100
AcDbEntity
  8
0
  6
CONTINUOUS
 62
     8
100
AcDbVertex
100
AcDb2dVertex
 10
7.1195165664
 20
7.4116591284
 30
0.0
  0
VERTEX
  5
411
330
203
100
AcDbEntity
  8
0
  6
CONTINUOUS
 62
     8
100
AcDbVertex
100
AcDb2dVertex
 10
7.1148656831
 20
7.4220904413
 30
0.0
  0
VERTEX
  5
412
330
203
100
AcDbEntity
  8
0
  6
CONTINUOUS
 62
     8
100
AcDbVertex
100
AcDb2dVertex
 10
7.1123845836
 20
7.4327660892
 30
0.0
  0
VERTEX
  5
413
330
203
100
AcDbEntity
  8
0
  6
CONTINUOUS
 62
     8
100
AcDbVertex
100
AcDb2dVertex
 10
7.1121080971
 20
7.4435362094
 30
0.0
  0
VERTEX
  5
414
330
203
100
AcDbEntity
  8
0
  6
CONTINUOUS
 62
     8
100
AcDbVertex
100
AcDb2dVertex
 10
7.1140401047
 20
7.454249613
 30
0.0
  0
VERTEX
  5
415
330
203
100
AcDbEntity
  8
0
  6
CONTINUOUS
 62
     8
100
AcDbVertex
100
AcDb2dVertex
 10
7.1181534854
 20
7.4647559073
 30
0.0
  0
VERTEX
  5
416
330
203
100
AcDbEntity
  8
0
  6
CONTINUOUS
 62
     8
100
AcDbVertex
100
AcDb2dVertex
 10
7.1243904963
 20
7.474907607
 30
0.0
  0
VERTEX
  5
417
330
203
100
AcDbEntity
  8
0
  6
CONTINUOUS
 62
     8
100
AcDbVertex
100
AcDb2dVertex
 10
7.1326635835
 20
7.4845622045
 30
0.0
  0
VERTEX
  5
418
330
203
100
AcDbEntity
  8
0
  6
CONTINUOUS
 62
     8
100
AcDbVertex
100
AcDb2dVertex
 10
7.1428566109
 20
7.4935841703
 30
0.0
  0
VERTEX
  5
419
330
203
100
AcDbEntity
  8
0
  6
CONTINUOUS
 62
     8
100
AcDbVertex
100
AcDb2dVertex
 10
7.1548264907
 20
7.5018468558
 30
0.0
  0
VERTEX
  5
41A
330
203
100
AcDbEntity
  8
0
  6
CONTINUOUS
 62
     8
100
AcDbVertex
100
AcDb2dVertex
 10
7.1684051922
 20
7.5092342712
 30
0.0
  0
VERTEX
  5
41B
330
203
100
AcDbEntity
  8
0
  6
CONTINUOUS
 62
     8
100
AcDbVertex
100
AcDb2dVertex
 10
7.1834021001
 20
7.5156427131
 30
0.0
  0
VERTEX
  5
41C
330
203
100
AcDbEntity
  8
0
  6
CONTINUOUS
 62
     8
100
AcDbVertex
100
AcDb2dVertex
 10
7.1996066906
 20
7.5209822212
 30
0.0
  0
VERTEX
  5
41D
330
203
100
AcDbEntity
  8
0
  6
CONTINUOUS
 62
     8
100
AcDbVertex
100
AcDb2dVertex
 10
7.216791487
 20
7.5251778405
 30
0.0
  0
VERTEX
  5
41E
330
203
100
AcDbEntity
  8
0
  6
CONTINUOUS
 62
     8
100
AcDbVertex
100
AcDb2dVertex
 10
7.2347152522
 20
7.5281706737
 30
0.0
  0
VERTEX
  5
41F
330
203
100
AcDbEntity
  8
0
  6
CONTINUOUS
 62
     8
100
AcDbVertex
100
AcDb2dVertex
 10
7.2531263759
 20
7.5299187079
 30
0.0
  0
VERTEX
  5
420
330
203
100
AcDbEntity
  8
0
  6
CONTINUOUS
 62
     8
100
AcDbVertex
100
AcDb2dVertex
 10
7.2717664063
 20
7.5303974046
 30
0.0
  0
VERTEX
  5
421
330
203
100
AcDbEntity
  8
0
  6
CONTINUOUS
 62
     8
100
AcDbVertex
100
AcDb2dVertex
 10
7.2903736782
 20
7.529600044
 30
0.0
  0
VERTEX
  5
422
330
203
100
AcDbEntity
  8
0
  6
CONTINUOUS
 62
     8
100
AcDbVertex
100
AcDb2dVertex
 10
7.3086869863
 20
7.5275378191
 30
0.0
  0
VERTEX
  5
423
330
203
100
AcDbEntity
  8
0
  6
CONTINUOUS
 62
     8
100
AcDbVertex
100
AcDb2dVertex
 10
7.326449252
 20
7.5242396792
 30
0.0
  0
VERTEX
  5
424
330
203
100
AcDbEntity
  8
0
  6
CONTINUOUS
 62
     8
100
AcDbVertex
100
AcDb2dVertex
 10
7.3434111319
 20
7.519751923
 30
0.0
  0
VERTEX
  5
425
330
203
100
AcDbEntity
  8
0
  6
CONTINUOUS
 62
     8
100
AcDbVertex
100
AcDb2dVertex
 10
7.3593345184
 20
7.5141375485
 30
0.0
  0
VERTEX
  5
426
330
203
100
AcDbEntity
  8
0
  6
CONTINUOUS
 62
     8
100
AcDbVertex
100
AcDb2dVertex
 10
7.3739958821
 20
7.5074753695
 30
0.0
  0
VERTEX
  5
427
330
203
100
AcDbEntity
  8
0
  6
CONTINUOUS
 62
     8
100
AcDbVertex
100
AcDb2dVertex
 10
7.3871894095
 20
7.4998589082
 30
0.0
  0
VERTEX
  5
428
330
203
100
AcDbEntity
  8
0
  6
CONTINUOUS
 62
     8
100
AcDbVertex
100
AcDb2dVertex
 10
7.3987298926
 20
7.4913950831
 30
0.0
  0
VERTEX
  5
429
330
203
100
AcDbEntity
  8
0
  6
CONTINUOUS
 62
     8
100
AcDbVertex
100
AcDb2dVertex
 10
7.4084553281
 20
7.4822027077
 30
0.0
  0
VERTEX
  5
42A
330
203
100
AcDbEntity
  8
0
  6
CONTINUOUS
 62
     8
100
AcDbVertex
100
AcDb2dVertex
 10
7.4162291923
 20
7.4724108229
 30
0.0
  0
VERTEX
  5
42B
330
203
100
AcDbEntity
  8
0
  6
CONTINUOUS
 62
     8
100
AcDbVertex
100
AcDb2dVertex
 10
7.4219423572
 20
7.4621568852
 30
0.0
  0
VERTEX
  5
42C
330
203
100
AcDbEntity
  8
0
  6
CONTINUOUS
 62
     8
100
AcDbVertex
100
AcDb2dVertex
 10
7.4255146224
 20
7.4515848375
 30
0.0
  0
VERTEX
  5
42D
330
203
100
AcDbEntity
  8
0
  6
CONTINUOUS
 62
     8
100
AcDbVertex
100
AcDb2dVertex
 10
7.4268958413
 20
7.440843088
 30
0.0
  0
VERTEX
  5
42E
330
203
100
AcDbEntity
  8
0
  6
CONTINUOUS
 62
     8
100
AcDbVertex
100
AcDb2dVertex
 10
7.4265921188
 20
7.4336941657
 30
0.0
  0
SEQEND
  5
42F
330
203
100
AcDbEntity
  8
0
  6
CONTINUOUS
 62
     8
  0
ARC
  5
204
330
1F
100
AcDbEntity
  8
0
  6
CONTINUOUS
 62
     8
100
AcDbCircle
 10
7.2670894665
 20
7.5715971572
 30
0.0
 40
0.224612605143542
100
AcDbArc
 50
240.9656676278
 51
309.3036249832
  0
ARC
  5
205
330
1F
100
AcDbEntity
  8
0
  6
CONTINUOUS
 62
     8
100
AcDbCircle
 10
7.2703353411
 20
7.5974620201
 30
0.0
 40
0.2767917027830616
100
AcDbArc
 50
242.8799317431
 51
291.3528587898
  0
ARC
  5
206
330
1F
100
AcDbEntity
  8
0
  6
CONTINUOUS
 62
     8
100
AcDbCircle
 10
7.1833879917
 20
7.4340915497
 30
0.0
 40
0.0917940357521692
100
AcDbArc
 50
186.9535227039
 51
244.6992440207
  0
ENDSEC
  0
SECTION
  2
OBJECTS
  0
DICTIONARY
  5
C
330
0
100
AcDbDictionary
  3
ACAD_GROUP
350
D
  3
ACAD_LAYOUT
350
1A
  3
ACAD_MLEADERSTYLE
350
209
  3
ACAD_MLINESTYLE
350
17
  3
ACAD_PLOTSETTINGS
350
19
  3
ACAD_SCALELIST
350
6F
  3
ACAD_VISUALSTYLE
350
2A
  3
ACDBVARIABLEDICTIONARY
350
207
1001
ACAD
1000
TREAT_AS_HARD
1070
     0
  0
DICTIONARY
  5
D
102
{ACAD_REACTORS
330
C
102
}
330
C
100
AcDbDictionary
1001
ACAD
1000
TREAT_AS_HARD
1070
     0
  0
DICTIONARY
  5
1A
102
{ACAD_REACTORS
330
C
102
}
330
C
100
AcDbDictionary
1001
ACAD
1000
TREAT_AS_HARD
1070
     0
  0
DICTIONARY
  5
209
102
{ACAD_REACTORS
330
C
102
}
330
C
100
AcDbDictionary
1001
ACAD
1000
TREAT_AS_HARD
1070
     0
  0
DICTIONARY
  5
17
102
{ACAD_REACTORS
330
C
102
}
330
C
100
AcDbDictionary
  3
STANDARD
350
18
1001
ACAD
1000
TREAT_AS_HARD
1070
     0
  0
DICTIONARY
  5
19
102
{ACAD_REACTORS
330
C
102
}
330
C
100
AcDbDictionary
1001
ACAD
1000
TREAT_AS_HARD
1070
     0
  0
DICTIONARY
  5
6F
102
{ACAD_REACTORS
330
C
102
}
330
C
100
AcDbDictionary
  3
A0
350
70
  3
A1
350
71
  3
A2
350
72
  3
A3
350
73
  3
A4
350
74
  3
A5
350
75
  3
A6
350
76
  3
A7
350
77
  3
A8
350
78
  3
A9
350
79
  3
B0
350
7A
  3
B1
350
7B
  3
B2
350
7C
  3
B3
350
7D
  3
B4
350
7E
  3
B5
350
7F
  3
B6
350
80
  3
B7
350
81
  3
B8
350
82
  3
B9
350
83
  3
C0
350
84
  3
C1
350
85
  3
C2
350
86
  3
C3
350
87
  3
C4
350
88
  3
C5
350
89
  3
C6
350
8A
  3
C7
350
8B
  3
C8
350
8C
  3
C9
350
8D
  3
D0
350
8E
  3
D1
350
8F
  3
D2
350
90
1001
ACAD
1000
TREAT_AS_HARD
1070
     0
  0
DICTIONARY
  5
2A
102
{ACAD_REACTORS
330
C
102
}
330
C
100
AcDbDictionary
  3
2DWIREFRAME
350
2F
  3
3D_HIDDEN
350
31
  3
3DWIREFRAME
350
30
  3
BASIC
350
32
  3
BRIGHTEN
350
36
  3
COLORCHANGE
350
3A
  3
CONCEPTUAL
350
34
  3
DIM
350
35
  3
FACEPATTERN
350
39
  3
FLAT
350
2B
  3
FLATWITHEDGES
350
2C
  3
GOURAUD
350
2D
  3
GOURAUDWITHEDGES
350
2E
  3
LINEPATTERN
350
38
  3
REALISTIC
350
33
  3
THICKEN
350
37
1001
ACAD
1000
TREAT_AS_HARD
1070
     0
  0
DICTIONARY
  5
207
102
{ACAD_REACTORS
330
C
102
}
330
C
100
AcDbDictionary
  3
CANNOSCALE
350
20A
  3
DIMASSOC
350
20B
  3
HIDETEXT
350
20C
1001
ACAD
1000
TREAT_AS_HARD
1070
     0
  0
MLINESTYLE
  5
18
102
{ACAD_REACTORS
330
17
102
}
330
17
100
AcDbMlineStyle
  2
Standard
 70
     0
  3

 62
   256
 51
90.0
 52
90.0
 71
     2
 49
0.5
 62
   256
  6
BYLAYER
 49
-0.5
 62
   256
  6
BYLAYER
  0
ACAD_PROXY_OBJECT
  5
70
102
{ACAD_REACTORS
330
6F
102
}
330
6F
100
AcDbZombieObject
 90
      499
 91
      502
 93
       41
310
903313A31580
  0
ACAD_PROXY_OBJECT
  5
71
102
{ACAD_REACTORS
330
6F
102
}
330
6F
100
AcDbZombieObject
 90
      499
 91
      502
 93
      105
310
903313A324000000000000004000
  0
ACAD_PROXY_OBJECT
  5
72
102
{ACAD_REACTORS
330
6F
102
}
330
6F
100
AcDbZombieObject
 90
      499
 91
      502
 93
      105
310
903313A344000000000000104000
  0
ACAD_PROXY_OBJECT
  5
73
102
{ACAD_REACTORS
330
6F
102
}
330
6F
100
AcDbZombieObject
 90
      499
 91
      502
 93
      105
310
903313A354000000000000144000
  0
ACAD_PROXY_OBJECT
  5
74
102
{ACAD_REACTORS
330
6F
102
}
330
6F
100
AcDbZombieObject
 90
      499
 91
      502
 93
      105
310
903313A384000000000000204000
  0
ACAD_PROXY_OBJECT
  5
75
102
{ACAD_REACTORS
330
6F
102
}
330
6F
100
AcDbZombieObject
 90
      499
 91
      502
 93
      113
310
904313A31304000000000000244000
  0
ACAD_PROXY_OBJECT
  5
76
102
{ACAD_REACTORS
330
6F
102
}
330
6F
100
AcDbZombieObject
 90
      499
 91
      502
 93
      113
310
904313A31364000000000000304000
  0
ACAD_PROXY_OBJECT
  5
77
102
{ACAD_REACTORS
330
6F
102
}
330
6F
100
AcDbZombieObject
 90
      499
 91
      502
 93
      113
310
904313A32304000000000000344000
  0
ACAD_PROXY_OBJECT
  5
78
102
{ACAD_REACTORS
330
6F
102
}
330
6F
100
AcDbZombieObject
 90
      499
 91
      502
 93
      113
310
904313A333040000000000003E4000
  0
ACAD_PROXY_OBJECT
  5
79
102
{ACAD_REACTORS
330
6F
102
}
330
6F
100
AcDbZombieObject
 90
      499
 91
      502
 93
      113
310
904313A34304000000000000444000
  0
ACAD_PROXY_OBJECT
  5
7A
102
{ACAD_REACTORS
330
6F
102
}
330
6F
100
AcDbZombieObject
 90
      499
 91
      502
 93
      113
310
904313A35304000000000000494000
  0
ACAD_PROXY_OBJECT
  5
7B
102
{ACAD_REACTORS
330
6F
102
}
330
6F
100
AcDbZombieObject
 90
      499
 91
      502
 93
      121
310
905313A3130304000000000000594000
  0
ACAD_PROXY_OBJECT
  5
7C
102
{ACAD_REACTORS
330
6F
102
}
330
6F
100
AcDbZombieObject
 90
      499
 91
      502
 93
      105
310
903323A310000000000000010100
  0
ACAD_PROXY_OBJECT
  5
7D
102
{ACAD_REACTORS
330
6F
102
}
330
6F
100
AcDbZombieObject
 90
      499
 91
      502
 93
      105
310
903343A310000000000000410100
  0
ACAD_PROXY_OBJECT
  5
7E
102
{ACAD_REACTORS
330
6F
102
}
330
6F
100
AcDbZombieObject
 90
      499
 91
      502
 93
      105
310
903383A310000000000000810100
  0
ACAD_PROXY_OBJECT
  5
7F
102
{ACAD_REACTORS
330
6F
102
}
330
6F
100
AcDbZombieObject
 90
      499
 91
      502
 93
      113
310
90431303A310000000000000910100
  0
ACAD_PROXY_OBJECT
  5
80
102
{ACAD_REACTORS
330
6F
102
}
330
6F
100
AcDbZombieObject
 90
      499
 91
      502
 93
      121
310
9053130303A310000000000001650100
  0
ACAD_PROXY_OBJECT
  5
81
102
{ACAD_REACTORS
330
6F
102
}
330
6F
100
AcDbZombieObject
 90
      499
 91
      502
 93
      257
310
90E312F31323822203D2031272D3022000000000000200FC000000000000284000
  0
ACAD_PROXY_OBJECT
  5
82
102
{ACAD_REACTORS
330
6F
102
}
330
6F
100
AcDbZombieObject
 90
      499
 91
      502
 93
      249
310
90D312F363422203D2031272D3022000000000000240FC000000000000284000
  0
ACAD_PROXY_OBJECT
  5
83
102
{ACAD_REACTORS
330
6F
102
}
330
6F
100
AcDbZombieObject
 90
      499
 91
      502
 93
      249
310
90D312F333222203D2031272D3022000000000000280FC000000000000284000
  0
ACAD_PROXY_OBJECT
  5
84
102
{ACAD_REACTORS
330
6F
102
}
330
6F
100
AcDbZombieObject
 90
      499
 91
      502
 93
      249
310
90D312F313622203D2031272D30220000000000002C0FC000000000000284000
  0
ACAD_PROXY_OBJECT
  5
85
102
{ACAD_REACTORS
330
6F
102
}
330
6F
100
AcDbZombieObject
 90
      499
 91
      502
 93
      249
310
90D332F333222203D2031272D30220000000000002E0FC000000000000284000
  0
ACAD_PROXY_OBJECT
  5
86
102
{ACAD_REACTORS
330
6F
102
}
330
6F
100
AcDbZombieObject
 90
      499
 91
      502
 93
      241
310
90C312F3822203D2031272D3022000000000000300FC000000000000284000
  0
ACAD_PROXY_OBJECT
  5
87
102
{ACAD_REACTORS
330
6F
102
}
330
6F
100
AcDbZombieObject
 90
      499
 91
      502
 93
      249
310
90D332F313622203D2031272D3022000000000000320FC000000000000284000
  0
ACAD_PROXY_OBJECT
  5
88
102
{ACAD_REACTORS
330
6F
102
}
330
6F
100
AcDbZombieObject
 90
      499
 91
      502
 93
      241
310
90C312F3422203D2031272D3022000000000000340FC000000000000284000
  0
ACAD_PROXY_OBJECT
  5
89
102
{ACAD_REACTORS
330
6F
102
}
330
6F
100
AcDbZombieObject
 90
      499
 91
      502
 93
      241
310
90C332F3822203D2031272D3022000000000000360FC000000000000284000
  0
ACAD_PROXY_OBJECT
  5
8A
102
{ACAD_REACTORS
330
6F
102
}
330
6F
100
AcDbZombieObject
 90
      499
 91
      502
 93
      241
310
90C312F3222203D2031272D3022000000000000380FC000000000000284000
  0
ACAD_PROXY_OBJECT
  5
8B
102
{ACAD_REACTORS
330
6F
102
}
330
6F
100
AcDbZombieObject
 90
      499
 91
      502
 93
      241
310
90C332F3422203D2031272D30220000000000003A0FC000000000000284000
  0
ACAD_PROXY_OBJECT
  5
8C
102
{ACAD_REACTORS
330
6F
102
}
330
6F
100
AcDbZombieObject
 90
      499
 91
      502
 93
      161
310
90A3122203D2031272D30224000000000000284000
  0
ACAD_PROXY_OBJECT
  5
8D
102
{ACAD_REACTORS
330
6F
102
}
330
6F
100
AcDbZombieObject
 90
      499
 91
      502
 93
      257
310
90E312D312F3222203D2031272D30220000000000003E0FC000000000000284000
  0
ACAD_PROXY_OBJECT
  5
8E
102
{ACAD_REACTORS
330
6F
102
}
330
6F
100
AcDbZombieObject
 90
      499
 91
      502
 93
      225
310
90A3322203D2031272D302200000000000002100000000000000284000
  0
ACAD_PROXY_OBJECT
  5
8F
102
{ACAD_REACTORS
330
6F
102
}
330
6F
100
AcDbZombieObject
 90
      499
 91
      502
 93
      225
310
90A3622203D2031272D302200000000000006100000000000000284000
  0
ACAD_PROXY_OBJECT
  5
90
102
{ACAD_REACTORS
330
6F
102
}
330
6F
100
AcDbZombieObject
 90
      499
 91
      502
 93
      249
310
90D31272D3022203D2031272D30220000000000000A100000000000000284000
  0
ACAD_PROXY_OBJECT
  5
2F
102
{ACAD_REACTORS
330
2A
102
}
330
2A
100
AcDbZombieObject
 90
      499
 91
      501
 93
      436
310
42CC9915DA5C99599C985B595049028333333333333E3BF0000000000000FB0107901411070040501600405405064090741402480A0340
1001
ACAD
1000
AcDbSavedByObjectVersion
1070
     0
  0
ACAD_PROXY_OBJECT
  5
31
102
{ACAD_REACTORS
330
2A
102
}
330
2A
100
AcDbZombieObject
 90
      499
 91
      501
 93
      500
310
424CD108121A5919195B90640502408333333333333E3BF0000000000000FB01079024090700405020000000000001110200405405064090740C02480A0340
1001
ACAD
1000
AcDbSavedByObjectVersion
1070
     0
  0
ACAD_PROXY_OBJECT
  5
30
102
{ACAD_REACTORS
330
2A
102
}
330
2A
100
AcDbZombieObject
 90
      499
 91
      501
 93
      436
310
42CCD915DA5C99599C985B595059028333333333333E3BF0000000000000FB0107901411070040501600405405064090741402480A0340
1001
ACAD
1000
AcDbSavedByObjectVersion
1070
     0
  0
ACAD_PROXY_OBJECT
  5
32
102
{ACAD_REACTORS
330
2A
102
}
330
2A
100
AcDbZombieObject
 90
      499
 91
      501
 93
      388
310
4150985CDA58D07406404333333333333E3BF0000000000000FB0107A41107004050150841D405064090741402480A0350
1001
ACAD
1000
AcDbSavedByObjectVersion
1070
     0
  0
ACAD_PROXY_OBJECT
  5
36
102
{ACAD_REACTORS
330
2A
102
}
330
2A
100
AcDbZombieObject
 90
      499
 91
      501
 93
      428
310
42109C9A59DA1D195B90C409028333333333333E3BF0000000000000FB010790141107004050150841D405064090741402480A029950
1001
ACAD
1000
AcDbSavedByObjectVersion
1070
     0
  0
ACAD_PROXY_OBJECT
  5
3A
102
{ACAD_REACTORS
330
2A
102
}
330
2A
100
AcDbZombieObject
 90
      499
 91
      501
 93
      452
310
42D0DBDB1BDC90DA185B99D95104090240C333333333333E3BF0000000000000FB0108901411070040501508421405064090741402480A0350
1001
ACAD
1000
AcDbSavedByObjectVersion
1070
     0
  0
ACAD_PROXY_OBJECT
  5
34
102
{ACAD_REACTORS
330
2A
102
}
330
2A
100
AcDbZombieObject
 90
      499
 91
      501
 93
      500
310
4290DBDB98D95C1D1D585B10940D028333333333333E3BF0000000000000FB0107902409070040501000000000000111010841D405064090740C02480A0340
1001
ACAD
1000
AcDbSavedByObjectVersion
1070
     0
  0
ACAD_PROXY_OBJECT
  5
35
102
{ACAD_REACTORS
330
2A
102
}
330
2A
100
AcDbZombieObject
 90
      499
 91
      501
 93
      412
310
40D11A5B50B409028333333333333E3BF0000000000000FB010790141107004050150841D405064090741402480A02677FFFFFD0
1001
ACAD
1000
AcDbSavedByObjectVersion
1070
     0
  0
ACAD_PROXY_OBJECT
  5
39
102
{ACAD_REACTORS
330
2A
102
}
330
2A
100
AcDbZombieObject
 90
      499
 91
      501
 93
      444
310
42D19858D95C185D1D195C9B90F409028333333333333E3BF0000000000000FB010790141107004050150841D405064090741402480A0350
1001
ACAD
1000
AcDbSavedByObjectVersion
1070
     0
  0
ACAD_PROXY_OBJECT
  5
2B
102
{ACAD_REACTORS
330
2A
102
}
330
2A
100
AcDbZombieObject
 90
      499
 91
      501
 93
      388
310
41119B185D240901404333333333333E3BF0000000000000F9010740A41107004050150841D405064090741402480A1B50
1001
ACAD
1000
AcDbSavedByObjectVersion
1070
     0
  0
ACAD_PROXY_OBJECT
  5
2C
102
{ACAD_REACTORS
330
2A
102
}
330
2A
100
AcDbZombieObject
 90
      499
 91
      501
 93
      476
310
43519B185D15DA5D1A115919D95CD0140901404333333333333E3BF0000000000000F9010740901411070040501600405405064090741402480A1B50
1001
ACAD
1000
AcDbSavedByObjectVersion
1070
     0
  0
ACAD_PROXY_OBJECT
  5
2D
102
{ACAD_REACTORS
330
2A
102
}
330
2A
100
AcDbZombieObject
 90
      499
 91
      501
 93
      412
310
41D1DBDD5C985D5910240902404333333333333E3BF0000000000000F9010740A411070040501641D405064090741402480A1B50
1001
ACAD
1000
AcDbSavedByObjectVersion
1070
     0
  0
ACAD_PROXY_OBJECT
  5
2E
102
{ACAD_REACTORS
330
2A
102
}
330
2A
100
AcDbZombieObject
 90
      499
 91
      501
 93
      500
310
4411DBDD5C985D5915DA5D1A115919D95CD0340902404333333333333E3BF0000000000000F9010740901411070040501600405405064090741402480A1B50
1001
ACAD
1000
AcDbSavedByObjectVersion
1070
     0
  0
ACAD_PROXY_OBJECT
  5
38
102
{ACAD_REACTORS
330
2A
102
}
330
2A
100
AcDbZombieObject
 90
      499
 91
      501
 93
      444
310
42D31A5B995C185D1D195C9B90E409028333333333333E3BF0000000000000FB010790141107004050750841D405064090741402483A0350
1001
ACAD
1000
AcDbSavedByObjectVersion
1070
     0
  0
ACAD_PROXY_OBJECT
  5
33
102
{ACAD_REACTORS
330
2A
102
}
330
2A
100
AcDbZombieObject
 90
      499
 91
      501
 93
      420
310
425499585B1A5CDD1A58D08409028333333333333E3BF0000000000000FB01079019070040501508421405064090741402480A1B40
1001
ACAD
1000
AcDbSavedByObjectVersion
1070
     0
  0
ACAD_PROXY_OBJECT
  5
37
102
{ACAD_REACTORS
330
2A
102
}
330
2A
100
AcDbZombieObject
 90
      499
 91
      501
 93
      412
310
41D51A1A58DAD95B90D409028333333333333E3BF0000000000000FB010790141107004050150C41D405064090741402480A0350
1001
ACAD
1000
AcDbSavedByObjectVersion
1070
     0
  0
DICTIONARYVAR
  5
20A
102
{ACAD_REACTORS
330
207
102
}
330
207
100
DictionaryVariables
280
     0
  1
1:1
  0
DICTIONARYVAR
  5
20B
102
{ACAD_REACTORS
330
207
102
}
330
207
100
DictionaryVariables
280
     0
  1
2
  0
DICTIONARYVAR
  5
20C
102
{ACAD_REACTORS
330
207
102
}
330
207
100
DictionaryVariables
280
     0
  1
1
  0
ENDSEC
  0
EOF
