  0
SECTION
  2
HEADER
  9
$ACADVER
  1
AC1015
  9
$ACADMAINTVER
 70
     6
  9
$DWGCODEPAGE
  3
ANSI_1252
  9
$INSBASE
 10
0.0
 20
0.0
 30
0.0
  9
$EXTMIN
 10
0.0
 20
0.0
 30
0.0
  9
$EXTMAX
 10
17.0
 20
11.0
 30
0.0
  9
$LIMMIN
 10
0.0
 20
0.0
  9
$LIMMAX
 10
17.0
 20
11.0
  9
$ORTHOMODE
 70
     0
  9
$REGENMODE
 70
     1
  9
$FILLMODE
 70
     1
  9
$QTEXTMODE
 70
     0
  9
$MIRRTEXT
 70
     1
  9
$LTSCALE
 40
1.0
  9
$ATTMODE
 70
     1
  9
$TEXTSIZE
 40
0.125
  9
$TRACEWID
 40
0.05
  9
$TEXTSTYLE
  7
Standard
  9
$CLAYER
  8
0
  9
$CELTYPE
  6
ByLayer
  9
$CECOLOR
 62
   256
  9
$CELTSCALE
 40
1.0
  9
$DISPSILH
 70
     0
  9
$DIMSCALE
 40
1.0
  9
$DIMASZ
 40
0.13
  9
$DIMEXO
 40
0.05
  9
$DIMDLI
 40
0.38
  9
$DIMRND
 40
0.0
  9
$DIMDLE
 40
0.0
  9
$DIMEXE
 40
0.125
  9
$DIMTP
 40
0.0
  9
$DIMTM
 40
0.0
  9
$DIMTXT
 40
0.125
  9
$DIMCEN
 40
0.09
  9
$DIMTSZ
 40
0.0
  9
$DIMTOL
 70
     0
  9
$DIMLIM
 70
     0
  9
$DIMTIH
 70
     1
  9
$DIMTOH
 70
     1
  9
$DIMSE1
 70
     0
  9
$DIMSE2
 70
     0
  9
$DIMTAD
 70
     0
  9
$DIMZIN
 70
     0
  9
$DIMBLK
  1

  9
$DIMASO
 70
     1
  9
$DIMSHO
 70
     1
  9
$DIMPOST
  1

  9
$DIMAPOST
  1

  9
$DIMALT
 70
     0
  9
$DIMALTD
 70
     2
  9
$DIMALTF
 40
25.4
  9
$DIMLFAC
 40
2.0
  9
$DIMTOFL
 70
     0
  9
$DIMTVP
 40
0.0
  9
$DIMTIX
 70
     0
  9
$DIMSOXD
 70
     0
  9
$DIMSAH
 70
     0
  9
$DIMBLK1
  1

  9
$DIMBLK2
  1

  9
$DIMSTYLE
  2
Standard
  9
$DIMCLRD
 70
     0
  9
$DIMCLRE
 70
     0
  9
$DIMCLRT
 70
     0
  9
$DIMTFAC
 40
1.0
  9
$DIMGAP
 40
0.06
  9
$DIMJUST
 70
     0
  9
$DIMSD1
 70
     0
  9
$DIMSD2
 70
     0
  9
$DIMTOLJ
 70
     1
  9
$DIMTZIN
 70
     0
  9
$DIMALTZ
 70
     0
  9
$DIMALTTZ
 70
     0
  9
$DIMUPT
 70
     0
  9
$DIMDEC
 70
     3
  9
$DIMTDEC
 70
     3
  9
$DIMALTU
 70
     2
  9
$DIMALTTD
 70
     2
  9
$DIMTXSTY
  7
Standard
  9
$DIMAUNIT
 70
     0
  9
$DIMADEC
 70
     2
  9
$DIMALTRND
 40
0.0
  9
$DIMAZIN
 70
     0
  9
$DIMDSEP
 70
    46
  9
$DIMATFIT
 70
     3
  9
$DIMFRAC
 70
     0
  9
$DIMLDRBLK
  1

  9
$DIMLUNIT
 70
     2
  9
$DIMLWD
 70
    -2
  9
$DIMLWE
 70
    -2
  9
$DIMTMOVE
 70
     0
  9
$LUNITS
 70
     2
  9
$LUPREC
 70
     2
  9
$SKETCHINC
 40
0.1
  9
$FILLETRAD
 40
0.5
  9
$AUNITS
 70
     0
  9
$AUPREC
 70
     2
  9
$MENU
  1
.
  9
$ELEVATION
 40
0.0
  9
$PELEVATION
 40
0.0
  9
$THICKNESS
 40
0.0
  9
$LIMCHECK
 70
     0
  9
$CHAMFERA
 40
0.5
  9
$CHAMFERB
 40
0.5
  9
$CHAMFERC
 40
1.0
  9
$CHAMFERD
 40
0.0
  9
$SKPOLY
 70
     0
  9
$TDCREATE
 40
2455506.247039768
  9
$TDUCREATE
 40
2455506.455373102
  9
$TDUPDATE
 40
2455506.24703978
  9
$TDUUPDATE
 40
2455506.455373114
  9
$TDINDWG
 40
0.0000000116
  9
$TDUSRTIMER
 40
0.0000000116
  9
$USRTIMER
 70
     1
  9
$ANGBASE
 50
0.0
  9
$ANGDIR
 70
     0
  9
$PDMODE
 70
     0
  9
$PDSIZE
 40
-1.0
  9
$PLINEWID
 40
0.0
  9
$SPLFRAME
 70
     0
  9
$SPLINETYPE
 70
     6
  9
$SPLINESEGS
 70
     8
  9
$HANDSEED
  5
357
  9
$SURFTAB1
 70
     6
  9
$SURFTAB2
 70
     6
  9
$SURFTYPE
 70
     6
  9
$SURFU
 70
     6
  9
$SURFV
 70
     6
  9
$UCSBASE
  2

  9
$UCSNAME
  2

  9
$UCSORG
 10
0.0
 20
0.0
 30
0.0
  9
$UCSXDIR
 10
1.0
 20
0.0
 30
0.0
  9
$UCSYDIR
 10
0.0
 20
1.0
 30
0.0
  9
$UCSORTHOREF
  2

  9
$UCSORTHOVIEW
 70
     0
  9
$UCSORGTOP
 10
0.0
 20
0.0
 30
0.0
  9
$UCSORGBOTTOM
 10
0.0
 20
0.0
 30
0.0
  9
$UCSORGLEFT
 10
0.0
 20
0.0
 30
0.0
  9
$UCSORGRIGHT
 10
0.0
 20
0.0
 30
0.0
  9
$UCSORGFRONT
 10
0.0
 20
0.0
 30
0.0
  9
$UCSORGBACK
 10
0.0
 20
0.0
 30
0.0
  9
$PUCSBASE
  2

  9
$PUCSNAME
  2

  9
$PUCSORG
 10
0.0
 20
0.0
 30
0.0
  9
$PUCSXDIR
 10
1.0
 20
0.0
 30
0.0
  9
$PUCSYDIR
 10
0.0
 20
1.0
 30
0.0
  9
$PUCSORTHOREF
  2

  9
$PUCSORTHOVIEW
 70
     0
  9
$PUCSORGTOP
 10
0.0
 20
0.0
 30
0.0
  9
$PUCSORGBOTTOM
 10
0.0
 20
0.0
 30
0.0
  9
$PUCSORGLEFT
 10
0.0
 20
0.0
 30
0.0
  9
$PUCSORGRIGHT
 10
0.0
 20
0.0
 30
0.0
  9
$PUCSORGFRONT
 10
0.0
 20
0.0
 30
0.0
  9
$PUCSORGBACK
 10
0.0
 20
0.0
 30
0.0
  9
$USERI1
 70
     0
  9
$USERI2
 70
     0
  9
$USERI3
 70
     0
  9
$USERI4
 70
     0
  9
$USERI5
 70
     0
  9
$USERR1
 40
0.0
  9
$USERR2
 40
0.0
  9
$USERR3
 40
0.0
  9
$USERR4
 40
0.0
  9
$USERR5
 40
0.0
  9
$WORLDVIEW
 70
     1
  9
$SHADEDGE
 70
     3
  9
$SHADEDIF
 70
    70
  9
$TILEMODE
 70
     1
  9
$MAXACTVP
 70
    64
  9
$PINSBASE
 10
0.0
 20
0.0
 30
0.0
  9
$PLIMCHECK
 70
     0
  9
$PEXTMIN
 10
1.0000000000E+20
 20
1.0000000000E+20
 30
1.0000000000E+20
  9
$PEXTMAX
 10
-1.0000000000E+20
 20
-1.0000000000E+20
 30
-1.0000000000E+20
  9
$PLIMMIN
 10
0.0
 20
0.0
  9
$PLIMMAX
 10
12.0
 20
9.0
  9
$UNITMODE
 70
     0
  9
$VISRETAIN
 70
     1
  9
$PLINEGEN
 70
     0
  9
$PSLTSCALE
 70
     1
  9
$TREEDEPTH
 70
  3020
  9
$CMLSTYLE
  2
Standard
  9
$CMLJUST
 70
     0
  9
$CMLSCALE
 40
1.0
  9
$PROXYGRAPHICS
 70
     1
  9
$MEASUREMENT
 70
     0
  9
$CELWEIGHT
370
    -1
  9
$ENDCAPS
280
     0
  9
$JOINSTYLE
280
     0
  9
$LWDISPLAY
290
     1
  9
$INSUNITS
 70
     1
  9
$HYPERLINKBASE
  1

  9
$STYLESHEET
  1

  9
$XEDIT
290
     1
  9
$CEPSNTYPE
380
     0
  9
$PSTYLEMODE
290
     1
  9
$FINGERPRINTGUID
  2
{F3F02AF7-FA0E-40BC-89BB-CCB5C84B8550}
  9
$VERSIONGUID
  2
{FAEB1C32-E019-11D5-929B-00C0DF256EC4}
  9
$EXTNAMES
290
     1
  9
$PSVPSCALE
 40
0.0
  9
$OLESTARTUP
290
     0
  0
ENDSEC
  0
SECTION
  2
CLASSES
  0
CLASS
  1
ACDBDICTIONARYWDFLT
  2
AcDbDictionaryWithDefault
  3
ObjectDBX Classes
 90
        0
280
     0
281
     0
  0
CLASS
  1
VISUALSTYLE
  2
AcDbVisualStyle
  3
ObjectDBX Classes
 90
     4095
280
     0
281
     0
  0
CLASS
  1
SCALE
  2
AcDbScale
  3
ObjectDBX Classes
 90
     1153
280
     0
281
     0
  0
CLASS
  1
DICTIONARYVAR
  2
AcDbDictionaryVar
  3
ObjectDBX Classes
 90
        0
280
     0
281
     0
  0
CLASS
  1
ACDBPLACEHOLDER
  2
AcDbPlaceHolder
  3
ObjectDBX Classes
 90
        0
280
     0
281
     0
  0
CLASS
  1
LAYOUT
  2
AcDbLayout
  3
ObjectDBX Classes
 90
        0
280
     0
281
     0
  0
ENDSEC
  0
SECTION
  2
TABLES
  0
TABLE
  2
VPORT
  5
8
330
0
100
AcDbSymbolTable
 70
     1
  0
VPORT
  5
29
330
8
100
AcDbSymbolTableRecord
100
AcDbViewportTableRecord
  2
*Active
 70
     0
 10
0.0
 20
0.0
 11
1.0
 21
1.0
 12
8.5
 22
5.5
 13
0.0
 23
0.0
 14
0.5
 24
0.5
 15
0.5
 25
0.5
 16
0.0
 26
0.0
 36
1.0
 17
0.0
 27
0.0
 37
0.0
 40
11.0
 41
1.5454545455
 42
50.0
 43
0.0
 44
0.0
 50
0.0
 51
0.0
 71
     0
 72
  2000
 73
     1
 74
     3
 75
     0
 76
     0
 77
     0
 78
     0
281
     0
 65
     1
110
0.0
120
0.0
130
0.0
111
1.0
121
0.0
131
0.0
112
0.0
122
1.0
132
0.0
 79
     0
146
0.0
  0
ENDTAB
  0
TABLE
  2
LTYPE
  5
5
330
0
100
AcDbSymbolTable
 70
     6
  0
LTYPE
  5
14
330
5
100
AcDbSymbolTableRecord
100
AcDbLinetypeTableRecord
  2
ByBlock
 70
     0
  3

 72
    65
 73
     0
 40
0.0
  0
LTYPE
  5
15
330
5
100
AcDbSymbolTableRecord
100
AcDbLinetypeTableRecord
  2
ByLayer
 70
     0
  3

 72
    65
 73
     0
 40
0.0
  0
LTYPE
  5
16
330
5
100
AcDbSymbolTableRecord
100
AcDbLinetypeTableRecord
  2
Continuous
 70
     0
  3
Solid line
 72
    65
 73
     0
 40
0.0
  0
LTYPE
  5
3B
330
5
100
AcDbSymbolTableRecord
100
AcDbLinetypeTableRecord
  2
HIDDEN
 70
     0
  3
Hidden __ __ __ __ __ __ __ __ __ __ __ __ __ __
 72
    65
 73
     2
 40
0.075
 49
0.05
 74
     0
 49
-0.025
 74
     0
  0
LTYPE
  5
3C
330
5
100
AcDbSymbolTableRecord
100
AcDbLinetypeTableRecord
  2
PHANTOM
 70
     0
  3
Phantom ______  __  __  ______  __  __  ______
 72
    65
 73
     6
 40
0.5
 49
0.25
 74
     0
 49
-0.05
 74
     0
 49
0.05
 74
     0
 49
-0.05
 74
     0
 49
0.05
 74
     0
 49
-0.05
 74
     0
  0
LTYPE
  5
3D
330
5
100
AcDbSymbolTableRecord
100
AcDbLinetypeTableRecord
  2
CENTER
 70
     0
  3
Center ____ _ ____ _ ____ _ ____ _ ____ _ ____
 72
    65
 73
     4
 40
0.4
 49
0.25
 74
     0
 49
-0.05
 74
     0
 49
0.05
 74
     0
 49
-0.05
 74
     0
  0
LTYPE
  5
3E
330
5
100
AcDbSymbolTableRecord
100
AcDbLinetypeTableRecord
  2
CENTERX2
 70
     0
  3
Center (2x) ________  __  ________  __  _____
 72
    65
 73
     4
 40
0.8
 49
0.5
 74
     0
 49
-0.1
 74
     0
 49
0.1
 74
     0
 49
-0.1
 74
     0
  0
LTYPE
  5
3F
330
5
100
AcDbSymbolTableRecord
100
AcDbLinetypeTableRecord
  2
DOT2
 70
     0
  3
Dot (.5x) ........................................
 72
    65
 73
     2
 40
0.025
 49
0.0
 74
     0
 49
-0.025
 74
     0
  0
ENDTAB
  0
TABLE
  2
LAYER
  5
2
330
0
100
AcDbSymbolTable
 70
     2
  0
LAYER
  5
10
330
2
100
AcDbSymbolTableRecord
100
AcDbLayerTableRecord
  2
0
 70
     0
 62
     7
  6
Continuous
370
    -3
390
F
  0
LAYER
  5
40
330
2
100
AcDbSymbolTableRecord
100
AcDbLayerTableRecord
  2
FORMAT
 70
     0
 62
     7
  6
Continuous
370
    -3
390
F
  0
ENDTAB
  0
TABLE
  2
STYLE
  5
3
330
0
100
AcDbSymbolTable
 70
     4
  0
STYLE
  5
11
330
3
100
AcDbSymbolTableRecord
100
AcDbTextStyleTableRecord
  2
Standard
 70
     0
 40
0.0
 41
1.0
 50
0.0
 71
     0
 42
0.2
  3
txt
  4

  0
STYLE
  5
8D
330
3
100
AcDbSymbolTableRecord
100
AcDbTextStyleTableRecord
  2
SLDTEXTSTYLE0
 70
     0
 40
0.0
 41
0.75
 50
0.0
 71
     0
 42
0.2
  3
TXT
  4

  0
STYLE
  5
FA
330
3
100
AcDbSymbolTableRecord
100
AcDbTextStyleTableRecord
  2
SLDTEXTSTYLE1
 70
     0
 40
0.0
 41
0.6944444444
 50
0.0
 71
     0
 42
0.2
  3
TXT
  4

  0
STYLE
  5
100
330
3
100
AcDbSymbolTableRecord
100
AcDbTextStyleTableRecord
  2
SLDTEXTSTYLE2
 70
     0
 40
0.0
 41
0.6875
 50
0.0
 71
     0
 42
0.2
  3
TXT
  4

  0
ENDTAB
  0
TABLE
  2
VIEW
  5
6
330
0
100
AcDbSymbolTable
 70
     0
  0
ENDTAB
  0
TABLE
  2
UCS
  5
7
330
0
100
AcDbSymbolTable
 70
     0
  0
ENDTAB
  0
TABLE
  2
APPID
  5
9
330
0
100
AcDbSymbolTable
 70
     1
  0
APPID
  5
12
330
9
100
AcDbSymbolTableRecord
100
AcDbRegAppTableRecord
  2
ACAD
 70
     0
  0
ENDTAB
  0
TABLE
  2
DIMSTYLE
  5
A
330
0
100
AcDbSymbolTable
 70
     2
100
AcDbDimStyleTable
  0
DIMSTYLE
105
27
330
A
100
AcDbSymbolTableRecord
100
AcDbDimStyleTableRecord
  2
Standard
 70
     0
340
11
  0
DIMSTYLE
105
166
330
A
100
AcDbSymbolTableRecord
100
AcDbDimStyleTableRecord
  2
SLDDIMSTYLE0
 70
     0
 41
0.13
 44
0.0
 45
0.000000001
140
0.0
146
0.13
147
0.0
173
     1
271
     0
272
     0
340
11
  0
ENDTAB
  0
TABLE
  2
BLOCK_RECORD
  5
1
330
0
100
AcDbSymbolTable
 70
    14
  0
BLOCK_RECORD
  5
1F
330
1
100
AcDbSymbolTableRecord
100
AcDbBlockTableRecord
  2
*Model_Space
340
22
  0
BLOCK_RECORD
  5
1B
330
1
100
AcDbSymbolTableRecord
100
AcDbBlockTableRecord
  2
*Paper_Space
340
1E
  0
BLOCK_RECORD
  5
23
330
1
100
AcDbSymbolTableRecord
100
AcDbBlockTableRecord
  2
*Paper_Space0
340
26
  0
BLOCK_RECORD
  5
C8
330
1
100
AcDbSymbolTableRecord
100
AcDbBlockTableRecord
  2
SW_NOTE_0
340
0
102
{BLKREFS
331
D2
102
}
  0
BLOCK_RECORD
  5
D7
330
1
100
AcDbSymbolTableRecord
100
AcDbBlockTableRecord
  2
SW_NOTE_1
340
0
102
{BLKREFS
331
E6
102
}
  0
BLOCK_RECORD
  5
E7
330
1
100
AcDbSymbolTableRecord
100
AcDbBlockTableRecord
  2
SW_NOTE_2
340
0
102
{BLKREFS
331
EC
102
}
  0
BLOCK_RECORD
  5
168
330
1
100
AcDbSymbolTableRecord
100
AcDbBlockTableRecord
  2
SW_CENTERMARKSYMBOL_0
340
0
102
{BLKREFS
331
173
102
}
  0
BLOCK_RECORD
  5
174
330
1
100
AcDbSymbolTableRecord
100
AcDbBlockTableRecord
  2
SW_CENTERMARKSYMBOL_1
340
0
102
{BLKREFS
331
17F
102
}
  0
BLOCK_RECORD
  5
180
330
1
100
AcDbSymbolTableRecord
100
AcDbBlockTableRecord
  2
SW_CENTERMARKSYMBOL_2
340
0
102
{BLKREFS
331
18B
102
}
  0
BLOCK_RECORD
  5
18C
330
1
100
AcDbSymbolTableRecord
100
AcDbBlockTableRecord
  2
SW_CENTERMARKSYMBOL_3
340
0
102
{BLKREFS
331
197
102
}
  0
BLOCK_RECORD
  5
198
330
1
100
AcDbSymbolTableRecord
100
AcDbBlockTableRecord
  2
SW_CENTERMARKSYMBOL_4
340
0
102
{BLKREFS
331
1A3
102
}
  0
BLOCK_RECORD
  5
1A4
330
1
100
AcDbSymbolTableRecord
100
AcDbBlockTableRecord
  2
SW_CENTERMARKSYMBOL_5
340
0
102
{BLKREFS
331
1AF
102
}
  0
BLOCK_RECORD
  5
1B0
330
1
100
AcDbSymbolTableRecord
100
AcDbBlockTableRecord
  2
SW_CENTERMARKSYMBOL_6
340
0
102
{BLKREFS
331
1BB
102
}
  0
BLOCK_RECORD
  5
2EE
330
1
100
AcDbSymbolTableRecord
100
AcDbBlockTableRecord
  2
SW_CENTERMARKSYMBOL_7
340
0
102
{BLKREFS
331
2F9
102
}
  0
BLOCK_RECORD
  5
2FA
330
1
100
AcDbSymbolTableRecord
100
AcDbBlockTableRecord
  2
SW_CENTERMARKSYMBOL_8
340
0
102
{BLKREFS
331
305
102
}
  0
BLOCK_RECORD
  5
306
330
1
100
AcDbSymbolTableRecord
100
AcDbBlockTableRecord
  2
SW_CENTERMARKSYMBOL_9
340
0
102
{BLKREFS
331
311
102
}
  0
ENDTAB
  0
ENDSEC
  0
SECTION
  2
BLOCKS
  0
BLOCK
  5
20
330
1F
100
AcDbEntity
  8
0
100
AcDbBlockBegin
  2
*Model_Space
 70
     0
 10
0.0
 20
0.0
 30
0.0
  3
*Model_Space
  1

  0
ENDBLK
  5
21
330
1F
100
AcDbEntity
  8
0
100
AcDbBlockEnd
  0
BLOCK
  5
1C
330
1B
100
AcDbEntity
 67
     1
  8
0
100
AcDbBlockBegin
  2
*Paper_Space
 70
     0
 10
0.0
 20
0.0
 30
0.0
  3
*Paper_Space
  1

  0
ENDBLK
  5
1D
330
1B
100
AcDbEntity
 67
     1
  8
0
100
AcDbBlockEnd
  0
BLOCK
  5
24
330
23
100
AcDbEntity
  8
0
100
AcDbBlockBegin
  2
*Paper_Space0
 70
     0
 10
0.0
 20
0.0
 30
0.0
  3
*Paper_Space0
  1

  0
ENDBLK
  5
25
330
23
100
AcDbEntity
  8
0
100
AcDbBlockEnd
  0
BLOCK
  5
C9
330
C8
100
AcDbEntity
  8
0
100
AcDbBlockBegin
  2
SW_NOTE_0
 70
     0
 10
0.0
 20
0.0
 30
0.0
  3
SW_NOTE_0
  1

  0
MTEXT
  5
CB
330
C8
100
AcDbEntity
  8
0
  6
Continuous
 62
     0
370
     0
100
AcDbMText
 10
0.0
 20
0.0773440644
 30
0.0
 40
0.06
 41
0.0
 71
     1
 72
     1
  1
THE INFORMATION CONTAINED IN THIS
  7
SLDTEXTSTYLE0
 73
     1
 44
1.0
  0
MTEXT
  5
CC
330
C8
100
AcDbEntity
  8
0
  6
Continuous
 62
     0
370
     0
100
AcDbMText
 10
0.0
 20
-0.0220260102
 30
0.0
 40
0.06
 41
0.0
 71
     1
 72
     1
  1
DRAWING IS THE SOLE PROPERTY OF
  7
SLDTEXTSTYLE0
 73
     1
 44
1.0
  0
MTEXT
  5
CD
330
C8
100
AcDbEntity
  8
0
  6
Continuous
 62
     0
370
     0
100
AcDbMText
 10
0.0
 20
-0.1213960848
 30
0.0
 40
0.06
 41
0.0
 71
     1
 72
     1
  1
<INSERT COMPANY NAME HERE>.  ANY 
  7
SLDTEXTSTYLE0
 73
     1
 44
1.0
  0
MTEXT
  5
CE
330
C8
100
AcDbEntity
  8
0
  6
Continuous
 62
     0
370
     0
100
AcDbMText
 10
0.0
 20
-0.2207661593
 30
0.0
 40
0.06
 41
0.0
 71
     1
 72
     1
  1
REPRODUCTION IN PART OR AS A WHOLE
  7
SLDTEXTSTYLE0
 73
     1
 44
1.0
  0
MTEXT
  5
CF
330
C8
100
AcDbEntity
  8
0
  6
Continuous
 62
     0
370
     0
100
AcDbMText
 10
0.0
 20
-0.3201362339
 30
0.0
 40
0.06
 41
0.0
 71
     1
 72
     1
  1
WITHOUT THE WRITTEN PERMISSION OF
  7
SLDTEXTSTYLE0
 73
     1
 44
1.0
  0
MTEXT
  5
D0
330
C8
100
AcDbEntity
  8
0
  6
Continuous
 62
     0
370
     0
100
AcDbMText
 10
0.0
 20
-0.4195063085
 30
0.0
 40
0.06
 41
0.0
 71
     1
 72
     1
  1
<INSERT COMPANY NAME HERE> IS 
  7
SLDTEXTSTYLE0
 73
     1
 44
1.0
  0
MTEXT
  5
D1
330
C8
100
AcDbEntity
  8
0
  6
Continuous
 62
     0
370
     0
100
AcDbMText
 10
0.0
 20
-0.518876383
 30
0.0
 40
0.06
 41
0.0
 71
     1
 72
     1
  1
PROHIBITED.
  7
SLDTEXTSTYLE0
 73
     1
 44
1.0
  0
ENDBLK
  5
CA
330
C8
100
AcDbEntity
  8
0
100
AcDbBlockEnd
  0
BLOCK
  5
D8
330
D7
100
AcDbEntity
  8
0
100
AcDbBlockBegin
  2
SW_NOTE_1
 70
     0
 10
0.0
 20
0.0
 30
0.0
  3
SW_NOTE_1
  1

  0
MTEXT
  5
DA
330
D7
100
AcDbEntity
  8
0
  6
Continuous
 62
     0
370
     0
100
AcDbMText
 10
0.0
 20
0.0837894031
 30
0.0
 40
0.065
 41
0.0
 71
     1
 72
     1
  1
DIMENSIONS ARE IN INCHES
  7
SLDTEXTSTYLE0
 73
     1
 44
1.0
  0
MTEXT
  5
DB
330
D7
100
AcDbEntity
  8
0
  6
Continuous
 62
     0
370
     0
100
AcDbMText
 10
0.0
 20
-0.0205806729
 30
0.0
 40
0.065
 41
0.0
 71
     1
 72
     1
  1
TOLERANCES:
  7
SLDTEXTSTYLE0
 73
     1
 44
1.0
  0
MTEXT
  5
DC
330
D7
100
AcDbEntity
  8
0
  6
Continuous
 62
     0
370
     0
100
AcDbMText
 10
0.0
 20
-0.1249507489
 30
0.0
 40
0.065
 41
0.0
 71
     1
 72
     1
  1
FRACTIONAL
  7
SLDTEXTSTYLE0
 73
     1
 44
1.0
  0
MTEXT
  5
DD
330
D7
100
AcDbEntity
  8
0
  6
Continuous
 62
     0
370
     0
100
AcDbMText
 10
0.5175850875
 20
-0.1249507489
 30
0.0
 40
0.065
 41
0.0
 71
     1
 72
     1
  1
%%p
  7
SLDTEXTSTYLE0
 73
     1
 44
1.0
  0
MTEXT
  5
DE
330
D7
100
AcDbEntity
  8
0
  6
Continuous
 62
     0
370
     0
100
AcDbMText
 10
0.0
 20
-0.2293208248
 30
0.0
 40
0.065
 41
0.0
 71
     1
 72
     1
  1
ANGULAR: MACH
  7
SLDTEXTSTYLE0
 73
     1
 44
1.0
  0
MTEXT
  5
DF
330
D7
100
AcDbEntity
  8
0
  6
Continuous
 62
     0
370
     0
100
AcDbMText
 10
0.7233732769
 20
-0.2293208248
 30
0.0
 40
0.065
 41
0.0
 71
     1
 72
     1
  1
%%p
  7
SLDTEXTSTYLE0
 73
     1
 44
1.0
  0
MTEXT
  5
E0
330
D7
100
AcDbEntity
  8
0
  6
Continuous
 62
     0
370
     0
100
AcDbMText
 10
0.7852857683
 20
-0.2293208248
 30
0.0
 40
0.065
 41
0.0
 71
     1
 72
     1
  1
     BEND 
  7
SLDTEXTSTYLE0
 73
     1
 44
1.0
  0
MTEXT
  5
E1
330
D7
100
AcDbEntity
  8
0
  6
Continuous
 62
     0
370
     0
100
AcDbMText
 10
1.14784136
 20
-0.2293208248
 30
0.0
 40
0.065
 41
0.0
 71
     1
 72
     1
  1
%%p
  7
SLDTEXTSTYLE0
 73
     1
 44
1.0
  0
MTEXT
  5
E2
330
D7
100
AcDbEntity
  8
0
  6
Continuous
 62
     0
370
     0
100
AcDbMText
 10
0.0
 20
-0.3336909008
 30
0.0
 40
0.065
 41
0.0
 71
     1
 72
     1
  1
TWO PLACE DECIMAL    
  7
SLDTEXTSTYLE0
 73
     1
 44
1.0
  0
MTEXT
  5
E3
330
D7
100
AcDbEntity
  8
0
  6
Continuous
 62
     0
370
     0
100
AcDbMText
 10
0.9794349188
 20
-0.3336909008
 30
0.0
 40
0.065
 41
0.0
 71
     1
 72
     1
  1
%%p
  7
SLDTEXTSTYLE0
 73
     1
 44
1.0
  0
MTEXT
  5
E4
330
D7
100
AcDbEntity
  8
0
  6
Continuous
 62
     0
370
     0
100
AcDbMText
 10
0.0
 20
-0.4380609768
 30
0.0
 40
0.065
 41
0.0
 71
     1
 72
     1
  1
THREE PLACE DECIMAL  
  7
SLDTEXTSTYLE0
 73
     1
 44
1.0
  0
MTEXT
  5
E5
330
D7
100
AcDbEntity
  8
0
  6
Continuous
 62
     0
370
     0
100
AcDbMText
 10
0.9738038639
 20
-0.4380609768
 30
0.0
 40
0.065
 41
0.0
 71
     1
 72
     1
  1
%%p
  7
SLDTEXTSTYLE0
 73
     1
 44
1.0
  0
ENDBLK
  5
D9
330
D7
100
AcDbEntity
  8
0
100
AcDbBlockEnd
  0
BLOCK
  5
E8
330
E7
100
AcDbEntity
  8
0
100
AcDbBlockBegin
  2
SW_NOTE_2
 70
     0
 10
0.0
 20
0.0
 30
0.0
  3
SW_NOTE_2
  1

  0
MTEXT
  5
EA
330
E7
100
AcDbEntity
  8
0
  6
Continuous
 62
     0
370
     0
100
AcDbMText
 10
0.0
 20
0.0773440644
 30
0.0
 40
0.06
 41
0.0
 71
     1
 72
     1
  1
INTERPRET GEOMETRIC
  7
SLDTEXTSTYLE0
 73
     1
 44
1.0
  0
MTEXT
  5
EB
330
E7
100
AcDbEntity
  8
0
  6
Continuous
 62
     0
370
     0
100
AcDbMText
 10
0.0
 20
-0.0220260102
 30
0.0
 40
0.06
 41
0.0
 71
     1
 72
     1
  1
TOLERANCING PER:
  7
SLDTEXTSTYLE0
 73
     1
 44
1.0
  0
ENDBLK
  5
E9
330
E7
100
AcDbEntity
  8
0
100
AcDbBlockEnd
  0
BLOCK
  5
169
330
168
100
AcDbEntity
  8
0
100
AcDbBlockBegin
  2
SW_CENTERMARKSYMBOL_0
 70
     0
 10
0.0
 20
0.0
 30
0.0
  3
SW_CENTERMARKSYMBOL_0
  1

  0
LINE
  5
16B
330
168
100
AcDbEntity
  8
0
  6
Continuous
 62
     0
370
     0
100
AcDbLine
 10
0.0
 20
0.0
 30
0.0
 11
0.0
 21
0.05
 31
0.0
  0
LINE
  5
16C
330
168
100
AcDbEntity
  8
0
  6
Continuous
 62
     0
370
     0
100
AcDbLine
 10
0.0
 20
0.0
 30
0.0
 11
-0.05
 21
0.0
 31
0.0
  0
LINE
  5
16D
330
168
100
AcDbEntity
  8
0
  6
Continuous
 62
     0
370
     0
100
AcDbLine
 10
0.0
 20
0.0
 30
0.0
 11
0.0
 21
-0.05
 31
0.0
  0
LINE
  5
16E
330
168
100
AcDbEntity
  8
0
  6
Continuous
 62
     0
370
     0
100
AcDbLine
 10
0.0
 20
0.0
 30
0.0
 11
0.05
 21
0.0
 31
0.0
  0
LINE
  5
16F
330
168
100
AcDbEntity
  8
0
  6
Continuous
 62
     0
370
     0
100
AcDbLine
 10
0.0
 20
0.1
 30
0.0
 11
0.0
 21
1.2375
 31
0.0
  0
LINE
  5
170
330
168
100
AcDbEntity
  8
0
  6
Continuous
 62
     0
370
     0
100
AcDbLine
 10
-0.1
 20
0.0
 30
0.0
 11
-1.2375
 21
0.0
 31
0.0
  0
LINE
  5
171
330
168
100
AcDbEntity
  8
0
  6
Continuous
 62
     0
370
     0
100
AcDbLine
 10
0.0
 20
-0.1
 30
0.0
 11
0.0
 21
-1.2375
 31
0.0
  0
LINE
  5
172
330
168
100
AcDbEntity
  8
0
  6
Continuous
 62
     0
370
     0
100
AcDbLine
 10
0.1
 20
0.0
 30
0.0
 11
1.2375
 21
0.0
 31
0.0
  0
ENDBLK
  5
16A
330
168
100
AcDbEntity
  8
0
100
AcDbBlockEnd
  0
BLOCK
  5
175
330
174
100
AcDbEntity
  8
0
100
AcDbBlockBegin
  2
SW_CENTERMARKSYMBOL_1
 70
     0
 10
0.0
 20
0.0
 30
0.0
  3
SW_CENTERMARKSYMBOL_1
  1

  0
LINE
  5
177
330
174
100
AcDbEntity
  8
0
  6
Continuous
 62
     0
370
     0
100
AcDbLine
 10
0.0
 20
0.0
 30
0.0
 11
0.0
 21
0.05
 31
0.0
  0
LINE
  5
178
330
174
100
AcDbEntity
  8
0
  6
Continuous
 62
     0
370
     0
100
AcDbLine
 10
0.0
 20
0.0
 30
0.0
 11
-0.05
 21
0.0
 31
0.0
  0
LINE
  5
179
330
174
100
AcDbEntity
  8
0
  6
Continuous
 62
     0
370
     0
100
AcDbLine
 10
0.0
 20
0.0
 30
0.0
 11
0.0
 21
-0.05
 31
0.0
  0
LINE
  5
17A
330
174
100
AcDbEntity
  8
0
  6
Continuous
 62
     0
370
     0
100
AcDbLine
 10
0.0
 20
0.0
 30
0.0
 11
0.05
 21
0.0
 31
0.0
  0
LINE
  5
17B
330
174
100
AcDbEntity
  8
0
  6
Continuous
 62
     0
370
     0
100
AcDbLine
 10
0.0
 20
0.1
 30
0.0
 11
0.0
 21
0.11425
 31
0.0
  0
LINE
  5
17C
330
174
100
AcDbEntity
  8
0
  6
Continuous
 62
     0
370
     0
100
AcDbLine
 10
-0.1
 20
0.0
 30
0.0
 11
-0.11425
 21
0.0
 31
0.0
  0
LINE
  5
17D
330
174
100
AcDbEntity
  8
0
  6
Continuous
 62
     0
370
     0
100
AcDbLine
 10
0.0
 20
-0.1
 30
0.0
 11
0.0
 21
-0.11425
 31
0.0
  0
LINE
  5
17E
330
174
100
AcDbEntity
  8
0
  6
Continuous
 62
     0
370
     0
100
AcDbLine
 10
0.1
 20
0.0
 30
0.0
 11
0.11425
 21
0.0
 31
0.0
  0
ENDBLK
  5
176
330
174
100
AcDbEntity
  8
0
100
AcDbBlockEnd
  0
BLOCK
  5
181
330
180
100
AcDbEntity
  8
0
100
AcDbBlockBegin
  2
SW_CENTERMARKSYMBOL_2
 70
     0
 10
0.0
 20
0.0
 30
0.0
  3
SW_CENTERMARKSYMBOL_2
  1

  0
LINE
  5
183
330
180
100
AcDbEntity
  8
0
  6
Continuous
 62
     0
370
     0
100
AcDbLine
 10
0.0
 20
0.0
 30
0.0
 11
0.0
 21
0.05
 31
0.0
  0
LINE
  5
184
330
180
100
AcDbEntity
  8
0
  6
Continuous
 62
     0
370
     0
100
AcDbLine
 10
0.0
 20
0.0
 30
0.0
 11
-0.05
 21
0.0
 31
0.0
  0
LINE
  5
185
330
180
100
AcDbEntity
  8
0
  6
Continuous
 62
     0
370
     0
100
AcDbLine
 10
0.0
 20
0.0
 30
0.0
 11
0.0
 21
-0.05
 31
0.0
  0
LINE
  5
186
330
180
100
AcDbEntity
  8
0
  6
Continuous
 62
     0
370
     0
100
AcDbLine
 10
0.0
 20
0.0
 30
0.0
 11
0.05
 21
0.0
 31
0.0
  0
LINE
  5
187
330
180
100
AcDbEntity
  8
0
  6
Continuous
 62
     0
370
     0
100
AcDbLine
 10
0.0
 20
0.1
 30
0.0
 11
0.0
 21
0.11425
 31
0.0
  0
LINE
  5
188
330
180
100
AcDbEntity
  8
0
  6
Continuous
 62
     0
370
     0
100
AcDbLine
 10
-0.1
 20
0.0
 30
0.0
 11
-0.11425
 21
0.0
 31
0.0
  0
LINE
  5
189
330
180
100
AcDbEntity
  8
0
  6
Continuous
 62
     0
370
     0
100
AcDbLine
 10
0.0
 20
-0.1
 30
0.0
 11
0.0
 21
-0.11425
 31
0.0
  0
LINE
  5
18A
330
180
100
AcDbEntity
  8
0
  6
Continuous
 62
     0
370
     0
100
AcDbLine
 10
0.1
 20
0.0
 30
0.0
 11
0.11425
 21
0.0
 31
0.0
  0
ENDBLK
  5
182
330
180
100
AcDbEntity
  8
0
100
AcDbBlockEnd
  0
BLOCK
  5
18D
330
18C
100
AcDbEntity
  8
0
100
AcDbBlockBegin
  2
SW_CENTERMARKSYMBOL_3
 70
     0
 10
0.0
 20
0.0
 30
0.0
  3
SW_CENTERMARKSYMBOL_3
  1

  0
LINE
  5
18F
330
18C
100
AcDbEntity
  8
0
  6
Continuous
 62
     0
370
     0
100
AcDbLine
 10
0.0
 20
0.0
 30
0.0
 11
0.0
 21
0.05
 31
0.0
  0
LINE
  5
190
330
18C
100
AcDbEntity
  8
0
  6
Continuous
 62
     0
370
     0
100
AcDbLine
 10
0.0
 20
0.0
 30
0.0
 11
-0.05
 21
0.0
 31
0.0
  0
LINE
  5
191
330
18C
100
AcDbEntity
  8
0
  6
Continuous
 62
     0
370
     0
100
AcDbLine
 10
0.0
 20
0.0
 30
0.0
 11
0.0
 21
-0.05
 31
0.0
  0
LINE
  5
192
330
18C
100
AcDbEntity
  8
0
  6
Continuous
 62
     0
370
     0
100
AcDbLine
 10
0.0
 20
0.0
 30
0.0
 11
0.05
 21
0.0
 31
0.0
  0
LINE
  5
193
330
18C
100
AcDbEntity
  8
0
  6
Continuous
 62
     0
370
     0
100
AcDbLine
 10
0.0
 20
0.1
 30
0.0
 11
0.0
 21
0.11425
 31
0.0
  0
LINE
  5
194
330
18C
100
AcDbEntity
  8
0
  6
Continuous
 62
     0
370
     0
100
AcDbLine
 10
-0.1
 20
0.0
 30
0.0
 11
-0.11425
 21
0.0
 31
0.0
  0
LINE
  5
195
330
18C
100
AcDbEntity
  8
0
  6
Continuous
 62
     0
370
     0
100
AcDbLine
 10
0.0
 20
-0.1
 30
0.0
 11
0.0
 21
-0.11425
 31
0.0
  0
LINE
  5
196
330
18C
100
AcDbEntity
  8
0
  6
Continuous
 62
     0
370
     0
100
AcDbLine
 10
0.1
 20
0.0
 30
0.0
 11
0.11425
 21
0.0
 31
0.0
  0
ENDBLK
  5
18E
330
18C
100
AcDbEntity
  8
0
100
AcDbBlockEnd
  0
BLOCK
  5
199
330
198
100
AcDbEntity
  8
0
100
AcDbBlockBegin
  2
SW_CENTERMARKSYMBOL_4
 70
     0
 10
0.0
 20
0.0
 30
0.0
  3
SW_CENTERMARKSYMBOL_4
  1

  0
LINE
  5
19B
330
198
100
AcDbEntity
  8
0
  6
Continuous
 62
     0
370
     0
100
AcDbLine
 10
0.0
 20
0.0
 30
0.0
 11
0.0
 21
0.05
 31
0.0
  0
LINE
  5
19C
330
198
100
AcDbEntity
  8
0
  6
Continuous
 62
     0
370
     0
100
AcDbLine
 10
0.0
 20
0.0
 30
0.0
 11
-0.05
 21
0.0
 31
0.0
  0
LINE
  5
19D
330
198
100
AcDbEntity
  8
0
  6
Continuous
 62
     0
370
     0
100
AcDbLine
 10
0.0
 20
0.0
 30
0.0
 11
0.0
 21
-0.05
 31
0.0
  0
LINE
  5
19E
330
198
100
AcDbEntity
  8
0
  6
Continuous
 62
     0
370
     0
100
AcDbLine
 10
0.0
 20
0.0
 30
0.0
 11
0.05
 21
0.0
 31
0.0
  0
LINE
  5
19F
330
198
100
AcDbEntity
  8
0
  6
Continuous
 62
     0
370
     0
100
AcDbLine
 10
0.0
 20
0.1
 30
0.0
 11
0.0
 21
0.11425
 31
0.0
  0
LINE
  5
1A0
330
198
100
AcDbEntity
  8
0
  6
Continuous
 62
     0
370
     0
100
AcDbLine
 10
-0.1
 20
0.0
 30
0.0
 11
-0.11425
 21
0.0
 31
0.0
  0
LINE
  5
1A1
330
198
100
AcDbEntity
  8
0
  6
Continuous
 62
     0
370
     0
100
AcDbLine
 10
0.0
 20
-0.1
 30
0.0
 11
0.0
 21
-0.11425
 31
0.0
  0
LINE
  5
1A2
330
198
100
AcDbEntity
  8
0
  6
Continuous
 62
     0
370
     0
100
AcDbLine
 10
0.1
 20
0.0
 30
0.0
 11
0.11425
 21
0.0
 31
0.0
  0
ENDBLK
  5
19A
330
198
100
AcDbEntity
  8
0
100
AcDbBlockEnd
  0
BLOCK
  5
1A5
330
1A4
100
AcDbEntity
  8
0
100
AcDbBlockBegin
  2
SW_CENTERMARKSYMBOL_5
 70
     0
 10
0.0
 20
0.0
 30
0.0
  3
SW_CENTERMARKSYMBOL_5
  1

  0
LINE
  5
1A7
330
1A4
100
AcDbEntity
  8
0
  6
Continuous
 62
     0
370
     0
100
AcDbLine
 10
0.0
 20
0.0
 30
0.0
 11
0.0
 21
0.05
 31
0.0
  0
LINE
  5
1A8
330
1A4
100
AcDbEntity
  8
0
  6
Continuous
 62
     0
370
     0
100
AcDbLine
 10
0.0
 20
0.0
 30
0.0
 11
-0.05
 21
0.0
 31
0.0
  0
LINE
  5
1A9
330
1A4
100
AcDbEntity
  8
0
  6
Continuous
 62
     0
370
     0
100
AcDbLine
 10
0.0
 20
0.0
 30
0.0
 11
0.0
 21
-0.05
 31
0.0
  0
LINE
  5
1AA
330
1A4
100
AcDbEntity
  8
0
  6
Continuous
 62
     0
370
     0
100
AcDbLine
 10
0.0
 20
0.0
 30
0.0
 11
0.05
 21
0.0
 31
0.0
  0
LINE
  5
1AB
330
1A4
100
AcDbEntity
  8
0
  6
Continuous
 62
     0
370
     0
100
AcDbLine
 10
0.0
 20
0.1
 30
0.0
 11
0.0
 21
0.11425
 31
0.0
  0
LINE
  5
1AC
330
1A4
100
AcDbEntity
  8
0
  6
Continuous
 62
     0
370
     0
100
AcDbLine
 10
-0.1
 20
0.0
 30
0.0
 11
-0.11425
 21
0.0
 31
0.0
  0
LINE
  5
1AD
330
1A4
100
AcDbEntity
  8
0
  6
Continuous
 62
     0
370
     0
100
AcDbLine
 10
0.0
 20
-0.1
 30
0.0
 11
0.0
 21
-0.11425
 31
0.0
  0
LINE
  5
1AE
330
1A4
100
AcDbEntity
  8
0
  6
Continuous
 62
     0
370
     0
100
AcDbLine
 10
0.1
 20
0.0
 30
0.0
 11
0.11425
 21
0.0
 31
0.0
  0
ENDBLK
  5
1A6
330
1A4
100
AcDbEntity
  8
0
100
AcDbBlockEnd
  0
BLOCK
  5
1B1
330
1B0
100
AcDbEntity
  8
0
100
AcDbBlockBegin
  2
SW_CENTERMARKSYMBOL_6
 70
     0
 10
0.0
 20
0.0
 30
0.0
  3
SW_CENTERMARKSYMBOL_6
  1

  0
LINE
  5
1B3
330
1B0
100
AcDbEntity
  8
0
  6
Continuous
 62
     0
370
     0
100
AcDbLine
 10
0.0
 20
0.0
 30
0.0
 11
0.0
 21
0.05
 31
0.0
  0
LINE
  5
1B4
330
1B0
100
AcDbEntity
  8
0
  6
Continuous
 62
     0
370
     0
100
AcDbLine
 10
0.0
 20
0.0
 30
0.0
 11
-0.05
 21
0.0
 31
0.0
  0
LINE
  5
1B5
330
1B0
100
AcDbEntity
  8
0
  6
Continuous
 62
     0
370
     0
100
AcDbLine
 10
0.0
 20
0.0
 30
0.0
 11
0.0
 21
-0.05
 31
0.0
  0
LINE
  5
1B6
330
1B0
100
AcDbEntity
  8
0
  6
Continuous
 62
     0
370
     0
100
AcDbLine
 10
0.0
 20
0.0
 30
0.0
 11
0.05
 21
0.0
 31
0.0
  0
LINE
  5
1B7
330
1B0
100
AcDbEntity
  8
0
  6
Continuous
 62
     0
370
     0
100
AcDbLine
 10
0.0
 20
0.1
 30
0.0
 11
0.0
 21
0.11425
 31
0.0
  0
LINE
  5
1B8
330
1B0
100
AcDbEntity
  8
0
  6
Continuous
 62
     0
370
     0
100
AcDbLine
 10
-0.1
 20
0.0
 30
0.0
 11
-0.11425
 21
0.0
 31
0.0
  0
LINE
  5
1B9
330
1B0
100
AcDbEntity
  8
0
  6
Continuous
 62
     0
370
     0
100
AcDbLine
 10
0.0
 20
-0.1
 30
0.0
 11
0.0
 21
-0.11425
 31
0.0
  0
LINE
  5
1BA
330
1B0
100
AcDbEntity
  8
0
  6
Continuous
 62
     0
370
     0
100
AcDbLine
 10
0.1
 20
0.0
 30
0.0
 11
0.11425
 21
0.0
 31
0.0
  0
ENDBLK
  5
1B2
330
1B0
100
AcDbEntity
  8
0
100
AcDbBlockEnd
  0
BLOCK
  5
2EF
330
2EE
100
AcDbEntity
  8
0
100
AcDbBlockBegin
  2
SW_CENTERMARKSYMBOL_7
 70
     0
 10
0.0
 20
0.0
 30
0.0
  3
SW_CENTERMARKSYMBOL_7
  1

  0
LINE
  5
2F1
330
2EE
100
AcDbEntity
  8
0
  6
Continuous
 62
     0
370
     0
100
AcDbLine
 10
0.0
 20
0.0
 30
0.0
 11
0.0
 21
0.05
 31
0.0
  0
LINE
  5
2F2
330
2EE
100
AcDbEntity
  8
0
  6
Continuous
 62
     0
370
     0
100
AcDbLine
 10
0.0
 20
0.0
 30
0.0
 11
-0.05
 21
0.0
 31
0.0
  0
LINE
  5
2F3
330
2EE
100
AcDbEntity
  8
0
  6
Continuous
 62
     0
370
     0
100
AcDbLine
 10
0.0
 20
0.0
 30
0.0
 11
0.0
 21
-0.05
 31
0.0
  0
LINE
  5
2F4
330
2EE
100
AcDbEntity
  8
0
  6
Continuous
 62
     0
370
     0
100
AcDbLine
 10
0.0
 20
0.0
 30
0.0
 11
0.05
 21
0.0
 31
0.0
  0
LINE
  5
2F5
330
2EE
100
AcDbEntity
  8
0
  6
Continuous
 62
     0
370
     0
100
AcDbLine
 10
0.0
 20
0.1
 30
0.0
 11
0.0
 21
0.1484251969
 31
0.0
  0
LINE
  5
2F6
330
2EE
100
AcDbEntity
  8
0
  6
Continuous
 62
     0
370
     0
100
AcDbLine
 10
-0.1
 20
0.0
 30
0.0
 11
-0.1484251969
 21
0.0
 31
0.0
  0
LINE
  5
2F7
330
2EE
100
AcDbEntity
  8
0
  6
Continuous
 62
     0
370
     0
100
AcDbLine
 10
0.0
 20
-0.1
 30
0.0
 11
0.0
 21
-0.1484251969
 31
0.0
  0
LINE
  5
2F8
330
2EE
100
AcDbEntity
  8
0
  6
Continuous
 62
     0
370
     0
100
AcDbLine
 10
0.1
 20
0.0
 30
0.0
 11
0.1484251969
 21
0.0
 31
0.0
  0
ENDBLK
  5
2F0
330
2EE
100
AcDbEntity
  8
0
100
AcDbBlockEnd
  0
BLOCK
  5
2FB
330
2FA
100
AcDbEntity
  8
0
100
AcDbBlockBegin
  2
SW_CENTERMARKSYMBOL_8
 70
     0
 10
0.0
 20
0.0
 30
0.0
  3
SW_CENTERMARKSYMBOL_8
  1

  0
LINE
  5
2FD
330
2FA
100
AcDbEntity
  8
0
  6
Continuous
 62
     0
370
     0
100
AcDbLine
 10
0.0
 20
0.0
 30
0.0
 11
0.0
 21
0.05
 31
0.0
  0
LINE
  5
2FE
330
2FA
100
AcDbEntity
  8
0
  6
Continuous
 62
     0
370
     0
100
AcDbLine
 10
0.0
 20
0.0
 30
0.0
 11
-0.05
 21
0.0
 31
0.0
  0
LINE
  5
2FF
330
2FA
100
AcDbEntity
  8
0
  6
Continuous
 62
     0
370
     0
100
AcDbLine
 10
0.0
 20
0.0
 30
0.0
 11
0.0
 21
-0.05
 31
0.0
  0
LINE
  5
300
330
2FA
100
AcDbEntity
  8
0
  6
Continuous
 62
     0
370
     0
100
AcDbLine
 10
0.0
 20
0.0
 30
0.0
 11
0.05
 21
0.0
 31
0.0
  0
LINE
  5
301
330
2FA
100
AcDbEntity
  8
0
  6
Continuous
 62
     0
370
     0
100
AcDbLine
 10
0.0
 20
0.1
 30
0.0
 11
0.0
 21
0.1582677165
 31
0.0
  0
LINE
  5
302
330
2FA
100
AcDbEntity
  8
0
  6
Continuous
 62
     0
370
     0
100
AcDbLine
 10
-0.1
 20
0.0
 30
0.0
 11
-0.1582677165
 21
0.0
 31
0.0
  0
LINE
  5
303
330
2FA
100
AcDbEntity
  8
0
  6
Continuous
 62
     0
370
     0
100
AcDbLine
 10
0.0
 20
-0.1
 30
0.0
 11
0.0
 21
-0.1582677165
 31
0.0
  0
LINE
  5
304
330
2FA
100
AcDbEntity
  8
0
  6
Continuous
 62
     0
370
     0
100
AcDbLine
 10
0.1
 20
0.0
 30
0.0
 11
0.1582677165
 21
0.0
 31
0.0
  0
ENDBLK
  5
2FC
330
2FA
100
AcDbEntity
  8
0
100
AcDbBlockEnd
  0
BLOCK
  5
307
330
306
100
AcDbEntity
  8
0
100
AcDbBlockBegin
  2
SW_CENTERMARKSYMBOL_9
 70
     0
 10
0.0
 20
0.0
 30
0.0
  3
SW_CENTERMARKSYMBOL_9
  1

  0
LINE
  5
309
330
306
100
AcDbEntity
  8
0
  6
Continuous
 62
     0
370
     0
100
AcDbLine
 10
0.0
 20
0.0
 30
0.0
 11
0.0
 21
0.05
 31
0.0
  0
LINE
  5
30A
330
306
100
AcDbEntity
  8
0
  6
Continuous
 62
     0
370
     0
100
AcDbLine
 10
0.0
 20
0.0
 30
0.0
 11
-0.05
 21
0.0
 31
0.0
  0
LINE
  5
30B
330
306
100
AcDbEntity
  8
0
  6
Continuous
 62
     0
370
     0
100
AcDbLine
 10
0.0
 20
0.0
 30
0.0
 11
0.0
 21
-0.05
 31
0.0
  0
LINE
  5
30C
330
306
100
AcDbEntity
  8
0
  6
Continuous
 62
     0
370
     0
100
AcDbLine
 10
0.0
 20
0.0
 30
0.0
 11
0.05
 21
0.0
 31
0.0
  0
LINE
  5
30D
330
306
100
AcDbEntity
  8
0
  6
Continuous
 62
     0
370
     0
100
AcDbLine
 10
0.0
 20
0.1
 30
0.0
 11
0.0
 21
0.1582677165
 31
0.0
  0
LINE
  5
30E
330
306
100
AcDbEntity
  8
0
  6
Continuous
 62
     0
370
     0
100
AcDbLine
 10
-0.1
 20
0.0
 30
0.0
 11
-0.1582677165
 21
0.0
 31
0.0
  0
LINE
  5
30F
330
306
100
AcDbEntity
  8
0
  6
Continuous
 62
     0
370
     0
100
AcDbLine
 10
0.0
 20
-0.1
 30
0.0
 11
0.0
 21
-0.1582677165
 31
0.0
  0
LINE
  5
310
330
306
100
AcDbEntity
  8
0
  6
Continuous
 62
     0
370
     0
100
AcDbLine
 10
0.1
 20
0.0
 30
0.0
 11
0.1582677165
 21
0.0
 31
0.0
  0
ENDBLK
  5
308
330
306
100
AcDbEntity
  8
0
100
AcDbBlockEnd
  0
ENDSEC
  0
SECTION
  2
ENTITIES
  0
LINE
  5
41
330
1F
100
AcDbEntity
  8
0
  6
Continuous
 62
     7
370
     0
100
AcDbLine
 10
0.6262516046
 20
10.6420731707
 30
0.0
 11
16.3762516046
 21
10.6420731707
 31
0.0
  0
LINE
  5
42
330
1F
100
AcDbEntity
  8
0
  6
Continuous
 62
     7
370
     0
100
AcDbLine
 10
0.6262516046
 20
10.6420731707
 30
0.0
 11
0.6262516046
 21
0.3920731707
 31
0.0
  0
LINE
  5
43
330
1F
100
AcDbEntity
  8
0
  6
Continuous
 62
     7
370
     0
100
AcDbLine
 10
16.3762516046
 20
0.3920731707
 30
0.0
 11
0.6262516046
 21
0.3920731707
 31
0.0
  0
LINE
  5
44
330
1F
100
AcDbEntity
  8
0
  6
Continuous
 62
     7
370
     0
100
AcDbLine
 10
16.3762516046
 20
0.3920731707
 30
0.0
 11
16.3762516046
 21
10.6420731707
 31
0.0
  0
LINE
  5
45
330
1F
100
AcDbEntity
  8
0
  6
Continuous
 62
     7
370
     0
100
AcDbLine
 10
16.3762516046
 20
8.0752921748
 30
0.0
 11
16.5012516046
 21
8.0752921748
 31
0.0
  0
LINE
  5
46
330
1F
100
AcDbEntity
  8
0
  6
Continuous
 62
     7
370
     0
100
AcDbLine
 10
16.3762516046
 20
5.5127921748
 30
0.0
 11
16.5012516046
 21
5.5127921748
 31
0.0
  0
LINE
  5
47
330
1F
100
AcDbEntity
  8
0
  6
Continuous
 62
     7
370
     0
100
AcDbLine
 10
16.3762516046
 20
5.5127921748
 30
0.0
 11
16.4434330337
 21
5.5368018253
 31
0.0
  0
LINE
  5
48
330
1F
100
AcDbEntity
  8
0
  6
Continuous
 62
     7
370
     0
100
AcDbLine
 10
16.3762516046
 20
5.5127921748
 30
0.0
 11
16.4434330337
 21
5.4902136493
 31
0.0
  0
LINE
  5
49
330
1F
100
AcDbEntity
  8
0
  6
Continuous
 62
     7
370
     0
100
AcDbLine
 10
16.4434330337
 20
5.5368018253
 30
0.0
 11
16.4434330337
 21
5.4902136493
 31
0.0
  0
LINE
  5
4A
330
1F
100
AcDbEntity
  8
0
  6
Continuous
 62
     7
370
     0
100
AcDbLine
 10
16.3762516046
 20
5.5127921748
 30
0.0
 11
16.4434330337
 21
5.5218303331
 31
0.0
  0
LINE
  5
4B
330
1F
100
AcDbEntity
  8
0
  6
Continuous
 62
     7
370
     0
100
AcDbLine
 10
16.3762516046
 20
5.5127921748
 30
0.0
 11
16.4434330337
 21
5.5024840548
 31
0.0
  0
LINE
  5
4C
330
1F
100
AcDbEntity
  8
0
  6
Continuous
 62
     7
370
     0
100
AcDbLine
 10
16.3762516046
 20
2.9502921748
 30
0.0
 11
16.5012516046
 21
2.9502921748
 31
0.0
  0
LINE
  5
4D
330
1F
100
AcDbEntity
  8
0
  6
Continuous
 62
     7
370
     0
100
AcDbLine
 10
0.6262516046
 20
2.9545731707
 30
0.0
 11
0.5012516046
 21
2.9545731707
 31
0.0
  0
LINE
  5
4E
330
1F
100
AcDbEntity
  8
0
  6
Continuous
 62
     7
370
     0
100
AcDbLine
 10
0.6262516046
 20
5.5170731707
 30
0.0
 11
0.5590701755
 21
5.5067650507
 31
0.0
  0
LINE
  5
4F
330
1F
100
AcDbEntity
  8
0
  6
Continuous
 62
     7
370
     0
100
AcDbLine
 10
0.6262516046
 20
5.5170731707
 30
0.0
 11
0.5590701755
 21
5.5261113291
 31
0.0
  0
LINE
  5
50
330
1F
100
AcDbEntity
  8
0
  6
Continuous
 62
     7
370
     0
100
AcDbLine
 10
0.5590701755
 20
5.5410828212
 30
0.0
 11
0.5590701755
 21
5.4944946453
 31
0.0
  0
LINE
  5
51
330
1F
100
AcDbEntity
  8
0
  6
Continuous
 62
     7
370
     0
100
AcDbLine
 10
0.6262516046
 20
5.5170731707
 30
0.0
 11
0.5590701755
 21
5.4944946453
 31
0.0
  0
LINE
  5
52
330
1F
100
AcDbEntity
  8
0
  6
Continuous
 62
     7
370
     0
100
AcDbLine
 10
0.6262516046
 20
5.5170731707
 30
0.0
 11
0.5590701755
 21
5.5410828212
 31
0.0
  0
LINE
  5
53
330
1F
100
AcDbEntity
  8
0
  6
Continuous
 62
     7
370
     0
100
AcDbLine
 10
0.6262516046
 20
5.5170731707
 30
0.0
 11
0.5012516046
 21
5.5170731707
 31
0.0
  0
LINE
  5
54
330
1F
100
AcDbEntity
  8
0
  6
Continuous
 62
     7
370
     0
100
AcDbLine
 10
0.6262516046
 20
8.0795731707
 30
0.0
 11
0.5012516046
 21
8.0795731707
 31
0.0
  0
LINE
  5
55
330
1F
100
AcDbEntity
  8
0
  6
Continuous
 62
     7
370
     0
100
AcDbLine
 10
10.5445087334
 20
0.3920731707
 30
0.0
 11
10.5445087334
 21
2.3564211366
 31
0.0
  0
LINE
  5
56
330
1F
100
AcDbEntity
  8
0
  6
Continuous
 62
     7
370
     0
100
AcDbLine
 10
8.5673591625
 20
2.3564211366
 30
0.0
 11
16.3762516046
 21
2.3564211366
 31
0.0
  0
LINE
  5
57
330
1F
100
AcDbEntity
  8
0
  6
Continuous
 62
     7
370
     0
100
AcDbLine
 10
11.925959856
 20
2.3564211366
 30
0.0
 11
11.925959856
 21
0.3920731707
 31
0.0
  0
LINE
  5
58
330
1F
100
AcDbEntity
  8
0
  6
Continuous
 62
     7
370
     0
100
AcDbLine
 10
13.617531609
 20
2.3564211366
 30
0.0
 11
13.617531609
 21
0.3920731707
 31
0.0
  0
LINE
  5
59
330
1F
100
AcDbEntity
  8
0
  6
Continuous
 62
     7
370
     0
100
AcDbLine
 10
13.617531609
 20
0.6049590101
 30
0.0
 11
16.3762516046
 21
0.6049590101
 31
0.0
  0
LINE
  5
5A
330
1F
100
AcDbEntity
  8
0
  6
Continuous
 62
     7
370
     0
100
AcDbLine
 10
13.617531609
 20
1.1119362457
 30
0.0
 11
16.3762516046
 21
1.1119362457
 31
0.0
  0
LINE
  5
5B
330
1F
100
AcDbEntity
  8
0
  6
Continuous
 62
     7
370
     0
100
AcDbLine
 10
13.617531609
 20
1.9892703708
 30
0.0
 11
16.3762516046
 21
1.9892703708
 31
0.0
  0
LINE
  5
5C
330
1F
100
AcDbEntity
  8
0
  6
Continuous
 62
     7
370
     0
100
AcDbLine
 10
14.0130763566
 20
1.1119362457
 30
0.0
 11
14.0130763566
 21
0.6049590101
 31
0.0
  0
LINE
  5
5D
330
1F
100
AcDbEntity
  8
0
  6
Continuous
 62
     7
370
     0
100
AcDbLine
 10
14.4406681222
 20
0.6049590101
 30
0.0
 11
14.4406681222
 21
0.3920731707
 31
0.0
  0
LINE
  5
5E
330
1F
100
AcDbEntity
  8
0
  6
Continuous
 62
     7
370
     0
100
AcDbLine
 10
15.8043163091
 20
1.1119362457
 30
0.0
 11
15.8043163091
 21
0.6049590101
 31
0.0
  0
LINE
  5
5F
330
1F
100
AcDbEntity
  8
0
  6
Continuous
 62
     7
370
     0
100
AcDbLine
 10
15.4125802677
 20
0.6049590101
 30
0.0
 11
15.4125802677
 21
0.3920731707
 31
0.0
  0
LINE
  5
60
330
1F
100
AcDbEntity
  8
0
  6
Continuous
 62
     7
370
     0
100
AcDbLine
 10
8.5673591625
 20
0.5883479999
 30
0.0
 11
11.925959856
 21
0.5883479999
 31
0.0
  0
LINE
  5
61
330
1F
100
AcDbEntity
  8
0
  6
Continuous
 62
     7
370
     0
100
AcDbLine
 10
11.925959856
 20
1.7939211366
 30
0.0
 11
13.617531609
 21
1.7939211366
 31
0.0
  0
LINE
  5
62
330
1F
100
AcDbEntity
  8
0
  6
Continuous
 62
     7
370
     0
100
AcDbLine
 10
11.925959856
 20
1.9814211366
 30
0.0
 11
13.617531609
 21
1.9814211366
 31
0.0
  0
LINE
  5
63
330
1F
100
AcDbEntity
  8
0
  6
Continuous
 62
     7
370
     0
100
AcDbLine
 10
11.925959856
 20
2.1689211366
 30
0.0
 11
13.617531609
 21
2.1689211366
 31
0.0
  0
LINE
  5
64
330
1F
100
AcDbEntity
  8
0
  6
Continuous
 62
     7
370
     0
100
AcDbLine
 10
13.617531609
 20
1.2314211366
 30
0.0
 11
11.925959856
 21
1.2314211366
 31
0.0
  0
LINE
  5
65
330
1F
100
AcDbEntity
  8
0
  6
Continuous
 62
     7
370
     0
100
AcDbLine
 10
13.1384826434
 20
2.3564211366
 30
0.0
 11
13.1384826434
 21
1.2314211366
 31
0.0
  0
LINE
  5
66
330
1F
100
AcDbEntity
  8
0
  6
Continuous
 62
     7
370
     0
100
AcDbLine
 10
12.6699554388
 20
2.3564211366
 30
0.0
 11
12.6699554388
 21
1.2314211366
 31
0.0
  0
LINE
  5
67
330
1F
100
AcDbEntity
  8
0
  6
Continuous
 62
     7
370
     0
100
AcDbLine
 10
10.5445087334
 20
0.8557965305
 30
0.0
 11
11.925959856
 21
0.8557965305
 31
0.0
  0
LINE
  5
68
330
1F
100
AcDbEntity
  8
0
  6
Continuous
 62
     7
370
     0
100
AcDbLine
 10
10.5445087334
 20
1.1257965305
 30
0.0
 11
11.925959856
 21
1.1257965305
 31
0.0
  0
LINE
  5
69
330
1F
100
AcDbEntity
  8
0
  6
Continuous
 62
     7
370
     0
100
AcDbLine
 10
8.5673591625
 20
0.3920731707
 30
0.0
 11
8.5673591625
 21
2.3564211366
 31
0.0
  0
LINE
  5
6A
330
1F
100
AcDbEntity
  8
0
  6
Continuous
 62
     7
370
     0
100
AcDbLine
 10
8.5673591625
 20
1.1064211366
 30
0.0
 11
10.5445087334
 21
1.1064211366
 31
0.0
  0
LINE
  5
6B
330
1F
100
AcDbEntity
  8
0
  6
Continuous
 62
     7
370
     0
100
AcDbLine
 10
8.5673591625
 20
1.3564211366
 30
0.0
 11
10.5445087334
 21
1.3564211366
 31
0.0
  0
LINE
  5
6C
330
1F
100
AcDbEntity
  8
0
  6
Continuous
 62
     7
370
     0
100
AcDbLine
 10
8.5673591625
 20
1.6064211366
 30
0.0
 11
10.5445087334
 21
1.6064211366
 31
0.0
  0
LINE
  5
6D
330
1F
100
AcDbEntity
  8
0
  6
Continuous
 62
     7
370
     0
100
AcDbLine
 10
8.5673591625
 20
1.8564211366
 30
0.0
 11
10.5445087334
 21
1.8564211366
 31
0.0
  0
LINE
  5
6E
330
1F
100
AcDbEntity
  8
0
  6
Continuous
 62
     7
370
     0
100
AcDbLine
 10
9.5653392922
 20
2.3564211366
 30
0.0
 11
9.5653392922
 21
0.5883479999
 31
0.0
  0
LINE
  5
6F
330
1F
100
AcDbEntity
  8
0
  6
Continuous
 62
     7
370
     0
100
AcDbLine
 10
11.925959856
 20
2.2020813496
 30
0.0
 11
10.5445087334
 21
2.2020813496
 31
0.0
  0
LINE
  5
70
330
1F
100
AcDbEntity
  8
0
  6
Continuous
 62
     7
370
     0
100
AcDbLine
 10
13.617531609
 20
1.6064211366
 30
0.0
 11
11.925959856
 21
1.6064211366
 31
0.0
  0
LINE
  5
71
330
1F
100
AcDbEntity
  8
0
  6
Continuous
 62
     7
370
     0
100
AcDbLine
 10
13.617531609
 20
1.4189211366
 30
0.0
 11
11.925959856
 21
1.4189211366
 31
0.0
  0
LINE
  5
72
330
1F
100
AcDbEntity
  8
0
  6
Continuous
 62
     7
370
     0
100
AcDbLine
 10
8.5673591625
 20
2.1064211366
 30
0.0
 11
10.5445087334
 21
2.1064211366
 31
0.0
  0
LINE
  5
73
330
1F
100
AcDbEntity
  8
0
  6
Continuous
 62
     7
370
     0
100
AcDbLine
 10
10.5445087334
 20
1.3957965305
 30
0.0
 11
11.925959856
 21
1.3957965305
 31
0.0
  0
LINE
  5
74
330
1F
100
AcDbEntity
  8
0
  6
Continuous
 62
     7
370
     0
100
AcDbLine
 10
8.5673591625
 20
0.8564211366
 30
0.0
 11
10.5445087334
 21
0.8564211366
 31
0.0
  0
LINE
  5
75
330
1F
100
AcDbEntity
  8
0
  6
Continuous
 62
     7
370
     0
100
AcDbLine
 10
6.9301498989
 20
0.3920731707
 30
0.0
 11
6.9301498989
 21
1.3064211366
 31
0.0
  0
LINE
  5
76
330
1F
100
AcDbEntity
  8
0
  6
Continuous
 62
     7
370
     0
100
AcDbLine
 10
8.5673591625
 20
1.3064211366
 30
0.0
 11
6.9301498989
 21
1.3064211366
 31
0.0
  0
LINE
  5
77
330
1F
100
AcDbEntity
  8
0
  6
Continuous
 62
     7
370
     0
100
AcDbLine
 10
14.4072516046
 20
0.3920731707
 30
0.0
 11
14.4072516046
 21
0.3072739649
 31
0.0
  0
LINE
  5
78
330
1F
100
AcDbEntity
  8
0
  6
Continuous
 62
     7
370
     0
100
AcDbLine
 10
12.4385016046
 20
0.3920731707
 30
0.0
 11
12.4385016046
 21
0.3072739649
 31
0.0
  0
LINE
  5
79
330
1F
100
AcDbEntity
  8
0
  6
Continuous
 62
     7
370
     0
100
AcDbLine
 10
10.4697516046
 20
0.3920731707
 30
0.0
 11
10.4697516046
 21
0.3072739649
 31
0.0
  0
LINE
  5
7A
330
1F
100
AcDbEntity
  8
0
  6
Continuous
 62
     7
370
     0
100
AcDbLine
 10
8.5010016046
 20
0.3920731707
 30
0.0
 11
8.5010016046
 21
0.3072739649
 31
0.0
  0
LINE
  5
7B
330
1F
100
AcDbEntity
  8
0
  6
Continuous
 62
     7
370
     0
100
AcDbLine
 10
6.5322516046
 20
0.3920731707
 30
0.0
 11
6.5322516046
 21
0.3072739649
 31
0.0
  0
LINE
  5
7C
330
1F
100
AcDbEntity
  8
0
  6
Continuous
 62
     7
370
     0
100
AcDbLine
 10
4.5635016046
 20
0.3920731707
 30
0.0
 11
4.5635016046
 21
0.3072739649
 31
0.0
  0
LINE
  5
7D
330
1F
100
AcDbEntity
  8
0
  6
Continuous
 62
     7
370
     0
100
AcDbLine
 10
2.5947516046
 20
0.3920731707
 30
0.0
 11
2.5947516046
 21
0.3072739649
 31
0.0
  0
LINE
  5
7E
330
1F
100
AcDbEntity
  8
0
  6
Continuous
 62
     7
370
     0
100
AcDbLine
 10
2.5947516046
 20
10.6420731707
 30
0.0
 11
2.5947516046
 21
10.7268723765
 31
0.0
  0
LINE
  5
7F
330
1F
100
AcDbEntity
  8
0
  6
Continuous
 62
     7
370
     0
100
AcDbLine
 10
4.5635016046
 20
10.6420731707
 30
0.0
 11
4.5635016046
 21
10.7268723765
 31
0.0
  0
LINE
  5
80
330
1F
100
AcDbEntity
  8
0
  6
Continuous
 62
     7
370
     0
100
AcDbLine
 10
6.5322516046
 20
10.6420731707
 30
0.0
 11
6.5322516046
 21
10.7268723765
 31
0.0
  0
LINE
  5
81
330
1F
100
AcDbEntity
  8
0
  6
Continuous
 62
     7
370
     0
100
AcDbLine
 10
8.5010016046
 20
10.6420731707
 30
0.0
 11
8.5010016046
 21
10.7268723765
 31
0.0
  0
LINE
  5
82
330
1F
100
AcDbEntity
  8
0
  6
Continuous
 62
     7
370
     0
100
AcDbLine
 10
10.4697516046
 20
10.6420731707
 30
0.0
 11
10.4697516046
 21
10.7268723765
 31
0.0
  0
LINE
  5
83
330
1F
100
AcDbEntity
  8
0
  6
Continuous
 62
     7
370
     0
100
AcDbLine
 10
12.4385016046
 20
10.6420731707
 30
0.0
 11
12.4385016046
 21
10.7268723765
 31
0.0
  0
LINE
  5
84
330
1F
100
AcDbEntity
  8
0
  6
Continuous
 62
     7
370
     0
100
AcDbLine
 10
14.4072516046
 20
10.6420731707
 30
0.0
 11
14.4072516046
 21
10.7268723765
 31
0.0
  0
LINE
  5
85
330
1F
100
AcDbEntity
  8
0
  6
Continuous
 62
     7
370
     0
100
AcDbLine
 10
8.5010016046
 20
10.6420731707
 30
0.0
 11
8.4877504872
 21
10.6840054626
 31
0.0
  0
LINE
  5
86
330
1F
100
AcDbEntity
  8
0
  6
Continuous
 62
     7
370
     0
100
AcDbLine
 10
8.5010016046
 20
10.6420731707
 30
0.0
 11
8.5135565785
 21
10.6840054626
 31
0.0
  0
LINE
  5
87
330
1F
100
AcDbEntity
  8
0
  6
Continuous
 62
     7
370
     0
100
AcDbLine
 10
8.5135565785
 20
10.6840054626
 30
0.0
 11
8.4877504872
 21
10.6840054626
 31
0.0
  0
LINE
  5
88
330
1F
100
AcDbEntity
  8
0
  6
Continuous
 62
     7
370
     0
100
AcDbLine
 10
8.4939630647
 20
10.6840054626
 30
0.0
 11
8.5010016046
 21
10.6420731707
 31
0.0
  0
LINE
  5
89
330
1F
100
AcDbEntity
  8
0
  6
Continuous
 62
     7
370
     0
100
AcDbLine
 10
8.5059103292
 20
10.6840054626
 30
0.0
 11
8.5010016046
 21
10.6420731707
 31
0.0
  0
LINE
  5
8A
330
1F
100
AcDbEntity
  8
0
  6
Continuous
 62
     7
370
     0
100
AcDbLine
 10
8.5010016046
 20
0.3920731707
 30
0.0
 11
8.5135565785
 21
0.3575
 31
0.0
  0
LINE
  5
8B
330
1F
100
AcDbEntity
  8
0
  6
Continuous
 62
     7
370
     0
100
AcDbLine
 10
8.5135565785
 20
0.3575
 30
0.0
 11
8.4877504872
 21
0.3575
 31
0.0
  0
LINE
  5
8C
330
1F
100
AcDbEntity
  8
0
  6
Continuous
 62
     7
370
     0
100
AcDbLine
 10
8.4877504872
 20
0.3575
 30
0.0
 11
8.5010016046
 21
0.3920731707
 31
0.0
  0
MTEXT
  5
B0
330
1F
100
AcDbEntity
  8
0
  6
Continuous
 62
     7
370
     0
100
AcDbMText
 10
16.4913158734
 20
9.4910002143
 30
0.0
 40
0.09375
 41
0.0
 71
     1
 72
     1
  1
D
  7
SLDTEXTSTYLE0
 73
     1
 44
1.0
  0
MTEXT
  5
B1
330
1F
100
AcDbEntity
  8
0
  6
Continuous
 62
     7
370
     0
100
AcDbMText
 10
16.4711826244
 20
6.9050796101
 30
0.0
 40
0.09375
 41
0.0
 71
     1
 72
     1
  1
C
  7
SLDTEXTSTYLE0
 73
     1
 44
1.0
  0
MTEXT
  5
B2
330
1F
100
AcDbEntity
  8
0
  6
Continuous
 62
     7
370
     0
100
AcDbMText
 10
16.5114787596
 20
4.3790880757
 30
0.0
 40
0.09375
 41
0.0
 71
     1
 72
     1
  1
B
  7
SLDTEXTSTYLE0
 73
     1
 44
1.0
  0
MTEXT
  5
B3
330
1F
100
AcDbEntity
  8
0
  6
Continuous
 62
     7
370
     0
100
AcDbMText
 10
16.4820809255
 20
1.7726256602
 30
0.0
 40
0.09375
 41
0.0
 71
     1
 72
     1
  1
A
  7
SLDTEXTSTYLE0
 73
     1
 44
1.0
  0
MTEXT
  5
B4
330
1F
100
AcDbEntity
  8
0
  6
Continuous
 62
     7
370
     0
100
AcDbMText
 10
0.4260099495
 20
1.7558500975
 30
0.0
 40
0.09375
 41
0.0
 71
     1
 72
     1
  1
A
  7
SLDTEXTSTYLE0
 73
     1
 44
1.0
  0
MTEXT
  5
B5
330
1F
100
AcDbEntity
  8
0
  6
Continuous
 62
     7
370
     0
100
AcDbMText
 10
0.4264017314
 20
4.3932455017
 30
0.0
 40
0.09375
 41
0.0
 71
     1
 72
     1
  1
B
  7
SLDTEXTSTYLE0
 73
     1
 44
1.0
  0
MTEXT
  5
B6
330
1F
100
AcDbEntity
  8
0
  6
Continuous
 62
     7
370
     0
100
AcDbMText
 10
0.427314415
 20
6.9103438243
 30
0.0
 40
0.09375
 41
0.0
 71
     1
 72
     1
  1
C
  7
SLDTEXTSTYLE0
 73
     1
 44
1.0
  0
MTEXT
  5
B7
330
1F
100
AcDbEntity
  8
0
  6
Continuous
 62
     7
370
     0
100
AcDbMText
 10
0.42861048
 20
9.4575473632
 30
0.0
 40
0.09375
 41
0.0
 71
     1
 72
     1
  1
D
  7
SLDTEXTSTYLE0
 73
     1
 44
1.0
  0
MTEXT
  5
B8
330
1F
100
AcDbEntity
  8
0
  6
Continuous
 62
     7
370
     0
100
AcDbMText
 10
15.4083167374
 20
0.301372012
 30
0.0
 40
0.09375
 41
0.0
 71
     1
 72
     1
  1
1
  7
SLDTEXTSTYLE0
 73
     1
 44
1.0
  0
MTEXT
  5
B9
330
1F
100
AcDbEntity
  8
0
  6
Continuous
 62
     7
370
     0
100
AcDbMText
 10
13.352296777
 20
0.3124391351
 30
0.0
 40
0.09375
 41
0.0
 71
     1
 72
     1
  1
2
  7
SLDTEXTSTYLE0
 73
     1
 44
1.0
  0
MTEXT
  5
BA
330
1F
100
AcDbEntity
  8
0
  6
Continuous
 62
     7
370
     0
100
AcDbMText
 10
11.3787703324
 20
0.3116191842
 30
0.0
 40
0.09375
 41
0.0
 71
     1
 72
     1
  1
3
  7
SLDTEXTSTYLE0
 73
     1
 44
1.0
  0
MTEXT
  5
BB
330
1F
100
AcDbEntity
  8
0
  6
Continuous
 62
     7
370
     0
100
AcDbMText
 10
9.4701249316
 20
0.3137237518
 30
0.0
 40
0.09375
 41
0.0
 71
     1
 72
     1
  1
4
  7
SLDTEXTSTYLE0
 73
     1
 44
1.0
  0
MTEXT
  5
BC
330
1F
100
AcDbEntity
  8
0
  6
Continuous
 62
     7
370
     0
100
AcDbMText
 10
7.4851155555
 20
0.3105864247
 30
0.0
 40
0.09375
 41
0.0
 71
     1
 72
     1
  1
5
  7
SLDTEXTSTYLE0
 73
     1
 44
1.0
  0
MTEXT
  5
BD
330
1F
100
AcDbEntity
  8
0
  6
Continuous
 62
     7
370
     0
100
AcDbMText
 10
5.5188252386
 20
0.3136554184
 30
0.0
 40
0.09375
 41
0.0
 71
     1
 72
     1
  1
6
  7
SLDTEXTSTYLE0
 73
     1
 44
1.0
  0
MTEXT
  5
BE
330
1F
100
AcDbEntity
  8
0
  6
Continuous
 62
     7
370
     0
100
AcDbMText
 10
3.5574266754
 20
0.3132610152
 30
0.0
 40
0.09375
 41
0.0
 71
     1
 72
     1
  1
7
  7
SLDTEXTSTYLE0
 73
     1
 44
1.0
  0
MTEXT
  5
BF
330
1F
100
AcDbEntity
  8
0
  6
Continuous
 62
     7
370
     0
100
AcDbMText
 10
1.5267744527
 20
0.3129627523
 30
0.0
 40
0.09375
 41
0.0
 71
     1
 72
     1
  1
8
  7
SLDTEXTSTYLE0
 73
     1
 44
1.0
  0
MTEXT
  5
C0
330
1F
100
AcDbEntity
  8
0
  6
Continuous
 62
     7
370
     0
100
AcDbMText
 10
1.5090888689
 20
10.8314982566
 30
0.0
 40
0.09375
 41
0.0
 71
     1
 72
     1
  1
8
  7
SLDTEXTSTYLE0
 73
     1
 44
1.0
  0
MTEXT
  5
C1
330
1F
100
AcDbEntity
  8
0
  6
Continuous
 62
     7
370
     0
100
AcDbMText
 10
3.5509870273
 20
10.8286572975
 30
0.0
 40
0.09375
 41
0.0
 71
     1
 72
     1
  1
7
  7
SLDTEXTSTYLE0
 73
     1
 44
1.0
  0
MTEXT
  5
C2
330
1F
100
AcDbEntity
  8
0
  6
Continuous
 62
     7
370
     0
100
AcDbMText
 10
5.4986876861
 20
10.8367485308
 30
0.0
 40
0.09375
 41
0.0
 71
     1
 72
     1
  1
6
  7
SLDTEXTSTYLE0
 73
     1
 44
1.0
  0
MTEXT
  5
C3
330
1F
100
AcDbEntity
  8
0
  6
Continuous
 62
     7
370
     0
100
AcDbMText
 10
7.4786946819
 20
10.8372850881
 30
0.0
 40
0.09375
 41
0.0
 71
     1
 72
     1
  1
5
  7
SLDTEXTSTYLE0
 73
     1
 44
1.0
  0
MTEXT
  5
C4
330
1F
100
AcDbEntity
  8
0
  6
Continuous
 62
     7
370
     0
100
AcDbMText
 10
9.464298725
 20
10.8356557449
 30
0.0
 40
0.09375
 41
0.0
 71
     1
 72
     1
  1
4
  7
SLDTEXTSTYLE0
 73
     1
 44
1.0
  0
MTEXT
  5
C5
330
1F
100
AcDbEntity
  8
0
  6
Continuous
 62
     7
370
     0
100
AcDbMText
 10
11.432728105
 20
10.8295222638
 30
0.0
 40
0.09375
 41
0.0
 71
     1
 72
     1
  1
3
  7
SLDTEXTSTYLE0
 73
     1
 44
1.0
  0
MTEXT
  5
C6
330
1F
100
AcDbEntity
  8
0
  6
Continuous
 62
     7
370
     0
100
AcDbMText
 10
13.4009949841
 20
10.8362021378
 30
0.0
 40
0.09375
 41
0.0
 71
     1
 72
     1
  1
2
  7
SLDTEXTSTYLE0
 73
     1
 44
1.0
  0
MTEXT
  5
C7
330
1F
100
AcDbEntity
  8
0
  6
Continuous
 62
     7
370
     0
100
AcDbMText
 10
15.4273970005
 20
10.8300686568
 30
0.0
 40
0.09375
 41
0.0
 71
     1
 72
     1
  1
1
  7
SLDTEXTSTYLE0
 73
     1
 44
1.0
  0
INSERT
  5
D2
330
1F
100
AcDbEntity
  8
0
  6
Continuous
 62
     7
370
     0
100
AcDbBlockReference
  2
SW_NOTE_0
 10
6.968945512
 20
1.0313492921
 30
0.0
  0
MTEXT
  5
D3
330
1F
100
AcDbEntity
  8
0
  6
Continuous
 62
     7
370
     0
100
AcDbMText
 10
7.1175735535
 20
1.2496672684
 30
0.0
 40
0.06
 41
0.0
 71
     1
 72
     1
  1
PROPRIETARY AND CONFIDENTIAL
  7
SLDTEXTSTYLE0
 73
     1
 44
1.0
  0
MTEXT
  5
D4
330
1F
100
AcDbEntity
  8
0
  6
Continuous
 62
     7
370
     0
100
AcDbMText
 10
8.8503265582
 20
0.7492094783
 30
0.0
 40
0.0625
 41
0.0
 71
     1
 72
     1
  1
NEXT ASSY
  7
SLDTEXTSTYLE0
 73
     1
 44
1.0
  0
MTEXT
  5
D5
330
1F
100
AcDbEntity
  8
0
  6
Continuous
 62
     7
370
     0
100
AcDbMText
 10
9.8468853805
 20
0.7502454275
 30
0.0
 40
0.0625
 41
0.0
 71
     1
 72
     1
  1
USED ON
  7
SLDTEXTSTYLE0
 73
     1
 44
1.0
  0
MTEXT
  5
D6
330
1F
100
AcDbEntity
  8
0
  6
Continuous
 62
     7
370
     0
100
AcDbMText
 10
9.2994646132
 20
0.5200091997
 30
0.0
 40
0.0625
 41
0.0
 71
     1
 72
     1
  1
APPLICATION
  7
SLDTEXTSTYLE0
 73
     1
 44
1.0
  0
INSERT
  5
E6
330
1F
100
AcDbEntity
  8
0
  6
Continuous
 62
     7
370
     0
100
AcDbBlockReference
  2
SW_NOTE_1
 10
10.5816585399
 20
2.0049168724
 30
0.0
  0
INSERT
  5
EC
330
1F
100
AcDbEntity
  8
0
  6
Continuous
 62
     7
370
     0
100
AcDbBlockReference
  2
SW_NOTE_2
 10
10.5695172679
 20
1.2646542947
 30
0.0
  0
MTEXT
  5
ED
330
1F
100
AcDbEntity
  8
0
  6
Continuous
 62
     7
370
     0
100
AcDbMText
 10
10.5644486694
 20
1.1028217587
 30
0.0
 40
0.06
 41
0.0
 71
     1
 72
     1
  1
MATERIAL
  7
SLDTEXTSTYLE0
 73
     1
 44
1.0
  0
MTEXT
  5
EE
330
1F
100
AcDbEntity
  8
0
  6
Continuous
 62
     7
370
     0
100
AcDbMText
 10
10.5671847025
 20
0.834523235
 30
0.0
 40
0.06
 41
0.0
 71
     1
 72
     1
  1
FINISH
  7
SLDTEXTSTYLE0
 73
     1
 44
1.0
  0
MTEXT
  5
EF
330
1F
100
AcDbEntity
  8
0
  6
Continuous
 62
     7
370
     0
100
AcDbMText
 10
11.9706040402
 20
2.1016301232
 30
0.0
 40
0.065
 41
0.0
 71
     1
 72
     1
  1
DRAWN
  7
SLDTEXTSTYLE0
 73
     1
 44
1.0
  0
MTEXT
  5
F0
330
1F
100
AcDbEntity
  8
0
  6
Continuous
 62
     7
370
     0
100
AcDbMText
 10
11.9727349997
 20
1.9092699088
 30
0.0
 40
0.065
 41
0.0
 71
     1
 72
     1
  1
CHECKED
  7
SLDTEXTSTYLE0
 73
     1
 44
1.0
  0
MTEXT
  5
F1
330
1F
100
AcDbEntity
  8
0
  6
Continuous
 62
     7
370
     0
100
AcDbMText
 10
11.969841739
 20
1.7267501785
 30
0.0
 40
0.065
 41
0.0
 71
     1
 72
     1
  1
ENG APPR.
  7
SLDTEXTSTYLE0
 73
     1
 44
1.0
  0
MTEXT
  5
F2
330
1F
100
AcDbEntity
  8
0
  6
Continuous
 62
     7
370
     0
100
AcDbMText
 10
11.9747900555
 20
1.5395328424
 30
0.0
 40
0.065
 41
0.0
 71
     1
 72
     1
  1
MFG APPR.
  7
SLDTEXTSTYLE0
 73
     1
 44
1.0
  0
MTEXT
  5
F3
330
1F
100
AcDbEntity
  8
0
  6
Continuous
 62
     7
370
     0
100
AcDbMText
 10
11.9731657507
 20
1.3536101679
 30
0.0
 40
0.065
 41
0.0
 71
     1
 72
     1
  1
Q.A.
  7
SLDTEXTSTYLE0
 73
     1
 44
1.0
  0
MTEXT
  5
F4
330
1F
100
AcDbEntity
  8
0
  6
Continuous
 62
     7
370
     0
100
AcDbMText
 10
11.9740393075
 20
1.1876913145
 30
0.0
 40
0.065
 41
0.0
 71
     1
 72
     1
  1
COMMENTS:
  7
SLDTEXTSTYLE0
 73
     1
 44
1.0
  0
MTEXT
  5
F5
330
1F
100
AcDbEntity
  8
0
  6
Continuous
 62
     7
370
     0
100
AcDbMText
 10
13.274475668
 20
2.2888799118
 30
0.0
 40
0.065
 41
0.0
 71
     1
 72
     1
  1
DATE
  7
SLDTEXTSTYLE0
 73
     1
 44
1.0
  0
MTEXT
  5
F6
330
1F
100
AcDbEntity
  8
0
  6
Continuous
 62
     7
370
     0
100
AcDbMText
 10
12.7827020976
 20
2.2906161274
 30
0.0
 40
0.065
 41
0.0
 71
     1
 72
     1
  1
NAME
  7
SLDTEXTSTYLE0
 73
     1
 44
1.0
  0
MTEXT
  5
F7
330
1F
100
AcDbEntity
  8
0
  6
Continuous
 62
     7
370
     0
100
AcDbMText
 10
13.6633950223
 20
1.9547881128
 30
0.0
 40
0.1
 41
0.0
 71
     1
 72
     1
  1
TITLE:
  7
SLDTEXTSTYLE0
 73
     1
 44
1.0
  0
MTEXT
  5
F8
330
1F
100
AcDbEntity
  8
0
  6
Continuous
 62
     7
370
     0
100
AcDbMText
 10
13.6982827868
 20
1.0872713483
 30
0.0
 40
0.1
 41
0.0
 71
     1
 72
     1
  1
SIZE
  7
SLDTEXTSTYLE0
 73
     1
 44
1.0
  0
MTEXT
  5
F9
330
1F
100
AcDbEntity
  8
0
  6
Continuous
 62
     7
370
     0
100
AcDbMText
 10
13.7061728678
 20
0.9442140768
 30
0.0
 40
0.25
 41
0.0
 71
     1
 72
     1
  1
B
  7
SLDTEXTSTYLE0
 73
     1
 44
1.0
  0
MTEXT
  5
FB
330
1F
100
AcDbEntity
  8
0
  6
Continuous
 62
     7
370
     0
100
AcDbMText
 10
14.0447816944
 20
1.0858725293
 30
0.0
 40
0.1
 41
0.0
 71
     1
 72
     1
  1
DWG.  NO.
  7
SLDTEXTSTYLE1
 73
     1
 44
1.0
  0
MTEXT
  5
FC
330
1F
100
AcDbEntity
  8
0
  6
Continuous
 62
     7
370
     0
100
AcDbMText
 10
15.974082703
 20
1.081966299
 30
0.0
 40
0.1
 41
0.0
 71
     1
 72
     1
  1
REV
  7
SLDTEXTSTYLE0
 73
     1
 44
1.0
  0
MTEXT
  5
FD
330
1F
100
AcDbEntity
  8
0
  6
Continuous
 62
     7
370
     0
100
AcDbMText
 10
14.4486937693
 20
0.5486763345
 30
0.0
 40
0.1
 41
0.0
 71
     1
 72
     1
  1
WEIGHT: 
  7
SLDTEXTSTYLE0
 73
     1
 44
1.0
  0
MTEXT
  5
FE
330
1F
100
AcDbEntity
  8
0
  6
Continuous
 62
     7
370
     0
100
AcDbMText
 10
13.7049385694
 20
0.5520987879
 30
0.0
 40
0.1
 41
0.0
 71
     1
 72
     1
  1
SCALE: 1:2
  7
SLDTEXTSTYLE0
 73
     1
 44
1.0
  0
MTEXT
  5
FF
330
1F
100
AcDbEntity
  8
0
  6
Continuous
 62
     7
370
     0
100
AcDbMText
 10
10.5911323904
 20
2.3132954224
 30
0.0
 40
0.07
 41
0.0
 71
     1
 72
     1
  1
UNLESS OTHERWISE SPECIFIED:
  7
SLDTEXTSTYLE0
 73
     1
 44
1.0
  0
MTEXT
  5
101
330
1F
100
AcDbEntity
  8
0
  6
Continuous
 62
     7
370
     0
100
AcDbMText
 10
15.5034524529
 20
0.5524239532
 30
0.0
 40
0.1
 41
0.0
 71
     1
 72
     1
  1
SHEET 1 OF 1
  7
SLDTEXTSTYLE2
 73
     1
 44
1.0
  0
MTEXT
  5
102
330
1F
100
AcDbEntity
  8
FORMAT
 62
     7
100
AcDbMText
 10
14.2151003318
 20
0.9500621419
 30
0.0
 40
0.25
 41
0.0
 71
     1
 72
     1
  1
PH 10000
  7
SLDTEXTSTYLE0
 73
     1
 44
1.0
  0
MTEXT
  5
103
330
1F
100
AcDbEntity
  8
0
  6
Continuous
 62
     7
370
     0
100
AcDbMText
 10
10.7239093007
 20
0.5178452352
 30
0.0
 40
0.0625
 41
0.0
 71
     1
 72
     1
  1
DO NOT SCALE DRAWING
  7
SLDTEXTSTYLE0
 73
     1
 44
1.0
  0
LINE
  5
104
330
1F
100
AcDbEntity
  8
0
  6
Continuous
 62
     7
370
    15
100
AcDbLine
 10
3.4463509577
 20
4.7930151321
 30
0.0
 11
3.4388509577
 21
4.7855151321
 31
0.0
  0
LINE
  5
105
330
1F
100
AcDbEntity
  8
0
  6
Continuous
 62
     7
370
    15
100
AcDbLine
 10
3.4388509577
 20
4.7855151321
 30
0.0
 11
3.4388509577
 21
4.7604883421
 31
0.0
  0
LINE
  5
106
330
1F
100
AcDbEntity
  8
0
  6
Continuous
 62
     7
370
    15
100
AcDbLine
 10
3.4388509577
 20
4.1562505835
 30
0.0
 11
3.4388509577
 21
4.1312237935
 31
0.0
  0
LINE
  5
107
330
1F
100
AcDbEntity
  8
0
  6
Continuous
 62
     7
370
    15
100
AcDbLine
 10
3.4388509577
 20
4.1312237935
 30
0.0
 11
3.4463509577
 21
4.1237237935
 31
0.0
  0
CIRCLE
  5
108
330
1F
100
AcDbEntity
  8
0
  6
Continuous
 62
     7
370
    15
100
AcDbCircle
 10
4.5872761546
 20
4.4583694628
 30
0.0
 40
0.7349999999999994
  0
CIRCLE
  5
109
330
1F
100
AcDbEntity
  8
0
  6
Continuous
 62
     7
370
    15
100
AcDbCircle
 10
4.5872761546
 20
4.4583694628
 30
0.0
 40
0.3125
  0
CIRCLE
  5
10A
330
1F
100
AcDbEntity
  8
0
  6
Continuous
 62
     7
370
    15
100
AcDbCircle
 10
5.2122761546
 20
4.4583694628
 30
0.0
 40
0.0642499999999995
  0
CIRCLE
  5
10B
330
1F
100
AcDbEntity
  8
0
  6
Continuous
 62
     7
370
    15
100
AcDbCircle
 10
4.2747761546
 20
3.9171035854
 30
0.0
 40
0.0642499999999995
  0
CIRCLE
  5
10C
330
1F
100
AcDbEntity
  8
0
  6
Continuous
 62
     7
370
    15
100
AcDbCircle
 10
4.8997761546
 20
3.9171035854
 30
0.0
 40
0.0642499999999995
  0
CIRCLE
  5
10D
330
1F
100
AcDbEntity
  8
0
  6
Continuous
 62
     7
370
    15
100
AcDbCircle
 10
3.9622761546
 20
4.4583694628
 30
0.0
 40
0.0642499999999999
  0
CIRCLE
  5
10E
330
1F
100
AcDbEntity
  8
0
  6
Continuous
 62
     7
370
    15
100
AcDbCircle
 10
4.8997761546
 20
4.9996353401
 30
0.0
 40
0.0642499999999995
  0
CIRCLE
  5
10F
330
1F
100
AcDbEntity
  8
0
  6
Continuous
 62
     7
370
    15
100
AcDbCircle
 10
4.2747761546
 20
4.9996353401
 30
0.0
 40
0.0642499999999995
  0
CIRCLE
  5
110
330
1F
100
AcDbEntity
  8
0
  6
Continuous
 62
     7
370
    15
100
AcDbCircle
 10
4.5872761546
 20
4.4583694628
 30
0.0
 40
1.162500000000001
  0
CIRCLE
  5
111
330
1F
100
AcDbEntity
  8
0
  6
Continuous
 62
     7
370
    15
100
AcDbCircle
 10
4.5872761546
 20
4.4583694628
 30
0.0
 40
1.1875
  0
LINE
  5
112
330
1F
100
AcDbEntity
  8
0
  6
Continuous
 62
     7
370
    15
100
AcDbLine
 10
3.4463509577
 20
4.7930151321
 30
0.0
 11
3.447904167
 21
4.7930151321
 31
0.0
  0
LINE
  5
113
330
1F
100
AcDbEntity
  8
0
  6
Continuous
 62
     7
370
    15
100
AcDbLine
 10
3.4457280999
 20
4.7855151321
 30
0.0
 11
3.4388509577
 21
4.7855151321
 31
0.0
  0
LINE
  5
114
330
1F
100
AcDbEntity
  8
0
  6
Continuous
 62
     7
370
    15
100
AcDbLine
 10
3.4457280999
 20
4.1312237935
 30
0.0
 11
3.4388509577
 21
4.1312237935
 31
0.0
  0
LINE
  5
115
330
1F
100
AcDbEntity
  8
0
  6
Continuous
 62
     7
370
    15
100
AcDbLine
 10
3.4463509577
 20
4.1237237935
 30
0.0
 11
3.447904167
 21
4.1237237935
 31
0.0
  0
LINE
  5
116
330
1F
100
AcDbEntity
  8
0
  6
HIDDEN
 62
     7
370
     0
100
AcDbLine
 10
3.5372761546
 20
4.2615190691
 30
0.0
 11
3.6455438711
 21
4.2615190691
 31
0.0
  0
LINE
  5
117
330
1F
100
AcDbEntity
  8
0
  6
HIDDEN
 62
     7
370
     0
100
AcDbLine
 10
3.429008438
 20
4.2615190691
 30
0.0
 11
3.5372761546
 21
4.2615190691
 31
0.0
  0
LINE
  5
118
330
1F
100
AcDbEntity
  8
0
  6
HIDDEN
 62
     7
370
     0
100
AcDbLine
 10
3.6455438711
 20
4.6552198565
 30
0.0
 11
3.429008438
 21
4.6552198565
 31
0.0
  0
LINE
  5
119
330
1F
100
AcDbEntity
  8
0
  6
HIDDEN
 62
     7
370
     0
100
AcDbLine
 10
5.3384253444
 20
5.2161412833
 30
0.0
 11
5.4639714064
 21
5.0665213129
 31
0.0
  0
LINE
  5
11A
330
1F
100
AcDbEntity
  8
0
  6
HIDDEN
 62
     7
370
     0
100
AcDbLine
 10
3.9714522787
 20
5.3296927043
 30
0.0
 11
4.1406000304
 21
5.4273502043
 31
0.0
  0
LINE
  5
11B
330
1F
100
AcDbEntity
  8
0
  6
HIDDEN
 62
     7
370
     0
100
AcDbLine
 10
5.4639714064
 20
3.8502176127
 30
0.0
 11
5.3384253444
 21
3.7005976423
 31
0.0
  0
LINE
  5
11C
330
1F
100
AcDbEntity
  8
0
  6
HIDDEN
 62
     7
370
     0
100
AcDbLine
 10
4.1406000304
 20
3.4893887213
 30
0.0
 11
3.9714522787
 21
3.5870462213
 31
0.0
  0
LINE
  5
11D
330
1F
100
AcDbEntity
  8
0
  6
HIDDEN
 62
     7
370
     0
100
AcDbLine
 10
3.5372761546
 20
4.7930151321
 30
0.0
 11
3.6282013514
 21
4.7930151321
 31
0.0
  0
LINE
  5
11E
330
1F
100
AcDbEntity
  8
0
  6
HIDDEN
 62
     7
370
     0
100
AcDbLine
 10
3.447904167
 20
4.7930151321
 30
0.0
 11
3.5372761546
 21
4.7930151321
 31
0.0
  0
LINE
  5
11F
330
1F
100
AcDbEntity
  8
0
  6
HIDDEN
 62
     7
370
     0
100
AcDbLine
 10
3.5372761546
 20
4.7855151321
 30
0.0
 11
3.4457280999
 21
4.7855151321
 31
0.0
  0
LINE
  5
120
330
1F
100
AcDbEntity
  8
0
  6
HIDDEN
 62
     7
370
     0
100
AcDbLine
 10
3.6357013514
 20
4.7855151321
 30
0.0
 11
3.5372761546
 21
4.7855151321
 31
0.0
  0
LINE
  5
121
330
1F
100
AcDbEntity
  8
0
  6
HIDDEN
 62
     7
370
     0
100
AcDbLine
 10
3.5372761546
 20
4.6749048958
 30
0.0
 11
3.6357013514
 21
4.6749048958
 31
0.0
  0
LINE
  5
122
330
1F
100
AcDbEntity
  8
0
  6
HIDDEN
 62
     7
370
     0
100
AcDbLine
 10
3.4388509577
 20
4.6749048958
 30
0.0
 11
3.5372761546
 21
4.6749048958
 31
0.0
  0
LINE
  5
123
330
1F
100
AcDbEntity
  8
0
  6
HIDDEN
 62
     7
370
     0
100
AcDbLine
 10
3.5372761546
 20
4.0627198565
 30
0.0
 11
3.5963312727
 21
4.0627198565
 31
0.0
  0
LINE
  5
124
330
1F
100
AcDbEntity
  8
0
  6
HIDDEN
 62
     7
370
     0
100
AcDbLine
 10
3.4782210365
 20
4.0627198565
 30
0.0
 11
3.5372761546
 21
4.0627198565
 31
0.0
  0
LINE
  5
125
330
1F
100
AcDbEntity
  8
0
  6
HIDDEN
 62
     7
370
     0
100
AcDbLine
 10
3.5372761546
 20
4.0552198565
 30
0.0
 11
3.4857210365
 21
4.0552198565
 31
0.0
  0
LINE
  5
126
330
1F
100
AcDbEntity
  8
0
  6
HIDDEN
 62
     7
370
     0
100
AcDbLine
 10
3.5888312727
 20
4.0552198565
 30
0.0
 11
3.5372761546
 21
4.0552198565
 31
0.0
  0
LINE
  5
127
330
1F
100
AcDbEntity
  8
0
  6
HIDDEN
 62
     7
370
     0
100
AcDbLine
 10
3.4880635561
 20
4.7536450533
 30
0.0
 11
3.5372761546
 21
4.7536450533
 31
0.0
  0
LINE
  5
128
330
1F
100
AcDbEntity
  8
0
  6
HIDDEN
 62
     7
370
     0
100
AcDbLine
 10
3.5372761546
 20
4.7536450533
 30
0.0
 11
3.5372761546
 21
4.7930151321
 31
0.0
  0
LINE
  5
129
330
1F
100
AcDbEntity
  8
0
  6
HIDDEN
 62
     7
370
     0
100
AcDbLine
 10
3.5372761546
 20
4.7536450533
 30
0.0
 11
3.586488753
 21
4.7536450533
 31
0.0
  0
LINE
  5
12A
330
1F
100
AcDbEntity
  8
0
  6
HIDDEN
 62
     7
370
     0
100
AcDbLine
 10
3.4880635561
 20
4.7536450533
 30
0.0
 11
3.4880635561
 21
4.7930151321
 31
0.0
  0
LINE
  5
12B
330
1F
100
AcDbEntity
  8
0
  6
HIDDEN
 62
     7
370
     0
100
AcDbLine
 10
3.586488753
 20
4.7536450533
 30
0.0
 11
3.586488753
 21
4.7930151321
 31
0.0
  0
LINE
  5
12C
330
1F
100
AcDbEntity
  8
0
  6
HIDDEN
 62
     7
370
     0
100
AcDbLine
 10
3.5372761546
 20
4.1312237935
 30
0.0
 11
3.4457280999
 21
4.1312237935
 31
0.0
  0
LINE
  5
12D
330
1F
100
AcDbEntity
  8
0
  6
HIDDEN
 62
     7
370
     0
100
AcDbLine
 10
3.6357013514
 20
4.1312237935
 30
0.0
 11
3.5372761546
 21
4.1312237935
 31
0.0
  0
LINE
  5
12E
330
1F
100
AcDbEntity
  8
0
  6
HIDDEN
 62
     7
370
     0
100
AcDbLine
 10
3.5372761546
 20
4.2418340297
 30
0.0
 11
3.6357013514
 21
4.2418340297
 31
0.0
  0
LINE
  5
12F
330
1F
100
AcDbEntity
  8
0
  6
HIDDEN
 62
     7
370
     0
100
AcDbLine
 10
3.4388509577
 20
4.2418340297
 30
0.0
 11
3.5372761546
 21
4.2418340297
 31
0.0
  0
LINE
  5
130
330
1F
100
AcDbEntity
  8
0
  6
HIDDEN
 62
     7
370
     0
100
AcDbLine
 10
3.5372761546
 20
4.1237237935
 30
0.0
 11
3.6282013514
 21
4.1237237935
 31
0.0
  0
LINE
  5
131
330
1F
100
AcDbEntity
  8
0
  6
HIDDEN
 62
     7
370
     0
100
AcDbLine
 10
3.447904167
 20
4.1237237935
 30
0.0
 11
3.5372761546
 21
4.1237237935
 31
0.0
  0
LINE
  5
132
330
1F
100
AcDbEntity
  8
0
  6
HIDDEN
 62
     7
370
     0
100
AcDbLine
 10
3.5372761546
 20
4.8540190691
 30
0.0
 11
3.5963312727
 21
4.8540190691
 31
0.0
  0
LINE
  5
133
330
1F
100
AcDbEntity
  8
0
  6
HIDDEN
 62
     7
370
     0
100
AcDbLine
 10
3.4782210365
 20
4.8540190691
 30
0.0
 11
3.5372761546
 21
4.8540190691
 31
0.0
  0
LINE
  5
134
330
1F
100
AcDbEntity
  8
0
  6
HIDDEN
 62
     7
370
     0
100
AcDbLine
 10
3.5372761546
 20
4.8615190691
 30
0.0
 11
3.4857210365
 21
4.8615190691
 31
0.0
  0
LINE
  5
135
330
1F
100
AcDbEntity
  8
0
  6
HIDDEN
 62
     7
370
     0
100
AcDbLine
 10
3.5888312727
 20
4.8615190691
 30
0.0
 11
3.5372761546
 21
4.8615190691
 31
0.0
  0
LINE
  5
136
330
1F
100
AcDbEntity
  8
0
  6
HIDDEN
 62
     7
370
     0
100
AcDbLine
 10
3.5372761546
 20
4.1630938722
 30
0.0
 11
3.5372761546
 21
4.1237237935
 31
0.0
  0
LINE
  5
137
330
1F
100
AcDbEntity
  8
0
  6
HIDDEN
 62
     7
370
     0
100
AcDbLine
 10
3.5372761546
 20
4.1630938722
 30
0.0
 11
3.586488753
 21
4.1630938722
 31
0.0
  0
LINE
  5
138
330
1F
100
AcDbEntity
  8
0
  6
HIDDEN
 62
     7
370
     0
100
AcDbLine
 10
3.4880635561
 20
4.1630938722
 30
0.0
 11
3.5372761546
 21
4.1630938722
 31
0.0
  0
LINE
  5
139
330
1F
100
AcDbEntity
  8
0
  6
HIDDEN
 62
     7
370
     0
100
AcDbLine
 10
3.4880635561
 20
4.1630938722
 30
0.0
 11
3.4880635561
 21
4.1237237935
 31
0.0
  0
LINE
  5
13A
330
1F
100
AcDbEntity
  8
0
  6
HIDDEN
 62
     7
370
     0
100
AcDbLine
 10
3.586488753
 20
4.1630938722
 30
0.0
 11
3.586488753
 21
4.1237237935
 31
0.0
  0
LINE
  5
13B
330
1F
100
AcDbEntity
  8
0
  6
HIDDEN
 62
     7
370
     0
100
AcDbLine
 10
4.6654011546
 20
4.761182041
 30
0.0
 11
4.6654011546
 21
5.1893085064
 31
0.0
  0
LINE
  5
13C
330
1F
100
AcDbEntity
  8
0
  6
HIDDEN
 62
     7
370
     0
100
AcDbLine
 10
4.5091511546
 20
5.189205617
 30
0.0
 11
4.5091511546
 21
4.7610533795
 31
0.0
  0
LINE
  5
13D
330
1F
100
AcDbEntity
  8
0
  6
HIDDEN
 62
     7
370
     0
100
AcDbLine
 10
3.429008438
 20
4.2615190691
 30
0.0
 11
3.429008438
 21
4.196310311
 31
0.0
  0
LINE
  5
13E
330
1F
100
AcDbEntity
  8
0
  6
HIDDEN
 62
     7
370
     0
100
AcDbLine
 10
3.6455438711
 20
3.7351849197
 30
0.0
 11
3.6455438711
 21
4.2615190691
 31
0.0
  0
LINE
  5
13F
330
1F
100
AcDbEntity
  8
0
  6
HIDDEN
 62
     7
370
     0
100
AcDbLine
 10
3.4723155246
 20
4.8673377866
 30
0.0
 11
3.4723155246
 21
4.2615190691
 31
0.0
  0
LINE
  5
140
330
1F
100
AcDbEntity
  8
0
  6
HIDDEN
 62
     7
370
     0
100
AcDbLine
 10
3.6022367845
 20
4.2615190691
 30
0.0
 11
3.6022367845
 21
5.1215479364
 31
0.0
  0
LINE
  5
141
330
1F
100
AcDbEntity
  8
0
  6
HIDDEN
 62
     7
370
     0
100
AcDbLine
 10
3.6455438711
 20
4.6552198565
 30
0.0
 11
3.6455438711
 21
5.1809122907
 31
0.0
  0
LINE
  5
142
330
1F
100
AcDbEntity
  8
0
  6
HIDDEN
 62
     7
370
     0
100
AcDbLine
 10
3.429008438
 20
4.7205503815
 30
0.0
 11
3.429008438
 21
4.6552198565
 31
0.0
  0
LINE
  5
143
330
1F
100
AcDbEntity
  8
0
  6
HIDDEN
 62
     7
370
     0
100
AcDbLine
 10
5.4311203446
 20
5.2939216238
 30
0.0
 11
5.3384253444
 21
5.2161412833
 31
0.0
  0
LINE
  5
144
330
1F
100
AcDbEntity
  8
0
  6
HIDDEN
 62
     7
370
     0
100
AcDbLine
 10
5.4639714064
 20
5.0665213129
 30
0.0
 11
5.5566456353
 21
5.1442842241
 31
0.0
  0
LINE
  5
145
330
1F
100
AcDbEntity
  8
0
  6
HIDDEN
 62
     7
370
     0
100
AcDbLine
 10
3.9109499142
 20
5.4344858736
 30
0.0
 11
3.9714522787
 21
5.3296927043
 31
0.0
  0
LINE
  5
146
330
1F
100
AcDbEntity
  8
0
  6
HIDDEN
 62
     7
370
     0
100
AcDbLine
 10
4.1406000304
 20
5.4273502043
 30
0.0
 11
4.0801112235
 21
5.5321198913
 31
0.0
  0
LINE
  5
147
330
1F
100
AcDbEntity
  8
0
  6
HIDDEN
 62
     7
370
     0
100
AcDbLine
 10
5.5566648066
 20
3.7724386147
 30
0.0
 11
5.4639714064
 21
3.8502176127
 31
0.0
  0
LINE
  5
148
330
1F
100
AcDbEntity
  8
0
  6
HIDDEN
 62
     7
370
     0
100
AcDbLine
 10
5.3384253444
 20
3.7005976423
 30
0.0
 11
5.4310995733
 21
3.622834731
 31
0.0
  0
LINE
  5
149
330
1F
100
AcDbEntity
  8
0
  6
HIDDEN
 62
     7
370
     0
100
AcDbLine
 10
4.080097666
 20
3.384595552
 30
0.0
 11
4.1406000304
 21
3.4893887213
 31
0.0
  0
LINE
  5
14A
330
1F
100
AcDbEntity
  8
0
  6
HIDDEN
 62
     7
370
     0
100
AcDbLine
 10
3.9714522787
 20
3.5870462213
 30
0.0
 11
3.9109634717
 21
3.4822765343
 31
0.0
  0
LINE
  5
14B
330
1F
100
AcDbEntity
  8
0
  6
HIDDEN
 62
     7
370
     0
100
AcDbLine
 10
3.9714522787
 20
5.3296927043
 30
0.0
 11
4.0853654275
 21
5.3277043429
 31
0.0
  0
LINE
  5
14C
330
1F
100
AcDbEntity
  8
0
  6
HIDDEN
 62
     7
370
     0
100
AcDbLine
 10
4.0853654275
 20
5.3277043429
 30
0.0
 11
4.1406000304
 21
5.4273502043
 31
0.0
  0
LINE
  5
14D
330
1F
100
AcDbEntity
  8
0
  6
HIDDEN
 62
     7
370
     0
100
AcDbLine
 10
5.3384253444
 20
5.2161412833
 30
0.0
 11
5.3562480014
 21
5.1036134558
 31
0.0
  0
LINE
  5
14E
330
1F
100
AcDbEntity
  8
0
  6
HIDDEN
 62
     7
370
     0
100
AcDbLine
 10
5.3562480014
 20
5.1036134558
 30
0.0
 11
5.4639714064
 21
5.0665213129
 31
0.0
  0
LINE
  5
14F
330
1F
100
AcDbEntity
  8
0
  6
HIDDEN
 62
     7
370
     0
100
AcDbLine
 10
5.4639714064
 20
3.8502176127
 30
0.0
 11
5.3562480014
 21
3.8131254697
 31
0.0
  0
LINE
  5
150
330
1F
100
AcDbEntity
  8
0
  6
HIDDEN
 62
     7
370
     0
100
AcDbLine
 10
5.3562480014
 20
3.8131254697
 30
0.0
 11
5.3384253444
 21
3.7005976423
 31
0.0
  0
LINE
  5
151
330
1F
100
AcDbEntity
  8
0
  6
HIDDEN
 62
     7
370
     0
100
AcDbLine
 10
4.1406000304
 20
3.4893887213
 30
0.0
 11
4.0853654275
 21
3.5890345827
 31
0.0
  0
LINE
  5
152
330
1F
100
AcDbEntity
  8
0
  6
HIDDEN
 62
     7
370
     0
100
AcDbLine
 10
4.0853654275
 20
3.5890345827
 30
0.0
 11
3.9714522787
 21
3.5870462213
 31
0.0
  0
LINE
  5
153
330
1F
100
AcDbEntity
  8
0
  6
HIDDEN
 62
     7
370
     0
100
AcDbLine
 10
3.6022367845
 20
3.7957031532
 30
0.0
 11
3.6022367845
 21
4.2615190691
 31
0.0
  0
LINE
  5
154
330
1F
100
AcDbEntity
  8
0
  6
HIDDEN
 62
     7
370
     0
100
AcDbLine
 10
3.4723155246
 20
4.2615190691
 30
0.0
 11
3.4723155246
 21
4.0493118105
 31
0.0
  0
LINE
  5
155
330
1F
100
AcDbEntity
  8
0
  6
HIDDEN
 62
     7
370
     0
100
AcDbLine
 10
3.429008438
 20
4.196310311
 30
0.0
 11
3.429008438
 21
4.1961885441
 31
0.0
  0
LINE
  5
156
330
1F
100
AcDbEntity
  8
0
  6
HIDDEN
 62
     7
370
     0
100
AcDbLine
 10
3.4723155246
 20
4.8674271151
 30
0.0
 11
3.4723155246
 21
4.8673377866
 31
0.0
  0
LINE
  5
157
330
1F
100
AcDbEntity
  8
0
  6
HIDDEN
 62
     7
370
     0
100
AcDbLine
 10
3.6357013514
 20
4.7855151321
 30
0.0
 11
3.6282013514
 21
4.7930151321
 31
0.0
  0
LINE
  5
158
330
1F
100
AcDbEntity
  8
0
  6
HIDDEN
 62
     7
370
     0
100
AcDbLine
 10
3.6357013514
 20
4.6749048958
 30
0.0
 11
3.6357013514
 21
4.7855151321
 31
0.0
  0
LINE
  5
159
330
1F
100
AcDbEntity
  8
0
  6
HIDDEN
 62
     7
370
     0
100
AcDbLine
 10
3.4388509577
 20
4.7604883421
 30
0.0
 11
3.4388509577
 21
4.6749048958
 31
0.0
  0
LINE
  5
15A
330
1F
100
AcDbEntity
  8
0
  6
HIDDEN
 62
     7
370
     0
100
AcDbLine
 10
3.4782210365
 20
4.2418340297
 30
0.0
 11
3.4782210365
 21
4.0627198565
 31
0.0
  0
LINE
  5
15B
330
1F
100
AcDbEntity
  8
0
  6
HIDDEN
 62
     7
370
     0
100
AcDbLine
 10
3.5963312727
 20
4.0627198565
 30
0.0
 11
3.5963312727
 21
4.2418340297
 31
0.0
  0
LINE
  5
15C
330
1F
100
AcDbEntity
  8
0
  6
HIDDEN
 62
     7
370
     0
100
AcDbLine
 10
3.4782210365
 20
4.0627198565
 30
0.0
 11
3.4857210365
 21
4.0552198565
 31
0.0
  0
LINE
  5
15D
330
1F
100
AcDbEntity
  8
0
  6
HIDDEN
 62
     7
370
     0
100
AcDbLine
 10
3.5888312727
 20
4.0552198565
 30
0.0
 11
3.5963312727
 21
4.0627198565
 31
0.0
  0
LINE
  5
15E
330
1F
100
AcDbEntity
  8
0
  6
HIDDEN
 62
     7
370
     0
100
AcDbLine
 10
3.4388509577
 20
4.2418340297
 30
0.0
 11
3.4388509577
 21
4.1562505835
 31
0.0
  0
LINE
  5
15F
330
1F
100
AcDbEntity
  8
0
  6
HIDDEN
 62
     7
370
     0
100
AcDbLine
 10
3.6357013514
 20
4.1312237935
 30
0.0
 11
3.6357013514
 21
4.2418340297
 31
0.0
  0
LINE
  5
160
330
1F
100
AcDbEntity
  8
0
  6
HIDDEN
 62
     7
370
     0
100
AcDbLine
 10
3.6282013514
 20
4.1237237935
 30
0.0
 11
3.6357013514
 21
4.1312237935
 31
0.0
  0
LINE
  5
161
330
1F
100
AcDbEntity
  8
0
  6
HIDDEN
 62
     7
370
     0
100
AcDbLine
 10
3.5963312727
 20
4.2418340297
 30
0.0
 11
3.5963312727
 21
4.8540190691
 31
0.0
  0
LINE
  5
162
330
1F
100
AcDbEntity
  8
0
  6
HIDDEN
 62
     7
370
     0
100
AcDbLine
 10
3.4782210365
 20
4.8540190691
 30
0.0
 11
3.4782210365
 21
4.2418340297
 31
0.0
  0
LINE
  5
163
330
1F
100
AcDbEntity
  8
0
  6
HIDDEN
 62
     7
370
     0
100
AcDbLine
 10
3.5963312727
 20
4.8540190691
 30
0.0
 11
3.5888312727
 21
4.8615190691
 31
0.0
  0
LINE
  5
164
330
1F
100
AcDbEntity
  8
0
  6
HIDDEN
 62
     7
370
     0
100
AcDbLine
 10
3.4857210365
 20
4.8615190691
 30
0.0
 11
3.4782210365
 21
4.8540190691
 31
0.0
  0
MTEXT
  5
165
330
1F
100
AcDbEntity
  8
0
  6
Continuous
 62
     7
370
     0
100
AcDbMText
 10
5.4301062405
 20
5.6048538144
 30
0.0
 40
0.125
 41
0.0
 71
     1
 72
     1
  1
5/16-18 Tapped Hole
  7
SLDTEXTSTYLE0
 73
     1
 44
1.0
  0
LEADER
  5
167
330
1F
100
AcDbEntity
  8
0
  6
Continuous
 62
     7
370
     0
100
AcDbLeader
  3
SLDDIMSTYLE0
 76
     3
 10
4.8997761546
 20
5.0777603401
 30
0.0
 10
5.1603601067
 20
5.5442032045
 30
0.0
 10
5.4103601067
 20
5.5442032045
 30
0.0
  0
INSERT
  5
173
330
1F
100
AcDbEntity
  8
0
  6
Continuous
 62
     7
370
     0
100
AcDbBlockReference
  2
SW_CENTERMARKSYMBOL_0
 10
4.5872761546
 20
4.4583694628
 30
0.0
  0
INSERT
  5
17F
330
1F
100
AcDbEntity
  8
0
  6
Continuous
 62
     7
370
     0
100
AcDbBlockReference
  2
SW_CENTERMARKSYMBOL_1
 10
4.8997761546
 20
4.9996353401
 30
0.0
  0
INSERT
  5
18B
330
1F
100
AcDbEntity
  8
0
  6
Continuous
 62
     7
370
     0
100
AcDbBlockReference
  2
SW_CENTERMARKSYMBOL_2
 10
3.9622761546
 20
4.4583694628
 30
0.0
  0
INSERT
  5
197
330
1F
100
AcDbEntity
  8
0
  6
Continuous
 62
     7
370
     0
100
AcDbBlockReference
  2
SW_CENTERMARKSYMBOL_3
 10
4.8997761546
 20
3.9171035854
 30
0.0
  0
INSERT
  5
1A3
330
1F
100
AcDbEntity
  8
0
  6
Continuous
 62
     7
370
     0
100
AcDbBlockReference
  2
SW_CENTERMARKSYMBOL_4
 10
4.2747761546
 20
3.9171035854
 30
0.0
  0
INSERT
  5
1AF
330
1F
100
AcDbEntity
  8
0
  6
Continuous
 62
     7
370
     0
100
AcDbBlockReference
  2
SW_CENTERMARKSYMBOL_5
 10
4.2747761546
 20
4.9996353401
 30
0.0
  0
INSERT
  5
1BB
330
1F
100
AcDbEntity
  8
0
  6
Continuous
 62
     7
370
     0
100
AcDbBlockReference
  2
SW_CENTERMARKSYMBOL_6
 10
5.2122761546
 20
4.4583694628
 30
0.0
  0
CIRCLE
  5
1BC
330
1F
100
AcDbEntity
  8
0
  6
HIDDEN
 62
     7
370
     0
100
AcDbCircle
 10
4.8997761546
 20
4.9996353401
 30
0.0
 40
0.078125
  0
CIRCLE
  5
1BD
330
1F
100
AcDbEntity
  8
0
  6
HIDDEN
 62
     7
370
     0
100
AcDbCircle
 10
3.9622761546
 20
4.4583694628
 30
0.0
 40
0.078125
  0
CIRCLE
  5
1BE
330
1F
100
AcDbEntity
  8
0
  6
HIDDEN
 62
     7
370
     0
100
AcDbCircle
 10
4.8997761546
 20
3.9171035854
 30
0.0
 40
0.078125
  0
CIRCLE
  5
1BF
330
1F
100
AcDbEntity
  8
0
  6
HIDDEN
 62
     7
370
     0
100
AcDbCircle
 10
4.2747761546
 20
3.9171035854
 30
0.0
 40
0.078125
  0
CIRCLE
  5
1C0
330
1F
100
AcDbEntity
  8
0
  6
HIDDEN
 62
     7
370
     0
100
AcDbCircle
 10
4.2747761546
 20
4.9996353401
 30
0.0
 40
0.078125
  0
CIRCLE
  5
1C1
330
1F
100
AcDbEntity
  8
0
  6
HIDDEN
 62
     7
370
     0
100
AcDbCircle
 10
5.2122761546
 20
4.4583694628
 30
0.0
 40
0.078125
  0
LINE
  5
1C2
330
1F
100
AcDbEntity
  8
0
  6
HIDDEN
 62
     7
370
     0
100
AcDbLine
 10
4.4935261546
 20
4.7564754632
 30
0.0
 11
4.4935261546
 21
5.1873659905
 31
0.0
  0
LINE
  5
1C3
330
1F
100
AcDbEntity
  8
0
  6
HIDDEN
 62
     7
370
     0
100
AcDbLine
 10
4.6810261546
 20
4.7564754632
 30
0.0
 11
4.6810261546
 21
5.1873659905
 31
0.0
  0
LINE
  5
1C4
330
1F
100
AcDbEntity
  8
0
  6
HIDDEN
 62
     7
370
     0
100
AcDbLine
 10
4.4935261546
 20
4.7564754632
 30
0.0
 11
4.4935261546
 21
5.1873659905
 31
0.0
  0
LINE
  5
1C5
330
1F
100
AcDbEntity
  8
0
  6
HIDDEN
 62
     7
370
     0
100
AcDbLine
 10
4.6810261546
 20
4.7564754632
 30
0.0
 11
4.6810261546
 21
5.1873659905
 31
0.0
  0
LINE
  5
1C6
330
1F
100
AcDbEntity
  8
0
  6
Continuous
 62
     7
370
    15
100
AcDbLine
 10
9.6808388313
 20
5.6458694628
 30
0.0
 11
9.6558388313
 21
5.6208694628
 31
0.0
  0
LINE
  5
1C7
330
1F
100
AcDbEntity
  8
0
  6
Continuous
 62
     7
370
    15
100
AcDbLine
 10
9.6558388313
 20
3.2958694628
 30
0.0
 11
9.6808388313
 21
3.2708694628
 31
0.0
  0
LINE
  5
1C8
330
1F
100
AcDbEntity
  8
0
  6
Continuous
 62
     7
370
    15
100
AcDbLine
 10
10.6608388313
 20
5.6458694628
 30
0.0
 11
9.6808388313
 21
5.6458694628
 31
0.0
  0
LINE
  5
1C9
330
1F
100
AcDbEntity
  8
0
  6
Continuous
 62
     7
370
    15
100
AcDbLine
 10
9.6808388313
 20
3.2708694628
 30
0.0
 11
10.6608388313
 21
3.2708694628
 31
0.0
  0
LINE
  5
1CA
330
1F
100
AcDbEntity
  8
0
  6
Continuous
 62
     7
370
    15
100
AcDbLine
 10
10.6608388313
 20
3.2708694628
 30
0.0
 11
10.6858388313
 21
3.2958694628
 31
0.0
  0
LINE
  5
1CB
330
1F
100
AcDbEntity
  8
0
  6
Continuous
 62
     7
370
    15
100
AcDbLine
 10
10.6858388313
 20
5.6208694628
 30
0.0
 11
10.6608388313
 21
5.6458694628
 31
0.0
  0
LINE
  5
1CC
330
1F
100
AcDbEntity
  8
0
  6
Continuous
 62
     7
370
    15
100
AcDbLine
 10
9.4249525811
 20
5.1933694628
 30
0.0
 11
9.3483388313
 21
5.1933694628
 31
0.0
  0
LINE
  5
1CD
330
1F
100
AcDbEntity
  8
0
  6
Continuous
 62
     7
370
    15
100
AcDbLine
 10
9.6558388313
 20
5.1933694628
 30
0.0
 11
9.580189033
 21
5.1933694628
 31
0.0
  0
LINE
  5
1CE
330
1F
100
AcDbEntity
  8
0
  6
Continuous
 62
     7
370
    15
100
AcDbLine
 10
9.3483388313
 20
3.7233694628
 30
0.0
 11
9.6558388313
 21
3.7233694628
 31
0.0
  0
LINE
  5
1CF
330
1F
100
AcDbEntity
  8
0
  6
Continuous
 62
     7
370
    15
100
AcDbLine
 10
10.7624525811
 20
5.1933694628
 30
0.0
 11
10.6858388313
 21
5.1933694628
 31
0.0
  0
LINE
  5
1D0
330
1F
100
AcDbEntity
  8
0
  6
Continuous
 62
     7
370
    15
100
AcDbLine
 10
10.9933388313
 20
5.1933694628
 30
0.0
 11
10.917689033
 21
5.1933694628
 31
0.0
  0
LINE
  5
1D1
330
1F
100
AcDbEntity
  8
0
  6
Continuous
 62
     7
370
    15
100
AcDbLine
 10
10.6858388313
 20
3.7233694628
 30
0.0
 11
10.9933388313
 21
3.7233694628
 31
0.0
  0
LINE
  5
1D2
330
1F
100
AcDbEntity
  8
0
  6
Continuous
 62
     7
370
    15
100
AcDbLine
 10
9.6808388313
 20
5.6458694628
 30
0.0
 11
9.6808388313
 21
3.2708694628
 31
0.0
  0
LINE
  5
1D3
330
1F
100
AcDbEntity
  8
0
  6
Continuous
 62
     7
370
    15
100
AcDbLine
 10
9.6558388313
 20
3.2958694628
 30
0.0
 11
9.6558388313
 21
5.6208694628
 31
0.0
  0
SPLINE
  5
1D4
330
1F
100
AcDbEntity
  8
0
  6
Continuous
 62
     7
370
    15
100
AcDbSpline
210
0.0
220
0.0
230
1.0
 70
     8
 71
     3
 72
    94
 73
    90
 74
     0
 42
0.00000001
 43
0.00000001
 40
-0.0078125
 40
-0.0078125
 40
0.0
 40
0.0
 40
0.062500000000001
 40
0.062500000000001
 40
0.1250000000000019
 40
0.1250000000000019
 40
0.1875000000000029
 40
0.1875000000000029
 40
0.2187500000000034
 40
0.2187500000000034
 40
0.2500000000000038
 40
0.2500000000000038
 40
0.2656250000000041
 40
0.2656250000000041
 40
0.2734375000000041
 40
0.2734375000000041
 40
0.2812500000000042
 40
0.2812500000000042
 40
0.2851562500000042
 40
0.2851562500000042
 40
0.2890625000000042
 40
0.2890625000000042
 40
0.2968750000000042
 40
0.2968750000000042
 40
0.3046875000000042
 40
0.3046875000000042
 40
0.3125000000000042
 40
0.3125000000000042
 40
0.3281250000000042
 40
0.3281250000000042
 40
0.3437500000000042
 40
0.3437500000000042
 40
0.3750000000000041
 40
0.3750000000000041
 40
0.406250000000004
 40
0.406250000000004
 40
0.4375000000000039
 40
0.4375000000000039
 40
0.5000000000000034
 40
0.5000000000000034
 40
0.562500000000003
 40
0.562500000000003
 40
0.5937500000000028
 40
0.5937500000000028
 40
0.6250000000000026
 40
0.6250000000000026
 40
0.6562500000000024
 40
0.6562500000000024
 40
0.6875000000000022
 40
0.6875000000000022
 40
0.718750000000002
 40
0.718750000000002
 40
0.7343750000000018
 40
0.7343750000000018
 40
0.7500000000000016
 40
0.7500000000000016
 40
0.7656250000000014
 40
0.7656250000000014
 40
0.7734375000000014
 40
0.7734375000000014
 40
0.7812500000000014
 40
0.7812500000000014
 40
0.7968750000000013
 40
0.7968750000000013
 40
0.8046875000000013
 40
0.8046875000000013
 40
0.8125000000000013
 40
0.8125000000000013
 40
0.8203125000000013
 40
0.8203125000000013
 40
0.8281250000000013
 40
0.8281250000000013
 40
0.8437500000000012
 40
0.8437500000000012
 40
0.8750000000000011
 40
0.8750000000000011
 40
0.890625000000001
 40
0.890625000000001
 40
0.9062500000000009
 40
0.9062500000000009
 40
0.9375000000000004
 40
0.9375000000000004
 40
0.9687500000000001
 40
0.9687500000000001
 40
0.984375
 40
0.984375
 40
0.9921875
 40
0.9921875
 40
1.0
 40
1.0
 40
1.062500000000001
 40
1.062500000000001
 10
10.06257111475581
 20
5.015778625788956
 30
0.0
 10
10.06257111475581
 20
4.991105398402214
 30
0.0
 10
10.06438380732384
 20
4.969106618084614
 30
0.0
 10
10.07062795773238
 20
4.924878375939652
 30
0.0
 10
10.07506884920883
 20
4.902649663071541
 30
0.0
 10
10.08638165017685
 20
4.857960334848927
 30
0.0
 10
10.09325429005093
 20
4.835413778210267
 30
0.0
 10
10.10577882278932
 20
4.802145864134288
 30
0.0
 10
10.11034703051613
 20
4.791095885432282
 30
0.0
 10
10.12057576974865
 20
4.769477145316264
 30
0.0
 10
10.12617588276095
 20
4.758904018668212
 30
0.0
 10
10.13625524395445
 20
4.743958872178757
 30
0.0
 10
10.13989253388641
 20
4.739128236296319
 30
0.0
 10
10.14622981595561
 20
4.73238071849718
 30
0.0
 10
10.14849384410603
 20
4.73022240715688
 30
0.0
 10
10.15334320824967
 20
4.726333216981633
 30
0.0
 10
10.15597043268895
 20
4.724573392283408
 30
0.0
 10
10.16015010775605
 20
4.722521854306215
 30
0.0
 10
10.16158667365947
 20
4.721932998174138
 30
0.0
 10
10.16456683993643
 20
4.720990164762557
 30
0.0
 10
10.16612778145143
 20
4.720635859132845
 30
0.0
 10
10.17080648111516
 20
4.720033706117292
 30
0.0
 10
10.17401856268409
 20
4.720250350459914
 30
0.0
 10
10.1801029924795
 20
4.721794626553712
 30
0.0
 10
10.18301666848434
 20
4.72311094930361
 30
0.0
 10
10.18834802622742
 20
4.726317054228402
 30
0.0
 10
10.19081702258806
 20
4.728219454868669
 30
0.0
 10
10.19778109164621
 20
4.734450465394621
 30
0.0
 10
10.20171004142842
 20
4.739131687312957
 30
0.0
 10
10.20894503136579
 20
4.74894191329317
 30
0.0
 10
10.2122363689136
 20
4.75411042473296
 30
0.0
 10
10.22141786888069
 20
4.769890543111472
 30
0.0
 10
10.22661576068399
 20
4.780710627820265
 30
0.0
 10
10.23610491830535
 20
4.80258846044465
 30
0.0
 10
10.24036471835003
 20
4.813658195685114
 30
0.0
 10
10.24819674873165
 20
4.835947129062395
 30
0.0
 10
10.25176298369776
 20
4.847168629441706
 30
0.0
 10
10.26155276407066
 20
4.881002531000966
 30
0.0
 10
10.26679295421839
 20
4.903461750269712
 30
0.0
 10
10.27473444360967
 20
4.947940681313183
 30
0.0
 10
10.2774421024354
 20
4.969997125666491
 30
0.0
 10
10.27911347182306
 20
5.002837637799927
 30
0.0
 10
10.27926719778888
 20
5.013744178653385
 30
0.0
 10
10.27859066637535
 20
5.035489131869299
 30
0.0
 10
10.27775153561418
 20
5.046388696375943
 30
0.0
 10
10.27486210501781
 20
5.067728324559877
 30
0.0
 10
10.2728205270506
 20
5.078184441384018
 30
0.0
 10
10.26722051338929
 20
5.098623617986466
 30
0.0
 10
10.26367169175509
 20
5.108608281946553
 30
0.0
 10
10.25444424648333
 20
5.128010547162242
 30
0.0
 10
10.2488712413827
 20
5.137219279006509
 30
0.0
 10
10.23846372412026
 20
5.149984949620491
 30
0.0
 10
10.23464340139673
 20
5.154057611299369
 30
0.0
 10
10.22637879812415
 20
5.161547775395856
 30
0.0
 10
10.2219138014776
 20
5.164996594599067
 30
0.0
 10
10.2121501618512
 20
5.171175510379455
 30
0.0
 10
10.20677093902332
 20
5.173931411522991
 30
0.0
 10
10.19830412389095
 20
5.177183304233499
 30
0.0
 10
10.19540929797265
 20
5.178127395884482
 30
0.0
 10
10.18946174646291
 20
5.179713415052299
 30
0.0
 10
10.18638366185962
 20
5.180358620975585
 30
0.0
 10
10.17709393735723
 20
5.18176126909329
 30
0.0
 10
10.1708617521612
 20
5.181999132371628
 30
0.0
 10
10.16145373231974
 20
5.181290666886889
 30
0.0
 10
10.15830990433929
 20
5.180872063143561
 30
0.0
 10
10.15220233784316
 20
5.179711913234255
 30
0.0
 10
10.14921217103325
 20
5.178969178543936
 30
0.0
 10
10.14335085647147
 20
5.177177668576382
 30
0.0
 10
10.14046201532676
 20
5.176120683015121
 30
0.0
 10
10.13489848768444
 20
5.173755323796702
 30
0.0
 10
10.13222584745195
 20
5.172450849977479
 30
0.0
 10
10.12449579324243
 20
5.168212467890484
 30
0.0
 10
10.11971127084038
 20
5.164945538497622
 30
0.0
 10
10.10639297562605
 20
5.154102007149109
 30
0.0
 10
10.09922111900425
 20
5.145830201355526
 30
0.0
 10
10.09010031229273
 20
5.132328545187101
 30
0.0
 10
10.08735383031223
 20
5.127648446336482
 30
0.0
 10
10.0824392988254
 20
5.118148928017161
 30
0.0
 10
10.08025431397854
 20
5.113304175493282
 30
0.0
 10
10.07438077305834
 20
5.09851539679287
 30
0.0
 10
10.07136675110878
 20
5.088318529060639
 30
0.0
 10
10.06672013322767
 20
5.067338241604346
 30
0.0
 10
10.06511430051376
 20
5.056648272459946
 30
0.0
 10
10.06355935532759
 20
5.040445976408196
 30
0.0
 10
10.06318349367223
 20
5.035011005455867
 30
0.0
 10
10.06281288111523
 20
5.026808307855807
 30
0.0
 10
10.06272159664683
 20
5.024065698021814
 30
0.0
 10
10.06260071273389
 20
5.018563861291005
 30
0.0
 10
10.06257111475581
 20
5.015778625788956
 30
0.0
 10
10.06257111475581
 20
4.991105398402214
 30
0.0
  0
LINE
  5
1D5
330
1F
100
AcDbEntity
  8
0
  6
Continuous
 62
     7
370
    15
100
AcDbLine
 10
10.6608388313
 20
3.2708694628
 30
0.0
 11
10.6608388313
 21
5.6458694628
 31
0.0
  0
SPLINE
  5
1D6
330
1F
100
AcDbEntity
  8
0
  6
Continuous
 62
     7
370
    15
100
AcDbSpline
210
0.0
220
0.0
230
1.0
 70
     8
 71
     3
 72
    74
 73
    70
 74
     0
 42
0.00000001
 43
0.00000001
 40
-0.0625000000000007
 40
-0.0625000000000007
 40
0.0
 40
0.0
 40
0.0625
 40
0.0625
 40
0.09375
 40
0.09375
 40
0.1249999999999999
 40
0.1249999999999999
 40
0.1562499999999999
 40
0.1562499999999999
 40
0.1874999999999999
 40
0.1874999999999999
 40
0.2031249999999999
 40
0.2031249999999999
 40
0.2187499999999999
 40
0.2187499999999999
 40
0.2343749999999999
 40
0.2343749999999999
 40
0.2499999999999999
 40
0.2499999999999999
 40
0.2656249999999999
 40
0.2656249999999999
 40
0.2812499999999999
 40
0.2812499999999999
 40
0.3124999999999999
 40
0.3124999999999999
 40
0.3437499999999998
 40
0.3437499999999998
 40
0.3749999999999998
 40
0.3749999999999998
 40
0.4062499999999998
 40
0.4062499999999998
 40
0.4374999999999998
 40
0.4374999999999998
 40
0.4999999999999994
 40
0.4999999999999994
 40
0.5624999999999991
 40
0.5624999999999991
 40
0.6249999999999988
 40
0.6249999999999988
 40
0.6562499999999986
 40
0.6562499999999986
 40
0.6874999999999984
 40
0.6874999999999984
 40
0.7031249999999984
 40
0.7031249999999984
 40
0.7187499999999984
 40
0.7187499999999984
 40
0.7265624999999984
 40
0.7265624999999984
 40
0.7343749999999984
 40
0.7343749999999984
 40
0.7421874999999984
 40
0.7421874999999984
 40
0.7499999999999984
 40
0.7499999999999984
 40
0.7656249999999984
 40
0.7656249999999984
 40
0.7812499999999984
 40
0.7812499999999984
 40
0.8124999999999986
 40
0.8124999999999986
 40
0.8437499999999987
 40
0.8437499999999987
 40
0.8749999999999988
 40
0.8749999999999988
 40
0.9374999999999993
 40
0.9374999999999993
 40
1.0
 40
1.0
 40
1.0625
 40
1.0625
 10
10.10587820136998
 20
3.916203760151978
 30
0.0
 10
10.10587820136998
 20
3.891199778773279
 30
0.0
 10
10.10685615102021
 20
3.878933581323623
 30
0.0
 10
10.11025153427181
 20
3.860928509753717
 30
0.0
 10
10.11170877342392
 20
3.85499296182364
 30
0.0
 10
10.11546416280985
 20
3.843272884769717
 30
0.0
 10
10.11774737521712
 20
3.837536564353517
 30
0.0
 10
10.12335216356988
 20
3.826495915681095
 30
0.0
 10
10.12668457413084
 20
3.82117255457896
 30
0.0
 10
10.13466386345695
 20
3.811406581733462
 30
0.0
 10
10.13940008858554
 20
3.806864233377534
 30
0.0
 10
10.14772743502057
 20
3.8013944406596
 30
0.0
 10
10.15075435202606
 20
3.799773096418178
 30
0.0
 10
10.15711934998531
 20
3.797206949042111
 30
0.0
 10
10.16048303303672
 20
3.796245953784574
 30
0.0
 10
10.16749159047769
 20
3.795140587024047
 30
0.0
 10
10.17100585087734
 20
3.795012697491868
 30
0.0
 10
10.17805440326167
 20
3.795608742001892
 30
0.0
 10
10.18154764477487
 20
3.796343437097605
 30
0.0
 10
10.18813203530696
 20
3.798512724012374
 30
0.0
 10
10.19128540523017
 20
3.799965144883967
 30
0.0
 10
10.19707347186958
 20
3.803322436886377
 30
0.0
 10
10.19975258336985
 20
3.805240214900595
 30
0.0
 10
10.20727156910286
 20
3.811579007445097
 30
0.0
 10
10.21138909929266
 20
3.816381597718963
 30
0.0
 10
10.21846350828889
 20
3.826670362135661
 30
0.0
 10
10.22140202521678
 20
3.832176323240284
 30
0.0
 10
10.22627162310703
 20
3.843384564364918
 30
0.0
 10
10.22823323095462
 20
3.849140612743051
 30
0.0
 10
10.23143233641676
 20
3.860904859611278
 30
0.0
 10
10.23267029761778
 20
3.866942781405705
 30
0.0
 10
10.23450894562397
 20
3.879064940525318
 30
0.0
 10
10.23511435335589
 20
3.885154591432143
 30
0.0
 10
10.2361426486889
 20
3.903509159571615
 30
0.0
 10
10.23579098774445
 20
3.915859665825051
 30
0.0
 10
10.23332384956373
 20
3.940789041025288
 30
0.0
 10
10.23118991567016
 20
3.953408000025199
 30
0.0
 10
10.22515974316012
 20
3.978247144307932
 30
0.0
 10
10.22129261975014
 20
3.990547911630515
 30
0.0
 10
10.2135654897299
 20
4.008638200010749
 30
0.0
 10
10.21064255001506
 20
4.014636517144464
 30
0.0
 10
10.20394401984449
 20
4.026081162922667
 30
0.0
 10
10.20018884765183
 20
4.031574390387338
 30
0.0
 10
10.19328763822211
 20
4.039058259663528
 30
0.0
 10
10.19073239271533
 20
4.041450073926112
 30
0.0
 10
10.18511882810327
 20
4.045554722398014
 30
0.0
 10
10.18199180766598
 20
4.047307986919331
 30
0.0
 10
10.17695647666426
 20
4.048962772952174
 30
0.0
 10
10.17519767664371
 20
4.0493571669094
 30
0.0
 10
10.17164087873099
 20
4.049742782594178
 30
0.0
 10
10.1698685392287
 20
4.049735634787014
 30
0.0
 10
10.16633573748533
 20
4.049329408723638
 30
0.0
 10
10.16456797273559
 20
4.048923008819064
 30
0.0
 10
10.16120656201532
 20
4.047796130645123
 30
0.0
 10
10.15958033543871
 20
4.047069754457432
 30
0.0
 10
10.15492720034665
 20
4.044540713840025
 30
0.0
 10
10.15217403040945
 20
4.042441496692752
 30
0.0
 10
10.14707747741715
 20
4.037762721825253
 30
0.0
 10
10.14477272415983
 20
4.035205302768152
 30
0.0
 10
10.13843175060438
 20
4.027257601884807
 30
0.0
 10
10.13487342027003
 20
4.021502932602306
 30
0.0
 10
10.12858128142026
 20
4.009695299398315
 30
0.0
 10
10.12587730052141
 20
4.003671105729595
 30
0.0
 10
10.12106056018461
 20
3.991479674240681
 30
0.0
 10
10.11895384472191
 20
3.985310465807852
 30
0.0
 10
10.11336420838197
 20
3.966642872334778
 30
0.0
 10
10.11060339894634
 20
3.953966251216905
 30
0.0
 10
10.10686900737764
 20
3.92880047389869
 30
0.0
 10
10.10587820136998
 20
3.916203760151978
 30
0.0
 10
10.10587820136998
 20
3.891199778773279
 30
0.0
  0
SPLINE
  5
1D7
330
1F
100
AcDbEntity
  8
0
  6
Continuous
 62
     7
370
    15
100
AcDbSpline
210
0.0
220
0.0
230
1.0
 70
     8
 71
     3
 72
    80
 73
    76
 74
     0
 42
0.00000001
 43
0.00000001
 40
-0.0312500000000001
 40
-0.0312500000000001
 40
0.0
 40
0.0
 40
0.0625000000000004
 40
0.0625000000000004
 40
0.1250000000000008
 40
0.1250000000000008
 40
0.1875000000000012
 40
0.1875000000000012
 40
0.2187500000000016
 40
0.2187500000000016
 40
0.2343750000000017
 40
0.2343750000000017
 40
0.2500000000000018
 40
0.2500000000000018
 40
0.2578125000000019
 40
0.2578125000000019
 40
0.2656250000000021
 40
0.2656250000000021
 40
0.2734375000000023
 40
0.2734375000000023
 40
0.2812500000000024
 40
0.2812500000000024
 40
0.2890625000000026
 40
0.2890625000000026
 40
0.2968750000000028
 40
0.2968750000000028
 40
0.3125000000000028
 40
0.3125000000000028
 40
0.3437500000000028
 40
0.3437500000000028
 40
0.3750000000000028
 40
0.3750000000000028
 40
0.4062500000000029
 40
0.4062500000000029
 40
0.4375000000000029
 40
0.4375000000000029
 40
0.5000000000000024
 40
0.5000000000000024
 40
0.5625000000000021
 40
0.5625000000000021
 40
0.593750000000002
 40
0.593750000000002
 40
0.6250000000000018
 40
0.6250000000000018
 40
0.6562500000000017
 40
0.6562500000000017
 40
0.6875000000000016
 40
0.6875000000000016
 40
0.7187500000000014
 40
0.7187500000000014
 40
0.7343750000000012
 40
0.7343750000000012
 40
0.750000000000001
 40
0.750000000000001
 40
0.7656250000000008
 40
0.7656250000000008
 40
0.7812500000000006
 40
0.7812500000000006
 40
0.7968750000000003
 40
0.7968750000000003
 40
0.8125000000000001
 40
0.8125000000000001
 40
0.8281249999999999
 40
0.8281249999999999
 40
0.8437499999999997
 40
0.8437499999999997
 40
0.8749999999999992
 40
0.8749999999999992
 40
0.9062499999999994
 40
0.9062499999999994
 40
0.9374999999999997
 40
0.9374999999999997
 40
0.9687499999999999
 40
0.9687499999999999
 40
1.0
 40
1.0
 40
1.0625
 40
1.0625
 10
10.51327977617313
 20
5.019273691738969
 30
0.0
 10
10.51327977617313
 20
5.000564084760014
 30
0.0
 10
10.51230001133336
 20
4.988128663207803
 30
0.0
 10
10.50865059087929
 20
4.963307220487794
 30
0.0
 10
10.50598651536781
 20
4.950920124633411
 30
0.0
 10
10.49870316115716
 20
4.926248504523286
 30
0.0
 10
10.49407956524841
 20
4.913837924615052
 30
0.0
 10
10.48488464681377
 20
4.89626506029421
 30
0.0
 10
10.48144100248407
 20
4.890558238776268
 30
0.0
 10
10.47520051215503
 20
4.882488220335433
 30
0.0
 10
10.47297272389777
 20
4.879931057065015
 30
0.0
 10
10.46808153078188
 20
4.87521510294948
 30
0.0
 10
10.46541966133763
 20
4.873045323639246
 30
0.0
 10
10.46087795087896
 20
4.870327408383354
 30
0.0
 10
10.4593067342588
 20
4.869535920933053
 30
0.0
 10
10.45602123319484
 20
4.868239554754093
 30
0.0
 10
10.45428529168823
 20
4.867732969190588
 30
0.0
 10
10.45079056730096
 20
4.867113109166618
 30
0.0
 10
10.44902350574368
 20
4.866992370654482
 30
0.0
 10
10.44544730428381
 20
4.867155151986905
 30
0.0
 10
10.44366515172834
 20
4.867442258422273
 30
0.0
 10
10.44024009505968
 20
4.868360307080315
 30
0.0
 10
10.43856085844343
 20
4.869000360968632
 30
0.0
 10
10.43538393656118
 20
4.870526410322313
 30
0.0
 10
10.43387979716314
 20
4.871410137435204
 30
0.0
 10
10.42956073570257
 20
4.874337090340393
 30
0.0
 10
10.42693652736016
 20
4.876660799671106
 30
0.0
 10
10.41982014032408
 20
4.884039998460391
 30
0.0
 10
10.4158868732706
 20
4.889639983085307
 30
0.0
 10
10.40901789000175
 20
4.901132865135238
 30
0.0
 10
10.40608969436987
 20
4.907048703550039
 30
0.0
 10
10.40086597581592
 20
4.919072378134781
 30
0.0
 10
10.39857925987435
 20
4.925183555805138
 30
0.0
 10
10.39451091004461
 20
4.937546696253373
 30
0.0
 10
10.3927272799392
 20
4.94382063634184
 30
0.0
 10
10.38810909819328
 20
4.962580363800352
 30
0.0
 10
10.38596893103833
 20
4.975052452266825
 30
0.0
 10
10.38342025241711
 20
4.999910014212123
 30
0.0
 10
10.38301238761615
 20
5.012295654340305
 30
0.0
 10
10.38397872315383
 20
5.030824249270328
 30
0.0
 10
10.38457217979587
 20
5.037015451372012
 30
0.0
 10
10.38637885112583
 20
5.04921579467591
 30
0.0
 10
10.38758931599747
 20
5.055235928790712
 30
0.0
 10
10.390764490451
 20
5.067097225696639
 30
0.0
 10
10.39274043073837
 20
5.07296277862873
 30
0.0
 10
10.39759038459526
 20
5.084233775708316
 30
0.0
 10
10.40046098237622
 20
5.089664792028437
 30
0.0
 10
10.4074706121338
 20
5.099983057689542
 30
0.0
 10
10.41165242827277
 20
5.104910487354088
 30
0.0
 10
10.41910549473717
 20
5.111269846099802
 30
0.0
 10
10.42182464140913
 20
5.113242223594624
 30
0.0
 10
10.42760179123442
 20
5.116638187071484
 30
0.0
 10
10.43066908325359
 20
5.118077903213229
 30
0.0
 10
10.43725829593807
 20
5.120307099773328
 30
0.0
 10
10.44075031247064
 20
5.121070519968765
 30
0.0
 10
10.44780611806338
 20
5.121723946915973
 30
0.0
 10
10.45144033296211
 20
5.121613533444675
 30
0.0
 10
10.45841474001239
 20
5.120553089366099
 30
0.0
 10
10.46185163438334
 20
5.119593618653527
 30
0.0
 10
10.46826796784249
 20
5.117033594053265
 30
0.0
 10
10.47130229984651
 20
5.115419817942123
 30
0.0
 10
10.47690954459628
 20
5.111754208094273
 30
0.0
 10
10.47947181113226
 20
5.109718159885495
 30
0.0
 10
10.48422652473744
 20
5.105329005401371
 30
0.0
 10
10.48642980344875
 20
5.10295915022308
 30
0.0
 10
10.49247743024496
 20
5.095569476283026
 30
0.0
 10
10.49576869058837
 20
5.090304412615924
 30
0.0
 10
10.50136937964246
 20
5.079295126244333
 30
0.0
 10
10.50367369149168
 20
5.073516709105022
 30
0.0
 10
10.50742081454791
 20
5.061846541305035
 30
0.0
 10
10.50888107017491
 20
5.05592223525809
 30
0.0
 10
10.51115330424498
 20
5.043918050708697
 30
0.0
 10
10.51196336968815
 20
5.037837910559775
 30
0.0
 10
10.51302727320066
 20
5.025532976074903
 30
0.0
 10
10.51327977617313
 20
5.019273691738969
 30
0.0
 10
10.51327977617313
 20
5.000564084760014
 30
0.0
  0
SPLINE
  5
1D8
330
1F
100
AcDbEntity
  8
0
  6
Continuous
 62
     7
370
    15
100
AcDbSpline
210
0.0
220
0.0
230
1.0
 70
     8
 71
     3
 72
    94
 73
    90
 74
     0
 42
0.00000001
 43
0.00000001
 40
-0.0156250000000001
 40
-0.0156250000000001
 40
0.0
 40
0.0
 40
0.0624999999999984
 40
0.0624999999999984
 40
0.0937499999999975
 40
0.0937499999999975
 40
0.1249999999999967
 40
0.1249999999999967
 40
0.1562499999999958
 40
0.1562499999999958
 40
0.1718749999999954
 40
0.1718749999999954
 40
0.1796874999999954
 40
0.1796874999999954
 40
0.1874999999999954
 40
0.1874999999999954
 40
0.2031249999999953
 40
0.2031249999999953
 40
0.2109374999999952
 40
0.2109374999999952
 40
0.2187499999999951
 40
0.2187499999999951
 40
0.2343749999999951
 40
0.2343749999999951
 40
0.249999999999995
 40
0.249999999999995
 40
0.2656249999999949
 40
0.2656249999999949
 40
0.2812499999999949
 40
0.2812499999999949
 40
0.3124999999999948
 40
0.3124999999999948
 40
0.3281249999999947
 40
0.3281249999999947
 40
0.3437499999999946
 40
0.3437499999999946
 40
0.3749999999999947
 40
0.3749999999999947
 40
0.4062499999999948
 40
0.4062499999999948
 40
0.4374999999999949
 40
0.4374999999999949
 40
0.4999999999999951
 40
0.4999999999999951
 40
0.5312499999999953
 40
0.5312499999999953
 40
0.5624999999999956
 40
0.5624999999999956
 40
0.5937499999999958
 40
0.5937499999999958
 40
0.6249999999999959
 40
0.6249999999999959
 40
0.6562499999999962
 40
0.6562499999999962
 40
0.6718749999999966
 40
0.6718749999999966
 40
0.6874999999999968
 40
0.6874999999999968
 40
0.6953124999999968
 40
0.6953124999999968
 40
0.7031249999999969
 40
0.7031249999999969
 40
0.7070312499999969
 40
0.7070312499999969
 40
0.7109374999999969
 40
0.7109374999999969
 40
0.718749999999997
 40
0.718749999999997
 40
0.7265624999999971
 40
0.7265624999999971
 40
0.7343749999999973
 40
0.7343749999999973
 40
0.7499999999999974
 40
0.7499999999999974
 40
0.7812499999999978
 40
0.7812499999999978
 40
0.8124999999999981
 40
0.8124999999999981
 40
0.8437499999999984
 40
0.8437499999999984
 40
0.8749999999999987
 40
0.8749999999999987
 40
0.9374999999999994
 40
0.9374999999999994
 40
0.9687499999999998
 40
0.9687499999999998
 40
0.9843749999999999
 40
0.9843749999999999
 40
1.0
 40
1.0
 40
1.062499999999998
 40
1.062499999999998
 10
10.5565868627873
 20
3.909220841896929
 30
0.0
 10
10.5565868627873
 20
3.881625479725424
 30
0.0
 10
10.55477378774084
 20
3.860171441276193
 30
0.0
 10
10.54795307963338
 20
3.829043474785472
 30
0.0
 10
10.544980340111
 20
3.818824522970059
 30
0.0
 10
10.53712653509253
 20
3.798874914208559
 30
0.0
 10
10.53232520282291
 20
3.789317403927456
 30
0.0
 10
10.52022083209001
 20
3.771261943161158
 30
0.0
 10
10.5130519172042
 20
3.762950695080342
 30
0.0
 10
10.49992927669929
 20
3.752148997191227
 30
0.0
 10
10.4951170079762
 20
3.74881767038824
 30
0.0
 10
10.48742250541886
 20
3.744538824386669
 30
0.0
 10
10.4847685235131
 20
3.743223709234687
 30
0.0
 10
10.47926135149629
 20
3.74083913768315
 30
0.0
 10
10.47638560646562
 20
3.739763292023447
 30
0.0
 10
10.46761951101902
 20
3.7370151750496
 30
0.0
 10
10.4615963769648
 20
3.735806182834843
 30
0.0
 10
10.45226603573787
 20
3.73501225117402
 30
0.0
 10
10.44907892447777
 20
3.734921236761833
 30
0.0
 10
10.44279879669302
 20
3.735101036729747
 30
0.0
 10
10.4396927687409
 20
3.735367491311855
 30
0.0
 10
10.43047238253512
 20
3.736674633537355
 30
0.0
 10
10.42439245045542
 20
3.738254625567945
 30
0.0
 10
10.41304692225796
 20
3.742502629115272
 30
0.0
 10
10.40766730735981
 20
3.745199856604118
 30
0.0
 10
10.39775354261102
 20
3.751372177835847
 30
0.0
 10
10.39323224241783
 20
3.754822453512363
 30
0.0
 10
10.38487590045433
 20
3.762315837537553
 30
0.0
 10
10.38102062247949
 20
3.766391632280498
 30
0.0
 10
10.37057019997079
 20
3.779100898672015
 30
0.0
 10
10.36499760935827
 20
3.788233940338727
 30
0.0
 10
10.35805535595507
 20
3.802681867618689
 30
0.0
 10
10.35597863364531
 20
3.807643501031214
 30
0.0
 10
10.35230002270109
 20
3.817655876063474
 30
0.0
 10
10.35069057021154
 20
3.822718605725353
 30
0.0
 10
10.3464453293736
 20
3.838063410180109
 30
0.0
 10
10.34438724682518
 20
3.848501380128385
 30
0.0
 10
10.34146599972769
 20
3.869753149937106
 30
0.0
 10
10.34060554869605
 20
3.880600620140618
 30
0.0
 10
10.33988902980661
 20
3.902500623497978
 30
0.0
 10
10.34003188463736
 20
3.913483262009304
 30
0.0
 10
10.34168916056706
 20
3.946549150249064
 30
0.0
 10
10.34441157082806
 20
3.968752061964037
 30
0.0
 10
10.35041185568111
 20
4.002327336624092
 30
0.0
 10
10.35273743337602
 20
4.013563763455879
 30
0.0
 10
10.35802431489335
 20
4.036125358968206
 30
0.0
 10
10.3609911280308
 20
4.047468401992373
 30
0.0
 10
10.36754110729102
 20
4.070043865036314
 30
0.0
 10
10.37112612039475
 20
4.08129688782633
 30
0.0
 10
10.37902251911689
 20
4.103695506207833
 30
0.0
 10
10.3833334478081
 20
4.114857906068982
 30
0.0
 10
10.39295343297119
 20
4.136910843012504
 30
0.0
 10
10.39823765798691
 20
4.147815740937371
 30
0.0
 10
10.40746652817203
 20
4.163501369657847
 30
0.0
 10
10.41075361286495
 20
4.168601225425129
 30
0.0
 10
10.41805125340102
 20
4.178342111762497
 30
0.0
 10
10.42208825359343
 20
4.183047693411433
 30
0.0
 10
10.42908764254472
 20
4.189110456627975
 30
0.0
 10
10.431606450794
 20
4.190974693263009
 30
0.0
 10
10.43697059443496
 20
4.194026486826105
 30
0.0
 10
10.43986952483155
 20
4.19524031935519
 30
0.0
 10
10.44445633200749
 20
4.196249530350806
 30
0.0
 10
10.44600142429029
 20
4.196446756821306
 30
0.0
 10
10.44912619391172
 20
4.196543180834836
 30
0.0
 10
10.45071629098894
 20
4.196437750265314
 30
0.0
 10
10.45534186656403
 20
4.1956938344335
 30
0.0
 10
10.4583353884907
 20
4.194613421780701
 30
0.0
 10
10.46383776739684
 20
4.191761239351216
 30
0.0
 10
10.46638649105028
 20
4.189992144346861
 30
0.0
 10
10.47117485145833
 20
4.186050503593632
 30
0.0
 10
10.47337330525066
 20
4.183913270956329
 30
0.0
 10
10.47959788452817
 20
4.177189195256917
 30
0.0
 10
10.483278885554
 20
4.172268005263041
 30
0.0
 10
10.49341118107294
 20
4.157098812383683
 30
0.0
 10
10.49897760074396
 20
4.146489618011845
 30
0.0
 10
10.50912167934449
 20
4.124918206853861
 30
0.0
 10
10.51364493378768
 20
4.113931136789513
 30
0.0
 10
10.521968528699
 20
4.091730995782668
 30
0.0
 10
10.52574712182434
 20
4.080543633531223
 30
0.0
 10
10.53262250791131
 20
4.058266215117929
 30
0.0
 10
10.53572924072874
 20
4.047141446804972
 30
0.0
 10
10.54414089707764
 20
4.013827544711581
 30
0.0
 10
10.54855613027713
 20
3.991701427703549
 30
0.0
 10
10.55321937035759
 20
3.958632193713528
 30
0.0
 10
10.55444188356026
 20
3.947628324578333
 30
0.0
 10
10.55570432908304
 20
3.931143533341834
 30
0.0
 10
10.55602953462161
 20
3.925652053475906
 30
0.0
 10
10.55647077821663
 20
3.914673944978501
 30
0.0
 10
10.5565868627873
 20
3.909220841896929
 30
0.0
 10
10.5565868627873
 20
3.881625479725424
 30
0.0
  0
SPLINE
  5
1D9
330
1F
100
AcDbEntity
  8
0
  6
Continuous
 62
     7
370
    15
100
AcDbSpline
210
0.0
220
0.0
230
1.0
 70
     8
 71
     3
 72
    74
 73
    70
 74
     0
 42
0.00000001
 43
0.00000001
 40
-0.0625
 40
-0.0625
 40
0.0
 40
0.0
 40
0.0624999999999998
 40
0.0624999999999998
 40
0.0937499999999997
 40
0.0937499999999997
 40
0.1249999999999996
 40
0.1249999999999996
 40
0.1562499999999995
 40
0.1562499999999995
 40
0.1874999999999994
 40
0.1874999999999994
 40
0.2031249999999994
 40
0.2031249999999994
 40
0.2187499999999994
 40
0.2187499999999994
 40
0.2343749999999995
 40
0.2343749999999995
 40
0.2499999999999996
 40
0.2499999999999996
 40
0.2656249999999996
 40
0.2656249999999996
 40
0.2812499999999997
 40
0.2812499999999997
 40
0.3125000000000001
 40
0.3125000000000001
 40
0.3437500000000004
 40
0.3437500000000004
 40
0.3750000000000004
 40
0.3750000000000004
 40
0.4062500000000006
 40
0.4062500000000006
 40
0.4375000000000006
 40
0.4375000000000006
 40
0.5000000000000006
 40
0.5000000000000006
 40
0.5625000000000007
 40
0.5625000000000007
 40
0.6250000000000009
 40
0.6250000000000009
 40
0.6562500000000008
 40
0.6562500000000008
 40
0.6875000000000007
 40
0.6875000000000007
 40
0.7031250000000007
 40
0.7031250000000007
 40
0.7187500000000006
 40
0.7187500000000006
 40
0.7265625000000006
 40
0.7265625000000006
 40
0.7343750000000006
 40
0.7343750000000006
 40
0.7421875000000006
 40
0.7421875000000006
 40
0.7500000000000004
 40
0.7500000000000004
 40
0.7656250000000003
 40
0.7656250000000003
 40
0.7812500000000002
 40
0.7812500000000002
 40
0.8125000000000001
 40
0.8125000000000001
 40
0.84375
 40
0.84375
 40
0.8749999999999999
 40
0.8749999999999999
 40
0.9375
 40
0.9375
 40
1.0
 40
1.0
 40
1.0625
 40
1.0625
 10
9.828397886409347
 20
5.000535165389969
 30
0.0
 10
9.828397886409347
 20
5.025539146768669
 30
0.0
 10
9.829375836059576
 20
5.037805344218322
 30
0.0
 10
9.832771219311182
 20
5.055810415788229
 30
0.0
 10
9.834228458463283
 20
5.061745963718306
 30
0.0
 10
9.83798384784922
 20
5.073466040772229
 30
0.0
 10
9.840267060256494
 20
5.079202361188428
 30
0.0
 10
9.845871848609248
 20
5.090243009860852
 30
0.0
 10
9.849204259170211
 20
5.095566370962985
 30
0.0
 10
9.857183548496318
 20
5.105332343808485
 30
0.0
 10
9.861919773624907
 20
5.109874692164412
 30
0.0
 10
9.870247120059942
 20
5.115344484882346
 30
0.0
 10
9.873274037065434
 20
5.116965829123767
 30
0.0
 10
9.879639035024681
 20
5.119531976499836
 30
0.0
 10
9.883002718076087
 20
5.120492971757372
 30
0.0
 10
9.890011275517065
 20
5.121598338517899
 30
0.0
 10
9.89352553591671
 20
5.121726228050077
 30
0.0
 10
9.900574088301044
 20
5.121130183540054
 30
0.0
 10
9.90406732981424
 20
5.12039548844434
 30
0.0
 10
9.910651720346333
 20
5.118226201529572
 30
0.0
 10
9.913805090269541
 20
5.116773780657979
 30
0.0
 10
9.919593156908952
 20
5.113416488655569
 30
0.0
 10
9.92227226840922
 20
5.111498710641351
 30
0.0
 10
9.929791254142234
 20
5.105159918096849
 30
0.0
 10
9.93390878433203
 20
5.100357327822985
 30
0.0
 10
9.940983193328263
 20
5.090068563406287
 30
0.0
 10
9.943921710256156
 20
5.084562602301663
 30
0.0
 10
9.948791308146399
 20
5.07335436117703
 30
0.0
 10
9.950752915993991
 20
5.067598312798895
 30
0.0
 10
9.953952021456125
 20
5.055834065930668
 30
0.0
 10
9.955189982657155
 20
5.049796144136241
 30
0.0
 10
9.95702863066334
 20
5.037673985016629
 30
0.0
 10
9.957634038395259
 20
5.031584334109803
 30
0.0
 10
9.958662333728276
 20
5.013229765970332
 30
0.0
 10
9.95831067278382
 20
5.000879259716895
 30
0.0
 10
9.955843534603098
 20
4.975949884516658
 30
0.0
 10
9.953709600709526
 20
4.963330925516749
 30
0.0
 10
9.947679428199493
 20
4.938491781234015
 30
0.0
 10
9.943812304789512
 20
4.926191013911431
 30
0.0
 10
9.936085174769268
 20
4.908100725531197
 30
0.0
 10
9.93316223505443
 20
4.902102408397483
 30
0.0
 10
9.926463704883863
 20
4.890657762619281
 30
0.0
 10
9.9227085326912
 20
4.885164535154609
 30
0.0
 10
9.915807323261479
 20
4.877680665878419
 30
0.0
 10
9.9132520777547
 20
4.875288851615834
 30
0.0
 10
9.907638513142645
 20
4.871184203143933
 30
0.0
 10
9.90451149270535
 20
4.869430938622615
 30
0.0
 10
9.899476161703626
 20
4.867776152589772
 30
0.0
 10
9.897717361683076
 20
4.867381758632546
 30
0.0
 10
9.89416056377036
 20
4.866996142947769
 30
0.0
 10
9.892388224268068
 20
4.867003290754932
 30
0.0
 10
9.888855422524706
 20
4.867409516818308
 30
0.0
 10
9.887087657774957
 20
4.867815916722882
 30
0.0
 10
9.883726247054696
 20
4.868942794896823
 30
0.0
 10
9.882100020478076
 20
4.869669171084515
 30
0.0
 10
9.877446885386023
 20
4.872198211701922
 30
0.0
 10
9.874693715448817
 20
4.874297428849195
 30
0.0
 10
9.869597162456515
 20
4.878976203716694
 30
0.0
 10
9.8672924091992
 20
4.881533622773794
 30
0.0
 10
9.860951435643754
 20
4.889481323657139
 30
0.0
 10
9.857393105309397
 20
4.89523599293964
 30
0.0
 10
9.851100966459635
 20
4.907043626143632
 30
0.0
 10
9.848396985560782
 20
4.913067819812352
 30
0.0
 10
9.843580245223981
 20
4.925259251301267
 30
0.0
 10
9.841473529761279
 20
4.931428459734095
 30
0.0
 10
9.835883893421341
 20
4.950096053207168
 30
0.0
 10
9.833123083985715
 20
4.962772674325041
 30
0.0
 10
9.829388692417005
 20
4.987938451643257
 30
0.0
 10
9.828397886409347
 20
5.000535165389969
 30
0.0
 10
9.828397886409347
 20
5.025539146768669
 30
0.0
  0
SPLINE
  5
1DA
330
1F
100
AcDbEntity
  8
0
  6
Continuous
 62
     7
370
    15
100
AcDbSpline
210
0.0
220
0.0
230
1.0
 70
     8
 71
     3
 72
    94
 73
    90
 74
     0
 42
0.00000001
 43
0.00000001
 40
-0.0078124999999996
 40
-0.0078124999999996
 40
0.0
 40
0.0
 40
0.0625000000000004
 40
0.0625000000000004
 40
0.1250000000000009
 40
0.1250000000000009
 40
0.1875000000000013
 40
0.1875000000000013
 40
0.2187500000000016
 40
0.2187500000000016
 40
0.2500000000000019
 40
0.2500000000000019
 40
0.2656250000000021
 40
0.2656250000000021
 40
0.2734375000000022
 40
0.2734375000000022
 40
0.2812500000000023
 40
0.2812500000000023
 40
0.2851562500000023
 40
0.2851562500000023
 40
0.2890625000000023
 40
0.2890625000000023
 40
0.2968750000000024
 40
0.2968750000000024
 40
0.3046875000000026
 40
0.3046875000000026
 40
0.3125000000000027
 40
0.3125000000000027
 40
0.3281250000000029
 40
0.3281250000000029
 40
0.3437500000000031
 40
0.3437500000000031
 40
0.3750000000000034
 40
0.3750000000000034
 40
0.4062500000000036
 40
0.4062500000000036
 40
0.4375000000000039
 40
0.4375000000000039
 40
0.5000000000000046
 40
0.5000000000000046
 40
0.5625000000000052
 40
0.5625000000000052
 40
0.5937500000000054
 40
0.5937500000000054
 40
0.6250000000000057
 40
0.6250000000000057
 40
0.6562500000000059
 40
0.6562500000000059
 40
0.6875000000000061
 40
0.6875000000000061
 40
0.7187500000000063
 40
0.7187500000000063
 40
0.7343750000000064
 40
0.7343750000000064
 40
0.7500000000000066
 40
0.7500000000000066
 40
0.7656250000000066
 40
0.7656250000000066
 40
0.7734375000000066
 40
0.7734375000000066
 40
0.7812500000000064
 40
0.7812500000000064
 40
0.7968750000000064
 40
0.7968750000000064
 40
0.8046875000000064
 40
0.8046875000000064
 40
0.8125000000000063
 40
0.8125000000000063
 40
0.8203125000000063
 40
0.8203125000000063
 40
0.8281250000000062
 40
0.8281250000000062
 40
0.8437500000000056
 40
0.8437500000000056
 40
0.8750000000000047
 40
0.8750000000000047
 40
0.8906250000000042
 40
0.8906250000000042
 40
0.9062500000000038
 40
0.9062500000000038
 40
0.9375000000000023
 40
0.9375000000000023
 40
0.9687500000000011
 40
0.9687500000000011
 40
0.9843750000000007
 40
0.9843750000000007
 40
0.9921875000000004
 40
0.9921875000000004
 40
1.0
 40
1.0
 40
1.0625
 40
1.0625
 10
9.785090799795174
 20
3.90096029975299
 30
0.0
 10
9.785090799795174
 20
3.925633527139733
 30
0.0
 10
9.786903492363209
 20
3.947632307457333
 30
0.0
 10
9.793147642771746
 20
3.991860549602294
 30
0.0
 10
9.797588534248206
 20
4.014089262470406
 30
0.0
 10
9.808901335216222
 20
4.058778590693021
 30
0.0
 10
9.8157739750903
 20
4.081325147331682
 30
0.0
 10
9.82829850782869
 20
4.11459306140766
 30
0.0
 10
9.832866715555499
 20
4.125643040109666
 30
0.0
 10
9.843095454788028
 20
4.147261780225684
 30
0.0
 10
9.848695567800322
 20
4.157834906873736
 30
0.0
 10
9.858774928993826
 20
4.172780053363192
 30
0.0
 10
9.86241221892578
 20
4.17761068924563
 30
0.0
 10
9.868749500994987
 20
4.184358207044769
 30
0.0
 10
9.871013529145397
 20
4.186516518385067
 30
0.0
 10
9.875862893289042
 20
4.190405708560315
 30
0.0
 10
9.878490117728322
 20
4.19216553325854
 30
0.0
 10
9.882669792795426
 20
4.194217071235734
 30
0.0
 10
9.88410635869884
 20
4.19480592736781
 30
0.0
 10
9.887086524975803
 20
4.19574876077939
 30
0.0
 10
9.888647466490804
 20
4.196103066409103
 30
0.0
 10
9.893326166154539
 20
4.196705219424655
 30
0.0
 10
9.896538247723461
 20
4.196488575082033
 30
0.0
 10
9.90262267751887
 20
4.194944298988233
 30
0.0
 10
9.905536353523713
 20
4.193627976238336
 30
0.0
 10
9.910867711266793
 20
4.190421871313543
 30
0.0
 10
9.91333670762743
 20
4.188519470673276
 30
0.0
 10
9.920300776685583
 20
4.182288460147323
 30
0.0
 10
9.924229726467795
 20
4.177607238228988
 30
0.0
 10
9.931464716405161
 20
4.167797012248774
 30
0.0
 10
9.934756053952972
 20
4.162628500808984
 30
0.0
 10
9.943937553920055
 20
4.146848382430472
 30
0.0
 10
9.949135445723364
 20
4.136028297721679
 30
0.0
 10
9.958624603344719
 20
4.114150465097294
 30
0.0
 10
9.962884403389397
 20
4.10308072985683
 30
0.0
 10
9.970716433771017
 20
4.080791796479549
 30
0.0
 10
9.974282668737134
 20
4.069570296100238
 30
0.0
 10
9.984072449110036
 20
4.035736394540977
 30
0.0
 10
9.989312639257765
 20
4.013277175272232
 30
0.0
 10
9.99725412864904
 20
3.968798244228762
 30
0.0
 10
9.999961787474765
 20
3.946741799875453
 30
0.0
 10
10.00163315686243
 20
3.913901287742018
 30
0.0
 10
10.00178688282825
 20
3.90299474688856
 30
0.0
 10
10.00111035141472
 20
3.881249793672647
 30
0.0
 10
10.00027122065355
 20
3.870350229166002
 30
0.0
 10
9.997381790057181
 20
3.849010600982069
 30
0.0
 10
9.995340212089967
 20
3.838554484157927
 30
0.0
 10
9.989740198428665
 20
3.818115307555478
 30
0.0
 10
9.986191376794457
 20
3.808130643595392
 30
0.0
 10
9.976963931522697
 20
3.788728378379703
 30
0.0
 10
9.971390926422067
 20
3.779519646535436
 30
0.0
 10
9.96098340915963
 20
3.766753975921454
 30
0.0
 10
9.9571630864361
 20
3.762681314242576
 30
0.0
 10
9.948898483163521
 20
3.755191150146091
 30
0.0
 10
9.944433486516965
 20
3.751742330942878
 30
0.0
 10
9.934669846890566
 20
3.74556341516249
 30
0.0
 10
9.929290624062691
 20
3.742807514018954
 30
0.0
 10
9.920823808930317
 20
3.739555621308447
 30
0.0
 10
9.917928983012015
 20
3.738611529657464
 30
0.0
 10
9.91198143150228
 20
3.737025510489647
 30
0.0
 10
9.908903346898983
 20
3.73638030456636
 30
0.0
 10
9.899613622396597
 20
3.734977656448656
 30
0.0
 10
9.89338143720057
 20
3.734739793170319
 30
0.0
 10
9.883973417359108
 20
3.735448258655059
 30
0.0
 10
9.880829589378658
 20
3.735866862398385
 30
0.0
 10
9.874722022882528
 20
3.737027012307693
 30
0.0
 10
9.871731856072623
 20
3.737769746998011
 30
0.0
 10
9.865870541510843
 20
3.739561256965564
 30
0.0
 10
9.862981700366126
 20
3.740618242526825
 30
0.0
 10
9.857418172723811
 20
3.742983601745244
 30
0.0
 10
9.854745532491323
 20
3.744288075564467
 30
0.0
 10
9.847015478281804
 20
3.748526457651463
 30
0.0
 10
9.84223095587975
 20
3.751793387044325
 30
0.0
 10
9.828912660665418
 20
3.762636918392839
 30
0.0
 10
9.821740804043616
 20
3.770908724186421
 30
0.0
 10
9.812619997332098
 20
3.784410380354846
 30
0.0
 10
9.809873515351601
 20
3.789090479205464
 30
0.0
 10
9.80495898386477
 20
3.798589997524786
 30
0.0
 10
9.802773999017914
 20
3.803434750048666
 30
0.0
 10
9.79690045809771
 20
3.818223528749076
 30
0.0
 10
9.793886436148153
 20
3.828420396481307
 30
0.0
 10
9.789239818267044
 20
3.849400683937601
 30
0.0
 10
9.78763398555313
 20
3.860090653081999
 30
0.0
 10
9.786079040366957
 20
3.876292949133751
 30
0.0
 10
9.785703178711596
 20
3.88172792008608
 30
0.0
 10
9.785332566154601
 20
3.889930617686138
 30
0.0
 10
9.785241281686197
 20
3.892673227520133
 30
0.0
 10
9.785120397773262
 20
3.898175064250941
 30
0.0
 10
9.785090799795174
 20
3.90096029975299
 30
0.0
 10
9.785090799795174
 20
3.925633527139733
 30
0.0
  0
SPLINE
  5
1DB
330
1F
100
AcDbEntity
  8
0
  6
Continuous
 62
     7
370
    15
100
AcDbSpline
210
0.0
220
0.0
230
1.0
 70
     8
 71
     3
 72
    76
 73
    72
 74
     0
 42
0.00000001
 43
0.00000001
 40
-0.031250000000001
 40
-0.031250000000001
 40
0.0
 40
0.0
 40
0.0312499999999994
 40
0.0312499999999994
 40
0.0468749999999991
 40
0.0468749999999991
 40
0.0624999999999988
 40
0.0624999999999988
 40
0.0937499999999983
 40
0.0937499999999983
 40
0.1249999999999979
 40
0.1249999999999979
 40
0.1562499999999974
 40
0.1562499999999974
 40
0.1874999999999969
 40
0.1874999999999969
 40
0.2187499999999965
 40
0.2187499999999965
 40
0.2499999999999963
 40
0.2499999999999963
 40
0.2812499999999962
 40
0.2812499999999962
 40
0.312499999999996
 40
0.312499999999996
 40
0.3437499999999959
 40
0.3437499999999959
 40
0.3749999999999957
 40
0.3749999999999957
 40
0.4062499999999956
 40
0.4062499999999956
 40
0.4218749999999955
 40
0.4218749999999955
 40
0.4374999999999954
 40
0.4374999999999954
 40
0.4687499999999953
 40
0.4687499999999953
 40
0.4999999999999951
 40
0.4999999999999951
 40
0.531249999999995
 40
0.531249999999995
 40
0.5624999999999948
 40
0.5624999999999948
 40
0.5937499999999947
 40
0.5937499999999947
 40
0.6249999999999944
 40
0.6249999999999944
 40
0.6562499999999943
 40
0.6562499999999943
 40
0.6874999999999942
 40
0.6874999999999942
 40
0.718749999999994
 40
0.718749999999994
 40
0.7499999999999939
 40
0.7499999999999939
 40
0.7812499999999938
 40
0.7812499999999938
 40
0.796874999999994
 40
0.796874999999994
 40
0.8124999999999942
 40
0.8124999999999942
 40
0.8437499999999952
 40
0.8437499999999952
 40
0.8749999999999961
 40
0.8749999999999961
 40
0.9062499999999971
 40
0.9062499999999971
 40
0.9374999999999981
 40
0.9374999999999981
 40
0.968749999999999
 40
0.968749999999999
 40
1.0
 40
1.0
 40
1.031249999999999
 40
1.031249999999999
 10
10.16438418682818
 20
3.48227653428997
 30
0.0
 10
10.1772934757543
 20
3.482276534289971
 30
0.0
 10
10.18363971174956
 20
3.481914021071159
 30
0.0
 10
10.19300322938999
 20
3.480852743906328
 30
0.0
 10
10.19609823680358
 20
3.480412162176687
 30
0.0
 10
10.20223475983831
 20
3.47935499276339
 30
0.0
 10
10.20528402856587
 20
3.47873555042366
 30
0.0
 10
10.21415289898174
 20
3.476654432304084
 30
0.0
 10
10.21976099139155
 20
3.474962942670905
 30
0.0
 10
10.23037453738228
 20
3.470998857289109
 30
0.0
 10
10.23539764770215
 20
3.468706670953845
 30
0.0
 10
10.24440201286149
 20
3.463749337681786
 30
0.0
 10
10.24844351999696
 20
3.461066211069084
 30
0.0
 10
10.25558273305935
 20
3.455306151957484
 30
0.0
 10
10.25861493622663
 20
3.452272681050969
 30
0.0
 10
10.26348624624704
 20
3.446077183548811
 30
0.0
 10
10.26536223390733
 20
3.442869375464216
 30
0.0
 10
10.26787186289389
 20
3.43639055484482
 30
0.0
 10
10.26849286686744
 20
3.433176863127781
 30
0.0
 10
10.26849976708304
 20
3.426804608901584
 30
0.0
 10
10.26786539415776
 20
3.42361401604075
 30
0.0
 10
10.26537328876014
 20
3.417524692912407
 30
0.0
 10
10.26352938959942
 20
3.414607807376274
 30
0.0
 10
10.25863855371825
 20
3.409016522181905
 30
0.0
 10
10.25558202851408
 20
3.406353413149851
 30
0.0
 10
10.24851549944569
 20
3.401482206341492
 30
0.0
 10
10.24448108383079
 20
3.399241959893207
 30
0.0
 10
10.23536852839867
 20
3.395141395289563
 30
0.0
 10
10.23043495640395
 20
3.393346471046265
 30
0.0
 10
10.22250607136969
 20
3.391008436710831
 30
0.0
 10
10.21977353702051
 20
3.390288268422442
 30
0.0
 10
10.21412517495959
 20
3.3889659863549
 30
0.0
 10
10.21119822116252
 20
3.388362604377079
 30
0.0
 10
10.20232661884529
 20
3.386766181356177
 30
0.0
 10
10.19623951712212
 20
3.385970054255883
 30
0.0
 10
10.18372286943264
 20
3.384894365136236
 30
0.0
 10
10.17724864691052
 20
3.384620028676839
 30
0.0
 10
10.16449991773771
 20
3.384618045418049
 30
0.0
 10
10.15816281632146
 20
3.384881502257607
 30
0.0
 10
10.14556477300256
 20
3.385954288518053
 30
0.0
 10
10.13939501220804
 20
3.386761014687268
 30
0.0
 10
10.12763931581282
 20
3.388870970007618
 30
0.0
 10
10.12196404295405
 20
3.390189044859174
 30
0.0
 10
10.1112762248319
 20
3.393332621837783
 30
0.0
 10
10.10635728324715
 20
3.395125890371018
 30
0.0
 10
10.09734529032567
 20
3.399169012611346
 30
0.0
 10
10.09321867566835
 20
3.401447466809948
 30
0.0
 10
10.08612028962634
 20
3.406332248633245
 30
0.0
 10
10.08311652580946
 20
3.408943256733941
 30
0.0
 10
10.07820628739021
 20
3.41452666093512
 30
0.0
 10
10.07631965338262
 20
3.417499876205098
 30
0.0
 10
10.07382615179026
 20
3.423567720567331
 30
0.0
 10
10.07318766924161
 20
3.426693258860345
 30
0.0
 10
10.07317508632318
 20
3.433140048083363
 30
0.0
 10
10.07380380099127
 20
3.436366851007057
 30
0.0
 10
10.07565688307749
 20
3.441178317565289
 30
0.0
 10
10.07642737135886
 20
3.442778944026152
 30
0.0
 10
10.07828028479755
 20
3.445972141380411
 30
0.0
 10
10.07936901428037
 20
3.447570976283008
 30
0.0
 10
10.08304046729737
 20
3.452252041955226
 30
0.0
 10
10.08603613413286
 20
3.455248680266689
 30
0.0
 10
10.09311008669873
 20
3.46097589895887
 30
0.0
 10
10.0972293722388
 20
3.463720562371517
 30
0.0
 10
10.1062305821504
 20
3.468682718355151
 30
0.0
 10
10.11114088837136
 20
3.470930989603462
 30
0.0
 10
10.12179958927891
 20
3.474926298715868
 30
0.0
 10
10.12748590934462
 20
3.476641955953426
 30
0.0
 10
10.13923159886516
 20
3.479404805321672
 30
0.0
 10
10.14536813190445
 20
3.48047361140053
 30
0.0
 10
10.15799933976595
 20
3.481913958386071
 30
0.0
 10
10.16438418682818
 20
3.48227653428997
 30
0.0
 10
10.1772934757543
 20
3.482276534289971
 30
0.0
  0
SPLINE
  5
1DC
330
1F
100
AcDbEntity
  8
0
  6
Continuous
 62
     7
370
    15
100
AcDbSpline
210
0.0
220
0.0
230
1.0
 70
     8
 71
     3
 72
    76
 73
    72
 74
     0
 42
0.00000001
 43
0.00000001
 40
-0.0312500000000001
 40
-0.0312500000000001
 40
0.0
 40
0.0
 40
0.0312499999999996
 40
0.0312499999999996
 40
0.0468749999999994
 40
0.0468749999999994
 40
0.0624999999999992
 40
0.0624999999999992
 40
0.0937499999999989
 40
0.0937499999999989
 40
0.1249999999999986
 40
0.1249999999999986
 40
0.1562499999999983
 40
0.1562499999999983
 40
0.187499999999998
 40
0.187499999999998
 40
0.2187499999999977
 40
0.2187499999999977
 40
0.2499999999999974
 40
0.2499999999999974
 40
0.2812499999999971
 40
0.2812499999999971
 40
0.3124999999999971
 40
0.3124999999999971
 40
0.3437499999999971
 40
0.3437499999999971
 40
0.3749999999999971
 40
0.3749999999999971
 40
0.4062499999999972
 40
0.4062499999999972
 40
0.4218749999999973
 40
0.4218749999999973
 40
0.4374999999999975
 40
0.4374999999999975
 40
0.4687499999999977
 40
0.4687499999999977
 40
0.4999999999999978
 40
0.4999999999999978
 40
0.5312499999999979
 40
0.5312499999999979
 40
0.562499999999998
 40
0.562499999999998
 40
0.5937499999999982
 40
0.5937499999999982
 40
0.6249999999999983
 40
0.6249999999999983
 40
0.6562499999999984
 40
0.6562499999999984
 40
0.6874999999999986
 40
0.6874999999999986
 40
0.7187499999999987
 40
0.7187499999999987
 40
0.7499999999999988
 40
0.7499999999999988
 40
0.781249999999999
 40
0.781249999999999
 40
0.7968749999999991
 40
0.7968749999999991
 40
0.8124999999999992
 40
0.8124999999999992
 40
0.8437499999999993
 40
0.8437499999999993
 40
0.8749999999999994
 40
0.8749999999999994
 40
0.9062499999999996
 40
0.9062499999999996
 40
0.9374999999999998
 40
0.9374999999999998
 40
0.9687499999999999
 40
0.9687499999999999
 40
1.0
 40
1.0
 40
1.03125
 40
1.03125
 10
10.16438418682818
 20
5.532119891251969
 30
0.0
 10
10.1772934757543
 20
5.532119891251968
 30
0.0
 10
10.18363971174956
 20
5.531848777434321
 30
0.0
 10
10.19300322938999
 20
5.53104843020586
 30
0.0
 10
10.19609823680358
 20
5.530715474925155
 30
0.0
 10
10.20223475983831
 20
5.529912642417462
 30
0.0
 10
10.20528402856587
 20
5.529440553619645
 30
0.0
 10
10.21415289898174
 20
5.527844658071733
 30
0.0
 10
10.21976099139155
 20
5.526536390740791
 30
0.0
 10
10.23037453738228
 20
5.523413771598103
 30
0.0
 10
10.23539764770216
 20
5.521582874681616
 30
0.0
 10
10.24440201286149
 20
5.517534090412905
 30
0.0
 10
10.24844351999696
 20
5.515302615169415
 30
0.0
 10
10.25558273305935
 20
5.510388711725916
 30
0.0
 10
10.25861493622663
 20
5.507741977206937
 30
0.0
 10
10.26348624624704
 20
5.502187765239641
 30
0.0
 10
10.26536223390733
 20
5.499239263413891
 30
0.0
 10
10.26787186289389
 20
5.493111081023763
 30
0.0
 10
10.26849286686744
 20
5.489986703642629
 30
0.0
 10
10.26849976708304
 20
5.48361543228446
 30
0.0
 10
10.26786539415776
 20
5.480333642571018
 30
0.0
 10
10.26537328876014
 20
5.473896121277562
 30
0.0
 10
10.26352938959942
 20
5.470724187931343
 30
0.0
 10
10.25863855371825
 20
5.464488809847979
 30
0.0
 10
10.25558202851408
 20
5.461436073325614
 30
0.0
 10
10.24851549944569
 20
5.455726959542817
 30
0.0
 10
10.24448108383079
 20
5.453034857111724
 30
0.0
 10
10.23536852839867
 20
5.448014495608787
 30
0.0
 10
10.23043495640395
 20
5.445766807055247
 30
0.0
 10
10.22250607136969
 20
5.442799212465601
 30
0.0
 10
10.21977353702051
 20
5.441877338540653
 30
0.0
 10
10.21412517495959
 20
5.440174171546887
 30
0.0
 10
10.21119822116252
 20
5.439391180531383
 30
0.0
 10
10.20232661884529
 20
5.437309376377508
 30
0.0
 10
10.19623951712212
 20
5.43625683992356
 30
0.0
 10
10.18372286943264
 20
5.434830538356745
 30
0.0
 10
10.17724864691052
 20
5.434463717283
 30
0.0
 10
10.16449991773771
 20
5.434461072575205
 30
0.0
 10
10.15816281632146
 20
5.434813410814006
 30
0.0
 10
10.14556477300256
 20
5.436236005677497
 30
0.0
 10
10.13939501220805
 20
5.437302500498442
 30
0.0
 10
10.12763931581282
 20
5.440054247574445
 30
0.0
 10
10.12196404295405
 20
5.441758817065073
 30
0.0
 10
10.1112762248319
 20
5.445749589144533
 30
0.0
 10
10.10635728324715
 20
5.447994783520429
 30
0.0
 10
10.09734529032567
 20
5.45294626052237
 30
0.0
 10
10.09321867566835
 20
5.455685729616064
 30
0.0
 10
10.08612028962634
 20
5.461411777168676
 30
0.0
 10
10.08311652580946
 20
5.464405593598777
 30
0.0
 10
10.07820628739021
 20
5.470635163471274
 30
0.0
 10
10.07631965338262
 20
5.47386919620368
 30
0.0
 10
10.07382615179026
 20
5.480285381114287
 30
0.0
 10
10.07318766924161
 20
5.483502690069812
 30
0.0
 10
10.07317508632318
 20
5.489951271605551
 30
0.0
 10
10.07380380099127
 20
5.493087695130516
 30
0.0
 10
10.07565688307749
 20
5.497640196787027
 30
0.0
 10
10.07642737135886
 20
5.499133923202207
 30
0.0
 10
10.07828028479755
 20
5.502074396296135
 30
0.0
 10
10.07936901428037
 20
5.503526594271919
 30
0.0
 10
10.08304046729737
 20
5.507724147674235
 30
0.0
 10
10.08603613413286
 20
5.510338684608389
 30
0.0
 10
10.09311008669873
 20
5.515226542579785
 30
0.0
 10
10.0972293722388
 20
5.517510299817381
 30
0.0
 10
10.1062305821504
 20
5.521563597954136
 30
0.0
 10
10.11114088837136
 20
5.523359866510921
 30
0.0
 10
10.12179958927891
 20
5.526507957672793
 30
0.0
 10
10.12748590934462
 20
5.527834986450794
 30
0.0
 10
10.13923159886516
 20
5.529953871367632
 30
0.0
 10
10.14536813190445
 20
5.530762476034733
 30
0.0
 10
10.15799933976595
 20
5.531848766249272
 30
0.0
 10
10.16438418682818
 20
5.532119891251969
 30
0.0
 10
10.1772934757543
 20
5.532119891251968
 30
0.0
  0
LINE
  5
1DD
330
1F
100
AcDbEntity
  8
0
  6
Continuous
 62
     7
370
    15
100
AcDbLine
 10
10.6858388313
 20
5.6208694628
 30
0.0
 11
10.6858388313
 21
3.2958694628
 31
0.0
  0
SPLINE
  5
1DE
330
1F
100
AcDbEntity
  8
0
  6
Continuous
 62
     7
370
    15
100
AcDbSpline
210
0.0
220
0.0
230
1.0
 70
     8
 71
     3
 72
    12
 73
     8
 74
     0
 42
0.00000001
 43
0.00000001
 40
0.0
 40
0.0
 40
0.0
 40
0.0
 40
0.2140117388396065
 40
0.4279941130312636
 40
0.6427378178647598
 40
0.8579837446163516
 40
1.0
 40
1.0
 40
1.0
 40
1.0
 10
9.502088831291235
 20
5.189205617031968
 30
0.0
 10
9.493336302159193
 20
5.189299561506565
 30
0.0
 10
9.475832444833609
 20
5.189487437565595
 30
0.0
 10
9.452432984855749
 20
5.190806287590034
 30
0.0
 10
9.434906699597716
 20
5.192237012924868
 30
0.0
 10
9.424912252922695
 20
5.193267505615609
 30
0.0
 10
9.424941109998796
 20
5.193265954281689
 30
0.0
 10
9.424952581053093
 20
5.19326533760675
 30
0.0
  0
LINE
  5
1DF
330
1F
100
AcDbEntity
  8
0
  6
Continuous
 62
     7
370
    15
100
AcDbLine
 10
9.4977287111
 20
5.1892824849
 30
0.0
 11
9.5194542779
 21
5.1894138268
 31
0.0
  0
SPLINE
  5
1E0
330
1F
100
AcDbEntity
  8
0
  6
Continuous
 62
     7
370
    15
100
AcDbSpline
210
0.0
220
0.0
230
1.0
 70
     8
 71
     3
 72
    13
 73
     9
 74
     0
 42
0.00000001
 43
0.00000001
 40
0.0
 40
0.0
 40
0.0
 40
0.0
 40
0.0012144687126113
 40
0.214802138930265
 40
0.4283595275139013
 40
0.6429506676848021
 40
0.8580458306952582
 40
1.0
 40
1.0
 40
1.0
 40
1.0
 10
9.580189033024975
 20
5.193366899243241
 30
0.0
 10
9.580197296349077
 20
5.193367753423958
 30
0.0
 10
9.581658824071878
 20
5.193518831704563
 30
0.0
 10
9.576526752159886
 20
5.192971301784983
 30
0.0
 10
9.564483428750323
 20
5.191804439085004
 30
0.0
 10
9.54436925860364
 20
5.190317395068604
 30
0.0
 10
9.52246666269855
 20
5.189351739614633
 30
0.0
 10
9.507885820932124
 20
5.189247185297062
 30
0.0
 10
9.502088831291235
 20
5.189205617031968
 30
0.0
  0
LINE
  5
1E1
330
1F
100
AcDbEntity
  8
0
  6
Continuous
 62
     7
370
    15
100
AcDbLine
 10
9.3483388313
 20
5.1933694628
 30
0.0
 11
9.3483388313
 21
3.7233694628
 31
0.0
  0
LINE
  5
1E2
330
1F
100
AcDbEntity
  8
0
  6
Continuous
 62
     7
370
    15
100
AcDbLine
 10
10.9933388313
 20
5.1933694628
 30
0.0
 11
10.9933388313
 21
3.7233694628
 31
0.0
  0
SPLINE
  5
1E3
330
1F
100
AcDbEntity
  8
0
  6
Continuous
 62
     7
370
    15
100
AcDbSpline
210
0.0
220
0.0
230
1.0
 70
     8
 71
     3
 72
    12
 73
     8
 74
     0
 42
0.00000001
 43
0.00000001
 40
0.0
 40
0.0
 40
0.0
 40
0.0
 40
0.2140117388396065
 40
0.4279941130312636
 40
0.6427378178647599
 40
0.8579837446163522
 40
1.0
 40
1.0
 40
1.0
 40
1.0
 10
10.83958883129124
 20
5.189205617031967
 30
0.0
 10
10.83083630215919
 20
5.189299561506565
 30
0.0
 10
10.81333244483361
 20
5.189487437565595
 30
0.0
 10
10.78993298485575
 20
5.190806287590034
 30
0.0
 10
10.77240669959772
 20
5.192237012924867
 30
0.0
 10
10.76241225292269
 20
5.193267505615609
 30
0.0
 10
10.7624411099988
 20
5.193265954281688
 30
0.0
 10
10.76245258105309
 20
5.19326533760675
 30
0.0
  0
LINE
  5
1E4
330
1F
100
AcDbEntity
  8
0
  6
Continuous
 62
     7
370
    15
100
AcDbLine
 10
10.8352287111
 20
5.1892824849
 30
0.0
 11
10.8569542779
 21
5.1894138268
 31
0.0
  0
SPLINE
  5
1E5
330
1F
100
AcDbEntity
  8
0
  6
Continuous
 62
     7
370
    15
100
AcDbSpline
210
0.0
220
0.0
230
1.0
 70
     8
 71
     3
 72
    13
 73
     9
 74
     0
 42
0.00000001
 43
0.00000001
 40
0.0
 40
0.0
 40
0.0
 40
0.0
 40
0.0012144687126117
 40
0.2148021389302654
 40
0.4283595275139019
 40
0.6429506676848021
 40
0.8580458306952593
 40
1.0
 40
1.0
 40
1.0
 40
1.0
 10
10.91768903302497
 20
5.193366899243242
 30
0.0
 10
10.91769729634908
 20
5.193367753423958
 30
0.0
 10
10.91915882407186
 20
5.193518831704537
 30
0.0
 10
10.91402675215989
 20
5.192971301784995
 30
0.0
 10
10.90198342875032
 20
5.191804439085001
 30
0.0
 10
10.88186925860364
 20
5.190317395068605
 30
0.0
 10
10.85996666269855
 20
5.189351739614631
 30
0.0
 10
10.84538582093212
 20
5.189247185297062
 30
0.0
 10
10.83958883129124
 20
5.189205617031967
 30
0.0
  0
LINE
  5
1E6
330
1F
100
AcDbEntity
  8
0
  6
Continuous
 62
     7
370
    15
100
AcDbLine
 10
10.109366636
 20
4.7930151321
 30
0.0
 11
10.2328784929
 21
4.7930151321
 31
0.0
  0
LINE
  5
1E7
330
1F
100
AcDbEntity
  8
0
  6
Continuous
 62
     7
370
    15
100
AcDbLine
 10
10.228881729
 20
4.7855151321
 30
0.0
 11
10.1127203786
 21
4.7855151321
 31
0.0
  0
LINE
  5
1E8
330
1F
100
AcDbEntity
  8
0
  6
Continuous
 62
     7
370
    15
100
AcDbLine
 10
9.831886281
 20
4.1237237935
 30
0.0
 11
9.9553981526
 21
4.1237237935
 31
0.0
  0
LINE
  5
1E9
330
1F
100
AcDbEntity
  8
0
  6
Continuous
 62
     7
370
    15
100
AcDbLine
 10
9.9514013749
 20
4.1312237935
 30
0.0
 11
9.8352400836
 21
4.1312237935
 31
0.0
  0
LINE
  5
1EA
330
1F
100
AcDbEntity
  8
0
  6
Continuous
 62
     7
370
    15
100
AcDbLine
 10
10.5062875957
 20
4.1312237935
 30
0.0
 11
10.3905364542
 21
4.1312237935
 31
0.0
  0
LINE
  5
1EB
330
1F
100
AcDbEntity
  8
0
  6
Continuous
 62
     7
370
    15
100
AcDbLine
 10
10.3868198133
 20
4.1237237935
 30
0.0
 11
10.510254528
 21
4.1237237935
 31
0.0
  0
SPLINE
  5
1EC
330
1F
100
AcDbEntity
  8
0
  6
HIDDEN
 62
     7
370
     0
100
AcDbSpline
210
0.0
220
0.0
230
1.0
 70
     8
 71
     3
 72
    76
 73
    72
 74
     0
 42
0.00000001
 43
0.00000001
 40
-0.0312499999999999
 40
-0.0312499999999999
 40
0.0
 40
0.0
 40
0.0312499999999999
 40
0.0312499999999999
 40
0.0468749999999999
 40
0.0468749999999999
 40
0.0624999999999998
 40
0.0624999999999998
 40
0.09375
 40
0.09375
 40
0.1250000000000001
 40
0.1250000000000001
 40
0.1562500000000002
 40
0.1562500000000002
 40
0.1875000000000004
 40
0.1875000000000004
 40
0.2187500000000005
 40
0.2187500000000005
 40
0.2500000000000006
 40
0.2500000000000006
 40
0.2812500000000008
 40
0.2812500000000008
 40
0.3125000000000009
 40
0.3125000000000009
 40
0.3437500000000011
 40
0.3437500000000011
 40
0.3750000000000012
 40
0.3750000000000012
 40
0.4062500000000014
 40
0.4062500000000014
 40
0.4218750000000014
 40
0.4218750000000014
 40
0.4375000000000015
 40
0.4375000000000015
 40
0.4687500000000015
 40
0.4687500000000015
 40
0.5000000000000014
 40
0.5000000000000014
 40
0.5312500000000013
 40
0.5312500000000013
 40
0.5625000000000013
 40
0.5625000000000013
 40
0.5937500000000012
 40
0.5937500000000012
 40
0.6250000000000011
 40
0.6250000000000011
 40
0.6562500000000012
 40
0.6562500000000012
 40
0.6875000000000011
 40
0.6875000000000011
 40
0.7187500000000011
 40
0.7187500000000011
 40
0.750000000000001
 40
0.750000000000001
 40
0.7812500000000009
 40
0.7812500000000009
 40
0.7968750000000007
 40
0.7968750000000007
 40
0.8125000000000004
 40
0.8125000000000004
 40
0.8437500000000003
 40
0.8437500000000003
 40
0.8750000000000002
 40
0.8750000000000002
 40
0.9062500000000002
 40
0.9062500000000002
 40
0.9375000000000001
 40
0.9375000000000001
 40
0.9687500000000001
 40
0.9687500000000001
 40
1.0
 40
1.0
 40
1.03125
 40
1.03125
 10
10.16438418682818
 20
3.622834730985978
 30
0.0
 10
10.1772934757543
 20
3.622834730985979
 30
0.0
 10
10.18363971174956
 20
3.623286197895508
 30
0.0
 10
10.19300322938999
 20
3.624615450269268
 30
0.0
 10
10.19609823680358
 20
3.625168072358726
 30
0.0
 10
10.20223475983831
 20
3.626498528609969
 30
0.0
 10
10.20528402856587
 20
3.627280005069042
 30
0.0
 10
10.21415289898174
 20
3.629916688261174
 30
0.0
 10
10.21976099139155
 20
3.63207241640626
 30
0.0
 10
10.23037453738228
 20
3.637188867462427
 30
0.0
 10
10.23539764770215
 20
3.640176141699342
 30
0.0
 10
10.24440201286149
 20
3.646738053104585
 30
0.0
 10
10.24844351999696
 20
3.650335242581322
 30
0.0
 10
10.25558273305935
 20
3.658197952407002
 30
0.0
 10
10.25861493622663
 20
3.662405719076147
 30
0.0
 10
10.26348624624704
 20
3.671168528940345
 30
0.0
 10
10.26536223390733
 20
3.675788303858195
 30
0.0
 10
10.26787186289389
 20
3.685315701842643
 30
0.0
 10
10.26849286686744
 20
3.69013779869072
 30
0.0
 10
10.26849976708304
 20
3.699899540894676
 30
0.0
 10
10.26786539415776
 20
3.704891517991673
 30
0.0
 10
10.26537328876014
 20
3.714616858625197
 30
0.0
 10
10.26352938959942
 20
3.719375816206021
 30
0.0
 10
10.25863855371825
 20
3.728674597521005
 30
0.0
 10
10.25558202851408
 20
3.733197785306082
 30
0.0
 10
10.24851549944569
 20
3.741613739774671
 30
0.0
 10
10.24448108383079
 20
3.745559828125472
 30
0.0
 10
10.23536852839867
 20
3.752888212023608
 30
0.0
 10
10.23043495640395
 20
3.756153060085199
 30
0.0
 10
10.22250607136969
 20
3.76045104601254
 30
0.0
 10
10.21977353702051
 20
3.761783779030253
 30
0.0
 10
10.21412517495959
 20
3.764242759047569
 30
0.0
 10
10.21119822116252
 20
3.76537143773167
 30
0.0
 10
10.20232661884529
 20
3.768369254758816
 30
0.0
 10
10.19623951712212
 20
3.769880570199917
 30
0.0
 10
10.18372286943264
 20
3.771927323309309
 30
0.0
 10
10.17724864691052
 20
3.772452800772863
 30
0.0
 10
10.16449991773771
 20
3.77245659147367
 30
0.0
 10
10.15816281632146
 20
3.771951879979793
 30
0.0
 10
10.14556477300256
 20
3.76991048840653
 30
0.0
 10
10.13939501220805
 20
3.768379114196909
 30
0.0
 10
10.12763931581282
 20
3.764416656443523
 30
0.0
 10
10.12196404295405
 20
3.76195774312498
 30
0.0
 10
10.1112762248319
 20
3.756178109050433
 30
0.0
 10
10.10635728324715
 20
3.752916751153982
 30
0.0
 10
10.09734529032567
 20
3.745689385581168
 30
0.0
 10
10.09321867566835
 20
3.741674344429973
 30
0.0
 10
10.08612028962634
 20
3.733233772396747
 30
0.0
 10
10.08311652580946
 20
3.728798162333234
 30
0.0
 10
10.07820628739021
 20
3.71950909831924
 30
0.0
 10
10.07631965338262
 20
3.714657277572664
 30
0.0
 10
10.07382615179026
 20
3.704964682405715
 30
0.0
 10
10.07318766924161
 20
3.70007172217653
 30
0.0
 10
10.07317508632318
 20
3.690192629913198
 30
0.0
 10
10.07380380099127
 20
3.685351656675877
 30
0.0
 10
10.07565688307749
 20
3.678274546256248
 30
0.0
 10
10.07642737135886
 20
3.675943806491246
 30
0.0
 10
10.07828028479755
 20
3.671338931738418
 30
0.0
 10
10.07936901428037
 20
3.669056123913887
 30
0.0
 10
10.08304046729737
 20
3.662434145088149
 30
0.0
 10
10.08603613413286
 20
3.658277538489378
 30
0.0
 10
10.09311008669873
 20
3.65045741617632
 30
0.0
 10
10.0972293722388
 20
3.646776471029183
 30
0.0
 10
10.1062305821504
 20
3.64020752200504
 30
0.0
 10
10.11114088837136
 20
3.637276969108201
 30
0.0
 10
10.12179958927891
 20
3.632119221126287
 30
0.0
 10
10.12748590934462
 20
3.6299326137184
 30
0.0
 10
10.13923159886516
 20
3.626431972262031
 30
0.0
 10
10.14536813190445
 20
3.625090356475145
 30
0.0
 10
10.15799933976595
 20
3.623286235370955
 30
0.0
 10
10.16438418682818
 20
3.622834730985978
 30
0.0
 10
10.1772934757543
 20
3.622834730985979
 30
0.0
  0
SPLINE
  5
1ED
330
1F
100
AcDbEntity
  8
0
  6
HIDDEN
 62
     7
370
     0
100
AcDbSpline
210
0.0
220
0.0
230
1.0
 70
     8
 71
     3
 72
    76
 73
    72
 74
     0
 42
0.00000001
 43
0.00000001
 40
-0.0312499999999997
 40
-0.0312499999999997
 40
0.0
 40
0.0
 40
0.03125
 40
0.03125
 40
0.046875
 40
0.046875
 40
0.0625
 40
0.0625
 40
0.0937500000000001
 40
0.0937500000000001
 40
0.1250000000000001
 40
0.1250000000000001
 40
0.1562500000000001
 40
0.1562500000000001
 40
0.1875000000000002
 40
0.1875000000000002
 40
0.2187500000000002
 40
0.2187500000000002
 40
0.2500000000000002
 40
0.2500000000000002
 40
0.2812500000000002
 40
0.2812500000000002
 40
0.3125000000000003
 40
0.3125000000000003
 40
0.3437500000000003
 40
0.3437500000000003
 40
0.3750000000000003
 40
0.3750000000000003
 40
0.4062500000000003
 40
0.4062500000000003
 40
0.4218750000000003
 40
0.4218750000000003
 40
0.4375000000000003
 40
0.4375000000000003
 40
0.4687500000000005
 40
0.4687500000000005
 40
0.5000000000000007
 40
0.5000000000000007
 40
0.5312500000000009
 40
0.5312500000000009
 40
0.562500000000001
 40
0.562500000000001
 40
0.5937500000000012
 40
0.5937500000000012
 40
0.6250000000000014
 40
0.6250000000000014
 40
0.6562500000000017
 40
0.6562500000000017
 40
0.6875000000000018
 40
0.6875000000000018
 40
0.718750000000002
 40
0.718750000000002
 40
0.7500000000000022
 40
0.7500000000000022
 40
0.7812500000000024
 40
0.7812500000000024
 40
0.7968750000000023
 40
0.7968750000000023
 40
0.8125000000000021
 40
0.8125000000000021
 40
0.8437500000000018
 40
0.8437500000000018
 40
0.8750000000000014
 40
0.8750000000000014
 40
0.9062500000000011
 40
0.9062500000000011
 40
0.9375000000000007
 40
0.9375000000000007
 40
0.9687500000000003
 40
0.9687500000000003
 40
1.0
 40
1.0
 40
1.03125
 40
1.03125
 10
10.16438418682818
 20
5.144284224148198
 30
0.0
 10
10.1772934757543
 20
5.144284224148198
 30
0.0
 10
10.18363971174956
 20
5.144803530179242
 30
0.0
 10
10.19300322938999
 20
5.146326451848799
 30
0.0
 10
10.19609823680358
 20
5.146958957215987
 30
0.0
 10
10.20223475983831
 20
5.14847818923627
 30
0.0
 10
10.20528402856587
 20
5.149369035502016
 30
0.0
 10
10.21415289898174
 20
5.152365864084389
 30
0.0
 10
10.21976099139155
 20
5.154806030245447
 30
0.0
 10
10.23037453738228
 20
5.160547040431294
 30
0.0
 10
10.23539764770216
 20
5.163876696221422
 30
0.0
 10
10.24440201286149
 20
5.171112957408545
 30
0.0
 10
10.24844351999696
 20
5.175045374815963
 30
0.0
 10
10.25558273305935
 20
5.183536124393069
 30
0.0
 10
10.25861493622663
 20
5.188030937327873
 30
0.0
 10
10.26348624624704
 20
5.197269726758353
 30
0.0
 10
10.26536223390733
 20
5.202081965834378
 30
0.0
 10
10.26787186289389
 20
5.211869617049588
 30
0.0
 10
10.26849286686744
 20
5.216758005427032
 30
0.0
 10
10.26849976708304
 20
5.226520477142371
 30
0.0
 10
10.26786539415776
 20
5.231444765454903
 30
0.0
 10
10.26537328876014
 20
5.240911663939649
 30
0.0
 10
10.26352938959942
 20
5.245481318098789
 30
0.0
 10
10.25863855371825
 20
5.254302036152899
 30
0.0
 10
10.25558202851408
 20
5.258536031817202
 30
0.0
 10
10.24851549944569
 20
5.266330068939157
 30
0.0
 10
10.24448108383079
 20
5.2699407774895
 30
0.0
 10
10.23536852839867
 20
5.276586463111454
 30
0.0
 10
10.23043495640395
 20
5.279515257187262
 30
0.0
 10
10.22250607136969
 20
5.283345966370537
 30
0.0
 10
10.21977353702051
 20
5.284528987978611
 30
0.0
 10
10.21412517495959
 20
5.286705264844007
 30
0.0
 10
10.21119822116252
 20
5.287700632815158
 30
0.0
 10
10.20232661884529
 20
5.290338186763546
 30
0.0
 10
10.19623951712212
 20
5.291659188208294
 30
0.0
 10
10.18372286943264
 20
5.293445707223101
 30
0.0
 10
10.17724864691052
 20
5.293902540090401
 30
0.0
 10
10.16449991773771
 20
5.293905839845765
 30
0.0
 10
10.15816281632146
 20
5.293467098543888
 30
0.0
 10
10.14556477300256
 20
5.291685344430239
 30
0.0
 10
10.13939501220805
 20
5.29034677757937
 30
0.0
 10
10.12763931581282
 20
5.286860675123105
 30
0.0
 10
10.12196404295405
 20
5.284688628637936
 30
0.0
 10
10.1112762248319
 20
5.279537805810074
 30
0.0
 10
10.10635728324715
 20
5.276611879565963
 30
0.0
 10
10.09734529032567
 20
5.270058719603531
 30
0.0
 10
10.09321867566835
 20
5.266385856246604
 30
0.0
 10
10.08612028962634
 20
5.258569694519236
 30
0.0
 10
10.08311652580946
 20
5.254418215209799
 30
0.0
 10
10.07820628739021
 20
5.245608752932097
 30
0.0
 10
10.07631965338262
 20
5.240950518000099
 30
0.0
 10
10.07382615179026
 20
5.231516470662659
 30
0.0
 10
10.07318766924161
 20
5.226691625115254
 30
0.0
 10
10.07317508632318
 20
5.216813863155173
 30
0.0
 10
10.07380380099127
 20
5.211905807869891
 30
0.0
 10
10.07565688307749
 20
5.204636486656625
 30
0.0
 10
10.07642737135886
 20
5.202226402770145
 30
0.0
 10
10.07828028479755
 20
5.197433949197461
 30
0.0
 10
10.07936901428037
 20
5.195042303457477
 30
0.0
 10
10.08304046729737
 20
5.188061448673982
 30
0.0
 10
10.08603613413286
 20
5.183621236040208
 30
0.0
 10
10.09311008669873
 20
5.175178117370438
 30
0.0
 10
10.0972293722388
 20
5.171155075124007
 30
0.0
 10
10.1062305821504
 20
5.163911547085914
 30
0.0
 10
10.11114088837136
 20
5.160645505497418
 30
0.0
 10
10.12179958927891
 20
5.154858929309163
 30
0.0
 10
10.12748590934462
 20
5.1523838712883
 30
0.0
 10
10.13923159886516
 20
5.148405261900926
 30
0.0
 10
10.14536813190445
 20
5.146870517549023
 30
0.0
 10
10.15799933976595
 20
5.144803605879416
 30
0.0
 10
10.16438418682818
 20
5.144284224148198
 30
0.0
 10
10.1772934757543
 20
5.144284224148198
 30
0.0
  0
LINE
  5
1EE
330
1F
100
AcDbEntity
  8
0
  6
HIDDEN
 62
     7
370
     0
100
AcDbLine
 10
10.0016262329
 20
4.2615190691
 30
0.0
 11
9.7850907998
 21
4.2615190691
 31
0.0
  0
LINE
  5
1EF
330
1F
100
AcDbEntity
  8
0
  6
HIDDEN
 62
     7
370
     0
100
AcDbLine
 10
10.2791065478
 20
4.6552198565
 30
0.0
 11
10.0625711148
 21
4.6552198565
 31
0.0
  0
LINE
  5
1F0
330
1F
100
AcDbEntity
  8
0
  6
HIDDEN
 62
     7
370
     0
100
AcDbLine
 10
10.3400514297
 20
4.2615190691
 30
0.0
 11
10.5565868628
 21
4.2615190691
 31
0.0
  0
LINE
  5
1F1
330
1F
100
AcDbEntity
  8
0
  6
HIDDEN
 62
     7
370
     0
100
AcDbLine
 10
10.1695888313
 20
4.4583694628
 30
0.0
 11
10.1695888313
 21
5.1933694628
 31
0.0
  0
LINE
  5
1F2
330
1F
100
AcDbEntity
  8
0
  6
HIDDEN
 62
     7
370
     0
100
AcDbLine
 10
10.1695888313
 20
3.7233694628
 30
0.0
 11
10.1695888313
 21
4.4583694628
 31
0.0
  0
LINE
  5
1F3
330
1F
100
AcDbEntity
  8
0
  6
HIDDEN
 62
     7
370
     0
100
AcDbLine
 10
10.1720888313
 20
4.4583694628
 30
0.0
 11
10.1720888313
 21
5.1933694628
 31
0.0
  0
LINE
  5
1F4
330
1F
100
AcDbEntity
  8
0
  6
HIDDEN
 62
     7
370
     0
100
AcDbLine
 10
10.1720888313
 20
3.7233694628
 30
0.0
 11
10.1720888313
 21
4.4583694628
 31
0.0
  0
LWPOLYLINE
  5
1F5
330
1F
100
AcDbEntity
  8
0
  6
HIDDEN
 62
     7
370
     0
100
AcDbPolyline
 90
       39
 70
   128
 43
0.0
 10
10.1708388313
 20
3.5870462213
 10
10.1547649351
 20
3.5863802607
 10
10.1391294929
 20
3.5844005449
 10
10.1243589988
 20
3.5811610752
 10
10.1108563533
 20
3.5767502159
 10
10.0989898735
 20
3.5712882838
 10
10.0890832459
 20
3.5649242661
 10
10.0814066976
 20
3.5578317567
 10
10.0761696248
 20
3.5502042207
 10
10.0735148812
 20
3.5422497175
 10
10.0735148812
 20
3.534185225
 10
10.0761696248
 20
3.5262307218
 10
10.0814066976
 20
3.5186031858
 10
10.0890832459
 20
3.5115106764
 10
10.0989898735
 20
3.5051466587
 10
10.1108563533
 20
3.4996847266
 10
10.1243589988
 20
3.4952738673
 10
10.1391294929
 20
3.4920343976
 10
10.1547649351
 20
3.4900546818
 10
10.1708388313
 20
3.4893887213
 10
10.1869127275
 20
3.4900546818
 10
10.2025481697
 20
3.4920343976
 10
10.2173186638
 20
3.4952738673
 10
10.2308213093
 20
3.4996847266
 10
10.2426877891
 20
3.5051466587
 10
10.2525944166
 20
3.5115106764
 10
10.2602709649
 20
3.5186031858
 10
10.2655080378
 20
3.5262307218
 10
10.2681627814
 20
3.534185225
 10
10.2681627814
 20
3.5422497175
 10
10.2655080378
 20
3.5502042207
 10
10.2602709649
 20
3.5578317567
 10
10.2525944166
 20
3.5649242661
 10
10.2426877891
 20
3.5712882838
 10
10.2308213093
 20
3.5767502159
 10
10.2173186638
 20
3.5811610752
 10
10.2025481697
 20
3.5844005449
 10
10.1869127275
 20
3.5863802607
 10
10.1708388313
 20
3.5870462213
  0
LWPOLYLINE
  5
1F6
330
1F
100
AcDbEntity
  8
0
  6
HIDDEN
 62
     7
370
     0
100
AcDbPolyline
 90
       39
 70
   128
 43
0.0
 10
10.1708388313
 20
5.4273502043
 10
10.1547649351
 20
5.4266842438
 10
10.1391294929
 20
5.4247045279
 10
10.1243589988
 20
5.4214650582
 10
10.1108563533
 20
5.4170541989
 10
10.0989898735
 20
5.4115922668
 10
10.0890832459
 20
5.4052282492
 10
10.0814066976
 20
5.3981357398
 10
10.0761696248
 20
5.3905082038
 10
10.0735148812
 20
5.3825537005
 10
10.0735148812
 20
5.3744892081
 10
10.0761696248
 20
5.3665347048
 10
10.0814066976
 20
5.3589071688
 10
10.0890832459
 20
5.3518146594
 10
10.0989898735
 20
5.3454506418
 10
10.1108563533
 20
5.3399887096
 10
10.1243589988
 20
5.3355778504
 10
10.1391294929
 20
5.3323383807
 10
10.1547649351
 20
5.3303586648
 10
10.1708388313
 20
5.3296927043
 10
10.1869127275
 20
5.3303586648
 10
10.2025481697
 20
5.3323383807
 10
10.2173186638
 20
5.3355778504
 10
10.2308213093
 20
5.3399887096
 10
10.2426877891
 20
5.3454506418
 10
10.2525944166
 20
5.3518146594
 10
10.2602709649
 20
5.3589071688
 10
10.2655080378
 20
5.3665347048
 10
10.2681627814
 20
5.3744892081
 10
10.2681627814
 20
5.3825537005
 10
10.2655080378
 20
5.3905082038
 10
10.2602709649
 20
5.3981357398
 10
10.2525944166
 20
5.4052282492
 10
10.2426877891
 20
5.4115922668
 10
10.2308213093
 20
5.4170541989
 10
10.2173186638
 20
5.4214650582
 10
10.2025481697
 20
5.4247045279
 10
10.1869127275
 20
5.4266842438
 10
10.1708388313
 20
5.4273502043
  0
ARC
  5
1F7
330
1F
100
AcDbEntity
  8
0
  6
HIDDEN
 62
     7
370
     0
100
AcDbCircle
 10
9.5020976012
 20
5.078118962
 30
0.0
 40
0.3170242895708978
100
AcDbArc
 50
255.9259613671
 51
284.2648539634
  0
ARC
  5
1F8
330
1F
100
AcDbEntity
  8
0
  6
HIDDEN
 62
     7
370
     0
100
AcDbCircle
 10
10.8395976012
 20
5.078118962
 30
0.0
 40
0.3170242895708767
100
AcDbArc
 50
255.9259613671
 51
284.2648539634
  0
LWPOLYLINE
  5
1F9
330
1F
100
AcDbEntity
  8
0
  6
HIDDEN
 62
     7
370
     0
100
AcDbPolyline
 90
       39
 70
   128
 43
0.0
 10
10.1708388313
 20
5.0665213129
 10
10.1547649351
 20
5.0675416235
 10
10.1391294929
 20
5.0705747242
 10
10.1243589988
 20
5.0755378797
 10
10.1108563533
 20
5.0822957082
 10
10.0989898735
 20
5.0906638737
 10
10.0890832459
 20
5.1004141144
 10
10.0814066976
 20
5.1112804693
 10
10.0761696248
 20
5.1229665324
 10
10.0735148812
 20
5.1351535384
 10
10.0735148812
 20
5.1475090577
 10
10.0761696248
 20
5.1596960637
 10
10.0814066976
 20
5.1713821268
 10
10.0890832459
 20
5.1822484817
 10
10.0989898735
 20
5.1919987224
 10
10.1108563533
 20
5.2003668879
 10
10.1243589988
 20
5.2071247164
 10
10.1391294929
 20
5.2120878719
 10
10.1547649351
 20
5.2151209726
 10
10.1708388313
 20
5.2161412833
 10
10.1869127275
 20
5.2151209726
 10
10.2025481697
 20
5.2120878719
 10
10.2173186638
 20
5.2071247164
 10
10.2308213093
 20
5.2003668879
 10
10.2426877891
 20
5.1919987224
 10
10.2525944166
 20
5.1822484817
 10
10.2602709649
 20
5.1713821268
 10
10.2655080378
 20
5.1596960637
 10
10.2681627814
 20
5.1475090577
 10
10.2681627814
 20
5.1351535384
 10
10.2655080378
 20
5.1229665324
 10
10.2602709649
 20
5.1112804693
 10
10.2525944166
 20
5.1004141144
 10
10.2426877891
 20
5.0906638737
 10
10.2308213093
 20
5.0822957082
 10
10.2173186638
 20
5.0755378797
 10
10.2025481697
 20
5.0705747242
 10
10.1869127275
 20
5.0675416235
 10
10.1708388313
 20
5.0665213129
  0
LWPOLYLINE
  5
1FA
330
1F
100
AcDbEntity
  8
0
  6
HIDDEN
 62
     7
370
     0
100
AcDbPolyline
 90
       39
 70
   128
 43
0.0
 10
10.1708388313
 20
3.7005976423
 10
10.1547649351
 20
3.701617953
 10
10.1391294929
 20
3.7046510536
 10
10.1243589988
 20
3.7096142092
 10
10.1108563533
 20
3.7163720376
 10
10.0989898735
 20
3.7247402031
 10
10.0890832459
 20
3.7344904439
 10
10.0814066976
 20
3.7453567987
 10
10.0761696248
 20
3.7570428618
 10
10.0735148812
 20
3.7692298679
 10
10.0735148812
 20
3.7815853871
 10
10.0761696248
 20
3.7937723931
 10
10.0814066976
 20
3.8054584563
 10
10.0890832459
 20
3.8163248111
 10
10.0989898735
 20
3.8260750518
 10
10.1108563533
 20
3.8344432173
 10
10.1243589988
 20
3.8412010458
 10
10.1391294929
 20
3.8461642013
 10
10.1547649351
 20
3.849197302
 10
10.1708388313
 20
3.8502176127
 10
10.1869127275
 20
3.849197302
 10
10.2025481697
 20
3.8461642013
 10
10.2173186638
 20
3.8412010458
 10
10.2308213093
 20
3.8344432173
 10
10.2426877891
 20
3.8260750518
 10
10.2525944166
 20
3.8163248111
 10
10.2602709649
 20
3.8054584563
 10
10.2655080378
 20
3.7937723931
 10
10.2681627814
 20
3.7815853871
 10
10.2681627814
 20
3.7692298679
 10
10.2655080378
 20
3.7570428618
 10
10.2602709649
 20
3.7453567987
 10
10.2525944166
 20
3.7344904439
 10
10.2426877891
 20
3.7247402031
 10
10.2308213093
 20
3.7163720376
 10
10.2173186638
 20
3.7096142092
 10
10.2025481697
 20
3.7046510536
 10
10.1869127275
 20
3.701617953
 10
10.1708388313
 20
3.7005976423
  0
LINE
  5
1FB
330
1F
100
AcDbEntity
  8
0
  6
HIDDEN
 62
     7
370
     0
100
AcDbLine
 10
10.0799136344
 20
4.7930151321
 30
0.0
 11
10.109366636
 21
4.7930151321
 31
0.0
  0
LINE
  5
1FC
330
1F
100
AcDbEntity
  8
0
  6
HIDDEN
 62
     7
370
     0
100
AcDbLine
 10
10.2328784929
 20
4.7930151321
 30
0.0
 11
10.2617640281
 21
4.7930151321
 31
0.0
  0
LINE
  5
1FD
330
1F
100
AcDbEntity
  8
0
  6
HIDDEN
 62
     7
370
     0
100
AcDbLine
 10
10.2692640281
 20
4.7855151321
 30
0.0
 11
10.228881729
 21
4.7855151321
 31
0.0
  0
LINE
  5
1FE
330
1F
100
AcDbEntity
  8
0
  6
HIDDEN
 62
     7
370
     0
100
AcDbLine
 10
10.1127203786
 20
4.7855151321
 30
0.0
 11
10.0724136344
 21
4.7855151321
 31
0.0
  0
LINE
  5
1FF
330
1F
100
AcDbEntity
  8
0
  6
HIDDEN
 62
     7
370
     0
100
AcDbLine
 10
10.0724136344
 20
4.6749048958
 30
0.0
 11
10.2692640281
 21
4.6749048958
 31
0.0
  0
LINE
  5
200
330
1F
100
AcDbEntity
  8
0
  6
HIDDEN
 62
     7
370
     0
100
AcDbLine
 10
10.1117837132
 20
4.0627198565
 30
0.0
 11
10.2298939494
 21
4.0627198565
 31
0.0
  0
LINE
  5
201
330
1F
100
AcDbEntity
  8
0
  6
HIDDEN
 62
     7
370
     0
100
AcDbLine
 10
10.2223939494
 20
4.0552198565
 30
0.0
 11
10.1192837132
 21
4.0552198565
 31
0.0
  0
LINE
  5
202
330
1F
100
AcDbEntity
  8
0
  6
HIDDEN
 62
     7
370
     0
100
AcDbLine
 10
10.1424259243
 20
4.7536450533
 30
0.0
 11
10.1992517382
 21
4.7536450533
 31
0.0
  0
LINE
  5
203
330
1F
100
AcDbEntity
  8
0
  6
HIDDEN
 62
     7
370
     0
100
AcDbLine
 10
10.1424259243
 20
4.7536450533
 30
0.0
 11
10.1424259243
 21
4.7930151321
 31
0.0
  0
LINE
  5
204
330
1F
100
AcDbEntity
  8
0
  6
HIDDEN
 62
     7
370
     0
100
AcDbLine
 10
10.1140130174
 20
4.7536450533
 30
0.0
 11
10.1424259243
 21
4.7536450533
 31
0.0
  0
LINE
  5
205
330
1F
100
AcDbEntity
  8
0
  6
HIDDEN
 62
     7
370
     0
100
AcDbLine
 10
10.1992517382
 20
4.7536450533
 30
0.0
 11
10.1992517382
 21
4.7930151321
 31
0.0
  0
LINE
  5
206
330
1F
100
AcDbEntity
  8
0
  6
HIDDEN
 62
     7
370
     0
100
AcDbLine
 10
10.1992517382
 20
4.7536450533
 30
0.0
 11
10.2276646452
 21
4.7536450533
 31
0.0
  0
LINE
  5
207
330
1F
100
AcDbEntity
  8
0
  6
HIDDEN
 62
     7
370
     0
100
AcDbLine
 10
10.1140130174
 20
4.7536450533
 30
0.0
 11
10.1140130174
 21
4.7930151321
 31
0.0
  0
LINE
  5
208
330
1F
100
AcDbEntity
  8
0
  6
HIDDEN
 62
     7
370
     0
100
AcDbLine
 10
10.2276646452
 20
4.7536450533
 30
0.0
 11
10.2276646452
 21
4.7930151321
 31
0.0
  0
LINE
  5
209
330
1F
100
AcDbEntity
  8
0
  6
HIDDEN
 62
     7
370
     0
100
AcDbLine
 10
9.8024336344
 20
4.1237237935
 30
0.0
 11
9.831886281
 21
4.1237237935
 31
0.0
  0
LINE
  5
20A
330
1F
100
AcDbEntity
  8
0
  6
HIDDEN
 62
     7
370
     0
100
AcDbLine
 10
9.9553981526
 20
4.1237237935
 30
0.0
 11
9.9842840281
 21
4.1237237935
 31
0.0
  0
LINE
  5
20B
330
1F
100
AcDbEntity
  8
0
  6
HIDDEN
 62
     7
370
     0
100
AcDbLine
 10
9.9917840281
 20
4.1312237935
 30
0.0
 11
9.9514013749
 21
4.1312237935
 31
0.0
  0
LINE
  5
20C
330
1F
100
AcDbEntity
  8
0
  6
HIDDEN
 62
     7
370
     0
100
AcDbLine
 10
9.8352400836
 20
4.1312237935
 30
0.0
 11
9.7949336344
 21
4.1312237935
 31
0.0
  0
LINE
  5
20D
330
1F
100
AcDbEntity
  8
0
  6
HIDDEN
 62
     7
370
     0
100
AcDbLine
 10
9.7949336344
 20
4.2418340297
 30
0.0
 11
9.9917840281
 21
4.2418340297
 31
0.0
  0
LINE
  5
20E
330
1F
100
AcDbEntity
  8
0
  6
HIDDEN
 62
     7
370
     0
100
AcDbLine
 10
9.8343037132
 20
4.8540190691
 30
0.0
 11
9.9524139494
 21
4.8540190691
 31
0.0
  0
LINE
  5
20F
330
1F
100
AcDbEntity
  8
0
  6
HIDDEN
 62
     7
370
     0
100
AcDbLine
 10
9.9449139494
 20
4.8615190691
 30
0.0
 11
9.8418037132
 21
4.8615190691
 31
0.0
  0
LINE
  5
210
330
1F
100
AcDbEntity
  8
0
  6
HIDDEN
 62
     7
370
     0
100
AcDbLine
 10
9.8649459243
 20
4.1630938722
 30
0.0
 11
9.9217717382
 21
4.1630938722
 31
0.0
  0
LINE
  5
211
330
1F
100
AcDbEntity
  8
0
  6
HIDDEN
 62
     7
370
     0
100
AcDbLine
 10
9.8649459243
 20
4.1630938722
 30
0.0
 11
9.8649459243
 21
4.1237237935
 31
0.0
  0
LINE
  5
212
330
1F
100
AcDbEntity
  8
0
  6
HIDDEN
 62
     7
370
     0
100
AcDbLine
 10
9.8365330174
 20
4.1630938722
 30
0.0
 11
9.8649459243
 21
4.1630938722
 31
0.0
  0
LINE
  5
213
330
1F
100
AcDbEntity
  8
0
  6
HIDDEN
 62
     7
370
     0
100
AcDbLine
 10
9.9217717382
 20
4.1630938722
 30
0.0
 11
9.9217717382
 21
4.1237237935
 31
0.0
  0
LINE
  5
214
330
1F
100
AcDbEntity
  8
0
  6
HIDDEN
 62
     7
370
     0
100
AcDbLine
 10
9.9217717382
 20
4.1630938722
 30
0.0
 11
9.9501846452
 21
4.1630938722
 31
0.0
  0
LINE
  5
215
330
1F
100
AcDbEntity
  8
0
  6
HIDDEN
 62
     7
370
     0
100
AcDbLine
 10
9.8365330174
 20
4.1630938722
 30
0.0
 11
9.8365330174
 21
4.1237237935
 31
0.0
  0
LINE
  5
216
330
1F
100
AcDbEntity
  8
0
  6
HIDDEN
 62
     7
370
     0
100
AcDbLine
 10
9.9501846452
 20
4.1630938722
 30
0.0
 11
9.9501846452
 21
4.1237237935
 31
0.0
  0
LINE
  5
217
330
1F
100
AcDbEntity
  8
0
  6
HIDDEN
 62
     7
370
     0
100
AcDbLine
 10
10.3498936344
 20
4.2418340297
 30
0.0
 11
10.5467440281
 21
4.2418340297
 31
0.0
  0
LINE
  5
218
330
1F
100
AcDbEntity
  8
0
  6
HIDDEN
 62
     7
370
     0
100
AcDbLine
 10
10.5467440281
 20
4.1312237935
 30
0.0
 11
10.5062875957
 21
4.1312237935
 31
0.0
  0
LINE
  5
219
330
1F
100
AcDbEntity
  8
0
  6
HIDDEN
 62
     7
370
     0
100
AcDbLine
 10
10.3905364542
 20
4.1312237935
 30
0.0
 11
10.3498936344
 21
4.1312237935
 31
0.0
  0
LINE
  5
21A
330
1F
100
AcDbEntity
  8
0
  6
HIDDEN
 62
     7
370
     0
100
AcDbLine
 10
10.3573936344
 20
4.1237237935
 30
0.0
 11
10.3868198133
 21
4.1237237935
 31
0.0
  0
LINE
  5
21B
330
1F
100
AcDbEntity
  8
0
  6
HIDDEN
 62
     7
370
     0
100
AcDbLine
 10
10.510254528
 20
4.1237237935
 30
0.0
 11
10.5392440281
 21
4.1237237935
 31
0.0
  0
LINE
  5
21C
330
1F
100
AcDbEntity
  8
0
  6
HIDDEN
 62
     7
370
     0
100
AcDbLine
 10
10.3892637132
 20
4.8540190691
 30
0.0
 11
10.5073739494
 21
4.8540190691
 31
0.0
  0
LINE
  5
21D
330
1F
100
AcDbEntity
  8
0
  6
HIDDEN
 62
     7
370
     0
100
AcDbLine
 10
10.4998739494
 20
4.8615190691
 30
0.0
 11
10.3967637132
 21
4.8615190691
 31
0.0
  0
LINE
  5
21E
330
1F
100
AcDbEntity
  8
0
  6
HIDDEN
 62
     7
370
     0
100
AcDbLine
 10
10.4199059243
 20
4.1630938722
 30
0.0
 11
10.4767317382
 21
4.1630938722
 31
0.0
  0
LINE
  5
21F
330
1F
100
AcDbEntity
  8
0
  6
HIDDEN
 62
     7
370
     0
100
AcDbLine
 10
10.3914930174
 20
4.1630938722
 30
0.0
 11
10.4199059243
 21
4.1630938722
 31
0.0
  0
LINE
  5
220
330
1F
100
AcDbEntity
  8
0
  6
HIDDEN
 62
     7
370
     0
100
AcDbLine
 10
10.4199059243
 20
4.1630938722
 30
0.0
 11
10.4199059243
 21
4.1237237935
 31
0.0
  0
LINE
  5
221
330
1F
100
AcDbEntity
  8
0
  6
HIDDEN
 62
     7
370
     0
100
AcDbLine
 10
10.4767317382
 20
4.1630938722
 30
0.0
 11
10.5051446452
 21
4.1630938722
 31
0.0
  0
LINE
  5
222
330
1F
100
AcDbEntity
  8
0
  6
HIDDEN
 62
     7
370
     0
100
AcDbLine
 10
10.4767317382
 20
4.1630938722
 30
0.0
 11
10.4767317382
 21
4.1237237935
 31
0.0
  0
LINE
  5
223
330
1F
100
AcDbEntity
  8
0
  6
HIDDEN
 62
     7
370
     0
100
AcDbLine
 10
10.3914930174
 20
4.1630938722
 30
0.0
 11
10.3914930174
 21
4.1237237935
 31
0.0
  0
LINE
  5
224
330
1F
100
AcDbEntity
  8
0
  6
HIDDEN
 62
     7
370
     0
100
AcDbLine
 10
10.5051446452
 20
4.1630938722
 30
0.0
 11
10.5051446452
 21
4.1237237935
 31
0.0
  0
LINE
  5
225
330
1F
100
AcDbEntity
  8
0
  6
HIDDEN
 62
     7
370
     0
100
AcDbLine
 10
9.7850907998
 20
4.2615190691
 30
0.0
 11
9.7850907998
 21
3.9037017695
 31
0.0
  0
LINE
  5
226
330
1F
100
AcDbEntity
  8
0
  6
HIDDEN
 62
     7
370
     0
100
AcDbLine
 10
10.0016262329
 20
3.9042695738
 30
0.0
 11
10.0016262329
 21
4.2615190691
 31
0.0
  0
LINE
  5
227
330
1F
100
AcDbEntity
  8
0
  6
HIDDEN
 62
     7
370
     0
100
AcDbLine
 10
10.2791065478
 20
4.6552198565
 30
0.0
 11
10.2791065478
 21
5.0124693517
 31
0.0
  0
LINE
  5
228
330
1F
100
AcDbEntity
  8
0
  6
HIDDEN
 62
     7
370
     0
100
AcDbLine
 10
10.0625711148
 20
5.0130371561
 30
0.0
 11
10.0625711148
 21
4.6552198565
 31
0.0
  0
LINE
  5
229
330
1F
100
AcDbEntity
  8
0
  6
HIDDEN
 62
     7
370
     0
100
AcDbLine
 10
10.3400514297
 20
4.2615190691
 30
0.0
 11
10.3400514297
 21
3.90433847
 31
0.0
  0
LINE
  5
22A
330
1F
100
AcDbEntity
  8
0
  6
HIDDEN
 62
     7
370
     0
100
AcDbLine
 10
10.5565868628
 20
3.9037017695
 30
0.0
 11
10.5565868628
 21
4.2615190691
 31
0.0
  0
LINE
  5
22B
330
1F
100
AcDbEntity
  8
0
  6
HIDDEN
 62
     7
370
     0
100
AcDbLine
 10
9.8283978864
 20
5.0130371561
 30
0.0
 11
9.8283978864
 21
4.2615190691
 31
0.0
  0
LINE
  5
22C
330
1F
100
AcDbEntity
  8
0
  6
HIDDEN
 62
     7
370
     0
100
AcDbLine
 10
9.9583191463
 20
4.2615190691
 30
0.0
 11
9.9583191463
 21
5.0129437865
 31
0.0
  0
LINE
  5
22D
330
1F
100
AcDbEntity
  8
0
  6
HIDDEN
 62
     7
370
     0
100
AcDbLine
 10
10.2357994612
 20
3.9037951391
 30
0.0
 11
10.2357994612
 21
4.6552198565
 31
0.0
  0
LINE
  5
22E
330
1F
100
AcDbEntity
  8
0
  6
HIDDEN
 62
     7
370
     0
100
AcDbLine
 10
10.1058782014
 20
4.6552198565
 30
0.0
 11
10.1058782014
 21
3.9037017695
 31
0.0
  0
LINE
  5
22F
330
1F
100
AcDbEntity
  8
0
  6
HIDDEN
 62
     7
370
     0
100
AcDbLine
 10
10.3833585163
 20
5.0123988164
 30
0.0
 11
10.3833585163
 21
4.2615190691
 31
0.0
  0
LINE
  5
230
330
1F
100
AcDbEntity
  8
0
  6
HIDDEN
 62
     7
370
     0
100
AcDbLine
 10
10.5132797762
 20
4.2615190691
 30
0.0
 11
10.5132797762
 21
5.0130371561
 31
0.0
  0
LINE
  5
231
330
1F
100
AcDbEntity
  8
0
  6
HIDDEN
 62
     7
370
     0
100
AcDbLine
 10
10.1695888313
 20
3.7233694628
 30
0.0
 11
10.1720888313
 21
3.7233694628
 31
0.0
  0
LINE
  5
232
330
1F
100
AcDbEntity
  8
0
  6
HIDDEN
 62
     7
370
     0
100
AcDbLine
 10
10.1720888313
 20
5.1933694628
 30
0.0
 11
10.1695888313
 21
5.1933694628
 31
0.0
  0
LINE
  5
233
330
1F
100
AcDbEntity
  8
0
  6
HIDDEN
 62
     7
370
     0
100
AcDbLine
 10
9.3483388313
 20
4.3941194628
 30
0.0
 11
10.1695888313
 21
4.3941194628
 31
0.0
  0
LINE
  5
234
330
1F
100
AcDbEntity
  8
0
  6
HIDDEN
 62
     7
370
     0
100
AcDbLine
 10
10.1695888313
 20
4.5226194628
 30
0.0
 11
9.3483388313
 21
4.5226194628
 31
0.0
  0
LINE
  5
235
330
1F
100
AcDbEntity
  8
0
  6
HIDDEN
 62
     7
370
     0
100
AcDbLine
 10
10.1720888313
 20
4.3941194628
 30
0.0
 11
10.9933388313
 21
4.3941194628
 31
0.0
  0
LINE
  5
236
330
1F
100
AcDbEntity
  8
0
  6
HIDDEN
 62
     7
370
     0
100
AcDbLine
 10
10.9933388313
 20
4.5226194628
 30
0.0
 11
10.1720888313
 21
4.5226194628
 31
0.0
  0
LINE
  5
237
330
1F
100
AcDbEntity
  8
0
  6
HIDDEN
 62
     7
370
     0
100
AcDbLine
 10
10.2684963313
 20
3.4299867015
 30
0.0
 11
10.2684963313
 21
3.5382174713
 31
0.0
  0
LINE
  5
238
330
1F
100
AcDbEntity
  8
0
  6
HIDDEN
 62
     7
370
     0
100
AcDbLine
 10
10.0731813313
 20
3.5382174713
 30
0.0
 11
10.0731813313
 21
3.4299673958
 31
0.0
  0
LINE
  5
239
330
1F
100
AcDbEntity
  8
0
  6
HIDDEN
 62
     7
370
     0
100
AcDbLine
 10
10.0731813313
 20
5.4867715297
 30
0.0
 11
10.0731813313
 21
5.3785214543
 31
0.0
  0
LINE
  5
23A
330
1F
100
AcDbEntity
  8
0
  6
HIDDEN
 62
     7
370
     0
100
AcDbLine
 10
10.2684963313
 20
5.3785214543
 30
0.0
 11
10.2684963313
 21
5.486752224
 31
0.0
  0
LINE
  5
23B
330
1F
100
AcDbEntity
  8
0
  6
HIDDEN
 62
     7
370
     0
100
AcDbLine
 10
10.1437884791
 20
5.3316032655
 30
0.0
 11
10.1708388313
 21
5.3277043429
 31
0.0
  0
LINE
  5
23C
330
1F
100
AcDbEntity
  8
0
  6
HIDDEN
 62
     7
370
     0
100
AcDbLine
 10
10.1708388313
 20
5.3277043429
 30
0.0
 11
10.1978891834
 21
5.3316032655
 31
0.0
  0
LINE
  5
23D
330
1F
100
AcDbEntity
  8
0
  6
HIDDEN
 62
     7
370
     0
100
AcDbLine
 10
10.1978891834
 20
3.58513566
 30
0.0
 11
10.1708388313
 21
3.5890345827
 31
0.0
  0
LINE
  5
23E
330
1F
100
AcDbEntity
  8
0
  6
HIDDEN
 62
     7
370
     0
100
AcDbLine
 10
10.1708388313
 20
3.5890345827
 30
0.0
 11
10.1437884791
 21
3.58513566
 31
0.0
  0
LINE
  5
23F
330
1F
100
AcDbEntity
  8
0
  6
HIDDEN
 62
     7
370
     0
100
AcDbLine
 10
9.3483388313
 20
4.9353853401
 30
0.0
 11
10.1695888313
 21
4.9353853401
 31
0.0
  0
LINE
  5
240
330
1F
100
AcDbEntity
  8
0
  6
HIDDEN
 62
     7
370
     0
100
AcDbLine
 10
10.1695888313
 20
5.0638853401
 30
0.0
 11
9.3483388313
 21
5.0638853401
 31
0.0
  0
LINE
  5
241
330
1F
100
AcDbEntity
  8
0
  6
HIDDEN
 62
     7
370
     0
100
AcDbLine
 10
9.3483388313
 20
3.8528535854
 30
0.0
 11
10.1695888313
 21
3.8528535854
 31
0.0
  0
LINE
  5
242
330
1F
100
AcDbEntity
  8
0
  6
HIDDEN
 62
     7
370
     0
100
AcDbLine
 10
10.1695888313
 20
3.9813535854
 30
0.0
 11
9.3483388313
 21
3.9813535854
 31
0.0
  0
LINE
  5
243
330
1F
100
AcDbEntity
  8
0
  6
HIDDEN
 62
     7
370
     0
100
AcDbLine
 10
10.1720888313
 20
4.9353853401
 30
0.0
 11
10.9933388313
 21
4.9353853401
 31
0.0
  0
LINE
  5
244
330
1F
100
AcDbEntity
  8
0
  6
HIDDEN
 62
     7
370
     0
100
AcDbLine
 10
10.9933388313
 20
5.0638853401
 30
0.0
 11
10.1720888313
 21
5.0638853401
 31
0.0
  0
LINE
  5
245
330
1F
100
AcDbEntity
  8
0
  6
HIDDEN
 62
     7
370
     0
100
AcDbLine
 10
10.1720888313
 20
3.8528535854
 30
0.0
 11
10.9933388313
 21
3.8528535854
 31
0.0
  0
LINE
  5
246
330
1F
100
AcDbEntity
  8
0
  6
HIDDEN
 62
     7
370
     0
100
AcDbLine
 10
10.9933388313
 20
3.9813535854
 30
0.0
 11
10.1720888313
 21
3.9813535854
 31
0.0
  0
LINE
  5
247
330
1F
100
AcDbEntity
  8
0
  6
HIDDEN
 62
     7
370
     0
100
AcDbLine
 10
9.3483388313
 20
4.1458694628
 30
0.0
 11
10.1695888313
 21
4.1458694628
 31
0.0
  0
LINE
  5
248
330
1F
100
AcDbEntity
  8
0
  6
HIDDEN
 62
     7
370
     0
100
AcDbLine
 10
9.4250050526
 20
4.7708694628
 30
0.0
 11
9.3483388313
 21
4.7708694628
 31
0.0
  0
LINE
  5
249
330
1F
100
AcDbEntity
  8
0
  6
HIDDEN
 62
     7
370
     0
100
AcDbLine
 10
10.1695888313
 20
4.7708694628
 30
0.0
 11
9.5802138313
 21
4.7708694628
 31
0.0
  0
LINE
  5
24A
330
1F
100
AcDbEntity
  8
0
  6
HIDDEN
 62
     7
370
     0
100
AcDbLine
 10
10.1720888313
 20
4.1458694628
 30
0.0
 11
10.9933388313
 21
4.1458694628
 31
0.0
  0
LINE
  5
24B
330
1F
100
AcDbEntity
  8
0
  6
HIDDEN
 62
     7
370
     0
100
AcDbLine
 10
10.7625050526
 20
4.7708694628
 30
0.0
 11
10.1720888313
 21
4.7708694628
 31
0.0
  0
LINE
  5
24C
330
1F
100
AcDbEntity
  8
0
  6
HIDDEN
 62
     7
370
     0
100
AcDbLine
 10
10.9933388313
 20
4.7708694628
 30
0.0
 11
10.9177138313
 21
4.7708694628
 31
0.0
  0
LINE
  5
24D
330
1F
100
AcDbEntity
  8
0
  6
HIDDEN
 62
     7
370
     0
100
AcDbLine
 10
9.5802138313
 20
4.7708694628
 30
0.0
 11
9.5802138313
 21
5.1933694628
 31
0.0
  0
LINE
  5
24E
330
1F
100
AcDbEntity
  8
0
  6
HIDDEN
 62
     7
370
     0
100
AcDbLine
 10
9.4239638313
 20
5.1933694628
 30
0.0
 11
9.4239638313
 21
4.7706112378
 31
0.0
  0
LINE
  5
24F
330
1F
100
AcDbEntity
  8
0
  6
HIDDEN
 62
     7
370
     0
100
AcDbLine
 10
10.9177138313
 20
4.7708694628
 30
0.0
 11
10.9177138313
 21
5.1933694628
 31
0.0
  0
LINE
  5
250
330
1F
100
AcDbEntity
  8
0
  6
HIDDEN
 62
     7
370
     0
100
AcDbLine
 10
10.7614638313
 20
5.1933694628
 30
0.0
 11
10.7614638313
 21
4.7706112378
 31
0.0
  0
LINE
  5
251
330
1F
100
AcDbEntity
  8
0
  6
HIDDEN
 62
     7
370
     0
100
AcDbLine
 10
10.0731813313
 20
5.2216774484
 30
0.0
 11
10.0731813313
 21
5.1413312981
 31
0.0
  0
LINE
  5
252
330
1F
100
AcDbEntity
  8
0
  6
HIDDEN
 62
     7
370
     0
100
AcDbLine
 10
10.2684963313
 20
5.1413312981
 30
0.0
 11
10.2684963313
 21
5.2216631191
 31
0.0
  0
LINE
  5
253
330
1F
100
AcDbEntity
  8
0
  6
HIDDEN
 62
     7
370
     0
100
AcDbLine
 10
10.2684963313
 20
3.6950758246
 30
0.0
 11
10.2684963313
 21
3.7754076275
 31
0.0
  0
LINE
  5
254
330
1F
100
AcDbEntity
  8
0
  6
HIDDEN
 62
     7
370
     0
100
AcDbLine
 10
10.0731813313
 20
3.7754076275
 30
0.0
 11
10.0731813313
 21
3.6950614787
 31
0.0
  0
LINE
  5
255
330
1F
100
AcDbEntity
  8
0
  6
HIDDEN
 62
     7
370
     0
100
AcDbLine
 10
10.2692640281
 20
4.7855151321
 30
0.0
 11
10.2617640281
 21
4.7930151321
 31
0.0
  0
LINE
  5
256
330
1F
100
AcDbEntity
  8
0
  6
HIDDEN
 62
     7
370
     0
100
AcDbLine
 10
10.0799136344
 20
4.7930151321
 30
0.0
 11
10.0724136344
 21
4.7855151321
 31
0.0
  0
LINE
  5
257
330
1F
100
AcDbEntity
  8
0
  6
HIDDEN
 62
     7
370
     0
100
AcDbLine
 10
10.2692640281
 20
4.6749048958
 30
0.0
 11
10.2692640281
 21
4.7855151321
 31
0.0
  0
LINE
  5
258
330
1F
100
AcDbEntity
  8
0
  6
HIDDEN
 62
     7
370
     0
100
AcDbLine
 10
10.0724136344
 20
4.7855151321
 30
0.0
 11
10.0724136344
 21
4.6749048958
 31
0.0
  0
LINE
  5
259
330
1F
100
AcDbEntity
  8
0
  6
HIDDEN
 62
     7
370
     0
100
AcDbLine
 10
10.1117837132
 20
4.6749048958
 30
0.0
 11
10.1117837132
 21
4.0627198565
 31
0.0
  0
LINE
  5
25A
330
1F
100
AcDbEntity
  8
0
  6
HIDDEN
 62
     7
370
     0
100
AcDbLine
 10
10.2298939494
 20
4.0627198565
 30
0.0
 11
10.2298939494
 21
4.6749048958
 31
0.0
  0
LINE
  5
25B
330
1F
100
AcDbEntity
  8
0
  6
HIDDEN
 62
     7
370
     0
100
AcDbLine
 10
10.1117837132
 20
4.0627198565
 30
0.0
 11
10.1192837132
 21
4.0552198565
 31
0.0
  0
LINE
  5
25C
330
1F
100
AcDbEntity
  8
0
  6
HIDDEN
 62
     7
370
     0
100
AcDbLine
 10
10.2223939494
 20
4.0552198565
 30
0.0
 11
10.2298939494
 21
4.0627198565
 31
0.0
  0
LINE
  5
25D
330
1F
100
AcDbEntity
  8
0
  6
HIDDEN
 62
     7
370
     0
100
AcDbLine
 10
9.7949336344
 20
4.1312237935
 30
0.0
 11
9.8024336344
 21
4.1237237935
 31
0.0
  0
LINE
  5
25E
330
1F
100
AcDbEntity
  8
0
  6
HIDDEN
 62
     7
370
     0
100
AcDbLine
 10
9.9842840281
 20
4.1237237935
 30
0.0
 11
9.9917840281
 21
4.1312237935
 31
0.0
  0
LINE
  5
25F
330
1F
100
AcDbEntity
  8
0
  6
HIDDEN
 62
     7
370
     0
100
AcDbLine
 10
9.7949336344
 20
4.2418340297
 30
0.0
 11
9.7949336344
 21
4.1312237935
 31
0.0
  0
LINE
  5
260
330
1F
100
AcDbEntity
  8
0
  6
HIDDEN
 62
     7
370
     0
100
AcDbLine
 10
9.9917840281
 20
4.1312237935
 30
0.0
 11
9.9917840281
 21
4.2418340297
 31
0.0
  0
LINE
  5
261
330
1F
100
AcDbEntity
  8
0
  6
HIDDEN
 62
     7
370
     0
100
AcDbLine
 10
9.9524139494
 20
4.2418340297
 30
0.0
 11
9.9524139494
 21
4.8540190691
 31
0.0
  0
LINE
  5
262
330
1F
100
AcDbEntity
  8
0
  6
HIDDEN
 62
     7
370
     0
100
AcDbLine
 10
9.8343037132
 20
4.8540190691
 30
0.0
 11
9.8343037132
 21
4.2418340297
 31
0.0
  0
LINE
  5
263
330
1F
100
AcDbEntity
  8
0
  6
HIDDEN
 62
     7
370
     0
100
AcDbLine
 10
9.9524139494
 20
4.8540190691
 30
0.0
 11
9.9449139494
 21
4.8615190691
 31
0.0
  0
LINE
  5
264
330
1F
100
AcDbEntity
  8
0
  6
HIDDEN
 62
     7
370
     0
100
AcDbLine
 10
9.8418037132
 20
4.8615190691
 30
0.0
 11
9.8343037132
 21
4.8540190691
 31
0.0
  0
LINE
  5
265
330
1F
100
AcDbEntity
  8
0
  6
HIDDEN
 62
     7
370
     0
100
AcDbLine
 10
10.3498936344
 20
4.2418340297
 30
0.0
 11
10.3498936344
 21
4.1312237935
 31
0.0
  0
LINE
  5
266
330
1F
100
AcDbEntity
  8
0
  6
HIDDEN
 62
     7
370
     0
100
AcDbLine
 10
10.5467440281
 20
4.1312237935
 30
0.0
 11
10.5467440281
 21
4.2418340297
 31
0.0
  0
LINE
  5
267
330
1F
100
AcDbEntity
  8
0
  6
HIDDEN
 62
     7
370
     0
100
AcDbLine
 10
10.3498936344
 20
4.1312237935
 30
0.0
 11
10.3573936344
 21
4.1237237935
 31
0.0
  0
LINE
  5
268
330
1F
100
AcDbEntity
  8
0
  6
HIDDEN
 62
     7
370
     0
100
AcDbLine
 10
10.5392440281
 20
4.1237237935
 30
0.0
 11
10.5467440281
 21
4.1312237935
 31
0.0
  0
LINE
  5
269
330
1F
100
AcDbEntity
  8
0
  6
HIDDEN
 62
     7
370
     0
100
AcDbLine
 10
10.5073739494
 20
4.2418340297
 30
0.0
 11
10.5073739494
 21
4.8540190691
 31
0.0
  0
LINE
  5
26A
330
1F
100
AcDbEntity
  8
0
  6
HIDDEN
 62
     7
370
     0
100
AcDbLine
 10
10.3892637132
 20
4.8540190691
 30
0.0
 11
10.3892637132
 21
4.2418340297
 31
0.0
  0
LINE
  5
26B
330
1F
100
AcDbEntity
  8
0
  6
HIDDEN
 62
     7
370
     0
100
AcDbLine
 10
10.5073739494
 20
4.8540190691
 30
0.0
 11
10.4998739494
 21
4.8615190691
 31
0.0
  0
LINE
  5
26C
330
1F
100
AcDbEntity
  8
0
  6
HIDDEN
 62
     7
370
     0
100
AcDbLine
 10
10.3967637132
 20
4.8615190691
 30
0.0
 11
10.3892637132
 21
4.8540190691
 31
0.0
  0
MTEXT
  5
26D
330
1F
100
AcDbEntity
  8
0
  6
Continuous
 62
     7
370
     0
100
AcDbMText
 10
6.9233896995
 20
6.1974836818
 30
0.0
 40
0.125
 41
0.0
 71
     1
 72
     1
  1
3/8-16 Tapped Hole
  7
SLDTEXTSTYLE0
 73
     1
 44
1.0
  0
LEADER
  5
26E
330
1F
100
AcDbEntity
  8
0
  6
Continuous
 62
     7
370
     0
100
AcDbLeader
  3
SLDDIMSTYLE0
 76
     3
 10
9.5020888313
 20
4.7609462867
 30
0.0
 10
8.7827450771
 20
6.1367164939
 30
0.0
 10
8.5327450771
 20
6.1367164939
 30
0.0
  0
LINE
  5
26F
330
1F
100
AcDbEntity
  8
0
  6
HIDDEN
 62
     7
370
     0
100
AcDbLine
 10
9.4083388313
 20
4.7708694628
 30
0.0
 11
9.4083388313
 21
5.1933694628
 31
0.0
  0
LINE
  5
270
330
1F
100
AcDbEntity
  8
0
  6
HIDDEN
 62
     7
370
     0
100
AcDbLine
 10
9.5958388313
 20
4.7708694628
 30
0.0
 11
9.5958388313
 21
5.1933694628
 31
0.0
  0
LINE
  5
271
330
1F
100
AcDbEntity
  8
0
  6
HIDDEN
 62
     7
370
     0
100
AcDbLine
 10
10.7458388313
 20
4.7708694628
 30
0.0
 11
10.7458388313
 21
5.1933694628
 31
0.0
  0
LINE
  5
272
330
1F
100
AcDbEntity
  8
0
  6
HIDDEN
 62
     7
370
     0
100
AcDbLine
 10
10.9333388313
 20
4.7708694628
 30
0.0
 11
10.9333388313
 21
5.1933694628
 31
0.0
  0
LINE
  5
273
330
1F
100
AcDbEntity
  8
0
  6
HIDDEN
 62
     7
370
     0
100
AcDbLine
 10
9.3483388313
 20
5.0777603401
 30
0.0
 11
10.1695888313
 21
5.0777603401
 31
0.0
  0
LINE
  5
274
330
1F
100
AcDbEntity
  8
0
  6
HIDDEN
 62
     7
370
     0
100
AcDbLine
 10
10.1720888313
 20
5.0777603401
 30
0.0
 11
10.9933388313
 21
5.0777603401
 31
0.0
  0
LINE
  5
275
330
1F
100
AcDbEntity
  8
0
  6
HIDDEN
 62
     7
370
     0
100
AcDbLine
 10
9.3483388313
 20
4.9215103401
 30
0.0
 11
10.1695888313
 21
4.9215103401
 31
0.0
  0
LINE
  5
276
330
1F
100
AcDbEntity
  8
0
  6
HIDDEN
 62
     7
370
     0
100
AcDbLine
 10
10.1720888313
 20
4.9215103401
 30
0.0
 11
10.9933388313
 21
4.9215103401
 31
0.0
  0
LINE
  5
277
330
1F
100
AcDbEntity
  8
0
  6
HIDDEN
 62
     7
370
     0
100
AcDbLine
 10
9.3483388313
 20
4.5364944628
 30
0.0
 11
10.1695888313
 21
4.5364944628
 31
0.0
  0
LINE
  5
278
330
1F
100
AcDbEntity
  8
0
  6
HIDDEN
 62
     7
370
     0
100
AcDbLine
 10
10.1720888313
 20
4.5364944628
 30
0.0
 11
10.9933388313
 21
4.5364944628
 31
0.0
  0
LINE
  5
279
330
1F
100
AcDbEntity
  8
0
  6
HIDDEN
 62
     7
370
     0
100
AcDbLine
 10
9.3483388313
 20
4.3802444628
 30
0.0
 11
10.1695888313
 21
4.3802444628
 31
0.0
  0
LINE
  5
27A
330
1F
100
AcDbEntity
  8
0
  6
HIDDEN
 62
     7
370
     0
100
AcDbLine
 10
10.1720888313
 20
4.3802444628
 30
0.0
 11
10.9933388313
 21
4.3802444628
 31
0.0
  0
LINE
  5
27B
330
1F
100
AcDbEntity
  8
0
  6
HIDDEN
 62
     7
370
     0
100
AcDbLine
 10
9.3483388313
 20
3.9952285854
 30
0.0
 11
10.1695888313
 21
3.9952285854
 31
0.0
  0
LINE
  5
27C
330
1F
100
AcDbEntity
  8
0
  6
HIDDEN
 62
     7
370
     0
100
AcDbLine
 10
10.1720888313
 20
3.9952285854
 30
0.0
 11
10.9933388313
 21
3.9952285854
 31
0.0
  0
LINE
  5
27D
330
1F
100
AcDbEntity
  8
0
  6
HIDDEN
 62
     7
370
     0
100
AcDbLine
 10
9.3483388313
 20
3.8389785854
 30
0.0
 11
10.1695888313
 21
3.8389785854
 31
0.0
  0
LINE
  5
27E
330
1F
100
AcDbEntity
  8
0
  6
HIDDEN
 62
     7
370
     0
100
AcDbLine
 10
10.1720888313
 20
3.8389785854
 30
0.0
 11
10.9933388313
 21
3.8389785854
 31
0.0
  0
LINE
  5
27F
330
1F
100
AcDbEntity
  8
0
  6
HIDDEN
 62
     7
370
     0
100
AcDbLine
 10
9.3483388313
 20
3.9952285854
 30
0.0
 11
10.1695888313
 21
3.9952285854
 31
0.0
  0
LINE
  5
280
330
1F
100
AcDbEntity
  8
0
  6
HIDDEN
 62
     7
370
     0
100
AcDbLine
 10
10.1720888313
 20
3.9952285854
 30
0.0
 11
10.9933388313
 21
3.9952285854
 31
0.0
  0
LINE
  5
281
330
1F
100
AcDbEntity
  8
0
  6
HIDDEN
 62
     7
370
     0
100
AcDbLine
 10
9.3483388313
 20
3.8389785854
 30
0.0
 11
10.1695888313
 21
3.8389785854
 31
0.0
  0
LINE
  5
282
330
1F
100
AcDbEntity
  8
0
  6
HIDDEN
 62
     7
370
     0
100
AcDbLine
 10
10.1720888313
 20
3.8389785854
 30
0.0
 11
10.9933388313
 21
3.8389785854
 31
0.0
  0
LINE
  5
283
330
1F
100
AcDbEntity
  8
0
  6
HIDDEN
 62
     7
370
     0
100
AcDbLine
 10
9.3483388313
 20
5.0777603401
 30
0.0
 11
10.1695888313
 21
5.0777603401
 31
0.0
  0
LINE
  5
284
330
1F
100
AcDbEntity
  8
0
  6
HIDDEN
 62
     7
370
     0
100
AcDbLine
 10
10.1720888313
 20
5.0777603401
 30
0.0
 11
10.9933388313
 21
5.0777603401
 31
0.0
  0
LINE
  5
285
330
1F
100
AcDbEntity
  8
0
  6
HIDDEN
 62
     7
370
     0
100
AcDbLine
 10
9.3483388313
 20
4.9215103401
 30
0.0
 11
10.1695888313
 21
4.9215103401
 31
0.0
  0
LINE
  5
286
330
1F
100
AcDbEntity
  8
0
  6
HIDDEN
 62
     7
370
     0
100
AcDbLine
 10
10.1720888313
 20
4.9215103401
 30
0.0
 11
10.9933388313
 21
4.9215103401
 31
0.0
  0
LINE
  5
287
330
1F
100
AcDbEntity
  8
0
  6
HIDDEN
 62
     7
370
     0
100
AcDbLine
 10
9.3483388313
 20
4.5364944628
 30
0.0
 11
10.1695888313
 21
4.5364944628
 31
0.0
  0
LINE
  5
288
330
1F
100
AcDbEntity
  8
0
  6
HIDDEN
 62
     7
370
     0
100
AcDbLine
 10
10.1720888313
 20
4.5364944628
 30
0.0
 11
10.9933388313
 21
4.5364944628
 31
0.0
  0
LINE
  5
289
330
1F
100
AcDbEntity
  8
0
  6
HIDDEN
 62
     7
370
     0
100
AcDbLine
 10
9.3483388313
 20
4.3802444628
 30
0.0
 11
10.1695888313
 21
4.3802444628
 31
0.0
  0
LINE
  5
28A
330
1F
100
AcDbEntity
  8
0
  6
HIDDEN
 62
     7
370
     0
100
AcDbLine
 10
10.1720888313
 20
4.3802444628
 30
0.0
 11
10.9933388313
 21
4.3802444628
 31
0.0
  0
LINE
  5
28B
330
1F
100
AcDbEntity
  8
0
  6
Continuous
 62
     7
370
    15
100
AcDbLine
 10
3.3997761546
 20
8.5544203582
 30
0.0
 11
3.3997761546
 21
7.5744203582
 31
0.0
  0
LINE
  5
28C
330
1F
100
AcDbEntity
  8
0
  6
Continuous
 62
     7
370
    15
100
AcDbLine
 10
5.7747761546
 20
7.5744203582
 30
0.0
 11
5.7747761546
 21
8.5544203582
 31
0.0
  0
LINE
  5
28D
330
1F
100
AcDbEntity
  8
0
  6
Continuous
 62
     7
370
    15
100
AcDbLine
 10
3.3997761546
 20
7.5744203582
 30
0.0
 11
3.4247761546
 21
7.5494203582
 31
0.0
  0
LINE
  5
28E
330
1F
100
AcDbEntity
  8
0
  6
Continuous
 62
     7
370
    15
100
AcDbLine
 10
5.7497761546
 20
7.5494203582
 30
0.0
 11
5.7747761546
 21
7.5744203582
 31
0.0
  0
LINE
  5
28F
330
1F
100
AcDbEntity
  8
0
  6
Continuous
 62
     7
370
    15
100
AcDbLine
 10
5.7747761546
 20
8.5544203582
 30
0.0
 11
5.7497761546
 21
8.5794203582
 31
0.0
  0
LINE
  5
290
330
1F
100
AcDbEntity
  8
0
  6
Continuous
 62
     7
370
    15
100
AcDbLine
 10
3.4247761546
 20
8.5794203582
 30
0.0
 11
3.3997761546
 21
8.5544203582
 31
0.0
  0
LINE
  5
291
330
1F
100
AcDbEntity
  8
0
  6
Continuous
 62
     7
370
    15
100
AcDbLine
 10
3.8522761546
 20
7.5494203582
 30
0.0
 11
3.8522761546
 21
7.2419203582
 31
0.0
  0
LINE
  5
292
330
1F
100
AcDbEntity
  8
0
  6
Continuous
 62
     7
370
    15
100
AcDbLine
 10
5.3222761546
 20
7.2419203582
 30
0.0
 11
5.3222761546
 21
7.5494203582
 31
0.0
  0
LINE
  5
293
330
1F
100
AcDbEntity
  8
0
  6
Continuous
 62
     7
370
    15
100
AcDbLine
 10
3.8522761546
 20
8.8869203582
 30
0.0
 11
3.8522761546
 21
8.5794203582
 31
0.0
  0
LINE
  5
294
330
1F
100
AcDbEntity
  8
0
  6
Continuous
 62
     7
370
    15
100
AcDbLine
 10
5.3222761546
 20
8.5794203582
 30
0.0
 11
5.3222761546
 21
8.8869203582
 31
0.0
  0
LINE
  5
295
330
1F
100
AcDbEntity
  8
0
  6
Continuous
 62
     7
370
    15
100
AcDbLine
 10
5.7747761546
 20
8.5544203582
 30
0.0
 11
3.3997761546
 21
8.5544203582
 31
0.0
  0
LINE
  5
296
330
1F
100
AcDbEntity
  8
0
  6
Continuous
 62
     7
370
    15
100
AcDbLine
 10
4.5872761546
 20
7.5744203582
 30
0.0
 11
5.7747761546
 21
7.5744203582
 31
0.0
  0
LINE
  5
297
330
1F
100
AcDbEntity
  8
0
  6
Continuous
 62
     7
370
    15
100
AcDbLine
 10
3.3997761546
 20
7.5744203582
 30
0.0
 11
4.5872761546
 21
7.5744203582
 31
0.0
  0
SPLINE
  5
298
330
1F
100
AcDbEntity
  8
0
  6
Continuous
 62
     7
370
    15
100
AcDbSpline
210
0.0
220
0.0
230
1.0
 70
     8
 71
     3
 72
    74
 73
    70
 74
     0
 42
0.00000001
 43
0.00000001
 40
-0.0625000000000007
 40
-0.0625000000000007
 40
0.0
 40
0.0
 40
0.0625
 40
0.0625
 40
0.09375
 40
0.09375
 40
0.1249999999999999
 40
0.1249999999999999
 40
0.1562499999999999
 40
0.1562499999999999
 40
0.1874999999999999
 40
0.1874999999999999
 40
0.2031249999999999
 40
0.2031249999999999
 40
0.2187499999999999
 40
0.2187499999999999
 40
0.2343749999999999
 40
0.2343749999999999
 40
0.2499999999999999
 40
0.2499999999999999
 40
0.2656249999999999
 40
0.2656249999999999
 40
0.2812499999999999
 40
0.2812499999999999
 40
0.3124999999999999
 40
0.3124999999999999
 40
0.3437499999999998
 40
0.3437499999999998
 40
0.3749999999999998
 40
0.3749999999999998
 40
0.4062499999999998
 40
0.4062499999999998
 40
0.4374999999999998
 40
0.4374999999999998
 40
0.4999999999999994
 40
0.4999999999999994
 40
0.5624999999999991
 40
0.5624999999999991
 40
0.6249999999999988
 40
0.6249999999999988
 40
0.6562499999999986
 40
0.6562499999999986
 40
0.6874999999999984
 40
0.6874999999999984
 40
0.7031249999999984
 40
0.7031249999999984
 40
0.7187499999999984
 40
0.7187499999999984
 40
0.7265624999999984
 40
0.7265624999999984
 40
0.7343749999999984
 40
0.7343749999999984
 40
0.7421874999999984
 40
0.7421874999999984
 40
0.7499999999999984
 40
0.7499999999999984
 40
0.7656249999999984
 40
0.7656249999999984
 40
0.7812499999999984
 40
0.7812499999999984
 40
0.8124999999999986
 40
0.8124999999999986
 40
0.8437499999999987
 40
0.8437499999999987
 40
0.8749999999999988
 40
0.8749999999999988
 40
0.9374999999999993
 40
0.9374999999999993
 40
1.0
 40
1.0
 40
1.0625
 40
1.0625
 10
3.530671916154565
 20
7.999459728231427
 30
0.0
 10
3.543880392987755
 20
7.999459728231428
 30
0.0
 10
3.550646075262412
 20
8.000437677881656
 30
0.0
 10
3.560987471662246
 20
8.003833061133262
 30
0.0
 10
3.564466467560515
 20
8.005290300285363
 30
0.0
 10
3.571471519087837
 20
8.0090456896713
 30
0.0
 10
3.574969391676618
 20
8.011328902078574
 30
0.0
 10
3.581823873034387
 20
8.016933690431328
 30
0.0
 10
3.585193301491148
 20
8.020266100992293
 30
0.0
 10
3.591470463280896
 20
8.028245390318398
 30
0.0
 10
3.594443690533051
 20
8.032981615446987
 30
0.0
 10
3.598061896073282
 20
8.041308961882024
 30
0.0
 10
3.599141822631724
 20
8.044335878887514
 30
0.0
 10
3.600856993073255
 20
8.050700876846761
 30
0.0
 10
3.601502776735528
 20
8.054064559898167
 30
0.0
 10
3.602246128644334
 20
8.061073117339143
 30
0.0
 10
3.60233240947173
 20
8.06458737773879
 30
0.0
 10
3.601931237266719
 20
8.071635930123124
 30
0.0
 10
3.601436666723853
 20
8.07512917163632
 30
0.0
 10
3.599983371865451
 20
8.081713562168414
 30
0.0
 10
3.599012999543845
 20
8.084866932091622
 30
0.0
 10
3.596784507318877
 20
8.090654998731033
 30
0.0
 10
3.595517706957065
 20
8.0933341102313
 30
0.0
 10
3.591362559800041
 20
8.100853095964315
 30
0.0
 10
3.5882541427741
 20
8.10497062615411
 30
0.0
 10
3.581716785271853
 20
8.112045035150343
 30
0.0
 10
3.578275853111037
 20
8.114983552078236
 30
0.0
 10
3.57140557665564
 20
8.119853149968478
 30
0.0
 10
3.567941519916987
 20
8.121814757816074
 30
0.0
 10
3.561001855427345
 20
8.125013863278205
 30
0.0
 10
3.557509550339543
 20
8.126251824479235
 30
0.0
 10
3.550641672640724
 20
8.128090472485418
 30
0.0
 10
3.547261994891973
 20
8.12869588021734
 30
0.0
 10
3.53728555548834
 20
8.129724175550354
 30
0.0
 10
3.530851337356819
 20
8.129372514605901
 30
0.0
 10
3.51841658417184
 20
8.126905376425178
 30
0.0
 10
3.512401061183235
 20
8.124771442531607
 30
0.0
 10
3.501078610586768
 20
8.118741270021575
 30
0.0
 10
3.495731459938942
 20
8.114874146611593
 30
0.0
 10
3.488212605535484
 20
8.107147016591348
 30
0.0
 10
3.485779343641287
 20
8.10422407687651
 30
0.0
 10
3.481237738720552
 20
8.097525546705944
 30
0.0
 10
3.479110687252758
 20
8.09377037451328
 30
0.0
 10
3.476266934699165
 20
8.08686916508356
 30
0.0
 10
3.475368212876184
 20
8.08431391957678
 30
0.0
 10
3.473837769329329
 20
8.078700354964724
 30
0.0
 10
3.473190837023523
 20
8.07557333452743
 30
0.0
 10
3.472582134780191
 20
8.070538003525707
 30
0.0
 10
3.472437496285873
 20
8.068779203505155
 30
0.0
 10
3.472296097161619
 20
8.06522240559244
 30
0.0
 10
3.472298714696417
 20
8.063450066090148
 30
0.0
 10
3.472447678532172
 20
8.059917264346785
 30
0.0
 10
3.472596733491842
 20
8.058149499597038
 30
0.0
 10
3.473011307517915
 20
8.054788088876775
 30
0.0
 10
3.473279023541907
 20
8.053161862300156
 30
0.0
 10
3.474214948455753
 20
8.048508727208104
 30
0.0
 10
3.474996322472737
 20
8.045755557270898
 30
0.0
 10
3.476757146480852
 20
8.040659004278593
 30
0.0
 10
3.477728319771339
 20
8.03835425102128
 30
0.0
 10
3.480781224857187
 20
8.032013277465834
 30
0.0
 10
3.483036883396784
 20
8.028454947131479
 30
0.0
 10
3.487781621475532
 20
8.022162808281713
 30
0.0
 10
3.490257741515523
 20
8.019458827382863
 30
0.0
 10
3.495390666140539
 20
8.014642087046061
 30
0.0
 10
3.498048129752871
 20
8.01253537158336
 30
0.0
 10
3.506282986744824
 20
8.006945735243422
 30
0.0
 10
3.512134765661226
 20
8.004184925807795
 30
0.0
 10
3.524304709988556
 20
8.000450534239086
 30
0.0
 10
3.530671916154565
 20
7.999459728231427
 30
0.0
 10
3.543880392987755
 20
7.999459728231428
 30
0.0
  0
SPLINE
  5
299
330
1F
100
AcDbEntity
  8
0
  6
Continuous
 62
     7
370
    15
100
AcDbSpline
210
0.0
220
0.0
230
1.0
 70
     8
 71
     3
 72
    94
 73
    90
 74
     0
 42
0.00000001
 43
0.00000001
 40
-0.0156250000000001
 40
-0.0156250000000001
 40
0.0
 40
0.0
 40
0.0624999999999984
 40
0.0624999999999984
 40
0.0937499999999975
 40
0.0937499999999975
 40
0.1249999999999967
 40
0.1249999999999967
 40
0.1562499999999958
 40
0.1562499999999958
 40
0.1718749999999954
 40
0.1718749999999954
 40
0.1796874999999954
 40
0.1796874999999954
 40
0.1874999999999954
 40
0.1874999999999954
 40
0.2031249999999953
 40
0.2031249999999953
 40
0.2109374999999952
 40
0.2109374999999952
 40
0.2187499999999951
 40
0.2187499999999951
 40
0.2343749999999951
 40
0.2343749999999951
 40
0.249999999999995
 40
0.249999999999995
 40
0.2656249999999949
 40
0.2656249999999949
 40
0.2812499999999949
 40
0.2812499999999949
 40
0.3124999999999948
 40
0.3124999999999948
 40
0.3281249999999947
 40
0.3281249999999947
 40
0.3437499999999946
 40
0.3437499999999946
 40
0.3749999999999947
 40
0.3749999999999947
 40
0.4062499999999948
 40
0.4062499999999948
 40
0.4374999999999949
 40
0.4374999999999949
 40
0.4999999999999951
 40
0.4999999999999951
 40
0.5312499999999953
 40
0.5312499999999953
 40
0.5624999999999956
 40
0.5624999999999956
 40
0.5937499999999958
 40
0.5937499999999958
 40
0.6249999999999959
 40
0.6249999999999959
 40
0.6562499999999962
 40
0.6562499999999962
 40
0.6718749999999966
 40
0.6718749999999966
 40
0.6874999999999968
 40
0.6874999999999968
 40
0.6953124999999968
 40
0.6953124999999968
 40
0.7031249999999969
 40
0.7031249999999969
 40
0.7070312499999969
 40
0.7070312499999969
 40
0.7109374999999969
 40
0.7109374999999969
 40
0.718749999999997
 40
0.718749999999997
 40
0.7265624999999971
 40
0.7265624999999971
 40
0.7343749999999973
 40
0.7343749999999973
 40
0.7499999999999974
 40
0.7499999999999974
 40
0.7812499999999978
 40
0.7812499999999978
 40
0.8124999999999981
 40
0.8124999999999981
 40
0.8437499999999984
 40
0.8437499999999984
 40
0.8749999999999987
 40
0.8749999999999987
 40
0.9374999999999994
 40
0.9374999999999994
 40
0.9687499999999998
 40
0.9687499999999998
 40
0.9843749999999999
 40
0.9843749999999999
 40
1.0
 40
1.0
 40
1.062499999999998
 40
1.062499999999998
 10
3.534360677260365
 20
8.45016838964875
 30
0.0
 10
3.548938063814343
 20
8.45016838964875
 30
0.0
 10
3.56116375579183
 20
8.44835531460229
 30
0.0
 10
3.580174933090267
 20
8.441534606494832
 30
0.0
 10
3.586636114528952
 20
8.43856186697245
 30
0.0
 10
3.599670382930934
 20
8.430708061953977
 30
0.0
 10
3.606130639036764
 20
8.425906729684364
 30
0.0
 10
3.618689330072885
 20
8.413802358951463
 30
0.0
 10
3.624660563113541
 20
8.40663344406565
 30
0.0
 10
3.632588325309814
 20
8.393510803560744
 30
0.0
 10
3.635065455062398
 20
8.388698534837653
 30
0.0
 10
3.638273916540614
 20
8.381004032280314
 30
0.0
 10
3.639265059729533
 20
8.378350050374552
 30
0.0
 10
3.641068610042389
 20
8.372842878357746
 30
0.0
 10
3.641885892682487
 20
8.369967133327078
 30
0.0
 10
3.643978987593852
 20
8.361201037880466
 30
0.0
 10
3.644907329897286
 20
8.355177903826254
 30
0.0
 10
3.645516787355734
 20
8.34584756259932
 30
0.0
 10
3.645586754007283
 20
8.34266045133922
 30
0.0
 10
3.64544865086256
 20
8.336380323554472
 30
0.0
 10
3.645243936052559
 20
8.333274295602351
 30
0.0
 10
3.644241675190448
 20
8.32405390939657
 30
0.0
 10
3.643031492333537
 20
8.317973977316866
 30
0.0
 10
3.639806874121419
 20
8.306628449119414
 30
0.0
 10
3.637770921187448
 20
8.301248834221258
 30
0.0
 10
3.633166142844208
 20
8.291335069472474
 30
0.0
 10
3.630615628436982
 20
8.286813769279279
 30
0.0
 10
3.625149807722956
 20
8.278457427315777
 30
0.0
 10
3.622211422357819
 20
8.274602149340943
 30
0.0
 10
3.613182478975127
 20
8.264151726832237
 30
0.0
 10
3.606863504007654
 20
8.258579136219723
 30
0.0
 10
3.597193526193085
 20
8.251636882816516
 30
0.0
 10
3.593924476756238
 20
8.249560160506764
 30
0.0
 10
3.587437201085018
 20
8.245881549562537
 30
0.0
 10
3.584210517209717
 20
8.244272097072987
 30
0.0
 10
3.57459536044512
 20
8.240026856235048
 30
0.0
 10
3.568272397877186
 20
8.237968773686628
 30
0.0
 10
3.55585065040305
 20
8.23504752658914
 30
0.0
 10
3.549733531082051
 20
8.234187075557507
 30
0.0
 10
3.537837559608892
 20
8.233470556668056
 30
0.0
 10
3.532094873955566
 20
8.233613411498807
 30
0.0
 10
3.515452827404695
 20
8.235270687428512
 30
0.0
 10
3.505137603665119
 20
8.237993097689507
 30
0.0
 10
3.490768048211738
 20
8.243993382542557
 30
0.0
 10
3.48616264320532
 20
8.24631896023747
 30
0.0
 10
3.477315348119238
 20
8.251605841754806
 30
0.0
 10
3.473067802238075
 20
8.254572654892247
 30
0.0
 10
3.465000268569056
 20
8.26112263415247
 30
0.0
 10
3.461171762061659
 20
8.264707647256198
 30
0.0
 10
3.453917776060451
 20
8.272604045978344
 30
0.0
 10
3.450487702214529
 20
8.27691497466955
 30
0.0
 10
3.444055908607072
 20
8.286534959832638
 30
0.0
 10
3.441052159675982
 20
8.291819184848357
 30
0.0
 10
3.436955216607163
 20
8.301048055033485
 30
0.0
 10
3.435661727519903
 20
8.3043351397264
 30
0.0
 10
3.43325444651958
 20
8.311632780262466
 30
0.0
 10
3.432126203564183
 20
8.315669780454881
 30
0.0
 10
3.430703568604522
 20
8.322669169406169
 30
0.0
 10
3.430271946077261
 20
8.325187977655453
 30
0.0
 10
3.429570884521212
 20
8.33055212129641
 30
0.0
 10
3.429295248078052
 20
8.333451051692995
 30
0.0
 10
3.429066540551582
 20
8.338037858868935
 30
0.0
 10
3.429021973248589
 20
8.339582951151744
 30
0.0
 10
3.429000172548433
 20
8.342707720773173
 30
0.0
 10
3.429023983140053
 20
8.34429781785039
 30
0.0
 10
3.429192382626494
 20
8.348923393425482
 30
0.0
 10
3.429437158286077
 20
8.351916915352152
 30
0.0
 10
3.430090583592041
 20
8.357419294258294
 30
0.0
 10
3.430498751002657
 20
8.359968017911733
 30
0.0
 10
3.431420311083844
 20
8.36475637831978
 30
0.0
 10
3.43192540225728
 20
8.366954832112112
 30
0.0
 10
3.433536515158828
 20
8.373179411389625
 30
0.0
 10
3.434744415975333
 20
8.37686041241545
 30
0.0
 10
3.438580783704386
 20
8.386992707934388
 30
0.0
 10
3.441408440826911
 20
8.392559127605407
 30
0.0
 10
3.447498932963467
 20
8.402703206205942
 30
0.0
 10
3.450766659011357
 20
8.407226460649134
 30
0.0
 10
3.457732959988955
 20
8.415550055560448
 30
0.0
 10
3.461424088463504
 20
8.419328648685788
 30
0.0
 10
3.469147081871111
 20
8.426204034772761
 30
0.0
 10
3.473189561151791
 20
8.429310767590191
 30
0.0
 10
3.485866417871637
 20
8.437722423939093
 30
0.0
 10
3.495048003257113
 20
8.442137657138577
 30
0.0
 10
3.5099808390777
 20
8.44680089721904
 30
0.0
 10
3.515152371053536
 20
8.44802341042171
 30
0.0
 10
3.523214837637688
 20
8.449285855944488
 30
0.0
 10
3.525953239239977
 20
8.449611061483058
 30
0.0
 10
3.531535015510309
 20
8.45005230507808
 30
0.0
 10
3.534360677260365
 20
8.45016838964875
 30
0.0
 10
3.548938063814343
 20
8.45016838964875
 30
0.0
  0
SPLINE
  5
29A
330
1F
100
AcDbEntity
  8
0
  6
Continuous
 62
     7
370
    15
100
AcDbSpline
210
0.0
220
0.0
230
1.0
 70
     8
 71
     3
 72
    94
 73
    90
 74
     0
 42
0.00000001
 43
0.00000001
 40
-0.0078124999999996
 40
-0.0078124999999996
 40
0.0
 40
0.0
 40
0.0625000000000004
 40
0.0625000000000004
 40
0.1250000000000009
 40
0.1250000000000009
 40
0.1875000000000013
 40
0.1875000000000013
 40
0.2187500000000016
 40
0.2187500000000016
 40
0.2500000000000019
 40
0.2500000000000019
 40
0.2656250000000021
 40
0.2656250000000021
 40
0.2734375000000022
 40
0.2734375000000022
 40
0.2812500000000023
 40
0.2812500000000023
 40
0.2851562500000023
 40
0.2851562500000023
 40
0.2890625000000023
 40
0.2890625000000023
 40
0.2968750000000024
 40
0.2968750000000024
 40
0.3046875000000026
 40
0.3046875000000026
 40
0.3125000000000027
 40
0.3125000000000027
 40
0.3281250000000029
 40
0.3281250000000029
 40
0.3437500000000031
 40
0.3437500000000031
 40
0.3750000000000034
 40
0.3750000000000034
 40
0.4062500000000036
 40
0.4062500000000036
 40
0.4375000000000039
 40
0.4375000000000039
 40
0.5000000000000046
 40
0.5000000000000046
 40
0.5625000000000052
 40
0.5625000000000052
 40
0.5937500000000054
 40
0.5937500000000054
 40
0.6250000000000057
 40
0.6250000000000057
 40
0.6562500000000059
 40
0.6562500000000059
 40
0.6875000000000061
 40
0.6875000000000061
 40
0.7187500000000063
 40
0.7187500000000063
 40
0.7343750000000064
 40
0.7343750000000064
 40
0.7500000000000066
 40
0.7500000000000066
 40
0.7656250000000066
 40
0.7656250000000066
 40
0.7734375000000066
 40
0.7734375000000066
 40
0.7812500000000064
 40
0.7812500000000064
 40
0.7968750000000064
 40
0.7968750000000064
 40
0.8046875000000064
 40
0.8046875000000064
 40
0.8125000000000063
 40
0.8125000000000063
 40
0.8203125000000063
 40
0.8203125000000063
 40
0.8281250000000062
 40
0.8281250000000062
 40
0.8437500000000056
 40
0.8437500000000056
 40
0.8750000000000047
 40
0.8750000000000047
 40
0.8906250000000042
 40
0.8906250000000042
 40
0.9062500000000038
 40
0.9062500000000038
 40
0.9375000000000023
 40
0.9375000000000023
 40
0.9687500000000011
 40
0.9687500000000011
 40
0.9843750000000007
 40
0.9843750000000007
 40
0.9921875000000004
 40
0.9921875000000004
 40
1.0
 40
1.0
 40
1.0625
 40
1.0625
 10
3.538724349504608
 20
7.678672326656624
 30
0.0
 10
3.525690595103582
 20
7.678672326656624
 30
0.0
 10
3.514945740826655
 20
7.680485019224658
 30
0.0
 10
3.494978396634476
 20
7.686729169633197
 30
0.0
 10
3.485757757526891
 20
7.691170061109656
 30
0.0
 10
3.468770539762692
 20
7.702482862077672
 30
0.0
 10
3.460984025901217
 20
7.70935550195175
 30
0.0
 10
3.45056639957962
 20
7.72188003469014
 30
0.0
 10
3.447286905578443
 20
7.726448242416948
 30
0.0
 10
3.441198334343725
 20
7.736676981649476
 30
0.0
 10
3.43838937908547
 20
7.742277094661772
 30
0.0
 10
3.434617776178985
 20
7.752356455855276
 30
0.0
 10
3.433433810914015
 20
7.755993745787231
 30
0.0
 10
3.431819781544785
 20
7.762331027856436
 30
0.0
 10
3.431310664569194
 20
7.764595056006848
 30
0.0
 10
3.430402927343517
 20
7.769444420150492
 30
0.0
 10
3.429997585512659
 20
7.772071644589772
 30
0.0
 10
3.429528230293729
 20
7.776251319656876
 30
0.0
 10
3.429394145681264
 20
7.777687885560291
 30
0.0
 10
3.429179936379181
 20
7.780668051837253
 30
0.0
 10
3.429099730320732
 20
7.782228993352255
 30
0.0
 10
3.42896348384939
 20
7.786907693015989
 30
0.0
 10
3.429012247886939
 20
7.79011977458491
 30
0.0
 10
3.429362487689998
 20
7.796204204380319
 30
0.0
 10
3.429661840039377
 20
7.799117880385163
 30
0.0
 10
3.430399737604956
 20
7.804449238128244
 30
0.0
 10
3.430841208525052
 20
7.806918234488882
 30
0.0
 10
3.432307003174687
 20
7.813882303547032
 30
0.0
 10
3.433432854425746
 20
7.817811253329245
 30
0.0
 10
3.435864221760948
 20
7.825046243266612
 30
0.0
 10
3.437179158166336
 20
7.828337580814423
 30
0.0
 10
3.441314053369781
 20
7.837519080781506
 30
0.0
 10
3.444305326197186
 20
7.842716972584815
 30
0.0
 10
3.450702609726942
 20
7.85220613020617
 30
0.0
 10
3.454110925640409
 20
7.856465930250847
 30
0.0
 10
3.461341597986569
 20
7.864297960632468
 30
0.0
 10
3.465164334727218
 20
7.867864195598584
 30
0.0
 10
3.477270995759784
 20
7.877653975971485
 30
0.0
 10
3.486079379387677
 20
7.882894166119215
 30
0.0
 10
3.505120202759935
 20
7.890835655510492
 30
0.0
 10
3.515364804578547
 20
7.893543314336217
 30
0.0
 10
3.531880117151383
 20
7.895214683723881
 30
0.0
 10
3.537577067190216
 20
7.895368409689705
 30
0.0
 10
3.549373395816904
 20
7.894691878276174
 30
0.0
 10
3.555509575265
 20
7.893852747515001
 30
0.0
 10
3.567967236322211
 20
7.890963316918633
 30
0.0
 10
3.574294911685512
 20
7.888921738951419
 30
0.0
 10
3.587088060820521
 20
7.883321725290116
 30
0.0
 10
3.593554918803273
 20
7.879772903655908
 30
0.0
 10
3.606524792362474
 20
7.870545458384149
 30
0.0
 10
3.612890143781563
 20
7.86497245328352
 30
0.0
 10
3.621951598472914
 20
7.854564936021079
 30
0.0
 10
3.624885523884296
 20
7.850744613297549
 30
0.0
 10
3.630344607024131
 20
7.842480010024973
 30
0.0
 10
3.632891957768538
 20
7.838015013378415
 30
0.0
 10
3.637497950444028
 20
7.828251373752018
 30
0.0
 10
3.639576438159771
 20
7.822872150924141
 30
0.0
 10
3.642043504601383
 20
7.814405335791768
 30
0.0
 10
3.642762648556267
 20
7.811510509873465
 30
0.0
 10
3.643973367640297
 20
7.805562958363729
 30
0.0
 10
3.64446745048768
 20
7.802484873760434
 30
0.0
 10
3.645542682304168
 20
7.793195149258048
 30
0.0
 10
3.645725993484336
 20
7.78696296406202
 30
0.0
 10
3.645182066232931
 20
7.777554944220559
 30
0.0
 10
3.644860759849043
 20
7.774411116240109
 30
0.0
 10
3.643972463857494
 20
7.768303549743979
 30
0.0
 10
3.643404570169763
 20
7.765313382934074
 30
0.0
 10
3.642039527329448
 20
7.759452068372293
 30
0.0
 10
3.641236178921883
 20
7.756563227227575
 30
0.0
 10
3.639446254466229
 20
7.750999699585264
 30
0.0
 10
3.638462610187757
 20
7.748327059352775
 30
0.0
 10
3.635282648120853
 20
7.740597005143254
 30
0.0
 10
3.63285140012534
 20
7.7358124827412
 30
0.0
 10
3.624886977862457
 20
7.722494187526869
 30
0.0
 10
3.618940331661914
 20
7.715322330905066
 30
0.0
 10
3.609541284585975
 20
7.706201524193548
 30
0.0
 10
3.606330315923862
 20
7.703455042213052
 30
0.0
 10
3.599915960193552
 20
7.698540510726222
 30
0.0
 10
3.596694775463677
 20
7.696355525879365
 30
0.0
 10
3.587022077144943
 20
7.690481984959161
 30
0.0
 10
3.580562885274108
 20
7.687467963009604
 30
0.0
 10
3.567734856190279
 20
7.682821345128494
 30
0.0
 10
3.561423729664046
 20
7.68121551241458
 30
0.0
 10
3.552200407234473
 20
7.679660567228408
 30
0.0
 10
3.549162631910129
 20
7.679284705573047
 30
0.0
 10
3.54466248903198
 20
7.678914093016052
 30
0.0
 10
3.543171858711633
 20
7.678822808547647
 30
0.0
 10
3.540209658556666
 20
7.678701924634714
 30
0.0
 10
3.538724349504608
 20
7.678672326656624
 30
0.0
 10
3.525690595103582
 20
7.678672326656624
 30
0.0
  0
SPLINE
  5
29B
330
1F
100
AcDbEntity
  8
0
  6
Continuous
 62
     7
370
    15
100
AcDbSpline
210
0.0
220
0.0
230
1.0
 70
     8
 71
     3
 72
    76
 73
    72
 74
     0
 42
0.00000001
 43
0.00000001
 40
-0.031250000000001
 40
-0.031250000000001
 40
0.0
 40
0.0
 40
0.0312499999999994
 40
0.0312499999999994
 40
0.0468749999999991
 40
0.0468749999999991
 40
0.0624999999999988
 40
0.0624999999999988
 40
0.0937499999999983
 40
0.0937499999999983
 40
0.1249999999999979
 40
0.1249999999999979
 40
0.1562499999999974
 40
0.1562499999999974
 40
0.1874999999999969
 40
0.1874999999999969
 40
0.2187499999999965
 40
0.2187499999999965
 40
0.2499999999999963
 40
0.2499999999999963
 40
0.2812499999999962
 40
0.2812499999999962
 40
0.312499999999996
 40
0.312499999999996
 40
0.3437499999999959
 40
0.3437499999999959
 40
0.3749999999999957
 40
0.3749999999999957
 40
0.4062499999999956
 40
0.4062499999999956
 40
0.4218749999999955
 40
0.4218749999999955
 40
0.4374999999999954
 40
0.4374999999999954
 40
0.4687499999999953
 40
0.4687499999999953
 40
0.4999999999999951
 40
0.4999999999999951
 40
0.531249999999995
 40
0.531249999999995
 40
0.5624999999999948
 40
0.5624999999999948
 40
0.5937499999999947
 40
0.5937499999999947
 40
0.6249999999999944
 40
0.6249999999999944
 40
0.6562499999999943
 40
0.6562499999999943
 40
0.6874999999999942
 40
0.6874999999999942
 40
0.718749999999994
 40
0.718749999999994
 40
0.7499999999999939
 40
0.7499999999999939
 40
0.7812499999999938
 40
0.7812499999999938
 40
0.796874999999994
 40
0.796874999999994
 40
0.8124999999999942
 40
0.8124999999999942
 40
0.8437499999999952
 40
0.8437499999999952
 40
0.8749999999999961
 40
0.8749999999999961
 40
0.9062499999999971
 40
0.9062499999999971
 40
0.9374999999999981
 40
0.9374999999999981
 40
0.968749999999999
 40
0.968749999999999
 40
1.0
 40
1.0
 40
1.031249999999999
 40
1.031249999999999
 10
3.910963471731795
 20
8.057965713689626
 30
0.0
 10
3.910963471731796
 20
8.070875002615747
 30
0.0
 10
3.911485824107457
 20
8.077221238611006
 30
0.0
 10
3.913022714139854
 20
8.086584756251444
 30
0.0
 10
3.913661547761949
 20
8.08967976366503
 30
0.0
 10
3.915198935936156
 20
8.09581628669976
 30
0.0
 10
3.916101692326748
 20
8.098865555427322
 30
0.0
 10
3.919146007881672
 20
8.107734425843194
 30
0.0
 10
3.921633246868102
 20
8.113342518253003
 30
0.0
 10
3.927527602635588
 20
8.12395606424373
 30
0.0
 10
3.93096513468847
 20
8.128979174563604
 30
0.0
 10
3.938502385762418
 20
8.13798353972294
 30
0.0
 10
3.942628175299569
 20
8.142025046858414
 30
0.0
 10
3.95162783392995
 20
8.1491642599208
 30
0.0
 10
3.956435394948418
 20
8.15219646308808
 30
0.0
 10
3.966425818647963
 20
8.157067773108492
 30
0.0
 10
3.971682484154719
 20
8.158943760768778
 30
0.0
 10
3.982499248488524
 20
8.161453389755339
 30
0.0
 10
3.987962394510545
 20
8.16207439372889
 30
0.0
 10
3.998998327670821
 20
8.162081293944485
 30
0.0
 10
4.004629901666858
 20
8.16144692101921
 30
0.0
 10
4.01557898331757
 20
8.158954815621588
 30
0.0
 10
4.020925681109634
 20
8.157110916460866
 30
0.0
 10
4.031353805551577
 20
8.152220080579696
 30
0.0
 10
4.03641634877402
 20
8.149163555375527
 30
0.0
 10
4.04582105809477
 20
8.142097026307136
 30
0.0
 10
4.050223037111293
 20
8.138062610692241
 30
0.0
 10
4.058387513319336
 20
8.128950055260118
 30
0.0
 10
4.062019220497259
 20
8.124016483265402
 30
0.0
 10
4.066795768320552
 20
8.116087598231141
 30
0.0
 10
4.06827604599317
 20
8.113355063881958
 30
0.0
 10
4.071006113745464
 20
8.107706701821046
 30
0.0
 10
4.07225859663993
 20
8.10477974802397
 30
0.0
 10
4.075584152278068
 20
8.095908145706737
 30
0.0
 10
4.07725916088377
 20
8.089821043983571
 30
0.0
 10
4.079527161473655
 20
8.077304396294089
 30
0.0
 10
4.080109118193677
 20
8.070830173771972
 30
0.0
 10
4.08011331707419
 20
8.058081444599157
 30
0.0
 10
4.079554365042917
 20
8.051744343182907
 30
0.0
 10
4.077292320551896
 20
8.039146299864008
 30
0.0
 10
4.075595074837015
 20
8.032976539069496
 30
0.0
 10
4.071199447734687
 20
8.021220842674273
 30
0.0
 10
4.068470189555795
 20
8.015545569815501
 30
0.0
 10
4.062047097872276
 20
8.004857751693356
 30
0.0
 10
4.058419226647271
 20
7.999938810108604
 30
0.0
 10
4.050367455773537
 20
7.990926817187116
 30
0.0
 10
4.045888723191275
 20
7.986800202529804
 30
0.0
 10
4.036456622898877
 20
7.979701816487788
 30
0.0
 10
4.031492195225437
 20
7.97669805267091
 30
0.0
 10
4.021075327621249
 20
7.971787814251661
 30
0.0
 10
4.015624401647524
 20
7.96990118024407
 30
0.0
 10
4.004712357900968
 20
7.967407678651707
 30
0.0
 10
3.999192799143058
 20
7.966769196103065
 30
0.0
 10
3.988024563078638
 20
7.966756613184631
 30
0.0
 10
3.98253993760916
 20
7.96738532785272
 30
0.0
 10
3.974505259982822
 20
7.969238409938942
 30
0.0
 10
3.971856331168971
 20
7.970008898220307
 30
0.0
 10
3.966617371952266
 20
7.971861811659003
 30
0.0
 10
3.964017430406391
 20
7.972950541141816
 30
0.0
 10
3.956467898706912
 20
7.976621994158824
 30
0.0
 10
3.951718781565644
 20
7.979617660994307
 30
0.0
 10
3.942768158080914
 20
7.986691613560177
 30
0.0
 10
3.938546470209007
 20
7.990810899100254
 30
0.0
 10
3.931001222575373
 20
7.999812109011857
 30
0.0
 10
3.927629030295355
 20
8.004722415232806
 30
0.0
 10
3.921687234944333
 20
8.015381116140365
 30
0.0
 10
3.919164378931988
 20
8.021067436206067
 30
0.0
 10
3.915122569551265
 20
8.03281312572661
 30
0.0
 10
3.913571797829487
 20
8.0389496587659
 30
0.0
 10
3.911485873214095
 20
8.051580866627397
 30
0.0
 10
3.910963471731795
 20
8.057965713689626
 30
0.0
 10
3.910963471731796
 20
8.070875002615747
 30
0.0
  0
SPLINE
  5
29C
330
1F
100
AcDbEntity
  8
0
  6
Continuous
 62
     7
370
    15
100
AcDbSpline
210
0.0
220
0.0
230
1.0
 70
     8
 71
     3
 72
    76
 73
    72
 74
     0
 42
0.00000001
 43
0.00000001
 40
-0.0312499999999999
 40
-0.0312499999999999
 40
0.0
 40
0.0
 40
0.0312499999999999
 40
0.0312499999999999
 40
0.0468749999999999
 40
0.0468749999999999
 40
0.0624999999999998
 40
0.0624999999999998
 40
0.09375
 40
0.09375
 40
0.1250000000000001
 40
0.1250000000000001
 40
0.1562500000000002
 40
0.1562500000000002
 40
0.1875000000000004
 40
0.1875000000000004
 40
0.2187500000000005
 40
0.2187500000000005
 40
0.2500000000000006
 40
0.2500000000000006
 40
0.2812500000000008
 40
0.2812500000000008
 40
0.3125000000000009
 40
0.3125000000000009
 40
0.3437500000000011
 40
0.3437500000000011
 40
0.3750000000000012
 40
0.3750000000000012
 40
0.4062500000000014
 40
0.4062500000000014
 40
0.4218750000000014
 40
0.4218750000000014
 40
0.4375000000000015
 40
0.4375000000000015
 40
0.4687500000000015
 40
0.4687500000000015
 40
0.5000000000000014
 40
0.5000000000000014
 40
0.5312500000000013
 40
0.5312500000000013
 40
0.5625000000000013
 40
0.5625000000000013
 40
0.5937500000000012
 40
0.5937500000000012
 40
0.6250000000000011
 40
0.6250000000000011
 40
0.6562500000000012
 40
0.6562500000000012
 40
0.6875000000000011
 40
0.6875000000000011
 40
0.7187500000000011
 40
0.7187500000000011
 40
0.750000000000001
 40
0.750000000000001
 40
0.7812500000000009
 40
0.7812500000000009
 40
0.7968750000000007
 40
0.7968750000000007
 40
0.8125000000000004
 40
0.8125000000000004
 40
0.8437500000000003
 40
0.8437500000000003
 40
0.8750000000000002
 40
0.8750000000000002
 40
0.9062500000000002
 40
0.9062500000000002
 40
0.9375000000000001
 40
0.9375000000000001
 40
0.9687500000000001
 40
0.9687500000000001
 40
1.0
 40
1.0
 40
1.03125
 40
1.03125
 10
5.431099573291558
 20
8.057965713689626
 30
0.0
 10
5.431099573291557
 20
8.070875002615747
 30
0.0
 10
5.431547284658144
 20
8.077221238611006
 30
0.0
 10
5.432859316791566
 20
8.086584756251444
 30
0.0
 10
5.433404137389062
 20
8.08967976366503
 30
0.0
 10
5.434712210678341
 20
8.09581628669976
 30
0.0
 10
5.435479004299156
 20
8.098865555427322
 30
0.0
 10
5.438057145406603
 20
8.107734425843194
 30
0.0
 10
5.440154842028912
 20
8.113342518253003
 30
0.0
 10
5.445082248184052
 20
8.12395606424373
 30
0.0
 10
5.447936532235024
 20
8.128979174563604
 30
0.0
 10
5.454127382389222
 20
8.13798353972294
 30
0.0
 10
5.457486182114288
 20
8.142025046858414
 30
0.0
 10
5.46472150730599
 20
8.1491642599208
 30
0.0
 10
5.468543717183143
 20
8.15219646308808
 30
0.0
 10
5.476379910026584
 20
8.157067773108492
 30
0.0
 10
5.480451794684319
 20
8.158943760768778
 30
0.0
 10
5.488710498875494
 20
8.161453389755339
 30
0.0
 10
5.492824032745277
 20
8.162074393728892
 30
0.0
 10
5.501015847793538
 20
8.162081293944485
 30
0.0
 10
5.5051358809414
 20
8.16144692101921
 30
0.0
 10
5.51303398164456
 20
8.158954815621588
 30
0.0
 10
5.516834997463321
 20
8.157110916460866
 30
0.0
 10
5.524152163277866
 20
8.152220080579697
 30
0.0
 10
5.527653915104688
 20
8.149163555375527
 30
0.0
 10
5.53408422797112
 20
8.142097026307136
 30
0.0
 10
5.537054835676397
 20
8.138062610692241
 30
0.0
 10
5.542510849904923
 20
8.128950055260118
 30
0.0
 10
5.544909144549059
 20
8.124016483265402
 30
0.0
 10
5.548041097714457
 20
8.116087598231141
 30
0.0
 10
5.549007372548628
 20
8.113355063881958
 30
0.0
 10
5.550783637470507
 20
8.107706701821046
 30
0.0
 10
5.551595344092473
 20
8.10477974802397
 30
0.0
 10
5.553744990536837
 20
8.095908145706737
 30
0.0
 10
5.554819884869548
 20
8.089821043983571
 30
0.0
 10
5.556273066023788
 20
8.077304396294089
 30
0.0
 10
5.556644290419849
 20
8.070830173771972
 30
0.0
 10
5.556646972676431
 20
8.058081444599157
 30
0.0
 10
5.556290457336617
 20
8.051744343182907
 30
0.0
 10
5.554841169206337
 20
8.039146299864008
 30
0.0
 10
5.553751975394895
 20
8.032976539069496
 30
0.0
 10
5.550910782400882
 20
8.021220842674273
 30
0.0
 10
5.54913880135887
 20
8.015545569815503
 30
0.0
 10
5.544927624212316
 20
8.004857751693356
 30
0.0
 10
5.542531626230521
 20
7.999938810108603
 30
0.0
 10
5.537151752762653
 20
7.990926817187116
 30
0.0
 10
5.53413018965182
 20
7.986800202529804
 30
0.0
 10
5.52768175161312
 20
7.979701816487788
 30
0.0
 10
5.524248346773724
 20
7.97669805267091
 30
0.0
 10
5.516940896951737
 20
7.971787814251661
 30
0.0
 10
5.513066308140553
 20
7.96990118024407
 30
0.0
 10
5.505195791457342
 20
7.967407678651707
 30
0.0
 10
5.501159275794209
 20
7.966769196103065
 30
0.0
 10
5.492871083945004
 20
7.966756613184631
 30
0.0
 10
5.488740908190349
 20
7.967385327852718
 30
0.0
 10
5.482607331492487
 20
7.969238409938942
 30
0.0
 10
5.480571040482858
 20
7.970008898220307
 30
0.0
 10
5.476516619250635
 20
7.971861811659003
 30
0.0
 10
5.474490599131288
 20
7.972950541141816
 30
0.0
 10
5.468569686943076
 20
7.976621994158824
 30
0.0
 10
5.464793898763864
 20
7.979617660994307
 30
0.0
 10
5.457599429935502
 20
7.986691613560177
 30
0.0
 10
5.454163375721684
 20
7.990810899100254
 30
0.0
 10
5.44796638753572
 20
7.999812109011857
 30
0.0
 10
5.445166697535341
 20
8.004722415232806
 30
0.0
 10
5.440200304210988
 20
8.015381116140365
 30
0.0
 10
5.43807262231287
 20
8.021067436206067
 30
0.0
 10
5.434649894001176
 20
8.03281312572661
 30
0.0
 10
5.433328036804785
 20
8.0389496587659
 30
0.0
 10
5.431547354918184
 20
8.051580866627397
 30
0.0
 10
5.431099573291558
 20
8.057965713689626
 30
0.0
 10
5.431099573291557
 20
8.070875002615747
 30
0.0
  0
LINE
  5
29D
330
1F
100
AcDbEntity
  8
0
  6
Continuous
 62
     7
370
    15
100
AcDbLine
 10
4.5872761546
 20
7.5494203582
 30
0.0
 11
3.4247761546
 21
7.5494203582
 31
0.0
  0
LINE
  5
29E
330
1F
100
AcDbEntity
  8
0
  6
Continuous
 62
     7
370
    15
100
AcDbLine
 10
5.7497761546
 20
7.5494203582
 30
0.0
 11
4.5872761546
 21
7.5494203582
 31
0.0
  0
LINE
  5
29F
330
1F
100
AcDbEntity
  8
0
  6
Continuous
 62
     7
370
    15
100
AcDbLine
 10
3.4247761546
 20
8.5794203582
 30
0.0
 11
5.7497761546
 21
8.5794203582
 31
0.0
  0
ARC
  5
2A0
330
1F
100
AcDbEntity
  8
0
  6
Continuous
 62
     7
370
    15
100
AcDbCircle
 10
4.069035622
 20
8.0607525785
 30
0.0
 40
0.0976522477858149
100
AcDbArc
 50
177.8474869635
 51
243.4715746896
  0
ARC
  5
2A1
330
1F
100
AcDbEntity
  8
0
  6
Continuous
 62
     7
370
    15
100
AcDbCircle
 10
4.0690217198
 20
8.0680922807
 30
0.0
 40
0.0976385111150114
100
AcDbArc
 50
116.4683665175
 51
182.1552488487
  0
ARC
  5
2A2
330
1F
100
AcDbEntity
  8
0
  6
Continuous
 62
     7
370
    15
100
AcDbCircle
 10
5.3267280001
 20
8.0644226304
 30
0.0
 40
0.1376508443385819
100
AcDbArc
 50
332.0449670588
 51
27.9204126961
  0
LINE
  5
2A3
330
1F
100
AcDbEntity
  8
0
  6
Continuous
 62
     7
370
    15
100
AcDbLine
 10
4.5872761546
 20
7.2419203582
 30
0.0
 11
5.3222761546
 21
7.2419203582
 31
0.0
  0
LINE
  5
2A4
330
1F
100
AcDbEntity
  8
0
  6
Continuous
 62
     7
370
    15
100
AcDbLine
 10
3.8522761546
 20
7.2419203582
 30
0.0
 11
4.5872761546
 21
7.2419203582
 31
0.0
  0
LINE
  5
2A5
330
1F
100
AcDbEntity
  8
0
  6
Continuous
 62
     7
370
    15
100
AcDbLine
 10
4.5872761546
 20
8.8869203582
 30
0.0
 11
5.3222761546
 21
8.8869203582
 31
0.0
  0
LINE
  5
2A6
330
1F
100
AcDbEntity
  8
0
  6
Continuous
 62
     7
370
    15
100
AcDbLine
 10
3.8522761546
 20
8.8869203582
 30
0.0
 11
4.5872761546
 21
8.8869203582
 31
0.0
  0
CIRCLE
  5
2A7
330
1F
100
AcDbEntity
  8
0
  6
Continuous
 62
     7
370
    15
100
AcDbCircle
 10
3.5372761546
 20
8.0644203582
 30
0.0
 40
0.0515551181102367
  0
CIRCLE
  5
2A8
330
1F
100
AcDbEntity
  8
0
  6
Continuous
 62
     7
370
    15
100
AcDbCircle
 10
3.5372761546
 20
8.0644203582
 30
0.0
 40
0.059055118110237
  0
CIRCLE
  5
2A9
330
1F
100
AcDbEntity
  8
0
  6
Continuous
 62
     7
370
    15
100
AcDbCircle
 10
3.5372761546
 20
7.7869403582
 30
0.0
 40
0.090925196850395
  0
CIRCLE
  5
2AA
330
1F
100
AcDbEntity
  8
0
  6
Continuous
 62
     7
370
    15
100
AcDbCircle
 10
3.5372761546
 20
7.7869403582
 30
0.0
 40
0.0984251968503944
  0
LINE
  5
2AB
330
1F
100
AcDbEntity
  8
0
  6
Continuous
 62
     7
370
    15
100
AcDbLine
 10
3.586488753
 20
7.7585274512
 30
0.0
 11
3.5372761546
 21
7.7301145443
 31
0.0
  0
LINE
  5
2AC
330
1F
100
AcDbEntity
  8
0
  6
Continuous
 62
     7
370
    15
100
AcDbLine
 10
3.586488753
 20
7.8153532651
 30
0.0
 11
3.586488753
 21
7.7585274512
 31
0.0
  0
LINE
  5
2AD
330
1F
100
AcDbEntity
  8
0
  6
Continuous
 62
     7
370
    15
100
AcDbLine
 10
3.5372761546
 20
7.843766172
 30
0.0
 11
3.586488753
 21
7.8153532651
 31
0.0
  0
LINE
  5
2AE
330
1F
100
AcDbEntity
  8
0
  6
Continuous
 62
     7
370
    15
100
AcDbLine
 10
3.4880635561
 20
7.8153532651
 30
0.0
 11
3.5372761546
 21
7.843766172
 31
0.0
  0
LINE
  5
2AF
330
1F
100
AcDbEntity
  8
0
  6
Continuous
 62
     7
370
    15
100
AcDbLine
 10
3.4880635561
 20
7.7585274512
 30
0.0
 11
3.4880635561
 21
7.8153532651
 31
0.0
  0
LINE
  5
2B0
330
1F
100
AcDbEntity
  8
0
  6
Continuous
 62
     7
370
    15
100
AcDbLine
 10
3.5372761546
 20
7.7301145443
 30
0.0
 11
3.4880635561
 21
7.7585274512
 31
0.0
  0
CIRCLE
  5
2B1
330
1F
100
AcDbEntity
  8
0
  6
Continuous
 62
     7
370
    15
100
AcDbCircle
 10
3.5372761546
 20
8.3419003582
 30
0.0
 40
0.0909251968503941
  0
CIRCLE
  5
2B2
330
1F
100
AcDbEntity
  8
0
  6
Continuous
 62
     7
370
    15
100
AcDbCircle
 10
3.5372761546
 20
8.3419003582
 30
0.0
 40
0.0984251968503944
  0
LINE
  5
2B3
330
1F
100
AcDbEntity
  8
0
  6
Continuous
 62
     7
370
    15
100
AcDbLine
 10
3.586488753
 20
8.3134874512
 30
0.0
 11
3.5372761546
 21
8.2850745443
 31
0.0
  0
LINE
  5
2B4
330
1F
100
AcDbEntity
  8
0
  6
Continuous
 62
     7
370
    15
100
AcDbLine
 10
3.586488753
 20
8.3703132651
 30
0.0
 11
3.586488753
 21
8.3134874512
 31
0.0
  0
LINE
  5
2B5
330
1F
100
AcDbEntity
  8
0
  6
Continuous
 62
     7
370
    15
100
AcDbLine
 10
3.5372761546
 20
8.398726172
 30
0.0
 11
3.586488753
 21
8.3703132651
 31
0.0
  0
LINE
  5
2B6
330
1F
100
AcDbEntity
  8
0
  6
Continuous
 62
     7
370
    15
100
AcDbLine
 10
3.4880635561
 20
8.3703132651
 30
0.0
 11
3.5372761546
 21
8.398726172
 31
0.0
  0
LINE
  5
2B7
330
1F
100
AcDbEntity
  8
0
  6
Continuous
 62
     7
370
    15
100
AcDbLine
 10
3.4880635561
 20
8.3134874512
 30
0.0
 11
3.4880635561
 21
8.3703132651
 31
0.0
  0
LINE
  5
2B8
330
1F
100
AcDbEntity
  8
0
  6
Continuous
 62
     7
370
    15
100
AcDbLine
 10
3.5372761546
 20
8.2850745443
 30
0.0
 11
3.4880635561
 21
8.3134874512
 31
0.0
  0
LINE
  5
2B9
330
1F
100
AcDbEntity
  8
0
  6
HIDDEN
 62
     7
370
     0
100
AcDbLine
 10
5.4314194731
 20
8.0698721994
 30
0.0
 11
5.4312873886
 21
8.0619842478
 31
0.0
  0
LINE
  5
2BA
330
1F
100
AcDbEntity
  8
0
  6
HIDDEN
 62
     7
370
     0
100
AcDbLine
 10
5.490437443
 20
7.9676079653
 30
0.0
 11
5.4969534181
 21
7.9668063803
 31
0.0
  0
LINE
  5
2BB
330
1F
100
AcDbEntity
  8
0
  6
HIDDEN
 62
     7
370
     0
100
AcDbLine
 10
3.9935469923
 20
8.1617689756
 30
0.0
 11
3.9864951845
 21
8.1615281159
 31
0.0
  0
LINE
  5
2BC
330
1F
100
AcDbEntity
  8
0
  6
HIDDEN
 62
     7
370
     0
100
AcDbLine
 10
3.9113336241
 20
8.0697011522
 30
0.0
 11
3.911182276
 21
8.0619950085
 31
0.0
  0
LINE
  5
2BD
330
1F
100
AcDbEntity
  8
0
  6
HIDDEN
 62
     7
370
     0
100
AcDbLine
 10
3.9862422169
 20
7.9674796434
 30
0.0
 11
3.9935309481
 21
7.9668063803
 31
0.0
  0
LWPOLYLINE
  5
2BE
330
1F
100
AcDbEntity
  8
0
  6
HIDDEN
 62
     7
370
     0
100
AcDbPolyline
 90
       25
 70
   128
 43
0.0
 10
4.0254200513
 20
7.9733818541
 10
4.0352644955
 20
7.9697511517
 10
4.0490420993
 20
7.967096408
 10
4.0630102099
 20
7.967096408
 10
4.0767878137
 20
7.9697511517
 10
4.0899990936
 20
7.9749882245
 10
4.1022836802
 20
7.9826647728
 10
4.1133064821
 20
7.9925714003
 10
4.1227668261
 20
8.0044378802
 10
4.1304066584
 20
8.0179405256
 10
4.1360175846
 20
8.0327110197
 10
4.139446553
 20
8.048346462
 10
4.1406000304
 20
8.0644203582
 10
4.139446553
 20
8.0804942544
 10
4.1360175846
 20
8.0961296966
 10
4.1304066584
 20
8.1109001907
 10
4.1227668261
 20
8.1244028361
 10
4.1133064821
 20
8.136269316
 10
4.1022836802
 20
8.1461759435
 10
4.0899990936
 20
8.1538524918
 10
4.0767878137
 20
8.1590895646
 10
4.0630102099
 20
8.1617443083
 10
4.0490420993
 20
8.1617443083
 10
4.0352644955
 20
8.1590895646
 10
4.0255038796
 20
8.1554963792
  0
LWPOLYLINE
  5
2BF
330
1F
100
AcDbEntity
  8
0
  6
HIDDEN
 62
     7
370
     0
100
AcDbPolyline
 90
       16
 70
   128
 43
0.0
 10
5.3384253444
 20
8.0644203582
 10
5.3392814867
 20
8.048346462
 10
5.3418265604
 20
8.0327110197
 10
5.3459911423
 20
8.0179405256
 10
5.3516616337
 20
8.0044378802
 10
5.3586833583
 20
7.9925714003
 10
5.3668647817
 20
7.9826647728
 10
5.375982736
 20
7.9749882245
 10
5.3857885073
 20
7.9697511517
 10
5.3960146196
 20
7.967096408
 10
5.4063821312
 20
7.967096408
 10
5.4166082435
 20
7.9697511517
 10
5.4264140147
 20
7.9749882245
 10
5.4355319691
 20
7.9826647728
 10
5.4437133925
 20
7.9925714003
 10
5.4483171621
 20
7.9998948795
  0
LWPOLYLINE
  5
2C0
330
1F
100
AcDbEntity
  8
0
  6
HIDDEN
 62
     7
370
     0
100
AcDbPolyline
 90
       16
 70
   128
 43
0.0
 10
5.44835613
 20
8.1288769008
 10
5.4437133925
 20
8.136269316
 10
5.4355319691
 20
8.1461759435
 10
5.4264140147
 20
8.1538524918
 10
5.4166082435
 20
8.1590895646
 10
5.4063821312
 20
8.1617443083
 10
5.3960146196
 20
8.1617443083
 10
5.3857885073
 20
8.1590895646
 10
5.375982736
 20
8.1538524918
 10
5.3668647817
 20
8.1461759435
 10
5.3586833583
 20
8.136269316
 10
5.3516616337
 20
8.1244028361
 10
5.3459911423
 20
8.1109001907
 10
5.3418265604
 20
8.0961296966
 10
5.3392814867
 20
8.0804942544
 10
5.3384253444
 20
8.0644203582
  0
LINE
  5
2C1
330
1F
100
AcDbEntity
  8
0
  6
HIDDEN
 62
     7
370
     0
100
AcDbLine
 10
5.3222761546
 20
8.0631703582
 30
0.0
 11
3.8522761546
 21
8.0631703582
 31
0.0
  0
LINE
  5
2C2
330
1F
100
AcDbEntity
  8
0
  6
HIDDEN
 62
     7
370
     0
100
AcDbLine
 10
5.3222761546
 20
8.0656703582
 30
0.0
 11
3.8522761546
 21
8.0656703582
 31
0.0
  0
SPLINE
  5
2C3
330
1F
100
AcDbEntity
  8
0
  6
HIDDEN
 62
     7
370
     0
100
AcDbSpline
210
0.0
220
0.0
230
1.0
 70
     8
 71
     3
 72
    70
 73
    66
 74
     0
 42
0.00000001
 43
0.00000001
 40
-0.0312499999999998
 40
-0.0312499999999998
 40
0.0
 40
0.0
 40
0.03125
 40
0.03125
 40
0.0625000000000001
 40
0.0625000000000001
 40
0.0937500000000001
 40
0.0937500000000001
 40
0.1250000000000001
 40
0.1250000000000001
 40
0.1562500000000001
 40
0.1562500000000001
 40
0.1875000000000001
 40
0.1875000000000001
 40
0.2187500000000001
 40
0.2187500000000001
 40
0.2500000000000001
 40
0.2500000000000001
 40
0.2812500000000001
 40
0.2812500000000001
 40
0.3125000000000002
 40
0.3125000000000002
 40
0.3437500000000002
 40
0.3437500000000002
 40
0.3750000000000002
 40
0.3750000000000002
 40
0.4062500000000002
 40
0.4062500000000002
 40
0.4375000000000002
 40
0.4375000000000002
 40
0.4687500000000002
 40
0.4687500000000002
 40
0.5000000000000002
 40
0.5000000000000002
 40
0.5312500000000002
 40
0.5312500000000002
 40
0.5625000000000002
 40
0.5625000000000002
 40
0.5937500000000003
 40
0.5937500000000003
 40
0.6250000000000003
 40
0.6250000000000003
 40
0.6562500000000003
 40
0.6562500000000003
 40
0.6875000000000003
 40
0.6875000000000003
 40
0.7187500000000003
 40
0.7187500000000003
 40
0.7500000000000003
 40
0.7500000000000003
 40
0.7812500000000004
 40
0.7812500000000004
 40
0.8125000000000004
 40
0.8125000000000004
 40
0.8437500000000004
 40
0.8437500000000004
 40
0.8750000000000004
 40
0.8750000000000004
 40
0.9062500000000003
 40
0.9062500000000003
 40
0.9375000000000003
 40
0.9375000000000003
 40
0.9687500000000002
 40
0.9687500000000002
 40
1.0
 40
1.0
 40
1.03125
 40
1.03125
 10
4.582092800757946
 20
7.473795358152687
 30
0.0
 10
4.592459508384375
 20
7.473795358152687
 30
0.0
 10
4.597552234361137
 20
7.473284656032093
 30
0.0
 10
4.607565060235244
 20
7.471287402250675
 30
0.0
 10
4.612538270267155
 20
7.469775241731056
 30
0.0
 10
4.621989931802312
 20
7.465846293700048
 30
0.0
 10
4.626469358626122
 20
7.463445040876691
 30
0.0
 10
4.634946177690964
 20
7.457775782699908
 30
0.0
 10
4.638942944700247
 20
7.45449042399433
 30
0.0
 10
4.646116717537035
 20
7.447313803987731
 30
0.0
 10
4.649342905937488
 20
7.443394415559986
 30
0.0
 10
4.655053950172618
 20
7.434862675052708
 30
0.0
 10
4.657467015869783
 20
7.43034906391678
 30
0.0
 10
4.661369892778546
 20
7.420958450246999
 30
0.0
 10
4.662881407266871
 20
7.416013596674291
 30
0.0
 10
4.664896694611881
 20
7.405919911924243
 30
0.0
 10
4.665397909021858
 20
7.400837395211496
 30
0.0
 10
4.665404369000616
 20
7.390601936259524
 30
0.0
 10
4.66489220609003
 20
7.385401602937115
 30
0.0
 10
4.662889729978998
 20
7.375365531113276
 30
0.0
 10
4.661408420692356
 20
7.370485507965678
 30
0.0
 10
4.657475419488407
 20
7.361001456175785
 30
0.0
 10
4.655040105033587
 20
7.356461455886687
 30
0.0
 10
4.649395629251364
 20
7.348020994414705
 30
0.0
 10
4.646142668094849
 20
7.344052170196775
 30
0.0
 10
4.638906257938985
 20
7.336814295011204
 30
0.0
 10
4.634984848295716
 20
7.333596065622658
 30
0.0
 10
4.626541874481547
 20
7.327938973330538
 30
0.0
 10
4.621966147326233
 20
7.325483568229586
 30
0.0
 10
4.612536774166396
 20
7.321565822699577
 30
0.0
 10
4.60766613535436
 20
7.320078793154093
 30
0.0
 10
4.597605715141249
 20
7.318061491431773
 30
0.0
 10
4.592419496878753
 20
7.317547527352284
 30
0.0
 10
4.582198922983633
 20
7.317543202939099
 30
0.0
 10
4.577104771137773
 20
7.318037504795178
 30
0.0
 10
4.566949913569437
 20
7.320058448455092
 30
0.0
 10
4.562062335274441
 20
7.321550633669048
 30
0.0
 10
4.552650035996837
 20
7.325452823636478
 30
0.0
 10
4.548079357862535
 20
7.327897518893148
 30
0.0
 10
4.539597881590081
 20
7.333571011142769
 30
0.0
 10
4.535677680148186
 20
7.336788605677605
 30
0.0
 10
4.528468654996423
 20
7.343987272611261
 30
0.0
 10
4.52518515954801
 20
7.347983889464201
 30
0.0
 10
4.519535645957891
 20
7.356420970236973
 30
0.0
 10
4.517126762676623
 20
7.360898793871448
 30
0.0
 10
4.513171792862874
 20
7.370400960820241
 30
0.0
 10
4.511676352806304
 20
7.375318773863023
 30
0.0
 10
4.509672347664521
 20
7.385318249015806
 30
0.0
 10
4.509153874006345
 20
7.390475422685685
 30
0.0
 10
4.509148456714731
 20
7.400783175654658
 30
0.0
 10
4.509650823164898
 20
7.405868170038308
 30
0.0
 10
4.511643553308563
 20
7.415903921097443
 30
0.0
 10
4.51315823191068
 20
7.420890898596584
 30
0.0
 10
4.517067504219538
 20
7.430315524274252
 30
0.0
 10
4.519464044757384
 20
7.434801969762196
 30
0.0
 10
4.525155357420732
 20
7.443322974302784
 30
0.0
 10
4.528413566023631
 20
7.447288340606032
 30
0.0
 10
4.535578777321699
 20
7.454463228711933
 30
0.0
 10
4.539539534032728
 20
7.457726665078063
 30
0.0
 10
4.548053662483668
 20
7.463429979492342
 30
0.0
 10
4.552533859394451
 20
7.465830401816612
 30
0.0
 10
4.561937555878458
 20
7.469747441095792
 30
0.0
 10
4.566915255469381
 20
7.471270033449754
 30
0.0
 10
4.576984408363403
 20
7.473284513287236
 30
0.0
 10
4.582092800757946
 20
7.473795358152687
 30
0.0
 10
4.592459508384375
 20
7.473795358152687
 30
0.0
  0
SPLINE
  5
2C4
330
1F
100
AcDbEntity
  8
0
  6
HIDDEN
 62
     7
370
     0
100
AcDbSpline
210
0.0
220
0.0
230
1.0
 70
     8
 71
     3
 72
    70
 73
    66
 74
     0
 42
0.00000001
 43
0.00000001
 40
-0.0312500000000001
 40
-0.0312500000000001
 40
0.0
 40
0.0
 40
0.0312499999999999
 40
0.0312499999999999
 40
0.0624999999999999
 40
0.0624999999999999
 40
0.0937499999999998
 40
0.0937499999999998
 40
0.1249999999999998
 40
0.1249999999999998
 40
0.1562499999999997
 40
0.1562499999999997
 40
0.1874999999999996
 40
0.1874999999999996
 40
0.2187499999999995
 40
0.2187499999999995
 40
0.2499999999999994
 40
0.2499999999999994
 40
0.2812499999999994
 40
0.2812499999999994
 40
0.3124999999999992
 40
0.3124999999999992
 40
0.3437499999999992
 40
0.3437499999999992
 40
0.3749999999999991
 40
0.3749999999999991
 40
0.4062499999999989
 40
0.4062499999999989
 40
0.4374999999999988
 40
0.4374999999999988
 40
0.4687499999999987
 40
0.4687499999999987
 40
0.4999999999999986
 40
0.4999999999999986
 40
0.5312499999999984
 40
0.5312499999999984
 40
0.5624999999999984
 40
0.5624999999999984
 40
0.5937499999999983
 40
0.5937499999999983
 40
0.6249999999999982
 40
0.6249999999999982
 40
0.6562499999999984
 40
0.6562499999999984
 40
0.6874999999999986
 40
0.6874999999999986
 40
0.7187499999999987
 40
0.7187499999999987
 40
0.7499999999999988
 40
0.7499999999999988
 40
0.781249999999999
 40
0.781249999999999
 40
0.8124999999999991
 40
0.8124999999999991
 40
0.8437499999999992
 40
0.8437499999999992
 40
0.8749999999999994
 40
0.8749999999999994
 40
0.9062499999999996
 40
0.9062499999999996
 40
0.9374999999999997
 40
0.9374999999999997
 40
0.9687499999999999
 40
0.9687499999999999
 40
1.0
 40
1.0
 40
1.03125
 40
1.03125
 10
4.582092800757946
 20
8.811295358152687
 30
0.0
 10
4.592459508384375
 20
8.811295358152687
 30
0.0
 10
4.597552234361137
 20
8.810784656032093
 30
0.0
 10
4.607565060235244
 20
8.808787402250674
 30
0.0
 10
4.612538270267155
 20
8.807275241731055
 30
0.0
 10
4.621989931802312
 20
8.803346293700049
 30
0.0
 10
4.626469358626122
 20
8.800945040876691
 30
0.0
 10
4.634946177690964
 20
8.795275782699909
 30
0.0
 10
4.638942944700246
 20
8.79199042399433
 30
0.0
 10
4.646116717537035
 20
8.784813803987731
 30
0.0
 10
4.649342905937488
 20
8.780894415559986
 30
0.0
 10
4.655053950172618
 20
8.772362675052708
 30
0.0
 10
4.657467015869783
 20
8.76784906391678
 30
0.0
 10
4.661369892778546
 20
8.758458450246998
 30
0.0
 10
4.662881407266871
 20
8.75351359667429
 30
0.0
 10
4.664896694611881
 20
8.743419911924244
 30
0.0
 10
4.665397909021858
 20
8.738337395211497
 30
0.0
 10
4.665404369000616
 20
8.728101936259524
 30
0.0
 10
4.66489220609003
 20
8.722901602937116
 30
0.0
 10
4.662889729978998
 20
8.712865531113277
 30
0.0
 10
4.661408420692356
 20
8.707985507965677
 30
0.0
 10
4.657475419488407
 20
8.698501456175785
 30
0.0
 10
4.655040105033587
 20
8.693961455886686
 30
0.0
 10
4.649395629251364
 20
8.685520994414706
 30
0.0
 10
4.646142668094849
 20
8.681552170196776
 30
0.0
 10
4.638906257938985
 20
8.674314295011204
 30
0.0
 10
4.634984848295716
 20
8.671096065622658
 30
0.0
 10
4.626541874481547
 20
8.665438973330538
 30
0.0
 10
4.621966147326233
 20
8.662983568229587
 30
0.0
 10
4.612536774166396
 20
8.659065822699578
 30
0.0
 10
4.60766613535436
 20
8.657578793154094
 30
0.0
 10
4.597605715141249
 20
8.655561491431772
 30
0.0
 10
4.592419496878753
 20
8.655047527352284
 30
0.0
 10
4.582198922983633
 20
8.6550432029391
 30
0.0
 10
4.577104771137773
 20
8.655537504795179
 30
0.0
 10
4.566949913569437
 20
8.657558448455092
 30
0.0
 10
4.562062335274441
 20
8.659050633669047
 30
0.0
 10
4.552650035996837
 20
8.662952823636477
 30
0.0
 10
4.548079357862535
 20
8.66539751889315
 30
0.0
 10
4.539597881590081
 20
8.67107101114277
 30
0.0
 10
4.535677680148186
 20
8.674288605677605
 30
0.0
 10
4.528468654996423
 20
8.681487272611262
 30
0.0
 10
4.52518515954801
 20
8.685483889464201
 30
0.0
 10
4.519535645957891
 20
8.693920970236972
 30
0.0
 10
4.517126762676623
 20
8.69839879387145
 30
0.0
 10
4.513171792862874
 20
8.70790096082024
 30
0.0
 10
4.511676352806305
 20
8.712818773863024
 30
0.0
 10
4.509672347664521
 20
8.722818249015805
 30
0.0
 10
4.509153874006345
 20
8.727975422685684
 30
0.0
 10
4.509148456714731
 20
8.738283175654656
 30
0.0
 10
4.509650823164898
 20
8.743368170038307
 30
0.0
 10
4.511643553308563
 20
8.753403921097444
 30
0.0
 10
4.51315823191068
 20
8.758390898596584
 30
0.0
 10
4.517067504219538
 20
8.767815524274251
 30
0.0
 10
4.519464044757384
 20
8.772301969762196
 30
0.0
 10
4.525155357420732
 20
8.780822974302783
 30
0.0
 10
4.528413566023631
 20
8.784788340606031
 30
0.0
 10
4.535578777321699
 20
8.791963228711934
 30
0.0
 10
4.539539534032728
 20
8.795226665078063
 30
0.0
 10
4.548053662483668
 20
8.800929979492341
 30
0.0
 10
4.55253385939445
 20
8.803330401816611
 30
0.0
 10
4.561937555878458
 20
8.807247441095793
 30
0.0
 10
4.566915255469381
 20
8.808770033449752
 30
0.0
 10
4.576984408363403
 20
8.810784513287237
 30
0.0
 10
4.582092800757946
 20
8.811295358152687
 30
0.0
 10
4.592459508384375
 20
8.811295358152687
 30
0.0
  0
CIRCLE
  5
2C5
330
1F
100
AcDbEntity
  8
0
  6
HIDDEN
 62
     7
370
     0
100
AcDbCircle
 10
3.5372761546
 20
7.7869400432
 30
0.0
 40
0.0649606299212611
  0
CIRCLE
  5
2C6
330
1F
100
AcDbEntity
  8
0
  6
HIDDEN
 62
     7
370
     0
100
AcDbCircle
 10
3.5372761546
 20
8.3419006731
 30
0.0
 40
0.0649606299212611
  0
CIRCLE
  5
2C7
330
1F
100
AcDbEntity
  8
0
  6
HIDDEN
 62
     7
370
     0
100
AcDbCircle
 10
3.5372761546
 20
8.0644203582
 30
0.0
 40
0.1082677165354324
  0
CIRCLE
  5
2C8
330
1F
100
AcDbEntity
  8
0
  6
HIDDEN
 62
     7
370
     0
100
AcDbCircle
 10
3.5372761546
 20
8.0644203582
 30
0.0
 40
0.0984251968503944
  0
LINE
  5
2C9
330
1F
100
AcDbEntity
  8
0
  6
HIDDEN
 62
     7
370
     0
100
AcDbLine
 10
3.586488753
 20
8.0360074512
 30
0.0
 11
3.5372761546
 21
8.0075945443
 31
0.0
  0
LINE
  5
2CA
330
1F
100
AcDbEntity
  8
0
  6
HIDDEN
 62
     7
370
     0
100
AcDbLine
 10
3.5372761546
 20
8.0075945443
 30
0.0
 11
3.4880635561
 21
8.0360074512
 31
0.0
  0
LINE
  5
2CB
330
1F
100
AcDbEntity
  8
0
  6
HIDDEN
 62
     7
370
     0
100
AcDbLine
 10
3.586488753
 20
8.0928332651
 30
0.0
 11
3.586488753
 21
8.0360074512
 31
0.0
  0
LINE
  5
2CC
330
1F
100
AcDbEntity
  8
0
  6
HIDDEN
 62
     7
370
     0
100
AcDbLine
 10
3.4880635561
 20
8.0360074512
 30
0.0
 11
3.4880635561
 21
8.0928332651
 31
0.0
  0
LINE
  5
2CD
330
1F
100
AcDbEntity
  8
0
  6
HIDDEN
 62
     7
370
     0
100
AcDbLine
 10
3.4880635561
 20
8.0928332651
 30
0.0
 11
3.5372761546
 21
8.121246172
 31
0.0
  0
LINE
  5
2CE
330
1F
100
AcDbEntity
  8
0
  6
HIDDEN
 62
     7
370
     0
100
AcDbLine
 10
3.5372761546
 20
8.121246172
 30
0.0
 11
3.586488753
 21
8.0928332651
 31
0.0
  0
CIRCLE
  5
2CF
330
1F
100
AcDbEntity
  8
0
  6
HIDDEN
 62
     7
370
     0
100
AcDbCircle
 10
3.5372761546
 20
8.0644203582
 30
0.0
 40
0.0909251968503941
  0
CIRCLE
  5
2D0
330
1F
100
AcDbEntity
  8
0
  6
HIDDEN
 62
     7
370
     0
100
AcDbCircle
 10
3.5372761546
 20
7.7869403582
 30
0.0
 40
0.059055118110237
  0
CIRCLE
  5
2D1
330
1F
100
AcDbEntity
  8
0
  6
HIDDEN
 62
     7
370
     0
100
AcDbCircle
 10
3.5372761546
 20
7.7869403582
 30
0.0
 40
0.0515551181102376
  0
CIRCLE
  5
2D2
330
1F
100
AcDbEntity
  8
0
  6
HIDDEN
 62
     7
370
     0
100
AcDbCircle
 10
3.5372761546
 20
8.3419003582
 30
0.0
 40
0.059055118110237
  0
CIRCLE
  5
2D3
330
1F
100
AcDbEntity
  8
0
  6
HIDDEN
 62
     7
370
     0
100
AcDbCircle
 10
3.5372761546
 20
8.3419003582
 30
0.0
 40
0.0515551181102367
  0
LINE
  5
2D4
330
1F
100
AcDbEntity
  8
0
  6
HIDDEN
 62
     7
370
     0
100
AcDbLine
 10
3.9935279444
 20
7.9667628582
 30
0.0
 11
4.0560261546
 21
7.9667628582
 31
0.0
  0
LINE
  5
2D5
330
1F
100
AcDbEntity
  8
0
  6
HIDDEN
 62
     7
370
     0
100
AcDbLine
 10
4.0560261546
 20
8.1620778582
 30
0.0
 11
3.9935390905
 21
8.1620778582
 31
0.0
  0
LINE
  5
2D6
330
1F
100
AcDbEntity
  8
0
  6
HIDDEN
 62
     7
370
     0
100
AcDbLine
 10
5.49693409
 20
8.1620778582
 30
0.0
 11
5.4011983754
 21
8.1620778582
 31
0.0
  0
LINE
  5
2D7
330
1F
100
AcDbEntity
  8
0
  6
HIDDEN
 62
     7
370
     0
100
AcDbLine
 10
5.4011983754
 20
7.9667628582
 30
0.0
 11
5.4969511869
 21
7.9667628582
 31
0.0
  0
LINE
  5
2D8
330
1F
100
AcDbEntity
  8
0
  6
HIDDEN
 62
     7
370
     0
100
AcDbLine
 10
5.3222761546
 20
8.0631703582
 30
0.0
 11
5.3222761546
 21
8.0656703582
 31
0.0
  0
LINE
  5
2D9
330
1F
100
AcDbEntity
  8
0
  6
HIDDEN
 62
     7
370
     0
100
AcDbLine
 10
3.8522761546
 20
8.0656703582
 30
0.0
 11
3.8522761546
 21
8.0631703582
 31
0.0
  0
LINE
  5
2DA
330
1F
100
AcDbEntity
  8
0
  6
HIDDEN
 62
     7
370
     0
100
AcDbLine
 10
4.3390261546
 20
7.2419203582
 30
0.0
 11
4.3390261546
 21
8.0631703582
 31
0.0
  0
LINE
  5
2DB
330
1F
100
AcDbEntity
  8
0
  6
HIDDEN
 62
     7
370
     0
100
AcDbLine
 10
4.2105261546
 20
8.0631703582
 30
0.0
 11
4.2105261546
 21
7.2419203582
 31
0.0
  0
LINE
  5
2DC
330
1F
100
AcDbEntity
  8
0
  6
HIDDEN
 62
     7
370
     0
100
AcDbLine
 10
4.9640261546
 20
7.2419203582
 30
0.0
 11
4.9640261546
 21
8.0631703582
 31
0.0
  0
LINE
  5
2DD
330
1F
100
AcDbEntity
  8
0
  6
HIDDEN
 62
     7
370
     0
100
AcDbLine
 10
4.8355261546
 20
8.0631703582
 30
0.0
 11
4.8355261546
 21
7.2419203582
 31
0.0
  0
LINE
  5
2DE
330
1F
100
AcDbEntity
  8
0
  6
HIDDEN
 62
     7
370
     0
100
AcDbLine
 10
4.3390261546
 20
8.0656703582
 30
0.0
 11
4.3390261546
 21
8.8869203582
 31
0.0
  0
LINE
  5
2DF
330
1F
100
AcDbEntity
  8
0
  6
HIDDEN
 62
     7
370
     0
100
AcDbLine
 10
4.2105261546
 20
8.8869203582
 30
0.0
 11
4.2105261546
 21
8.0656703582
 31
0.0
  0
LINE
  5
2E0
330
1F
100
AcDbEntity
  8
0
  6
HIDDEN
 62
     7
370
     0
100
AcDbLine
 10
4.9640261546
 20
8.0656703582
 30
0.0
 11
4.9640261546
 21
8.8869203582
 31
0.0
  0
LINE
  5
2E1
330
1F
100
AcDbEntity
  8
0
  6
HIDDEN
 62
     7
370
     0
100
AcDbLine
 10
4.8355261546
 20
8.8869203582
 30
0.0
 11
4.8355261546
 21
8.0656703582
 31
0.0
  0
LINE
  5
2E2
330
1F
100
AcDbEntity
  8
0
  6
HIDDEN
 62
     7
370
     0
100
AcDbLine
 10
4.8997761546
 20
7.2419203582
 30
0.0
 11
4.8997761546
 21
8.0631703582
 31
0.0
  0
LINE
  5
2E3
330
1F
100
AcDbEntity
  8
0
  6
HIDDEN
 62
     7
370
     0
100
AcDbLine
 10
4.2747761546
 20
8.0631703582
 30
0.0
 11
4.2747761546
 21
7.2419203582
 31
0.0
  0
LINE
  5
2E4
330
1F
100
AcDbEntity
  8
0
  6
HIDDEN
 62
     7
370
     0
100
AcDbLine
 10
4.8997761546
 20
8.0656703582
 30
0.0
 11
4.8997761546
 21
8.8869203582
 31
0.0
  0
LINE
  5
2E5
330
1F
100
AcDbEntity
  8
0
  6
HIDDEN
 62
     7
370
     0
100
AcDbLine
 10
4.2747761546
 20
8.8869203582
 30
0.0
 11
4.2747761546
 21
8.0656703582
 31
0.0
  0
LINE
  5
2E6
330
1F
100
AcDbEntity
  8
0
  6
HIDDEN
 62
     7
370
     0
100
AcDbLine
 10
5.2765261546
 20
7.2419203582
 30
0.0
 11
5.2765261546
 21
8.0631703582
 31
0.0
  0
LINE
  5
2E7
330
1F
100
AcDbEntity
  8
0
  6
HIDDEN
 62
     7
370
     0
100
AcDbLine
 10
5.1480261546
 20
8.0631703582
 30
0.0
 11
5.1480261546
 21
7.2419203582
 31
0.0
  0
LINE
  5
2E8
330
1F
100
AcDbEntity
  8
0
  6
HIDDEN
 62
     7
370
     0
100
AcDbLine
 10
4.0265261546
 20
7.2419203582
 30
0.0
 11
4.0265261546
 21
8.0631703582
 31
0.0
  0
LINE
  5
2E9
330
1F
100
AcDbEntity
  8
0
  6
HIDDEN
 62
     7
370
     0
100
AcDbLine
 10
3.8980261546
 20
8.0631703582
 30
0.0
 11
3.8980261546
 21
7.2419203582
 31
0.0
  0
LINE
  5
2EA
330
1F
100
AcDbEntity
  8
0
  6
HIDDEN
 62
     7
370
     0
100
AcDbLine
 10
5.2765261546
 20
8.0656703582
 30
0.0
 11
5.2765261546
 21
8.8869203582
 31
0.0
  0
LINE
  5
2EB
330
1F
100
AcDbEntity
  8
0
  6
HIDDEN
 62
     7
370
     0
100
AcDbLine
 10
5.1480261546
 20
8.8869203582
 30
0.0
 11
5.1480261546
 21
8.0656703582
 31
0.0
  0
LINE
  5
2EC
330
1F
100
AcDbEntity
  8
0
  6
HIDDEN
 62
     7
370
     0
100
AcDbLine
 10
4.0265261546
 20
8.0656703582
 30
0.0
 11
4.0265261546
 21
8.8869203582
 31
0.0
  0
LINE
  5
2ED
330
1F
100
AcDbEntity
  8
0
  6
HIDDEN
 62
     7
370
     0
100
AcDbLine
 10
3.8980261546
 20
8.8869203582
 30
0.0
 11
3.8980261546
 21
8.0656703582
 31
0.0
  0
INSERT
  5
2F9
330
1F
100
AcDbEntity
  8
0
  6
Continuous
 62
     7
370
     0
100
AcDbBlockReference
  2
SW_CENTERMARKSYMBOL_7
 10
3.5372761546
 20
8.0644203582
 30
0.0
  0
INSERT
  5
305
330
1F
100
AcDbEntity
  8
0
  6
Continuous
 62
     7
370
     0
100
AcDbBlockReference
  2
SW_CENTERMARKSYMBOL_8
 10
3.5372761546
 20
8.3419006731
 30
0.0
  0
INSERT
  5
311
330
1F
100
AcDbEntity
  8
0
  6
Continuous
 62
     7
370
     0
100
AcDbBlockReference
  2
SW_CENTERMARKSYMBOL_9
 10
3.5372761546
 20
7.7869400432
 30
0.0
  0
LINE
  5
312
330
1F
100
AcDbEntity
  8
0
  6
HIDDEN
 62
     7
370
     0
100
AcDbLine
 10
4.8216511546
 20
7.2419203582
 30
0.0
 11
4.8216511546
 21
8.0631703582
 31
0.0
  0
LINE
  5
313
330
1F
100
AcDbEntity
  8
0
  6
HIDDEN
 62
     7
370
     0
100
AcDbLine
 10
4.8216511546
 20
8.0656703582
 30
0.0
 11
4.8216511546
 21
8.8869203582
 31
0.0
  0
LINE
  5
314
330
1F
100
AcDbEntity
  8
0
  6
HIDDEN
 62
     7
370
     0
100
AcDbLine
 10
4.9779011546
 20
7.2419203582
 30
0.0
 11
4.9779011546
 21
8.0631703582
 31
0.0
  0
LINE
  5
315
330
1F
100
AcDbEntity
  8
0
  6
HIDDEN
 62
     7
370
     0
100
AcDbLine
 10
4.9779011546
 20
8.0656703582
 30
0.0
 11
4.9779011546
 21
8.8869203582
 31
0.0
  0
LINE
  5
316
330
1F
100
AcDbEntity
  8
0
  6
HIDDEN
 62
     7
370
     0
100
AcDbLine
 10
3.8841511546
 20
7.2419203582
 30
0.0
 11
3.8841511546
 21
8.0631703582
 31
0.0
  0
LINE
  5
317
330
1F
100
AcDbEntity
  8
0
  6
HIDDEN
 62
     7
370
     0
100
AcDbLine
 10
3.8841511546
 20
8.0656703582
 30
0.0
 11
3.8841511546
 21
8.8869203582
 31
0.0
  0
LINE
  5
318
330
1F
100
AcDbEntity
  8
0
  6
HIDDEN
 62
     7
370
     0
100
AcDbLine
 10
4.0404011546
 20
7.2419203582
 30
0.0
 11
4.0404011546
 21
8.0631703582
 31
0.0
  0
LINE
  5
319
330
1F
100
AcDbEntity
  8
0
  6
HIDDEN
 62
     7
370
     0
100
AcDbLine
 10
4.0404011546
 20
8.0656703582
 30
0.0
 11
4.0404011546
 21
8.8869203582
 31
0.0
  0
LINE
  5
31A
330
1F
100
AcDbEntity
  8
0
  6
HIDDEN
 62
     7
370
     0
100
AcDbLine
 10
4.8216511546
 20
7.2419203582
 30
0.0
 11
4.8216511546
 21
8.0631703582
 31
0.0
  0
LINE
  5
31B
330
1F
100
AcDbEntity
  8
0
  6
HIDDEN
 62
     7
370
     0
100
AcDbLine
 10
4.8216511546
 20
8.0656703582
 30
0.0
 11
4.8216511546
 21
8.8869203582
 31
0.0
  0
LINE
  5
31C
330
1F
100
AcDbEntity
  8
0
  6
HIDDEN
 62
     7
370
     0
100
AcDbLine
 10
4.9779011546
 20
7.2419203582
 30
0.0
 11
4.9779011546
 21
8.0631703582
 31
0.0
  0
LINE
  5
31D
330
1F
100
AcDbEntity
  8
0
  6
HIDDEN
 62
     7
370
     0
100
AcDbLine
 10
4.9779011546
 20
8.0656703582
 30
0.0
 11
4.9779011546
 21
8.8869203582
 31
0.0
  0
LINE
  5
31E
330
1F
100
AcDbEntity
  8
0
  6
HIDDEN
 62
     7
370
     0
100
AcDbLine
 10
4.1966511546
 20
7.2419203582
 30
0.0
 11
4.1966511546
 21
8.0631703582
 31
0.0
  0
LINE
  5
31F
330
1F
100
AcDbEntity
  8
0
  6
HIDDEN
 62
     7
370
     0
100
AcDbLine
 10
4.1966511546
 20
8.0656703582
 30
0.0
 11
4.1966511546
 21
8.8869203582
 31
0.0
  0
LINE
  5
320
330
1F
100
AcDbEntity
  8
0
  6
HIDDEN
 62
     7
370
     0
100
AcDbLine
 10
4.3529011546
 20
7.2419203582
 30
0.0
 11
4.3529011546
 21
8.0631703582
 31
0.0
  0
LINE
  5
321
330
1F
100
AcDbEntity
  8
0
  6
HIDDEN
 62
     7
370
     0
100
AcDbLine
 10
4.3529011546
 20
8.0656703582
 30
0.0
 11
4.3529011546
 21
8.8869203582
 31
0.0
  0
LINE
  5
322
330
1F
100
AcDbEntity
  8
0
  6
HIDDEN
 62
     7
370
     0
100
AcDbLine
 10
4.1966511546
 20
7.2419203582
 30
0.0
 11
4.1966511546
 21
8.0631703582
 31
0.0
  0
LINE
  5
323
330
1F
100
AcDbEntity
  8
0
  6
HIDDEN
 62
     7
370
     0
100
AcDbLine
 10
4.1966511546
 20
8.0656703582
 30
0.0
 11
4.1966511546
 21
8.8869203582
 31
0.0
  0
LINE
  5
324
330
1F
100
AcDbEntity
  8
0
  6
HIDDEN
 62
     7
370
     0
100
AcDbLine
 10
4.3529011546
 20
7.2419203582
 30
0.0
 11
4.3529011546
 21
8.0631703582
 31
0.0
  0
LINE
  5
325
330
1F
100
AcDbEntity
  8
0
  6
HIDDEN
 62
     7
370
     0
100
AcDbLine
 10
4.3529011546
 20
8.0656703582
 30
0.0
 11
4.3529011546
 21
8.8869203582
 31
0.0
  0
LINE
  5
326
330
1F
100
AcDbEntity
  8
0
  6
HIDDEN
 62
     7
370
     0
100
AcDbLine
 10
5.1341511546
 20
7.2419203582
 30
0.0
 11
5.1341511546
 21
8.0631703582
 31
0.0
  0
LINE
  5
327
330
1F
100
AcDbEntity
  8
0
  6
HIDDEN
 62
     7
370
     0
100
AcDbLine
 10
5.1341511546
 20
8.0656703582
 30
0.0
 11
5.1341511546
 21
8.8869203582
 31
0.0
  0
LINE
  5
328
330
1F
100
AcDbEntity
  8
0
  6
HIDDEN
 62
     7
370
     0
100
AcDbLine
 10
5.2904011546
 20
7.2419203582
 30
0.0
 11
5.2904011546
 21
8.0631703582
 31
0.0
  0
LINE
  5
329
330
1F
100
AcDbEntity
  8
0
  6
HIDDEN
 62
     7
370
     0
100
AcDbLine
 10
5.2904011546
 20
8.0656703582
 30
0.0
 11
5.2904011546
 21
8.8869203582
 31
0.0
  0
CIRCLE
  5
32A
330
1F
100
AcDbEntity
  8
0
  6
HIDDEN
 62
     7
370
     0
100
AcDbCircle
 10
4.5872761546
 20
7.3956703582
 30
0.0
 40
0.09375
  0
CIRCLE
  5
32B
330
1F
100
AcDbEntity
  8
0
  6
HIDDEN
 62
     7
370
     0
100
AcDbCircle
 10
4.5872761546
 20
8.7331703582
 30
0.0
 40
0.09375
  0
LINE
  5
32C
330
1F
100
AcDbEntity
  8
0
  6
Continuous
 62
     7
370
    15
100
AcDbLine
 10
12.3157699391
 20
9.3749108304
 30
0.0
 11
12.3157699391
 21
9.3545006276
 31
0.0
  0
LINE
  5
32D
330
1F
100
AcDbEntity
  8
0
  6
Continuous
 62
     7
370
    15
100
AcDbLine
 10
13.1376479722
 20
7.930811857
 30
0.0
 11
13.1553227687
 21
7.920605097
 31
0.0
  0
LINE
  5
32E
330
1F
100
AcDbEntity
  8
0
  6
Continuous
 62
     7
370
    15
100
AcDbLine
 10
13.7491609893
 20
7.8617354899
 30
0.0
 11
14.4421256348
 21
8.2617754647
 31
0.0
  0
LINE
  5
32F
330
1F
100
AcDbEntity
  8
0
  6
Continuous
 62
     7
370
    15
100
AcDbLine
 10
13.2547221398
 20
10.3186415129
 30
0.0
 11
12.5617574943
 21
9.9186015381
 31
0.0
  0
LINE
  5
330
330
1F
100
AcDbEntity
  8
0
  6
Continuous
 62
     7
370
    15
100
AcDbLine
 10
13.2878163713
 20
8.1178947516
 30
0.0
 11
13.5052517065
 21
8.2434174988
 31
0.0
  0
LINE
  5
331
330
1F
100
AcDbEntity
  8
0
  6
Continuous
 62
     7
370
    15
100
AcDbLine
 10
12.770311438
 20
9.5165093265
 30
0.0
 11
12.5528761028
 21
9.3909865793
 31
0.0
  0
LINE
  5
332
330
1F
100
AcDbEntity
  8
0
  6
Continuous
 62
     7
370
    15
100
AcDbLine
 10
14.68811319
 20
8.8054661724
 30
0.0
 11
14.68811319
 21
8.8258763752
 31
0.0
  0
LINE
  5
333
330
1F
100
AcDbEntity
  8
0
  6
Continuous
 62
     7
370
    15
100
AcDbLine
 10
13.8662351569
 20
10.2495651458
 30
0.0
 11
13.8485603605
 21
10.2597719059
 31
0.0
  0
LWPOLYLINE
  5
334
330
1F
100
AcDbEntity
  8
0
  6
Continuous
 62
     7
370
    15
100
AcDbPolyline
 90
       49
 70
   128
 43
0.0
 10
13.1377815723
 20
9.8291921064
 10
13.0992520272
 20
9.850391434
 10
13.0608071785
 20
9.8694575501
 10
13.0225315362
 20
9.8863485434
 10
12.9845092385
 20
9.9010272838
 10
12.9468238667
 20
9.9134615042
 10
12.9095582613
 20
9.9236238714
 10
12.8727943403
 20
9.9314920465
 10
12.8366129187
 20
9.9370487334
 10
12.8010935312
 20
9.9402817174
 10
12.7663142571
 20
9.9411838916
 10
12.7323515488
 20
9.9397532729
 10
12.6992800636
 20
9.9359930061
 10
12.6671725
 20
9.929911357
 10
12.6360994372
 20
9.9215216945
 10
12.6061291806
 20
9.9108424608
 10
12.5773276114
 20
9.8978971313
 10
12.5497580416
 20
9.8827141625
 10
12.5234810751
 20
9.86532693
 10
12.4985544745
 20
9.8457736545
 10
12.4750330337
 20
9.8240973186
 10
12.4529684581
 20
9.8003455714
 10
12.4324092503
 20
9.7745706245
 10
12.413400604
 20
9.7468291368
 10
12.3959843042
 20
9.7171820901
 10
12.3801986359
 20
9.6856946551
 10
12.3660782992
 20
9.6524360479
 10
12.3536543338
 20
9.6174793782
 10
12.3429540503
 20
9.5809014883
 10
12.3340009702
 20
9.5427827845
 10
12.3268147742
 20
9.5032070598
 10
12.3214112593
 20
9.4622613103
 10
12.3178023035
 20
9.4200355436
 10
12.3159958402
 20
9.3766225812
 10
12.3159958402
 20
9.3321178542
 10
12.3178023035
 20
9.2866191936
 10
12.3214112593
 20
9.2402266153
 10
12.3268147742
 20
9.1930421003
 10
12.3340009702
 20
9.1451693704
 10
12.3429540503
 20
9.0967136602
 10
12.3536543338
 20
9.047781486
 10
12.3660782992
 20
8.9984804112
 10
12.3801986359
 20
8.9489188103
 10
12.3959843042
 20
8.8992056305
 10
12.413400604
 20
8.8494501521
 10
12.4324092503
 20
8.7997617485
 10
12.4529684581
 20
8.7502496456
 10
12.4750330337
 20
8.7010226816
 10
12.4782040865
 20
8.6942352127
  0
LWPOLYLINE
  5
335
330
1F
100
AcDbEntity
  8
0
  6
Continuous
 62
     7
370
    15
100
AcDbPolyline
 90
       83
 70
   128
 43
0.0
 10
12.647102605
 20
8.4016626965
 10
12.6671725
 20
8.3733691375
 10
12.6992800636
 20
8.3302168845
 10
12.7323515488
 20
8.2882730936
 10
12.7663142571
 20
8.2476299666
 10
12.8010935312
 20
8.2083768456
 10
12.8366129187
 20
8.1706000177
 10
12.8727943403
 20
8.1343825245
 10
12.9095582613
 20
8.0998039799
 10
12.9468238667
 20
8.066940395
 10
12.9845092385
 20
8.0358640112
 10
13.0225315362
 20
8.0066431411
 10
13.0608071785
 20
7.9793420184
 10
13.0992520272
 20
7.954020657
 10
13.1377815723
 20
7.9307347188
 10
13.1763111173
 20
7.9095353912
 10
13.214755966
 20
7.8904692751
 10
13.2530316083
 20
7.8735782818
 10
13.291053906
 20
7.8588995414
 10
13.3287392778
 20
7.8464653211
 10
13.3660048832
 20
7.8363029538
 10
13.4027688042
 20
7.8284347787
 10
13.4389502258
 20
7.8228780918
 10
13.4744696133
 20
7.8196451079
 10
13.5092488874
 20
7.8187429336
 10
13.5432115957
 20
7.8201735523
 10
13.5762830809
 20
7.8239338192
 10
13.6083906445
 20
7.8300154682
 10
13.6394637073
 20
7.8384051308
 10
13.6694339639
 20
7.8490843644
 10
13.6982355331
 20
7.862029694
 10
13.7258051029
 20
7.8772126627
 10
13.7520820694
 20
7.8945998953
 10
13.77700867
 20
7.9141531707
 10
13.8005301108
 20
7.9358295066
 10
13.8225946864
 20
7.9595812538
 10
13.8431538942
 20
7.9853562007
 10
13.8621625405
 20
8.0130976884
 10
13.8795788403
 20
8.0427447351
 10
13.8953645086
 20
8.0742321702
 10
13.9094848453
 20
8.1074907774
 10
13.9219088107
 20
8.1424474471
 10
13.9326090942
 20
8.1790253369
 10
13.9415621743
 20
8.2171440408
 10
13.9487483703
 20
8.2567197655
 10
13.9541518852
 20
8.2976655149
 10
13.957760841
 20
8.3398912816
 10
13.9595673043
 20
8.383304244
 10
13.9595673043
 20
8.427808971
 10
13.957760841
 20
8.4733076317
 10
13.9541518852
 20
8.51970021
 10
13.9487483703
 20
8.566884725
 10
13.9415621743
 20
8.6147574549
 10
13.9326090942
 20
8.663213165
 10
13.9219088107
 20
8.7121453393
 10
13.9094848453
 20
8.7614464141
 10
13.8953645086
 20
8.811008015
 10
13.8795788403
 20
8.8607211948
 10
13.8621625405
 20
8.9104766731
 10
13.8431538942
 20
8.9601650767
 10
13.8225946864
 20
9.0096771797
 10
13.8005301108
 20
9.0589041436
 10
13.77700867
 20
9.107737757
 10
13.7520820694
 20
9.1560706729
 10
13.7258051029
 20
9.2037966452
 10
13.6982355331
 20
9.2508107617
 10
13.6694339639
 20
9.2970096752
 10
13.6394637073
 20
9.3422918306
 10
13.6083906445
 20
9.3865576878
 10
13.5762830809
 20
9.4297099408
 10
13.5432115957
 20
9.4716537316
 10
13.5092488874
 20
9.5122968587
 10
13.4744696133
 20
9.5515499796
 10
13.4389502258
 20
9.5893268075
 10
13.4027688042
 20
9.6255443007
 10
13.3660048832
 20
9.6601228454
 10
13.3287392778
 20
9.6929864302
 10
13.291053906
 20
9.724062814
 10
13.2530316083
 20
9.7532836842
 10
13.214755966
 20
9.7805848068
 10
13.1763111173
 20
9.8059061682
 10
13.1377815723
 20
9.8291921064
 10
13.1377815723
 20
9.8291921064
  0
LWPOLYLINE
  5
336
330
1F
100
AcDbEntity
  8
0
  6
Continuous
 62
     7
370
    15
100
AcDbPolyline
 90
       69
 70
   128
 43
0.0
 10
13.1554592418
 20
9.8598107281
 10
13.1945260487
 20
9.836207926
 10
13.2335082457
 20
9.8105562131
 10
13.2723214059
 20
9.7829111454
 10
13.3108814686
 20
9.753332596
 10
13.3491049215
 20
9.7218846254
 10
13.3869089809
 20
9.6886353429
 10
13.4242117717
 20
9.653656759
 10
13.4609325044
 20
9.6170246296
 10
13.49699165
 20
9.5788182917
 10
13.5323111124
 20
9.5391204918
 10
13.5668143977
 20
9.4980172063
 10
13.6004267792
 20
9.455597456
 10
13.6330754602
 20
9.4119531125
 10
13.6646897308
 20
9.3671786997
 10
13.6952011215
 20
9.3213711891
 10
13.7245435515
 20
9.2746297895
 10
13.7526534717
 20
9.2270557324
 10
13.7794700021
 20
9.1787520526
 10
13.8049350641
 20
9.1298233651
 10
13.8289935062
 20
9.0803756386
 10
13.851593223
 20
9.0305159658
 10
13.8726852686
 20
8.9803523316
 10
13.8922239623
 20
8.9299933794
 10
13.9101669878
 20
8.8795481754
 10
13.9264754843
 20
8.8291259727
 10
13.9411141313
 20
8.7788359746
 10
13.9540512247
 20
8.7287870979
 10
13.9652587458
 20
8.6790877375
 10
13.9747124215
 20
8.629845531
 10
13.9823917772
 20
8.5811671261
 10
13.9882801811
 20
8.5331579494
 10
13.9923648804
 20
8.4859219781
 10
13.9946370284
 20
8.4395615148
 10
13.9950917042
 20
8.3941769659
 10
13.993727923
 20
8.3498666243
 10
13.9905486386
 20
8.3067264562
 10
13.9855607364
 20
8.2648498937
 10
13.9787750193
 20
8.2243276321
 10
13.9702061836
 20
8.1852474336
 10
13.9598727873
 20
8.1476939372
 10
13.9477972105
 20
8.1117484753
 10
13.9340056061
 20
8.077488898
 10
13.9185278436
 20
8.0449894037
 10
13.9013974444
 20
8.0143203792
 10
13.8826515092
 20
7.9855482467
 10
13.8623306374
 20
7.9587353202
 10
13.8404788397
 20
7.9339396707
 10
13.817143442
 20
7.9112149999
 10
13.7923749836
 20
7.8906105244
 10
13.7662271076
 20
7.872170869
 10
13.7387564445
 20
7.8559359697
 10
13.7100224894
 20
7.8419409879
 10
13.6800874739
 20
7.8302162334
 10
13.6490162304
 20
7.8207870996
 10
13.6168760524
 20
7.8136740078
 10
13.5837365483
 20
7.8088923634
 10
13.549669491
 20
7.8064525223
 10
13.514748662
 20
7.8063597688
 10
13.4790496921
 20
7.8086143036
 10
13.4426498974
 20
7.8132112441
 10
13.4056281117
 20
7.8201406342
 10
13.3680645159
 20
7.8293874664
 10
13.3300404645
 20
7.8409317141
 10
13.2916383089
 20
7.8547483751
 10
13.2529412199
 20
7.8708075256
 10
13.2140330066
 20
7.8890743849
 10
13.1749979355
 20
7.9095093913
 10
13.1553227687
 20
7.920605097
  0
LWPOLYLINE
  5
337
330
1F
100
AcDbEntity
  8
0
  6
Continuous
 62
     7
370
    15
100
AcDbPolyline
 90
       35
 70
   128
 43
0.0
 10
12.3157699391
 20
9.3749108304
 10
12.3162814552
 20
9.4084555637
 10
12.3185536032
 20
9.4521926608
 10
12.3226383024
 20
9.4947125387
 10
12.3285267064
 20
9.5359231089
 10
12.3362060621
 20
9.5757351184
 10
12.3456597378
 20
9.6140623433
 10
12.3568672588
 20
9.6508217754
 10
12.3698043523
 20
9.6859338019
 10
12.3844429993
 20
9.7193223779
 10
12.4007514958
 20
9.7509151914
 10
12.4186945212
 20
9.7806438192
 10
12.438233215
 20
9.8084438757
 10
12.4593252606
 20
9.8342551524
 10
12.4819249774
 20
9.8580217475
 10
12.5059834195
 20
9.8796921881
 10
12.5314484815
 20
9.8992195408
 10
12.5582650119
 20
9.9165615137
 10
12.586374932
 20
9.9316805478
 10
12.615717362
 20
9.9445438988
 10
12.6462287528
 20
9.9551237075
 10
12.6778430234
 20
9.9633970604
 10
12.7104917043
 20
9.9693460393
 10
12.7441040859
 20
9.9729577599
 10
12.7786073711
 20
9.9742244002
 10
12.8139268336
 20
9.9731432168
 10
12.8499859792
 20
9.9697165513
 10
12.8867067119
 20
9.9639518252
 10
12.9240095027
 20
9.9558615236
 10
12.9618135621
 20
9.9454631681
 10
13.0000370149
 20
9.9327792795
 10
13.0385970777
 20
9.9178373281
 10
13.0774102379
 20
9.9006696749
 10
13.1163924348
 20
9.8813135012
 10
13.1554592418
 20
9.8598107281
  0
LWPOLYLINE
  5
338
330
1F
100
AcDbEntity
  8
0
  6
Continuous
 62
     7
370
    15
100
AcDbPolyline
 90
       70
 70
   128
 43
0.0
 10
14.4421256348
 20
8.2617754647
 10
14.4456181172
 20
8.2638154892
 10
14.4724346476
 20
8.281157462
 10
14.4978997097
 20
8.3006848147
 10
14.5219581517
 20
8.3223552553
 10
14.5445578685
 20
8.3461218505
 10
14.5656499141
 20
8.3719331271
 10
14.5851886079
 20
8.3997331837
 10
14.6031316333
 20
8.4294618115
 10
14.6194401298
 20
8.4610546249
 10
14.6340787768
 20
8.494443201
 10
14.6470158703
 20
8.5295552275
 10
14.6582233914
 20
8.5663146595
 10
14.667677067
 20
8.6046418844
 10
14.6753564227
 20
8.6444538939
 10
14.6812448267
 20
8.6856644641
 10
14.685329526
 20
8.728184342
 10
14.687601674
 20
8.7719214391
 10
14.6880563498
 20
8.8167810305
 10
14.6866925686
 20
8.8626659603
 10
14.6835132841
 20
8.9094768521
 10
14.678525382
 20
8.9571123238
 10
14.6717396649
 20
9.0054692076
 10
14.6631708291
 20
9.0544427734
 10
14.6528374329
 20
9.1039269551
 10
14.6407618561
 20
9.1538145812
 10
14.6269702516
 20
9.2039976061
 10
14.6114924891
 20
9.2543673446
 10
14.5943620899
 20
9.304814707
 10
14.5756161547
 20
9.3552304356
 10
14.555295283
 20
9.4055053411
 10
14.5334434852
 20
9.4555305394
 10
14.5101080875
 20
9.5051976868
 10
14.4853396292
 20
9.5543992156
 10
14.4591917532
 20
9.6030285661
 10
14.43172109
 20
9.6509804179
 10
14.402987135
 20
9.6981509181
 10
14.3730521194
 20
9.7444379058
 10
14.341980876
 20
9.7897411338
 10
14.3098406979
 20
9.8339624852
 10
14.2767011939
 20
9.8770061866
 10
14.2426341365
 20
9.9187790149
 10
14.2077133075
 20
9.9591904993
 10
14.1720143377
 20
9.9981531177
 10
14.135614543
 20
10.0355824857
 10
14.0985927573
 20
10.0713975396
 10
14.0610291615
 20
10.1055207119
 10
14.02300511
 20
10.1378780995
 10
13.9846029545
 20
10.1683996235
 10
13.9459058654
 20
10.197019181
 10
13.9069976521
 20
10.2236747886
 10
13.8679625811
 20
10.2483087159
 10
13.8288851936
 20
10.2708676116
 10
13.7898501225
 20
10.2913026179
 10
13.7509419092
 20
10.3095694773
 10
13.7122448202
 20
10.3256286277
 10
13.6738426647
 20
10.3394452887
 10
13.6358186132
 20
10.3509895365
 10
13.5982550174
 20
10.3602363687
 10
13.5612332317
 20
10.3671657587
 10
13.524833437
 20
10.3717626992
 10
13.4891344671
 20
10.3740172341
 10
13.4542136382
 20
10.3739244805
 10
13.4201465808
 20
10.3714846395
 10
13.3870070767
 20
10.366702995
 10
13.3548668987
 20
10.3595899032
 10
13.3237956553
 20
10.3501607694
 10
13.2938606397
 20
10.338436015
 10
13.2651266847
 20
10.3244410331
 10
13.2547221398
 20
10.3186415129
  0
SPLINE
  5
339
330
1F
100
AcDbEntity
  8
0
  6
Continuous
 62
     7
370
    15
100
AcDbSpline
210
0.0
220
0.0
230
1.0
 70
     8
 71
     3
 72
    76
 73
    72
 74
     0
 42
0.00000001
 43
0.00000001
 40
-0.0312499999999999
 40
-0.0312499999999999
 40
0.0
 40
0.0
 40
0.0312499999999999
 40
0.0312499999999999
 40
0.0468749999999999
 40
0.0468749999999999
 40
0.0624999999999998
 40
0.0624999999999998
 40
0.09375
 40
0.09375
 40
0.1250000000000001
 40
0.1250000000000001
 40
0.1562500000000002
 40
0.1562500000000002
 40
0.1875000000000004
 40
0.1875000000000004
 40
0.2187500000000005
 40
0.2187500000000005
 40
0.2500000000000006
 40
0.2500000000000006
 40
0.2812500000000008
 40
0.2812500000000008
 40
0.3125000000000009
 40
0.3125000000000009
 40
0.3437500000000011
 40
0.3437500000000011
 40
0.3750000000000012
 40
0.3750000000000012
 40
0.4062500000000014
 40
0.4062500000000014
 40
0.4218750000000014
 40
0.4218750000000014
 40
0.4375000000000015
 40
0.4375000000000015
 40
0.4687500000000015
 40
0.4687500000000015
 40
0.5000000000000014
 40
0.5000000000000014
 40
0.5312500000000013
 40
0.5312500000000013
 40
0.5625000000000013
 40
0.5625000000000013
 40
0.5937500000000012
 40
0.5937500000000012
 40
0.6250000000000011
 40
0.6250000000000011
 40
0.6562500000000012
 40
0.6562500000000012
 40
0.6875000000000011
 40
0.6875000000000011
 40
0.7187500000000011
 40
0.7187500000000011
 40
0.750000000000001
 40
0.750000000000001
 40
0.7812500000000009
 40
0.7812500000000009
 40
0.7968750000000007
 40
0.7968750000000007
 40
0.8125000000000004
 40
0.8125000000000004
 40
0.8437500000000003
 40
0.8437500000000003
 40
0.8750000000000002
 40
0.8750000000000002
 40
0.9062500000000002
 40
0.9062500000000002
 40
0.9375000000000001
 40
0.9375000000000001
 40
0.9687500000000001
 40
0.9687500000000001
 40
1.0
 40
1.0
 40
1.03125
 40
1.03125
 10
14.10317894893293
 20
8.066122963217932
 30
0.0
 10
14.09405070319297
 20
8.060853339119358
 30
0.0
 10
14.08987981642904
 20
8.058448663407452
 30
0.0
 10
14.08418655642841
 20
8.05517624950315
 30
0.0
 10
14.08238330203746
 20
8.0541416954358
 30
0.0
 10
14.07896907247983
 20
8.052189152849284
 30
0.0
 10
14.07735511885396
 20
8.051269528143427
 30
0.0
 10
14.07290690150136
 20
8.048749771045932
 30
0.0
 10
14.07042467683537
 20
8.047364476718817
 30
0.0
 10
14.06640396879885
 20
8.045198388119529
 30
0.0
 10
14.0648703770369
 20
8.044422035118071
 30
0.0
 10
14.0628809214978
 20
8.043577355062999
 30
0.0
 10
14.06239817445833
 20
8.04349377180338
 30
0.0
 10
14.06246613599672
 20
8.04404625045089
 30
0.0
 10
14.06302475509846
 20
8.044684064457511
 30
0.0
 10
14.06512124384804
 20
8.046652002128894
 30
0.0
 10
14.06667397750573
 20
8.047996291286786
 30
0.0
 10
14.07073918756846
 20
8.05138012329361
 30
0.0
 10
14.07320877914158
 20
8.053384904618413
 30
0.0
 10
14.07899638792319
 20
8.058009016699083
 30
0.0
 10
14.08235826069803
 20
8.060662309090393
 30
0.0
 10
14.08970524588981
 20
8.066396697417197
 30
0.0
 10
14.09369680355103
 20
8.06948367754627
 30
0.0
 10
14.1023291643348
 20
8.076086074270972
 30
0.0
 10
14.10696656649632
 20
8.079597698384145
 30
0.0
 10
14.11651027495303
 20
8.086729374712796
 30
0.0
 10
14.1214635744451
 20
8.090385767601948
 30
0.0
 10
14.13176510884433
 20
8.097862307089857
 30
0.0
 10
14.13694952146342
 20
8.10156309927412
 30
0.0
 10
14.14477071516001
 20
8.107030707237504
 30
0.0
 10
14.14738616821587
 20
8.108839932435636
 30
0.0
 10
14.15263617230318
 20
8.112428395732422
 30
0.0
 10
14.15527980443804
 20
8.114213460417629
 30
0.0
 10
14.16307300417451
 20
8.119405230017822
 30
0.0
 10
14.16813730015245
 20
8.122685284140967
 30
0.0
 10
14.17801546085986
 20
8.128872693498765
 30
0.0
 10
14.18285592279596
 20
8.131793035881758
 30
0.0
 10
14.19187253228739
 20
8.136999119191715
 30
0.0
 10
14.1961014452575
 20
8.139319363167278
 30
0.0
 10
14.20398480565316
 20
8.143386661306957
 30
0.0
 10
14.20757730901917
 20
8.145099366478359
 30
0.0
 10
14.21388081482507
 20
8.147822367459721
 30
0.0
 10
14.21664085893765
 20
8.148854563629943
 30
0.0
 10
14.2212205356908
 20
8.150217086827997
 30
0.0
 10
14.22300452622101
 20
8.15054004300319
 30
0.0
 10
14.22557282251674
 20
8.150513422282838
 30
0.0
 10
14.22635421195882
 20
8.150152892478818
 30
0.0
 10
14.22681379459938
 20
8.148790689472495
 30
0.0
 10
14.22650999251888
 20
8.1477965111841
 30
0.0
 10
14.22481490808007
 20
8.14519892120639
 30
0.0
 10
14.22340921175775
 20
8.14358896607649
 30
0.0
 10
14.21960708792447
 20
8.139905200845217
 30
0.0
 10
14.21720431566652
 20
8.13781825235858
 30
0.0
 10
14.21135257647312
 20
8.13313998026854
 30
0.0
 10
14.20798753278428
 20
8.130616438668174
 30
0.0
 10
14.20234011219903
 20
8.126585004442102
 30
0.0
 10
14.20035541952907
 20
8.125198566109752
 30
0.0
 10
14.19617830312453
 20
8.122337162350885
 30
0.0
 10
14.19397584255914
 20
8.120855762435864
 30
0.0
 10
14.18719301607491
 20
8.116366884826498
 30
0.0
 10
14.18240487431552
 20
8.113291294596262
 30
0.0
 10
14.17231557679084
 20
8.106955040800864
 30
0.0
 10
14.16697314481669
 20
8.103670501063409
 30
0.0
 10
14.15622639588008
 20
8.09716199141192
 30
0.0
 10
14.15077460526906
 20
8.093907513268551
 30
0.0
 10
14.13972599518099
 20
8.087372378500937
 30
0.0
 10
14.13420066140417
 20
8.084134273779297
 30
0.0
 10
14.12347497029513
 20
8.077878390639746
 30
0.0
 10
14.11820109198274
 20
8.074817536388915
 30
0.0
 10
14.10801034701215
 20
8.068915169166036
 30
0.0
 10
14.10317894893293
 20
8.066122963217932
 30
0.0
 10
14.09405070319297
 20
8.060853339119358
 30
0.0
  0
SPLINE
  5
33A
330
1F
100
AcDbEntity
  8
0
  6
Continuous
 62
     7
370
    15
100
AcDbSpline
210
0.0
220
0.0
230
1.0
 70
     8
 71
     3
 72
    76
 73
    72
 74
     0
 42
0.00000001
 43
0.00000001
 40
-0.0312499999999997
 40
-0.0312499999999997
 40
0.0
 40
0.0
 40
0.03125
 40
0.03125
 40
0.046875
 40
0.046875
 40
0.0625
 40
0.0625
 40
0.0937500000000001
 40
0.0937500000000001
 40
0.1250000000000001
 40
0.1250000000000001
 40
0.1562500000000001
 40
0.1562500000000001
 40
0.1875000000000002
 40
0.1875000000000002
 40
0.2187500000000002
 40
0.2187500000000002
 40
0.2500000000000002
 40
0.2500000000000002
 40
0.2812500000000002
 40
0.2812500000000002
 40
0.3125000000000003
 40
0.3125000000000003
 40
0.3437500000000003
 40
0.3437500000000003
 40
0.3750000000000003
 40
0.3750000000000003
 40
0.4062500000000003
 40
0.4062500000000003
 40
0.4218750000000003
 40
0.4218750000000003
 40
0.4375000000000003
 40
0.4375000000000003
 40
0.4687500000000005
 40
0.4687500000000005
 40
0.5000000000000007
 40
0.5000000000000007
 40
0.5312500000000009
 40
0.5312500000000009
 40
0.562500000000001
 40
0.562500000000001
 40
0.5937500000000012
 40
0.5937500000000012
 40
0.6250000000000014
 40
0.6250000000000014
 40
0.6562500000000017
 40
0.6562500000000017
 40
0.6875000000000018
 40
0.6875000000000018
 40
0.718750000000002
 40
0.718750000000002
 40
0.7500000000000022
 40
0.7500000000000022
 40
0.7812500000000024
 40
0.7812500000000024
 40
0.7968750000000023
 40
0.7968750000000023
 40
0.8125000000000021
 40
0.8125000000000021
 40
0.8437500000000018
 40
0.8437500000000018
 40
0.8750000000000014
 40
0.8750000000000014
 40
0.9062500000000011
 40
0.9062500000000011
 40
0.9375000000000007
 40
0.9375000000000007
 40
0.9687500000000003
 40
0.9687500000000003
 40
1.0
 40
1.0
 40
1.03125
 40
1.03125
 10
14.19195342071444
 20
9.257200155901424
 30
0.0
 10
14.18282517497448
 20
9.25193053180285
 30
0.0
 10
14.17807829655125
 20
9.249913762409479
 30
0.0
 10
14.17069274745689
 20
9.247776425088308
 30
0.0
 10
14.16818631779014
 20
9.247213033423575
 30
0.0
 10
14.16308127402932
 20
9.246390720219699
 30
0.0
 10
14.16047507607844
 20
9.24613321088079
 30
0.0
 10
14.15268431006277
 20
9.245837139462884
 30
0.0
 10
14.14747518945983
 20
9.2462583039008
 30
0.0
 10
14.13701239094554
 20
9.248321132993288
 30
0.0
 10
14.13173075589162
 20
9.249988047840084
 30
0.0
 10
14.12155438867155
 20
9.254420205416757
 30
0.0
 10
14.11660407709479
 20
9.257189419554146
 30
0.0
 10
14.10696899086272
 20
9.263856168537853
 30
0.0
 10
14.10236408195832
 20
9.267709208804234
 30
0.0
 10
14.0937796270862
 20
9.2762317807234
 30
0.0
 10
14.08973603521421
 20
9.280963914682378
 30
0.0
 10
14.08234098843115
 20
9.291176119527968
 30
0.0
 10
14.07904902829237
 20
9.296561103597808
 30
0.0
 10
14.07325227588936
 20
9.307873320718533
 30
0.0
 10
14.07073050077029
 20
9.313867900086208
 30
0.0
 10
14.06669009639513
 20
9.325965059920756
 30
0.0
 10
14.06514668050025
 20
9.332092738300844
 30
0.0
 10
14.06302814365283
 20
9.34451113795876
 30
0.0
 10
14.06246961954264
 20
9.350786169292398
 30
0.0
 10
14.06239540442197
 20
9.362962333822907
 30
0.0
 10
14.06286500664133
 20
9.368933258757748
 30
0.0
 10
14.06487526390087
 20
9.380638799651193
 30
0.0
 10
14.06638478400626
 20
9.386186660332458
 30
0.0
 10
14.06938295432735
 20
9.394056989893645
 30
0.0
 10
14.07050572704497
 20
9.39660567563314
 30
0.0
 10
14.07300548007814
 20
9.40155098640744
 30
0.0
 10
14.07438884515543
 20
9.403954734141141
 30
0.0
 10
14.07883839310343
 20
9.410782583325494
 30
0.0
 10
14.08222218189523
 20
9.41487737445217
 30
0.0
 10
14.08982593560274
 20
9.42216527926442
 30
0.0
 10
14.0940835603647
 20
9.425366035271832
 30
0.0
 10
14.10309596285422
 20
9.430574146355307
 30
0.0
 10
14.10788465753907
 20
9.432625102579639
 30
0.0
 10
14.11803641658483
 20
9.435594886634577
 30
0.0
 10
14.12333175080285
 20
9.436482003556598
 30
0.0
 10
14.13405473347633
 20
9.43704265838952
 30
0.0
 10
14.13956247904411
 20
9.436722878750205
 30
0.0
 10
14.15062755701206
 20
9.434854909564898
 30
0.0
 10
14.15608266764638
 20
9.43333246684813
 30
0.0
 10
14.16682740504105
 20
9.429136203549252
 30
0.0
 10
14.17217028223075
 20
9.426421785053641
 30
0.0
 10
14.18227552212252
 20
9.4200011191393
 30
0.0
 10
14.18706672387838
 20
9.41629766209976
 30
0.0
 10
14.19611009305101
 20
9.407892509196497
 30
0.0
 10
14.20034702696835
 20
9.40318320368361
 30
0.0
 10
14.20789337206373
 20
9.393159221643451
 30
0.0
 10
14.2112564950425
 20
9.387799311105047
 30
0.0
 10
14.21712715021242
 20
9.37635493103974
 30
0.0
 10
14.21954652724708
 20
9.370437339204255
 30
0.0
 10
14.22241131854564
 20
9.361334961697505
 30
0.0
 10
14.22323951318158
 20
9.358259890374606
 30
0.0
 10
14.22463814215368
 20
9.352026511562228
 30
0.0
 10
14.22520918932878
 20
9.348855129109403
 30
0.0
 10
14.22649737345296
 20
9.339413919385775
 30
0.0
 10
14.2268100085771
 20
9.33316213743651
 30
0.0
 10
14.22637022925357
 20
9.320746633405127
 30
0.0
 10
14.22559882753435
 20
9.314543957826732
 30
0.0
 10
14.22304747759329
 20
9.30275352374374
 30
0.0
 10
14.22127233122155
 20
9.297102623850664
 30
0.0
 10
14.21671735025641
 20
9.286305332889398
 30
0.0
 10
14.21395793659661
 20
9.28123496477388
 30
0.0
 10
14.20766993212235
 20
9.27202697934755
 30
0.0
 10
14.20410269331322
 20
9.267823205727248
 30
0.0
 10
14.19620875998352
 20
9.260380338145465
 30
0.0
 10
14.19195342071444
 20
9.257200155901424
 30
0.0
 10
14.18282517497448
 20
9.25193053180285
 30
0.0
  0
SPLINE
  5
33B
330
1F
100
AcDbEntity
  8
0
  6
Continuous
 62
     7
370
    15
100
AcDbSpline
210
0.0
220
0.0
230
1.0
 70
     8
 71
     3
 72
    76
 73
    72
 74
     0
 42
0.00000001
 43
0.00000001
 40
-0.0312500000000001
 40
-0.0312500000000001
 40
0.0
 40
0.0
 40
0.0312499999999996
 40
0.0312499999999996
 40
0.0468749999999994
 40
0.0468749999999994
 40
0.0624999999999992
 40
0.0624999999999992
 40
0.0937499999999989
 40
0.0937499999999989
 40
0.1249999999999986
 40
0.1249999999999986
 40
0.1562499999999983
 40
0.1562499999999983
 40
0.187499999999998
 40
0.187499999999998
 40
0.2187499999999977
 40
0.2187499999999977
 40
0.2499999999999974
 40
0.2499999999999974
 40
0.2812499999999971
 40
0.2812499999999971
 40
0.3124999999999971
 40
0.3124999999999971
 40
0.3437499999999971
 40
0.3437499999999971
 40
0.3749999999999971
 40
0.3749999999999971
 40
0.4062499999999972
 40
0.4062499999999972
 40
0.4218749999999973
 40
0.4218749999999973
 40
0.4374999999999975
 40
0.4374999999999975
 40
0.4687499999999977
 40
0.4687499999999977
 40
0.4999999999999978
 40
0.4999999999999978
 40
0.5312499999999979
 40
0.5312499999999979
 40
0.562499999999998
 40
0.562499999999998
 40
0.5937499999999982
 40
0.5937499999999982
 40
0.6249999999999983
 40
0.6249999999999983
 40
0.6562499999999984
 40
0.6562499999999984
 40
0.6874999999999986
 40
0.6874999999999986
 40
0.7187499999999987
 40
0.7187499999999987
 40
0.7499999999999988
 40
0.7499999999999988
 40
0.781249999999999
 40
0.781249999999999
 40
0.7968749999999991
 40
0.7968749999999991
 40
0.8124999999999992
 40
0.8124999999999992
 40
0.8437499999999993
 40
0.8437499999999993
 40
0.8749999999999994
 40
0.8749999999999994
 40
0.9062499999999996
 40
0.9062499999999996
 40
0.9374999999999998
 40
0.9374999999999998
 40
0.9687499999999999
 40
0.9687499999999999
 40
1.0
 40
1.0
 40
1.03125
 40
1.03125
 10
13.14788592547145
 20
10.1766111419883
 30
0.0
 10
13.1387576797315
 20
10.17134151788972
 30
0.0
 10
13.13386354066796
 20
10.16876435018949
 30
0.0
 10
13.12604926428435
 20
10.16497746799202
 30
0.0
 10
13.12336510165436
 20
10.16372834136173
 30
0.0
 10
13.11783499439338
 20
10.16125535163842
 30
0.0
 10
13.11498033380134
 20
10.16002838462583
 30
0.0
 10
13.10635834793048
 20
10.15646201952625
 30
0.0
 10
13.10047763435449
 20
10.15421013740817
 30
0.0
 10
13.08846125792449
 20
10.14993231285299
 30
0.0
 10
13.0822903597129
 20
10.14789878649668
 30
0.0
 10
13.07022275712514
 20
10.14420803083311
 30
0.0
 10
13.0642632203646
 20
10.14252678835827
 30
0.0
 10
13.05250587314497
 20
10.13947324627144
 30
0.0
 10
13.04680443825726
 20
10.13812793255794
 30
0.0
 10
13.03603380184038
 20
10.13583347084772
 30
0.0
 10
13.03088439308123
 20
10.1348670176307
 30
0.0
 10
13.02131806253797
 20
10.13333675021656
 30
0.0
 10
13.0169794563934
 20
10.13278319990649
 30
0.0
 10
13.00917059277562
 20
10.13208312443886
 30
0.0
 10
13.0056742689707
 20
10.13193970117397
 30
0.0
 10
12.99983643501946
 20
10.13208788717787
 30
0.0
 10
12.99746370518656
 20
10.13237299615692
 30
0.0
 10
12.99381120071668
 20
10.1333830195101
 30
0.0
 10
12.99255179652961
 20
10.13411274608407
 30
0.0
 10
12.99124052750742
 20
10.13597717282833
 30
0.0
 10
12.99116509036613
 20
10.13711623989274
 30
0.0
 10
12.99221098912628
 20
10.13985268950706
 30
0.0
 10
12.99331638682207
 20
10.14140703576069
 30
0.0
 10
12.99580244273806
 20
10.14402191019294
 30
0.0
 10
12.99677026790715
 20
10.14494131214075
 30
0.0
 10
12.99898930922226
 20
10.1468809501021
 30
0.0
 10
13.00024666403498
 20
10.14790533932235
 30
0.0
 10
13.00436646726831
 20
10.1510699975822
 30
0.0
 10
13.00759096691118
 20
10.15331865381438
 30
0.0
 10
13.01498099170547
 20
10.15810654257579
 30
0.0
 10
13.01918520949638
 20
10.16066558271359
 30
0.0
 10
13.02819722332453
 20
10.16586906426972
 30
0.0
 10
13.0330371838014
 20
10.16853637411268
 30
0.0
 10
13.04340204389664
 20
10.17399961926568
 30
0.0
 10
13.04885880743909
 20
10.17675737603248
 30
0.0
 10
13.06001750742226
 20
10.18215995533807
 30
0.0
 10
13.06580262253602
 20
10.1848454688244
 30
0.0
 10
13.07755599694026
 20
10.19004463989171
 30
0.0
 10
13.08341500828289
 20
10.19251146128855
 30
0.0
 10
13.09511007709649
 20
10.19716058894645
 30
0.0
 10
13.10100676794126
 20
10.1993623917783
 30
0.0
 10
13.11235214162882
 20
10.20328357842251
 30
0.0
 10
13.11783022301936
 20
10.20501801979452
 30
0.0
 10
13.12840432759383
 20
10.20800917567522
 30
0.0
 10
13.13348628773082
 20
10.20925640555564
 30
0.0
 10
13.1428232303121
 20
10.21114109509799
 30
0.0
 10
13.1471401578627
 20
10.21179731226766
 30
0.0
 10
13.15504545907609
 20
10.21250948181622
 30
0.0
 10
13.15851600376762
 20
10.212553709068
 30
0.0
 10
13.162992773871
 20
10.21217375684914
 30
0.0
 10
13.16436467367048
 20
10.2119724316495
 30
0.0
 10
13.16686214384876
 20
10.21141895552987
 30
0.0
 10
13.16799059642105
 20
10.21106444505903
 30
0.0
 10
13.17093020521301
 20
10.20979751466289
 30
0.0
 10
13.17232607404877
 20
10.20868088614244
 30
0.0
 10
13.17399574836089
 20
10.20593290693778
 30
0.0
 10
13.17425632190217
 20
10.20428424389342
 30
0.0
 10
13.17359784076453
 20
10.20062539952616
 30
0.0
 10
13.17269475929276
 20
10.19860465011823
 30
0.0
 10
13.16970527866747
 20
10.19419913557951
 30
0.0
 10
13.16762702868754
 20
10.19184009908329
 30
0.0
 10
13.16244246018563
 20
10.18697396657867
 30
0.0
 10
13.15930606404264
 20
10.18443491289188
 30
0.0
 10
13.15199396582128
 20
10.17923087707812
 30
0.0
 10
13.14788592547145
 20
10.1766111419883
 30
0.0
 10
13.1387576797315
 20
10.17134151788972
 30
0.0
  0
LWPOLYLINE
  5
33C
330
1F
100
AcDbEntity
  8
0
  6
Continuous
 62
     7
370
    15
100
AcDbPolyline
 90
       55
 70
   128
 43
0.0
 10
13.5052517065
 20
8.2434174988
 10
13.5212508548
 20
8.2534951993
 10
13.5413592597
 20
8.2688310298
 10
13.5600500833
 20
8.2863134851
 10
13.5772576734
 20
8.3058811575
 10
13.5929215876
 20
8.3274653146
 10
13.6069868059
 20
8.3509901415
 10
13.6194039238
 20
8.3763730063
 10
13.6301293255
 20
8.4035247508
 10
13.6391253378
 20
8.4323500035
 10
13.6463603619
 20
8.4627475145
 10
13.6518089844
 20
8.4946105117
 10
13.6554520669
 20
8.5278270749
 10
13.6572768128
 20
8.5622805299
 10
13.6572768128
 20
8.5978498576
 10
13.6554520669
 20
8.6344101194
 10
13.6518089844
 20
8.6718328962
 10
13.6463603619
 20
8.7099867389
 10
13.6391253378
 20
8.748737631
 10
13.6301293255
 20
8.7879494584
 10
13.6194039238
 20
8.8274844881
 10
13.6069868059
 20
8.867203852
 10
13.5929215876
 20
8.9069680343
 10
13.5772576734
 20
8.9466373619
 10
13.5600500833
 20
8.9860724948
 10
13.5413592597
 20
9.0251349157
 10
13.5212508548
 20
9.0636874164
 10
13.4997955
 20
9.1015945798
 10
13.4770685581
 20
9.1387232557
 10
13.4531498582
 20
9.1749430282
 10
13.4281234158
 20
9.210126674
 10
13.402077137
 20
9.2441506093
 10
13.3751025105
 20
9.2768953238
 10
13.3472942855
 20
9.3082458005
 10
13.3187501394
 20
9.3380919197
 10
13.2895703347
 20
9.3663288458
 10
13.2598573663
 20
9.3928573956
 10
13.2297156024
 20
9.4175843866
 10
13.1992509167
 20
9.4404229643
 10
13.1685703178
 20
9.4612929073
 10
13.1377815723
 20
9.4801209094
 10
13.1069928267
 20
9.4968408363
 10
13.0763122278
 20
9.5113939587
 10
13.0458475421
 20
9.5237291584
 10
13.0157057782
 20
9.5338031074
 10
12.9859928098
 20
9.5415804206
 10
12.9568130051
 20
9.5470337799
 10
12.928268859
 20
9.5501440303
 10
12.900460634
 20
9.5509002468
 10
12.8734860075
 20
9.5492997732
 10
12.8474397287
 20
9.5453482312
 10
12.8224132863
 20
9.5390595007
 10
12.7984945864
 20
9.5304556712
 10
12.7757676445
 20
9.519566964
 10
12.770311438
 20
9.5165093265
  0
LWPOLYLINE
  5
33D
330
1F
100
AcDbEntity
  8
0
  6
Continuous
 62
     7
370
    15
100
AcDbPolyline
 90
      107
 70
   128
 43
0.0
 10
12.920346237
 20
8.1542831687
 10
12.9511349826
 20
8.1375632418
 10
12.9818155815
 20
8.1230101193
 10
13.0122802671
 20
8.1106749197
 10
13.0424220311
 20
8.1006009707
 10
13.0721349994
 20
8.0928236575
 10
13.1013148042
 20
8.0873702981
 10
13.1298589503
 20
8.0842600478
 10
13.1576671753
 20
8.0835038313
 10
13.1846418018
 20
8.0851043049
 10
13.2106880806
 20
8.0890558469
 10
13.235714523
 20
8.0953445773
 10
13.2596332228
 20
8.1039484068
 10
13.2823601648
 20
8.1148371141
 10
13.3038155196
 20
8.1279724521
 10
13.3239239245
 20
8.1433082826
 10
13.3426147481
 20
8.1607907379
 10
13.3598223382
 20
8.1803584103
 10
13.3754862524
 20
8.2019425674
 10
13.3895514707
 20
8.2254673943
 10
13.4019685886
 20
8.2508502591
 10
13.4126939903
 20
8.2780020036
 10
13.4216900026
 20
8.3068272563
 10
13.4289250267
 20
8.3372247673
 10
13.4343736492
 20
8.3690877645
 10
13.4380167316
 20
8.4023043277
 10
13.4398414776
 20
8.4367577827
 10
13.4398414776
 20
8.4723271104
 10
13.4380167316
 20
8.5088873722
 10
13.4343736492
 20
8.546310149
 10
13.4289250267
 20
8.5844639917
 10
13.4216900026
 20
8.6232148838
 10
13.4126939903
 20
8.6624267112
 10
13.4019685886
 20
8.7019617409
 10
13.3895514707
 20
8.7416811048
 10
13.3754862524
 20
8.7814452871
 10
13.3598223382
 20
8.8211146147
 10
13.3426147481
 20
8.8605497476
 10
13.3239239245
 20
8.8996121685
 10
13.3038155196
 20
8.9381646692
 10
13.2823601648
 20
8.9760718326
 10
13.2596332228
 20
9.0132005085
 10
13.235714523
 20
9.049420281
 10
13.2106880806
 20
9.0846039268
 10
13.1846418018
 20
9.1186278621
 10
13.1576671753
 20
9.1513725766
 10
13.1298589503
 20
9.1827230534
 10
13.1013148042
 20
9.2125691725
 10
13.0721349994
 20
9.2408060987
 10
13.0424220311
 20
9.2673346484
 10
13.0122802671
 20
9.2920616394
 10
12.9818155815
 20
9.3149002171
 10
12.9511349826
 20
9.3357701601
 10
12.920346237
 20
9.3545981622
 10
12.8895574915
 20
9.3713180891
 10
12.8588768926
 20
9.3858712116
 10
12.8284122069
 20
9.3982064112
 10
12.7982704429
 20
9.4082803602
 10
12.7685574746
 20
9.4160576734
 10
12.7393776699
 20
9.4215110327
 10
12.7108335238
 20
9.4246212831
 10
12.6830252988
 20
9.4253774996
 10
12.6560506722
 20
9.423777026
 10
12.6300043935
 20
9.419825484
 10
12.6049779511
 20
9.4135367535
 10
12.5810592512
 20
9.4049329241
 10
12.5583323093
 20
9.3940442168
 10
12.5368769545
 20
9.3809088787
 10
12.5167685496
 20
9.3655730482
 10
12.498077726
 20
9.3480905929
 10
12.4808701359
 20
9.3285229206
 10
12.4652062217
 20
9.3069387634
 10
12.4511410033
 20
9.2834139365
 10
12.4387238855
 20
9.2580310717
 10
12.4279984838
 20
9.2308793272
 10
12.4190024715
 20
9.2020540746
 10
12.4117674474
 20
9.1716565635
 10
12.4063188249
 20
9.1397935664
 10
12.4026757424
 20
9.1065770031
 10
12.4008509964
 20
9.0721235482
 10
12.4008509964
 20
9.0365542205
 10
12.4026757424
 20
8.9999939586
 10
12.4063188249
 20
8.9625711819
 10
12.4117674474
 20
8.9244173391
 10
12.4190024715
 20
8.8856664471
 10
12.4279984838
 20
8.8464546197
 10
12.4387238855
 20
8.8069195899
 10
12.4511410033
 20
8.7672002261
 10
12.4652062217
 20
8.7274360437
 10
12.4808701359
 20
8.6877667162
 10
12.498077726
 20
8.6483315832
 10
12.5167685496
 20
8.6092691623
 10
12.5368769545
 20
8.5707166617
 10
12.5583323093
 20
8.5328094982
 10
12.5810592512
 20
8.4956808224
 10
12.6049779511
 20
8.4594610499
 10
12.6300043935
 20
8.4242774041
 10
12.6560506722
 20
8.3902534687
 10
12.6830252988
 20
8.3575087542
 10
12.7108335238
 20
8.3261582775
 10
12.7393776699
 20
8.2963121583
 10
12.7685574746
 20
8.2680752322
 10
12.7982704429
 20
8.2415466824
 10
12.8284122069
 20
8.2168196915
 10
12.8588768926
 20
8.1939811138
 10
12.8895574915
 20
8.1731111707
 10
12.920346237
 20
8.1542831687
  0
LWPOLYLINE
  5
33E
330
1F
100
AcDbEntity
  8
0
  6
Continuous
 62
     7
370
    15
100
AcDbPolyline
 90
       70
 70
   128
 43
0.0
 10
12.920346237
 20
9.0096096691
 10
12.9404401926
 20
8.9969524701
 10
12.9603676433
 20
8.982285742
 10
12.979963464
 20
8.9657310177
 10
12.9990652777
 20
8.9474254751
 10
13.0175148005
 20
8.9275207995
 10
13.0351591541
 20
8.9061819275
 10
13.0518521316
 20
8.8835856795
 10
13.0674554099
 20
8.8599192953
 10
13.0818396952
 20
8.835378882
 10
13.0948857949
 20
8.8101677891
 10
13.1064856049
 20
8.7844949237
 10
13.1165430054
 20
8.7585730192
 10
13.1249746577
 20
8.7326168728
 10
13.1317106945
 20
8.7068415652
 10
13.1366952988
 20
8.6814606787
 10
13.1398871667
 20
8.6566845274
 10
13.1412598493
 20
8.6327184142
 10
13.1408019721
 20
8.6097609299
 10
13.1385173292
 20
8.5880023075
 10
13.134424852
 20
8.5676228457
 10
13.1285584519
 20
8.5487914153
 10
13.1209667399
 20
8.5316640592
 10
13.1117126232
 20
8.5163827003
 10
13.1008727843
 20
8.5030739647
 10
13.0885370457
 20
8.4918481327
 10
13.074807625
 20
8.4827982252
 10
13.0597982886
 20
8.4759992324
 10
13.0436334086
 20
8.4715074931
 10
13.0264469322
 20
8.4693602271
 10
13.0083812721
 20
8.4695752274
 10
12.989586126
 20
8.4721507125
 10
12.9702172363
 20
8.477065341
 10
12.9504350998
 20
8.4842783888
 10
12.9304036376
 20
8.4937300863
 10
12.9102888365
 20
8.5053421138
 10
12.8902573742
 20
8.5190182503
 10
12.8704752378
 20
8.5346451711
 10
12.8511063481
 20
8.5520933866
 10
12.832311202
 20
8.5712183154
 10
12.8142455418
 20
8.5918614823
 10
12.7970590655
 20
8.6138518315
 10
12.7808941855
 20
8.637007144
 10
12.7658848491
 20
8.6611355477
 10
12.7521554284
 20
8.6860371069
 10
12.7398196897
 20
8.7115054796
 10
12.7289798509
 20
8.7373296268
 10
12.7197257342
 20
8.7632955614
 10
12.7121340221
 20
8.7891881216
 10
12.7062676221
 20
8.8147927534
 10
12.7021751449
 20
8.8398972888
 10
12.699890502
 20
8.8642937037
 10
12.6994326248
 20
8.8877798417
 10
12.7008053074
 20
8.9101610893
 10
12.7039971752
 20
8.9312519885
 10
12.7089817796
 20
8.9508777733
 10
12.7157178163
 20
8.9688758184
 10
12.7241494686
 20
8.9850969863
 10
12.7342068692
 20
8.9994068633
 10
12.7458066791
 20
9.0116868732
 10
12.7588527788
 20
9.02183526
 10
12.7732370642
 20
9.029767931
 10
12.7888403425
 20
9.0354191535
 10
12.80553332
 20
9.0387420998
 10
12.8231776736
 20
9.0397092349
 10
12.8416271964
 20
9.0383125448
 10
12.86072901
 20
9.0345636029
 10
12.8803248308
 20
9.0284934741
 10
12.9002522815
 20
9.0201524574
 10
12.920346237
 20
9.0096096691
  0
LWPOLYLINE
  5
33F
330
1F
100
AcDbEntity
  8
0
  6
Continuous
 62
     7
370
    15
100
AcDbPolyline
 90
       32
 70
   128
 43
0.0
 10
13.0958854955
 20
9.0950696875
 10
13.0968154832
 20
9.1050934904
 10
13.0995673726
 20
9.1136331766
 10
13.104028501
 20
9.1203391304
 10
13.1100162293
 20
9.1249368092
 10
13.1172854192
 20
9.1272379836
 10
13.1255384691
 20
9.1271484432
 10
13.1344374983
 20
9.1246718538
 10
13.1436181795
 20
9.1199096072
 10
13.1527046544
 20
9.1130566703
 10
13.1613249218
 20
9.1043936033
 10
13.1691260669
 20
9.0942750732
 10
13.1757887098
 20
9.0831153336
 10
13.1810400812
 20
9.0713712657
 10
13.1846651894
 20
9.0595236729
 10
13.1865156219
 20
9.0480575972
 10
13.1865156219
 20
9.037442461
 10
13.1846651894
 20
9.0281128493
 10
13.1810400812
 20
9.0204507173
 10
13.1757887098
 20
9.0147697538
 10
13.1691260669
 20
9.0113025381
 10
13.1613249218
 20
9.0101910182
 10
13.1527046544
 20
9.0114807001
 10
13.1436181795
 20
9.0151187839
 10
13.1344374983
 20
9.0209563262
 10
13.1255384691
 20
9.0287543372
 10
13.1172854192
 20
9.0381935654
 10
13.1100162293
 20
9.0488875677
 10
13.104028501
 20
9.0603985305
 10
13.0995673726
 20
9.0722551935
 10
13.0968154832
 20
9.0839721436
 10
13.0958854955
 20
9.0950696875
  0
LWPOLYLINE
  5
340
330
1F
100
AcDbEntity
  8
0
  6
Continuous
 62
     7
370
    15
100
AcDbPolyline
 90
       32
 70
   128
 43
0.0
 10
12.4329728881
 20
9.035795311
 10
12.4339028758
 20
9.0458191138
 10
12.4366547653
 20
9.0543588
 10
12.4411158937
 20
9.0610647538
 10
12.4471036219
 20
9.0656624327
 10
12.4543728118
 20
9.0679636071
 10
12.4626258618
 20
9.0678740667
 10
12.471524891
 20
9.0653974772
 10
12.4807055721
 20
9.0606352306
 10
12.4897920471
 20
9.0537822938
 10
12.4984123144
 20
9.0451192268
 10
12.5062134595
 20
9.0350006966
 10
12.5128761024
 20
9.023840957
 10
12.5181274739
 20
9.0120968891
 10
12.521752582
 20
9.0002492964
 10
12.5236030146
 20
8.9887832207
 10
12.5236030146
 20
8.9781680845
 10
12.521752582
 20
8.9688384727
 10
12.5181274739
 20
8.9611763408
 10
12.5128761024
 20
8.9554953773
 10
12.5062134595
 20
8.9520281615
 10
12.4984123144
 20
8.9509166417
 10
12.4897920471
 20
8.9522063236
 10
12.4807055721
 20
8.9558444074
 10
12.471524891
 20
8.9616819497
 10
12.4626258618
 20
8.9694799606
 10
12.4543728118
 20
8.9789191889
 10
12.4471036219
 20
8.9896131912
 10
12.4411158937
 20
9.001124154
 10
12.4366547653
 20
9.012980817
 10
12.4339028758
 20
9.0246977671
 10
12.4329728881
 20
9.035795311
  0
LWPOLYLINE
  5
341
330
1F
100
AcDbEntity
  8
0
  6
Continuous
 62
     7
370
    15
100
AcDbPolyline
 90
       32
 70
   128
 43
0.0
 10
13.0958854955
 20
8.2111383296
 10
13.0968154832
 20
8.2211621325
 10
13.0995673726
 20
8.2297018187
 10
13.104028501
 20
8.2364077725
 10
13.1100162293
 20
8.2410054513
 10
13.1172854192
 20
8.2433066257
 10
13.1255384691
 20
8.2432170853
 10
13.1344374983
 20
8.2407404959
 10
13.1436181795
 20
8.2359782493
 10
13.1527046544
 20
8.2291253124
 10
13.1613249218
 20
8.2204622454
 10
13.1691260669
 20
8.2103437153
 10
13.1757887098
 20
8.1991839757
 10
13.1810400812
 20
8.1874399078
 10
13.1846651894
 20
8.175592315
 10
13.1865156219
 20
8.1641262393
 10
13.1865156219
 20
8.1535111031
 10
13.1846651894
 20
8.1441814914
 10
13.1810400812
 20
8.1365193594
 10
13.1757887098
 20
8.1308383959
 10
13.1691260669
 20
8.1273711802
 10
13.1613249218
 20
8.1262596603
 10
13.1527046544
 20
8.1275493422
 10
13.1436181795
 20
8.131187426
 10
13.1344374983
 20
8.1370249683
 10
13.1255384691
 20
8.1448229793
 10
13.1172854192
 20
8.1542622075
 10
13.1100162293
 20
8.1649562098
 10
13.104028501
 20
8.1764671726
 10
13.0995673726
 20
8.1883238356
 10
13.0968154832
 20
8.2000407857
 10
13.0958854955
 20
8.2111383296
  0
LWPOLYLINE
  5
342
330
1F
100
AcDbEntity
  8
0
  6
Continuous
 62
     7
370
    15
100
AcDbPolyline
 90
       32
 70
   128
 43
0.0
 10
12.6539437572
 20
8.4662658645
 10
12.654873745
 20
8.4762896674
 10
12.6576256344
 20
8.4848293536
 10
12.6620867628
 20
8.4915353074
 10
12.6680744911
 20
8.4961329863
 10
12.6753436809
 20
8.4984341607
 10
12.6835967309
 20
8.4983446202
 10
12.6924957601
 20
8.4958680308
 10
12.7016764412
 20
8.4911057842
 10
12.7107629162
 20
8.4842528474
 10
12.7193831836
 20
8.4755897804
 10
12.7271843286
 20
8.4654712502
 10
12.7338469716
 20
8.4543115106
 10
12.739098343
 20
8.4425674427
 10
12.7427234512
 20
8.43071985
 10
12.7445738837
 20
8.4192537743
 10
12.7445738837
 20
8.4086386381
 10
12.7427234512
 20
8.3993090263
 10
12.739098343
 20
8.3916468944
 10
12.7338469716
 20
8.3859659309
 10
12.7271843286
 20
8.3824987151
 10
12.7193831836
 20
8.3813871953
 10
12.7107629162
 20
8.3826768771
 10
12.7016764412
 20
8.386314961
 10
12.6924957601
 20
8.3921525032
 10
12.6835967309
 20
8.3999505142
 10
12.6753436809
 20
8.4093897424
 10
12.6680744911
 20
8.4200837448
 10
12.6620867628
 20
8.4315947076
 10
12.6576256344
 20
8.4434513706
 10
12.654873745
 20
8.4551683207
 10
12.6539437572
 20
8.4662658645
  0
LWPOLYLINE
  5
343
330
1F
100
AcDbEntity
  8
0
  6
Continuous
 62
     7
370
    15
100
AcDbPolyline
 90
       32
 70
   128
 43
0.0
 10
12.6539437572
 20
9.3501972224
 10
12.654873745
 20
9.3602210253
 10
12.6576256344
 20
9.3687607115
 10
12.6620867628
 20
9.3754666653
 10
12.6680744911
 20
9.3800643442
 10
12.6753436809
 20
9.3823655186
 10
12.6835967309
 20
9.3822759781
 10
12.6924957601
 20
9.3797993887
 10
12.7016764412
 20
9.3750371421
 10
12.7107629162
 20
9.3681842053
 10
12.7193831836
 20
9.3595211383
 10
12.7271843286
 20
9.3494026081
 10
12.7338469716
 20
9.3382428685
 10
12.739098343
 20
9.3264988006
 10
12.7427234512
 20
9.3146512079
 10
12.7445738837
 20
9.3031851322
 10
12.7445738837
 20
9.292569996
 10
12.7427234512
 20
9.2832403842
 10
12.739098343
 20
9.2755782523
 10
12.7338469716
 20
9.2698972888
 10
12.7271843286
 20
9.266430073
 10
12.7193831836
 20
9.2653185532
 10
12.7107629162
 20
9.266608235
 10
12.7016764412
 20
9.2702463189
 10
12.6924957601
 20
9.2760838611
 10
12.6835967309
 20
9.2838818721
 10
12.6753436809
 20
9.2933211003
 10
12.6680744911
 20
9.3040151027
 10
12.6620867628
 20
9.3155260655
 10
12.6576256344
 20
9.3273827285
 10
12.654873745
 20
9.3390996786
 10
12.6539437572
 20
9.3501972224
  0
LWPOLYLINE
  5
344
330
1F
100
AcDbEntity
  8
0
  6
Continuous
 62
     7
370
    15
100
AcDbPolyline
 90
       32
 70
   128
 43
0.0
 10
13.3168563646
 20
8.5255402411
 10
13.3177863523
 20
8.5355640439
 10
13.3205382417
 20
8.5441037302
 10
13.3249993701
 20
8.550809684
 10
13.3309870984
 20
8.5554073628
 10
13.3382562883
 20
8.5577085372
 10
13.3465093382
 20
8.5576189968
 10
13.3554083674
 20
8.5551424073
 10
13.3645890486
 20
8.5503801607
 10
13.3736755235
 20
8.5435272239
 10
13.3822957909
 20
8.5348641569
 10
13.390096936
 20
8.5247456267
 10
13.3967595789
 20
8.5135858872
 10
13.4020109504
 20
8.5018418192
 10
13.4056360585
 20
8.4899942265
 10
13.4074864911
 20
8.4785281508
 10
13.4074864911
 20
8.4679130146
 10
13.4056360585
 20
8.4585834029
 10
13.4020109504
 20
8.4509212709
 10
13.3967595789
 20
8.4452403074
 10
13.390096936
 20
8.4417730916
 10
13.3822957909
 20
8.4406615718
 10
13.3736755235
 20
8.4419512537
 10
13.3645890486
 20
8.4455893375
 10
13.3554083674
 20
8.4514268798
 10
13.3465093382
 20
8.4592248907
 10
13.3382562883
 20
8.468664119
 10
13.3309870984
 20
8.4793581213
 10
13.3249993701
 20
8.4908690841
 10
13.3205382417
 20
8.5027257471
 10
13.3177863523
 20
8.5144426972
 10
13.3168563646
 20
8.5255402411
  0
SPLINE
  5
345
330
1F
100
AcDbEntity
  8
0
  6
Continuous
 62
     7
370
    15
100
AcDbSpline
210
0.0
220
0.0
230
1.0
 70
     8
 71
     3
 72
    70
 73
    66
 74
     0
 42
0.00000001
 43
0.00000001
 40
-0.0312499999999999
 40
-0.0312499999999999
 40
0.0
 40
0.0
 40
0.0312500000000002
 40
0.0312500000000002
 40
0.0625000000000005
 40
0.0625000000000005
 40
0.0937500000000007
 40
0.0937500000000007
 40
0.125000000000001
 40
0.125000000000001
 40
0.1562500000000009
 40
0.1562500000000009
 40
0.1875000000000008
 40
0.1875000000000008
 40
0.2187500000000008
 40
0.2187500000000008
 40
0.2500000000000007
 40
0.2500000000000007
 40
0.2812500000000007
 40
0.2812500000000007
 40
0.3125000000000007
 40
0.3125000000000007
 40
0.3437500000000006
 40
0.3437500000000006
 40
0.3750000000000006
 40
0.3750000000000006
 40
0.4062500000000006
 40
0.4062500000000006
 40
0.4375000000000005
 40
0.4375000000000005
 40
0.4687500000000005
 40
0.4687500000000005
 40
0.5000000000000004
 40
0.5000000000000004
 40
0.5312500000000003
 40
0.5312500000000003
 40
0.5625000000000002
 40
0.5625000000000002
 40
0.5937500000000002
 40
0.5937500000000002
 40
0.6250000000000001
 40
0.6250000000000001
 40
0.65625
 40
0.65625
 40
0.6874999999999999
 40
0.6874999999999999
 40
0.7187499999999999
 40
0.7187499999999999
 40
0.7499999999999999
 40
0.7499999999999999
 40
0.78125
 40
0.78125
 40
0.8125
 40
0.8125
 40
0.84375
 40
0.84375
 40
0.875
 40
0.875
 40
0.90625
 40
0.90625
 40
0.9375000000000001
 40
0.9375000000000001
 40
0.9687500000000001
 40
0.9687500000000001
 40
1.0
 40
1.0
 40
1.03125
 40
1.03125
 10
12.97016882454135
 20
9.44374206346981
 30
0.0
 10
12.97747355018472
 20
9.447958991823883
 30
0.0
 10
12.98142300343955
 20
9.449869565502256
 30
0.0
 10
12.98989146114132
 20
9.453306451484082
 30
0.0
 10
12.99446449907996
 20
9.454846062565148
 30
0.0
 10
13.00392687783969
 20
9.45742215545127
 30
0.0
 10
13.00879578470452
 20
9.45846079442201
 30
0.0
 10
13.01880758063875
 20
9.460022878546866
 30
0.0
 10
13.02397948179394
 20
9.46054160668427
 30
0.0
 10
13.03416421845944
 20
9.460984239891584
 30
0.0
 10
13.03922939790031
 20
9.460919625011524
 30
0.0
 10
13.04930556520639
 20
9.46017831415232
 30
0.0
 10
13.05423174051744
 20
9.45950266996572
 30
0.0
 10
13.0636337477127
 20
9.457569682179171
 30
0.0
 10
13.06817927013478
 20
9.456298064751344
 30
0.0
 10
13.07673130972721
 20
9.4531716375557
 30
0.0
 10
13.0806688316141
 20
9.451347992524637
 30
0.0
 10
13.08788379233126
 20
9.447187936623585
 30
0.0
 10
13.09118730324944
 20
9.444821736045705
 30
0.0
 10
13.09686400080905
 20
9.439746646996166
 30
0.0
 10
13.09926540943315
 20
9.43703128564266
 30
0.0
 10
13.1031889954252
 20
9.431256449958726
 30
0.0
 10
13.10469212127836
 20
9.428202973796786
 30
0.0
 10
13.10667887844372
 20
9.422032762542873
 30
0.0
 10
13.10718672592006
 20
9.418884002810412
 30
0.0
 10
13.10719106951143
 20
9.412480796939002
 30
0.0
 10
13.10668761270908
 20
9.409332254662727
 30
0.0
 10
13.1047098272015
 20
9.403160808064825
 30
0.0
 10
13.10321138063494
 20
9.400106174558024
 30
0.0
 10
13.09929603448848
 20
9.39432729214152
 30
0.0
 10
13.09689892920526
 20
9.391610290069755
 30
0.0
 10
13.09123234904955
 20
9.386532572599904
 30
0.0
 10
13.08793203415765
 20
9.3841632572695
 30
0.0
 10
13.08072201679163
 20
9.379997597625277
 30
0.0
 10
13.07678759293893
 20
9.378172004878422
 30
0.0
 10
13.06824431418233
 20
9.375042346617004
 30
0.0
 10
13.06369707197021
 20
9.373767297564703
 30
0.0
 10
13.05429635646433
 20
9.371829757732927
 30
0.0
 10
13.04937133246785
 20
9.371152071568812
 30
0.0
 10
13.03929667364727
 20
9.370406294962423
 30
0.0
 10
13.03423170833705
 20
9.370339320755162
 30
0.0
 10
13.02404633179095
 20
9.370776928452997
 30
0.0
 10
13.01887369794433
 20
9.371292986330609
 30
0.0
 10
13.00886140006516
 20
9.372849314333534
 30
0.0
 10
13.00399204071494
 20
9.37388493668115
 30
0.0
 10
12.9945282843544
 20
9.37645487261227
 30
0.0
 10
12.98995170817441
 20
9.377992233495842
 30
0.0
 10
12.98147854392971
 20
9.381424465482803
 30
0.0
 10
12.9775272550294
 20
9.383332697107402
 30
0.0
 10
12.97021915630236
 20
9.387544482114322
 30
0.0
 10
12.96697937490688
 20
9.389781279146193
 30
0.0
 10
12.96131295356616
 20
9.39449855299755
 30
0.0
 10
12.95886333074868
 20
9.397009797070611
 30
0.0
 10
12.95493860990234
 20
9.402157574288111
 30
0.0
 10
12.9534593168725
 20
9.404781502637189
 30
0.0
 10
12.95145635496907
 20
9.410149857112195
 30
0.0
 10
12.95094292278182
 20
9.412910828094473
 30
0.0
 10
12.95093493455498
 20
9.418347715078639
 30
0.0
 10
12.95142412101642
 20
9.421051176010584
 30
0.0
 10
12.95341359524722
 20
9.426453647514482
 30
0.0
 10
12.95490682843693
 20
9.429110312614336
 30
0.0
 10
12.95878862740326
 20
9.434225403784312
 30
0.0
 10
12.96120140418852
 20
9.436719025655727
 30
0.0
 10
12.96691573365796
 20
9.441494672059891
 30
0.0
 10
12.97016882454135
 20
9.44374206346981
 30
0.0
 10
12.97747355018472
 20
9.447958991823883
 30
0.0
  0
ARC
  5
346
330
1F
100
AcDbEntity
  8
0
  6
Continuous
 62
     7
370
    15
100
AcDbCircle
 10
14.0527628695
 20
9.3059141987
 30
0.0
 40
0.10715616086934
100
AcDbArc
 50
326.9184422781
 51
76.0697566023
  0
LWPOLYLINE
  5
347
330
1F
100
AcDbEntity
  8
0
  6
Continuous
 62
     7
370
    15
100
AcDbPolyline
 90
       35
 70
   128
 43
0.0
 10
13.8662351569
 20
10.2495651458
 10
13.9046311019
 20
10.2263563458
 10
13.9430759506
 20
10.2010349844
 10
13.9813515929
 20
10.1737338618
 10
14.0193738906
 20
10.1445129916
 10
14.0570592625
 20
10.1134366078
 10
14.0943248678
 20
10.080573023
 10
14.1310887888
 20
10.0459944783
 10
14.1672702104
 20
10.0097769851
 10
14.2027895979
 20
9.9720001572
 10
14.237568872
 20
9.9327470363
 10
14.2715315803
 20
9.8921039092
 10
14.3046030655
 20
9.8501601184
 10
14.3367106291
 20
9.8070078654
 10
14.3677836919
 20
9.7627420082
 10
14.3977539485
 20
9.7174598528
 10
14.4265555177
 20
9.6712609393
 10
14.4541250875
 20
9.6242468227
 10
14.480402054
 20
9.5765208505
 10
14.5053286546
 20
9.5281879346
 10
14.5288500954
 20
9.4793543212
 10
14.550914671
 20
9.4301273573
 10
14.5714738788
 20
9.3806152543
 10
14.5904825251
 20
9.3309268507
 10
14.6078988249
 20
9.2811713723
 10
14.6236844933
 20
9.2314581925
 10
14.6378048299
 20
9.1818965917
 10
14.6502287953
 20
9.1325955169
 10
14.6609290788
 20
9.0836633426
 10
14.669882159
 20
9.0352076325
 10
14.6770683549
 20
8.9873349026
 10
14.6824718698
 20
8.9401503876
 10
14.6860808256
 20
8.8937578093
 10
14.687887289
 20
8.8482591486
 10
14.68811319
 20
8.8258763752
  0
ARC
  5
348
330
1F
100
AcDbEntity
  8
0
  6
Continuous
 62
     7
370
    15
100
AcDbCircle
 10
13.3611568326
 20
9.0089152056
 30
0.0
 40
1.258513881826989
100
AcDbArc
 50
22.2840451507
 51
37.7105783166
  0
LWPOLYLINE
  5
349
330
1F
100
AcDbEntity
  8
0
  6
HIDDEN
 62
     7
370
     0
100
AcDbPolyline
 90
       17
 70
   128
 43
0.0
 10
14.2492650439
 20
9.7722291907
 10
14.2534701454
 20
9.7453893998
 10
14.2654452612
 20
9.7177806169
 10
14.2833672885
 20
9.693606029
 10
14.3045077612
 20
9.6765459979
 10
14.3256482339
 20
9.6691977588
 10
14.3435702612
 20
9.6726800144
 10
14.355545377
 20
9.6864626229
 10
14.3597504785
 20
9.708447307
 10
14.355545377
 20
9.735287098
 10
14.3435702612
 20
9.7628958808
 10
14.3256482339
 20
9.7870704687
 10
14.3045077612
 20
9.8041304998
 10
14.2833672885
 20
9.8114787389
 10
14.2654452612
 20
9.8079964834
 10
14.2534701454
 20
9.7942138749
 10
14.2492650439
 20
9.7722291907
  0
LWPOLYLINE
  5
34A
330
1F
100
AcDbEntity
  8
0
  6
HIDDEN
 62
     7
370
     0
100
AcDbPolyline
 90
       17
 70
   128
 43
0.0
 10
13.5863524366
 20
9.7129548142
 10
13.590557538
 20
9.6861150233
 10
13.6025326538
 20
9.6585062404
 10
13.6204546812
 20
9.6343316525
 10
13.6415951538
 20
9.6172716214
 10
13.6627356265
 20
9.6099233823
 10
13.6806576538
 20
9.6134056379
 10
13.6926327697
 20
9.6271882463
 10
13.6968378711
 20
9.6491729305
 10
13.6926327697
 20
9.6760127214
 10
13.6806576538
 20
9.7036215043
 10
13.6627356265
 20
9.7277960922
 10
13.6415951538
 20
9.7448561233
 10
13.6204546812
 20
9.7522043624
 10
13.6025326538
 20
9.7487221068
 10
13.590557538
 20
9.7349394984
 10
13.5863524366
 20
9.7129548142
  0
LWPOLYLINE
  5
34B
330
1F
100
AcDbEntity
  8
0
  6
HIDDEN
 62
     7
370
     0
100
AcDbPolyline
 90
       17
 70
   128
 43
0.0
 10
14.2492650439
 20
8.8882978328
 10
14.2534701454
 20
8.8614580419
 10
14.2654452612
 20
8.833849259
 10
14.2833672885
 20
8.8096746711
 10
14.3045077612
 20
8.7926146401
 10
14.3256482339
 20
8.7852664009
 10
14.3435702612
 20
8.7887486565
 10
14.355545377
 20
8.802531265
 10
14.3597504785
 20
8.8245159491
 10
14.355545377
 20
8.8513557401
 10
14.3435702612
 20
8.8789645229
 10
14.3256482339
 20
8.9031391108
 10
14.3045077612
 20
8.9201991419
 10
14.2833672885
 20
8.927547381
 10
14.2654452612
 20
8.9240651255
 10
14.2534701454
 20
8.910282517
 10
14.2492650439
 20
8.8882978328
  0
LWPOLYLINE
  5
34C
330
1F
100
AcDbEntity
  8
0
  6
HIDDEN
 62
     7
370
     0
100
AcDbPolyline
 90
       17
 70
   128
 43
0.0
 10
13.8073233057
 20
9.1434253678
 10
13.8115284072
 20
9.1165855768
 10
13.823503523
 20
9.088976794
 10
13.8414255503
 20
9.0648022061
 10
13.862566023
 20
9.047742175
 10
13.8837064956
 20
9.0403939359
 10
13.901628523
 20
9.0438761915
 10
13.9136036388
 20
9.0576587999
 10
13.9178087402
 20
9.0796434841
 10
13.9136036388
 20
9.106483275
 10
13.901628523
 20
9.1340920579
 10
13.8837064956
 20
9.1582666458
 10
13.862566023
 20
9.1753266769
 10
13.8414255503
 20
9.182674916
 10
13.823503523
 20
9.1791926604
 10
13.8115284072
 20
9.1654100519
 10
13.8073233057
 20
9.1434253678
  0
LWPOLYLINE
  5
34D
330
1F
100
AcDbEntity
  8
0
  6
HIDDEN
 62
     7
370
     0
100
AcDbPolyline
 90
       17
 70
   128
 43
0.0
 10
13.8073233057
 20
10.0273567257
 10
13.8115284072
 20
10.0005169347
 10
13.823503523
 20
9.9729081519
 10
13.8414255503
 20
9.948733564
 10
13.862566023
 20
9.9316735329
 10
13.8837064956
 20
9.9243252938
 10
13.901628523
 20
9.9278075494
 10
13.9136036388
 20
9.9415901578
 10
13.9178087402
 20
9.963574842
 10
13.9136036388
 20
9.9904146329
 10
13.901628523
 20
10.0180234158
 10
13.8837064956
 20
10.0421980037
 10
13.862566023
 20
10.0592580348
 10
13.8414255503
 20
10.0666062739
 10
13.823503523
 20
10.0631240183
 10
13.8115284072
 20
10.0493414098
 10
13.8073233057
 20
10.0273567257
  0
LWPOLYLINE
  5
34E
330
1F
100
AcDbEntity
  8
0
  6
HIDDEN
 62
     7
370
     0
100
AcDbPolyline
 90
       17
 70
   128
 43
0.0
 10
14.470235913
 20
9.2026997443
 10
14.4744410145
 20
9.1758599534
 10
14.4864161303
 20
9.1482511705
 10
14.5043381577
 20
9.1240765826
 10
14.5254786303
 20
9.1070165515
 10
14.546619103
 20
9.0996683124
 10
14.5645411303
 20
9.103150568
 10
14.5765162461
 20
9.1169331764
 10
14.5807213476
 20
9.1389178606
 10
14.5765162461
 20
9.1657576515
 10
14.5645411303
 20
9.1933664344
 10
14.546619103
 20
9.2175410223
 10
14.5254786303
 20
9.2346010534
 10
14.5043381577
 20
9.2419492925
 10
14.4864161303
 20
9.2384670369
 10
14.4744410145
 20
9.2246844285
 10
14.470235913
 20
9.2026997443
  0
LWPOLYLINE
  5
34F
330
1F
100
AcDbEntity
  8
0
  6
HIDDEN
 62
     7
370
     0
100
AcDbPolyline
 90
       17
 70
   128
 43
0.0
 10
13.9085279637
 20
9.6485104195
 10
13.8882055183
 20
9.6309523933
 10
13.8810692245
 20
9.6102412893
 10
13.8882055183
 20
9.5895301852
 10
13.9085279637
 20
9.571972159
 10
13.9389426527
 20
9.560240261
 10
13.9748192245
 20
9.5561205663
 10
14.0106957963
 20
9.560240261
 10
14.0411104852
 20
9.571972159
 10
14.0614329307
 20
9.5895301852
 10
14.0685692245
 20
9.6102412893
 10
14.0614329307
 20
9.6309523933
 10
14.0411104852
 20
9.6485104195
 10
14.0106957963
 20
9.6602423175
 10
13.9748192245
 20
9.6643620123
 10
13.9389426527
 20
9.6602423175
 10
13.9085279637
 20
9.6485104195
  0
LWPOLYLINE
  5
350
330
1F
100
AcDbEntity
  8
0
  6
HIDDEN
 62
     7
370
     0
100
AcDbPolyline
 90
       17
 70
   128
 43
0.0
 10
12.9627726439
 20
9.1025374947
 10
12.9424501985
 20
9.0849794685
 10
12.9353139046
 20
9.0642683645
 10
12.9424501985
 20
9.0435572604
 10
12.9627726439
 20
9.0259992342
 10
12.9931873329
 20
9.0142673362
 10
13.0290639046
 20
9.0101476415
 10
13.0649404764
 20
9.0142673362
 10
13.0953551654
 20
9.0259992342
 10
13.1156776108
 20
9.0435572604
 10
13.1228139046
 20
9.0642683645
 10
13.1156776108
 20
9.0849794685
 10
13.0953551654
 20
9.1025374947
 10
13.0649404764
 20
9.1142693928
 10
13.0290639046
 20
9.1183890875
 10
12.9931873329
 20
9.1142693928
 10
12.9627726439
 20
9.1025374947
  0
ENDSEC
  0
SECTION
  2
OBJECTS
  0
DICTIONARY
  5
C
330
0
100
AcDbDictionary
281
     1
  3
ACAD_GROUP
350
D
  3
ACAD_LAYOUT
350
1A
  3
ACAD_MLEADERSTYLE
350
353
  3
ACAD_MLINESTYLE
350
17
  3
ACAD_PLOTSETTINGS
350
19
  3
ACAD_PLOTSTYLENAME
350
E
  3
ACAD_SCALELIST
350
8E
  3
ACAD_VISUALSTYLE
350
2A
  3
AcDbVariableDictionary
350
351
  0
DICTIONARY
  5
D
102
{ACAD_REACTORS
330
C
102
}
330
C
100
AcDbDictionary
281
     1
  0
DICTIONARY
  5
1A
102
{ACAD_REACTORS
330
C
102
}
330
C
100
AcDbDictionary
281
     1
  3
Layout1
350
1E
  3
Layout2
350
26
  3
Model
350
22
  0
DICTIONARY
  5
353
102
{ACAD_REACTORS
330
C
102
}
330
C
100
AcDbDictionary
281
     1
  0
DICTIONARY
  5
17
102
{ACAD_REACTORS
330
C
102
}
330
C
100
AcDbDictionary
281
     1
  3
Standard
350
18
  0
DICTIONARY
  5
19
102
{ACAD_REACTORS
330
C
102
}
330
C
100
AcDbDictionary
281
     1
  0
ACDBDICTIONARYWDFLT
  5
E
102
{ACAD_REACTORS
330
C
102
}
330
C
100
AcDbDictionary
281
     1
  3
Normal
350
F
100
AcDbDictionaryWithDefault
340
F
  0
DICTIONARY
  5
8E
102
{ACAD_REACTORS
330
C
102
}
330
C
100
AcDbDictionary
281
     1
  3
A0
350
8F
  3
A1
350
90
  3
A2
350
91
  3
A3
350
92
  3
A4
350
93
  3
A5
350
94
  3
A6
350
95
  3
A7
350
96
  3
A8
350
97
  3
A9
350
98
  3
B0
350
99
  3
B1
350
9A
  3
B2
350
9B
  3
B3
350
9C
  3
B4
350
9D
  3
B5
350
9E
  3
B6
350
9F
  3
B7
350
A0
  3
B8
350
A1
  3
B9
350
A2
  3
C0
350
A3
  3
C1
350
A4
  3
C2
350
A5
  3
C3
350
A6
  3
C4
350
A7
  3
C5
350
A8
  3
C6
350
A9
  3
C7
350
AA
  3
C8
350
AB
  3
C9
350
AC
  3
D0
350
AD
  3
D1
350
AE
  3
D2
350
AF
  0
DICTIONARY
  5
2A
102
{ACAD_REACTORS
330
C
102
}
330
C
100
AcDbDictionary
281
     1
  3
2dWireframe
350
2F
  3
3D Hidden
350
31
  3
3dWireframe
350
30
  3
Basic
350
32
  3
Brighten
350
36
  3
ColorChange
350
3A
  3
Conceptual
350
34
  3
Dim
350
35
  3
Facepattern
350
39
  3
Flat
350
2B
  3
FlatWithEdges
350
2C
  3
Gouraud
350
2D
  3
GouraudWithEdges
350
2E
  3
Linepattern
350
38
  3
Realistic
350
33
  3
Thicken
350
37
  0
DICTIONARY
  5
351
102
{ACAD_REACTORS
330
C
102
}
330
C
100
AcDbDictionary
281
     1
  3
CANNOSCALE
350
354
  3
DIMASSOC
350
355
  3
HIDETEXT
350
356
  0
LAYOUT
  5
1E
102
{ACAD_REACTORS
330
1A
102
}
330
1A
100
AcDbPlotSettings
  1

  2
none_device
  4

  6

 40
0.0
 41
0.0
 42
0.0
 43
0.0
 44
0.0
 45
0.0
 46
0.0
 47
0.0
 48
0.0
 49
0.0
140
0.0
141
0.0
142
1.0
143
1.0
 70
   688
 72
     0
 73
     0
 74
     5
  7

 75
    16
147
1.0
148
0.0
149
0.0
100
AcDbLayout
  1
Layout1
 70
     1
 71
     1
 10
0.0
 20
0.0
 11
12.0
 21
9.0
 12
0.0
 22
0.0
 32
0.0
 14
1.0000000000E+20
 24
1.0000000000E+20
 34
1.0000000000E+20
 15
-1.0000000000E+20
 25
-1.0000000000E+20
 35
-1.0000000000E+20
146
0.0
 13
0.0
 23
0.0
 33
0.0
 16
1.0
 26
0.0
 36
0.0
 17
0.0
 27
1.0
 37
0.0
 76
     0
330
1B
  0
LAYOUT
  5
26
102
{ACAD_REACTORS
330
1A
102
}
330
1A
100
AcDbPlotSettings
  1

  2
none_device
  4

  6

 40
0.0
 41
0.0
 42
0.0
 43
0.0
 44
0.0
 45
0.0
 46
0.0
 47
0.0
 48
0.0
 49
0.0
140
0.0
141
0.0
142
1.0
143
1.0
 70
   688
 72
     0
 73
     0
 74
     5
  7

 75
    16
147
1.0
148
0.0
149
0.0
100
AcDbLayout
  1
Layout2
 70
     1
 71
     2
 10
0.0
 20
0.0
 11
0.0
 21
0.0
 12
0.0
 22
0.0
 32
0.0
 14
0.0
 24
0.0
 34
0.0
 15
0.0
 25
0.0
 35
0.0
146
0.0
 13
0.0
 23
0.0
 33
0.0
 16
1.0
 26
0.0
 36
0.0
 17
0.0
 27
1.0
 37
0.0
 76
     0
330
23
  0
LAYOUT
  5
22
102
{ACAD_REACTORS
330
1A
102
}
330
1A
100
AcDbPlotSettings
  1

  2
none_device
  4

  6

 40
0.0
 41
0.0
 42
0.0
 43
0.0
 44
0.0
 45
0.0
 46
0.0
 47
0.0
 48
0.0
 49
0.0
140
0.0
141
0.0
142
1.0
143
1.0
 70
  1712
 72
     0
 73
     0
 74
     0
  7

 75
     0
147
1.0
148
0.0
149
0.0
100
AcDbLayout
  1
Model
 70
     1
 71
     0
 10
0.0
 20
0.0
 11
17.0
 21
11.0
 12
0.0
 22
0.0
 32
0.0
 14
0.0
 24
0.0
 34
0.0
 15
17.0
 25
11.0
 35
0.0
146
0.0
 13
0.0
 23
0.0
 33
0.0
 16
1.0
 26
0.0
 36
0.0
 17
0.0
 27
1.0
 37
0.0
 76
     0
330
1F
331
29
  0
MLINESTYLE
  5
18
102
{ACAD_REACTORS
330
17
102
}
330
17
100
AcDbMlineStyle
  2
Standard
 70
     0
  3

 62
   256
 51
90.0
 52
90.0
 71
     2
 49
0.5
 62
   256
  6
BYLAYER
 49
-0.5
 62
   256
  6
BYLAYER
  0
ACDBPLACEHOLDER
  5
F
102
{ACAD_REACTORS
330
E
102
}
330
E
  0
SCALE
  5
8F
102
{ACAD_REACTORS
330
8E
102
}
330
8E
100
AcDbScale
 70
     0
300
1:1
140
1.0
141
1.0
290
     1
  0
SCALE
  5
90
102
{ACAD_REACTORS
330
8E
102
}
330
8E
100
AcDbScale
 70
     0
300
1:2
140
1.0
141
2.0
290
     0
  0
SCALE
  5
91
102
{ACAD_REACTORS
330
8E
102
}
330
8E
100
AcDbScale
 70
     0
300
1:4
140
1.0
141
4.0
290
     0
  0
SCALE
  5
92
102
{ACAD_REACTORS
330
8E
102
}
330
8E
100
AcDbScale
 70
     0
300
1:5
140
1.0
141
5.0
290
     0
  0
SCALE
  5
93
102
{ACAD_REACTORS
330
8E
102
}
330
8E
100
AcDbScale
 70
     0
300
1:8
140
1.0
141
8.0
290
     0
  0
SCALE
  5
94
102
{ACAD_REACTORS
330
8E
102
}
330
8E
100
AcDbScale
 70
     0
300
1:10
140
1.0
141
10.0
290
     0
  0
SCALE
  5
95
102
{ACAD_REACTORS
330
8E
102
}
330
8E
100
AcDbScale
 70
     0
300
1:16
140
1.0
141
16.0
290
     0
  0
SCALE
  5
96
102
{ACAD_REACTORS
330
8E
102
}
330
8E
100
AcDbScale
 70
     0
300
1:20
140
1.0
141
20.0
290
     0
  0
SCALE
  5
97
102
{ACAD_REACTORS
330
8E
102
}
330
8E
100
AcDbScale
 70
     0
300
1:30
140
1.0
141
30.0
290
     0
  0
SCALE
  5
98
102
{ACAD_REACTORS
330
8E
102
}
330
8E
100
AcDbScale
 70
     0
300
1:40
140
1.0
141
40.0
290
     0
  0
SCALE
  5
99
102
{ACAD_REACTORS
330
8E
102
}
330
8E
100
AcDbScale
 70
     0
300
1:50
140
1.0
141
50.0
290
     0
  0
SCALE
  5
9A
102
{ACAD_REACTORS
330
8E
102
}
330
8E
100
AcDbScale
 70
     0
300
1:100
140
1.0
141
100.0
290
     0
  0
SCALE
  5
9B
102
{ACAD_REACTORS
330
8E
102
}
330
8E
100
AcDbScale
 70
     0
300
2:1
140
2.0
141
1.0
290
     0
  0
SCALE
  5
9C
102
{ACAD_REACTORS
330
8E
102
}
330
8E
100
AcDbScale
 70
     0
300
4:1
140
4.0
141
1.0
290
     0
  0
SCALE
  5
9D
102
{ACAD_REACTORS
330
8E
102
}
330
8E
100
AcDbScale
 70
     0
300
8:1
140
8.0
141
1.0
290
     0
  0
SCALE
  5
9E
102
{ACAD_REACTORS
330
8E
102
}
330
8E
100
AcDbScale
 70
     0
300
10:1
140
10.0
141
1.0
290
     0
  0
SCALE
  5
9F
102
{ACAD_REACTORS
330
8E
102
}
330
8E
100
AcDbScale
 70
     0
300
100:1
140
100.0
141
1.0
290
     0
  0
SCALE
  5
A0
102
{ACAD_REACTORS
330
8E
102
}
330
8E
100
AcDbScale
 70
     0
300
1/128" = 1'-0"
140
0.0078125
141
12.0
290
     0
  0
SCALE
  5
A1
102
{ACAD_REACTORS
330
8E
102
}
330
8E
100
AcDbScale
 70
     0
300
1/64" = 1'-0"
140
0.015625
141
12.0
290
     0
  0
SCALE
  5
A2
102
{ACAD_REACTORS
330
8E
102
}
330
8E
100
AcDbScale
 70
     0
300
1/32" = 1'-0"
140
0.03125
141
12.0
290
     0
  0
SCALE
  5
A3
102
{ACAD_REACTORS
330
8E
102
}
330
8E
100
AcDbScale
 70
     0
300
1/16" = 1'-0"
140
0.0625
141
12.0
290
     0
  0
SCALE
  5
A4
102
{ACAD_REACTORS
330
8E
102
}
330
8E
100
AcDbScale
 70
     0
300
3/32" = 1'-0"
140
0.09375
141
12.0
290
     0
  0
SCALE
  5
A5
102
{ACAD_REACTORS
330
8E
102
}
330
8E
100
AcDbScale
 70
     0
300
1/8" = 1'-0"
140
0.125
141
12.0
290
     0
  0
SCALE
  5
A6
102
{ACAD_REACTORS
330
8E
102
}
330
8E
100
AcDbScale
 70
     0
300
3/16" = 1'-0"
140
0.1875
141
12.0
290
     0
  0
SCALE
  5
A7
102
{ACAD_REACTORS
330
8E
102
}
330
8E
100
AcDbScale
 70
     0
300
1/4" = 1'-0"
140
0.25
141
12.0
290
     0
  0
SCALE
  5
A8
102
{ACAD_REACTORS
330
8E
102
}
330
8E
100
AcDbScale
 70
     0
300
3/8" = 1'-0"
140
0.375
141
12.0
290
     0
  0
SCALE
  5
A9
102
{ACAD_REACTORS
330
8E
102
}
330
8E
100
AcDbScale
 70
     0
300
1/2" = 1'-0"
140
0.5
141
12.0
290
     0
  0
SCALE
  5
AA
102
{ACAD_REACTORS
330
8E
102
}
330
8E
100
AcDbScale
 70
     0
300
3/4" = 1'-0"
140
0.75
141
12.0
290
     0
  0
SCALE
  5
AB
102
{ACAD_REACTORS
330
8E
102
}
330
8E
100
AcDbScale
 70
     0
300
1" = 1'-0"
140
1.0
141
12.0
290
     0
  0
SCALE
  5
AC
102
{ACAD_REACTORS
330
8E
102
}
330
8E
100
AcDbScale
 70
     0
300
1-1/2" = 1'-0"
140
1.5
141
12.0
290
     0
  0
SCALE
  5
AD
102
{ACAD_REACTORS
330
8E
102
}
330
8E
100
AcDbScale
 70
     0
300
3" = 1'-0"
140
3.0
141
12.0
290
     0
  0
SCALE
  5
AE
102
{ACAD_REACTORS
330
8E
102
}
330
8E
100
AcDbScale
 70
     0
300
6" = 1'-0"
140
6.0
141
12.0
290
     0
  0
SCALE
  5
AF
102
{ACAD_REACTORS
330
8E
102
}
330
8E
100
AcDbScale
 70
     0
300
1'-0" = 1'-0"
140
12.0
141
12.0
290
     0
  0
VISUALSTYLE
  5
2F
102
{ACAD_REACTORS
330
2A
102
}
330
2A
100
AcDbVisualStyle
  2
2dWireframe
 70
     4
 71
     0
 72
     2
 73
     0
 90
        0
 40
-0.6
 41
-30.0
 62
     5
 63
     7
 74
     1
 91
        4
 64
     7
 65
   257
 75
     1
175
     1
 42
1.0
 92
        0
 66
   257
 43
1.0
 76
     1
 77
     6
 78
     2
 67
     7
 79
     5
170
     0
171
     0
290
     0
174
     0
 93
        1
 44
0.0
173
     0
291
     0
 45
0.0
1001
ACAD
1000
AcDbSavedByObjectVersion
1070
     0
  0
VISUALSTYLE
  5
31
102
{ACAD_REACTORS
330
2A
102
}
330
2A
100
AcDbVisualStyle
  2
3D Hidden
 70
     6
 71
     1
 72
     2
 73
     2
 90
        0
 40
-0.6
 41
-30.0
 62
     5
 63
     7
 74
     2
 91
        2
 64
     7
 65
   257
 75
     2
175
     1
 42
40.0
 92
        0
 66
   257
 43
1.0
 76
     1
 77
     6
 78
     2
 67
     7
 79
     3
170
     0
171
     0
290
     0
174
     0
 93
        1
 44
0.0
173
     0
291
     0
 45
0.0
1001
ACAD
1000
AcDbSavedByObjectVersion
1070
     0
  0
VISUALSTYLE
  5
30
102
{ACAD_REACTORS
330
2A
102
}
330
2A
100
AcDbVisualStyle
  2
3dWireframe
 70
     5
 71
     0
 72
     2
 73
     0
 90
        0
 40
-0.6
 41
-30.0
 62
     5
 63
     7
 74
     1
 91
        4
 64
     7
 65
   257
 75
     1
175
     1
 42
1.0
 92
        0
 66
   257
 43
1.0
 76
     1
 77
     6
 78
     2
 67
     7
 79
     5
170
     0
171
     0
290
     0
174
     0
 93
        1
 44
0.0
173
     0
291
     0
 45
0.0
1001
ACAD
1000
AcDbSavedByObjectVersion
1070
     0
  0
VISUALSTYLE
  5
32
102
{ACAD_REACTORS
330
2A
102
}
330
2A
100
AcDbVisualStyle
  2
Basic
 70
     7
 71
     1
 72
     0
 73
     1
 90
        0
 40
-0.6
 41
-30.0
 62
     5
 63
     7
 74
     0
 91
        4
 64
     7
 65
   257
 75
     1
175
     1
 42
1.0
 92
        8
 66
     7
 43
1.0
 76
     1
 77
     6
 78
     2
 67
     7
 79
     5
170
     0
171
     0
290
     0
174
     0
 93
        1
 44
0.0
173
     0
291
     1
 45
0.0
1001
ACAD
1000
AcDbSavedByObjectVersion
1070
     0
  0
VISUALSTYLE
  5
36
102
{ACAD_REACTORS
330
2A
102
}
330
2A
100
AcDbVisualStyle
  2
Brighten
 70
    12
 71
     2
 72
     2
 73
     0
 90
        0
 40
-0.6
 41
-30.0
 62
     5
 63
     7
 74
     1
 91
        4
 64
     7
 65
   257
 75
     1
175
     1
 42
1.0
 92
        8
 66
     7
 43
1.0
 76
     1
 77
     6
 78
     2
 67
     7
 79
     5
170
     0
171
     0
290
     0
174
     0
 93
        1
 44
50.0
173
     0
291
     1
 45
0.0
1001
ACAD
1000
AcDbSavedByObjectVersion
1070
     0
  0
VISUALSTYLE
  5
3A
102
{ACAD_REACTORS
330
2A
102
}
330
2A
100
AcDbVisualStyle
  2
ColorChange
 70
    16
 71
     2
 72
     2
 73
     3
 90
        0
 40
-0.6
 41
-30.0
 62
     5
 63
     8
 74
     1
 91
        4
 64
     7
 65
   257
 75
     1
175
     1
 42
1.0
 92
        8
 66
     8
 43
1.0
 76
     1
 77
     6
 78
     2
 67
     7
 79
     5
170
     0
171
     0
290
     0
174
     0
 93
        1
 44
0.0
173
     0
291
     1
 45
0.0
1001
ACAD
1000
AcDbSavedByObjectVersion
1070
     0
  0
VISUALSTYLE
  5
34
102
{ACAD_REACTORS
330
2A
102
}
330
2A
100
AcDbVisualStyle
  2
Conceptual
 70
     9
 71
     3
 72
     2
 73
     0
 90
        0
 40
-0.6
 41
-30.0
 62
     5
 63
     7
 74
     2
 91
        2
 64
     7
 65
   257
 75
     1
175
     1
 42
40.0
 92
        8
 66
     7
 43
1.0
 76
     1
 77
     6
 78
     2
 67
     7
 79
     3
170
     0
171
     0
290
     0
174
     0
 93
        1
 44
0.0
173
     0
291
     0
 45
0.0
1001
ACAD
1000
AcDbSavedByObjectVersion
1070
     0
  0
VISUALSTYLE
  5
35
102
{ACAD_REACTORS
330
2A
102
}
330
2A
100
AcDbVisualStyle
  2
Dim
 70
    11
 71
     2
 72
     2
 73
     0
 90
        0
 40
-0.6
 41
-30.0
 62
     5
 63
     7
 74
     1
 91
        4
 64
     7
 65
   257
 75
     1
175
     1
 42
1.0
 92
        8
 66
     7
 43
1.0
 76
     1
 77
     6
 78
     2
 67
     7
 79
     5
170
     0
171
     0
290
     0
174
     0
 93
        1
 44
-50.0
173
     0
291
     1
 45
0.0
1001
ACAD
1000
AcDbSavedByObjectVersion
1070
     0
  0
VISUALSTYLE
  5
39
102
{ACAD_REACTORS
330
2A
102
}
330
2A
100
AcDbVisualStyle
  2
Facepattern
 70
    15
 71
     2
 72
     2
 73
     0
 90
        0
 40
-0.6
 41
-30.0
 62
     5
 63
     7
 74
     1
 91
        4
 64
     7
 65
   257
 75
     1
175
     1
 42
1.0
 92
        8
 66
     7
 43
1.0
 76
     1
 77
     6
 78
     2
 67
     7
 79
     5
170
     0
171
     0
290
     0
174
     0
 93
        1
 44
0.0
173
     0
291
     1
 45
0.0
1001
ACAD
1000
AcDbSavedByObjectVersion
1070
     0
  0
VISUALSTYLE
  5
2B
102
{ACAD_REACTORS
330
2A
102
}
330
2A
100
AcDbVisualStyle
  2
Flat
 70
     0
 71
     2
 72
     1
 73
     1
 90
        2
 40
-0.6
 41
30.0
 62
     5
 63
     7
 74
     0
 91
        4
 64
     7
 65
   257
 75
     1
175
     1
 42
1.0
 92
        8
 66
     7
 43
1.0
 76
     1
 77
     6
 78
     2
 67
     7
 79
     5
170
     0
171
     0
290
     0
174
     0
 93
       13
 44
0.0
173
     0
291
     1
 45
0.0
1001
ACAD
1000
AcDbSavedByObjectVersion
1070
     0
  0
VISUALSTYLE
  5
2C
102
{ACAD_REACTORS
330
2A
102
}
330
2A
100
AcDbVisualStyle
  2
FlatWithEdges
 70
     1
 71
     2
 72
     1
 73
     1
 90
        2
 40
-0.6
 41
30.0
 62
     5
 63
     7
 74
     1
 91
        4
 64
     7
 65
   257
 75
     1
175
     1
 42
1.0
 92
        0
 66
   257
 43
1.0
 76
     1
 77
     6
 78
     2
 67
     7
 79
     5
170
     0
171
     0
290
     0
174
     0
 93
       13
 44
0.0
173
     0
291
     1
 45
0.0
1001
ACAD
1000
AcDbSavedByObjectVersion
1070
     0
  0
VISUALSTYLE
  5
2D
102
{ACAD_REACTORS
330
2A
102
}
330
2A
100
AcDbVisualStyle
  2
Gouraud
 70
     2
 71
     2
 72
     2
 73
     1
 90
        2
 40
-0.6
 41
30.0
 62
     5
 63
     7
 74
     0
 91
        4
 64
     7
 65
   257
 75
     1
175
     1
 42
1.0
 92
        0
 66
     7
 43
1.0
 76
     1
 77
     6
 78
     2
 67
     7
 79
     5
170
     0
171
     0
290
     0
174
     0
 93
       13
 44
0.0
173
     0
291
     1
 45
0.0
1001
ACAD
1000
AcDbSavedByObjectVersion
1070
     0
  0
VISUALSTYLE
  5
2E
102
{ACAD_REACTORS
330
2A
102
}
330
2A
100
AcDbVisualStyle
  2
GouraudWithEdges
 70
     3
 71
     2
 72
     2
 73
     1
 90
        2
 40
-0.6
 41
30.0
 62
     5
 63
     7
 74
     1
 91
        4
 64
     7
 65
   257
 75
     1
175
     1
 42
1.0
 92
        0
 66
   257
 43
1.0
 76
     1
 77
     6
 78
     2
 67
     7
 79
     5
170
     0
171
     0
290
     0
174
     0
 93
       13
 44
0.0
173
     0
291
     1
 45
0.0
1001
ACAD
1000
AcDbSavedByObjectVersion
1070
     0
  0
VISUALSTYLE
  5
38
102
{ACAD_REACTORS
330
2A
102
}
330
2A
100
AcDbVisualStyle
  2
Linepattern
 70
    14
 71
     2
 72
     2
 73
     0
 90
        0
 40
-0.6
 41
-30.0
 62
     5
 63
     7
 74
     1
 91
        4
 64
     7
 65
   257
 75
     7
175
     7
 42
1.0
 92
        8
 66
     7
 43
1.0
 76
     1
 77
     6
 78
     2
 67
     7
 79
     5
170
     0
171
     0
290
     0
174
     0
 93
        1
 44
0.0
173
     0
291
     1
 45
0.0
1001
ACAD
1000
AcDbSavedByObjectVersion
1070
     0
  0
VISUALSTYLE
  5
33
102
{ACAD_REACTORS
330
2A
102
}
330
2A
100
AcDbVisualStyle
  2
Realistic
 70
     8
 71
     2
 72
     2
 73
     0
 90
        0
 40
-0.6
 41
-30.0
 62
     5
 63
     7
 74
     1
 91
        0
 64
     7
 65
   257
 75
     1
175
     1
 42
1.0
 92
        8
 66
     8
 43
1.0
 76
     1
 77
     6
 78
     2
 67
     7
 79
     5
170
     0
171
     0
290
     0
174
     0
 93
       13
 44
0.0
173
     0
291
     0
 45
0.0
1001
ACAD
1000
AcDbSavedByObjectVersion
1070
     0
  0
VISUALSTYLE
  5
37
102
{ACAD_REACTORS
330
2A
102
}
330
2A
100
AcDbVisualStyle
  2
Thicken
 70
    13
 71
     2
 72
     2
 73
     0
 90
        0
 40
-0.6
 41
-30.0
 62
     5
 63
     7
 74
     1
 91
        4
 64
     7
 65
   257
 75
     1
175
     1
 42
1.0
 92
       12
 66
     7
 43
1.0
 76
     1
 77
     6
 78
     2
 67
     7
 79
     5
170
     0
171
     0
290
     0
174
     0
 93
        1
 44
0.0
173
     0
291
     1
 45
0.0
1001
ACAD
1000
AcDbSavedByObjectVersion
1070
     0
  0
DICTIONARYVAR
  5
354
102
{ACAD_REACTORS
330
351
102
}
330
351
100
DictionaryVariables
280
     0
  1
1:1
  0
DICTIONARYVAR
  5
355
102
{ACAD_REACTORS
330
351
102
}
330
351
100
DictionaryVariables
280
     0
  1
2
  0
DICTIONARYVAR
  5
356
102
{ACAD_REACTORS
330
351
102
}
330
351
100
DictionaryVariables
280
     0
  1
1
  0
ENDSEC
  0
EOF
