  0
SECTION
  2
HEADER
  9
$ACADVER
  1
AC1012
  9
$DWGCODEPAGE
  3
ansi_1252
  9
$INSBASE
 10
0.0
 20
0.0
 30
0.0
  9
$EXTMIN
 10
0.0
 20
0.0
 30
0.0
  9
$EXTMAX
 10
11.0
 20
8.5
 30
0.0
  9
$LIMMIN
 10
0.0
 20
0.0
  9
$LIMMAX
 10
11.0
 20
8.5
  9
$ORTHOMODE
 70
     0
  9
$REGENMODE
 70
     1
  9
$FILLMODE
 70
     1
  9
$QTEXTMODE
 70
     0
  9
$MIRRTEXT
 70
     1
  9
$DRAGMODE
 70
     2
  9
$LTSCALE
 40
1.0
  9
$OSMODE
 70
    37
  9
$ATTMODE
 70
     1
  9
$TEXTSIZE
 40
0.125
  9
$TRACEWID
 40
0.05
  9
$TEXTSTYLE
  7
STANDARD
  9
$CLAYER
  8
0
  9
$CELTYPE
  6
BYLAYER
  9
$CECOLOR
 62
   256
  9
$CELTSCALE
 40
1.0
  9
$DELOBJ
 70
     1
  9
$DISPSILH
 70
     0
  9
$DIMSCALE
 40
1.0
  9
$DIMASZ
 40
0.13
  9
$DIMEXO
 40
0.05
  9
$DIMDLI
 40
0.38
  9
$DIMRND
 40
0.0
  9
$DIMDLE
 40
0.0
  9
$DIMEXE
 40
0.125
  9
$DIMTP
 40
0.0
  9
$DIMTM
 40
0.0
  9
$DIMTXT
 40
0.125
  9
$DIMCEN
 40
0.09
  9
$DIMTSZ
 40
0.0
  9
$DIMTOL
 70
     0
  9
$DIMLIM
 70
     0
  9
$DIMTIH
 70
     1
  9
$DIMTOH
 70
     1
  9
$DIMSE1
 70
     0
  9
$DIMSE2
 70
     0
  9
$DIMTAD
 70
     0
  9
$DIMZIN
 70
     0
  9
$DIMBLK
  1

  9
$DIMASO
 70
     1
  9
$DIMSHO
 70
     1
  9
$DIMPOST
  1

  9
$DIMAPOST
  1

  9
$DIMALT
 70
     0
  9
$DIMALTD
 70
     2
  9
$DIMALTF
 40
25.4
  9
$DIMLFAC
 40
2.0
  9
$DIMTOFL
 70
     0
  9
$DIMTVP
 40
0.0
  9
$DIMTIX
 70
     0
  9
$DIMSOXD
 70
     0
  9
$DIMSAH
 70
     0
  9
$DIMBLK1
  1

  9
$DIMBLK2
  1

  9
$DIMSTYLE
  2
STANDARD
  9
$DIMCLRD
 70
     0
  9
$DIMCLRE
 70
     0
  9
$DIMCLRT
 70
     0
  9
$DIMTFAC
 40
1.0
  9
$DIMGAP
 40
0.06
  9
$DIMJUST
 70
     0
  9
$DIMSD1
 70
     0
  9
$DIMSD2
 70
     0
  9
$DIMTOLJ
 70
     1
  9
$DIMTZIN
 70
     0
  9
$DIMALTZ
 70
     0
  9
$DIMALTTZ
 70
     0
  9
$DIMFIT
 70
     3
  9
$DIMUPT
 70
     0
  9
$DIMUNIT
 70
     2
  9
$DIMDEC
 70
     3
  9
$DIMTDEC
 70
     3
  9
$DIMALTU
 70
     2
  9
$DIMALTTD
 70
     2
  9
$DIMTXSTY
  7
STANDARD
  9
$DIMAUNIT
 70
     0
  9
$LUNITS
 70
     2
  9
$LUPREC
 70
     2
  9
$SKETCHINC
 40
0.1
  9
$FILLETRAD
 40
0.5
  9
$AUNITS
 70
     0
  9
$AUPREC
 70
     2
  9
$MENU
  1
.
  9
$ELEVATION
 40
0.0
  9
$PELEVATION
 40
0.0
  9
$THICKNESS
 40
0.0
  9
$LIMCHECK
 70
     0
  9
$CHAMFERA
 40
0.5
  9
$CHAMFERB
 40
0.5
  9
$CHAMFERC
 40
1.0
  9
$CHAMFERD
 40
0.0
  9
$SKPOLY
 70
     0
  9
$TDCREATE
 40
2455784.02817066
  9
$TDUPDATE
 40
2455784.028170671
  9
$TDINDWG
 40
0.0000000116
  9
$TDUSRTIMER
 40
0.0000000116
  9
$USRTIMER
 70
     1
  9
$ANGBASE
 50
0.0
  9
$ANGDIR
 70
     0
  9
$PDMODE
 70
     0
  9
$PDSIZE
 40
-1.0
  9
$PLINEWID
 40
0.0
  9
$COORDS
 70
     1
  9
$SPLFRAME
 70
     0
  9
$SPLINETYPE
 70
     6
  9
$SPLINESEGS
 70
     8
  9
$ATTDIA
 70
     0
  9
$ATTREQ
 70
     1
  9
$HANDLING
 70
     1
  9
$HANDSEED
  5
455
  9
$SURFTAB1
 70
     6
  9
$SURFTAB2
 70
     6
  9
$SURFTYPE
 70
     6
  9
$SURFU
 70
     6
  9
$SURFV
 70
     6
  9
$UCSNAME
  2

  9
$UCSORG
 10
0.0
 20
0.0
 30
0.0
  9
$UCSXDIR
 10
1.0
 20
0.0
 30
0.0
  9
$UCSYDIR
 10
0.0
 20
1.0
 30
0.0
  9
$PUCSNAME
  2

  9
$PUCSORG
 10
0.0
 20
0.0
 30
0.0
  9
$PUCSXDIR
 10
1.0
 20
0.0
 30
0.0
  9
$PUCSYDIR
 10
0.0
 20
1.0
 30
0.0
  9
$USERI1
 70
     0
  9
$USERI2
 70
     0
  9
$USERI3
 70
     0
  9
$USERI4
 70
     0
  9
$USERI5
 70
     0
  9
$USERR1
 40
0.0
  9
$USERR2
 40
0.0
  9
$USERR3
 40
0.0
  9
$USERR4
 40
0.0
  9
$USERR5
 40
0.0
  9
$WORLDVIEW
 70
     1
  9
$SHADEDGE
 70
     3
  9
$SHADEDIF
 70
    70
  9
$TILEMODE
 70
     1
  9
$MAXACTVP
 70
    64
  9
$PINSBASE
 10
0.0
 20
0.0
 30
0.0
  9
$PLIMCHECK
 70
     0
  9
$PEXTMIN
 10
1.0000000000E+20
 20
1.0000000000E+20
 30
1.0000000000E+20
  9
$PEXTMAX
 10
-1.0000000000E+20
 20
-1.0000000000E+20
 30
-1.0000000000E+20
  9
$PLIMMIN
 10
0.0
 20
0.0
  9
$PLIMMAX
 10
12.0
 20
9.0
  9
$UNITMODE
 70
     0
  9
$VISRETAIN
 70
     1
  9
$PLINEGEN
 70
     0
  9
$PSLTSCALE
 70
     1
  9
$TREEDEPTH
 70
  3020
  9
$PICKSTYLE
 70
     1
  9
$CMLSTYLE
  2
STANDARD
  9
$CMLJUST
 70
     0
  9
$CMLSCALE
 40
1.0
  9
$SAVEIMAGES
 70
     1
  0
ENDSEC
  0
SECTION
  2
CLASSES
  0
CLASS
  1
ACDBDICTIONARYWDFLT
  2
AcDbDictionaryWithDefault
  3
ObjectDBX Classes
 90
    32768
280
     0
281
     0
  0
CLASS
  1
VISUALSTYLE
  2
AcDbVisualStyle
  3
ObjectDBX Classes
 90
     4095
280
     0
281
     0
  0
CLASS
  1
SCALE
  2
AcDbScale
  3
ObjectDBX Classes
 90
     1153
280
     0
281
     0
  0
CLASS
  1
DICTIONARYVAR
  2
AcDbDictionaryVar
  3
ObjectDBX Classes
 90
        0
280
     0
281
     0
  0
CLASS
  1
XRECORD
  2
AcDbXrecord
  3
AutoCAD 2000
 90
    32768
280
     0
281
     0
  0
CLASS
  1
LWPOLYLINE
  2
AcDbPolyline
  3
AutoCAD 2000
 90
    32768
280
     0
281
     1
  0
CLASS
  1
HATCH
  2
AcDbHatch
  3
AutoCAD 2000
 90
    32768
280
     0
281
     1
  0
CLASS
  1
ACDBPLACEHOLDER
  2
AcDbPlaceHolder
  3
ObjectDBX Classes
 90
        0
280
     0
281
     0
  0
CLASS
  1
LAYOUT
  2
AcDbLayout
  3
ObjectDBX Classes
 90
        0
280
     0
281
     0
  0
ENDSEC
  0
SECTION
  2
TABLES
  0
TABLE
  2
VPORT
  5
8
330
0
100
AcDbSymbolTable
 70
     1
  0
VPORT
  5
29
330
8
100
AcDbSymbolTableRecord
100
AcDbViewportTableRecord
  2
*ACTIVE
 70
     0
 10
0.0
 20
0.0
 11
1.0
 21
1.0
 12
5.5
 22
4.25
 13
0.0
 23
0.0
 14
0.5
 24
0.5
 15
0.5
 25
0.5
 16
0.0
 26
0.0
 36
1.0
 17
0.0
 27
0.0
 37
0.0
 40
8.5
 41
1.2941176471
 42
50.0
 43
0.0
 44
0.0
 50
0.0
 51
0.0
 71
     0
 72
  2000
 73
     1
 74
     3
 75
     0
 76
     0
 77
     0
 78
     0
  0
ENDTAB
  0
TABLE
  2
LTYPE
  5
5
330
0
100
AcDbSymbolTable
 70
     6
  0
LTYPE
  5
14
330
5
100
AcDbSymbolTableRecord
100
AcDbLinetypeTableRecord
  2
BYBLOCK
 70
     0
  3

 72
    65
 73
     0
 40
0.0
  0
LTYPE
  5
15
330
5
100
AcDbSymbolTableRecord
100
AcDbLinetypeTableRecord
  2
BYLAYER
 70
     0
  3

 72
    65
 73
     0
 40
0.0
  0
LTYPE
  5
16
330
5
100
AcDbSymbolTableRecord
100
AcDbLinetypeTableRecord
  2
CONTINUOUS
 70
     0
  3
Solid line
 72
    65
 73
     0
 40
0.0
  0
LTYPE
  5
3B
330
5
100
AcDbSymbolTableRecord
100
AcDbLinetypeTableRecord
  2
HIDDEN
 70
     0
  3
Hidden __ __ __ __ __ __ __ __ __ __ __ __ __ __
 72
    65
 73
     2
 40
0.075
 49
0.05
 74
     0
 49
-0.025
 74
     0
  0
LTYPE
  5
3C
330
5
100
AcDbSymbolTableRecord
100
AcDbLinetypeTableRecord
  2
PHANTOM
 70
     0
  3
Phantom ______  __  __  ______  __  __  ______
 72
    65
 73
     6
 40
0.5
 49
0.25
 74
     0
 49
-0.05
 74
     0
 49
0.05
 74
     0
 49
-0.05
 74
     0
 49
0.05
 74
     0
 49
-0.05
 74
     0
  0
LTYPE
  5
3D
330
5
100
AcDbSymbolTableRecord
100
AcDbLinetypeTableRecord
  2
CENTER
 70
     0
  3
Center ____ _ ____ _ ____ _ ____ _ ____ _ ____
 72
    65
 73
     4
 40
0.4
 49
0.25
 74
     0
 49
-0.05
 74
     0
 49
0.05
 74
     0
 49
-0.05
 74
     0
  0
LTYPE
  5
3E
330
5
100
AcDbSymbolTableRecord
100
AcDbLinetypeTableRecord
  2
CENTERX2
 70
     0
  3
Center (2x) ________  __  ________  __  _____
 72
    65
 73
     4
 40
0.8
 49
0.5
 74
     0
 49
-0.1
 74
     0
 49
0.1
 74
     0
 49
-0.1
 74
     0
  0
LTYPE
  5
3F
330
5
100
AcDbSymbolTableRecord
100
AcDbLinetypeTableRecord
  2
DOT2
 70
     0
  3
Dot (.5x) ........................................
 72
    65
 73
     2
 40
0.025
 49
0.0
 74
     0
 49
-0.025
 74
     0
  0
ENDTAB
  0
TABLE
  2
LAYER
  5
2
330
0
100
AcDbSymbolTable
 70
     2
  0
LAYER
  5
10
330
2
100
AcDbSymbolTableRecord
100
AcDbLayerTableRecord
  2
0
 70
     0
 62
     7
  6
CONTINUOUS
  0
LAYER
  5
40
330
2
100
AcDbSymbolTableRecord
100
AcDbLayerTableRecord
  2
FORMAT
 70
     0
 62
     7
  6
CONTINUOUS
  0
ENDTAB
  0
TABLE
  2
STYLE
  5
3
330
0
100
AcDbSymbolTable
 70
     4
  0
STYLE
  5
11
330
3
100
AcDbSymbolTableRecord
100
AcDbTextStyleTableRecord
  2
STANDARD
 70
     0
 40
0.0
 41
1.0
 50
0.0
 71
     0
 42
0.2
  3
txt
  4

  0
STYLE
  5
6E
330
3
100
AcDbSymbolTableRecord
100
AcDbTextStyleTableRecord
  2
SLDTEXTSTYLE0
 70
     0
 40
0.0
 41
0.75
 50
0.0
 71
     0
 42
0.2
  3
TXT
  4

  0
STYLE
  5
93
330
3
100
AcDbSymbolTableRecord
100
AcDbTextStyleTableRecord
  2
SLDTEXTSTYLE1
 70
     0
 40
0.0
 41
0.6875
 50
0.0
 71
     0
 42
0.2
  3
TXT
  4

  0
STYLE
  5
99
330
3
100
AcDbSymbolTableRecord
100
AcDbTextStyleTableRecord
  2
SLDTEXTSTYLE2
 70
     0
 40
0.0
 41
0.6944444444
 50
0.0
 71
     0
 42
0.2
  3
TXT
  4

  0
ENDTAB
  0
TABLE
  2
VIEW
  5
6
330
0
100
AcDbSymbolTable
 70
     0
  0
ENDTAB
  0
TABLE
  2
UCS
  5
7
330
0
100
AcDbSymbolTable
 70
     0
  0
ENDTAB
  0
TABLE
  2
APPID
  5
9
330
0
100
AcDbSymbolTable
 70
     1
  0
APPID
  5
12
330
9
100
AcDbSymbolTableRecord
100
AcDbRegAppTableRecord
  2
ACAD
 70
     0
  0
ENDTAB
  0
TABLE
  2
DIMSTYLE
  5
A
330
0
100
AcDbSymbolTable
 70
     1
  0
DIMSTYLE
105
27
330
A
100
AcDbSymbolTableRecord
100
AcDbDimStyleTableRecord
  2
STANDARD
 70
     0
  3

  4

  5

  6

  7

 40
1.0
 41
0.18
 42
0.0625
 43
0.38
 44
0.18
 45
0.0
 46
0.0
 47
0.0
 48
0.0
140
0.18
141
0.09
142
0.0
143
25.4
144
1.0
145
0.0
146
1.0
147
0.09
 71
     0
 72
     0
 73
     1
 74
     1
 75
     0
 76
     0
 77
     0
 78
     0
170
     0
171
     2
172
     0
173
     0
174
     0
175
     0
176
     0
177
     0
178
     0
270
     2
271
     4
272
     4
273
     2
274
     2
340
11
275
     0
280
     0
281
     0
282
     0
283
     1
284
     0
285
     0
286
     0
287
     3
288
     0
  0
ENDTAB
  0
TABLE
  2
BLOCK_RECORD
  5
1
330
0
100
AcDbSymbolTable
 70
     4
  0
BLOCK_RECORD
  5
1F
330
1
100
AcDbSymbolTableRecord
100
AcDbBlockTableRecord
  2
*MODEL_SPACE
  0
BLOCK_RECORD
  5
1B
330
1
100
AcDbSymbolTableRecord
100
AcDbBlockTableRecord
  2
*PAPER_SPACE
  0
BLOCK_RECORD
  5
A8
330
1
100
AcDbSymbolTableRecord
100
AcDbBlockTableRecord
  2
SW_NOTE_0
  0
BLOCK_RECORD
  5
AE
330
1
100
AcDbSymbolTableRecord
100
AcDbBlockTableRecord
  2
SW_NOTE_1
  0
BLOCK_RECORD
  5
C2
330
1
100
AcDbSymbolTableRecord
100
AcDbBlockTableRecord
  2
SW_NOTE_2
  0
ENDTAB
  0
ENDSEC
  0
SECTION
  2
BLOCKS
  0
BLOCK
  5
20
330
1F
100
AcDbEntity
  8
0
100
AcDbBlockBegin
  2
*MODEL_SPACE
 70
     0
 10
0.0
 20
0.0
 30
0.0
  3
*MODEL_SPACE
  1

  0
ENDBLK
  5
21
330
1F
100
AcDbEntity
  8
0
100
AcDbBlockEnd
  0
BLOCK
  5
1C
330
1B
100
AcDbEntity
 67
     1
  8
0
100
AcDbBlockBegin
  2
*PAPER_SPACE
 70
     0
 10
0.0
 20
0.0
 30
0.0
  3
*PAPER_SPACE
  1

  0
ENDBLK
  5
1D
330
1B
100
AcDbEntity
 67
     1
  8
0
100
AcDbBlockEnd
  0
BLOCK
  5
A9
330
A8
100
AcDbEntity
  8
0
100
AcDbBlockBegin
  2
SW_NOTE_0
 70
     0
 10
0.0
 20
0.0
 30
0.0
  3
SW_NOTE_0
  1

  0
MTEXT
  5
AB
330
A8
100
AcDbEntity
  8
0
  6
CONTINUOUS
 62
     0
100
AcDbMText
 10
0.0
 20
0.0773440644
 30
0.0
 40
0.06
 41
0.0
 71
     1
 72
     1
  1
INTERPRET GEOMETRIC
  7
SLDTEXTSTYLE0
  0
MTEXT
  5
AC
330
A8
100
AcDbEntity
  8
0
  6
CONTINUOUS
 62
     0
100
AcDbMText
 10
0.0
 20
-0.0220260102
 30
0.0
 40
0.06
 41
0.0
 71
     1
 72
     1
  1
TOLERANCING PER:
  7
SLDTEXTSTYLE0
  0
ENDBLK
  5
AA
330
A8
100
AcDbEntity
  8
0
100
AcDbBlockEnd
  0
BLOCK
  5
AF
330
AE
100
AcDbEntity
  8
0
100
AcDbBlockBegin
  2
SW_NOTE_1
 70
     0
 10
0.0
 20
0.0
 30
0.0
  3
SW_NOTE_1
  1

  0
MTEXT
  5
B1
330
AE
100
AcDbEntity
  8
0
  6
CONTINUOUS
 62
     0
100
AcDbMText
 10
0.0
 20
0.0837894031
 30
0.0
 40
0.065
 41
0.0
 71
     1
 72
     1
  1
DIMENSIONS ARE IN INCHES
  7
SLDTEXTSTYLE0
  0
MTEXT
  5
B2
330
AE
100
AcDbEntity
  8
0
  6
CONTINUOUS
 62
     0
100
AcDbMText
 10
0.0
 20
-0.0205806729
 30
0.0
 40
0.065
 41
0.0
 71
     1
 72
     1
  1
TOLERANCES:
  7
SLDTEXTSTYLE0
  0
MTEXT
  5
B3
330
AE
100
AcDbEntity
  8
0
  6
CONTINUOUS
 62
     0
100
AcDbMText
 10
0.0
 20
-0.1249507489
 30
0.0
 40
0.065
 41
0.0
 71
     1
 72
     1
  1
FRACTIONAL
  7
SLDTEXTSTYLE0
  0
MTEXT
  5
B4
330
AE
100
AcDbEntity
  8
0
  6
CONTINUOUS
 62
     0
100
AcDbMText
 10
0.5175850875
 20
-0.1249507489
 30
0.0
 40
0.065
 41
0.0
 71
     1
 72
     1
  1
%%p
  7
SLDTEXTSTYLE0
  0
MTEXT
  5
B5
330
AE
100
AcDbEntity
  8
0
  6
CONTINUOUS
 62
     0
100
AcDbMText
 10
0.0
 20
-0.2293208248
 30
0.0
 40
0.065
 41
0.0
 71
     1
 72
     1
  1
ANGULAR: MACH
  7
SLDTEXTSTYLE0
  0
MTEXT
  5
B6
330
AE
100
AcDbEntity
  8
0
  6
CONTINUOUS
 62
     0
100
AcDbMText
 10
0.7233732769
 20
-0.2293208248
 30
0.0
 40
0.065
 41
0.0
 71
     1
 72
     1
  1
%%p
  7
SLDTEXTSTYLE0
  0
MTEXT
  5
B7
330
AE
100
AcDbEntity
  8
0
  6
CONTINUOUS
 62
     0
100
AcDbMText
 10
0.7852857683
 20
-0.2293208248
 30
0.0
 40
0.065
 41
0.0
 71
     1
 72
     1
  1
     BEND 
  7
SLDTEXTSTYLE0
  0
MTEXT
  5
B8
330
AE
100
AcDbEntity
  8
0
  6
CONTINUOUS
 62
     0
100
AcDbMText
 10
1.14784136
 20
-0.2293208248
 30
0.0
 40
0.065
 41
0.0
 71
     1
 72
     1
  1
%%p
  7
SLDTEXTSTYLE0
  0
MTEXT
  5
B9
330
AE
100
AcDbEntity
  8
0
  6
CONTINUOUS
 62
     0
100
AcDbMText
 10
0.0
 20
-0.3336909008
 30
0.0
 40
0.065
 41
0.0
 71
     1
 72
     1
  1
TWO PLACE DECIMAL    
  7
SLDTEXTSTYLE0
  0
MTEXT
  5
BA
330
AE
100
AcDbEntity
  8
0
  6
CONTINUOUS
 62
     0
100
AcDbMText
 10
0.9794349188
 20
-0.3336909008
 30
0.0
 40
0.065
 41
0.0
 71
     1
 72
     1
  1
%%p
  7
SLDTEXTSTYLE0
  0
MTEXT
  5
BB
330
AE
100
AcDbEntity
  8
0
  6
CONTINUOUS
 62
     0
100
AcDbMText
 10
0.0
 20
-0.4380609768
 30
0.0
 40
0.065
 41
0.0
 71
     1
 72
     1
  1
THREE PLACE DECIMAL  
  7
SLDTEXTSTYLE0
  0
MTEXT
  5
BC
330
AE
100
AcDbEntity
  8
0
  6
CONTINUOUS
 62
     0
100
AcDbMText
 10
0.9738038639
 20
-0.4380609768
 30
0.0
 40
0.065
 41
0.0
 71
     1
 72
     1
  1
%%p
  7
SLDTEXTSTYLE0
  0
ENDBLK
  5
B0
330
AE
100
AcDbEntity
  8
0
100
AcDbBlockEnd
  0
BLOCK
  5
C3
330
C2
100
AcDbEntity
  8
0
100
AcDbBlockBegin
  2
SW_NOTE_2
 70
     0
 10
0.0
 20
0.0
 30
0.0
  3
SW_NOTE_2
  1

  0
MTEXT
  5
C5
330
C2
100
AcDbEntity
  8
0
  6
CONTINUOUS
 62
     0
100
AcDbMText
 10
0.0
 20
0.0773440644
 30
0.0
 40
0.06
 41
0.0
 71
     1
 72
     1
  1
THE INFORMATION CONTAINED IN THIS
  7
SLDTEXTSTYLE0
  0
MTEXT
  5
C6
330
C2
100
AcDbEntity
  8
0
  6
CONTINUOUS
 62
     0
100
AcDbMText
 10
0.0
 20
-0.0220260102
 30
0.0
 40
0.06
 41
0.0
 71
     1
 72
     1
  1
DRAWING IS THE SOLE PROPERTY OF
  7
SLDTEXTSTYLE0
  0
MTEXT
  5
C7
330
C2
100
AcDbEntity
  8
0
  6
CONTINUOUS
 62
     0
100
AcDbMText
 10
0.0
 20
-0.1213960848
 30
0.0
 40
0.06
 41
0.0
 71
     1
 72
     1
  1
Candy Controls.  ANY 
  7
SLDTEXTSTYLE0
  0
MTEXT
  5
C8
330
C2
100
AcDbEntity
  8
0
  6
CONTINUOUS
 62
     0
100
AcDbMText
 10
0.0
 20
-0.2207661593
 30
0.0
 40
0.06
 41
0.0
 71
     1
 72
     1
  1
REPRODUCTION IN PART OR AS A WHOLE
  7
SLDTEXTSTYLE0
  0
MTEXT
  5
C9
330
C2
100
AcDbEntity
  8
0
  6
CONTINUOUS
 62
     0
100
AcDbMText
 10
0.0
 20
-0.3201362339
 30
0.0
 40
0.06
 41
0.0
 71
     1
 72
     1
  1
WITHOUT THE WRITTEN PERMISSION OF
  7
SLDTEXTSTYLE0
  0
MTEXT
  5
CA
330
C2
100
AcDbEntity
  8
0
  6
CONTINUOUS
 62
     0
100
AcDbMText
 10
0.0
 20
-0.4195063085
 30
0.0
 40
0.06
 41
0.0
 71
     1
 72
     1
  1
Candy Controls IS 
  7
SLDTEXTSTYLE0
  0
MTEXT
  5
CB
330
C2
100
AcDbEntity
  8
0
  6
CONTINUOUS
 62
     0
100
AcDbMText
 10
0.0
 20
-0.518876383
 30
0.0
 40
0.06
 41
0.0
 71
     1
 72
     1
  1
PROHIBITED.
  7
SLDTEXTSTYLE0
  0
ENDBLK
  5
C4
330
C2
100
AcDbEntity
  8
0
100
AcDbBlockEnd
  0
ENDSEC
  0
SECTION
  2
ENTITIES
  0
LINE
  5
41
330
1F
100
AcDbEntity
  8
0
  6
CONTINUOUS
 62
     7
100
AcDbLine
 10
0.329927
 20
8.1920731707
 30
0.0
 11
10.629927
 21
8.1920731707
 31
0.0
  0
LINE
  5
42
330
1F
100
AcDbEntity
  8
0
  6
CONTINUOUS
 62
     7
100
AcDbLine
 10
0.329927
 20
8.1920731707
 30
0.0
 11
0.329927
 21
0.3920731707
 31
0.0
  0
LINE
  5
43
330
1F
100
AcDbEntity
  8
0
  6
CONTINUOUS
 62
     7
100
AcDbLine
 10
10.629927
 20
0.3920731707
 30
0.0
 11
0.329927
 21
0.3920731707
 31
0.0
  0
LINE
  5
44
330
1F
100
AcDbEntity
  8
0
  6
CONTINUOUS
 62
     7
100
AcDbLine
 10
10.629927
 20
0.3920731707
 30
0.0
 11
10.629927
 21
8.1920731707
 31
0.0
  0
LINE
  5
45
330
1F
100
AcDbEntity
  8
0
  6
CONTINUOUS
 62
     7
100
AcDbLine
 10
4.7981841288
 20
0.3920731707
 30
0.0
 11
4.7981841288
 21
2.3564211366
 31
0.0
  0
LINE
  5
46
330
1F
100
AcDbEntity
  8
0
  6
CONTINUOUS
 62
     7
100
AcDbLine
 10
2.8210345579
 20
2.3564211366
 30
0.0
 11
10.629927
 21
2.3564211366
 31
0.0
  0
LINE
  5
47
330
1F
100
AcDbEntity
  8
0
  6
CONTINUOUS
 62
     7
100
AcDbLine
 10
6.1796352514
 20
2.3564211366
 30
0.0
 11
6.1796352514
 21
0.3920731707
 31
0.0
  0
LINE
  5
48
330
1F
100
AcDbEntity
  8
0
  6
CONTINUOUS
 62
     7
100
AcDbLine
 10
7.8712070044
 20
2.3564211366
 30
0.0
 11
7.8712070044
 21
0.3920731707
 31
0.0
  0
LINE
  5
49
330
1F
100
AcDbEntity
  8
0
  6
CONTINUOUS
 62
     7
100
AcDbLine
 10
7.8712070044
 20
0.6049590101
 30
0.0
 11
10.629927
 21
0.6049590101
 31
0.0
  0
LINE
  5
4A
330
1F
100
AcDbEntity
  8
0
  6
CONTINUOUS
 62
     7
100
AcDbLine
 10
7.8712070044
 20
1.1119362457
 30
0.0
 11
10.629927
 21
1.1119362457
 31
0.0
  0
LINE
  5
4B
330
1F
100
AcDbEntity
  8
0
  6
CONTINUOUS
 62
     7
100
AcDbLine
 10
7.8712070044
 20
1.9892703708
 30
0.0
 11
10.629927
 21
1.9892703708
 31
0.0
  0
LINE
  5
4C
330
1F
100
AcDbEntity
  8
0
  6
CONTINUOUS
 62
     7
100
AcDbLine
 10
8.266751752
 20
1.1119362457
 30
0.0
 11
8.266751752
 21
0.6049590101
 31
0.0
  0
LINE
  5
4D
330
1F
100
AcDbEntity
  8
0
  6
CONTINUOUS
 62
     7
100
AcDbLine
 10
8.6943435176
 20
0.6049590101
 30
0.0
 11
8.6943435176
 21
0.3920731707
 31
0.0
  0
LINE
  5
4E
330
1F
100
AcDbEntity
  8
0
  6
CONTINUOUS
 62
     7
100
AcDbLine
 10
10.0579917045
 20
1.1119362457
 30
0.0
 11
10.0579917045
 21
0.6049590101
 31
0.0
  0
LINE
  5
4F
330
1F
100
AcDbEntity
  8
0
  6
CONTINUOUS
 62
     7
100
AcDbLine
 10
9.6662556631
 20
0.6049590101
 30
0.0
 11
9.6662556631
 21
0.3920731707
 31
0.0
  0
LINE
  5
50
330
1F
100
AcDbEntity
  8
0
  6
CONTINUOUS
 62
     7
100
AcDbLine
 10
2.8210345579
 20
0.5883479999
 30
0.0
 11
6.1796352514
 21
0.5883479999
 31
0.0
  0
LINE
  5
51
330
1F
100
AcDbEntity
  8
0
  6
CONTINUOUS
 62
     7
100
AcDbLine
 10
6.1796352514
 20
1.7939211366
 30
0.0
 11
7.8712070044
 21
1.7939211366
 31
0.0
  0
LINE
  5
52
330
1F
100
AcDbEntity
  8
0
  6
CONTINUOUS
 62
     7
100
AcDbLine
 10
6.1796352514
 20
1.9814211366
 30
0.0
 11
7.8712070044
 21
1.9814211366
 31
0.0
  0
LINE
  5
53
330
1F
100
AcDbEntity
  8
0
  6
CONTINUOUS
 62
     7
100
AcDbLine
 10
6.1796352514
 20
2.1689211366
 30
0.0
 11
7.8712070044
 21
2.1689211366
 31
0.0
  0
LINE
  5
54
330
1F
100
AcDbEntity
  8
0
  6
CONTINUOUS
 62
     7
100
AcDbLine
 10
7.8712070044
 20
1.2314211366
 30
0.0
 11
6.1796352514
 21
1.2314211366
 31
0.0
  0
LINE
  5
55
330
1F
100
AcDbEntity
  8
0
  6
CONTINUOUS
 62
     7
100
AcDbLine
 10
7.3921580388
 20
2.3564211366
 30
0.0
 11
7.3921580388
 21
1.2314211366
 31
0.0
  0
LINE
  5
56
330
1F
100
AcDbEntity
  8
0
  6
CONTINUOUS
 62
     7
100
AcDbLine
 10
6.9236308342
 20
2.3564211366
 30
0.0
 11
6.9236308342
 21
1.2314211366
 31
0.0
  0
LINE
  5
57
330
1F
100
AcDbEntity
  8
0
  6
CONTINUOUS
 62
     7
100
AcDbLine
 10
4.7981841288
 20
0.8557965305
 30
0.0
 11
6.1796352514
 21
0.8557965305
 31
0.0
  0
LINE
  5
58
330
1F
100
AcDbEntity
  8
0
  6
CONTINUOUS
 62
     7
100
AcDbLine
 10
4.7981841288
 20
1.1257965305
 30
0.0
 11
6.1796352514
 21
1.1257965305
 31
0.0
  0
LINE
  5
59
330
1F
100
AcDbEntity
  8
0
  6
CONTINUOUS
 62
     7
100
AcDbLine
 10
2.8210345579
 20
0.3920731707
 30
0.0
 11
2.8210345579
 21
2.3564211366
 31
0.0
  0
LINE
  5
5A
330
1F
100
AcDbEntity
  8
0
  6
CONTINUOUS
 62
     7
100
AcDbLine
 10
2.8210345579
 20
1.1064211366
 30
0.0
 11
4.7981841288
 21
1.1064211366
 31
0.0
  0
LINE
  5
5B
330
1F
100
AcDbEntity
  8
0
  6
CONTINUOUS
 62
     7
100
AcDbLine
 10
2.8210345579
 20
1.3564211366
 30
0.0
 11
4.7981841288
 21
1.3564211366
 31
0.0
  0
LINE
  5
5C
330
1F
100
AcDbEntity
  8
0
  6
CONTINUOUS
 62
     7
100
AcDbLine
 10
2.8210345579
 20
1.6064211366
 30
0.0
 11
4.7981841288
 21
1.6064211366
 31
0.0
  0
LINE
  5
5D
330
1F
100
AcDbEntity
  8
0
  6
CONTINUOUS
 62
     7
100
AcDbLine
 10
2.8210345579
 20
1.8564211366
 30
0.0
 11
4.7981841288
 21
1.8564211366
 31
0.0
  0
LINE
  5
5E
330
1F
100
AcDbEntity
  8
0
  6
CONTINUOUS
 62
     7
100
AcDbLine
 10
3.8190146875
 20
2.3564211366
 30
0.0
 11
3.8190146875
 21
0.5883479999
 31
0.0
  0
LINE
  5
5F
330
1F
100
AcDbEntity
  8
0
  6
CONTINUOUS
 62
     7
100
AcDbLine
 10
6.1796352514
 20
2.2020813496
 30
0.0
 11
4.7981841288
 21
2.2020813496
 31
0.0
  0
LINE
  5
60
330
1F
100
AcDbEntity
  8
0
  6
CONTINUOUS
 62
     7
100
AcDbLine
 10
7.8712070044
 20
1.6064211366
 30
0.0
 11
6.1796352514
 21
1.6064211366
 31
0.0
  0
LINE
  5
61
330
1F
100
AcDbEntity
  8
0
  6
CONTINUOUS
 62
     7
100
AcDbLine
 10
7.8712070044
 20
1.4189211366
 30
0.0
 11
6.1796352514
 21
1.4189211366
 31
0.0
  0
LINE
  5
62
330
1F
100
AcDbEntity
  8
0
  6
CONTINUOUS
 62
     7
100
AcDbLine
 10
2.8210345579
 20
2.1064211366
 30
0.0
 11
4.7981841288
 21
2.1064211366
 31
0.0
  0
LINE
  5
63
330
1F
100
AcDbEntity
  8
0
  6
CONTINUOUS
 62
     7
100
AcDbLine
 10
4.7981841288
 20
1.3957965305
 30
0.0
 11
6.1796352514
 21
1.3957965305
 31
0.0
  0
LINE
  5
64
330
1F
100
AcDbEntity
  8
0
  6
CONTINUOUS
 62
     7
100
AcDbLine
 10
2.8210345579
 20
0.8564211366
 30
0.0
 11
4.7981841288
 21
0.8564211366
 31
0.0
  0
LINE
  5
65
330
1F
100
AcDbEntity
  8
0
  6
CONTINUOUS
 62
     7
100
AcDbLine
 10
1.1838252943
 20
0.3920731707
 30
0.0
 11
1.1838252943
 21
1.3064211366
 31
0.0
  0
LINE
  5
66
330
1F
100
AcDbEntity
  8
0
  6
CONTINUOUS
 62
     7
100
AcDbLine
 10
2.8210345579
 20
1.3064211366
 30
0.0
 11
1.1838252943
 21
1.3064211366
 31
0.0
  0
LINE
  5
67
330
1F
100
AcDbEntity
  8
0
  6
CONTINUOUS
 62
     7
100
AcDbLine
 10
8.660927
 20
0.3920731707
 30
0.0
 11
8.660927
 21
0.3072739649
 31
0.0
  0
LINE
  5
68
330
1F
100
AcDbEntity
  8
0
  6
CONTINUOUS
 62
     7
100
AcDbLine
 10
6.692177
 20
0.3920731707
 30
0.0
 11
6.692177
 21
0.3072739649
 31
0.0
  0
LINE
  5
69
330
1F
100
AcDbEntity
  8
0
  6
CONTINUOUS
 62
     7
100
AcDbLine
 10
4.723427
 20
0.3920731707
 30
0.0
 11
4.723427
 21
0.3072739649
 31
0.0
  0
LINE
  5
6A
330
1F
100
AcDbEntity
  8
0
  6
CONTINUOUS
 62
     7
100
AcDbLine
 10
2.754677
 20
0.3920731707
 30
0.0
 11
2.754677
 21
0.3072739649
 31
0.0
  0
LINE
  5
6B
330
1F
100
AcDbEntity
  8
0
  6
CONTINUOUS
 62
     7
100
AcDbLine
 10
2.754677
 20
0.3920731707
 30
0.0
 11
2.7672319738
 21
0.3575
 31
0.0
  0
LINE
  5
6C
330
1F
100
AcDbEntity
  8
0
  6
CONTINUOUS
 62
     7
100
AcDbLine
 10
2.7672319738
 20
0.3575
 30
0.0
 11
2.7414258825
 21
0.3575
 31
0.0
  0
LINE
  5
6D
330
1F
100
AcDbEntity
  8
0
  6
CONTINUOUS
 62
     7
100
AcDbLine
 10
2.7414258825
 20
0.3575
 30
0.0
 11
2.754677
 21
0.3920731707
 31
0.0
  0
MTEXT
  5
91
330
1F
100
AcDbEntity
  8
0
  6
CONTINUOUS
 62
     7
100
AcDbMText
 10
4.9775846961
 20
0.5178452352
 30
0.0
 40
0.0625
 41
0.0
 71
     1
 72
     1
  1
DO NOT SCALE DRAWING
  7
SLDTEXTSTYLE0
  0
MTEXT
  5
92
330
1F
100
AcDbEntity
  8
0
  6
CONTINUOUS
 62
     7
100
AcDbMText
 10
8.9032085952
 20
0.9417064595
 30
0.0
 40
0.125
 41
0.0
 71
     1
 72
     1
  1
CL7-63
  7
SLDTEXTSTYLE0
  0
MTEXT
  5
94
330
1F
100
AcDbEntity
  8
0
  6
CONTINUOUS
 62
     7
100
AcDbMText
 10
9.7571278483
 20
0.5524239532
 30
0.0
 40
0.1
 41
0.0
 71
     1
 72
     1
  1
SHEET 1 OF 1
  7
SLDTEXTSTYLE1
  0
MTEXT
  5
95
330
1F
100
AcDbEntity
  8
0
  6
CONTINUOUS
 62
     7
100
AcDbMText
 10
4.8448077858
 20
2.3132954224
 30
0.0
 40
0.07
 41
0.0
 71
     1
 72
     1
  1
UNLESS OTHERWISE SPECIFIED:
  7
SLDTEXTSTYLE0
  0
MTEXT
  5
96
330
1F
100
AcDbEntity
  8
0
  6
CONTINUOUS
 62
     7
100
AcDbMText
 10
7.9586139647
 20
0.5520987879
 30
0.0
 40
0.1
 41
0.0
 71
     1
 72
     1
  1
SCALE: 1:2
  7
SLDTEXTSTYLE0
  0
MTEXT
  5
97
330
1F
100
AcDbEntity
  8
0
  6
CONTINUOUS
 62
     7
100
AcDbMText
 10
8.7023691647
 20
0.5486763345
 30
0.0
 40
0.1
 41
0.0
 71
     1
 72
     1
  1
WEIGHT: 
  7
SLDTEXTSTYLE0
  0
MTEXT
  5
98
330
1F
100
AcDbEntity
  8
0
  6
CONTINUOUS
 62
     7
100
AcDbMText
 10
10.2277580983
 20
1.081966299
 30
0.0
 40
0.1
 41
0.0
 71
     1
 72
     1
  1
REV
  7
SLDTEXTSTYLE0
  0
MTEXT
  5
9A
330
1F
100
AcDbEntity
  8
0
  6
CONTINUOUS
 62
     7
100
AcDbMText
 10
8.2984570898
 20
1.0858725293
 30
0.0
 40
0.1
 41
0.0
 71
     1
 72
     1
  1
DWG.  NO.
  7
SLDTEXTSTYLE2
  0
MTEXT
  5
9B
330
1F
100
AcDbEntity
  8
0
  6
CONTINUOUS
 62
     7
100
AcDbMText
 10
7.9598482632
 20
0.9442140768
 30
0.0
 40
0.25
 41
0.0
 71
     1
 72
     1
  1
A
  7
SLDTEXTSTYLE0
  0
MTEXT
  5
9C
330
1F
100
AcDbEntity
  8
0
  6
CONTINUOUS
 62
     7
100
AcDbMText
 10
7.9519581822
 20
1.0872713483
 30
0.0
 40
0.1
 41
0.0
 71
     1
 72
     1
  1
SIZE
  7
SLDTEXTSTYLE0
  0
MTEXT
  5
9D
330
1F
100
AcDbEntity
  8
0
  6
CONTINUOUS
 62
     7
100
AcDbMText
 10
7.9170704177
 20
1.9547881128
 30
0.0
 40
0.1
 41
0.0
 71
     1
 72
     1
  1
TITLE:
  7
SLDTEXTSTYLE0
  0
MTEXT
  5
9E
330
1F
100
AcDbEntity
  8
0
  6
CONTINUOUS
 62
     7
100
AcDbMText
 10
7.0363774929
 20
2.2906161274
 30
0.0
 40
0.065
 41
0.0
 71
     1
 72
     1
  1
NAME
  7
SLDTEXTSTYLE0
  0
MTEXT
  5
9F
330
1F
100
AcDbEntity
  8
0
  6
CONTINUOUS
 62
     7
100
AcDbMText
 10
7.5281510634
 20
2.2888799118
 30
0.0
 40
0.065
 41
0.0
 71
     1
 72
     1
  1
DATE
  7
SLDTEXTSTYLE0
  0
MTEXT
  5
A0
330
1F
100
AcDbEntity
  8
0
  6
CONTINUOUS
 62
     7
100
AcDbMText
 10
6.2277147029
 20
1.1876913145
 30
0.0
 40
0.065
 41
0.0
 71
     1
 72
     1
  1
COMMENTS:
  7
SLDTEXTSTYLE0
  0
MTEXT
  5
A1
330
1F
100
AcDbEntity
  8
0
  6
CONTINUOUS
 62
     7
100
AcDbMText
 10
6.2268411461
 20
1.3536101679
 30
0.0
 40
0.065
 41
0.0
 71
     1
 72
     1
  1
Q.A.
  7
SLDTEXTSTYLE0
  0
MTEXT
  5
A2
330
1F
100
AcDbEntity
  8
0
  6
CONTINUOUS
 62
     7
100
AcDbMText
 10
6.2284654509
 20
1.5395328424
 30
0.0
 40
0.065
 41
0.0
 71
     1
 72
     1
  1
MFG APPR.
  7
SLDTEXTSTYLE0
  0
MTEXT
  5
A3
330
1F
100
AcDbEntity
  8
0
  6
CONTINUOUS
 62
     7
100
AcDbMText
 10
6.2235171344
 20
1.7267501785
 30
0.0
 40
0.065
 41
0.0
 71
     1
 72
     1
  1
ENG APPR.
  7
SLDTEXTSTYLE0
  0
MTEXT
  5
A4
330
1F
100
AcDbEntity
  8
0
  6
CONTINUOUS
 62
     7
100
AcDbMText
 10
6.2264103951
 20
1.9092699088
 30
0.0
 40
0.065
 41
0.0
 71
     1
 72
     1
  1
CHECKED
  7
SLDTEXTSTYLE0
  0
MTEXT
  5
A5
330
1F
100
AcDbEntity
  8
0
  6
CONTINUOUS
 62
     7
100
AcDbMText
 10
6.2242794356
 20
2.1016301232
 30
0.0
 40
0.065
 41
0.0
 71
     1
 72
     1
  1
DRAWN
  7
SLDTEXTSTYLE0
  0
MTEXT
  5
A6
330
1F
100
AcDbEntity
  8
0
  6
CONTINUOUS
 62
     7
100
AcDbMText
 10
4.8208600979
 20
0.834523235
 30
0.0
 40
0.06
 41
0.0
 71
     1
 72
     1
  1
FINISH
  7
SLDTEXTSTYLE0
  0
MTEXT
  5
A7
330
1F
100
AcDbEntity
  8
0
  6
CONTINUOUS
 62
     7
100
AcDbMText
 10
4.8181240648
 20
1.1028217587
 30
0.0
 40
0.06
 41
0.0
 71
     1
 72
     1
  1
MATERIAL
  7
SLDTEXTSTYLE0
  0
INSERT
  5
AD
330
1F
100
AcDbEntity
  8
0
  6
CONTINUOUS
 62
     7
100
AcDbBlockReference
  2
SW_NOTE_0
 10
4.8231926633
 20
1.2646542947
 30
0.0
  0
INSERT
  5
BD
330
1F
100
AcDbEntity
  8
0
  6
CONTINUOUS
 62
     7
100
AcDbBlockReference
  2
SW_NOTE_1
 10
4.8353339353
 20
2.0049168724
 30
0.0
  0
MTEXT
  5
BE
330
1F
100
AcDbEntity
  8
0
  6
CONTINUOUS
 62
     7
100
AcDbMText
 10
3.5531400086
 20
0.5200091997
 30
0.0
 40
0.0625
 41
0.0
 71
     1
 72
     1
  1
APPLICATION
  7
SLDTEXTSTYLE0
  0
MTEXT
  5
BF
330
1F
100
AcDbEntity
  8
0
  6
CONTINUOUS
 62
     7
100
AcDbMText
 10
4.1005607758
 20
0.7502454275
 30
0.0
 40
0.0625
 41
0.0
 71
     1
 72
     1
  1
USED ON
  7
SLDTEXTSTYLE0
  0
MTEXT
  5
C0
330
1F
100
AcDbEntity
  8
0
  6
CONTINUOUS
 62
     7
100
AcDbMText
 10
3.1040019536
 20
0.7492094783
 30
0.0
 40
0.0625
 41
0.0
 71
     1
 72
     1
  1
NEXT ASSY
  7
SLDTEXTSTYLE0
  0
MTEXT
  5
C1
330
1F
100
AcDbEntity
  8
0
  6
CONTINUOUS
 62
     7
100
AcDbMText
 10
1.3712489489
 20
1.2496672684
 30
0.0
 40
0.06
 41
0.0
 71
     1
 72
     1
  1
PROPRIETARY AND CONFIDENTIAL
  7
SLDTEXTSTYLE0
  0
INSERT
  5
CC
330
1F
100
AcDbEntity
  8
0
  6
CONTINUOUS
 62
     7
100
AcDbBlockReference
  2
SW_NOTE_2
 10
1.2226209074
 20
1.0313492921
 30
0.0
  0
MTEXT
  5
CD
330
1F
100
AcDbEntity
  8
0
  6
CONTINUOUS
 62
     7
100
AcDbMText
 10
1.7387909509
 20
0.3105864247
 30
0.0
 40
0.09375
 41
0.0
 71
     1
 72
     1
  1
5
  7
SLDTEXTSTYLE0
  0
MTEXT
  5
CE
330
1F
100
AcDbEntity
  8
0
  6
CONTINUOUS
 62
     7
100
AcDbMText
 10
3.723800327
 20
0.3137237518
 30
0.0
 40
0.09375
 41
0.0
 71
     1
 72
     1
  1
4
  7
SLDTEXTSTYLE0
  0
MTEXT
  5
CF
330
1F
100
AcDbEntity
  8
0
  6
CONTINUOUS
 62
     7
100
AcDbMText
 10
5.6324457277
 20
0.3116191842
 30
0.0
 40
0.09375
 41
0.0
 71
     1
 72
     1
  1
3
  7
SLDTEXTSTYLE0
  0
MTEXT
  5
D0
330
1F
100
AcDbEntity
  8
0
  6
CONTINUOUS
 62
     7
100
AcDbMText
 10
7.6059721724
 20
0.3124391351
 30
0.0
 40
0.09375
 41
0.0
 71
     1
 72
     1
  1
2
  7
SLDTEXTSTYLE0
  0
MTEXT
  5
D1
330
1F
100
AcDbEntity
  8
0
  6
CONTINUOUS
 62
     7
100
AcDbMText
 10
9.6619921328
 20
0.301372012
 30
0.0
 40
0.09375
 41
0.0
 71
     1
 72
     1
  1
1
  7
SLDTEXTSTYLE0
  0
LINE
  5
D2
330
1F
100
AcDbEntity
  8
0
  6
CONTINUOUS
 62
     7
100
AcDbLine
 10
2.4483093317
 20
3.1376152943
 30
0.0
 11
4.204962875
 21
3.1376152943
 31
0.0
  0
LINE
  5
D3
330
1F
100
AcDbEntity
  8
0
  6
CONTINUOUS
 62
     7
100
AcDbLine
 10
2.6238592339
 20
4.3777727746
 30
0.0
 11
2.4483093317
 21
4.3777727746
 31
0.0
  0
LINE
  5
D4
330
1F
100
AcDbEntity
  8
0
  6
CONTINUOUS
 62
     7
100
AcDbLine
 10
3.8837017535
 20
4.3777727746
 30
0.0
 11
2.7695624128
 21
4.3777727746
 31
0.0
  0
LINE
  5
D5
330
1F
100
AcDbEntity
  8
0
  6
CONTINUOUS
 62
     7
100
AcDbLine
 10
4.204962875
 20
4.3777727746
 30
0.0
 11
4.0294049325
 21
4.3777727746
 31
0.0
  0
LINE
  5
D6
330
1F
100
AcDbEntity
  8
0
  6
CONTINUOUS
 62
     7
100
AcDbLine
 10
4.204962875
 20
3.1376152943
 30
0.0
 11
4.212462875
 21
3.1451152943
 31
0.0
  0
LINE
  5
D7
330
1F
100
AcDbEntity
  8
0
  6
CONTINUOUS
 62
     7
100
AcDbLine
 10
4.212462875
 20
4.3702727746
 30
0.0
 11
4.204962875
 21
4.3777727746
 31
0.0
  0
LINE
  5
D8
330
1F
100
AcDbEntity
  8
0
  6
CONTINUOUS
 62
     7
100
AcDbLine
 10
2.4483093317
 20
4.3777727746
 30
0.0
 11
2.4408093317
 21
4.3702727746
 31
0.0
  0
LINE
  5
D9
330
1F
100
AcDbEntity
  8
0
  6
CONTINUOUS
 62
     7
100
AcDbLine
 10
2.4408093317
 20
3.1451152943
 30
0.0
 11
2.4483093317
 21
3.1376152943
 31
0.0
  0
LINE
  5
DA
330
1F
100
AcDbEntity
  8
0
  6
CONTINUOUS
 62
     7
100
AcDbLine
 10
2.7597350293
 20
4.3766817227
 30
0.0
 11
2.7586439774
 21
4.3777727746
 31
0.0
  0
LINE
  5
DB
330
1F
100
AcDbEntity
  8
0
  6
CONTINUOUS
 62
     7
100
AcDbLine
 10
2.6347857097
 20
4.3777727746
 30
0.0
 11
2.6336949819
 21
4.3766820468
 31
0.0
  0
LINE
  5
DC
330
1F
100
AcDbEntity
  8
0
  6
CONTINUOUS
 62
     7
100
AcDbLine
 10
4.019577549
 20
4.3766817227
 30
0.0
 11
4.0184864971
 21
4.3777727746
 31
0.0
  0
LINE
  5
DD
330
1F
100
AcDbEntity
  8
0
  6
CONTINUOUS
 62
     7
100
AcDbLine
 10
3.8946282294
 20
4.3777727746
 30
0.0
 11
3.8935375016
 21
4.3766820468
 31
0.0
  0
LINE
  5
DE
330
1F
100
AcDbEntity
  8
0
  6
CONTINUOUS
 62
     7
100
AcDbLine
 10
4.204962875
 20
3.1376152943
 30
0.0
 11
4.204962875
 21
4.3777727746
 31
0.0
  0
LINE
  5
DF
330
1F
100
AcDbEntity
  8
0
  6
CONTINUOUS
 62
     7
100
AcDbLine
 10
2.4483093317
 20
4.3777727746
 30
0.0
 11
2.4483093317
 21
3.1376152943
 31
0.0
  0
POLYLINE
  5
E0
330
1F
100
AcDbEntity
  8
0
  6
CONTINUOUS
 62
     7
100
AcDb2dPolyline
 66
     1
 10
0.0
 20
0.0
 30
0.0
  0
VERTEX
  5
1FC
330
E0
100
AcDbEntity
  8
0
  6
CONTINUOUS
 62
     7
100
AcDbVertex
100
AcDb2dVertex
 10
2.7695624128
 20
4.3777718404
 30
0.0
  0
VERTEX
  5
1FD
330
E0
100
AcDbEntity
  8
0
  6
CONTINUOUS
 62
     7
100
AcDbVertex
100
AcDb2dVertex
 10
2.7695704087
 20
4.3777727692
 30
0.0
  0
VERTEX
  5
1FE
330
E0
100
AcDbEntity
  8
0
  6
CONTINUOUS
 62
     7
100
AcDbVertex
100
AcDb2dVertex
 10
2.768164721
 20
4.3776063407
 30
0.0
  0
VERTEX
  5
1FF
330
E0
100
AcDbEntity
  8
0
  6
CONTINUOUS
 62
     7
100
AcDbVertex
100
AcDb2dVertex
 10
2.763948128
 20
4.3771289943
 30
0.0
  0
VERTEX
  5
200
330
E0
100
AcDbEntity
  8
0
  6
CONTINUOUS
 62
     7
100
AcDbVertex
100
AcDb2dVertex
 10
2.7572107455
 20
4.3764137393
 30
0.0
  0
VERTEX
  5
201
330
E0
100
AcDbEntity
  8
0
  6
CONTINUOUS
 62
     7
100
AcDbVertex
100
AcDb2dVertex
 10
2.7482051865
 20
4.3755790534
 30
0.0
  0
VERTEX
  5
202
330
E0
100
AcDbEntity
  8
0
  6
CONTINUOUS
 62
     7
100
AcDbVertex
100
AcDb2dVertex
 10
2.7372257642
 20
4.3747457969
 30
0.0
  0
VERTEX
  5
203
330
E0
100
AcDbEntity
  8
0
  6
CONTINUOUS
 62
     7
100
AcDbVertex
100
AcDb2dVertex
 10
2.7245529017
 20
4.3740334865
 30
0.0
  0
VERTEX
  5
204
330
E0
100
AcDbEntity
  8
0
  6
CONTINUOUS
 62
     7
100
AcDbVertex
100
AcDb2dVertex
 10
2.7108118831
 20
4.373549568
 30
0.0
  0
VERTEX
  5
205
330
E0
100
AcDbEntity
  8
0
  6
CONTINUOUS
 62
     7
100
AcDbVertex
100
AcDb2dVertex
 10
2.6966762665
 20
4.3733820242
 30
0.0
  0
VERTEX
  5
206
330
E0
100
AcDbEntity
  8
0
  6
CONTINUOUS
 62
     7
100
AcDbVertex
100
AcDb2dVertex
 10
2.6825549833
 20
4.3735509086
 30
0.0
  0
VERTEX
  5
207
330
E0
100
AcDbEntity
  8
0
  6
CONTINUOUS
 62
     7
100
AcDbVertex
100
AcDb2dVertex
 10
2.6688021013
 20
4.3740369755
 30
0.0
  0
VERTEX
  5
208
330
E0
100
AcDbEntity
  8
0
  6
CONTINUOUS
 62
     7
100
AcDbVertex
100
AcDb2dVertex
 10
2.6561418718
 20
4.3747499832
 30
0.0
  0
VERTEX
  5
209
330
E0
100
AcDbEntity
  8
0
  6
CONTINUOUS
 62
     7
100
AcDbVertex
100
AcDb2dVertex
 10
2.6451641524
 20
4.3755841973
 30
0.0
  0
VERTEX
  5
20A
330
E0
100
AcDbEntity
  8
0
  6
CONTINUOUS
 62
     7
100
AcDbVertex
100
AcDb2dVertex
 10
2.6361800349
 20
4.3764179423
 30
0.0
  0
VERTEX
  5
20B
330
E0
100
AcDbEntity
  8
0
  6
CONTINUOUS
 62
     7
100
AcDbVertex
100
AcDb2dVertex
 10
2.6294516108
 20
4.3771330203
 30
0.0
  0
VERTEX
  5
20C
330
E0
100
AcDbEntity
  8
0
  6
CONTINUOUS
 62
     7
100
AcDbVertex
100
AcDb2dVertex
 10
2.625250851
 20
4.3776083694
 30
0.0
  0
VERTEX
  5
20D
330
E0
100
AcDbEntity
  8
0
  6
CONTINUOUS
 62
     7
100
AcDbVertex
100
AcDb2dVertex
 10
2.6238592339
 20
4.3777727746
 30
0.0
  0
VERTEX
  5
20E
330
E0
100
AcDbEntity
  8
0
  6
CONTINUOUS
 62
     7
100
AcDbVertex
100
AcDb2dVertex
 10
2.6238592339
 20
4.3777727746
 30
0.0
  0
SEQEND
  5
20F
330
E0
100
AcDbEntity
  8
0
  6
CONTINUOUS
 62
     7
  0
POLYLINE
  5
E1
330
1F
100
AcDbEntity
  8
0
  6
CONTINUOUS
 62
     7
100
AcDb2dPolyline
 66
     1
 10
0.0
 20
0.0
 30
0.0
  0
VERTEX
  5
210
330
E1
100
AcDbEntity
  8
0
  6
CONTINUOUS
 62
     7
100
AcDbVertex
100
AcDb2dVertex
 10
4.0294049325
 20
4.3777718404
 30
0.0
  0
VERTEX
  5
211
330
E1
100
AcDbEntity
  8
0
  6
CONTINUOUS
 62
     7
100
AcDbVertex
100
AcDb2dVertex
 10
4.0294129284
 20
4.3777727692
 30
0.0
  0
VERTEX
  5
212
330
E1
100
AcDbEntity
  8
0
  6
CONTINUOUS
 62
     7
100
AcDbVertex
100
AcDb2dVertex
 10
4.0280072407
 20
4.3776063407
 30
0.0
  0
VERTEX
  5
213
330
E1
100
AcDbEntity
  8
0
  6
CONTINUOUS
 62
     7
100
AcDbVertex
100
AcDb2dVertex
 10
4.0237906477
 20
4.3771289943
 30
0.0
  0
VERTEX
  5
214
330
E1
100
AcDbEntity
  8
0
  6
CONTINUOUS
 62
     7
100
AcDbVertex
100
AcDb2dVertex
 10
4.0170532652
 20
4.3764137393
 30
0.0
  0
VERTEX
  5
215
330
E1
100
AcDbEntity
  8
0
  6
CONTINUOUS
 62
     7
100
AcDbVertex
100
AcDb2dVertex
 10
4.0080477062
 20
4.3755790534
 30
0.0
  0
VERTEX
  5
216
330
E1
100
AcDbEntity
  8
0
  6
CONTINUOUS
 62
     7
100
AcDbVertex
100
AcDb2dVertex
 10
3.9970682839
 20
4.3747457969
 30
0.0
  0
VERTEX
  5
217
330
E1
100
AcDbEntity
  8
0
  6
CONTINUOUS
 62
     7
100
AcDbVertex
100
AcDb2dVertex
 10
3.9843954213
 20
4.3740334865
 30
0.0
  0
VERTEX
  5
218
330
E1
100
AcDbEntity
  8
0
  6
CONTINUOUS
 62
     7
100
AcDbVertex
100
AcDb2dVertex
 10
3.9706544028
 20
4.373549568
 30
0.0
  0
VERTEX
  5
219
330
E1
100
AcDbEntity
  8
0
  6
CONTINUOUS
 62
     7
100
AcDbVertex
100
AcDb2dVertex
 10
3.9565187862
 20
4.3733820242
 30
0.0
  0
VERTEX
  5
21A
330
E1
100
AcDbEntity
  8
0
  6
CONTINUOUS
 62
     7
100
AcDbVertex
100
AcDb2dVertex
 10
3.942397503
 20
4.3735509086
 30
0.0
  0
VERTEX
  5
21B
330
E1
100
AcDbEntity
  8
0
  6
CONTINUOUS
 62
     7
100
AcDbVertex
100
AcDb2dVertex
 10
3.928644621
 20
4.3740369755
 30
0.0
  0
VERTEX
  5
21C
330
E1
100
AcDbEntity
  8
0
  6
CONTINUOUS
 62
     7
100
AcDbVertex
100
AcDb2dVertex
 10
3.9159843915
 20
4.3747499832
 30
0.0
  0
VERTEX
  5
21D
330
E1
100
AcDbEntity
  8
0
  6
CONTINUOUS
 62
     7
100
AcDbVertex
100
AcDb2dVertex
 10
3.9050066721
 20
4.3755841973
 30
0.0
  0
VERTEX
  5
21E
330
E1
100
AcDbEntity
  8
0
  6
CONTINUOUS
 62
     7
100
AcDbVertex
100
AcDb2dVertex
 10
3.8960225546
 20
4.3764179423
 30
0.0
  0
VERTEX
  5
21F
330
E1
100
AcDbEntity
  8
0
  6
CONTINUOUS
 62
     7
100
AcDbVertex
100
AcDb2dVertex
 10
3.8892941305
 20
4.3771330203
 30
0.0
  0
VERTEX
  5
220
330
E1
100
AcDbEntity
  8
0
  6
CONTINUOUS
 62
     7
100
AcDbVertex
100
AcDb2dVertex
 10
3.8850933707
 20
4.3776083694
 30
0.0
  0
VERTEX
  5
221
330
E1
100
AcDbEntity
  8
0
  6
CONTINUOUS
 62
     7
100
AcDbVertex
100
AcDb2dVertex
 10
3.8837017535
 20
4.3777727746
 30
0.0
  0
VERTEX
  5
222
330
E1
100
AcDbEntity
  8
0
  6
CONTINUOUS
 62
     7
100
AcDbVertex
100
AcDb2dVertex
 10
3.8837017535
 20
4.3777727746
 30
0.0
  0
SEQEND
  5
223
330
E1
100
AcDbEntity
  8
0
  6
CONTINUOUS
 62
     7
  0
LINE
  5
E2
330
1F
100
AcDbEntity
  8
0
  6
CONTINUOUS
 62
     7
100
AcDbLine
 10
4.212462875
 20
4.3702727746
 30
0.0
 11
4.212462875
 21
3.1451152943
 31
0.0
  0
LINE
  5
E3
330
1F
100
AcDbEntity
  8
0
  6
CONTINUOUS
 62
     7
100
AcDbLine
 10
2.4408093317
 20
3.1451152943
 30
0.0
 11
2.4408093317
 21
4.3702727746
 31
0.0
  0
LINE
  5
E4
330
1F
100
AcDbEntity
  8
0
  6
CONTINUOUS
 62
     7
100
AcDbLine
 10
2.7586439774
 20
4.3777727746
 30
0.0
 11
2.6347857097
 21
4.3777727746
 31
0.0
  0
LINE
  5
E5
330
1F
100
AcDbEntity
  8
0
  6
CONTINUOUS
 62
     7
100
AcDbLine
 10
3.8946282294
 20
4.3777727746
 30
0.0
 11
4.0184864971
 21
4.3777727746
 31
0.0
  0
LINE
  5
E6
330
1F
100
AcDbEntity
  8
0
  6
HIDDEN
 62
     7
100
AcDbLine
 10
3.3016361034
 20
3.90298931
 30
0.0
 11
3.3016361034
 21
3.6123987588
 31
0.0
  0
LINE
  5
E7
330
1F
100
AcDbEntity
  8
0
  6
HIDDEN
 62
     7
100
AcDbLine
 10
3.3516361034
 20
3.90298931
 30
0.0
 11
3.3516361034
 21
3.6123987588
 31
0.0
  0
LINE
  5
E8
330
1F
100
AcDbEntity
  8
0
  6
HIDDEN
 62
     7
100
AcDbLine
 10
2.6967148435
 20
3.8781433143
 30
0.0
 11
2.694740711
 21
3.8782276466
 31
0.0
  0
SPLINE
  5
E9
330
1F
100
AcDbEntity
  8
0
  6
HIDDEN
 62
     7
100
AcDbSpline
210
0.0
220
0.0
230
1.0
 70
     8
 71
     3
 72
    27
 73
    23
 74
     0
 42
0.00000001
 43
0.00000001
 40
0.0
 40
0.0
 40
0.0
 40
0.0
 40
0.0194674596056947
 40
0.0668440805062741
 40
0.1155640516494213
 40
0.1637238086556612
 40
0.2130646470518321
 40
0.2655753633778907
 40
0.3194455867092088
 40
0.3747456076826395
 40
0.4319095552840524
 40
0.482823207978813
 40
0.5355643779672699
 40
0.581568699166493
 40
0.6288028841174728
 40
0.7261335345688222
 40
0.7799520543902442
 40
0.8352584879174397
 40
0.8900008690945477
 40
0.9466410964945703
 40
0.9965636994354407
 40
1.0
 40
1.0
 40
1.0
 40
1.0
 10
2.63000987506992
 20
3.895380612710583
 30
0.0
 10
2.629949522557615
 20
3.89540986301532
 30
0.0
 10
2.629742294276528
 20
3.895510297780017
 30
0.0
 10
2.631136727938968
 20
3.894833734111187
 30
0.0
 10
2.633976852252586
 20
3.893490701876466
 30
0.0
 10
2.638399868316219
 20
3.891491598703387
 30
0.0
 10
2.644241104958441
 20
3.889031586298073
 30
0.0
 10
2.65160637378597
 20
3.886237498204809
 30
0.0
 10
2.660487654488557
 20
3.883362644299815
 30
0.0
 10
2.670754028621343
 20
3.880755209249191
 30
0.0
 10
2.681758416627168
 20
3.878895910672938
 30
0.0
 10
2.693122729023836
 20
3.878025598309331
 30
0.0
 10
2.703832829654241
 20
3.878200746944538
 30
0.0
 10
2.714031050846178
 20
3.87925882038284
 30
0.0
 10
2.726700637710743
 20
3.881552945449858
 30
0.0
 10
2.738501487249369
 20
3.885024559182535
 30
0.0
 10
2.748495910744754
 20
3.888746589340455
 30
0.0
 10
2.754995600645921
 20
3.891468974285783
 30
0.0
 10
2.759992072270383
 20
3.89373849579308
 30
0.0
 10
2.762774068379244
 20
3.895065773643097
 30
0.0
 10
2.763894539711512
 20
3.895610484691654
 30
0.0
 10
2.763606297599058
 20
3.895471084603916
 30
0.0
 10
2.763587734876275
 20
3.895462107271761
 30
0.0
  0
LINE
  5
EA
330
1F
100
AcDbEntity
  8
0
  6
HIDDEN
 62
     7
100
AcDbLine
 10
2.7039137784
 20
3.8783741974
 30
0.0
 11
2.6967148435
 21
3.8781433143
 31
0.0
  0
SPLINE
  5
EB
330
1F
100
AcDbEntity
  8
0
  6
HIDDEN
 62
     7
100
AcDbSpline
210
0.0
220
0.0
230
1.0
 70
     8
 71
     3
 72
    70
 73
    66
 74
     0
 42
0.00000001
 43
0.00000001
 40
-0.03125
 40
-0.03125
 40
0.0
 40
0.0
 40
0.03125
 40
0.03125
 40
0.0625
 40
0.0625
 40
0.09375
 40
0.09375
 40
0.125
 40
0.125
 40
0.15625
 40
0.15625
 40
0.1874999999999999
 40
0.1874999999999999
 40
0.2187499999999999
 40
0.2187499999999999
 40
0.2499999999999999
 40
0.2499999999999999
 40
0.2812499999999999
 40
0.2812499999999999
 40
0.3124999999999999
 40
0.3124999999999999
 40
0.3437499999999999
 40
0.3437499999999999
 40
0.3749999999999999
 40
0.3749999999999999
 40
0.4062499999999999
 40
0.4062499999999999
 40
0.4374999999999999
 40
0.4374999999999999
 40
0.4687499999999999
 40
0.4687499999999999
 40
0.4999999999999999
 40
0.4999999999999999
 40
0.5312499999999999
 40
0.5312499999999999
 40
0.5624999999999999
 40
0.5624999999999999
 40
0.5937499999999999
 40
0.5937499999999999
 40
0.6249999999999999
 40
0.6249999999999999
 40
0.6562499999999999
 40
0.6562499999999999
 40
0.6874999999999999
 40
0.6874999999999999
 40
0.7187499999999999
 40
0.7187499999999999
 40
0.7499999999999999
 40
0.7499999999999999
 40
0.78125
 40
0.78125
 40
0.8125
 40
0.8125
 40
0.84375
 40
0.84375
 40
0.875
 40
0.875
 40
0.90625
 40
0.90625
 40
0.9375
 40
0.9375
 40
0.96875
 40
0.96875
 40
1.0
 40
1.0
 40
1.03125
 40
1.03125
 10
2.629785709683765
 20
3.753198455849152
 30
0.0
 10
2.629785709683765
 20
3.762189612997935
 30
0.0
 10
2.630233946363703
 20
3.766597157231084
 30
0.0
 10
2.631977984935885
 20
3.775247222828202
 30
0.0
 10
2.63329775017671
 20
3.779533563930204
 30
0.0
 10
2.636684838557474
 20
3.787612110590505
 30
0.0
 10
2.638747258640252
 20
3.791431266240517
 30
0.0
 10
2.643603367870782
 20
3.798652707034354
 30
0.0
 10
2.64637319043016
 20
3.802007145115735
 30
0.0
 10
2.652446270805192
 20
3.80807485701605
 30
0.0
 10
2.655795424977565
 20
3.810834762972361
 30
0.0
 10
2.662999303261184
 20
3.815673325467188
 30
0.0
 10
2.666796946548568
 20
3.817721490843448
 30
0.0
 10
2.674806669139542
 20
3.82108494843419
 30
0.0
 10
2.679080599728896
 20
3.822409299110777
 30
0.0
 10
2.687741242545312
 20
3.824165882025001
 30
0.0
 10
2.692127543173705
 20
3.824613519282867
 30
0.0
 10
2.701016126707793
 20
3.824632511711531
 30
0.0
 10
2.70552243853454
 20
3.824187666501107
 30
0.0
 10
2.714175341226488
 20
3.822455966583027
 30
0.0
 10
2.718416190645889
 20
3.821159527395281
 30
0.0
 10
2.726527590356072
 20
3.817777454696276
 30
0.0
 10
2.730341915745287
 20
3.815723748560409
 30
0.0
 10
2.737533285522221
 20
3.810911348355
 30
0.0
 10
2.740913052565652
 20
3.808136923183694
 30
0.0
 10
2.746999695708077
 20
3.802071960805964
 30
0.0
 10
2.749743882678958
 20
3.798760392779998
 30
0.0
 10
2.75462423199048
 20
3.791532289549557
 30
0.0
 10
2.756705830384163
 20
3.787686210258824
 30
0.0
 10
2.760084687304276
 20
3.779664742540853
 30
0.0
 10
2.761403078661587
 20
3.77543792641603
 30
0.0
 10
2.763185867611854
 20
3.76669494687913
 30
0.0
 10
2.763632781433967
 20
3.762292684602274
 30
0.0
 10
2.763654761942192
 20
3.753427265182629
 30
0.0
 10
2.763213219926507
 20
3.748914116781468
 30
0.0
 10
2.76147664562732
 20
3.740228926171975
 30
0.0
 10
2.760191653192019
 20
3.736021103899374
 30
0.0
 10
2.75679266468359
 20
3.727866585861369
 30
0.0
 10
2.754714438911475
 20
3.724014970286166
 30
0.0
 10
2.749894932684051
 20
3.716827048444204
 30
0.0
 10
2.74711303248746
 20
3.713443182524564
 30
0.0
 10
2.741015842655235
 20
3.707339920189089
 30
0.0
 10
2.737705484483475
 20
3.704609434769407
 30
0.0
 10
2.730533821350078
 20
3.699776126094175
 30
0.0
 10
2.726653486196284
 20
3.697676724933648
 30
0.0
 10
2.718639761973629
 20
3.69430872292196
 30
0.0
 10
2.714468223822709
 20
3.693009487759762
 30
0.0
 10
2.705756814268846
 20
3.691229639038761
 30
0.0
 10
2.701285342879742
 20
3.690774605423153
 30
0.0
 10
2.692433135984023
 20
3.690755507233874
 30
0.0
 10
2.687956651111793
 20
3.69119139996929
 30
0.0
 10
2.679230492103275
 20
3.692935994160059
 30
0.0
 10
2.675032153427658
 20
3.694222828019936
 30
0.0
 10
2.666936991326881
 20
3.697594012706593
 30
0.0
 10
2.66305906835041
 20
3.69968163343336
 30
0.0
 10
2.655884422434422
 20
3.704486642224996
 30
0.0
 10
2.652525496448308
 20
3.707240030476314
 30
0.0
 10
2.646385635150379
 20
3.713362604336683
 30
0.0
 10
2.643648092988064
 20
3.716680620679905
 30
0.0
 10
2.63881487961822
 20
3.723844746412047
 30
0.0
 10
2.636701429244705
 20
3.727742438366087
 30
0.0
 10
2.633308700165877
 20
3.735822386470677
 30
0.0
 10
2.632013508018402
 20
3.740006876135423
 30
0.0
 10
2.630247834664636
 20
3.748680981791803
 30
0.0
 10
2.629785709683765
 20
3.753198455849152
 30
0.0
 10
2.629785709683765
 20
3.762189612997935
 30
0.0
  0
LINE
  5
EC
330
1F
100
AcDbEntity
  8
0
  6
HIDDEN
 62
     7
100
AcDbLine
 10
3.9565573632
 20
3.8781433143
 30
0.0
 11
3.9545832306
 21
3.8782276466
 31
0.0
  0
SPLINE
  5
ED
330
1F
100
AcDbEntity
  8
0
  6
HIDDEN
 62
     7
100
AcDbSpline
210
0.0
220
0.0
230
1.0
 70
     8
 71
     3
 72
    27
 73
    23
 74
     0
 42
0.00000001
 43
0.00000001
 40
0.0
 40
0.0
 40
0.0
 40
0.0
 40
0.0194674596056957
 40
0.066844080506275
 40
0.1155640516494221
 40
0.1637238086556617
 40
0.2130646470518326
 40
0.2655753633778915
 40
0.3194455867092096
 40
0.3747456076826408
 40
0.4319095552840538
 40
0.482823207978815
 40
0.5355643779672712
 40
0.5815686991664938
 40
0.6288028841174733
 40
0.7261335345688229
 40
0.7799520543902458
 40
0.8352584879174411
 40
0.890000869094549
 40
0.9466410964945713
 40
0.9965636994354415
 40
1.0
 40
1.0
 40
1.0
 40
1.0
 10
3.889852394754959
 20
3.895380612710583
 30
0.0
 10
3.889792042242655
 20
3.89540986301532
 30
0.0
 10
3.889584813961567
 20
3.895510297780017
 30
0.0
 10
3.890979247624008
 20
3.894833734111186
 30
0.0
 10
3.893819371937626
 20
3.893490701876466
 30
0.0
 10
3.898242388001258
 20
3.891491598703387
 30
0.0
 10
3.90408362464348
 20
3.889031586298073
 30
0.0
 10
3.911448893471011
 20
3.886237498204809
 30
0.0
 10
3.920330174173596
 20
3.883362644299815
 30
0.0
 10
3.930596548306383
 20
3.880755209249191
 30
0.0
 10
3.941600936312208
 20
3.878895910672938
 30
0.0
 10
3.952965248708876
 20
3.878025598309331
 30
0.0
 10
3.963675349339281
 20
3.878200746944538
 30
0.0
 10
3.973873570531218
 20
3.87925882038284
 30
0.0
 10
3.986543157395783
 20
3.881552945449858
 30
0.0
 10
3.998344006934408
 20
3.885024559182535
 30
0.0
 10
4.008338430429793
 20
3.888746589340455
 30
0.0
 10
4.01483812033096
 20
3.891468974285783
 30
0.0
 10
4.019834591955423
 20
3.89373849579308
 30
0.0
 10
4.022616588064283
 20
3.895065773643097
 30
0.0
 10
4.023737059396551
 20
3.895610484691654
 30
0.0
 10
4.023448817284097
 20
3.895471084603916
 30
0.0
 10
4.023430254561315
 20
3.895462107271761
 30
0.0
  0
LINE
  5
EE
330
1F
100
AcDbEntity
  8
0
  6
HIDDEN
 62
     7
100
AcDbLine
 10
3.9637562981
 20
3.8783741974
 30
0.0
 11
3.9565573632
 21
3.8781433143
 31
0.0
  0
SPLINE
  5
EF
330
1F
100
AcDbEntity
  8
0
  6
HIDDEN
 62
     7
100
AcDbSpline
210
0.0
220
0.0
230
1.0
 70
     8
 71
     3
 72
    70
 73
    66
 74
     0
 42
0.00000001
 43
0.00000001
 40
-0.03125
 40
-0.03125
 40
0.0
 40
0.0
 40
0.03125
 40
0.03125
 40
0.0625
 40
0.0625
 40
0.09375
 40
0.09375
 40
0.125
 40
0.125
 40
0.15625
 40
0.15625
 40
0.1875
 40
0.1875
 40
0.2187499999999999
 40
0.2187499999999999
 40
0.2499999999999999
 40
0.2499999999999999
 40
0.2812499999999999
 40
0.2812499999999999
 40
0.3124999999999998
 40
0.3124999999999998
 40
0.3437499999999998
 40
0.3437499999999998
 40
0.3749999999999998
 40
0.3749999999999998
 40
0.4062499999999997
 40
0.4062499999999997
 40
0.4374999999999997
 40
0.4374999999999997
 40
0.4687499999999998
 40
0.4687499999999998
 40
0.4999999999999998
 40
0.4999999999999998
 40
0.5312499999999998
 40
0.5312499999999998
 40
0.5624999999999998
 40
0.5624999999999998
 40
0.5937499999999998
 40
0.5937499999999998
 40
0.6249999999999998
 40
0.6249999999999998
 40
0.6562499999999999
 40
0.6562499999999999
 40
0.6874999999999999
 40
0.6874999999999999
 40
0.7187499999999999
 40
0.7187499999999999
 40
0.7499999999999999
 40
0.7499999999999999
 40
0.7812499999999999
 40
0.7812499999999999
 40
0.8124999999999999
 40
0.8124999999999999
 40
0.8437499999999999
 40
0.8437499999999999
 40
0.8749999999999999
 40
0.8749999999999999
 40
0.90625
 40
0.90625
 40
0.9375
 40
0.9375
 40
0.96875
 40
0.96875
 40
1.0
 40
1.0
 40
1.03125
 40
1.03125
 10
3.889628229368804
 20
3.753198455849152
 30
0.0
 10
3.889628229368804
 20
3.762189612997935
 30
0.0
 10
3.890076466048742
 20
3.766597157231084
 30
0.0
 10
3.891820504620924
 20
3.775247222828202
 30
0.0
 10
3.89314026986175
 20
3.779533563930204
 30
0.0
 10
3.896527358242513
 20
3.787612110590505
 30
0.0
 10
3.898589778325291
 20
3.791431266240517
 30
0.0
 10
3.903445887555822
 20
3.798652707034354
 30
0.0
 10
3.9062157101152
 20
3.802007145115735
 30
0.0
 10
3.912288790490232
 20
3.80807485701605
 30
0.0
 10
3.915637944662605
 20
3.810834762972361
 30
0.0
 10
3.922841822946224
 20
3.815673325467188
 30
0.0
 10
3.926639466233607
 20
3.817721490843448
 30
0.0
 10
3.934649188824582
 20
3.82108494843419
 30
0.0
 10
3.938923119413936
 20
3.822409299110777
 30
0.0
 10
3.947583762230351
 20
3.824165882025001
 30
0.0
 10
3.951970062858744
 20
3.824613519282867
 30
0.0
 10
3.960858646392832
 20
3.824632511711531
 30
0.0
 10
3.965364958219579
 20
3.824187666501107
 30
0.0
 10
3.974017860911528
 20
3.822455966583027
 30
0.0
 10
3.978258710330929
 20
3.821159527395281
 30
0.0
 10
3.986370110041111
 20
3.817777454696276
 30
0.0
 10
3.990184435430327
 20
3.815723748560409
 30
0.0
 10
3.997375805207261
 20
3.810911348355
 30
0.0
 10
4.000755572250691
 20
3.808136923183694
 30
0.0
 10
4.006842215393116
 20
3.802071960805964
 30
0.0
 10
4.009586402363998
 20
3.798760392779997
 30
0.0
 10
4.014466751675519
 20
3.791532289549557
 30
0.0
 10
4.016548350069203
 20
3.787686210258824
 30
0.0
 10
4.019927206989315
 20
3.779664742540853
 30
0.0
 10
4.021245598346628
 20
3.77543792641603
 30
0.0
 10
4.023028387296892
 20
3.76669494687913
 30
0.0
 10
4.023475301119007
 20
3.762292684602274
 30
0.0
 10
4.023497281627232
 20
3.753427265182629
 30
0.0
 10
4.023055739611547
 20
3.748914116781468
 30
0.0
 10
4.021319165312359
 20
3.740228926171975
 30
0.0
 10
4.020034172877059
 20
3.736021103899374
 30
0.0
 10
4.01663518436863
 20
3.727866585861369
 30
0.0
 10
4.014556958596514
 20
3.724014970286166
 30
0.0
 10
4.009737452369091
 20
3.716827048444204
 30
0.0
 10
4.0069555521725
 20
3.713443182524564
 30
0.0
 10
4.000858362340274
 20
3.707339920189089
 30
0.0
 10
3.997548004168515
 20
3.704609434769407
 30
0.0
 10
3.990376341035118
 20
3.699776126094175
 30
0.0
 10
3.986496005881324
 20
3.697676724933648
 30
0.0
 10
3.978482281658668
 20
3.69430872292196
 30
0.0
 10
3.974310743507748
 20
3.693009487759762
 30
0.0
 10
3.965599333953885
 20
3.691229639038761
 30
0.0
 10
3.961127862564782
 20
3.690774605423153
 30
0.0
 10
3.952275655669061
 20
3.690755507233874
 30
0.0
 10
3.947799170796833
 20
3.691191399969291
 30
0.0
 10
3.939073011788314
 20
3.692935994160059
 30
0.0
 10
3.934874673112697
 20
3.694222828019936
 30
0.0
 10
3.926779511011921
 20
3.697594012706593
 30
0.0
 10
3.922901588035449
 20
3.69968163343336
 30
0.0
 10
3.915726942119462
 20
3.704486642224996
 30
0.0
 10
3.912368016133349
 20
3.707240030476314
 30
0.0
 10
3.906228154835418
 20
3.713362604336683
 30
0.0
 10
3.903490612673103
 20
3.716680620679905
 30
0.0
 10
3.89865739930326
 20
3.723844746412047
 30
0.0
 10
3.896543948929744
 20
3.727742438366087
 30
0.0
 10
3.893151219850917
 20
3.735822386470677
 30
0.0
 10
3.891856027703442
 20
3.740006876135423
 30
0.0
 10
3.890090354349676
 20
3.748680981791803
 30
0.0
 10
3.889628229368804
 20
3.753198455849152
 30
0.0
 10
3.889628229368804
 20
3.762189612997935
 30
0.0
  0
SPLINE
  5
F0
330
1F
100
AcDbEntity
  8
0
  6
HIDDEN
 62
     7
100
AcDbSpline
210
0.0
220
0.0
230
1.0
 70
     8
 71
     3
 72
    24
 73
    20
 74
     0
 42
0.00000001
 43
0.00000001
 40
0.0
 40
0.0
 40
0.0
 40
0.0
 40
0.0508910591350489
 40
0.1094946634138781
 40
0.1758208368051211
 40
0.2498726766826945
 40
0.3242397618670323
 40
0.3907133653851346
 40
0.4492959925262069
 40
0.4999972334109854
 40
0.5507291503261846
 40
0.6093158542324473
 40
0.6757670943672401
 40
0.7500855314324963
 40
0.8242255284791098
 40
0.8905848256255953
 40
0.9491663067103112
 40
0.9999798252373112
 40
1.0
 40
1.0
 40
1.0
 40
1.0
 10
3.889628229368805
 20
4.370992887556419
 30
0.0
 10
3.889794965730499
 20
4.370963090676474
 30
0.0
 10
3.890153707366316
 20
4.370898981196421
 30
0.0
 10
3.893356001583493
 20
4.370456460449069
 30
0.0
 10
3.899390568034055
 20
4.369782777039553
 30
0.0
 10
3.908787840039235
 20
4.368826548824855
 30
0.0
 10
3.920669517167187
 20
4.367871335548597
 30
0.0
 10
3.933330742225054
 20
4.367186622202698
 30
0.0
 10
3.945309512742757
 20
4.36676225693862
 30
0.0
 10
3.956523934818464
 20
4.366598555085592
 30
0.0
 10
3.96773952247568
 20
4.366760400100061
 30
0.0
 10
3.979722594470543
 20
4.367183452906692
 30
0.0
 10
3.992383478605587
 20
4.367866675765773
 30
0.0
 10
4.004284977843888
 20
4.368823115665462
 30
0.0
 10
4.013665848897631
 20
4.369774772969675
 30
0.0
 10
4.019817575024601
 20
4.370467032573977
 30
0.0
 10
4.022708279282485
 20
4.370857675185155
 30
0.0
 10
4.023767561182319
 20
4.371037705038307
 30
0.0
 10
4.023486233046419
 20
4.370992846687059
 30
0.0
 10
4.023486121393536
 20
4.370992828883777
 30
0.0
  0
SPLINE
  5
F1
330
1F
100
AcDbEntity
  8
0
  6
HIDDEN
 62
     7
100
AcDbSpline
210
0.0
220
0.0
230
1.0
 70
     8
 71
     3
 72
    24
 73
    20
 74
     0
 42
0.00000001
 43
0.00000001
 40
0.0
 40
0.0
 40
0.0
 40
0.0
 40
0.0508910591351416
 40
0.1094946634140025
 40
0.1758208368052176
 40
0.249872676682703
 40
0.3242397618669476
 40
0.3907133653850204
 40
0.4492959925261273
 40
0.4999972334110048
 40
0.5507291503229861
 40
0.6093158542281789
 40
0.6757670943640443
 40
0.7500855314325052
 40
0.8242255284803374
 40
0.8905848256272318
 40
0.9491663067115413
 40
0.9999798252373137
 40
1.0
 40
1.0
 40
1.0
 40
1.0
 10
2.629785709683765
 20
4.37099288755642
 30
0.0
 10
2.62995244604546
 20
4.370963090676474
 30
0.0
 10
2.630311187681277
 20
4.370898981196421
 30
0.0
 10
2.633513481898461
 20
4.37045646044907
 30
0.0
 10
2.639548048349025
 20
4.369782777039553
 30
0.0
 10
2.648945320354196
 20
4.368826548824857
 30
0.0
 10
2.660826997482134
 20
4.367871335548598
 30
0.0
 10
2.673488222539993
 20
4.367186622202697
 30
0.0
 10
2.685466993057701
 20
4.366762256938621
 30
0.0
 10
2.696681415133193
 20
4.366598555085591
 30
0.0
 10
2.707897002790113
 20
4.366760400100066
 30
0.0
 10
2.71988007478479
 20
4.367183452906703
 30
0.0
 10
2.732540958920111
 20
4.367866675765786
 30
0.0
 10
2.744442458158778
 20
4.368823115665456
 30
0.0
 10
2.753823329212708
 20
4.369774772969635
 30
0.0
 10
2.759975055339674
 20
4.370467032573952
 30
0.0
 10
2.762865759597435
 20
4.370857675185065
 30
0.0
 10
2.76392504149734
 20
4.371037705038397
 30
0.0
 10
2.763643713361379
 20
4.370992846687059
 30
0.0
 10
2.763643601708497
 20
4.370992828883777
 30
0.0
  0
CIRCLE
  5
F2
330
1F
100
AcDbEntity
  8
0
  6
HIDDEN
 62
     7
100
AcDbCircle
 10
3.9565573632
 20
3.7576940344
 30
0.0
 40
0.0619291338582673
  0
CIRCLE
  5
F3
330
1F
100
AcDbEntity
  8
0
  6
HIDDEN
 62
     7
100
AcDbCircle
 10
3.9565573632
 20
3.7576940344
 30
0.0
 40
0.0669291338582672
  0
LINE
  5
F4
330
1F
100
AcDbEntity
  8
0
  6
HIDDEN
 62
     7
100
AcDbLine
 10
3.9565573632
 20
3.7085119962
 30
0.0
 11
3.9139644687
 21
3.7331030153
 31
0.0
  0
LINE
  5
F5
330
1F
100
AcDbEntity
  8
0
  6
HIDDEN
 62
     7
100
AcDbLine
 10
3.9139644687
 20
3.7822850535
 30
0.0
 11
3.9565573632
 21
3.8068760727
 31
0.0
  0
LINE
  5
F6
330
1F
100
AcDbEntity
  8
0
  6
HIDDEN
 62
     7
100
AcDbLine
 10
3.9565573632
 20
3.8068760727
 30
0.0
 11
3.9991502577
 21
3.7822850535
 31
0.0
  0
LINE
  5
F7
330
1F
100
AcDbEntity
  8
0
  6
HIDDEN
 62
     7
100
AcDbLine
 10
3.9991502577
 20
3.7822850535
 30
0.0
 11
3.9991502577
 21
3.7331030153
 31
0.0
  0
LINE
  5
F8
330
1F
100
AcDbEntity
  8
0
  6
HIDDEN
 62
     7
100
AcDbLine
 10
3.9139644687
 20
3.7331030153
 30
0.0
 11
3.9139644687
 21
3.7822850535
 31
0.0
  0
LINE
  5
F9
330
1F
100
AcDbEntity
  8
0
  6
HIDDEN
 62
     7
100
AcDbLine
 10
3.9991502577
 20
3.7331030153
 30
0.0
 11
3.9565573632
 21
3.7085119962
 31
0.0
  0
CIRCLE
  5
FA
330
1F
100
AcDbEntity
  8
0
  6
HIDDEN
 62
     7
100
AcDbCircle
 10
2.6967148435
 20
3.7576940344
 30
0.0
 40
0.0619291338582673
  0
CIRCLE
  5
FB
330
1F
100
AcDbEntity
  8
0
  6
HIDDEN
 62
     7
100
AcDbCircle
 10
2.6967148435
 20
3.7576940344
 30
0.0
 40
0.0669291338582676
  0
LINE
  5
FC
330
1F
100
AcDbEntity
  8
0
  6
HIDDEN
 62
     7
100
AcDbLine
 10
2.7393077381
 20
3.7822850535
 30
0.0
 11
2.6967148435
 21
3.8068760727
 31
0.0
  0
LINE
  5
FD
330
1F
100
AcDbEntity
  8
0
  6
HIDDEN
 62
     7
100
AcDbLine
 10
2.6967148435
 20
3.8068760727
 30
0.0
 11
2.654121949
 21
3.7822850535
 31
0.0
  0
LINE
  5
FE
330
1F
100
AcDbEntity
  8
0
  6
HIDDEN
 62
     7
100
AcDbLine
 10
2.654121949
 20
3.7822850535
 30
0.0
 11
2.654121949
 21
3.7331030153
 31
0.0
  0
LINE
  5
FF
330
1F
100
AcDbEntity
  8
0
  6
HIDDEN
 62
     7
100
AcDbLine
 10
2.7393077381
 20
3.7331030153
 30
0.0
 11
2.7393077381
 21
3.7822850535
 31
0.0
  0
LINE
  5
100
330
1F
100
AcDbEntity
  8
0
  6
HIDDEN
 62
     7
100
AcDbLine
 10
2.654121949
 20
3.7331030153
 30
0.0
 11
2.6967148435
 21
3.7085119962
 31
0.0
  0
LINE
  5
101
330
1F
100
AcDbEntity
  8
0
  6
HIDDEN
 62
     7
100
AcDbLine
 10
2.6967148435
 20
3.7085119962
 30
0.0
 11
2.7393077381
 21
3.7331030153
 31
0.0
  0
LINE
  5
102
330
1F
100
AcDbEntity
  8
0
  6
HIDDEN
 62
     7
100
AcDbLine
 10
2.6297857097
 20
4.3727727746
 30
0.0
 11
2.7636439774
 21
4.3727727746
 31
0.0
  0
LINE
  5
103
330
1F
100
AcDbEntity
  8
0
  6
HIDDEN
 62
     7
100
AcDbLine
 10
2.7636439774
 20
3.90048931
 30
0.0
 11
2.6297857097
 21
3.90048931
 31
0.0
  0
LINE
  5
104
330
1F
100
AcDbEntity
  8
0
  6
HIDDEN
 62
     7
100
AcDbLine
 10
2.6347857097
 20
3.89548931
 30
0.0
 11
2.7586439774
 21
3.89548931
 31
0.0
  0
LINE
  5
105
330
1F
100
AcDbEntity
  8
0
  6
HIDDEN
 62
     7
100
AcDbLine
 10
2.6967148435
 20
4.3527727746
 30
0.0
 11
2.6967148435
 21
4.3777727746
 31
0.0
  0
LINE
  5
106
330
1F
100
AcDbEntity
  8
0
  6
HIDDEN
 62
     7
100
AcDbLine
 10
2.7393077381
 20
4.3527727746
 30
0.0
 11
2.6967148435
 21
4.3527727746
 31
0.0
  0
LINE
  5
107
330
1F
100
AcDbEntity
  8
0
  6
HIDDEN
 62
     7
100
AcDbLine
 10
2.6967148435
 20
4.3527727746
 30
0.0
 11
2.654121949
 21
4.3527727746
 31
0.0
  0
LINE
  5
108
330
1F
100
AcDbEntity
  8
0
  6
HIDDEN
 62
     7
100
AcDbLine
 10
2.7393077381
 20
4.3527727746
 30
0.0
 11
2.7393077381
 21
4.3777727746
 31
0.0
  0
LINE
  5
109
330
1F
100
AcDbEntity
  8
0
  6
HIDDEN
 62
     7
100
AcDbLine
 10
2.654121949
 20
4.3527727746
 30
0.0
 11
2.654121949
 21
4.3777727746
 31
0.0
  0
LINE
  5
10A
330
1F
100
AcDbEntity
  8
0
  6
HIDDEN
 62
     7
100
AcDbLine
 10
4.0234864971
 20
4.3727727746
 30
0.0
 11
3.8896282294
 21
4.3727727746
 31
0.0
  0
LINE
  5
10B
330
1F
100
AcDbEntity
  8
0
  6
HIDDEN
 62
     7
100
AcDbLine
 10
3.8896282294
 20
3.90048931
 30
0.0
 11
4.0234864971
 21
3.90048931
 31
0.0
  0
LINE
  5
10C
330
1F
100
AcDbEntity
  8
0
  6
HIDDEN
 62
     7
100
AcDbLine
 10
4.0184864971
 20
3.89548931
 30
0.0
 11
3.8946282294
 21
3.89548931
 31
0.0
  0
LINE
  5
10D
330
1F
100
AcDbEntity
  8
0
  6
HIDDEN
 62
     7
100
AcDbLine
 10
3.9565573632
 20
4.3527727746
 30
0.0
 11
3.9565573632
 21
4.3777727746
 31
0.0
  0
LINE
  5
10E
330
1F
100
AcDbEntity
  8
0
  6
HIDDEN
 62
     7
100
AcDbLine
 10
3.9139644687
 20
4.3527727746
 30
0.0
 11
3.9565573632
 21
4.3527727746
 31
0.0
  0
LINE
  5
10F
330
1F
100
AcDbEntity
  8
0
  6
HIDDEN
 62
     7
100
AcDbLine
 10
3.9565573632
 20
4.3527727746
 30
0.0
 11
3.9991502577
 21
4.3527727746
 31
0.0
  0
LINE
  5
110
330
1F
100
AcDbEntity
  8
0
  6
HIDDEN
 62
     7
100
AcDbLine
 10
3.9139644687
 20
4.3527727746
 30
0.0
 11
3.9139644687
 21
4.3777727746
 31
0.0
  0
LINE
  5
111
330
1F
100
AcDbEntity
  8
0
  6
HIDDEN
 62
     7
100
AcDbLine
 10
3.9991502577
 20
4.3527727746
 30
0.0
 11
3.9991502577
 21
4.3777727746
 31
0.0
  0
LINE
  5
112
330
1F
100
AcDbEntity
  8
0
  6
HIDDEN
 62
     7
100
AcDbLine
 10
4.212462875
 20
3.90298931
 30
0.0
 11
4.204962875
 21
3.89548931
 31
0.0
  0
LINE
  5
113
330
1F
100
AcDbEntity
  8
0
  6
HIDDEN
 62
     7
100
AcDbLine
 10
4.204962875
 20
3.6198987588
 30
0.0
 11
4.212462875
 21
3.6123987588
 31
0.0
  0
LINE
  5
114
330
1F
100
AcDbEntity
  8
0
  6
HIDDEN
 62
     7
100
AcDbLine
 10
3.3516361034
 20
3.90298931
 30
0.0
 11
3.3016361034
 21
3.90298931
 31
0.0
  0
LINE
  5
115
330
1F
100
AcDbEntity
  8
0
  6
HIDDEN
 62
     7
100
AcDbLine
 10
3.3016361034
 20
3.6123987588
 30
0.0
 11
3.3516361034
 21
3.6123987588
 31
0.0
  0
LINE
  5
116
330
1F
100
AcDbEntity
  8
0
  6
HIDDEN
 62
     7
100
AcDbLine
 10
2.4408093317
 20
3.6123987588
 30
0.0
 11
2.4483093317
 21
3.6198987588
 31
0.0
  0
LINE
  5
117
330
1F
100
AcDbEntity
  8
0
  6
HIDDEN
 62
     7
100
AcDbLine
 10
2.4483093317
 20
3.89548931
 30
0.0
 11
2.4408093317
 21
3.90298931
 31
0.0
  0
LINE
  5
118
330
1F
100
AcDbEntity
  8
0
  6
HIDDEN
 62
     7
100
AcDbLine
 10
2.6300098751
 20
3.89548931
 30
0.0
 11
2.4483093317
 21
3.89548931
 31
0.0
  0
LINE
  5
119
330
1F
100
AcDbEntity
  8
0
  6
HIDDEN
 62
     7
100
AcDbLine
 10
3.3016361034
 20
3.89548931
 30
0.0
 11
2.7635877349
 21
3.89548931
 31
0.0
  0
LINE
  5
11A
330
1F
100
AcDbEntity
  8
0
  6
HIDDEN
 62
     7
100
AcDbLine
 10
2.4483093317
 20
3.6198987588
 30
0.0
 11
3.3016361034
 21
3.6198987588
 31
0.0
  0
LINE
  5
11B
330
1F
100
AcDbEntity
  8
0
  6
HIDDEN
 62
     7
100
AcDbLine
 10
3.8898523948
 20
3.89548931
 30
0.0
 11
3.3516361034
 21
3.89548931
 31
0.0
  0
LINE
  5
11C
330
1F
100
AcDbEntity
  8
0
  6
HIDDEN
 62
     7
100
AcDbLine
 10
4.204962875
 20
3.89548931
 30
0.0
 11
4.0234302546
 21
3.89548931
 31
0.0
  0
LINE
  5
11D
330
1F
100
AcDbEntity
  8
0
  6
HIDDEN
 62
     7
100
AcDbLine
 10
3.3516361034
 20
3.6198987588
 30
0.0
 11
4.204962875
 21
3.6198987588
 31
0.0
  0
LINE
  5
11E
330
1F
100
AcDbEntity
  8
0
  6
HIDDEN
 62
     7
100
AcDbLine
 10
3.883701739
 20
4.3777727755
 30
0.0
 11
3.889628216
 21
4.3709928885
 31
0.0
  0
LINE
  5
11F
330
1F
100
AcDbEntity
  8
0
  6
HIDDEN
 62
     7
100
AcDbLine
 10
4.0234864569
 20
4.3709928825
 30
0.0
 11
4.0294129292
 21
4.3777727695
 31
0.0
  0
LINE
  5
120
330
1F
100
AcDbEntity
  8
0
  6
HIDDEN
 62
     7
100
AcDbLine
 10
2.6238592194
 20
4.3777727755
 30
0.0
 11
2.6297856964
 21
4.3709928885
 31
0.0
  0
LINE
  5
121
330
1F
100
AcDbEntity
  8
0
  6
HIDDEN
 62
     7
100
AcDbLine
 10
2.7636439372
 20
4.3709928825
 30
0.0
 11
2.7695704095
 21
4.3777727695
 31
0.0
  0
LINE
  5
122
330
1F
100
AcDbEntity
  8
0
  6
HIDDEN
 62
     7
100
AcDbLine
 10
2.7636439774
 20
3.8954622131
 30
0.0
 11
2.7636439774
 21
4.3709919535
 31
0.0
  0
LINE
  5
123
330
1F
100
AcDbEntity
  8
0
  6
HIDDEN
 62
     7
100
AcDbLine
 10
2.6297857097
 20
4.3709928876
 30
0.0
 11
2.6297857097
 21
3.8953806562
 31
0.0
  0
LINE
  5
124
330
1F
100
AcDbEntity
  8
0
  6
HIDDEN
 62
     7
100
AcDbLine
 10
4.0234864971
 20
3.8954622131
 30
0.0
 11
4.0234864971
 21
4.3709919535
 31
0.0
  0
LINE
  5
125
330
1F
100
AcDbEntity
  8
0
  6
HIDDEN
 62
     7
100
AcDbLine
 10
3.8896282294
 20
4.3709928876
 30
0.0
 11
3.8896282294
 21
3.8953806562
 31
0.0
  0
LINE
  5
126
330
1F
100
AcDbEntity
  8
0
  6
HIDDEN
 62
     7
100
AcDbLine
 10
2.7636439774
 20
4.3727727746
 30
0.0
 11
2.7597350293
 21
4.3766817227
 31
0.0
  0
LINE
  5
127
330
1F
100
AcDbEntity
  8
0
  6
HIDDEN
 62
     7
100
AcDbLine
 10
2.6336949819
 20
4.3766820468
 30
0.0
 11
2.6297857097
 21
4.3727727746
 31
0.0
  0
LINE
  5
128
330
1F
100
AcDbEntity
  8
0
  6
HIDDEN
 62
     7
100
AcDbLine
 10
2.7636439774
 20
3.90048931
 30
0.0
 11
2.7636439774
 21
4.3727727746
 31
0.0
  0
LINE
  5
129
330
1F
100
AcDbEntity
  8
0
  6
HIDDEN
 62
     7
100
AcDbLine
 10
2.6297857097
 20
4.3727727746
 30
0.0
 11
2.6297857097
 21
3.90048931
 31
0.0
  0
LINE
  5
12A
330
1F
100
AcDbEntity
  8
0
  6
HIDDEN
 62
     7
100
AcDbLine
 10
2.6297857097
 20
3.90048931
 30
0.0
 11
2.6347857097
 21
3.89548931
 31
0.0
  0
LINE
  5
12B
330
1F
100
AcDbEntity
  8
0
  6
HIDDEN
 62
     7
100
AcDbLine
 10
2.7586439774
 20
3.89548931
 30
0.0
 11
2.7636439774
 21
3.90048931
 31
0.0
  0
LINE
  5
12C
330
1F
100
AcDbEntity
  8
0
  6
HIDDEN
 62
     7
100
AcDbLine
 10
4.0234864971
 20
3.90048931
 30
0.0
 11
4.0234864971
 21
4.3727727746
 31
0.0
  0
LINE
  5
12D
330
1F
100
AcDbEntity
  8
0
  6
HIDDEN
 62
     7
100
AcDbLine
 10
3.8896282294
 20
4.3727727746
 30
0.0
 11
3.8896282294
 21
3.90048931
 31
0.0
  0
LINE
  5
12E
330
1F
100
AcDbEntity
  8
0
  6
HIDDEN
 62
     7
100
AcDbLine
 10
4.0234864971
 20
4.3727727746
 30
0.0
 11
4.019577549
 21
4.3766817227
 31
0.0
  0
LINE
  5
12F
330
1F
100
AcDbEntity
  8
0
  6
HIDDEN
 62
     7
100
AcDbLine
 10
3.8935375016
 20
4.3766820468
 30
0.0
 11
3.8896282294
 21
4.3727727746
 31
0.0
  0
LINE
  5
130
330
1F
100
AcDbEntity
  8
0
  6
HIDDEN
 62
     7
100
AcDbLine
 10
3.8896282294
 20
3.90048931
 30
0.0
 11
3.8946282294
 21
3.89548931
 31
0.0
  0
LINE
  5
131
330
1F
100
AcDbEntity
  8
0
  6
HIDDEN
 62
     7
100
AcDbLine
 10
4.0184864971
 20
3.89548931
 30
0.0
 11
4.0234864971
 21
3.90048931
 31
0.0
  0
LINE
  5
132
330
1F
100
AcDbEntity
  8
0
  6
CONTINUOUS
 62
     7
100
AcDbLine
 10
8.8675062803
 20
3.6923078344
 30
0.0
 11
8.8709633465
 21
3.6957649006
 31
0.0
  0
LINE
  5
133
330
1F
100
AcDbEntity
  8
0
  6
CONTINUOUS
 62
     7
100
AcDbLine
 10
8.8709633465
 20
3.8196231683
 30
0.0
 11
8.8675062803
 21
3.8230802344
 31
0.0
  0
LINE
  5
134
330
1F
100
AcDbEntity
  8
0
  6
CONTINUOUS
 62
     7
100
AcDbLine
 10
8.3162708063
 20
4.3743157084
 30
0.0
 11
8.3128137402
 21
4.3777727746
 31
0.0
  0
LINE
  5
135
330
1F
100
AcDbEntity
  8
0
  6
CONTINUOUS
 62
     7
100
AcDbLine
 10
8.1889554725
 20
4.3777727746
 30
0.0
 11
8.1854984063
 21
4.3743157084
 31
0.0
  0
CIRCLE
  5
136
330
1F
100
AcDbEntity
  8
0
  6
CONTINUOUS
 62
     7
100
AcDbCircle
 10
8.2508846063
 20
3.7576940344
 30
0.0
 40
0.1452952755905521
  0
CIRCLE
  5
137
330
1F
100
AcDbEntity
  8
0
  6
CONTINUOUS
 62
     7
100
AcDbCircle
 10
8.2508846063
 20
3.7576940344
 30
0.0
 40
0.6125787401574811
  0
CIRCLE
  5
138
330
1F
100
AcDbEntity
  8
0
  6
CONTINUOUS
 62
     7
100
AcDbCircle
 10
8.2508846063
 20
3.7576940344
 30
0.0
 40
0.6200787401574814
  0
CIRCLE
  5
139
330
1F
100
AcDbEntity
  8
0
  6
CONTINUOUS
 62
     7
100
AcDbCircle
 10
8.2508846063
 20
3.7576940344
 30
0.0
 40
0.1377952755905518
  0
LINE
  5
13A
330
1F
100
AcDbEntity
  8
0
  6
CONTINUOUS
 62
     7
100
AcDbLine
 10
8.8709633465
 20
3.8196231683
 30
0.0
 11
8.8709633465
 21
3.6957649006
 31
0.0
  0
LINE
  5
13B
330
1F
100
AcDbEntity
  8
0
  6
CONTINUOUS
 62
     7
100
AcDbLine
 10
8.1889554725
 20
4.3777727746
 30
0.0
 11
8.3128137402
 21
4.3777727746
 31
0.0
  0
SPLINE
  5
13C
330
1F
100
AcDbEntity
  8
0
  6
HIDDEN
 62
     7
100
AcDbSpline
210
0.0
220
0.0
230
1.0
 70
     8
 71
     3
 72
    24
 73
    20
 74
     0
 42
0.00000001
 43
0.00000001
 40
0.0
 40
0.0
 40
0.0
 40
0.0
 40
0.0506324038407705
 40
0.1091991680037825
 40
0.1756277917328277
 40
0.2499209348242799
 40
0.3240356986284145
 40
0.3903724106615694
 40
0.4489339537806006
 40
0.4997301781359622
 40
0.5507757683434589
 40
0.6095308592742374
 40
0.6760055242490765
 40
0.7502029021087728
 40
0.8244575854284862
 40
0.8908417458334197
 40
0.9307591060283205
 40
0.9671741328148614
 40
1.0
 40
1.0
 40
1.0
 40
1.0
 10
8.183956848278417
 20
4.366650364426516
 30
0.0
 10
8.18412052009516
 20
4.366680153445427
 30
0.0
 10
8.184473511951325
 20
4.366744399577034
 30
0.0
 10
8.187660919890707
 20
4.367188692738251
 30
0.0
 10
8.193695553823712
 20
4.367865158414035
 30
0.0
 10
8.203097609276156
 20
4.36882288254772
 30
0.0
 10
8.2149724254437
 20
4.369777163417209
 30
0.0
 10
8.22760712934289
 20
4.370459206812572
 30
0.0
 10
8.239582887528625
 20
4.370881844713594
 30
0.0
 10
8.250827795219912
 20
4.371044212071193
 30
0.0
 10
8.262088435791227
 20
4.370883010988558
 30
0.0
 10
8.274107953714108
 20
4.370460958524609
 30
0.0
 10
8.286772086911165
 20
4.369778953155181
 30
0.0
 10
8.298663554633178
 20
4.368823465198818
 30
0.0
 10
8.308052859788736
 20
4.367868024335269
 30
0.0
 10
8.31356672204627
 20
4.367247020499164
 30
0.0
 10
8.316322682185323
 20
4.366884408780429
 30
0.0
 10
8.317595888579554
 20
4.366690142227155
 30
0.0
 10
8.317742992398868
 20
4.366663122736403
 30
0.0
 10
8.317812731683825
 20
4.366650313279969
 30
0.0
  0
LINE
  5
13D
330
1F
100
AcDbEntity
  8
0
  6
HIDDEN
 62
     7
100
AcDbLine
 10
8.2605435045
 20
4.3708698665
 30
0.0
 11
8.2508846063
 21
4.3709928876
 31
0.0
  0
LINE
  5
13E
330
1F
100
AcDbEntity
  8
0
  6
HIDDEN
 62
     7
100
AcDbLine
 10
8.8659633465
 20
3.6907649006
 30
0.0
 11
8.8659633465
 21
3.8246231683
 31
0.0
  0
LINE
  5
13F
330
1F
100
AcDbEntity
  8
0
  6
HIDDEN
 62
     7
100
AcDbLine
 10
8.3936798819
 20
3.7576940344
 30
0.0
 11
8.3936798819
 21
3.6907649006
 31
0.0
  0
LINE
  5
140
330
1F
100
AcDbEntity
  8
0
  6
HIDDEN
 62
     7
100
AcDbLine
 10
8.3936798819
 20
3.8246231683
 30
0.0
 11
8.3936798819
 21
3.7576940344
 31
0.0
  0
LINE
  5
141
330
1F
100
AcDbEntity
  8
0
  6
HIDDEN
 62
     7
100
AcDbLine
 10
8.3886798819
 20
3.7576940344
 30
0.0
 11
8.3886798819
 21
3.8196231683
 31
0.0
  0
LINE
  5
142
330
1F
100
AcDbEntity
  8
0
  6
HIDDEN
 62
     7
100
AcDbLine
 10
8.3886798819
 20
3.6957649006
 30
0.0
 11
8.3886798819
 21
3.7576940344
 31
0.0
  0
LINE
  5
143
330
1F
100
AcDbEntity
  8
0
  6
HIDDEN
 62
     7
100
AcDbLine
 10
8.8459633465
 20
3.7822850535
 30
0.0
 11
8.8709633465
 21
3.7822850535
 31
0.0
  0
LINE
  5
144
330
1F
100
AcDbEntity
  8
0
  6
HIDDEN
 62
     7
100
AcDbLine
 10
8.8459633465
 20
3.7331030153
 30
0.0
 11
8.8709633465
 21
3.7331030153
 31
0.0
  0
LINE
  5
145
330
1F
100
AcDbEntity
  8
0
  6
HIDDEN
 62
     7
100
AcDbLine
 10
8.8459633465
 20
3.7331030153
 30
0.0
 11
8.8459633465
 21
3.7085119962
 31
0.0
  0
LINE
  5
146
330
1F
100
AcDbEntity
  8
0
  6
HIDDEN
 62
     7
100
AcDbLine
 10
8.8459633465
 20
3.7822850535
 30
0.0
 11
8.8459633465
 21
3.7331030153
 31
0.0
  0
LINE
  5
147
330
1F
100
AcDbEntity
  8
0
  6
HIDDEN
 62
     7
100
AcDbLine
 10
8.8459633465
 20
3.8068760727
 30
0.0
 11
8.8459633465
 21
3.7822850535
 31
0.0
  0
LINE
  5
148
330
1F
100
AcDbEntity
  8
0
  6
HIDDEN
 62
     7
100
AcDbLine
 10
8.8459633465
 20
3.7085119962
 30
0.0
 11
8.8709633465
 21
3.7085119962
 31
0.0
  0
LINE
  5
149
330
1F
100
AcDbEntity
  8
0
  6
HIDDEN
 62
     7
100
AcDbLine
 10
8.8459633465
 20
3.8068760727
 30
0.0
 11
8.8709633465
 21
3.8068760727
 31
0.0
  0
LINE
  5
14A
330
1F
100
AcDbEntity
  8
0
  6
HIDDEN
 62
     7
100
AcDbLine
 10
8.2508846063
 20
3.89548931
 30
0.0
 11
8.1889554725
 21
3.89548931
 31
0.0
  0
LINE
  5
14B
330
1F
100
AcDbEntity
  8
0
  6
HIDDEN
 62
     7
100
AcDbLine
 10
8.3128137402
 20
3.89548931
 30
0.0
 11
8.2508846063
 21
3.89548931
 31
0.0
  0
LINE
  5
14C
330
1F
100
AcDbEntity
  8
0
  6
HIDDEN
 62
     7
100
AcDbLine
 10
8.2508846063
 20
3.90048931
 30
0.0
 11
8.3178137402
 21
3.90048931
 31
0.0
  0
LINE
  5
14D
330
1F
100
AcDbEntity
  8
0
  6
HIDDEN
 62
     7
100
AcDbLine
 10
8.1839554725
 20
3.90048931
 30
0.0
 11
8.2508846063
 21
3.90048931
 31
0.0
  0
LINE
  5
14E
330
1F
100
AcDbEntity
  8
0
  6
HIDDEN
 62
     7
100
AcDbLine
 10
8.3178137402
 20
4.3727727746
 30
0.0
 11
8.1839554725
 21
4.3727727746
 31
0.0
  0
LINE
  5
14F
330
1F
100
AcDbEntity
  8
0
  6
HIDDEN
 62
     7
100
AcDbLine
 10
8.2754756254
 20
4.3527727746
 30
0.0
 11
8.2754756254
 21
4.3777727746
 31
0.0
  0
LINE
  5
150
330
1F
100
AcDbEntity
  8
0
  6
HIDDEN
 62
     7
100
AcDbLine
 10
8.2262935872
 20
4.3527727746
 30
0.0
 11
8.2754756254
 21
4.3527727746
 31
0.0
  0
LINE
  5
151
330
1F
100
AcDbEntity
  8
0
  6
HIDDEN
 62
     7
100
AcDbLine
 10
8.2754756254
 20
4.3527727746
 30
0.0
 11
8.3000666446
 21
4.3527727746
 31
0.0
  0
LINE
  5
152
330
1F
100
AcDbEntity
  8
0
  6
HIDDEN
 62
     7
100
AcDbLine
 10
8.2017025681
 20
4.3527727746
 30
0.0
 11
8.2262935872
 21
4.3527727746
 31
0.0
  0
LINE
  5
153
330
1F
100
AcDbEntity
  8
0
  6
HIDDEN
 62
     7
100
AcDbLine
 10
8.2262935872
 20
4.3527727746
 30
0.0
 11
8.2262935872
 21
4.3777727746
 31
0.0
  0
LINE
  5
154
330
1F
100
AcDbEntity
  8
0
  6
HIDDEN
 62
     7
100
AcDbLine
 10
8.3000666446
 20
4.3527727746
 30
0.0
 11
8.3000666446
 21
4.3777727746
 31
0.0
  0
LINE
  5
155
330
1F
100
AcDbEntity
  8
0
  6
HIDDEN
 62
     7
100
AcDbLine
 10
8.2017025681
 20
4.3527727746
 30
0.0
 11
8.2017025681
 21
4.3777727746
 31
0.0
  0
LINE
  5
156
330
1F
100
AcDbEntity
  8
0
  6
HIDDEN
 62
     7
100
AcDbLine
 10
8.177223595
 20
4.3733820231
 30
0.0
 11
8.1839554738
 21
4.3666501442
 31
0.0
  0
LINE
  5
157
330
1F
100
AcDbEntity
  8
0
  6
HIDDEN
 62
     7
100
AcDbLine
 10
8.3178137464
 20
4.3666501437
 30
0.0
 11
8.324545626
 21
4.3733820227
 31
0.0
  0
LINE
  5
158
330
1F
100
AcDbEntity
  8
0
  6
HIDDEN
 62
     7
100
AcDbLine
 10
8.3178137402
 20
3.8781433143
 30
0.0
 11
8.3178137402
 21
4.3666502539
 31
0.0
  0
LINE
  5
159
330
1F
100
AcDbEntity
  8
0
  6
HIDDEN
 62
     7
100
AcDbLine
 10
8.1839554725
 20
4.3666505934
 30
0.0
 11
8.1839554725
 21
3.8782590892
 31
0.0
  0
LINE
  5
15A
330
1F
100
AcDbEntity
  8
0
  6
HIDDEN
 62
     7
100
AcDbLine
 10
8.3713559053
 20
3.6907649006
 30
0.0
 11
8.8673643416
 21
3.6907649006
 31
0.0
  0
LINE
  5
15B
330
1F
100
AcDbEntity
  8
0
  6
HIDDEN
 62
     7
100
AcDbLine
 10
8.8673416968
 20
3.8246231683
 30
0.0
 11
8.3714643395
 21
3.8246231683
 31
0.0
  0
LINE
  5
15C
330
1F
100
AcDbEntity
  8
0
  6
HIDDEN
 62
     7
100
AcDbLine
 10
8.8659633465
 20
3.6907649006
 30
0.0
 11
8.8675062803
 21
3.6923078344
 31
0.0
  0
LINE
  5
15D
330
1F
100
AcDbEntity
  8
0
  6
HIDDEN
 62
     7
100
AcDbLine
 10
8.8675062803
 20
3.8230802344
 30
0.0
 11
8.8659633465
 21
3.8246231683
 31
0.0
  0
LINE
  5
15E
330
1F
100
AcDbEntity
  8
0
  6
HIDDEN
 62
     7
100
AcDbLine
 10
8.3936798819
 20
3.6907649006
 30
0.0
 11
8.8659633465
 21
3.6907649006
 31
0.0
  0
LINE
  5
15F
330
1F
100
AcDbEntity
  8
0
  6
HIDDEN
 62
     7
100
AcDbLine
 10
8.8659633465
 20
3.8246231683
 30
0.0
 11
8.3936798819
 21
3.8246231683
 31
0.0
  0
LINE
  5
160
330
1F
100
AcDbEntity
  8
0
  6
HIDDEN
 62
     7
100
AcDbLine
 10
8.3936798819
 20
3.8246231683
 30
0.0
 11
8.3886798819
 21
3.8196231683
 31
0.0
  0
LINE
  5
161
330
1F
100
AcDbEntity
  8
0
  6
HIDDEN
 62
     7
100
AcDbLine
 10
8.3886798819
 20
3.6957649006
 30
0.0
 11
8.3936798819
 21
3.6907649006
 31
0.0
  0
LINE
  5
162
330
1F
100
AcDbEntity
  8
0
  6
HIDDEN
 62
     7
100
AcDbLine
 10
8.1839554725
 20
3.90048931
 30
0.0
 11
8.1889554725
 21
3.89548931
 31
0.0
  0
LINE
  5
163
330
1F
100
AcDbEntity
  8
0
  6
HIDDEN
 62
     7
100
AcDbLine
 10
8.3128137402
 20
3.89548931
 30
0.0
 11
8.3178137402
 21
3.90048931
 31
0.0
  0
LINE
  5
164
330
1F
100
AcDbEntity
  8
0
  6
HIDDEN
 62
     7
100
AcDbLine
 10
8.3178137402
 20
4.3727727746
 30
0.0
 11
8.3162708063
 21
4.3743157084
 31
0.0
  0
LINE
  5
165
330
1F
100
AcDbEntity
  8
0
  6
HIDDEN
 62
     7
100
AcDbLine
 10
8.1854984063
 20
4.3743157084
 30
0.0
 11
8.1839554725
 21
4.3727727746
 31
0.0
  0
LINE
  5
166
330
1F
100
AcDbEntity
  8
0
  6
HIDDEN
 62
     7
100
AcDbLine
 10
8.3178137402
 20
3.90048931
 30
0.0
 11
8.3178137402
 21
4.3727727746
 31
0.0
  0
LINE
  5
167
330
1F
100
AcDbEntity
  8
0
  6
HIDDEN
 62
     7
100
AcDbLine
 10
8.1839554725
 20
4.3727727746
 30
0.0
 11
8.1839554725
 21
3.90048931
 31
0.0
  0
LINE
  5
168
330
1F
100
AcDbEntity
  8
0
  6
CONTINUOUS
 62
     7
100
AcDbLine
 10
2.4483093317
 20
6.0518983988
 30
0.0
 11
4.204962875
 21
6.0518983988
 31
0.0
  0
LINE
  5
169
330
1F
100
AcDbEntity
  8
0
  6
CONTINUOUS
 62
     7
100
AcDbLine
 10
2.6297857097
 20
7.2920558791
 30
0.0
 11
2.4483093317
 21
7.2920558791
 31
0.0
  0
LINE
  5
16A
330
1F
100
AcDbEntity
  8
0
  6
CONTINUOUS
 62
     7
100
AcDbLine
 10
3.8896282294
 20
7.2920558791
 30
0.0
 11
2.7634405828
 21
7.2920558791
 31
0.0
  0
LINE
  5
16B
330
1F
100
AcDbEntity
  8
0
  6
CONTINUOUS
 62
     7
100
AcDbLine
 10
4.204962875
 20
7.2920558791
 30
0.0
 11
4.0232831024
 21
7.2920558791
 31
0.0
  0
LINE
  5
16C
330
1F
100
AcDbEntity
  8
0
  6
CONTINUOUS
 62
     7
100
AcDbLine
 10
4.204962875
 20
6.0518983988
 30
0.0
 11
4.212462875
 21
6.0593983988
 31
0.0
  0
LINE
  5
16D
330
1F
100
AcDbEntity
  8
0
  6
CONTINUOUS
 62
     7
100
AcDbLine
 10
4.212462875
 20
7.2845558791
 30
0.0
 11
4.204962875
 21
7.2920558791
 31
0.0
  0
LINE
  5
16E
330
1F
100
AcDbEntity
  8
0
  6
CONTINUOUS
 62
     7
100
AcDbLine
 10
2.4483093317
 20
7.2920558791
 30
0.0
 11
2.4408093317
 21
7.2845558791
 31
0.0
  0
LINE
  5
16F
330
1F
100
AcDbEntity
  8
0
  6
CONTINUOUS
 62
     7
100
AcDbLine
 10
2.4408093317
 20
6.0593983988
 30
0.0
 11
2.4483093317
 21
6.0518983988
 31
0.0
  0
LINE
  5
170
330
1F
100
AcDbEntity
  8
0
  6
CONTINUOUS
 62
     7
100
AcDbLine
 10
4.204962875
 20
6.0518983988
 30
0.0
 11
4.204962875
 21
7.2920558791
 31
0.0
  0
LINE
  5
171
330
1F
100
AcDbEntity
  8
0
  6
CONTINUOUS
 62
     7
100
AcDbLine
 10
2.4483093317
 20
7.2920558791
 30
0.0
 11
2.4483093317
 21
6.0518983988
 31
0.0
  0
SPLINE
  5
172
330
1F
100
AcDbEntity
  8
0
  6
CONTINUOUS
 62
     7
100
AcDbSpline
210
0.0
220
0.0
230
1.0
 70
     8
 71
     3
 72
    39
 73
    35
 74
     0
 42
0.00000001
 43
0.00000001
 40
-0.0942648971409122
 40
-0.062761628121293
 40
-0.0312015322785448
 40
0.0
 40
0.031234433446668
 40
0.0628038715787341
 40
0.0943325683599921
 40
0.1254601991709683
 40
0.1565046884804499
 40
0.1878472879752708
 40
0.2191237080212379
 40
0.2500198132941478
 40
0.2808632411582543
 40
0.3121729417794982
 40
0.3434594935699752
 40
0.3744950606563573
 40
0.4055989495879211
 40
0.4372023435715137
 40
0.468870641134873
 40
0.5001558435912556
 40
0.5313743001349553
 40
0.5629458010347417
 40
0.5944101051812479
 40
0.6255183676709642
 40
0.6565598395703156
 40
0.6878772077164632
 40
0.7191773240675998
 40
0.750075608667494
 40
0.780945398821803
 40
0.8122833072105798
 40
0.8435874692210868
 40
0.8746522443725611
 40
0.9057351028590878
 40
0.937238371878707
 40
0.9687984677214552
 40
1.0
 40
1.031234433446668
 40
1.062803871578734
 40
1.094332568359992
 10
2.624787066657932
 20
6.657548327735493
 30
0.0
 10
2.623392534213998
 20
6.671982708135036
 30
0.0
 10
2.624808591133364
 20
6.686415407485321
 30
0.0
 10
2.629060325887103
 20
6.700318500215143
 30
0.0
 10
2.635770745237478
 20
6.713186143845154
 30
0.0
 10
2.644863088149293
 20
6.724392653539755
 30
0.0
 10
2.655947669558261
 20
6.73358993922307
 30
0.0
 10
2.668679649769854
 20
6.740376867656258
 30
0.0
 10
2.682437641988561
 20
6.744679950156496
 30
0.0
 10
2.696720062321575
 20
6.746110937879083
 30
0.0
 10
2.711009525049566
 20
6.744692217412752
 30
0.0
 10
2.72475551911631
 20
6.740385998916587
 30
0.0
 10
2.737480017699989
 20
6.733596991589473
 30
0.0
 10
2.74855307957323
 20
6.724406922204141
 30
0.0
 10
2.757645068806642
 20
6.713191528850781
 30
0.0
 10
2.764358850704556
 20
6.700300197456292
 30
0.0
 10
2.768626653635247
 20
6.686365941345931
 30
0.0
 10
2.770039101776764
 20
6.671905977604126
 30
0.0
 10
2.768628354196449
 20
6.657461001226304
 30
0.0
 10
2.764367353963998
 20
6.643572209741171
 30
0.0
 10
2.757644225624708
 20
6.630725385765569
 30
0.0
 10
2.748544564181587
 20
6.619542508682544
 30
0.0
 10
2.737460974948059
 20
6.610356735030651
 30
0.0
 10
2.724730659116263
 20
6.603569290196392
 30
0.0
 10
2.710972506714677
 20
6.599264428419192
 30
0.0
 10
2.696680440556498
 20
6.597842139786786
 30
0.0
 10
2.682383786148023
 20
6.599277173477407
 30
0.0
 10
2.668631076158038
 20
6.603598337114939
 30
0.0
 10
2.655901605867443
 20
6.610402159183929
 30
0.0
 10
2.644829236715246
 20
6.619598251248132
 30
0.0
 10
2.635740281524016
 20
6.630797337507575
 30
0.0
 10
2.629036353275878
 20
6.643654522046369
 30
0.0
 10
2.624787066657932
 20
6.657548327735493
 30
0.0
 10
2.623392534213998
 20
6.671982708135036
 30
0.0
 10
2.624808591133364
 20
6.686415407485321
 30
0.0
  0
SPLINE
  5
173
330
1F
100
AcDbEntity
  8
0
  6
CONTINUOUS
 62
     7
100
AcDbSpline
210
0.0
220
0.0
230
1.0
 70
     8
 71
     3
 72
    39
 73
    35
 74
     0
 42
0.00000001
 43
0.00000001
 40
-0.0942648971399156
 40
-0.0627616281212547
 40
-0.0312015322775446
 40
0.0
 40
0.0312344334469365
 40
0.0628038715787441
 40
0.0943325683602587
 40
0.125460199170968
 40
0.1565046884808006
 40
0.187847287975284
 40
0.2191237080215853
 40
0.250019813294147
 40
0.2808632411584204
 40
0.3121729417795048
 40
0.3434594935701443
 40
0.3744950606563572
 40
0.4055989495882134
 40
0.4372023435715247
 40
0.4688706411351664
 40
0.5001558435912551
 40
0.5313743001349542
 40
0.562945801034741
 40
0.5944101051810277
 40
0.6255183676709555
 40
0.6565598395698542
 40
0.6878772077164534
 40
0.7191773240673599
 40
0.7500756086674943
 40
0.7809453988222104
 40
0.8122833072105964
 40
0.8435874692214992
 40
0.8746522443725614
 40
0.9057351028600844
 40
0.9372383718787453
 40
0.9687984677224554
 40
1.0
 40
1.031234433446937
 40
1.062803871578744
 40
1.094332568360259
 10
3.884629586343081
 20
6.657548327735673
 30
0.0
 10
3.88323505389902
 20
6.671982708135225
 30
0.0
 10
3.884651110818384
 20
6.686415407485371
 30
0.0
 10
3.888902845572169
 20
6.700318500215218
 30
0.0
 10
3.89561326492257
 20
6.713186143845171
 30
0.0
 10
3.904705607834396
 20
6.724392653539819
 30
0.0
 10
3.915790189243316
 20
6.733589939223141
 30
0.0
 10
3.928522169454991
 20
6.7403768676563
 30
0.0
 10
3.942280161673662
 20
6.744679950156458
 30
0.0
 10
3.95656258200669
 20
6.746110937879087
 30
0.0
 10
3.970852044734635
 20
6.744692217412767
 30
0.0
 10
3.984598038801394
 20
6.740385998916566
 30
0.0
 10
3.997322537385037
 20
6.73359699158944
 30
0.0
 10
4.008395599258314
 20
6.724406922204089
 30
0.0
 10
4.01748758849174
 20
6.713191528850766
 30
0.0
 10
4.024201370389629
 20
6.70030019745621
 30
0.0
 10
4.028469173320252
 20
6.686365941345879
 30
0.0
 10
4.029881621461811
 20
6.671905977604083
 30
0.0
 10
4.028470873881482
 20
6.657461001226306
 30
0.0
 10
4.024209873649054
 20
6.643572209741198
 30
0.0
 10
4.017486745309736
 20
6.630725385765616
 30
0.0
 10
4.008387083866701
 20
6.619542508682613
 30
0.0
 10
3.997303494633154
 20
6.610356735030693
 30
0.0
 10
3.984573178801398
 20
6.603569290196439
 30
0.0
 10
3.970815026399759
 20
6.599264428419158
 30
0.0
 10
3.95652296024151
 20
6.597842139786802
 30
0.0
 10
3.942226305832988
 20
6.599277173477357
 30
0.0
 10
3.928473595842963
 20
6.60359833711499
 30
0.0
 10
3.915744125552455
 20
6.610402159184006
 30
0.0
 10
3.904671756400147
 20
6.61959825124829
 30
0.0
 10
3.895582801208853
 20
6.630797337507627
 30
0.0
 10
3.888878872960802
 20
6.643654522046649
 30
0.0
 10
3.884629586343081
 20
6.657548327735673
 30
0.0
 10
3.88323505389902
 20
6.671982708135225
 30
0.0
 10
3.884651110818384
 20
6.686415407485371
 30
0.0
  0
SPLINE
  5
174
330
1F
100
AcDbEntity
  8
0
  6
CONTINUOUS
 62
     7
100
AcDbSpline
210
0.0
220
0.0
230
1.0
 70
     8
 71
     3
 72
    26
 73
    22
 74
     0
 42
0.00000001
 43
0.00000001
 40
0.0
 40
0.0
 40
0.0
 40
0.0
 40
0.0174485780879772
 40
0.0717094920911153
 40
0.1243155532399425
 40
0.1784360059108145
 40
0.2312489728115343
 40
0.2855806474116278
 40
0.3386071970705575
 40
0.3931770794880191
 40
0.4460898682643636
 40
0.5005527898888397
 40
0.5531993865119249
 40
0.6073739267646693
 40
0.66001828137109
 40
0.7141744839023658
 40
0.7670826400943592
 40
0.8215172939911531
 40
0.8745451729554812
 40
0.9291223510220172
 40
1.0
 40
1.0
 40
1.0
 40
1.0
 10
4.023283102445691
 20
7.292033975413271
 30
0.0
 10
4.023339321475842
 20
7.292040028550829
 30
0.0
 10
4.023570368273905
 20
7.292064905501696
 30
0.0
 10
4.022046703954742
 20
7.291900423161132
 30
0.0
 10
4.018715795914271
 20
7.291554501254252
 30
0.0
 10
4.013549958983575
 20
7.291052573257396
 30
0.0
 10
4.006757238401394
 20
7.290458886504156
 30
0.0
 10
3.998587421996167
 20
7.289843372377461
 30
0.0
 10
3.98913495224702
 20
7.28926696940978
 30
0.0
 10
3.978832851635782
 20
7.288804562887623
 30
0.0
 10
3.967802124009991
 20
7.288501993133248
 30
0.0
 10
3.956575944614275
 20
7.288398583149306
 30
0.0
 10
3.945266867977253
 20
7.288503137862702
 30
0.0
 10
3.934399658023274
 20
7.28880077152919
 30
0.0
 10
3.924065565517021
 20
7.289262657567289
 30
0.0
 10
3.914720930766074
 20
7.289830383259218
 30
0.0
 10
3.906465260890291
 20
7.290449763364261
 30
0.0
 10
3.899664649988871
 20
7.291043531978686
 30
0.0
 10
3.894458940390726
 20
7.291547861438762
 30
0.0
 10
3.890504228142857
 20
7.291960081967367
 30
0.0
 10
3.889944472177281
 20
7.292021295525489
 30
0.0
 10
3.889628229368805
 20
7.292055879073906
 30
0.0
  0
SPLINE
  5
175
330
1F
100
AcDbEntity
  8
0
  6
CONTINUOUS
 62
     7
100
AcDbSpline
210
0.0
220
0.0
230
1.0
 70
     8
 71
     3
 72
    26
 73
    22
 74
     0
 42
0.00000001
 43
0.00000001
 40
0.0
 40
0.0
 40
0.0
 40
0.0
 40
0.0174485780879776
 40
0.0717094920911157
 40
0.1243155532399428
 40
0.1784360059108151
 40
0.231248972811535
 40
0.2855806474116285
 40
0.3386071970705576
 40
0.3931770794880195
 40
0.4460898682643639
 40
0.50055278988884
 40
0.5531993865119251
 40
0.6073739267646698
 40
0.6600182813710898
 40
0.7141744839023658
 40
0.7670826400943588
 40
0.8215172939911531
 40
0.8745451729554816
 40
0.929122351022018
 40
1.0
 40
1.0
 40
1.0
 40
1.0
 10
2.763440582760652
 20
7.292033975413271
 30
0.0
 10
2.763496801790803
 20
7.292040028550828
 30
0.0
 10
2.763727848588865
 20
7.292064905501695
 30
0.0
 10
2.762204184269703
 20
7.291900423161132
 30
0.0
 10
2.758873276229231
 20
7.291554501254252
 30
0.0
 10
2.753707439298535
 20
7.291052573257395
 30
0.0
 10
2.746914718716355
 20
7.290458886504156
 30
0.0
 10
2.738744902311127
 20
7.289843372377461
 30
0.0
 10
2.729292432561981
 20
7.28926696940978
 30
0.0
 10
2.718990331950742
 20
7.288804562887623
 30
0.0
 10
2.707959604324952
 20
7.288501993133248
 30
0.0
 10
2.696733424929236
 20
7.288398583149306
 30
0.0
 10
2.685424348292214
 20
7.288503137862702
 30
0.0
 10
2.674557138338234
 20
7.288800771529191
 30
0.0
 10
2.664223045831982
 20
7.289262657567289
 30
0.0
 10
2.654878411081035
 20
7.289830383259218
 30
0.0
 10
2.646622741205252
 20
7.290449763364261
 30
0.0
 10
2.639822130303832
 20
7.291043531978686
 30
0.0
 10
2.634616420705686
 20
7.291547861438762
 30
0.0
 10
2.630661708457818
 20
7.291960081967367
 30
0.0
 10
2.630101952492241
 20
7.292021295525489
 30
0.0
 10
2.629785709683765
 20
7.292055879073906
 30
0.0
  0
LINE
  5
176
330
1F
100
AcDbEntity
  8
0
  6
CONTINUOUS
 62
     7
100
AcDbLine
 10
2.6297857097
 20
6.6719771389
 30
0.0
 11
2.6301719931
 21
6.6671550722
 31
0.0
  0
SPLINE
  5
177
330
1F
100
AcDbEntity
  8
0
  6
CONTINUOUS
 62
     7
100
AcDbSpline
210
0.0
220
0.0
230
1.0
 70
     8
 71
     3
 72
     9
 73
     5
 74
     0
 42
0.00000001
 43
0.00000001
 40
0.0
 40
0.0
 40
0.0
 40
0.0
 40
0.5353906076465456
 40
1.0
 40
1.0
 40
1.0
 40
1.0
 10
2.763640562154539
 20
6.671945757208655
 30
0.0
 10
2.763521081447991
 20
6.67552282254887
 30
0.0
 10
2.76329791595939
 20
6.682204047974059
 30
0.0
 10
2.76138042685571
 20
6.688597849069356
 30
0.0
 10
2.760489543408405
 20
6.69156846911107
 30
0.0
  0
SPLINE
  5
178
330
1F
100
AcDbEntity
  8
0
  6
CONTINUOUS
 62
     7
100
AcDbSpline
210
0.0
220
0.0
230
1.0
 70
     8
 71
     3
 72
     9
 73
     5
 74
     0
 42
0.00000001
 43
0.00000001
 40
0.0
 40
0.0
 40
0.0
 40
0.0
 40
0.3326094926575783
 40
1.0
 40
1.0
 40
1.0
 40
1.0
 10
2.631967698457303
 20
6.687791785964593
 30
0.0
 10
2.631474976393231
 20
6.686081131323787
 30
0.0
 10
2.629993593345094
 20
6.680937998976187
 30
0.0
 10
2.629868917295654
 20
6.675563816971251
 30
0.0
 10
2.629785709683765
 20
6.671977138916426
 30
0.0
  0
SPLINE
  5
179
330
1F
100
AcDbEntity
  8
0
  6
CONTINUOUS
 62
     7
100
AcDbSpline
210
0.0
220
0.0
230
1.0
 70
     8
 71
     3
 72
    32
 73
    28
 74
     0
 42
0.00000001
 43
0.00000001
 40
-0.088163554553408
 40
-0.0548902484604537
 40
-0.0255040499767979
 40
0.0
 40
0.0546632638022052
 40
0.1245811505705301
 40
0.1618464349694884
 40
0.1951563022849199
 40
0.2245120079151571
 40
0.2499183574617074
 40
0.3044944045623741
 40
0.3746050440431798
 40
0.4117565347656084
 40
0.4450091232534999
 40
0.4743642545958522
 40
0.4998268663753334
 40
0.5546602855900473
 40
0.6247463823100252
 40
0.6619680104560669
 40
0.6952443833784415
 40
0.724576811476121
 40
0.7499701555434793
 40
0.7500000229259743
 40
0.8045670395336234
 40
0.8746745529748557
 40
0.911836445446592
 40
0.9451097515395463
 40
0.9744959500232021
 40
1.0
 40
1.054663263802205
 40
1.12458115057053
 40
1.161846434969488
 10
3.890243855151439
 20
6.683219796768748
 30
0.0
 10
3.889013768840334
 20
6.667907358868018
 30
0.0
 10
3.892638445433236
 20
6.646821700434002
 30
0.0
 10
3.905173118746486
 20
6.627072722192819
 30
0.0
 10
3.920668717008459
 20
6.614839448122446
 30
0.0
 10
3.93333037118956
 20
6.608745674014061
 30
0.0
 10
3.945311281038472
 20
6.60566576040642
 30
0.0
 10
3.960592900760592
 20
6.604434802071349
 30
0.0
 10
3.98168074492703
 20
6.608041996453165
 30
0.0
 10
4.001439121038196
 20
6.6205696446916
 30
0.0
 10
4.013676562032972
 20
6.63606417428018
 30
0.0
 10
4.019769275350884
 20
6.648699283904702
 30
0.0
 10
4.022860230598993
 20
6.66067720632939
 30
0.0
 10
4.024106376344633
 20
6.676001787763325
 30
0.0
 10
4.020486360805614
 20
6.697134172717742
 30
0.0
 10
4.007915873324603
 20
6.716915965766339
 30
0.0
 10
3.992399970366827
 20
6.729142548295338
 30
0.0
 10
3.979745509853745
 20
6.735221467950513
 30
0.0
 10
3.967777552584456
 20
6.738293439883999
 30
0.0
 10
3.960113813764866
 20
6.738905939882283
 30
0.0
 10
3.948937119180118
 20
6.738906987287317
 30
0.0
 10
3.931394132398851
 20
6.735898931774943
 30
0.0
 10
3.911652231293455
 20
6.723363377810148
 30
0.0
 10
3.899418170552853
 20
6.707859544610318
 30
0.0
 10
3.893329240894579
 20
6.695212867812126
 30
0.0
 10
3.890243855151439
 20
6.683219796768748
 30
0.0
 10
3.889013768840334
 20
6.667907358868018
 30
0.0
 10
3.892638445433236
 20
6.646821700434002
 30
0.0
  0
LINE
  5
17A
330
1F
100
AcDbEntity
  8
0
  6
CONTINUOUS
 62
     7
100
AcDbLine
 10
4.212462875
 20
7.2845558791
 30
0.0
 11
4.212462875
 21
6.0593983988
 31
0.0
  0
LINE
  5
17B
330
1F
100
AcDbEntity
  8
0
  6
CONTINUOUS
 62
     7
100
AcDbLine
 10
2.4408093317
 20
6.0593983988
 30
0.0
 11
2.4408093317
 21
7.2845558791
 31
0.0
  0
LINE
  5
17C
330
1F
100
AcDbEntity
  8
0
  6
CONTINUOUS
 62
     7
100
AcDbLine
 10
3.8946282294
 20
7.2920558791
 30
0.0
 11
4.0184864971
 21
7.2920558791
 31
0.0
  0
LINE
  5
17D
330
1F
100
AcDbEntity
  8
0
  6
CONTINUOUS
 62
     7
100
AcDbLine
 10
2.7586439774
 20
7.2920558791
 30
0.0
 11
2.6347857097
 21
7.2920558791
 31
0.0
  0
CIRCLE
  5
17E
330
1F
100
AcDbEntity
  8
0
  6
CONTINUOUS
 62
     7
100
AcDbCircle
 10
2.6967148435
 20
6.6719771389
 30
0.0
 40
0.0619291338582673
  0
LINE
  5
17F
330
1F
100
AcDbEntity
  8
0
  6
CONTINUOUS
 62
     7
100
AcDbLine
 10
2.654121949
 20
6.6473861198
 30
0.0
 11
2.654121949
 21
6.696568158
 31
0.0
  0
LINE
  5
180
330
1F
100
AcDbEntity
  8
0
  6
CONTINUOUS
 62
     7
100
AcDbLine
 10
2.6967148435
 20
6.6227951007
 30
0.0
 11
2.654121949
 21
6.6473861198
 31
0.0
  0
LINE
  5
181
330
1F
100
AcDbEntity
  8
0
  6
CONTINUOUS
 62
     7
100
AcDbLine
 10
2.7393077381
 20
6.6473861198
 30
0.0
 11
2.6967148435
 21
6.6227951007
 31
0.0
  0
LINE
  5
182
330
1F
100
AcDbEntity
  8
0
  6
CONTINUOUS
 62
     7
100
AcDbLine
 10
2.7393077381
 20
6.696568158
 30
0.0
 11
2.7393077381
 21
6.6473861198
 31
0.0
  0
LINE
  5
183
330
1F
100
AcDbEntity
  8
0
  6
CONTINUOUS
 62
     7
100
AcDbLine
 10
2.6967148435
 20
6.7211591771
 30
0.0
 11
2.7393077381
 21
6.696568158
 31
0.0
  0
LINE
  5
184
330
1F
100
AcDbEntity
  8
0
  6
CONTINUOUS
 62
     7
100
AcDbLine
 10
2.654121949
 20
6.696568158
 30
0.0
 11
2.6967148435
 21
6.7211591771
 31
0.0
  0
CIRCLE
  5
185
330
1F
100
AcDbEntity
  8
0
  6
CONTINUOUS
 62
     7
100
AcDbCircle
 10
2.6967148435
 20
6.6719771389
 30
0.0
 40
0.0669291338582676
  0
CIRCLE
  5
186
330
1F
100
AcDbEntity
  8
0
  6
CONTINUOUS
 62
     7
100
AcDbCircle
 10
3.9565573632
 20
6.6719771389
 30
0.0
 40
0.0619291338582673
  0
LINE
  5
187
330
1F
100
AcDbEntity
  8
0
  6
CONTINUOUS
 62
     7
100
AcDbLine
 10
3.9565573632
 20
6.7211591771
 30
0.0
 11
3.9139644687
 21
6.696568158
 31
0.0
  0
LINE
  5
188
330
1F
100
AcDbEntity
  8
0
  6
CONTINUOUS
 62
     7
100
AcDbLine
 10
3.9139644687
 20
6.696568158
 30
0.0
 11
3.9139644687
 21
6.6473861198
 31
0.0
  0
LINE
  5
189
330
1F
100
AcDbEntity
  8
0
  6
CONTINUOUS
 62
     7
100
AcDbLine
 10
3.9139644687
 20
6.6473861198
 30
0.0
 11
3.9565573632
 21
6.6227951007
 31
0.0
  0
LINE
  5
18A
330
1F
100
AcDbEntity
  8
0
  6
CONTINUOUS
 62
     7
100
AcDbLine
 10
3.9565573632
 20
6.6227951007
 30
0.0
 11
3.9991502577
 21
6.6473861198
 31
0.0
  0
LINE
  5
18B
330
1F
100
AcDbEntity
  8
0
  6
CONTINUOUS
 62
     7
100
AcDbLine
 10
3.9991502577
 20
6.6473861198
 30
0.0
 11
3.9991502577
 21
6.696568158
 31
0.0
  0
LINE
  5
18C
330
1F
100
AcDbEntity
  8
0
  6
CONTINUOUS
 62
     7
100
AcDbLine
 10
3.9991502577
 20
6.696568158
 30
0.0
 11
3.9565573632
 21
6.7211591771
 31
0.0
  0
CIRCLE
  5
18D
330
1F
100
AcDbEntity
  8
0
  6
CONTINUOUS
 62
     7
100
AcDbCircle
 10
3.9565573632
 20
6.6719771389
 30
0.0
 40
0.0669291338582672
  0
SPLINE
  5
18E
330
1F
100
AcDbEntity
  8
0
  6
HIDDEN
 62
     7
100
AcDbSpline
210
0.0
220
0.0
230
1.0
 70
     8
 71
     3
 72
    24
 73
    20
 74
     0
 42
0.00000001
 43
0.00000001
 40
0.0
 40
0.0
 40
0.0
 40
0.0
 40
0.0285103303382554
 40
0.0884842806766175
 40
0.1563613793303122
 40
0.2321447961001002
 40
0.3082508296543784
 40
0.3762788058388214
 40
0.4362312885245812
 40
0.4881180920811299
 40
0.5400362889717363
 40
0.5999929437498075
 40
0.6679980336222153
 40
0.7440542815068923
 40
0.8199279168531896
 40
0.8878389138055056
 40
0.9477902236358705
 40
0.9997919302558399
 40
1.0
 40
1.0
 40
1.0
 40
1.0
 10
2.6301719931085
 20
6.667155072152177
 30
0.0
 10
2.630282168608392
 20
6.665204978412929
 30
0.0
 10
2.630624107819215
 20
6.659152693514014
 30
0.0
 10
2.633555298049925
 20
6.64875854678038
 30
0.0
 10
2.639534732107732
 20
6.636118678614518
 30
0.0
 10
2.648949085965955
 20
6.62423744032922
 30
0.0
 10
2.66082610099295
 20
6.614834254663498
 30
0.0
 10
2.673488422153796
 20
6.608746943597949
 30
0.0
 10
2.685466950047178
 20
6.605665138853388
 30
0.0
 10
2.696681425823829
 20
6.604764285345984
 30
0.0
 10
2.707896999745722
 20
6.605653833776613
 30
0.0
 10
2.719880074348837
 20
6.608724409518294
 30
0.0
 10
2.732540965456225
 20
6.614797310725406
 30
0.0
 10
2.744442429316472
 20
6.624187768599257
 30
0.0
 10
2.753823431714157
 20
6.636064751168282
 30
0.0
 10
2.759974733766239
 20
6.648702116145305
 30
0.0
 10
2.762866749822632
 20
6.660667466954456
 30
0.0
 10
2.763924960718887
 20
6.668371028689444
 30
0.0
 10
2.763641691058928
 20
6.671931567521293
 30
0.0
 10
2.763640562154539
 20
6.671945757208655
 30
0.0
  0
SPLINE
  5
18F
330
1F
100
AcDbEntity
  8
0
  6
HIDDEN
 62
     7
100
AcDbSpline
210
0.0
220
0.0
230
1.0
 70
     8
 71
     3
 72
    23
 73
    19
 74
     0
 42
0.00000001
 43
0.00000001
 40
0.0
 40
0.0
 40
0.0
 40
0.0
 40
0.0176512948393442
 40
0.0978300481524707
 40
0.1873235906659277
 40
0.2768862524473672
 40
0.3569558432150308
 40
0.4051023690705221
 40
0.4490245377747186
 40
0.4887291317058126
 40
0.5284867306123378
 40
0.572444661623746
 40
0.6206263574541092
 40
0.7007473825926442
 40
0.7903599921467476
 40
0.8797939059107754
 40
0.9598687122559248
 40
1.0
 40
1.0
 40
1.0
 40
1.0
 10
2.760489543408405
 20
6.69156846911107
 30
0.0
 10
2.760249558560065
 20
6.692565447877065
 30
0.0
 10
2.758919473176383
 20
6.698091075405919
 30
0.0
 10
2.753712798321759
 20
6.707824836479525
 30
0.0
 10
2.744489890858569
 20
6.719766793898465
 30
0.0
 10
2.732547197769037
 20
6.729144619851017
 30
0.0
 10
2.72108337044803
 20
6.734654329168227
 30
0.0
 10
2.711460040415497
 20
6.737426058770952
 30
0.0
 10
2.703892130863895
 20
6.738653635452395
 30
0.0
 10
2.696724301458394
 20
6.73902574454597
 30
0.0
 10
2.689554286187587
 20
6.738655706567219
 30
0.0
 10
2.681978872838283
 20
6.737428448627508
 30
0.0
 10
2.67234907887192
 20
6.734655459405635
 30
0.0
 10
2.660873516338517
 20
6.729143493879843
 30
0.0
 10
2.648950392432477
 20
6.719755782042017
 30
0.0
 10
2.639658932587738
 20
6.707841498086647
 30
0.0
 10
2.634040723515415
 20
6.696882254319545
 30
0.0
 10
2.632486561645391
 20
6.690067064487353
 30
0.0
 10
2.631967698457303
 20
6.687791785964593
 30
0.0
  0
LINE
  5
190
330
1F
100
AcDbEntity
  8
0
  6
HIDDEN
 62
     7
100
AcDbLine
 10
3.3516361034
 20
6.8172724145
 30
0.0
 11
3.3516361034
 21
6.5266818633
 31
0.0
  0
LINE
  5
191
330
1F
100
AcDbEntity
  8
0
  6
HIDDEN
 62
     7
100
AcDbLine
 10
3.3016361034
 20
6.8172724145
 30
0.0
 11
3.3016361034
 21
6.5266818633
 31
0.0
  0
SPLINE
  5
192
330
1F
100
AcDbEntity
  8
0
  6
HIDDEN
 62
     7
100
AcDbSpline
210
0.0
220
0.0
230
1.0
 70
     8
 71
     3
 72
    26
 73
    22
 74
     0
 42
0.00000001
 43
0.00000001
 40
0.0
 40
0.0
 40
0.0
 40
0.0
 40
0.0488932737639802
 40
0.0992980655616152
 40
0.1481687043297057
 40
0.1983152834970876
 40
0.2500601752185698
 40
0.3031102003634236
 40
0.3583921628518328
 40
0.4154621611914439
 40
0.4673702352181485
 40
0.5211829211691718
 40
0.5675007949590586
 40
0.615113302198554
 40
0.7109974501948318
 40
0.7641018341999315
 40
0.8186188025103059
 40
0.8737189694558942
 40
0.93069162184545
 40
0.9813811255963217
 40
1.0
 40
1.0
 40
1.0
 40
1.0
 10
3.889628229368804
 20
6.809772414506978
 30
0.0
 10
3.889786112288061
 20
6.809695377393923
 30
0.0
 10
3.890106759020434
 20
6.809538921593076
 30
0.0
 10
3.89267016529696
 20
6.808310552122559
 30
0.0
 10
3.89667632006736
 20
6.806468811305016
 30
0.0
 10
3.902160762439162
 20
6.804099864695091
 30
0.0
 10
3.909119436231797
 20
6.801365985531621
 30
0.0
 10
3.917563431920507
 20
6.798481791529091
 30
0.0
 10
3.927456463950885
 20
6.795748903688074
 30
0.0
 10
3.93828091723466
 20
6.793637531494716
 30
0.0
 10
3.949662619805589
 20
6.792447858067014
 30
0.0
 10
3.96054949008349
 20
6.792332975126601
 30
0.0
 10
3.970972279200297
 20
6.793156571679661
 30
0.0
 10
3.983812403698836
 20
6.795194807195055
 30
0.0
 10
3.995850963799589
 20
6.798500180183057
 30
0.0
 10
4.006164334407257
 20
6.802180350406573
 30
0.0
 10
4.013065488891963
 20
6.804983254954389
 30
0.0
 10
4.018562251830858
 20
6.807429402421908
 30
0.0
 10
4.021993289662225
 20
6.809047537965543
 30
0.0
 10
4.023544879959863
 20
6.809800678214364
 30
0.0
 10
4.023329889196493
 20
6.809696465338104
 30
0.0
 10
4.023272134475812
 20
6.809668469783945
 30
0.0
  0
SPLINE
  5
193
330
1F
100
AcDbEntity
  8
0
  6
HIDDEN
 62
     7
100
AcDbSpline
210
0.0
220
0.0
230
1.0
 70
     8
 71
     3
 72
    26
 73
    22
 74
     0
 42
0.00000001
 43
0.00000001
 40
0.0
 40
0.0
 40
0.0
 40
0.0
 40
0.0488932737639801
 40
0.0992980655616151
 40
0.1481687043297055
 40
0.1983152834970875
 40
0.25006017521857
 40
0.3031102003634236
 40
0.3583921628518331
 40
0.4154621611914432
 40
0.4673702352181479
 40
0.5211829211691711
 40
0.5675007949590586
 40
0.6151133021985543
 40
0.7109974501948315
 40
0.7641018341999316
 40
0.8186188025103063
 40
0.8737189694558943
 40
0.9306916218454501
 40
0.9813811255963217
 40
1.0
 40
1.0
 40
1.0
 40
1.0
 10
2.629785709683765
 20
6.809772414506978
 30
0.0
 10
2.629943592603022
 20
6.809695377393923
 30
0.0
 10
2.630264239335395
 20
6.809538921593076
 30
0.0
 10
2.63282764561192
 20
6.808310552122559
 30
0.0
 10
2.63683380038232
 20
6.806468811305016
 30
0.0
 10
2.642318242754123
 20
6.804099864695091
 30
0.0
 10
2.649276916546758
 20
6.801365985531621
 30
0.0
 10
2.657720912235467
 20
6.798481791529091
 30
0.0
 10
2.667613944265845
 20
6.795748903688074
 30
0.0
 10
2.678438397549621
 20
6.793637531494716
 30
0.0
 10
2.689820100120548
 20
6.792447858067014
 30
0.0
 10
2.700706970398451
 20
6.792332975126601
 30
0.0
 10
2.711129759515257
 20
6.793156571679661
 30
0.0
 10
2.723969884013797
 20
6.795194807195055
 30
0.0
 10
2.73600844411455
 20
6.798500180183057
 30
0.0
 10
2.746321814722217
 20
6.802180350406573
 30
0.0
 10
2.753222969206923
 20
6.804983254954389
 30
0.0
 10
2.758719732145817
 20
6.807429402421908
 30
0.0
 10
2.762150769977186
 20
6.809047537965543
 30
0.0
 10
2.763702360274823
 20
6.809800678214364
 30
0.0
 10
2.763487369511453
 20
6.809696465338104
 30
0.0
 10
2.763429614790773
 20
6.809668469783945
 30
0.0
  0
LINE
  5
194
330
1F
100
AcDbEntity
  8
0
  6
HIDDEN
 62
     7
100
AcDbLine
 10
4.0234864971
 20
7.2870558791
 30
0.0
 11
3.8896282294
 21
7.2870558791
 31
0.0
  0
LINE
  5
195
330
1F
100
AcDbEntity
  8
0
  6
HIDDEN
 62
     7
100
AcDbLine
 10
3.8896282294
 20
6.8147724145
 30
0.0
 11
4.0234864971
 21
6.8147724145
 31
0.0
  0
LINE
  5
196
330
1F
100
AcDbEntity
  8
0
  6
HIDDEN
 62
     7
100
AcDbLine
 10
4.0184864971
 20
6.8097724145
 30
0.0
 11
3.8946282294
 21
6.8097724145
 31
0.0
  0
LINE
  5
197
330
1F
100
AcDbEntity
  8
0
  6
HIDDEN
 62
     7
100
AcDbLine
 10
3.9565573632
 20
7.2670558791
 30
0.0
 11
3.9565573632
 21
7.2920558791
 31
0.0
  0
LINE
  5
198
330
1F
100
AcDbEntity
  8
0
  6
HIDDEN
 62
     7
100
AcDbLine
 10
3.9139644687
 20
7.2670558791
 30
0.0
 11
3.9565573632
 21
7.2670558791
 31
0.0
  0
LINE
  5
199
330
1F
100
AcDbEntity
  8
0
  6
HIDDEN
 62
     7
100
AcDbLine
 10
3.9565573632
 20
7.2670558791
 30
0.0
 11
3.9991502577
 21
7.2670558791
 31
0.0
  0
LINE
  5
19A
330
1F
100
AcDbEntity
  8
0
  6
HIDDEN
 62
     7
100
AcDbLine
 10
3.9139644687
 20
7.2670558791
 30
0.0
 11
3.9139644687
 21
7.2920558791
 31
0.0
  0
LINE
  5
19B
330
1F
100
AcDbEntity
  8
0
  6
HIDDEN
 62
     7
100
AcDbLine
 10
3.9991502577
 20
7.2670558791
 30
0.0
 11
3.9991502577
 21
7.2920558791
 31
0.0
  0
LINE
  5
19C
330
1F
100
AcDbEntity
  8
0
  6
HIDDEN
 62
     7
100
AcDbLine
 10
2.6297857097
 20
7.2870558791
 30
0.0
 11
2.7636439774
 21
7.2870558791
 31
0.0
  0
LINE
  5
19D
330
1F
100
AcDbEntity
  8
0
  6
HIDDEN
 62
     7
100
AcDbLine
 10
2.7636439774
 20
6.8147724145
 30
0.0
 11
2.6297857097
 21
6.8147724145
 31
0.0
  0
LINE
  5
19E
330
1F
100
AcDbEntity
  8
0
  6
HIDDEN
 62
     7
100
AcDbLine
 10
2.6347857097
 20
6.8097724145
 30
0.0
 11
2.7586439774
 21
6.8097724145
 31
0.0
  0
LINE
  5
19F
330
1F
100
AcDbEntity
  8
0
  6
HIDDEN
 62
     7
100
AcDbLine
 10
2.6967148435
 20
7.2670558791
 30
0.0
 11
2.6967148435
 21
7.2920558791
 31
0.0
  0
LINE
  5
1A0
330
1F
100
AcDbEntity
  8
0
  6
HIDDEN
 62
     7
100
AcDbLine
 10
2.6967148435
 20
7.2670558791
 30
0.0
 11
2.654121949
 21
7.2670558791
 31
0.0
  0
LINE
  5
1A1
330
1F
100
AcDbEntity
  8
0
  6
HIDDEN
 62
     7
100
AcDbLine
 10
2.7393077381
 20
7.2670558791
 30
0.0
 11
2.6967148435
 21
7.2670558791
 31
0.0
  0
LINE
  5
1A2
330
1F
100
AcDbEntity
  8
0
  6
HIDDEN
 62
     7
100
AcDbLine
 10
2.7393077381
 20
7.2670558791
 30
0.0
 11
2.7393077381
 21
7.2920558791
 31
0.0
  0
LINE
  5
1A3
330
1F
100
AcDbEntity
  8
0
  6
HIDDEN
 62
     7
100
AcDbLine
 10
2.654121949
 20
7.2670558791
 30
0.0
 11
2.654121949
 21
7.2920558791
 31
0.0
  0
LINE
  5
1A4
330
1F
100
AcDbEntity
  8
0
  6
HIDDEN
 62
     7
100
AcDbLine
 10
4.212462875
 20
6.8172724145
 30
0.0
 11
4.204962875
 21
6.8097724145
 31
0.0
  0
LINE
  5
1A5
330
1F
100
AcDbEntity
  8
0
  6
HIDDEN
 62
     7
100
AcDbLine
 10
4.204962875
 20
6.5341818633
 30
0.0
 11
4.212462875
 21
6.5266818633
 31
0.0
  0
LINE
  5
1A6
330
1F
100
AcDbEntity
  8
0
  6
HIDDEN
 62
     7
100
AcDbLine
 10
3.3516361034
 20
6.8172724145
 30
0.0
 11
3.3016361034
 21
6.8172724145
 31
0.0
  0
LINE
  5
1A7
330
1F
100
AcDbEntity
  8
0
  6
HIDDEN
 62
     7
100
AcDbLine
 10
3.3016361034
 20
6.5266818633
 30
0.0
 11
3.3516361034
 21
6.5266818633
 31
0.0
  0
LINE
  5
1A8
330
1F
100
AcDbEntity
  8
0
  6
HIDDEN
 62
     7
100
AcDbLine
 10
2.4408093317
 20
6.5266818633
 30
0.0
 11
2.4483093317
 21
6.5341818633
 31
0.0
  0
LINE
  5
1A9
330
1F
100
AcDbEntity
  8
0
  6
HIDDEN
 62
     7
100
AcDbLine
 10
2.4483093317
 20
6.8097724145
 30
0.0
 11
2.4408093317
 21
6.8172724145
 31
0.0
  0
LINE
  5
1AA
330
1F
100
AcDbEntity
  8
0
  6
HIDDEN
 62
     7
100
AcDbLine
 10
3.8896282294
 20
6.8097724145
 30
0.0
 11
3.3516361034
 21
6.8097724145
 31
0.0
  0
LINE
  5
1AB
330
1F
100
AcDbEntity
  8
0
  6
HIDDEN
 62
     7
100
AcDbLine
 10
4.204962875
 20
6.8097724145
 30
0.0
 11
4.0232721345
 21
6.8097724145
 31
0.0
  0
LINE
  5
1AC
330
1F
100
AcDbEntity
  8
0
  6
HIDDEN
 62
     7
100
AcDbLine
 10
3.3516361034
 20
6.5341818633
 30
0.0
 11
4.204962875
 21
6.5341818633
 31
0.0
  0
LINE
  5
1AD
330
1F
100
AcDbEntity
  8
0
  6
HIDDEN
 62
     7
100
AcDbLine
 10
2.6297857097
 20
6.8097724145
 30
0.0
 11
2.4483093317
 21
6.8097724145
 31
0.0
  0
LINE
  5
1AE
330
1F
100
AcDbEntity
  8
0
  6
HIDDEN
 62
     7
100
AcDbLine
 10
3.3016361034
 20
6.8097724145
 30
0.0
 11
2.7634296148
 21
6.8097724145
 31
0.0
  0
LINE
  5
1AF
330
1F
100
AcDbEntity
  8
0
  6
HIDDEN
 62
     7
100
AcDbLine
 10
2.4483093317
 20
6.5341818633
 30
0.0
 11
3.3016361034
 21
6.5341818633
 31
0.0
  0
LINE
  5
1B0
330
1F
100
AcDbEntity
  8
0
  6
HIDDEN
 62
     7
100
AcDbLine
 10
2.7636439774
 20
6.8096685164
 30
0.0
 11
2.7636439774
 21
7.2920558791
 31
0.0
  0
LINE
  5
1B1
330
1F
100
AcDbEntity
  8
0
  6
HIDDEN
 62
     7
100
AcDbLine
 10
2.6297857097
 20
7.2920558791
 30
0.0
 11
2.6297857097
 21
6.8097724145
 31
0.0
  0
LINE
  5
1B2
330
1F
100
AcDbEntity
  8
0
  6
HIDDEN
 62
     7
100
AcDbLine
 10
4.0234864971
 20
6.8096685164
 30
0.0
 11
4.0234864971
 21
7.2920558791
 31
0.0
  0
LINE
  5
1B3
330
1F
100
AcDbEntity
  8
0
  6
HIDDEN
 62
     7
100
AcDbLine
 10
3.8896282294
 20
7.2920558791
 30
0.0
 11
3.8896282294
 21
6.8097724145
 31
0.0
  0
LINE
  5
1B4
330
1F
100
AcDbEntity
  8
0
  6
HIDDEN
 62
     7
100
AcDbLine
 10
4.0234864971
 20
7.2870558791
 30
0.0
 11
4.0184864971
 21
7.2920558791
 31
0.0
  0
LINE
  5
1B5
330
1F
100
AcDbEntity
  8
0
  6
HIDDEN
 62
     7
100
AcDbLine
 10
3.8946282294
 20
7.2920558791
 30
0.0
 11
3.8896282294
 21
7.2870558791
 31
0.0
  0
LINE
  5
1B6
330
1F
100
AcDbEntity
  8
0
  6
HIDDEN
 62
     7
100
AcDbLine
 10
4.0234864971
 20
6.8147724145
 30
0.0
 11
4.0234864971
 21
7.2870558791
 31
0.0
  0
LINE
  5
1B7
330
1F
100
AcDbEntity
  8
0
  6
HIDDEN
 62
     7
100
AcDbLine
 10
3.8896282294
 20
7.2870558791
 30
0.0
 11
3.8896282294
 21
6.8147724145
 31
0.0
  0
LINE
  5
1B8
330
1F
100
AcDbEntity
  8
0
  6
HIDDEN
 62
     7
100
AcDbLine
 10
3.8896282294
 20
6.8147724145
 30
0.0
 11
3.8946282294
 21
6.8097724145
 31
0.0
  0
LINE
  5
1B9
330
1F
100
AcDbEntity
  8
0
  6
HIDDEN
 62
     7
100
AcDbLine
 10
4.0184864971
 20
6.8097724145
 30
0.0
 11
4.0234864971
 21
6.8147724145
 31
0.0
  0
LINE
  5
1BA
330
1F
100
AcDbEntity
  8
0
  6
HIDDEN
 62
     7
100
AcDbLine
 10
2.7636439774
 20
7.2870558791
 30
0.0
 11
2.7586439774
 21
7.2920558791
 31
0.0
  0
LINE
  5
1BB
330
1F
100
AcDbEntity
  8
0
  6
HIDDEN
 62
     7
100
AcDbLine
 10
2.6347857097
 20
7.2920558791
 30
0.0
 11
2.6297857097
 21
7.2870558791
 31
0.0
  0
LINE
  5
1BC
330
1F
100
AcDbEntity
  8
0
  6
HIDDEN
 62
     7
100
AcDbLine
 10
2.7636439774
 20
6.8147724145
 30
0.0
 11
2.7636439774
 21
7.2870558791
 31
0.0
  0
LINE
  5
1BD
330
1F
100
AcDbEntity
  8
0
  6
HIDDEN
 62
     7
100
AcDbLine
 10
2.6297857097
 20
7.2870558791
 30
0.0
 11
2.6297857097
 21
6.8147724145
 31
0.0
  0
LINE
  5
1BE
330
1F
100
AcDbEntity
  8
0
  6
HIDDEN
 62
     7
100
AcDbLine
 10
2.6297857097
 20
6.8147724145
 30
0.0
 11
2.6347857097
 21
6.8097724145
 31
0.0
  0
LINE
  5
1BF
330
1F
100
AcDbEntity
  8
0
  6
HIDDEN
 62
     7
100
AcDbLine
 10
2.7586439774
 20
6.8097724145
 30
0.0
 11
2.7636439774
 21
6.8147724145
 31
0.0
  0
LINE
  5
1C0
330
1F
100
AcDbEntity
  8
0
  6
CONTINUOUS
 62
     7
100
AcDbLine
 10
8.7946824677
 20
5.9868282945
 30
0.0
 11
8.7999849066
 21
5.9898903225
 31
0.0
  0
LINE
  5
1C1
330
1F
100
AcDbEntity
  8
0
  6
CONTINUOUS
 62
     7
100
AcDbLine
 10
9.2330730874
 20
6.7401023427
 30
0.0
 11
9.2330730874
 21
6.7462254035
 31
0.0
  0
LINE
  5
1C2
330
1F
100
AcDbEntity
  8
0
  6
CONTINUOUS
 62
     7
100
AcDbLine
 10
7.2424553987
 20
6.6731613605
 30
0.0
 11
8.4845970313
 21
5.9560882593
 31
0.0
  0
LINE
  5
1C3
330
1F
100
AcDbEntity
  8
0
  6
CONTINUOUS
 62
     7
100
AcDbLine
 10
9.1046253793
 20
7.0301252343
 30
0.0
 11
7.8624837467
 21
7.7471983355
 31
0.0
  0
LINE
  5
1C4
330
1F
100
AcDbEntity
  8
0
  6
CONTINUOUS
 62
     7
100
AcDbLine
 10
7.5523983103
 20
7.7164583004
 30
0.0
 11
7.5470958714
 21
7.7133962724
 31
0.0
  0
LINE
  5
1C5
330
1F
100
AcDbEntity
  8
0
  6
CONTINUOUS
 62
     7
100
AcDbLine
 10
7.1140076906
 20
6.9631842522
 30
0.0
 11
7.1140076906
 21
6.9570611913
 31
0.0
  0
LINE
  5
1C6
330
1F
100
AcDbEntity
  8
0
  6
CONTINUOUS
 62
     7
100
AcDbLine
 10
7.7754525289
 20
7.6383329083
 30
0.0
 11
7.7719164205
 21
7.6403749238
 31
0.0
  0
LINE
  5
1C7
330
1F
100
AcDbEntity
  8
0
  6
CONTINUOUS
 62
     7
100
AcDbLine
 10
7.6843211686
 20
7.6403749238
 30
0.0
 11
7.6807850602
 21
7.6383329083
 31
0.0
  0
LINE
  5
1C8
330
1F
100
AcDbEntity
  8
0
  6
CONTINUOUS
 62
     7
100
AcDbLine
 10
7.7950479284
 20
7.6058302956
 30
0.0
 11
7.7950479284
 21
7.6110166045
 31
0.0
  0
LINE
  5
1C9
330
1F
100
AcDbEntity
  8
0
  6
CONTINUOUS
 62
     7
100
AcDbLine
 10
7.6611896607
 20
7.6110166045
 30
0.0
 11
7.6611896607
 21
7.6054777843
 31
0.0
  0
LINE
  5
1CA
330
1F
100
AcDbEntity
  8
0
  6
CONTINUOUS
 62
     7
100
AcDbLine
 10
8.6662957178
 20
7.124060082
 30
0.0
 11
8.6627596094
 21
7.1261020975
 31
0.0
  0
LINE
  5
1CB
330
1F
100
AcDbEntity
  8
0
  6
CONTINUOUS
 62
     7
100
AcDbLine
 10
8.5751643575
 20
7.1261020975
 30
0.0
 11
8.5716282491
 21
7.124060082
 31
0.0
  0
LINE
  5
1CC
330
1F
100
AcDbEntity
  8
0
  6
CONTINUOUS
 62
     7
100
AcDbLine
 10
8.6858911173
 20
7.0915574692
 30
0.0
 11
8.6858911173
 21
7.0967437781
 31
0.0
  0
LINE
  5
1CD
330
1F
100
AcDbEntity
  8
0
  6
CONTINUOUS
 62
     7
100
AcDbLine
 10
8.5520328496
 20
7.0967437781
 30
0.0
 11
8.5520328496
 21
7.091204958
 31
0.0
  0
POLYLINE
  5
1CE
330
1F
100
AcDbEntity
  8
0
  6
CONTINUOUS
 62
     7
100
AcDb2dPolyline
 66
     1
 10
0.0
 20
0.0
 30
0.0
  0
VERTEX
  5
224
330
1CE
100
AcDbEntity
  8
0
  6
CONTINUOUS
 62
     7
100
AcDbVertex
100
AcDb2dVertex
 10
9.2330730874
 20
6.7401023427
 30
0.0
  0
VERTEX
  5
225
330
1CE
100
AcDbEntity
  8
0
  6
CONTINUOUS
 62
     7
100
AcDbVertex
100
AcDb2dVertex
 10
9.232469442
 20
6.766151859
 30
0.0
  0
VERTEX
  5
226
330
1CE
100
AcDbEntity
  8
0
  6
CONTINUOUS
 62
     7
100
AcDbVertex
100
AcDb2dVertex
 10
9.2306601885
 20
6.7914318166
 30
0.0
  0
VERTEX
  5
227
330
1CE
100
AcDbEntity
  8
0
  6
CONTINUOUS
 62
     7
100
AcDbVertex
100
AcDb2dVertex
 10
9.2276503695
 20
6.8158717557
 30
0.0
  0
VERTEX
  5
228
330
1CE
100
AcDbEntity
  8
0
  6
CONTINUOUS
 62
     7
100
AcDbVertex
100
AcDb2dVertex
 10
9.223448374
 20
6.8394035578
 30
0.0
  0
VERTEX
  5
229
330
1CE
100
AcDbEntity
  8
0
  6
CONTINUOUS
 62
     7
100
AcDbVertex
100
AcDb2dVertex
 10
9.2180659136
 20
6.8619616355
 30
0.0
  0
VERTEX
  5
22A
330
1CE
100
AcDbEntity
  8
0
  6
CONTINUOUS
 62
     7
100
AcDbVertex
100
AcDb2dVertex
 10
9.2115179902
 20
6.8834831154
 30
0.0
  0
VERTEX
  5
22B
330
1CE
100
AcDbEntity
  8
0
  6
CONTINUOUS
 62
     7
100
AcDbVertex
100
AcDb2dVertex
 10
9.2038228541
 20
6.9039080134
 30
0.0
  0
VERTEX
  5
22C
330
1CE
100
AcDbEntity
  8
0
  6
CONTINUOUS
 62
     7
100
AcDbVertex
100
AcDb2dVertex
 10
9.1950019529
 20
6.9231794015
 30
0.0
  0
VERTEX
  5
22D
330
1CE
100
AcDbEntity
  8
0
  6
CONTINUOUS
 62
     7
100
AcDbVertex
100
AcDb2dVertex
 10
9.1850798722
 20
6.941243567
 30
0.0
  0
VERTEX
  5
22E
330
1CE
100
AcDbEntity
  8
0
  6
CONTINUOUS
 62
     7
100
AcDbVertex
100
AcDb2dVertex
 10
9.1740842666
 20
6.9580501617
 30
0.0
  0
VERTEX
  5
22F
330
1CE
100
AcDbEntity
  8
0
  6
CONTINUOUS
 62
     7
100
AcDbVertex
100
AcDb2dVertex
 10
9.1620457827
 20
6.9735523427
 30
0.0
  0
VERTEX
  5
230
330
1CE
100
AcDbEntity
  8
0
  6
CONTINUOUS
 62
     7
100
AcDbVertex
100
AcDb2dVertex
 10
9.148997974
 20
6.9877069026
 30
0.0
  0
VERTEX
  5
231
330
1CE
100
AcDbEntity
  8
0
  6
CONTINUOUS
 62
     7
100
AcDbVertex
100
AcDb2dVertex
 10
9.134977207
 20
7.0004743902
 30
0.0
  0
VERTEX
  5
232
330
1CE
100
AcDbEntity
  8
0
  6
CONTINUOUS
 62
     7
100
AcDbVertex
100
AcDb2dVertex
 10
9.1200225603
 20
7.0118192201
 30
0.0
  0
VERTEX
  5
233
330
1CE
100
AcDbEntity
  8
0
  6
CONTINUOUS
 62
     7
100
AcDbVertex
100
AcDb2dVertex
 10
9.1041757149
 20
7.0217097722
 30
0.0
  0
VERTEX
  5
234
330
1CE
100
AcDbEntity
  8
0
  6
CONTINUOUS
 62
     7
100
AcDbVertex
100
AcDb2dVertex
 10
9.087480839
 20
7.0301184799
 30
0.0
  0
VERTEX
  5
235
330
1CE
100
AcDbEntity
  8
0
  6
CONTINUOUS
 62
     7
100
AcDbVertex
100
AcDb2dVertex
 10
9.0699844641
 20
7.0370219065
 30
0.0
  0
VERTEX
  5
236
330
1CE
100
AcDbEntity
  8
0
  6
CONTINUOUS
 62
     7
100
AcDbVertex
100
AcDb2dVertex
 10
9.0517353559
 20
7.042400811
 30
0.0
  0
VERTEX
  5
237
330
1CE
100
AcDbEntity
  8
0
  6
CONTINUOUS
 62
     7
100
AcDbVertex
100
AcDb2dVertex
 10
9.0327843777
 20
7.0462402014
 30
0.0
  0
VERTEX
  5
238
330
1CE
100
AcDbEntity
  8
0
  6
CONTINUOUS
 62
     7
100
AcDbVertex
100
AcDb2dVertex
 10
9.0131843495
 20
7.0485293766
 30
0.0
  0
VERTEX
  5
239
330
1CE
100
AcDbEntity
  8
0
  6
CONTINUOUS
 62
     7
100
AcDbVertex
100
AcDb2dVertex
 10
8.9929899
 20
7.0492619563
 30
0.0
  0
VERTEX
  5
23A
330
1CE
100
AcDbEntity
  8
0
  6
CONTINUOUS
 62
     7
100
AcDbVertex
100
AcDb2dVertex
 10
8.9722573147
 20
7.0484358986
 30
0.0
  0
VERTEX
  5
23B
330
1CE
100
AcDbEntity
  8
0
  6
CONTINUOUS
 62
     7
100
AcDbVertex
100
AcDb2dVertex
 10
8.951044379
 20
7.046053506
 30
0.0
  0
VERTEX
  5
23C
330
1CE
100
AcDbEntity
  8
0
  6
CONTINUOUS
 62
     7
100
AcDbVertex
100
AcDb2dVertex
 10
8.9294102174
 20
7.0421214185
 30
0.0
  0
VERTEX
  5
23D
330
1CE
100
AcDbEntity
  8
0
  6
CONTINUOUS
 62
     7
100
AcDbVertex
100
AcDb2dVertex
 10
8.9074151279
 20
7.0366505956
 30
0.0
  0
VERTEX
  5
23E
330
1CE
100
AcDbEntity
  8
0
  6
CONTINUOUS
 62
     7
100
AcDbVertex
100
AcDb2dVertex
 10
8.885120415
 20
7.0296562855
 30
0.0
  0
VERTEX
  5
23F
330
1CE
100
AcDbEntity
  8
0
  6
CONTINUOUS
 62
     7
100
AcDbVertex
100
AcDb2dVertex
 10
8.8625882179
 20
7.0211579825
 30
0.0
  0
VERTEX
  5
240
330
1CE
100
AcDbEntity
  8
0
  6
CONTINUOUS
 62
     7
100
AcDbVertex
100
AcDb2dVertex
 10
8.8398813379
 20
7.0111793731
 30
0.0
  0
VERTEX
  5
241
330
1CE
100
AcDbEntity
  8
0
  6
CONTINUOUS
 62
     7
100
AcDbVertex
100
AcDb2dVertex
 10
8.8170630632
 20
6.9997482692
 30
0.0
  0
VERTEX
  5
242
330
1CE
100
AcDbEntity
  8
0
  6
CONTINUOUS
 62
     7
100
AcDbVertex
100
AcDb2dVertex
 10
8.7941969923
 20
6.9868965315
 30
0.0
  0
VERTEX
  5
243
330
1CE
100
AcDbEntity
  8
0
  6
CONTINUOUS
 62
     7
100
AcDbVertex
100
AcDb2dVertex
 10
8.7713468572
 20
6.9726599802
 30
0.0
  0
VERTEX
  5
244
330
1CE
100
AcDbEntity
  8
0
  6
CONTINUOUS
 62
     7
100
AcDbVertex
100
AcDb2dVertex
 10
8.7485763453
 20
6.9570782948
 30
0.0
  0
VERTEX
  5
245
330
1CE
100
AcDbEntity
  8
0
  6
CONTINUOUS
 62
     7
100
AcDbVertex
100
AcDb2dVertex
 10
8.7259489221
 20
6.9401949046
 30
0.0
  0
VERTEX
  5
246
330
1CE
100
AcDbEntity
  8
0
  6
CONTINUOUS
 62
     7
100
AcDbVertex
100
AcDb2dVertex
 10
8.7035276542
 20
6.9220568664
 30
0.0
  0
VERTEX
  5
247
330
1CE
100
AcDbEntity
  8
0
  6
CONTINUOUS
 62
     7
100
AcDbVertex
100
AcDb2dVertex
 10
8.6813750337
 20
6.9027147343
 30
0.0
  0
VERTEX
  5
248
330
1CE
100
AcDbEntity
  8
0
  6
CONTINUOUS
 62
     7
100
AcDbVertex
100
AcDb2dVertex
 10
8.659552804
 20
6.8822224182
 30
0.0
  0
VERTEX
  5
249
330
1CE
100
AcDbEntity
  8
0
  6
CONTINUOUS
 62
     7
100
AcDbVertex
100
AcDb2dVertex
 10
8.6381217875
 20
6.8606370339
 30
0.0
  0
VERTEX
  5
24A
330
1CE
100
AcDbEntity
  8
0
  6
CONTINUOUS
 62
     7
100
AcDbVertex
100
AcDb2dVertex
 10
8.6171417164
 20
6.8380187437
 30
0.0
  0
VERTEX
  5
24B
330
1CE
100
AcDbEntity
  8
0
  6
CONTINUOUS
 62
     7
100
AcDbVertex
100
AcDb2dVertex
 10
8.5966710658
 20
6.8144305889
 30
0.0
  0
VERTEX
  5
24C
330
1CE
100
AcDbEntity
  8
0
  6
CONTINUOUS
 62
     7
100
AcDbVertex
100
AcDb2dVertex
 10
8.5767668912
 20
6.7899383139
 30
0.0
  0
VERTEX
  5
24D
330
1CE
100
AcDbEntity
  8
0
  6
CONTINUOUS
 62
     7
100
AcDbVertex
100
AcDb2dVertex
 10
8.5574846689
 20
6.7646101831
 30
0.0
  0
VERTEX
  5
24E
330
1CE
100
AcDbEntity
  8
0
  6
CONTINUOUS
 62
     7
100
AcDbVertex
100
AcDb2dVertex
 10
8.5388781421
 20
6.7385167904
 30
0.0
  0
VERTEX
  5
24F
330
1CE
100
AcDbEntity
  8
0
  6
CONTINUOUS
 62
     7
100
AcDbVertex
100
AcDb2dVertex
 10
8.5209991705
 20
6.7117308629
 30
0.0
  0
VERTEX
  5
250
330
1CE
100
AcDbEntity
  8
0
  6
CONTINUOUS
 62
     7
100
AcDbVertex
100
AcDb2dVertex
 10
8.5038975859
 20
6.6843270578
 30
0.0
  0
VERTEX
  5
251
330
1CE
100
AcDbEntity
  8
0
  6
CONTINUOUS
 62
     7
100
AcDbVertex
100
AcDb2dVertex
 10
8.4876210536
 20
6.6563817543
 30
0.0
  0
VERTEX
  5
252
330
1CE
100
AcDbEntity
  8
0
  6
CONTINUOUS
 62
     7
100
AcDbVertex
100
AcDb2dVertex
 10
8.4722149392
 20
6.627972841
 30
0.0
  0
VERTEX
  5
253
330
1CE
100
AcDbEntity
  8
0
  6
CONTINUOUS
 62
     7
100
AcDbVertex
100
AcDb2dVertex
 10
8.4577221822
 20
6.5991794987
 30
0.0
  0
VERTEX
  5
254
330
1CE
100
AcDbEntity
  8
0
  6
CONTINUOUS
 62
     7
100
AcDbVertex
100
AcDb2dVertex
 10
8.4441831766
 20
6.5700819796
 30
0.0
  0
VERTEX
  5
255
330
1CE
100
AcDbEntity
  8
0
  6
CONTINUOUS
 62
     7
100
AcDbVertex
100
AcDb2dVertex
 10
8.431635658
 20
6.5407613837
 30
0.0
  0
VERTEX
  5
256
330
1CE
100
AcDbEntity
  8
0
  6
CONTINUOUS
 62
     7
100
AcDbVertex
100
AcDb2dVertex
 10
8.4201145986
 20
6.5112994327
 30
0.0
  0
VERTEX
  5
257
330
1CE
100
AcDbEntity
  8
0
  6
CONTINUOUS
 62
     7
100
AcDbVertex
100
AcDb2dVertex
 10
8.4096521097
 20
6.4817782424
 30
0.0
  0
VERTEX
  5
258
330
1CE
100
AcDbEntity
  8
0
  6
CONTINUOUS
 62
     7
100
AcDbVertex
100
AcDb2dVertex
 10
8.4002773521
 20
6.4522800936
 30
0.0
  0
VERTEX
  5
259
330
1CE
100
AcDbEntity
  8
0
  6
CONTINUOUS
 62
     7
100
AcDbVertex
100
AcDb2dVertex
 10
8.3920164549
 20
6.4228872031
 30
0.0
  0
VERTEX
  5
25A
330
1CE
100
AcDbEntity
  8
0
  6
CONTINUOUS
 62
     7
100
AcDbVertex
100
AcDb2dVertex
 10
8.3848924427
 20
6.3936814939
 30
0.0
  0
VERTEX
  5
25B
330
1CE
100
AcDbEntity
  8
0
  6
CONTINUOUS
 62
     7
100
AcDbVertex
100
AcDb2dVertex
 10
8.3789251715
 20
6.3647443677
 30
0.0
  0
VERTEX
  5
25C
330
1CE
100
AcDbEntity
  8
0
  6
CONTINUOUS
 62
     7
100
AcDbVertex
100
AcDb2dVertex
 10
8.374131273
 20
6.3361564775
 30
0.0
  0
VERTEX
  5
25D
330
1CE
100
AcDbEntity
  8
0
  6
CONTINUOUS
 62
     7
100
AcDbVertex
100
AcDb2dVertex
 10
8.3705241088
 20
6.3079975028
 30
0.0
  0
VERTEX
  5
25E
330
1CE
100
AcDbEntity
  8
0
  6
CONTINUOUS
 62
     7
100
AcDbVertex
100
AcDb2dVertex
 10
8.3681137326
 20
6.2803459277
 30
0.0
  0
VERTEX
  5
25F
330
1CE
100
AcDbEntity
  8
0
  6
CONTINUOUS
 62
     7
100
AcDbVertex
100
AcDb2dVertex
 10
8.3669068626
 20
6.2532788221
 30
0.0
  0
VERTEX
  5
260
330
1CE
100
AcDbEntity
  8
0
  6
CONTINUOUS
 62
     7
100
AcDbVertex
100
AcDb2dVertex
 10
8.3669068626
 20
6.226871627
 30
0.0
  0
VERTEX
  5
261
330
1CE
100
AcDbEntity
  8
0
  6
CONTINUOUS
 62
     7
100
AcDbVertex
100
AcDb2dVertex
 10
8.3681137326
 20
6.2011979438
 30
0.0
  0
VERTEX
  5
262
330
1CE
100
AcDbEntity
  8
0
  6
CONTINUOUS
 62
     7
100
AcDbVertex
100
AcDb2dVertex
 10
8.3705241088
 20
6.1763293298
 30
0.0
  0
VERTEX
  5
263
330
1CE
100
AcDbEntity
  8
0
  6
CONTINUOUS
 62
     7
100
AcDbVertex
100
AcDb2dVertex
 10
8.374131273
 20
6.1523350983
 30
0.0
  0
VERTEX
  5
264
330
1CE
100
AcDbEntity
  8
0
  6
CONTINUOUS
 62
     7
100
AcDbVertex
100
AcDb2dVertex
 10
8.3789251715
 20
6.1292821254
 30
0.0
  0
VERTEX
  5
265
330
1CE
100
AcDbEntity
  8
0
  6
CONTINUOUS
 62
     7
100
AcDbVertex
100
AcDb2dVertex
 10
8.3848924427
 20
6.1072346639
 30
0.0
  0
VERTEX
  5
266
330
1CE
100
AcDbEntity
  8
0
  6
CONTINUOUS
 62
     7
100
AcDbVertex
100
AcDb2dVertex
 10
8.3920164549
 20
6.0862541641
 30
0.0
  0
VERTEX
  5
267
330
1CE
100
AcDbEntity
  8
0
  6
CONTINUOUS
 62
     7
100
AcDbVertex
100
AcDb2dVertex
 10
8.4002773521
 20
6.0663991024
 30
0.0
  0
VERTEX
  5
268
330
1CE
100
AcDbEntity
  8
0
  6
CONTINUOUS
 62
     7
100
AcDbVertex
100
AcDb2dVertex
 10
8.4096521097
 20
6.0477248184
 30
0.0
  0
VERTEX
  5
269
330
1CE
100
AcDbEntity
  8
0
  6
CONTINUOUS
 62
     7
100
AcDbVertex
100
AcDb2dVertex
 10
8.4201145986
 20
6.0302833607
 30
0.0
  0
VERTEX
  5
26A
330
1CE
100
AcDbEntity
  8
0
  6
CONTINUOUS
 62
     7
100
AcDbVertex
100
AcDb2dVertex
 10
8.431635658
 20
6.0141233418
 30
0.0
  0
VERTEX
  5
26B
330
1CE
100
AcDbEntity
  8
0
  6
CONTINUOUS
 62
     7
100
AcDbVertex
100
AcDb2dVertex
 10
8.4441831766
 20
5.9992898024
 30
0.0
  0
VERTEX
  5
26C
330
1CE
100
AcDbEntity
  8
0
  6
CONTINUOUS
 62
     7
100
AcDbVertex
100
AcDb2dVertex
 10
8.4577221822
 20
5.9858240865
 30
0.0
  0
VERTEX
  5
26D
330
1CE
100
AcDbEntity
  8
0
  6
CONTINUOUS
 62
     7
100
AcDbVertex
100
AcDb2dVertex
 10
8.4722149392
 20
5.9737637252
 30
0.0
  0
VERTEX
  5
26E
330
1CE
100
AcDbEntity
  8
0
  6
CONTINUOUS
 62
     7
100
AcDbVertex
100
AcDb2dVertex
 10
8.4876210536
 20
5.9631423331
 30
0.0
  0
VERTEX
  5
26F
330
1CE
100
AcDbEntity
  8
0
  6
CONTINUOUS
 62
     7
100
AcDbVertex
100
AcDb2dVertex
 10
8.5038975859
 20
5.9539895138
 30
0.0
  0
VERTEX
  5
270
330
1CE
100
AcDbEntity
  8
0
  6
CONTINUOUS
 62
     7
100
AcDbVertex
100
AcDb2dVertex
 10
8.5209991705
 20
5.9463307779
 30
0.0
  0
VERTEX
  5
271
330
1CE
100
AcDbEntity
  8
0
  6
CONTINUOUS
 62
     7
100
AcDbVertex
100
AcDb2dVertex
 10
8.5388781421
 20
5.9401874716
 30
0.0
  0
VERTEX
  5
272
330
1CE
100
AcDbEntity
  8
0
  6
CONTINUOUS
 62
     7
100
AcDbVertex
100
AcDb2dVertex
 10
8.5574846689
 20
5.9355767176
 30
0.0
  0
VERTEX
  5
273
330
1CE
100
AcDbEntity
  8
0
  6
CONTINUOUS
 62
     7
100
AcDbVertex
100
AcDb2dVertex
 10
8.5767668912
 20
5.9325113666
 30
0.0
  0
VERTEX
  5
274
330
1CE
100
AcDbEntity
  8
0
  6
CONTINUOUS
 62
     7
100
AcDbVertex
100
AcDb2dVertex
 10
8.5966710658
 20
5.9309999625
 30
0.0
  0
VERTEX
  5
275
330
1CE
100
AcDbEntity
  8
0
  6
CONTINUOUS
 62
     7
100
AcDbVertex
100
AcDb2dVertex
 10
8.6171417164
 20
5.9310467178
 30
0.0
  0
VERTEX
  5
276
330
1CE
100
AcDbEntity
  8
0
  6
CONTINUOUS
 62
     7
100
AcDbVertex
100
AcDb2dVertex
 10
8.6381217875
 20
5.9326515022
 30
0.0
  0
VERTEX
  5
277
330
1CE
100
AcDbEntity
  8
0
  6
CONTINUOUS
 62
     7
100
AcDbVertex
100
AcDb2dVertex
 10
8.659552804
 20
5.9358098428
 30
0.0
  0
VERTEX
  5
278
330
1CE
100
AcDbEntity
  8
0
  6
CONTINUOUS
 62
     7
100
AcDbVertex
100
AcDb2dVertex
 10
8.6813750337
 20
5.9405129368
 30
0.0
  0
VERTEX
  5
279
330
1CE
100
AcDbEntity
  8
0
  6
CONTINUOUS
 62
     7
100
AcDbVertex
100
AcDb2dVertex
 10
8.7035276542
 20
5.9467476758
 30
0.0
  0
VERTEX
  5
27A
330
1CE
100
AcDbEntity
  8
0
  6
CONTINUOUS
 62
     7
100
AcDbVertex
100
AcDb2dVertex
 10
8.7259489221
 20
5.9544966826
 30
0.0
  0
VERTEX
  5
27B
330
1CE
100
AcDbEntity
  8
0
  6
CONTINUOUS
 62
     7
100
AcDbVertex
100
AcDb2dVertex
 10
8.7485763453
 20
5.9637383591
 30
0.0
  0
VERTEX
  5
27C
330
1CE
100
AcDbEntity
  8
0
  6
CONTINUOUS
 62
     7
100
AcDbVertex
100
AcDb2dVertex
 10
8.7713468572
 20
5.9744469473
 30
0.0
  0
VERTEX
  5
27D
330
1CE
100
AcDbEntity
  8
0
  6
CONTINUOUS
 62
     7
100
AcDbVertex
100
AcDb2dVertex
 10
8.7941969923
 20
5.9865926003
 30
0.0
  0
VERTEX
  5
27E
330
1CE
100
AcDbEntity
  8
0
  6
CONTINUOUS
 62
     7
100
AcDbVertex
100
AcDb2dVertex
 10
8.8170630632
 20
6.000141466
 30
0.0
  0
VERTEX
  5
27F
330
1CE
100
AcDbEntity
  8
0
  6
CONTINUOUS
 62
     7
100
AcDbVertex
100
AcDb2dVertex
 10
8.8398813379
 20
6.0150557814
 30
0.0
  0
VERTEX
  5
280
330
1CE
100
AcDbEntity
  8
0
  6
CONTINUOUS
 62
     7
100
AcDbVertex
100
AcDb2dVertex
 10
8.8625882179
 20
6.0312939775
 30
0.0
  0
VERTEX
  5
281
330
1CE
100
AcDbEntity
  8
0
  6
CONTINUOUS
 62
     7
100
AcDbVertex
100
AcDb2dVertex
 10
8.885120415
 20
6.0488107956
 30
0.0
  0
VERTEX
  5
282
330
1CE
100
AcDbEntity
  8
0
  6
CONTINUOUS
 62
     7
100
AcDbVertex
100
AcDb2dVertex
 10
8.9074151279
 20
6.0675574132
 30
0.0
  0
VERTEX
  5
283
330
1CE
100
AcDbEntity
  8
0
  6
CONTINUOUS
 62
     7
100
AcDbVertex
100
AcDb2dVertex
 10
8.9294102174
 20
6.08748158
 30
0.0
  0
VERTEX
  5
284
330
1CE
100
AcDbEntity
  8
0
  6
CONTINUOUS
 62
     7
100
AcDbVertex
100
AcDb2dVertex
 10
8.951044379
 20
6.1085277639
 30
0.0
  0
VERTEX
  5
285
330
1CE
100
AcDbEntity
  8
0
  6
CONTINUOUS
 62
     7
100
AcDbVertex
100
AcDb2dVertex
 10
8.9722573147
 20
6.1306373054
 30
0.0
  0
VERTEX
  5
286
330
1CE
100
AcDbEntity
  8
0
  6
CONTINUOUS
 62
     7
100
AcDbVertex
100
AcDb2dVertex
 10
8.9929899
 20
6.1537485812
 30
0.0
  0
VERTEX
  5
287
330
1CE
100
AcDbEntity
  8
0
  6
CONTINUOUS
 62
     7
100
AcDbVertex
100
AcDb2dVertex
 10
9.0131843495
 20
6.177797176
 30
0.0
  0
VERTEX
  5
288
330
1CE
100
AcDbEntity
  8
0
  6
CONTINUOUS
 62
     7
100
AcDbVertex
100
AcDb2dVertex
 10
9.0327843777
 20
6.2027160621
 30
0.0
  0
VERTEX
  5
289
330
1CE
100
AcDbEntity
  8
0
  6
CONTINUOUS
 62
     7
100
AcDbVertex
100
AcDb2dVertex
 10
9.0517353559
 20
6.2284357861
 30
0.0
  0
VERTEX
  5
28A
330
1CE
100
AcDbEntity
  8
0
  6
CONTINUOUS
 62
     7
100
AcDbVertex
100
AcDb2dVertex
 10
9.0699844641
 20
6.2548846625
 30
0.0
  0
VERTEX
  5
28B
330
1CE
100
AcDbEntity
  8
0
  6
CONTINUOUS
 62
     7
100
AcDbVertex
100
AcDb2dVertex
 10
9.087480839
 20
6.2819889736
 30
0.0
  0
VERTEX
  5
28C
330
1CE
100
AcDbEntity
  8
0
  6
CONTINUOUS
 62
     7
100
AcDbVertex
100
AcDb2dVertex
 10
9.1041757149
 20
6.3096731747
 30
0.0
  0
VERTEX
  5
28D
330
1CE
100
AcDbEntity
  8
0
  6
CONTINUOUS
 62
     7
100
AcDbVertex
100
AcDb2dVertex
 10
9.1200225603
 20
6.3378601051
 30
0.0
  0
VERTEX
  5
28E
330
1CE
100
AcDbEntity
  8
0
  6
CONTINUOUS
 62
     7
100
AcDbVertex
100
AcDb2dVertex
 10
9.134977207
 20
6.3664712026
 30
0.0
  0
VERTEX
  5
28F
330
1CE
100
AcDbEntity
  8
0
  6
CONTINUOUS
 62
     7
100
AcDbVertex
100
AcDb2dVertex
 10
9.148997974
 20
6.3954267231
 30
0.0
  0
VERTEX
  5
290
330
1CE
100
AcDbEntity
  8
0
  6
CONTINUOUS
 62
     7
100
AcDbVertex
100
AcDb2dVertex
 10
9.1620457827
 20
6.4246459623
 30
0.0
  0
VERTEX
  5
291
330
1CE
100
AcDbEntity
  8
0
  6
CONTINUOUS
 62
     7
100
AcDbVertex
100
AcDb2dVertex
 10
9.1740842666
 20
6.4540474809
 30
0.0
  0
VERTEX
  5
292
330
1CE
100
AcDbEntity
  8
0
  6
CONTINUOUS
 62
     7
100
AcDbVertex
100
AcDb2dVertex
 10
9.1850798722
 20
6.4835493317
 30
0.0
  0
VERTEX
  5
293
330
1CE
100
AcDbEntity
  8
0
  6
CONTINUOUS
 62
     7
100
AcDbVertex
100
AcDb2dVertex
 10
9.1950019529
 20
6.5130692877
 30
0.0
  0
VERTEX
  5
294
330
1CE
100
AcDbEntity
  8
0
  6
CONTINUOUS
 62
     7
100
AcDbVertex
100
AcDb2dVertex
 10
9.2038228541
 20
6.5425250715
 30
0.0
  0
VERTEX
  5
295
330
1CE
100
AcDbEntity
  8
0
  6
CONTINUOUS
 62
     7
100
AcDbVertex
100
AcDb2dVertex
 10
9.2115179902
 20
6.5718345845
 30
0.0
  0
VERTEX
  5
296
330
1CE
100
AcDbEntity
  8
0
  6
CONTINUOUS
 62
     7
100
AcDbVertex
100
AcDb2dVertex
 10
9.2180659136
 20
6.6009161359
 30
0.0
  0
VERTEX
  5
297
330
1CE
100
AcDbEntity
  8
0
  6
CONTINUOUS
 62
     7
100
AcDbVertex
100
AcDb2dVertex
 10
9.223448374
 20
6.6296886701
 30
0.0
  0
VERTEX
  5
298
330
1CE
100
AcDbEntity
  8
0
  6
CONTINUOUS
 62
     7
100
AcDbVertex
100
AcDb2dVertex
 10
9.2276503695
 20
6.658071993
 30
0.0
  0
VERTEX
  5
299
330
1CE
100
AcDbEntity
  8
0
  6
CONTINUOUS
 62
     7
100
AcDbVertex
100
AcDb2dVertex
 10
9.2306601885
 20
6.6859869951
 30
0.0
  0
VERTEX
  5
29A
330
1CE
100
AcDbEntity
  8
0
  6
CONTINUOUS
 62
     7
100
AcDbVertex
100
AcDb2dVertex
 10
9.232469442
 20
6.7133558723
 30
0.0
  0
VERTEX
  5
29B
330
1CE
100
AcDbEntity
  8
0
  6
CONTINUOUS
 62
     7
100
AcDbVertex
100
AcDb2dVertex
 10
9.2330730874
 20
6.7401023427
 30
0.0
  0
SEQEND
  5
29C
330
1CE
100
AcDbEntity
  8
0
  6
CONTINUOUS
 62
     7
  0
POLYLINE
  5
1CF
330
1F
100
AcDbEntity
  8
0
  6
CONTINUOUS
 62
     7
100
AcDb2dPolyline
 66
     1
 10
0.0
 20
0.0
 30
0.0
  0
VERTEX
  5
29D
330
1CF
100
AcDbEntity
  8
0
  6
CONTINUOUS
 62
     7
100
AcDbVertex
100
AcDb2dVertex
 10
8.7946824677
 20
5.9868282945
 30
0.0
  0
VERTEX
  5
29E
330
1CF
100
AcDbEntity
  8
0
  6
CONTINUOUS
 62
     7
100
AcDbVertex
100
AcDb2dVertex
 10
8.7888236901
 20
5.9834901972
 30
0.0
  0
VERTEX
  5
29F
330
1CF
100
AcDbEntity
  8
0
  6
CONTINUOUS
 62
     7
100
AcDbVertex
100
AcDb2dVertex
 10
8.7656937934
 20
5.971195841
 30
0.0
  0
VERTEX
  5
2A0
330
1CF
100
AcDbEntity
  8
0
  6
CONTINUOUS
 62
     7
100
AcDbVertex
100
AcDb2dVertex
 10
8.7426444947
 20
5.9603561442
 30
0.0
  0
VERTEX
  5
2A1
330
1CF
100
AcDbEntity
  8
0
  6
CONTINUOUS
 62
     7
100
AcDbVertex
100
AcDb2dVertex
 10
8.7197400366
 20
5.9510013188
 30
0.0
  0
VERTEX
  5
2A2
330
1CF
100
AcDbEntity
  8
0
  6
CONTINUOUS
 62
     7
100
AcDbVertex
100
AcDb2dVertex
 10
8.6970442578
 20
5.9431574384
 30
0.0
  0
VERTEX
  5
2A3
330
1CF
100
AcDbEntity
  8
0
  6
CONTINUOUS
 62
     7
100
AcDbVertex
100
AcDb2dVertex
 10
8.6746204157
 20
5.9368463655
 30
0.0
  0
VERTEX
  5
2A4
330
1CF
100
AcDbEntity
  8
0
  6
CONTINUOUS
 62
     7
100
AcDbVertex
100
AcDb2dVertex
 10
8.6525310093
 20
5.93208569
 30
0.0
  0
VERTEX
  5
2A5
330
1CF
100
AcDbEntity
  8
0
  6
CONTINUOUS
 62
     7
100
AcDbVertex
100
AcDb2dVertex
 10
8.630837606
 20
5.9288886807
 30
0.0
  0
VERTEX
  5
2A6
330
1CF
100
AcDbEntity
  8
0
  6
CONTINUOUS
 62
     7
100
AcDbVertex
100
AcDb2dVertex
 10
8.6096006691
 20
5.9272642485
 30
0.0
  0
VERTEX
  5
2A7
330
1CF
100
AcDbEntity
  8
0
  6
CONTINUOUS
 62
     7
100
AcDbVertex
100
AcDb2dVertex
 10
8.5888793897
 20
5.9272169208
 30
0.0
  0
VERTEX
  5
2A8
330
1CF
100
AcDbEntity
  8
0
  6
CONTINUOUS
 62
     7
100
AcDbVertex
100
AcDb2dVertex
 10
8.5687315218
 20
5.9287468295
 30
0.0
  0
VERTEX
  5
2A9
330
1CF
100
AcDbEntity
  8
0
  6
CONTINUOUS
 62
     7
100
AcDbVertex
100
AcDb2dVertex
 10
8.549213221
 20
5.9318497105
 30
0.0
  0
VERTEX
  5
2AA
330
1CF
100
AcDbEntity
  8
0
  6
CONTINUOUS
 62
     7
100
AcDbVertex
100
AcDb2dVertex
 10
8.5303788885
 20
5.9365169155
 30
0.0
  0
VERTEX
  5
2AB
330
1CF
100
AcDbEntity
  8
0
  6
CONTINUOUS
 62
     7
100
AcDbVertex
100
AcDb2dVertex
 10
8.5122810188
 20
5.9427354363
 30
0.0
  0
VERTEX
  5
2AC
330
1CF
100
AcDbEntity
  8
0
  6
CONTINUOUS
 62
     7
100
AcDbVertex
100
AcDb2dVertex
 10
8.494970054
 20
5.9504879406
 30
0.0
  0
VERTEX
  5
2AD
330
1CF
100
AcDbEntity
  8
0
  6
CONTINUOUS
 62
     7
100
AcDbVertex
100
AcDb2dVertex
 10
8.4784942428
 20
5.9597528208
 30
0.0
  0
VERTEX
  5
2AE
330
1CF
100
AcDbEntity
  8
0
  6
CONTINUOUS
 62
     7
100
AcDbVertex
100
AcDb2dVertex
 10
8.4628995063
 20
5.9705042541
 30
0.0
  0
VERTEX
  5
2AF
330
1CF
100
AcDbEntity
  8
0
  6
CONTINUOUS
 62
     7
100
AcDbVertex
100
AcDb2dVertex
 10
8.4482293098
 20
5.9827122742
 30
0.0
  0
VERTEX
  5
2B0
330
1CF
100
AcDbEntity
  8
0
  6
CONTINUOUS
 62
     7
100
AcDbVertex
100
AcDb2dVertex
 10
8.4345245418
 20
5.9963428553
 30
0.0
  0
VERTEX
  5
2B1
330
1CF
100
AcDbEntity
  8
0
  6
CONTINUOUS
 62
     7
100
AcDbVertex
100
AcDb2dVertex
 10
8.4218233999
 20
6.0113580065
 30
0.0
  0
VERTEX
  5
2B2
330
1CF
100
AcDbEntity
  8
0
  6
CONTINUOUS
 62
     7
100
AcDbVertex
100
AcDb2dVertex
 10
8.4101612844
 20
6.0277158778
 30
0.0
  0
VERTEX
  5
2B3
330
1CF
100
AcDbEntity
  8
0
  6
CONTINUOUS
 62
     7
100
AcDbVertex
100
AcDb2dVertex
 10
8.3995706999
 20
6.0453708769
 30
0.0
  0
VERTEX
  5
2B4
330
1CF
100
AcDbEntity
  8
0
  6
CONTINUOUS
 62
     7
100
AcDbVertex
100
AcDb2dVertex
 10
8.390081164
 20
6.0642737962
 30
0.0
  0
VERTEX
  5
2B5
330
1CF
100
AcDbEntity
  8
0
  6
CONTINUOUS
 62
     7
100
AcDbVertex
100
AcDb2dVertex
 10
8.381719126
 20
6.0843719499
 30
0.0
  0
VERTEX
  5
2B6
330
1CF
100
AcDbEntity
  8
0
  6
CONTINUOUS
 62
     7
100
AcDbVertex
100
AcDb2dVertex
 10
8.3745078922
 20
6.1056093207
 30
0.0
  0
VERTEX
  5
2B7
330
1CF
100
AcDbEntity
  8
0
  6
CONTINUOUS
 62
     7
100
AcDbVertex
100
AcDb2dVertex
 10
8.3684675618
 20
6.1279267164
 30
0.0
  0
VERTEX
  5
2B8
330
1CF
100
AcDbEntity
  8
0
  6
CONTINUOUS
 62
     7
100
AcDbVertex
100
AcDb2dVertex
 10
8.3636149701
 20
6.1512619343
 30
0.0
  0
VERTEX
  5
2B9
330
1CF
100
AcDbEntity
  8
0
  6
CONTINUOUS
 62
     7
100
AcDbVertex
100
AcDb2dVertex
 10
8.3599636422
 20
6.175549935
 30
0.0
  0
VERTEX
  5
2BA
330
1CF
100
AcDbEntity
  8
0
  6
CONTINUOUS
 62
     7
100
AcDbVertex
100
AcDb2dVertex
 10
8.357523755
 20
6.2007230235
 30
0.0
  0
VERTEX
  5
2BB
330
1CF
100
AcDbEntity
  8
0
  6
CONTINUOUS
 62
     7
100
AcDbVertex
100
AcDb2dVertex
 10
8.3563021089
 20
6.2267110379
 30
0.0
  0
VERTEX
  5
2BC
330
1CF
100
AcDbEntity
  8
0
  6
CONTINUOUS
 62
     7
100
AcDbVertex
100
AcDb2dVertex
 10
8.3563021089
 20
6.2534415449
 30
0.0
  0
VERTEX
  5
2BD
330
1CF
100
AcDbEntity
  8
0
  6
CONTINUOUS
 62
     7
100
AcDbVertex
100
AcDb2dVertex
 10
8.357523755
 20
6.2808400418
 30
0.0
  0
VERTEX
  5
2BE
330
1CF
100
AcDbEntity
  8
0
  6
CONTINUOUS
 62
     7
100
AcDbVertex
100
AcDb2dVertex
 10
8.3599636422
 20
6.3088301641
 30
0.0
  0
VERTEX
  5
2BF
330
1CF
100
AcDbEntity
  8
0
  6
CONTINUOUS
 62
     7
100
AcDbVertex
100
AcDb2dVertex
 10
8.3636149701
 20
6.3373338982
 30
0.0
  0
VERTEX
  5
2C0
330
1CF
100
AcDbEntity
  8
0
  6
CONTINUOUS
 62
     7
100
AcDbVertex
100
AcDb2dVertex
 10
8.3684675618
 20
6.3662717993
 30
0.0
  0
VERTEX
  5
2C1
330
1CF
100
AcDbEntity
  8
0
  6
CONTINUOUS
 62
     7
100
AcDbVertex
100
AcDb2dVertex
 10
8.3745078922
 20
6.3955632121
 30
0.0
  0
VERTEX
  5
2C2
330
1CF
100
AcDbEntity
  8
0
  6
CONTINUOUS
 62
     7
100
AcDbVertex
100
AcDb2dVertex
 10
8.381719126
 20
6.4251264962
 30
0.0
  0
VERTEX
  5
2C3
330
1CF
100
AcDbEntity
  8
0
  6
CONTINUOUS
 62
     7
100
AcDbVertex
100
AcDb2dVertex
 10
8.390081164
 20
6.4548792534
 30
0.0
  0
VERTEX
  5
2C4
330
1CF
100
AcDbEntity
  8
0
  6
CONTINUOUS
 62
     7
100
AcDbVertex
100
AcDb2dVertex
 10
8.3995706999
 20
6.4847385576
 30
0.0
  0
VERTEX
  5
2C5
330
1CF
100
AcDbEntity
  8
0
  6
CONTINUOUS
 62
     7
100
AcDbVertex
100
AcDb2dVertex
 10
8.4101612844
 20
6.5146211854
 30
0.0
  0
VERTEX
  5
2C6
330
1CF
100
AcDbEntity
  8
0
  6
CONTINUOUS
 62
     7
100
AcDbVertex
100
AcDb2dVertex
 10
8.4218233999
 20
6.5444438486
 30
0.0
  0
VERTEX
  5
2C7
330
1CF
100
AcDbEntity
  8
0
  6
CONTINUOUS
 62
     7
100
AcDbVertex
100
AcDb2dVertex
 10
8.4345245418
 20
6.574123426
 30
0.0
  0
VERTEX
  5
2C8
330
1CF
100
AcDbEntity
  8
0
  6
CONTINUOUS
 62
     7
100
AcDbVertex
100
AcDb2dVertex
 10
8.4482293098
 20
6.6035771955
 30
0.0
  0
VERTEX
  5
2C9
330
1CF
100
AcDbEntity
  8
0
  6
CONTINUOUS
 62
     7
100
AcDbVertex
100
AcDb2dVertex
 10
8.4628995063
 20
6.632723064
 30
0.0
  0
VERTEX
  5
2CA
330
1CF
100
AcDbEntity
  8
0
  6
CONTINUOUS
 62
     7
100
AcDbVertex
100
AcDb2dVertex
 10
8.4784942428
 20
6.6614797968
 30
0.0
  0
VERTEX
  5
2CB
330
1CF
100
AcDbEntity
  8
0
  6
CONTINUOUS
 62
     7
100
AcDbVertex
100
AcDb2dVertex
 10
8.494970054
 20
6.6897672437
 30
0.0
  0
VERTEX
  5
2CC
330
1CF
100
AcDbEntity
  8
0
  6
CONTINUOUS
 62
     7
100
AcDbVertex
100
AcDb2dVertex
 10
8.5122810188
 20
6.7175065625
 30
0.0
  0
VERTEX
  5
2CD
330
1CF
100
AcDbEntity
  8
0
  6
CONTINUOUS
 62
     7
100
AcDbVertex
100
AcDb2dVertex
 10
8.5303788885
 20
6.7446204388
 30
0.0
  0
VERTEX
  5
2CE
330
1CF
100
AcDbEntity
  8
0
  6
CONTINUOUS
 62
     7
100
AcDbVertex
100
AcDb2dVertex
 10
8.549213221
 20
6.7710333014
 30
0.0
  0
VERTEX
  5
2CF
330
1CF
100
AcDbEntity
  8
0
  6
CONTINUOUS
 62
     7
100
AcDbVertex
100
AcDb2dVertex
 10
8.5687315218
 20
6.7966715327
 30
0.0
  0
VERTEX
  5
2D0
330
1CF
100
AcDbEntity
  8
0
  6
CONTINUOUS
 62
     7
100
AcDbVertex
100
AcDb2dVertex
 10
8.5888793897
 20
6.8214636746
 30
0.0
  0
VERTEX
  5
2D1
330
1CF
100
AcDbEntity
  8
0
  6
CONTINUOUS
 62
     7
100
AcDbVertex
100
AcDb2dVertex
 10
8.6096006691
 20
6.8453406268
 30
0.0
  0
VERTEX
  5
2D2
330
1CF
100
AcDbEntity
  8
0
  6
CONTINUOUS
 62
     7
100
AcDbVertex
100
AcDb2dVertex
 10
8.630837606
 20
6.86823584
 30
0.0
  0
VERTEX
  5
2D3
330
1CF
100
AcDbEntity
  8
0
  6
CONTINUOUS
 62
     7
100
AcDbVertex
100
AcDb2dVertex
 10
8.6525310093
 20
6.8900855012
 30
0.0
  0
VERTEX
  5
2D4
330
1CF
100
AcDbEntity
  8
0
  6
CONTINUOUS
 62
     7
100
AcDbVertex
100
AcDb2dVertex
 10
8.6746204157
 20
6.9108287113
 30
0.0
  0
VERTEX
  5
2D5
330
1CF
100
AcDbEntity
  8
0
  6
CONTINUOUS
 62
     7
100
AcDbVertex
100
AcDb2dVertex
 10
8.6970442578
 20
6.9304076554
 30
0.0
  0
VERTEX
  5
2D6
330
1CF
100
AcDbEntity
  8
0
  6
CONTINUOUS
 62
     7
100
AcDbVertex
100
AcDb2dVertex
 10
8.7197400366
 20
6.9487677635
 30
0.0
  0
VERTEX
  5
2D7
330
1CF
100
AcDbEntity
  8
0
  6
CONTINUOUS
 62
     7
100
AcDbVertex
100
AcDb2dVertex
 10
8.7426444947
 20
6.9658578626
 30
0.0
  0
VERTEX
  5
2D8
330
1CF
100
AcDbEntity
  8
0
  6
CONTINUOUS
 62
     7
100
AcDbVertex
100
AcDb2dVertex
 10
8.7656937934
 20
6.9816303195
 30
0.0
  0
VERTEX
  5
2D9
330
1CF
100
AcDbEntity
  8
0
  6
CONTINUOUS
 62
     7
100
AcDbVertex
100
AcDb2dVertex
 10
8.7888236901
 20
6.9960411736
 30
0.0
  0
VERTEX
  5
2DA
330
1CF
100
AcDbEntity
  8
0
  6
CONTINUOUS
 62
     7
100
AcDbVertex
100
AcDb2dVertex
 10
8.8119697176
 20
7.0090502593
 30
0.0
  0
VERTEX
  5
2DB
330
1CF
100
AcDbEntity
  8
0
  6
CONTINUOUS
 62
     7
100
AcDbVertex
100
AcDb2dVertex
 10
8.8350673639
 20
7.0206213178
 30
0.0
  0
VERTEX
  5
2DC
330
1CF
100
AcDbEntity
  8
0
  6
CONTINUOUS
 62
     7
100
AcDbVertex
100
AcDb2dVertex
 10
8.8580522516
 20
7.0307220986
 30
0.0
  0
VERTEX
  5
2DD
330
1CF
100
AcDbEntity
  8
0
  6
CONTINUOUS
 62
     7
100
AcDbVertex
100
AcDb2dVertex
 10
8.8808603177
 20
7.0393244491
 30
0.0
  0
VERTEX
  5
2DE
330
1CF
100
AcDbEntity
  8
0
  6
CONTINUOUS
 62
     7
100
AcDbVertex
100
AcDb2dVertex
 10
8.903427992
 20
7.0464043928
 30
0.0
  0
VERTEX
  5
2DF
330
1CF
100
AcDbEntity
  8
0
  6
CONTINUOUS
 62
     7
100
AcDbVertex
100
AcDb2dVertex
 10
8.9256923745
 20
7.0519421967
 30
0.0
  0
VERTEX
  5
2E0
330
1CF
100
AcDbEntity
  8
0
  6
CONTINUOUS
 62
     7
100
AcDbVertex
100
AcDb2dVertex
 10
8.9475914102
 20
7.055922426
 30
0.0
  0
VERTEX
  5
2E1
330
1CF
100
AcDbEntity
  8
0
  6
CONTINUOUS
 62
     7
100
AcDbVertex
100
AcDb2dVertex
 10
8.9690640626
 20
7.0583339871
 30
0.0
  0
VERTEX
  5
2E2
330
1CF
100
AcDbEntity
  8
0
  6
CONTINUOUS
 62
     7
100
AcDbVertex
100
AcDb2dVertex
 10
8.9900504837
 20
7.0591701584
 30
0.0
  0
VERTEX
  5
2E3
330
1CF
100
AcDbEntity
  8
0
  6
CONTINUOUS
 62
     7
100
AcDbVertex
100
AcDb2dVertex
 10
9.0104921804
 20
7.0584286096
 30
0.0
  0
VERTEX
  5
2E4
330
1CF
100
AcDbEntity
  8
0
  6
CONTINUOUS
 62
     7
100
AcDbVertex
100
AcDb2dVertex
 10
9.0303321782
 20
7.0561114072
 30
0.0
  0
VERTEX
  5
2E5
330
1CF
100
AcDbEntity
  8
0
  6
CONTINUOUS
 62
     7
100
AcDbVertex
100
AcDb2dVertex
 10
9.0495151793
 20
7.05222501
 30
0.0
  0
VERTEX
  5
2E6
330
1CF
100
AcDbEntity
  8
0
  6
CONTINUOUS
 62
     7
100
AcDbVertex
100
AcDb2dVertex
 10
9.0679877173
 20
7.0467802498
 30
0.0
  0
VERTEX
  5
2E7
330
1CF
100
AcDbEntity
  8
0
  6
CONTINUOUS
 62
     7
100
AcDbVertex
100
AcDb2dVertex
 10
9.0856983059
 20
7.0397923023
 30
0.0
  0
VERTEX
  5
2E8
330
1CF
100
AcDbEntity
  8
0
  6
CONTINUOUS
 62
     7
100
AcDbVertex
100
AcDb2dVertex
 10
9.1025975826
 20
7.0312806441
 30
0.0
  0
VERTEX
  5
2E9
330
1CF
100
AcDbEntity
  8
0
  6
CONTINUOUS
 62
     7
100
AcDbVertex
100
AcDb2dVertex
 10
9.118638446
 20
7.0212689987
 30
0.0
  0
VERTEX
  5
2EA
330
1CF
100
AcDbEntity
  8
0
  6
CONTINUOUS
 62
     7
100
AcDbVertex
100
AcDb2dVertex
 10
9.1337761874
 20
7.0097852704
 30
0.0
  0
VERTEX
  5
2EB
330
1CF
100
AcDbEntity
  8
0
  6
CONTINUOUS
 62
     7
100
AcDbVertex
100
AcDb2dVertex
 10
9.1479686151
 20
6.9968614663
 30
0.0
  0
VERTEX
  5
2EC
330
1CF
100
AcDbEntity
  8
0
  6
CONTINUOUS
 62
     7
100
AcDbVertex
100
AcDb2dVertex
 10
9.1611761724
 20
6.9825336075
 30
0.0
  0
VERTEX
  5
2ED
330
1CF
100
AcDbEntity
  8
0
  6
CONTINUOUS
 62
     7
100
AcDbVertex
100
AcDb2dVertex
 10
9.1733620473
 20
6.9668416283
 30
0.0
  0
VERTEX
  5
2EE
330
1CF
100
AcDbEntity
  8
0
  6
CONTINUOUS
 62
     7
100
AcDbVertex
100
AcDb2dVertex
 10
9.1844922758
 20
6.949829265
 30
0.0
  0
VERTEX
  5
2EF
330
1CF
100
AcDbEntity
  8
0
  6
CONTINUOUS
 62
     7
100
AcDbVertex
100
AcDb2dVertex
 10
9.1945358357
 20
6.9315439341
 30
0.0
  0
VERTEX
  5
2F0
330
1CF
100
AcDbEntity
  8
0
  6
CONTINUOUS
 62
     7
100
AcDbVertex
100
AcDb2dVertex
 10
9.203464734
 20
6.9120366001
 30
0.0
  0
VERTEX
  5
2F1
330
1CF
100
AcDbEntity
  8
0
  6
CONTINUOUS
 62
     7
100
AcDbVertex
100
AcDb2dVertex
 10
9.2112540841
 20
6.8913616335
 30
0.0
  0
VERTEX
  5
2F2
330
1CF
100
AcDbEntity
  8
0
  6
CONTINUOUS
 62
     7
100
AcDbVertex
100
AcDb2dVertex
 10
9.2178821759
 20
6.8695766591
 30
0.0
  0
VERTEX
  5
2F3
330
1CF
100
AcDbEntity
  8
0
  6
CONTINUOUS
 62
     7
100
AcDbVertex
100
AcDb2dVertex
 10
9.2233305355
 20
6.8467423956
 30
0.0
  0
VERTEX
  5
2F4
330
1CF
100
AcDbEntity
  8
0
  6
CONTINUOUS
 62
     7
100
AcDbVertex
100
AcDb2dVertex
 10
9.2275839774
 20
6.822922486
 30
0.0
  0
VERTEX
  5
2F5
330
1CF
100
AcDbEntity
  8
0
  6
CONTINUOUS
 62
     7
100
AcDbVertex
100
AcDb2dVertex
 10
9.2306306466
 20
6.7981833208
 30
0.0
  0
VERTEX
  5
2F6
330
1CF
100
AcDbEntity
  8
0
  6
CONTINUOUS
 62
     7
100
AcDbVertex
100
AcDb2dVertex
 10
9.2324620514
 20
6.7725938525
 30
0.0
  0
VERTEX
  5
2F7
330
1CF
100
AcDbEntity
  8
0
  6
CONTINUOUS
 62
     7
100
AcDbVertex
100
AcDb2dVertex
 10
9.2330730874
 20
6.7462254035
 30
0.0
  0
VERTEX
  5
2F8
330
1CF
100
AcDbEntity
  8
0
  6
CONTINUOUS
 62
     7
100
AcDbVertex
100
AcDb2dVertex
 10
9.2330730874
 20
6.7462254035
 30
0.0
  0
SEQEND
  5
2F9
330
1CF
100
AcDbEntity
  8
0
  6
CONTINUOUS
 62
     7
  0
POLYLINE
  5
1D0
330
1F
100
AcDbEntity
  8
0
  6
CONTINUOUS
 62
     7
100
AcDb2dPolyline
 66
     1
 10
0.0
 20
0.0
 30
0.0
  0
VERTEX
  5
2FA
330
1D0
100
AcDbEntity
  8
0
  6
CONTINUOUS
 62
     7
100
AcDbVertex
100
AcDb2dVertex
 10
7.8624837467
 20
7.7471983355
 30
0.0
  0
VERTEX
  5
2FB
330
1D0
100
AcDbEntity
  8
0
  6
CONTINUOUS
 62
     7
100
AcDbVertex
100
AcDb2dVertex
 10
7.8604559499
 20
7.7483537453
 30
0.0
  0
VERTEX
  5
2FC
330
1D0
100
AcDbEntity
  8
0
  6
CONTINUOUS
 62
     7
100
AcDbVertex
100
AcDb2dVertex
 10
7.8435566733
 20
7.7568654035
 30
0.0
  0
VERTEX
  5
2FD
330
1D0
100
AcDbEntity
  8
0
  6
CONTINUOUS
 62
     7
100
AcDbVertex
100
AcDb2dVertex
 10
7.8258460846
 20
7.763853351
 30
0.0
  0
VERTEX
  5
2FE
330
1D0
100
AcDbEntity
  8
0
  6
CONTINUOUS
 62
     7
100
AcDbVertex
100
AcDb2dVertex
 10
7.8073735466
 20
7.7692981112
 30
0.0
  0
VERTEX
  5
2FF
330
1D0
100
AcDbEntity
  8
0
  6
CONTINUOUS
 62
     7
100
AcDbVertex
100
AcDb2dVertex
 10
7.7881905455
 20
7.7731845085
 30
0.0
  0
VERTEX
  5
300
330
1D0
100
AcDbEntity
  8
0
  6
CONTINUOUS
 62
     7
100
AcDbVertex
100
AcDb2dVertex
 10
7.7683505478
 20
7.7755017108
 30
0.0
  0
VERTEX
  5
301
330
1D0
100
AcDbEntity
  8
0
  6
CONTINUOUS
 62
     7
100
AcDbVertex
100
AcDb2dVertex
 10
7.747908851
 20
7.7762432597
 30
0.0
  0
VERTEX
  5
302
330
1D0
100
AcDbEntity
  8
0
  6
CONTINUOUS
 62
     7
100
AcDbVertex
100
AcDb2dVertex
 10
7.72692243
 20
7.7754070883
 30
0.0
  0
VERTEX
  5
303
330
1D0
100
AcDbEntity
  8
0
  6
CONTINUOUS
 62
     7
100
AcDbVertex
100
AcDb2dVertex
 10
7.7054497775
 20
7.7729955272
 30
0.0
  0
VERTEX
  5
304
330
1D0
100
AcDbEntity
  8
0
  6
CONTINUOUS
 62
     7
100
AcDbVertex
100
AcDb2dVertex
 10
7.6835507418
 20
7.7690152979
 30
0.0
  0
VERTEX
  5
305
330
1D0
100
AcDbEntity
  8
0
  6
CONTINUOUS
 62
     7
100
AcDbVertex
100
AcDb2dVertex
 10
7.6612863593
 20
7.763477494
 30
0.0
  0
VERTEX
  5
306
330
1D0
100
AcDbEntity
  8
0
  6
CONTINUOUS
 62
     7
100
AcDbVertex
100
AcDb2dVertex
 10
7.638718685
 20
7.7563975503
 30
0.0
  0
VERTEX
  5
307
330
1D0
100
AcDbEntity
  8
0
  6
CONTINUOUS
 62
     7
100
AcDbVertex
100
AcDb2dVertex
 10
7.6159106189
 20
7.7477951999
 30
0.0
  0
VERTEX
  5
308
330
1D0
100
AcDbEntity
  8
0
  6
CONTINUOUS
 62
     7
100
AcDbVertex
100
AcDb2dVertex
 10
7.5929257312
 20
7.737694419
 30
0.0
  0
VERTEX
  5
309
330
1D0
100
AcDbEntity
  8
0
  6
CONTINUOUS
 62
     7
100
AcDbVertex
100
AcDb2dVertex
 10
7.569828085
 20
7.7261233605
 30
0.0
  0
VERTEX
  5
30A
330
1D0
100
AcDbEntity
  8
0
  6
CONTINUOUS
 62
     7
100
AcDbVertex
100
AcDb2dVertex
 10
7.5466820574
 20
7.7131142748
 30
0.0
  0
VERTEX
  5
30B
330
1D0
100
AcDbEntity
  8
0
  6
CONTINUOUS
 62
     7
100
AcDbVertex
100
AcDb2dVertex
 10
7.5235521607
 20
7.6987034207
 30
0.0
  0
VERTEX
  5
30C
330
1D0
100
AcDbEntity
  8
0
  6
CONTINUOUS
 62
     7
100
AcDbVertex
100
AcDb2dVertex
 10
7.5005028621
 20
7.6829309638
 30
0.0
  0
VERTEX
  5
30D
330
1D0
100
AcDbEntity
  8
0
  6
CONTINUOUS
 62
     7
100
AcDbVertex
100
AcDb2dVertex
 10
7.4775984039
 20
7.6658408647
 30
0.0
  0
VERTEX
  5
30E
330
1D0
100
AcDbEntity
  8
0
  6
CONTINUOUS
 62
     7
100
AcDbVertex
100
AcDb2dVertex
 10
7.4549026252
 20
7.6474807566
 30
0.0
  0
VERTEX
  5
30F
330
1D0
100
AcDbEntity
  8
0
  6
CONTINUOUS
 62
     7
100
AcDbVertex
100
AcDb2dVertex
 10
7.432478783
 20
7.6279018125
 30
0.0
  0
VERTEX
  5
310
330
1D0
100
AcDbEntity
  8
0
  6
CONTINUOUS
 62
     7
100
AcDbVertex
100
AcDb2dVertex
 10
7.4103893767
 20
7.6071586024
 30
0.0
  0
VERTEX
  5
311
330
1D0
100
AcDbEntity
  8
0
  6
CONTINUOUS
 62
     7
100
AcDbVertex
100
AcDb2dVertex
 10
7.3886959733
 20
7.5853089412
 30
0.0
  0
VERTEX
  5
312
330
1D0
100
AcDbEntity
  8
0
  6
CONTINUOUS
 62
     7
100
AcDbVertex
100
AcDb2dVertex
 10
7.3674590364
 20
7.562413728
 30
0.0
  0
VERTEX
  5
313
330
1D0
100
AcDbEntity
  8
0
  6
CONTINUOUS
 62
     7
100
AcDbVertex
100
AcDb2dVertex
 10
7.346737757
 20
7.5385367758
 30
0.0
  0
VERTEX
  5
314
330
1D0
100
AcDbEntity
  8
0
  6
CONTINUOUS
 62
     7
100
AcDbVertex
100
AcDb2dVertex
 10
7.3265898891
 20
7.5137446339
 30
0.0
  0
VERTEX
  5
315
330
1D0
100
AcDbEntity
  8
0
  6
CONTINUOUS
 62
     7
100
AcDbVertex
100
AcDb2dVertex
 10
7.3070715884
 20
7.4881064026
 30
0.0
  0
VERTEX
  5
316
330
1D0
100
AcDbEntity
  8
0
  6
CONTINUOUS
 62
     7
100
AcDbVertex
100
AcDb2dVertex
 10
7.2882372558
 20
7.46169354
 30
0.0
  0
VERTEX
  5
317
330
1D0
100
AcDbEntity
  8
0
  6
CONTINUOUS
 62
     7
100
AcDbVertex
100
AcDb2dVertex
 10
7.2701393861
 20
7.4345796637
 30
0.0
  0
VERTEX
  5
318
330
1D0
100
AcDbEntity
  8
0
  6
CONTINUOUS
 62
     7
100
AcDbVertex
100
AcDb2dVertex
 10
7.2528284213
 20
7.4068403449
 30
0.0
  0
VERTEX
  5
319
330
1D0
100
AcDbEntity
  8
0
  6
CONTINUOUS
 62
     7
100
AcDbVertex
100
AcDb2dVertex
 10
7.2363526102
 20
7.378552898
 30
0.0
  0
VERTEX
  5
31A
330
1D0
100
AcDbEntity
  8
0
  6
CONTINUOUS
 62
     7
100
AcDbVertex
100
AcDb2dVertex
 10
7.2207578737
 20
7.3497961652
 30
0.0
  0
VERTEX
  5
31B
330
1D0
100
AcDbEntity
  8
0
  6
CONTINUOUS
 62
     7
100
AcDbVertex
100
AcDb2dVertex
 10
7.2060876772
 20
7.3206502967
 30
0.0
  0
VERTEX
  5
31C
330
1D0
100
AcDbEntity
  8
0
  6
CONTINUOUS
 62
     7
100
AcDbVertex
100
AcDb2dVertex
 10
7.1923829091
 20
7.2911965272
 30
0.0
  0
VERTEX
  5
31D
330
1D0
100
AcDbEntity
  8
0
  6
CONTINUOUS
 62
     7
100
AcDbVertex
100
AcDb2dVertex
 10
7.1796817672
 20
7.2615169498
 30
0.0
  0
VERTEX
  5
31E
330
1D0
100
AcDbEntity
  8
0
  6
CONTINUOUS
 62
     7
100
AcDbVertex
100
AcDb2dVertex
 10
7.1680196518
 20
7.2316942866
 30
0.0
  0
VERTEX
  5
31F
330
1D0
100
AcDbEntity
  8
0
  6
CONTINUOUS
 62
     7
100
AcDbVertex
100
AcDb2dVertex
 10
7.1574290672
 20
7.2018116588
 30
0.0
  0
VERTEX
  5
320
330
1D0
100
AcDbEntity
  8
0
  6
CONTINUOUS
 62
     7
100
AcDbVertex
100
AcDb2dVertex
 10
7.1479395314
 20
7.1719523546
 30
0.0
  0
VERTEX
  5
321
330
1D0
100
AcDbEntity
  8
0
  6
CONTINUOUS
 62
     7
100
AcDbVertex
100
AcDb2dVertex
 10
7.1395774933
 20
7.1421995974
 30
0.0
  0
VERTEX
  5
322
330
1D0
100
AcDbEntity
  8
0
  6
CONTINUOUS
 62
     7
100
AcDbVertex
100
AcDb2dVertex
 10
7.1323662596
 20
7.1126363133
 30
0.0
  0
VERTEX
  5
323
330
1D0
100
AcDbEntity
  8
0
  6
CONTINUOUS
 62
     7
100
AcDbVertex
100
AcDb2dVertex
 10
7.1263259291
 20
7.0833449005
 30
0.0
  0
VERTEX
  5
324
330
1D0
100
AcDbEntity
  8
0
  6
CONTINUOUS
 62
     7
100
AcDbVertex
100
AcDb2dVertex
 10
7.1214733374
 20
7.0544069994
 30
0.0
  0
VERTEX
  5
325
330
1D0
100
AcDbEntity
  8
0
  6
CONTINUOUS
 62
     7
100
AcDbVertex
100
AcDb2dVertex
 10
7.1178220095
 20
7.0259032653
 30
0.0
  0
VERTEX
  5
326
330
1D0
100
AcDbEntity
  8
0
  6
CONTINUOUS
 62
     7
100
AcDbVertex
100
AcDb2dVertex
 10
7.1153821223
 20
6.997913143
 30
0.0
  0
VERTEX
  5
327
330
1D0
100
AcDbEntity
  8
0
  6
CONTINUOUS
 62
     7
100
AcDbVertex
100
AcDb2dVertex
 10
7.1141604762
 20
6.9705146461
 30
0.0
  0
VERTEX
  5
328
330
1D0
100
AcDbEntity
  8
0
  6
CONTINUOUS
 62
     7
100
AcDbVertex
100
AcDb2dVertex
 10
7.1141604762
 20
6.9437841391
 30
0.0
  0
VERTEX
  5
329
330
1D0
100
AcDbEntity
  8
0
  6
CONTINUOUS
 62
     7
100
AcDbVertex
100
AcDb2dVertex
 10
7.1153821223
 20
6.9177961247
 30
0.0
  0
VERTEX
  5
32A
330
1D0
100
AcDbEntity
  8
0
  6
CONTINUOUS
 62
     7
100
AcDbVertex
100
AcDb2dVertex
 10
7.1178220095
 20
6.8926230362
 30
0.0
  0
VERTEX
  5
32B
330
1D0
100
AcDbEntity
  8
0
  6
CONTINUOUS
 62
     7
100
AcDbVertex
100
AcDb2dVertex
 10
7.1214733374
 20
6.8683350355
 30
0.0
  0
VERTEX
  5
32C
330
1D0
100
AcDbEntity
  8
0
  6
CONTINUOUS
 62
     7
100
AcDbVertex
100
AcDb2dVertex
 10
7.1263259291
 20
6.8449998176
 30
0.0
  0
VERTEX
  5
32D
330
1D0
100
AcDbEntity
  8
0
  6
CONTINUOUS
 62
     7
100
AcDbVertex
100
AcDb2dVertex
 10
7.1323662596
 20
6.8226824219
 30
0.0
  0
VERTEX
  5
32E
330
1D0
100
AcDbEntity
  8
0
  6
CONTINUOUS
 62
     7
100
AcDbVertex
100
AcDb2dVertex
 10
7.1395774933
 20
6.8014450511
 30
0.0
  0
VERTEX
  5
32F
330
1D0
100
AcDbEntity
  8
0
  6
CONTINUOUS
 62
     7
100
AcDbVertex
100
AcDb2dVertex
 10
7.1479395314
 20
6.7813468974
 30
0.0
  0
VERTEX
  5
330
330
1D0
100
AcDbEntity
  8
0
  6
CONTINUOUS
 62
     7
100
AcDbVertex
100
AcDb2dVertex
 10
7.1574290672
 20
6.7624439781
 30
0.0
  0
VERTEX
  5
331
330
1D0
100
AcDbEntity
  8
0
  6
CONTINUOUS
 62
     7
100
AcDbVertex
100
AcDb2dVertex
 10
7.1680196518
 20
6.744788979
 30
0.0
  0
VERTEX
  5
332
330
1D0
100
AcDbEntity
  8
0
  6
CONTINUOUS
 62
     7
100
AcDbVertex
100
AcDb2dVertex
 10
7.1796817672
 20
6.7284311077
 30
0.0
  0
VERTEX
  5
333
330
1D0
100
AcDbEntity
  8
0
  6
CONTINUOUS
 62
     7
100
AcDbVertex
100
AcDb2dVertex
 10
7.1923829091
 20
6.7134159565
 30
0.0
  0
VERTEX
  5
334
330
1D0
100
AcDbEntity
  8
0
  6
CONTINUOUS
 62
     7
100
AcDbVertex
100
AcDb2dVertex
 10
7.2060876772
 20
6.6997853754
 30
0.0
  0
VERTEX
  5
335
330
1D0
100
AcDbEntity
  8
0
  6
CONTINUOUS
 62
     7
100
AcDbVertex
100
AcDb2dVertex
 10
7.2207578737
 20
6.6875773553
 30
0.0
  0
VERTEX
  5
336
330
1D0
100
AcDbEntity
  8
0
  6
CONTINUOUS
 62
     7
100
AcDbVertex
100
AcDb2dVertex
 10
7.2363526102
 20
6.676825922
 30
0.0
  0
VERTEX
  5
337
330
1D0
100
AcDbEntity
  8
0
  6
CONTINUOUS
 62
     7
100
AcDbVertex
100
AcDb2dVertex
 10
7.2424553987
 20
6.6731613605
 30
0.0
  0
SEQEND
  5
338
330
1D0
100
AcDbEntity
  8
0
  6
CONTINUOUS
 62
     7
  0
SPLINE
  5
1D1
330
1F
100
AcDbEntity
  8
0
  6
CONTINUOUS
 62
     7
100
AcDbSpline
210
0.0
220
0.0
230
1.0
 70
     8
 71
     3
 72
    39
 73
    35
 74
     0
 42
0.00000001
 43
0.00000001
 40
-0.0942648971409122
 40
-0.062761628121293
 40
-0.0312015322785448
 40
0.0
 40
0.031234433446668
 40
0.0628038715787341
 40
0.0943325683599921
 40
0.1254601991709683
 40
0.1565046884804499
 40
0.1878472879752708
 40
0.2191237080212379
 40
0.2500198132941478
 40
0.2808632411582543
 40
0.3121729417794982
 40
0.3434594935699752
 40
0.3744950606563573
 40
0.4055989495879211
 40
0.4372023435715137
 40
0.468870641134873
 40
0.5001558435912556
 40
0.5313743001349553
 40
0.5629458010347417
 40
0.5944101051812479
 40
0.6255183676709642
 40
0.6565598395703156
 40
0.6878772077164632
 40
0.7191773240675998
 40
0.750075608667494
 40
0.780945398821803
 40
0.8122833072105798
 40
0.8435874692210868
 40
0.8746522443725611
 40
0.9057351028590878
 40
0.937238371878707
 40
0.9687984677214552
 40
1.0
 40
1.031234433446668
 40
1.062803871578734
 40
1.094332568359992
 10
7.667055465531195
 20
7.638478104567051
 30
0.0
 10
7.67627603044625
 20
7.645078082285029
 30
0.0
 10
7.687482793477892
 20
7.65025283904573
 30
0.0
 10
7.70032019510279
 20
7.65379629797496
 30
0.0
 10
7.714163976198718
 20
7.655711616654816
 30
0.0
 10
7.72851743252702
 20
7.655872541784617
 30
0.0
 10
7.742858878283098
 20
7.654399791548811
 30
0.0
 10
7.756660830947185
 20
7.651381313889514
 30
0.0
 10
7.769431939356466
 20
7.647114292922856
 30
0.0
 10
7.780542996748133
 20
7.641726977289641
 30
0.0
 10
7.789643985880258
 20
7.635454949868282
 30
0.0
 10
7.796318915199092
 20
7.628493836967271
 30
0.0
 10
7.800515941316283
 20
7.62112023297626
 30
0.0
 10
7.801847418073407
 20
7.61355069177417
 30
0.0
 10
7.800345944620993
 20
7.605963999155977
 30
0.0
 10
7.795977757480848
 20
7.598560323828918
 30
0.0
 10
7.789142542887482
 20
7.59152668217864
 30
0.0
 10
7.779916556128881
 20
7.585185137862519
 30
0.0
 10
7.76870486619746
 20
7.579724222419123
 30
0.0
 10
7.755871025396833
 20
7.575396855794373
 30
0.0
 10
7.742032979407475
 20
7.57229907494579
 30
0.0
 10
7.72769105887596
 20
7.570747698453943
 30
0.0
 10
7.713358454929348
 20
7.570820793372135
 30
0.0
 10
7.699557314008805
 20
7.572654931463521
 30
0.0
 10
7.686784834194317
 20
7.576106079849648
 30
0.0
 10
7.675673107359922
 20
7.581219106955133
 30
0.0
 10
7.666578568133279
 20
7.587782559874797
 30
0.0
 10
7.659909457750383
 20
7.595569545378611
 30
0.0
 10
7.655719391709962
 20
7.604135946582302
 30
0.0
 10
7.654392663457656
 20
7.613111387402229
 30
0.0
 10
7.655884751445181
 20
7.622094114610764
 30
0.0
 10
7.660235760694682
 20
7.630676274729635
 30
0.0
 10
7.667055465531195
 20
7.638478104567051
 30
0.0
 10
7.67627603044625
 20
7.645078082285029
 30
0.0
 10
7.687482793477892
 20
7.65025283904573
 30
0.0
  0
SPLINE
  5
1D2
330
1F
100
AcDbEntity
  8
0
  6
CONTINUOUS
 62
     7
100
AcDbSpline
210
0.0
220
0.0
230
1.0
 70
     8
 71
     3
 72
    39
 73
    35
 74
     0
 42
0.00000001
 43
0.00000001
 40
-0.0942648971399156
 40
-0.0627616281212547
 40
-0.0312015322775446
 40
0.0
 40
0.0312344334469365
 40
0.0628038715787441
 40
0.0943325683602587
 40
0.125460199170968
 40
0.1565046884808006
 40
0.187847287975284
 40
0.2191237080215853
 40
0.250019813294147
 40
0.2808632411584204
 40
0.3121729417795048
 40
0.3434594935701443
 40
0.3744950606563572
 40
0.4055989495882134
 40
0.4372023435715247
 40
0.4688706411351664
 40
0.5001558435912551
 40
0.5313743001349542
 40
0.562945801034741
 40
0.5944101051810277
 40
0.6255183676709555
 40
0.6565598395698542
 40
0.6878772077164534
 40
0.7191773240673599
 40
0.7500756086674943
 40
0.7809453988222104
 40
0.8122833072105964
 40
0.8435874692214992
 40
0.8746522443725614
 40
0.9057351028600844
 40
0.9372383718787453
 40
0.9687984677224554
 40
1.0
 40
1.031234433446937
 40
1.062803871578744
 40
1.094332568360259
 10
8.557898654427836
 20
7.124205278222068
 30
0.0
 10
8.567119219342807
 20
7.130805255940097
 30
0.0
 10
8.57832598237435
 20
7.135980012700743
 30
0.0
 10
8.591163383999298
 20
7.139523471629962
 30
0.0
 10
8.605007165095204
 20
7.141438790309787
 30
0.0
 10
8.619360621423548
 20
7.141599715439598
 30
0.0
 10
8.633702067179597
 20
7.140126965203813
 30
0.0
 10
8.647504019843717
 20
7.137108487544473
 30
0.0
 10
8.66027512825292
 20
7.132841466577805
 30
0.0
 10
8.671386185644627
 20
7.127454150944597
 30
0.0
 10
8.680487174776726
 20
7.12118212352326
 30
0.0
 10
8.687162104095547
 20
7.114221010622232
 30
0.0
 10
8.691359130212703
 20
7.106847406631232
 30
0.0
 10
8.692690606969839
 20
7.09927786542912
 30
0.0
 10
8.69118913351746
 20
7.091691172810934
 30
0.0
 10
8.686820946377251
 20
7.08428749748386
 30
0.0
 10
8.679985731783857
 20
7.077253855833619
 30
0.0
 10
8.670759745025292
 20
7.070912311517484
 30
0.0
 10
8.659548055093893
 20
7.065451396074112
 30
0.0
 10
8.6467142142933
 20
7.061124029449362
 30
0.0
 10
8.632876168303937
 20
7.058026248600801
 30
0.0
 10
8.618534247772498
 20
7.056474872108931
 30
0.0
 10
8.604201643825853
 20
7.056547967027118
 30
0.0
 10
8.590400502905341
 20
7.058382105118491
 30
0.0
 10
8.577628023090758
 20
7.0618332535046
 30
0.0
 10
8.566516296256351
 20
7.066946280610137
 30
0.0
 10
8.557421757029626
 20
7.073509733529788
 30
0.0
 10
8.550752646646774
 20
7.081296719033669
 30
0.0
 10
8.546562580606434
 20
7.089863120237338
 30
0.0
 10
8.545235852354105
 20
7.098838561057347
 30
0.0
 10
8.54672794034151
 20
7.107821288265857
 30
0.0
 10
8.551078949591234
 20
7.116403448384793
 30
0.0
 10
8.557898654427836
 20
7.124205278222068
 30
0.0
 10
8.567119219342807
 20
7.130805255940097
 30
0.0
 10
8.57832598237435
 20
7.135980012700743
 30
0.0
  0
POLYLINE
  5
1D3
330
1F
100
AcDbEntity
  8
0
  6
CONTINUOUS
 62
     7
100
AcDb2dPolyline
 66
     1
 10
0.0
 20
0.0
 30
0.0
  0
VERTEX
  5
339
330
1D3
100
AcDbEntity
  8
0
  6
CONTINUOUS
 62
     7
100
AcDbVertex
100
AcDb2dVertex
 10
8.9026537808
 20
6.5493553372
 30
0.0
  0
VERTEX
  5
33A
330
1D3
100
AcDbEntity
  8
0
  6
CONTINUOUS
 62
     7
100
AcDbVertex
100
AcDb2dVertex
 10
8.9020515188
 20
6.53618047
 30
0.0
  0
VERTEX
  5
33B
330
1D3
100
AcDbEntity
  8
0
  6
CONTINUOUS
 62
     7
100
AcDbVertex
100
AcDb2dVertex
 10
8.9002517937
 20
6.5224647092
 30
0.0
  0
VERTEX
  5
33C
330
1D3
100
AcDbEntity
  8
0
  6
CONTINUOUS
 62
     7
100
AcDbVertex
100
AcDb2dVertex
 10
8.8972757056
 20
6.5083688595
 30
0.0
  0
VERTEX
  5
33D
330
1D3
100
AcDbEntity
  8
0
  6
CONTINUOUS
 62
     7
100
AcDbVertex
100
AcDb2dVertex
 10
8.8931581465
 20
6.4940581818
 30
0.0
  0
VERTEX
  5
33E
330
1D3
100
AcDbEntity
  8
0
  6
CONTINUOUS
 62
     7
100
AcDbVertex
100
AcDb2dVertex
 10
8.8879473909
 20
6.4797004557
 30
0.0
  0
VERTEX
  5
33F
330
1D3
100
AcDbEntity
  8
0
  6
CONTINUOUS
 62
     7
100
AcDbVertex
100
AcDb2dVertex
 10
8.8817045303
 20
6.4654640125
 30
0.0
  0
VERTEX
  5
340
330
1D3
100
AcDbEntity
  8
0
  6
CONTINUOUS
 62
     7
100
AcDbVertex
100
AcDb2dVertex
 10
8.8745027564
 20
6.4515157615
 30
0.0
  0
VERTEX
  5
341
330
1D3
100
AcDbEntity
  8
0
  6
CONTINUOUS
 62
     7
100
AcDbVertex
100
AcDb2dVertex
 10
8.8664265035
 20
6.438019233
 30
0.0
  0
VERTEX
  5
342
330
1D3
100
AcDbEntity
  8
0
  6
CONTINUOUS
 62
     7
100
AcDbVertex
100
AcDb2dVertex
 10
8.8575704582
 20
6.4251326617
 30
0.0
  0
VERTEX
  5
343
330
1D3
100
AcDbEntity
  8
0
  6
CONTINUOUS
 62
     7
100
AcDbVertex
100
AcDb2dVertex
 10
8.8480384496
 20
6.4130071307
 30
0.0
  0
VERTEX
  5
344
330
1D3
100
AcDbEntity
  8
0
  6
CONTINUOUS
 62
     7
100
AcDbVertex
100
AcDb2dVertex
 10
8.8379422318
 20
6.4017848009
 30
0.0
  0
VERTEX
  5
345
330
1D3
100
AcDbEntity
  8
0
  6
CONTINUOUS
 62
     7
100
AcDbVertex
100
AcDb2dVertex
 10
8.8274001736
 20
6.3915972437
 30
0.0
  0
VERTEX
  5
346
330
1D3
100
AcDbEntity
  8
0
  6
CONTINUOUS
 62
     7
100
AcDbVertex
100
AcDb2dVertex
 10
8.8165358712
 20
6.382563899
 30
0.0
  0
VERTEX
  5
347
330
1D3
100
AcDbEntity
  8
0
  6
CONTINUOUS
 62
     7
100
AcDbVertex
100
AcDb2dVertex
 10
8.8054766984
 20
6.3747906744
 30
0.0
  0
VERTEX
  5
348
330
1D3
100
AcDbEntity
  8
0
  6
CONTINUOUS
 62
     7
100
AcDbVertex
100
AcDb2dVertex
 10
8.794352314
 20
6.368368704
 30
0.0
  0
VERTEX
  5
349
330
1D3
100
AcDbEntity
  8
0
  6
CONTINUOUS
 62
     7
100
AcDbVertex
100
AcDb2dVertex
 10
8.7832931412
 20
6.3633732794
 30
0.0
  0
VERTEX
  5
34A
330
1D3
100
AcDbEntity
  8
0
  6
CONTINUOUS
 62
     7
100
AcDbVertex
100
AcDb2dVertex
 10
8.7724288387
 20
6.3598629675
 30
0.0
  0
VERTEX
  5
34B
330
1D3
100
AcDbEntity
  8
0
  6
CONTINUOUS
 62
     7
100
AcDbVertex
100
AcDb2dVertex
 10
8.7618867806
 20
6.3578789234
 30
0.0
  0
VERTEX
  5
34C
330
1D3
100
AcDbEntity
  8
0
  6
CONTINUOUS
 62
     7
100
AcDbVertex
100
AcDb2dVertex
 10
8.7517905628
 20
6.3574444083
 30
0.0
  0
VERTEX
  5
34D
330
1D3
100
AcDbEntity
  8
0
  6
CONTINUOUS
 62
     7
100
AcDbVertex
100
AcDb2dVertex
 10
8.7422585542
 20
6.3585645164
 30
0.0
  0
VERTEX
  5
34E
330
1D3
100
AcDbEntity
  8
0
  6
CONTINUOUS
 62
     7
100
AcDbVertex
100
AcDb2dVertex
 10
8.7334025089
 20
6.3612261155
 30
0.0
  0
VERTEX
  5
34F
330
1D3
100
AcDbEntity
  8
0
  6
CONTINUOUS
 62
     7
100
AcDbVertex
100
AcDb2dVertex
 10
8.725326256
 20
6.3653980008
 30
0.0
  0
VERTEX
  5
350
330
1D3
100
AcDbEntity
  8
0
  6
CONTINUOUS
 62
     7
100
AcDbVertex
100
AcDb2dVertex
 10
8.7181244821
 20
6.3710312607
 30
0.0
  0
VERTEX
  5
351
330
1D3
100
AcDbEntity
  8
0
  6
CONTINUOUS
 62
     7
100
AcDbVertex
100
AcDb2dVertex
 10
8.7118816214
 20
6.3780598505
 30
0.0
  0
VERTEX
  5
352
330
1D3
100
AcDbEntity
  8
0
  6
CONTINUOUS
 62
     7
100
AcDbVertex
100
AcDb2dVertex
 10
8.7066708659
 20
6.3864013662
 30
0.0
  0
VERTEX
  5
353
330
1D3
100
AcDbEntity
  8
0
  6
CONTINUOUS
 62
     7
100
AcDbVertex
100
AcDb2dVertex
 10
8.7025533068
 20
6.3959580113
 30
0.0
  0
VERTEX
  5
354
330
1D3
100
AcDbEntity
  8
0
  6
CONTINUOUS
 62
     7
100
AcDbVertex
100
AcDb2dVertex
 10
8.6995772187
 20
6.4066177429
 30
0.0
  0
VERTEX
  5
355
330
1D3
100
AcDbEntity
  8
0
  6
CONTINUOUS
 62
     7
100
AcDbVertex
100
AcDb2dVertex
 10
8.6977774936
 20
6.4182555854
 30
0.0
  0
VERTEX
  5
356
330
1D3
100
AcDbEntity
  8
0
  6
CONTINUOUS
 62
     7
100
AcDbVertex
100
AcDb2dVertex
 10
8.6971752315
 20
6.4307350956
 30
0.0
  0
VERTEX
  5
357
330
1D3
100
AcDbEntity
  8
0
  6
CONTINUOUS
 62
     7
100
AcDbVertex
100
AcDb2dVertex
 10
8.6977774936
 20
6.4439099628
 30
0.0
  0
VERTEX
  5
358
330
1D3
100
AcDbEntity
  8
0
  6
CONTINUOUS
 62
     7
100
AcDbVertex
100
AcDb2dVertex
 10
8.6995772187
 20
6.4576257236
 30
0.0
  0
VERTEX
  5
359
330
1D3
100
AcDbEntity
  8
0
  6
CONTINUOUS
 62
     7
100
AcDbVertex
100
AcDb2dVertex
 10
8.7025533068
 20
6.4717215734
 30
0.0
  0
VERTEX
  5
35A
330
1D3
100
AcDbEntity
  8
0
  6
CONTINUOUS
 62
     7
100
AcDbVertex
100
AcDb2dVertex
 10
8.7066708659
 20
6.4860322511
 30
0.0
  0
VERTEX
  5
35B
330
1D3
100
AcDbEntity
  8
0
  6
CONTINUOUS
 62
     7
100
AcDbVertex
100
AcDb2dVertex
 10
8.7118816214
 20
6.5003899771
 30
0.0
  0
VERTEX
  5
35C
330
1D3
100
AcDbEntity
  8
0
  6
CONTINUOUS
 62
     7
100
AcDbVertex
100
AcDb2dVertex
 10
8.7181244821
 20
6.5146264203
 30
0.0
  0
VERTEX
  5
35D
330
1D3
100
AcDbEntity
  8
0
  6
CONTINUOUS
 62
     7
100
AcDbVertex
100
AcDb2dVertex
 10
8.725326256
 20
6.5285746714
 30
0.0
  0
VERTEX
  5
35E
330
1D3
100
AcDbEntity
  8
0
  6
CONTINUOUS
 62
     7
100
AcDbVertex
100
AcDb2dVertex
 10
8.7334025089
 20
6.5420711998
 30
0.0
  0
VERTEX
  5
35F
330
1D3
100
AcDbEntity
  8
0
  6
CONTINUOUS
 62
     7
100
AcDbVertex
100
AcDb2dVertex
 10
8.7422585542
 20
6.5549577711
 30
0.0
  0
VERTEX
  5
360
330
1D3
100
AcDbEntity
  8
0
  6
CONTINUOUS
 62
     7
100
AcDbVertex
100
AcDb2dVertex
 10
8.7517905628
 20
6.5670833021
 30
0.0
  0
VERTEX
  5
361
330
1D3
100
AcDbEntity
  8
0
  6
CONTINUOUS
 62
     7
100
AcDbVertex
100
AcDb2dVertex
 10
8.7618867806
 20
6.578305632
 30
0.0
  0
VERTEX
  5
362
330
1D3
100
AcDbEntity
  8
0
  6
CONTINUOUS
 62
     7
100
AcDbVertex
100
AcDb2dVertex
 10
8.7724288387
 20
6.5884931892
 30
0.0
  0
VERTEX
  5
363
330
1D3
100
AcDbEntity
  8
0
  6
CONTINUOUS
 62
     7
100
AcDbVertex
100
AcDb2dVertex
 10
8.7832931412
 20
6.5975265339
 30
0.0
  0
VERTEX
  5
364
330
1D3
100
AcDbEntity
  8
0
  6
CONTINUOUS
 62
     7
100
AcDbVertex
100
AcDb2dVertex
 10
8.794352314
 20
6.6052997584
 30
0.0
  0
VERTEX
  5
365
330
1D3
100
AcDbEntity
  8
0
  6
CONTINUOUS
 62
     7
100
AcDbVertex
100
AcDb2dVertex
 10
8.8054766984
 20
6.6117217288
 30
0.0
  0
VERTEX
  5
366
330
1D3
100
AcDbEntity
  8
0
  6
CONTINUOUS
 62
     7
100
AcDbVertex
100
AcDb2dVertex
 10
8.8165358712
 20
6.6167171534
 30
0.0
  0
VERTEX
  5
367
330
1D3
100
AcDbEntity
  8
0
  6
CONTINUOUS
 62
     7
100
AcDbVertex
100
AcDb2dVertex
 10
8.8274001736
 20
6.6202274653
 30
0.0
  0
VERTEX
  5
368
330
1D3
100
AcDbEntity
  8
0
  6
CONTINUOUS
 62
     7
100
AcDbVertex
100
AcDb2dVertex
 10
8.8379422318
 20
6.6222115094
 30
0.0
  0
VERTEX
  5
369
330
1D3
100
AcDbEntity
  8
0
  6
CONTINUOUS
 62
     7
100
AcDbVertex
100
AcDb2dVertex
 10
8.8480384496
 20
6.6226460245
 30
0.0
  0
VERTEX
  5
36A
330
1D3
100
AcDbEntity
  8
0
  6
CONTINUOUS
 62
     7
100
AcDbVertex
100
AcDb2dVertex
 10
8.8575704582
 20
6.6215259164
 30
0.0
  0
VERTEX
  5
36B
330
1D3
100
AcDbEntity
  8
0
  6
CONTINUOUS
 62
     7
100
AcDbVertex
100
AcDb2dVertex
 10
8.8664265035
 20
6.6188643173
 30
0.0
  0
VERTEX
  5
36C
330
1D3
100
AcDbEntity
  8
0
  6
CONTINUOUS
 62
     7
100
AcDbVertex
100
AcDb2dVertex
 10
8.8745027564
 20
6.614692432
 30
0.0
  0
VERTEX
  5
36D
330
1D3
100
AcDbEntity
  8
0
  6
CONTINUOUS
 62
     7
100
AcDbVertex
100
AcDb2dVertex
 10
8.8817045303
 20
6.6090591721
 30
0.0
  0
VERTEX
  5
36E
330
1D3
100
AcDbEntity
  8
0
  6
CONTINUOUS
 62
     7
100
AcDbVertex
100
AcDb2dVertex
 10
8.8879473909
 20
6.6020305824
 30
0.0
  0
VERTEX
  5
36F
330
1D3
100
AcDbEntity
  8
0
  6
CONTINUOUS
 62
     7
100
AcDbVertex
100
AcDb2dVertex
 10
8.8931581465
 20
6.5936890666
 30
0.0
  0
VERTEX
  5
370
330
1D3
100
AcDbEntity
  8
0
  6
CONTINUOUS
 62
     7
100
AcDbVertex
100
AcDb2dVertex
 10
8.8972757056
 20
6.5841324215
 30
0.0
  0
VERTEX
  5
371
330
1D3
100
AcDbEntity
  8
0
  6
CONTINUOUS
 62
     7
100
AcDbVertex
100
AcDb2dVertex
 10
8.9002517937
 20
6.5734726899
 30
0.0
  0
VERTEX
  5
372
330
1D3
100
AcDbEntity
  8
0
  6
CONTINUOUS
 62
     7
100
AcDbVertex
100
AcDb2dVertex
 10
8.9020515188
 20
6.5618348474
 30
0.0
  0
VERTEX
  5
373
330
1D3
100
AcDbEntity
  8
0
  6
CONTINUOUS
 62
     7
100
AcDbVertex
100
AcDb2dVertex
 10
8.9026537808
 20
6.5493553372
 30
0.0
  0
SEQEND
  5
374
330
1D3
100
AcDbEntity
  8
0
  6
CONTINUOUS
 62
     7
  0
SPLINE
  5
1D4
330
1F
100
AcDbEntity
  8
0
  6
CONTINUOUS
 62
     7
100
AcDbSpline
210
0.0
220
0.0
230
1.0
 70
     8
 71
     3
 72
    11
 73
     7
 74
     0
 42
0.00000001
 43
0.00000001
 40
0.0
 40
0.0
 40
0.0
 40
0.0
 40
0.3191406458498258
 40
0.6052121441343024
 40
0.8573245471443718
 40
1.0
 40
1.0
 40
1.0
 40
1.0
 10
8.552037946708253
 20
7.093521059335707
 30
0.0
 10
8.552378883149931
 20
7.090250165653982
 30
0.0
 10
8.55302542841944
 20
7.084047306180909
 30
0.0
 10
8.557904718923117
 20
7.07588268141345
 30
0.0
 10
8.563368602859612
 20
7.069927261770148
 30
0.0
 10
8.567667998955576
 20
7.067113744171107
 30
0.0
 10
8.569221791140121
 20
7.066096945169831
 30
0.0
  0
SPLINE
  5
1D5
330
1F
100
AcDbEntity
  8
0
  6
CONTINUOUS
 62
     7
100
AcDbSpline
210
0.0
220
0.0
230
1.0
 70
     8
 71
     3
 72
    10
 73
     6
 74
     0
 42
0.00000001
 43
0.00000001
 40
0.0
 40
0.0
 40
0.0
 40
0.0
 40
0.2295458821149458
 40
0.5939486586350166
 40
1.0
 40
1.0
 40
1.0
 40
1.0
 10
8.67500013206079
 20
7.074205874690807
 30
0.0
 10
8.676569402761395
 20
7.075565204559672
 30
0.0
 10
8.680629881734365
 20
7.079082462829856
 30
0.0
 10
8.684833063108838
 20
7.085633087193862
 30
0.0
 10
8.685523952571911
 20
7.090798405950493
 30
0.0
 10
8.68588807106606
 20
7.093520676571183
 30
0.0
  0
POLYLINE
  5
1D6
330
1F
100
AcDbEntity
  8
0
  6
CONTINUOUS
 62
     7
100
AcDb2dPolyline
 66
     1
 10
0.0
 20
0.0
 30
0.0
  0
VERTEX
  5
375
330
1D6
100
AcDbEntity
  8
0
  6
CONTINUOUS
 62
     7
100
AcDbVertex
100
AcDb2dVertex
 10
8.8920471791
 20
6.5493553372
 30
0.0
  0
VERTEX
  5
376
330
1D6
100
AcDbEntity
  8
0
  6
CONTINUOUS
 62
     7
100
AcDbVertex
100
AcDb2dVertex
 10
8.8914345222
 20
6.5615993931
 30
0.0
  0
VERTEX
  5
377
330
1D6
100
AcDbEntity
  8
0
  6
CONTINUOUS
 62
     7
100
AcDbVertex
100
AcDb2dVertex
 10
8.8896042558
 20
6.5729821142
 30
0.0
  0
VERTEX
  5
378
330
1D6
100
AcDbEntity
  8
0
  6
CONTINUOUS
 62
     7
100
AcDbVertex
100
AcDb2dVertex
 10
8.8865793968
 20
6.5833603563
 30
0.0
  0
VERTEX
  5
379
330
1D6
100
AcDbEntity
  8
0
  6
CONTINUOUS
 62
     7
100
AcDbVertex
100
AcDb2dVertex
 10
8.8823979843
 20
6.5926036068
 30
0.0
  0
VERTEX
  5
37A
330
1D6
100
AcDbEntity
  8
0
  6
CONTINUOUS
 62
     7
100
AcDbVertex
100
AcDb2dVertex
 10
8.8771126022
 20
6.6005956266
 30
0.0
  0
VERTEX
  5
37B
330
1D6
100
AcDbEntity
  8
0
  6
CONTINUOUS
 62
     7
100
AcDbVertex
100
AcDb2dVertex
 10
8.8707897172
 20
6.6072359114
 30
0.0
  0
VERTEX
  5
37C
330
1D6
100
AcDbEntity
  8
0
  6
CONTINUOUS
 62
     7
100
AcDbVertex
100
AcDb2dVertex
 10
8.8635088431
 20
6.6124409557
 30
0.0
  0
VERTEX
  5
37D
330
1D6
100
AcDbEntity
  8
0
  6
CONTINUOUS
 62
     7
100
AcDbVertex
100
AcDb2dVertex
 10
8.8553615413
 20
6.616145303
 30
0.0
  0
VERTEX
  5
37E
330
1D6
100
AcDbEntity
  8
0
  6
CONTINUOUS
 62
     7
100
AcDbVertex
100
AcDb2dVertex
 10
8.8464502688
 20
6.6183023692
 30
0.0
  0
VERTEX
  5
37F
330
1D6
100
AcDbEntity
  8
0
  6
CONTINUOUS
 62
     7
100
AcDbVertex
100
AcDb2dVertex
 10
8.83688709
 20
6.6188850278
 30
0.0
  0
VERTEX
  5
380
330
1D6
100
AcDbEntity
  8
0
  6
CONTINUOUS
 62
     7
100
AcDbVertex
100
AcDb2dVertex
 10
8.8267922674
 20
6.6178859515
 30
0.0
  0
VERTEX
  5
381
330
1D6
100
AcDbEntity
  8
0
  6
CONTINUOUS
 62
     7
100
AcDbVertex
100
AcDb2dVertex
 10
8.8162927492
 20
6.6153177043
 30
0.0
  0
VERTEX
  5
382
330
1D6
100
AcDbEntity
  8
0
  6
CONTINUOUS
 62
     7
100
AcDbVertex
100
AcDb2dVertex
 10
8.8055205731
 20
6.6112125834
 30
0.0
  0
VERTEX
  5
383
330
1D6
100
AcDbEntity
  8
0
  6
CONTINUOUS
 62
     7
100
AcDbVertex
100
AcDb2dVertex
 10
8.7972114623
 20
6.6070832363
 30
0.0
  0
SEQEND
  5
384
330
1D6
100
AcDbEntity
  8
0
  6
CONTINUOUS
 62
     7
  0
POLYLINE
  5
1D7
330
1F
100
AcDbEntity
  8
0
  6
CONTINUOUS
 62
     7
100
AcDb2dPolyline
 66
     1
 10
0.0
 20
0.0
 30
0.0
  0
VERTEX
  5
385
330
1D7
100
AcDbEntity
  8
0
  6
CONTINUOUS
 62
     7
100
AcDbVertex
100
AcDb2dVertex
 10
8.6972103579
 20
6.4338574733
 30
0.0
  0
VERTEX
  5
386
330
1D7
100
AcDbEntity
  8
0
  6
CONTINUOUS
 62
     7
100
AcDbVertex
100
AcDb2dVertex
 10
8.6977878885
 20
6.4246141006
 30
0.0
  0
VERTEX
  5
387
330
1D7
100
AcDbEntity
  8
0
  6
CONTINUOUS
 62
     7
100
AcDbVertex
100
AcDb2dVertex
 10
8.6996181548
 20
6.4132313794
 30
0.0
  0
VERTEX
  5
388
330
1D7
100
AcDbEntity
  8
0
  6
CONTINUOUS
 62
     7
100
AcDbVertex
100
AcDb2dVertex
 10
8.7026430139
 20
6.4028531374
 30
0.0
  0
VERTEX
  5
389
330
1D7
100
AcDbEntity
  8
0
  6
CONTINUOUS
 62
     7
100
AcDbVertex
100
AcDb2dVertex
 10
8.7068244263
 20
6.3936098868
 30
0.0
  0
VERTEX
  5
38A
330
1D7
100
AcDbEntity
  8
0
  6
CONTINUOUS
 62
     7
100
AcDbVertex
100
AcDb2dVertex
 10
8.7121098085
 20
6.3856178671
 30
0.0
  0
VERTEX
  5
38B
330
1D7
100
AcDbEntity
  8
0
  6
CONTINUOUS
 62
     7
100
AcDbVertex
100
AcDb2dVertex
 10
8.7184326935
 20
6.3789775823
 30
0.0
  0
VERTEX
  5
38C
330
1D7
100
AcDbEntity
  8
0
  6
CONTINUOUS
 62
     7
100
AcDbVertex
100
AcDb2dVertex
 10
8.7257135675
 20
6.373772538
 30
0.0
  0
VERTEX
  5
38D
330
1D7
100
AcDbEntity
  8
0
  6
CONTINUOUS
 62
     7
100
AcDbVertex
100
AcDb2dVertex
 10
8.7338608693
 20
6.3700681906
 30
0.0
  0
VERTEX
  5
38E
330
1D7
100
AcDbEntity
  8
0
  6
CONTINUOUS
 62
     7
100
AcDbVertex
100
AcDb2dVertex
 10
8.7427721419
 20
6.3679111245
 30
0.0
  0
VERTEX
  5
38F
330
1D7
100
AcDbEntity
  8
0
  6
CONTINUOUS
 62
     7
100
AcDbVertex
100
AcDb2dVertex
 10
8.7523353207
 20
6.3673284659
 30
0.0
  0
VERTEX
  5
390
330
1D7
100
AcDbEntity
  8
0
  6
CONTINUOUS
 62
     7
100
AcDbVertex
100
AcDb2dVertex
 10
8.7624301433
 20
6.3683275422
 30
0.0
  0
VERTEX
  5
391
330
1D7
100
AcDbEntity
  8
0
  6
CONTINUOUS
 62
     7
100
AcDbVertex
100
AcDb2dVertex
 10
8.7729296614
 20
6.3708957894
 30
0.0
  0
VERTEX
  5
392
330
1D7
100
AcDbEntity
  8
0
  6
CONTINUOUS
 62
     7
100
AcDbVertex
100
AcDb2dVertex
 10
8.7837018376
 20
6.3750009103
 30
0.0
  0
VERTEX
  5
393
330
1D7
100
AcDbEntity
  8
0
  6
CONTINUOUS
 62
     7
100
AcDbVertex
100
AcDb2dVertex
 10
8.7946112053
 20
6.3805912806
 30
0.0
  0
VERTEX
  5
394
330
1D7
100
AcDbEntity
  8
0
  6
CONTINUOUS
 62
     7
100
AcDbVertex
100
AcDb2dVertex
 10
8.8055205731
 20
6.3875965982
 30
0.0
  0
VERTEX
  5
395
330
1D7
100
AcDbEntity
  8
0
  6
CONTINUOUS
 62
     7
100
AcDbVertex
100
AcDb2dVertex
 10
8.8162927492
 20
6.3959287671
 30
0.0
  0
VERTEX
  5
396
330
1D7
100
AcDbEntity
  8
0
  6
CONTINUOUS
 62
     7
100
AcDbVertex
100
AcDb2dVertex
 10
8.8267922674
 20
6.4054830055
 30
0.0
  0
VERTEX
  5
397
330
1D7
100
AcDbEntity
  8
0
  6
CONTINUOUS
 62
     7
100
AcDbVertex
100
AcDb2dVertex
 10
8.83688709
 20
6.4161391633
 30
0.0
  0
VERTEX
  5
398
330
1D7
100
AcDbEntity
  8
0
  6
CONTINUOUS
 62
     7
100
AcDbVertex
100
AcDb2dVertex
 10
8.8464502688
 20
6.4277632332
 30
0.0
  0
VERTEX
  5
399
330
1D7
100
AcDbEntity
  8
0
  6
CONTINUOUS
 62
     7
100
AcDbVertex
100
AcDb2dVertex
 10
8.8553615413
 20
6.4402090356
 30
0.0
  0
VERTEX
  5
39A
330
1D7
100
AcDbEntity
  8
0
  6
CONTINUOUS
 62
     7
100
AcDbVertex
100
AcDb2dVertex
 10
8.8635088431
 20
6.4533200574
 30
0.0
  0
VERTEX
  5
39B
330
1D7
100
AcDbEntity
  8
0
  6
CONTINUOUS
 62
     7
100
AcDbVertex
100
AcDb2dVertex
 10
8.8707897172
 20
6.4669314199
 30
0.0
  0
VERTEX
  5
39C
330
1D7
100
AcDbEntity
  8
0
  6
CONTINUOUS
 62
     7
100
AcDbVertex
100
AcDb2dVertex
 10
8.8771126022
 20
6.4808719524
 30
0.0
  0
VERTEX
  5
39D
330
1D7
100
AcDbEntity
  8
0
  6
CONTINUOUS
 62
     7
100
AcDbVertex
100
AcDb2dVertex
 10
8.8823979843
 20
6.4949663444
 30
0.0
  0
VERTEX
  5
39E
330
1D7
100
AcDbEntity
  8
0
  6
CONTINUOUS
 62
     7
100
AcDbVertex
100
AcDb2dVertex
 10
8.8865793968
 20
6.509037351
 30
0.0
  0
VERTEX
  5
39F
330
1D7
100
AcDbEntity
  8
0
  6
CONTINUOUS
 62
     7
100
AcDbVertex
100
AcDb2dVertex
 10
8.8896042558
 20
6.522908021
 30
0.0
  0
VERTEX
  5
3A0
330
1D7
100
AcDbEntity
  8
0
  6
CONTINUOUS
 62
     7
100
AcDbVertex
100
AcDb2dVertex
 10
8.8914345222
 20
6.5364039227
 30
0.0
  0
VERTEX
  5
3A1
330
1D7
100
AcDbEntity
  8
0
  6
CONTINUOUS
 62
     7
100
AcDbVertex
100
AcDb2dVertex
 10
8.8920471791
 20
6.5493553372
 30
0.0
  0
SEQEND
  5
3A2
330
1D7
100
AcDbEntity
  8
0
  6
CONTINUOUS
 62
     7
  0
POLYLINE
  5
1D8
330
1F
100
AcDbEntity
  8
0
  6
CONTINUOUS
 62
     7
100
AcDb2dPolyline
 66
     1
 10
0.0
 20
0.0
 30
0.0
  0
VERTEX
  5
3A3
330
1D8
100
AcDbEntity
  8
0
  6
CONTINUOUS
 62
     7
100
AcDbVertex
100
AcDb2dVertex
 10
7.1140076906
 20
6.9631842522
 30
0.0
  0
VERTEX
  5
3A4
330
1D8
100
AcDbEntity
  8
0
  6
CONTINUOUS
 62
     7
100
AcDbVertex
100
AcDb2dVertex
 10
7.1141586283
 20
6.9764749842
 30
0.0
  0
VERTEX
  5
3A5
330
1D8
100
AcDbEntity
  8
0
  6
CONTINUOUS
 62
     7
100
AcDbVertex
100
AcDb2dVertex
 10
7.1153654982
 20
7.0035420897
 30
0.0
  0
VERTEX
  5
3A6
330
1D8
100
AcDbEntity
  8
0
  6
CONTINUOUS
 62
     7
100
AcDbVertex
100
AcDb2dVertex
 10
7.1177758744
 20
7.0311936648
 30
0.0
  0
VERTEX
  5
3A7
330
1D8
100
AcDbEntity
  8
0
  6
CONTINUOUS
 62
     7
100
AcDbVertex
100
AcDb2dVertex
 10
7.1213830386
 20
7.0593526396
 30
0.0
  0
VERTEX
  5
3A8
330
1D8
100
AcDbEntity
  8
0
  6
CONTINUOUS
 62
     7
100
AcDbVertex
100
AcDb2dVertex
 10
7.1261769371
 20
7.0879405298
 30
0.0
  0
VERTEX
  5
3A9
330
1D8
100
AcDbEntity
  8
0
  6
CONTINUOUS
 62
     7
100
AcDbVertex
100
AcDb2dVertex
 10
7.1321442083
 20
7.116877656
 30
0.0
  0
VERTEX
  5
3AA
330
1D8
100
AcDbEntity
  8
0
  6
CONTINUOUS
 62
     7
100
AcDbVertex
100
AcDb2dVertex
 10
7.1392682205
 20
7.1460833651
 30
0.0
  0
VERTEX
  5
3AB
330
1D8
100
AcDbEntity
  8
0
  6
CONTINUOUS
 62
     7
100
AcDbVertex
100
AcDb2dVertex
 10
7.1475291177
 20
7.1754762557
 30
0.0
  0
VERTEX
  5
3AC
330
1D8
100
AcDbEntity
  8
0
  6
CONTINUOUS
 62
     7
100
AcDbVertex
100
AcDb2dVertex
 10
7.1569038753
 20
7.2049744044
 30
0.0
  0
VERTEX
  5
3AD
330
1D8
100
AcDbEntity
  8
0
  6
CONTINUOUS
 62
     7
100
AcDbVertex
100
AcDb2dVertex
 10
7.1673663642
 20
7.2344955947
 30
0.0
  0
VERTEX
  5
3AE
330
1D8
100
AcDbEntity
  8
0
  6
CONTINUOUS
 62
     7
100
AcDbVertex
100
AcDb2dVertex
 10
7.1788874236
 20
7.2639575457
 30
0.0
  0
VERTEX
  5
3AF
330
1D8
100
AcDbEntity
  8
0
  6
CONTINUOUS
 62
     7
100
AcDbVertex
100
AcDb2dVertex
 10
7.1914349422
 20
7.2932781416
 30
0.0
  0
VERTEX
  5
3B0
330
1D8
100
AcDbEntity
  8
0
  6
CONTINUOUS
 62
     7
100
AcDbVertex
100
AcDb2dVertex
 10
7.2049739478
 20
7.3223756608
 30
0.0
  0
VERTEX
  5
3B1
330
1D8
100
AcDbEntity
  8
0
  6
CONTINUOUS
 62
     7
100
AcDbVertex
100
AcDb2dVertex
 10
7.2194667048
 20
7.351169003
 30
0.0
  0
VERTEX
  5
3B2
330
1D8
100
AcDbEntity
  8
0
  6
CONTINUOUS
 62
     7
100
AcDbVertex
100
AcDb2dVertex
 10
7.2348728192
 20
7.3795779163
 30
0.0
  0
VERTEX
  5
3B3
330
1D8
100
AcDbEntity
  8
0
  6
CONTINUOUS
 62
     7
100
AcDbVertex
100
AcDb2dVertex
 10
7.2511493515
 20
7.4075232198
 30
0.0
  0
VERTEX
  5
3B4
330
1D8
100
AcDbEntity
  8
0
  6
CONTINUOUS
 62
     7
100
AcDbVertex
100
AcDb2dVertex
 10
7.2682509361
 20
7.434927025
 30
0.0
  0
VERTEX
  5
3B5
330
1D8
100
AcDbEntity
  8
0
  6
CONTINUOUS
 62
     7
100
AcDbVertex
100
AcDb2dVertex
 10
7.2861299077
 20
7.4617129525
 30
0.0
  0
VERTEX
  5
3B6
330
1D8
100
AcDbEntity
  8
0
  6
CONTINUOUS
 62
     7
100
AcDbVertex
100
AcDb2dVertex
 10
7.3047364345
 20
7.4878063451
 30
0.0
  0
VERTEX
  5
3B7
330
1D8
100
AcDbEntity
  8
0
  6
CONTINUOUS
 62
     7
100
AcDbVertex
100
AcDb2dVertex
 10
7.3240186568
 20
7.513134476
 30
0.0
  0
VERTEX
  5
3B8
330
1D8
100
AcDbEntity
  8
0
  6
CONTINUOUS
 62
     7
100
AcDbVertex
100
AcDb2dVertex
 10
7.3439228314
 20
7.537626751
 30
0.0
  0
VERTEX
  5
3B9
330
1D8
100
AcDbEntity
  8
0
  6
CONTINUOUS
 62
     7
100
AcDbVertex
100
AcDb2dVertex
 10
7.364393482
 20
7.5612149058
 30
0.0
  0
VERTEX
  5
3BA
330
1D8
100
AcDbEntity
  8
0
  6
CONTINUOUS
 62
     7
100
AcDbVertex
100
AcDb2dVertex
 10
7.3853735532
 20
7.5838331959
 30
0.0
  0
VERTEX
  5
3BB
330
1D8
100
AcDbEntity
  8
0
  6
CONTINUOUS
 62
     7
100
AcDbVertex
100
AcDb2dVertex
 10
7.4068045696
 20
7.6054185802
 30
0.0
  0
VERTEX
  5
3BC
330
1D8
100
AcDbEntity
  8
0
  6
CONTINUOUS
 62
     7
100
AcDbVertex
100
AcDb2dVertex
 10
7.4286267993
 20
7.6259108963
 30
0.0
  0
VERTEX
  5
3BD
330
1D8
100
AcDbEntity
  8
0
  6
CONTINUOUS
 62
     7
100
AcDbVertex
100
AcDb2dVertex
 10
7.4507794198
 20
7.6452530285
 30
0.0
  0
VERTEX
  5
3BE
330
1D8
100
AcDbEntity
  8
0
  6
CONTINUOUS
 62
     7
100
AcDbVertex
100
AcDb2dVertex
 10
7.4732006877
 20
7.6633910666
 30
0.0
  0
VERTEX
  5
3BF
330
1D8
100
AcDbEntity
  8
0
  6
CONTINUOUS
 62
     7
100
AcDbVertex
100
AcDb2dVertex
 10
7.4958281109
 20
7.6802744569
 30
0.0
  0
VERTEX
  5
3C0
330
1D8
100
AcDbEntity
  8
0
  6
CONTINUOUS
 62
     7
100
AcDbVertex
100
AcDb2dVertex
 10
7.5185986229
 20
7.6958561422
 30
0.0
  0
VERTEX
  5
3C1
330
1D8
100
AcDbEntity
  8
0
  6
CONTINUOUS
 62
     7
100
AcDbVertex
100
AcDb2dVertex
 10
7.5414487579
 20
7.7100926936
 30
0.0
  0
VERTEX
  5
3C2
330
1D8
100
AcDbEntity
  8
0
  6
CONTINUOUS
 62
     7
100
AcDbVertex
100
AcDb2dVertex
 10
7.5470958714
 20
7.7133962724
 30
0.0
  0
SEQEND
  5
3C3
330
1D8
100
AcDbEntity
  8
0
  6
CONTINUOUS
 62
     7
  0
SPLINE
  5
1D9
330
1F
100
AcDbEntity
  8
0
  6
CONTINUOUS
 62
     7
100
AcDbSpline
210
0.0
220
0.0
230
1.0
 70
     8
 71
     3
 72
    11
 73
     7
 74
     0
 42
0.00000001
 43
0.00000001
 40
0.0
 40
0.0
 40
0.0
 40
0.0
 40
0.3191406458494668
 40
0.6052121441338574
 40
0.8573245471441118
 40
1.0
 40
1.0
 40
1.0
 40
1.0
 10
7.661194757811817
 20
7.607793885680722
 30
0.0
 10
7.661535694253494
 20
7.604522991999001
 30
0.0
 10
7.662182239523001
 20
7.598320132525934
 30
0.0
 10
7.667061530026672
 20
7.590155507758476
 30
0.0
 10
7.672525413963164
 20
7.58420008811517
 30
0.0
 10
7.676824810059133
 20
7.581386570516128
 30
0.0
 10
7.67837860224368
 20
7.580369771514849
 30
0.0
  0
SPLINE
  5
1DA
330
1F
100
AcDbEntity
  8
0
  6
CONTINUOUS
 62
     7
100
AcDbSpline
210
0.0
220
0.0
230
1.0
 70
     8
 71
     3
 72
    10
 73
     6
 74
     0
 42
0.00000001
 43
0.00000001
 40
0.0
 40
0.0
 40
0.0
 40
0.0
 40
0.2295458821056839
 40
0.5939486586268954
 40
1.0
 40
1.0
 40
1.0
 40
1.0
 10
7.784156943164208
 20
7.588478701035714
 30
0.0
 10
7.785726213864776
 20
7.589838030904529
 30
0.0
 10
7.78978669283776
 20
7.593355289174676
 30
0.0
 10
7.79398987421235
 20
7.599905913538707
 30
0.0
 10
7.794680763675455
 20
7.605071232295434
 30
0.0
 10
7.795044882169625
 20
7.607793502916197
 30
0.0
  0
POLYLINE
  5
1DB
330
1F
100
AcDbEntity
  8
0
  6
CONTINUOUS
 62
     7
100
AcDb2dPolyline
 66
     1
 10
0.0
 20
0.0
 30
0.0
  0
VERTEX
  5
3C4
330
1DB
100
AcDbEntity
  8
0
  6
CONTINUOUS
 62
     7
100
AcDbVertex
100
AcDb2dVertex
 10
7.775444839
 20
7.5836958606
 30
0.0
  0
VERTEX
  5
3C5
330
1DB
100
AcDbEntity
  8
0
  6
CONTINUOUS
 62
     7
100
AcDbVertex
100
AcDb2dVertex
 10
7.7824236105
 20
7.5884322126
 30
0.0
  0
VERTEX
  5
3C6
330
1DB
100
AcDbEntity
  8
0
  6
CONTINUOUS
 62
     7
100
AcDbVertex
100
AcDb2dVertex
 10
7.7879959159
 20
7.5937534884
 30
0.0
  0
VERTEX
  5
3C7
330
1DB
100
AcDbEntity
  8
0
  6
CONTINUOUS
 62
     7
100
AcDbVertex
100
AcDb2dVertex
 10
7.7920174352
 20
7.5995218699
 30
0.0
  0
VERTEX
  5
3C8
330
1DB
100
AcDbEntity
  8
0
  6
CONTINUOUS
 62
     7
100
AcDbVertex
100
AcDb2dVertex
 10
7.7943840134
 20
7.605587959
 30
0.0
  0
VERTEX
  5
3C9
330
1DB
100
AcDbEntity
  8
0
  6
CONTINUOUS
 62
     7
100
AcDbVertex
100
AcDb2dVertex
 10
7.7950343571
 20
7.6117946472
 30
0.0
  0
VERTEX
  5
3CA
330
1DB
100
AcDbEntity
  8
0
  6
CONTINUOUS
 62
     7
100
AcDbVertex
100
AcDb2dVertex
 10
7.793951623
 20
7.6179811844
 30
0.0
  0
VERTEX
  5
3CB
330
1DB
100
AcDbEntity
  8
0
  6
CONTINUOUS
 62
     7
100
AcDbVertex
100
AcDb2dVertex
 10
7.7911638531
 20
7.6239873427
 30
0.0
  0
VERTEX
  5
3CC
330
1DB
100
AcDbEntity
  8
0
  6
CONTINUOUS
 62
     7
100
AcDbVertex
100
AcDb2dVertex
 10
7.7867432494
 20
7.6296575657
 30
0.0
  0
VERTEX
  5
3CD
330
1DB
100
AcDbEntity
  8
0
  6
CONTINUOUS
 62
     7
100
AcDbVertex
100
AcDb2dVertex
 10
7.7808043031
 20
7.6348449976
 30
0.0
  0
VERTEX
  5
3CE
330
1DB
100
AcDbEntity
  8
0
  6
CONTINUOUS
 62
     7
100
AcDbVertex
100
AcDb2dVertex
 10
7.7754525289
 20
7.6383329083
 30
0.0
  0
SEQEND
  5
3CF
330
1DB
100
AcDbEntity
  8
0
  6
CONTINUOUS
 62
     7
  0
POLYLINE
  5
1DC
330
1F
100
AcDbEntity
  8
0
  6
CONTINUOUS
 62
     7
100
AcDb2dPolyline
 66
     1
 10
0.0
 20
0.0
 30
0.0
  0
VERTEX
  5
3D0
330
1DC
100
AcDbEntity
  8
0
  6
CONTINUOUS
 62
     7
100
AcDbVertex
100
AcDb2dVertex
 10
7.6807850602
 20
7.6383329083
 30
0.0
  0
VERTEX
  5
3D1
330
1DC
100
AcDbEntity
  8
0
  6
CONTINUOUS
 62
     7
100
AcDbVertex
100
AcDb2dVertex
 10
7.6771380495
 20
7.6360503491
 30
0.0
  0
VERTEX
  5
3D2
330
1DC
100
AcDbEntity
  8
0
  6
CONTINUOUS
 62
     7
100
AcDbVertex
100
AcDb2dVertex
 10
7.6708420952
 20
7.6310051752
 30
0.0
  0
VERTEX
  5
3D3
330
1DC
100
AcDbEntity
  8
0
  6
CONTINUOUS
 62
     7
100
AcDbVertex
100
AcDb2dVertex
 10
7.6660295774
 20
7.6254423079
 30
0.0
  0
VERTEX
  5
3D4
330
1DC
100
AcDbEntity
  8
0
  6
CONTINUOUS
 62
     7
100
AcDbVertex
100
AcDb2dVertex
 10
7.6628251376
 20
7.6195058224
 30
0.0
  0
VERTEX
  5
3D5
330
1DC
100
AcDbEntity
  8
0
  6
CONTINUOUS
 62
     7
100
AcDbVertex
100
AcDb2dVertex
 10
7.6613117693
 20
7.6133494706
 30
0.0
  0
VERTEX
  5
3D6
330
1DC
100
AcDbEntity
  8
0
  6
CONTINUOUS
 62
     7
100
AcDbVertex
100
AcDb2dVertex
 10
7.6615286678
 20
7.6071326988
 30
0.0
  0
VERTEX
  5
3D7
330
1DC
100
AcDbEntity
  8
0
  6
CONTINUOUS
 62
     7
100
AcDbVertex
100
AcDb2dVertex
 10
7.6634702156
 20
7.6010165182
 30
0.0
  0
VERTEX
  5
3D8
330
1DC
100
AcDbEntity
  8
0
  6
CONTINUOUS
 62
     7
100
AcDbVertex
100
AcDb2dVertex
 10
7.6670861277
 20
7.5951593345
 30
0.0
  0
VERTEX
  5
3D9
330
1DC
100
AcDbEntity
  8
0
  6
CONTINUOUS
 62
     7
100
AcDbVertex
100
AcDb2dVertex
 10
7.6722827538
 20
7.5897128457
 30
0.0
  0
VERTEX
  5
3DA
330
1DC
100
AcDbEntity
  8
0
  6
CONTINUOUS
 62
     7
100
AcDbVertex
100
AcDb2dVertex
 10
7.678925504
 20
7.5848181132
 30
0.0
  0
VERTEX
  5
3DB
330
1DC
100
AcDbEntity
  8
0
  6
CONTINUOUS
 62
     7
100
AcDbVertex
100
AcDb2dVertex
 10
7.6868423346
 20
7.5806019078
 30
0.0
  0
VERTEX
  5
3DC
330
1DC
100
AcDbEntity
  8
0
  6
CONTINUOUS
 62
     7
100
AcDbVertex
100
AcDb2dVertex
 10
7.6958282038
 20
7.5771734271
 30
0.0
  0
VERTEX
  5
3DD
330
1DC
100
AcDbEntity
  8
0
  6
CONTINUOUS
 62
     7
100
AcDbVertex
100
AcDb2dVertex
 10
7.7056503824
 20
7.5746214668
 30
0.0
  0
VERTEX
  5
3DE
330
1DC
100
AcDbEntity
  8
0
  6
CONTINUOUS
 62
     7
100
AcDbVertex
100
AcDb2dVertex
 10
7.716054481
 20
7.5730121216
 30
0.0
  0
VERTEX
  5
3DF
330
1DC
100
AcDbEntity
  8
0
  6
CONTINUOUS
 62
     7
100
AcDbVertex
100
AcDb2dVertex
 10
7.726771039
 20
7.5723870725
 30
0.0
  0
VERTEX
  5
3E0
330
1DC
100
AcDbEntity
  8
0
  6
CONTINUOUS
 62
     7
100
AcDbVertex
100
AcDb2dVertex
 10
7.7375225032
 20
7.5727625079
 30
0.0
  0
VERTEX
  5
3E1
330
1DC
100
AcDbEntity
  8
0
  6
CONTINUOUS
 62
     7
100
AcDbVertex
100
AcDb2dVertex
 10
7.7480304163
 20
7.5741287044
 30
0.0
  0
VERTEX
  5
3E2
330
1DC
100
AcDbEntity
  8
0
  6
CONTINUOUS
 62
     7
100
AcDbVertex
100
AcDb2dVertex
 10
7.7580226288
 20
7.5764502781
 30
0.0
  0
VERTEX
  5
3E3
330
1DC
100
AcDbEntity
  8
0
  6
CONTINUOUS
 62
     7
100
AcDbVertex
100
AcDb2dVertex
 10
7.7672403477
 20
7.5796671015
 30
0.0
  0
VERTEX
  5
3E4
330
1DC
100
AcDbEntity
  8
0
  6
CONTINUOUS
 62
     7
100
AcDbVertex
100
AcDb2dVertex
 10
7.775444839
 20
7.5836958606
 30
0.0
  0
SEQEND
  5
3E5
330
1DC
100
AcDbEntity
  8
0
  6
CONTINUOUS
 62
     7
  0
POLYLINE
  5
1DD
330
1F
100
AcDbEntity
  8
0
  6
CONTINUOUS
 62
     7
100
AcDb2dPolyline
 66
     1
 10
0.0
 20
0.0
 30
0.0
  0
VERTEX
  5
3E6
330
1DD
100
AcDbEntity
  8
0
  6
CONTINUOUS
 62
     7
100
AcDbVertex
100
AcDb2dVertex
 10
7.7719093051
 20
7.5898195849
 30
0.0
  0
VERTEX
  5
3E7
330
1DD
100
AcDbEntity
  8
0
  6
CONTINUOUS
 62
     7
100
AcDbVertex
100
AcDb2dVertex
 10
7.7638787862
 20
7.5859109167
 30
0.0
  0
VERTEX
  5
3E8
330
1DD
100
AcDbEntity
  8
0
  6
CONTINUOUS
 62
     7
100
AcDbVertex
100
AcDb2dVertex
 10
7.7548195176
 20
7.5828419454
 30
0.0
  0
VERTEX
  5
3E9
330
1DD
100
AcDbEntity
  8
0
  6
CONTINUOUS
 62
     7
100
AcDbVertex
100
AcDb2dVertex
 10
7.7449921177
 20
7.5807009596
 30
0.0
  0
VERTEX
  5
3EA
330
1DD
100
AcDbEntity
  8
0
  6
CONTINUOUS
 62
     7
100
AcDbVertex
100
AcDb2dVertex
 10
7.734679303
 20
7.5795495518
 30
0.0
  0
VERTEX
  5
3EB
330
1DD
100
AcDbEntity
  8
0
  6
CONTINUOUS
 62
     7
100
AcDbVertex
100
AcDb2dVertex
 10
7.7241777545
 20
7.5794208457
 30
0.0
  0
VERTEX
  5
3EC
330
1DD
100
AcDbEntity
  8
0
  6
CONTINUOUS
 62
     7
100
AcDbVertex
100
AcDb2dVertex
 10
7.7137895825
 20
7.5803185441
 30
0.0
  0
VERTEX
  5
3ED
330
1DD
100
AcDbEntity
  8
0
  6
CONTINUOUS
 62
     7
100
AcDbVertex
100
AcDb2dVertex
 10
7.7038136359
 20
7.5822168217
 30
0.0
  0
VERTEX
  5
3EE
330
1DD
100
AcDbEntity
  8
0
  6
CONTINUOUS
 62
     7
100
AcDbVertex
100
AcDb2dVertex
 10
7.6945369044
 20
7.5850610685
 30
0.0
  0
VERTEX
  5
3EF
330
1DD
100
AcDbEntity
  8
0
  6
CONTINUOUS
 62
     7
100
AcDbVertex
100
AcDb2dVertex
 10
7.6862262627
 20
7.5887694609
 30
0.0
  0
VERTEX
  5
3F0
330
1DD
100
AcDbEntity
  8
0
  6
CONTINUOUS
 62
     7
100
AcDbVertex
100
AcDb2dVertex
 10
7.679120793
 20
7.593235315
 30
0.0
  0
VERTEX
  5
3F1
330
1DD
100
AcDbEntity
  8
0
  6
CONTINUOUS
 62
     7
100
AcDbVertex
100
AcDb2dVertex
 10
7.6734249065
 20
7.5983301565
 30
0.0
  0
VERTEX
  5
3F2
330
1DD
100
AcDbEntity
  8
0
  6
CONTINUOUS
 62
     7
100
AcDbVertex
100
AcDb2dVertex
 10
7.6693024636
 20
7.6039074159
 30
0.0
  0
VERTEX
  5
3F3
330
1DD
100
AcDbEntity
  8
0
  6
CONTINUOUS
 62
     7
100
AcDbVertex
100
AcDb2dVertex
 10
7.6668720594
 20
7.6098066456
 30
0.0
  0
VERTEX
  5
3F4
330
1DD
100
AcDbEntity
  8
0
  6
CONTINUOUS
 62
     7
100
AcDbVertex
100
AcDb2dVertex
 10
7.6662036123
 20
7.6158581357
 30
0.0
  0
VERTEX
  5
3F5
330
1DD
100
AcDbEntity
  8
0
  6
CONTINUOUS
 62
     7
100
AcDbVertex
100
AcDb2dVertex
 10
7.6673163523
 20
7.6218877957
 30
0.0
  0
VERTEX
  5
3F6
330
1DD
100
AcDbEntity
  8
0
  6
CONTINUOUS
 62
     7
100
AcDbVertex
100
AcDb2dVertex
 10
7.6701782678
 20
7.6277221632
 30
0.0
  0
VERTEX
  5
3F7
330
1DD
100
AcDbEntity
  8
0
  6
CONTINUOUS
 62
     7
100
AcDbVertex
100
AcDb2dVertex
 10
7.6747070268
 20
7.6331933942
 30
0.0
  0
VERTEX
  5
3F8
330
1DD
100
AcDbEntity
  8
0
  6
CONTINUOUS
 62
     7
100
AcDbVertex
100
AcDb2dVertex
 10
7.6807723451
 20
7.6381440913
 30
0.0
  0
VERTEX
  5
3F9
330
1DD
100
AcDbEntity
  8
0
  6
CONTINUOUS
 62
     7
100
AcDbVertex
100
AcDb2dVertex
 10
7.6881997346
 20
7.642431832
 30
0.0
  0
VERTEX
  5
3FA
330
1DD
100
AcDbEntity
  8
0
  6
CONTINUOUS
 62
     7
100
AcDbVertex
100
AcDb2dVertex
 10
7.6967755227
 20
7.6459332657
 30
0.0
  0
VERTEX
  5
3FB
330
1DD
100
AcDbEntity
  8
0
  6
CONTINUOUS
 62
     7
100
AcDbVertex
100
AcDb2dVertex
 10
7.7062529997
 20
7.6485476626
 30
0.0
  0
VERTEX
  5
3FC
330
1DD
100
AcDbEntity
  8
0
  6
CONTINUOUS
 62
     7
100
AcDbVertex
100
AcDb2dVertex
 10
7.7163595158
 20
7.6501998113
 30
0.0
  0
VERTEX
  5
3FD
330
1DD
100
AcDbEntity
  8
0
  6
CONTINUOUS
 62
     7
100
AcDbVertex
100
AcDb2dVertex
 10
7.7268043249
 20
7.6508421824
 30
0.0
  0
VERTEX
  5
3FE
330
1DD
100
AcDbEntity
  8
0
  6
CONTINUOUS
 62
     7
100
AcDbVertex
100
AcDb2dVertex
 10
7.737286949
 20
7.6504562961
 30
0.0
  0
VERTEX
  5
3FF
330
1DD
100
AcDbEntity
  8
0
  6
CONTINUOUS
 62
     7
100
AcDbVertex
100
AcDb2dVertex
 10
7.7475058219
 20
7.6490532537
 30
0.0
  0
VERTEX
  5
400
330
1DD
100
AcDbEntity
  8
0
  6
CONTINUOUS
 62
     7
100
AcDbVertex
100
AcDb2dVertex
 10
7.7571669654
 20
7.646673418
 30
0.0
  0
VERTEX
  5
401
330
1DD
100
AcDbEntity
  8
0
  6
CONTINUOUS
 62
     7
100
AcDbVertex
100
AcDb2dVertex
 10
7.7659924458
 20
7.6433852528
 30
0.0
  0
VERTEX
  5
402
330
1DD
100
AcDbEntity
  8
0
  6
CONTINUOUS
 62
     7
100
AcDbVertex
100
AcDb2dVertex
 10
7.7737283703
 20
7.6392833524
 30
0.0
  0
VERTEX
  5
403
330
1DD
100
AcDbEntity
  8
0
  6
CONTINUOUS
 62
     7
100
AcDbVertex
100
AcDb2dVertex
 10
7.7801521903
 20
7.6344857211
 30
0.0
  0
VERTEX
  5
404
330
1DD
100
AcDbEntity
  8
0
  6
CONTINUOUS
 62
     7
100
AcDbVertex
100
AcDb2dVertex
 10
7.7850791043
 20
7.629130378
 30
0.0
  0
VERTEX
  5
405
330
1DD
100
AcDbEntity
  8
0
  6
CONTINUOUS
 62
     7
100
AcDbVertex
100
AcDb2dVertex
 10
7.7883673738
 20
7.6233713866
 30
0.0
  0
VERTEX
  5
406
330
1DD
100
AcDbEntity
  8
0
  6
CONTINUOUS
 62
     7
100
AcDbVertex
100
AcDb2dVertex
 10
7.7899224014
 20
7.6173744225
 30
0.0
  0
VERTEX
  5
407
330
1DD
100
AcDbEntity
  8
0
  6
CONTINUOUS
 62
     7
100
AcDbVertex
100
AcDb2dVertex
 10
7.7896994518
 20
7.6113120076
 30
0.0
  0
VERTEX
  5
408
330
1DD
100
AcDbEntity
  8
0
  6
CONTINUOUS
 62
     7
100
AcDbVertex
100
AcDb2dVertex
 10
7.7877049388
 20
7.6053585464
 30
0.0
  0
VERTEX
  5
409
330
1DD
100
AcDbEntity
  8
0
  6
CONTINUOUS
 62
     7
100
AcDbVertex
100
AcDb2dVertex
 10
7.7839962409
 20
7.5996853092
 30
0.0
  0
VERTEX
  5
40A
330
1DD
100
AcDbEntity
  8
0
  6
CONTINUOUS
 62
     7
100
AcDbVertex
100
AcDb2dVertex
 10
7.7786800506
 20
7.5944555048
 30
0.0
  0
VERTEX
  5
40B
330
1DD
100
AcDbEntity
  8
0
  6
CONTINUOUS
 62
     7
100
AcDbVertex
100
AcDb2dVertex
 10
7.7719093051
 20
7.5898195849
 30
0.0
  0
SEQEND
  5
40C
330
1DD
100
AcDbEntity
  8
0
  6
CONTINUOUS
 62
     7
  0
LINE
  5
1DE
330
1F
100
AcDbEntity
  8
0
  6
CONTINUOUS
 62
     7
100
AcDbLine
 10
7.6806125936
 20
7.6224477471
 30
0.0
 11
7.7153895464
 21
7.6425240546
 31
0.0
  0
LINE
  5
1DF
330
1F
100
AcDbEntity
  8
0
  6
CONTINUOUS
 62
     7
100
AcDbLine
 10
7.6933418418
 20
7.595023001
 30
0.0
 11
7.6806125936
 21
7.6224477471
 31
0.0
  0
LINE
  5
1E0
330
1F
100
AcDbEntity
  8
0
  6
CONTINUOUS
 62
     7
100
AcDbLine
 10
7.7408480427
 20
7.5876745625
 30
0.0
 11
7.6933418418
 21
7.595023001
 31
0.0
  0
LINE
  5
1E1
330
1F
100
AcDbEntity
  8
0
  6
CONTINUOUS
 62
     7
100
AcDbLine
 10
7.7756249955
 20
7.60775087
 30
0.0
 11
7.7408480427
 21
7.5876745625
 31
0.0
  0
LINE
  5
1E2
330
1F
100
AcDbEntity
  8
0
  6
CONTINUOUS
 62
     7
100
AcDbLine
 10
7.7628957473
 20
7.635175616
 30
0.0
 11
7.7756249955
 21
7.60775087
 31
0.0
  0
LINE
  5
1E3
330
1F
100
AcDbEntity
  8
0
  6
CONTINUOUS
 62
     7
100
AcDbLine
 10
7.7153895464
 20
7.6425240546
 30
0.0
 11
7.7628957473
 21
7.635175616
 31
0.0
  0
LINE
  5
1E4
330
1F
100
AcDbEntity
  8
0
  6
CONTINUOUS
 62
     7
100
AcDbLine
 10
7.7628957473
 20
7.6147620957
 30
0.0
 11
7.7681523188
 21
7.6034369855
 31
0.0
  0
LINE
  5
1E5
330
1F
100
AcDbEntity
  8
0
  6
CONTINUOUS
 62
     7
100
AcDbLine
 10
7.6880852703
 20
7.6063481112
 30
0.0
 11
7.7153895464
 21
7.6221105343
 31
0.0
  0
LINE
  5
1E6
330
1F
100
AcDbEntity
  8
0
  6
CONTINUOUS
 62
     7
100
AcDbLine
 10
7.7153895464
 20
7.6221105343
 30
0.0
 11
7.7628957473
 21
7.6147620957
 31
0.0
  0
LINE
  5
1E7
330
1F
100
AcDbEntity
  8
0
  6
CONTINUOUS
 62
     7
100
AcDbLine
 10
7.7628957473
 20
7.6147620957
 30
0.0
 11
7.7628957473
 21
7.635175616
 31
0.0
  0
LINE
  5
1E8
330
1F
100
AcDbEntity
  8
0
  6
CONTINUOUS
 62
     7
100
AcDbLine
 10
7.7153895464
 20
7.6221105343
 30
0.0
 11
7.7153895464
 21
7.6425240546
 31
0.0
  0
POLYLINE
  5
1E9
330
1F
100
AcDbEntity
  8
0
  6
CONTINUOUS
 62
     7
100
AcDb2dPolyline
 66
     1
 10
0.0
 20
0.0
 30
0.0
  0
VERTEX
  5
40D
330
1E9
100
AcDbEntity
  8
0
  6
CONTINUOUS
 62
     7
100
AcDbVertex
100
AcDb2dVertex
 10
8.6662957178
 20
7.124060082
 30
0.0
  0
VERTEX
  5
40E
330
1E9
100
AcDbEntity
  8
0
  6
CONTINUOUS
 62
     7
100
AcDbVertex
100
AcDb2dVertex
 10
8.668155274
 20
7.1229422694
 30
0.0
  0
VERTEX
  5
40F
330
1E9
100
AcDbEntity
  8
0
  6
CONTINUOUS
 62
     7
100
AcDbVertex
100
AcDb2dVertex
 10
8.6747980242
 20
7.1180475369
 30
0.0
  0
VERTEX
  5
410
330
1E9
100
AcDbEntity
  8
0
  6
CONTINUOUS
 62
     7
100
AcDbVertex
100
AcDb2dVertex
 10
8.6799946503
 20
7.1126010481
 30
0.0
  0
VERTEX
  5
411
330
1E9
100
AcDbEntity
  8
0
  6
CONTINUOUS
 62
     7
100
AcDbVertex
100
AcDb2dVertex
 10
8.6836105624
 20
7.1067438644
 30
0.0
  0
VERTEX
  5
412
330
1E9
100
AcDbEntity
  8
0
  6
CONTINUOUS
 62
     7
100
AcDbVertex
100
AcDb2dVertex
 10
8.6855521102
 20
7.1006276838
 30
0.0
  0
VERTEX
  5
413
330
1E9
100
AcDbEntity
  8
0
  6
CONTINUOUS
 62
     7
100
AcDbVertex
100
AcDb2dVertex
 10
8.6857690087
 20
7.094410912
 30
0.0
  0
VERTEX
  5
414
330
1E9
100
AcDbEntity
  8
0
  6
CONTINUOUS
 62
     7
100
AcDbVertex
100
AcDb2dVertex
 10
8.6842556404
 20
7.0882545602
 30
0.0
  0
VERTEX
  5
415
330
1E9
100
AcDbEntity
  8
0
  6
CONTINUOUS
 62
     7
100
AcDbVertex
100
AcDb2dVertex
 10
8.6810512006
 20
7.0823180747
 30
0.0
  0
VERTEX
  5
416
330
1E9
100
AcDbEntity
  8
0
  6
CONTINUOUS
 62
     7
100
AcDbVertex
100
AcDb2dVertex
 10
8.6762386828
 20
7.0767552074
 30
0.0
  0
VERTEX
  5
417
330
1E9
100
AcDbEntity
  8
0
  6
CONTINUOUS
 62
     7
100
AcDbVertex
100
AcDb2dVertex
 10
8.6699427285
 20
7.0717100335
 30
0.0
  0
VERTEX
  5
418
330
1E9
100
AcDbEntity
  8
0
  6
CONTINUOUS
 62
     7
100
AcDbVertex
100
AcDb2dVertex
 10
8.6623263997
 20
7.0673132205
 30
0.0
  0
VERTEX
  5
419
330
1E9
100
AcDbEntity
  8
0
  6
CONTINUOUS
 62
     7
100
AcDbVertex
100
AcDb2dVertex
 10
8.6535869553
 20
7.0636786434
 30
0.0
  0
VERTEX
  5
41A
330
1E9
100
AcDbEntity
  8
0
  6
CONTINUOUS
 62
     7
100
AcDbVertex
100
AcDb2dVertex
 10
8.6439507423
 20
7.060900436
 30
0.0
  0
VERTEX
  5
41B
330
1E9
100
AcDbEntity
  8
0
  6
CONTINUOUS
 62
     7
100
AcDbVertex
100
AcDb2dVertex
 10
8.6336673335
 20
7.0590505523
 30
0.0
  0
VERTEX
  5
41C
330
1E9
100
AcDbEntity
  8
0
  6
CONTINUOUS
 62
     7
100
AcDbVertex
100
AcDb2dVertex
 10
8.623003064
 20
7.0581769033
 30
0.0
  0
VERTEX
  5
41D
330
1E9
100
AcDbEntity
  8
0
  6
CONTINUOUS
 62
     7
100
AcDbVertex
100
AcDb2dVertex
 10
8.6122341326
 20
7.0583021162
 30
0.0
  0
VERTEX
  5
41E
330
1E9
100
AcDbEntity
  8
0
  6
CONTINUOUS
 62
     7
100
AcDbVertex
100
AcDb2dVertex
 10
8.6016394489
 20
7.0594229479
 30
0.0
  0
VERTEX
  5
41F
330
1E9
100
AcDbEntity
  8
0
  6
CONTINUOUS
 62
     7
100
AcDbVertex
100
AcDb2dVertex
 10
8.5914934099
 20
7.0615103695
 30
0.0
  0
VERTEX
  5
420
330
1E9
100
AcDbEntity
  8
0
  6
CONTINUOUS
 62
     7
100
AcDbVertex
100
AcDb2dVertex
 10
8.5820587924
 20
7.0645103179
 30
0.0
  0
VERTEX
  5
421
330
1E9
100
AcDbEntity
  8
0
  6
CONTINUOUS
 62
     7
100
AcDbVertex
100
AcDb2dVertex
 10
8.5735799482
 20
7.068345096
 30
0.0
  0
VERTEX
  5
422
330
1E9
100
AcDbEntity
  8
0
  6
CONTINUOUS
 62
     7
100
AcDbVertex
100
AcDb2dVertex
 10
8.5662764749
 20
7.072915385
 30
0.0
  0
VERTEX
  5
423
330
1E9
100
AcDbEntity
  8
0
  6
CONTINUOUS
 62
     7
100
AcDbVertex
100
AcDb2dVertex
 10
8.5603375286
 20
7.0781028169
 30
0.0
  0
VERTEX
  5
424
330
1E9
100
AcDbEntity
  8
0
  6
CONTINUOUS
 62
     7
100
AcDbVertex
100
AcDb2dVertex
 10
8.5559169249
 20
7.0837730399
 30
0.0
  0
VERTEX
  5
425
330
1E9
100
AcDbEntity
  8
0
  6
CONTINUOUS
 62
     7
100
AcDbVertex
100
AcDb2dVertex
 10
8.553129155
 20
7.0897791982
 30
0.0
  0
VERTEX
  5
426
330
1E9
100
AcDbEntity
  8
0
  6
CONTINUOUS
 62
     7
100
AcDbVertex
100
AcDb2dVertex
 10
8.5520464209
 20
7.0959657354
 30
0.0
  0
VERTEX
  5
427
330
1E9
100
AcDbEntity
  8
0
  6
CONTINUOUS
 62
     7
100
AcDbVertex
100
AcDb2dVertex
 10
8.5526967646
 20
7.1021724236
 30
0.0
  0
VERTEX
  5
428
330
1E9
100
AcDbEntity
  8
0
  6
CONTINUOUS
 62
     7
100
AcDbVertex
100
AcDb2dVertex
 10
8.5550633428
 20
7.1082385127
 30
0.0
  0
VERTEX
  5
429
330
1E9
100
AcDbEntity
  8
0
  6
CONTINUOUS
 62
     7
100
AcDbVertex
100
AcDb2dVertex
 10
8.5590848621
 20
7.1140068942
 30
0.0
  0
VERTEX
  5
42A
330
1E9
100
AcDbEntity
  8
0
  6
CONTINUOUS
 62
     7
100
AcDbVertex
100
AcDb2dVertex
 10
8.5646571675
 20
7.11932817
 30
0.0
  0
VERTEX
  5
42B
330
1E9
100
AcDbEntity
  8
0
  6
CONTINUOUS
 62
     7
100
AcDbVertex
100
AcDb2dVertex
 10
8.571635939
 20
7.124064522
 30
0.0
  0
VERTEX
  5
42C
330
1E9
100
AcDbEntity
  8
0
  6
CONTINUOUS
 62
     7
100
AcDbVertex
100
AcDb2dVertex
 10
8.571635939
 20
7.124064522
 30
0.0
  0
SEQEND
  5
42D
330
1E9
100
AcDbEntity
  8
0
  6
CONTINUOUS
 62
     7
  0
POLYLINE
  5
1EA
330
1F
100
AcDbEntity
  8
0
  6
CONTINUOUS
 62
     7
100
AcDb2dPolyline
 66
     1
 10
0.0
 20
0.0
 30
0.0
  0
VERTEX
  5
42E
330
1EA
100
AcDbEntity
  8
0
  6
CONTINUOUS
 62
     7
100
AcDbVertex
100
AcDb2dVertex
 10
8.5751714729
 20
7.1261062058
 30
0.0
  0
VERTEX
  5
42F
330
1EA
100
AcDbEntity
  8
0
  6
CONTINUOUS
 62
     7
100
AcDbVertex
100
AcDb2dVertex
 10
8.5684007274
 20
7.121470286
 30
0.0
  0
VERTEX
  5
430
330
1EA
100
AcDbEntity
  8
0
  6
CONTINUOUS
 62
     7
100
AcDbVertex
100
AcDb2dVertex
 10
8.5630845371
 20
7.1162404815
 30
0.0
  0
VERTEX
  5
431
330
1EA
100
AcDbEntity
  8
0
  6
CONTINUOUS
 62
     7
100
AcDbVertex
100
AcDb2dVertex
 10
8.5593758392
 20
7.1105672443
 30
0.0
  0
VERTEX
  5
432
330
1EA
100
AcDbEntity
  8
0
  6
CONTINUOUS
 62
     7
100
AcDbVertex
100
AcDb2dVertex
 10
8.5573813262
 20
7.1046137831
 30
0.0
  0
VERTEX
  5
433
330
1EA
100
AcDbEntity
  8
0
  6
CONTINUOUS
 62
     7
100
AcDbVertex
100
AcDb2dVertex
 10
8.5571583766
 20
7.0985513682
 30
0.0
  0
VERTEX
  5
434
330
1EA
100
AcDbEntity
  8
0
  6
CONTINUOUS
 62
     7
100
AcDbVertex
100
AcDb2dVertex
 10
8.5587134042
 20
7.0925544041
 30
0.0
  0
VERTEX
  5
435
330
1EA
100
AcDbEntity
  8
0
  6
CONTINUOUS
 62
     7
100
AcDbVertex
100
AcDb2dVertex
 10
8.5620016737
 20
7.0867954127
 30
0.0
  0
VERTEX
  5
436
330
1EA
100
AcDbEntity
  8
0
  6
CONTINUOUS
 62
     7
100
AcDbVertex
100
AcDb2dVertex
 10
8.5669285877
 20
7.0814400696
 30
0.0
  0
VERTEX
  5
437
330
1EA
100
AcDbEntity
  8
0
  6
CONTINUOUS
 62
     7
100
AcDbVertex
100
AcDb2dVertex
 10
8.5733524077
 20
7.0766424383
 30
0.0
  0
VERTEX
  5
438
330
1EA
100
AcDbEntity
  8
0
  6
CONTINUOUS
 62
     7
100
AcDbVertex
100
AcDb2dVertex
 10
8.5810883322
 20
7.0725405379
 30
0.0
  0
VERTEX
  5
439
330
1EA
100
AcDbEntity
  8
0
  6
CONTINUOUS
 62
     7
100
AcDbVertex
100
AcDb2dVertex
 10
8.5899138126
 20
7.0692523727
 30
0.0
  0
VERTEX
  5
43A
330
1EA
100
AcDbEntity
  8
0
  6
CONTINUOUS
 62
     7
100
AcDbVertex
100
AcDb2dVertex
 10
8.5995749561
 20
7.066872537
 30
0.0
  0
VERTEX
  5
43B
330
1EA
100
AcDbEntity
  8
0
  6
CONTINUOUS
 62
     7
100
AcDbVertex
100
AcDb2dVertex
 10
8.609793829
 20
7.0654694946
 30
0.0
  0
VERTEX
  5
43C
330
1EA
100
AcDbEntity
  8
0
  6
CONTINUOUS
 62
     7
100
AcDbVertex
100
AcDb2dVertex
 10
8.6202764531
 20
7.0650836083
 30
0.0
  0
VERTEX
  5
43D
330
1EA
100
AcDbEntity
  8
0
  6
CONTINUOUS
 62
     7
100
AcDbVertex
100
AcDb2dVertex
 10
8.6307212622
 20
7.0657259794
 30
0.0
  0
VERTEX
  5
43E
330
1EA
100
AcDbEntity
  8
0
  6
CONTINUOUS
 62
     7
100
AcDbVertex
100
AcDb2dVertex
 10
8.6408277783
 20
7.0673781281
 30
0.0
  0
VERTEX
  5
43F
330
1EA
100
AcDbEntity
  8
0
  6
CONTINUOUS
 62
     7
100
AcDbVertex
100
AcDb2dVertex
 10
8.6503052553
 20
7.069992525
 30
0.0
  0
VERTEX
  5
440
330
1EA
100
AcDbEntity
  8
0
  6
CONTINUOUS
 62
     7
100
AcDbVertex
100
AcDb2dVertex
 10
8.6588810434
 20
7.0734939587
 30
0.0
  0
VERTEX
  5
441
330
1EA
100
AcDbEntity
  8
0
  6
CONTINUOUS
 62
     7
100
AcDbVertex
100
AcDb2dVertex
 10
8.6663084329
 20
7.0777816994
 30
0.0
  0
VERTEX
  5
442
330
1EA
100
AcDbEntity
  8
0
  6
CONTINUOUS
 62
     7
100
AcDbVertex
100
AcDb2dVertex
 10
8.6723737512
 20
7.0827323965
 30
0.0
  0
VERTEX
  5
443
330
1EA
100
AcDbEntity
  8
0
  6
CONTINUOUS
 62
     7
100
AcDbVertex
100
AcDb2dVertex
 10
8.6769025102
 20
7.0882036275
 30
0.0
  0
VERTEX
  5
444
330
1EA
100
AcDbEntity
  8
0
  6
CONTINUOUS
 62
     7
100
AcDbVertex
100
AcDb2dVertex
 10
8.6797644257
 20
7.0940379951
 30
0.0
  0
VERTEX
  5
445
330
1EA
100
AcDbEntity
  8
0
  6
CONTINUOUS
 62
     7
100
AcDbVertex
100
AcDb2dVertex
 10
8.6808771657
 20
7.100067655
 30
0.0
  0
VERTEX
  5
446
330
1EA
100
AcDbEntity
  8
0
  6
CONTINUOUS
 62
     7
100
AcDbVertex
100
AcDb2dVertex
 10
8.6802087186
 20
7.1061191451
 30
0.0
  0
VERTEX
  5
447
330
1EA
100
AcDbEntity
  8
0
  6
CONTINUOUS
 62
     7
100
AcDbVertex
100
AcDb2dVertex
 10
8.6777783144
 20
7.1120183749
 30
0.0
  0
VERTEX
  5
448
330
1EA
100
AcDbEntity
  8
0
  6
CONTINUOUS
 62
     7
100
AcDbVertex
100
AcDb2dVertex
 10
8.6736558715
 20
7.1175956342
 30
0.0
  0
VERTEX
  5
449
330
1EA
100
AcDbEntity
  8
0
  6
CONTINUOUS
 62
     7
100
AcDbVertex
100
AcDb2dVertex
 10
8.667959985
 20
7.1226904757
 30
0.0
  0
VERTEX
  5
44A
330
1EA
100
AcDbEntity
  8
0
  6
CONTINUOUS
 62
     7
100
AcDbVertex
100
AcDb2dVertex
 10
8.6608545153
 20
7.1271563298
 30
0.0
  0
VERTEX
  5
44B
330
1EA
100
AcDbEntity
  8
0
  6
CONTINUOUS
 62
     7
100
AcDbVertex
100
AcDb2dVertex
 10
8.6525438736
 20
7.1308647222
 30
0.0
  0
VERTEX
  5
44C
330
1EA
100
AcDbEntity
  8
0
  6
CONTINUOUS
 62
     7
100
AcDbVertex
100
AcDb2dVertex
 10
8.6432671421
 20
7.1337089691
 30
0.0
  0
VERTEX
  5
44D
330
1EA
100
AcDbEntity
  8
0
  6
CONTINUOUS
 62
     7
100
AcDbVertex
100
AcDb2dVertex
 10
8.6332911955
 20
7.1356072467
 30
0.0
  0
VERTEX
  5
44E
330
1EA
100
AcDbEntity
  8
0
  6
CONTINUOUS
 62
     7
100
AcDbVertex
100
AcDb2dVertex
 10
8.6229030235
 20
7.136504945
 30
0.0
  0
VERTEX
  5
44F
330
1EA
100
AcDbEntity
  8
0
  6
CONTINUOUS
 62
     7
100
AcDbVertex
100
AcDb2dVertex
 10
8.612401475
 20
7.1363762389
 30
0.0
  0
VERTEX
  5
450
330
1EA
100
AcDbEntity
  8
0
  6
CONTINUOUS
 62
     7
100
AcDbVertex
100
AcDb2dVertex
 10
8.6020886603
 20
7.1352248311
 30
0.0
  0
VERTEX
  5
451
330
1EA
100
AcDbEntity
  8
0
  6
CONTINUOUS
 62
     7
100
AcDbVertex
100
AcDb2dVertex
 10
8.5922612604
 20
7.1330838454
 30
0.0
  0
VERTEX
  5
452
330
1EA
100
AcDbEntity
  8
0
  6
CONTINUOUS
 62
     7
100
AcDbVertex
100
AcDb2dVertex
 10
8.5832019918
 20
7.130014874
 30
0.0
  0
VERTEX
  5
453
330
1EA
100
AcDbEntity
  8
0
  6
CONTINUOUS
 62
     7
100
AcDbVertex
100
AcDb2dVertex
 10
8.5751714729
 20
7.1261062058
 30
0.0
  0
SEQEND
  5
454
330
1EA
100
AcDbEntity
  8
0
  6
CONTINUOUS
 62
     7
  0
LINE
  5
1EB
330
1F
100
AcDbEntity
  8
0
  6
CONTINUOUS
 62
     7
100
AcDbLine
 10
8.6537389362
 20
7.1209027897
 30
0.0
 11
8.6062327353
 21
7.1282512282
 31
0.0
  0
LINE
  5
1EC
330
1F
100
AcDbEntity
  8
0
  6
CONTINUOUS
 62
     7
100
AcDbLine
 10
8.6062327353
 20
7.1282512282
 30
0.0
 11
8.5714557825
 21
7.1081749207
 31
0.0
  0
LINE
  5
1ED
330
1F
100
AcDbEntity
  8
0
  6
CONTINUOUS
 62
     7
100
AcDbLine
 10
8.5714557825
 20
7.1081749207
 30
0.0
 11
8.5841850307
 21
7.0807501747
 31
0.0
  0
LINE
  5
1EE
330
1F
100
AcDbEntity
  8
0
  6
CONTINUOUS
 62
     7
100
AcDbLine
 10
8.5841850307
 20
7.0807501747
 30
0.0
 11
8.6316912316
 21
7.0734017361
 31
0.0
  0
LINE
  5
1EF
330
1F
100
AcDbEntity
  8
0
  6
CONTINUOUS
 62
     7
100
AcDbLine
 10
8.6316912316
 20
7.0734017361
 30
0.0
 11
8.6664681844
 21
7.0934780436
 31
0.0
  0
LINE
  5
1F0
330
1F
100
AcDbEntity
  8
0
  6
CONTINUOUS
 62
     7
100
AcDbLine
 10
8.6664681844
 20
7.0934780436
 30
0.0
 11
8.6537389362
 21
7.1209027897
 31
0.0
  0
LINE
  5
1F1
330
1F
100
AcDbEntity
  8
0
  6
CONTINUOUS
 62
     7
100
AcDbLine
 10
8.6062327353
 20
7.1078377079
 30
0.0
 11
8.5789284592
 21
7.0920752849
 31
0.0
  0
LINE
  5
1F2
330
1F
100
AcDbEntity
  8
0
  6
CONTINUOUS
 62
     7
100
AcDbLine
 10
8.6537389362
 20
7.1004892694
 30
0.0
 11
8.6062327353
 21
7.1078377079
 31
0.0
  0
LINE
  5
1F3
330
1F
100
AcDbEntity
  8
0
  6
CONTINUOUS
 62
     7
100
AcDbLine
 10
8.6589955077
 20
7.0891641592
 30
0.0
 11
8.6537389362
 21
7.1004892694
 31
0.0
  0
LINE
  5
1F4
330
1F
100
AcDbEntity
  8
0
  6
CONTINUOUS
 62
     7
100
AcDbLine
 10
8.6537389362
 20
7.1004892694
 30
0.0
 11
8.6537389362
 21
7.1209027897
 31
0.0
  0
LINE
  5
1F5
330
1F
100
AcDbEntity
  8
0
  6
CONTINUOUS
 62
     7
100
AcDbLine
 10
8.6062327353
 20
7.1078377079
 30
0.0
 11
8.6062327353
 21
7.1282512282
 31
0.0
  0
ENDSEC
  0
SECTION
  2
OBJECTS
  0
DICTIONARY
  5
C
330
0
100
AcDbDictionary
  3
ACAD_GROUP
350
D
  3
ACAD_LAYOUT
350
1A
  3
ACAD_MLEADERSTYLE
350
1F8
  3
ACAD_MLINESTYLE
350
17
  3
ACAD_PLOTSETTINGS
350
19
  3
ACAD_SCALELIST
350
6F
  3
ACAD_VISUALSTYLE
350
2A
  3
ACDBVARIABLEDICTIONARY
350
1F6
1001
ACAD
1000
TREAT_AS_HARD
1070
     0
  0
DICTIONARY
  5
D
102
{ACAD_REACTORS
330
C
102
}
330
C
100
AcDbDictionary
1001
ACAD
1000
TREAT_AS_HARD
1070
     0
  0
DICTIONARY
  5
1A
102
{ACAD_REACTORS
330
C
102
}
330
C
100
AcDbDictionary
1001
ACAD
1000
TREAT_AS_HARD
1070
     0
  0
DICTIONARY
  5
1F8
102
{ACAD_REACTORS
330
C
102
}
330
C
100
AcDbDictionary
1001
ACAD
1000
TREAT_AS_HARD
1070
     0
  0
DICTIONARY
  5
17
102
{ACAD_REACTORS
330
C
102
}
330
C
100
AcDbDictionary
  3
STANDARD
350
18
1001
ACAD
1000
TREAT_AS_HARD
1070
     0
  0
DICTIONARY
  5
19
102
{ACAD_REACTORS
330
C
102
}
330
C
100
AcDbDictionary
1001
ACAD
1000
TREAT_AS_HARD
1070
     0
  0
DICTIONARY
  5
6F
102
{ACAD_REACTORS
330
C
102
}
330
C
100
AcDbDictionary
  3
A0
350
70
  3
A1
350
71
  3
A2
350
72
  3
A3
350
73
  3
A4
350
74
  3
A5
350
75
  3
A6
350
76
  3
A7
350
77
  3
A8
350
78
  3
A9
350
79
  3
B0
350
7A
  3
B1
350
7B
  3
B2
350
7C
  3
B3
350
7D
  3
B4
350
7E
  3
B5
350
7F
  3
B6
350
80
  3
B7
350
81
  3
B8
350
82
  3
B9
350
83
  3
C0
350
84
  3
C1
350
85
  3
C2
350
86
  3
C3
350
87
  3
C4
350
88
  3
C5
350
89
  3
C6
350
8A
  3
C7
350
8B
  3
C8
350
8C
  3
C9
350
8D
  3
D0
350
8E
  3
D1
350
8F
  3
D2
350
90
1001
ACAD
1000
TREAT_AS_HARD
1070
     0
  0
DICTIONARY
  5
2A
102
{ACAD_REACTORS
330
C
102
}
330
C
100
AcDbDictionary
  3
2DWIREFRAME
350
2F
  3
3D_HIDDEN
350
31
  3
3DWIREFRAME
350
30
  3
BASIC
350
32
  3
BRIGHTEN
350
36
  3
COLORCHANGE
350
3A
  3
CONCEPTUAL
350
34
  3
DIM
350
35
  3
FACEPATTERN
350
39
  3
FLAT
350
2B
  3
FLATWITHEDGES
350
2C
  3
GOURAUD
350
2D
  3
GOURAUDWITHEDGES
350
2E
  3
LINEPATTERN
350
38
  3
REALISTIC
350
33
  3
THICKEN
350
37
1001
ACAD
1000
TREAT_AS_HARD
1070
     0
  0
DICTIONARY
  5
1F6
102
{ACAD_REACTORS
330
C
102
}
330
C
100
AcDbDictionary
  3
CANNOSCALE
350
1F9
  3
DIMASSOC
350
1FA
  3
HIDETEXT
350
1FB
1001
ACAD
1000
TREAT_AS_HARD
1070
     0
  0
MLINESTYLE
  5
18
102
{ACAD_REACTORS
330
17
102
}
330
17
100
AcDbMlineStyle
  2
Standard
 70
     0
  3

 62
   256
 51
90.0
 52
90.0
 71
     2
 49
0.5
 62
   256
  6
BYLAYER
 49
-0.5
 62
   256
  6
BYLAYER
  0
ACAD_PROXY_OBJECT
  5
70
102
{ACAD_REACTORS
330
6F
102
}
330
6F
100
AcDbZombieObject
 90
      499
 91
      502
 93
       41
310
903313A31580
  0
ACAD_PROXY_OBJECT
  5
71
102
{ACAD_REACTORS
330
6F
102
}
330
6F
100
AcDbZombieObject
 90
      499
 91
      502
 93
      105
310
903313A324000000000000004000
  0
ACAD_PROXY_OBJECT
  5
72
102
{ACAD_REACTORS
330
6F
102
}
330
6F
100
AcDbZombieObject
 90
      499
 91
      502
 93
      105
310
903313A344000000000000104000
  0
ACAD_PROXY_OBJECT
  5
73
102
{ACAD_REACTORS
330
6F
102
}
330
6F
100
AcDbZombieObject
 90
      499
 91
      502
 93
      105
310
903313A354000000000000144000
  0
ACAD_PROXY_OBJECT
  5
74
102
{ACAD_REACTORS
330
6F
102
}
330
6F
100
AcDbZombieObject
 90
      499
 91
      502
 93
      105
310
903313A384000000000000204000
  0
ACAD_PROXY_OBJECT
  5
75
102
{ACAD_REACTORS
330
6F
102
}
330
6F
100
AcDbZombieObject
 90
      499
 91
      502
 93
      113
310
904313A31304000000000000244000
  0
ACAD_PROXY_OBJECT
  5
76
102
{ACAD_REACTORS
330
6F
102
}
330
6F
100
AcDbZombieObject
 90
      499
 91
      502
 93
      113
310
904313A31364000000000000304000
  0
ACAD_PROXY_OBJECT
  5
77
102
{ACAD_REACTORS
330
6F
102
}
330
6F
100
AcDbZombieObject
 90
      499
 91
      502
 93
      113
310
904313A32304000000000000344000
  0
ACAD_PROXY_OBJECT
  5
78
102
{ACAD_REACTORS
330
6F
102
}
330
6F
100
AcDbZombieObject
 90
      499
 91
      502
 93
      113
310
904313A333040000000000003E4000
  0
ACAD_PROXY_OBJECT
  5
79
102
{ACAD_REACTORS
330
6F
102
}
330
6F
100
AcDbZombieObject
 90
      499
 91
      502
 93
      113
310
904313A34304000000000000444000
  0
ACAD_PROXY_OBJECT
  5
7A
102
{ACAD_REACTORS
330
6F
102
}
330
6F
100
AcDbZombieObject
 90
      499
 91
      502
 93
      113
310
904313A35304000000000000494000
  0
ACAD_PROXY_OBJECT
  5
7B
102
{ACAD_REACTORS
330
6F
102
}
330
6F
100
AcDbZombieObject
 90
      499
 91
      502
 93
      121
310
905313A3130304000000000000594000
  0
ACAD_PROXY_OBJECT
  5
7C
102
{ACAD_REACTORS
330
6F
102
}
330
6F
100
AcDbZombieObject
 90
      499
 91
      502
 93
      105
310
903323A310000000000000010100
  0
ACAD_PROXY_OBJECT
  5
7D
102
{ACAD_REACTORS
330
6F
102
}
330
6F
100
AcDbZombieObject
 90
      499
 91
      502
 93
      105
310
903343A310000000000000410100
  0
ACAD_PROXY_OBJECT
  5
7E
102
{ACAD_REACTORS
330
6F
102
}
330
6F
100
AcDbZombieObject
 90
      499
 91
      502
 93
      105
310
903383A310000000000000810100
  0
ACAD_PROXY_OBJECT
  5
7F
102
{ACAD_REACTORS
330
6F
102
}
330
6F
100
AcDbZombieObject
 90
      499
 91
      502
 93
      113
310
90431303A310000000000000910100
  0
ACAD_PROXY_OBJECT
  5
80
102
{ACAD_REACTORS
330
6F
102
}
330
6F
100
AcDbZombieObject
 90
      499
 91
      502
 93
      121
310
9053130303A310000000000001650100
  0
ACAD_PROXY_OBJECT
  5
81
102
{ACAD_REACTORS
330
6F
102
}
330
6F
100
AcDbZombieObject
 90
      499
 91
      502
 93
      257
310
90E312F31323822203D2031272D3022000000000000200FC000000000000284000
  0
ACAD_PROXY_OBJECT
  5
82
102
{ACAD_REACTORS
330
6F
102
}
330
6F
100
AcDbZombieObject
 90
      499
 91
      502
 93
      249
310
90D312F363422203D2031272D3022000000000000240FC000000000000284000
  0
ACAD_PROXY_OBJECT
  5
83
102
{ACAD_REACTORS
330
6F
102
}
330
6F
100
AcDbZombieObject
 90
      499
 91
      502
 93
      249
310
90D312F333222203D2031272D3022000000000000280FC000000000000284000
  0
ACAD_PROXY_OBJECT
  5
84
102
{ACAD_REACTORS
330
6F
102
}
330
6F
100
AcDbZombieObject
 90
      499
 91
      502
 93
      249
310
90D312F313622203D2031272D30220000000000002C0FC000000000000284000
  0
ACAD_PROXY_OBJECT
  5
85
102
{ACAD_REACTORS
330
6F
102
}
330
6F
100
AcDbZombieObject
 90
      499
 91
      502
 93
      249
310
90D332F333222203D2031272D30220000000000002E0FC000000000000284000
  0
ACAD_PROXY_OBJECT
  5
86
102
{ACAD_REACTORS
330
6F
102
}
330
6F
100
AcDbZombieObject
 90
      499
 91
      502
 93
      241
310
90C312F3822203D2031272D3022000000000000300FC000000000000284000
  0
ACAD_PROXY_OBJECT
  5
87
102
{ACAD_REACTORS
330
6F
102
}
330
6F
100
AcDbZombieObject
 90
      499
 91
      502
 93
      249
310
90D332F313622203D2031272D3022000000000000320FC000000000000284000
  0
ACAD_PROXY_OBJECT
  5
88
102
{ACAD_REACTORS
330
6F
102
}
330
6F
100
AcDbZombieObject
 90
      499
 91
      502
 93
      241
310
90C312F3422203D2031272D3022000000000000340FC000000000000284000
  0
ACAD_PROXY_OBJECT
  5
89
102
{ACAD_REACTORS
330
6F
102
}
330
6F
100
AcDbZombieObject
 90
      499
 91
      502
 93
      241
310
90C332F3822203D2031272D3022000000000000360FC000000000000284000
  0
ACAD_PROXY_OBJECT
  5
8A
102
{ACAD_REACTORS
330
6F
102
}
330
6F
100
AcDbZombieObject
 90
      499
 91
      502
 93
      241
310
90C312F3222203D2031272D3022000000000000380FC000000000000284000
  0
ACAD_PROXY_OBJECT
  5
8B
102
{ACAD_REACTORS
330
6F
102
}
330
6F
100
AcDbZombieObject
 90
      499
 91
      502
 93
      241
310
90C332F3422203D2031272D30220000000000003A0FC000000000000284000
  0
ACAD_PROXY_OBJECT
  5
8C
102
{ACAD_REACTORS
330
6F
102
}
330
6F
100
AcDbZombieObject
 90
      499
 91
      502
 93
      161
310
90A3122203D2031272D30224000000000000284000
  0
ACAD_PROXY_OBJECT
  5
8D
102
{ACAD_REACTORS
330
6F
102
}
330
6F
100
AcDbZombieObject
 90
      499
 91
      502
 93
      257
310
90E312D312F3222203D2031272D30220000000000003E0FC000000000000284000
  0
ACAD_PROXY_OBJECT
  5
8E
102
{ACAD_REACTORS
330
6F
102
}
330
6F
100
AcDbZombieObject
 90
      499
 91
      502
 93
      225
310
90A3322203D2031272D302200000000000002100000000000000284000
  0
ACAD_PROXY_OBJECT
  5
8F
102
{ACAD_REACTORS
330
6F
102
}
330
6F
100
AcDbZombieObject
 90
      499
 91
      502
 93
      225
310
90A3622203D2031272D302200000000000006100000000000000284000
  0
ACAD_PROXY_OBJECT
  5
90
102
{ACAD_REACTORS
330
6F
102
}
330
6F
100
AcDbZombieObject
 90
      499
 91
      502
 93
      249
310
90D31272D3022203D2031272D30220000000000000A100000000000000284000
  0
ACAD_PROXY_OBJECT
  5
2F
102
{ACAD_REACTORS
330
2A
102
}
330
2A
100
AcDbZombieObject
 90
      499
 91
      501
 93
      436
310
42CC9915DA5C99599C985B595049028333333333333E3BF0000000000000FB0107901411070040501600405405064090741402480A0340
1001
ACAD
1000
AcDbSavedByObjectVersion
1070
     0
  0
ACAD_PROXY_OBJECT
  5
31
102
{ACAD_REACTORS
330
2A
102
}
330
2A
100
AcDbZombieObject
 90
      499
 91
      501
 93
      500
310
424CD108121A5919195B90640502408333333333333E3BF0000000000000FB01079024090700405020000000000001110200405405064090740C02480A0340
1001
ACAD
1000
AcDbSavedByObjectVersion
1070
     0
  0
ACAD_PROXY_OBJECT
  5
30
102
{ACAD_REACTORS
330
2A
102
}
330
2A
100
AcDbZombieObject
 90
      499
 91
      501
 93
      436
310
42CCD915DA5C99599C985B595059028333333333333E3BF0000000000000FB0107901411070040501600405405064090741402480A0340
1001
ACAD
1000
AcDbSavedByObjectVersion
1070
     0
  0
ACAD_PROXY_OBJECT
  5
32
102
{ACAD_REACTORS
330
2A
102
}
330
2A
100
AcDbZombieObject
 90
      499
 91
      501
 93
      388
310
4150985CDA58D07406404333333333333E3BF0000000000000FB0107A41107004050150841D405064090741402480A0350
1001
ACAD
1000
AcDbSavedByObjectVersion
1070
     0
  0
ACAD_PROXY_OBJECT
  5
36
102
{ACAD_REACTORS
330
2A
102
}
330
2A
100
AcDbZombieObject
 90
      499
 91
      501
 93
      428
310
42109C9A59DA1D195B90C409028333333333333E3BF0000000000000FB010790141107004050150841D405064090741402480A029950
1001
ACAD
1000
AcDbSavedByObjectVersion
1070
     0
  0
ACAD_PROXY_OBJECT
  5
3A
102
{ACAD_REACTORS
330
2A
102
}
330
2A
100
AcDbZombieObject
 90
      499
 91
      501
 93
      452
310
42D0DBDB1BDC90DA185B99D95104090240C333333333333E3BF0000000000000FB0108901411070040501508421405064090741402480A0350
1001
ACAD
1000
AcDbSavedByObjectVersion
1070
     0
  0
ACAD_PROXY_OBJECT
  5
34
102
{ACAD_REACTORS
330
2A
102
}
330
2A
100
AcDbZombieObject
 90
      499
 91
      501
 93
      500
310
4290DBDB98D95C1D1D585B10940D028333333333333E3BF0000000000000FB0107902409070040501000000000000111010841D405064090740C02480A0340
1001
ACAD
1000
AcDbSavedByObjectVersion
1070
     0
  0
ACAD_PROXY_OBJECT
  5
35
102
{ACAD_REACTORS
330
2A
102
}
330
2A
100
AcDbZombieObject
 90
      499
 91
      501
 93
      412
310
40D11A5B50B409028333333333333E3BF0000000000000FB010790141107004050150841D405064090741402480A02677FFFFFD0
1001
ACAD
1000
AcDbSavedByObjectVersion
1070
     0
  0
ACAD_PROXY_OBJECT
  5
39
102
{ACAD_REACTORS
330
2A
102
}
330
2A
100
AcDbZombieObject
 90
      499
 91
      501
 93
      444
310
42D19858D95C185D1D195C9B90F409028333333333333E3BF0000000000000FB010790141107004050150841D405064090741402480A0350
1001
ACAD
1000
AcDbSavedByObjectVersion
1070
     0
  0
ACAD_PROXY_OBJECT
  5
2B
102
{ACAD_REACTORS
330
2A
102
}
330
2A
100
AcDbZombieObject
 90
      499
 91
      501
 93
      388
310
41119B185D240901404333333333333E3BF0000000000000F9010740A41107004050150841D405064090741402480A1B50
1001
ACAD
1000
AcDbSavedByObjectVersion
1070
     0
  0
ACAD_PROXY_OBJECT
  5
2C
102
{ACAD_REACTORS
330
2A
102
}
330
2A
100
AcDbZombieObject
 90
      499
 91
      501
 93
      476
310
43519B185D15DA5D1A115919D95CD0140901404333333333333E3BF0000000000000F9010740901411070040501600405405064090741402480A1B50
1001
ACAD
1000
AcDbSavedByObjectVersion
1070
     0
  0
ACAD_PROXY_OBJECT
  5
2D
102
{ACAD_REACTORS
330
2A
102
}
330
2A
100
AcDbZombieObject
 90
      499
 91
      501
 93
      412
310
41D1DBDD5C985D5910240902404333333333333E3BF0000000000000F9010740A411070040501641D405064090741402480A1B50
1001
ACAD
1000
AcDbSavedByObjectVersion
1070
     0
  0
ACAD_PROXY_OBJECT
  5
2E
102
{ACAD_REACTORS
330
2A
102
}
330
2A
100
AcDbZombieObject
 90
      499
 91
      501
 93
      500
310
4411DBDD5C985D5915DA5D1A115919D95CD0340902404333333333333E3BF0000000000000F9010740901411070040501600405405064090741402480A1B50
1001
ACAD
1000
AcDbSavedByObjectVersion
1070
     0
  0
ACAD_PROXY_OBJECT
  5
38
102
{ACAD_REACTORS
330
2A
102
}
330
2A
100
AcDbZombieObject
 90
      499
 91
      501
 93
      444
310
42D31A5B995C185D1D195C9B90E409028333333333333E3BF0000000000000FB010790141107004050750841D405064090741402483A0350
1001
ACAD
1000
AcDbSavedByObjectVersion
1070
     0
  0
ACAD_PROXY_OBJECT
  5
33
102
{ACAD_REACTORS
330
2A
102
}
330
2A
100
AcDbZombieObject
 90
      499
 91
      501
 93
      420
310
425499585B1A5CDD1A58D08409028333333333333E3BF0000000000000FB01079019070040501508421405064090741402480A1B40
1001
ACAD
1000
AcDbSavedByObjectVersion
1070
     0
  0
ACAD_PROXY_OBJECT
  5
37
102
{ACAD_REACTORS
330
2A
102
}
330
2A
100
AcDbZombieObject
 90
      499
 91
      501
 93
      412
310
41D51A1A58DAD95B90D409028333333333333E3BF0000000000000FB010790141107004050150C41D405064090741402480A0350
1001
ACAD
1000
AcDbSavedByObjectVersion
1070
     0
  0
DICTIONARYVAR
  5
1F9
102
{ACAD_REACTORS
330
1F6
102
}
330
1F6
100
DictionaryVariables
280
     0
  1
1:1
  0
DICTIONARYVAR
  5
1FA
102
{ACAD_REACTORS
330
1F6
102
}
330
1F6
100
DictionaryVariables
280
     0
  1
2
  0
DICTIONARYVAR
  5
1FB
102
{ACAD_REACTORS
330
1F6
102
}
330
1F6
100
DictionaryVariables
280
     0
  1
1
  0
ENDSEC
  0
EOF
