  0
SECTION
  2
HEADER
  9
$ACADVER
  1
AC1012
  9
$DWGCODEPAGE
  3
ansi_1252
  9
$INSBASE
 10
0.0
 20
0.0
 30
0.0
  9
$EXTMIN
 10
0.0
 20
0.0
 30
0.0
  9
$EXTMAX
 10
11.0
 20
8.5
 30
0.0
  9
$LIMMIN
 10
0.0
 20
0.0
  9
$LIMMAX
 10
11.0
 20
8.5
  9
$ORTHOMODE
 70
     0
  9
$REGENMODE
 70
     1
  9
$FILLMODE
 70
     1
  9
$QTEXTMODE
 70
     0
  9
$MIRRTEXT
 70
     1
  9
$DRAGMODE
 70
     2
  9
$LTSCALE
 40
1.0
  9
$OSMODE
 70
    37
  9
$ATTMODE
 70
     1
  9
$TEXTSIZE
 40
0.125
  9
$TRACEWID
 40
0.05
  9
$TEXTSTYLE
  7
STANDARD
  9
$CLAYER
  8
0
  9
$CELTYPE
  6
BYLAYER
  9
$CECOLOR
 62
   256
  9
$CELTSCALE
 40
1.0
  9
$DELOBJ
 70
     1
  9
$DISPSILH
 70
     0
  9
$DIMSCALE
 40
1.0
  9
$DIMASZ
 40
0.13
  9
$DIMEXO
 40
0.05
  9
$DIMDLI
 40
0.38
  9
$DIMRND
 40
0.0
  9
$DIMDLE
 40
0.0
  9
$DIMEXE
 40
0.125
  9
$DIMTP
 40
0.0
  9
$DIMTM
 40
0.0
  9
$DIMTXT
 40
0.125
  9
$DIMCEN
 40
0.09
  9
$DIMTSZ
 40
0.0
  9
$DIMTOL
 70
     0
  9
$DIMLIM
 70
     0
  9
$DIMTIH
 70
     1
  9
$DIMTOH
 70
     1
  9
$DIMSE1
 70
     0
  9
$DIMSE2
 70
     0
  9
$DIMTAD
 70
     0
  9
$DIMZIN
 70
     0
  9
$DIMBLK
  1

  9
$DIMASO
 70
     1
  9
$DIMSHO
 70
     1
  9
$DIMPOST
  1

  9
$DIMAPOST
  1

  9
$DIMALT
 70
     0
  9
$DIMALTD
 70
     2
  9
$DIMALTF
 40
25.4
  9
$DIMLFAC
 40
1.0
  9
$DIMTOFL
 70
     0
  9
$DIMTVP
 40
0.0
  9
$DIMTIX
 70
     0
  9
$DIMSOXD
 70
     0
  9
$DIMSAH
 70
     0
  9
$DIMBLK1
  1

  9
$DIMBLK2
  1

  9
$DIMSTYLE
  2
STANDARD
  9
$DIMCLRD
 70
     0
  9
$DIMCLRE
 70
     0
  9
$DIMCLRT
 70
     0
  9
$DIMTFAC
 40
1.0
  9
$DIMGAP
 40
0.06
  9
$DIMJUST
 70
     0
  9
$DIMSD1
 70
     0
  9
$DIMSD2
 70
     0
  9
$DIMTOLJ
 70
     1
  9
$DIMTZIN
 70
     0
  9
$DIMALTZ
 70
     0
  9
$DIMALTTZ
 70
     0
  9
$DIMFIT
 70
     3
  9
$DIMUPT
 70
     0
  9
$DIMUNIT
 70
     2
  9
$DIMDEC
 70
     3
  9
$DIMTDEC
 70
     3
  9
$DIMALTU
 70
     2
  9
$DIMALTTD
 70
     2
  9
$DIMTXSTY
  7
STANDARD
  9
$DIMAUNIT
 70
     0
  9
$LUNITS
 70
     2
  9
$LUPREC
 70
     2
  9
$SKETCHINC
 40
0.1
  9
$FILLETRAD
 40
0.5
  9
$AUNITS
 70
     0
  9
$AUPREC
 70
     2
  9
$MENU
  1
.
  9
$ELEVATION
 40
0.0
  9
$PELEVATION
 40
0.0
  9
$THICKNESS
 40
0.0
  9
$LIMCHECK
 70
     0
  9
$CHAMFERA
 40
0.5
  9
$CHAMFERB
 40
0.5
  9
$CHAMFERC
 40
1.0
  9
$CHAMFERD
 40
0.0
  9
$SKPOLY
 70
     0
  9
$TDCREATE
 40
2455784.027877616
  9
$TDUPDATE
 40
2455784.027877627
  9
$TDINDWG
 40
0.0000000116
  9
$TDUSRTIMER
 40
0.0000000116
  9
$USRTIMER
 70
     1
  9
$ANGBASE
 50
0.0
  9
$ANGDIR
 70
     0
  9
$PDMODE
 70
     0
  9
$PDSIZE
 40
-1.0
  9
$PLINEWID
 40
0.0
  9
$COORDS
 70
     1
  9
$SPLFRAME
 70
     0
  9
$SPLINETYPE
 70
     6
  9
$SPLINESEGS
 70
     8
  9
$ATTDIA
 70
     0
  9
$ATTREQ
 70
     1
  9
$HANDLING
 70
     1
  9
$HANDSEED
  5
45E
  9
$SURFTAB1
 70
     6
  9
$SURFTAB2
 70
     6
  9
$SURFTYPE
 70
     6
  9
$SURFU
 70
     6
  9
$SURFV
 70
     6
  9
$UCSNAME
  2

  9
$UCSORG
 10
0.0
 20
0.0
 30
0.0
  9
$UCSXDIR
 10
1.0
 20
0.0
 30
0.0
  9
$UCSYDIR
 10
0.0
 20
1.0
 30
0.0
  9
$PUCSNAME
  2

  9
$PUCSORG
 10
0.0
 20
0.0
 30
0.0
  9
$PUCSXDIR
 10
1.0
 20
0.0
 30
0.0
  9
$PUCSYDIR
 10
0.0
 20
1.0
 30
0.0
  9
$USERI1
 70
     0
  9
$USERI2
 70
     0
  9
$USERI3
 70
     0
  9
$USERI4
 70
     0
  9
$USERI5
 70
     0
  9
$USERR1
 40
0.0
  9
$USERR2
 40
0.0
  9
$USERR3
 40
0.0
  9
$USERR4
 40
0.0
  9
$USERR5
 40
0.0
  9
$WORLDVIEW
 70
     1
  9
$SHADEDGE
 70
     3
  9
$SHADEDIF
 70
    70
  9
$TILEMODE
 70
     1
  9
$MAXACTVP
 70
    64
  9
$PINSBASE
 10
0.0
 20
0.0
 30
0.0
  9
$PLIMCHECK
 70
     0
  9
$PEXTMIN
 10
1.0000000000E+20
 20
1.0000000000E+20
 30
1.0000000000E+20
  9
$PEXTMAX
 10
-1.0000000000E+20
 20
-1.0000000000E+20
 30
-1.0000000000E+20
  9
$PLIMMIN
 10
0.0
 20
0.0
  9
$PLIMMAX
 10
12.0
 20
9.0
  9
$UNITMODE
 70
     0
  9
$VISRETAIN
 70
     1
  9
$PLINEGEN
 70
     0
  9
$PSLTSCALE
 70
     1
  9
$TREEDEPTH
 70
  3020
  9
$PICKSTYLE
 70
     1
  9
$CMLSTYLE
  2
STANDARD
  9
$CMLJUST
 70
     0
  9
$CMLSCALE
 40
1.0
  9
$SAVEIMAGES
 70
     1
  0
ENDSEC
  0
SECTION
  2
CLASSES
  0
CLASS
  1
ACDBDICTIONARYWDFLT
  2
AcDbDictionaryWithDefault
  3
ObjectDBX Classes
 90
    32768
280
     0
281
     0
  0
CLASS
  1
VISUALSTYLE
  2
AcDbVisualStyle
  3
ObjectDBX Classes
 90
     4095
280
     0
281
     0
  0
CLASS
  1
SCALE
  2
AcDbScale
  3
ObjectDBX Classes
 90
     1153
280
     0
281
     0
  0
CLASS
  1
DICTIONARYVAR
  2
AcDbDictionaryVar
  3
ObjectDBX Classes
 90
        0
280
     0
281
     0
  0
CLASS
  1
XRECORD
  2
AcDbXrecord
  3
AutoCAD 2000
 90
    32768
280
     0
281
     0
  0
CLASS
  1
LWPOLYLINE
  2
AcDbPolyline
  3
AutoCAD 2000
 90
    32768
280
     0
281
     1
  0
CLASS
  1
HATCH
  2
AcDbHatch
  3
AutoCAD 2000
 90
    32768
280
     0
281
     1
  0
CLASS
  1
ACDBPLACEHOLDER
  2
AcDbPlaceHolder
  3
ObjectDBX Classes
 90
        0
280
     0
281
     0
  0
CLASS
  1
LAYOUT
  2
AcDbLayout
  3
ObjectDBX Classes
 90
        0
280
     0
281
     0
  0
ENDSEC
  0
SECTION
  2
TABLES
  0
TABLE
  2
VPORT
  5
8
330
0
100
AcDbSymbolTable
 70
     1
  0
VPORT
  5
29
330
8
100
AcDbSymbolTableRecord
100
AcDbViewportTableRecord
  2
*ACTIVE
 70
     0
 10
0.0
 20
0.0
 11
1.0
 21
1.0
 12
5.5
 22
4.25
 13
0.0
 23
0.0
 14
0.5
 24
0.5
 15
0.5
 25
0.5
 16
0.0
 26
0.0
 36
1.0
 17
0.0
 27
0.0
 37
0.0
 40
8.5
 41
1.2941176471
 42
50.0
 43
0.0
 44
0.0
 50
0.0
 51
0.0
 71
     0
 72
  2000
 73
     1
 74
     3
 75
     0
 76
     0
 77
     0
 78
     0
  0
ENDTAB
  0
TABLE
  2
LTYPE
  5
5
330
0
100
AcDbSymbolTable
 70
     6
  0
LTYPE
  5
14
330
5
100
AcDbSymbolTableRecord
100
AcDbLinetypeTableRecord
  2
BYBLOCK
 70
     0
  3

 72
    65
 73
     0
 40
0.0
  0
LTYPE
  5
15
330
5
100
AcDbSymbolTableRecord
100
AcDbLinetypeTableRecord
  2
BYLAYER
 70
     0
  3

 72
    65
 73
     0
 40
0.0
  0
LTYPE
  5
16
330
5
100
AcDbSymbolTableRecord
100
AcDbLinetypeTableRecord
  2
CONTINUOUS
 70
     0
  3
Solid line
 72
    65
 73
     0
 40
0.0
  0
LTYPE
  5
3B
330
5
100
AcDbSymbolTableRecord
100
AcDbLinetypeTableRecord
  2
HIDDEN
 70
     0
  3
Hidden __ __ __ __ __ __ __ __ __ __ __ __ __ __
 72
    65
 73
     2
 40
0.075
 49
0.05
 74
     0
 49
-0.025
 74
     0
  0
LTYPE
  5
3C
330
5
100
AcDbSymbolTableRecord
100
AcDbLinetypeTableRecord
  2
PHANTOM
 70
     0
  3
Phantom ______  __  __  ______  __  __  ______
 72
    65
 73
     6
 40
0.5
 49
0.25
 74
     0
 49
-0.05
 74
     0
 49
0.05
 74
     0
 49
-0.05
 74
     0
 49
0.05
 74
     0
 49
-0.05
 74
     0
  0
LTYPE
  5
3D
330
5
100
AcDbSymbolTableRecord
100
AcDbLinetypeTableRecord
  2
CENTER
 70
     0
  3
Center ____ _ ____ _ ____ _ ____ _ ____ _ ____
 72
    65
 73
     4
 40
0.4
 49
0.25
 74
     0
 49
-0.05
 74
     0
 49
0.05
 74
     0
 49
-0.05
 74
     0
  0
LTYPE
  5
3E
330
5
100
AcDbSymbolTableRecord
100
AcDbLinetypeTableRecord
  2
CENTERX2
 70
     0
  3
Center (2x) ________  __  ________  __  _____
 72
    65
 73
     4
 40
0.8
 49
0.5
 74
     0
 49
-0.1
 74
     0
 49
0.1
 74
     0
 49
-0.1
 74
     0
  0
LTYPE
  5
3F
330
5
100
AcDbSymbolTableRecord
100
AcDbLinetypeTableRecord
  2
DOT2
 70
     0
  3
Dot (.5x) ........................................
 72
    65
 73
     2
 40
0.025
 49
0.0
 74
     0
 49
-0.025
 74
     0
  0
ENDTAB
  0
TABLE
  2
LAYER
  5
2
330
0
100
AcDbSymbolTable
 70
     2
  0
LAYER
  5
10
330
2
100
AcDbSymbolTableRecord
100
AcDbLayerTableRecord
  2
0
 70
     0
 62
     7
  6
CONTINUOUS
  0
LAYER
  5
40
330
2
100
AcDbSymbolTableRecord
100
AcDbLayerTableRecord
  2
FORMAT
 70
     0
 62
     7
  6
CONTINUOUS
  0
ENDTAB
  0
TABLE
  2
STYLE
  5
3
330
0
100
AcDbSymbolTable
 70
     4
  0
STYLE
  5
11
330
3
100
AcDbSymbolTableRecord
100
AcDbTextStyleTableRecord
  2
STANDARD
 70
     0
 40
0.0
 41
1.0
 50
0.0
 71
     0
 42
0.2
  3
txt
  4

  0
STYLE
  5
6E
330
3
100
AcDbSymbolTableRecord
100
AcDbTextStyleTableRecord
  2
SLDTEXTSTYLE0
 70
     0
 40
0.0
 41
0.75
 50
0.0
 71
     0
 42
0.2
  3
TXT
  4

  0
STYLE
  5
93
330
3
100
AcDbSymbolTableRecord
100
AcDbTextStyleTableRecord
  2
SLDTEXTSTYLE1
 70
     0
 40
0.0
 41
0.6875
 50
0.0
 71
     0
 42
0.2
  3
TXT
  4

  0
STYLE
  5
99
330
3
100
AcDbSymbolTableRecord
100
AcDbTextStyleTableRecord
  2
SLDTEXTSTYLE2
 70
     0
 40
0.0
 41
0.6944444444
 50
0.0
 71
     0
 42
0.2
  3
TXT
  4

  0
ENDTAB
  0
TABLE
  2
VIEW
  5
6
330
0
100
AcDbSymbolTable
 70
     0
  0
ENDTAB
  0
TABLE
  2
UCS
  5
7
330
0
100
AcDbSymbolTable
 70
     0
  0
ENDTAB
  0
TABLE
  2
APPID
  5
9
330
0
100
AcDbSymbolTable
 70
     1
  0
APPID
  5
12
330
9
100
AcDbSymbolTableRecord
100
AcDbRegAppTableRecord
  2
ACAD
 70
     0
  0
ENDTAB
  0
TABLE
  2
DIMSTYLE
  5
A
330
0
100
AcDbSymbolTable
 70
     1
  0
DIMSTYLE
105
27
330
A
100
AcDbSymbolTableRecord
100
AcDbDimStyleTableRecord
  2
STANDARD
 70
     0
  3

  4

  5

  6

  7

 40
1.0
 41
0.18
 42
0.0625
 43
0.38
 44
0.18
 45
0.0
 46
0.0
 47
0.0
 48
0.0
140
0.18
141
0.09
142
0.0
143
25.4
144
1.0
145
0.0
146
1.0
147
0.09
 71
     0
 72
     0
 73
     1
 74
     1
 75
     0
 76
     0
 77
     0
 78
     0
170
     0
171
     2
172
     0
173
     0
174
     0
175
     0
176
     0
177
     0
178
     0
270
     2
271
     4
272
     4
273
     2
274
     2
340
11
275
     0
280
     0
281
     0
282
     0
283
     1
284
     0
285
     0
286
     0
287
     3
288
     0
  0
ENDTAB
  0
TABLE
  2
BLOCK_RECORD
  5
1
330
0
100
AcDbSymbolTable
 70
     4
  0
BLOCK_RECORD
  5
1F
330
1
100
AcDbSymbolTableRecord
100
AcDbBlockTableRecord
  2
*MODEL_SPACE
  0
BLOCK_RECORD
  5
1B
330
1
100
AcDbSymbolTableRecord
100
AcDbBlockTableRecord
  2
*PAPER_SPACE
  0
BLOCK_RECORD
  5
A8
330
1
100
AcDbSymbolTableRecord
100
AcDbBlockTableRecord
  2
SW_NOTE_0
  0
BLOCK_RECORD
  5
AE
330
1
100
AcDbSymbolTableRecord
100
AcDbBlockTableRecord
  2
SW_NOTE_1
  0
BLOCK_RECORD
  5
C2
330
1
100
AcDbSymbolTableRecord
100
AcDbBlockTableRecord
  2
SW_NOTE_2
  0
ENDTAB
  0
ENDSEC
  0
SECTION
  2
BLOCKS
  0
BLOCK
  5
20
330
1F
100
AcDbEntity
  8
0
100
AcDbBlockBegin
  2
*MODEL_SPACE
 70
     0
 10
0.0
 20
0.0
 30
0.0
  3
*MODEL_SPACE
  1

  0
ENDBLK
  5
21
330
1F
100
AcDbEntity
  8
0
100
AcDbBlockEnd
  0
BLOCK
  5
1C
330
1B
100
AcDbEntity
 67
     1
  8
0
100
AcDbBlockBegin
  2
*PAPER_SPACE
 70
     0
 10
0.0
 20
0.0
 30
0.0
  3
*PAPER_SPACE
  1

  0
ENDBLK
  5
1D
330
1B
100
AcDbEntity
 67
     1
  8
0
100
AcDbBlockEnd
  0
BLOCK
  5
A9
330
A8
100
AcDbEntity
  8
0
100
AcDbBlockBegin
  2
SW_NOTE_0
 70
     0
 10
0.0
 20
0.0
 30
0.0
  3
SW_NOTE_0
  1

  0
MTEXT
  5
AB
330
A8
100
AcDbEntity
  8
0
  6
CONTINUOUS
 62
     0
100
AcDbMText
 10
0.0
 20
0.0773440644
 30
0.0
 40
0.06
 41
0.0
 71
     1
 72
     1
  1
INTERPRET GEOMETRIC
  7
SLDTEXTSTYLE0
  0
MTEXT
  5
AC
330
A8
100
AcDbEntity
  8
0
  6
CONTINUOUS
 62
     0
100
AcDbMText
 10
0.0
 20
-0.0220260102
 30
0.0
 40
0.06
 41
0.0
 71
     1
 72
     1
  1
TOLERANCING PER:
  7
SLDTEXTSTYLE0
  0
ENDBLK
  5
AA
330
A8
100
AcDbEntity
  8
0
100
AcDbBlockEnd
  0
BLOCK
  5
AF
330
AE
100
AcDbEntity
  8
0
100
AcDbBlockBegin
  2
SW_NOTE_1
 70
     0
 10
0.0
 20
0.0
 30
0.0
  3
SW_NOTE_1
  1

  0
MTEXT
  5
B1
330
AE
100
AcDbEntity
  8
0
  6
CONTINUOUS
 62
     0
100
AcDbMText
 10
0.0
 20
0.0837894031
 30
0.0
 40
0.065
 41
0.0
 71
     1
 72
     1
  1
DIMENSIONS ARE IN INCHES
  7
SLDTEXTSTYLE0
  0
MTEXT
  5
B2
330
AE
100
AcDbEntity
  8
0
  6
CONTINUOUS
 62
     0
100
AcDbMText
 10
0.0
 20
-0.0205806729
 30
0.0
 40
0.065
 41
0.0
 71
     1
 72
     1
  1
TOLERANCES:
  7
SLDTEXTSTYLE0
  0
MTEXT
  5
B3
330
AE
100
AcDbEntity
  8
0
  6
CONTINUOUS
 62
     0
100
AcDbMText
 10
0.0
 20
-0.1249507489
 30
0.0
 40
0.065
 41
0.0
 71
     1
 72
     1
  1
FRACTIONAL
  7
SLDTEXTSTYLE0
  0
MTEXT
  5
B4
330
AE
100
AcDbEntity
  8
0
  6
CONTINUOUS
 62
     0
100
AcDbMText
 10
0.5175850875
 20
-0.1249507489
 30
0.0
 40
0.065
 41
0.0
 71
     1
 72
     1
  1
%%p
  7
SLDTEXTSTYLE0
  0
MTEXT
  5
B5
330
AE
100
AcDbEntity
  8
0
  6
CONTINUOUS
 62
     0
100
AcDbMText
 10
0.0
 20
-0.2293208248
 30
0.0
 40
0.065
 41
0.0
 71
     1
 72
     1
  1
ANGULAR: MACH
  7
SLDTEXTSTYLE0
  0
MTEXT
  5
B6
330
AE
100
AcDbEntity
  8
0
  6
CONTINUOUS
 62
     0
100
AcDbMText
 10
0.7233732769
 20
-0.2293208248
 30
0.0
 40
0.065
 41
0.0
 71
     1
 72
     1
  1
%%p
  7
SLDTEXTSTYLE0
  0
MTEXT
  5
B7
330
AE
100
AcDbEntity
  8
0
  6
CONTINUOUS
 62
     0
100
AcDbMText
 10
0.7852857683
 20
-0.2293208248
 30
0.0
 40
0.065
 41
0.0
 71
     1
 72
     1
  1
     BEND 
  7
SLDTEXTSTYLE0
  0
MTEXT
  5
B8
330
AE
100
AcDbEntity
  8
0
  6
CONTINUOUS
 62
     0
100
AcDbMText
 10
1.14784136
 20
-0.2293208248
 30
0.0
 40
0.065
 41
0.0
 71
     1
 72
     1
  1
%%p
  7
SLDTEXTSTYLE0
  0
MTEXT
  5
B9
330
AE
100
AcDbEntity
  8
0
  6
CONTINUOUS
 62
     0
100
AcDbMText
 10
0.0
 20
-0.3336909008
 30
0.0
 40
0.065
 41
0.0
 71
     1
 72
     1
  1
TWO PLACE DECIMAL    
  7
SLDTEXTSTYLE0
  0
MTEXT
  5
BA
330
AE
100
AcDbEntity
  8
0
  6
CONTINUOUS
 62
     0
100
AcDbMText
 10
0.9794349188
 20
-0.3336909008
 30
0.0
 40
0.065
 41
0.0
 71
     1
 72
     1
  1
%%p
  7
SLDTEXTSTYLE0
  0
MTEXT
  5
BB
330
AE
100
AcDbEntity
  8
0
  6
CONTINUOUS
 62
     0
100
AcDbMText
 10
0.0
 20
-0.4380609768
 30
0.0
 40
0.065
 41
0.0
 71
     1
 72
     1
  1
THREE PLACE DECIMAL  
  7
SLDTEXTSTYLE0
  0
MTEXT
  5
BC
330
AE
100
AcDbEntity
  8
0
  6
CONTINUOUS
 62
     0
100
AcDbMText
 10
0.9738038639
 20
-0.4380609768
 30
0.0
 40
0.065
 41
0.0
 71
     1
 72
     1
  1
%%p
  7
SLDTEXTSTYLE0
  0
ENDBLK
  5
B0
330
AE
100
AcDbEntity
  8
0
100
AcDbBlockEnd
  0
BLOCK
  5
C3
330
C2
100
AcDbEntity
  8
0
100
AcDbBlockBegin
  2
SW_NOTE_2
 70
     0
 10
0.0
 20
0.0
 30
0.0
  3
SW_NOTE_2
  1

  0
MTEXT
  5
C5
330
C2
100
AcDbEntity
  8
0
  6
CONTINUOUS
 62
     0
100
AcDbMText
 10
0.0
 20
0.0773440644
 30
0.0
 40
0.06
 41
0.0
 71
     1
 72
     1
  1
THE INFORMATION CONTAINED IN THIS
  7
SLDTEXTSTYLE0
  0
MTEXT
  5
C6
330
C2
100
AcDbEntity
  8
0
  6
CONTINUOUS
 62
     0
100
AcDbMText
 10
0.0
 20
-0.0220260102
 30
0.0
 40
0.06
 41
0.0
 71
     1
 72
     1
  1
DRAWING IS THE SOLE PROPERTY OF
  7
SLDTEXTSTYLE0
  0
MTEXT
  5
C7
330
C2
100
AcDbEntity
  8
0
  6
CONTINUOUS
 62
     0
100
AcDbMText
 10
0.0
 20
-0.1213960848
 30
0.0
 40
0.06
 41
0.0
 71
     1
 72
     1
  1
Candy Controls.  ANY 
  7
SLDTEXTSTYLE0
  0
MTEXT
  5
C8
330
C2
100
AcDbEntity
  8
0
  6
CONTINUOUS
 62
     0
100
AcDbMText
 10
0.0
 20
-0.2207661593
 30
0.0
 40
0.06
 41
0.0
 71
     1
 72
     1
  1
REPRODUCTION IN PART OR AS A WHOLE
  7
SLDTEXTSTYLE0
  0
MTEXT
  5
C9
330
C2
100
AcDbEntity
  8
0
  6
CONTINUOUS
 62
     0
100
AcDbMText
 10
0.0
 20
-0.3201362339
 30
0.0
 40
0.06
 41
0.0
 71
     1
 72
     1
  1
WITHOUT THE WRITTEN PERMISSION OF
  7
SLDTEXTSTYLE0
  0
MTEXT
  5
CA
330
C2
100
AcDbEntity
  8
0
  6
CONTINUOUS
 62
     0
100
AcDbMText
 10
0.0
 20
-0.4195063085
 30
0.0
 40
0.06
 41
0.0
 71
     1
 72
     1
  1
Candy Controls IS 
  7
SLDTEXTSTYLE0
  0
MTEXT
  5
CB
330
C2
100
AcDbEntity
  8
0
  6
CONTINUOUS
 62
     0
100
AcDbMText
 10
0.0
 20
-0.518876383
 30
0.0
 40
0.06
 41
0.0
 71
     1
 72
     1
  1
PROHIBITED.
  7
SLDTEXTSTYLE0
  0
ENDBLK
  5
C4
330
C2
100
AcDbEntity
  8
0
100
AcDbBlockEnd
  0
ENDSEC
  0
SECTION
  2
ENTITIES
  0
LINE
  5
41
330
1F
100
AcDbEntity
  8
0
  6
CONTINUOUS
 62
     7
100
AcDbLine
 10
0.329927
 20
8.1920731707
 30
0.0
 11
10.629927
 21
8.1920731707
 31
0.0
  0
LINE
  5
42
330
1F
100
AcDbEntity
  8
0
  6
CONTINUOUS
 62
     7
100
AcDbLine
 10
0.329927
 20
8.1920731707
 30
0.0
 11
0.329927
 21
0.3920731707
 31
0.0
  0
LINE
  5
43
330
1F
100
AcDbEntity
  8
0
  6
CONTINUOUS
 62
     7
100
AcDbLine
 10
10.629927
 20
0.3920731707
 30
0.0
 11
0.329927
 21
0.3920731707
 31
0.0
  0
LINE
  5
44
330
1F
100
AcDbEntity
  8
0
  6
CONTINUOUS
 62
     7
100
AcDbLine
 10
10.629927
 20
0.3920731707
 30
0.0
 11
10.629927
 21
8.1920731707
 31
0.0
  0
LINE
  5
45
330
1F
100
AcDbEntity
  8
0
  6
CONTINUOUS
 62
     7
100
AcDbLine
 10
4.7981841288
 20
0.3920731707
 30
0.0
 11
4.7981841288
 21
2.3564211366
 31
0.0
  0
LINE
  5
46
330
1F
100
AcDbEntity
  8
0
  6
CONTINUOUS
 62
     7
100
AcDbLine
 10
2.8210345579
 20
2.3564211366
 30
0.0
 11
10.629927
 21
2.3564211366
 31
0.0
  0
LINE
  5
47
330
1F
100
AcDbEntity
  8
0
  6
CONTINUOUS
 62
     7
100
AcDbLine
 10
6.1796352514
 20
2.3564211366
 30
0.0
 11
6.1796352514
 21
0.3920731707
 31
0.0
  0
LINE
  5
48
330
1F
100
AcDbEntity
  8
0
  6
CONTINUOUS
 62
     7
100
AcDbLine
 10
7.8712070044
 20
2.3564211366
 30
0.0
 11
7.8712070044
 21
0.3920731707
 31
0.0
  0
LINE
  5
49
330
1F
100
AcDbEntity
  8
0
  6
CONTINUOUS
 62
     7
100
AcDbLine
 10
7.8712070044
 20
0.6049590101
 30
0.0
 11
10.629927
 21
0.6049590101
 31
0.0
  0
LINE
  5
4A
330
1F
100
AcDbEntity
  8
0
  6
CONTINUOUS
 62
     7
100
AcDbLine
 10
7.8712070044
 20
1.1119362457
 30
0.0
 11
10.629927
 21
1.1119362457
 31
0.0
  0
LINE
  5
4B
330
1F
100
AcDbEntity
  8
0
  6
CONTINUOUS
 62
     7
100
AcDbLine
 10
7.8712070044
 20
1.9892703708
 30
0.0
 11
10.629927
 21
1.9892703708
 31
0.0
  0
LINE
  5
4C
330
1F
100
AcDbEntity
  8
0
  6
CONTINUOUS
 62
     7
100
AcDbLine
 10
8.266751752
 20
1.1119362457
 30
0.0
 11
8.266751752
 21
0.6049590101
 31
0.0
  0
LINE
  5
4D
330
1F
100
AcDbEntity
  8
0
  6
CONTINUOUS
 62
     7
100
AcDbLine
 10
8.6943435176
 20
0.6049590101
 30
0.0
 11
8.6943435176
 21
0.3920731707
 31
0.0
  0
LINE
  5
4E
330
1F
100
AcDbEntity
  8
0
  6
CONTINUOUS
 62
     7
100
AcDbLine
 10
10.0579917045
 20
1.1119362457
 30
0.0
 11
10.0579917045
 21
0.6049590101
 31
0.0
  0
LINE
  5
4F
330
1F
100
AcDbEntity
  8
0
  6
CONTINUOUS
 62
     7
100
AcDbLine
 10
9.6662556631
 20
0.6049590101
 30
0.0
 11
9.6662556631
 21
0.3920731707
 31
0.0
  0
LINE
  5
50
330
1F
100
AcDbEntity
  8
0
  6
CONTINUOUS
 62
     7
100
AcDbLine
 10
2.8210345579
 20
0.5883479999
 30
0.0
 11
6.1796352514
 21
0.5883479999
 31
0.0
  0
LINE
  5
51
330
1F
100
AcDbEntity
  8
0
  6
CONTINUOUS
 62
     7
100
AcDbLine
 10
6.1796352514
 20
1.7939211366
 30
0.0
 11
7.8712070044
 21
1.7939211366
 31
0.0
  0
LINE
  5
52
330
1F
100
AcDbEntity
  8
0
  6
CONTINUOUS
 62
     7
100
AcDbLine
 10
6.1796352514
 20
1.9814211366
 30
0.0
 11
7.8712070044
 21
1.9814211366
 31
0.0
  0
LINE
  5
53
330
1F
100
AcDbEntity
  8
0
  6
CONTINUOUS
 62
     7
100
AcDbLine
 10
6.1796352514
 20
2.1689211366
 30
0.0
 11
7.8712070044
 21
2.1689211366
 31
0.0
  0
LINE
  5
54
330
1F
100
AcDbEntity
  8
0
  6
CONTINUOUS
 62
     7
100
AcDbLine
 10
7.8712070044
 20
1.2314211366
 30
0.0
 11
6.1796352514
 21
1.2314211366
 31
0.0
  0
LINE
  5
55
330
1F
100
AcDbEntity
  8
0
  6
CONTINUOUS
 62
     7
100
AcDbLine
 10
7.3921580388
 20
2.3564211366
 30
0.0
 11
7.3921580388
 21
1.2314211366
 31
0.0
  0
LINE
  5
56
330
1F
100
AcDbEntity
  8
0
  6
CONTINUOUS
 62
     7
100
AcDbLine
 10
6.9236308342
 20
2.3564211366
 30
0.0
 11
6.9236308342
 21
1.2314211366
 31
0.0
  0
LINE
  5
57
330
1F
100
AcDbEntity
  8
0
  6
CONTINUOUS
 62
     7
100
AcDbLine
 10
4.7981841288
 20
0.8557965305
 30
0.0
 11
6.1796352514
 21
0.8557965305
 31
0.0
  0
LINE
  5
58
330
1F
100
AcDbEntity
  8
0
  6
CONTINUOUS
 62
     7
100
AcDbLine
 10
4.7981841288
 20
1.1257965305
 30
0.0
 11
6.1796352514
 21
1.1257965305
 31
0.0
  0
LINE
  5
59
330
1F
100
AcDbEntity
  8
0
  6
CONTINUOUS
 62
     7
100
AcDbLine
 10
2.8210345579
 20
0.3920731707
 30
0.0
 11
2.8210345579
 21
2.3564211366
 31
0.0
  0
LINE
  5
5A
330
1F
100
AcDbEntity
  8
0
  6
CONTINUOUS
 62
     7
100
AcDbLine
 10
2.8210345579
 20
1.1064211366
 30
0.0
 11
4.7981841288
 21
1.1064211366
 31
0.0
  0
LINE
  5
5B
330
1F
100
AcDbEntity
  8
0
  6
CONTINUOUS
 62
     7
100
AcDbLine
 10
2.8210345579
 20
1.3564211366
 30
0.0
 11
4.7981841288
 21
1.3564211366
 31
0.0
  0
LINE
  5
5C
330
1F
100
AcDbEntity
  8
0
  6
CONTINUOUS
 62
     7
100
AcDbLine
 10
2.8210345579
 20
1.6064211366
 30
0.0
 11
4.7981841288
 21
1.6064211366
 31
0.0
  0
LINE
  5
5D
330
1F
100
AcDbEntity
  8
0
  6
CONTINUOUS
 62
     7
100
AcDbLine
 10
2.8210345579
 20
1.8564211366
 30
0.0
 11
4.7981841288
 21
1.8564211366
 31
0.0
  0
LINE
  5
5E
330
1F
100
AcDbEntity
  8
0
  6
CONTINUOUS
 62
     7
100
AcDbLine
 10
3.8190146875
 20
2.3564211366
 30
0.0
 11
3.8190146875
 21
0.5883479999
 31
0.0
  0
LINE
  5
5F
330
1F
100
AcDbEntity
  8
0
  6
CONTINUOUS
 62
     7
100
AcDbLine
 10
6.1796352514
 20
2.2020813496
 30
0.0
 11
4.7981841288
 21
2.2020813496
 31
0.0
  0
LINE
  5
60
330
1F
100
AcDbEntity
  8
0
  6
CONTINUOUS
 62
     7
100
AcDbLine
 10
7.8712070044
 20
1.6064211366
 30
0.0
 11
6.1796352514
 21
1.6064211366
 31
0.0
  0
LINE
  5
61
330
1F
100
AcDbEntity
  8
0
  6
CONTINUOUS
 62
     7
100
AcDbLine
 10
7.8712070044
 20
1.4189211366
 30
0.0
 11
6.1796352514
 21
1.4189211366
 31
0.0
  0
LINE
  5
62
330
1F
100
AcDbEntity
  8
0
  6
CONTINUOUS
 62
     7
100
AcDbLine
 10
2.8210345579
 20
2.1064211366
 30
0.0
 11
4.7981841288
 21
2.1064211366
 31
0.0
  0
LINE
  5
63
330
1F
100
AcDbEntity
  8
0
  6
CONTINUOUS
 62
     7
100
AcDbLine
 10
4.7981841288
 20
1.3957965305
 30
0.0
 11
6.1796352514
 21
1.3957965305
 31
0.0
  0
LINE
  5
64
330
1F
100
AcDbEntity
  8
0
  6
CONTINUOUS
 62
     7
100
AcDbLine
 10
2.8210345579
 20
0.8564211366
 30
0.0
 11
4.7981841288
 21
0.8564211366
 31
0.0
  0
LINE
  5
65
330
1F
100
AcDbEntity
  8
0
  6
CONTINUOUS
 62
     7
100
AcDbLine
 10
1.1838252943
 20
0.3920731707
 30
0.0
 11
1.1838252943
 21
1.3064211366
 31
0.0
  0
LINE
  5
66
330
1F
100
AcDbEntity
  8
0
  6
CONTINUOUS
 62
     7
100
AcDbLine
 10
2.8210345579
 20
1.3064211366
 30
0.0
 11
1.1838252943
 21
1.3064211366
 31
0.0
  0
LINE
  5
67
330
1F
100
AcDbEntity
  8
0
  6
CONTINUOUS
 62
     7
100
AcDbLine
 10
8.660927
 20
0.3920731707
 30
0.0
 11
8.660927
 21
0.3072739649
 31
0.0
  0
LINE
  5
68
330
1F
100
AcDbEntity
  8
0
  6
CONTINUOUS
 62
     7
100
AcDbLine
 10
6.692177
 20
0.3920731707
 30
0.0
 11
6.692177
 21
0.3072739649
 31
0.0
  0
LINE
  5
69
330
1F
100
AcDbEntity
  8
0
  6
CONTINUOUS
 62
     7
100
AcDbLine
 10
4.723427
 20
0.3920731707
 30
0.0
 11
4.723427
 21
0.3072739649
 31
0.0
  0
LINE
  5
6A
330
1F
100
AcDbEntity
  8
0
  6
CONTINUOUS
 62
     7
100
AcDbLine
 10
2.754677
 20
0.3920731707
 30
0.0
 11
2.754677
 21
0.3072739649
 31
0.0
  0
LINE
  5
6B
330
1F
100
AcDbEntity
  8
0
  6
CONTINUOUS
 62
     7
100
AcDbLine
 10
2.754677
 20
0.3920731707
 30
0.0
 11
2.7672319738
 21
0.3575
 31
0.0
  0
LINE
  5
6C
330
1F
100
AcDbEntity
  8
0
  6
CONTINUOUS
 62
     7
100
AcDbLine
 10
2.7672319738
 20
0.3575
 30
0.0
 11
2.7414258825
 21
0.3575
 31
0.0
  0
LINE
  5
6D
330
1F
100
AcDbEntity
  8
0
  6
CONTINUOUS
 62
     7
100
AcDbLine
 10
2.7414258825
 20
0.3575
 30
0.0
 11
2.754677
 21
0.3920731707
 31
0.0
  0
MTEXT
  5
91
330
1F
100
AcDbEntity
  8
0
  6
CONTINUOUS
 62
     7
100
AcDbMText
 10
4.9775846961
 20
0.5178452352
 30
0.0
 40
0.0625
 41
0.0
 71
     1
 72
     1
  1
DO NOT SCALE DRAWING
  7
SLDTEXTSTYLE0
  0
MTEXT
  5
92
330
1F
100
AcDbEntity
  8
0
  6
CONTINUOUS
 62
     7
100
AcDbMText
 10
8.9028179714
 20
0.9417064595
 30
0.0
 40
0.125
 41
0.0
 71
     1
 72
     1
  1
CL7-50
  7
SLDTEXTSTYLE0
  0
MTEXT
  5
94
330
1F
100
AcDbEntity
  8
0
  6
CONTINUOUS
 62
     7
100
AcDbMText
 10
9.7571278483
 20
0.5524239532
 30
0.0
 40
0.1
 41
0.0
 71
     1
 72
     1
  1
SHEET 1 OF 1
  7
SLDTEXTSTYLE1
  0
MTEXT
  5
95
330
1F
100
AcDbEntity
  8
0
  6
CONTINUOUS
 62
     7
100
AcDbMText
 10
4.8448077858
 20
2.3132954224
 30
0.0
 40
0.07
 41
0.0
 71
     1
 72
     1
  1
UNLESS OTHERWISE SPECIFIED:
  7
SLDTEXTSTYLE0
  0
MTEXT
  5
96
330
1F
100
AcDbEntity
  8
0
  6
CONTINUOUS
 62
     7
100
AcDbMText
 10
7.9586139647
 20
0.5520987879
 30
0.0
 40
0.1
 41
0.0
 71
     1
 72
     1
  1
SCALE: 1:1
  7
SLDTEXTSTYLE0
  0
MTEXT
  5
97
330
1F
100
AcDbEntity
  8
0
  6
CONTINUOUS
 62
     7
100
AcDbMText
 10
8.7023691647
 20
0.5486763345
 30
0.0
 40
0.1
 41
0.0
 71
     1
 72
     1
  1
WEIGHT: 
  7
SLDTEXTSTYLE0
  0
MTEXT
  5
98
330
1F
100
AcDbEntity
  8
0
  6
CONTINUOUS
 62
     7
100
AcDbMText
 10
10.2277580983
 20
1.081966299
 30
0.0
 40
0.1
 41
0.0
 71
     1
 72
     1
  1
REV
  7
SLDTEXTSTYLE0
  0
MTEXT
  5
9A
330
1F
100
AcDbEntity
  8
0
  6
CONTINUOUS
 62
     7
100
AcDbMText
 10
8.2984570898
 20
1.0858725293
 30
0.0
 40
0.1
 41
0.0
 71
     1
 72
     1
  1
DWG.  NO.
  7
SLDTEXTSTYLE2
  0
MTEXT
  5
9B
330
1F
100
AcDbEntity
  8
0
  6
CONTINUOUS
 62
     7
100
AcDbMText
 10
7.9598482632
 20
0.9442140768
 30
0.0
 40
0.25
 41
0.0
 71
     1
 72
     1
  1
A
  7
SLDTEXTSTYLE0
  0
MTEXT
  5
9C
330
1F
100
AcDbEntity
  8
0
  6
CONTINUOUS
 62
     7
100
AcDbMText
 10
7.9519581822
 20
1.0872713483
 30
0.0
 40
0.1
 41
0.0
 71
     1
 72
     1
  1
SIZE
  7
SLDTEXTSTYLE0
  0
MTEXT
  5
9D
330
1F
100
AcDbEntity
  8
0
  6
CONTINUOUS
 62
     7
100
AcDbMText
 10
7.9170704177
 20
1.9547881128
 30
0.0
 40
0.1
 41
0.0
 71
     1
 72
     1
  1
TITLE:
  7
SLDTEXTSTYLE0
  0
MTEXT
  5
9E
330
1F
100
AcDbEntity
  8
0
  6
CONTINUOUS
 62
     7
100
AcDbMText
 10
7.0363774929
 20
2.2906161274
 30
0.0
 40
0.065
 41
0.0
 71
     1
 72
     1
  1
NAME
  7
SLDTEXTSTYLE0
  0
MTEXT
  5
9F
330
1F
100
AcDbEntity
  8
0
  6
CONTINUOUS
 62
     7
100
AcDbMText
 10
7.5281510634
 20
2.2888799118
 30
0.0
 40
0.065
 41
0.0
 71
     1
 72
     1
  1
DATE
  7
SLDTEXTSTYLE0
  0
MTEXT
  5
A0
330
1F
100
AcDbEntity
  8
0
  6
CONTINUOUS
 62
     7
100
AcDbMText
 10
6.2277147029
 20
1.1876913145
 30
0.0
 40
0.065
 41
0.0
 71
     1
 72
     1
  1
COMMENTS:
  7
SLDTEXTSTYLE0
  0
MTEXT
  5
A1
330
1F
100
AcDbEntity
  8
0
  6
CONTINUOUS
 62
     7
100
AcDbMText
 10
6.2268411461
 20
1.3536101679
 30
0.0
 40
0.065
 41
0.0
 71
     1
 72
     1
  1
Q.A.
  7
SLDTEXTSTYLE0
  0
MTEXT
  5
A2
330
1F
100
AcDbEntity
  8
0
  6
CONTINUOUS
 62
     7
100
AcDbMText
 10
6.2284654509
 20
1.5395328424
 30
0.0
 40
0.065
 41
0.0
 71
     1
 72
     1
  1
MFG APPR.
  7
SLDTEXTSTYLE0
  0
MTEXT
  5
A3
330
1F
100
AcDbEntity
  8
0
  6
CONTINUOUS
 62
     7
100
AcDbMText
 10
6.2235171344
 20
1.7267501785
 30
0.0
 40
0.065
 41
0.0
 71
     1
 72
     1
  1
ENG APPR.
  7
SLDTEXTSTYLE0
  0
MTEXT
  5
A4
330
1F
100
AcDbEntity
  8
0
  6
CONTINUOUS
 62
     7
100
AcDbMText
 10
6.2264103951
 20
1.9092699088
 30
0.0
 40
0.065
 41
0.0
 71
     1
 72
     1
  1
CHECKED
  7
SLDTEXTSTYLE0
  0
MTEXT
  5
A5
330
1F
100
AcDbEntity
  8
0
  6
CONTINUOUS
 62
     7
100
AcDbMText
 10
6.2242794356
 20
2.1016301232
 30
0.0
 40
0.065
 41
0.0
 71
     1
 72
     1
  1
DRAWN
  7
SLDTEXTSTYLE0
  0
MTEXT
  5
A6
330
1F
100
AcDbEntity
  8
0
  6
CONTINUOUS
 62
     7
100
AcDbMText
 10
4.8208600979
 20
0.834523235
 30
0.0
 40
0.06
 41
0.0
 71
     1
 72
     1
  1
FINISH
  7
SLDTEXTSTYLE0
  0
MTEXT
  5
A7
330
1F
100
AcDbEntity
  8
0
  6
CONTINUOUS
 62
     7
100
AcDbMText
 10
4.8181240648
 20
1.1028217587
 30
0.0
 40
0.06
 41
0.0
 71
     1
 72
     1
  1
MATERIAL
  7
SLDTEXTSTYLE0
  0
INSERT
  5
AD
330
1F
100
AcDbEntity
  8
0
  6
CONTINUOUS
 62
     7
100
AcDbBlockReference
  2
SW_NOTE_0
 10
4.8231926633
 20
1.2646542947
 30
0.0
  0
INSERT
  5
BD
330
1F
100
AcDbEntity
  8
0
  6
CONTINUOUS
 62
     7
100
AcDbBlockReference
  2
SW_NOTE_1
 10
4.8353339353
 20
2.0049168724
 30
0.0
  0
MTEXT
  5
BE
330
1F
100
AcDbEntity
  8
0
  6
CONTINUOUS
 62
     7
100
AcDbMText
 10
3.5531400086
 20
0.5200091997
 30
0.0
 40
0.0625
 41
0.0
 71
     1
 72
     1
  1
APPLICATION
  7
SLDTEXTSTYLE0
  0
MTEXT
  5
BF
330
1F
100
AcDbEntity
  8
0
  6
CONTINUOUS
 62
     7
100
AcDbMText
 10
4.1005607758
 20
0.7502454275
 30
0.0
 40
0.0625
 41
0.0
 71
     1
 72
     1
  1
USED ON
  7
SLDTEXTSTYLE0
  0
MTEXT
  5
C0
330
1F
100
AcDbEntity
  8
0
  6
CONTINUOUS
 62
     7
100
AcDbMText
 10
3.1040019536
 20
0.7492094783
 30
0.0
 40
0.0625
 41
0.0
 71
     1
 72
     1
  1
NEXT ASSY
  7
SLDTEXTSTYLE0
  0
MTEXT
  5
C1
330
1F
100
AcDbEntity
  8
0
  6
CONTINUOUS
 62
     7
100
AcDbMText
 10
1.3712489489
 20
1.2496672684
 30
0.0
 40
0.06
 41
0.0
 71
     1
 72
     1
  1
PROPRIETARY AND CONFIDENTIAL
  7
SLDTEXTSTYLE0
  0
INSERT
  5
CC
330
1F
100
AcDbEntity
  8
0
  6
CONTINUOUS
 62
     7
100
AcDbBlockReference
  2
SW_NOTE_2
 10
1.2226209074
 20
1.0313492921
 30
0.0
  0
MTEXT
  5
CD
330
1F
100
AcDbEntity
  8
0
  6
CONTINUOUS
 62
     7
100
AcDbMText
 10
1.7387909509
 20
0.3105864247
 30
0.0
 40
0.09375
 41
0.0
 71
     1
 72
     1
  1
5
  7
SLDTEXTSTYLE0
  0
MTEXT
  5
CE
330
1F
100
AcDbEntity
  8
0
  6
CONTINUOUS
 62
     7
100
AcDbMText
 10
3.723800327
 20
0.3137237518
 30
0.0
 40
0.09375
 41
0.0
 71
     1
 72
     1
  1
4
  7
SLDTEXTSTYLE0
  0
MTEXT
  5
CF
330
1F
100
AcDbEntity
  8
0
  6
CONTINUOUS
 62
     7
100
AcDbMText
 10
5.6324457277
 20
0.3116191842
 30
0.0
 40
0.09375
 41
0.0
 71
     1
 72
     1
  1
3
  7
SLDTEXTSTYLE0
  0
MTEXT
  5
D0
330
1F
100
AcDbEntity
  8
0
  6
CONTINUOUS
 62
     7
100
AcDbMText
 10
7.6059721724
 20
0.3124391351
 30
0.0
 40
0.09375
 41
0.0
 71
     1
 72
     1
  1
2
  7
SLDTEXTSTYLE0
  0
MTEXT
  5
D1
330
1F
100
AcDbEntity
  8
0
  6
CONTINUOUS
 62
     7
100
AcDbMText
 10
9.6619921328
 20
0.301372012
 30
0.0
 40
0.09375
 41
0.0
 71
     1
 72
     1
  1
1
  7
SLDTEXTSTYLE0
  0
LINE
  5
D2
330
1F
100
AcDbEntity
  8
0
  6
CONTINUOUS
 62
     7
100
AcDbLine
 10
1.9439983081
 20
2.772457814
 30
0.0
 11
4.7092738987
 21
2.772457814
 31
0.0
  0
LINE
  5
D3
330
1F
100
AcDbEntity
  8
0
  6
CONTINUOUS
 62
     7
100
AcDbLine
 10
2.2319657514
 20
4.740961751
 30
0.0
 11
1.9439983081
 21
4.740961751
 31
0.0
  0
LINE
  5
D4
330
1F
100
AcDbEntity
  8
0
  6
CONTINUOUS
 62
     7
100
AcDbLine
 10
4.2004696885
 20
4.740961751
 30
0.0
 11
2.4527903649
 21
4.740961751
 31
0.0
  0
LINE
  5
D5
330
1F
100
AcDbEntity
  8
0
  6
CONTINUOUS
 62
     7
100
AcDbLine
 10
4.7092738987
 20
4.740961751
 30
0.0
 11
4.4212943019
 21
4.740961751
 31
0.0
  0
LINE
  5
D6
330
1F
100
AcDbEntity
  8
0
  6
CONTINUOUS
 62
     7
100
AcDbLine
 10
4.7092738987
 20
2.772457814
 30
0.0
 11
4.7242738987
 21
2.787457814
 31
0.0
  0
LINE
  5
D7
330
1F
100
AcDbEntity
  8
0
  6
CONTINUOUS
 62
     7
100
AcDbLine
 10
4.7242738987
 20
4.725961751
 30
0.0
 11
4.7092738987
 21
4.740961751
 31
0.0
  0
LINE
  5
D8
330
1F
100
AcDbEntity
  8
0
  6
CONTINUOUS
 62
     7
100
AcDbLine
 10
1.9439983081
 20
4.740961751
 30
0.0
 11
1.9289983081
 21
4.725961751
 31
0.0
  0
LINE
  5
D9
330
1F
100
AcDbEntity
  8
0
  6
CONTINUOUS
 62
     7
100
AcDbLine
 10
1.9289983081
 20
2.787457814
 30
0.0
 11
1.9439983081
 21
2.772457814
 31
0.0
  0
LINE
  5
DA
330
1F
100
AcDbEntity
  8
0
  6
CONTINUOUS
 62
     7
100
AcDbLine
 10
2.4328922784
 20
4.7388788043
 30
0.0
 11
2.4308093317
 21
4.740961751
 31
0.0
  0
LINE
  5
DB
330
1F
100
AcDbEntity
  8
0
  6
CONTINUOUS
 62
     7
100
AcDbLine
 10
2.253958938
 20
4.740961751
 30
0.0
 11
2.2518766163
 21
4.7388794293
 31
0.0
  0
LINE
  5
DC
330
1F
100
AcDbEntity
  8
0
  6
CONTINUOUS
 62
     7
100
AcDbLine
 10
4.4013962154
 20
4.7388788043
 30
0.0
 11
4.3993132687
 21
4.740961751
 31
0.0
  0
LINE
  5
DD
330
1F
100
AcDbEntity
  8
0
  6
CONTINUOUS
 62
     7
100
AcDbLine
 10
4.222462875
 20
4.740961751
 30
0.0
 11
4.2203805533
 21
4.7388794293
 31
0.0
  0
LINE
  5
DE
330
1F
100
AcDbEntity
  8
0
  6
CONTINUOUS
 62
     7
100
AcDbLine
 10
4.7092738987
 20
2.772457814
 30
0.0
 11
4.7092738987
 21
4.740961751
 31
0.0
  0
LINE
  5
DF
330
1F
100
AcDbEntity
  8
0
  6
CONTINUOUS
 62
     7
100
AcDbLine
 10
1.9439983081
 20
4.740961751
 30
0.0
 11
1.9439983081
 21
2.772457814
 31
0.0
  0
POLYLINE
  5
E0
330
1F
100
AcDbEntity
  8
0
  6
CONTINUOUS
 62
     7
100
AcDb2dPolyline
 66
     1
 10
0.0
 20
0.0
 30
0.0
  0
VERTEX
  5
1FA
330
E0
100
AcDbEntity
  8
0
  6
CONTINUOUS
 62
     7
100
AcDbVertex
100
AcDb2dVertex
 10
2.4527903649
 20
4.7409603947
 30
0.0
  0
VERTEX
  5
1FB
330
E0
100
AcDbEntity
  8
0
  6
CONTINUOUS
 62
     7
100
AcDbVertex
100
AcDb2dVertex
 10
2.4528024513
 20
4.7409617432
 30
0.0
  0
VERTEX
  5
1FC
330
E0
100
AcDbEntity
  8
0
  6
CONTINUOUS
 62
     7
100
AcDbVertex
100
AcDb2dVertex
 10
2.4506725665
 20
4.7407195522
 30
0.0
  0
VERTEX
  5
1FD
330
E0
100
AcDbEntity
  8
0
  6
CONTINUOUS
 62
     7
100
AcDbVertex
100
AcDb2dVertex
 10
2.4442819672
 20
4.7400247397
 30
0.0
  0
VERTEX
  5
1FE
330
E0
100
AcDbEntity
  8
0
  6
CONTINUOUS
 62
     7
100
AcDbVertex
100
AcDb2dVertex
 10
2.4340722183
 20
4.7389838231
 30
0.0
  0
VERTEX
  5
1FF
330
E0
100
AcDbEntity
  8
0
  6
CONTINUOUS
 62
     7
100
AcDbVertex
100
AcDb2dVertex
 10
2.4204222288
 20
4.737768926
 30
0.0
  0
VERTEX
  5
200
330
E0
100
AcDbEntity
  8
0
  6
CONTINUOUS
 62
     7
100
AcDbVertex
100
AcDb2dVertex
 10
2.4037840182
 20
4.7365564844
 30
0.0
  0
VERTEX
  5
201
330
E0
100
AcDbEntity
  8
0
  6
CONTINUOUS
 62
     7
100
AcDbVertex
100
AcDb2dVertex
 10
2.3845748508
 20
4.7355198749
 30
0.0
  0
VERTEX
  5
202
330
E0
100
AcDbEntity
  8
0
  6
CONTINUOUS
 62
     7
100
AcDbVertex
100
AcDb2dVertex
 10
2.3637541176
 20
4.7348159758
 30
0.0
  0
VERTEX
  5
203
330
E0
100
AcDbEntity
  8
0
  6
CONTINUOUS
 62
     7
100
AcDbVertex
100
AcDb2dVertex
 10
2.3423277618
 20
4.7345721614
 30
0.0
  0
VERTEX
  5
204
330
E0
100
AcDbEntity
  8
0
  6
CONTINUOUS
 62
     7
100
AcDbVertex
100
AcDb2dVertex
 10
2.3209290171
 20
4.7348177621
 30
0.0
  0
VERTEX
  5
205
330
E0
100
AcDbEntity
  8
0
  6
CONTINUOUS
 62
     7
100
AcDbVertex
100
AcDb2dVertex
 10
2.3000834195
 20
4.7355249427
 30
0.0
  0
VERTEX
  5
206
330
E0
100
AcDbEntity
  8
0
  6
CONTINUOUS
 62
     7
100
AcDbVertex
100
AcDb2dVertex
 10
2.280895715
 20
4.7365623046
 30
0.0
  0
VERTEX
  5
207
330
E0
100
AcDbEntity
  8
0
  6
CONTINUOUS
 62
     7
100
AcDbVertex
100
AcDb2dVertex
 10
2.264255265
 20
4.7377763553
 30
0.0
  0
VERTEX
  5
208
330
E0
100
AcDbEntity
  8
0
  6
CONTINUOUS
 62
     7
100
AcDbVertex
100
AcDb2dVertex
 10
2.2506397093
 20
4.7389896513
 30
0.0
  0
VERTEX
  5
209
330
E0
100
AcDbEntity
  8
0
  6
CONTINUOUS
 62
     7
100
AcDbVertex
100
AcDb2dVertex
 10
2.240440697
 20
4.7400306158
 30
0.0
  0
VERTEX
  5
20A
330
E0
100
AcDbEntity
  8
0
  6
CONTINUOUS
 62
     7
100
AcDbVertex
100
AcDb2dVertex
 10
2.2340740113
 20
4.7407224783
 30
0.0
  0
VERTEX
  5
20B
330
E0
100
AcDbEntity
  8
0
  6
CONTINUOUS
 62
     7
100
AcDbVertex
100
AcDb2dVertex
 10
2.2319657514
 20
4.740961751
 30
0.0
  0
VERTEX
  5
20C
330
E0
100
AcDbEntity
  8
0
  6
CONTINUOUS
 62
     7
100
AcDbVertex
100
AcDb2dVertex
 10
2.2319657514
 20
4.740961751
 30
0.0
  0
SEQEND
  5
20D
330
E0
100
AcDbEntity
  8
0
  6
CONTINUOUS
 62
     7
  0
POLYLINE
  5
E1
330
1F
100
AcDbEntity
  8
0
  6
CONTINUOUS
 62
     7
100
AcDb2dPolyline
 66
     1
 10
0.0
 20
0.0
 30
0.0
  0
VERTEX
  5
20E
330
E1
100
AcDbEntity
  8
0
  6
CONTINUOUS
 62
     7
100
AcDbVertex
100
AcDb2dVertex
 10
4.4212943019
 20
4.7409603947
 30
0.0
  0
VERTEX
  5
20F
330
E1
100
AcDbEntity
  8
0
  6
CONTINUOUS
 62
     7
100
AcDbVertex
100
AcDb2dVertex
 10
4.4213063883
 20
4.7409617432
 30
0.0
  0
VERTEX
  5
210
330
E1
100
AcDbEntity
  8
0
  6
CONTINUOUS
 62
     7
100
AcDbVertex
100
AcDb2dVertex
 10
4.4191765035
 20
4.7407195522
 30
0.0
  0
VERTEX
  5
211
330
E1
100
AcDbEntity
  8
0
  6
CONTINUOUS
 62
     7
100
AcDbVertex
100
AcDb2dVertex
 10
4.4127859042
 20
4.7400247397
 30
0.0
  0
VERTEX
  5
212
330
E1
100
AcDbEntity
  8
0
  6
CONTINUOUS
 62
     7
100
AcDbVertex
100
AcDb2dVertex
 10
4.4025761553
 20
4.7389838231
 30
0.0
  0
VERTEX
  5
213
330
E1
100
AcDbEntity
  8
0
  6
CONTINUOUS
 62
     7
100
AcDbVertex
100
AcDb2dVertex
 10
4.3889261658
 20
4.737768926
 30
0.0
  0
VERTEX
  5
214
330
E1
100
AcDbEntity
  8
0
  6
CONTINUOUS
 62
     7
100
AcDbVertex
100
AcDb2dVertex
 10
4.3722879552
 20
4.7365564844
 30
0.0
  0
VERTEX
  5
215
330
E1
100
AcDbEntity
  8
0
  6
CONTINUOUS
 62
     7
100
AcDbVertex
100
AcDb2dVertex
 10
4.3530787878
 20
4.7355198749
 30
0.0
  0
VERTEX
  5
216
330
E1
100
AcDbEntity
  8
0
  6
CONTINUOUS
 62
     7
100
AcDbVertex
100
AcDb2dVertex
 10
4.3322580546
 20
4.7348159758
 30
0.0
  0
VERTEX
  5
217
330
E1
100
AcDbEntity
  8
0
  6
CONTINUOUS
 62
     7
100
AcDbVertex
100
AcDb2dVertex
 10
4.3108316988
 20
4.7345721614
 30
0.0
  0
VERTEX
  5
218
330
E1
100
AcDbEntity
  8
0
  6
CONTINUOUS
 62
     7
100
AcDbVertex
100
AcDb2dVertex
 10
4.2894329541
 20
4.7348177621
 30
0.0
  0
VERTEX
  5
219
330
E1
100
AcDbEntity
  8
0
  6
CONTINUOUS
 62
     7
100
AcDbVertex
100
AcDb2dVertex
 10
4.2685873565
 20
4.7355249427
 30
0.0
  0
VERTEX
  5
21A
330
E1
100
AcDbEntity
  8
0
  6
CONTINUOUS
 62
     7
100
AcDbVertex
100
AcDb2dVertex
 10
4.249399652
 20
4.7365623046
 30
0.0
  0
VERTEX
  5
21B
330
E1
100
AcDbEntity
  8
0
  6
CONTINUOUS
 62
     7
100
AcDbVertex
100
AcDb2dVertex
 10
4.232759202
 20
4.7377763553
 30
0.0
  0
VERTEX
  5
21C
330
E1
100
AcDbEntity
  8
0
  6
CONTINUOUS
 62
     7
100
AcDbVertex
100
AcDb2dVertex
 10
4.2191436463
 20
4.7389896513
 30
0.0
  0
VERTEX
  5
21D
330
E1
100
AcDbEntity
  8
0
  6
CONTINUOUS
 62
     7
100
AcDbVertex
100
AcDb2dVertex
 10
4.208944634
 20
4.7400306158
 30
0.0
  0
VERTEX
  5
21E
330
E1
100
AcDbEntity
  8
0
  6
CONTINUOUS
 62
     7
100
AcDbVertex
100
AcDb2dVertex
 10
4.2025779483
 20
4.7407224783
 30
0.0
  0
VERTEX
  5
21F
330
E1
100
AcDbEntity
  8
0
  6
CONTINUOUS
 62
     7
100
AcDbVertex
100
AcDb2dVertex
 10
4.2004696885
 20
4.740961751
 30
0.0
  0
VERTEX
  5
220
330
E1
100
AcDbEntity
  8
0
  6
CONTINUOUS
 62
     7
100
AcDbVertex
100
AcDb2dVertex
 10
4.2004696885
 20
4.740961751
 30
0.0
  0
SEQEND
  5
221
330
E1
100
AcDbEntity
  8
0
  6
CONTINUOUS
 62
     7
  0
LINE
  5
E2
330
1F
100
AcDbEntity
  8
0
  6
CONTINUOUS
 62
     7
100
AcDbLine
 10
4.7242738987
 20
4.725961751
 30
0.0
 11
4.7242738987
 21
2.787457814
 31
0.0
  0
LINE
  5
E3
330
1F
100
AcDbEntity
  8
0
  6
CONTINUOUS
 62
     7
100
AcDbLine
 10
1.9289983081
 20
2.787457814
 30
0.0
 11
1.9289983081
 21
4.725961751
 31
0.0
  0
LINE
  5
E4
330
1F
100
AcDbEntity
  8
0
  6
CONTINUOUS
 62
     7
100
AcDbLine
 10
2.4308093317
 20
4.740961751
 30
0.0
 11
2.253958938
 21
4.740961751
 31
0.0
  0
LINE
  5
E5
330
1F
100
AcDbEntity
  8
0
  6
CONTINUOUS
 62
     7
100
AcDbLine
 10
4.222462875
 20
4.740961751
 30
0.0
 11
4.3993132687
 21
4.740961751
 31
0.0
  0
LINE
  5
E6
330
1F
100
AcDbEntity
  8
0
  6
HIDDEN
 62
     7
100
AcDbLine
 10
3.2766361034
 20
4.0079302549
 30
0.0
 11
3.2766361034
 21
3.50548931
 31
0.0
  0
LINE
  5
E7
330
1F
100
AcDbEntity
  8
0
  6
HIDDEN
 62
     7
100
AcDbLine
 10
3.3766361034
 20
4.0079302549
 30
0.0
 11
3.3766361034
 21
3.50548931
 31
0.0
  0
SPLINE
  5
E8
330
1F
100
AcDbEntity
  8
0
  6
HIDDEN
 62
     7
100
AcDbSpline
210
0.0
220
0.0
230
1.0
 70
     8
 71
     3
 72
    23
 73
    19
 74
     0
 42
0.00000001
 43
0.00000001
 40
0.0
 40
0.0
 40
0.0
 40
0.0
 40
0.0238822665871507
 40
0.1223536272186858
 40
0.2223842019241482
 40
0.275392036132048
 40
0.3298367520878429
 40
0.3844210435467382
 40
0.4408021646027285
 40
0.4918117237158001
 40
0.5445131380323223
 40
0.6412629598927846
 40
0.7421671547264035
 40
0.7961314138439464
 40
0.8516443374730209
 40
0.9056079291201462
 40
0.9613729516766747
 40
1.0
 40
1.0
 40
1.0
 40
1.0
 10
2.244309143447752
 20
3.992784560546753
 30
0.0
 10
2.244238591426694
 20
3.992814033492845
 30
0.0
 10
2.243877139315244
 20
3.992965029289078
 30
0.0
 10
2.250093395266854
 20
3.990360672490793
 30
0.0
 10
2.263426272291981
 20
3.98534658923619
 30
0.0
 10
2.278391828283148
 20
3.980672839330568
 30
0.0
 10
2.291858408469016
 20
3.977164046257788
 30
0.0
 10
2.307177343051121
 20
3.974122309885464
 30
0.0
 10
2.323362782425291
 20
3.97207869468303
 30
0.0
 10
2.339988923595902
 20
3.971256535599655
 30
0.0
 10
2.360908984321639
 20
3.971810881990722
 30
0.0
 10
2.386069638669251
 20
3.975274498690574
 30
0.0
 10
2.407455701883278
 20
3.980896904803177
 30
0.0
 10
2.421692323280946
 20
3.985560743592909
 30
0.0
 10
2.430565311421332
 20
3.988814158915932
 30
0.0
 10
2.436903784582051
 20
3.991314673445572
 30
0.0
 10
2.440394100233313
 20
3.992756701467556
 30
0.0
 10
2.440531334770632
 20
3.992814426982877
 30
0.0
 10
2.440587493779066
 20
3.992838049372438
 30
0.0
  0
SPLINE
  5
E9
330
1F
100
AcDbEntity
  8
0
  6
HIDDEN
 62
     7
100
AcDbSpline
210
0.0
220
0.0
230
1.0
 70
     8
 71
     3
 72
     9
 73
     5
 74
     0
 42
0.00000001
 43
0.00000001
 40
0.0
 40
0.0
 40
0.0
 40
0.0
 40
0.4416250017012173
 40
1.0
 40
1.0
 40
1.0
 40
1.0
 10
2.35177419294526
 20
3.971777426613066
 30
0.0
 10
2.35040441519787
 20
3.971673532301336
 30
0.0
 10
2.34730273901986
 20
3.971438277704495
 30
0.0
 10
2.34414649989602
 20
3.971444651140937
 30
0.0
 10
2.342384134880616
 20
3.9714482099085
 30
0.0
  0
SPLINE
  5
EA
330
1F
100
AcDbEntity
  8
0
  6
HIDDEN
 62
     7
100
AcDbSpline
210
0.0
220
0.0
230
1.0
 70
     8
 71
     3
 72
    66
 73
    62
 74
     0
 42
0.00000001
 43
0.00000001
 40
-0.03125
 40
-0.03125
 40
0.0
 40
0.0
 40
0.03125
 40
0.03125
 40
0.0625000000000001
 40
0.0625000000000001
 40
0.0937500000000001
 40
0.0937500000000001
 40
0.1250000000000001
 40
0.1250000000000001
 40
0.1875000000000002
 40
0.1875000000000002
 40
0.2187500000000002
 40
0.2187500000000002
 40
0.2500000000000002
 40
0.2500000000000002
 40
0.2812500000000002
 40
0.2812500000000002
 40
0.3125000000000001
 40
0.3125000000000001
 40
0.3437500000000001
 40
0.3437500000000001
 40
0.3750000000000001
 40
0.3750000000000001
 40
0.4062500000000001
 40
0.4062500000000001
 40
0.4375000000000001
 40
0.4375000000000001
 40
0.4687500000000001
 40
0.4687500000000001
 40
0.5000000000000001
 40
0.5000000000000001
 40
0.5312500000000001
 40
0.5312500000000001
 40
0.5625000000000002
 40
0.5625000000000002
 40
0.5937500000000002
 40
0.5937500000000002
 40
0.6250000000000002
 40
0.6250000000000002
 40
0.6562500000000003
 40
0.6562500000000003
 40
0.6875000000000003
 40
0.6875000000000003
 40
0.7187500000000003
 40
0.7187500000000003
 40
0.7500000000000003
 40
0.7500000000000003
 40
0.8124999999999998
 40
0.8124999999999998
 40
0.8437499999999998
 40
0.8437499999999998
 40
0.8749999999999999
 40
0.8749999999999999
 40
0.9062499999999999
 40
0.9062499999999999
 40
0.9374999999999999
 40
0.9374999999999999
 40
0.96875
 40
0.96875
 40
1.0
 40
1.0
 40
1.03125
 40
1.03125
 10
2.243958938030222
 20
3.75012817757709
 30
0.0
 10
2.243958938030222
 20
3.763291387332989
 30
0.0
 10
2.244612332009349
 20
3.769749014633263
 30
0.0
 10
2.247159222497397
 20
3.782430650910511
 30
0.0
 10
2.249087277662059
 20
3.788721181240509
 30
0.0
 10
2.254056660044076
 20
3.800610698254855
 30
0.0
 10
2.257086682790352
 20
3.806236866454747
 30
0.0
 10
2.264228987090581
 20
3.816879212039528
 30
0.0
 10
2.268328204733337
 20
3.821851572024845
 30
0.0
 10
2.281785702829589
 20
3.835298624291414
 30
0.0
 10
2.292614512770455
 20
3.842582550307116
 30
0.0
 10
2.310317006112377
 20
3.849984246643966
 30
0.0
 10
2.316587247470371
 20
3.851915959756242
 30
0.0
 10
2.329320281903271
 20
3.854480081328221
 30
0.0
 10
2.335754446616094
 20
3.855126520897668
 30
0.0
 10
2.348760249468832
 20
3.855143274392121
 30
0.0
 10
2.355361508017328
 20
3.854490125058388
 30
0.0
 10
2.368053818273026
 20
3.851948823649767
 30
0.0
 10
2.374243532040252
 20
3.850061773595173
 30
0.0
 10
2.38622204606338
 20
3.845071838680182
 30
0.0
 10
2.391848951176883
 20
3.842040714404914
 30
0.0
 10
2.40244026978222
 20
3.834949137381686
 30
0.0
 10
2.407440629456216
 20
3.830842075861892
 30
0.0
 10
2.416437729610506
 20
3.821855845419781
 30
0.0
 10
2.420474340979538
 20
3.816962910649155
 30
0.0
 10
2.427622745806064
 20
3.806337385190299
 30
0.0
 10
2.430706627862912
 20
3.800615221026544
 30
0.0
 10
2.435652267268515
 20
3.788797253275238
 30
0.0
 10
2.437556851059646
 20
3.782643824294831
 30
0.0
 10
2.440154066150009
 20
3.769804093075324
 30
0.0
 10
2.44080099548515
 20
3.763317975320998
 30
0.0
 10
2.440817508330542
 20
3.750352294313226
 30
0.0
 10
2.440172069691293
 20
3.74377196409211
 30
0.0
 10
2.437617490592671
 20
3.731010068480939
 30
0.0
 10
2.435731422023007
 20
3.724842506065605
 30
0.0
 10
2.430766248252035
 20
3.712916616808716
 30
0.0
 10
2.427683435864701
 20
3.707190257093277
 30
0.0
 10
2.420583336685485
 20
3.696601222519625
 30
0.0
 10
2.416516805356713
 20
3.691648985413136
 30
0.0
 10
2.407457699462373
 20
3.682588319056986
 30
0.0
 10
2.402555233300548
 20
3.678559824884267
 30
0.0
 10
2.391996029828839
 20
3.671465211759768
 30
0.0
 10
2.386266152205388
 20
3.668374011134686
 30
0.0
 10
2.374404061987112
 20
3.663416887723725
 30
0.0
 10
2.368268712871497
 20
3.661528383037563
 30
0.0
 10
2.355566439600751
 20
3.658956332310808
 30
0.0
 10
2.348962580373547
 20
3.658290402679211
 30
0.0
 10
2.329490095446503
 20
3.658273068449525
 30
0.0
 10
2.316413691471564
 20
3.660907110903305
 30
0.0
 10
2.298620869900005
 20
3.66831538149353
 30
0.0
 10
2.292884360574995
 20
3.671398301981731
 30
0.0
 10
2.282278430683312
 20
3.678507604225777
 30
0.0
 10
2.277370606155802
 20
3.682536887798444
 30
0.0
 10
2.268323163081596
 20
3.691568784034878
 30
0.0
 10
2.264231020057178
 20
3.696542691018976
 30
0.0
 10
2.25713605771575
 20
3.70710379906418
 30
0.0
 10
2.254086764080742
 20
3.712739028683641
 30
0.0
 10
2.249067008073581
 20
3.724744696472437
 30
0.0
 10
2.247180616934232
 20
3.730911964273889
 30
0.0
 10
2.244625728547831
 20
3.743574667550741
 30
0.0
 10
2.243958938030222
 20
3.75012817757709
 30
0.0
 10
2.243958938030222
 20
3.763291387332989
 30
0.0
  0
SPLINE
  5
EB
330
1F
100
AcDbEntity
  8
0
  6
HIDDEN
 62
     7
100
AcDbSpline
210
0.0
220
0.0
230
1.0
 70
     8
 71
     3
 72
    23
 73
    19
 74
     0
 42
0.00000001
 43
0.00000001
 40
0.0
 40
0.0
 40
0.0
 40
0.0
 40
0.0238822665871507
 40
0.1223536272186858
 40
0.2223842019241482
 40
0.275392036132048
 40
0.3298367520878429
 40
0.3844210435467382
 40
0.4408021646027285
 40
0.4918117237158001
 40
0.5445131380323223
 40
0.6412629598927846
 40
0.7421671547264035
 40
0.7961314138439464
 40
0.8516443374730209
 40
0.9056079291201462
 40
0.9613729516766747
 40
1.0
 40
1.0
 40
1.0
 40
1.0
 10
4.212813080455627
 20
3.992784560546753
 30
0.0
 10
4.212742528434568
 20
3.992814033492845
 30
0.0
 10
4.212381076323117
 20
3.992965029289078
 30
0.0
 10
4.218597332274728
 20
3.990360672490793
 30
0.0
 10
4.231930209299855
 20
3.98534658923619
 30
0.0
 10
4.246895765291022
 20
3.980672839330568
 30
0.0
 10
4.26036234547689
 20
3.977164046257788
 30
0.0
 10
4.275681280058994
 20
3.974122309885464
 30
0.0
 10
4.291866719433165
 20
3.97207869468303
 30
0.0
 10
4.308492860603776
 20
3.971256535599655
 30
0.0
 10
4.329412921329512
 20
3.971810881990722
 30
0.0
 10
4.354573575677124
 20
3.975274498690574
 30
0.0
 10
4.375959638891151
 20
3.980896904803177
 30
0.0
 10
4.39019626028882
 20
3.985560743592909
 30
0.0
 10
4.399069248429206
 20
3.988814158915932
 30
0.0
 10
4.405407721589925
 20
3.991314673445572
 30
0.0
 10
4.408898037241188
 20
3.992756701467556
 30
0.0
 10
4.409035271778507
 20
3.992814426982877
 30
0.0
 10
4.40909143078694
 20
3.992838049372438
 30
0.0
  0
SPLINE
  5
EC
330
1F
100
AcDbEntity
  8
0
  6
HIDDEN
 62
     7
100
AcDbSpline
210
0.0
220
0.0
230
1.0
 70
     8
 71
     3
 72
     9
 73
     5
 74
     0
 42
0.00000001
 43
0.00000001
 40
0.0
 40
0.0
 40
0.0
 40
0.0
 40
0.4416250017012173
 40
1.0
 40
1.0
 40
1.0
 40
1.0
 10
4.320278129953134
 20
3.971777426613066
 30
0.0
 10
4.318908352205744
 20
3.971673532301336
 30
0.0
 10
4.315806676027734
 20
3.971438277704495
 30
0.0
 10
4.312650436903894
 20
3.971444651140937
 30
0.0
 10
4.310888071888489
 20
3.9714482099085
 30
0.0
  0
SPLINE
  5
ED
330
1F
100
AcDbEntity
  8
0
  6
HIDDEN
 62
     7
100
AcDbSpline
210
0.0
220
0.0
230
1.0
 70
     8
 71
     3
 72
    66
 73
    62
 74
     0
 42
0.00000001
 43
0.00000001
 40
-0.0312500000000002
 40
-0.0312500000000002
 40
0.0
 40
0.0
 40
0.0312499999999998
 40
0.0312499999999998
 40
0.0624999999999996
 40
0.0624999999999996
 40
0.0937499999999994
 40
0.0937499999999994
 40
0.1249999999999992
 40
0.1249999999999992
 40
0.1874999999999992
 40
0.1874999999999992
 40
0.2187499999999991
 40
0.2187499999999991
 40
0.2499999999999991
 40
0.2499999999999991
 40
0.2812499999999991
 40
0.2812499999999991
 40
0.3124999999999991
 40
0.3124999999999991
 40
0.343749999999999
 40
0.343749999999999
 40
0.3749999999999989
 40
0.3749999999999989
 40
0.4062499999999989
 40
0.4062499999999989
 40
0.4374999999999989
 40
0.4374999999999989
 40
0.4687499999999989
 40
0.4687499999999989
 40
0.4999999999999989
 40
0.4999999999999989
 40
0.5312499999999989
 40
0.5312499999999989
 40
0.5624999999999989
 40
0.5624999999999989
 40
0.593749999999999
 40
0.593749999999999
 40
0.624999999999999
 40
0.624999999999999
 40
0.6562499999999989
 40
0.6562499999999989
 40
0.6874999999999988
 40
0.6874999999999988
 40
0.7187499999999987
 40
0.7187499999999987
 40
0.7499999999999986
 40
0.7499999999999986
 40
0.8124999999999986
 40
0.8124999999999986
 40
0.8437499999999988
 40
0.8437499999999988
 40
0.874999999999999
 40
0.874999999999999
 40
0.9062499999999992
 40
0.9062499999999992
 40
0.9374999999999996
 40
0.9374999999999996
 40
0.9687499999999998
 40
0.9687499999999998
 40
1.0
 40
1.0
 40
1.03125
 40
1.03125
 10
4.212462875038096
 20
3.75012817757709
 30
0.0
 10
4.212462875038096
 20
3.763291387332989
 30
0.0
 10
4.213116269017224
 20
3.769749014633263
 30
0.0
 10
4.215663159505271
 20
3.782430650910511
 30
0.0
 10
4.217591214669934
 20
3.788721181240509
 30
0.0
 10
4.22256059705195
 20
3.800610698254855
 30
0.0
 10
4.225590619798226
 20
3.806236866454747
 30
0.0
 10
4.232732924098454
 20
3.816879212039528
 30
0.0
 10
4.236832141741211
 20
3.821851572024845
 30
0.0
 10
4.250289639837463
 20
3.835298624291414
 30
0.0
 10
4.26111844977833
 20
3.842582550307115
 30
0.0
 10
4.278820943120251
 20
3.849984246643966
 30
0.0
 10
4.285091184478246
 20
3.851915959756242
 30
0.0
 10
4.297824218911146
 20
3.854480081328221
 30
0.0
 10
4.304258383623968
 20
3.855126520897668
 30
0.0
 10
4.317264186476705
 20
3.855143274392121
 30
0.0
 10
4.323865445025202
 20
3.854490125058388
 30
0.0
 10
4.336557755280899
 20
3.851948823649767
 30
0.0
 10
4.342747469048125
 20
3.850061773595173
 30
0.0
 10
4.354725983071253
 20
3.845071838680182
 30
0.0
 10
4.360352888184757
 20
3.842040714404914
 30
0.0
 10
4.370944206790094
 20
3.834949137381686
 30
0.0
 10
4.37594456646409
 20
3.830842075861892
 30
0.0
 10
4.38494166661838
 20
3.821855845419781
 30
0.0
 10
4.388978277987412
 20
3.816962910649155
 30
0.0
 10
4.396126682813938
 20
3.8063373851903
 30
0.0
 10
4.399210564870786
 20
3.800615221026544
 30
0.0
 10
4.404156204276389
 20
3.788797253275238
 30
0.0
 10
4.40606078806752
 20
3.782643824294831
 30
0.0
 10
4.408658003157883
 20
3.769804093075324
 30
0.0
 10
4.409304932493025
 20
3.763317975320998
 30
0.0
 10
4.409321445338417
 20
3.750352294313226
 30
0.0
 10
4.408676006699166
 20
3.743771964092111
 30
0.0
 10
4.406121427600545
 20
3.731010068480939
 30
0.0
 10
4.40423535903088
 20
3.724842506065606
 30
0.0
 10
4.399270185259908
 20
3.712916616808716
 30
0.0
 10
4.396187372872576
 20
3.707190257093277
 30
0.0
 10
4.389087273693359
 20
3.696601222519625
 30
0.0
 10
4.385020742364587
 20
3.691648985413136
 30
0.0
 10
4.375961636470247
 20
3.682588319056986
 30
0.0
 10
4.371059170308422
 20
3.678559824884267
 30
0.0
 10
4.360499966836714
 20
3.671465211759768
 30
0.0
 10
4.354770089213263
 20
3.668374011134686
 30
0.0
 10
4.342907998994986
 20
3.663416887723725
 30
0.0
 10
4.336772649879371
 20
3.661528383037563
 30
0.0
 10
4.324070376608624
 20
3.658956332310808
 30
0.0
 10
4.317466517381421
 20
3.658290402679211
 30
0.0
 10
4.297994032454378
 20
3.658273068449525
 30
0.0
 10
4.284917628479437
 20
3.660907110903305
 30
0.0
 10
4.267124806907878
 20
3.66831538149353
 30
0.0
 10
4.26138829758287
 20
3.671398301981731
 30
0.0
 10
4.250782367691186
 20
3.678507604225777
 30
0.0
 10
4.245874543163676
 20
3.682536887798444
 30
0.0
 10
4.236827100089471
 20
3.691568784034878
 30
0.0
 10
4.232734957065052
 20
3.696542691018976
 30
0.0
 10
4.225639994723625
 20
3.70710379906418
 30
0.0
 10
4.222590701088616
 20
3.712739028683641
 30
0.0
 10
4.217570945081455
 20
3.724744696472437
 30
0.0
 10
4.215684553942107
 20
3.730911964273889
 30
0.0
 10
4.213129665555706
 20
3.743574667550741
 30
0.0
 10
4.212462875038096
 20
3.75012817757709
 30
0.0
 10
4.212462875038096
 20
3.763291387332989
 30
0.0
  0
SPLINE
  5
EE
330
1F
100
AcDbEntity
  8
0
  6
HIDDEN
 62
     7
100
AcDbSpline
210
0.0
220
0.0
230
1.0
 70
     8
 71
     3
 72
    24
 73
    20
 74
     0
 42
0.00000001
 43
0.00000001
 40
0.0
 40
0.0
 40
0.0
 40
0.0
 40
0.0508910526301139
 40
0.1094950730425954
 40
0.1758215806446732
 40
0.2498733244909062
 40
0.3242266789489178
 40
0.3906967060281312
 40
0.4492856017568619
 40
0.5000024797182682
 40
0.5507379622734175
 40
0.6093253794500612
 40
0.6757739969788071
 40
0.7500861495827515
 40
0.8242278067918689
 40
0.8905877121017284
 40
0.949168402422247
 40
0.9999792311612423
 40
1.0
 40
1.0
 40
1.0
 40
1.0
 10
2.243958938030222
 20
4.727329217259756
 30
0.0
 10
2.244204124527593
 20
4.727285908791684
 30
0.0
 10
2.244731657601702
 20
4.727192728092331
 30
0.0
 10
2.249440776921758
 20
4.726550517692815
 30
0.0
 10
2.258315114537668
 20
4.725572953105465
 30
0.0
 10
2.27213413985573
 20
4.724185559803789
 30
0.0
 10
2.289606022192432
 20
4.722799756754489
 30
0.0
 10
2.308224205339451
 20
4.721806473174455
 30
0.0
 10
2.325841564523139
 20
4.721190845639327
 30
0.0
 10
2.342335607171872
 20
4.720953292181821
 30
0.0
 10
2.358830728782409
 20
4.721187948136708
 30
0.0
 10
2.37645276369302
 20
4.721801673274446
 30
0.0
 10
2.395070854115923
 20
4.722792877845914
 30
0.0
 10
2.412572781150542
 20
4.724180603225963
 30
0.0
 10
2.426368107179353
 20
4.725561466201854
 30
0.0
 10
2.435414474150578
 20
4.726566013185638
 30
0.0
 10
2.439665145115833
 20
4.727132895597541
 30
0.0
 10
2.441222535364038
 20
4.727394242605802
 30
0.0
 10
2.440808934186432
 20
4.727329156478858
 30
0.0
 10
2.440808765196736
 20
4.727329129885886
 30
0.0
  0
POLYLINE
  5
EF
330
1F
100
AcDbEntity
  8
0
  6
HIDDEN
 62
     7
100
AcDb2dPolyline
 66
     1
 10
0.0
 20
0.0
 30
0.0
  0
VERTEX
  5
222
330
EF
100
AcDbEntity
  8
0
  6
HIDDEN
 62
     7
100
AcDbVertex
100
AcDb2dVertex
 10
2.3928673879
 20
4.7227420389
 30
0.0
  0
VERTEX
  5
223
330
EF
100
AcDbEntity
  8
0
  6
HIDDEN
 62
     7
100
AcDbVertex
100
AcDb2dVertex
 10
2.3755129
 20
4.7218160823
 30
0.0
  0
VERTEX
  5
224
330
EF
100
AcDbEntity
  8
0
  6
HIDDEN
 62
     7
100
AcDbVertex
100
AcDb2dVertex
 10
2.3580080572
 20
4.7212249483
 30
0.0
  0
VERTEX
  5
225
330
EF
100
AcDbEntity
  8
0
  6
HIDDEN
 62
     7
100
AcDbVertex
100
AcDb2dVertex
 10
2.3499277459
 20
4.7210772483
 30
0.0
  0
VERTEX
  5
226
330
EF
100
AcDbEntity
  8
0
  6
HIDDEN
 62
     7
100
AcDbVertex
100
AcDb2dVertex
 10
2.3460920941
 20
4.721040365
 30
0.0
  0
VERTEX
  5
227
330
EF
100
AcDbEntity
  8
0
  6
HIDDEN
 62
     7
100
AcDbVertex
100
AcDb2dVertex
 10
2.344228639
 20
4.7210311651
 30
0.0
  0
VERTEX
  5
228
330
EF
100
AcDbEntity
  8
0
  6
HIDDEN
 62
     7
100
AcDbVertex
100
AcDb2dVertex
 10
2.3433108372
 20
4.7210288755
 30
0.0
  0
VERTEX
  5
229
330
EF
100
AcDbEntity
  8
0
  6
HIDDEN
 62
     7
100
AcDbVertex
100
AcDb2dVertex
 10
2.342855455
 20
4.7210283084
 30
0.0
  0
VERTEX
  5
22A
330
EF
100
AcDbEntity
  8
0
  6
HIDDEN
 62
     7
100
AcDbVertex
100
AcDb2dVertex
 10
2.3426286481
 20
4.7210281692
 30
0.0
  0
VERTEX
  5
22B
330
EF
100
AcDbEntity
  8
0
  6
HIDDEN
 62
     7
100
AcDbVertex
100
AcDb2dVertex
 10
2.3425154662
 20
4.7210281357
 30
0.0
  0
VERTEX
  5
22C
330
EF
100
AcDbEntity
  8
0
  6
HIDDEN
 62
     7
100
AcDbVertex
100
AcDb2dVertex
 10
2.3424589307
 20
4.721028128
 30
0.0
  0
VERTEX
  5
22D
330
EF
100
AcDbEntity
  8
0
  6
HIDDEN
 62
     7
100
AcDbVertex
100
AcDb2dVertex
 10
2.3424306768
 20
4.7210281264
 30
0.0
  0
VERTEX
  5
22E
330
EF
100
AcDbEntity
  8
0
  6
HIDDEN
 62
     7
100
AcDbVertex
100
AcDb2dVertex
 10
2.3424165533
 20
4.7210281261
 30
0.0
  0
VERTEX
  5
22F
330
EF
100
AcDbEntity
  8
0
  6
HIDDEN
 62
     7
100
AcDbVertex
100
AcDb2dVertex
 10
2.3424094925
 20
4.7210281262
 30
0.0
  0
VERTEX
  5
230
330
EF
100
AcDbEntity
  8
0
  6
HIDDEN
 62
     7
100
AcDbVertex
100
AcDb2dVertex
 10
2.3424059622
 20
4.7210281262
 30
0.0
  0
VERTEX
  5
231
330
EF
100
AcDbEntity
  8
0
  6
HIDDEN
 62
     7
100
AcDbVertex
100
AcDb2dVertex
 10
2.3424041972
 20
4.7210281262
 30
0.0
  0
VERTEX
  5
232
330
EF
100
AcDbEntity
  8
0
  6
HIDDEN
 62
     7
100
AcDbVertex
100
AcDb2dVertex
 10
2.3424033147
 20
4.7210281263
 30
0.0
  0
VERTEX
  5
233
330
EF
100
AcDbEntity
  8
0
  6
HIDDEN
 62
     7
100
AcDbVertex
100
AcDb2dVertex
 10
2.3424028734
 20
4.7210281263
 30
0.0
  0
VERTEX
  5
234
330
EF
100
AcDbEntity
  8
0
  6
HIDDEN
 62
     7
100
AcDbVertex
100
AcDb2dVertex
 10
2.3424024322
 20
4.7210281263
 30
0.0
  0
VERTEX
  5
235
330
EF
100
AcDbEntity
  8
0
  6
HIDDEN
 62
     7
100
AcDbVertex
100
AcDb2dVertex
 10
2.342402077
 20
4.7210281263
 30
0.0
  0
VERTEX
  5
236
330
EF
100
AcDbEntity
  8
0
  6
HIDDEN
 62
     7
100
AcDbVertex
100
AcDb2dVertex
 10
2.3424011698
 20
4.7210281264
 30
0.0
  0
VERTEX
  5
237
330
EF
100
AcDbEntity
  8
0
  6
HIDDEN
 62
     7
100
AcDbVertex
100
AcDb2dVertex
 10
2.3423350944
 20
4.7210281429
 30
0.0
  0
SEQEND
  5
238
330
EF
100
AcDbEntity
  8
0
  6
HIDDEN
 62
     7
  0
SPLINE
  5
F0
330
1F
100
AcDbEntity
  8
0
  6
HIDDEN
 62
     7
100
AcDbSpline
210
0.0
220
0.0
230
1.0
 70
     8
 71
     3
 72
    24
 73
    20
 74
     0
 42
0.00000001
 43
0.00000001
 40
0.0
 40
0.0
 40
0.0
 40
0.0
 40
0.0508910526303897
 40
0.1094950730429623
 40
0.175821580644947
 40
0.249873324490904
 40
0.3242266789446208
 40
0.3906967060224004
 40
0.4492856017525651
 40
0.5000024797182755
 40
0.5507379622699762
 40
0.6093253794454692
 40
0.6757739969753627
 40
0.7500861495827472
 40
0.8242278067892954
 40
0.8905877120982973
 40
0.9491684024196734
 40
0.9999792311612435
 40
1.0
 40
1.0
 40
1.0
 40
1.0
 10
4.212462875038096
 20
4.727329217259756
 30
0.0
 10
4.212708061535468
 20
4.727285908791685
 30
0.0
 10
4.213235594609583
 20
4.727192728092332
 30
0.0
 10
4.217944713929666
 20
4.726550517692816
 30
0.0
 10
4.226819051545581
 20
4.725572953105468
 30
0.0
 10
4.240638076863352
 20
4.724185559803813
 30
0.0
 10
4.258109959199452
 20
4.722799756754555
 30
0.0
 10
4.276728142345924
 20
4.721806473174551
 30
0.0
 10
4.294345501529975
 20
4.721190845639417
 30
0.0
 10
4.310839544178949
 20
4.720953292181822
 30
0.0
 10
4.327334665789451
 20
4.721187948136617
 30
0.0
 10
4.344956700699772
 20
4.721801673274348
 30
0.0
 10
4.363574791123113
 20
4.722792877845844
 30
0.0
 10
4.381076718157987
 20
4.724180603225931
 30
0.0
 10
4.394872044186863
 20
4.725561466201813
 30
0.0
 10
4.40391841115813
 20
4.726566013185624
 30
0.0
 10
4.408169082123661
 20
4.727132895597401
 30
0.0
 10
4.409726472371873
 20
4.727394242605977
 30
0.0
 10
4.409312871194305
 20
4.727329156478858
 30
0.0
 10
4.409312702204611
 20
4.727329129885886
 30
0.0
  0
POLYLINE
  5
F1
330
1F
100
AcDbEntity
  8
0
  6
HIDDEN
 62
     7
100
AcDb2dPolyline
 66
     1
 10
0.0
 20
0.0
 30
0.0
  0
VERTEX
  5
239
330
F1
100
AcDbEntity
  8
0
  6
HIDDEN
 62
     7
100
AcDbVertex
100
AcDb2dVertex
 10
4.3613713244
 20
4.7227420388
 30
0.0
  0
VERTEX
  5
23A
330
F1
100
AcDbEntity
  8
0
  6
HIDDEN
 62
     7
100
AcDbVertex
100
AcDb2dVertex
 10
4.344016837
 20
4.7218160823
 30
0.0
  0
VERTEX
  5
23B
330
F1
100
AcDbEntity
  8
0
  6
HIDDEN
 62
     7
100
AcDbVertex
100
AcDb2dVertex
 10
4.3265119942
 20
4.7212249483
 30
0.0
  0
VERTEX
  5
23C
330
F1
100
AcDbEntity
  8
0
  6
HIDDEN
 62
     7
100
AcDbVertex
100
AcDb2dVertex
 10
4.3184316829
 20
4.7210772483
 30
0.0
  0
VERTEX
  5
23D
330
F1
100
AcDbEntity
  8
0
  6
HIDDEN
 62
     7
100
AcDbVertex
100
AcDb2dVertex
 10
4.3145960311
 20
4.721040365
 30
0.0
  0
VERTEX
  5
23E
330
F1
100
AcDbEntity
  8
0
  6
HIDDEN
 62
     7
100
AcDbVertex
100
AcDb2dVertex
 10
4.312732576
 20
4.7210311651
 30
0.0
  0
VERTEX
  5
23F
330
F1
100
AcDbEntity
  8
0
  6
HIDDEN
 62
     7
100
AcDbVertex
100
AcDb2dVertex
 10
4.3118147742
 20
4.7210288755
 30
0.0
  0
VERTEX
  5
240
330
F1
100
AcDbEntity
  8
0
  6
HIDDEN
 62
     7
100
AcDbVertex
100
AcDb2dVertex
 10
4.311359392
 20
4.7210283084
 30
0.0
  0
VERTEX
  5
241
330
F1
100
AcDbEntity
  8
0
  6
HIDDEN
 62
     7
100
AcDbVertex
100
AcDb2dVertex
 10
4.3111325851
 20
4.7210281692
 30
0.0
  0
VERTEX
  5
242
330
F1
100
AcDbEntity
  8
0
  6
HIDDEN
 62
     7
100
AcDbVertex
100
AcDb2dVertex
 10
4.3110194032
 20
4.7210281357
 30
0.0
  0
VERTEX
  5
243
330
F1
100
AcDbEntity
  8
0
  6
HIDDEN
 62
     7
100
AcDbVertex
100
AcDb2dVertex
 10
4.3109628677
 20
4.721028128
 30
0.0
  0
VERTEX
  5
244
330
F1
100
AcDbEntity
  8
0
  6
HIDDEN
 62
     7
100
AcDbVertex
100
AcDb2dVertex
 10
4.3109346138
 20
4.7210281264
 30
0.0
  0
VERTEX
  5
245
330
F1
100
AcDbEntity
  8
0
  6
HIDDEN
 62
     7
100
AcDbVertex
100
AcDb2dVertex
 10
4.3109204903
 20
4.7210281261
 30
0.0
  0
VERTEX
  5
246
330
F1
100
AcDbEntity
  8
0
  6
HIDDEN
 62
     7
100
AcDbVertex
100
AcDb2dVertex
 10
4.3109134295
 20
4.7210281262
 30
0.0
  0
VERTEX
  5
247
330
F1
100
AcDbEntity
  8
0
  6
HIDDEN
 62
     7
100
AcDbVertex
100
AcDb2dVertex
 10
4.3109098992
 20
4.7210281262
 30
0.0
  0
VERTEX
  5
248
330
F1
100
AcDbEntity
  8
0
  6
HIDDEN
 62
     7
100
AcDbVertex
100
AcDb2dVertex
 10
4.3109081342
 20
4.7210281262
 30
0.0
  0
VERTEX
  5
249
330
F1
100
AcDbEntity
  8
0
  6
HIDDEN
 62
     7
100
AcDbVertex
100
AcDb2dVertex
 10
4.3109072517
 20
4.7210281263
 30
0.0
  0
VERTEX
  5
24A
330
F1
100
AcDbEntity
  8
0
  6
HIDDEN
 62
     7
100
AcDbVertex
100
AcDb2dVertex
 10
4.3109068104
 20
4.7210281263
 30
0.0
  0
VERTEX
  5
24B
330
F1
100
AcDbEntity
  8
0
  6
HIDDEN
 62
     7
100
AcDbVertex
100
AcDb2dVertex
 10
4.3109063692
 20
4.7210281263
 30
0.0
  0
VERTEX
  5
24C
330
F1
100
AcDbEntity
  8
0
  6
HIDDEN
 62
     7
100
AcDbVertex
100
AcDb2dVertex
 10
4.310906014
 20
4.7210281263
 30
0.0
  0
VERTEX
  5
24D
330
F1
100
AcDbEntity
  8
0
  6
HIDDEN
 62
     7
100
AcDbVertex
100
AcDb2dVertex
 10
4.3109051068
 20
4.7210281264
 30
0.0
  0
VERTEX
  5
24E
330
F1
100
AcDbEntity
  8
0
  6
HIDDEN
 62
     7
100
AcDbVertex
100
AcDb2dVertex
 10
4.3108390314
 20
4.7210281429
 30
0.0
  0
SEQEND
  5
24F
330
F1
100
AcDbEntity
  8
0
  6
HIDDEN
 62
     7
  0
CIRCLE
  5
F2
330
1F
100
AcDbEntity
  8
0
  6
HIDDEN
 62
     7
100
AcDbCircle
 10
4.3108880719
 20
3.7567097825
 30
0.0
 40
0.0884251968503946
  0
CIRCLE
  5
F3
330
1F
100
AcDbEntity
  8
0
  6
HIDDEN
 62
     7
100
AcDbCircle
 10
4.3108880719
 20
3.7567097825
 30
0.0
 40
0.0984251968503935
  0
LINE
  5
F4
330
1F
100
AcDbEntity
  8
0
  6
HIDDEN
 62
     7
100
AcDbLine
 10
4.3108880719
 20
3.6849685431
 30
0.0
 11
4.2487583361
 21
3.7208391628
 31
0.0
  0
LINE
  5
F5
330
1F
100
AcDbEntity
  8
0
  6
HIDDEN
 62
     7
100
AcDbLine
 10
4.2487583361
 20
3.7925804021
 30
0.0
 11
4.3108880719
 21
3.8284510218
 31
0.0
  0
LINE
  5
F6
330
1F
100
AcDbEntity
  8
0
  6
HIDDEN
 62
     7
100
AcDbLine
 10
4.3108880719
 20
3.8284510218
 30
0.0
 11
4.3730178077
 21
3.7925804021
 31
0.0
  0
LINE
  5
F7
330
1F
100
AcDbEntity
  8
0
  6
HIDDEN
 62
     7
100
AcDbLine
 10
4.3730178077
 20
3.7925804021
 30
0.0
 11
4.3730178077
 21
3.7208391628
 31
0.0
  0
LINE
  5
F8
330
1F
100
AcDbEntity
  8
0
  6
HIDDEN
 62
     7
100
AcDbLine
 10
4.2487583361
 20
3.7208391628
 30
0.0
 11
4.2487583361
 21
3.7925804021
 31
0.0
  0
LINE
  5
F9
330
1F
100
AcDbEntity
  8
0
  6
HIDDEN
 62
     7
100
AcDbLine
 10
4.3730178077
 20
3.7208391628
 30
0.0
 11
4.3108880719
 21
3.6849685431
 31
0.0
  0
CIRCLE
  5
FA
330
1F
100
AcDbEntity
  8
0
  6
HIDDEN
 62
     7
100
AcDbCircle
 10
2.3423841349
 20
3.7567097825
 30
0.0
 40
0.0884251968503937
  0
CIRCLE
  5
FB
330
1F
100
AcDbEntity
  8
0
  6
HIDDEN
 62
     7
100
AcDbCircle
 10
2.3423841349
 20
3.7567097825
 30
0.0
 40
0.0984251968503935
  0
LINE
  5
FC
330
1F
100
AcDbEntity
  8
0
  6
HIDDEN
 62
     7
100
AcDbLine
 10
2.4045138707
 20
3.7925804021
 30
0.0
 11
2.3423841349
 21
3.8284510218
 31
0.0
  0
LINE
  5
FD
330
1F
100
AcDbEntity
  8
0
  6
HIDDEN
 62
     7
100
AcDbLine
 10
2.3423841349
 20
3.8284510218
 30
0.0
 11
2.2802543991
 21
3.7925804021
 31
0.0
  0
LINE
  5
FE
330
1F
100
AcDbEntity
  8
0
  6
HIDDEN
 62
     7
100
AcDbLine
 10
2.2802543991
 20
3.7925804021
 30
0.0
 11
2.2802543991
 21
3.7208391628
 31
0.0
  0
LINE
  5
FF
330
1F
100
AcDbEntity
  8
0
  6
HIDDEN
 62
     7
100
AcDbLine
 10
2.4045138707
 20
3.7208391628
 30
0.0
 11
2.4045138707
 21
3.7925804021
 31
0.0
  0
LINE
  5
100
330
1F
100
AcDbEntity
  8
0
  6
HIDDEN
 62
     7
100
AcDbLine
 10
2.2802543991
 20
3.7208391628
 30
0.0
 11
2.3423841349
 21
3.6849685431
 31
0.0
  0
LINE
  5
101
330
1F
100
AcDbEntity
  8
0
  6
HIDDEN
 62
     7
100
AcDbLine
 10
2.3423841349
 20
3.6849685431
 30
0.0
 11
2.4045138707
 21
3.7208391628
 31
0.0
  0
LINE
  5
102
330
1F
100
AcDbEntity
  8
0
  6
HIDDEN
 62
     7
100
AcDbLine
 10
2.243958938
 20
4.730961751
 30
0.0
 11
2.4408093317
 21
4.730961751
 31
0.0
  0
LINE
  5
103
330
1F
100
AcDbEntity
  8
0
  6
HIDDEN
 62
     7
100
AcDbLine
 10
2.4408093317
 20
4.0029302549
 30
0.0
 11
2.243958938
 21
4.0029302549
 31
0.0
  0
LINE
  5
104
330
1F
100
AcDbEntity
  8
0
  6
HIDDEN
 62
     7
100
AcDbLine
 10
2.253958938
 20
3.9929302549
 30
0.0
 11
2.4308093317
 21
3.9929302549
 31
0.0
  0
LINE
  5
105
330
1F
100
AcDbEntity
  8
0
  6
HIDDEN
 62
     7
100
AcDbLine
 10
2.3423841349
 20
4.690961751
 30
0.0
 11
2.3423841349
 21
4.740961751
 31
0.0
  0
LINE
  5
106
330
1F
100
AcDbEntity
  8
0
  6
HIDDEN
 62
     7
100
AcDbLine
 10
2.4045138707
 20
4.690961751
 30
0.0
 11
2.3423841349
 21
4.690961751
 31
0.0
  0
LINE
  5
107
330
1F
100
AcDbEntity
  8
0
  6
HIDDEN
 62
     7
100
AcDbLine
 10
2.3423841349
 20
4.690961751
 30
0.0
 11
2.2802543991
 21
4.690961751
 31
0.0
  0
LINE
  5
108
330
1F
100
AcDbEntity
  8
0
  6
HIDDEN
 62
     7
100
AcDbLine
 10
2.2802543991
 20
4.690961751
 30
0.0
 11
2.2802543991
 21
4.740961751
 31
0.0
  0
LINE
  5
109
330
1F
100
AcDbEntity
  8
0
  6
HIDDEN
 62
     7
100
AcDbLine
 10
2.4045138707
 20
4.690961751
 30
0.0
 11
2.4045138707
 21
4.740961751
 31
0.0
  0
LINE
  5
10A
330
1F
100
AcDbEntity
  8
0
  6
HIDDEN
 62
     7
100
AcDbLine
 10
4.4093132687
 20
4.730961751
 30
0.0
 11
4.212462875
 21
4.730961751
 31
0.0
  0
LINE
  5
10B
330
1F
100
AcDbEntity
  8
0
  6
HIDDEN
 62
     7
100
AcDbLine
 10
4.212462875
 20
4.0029302549
 30
0.0
 11
4.4093132687
 21
4.0029302549
 31
0.0
  0
LINE
  5
10C
330
1F
100
AcDbEntity
  8
0
  6
HIDDEN
 62
     7
100
AcDbLine
 10
4.3993132687
 20
3.9929302549
 30
0.0
 11
4.222462875
 21
3.9929302549
 31
0.0
  0
LINE
  5
10D
330
1F
100
AcDbEntity
  8
0
  6
HIDDEN
 62
     7
100
AcDbLine
 10
4.3108880719
 20
4.690961751
 30
0.0
 11
4.3108880719
 21
4.740961751
 31
0.0
  0
LINE
  5
10E
330
1F
100
AcDbEntity
  8
0
  6
HIDDEN
 62
     7
100
AcDbLine
 10
4.2487583361
 20
4.690961751
 30
0.0
 11
4.3108880719
 21
4.690961751
 31
0.0
  0
LINE
  5
10F
330
1F
100
AcDbEntity
  8
0
  6
HIDDEN
 62
     7
100
AcDbLine
 10
4.3108880719
 20
4.690961751
 30
0.0
 11
4.3730178077
 21
4.690961751
 31
0.0
  0
LINE
  5
110
330
1F
100
AcDbEntity
  8
0
  6
HIDDEN
 62
     7
100
AcDbLine
 10
4.3730178077
 20
4.690961751
 30
0.0
 11
4.3730178077
 21
4.740961751
 31
0.0
  0
LINE
  5
111
330
1F
100
AcDbEntity
  8
0
  6
HIDDEN
 62
     7
100
AcDbLine
 10
4.2487583361
 20
4.690961751
 30
0.0
 11
4.2487583361
 21
4.740961751
 31
0.0
  0
LINE
  5
112
330
1F
100
AcDbEntity
  8
0
  6
HIDDEN
 62
     7
100
AcDbLine
 10
4.7242738987
 20
4.0079302549
 30
0.0
 11
4.7092738987
 21
3.9929302549
 31
0.0
  0
LINE
  5
113
330
1F
100
AcDbEntity
  8
0
  6
HIDDEN
 62
     7
100
AcDbLine
 10
4.7092738987
 20
3.52048931
 30
0.0
 11
4.7242738987
 21
3.50548931
 31
0.0
  0
LINE
  5
114
330
1F
100
AcDbEntity
  8
0
  6
HIDDEN
 62
     7
100
AcDbLine
 10
1.9289983081
 20
3.50548931
 30
0.0
 11
1.9439983081
 21
3.52048931
 31
0.0
  0
LINE
  5
115
330
1F
100
AcDbEntity
  8
0
  6
HIDDEN
 62
     7
100
AcDbLine
 10
1.9439983081
 20
3.9929302549
 30
0.0
 11
1.9289983081
 21
4.0079302549
 31
0.0
  0
LINE
  5
116
330
1F
100
AcDbEntity
  8
0
  6
HIDDEN
 62
     7
100
AcDbLine
 10
3.3766361034
 20
4.0079302549
 30
0.0
 11
3.2766361034
 21
4.0079302549
 31
0.0
  0
LINE
  5
117
330
1F
100
AcDbEntity
  8
0
  6
HIDDEN
 62
     7
100
AcDbLine
 10
3.2766361034
 20
3.50548931
 30
0.0
 11
3.3766361034
 21
3.50548931
 31
0.0
  0
LINE
  5
118
330
1F
100
AcDbEntity
  8
0
  6
HIDDEN
 62
     7
100
AcDbLine
 10
2.2443091434
 20
3.9929302549
 30
0.0
 11
1.9439983081
 21
3.9929302549
 31
0.0
  0
LINE
  5
119
330
1F
100
AcDbEntity
  8
0
  6
HIDDEN
 62
     7
100
AcDbLine
 10
3.2766361034
 20
3.9929302549
 30
0.0
 11
2.4405874938
 21
3.9929302549
 31
0.0
  0
LINE
  5
11A
330
1F
100
AcDbEntity
  8
0
  6
HIDDEN
 62
     7
100
AcDbLine
 10
1.9439983081
 20
3.52048931
 30
0.0
 11
3.2766361034
 21
3.52048931
 31
0.0
  0
LINE
  5
11B
330
1F
100
AcDbEntity
  8
0
  6
HIDDEN
 62
     7
100
AcDbLine
 10
4.2128130805
 20
3.9929302549
 30
0.0
 11
3.3766361034
 21
3.9929302549
 31
0.0
  0
LINE
  5
11C
330
1F
100
AcDbEntity
  8
0
  6
HIDDEN
 62
     7
100
AcDbLine
 10
4.7092738987
 20
3.9929302549
 30
0.0
 11
4.4090914308
 21
3.9929302549
 31
0.0
  0
LINE
  5
11D
330
1F
100
AcDbEntity
  8
0
  6
HIDDEN
 62
     7
100
AcDbLine
 10
3.3766361034
 20
3.52048931
 30
0.0
 11
4.7092738987
 21
3.52048931
 31
0.0
  0
LINE
  5
11E
330
1F
100
AcDbEntity
  8
0
  6
HIDDEN
 62
     7
100
AcDbLine
 10
2.2319657308
 20
4.7409617522
 30
0.0
 11
2.2439589197
 21
4.7273292185
 31
0.0
  0
LINE
  5
11F
330
1F
100
AcDbEntity
  8
0
  6
HIDDEN
 62
     7
100
AcDbLine
 10
2.440809273
 20
4.72732921
 30
0.0
 11
2.4528024525
 21
4.7409617436
 31
0.0
  0
LINE
  5
120
330
1F
100
AcDbEntity
  8
0
  6
HIDDEN
 62
     7
100
AcDbLine
 10
4.2004696679
 20
4.7409617522
 30
0.0
 11
4.2124628567
 21
4.7273292185
 31
0.0
  0
LINE
  5
121
330
1F
100
AcDbEntity
  8
0
  6
HIDDEN
 62
     7
100
AcDbLine
 10
4.40931321
 20
4.72732921
 30
0.0
 11
4.4213063895
 21
4.7409617436
 31
0.0
  0
LINE
  5
122
330
1F
100
AcDbEntity
  8
0
  6
HIDDEN
 62
     7
100
AcDbLine
 10
2.4408093317
 20
3.9928381898
 30
0.0
 11
2.4408093317
 21
4.7273278656
 31
0.0
  0
LINE
  5
123
330
1F
100
AcDbEntity
  8
0
  6
HIDDEN
 62
     7
100
AcDbLine
 10
2.243958938
 20
4.7273292173
 30
0.0
 11
2.243958938
 21
3.9927845704
 31
0.0
  0
LINE
  5
124
330
1F
100
AcDbEntity
  8
0
  6
HIDDEN
 62
     7
100
AcDbLine
 10
4.4093132687
 20
3.9928381898
 30
0.0
 11
4.4093132687
 21
4.7273278656
 31
0.0
  0
LINE
  5
125
330
1F
100
AcDbEntity
  8
0
  6
HIDDEN
 62
     7
100
AcDbLine
 10
4.212462875
 20
4.7273292173
 30
0.0
 11
4.212462875
 21
3.9927845704
 31
0.0
  0
LINE
  5
126
330
1F
100
AcDbEntity
  8
0
  6
HIDDEN
 62
     7
100
AcDbLine
 10
2.4408093317
 20
4.730961751
 30
0.0
 11
2.4328922784
 21
4.7388788043
 31
0.0
  0
LINE
  5
127
330
1F
100
AcDbEntity
  8
0
  6
HIDDEN
 62
     7
100
AcDbLine
 10
2.2518766163
 20
4.7388794293
 30
0.0
 11
2.243958938
 21
4.730961751
 31
0.0
  0
LINE
  5
128
330
1F
100
AcDbEntity
  8
0
  6
HIDDEN
 62
     7
100
AcDbLine
 10
2.4408093317
 20
4.0029302549
 30
0.0
 11
2.4408093317
 21
4.730961751
 31
0.0
  0
LINE
  5
129
330
1F
100
AcDbEntity
  8
0
  6
HIDDEN
 62
     7
100
AcDbLine
 10
2.243958938
 20
4.730961751
 30
0.0
 11
2.243958938
 21
4.0029302549
 31
0.0
  0
LINE
  5
12A
330
1F
100
AcDbEntity
  8
0
  6
HIDDEN
 62
     7
100
AcDbLine
 10
2.243958938
 20
4.0029302549
 30
0.0
 11
2.253958938
 21
3.9929302549
 31
0.0
  0
LINE
  5
12B
330
1F
100
AcDbEntity
  8
0
  6
HIDDEN
 62
     7
100
AcDbLine
 10
2.4308093317
 20
3.9929302549
 30
0.0
 11
2.4408093317
 21
4.0029302549
 31
0.0
  0
LINE
  5
12C
330
1F
100
AcDbEntity
  8
0
  6
HIDDEN
 62
     7
100
AcDbLine
 10
4.4093132687
 20
4.0029302549
 30
0.0
 11
4.4093132687
 21
4.730961751
 31
0.0
  0
LINE
  5
12D
330
1F
100
AcDbEntity
  8
0
  6
HIDDEN
 62
     7
100
AcDbLine
 10
4.212462875
 20
4.730961751
 30
0.0
 11
4.212462875
 21
4.0029302549
 31
0.0
  0
LINE
  5
12E
330
1F
100
AcDbEntity
  8
0
  6
HIDDEN
 62
     7
100
AcDbLine
 10
4.4093132687
 20
4.730961751
 30
0.0
 11
4.4013962154
 21
4.7388788043
 31
0.0
  0
LINE
  5
12F
330
1F
100
AcDbEntity
  8
0
  6
HIDDEN
 62
     7
100
AcDbLine
 10
4.2203805533
 20
4.7388794293
 30
0.0
 11
4.212462875
 21
4.730961751
 31
0.0
  0
LINE
  5
130
330
1F
100
AcDbEntity
  8
0
  6
HIDDEN
 62
     7
100
AcDbLine
 10
4.212462875
 20
4.0029302549
 30
0.0
 11
4.222462875
 21
3.9929302549
 31
0.0
  0
LINE
  5
131
330
1F
100
AcDbEntity
  8
0
  6
HIDDEN
 62
     7
100
AcDbLine
 10
4.3993132687
 20
3.9929302549
 30
0.0
 11
4.4093132687
 21
4.0029302549
 31
0.0
  0
LINE
  5
132
330
1F
100
AcDbEntity
  8
0
  6
CONTINUOUS
 62
     7
100
AcDbLine
 10
9.2307509711
 20
3.6638989819
 30
0.0
 11
9.2351365748
 21
3.6682845856
 31
0.0
  0
LINE
  5
133
330
1F
100
AcDbEntity
  8
0
  6
CONTINUOUS
 62
     7
100
AcDbLine
 10
9.2351365748
 20
3.8451349793
 30
0.0
 11
9.2307509711
 21
3.849520583
 31
0.0
  0
LINE
  5
134
330
1F
100
AcDbEntity
  8
0
  6
CONTINUOUS
 62
     7
100
AcDbLine
 10
8.3436954069
 20
4.7365761472
 30
0.0
 11
8.3393098032
 21
4.740961751
 31
0.0
  0
LINE
  5
135
330
1F
100
AcDbEntity
  8
0
  6
CONTINUOUS
 62
     7
100
AcDbLine
 10
8.1624594095
 20
4.740961751
 30
0.0
 11
8.1580738057
 21
4.7365761472
 31
0.0
  0
CIRCLE
  5
136
330
1F
100
AcDbEntity
  8
0
  6
CONTINUOUS
 62
     7
100
AcDbCircle
 10
8.2508846063
 20
3.7567097825
 30
0.0
 40
0.9692519685039382
  0
CIRCLE
  5
137
330
1F
100
AcDbEntity
  8
0
  6
CONTINUOUS
 62
     7
100
AcDbCircle
 10
8.2508846063
 20
3.7567097825
 30
0.0
 40
0.984251968503937
  0
CIRCLE
  5
138
330
1F
100
AcDbEntity
  8
0
  6
CONTINUOUS
 62
     7
100
AcDbCircle
 10
8.2508846063
 20
3.7567097825
 30
0.0
 40
0.251220472440945
  0
CIRCLE
  5
139
330
1F
100
AcDbEntity
  8
0
  6
CONTINUOUS
 62
     7
100
AcDbCircle
 10
8.2508846063
 20
3.7567097825
 30
0.0
 40
0.2362204724409462
  0
LINE
  5
13A
330
1F
100
AcDbEntity
  8
0
  6
CONTINUOUS
 62
     7
100
AcDbLine
 10
9.2351365748
 20
3.8451349793
 30
0.0
 11
9.2351365748
 21
3.6682845856
 31
0.0
  0
LINE
  5
13B
330
1F
100
AcDbEntity
  8
0
  6
CONTINUOUS
 62
     7
100
AcDbLine
 10
8.1624594095
 20
4.740961751
 30
0.0
 11
8.3393098032
 21
4.740961751
 31
0.0
  0
SPLINE
  5
13C
330
1F
100
AcDbEntity
  8
0
  6
HIDDEN
 62
     7
100
AcDbSpline
210
0.0
220
0.0
230
1.0
 70
     8
 71
     3
 72
    31
 73
    27
 74
     0
 42
0.00000001
 43
0.00000001
 40
0.0
 40
0.0
 40
0.0
 40
0.0
 40
0.0506376297636877
 40
0.109210071964056
 40
0.175641705191815
 40
0.2499348635732989
 40
0.324057570132662
 40
0.3904005138144204
 40
0.4489662308800593
 40
0.4997640723466623
 40
0.5508017669501152
 40
0.6095580924314848
 40
0.6760426117872125
 40
0.7502580969474191
 40
0.824506157352101
 40
0.890891637886403
 40
0.9494168387714113
 40
0.9757571108070527
 40
0.9881924228756573
 40
0.9942261227221992
 40
0.9971969675410906
 40
0.9986708875562391
 40
0.9994049718792439
 40
0.9997712951121623
 40
0.9999542769957507
 40
1.0
 40
1.0
 40
1.0
 40
1.0
 10
8.152461496582186
 20
4.721028455714359
 30
0.0
 10
8.152702300685352
 20
4.721071632778275
 30
0.0
 10
8.153221642399387
 20
4.72116475266322
 30
0.0
 10
8.15790939985584
 20
4.721809271851458
 30
0.0
 10
8.16678393460197
 20
4.722790677794356
 30
0.0
 10
8.180610585119831
 20
4.724180264430894
 30
0.0
 10
8.198073904715288
 20
4.725564935826416
 30
0.0
 10
8.216654771600266
 20
4.726554655149909
 30
0.0
 10
8.234265782473424
 20
4.727167972915374
 30
0.0
 10
8.250800372847944
 20
4.727403704744683
 30
0.0
 10
8.267357791627921
 20
4.727169822308282
 30
0.0
 10
8.285032322676848
 20
4.726557357898312
 30
0.0
 10
8.303658005364413
 20
4.725567568041566
 30
0.0
 10
8.32114538333862
 20
4.724181321859678
 30
0.0
 10
8.334957589541853
 20
4.722794292433131
 30
0.0
 10
8.343888003574316
 20
4.721803210524045
 30
0.0
 10
8.34778256907598
 20
4.721273402407819
 30
0.0
 10
8.348963302412665
 20
4.721087550623429
 30
0.0
 10
8.349227220369611
 20
4.72104267435054
 30
0.0
 10
8.349289503540156
 20
4.721031705938602
 30
0.0
 10
8.34930469725636
 20
4.721029004608834
 30
0.0
 10
8.34930848403856
 20
4.721028339384244
 30
0.0
 10
8.34930944977715
 20
4.721028176239608
 30
0.0
 10
8.34930969986752
 20
4.721028137530981
 30
0.0
 10
8.349309767008325
 20
4.721028128609396
 30
0.0
 10
8.349309780721088
 20
4.7210281274216
 30
0.0
 10
8.349309783462562
 20
4.721028127184134
 30
0.0
  0
LINE
  5
13D
330
1F
100
AcDbEntity
  8
0
  6
HIDDEN
 62
     7
100
AcDbLine
 10
8.2661371606
 20
4.7271376443
 30
0.0
 11
8.2508846063
 21
4.7273292173
 31
0.0
  0
LINE
  5
13E
330
1F
100
AcDbEntity
  8
0
  6
HIDDEN
 62
     7
100
AcDbLine
 10
9.2251365748
 20
3.6582845856
 30
0.0
 11
9.2251365748
 21
3.8551349793
 31
0.0
  0
LINE
  5
13F
330
1F
100
AcDbEntity
  8
0
  6
HIDDEN
 62
     7
100
AcDbLine
 10
8.4971050788
 20
3.7567097825
 30
0.0
 11
8.4971050788
 21
3.6582845856
 31
0.0
  0
LINE
  5
140
330
1F
100
AcDbEntity
  8
0
  6
HIDDEN
 62
     7
100
AcDbLine
 10
8.4971050788
 20
3.8551349793
 30
0.0
 11
8.4971050788
 21
3.7567097825
 31
0.0
  0
LINE
  5
141
330
1F
100
AcDbEntity
  8
0
  6
HIDDEN
 62
     7
100
AcDbLine
 10
8.4871050788
 20
3.7567097825
 30
0.0
 11
8.4871050788
 21
3.8451349793
 31
0.0
  0
LINE
  5
142
330
1F
100
AcDbEntity
  8
0
  6
HIDDEN
 62
     7
100
AcDbLine
 10
8.4871050788
 20
3.6682845856
 30
0.0
 11
8.4871050788
 21
3.7567097825
 31
0.0
  0
LINE
  5
143
330
1F
100
AcDbEntity
  8
0
  6
HIDDEN
 62
     7
100
AcDbLine
 10
9.1851365748
 20
3.7925804021
 30
0.0
 11
9.2351365748
 21
3.7925804021
 31
0.0
  0
LINE
  5
144
330
1F
100
AcDbEntity
  8
0
  6
HIDDEN
 62
     7
100
AcDbLine
 10
9.1851365748
 20
3.7208391628
 30
0.0
 11
9.2351365748
 21
3.7208391628
 31
0.0
  0
LINE
  5
145
330
1F
100
AcDbEntity
  8
0
  6
HIDDEN
 62
     7
100
AcDbLine
 10
9.1851365748
 20
3.7208391628
 30
0.0
 11
9.1851365748
 21
3.6849685431
 31
0.0
  0
LINE
  5
146
330
1F
100
AcDbEntity
  8
0
  6
HIDDEN
 62
     7
100
AcDbLine
 10
9.1851365748
 20
3.7925804021
 30
0.0
 11
9.1851365748
 21
3.7208391628
 31
0.0
  0
LINE
  5
147
330
1F
100
AcDbEntity
  8
0
  6
HIDDEN
 62
     7
100
AcDbLine
 10
9.1851365748
 20
3.8284510218
 30
0.0
 11
9.1851365748
 21
3.7925804021
 31
0.0
  0
LINE
  5
148
330
1F
100
AcDbEntity
  8
0
  6
HIDDEN
 62
     7
100
AcDbLine
 10
9.1851365748
 20
3.6849685431
 30
0.0
 11
9.2351365748
 21
3.6849685431
 31
0.0
  0
LINE
  5
149
330
1F
100
AcDbEntity
  8
0
  6
HIDDEN
 62
     7
100
AcDbLine
 10
9.1851365748
 20
3.8284510218
 30
0.0
 11
9.2351365748
 21
3.8284510218
 31
0.0
  0
LINE
  5
14A
330
1F
100
AcDbEntity
  8
0
  6
HIDDEN
 62
     7
100
AcDbLine
 10
8.2508846063
 20
3.9929302549
 30
0.0
 11
8.1624594095
 21
3.9929302549
 31
0.0
  0
LINE
  5
14B
330
1F
100
AcDbEntity
  8
0
  6
HIDDEN
 62
     7
100
AcDbLine
 10
8.3393098032
 20
3.9929302549
 30
0.0
 11
8.2508846063
 21
3.9929302549
 31
0.0
  0
LINE
  5
14C
330
1F
100
AcDbEntity
  8
0
  6
HIDDEN
 62
     7
100
AcDbLine
 10
8.2508846063
 20
4.0029302549
 30
0.0
 11
8.3493098032
 21
4.0029302549
 31
0.0
  0
LINE
  5
14D
330
1F
100
AcDbEntity
  8
0
  6
HIDDEN
 62
     7
100
AcDbLine
 10
8.1524594095
 20
4.0029302549
 30
0.0
 11
8.2508846063
 21
4.0029302549
 31
0.0
  0
LINE
  5
14E
330
1F
100
AcDbEntity
  8
0
  6
HIDDEN
 62
     7
100
AcDbLine
 10
8.3493098032
 20
4.730961751
 30
0.0
 11
8.1524594095
 21
4.730961751
 31
0.0
  0
LINE
  5
14F
330
1F
100
AcDbEntity
  8
0
  6
HIDDEN
 62
     7
100
AcDbLine
 10
8.286755226
 20
4.690961751
 30
0.0
 11
8.3226258457
 21
4.690961751
 31
0.0
  0
LINE
  5
150
330
1F
100
AcDbEntity
  8
0
  6
HIDDEN
 62
     7
100
AcDbLine
 10
8.2150139866
 20
4.690961751
 30
0.0
 11
8.286755226
 21
4.690961751
 31
0.0
  0
LINE
  5
151
330
1F
100
AcDbEntity
  8
0
  6
HIDDEN
 62
     7
100
AcDbLine
 10
8.286755226
 20
4.690961751
 30
0.0
 11
8.286755226
 21
4.740961751
 31
0.0
  0
LINE
  5
152
330
1F
100
AcDbEntity
  8
0
  6
HIDDEN
 62
     7
100
AcDbLine
 10
8.2150139866
 20
4.690961751
 30
0.0
 11
8.2150139866
 21
4.740961751
 31
0.0
  0
LINE
  5
153
330
1F
100
AcDbEntity
  8
0
  6
HIDDEN
 62
     7
100
AcDbLine
 10
8.179143367
 20
4.690961751
 30
0.0
 11
8.2150139866
 21
4.690961751
 31
0.0
  0
LINE
  5
154
330
1F
100
AcDbEntity
  8
0
  6
HIDDEN
 62
     7
100
AcDbLine
 10
8.3226258457
 20
4.690961751
 30
0.0
 11
8.3226258457
 21
4.740961751
 31
0.0
  0
LINE
  5
155
330
1F
100
AcDbEntity
  8
0
  6
HIDDEN
 62
     7
100
AcDbLine
 10
8.179143367
 20
4.690961751
 30
0.0
 11
8.179143367
 21
4.740961751
 31
0.0
  0
LINE
  5
156
330
1F
100
AcDbEntity
  8
0
  6
HIDDEN
 62
     7
100
AcDbLine
 10
8.138915376
 20
4.7345721598
 30
0.0
 11
8.1524594096
 21
4.7210281262
 31
0.0
  0
LINE
  5
157
330
1F
100
AcDbEntity
  8
0
  6
HIDDEN
 62
     7
100
AcDbLine
 10
8.3493098134
 20
4.7210281256
 30
0.0
 11
8.3628538485
 21
4.7345721593
 31
0.0
  0
LINE
  5
158
330
1F
100
AcDbEntity
  8
0
  6
HIDDEN
 62
     7
100
AcDbLine
 10
8.3493098032
 20
3.9714482099
 30
0.0
 11
8.3493098032
 21
4.7210268753
 31
0.0
  0
LINE
  5
159
330
1F
100
AcDbEntity
  8
0
  6
HIDDEN
 62
     7
100
AcDbLine
 10
8.1524594095
 20
4.7210287542
 30
0.0
 11
8.1524594095
 21
3.9715303996
 31
0.0
  0
LINE
  5
15A
330
1F
100
AcDbEntity
  8
0
  6
HIDDEN
 62
     7
100
AcDbLine
 10
8.4657416747
 20
3.6582845856
 30
0.0
 11
9.2302350161
 21
3.6582845856
 31
0.0
  0
LINE
  5
15B
330
1F
100
AcDbEntity
  8
0
  6
HIDDEN
 62
     7
100
AcDbLine
 10
9.2302053388
 20
3.8551349793
 30
0.0
 11
8.465785777
 21
3.8551349793
 31
0.0
  0
LINE
  5
15C
330
1F
100
AcDbEntity
  8
0
  6
HIDDEN
 62
     7
100
AcDbLine
 10
9.2251365748
 20
3.6582845856
 30
0.0
 11
9.2307509711
 21
3.6638989819
 31
0.0
  0
LINE
  5
15D
330
1F
100
AcDbEntity
  8
0
  6
HIDDEN
 62
     7
100
AcDbLine
 10
9.2307509711
 20
3.849520583
 30
0.0
 11
9.2251365748
 21
3.8551349793
 31
0.0
  0
LINE
  5
15E
330
1F
100
AcDbEntity
  8
0
  6
HIDDEN
 62
     7
100
AcDbLine
 10
8.4971050788
 20
3.6582845856
 30
0.0
 11
9.2251365748
 21
3.6582845856
 31
0.0
  0
LINE
  5
15F
330
1F
100
AcDbEntity
  8
0
  6
HIDDEN
 62
     7
100
AcDbLine
 10
9.2251365748
 20
3.8551349793
 30
0.0
 11
8.4971050788
 21
3.8551349793
 31
0.0
  0
LINE
  5
160
330
1F
100
AcDbEntity
  8
0
  6
HIDDEN
 62
     7
100
AcDbLine
 10
8.4971050788
 20
3.8551349793
 30
0.0
 11
8.4871050788
 21
3.8451349793
 31
0.0
  0
LINE
  5
161
330
1F
100
AcDbEntity
  8
0
  6
HIDDEN
 62
     7
100
AcDbLine
 10
8.4871050788
 20
3.6682845856
 30
0.0
 11
8.4971050788
 21
3.6582845856
 31
0.0
  0
LINE
  5
162
330
1F
100
AcDbEntity
  8
0
  6
HIDDEN
 62
     7
100
AcDbLine
 10
8.1524594095
 20
4.0029302549
 30
0.0
 11
8.1624594095
 21
3.9929302549
 31
0.0
  0
LINE
  5
163
330
1F
100
AcDbEntity
  8
0
  6
HIDDEN
 62
     7
100
AcDbLine
 10
8.3393098032
 20
3.9929302549
 30
0.0
 11
8.3493098032
 21
4.0029302549
 31
0.0
  0
LINE
  5
164
330
1F
100
AcDbEntity
  8
0
  6
HIDDEN
 62
     7
100
AcDbLine
 10
8.3493098032
 20
4.730961751
 30
0.0
 11
8.3436954069
 21
4.7365761472
 31
0.0
  0
LINE
  5
165
330
1F
100
AcDbEntity
  8
0
  6
HIDDEN
 62
     7
100
AcDbLine
 10
8.1580738057
 20
4.7365761472
 30
0.0
 11
8.1524594095
 21
4.730961751
 31
0.0
  0
LINE
  5
166
330
1F
100
AcDbEntity
  8
0
  6
HIDDEN
 62
     7
100
AcDbLine
 10
8.3493098032
 20
4.0029302549
 30
0.0
 11
8.3493098032
 21
4.730961751
 31
0.0
  0
LINE
  5
167
330
1F
100
AcDbEntity
  8
0
  6
HIDDEN
 62
     7
100
AcDbLine
 10
8.1524594095
 20
4.730961751
 30
0.0
 11
8.1524594095
 21
4.0029302549
 31
0.0
  0
LINE
  5
168
330
1F
100
AcDbEntity
  8
0
  6
CONTINUOUS
 62
     7
100
AcDbLine
 10
1.9439983081
 20
5.6877251704
 30
0.0
 11
4.7092738987
 21
5.6877251704
 31
0.0
  0
LINE
  5
169
330
1F
100
AcDbEntity
  8
0
  6
CONTINUOUS
 62
     7
100
AcDbLine
 10
2.243958938
 20
7.6562291074
 30
0.0
 11
1.9439983081
 21
7.6562291074
 31
0.0
  0
LINE
  5
16A
330
1F
100
AcDbEntity
  8
0
  6
CONTINUOUS
 62
     7
100
AcDbLine
 10
4.212462875
 20
7.6562291074
 30
0.0
 11
2.4405076472
 21
7.6562291074
 31
0.0
  0
LINE
  5
16B
330
1F
100
AcDbEntity
  8
0
  6
CONTINUOUS
 62
     7
100
AcDbLine
 10
4.7092738987
 20
7.6562291074
 30
0.0
 11
4.4090115842
 21
7.6562291074
 31
0.0
  0
LINE
  5
16C
330
1F
100
AcDbEntity
  8
0
  6
CONTINUOUS
 62
     7
100
AcDbLine
 10
1.9439983081
 20
7.6562291074
 30
0.0
 11
1.9289983081
 21
7.6412291074
 31
0.0
  0
LINE
  5
16D
330
1F
100
AcDbEntity
  8
0
  6
CONTINUOUS
 62
     7
100
AcDbLine
 10
1.9289983081
 20
5.7027251704
 30
0.0
 11
1.9439983081
 21
5.6877251704
 31
0.0
  0
LINE
  5
16E
330
1F
100
AcDbEntity
  8
0
  6
CONTINUOUS
 62
     7
100
AcDbLine
 10
4.7092738987
 20
5.6877251704
 30
0.0
 11
4.7242738987
 21
5.7027251704
 31
0.0
  0
LINE
  5
16F
330
1F
100
AcDbEntity
  8
0
  6
CONTINUOUS
 62
     7
100
AcDbLine
 10
4.7242738987
 20
7.6412291074
 30
0.0
 11
4.7092738987
 21
7.6562291074
 31
0.0
  0
LINE
  5
170
330
1F
100
AcDbEntity
  8
0
  6
CONTINUOUS
 62
     7
100
AcDbLine
 10
4.7092738987
 20
5.6877251704
 30
0.0
 11
4.7092738987
 21
7.6562291074
 31
0.0
  0
LINE
  5
171
330
1F
100
AcDbEntity
  8
0
  6
CONTINUOUS
 62
     7
100
AcDbLine
 10
1.9439983081
 20
7.6562291074
 30
0.0
 11
1.9439983081
 21
5.6877251704
 31
0.0
  0
SPLINE
  5
172
330
1F
100
AcDbEntity
  8
0
  6
CONTINUOUS
 62
     7
100
AcDbSpline
210
0.0
220
0.0
230
1.0
 70
     8
 71
     3
 72
    39
 73
    35
 74
     0
 42
0.00000001
 43
0.00000001
 40
-0.0943785987983444
 40
-0.0628445568539311
 40
-0.0312454222840519
 40
0.0
 40
0.0312807849323628
 40
0.0628843474339717
 40
0.0944355244302092
 40
0.1255739177563144
 40
0.1566058540254264
 40
0.1879276858147967
 40
0.2191609684185149
 40
0.2500192977140989
 40
0.2808150352294543
 40
0.3120895360880267
 40
0.3433474633138534
 40
0.3743761737128762
 40
0.405485499484401
 40
0.4371182962645945
 40
0.4688213427064522
 40
0.5001558358450838
 40
0.5314169960362551
 40
0.5630296125999787
 40
0.5945163898235047
 40
0.6256357870845614
 40
0.6566634067447182
 40
0.6879584527662548
 40
0.7192136464720478
 40
0.7500728172013583
 40
0.780894939788999
 40
0.8121979377880107
 40
0.843475040273327
 40
0.874533347896107
 40
0.9056214012016556
 40
0.9371554431460689
 40
0.9687545777159481
 40
1.0
 40
1.031280784932363
 40
1.062884347433972
 40
1.094435524430209
 10
2.23337049084461
 20
6.650048652745162
 30
0.0
 10
2.231258724359995
 20
6.671986226010224
 30
0.0
 10
2.233404457217282
 20
6.693919735887921
 30
0.0
 10
2.239844391955573
 20
6.715050238373966
 30
0.0
 10
2.250011998322897
 20
6.73460861852697
 30
0.0
 10
2.263790888308332
 20
6.751644092021865
 30
0.0
 10
2.280591750170206
 20
6.7656271112671
 30
0.0
 10
2.299888634214908
 20
6.775945798504143
 30
0.0
 10
2.320742592170168
 20
6.782488437756679
 30
0.0
 10
2.342389546417627
 20
6.784665116102032
 30
0.0
 10
2.364049286683396
 20
6.782509362937713
 30
0.0
 10
2.384883147930161
 20
6.775963081576474
 30
0.0
 10
2.404170182804061
 20
6.765641393809462
 30
0.0
 10
2.420952269471859
 20
6.751670353303649
 30
0.0
 10
2.434731951969693
 20
6.734620420960841
 30
0.0
 10
2.444905487545052
 20
6.715025980444328
 30
0.0
 10
2.451372606824411
 20
6.693846463072594
 30
0.0
 10
2.453512589268187
 20
6.671870808138433
 30
0.0
 10
2.451375410721599
 20
6.649916465588912
 30
0.0
 10
2.444919509151466
 20
6.628807331923046
 30
0.0
 10
2.434731806696967
 20
6.609279126630602
 30
0.0
 10
2.420942223582177
 20
6.59227942298695
 30
0.0
 10
2.404143760613629
 20
6.578313685168942
 30
0.0
 10
2.384850359098865
 20
6.567994645214902
 30
0.0
 10
2.363997079334932
 20
6.561449919186963
 30
0.0
 10
2.342336093136182
 20
6.559287377520501
 30
0.0
 10
2.320665793612657
 20
6.56146857788499
 30
0.0
 10
2.299821342441501
 20
6.56803752620969
 30
0.0
 10
2.280526025171439
 20
6.578381377278741
 30
0.0
 10
2.263744166994381
 20
6.592361179505859
 30
0.0
 10
2.249968605872226
 20
6.609386557368746
 30
0.0
 10
2.239810256241784
 20
6.628930666346959
 30
0.0
 10
2.23337049084461
 20
6.650048652745162
 30
0.0
 10
2.231258724359995
 20
6.671986226010224
 30
0.0
 10
2.233404457217282
 20
6.693919735887921
 30
0.0
  0
SPLINE
  5
173
330
1F
100
AcDbEntity
  8
0
  6
CONTINUOUS
 62
     7
100
AcDbSpline
210
0.0
220
0.0
230
1.0
 70
     8
 71
     3
 72
    39
 73
    35
 74
     0
 42
0.00000001
 43
0.00000001
 40
-0.0943785987989524
 40
-0.0628445568539462
 40
-0.0312454222844419
 40
0.0
 40
0.0312807849320678
 40
0.0628843474339603
 40
0.094435524430027
 40
0.1255739177563186
 40
0.1566058540256572
 40
0.1879276858148019
 40
0.2191609684186354
 40
0.250019297714099
 40
0.2808150352295143
 40
0.3120895360880292
 40
0.343347463313914
 40
0.3743761737128763
 40
0.4054854994844014
 40
0.4371182962645951
 40
0.4688213427062974
 40
0.5001558358450786
 40
0.5314169960363949
 40
0.5630296125999906
 40
0.5945163898239083
 40
0.625635787084566
 40
0.6566634067449972
 40
0.6879584527662612
 40
0.7192136464722146
 40
0.7500728172013581
 40
0.7808949397891195
 40
0.8121979377880156
 40
0.8434750402732311
 40
0.8745333478960987
 40
0.9056214012010476
 40
0.9371554431460538
 40
0.9687545777155581
 40
1.0
 40
1.031280784932068
 40
1.06288434743396
 40
1.094435524430027
 10
4.201874427852419
 20
6.650048652745055
 30
0.0
 10
4.199762661367873
 20
6.67198622601007
 30
0.0
 10
4.201908394225198
 20
6.693919735887842
 30
0.0
 10
4.208348328963411
 20
6.715050238373861
 30
0.0
 10
4.218515935330673
 20
6.734608618526984
 30
0.0
 10
4.232294825316226
 20
6.751644092021864
 30
0.0
 10
4.249095687178119
 20
6.765627111267134
 30
0.0
 10
4.268392571222856
 20
6.775945798504176
 30
0.0
 10
4.289246529178076
 20
6.782488437756657
 30
0.0
 10
4.310893483425541
 20
6.784665116102034
 30
0.0
 10
4.332553223691286
 20
6.782509362937721
 30
0.0
 10
4.353387084938061
 20
6.775963081576463
 30
0.0
 10
4.372674119811939
 20
6.765641393809442
 30
0.0
 10
4.389456206479744
 20
6.75167035330364
 30
0.0
 10
4.403235888977564
 20
6.73462042096084
 30
0.0
 10
4.413409424552916
 20
6.715025980444362
 30
0.0
 10
4.419876543832249
 20
6.693846463072621
 30
0.0
 10
4.42201652627605
 20
6.671870808138438
 30
0.0
 10
4.419879347729563
 20
6.649916465588861
 30
0.0
 10
4.413423446159283
 20
6.628807331922935
 30
0.0
 10
4.403235743704759
 20
6.609279126630544
 30
0.0
 10
4.389446160589944
 20
6.592279422986836
 30
0.0
 10
4.372647697621454
 20
6.578313685168897
 30
0.0
 10
4.353354296106646
 20
6.567994645214858
 30
0.0
 10
4.33250101634276
 20
6.561449919186992
 30
0.0
 10
4.310840030143991
 20
6.5592873775205
 30
0.0
 10
4.2891697306205
 20
6.561468577884976
 30
0.0
 10
4.268325279449365
 20
6.568037526209684
 30
0.0
 10
4.249029962179378
 20
6.578381377278795
 30
0.0
 10
4.232248104002355
 20
6.592361179505731
 30
0.0
 10
4.21847254288021
 20
6.609386557368651
 30
0.0
 10
4.20831419324975
 20
6.62893066634675
 30
0.0
 10
4.201874427852419
 20
6.650048652745055
 30
0.0
 10
4.199762661367873
 20
6.67198622601007
 30
0.0
 10
4.201908394225198
 20
6.693919735887842
 30
0.0
  0
SPLINE
  5
174
330
1F
100
AcDbEntity
  8
0
  6
CONTINUOUS
 62
     7
100
AcDbSpline
210
0.0
220
0.0
230
1.0
 70
     8
 71
     3
 72
    26
 73
    22
 74
     0
 42
0.00000001
 43
0.00000001
 40
0.0
 40
0.0
 40
0.0
 40
0.0
 40
0.0177286580865133
 40
0.0720174988157234
 40
0.1246690373529713
 40
0.1788378063225272
 40
0.2316679054007987
 40
0.2860190532665136
 40
0.339031842782273
 40
0.3935868495612225
 40
0.4465007961243735
 40
0.5009626545284719
 40
0.5536485695469421
 40
0.6078633263268868
 40
0.6605485988330629
 40
0.7147489733962076
 40
0.7676609655804109
 40
0.8221007488900213
 40
0.8751141488295776
 40
0.9296748543675432
 40
1.0
 40
1.0
 40
1.0
 40
1.0
 10
4.409011584215203
 20
7.656199006860928
 30
0.0
 10
4.409094426746202
 20
7.656207270874476
 30
0.0
 10
4.409430950348217
 20
7.656240841017406
 30
0.0
 10
4.407176122278275
 20
7.656015344992102
 30
0.0
 10
4.402256897720156
 20
7.655542209479179
 30
0.0
 10
4.394637775429381
 20
7.654856852255298
 30
0.0
 10
4.384625168721108
 20
7.654047092317947
 30
0.0
 10
4.37259221723168
 20
7.653208739419238
 30
0.0
 10
4.358678306067485
 20
7.652424740644645
 30
0.0
 10
4.343521373692988
 20
7.65179678440364
 30
0.0
 10
4.327296545011369
 20
7.651386899782135
 30
0.0
 10
4.310783316975241
 20
7.65124827481299
 30
0.0
 10
4.294147764151732
 20
7.651392910384256
 30
0.0
 10
4.278161377336687
 20
7.651800523257791
 30
0.0
 10
4.262962816757351
 20
7.652431662291352
 30
0.0
 10
4.249227640494092
 20
7.653206325032865
 30
0.0
 10
4.23710236543729
 20
7.654050377546906
 30
0.0
 10
4.227125331242955
 20
7.654858310336395
 30
0.0
 10
4.219498099322636
 20
7.655543442941282
 30
0.0
 10
4.213733887557251
 20
7.656100357627415
 30
0.0
 10
4.212920759798556
 20
7.656182725054167
 30
0.0
 10
4.212462875038096
 20
7.656229107420363
 30
0.0
  0
SPLINE
  5
175
330
1F
100
AcDbEntity
  8
0
  6
CONTINUOUS
 62
     7
100
AcDbSpline
210
0.0
220
0.0
230
1.0
 70
     8
 71
     3
 72
    26
 73
    22
 74
     0
 42
0.00000001
 43
0.00000001
 40
0.0
 40
0.0
 40
0.0
 40
0.0
 40
0.0177286580865133
 40
0.0720174988157234
 40
0.1246690373529713
 40
0.1788378063225272
 40
0.2316679054007987
 40
0.2860190532665136
 40
0.339031842782273
 40
0.3935868495612225
 40
0.4465007961243735
 40
0.5009626545284719
 40
0.5536485695469421
 40
0.6078633263268868
 40
0.6605485988330629
 40
0.7147489733962076
 40
0.7676609655804109
 40
0.8221007488900213
 40
0.8751141488295776
 40
0.9296748543675432
 40
1.0
 40
1.0
 40
1.0
 40
1.0
 10
2.440507647207328
 20
7.656199006860928
 30
0.0
 10
2.440590489738328
 20
7.656207270874476
 30
0.0
 10
2.440927013340342
 20
7.656240841017406
 30
0.0
 10
2.438672185270402
 20
7.656015344992102
 30
0.0
 10
2.433752960712282
 20
7.655542209479179
 30
0.0
 10
2.426133838421508
 20
7.654856852255298
 30
0.0
 10
2.416121231713234
 20
7.654047092317947
 30
0.0
 10
2.404088280223806
 20
7.653208739419238
 30
0.0
 10
2.39017436905961
 20
7.652424740644645
 30
0.0
 10
2.375017436685114
 20
7.65179678440364
 30
0.0
 10
2.358792608003495
 20
7.651386899782135
 30
0.0
 10
2.342279379967367
 20
7.65124827481299
 30
0.0
 10
2.325643827143859
 20
7.651392910384256
 30
0.0
 10
2.309657440328814
 20
7.651800523257791
 30
0.0
 10
2.294458879749477
 20
7.652431662291352
 30
0.0
 10
2.280723703486218
 20
7.653206325032865
 30
0.0
 10
2.268598428429416
 20
7.654050377546906
 30
0.0
 10
2.258621394235081
 20
7.654858310336395
 30
0.0
 10
2.250994162314763
 20
7.655543442941282
 30
0.0
 10
2.245229950549377
 20
7.656100357627415
 30
0.0
 10
2.244416822790682
 20
7.656182725054167
 30
0.0
 10
2.243958938030222
 20
7.656229107420363
 30
0.0
  0
SPLINE
  5
176
330
1F
100
AcDbEntity
  8
0
  6
CONTINUOUS
 62
     7
100
AcDbSpline
210
0.0
220
0.0
230
1.0
 70
     8
 71
     3
 72
     9
 73
     5
 74
     0
 42
0.00000001
 43
0.00000001
 40
0.0
 40
0.0
 40
0.0
 40
0.0
 40
0.9566714027983074
 40
1.0
 40
1.0
 40
1.0
 40
1.0
 10
2.243958938030222
 20
6.671977138916426
 30
0.0
 10
2.243953025533789
 20
6.666682188328696
 30
0.0
 10
2.243946845254524
 20
6.661147424174314
 30
0.0
 10
2.245331426224783
 20
6.655849306746695
 30
0.0
 10
2.245391418175937
 20
6.655619746750745
 30
0.0
  0
ARC
  5
177
330
1F
100
AcDbEntity
  8
0
  6
CONTINUOUS
 62
     7
100
AcDbCircle
 10
2.3423812345
 20
6.6719799328
 30
0.0
 40
0.0984222965513448
100
AcDbArc
 50
359.9774630902
 51
180.0016264349
  0
SPLINE
  5
178
330
1F
100
AcDbEntity
  8
0
  6
CONTINUOUS
 62
     7
100
AcDbSpline
210
0.0
220
0.0
230
1.0
 70
     8
 71
     3
 72
    29
 73
    25
 74
     0
 42
0.00000001
 43
0.00000001
 40
-0.1251645087566607
 40
-0.0765541749895535
 40
-0.0348321579829614
 40
0.0
 40
0.0348366652889912
 40
0.0765275036217112
 40
0.1250712305872581
 40
0.1737979979195462
 40
0.2155316192798247
 40
0.250269874355242
 40
0.3048589020273478
 40
0.3749789956584534
 40
0.4235762519670093
 40
0.4652704586118781
 40
0.5000599790685825
 40
0.5548963948238025
 40
0.6250042223841609
 40
0.673675676893012
 40
0.7153705731873623
 40
0.7500868670721271
 40
0.7501165559491285
 40
0.8047003331999698
 40
0.8748354912433393
 40
0.9234458250104465
 40
0.9651678420170386
 40
1.0
 40
1.034836665288991
 40
1.076527503621711
 40
1.125071230587258
 10
4.214188803591815
 20
6.694900784163117
 30
0.0
 10
4.211677155682166
 20
6.671976341554223
 30
0.0
 10
4.21418983203357
 20
6.649057482694189
 30
0.0
 10
4.223074747897529
 20
6.624657384042407
 30
0.0
 10
4.240181875318552
 20
6.601310635917732
 30
0.0
 10
4.263524870337939
 20
6.584178549391118
 30
0.0
 10
4.287954715439174
 20
6.575285188313138
 30
0.0
 10
4.314909079108917
 20
6.572318814022866
 30
0.0
 10
4.347834975140217
 20
6.577961555505712
 30
0.0
 10
4.378926098500322
 20
6.597656423892142
 30
0.0
 10
4.398651174475854
 20
6.624571481617282
 30
0.0
 10
4.407565145066465
 20
6.64897398132804
 30
0.0
 10
4.410555785016335
 20
6.675979103530584
 30
0.0
 10
4.40489581027411
 20
6.708970318224762
 30
0.0
 10
4.385138354574252
 20
6.740097057955131
 30
0.0
 10
4.358183819073205
 20
6.759799890738156
 30
0.0
 10
4.333783215457212
 20
6.768681477143554
 30
0.0
 10
4.318032150304424
 20
6.770401671065514
 30
0.0
 10
4.299680849574328
 20
6.770403379985536
 30
0.0
 10
4.273874002987218
 20
6.765972691869791
 30
0.0
 10
4.242810515321201
 20
6.746260711299779
 30
0.0
 10
4.223090914659767
 20
6.719321781701376
 30
0.0
 10
4.214188803591815
 20
6.694900784163117
 30
0.0
 10
4.211677155682166
 20
6.671976341554223
 30
0.0
 10
4.21418983203357
 20
6.649057482694189
 30
0.0
  0
LINE
  5
179
330
1F
100
AcDbEntity
  8
0
  6
CONTINUOUS
 62
     7
100
AcDbLine
 10
1.9289983081
 20
5.7027251704
 30
0.0
 11
1.9289983081
 21
7.6412291074
 31
0.0
  0
LINE
  5
17A
330
1F
100
AcDbEntity
  8
0
  6
CONTINUOUS
 62
     7
100
AcDbLine
 10
4.7242738987
 20
7.6412291074
 30
0.0
 11
4.7242738987
 21
5.7027251704
 31
0.0
  0
LINE
  5
17B
330
1F
100
AcDbEntity
  8
0
  6
CONTINUOUS
 62
     7
100
AcDbLine
 10
4.222462875
 20
7.6562291074
 30
0.0
 11
4.3993132687
 21
7.6562291074
 31
0.0
  0
LINE
  5
17C
330
1F
100
AcDbEntity
  8
0
  6
CONTINUOUS
 62
     7
100
AcDbLine
 10
2.4308093317
 20
7.6562291074
 30
0.0
 11
2.253958938
 21
7.6562291074
 31
0.0
  0
CIRCLE
  5
17D
330
1F
100
AcDbEntity
  8
0
  6
CONTINUOUS
 62
     7
100
AcDbCircle
 10
2.3423841349
 20
6.6719771389
 30
0.0
 40
0.0884251968503937
  0
LINE
  5
17E
330
1F
100
AcDbEntity
  8
0
  6
CONTINUOUS
 62
     7
100
AcDbLine
 10
2.2802543991
 20
6.6361065192
 30
0.0
 11
2.2802543991
 21
6.7078477586
 31
0.0
  0
LINE
  5
17F
330
1F
100
AcDbEntity
  8
0
  6
CONTINUOUS
 62
     7
100
AcDbLine
 10
2.3423841349
 20
6.6002358995
 30
0.0
 11
2.2802543991
 21
6.6361065192
 31
0.0
  0
LINE
  5
180
330
1F
100
AcDbEntity
  8
0
  6
CONTINUOUS
 62
     7
100
AcDbLine
 10
2.4045138707
 20
6.6361065192
 30
0.0
 11
2.3423841349
 21
6.6002358995
 31
0.0
  0
LINE
  5
181
330
1F
100
AcDbEntity
  8
0
  6
CONTINUOUS
 62
     7
100
AcDbLine
 10
2.4045138707
 20
6.7078477586
 30
0.0
 11
2.4045138707
 21
6.6361065192
 31
0.0
  0
LINE
  5
182
330
1F
100
AcDbEntity
  8
0
  6
CONTINUOUS
 62
     7
100
AcDbLine
 10
2.3423841349
 20
6.7437183783
 30
0.0
 11
2.4045138707
 21
6.7078477586
 31
0.0
  0
LINE
  5
183
330
1F
100
AcDbEntity
  8
0
  6
CONTINUOUS
 62
     7
100
AcDbLine
 10
2.2802543991
 20
6.7078477586
 30
0.0
 11
2.3423841349
 21
6.7437183783
 31
0.0
  0
CIRCLE
  5
184
330
1F
100
AcDbEntity
  8
0
  6
CONTINUOUS
 62
     7
100
AcDbCircle
 10
2.3423841349
 20
6.6719771389
 30
0.0
 40
0.0984251968503935
  0
CIRCLE
  5
185
330
1F
100
AcDbEntity
  8
0
  6
CONTINUOUS
 62
     7
100
AcDbCircle
 10
4.3108880719
 20
6.6719771389
 30
0.0
 40
0.0884251968503937
  0
LINE
  5
186
330
1F
100
AcDbEntity
  8
0
  6
CONTINUOUS
 62
     7
100
AcDbLine
 10
4.3108880719
 20
6.7437183783
 30
0.0
 11
4.2487583361
 21
6.7078477586
 31
0.0
  0
LINE
  5
187
330
1F
100
AcDbEntity
  8
0
  6
CONTINUOUS
 62
     7
100
AcDbLine
 10
4.2487583361
 20
6.7078477586
 30
0.0
 11
4.2487583361
 21
6.6361065192
 31
0.0
  0
LINE
  5
188
330
1F
100
AcDbEntity
  8
0
  6
CONTINUOUS
 62
     7
100
AcDbLine
 10
4.2487583361
 20
6.6361065192
 30
0.0
 11
4.3108880719
 21
6.6002358995
 31
0.0
  0
LINE
  5
189
330
1F
100
AcDbEntity
  8
0
  6
CONTINUOUS
 62
     7
100
AcDbLine
 10
4.3108880719
 20
6.6002358995
 30
0.0
 11
4.3730178077
 21
6.6361065192
 31
0.0
  0
LINE
  5
18A
330
1F
100
AcDbEntity
  8
0
  6
CONTINUOUS
 62
     7
100
AcDbLine
 10
4.3730178077
 20
6.6361065192
 30
0.0
 11
4.3730178077
 21
6.7078477586
 31
0.0
  0
LINE
  5
18B
330
1F
100
AcDbEntity
  8
0
  6
CONTINUOUS
 62
     7
100
AcDbLine
 10
4.3730178077
 20
6.7078477586
 30
0.0
 11
4.3108880719
 21
6.7437183783
 31
0.0
  0
CIRCLE
  5
18C
330
1F
100
AcDbEntity
  8
0
  6
CONTINUOUS
 62
     7
100
AcDbCircle
 10
4.3108880719
 20
6.6719771389
 30
0.0
 40
0.0984251968503935
  0
SPLINE
  5
18D
330
1F
100
AcDbEntity
  8
0
  6
HIDDEN
 62
     7
100
AcDbSpline
210
0.0
220
0.0
230
1.0
 70
     8
 71
     3
 72
    23
 73
    19
 74
     0
 42
0.00000001
 43
0.00000001
 40
0.0
 40
0.0
 40
0.0
 40
0.0
 40
0.0594487783467481
 40
0.1294859345159508
 40
0.207680516680231
 40
0.2861935831169856
 40
0.3563822879866532
 40
0.4182489501747541
 40
0.4718031931255186
 40
0.5253770815074171
 40
0.5872421824255647
 40
0.6574082799835584
 40
0.7358778395210039
 40
0.8141673652676571
 40
0.8842397875854958
 40
0.9460977853123252
 40
0.9997512351340695
 40
1.0
 40
1.0
 40
1.0
 40
1.0
 10
2.245391418175937
 20
6.655619746750745
 30
0.0
 10
2.246627421302849
 20
6.649942706897048
 30
0.0
 10
2.249319571156952
 20
6.637577493831561
 30
0.0
 10
2.258387553321898
 20
6.619257253982314
 30
0.0
 10
2.272113659668362
 20
6.601768908803483
 30
0.0
 10
2.289610898279518
 20
6.587945731613883
 30
0.0
 10
2.308223119313148
 20
6.578992493217571
 30
0.0
 10
2.325841798772734
 20
6.574459630043677
 30
0.0
 10
2.342335548410219
 20
6.573134561578199
 30
0.0
 10
2.358830747716203
 20
6.574443229334249
 30
0.0
 10
2.376452755073263
 20
6.57895921805894
 30
0.0
 10
2.395070867892317
 20
6.58789003280957
 30
0.0
 10
2.41257273074155
 20
6.601699626555934
 30
0.0
 10
2.426368284005183
 20
6.619166135146205
 30
0.0
 10
2.435413919906242
 20
6.637750907196766
 30
0.0
 10
2.439666851631915
 20
6.65534663849842
 30
0.0
 10
2.441222396986763
 20
6.666678039510034
 30
0.0
 10
2.440805447747634
 20
6.67191704046072
 30
0.0
 10
2.440803523479361
 20
6.671941219047381
 30
0.0
  0
LINE
  5
18E
330
1F
100
AcDbEntity
  8
0
  6
HIDDEN
 62
     7
100
AcDbLine
 10
3.3766361034
 20
6.9231976114
 30
0.0
 11
3.3766361034
 21
6.4207566665
 31
0.0
  0
LINE
  5
18F
330
1F
100
AcDbEntity
  8
0
  6
HIDDEN
 62
     7
100
AcDbLine
 10
3.2766361034
 20
6.9231976114
 30
0.0
 11
3.2766361034
 21
6.4207566665
 31
0.0
  0
SPLINE
  5
190
330
1F
100
AcDbEntity
  8
0
  6
HIDDEN
 62
     7
100
AcDbSpline
210
0.0
220
0.0
230
1.0
 70
     8
 71
     3
 72
    24
 73
    20
 74
     0
 42
0.00000001
 43
0.00000001
 40
0.0
 40
0.0
 40
0.0
 40
0.0
 40
0.0499525924990536
 40
0.1014258406948497
 40
0.2022993364031209
 40
0.254539587130145
 40
0.3081544041235437
 40
0.3628180468678342
 40
0.4192179957966591
 40
0.4711633909897573
 40
0.5248754094026853
 40
0.6220846649868638
 40
0.7214305401691733
 40
0.7747452128105989
 40
0.829530787961294
 40
0.8839254653663849
 40
0.9401082883963792
 40
0.9910596758354159
 40
1.0
 40
1.0
 40
1.0
 40
1.0
 10
4.212462875038096
 20
6.908197611357371
 30
0.0
 10
4.212703938321357
 20
6.908096580871216
 30
0.0
 10
4.213193403330924
 20
6.907891444331123
 30
0.0
 10
4.218371048898808
 20
6.905768159270092
 30
0.0
 10
4.22820067676192
 20
6.90195111045196
 30
0.0
 10
4.242113724194217
 20
6.897369431915862
 30
0.0
 10
4.254779597603768
 20
6.893793918760226
 30
0.0
 10
4.269450480931173
 20
6.890498890371027
 30
0.0
 10
4.285332519505936
 20
6.888026393077944
 30
0.0
 10
4.301977725702725
 20
6.886690098956777
 30
0.0
 10
4.323202095957827
 20
6.886615741284341
 30
0.0
 10
4.348885629344537
 20
6.88944079237288
 30
0.0
 10
4.371040503393577
 20
6.894763399966092
 30
0.0
 10
4.386086931241088
 20
6.899426653528021
 30
0.0
 10
4.395790993577731
 20
6.902844375582945
 30
0.0
 10
4.403314575533304
 20
6.905740402822893
 30
0.0
 10
4.407733966785961
 20
6.907538343070192
 30
0.0
 10
4.409593094432816
 20
6.908313782161909
 30
0.0
 10
4.40918141773242
 20
6.908142851516959
 30
0.0
 10
4.409119964769164
 20
6.90811733587657
 30
0.0
  0
SPLINE
  5
191
330
1F
100
AcDbEntity
  8
0
  6
HIDDEN
 62
     7
100
AcDbSpline
210
0.0
220
0.0
230
1.0
 70
     8
 71
     3
 72
    24
 73
    20
 74
     0
 42
0.00000001
 43
0.00000001
 40
0.0
 40
0.0
 40
0.0
 40
0.0
 40
0.0499525924990536
 40
0.1014258406948498
 40
0.2022993364031209
 40
0.2545395871301451
 40
0.3081544041235438
 40
0.3628180468678343
 40
0.4192179957966591
 40
0.4711633909897573
 40
0.5248754094026853
 40
0.6220846649868638
 40
0.7214305401691733
 40
0.7747452128105989
 40
0.829530787961294
 40
0.8839254653663849
 40
0.9401082883963792
 40
0.9910596758354159
 40
1.0
 40
1.0
 40
1.0
 40
1.0
 10
2.243958938030222
 20
6.908197611357371
 30
0.0
 10
2.244200001313483
 20
6.908096580871216
 30
0.0
 10
2.24468946632305
 20
6.907891444331122
 30
0.0
 10
2.249867111890934
 20
6.905768159270092
 30
0.0
 10
2.259696739754045
 20
6.90195111045196
 30
0.0
 10
2.273609787186344
 20
6.897369431915862
 30
0.0
 10
2.286275660595894
 20
6.893793918760226
 30
0.0
 10
2.300946543923299
 20
6.890498890371027
 30
0.0
 10
2.316828582498062
 20
6.888026393077944
 30
0.0
 10
2.33347378869485
 20
6.886690098956777
 30
0.0
 10
2.354698158949954
 20
6.886615741284341
 30
0.0
 10
2.380381692336663
 20
6.88944079237288
 30
0.0
 10
2.402536566385704
 20
6.894763399966092
 30
0.0
 10
2.417582994233213
 20
6.899426653528021
 30
0.0
 10
2.427287056569857
 20
6.902844375582945
 30
0.0
 10
2.434810638525429
 20
6.905740402822893
 30
0.0
 10
2.439230029778087
 20
6.907538343070192
 30
0.0
 10
2.441089157424942
 20
6.908313782161909
 30
0.0
 10
2.440677480724546
 20
6.908142851516959
 30
0.0
 10
2.440616027761289
 20
6.90811733587657
 30
0.0
  0
LINE
  5
192
330
1F
100
AcDbEntity
  8
0
  6
HIDDEN
 62
     7
100
AcDbLine
 10
4.4093132687
 20
7.6462291074
 30
0.0
 11
4.212462875
 21
7.6462291074
 31
0.0
  0
LINE
  5
193
330
1F
100
AcDbEntity
  8
0
  6
HIDDEN
 62
     7
100
AcDbLine
 10
4.212462875
 20
6.9181976114
 30
0.0
 11
4.4093132687
 21
6.9181976114
 31
0.0
  0
LINE
  5
194
330
1F
100
AcDbEntity
  8
0
  6
HIDDEN
 62
     7
100
AcDbLine
 10
4.3993132687
 20
6.9081976114
 30
0.0
 11
4.222462875
 21
6.9081976114
 31
0.0
  0
LINE
  5
195
330
1F
100
AcDbEntity
  8
0
  6
HIDDEN
 62
     7
100
AcDbLine
 10
4.3108880719
 20
7.6062291074
 30
0.0
 11
4.3108880719
 21
7.6562291074
 31
0.0
  0
LINE
  5
196
330
1F
100
AcDbEntity
  8
0
  6
HIDDEN
 62
     7
100
AcDbLine
 10
4.2487583361
 20
7.6062291074
 30
0.0
 11
4.3108880719
 21
7.6062291074
 31
0.0
  0
LINE
  5
197
330
1F
100
AcDbEntity
  8
0
  6
HIDDEN
 62
     7
100
AcDbLine
 10
4.3108880719
 20
7.6062291074
 30
0.0
 11
4.3730178077
 21
7.6062291074
 31
0.0
  0
LINE
  5
198
330
1F
100
AcDbEntity
  8
0
  6
HIDDEN
 62
     7
100
AcDbLine
 10
4.3730178077
 20
7.6062291074
 30
0.0
 11
4.3730178077
 21
7.6562291074
 31
0.0
  0
LINE
  5
199
330
1F
100
AcDbEntity
  8
0
  6
HIDDEN
 62
     7
100
AcDbLine
 10
4.2487583361
 20
7.6062291074
 30
0.0
 11
4.2487583361
 21
7.6562291074
 31
0.0
  0
LINE
  5
19A
330
1F
100
AcDbEntity
  8
0
  6
HIDDEN
 62
     7
100
AcDbLine
 10
2.243958938
 20
7.6462291074
 30
0.0
 11
2.4408093317
 21
7.6462291074
 31
0.0
  0
LINE
  5
19B
330
1F
100
AcDbEntity
  8
0
  6
HIDDEN
 62
     7
100
AcDbLine
 10
2.4408093317
 20
6.9181976114
 30
0.0
 11
2.243958938
 21
6.9181976114
 31
0.0
  0
LINE
  5
19C
330
1F
100
AcDbEntity
  8
0
  6
HIDDEN
 62
     7
100
AcDbLine
 10
2.253958938
 20
6.9081976114
 30
0.0
 11
2.4308093317
 21
6.9081976114
 31
0.0
  0
LINE
  5
19D
330
1F
100
AcDbEntity
  8
0
  6
HIDDEN
 62
     7
100
AcDbLine
 10
2.3423841349
 20
7.6062291074
 30
0.0
 11
2.3423841349
 21
7.6562291074
 31
0.0
  0
LINE
  5
19E
330
1F
100
AcDbEntity
  8
0
  6
HIDDEN
 62
     7
100
AcDbLine
 10
2.3423841349
 20
7.6062291074
 30
0.0
 11
2.2802543991
 21
7.6062291074
 31
0.0
  0
LINE
  5
19F
330
1F
100
AcDbEntity
  8
0
  6
HIDDEN
 62
     7
100
AcDbLine
 10
2.4045138707
 20
7.6062291074
 30
0.0
 11
2.3423841349
 21
7.6062291074
 31
0.0
  0
LINE
  5
1A0
330
1F
100
AcDbEntity
  8
0
  6
HIDDEN
 62
     7
100
AcDbLine
 10
2.2802543991
 20
7.6062291074
 30
0.0
 11
2.2802543991
 21
7.6562291074
 31
0.0
  0
LINE
  5
1A1
330
1F
100
AcDbEntity
  8
0
  6
HIDDEN
 62
     7
100
AcDbLine
 10
2.4045138707
 20
7.6062291074
 30
0.0
 11
2.4045138707
 21
7.6562291074
 31
0.0
  0
LINE
  5
1A2
330
1F
100
AcDbEntity
  8
0
  6
HIDDEN
 62
     7
100
AcDbLine
 10
4.7242738987
 20
6.9231976114
 30
0.0
 11
4.7092738987
 21
6.9081976114
 31
0.0
  0
LINE
  5
1A3
330
1F
100
AcDbEntity
  8
0
  6
HIDDEN
 62
     7
100
AcDbLine
 10
4.7092738987
 20
6.4357566665
 30
0.0
 11
4.7242738987
 21
6.4207566665
 31
0.0
  0
LINE
  5
1A4
330
1F
100
AcDbEntity
  8
0
  6
HIDDEN
 62
     7
100
AcDbLine
 10
3.3766361034
 20
6.9231976114
 30
0.0
 11
3.2766361034
 21
6.9231976114
 31
0.0
  0
LINE
  5
1A5
330
1F
100
AcDbEntity
  8
0
  6
HIDDEN
 62
     7
100
AcDbLine
 10
3.2766361034
 20
6.4207566665
 30
0.0
 11
3.3766361034
 21
6.4207566665
 31
0.0
  0
LINE
  5
1A6
330
1F
100
AcDbEntity
  8
0
  6
HIDDEN
 62
     7
100
AcDbLine
 10
1.9289983081
 20
6.4207566665
 30
0.0
 11
1.9439983081
 21
6.4357566665
 31
0.0
  0
LINE
  5
1A7
330
1F
100
AcDbEntity
  8
0
  6
HIDDEN
 62
     7
100
AcDbLine
 10
1.9439983081
 20
6.9081976114
 30
0.0
 11
1.9289983081
 21
6.9231976114
 31
0.0
  0
LINE
  5
1A8
330
1F
100
AcDbEntity
  8
0
  6
HIDDEN
 62
     7
100
AcDbLine
 10
4.212462875
 20
6.9081976114
 30
0.0
 11
3.3766361034
 21
6.9081976114
 31
0.0
  0
LINE
  5
1A9
330
1F
100
AcDbEntity
  8
0
  6
HIDDEN
 62
     7
100
AcDbLine
 10
4.7092738987
 20
6.9081976114
 30
0.0
 11
4.4091199648
 21
6.9081976114
 31
0.0
  0
LINE
  5
1AA
330
1F
100
AcDbEntity
  8
0
  6
HIDDEN
 62
     7
100
AcDbLine
 10
3.3766361034
 20
6.4357566665
 30
0.0
 11
4.7092738987
 21
6.4357566665
 31
0.0
  0
LINE
  5
1AB
330
1F
100
AcDbEntity
  8
0
  6
HIDDEN
 62
     7
100
AcDbLine
 10
2.243958938
 20
6.9081976114
 30
0.0
 11
1.9439983081
 21
6.9081976114
 31
0.0
  0
LINE
  5
1AC
330
1F
100
AcDbEntity
  8
0
  6
HIDDEN
 62
     7
100
AcDbLine
 10
3.2766361034
 20
6.9081976114
 30
0.0
 11
2.4406160278
 21
6.9081976114
 31
0.0
  0
LINE
  5
1AD
330
1F
100
AcDbEntity
  8
0
  6
HIDDEN
 62
     7
100
AcDbLine
 10
1.9439983081
 20
6.4357566665
 30
0.0
 11
3.2766361034
 21
6.4357566665
 31
0.0
  0
LINE
  5
1AE
330
1F
100
AcDbEntity
  8
0
  6
HIDDEN
 62
     7
100
AcDbLine
 10
4.4093132687
 20
6.9081175376
 30
0.0
 11
4.4093132687
 21
7.6562291074
 31
0.0
  0
LINE
  5
1AF
330
1F
100
AcDbEntity
  8
0
  6
HIDDEN
 62
     7
100
AcDbLine
 10
4.212462875
 20
7.6562291074
 30
0.0
 11
4.212462875
 21
6.9081976114
 31
0.0
  0
LINE
  5
1B0
330
1F
100
AcDbEntity
  8
0
  6
HIDDEN
 62
     7
100
AcDbLine
 10
2.4408093317
 20
6.9081175376
 30
0.0
 11
2.4408093317
 21
7.6562291074
 31
0.0
  0
LINE
  5
1B1
330
1F
100
AcDbEntity
  8
0
  6
HIDDEN
 62
     7
100
AcDbLine
 10
2.243958938
 20
7.6562291074
 30
0.0
 11
2.243958938
 21
6.9081976114
 31
0.0
  0
LINE
  5
1B2
330
1F
100
AcDbEntity
  8
0
  6
HIDDEN
 62
     7
100
AcDbLine
 10
4.4093132687
 20
7.6462291074
 30
0.0
 11
4.3993132687
 21
7.6562291074
 31
0.0
  0
LINE
  5
1B3
330
1F
100
AcDbEntity
  8
0
  6
HIDDEN
 62
     7
100
AcDbLine
 10
4.222462875
 20
7.6562291074
 30
0.0
 11
4.212462875
 21
7.6462291074
 31
0.0
  0
LINE
  5
1B4
330
1F
100
AcDbEntity
  8
0
  6
HIDDEN
 62
     7
100
AcDbLine
 10
4.4093132687
 20
6.9181976114
 30
0.0
 11
4.4093132687
 21
7.6462291074
 31
0.0
  0
LINE
  5
1B5
330
1F
100
AcDbEntity
  8
0
  6
HIDDEN
 62
     7
100
AcDbLine
 10
4.212462875
 20
7.6462291074
 30
0.0
 11
4.212462875
 21
6.9181976114
 31
0.0
  0
LINE
  5
1B6
330
1F
100
AcDbEntity
  8
0
  6
HIDDEN
 62
     7
100
AcDbLine
 10
4.212462875
 20
6.9181976114
 30
0.0
 11
4.222462875
 21
6.9081976114
 31
0.0
  0
LINE
  5
1B7
330
1F
100
AcDbEntity
  8
0
  6
HIDDEN
 62
     7
100
AcDbLine
 10
4.3993132687
 20
6.9081976114
 30
0.0
 11
4.4093132687
 21
6.9181976114
 31
0.0
  0
LINE
  5
1B8
330
1F
100
AcDbEntity
  8
0
  6
HIDDEN
 62
     7
100
AcDbLine
 10
2.4408093317
 20
7.6462291074
 30
0.0
 11
2.4308093317
 21
7.6562291074
 31
0.0
  0
LINE
  5
1B9
330
1F
100
AcDbEntity
  8
0
  6
HIDDEN
 62
     7
100
AcDbLine
 10
2.253958938
 20
7.6562291074
 30
0.0
 11
2.243958938
 21
7.6462291074
 31
0.0
  0
LINE
  5
1BA
330
1F
100
AcDbEntity
  8
0
  6
HIDDEN
 62
     7
100
AcDbLine
 10
2.4408093317
 20
6.9181976114
 30
0.0
 11
2.4408093317
 21
7.6462291074
 31
0.0
  0
LINE
  5
1BB
330
1F
100
AcDbEntity
  8
0
  6
HIDDEN
 62
     7
100
AcDbLine
 10
2.243958938
 20
7.6462291074
 30
0.0
 11
2.243958938
 21
6.9181976114
 31
0.0
  0
LINE
  5
1BC
330
1F
100
AcDbEntity
  8
0
  6
HIDDEN
 62
     7
100
AcDbLine
 10
2.243958938
 20
6.9181976114
 30
0.0
 11
2.253958938
 21
6.9081976114
 31
0.0
  0
LINE
  5
1BD
330
1F
100
AcDbEntity
  8
0
  6
HIDDEN
 62
     7
100
AcDbLine
 10
2.4308093317
 20
6.9081976114
 30
0.0
 11
2.4408093317
 21
6.9181976114
 31
0.0
  0
LINE
  5
1BE
330
1F
100
AcDbEntity
  8
0
  6
CONTINUOUS
 62
     7
100
AcDbLine
 10
9.1513260649
 20
5.4828246686
 30
0.0
 11
9.1619309427
 21
5.4889487246
 31
0.0
  0
LINE
  5
1BF
330
1F
100
AcDbEntity
  8
0
  6
CONTINUOUS
 62
     7
100
AcDbLine
 10
9.8471841913
 20
6.6759707836
 30
0.0
 11
9.8471841913
 21
6.6882169052
 31
0.0
  0
LINE
  5
1C0
330
1F
100
AcDbEntity
  8
0
  6
CONTINUOUS
 62
     7
100
AcDbLine
 10
6.7037818376
 20
6.5628276738
 30
0.0
 11
8.6591269595
 21
5.434030962
 31
0.0
  0
LINE
  5
1C1
330
1F
100
AcDbEntity
  8
0
  6
CONTINUOUS
 62
     7
100
AcDbLine
 10
9.6432989404
 20
7.1388515573
 30
0.0
 11
7.6879538185
 21
8.267648269
 31
0.0
  0
LINE
  5
1C2
330
1F
100
AcDbEntity
  8
0
  6
CONTINUOUS
 62
     7
100
AcDbLine
 10
7.1957547131
 20
8.2188545624
 30
0.0
 11
7.1851498353
 21
8.2127305064
 31
0.0
  0
LINE
  5
1C3
330
1F
100
AcDbEntity
  8
0
  6
CONTINUOUS
 62
     7
100
AcDbLine
 10
6.4998965867
 20
7.0257084475
 30
0.0
 11
6.4998965867
 21
7.0134623258
 31
0.0
  0
LINE
  5
1C4
330
1F
100
AcDbEntity
  8
0
  6
CONTINUOUS
 62
     7
100
AcDbLine
 10
7.5471775805
 20
8.0883027896
 30
0.0
 11
7.5401053638
 21
8.0923868205
 31
0.0
  0
LINE
  5
1C5
330
1F
100
AcDbEntity
  8
0
  6
CONTINUOUS
 62
     7
100
AcDbLine
 10
7.4150329316
 20
8.0923868205
 30
0.0
 11
7.4079607148
 21
8.0883027896
 31
0.0
  0
LINE
  5
1C6
330
1F
100
AcDbEntity
  8
0
  6
CONTINUOUS
 62
     7
100
AcDbLine
 10
7.5759943445
 20
8.0394862034
 30
0.0
 11
7.5759943445
 21
8.0481317545
 31
0.0
  0
LINE
  5
1C7
330
1F
100
AcDbEntity
  8
0
  6
CONTINUOUS
 62
     7
100
AcDbLine
 10
7.3791439508
 20
8.0481317545
 30
0.0
 11
7.3791439508
 21
8.0389338808
 31
0.0
  0
LINE
  5
1C8
330
1F
100
AcDbEntity
  8
0
  6
CONTINUOUS
 62
     7
100
AcDbLine
 10
8.9391200632
 20
7.2847514984
 30
0.0
 11
8.9320478464
 21
7.2888355294
 31
0.0
  0
LINE
  5
1C9
330
1F
100
AcDbEntity
  8
0
  6
CONTINUOUS
 62
     7
100
AcDbLine
 10
8.8069754142
 20
7.2888355294
 30
0.0
 11
8.7999031975
 21
7.2847514984
 31
0.0
  0
LINE
  5
1CA
330
1F
100
AcDbEntity
  8
0
  6
CONTINUOUS
 62
     7
100
AcDbLine
 10
8.9679368272
 20
7.2359349123
 30
0.0
 11
8.9679368272
 21
7.2445804633
 31
0.0
  0
LINE
  5
1CB
330
1F
100
AcDbEntity
  8
0
  6
CONTINUOUS
 62
     7
100
AcDbLine
 10
8.7710864335
 20
7.2445804633
 30
0.0
 11
8.7710864335
 21
7.2353825896
 31
0.0
  0
POLYLINE
  5
1CC
330
1F
100
AcDbEntity
  8
0
  6
CONTINUOUS
 62
     7
100
AcDb2dPolyline
 66
     1
 10
0.0
 20
0.0
 30
0.0
  0
VERTEX
  5
250
330
1CC
100
AcDbEntity
  8
0
  6
CONTINUOUS
 62
     7
100
AcDbVertex
100
AcDb2dVertex
 10
9.8471841913
 20
6.6759707836
 30
0.0
  0
VERTEX
  5
251
330
1CC
100
AcDbEntity
  8
0
  6
CONTINUOUS
 62
     7
100
AcDbVertex
100
AcDb2dVertex
 10
9.8462290742
 20
6.7171875992
 30
0.0
  0
VERTEX
  5
252
330
1CC
100
AcDbEntity
  8
0
  6
CONTINUOUS
 62
     7
100
AcDbVertex
100
AcDb2dVertex
 10
9.843366385
 20
6.7571867814
 30
0.0
  0
VERTEX
  5
253
330
1CC
100
AcDbEntity
  8
0
  6
CONTINUOUS
 62
     7
100
AcDbVertex
100
AcDb2dVertex
 10
9.8386041026
 20
6.7958568453
 30
0.0
  0
VERTEX
  5
254
330
1CC
100
AcDbEntity
  8
0
  6
CONTINUOUS
 62
     7
100
AcDbVertex
100
AcDb2dVertex
 10
9.8319555002
 20
6.8330900106
 30
0.0
  0
VERTEX
  5
255
330
1CC
100
AcDbEntity
  8
0
  6
CONTINUOUS
 62
     7
100
AcDbVertex
100
AcDb2dVertex
 10
9.8234391087
 20
6.8687825017
 30
0.0
  0
VERTEX
  5
256
330
1CC
100
AcDbEntity
  8
0
  6
CONTINUOUS
 62
     7
100
AcDbVertex
100
AcDb2dVertex
 10
9.8130786649
 20
6.9028348373
 30
0.0
  0
VERTEX
  5
257
330
1CC
100
AcDbEntity
  8
0
  6
CONTINUOUS
 62
     7
100
AcDbVertex
100
AcDb2dVertex
 10
9.8009030451
 20
6.9351521073
 30
0.0
  0
VERTEX
  5
258
330
1CC
100
AcDbEntity
  8
0
  6
CONTINUOUS
 62
     7
100
AcDbVertex
100
AcDb2dVertex
 10
9.786946185
 20
6.9656442378
 30
0.0
  0
VERTEX
  5
259
330
1CC
100
AcDbEntity
  8
0
  6
CONTINUOUS
 62
     7
100
AcDbVertex
100
AcDb2dVertex
 10
9.7712469849
 20
6.9942262416
 30
0.0
  0
VERTEX
  5
25A
330
1CC
100
AcDbEntity
  8
0
  6
CONTINUOUS
 62
     7
100
AcDbVertex
100
AcDb2dVertex
 10
9.7538492012
 20
7.0208184558
 30
0.0
  0
VERTEX
  5
25B
330
1CC
100
AcDbEntity
  8
0
  6
CONTINUOUS
 62
     7
100
AcDbVertex
100
AcDb2dVertex
 10
9.7348013246
 20
7.0453467629
 30
0.0
  0
VERTEX
  5
25C
330
1CC
100
AcDbEntity
  8
0
  6
CONTINUOUS
 62
     7
100
AcDbVertex
100
AcDb2dVertex
 10
9.7141564451
 20
7.0677427981
 30
0.0
  0
VERTEX
  5
25D
330
1CC
100
AcDbEntity
  8
0
  6
CONTINUOUS
 62
     7
100
AcDbVertex
100
AcDb2dVertex
 10
9.6919721036
 20
7.0879441398
 30
0.0
  0
VERTEX
  5
25E
330
1CC
100
AcDbEntity
  8
0
  6
CONTINUOUS
 62
     7
100
AcDbVertex
100
AcDb2dVertex
 10
9.6683101319
 20
7.1058944831
 30
0.0
  0
VERTEX
  5
25F
330
1CC
100
AcDbEntity
  8
0
  6
CONTINUOUS
 62
     7
100
AcDbVertex
100
AcDb2dVertex
 10
9.6432364801
 20
7.1215437973
 30
0.0
  0
VERTEX
  5
260
330
1CC
100
AcDbEntity
  8
0
  6
CONTINUOUS
 62
     7
100
AcDbVertex
100
AcDb2dVertex
 10
9.6168210329
 20
7.1348484648
 30
0.0
  0
VERTEX
  5
261
330
1CC
100
AcDbEntity
  8
0
  6
CONTINUOUS
 62
     7
100
AcDbVertex
100
AcDb2dVertex
 10
9.589137415
 20
7.1457714032
 30
0.0
  0
VERTEX
  5
262
330
1CC
100
AcDbEntity
  8
0
  6
CONTINUOUS
 62
     7
100
AcDbVertex
100
AcDb2dVertex
 10
9.5602627856
 20
7.1542821683
 30
0.0
  0
VERTEX
  5
263
330
1CC
100
AcDbEntity
  8
0
  6
CONTINUOUS
 62
     7
100
AcDbVertex
100
AcDb2dVertex
 10
9.5302776234
 20
7.1603570391
 30
0.0
  0
VERTEX
  5
264
330
1CC
100
AcDbEntity
  8
0
  6
CONTINUOUS
 62
     7
100
AcDbVertex
100
AcDb2dVertex
 10
9.4992655025
 20
7.1639790838
 30
0.0
  0
VERTEX
  5
265
330
1CC
100
AcDbEntity
  8
0
  6
CONTINUOUS
 62
     7
100
AcDbVertex
100
AcDb2dVertex
 10
9.4673128592
 20
7.1651382071
 30
0.0
  0
VERTEX
  5
266
330
1CC
100
AcDbEntity
  8
0
  6
CONTINUOUS
 62
     7
100
AcDbVertex
100
AcDb2dVertex
 10
9.4345087513
 20
7.1638311783
 30
0.0
  0
VERTEX
  5
267
330
1CC
100
AcDbEntity
  8
0
  6
CONTINUOUS
 62
     7
100
AcDbVertex
100
AcDb2dVertex
 10
9.4009446097
 20
7.1600616404
 30
0.0
  0
VERTEX
  5
268
330
1CC
100
AcDbEntity
  8
0
  6
CONTINUOUS
 62
     7
100
AcDbVertex
100
AcDb2dVertex
 10
9.3667139836
 20
7.1538400998
 30
0.0
  0
VERTEX
  5
269
330
1CC
100
AcDbEntity
  8
0
  6
CONTINUOUS
 62
     7
100
AcDbVertex
100
AcDb2dVertex
 10
9.33191228
 20
7.1451838969
 30
0.0
  0
VERTEX
  5
26A
330
1CC
100
AcDbEntity
  8
0
  6
CONTINUOUS
 62
     7
100
AcDbVertex
100
AcDb2dVertex
 10
9.2966364975
 20
7.1341171582
 30
0.0
  0
VERTEX
  5
26B
330
1CC
100
AcDbEntity
  8
0
  6
CONTINUOUS
 62
     7
100
AcDbVertex
100
AcDb2dVertex
 10
9.2609849559
 20
7.1206707287
 30
0.0
  0
VERTEX
  5
26C
330
1CC
100
AcDbEntity
  8
0
  6
CONTINUOUS
 62
     7
100
AcDbVertex
100
AcDb2dVertex
 10
9.2250570226
 20
7.104882086
 30
0.0
  0
VERTEX
  5
26D
330
1CC
100
AcDbEntity
  8
0
  6
CONTINUOUS
 62
     7
100
AcDbVertex
100
AcDb2dVertex
 10
9.1889528351
 20
7.0867952358
 30
0.0
  0
VERTEX
  5
26E
330
1CC
100
AcDbEntity
  8
0
  6
CONTINUOUS
 62
     7
100
AcDbVertex
100
AcDb2dVertex
 10
9.1527730223
 20
7.0664605895
 30
0.0
  0
VERTEX
  5
26F
330
1CC
100
AcDbEntity
  8
0
  6
CONTINUOUS
 62
     7
100
AcDbVertex
100
AcDb2dVertex
 10
9.1166184238
 20
7.0439348233
 30
0.0
  0
VERTEX
  5
270
330
1CC
100
AcDbEntity
  8
0
  6
CONTINUOUS
 62
     7
100
AcDbVertex
100
AcDb2dVertex
 10
9.0805898089
 20
7.0192807206
 30
0.0
  0
VERTEX
  5
271
330
1CC
100
AcDbEntity
  8
0
  6
CONTINUOUS
 62
     7
100
AcDbVertex
100
AcDb2dVertex
 10
9.0447875959
 20
6.9925669969
 30
0.0
  0
VERTEX
  5
272
330
1CC
100
AcDbEntity
  8
0
  6
CONTINUOUS
 62
     7
100
AcDbVertex
100
AcDb2dVertex
 10
9.009311572
 20
6.9638681079
 30
0.0
  0
VERTEX
  5
273
330
1CC
100
AcDbEntity
  8
0
  6
CONTINUOUS
 62
     7
100
AcDbVertex
100
AcDb2dVertex
 10
8.9742606151
 20
6.9332640428
 30
0.0
  0
VERTEX
  5
274
330
1CC
100
AcDbEntity
  8
0
  6
CONTINUOUS
 62
     7
100
AcDbVertex
100
AcDb2dVertex
 10
8.9397324187
 20
6.9008401006
 30
0.0
  0
VERTEX
  5
275
330
1CC
100
AcDbEntity
  8
0
  6
CONTINUOUS
 62
     7
100
AcDbVertex
100
AcDb2dVertex
 10
8.9058232189
 20
6.8666866525
 30
0.0
  0
VERTEX
  5
276
330
1CC
100
AcDbEntity
  8
0
  6
CONTINUOUS
 62
     7
100
AcDbVertex
100
AcDb2dVertex
 10
8.8726275268
 20
6.8308988903
 30
0.0
  0
VERTEX
  5
277
330
1CC
100
AcDbEntity
  8
0
  6
CONTINUOUS
 62
     7
100
AcDbVertex
100
AcDb2dVertex
 10
8.8402378647
 20
6.793576561
 30
0.0
  0
VERTEX
  5
278
330
1CC
100
AcDbEntity
  8
0
  6
CONTINUOUS
 62
     7
100
AcDbVertex
100
AcDb2dVertex
 10
8.8087445085
 20
6.7548236886
 30
0.0
  0
VERTEX
  5
279
330
1CC
100
AcDbEntity
  8
0
  6
CONTINUOUS
 62
     7
100
AcDbVertex
100
AcDb2dVertex
 10
8.7782352358
 20
6.7147482843
 30
0.0
  0
VERTEX
  5
27A
330
1CC
100
AcDbEntity
  8
0
  6
CONTINUOUS
 62
     7
100
AcDbVertex
100
AcDb2dVertex
 10
8.7487950813
 20
6.6734620454
 30
0.0
  0
VERTEX
  5
27B
330
1CC
100
AcDbEntity
  8
0
  6
CONTINUOUS
 62
     7
100
AcDbVertex
100
AcDb2dVertex
 10
8.7205061001
 20
6.6310800441
 30
0.0
  0
VERTEX
  5
27C
330
1CC
100
AcDbEntity
  8
0
  6
CONTINUOUS
 62
     7
100
AcDbVertex
100
AcDb2dVertex
 10
8.6934471387
 20
6.5877204066
 30
0.0
  0
VERTEX
  5
27D
330
1CC
100
AcDbEntity
  8
0
  6
CONTINUOUS
 62
     7
100
AcDbVertex
100
AcDb2dVertex
 10
8.6676936152
 20
6.543503984
 30
0.0
  0
VERTEX
  5
27E
330
1CC
100
AcDbEntity
  8
0
  6
CONTINUOUS
 62
     7
100
AcDbVertex
100
AcDb2dVertex
 10
8.6433173093
 20
6.4985540155
 30
0.0
  0
VERTEX
  5
27F
330
1CC
100
AcDbEntity
  8
0
  6
CONTINUOUS
 62
     7
100
AcDbVertex
100
AcDb2dVertex
 10
8.6203861621
 20
6.4529957846
 30
0.0
  0
VERTEX
  5
280
330
1CC
100
AcDbEntity
  8
0
  6
CONTINUOUS
 62
     7
100
AcDbVertex
100
AcDb2dVertex
 10
8.5989640869
 20
6.4069562703
 30
0.0
  0
VERTEX
  5
281
330
1CC
100
AcDbEntity
  8
0
  6
CONTINUOUS
 62
     7
100
AcDbVertex
100
AcDb2dVertex
 10
8.5791107909
 20
6.3605637929
 30
0.0
  0
VERTEX
  5
282
330
1CC
100
AcDbEntity
  8
0
  6
CONTINUOUS
 62
     7
100
AcDbVertex
100
AcDb2dVertex
 10
8.5608816086
 20
6.3139476567
 30
0.0
  0
VERTEX
  5
283
330
1CC
100
AcDbEntity
  8
0
  6
CONTINUOUS
 62
     7
100
AcDbVertex
100
AcDb2dVertex
 10
8.5443273482
 20
6.2672377892
 30
0.0
  0
VERTEX
  5
284
330
1CC
100
AcDbEntity
  8
0
  6
CONTINUOUS
 62
     7
100
AcDbVertex
100
AcDb2dVertex
 10
8.5294941494
 20
6.2205643791
 30
0.0
  0
VERTEX
  5
285
330
1CC
100
AcDbEntity
  8
0
  6
CONTINUOUS
 62
     7
100
AcDbVertex
100
AcDb2dVertex
 10
8.5164233548
 20
6.1740575137
 30
0.0
  0
VERTEX
  5
286
330
1CC
100
AcDbEntity
  8
0
  6
CONTINUOUS
 62
     7
100
AcDbVertex
100
AcDb2dVertex
 10
8.5051513952
 20
6.1278468158
 30
0.0
  0
VERTEX
  5
287
330
1CC
100
AcDbEntity
  8
0
  6
CONTINUOUS
 62
     7
100
AcDbVertex
100
AcDb2dVertex
 10
8.4957096875
 20
6.082061083
 30
0.0
  0
VERTEX
  5
288
330
1CC
100
AcDbEntity
  8
0
  6
CONTINUOUS
 62
     7
100
AcDbVertex
100
AcDb2dVertex
 10
8.4881245475
 20
6.0368279284
 30
0.0
  0
VERTEX
  5
289
330
1CC
100
AcDbEntity
  8
0
  6
CONTINUOUS
 62
     7
100
AcDbVertex
100
AcDb2dVertex
 10
8.4824171163
 20
5.9922734248
 30
0.0
  0
VERTEX
  5
28A
330
1CC
100
AcDbEntity
  8
0
  6
CONTINUOUS
 62
     7
100
AcDbVertex
100
AcDb2dVertex
 10
8.4786033015
 20
5.9485217536
 30
0.0
  0
VERTEX
  5
28B
330
1CC
100
AcDbEntity
  8
0
  6
CONTINUOUS
 62
     7
100
AcDbVertex
100
AcDb2dVertex
 10
8.476693733
 20
5.9056948587
 30
0.0
  0
VERTEX
  5
28C
330
1CC
100
AcDbEntity
  8
0
  6
CONTINUOUS
 62
     7
100
AcDbVertex
100
AcDb2dVertex
 10
8.476693733
 20
5.8639121062
 30
0.0
  0
VERTEX
  5
28D
330
1CC
100
AcDbEntity
  8
0
  6
CONTINUOUS
 62
     7
100
AcDbVertex
100
AcDb2dVertex
 10
8.4786033015
 20
5.8232899521
 30
0.0
  0
VERTEX
  5
28E
330
1CC
100
AcDbEntity
  8
0
  6
CONTINUOUS
 62
     7
100
AcDbVertex
100
AcDb2dVertex
 10
8.4824171163
 20
5.7839416178
 30
0.0
  0
VERTEX
  5
28F
330
1CC
100
AcDbEntity
  8
0
  6
CONTINUOUS
 62
     7
100
AcDbVertex
100
AcDb2dVertex
 10
8.4881245475
 20
5.745976774
 30
0.0
  0
VERTEX
  5
290
330
1CC
100
AcDbEntity
  8
0
  6
CONTINUOUS
 62
     7
100
AcDbVertex
100
AcDb2dVertex
 10
8.4957096875
 20
5.7095012356
 30
0.0
  0
VERTEX
  5
291
330
1CC
100
AcDbEntity
  8
0
  6
CONTINUOUS
 62
     7
100
AcDbVertex
100
AcDb2dVertex
 10
8.5051513952
 20
5.6746166665
 30
0.0
  0
VERTEX
  5
292
330
1CC
100
AcDbEntity
  8
0
  6
CONTINUOUS
 62
     7
100
AcDbVertex
100
AcDb2dVertex
 10
8.5164233548
 20
5.6414202962
 30
0.0
  0
VERTEX
  5
293
330
1CC
100
AcDbEntity
  8
0
  6
CONTINUOUS
 62
     7
100
AcDbVertex
100
AcDb2dVertex
 10
8.5294941494
 20
5.6100046489
 30
0.0
  0
VERTEX
  5
294
330
1CC
100
AcDbEntity
  8
0
  6
CONTINUOUS
 62
     7
100
AcDbVertex
100
AcDb2dVertex
 10
8.5443273482
 20
5.5804572857
 30
0.0
  0
VERTEX
  5
295
330
1CC
100
AcDbEntity
  8
0
  6
CONTINUOUS
 62
     7
100
AcDbVertex
100
AcDb2dVertex
 10
8.5608816086
 20
5.5528605604
 30
0.0
  0
VERTEX
  5
296
330
1CC
100
AcDbEntity
  8
0
  6
CONTINUOUS
 62
     7
100
AcDbVertex
100
AcDb2dVertex
 10
8.5791107909
 20
5.52729139
 30
0.0
  0
VERTEX
  5
297
330
1CC
100
AcDbEntity
  8
0
  6
CONTINUOUS
 62
     7
100
AcDbVertex
100
AcDb2dVertex
 10
8.5989640869
 20
5.5038210404
 30
0.0
  0
VERTEX
  5
298
330
1CC
100
AcDbEntity
  8
0
  6
CONTINUOUS
 62
     7
100
AcDbVertex
100
AcDb2dVertex
 10
8.6203861621
 20
5.4825149276
 30
0.0
  0
VERTEX
  5
299
330
1CC
100
AcDbEntity
  8
0
  6
CONTINUOUS
 62
     7
100
AcDbVertex
100
AcDb2dVertex
 10
8.6433173093
 20
5.4634324357
 30
0.0
  0
VERTEX
  5
29A
330
1CC
100
AcDbEntity
  8
0
  6
CONTINUOUS
 62
     7
100
AcDbVertex
100
AcDb2dVertex
 10
8.6676936152
 20
5.4466267508
 30
0.0
  0
VERTEX
  5
29B
330
1CC
100
AcDbEntity
  8
0
  6
CONTINUOUS
 62
     7
100
AcDbVertex
100
AcDb2dVertex
 10
8.6934471387
 20
5.4321447136
 30
0.0
  0
VERTEX
  5
29C
330
1CC
100
AcDbEntity
  8
0
  6
CONTINUOUS
 62
     7
100
AcDbVertex
100
AcDb2dVertex
 10
8.7205061001
 20
5.420026688
 30
0.0
  0
VERTEX
  5
29D
330
1CC
100
AcDbEntity
  8
0
  6
CONTINUOUS
 62
     7
100
AcDbVertex
100
AcDb2dVertex
 10
8.7487950813
 20
5.4103064492
 30
0.0
  0
VERTEX
  5
29E
330
1CC
100
AcDbEntity
  8
0
  6
CONTINUOUS
 62
     7
100
AcDbVertex
100
AcDb2dVertex
 10
8.7782352358
 20
5.4030110891
 30
0.0
  0
VERTEX
  5
29F
330
1CC
100
AcDbEntity
  8
0
  6
CONTINUOUS
 62
     7
100
AcDbVertex
100
AcDb2dVertex
 10
8.8087445085
 20
5.3981609413
 30
0.0
  0
VERTEX
  5
2A0
330
1CC
100
AcDbEntity
  8
0
  6
CONTINUOUS
 62
     7
100
AcDbVertex
100
AcDb2dVertex
 10
8.8402378647
 20
5.395769524
 30
0.0
  0
VERTEX
  5
2A1
330
1CC
100
AcDbEntity
  8
0
  6
CONTINUOUS
 62
     7
100
AcDbVertex
100
AcDb2dVertex
 10
8.8726275268
 20
5.3958435025
 30
0.0
  0
VERTEX
  5
2A2
330
1CC
100
AcDbEntity
  8
0
  6
CONTINUOUS
 62
     7
100
AcDbVertex
100
AcDb2dVertex
 10
8.9058232189
 20
5.3983826706
 30
0.0
  0
VERTEX
  5
2A3
330
1CC
100
AcDbEntity
  8
0
  6
CONTINUOUS
 62
     7
100
AcDbVertex
100
AcDb2dVertex
 10
8.9397324187
 20
5.4033799512
 30
0.0
  0
VERTEX
  5
2A4
330
1CC
100
AcDbEntity
  8
0
  6
CONTINUOUS
 62
     7
100
AcDbVertex
100
AcDb2dVertex
 10
8.9742606151
 20
5.410821416
 30
0.0
  0
VERTEX
  5
2A5
330
1CC
100
AcDbEntity
  8
0
  6
CONTINUOUS
 62
     7
100
AcDbVertex
100
AcDb2dVertex
 10
9.009311572
 20
5.4206863243
 30
0.0
  0
VERTEX
  5
2A6
330
1CC
100
AcDbEntity
  8
0
  6
CONTINUOUS
 62
     7
100
AcDbVertex
100
AcDb2dVertex
 10
9.0447875959
 20
5.4329471808
 30
0.0
  0
VERTEX
  5
2A7
330
1CC
100
AcDbEntity
  8
0
  6
CONTINUOUS
 62
     7
100
AcDbVertex
100
AcDb2dVertex
 10
9.0805898089
 20
5.4475698123
 30
0.0
  0
VERTEX
  5
2A8
330
1CC
100
AcDbEntity
  8
0
  6
CONTINUOUS
 62
     7
100
AcDbVertex
100
AcDb2dVertex
 10
9.1166184238
 20
5.4645134629
 30
0.0
  0
VERTEX
  5
2A9
330
1CC
100
AcDbEntity
  8
0
  6
CONTINUOUS
 62
     7
100
AcDbVertex
100
AcDb2dVertex
 10
9.1527730223
 20
5.4837309077
 30
0.0
  0
VERTEX
  5
2AA
330
1CC
100
AcDbEntity
  8
0
  6
CONTINUOUS
 62
     7
100
AcDbVertex
100
AcDb2dVertex
 10
9.1889528351
 20
5.5051685841
 30
0.0
  0
VERTEX
  5
2AB
330
1CC
100
AcDbEntity
  8
0
  6
CONTINUOUS
 62
     7
100
AcDbVertex
100
AcDb2dVertex
 10
9.2250570226
 20
5.5287667415
 30
0.0
  0
VERTEX
  5
2AC
330
1CC
100
AcDbEntity
  8
0
  6
CONTINUOUS
 62
     7
100
AcDbVertex
100
AcDb2dVertex
 10
9.2609849559
 20
5.5544596076
 30
0.0
  0
VERTEX
  5
2AD
330
1CC
100
AcDbEntity
  8
0
  6
CONTINUOUS
 62
     7
100
AcDbVertex
100
AcDb2dVertex
 10
9.2966364975
 20
5.5821755717
 30
0.0
  0
VERTEX
  5
2AE
330
1CC
100
AcDbEntity
  8
0
  6
CONTINUOUS
 62
     7
100
AcDbVertex
100
AcDb2dVertex
 10
9.33191228
 20
5.6118373846
 30
0.0
  0
VERTEX
  5
2AF
330
1CC
100
AcDbEntity
  8
0
  6
CONTINUOUS
 62
     7
100
AcDbVertex
100
AcDb2dVertex
 10
9.3667139836
 20
5.6433623735
 30
0.0
  0
VERTEX
  5
2B0
330
1CC
100
AcDbEntity
  8
0
  6
CONTINUOUS
 62
     7
100
AcDbVertex
100
AcDb2dVertex
 10
9.4009446097
 20
5.6766626724
 30
0.0
  0
VERTEX
  5
2B1
330
1CC
100
AcDbEntity
  8
0
  6
CONTINUOUS
 62
     7
100
AcDbVertex
100
AcDb2dVertex
 10
9.4345087513
 20
5.7116454676
 30
0.0
  0
VERTEX
  5
2B2
330
1CC
100
AcDbEntity
  8
0
  6
CONTINUOUS
 62
     7
100
AcDbVertex
100
AcDb2dVertex
 10
9.4673128592
 20
5.7482132557
 30
0.0
  0
VERTEX
  5
2B3
330
1CC
100
AcDbEntity
  8
0
  6
CONTINUOUS
 62
     7
100
AcDbVertex
100
AcDb2dVertex
 10
9.4992655025
 20
5.7862641157
 30
0.0
  0
VERTEX
  5
2B4
330
1CC
100
AcDbEntity
  8
0
  6
CONTINUOUS
 62
     7
100
AcDbVertex
100
AcDb2dVertex
 10
9.5302776234
 20
5.825691993
 30
0.0
  0
VERTEX
  5
2B5
330
1CC
100
AcDbEntity
  8
0
  6
CONTINUOUS
 62
     7
100
AcDbVertex
100
AcDb2dVertex
 10
9.5602627856
 20
5.8663869951
 30
0.0
  0
VERTEX
  5
2B6
330
1CC
100
AcDbEntity
  8
0
  6
CONTINUOUS
 62
     7
100
AcDbVertex
100
AcDb2dVertex
 10
9.589137415
 20
5.9082356977
 30
0.0
  0
VERTEX
  5
2B7
330
1CC
100
AcDbEntity
  8
0
  6
CONTINUOUS
 62
     7
100
AcDbVertex
100
AcDb2dVertex
 10
9.6168210329
 20
5.951121461
 30
0.0
  0
VERTEX
  5
2B8
330
1CC
100
AcDbEntity
  8
0
  6
CONTINUOUS
 62
     7
100
AcDbVertex
100
AcDb2dVertex
 10
9.6432364801
 20
5.9949247546
 30
0.0
  0
VERTEX
  5
2B9
330
1CC
100
AcDbEntity
  8
0
  6
CONTINUOUS
 62
     7
100
AcDbVertex
100
AcDb2dVertex
 10
9.6683101319
 20
6.039523491
 30
0.0
  0
VERTEX
  5
2BA
330
1CC
100
AcDbEntity
  8
0
  6
CONTINUOUS
 62
     7
100
AcDbVertex
100
AcDb2dVertex
 10
9.6919721036
 20
6.0847933654
 30
0.0
  0
VERTEX
  5
2BB
330
1CC
100
AcDbEntity
  8
0
  6
CONTINUOUS
 62
     7
100
AcDbVertex
100
AcDb2dVertex
 10
9.7141564451
 20
6.1306082025
 30
0.0
  0
VERTEX
  5
2BC
330
1CC
100
AcDbEntity
  8
0
  6
CONTINUOUS
 62
     7
100
AcDbVertex
100
AcDb2dVertex
 10
9.7348013246
 20
6.1768403083
 30
0.0
  0
VERTEX
  5
2BD
330
1CC
100
AcDbEntity
  8
0
  6
CONTINUOUS
 62
     7
100
AcDbVertex
100
AcDb2dVertex
 10
9.7538492012
 20
6.2233608255
 30
0.0
  0
VERTEX
  5
2BE
330
1CC
100
AcDbEntity
  8
0
  6
CONTINUOUS
 62
     7
100
AcDbVertex
100
AcDb2dVertex
 10
9.7712469849
 20
6.2700400932
 30
0.0
  0
VERTEX
  5
2BF
330
1CC
100
AcDbEntity
  8
0
  6
CONTINUOUS
 62
     7
100
AcDbVertex
100
AcDb2dVertex
 10
9.786946185
 20
6.3167480077
 30
0.0
  0
VERTEX
  5
2C0
330
1CC
100
AcDbEntity
  8
0
  6
CONTINUOUS
 62
     7
100
AcDbVertex
100
AcDb2dVertex
 10
9.8009030451
 20
6.3633543859
 30
0.0
  0
VERTEX
  5
2C1
330
1CC
100
AcDbEntity
  8
0
  6
CONTINUOUS
 62
     7
100
AcDbVertex
100
AcDb2dVertex
 10
9.8130786649
 20
6.4097293273
 30
0.0
  0
VERTEX
  5
2C2
330
1CC
100
AcDbEntity
  8
0
  6
CONTINUOUS
 62
     7
100
AcDbVertex
100
AcDb2dVertex
 10
9.8234391087
 20
6.4557435766
 30
0.0
  0
VERTEX
  5
2C3
330
1CC
100
AcDbEntity
  8
0
  6
CONTINUOUS
 62
     7
100
AcDbVertex
100
AcDb2dVertex
 10
9.8319555002
 20
6.501268884
 30
0.0
  0
VERTEX
  5
2C4
330
1CC
100
AcDbEntity
  8
0
  6
CONTINUOUS
 62
     7
100
AcDbVertex
100
AcDb2dVertex
 10
9.8386041026
 20
6.5461783622
 30
0.0
  0
VERTEX
  5
2C5
330
1CC
100
AcDbEntity
  8
0
  6
CONTINUOUS
 62
     7
100
AcDbVertex
100
AcDb2dVertex
 10
9.843366385
 20
6.5903468404
 30
0.0
  0
VERTEX
  5
2C6
330
1CC
100
AcDbEntity
  8
0
  6
CONTINUOUS
 62
     7
100
AcDbVertex
100
AcDb2dVertex
 10
9.8462290742
 20
6.6336512132
 30
0.0
  0
VERTEX
  5
2C7
330
1CC
100
AcDbEntity
  8
0
  6
CONTINUOUS
 62
     7
100
AcDbVertex
100
AcDb2dVertex
 10
9.8471841913
 20
6.6759707836
 30
0.0
  0
SEQEND
  5
2C8
330
1CC
100
AcDbEntity
  8
0
  6
CONTINUOUS
 62
     7
  0
POLYLINE
  5
1CD
330
1F
100
AcDbEntity
  8
0
  6
CONTINUOUS
 62
     7
100
AcDb2dPolyline
 66
     1
 10
0.0
 20
0.0
 30
0.0
  0
VERTEX
  5
2C9
330
1CD
100
AcDbEntity
  8
0
  6
CONTINUOUS
 62
     7
100
AcDbVertex
100
AcDb2dVertex
 10
9.1513260649
 20
5.4828246686
 30
0.0
  0
VERTEX
  5
2CA
330
1CD
100
AcDbEntity
  8
0
  6
CONTINUOUS
 62
     7
100
AcDbVertex
100
AcDb2dVertex
 10
9.15121295
 20
5.4827593582
 30
0.0
  0
VERTEX
  5
2CB
330
1CD
100
AcDbEntity
  8
0
  6
CONTINUOUS
 62
     7
100
AcDbVertex
100
AcDb2dVertex
 10
9.1147886295
 20
5.4628334637
 30
0.0
  0
VERTEX
  5
2CC
330
1CD
100
AcDbEntity
  8
0
  6
CONTINUOUS
 62
     7
100
AcDbVertex
100
AcDb2dVertex
 10
9.0784641456
 20
5.4451650209
 30
0.0
  0
VERTEX
  5
2CD
330
1CD
100
AcDbEntity
  8
0
  6
CONTINUOUS
 62
     7
100
AcDbVertex
100
AcDb2dVertex
 10
9.0423390611
 20
5.4298024578
 30
0.0
  0
VERTEX
  5
2CE
330
1CD
100
AcDbEntity
  8
0
  6
CONTINUOUS
 62
     7
100
AcDbVertex
100
AcDb2dVertex
 10
9.0065123924
 20
5.4167878822
 30
0.0
  0
VERTEX
  5
2CF
330
1CD
100
AcDbEntity
  8
0
  6
CONTINUOUS
 62
     7
100
AcDbVertex
100
AcDb2dVertex
 10
8.9710823379
 20
5.406156966
 30
0.0
  0
VERTEX
  5
2D0
330
1CD
100
AcDbEntity
  8
0
  6
CONTINUOUS
 62
     7
100
AcDbVertex
100
AcDb2dVertex
 10
8.9361460088
 20
5.3979388478
 30
0.0
  0
VERTEX
  5
2D1
330
1CD
100
AcDbEntity
  8
0
  6
CONTINUOUS
 62
     7
100
AcDbVertex
100
AcDb2dVertex
 10
8.9017991633
 20
5.392156053
 30
0.0
  0
VERTEX
  5
2D2
330
1CD
100
AcDbEntity
  8
0
  6
CONTINUOUS
 62
     7
100
AcDbVertex
100
AcDb2dVertex
 10
8.8681359436
 20
5.3888244318
 30
0.0
  0
VERTEX
  5
2D3
330
1CD
100
AcDbEntity
  8
0
  6
CONTINUOUS
 62
     7
100
AcDbVertex
100
AcDb2dVertex
 10
8.8352486183
 20
5.387953116
 30
0.0
  0
VERTEX
  5
2D4
330
1CD
100
AcDbEntity
  8
0
  6
CONTINUOUS
 62
     7
100
AcDbVertex
100
AcDb2dVertex
 10
8.8032273293
 20
5.3895444936
 30
0.0
  0
VERTEX
  5
2D5
330
1CD
100
AcDbEntity
  8
0
  6
CONTINUOUS
 62
     7
100
AcDbVertex
100
AcDb2dVertex
 10
8.7721598447
 20
5.393594203
 30
0.0
  0
VERTEX
  5
2D6
330
1CD
100
AcDbEntity
  8
0
  6
CONTINUOUS
 62
     7
100
AcDbVertex
100
AcDb2dVertex
 10
8.7421313183
 20
5.4000911441
 30
0.0
  0
VERTEX
  5
2D7
330
1CD
100
AcDbEntity
  8
0
  6
CONTINUOUS
 62
     7
100
AcDbVertex
100
AcDb2dVertex
 10
8.7132240562
 20
5.4090175092
 30
0.0
  0
VERTEX
  5
2D8
330
1CD
100
AcDbEntity
  8
0
  6
CONTINUOUS
 62
     7
100
AcDbVertex
100
AcDb2dVertex
 10
8.6855172912
 20
5.4203488319
 30
0.0
  0
VERTEX
  5
2D9
330
1CD
100
AcDbEntity
  8
0
  6
CONTINUOUS
 62
     7
100
AcDbVertex
100
AcDb2dVertex
 10
8.6590869657
 20
5.4340540537
 30
0.0
  0
VERTEX
  5
2DA
330
1CD
100
AcDbEntity
  8
0
  6
CONTINUOUS
 62
     7
100
AcDbVertex
100
AcDb2dVertex
 10
8.6340055233
 20
5.4500956096
 30
0.0
  0
VERTEX
  5
2DB
330
1CD
100
AcDbEntity
  8
0
  6
CONTINUOUS
 62
     7
100
AcDbVertex
100
AcDb2dVertex
 10
8.6103417105
 20
5.4684295308
 30
0.0
  0
VERTEX
  5
2DC
330
1CD
100
AcDbEntity
  8
0
  6
CONTINUOUS
 62
     7
100
AcDbVertex
100
AcDb2dVertex
 10
8.5881603881
 20
5.4890055652
 30
0.0
  0
VERTEX
  5
2DD
330
1CD
100
AcDbEntity
  8
0
  6
CONTINUOUS
 62
     7
100
AcDbVertex
100
AcDb2dVertex
 10
8.5675223537
 20
5.5117673155
 30
0.0
  0
VERTEX
  5
2DE
330
1CD
100
AcDbEntity
  8
0
  6
CONTINUOUS
 62
     7
100
AcDbVertex
100
AcDb2dVertex
 10
8.5484841747
 20
5.5366523932
 30
0.0
  0
VERTEX
  5
2DF
330
1CD
100
AcDbEntity
  8
0
  6
CONTINUOUS
 62
     7
100
AcDbVertex
100
AcDb2dVertex
 10
8.5310980333
 20
5.5635925901
 30
0.0
  0
VERTEX
  5
2E0
330
1CD
100
AcDbEntity
  8
0
  6
CONTINUOUS
 62
     7
100
AcDbVertex
100
AcDb2dVertex
 10
8.5154115838
 20
5.5925140649
 30
0.0
  0
VERTEX
  5
2E1
330
1CD
100
AcDbEntity
  8
0
  6
CONTINUOUS
 62
     7
100
AcDbVertex
100
AcDb2dVertex
 10
8.5014678217
 20
5.623337546
 30
0.0
  0
VERTEX
  5
2E2
330
1CD
100
AcDbEntity
  8
0
  6
CONTINUOUS
 62
     7
100
AcDbVertex
100
AcDb2dVertex
 10
8.4893049657
 20
5.6559785482
 30
0.0
  0
VERTEX
  5
2E3
330
1CD
100
AcDbEntity
  8
0
  6
CONTINUOUS
 62
     7
100
AcDbVertex
100
AcDb2dVertex
 10
8.4789563536
 20
5.6903476049
 30
0.0
  0
VERTEX
  5
2E4
330
1CD
100
AcDbEntity
  8
0
  6
CONTINUOUS
 62
     7
100
AcDbVertex
100
AcDb2dVertex
 10
8.4704503501
 20
5.7263505129
 30
0.0
  0
VERTEX
  5
2E5
330
1CD
100
AcDbEntity
  8
0
  6
CONTINUOUS
 62
     7
100
AcDbVertex
100
AcDb2dVertex
 10
8.4638102695
 20
5.7638885907
 30
0.0
  0
VERTEX
  5
2E6
330
1CD
100
AcDbEntity
  8
0
  6
CONTINUOUS
 62
     7
100
AcDbVertex
100
AcDb2dVertex
 10
8.4590543119
 20
5.802858949
 30
0.0
  0
VERTEX
  5
2E7
330
1CD
100
AcDbEntity
  8
0
  6
CONTINUOUS
 62
     7
100
AcDbVertex
100
AcDb2dVertex
 10
8.456195513
 20
5.8431547728
 30
0.0
  0
VERTEX
  5
2E8
330
1CD
100
AcDbEntity
  8
0
  6
CONTINUOUS
 62
     7
100
AcDbVertex
100
AcDb2dVertex
 10
8.4552417086
 20
5.8846656141
 30
0.0
  0
VERTEX
  5
2E9
330
1CD
100
AcDbEntity
  8
0
  6
CONTINUOUS
 62
     7
100
AcDbVertex
100
AcDb2dVertex
 10
8.456195513
 20
5.9272776945
 30
0.0
  0
VERTEX
  5
2EA
330
1CD
100
AcDbEntity
  8
0
  6
CONTINUOUS
 62
     7
100
AcDbVertex
100
AcDb2dVertex
 10
8.4590543119
 20
5.9708742172
 30
0.0
  0
VERTEX
  5
2EB
330
1CD
100
AcDbEntity
  8
0
  6
CONTINUOUS
 62
     7
100
AcDbVertex
100
AcDb2dVertex
 10
8.4638102695
 20
6.0153356873
 30
0.0
  0
VERTEX
  5
2EC
330
1CD
100
AcDbEntity
  8
0
  6
CONTINUOUS
 62
     7
100
AcDbVertex
100
AcDb2dVertex
 10
8.4704503501
 20
6.0605402389
 30
0.0
  0
VERTEX
  5
2ED
330
1CD
100
AcDbEntity
  8
0
  6
CONTINUOUS
 62
     7
100
AcDbVertex
100
AcDb2dVertex
 10
8.4789563536
 20
6.1063639695
 30
0.0
  0
VERTEX
  5
2EE
330
1CD
100
AcDbEntity
  8
0
  6
CONTINUOUS
 62
     7
100
AcDbVertex
100
AcDb2dVertex
 10
8.4893049657
 20
6.1526812795
 30
0.0
  0
VERTEX
  5
2EF
330
1CD
100
AcDbEntity
  8
0
  6
CONTINUOUS
 62
     7
100
AcDbVertex
100
AcDb2dVertex
 10
8.5014678217
 20
6.1993652162
 30
0.0
  0
VERTEX
  5
2F0
330
1CD
100
AcDbEntity
  8
0
  6
CONTINUOUS
 62
     7
100
AcDbVertex
100
AcDb2dVertex
 10
8.5154115838
 20
6.2462878223
 30
0.0
  0
VERTEX
  5
2F1
330
1CD
100
AcDbEntity
  8
0
  6
CONTINUOUS
 62
     7
100
AcDbVertex
100
AcDb2dVertex
 10
8.5310980333
 20
6.2933204863
 30
0.0
  0
VERTEX
  5
2F2
330
1CD
100
AcDbEntity
  8
0
  6
CONTINUOUS
 62
     7
100
AcDbVertex
100
AcDb2dVertex
 10
8.5484841747
 20
6.3403342947
 30
0.0
  0
VERTEX
  5
2F3
330
1CD
100
AcDbEntity
  8
0
  6
CONTINUOUS
 62
     7
100
AcDbVertex
100
AcDb2dVertex
 10
8.5675223537
 20
6.3872003861
 30
0.0
  0
VERTEX
  5
2F4
330
1CD
100
AcDbEntity
  8
0
  6
CONTINUOUS
 62
     7
100
AcDbVertex
100
AcDb2dVertex
 10
8.5881603881
 20
6.4337903037
 30
0.0
  0
VERTEX
  5
2F5
330
1CD
100
AcDbEntity
  8
0
  6
CONTINUOUS
 62
     7
100
AcDbVertex
100
AcDb2dVertex
 10
8.6103417105
 20
6.4799763478
 30
0.0
  0
VERTEX
  5
2F6
330
1CD
100
AcDbEntity
  8
0
  6
CONTINUOUS
 62
     7
100
AcDbVertex
100
AcDb2dVertex
 10
8.6340055233
 20
6.5256319257
 30
0.0
  0
VERTEX
  5
2F7
330
1CD
100
AcDbEntity
  8
0
  6
CONTINUOUS
 62
     7
100
AcDbVertex
100
AcDb2dVertex
 10
8.6590869657
 20
6.5706318986
 30
0.0
  0
VERTEX
  5
2F8
330
1CD
100
AcDbEntity
  8
0
  6
CONTINUOUS
 62
     7
100
AcDbVertex
100
AcDb2dVertex
 10
8.6855172912
 20
6.6148529247
 30
0.0
  0
VERTEX
  5
2F9
330
1CD
100
AcDbEntity
  8
0
  6
CONTINUOUS
 62
     7
100
AcDbVertex
100
AcDb2dVertex
 10
8.7132240562
 20
6.6581737973
 30
0.0
  0
VERTEX
  5
2FA
330
1CD
100
AcDbEntity
  8
0
  6
CONTINUOUS
 62
     7
100
AcDbVertex
100
AcDb2dVertex
 10
8.7421313183
 20
6.7004757768
 30
0.0
  0
VERTEX
  5
2FB
330
1CD
100
AcDbEntity
  8
0
  6
CONTINUOUS
 62
     7
100
AcDbVertex
100
AcDb2dVertex
 10
8.7721598447
 20
6.7416429165
 30
0.0
  0
VERTEX
  5
2FC
330
1CD
100
AcDbEntity
  8
0
  6
CONTINUOUS
 62
     7
100
AcDbVertex
100
AcDb2dVertex
 10
8.8032273293
 20
6.7815623801
 30
0.0
  0
VERTEX
  5
2FD
330
1CD
100
AcDbEntity
  8
0
  6
CONTINUOUS
 62
     7
100
AcDbVertex
100
AcDb2dVertex
 10
8.8352486183
 20
6.8201247511
 30
0.0
  0
VERTEX
  5
2FE
330
1CD
100
AcDbEntity
  8
0
  6
CONTINUOUS
 62
     7
100
AcDbVertex
100
AcDb2dVertex
 10
8.8681359436
 20
6.8572243328
 30
0.0
  0
VERTEX
  5
2FF
330
1CD
100
AcDbEntity
  8
0
  6
CONTINUOUS
 62
     7
100
AcDbVertex
100
AcDb2dVertex
 10
8.9017991633
 20
6.8927594377
 30
0.0
  0
VERTEX
  5
300
330
1CD
100
AcDbEntity
  8
0
  6
CONTINUOUS
 62
     7
100
AcDbVertex
100
AcDb2dVertex
 10
8.9361460088
 20
6.9266326667
 30
0.0
  0
VERTEX
  5
301
330
1CD
100
AcDbEntity
  8
0
  6
CONTINUOUS
 62
     7
100
AcDbVertex
100
AcDb2dVertex
 10
8.9710823379
 20
6.9587511755
 30
0.0
  0
VERTEX
  5
302
330
1CD
100
AcDbEntity
  8
0
  6
CONTINUOUS
 62
     7
100
AcDbVertex
100
AcDb2dVertex
 10
9.0065123924
 20
6.9890269295
 30
0.0
  0
VERTEX
  5
303
330
1CD
100
AcDbEntity
  8
0
  6
CONTINUOUS
 62
     7
100
AcDbVertex
100
AcDb2dVertex
 10
9.0423390611
 20
7.0173769451
 30
0.0
  0
VERTEX
  5
304
330
1CD
100
AcDbEntity
  8
0
  6
CONTINUOUS
 62
     7
100
AcDbVertex
100
AcDb2dVertex
 10
9.0784641456
 20
7.0437235168
 30
0.0
  0
VERTEX
  5
305
330
1CD
100
AcDbEntity
  8
0
  6
CONTINUOUS
 62
     7
100
AcDbVertex
100
AcDb2dVertex
 10
9.1147886295
 20
7.0679944304
 30
0.0
  0
VERTEX
  5
306
330
1CD
100
AcDbEntity
  8
0
  6
CONTINUOUS
 62
     7
100
AcDbVertex
100
AcDb2dVertex
 10
9.15121295
 20
7.0901231611
 30
0.0
  0
VERTEX
  5
307
330
1CD
100
AcDbEntity
  8
0
  6
CONTINUOUS
 62
     7
100
AcDbVertex
100
AcDb2dVertex
 10
9.1876372704
 20
7.1100490556
 30
0.0
  0
VERTEX
  5
308
330
1CD
100
AcDbEntity
  8
0
  6
CONTINUOUS
 62
     7
100
AcDbVertex
100
AcDb2dVertex
 10
9.2239617543
 20
7.1277174984
 30
0.0
  0
VERTEX
  5
309
330
1CD
100
AcDbEntity
  8
0
  6
CONTINUOUS
 62
     7
100
AcDbVertex
100
AcDb2dVertex
 10
9.2600868388
 20
7.1430800615
 30
0.0
  0
VERTEX
  5
30A
330
1CD
100
AcDbEntity
  8
0
  6
CONTINUOUS
 62
     7
100
AcDbVertex
100
AcDb2dVertex
 10
9.2959135075
 20
7.1560946371
 30
0.0
  0
VERTEX
  5
30B
330
1CD
100
AcDbEntity
  8
0
  6
CONTINUOUS
 62
     7
100
AcDbVertex
100
AcDb2dVertex
 10
9.3313435621
 20
7.1667255533
 30
0.0
  0
VERTEX
  5
30C
330
1CD
100
AcDbEntity
  8
0
  6
CONTINUOUS
 62
     7
100
AcDbVertex
100
AcDb2dVertex
 10
9.3662798911
 20
7.1749436715
 30
0.0
  0
VERTEX
  5
30D
330
1CD
100
AcDbEntity
  8
0
  6
CONTINUOUS
 62
     7
100
AcDbVertex
100
AcDb2dVertex
 10
9.4006267367
 20
7.1807264663
 30
0.0
  0
VERTEX
  5
30E
330
1CD
100
AcDbEntity
  8
0
  6
CONTINUOUS
 62
     7
100
AcDbVertex
100
AcDb2dVertex
 10
9.4342899563
 20
7.1840580875
 30
0.0
  0
VERTEX
  5
30F
330
1CD
100
AcDbEntity
  8
0
  6
CONTINUOUS
 62
     7
100
AcDbVertex
100
AcDb2dVertex
 10
9.4671772816
 20
7.1849294033
 30
0.0
  0
VERTEX
  5
310
330
1CD
100
AcDbEntity
  8
0
  6
CONTINUOUS
 62
     7
100
AcDbVertex
100
AcDb2dVertex
 10
9.4991985706
 20
7.1833380257
 30
0.0
  0
VERTEX
  5
311
330
1CD
100
AcDbEntity
  8
0
  6
CONTINUOUS
 62
     7
100
AcDbVertex
100
AcDb2dVertex
 10
9.5302660552
 20
7.1792883163
 30
0.0
  0
VERTEX
  5
312
330
1CD
100
AcDbEntity
  8
0
  6
CONTINUOUS
 62
     7
100
AcDbVertex
100
AcDb2dVertex
 10
9.5602945816
 20
7.1727913752
 30
0.0
  0
VERTEX
  5
313
330
1CD
100
AcDbEntity
  8
0
  6
CONTINUOUS
 62
     7
100
AcDbVertex
100
AcDb2dVertex
 10
9.5892018437
 20
7.1638650101
 30
0.0
  0
VERTEX
  5
314
330
1CD
100
AcDbEntity
  8
0
  6
CONTINUOUS
 62
     7
100
AcDbVertex
100
AcDb2dVertex
 10
9.6169086087
 20
7.1525336874
 30
0.0
  0
VERTEX
  5
315
330
1CD
100
AcDbEntity
  8
0
  6
CONTINUOUS
 62
     7
100
AcDbVertex
100
AcDb2dVertex
 10
9.6433389342
 20
7.1388284656
 30
0.0
  0
VERTEX
  5
316
330
1CD
100
AcDbEntity
  8
0
  6
CONTINUOUS
 62
     7
100
AcDbVertex
100
AcDb2dVertex
 10
9.6684203766
 20
7.1227869097
 30
0.0
  0
VERTEX
  5
317
330
1CD
100
AcDbEntity
  8
0
  6
CONTINUOUS
 62
     7
100
AcDbVertex
100
AcDb2dVertex
 10
9.6920841895
 20
7.1044529885
 30
0.0
  0
VERTEX
  5
318
330
1CD
100
AcDbEntity
  8
0
  6
CONTINUOUS
 62
     7
100
AcDbVertex
100
AcDb2dVertex
 10
9.7142655118
 20
7.0838769541
 30
0.0
  0
VERTEX
  5
319
330
1CD
100
AcDbEntity
  8
0
  6
CONTINUOUS
 62
     7
100
AcDbVertex
100
AcDb2dVertex
 10
9.7349035462
 20
7.0611152038
 30
0.0
  0
VERTEX
  5
31A
330
1CD
100
AcDbEntity
  8
0
  6
CONTINUOUS
 62
     7
100
AcDbVertex
100
AcDb2dVertex
 10
9.7539417253
 20
7.0362301261
 30
0.0
  0
VERTEX
  5
31B
330
1CD
100
AcDbEntity
  8
0
  6
CONTINUOUS
 62
     7
100
AcDbVertex
100
AcDb2dVertex
 10
9.7713278666
 20
7.0092899292
 30
0.0
  0
VERTEX
  5
31C
330
1CD
100
AcDbEntity
  8
0
  6
CONTINUOUS
 62
     7
100
AcDbVertex
100
AcDb2dVertex
 10
9.7870143161
 20
6.9803684544
 30
0.0
  0
VERTEX
  5
31D
330
1CD
100
AcDbEntity
  8
0
  6
CONTINUOUS
 62
     7
100
AcDbVertex
100
AcDb2dVertex
 10
9.8009580783
 20
6.9495449733
 30
0.0
  0
VERTEX
  5
31E
330
1CD
100
AcDbEntity
  8
0
  6
CONTINUOUS
 62
     7
100
AcDbVertex
100
AcDb2dVertex
 10
9.8131209342
 20
6.9169039711
 30
0.0
  0
VERTEX
  5
31F
330
1CD
100
AcDbEntity
  8
0
  6
CONTINUOUS
 62
     7
100
AcDbVertex
100
AcDb2dVertex
 10
9.8234695463
 20
6.8825349144
 30
0.0
  0
VERTEX
  5
320
330
1CD
100
AcDbEntity
  8
0
  6
CONTINUOUS
 62
     7
100
AcDbVertex
100
AcDb2dVertex
 10
9.8319755498
 20
6.8465320064
 30
0.0
  0
VERTEX
  5
321
330
1CD
100
AcDbEntity
  8
0
  6
CONTINUOUS
 62
     7
100
AcDbVertex
100
AcDb2dVertex
 10
9.8386156304
 20
6.8089939286
 30
0.0
  0
VERTEX
  5
322
330
1CD
100
AcDbEntity
  8
0
  6
CONTINUOUS
 62
     7
100
AcDbVertex
100
AcDb2dVertex
 10
9.843371588
 20
6.7700235703
 30
0.0
  0
VERTEX
  5
323
330
1CD
100
AcDbEntity
  8
0
  6
CONTINUOUS
 62
     7
100
AcDbVertex
100
AcDb2dVertex
 10
9.8462303869
 20
6.7297277465
 30
0.0
  0
VERTEX
  5
324
330
1CD
100
AcDbEntity
  8
0
  6
CONTINUOUS
 62
     7
100
AcDbVertex
100
AcDb2dVertex
 10
9.8471841913
 20
6.6882169052
 30
0.0
  0
VERTEX
  5
325
330
1CD
100
AcDbEntity
  8
0
  6
CONTINUOUS
 62
     7
100
AcDbVertex
100
AcDb2dVertex
 10
9.8471841913
 20
6.6882169052
 30
0.0
  0
SEQEND
  5
326
330
1CD
100
AcDbEntity
  8
0
  6
CONTINUOUS
 62
     7
  0
POLYLINE
  5
1CE
330
1F
100
AcDbEntity
  8
0
  6
CONTINUOUS
 62
     7
100
AcDb2dPolyline
 66
     1
 10
0.0
 20
0.0
 30
0.0
  0
VERTEX
  5
327
330
1CE
100
AcDbEntity
  8
0
  6
CONTINUOUS
 62
     7
100
AcDbVertex
100
AcDb2dVertex
 10
7.6879538185
 20
8.267648269
 30
0.0
  0
VERTEX
  5
328
330
1CE
100
AcDbEntity
  8
0
  6
CONTINUOUS
 62
     7
100
AcDbVertex
100
AcDb2dVertex
 10
7.6615634868
 20
8.2813303992
 30
0.0
  0
VERTEX
  5
329
330
1CE
100
AcDbEntity
  8
0
  6
CONTINUOUS
 62
     7
100
AcDbVertex
100
AcDb2dVertex
 10
7.6338567218
 20
8.2926617218
 30
0.0
  0
VERTEX
  5
32A
330
1CE
100
AcDbEntity
  8
0
  6
CONTINUOUS
 62
     7
100
AcDbVertex
100
AcDb2dVertex
 10
7.6049494597
 20
8.301588087
 30
0.0
  0
VERTEX
  5
32B
330
1CE
100
AcDbEntity
  8
0
  6
CONTINUOUS
 62
     7
100
AcDbVertex
100
AcDb2dVertex
 10
7.5749209333
 20
8.3080850281
 30
0.0
  0
VERTEX
  5
32C
330
1CE
100
AcDbEntity
  8
0
  6
CONTINUOUS
 62
     7
100
AcDbVertex
100
AcDb2dVertex
 10
7.5438534487
 20
8.3121347374
 30
0.0
  0
VERTEX
  5
32D
330
1CE
100
AcDbEntity
  8
0
  6
CONTINUOUS
 62
     7
100
AcDbVertex
100
AcDb2dVertex
 10
7.5118321597
 20
8.3137261151
 30
0.0
  0
VERTEX
  5
32E
330
1CE
100
AcDbEntity
  8
0
  6
CONTINUOUS
 62
     7
100
AcDbVertex
100
AcDb2dVertex
 10
7.4789448344
 20
8.3128547992
 30
0.0
  0
VERTEX
  5
32F
330
1CE
100
AcDbEntity
  8
0
  6
CONTINUOUS
 62
     7
100
AcDbVertex
100
AcDb2dVertex
 10
7.4452816147
 20
8.309523178
 30
0.0
  0
VERTEX
  5
330
330
1CE
100
AcDbEntity
  8
0
  6
CONTINUOUS
 62
     7
100
AcDbVertex
100
AcDb2dVertex
 10
7.4109347692
 20
8.3037403832
 30
0.0
  0
VERTEX
  5
331
330
1CE
100
AcDbEntity
  8
0
  6
CONTINUOUS
 62
     7
100
AcDbVertex
100
AcDb2dVertex
 10
7.3759984401
 20
8.2955222651
 30
0.0
  0
VERTEX
  5
332
330
1CE
100
AcDbEntity
  8
0
  6
CONTINUOUS
 62
     7
100
AcDbVertex
100
AcDb2dVertex
 10
7.3405683856
 20
8.2848913489
 30
0.0
  0
VERTEX
  5
333
330
1CE
100
AcDbEntity
  8
0
  6
CONTINUOUS
 62
     7
100
AcDbVertex
100
AcDb2dVertex
 10
7.3047417169
 20
8.2718767732
 30
0.0
  0
VERTEX
  5
334
330
1CE
100
AcDbEntity
  8
0
  6
CONTINUOUS
 62
     7
100
AcDbVertex
100
AcDb2dVertex
 10
7.2686166324
 20
8.2565142101
 30
0.0
  0
VERTEX
  5
335
330
1CE
100
AcDbEntity
  8
0
  6
CONTINUOUS
 62
     7
100
AcDbVertex
100
AcDb2dVertex
 10
7.2322921485
 20
8.2388457674
 30
0.0
  0
VERTEX
  5
336
330
1CE
100
AcDbEntity
  8
0
  6
CONTINUOUS
 62
     7
100
AcDbVertex
100
AcDb2dVertex
 10
7.195867828
 20
8.2189198729
 30
0.0
  0
VERTEX
  5
337
330
1CE
100
AcDbEntity
  8
0
  6
CONTINUOUS
 62
     7
100
AcDbVertex
100
AcDb2dVertex
 10
7.1594435076
 20
8.1967911422
 30
0.0
  0
VERTEX
  5
338
330
1CE
100
AcDbEntity
  8
0
  6
CONTINUOUS
 62
     7
100
AcDbVertex
100
AcDb2dVertex
 10
7.1231190237
 20
8.1725202285
 30
0.0
  0
VERTEX
  5
339
330
1CE
100
AcDbEntity
  8
0
  6
CONTINUOUS
 62
     7
100
AcDbVertex
100
AcDb2dVertex
 10
7.0869939392
 20
8.1461736569
 30
0.0
  0
VERTEX
  5
33A
330
1CE
100
AcDbEntity
  8
0
  6
CONTINUOUS
 62
     7
100
AcDbVertex
100
AcDb2dVertex
 10
7.0511672705
 20
8.1178236413
 30
0.0
  0
VERTEX
  5
33B
330
1CE
100
AcDbEntity
  8
0
  6
CONTINUOUS
 62
     7
100
AcDbVertex
100
AcDb2dVertex
 10
7.0157372159
 20
8.0875478872
 30
0.0
  0
VERTEX
  5
33C
330
1CE
100
AcDbEntity
  8
0
  6
CONTINUOUS
 62
     7
100
AcDbVertex
100
AcDb2dVertex
 10
6.9808008869
 20
8.0554293784
 30
0.0
  0
VERTEX
  5
33D
330
1CE
100
AcDbEntity
  8
0
  6
CONTINUOUS
 62
     7
100
AcDbVertex
100
AcDb2dVertex
 10
6.9464540413
 20
8.0215561495
 30
0.0
  0
VERTEX
  5
33E
330
1CE
100
AcDbEntity
  8
0
  6
CONTINUOUS
 62
     7
100
AcDbVertex
100
AcDb2dVertex
 10
6.9127908217
 20
7.9860210445
 30
0.0
  0
VERTEX
  5
33F
330
1CE
100
AcDbEntity
  8
0
  6
CONTINUOUS
 62
     7
100
AcDbVertex
100
AcDb2dVertex
 10
6.8799034964
 20
7.9489214629
 30
0.0
  0
VERTEX
  5
340
330
1CE
100
AcDbEntity
  8
0
  6
CONTINUOUS
 62
     7
100
AcDbVertex
100
AcDb2dVertex
 10
6.8478822074
 20
7.9103590919
 30
0.0
  0
VERTEX
  5
341
330
1CE
100
AcDbEntity
  8
0
  6
CONTINUOUS
 62
     7
100
AcDbVertex
100
AcDb2dVertex
 10
6.8168147228
 20
7.8704396283
 30
0.0
  0
VERTEX
  5
342
330
1CE
100
AcDbEntity
  8
0
  6
CONTINUOUS
 62
     7
100
AcDbVertex
100
AcDb2dVertex
 10
6.7867861964
 20
7.8292724886
 30
0.0
  0
VERTEX
  5
343
330
1CE
100
AcDbEntity
  8
0
  6
CONTINUOUS
 62
     7
100
AcDbVertex
100
AcDb2dVertex
 10
6.7578789343
 20
7.786970509
 30
0.0
  0
VERTEX
  5
344
330
1CE
100
AcDbEntity
  8
0
  6
CONTINUOUS
 62
     7
100
AcDbVertex
100
AcDb2dVertex
 10
6.7301721693
 20
7.7436496365
 30
0.0
  0
VERTEX
  5
345
330
1CE
100
AcDbEntity
  8
0
  6
CONTINUOUS
 62
     7
100
AcDbVertex
100
AcDb2dVertex
 10
6.7037418438
 20
7.6994286104
 30
0.0
  0
VERTEX
  5
346
330
1CE
100
AcDbEntity
  8
0
  6
CONTINUOUS
 62
     7
100
AcDbVertex
100
AcDb2dVertex
 10
6.6786604014
 20
7.6544286375
 30
0.0
  0
VERTEX
  5
347
330
1CE
100
AcDbEntity
  8
0
  6
CONTINUOUS
 62
     7
100
AcDbVertex
100
AcDb2dVertex
 10
6.6549965885
 20
7.6087730596
 30
0.0
  0
VERTEX
  5
348
330
1CE
100
AcDbEntity
  8
0
  6
CONTINUOUS
 62
     7
100
AcDbVertex
100
AcDb2dVertex
 10
6.6328152662
 20
7.5625870154
 30
0.0
  0
VERTEX
  5
349
330
1CE
100
AcDbEntity
  8
0
  6
CONTINUOUS
 62
     7
100
AcDbVertex
100
AcDb2dVertex
 10
6.6121772318
 20
7.5159970978
 30
0.0
  0
VERTEX
  5
34A
330
1CE
100
AcDbEntity
  8
0
  6
CONTINUOUS
 62
     7
100
AcDbVertex
100
AcDb2dVertex
 10
6.5931390527
 20
7.4691310065
 30
0.0
  0
VERTEX
  5
34B
330
1CE
100
AcDbEntity
  8
0
  6
CONTINUOUS
 62
     7
100
AcDbVertex
100
AcDb2dVertex
 10
6.5757529114
 20
7.422117198
 30
0.0
  0
VERTEX
  5
34C
330
1CE
100
AcDbEntity
  8
0
  6
CONTINUOUS
 62
     7
100
AcDbVertex
100
AcDb2dVertex
 10
6.5600664619
 20
7.3750845341
 30
0.0
  0
VERTEX
  5
34D
330
1CE
100
AcDbEntity
  8
0
  6
CONTINUOUS
 62
     7
100
AcDbVertex
100
AcDb2dVertex
 10
6.5461226997
 20
7.328161928
 30
0.0
  0
VERTEX
  5
34E
330
1CE
100
AcDbEntity
  8
0
  6
CONTINUOUS
 62
     7
100
AcDbVertex
100
AcDb2dVertex
 10
6.5339598438
 20
7.2814779912
 30
0.0
  0
VERTEX
  5
34F
330
1CE
100
AcDbEntity
  8
0
  6
CONTINUOUS
 62
     7
100
AcDbVertex
100
AcDb2dVertex
 10
6.5236112317
 20
7.2351606813
 30
0.0
  0
VERTEX
  5
350
330
1CE
100
AcDbEntity
  8
0
  6
CONTINUOUS
 62
     7
100
AcDbVertex
100
AcDb2dVertex
 10
6.5151052282
 20
7.1893369507
 30
0.0
  0
VERTEX
  5
351
330
1CE
100
AcDbEntity
  8
0
  6
CONTINUOUS
 62
     7
100
AcDbVertex
100
AcDb2dVertex
 10
6.5084651476
 20
7.1441323991
 30
0.0
  0
VERTEX
  5
352
330
1CE
100
AcDbEntity
  8
0
  6
CONTINUOUS
 62
     7
100
AcDbVertex
100
AcDb2dVertex
 10
6.50370919
 20
7.099670929
 30
0.0
  0
VERTEX
  5
353
330
1CE
100
AcDbEntity
  8
0
  6
CONTINUOUS
 62
     7
100
AcDbVertex
100
AcDb2dVertex
 10
6.5008503911
 20
7.0560744062
 30
0.0
  0
VERTEX
  5
354
330
1CE
100
AcDbEntity
  8
0
  6
CONTINUOUS
 62
     7
100
AcDbVertex
100
AcDb2dVertex
 10
6.4998965867
 20
7.0134623258
 30
0.0
  0
VERTEX
  5
355
330
1CE
100
AcDbEntity
  8
0
  6
CONTINUOUS
 62
     7
100
AcDbVertex
100
AcDb2dVertex
 10
6.5008503911
 20
6.9719514846
 30
0.0
  0
VERTEX
  5
356
330
1CE
100
AcDbEntity
  8
0
  6
CONTINUOUS
 62
     7
100
AcDbVertex
100
AcDb2dVertex
 10
6.50370919
 20
6.9316556608
 30
0.0
  0
VERTEX
  5
357
330
1CE
100
AcDbEntity
  8
0
  6
CONTINUOUS
 62
     7
100
AcDbVertex
100
AcDb2dVertex
 10
6.5084651476
 20
6.8926853024
 30
0.0
  0
VERTEX
  5
358
330
1CE
100
AcDbEntity
  8
0
  6
CONTINUOUS
 62
     7
100
AcDbVertex
100
AcDb2dVertex
 10
6.5151052282
 20
6.8551472247
 30
0.0
  0
VERTEX
  5
359
330
1CE
100
AcDbEntity
  8
0
  6
CONTINUOUS
 62
     7
100
AcDbVertex
100
AcDb2dVertex
 10
6.5236112317
 20
6.8191443167
 30
0.0
  0
VERTEX
  5
35A
330
1CE
100
AcDbEntity
  8
0
  6
CONTINUOUS
 62
     7
100
AcDbVertex
100
AcDb2dVertex
 10
6.5339598438
 20
6.78477526
 30
0.0
  0
VERTEX
  5
35B
330
1CE
100
AcDbEntity
  8
0
  6
CONTINUOUS
 62
     7
100
AcDbVertex
100
AcDb2dVertex
 10
6.5461226997
 20
6.7521342578
 30
0.0
  0
VERTEX
  5
35C
330
1CE
100
AcDbEntity
  8
0
  6
CONTINUOUS
 62
     7
100
AcDbVertex
100
AcDb2dVertex
 10
6.5600664619
 20
6.7213107767
 30
0.0
  0
VERTEX
  5
35D
330
1CE
100
AcDbEntity
  8
0
  6
CONTINUOUS
 62
     7
100
AcDbVertex
100
AcDb2dVertex
 10
6.5757529114
 20
6.6923893019
 30
0.0
  0
VERTEX
  5
35E
330
1CE
100
AcDbEntity
  8
0
  6
CONTINUOUS
 62
     7
100
AcDbVertex
100
AcDb2dVertex
 10
6.5931390527
 20
6.665449105
 30
0.0
  0
VERTEX
  5
35F
330
1CE
100
AcDbEntity
  8
0
  6
CONTINUOUS
 62
     7
100
AcDbVertex
100
AcDb2dVertex
 10
6.6121772318
 20
6.6405640273
 30
0.0
  0
VERTEX
  5
360
330
1CE
100
AcDbEntity
  8
0
  6
CONTINUOUS
 62
     7
100
AcDbVertex
100
AcDb2dVertex
 10
6.6328152662
 20
6.617802277
 30
0.0
  0
VERTEX
  5
361
330
1CE
100
AcDbEntity
  8
0
  6
CONTINUOUS
 62
     7
100
AcDbVertex
100
AcDb2dVertex
 10
6.6549965885
 20
6.5972262425
 30
0.0
  0
VERTEX
  5
362
330
1CE
100
AcDbEntity
  8
0
  6
CONTINUOUS
 62
     7
100
AcDbVertex
100
AcDb2dVertex
 10
6.6786604014
 20
6.5788923214
 30
0.0
  0
VERTEX
  5
363
330
1CE
100
AcDbEntity
  8
0
  6
CONTINUOUS
 62
     7
100
AcDbVertex
100
AcDb2dVertex
 10
6.7037418438
 20
6.5628507655
 30
0.0
  0
VERTEX
  5
364
330
1CE
100
AcDbEntity
  8
0
  6
CONTINUOUS
 62
     7
100
AcDbVertex
100
AcDb2dVertex
 10
6.7037818376
 20
6.5628276738
 30
0.0
  0
SEQEND
  5
365
330
1CE
100
AcDbEntity
  8
0
  6
CONTINUOUS
 62
     7
  0
SPLINE
  5
1CF
330
1F
100
AcDbEntity
  8
0
  6
CONTINUOUS
 62
     7
100
AcDbSpline
210
0.0
220
0.0
230
1.0
 70
     8
 71
     3
 72
    39
 73
    35
 74
     0
 42
0.00000001
 43
0.00000001
 40
-0.0943785987983444
 40
-0.0628445568539311
 40
-0.0312454222840519
 40
0.0
 40
0.0312807849323628
 40
0.0628843474339717
 40
0.0944355244302092
 40
0.1255739177563144
 40
0.1566058540254264
 40
0.1879276858147967
 40
0.2191609684185149
 40
0.2500192977140989
 40
0.2808150352294543
 40
0.3120895360880267
 40
0.3433474633138534
 40
0.3743761737128762
 40
0.405485499484401
 40
0.4371182962645945
 40
0.4688213427064522
 40
0.5001558358450838
 40
0.5314169960362551
 40
0.5630296125999787
 40
0.5945163898235047
 40
0.6256357870845614
 40
0.6566634067447182
 40
0.6879584527662548
 40
0.7192136464720478
 40
0.7500728172013583
 40
0.780894939788999
 40
0.8121979377880107
 40
0.843475040273327
 40
0.874533347896107
 40
0.9056214012016556
 40
0.9371554431460689
 40
0.9687545777159481
 40
1.0
 40
1.031280784932363
 40
1.062884347433972
 40
1.094435524430209
 10
7.38497907946242
 20
8.091711064456115
 30
0.0
 10
7.398998041879368
 20
8.101729709346374
 30
0.0
 10
7.416024637703112
 20
8.109605352763593
 30
0.0
 10
7.435519880824718
 20
8.115025484806552
 30
0.0
 10
7.456539327470702
 20
8.117988533447985
 30
0.0
 10
7.478328372845591
 20
8.118296183959904
 30
0.0
 10
7.500095863927667
 20
8.11612379924036
 30
0.0
 10
7.521037235209703
 20
8.111597824752746
 30
0.0
 10
7.540409554876772
 20
8.105162907772602
 30
0.0
 10
7.557255407035646
 20
8.09700934853001
 30
0.0
 10
7.571046808575256
 20
8.087491533807377
 30
0.0
 10
7.581149653199057
 20
8.076908305315104
 30
0.0
 10
7.587489110934029
 20
8.065683253192676
 30
0.0
 10
7.589476820737396
 20
8.054151235160868
 30
0.0
 10
7.587164404895841
 20
8.042589403606259
 30
0.0
 10
7.580502819127036
 20
8.031310010304436
 30
0.0
 10
7.570099582668402
 20
8.020601606990876
 30
0.0
 10
7.556073644141056
 20
8.010957816936061
 30
0.0
 10
7.539038366204899
 20
8.002664241405597
 30
0.0
 10
7.519546942865878
 20
7.996104657221642
 30
0.0
 10
7.498534622988901
 20
7.991421467940207
 30
0.0
 10
7.476763309534109
 20
7.989090932785974
 30
0.0
 10
7.45500973454015
 20
7.989226181684866
 30
0.0
 10
7.434070576370069
 20
7.992028414077716
 30
0.0
 10
7.414697260683647
 20
7.997275952998899
 30
0.0
 10
7.39785148257837
 20
8.005030891561978
 30
0.0
 10
7.384070608403799
 20
8.014973321029338
 30
0.0
 10
7.373976303536222
 20
8.026758896963345
 30
0.0
 10
7.367646661083924
 20
8.039720413988128
 30
0.0
 10
7.365665308320457
 20
8.053298692598108
 30
0.0
 10
7.367963275775444
 20
8.066892107313002
 30
0.0
 10
7.374600009856837
 20
8.079885971568002
 30
0.0
 10
7.38497907946242
 20
8.091711064456115
 30
0.0
 10
7.398998041879368
 20
8.101729709346374
 30
0.0
 10
7.416024637703112
 20
8.109605352763593
 30
0.0
  0
SPLINE
  5
1D0
330
1F
100
AcDbEntity
  8
0
  6
CONTINUOUS
 62
     7
100
AcDbSpline
210
0.0
220
0.0
230
1.0
 70
     8
 71
     3
 72
    39
 73
    35
 74
     0
 42
0.00000001
 43
0.00000001
 40
-0.0943785987989524
 40
-0.0628445568539462
 40
-0.0312454222844419
 40
0.0
 40
0.0312807849320678
 40
0.0628843474339603
 40
0.094435524430027
 40
0.1255739177563186
 40
0.1566058540256572
 40
0.1879276858148019
 40
0.2191609684186354
 40
0.250019297714099
 40
0.2808150352295143
 40
0.3120895360880292
 40
0.343347463313914
 40
0.3743761737128763
 40
0.4054854994844014
 40
0.4371182962645951
 40
0.4688213427062974
 40
0.5001558358450786
 40
0.5314169960363949
 40
0.5630296125999906
 40
0.5945163898239083
 40
0.625635787084566
 40
0.6566634067449972
 40
0.6879584527662612
 40
0.7192136464722146
 40
0.7500728172013581
 40
0.7808949397891195
 40
0.8121979377880156
 40
0.8434750402732311
 40
0.8745333478960987
 40
0.9056214012010476
 40
0.9371554431460538
 40
0.9687545777155581
 40
1.0
 40
1.031280784932068
 40
1.06288434743396
 40
1.094435524430027
 10
8.776921562112982
 20
7.288159773292012
 30
0.0
 10
8.790940524529944
 20
7.298178418182224
 30
0.0
 10
8.807967120353767
 20
7.306054061599459
 30
0.0
 10
8.8274623634753
 20
7.311474193642441
 30
0.0
 10
8.848481810121324
 20
7.314437242283944
 30
0.0
 10
8.870270855496285
 20
7.314744892795811
 30
0.0
 10
8.892038346578401
 20
7.31257250807627
 30
0.0
 10
8.91297971786046
 20
7.30804653358864
 30
0.0
 10
8.932352037527462
 20
7.301611616608496
 30
0.0
 10
8.949197889686358
 20
7.29345805736591
 30
0.0
 10
8.962989291225954
 20
7.283940242643286
 30
0.0
 10
8.973092135849749
 20
7.273357014151006
 30
0.0
 10
8.9794315935847
 20
7.262131962028583
 30
0.0
 10
8.98141930338808
 20
7.250599943996776
 30
0.0
 10
8.97910688754652
 20
7.239038112442173
 30
0.0
 10
8.972445301777736
 20
7.227758719140368
 30
0.0
 10
8.962042065319078
 20
7.217050315826817
 30
0.0
 10
8.948016126791734
 20
7.207406525771983
 30
0.0
 10
8.930980848855608
 20
7.199112950241455
 30
0.0
 10
8.91148942551644
 20
7.19255336605753
 30
0.0
 10
8.890477105639482
 20
7.187870176776128
 30
0.0
 10
8.868705792184635
 20
7.185539641621879
 30
0.0
 10
8.846952217190767
 20
7.185674890520779
 30
0.0
 10
8.826013059020655
 20
7.188477122913646
 30
0.0
 10
8.806639743334317
 20
7.19372466183485
 30
0.0
 10
8.789793965229006
 20
7.201479600397917
 30
0.0
 10
8.776013091054448
 20
7.211422029865258
 30
0.0
 10
8.765918786186893
 20
7.223207605799262
 30
0.0
 10
8.759589143734692
 20
7.236169122824043
 30
0.0
 10
8.75760779097112
 20
7.249747401433921
 30
0.0
 10
8.759905758426136
 20
7.263340816148828
 30
0.0
 10
8.766542492507435
 20
7.276334680403786
 30
0.0
 10
8.776921562112982
 20
7.288159773292012
 30
0.0
 10
8.790940524529944
 20
7.298178418182224
 30
0.0
 10
8.807967120353767
 20
7.306054061599459
 30
0.0
  0
POLYLINE
  5
1D1
330
1F
100
AcDbEntity
  8
0
  6
CONTINUOUS
 62
     7
100
AcDb2dPolyline
 66
     1
 10
0.0
 20
0.0
 30
0.0
  0
VERTEX
  5
366
330
1D1
100
AcDbEntity
  8
0
  6
CONTINUOUS
 62
     7
100
AcDbVertex
100
AcDb2dVertex
 10
9.3394592513
 20
6.3828674146
 30
0.0
  0
VERTEX
  5
367
330
1D1
100
AcDbEntity
  8
0
  6
CONTINUOUS
 62
     7
100
AcDbVertex
100
AcDb2dVertex
 10
9.3384861225
 20
6.3608635307
 30
0.0
  0
VERTEX
  5
368
330
1D1
100
AcDbEntity
  8
0
  6
CONTINUOUS
 62
     7
100
AcDbVertex
100
AcDb2dVertex
 10
9.3355773977
 20
6.3379771753
 30
0.0
  0
VERTEX
  5
369
330
1D1
100
AcDbEntity
  8
0
  6
CONTINUOUS
 62
     7
100
AcDbVertex
100
AcDb2dVertex
 10
9.3307649456
 20
6.3144590962
 30
0.0
  0
VERTEX
  5
36A
330
1D1
100
AcDbEntity
  8
0
  6
CONTINUOUS
 62
     7
100
AcDbVertex
100
AcDb2dVertex
 10
9.3241014924
 20
6.2905669621
 30
0.0
  0
VERTEX
  5
36B
330
1D1
100
AcDbEntity
  8
0
  6
CONTINUOUS
 62
     7
100
AcDbVertex
100
AcDb2dVertex
 10
9.3156600443
 20
6.2665625405
 30
0.0
  0
VERTEX
  5
36C
330
1D1
100
AcDbEntity
  8
0
  6
CONTINUOUS
 62
     7
100
AcDbVertex
100
AcDb2dVertex
 10
9.3055330876
 20
6.2427088288
 30
0.0
  0
VERTEX
  5
36D
330
1D1
100
AcDbEntity
  8
0
  6
CONTINUOUS
 62
     7
100
AcDbVertex
100
AcDb2dVertex
 10
9.2938315753
 20
6.2192671732
 30
0.0
  0
VERTEX
  5
36E
330
1D1
100
AcDbEntity
  8
0
  6
CONTINUOUS
 62
     7
100
AcDbVertex
100
AcDb2dVertex
 10
9.2806837116
 20
6.1964944054
 30
0.0
  0
VERTEX
  5
36F
330
1D1
100
AcDbEntity
  8
0
  6
CONTINUOUS
 62
     7
100
AcDbVertex
100
AcDb2dVertex
 10
9.2662335473
 20
6.1746400287
 30
0.0
  0
VERTEX
  5
370
330
1D1
100
AcDbEntity
  8
0
  6
CONTINUOUS
 62
     7
100
AcDbVertex
100
AcDb2dVertex
 10
9.2506394015
 20
6.153943484
 30
0.0
  0
VERTEX
  5
371
330
1D1
100
AcDbEntity
  8
0
  6
CONTINUOUS
 62
     7
100
AcDbVertex
100
AcDb2dVertex
 10
9.2340721268
 20
6.1346315272
 30
0.0
  0
VERTEX
  5
372
330
1D1
100
AcDbEntity
  8
0
  6
CONTINUOUS
 62
     7
100
AcDbVertex
100
AcDb2dVertex
 10
9.2167132377
 20
6.1169157441
 30
0.0
  0
VERTEX
  5
373
330
1D1
100
AcDbEntity
  8
0
  6
CONTINUOUS
 62
     7
100
AcDbVertex
100
AcDb2dVertex
 10
9.198752922
 20
6.1009902324
 30
0.0
  0
VERTEX
  5
374
330
1D1
100
AcDbEntity
  8
0
  6
CONTINUOUS
 62
     7
100
AcDbVertex
100
AcDb2dVertex
 10
9.1803879565
 20
6.0870294755
 30
0.0
  0
VERTEX
  5
375
330
1D1
100
AcDbEntity
  8
0
  6
CONTINUOUS
 62
     7
100
AcDbVertex
100
AcDb2dVertex
 10
9.1618195517
 20
6.0751864303
 30
0.0
  0
VERTEX
  5
376
330
1D1
100
AcDbEntity
  8
0
  6
CONTINUOUS
 62
     7
100
AcDbVertex
100
AcDb2dVertex
 10
9.1432511469
 20
6.0655908516
 30
0.0
  0
VERTEX
  5
377
330
1D1
100
AcDbEntity
  8
0
  6
CONTINUOUS
 62
     7
100
AcDbVertex
100
AcDb2dVertex
 10
9.1248861814
 20
6.0583478707
 30
0.0
  0
VERTEX
  5
378
330
1D1
100
AcDbEntity
  8
0
  6
CONTINUOUS
 62
     7
100
AcDbVertex
100
AcDb2dVertex
 10
9.1069258656
 20
6.0535368432
 30
0.0
  0
VERTEX
  5
379
330
1D1
100
AcDbEntity
  8
0
  6
CONTINUOUS
 62
     7
100
AcDbVertex
100
AcDb2dVertex
 10
9.0895669766
 20
6.0512104797
 30
0.0
  0
VERTEX
  5
37A
330
1D1
100
AcDbEntity
  8
0
  6
CONTINUOUS
 62
     7
100
AcDbVertex
100
AcDb2dVertex
 10
9.0729997019
 20
6.0513942683
 30
0.0
  0
VERTEX
  5
37B
330
1D1
100
AcDbEntity
  8
0
  6
CONTINUOUS
 62
     7
100
AcDbVertex
100
AcDb2dVertex
 10
9.057405556
 20
6.0540861953
 30
0.0
  0
VERTEX
  5
37C
330
1D1
100
AcDbEntity
  8
0
  6
CONTINUOUS
 62
     7
100
AcDbVertex
100
AcDb2dVertex
 10
9.0429553918
 20
6.0592567675
 30
0.0
  0
VERTEX
  5
37D
330
1D1
100
AcDbEntity
  8
0
  6
CONTINUOUS
 62
     7
100
AcDbVertex
100
AcDb2dVertex
 10
9.0298075281
 20
6.0668493351
 30
0.0
  0
VERTEX
  5
37E
330
1D1
100
AcDbEntity
  8
0
  6
CONTINUOUS
 62
     7
100
AcDbVertex
100
AcDb2dVertex
 10
9.0181060158
 20
6.0767807122
 30
0.0
  0
VERTEX
  5
37F
330
1D1
100
AcDbEntity
  8
0
  6
CONTINUOUS
 62
     7
100
AcDbVertex
100
AcDb2dVertex
 10
9.0079790591
 20
6.0889420885
 30
0.0
  0
VERTEX
  5
380
330
1D1
100
AcDbEntity
  8
0
  6
CONTINUOUS
 62
     7
100
AcDbVertex
100
AcDb2dVertex
 10
8.999537611
 20
6.1032002216
 30
0.0
  0
VERTEX
  5
381
330
1D1
100
AcDbEntity
  8
0
  6
CONTINUOUS
 62
     7
100
AcDbVertex
100
AcDb2dVertex
 10
8.9928741578
 20
6.1193988963
 30
0.0
  0
VERTEX
  5
382
330
1D1
100
AcDbEntity
  8
0
  6
CONTINUOUS
 62
     7
100
AcDbVertex
100
AcDb2dVertex
 10
8.9880617057
 20
6.1373606366
 30
0.0
  0
VERTEX
  5
383
330
1D1
100
AcDbEntity
  8
0
  6
CONTINUOUS
 62
     7
100
AcDbVertex
100
AcDb2dVertex
 10
8.9851529809
 20
6.1568886498
 30
0.0
  0
VERTEX
  5
384
330
1D1
100
AcDbEntity
  8
0
  6
CONTINUOUS
 62
     7
100
AcDbVertex
100
AcDb2dVertex
 10
8.984179852
 20
6.177768983
 30
0.0
  0
VERTEX
  5
385
330
1D1
100
AcDbEntity
  8
0
  6
CONTINUOUS
 62
     7
100
AcDbVertex
100
AcDb2dVertex
 10
8.9851529809
 20
6.1997728669
 30
0.0
  0
VERTEX
  5
386
330
1D1
100
AcDbEntity
  8
0
  6
CONTINUOUS
 62
     7
100
AcDbVertex
100
AcDb2dVertex
 10
8.9880617057
 20
6.2226592223
 30
0.0
  0
VERTEX
  5
387
330
1D1
100
AcDbEntity
  8
0
  6
CONTINUOUS
 62
     7
100
AcDbVertex
100
AcDb2dVertex
 10
8.9928741578
 20
6.2461773015
 30
0.0
  0
VERTEX
  5
388
330
1D1
100
AcDbEntity
  8
0
  6
CONTINUOUS
 62
     7
100
AcDbVertex
100
AcDb2dVertex
 10
8.999537611
 20
6.2700694355
 30
0.0
  0
VERTEX
  5
389
330
1D1
100
AcDbEntity
  8
0
  6
CONTINUOUS
 62
     7
100
AcDbVertex
100
AcDb2dVertex
 10
9.0079790591
 20
6.2940738571
 30
0.0
  0
VERTEX
  5
38A
330
1D1
100
AcDbEntity
  8
0
  6
CONTINUOUS
 62
     7
100
AcDbVertex
100
AcDb2dVertex
 10
9.0181060158
 20
6.3179275688
 30
0.0
  0
VERTEX
  5
38B
330
1D1
100
AcDbEntity
  8
0
  6
CONTINUOUS
 62
     7
100
AcDbVertex
100
AcDb2dVertex
 10
9.0298075281
 20
6.3413692244
 30
0.0
  0
VERTEX
  5
38C
330
1D1
100
AcDbEntity
  8
0
  6
CONTINUOUS
 62
     7
100
AcDbVertex
100
AcDb2dVertex
 10
9.0429553918
 20
6.3641419922
 30
0.0
  0
VERTEX
  5
38D
330
1D1
100
AcDbEntity
  8
0
  6
CONTINUOUS
 62
     7
100
AcDbVertex
100
AcDb2dVertex
 10
9.057405556
 20
6.385996369
 30
0.0
  0
VERTEX
  5
38E
330
1D1
100
AcDbEntity
  8
0
  6
CONTINUOUS
 62
     7
100
AcDbVertex
100
AcDb2dVertex
 10
9.0729997019
 20
6.4066929136
 30
0.0
  0
VERTEX
  5
38F
330
1D1
100
AcDbEntity
  8
0
  6
CONTINUOUS
 62
     7
100
AcDbVertex
100
AcDb2dVertex
 10
9.0895669766
 20
6.4260048704
 30
0.0
  0
VERTEX
  5
390
330
1D1
100
AcDbEntity
  8
0
  6
CONTINUOUS
 62
     7
100
AcDbVertex
100
AcDb2dVertex
 10
9.1069258656
 20
6.4437206535
 30
0.0
  0
VERTEX
  5
391
330
1D1
100
AcDbEntity
  8
0
  6
CONTINUOUS
 62
     7
100
AcDbVertex
100
AcDb2dVertex
 10
9.1248861814
 20
6.4596461652
 30
0.0
  0
VERTEX
  5
392
330
1D1
100
AcDbEntity
  8
0
  6
CONTINUOUS
 62
     7
100
AcDbVertex
100
AcDb2dVertex
 10
9.1432511469
 20
6.4736069221
 30
0.0
  0
VERTEX
  5
393
330
1D1
100
AcDbEntity
  8
0
  6
CONTINUOUS
 62
     7
100
AcDbVertex
100
AcDb2dVertex
 10
9.1618195517
 20
6.4854499673
 30
0.0
  0
VERTEX
  5
394
330
1D1
100
AcDbEntity
  8
0
  6
CONTINUOUS
 62
     7
100
AcDbVertex
100
AcDb2dVertex
 10
9.1803879565
 20
6.495045546
 30
0.0
  0
VERTEX
  5
395
330
1D1
100
AcDbEntity
  8
0
  6
CONTINUOUS
 62
     7
100
AcDbVertex
100
AcDb2dVertex
 10
9.198752922
 20
6.5022885269
 30
0.0
  0
VERTEX
  5
396
330
1D1
100
AcDbEntity
  8
0
  6
CONTINUOUS
 62
     7
100
AcDbVertex
100
AcDb2dVertex
 10
9.2167132377
 20
6.5070995544
 30
0.0
  0
VERTEX
  5
397
330
1D1
100
AcDbEntity
  8
0
  6
CONTINUOUS
 62
     7
100
AcDbVertex
100
AcDb2dVertex
 10
9.2340721268
 20
6.5094259179
 30
0.0
  0
VERTEX
  5
398
330
1D1
100
AcDbEntity
  8
0
  6
CONTINUOUS
 62
     7
100
AcDbVertex
100
AcDb2dVertex
 10
9.2506394015
 20
6.5092421294
 30
0.0
  0
VERTEX
  5
399
330
1D1
100
AcDbEntity
  8
0
  6
CONTINUOUS
 62
     7
100
AcDbVertex
100
AcDb2dVertex
 10
9.2662335473
 20
6.5065502023
 30
0.0
  0
VERTEX
  5
39A
330
1D1
100
AcDbEntity
  8
0
  6
CONTINUOUS
 62
     7
100
AcDbVertex
100
AcDb2dVertex
 10
9.2806837116
 20
6.5013796301
 30
0.0
  0
VERTEX
  5
39B
330
1D1
100
AcDbEntity
  8
0
  6
CONTINUOUS
 62
     7
100
AcDbVertex
100
AcDb2dVertex
 10
9.2938315753
 20
6.4937870625
 30
0.0
  0
VERTEX
  5
39C
330
1D1
100
AcDbEntity
  8
0
  6
CONTINUOUS
 62
     7
100
AcDbVertex
100
AcDb2dVertex
 10
9.3055330876
 20
6.4838556855
 30
0.0
  0
VERTEX
  5
39D
330
1D1
100
AcDbEntity
  8
0
  6
CONTINUOUS
 62
     7
100
AcDbVertex
100
AcDb2dVertex
 10
9.3156600443
 20
6.4716943091
 30
0.0
  0
VERTEX
  5
39E
330
1D1
100
AcDbEntity
  8
0
  6
CONTINUOUS
 62
     7
100
AcDbVertex
100
AcDb2dVertex
 10
9.3241014924
 20
6.457436176
 30
0.0
  0
VERTEX
  5
39F
330
1D1
100
AcDbEntity
  8
0
  6
CONTINUOUS
 62
     7
100
AcDbVertex
100
AcDb2dVertex
 10
9.3307649456
 20
6.4412375013
 30
0.0
  0
VERTEX
  5
3A0
330
1D1
100
AcDbEntity
  8
0
  6
CONTINUOUS
 62
     7
100
AcDbVertex
100
AcDb2dVertex
 10
9.3355773977
 20
6.423275761
 30
0.0
  0
VERTEX
  5
3A1
330
1D1
100
AcDbEntity
  8
0
  6
CONTINUOUS
 62
     7
100
AcDbVertex
100
AcDb2dVertex
 10
9.3384861225
 20
6.4037477478
 30
0.0
  0
VERTEX
  5
3A2
330
1D1
100
AcDbEntity
  8
0
  6
CONTINUOUS
 62
     7
100
AcDbVertex
100
AcDb2dVertex
 10
9.3394592513
 20
6.3828674146
 30
0.0
  0
SEQEND
  5
3A3
330
1D1
100
AcDbEntity
  8
0
  6
CONTINUOUS
 62
     7
  0
SPLINE
  5
1D2
330
1F
100
AcDbEntity
  8
0
  6
CONTINUOUS
 62
     7
100
AcDbSpline
210
0.0
220
0.0
230
1.0
 70
     8
 71
     3
 72
    11
 73
     7
 74
     0
 42
0.00000001
 43
0.00000001
 40
0.0
 40
0.0
 40
0.0
 40
0.0
 40
0.3282033725975568
 40
0.6224332755468961
 40
0.8817773116855249
 40
0.9999999999999999
 40
0.9999999999999999
 40
0.9999999999999999
 40
0.9999999999999999
 10
8.771093893129509
 20
7.239046713250656
 30
0.0
 10
8.771593376374337
 20
7.234241595232448
 30
0.0
 10
8.772540639620594
 20
7.225128753631243
 30
0.0
 10
8.779737314056899
 20
7.21314583160681
 30
0.0
 10
8.787384034254082
 20
7.204716731195806
 30
0.0
 10
8.793238930195333
 20
7.200857177427332
 30
0.0
 10
8.795072199636591
 20
7.199648684218976
 30
0.0
  0
SPLINE
  5
1D3
330
1F
100
AcDbEntity
  8
0
  6
CONTINUOUS
 62
     7
100
AcDbSpline
210
0.0
220
0.0
230
1.0
 70
     8
 71
     3
 72
    10
 73
     6
 74
     0
 42
0.00000001
 43
0.00000001
 40
0.0
 40
0.0
 40
0.0
 40
0.0
 40
0.2232811012227418
 40
0.5906319165090497
 40
1.0
 40
1.0
 40
1.0
 40
1.0
 10
8.95214854871858
 20
7.210822403236215
 30
0.0
 10
8.954373276234396
 20
7.21275319752002
 30
0.0
 10
8.96025821261809
 20
7.217860610202881
 30
0.0
 10
8.96637676748353
 20
7.227430756177919
 30
0.0
 10
8.96739541929389
 20
7.235037200039641
 30
0.0
 10
8.967932297616288
 20
7.239046160489496
 30
0.0
  0
POLYLINE
  5
1D4
330
1F
100
AcDbEntity
  8
0
  6
CONTINUOUS
 62
     7
100
AcDb2dPolyline
 66
     1
 10
0.0
 20
0.0
 30
0.0
  0
VERTEX
  5
3A4
330
1D4
100
AcDbEntity
  8
0
  6
CONTINUOUS
 62
     7
100
AcDbVertex
100
AcDb2dVertex
 10
9.3182460479
 20
6.3828674146
 30
0.0
  0
VERTEX
  5
3A5
330
1D4
100
AcDbEntity
  8
0
  6
CONTINUOUS
 62
     7
100
AcDbVertex
100
AcDb2dVertex
 10
9.3172668927
 20
6.4031565519
 30
0.0
  0
VERTEX
  5
3A6
330
1D4
100
AcDbEntity
  8
0
  6
CONTINUOUS
 62
     7
100
AcDbVertex
100
AcDb2dVertex
 10
9.3143409069
 20
6.4220773092
 30
0.0
  0
VERTEX
  5
3A7
330
1D4
100
AcDbEntity
  8
0
  6
CONTINUOUS
 62
     7
100
AcDbVertex
100
AcDb2dVertex
 10
9.3095023949
 20
6.4394078578
 30
0.0
  0
VERTEX
  5
3A8
330
1D4
100
AcDbEntity
  8
0
  6
CONTINUOUS
 62
     7
100
AcDbVertex
100
AcDb2dVertex
 10
9.3028080839
 20
6.4549450129
 30
0.0
  0
VERTEX
  5
3A9
330
1D4
100
AcDbEntity
  8
0
  6
CONTINUOUS
 62
     7
100
AcDbVertex
100
AcDb2dVertex
 10
9.2943364586
 20
6.4685066155
 30
0.0
  0
VERTEX
  5
3AA
330
1D4
100
AcDbEntity
  8
0
  6
CONTINUOUS
 62
     7
100
AcDbVertex
100
AcDb2dVertex
 10
9.284186841
 20
6.4799336683
 30
0.0
  0
VERTEX
  5
3AB
330
1D4
100
AcDbEntity
  8
0
  6
CONTINUOUS
 62
     7
100
AcDbVertex
100
AcDb2dVertex
 10
9.2724782261
 20
6.4890921995
 30
0.0
  0
VERTEX
  5
3AC
330
1D4
100
AcDbEntity
  8
0
  6
CONTINUOUS
 62
     7
100
AcDbVertex
100
AcDb2dVertex
 10
9.2593478867
 20
6.4958748338
 30
0.0
  0
VERTEX
  5
3AD
330
1D4
100
AcDbEntity
  8
0
  6
CONTINUOUS
 62
     7
100
AcDbVertex
100
AcDb2dVertex
 10
9.244949764
 20
6.5002020508
 30
0.0
  0
VERTEX
  5
3AE
330
1D4
100
AcDbEntity
  8
0
  6
CONTINUOUS
 62
     7
100
AcDbVertex
100
AcDb2dVertex
 10
9.2294526629
 20
6.5020231181
 30
0.0
  0
VERTEX
  5
3AF
330
1D4
100
AcDbEntity
  8
0
  6
CONTINUOUS
 62
     7
100
AcDbVertex
100
AcDb2dVertex
 10
9.2130382727
 20
6.5013166851
 30
0.0
  0
VERTEX
  5
3B0
330
1D4
100
AcDbEntity
  8
0
  6
CONTINUOUS
 62
     7
100
AcDbVertex
100
AcDb2dVertex
 10
9.1958990371
 20
6.4980910343
 30
0.0
  0
VERTEX
  5
3B1
330
1D4
100
AcDbEntity
  8
0
  6
CONTINUOUS
 62
     7
100
AcDbVertex
100
AcDb2dVertex
 10
9.178235898
 20
6.4923839834
 30
0.0
  0
VERTEX
  5
3B2
330
1D4
100
AcDbEntity
  8
0
  6
CONTINUOUS
 62
     7
100
AcDbVertex
100
AcDb2dVertex
 10
9.1602559396
 20
6.4842624423
 30
0.0
  0
VERTEX
  5
3B3
330
1D4
100
AcDbEntity
  8
0
  6
CONTINUOUS
 62
     7
100
AcDbVertex
100
AcDb2dVertex
 10
9.15640663
 20
6.4822298993
 30
0.0
  0
SEQEND
  5
3B4
330
1D4
100
AcDbEntity
  8
0
  6
CONTINUOUS
 62
     7
  0
POLYLINE
  5
1D5
330
1F
100
AcDbEntity
  8
0
  6
CONTINUOUS
 62
     7
100
AcDb2dPolyline
 66
     1
 10
0.0
 20
0.0
 30
0.0
  0
VERTEX
  5
3B5
330
1D5
100
AcDbEntity
  8
0
  6
CONTINUOUS
 62
     7
100
AcDbVertex
100
AcDb2dVertex
 10
8.9842614633
 20
6.1840334141
 30
0.0
  0
VERTEX
  5
3B6
330
1D5
100
AcDbEntity
  8
0
  6
CONTINUOUS
 62
     7
100
AcDbVertex
100
AcDb2dVertex
 10
8.9851590072
 20
6.1697259674
 30
0.0
  0
VERTEX
  5
3B7
330
1D5
100
AcDbEntity
  8
0
  6
CONTINUOUS
 62
     7
100
AcDbVertex
100
AcDb2dVertex
 10
8.9880849931
 20
6.1508052101
 30
0.0
  0
VERTEX
  5
3B8
330
1D5
100
AcDbEntity
  8
0
  6
CONTINUOUS
 62
     7
100
AcDbVertex
100
AcDb2dVertex
 10
8.992923505
 20
6.1334746615
 30
0.0
  0
VERTEX
  5
3B9
330
1D5
100
AcDbEntity
  8
0
  6
CONTINUOUS
 62
     7
100
AcDbVertex
100
AcDb2dVertex
 10
8.999617816
 20
6.1179375064
 30
0.0
  0
VERTEX
  5
3BA
330
1D5
100
AcDbEntity
  8
0
  6
CONTINUOUS
 62
     7
100
AcDbVertex
100
AcDb2dVertex
 10
9.0080894414
 20
6.1043759038
 30
0.0
  0
VERTEX
  5
3BB
330
1D5
100
AcDbEntity
  8
0
  6
CONTINUOUS
 62
     7
100
AcDbVertex
100
AcDb2dVertex
 10
9.018239059
 20
6.092948851
 30
0.0
  0
VERTEX
  5
3BC
330
1D5
100
AcDbEntity
  8
0
  6
CONTINUOUS
 62
     7
100
AcDbVertex
100
AcDb2dVertex
 10
9.0299476739
 20
6.0837903198
 30
0.0
  0
VERTEX
  5
3BD
330
1D5
100
AcDbEntity
  8
0
  6
CONTINUOUS
 62
     7
100
AcDbVertex
100
AcDb2dVertex
 10
9.0430780133
 20
6.0770076855
 30
0.0
  0
VERTEX
  5
3BE
330
1D5
100
AcDbEntity
  8
0
  6
CONTINUOUS
 62
     7
100
AcDbVertex
100
AcDb2dVertex
 10
9.0574761359
 20
6.0726804684
 30
0.0
  0
VERTEX
  5
3BF
330
1D5
100
AcDbEntity
  8
0
  6
CONTINUOUS
 62
     7
100
AcDbVertex
100
AcDb2dVertex
 10
9.072973237
 20
6.0708594012
 30
0.0
  0
VERTEX
  5
3C0
330
1D5
100
AcDbEntity
  8
0
  6
CONTINUOUS
 62
     7
100
AcDbVertex
100
AcDb2dVertex
 10
9.0893876272
 20
6.0715658341
 30
0.0
  0
VERTEX
  5
3C1
330
1D5
100
AcDbEntity
  8
0
  6
CONTINUOUS
 62
     7
100
AcDbVertex
100
AcDb2dVertex
 10
9.1065268628
 20
6.074791485
 30
0.0
  0
VERTEX
  5
3C2
330
1D5
100
AcDbEntity
  8
0
  6
CONTINUOUS
 62
     7
100
AcDbVertex
100
AcDb2dVertex
 10
9.1241900019
 20
6.0804985359
 30
0.0
  0
VERTEX
  5
3C3
330
1D5
100
AcDbEntity
  8
0
  6
CONTINUOUS
 62
     7
100
AcDbVertex
100
AcDb2dVertex
 10
9.1421699603
 20
6.088620077
 30
0.0
  0
VERTEX
  5
3C4
330
1D5
100
AcDbEntity
  8
0
  6
CONTINUOUS
 62
     7
100
AcDbVertex
100
AcDb2dVertex
 10
9.1602559396
 20
6.0990608906
 30
0.0
  0
VERTEX
  5
3C5
330
1D5
100
AcDbEntity
  8
0
  6
CONTINUOUS
 62
     7
100
AcDbVertex
100
AcDb2dVertex
 10
9.178235898
 20
6.1116985677
 30
0.0
  0
VERTEX
  5
3C6
330
1D5
100
AcDbEntity
  8
0
  6
CONTINUOUS
 62
     7
100
AcDbVertex
100
AcDb2dVertex
 10
9.1958990371
 20
6.126384943
 30
0.0
  0
VERTEX
  5
3C7
330
1D5
100
AcDbEntity
  8
0
  6
CONTINUOUS
 62
     7
100
AcDbVertex
100
AcDb2dVertex
 10
9.2130382727
 20
6.1429478324
 30
0.0
  0
VERTEX
  5
3C8
330
1D5
100
AcDbEntity
  8
0
  6
CONTINUOUS
 62
     7
100
AcDbVertex
100
AcDb2dVertex
 10
9.2294526629
 20
6.161193051
 30
0.0
  0
VERTEX
  5
3C9
330
1D5
100
AcDbEntity
  8
0
  6
CONTINUOUS
 62
     7
100
AcDbVertex
100
AcDb2dVertex
 10
9.244949764
 20
6.1809066903
 30
0.0
  0
VERTEX
  5
3CA
330
1D5
100
AcDbEntity
  8
0
  6
CONTINUOUS
 62
     7
100
AcDbVertex
100
AcDb2dVertex
 10
9.2593478867
 20
6.2018576259
 30
0.0
  0
VERTEX
  5
3CB
330
1D5
100
AcDbEntity
  8
0
  6
CONTINUOUS
 62
     7
100
AcDbVertex
100
AcDb2dVertex
 10
9.2724782261
 20
6.2238002273
 30
0.0
  0
VERTEX
  5
3CC
330
1D5
100
AcDbEntity
  8
0
  6
CONTINUOUS
 62
     7
100
AcDbVertex
100
AcDb2dVertex
 10
9.284186841
 20
6.2464772376
 30
0.0
  0
VERTEX
  5
3CD
330
1D5
100
AcDbEntity
  8
0
  6
CONTINUOUS
 62
     7
100
AcDbVertex
100
AcDb2dVertex
 10
9.2943364586
 20
6.2696227895
 30
0.0
  0
VERTEX
  5
3CE
330
1D5
100
AcDbEntity
  8
0
  6
CONTINUOUS
 62
     7
100
AcDbVertex
100
AcDb2dVertex
 10
9.3028080839
 20
6.2929655225
 30
0.0
  0
VERTEX
  5
3CF
330
1D5
100
AcDbEntity
  8
0
  6
CONTINUOUS
 62
     7
100
AcDbVertex
100
AcDb2dVertex
 10
9.3095023949
 20
6.3162317646
 30
0.0
  0
VERTEX
  5
3D0
330
1D5
100
AcDbEntity
  8
0
  6
CONTINUOUS
 62
     7
100
AcDbVertex
100
AcDb2dVertex
 10
9.3143409069
 20
6.3391487402
 30
0.0
  0
VERTEX
  5
3D1
330
1D5
100
AcDbEntity
  8
0
  6
CONTINUOUS
 62
     7
100
AcDbVertex
100
AcDb2dVertex
 10
9.3172668927
 20
6.3614477687
 30
0.0
  0
VERTEX
  5
3D2
330
1D5
100
AcDbEntity
  8
0
  6
CONTINUOUS
 62
     7
100
AcDbVertex
100
AcDb2dVertex
 10
9.3182460479
 20
6.3828674146
 30
0.0
  0
SEQEND
  5
3D3
330
1D5
100
AcDbEntity
  8
0
  6
CONTINUOUS
 62
     7
  0
ARC
  5
1D6
330
1F
100
AcDbEntity
  8
0
  6
CONTINUOUS
 62
     7
100
AcDbCircle
 10
7.9838863936
 20
6.9603245366
 30
0.0
 40
1.485429501117242
100
AcDbArc
 50
122.5281707158
 51
177.4772058169
  0
SPLINE
  5
1D7
330
1F
100
AcDbEntity
  8
0
  6
CONTINUOUS
 62
     7
100
AcDbSpline
210
0.0
220
0.0
230
1.0
 70
     8
 71
     3
 72
    11
 73
     7
 74
     0
 42
0.00000001
 43
0.00000001
 40
0.0
 40
0.0
 40
0.0
 40
0.0
 40
0.3282033726183825
 40
0.6224332755756916
 40
0.8817773117094039
 40
1.0
 40
1.0
 40
1.0
 40
1.0
 10
7.379151410478828
 20
8.04259800441474
 30
0.0
 10
7.379650893723713
 20
8.037792886396252
 30
0.0
 10
7.380598156970063
 20
8.028680044794674
 30
0.0
 10
7.387794831406849
 20
8.01669712277004
 30
0.0
 10
7.395441551603953
 20
8.008268022359399
 30
0.0
 10
7.40129644754474
 20
8.004408468591283
 30
0.0
 10
7.403129716985624
 20
8.00319997538319
 30
0.0
  0
SPLINE
  5
1D8
330
1F
100
AcDbEntity
  8
0
  6
CONTINUOUS
 62
     7
100
AcDbSpline
210
0.0
220
0.0
230
1.0
 70
     8
 71
     3
 72
    10
 73
     6
 74
     0
 42
0.00000001
 43
0.00000001
 40
0.0
 40
0.0
 40
0.0
 40
0.0
 40
0.2232811012350653
 40
0.5906319165188831
 40
1.0
 40
1.0
 40
1.0
 40
1.0
 10
7.56020606606801
 20
8.014373694400367
 30
0.0
 10
7.562430793583919
 20
8.016304488684279
 30
0.0
 10
7.568315729967634
 20
8.021411901367225
 30
0.0
 10
7.574434284832925
 20
8.03098204734226
 30
0.0
 10
7.575452936643237
 20
8.038588491203834
 30
0.0
 10
7.575989814965608
 20
8.042597451653583
 30
0.0
  0
POLYLINE
  5
1D9
330
1F
100
AcDbEntity
  8
0
  6
CONTINUOUS
 62
     7
100
AcDb2dPolyline
 66
     1
 10
0.0
 20
0.0
 30
0.0
  0
VERTEX
  5
3D4
330
1D9
100
AcDbEntity
  8
0
  6
CONTINUOUS
 62
     7
100
AcDbVertex
100
AcDb2dVertex
 10
7.5471662718
 20
8.0079541899
 30
0.0
  0
VERTEX
  5
3D5
330
1D9
100
AcDbEntity
  8
0
  6
CONTINUOUS
 62
     7
100
AcDbVertex
100
AcDb2dVertex
 10
7.5579271516
 20
8.015322149
 30
0.0
  0
VERTEX
  5
3D6
330
1D9
100
AcDbEntity
  8
0
  6
CONTINUOUS
 62
     7
100
AcDbVertex
100
AcDb2dVertex
 10
7.5663762779
 20
8.0236339806
 30
0.0
  0
VERTEX
  5
3D7
330
1D9
100
AcDbEntity
  8
0
  6
CONTINUOUS
 62
     7
100
AcDbVertex
100
AcDb2dVertex
 10
7.5722705848
 20
8.0326505687
 30
0.0
  0
VERTEX
  5
3D8
330
1D9
100
AcDbEntity
  8
0
  6
CONTINUOUS
 62
     7
100
AcDbVertex
100
AcDb2dVertex
 10
7.5754405038
 20
8.0421125222
 30
0.0
  0
VERTEX
  5
3D9
330
1D9
100
AcDbEntity
  8
0
  6
CONTINUOUS
 62
     7
100
AcDbVertex
100
AcDb2dVertex
 10
7.575794842
 20
8.0517476381
 30
0.0
  0
VERTEX
  5
3DA
330
1D9
100
AcDbEntity
  8
0
  6
CONTINUOUS
 62
     7
100
AcDbVertex
100
AcDb2dVertex
 10
7.5733234059
 20
8.0612787316
 30
0.0
  0
VERTEX
  5
3DB
330
1D9
100
AcDbEntity
  8
0
  6
CONTINUOUS
 62
     7
100
AcDbVertex
100
AcDb2dVertex
 10
7.5680972941
 20
8.0704316106
 30
0.0
  0
VERTEX
  5
3DC
330
1D9
100
AcDbEntity
  8
0
  6
CONTINUOUS
 62
     7
100
AcDbVertex
100
AcDb2dVertex
 10
7.5602668523
 20
8.0789429632
 30
0.0
  0
VERTEX
  5
3DD
330
1D9
100
AcDbEntity
  8
0
  6
CONTINUOUS
 62
     7
100
AcDbVertex
100
AcDb2dVertex
 10
7.5500573481
 20
8.0865679335
 30
0.0
  0
VERTEX
  5
3DE
330
1D9
100
AcDbEntity
  8
0
  6
CONTINUOUS
 62
     7
100
AcDbVertex
100
AcDb2dVertex
 10
7.5471775805
 20
8.0883027896
 30
0.0
  0
SEQEND
  5
3DF
330
1D9
100
AcDbEntity
  8
0
  6
CONTINUOUS
 62
     7
  0
POLYLINE
  5
1DA
330
1F
100
AcDbEntity
  8
0
  6
CONTINUOUS
 62
     7
100
AcDb2dPolyline
 66
     1
 10
0.0
 20
0.0
 30
0.0
  0
VERTEX
  5
3E0
330
1DA
100
AcDbEntity
  8
0
  6
CONTINUOUS
 62
     7
100
AcDbVertex
100
AcDb2dVertex
 10
7.4079607148
 20
8.0883027896
 30
0.0
  0
VERTEX
  5
3E1
330
1DA
100
AcDbEntity
  8
0
  6
CONTINUOUS
 62
     7
100
AcDbVertex
100
AcDb2dVertex
 10
7.4023204995
 20
8.0847572834
 30
0.0
  0
VERTEX
  5
3E2
330
1DA
100
AcDbEntity
  8
0
  6
CONTINUOUS
 62
     7
100
AcDbVertex
100
AcDb2dVertex
 10
7.3926807692
 20
8.0768890426
 30
0.0
  0
VERTEX
  5
3E3
330
1DA
100
AcDbEntity
  8
0
  6
CONTINUOUS
 62
     7
100
AcDbVertex
100
AcDb2dVertex
 10
7.385483123
 20
8.068193507
 30
0.0
  0
VERTEX
  5
3E4
330
1DA
100
AcDbEntity
  8
0
  6
CONTINUOUS
 62
     7
100
AcDbVertex
100
AcDb2dVertex
 10
7.3809346241
 20
8.0589208313
 30
0.0
  0
VERTEX
  5
3E5
330
1DA
100
AcDbEntity
  8
0
  6
CONTINUOUS
 62
     7
100
AcDbVertex
100
AcDb2dVertex
 10
7.3791661244
 20
8.0493377735
 30
0.0
  0
VERTEX
  5
3E6
330
1DA
100
AcDbEntity
  8
0
  6
CONTINUOUS
 62
     7
100
AcDbVertex
100
AcDb2dVertex
 10
7.3802285006
 20
8.0397200207
 30
0.0
  0
VERTEX
  5
3E7
330
1DA
100
AcDbEntity
  8
0
  6
CONTINUOUS
 62
     7
100
AcDbVertex
100
AcDb2dVertex
 10
7.38409119
 20
8.0303442582
 30
0.0
  0
VERTEX
  5
3E8
330
1DA
100
AcDbEntity
  8
0
  6
CONTINUOUS
 62
     7
100
AcDbVertex
100
AcDb2dVertex
 10
7.39064307
 20
8.0214802095
 30
0.0
  0
VERTEX
  5
3E9
330
1DA
100
AcDbEntity
  8
0
  6
CONTINUOUS
 62
     7
100
AcDbVertex
100
AcDb2dVertex
 10
7.399695655
 20
8.0133828773
 30
0.0
  0
VERTEX
  5
3EA
330
1DA
100
AcDbEntity
  8
0
  6
CONTINUOUS
 62
     7
100
AcDbVertex
100
AcDb2dVertex
 10
7.4109885186
 20
8.0062852071
 30
0.0
  0
VERTEX
  5
3EB
330
1DA
100
AcDbEntity
  8
0
  6
CONTINUOUS
 62
     7
100
AcDbVertex
100
AcDb2dVertex
 10
7.4241967857
 20
8.0003913858
 30
0.0
  0
VERTEX
  5
3EC
330
1DA
100
AcDbEntity
  8
0
  6
CONTINUOUS
 62
     7
100
AcDbVertex
100
AcDb2dVertex
 10
7.4389404784
 20
7.995870968
 30
0.0
  0
VERTEX
  5
3ED
330
1DA
100
AcDbEntity
  8
0
  6
CONTINUOUS
 62
     7
100
AcDbVertex
100
AcDb2dVertex
 10
7.4547954477
 20
7.9928539978
 30
0.0
  0
VERTEX
  5
3EE
330
1DA
100
AcDbEntity
  8
0
  6
CONTINUOUS
 62
     7
100
AcDbVertex
100
AcDb2dVertex
 10
7.4713055748
 20
7.9914272681
 30
0.0
  0
VERTEX
  5
3EF
330
1DA
100
AcDbEntity
  8
0
  6
CONTINUOUS
 62
     7
100
AcDbVertex
100
AcDb2dVertex
 10
7.4879958935
 20
7.9916318232
 30
0.0
  0
VERTEX
  5
3F0
330
1DA
100
AcDbEntity
  8
0
  6
CONTINUOUS
 62
     7
100
AcDbVertex
100
AcDb2dVertex
 10
7.5043862537
 20
7.9934617785
 30
0.0
  0
VERTEX
  5
3F1
330
1DA
100
AcDbEntity
  8
0
  6
CONTINUOUS
 62
     7
100
AcDbVertex
100
AcDb2dVertex
 10
7.5200051346
 20
7.9968644894
 30
0.0
  0
VERTEX
  5
3F2
330
1DA
100
AcDbEntity
  8
0
  6
CONTINUOUS
 62
     7
100
AcDbVertex
100
AcDb2dVertex
 10
7.5344032095
 20
8.0017420662
 30
0.0
  0
VERTEX
  5
3F3
330
1DA
100
AcDbEntity
  8
0
  6
CONTINUOUS
 62
     7
100
AcDbVertex
100
AcDb2dVertex
 10
7.5471662718
 20
8.0079541899
 30
0.0
  0
SEQEND
  5
3F4
330
1DA
100
AcDbEntity
  8
0
  6
CONTINUOUS
 62
     7
  0
POLYLINE
  5
1DB
330
1F
100
AcDbEntity
  8
0
  6
CONTINUOUS
 62
     7
100
AcDb2dPolyline
 66
     1
 10
0.0
 20
0.0
 30
0.0
  0
VERTEX
  5
3F5
330
1DB
100
AcDbEntity
  8
0
  6
CONTINUOUS
 62
     7
100
AcDbVertex
100
AcDb2dVertex
 10
7.540095204
 20
8.0202016386
 30
0.0
  0
VERTEX
  5
3F6
330
1DB
100
AcDbEntity
  8
0
  6
CONTINUOUS
 62
     7
100
AcDbVertex
100
AcDb2dVertex
 10
7.5279259261
 20
8.0143366038
 30
0.0
  0
VERTEX
  5
3F7
330
1DB
100
AcDbEntity
  8
0
  6
CONTINUOUS
 62
     7
100
AcDbVertex
100
AcDb2dVertex
 10
7.5141381399
 20
8.0098202159
 30
0.0
  0
VERTEX
  5
3F8
330
1DB
100
AcDbEntity
  8
0
  6
CONTINUOUS
 62
     7
100
AcDbVertex
100
AcDb2dVertex
 10
7.4991749962
 20
8.0067976354
 30
0.0
  0
VERTEX
  5
3F9
330
1DB
100
AcDbEntity
  8
0
  6
CONTINUOUS
 62
     7
100
AcDbVertex
100
AcDb2dVertex
 10
7.4835174227
 20
8.0053660103
 30
0.0
  0
VERTEX
  5
3FA
330
1DB
100
AcDbEntity
  8
0
  6
CONTINUOUS
 62
     7
100
AcDbVertex
100
AcDb2dVertex
 10
7.4676686668
 20
8.0055713544
 30
0.0
  0
VERTEX
  5
3FB
330
1DB
100
AcDbEntity
  8
0
  6
CONTINUOUS
 62
     7
100
AcDbVertex
100
AcDb2dVertex
 10
7.4521381205
 20
8.0074070677
 30
0.0
  0
VERTEX
  5
3FC
330
1DB
100
AcDbEntity
  8
0
  6
CONTINUOUS
 62
     7
100
AcDbVertex
100
AcDb2dVertex
 10
7.4374249484
 20
8.0108141489
 30
0.0
  0
VERTEX
  5
3FD
330
1DB
100
AcDbEntity
  8
0
  6
CONTINUOUS
 62
     7
100
AcDbVertex
100
AcDb2dVertex
 10
7.4240020438
 20
8.0156830916
 30
0.0
  0
VERTEX
  5
3FE
330
1DB
100
AcDbEntity
  8
0
  6
CONTINUOUS
 62
     7
100
AcDbVertex
100
AcDb2dVertex
 10
7.41230083
 20
8.0218574039
 30
0.0
  0
VERTEX
  5
3FF
330
1DB
100
AcDbEntity
  8
0
  6
CONTINUOUS
 62
     7
100
AcDbVertex
100
AcDb2dVertex
 10
7.4026973937
 20
8.0291386384
 30
0.0
  0
VERTEX
  5
400
330
1DB
100
AcDbEntity
  8
0
  6
CONTINUOUS
 62
     7
100
AcDbVertex
100
AcDb2dVertex
 10
7.3955003971
 20
8.0372927703
 30
0.0
  0
VERTEX
  5
401
330
1DB
100
AcDbEntity
  8
0
  6
CONTINUOUS
 62
     7
100
AcDbVertex
100
AcDb2dVertex
 10
7.3909411577
 20
8.0460577189
 30
0.0
  0
VERTEX
  5
402
330
1DB
100
AcDbEntity
  8
0
  6
CONTINUOUS
 62
     7
100
AcDbVertex
100
AcDb2dVertex
 10
7.3891662132
 20
8.0551517717
 30
0.0
  0
VERTEX
  5
403
330
1DB
100
AcDbEntity
  8
0
  6
CONTINUOUS
 62
     7
100
AcDbVertex
100
AcDb2dVertex
 10
7.3902326117
 20
8.0642826382
 30
0.0
  0
VERTEX
  5
404
330
1DB
100
AcDbEntity
  8
0
  6
CONTINUOUS
 62
     7
100
AcDbVertex
100
AcDb2dVertex
 10
7.3941060784
 20
8.0731568451
 30
0.0
  0
VERTEX
  5
405
330
1DB
100
AcDbEntity
  8
0
  6
CONTINUOUS
 62
     7
100
AcDbVertex
100
AcDb2dVertex
 10
7.4006621168
 20
8.0814891678
 30
0.0
  0
VERTEX
  5
406
330
1DB
100
AcDbEntity
  8
0
  6
CONTINUOUS
 62
     7
100
AcDbVertex
100
AcDb2dVertex
 10
7.4096900104
 20
8.0890117988
 30
0.0
  0
VERTEX
  5
407
330
1DB
100
AcDbEntity
  8
0
  6
CONTINUOUS
 62
     7
100
AcDbVertex
100
AcDb2dVertex
 10
7.4208995954
 20
8.0954829544
 30
0.0
  0
VERTEX
  5
408
330
1DB
100
AcDbEntity
  8
0
  6
CONTINUOUS
 62
     7
100
AcDbVertex
100
AcDb2dVertex
 10
7.4339305863
 20
8.1006946465
 30
0.0
  0
VERTEX
  5
409
330
1DB
100
AcDbEntity
  8
0
  6
CONTINUOUS
 62
     7
100
AcDbVertex
100
AcDb2dVertex
 10
7.4483641566
 20
8.1044793669
 30
0.0
  0
VERTEX
  5
40A
330
1DB
100
AcDbEntity
  8
0
  6
CONTINUOUS
 62
     7
100
AcDbVertex
100
AcDb2dVertex
 10
7.4637363993
 20
8.1067154716
 30
0.0
  0
VERTEX
  5
40B
330
1DB
100
AcDbEntity
  8
0
  6
CONTINUOUS
 62
     7
100
AcDbVertex
100
AcDb2dVertex
 10
7.4795532379
 20
8.1073310904
 30
0.0
  0
VERTEX
  5
40C
330
1DB
100
AcDbEntity
  8
0
  6
CONTINUOUS
 62
     7
100
AcDbVertex
100
AcDb2dVertex
 10
7.4953063063
 20
8.1063064367
 30
0.0
  0
VERTEX
  5
40D
330
1DB
100
AcDbEntity
  8
0
  6
CONTINUOUS
 62
     7
100
AcDbVertex
100
AcDb2dVertex
 10
7.5104892877
 20
8.1036744438
 30
0.0
  0
VERTEX
  5
40E
330
1DB
100
AcDbEntity
  8
0
  6
CONTINUOUS
 62
     7
100
AcDbVertex
100
AcDb2dVertex
 10
7.5246141888
 20
8.0995197061
 30
0.0
  0
VERTEX
  5
40F
330
1DB
100
AcDbEntity
  8
0
  6
CONTINUOUS
 62
     7
100
AcDbVertex
100
AcDb2dVertex
 10
7.5372270235
 20
8.0939757603
 30
0.0
  0
VERTEX
  5
410
330
1DB
100
AcDbEntity
  8
0
  6
CONTINUOUS
 62
     7
100
AcDbVertex
100
AcDb2dVertex
 10
7.547922405
 20
8.0872207934
 30
0.0
  0
VERTEX
  5
411
330
1DB
100
AcDbEntity
  8
0
  6
CONTINUOUS
 62
     7
100
AcDbVertex
100
AcDb2dVertex
 10
7.556356575
 20
8.0794719156
 30
0.0
  0
VERTEX
  5
412
330
1DB
100
AcDbEntity
  8
0
  6
CONTINUOUS
 62
     7
100
AcDbVertex
100
AcDb2dVertex
 10
7.5622584522
 20
8.0709781821
 30
0.0
  0
VERTEX
  5
413
330
1DB
100
AcDbEntity
  8
0
  6
CONTINUOUS
 62
     7
100
AcDbVertex
100
AcDb2dVertex
 10
7.5654383454
 20
8.0620125885
 30
0.0
  0
VERTEX
  5
414
330
1DB
100
AcDbEntity
  8
0
  6
CONTINUOUS
 62
     7
100
AcDbVertex
100
AcDb2dVertex
 10
7.5657940504
 20
8.0528632965
 30
0.0
  0
VERTEX
  5
415
330
1DB
100
AcDbEntity
  8
0
  6
CONTINUOUS
 62
     7
100
AcDbVertex
100
AcDb2dVertex
 10
7.5633141344
 20
8.0438243717
 30
0.0
  0
VERTEX
  5
416
330
1DB
100
AcDbEntity
  8
0
  6
CONTINUOUS
 62
     7
100
AcDbVertex
100
AcDb2dVertex
 10
7.558078304
 20
8.0351863327
 30
0.0
  0
VERTEX
  5
417
330
1DB
100
AcDbEntity
  8
0
  6
CONTINUOUS
 62
     7
100
AcDbVertex
100
AcDb2dVertex
 10
7.550254843
 20
8.0272268132
 30
0.0
  0
VERTEX
  5
418
330
1DB
100
AcDbEntity
  8
0
  6
CONTINUOUS
 62
     7
100
AcDbVertex
100
AcDb2dVertex
 10
7.540095204
 20
8.0202016386
 30
0.0
  0
SEQEND
  5
419
330
1DB
100
AcDbEntity
  8
0
  6
CONTINUOUS
 62
     7
  0
LINE
  5
1DC
330
1F
100
AcDbEntity
  8
0
  6
CONTINUOUS
 62
     7
100
AcDbLine
 10
7.4082724318
 20
8.0670162403
 30
0.0
 11
7.4590011486
 21
8.0963013052
 31
0.0
  0
LINE
  5
1DD
330
1F
100
AcDbEntity
  8
0
  6
CONTINUOUS
 62
     7
100
AcDbLine
 10
7.4268404308
 20
8.0270120977
 30
0.0
 11
7.4082724318
 21
8.0670162403
 31
0.0
  0
LINE
  5
1DE
330
1F
100
AcDbEntity
  8
0
  6
CONTINUOUS
 62
     7
100
AcDbLine
 10
7.4961371467
 20
8.01629302
 30
0.0
 11
7.4268404308
 21
8.0270120977
 31
0.0
  0
LINE
  5
1DF
330
1F
100
AcDbEntity
  8
0
  6
CONTINUOUS
 62
     7
100
AcDbLine
 10
7.5468658636
 20
8.0455780849
 30
0.0
 11
7.4961371467
 21
8.01629302
 31
0.0
  0
LINE
  5
1E0
330
1F
100
AcDbEntity
  8
0
  6
CONTINUOUS
 62
     7
100
AcDbLine
 10
7.5282978645
 20
8.0855822275
 30
0.0
 11
7.5468658636
 21
8.0455780849
 31
0.0
  0
LINE
  5
1E1
330
1F
100
AcDbEntity
  8
0
  6
CONTINUOUS
 62
     7
100
AcDbLine
 10
7.4590011486
 20
8.0963013052
 30
0.0
 11
7.5282978645
 21
8.0855822275
 31
0.0
  0
LINE
  5
1E2
330
1F
100
AcDbEntity
  8
0
  6
CONTINUOUS
 62
     7
100
AcDbLine
 10
7.5282978645
 20
8.0447551869
 30
0.0
 11
7.5319205102
 21
8.036950316
 31
0.0
  0
LINE
  5
1E3
330
1F
100
AcDbEntity
  8
0
  6
CONTINUOUS
 62
     7
100
AcDbLine
 10
7.4232177851
 20
8.0348169685
 30
0.0
 11
7.4590011486
 21
8.0554742646
 31
0.0
  0
LINE
  5
1E4
330
1F
100
AcDbEntity
  8
0
  6
CONTINUOUS
 62
     7
100
AcDbLine
 10
7.4590011486
 20
8.0554742646
 30
0.0
 11
7.5282978645
 21
8.0447551869
 31
0.0
  0
LINE
  5
1E5
330
1F
100
AcDbEntity
  8
0
  6
CONTINUOUS
 62
     7
100
AcDbLine
 10
7.5282978645
 20
8.0447551869
 30
0.0
 11
7.5282978645
 21
8.0855822275
 31
0.0
  0
LINE
  5
1E6
330
1F
100
AcDbEntity
  8
0
  6
CONTINUOUS
 62
     7
100
AcDbLine
 10
7.4590011486
 20
8.0554742646
 30
0.0
 11
7.4590011486
 21
8.0963013052
 31
0.0
  0
POLYLINE
  5
1E7
330
1F
100
AcDbEntity
  8
0
  6
CONTINUOUS
 62
     7
100
AcDb2dPolyline
 66
     1
 10
0.0
 20
0.0
 30
0.0
  0
VERTEX
  5
41A
330
1E7
100
AcDbEntity
  8
0
  6
CONTINUOUS
 62
     7
100
AcDbVertex
100
AcDb2dVertex
 10
8.9391200632
 20
7.2847514984
 30
0.0
  0
VERTEX
  5
41B
330
1E7
100
AcDbEntity
  8
0
  6
CONTINUOUS
 62
     7
100
AcDbVertex
100
AcDb2dVertex
 10
8.947385123
 20
7.2793293404
 30
0.0
  0
VERTEX
  5
41C
330
1E7
100
AcDbEntity
  8
0
  6
CONTINUOUS
 62
     7
100
AcDbVertex
100
AcDb2dVertex
 10
8.956437708
 20
7.2712320082
 30
0.0
  0
VERTEX
  5
41D
330
1E7
100
AcDbEntity
  8
0
  6
CONTINUOUS
 62
     7
100
AcDbVertex
100
AcDb2dVertex
 10
8.962989588
 20
7.2623679596
 30
0.0
  0
VERTEX
  5
41E
330
1E7
100
AcDbEntity
  8
0
  6
CONTINUOUS
 62
     7
100
AcDbVertex
100
AcDb2dVertex
 10
8.9668522774
 20
7.2529921971
 30
0.0
  0
VERTEX
  5
41F
330
1E7
100
AcDbEntity
  8
0
  6
CONTINUOUS
 62
     7
100
AcDbVertex
100
AcDb2dVertex
 10
8.9679146536
 20
7.2433744443
 30
0.0
  0
VERTEX
  5
420
330
1E7
100
AcDbEntity
  8
0
  6
CONTINUOUS
 62
     7
100
AcDbVertex
100
AcDb2dVertex
 10
8.9661461539
 20
7.2337913865
 30
0.0
  0
VERTEX
  5
421
330
1E7
100
AcDbEntity
  8
0
  6
CONTINUOUS
 62
     7
100
AcDbVertex
100
AcDb2dVertex
 10
8.961597655
 20
7.2245187108
 30
0.0
  0
VERTEX
  5
422
330
1E7
100
AcDbEntity
  8
0
  6
CONTINUOUS
 62
     7
100
AcDbVertex
100
AcDb2dVertex
 10
8.9544000088
 20
7.2158231752
 30
0.0
  0
VERTEX
  5
423
330
1E7
100
AcDbEntity
  8
0
  6
CONTINUOUS
 62
     7
100
AcDbVertex
100
AcDb2dVertex
 10
8.9447602785
 20
7.2079549344
 30
0.0
  0
VERTEX
  5
424
330
1E7
100
AcDbEntity
  8
0
  6
CONTINUOUS
 62
     7
100
AcDbVertex
100
AcDb2dVertex
 10
8.9329557816
 20
7.2011403434
 30
0.0
  0
VERTEX
  5
425
330
1E7
100
AcDbEntity
  8
0
  6
CONTINUOUS
 62
     7
100
AcDbVertex
100
AcDb2dVertex
 10
8.9193261119
 20
7.1955754455
 30
0.0
  0
VERTEX
  5
426
330
1E7
100
AcDbEntity
  8
0
  6
CONTINUOUS
 62
     7
100
AcDbVertex
100
AcDb2dVertex
 10
8.9042633704
 20
7.1914203328
 30
0.0
  0
VERTEX
  5
427
330
1E7
100
AcDbEntity
  8
0
  6
CONTINUOUS
 62
     7
100
AcDbVertex
100
AcDb2dVertex
 10
8.8882008845
 20
7.1887945403
 30
0.0
  0
VERTEX
  5
428
330
1E7
100
AcDbEntity
  8
0
  6
CONTINUOUS
 62
     7
100
AcDbVertex
100
AcDb2dVertex
 10
8.8716007429
 20
7.1877736071
 30
0.0
  0
VERTEX
  5
429
330
1E7
100
AcDbEntity
  8
0
  6
CONTINUOUS
 62
     7
100
AcDbVertex
100
AcDb2dVertex
 10
8.8549405012
 20
7.1883869039
 30
0.0
  0
VERTEX
  5
42A
330
1E7
100
AcDbEntity
  8
0
  6
CONTINUOUS
 62
     7
100
AcDbVertex
100
AcDb2dVertex
 10
8.8386994444
 20
7.190616787
 30
0.0
  0
VERTEX
  5
42B
330
1E7
100
AcDbEntity
  8
0
  6
CONTINUOUS
 62
     7
100
AcDbVertex
100
AcDb2dVertex
 10
8.8233447982
 20
7.1943991068
 30
0.0
  0
VERTEX
  5
42C
330
1E7
100
AcDbEntity
  8
0
  6
CONTINUOUS
 62
     7
100
AcDbVertex
100
AcDb2dVertex
 10
8.8093182876
 20
7.1996250529
 30
0.0
  0
VERTEX
  5
42D
330
1E7
100
AcDbEntity
  8
0
  6
CONTINUOUS
 62
     7
100
AcDbVertex
100
AcDb2dVertex
 10
8.7970234299
 20
7.2061442843
 30
0.0
  0
VERTEX
  5
42E
330
1E7
100
AcDbEntity
  8
0
  6
CONTINUOUS
 62
     7
100
AcDbVertex
100
AcDb2dVertex
 10
8.7868139257
 20
7.2137692545
 30
0.0
  0
VERTEX
  5
42F
330
1E7
100
AcDbEntity
  8
0
  6
CONTINUOUS
 62
     7
100
AcDbVertex
100
AcDb2dVertex
 10
8.7789834839
 20
7.2222806072
 30
0.0
  0
VERTEX
  5
430
330
1E7
100
AcDbEntity
  8
0
  6
CONTINUOUS
 62
     7
100
AcDbVertex
100
AcDb2dVertex
 10
8.7737573721
 20
7.2314334861
 30
0.0
  0
VERTEX
  5
431
330
1E7
100
AcDbEntity
  8
0
  6
CONTINUOUS
 62
     7
100
AcDbVertex
100
AcDb2dVertex
 10
8.771285936
 20
7.2409645796
 30
0.0
  0
VERTEX
  5
432
330
1E7
100
AcDbEntity
  8
0
  6
CONTINUOUS
 62
     7
100
AcDbVertex
100
AcDb2dVertex
 10
8.7716402742
 20
7.2505996955
 30
0.0
  0
VERTEX
  5
433
330
1E7
100
AcDbEntity
  8
0
  6
CONTINUOUS
 62
     7
100
AcDbVertex
100
AcDb2dVertex
 10
8.7748101932
 20
7.2600616491
 30
0.0
  0
VERTEX
  5
434
330
1E7
100
AcDbEntity
  8
0
  6
CONTINUOUS
 62
     7
100
AcDbVertex
100
AcDb2dVertex
 10
8.7807045001
 20
7.2690782371
 30
0.0
  0
VERTEX
  5
435
330
1E7
100
AcDbEntity
  8
0
  6
CONTINUOUS
 62
     7
100
AcDbVertex
100
AcDb2dVertex
 10
8.7891536264
 20
7.2773900688
 30
0.0
  0
VERTEX
  5
436
330
1E7
100
AcDbEntity
  8
0
  6
CONTINUOUS
 62
     7
100
AcDbVertex
100
AcDb2dVertex
 10
8.7999145062
 20
7.2847580279
 30
0.0
  0
VERTEX
  5
437
330
1E7
100
AcDbEntity
  8
0
  6
CONTINUOUS
 62
     7
100
AcDbVertex
100
AcDb2dVertex
 10
8.7999145062
 20
7.2847580279
 30
0.0
  0
SEQEND
  5
438
330
1E7
100
AcDbEntity
  8
0
  6
CONTINUOUS
 62
     7
  0
POLYLINE
  5
1E8
330
1F
100
AcDbEntity
  8
0
  6
CONTINUOUS
 62
     7
100
AcDb2dPolyline
 66
     1
 10
0.0
 20
0.0
 30
0.0
  0
VERTEX
  5
439
330
1E8
100
AcDbEntity
  8
0
  6
CONTINUOUS
 62
     7
100
AcDbVertex
100
AcDb2dVertex
 10
8.806985574
 20
7.2888413954
 30
0.0
  0
VERTEX
  5
43A
330
1E8
100
AcDbEntity
  8
0
  6
CONTINUOUS
 62
     7
100
AcDbVertex
100
AcDb2dVertex
 10
8.796825935
 20
7.2818162208
 30
0.0
  0
VERTEX
  5
43B
330
1E8
100
AcDbEntity
  8
0
  6
CONTINUOUS
 62
     7
100
AcDbVertex
100
AcDb2dVertex
 10
8.789002474
 20
7.2738567013
 30
0.0
  0
VERTEX
  5
43C
330
1E8
100
AcDbEntity
  8
0
  6
CONTINUOUS
 62
     7
100
AcDbVertex
100
AcDb2dVertex
 10
8.7837666436
 20
7.2652186623
 30
0.0
  0
VERTEX
  5
43D
330
1E8
100
AcDbEntity
  8
0
  6
CONTINUOUS
 62
     7
100
AcDbVertex
100
AcDb2dVertex
 10
8.7812867276
 20
7.2561797375
 30
0.0
  0
VERTEX
  5
43E
330
1E8
100
AcDbEntity
  8
0
  6
CONTINUOUS
 62
     7
100
AcDbVertex
100
AcDb2dVertex
 10
8.7816424326
 20
7.2470304455
 30
0.0
  0
VERTEX
  5
43F
330
1E8
100
AcDbEntity
  8
0
  6
CONTINUOUS
 62
     7
100
AcDbVertex
100
AcDb2dVertex
 10
8.7848223258
 20
7.2380648519
 30
0.0
  0
VERTEX
  5
440
330
1E8
100
AcDbEntity
  8
0
  6
CONTINUOUS
 62
     7
100
AcDbVertex
100
AcDb2dVertex
 10
8.790724203
 20
7.2295711184
 30
0.0
  0
VERTEX
  5
441
330
1E8
100
AcDbEntity
  8
0
  6
CONTINUOUS
 62
     7
100
AcDbVertex
100
AcDb2dVertex
 10
8.799158373
 20
7.2218222406
 30
0.0
  0
VERTEX
  5
442
330
1E8
100
AcDbEntity
  8
0
  6
CONTINUOUS
 62
     7
100
AcDbVertex
100
AcDb2dVertex
 10
8.8098537545
 20
7.2150672736
 30
0.0
  0
VERTEX
  5
443
330
1E8
100
AcDbEntity
  8
0
  6
CONTINUOUS
 62
     7
100
AcDbVertex
100
AcDb2dVertex
 10
8.8224665892
 20
7.2095233279
 30
0.0
  0
VERTEX
  5
444
330
1E8
100
AcDbEntity
  8
0
  6
CONTINUOUS
 62
     7
100
AcDbVertex
100
AcDb2dVertex
 10
8.8365914903
 20
7.2053685902
 30
0.0
  0
VERTEX
  5
445
330
1E8
100
AcDbEntity
  8
0
  6
CONTINUOUS
 62
     7
100
AcDbVertex
100
AcDb2dVertex
 10
8.8517744717
 20
7.2027365973
 30
0.0
  0
VERTEX
  5
446
330
1E8
100
AcDbEntity
  8
0
  6
CONTINUOUS
 62
     7
100
AcDbVertex
100
AcDb2dVertex
 10
8.8675275401
 20
7.2017119436
 30
0.0
  0
VERTEX
  5
447
330
1E8
100
AcDbEntity
  8
0
  6
CONTINUOUS
 62
     7
100
AcDbVertex
100
AcDb2dVertex
 10
8.8833443787
 20
7.2023275624
 30
0.0
  0
VERTEX
  5
448
330
1E8
100
AcDbEntity
  8
0
  6
CONTINUOUS
 62
     7
100
AcDbVertex
100
AcDb2dVertex
 10
8.8987166214
 20
7.2045636671
 30
0.0
  0
VERTEX
  5
449
330
1E8
100
AcDbEntity
  8
0
  6
CONTINUOUS
 62
     7
100
AcDbVertex
100
AcDb2dVertex
 10
8.9131501917
 20
7.2083483875
 30
0.0
  0
VERTEX
  5
44A
330
1E8
100
AcDbEntity
  8
0
  6
CONTINUOUS
 62
     7
100
AcDbVertex
100
AcDb2dVertex
 10
8.9261811826
 20
7.2135600796
 30
0.0
  0
VERTEX
  5
44B
330
1E8
100
AcDbEntity
  8
0
  6
CONTINUOUS
 62
     7
100
AcDbVertex
100
AcDb2dVertex
 10
8.9373907676
 20
7.2200312352
 30
0.0
  0
VERTEX
  5
44C
330
1E8
100
AcDbEntity
  8
0
  6
CONTINUOUS
 62
     7
100
AcDbVertex
100
AcDb2dVertex
 10
8.9464186612
 20
7.2275538662
 30
0.0
  0
VERTEX
  5
44D
330
1E8
100
AcDbEntity
  8
0
  6
CONTINUOUS
 62
     7
100
AcDbVertex
100
AcDb2dVertex
 10
8.9529746996
 20
7.2358861889
 30
0.0
  0
VERTEX
  5
44E
330
1E8
100
AcDbEntity
  8
0
  6
CONTINUOUS
 62
     7
100
AcDbVertex
100
AcDb2dVertex
 10
8.9568481663
 20
7.2447603958
 30
0.0
  0
VERTEX
  5
44F
330
1E8
100
AcDbEntity
  8
0
  6
CONTINUOUS
 62
     7
100
AcDbVertex
100
AcDb2dVertex
 10
8.9579145648
 20
7.2538912623
 30
0.0
  0
VERTEX
  5
450
330
1E8
100
AcDbEntity
  8
0
  6
CONTINUOUS
 62
     7
100
AcDbVertex
100
AcDb2dVertex
 10
8.9561396203
 20
7.2629853151
 30
0.0
  0
VERTEX
  5
451
330
1E8
100
AcDbEntity
  8
0
  6
CONTINUOUS
 62
     7
100
AcDbVertex
100
AcDb2dVertex
 10
8.9515803809
 20
7.2717502637
 30
0.0
  0
VERTEX
  5
452
330
1E8
100
AcDbEntity
  8
0
  6
CONTINUOUS
 62
     7
100
AcDbVertex
100
AcDb2dVertex
 10
8.9443833843
 20
7.2799043956
 30
0.0
  0
VERTEX
  5
453
330
1E8
100
AcDbEntity
  8
0
  6
CONTINUOUS
 62
     7
100
AcDbVertex
100
AcDb2dVertex
 10
8.934779948
 20
7.2871856301
 30
0.0
  0
VERTEX
  5
454
330
1E8
100
AcDbEntity
  8
0
  6
CONTINUOUS
 62
     7
100
AcDbVertex
100
AcDb2dVertex
 10
8.9230787342
 20
7.2933599424
 30
0.0
  0
VERTEX
  5
455
330
1E8
100
AcDbEntity
  8
0
  6
CONTINUOUS
 62
     7
100
AcDbVertex
100
AcDb2dVertex
 10
8.9096558296
 20
7.2982288851
 30
0.0
  0
VERTEX
  5
456
330
1E8
100
AcDbEntity
  8
0
  6
CONTINUOUS
 62
     7
100
AcDbVertex
100
AcDb2dVertex
 10
8.8949426575
 20
7.3016359662
 30
0.0
  0
VERTEX
  5
457
330
1E8
100
AcDbEntity
  8
0
  6
CONTINUOUS
 62
     7
100
AcDbVertex
100
AcDb2dVertex
 10
8.8794121112
 20
7.3034716796
 30
0.0
  0
VERTEX
  5
458
330
1E8
100
AcDbEntity
  8
0
  6
CONTINUOUS
 62
     7
100
AcDbVertex
100
AcDb2dVertex
 10
8.8635633553
 20
7.3036770237
 30
0.0
  0
VERTEX
  5
459
330
1E8
100
AcDbEntity
  8
0
  6
CONTINUOUS
 62
     7
100
AcDbVertex
100
AcDb2dVertex
 10
8.8479057818
 20
7.3022453986
 30
0.0
  0
VERTEX
  5
45A
330
1E8
100
AcDbEntity
  8
0
  6
CONTINUOUS
 62
     7
100
AcDbVertex
100
AcDb2dVertex
 10
8.8329426381
 20
7.2992228181
 30
0.0
  0
VERTEX
  5
45B
330
1E8
100
AcDbEntity
  8
0
  6
CONTINUOUS
 62
     7
100
AcDbVertex
100
AcDb2dVertex
 10
8.8191548519
 20
7.2947064302
 30
0.0
  0
VERTEX
  5
45C
330
1E8
100
AcDbEntity
  8
0
  6
CONTINUOUS
 62
     7
100
AcDbVertex
100
AcDb2dVertex
 10
8.806985574
 20
7.2888413954
 30
0.0
  0
SEQEND
  5
45D
330
1E8
100
AcDbEntity
  8
0
  6
CONTINUOUS
 62
     7
  0
LINE
  5
1E9
330
1F
100
AcDbEntity
  8
0
  6
CONTINUOUS
 62
     7
100
AcDbLine
 10
8.9202403472
 20
7.2820309363
 30
0.0
 11
8.8509436313
 21
7.292750014
 31
0.0
  0
LINE
  5
1EA
330
1F
100
AcDbEntity
  8
0
  6
CONTINUOUS
 62
     7
100
AcDbLine
 10
8.8509436313
 20
7.292750014
 30
0.0
 11
8.8002149144
 21
7.2634649491
 31
0.0
  0
LINE
  5
1EB
330
1F
100
AcDbEntity
  8
0
  6
CONTINUOUS
 62
     7
100
AcDbLine
 10
8.8002149144
 20
7.2634649491
 30
0.0
 11
8.8187829135
 21
7.2234608065
 31
0.0
  0
LINE
  5
1EC
330
1F
100
AcDbEntity
  8
0
  6
CONTINUOUS
 62
     7
100
AcDbLine
 10
8.8187829135
 20
7.2234608065
 30
0.0
 11
8.8880796294
 21
7.2127417288
 31
0.0
  0
LINE
  5
1ED
330
1F
100
AcDbEntity
  8
0
  6
CONTINUOUS
 62
     7
100
AcDbLine
 10
8.8880796294
 20
7.2127417288
 30
0.0
 11
8.9388083462
 21
7.2420267937
 31
0.0
  0
LINE
  5
1EE
330
1F
100
AcDbEntity
  8
0
  6
CONTINUOUS
 62
     7
100
AcDbLine
 10
8.9388083462
 20
7.2420267937
 30
0.0
 11
8.9202403472
 21
7.2820309363
 31
0.0
  0
LINE
  5
1EF
330
1F
100
AcDbEntity
  8
0
  6
CONTINUOUS
 62
     7
100
AcDbLine
 10
8.8509436313
 20
7.2519229734
 30
0.0
 11
8.8151602678
 21
7.2312656774
 31
0.0
  0
LINE
  5
1F0
330
1F
100
AcDbEntity
  8
0
  6
CONTINUOUS
 62
     7
100
AcDbLine
 10
8.9202403472
 20
7.2412038957
 30
0.0
 11
8.8509436313
 21
7.2519229734
 31
0.0
  0
LINE
  5
1F1
330
1F
100
AcDbEntity
  8
0
  6
CONTINUOUS
 62
     7
100
AcDbLine
 10
8.9238629929
 20
7.2333990249
 30
0.0
 11
8.9202403472
 21
7.2412038957
 31
0.0
  0
LINE
  5
1F2
330
1F
100
AcDbEntity
  8
0
  6
CONTINUOUS
 62
     7
100
AcDbLine
 10
8.9202403472
 20
7.2412038957
 30
0.0
 11
8.9202403472
 21
7.2820309363
 31
0.0
  0
LINE
  5
1F3
330
1F
100
AcDbEntity
  8
0
  6
CONTINUOUS
 62
     7
100
AcDbLine
 10
8.8509436313
 20
7.2519229734
 30
0.0
 11
8.8509436313
 21
7.292750014
 31
0.0
  0
ENDSEC
  0
SECTION
  2
OBJECTS
  0
DICTIONARY
  5
C
330
0
100
AcDbDictionary
  3
ACAD_GROUP
350
D
  3
ACAD_LAYOUT
350
1A
  3
ACAD_MLEADERSTYLE
350
1F6
  3
ACAD_MLINESTYLE
350
17
  3
ACAD_PLOTSETTINGS
350
19
  3
ACAD_SCALELIST
350
6F
  3
ACAD_VISUALSTYLE
350
2A
  3
ACDBVARIABLEDICTIONARY
350
1F4
1001
ACAD
1000
TREAT_AS_HARD
1070
     0
  0
DICTIONARY
  5
D
102
{ACAD_REACTORS
330
C
102
}
330
C
100
AcDbDictionary
1001
ACAD
1000
TREAT_AS_HARD
1070
     0
  0
DICTIONARY
  5
1A
102
{ACAD_REACTORS
330
C
102
}
330
C
100
AcDbDictionary
1001
ACAD
1000
TREAT_AS_HARD
1070
     0
  0
DICTIONARY
  5
1F6
102
{ACAD_REACTORS
330
C
102
}
330
C
100
AcDbDictionary
1001
ACAD
1000
TREAT_AS_HARD
1070
     0
  0
DICTIONARY
  5
17
102
{ACAD_REACTORS
330
C
102
}
330
C
100
AcDbDictionary
  3
STANDARD
350
18
1001
ACAD
1000
TREAT_AS_HARD
1070
     0
  0
DICTIONARY
  5
19
102
{ACAD_REACTORS
330
C
102
}
330
C
100
AcDbDictionary
1001
ACAD
1000
TREAT_AS_HARD
1070
     0
  0
DICTIONARY
  5
6F
102
{ACAD_REACTORS
330
C
102
}
330
C
100
AcDbDictionary
  3
A0
350
70
  3
A1
350
71
  3
A2
350
72
  3
A3
350
73
  3
A4
350
74
  3
A5
350
75
  3
A6
350
76
  3
A7
350
77
  3
A8
350
78
  3
A9
350
79
  3
B0
350
7A
  3
B1
350
7B
  3
B2
350
7C
  3
B3
350
7D
  3
B4
350
7E
  3
B5
350
7F
  3
B6
350
80
  3
B7
350
81
  3
B8
350
82
  3
B9
350
83
  3
C0
350
84
  3
C1
350
85
  3
C2
350
86
  3
C3
350
87
  3
C4
350
88
  3
C5
350
89
  3
C6
350
8A
  3
C7
350
8B
  3
C8
350
8C
  3
C9
350
8D
  3
D0
350
8E
  3
D1
350
8F
  3
D2
350
90
1001
ACAD
1000
TREAT_AS_HARD
1070
     0
  0
DICTIONARY
  5
2A
102
{ACAD_REACTORS
330
C
102
}
330
C
100
AcDbDictionary
  3
2DWIREFRAME
350
2F
  3
3D_HIDDEN
350
31
  3
3DWIREFRAME
350
30
  3
BASIC
350
32
  3
BRIGHTEN
350
36
  3
COLORCHANGE
350
3A
  3
CONCEPTUAL
350
34
  3
DIM
350
35
  3
FACEPATTERN
350
39
  3
FLAT
350
2B
  3
FLATWITHEDGES
350
2C
  3
GOURAUD
350
2D
  3
GOURAUDWITHEDGES
350
2E
  3
LINEPATTERN
350
38
  3
REALISTIC
350
33
  3
THICKEN
350
37
1001
ACAD
1000
TREAT_AS_HARD
1070
     0
  0
DICTIONARY
  5
1F4
102
{ACAD_REACTORS
330
C
102
}
330
C
100
AcDbDictionary
  3
CANNOSCALE
350
1F7
  3
DIMASSOC
350
1F8
  3
HIDETEXT
350
1F9
1001
ACAD
1000
TREAT_AS_HARD
1070
     0
  0
MLINESTYLE
  5
18
102
{ACAD_REACTORS
330
17
102
}
330
17
100
AcDbMlineStyle
  2
Standard
 70
     0
  3

 62
   256
 51
90.0
 52
90.0
 71
     2
 49
0.5
 62
   256
  6
BYLAYER
 49
-0.5
 62
   256
  6
BYLAYER
  0
ACAD_PROXY_OBJECT
  5
70
102
{ACAD_REACTORS
330
6F
102
}
330
6F
100
AcDbZombieObject
 90
      499
 91
      502
 93
       41
310
903313A31580
  0
ACAD_PROXY_OBJECT
  5
71
102
{ACAD_REACTORS
330
6F
102
}
330
6F
100
AcDbZombieObject
 90
      499
 91
      502
 93
      105
310
903313A324000000000000004000
  0
ACAD_PROXY_OBJECT
  5
72
102
{ACAD_REACTORS
330
6F
102
}
330
6F
100
AcDbZombieObject
 90
      499
 91
      502
 93
      105
310
903313A344000000000000104000
  0
ACAD_PROXY_OBJECT
  5
73
102
{ACAD_REACTORS
330
6F
102
}
330
6F
100
AcDbZombieObject
 90
      499
 91
      502
 93
      105
310
903313A354000000000000144000
  0
ACAD_PROXY_OBJECT
  5
74
102
{ACAD_REACTORS
330
6F
102
}
330
6F
100
AcDbZombieObject
 90
      499
 91
      502
 93
      105
310
903313A384000000000000204000
  0
ACAD_PROXY_OBJECT
  5
75
102
{ACAD_REACTORS
330
6F
102
}
330
6F
100
AcDbZombieObject
 90
      499
 91
      502
 93
      113
310
904313A31304000000000000244000
  0
ACAD_PROXY_OBJECT
  5
76
102
{ACAD_REACTORS
330
6F
102
}
330
6F
100
AcDbZombieObject
 90
      499
 91
      502
 93
      113
310
904313A31364000000000000304000
  0
ACAD_PROXY_OBJECT
  5
77
102
{ACAD_REACTORS
330
6F
102
}
330
6F
100
AcDbZombieObject
 90
      499
 91
      502
 93
      113
310
904313A32304000000000000344000
  0
ACAD_PROXY_OBJECT
  5
78
102
{ACAD_REACTORS
330
6F
102
}
330
6F
100
AcDbZombieObject
 90
      499
 91
      502
 93
      113
310
904313A333040000000000003E4000
  0
ACAD_PROXY_OBJECT
  5
79
102
{ACAD_REACTORS
330
6F
102
}
330
6F
100
AcDbZombieObject
 90
      499
 91
      502
 93
      113
310
904313A34304000000000000444000
  0
ACAD_PROXY_OBJECT
  5
7A
102
{ACAD_REACTORS
330
6F
102
}
330
6F
100
AcDbZombieObject
 90
      499
 91
      502
 93
      113
310
904313A35304000000000000494000
  0
ACAD_PROXY_OBJECT
  5
7B
102
{ACAD_REACTORS
330
6F
102
}
330
6F
100
AcDbZombieObject
 90
      499
 91
      502
 93
      121
310
905313A3130304000000000000594000
  0
ACAD_PROXY_OBJECT
  5
7C
102
{ACAD_REACTORS
330
6F
102
}
330
6F
100
AcDbZombieObject
 90
      499
 91
      502
 93
      105
310
903323A310000000000000010100
  0
ACAD_PROXY_OBJECT
  5
7D
102
{ACAD_REACTORS
330
6F
102
}
330
6F
100
AcDbZombieObject
 90
      499
 91
      502
 93
      105
310
903343A310000000000000410100
  0
ACAD_PROXY_OBJECT
  5
7E
102
{ACAD_REACTORS
330
6F
102
}
330
6F
100
AcDbZombieObject
 90
      499
 91
      502
 93
      105
310
903383A310000000000000810100
  0
ACAD_PROXY_OBJECT
  5
7F
102
{ACAD_REACTORS
330
6F
102
}
330
6F
100
AcDbZombieObject
 90
      499
 91
      502
 93
      113
310
90431303A310000000000000910100
  0
ACAD_PROXY_OBJECT
  5
80
102
{ACAD_REACTORS
330
6F
102
}
330
6F
100
AcDbZombieObject
 90
      499
 91
      502
 93
      121
310
9053130303A310000000000001650100
  0
ACAD_PROXY_OBJECT
  5
81
102
{ACAD_REACTORS
330
6F
102
}
330
6F
100
AcDbZombieObject
 90
      499
 91
      502
 93
      257
310
90E312F31323822203D2031272D3022000000000000200FC000000000000284000
  0
ACAD_PROXY_OBJECT
  5
82
102
{ACAD_REACTORS
330
6F
102
}
330
6F
100
AcDbZombieObject
 90
      499
 91
      502
 93
      249
310
90D312F363422203D2031272D3022000000000000240FC000000000000284000
  0
ACAD_PROXY_OBJECT
  5
83
102
{ACAD_REACTORS
330
6F
102
}
330
6F
100
AcDbZombieObject
 90
      499
 91
      502
 93
      249
310
90D312F333222203D2031272D3022000000000000280FC000000000000284000
  0
ACAD_PROXY_OBJECT
  5
84
102
{ACAD_REACTORS
330
6F
102
}
330
6F
100
AcDbZombieObject
 90
      499
 91
      502
 93
      249
310
90D312F313622203D2031272D30220000000000002C0FC000000000000284000
  0
ACAD_PROXY_OBJECT
  5
85
102
{ACAD_REACTORS
330
6F
102
}
330
6F
100
AcDbZombieObject
 90
      499
 91
      502
 93
      249
310
90D332F333222203D2031272D30220000000000002E0FC000000000000284000
  0
ACAD_PROXY_OBJECT
  5
86
102
{ACAD_REACTORS
330
6F
102
}
330
6F
100
AcDbZombieObject
 90
      499
 91
      502
 93
      241
310
90C312F3822203D2031272D3022000000000000300FC000000000000284000
  0
ACAD_PROXY_OBJECT
  5
87
102
{ACAD_REACTORS
330
6F
102
}
330
6F
100
AcDbZombieObject
 90
      499
 91
      502
 93
      249
310
90D332F313622203D2031272D3022000000000000320FC000000000000284000
  0
ACAD_PROXY_OBJECT
  5
88
102
{ACAD_REACTORS
330
6F
102
}
330
6F
100
AcDbZombieObject
 90
      499
 91
      502
 93
      241
310
90C312F3422203D2031272D3022000000000000340FC000000000000284000
  0
ACAD_PROXY_OBJECT
  5
89
102
{ACAD_REACTORS
330
6F
102
}
330
6F
100
AcDbZombieObject
 90
      499
 91
      502
 93
      241
310
90C332F3822203D2031272D3022000000000000360FC000000000000284000
  0
ACAD_PROXY_OBJECT
  5
8A
102
{ACAD_REACTORS
330
6F
102
}
330
6F
100
AcDbZombieObject
 90
      499
 91
      502
 93
      241
310
90C312F3222203D2031272D3022000000000000380FC000000000000284000
  0
ACAD_PROXY_OBJECT
  5
8B
102
{ACAD_REACTORS
330
6F
102
}
330
6F
100
AcDbZombieObject
 90
      499
 91
      502
 93
      241
310
90C332F3422203D2031272D30220000000000003A0FC000000000000284000
  0
ACAD_PROXY_OBJECT
  5
8C
102
{ACAD_REACTORS
330
6F
102
}
330
6F
100
AcDbZombieObject
 90
      499
 91
      502
 93
      161
310
90A3122203D2031272D30224000000000000284000
  0
ACAD_PROXY_OBJECT
  5
8D
102
{ACAD_REACTORS
330
6F
102
}
330
6F
100
AcDbZombieObject
 90
      499
 91
      502
 93
      257
310
90E312D312F3222203D2031272D30220000000000003E0FC000000000000284000
  0
ACAD_PROXY_OBJECT
  5
8E
102
{ACAD_REACTORS
330
6F
102
}
330
6F
100
AcDbZombieObject
 90
      499
 91
      502
 93
      225
310
90A3322203D2031272D302200000000000002100000000000000284000
  0
ACAD_PROXY_OBJECT
  5
8F
102
{ACAD_REACTORS
330
6F
102
}
330
6F
100
AcDbZombieObject
 90
      499
 91
      502
 93
      225
310
90A3622203D2031272D302200000000000006100000000000000284000
  0
ACAD_PROXY_OBJECT
  5
90
102
{ACAD_REACTORS
330
6F
102
}
330
6F
100
AcDbZombieObject
 90
      499
 91
      502
 93
      249
310
90D31272D3022203D2031272D30220000000000000A100000000000000284000
  0
ACAD_PROXY_OBJECT
  5
2F
102
{ACAD_REACTORS
330
2A
102
}
330
2A
100
AcDbZombieObject
 90
      499
 91
      501
 93
      436
310
42CC9915DA5C99599C985B595049028333333333333E3BF0000000000000FB0107901411070040501600405405064090741402480A0340
1001
ACAD
1000
AcDbSavedByObjectVersion
1070
     0
  0
ACAD_PROXY_OBJECT
  5
31
102
{ACAD_REACTORS
330
2A
102
}
330
2A
100
AcDbZombieObject
 90
      499
 91
      501
 93
      500
310
424CD108121A5919195B90640502408333333333333E3BF0000000000000FB01079024090700405020000000000001110200405405064090740C02480A0340
1001
ACAD
1000
AcDbSavedByObjectVersion
1070
     0
  0
ACAD_PROXY_OBJECT
  5
30
102
{ACAD_REACTORS
330
2A
102
}
330
2A
100
AcDbZombieObject
 90
      499
 91
      501
 93
      436
310
42CCD915DA5C99599C985B595059028333333333333E3BF0000000000000FB0107901411070040501600405405064090741402480A0340
1001
ACAD
1000
AcDbSavedByObjectVersion
1070
     0
  0
ACAD_PROXY_OBJECT
  5
32
102
{ACAD_REACTORS
330
2A
102
}
330
2A
100
AcDbZombieObject
 90
      499
 91
      501
 93
      388
310
4150985CDA58D07406404333333333333E3BF0000000000000FB0107A41107004050150841D405064090741402480A0350
1001
ACAD
1000
AcDbSavedByObjectVersion
1070
     0
  0
ACAD_PROXY_OBJECT
  5
36
102
{ACAD_REACTORS
330
2A
102
}
330
2A
100
AcDbZombieObject
 90
      499
 91
      501
 93
      428
310
42109C9A59DA1D195B90C409028333333333333E3BF0000000000000FB010790141107004050150841D405064090741402480A029950
1001
ACAD
1000
AcDbSavedByObjectVersion
1070
     0
  0
ACAD_PROXY_OBJECT
  5
3A
102
{ACAD_REACTORS
330
2A
102
}
330
2A
100
AcDbZombieObject
 90
      499
 91
      501
 93
      452
310
42D0DBDB1BDC90DA185B99D95104090240C333333333333E3BF0000000000000FB0108901411070040501508421405064090741402480A0350
1001
ACAD
1000
AcDbSavedByObjectVersion
1070
     0
  0
ACAD_PROXY_OBJECT
  5
34
102
{ACAD_REACTORS
330
2A
102
}
330
2A
100
AcDbZombieObject
 90
      499
 91
      501
 93
      500
310
4290DBDB98D95C1D1D585B10940D028333333333333E3BF0000000000000FB0107902409070040501000000000000111010841D405064090740C02480A0340
1001
ACAD
1000
AcDbSavedByObjectVersion
1070
     0
  0
ACAD_PROXY_OBJECT
  5
35
102
{ACAD_REACTORS
330
2A
102
}
330
2A
100
AcDbZombieObject
 90
      499
 91
      501
 93
      412
310
40D11A5B50B409028333333333333E3BF0000000000000FB010790141107004050150841D405064090741402480A02677FFFFFD0
1001
ACAD
1000
AcDbSavedByObjectVersion
1070
     0
  0
ACAD_PROXY_OBJECT
  5
39
102
{ACAD_REACTORS
330
2A
102
}
330
2A
100
AcDbZombieObject
 90
      499
 91
      501
 93
      444
310
42D19858D95C185D1D195C9B90F409028333333333333E3BF0000000000000FB010790141107004050150841D405064090741402480A0350
1001
ACAD
1000
AcDbSavedByObjectVersion
1070
     0
  0
ACAD_PROXY_OBJECT
  5
2B
102
{ACAD_REACTORS
330
2A
102
}
330
2A
100
AcDbZombieObject
 90
      499
 91
      501
 93
      388
310
41119B185D240901404333333333333E3BF0000000000000F9010740A41107004050150841D405064090741402480A1B50
1001
ACAD
1000
AcDbSavedByObjectVersion
1070
     0
  0
ACAD_PROXY_OBJECT
  5
2C
102
{ACAD_REACTORS
330
2A
102
}
330
2A
100
AcDbZombieObject
 90
      499
 91
      501
 93
      476
310
43519B185D15DA5D1A115919D95CD0140901404333333333333E3BF0000000000000F9010740901411070040501600405405064090741402480A1B50
1001
ACAD
1000
AcDbSavedByObjectVersion
1070
     0
  0
ACAD_PROXY_OBJECT
  5
2D
102
{ACAD_REACTORS
330
2A
102
}
330
2A
100
AcDbZombieObject
 90
      499
 91
      501
 93
      412
310
41D1DBDD5C985D5910240902404333333333333E3BF0000000000000F9010740A411070040501641D405064090741402480A1B50
1001
ACAD
1000
AcDbSavedByObjectVersion
1070
     0
  0
ACAD_PROXY_OBJECT
  5
2E
102
{ACAD_REACTORS
330
2A
102
}
330
2A
100
AcDbZombieObject
 90
      499
 91
      501
 93
      500
310
4411DBDD5C985D5915DA5D1A115919D95CD0340902404333333333333E3BF0000000000000F9010740901411070040501600405405064090741402480A1B50
1001
ACAD
1000
AcDbSavedByObjectVersion
1070
     0
  0
ACAD_PROXY_OBJECT
  5
38
102
{ACAD_REACTORS
330
2A
102
}
330
2A
100
AcDbZombieObject
 90
      499
 91
      501
 93
      444
310
42D31A5B995C185D1D195C9B90E409028333333333333E3BF0000000000000FB010790141107004050750841D405064090741402483A0350
1001
ACAD
1000
AcDbSavedByObjectVersion
1070
     0
  0
ACAD_PROXY_OBJECT
  5
33
102
{ACAD_REACTORS
330
2A
102
}
330
2A
100
AcDbZombieObject
 90
      499
 91
      501
 93
      420
310
425499585B1A5CDD1A58D08409028333333333333E3BF0000000000000FB01079019070040501508421405064090741402480A1B40
1001
ACAD
1000
AcDbSavedByObjectVersion
1070
     0
  0
ACAD_PROXY_OBJECT
  5
37
102
{ACAD_REACTORS
330
2A
102
}
330
2A
100
AcDbZombieObject
 90
      499
 91
      501
 93
      412
310
41D51A1A58DAD95B90D409028333333333333E3BF0000000000000FB010790141107004050150C41D405064090741402480A0350
1001
ACAD
1000
AcDbSavedByObjectVersion
1070
     0
  0
DICTIONARYVAR
  5
1F7
102
{ACAD_REACTORS
330
1F4
102
}
330
1F4
100
DictionaryVariables
280
     0
  1
1:1
  0
DICTIONARYVAR
  5
1F8
102
{ACAD_REACTORS
330
1F4
102
}
330
1F4
100
DictionaryVariables
280
     0
  1
2
  0
DICTIONARYVAR
  5
1F9
102
{ACAD_REACTORS
330
1F4
102
}
330
1F4
100
DictionaryVariables
280
     0
  1
1
  0
ENDSEC
  0
EOF
