  0
SECTION
  2
HEADER
  9
$ACADVER
  1
AC1012
  9
$DWGCODEPAGE
  3
ansi_1252
  9
$INSBASE
 10
0.0
 20
0.0
 30
0.0
  9
$EXTMIN
 10
0.0
 20
0.0
 30
0.0
  9
$EXTMAX
 10
11.0
 20
8.5
 30
0.0
  9
$LIMMIN
 10
0.0
 20
0.0
  9
$LIMMAX
 10
11.0
 20
8.5
  9
$ORTHOMODE
 70
     0
  9
$REGENMODE
 70
     1
  9
$FILLMODE
 70
     1
  9
$QTEXTMODE
 70
     0
  9
$MIRRTEXT
 70
     1
  9
$DRAGMODE
 70
     2
  9
$LTSCALE
 40
1.0
  9
$OSMODE
 70
    37
  9
$ATTMODE
 70
     1
  9
$TEXTSIZE
 40
0.125
  9
$TRACEWID
 40
0.05
  9
$TEXTSTYLE
  7
STANDARD
  9
$CLAYER
  8
0
  9
$CELTYPE
  6
BYLAYER
  9
$CECOLOR
 62
   256
  9
$CELTSCALE
 40
1.0
  9
$DELOBJ
 70
     1
  9
$DISPSILH
 70
     0
  9
$DIMSCALE
 40
1.0
  9
$DIMASZ
 40
0.13
  9
$DIMEXO
 40
0.05
  9
$DIMDLI
 40
0.38
  9
$DIMRND
 40
0.0
  9
$DIMDLE
 40
0.0
  9
$DIMEXE
 40
0.125
  9
$DIMTP
 40
0.0
  9
$DIMTM
 40
0.0
  9
$DIMTXT
 40
0.125
  9
$DIMCEN
 40
0.09
  9
$DIMTSZ
 40
0.0
  9
$DIMTOL
 70
     0
  9
$DIMLIM
 70
     0
  9
$DIMTIH
 70
     1
  9
$DIMTOH
 70
     1
  9
$DIMSE1
 70
     0
  9
$DIMSE2
 70
     0
  9
$DIMTAD
 70
     0
  9
$DIMZIN
 70
     0
  9
$DIMBLK
  1

  9
$DIMASO
 70
     1
  9
$DIMSHO
 70
     1
  9
$DIMPOST
  1

  9
$DIMAPOST
  1

  9
$DIMALT
 70
     0
  9
$DIMALTD
 70
     2
  9
$DIMALTF
 40
25.4
  9
$DIMLFAC
 40
1.0
  9
$DIMTOFL
 70
     0
  9
$DIMTVP
 40
0.0
  9
$DIMTIX
 70
     0
  9
$DIMSOXD
 70
     0
  9
$DIMSAH
 70
     0
  9
$DIMBLK1
  1

  9
$DIMBLK2
  1

  9
$DIMSTYLE
  2
STANDARD
  9
$DIMCLRD
 70
     0
  9
$DIMCLRE
 70
     0
  9
$DIMCLRT
 70
     0
  9
$DIMTFAC
 40
1.0
  9
$DIMGAP
 40
0.06
  9
$DIMJUST
 70
     0
  9
$DIMSD1
 70
     0
  9
$DIMSD2
 70
     0
  9
$DIMTOLJ
 70
     1
  9
$DIMTZIN
 70
     0
  9
$DIMALTZ
 70
     0
  9
$DIMALTTZ
 70
     0
  9
$DIMFIT
 70
     3
  9
$DIMUPT
 70
     0
  9
$DIMUNIT
 70
     2
  9
$DIMDEC
 70
     3
  9
$DIMTDEC
 70
     3
  9
$DIMALTU
 70
     2
  9
$DIMALTTD
 70
     2
  9
$DIMTXSTY
  7
STANDARD
  9
$DIMAUNIT
 70
     0
  9
$LUNITS
 70
     2
  9
$LUPREC
 70
     2
  9
$SKETCHINC
 40
0.1
  9
$FILLETRAD
 40
0.5
  9
$AUNITS
 70
     0
  9
$AUPREC
 70
     2
  9
$MENU
  1
.
  9
$ELEVATION
 40
0.0
  9
$PELEVATION
 40
0.0
  9
$THICKNESS
 40
0.0
  9
$LIMCHECK
 70
     0
  9
$CHAMFERA
 40
0.5
  9
$CHAMFERB
 40
0.5
  9
$CHAMFERC
 40
1.0
  9
$CHAMFERD
 40
0.0
  9
$SKPOLY
 70
     0
  9
$TDCREATE
 40
2455784.027583854
  9
$TDUPDATE
 40
2455784.027583866
  9
$TDINDWG
 40
0.0000000116
  9
$TDUSRTIMER
 40
0.0000000116
  9
$USRTIMER
 70
     1
  9
$ANGBASE
 50
0.0
  9
$ANGDIR
 70
     0
  9
$PDMODE
 70
     0
  9
$PDSIZE
 40
-1.0
  9
$PLINEWID
 40
0.0
  9
$COORDS
 70
     1
  9
$SPLFRAME
 70
     0
  9
$SPLINETYPE
 70
     6
  9
$SPLINESEGS
 70
     8
  9
$ATTDIA
 70
     0
  9
$ATTREQ
 70
     1
  9
$HANDLING
 70
     1
  9
$HANDSEED
  5
434
  9
$SURFTAB1
 70
     6
  9
$SURFTAB2
 70
     6
  9
$SURFTYPE
 70
     6
  9
$SURFU
 70
     6
  9
$SURFV
 70
     6
  9
$UCSNAME
  2

  9
$UCSORG
 10
0.0
 20
0.0
 30
0.0
  9
$UCSXDIR
 10
1.0
 20
0.0
 30
0.0
  9
$UCSYDIR
 10
0.0
 20
1.0
 30
0.0
  9
$PUCSNAME
  2

  9
$PUCSORG
 10
0.0
 20
0.0
 30
0.0
  9
$PUCSXDIR
 10
1.0
 20
0.0
 30
0.0
  9
$PUCSYDIR
 10
0.0
 20
1.0
 30
0.0
  9
$USERI1
 70
     0
  9
$USERI2
 70
     0
  9
$USERI3
 70
     0
  9
$USERI4
 70
     0
  9
$USERI5
 70
     0
  9
$USERR1
 40
0.0
  9
$USERR2
 40
0.0
  9
$USERR3
 40
0.0
  9
$USERR4
 40
0.0
  9
$USERR5
 40
0.0
  9
$WORLDVIEW
 70
     1
  9
$SHADEDGE
 70
     3
  9
$SHADEDIF
 70
    70
  9
$TILEMODE
 70
     1
  9
$MAXACTVP
 70
    64
  9
$PINSBASE
 10
0.0
 20
0.0
 30
0.0
  9
$PLIMCHECK
 70
     0
  9
$PEXTMIN
 10
1.0000000000E+20
 20
1.0000000000E+20
 30
1.0000000000E+20
  9
$PEXTMAX
 10
-1.0000000000E+20
 20
-1.0000000000E+20
 30
-1.0000000000E+20
  9
$PLIMMIN
 10
0.0
 20
0.0
  9
$PLIMMAX
 10
12.0
 20
9.0
  9
$UNITMODE
 70
     0
  9
$VISRETAIN
 70
     1
  9
$PLINEGEN
 70
     0
  9
$PSLTSCALE
 70
     1
  9
$TREEDEPTH
 70
  3020
  9
$PICKSTYLE
 70
     1
  9
$CMLSTYLE
  2
STANDARD
  9
$CMLJUST
 70
     0
  9
$CMLSCALE
 40
1.0
  9
$SAVEIMAGES
 70
     1
  0
ENDSEC
  0
SECTION
  2
CLASSES
  0
CLASS
  1
ACDBDICTIONARYWDFLT
  2
AcDbDictionaryWithDefault
  3
ObjectDBX Classes
 90
    32768
280
     0
281
     0
  0
CLASS
  1
VISUALSTYLE
  2
AcDbVisualStyle
  3
ObjectDBX Classes
 90
     4095
280
     0
281
     0
  0
CLASS
  1
SCALE
  2
AcDbScale
  3
ObjectDBX Classes
 90
     1153
280
     0
281
     0
  0
CLASS
  1
DICTIONARYVAR
  2
AcDbDictionaryVar
  3
ObjectDBX Classes
 90
        0
280
     0
281
     0
  0
CLASS
  1
XRECORD
  2
AcDbXrecord
  3
AutoCAD 2000
 90
    32768
280
     0
281
     0
  0
CLASS
  1
LWPOLYLINE
  2
AcDbPolyline
  3
AutoCAD 2000
 90
    32768
280
     0
281
     1
  0
CLASS
  1
HATCH
  2
AcDbHatch
  3
AutoCAD 2000
 90
    32768
280
     0
281
     1
  0
CLASS
  1
ACDBPLACEHOLDER
  2
AcDbPlaceHolder
  3
ObjectDBX Classes
 90
        0
280
     0
281
     0
  0
CLASS
  1
LAYOUT
  2
AcDbLayout
  3
ObjectDBX Classes
 90
        0
280
     0
281
     0
  0
ENDSEC
  0
SECTION
  2
TABLES
  0
TABLE
  2
VPORT
  5
8
330
0
100
AcDbSymbolTable
 70
     1
  0
VPORT
  5
29
330
8
100
AcDbSymbolTableRecord
100
AcDbViewportTableRecord
  2
*ACTIVE
 70
     0
 10
0.0
 20
0.0
 11
1.0
 21
1.0
 12
5.5
 22
4.25
 13
0.0
 23
0.0
 14
0.5
 24
0.5
 15
0.5
 25
0.5
 16
0.0
 26
0.0
 36
1.0
 17
0.0
 27
0.0
 37
0.0
 40
8.5
 41
1.2941176471
 42
50.0
 43
0.0
 44
0.0
 50
0.0
 51
0.0
 71
     0
 72
  2000
 73
     1
 74
     3
 75
     0
 76
     0
 77
     0
 78
     0
  0
ENDTAB
  0
TABLE
  2
LTYPE
  5
5
330
0
100
AcDbSymbolTable
 70
     6
  0
LTYPE
  5
14
330
5
100
AcDbSymbolTableRecord
100
AcDbLinetypeTableRecord
  2
BYBLOCK
 70
     0
  3

 72
    65
 73
     0
 40
0.0
  0
LTYPE
  5
15
330
5
100
AcDbSymbolTableRecord
100
AcDbLinetypeTableRecord
  2
BYLAYER
 70
     0
  3

 72
    65
 73
     0
 40
0.0
  0
LTYPE
  5
16
330
5
100
AcDbSymbolTableRecord
100
AcDbLinetypeTableRecord
  2
CONTINUOUS
 70
     0
  3
Solid line
 72
    65
 73
     0
 40
0.0
  0
LTYPE
  5
3B
330
5
100
AcDbSymbolTableRecord
100
AcDbLinetypeTableRecord
  2
HIDDEN
 70
     0
  3
Hidden __ __ __ __ __ __ __ __ __ __ __ __ __ __
 72
    65
 73
     2
 40
0.075
 49
0.05
 74
     0
 49
-0.025
 74
     0
  0
LTYPE
  5
3C
330
5
100
AcDbSymbolTableRecord
100
AcDbLinetypeTableRecord
  2
PHANTOM
 70
     0
  3
Phantom ______  __  __  ______  __  __  ______
 72
    65
 73
     6
 40
0.5
 49
0.25
 74
     0
 49
-0.05
 74
     0
 49
0.05
 74
     0
 49
-0.05
 74
     0
 49
0.05
 74
     0
 49
-0.05
 74
     0
  0
LTYPE
  5
3D
330
5
100
AcDbSymbolTableRecord
100
AcDbLinetypeTableRecord
  2
CENTER
 70
     0
  3
Center ____ _ ____ _ ____ _ ____ _ ____ _ ____
 72
    65
 73
     4
 40
0.4
 49
0.25
 74
     0
 49
-0.05
 74
     0
 49
0.05
 74
     0
 49
-0.05
 74
     0
  0
LTYPE
  5
3E
330
5
100
AcDbSymbolTableRecord
100
AcDbLinetypeTableRecord
  2
CENTERX2
 70
     0
  3
Center (2x) ________  __  ________  __  _____
 72
    65
 73
     4
 40
0.8
 49
0.5
 74
     0
 49
-0.1
 74
     0
 49
0.1
 74
     0
 49
-0.1
 74
     0
  0
LTYPE
  5
3F
330
5
100
AcDbSymbolTableRecord
100
AcDbLinetypeTableRecord
  2
DOT2
 70
     0
  3
Dot (.5x) ........................................
 72
    65
 73
     2
 40
0.025
 49
0.0
 74
     0
 49
-0.025
 74
     0
  0
ENDTAB
  0
TABLE
  2
LAYER
  5
2
330
0
100
AcDbSymbolTable
 70
     2
  0
LAYER
  5
10
330
2
100
AcDbSymbolTableRecord
100
AcDbLayerTableRecord
  2
0
 70
     0
 62
     7
  6
CONTINUOUS
  0
LAYER
  5
40
330
2
100
AcDbSymbolTableRecord
100
AcDbLayerTableRecord
  2
FORMAT
 70
     0
 62
     7
  6
CONTINUOUS
  0
ENDTAB
  0
TABLE
  2
STYLE
  5
3
330
0
100
AcDbSymbolTable
 70
     4
  0
STYLE
  5
11
330
3
100
AcDbSymbolTableRecord
100
AcDbTextStyleTableRecord
  2
STANDARD
 70
     0
 40
0.0
 41
1.0
 50
0.0
 71
     0
 42
0.2
  3
txt
  4

  0
STYLE
  5
6E
330
3
100
AcDbSymbolTableRecord
100
AcDbTextStyleTableRecord
  2
SLDTEXTSTYLE0
 70
     0
 40
0.0
 41
0.75
 50
0.0
 71
     0
 42
0.2
  3
TXT
  4

  0
STYLE
  5
93
330
3
100
AcDbSymbolTableRecord
100
AcDbTextStyleTableRecord
  2
SLDTEXTSTYLE1
 70
     0
 40
0.0
 41
0.6875
 50
0.0
 71
     0
 42
0.2
  3
TXT
  4

  0
STYLE
  5
99
330
3
100
AcDbSymbolTableRecord
100
AcDbTextStyleTableRecord
  2
SLDTEXTSTYLE2
 70
     0
 40
0.0
 41
0.6944444444
 50
0.0
 71
     0
 42
0.2
  3
TXT
  4

  0
ENDTAB
  0
TABLE
  2
VIEW
  5
6
330
0
100
AcDbSymbolTable
 70
     0
  0
ENDTAB
  0
TABLE
  2
UCS
  5
7
330
0
100
AcDbSymbolTable
 70
     0
  0
ENDTAB
  0
TABLE
  2
APPID
  5
9
330
0
100
AcDbSymbolTable
 70
     1
  0
APPID
  5
12
330
9
100
AcDbSymbolTableRecord
100
AcDbRegAppTableRecord
  2
ACAD
 70
     0
  0
ENDTAB
  0
TABLE
  2
DIMSTYLE
  5
A
330
0
100
AcDbSymbolTable
 70
     1
  0
DIMSTYLE
105
27
330
A
100
AcDbSymbolTableRecord
100
AcDbDimStyleTableRecord
  2
STANDARD
 70
     0
  3

  4

  5

  6

  7

 40
1.0
 41
0.18
 42
0.0625
 43
0.38
 44
0.18
 45
0.0
 46
0.0
 47
0.0
 48
0.0
140
0.18
141
0.09
142
0.0
143
25.4
144
1.0
145
0.0
146
1.0
147
0.09
 71
     0
 72
     0
 73
     1
 74
     1
 75
     0
 76
     0
 77
     0
 78
     0
170
     0
171
     2
172
     0
173
     0
174
     0
175
     0
176
     0
177
     0
178
     0
270
     2
271
     4
272
     4
273
     2
274
     2
340
11
275
     0
280
     0
281
     0
282
     0
283
     1
284
     0
285
     0
286
     0
287
     3
288
     0
  0
ENDTAB
  0
TABLE
  2
BLOCK_RECORD
  5
1
330
0
100
AcDbSymbolTable
 70
     4
  0
BLOCK_RECORD
  5
1F
330
1
100
AcDbSymbolTableRecord
100
AcDbBlockTableRecord
  2
*MODEL_SPACE
  0
BLOCK_RECORD
  5
1B
330
1
100
AcDbSymbolTableRecord
100
AcDbBlockTableRecord
  2
*PAPER_SPACE
  0
BLOCK_RECORD
  5
A8
330
1
100
AcDbSymbolTableRecord
100
AcDbBlockTableRecord
  2
SW_NOTE_0
  0
BLOCK_RECORD
  5
AE
330
1
100
AcDbSymbolTableRecord
100
AcDbBlockTableRecord
  2
SW_NOTE_1
  0
BLOCK_RECORD
  5
C2
330
1
100
AcDbSymbolTableRecord
100
AcDbBlockTableRecord
  2
SW_NOTE_2
  0
ENDTAB
  0
ENDSEC
  0
SECTION
  2
BLOCKS
  0
BLOCK
  5
20
330
1F
100
AcDbEntity
  8
0
100
AcDbBlockBegin
  2
*MODEL_SPACE
 70
     0
 10
0.0
 20
0.0
 30
0.0
  3
*MODEL_SPACE
  1

  0
ENDBLK
  5
21
330
1F
100
AcDbEntity
  8
0
100
AcDbBlockEnd
  0
BLOCK
  5
1C
330
1B
100
AcDbEntity
 67
     1
  8
0
100
AcDbBlockBegin
  2
*PAPER_SPACE
 70
     0
 10
0.0
 20
0.0
 30
0.0
  3
*PAPER_SPACE
  1

  0
ENDBLK
  5
1D
330
1B
100
AcDbEntity
 67
     1
  8
0
100
AcDbBlockEnd
  0
BLOCK
  5
A9
330
A8
100
AcDbEntity
  8
0
100
AcDbBlockBegin
  2
SW_NOTE_0
 70
     0
 10
0.0
 20
0.0
 30
0.0
  3
SW_NOTE_0
  1

  0
MTEXT
  5
AB
330
A8
100
AcDbEntity
  8
0
  6
CONTINUOUS
 62
     0
100
AcDbMText
 10
0.0
 20
0.0773440644
 30
0.0
 40
0.06
 41
0.0
 71
     1
 72
     1
  1
INTERPRET GEOMETRIC
  7
SLDTEXTSTYLE0
  0
MTEXT
  5
AC
330
A8
100
AcDbEntity
  8
0
  6
CONTINUOUS
 62
     0
100
AcDbMText
 10
0.0
 20
-0.0220260102
 30
0.0
 40
0.06
 41
0.0
 71
     1
 72
     1
  1
TOLERANCING PER:
  7
SLDTEXTSTYLE0
  0
ENDBLK
  5
AA
330
A8
100
AcDbEntity
  8
0
100
AcDbBlockEnd
  0
BLOCK
  5
AF
330
AE
100
AcDbEntity
  8
0
100
AcDbBlockBegin
  2
SW_NOTE_1
 70
     0
 10
0.0
 20
0.0
 30
0.0
  3
SW_NOTE_1
  1

  0
MTEXT
  5
B1
330
AE
100
AcDbEntity
  8
0
  6
CONTINUOUS
 62
     0
100
AcDbMText
 10
0.0
 20
0.0837894031
 30
0.0
 40
0.065
 41
0.0
 71
     1
 72
     1
  1
DIMENSIONS ARE IN INCHES
  7
SLDTEXTSTYLE0
  0
MTEXT
  5
B2
330
AE
100
AcDbEntity
  8
0
  6
CONTINUOUS
 62
     0
100
AcDbMText
 10
0.0
 20
-0.0205806729
 30
0.0
 40
0.065
 41
0.0
 71
     1
 72
     1
  1
TOLERANCES:
  7
SLDTEXTSTYLE0
  0
MTEXT
  5
B3
330
AE
100
AcDbEntity
  8
0
  6
CONTINUOUS
 62
     0
100
AcDbMText
 10
0.0
 20
-0.1249507489
 30
0.0
 40
0.065
 41
0.0
 71
     1
 72
     1
  1
FRACTIONAL
  7
SLDTEXTSTYLE0
  0
MTEXT
  5
B4
330
AE
100
AcDbEntity
  8
0
  6
CONTINUOUS
 62
     0
100
AcDbMText
 10
0.5175850875
 20
-0.1249507489
 30
0.0
 40
0.065
 41
0.0
 71
     1
 72
     1
  1
%%p
  7
SLDTEXTSTYLE0
  0
MTEXT
  5
B5
330
AE
100
AcDbEntity
  8
0
  6
CONTINUOUS
 62
     0
100
AcDbMText
 10
0.0
 20
-0.2293208248
 30
0.0
 40
0.065
 41
0.0
 71
     1
 72
     1
  1
ANGULAR: MACH
  7
SLDTEXTSTYLE0
  0
MTEXT
  5
B6
330
AE
100
AcDbEntity
  8
0
  6
CONTINUOUS
 62
     0
100
AcDbMText
 10
0.7233732769
 20
-0.2293208248
 30
0.0
 40
0.065
 41
0.0
 71
     1
 72
     1
  1
%%p
  7
SLDTEXTSTYLE0
  0
MTEXT
  5
B7
330
AE
100
AcDbEntity
  8
0
  6
CONTINUOUS
 62
     0
100
AcDbMText
 10
0.7852857683
 20
-0.2293208248
 30
0.0
 40
0.065
 41
0.0
 71
     1
 72
     1
  1
     BEND 
  7
SLDTEXTSTYLE0
  0
MTEXT
  5
B8
330
AE
100
AcDbEntity
  8
0
  6
CONTINUOUS
 62
     0
100
AcDbMText
 10
1.14784136
 20
-0.2293208248
 30
0.0
 40
0.065
 41
0.0
 71
     1
 72
     1
  1
%%p
  7
SLDTEXTSTYLE0
  0
MTEXT
  5
B9
330
AE
100
AcDbEntity
  8
0
  6
CONTINUOUS
 62
     0
100
AcDbMText
 10
0.0
 20
-0.3336909008
 30
0.0
 40
0.065
 41
0.0
 71
     1
 72
     1
  1
TWO PLACE DECIMAL    
  7
SLDTEXTSTYLE0
  0
MTEXT
  5
BA
330
AE
100
AcDbEntity
  8
0
  6
CONTINUOUS
 62
     0
100
AcDbMText
 10
0.9794349188
 20
-0.3336909008
 30
0.0
 40
0.065
 41
0.0
 71
     1
 72
     1
  1
%%p
  7
SLDTEXTSTYLE0
  0
MTEXT
  5
BB
330
AE
100
AcDbEntity
  8
0
  6
CONTINUOUS
 62
     0
100
AcDbMText
 10
0.0
 20
-0.4380609768
 30
0.0
 40
0.065
 41
0.0
 71
     1
 72
     1
  1
THREE PLACE DECIMAL  
  7
SLDTEXTSTYLE0
  0
MTEXT
  5
BC
330
AE
100
AcDbEntity
  8
0
  6
CONTINUOUS
 62
     0
100
AcDbMText
 10
0.9738038639
 20
-0.4380609768
 30
0.0
 40
0.065
 41
0.0
 71
     1
 72
     1
  1
%%p
  7
SLDTEXTSTYLE0
  0
ENDBLK
  5
B0
330
AE
100
AcDbEntity
  8
0
100
AcDbBlockEnd
  0
BLOCK
  5
C3
330
C2
100
AcDbEntity
  8
0
100
AcDbBlockBegin
  2
SW_NOTE_2
 70
     0
 10
0.0
 20
0.0
 30
0.0
  3
SW_NOTE_2
  1

  0
MTEXT
  5
C5
330
C2
100
AcDbEntity
  8
0
  6
CONTINUOUS
 62
     0
100
AcDbMText
 10
0.0
 20
0.0773440644
 30
0.0
 40
0.06
 41
0.0
 71
     1
 72
     1
  1
THE INFORMATION CONTAINED IN THIS
  7
SLDTEXTSTYLE0
  0
MTEXT
  5
C6
330
C2
100
AcDbEntity
  8
0
  6
CONTINUOUS
 62
     0
100
AcDbMText
 10
0.0
 20
-0.0220260102
 30
0.0
 40
0.06
 41
0.0
 71
     1
 72
     1
  1
DRAWING IS THE SOLE PROPERTY OF
  7
SLDTEXTSTYLE0
  0
MTEXT
  5
C7
330
C2
100
AcDbEntity
  8
0
  6
CONTINUOUS
 62
     0
100
AcDbMText
 10
0.0
 20
-0.1213960848
 30
0.0
 40
0.06
 41
0.0
 71
     1
 72
     1
  1
Candy Controls.  ANY 
  7
SLDTEXTSTYLE0
  0
MTEXT
  5
C8
330
C2
100
AcDbEntity
  8
0
  6
CONTINUOUS
 62
     0
100
AcDbMText
 10
0.0
 20
-0.2207661593
 30
0.0
 40
0.06
 41
0.0
 71
     1
 72
     1
  1
REPRODUCTION IN PART OR AS A WHOLE
  7
SLDTEXTSTYLE0
  0
MTEXT
  5
C9
330
C2
100
AcDbEntity
  8
0
  6
CONTINUOUS
 62
     0
100
AcDbMText
 10
0.0
 20
-0.3201362339
 30
0.0
 40
0.06
 41
0.0
 71
     1
 72
     1
  1
WITHOUT THE WRITTEN PERMISSION OF
  7
SLDTEXTSTYLE0
  0
MTEXT
  5
CA
330
C2
100
AcDbEntity
  8
0
  6
CONTINUOUS
 62
     0
100
AcDbMText
 10
0.0
 20
-0.4195063085
 30
0.0
 40
0.06
 41
0.0
 71
     1
 72
     1
  1
Candy Controls IS 
  7
SLDTEXTSTYLE0
  0
MTEXT
  5
CB
330
C2
100
AcDbEntity
  8
0
  6
CONTINUOUS
 62
     0
100
AcDbMText
 10
0.0
 20
-0.518876383
 30
0.0
 40
0.06
 41
0.0
 71
     1
 72
     1
  1
PROHIBITED.
  7
SLDTEXTSTYLE0
  0
ENDBLK
  5
C4
330
C2
100
AcDbEntity
  8
0
100
AcDbBlockEnd
  0
ENDSEC
  0
SECTION
  2
ENTITIES
  0
LINE
  5
41
330
1F
100
AcDbEntity
  8
0
  6
CONTINUOUS
 62
     7
100
AcDbLine
 10
0.329927
 20
8.1920731707
 30
0.0
 11
10.629927
 21
8.1920731707
 31
0.0
  0
LINE
  5
42
330
1F
100
AcDbEntity
  8
0
  6
CONTINUOUS
 62
     7
100
AcDbLine
 10
0.329927
 20
8.1920731707
 30
0.0
 11
0.329927
 21
0.3920731707
 31
0.0
  0
LINE
  5
43
330
1F
100
AcDbEntity
  8
0
  6
CONTINUOUS
 62
     7
100
AcDbLine
 10
10.629927
 20
0.3920731707
 30
0.0
 11
0.329927
 21
0.3920731707
 31
0.0
  0
LINE
  5
44
330
1F
100
AcDbEntity
  8
0
  6
CONTINUOUS
 62
     7
100
AcDbLine
 10
10.629927
 20
0.3920731707
 30
0.0
 11
10.629927
 21
8.1920731707
 31
0.0
  0
LINE
  5
45
330
1F
100
AcDbEntity
  8
0
  6
CONTINUOUS
 62
     7
100
AcDbLine
 10
4.7981841288
 20
0.3920731707
 30
0.0
 11
4.7981841288
 21
2.3564211366
 31
0.0
  0
LINE
  5
46
330
1F
100
AcDbEntity
  8
0
  6
CONTINUOUS
 62
     7
100
AcDbLine
 10
2.8210345579
 20
2.3564211366
 30
0.0
 11
10.629927
 21
2.3564211366
 31
0.0
  0
LINE
  5
47
330
1F
100
AcDbEntity
  8
0
  6
CONTINUOUS
 62
     7
100
AcDbLine
 10
6.1796352514
 20
2.3564211366
 30
0.0
 11
6.1796352514
 21
0.3920731707
 31
0.0
  0
LINE
  5
48
330
1F
100
AcDbEntity
  8
0
  6
CONTINUOUS
 62
     7
100
AcDbLine
 10
7.8712070044
 20
2.3564211366
 30
0.0
 11
7.8712070044
 21
0.3920731707
 31
0.0
  0
LINE
  5
49
330
1F
100
AcDbEntity
  8
0
  6
CONTINUOUS
 62
     7
100
AcDbLine
 10
7.8712070044
 20
0.6049590101
 30
0.0
 11
10.629927
 21
0.6049590101
 31
0.0
  0
LINE
  5
4A
330
1F
100
AcDbEntity
  8
0
  6
CONTINUOUS
 62
     7
100
AcDbLine
 10
7.8712070044
 20
1.1119362457
 30
0.0
 11
10.629927
 21
1.1119362457
 31
0.0
  0
LINE
  5
4B
330
1F
100
AcDbEntity
  8
0
  6
CONTINUOUS
 62
     7
100
AcDbLine
 10
7.8712070044
 20
1.9892703708
 30
0.0
 11
10.629927
 21
1.9892703708
 31
0.0
  0
LINE
  5
4C
330
1F
100
AcDbEntity
  8
0
  6
CONTINUOUS
 62
     7
100
AcDbLine
 10
8.266751752
 20
1.1119362457
 30
0.0
 11
8.266751752
 21
0.6049590101
 31
0.0
  0
LINE
  5
4D
330
1F
100
AcDbEntity
  8
0
  6
CONTINUOUS
 62
     7
100
AcDbLine
 10
8.6943435176
 20
0.6049590101
 30
0.0
 11
8.6943435176
 21
0.3920731707
 31
0.0
  0
LINE
  5
4E
330
1F
100
AcDbEntity
  8
0
  6
CONTINUOUS
 62
     7
100
AcDbLine
 10
10.0579917045
 20
1.1119362457
 30
0.0
 11
10.0579917045
 21
0.6049590101
 31
0.0
  0
LINE
  5
4F
330
1F
100
AcDbEntity
  8
0
  6
CONTINUOUS
 62
     7
100
AcDbLine
 10
9.6662556631
 20
0.6049590101
 30
0.0
 11
9.6662556631
 21
0.3920731707
 31
0.0
  0
LINE
  5
50
330
1F
100
AcDbEntity
  8
0
  6
CONTINUOUS
 62
     7
100
AcDbLine
 10
2.8210345579
 20
0.5883479999
 30
0.0
 11
6.1796352514
 21
0.5883479999
 31
0.0
  0
LINE
  5
51
330
1F
100
AcDbEntity
  8
0
  6
CONTINUOUS
 62
     7
100
AcDbLine
 10
6.1796352514
 20
1.7939211366
 30
0.0
 11
7.8712070044
 21
1.7939211366
 31
0.0
  0
LINE
  5
52
330
1F
100
AcDbEntity
  8
0
  6
CONTINUOUS
 62
     7
100
AcDbLine
 10
6.1796352514
 20
1.9814211366
 30
0.0
 11
7.8712070044
 21
1.9814211366
 31
0.0
  0
LINE
  5
53
330
1F
100
AcDbEntity
  8
0
  6
CONTINUOUS
 62
     7
100
AcDbLine
 10
6.1796352514
 20
2.1689211366
 30
0.0
 11
7.8712070044
 21
2.1689211366
 31
0.0
  0
LINE
  5
54
330
1F
100
AcDbEntity
  8
0
  6
CONTINUOUS
 62
     7
100
AcDbLine
 10
7.8712070044
 20
1.2314211366
 30
0.0
 11
6.1796352514
 21
1.2314211366
 31
0.0
  0
LINE
  5
55
330
1F
100
AcDbEntity
  8
0
  6
CONTINUOUS
 62
     7
100
AcDbLine
 10
7.3921580388
 20
2.3564211366
 30
0.0
 11
7.3921580388
 21
1.2314211366
 31
0.0
  0
LINE
  5
56
330
1F
100
AcDbEntity
  8
0
  6
CONTINUOUS
 62
     7
100
AcDbLine
 10
6.9236308342
 20
2.3564211366
 30
0.0
 11
6.9236308342
 21
1.2314211366
 31
0.0
  0
LINE
  5
57
330
1F
100
AcDbEntity
  8
0
  6
CONTINUOUS
 62
     7
100
AcDbLine
 10
4.7981841288
 20
0.8557965305
 30
0.0
 11
6.1796352514
 21
0.8557965305
 31
0.0
  0
LINE
  5
58
330
1F
100
AcDbEntity
  8
0
  6
CONTINUOUS
 62
     7
100
AcDbLine
 10
4.7981841288
 20
1.1257965305
 30
0.0
 11
6.1796352514
 21
1.1257965305
 31
0.0
  0
LINE
  5
59
330
1F
100
AcDbEntity
  8
0
  6
CONTINUOUS
 62
     7
100
AcDbLine
 10
2.8210345579
 20
0.3920731707
 30
0.0
 11
2.8210345579
 21
2.3564211366
 31
0.0
  0
LINE
  5
5A
330
1F
100
AcDbEntity
  8
0
  6
CONTINUOUS
 62
     7
100
AcDbLine
 10
2.8210345579
 20
1.1064211366
 30
0.0
 11
4.7981841288
 21
1.1064211366
 31
0.0
  0
LINE
  5
5B
330
1F
100
AcDbEntity
  8
0
  6
CONTINUOUS
 62
     7
100
AcDbLine
 10
2.8210345579
 20
1.3564211366
 30
0.0
 11
4.7981841288
 21
1.3564211366
 31
0.0
  0
LINE
  5
5C
330
1F
100
AcDbEntity
  8
0
  6
CONTINUOUS
 62
     7
100
AcDbLine
 10
2.8210345579
 20
1.6064211366
 30
0.0
 11
4.7981841288
 21
1.6064211366
 31
0.0
  0
LINE
  5
5D
330
1F
100
AcDbEntity
  8
0
  6
CONTINUOUS
 62
     7
100
AcDbLine
 10
2.8210345579
 20
1.8564211366
 30
0.0
 11
4.7981841288
 21
1.8564211366
 31
0.0
  0
LINE
  5
5E
330
1F
100
AcDbEntity
  8
0
  6
CONTINUOUS
 62
     7
100
AcDbLine
 10
3.8190146875
 20
2.3564211366
 30
0.0
 11
3.8190146875
 21
0.5883479999
 31
0.0
  0
LINE
  5
5F
330
1F
100
AcDbEntity
  8
0
  6
CONTINUOUS
 62
     7
100
AcDbLine
 10
6.1796352514
 20
2.2020813496
 30
0.0
 11
4.7981841288
 21
2.2020813496
 31
0.0
  0
LINE
  5
60
330
1F
100
AcDbEntity
  8
0
  6
CONTINUOUS
 62
     7
100
AcDbLine
 10
7.8712070044
 20
1.6064211366
 30
0.0
 11
6.1796352514
 21
1.6064211366
 31
0.0
  0
LINE
  5
61
330
1F
100
AcDbEntity
  8
0
  6
CONTINUOUS
 62
     7
100
AcDbLine
 10
7.8712070044
 20
1.4189211366
 30
0.0
 11
6.1796352514
 21
1.4189211366
 31
0.0
  0
LINE
  5
62
330
1F
100
AcDbEntity
  8
0
  6
CONTINUOUS
 62
     7
100
AcDbLine
 10
2.8210345579
 20
2.1064211366
 30
0.0
 11
4.7981841288
 21
2.1064211366
 31
0.0
  0
LINE
  5
63
330
1F
100
AcDbEntity
  8
0
  6
CONTINUOUS
 62
     7
100
AcDbLine
 10
4.7981841288
 20
1.3957965305
 30
0.0
 11
6.1796352514
 21
1.3957965305
 31
0.0
  0
LINE
  5
64
330
1F
100
AcDbEntity
  8
0
  6
CONTINUOUS
 62
     7
100
AcDbLine
 10
2.8210345579
 20
0.8564211366
 30
0.0
 11
4.7981841288
 21
0.8564211366
 31
0.0
  0
LINE
  5
65
330
1F
100
AcDbEntity
  8
0
  6
CONTINUOUS
 62
     7
100
AcDbLine
 10
1.1838252943
 20
0.3920731707
 30
0.0
 11
1.1838252943
 21
1.3064211366
 31
0.0
  0
LINE
  5
66
330
1F
100
AcDbEntity
  8
0
  6
CONTINUOUS
 62
     7
100
AcDbLine
 10
2.8210345579
 20
1.3064211366
 30
0.0
 11
1.1838252943
 21
1.3064211366
 31
0.0
  0
LINE
  5
67
330
1F
100
AcDbEntity
  8
0
  6
CONTINUOUS
 62
     7
100
AcDbLine
 10
8.660927
 20
0.3920731707
 30
0.0
 11
8.660927
 21
0.3072739649
 31
0.0
  0
LINE
  5
68
330
1F
100
AcDbEntity
  8
0
  6
CONTINUOUS
 62
     7
100
AcDbLine
 10
6.692177
 20
0.3920731707
 30
0.0
 11
6.692177
 21
0.3072739649
 31
0.0
  0
LINE
  5
69
330
1F
100
AcDbEntity
  8
0
  6
CONTINUOUS
 62
     7
100
AcDbLine
 10
4.723427
 20
0.3920731707
 30
0.0
 11
4.723427
 21
0.3072739649
 31
0.0
  0
LINE
  5
6A
330
1F
100
AcDbEntity
  8
0
  6
CONTINUOUS
 62
     7
100
AcDbLine
 10
2.754677
 20
0.3920731707
 30
0.0
 11
2.754677
 21
0.3072739649
 31
0.0
  0
LINE
  5
6B
330
1F
100
AcDbEntity
  8
0
  6
CONTINUOUS
 62
     7
100
AcDbLine
 10
2.754677
 20
0.3920731707
 30
0.0
 11
2.7672319738
 21
0.3575
 31
0.0
  0
LINE
  5
6C
330
1F
100
AcDbEntity
  8
0
  6
CONTINUOUS
 62
     7
100
AcDbLine
 10
2.7672319738
 20
0.3575
 30
0.0
 11
2.7414258825
 21
0.3575
 31
0.0
  0
LINE
  5
6D
330
1F
100
AcDbEntity
  8
0
  6
CONTINUOUS
 62
     7
100
AcDbLine
 10
2.7414258825
 20
0.3575
 30
0.0
 11
2.754677
 21
0.3920731707
 31
0.0
  0
MTEXT
  5
91
330
1F
100
AcDbEntity
  8
0
  6
CONTINUOUS
 62
     7
100
AcDbMText
 10
4.9775846961
 20
0.5178452352
 30
0.0
 40
0.0625
 41
0.0
 71
     1
 72
     1
  1
DO NOT SCALE DRAWING
  7
SLDTEXTSTYLE0
  0
MTEXT
  5
92
330
1F
100
AcDbEntity
  8
0
  6
CONTINUOUS
 62
     7
100
AcDbMText
 10
8.9024707421
 20
0.9417064595
 30
0.0
 40
0.125
 41
0.0
 71
     1
 72
     1
  1
CL7-40
  7
SLDTEXTSTYLE0
  0
MTEXT
  5
94
330
1F
100
AcDbEntity
  8
0
  6
CONTINUOUS
 62
     7
100
AcDbMText
 10
9.7571278483
 20
0.5524239532
 30
0.0
 40
0.1
 41
0.0
 71
     1
 72
     1
  1
SHEET 1 OF 1
  7
SLDTEXTSTYLE1
  0
MTEXT
  5
95
330
1F
100
AcDbEntity
  8
0
  6
CONTINUOUS
 62
     7
100
AcDbMText
 10
4.8448077858
 20
2.3132954224
 30
0.0
 40
0.07
 41
0.0
 71
     1
 72
     1
  1
UNLESS OTHERWISE SPECIFIED:
  7
SLDTEXTSTYLE0
  0
MTEXT
  5
96
330
1F
100
AcDbEntity
  8
0
  6
CONTINUOUS
 62
     7
100
AcDbMText
 10
7.9586139647
 20
0.5520987879
 30
0.0
 40
0.1
 41
0.0
 71
     1
 72
     1
  1
SCALE: 1:1
  7
SLDTEXTSTYLE0
  0
MTEXT
  5
97
330
1F
100
AcDbEntity
  8
0
  6
CONTINUOUS
 62
     7
100
AcDbMText
 10
8.7023691647
 20
0.5486763345
 30
0.0
 40
0.1
 41
0.0
 71
     1
 72
     1
  1
WEIGHT: 
  7
SLDTEXTSTYLE0
  0
MTEXT
  5
98
330
1F
100
AcDbEntity
  8
0
  6
CONTINUOUS
 62
     7
100
AcDbMText
 10
10.2277580983
 20
1.081966299
 30
0.0
 40
0.1
 41
0.0
 71
     1
 72
     1
  1
REV
  7
SLDTEXTSTYLE0
  0
MTEXT
  5
9A
330
1F
100
AcDbEntity
  8
0
  6
CONTINUOUS
 62
     7
100
AcDbMText
 10
8.2984570898
 20
1.0858725293
 30
0.0
 40
0.1
 41
0.0
 71
     1
 72
     1
  1
DWG.  NO.
  7
SLDTEXTSTYLE2
  0
MTEXT
  5
9B
330
1F
100
AcDbEntity
  8
0
  6
CONTINUOUS
 62
     7
100
AcDbMText
 10
7.9598482632
 20
0.9442140768
 30
0.0
 40
0.25
 41
0.0
 71
     1
 72
     1
  1
A
  7
SLDTEXTSTYLE0
  0
MTEXT
  5
9C
330
1F
100
AcDbEntity
  8
0
  6
CONTINUOUS
 62
     7
100
AcDbMText
 10
7.9519581822
 20
1.0872713483
 30
0.0
 40
0.1
 41
0.0
 71
     1
 72
     1
  1
SIZE
  7
SLDTEXTSTYLE0
  0
MTEXT
  5
9D
330
1F
100
AcDbEntity
  8
0
  6
CONTINUOUS
 62
     7
100
AcDbMText
 10
7.9170704177
 20
1.9547881128
 30
0.0
 40
0.1
 41
0.0
 71
     1
 72
     1
  1
TITLE:
  7
SLDTEXTSTYLE0
  0
MTEXT
  5
9E
330
1F
100
AcDbEntity
  8
0
  6
CONTINUOUS
 62
     7
100
AcDbMText
 10
7.0363774929
 20
2.2906161274
 30
0.0
 40
0.065
 41
0.0
 71
     1
 72
     1
  1
NAME
  7
SLDTEXTSTYLE0
  0
MTEXT
  5
9F
330
1F
100
AcDbEntity
  8
0
  6
CONTINUOUS
 62
     7
100
AcDbMText
 10
7.5281510634
 20
2.2888799118
 30
0.0
 40
0.065
 41
0.0
 71
     1
 72
     1
  1
DATE
  7
SLDTEXTSTYLE0
  0
MTEXT
  5
A0
330
1F
100
AcDbEntity
  8
0
  6
CONTINUOUS
 62
     7
100
AcDbMText
 10
6.2277147029
 20
1.1876913145
 30
0.0
 40
0.065
 41
0.0
 71
     1
 72
     1
  1
COMMENTS:
  7
SLDTEXTSTYLE0
  0
MTEXT
  5
A1
330
1F
100
AcDbEntity
  8
0
  6
CONTINUOUS
 62
     7
100
AcDbMText
 10
6.2268411461
 20
1.3536101679
 30
0.0
 40
0.065
 41
0.0
 71
     1
 72
     1
  1
Q.A.
  7
SLDTEXTSTYLE0
  0
MTEXT
  5
A2
330
1F
100
AcDbEntity
  8
0
  6
CONTINUOUS
 62
     7
100
AcDbMText
 10
6.2284654509
 20
1.5395328424
 30
0.0
 40
0.065
 41
0.0
 71
     1
 72
     1
  1
MFG APPR.
  7
SLDTEXTSTYLE0
  0
MTEXT
  5
A3
330
1F
100
AcDbEntity
  8
0
  6
CONTINUOUS
 62
     7
100
AcDbMText
 10
6.2235171344
 20
1.7267501785
 30
0.0
 40
0.065
 41
0.0
 71
     1
 72
     1
  1
ENG APPR.
  7
SLDTEXTSTYLE0
  0
MTEXT
  5
A4
330
1F
100
AcDbEntity
  8
0
  6
CONTINUOUS
 62
     7
100
AcDbMText
 10
6.2264103951
 20
1.9092699088
 30
0.0
 40
0.065
 41
0.0
 71
     1
 72
     1
  1
CHECKED
  7
SLDTEXTSTYLE0
  0
MTEXT
  5
A5
330
1F
100
AcDbEntity
  8
0
  6
CONTINUOUS
 62
     7
100
AcDbMText
 10
6.2242794356
 20
2.1016301232
 30
0.0
 40
0.065
 41
0.0
 71
     1
 72
     1
  1
DRAWN
  7
SLDTEXTSTYLE0
  0
MTEXT
  5
A6
330
1F
100
AcDbEntity
  8
0
  6
CONTINUOUS
 62
     7
100
AcDbMText
 10
4.8208600979
 20
0.834523235
 30
0.0
 40
0.06
 41
0.0
 71
     1
 72
     1
  1
FINISH
  7
SLDTEXTSTYLE0
  0
MTEXT
  5
A7
330
1F
100
AcDbEntity
  8
0
  6
CONTINUOUS
 62
     7
100
AcDbMText
 10
4.8181240648
 20
1.1028217587
 30
0.0
 40
0.06
 41
0.0
 71
     1
 72
     1
  1
MATERIAL
  7
SLDTEXTSTYLE0
  0
INSERT
  5
AD
330
1F
100
AcDbEntity
  8
0
  6
CONTINUOUS
 62
     7
100
AcDbBlockReference
  2
SW_NOTE_0
 10
4.8231926633
 20
1.2646542947
 30
0.0
  0
INSERT
  5
BD
330
1F
100
AcDbEntity
  8
0
  6
CONTINUOUS
 62
     7
100
AcDbBlockReference
  2
SW_NOTE_1
 10
4.8353339353
 20
2.0049168724
 30
0.0
  0
MTEXT
  5
BE
330
1F
100
AcDbEntity
  8
0
  6
CONTINUOUS
 62
     7
100
AcDbMText
 10
3.5531400086
 20
0.5200091997
 30
0.0
 40
0.0625
 41
0.0
 71
     1
 72
     1
  1
APPLICATION
  7
SLDTEXTSTYLE0
  0
MTEXT
  5
BF
330
1F
100
AcDbEntity
  8
0
  6
CONTINUOUS
 62
     7
100
AcDbMText
 10
4.1005607758
 20
0.7502454275
 30
0.0
 40
0.0625
 41
0.0
 71
     1
 72
     1
  1
USED ON
  7
SLDTEXTSTYLE0
  0
MTEXT
  5
C0
330
1F
100
AcDbEntity
  8
0
  6
CONTINUOUS
 62
     7
100
AcDbMText
 10
3.1040019536
 20
0.7492094783
 30
0.0
 40
0.0625
 41
0.0
 71
     1
 72
     1
  1
NEXT ASSY
  7
SLDTEXTSTYLE0
  0
MTEXT
  5
C1
330
1F
100
AcDbEntity
  8
0
  6
CONTINUOUS
 62
     7
100
AcDbMText
 10
1.3712489489
 20
1.2496672684
 30
0.0
 40
0.06
 41
0.0
 71
     1
 72
     1
  1
PROPRIETARY AND CONFIDENTIAL
  7
SLDTEXTSTYLE0
  0
INSERT
  5
CC
330
1F
100
AcDbEntity
  8
0
  6
CONTINUOUS
 62
     7
100
AcDbBlockReference
  2
SW_NOTE_2
 10
1.2226209074
 20
1.0313492921
 30
0.0
  0
MTEXT
  5
CD
330
1F
100
AcDbEntity
  8
0
  6
CONTINUOUS
 62
     7
100
AcDbMText
 10
1.7387909509
 20
0.3105864247
 30
0.0
 40
0.09375
 41
0.0
 71
     1
 72
     1
  1
5
  7
SLDTEXTSTYLE0
  0
MTEXT
  5
CE
330
1F
100
AcDbEntity
  8
0
  6
CONTINUOUS
 62
     7
100
AcDbMText
 10
3.723800327
 20
0.3137237518
 30
0.0
 40
0.09375
 41
0.0
 71
     1
 72
     1
  1
4
  7
SLDTEXTSTYLE0
  0
MTEXT
  5
CF
330
1F
100
AcDbEntity
  8
0
  6
CONTINUOUS
 62
     7
100
AcDbMText
 10
5.6324457277
 20
0.3116191842
 30
0.0
 40
0.09375
 41
0.0
 71
     1
 72
     1
  1
3
  7
SLDTEXTSTYLE0
  0
MTEXT
  5
D0
330
1F
100
AcDbEntity
  8
0
  6
CONTINUOUS
 62
     7
100
AcDbMText
 10
7.6059721724
 20
0.3124391351
 30
0.0
 40
0.09375
 41
0.0
 71
     1
 72
     1
  1
2
  7
SLDTEXTSTYLE0
  0
MTEXT
  5
D1
330
1F
100
AcDbEntity
  8
0
  6
CONTINUOUS
 62
     7
100
AcDbMText
 10
9.6619921328
 20
0.301372012
 30
0.0
 40
0.09375
 41
0.0
 71
     1
 72
     1
  1
1
  7
SLDTEXTSTYLE0
  0
LINE
  5
D2
330
1F
100
AcDbEntity
  8
0
  6
CONTINUOUS
 62
     7
100
AcDbLine
 10
2.2392738987
 20
2.9693082077
 30
0.0
 11
4.4139983081
 21
2.9693082077
 31
0.0
  0
LINE
  5
D3
330
1F
100
AcDbEntity
  8
0
  6
CONTINUOUS
 62
     7
100
AcDbLine
 10
2.4644369156
 20
4.5441113573
 30
0.0
 11
2.2392738987
 21
4.5441113573
 31
0.0
  0
LINE
  5
D4
330
1F
100
AcDbEntity
  8
0
  6
CONTINUOUS
 62
     7
100
AcDbLine
 10
3.9998699865
 20
4.5441113573
 30
0.0
 11
2.6533917776
 21
4.5441113573
 31
0.0
  0
LINE
  5
D5
330
1F
100
AcDbEntity
  8
0
  6
CONTINUOUS
 62
     7
100
AcDbLine
 10
4.4139983081
 20
4.5441113573
 30
0.0
 11
4.1888248485
 21
4.5441113573
 31
0.0
  0
LINE
  5
D6
330
1F
100
AcDbEntity
  8
0
  6
CONTINUOUS
 62
     7
100
AcDbLine
 10
4.4139983081
 20
2.9693082077
 30
0.0
 11
4.4289983081
 21
2.9843082077
 31
0.0
  0
LINE
  5
D7
330
1F
100
AcDbEntity
  8
0
  6
CONTINUOUS
 62
     7
100
AcDbLine
 10
4.4289983081
 20
4.5291113573
 30
0.0
 11
4.4139983081
 21
4.5441113573
 31
0.0
  0
LINE
  5
D8
330
1F
100
AcDbEntity
  8
0
  6
CONTINUOUS
 62
     7
100
AcDbLine
 10
2.2392738987
 20
4.5441113573
 30
0.0
 11
2.2242738987
 21
4.5291113573
 31
0.0
  0
LINE
  5
D9
330
1F
100
AcDbEntity
  8
0
  6
CONTINUOUS
 62
     7
100
AcDbLine
 10
2.2242738987
 20
2.9843082077
 30
0.0
 11
2.2392738987
 21
2.9693082077
 31
0.0
  0
LINE
  5
DA
330
1F
100
AcDbEntity
  8
0
  6
CONTINUOUS
 62
     7
100
AcDbLine
 10
2.6337658349
 20
4.5419422556
 30
0.0
 11
2.6315967333
 21
4.5441113573
 31
0.0
  0
LINE
  5
DB
330
1F
100
AcDbEntity
  8
0
  6
CONTINUOUS
 62
     7
100
AcDbLine
 10
2.4862424026
 20
4.5441113573
 30
0.0
 11
2.4840736024
 21
4.541942557
 31
0.0
  0
LINE
  5
DC
330
1F
100
AcDbEntity
  8
0
  6
CONTINUOUS
 62
     7
100
AcDbLine
 10
4.1691989058
 20
4.5419422556
 30
0.0
 11
4.1670298042
 21
4.5441113573
 31
0.0
  0
LINE
  5
DD
330
1F
100
AcDbEntity
  8
0
  6
CONTINUOUS
 62
     7
100
AcDbLine
 10
4.0216754735
 20
4.5441113573
 30
0.0
 11
4.0195066732
 21
4.541942557
 31
0.0
  0
LINE
  5
DE
330
1F
100
AcDbEntity
  8
0
  6
CONTINUOUS
 62
     7
100
AcDbLine
 10
4.4139983081
 20
2.9693082077
 30
0.0
 11
4.4139983081
 21
4.5441113573
 31
0.0
  0
LINE
  5
DF
330
1F
100
AcDbEntity
  8
0
  6
CONTINUOUS
 62
     7
100
AcDbLine
 10
2.2392738987
 20
4.5441113573
 30
0.0
 11
2.2392738987
 21
2.9693082077
 31
0.0
  0
POLYLINE
  5
E0
330
1F
100
AcDbEntity
  8
0
  6
CONTINUOUS
 62
     7
100
AcDb2dPolyline
 66
     1
 10
0.0
 20
0.0
 30
0.0
  0
VERTEX
  5
1FF
330
E0
100
AcDbEntity
  8
0
  6
CONTINUOUS
 62
     7
100
AcDbVertex
100
AcDb2dVertex
 10
2.6533917776
 20
4.5441101023
 30
0.0
  0
VERTEX
  5
200
330
E0
100
AcDbEntity
  8
0
  6
CONTINUOUS
 62
     7
100
AcDbVertex
100
AcDb2dVertex
 10
2.6534021624
 20
4.5441113501
 30
0.0
  0
VERTEX
  5
201
330
E0
100
AcDbEntity
  8
0
  6
CONTINUOUS
 62
     7
100
AcDbVertex
100
AcDb2dVertex
 10
2.6515797231
 20
4.543888153
 30
0.0
  0
VERTEX
  5
202
330
E0
100
AcDbEntity
  8
0
  6
CONTINUOUS
 62
     7
100
AcDbVertex
100
AcDb2dVertex
 10
2.64611033
 20
4.543247671
 30
0.0
  0
VERTEX
  5
203
330
E0
100
AcDbEntity
  8
0
  6
CONTINUOUS
 62
     7
100
AcDbVertex
100
AcDb2dVertex
 10
2.6373748281
 20
4.5422883202
 30
0.0
  0
VERTEX
  5
204
330
E0
100
AcDbEntity
  8
0
  6
CONTINUOUS
 62
     7
100
AcDbVertex
100
AcDb2dVertex
 10
2.6256945024
 20
4.5411682996
 30
0.0
  0
VERTEX
  5
205
330
E0
100
AcDbEntity
  8
0
  6
CONTINUOUS
 62
     7
100
AcDbVertex
100
AcDb2dVertex
 10
2.6114589918
 20
4.5400504727
 30
0.0
  0
VERTEX
  5
206
330
E0
100
AcDbEntity
  8
0
  6
CONTINUOUS
 62
     7
100
AcDbVertex
100
AcDb2dVertex
 10
2.5950226429
 20
4.539094516
 30
0.0
  0
VERTEX
  5
207
330
E0
100
AcDbEntity
  8
0
  6
CONTINUOUS
 62
     7
100
AcDbVertex
100
AcDb2dVertex
 10
2.5772067321
 20
4.5384452471
 30
0.0
  0
VERTEX
  5
208
330
E0
100
AcDbEntity
  8
0
  6
CONTINUOUS
 62
     7
100
AcDbVertex
100
AcDb2dVertex
 10
2.5588702817
 20
4.5382202466
 30
0.0
  0
VERTEX
  5
209
330
E0
100
AcDbEntity
  8
0
  6
CONTINUOUS
 62
     7
100
AcDbVertex
100
AcDb2dVertex
 10
2.5405615435
 20
4.5384467409
 30
0.0
  0
VERTEX
  5
20A
330
E0
100
AcDbEntity
  8
0
  6
CONTINUOUS
 62
     7
100
AcDbVertex
100
AcDb2dVertex
 10
2.5227203984
 20
4.5390992121
 30
0.0
  0
VERTEX
  5
20B
330
E0
100
AcDbEntity
  8
0
  6
CONTINUOUS
 62
     7
100
AcDbVertex
100
AcDb2dVertex
 10
2.5063050772
 20
4.5400557485
 30
0.0
  0
VERTEX
  5
20C
330
E0
100
AcDbEntity
  8
0
  6
CONTINUOUS
 62
     7
100
AcDbVertex
100
AcDb2dVertex
 10
2.492066034
 20
4.5411752308
 30
0.0
  0
VERTEX
  5
20D
330
E0
100
AcDbEntity
  8
0
  6
CONTINUOUS
 62
     7
100
AcDbVertex
100
AcDb2dVertex
 10
2.4804170277
 20
4.5422936124
 30
0.0
  0
VERTEX
  5
20E
330
E0
100
AcDbEntity
  8
0
  6
CONTINUOUS
 62
     7
100
AcDbVertex
100
AcDb2dVertex
 10
2.4716896691
 20
4.5432530974
 30
0.0
  0
VERTEX
  5
20F
330
E0
100
AcDbEntity
  8
0
  6
CONTINUOUS
 62
     7
100
AcDbVertex
100
AcDb2dVertex
 10
2.4662404555
 20
4.5438908393
 30
0.0
  0
VERTEX
  5
210
330
E0
100
AcDbEntity
  8
0
  6
CONTINUOUS
 62
     7
100
AcDbVertex
100
AcDb2dVertex
 10
2.4644369156
 20
4.5441113573
 30
0.0
  0
VERTEX
  5
211
330
E0
100
AcDbEntity
  8
0
  6
CONTINUOUS
 62
     7
100
AcDbVertex
100
AcDb2dVertex
 10
2.4644369156
 20
4.5441113573
 30
0.0
  0
SEQEND
  5
212
330
E0
100
AcDbEntity
  8
0
  6
CONTINUOUS
 62
     7
  0
POLYLINE
  5
E1
330
1F
100
AcDbEntity
  8
0
  6
CONTINUOUS
 62
     7
100
AcDb2dPolyline
 66
     1
 10
0.0
 20
0.0
 30
0.0
  0
VERTEX
  5
213
330
E1
100
AcDbEntity
  8
0
  6
CONTINUOUS
 62
     7
100
AcDbVertex
100
AcDb2dVertex
 10
4.1888248485
 20
4.5441101023
 30
0.0
  0
VERTEX
  5
214
330
E1
100
AcDbEntity
  8
0
  6
CONTINUOUS
 62
     7
100
AcDbVertex
100
AcDb2dVertex
 10
4.1888352333
 20
4.5441113501
 30
0.0
  0
VERTEX
  5
215
330
E1
100
AcDbEntity
  8
0
  6
CONTINUOUS
 62
     7
100
AcDbVertex
100
AcDb2dVertex
 10
4.187012794
 20
4.543888153
 30
0.0
  0
VERTEX
  5
216
330
E1
100
AcDbEntity
  8
0
  6
CONTINUOUS
 62
     7
100
AcDbVertex
100
AcDb2dVertex
 10
4.1815434009
 20
4.543247671
 30
0.0
  0
VERTEX
  5
217
330
E1
100
AcDbEntity
  8
0
  6
CONTINUOUS
 62
     7
100
AcDbVertex
100
AcDb2dVertex
 10
4.172807899
 20
4.5422883202
 30
0.0
  0
VERTEX
  5
218
330
E1
100
AcDbEntity
  8
0
  6
CONTINUOUS
 62
     7
100
AcDbVertex
100
AcDb2dVertex
 10
4.1611275732
 20
4.5411682996
 30
0.0
  0
VERTEX
  5
219
330
E1
100
AcDbEntity
  8
0
  6
CONTINUOUS
 62
     7
100
AcDbVertex
100
AcDb2dVertex
 10
4.1468920626
 20
4.5400504727
 30
0.0
  0
VERTEX
  5
21A
330
E1
100
AcDbEntity
  8
0
  6
CONTINUOUS
 62
     7
100
AcDbVertex
100
AcDb2dVertex
 10
4.1304557138
 20
4.539094516
 30
0.0
  0
VERTEX
  5
21B
330
E1
100
AcDbEntity
  8
0
  6
CONTINUOUS
 62
     7
100
AcDbVertex
100
AcDb2dVertex
 10
4.112639803
 20
4.5384452471
 30
0.0
  0
VERTEX
  5
21C
330
E1
100
AcDbEntity
  8
0
  6
CONTINUOUS
 62
     7
100
AcDbVertex
100
AcDb2dVertex
 10
4.0943033526
 20
4.5382202466
 30
0.0
  0
VERTEX
  5
21D
330
E1
100
AcDbEntity
  8
0
  6
CONTINUOUS
 62
     7
100
AcDbVertex
100
AcDb2dVertex
 10
4.0759946144
 20
4.5384467409
 30
0.0
  0
VERTEX
  5
21E
330
E1
100
AcDbEntity
  8
0
  6
CONTINUOUS
 62
     7
100
AcDbVertex
100
AcDb2dVertex
 10
4.0581534692
 20
4.5390992121
 30
0.0
  0
VERTEX
  5
21F
330
E1
100
AcDbEntity
  8
0
  6
CONTINUOUS
 62
     7
100
AcDbVertex
100
AcDb2dVertex
 10
4.0417381481
 20
4.5400557485
 30
0.0
  0
VERTEX
  5
220
330
E1
100
AcDbEntity
  8
0
  6
CONTINUOUS
 62
     7
100
AcDbVertex
100
AcDb2dVertex
 10
4.0274991049
 20
4.5411752308
 30
0.0
  0
VERTEX
  5
221
330
E1
100
AcDbEntity
  8
0
  6
CONTINUOUS
 62
     7
100
AcDbVertex
100
AcDb2dVertex
 10
4.0158500986
 20
4.5422936124
 30
0.0
  0
VERTEX
  5
222
330
E1
100
AcDbEntity
  8
0
  6
CONTINUOUS
 62
     7
100
AcDbVertex
100
AcDb2dVertex
 10
4.00712274
 20
4.5432530974
 30
0.0
  0
VERTEX
  5
223
330
E1
100
AcDbEntity
  8
0
  6
CONTINUOUS
 62
     7
100
AcDbVertex
100
AcDb2dVertex
 10
4.0016735263
 20
4.5438908393
 30
0.0
  0
VERTEX
  5
224
330
E1
100
AcDbEntity
  8
0
  6
CONTINUOUS
 62
     7
100
AcDbVertex
100
AcDb2dVertex
 10
3.9998699865
 20
4.5441113573
 30
0.0
  0
VERTEX
  5
225
330
E1
100
AcDbEntity
  8
0
  6
CONTINUOUS
 62
     7
100
AcDbVertex
100
AcDb2dVertex
 10
3.9998699865
 20
4.5441113573
 30
0.0
  0
SEQEND
  5
226
330
E1
100
AcDbEntity
  8
0
  6
CONTINUOUS
 62
     7
  0
LINE
  5
E2
330
1F
100
AcDbEntity
  8
0
  6
CONTINUOUS
 62
     7
100
AcDbLine
 10
4.4289983081
 20
4.5291113573
 30
0.0
 11
4.4289983081
 21
2.9843082077
 31
0.0
  0
LINE
  5
E3
330
1F
100
AcDbEntity
  8
0
  6
CONTINUOUS
 62
     7
100
AcDbLine
 10
2.2242738987
 20
2.9843082077
 30
0.0
 11
2.2242738987
 21
4.5291113573
 31
0.0
  0
LINE
  5
E4
330
1F
100
AcDbEntity
  8
0
  6
CONTINUOUS
 62
     7
100
AcDbLine
 10
2.6315967333
 20
4.5441113573
 30
0.0
 11
2.4862424026
 21
4.5441113573
 31
0.0
  0
LINE
  5
E5
330
1F
100
AcDbEntity
  8
0
  6
CONTINUOUS
 62
     7
100
AcDbLine
 10
4.0216754735
 20
4.5441113573
 30
0.0
 11
4.1670298042
 21
4.5441113573
 31
0.0
  0
LINE
  5
E6
330
1F
100
AcDbEntity
  8
0
  6
HIDDEN
 62
     7
100
AcDbLine
 10
3.2766361034
 20
3.9685601762
 30
0.0
 11
3.2766361034
 21
3.5448593888
 31
0.0
  0
LINE
  5
E7
330
1F
100
AcDbEntity
  8
0
  6
HIDDEN
 62
     7
100
AcDbLine
 10
3.3766361034
 20
3.9685601762
 30
0.0
 11
3.3766361034
 21
3.5448593888
 31
0.0
  0
LINE
  5
E8
330
1F
100
AcDbEntity
  8
0
  6
HIDDEN
 62
     7
100
AcDbLine
 10
2.558919568
 20
3.9353562597
 30
0.0
 11
2.5577488703
 21
3.935398738
 31
0.0
  0
SPLINE
  5
E9
330
1F
100
AcDbEntity
  8
0
  6
HIDDEN
 62
     7
100
AcDbSpline
210
0.0
220
0.0
230
1.0
 70
     8
 71
     3
 72
    27
 73
    23
 74
     0
 42
0.00000001
 43
0.00000001
 40
0.0
 40
0.0
 40
0.0
 40
0.0
 40
0.0236523533029622
 40
0.0722471543009917
 40
0.1222159035455618
 40
0.1716346155882176
 40
0.2223067285990168
 40
0.2752325014980088
 40
0.3295902316471358
 40
0.3841391951042971
 40
0.4404863681935093
 40
0.4914207373495483
 40
0.5440498612206656
 40
0.5917953803283436
 40
0.6408232421094852
 40
0.6906743907875939
 40
0.7417608960610633
 40
0.7956589157667632
 40
0.8511016778941761
 40
0.9050300136873948
 40
0.9607620349553573
 40
1.0
 40
1.0
 40
1.0
 40
1.0
 10
2.476536107305682
 20
3.95343701028666
 30
0.0
 10
2.476467886936761
 20
3.953465589881431
 30
0.0
 10
2.476259504816943
 20
3.953552887511686
 30
0.0
 10
2.478187614779098
 20
3.95274496015309
 30
0.0
 10
2.482012172192596
 20
3.951190929559587
 30
0.0
 10
2.487865356390427
 20
3.94893482742273
 30
0.0
 10
2.495520811466381
 20
3.946215359625276
 30
0.0
 10
2.505072263046303
 20
3.94320521553876
 30
0.0
 10
2.516374114179673
 20
3.940227194070354
 30
0.0
 10
2.529233553190512
 20
3.937642529817415
 30
0.0
 10
2.54283024097138
 20
3.935901257857855
 30
0.0
 10
2.556796134577377
 20
3.935194013767645
 30
0.0
 10
2.570089246167718
 20
3.935545757386929
 30
0.0
 10
2.582854967496956
 20
3.936818810890285
 30
0.0
 10
2.594734426618808
 20
3.938792895113675
 30
0.0
 10
2.605931913295334
 20
3.94134130345598
 30
0.0
 10
2.616264248164744
 20
3.944257151060069
 30
0.0
 10
2.625424937980102
 20
3.947278799068124
 30
0.0
 10
2.632903689933595
 20
3.950040568044899
 30
0.0
 10
2.63826282213812
 20
3.952170361037547
 30
0.0
 10
2.641232071150381
 20
3.953406528122158
 30
0.0
 10
2.64136382648247
 20
3.953462347987741
 30
0.0
 10
2.641418262745079
 20
3.953485410620679
 30
0.0
  0
SPLINE
  5
EA
330
1F
100
AcDbEntity
  8
0
  6
HIDDEN
 62
     7
100
AcDbSpline
210
0.0
220
0.0
230
1.0
 70
     8
 71
     3
 72
     9
 73
     5
 74
     0
 42
0.00000001
 43
0.00000001
 40
0.0
 40
0.0
 40
0.0
 40
0.0
 40
0.418090001970124
 40
1.0
 40
1.0
 40
1.0
 40
1.0
 10
2.566881167203203
 20
3.93563551735477
 30
0.0
 10
2.565782233920657
 20
3.935550462210603
 30
0.0
 10
2.563153772877896
 20
3.935347024807732
 30
0.0
 10
2.560477132024947
 20
3.935352862614021
 30
0.0
 10
2.558919567951481
 20
3.935356259691866
 30
0.0
  0
SPLINE
  5
EB
330
1F
100
AcDbEntity
  8
0
  6
HIDDEN
 62
     7
100
AcDbSpline
210
0.0
220
0.0
230
1.0
 70
     8
 71
     3
 72
    64
 73
    60
 74
     0
 42
0.00000001
 43
0.00000001
 40
-0.0312500000000001
 40
-0.0312500000000001
 40
0.0
 40
0.0
 40
0.0312499999999997
 40
0.0312499999999997
 40
0.0624999999999993
 40
0.0624999999999993
 40
0.093749999999999
 40
0.093749999999999
 40
0.1249999999999987
 40
0.1249999999999987
 40
0.1874999999999979
 40
0.1874999999999979
 40
0.2187499999999979
 40
0.2187499999999979
 40
0.2499999999999979
 40
0.2499999999999979
 40
0.2812499999999979
 40
0.2812499999999979
 40
0.3124999999999979
 40
0.3124999999999979
 40
0.3437499999999979
 40
0.3437499999999979
 40
0.3749999999999979
 40
0.3749999999999979
 40
0.4062499999999979
 40
0.4062499999999979
 40
0.4374999999999979
 40
0.4374999999999979
 40
0.4999999999999981
 40
0.4999999999999981
 40
0.5312499999999982
 40
0.5312499999999982
 40
0.5624999999999983
 40
0.5624999999999983
 40
0.5937499999999984
 40
0.5937499999999984
 40
0.6249999999999986
 40
0.6249999999999986
 40
0.6562499999999987
 40
0.6562499999999987
 40
0.6874999999999988
 40
0.6874999999999988
 40
0.7187499999999989
 40
0.7187499999999989
 40
0.749999999999999
 40
0.749999999999999
 40
0.8124999999999993
 40
0.8124999999999993
 40
0.8437499999999994
 40
0.8437499999999994
 40
0.8749999999999996
 40
0.8749999999999996
 40
0.9062499999999997
 40
0.9062499999999997
 40
0.9374999999999998
 40
0.9374999999999998
 40
0.9687499999999999
 40
0.9687499999999999
 40
1.0
 40
1.0
 40
1.03125
 40
1.03125
 10
2.476242402597151
 20
3.751180147078972
 30
0.0
 10
2.476242402597151
 20
3.762239417831106
 30
0.0
 10
2.476791465714293
 20
3.767664706245752
 30
0.0
 10
2.478931506131964
 20
3.778318704193511
 30
0.0
 10
2.480551545665296
 20
3.783603236755274
 30
0.0
 10
2.484726235981579
 20
3.793590052145629
 30
0.0
 10
2.487271550997673
 20
3.798315659541657
 30
0.0
 10
2.493271033637001
 20
3.807254389327784
 30
0.0
 10
2.496713428205803
 20
3.81142973617263
 30
0.0
 10
2.508015424526905
 20
3.822722931120932
 30
0.0
 10
2.517108837732801
 20
3.82884036092843
 30
0.0
 10
2.531977735569251
 20
3.835058441021983
 30
0.0
 10
2.537245391645642
 20
3.836681684047152
 30
0.0
 10
2.547941330227318
 20
3.838836229226264
 30
0.0
 10
2.553346646578643
 20
3.839379653424995
 30
0.0
 10
2.564273914422021
 20
3.839394097731217
 30
0.0
 10
2.569819941425778
 20
3.838845391154611
 30
0.0
 10
2.580482627867577
 20
3.836710474985686
 30
0.0
 10
2.585684045756477
 20
3.835124499872542
 30
0.0
 10
2.595743967976239
 20
3.83093355723548
 30
0.0
 10
2.600469857080353
 20
3.828387823872495
 30
0.0
 10
2.609365891501183
 20
3.822431442419273
 30
0.0
 10
2.61356541274754
 20
3.818982182174169
 30
0.0
 10
2.621120999179158
 20
3.811436394569097
 30
0.0
 10
2.624511616042338
 20
3.807327262697241
 30
0.0
 10
2.63051717392123
 20
3.798401854821658
 30
0.0
 10
2.633107032589219
 20
3.793597198445414
 30
0.0
 10
2.639339575630803
 20
3.778708119280044
 30
0.0
 10
2.641582244283945
 20
3.767712743452432
 30
0.0
 10
2.641603869215515
 20
3.751372425427631
 30
0.0
 10
2.641061488091567
 20
3.745842423756083
 30
0.0
 10
2.638915688546854
 20
3.7351223968078
 30
0.0
 10
2.637331298558267
 20
3.729941056995054
 30
0.0
 10
2.633159471825496
 20
3.719921185957209
 30
0.0
 10
2.63057063948888
 20
3.715112876250507
 30
0.0
 10
2.624607277987063
 20
3.706219155517682
 30
0.0
 10
2.621189713513928
 20
3.702057501022348
 30
0.0
 10
2.613583980571449
 20
3.694450286094402
 30
0.0
 10
2.609467399888895
 20
3.691067005070894
 30
0.0
 10
2.600598529585889
 20
3.685107256708002
 30
0.0
 10
2.595785083443529
 20
3.682510147751197
 30
0.0
 10
2.585824250821855
 20
3.678346589166847
 30
0.0
 10
2.580670824827998
 20
3.676759519564504
 30
0.0
 10
2.569997609516204
 20
3.674597428286717
 30
0.0
 10
2.564450172896837
 20
3.674037790407531
 30
0.0
 10
2.548092010873793
 20
3.674022380540925
 30
0.0
 10
2.537105418740809
 20
3.676235107241028
 30
0.0
 10
2.522157864137086
 20
3.682458721856016
 30
0.0
 10
2.51733921322794
 20
3.685048586540422
 30
0.0
 10
2.508433083284421
 20
3.691018323612878
 30
0.0
 10
2.504310684799722
 20
3.694402297091568
 30
0.0
 10
2.496709306911063
 20
3.701990167391657
 30
0.0
 10
2.493274850199745
 20
3.706164451503242
 30
0.0
 10
2.487315260078974
 20
3.715033859623854
 30
0.0
 10
2.484750533301061
 20
3.719773262227333
 30
0.0
 10
2.480535680394941
 20
3.729852411045484
 30
0.0
 10
2.478950624250696
 20
3.735031890669014
 30
0.0
 10
2.47680316922255
 20
3.745670760365334
 30
0.0
 10
2.476242402597151
 20
3.751180147078972
 30
0.0
 10
2.476242402597151
 20
3.762239417831106
 30
0.0
  0
LINE
  5
EC
330
1F
100
AcDbEntity
  8
0
  6
HIDDEN
 62
     7
100
AcDbLine
 10
4.0943526388
 20
3.9353562597
 30
0.0
 11
4.0931819411
 21
3.935398738
 31
0.0
  0
SPLINE
  5
ED
330
1F
100
AcDbEntity
  8
0
  6
HIDDEN
 62
     7
100
AcDbSpline
210
0.0
220
0.0
230
1.0
 70
     8
 71
     3
 72
    27
 73
    23
 74
     0
 42
0.00000001
 43
0.00000001
 40
0.0
 40
0.0
 40
0.0
 40
0.0
 40
0.0236523533029622
 40
0.0722471543009917
 40
0.1222159035455618
 40
0.1716346155882176
 40
0.2223067285990168
 40
0.2752325014980088
 40
0.3295902316471358
 40
0.3841391951042971
 40
0.4404863681935093
 40
0.4914207373495483
 40
0.5440498612206656
 40
0.5917953803283436
 40
0.6408232421094852
 40
0.6906743907875939
 40
0.7417608960610633
 40
0.7956589157667632
 40
0.8511016778941761
 40
0.9050300136873948
 40
0.9607620349553573
 40
1.0
 40
1.0
 40
1.0
 40
1.0
 10
4.011969178171825
 20
3.95343701028666
 30
0.0
 10
4.011900957802903
 20
3.953465589881431
 30
0.0
 10
4.011692575683085
 20
3.953552887511686
 30
0.0
 10
4.013620685645241
 20
3.95274496015309
 30
0.0
 10
4.017445243058738
 20
3.951190929559587
 30
0.0
 10
4.023298427256569
 20
3.94893482742273
 30
0.0
 10
4.030953882332523
 20
3.946215359625276
 30
0.0
 10
4.040505333912445
 20
3.94320521553876
 30
0.0
 10
4.051807185045814
 20
3.940227194070354
 30
0.0
 10
4.064666624056654
 20
3.937642529817415
 30
0.0
 10
4.078263311837522
 20
3.935901257857855
 30
0.0
 10
4.09222920544352
 20
3.935194013767645
 30
0.0
 10
4.10552231703386
 20
3.935545757386929
 30
0.0
 10
4.118288038363097
 20
3.936818810890285
 30
0.0
 10
4.13016749748495
 20
3.938792895113675
 30
0.0
 10
4.141364984161476
 20
3.94134130345598
 30
0.0
 10
4.151697319030886
 20
3.944257151060069
 30
0.0
 10
4.160858008846244
 20
3.947278799068124
 30
0.0
 10
4.168336760799738
 20
3.950040568044899
 30
0.0
 10
4.173695893004262
 20
3.952170361037547
 30
0.0
 10
4.176665142016524
 20
3.953406528122158
 30
0.0
 10
4.176796897348612
 20
3.953462347987741
 30
0.0
 10
4.176851333611221
 20
3.953485410620679
 30
0.0
  0
SPLINE
  5
EE
330
1F
100
AcDbEntity
  8
0
  6
HIDDEN
 62
     7
100
AcDbSpline
210
0.0
220
0.0
230
1.0
 70
     8
 71
     3
 72
     9
 73
     5
 74
     0
 42
0.00000001
 43
0.00000001
 40
0.0
 40
0.0
 40
0.0
 40
0.0
 40
0.4180900019701142
 40
1.0
 40
1.0
 40
1.0
 40
1.0
 10
4.102314238069345
 20
3.93563551735477
 30
0.0
 10
4.101215304786798
 20
3.935550462210603
 30
0.0
 10
4.098586843744038
 20
3.935347024807732
 30
0.0
 10
4.09591020289109
 20
3.935352862614021
 30
0.0
 10
4.094352638817623
 20
3.935356259691866
 30
0.0
  0
SPLINE
  5
EF
330
1F
100
AcDbEntity
  8
0
  6
HIDDEN
 62
     7
100
AcDbSpline
210
0.0
220
0.0
230
1.0
 70
     8
 71
     3
 72
    64
 73
    60
 74
     0
 42
0.00000001
 43
0.00000001
 40
-0.0312500000000001
 40
-0.0312500000000001
 40
0.0
 40
0.0
 40
0.0312499999999997
 40
0.0312499999999997
 40
0.0624999999999993
 40
0.0624999999999993
 40
0.093749999999999
 40
0.093749999999999
 40
0.1249999999999987
 40
0.1249999999999987
 40
0.1874999999999979
 40
0.1874999999999979
 40
0.2187499999999979
 40
0.2187499999999979
 40
0.2499999999999979
 40
0.2499999999999979
 40
0.2812499999999979
 40
0.2812499999999979
 40
0.3124999999999979
 40
0.3124999999999979
 40
0.3437499999999979
 40
0.3437499999999979
 40
0.3749999999999979
 40
0.3749999999999979
 40
0.4062499999999979
 40
0.4062499999999979
 40
0.4374999999999979
 40
0.4374999999999979
 40
0.4999999999999981
 40
0.4999999999999981
 40
0.5312499999999982
 40
0.5312499999999982
 40
0.5624999999999983
 40
0.5624999999999983
 40
0.5937499999999984
 40
0.5937499999999984
 40
0.6249999999999986
 40
0.6249999999999986
 40
0.6562499999999987
 40
0.6562499999999987
 40
0.6874999999999988
 40
0.6874999999999988
 40
0.7187499999999989
 40
0.7187499999999989
 40
0.749999999999999
 40
0.749999999999999
 40
0.8124999999999993
 40
0.8124999999999993
 40
0.8437499999999994
 40
0.8437499999999994
 40
0.8749999999999996
 40
0.8749999999999996
 40
0.9062499999999997
 40
0.9062499999999997
 40
0.9374999999999998
 40
0.9374999999999998
 40
0.9687499999999999
 40
0.9687499999999999
 40
1.0
 40
1.0
 40
1.03125
 40
1.03125
 10
4.011675473463293
 20
3.751180147078972
 30
0.0
 10
4.011675473463293
 20
3.762239417831106
 30
0.0
 10
4.012224536580435
 20
3.767664706245752
 30
0.0
 10
4.014364576998107
 20
3.778318704193511
 30
0.0
 10
4.015984616531439
 20
3.783603236755274
 30
0.0
 10
4.020159306847721
 20
3.793590052145629
 30
0.0
 10
4.022704621863816
 20
3.798315659541657
 30
0.0
 10
4.028704104503142
 20
3.807254389327784
 30
0.0
 10
4.032146499071945
 20
3.81142973617263
 30
0.0
 10
4.043448495393047
 20
3.822722931120932
 30
0.0
 10
4.052541908598943
 20
3.82884036092843
 30
0.0
 10
4.067410806435393
 20
3.835058441021983
 30
0.0
 10
4.072678462511783
 20
3.836681684047152
 30
0.0
 10
4.08337440109346
 20
3.838836229226264
 30
0.0
 10
4.088779717444785
 20
3.839379653424995
 30
0.0
 10
4.099706985288163
 20
3.839394097731217
 30
0.0
 10
4.105253012291921
 20
3.838845391154611
 30
0.0
 10
4.11591569873372
 20
3.836710474985686
 30
0.0
 10
4.121117116622619
 20
3.835124499872542
 30
0.0
 10
4.131177038842381
 20
3.83093355723548
 30
0.0
 10
4.135902927946495
 20
3.828387823872495
 30
0.0
 10
4.144798962367324
 20
3.822431442419273
 30
0.0
 10
4.148998483613681
 20
3.818982182174169
 30
0.0
 10
4.156554070045299
 20
3.811436394569097
 30
0.0
 10
4.159944686908479
 20
3.807327262697241
 30
0.0
 10
4.165950244787372
 20
3.798401854821658
 30
0.0
 10
4.168540103455362
 20
3.793597198445414
 30
0.0
 10
4.174772646496946
 20
3.778708119280044
 30
0.0
 10
4.177015315150088
 20
3.767712743452432
 30
0.0
 10
4.177036940081657
 20
3.751372425427631
 30
0.0
 10
4.17649455895771
 20
3.745842423756083
 30
0.0
 10
4.174348759412997
 20
3.7351223968078
 30
0.0
 10
4.172764369424409
 20
3.729941056995054
 30
0.0
 10
4.168592542691639
 20
3.719921185957209
 30
0.0
 10
4.166003710355022
 20
3.715112876250507
 30
0.0
 10
4.160040348853205
 20
3.706219155517682
 30
0.0
 10
4.15662278438007
 20
3.702057501022348
 30
0.0
 10
4.149017051437591
 20
3.694450286094402
 30
0.0
 10
4.144900470755038
 20
3.691067005070894
 30
0.0
 10
4.136031600452031
 20
3.685107256708002
 30
0.0
 10
4.131218154309671
 20
3.682510147751197
 30
0.0
 10
4.121257321687997
 20
3.678346589166847
 30
0.0
 10
4.116103895694141
 20
3.676759519564504
 30
0.0
 10
4.105430680382345
 20
3.674597428286717
 30
0.0
 10
4.09988324376298
 20
3.674037790407531
 30
0.0
 10
4.083525081739936
 20
3.674022380540925
 30
0.0
 10
4.07253848960695
 20
3.676235107241028
 30
0.0
 10
4.057590935003228
 20
3.682458721856016
 30
0.0
 10
4.052772284094083
 20
3.685048586540422
 30
0.0
 10
4.043866154150563
 20
3.691018323612878
 30
0.0
 10
4.039743755665864
 20
3.694402297091568
 30
0.0
 10
4.032142377777205
 20
3.701990167391657
 30
0.0
 10
4.028707921065887
 20
3.706164451503242
 30
0.0
 10
4.022748330945116
 20
3.715033859623854
 30
0.0
 10
4.020183604167203
 20
3.719773262227333
 30
0.0
 10
4.015968751261084
 20
3.729852411045484
 30
0.0
 10
4.014383695116838
 20
3.735031890669014
 30
0.0
 10
4.012236240088691
 20
3.745670760365334
 30
0.0
 10
4.011675473463293
 20
3.751180147078972
 30
0.0
 10
4.011675473463293
 20
3.762239417831106
 30
0.0
  0
SPLINE
  5
F0
330
1F
100
AcDbEntity
  8
0
  6
HIDDEN
 62
     7
100
AcDbSpline
210
0.0
220
0.0
230
1.0
 70
     8
 71
     3
 72
    24
 73
    20
 74
     0
 42
0.00000001
 43
0.00000001
 40
0.0
 40
0.0
 40
0.0
 40
0.0
 40
0.0509000453061336
 40
0.1095046829430712
 40
0.1758270010622229
 40
0.249872222405901
 40
0.3242518529986337
 40
0.3907286905134633
 40
0.4493073076036667
 40
0.5000003305275811
 40
0.5507094227377726
 40
0.609286121075319
 40
0.6757432247120485
 40
0.7500854573603037
 40
0.8242254342961362
 40
0.890583299662786
 40
0.949164043975925
 40
0.9999805770030543
 40
1.0
 40
1.0
 40
1.0
 40
1.0
 10
2.476242402597151
 20
4.530548414284837
 30
0.0
 10
2.476448518408283
 20
4.530508605450684
 30
0.0
 10
2.47689194918348
 20
4.530422962034534
 30
0.0
 10
2.480849260706877
 20
4.529833018289269
 30
0.0
 10
2.488304319516135
 20
4.528935036659083
 30
0.0
 10
2.499911384371515
 20
4.527660507115132
 30
0.0
 10
2.514586850423225
 20
4.526387216475139
 30
0.0
 10
2.530227650821633
 20
4.525474286456845
 30
0.0
 10
2.545025285732763
 20
4.524908433515146
 30
0.0
 10
2.558877662625759
 20
4.524689982042347
 30
0.0
 10
2.572730938605669
 20
4.524905678388645
 30
0.0
 10
2.587532519961674
 20
4.525469757419289
 30
0.0
 10
2.603173867540705
 20
4.526380781170583
 30
0.0
 10
2.617875533192304
 20
4.527655877230835
 30
0.0
 10
2.629463353900897
 20
4.528924459915904
 30
0.0
 10
2.63706313202411
 20
4.52984726422082
 30
0.0
 10
2.640635018861846
 20
4.530368033689461
 30
0.0
 10
2.641943978657858
 20
4.530608134273574
 30
0.0
 10
2.641596417261638
 20
4.530548361575129
 30
0.0
 10
2.641596284468149
 20
4.530548338737652
 30
0.0
  0
SPLINE
  5
F1
330
1F
100
AcDbEntity
  8
0
  6
HIDDEN
 62
     7
100
AcDbSpline
210
0.0
220
0.0
230
1.0
 70
     8
 71
     3
 72
    24
 73
    20
 74
     0
 42
0.00000001
 43
0.00000001
 40
0.0
 40
0.0
 40
0.0
 40
0.0
 40
0.0509000453063679
 40
0.1095046829433834
 40
0.1758270010624567
 40
0.2498722224059007
 40
0.3242518529983976
 40
0.3907286905131477
 40
0.4493073076034301
 40
0.5000003305275805
 40
0.5507094227380666
 40
0.6092861210757103
 40
0.6757432247123418
 40
0.7500854573603034
 40
0.8242254342958426
 40
0.8905832996623941
 40
0.9491640439756307
 40
0.999980577003054
 40
1.0
 40
1.0
 40
1.0
 40
1.0
 10
4.011675473463293
 20
4.530548414284837
 30
0.0
 10
4.011881589274427
 20
4.530508605450684
 30
0.0
 10
4.012325020049627
 20
4.530422962034534
 30
0.0
 10
4.016282331573043
 20
4.52983301828927
 30
0.0
 10
4.023737390382305
 20
4.528935036659084
 30
0.0
 10
4.035344455237661
 20
4.527660507115132
 30
0.0
 10
4.050019921289327
 20
4.526387216475137
 30
0.0
 10
4.06566072168771
 20
4.525474286456843
 30
0.0
 10
4.080458356598857
 20
4.524908433515145
 30
0.0
 10
4.094310733491906
 20
4.524689982042347
 30
0.0
 10
4.10816400947187
 20
4.524905678388643
 30
0.0
 10
4.122965590827897
 20
4.525469757419288
 30
0.0
 10
4.138606938406896
 20
4.52638078117058
 30
0.0
 10
4.153308604058443
 20
4.527655877230837
 30
0.0
 10
4.164896424766998
 20
4.528924459915897
 30
0.0
 10
4.17249620289024
 20
4.529847264220847
 30
0.0
 10
4.176068089727924
 20
4.53036803368938
 30
0.0
 10
4.177377049524108
 20
4.530608134273727
 30
0.0
 10
4.17702948812778
 20
4.530548361575128
 30
0.0
 10
4.177029355334292
 20
4.530548338737652
 30
0.0
  0
CIRCLE
  5
F2
330
1F
100
AcDbEntity
  8
0
  6
HIDDEN
 62
     7
100
AcDbCircle
 10
4.0943526388
 20
3.7567097825
 30
0.0
 40
0.0726771653543299
  0
POLYLINE
  5
F3
330
1F
100
AcDbEntity
  8
0
  6
HIDDEN
 62
     7
100
AcDb2dPolyline
 66
     1
 10
0.0
 20
0.0
 30
0.0
  0
VERTEX
  5
227
330
F3
100
AcDbEntity
  8
0
  6
HIDDEN
 62
     7
100
AcDbVertex
100
AcDb2dVertex
 10
4.1770298042
 20
3.7567097825
 30
0.0
  0
VERTEX
  5
228
330
F3
100
AcDbEntity
  8
0
  6
HIDDEN
 62
     7
100
AcDbVertex
100
AcDb2dVertex
 10
4.1759591566
 20
3.7434474325
 30
0.0
  0
VERTEX
  5
229
330
F3
100
AcDbEntity
  8
0
  6
HIDDEN
 62
     7
100
AcDbVertex
100
AcDb2dVertex
 10
4.1730165265
 20
3.7312636345
 30
0.0
  0
SEQEND
  5
22A
330
F3
100
AcDbEntity
  8
0
  6
HIDDEN
 62
     7
  0
POLYLINE
  5
F4
330
1F
100
AcDbEntity
  8
0
  6
HIDDEN
 62
     7
100
AcDb2dPolyline
 66
     1
 10
0.0
 20
0.0
 30
0.0
  0
VERTEX
  5
22B
330
F4
100
AcDbEntity
  8
0
  6
HIDDEN
 62
     7
100
AcDbVertex
100
AcDb2dVertex
 10
4.0140087026
 20
3.737206819
 30
0.0
  0
VERTEX
  5
22C
330
F4
100
AcDbEntity
  8
0
  6
HIDDEN
 62
     7
100
AcDbVertex
100
AcDb2dVertex
 10
4.01194357
 20
3.7500570346
 30
0.0
  0
VERTEX
  5
22D
330
F4
100
AcDbEntity
  8
0
  6
HIDDEN
 62
     7
100
AcDbVertex
100
AcDb2dVertex
 10
4.0118209266
 20
3.7616118385
 30
0.0
  0
SEQEND
  5
22E
330
F4
100
AcDbEntity
  8
0
  6
HIDDEN
 62
     7
  0
LINE
  5
F5
330
1F
100
AcDbEntity
  8
0
  6
HIDDEN
 62
     7
100
AcDbLine
 10
4.1770211095
 20
3.7579087942
 30
0.0
 11
4.1770298042
 21
3.7567097825
 31
0.0
  0
LINE
  5
F6
330
1F
100
AcDbEntity
  8
0
  6
HIDDEN
 62
     7
100
AcDbLine
 10
4.0943526388
 20
3.7004896418
 30
0.0
 11
4.0456645688
 21
3.7285997121
 31
0.0
  0
LINE
  5
F7
330
1F
100
AcDbEntity
  8
0
  6
HIDDEN
 62
     7
100
AcDbLine
 10
4.0456645688
 20
3.7848198528
 30
0.0
 11
4.0943526388
 21
3.8129299231
 31
0.0
  0
LINE
  5
F8
330
1F
100
AcDbEntity
  8
0
  6
HIDDEN
 62
     7
100
AcDbLine
 10
4.0943526388
 20
3.8129299231
 30
0.0
 11
4.1430407088
 21
3.7848198528
 31
0.0
  0
LINE
  5
F9
330
1F
100
AcDbEntity
  8
0
  6
HIDDEN
 62
     7
100
AcDbLine
 10
4.1430407088
 20
3.7848198528
 30
0.0
 11
4.1430407088
 21
3.7285997121
 31
0.0
  0
LINE
  5
FA
330
1F
100
AcDbEntity
  8
0
  6
HIDDEN
 62
     7
100
AcDbLine
 10
4.0456645688
 20
3.7285997121
 30
0.0
 11
4.0456645688
 21
3.7848198528
 31
0.0
  0
LINE
  5
FB
330
1F
100
AcDbEntity
  8
0
  6
HIDDEN
 62
     7
100
AcDbLine
 10
4.1430407088
 20
3.7285997121
 30
0.0
 11
4.0943526388
 21
3.7004896418
 31
0.0
  0
CIRCLE
  5
FC
330
1F
100
AcDbEntity
  8
0
  6
HIDDEN
 62
     7
100
AcDbCircle
 10
2.558919568
 20
3.7567097825
 30
0.0
 40
0.0726771653543299
  0
LINE
  5
FD
330
1F
100
AcDbEntity
  8
0
  6
HIDDEN
 62
     7
100
AcDbLine
 10
2.607607638
 20
3.7848198528
 30
0.0
 11
2.558919568
 21
3.8129299231
 31
0.0
  0
LINE
  5
FE
330
1F
100
AcDbEntity
  8
0
  6
HIDDEN
 62
     7
100
AcDbLine
 10
2.558919568
 20
3.8129299231
 30
0.0
 11
2.5102314979
 21
3.7848198528
 31
0.0
  0
LINE
  5
FF
330
1F
100
AcDbEntity
  8
0
  6
HIDDEN
 62
     7
100
AcDbLine
 10
2.5102314979
 20
3.7848198528
 30
0.0
 11
2.5102314979
 21
3.7285997121
 31
0.0
  0
LINE
  5
100
330
1F
100
AcDbEntity
  8
0
  6
HIDDEN
 62
     7
100
AcDbLine
 10
2.607607638
 20
3.7285997121
 30
0.0
 11
2.607607638
 21
3.7848198528
 31
0.0
  0
LINE
  5
101
330
1F
100
AcDbEntity
  8
0
  6
HIDDEN
 62
     7
100
AcDbLine
 10
2.5102314979
 20
3.7285997121
 30
0.0
 11
2.558919568
 21
3.7004896418
 31
0.0
  0
LINE
  5
102
330
1F
100
AcDbEntity
  8
0
  6
HIDDEN
 62
     7
100
AcDbLine
 10
2.558919568
 20
3.7004896418
 30
0.0
 11
2.607607638
 21
3.7285997121
 31
0.0
  0
LINE
  5
103
330
1F
100
AcDbEntity
  8
0
  6
HIDDEN
 62
     7
100
AcDbLine
 10
2.4762424026
 20
4.5341113573
 30
0.0
 11
2.6415967333
 21
4.5341113573
 31
0.0
  0
LINE
  5
104
330
1F
100
AcDbEntity
  8
0
  6
HIDDEN
 62
     7
100
AcDbLine
 10
2.6415967333
 20
3.9635601762
 30
0.0
 11
2.4762424026
 21
3.9635601762
 31
0.0
  0
LINE
  5
105
330
1F
100
AcDbEntity
  8
0
  6
HIDDEN
 62
     7
100
AcDbLine
 10
2.4862424026
 20
3.9535601762
 30
0.0
 11
2.6315967333
 21
3.9535601762
 31
0.0
  0
LINE
  5
106
330
1F
100
AcDbEntity
  8
0
  6
HIDDEN
 62
     7
100
AcDbLine
 10
2.558919568
 20
4.4941113573
 30
0.0
 11
2.558919568
 21
4.5441113573
 31
0.0
  0
LINE
  5
107
330
1F
100
AcDbEntity
  8
0
  6
HIDDEN
 62
     7
100
AcDbLine
 10
2.607607638
 20
4.4941113573
 30
0.0
 11
2.558919568
 21
4.4941113573
 31
0.0
  0
LINE
  5
108
330
1F
100
AcDbEntity
  8
0
  6
HIDDEN
 62
     7
100
AcDbLine
 10
2.558919568
 20
4.4941113573
 30
0.0
 11
2.5102314979
 21
4.4941113573
 31
0.0
  0
LINE
  5
109
330
1F
100
AcDbEntity
  8
0
  6
HIDDEN
 62
     7
100
AcDbLine
 10
2.5102314979
 20
4.4941113573
 30
0.0
 11
2.5102314979
 21
4.5441113573
 31
0.0
  0
LINE
  5
10A
330
1F
100
AcDbEntity
  8
0
  6
HIDDEN
 62
     7
100
AcDbLine
 10
2.607607638
 20
4.4941113573
 30
0.0
 11
2.607607638
 21
4.5441113573
 31
0.0
  0
LINE
  5
10B
330
1F
100
AcDbEntity
  8
0
  6
HIDDEN
 62
     7
100
AcDbLine
 10
4.1770298042
 20
4.5341113573
 30
0.0
 11
4.0116754735
 21
4.5341113573
 31
0.0
  0
LINE
  5
10C
330
1F
100
AcDbEntity
  8
0
  6
HIDDEN
 62
     7
100
AcDbLine
 10
4.0116754735
 20
3.9635601762
 30
0.0
 11
4.1770298042
 21
3.9635601762
 31
0.0
  0
LINE
  5
10D
330
1F
100
AcDbEntity
  8
0
  6
HIDDEN
 62
     7
100
AcDbLine
 10
4.1670298042
 20
3.9535601762
 30
0.0
 11
4.0216754735
 21
3.9535601762
 31
0.0
  0
LINE
  5
10E
330
1F
100
AcDbEntity
  8
0
  6
HIDDEN
 62
     7
100
AcDbLine
 10
4.0943526388
 20
4.4941113573
 30
0.0
 11
4.0943526388
 21
4.5441113573
 31
0.0
  0
LINE
  5
10F
330
1F
100
AcDbEntity
  8
0
  6
HIDDEN
 62
     7
100
AcDbLine
 10
4.0456645688
 20
4.4941113573
 30
0.0
 11
4.0943526388
 21
4.4941113573
 31
0.0
  0
LINE
  5
110
330
1F
100
AcDbEntity
  8
0
  6
HIDDEN
 62
     7
100
AcDbLine
 10
4.0943526388
 20
4.4941113573
 30
0.0
 11
4.1430407088
 21
4.4941113573
 31
0.0
  0
LINE
  5
111
330
1F
100
AcDbEntity
  8
0
  6
HIDDEN
 62
     7
100
AcDbLine
 10
4.1430407088
 20
4.4941113573
 30
0.0
 11
4.1430407088
 21
4.5441113573
 31
0.0
  0
LINE
  5
112
330
1F
100
AcDbEntity
  8
0
  6
HIDDEN
 62
     7
100
AcDbLine
 10
4.0456645688
 20
4.4941113573
 30
0.0
 11
4.0456645688
 21
4.5441113573
 31
0.0
  0
LINE
  5
113
330
1F
100
AcDbEntity
  8
0
  6
HIDDEN
 62
     7
100
AcDbLine
 10
2.2242738987
 20
3.5448593888
 30
0.0
 11
2.2392738987
 21
3.5598593888
 31
0.0
  0
LINE
  5
114
330
1F
100
AcDbEntity
  8
0
  6
HIDDEN
 62
     7
100
AcDbLine
 10
2.2392738987
 20
3.9535601762
 30
0.0
 11
2.2242738987
 21
3.9685601762
 31
0.0
  0
LINE
  5
115
330
1F
100
AcDbEntity
  8
0
  6
HIDDEN
 62
     7
100
AcDbLine
 10
3.3766361034
 20
3.9685601762
 30
0.0
 11
3.2766361034
 21
3.9685601762
 31
0.0
  0
LINE
  5
116
330
1F
100
AcDbEntity
  8
0
  6
HIDDEN
 62
     7
100
AcDbLine
 10
3.2766361034
 20
3.5448593888
 30
0.0
 11
3.3766361034
 21
3.5448593888
 31
0.0
  0
LINE
  5
117
330
1F
100
AcDbEntity
  8
0
  6
HIDDEN
 62
     7
100
AcDbLine
 10
4.4289983081
 20
3.9685601762
 30
0.0
 11
4.4139983081
 21
3.9535601762
 31
0.0
  0
LINE
  5
118
330
1F
100
AcDbEntity
  8
0
  6
HIDDEN
 62
     7
100
AcDbLine
 10
4.4139983081
 20
3.5598593888
 30
0.0
 11
4.4289983081
 21
3.5448593888
 31
0.0
  0
LINE
  5
119
330
1F
100
AcDbEntity
  8
0
  6
HIDDEN
 62
     7
100
AcDbLine
 10
2.4765361073
 20
3.9535601762
 30
0.0
 11
2.2392738987
 21
3.9535601762
 31
0.0
  0
LINE
  5
11A
330
1F
100
AcDbEntity
  8
0
  6
HIDDEN
 62
     7
100
AcDbLine
 10
3.2766361034
 20
3.9535601762
 30
0.0
 11
2.6414182627
 21
3.9535601762
 31
0.0
  0
LINE
  5
11B
330
1F
100
AcDbEntity
  8
0
  6
HIDDEN
 62
     7
100
AcDbLine
 10
2.2392738987
 20
3.5598593888
 30
0.0
 11
3.2766361034
 21
3.5598593888
 31
0.0
  0
LINE
  5
11C
330
1F
100
AcDbEntity
  8
0
  6
HIDDEN
 62
     7
100
AcDbLine
 10
4.0119691782
 20
3.9535601762
 30
0.0
 11
3.3766361034
 21
3.9535601762
 31
0.0
  0
LINE
  5
11D
330
1F
100
AcDbEntity
  8
0
  6
HIDDEN
 62
     7
100
AcDbLine
 10
4.4139983081
 20
3.9535601762
 30
0.0
 11
4.1768513336
 21
3.9535601762
 31
0.0
  0
LINE
  5
11E
330
1F
100
AcDbEntity
  8
0
  6
HIDDEN
 62
     7
100
AcDbLine
 10
3.3766361034
 20
3.5598593888
 30
0.0
 11
4.4139983081
 21
3.5598593888
 31
0.0
  0
LINE
  5
11F
330
1F
100
AcDbEntity
  8
0
  6
HIDDEN
 62
     7
100
AcDbLine
 10
2.464436897
 20
4.5441113585
 30
0.0
 11
2.4762423863
 21
4.5305484155
 31
0.0
  0
LINE
  5
120
330
1F
100
AcDbEntity
  8
0
  6
HIDDEN
 62
     7
100
AcDbLine
 10
2.6415966835
 20
4.5305484076
 30
0.0
 11
2.6534021634
 21
4.5441113504
 31
0.0
  0
LINE
  5
121
330
1F
100
AcDbEntity
  8
0
  6
HIDDEN
 62
     7
100
AcDbLine
 10
3.9998699679
 20
4.5441113585
 30
0.0
 11
4.0116754572
 21
4.5305484155
 31
0.0
  0
LINE
  5
122
330
1F
100
AcDbEntity
  8
0
  6
HIDDEN
 62
     7
100
AcDbLine
 10
4.1770297544
 20
4.5305484076
 30
0.0
 11
4.1888352342
 21
4.5441113504
 31
0.0
  0
LINE
  5
123
330
1F
100
AcDbEntity
  8
0
  6
HIDDEN
 62
     7
100
AcDbLine
 10
2.6415967333
 20
3.9534855357
 30
0.0
 11
2.6415967333
 21
4.5305471683
 31
0.0
  0
LINE
  5
124
330
1F
100
AcDbEntity
  8
0
  6
HIDDEN
 62
     7
100
AcDbLine
 10
2.4762424026
 20
4.5305484143
 30
0.0
 11
2.4762424026
 21
3.9534370198
 31
0.0
  0
LINE
  5
125
330
1F
100
AcDbEntity
  8
0
  6
HIDDEN
 62
     7
100
AcDbLine
 10
4.1770298042
 20
3.9534855357
 30
0.0
 11
4.1770298042
 21
4.5305471683
 31
0.0
  0
LINE
  5
126
330
1F
100
AcDbEntity
  8
0
  6
HIDDEN
 62
     7
100
AcDbLine
 10
4.0116754735
 20
4.5305484143
 30
0.0
 11
4.0116754735
 21
3.9534370198
 31
0.0
  0
LINE
  5
127
330
1F
100
AcDbEntity
  8
0
  6
HIDDEN
 62
     7
100
AcDbLine
 10
2.6415967333
 20
4.5341113573
 30
0.0
 11
2.6337658349
 21
4.5419422556
 31
0.0
  0
LINE
  5
128
330
1F
100
AcDbEntity
  8
0
  6
HIDDEN
 62
     7
100
AcDbLine
 10
2.4840736024
 20
4.541942557
 30
0.0
 11
2.4762424026
 21
4.5341113573
 31
0.0
  0
LINE
  5
129
330
1F
100
AcDbEntity
  8
0
  6
HIDDEN
 62
     7
100
AcDbLine
 10
2.6415967333
 20
3.9635601762
 30
0.0
 11
2.6415967333
 21
4.5341113573
 31
0.0
  0
LINE
  5
12A
330
1F
100
AcDbEntity
  8
0
  6
HIDDEN
 62
     7
100
AcDbLine
 10
2.4762424026
 20
4.5341113573
 30
0.0
 11
2.4762424026
 21
3.9635601762
 31
0.0
  0
LINE
  5
12B
330
1F
100
AcDbEntity
  8
0
  6
HIDDEN
 62
     7
100
AcDbLine
 10
2.4762424026
 20
3.9635601762
 30
0.0
 11
2.4862424026
 21
3.9535601762
 31
0.0
  0
LINE
  5
12C
330
1F
100
AcDbEntity
  8
0
  6
HIDDEN
 62
     7
100
AcDbLine
 10
2.6315967333
 20
3.9535601762
 30
0.0
 11
2.6415967333
 21
3.9635601762
 31
0.0
  0
LINE
  5
12D
330
1F
100
AcDbEntity
  8
0
  6
HIDDEN
 62
     7
100
AcDbLine
 10
4.1770298042
 20
3.9635601762
 30
0.0
 11
4.1770298042
 21
4.5341113573
 31
0.0
  0
LINE
  5
12E
330
1F
100
AcDbEntity
  8
0
  6
HIDDEN
 62
     7
100
AcDbLine
 10
4.0116754735
 20
4.5341113573
 30
0.0
 11
4.0116754735
 21
3.9635601762
 31
0.0
  0
LINE
  5
12F
330
1F
100
AcDbEntity
  8
0
  6
HIDDEN
 62
     7
100
AcDbLine
 10
4.1770298042
 20
4.5341113573
 30
0.0
 11
4.1691989058
 21
4.5419422556
 31
0.0
  0
LINE
  5
130
330
1F
100
AcDbEntity
  8
0
  6
HIDDEN
 62
     7
100
AcDbLine
 10
4.0195066732
 20
4.541942557
 30
0.0
 11
4.0116754735
 21
4.5341113573
 31
0.0
  0
LINE
  5
131
330
1F
100
AcDbEntity
  8
0
  6
HIDDEN
 62
     7
100
AcDbLine
 10
4.0116754735
 20
3.9635601762
 30
0.0
 11
4.0216754735
 21
3.9535601762
 31
0.0
  0
LINE
  5
132
330
1F
100
AcDbEntity
  8
0
  6
HIDDEN
 62
     7
100
AcDbLine
 10
4.1670298042
 20
3.9535601762
 30
0.0
 11
4.1770298042
 21
3.9635601762
 31
0.0
  0
LINE
  5
133
330
1F
100
AcDbEntity
  8
0
  6
CONTINUOUS
 62
     7
100
AcDbLine
 10
9.0345717676
 20
3.6803182035
 30
0.0
 11
9.0382861811
 21
3.6840326171
 31
0.0
  0
LINE
  5
134
330
1F
100
AcDbEntity
  8
0
  6
CONTINUOUS
 62
     7
100
AcDbLine
 10
9.0382861811
 20
3.8293869478
 30
0.0
 11
9.0345717676
 21
3.8331013614
 31
0.0
  0
LINE
  5
135
330
1F
100
AcDbEntity
  8
0
  6
CONTINUOUS
 62
     7
100
AcDbLine
 10
8.3272761853
 20
4.5403969437
 30
0.0
 11
8.3235617717
 21
4.5441113573
 31
0.0
  0
LINE
  5
136
330
1F
100
AcDbEntity
  8
0
  6
CONTINUOUS
 62
     7
100
AcDbLine
 10
8.178207441
 20
4.5441113573
 30
0.0
 11
8.1744930274
 21
4.5403969437
 31
0.0
  0
CIRCLE
  5
137
330
1F
100
AcDbEntity
  8
0
  6
CONTINUOUS
 62
     7
100
AcDbCircle
 10
8.2508846063
 20
3.7567097825
 30
0.0
 40
0.2118503937007876
  0
CIRCLE
  5
138
330
1F
100
AcDbEntity
  8
0
  6
CONTINUOUS
 62
     7
100
AcDbCircle
 10
8.2508846063
 20
3.7567097825
 30
0.0
 40
0.7724015748031494
  0
CIRCLE
  5
139
330
1F
100
AcDbEntity
  8
0
  6
CONTINUOUS
 62
     7
100
AcDbCircle
 10
8.2508846063
 20
3.7567097825
 30
0.0
 40
0.78740157480315
  0
CIRCLE
  5
13A
330
1F
100
AcDbEntity
  8
0
  6
CONTINUOUS
 62
     7
100
AcDbCircle
 10
8.2508846063
 20
3.7567097825
 30
0.0
 40
0.1968503937007888
  0
LINE
  5
13B
330
1F
100
AcDbEntity
  8
0
  6
CONTINUOUS
 62
     7
100
AcDbLine
 10
9.0382861811
 20
3.8293869478
 30
0.0
 11
9.0382861811
 21
3.6840326171
 31
0.0
  0
LINE
  5
13C
330
1F
100
AcDbEntity
  8
0
  6
CONTINUOUS
 62
     7
100
AcDbLine
 10
8.178207441
 20
4.5441113573
 30
0.0
 11
8.3235617717
 21
4.5441113573
 31
0.0
  0
SPLINE
  5
13D
330
1F
100
AcDbEntity
  8
0
  6
HIDDEN
 62
     7
100
AcDbSpline
210
0.0
220
0.0
230
1.0
 70
     8
 71
     3
 72
    25
 73
    21
 74
     0
 42
0.00000001
 43
0.00000001
 40
0.0
 40
0.0
 40
0.0
 40
0.0
 40
0.0506086109836607
 40
0.1091649102898468
 40
0.1755988705847376
 40
0.2499152139356672
 40
0.3240293720086775
 40
0.3903641285927015
 40
0.4489244724654903
 40
0.4997233088987864
 40
0.5507579592591273
 40
0.6095071367472147
 40
0.6759839856546007
 40
0.7501937530601114
 40
0.824460590599747
 40
0.8908471151100613
 40
0.9211207112125208
 40
0.9494203965809573
 40
0.97574885351842
 40
0.9999999999999999
 40
0.9999999999999999
 40
0.9999999999999999
 40
0.9999999999999999
 10
8.168209151900152
 20
4.524759071846926
 30
0.0
 10
8.16841126393548
 20
4.524798751688852
 30
0.0
 10
8.168847228127667
 20
4.524884342782936
 30
0.0
 10
8.172783692781787
 20
4.525476747762708
 30
0.0
 10
8.18023817936376
 20
4.526378755989016
 30
0.0
 10
8.191852012163169
 20
4.527655566629269
 30
0.0
 10
8.206519611503102
 20
4.52892764655034
 30
0.0
 10
8.22212620168511
 20
4.529836831739782
 30
0.0
 10
8.236920781811385
 20
4.530400255275568
 30
0.0
 10
8.250813139308525
 20
4.530616833081398
 30
0.0
 10
8.264724538554253
 20
4.530402070972423
 30
0.0
 10
8.279572143980548
 20
4.529839462211565
 30
0.0
 10
8.295216706072122
 20
4.528930203952034
 30
0.0
 10
8.309904719892439
 20
4.527656678570796
 30
0.0
 10
8.321506466229346
 20
4.52638219414693
 30
0.0
 10
8.327944949322026
 20
4.525600561769955
 30
0.0
 10
8.331100358102539
 20
4.525159692139965
 30
0.0
 10
8.332579820806698
 20
4.524932736078159
 30
0.0
 10
8.33341523216254
 20
4.524787915381538
 30
0.0
 10
8.333513541745411
 20
4.524768356934173
 30
0.0
 10
8.333560677743591
 20
4.524758979344395
 30
0.0
  0
LINE
  5
13E
330
1F
100
AcDbEntity
  8
0
  6
HIDDEN
 62
     7
100
AcDbLine
 10
8.2639216596
 20
4.5303694513
 30
0.0
 11
8.2508846063
 21
4.5305484143
 31
0.0
  0
LINE
  5
13F
330
1F
100
AcDbEntity
  8
0
  6
HIDDEN
 62
     7
100
AcDbLine
 10
9.0282861811
 20
3.6740326171
 30
0.0
 11
9.0282861811
 21
3.8393869478
 31
0.0
  0
LINE
  5
140
330
1F
100
AcDbEntity
  8
0
  6
HIDDEN
 62
     7
100
AcDbLine
 10
8.457735
 20
3.7567097825
 30
0.0
 11
8.457735
 21
3.6740326171
 31
0.0
  0
LINE
  5
141
330
1F
100
AcDbEntity
  8
0
  6
HIDDEN
 62
     7
100
AcDbLine
 10
8.457735
 20
3.8393869478
 30
0.0
 11
8.457735
 21
3.7567097825
 31
0.0
  0
LINE
  5
142
330
1F
100
AcDbEntity
  8
0
  6
HIDDEN
 62
     7
100
AcDbLine
 10
8.447735
 20
3.7567097825
 30
0.0
 11
8.447735
 21
3.8293869478
 31
0.0
  0
LINE
  5
143
330
1F
100
AcDbEntity
  8
0
  6
HIDDEN
 62
     7
100
AcDbLine
 10
8.447735
 20
3.6840326171
 30
0.0
 11
8.447735
 21
3.7567097825
 31
0.0
  0
LINE
  5
144
330
1F
100
AcDbEntity
  8
0
  6
HIDDEN
 62
     7
100
AcDbLine
 10
8.9882861811
 20
3.7848198528
 30
0.0
 11
9.0382861811
 21
3.7848198528
 31
0.0
  0
LINE
  5
145
330
1F
100
AcDbEntity
  8
0
  6
HIDDEN
 62
     7
100
AcDbLine
 10
8.9882861811
 20
3.7285997121
 30
0.0
 11
9.0382861811
 21
3.7285997121
 31
0.0
  0
LINE
  5
146
330
1F
100
AcDbEntity
  8
0
  6
HIDDEN
 62
     7
100
AcDbLine
 10
8.9882861811
 20
3.7285997121
 30
0.0
 11
8.9882861811
 21
3.7004896418
 31
0.0
  0
LINE
  5
147
330
1F
100
AcDbEntity
  8
0
  6
HIDDEN
 62
     7
100
AcDbLine
 10
8.9882861811
 20
3.7848198528
 30
0.0
 11
8.9882861811
 21
3.7285997121
 31
0.0
  0
LINE
  5
148
330
1F
100
AcDbEntity
  8
0
  6
HIDDEN
 62
     7
100
AcDbLine
 10
8.9882861811
 20
3.8129299231
 30
0.0
 11
8.9882861811
 21
3.7848198528
 31
0.0
  0
LINE
  5
149
330
1F
100
AcDbEntity
  8
0
  6
HIDDEN
 62
     7
100
AcDbLine
 10
8.9882861811
 20
3.8129299231
 30
0.0
 11
9.0382861811
 21
3.8129299231
 31
0.0
  0
LINE
  5
14A
330
1F
100
AcDbEntity
  8
0
  6
HIDDEN
 62
     7
100
AcDbLine
 10
8.9882861811
 20
3.7004896418
 30
0.0
 11
9.0382861811
 21
3.7004896418
 31
0.0
  0
LINE
  5
14B
330
1F
100
AcDbEntity
  8
0
  6
HIDDEN
 62
     7
100
AcDbLine
 10
8.2508846063
 20
3.9535601762
 30
0.0
 11
8.178207441
 21
3.9535601762
 31
0.0
  0
LINE
  5
14C
330
1F
100
AcDbEntity
  8
0
  6
HIDDEN
 62
     7
100
AcDbLine
 10
8.3235617717
 20
3.9535601762
 30
0.0
 11
8.2508846063
 21
3.9535601762
 31
0.0
  0
LINE
  5
14D
330
1F
100
AcDbEntity
  8
0
  6
HIDDEN
 62
     7
100
AcDbLine
 10
8.2508846063
 20
3.9635601762
 30
0.0
 11
8.3335617717
 21
3.9635601762
 31
0.0
  0
LINE
  5
14E
330
1F
100
AcDbEntity
  8
0
  6
HIDDEN
 62
     7
100
AcDbLine
 10
8.168207441
 20
3.9635601762
 30
0.0
 11
8.2508846063
 21
3.9635601762
 31
0.0
  0
LINE
  5
14F
330
1F
100
AcDbEntity
  8
0
  6
HIDDEN
 62
     7
100
AcDbLine
 10
8.3335617717
 20
4.5341113573
 30
0.0
 11
8.168207441
 21
4.5341113573
 31
0.0
  0
LINE
  5
150
330
1F
100
AcDbEntity
  8
0
  6
HIDDEN
 62
     7
100
AcDbLine
 10
8.2789946767
 20
4.4941113573
 30
0.0
 11
8.2789946767
 21
4.5441113573
 31
0.0
  0
LINE
  5
151
330
1F
100
AcDbEntity
  8
0
  6
HIDDEN
 62
     7
100
AcDbLine
 10
8.222774536
 20
4.4941113573
 30
0.0
 11
8.2789946767
 21
4.4941113573
 31
0.0
  0
LINE
  5
152
330
1F
100
AcDbEntity
  8
0
  6
HIDDEN
 62
     7
100
AcDbLine
 10
8.2789946767
 20
4.4941113573
 30
0.0
 11
8.307104747
 21
4.4941113573
 31
0.0
  0
LINE
  5
153
330
1F
100
AcDbEntity
  8
0
  6
HIDDEN
 62
     7
100
AcDbLine
 10
8.1946644657
 20
4.4941113573
 30
0.0
 11
8.222774536
 21
4.4941113573
 31
0.0
  0
LINE
  5
154
330
1F
100
AcDbEntity
  8
0
  6
HIDDEN
 62
     7
100
AcDbLine
 10
8.222774536
 20
4.4941113573
 30
0.0
 11
8.222774536
 21
4.5441113573
 31
0.0
  0
LINE
  5
155
330
1F
100
AcDbEntity
  8
0
  6
HIDDEN
 62
     7
100
AcDbLine
 10
8.307104747
 20
4.4941113573
 30
0.0
 11
8.307104747
 21
4.5441113573
 31
0.0
  0
LINE
  5
156
330
1F
100
AcDbEntity
  8
0
  6
HIDDEN
 62
     7
100
AcDbLine
 10
8.1946644657
 20
4.4941113573
 30
0.0
 11
8.1946644657
 21
4.5441113573
 31
0.0
  0
LINE
  5
157
330
1F
100
AcDbEntity
  8
0
  6
HIDDEN
 62
     7
100
AcDbLine
 10
8.1547459734
 20
4.5382202452
 30
0.0
 11
8.1682074421
 21
4.5247587762
 31
0.0
  0
LINE
  5
158
330
1F
100
AcDbEntity
  8
0
  6
HIDDEN
 62
     7
100
AcDbLine
 10
8.3335617795
 20
4.5247587757
 30
0.0
 11
8.3470232497
 21
4.5382202446
 31
0.0
  0
LINE
  5
159
330
1F
100
AcDbEntity
  8
0
  6
HIDDEN
 62
     7
100
AcDbLine
 10
8.3335617717
 20
3.9353562597
 30
0.0
 11
8.3335617717
 21
4.5247589231
 31
0.0
  0
LINE
  5
15A
330
1F
100
AcDbEntity
  8
0
  6
HIDDEN
 62
     7
100
AcDbLine
 10
8.168207441
 20
4.524759366
 30
0.0
 11
8.168207441
 21
3.9354288611
 31
0.0
  0
LINE
  5
15B
330
1F
100
AcDbEntity
  8
0
  6
HIDDEN
 62
     7
100
AcDbLine
 10
8.4296285981
 20
3.6740326171
 30
0.0
 11
9.0339619496
 21
3.6740326171
 31
0.0
  0
LINE
  5
15C
330
1F
100
AcDbEntity
  8
0
  6
HIDDEN
 62
     7
100
AcDbLine
 10
9.033935132
 20
3.8393869478
 30
0.0
 11
8.4296690279
 21
3.8393869478
 31
0.0
  0
LINE
  5
15D
330
1F
100
AcDbEntity
  8
0
  6
HIDDEN
 62
     7
100
AcDbLine
 10
9.0282861811
 20
3.6740326171
 30
0.0
 11
9.0345717676
 21
3.6803182035
 31
0.0
  0
LINE
  5
15E
330
1F
100
AcDbEntity
  8
0
  6
HIDDEN
 62
     7
100
AcDbLine
 10
9.0345717676
 20
3.8331013614
 30
0.0
 11
9.0282861811
 21
3.8393869478
 31
0.0
  0
LINE
  5
15F
330
1F
100
AcDbEntity
  8
0
  6
HIDDEN
 62
     7
100
AcDbLine
 10
8.457735
 20
3.6740326171
 30
0.0
 11
9.0282861811
 21
3.6740326171
 31
0.0
  0
LINE
  5
160
330
1F
100
AcDbEntity
  8
0
  6
HIDDEN
 62
     7
100
AcDbLine
 10
9.0282861811
 20
3.8393869478
 30
0.0
 11
8.457735
 21
3.8393869478
 31
0.0
  0
LINE
  5
161
330
1F
100
AcDbEntity
  8
0
  6
HIDDEN
 62
     7
100
AcDbLine
 10
8.457735
 20
3.8393869478
 30
0.0
 11
8.447735
 21
3.8293869478
 31
0.0
  0
LINE
  5
162
330
1F
100
AcDbEntity
  8
0
  6
HIDDEN
 62
     7
100
AcDbLine
 10
8.447735
 20
3.6840326171
 30
0.0
 11
8.457735
 21
3.6740326171
 31
0.0
  0
LINE
  5
163
330
1F
100
AcDbEntity
  8
0
  6
HIDDEN
 62
     7
100
AcDbLine
 10
8.168207441
 20
3.9635601762
 30
0.0
 11
8.178207441
 21
3.9535601762
 31
0.0
  0
LINE
  5
164
330
1F
100
AcDbEntity
  8
0
  6
HIDDEN
 62
     7
100
AcDbLine
 10
8.3235617717
 20
3.9535601762
 30
0.0
 11
8.3335617717
 21
3.9635601762
 31
0.0
  0
LINE
  5
165
330
1F
100
AcDbEntity
  8
0
  6
HIDDEN
 62
     7
100
AcDbLine
 10
8.3335617717
 20
4.5341113573
 30
0.0
 11
8.3272761853
 21
4.5403969437
 31
0.0
  0
LINE
  5
166
330
1F
100
AcDbEntity
  8
0
  6
HIDDEN
 62
     7
100
AcDbLine
 10
8.1744930274
 20
4.5403969437
 30
0.0
 11
8.168207441
 21
4.5341113573
 31
0.0
  0
LINE
  5
167
330
1F
100
AcDbEntity
  8
0
  6
HIDDEN
 62
     7
100
AcDbLine
 10
8.3335617717
 20
3.9635601762
 30
0.0
 11
8.3335617717
 21
4.5341113573
 31
0.0
  0
LINE
  5
168
330
1F
100
AcDbEntity
  8
0
  6
HIDDEN
 62
     7
100
AcDbLine
 10
8.168207441
 20
4.5341113573
 30
0.0
 11
8.168207441
 21
3.9635601762
 31
0.0
  0
LINE
  5
169
330
1F
100
AcDbEntity
  8
0
  6
CONTINUOUS
 62
     7
100
AcDbLine
 10
2.2392738987
 20
5.8845755641
 30
0.0
 11
4.4139983081
 21
5.8845755641
 31
0.0
  0
LINE
  5
16A
330
1F
100
AcDbEntity
  8
0
  6
CONTINUOUS
 62
     7
100
AcDbLine
 10
2.4762424026
 20
7.4593787137
 30
0.0
 11
2.2392738987
 21
7.4593787137
 31
0.0
  0
LINE
  5
16B
330
1F
100
AcDbEntity
  8
0
  6
CONTINUOUS
 62
     7
100
AcDbLine
 10
4.0116754735
 20
7.4593787137
 30
0.0
 11
2.6413446552
 21
7.4593787137
 31
0.0
  0
LINE
  5
16C
330
1F
100
AcDbEntity
  8
0
  6
CONTINUOUS
 62
     7
100
AcDbLine
 10
4.4139983081
 20
7.4593787137
 30
0.0
 11
4.176777726
 21
7.4593787137
 31
0.0
  0
LINE
  5
16D
330
1F
100
AcDbEntity
  8
0
  6
CONTINUOUS
 62
     7
100
AcDbLine
 10
2.2392738987
 20
7.4593787137
 30
0.0
 11
2.2242738987
 21
7.4443787137
 31
0.0
  0
LINE
  5
16E
330
1F
100
AcDbEntity
  8
0
  6
CONTINUOUS
 62
     7
100
AcDbLine
 10
2.2242738987
 20
5.8995755641
 30
0.0
 11
2.2392738987
 21
5.8845755641
 31
0.0
  0
LINE
  5
16F
330
1F
100
AcDbEntity
  8
0
  6
CONTINUOUS
 62
     7
100
AcDbLine
 10
4.4139983081
 20
5.8845755641
 30
0.0
 11
4.4289983081
 21
5.8995755641
 31
0.0
  0
LINE
  5
170
330
1F
100
AcDbEntity
  8
0
  6
CONTINUOUS
 62
     7
100
AcDbLine
 10
4.4289983081
 20
7.4443787137
 30
0.0
 11
4.4139983081
 21
7.4593787137
 31
0.0
  0
LINE
  5
171
330
1F
100
AcDbEntity
  8
0
  6
CONTINUOUS
 62
     7
100
AcDbLine
 10
4.1679270511
 20
7.4584814668
 30
0.0
 11
4.1670298042
 21
7.4593787137
 31
0.0
  0
LINE
  5
172
330
1F
100
AcDbEntity
  8
0
  6
CONTINUOUS
 62
     7
100
AcDbLine
 10
4.0216754735
 20
7.4593787137
 30
0.0
 11
4.0207779936
 21
7.4584812338
 31
0.0
  0
LINE
  5
173
330
1F
100
AcDbEntity
  8
0
  6
CONTINUOUS
 62
     7
100
AcDbLine
 10
2.6324939802
 20
7.4584814668
 30
0.0
 11
2.6315967333
 21
7.4593787137
 31
0.0
  0
LINE
  5
174
330
1F
100
AcDbEntity
  8
0
  6
CONTINUOUS
 62
     7
100
AcDbLine
 10
2.4862424026
 20
7.4593787137
 30
0.0
 11
2.4853449227
 21
7.4584812338
 31
0.0
  0
LINE
  5
175
330
1F
100
AcDbEntity
  8
0
  6
CONTINUOUS
 62
     7
100
AcDbLine
 10
4.4139983081
 20
5.8845755641
 30
0.0
 11
4.4139983081
 21
7.4593787137
 31
0.0
  0
LINE
  5
176
330
1F
100
AcDbEntity
  8
0
  6
CONTINUOUS
 62
     7
100
AcDbLine
 10
2.2392738987
 20
7.4593787137
 30
0.0
 11
2.2392738987
 21
5.8845755641
 31
0.0
  0
SPLINE
  5
177
330
1F
100
AcDbEntity
  8
0
  6
CONTINUOUS
 62
     7
100
AcDbSpline
210
0.0
220
0.0
230
1.0
 70
     8
 71
     3
 72
    39
 73
    35
 74
     0
 42
0.00000001
 43
0.00000001
 40
-0.0945052351073636
 40
-0.0629408280651443
 40
-0.0312948338013841
 40
0.0
 40
0.0313332451562613
 40
0.0629828481411386
 40
0.094562033755141
 40
0.1257155124382448
 40
0.1567366176732932
 40
0.1880278831371823
 40
0.2192139458152315
 40
0.25001931900256
 40
0.2807562929025329
 40
0.3119918235276294
 40
0.3432167425568927
 40
0.3742398735462136
 40
0.4053591303296817
 40
0.4370234815754705
 40
0.4687694757259909
 40
0.5001565527612507
 40
0.531465769408753
 40
0.5631261327781282
 40
0.5946402419090533
 40
0.6257741041694963
 40
0.6567917478971509
 40
0.688057349460308
 40
0.7192666632644765
 40
0.7500739099212581
 40
0.7808371871589959
 40
0.8121013713194136
 40
0.8433443646317269
 40
0.8743968531986243
 40
0.9054947648926364
 40
0.9370591719348557
 40
0.9687051661986159
 40
1.0
 40
1.031333245156261
 40
1.062982848141139
 40
1.094562033755141
 10
2.465637946348443
 20
6.653149386872094
 30
0.0
 10
2.463831855638788
 20
6.67198559401001
 30
0.0
 10
2.465669060242774
 20
6.69081781725993
 30
0.0
 10
2.471178989625303
 20
6.708960158487236
 30
0.0
 10
2.479878433936987
 20
6.725751651243542
 30
0.0
 10
2.491666072111601
 20
6.74037737307872
 30
0.0
 10
2.506040042303126
 20
6.752383767973384
 30
0.0
 10
2.522551272986506
 20
6.761244506602112
 30
0.0
 10
2.540397302343446
 20
6.766863302240582
 30
0.0
 10
2.558923154889516
 20
6.768733122147991
 30
0.0
 10
2.57746162502259
 20
6.766881165973646
 30
0.0
 10
2.595290245303713
 20
6.76125849096808
 30
0.0
 10
2.611794987073969
 20
6.752394391135211
 30
0.0
 10
2.626152735215821
 20
6.740398756997378
 30
0.0
 10
2.637941635393226
 20
6.725760219026949
 30
0.0
 10
2.646645301035295
 20
6.708938409621441
 30
0.0
 10
2.652178622742773
 20
6.690753955287854
 30
0.0
 10
2.654009819134209
 20
6.671886298842315
 30
0.0
 10
2.652181314013325
 20
6.653035955605604
 30
0.0
 10
2.646657772143651
 20
6.634912559345377
 30
0.0
 10
2.637941446385295
 20
6.618146634414332
 30
0.0
 10
2.626144307317411
 20
6.60355182018424
 30
0.0
 10
2.611771904244103
 20
6.591560397146055
 30
0.0
 10
2.595263114648766
 20
6.582699027317795
 30
0.0
 10
2.577417109144725
 20
6.577077951613711
 30
0.0
 10
2.558878828571126
 20
6.575219581682492
 30
0.0
 10
2.540331021623753
 20
6.577092964506889
 30
0.0
 10
2.522493573434489
 20
6.582735203982826
 30
0.0
 10
2.505982172727347
 20
6.591618564428298
 30
0.0
 10
2.491625106927909
 20
6.603621798773069
 30
0.0
 10
2.479839790128143
 20
6.618238984998056
 30
0.0
 10
2.471148698032636
 20
6.635017975238321
 30
0.0
 10
2.465637946348443
 20
6.653149386872094
 30
0.0
 10
2.463831855638788
 20
6.67198559401001
 30
0.0
 10
2.465669060242774
 20
6.69081781725993
 30
0.0
  0
SPLINE
  5
178
330
1F
100
AcDbEntity
  8
0
  6
CONTINUOUS
 62
     7
100
AcDbSpline
210
0.0
220
0.0
230
1.0
 70
     8
 71
     3
 72
    39
 73
    35
 74
     0
 42
0.00000001
 43
0.00000001
 40
-0.0945052351071061
 40
-0.062940828065139
 40
-0.0312948338012352
 40
0.0
 40
0.031333245155816
 40
0.0629828481411218
 40
0.0945620337544783
 40
0.1257155124382369
 40
0.1567366176728925
 40
0.1880278831371753
 40
0.219213945815051
 40
0.2500193190025605
 40
0.2807562929023531
 40
0.3119918235276226
 40
0.3432167425566006
 40
0.3742398735462094
 40
0.4053591303296475
 40
0.4370234815754734
 40
0.4687694757262241
 40
0.5001565527612565
 40
0.5314657694089079
 40
0.5631261327781282
 40
0.5946402419090531
 40
0.6257741041694963
 40
0.6567917478971509
 40
0.6880573494603078
 40
0.719266663264476
 40
0.750073909921258
 40
0.7808371871588752
 40
0.8121013713194087
 40
0.8433443646317139
 40
0.8743968531986283
 40
0.9054947648928938
 40
0.9370591719348609
 40
0.9687051661987647
 40
0.9999999999999999
 40
1.031333245155816
 40
1.062982848141122
 40
1.094562033754478
 10
4.001071017214614
 20
6.653149386872128
 30
0.0
 10
3.999264926504911
 20
6.671985594009953
 30
0.0
 10
4.001102131108985
 20
6.690817817259826
 30
0.0
 10
4.006612060491355
 20
6.708960158487037
 30
0.0
 10
4.015311504803024
 20
6.725751651243453
 30
0.0
 10
4.027099142977603
 20
6.740377373078567
 30
0.0
 10
4.041473113169195
 20
6.752383767973349
 30
0.0
 10
4.057984343852547
 20
6.761244506602062
 30
0.0
 10
4.075830373209544
 20
6.766863302240608
 30
0.0
 10
4.09435622575559
 20
6.768733122147991
 30
0.0
 10
4.112894695888688
 20
6.76688116597362
 30
0.0
 10
4.130723316169771
 20
6.761258490968118
 30
0.0
 10
4.147228057940072
 20
6.752394391135256
 30
0.0
 10
4.161585806081912
 20
6.740398756997418
 30
0.0
 10
4.173374706259398
 20
6.725760219026976
 30
0.0
 10
4.182078371901444
 20
6.7089384096214
 30
0.0
 10
4.18761169360894
 20
6.690753955287813
 30
0.0
 10
4.189442890000354
 20
6.671886298842238
 30
0.0
 10
4.187614384879432
 20
6.653035955605579
 30
0.0
 10
4.182090843009787
 20
6.634912559345347
 30
0.0
 10
4.173374517251435
 20
6.618146634414332
 30
0.0
 10
4.161577378183554
 20
6.60355182018424
 30
0.0
 10
4.147204975110244
 20
6.591560397146055
 30
0.0
 10
4.130696185514909
 20
6.582699027317795
 30
0.0
 10
4.112850180010867
 20
6.577077951613713
 30
0.0
 10
4.094311899437292
 20
6.575219581682489
 30
0.0
 10
4.075764092489923
 20
6.577092964506906
 30
0.0
 10
4.057926644300657
 20
6.582735203982818
 30
0.0
 10
4.041415243593464
 20
6.591618564428259
 30
0.0
 10
4.027058177794023
 20
6.603621798773109
 30
0.0
 10
4.015272860994251
 20
6.618238984998094
 30
0.0
 10
4.006581768898744
 20
6.635017975238394
 30
0.0
 10
4.001071017214614
 20
6.653149386872128
 30
0.0
 10
3.999264926504911
 20
6.671985594009953
 30
0.0
 10
4.001102131108985
 20
6.690817817259826
 30
0.0
  0
SPLINE
  5
179
330
1F
100
AcDbEntity
  8
0
  6
CONTINUOUS
 62
     7
100
AcDbSpline
210
0.0
220
0.0
230
1.0
 70
     8
 71
     3
 72
    26
 73
    22
 74
     0
 42
0.00000001
 43
0.00000001
 40
0.0
 40
0.0
 40
0.0
 40
0.0
 40
0.0175546653500331
 40
0.0718261334589919
 40
0.1244494199751976
 40
0.1785881710160195
 40
0.2314076607356136
 40
0.2857467468263814
 40
0.3387680907223631
 40
0.3933323477561755
 40
0.4462455359856267
 40
0.500708013004025
 40
0.5533694848905342
 40
0.6075592371943399
 40
0.6602191228771777
 40
0.7143920888642865
 40
0.7673017380225944
 40
0.8217383788140431
 40
0.874760759153997
 40
0.9293316850398938
 40
0.9999999999999999
 40
0.9999999999999999
 40
0.9999999999999999
 40
0.9999999999999999
 10
4.176777726037061
 20
7.459352305557828
 30
0.0
 10
4.176847230199906
 20
7.459359585574717
 30
0.0
 10
4.177131611313238
 20
7.459389372269827
 30
0.0
 10
4.17524494547253
 20
7.459191250455252
 30
0.0
 10
4.171123669718526
 20
7.458774948707621
 30
0.0
 10
4.16473524804439
 20
7.458171286359717
 30
0.0
 10
4.156336821433279
 20
7.457457563427988
 30
0.0
 10
4.146238797238692
 20
7.456717993386273
 30
0.0
 10
4.134558001770843
 20
7.456025779456072
 30
0.0
 10
4.121829714542692
 20
7.455470797357298
 30
0.0
 10
4.108202513856617
 20
7.455107990035612
 30
0.0
 10
4.094333568485034
 20
7.454984481249317
 30
0.0
 10
4.080362087060019
 20
7.455110853122011
 30
0.0
 10
4.066936230927297
 20
7.455469217153688
 30
0.0
 10
4.054170144721097
 20
7.456024874353449
 30
0.0
 10
4.042628965516095
 20
7.456707491731438
 30
0.0
 10
4.03243567718113
 20
7.457451852140109
 30
0.0
 10
4.024042509030075
 20
7.458165026014041
 30
0.0
 10
4.0176209059849
 20
7.458770406385288
 30
0.0
 10
4.012752096767568
 20
7.459264188316617
 30
0.0
 10
4.012063835997075
 20
7.459337401799706
 30
0.0
 10
4.011675473463293
 20
7.459378713719575
 30
0.0
  0
SPLINE
  5
17A
330
1F
100
AcDbEntity
  8
0
  6
CONTINUOUS
 62
     7
100
AcDbSpline
210
0.0
220
0.0
230
1.0
 70
     8
 71
     3
 72
    26
 73
    22
 74
     0
 42
0.00000001
 43
0.00000001
 40
0.0
 40
0.0
 40
0.0
 40
0.0
 40
0.0175546653500331
 40
0.0718261334589919
 40
0.1244494199751976
 40
0.1785881710160195
 40
0.2314076607356136
 40
0.2857467468263814
 40
0.3387680907223631
 40
0.3933323477561755
 40
0.4462455359856267
 40
0.500708013004025
 40
0.5533694848905342
 40
0.6075592371943399
 40
0.6602191228771777
 40
0.7143920888642865
 40
0.7673017380225944
 40
0.8217383788140431
 40
0.874760759153997
 40
0.9293316850398938
 40
0.9999999999999999
 40
0.9999999999999999
 40
0.9999999999999999
 40
0.9999999999999999
 10
2.641344655170919
 20
7.459352305557828
 30
0.0
 10
2.641414159333763
 20
7.459359585574717
 30
0.0
 10
2.641698540447095
 20
7.459389372269827
 30
0.0
 10
2.639811874606387
 20
7.459191250455252
 30
0.0
 10
2.635690598852384
 20
7.458774948707621
 30
0.0
 10
2.629302177178248
 20
7.458171286359717
 30
0.0
 10
2.620903750567137
 20
7.457457563427988
 30
0.0
 10
2.61080572637255
 20
7.456717993386273
 30
0.0
 10
2.599124930904702
 20
7.456025779456072
 30
0.0
 10
2.58639664367655
 20
7.455470797357298
 30
0.0
 10
2.572769442990475
 20
7.455107990035612
 30
0.0
 10
2.558900497618892
 20
7.454984481249317
 30
0.0
 10
2.544929016193877
 20
7.455110853122011
 30
0.0
 10
2.531503160061155
 20
7.455469217153688
 30
0.0
 10
2.518737073854956
 20
7.456024874353449
 30
0.0
 10
2.507195894649953
 20
7.456707491731438
 30
0.0
 10
2.497002606314987
 20
7.457451852140109
 30
0.0
 10
2.488609438163933
 20
7.458165026014041
 30
0.0
 10
2.482187835118758
 20
7.458770406385288
 30
0.0
 10
2.477319025901425
 20
7.459264188316617
 30
0.0
 10
2.476630765130933
 20
7.459337401799706
 30
0.0
 10
2.476242402597151
 20
7.459378713719575
 30
0.0
  0
LINE
  5
17B
330
1F
100
AcDbEntity
  8
0
  6
CONTINUOUS
 62
     7
100
AcDbLine
 10
2.4762424026
 20
6.6719771389
 30
0.0
 11
2.4766386054
 21
6.6670328813
 31
0.0
  0
SPLINE
  5
17C
330
1F
100
AcDbEntity
  8
0
  6
CONTINUOUS
 62
     7
100
AcDbSpline
210
0.0
220
0.0
230
1.0
 70
     8
 71
     3
 72
     9
 73
     5
 74
     0
 42
0.00000001
 43
0.00000001
 40
0.0
 40
0.0
 40
0.0
 40
0.0
 40
0.5271918429004853
 40
1.0
 40
1.0
 40
1.0
 40
1.0
 10
2.641593031541582
 20
6.671931735483176
 30
0.0
 10
2.641442305682219
 20
6.676351978400456
 30
0.0
 10
2.641156402435815
 20
6.68473648392118
 30
0.0
 10
2.638744330264645
 20
6.692759362252026
 30
0.0
 10
2.637603882866603
 20
6.696552644570267
 30
0.0
  0
SPLINE
  5
17D
330
1F
100
AcDbEntity
  8
0
  6
CONTINUOUS
 62
     7
100
AcDbSpline
210
0.0
220
0.0
230
1.0
 70
     8
 71
     3
 72
     9
 73
     5
 74
     0
 42
0.00000001
 43
0.00000001
 40
0.0
 40
0.0
 40
0.0
 40
0.0
 40
0.2666724776048203
 40
1.0
 40
1.0
 40
1.0
 40
1.0
 10
2.478493918824115
 20
6.689788950078474
 30
0.0
 10
2.478058826247006
 20
6.688245761549942
 30
0.0
 10
2.476427264636234
 20
6.682458930668882
 30
0.0
 10
2.476320613102295
 20
6.67641172284634
 30
0.0
 10
2.476242402597151
 20
6.671977138916426
 30
0.0
  0
SPLINE
  5
17E
330
1F
100
AcDbEntity
  8
0
  6
CONTINUOUS
 62
     7
100
AcDbSpline
210
0.0
220
0.0
230
1.0
 70
     8
 71
     3
 72
    28
 73
    24
 74
     0
 42
0.00000001
 43
0.00000001
 40
-0.1252279168947126
 40
-0.076590372334154
 40
-0.0348484031500148
 40
0.0
 40
0.0547039751027628
 40
0.1246631128048552
 40
0.1734278572091844
 40
0.2151795143999417
 40
0.2499193125405963
 40
0.3045147620501594
 40
0.3746865509360722
 40
0.423305241636021
 40
0.4650179535243153
 40
0.4998266148052593
 40
0.5546879569997555
 40
0.6248283019952056
 40
0.6735374122977769
 40
0.7152509195178751
 40
0.7499702433912642
 40
0.7500001810090784
 40
0.8046104427796738
 40
0.8747720831052874
 40
0.923409627665846
 40
0.9651515968499852
 40
1.0
 40
1.054703975102763
 40
1.124663112804855
 40
1.173427857209185
 10
4.0131265446241
 20
6.691233735222982
 30
0.0
 10
4.01063673513333
 20
6.668557092076232
 30
0.0
 10
4.015401090777918
 20
6.640897152211964
 30
0.0
 10
4.031956352223559
 20
6.614793845407261
 30
0.0
 10
4.054565641118302
 20
6.598232768965371
 30
0.0
 10
4.075089839900584
 20
6.590754480215837
 30
0.0
 10
4.097729103199286
 20
6.588264960729847
 30
0.0
 10
4.125389552135432
 20
6.593004132420672
 30
0.0
 10
4.151501817140026
 20
6.609545710972458
 30
0.0
 10
4.168070670574686
 20
6.632151348725026
 30
0.0
 10
4.175560484892021
 20
6.652649632103539
 30
0.0
 10
4.178074126589565
 20
6.675338469168394
 30
0.0
 10
4.173317254283787
 20
6.703056638735077
 30
0.0
 10
4.156720611159828
 20
6.72919961080663
 30
0.0
 10
4.134081053360068
 20
6.745748472966235
 30
0.0
 10
4.11358358007482
 20
6.753208948621603
 30
0.0
 10
4.100352625338612
 20
6.754653741478732
 30
0.0
 10
4.084936631093175
 20
6.754655188739907
 30
0.0
 10
4.063255782909842
 20
6.750931484407798
 30
0.0
 10
4.037168376235186
 20
6.734374226261576
 30
0.0
 10
4.020605431236844
 20
6.711752434472156
 30
0.0
 10
4.0131265446241
 20
6.691233735222982
 30
0.0
 10
4.01063673513333
 20
6.668557092076232
 30
0.0
 10
4.015401090777918
 20
6.640897152211964
 30
0.0
  0
LINE
  5
17F
330
1F
100
AcDbEntity
  8
0
  6
CONTINUOUS
 62
     7
100
AcDbLine
 10
2.2242738987
 20
5.8995755641
 30
0.0
 11
2.2242738987
 21
7.4443787137
 31
0.0
  0
LINE
  5
180
330
1F
100
AcDbEntity
  8
0
  6
CONTINUOUS
 62
     7
100
AcDbLine
 10
4.4289983081
 20
7.4443787137
 30
0.0
 11
4.4289983081
 21
5.8995755641
 31
0.0
  0
LINE
  5
181
330
1F
100
AcDbEntity
  8
0
  6
CONTINUOUS
 62
     7
100
AcDbLine
 10
4.0216754735
 20
7.4593787137
 30
0.0
 11
4.1670298042
 21
7.4593787137
 31
0.0
  0
LINE
  5
182
330
1F
100
AcDbEntity
  8
0
  6
CONTINUOUS
 62
     7
100
AcDbLine
 10
2.6315967333
 20
7.4593787137
 30
0.0
 11
2.4862424026
 21
7.4593787137
 31
0.0
  0
CIRCLE
  5
183
330
1F
100
AcDbEntity
  8
0
  6
CONTINUOUS
 62
     7
100
AcDbCircle
 10
2.558919568
 20
6.6719771389
 30
0.0
 40
0.0726771653543303
  0
LINE
  5
184
330
1F
100
AcDbEntity
  8
0
  6
CONTINUOUS
 62
     7
100
AcDbLine
 10
2.5102314979
 20
6.6438670686
 30
0.0
 11
2.5102314979
 21
6.7000872092
 31
0.0
  0
LINE
  5
185
330
1F
100
AcDbEntity
  8
0
  6
CONTINUOUS
 62
     7
100
AcDbLine
 10
2.558919568
 20
6.6157569982
 30
0.0
 11
2.5102314979
 21
6.6438670686
 31
0.0
  0
LINE
  5
186
330
1F
100
AcDbEntity
  8
0
  6
CONTINUOUS
 62
     7
100
AcDbLine
 10
2.607607638
 20
6.6438670686
 30
0.0
 11
2.558919568
 21
6.6157569982
 31
0.0
  0
LINE
  5
187
330
1F
100
AcDbEntity
  8
0
  6
CONTINUOUS
 62
     7
100
AcDbLine
 10
2.607607638
 20
6.7000872092
 30
0.0
 11
2.607607638
 21
6.6438670686
 31
0.0
  0
LINE
  5
188
330
1F
100
AcDbEntity
  8
0
  6
CONTINUOUS
 62
     7
100
AcDbLine
 10
2.558919568
 20
6.7281972796
 30
0.0
 11
2.607607638
 21
6.7000872092
 31
0.0
  0
LINE
  5
189
330
1F
100
AcDbEntity
  8
0
  6
CONTINUOUS
 62
     7
100
AcDbLine
 10
2.5102314979
 20
6.7000872092
 30
0.0
 11
2.558919568
 21
6.7281972796
 31
0.0
  0
CIRCLE
  5
18A
330
1F
100
AcDbEntity
  8
0
  6
CONTINUOUS
 62
     7
100
AcDbCircle
 10
2.558919568
 20
6.6719771389
 30
0.0
 40
0.0826771653543306
  0
CIRCLE
  5
18B
330
1F
100
AcDbEntity
  8
0
  6
CONTINUOUS
 62
     7
100
AcDbCircle
 10
4.0943526388
 20
6.6719771389
 30
0.0
 40
0.0726771653543299
  0
LINE
  5
18C
330
1F
100
AcDbEntity
  8
0
  6
CONTINUOUS
 62
     7
100
AcDbLine
 10
4.0943526388
 20
6.7281972796
 30
0.0
 11
4.0456645688
 21
6.7000872092
 31
0.0
  0
LINE
  5
18D
330
1F
100
AcDbEntity
  8
0
  6
CONTINUOUS
 62
     7
100
AcDbLine
 10
4.0456645688
 20
6.7000872092
 30
0.0
 11
4.0456645688
 21
6.6438670686
 31
0.0
  0
LINE
  5
18E
330
1F
100
AcDbEntity
  8
0
  6
CONTINUOUS
 62
     7
100
AcDbLine
 10
4.0456645688
 20
6.6438670686
 30
0.0
 11
4.0943526388
 21
6.6157569982
 31
0.0
  0
LINE
  5
18F
330
1F
100
AcDbEntity
  8
0
  6
CONTINUOUS
 62
     7
100
AcDbLine
 10
4.0943526388
 20
6.6157569982
 30
0.0
 11
4.1430407088
 21
6.6438670686
 31
0.0
  0
LINE
  5
190
330
1F
100
AcDbEntity
  8
0
  6
CONTINUOUS
 62
     7
100
AcDbLine
 10
4.1430407088
 20
6.6438670686
 30
0.0
 11
4.1430407088
 21
6.7000872092
 31
0.0
  0
LINE
  5
191
330
1F
100
AcDbEntity
  8
0
  6
CONTINUOUS
 62
     7
100
AcDbLine
 10
4.1430407088
 20
6.7000872092
 30
0.0
 11
4.0943526388
 21
6.7281972796
 31
0.0
  0
CIRCLE
  5
192
330
1F
100
AcDbEntity
  8
0
  6
CONTINUOUS
 62
     7
100
AcDbCircle
 10
4.0943526388
 20
6.6719771389
 30
0.0
 40
0.0826771653543306
  0
SPLINE
  5
193
330
1F
100
AcDbEntity
  8
0
  6
HIDDEN
 62
     7
100
AcDbSpline
210
0.0
220
0.0
230
1.0
 70
     8
 71
     3
 72
    24
 73
    20
 74
     0
 42
0.00000001
 43
0.00000001
 40
0.0
 40
0.0
 40
0.0
 40
0.0
 40
0.0323995258428806
 40
0.0921365403787706
 40
0.1597403588015053
 40
0.2352163047688361
 40
0.3110331215439596
 40
0.3787944450338336
 40
0.4385049362459533
 40
0.4901774654071169
 40
0.5418663743502674
 40
0.601574909734999
 40
0.6693161180426886
 40
0.7450948142587073
 40
0.8206673467149938
 40
0.8883073992401158
 40
0.9480200587780293
 40
0.9998184845427481
 40
1.0
 40
1.0
 40
1.0
 40
1.0
 10
2.476638605351629
 20
6.667032881308981
 30
0.0
 10
2.476788384145311
 20
6.664283254904244
 30
0.0
 10
2.477214319387046
 20
6.656463971822905
 30
0.0
 10
2.480890109239028
 20
6.643288630526053
 30
0.0
 10
2.488291312344185
 20
6.627678188082994
 30
0.0
 10
2.499915063603596
 20
6.613003555668716
 30
0.0
 10
2.514585974515275
 20
6.601389295563258
 30
0.0
 10
2.530227845816704
 20
6.59386928991922
 30
0.0
 10
2.545025243725955
 20
6.590062280679352
 30
0.0
 10
2.558877673055803
 20
6.588949581265481
 30
0.0
 10
2.572730935663756
 20
6.590048171704628
 30
0.0
 10
2.587532519391824
 20
6.593840341998141
 30
0.0
 10
2.60317387457477
 20
6.601342112796771
 30
0.0
 10
2.617875502285282
 20
6.612941613353872
 30
0.0
 10
2.629463463668503
 20
6.627611884658124
 30
0.0
 10
2.63706278766497
 20
6.643221778429711
 30
0.0
 10
2.640636079291142
 20
6.65800345102451
 30
0.0
 10
2.641943891921001
 20
6.667519307903122
 30
0.0
 10
2.641594252492572
 20
6.6719163807776
 30
0.0
 10
2.641593031541582
 20
6.671931735483176
 30
0.0
  0
SPLINE
  5
194
330
1F
100
AcDbEntity
  8
0
  6
HIDDEN
 62
     7
100
AcDbSpline
210
0.0
220
0.0
230
1.0
 70
     8
 71
     3
 72
    24
 73
    20
 74
     0
 42
0.00000001
 43
0.00000001
 40
0.0
 40
0.0
 40
0.0
 40
0.0
 40
0.015744590144395
 40
0.0954058138131577
 40
0.1843336281853143
 40
0.2733298314295972
 40
0.3528828166346509
 40
0.389160584760235
 40
0.4230729558029874
 40
0.454623144047983
 40
0.4838152444339608
 40
0.5232668144356744
 40
0.5669449235833299
 40
0.6148195303170993
 40
0.6944313209422107
 40
0.7834781559247206
 40
0.8723528241657329
 40
0.9519144169728669
 40
1.0
 40
1.0
 40
1.0
 40
1.0
 10
2.637603882866603
 20
6.696552644570267
 30
0.0
 10
2.637336321301221
 20
6.697658005799243
 30
0.0
 10
2.635715007017626
 20
6.704356045356998
 30
0.0
 10
2.629321320437893
 20
6.716257456514041
 30
0.0
 10
2.617937833847281
 20
6.731011999233615
 30
0.0
 10
2.603183925050847
 20
6.742594922051279
 30
0.0
 10
2.589776502058469
 20
6.749039209942653
 30
0.0
 10
2.579426534079688
 20
6.752190765257247
 30
0.0
 10
2.572225310678971
 20
6.753679472928958
 30
0.0
 10
2.565430986461623
 20
6.75448512936168
 30
0.0
 10
2.558194354158934
 20
6.754763545210748
 30
0.0
 10
2.550079092764338
 20
6.754345215176821
 30
0.0
 10
2.540722689340303
 20
6.752830288201816
 30
0.0
 10
2.528824712495898
 20
6.749404886809924
 30
0.0
 10
2.514645462890447
 20
6.742596043273046
 30
0.0
 10
2.499923050172257
 20
6.730997291432062
 30
0.0
 10
2.488420097004919
 20
6.716287601590111
 30
0.0
 10
2.481278032033079
 20
6.702191292376792
 30
0.0
 10
2.479255732999992
 20
6.693182590878179
 30
0.0
 10
2.478493918824115
 20
6.689788950078474
 30
0.0
  0
LINE
  5
195
330
1F
100
AcDbEntity
  8
0
  6
HIDDEN
 62
     7
100
AcDbLine
 10
3.3766361034
 20
6.8838275326
 30
0.0
 11
3.3766361034
 21
6.4601267452
 31
0.0
  0
LINE
  5
196
330
1F
100
AcDbEntity
  8
0
  6
HIDDEN
 62
     7
100
AcDbLine
 10
3.2766361034
 20
6.8838275326
 30
0.0
 11
3.2766361034
 21
6.4601267452
 31
0.0
  0
SPLINE
  5
197
330
1F
100
AcDbEntity
  8
0
  6
HIDDEN
 62
     7
100
AcDbSpline
210
0.0
220
0.0
230
1.0
 70
     8
 71
     3
 72
    26
 73
    22
 74
     0
 42
0.00000001
 43
0.00000001
 40
0.0
 40
0.0
 40
0.0
 40
0.0
 40
0.0498731685895806
 40
0.1012656551806186
 40
0.1511204507251808
 40
0.2023036392861072
 40
0.2544909477946776
 40
0.3080489100281324
 40
0.3627058307191222
 40
0.4191006102739376
 40
0.4710070325523706
 40
0.5246843584288565
 40
0.5726713774498986
 40
0.6220012579708158
 40
0.7211361642151217
 40
0.7744115403579249
 40
0.8291546267183019
 40
0.8835445248839287
 40
0.9397253366559946
 40
0.990627612284369
 40
1.0
 40
1.0
 40
1.0
 40
1.0
 10
4.011675473463293
 20
6.868827532617214
 30
0.0
 10
4.011876482936555
 20
6.868742678704939
 30
0.0
 10
4.012284625362292
 20
6.868570385921783
 30
0.0
 10
4.015552276111381
 20
6.867218426967506
 30
0.0
 10
4.020673788382231
 20
6.865194801203098
 30
0.0
 10
4.027678672550334
 20
6.862612091153649
 30
0.0
 10
4.036543267172132
 20
6.859668332033192
 30
0.0
 10
4.047175040246
 20
6.856637334138493
 30
0.0
 10
4.059493938733636
 20
6.853841724853707
 30
0.0
 10
4.072837023000886
 20
6.851741536526328
 30
0.0
 10
4.086819453484148
 20
6.850602886455345
 30
0.0
 10
4.100336452563441
 20
6.850556608393585
 30
0.0
 10
4.113417387625173
 20
6.851496514420838
 30
0.0
 10
4.129711106891317
 20
6.853785006431615
 30
0.0
 10
4.144797756871852
 20
6.85742253569965
 30
0.0
 10
4.157435634209598
 20
6.861371108736406
 30
0.0
 10
4.165605919323335
 20
6.864269569901014
 30
0.0
 10
4.171946266140763
 20
6.866728921735323
 30
0.0
 10
4.17568218513896
 20
6.868260521842833
 30
0.0
 10
4.177257833048946
 20
6.868922966237533
 30
0.0
 10
4.176914532041293
 20
6.868779270164481
 30
0.0
 10
4.176861150571064
 20
6.868756926193813
 30
0.0
  0
SPLINE
  5
198
330
1F
100
AcDbEntity
  8
0
  6
HIDDEN
 62
     7
100
AcDbSpline
210
0.0
220
0.0
230
1.0
 70
     8
 71
     3
 72
    26
 73
    22
 74
     0
 42
0.00000001
 43
0.00000001
 40
0.0
 40
0.0
 40
0.0
 40
0.0
 40
0.0498731685895806
 40
0.1012656551806186
 40
0.1511204507251808
 40
0.2023036392861072
 40
0.2544909477946776
 40
0.3080489100281324
 40
0.3627058307191222
 40
0.4191006102739376
 40
0.4710070325523706
 40
0.5246843584288565
 40
0.5726713774498986
 40
0.6220012579708158
 40
0.7211361642151217
 40
0.7744115403579249
 40
0.8291546267183019
 40
0.8835445248839287
 40
0.9397253366559946
 40
0.990627612284369
 40
1.0
 40
1.0
 40
1.0
 40
1.0
 10
2.476242402597151
 20
6.868827532617214
 30
0.0
 10
2.476443412070413
 20
6.868742678704939
 30
0.0
 10
2.47685155449615
 20
6.868570385921783
 30
0.0
 10
2.480119205245239
 20
6.867218426967506
 30
0.0
 10
2.485240717516089
 20
6.865194801203098
 30
0.0
 10
2.492245601684192
 20
6.862612091153649
 30
0.0
 10
2.50111019630599
 20
6.859668332033192
 30
0.0
 10
2.511741969379857
 20
6.856637334138493
 30
0.0
 10
2.524060867867495
 20
6.853841724853707
 30
0.0
 10
2.537403952134744
 20
6.851741536526328
 30
0.0
 10
2.551386382618007
 20
6.850602886455345
 30
0.0
 10
2.564903381697299
 20
6.850556608393585
 30
0.0
 10
2.577984316759031
 20
6.851496514420838
 30
0.0
 10
2.594278036025175
 20
6.853785006431615
 30
0.0
 10
2.60936468600571
 20
6.85742253569965
 30
0.0
 10
2.622002563343456
 20
6.861371108736406
 30
0.0
 10
2.630172848457193
 20
6.864269569901014
 30
0.0
 10
2.636513195274621
 20
6.866728921735323
 30
0.0
 10
2.640249114272819
 20
6.868260521842833
 30
0.0
 10
2.641824762182803
 20
6.868922966237533
 30
0.0
 10
2.641481461175151
 20
6.868779270164481
 30
0.0
 10
2.641428079704922
 20
6.868756926193813
 30
0.0
  0
LINE
  5
199
330
1F
100
AcDbEntity
  8
0
  6
HIDDEN
 62
     7
100
AcDbLine
 10
4.1770298042
 20
7.4493787137
 30
0.0
 11
4.0116754735
 21
7.4493787137
 31
0.0
  0
LINE
  5
19A
330
1F
100
AcDbEntity
  8
0
  6
HIDDEN
 62
     7
100
AcDbLine
 10
4.0116754735
 20
6.8788275326
 30
0.0
 11
4.1770298042
 21
6.8788275326
 31
0.0
  0
LINE
  5
19B
330
1F
100
AcDbEntity
  8
0
  6
HIDDEN
 62
     7
100
AcDbLine
 10
4.1670298042
 20
6.8688275326
 30
0.0
 11
4.0216754735
 21
6.8688275326
 31
0.0
  0
LINE
  5
19C
330
1F
100
AcDbEntity
  8
0
  6
HIDDEN
 62
     7
100
AcDbLine
 10
4.0943526388
 20
7.4093787137
 30
0.0
 11
4.0943526388
 21
7.4593787137
 31
0.0
  0
LINE
  5
19D
330
1F
100
AcDbEntity
  8
0
  6
HIDDEN
 62
     7
100
AcDbLine
 10
4.0456645688
 20
7.4093787137
 30
0.0
 11
4.0943526388
 21
7.4093787137
 31
0.0
  0
LINE
  5
19E
330
1F
100
AcDbEntity
  8
0
  6
HIDDEN
 62
     7
100
AcDbLine
 10
4.0943526388
 20
7.4093787137
 30
0.0
 11
4.1430407088
 21
7.4093787137
 31
0.0
  0
LINE
  5
19F
330
1F
100
AcDbEntity
  8
0
  6
HIDDEN
 62
     7
100
AcDbLine
 10
4.1430407088
 20
7.4093787137
 30
0.0
 11
4.1430407088
 21
7.4593787137
 31
0.0
  0
LINE
  5
1A0
330
1F
100
AcDbEntity
  8
0
  6
HIDDEN
 62
     7
100
AcDbLine
 10
4.0456645688
 20
7.4093787137
 30
0.0
 11
4.0456645688
 21
7.4593787137
 31
0.0
  0
LINE
  5
1A1
330
1F
100
AcDbEntity
  8
0
  6
HIDDEN
 62
     7
100
AcDbLine
 10
2.4762424026
 20
7.4493787137
 30
0.0
 11
2.6415967333
 21
7.4493787137
 31
0.0
  0
LINE
  5
1A2
330
1F
100
AcDbEntity
  8
0
  6
HIDDEN
 62
     7
100
AcDbLine
 10
2.6415967333
 20
6.8788275326
 30
0.0
 11
2.4762424026
 21
6.8788275326
 31
0.0
  0
LINE
  5
1A3
330
1F
100
AcDbEntity
  8
0
  6
HIDDEN
 62
     7
100
AcDbLine
 10
2.4862424026
 20
6.8688275326
 30
0.0
 11
2.6315967333
 21
6.8688275326
 31
0.0
  0
LINE
  5
1A4
330
1F
100
AcDbEntity
  8
0
  6
HIDDEN
 62
     7
100
AcDbLine
 10
2.558919568
 20
7.4093787137
 30
0.0
 11
2.558919568
 21
7.4593787137
 31
0.0
  0
LINE
  5
1A5
330
1F
100
AcDbEntity
  8
0
  6
HIDDEN
 62
     7
100
AcDbLine
 10
2.558919568
 20
7.4093787137
 30
0.0
 11
2.5102314979
 21
7.4093787137
 31
0.0
  0
LINE
  5
1A6
330
1F
100
AcDbEntity
  8
0
  6
HIDDEN
 62
     7
100
AcDbLine
 10
2.607607638
 20
7.4093787137
 30
0.0
 11
2.558919568
 21
7.4093787137
 31
0.0
  0
LINE
  5
1A7
330
1F
100
AcDbEntity
  8
0
  6
HIDDEN
 62
     7
100
AcDbLine
 10
2.5102314979
 20
7.4093787137
 30
0.0
 11
2.5102314979
 21
7.4593787137
 31
0.0
  0
LINE
  5
1A8
330
1F
100
AcDbEntity
  8
0
  6
HIDDEN
 62
     7
100
AcDbLine
 10
2.607607638
 20
7.4093787137
 30
0.0
 11
2.607607638
 21
7.4593787137
 31
0.0
  0
LINE
  5
1A9
330
1F
100
AcDbEntity
  8
0
  6
HIDDEN
 62
     7
100
AcDbLine
 10
2.2242738987
 20
6.4601267452
 30
0.0
 11
2.2392738987
 21
6.4751267452
 31
0.0
  0
LINE
  5
1AA
330
1F
100
AcDbEntity
  8
0
  6
HIDDEN
 62
     7
100
AcDbLine
 10
2.2392738987
 20
6.8688275326
 30
0.0
 11
2.2242738987
 21
6.8838275326
 31
0.0
  0
LINE
  5
1AB
330
1F
100
AcDbEntity
  8
0
  6
HIDDEN
 62
     7
100
AcDbLine
 10
3.3766361034
 20
6.8838275326
 30
0.0
 11
3.2766361034
 21
6.8838275326
 31
0.0
  0
LINE
  5
1AC
330
1F
100
AcDbEntity
  8
0
  6
HIDDEN
 62
     7
100
AcDbLine
 10
3.2766361034
 20
6.4601267452
 30
0.0
 11
3.3766361034
 21
6.4601267452
 31
0.0
  0
LINE
  5
1AD
330
1F
100
AcDbEntity
  8
0
  6
HIDDEN
 62
     7
100
AcDbLine
 10
4.4289983081
 20
6.8838275326
 30
0.0
 11
4.4139983081
 21
6.8688275326
 31
0.0
  0
LINE
  5
1AE
330
1F
100
AcDbEntity
  8
0
  6
HIDDEN
 62
     7
100
AcDbLine
 10
4.4139983081
 20
6.4751267452
 30
0.0
 11
4.4289983081
 21
6.4601267452
 31
0.0
  0
LINE
  5
1AF
330
1F
100
AcDbEntity
  8
0
  6
HIDDEN
 62
     7
100
AcDbLine
 10
4.0116754735
 20
6.8688275326
 30
0.0
 11
3.3766361034
 21
6.8688275326
 31
0.0
  0
LINE
  5
1B0
330
1F
100
AcDbEntity
  8
0
  6
HIDDEN
 62
     7
100
AcDbLine
 10
4.4139983081
 20
6.8688275326
 30
0.0
 11
4.1768611506
 21
6.8688275326
 31
0.0
  0
LINE
  5
1B1
330
1F
100
AcDbEntity
  8
0
  6
HIDDEN
 62
     7
100
AcDbLine
 10
3.3766361034
 20
6.4751267452
 30
0.0
 11
4.4139983081
 21
6.4751267452
 31
0.0
  0
LINE
  5
1B2
330
1F
100
AcDbEntity
  8
0
  6
HIDDEN
 62
     7
100
AcDbLine
 10
2.4762424026
 20
6.8688275326
 30
0.0
 11
2.2392738987
 21
6.8688275326
 31
0.0
  0
LINE
  5
1B3
330
1F
100
AcDbEntity
  8
0
  6
HIDDEN
 62
     7
100
AcDbLine
 10
3.2766361034
 20
6.8688275326
 30
0.0
 11
2.6414280797
 21
6.8688275326
 31
0.0
  0
LINE
  5
1B4
330
1F
100
AcDbEntity
  8
0
  6
HIDDEN
 62
     7
100
AcDbLine
 10
2.2392738987
 20
6.4751267452
 30
0.0
 11
3.2766361034
 21
6.4751267452
 31
0.0
  0
LINE
  5
1B5
330
1F
100
AcDbEntity
  8
0
  6
HIDDEN
 62
     7
100
AcDbLine
 10
4.1770298042
 20
6.8687570942
 30
0.0
 11
4.1770298042
 21
7.4593787137
 31
0.0
  0
LINE
  5
1B6
330
1F
100
AcDbEntity
  8
0
  6
HIDDEN
 62
     7
100
AcDbLine
 10
4.0116754735
 20
7.4593787137
 30
0.0
 11
4.0116754735
 21
6.8688275326
 31
0.0
  0
LINE
  5
1B7
330
1F
100
AcDbEntity
  8
0
  6
HIDDEN
 62
     7
100
AcDbLine
 10
2.6415967333
 20
6.8687570942
 30
0.0
 11
2.6415967333
 21
7.4593787137
 31
0.0
  0
LINE
  5
1B8
330
1F
100
AcDbEntity
  8
0
  6
HIDDEN
 62
     7
100
AcDbLine
 10
2.4762424026
 20
7.4593787137
 30
0.0
 11
2.4762424026
 21
6.8688275326
 31
0.0
  0
LINE
  5
1B9
330
1F
100
AcDbEntity
  8
0
  6
HIDDEN
 62
     7
100
AcDbLine
 10
4.1770298042
 20
7.4493787137
 30
0.0
 11
4.1679270511
 21
7.4584814668
 31
0.0
  0
LINE
  5
1BA
330
1F
100
AcDbEntity
  8
0
  6
HIDDEN
 62
     7
100
AcDbLine
 10
4.0207779936
 20
7.4584812338
 30
0.0
 11
4.0116754735
 21
7.4493787137
 31
0.0
  0
LINE
  5
1BB
330
1F
100
AcDbEntity
  8
0
  6
HIDDEN
 62
     7
100
AcDbLine
 10
4.1770298042
 20
6.8788275326
 30
0.0
 11
4.1770298042
 21
7.4493787137
 31
0.0
  0
LINE
  5
1BC
330
1F
100
AcDbEntity
  8
0
  6
HIDDEN
 62
     7
100
AcDbLine
 10
4.0116754735
 20
7.4493787137
 30
0.0
 11
4.0116754735
 21
6.8788275326
 31
0.0
  0
LINE
  5
1BD
330
1F
100
AcDbEntity
  8
0
  6
HIDDEN
 62
     7
100
AcDbLine
 10
4.0116754735
 20
6.8788275326
 30
0.0
 11
4.0216754735
 21
6.8688275326
 31
0.0
  0
LINE
  5
1BE
330
1F
100
AcDbEntity
  8
0
  6
HIDDEN
 62
     7
100
AcDbLine
 10
4.1670298042
 20
6.8688275326
 30
0.0
 11
4.1770298042
 21
6.8788275326
 31
0.0
  0
LINE
  5
1BF
330
1F
100
AcDbEntity
  8
0
  6
HIDDEN
 62
     7
100
AcDbLine
 10
2.6415967333
 20
7.4493787137
 30
0.0
 11
2.6324939802
 21
7.4584814668
 31
0.0
  0
LINE
  5
1C0
330
1F
100
AcDbEntity
  8
0
  6
HIDDEN
 62
     7
100
AcDbLine
 10
2.4853449227
 20
7.4584812338
 30
0.0
 11
2.4762424026
 21
7.4493787137
 31
0.0
  0
LINE
  5
1C1
330
1F
100
AcDbEntity
  8
0
  6
HIDDEN
 62
     7
100
AcDbLine
 10
2.6415967333
 20
6.8788275326
 30
0.0
 11
2.6415967333
 21
7.4493787137
 31
0.0
  0
LINE
  5
1C2
330
1F
100
AcDbEntity
  8
0
  6
HIDDEN
 62
     7
100
AcDbLine
 10
2.4762424026
 20
7.4493787137
 30
0.0
 11
2.4762424026
 21
6.8788275326
 31
0.0
  0
LINE
  5
1C3
330
1F
100
AcDbEntity
  8
0
  6
HIDDEN
 62
     7
100
AcDbLine
 10
2.4762424026
 20
6.8788275326
 30
0.0
 11
2.4862424026
 21
6.8688275326
 31
0.0
  0
LINE
  5
1C4
330
1F
100
AcDbEntity
  8
0
  6
HIDDEN
 62
     7
100
AcDbLine
 10
2.6315967333
 20
6.8688275326
 30
0.0
 11
2.6415967333
 21
6.8788275326
 31
0.0
  0
LINE
  5
1C5
330
1F
100
AcDbEntity
  8
0
  6
CONTINUOUS
 62
     7
100
AcDbLine
 10
8.9425120695
 20
5.7640806805
 30
0.0
 11
8.9531169473
 21
5.7702047365
 31
0.0
  0
LINE
  5
1C6
330
1F
100
AcDbEntity
  8
0
  6
CONTINUOUS
 62
     7
100
AcDbLine
 10
9.4991985706
 20
6.7161483481
 30
0.0
 11
9.4991985706
 21
6.7283944698
 31
0.0
  0
LINE
  5
1C7
330
1F
100
AcDbEntity
  8
0
  6
CONTINUOUS
 62
     7
100
AcDbLine
 10
7.0109904081
 20
6.6127770397
 30
0.0
 11
8.5487527852
 21
5.7250457152
 31
0.0
  0
LINE
  5
1C8
330
1F
100
AcDbEntity
  8
0
  6
CONTINUOUS
 62
     7
100
AcDbLine
 10
9.3360903699
 20
7.0889021914
 30
0.0
 11
7.7983279928
 21
7.9766335158
 31
0.0
  0
LINE
  5
1C9
330
1F
100
AcDbEntity
  8
0
  6
CONTINUOUS
 62
     7
100
AcDbLine
 10
7.4045687085
 20
7.9375985506
 30
0.0
 11
7.3939638307
 21
7.9314744945
 31
0.0
  0
LINE
  5
1CA
330
1F
100
AcDbEntity
  8
0
  6
CONTINUOUS
 62
     7
100
AcDbLine
 10
6.8478822074
 20
6.985530883
 30
0.0
 11
6.8478822074
 21
6.9732847613
 31
0.0
  0
LINE
  5
1CB
330
1F
100
AcDbEntity
  8
0
  6
CONTINUOUS
 62
     7
100
AcDbLine
 10
7.6891539044
 20
7.8327484016
 30
0.0
 11
7.6820816876
 21
7.8368324326
 31
0.0
  0
LINE
  5
1CC
330
1F
100
AcDbEntity
  8
0
  6
CONTINUOUS
 62
     7
100
AcDbLine
 10
7.5792839539
 20
7.8368324326
 30
0.0
 11
7.5722117372
 21
7.8327484016
 31
0.0
  0
LINE
  5
1CD
330
1F
100
AcDbEntity
  8
0
  6
CONTINUOUS
 62
     7
100
AcDbLine
 10
7.7133599861
 20
7.7912850986
 30
0.0
 11
7.7133599861
 21
7.7990047321
 31
0.0
  0
LINE
  5
1CE
330
1F
100
AcDbEntity
  8
0
  6
CONTINUOUS
 62
     7
100
AcDbLine
 10
7.5480056554
 20
7.7990047321
 30
0.0
 11
7.5480056554
 21
7.790806099
 31
0.0
  0
LINE
  5
1CF
330
1F
100
AcDbEntity
  8
0
  6
CONTINUOUS
 62
     7
100
AcDbLine
 10
8.7748690408
 20
7.2059783945
 30
0.0
 11
8.7677968241
 21
7.2100624255
 31
0.0
  0
LINE
  5
1D0
330
1F
100
AcDbEntity
  8
0
  6
CONTINUOUS
 62
     7
100
AcDbLine
 10
8.6649990904
 20
7.2100624255
 30
0.0
 11
8.6579268736
 21
7.2059783945
 31
0.0
  0
LINE
  5
1D1
330
1F
100
AcDbEntity
  8
0
  6
CONTINUOUS
 62
     7
100
AcDbLine
 10
8.7990751226
 20
7.1645150915
 30
0.0
 11
8.7990751226
 21
7.172234725
 31
0.0
  0
LINE
  5
1D2
330
1F
100
AcDbEntity
  8
0
  6
CONTINUOUS
 62
     7
100
AcDbLine
 10
8.6337207919
 20
7.172234725
 30
0.0
 11
8.6337207919
 21
7.1640360919
 31
0.0
  0
POLYLINE
  5
1D3
330
1F
100
AcDbEntity
  8
0
  6
CONTINUOUS
 62
     7
100
AcDb2dPolyline
 66
     1
 10
0.0
 20
0.0
 30
0.0
  0
VERTEX
  5
22F
330
1D3
100
AcDbEntity
  8
0
  6
CONTINUOUS
 62
     7
100
AcDbVertex
100
AcDb2dVertex
 10
9.4991985706
 20
6.7161483481
 30
0.0
  0
VERTEX
  5
230
330
1D3
100
AcDbEntity
  8
0
  6
CONTINUOUS
 62
     7
100
AcDbVertex
100
AcDb2dVertex
 10
9.4984374332
 20
6.7489942275
 30
0.0
  0
VERTEX
  5
231
330
1D3
100
AcDbEntity
  8
0
  6
CONTINUOUS
 62
     7
100
AcDbVertex
100
AcDb2dVertex
 10
9.4961561424
 20
6.780869769
 30
0.0
  0
VERTEX
  5
232
330
1D3
100
AcDbEntity
  8
0
  6
CONTINUOUS
 62
     7
100
AcDbVertex
100
AcDb2dVertex
 10
9.4923610565
 20
6.8116861298
 30
0.0
  0
VERTEX
  5
233
330
1D3
100
AcDbEntity
  8
0
  6
CONTINUOUS
 62
     7
100
AcDbVertex
100
AcDb2dVertex
 10
9.4870627532
 20
6.841357419
 30
0.0
  0
VERTEX
  5
234
330
1D3
100
AcDbEntity
  8
0
  6
CONTINUOUS
 62
     7
100
AcDbVertex
100
AcDb2dVertex
 10
9.4802759997
 20
6.8698009375
 30
0.0
  0
VERTEX
  5
235
330
1D3
100
AcDbEntity
  8
0
  6
CONTINUOUS
 62
     7
100
AcDbVertex
100
AcDb2dVertex
 10
9.4720197119
 20
6.8969374082
 30
0.0
  0
VERTEX
  5
236
330
1D3
100
AcDbEntity
  8
0
  6
CONTINUOUS
 62
     7
100
AcDbVertex
100
AcDb2dVertex
 10
9.4623169017
 20
6.9226911967
 30
0.0
  0
VERTEX
  5
237
330
1D3
100
AcDbEntity
  8
0
  6
CONTINUOUS
 62
     7
100
AcDbVertex
100
AcDb2dVertex
 10
9.4511946125
 20
6.9469905228
 30
0.0
  0
VERTEX
  5
238
330
1D3
100
AcDbEntity
  8
0
  6
CONTINUOUS
 62
     7
100
AcDbVertex
100
AcDb2dVertex
 10
9.4386838441
 20
6.9697676597
 30
0.0
  0
VERTEX
  5
239
330
1D3
100
AcDbEntity
  8
0
  6
CONTINUOUS
 62
     7
100
AcDbVertex
100
AcDb2dVertex
 10
9.4248194662
 20
6.9909591236
 30
0.0
  0
VERTEX
  5
23A
330
1D3
100
AcDbEntity
  8
0
  6
CONTINUOUS
 62
     7
100
AcDbVertex
100
AcDb2dVertex
 10
9.4096401214
 20
7.01050585
 30
0.0
  0
VERTEX
  5
23B
330
1D3
100
AcDbEntity
  8
0
  6
CONTINUOUS
 62
     7
100
AcDbVertex
100
AcDb2dVertex
 10
9.3931881172
 20
7.0283533586
 30
0.0
  0
VERTEX
  5
23C
330
1D3
100
AcDbEntity
  8
0
  6
CONTINUOUS
 62
     7
100
AcDbVertex
100
AcDb2dVertex
 10
9.3755093084
 20
7.0444519054
 30
0.0
  0
VERTEX
  5
23D
330
1D3
100
AcDbEntity
  8
0
  6
CONTINUOUS
 62
     7
100
AcDbVertex
100
AcDb2dVertex
 10
9.3566529688
 20
7.0587566207
 30
0.0
  0
VERTEX
  5
23E
330
1D3
100
AcDbEntity
  8
0
  6
CONTINUOUS
 62
     7
100
AcDbVertex
100
AcDb2dVertex
 10
9.3366716546
 20
7.0712276347
 30
0.0
  0
VERTEX
  5
23F
330
1D3
100
AcDbEntity
  8
0
  6
CONTINUOUS
 62
     7
100
AcDbVertex
100
AcDb2dVertex
 10
9.3156210572
 20
7.0818301885
 30
0.0
  0
VERTEX
  5
240
330
1D3
100
AcDbEntity
  8
0
  6
CONTINUOUS
 62
     7
100
AcDbVertex
100
AcDb2dVertex
 10
9.2935598484
 20
7.0905347309
 30
0.0
  0
VERTEX
  5
241
330
1D3
100
AcDbEntity
  8
0
  6
CONTINUOUS
 62
     7
100
AcDbVertex
100
AcDb2dVertex
 10
9.2705495167
 20
7.0973170007
 30
0.0
  0
VERTEX
  5
242
330
1D3
100
AcDbEntity
  8
0
  6
CONTINUOUS
 62
     7
100
AcDbVertex
100
AcDb2dVertex
 10
9.2466541962
 20
7.1021580946
 30
0.0
  0
VERTEX
  5
243
330
1D3
100
AcDbEntity
  8
0
  6
CONTINUOUS
 62
     7
100
AcDbVertex
100
AcDb2dVertex
 10
9.2219404873
 20
7.1050445195
 30
0.0
  0
VERTEX
  5
244
330
1D3
100
AcDbEntity
  8
0
  6
CONTINUOUS
 62
     7
100
AcDbVertex
100
AcDb2dVertex
 10
9.1964772715
 20
7.1059682304
 30
0.0
  0
VERTEX
  5
245
330
1D3
100
AcDbEntity
  8
0
  6
CONTINUOUS
 62
     7
100
AcDbVertex
100
AcDb2dVertex
 10
9.1703355195
 20
7.1049266529
 30
0.0
  0
VERTEX
  5
246
330
1D3
100
AcDbEntity
  8
0
  6
CONTINUOUS
 62
     7
100
AcDbVertex
100
AcDb2dVertex
 10
9.1435880929
 20
7.1019226899
 30
0.0
  0
VERTEX
  5
247
330
1D3
100
AcDbEntity
  8
0
  6
CONTINUOUS
 62
     7
100
AcDbVertex
100
AcDb2dVertex
 10
9.1163095416
 20
7.0969647141
 30
0.0
  0
VERTEX
  5
248
330
1D3
100
AcDbEntity
  8
0
  6
CONTINUOUS
 62
     7
100
AcDbVertex
100
AcDb2dVertex
 10
9.088575896
 20
7.0900665443
 30
0.0
  0
VERTEX
  5
249
330
1D3
100
AcDbEntity
  8
0
  6
CONTINUOUS
 62
     7
100
AcDbVertex
100
AcDb2dVertex
 10
9.0604644545
 20
7.0812474068
 30
0.0
  0
VERTEX
  5
24A
330
1D3
100
AcDbEntity
  8
0
  6
CONTINUOUS
 62
     7
100
AcDbVertex
100
AcDb2dVertex
 10
9.0320535689
 20
7.0705318821
 30
0.0
  0
VERTEX
  5
24B
330
1D3
100
AcDbEntity
  8
0
  6
CONTINUOUS
 62
     7
100
AcDbVertex
100
AcDb2dVertex
 10
9.0034224253
 20
7.0579498365
 30
0.0
  0
VERTEX
  5
24C
330
1D3
100
AcDbEntity
  8
0
  6
CONTINUOUS
 62
     7
100
AcDbVertex
100
AcDb2dVertex
 10
8.9746508239
 20
7.0435363382
 30
0.0
  0
VERTEX
  5
24D
330
1D3
100
AcDbEntity
  8
0
  6
CONTINUOUS
 62
     7
100
AcDbVertex
100
AcDb2dVertex
 10
8.9458189563
 20
7.0273315604
 30
0.0
  0
VERTEX
  5
24E
330
1D3
100
AcDbEntity
  8
0
  6
CONTINUOUS
 62
     7
100
AcDbVertex
100
AcDb2dVertex
 10
8.9170071822
 20
7.0093806685
 30
0.0
  0
VERTEX
  5
24F
330
1D3
100
AcDbEntity
  8
0
  6
CONTINUOUS
 62
     7
100
AcDbVertex
100
AcDb2dVertex
 10
8.888295805
 20
6.989733695
 30
0.0
  0
VERTEX
  5
250
330
1D3
100
AcDbEntity
  8
0
  6
CONTINUOUS
 62
     7
100
AcDbVertex
100
AcDb2dVertex
 10
8.8597648485
 20
6.9684453995
 30
0.0
  0
VERTEX
  5
251
330
1D3
100
AcDbEntity
  8
0
  6
CONTINUOUS
 62
     7
100
AcDbVertex
100
AcDb2dVertex
 10
8.8314938337
 20
6.9455751163
 30
0.0
  0
VERTEX
  5
252
330
1D3
100
AcDbEntity
  8
0
  6
CONTINUOUS
 62
     7
100
AcDbVertex
100
AcDb2dVertex
 10
8.8035615569
 20
6.9211865891
 30
0.0
  0
VERTEX
  5
253
330
1D3
100
AcDbEntity
  8
0
  6
CONTINUOUS
 62
     7
100
AcDbVertex
100
AcDb2dVertex
 10
8.7760458704
 20
6.8953477929
 30
0.0
  0
VERTEX
  5
254
330
1D3
100
AcDbEntity
  8
0
  6
CONTINUOUS
 62
     7
100
AcDbVertex
100
AcDb2dVertex
 10
8.7490234653
 20
6.8681307451
 30
0.0
  0
VERTEX
  5
255
330
1D3
100
AcDbEntity
  8
0
  6
CONTINUOUS
 62
     7
100
AcDbVertex
100
AcDb2dVertex
 10
8.7225696579
 20
6.8396113046
 30
0.0
  0
VERTEX
  5
256
330
1D3
100
AcDbEntity
  8
0
  6
CONTINUOUS
 62
     7
100
AcDbVertex
100
AcDb2dVertex
 10
8.6967581798
 20
6.8098689601
 30
0.0
  0
VERTEX
  5
257
330
1D3
100
AcDbEntity
  8
0
  6
CONTINUOUS
 62
     7
100
AcDbVertex
100
AcDb2dVertex
 10
8.6716609722
 20
6.778986609
 30
0.0
  0
VERTEX
  5
258
330
1D3
100
AcDbEntity
  8
0
  6
CONTINUOUS
 62
     7
100
AcDbVertex
100
AcDb2dVertex
 10
8.6473479854
 20
6.7470503257
 30
0.0
  0
VERTEX
  5
259
330
1D3
100
AcDbEntity
  8
0
  6
CONTINUOUS
 62
     7
100
AcDbVertex
100
AcDb2dVertex
 10
8.6238869841
 20
6.7141491225
 30
0.0
  0
VERTEX
  5
25A
330
1D3
100
AcDbEntity
  8
0
  6
CONTINUOUS
 62
     7
100
AcDbVertex
100
AcDb2dVertex
 10
8.6013433584
 20
6.680374701
 30
0.0
  0
VERTEX
  5
25B
330
1D3
100
AcDbEntity
  8
0
  6
CONTINUOUS
 62
     7
100
AcDbVertex
100
AcDb2dVertex
 10
8.5797799413
 20
6.6458211965
 30
0.0
  0
VERTEX
  5
25C
330
1D3
100
AcDbEntity
  8
0
  6
CONTINUOUS
 62
     7
100
AcDbVertex
100
AcDb2dVertex
 10
8.5592568341
 20
6.6105849158
 30
0.0
  0
VERTEX
  5
25D
330
1D3
100
AcDbEntity
  8
0
  6
CONTINUOUS
 62
     7
100
AcDbVertex
100
AcDb2dVertex
 10
8.5398312381
 20
6.5747640688
 30
0.0
  0
VERTEX
  5
25E
330
1D3
100
AcDbEntity
  8
0
  6
CONTINUOUS
 62
     7
100
AcDbVertex
100
AcDb2dVertex
 10
8.5215572962
 20
6.5384584945
 30
0.0
  0
VERTEX
  5
25F
330
1D3
100
AcDbEntity
  8
0
  6
CONTINUOUS
 62
     7
100
AcDbVertex
100
AcDb2dVertex
 10
8.5044859411
 20
6.5017693832
 30
0.0
  0
VERTEX
  5
260
330
1D3
100
AcDbEntity
  8
0
  6
CONTINUOUS
 62
     7
100
AcDbVertex
100
AcDb2dVertex
 10
8.4886647535
 20
6.464798994
 30
0.0
  0
VERTEX
  5
261
330
1D3
100
AcDbEntity
  8
0
  6
CONTINUOUS
 62
     7
100
AcDbVertex
100
AcDb2dVertex
 10
8.4741378302
 20
6.4276503699
 30
0.0
  0
VERTEX
  5
262
330
1D3
100
AcDbEntity
  8
0
  6
CONTINUOUS
 62
     7
100
AcDbVertex
100
AcDb2dVertex
 10
8.4609456601
 20
6.3904270509
 30
0.0
  0
VERTEX
  5
263
330
1D3
100
AcDbEntity
  8
0
  6
CONTINUOUS
 62
     7
100
AcDbVertex
100
AcDb2dVertex
 10
8.4491250123
 20
6.353232785
 30
0.0
  0
VERTEX
  5
264
330
1D3
100
AcDbEntity
  8
0
  6
CONTINUOUS
 62
     7
100
AcDbVertex
100
AcDb2dVertex
 10
8.438708833
 20
6.3161712393
 30
0.0
  0
VERTEX
  5
265
330
1D3
100
AcDbEntity
  8
0
  6
CONTINUOUS
 62
     7
100
AcDbVertex
100
AcDb2dVertex
 10
8.4297261539
 20
6.279345711
 30
0.0
  0
VERTEX
  5
266
330
1D3
100
AcDbEntity
  8
0
  6
CONTINUOUS
 62
     7
100
AcDbVertex
100
AcDb2dVertex
 10
8.4222020115
 20
6.2428588394
 30
0.0
  0
VERTEX
  5
267
330
1D3
100
AcDbEntity
  8
0
  6
CONTINUOUS
 62
     7
100
AcDbVertex
100
AcDb2dVertex
 10
8.4161573768
 20
6.20681232
 30
0.0
  0
VERTEX
  5
268
330
1D3
100
AcDbEntity
  8
0
  6
CONTINUOUS
 62
     7
100
AcDbVertex
100
AcDb2dVertex
 10
8.4116090973
 20
6.1713066209
 30
0.0
  0
VERTEX
  5
269
330
1D3
100
AcDbEntity
  8
0
  6
CONTINUOUS
 62
     7
100
AcDbVertex
100
AcDb2dVertex
 10
8.4085698498
 20
6.1364407029
 30
0.0
  0
VERTEX
  5
26A
330
1D3
100
AcDbEntity
  8
0
  6
CONTINUOUS
 62
     7
100
AcDbVertex
100
AcDb2dVertex
 10
8.4070481055
 20
6.1023117434
 30
0.0
  0
VERTEX
  5
26B
330
1D3
100
AcDbEntity
  8
0
  6
CONTINUOUS
 62
     7
100
AcDbVertex
100
AcDb2dVertex
 10
8.4070481055
 20
6.0690148662
 30
0.0
  0
VERTEX
  5
26C
330
1D3
100
AcDbEntity
  8
0
  6
CONTINUOUS
 62
     7
100
AcDbVertex
100
AcDb2dVertex
 10
8.4085698498
 20
6.0366428754
 30
0.0
  0
VERTEX
  5
26D
330
1D3
100
AcDbEntity
  8
0
  6
CONTINUOUS
 62
     7
100
AcDbVertex
100
AcDb2dVertex
 10
8.4116090973
 20
6.0052859978
 30
0.0
  0
VERTEX
  5
26E
330
1D3
100
AcDbEntity
  8
0
  6
CONTINUOUS
 62
     7
100
AcDbVertex
100
AcDb2dVertex
 10
8.4161573768
 20
5.9750316304
 30
0.0
  0
VERTEX
  5
26F
330
1D3
100
AcDbEntity
  8
0
  6
CONTINUOUS
 62
     7
100
AcDbVertex
100
AcDb2dVertex
 10
8.4222020115
 20
5.9459640977
 30
0.0
  0
VERTEX
  5
270
330
1D3
100
AcDbEntity
  8
0
  6
CONTINUOUS
 62
     7
100
AcDbVertex
100
AcDb2dVertex
 10
8.4297261539
 20
5.9181644161
 30
0.0
  0
VERTEX
  5
271
330
1D3
100
AcDbEntity
  8
0
  6
CONTINUOUS
 62
     7
100
AcDbVertex
100
AcDb2dVertex
 10
8.438708833
 20
5.8917100682
 30
0.0
  0
VERTEX
  5
272
330
1D3
100
AcDbEntity
  8
0
  6
CONTINUOUS
 62
     7
100
AcDbVertex
100
AcDb2dVertex
 10
8.4491250123
 20
5.8666747872
 30
0.0
  0
VERTEX
  5
273
330
1D3
100
AcDbEntity
  8
0
  6
CONTINUOUS
 62
     7
100
AcDbVertex
100
AcDb2dVertex
 10
8.4609456601
 20
5.8431283508
 30
0.0
  0
VERTEX
  5
274
330
1D3
100
AcDbEntity
  8
0
  6
CONTINUOUS
 62
     7
100
AcDbVertex
100
AcDb2dVertex
 10
8.4741378302
 20
5.8211363871
 30
0.0
  0
VERTEX
  5
275
330
1D3
100
AcDbEntity
  8
0
  6
CONTINUOUS
 62
     7
100
AcDbVertex
100
AcDb2dVertex
 10
8.4886647535
 20
5.8007601917
 30
0.0
  0
VERTEX
  5
276
330
1D3
100
AcDbEntity
  8
0
  6
CONTINUOUS
 62
     7
100
AcDbVertex
100
AcDb2dVertex
 10
8.5044859411
 20
5.7820565568
 30
0.0
  0
VERTEX
  5
277
330
1D3
100
AcDbEntity
  8
0
  6
CONTINUOUS
 62
     7
100
AcDbVertex
100
AcDb2dVertex
 10
8.5215572962
 20
5.7650776126
 30
0.0
  0
VERTEX
  5
278
330
1D3
100
AcDbEntity
  8
0
  6
CONTINUOUS
 62
     7
100
AcDbVertex
100
AcDb2dVertex
 10
8.5398312381
 20
5.7498706826
 30
0.0
  0
VERTEX
  5
279
330
1D3
100
AcDbEntity
  8
0
  6
CONTINUOUS
 62
     7
100
AcDbVertex
100
AcDb2dVertex
 10
8.5592568341
 20
5.7364781512
 30
0.0
  0
VERTEX
  5
27A
330
1D3
100
AcDbEntity
  8
0
  6
CONTINUOUS
 62
     7
100
AcDbVertex
100
AcDb2dVertex
 10
8.5797799413
 20
5.7249373458
 30
0.0
  0
VERTEX
  5
27B
330
1D3
100
AcDbEntity
  8
0
  6
CONTINUOUS
 62
     7
100
AcDbVertex
100
AcDb2dVertex
 10
8.6013433584
 20
5.7152804327
 30
0.0
  0
VERTEX
  5
27C
330
1D3
100
AcDbEntity
  8
0
  6
CONTINUOUS
 62
     7
100
AcDbVertex
100
AcDb2dVertex
 10
8.6238869841
 20
5.7075343274
 30
0.0
  0
VERTEX
  5
27D
330
1D3
100
AcDbEntity
  8
0
  6
CONTINUOUS
 62
     7
100
AcDbVertex
100
AcDb2dVertex
 10
8.6473479854
 20
5.7017206197
 30
0.0
  0
VERTEX
  5
27E
330
1D3
100
AcDbEntity
  8
0
  6
CONTINUOUS
 62
     7
100
AcDbVertex
100
AcDb2dVertex
 10
8.6716609722
 20
5.6978555135
 30
0.0
  0
VERTEX
  5
27F
330
1D3
100
AcDbEntity
  8
0
  6
CONTINUOUS
 62
     7
100
AcDbVertex
100
AcDb2dVertex
 10
8.6967581798
 20
5.6959497815
 30
0.0
  0
VERTEX
  5
280
330
1D3
100
AcDbEntity
  8
0
  6
CONTINUOUS
 62
     7
100
AcDbVertex
100
AcDb2dVertex
 10
8.7225696579
 20
5.6960087353
 30
0.0
  0
VERTEX
  5
281
330
1D3
100
AcDbEntity
  8
0
  6
CONTINUOUS
 62
     7
100
AcDbVertex
100
AcDb2dVertex
 10
8.7490234653
 20
5.6980322107
 30
0.0
  0
VERTEX
  5
282
330
1D3
100
AcDbEntity
  8
0
  6
CONTINUOUS
 62
     7
100
AcDbVertex
100
AcDb2dVertex
 10
8.7760458704
 20
5.7020145677
 30
0.0
  0
VERTEX
  5
283
330
1D3
100
AcDbEntity
  8
0
  6
CONTINUOUS
 62
     7
100
AcDbVertex
100
AcDb2dVertex
 10
8.8035615569
 20
5.707944707
 30
0.0
  0
VERTEX
  5
284
330
1D3
100
AcDbEntity
  8
0
  6
CONTINUOUS
 62
     7
100
AcDbVertex
100
AcDb2dVertex
 10
8.8314938337
 20
5.7158061
 30
0.0
  0
VERTEX
  5
285
330
1D3
100
AcDbEntity
  8
0
  6
CONTINUOUS
 62
     7
100
AcDbVertex
100
AcDb2dVertex
 10
8.8597648485
 20
5.7255768358
 30
0.0
  0
VERTEX
  5
286
330
1D3
100
AcDbEntity
  8
0
  6
CONTINUOUS
 62
     7
100
AcDbVertex
100
AcDb2dVertex
 10
8.888295805
 20
5.7372296814
 30
0.0
  0
VERTEX
  5
287
330
1D3
100
AcDbEntity
  8
0
  6
CONTINUOUS
 62
     7
100
AcDbVertex
100
AcDb2dVertex
 10
8.9170071822
 20
5.7507321585
 30
0.0
  0
VERTEX
  5
288
330
1D3
100
AcDbEntity
  8
0
  6
CONTINUOUS
 62
     7
100
AcDbVertex
100
AcDb2dVertex
 10
8.9458189563
 20
5.766046633
 30
0.0
  0
VERTEX
  5
289
330
1D3
100
AcDbEntity
  8
0
  6
CONTINUOUS
 62
     7
100
AcDbVertex
100
AcDb2dVertex
 10
8.9746508239
 20
5.7831304208
 30
0.0
  0
VERTEX
  5
28A
330
1D3
100
AcDbEntity
  8
0
  6
CONTINUOUS
 62
     7
100
AcDbVertex
100
AcDb2dVertex
 10
9.0034224253
 20
5.8019359064
 30
0.0
  0
VERTEX
  5
28B
330
1D3
100
AcDbEntity
  8
0
  6
CONTINUOUS
 62
     7
100
AcDbVertex
100
AcDb2dVertex
 10
9.0320535689
 20
5.8224106755
 30
0.0
  0
VERTEX
  5
28C
330
1D3
100
AcDbEntity
  8
0
  6
CONTINUOUS
 62
     7
100
AcDbVertex
100
AcDb2dVertex
 10
9.0604644545
 20
5.8444976612
 30
0.0
  0
VERTEX
  5
28D
330
1D3
100
AcDbEntity
  8
0
  6
CONTINUOUS
 62
     7
100
AcDbVertex
100
AcDb2dVertex
 10
9.088575896
 20
5.8681353032
 30
0.0
  0
VERTEX
  5
28E
330
1D3
100
AcDbEntity
  8
0
  6
CONTINUOUS
 62
     7
100
AcDbVertex
100
AcDb2dVertex
 10
9.1163095416
 20
5.893257719
 30
0.0
  0
VERTEX
  5
28F
330
1D3
100
AcDbEntity
  8
0
  6
CONTINUOUS
 62
     7
100
AcDbVertex
100
AcDb2dVertex
 10
9.1435880929
 20
5.9197948881
 30
0.0
  0
VERTEX
  5
290
330
1D3
100
AcDbEntity
  8
0
  6
CONTINUOUS
 62
     7
100
AcDbVertex
100
AcDb2dVertex
 10
9.1703355195
 20
5.9476728465
 30
0.0
  0
VERTEX
  5
291
330
1D3
100
AcDbEntity
  8
0
  6
CONTINUOUS
 62
     7
100
AcDbVertex
100
AcDb2dVertex
 10
9.1964772715
 20
5.9768138935
 30
0.0
  0
VERTEX
  5
292
330
1D3
100
AcDbEntity
  8
0
  6
CONTINUOUS
 62
     7
100
AcDbVertex
100
AcDb2dVertex
 10
9.2219404873
 20
6.0071368075
 30
0.0
  0
VERTEX
  5
293
330
1D3
100
AcDbEntity
  8
0
  6
CONTINUOUS
 62
     7
100
AcDbVertex
100
AcDb2dVertex
 10
9.2466541962
 20
6.0385570734
 30
0.0
  0
VERTEX
  5
294
330
1D3
100
AcDbEntity
  8
0
  6
CONTINUOUS
 62
     7
100
AcDbVertex
100
AcDb2dVertex
 10
9.2705495167
 20
6.0709871171
 30
0.0
  0
VERTEX
  5
295
330
1D3
100
AcDbEntity
  8
0
  6
CONTINUOUS
 62
     7
100
AcDbVertex
100
AcDb2dVertex
 10
9.2935598484
 20
6.1043365504
 30
0.0
  0
VERTEX
  5
296
330
1D3
100
AcDbEntity
  8
0
  6
CONTINUOUS
 62
     7
100
AcDbVertex
100
AcDb2dVertex
 10
9.3156210572
 20
6.1385124222
 30
0.0
  0
VERTEX
  5
297
330
1D3
100
AcDbEntity
  8
0
  6
CONTINUOUS
 62
     7
100
AcDbVertex
100
AcDb2dVertex
 10
9.3366716546
 20
6.1734194785
 30
0.0
  0
VERTEX
  5
298
330
1D3
100
AcDbEntity
  8
0
  6
CONTINUOUS
 62
     7
100
AcDbVertex
100
AcDb2dVertex
 10
9.3566529688
 20
6.2089604269
 30
0.0
  0
VERTEX
  5
299
330
1D3
100
AcDbEntity
  8
0
  6
CONTINUOUS
 62
     7
100
AcDbVertex
100
AcDb2dVertex
 10
9.3755093084
 20
6.2450362084
 30
0.0
  0
VERTEX
  5
29A
330
1D3
100
AcDbEntity
  8
0
  6
CONTINUOUS
 62
     7
100
AcDbVertex
100
AcDb2dVertex
 10
9.3931881172
 20
6.2815462734
 30
0.0
  0
VERTEX
  5
29B
330
1D3
100
AcDbEntity
  8
0
  6
CONTINUOUS
 62
     7
100
AcDbVertex
100
AcDb2dVertex
 10
9.4096401214
 20
6.3183888618
 30
0.0
  0
VERTEX
  5
29C
330
1D3
100
AcDbEntity
  8
0
  6
CONTINUOUS
 62
     7
100
AcDbVertex
100
AcDb2dVertex
 10
9.4248194662
 20
6.3554612866
 30
0.0
  0
VERTEX
  5
29D
330
1D3
100
AcDbEntity
  8
0
  6
CONTINUOUS
 62
     7
100
AcDbVertex
100
AcDb2dVertex
 10
9.4386838441
 20
6.3926602204
 30
0.0
  0
VERTEX
  5
29E
330
1D3
100
AcDbEntity
  8
0
  6
CONTINUOUS
 62
     7
100
AcDbVertex
100
AcDb2dVertex
 10
9.4511946125
 20
6.4298819831
 30
0.0
  0
VERTEX
  5
29F
330
1D3
100
AcDbEntity
  8
0
  6
CONTINUOUS
 62
     7
100
AcDbVertex
100
AcDb2dVertex
 10
9.4623169017
 20
6.467022831
 30
0.0
  0
VERTEX
  5
2A0
330
1D3
100
AcDbEntity
  8
0
  6
CONTINUOUS
 62
     7
100
AcDbVertex
100
AcDb2dVertex
 10
9.4720197119
 20
6.5039792457
 30
0.0
  0
VERTEX
  5
2A1
330
1D3
100
AcDbEntity
  8
0
  6
CONTINUOUS
 62
     7
100
AcDbVertex
100
AcDb2dVertex
 10
9.4802759997
 20
6.5406482233
 30
0.0
  0
VERTEX
  5
2A2
330
1D3
100
AcDbEntity
  8
0
  6
CONTINUOUS
 62
     7
100
AcDbVertex
100
AcDb2dVertex
 10
9.4870627532
 20
6.5769275606
 30
0.0
  0
VERTEX
  5
2A3
330
1D3
100
AcDbEntity
  8
0
  6
CONTINUOUS
 62
     7
100
AcDbVertex
100
AcDb2dVertex
 10
9.4923610565
 20
6.6127161407
 30
0.0
  0
VERTEX
  5
2A4
330
1D3
100
AcDbEntity
  8
0
  6
CONTINUOUS
 62
     7
100
AcDbVertex
100
AcDb2dVertex
 10
9.4961561424
 20
6.6479142143
 30
0.0
  0
VERTEX
  5
2A5
330
1D3
100
AcDbEntity
  8
0
  6
CONTINUOUS
 62
     7
100
AcDbVertex
100
AcDb2dVertex
 10
9.4984374332
 20
6.6824236781
 30
0.0
  0
VERTEX
  5
2A6
330
1D3
100
AcDbEntity
  8
0
  6
CONTINUOUS
 62
     7
100
AcDbVertex
100
AcDb2dVertex
 10
9.4991985706
 20
6.7161483481
 30
0.0
  0
SEQEND
  5
2A7
330
1D3
100
AcDbEntity
  8
0
  6
CONTINUOUS
 62
     7
  0
POLYLINE
  5
1D4
330
1F
100
AcDbEntity
  8
0
  6
CONTINUOUS
 62
     7
100
AcDb2dPolyline
 66
     1
 10
0.0
 20
0.0
 30
0.0
  0
VERTEX
  5
2A8
330
1D4
100
AcDbEntity
  8
0
  6
CONTINUOUS
 62
     7
100
AcDbVertex
100
AcDb2dVertex
 10
8.9425120695
 20
5.7640806805
 30
0.0
  0
VERTEX
  5
2A9
330
1D4
100
AcDbEntity
  8
0
  6
CONTINUOUS
 62
     7
100
AcDbVertex
100
AcDb2dVertex
 10
8.9424215776
 20
5.7640284322
 30
0.0
  0
VERTEX
  5
2AA
330
1D4
100
AcDbEntity
  8
0
  6
CONTINUOUS
 62
     7
100
AcDbVertex
100
AcDb2dVertex
 10
8.9132821212
 20
5.7480877166
 30
0.0
  0
VERTEX
  5
2AB
330
1D4
100
AcDbEntity
  8
0
  6
CONTINUOUS
 62
     7
100
AcDbVertex
100
AcDb2dVertex
 10
8.8842225341
 20
5.7339529623
 30
0.0
  0
VERTEX
  5
2AC
330
1D4
100
AcDbEntity
  8
0
  6
CONTINUOUS
 62
     7
100
AcDbVertex
100
AcDb2dVertex
 10
8.8553224665
 20
5.7216629119
 30
0.0
  0
VERTEX
  5
2AD
330
1D4
100
AcDbEntity
  8
0
  6
CONTINUOUS
 62
     7
100
AcDbVertex
100
AcDb2dVertex
 10
8.8266611315
 20
5.7112512513
 30
0.0
  0
VERTEX
  5
2AE
330
1D4
100
AcDbEntity
  8
0
  6
CONTINUOUS
 62
     7
100
AcDbVertex
100
AcDb2dVertex
 10
8.7983170879
 20
5.7027465184
 30
0.0
  0
VERTEX
  5
2AF
330
1D4
100
AcDbEntity
  8
0
  6
CONTINUOUS
 62
     7
100
AcDbVertex
100
AcDb2dVertex
 10
8.7703680246
 20
5.6961720239
 30
0.0
  0
VERTEX
  5
2B0
330
1D4
100
AcDbEntity
  8
0
  6
CONTINUOUS
 62
     7
100
AcDbVertex
100
AcDb2dVertex
 10
8.7428905482
 20
5.691545788
 30
0.0
  0
VERTEX
  5
2B1
330
1D4
100
AcDbEntity
  8
0
  6
CONTINUOUS
 62
     7
100
AcDbVertex
100
AcDb2dVertex
 10
8.7159599725
 20
5.6888804911
 30
0.0
  0
VERTEX
  5
2B2
330
1D4
100
AcDbEntity
  8
0
  6
CONTINUOUS
 62
     7
100
AcDbVertex
100
AcDb2dVertex
 10
8.6896501122
 20
5.6881834384
 30
0.0
  0
VERTEX
  5
2B3
330
1D4
100
AcDbEntity
  8
0
  6
CONTINUOUS
 62
     7
100
AcDbVertex
100
AcDb2dVertex
 10
8.664033081
 20
5.6894565405
 30
0.0
  0
VERTEX
  5
2B4
330
1D4
100
AcDbEntity
  8
0
  6
CONTINUOUS
 62
     7
100
AcDbVertex
100
AcDb2dVertex
 10
8.6391790933
 20
5.692696308
 30
0.0
  0
VERTEX
  5
2B5
330
1D4
100
AcDbEntity
  8
0
  6
CONTINUOUS
 62
     7
100
AcDbVertex
100
AcDb2dVertex
 10
8.6151562722
 20
5.6978938609
 30
0.0
  0
VERTEX
  5
2B6
330
1D4
100
AcDbEntity
  8
0
  6
CONTINUOUS
 62
     7
100
AcDbVertex
100
AcDb2dVertex
 10
8.5920304626
 20
5.705034953
 30
0.0
  0
VERTEX
  5
2B7
330
1D4
100
AcDbEntity
  8
0
  6
CONTINUOUS
 62
     7
100
AcDbVertex
100
AcDb2dVertex
 10
8.5698650506
 20
5.7141000111
 30
0.0
  0
VERTEX
  5
2B8
330
1D4
100
AcDbEntity
  8
0
  6
CONTINUOUS
 62
     7
100
AcDbVertex
100
AcDb2dVertex
 10
8.5487207902
 20
5.7250641886
 30
0.0
  0
VERTEX
  5
2B9
330
1D4
100
AcDbEntity
  8
0
  6
CONTINUOUS
 62
     7
100
AcDbVertex
100
AcDb2dVertex
 10
8.5286556362
 20
5.7378974333
 30
0.0
  0
VERTEX
  5
2BA
330
1D4
100
AcDbEntity
  8
0
  6
CONTINUOUS
 62
     7
100
AcDbVertex
100
AcDb2dVertex
 10
8.509724586
 20
5.7525645702
 30
0.0
  0
VERTEX
  5
2BB
330
1D4
100
AcDbEntity
  8
0
  6
CONTINUOUS
 62
     7
100
AcDbVertex
100
AcDb2dVertex
 10
8.4919795281
 20
5.7690253978
 30
0.0
  0
VERTEX
  5
2BC
330
1D4
100
AcDbEntity
  8
0
  6
CONTINUOUS
 62
     7
100
AcDbVertex
100
AcDb2dVertex
 10
8.4754691006
 20
5.787234798
 30
0.0
  0
VERTEX
  5
2BD
330
1D4
100
AcDbEntity
  8
0
  6
CONTINUOUS
 62
     7
100
AcDbVertex
100
AcDb2dVertex
 10
8.4602385573
 20
5.8071428602
 30
0.0
  0
VERTEX
  5
2BE
330
1D4
100
AcDbEntity
  8
0
  6
CONTINUOUS
 62
     7
100
AcDbVertex
100
AcDb2dVertex
 10
8.4463296442
 20
5.8286950177
 30
0.0
  0
VERTEX
  5
2BF
330
1D4
100
AcDbEntity
  8
0
  6
CONTINUOUS
 62
     7
100
AcDbVertex
100
AcDb2dVertex
 10
8.4337804846
 20
5.8518321976
 30
0.0
  0
VERTEX
  5
2C0
330
1D4
100
AcDbEntity
  8
0
  6
CONTINUOUS
 62
     7
100
AcDbVertex
100
AcDb2dVertex
 10
8.4226254749
 20
5.8764909824
 30
0.0
  0
VERTEX
  5
2C1
330
1D4
100
AcDbEntity
  8
0
  6
CONTINUOUS
 62
     7
100
AcDbVertex
100
AcDb2dVertex
 10
8.4128951902
 20
5.9026037842
 30
0.0
  0
VERTEX
  5
2C2
330
1D4
100
AcDbEntity
  8
0
  6
CONTINUOUS
 62
     7
100
AcDbVertex
100
AcDb2dVertex
 10
8.4046163005
 20
5.9300990295
 30
0.0
  0
VERTEX
  5
2C3
330
1D4
100
AcDbEntity
  8
0
  6
CONTINUOUS
 62
     7
100
AcDbVertex
100
AcDb2dVertex
 10
8.3978114977
 20
5.9589013559
 30
0.0
  0
VERTEX
  5
2C4
330
1D4
100
AcDbEntity
  8
0
  6
CONTINUOUS
 62
     7
100
AcDbVertex
100
AcDb2dVertex
 10
8.3924994332
 20
5.9889318181
 30
0.0
  0
VERTEX
  5
2C5
330
1D4
100
AcDbEntity
  8
0
  6
CONTINUOUS
 62
     7
100
AcDbVertex
100
AcDb2dVertex
 10
8.3886946671
 20
6.0201081048
 30
0.0
  0
VERTEX
  5
2C6
330
1D4
100
AcDbEntity
  8
0
  6
CONTINUOUS
 62
     7
100
AcDbVertex
100
AcDb2dVertex
 10
8.386407628
 20
6.0523447638
 30
0.0
  0
VERTEX
  5
2C7
330
1D4
100
AcDbEntity
  8
0
  6
CONTINUOUS
 62
     7
100
AcDbVertex
100
AcDb2dVertex
 10
8.3856445845
 20
6.0855534369
 30
0.0
  0
VERTEX
  5
2C8
330
1D4
100
AcDbEntity
  8
0
  6
CONTINUOUS
 62
     7
100
AcDbVertex
100
AcDb2dVertex
 10
8.386407628
 20
6.1196431012
 30
0.0
  0
VERTEX
  5
2C9
330
1D4
100
AcDbEntity
  8
0
  6
CONTINUOUS
 62
     7
100
AcDbVertex
100
AcDb2dVertex
 10
8.3886946671
 20
6.1545203194
 30
0.0
  0
VERTEX
  5
2CA
330
1D4
100
AcDbEntity
  8
0
  6
CONTINUOUS
 62
     7
100
AcDbVertex
100
AcDb2dVertex
 10
8.3924994332
 20
6.1900894954
 30
0.0
  0
VERTEX
  5
2CB
330
1D4
100
AcDbEntity
  8
0
  6
CONTINUOUS
 62
     7
100
AcDbVertex
100
AcDb2dVertex
 10
8.3978114977
 20
6.2262531367
 30
0.0
  0
VERTEX
  5
2CC
330
1D4
100
AcDbEntity
  8
0
  6
CONTINUOUS
 62
     7
100
AcDbVertex
100
AcDb2dVertex
 10
8.4046163005
 20
6.2629121212
 30
0.0
  0
VERTEX
  5
2CD
330
1D4
100
AcDbEntity
  8
0
  6
CONTINUOUS
 62
     7
100
AcDbVertex
100
AcDb2dVertex
 10
8.4128951902
 20
6.2999659692
 30
0.0
  0
VERTEX
  5
2CE
330
1D4
100
AcDbEntity
  8
0
  6
CONTINUOUS
 62
     7
100
AcDbVertex
100
AcDb2dVertex
 10
8.4226254749
 20
6.3373131186
 30
0.0
  0
VERTEX
  5
2CF
330
1D4
100
AcDbEntity
  8
0
  6
CONTINUOUS
 62
     7
100
AcDbVertex
100
AcDb2dVertex
 10
8.4337804846
 20
6.3748512035
 30
0.0
  0
VERTEX
  5
2D0
330
1D4
100
AcDbEntity
  8
0
  6
CONTINUOUS
 62
     7
100
AcDbVertex
100
AcDb2dVertex
 10
8.4463296442
 20
6.4124773346
 30
0.0
  0
VERTEX
  5
2D1
330
1D4
100
AcDbEntity
  8
0
  6
CONTINUOUS
 62
     7
100
AcDbVertex
100
AcDb2dVertex
 10
8.4602385573
 20
6.4500883814
 30
0.0
  0
VERTEX
  5
2D2
330
1D4
100
AcDbEntity
  8
0
  6
CONTINUOUS
 62
     7
100
AcDbVertex
100
AcDb2dVertex
 10
8.4754691006
 20
6.4875812544
 30
0.0
  0
VERTEX
  5
2D3
330
1D4
100
AcDbEntity
  8
0
  6
CONTINUOUS
 62
     7
100
AcDbVertex
100
AcDb2dVertex
 10
8.4919795281
 20
6.5248531885
 30
0.0
  0
VERTEX
  5
2D4
330
1D4
100
AcDbEntity
  8
0
  6
CONTINUOUS
 62
     7
100
AcDbVertex
100
AcDb2dVertex
 10
8.509724586
 20
6.5618020238
 30
0.0
  0
VERTEX
  5
2D5
330
1D4
100
AcDbEntity
  8
0
  6
CONTINUOUS
 62
     7
100
AcDbVertex
100
AcDb2dVertex
 10
8.5286556362
 20
6.5983264861
 30
0.0
  0
VERTEX
  5
2D6
330
1D4
100
AcDbEntity
  8
0
  6
CONTINUOUS
 62
     7
100
AcDbVertex
100
AcDb2dVertex
 10
8.5487207902
 20
6.6343264645
 30
0.0
  0
VERTEX
  5
2D7
330
1D4
100
AcDbEntity
  8
0
  6
CONTINUOUS
 62
     7
100
AcDbVertex
100
AcDb2dVertex
 10
8.5698650506
 20
6.6697032854
 30
0.0
  0
VERTEX
  5
2D8
330
1D4
100
AcDbEntity
  8
0
  6
CONTINUOUS
 62
     7
100
AcDbVertex
100
AcDb2dVertex
 10
8.5920304626
 20
6.7043599834
 30
0.0
  0
VERTEX
  5
2D9
330
1D4
100
AcDbEntity
  8
0
  6
CONTINUOUS
 62
     7
100
AcDbVertex
100
AcDb2dVertex
 10
8.6151562722
 20
6.738201567
 30
0.0
  0
VERTEX
  5
2DA
330
1D4
100
AcDbEntity
  8
0
  6
CONTINUOUS
 62
     7
100
AcDbVertex
100
AcDb2dVertex
 10
8.6391790933
 20
6.7711352788
 30
0.0
  0
VERTEX
  5
2DB
330
1D4
100
AcDbEntity
  8
0
  6
CONTINUOUS
 62
     7
100
AcDbVertex
100
AcDb2dVertex
 10
8.664033081
 20
6.8030708497
 30
0.0
  0
VERTEX
  5
2DC
330
1D4
100
AcDbEntity
  8
0
  6
CONTINUOUS
 62
     7
100
AcDbVertex
100
AcDb2dVertex
 10
8.6896501122
 20
6.8339207465
 30
0.0
  0
VERTEX
  5
2DD
330
1D4
100
AcDbEntity
  8
0
  6
CONTINUOUS
 62
     7
100
AcDbVertex
100
AcDb2dVertex
 10
8.7159599725
 20
6.8636004118
 30
0.0
  0
VERTEX
  5
2DE
330
1D4
100
AcDbEntity
  8
0
  6
CONTINUOUS
 62
     7
100
AcDbVertex
100
AcDb2dVertex
 10
8.7428905482
 20
6.8920284958
 30
0.0
  0
VERTEX
  5
2DF
330
1D4
100
AcDbEntity
  8
0
  6
CONTINUOUS
 62
     7
100
AcDbVertex
100
AcDb2dVertex
 10
8.7703680246
 20
6.9191270789
 30
0.0
  0
VERTEX
  5
2E0
330
1D4
100
AcDbEntity
  8
0
  6
CONTINUOUS
 62
     7
100
AcDbVertex
100
AcDb2dVertex
 10
8.7983170879
 20
6.944821886
 30
0.0
  0
VERTEX
  5
2E1
330
1D4
100
AcDbEntity
  8
0
  6
CONTINUOUS
 62
     7
100
AcDbVertex
100
AcDb2dVertex
 10
8.8266611315
 20
6.9690424892
 30
0.0
  0
VERTEX
  5
2E2
330
1D4
100
AcDbEntity
  8
0
  6
CONTINUOUS
 62
     7
100
AcDbVertex
100
AcDb2dVertex
 10
8.8553224665
 20
6.9917225017
 30
0.0
  0
VERTEX
  5
2E3
330
1D4
100
AcDbEntity
  8
0
  6
CONTINUOUS
 62
     7
100
AcDbVertex
100
AcDb2dVertex
 10
8.8842225341
 20
7.012799759
 30
0.0
  0
VERTEX
  5
2E4
330
1D4
100
AcDbEntity
  8
0
  6
CONTINUOUS
 62
     7
100
AcDbVertex
100
AcDb2dVertex
 10
8.9132821212
 20
7.0322164899
 30
0.0
  0
VERTEX
  5
2E5
330
1D4
100
AcDbEntity
  8
0
  6
CONTINUOUS
 62
     7
100
AcDbVertex
100
AcDb2dVertex
 10
8.9424215776
 20
7.0499194745
 30
0.0
  0
VERTEX
  5
2E6
330
1D4
100
AcDbEntity
  8
0
  6
CONTINUOUS
 62
     7
100
AcDbVertex
100
AcDb2dVertex
 10
8.9715610339
 20
7.0658601901
 30
0.0
  0
VERTEX
  5
2E7
330
1D4
100
AcDbEntity
  8
0
  6
CONTINUOUS
 62
     7
100
AcDbVertex
100
AcDb2dVertex
 10
9.000620621
 20
7.0799949443
 30
0.0
  0
VERTEX
  5
2E8
330
1D4
100
AcDbEntity
  8
0
  6
CONTINUOUS
 62
     7
100
AcDbVertex
100
AcDb2dVertex
 10
9.0295206886
 20
7.0922849948
 30
0.0
  0
VERTEX
  5
2E9
330
1D4
100
AcDbEntity
  8
0
  6
CONTINUOUS
 62
     7
100
AcDbVertex
100
AcDb2dVertex
 10
9.0581820236
 20
7.1026966553
 30
0.0
  0
VERTEX
  5
2EA
330
1D4
100
AcDbEntity
  8
0
  6
CONTINUOUS
 62
     7
100
AcDbVertex
100
AcDb2dVertex
 10
9.0865260672
 20
7.1112013883
 30
0.0
  0
VERTEX
  5
2EB
330
1D4
100
AcDbEntity
  8
0
  6
CONTINUOUS
 62
     7
100
AcDbVertex
100
AcDb2dVertex
 10
9.1144751305
 20
7.1177758828
 30
0.0
  0
VERTEX
  5
2EC
330
1D4
100
AcDbEntity
  8
0
  6
CONTINUOUS
 62
     7
100
AcDbVertex
100
AcDb2dVertex
 10
9.1419526069
 20
7.1224021186
 30
0.0
  0
VERTEX
  5
2ED
330
1D4
100
AcDbEntity
  8
0
  6
CONTINUOUS
 62
     7
100
AcDbVertex
100
AcDb2dVertex
 10
9.1688831827
 20
7.1250674156
 30
0.0
  0
VERTEX
  5
2EE
330
1D4
100
AcDbEntity
  8
0
  6
CONTINUOUS
 62
     7
100
AcDbVertex
100
AcDb2dVertex
 10
9.1951930429
 20
7.1257644683
 30
0.0
  0
VERTEX
  5
2EF
330
1D4
100
AcDbEntity
  8
0
  6
CONTINUOUS
 62
     7
100
AcDbVertex
100
AcDb2dVertex
 10
9.2208100741
 20
7.1244913661
 30
0.0
  0
VERTEX
  5
2F0
330
1D4
100
AcDbEntity
  8
0
  6
CONTINUOUS
 62
     7
100
AcDbVertex
100
AcDb2dVertex
 10
9.2456640618
 20
7.1212515986
 30
0.0
  0
VERTEX
  5
2F1
330
1D4
100
AcDbEntity
  8
0
  6
CONTINUOUS
 62
     7
100
AcDbVertex
100
AcDb2dVertex
 10
9.2696868829
 20
7.1160540458
 30
0.0
  0
VERTEX
  5
2F2
330
1D4
100
AcDbEntity
  8
0
  6
CONTINUOUS
 62
     7
100
AcDbVertex
100
AcDb2dVertex
 10
9.2928126926
 20
7.1089129536
 30
0.0
  0
VERTEX
  5
2F3
330
1D4
100
AcDbEntity
  8
0
  6
CONTINUOUS
 62
     7
100
AcDbVertex
100
AcDb2dVertex
 10
9.3149781045
 20
7.0998478955
 30
0.0
  0
VERTEX
  5
2F4
330
1D4
100
AcDbEntity
  8
0
  6
CONTINUOUS
 62
     7
100
AcDbVertex
100
AcDb2dVertex
 10
9.336122365
 20
7.0888837181
 30
0.0
  0
VERTEX
  5
2F5
330
1D4
100
AcDbEntity
  8
0
  6
CONTINUOUS
 62
     7
100
AcDbVertex
100
AcDb2dVertex
 10
9.3561875189
 20
7.0760504734
 30
0.0
  0
VERTEX
  5
2F6
330
1D4
100
AcDbEntity
  8
0
  6
CONTINUOUS
 62
     7
100
AcDbVertex
100
AcDb2dVertex
 10
9.3751185692
 20
7.0613833364
 30
0.0
  0
VERTEX
  5
2F7
330
1D4
100
AcDbEntity
  8
0
  6
CONTINUOUS
 62
     7
100
AcDbVertex
100
AcDb2dVertex
 10
9.392863627
 20
7.0449225089
 30
0.0
  0
VERTEX
  5
2F8
330
1D4
100
AcDbEntity
  8
0
  6
CONTINUOUS
 62
     7
100
AcDbVertex
100
AcDb2dVertex
 10
9.4093740546
 20
7.0267131086
 30
0.0
  0
VERTEX
  5
2F9
330
1D4
100
AcDbEntity
  8
0
  6
CONTINUOUS
 62
     7
100
AcDbVertex
100
AcDb2dVertex
 10
9.4246045978
 20
7.0068050465
 30
0.0
  0
VERTEX
  5
2FA
330
1D4
100
AcDbEntity
  8
0
  6
CONTINUOUS
 62
     7
100
AcDbVertex
100
AcDb2dVertex
 10
9.4385135109
 20
6.985252889
 30
0.0
  0
VERTEX
  5
2FB
330
1D4
100
AcDbEntity
  8
0
  6
CONTINUOUS
 62
     7
100
AcDbVertex
100
AcDb2dVertex
 10
9.4510626705
 20
6.9621157091
 30
0.0
  0
VERTEX
  5
2FC
330
1D4
100
AcDbEntity
  8
0
  6
CONTINUOUS
 62
     7
100
AcDbVertex
100
AcDb2dVertex
 10
9.4622176802
 20
6.9374569243
 30
0.0
  0
VERTEX
  5
2FD
330
1D4
100
AcDbEntity
  8
0
  6
CONTINUOUS
 62
     7
100
AcDbVertex
100
AcDb2dVertex
 10
9.4719479649
 20
6.9113441225
 30
0.0
  0
VERTEX
  5
2FE
330
1D4
100
AcDbEntity
  8
0
  6
CONTINUOUS
 62
     7
100
AcDbVertex
100
AcDb2dVertex
 10
9.4802268546
 20
6.8838488771
 30
0.0
  0
VERTEX
  5
2FF
330
1D4
100
AcDbEntity
  8
0
  6
CONTINUOUS
 62
     7
100
AcDbVertex
100
AcDb2dVertex
 10
9.4870316575
 20
6.8550465507
 30
0.0
  0
VERTEX
  5
300
330
1D4
100
AcDbEntity
  8
0
  6
CONTINUOUS
 62
     7
100
AcDbVertex
100
AcDb2dVertex
 10
9.4923437219
 20
6.8250160885
 30
0.0
  0
VERTEX
  5
301
330
1D4
100
AcDbEntity
  8
0
  6
CONTINUOUS
 62
     7
100
AcDbVertex
100
AcDb2dVertex
 10
9.496148488
 20
6.7938398019
 30
0.0
  0
VERTEX
  5
302
330
1D4
100
AcDbEntity
  8
0
  6
CONTINUOUS
 62
     7
100
AcDbVertex
100
AcDb2dVertex
 10
9.4984355271
 20
6.7616031428
 30
0.0
  0
VERTEX
  5
303
330
1D4
100
AcDbEntity
  8
0
  6
CONTINUOUS
 62
     7
100
AcDbVertex
100
AcDb2dVertex
 10
9.4991985706
 20
6.7283944698
 30
0.0
  0
VERTEX
  5
304
330
1D4
100
AcDbEntity
  8
0
  6
CONTINUOUS
 62
     7
100
AcDbVertex
100
AcDb2dVertex
 10
9.4991985706
 20
6.7283944698
 30
0.0
  0
SEQEND
  5
305
330
1D4
100
AcDbEntity
  8
0
  6
CONTINUOUS
 62
     7
  0
POLYLINE
  5
1D5
330
1F
100
AcDbEntity
  8
0
  6
CONTINUOUS
 62
     7
100
AcDb2dPolyline
 66
     1
 10
0.0
 20
0.0
 30
0.0
  0
VERTEX
  5
306
330
1D5
100
AcDbEntity
  8
0
  6
CONTINUOUS
 62
     7
100
AcDbVertex
100
AcDb2dVertex
 10
7.7983279928
 20
7.9766335158
 30
0.0
  0
VERTEX
  5
307
330
1D5
100
AcDbEntity
  8
0
  6
CONTINUOUS
 62
     7
100
AcDbVertex
100
AcDb2dVertex
 10
7.7772157274
 20
7.9875792199
 30
0.0
  0
VERTEX
  5
308
330
1D5
100
AcDbEntity
  8
0
  6
CONTINUOUS
 62
     7
100
AcDbVertex
100
AcDb2dVertex
 10
7.7550503154
 20
7.9966442781
 30
0.0
  0
VERTEX
  5
309
330
1D5
100
AcDbEntity
  8
0
  6
CONTINUOUS
 62
     7
100
AcDbVertex
100
AcDb2dVertex
 10
7.7319245058
 20
8.0037853702
 30
0.0
  0
VERTEX
  5
30A
330
1D5
100
AcDbEntity
  8
0
  6
CONTINUOUS
 62
     7
100
AcDbVertex
100
AcDb2dVertex
 10
7.7079016847
 20
8.0089829231
 30
0.0
  0
VERTEX
  5
30B
330
1D5
100
AcDbEntity
  8
0
  6
CONTINUOUS
 62
     7
100
AcDbVertex
100
AcDb2dVertex
 10
7.683047697
 20
8.0122226906
 30
0.0
  0
VERTEX
  5
30C
330
1D5
100
AcDbEntity
  8
0
  6
CONTINUOUS
 62
     7
100
AcDbVertex
100
AcDb2dVertex
 10
7.6574306658
 20
8.0134957927
 30
0.0
  0
VERTEX
  5
30D
330
1D5
100
AcDbEntity
  8
0
  6
CONTINUOUS
 62
     7
100
AcDbVertex
100
AcDb2dVertex
 10
7.6311208055
 20
8.01279874
 30
0.0
  0
VERTEX
  5
30E
330
1D5
100
AcDbEntity
  8
0
  6
CONTINUOUS
 62
     7
100
AcDbVertex
100
AcDb2dVertex
 10
7.6041902298
 20
8.010133443
 30
0.0
  0
VERTEX
  5
30F
330
1D5
100
AcDbEntity
  8
0
  6
CONTINUOUS
 62
     7
100
AcDbVertex
100
AcDb2dVertex
 10
7.5767127534
 20
8.0055072072
 30
0.0
  0
VERTEX
  5
310
330
1D5
100
AcDbEntity
  8
0
  6
CONTINUOUS
 62
     7
100
AcDbVertex
100
AcDb2dVertex
 10
7.5487636901
 20
7.9989327127
 30
0.0
  0
VERTEX
  5
311
330
1D5
100
AcDbEntity
  8
0
  6
CONTINUOUS
 62
     7
100
AcDbVertex
100
AcDb2dVertex
 10
7.5204196465
 20
7.9904279797
 30
0.0
  0
VERTEX
  5
312
330
1D5
100
AcDbEntity
  8
0
  6
CONTINUOUS
 62
     7
100
AcDbVertex
100
AcDb2dVertex
 10
7.4917583115
 20
7.9800163192
 30
0.0
  0
VERTEX
  5
313
330
1D5
100
AcDbEntity
  8
0
  6
CONTINUOUS
 62
     7
100
AcDbVertex
100
AcDb2dVertex
 10
7.4628582439
 20
7.9677262687
 30
0.0
  0
VERTEX
  5
314
330
1D5
100
AcDbEntity
  8
0
  6
CONTINUOUS
 62
     7
100
AcDbVertex
100
AcDb2dVertex
 10
7.4337986568
 20
7.9535915145
 30
0.0
  0
VERTEX
  5
315
330
1D5
100
AcDbEntity
  8
0
  6
CONTINUOUS
 62
     7
100
AcDbVertex
100
AcDb2dVertex
 10
7.4046592004
 20
7.9376507989
 30
0.0
  0
VERTEX
  5
316
330
1D5
100
AcDbEntity
  8
0
  6
CONTINUOUS
 62
     7
100
AcDbVertex
100
AcDb2dVertex
 10
7.3755197441
 20
7.9199478143
 30
0.0
  0
VERTEX
  5
317
330
1D5
100
AcDbEntity
  8
0
  6
CONTINUOUS
 62
     7
100
AcDbVertex
100
AcDb2dVertex
 10
7.346460157
 20
7.9005310834
 30
0.0
  0
VERTEX
  5
318
330
1D5
100
AcDbEntity
  8
0
  6
CONTINUOUS
 62
     7
100
AcDbVertex
100
AcDb2dVertex
 10
7.3175600894
 20
7.8794538261
 30
0.0
  0
VERTEX
  5
319
330
1D5
100
AcDbEntity
  8
0
  6
CONTINUOUS
 62
     7
100
AcDbVertex
100
AcDb2dVertex
 10
7.2888987544
 20
7.8567738136
 30
0.0
  0
VERTEX
  5
31A
330
1D5
100
AcDbEntity
  8
0
  6
CONTINUOUS
 62
     7
100
AcDbVertex
100
AcDb2dVertex
 10
7.2605547108
 20
7.8325532104
 30
0.0
  0
VERTEX
  5
31B
330
1D5
100
AcDbEntity
  8
0
  6
CONTINUOUS
 62
     7
100
AcDbVertex
100
AcDb2dVertex
 10
7.2326056475
 20
7.8068584034
 30
0.0
  0
VERTEX
  5
31C
330
1D5
100
AcDbEntity
  8
0
  6
CONTINUOUS
 62
     7
100
AcDbVertex
100
AcDb2dVertex
 10
7.2051281711
 20
7.7797598202
 30
0.0
  0
VERTEX
  5
31D
330
1D5
100
AcDbEntity
  8
0
  6
CONTINUOUS
 62
     7
100
AcDbVertex
100
AcDb2dVertex
 10
7.1781975953
 20
7.7513317362
 30
0.0
  0
VERTEX
  5
31E
330
1D5
100
AcDbEntity
  8
0
  6
CONTINUOUS
 62
     7
100
AcDbVertex
100
AcDb2dVertex
 10
7.1518877351
 20
7.7216520709
 30
0.0
  0
VERTEX
  5
31F
330
1D5
100
AcDbEntity
  8
0
  6
CONTINUOUS
 62
     7
100
AcDbVertex
100
AcDb2dVertex
 10
7.1262707039
 20
7.6908021741
 30
0.0
  0
VERTEX
  5
320
330
1D5
100
AcDbEntity
  8
0
  6
CONTINUOUS
 62
     7
100
AcDbVertex
100
AcDb2dVertex
 10
7.1014167162
 20
7.6588666032
 30
0.0
  0
VERTEX
  5
321
330
1D5
100
AcDbEntity
  8
0
  6
CONTINUOUS
 62
     7
100
AcDbVertex
100
AcDb2dVertex
 10
7.0773938951
 20
7.6259328915
 30
0.0
  0
VERTEX
  5
322
330
1D5
100
AcDbEntity
  8
0
  6
CONTINUOUS
 62
     7
100
AcDbVertex
100
AcDb2dVertex
 10
7.0542680854
 20
7.5920913078
 30
0.0
  0
VERTEX
  5
323
330
1D5
100
AcDbEntity
  8
0
  6
CONTINUOUS
 62
     7
100
AcDbVertex
100
AcDb2dVertex
 10
7.0321026735
 20
7.5574346098
 30
0.0
  0
VERTEX
  5
324
330
1D5
100
AcDbEntity
  8
0
  6
CONTINUOUS
 62
     7
100
AcDbVertex
100
AcDb2dVertex
 10
7.010958413
 20
7.5220577889
 30
0.0
  0
VERTEX
  5
325
330
1D5
100
AcDbEntity
  8
0
  6
CONTINUOUS
 62
     7
100
AcDbVertex
100
AcDb2dVertex
 10
6.9908932591
 20
7.4860578106
 30
0.0
  0
VERTEX
  5
326
330
1D5
100
AcDbEntity
  8
0
  6
CONTINUOUS
 62
     7
100
AcDbVertex
100
AcDb2dVertex
 10
6.9719622088
 20
7.4495333483
 30
0.0
  0
VERTEX
  5
327
330
1D5
100
AcDbEntity
  8
0
  6
CONTINUOUS
 62
     7
100
AcDbVertex
100
AcDb2dVertex
 10
6.954217151
 20
7.412584513
 30
0.0
  0
VERTEX
  5
328
330
1D5
100
AcDbEntity
  8
0
  6
CONTINUOUS
 62
     7
100
AcDbVertex
100
AcDb2dVertex
 10
6.9377067234
 20
7.3753125789
 30
0.0
  0
VERTEX
  5
329
330
1D5
100
AcDbEntity
  8
0
  6
CONTINUOUS
 62
     7
100
AcDbVertex
100
AcDb2dVertex
 10
6.9224761802
 20
7.3378197058
 30
0.0
  0
VERTEX
  5
32A
330
1D5
100
AcDbEntity
  8
0
  6
CONTINUOUS
 62
     7
100
AcDbVertex
100
AcDb2dVertex
 10
6.9085672671
 20
7.300208659
 30
0.0
  0
VERTEX
  5
32B
330
1D5
100
AcDbEntity
  8
0
  6
CONTINUOUS
 62
     7
100
AcDbVertex
100
AcDb2dVertex
 10
6.8960181075
 20
7.2625825279
 30
0.0
  0
VERTEX
  5
32C
330
1D5
100
AcDbEntity
  8
0
  6
CONTINUOUS
 62
     7
100
AcDbVertex
100
AcDb2dVertex
 10
6.8848630978
 20
7.225044443
 30
0.0
  0
VERTEX
  5
32D
330
1D5
100
AcDbEntity
  8
0
  6
CONTINUOUS
 62
     7
100
AcDbVertex
100
AcDb2dVertex
 10
6.8751328131
 20
7.1876972936
 30
0.0
  0
VERTEX
  5
32E
330
1D5
100
AcDbEntity
  8
0
  6
CONTINUOUS
 62
     7
100
AcDbVertex
100
AcDb2dVertex
 10
6.8668539234
 20
7.1506434456
 30
0.0
  0
VERTEX
  5
32F
330
1D5
100
AcDbEntity
  8
0
  6
CONTINUOUS
 62
     7
100
AcDbVertex
100
AcDb2dVertex
 10
6.8600491205
 20
7.1139844612
 30
0.0
  0
VERTEX
  5
330
330
1D5
100
AcDbEntity
  8
0
  6
CONTINUOUS
 62
     7
100
AcDbVertex
100
AcDb2dVertex
 10
6.8547370561
 20
7.0778208199
 30
0.0
  0
VERTEX
  5
331
330
1D5
100
AcDbEntity
  8
0
  6
CONTINUOUS
 62
     7
100
AcDbVertex
100
AcDb2dVertex
 10
6.85093229
 20
7.0422516438
 30
0.0
  0
VERTEX
  5
332
330
1D5
100
AcDbEntity
  8
0
  6
CONTINUOUS
 62
     7
100
AcDbVertex
100
AcDb2dVertex
 10
6.8486452509
 20
7.0073744256
 30
0.0
  0
VERTEX
  5
333
330
1D5
100
AcDbEntity
  8
0
  6
CONTINUOUS
 62
     7
100
AcDbVertex
100
AcDb2dVertex
 10
6.8478822074
 20
6.9732847613
 30
0.0
  0
VERTEX
  5
334
330
1D5
100
AcDbEntity
  8
0
  6
CONTINUOUS
 62
     7
100
AcDbVertex
100
AcDb2dVertex
 10
6.8486452509
 20
6.9400760883
 30
0.0
  0
VERTEX
  5
335
330
1D5
100
AcDbEntity
  8
0
  6
CONTINUOUS
 62
     7
100
AcDbVertex
100
AcDb2dVertex
 10
6.85093229
 20
6.9078394292
 30
0.0
  0
VERTEX
  5
336
330
1D5
100
AcDbEntity
  8
0
  6
CONTINUOUS
 62
     7
100
AcDbVertex
100
AcDb2dVertex
 10
6.8547370561
 20
6.8766631426
 30
0.0
  0
VERTEX
  5
337
330
1D5
100
AcDbEntity
  8
0
  6
CONTINUOUS
 62
     7
100
AcDbVertex
100
AcDb2dVertex
 10
6.8600491205
 20
6.8466326803
 30
0.0
  0
VERTEX
  5
338
330
1D5
100
AcDbEntity
  8
0
  6
CONTINUOUS
 62
     7
100
AcDbVertex
100
AcDb2dVertex
 10
6.8668539234
 20
6.817830354
 30
0.0
  0
VERTEX
  5
339
330
1D5
100
AcDbEntity
  8
0
  6
CONTINUOUS
 62
     7
100
AcDbVertex
100
AcDb2dVertex
 10
6.8751328131
 20
6.7903351086
 30
0.0
  0
VERTEX
  5
33A
330
1D5
100
AcDbEntity
  8
0
  6
CONTINUOUS
 62
     7
100
AcDbVertex
100
AcDb2dVertex
 10
6.8848630978
 20
6.7642223068
 30
0.0
  0
VERTEX
  5
33B
330
1D5
100
AcDbEntity
  8
0
  6
CONTINUOUS
 62
     7
100
AcDbVertex
100
AcDb2dVertex
 10
6.8960181075
 20
6.739563522
 30
0.0
  0
VERTEX
  5
33C
330
1D5
100
AcDbEntity
  8
0
  6
CONTINUOUS
 62
     7
100
AcDbVertex
100
AcDb2dVertex
 10
6.9085672671
 20
6.7164263421
 30
0.0
  0
VERTEX
  5
33D
330
1D5
100
AcDbEntity
  8
0
  6
CONTINUOUS
 62
     7
100
AcDbVertex
100
AcDb2dVertex
 10
6.9224761802
 20
6.6948741846
 30
0.0
  0
VERTEX
  5
33E
330
1D5
100
AcDbEntity
  8
0
  6
CONTINUOUS
 62
     7
100
AcDbVertex
100
AcDb2dVertex
 10
6.9377067234
 20
6.6749661224
 30
0.0
  0
VERTEX
  5
33F
330
1D5
100
AcDbEntity
  8
0
  6
CONTINUOUS
 62
     7
100
AcDbVertex
100
AcDb2dVertex
 10
6.954217151
 20
6.6567567222
 30
0.0
  0
VERTEX
  5
340
330
1D5
100
AcDbEntity
  8
0
  6
CONTINUOUS
 62
     7
100
AcDbVertex
100
AcDb2dVertex
 10
6.9719622088
 20
6.6402958946
 30
0.0
  0
VERTEX
  5
341
330
1D5
100
AcDbEntity
  8
0
  6
CONTINUOUS
 62
     7
100
AcDbVertex
100
AcDb2dVertex
 10
6.9908932591
 20
6.6256287577
 30
0.0
  0
VERTEX
  5
342
330
1D5
100
AcDbEntity
  8
0
  6
CONTINUOUS
 62
     7
100
AcDbVertex
100
AcDb2dVertex
 10
7.010958413
 20
6.612795513
 30
0.0
  0
VERTEX
  5
343
330
1D5
100
AcDbEntity
  8
0
  6
CONTINUOUS
 62
     7
100
AcDbVertex
100
AcDb2dVertex
 10
7.0109904081
 20
6.6127770397
 30
0.0
  0
SEQEND
  5
344
330
1D5
100
AcDbEntity
  8
0
  6
CONTINUOUS
 62
     7
  0
SPLINE
  5
1D6
330
1F
100
AcDbEntity
  8
0
  6
CONTINUOUS
 62
     7
100
AcDbSpline
210
0.0
220
0.0
230
1.0
 70
     8
 71
     3
 72
    39
 73
    35
 74
     0
 42
0.00000001
 43
0.00000001
 40
-0.0945052351073636
 40
-0.0629408280651443
 40
-0.0312948338013841
 40
0.0
 40
0.0313332451562613
 40
0.0629828481411386
 40
0.094562033755141
 40
0.1257155124382448
 40
0.1567366176732932
 40
0.1880278831371823
 40
0.2192139458152315
 40
0.25001931900256
 40
0.2807562929025329
 40
0.3119918235276294
 40
0.3432167425568927
 40
0.3742398735462136
 40
0.4053591303296817
 40
0.4370234815754705
 40
0.4687694757259909
 40
0.5001565527612507
 40
0.531465769408753
 40
0.5631261327781282
 40
0.5946402419090533
 40
0.6257741041694963
 40
0.6567917478971509
 40
0.688057349460308
 40
0.7192666632644765
 40
0.7500739099212581
 40
0.7808371871589959
 40
0.8121013713194136
 40
0.8433443646317269
 40
0.8743968531986243
 40
0.9054947648926364
 40
0.9370591719348557
 40
0.9687051661986159
 40
1.0
 40
1.031333245156261
 40
1.062982848141139
 40
1.094562033755141
 10
7.551409522425935
 20
7.837438476267804
 30
0.0
 10
7.563451633236753
 20
7.846050519565931
 30
0.0
 10
7.578067125835498
 20
7.85280198412041
 30
0.0
 10
7.594791806774171
 20
7.85742718916308
 30
0.0
 10
7.612816621233747
 20
7.859928322592987
 30
0.0
 10
7.631493687210591
 20
7.860145068102566
 30
0.0
 10
7.650147422253213
 20
7.858236141862039
 30
0.0
 10
7.668088113805862
 20
7.854319024006685
 30
0.0
 10
7.684680250679471
 20
7.848780753283613
 30
0.0
 10
7.699102168978187
 20
7.841791839593479
 30
0.0
 10
7.710901316152768
 20
7.833656452508926
 30
0.0
 10
7.719532222827906
 20
7.824631117139321
 30
0.0
 10
7.72493497255445
 20
7.815069949147813
 30
0.0
 10
7.726605239384628
 20
7.805254260761539
 30
0.0
 10
7.724590241177255
 20
7.795409391459876
 30
0.0
 10
7.718849846671479
 20
7.785793393003334
 30
0.0
 10
7.709904145001869
 20
7.776643486221367
 30
0.0
 10
7.697857548570198
 20
7.768378706983473
 30
0.0
 10
7.683235394669414
 20
7.761242229310967
 30
0.0
 10
7.666514484363463
 20
7.755566223075221
 30
0.0
 10
7.648495812101091
 20
7.751478222417956
 30
0.0
 10
7.629833882955334
 20
7.749395887038981
 30
0.0
 10
7.611191842733875
 20
7.749426336870601
 30
0.0
 10
7.593252430965665
 20
7.751753779805887
 30
0.0
 10
7.576658698708745
 20
7.756196669745894
 30
0.0
 10
7.562236088823296
 20
7.762816760735544
 30
0.0
 10
7.550445490453559
 20
7.77134299810044
 30
0.0
 10
7.541822175674379
 20
7.781476807129361
 30
0.0
 10
7.536428336678188
 20
7.792638804864861
 30
0.0
 10
7.534763926494824
 20
7.804340794595094
 30
0.0
 10
7.536766360568834
 20
7.816058911657704
 30
0.0
 10
7.542485368192537
 20
7.827256937907814
 30
0.0
 10
7.551409522425935
 20
7.837438476267804
 30
0.0
 10
7.563451633236753
 20
7.846050519565931
 30
0.0
 10
7.578067125835498
 20
7.85280198412041
 30
0.0
  0
SPLINE
  5
1D7
330
1F
100
AcDbEntity
  8
0
  6
CONTINUOUS
 62
     7
100
AcDbSpline
210
0.0
220
0.0
230
1.0
 70
     8
 71
     3
 72
    39
 73
    35
 74
     0
 42
0.00000001
 43
0.00000001
 40
-0.0945052351071061
 40
-0.062940828065139
 40
-0.0312948338012352
 40
0.0
 40
0.031333245155816
 40
0.0629828481411218
 40
0.0945620337544783
 40
0.1257155124382369
 40
0.1567366176728925
 40
0.1880278831371753
 40
0.219213945815051
 40
0.2500193190025605
 40
0.2807562929023531
 40
0.3119918235276226
 40
0.3432167425566006
 40
0.3742398735462094
 40
0.4053591303296475
 40
0.4370234815754734
 40
0.4687694757262241
 40
0.5001565527612565
 40
0.5314657694089079
 40
0.5631261327781282
 40
0.5946402419090531
 40
0.6257741041694963
 40
0.6567917478971509
 40
0.6880573494603078
 40
0.719266663264476
 40
0.750073909921258
 40
0.7808371871588752
 40
0.8121013713194087
 40
0.8433443646317139
 40
0.8743968531986283
 40
0.9054947648928938
 40
0.9370591719348609
 40
0.9687051661987647
 40
0.9999999999999999
 40
1.031333245155816
 40
1.062982848141122
 40
1.094562033754478
 10
8.637124658893512
 20
7.21066846915982
 30
0.0
 10
8.649166769704232
 20
7.219280512457927
 30
0.0
 10
8.663782262303005
 20
7.226031977012354
 30
0.0
 10
8.680506943241499
 20
7.230657182055055
 30
0.0
 10
8.69853175770114
 20
7.233158315485012
 30
0.0
 10
8.717208823677916
 20
7.233375060994584
 30
0.0
 10
8.735862558720667
 20
7.231466134754072
 30
0.0
 10
8.753803250273286
 20
7.227549016898724
 30
0.0
 10
8.77039538714699
 20
7.222010746175653
 30
0.0
 10
8.784817305445669
 20
7.215021832485521
 30
0.0
 10
8.79661645262025
 20
7.206886445400948
 30
0.0
 10
8.805247359295405
 20
7.197861110031381
 30
0.0
 10
8.810650109021985
 20
7.188299942039857
 30
0.0
 10
8.812320375852153
 20
7.178484253653587
 30
0.0
 10
8.810305377644827
 20
7.168639384351888
 30
0.0
 10
8.804564983138988
 20
7.15902338589533
 30
0.0
 10
8.795619281469389
 20
7.149873479113356
 30
0.0
 10
8.783572685037678
 20
7.141608699875455
 30
0.0
 10
8.768950531136904
 20
7.134472222202985
 30
0.0
 10
8.752229620830969
 20
7.128796215967224
 30
0.0
 10
8.734210948568622
 20
7.124708215309971
 30
0.0
 10
8.715549019422868
 20
7.122625879930994
 30
0.0
 10
8.696906979201406
 20
7.122656329762616
 30
0.0
 10
8.678967567433197
 20
7.124983772697901
 30
0.0
 10
8.662373835176279
 20
7.129426662637909
 30
0.0
 10
8.647951225290843
 20
7.136046753627546
 30
0.0
 10
8.636160626921123
 20
7.144572990992452
 30
0.0
 10
8.627537312141925
 20
7.154706800021359
 30
0.0
 10
8.622143473145677
 20
7.165868797756866
 30
0.0
 10
8.620479062962364
 20
7.177570787487139
 30
0.0
 10
8.622481497036366
 20
7.18928890454975
 30
0.0
 10
8.628200504660096
 20
7.200486930799875
 30
0.0
 10
8.637124658893512
 20
7.21066846915982
 30
0.0
 10
8.649166769704232
 20
7.219280512457927
 30
0.0
 10
8.663782262303005
 20
7.226031977012354
 30
0.0
  0
POLYLINE
  5
1D8
330
1F
100
AcDbEntity
  8
0
  6
CONTINUOUS
 62
     7
100
AcDb2dPolyline
 66
     1
 10
0.0
 20
0.0
 30
0.0
  0
VERTEX
  5
345
330
1D8
100
AcDbEntity
  8
0
  6
CONTINUOUS
 62
     7
100
AcDbVertex
100
AcDb2dVertex
 10
9.1028290293
 20
6.4873290824
 30
0.0
  0
VERTEX
  5
346
330
1D8
100
AcDbEntity
  8
0
  6
CONTINUOUS
 62
     7
100
AcDbVertex
100
AcDb2dVertex
 10
9.1020604496
 20
6.46938484
 30
0.0
  0
VERTEX
  5
347
330
1D8
100
AcDbEntity
  8
0
  6
CONTINUOUS
 62
     7
100
AcDbVertex
100
AcDb2dVertex
 10
9.0997625971
 20
6.4507373465
 30
0.0
  0
VERTEX
  5
348
330
1D8
100
AcDbEntity
  8
0
  6
CONTINUOUS
 62
     7
100
AcDbVertex
100
AcDb2dVertex
 10
9.0959590509
 20
6.4315779505
 30
0.0
  0
VERTEX
  5
349
330
1D8
100
AcDbEntity
  8
0
  6
CONTINUOUS
 62
     7
100
AcDbVertex
100
AcDb2dVertex
 10
9.0906888406
 20
6.4121032532
 30
0.0
  0
VERTEX
  5
34A
330
1D8
100
AcDbEntity
  8
0
  6
CONTINUOUS
 62
     7
100
AcDbVertex
100
AcDb2dVertex
 10
9.0840060456
 20
6.3925130916
 30
0.0
  0
VERTEX
  5
34B
330
1D8
100
AcDbEntity
  8
0
  6
CONTINUOUS
 62
     7
100
AcDbVertex
100
AcDb2dVertex
 10
9.0759792404
 20
6.373008487
 30
0.0
  0
VERTEX
  5
34C
330
1D8
100
AcDbEntity
  8
0
  6
CONTINUOUS
 62
     7
100
AcDbVertex
100
AcDb2dVertex
 10
9.066690791
 20
6.3537895832
 30
0.0
  0
VERTEX
  5
34D
330
1D8
100
AcDbEntity
  8
0
  6
CONTINUOUS
 62
     7
100
AcDbVertex
100
AcDb2dVertex
 10
9.0562360094
 20
6.3350535921
 30
0.0
  0
VERTEX
  5
34E
330
1D8
100
AcDbEntity
  8
0
  6
CONTINUOUS
 62
     7
100
AcDbVertex
100
AcDb2dVertex
 10
9.0447221757
 20
6.3169927704
 30
0.0
  0
VERTEX
  5
34F
330
1D8
100
AcDbEntity
  8
0
  6
CONTINUOUS
 62
     7
100
AcDbVertex
100
AcDb2dVertex
 10
9.0322674376
 20
6.2997924465
 30
0.0
  0
VERTEX
  5
350
330
1D8
100
AcDbEntity
  8
0
  6
CONTINUOUS
 62
     7
100
AcDbVertex
100
AcDb2dVertex
 10
9.0189995975
 20
6.283629119
 30
0.0
  0
VERTEX
  5
351
330
1D8
100
AcDbEntity
  8
0
  6
CONTINUOUS
 62
     7
100
AcDbVertex
100
AcDb2dVertex
 10
9.0050548014
 20
6.2686686455
 30
0.0
  0
VERTEX
  5
352
330
1D8
100
AcDbEntity
  8
0
  6
CONTINUOUS
 62
     7
100
AcDbVertex
100
AcDb2dVertex
 10
8.9905761417
 20
6.2550645407
 30
0.0
  0
VERTEX
  5
353
330
1D8
100
AcDbEntity
  8
0
  6
CONTINUOUS
 62
     7
100
AcDbVertex
100
AcDb2dVertex
 10
8.9757121891
 20
6.2429564012
 30
0.0
  0
VERTEX
  5
354
330
1D8
100
AcDbEntity
  8
0
  6
CONTINUOUS
 62
     7
100
AcDbVertex
100
AcDb2dVertex
 10
8.9606154678
 20
6.2324684728
 30
0.0
  0
VERTEX
  5
355
330
1D8
100
AcDbEntity
  8
0
  6
CONTINUOUS
 62
     7
100
AcDbVertex
100
AcDb2dVertex
 10
8.9454408907
 20
6.2237083759
 30
0.0
  0
VERTEX
  5
356
330
1D8
100
AcDbEntity
  8
0
  6
CONTINUOUS
 62
     7
100
AcDbVertex
100
AcDb2dVertex
 10
8.9303441695
 20
6.216766001
 30
0.0
  0
VERTEX
  5
357
330
1D8
100
AcDbEntity
  8
0
  6
CONTINUOUS
 62
     7
100
AcDbVertex
100
AcDb2dVertex
 10
8.9154802169
 20
6.2117125861
 30
0.0
  0
VERTEX
  5
358
330
1D8
100
AcDbEntity
  8
0
  6
CONTINUOUS
 62
     7
100
AcDbVertex
100
AcDb2dVertex
 10
8.9010015572
 20
6.2085999862
 30
0.0
  0
VERTEX
  5
359
330
1D8
100
AcDbEntity
  8
0
  6
CONTINUOUS
 62
     7
100
AcDbVertex
100
AcDb2dVertex
 10
8.8870567611
 20
6.2074601408
 30
0.0
  0
VERTEX
  5
35A
330
1D8
100
AcDbEntity
  8
0
  6
CONTINUOUS
 62
     7
100
AcDbVertex
100
AcDb2dVertex
 10
8.8737889209
 20
6.2083047461
 30
0.0
  0
VERTEX
  5
35B
330
1D8
100
AcDbEntity
  8
0
  6
CONTINUOUS
 62
     7
100
AcDbVertex
100
AcDb2dVertex
 10
8.8613341828
 20
6.2111251355
 30
0.0
  0
VERTEX
  5
35C
330
1D8
100
AcDbEntity
  8
0
  6
CONTINUOUS
 62
     7
100
AcDbVertex
100
AcDb2dVertex
 10
8.8498203492
 20
6.2158923679
 30
0.0
  0
VERTEX
  5
35D
330
1D8
100
AcDbEntity
  8
0
  6
CONTINUOUS
 62
     7
100
AcDbVertex
100
AcDb2dVertex
 10
8.8393655676
 20
6.2225575251
 30
0.0
  0
VERTEX
  5
35E
330
1D8
100
AcDbEntity
  8
0
  6
CONTINUOUS
 62
     7
100
AcDbVertex
100
AcDb2dVertex
 10
8.8300771182
 20
6.2310522135
 30
0.0
  0
VERTEX
  5
35F
330
1D8
100
AcDbEntity
  8
0
  6
CONTINUOUS
 62
     7
100
AcDbVertex
100
AcDb2dVertex
 10
8.822050313
 20
6.241289266
 30
0.0
  0
VERTEX
  5
360
330
1D8
100
AcDbEntity
  8
0
  6
CONTINUOUS
 62
     7
100
AcDbVertex
100
AcDb2dVertex
 10
8.815367518
 20
6.2531636368
 30
0.0
  0
VERTEX
  5
361
330
1D8
100
AcDbEntity
  8
0
  6
CONTINUOUS
 62
     7
100
AcDbVertex
100
AcDb2dVertex
 10
8.8100973077
 20
6.2665534787
 30
0.0
  0
VERTEX
  5
362
330
1D8
100
AcDbEntity
  8
0
  6
CONTINUOUS
 62
     7
100
AcDbVertex
100
AcDb2dVertex
 10
8.8062937615
 20
6.2813213938
 30
0.0
  0
VERTEX
  5
363
330
1D8
100
AcDbEntity
  8
0
  6
CONTINUOUS
 62
     7
100
AcDbVertex
100
AcDb2dVertex
 10
8.803995909
 20
6.2973158433
 30
0.0
  0
VERTEX
  5
364
330
1D8
100
AcDbEntity
  8
0
  6
CONTINUOUS
 62
     7
100
AcDbVertex
100
AcDb2dVertex
 10
8.8032273293
 20
6.3143727025
 30
0.0
  0
VERTEX
  5
365
330
1D8
100
AcDbEntity
  8
0
  6
CONTINUOUS
 62
     7
100
AcDbVertex
100
AcDb2dVertex
 10
8.803995909
 20
6.332316945
 30
0.0
  0
VERTEX
  5
366
330
1D8
100
AcDbEntity
  8
0
  6
CONTINUOUS
 62
     7
100
AcDbVertex
100
AcDb2dVertex
 10
8.8062937615
 20
6.3509644385
 30
0.0
  0
VERTEX
  5
367
330
1D8
100
AcDbEntity
  8
0
  6
CONTINUOUS
 62
     7
100
AcDbVertex
100
AcDb2dVertex
 10
8.8100973077
 20
6.3701238345
 30
0.0
  0
VERTEX
  5
368
330
1D8
100
AcDbEntity
  8
0
  6
CONTINUOUS
 62
     7
100
AcDbVertex
100
AcDb2dVertex
 10
8.815367518
 20
6.3895985317
 30
0.0
  0
VERTEX
  5
369
330
1D8
100
AcDbEntity
  8
0
  6
CONTINUOUS
 62
     7
100
AcDbVertex
100
AcDb2dVertex
 10
8.822050313
 20
6.4091886934
 30
0.0
  0
VERTEX
  5
36A
330
1D8
100
AcDbEntity
  8
0
  6
CONTINUOUS
 62
     7
100
AcDbVertex
100
AcDb2dVertex
 10
8.8300771182
 20
6.428693298
 30
0.0
  0
VERTEX
  5
36B
330
1D8
100
AcDbEntity
  8
0
  6
CONTINUOUS
 62
     7
100
AcDbVertex
100
AcDb2dVertex
 10
8.8393655676
 20
6.4479122018
 30
0.0
  0
VERTEX
  5
36C
330
1D8
100
AcDbEntity
  8
0
  6
CONTINUOUS
 62
     7
100
AcDbVertex
100
AcDb2dVertex
 10
8.8498203492
 20
6.4666481928
 30
0.0
  0
VERTEX
  5
36D
330
1D8
100
AcDbEntity
  8
0
  6
CONTINUOUS
 62
     7
100
AcDbVertex
100
AcDb2dVertex
 10
8.8613341828
 20
6.4847090146
 30
0.0
  0
VERTEX
  5
36E
330
1D8
100
AcDbEntity
  8
0
  6
CONTINUOUS
 62
     7
100
AcDbVertex
100
AcDb2dVertex
 10
8.8737889209
 20
6.5019093385
 30
0.0
  0
VERTEX
  5
36F
330
1D8
100
AcDbEntity
  8
0
  6
CONTINUOUS
 62
     7
100
AcDbVertex
100
AcDb2dVertex
 10
8.8870567611
 20
6.518072666
 30
0.0
  0
VERTEX
  5
370
330
1D8
100
AcDbEntity
  8
0
  6
CONTINUOUS
 62
     7
100
AcDbVertex
100
AcDb2dVertex
 10
8.9010015572
 20
6.5330331395
 30
0.0
  0
VERTEX
  5
371
330
1D8
100
AcDbEntity
  8
0
  6
CONTINUOUS
 62
     7
100
AcDbVertex
100
AcDb2dVertex
 10
8.9154802169
 20
6.5466372443
 30
0.0
  0
VERTEX
  5
372
330
1D8
100
AcDbEntity
  8
0
  6
CONTINUOUS
 62
     7
100
AcDbVertex
100
AcDb2dVertex
 10
8.9303441695
 20
6.5587453838
 30
0.0
  0
VERTEX
  5
373
330
1D8
100
AcDbEntity
  8
0
  6
CONTINUOUS
 62
     7
100
AcDbVertex
100
AcDb2dVertex
 10
8.9454408907
 20
6.5692333122
 30
0.0
  0
VERTEX
  5
374
330
1D8
100
AcDbEntity
  8
0
  6
CONTINUOUS
 62
     7
100
AcDbVertex
100
AcDb2dVertex
 10
8.9606154678
 20
6.577993409
 30
0.0
  0
VERTEX
  5
375
330
1D8
100
AcDbEntity
  8
0
  6
CONTINUOUS
 62
     7
100
AcDbVertex
100
AcDb2dVertex
 10
8.9757121891
 20
6.584935784
 30
0.0
  0
VERTEX
  5
376
330
1D8
100
AcDbEntity
  8
0
  6
CONTINUOUS
 62
     7
100
AcDbVertex
100
AcDb2dVertex
 10
8.9905761417
 20
6.5899891989
 30
0.0
  0
VERTEX
  5
377
330
1D8
100
AcDbEntity
  8
0
  6
CONTINUOUS
 62
     7
100
AcDbVertex
100
AcDb2dVertex
 10
9.0050548014
 20
6.5931017988
 30
0.0
  0
VERTEX
  5
378
330
1D8
100
AcDbEntity
  8
0
  6
CONTINUOUS
 62
     7
100
AcDbVertex
100
AcDb2dVertex
 10
9.0189995975
 20
6.5942416442
 30
0.0
  0
VERTEX
  5
379
330
1D8
100
AcDbEntity
  8
0
  6
CONTINUOUS
 62
     7
100
AcDbVertex
100
AcDb2dVertex
 10
9.0322674376
 20
6.5933970388
 30
0.0
  0
VERTEX
  5
37A
330
1D8
100
AcDbEntity
  8
0
  6
CONTINUOUS
 62
     7
100
AcDbVertex
100
AcDb2dVertex
 10
9.0447221757
 20
6.5905766494
 30
0.0
  0
VERTEX
  5
37B
330
1D8
100
AcDbEntity
  8
0
  6
CONTINUOUS
 62
     7
100
AcDbVertex
100
AcDb2dVertex
 10
9.0562360094
 20
6.585809417
 30
0.0
  0
VERTEX
  5
37C
330
1D8
100
AcDbEntity
  8
0
  6
CONTINUOUS
 62
     7
100
AcDbVertex
100
AcDb2dVertex
 10
9.066690791
 20
6.5791442599
 30
0.0
  0
VERTEX
  5
37D
330
1D8
100
AcDbEntity
  8
0
  6
CONTINUOUS
 62
     7
100
AcDbVertex
100
AcDb2dVertex
 10
9.0759792404
 20
6.5706495715
 30
0.0
  0
VERTEX
  5
37E
330
1D8
100
AcDbEntity
  8
0
  6
CONTINUOUS
 62
     7
100
AcDbVertex
100
AcDb2dVertex
 10
9.0840060456
 20
6.5604125189
 30
0.0
  0
VERTEX
  5
37F
330
1D8
100
AcDbEntity
  8
0
  6
CONTINUOUS
 62
     7
100
AcDbVertex
100
AcDb2dVertex
 10
9.0906888406
 20
6.5485381481
 30
0.0
  0
VERTEX
  5
380
330
1D8
100
AcDbEntity
  8
0
  6
CONTINUOUS
 62
     7
100
AcDbVertex
100
AcDb2dVertex
 10
9.0959590509
 20
6.5351483062
 30
0.0
  0
VERTEX
  5
381
330
1D8
100
AcDbEntity
  8
0
  6
CONTINUOUS
 62
     7
100
AcDbVertex
100
AcDb2dVertex
 10
9.0997625971
 20
6.5203803911
 30
0.0
  0
VERTEX
  5
382
330
1D8
100
AcDbEntity
  8
0
  6
CONTINUOUS
 62
     7
100
AcDbVertex
100
AcDb2dVertex
 10
9.1020604496
 20
6.5043859416
 30
0.0
  0
VERTEX
  5
383
330
1D8
100
AcDbEntity
  8
0
  6
CONTINUOUS
 62
     7
100
AcDbVertex
100
AcDb2dVertex
 10
9.1028290293
 20
6.4873290824
 30
0.0
  0
SEQEND
  5
384
330
1D8
100
AcDbEntity
  8
0
  6
CONTINUOUS
 62
     7
  0
SPLINE
  5
1D9
330
1F
100
AcDbEntity
  8
0
  6
CONTINUOUS
 62
     7
100
AcDbSpline
210
0.0
220
0.0
230
1.0
 70
     8
 71
     3
 72
    11
 73
     7
 74
     0
 42
0.00000001
 43
0.00000001
 40
0.0
 40
0.0
 40
0.0
 40
0.0
 40
0.3347899117939929
 40
0.6348554251363877
 40
0.8992696702361647
 40
1.0
 40
1.0
 40
1.0
 40
1.0
 10
8.633727105985592
 20
7.1669667653057
 30
0.0
 10
8.634145568193835
 20
7.162898318177996
 30
0.0
 10
8.634939089724082
 20
7.155183403122573
 30
0.0
 10
8.640999861197061
 20
7.145062804635687
 30
0.0
 10
8.647199452620173
 20
7.138127967005846
 30
0.0
 10
8.65184980614677
 20
7.135038889764061
 30
0.0
 10
8.653132672377023
 20
7.134186723825824
 30
0.0
  0
SPLINE
  5
1DA
330
1F
100
AcDbEntity
  8
0
  6
CONTINUOUS
 62
     7
100
AcDbSpline
210
0.0
220
0.0
230
1.0
 70
     8
 71
     3
 72
    10
 73
     6
 74
     0
 42
0.00000001
 43
0.00000001
 40
0.0
 40
0.0
 40
0.0
 40
0.0
 40
0.1950486986365605
 40
0.5757385623388018
 40
1.0
 40
1.0
 40
1.0
 40
1.0
 10
8.786652013011324
 20
7.144207532225429
 30
0.0
 10
8.788219721698994
 20
7.145569862128442
 30
0.0
 10
8.792847234480746
 20
7.149591144327578
 30
0.0
 10
8.797750768836503
 20
7.157302727422108
 30
0.0
 10
8.798615574811581
 20
7.163630906062203
 30
0.0
 10
8.799071383536486
 20
7.166966265807663
 30
0.0
  0
ARC
  5
1DB
330
1F
100
AcDbEntity
  8
0
  6
CONTINUOUS
 62
     7
100
AcDbCircle
 10
8.9973396346
 20
6.5011628535
 30
0.0
 40
0.0854040375345945
100
AcDbArc
 50
350.6781417352
 51
125.6164564723
  0
POLYLINE
  5
1DC
330
1F
100
AcDbEntity
  8
0
  6
CONTINUOUS
 62
     7
100
AcDb2dPolyline
 66
     1
 10
0.0
 20
0.0
 30
0.0
  0
VERTEX
  5
385
330
1DC
100
AcDbEntity
  8
0
  6
CONTINUOUS
 62
     7
100
AcDbVertex
100
AcDb2dVertex
 10
8.8033246833
 20
6.3206644037
 30
0.0
  0
VERTEX
  5
386
330
1DC
100
AcDbEntity
  8
0
  6
CONTINUOUS
 62
     7
100
AcDbVertex
100
AcDb2dVertex
 10
8.80398985
 20
6.3102574912
 30
0.0
  0
VERTEX
  5
387
330
1DC
100
AcDbEntity
  8
0
  6
CONTINUOUS
 62
     7
100
AcDbVertex
100
AcDb2dVertex
 10
8.8062690576
 20
6.294955804
 30
0.0
  0
VERTEX
  5
388
330
1DC
100
AcDbEntity
  8
0
  6
CONTINUOUS
 62
     7
100
AcDbVertex
100
AcDb2dVertex
 10
8.8100399807
 20
6.280881411
 30
0.0
  0
VERTEX
  5
389
330
1DC
100
AcDbEntity
  8
0
  6
CONTINUOUS
 62
     7
100
AcDbVertex
100
AcDb2dVertex
 10
8.8152613043
 20
6.2681885144
 30
0.0
  0
VERTEX
  5
38A
330
1DC
100
AcDbEntity
  8
0
  6
CONTINUOUS
 62
     7
100
AcDbVertex
100
AcDb2dVertex
 10
8.8218758225
 20
6.25701618
 30
0.0
  0
VERTEX
  5
38B
330
1DC
100
AcDbEntity
  8
0
  6
CONTINUOUS
 62
     7
100
AcDbVertex
100
AcDb2dVertex
 10
8.8298110652
 20
6.2474868144
 30
0.0
  0
VERTEX
  5
38C
330
1DC
100
AcDbEntity
  8
0
  6
CONTINUOUS
 62
     7
100
AcDbVertex
100
AcDb2dVertex
 10
8.8389800922
 20
6.2397048233
 30
0.0
  0
VERTEX
  5
38D
330
1DC
100
AcDbEntity
  8
0
  6
CONTINUOUS
 62
     7
100
AcDbVertex
100
AcDb2dVertex
 10
8.8492824458
 20
6.2337554678
 30
0.0
  0
VERTEX
  5
38E
330
1DC
100
AcDbEntity
  8
0
  6
CONTINUOUS
 62
     7
100
AcDbVertex
100
AcDb2dVertex
 10
8.8606052512
 20
6.2297039302
 30
0.0
  0
VERTEX
  5
38F
330
1DC
100
AcDbEntity
  8
0
  6
CONTINUOUS
 62
     7
100
AcDbVertex
100
AcDb2dVertex
 10
8.8728244534
 20
6.2275946001
 30
0.0
  0
VERTEX
  5
390
330
1DC
100
AcDbEntity
  8
0
  6
CONTINUOUS
 62
     7
100
AcDbVertex
100
AcDb2dVertex
 10
8.8858061763
 20
6.2274505878
 30
0.0
  0
VERTEX
  5
391
330
1DC
100
AcDbEntity
  8
0
  6
CONTINUOUS
 62
     7
100
AcDbVertex
100
AcDb2dVertex
 10
8.8994081893
 20
6.229273471
 30
0.0
  0
VERTEX
  5
392
330
1DC
100
AcDbEntity
  8
0
  6
CONTINUOUS
 62
     7
100
AcDbVertex
100
AcDb2dVertex
 10
8.9134814661
 20
6.2330432778
 30
0.0
  0
VERTEX
  5
393
330
1DC
100
AcDbEntity
  8
0
  6
CONTINUOUS
 62
     7
100
AcDbVertex
100
AcDb2dVertex
 10
8.9278718167
 20
6.2387187056
 30
0.0
  0
VERTEX
  5
394
330
1DC
100
AcDbEntity
  8
0
  6
CONTINUOUS
 62
     7
100
AcDbVertex
100
AcDb2dVertex
 10
8.9424215776
 20
6.246237573
 30
0.0
  0
VERTEX
  5
395
330
1DC
100
AcDbEntity
  8
0
  6
CONTINUOUS
 62
     7
100
AcDbVertex
100
AcDb2dVertex
 10
8.9569713384
 20
6.2555175019
 30
0.0
  0
VERTEX
  5
396
330
1DC
100
AcDbEntity
  8
0
  6
CONTINUOUS
 62
     7
100
AcDbVertex
100
AcDb2dVertex
 10
8.9713616891
 20
6.2664568193
 30
0.0
  0
VERTEX
  5
397
330
1DC
100
AcDbEntity
  8
0
  6
CONTINUOUS
 62
     7
100
AcDbVertex
100
AcDb2dVertex
 10
8.9854349658
 20
6.2789356719
 30
0.0
  0
VERTEX
  5
398
330
1DC
100
AcDbEntity
  8
0
  6
CONTINUOUS
 62
     7
100
AcDbVertex
100
AcDb2dVertex
 10
8.9990369788
 20
6.2928173387
 30
0.0
  0
VERTEX
  5
399
330
1DC
100
AcDbEntity
  8
0
  6
CONTINUOUS
 62
     7
100
AcDbVertex
100
AcDb2dVertex
 10
9.0120187017
 20
6.3079497292
 30
0.0
  0
VERTEX
  5
39A
330
1DC
100
AcDbEntity
  8
0
  6
CONTINUOUS
 62
     7
100
AcDbVertex
100
AcDb2dVertex
 10
9.0242379039
 20
6.3241670499
 30
0.0
  0
VERTEX
  5
39B
330
1DC
100
AcDbEntity
  8
0
  6
CONTINUOUS
 62
     7
100
AcDbVertex
100
AcDb2dVertex
 10
9.0355607093
 20
6.3412916203
 30
0.0
  0
VERTEX
  5
39C
330
1DC
100
AcDbEntity
  8
0
  6
CONTINUOUS
 62
     7
100
AcDbVertex
100
AcDb2dVertex
 10
9.0458630629
 20
6.3591358201
 30
0.0
  0
VERTEX
  5
39D
330
1DC
100
AcDbEntity
  8
0
  6
CONTINUOUS
 62
     7
100
AcDbVertex
100
AcDb2dVertex
 10
9.0550320899
 20
6.3775041445
 30
0.0
  0
VERTEX
  5
39E
330
1DC
100
AcDbEntity
  8
0
  6
CONTINUOUS
 62
     7
100
AcDbVertex
100
AcDb2dVertex
 10
9.0629673326
 20
6.3961953463
 30
0.0
  0
VERTEX
  5
39F
330
1DC
100
AcDbEntity
  8
0
  6
CONTINUOUS
 62
     7
100
AcDbVertex
100
AcDb2dVertex
 10
9.0695818508
 20
6.4150046408
 30
0.0
  0
VERTEX
  5
3A0
330
1DC
100
AcDbEntity
  8
0
  6
CONTINUOUS
 62
     7
100
AcDbVertex
100
AcDb2dVertex
 10
9.0748031744
 20
6.4337259494
 30
0.0
  0
VERTEX
  5
3A1
330
1DC
100
AcDbEntity
  8
0
  6
CONTINUOUS
 62
     7
100
AcDbVertex
100
AcDb2dVertex
 10
9.0785740975
 20
6.4521541575
 30
0.0
  0
VERTEX
  5
3A2
330
1DC
100
AcDbEntity
  8
0
  6
CONTINUOUS
 62
     7
100
AcDbVertex
100
AcDb2dVertex
 10
9.0808533052
 20
6.4700873618
 30
0.0
  0
VERTEX
  5
3A3
330
1DC
100
AcDbEntity
  8
0
  6
CONTINUOUS
 62
     7
100
AcDbVertex
100
AcDb2dVertex
 10
9.0816158258
 20
6.4873290824
 30
0.0
  0
SEQEND
  5
3A4
330
1DC
100
AcDbEntity
  8
0
  6
CONTINUOUS
 62
     7
  0
ARC
  5
1DD
330
1F
100
AcDbEntity
  8
0
  6
CONTINUOUS
 62
     7
100
AcDbCircle
 10
8.0304808516
 20
6.9334261286
 30
0.0
 40
1.183745943475328
100
AcDbArc
 50
122.5281707158
 51
177.4772058169
  0
SPLINE
  5
1DE
330
1F
100
AcDbEntity
  8
0
  6
CONTINUOUS
 62
     7
100
AcDbSpline
210
0.0
220
0.0
230
1.0
 70
     8
 71
     3
 72
    11
 73
     7
 74
     0
 42
0.00000001
 43
0.00000001
 40
0.0
 40
0.0
 40
0.0
 40
0.0
 40
0.3347899117951215
 40
0.6348554251379324
 40
0.8992696702374037
 40
1.0
 40
1.0
 40
1.0
 40
1.0
 10
7.548011969518059
 20
7.793736772413686
 30
0.0
 10
7.548430431726305
 20
7.78966832528597
 30
0.0
 10
7.549223953256557
 20
7.781953410230532
 30
0.0
 10
7.555284724729558
 20
7.771832811743638
 30
0.0
 10
7.561484316152669
 20
7.764897974113812
 30
0.0
 10
7.566134669679244
 20
7.761808896872042
 30
0.0
 10
7.56741753590948
 20
7.760956730933814
 30
0.0
  0
SPLINE
  5
1DF
330
1F
100
AcDbEntity
  8
0
  6
CONTINUOUS
 62
     7
100
AcDbSpline
210
0.0
220
0.0
230
1.0
 70
     8
 71
     3
 72
    10
 73
     6
 74
     0
 42
0.00000001
 43
0.00000001
 40
0.0
 40
0.0
 40
0.0
 40
0.0
 40
0.1950486986384422
 40
0.5757385623403152
 40
1.0
 40
1.0
 40
1.0
 40
1.0
 10
7.700936876543804
 20
7.770977539333431
 30
0.0
 10
7.702504585231486
 20
7.772339869236458
 30
0.0
 10
7.707132098013242
 20
7.776361151435605
 30
0.0
 10
7.712035632368981
 20
7.784072734530132
 30
0.0
 10
7.712900438344053
 20
7.790400913170205
 30
0.0
 10
7.713356247068953
 20
7.793736272915649
 30
0.0
  0
POLYLINE
  5
1E0
330
1F
100
AcDbEntity
  8
0
  6
CONTINUOUS
 62
     7
100
AcDb2dPolyline
 66
     1
 10
0.0
 20
0.0
 30
0.0
  0
VERTEX
  5
3A5
330
1E0
100
AcDbEntity
  8
0
  6
CONTINUOUS
 62
     7
100
AcDbVertex
100
AcDb2dVertex
 10
7.689144405
 20
7.7652555779
 30
0.0
  0
VERTEX
  5
3A6
330
1E0
100
AcDbEntity
  8
0
  6
CONTINUOUS
 62
     7
100
AcDbVertex
100
AcDb2dVertex
 10
7.6977652405
 20
7.7711063657
 30
0.0
  0
VERTEX
  5
3A7
330
1E0
100
AcDbEntity
  8
0
  6
CONTINUOUS
 62
     7
100
AcDbVertex
100
AcDb2dVertex
 10
7.7046486765
 20
7.7776797064
 30
0.0
  0
VERTEX
  5
3A8
330
1E0
100
AcDbEntity
  8
0
  6
CONTINUOUS
 62
     7
100
AcDbVertex
100
AcDb2dVertex
 10
7.7096164357
 20
7.7848053542
 30
0.0
  0
VERTEX
  5
3A9
330
1E0
100
AcDbEntity
  8
0
  6
CONTINUOUS
 62
     7
100
AcDbVertex
100
AcDb2dVertex
 10
7.7125398558
 20
7.7922987583
 30
0.0
  0
VERTEX
  5
3AA
330
1E0
100
AcDbEntity
  8
0
  6
CONTINUOUS
 62
     7
100
AcDbVertex
100
AcDb2dVertex
 10
7.7133432216
 20
7.7999658437
 30
0.0
  0
VERTEX
  5
3AB
330
1E0
100
AcDbEntity
  8
0
  6
CONTINUOUS
 62
     7
100
AcDbVertex
100
AcDb2dVertex
 10
7.7120057265
 20
7.8076080368
 30
0.0
  0
VERTEX
  5
3AC
330
1E0
100
AcDbEntity
  8
0
  6
CONTINUOUS
 62
     7
100
AcDbVertex
100
AcDb2dVertex
 10
7.7085620108
 20
7.8150274088
 30
0.0
  0
VERTEX
  5
3AD
330
1E0
100
AcDbEntity
  8
0
  6
CONTINUOUS
 62
     7
100
AcDbVertex
100
AcDb2dVertex
 10
7.703101265
 20
7.8220318019
 30
0.0
  0
VERTEX
  5
3AE
330
1E0
100
AcDbEntity
  8
0
  6
CONTINUOUS
 62
     7
100
AcDbVertex
100
AcDb2dVertex
 10
7.6957649196
 20
7.828439806
 30
0.0
  0
VERTEX
  5
3AF
330
1E0
100
AcDbEntity
  8
0
  6
CONTINUOUS
 62
     7
100
AcDbVertex
100
AcDb2dVertex
 10
7.6891539044
 20
7.8327484016
 30
0.0
  0
SEQEND
  5
3B0
330
1E0
100
AcDbEntity
  8
0
  6
CONTINUOUS
 62
     7
  0
POLYLINE
  5
1E1
330
1F
100
AcDbEntity
  8
0
  6
CONTINUOUS
 62
     7
100
AcDb2dPolyline
 66
     1
 10
0.0
 20
0.0
 30
0.0
  0
VERTEX
  5
3B1
330
1E1
100
AcDbEntity
  8
0
  6
CONTINUOUS
 62
     7
100
AcDbVertex
100
AcDb2dVertex
 10
7.5722117372
 20
7.8327484016
 30
0.0
  0
VERTEX
  5
3B2
330
1E1
100
AcDbEntity
  8
0
  6
CONTINUOUS
 62
     7
100
AcDbVertex
100
AcDb2dVertex
 10
7.5677066063
 20
7.8299287696
 30
0.0
  0
VERTEX
  5
3B3
330
1E1
100
AcDbEntity
  8
0
  6
CONTINUOUS
 62
     7
100
AcDbVertex
100
AcDb2dVertex
 10
7.559929251
 20
7.823696496
 30
0.0
  0
VERTEX
  5
3B4
330
1E1
100
AcDbEntity
  8
0
  6
CONTINUOUS
 62
     7
100
AcDbVertex
100
AcDb2dVertex
 10
7.553984376
 20
7.8168247187
 30
0.0
  0
VERTEX
  5
3B5
330
1E1
100
AcDbEntity
  8
0
  6
CONTINUOUS
 62
     7
100
AcDbVertex
100
AcDb2dVertex
 10
7.5500259504
 20
7.8094914131
 30
0.0
  0
VERTEX
  5
3B6
330
1E1
100
AcDbEntity
  8
0
  6
CONTINUOUS
 62
     7
100
AcDbVertex
100
AcDb2dVertex
 10
7.5481564954
 20
7.801886508
 30
0.0
  0
VERTEX
  5
3B7
330
1E1
100
AcDbEntity
  8
0
  6
CONTINUOUS
 62
     7
100
AcDbVertex
100
AcDb2dVertex
 10
7.5484244289
 20
7.7942069663
 30
0.0
  0
VERTEX
  5
3B8
330
1E1
100
AcDbEntity
  8
0
  6
CONTINUOUS
 62
     7
100
AcDbVertex
100
AcDb2dVertex
 10
7.5508228115
 20
7.7866516843
 30
0.0
  0
VERTEX
  5
3B9
330
1E1
100
AcDbEntity
  8
0
  6
CONTINUOUS
 62
     7
100
AcDbVertex
100
AcDb2dVertex
 10
7.5552895264
 20
7.7794163398
 30
0.0
  0
VERTEX
  5
3BA
330
1E1
100
AcDbEntity
  8
0
  6
CONTINUOUS
 62
     7
100
AcDbVertex
100
AcDb2dVertex
 10
7.561708888
 20
7.7726883243
 30
0.0
  0
VERTEX
  5
3BB
330
1E1
100
AcDbEntity
  8
0
  6
CONTINUOUS
 62
     7
100
AcDbVertex
100
AcDb2dVertex
 10
7.5699146383
 20
7.76664189
 30
0.0
  0
VERTEX
  5
3BC
330
1E1
100
AcDbEntity
  8
0
  6
CONTINUOUS
 62
     7
100
AcDbVertex
100
AcDb2dVertex
 10
7.5796942526
 20
7.7614336362
 30
0.0
  0
VERTEX
  5
3BD
330
1E1
100
AcDbEntity
  8
0
  6
CONTINUOUS
 62
     7
100
AcDbVertex
100
AcDb2dVertex
 10
7.590794444
 20
7.7571984542
 30
0.0
  0
VERTEX
  5
3BE
330
1E1
100
AcDbEntity
  8
0
  6
CONTINUOUS
 62
     7
100
AcDbVertex
100
AcDb2dVertex
 10
7.6029277234
 20
7.7540460327
 30
0.0
  0
VERTEX
  5
3BF
330
1E1
100
AcDbEntity
  8
0
  6
CONTINUOUS
 62
     7
100
AcDbVertex
100
AcDb2dVertex
 10
7.6157798452
 20
7.752058018
 30
0.0
  0
VERTEX
  5
3C0
330
1E1
100
AcDbEntity
  8
0
  6
CONTINUOUS
 62
     7
100
AcDbVertex
100
AcDb2dVertex
 10
7.6290179463
 20
7.7512858985
 30
0.0
  0
VERTEX
  5
3C1
330
1E1
100
AcDbEntity
  8
0
  6
CONTINUOUS
 62
     7
100
AcDbVertex
100
AcDb2dVertex
 10
7.6422991667
 20
7.7517496717
 30
0.0
  0
VERTEX
  5
3C2
330
1E1
100
AcDbEntity
  8
0
  6
CONTINUOUS
 62
     7
100
AcDbVertex
100
AcDb2dVertex
 10
7.6552795299
 20
7.7534373262
 30
0.0
  0
VERTEX
  5
3C3
330
1E1
100
AcDbEntity
  8
0
  6
CONTINUOUS
 62
     7
100
AcDbVertex
100
AcDb2dVertex
 10
7.6676228513
 20
7.7563051525
 30
0.0
  0
VERTEX
  5
3C4
330
1E1
100
AcDbEntity
  8
0
  6
CONTINUOUS
 62
     7
100
AcDbVertex
100
AcDb2dVertex
 10
7.6790094453
 20
7.7602788755
 30
0.0
  0
VERTEX
  5
3C5
330
1E1
100
AcDbEntity
  8
0
  6
CONTINUOUS
 62
     7
100
AcDbVertex
100
AcDb2dVertex
 10
7.689144405
 20
7.7652555779
 30
0.0
  0
SEQEND
  5
3C6
330
1E1
100
AcDbEntity
  8
0
  6
CONTINUOUS
 62
     7
  0
POLYLINE
  5
1E2
330
1F
100
AcDbEntity
  8
0
  6
CONTINUOUS
 62
     7
100
AcDb2dPolyline
 66
     1
 10
0.0
 20
0.0
 30
0.0
  0
VERTEX
  5
3C7
330
1E2
100
AcDbEntity
  8
0
  6
CONTINUOUS
 62
     7
100
AcDbVertex
100
AcDb2dVertex
 10
7.6820733372
 20
7.7775030266
 30
0.0
  0
VERTEX
  5
3C8
330
1E2
100
AcDbEntity
  8
0
  6
CONTINUOUS
 62
     7
100
AcDbVertex
100
AcDb2dVertex
 10
7.6723687303
 20
7.7728020965
 30
0.0
  0
VERTEX
  5
3C9
330
1E2
100
AcDbEntity
  8
0
  6
CONTINUOUS
 62
     7
100
AcDbVertex
100
AcDb2dVertex
 10
7.6613975181
 20
7.769145422
 30
0.0
  0
VERTEX
  5
3CA
330
1E2
100
AcDbEntity
  8
0
  6
CONTINUOUS
 62
     7
100
AcDbVertex
100
AcDb2dVertex
 10
7.6494930553
 20
7.7666441093
 30
0.0
  0
VERTEX
  5
3CB
330
1E2
100
AcDbEntity
  8
0
  6
CONTINUOUS
 62
     7
100
AcDbVertex
100
AcDb2dVertex
 10
7.6370170531
 20
7.7653741596
 30
0.0
  0
VERTEX
  5
3CC
330
1E2
100
AcDbEntity
  8
0
  6
CONTINUOUS
 62
     7
100
AcDbVertex
100
AcDb2dVertex
 10
7.6243485884
 20
7.7653741596
 30
0.0
  0
VERTEX
  5
3CD
330
1E2
100
AcDbEntity
  8
0
  6
CONTINUOUS
 62
     7
100
AcDbVertex
100
AcDb2dVertex
 10
7.6118725862
 20
7.7666441093
 30
0.0
  0
VERTEX
  5
3CE
330
1E2
100
AcDbEntity
  8
0
  6
CONTINUOUS
 62
     7
100
AcDbVertex
100
AcDb2dVertex
 10
7.5999681235
 20
7.769145422
 30
0.0
  0
VERTEX
  5
3CF
330
1E2
100
AcDbEntity
  8
0
  6
CONTINUOUS
 62
     7
100
AcDbVertex
100
AcDb2dVertex
 10
7.5889969113
 20
7.7728020965
 30
0.0
  0
VERTEX
  5
3D0
330
1E2
100
AcDbEntity
  8
0
  6
CONTINUOUS
 62
     7
100
AcDbVertex
100
AcDb2dVertex
 10
7.5792923043
 20
7.7775030266
 30
0.0
  0
VERTEX
  5
3D1
330
1E2
100
AcDbEntity
  8
0
  6
CONTINUOUS
 62
     7
100
AcDbVertex
100
AcDb2dVertex
 10
7.5711491722
 20
7.7831053769
 30
0.0
  0
VERTEX
  5
3D2
330
1E2
100
AcDbEntity
  8
0
  6
CONTINUOUS
 62
     7
100
AcDbVertex
100
AcDb2dVertex
 10
7.5648149399
 20
7.7894389229
 30
0.0
  0
VERTEX
  5
3D3
330
1E2
100
AcDbEntity
  8
0
  6
CONTINUOUS
 62
     7
100
AcDbVertex
100
AcDb2dVertex
 10
7.5604820698
 20
7.796311223
 30
0.0
  0
VERTEX
  5
3D4
330
1E2
100
AcDbEntity
  8
0
  6
CONTINUOUS
 62
     7
100
AcDbVertex
100
AcDb2dVertex
 10
7.558282214
 20
7.8035134658
 30
0.0
  0
VERTEX
  5
3D5
330
1E2
100
AcDbEntity
  8
0
  6
CONTINUOUS
 62
     7
100
AcDbVertex
100
AcDb2dVertex
 10
7.558282214
 20
7.8108268147
 30
0.0
  0
VERTEX
  5
3D6
330
1E2
100
AcDbEntity
  8
0
  6
CONTINUOUS
 62
     7
100
AcDbVertex
100
AcDb2dVertex
 10
7.5604820698
 20
7.8180290575
 30
0.0
  0
VERTEX
  5
3D7
330
1E2
100
AcDbEntity
  8
0
  6
CONTINUOUS
 62
     7
100
AcDbVertex
100
AcDb2dVertex
 10
7.5648149399
 20
7.8249013576
 30
0.0
  0
VERTEX
  5
3D8
330
1E2
100
AcDbEntity
  8
0
  6
CONTINUOUS
 62
     7
100
AcDbVertex
100
AcDb2dVertex
 10
7.5711491722
 20
7.8312349036
 30
0.0
  0
VERTEX
  5
3D9
330
1E2
100
AcDbEntity
  8
0
  6
CONTINUOUS
 62
     7
100
AcDbVertex
100
AcDb2dVertex
 10
7.5792923043
 20
7.8368372539
 30
0.0
  0
VERTEX
  5
3DA
330
1E2
100
AcDbEntity
  8
0
  6
CONTINUOUS
 62
     7
100
AcDbVertex
100
AcDb2dVertex
 10
7.5889969113
 20
7.841538184
 30
0.0
  0
VERTEX
  5
3DB
330
1E2
100
AcDbEntity
  8
0
  6
CONTINUOUS
 62
     7
100
AcDbVertex
100
AcDb2dVertex
 10
7.5999681235
 20
7.8451948585
 30
0.0
  0
VERTEX
  5
3DC
330
1E2
100
AcDbEntity
  8
0
  6
CONTINUOUS
 62
     7
100
AcDbVertex
100
AcDb2dVertex
 10
7.6118725862
 20
7.8476961712
 30
0.0
  0
VERTEX
  5
3DD
330
1E2
100
AcDbEntity
  8
0
  6
CONTINUOUS
 62
     7
100
AcDbVertex
100
AcDb2dVertex
 10
7.6243485884
 20
7.8489661209
 30
0.0
  0
VERTEX
  5
3DE
330
1E2
100
AcDbEntity
  8
0
  6
CONTINUOUS
 62
     7
100
AcDbVertex
100
AcDb2dVertex
 10
7.6370170531
 20
7.8489661209
 30
0.0
  0
VERTEX
  5
3DF
330
1E2
100
AcDbEntity
  8
0
  6
CONTINUOUS
 62
     7
100
AcDbVertex
100
AcDb2dVertex
 10
7.6494930553
 20
7.8476961712
 30
0.0
  0
VERTEX
  5
3E0
330
1E2
100
AcDbEntity
  8
0
  6
CONTINUOUS
 62
     7
100
AcDbVertex
100
AcDb2dVertex
 10
7.6613975181
 20
7.8451948585
 30
0.0
  0
VERTEX
  5
3E1
330
1E2
100
AcDbEntity
  8
0
  6
CONTINUOUS
 62
     7
100
AcDbVertex
100
AcDb2dVertex
 10
7.6723687303
 20
7.841538184
 30
0.0
  0
VERTEX
  5
3E2
330
1E2
100
AcDbEntity
  8
0
  6
CONTINUOUS
 62
     7
100
AcDbVertex
100
AcDb2dVertex
 10
7.6820733372
 20
7.8368372539
 30
0.0
  0
VERTEX
  5
3E3
330
1E2
100
AcDbEntity
  8
0
  6
CONTINUOUS
 62
     7
100
AcDbVertex
100
AcDb2dVertex
 10
7.6902164693
 20
7.8312349036
 30
0.0
  0
VERTEX
  5
3E4
330
1E2
100
AcDbEntity
  8
0
  6
CONTINUOUS
 62
     7
100
AcDbVertex
100
AcDb2dVertex
 10
7.6965507017
 20
7.8249013576
 30
0.0
  0
VERTEX
  5
3E5
330
1E2
100
AcDbEntity
  8
0
  6
CONTINUOUS
 62
     7
100
AcDbVertex
100
AcDb2dVertex
 10
7.7008835718
 20
7.8180290575
 30
0.0
  0
VERTEX
  5
3E6
330
1E2
100
AcDbEntity
  8
0
  6
CONTINUOUS
 62
     7
100
AcDbVertex
100
AcDb2dVertex
 10
7.7030834276
 20
7.8108268147
 30
0.0
  0
VERTEX
  5
3E7
330
1E2
100
AcDbEntity
  8
0
  6
CONTINUOUS
 62
     7
100
AcDbVertex
100
AcDb2dVertex
 10
7.7030834276
 20
7.8035134658
 30
0.0
  0
VERTEX
  5
3E8
330
1E2
100
AcDbEntity
  8
0
  6
CONTINUOUS
 62
     7
100
AcDbVertex
100
AcDb2dVertex
 10
7.7008835718
 20
7.796311223
 30
0.0
  0
VERTEX
  5
3E9
330
1E2
100
AcDbEntity
  8
0
  6
CONTINUOUS
 62
     7
100
AcDbVertex
100
AcDb2dVertex
 10
7.6965507017
 20
7.7894389229
 30
0.0
  0
VERTEX
  5
3EA
330
1E2
100
AcDbEntity
  8
0
  6
CONTINUOUS
 62
     7
100
AcDbVertex
100
AcDb2dVertex
 10
7.6902164693
 20
7.7831053769
 30
0.0
  0
VERTEX
  5
3EB
330
1E2
100
AcDbEntity
  8
0
  6
CONTINUOUS
 62
     7
100
AcDbVertex
100
AcDb2dVertex
 10
7.6820733372
 20
7.7775030266
 30
0.0
  0
SEQEND
  5
3EC
330
1E2
100
AcDbEntity
  8
0
  6
CONTINUOUS
 62
     7
  0
LINE
  5
1E3
330
1F
100
AcDbEntity
  8
0
  6
CONTINUOUS
 62
     7
100
AcDbLine
 10
7.5763783349
 20
7.8155701632
 30
0.0
 11
7.6161319776
 21
7.8385194526
 31
0.0
  0
LINE
  5
1E4
330
1F
100
AcDbEntity
  8
0
  6
CONTINUOUS
 62
     7
100
AcDbLine
 10
7.5909291781
 20
7.7842208508
 30
0.0
 11
7.5763783349
 21
7.8155701632
 31
0.0
  0
LINE
  5
1E5
330
1F
100
AcDbEntity
  8
0
  6
CONTINUOUS
 62
     7
100
AcDbLine
 10
7.6452336639
 20
7.7758208279
 30
0.0
 11
7.5909291781
 21
7.7842208508
 31
0.0
  0
LINE
  5
1E6
330
1F
100
AcDbEntity
  8
0
  6
CONTINUOUS
 62
     7
100
AcDbLine
 10
7.6849873066
 20
7.7987701173
 30
0.0
 11
7.6452336639
 21
7.7758208279
 31
0.0
  0
LINE
  5
1E7
330
1F
100
AcDbEntity
  8
0
  6
CONTINUOUS
 62
     7
100
AcDbLine
 10
7.6704364635
 20
7.8301194297
 30
0.0
 11
7.6849873066
 21
7.7987701173
 31
0.0
  0
LINE
  5
1E8
330
1F
100
AcDbEntity
  8
0
  6
CONTINUOUS
 62
     7
100
AcDbLine
 10
7.6161319776
 20
7.8385194526
 30
0.0
 11
7.6704364635
 21
7.8301194297
 31
0.0
  0
LINE
  5
1E9
330
1F
100
AcDbEntity
  8
0
  6
CONTINUOUS
 62
     7
100
AcDbLine
 10
7.5924015104
 20
7.7839931049
 30
0.0
 11
7.6161319776
 21
7.797692412
 31
0.0
  0
LINE
  5
1EA
330
1F
100
AcDbEntity
  8
0
  6
CONTINUOUS
 62
     7
100
AcDbLine
 10
7.6161319776
 20
7.797692412
 30
0.0
 11
7.6689641312
 21
7.789520135
 31
0.0
  0
LINE
  5
1EB
330
1F
100
AcDbEntity
  8
0
  6
CONTINUOUS
 62
     7
100
AcDbLine
 10
7.6704364635
 20
7.7903700944
 30
0.0
 11
7.6704364635
 21
7.8301194297
 31
0.0
  0
LINE
  5
1EC
330
1F
100
AcDbEntity
  8
0
  6
CONTINUOUS
 62
     7
100
AcDbLine
 10
7.6161319776
 20
7.797692412
 30
0.0
 11
7.6161319776
 21
7.8385194526
 31
0.0
  0
POLYLINE
  5
1ED
330
1F
100
AcDbEntity
  8
0
  6
CONTINUOUS
 62
     7
100
AcDb2dPolyline
 66
     1
 10
0.0
 20
0.0
 30
0.0
  0
VERTEX
  5
3ED
330
1ED
100
AcDbEntity
  8
0
  6
CONTINUOUS
 62
     7
100
AcDbVertex
100
AcDb2dVertex
 10
8.7748690408
 20
7.2059783945
 30
0.0
  0
VERTEX
  5
3EE
330
1ED
100
AcDbEntity
  8
0
  6
CONTINUOUS
 62
     7
100
AcDbVertex
100
AcDb2dVertex
 10
8.7771661397
 20
7.2045975672
 30
0.0
  0
VERTEX
  5
3EF
330
1ED
100
AcDbEntity
  8
0
  6
CONTINUOUS
 62
     7
100
AcDbVertex
100
AcDb2dVertex
 10
8.78537189
 20
7.1985511329
 30
0.0
  0
VERTEX
  5
3F0
330
1ED
100
AcDbEntity
  8
0
  6
CONTINUOUS
 62
     7
100
AcDbVertex
100
AcDb2dVertex
 10
8.7917912516
 20
7.1918231174
 30
0.0
  0
VERTEX
  5
3F1
330
1ED
100
AcDbEntity
  8
0
  6
CONTINUOUS
 62
     7
100
AcDbVertex
100
AcDb2dVertex
 10
8.7962579665
 20
7.1845877728
 30
0.0
  0
VERTEX
  5
3F2
330
1ED
100
AcDbEntity
  8
0
  6
CONTINUOUS
 62
     7
100
AcDbVertex
100
AcDb2dVertex
 10
8.7986563491
 20
7.1770324908
 30
0.0
  0
VERTEX
  5
3F3
330
1ED
100
AcDbEntity
  8
0
  6
CONTINUOUS
 62
     7
100
AcDbVertex
100
AcDb2dVertex
 10
8.7989242826
 20
7.1693529492
 30
0.0
  0
VERTEX
  5
3F4
330
1ED
100
AcDbEntity
  8
0
  6
CONTINUOUS
 62
     7
100
AcDbVertex
100
AcDb2dVertex
 10
8.7970548276
 20
7.1617480441
 30
0.0
  0
VERTEX
  5
3F5
330
1ED
100
AcDbEntity
  8
0
  6
CONTINUOUS
 62
     7
100
AcDbVertex
100
AcDb2dVertex
 10
8.793096402
 20
7.1544147385
 30
0.0
  0
VERTEX
  5
3F6
330
1ED
100
AcDbEntity
  8
0
  6
CONTINUOUS
 62
     7
100
AcDbVertex
100
AcDb2dVertex
 10
8.787151527
 20
7.1475429612
 30
0.0
  0
VERTEX
  5
3F7
330
1ED
100
AcDbEntity
  8
0
  6
CONTINUOUS
 62
     7
100
AcDbVertex
100
AcDb2dVertex
 10
8.7793741717
 20
7.1413106875
 30
0.0
  0
VERTEX
  5
3F8
330
1ED
100
AcDbEntity
  8
0
  6
CONTINUOUS
 62
     7
100
AcDbVertex
100
AcDb2dVertex
 10
8.7699657655
 20
7.1358793303
 30
0.0
  0
VERTEX
  5
3F9
330
1ED
100
AcDbEntity
  8
0
  6
CONTINUOUS
 62
     7
100
AcDbVertex
100
AcDb2dVertex
 10
8.7591699812
 20
7.1313895586
 30
0.0
  0
VERTEX
  5
3FA
330
1ED
100
AcDbEntity
  8
0
  6
CONTINUOUS
 62
     7
100
AcDbVertex
100
AcDb2dVertex
 10
8.747266424
 20
7.1279576553
 30
0.0
  0
VERTEX
  5
3FB
330
1ED
100
AcDbEntity
  8
0
  6
CONTINUOUS
 62
     7
100
AcDbVertex
100
AcDb2dVertex
 10
8.7345633897
 20
7.1256725049
 30
0.0
  0
VERTEX
  5
3FC
330
1ED
100
AcDbEntity
  8
0
  6
CONTINUOUS
 62
     7
100
AcDbVertex
100
AcDb2dVertex
 10
8.7213898802
 20
7.1245932915
 30
0.0
  0
VERTEX
  5
3FD
330
1ED
100
AcDbEntity
  8
0
  6
CONTINUOUS
 62
     7
100
AcDbVertex
100
AcDb2dVertex
 10
8.7080870826
 20
7.1247479662
 30
0.0
  0
VERTEX
  5
3FE
330
1ED
100
AcDbEntity
  8
0
  6
CONTINUOUS
 62
     7
100
AcDbVertex
100
AcDb2dVertex
 10
8.6949995322
 20
7.126132523
 30
0.0
  0
VERTEX
  5
3FF
330
1ED
100
AcDbEntity
  8
0
  6
CONTINUOUS
 62
     7
100
AcDbVertex
100
AcDb2dVertex
 10
8.6824661899
 20
7.1287111026
 30
0.0
  0
VERTEX
  5
400
330
1ED
100
AcDbEntity
  8
0
  6
CONTINUOUS
 62
     7
100
AcDbVertex
100
AcDb2dVertex
 10
8.6708116624
 20
7.1324169212
 30
0.0
  0
VERTEX
  5
401
330
1ED
100
AcDbEntity
  8
0
  6
CONTINUOUS
 62
     7
100
AcDbVertex
100
AcDb2dVertex
 10
8.6603377961
 20
7.137154
 30
0.0
  0
VERTEX
  5
402
330
1ED
100
AcDbEntity
  8
0
  6
CONTINUOUS
 62
     7
100
AcDbVertex
100
AcDb2dVertex
 10
8.6513158584
 20
7.1427996511
 30
0.0
  0
VERTEX
  5
403
330
1ED
100
AcDbEntity
  8
0
  6
CONTINUOUS
 62
     7
100
AcDbVertex
100
AcDb2dVertex
 10
8.643979513
 20
7.1492076552
 30
0.0
  0
VERTEX
  5
404
330
1ED
100
AcDbEntity
  8
0
  6
CONTINUOUS
 62
     7
100
AcDbVertex
100
AcDb2dVertex
 10
8.6385187672
 20
7.1562120483
 30
0.0
  0
VERTEX
  5
405
330
1ED
100
AcDbEntity
  8
0
  6
CONTINUOUS
 62
     7
100
AcDbVertex
100
AcDb2dVertex
 10
8.6350750515
 20
7.1636314204
 30
0.0
  0
VERTEX
  5
406
330
1ED
100
AcDbEntity
  8
0
  6
CONTINUOUS
 62
     7
100
AcDbVertex
100
AcDb2dVertex
 10
8.6337375564
 20
7.1712736135
 30
0.0
  0
VERTEX
  5
407
330
1ED
100
AcDbEntity
  8
0
  6
CONTINUOUS
 62
     7
100
AcDbVertex
100
AcDb2dVertex
 10
8.6345409222
 20
7.1789406988
 30
0.0
  0
VERTEX
  5
408
330
1ED
100
AcDbEntity
  8
0
  6
CONTINUOUS
 62
     7
100
AcDbVertex
100
AcDb2dVertex
 10
8.6374643423
 20
7.186434103
 30
0.0
  0
VERTEX
  5
409
330
1ED
100
AcDbEntity
  8
0
  6
CONTINUOUS
 62
     7
100
AcDbVertex
100
AcDb2dVertex
 10
8.6424321015
 20
7.1935597507
 30
0.0
  0
VERTEX
  5
40A
330
1ED
100
AcDbEntity
  8
0
  6
CONTINUOUS
 62
     7
100
AcDbVertex
100
AcDb2dVertex
 10
8.6493155375
 20
7.2001330915
 30
0.0
  0
VERTEX
  5
40B
330
1ED
100
AcDbEntity
  8
0
  6
CONTINUOUS
 62
     7
100
AcDbVertex
100
AcDb2dVertex
 10
8.657936373
 20
7.2059838793
 30
0.0
  0
VERTEX
  5
40C
330
1ED
100
AcDbEntity
  8
0
  6
CONTINUOUS
 62
     7
100
AcDbVertex
100
AcDb2dVertex
 10
8.657936373
 20
7.2059838793
 30
0.0
  0
SEQEND
  5
40D
330
1ED
100
AcDbEntity
  8
0
  6
CONTINUOUS
 62
     7
  0
POLYLINE
  5
1EE
330
1F
100
AcDbEntity
  8
0
  6
CONTINUOUS
 62
     7
100
AcDb2dPolyline
 66
     1
 10
0.0
 20
0.0
 30
0.0
  0
VERTEX
  5
40E
330
1EE
100
AcDbEntity
  8
0
  6
CONTINUOUS
 62
     7
100
AcDbVertex
100
AcDb2dVertex
 10
8.6650074408
 20
7.2100672468
 30
0.0
  0
VERTEX
  5
40F
330
1EE
100
AcDbEntity
  8
0
  6
CONTINUOUS
 62
     7
100
AcDbVertex
100
AcDb2dVertex
 10
8.6568643087
 20
7.2044648965
 30
0.0
  0
VERTEX
  5
410
330
1EE
100
AcDbEntity
  8
0
  6
CONTINUOUS
 62
     7
100
AcDbVertex
100
AcDb2dVertex
 10
8.6505300763
 20
7.1981313505
 30
0.0
  0
VERTEX
  5
411
330
1EE
100
AcDbEntity
  8
0
  6
CONTINUOUS
 62
     7
100
AcDbVertex
100
AcDb2dVertex
 10
8.6461972062
 20
7.1912590504
 30
0.0
  0
VERTEX
  5
412
330
1EE
100
AcDbEntity
  8
0
  6
CONTINUOUS
 62
     7
100
AcDbVertex
100
AcDb2dVertex
 10
8.6439973504
 20
7.1840568076
 30
0.0
  0
VERTEX
  5
413
330
1EE
100
AcDbEntity
  8
0
  6
CONTINUOUS
 62
     7
100
AcDbVertex
100
AcDb2dVertex
 10
8.6439973504
 20
7.1767434587
 30
0.0
  0
VERTEX
  5
414
330
1EE
100
AcDbEntity
  8
0
  6
CONTINUOUS
 62
     7
100
AcDbVertex
100
AcDb2dVertex
 10
8.6461972062
 20
7.1695412159
 30
0.0
  0
VERTEX
  5
415
330
1EE
100
AcDbEntity
  8
0
  6
CONTINUOUS
 62
     7
100
AcDbVertex
100
AcDb2dVertex
 10
8.6505300763
 20
7.1626689158
 30
0.0
  0
VERTEX
  5
416
330
1EE
100
AcDbEntity
  8
0
  6
CONTINUOUS
 62
     7
100
AcDbVertex
100
AcDb2dVertex
 10
8.6568643087
 20
7.1563353698
 30
0.0
  0
VERTEX
  5
417
330
1EE
100
AcDbEntity
  8
0
  6
CONTINUOUS
 62
     7
100
AcDbVertex
100
AcDb2dVertex
 10
8.6650074408
 20
7.1507330195
 30
0.0
  0
VERTEX
  5
418
330
1EE
100
AcDbEntity
  8
0
  6
CONTINUOUS
 62
     7
100
AcDbVertex
100
AcDb2dVertex
 10
8.6747120477
 20
7.1460320894
 30
0.0
  0
VERTEX
  5
419
330
1EE
100
AcDbEntity
  8
0
  6
CONTINUOUS
 62
     7
100
AcDbVertex
100
AcDb2dVertex
 10
8.6856832599
 20
7.1423754149
 30
0.0
  0
VERTEX
  5
41A
330
1EE
100
AcDbEntity
  8
0
  6
CONTINUOUS
 62
     7
100
AcDbVertex
100
AcDb2dVertex
 10
8.6975877227
 20
7.1398741022
 30
0.0
  0
VERTEX
  5
41B
330
1EE
100
AcDbEntity
  8
0
  6
CONTINUOUS
 62
     7
100
AcDbVertex
100
AcDb2dVertex
 10
8.7100637249
 20
7.1386041525
 30
0.0
  0
VERTEX
  5
41C
330
1EE
100
AcDbEntity
  8
0
  6
CONTINUOUS
 62
     7
100
AcDbVertex
100
AcDb2dVertex
 10
8.7227321896
 20
7.1386041525
 30
0.0
  0
VERTEX
  5
41D
330
1EE
100
AcDbEntity
  8
0
  6
CONTINUOUS
 62
     7
100
AcDbVertex
100
AcDb2dVertex
 10
8.7352081918
 20
7.1398741022
 30
0.0
  0
VERTEX
  5
41E
330
1EE
100
AcDbEntity
  8
0
  6
CONTINUOUS
 62
     7
100
AcDbVertex
100
AcDb2dVertex
 10
8.7471126545
 20
7.1423754149
 30
0.0
  0
VERTEX
  5
41F
330
1EE
100
AcDbEntity
  8
0
  6
CONTINUOUS
 62
     7
100
AcDbVertex
100
AcDb2dVertex
 10
8.7580838667
 20
7.1460320894
 30
0.0
  0
VERTEX
  5
420
330
1EE
100
AcDbEntity
  8
0
  6
CONTINUOUS
 62
     7
100
AcDbVertex
100
AcDb2dVertex
 10
8.7677884737
 20
7.1507330195
 30
0.0
  0
VERTEX
  5
421
330
1EE
100
AcDbEntity
  8
0
  6
CONTINUOUS
 62
     7
100
AcDbVertex
100
AcDb2dVertex
 10
8.7759316058
 20
7.1563353698
 30
0.0
  0
VERTEX
  5
422
330
1EE
100
AcDbEntity
  8
0
  6
CONTINUOUS
 62
     7
100
AcDbVertex
100
AcDb2dVertex
 10
8.7822658381
 20
7.1626689158
 30
0.0
  0
VERTEX
  5
423
330
1EE
100
AcDbEntity
  8
0
  6
CONTINUOUS
 62
     7
100
AcDbVertex
100
AcDb2dVertex
 10
8.7865987082
 20
7.1695412159
 30
0.0
  0
VERTEX
  5
424
330
1EE
100
AcDbEntity
  8
0
  6
CONTINUOUS
 62
     7
100
AcDbVertex
100
AcDb2dVertex
 10
8.788798564
 20
7.1767434587
 30
0.0
  0
VERTEX
  5
425
330
1EE
100
AcDbEntity
  8
0
  6
CONTINUOUS
 62
     7
100
AcDbVertex
100
AcDb2dVertex
 10
8.788798564
 20
7.1840568076
 30
0.0
  0
VERTEX
  5
426
330
1EE
100
AcDbEntity
  8
0
  6
CONTINUOUS
 62
     7
100
AcDbVertex
100
AcDb2dVertex
 10
8.7865987082
 20
7.1912590504
 30
0.0
  0
VERTEX
  5
427
330
1EE
100
AcDbEntity
  8
0
  6
CONTINUOUS
 62
     7
100
AcDbVertex
100
AcDb2dVertex
 10
8.7822658381
 20
7.1981313505
 30
0.0
  0
VERTEX
  5
428
330
1EE
100
AcDbEntity
  8
0
  6
CONTINUOUS
 62
     7
100
AcDbVertex
100
AcDb2dVertex
 10
8.7759316058
 20
7.2044648965
 30
0.0
  0
VERTEX
  5
429
330
1EE
100
AcDbEntity
  8
0
  6
CONTINUOUS
 62
     7
100
AcDbVertex
100
AcDb2dVertex
 10
8.7677884737
 20
7.2100672468
 30
0.0
  0
VERTEX
  5
42A
330
1EE
100
AcDbEntity
  8
0
  6
CONTINUOUS
 62
     7
100
AcDbVertex
100
AcDb2dVertex
 10
8.7580838667
 20
7.2147681769
 30
0.0
  0
VERTEX
  5
42B
330
1EE
100
AcDbEntity
  8
0
  6
CONTINUOUS
 62
     7
100
AcDbVertex
100
AcDb2dVertex
 10
8.7471126545
 20
7.2184248514
 30
0.0
  0
VERTEX
  5
42C
330
1EE
100
AcDbEntity
  8
0
  6
CONTINUOUS
 62
     7
100
AcDbVertex
100
AcDb2dVertex
 10
8.7352081918
 20
7.2209261641
 30
0.0
  0
VERTEX
  5
42D
330
1EE
100
AcDbEntity
  8
0
  6
CONTINUOUS
 62
     7
100
AcDbVertex
100
AcDb2dVertex
 10
8.7227321896
 20
7.2221961138
 30
0.0
  0
VERTEX
  5
42E
330
1EE
100
AcDbEntity
  8
0
  6
CONTINUOUS
 62
     7
100
AcDbVertex
100
AcDb2dVertex
 10
8.7100637249
 20
7.2221961138
 30
0.0
  0
VERTEX
  5
42F
330
1EE
100
AcDbEntity
  8
0
  6
CONTINUOUS
 62
     7
100
AcDbVertex
100
AcDb2dVertex
 10
8.6975877227
 20
7.2209261641
 30
0.0
  0
VERTEX
  5
430
330
1EE
100
AcDbEntity
  8
0
  6
CONTINUOUS
 62
     7
100
AcDbVertex
100
AcDb2dVertex
 10
8.6856832599
 20
7.2184248514
 30
0.0
  0
VERTEX
  5
431
330
1EE
100
AcDbEntity
  8
0
  6
CONTINUOUS
 62
     7
100
AcDbVertex
100
AcDb2dVertex
 10
8.6747120477
 20
7.2147681769
 30
0.0
  0
VERTEX
  5
432
330
1EE
100
AcDbEntity
  8
0
  6
CONTINUOUS
 62
     7
100
AcDbVertex
100
AcDb2dVertex
 10
8.6650074408
 20
7.2100672468
 30
0.0
  0
SEQEND
  5
433
330
1EE
100
AcDbEntity
  8
0
  6
CONTINUOUS
 62
     7
  0
LINE
  5
1EF
330
1F
100
AcDbEntity
  8
0
  6
CONTINUOUS
 62
     7
100
AcDbLine
 10
8.7561515999
 20
7.2033494226
 30
0.0
 11
8.7018471141
 21
7.2117494455
 31
0.0
  0
LINE
  5
1F0
330
1F
100
AcDbEntity
  8
0
  6
CONTINUOUS
 62
     7
100
AcDbLine
 10
8.7018471141
 20
7.2117494455
 30
0.0
 11
8.6620934714
 21
7.1888001561
 31
0.0
  0
LINE
  5
1F1
330
1F
100
AcDbEntity
  8
0
  6
CONTINUOUS
 62
     7
100
AcDbLine
 10
8.6620934714
 20
7.1888001561
 30
0.0
 11
8.6766443145
 21
7.1574508437
 31
0.0
  0
LINE
  5
1F2
330
1F
100
AcDbEntity
  8
0
  6
CONTINUOUS
 62
     7
100
AcDbLine
 10
8.6766443145
 20
7.1574508437
 30
0.0
 11
8.7309488004
 21
7.1490508208
 31
0.0
  0
LINE
  5
1F3
330
1F
100
AcDbEntity
  8
0
  6
CONTINUOUS
 62
     7
100
AcDbLine
 10
8.7309488004
 20
7.1490508208
 30
0.0
 11
8.7707024431
 21
7.1720001102
 31
0.0
  0
LINE
  5
1F4
330
1F
100
AcDbEntity
  8
0
  6
CONTINUOUS
 62
     7
100
AcDbLine
 10
8.7707024431
 20
7.1720001102
 30
0.0
 11
8.7561515999
 21
7.2033494226
 31
0.0
  0
LINE
  5
1F5
330
1F
100
AcDbEntity
  8
0
  6
CONTINUOUS
 62
     7
100
AcDbLine
 10
8.7018471141
 20
7.1709224049
 30
0.0
 11
8.6781166468
 21
7.1572230978
 31
0.0
  0
LINE
  5
1F6
330
1F
100
AcDbEntity
  8
0
  6
CONTINUOUS
 62
     7
100
AcDbLine
 10
8.7546792676
 20
7.1627501279
 30
0.0
 11
8.7018471141
 21
7.1709224049
 31
0.0
  0
LINE
  5
1F7
330
1F
100
AcDbEntity
  8
0
  6
CONTINUOUS
 62
     7
100
AcDbLine
 10
8.7561515999
 20
7.1636000873
 30
0.0
 11
8.7561515999
 21
7.2033494226
 31
0.0
  0
LINE
  5
1F8
330
1F
100
AcDbEntity
  8
0
  6
CONTINUOUS
 62
     7
100
AcDbLine
 10
8.7018471141
 20
7.1709224049
 30
0.0
 11
8.7018471141
 21
7.2117494455
 31
0.0
  0
ENDSEC
  0
SECTION
  2
OBJECTS
  0
DICTIONARY
  5
C
330
0
100
AcDbDictionary
  3
ACAD_GROUP
350
D
  3
ACAD_LAYOUT
350
1A
  3
ACAD_MLEADERSTYLE
350
1FB
  3
ACAD_MLINESTYLE
350
17
  3
ACAD_PLOTSETTINGS
350
19
  3
ACAD_SCALELIST
350
6F
  3
ACAD_VISUALSTYLE
350
2A
  3
ACDBVARIABLEDICTIONARY
350
1F9
1001
ACAD
1000
TREAT_AS_HARD
1070
     0
  0
DICTIONARY
  5
D
102
{ACAD_REACTORS
330
C
102
}
330
C
100
AcDbDictionary
1001
ACAD
1000
TREAT_AS_HARD
1070
     0
  0
DICTIONARY
  5
1A
102
{ACAD_REACTORS
330
C
102
}
330
C
100
AcDbDictionary
1001
ACAD
1000
TREAT_AS_HARD
1070
     0
  0
DICTIONARY
  5
1FB
102
{ACAD_REACTORS
330
C
102
}
330
C
100
AcDbDictionary
1001
ACAD
1000
TREAT_AS_HARD
1070
     0
  0
DICTIONARY
  5
17
102
{ACAD_REACTORS
330
C
102
}
330
C
100
AcDbDictionary
  3
STANDARD
350
18
1001
ACAD
1000
TREAT_AS_HARD
1070
     0
  0
DICTIONARY
  5
19
102
{ACAD_REACTORS
330
C
102
}
330
C
100
AcDbDictionary
1001
ACAD
1000
TREAT_AS_HARD
1070
     0
  0
DICTIONARY
  5
6F
102
{ACAD_REACTORS
330
C
102
}
330
C
100
AcDbDictionary
  3
A0
350
70
  3
A1
350
71
  3
A2
350
72
  3
A3
350
73
  3
A4
350
74
  3
A5
350
75
  3
A6
350
76
  3
A7
350
77
  3
A8
350
78
  3
A9
350
79
  3
B0
350
7A
  3
B1
350
7B
  3
B2
350
7C
  3
B3
350
7D
  3
B4
350
7E
  3
B5
350
7F
  3
B6
350
80
  3
B7
350
81
  3
B8
350
82
  3
B9
350
83
  3
C0
350
84
  3
C1
350
85
  3
C2
350
86
  3
C3
350
87
  3
C4
350
88
  3
C5
350
89
  3
C6
350
8A
  3
C7
350
8B
  3
C8
350
8C
  3
C9
350
8D
  3
D0
350
8E
  3
D1
350
8F
  3
D2
350
90
1001
ACAD
1000
TREAT_AS_HARD
1070
     0
  0
DICTIONARY
  5
2A
102
{ACAD_REACTORS
330
C
102
}
330
C
100
AcDbDictionary
  3
2DWIREFRAME
350
2F
  3
3D_HIDDEN
350
31
  3
3DWIREFRAME
350
30
  3
BASIC
350
32
  3
BRIGHTEN
350
36
  3
COLORCHANGE
350
3A
  3
CONCEPTUAL
350
34
  3
DIM
350
35
  3
FACEPATTERN
350
39
  3
FLAT
350
2B
  3
FLATWITHEDGES
350
2C
  3
GOURAUD
350
2D
  3
GOURAUDWITHEDGES
350
2E
  3
LINEPATTERN
350
38
  3
REALISTIC
350
33
  3
THICKEN
350
37
1001
ACAD
1000
TREAT_AS_HARD
1070
     0
  0
DICTIONARY
  5
1F9
102
{ACAD_REACTORS
330
C
102
}
330
C
100
AcDbDictionary
  3
CANNOSCALE
350
1FC
  3
DIMASSOC
350
1FD
  3
HIDETEXT
350
1FE
1001
ACAD
1000
TREAT_AS_HARD
1070
     0
  0
MLINESTYLE
  5
18
102
{ACAD_REACTORS
330
17
102
}
330
17
100
AcDbMlineStyle
  2
Standard
 70
     0
  3

 62
   256
 51
90.0
 52
90.0
 71
     2
 49
0.5
 62
   256
  6
BYLAYER
 49
-0.5
 62
   256
  6
BYLAYER
  0
ACAD_PROXY_OBJECT
  5
70
102
{ACAD_REACTORS
330
6F
102
}
330
6F
100
AcDbZombieObject
 90
      499
 91
      502
 93
       41
310
903313A31580
  0
ACAD_PROXY_OBJECT
  5
71
102
{ACAD_REACTORS
330
6F
102
}
330
6F
100
AcDbZombieObject
 90
      499
 91
      502
 93
      105
310
903313A324000000000000004000
  0
ACAD_PROXY_OBJECT
  5
72
102
{ACAD_REACTORS
330
6F
102
}
330
6F
100
AcDbZombieObject
 90
      499
 91
      502
 93
      105
310
903313A344000000000000104000
  0
ACAD_PROXY_OBJECT
  5
73
102
{ACAD_REACTORS
330
6F
102
}
330
6F
100
AcDbZombieObject
 90
      499
 91
      502
 93
      105
310
903313A354000000000000144000
  0
ACAD_PROXY_OBJECT
  5
74
102
{ACAD_REACTORS
330
6F
102
}
330
6F
100
AcDbZombieObject
 90
      499
 91
      502
 93
      105
310
903313A384000000000000204000
  0
ACAD_PROXY_OBJECT
  5
75
102
{ACAD_REACTORS
330
6F
102
}
330
6F
100
AcDbZombieObject
 90
      499
 91
      502
 93
      113
310
904313A31304000000000000244000
  0
ACAD_PROXY_OBJECT
  5
76
102
{ACAD_REACTORS
330
6F
102
}
330
6F
100
AcDbZombieObject
 90
      499
 91
      502
 93
      113
310
904313A31364000000000000304000
  0
ACAD_PROXY_OBJECT
  5
77
102
{ACAD_REACTORS
330
6F
102
}
330
6F
100
AcDbZombieObject
 90
      499
 91
      502
 93
      113
310
904313A32304000000000000344000
  0
ACAD_PROXY_OBJECT
  5
78
102
{ACAD_REACTORS
330
6F
102
}
330
6F
100
AcDbZombieObject
 90
      499
 91
      502
 93
      113
310
904313A333040000000000003E4000
  0
ACAD_PROXY_OBJECT
  5
79
102
{ACAD_REACTORS
330
6F
102
}
330
6F
100
AcDbZombieObject
 90
      499
 91
      502
 93
      113
310
904313A34304000000000000444000
  0
ACAD_PROXY_OBJECT
  5
7A
102
{ACAD_REACTORS
330
6F
102
}
330
6F
100
AcDbZombieObject
 90
      499
 91
      502
 93
      113
310
904313A35304000000000000494000
  0
ACAD_PROXY_OBJECT
  5
7B
102
{ACAD_REACTORS
330
6F
102
}
330
6F
100
AcDbZombieObject
 90
      499
 91
      502
 93
      121
310
905313A3130304000000000000594000
  0
ACAD_PROXY_OBJECT
  5
7C
102
{ACAD_REACTORS
330
6F
102
}
330
6F
100
AcDbZombieObject
 90
      499
 91
      502
 93
      105
310
903323A310000000000000010100
  0
ACAD_PROXY_OBJECT
  5
7D
102
{ACAD_REACTORS
330
6F
102
}
330
6F
100
AcDbZombieObject
 90
      499
 91
      502
 93
      105
310
903343A310000000000000410100
  0
ACAD_PROXY_OBJECT
  5
7E
102
{ACAD_REACTORS
330
6F
102
}
330
6F
100
AcDbZombieObject
 90
      499
 91
      502
 93
      105
310
903383A310000000000000810100
  0
ACAD_PROXY_OBJECT
  5
7F
102
{ACAD_REACTORS
330
6F
102
}
330
6F
100
AcDbZombieObject
 90
      499
 91
      502
 93
      113
310
90431303A310000000000000910100
  0
ACAD_PROXY_OBJECT
  5
80
102
{ACAD_REACTORS
330
6F
102
}
330
6F
100
AcDbZombieObject
 90
      499
 91
      502
 93
      121
310
9053130303A310000000000001650100
  0
ACAD_PROXY_OBJECT
  5
81
102
{ACAD_REACTORS
330
6F
102
}
330
6F
100
AcDbZombieObject
 90
      499
 91
      502
 93
      257
310
90E312F31323822203D2031272D3022000000000000200FC000000000000284000
  0
ACAD_PROXY_OBJECT
  5
82
102
{ACAD_REACTORS
330
6F
102
}
330
6F
100
AcDbZombieObject
 90
      499
 91
      502
 93
      249
310
90D312F363422203D2031272D3022000000000000240FC000000000000284000
  0
ACAD_PROXY_OBJECT
  5
83
102
{ACAD_REACTORS
330
6F
102
}
330
6F
100
AcDbZombieObject
 90
      499
 91
      502
 93
      249
310
90D312F333222203D2031272D3022000000000000280FC000000000000284000
  0
ACAD_PROXY_OBJECT
  5
84
102
{ACAD_REACTORS
330
6F
102
}
330
6F
100
AcDbZombieObject
 90
      499
 91
      502
 93
      249
310
90D312F313622203D2031272D30220000000000002C0FC000000000000284000
  0
ACAD_PROXY_OBJECT
  5
85
102
{ACAD_REACTORS
330
6F
102
}
330
6F
100
AcDbZombieObject
 90
      499
 91
      502
 93
      249
310
90D332F333222203D2031272D30220000000000002E0FC000000000000284000
  0
ACAD_PROXY_OBJECT
  5
86
102
{ACAD_REACTORS
330
6F
102
}
330
6F
100
AcDbZombieObject
 90
      499
 91
      502
 93
      241
310
90C312F3822203D2031272D3022000000000000300FC000000000000284000
  0
ACAD_PROXY_OBJECT
  5
87
102
{ACAD_REACTORS
330
6F
102
}
330
6F
100
AcDbZombieObject
 90
      499
 91
      502
 93
      249
310
90D332F313622203D2031272D3022000000000000320FC000000000000284000
  0
ACAD_PROXY_OBJECT
  5
88
102
{ACAD_REACTORS
330
6F
102
}
330
6F
100
AcDbZombieObject
 90
      499
 91
      502
 93
      241
310
90C312F3422203D2031272D3022000000000000340FC000000000000284000
  0
ACAD_PROXY_OBJECT
  5
89
102
{ACAD_REACTORS
330
6F
102
}
330
6F
100
AcDbZombieObject
 90
      499
 91
      502
 93
      241
310
90C332F3822203D2031272D3022000000000000360FC000000000000284000
  0
ACAD_PROXY_OBJECT
  5
8A
102
{ACAD_REACTORS
330
6F
102
}
330
6F
100
AcDbZombieObject
 90
      499
 91
      502
 93
      241
310
90C312F3222203D2031272D3022000000000000380FC000000000000284000
  0
ACAD_PROXY_OBJECT
  5
8B
102
{ACAD_REACTORS
330
6F
102
}
330
6F
100
AcDbZombieObject
 90
      499
 91
      502
 93
      241
310
90C332F3422203D2031272D30220000000000003A0FC000000000000284000
  0
ACAD_PROXY_OBJECT
  5
8C
102
{ACAD_REACTORS
330
6F
102
}
330
6F
100
AcDbZombieObject
 90
      499
 91
      502
 93
      161
310
90A3122203D2031272D30224000000000000284000
  0
ACAD_PROXY_OBJECT
  5
8D
102
{ACAD_REACTORS
330
6F
102
}
330
6F
100
AcDbZombieObject
 90
      499
 91
      502
 93
      257
310
90E312D312F3222203D2031272D30220000000000003E0FC000000000000284000
  0
ACAD_PROXY_OBJECT
  5
8E
102
{ACAD_REACTORS
330
6F
102
}
330
6F
100
AcDbZombieObject
 90
      499
 91
      502
 93
      225
310
90A3322203D2031272D302200000000000002100000000000000284000
  0
ACAD_PROXY_OBJECT
  5
8F
102
{ACAD_REACTORS
330
6F
102
}
330
6F
100
AcDbZombieObject
 90
      499
 91
      502
 93
      225
310
90A3622203D2031272D302200000000000006100000000000000284000
  0
ACAD_PROXY_OBJECT
  5
90
102
{ACAD_REACTORS
330
6F
102
}
330
6F
100
AcDbZombieObject
 90
      499
 91
      502
 93
      249
310
90D31272D3022203D2031272D30220000000000000A100000000000000284000
  0
ACAD_PROXY_OBJECT
  5
2F
102
{ACAD_REACTORS
330
2A
102
}
330
2A
100
AcDbZombieObject
 90
      499
 91
      501
 93
      436
310
42CC9915DA5C99599C985B595049028333333333333E3BF0000000000000FB0107901411070040501600405405064090741402480A0340
1001
ACAD
1000
AcDbSavedByObjectVersion
1070
     0
  0
ACAD_PROXY_OBJECT
  5
31
102
{ACAD_REACTORS
330
2A
102
}
330
2A
100
AcDbZombieObject
 90
      499
 91
      501
 93
      500
310
424CD108121A5919195B90640502408333333333333E3BF0000000000000FB01079024090700405020000000000001110200405405064090740C02480A0340
1001
ACAD
1000
AcDbSavedByObjectVersion
1070
     0
  0
ACAD_PROXY_OBJECT
  5
30
102
{ACAD_REACTORS
330
2A
102
}
330
2A
100
AcDbZombieObject
 90
      499
 91
      501
 93
      436
310
42CCD915DA5C99599C985B595059028333333333333E3BF0000000000000FB0107901411070040501600405405064090741402480A0340
1001
ACAD
1000
AcDbSavedByObjectVersion
1070
     0
  0
ACAD_PROXY_OBJECT
  5
32
102
{ACAD_REACTORS
330
2A
102
}
330
2A
100
AcDbZombieObject
 90
      499
 91
      501
 93
      388
310
4150985CDA58D07406404333333333333E3BF0000000000000FB0107A41107004050150841D405064090741402480A0350
1001
ACAD
1000
AcDbSavedByObjectVersion
1070
     0
  0
ACAD_PROXY_OBJECT
  5
36
102
{ACAD_REACTORS
330
2A
102
}
330
2A
100
AcDbZombieObject
 90
      499
 91
      501
 93
      428
310
42109C9A59DA1D195B90C409028333333333333E3BF0000000000000FB010790141107004050150841D405064090741402480A029950
1001
ACAD
1000
AcDbSavedByObjectVersion
1070
     0
  0
ACAD_PROXY_OBJECT
  5
3A
102
{ACAD_REACTORS
330
2A
102
}
330
2A
100
AcDbZombieObject
 90
      499
 91
      501
 93
      452
310
42D0DBDB1BDC90DA185B99D95104090240C333333333333E3BF0000000000000FB0108901411070040501508421405064090741402480A0350
1001
ACAD
1000
AcDbSavedByObjectVersion
1070
     0
  0
ACAD_PROXY_OBJECT
  5
34
102
{ACAD_REACTORS
330
2A
102
}
330
2A
100
AcDbZombieObject
 90
      499
 91
      501
 93
      500
310
4290DBDB98D95C1D1D585B10940D028333333333333E3BF0000000000000FB0107902409070040501000000000000111010841D405064090740C02480A0340
1001
ACAD
1000
AcDbSavedByObjectVersion
1070
     0
  0
ACAD_PROXY_OBJECT
  5
35
102
{ACAD_REACTORS
330
2A
102
}
330
2A
100
AcDbZombieObject
 90
      499
 91
      501
 93
      412
310
40D11A5B50B409028333333333333E3BF0000000000000FB010790141107004050150841D405064090741402480A02677FFFFFD0
1001
ACAD
1000
AcDbSavedByObjectVersion
1070
     0
  0
ACAD_PROXY_OBJECT
  5
39
102
{ACAD_REACTORS
330
2A
102
}
330
2A
100
AcDbZombieObject
 90
      499
 91
      501
 93
      444
310
42D19858D95C185D1D195C9B90F409028333333333333E3BF0000000000000FB010790141107004050150841D405064090741402480A0350
1001
ACAD
1000
AcDbSavedByObjectVersion
1070
     0
  0
ACAD_PROXY_OBJECT
  5
2B
102
{ACAD_REACTORS
330
2A
102
}
330
2A
100
AcDbZombieObject
 90
      499
 91
      501
 93
      388
310
41119B185D240901404333333333333E3BF0000000000000F9010740A41107004050150841D405064090741402480A1B50
1001
ACAD
1000
AcDbSavedByObjectVersion
1070
     0
  0
ACAD_PROXY_OBJECT
  5
2C
102
{ACAD_REACTORS
330
2A
102
}
330
2A
100
AcDbZombieObject
 90
      499
 91
      501
 93
      476
310
43519B185D15DA5D1A115919D95CD0140901404333333333333E3BF0000000000000F9010740901411070040501600405405064090741402480A1B50
1001
ACAD
1000
AcDbSavedByObjectVersion
1070
     0
  0
ACAD_PROXY_OBJECT
  5
2D
102
{ACAD_REACTORS
330
2A
102
}
330
2A
100
AcDbZombieObject
 90
      499
 91
      501
 93
      412
310
41D1DBDD5C985D5910240902404333333333333E3BF0000000000000F9010740A411070040501641D405064090741402480A1B50
1001
ACAD
1000
AcDbSavedByObjectVersion
1070
     0
  0
ACAD_PROXY_OBJECT
  5
2E
102
{ACAD_REACTORS
330
2A
102
}
330
2A
100
AcDbZombieObject
 90
      499
 91
      501
 93
      500
310
4411DBDD5C985D5915DA5D1A115919D95CD0340902404333333333333E3BF0000000000000F9010740901411070040501600405405064090741402480A1B50
1001
ACAD
1000
AcDbSavedByObjectVersion
1070
     0
  0
ACAD_PROXY_OBJECT
  5
38
102
{ACAD_REACTORS
330
2A
102
}
330
2A
100
AcDbZombieObject
 90
      499
 91
      501
 93
      444
310
42D31A5B995C185D1D195C9B90E409028333333333333E3BF0000000000000FB010790141107004050750841D405064090741402483A0350
1001
ACAD
1000
AcDbSavedByObjectVersion
1070
     0
  0
ACAD_PROXY_OBJECT
  5
33
102
{ACAD_REACTORS
330
2A
102
}
330
2A
100
AcDbZombieObject
 90
      499
 91
      501
 93
      420
310
425499585B1A5CDD1A58D08409028333333333333E3BF0000000000000FB01079019070040501508421405064090741402480A1B40
1001
ACAD
1000
AcDbSavedByObjectVersion
1070
     0
  0
ACAD_PROXY_OBJECT
  5
37
102
{ACAD_REACTORS
330
2A
102
}
330
2A
100
AcDbZombieObject
 90
      499
 91
      501
 93
      412
310
41D51A1A58DAD95B90D409028333333333333E3BF0000000000000FB010790141107004050150C41D405064090741402480A0350
1001
ACAD
1000
AcDbSavedByObjectVersion
1070
     0
  0
DICTIONARYVAR
  5
1FC
102
{ACAD_REACTORS
330
1F9
102
}
330
1F9
100
DictionaryVariables
280
     0
  1
1:1
  0
DICTIONARYVAR
  5
1FD
102
{ACAD_REACTORS
330
1F9
102
}
330
1F9
100
DictionaryVariables
280
     0
  1
2
  0
DICTIONARYVAR
  5
1FE
102
{ACAD_REACTORS
330
1F9
102
}
330
1F9
100
DictionaryVariables
280
     0
  1
1
  0
ENDSEC
  0
EOF
