  0
SECTION
  2
HEADER
  9
$ACADVER
  1
AC1012
  9
$DWGCODEPAGE
  3
ansi_1252
  9
$INSBASE
 10
0.0
 20
0.0
 30
0.0
  9
$EXTMIN
 10
0.0
 20
0.0
 30
0.0
  9
$EXTMAX
 10
11.0
 20
8.5
 30
0.0
  9
$LIMMIN
 10
0.0
 20
0.0
  9
$LIMMAX
 10
11.0
 20
8.5
  9
$ORTHOMODE
 70
     0
  9
$REGENMODE
 70
     1
  9
$FILLMODE
 70
     1
  9
$QTEXTMODE
 70
     0
  9
$MIRRTEXT
 70
     1
  9
$DRAGMODE
 70
     2
  9
$LTSCALE
 40
1.0
  9
$OSMODE
 70
    37
  9
$ATTMODE
 70
     1
  9
$TEXTSIZE
 40
0.125
  9
$TRACEWID
 40
0.05
  9
$TEXTSTYLE
  7
STANDARD
  9
$CLAYER
  8
0
  9
$CELTYPE
  6
BYLAYER
  9
$CECOLOR
 62
   256
  9
$CELTSCALE
 40
1.0
  9
$DELOBJ
 70
     1
  9
$DISPSILH
 70
     0
  9
$DIMSCALE
 40
1.0
  9
$DIMASZ
 40
0.13
  9
$DIMEXO
 40
0.05
  9
$DIMDLI
 40
0.38
  9
$DIMRND
 40
0.0
  9
$DIMDLE
 40
0.0
  9
$DIMEXE
 40
0.125
  9
$DIMTP
 40
0.0
  9
$DIMTM
 40
0.0
  9
$DIMTXT
 40
0.125
  9
$DIMCEN
 40
0.09
  9
$DIMTSZ
 40
0.0
  9
$DIMTOL
 70
     0
  9
$DIMLIM
 70
     0
  9
$DIMTIH
 70
     1
  9
$DIMTOH
 70
     1
  9
$DIMSE1
 70
     0
  9
$DIMSE2
 70
     0
  9
$DIMTAD
 70
     0
  9
$DIMZIN
 70
     0
  9
$DIMBLK
  1

  9
$DIMASO
 70
     1
  9
$DIMSHO
 70
     1
  9
$DIMPOST
  1

  9
$DIMAPOST
  1

  9
$DIMALT
 70
     0
  9
$DIMALTD
 70
     2
  9
$DIMALTF
 40
25.4
  9
$DIMLFAC
 40
1.0
  9
$DIMTOFL
 70
     0
  9
$DIMTVP
 40
0.0
  9
$DIMTIX
 70
     0
  9
$DIMSOXD
 70
     0
  9
$DIMSAH
 70
     0
  9
$DIMBLK1
  1

  9
$DIMBLK2
  1

  9
$DIMSTYLE
  2
STANDARD
  9
$DIMCLRD
 70
     0
  9
$DIMCLRE
 70
     0
  9
$DIMCLRT
 70
     0
  9
$DIMTFAC
 40
1.0
  9
$DIMGAP
 40
0.06
  9
$DIMJUST
 70
     0
  9
$DIMSD1
 70
     0
  9
$DIMSD2
 70
     0
  9
$DIMTOLJ
 70
     1
  9
$DIMTZIN
 70
     0
  9
$DIMALTZ
 70
     0
  9
$DIMALTTZ
 70
     0
  9
$DIMFIT
 70
     3
  9
$DIMUPT
 70
     0
  9
$DIMUNIT
 70
     2
  9
$DIMDEC
 70
     3
  9
$DIMTDEC
 70
     3
  9
$DIMALTU
 70
     2
  9
$DIMALTTD
 70
     2
  9
$DIMTXSTY
  7
STANDARD
  9
$DIMAUNIT
 70
     0
  9
$LUNITS
 70
     2
  9
$LUPREC
 70
     2
  9
$SKETCHINC
 40
0.1
  9
$FILLETRAD
 40
0.5
  9
$AUNITS
 70
     0
  9
$AUPREC
 70
     2
  9
$MENU
  1
.
  9
$ELEVATION
 40
0.0
  9
$PELEVATION
 40
0.0
  9
$THICKNESS
 40
0.0
  9
$LIMCHECK
 70
     0
  9
$CHAMFERA
 40
0.5
  9
$CHAMFERB
 40
0.5
  9
$CHAMFERC
 40
1.0
  9
$CHAMFERD
 40
0.0
  9
$SKPOLY
 70
     0
  9
$TDCREATE
 40
2455784.02729081
  9
$TDUPDATE
 40
2455784.027290822
  9
$TDINDWG
 40
0.0000000116
  9
$TDUSRTIMER
 40
0.0000000116
  9
$USRTIMER
 70
     1
  9
$ANGBASE
 50
0.0
  9
$ANGDIR
 70
     0
  9
$PDMODE
 70
     0
  9
$PDSIZE
 40
-1.0
  9
$PLINEWID
 40
0.0
  9
$COORDS
 70
     1
  9
$SPLFRAME
 70
     0
  9
$SPLINETYPE
 70
     6
  9
$SPLINESEGS
 70
     8
  9
$ATTDIA
 70
     0
  9
$ATTREQ
 70
     1
  9
$HANDLING
 70
     1
  9
$HANDSEED
  5
455
  9
$SURFTAB1
 70
     6
  9
$SURFTAB2
 70
     6
  9
$SURFTYPE
 70
     6
  9
$SURFU
 70
     6
  9
$SURFV
 70
     6
  9
$UCSNAME
  2

  9
$UCSORG
 10
0.0
 20
0.0
 30
0.0
  9
$UCSXDIR
 10
1.0
 20
0.0
 30
0.0
  9
$UCSYDIR
 10
0.0
 20
1.0
 30
0.0
  9
$PUCSNAME
  2

  9
$PUCSORG
 10
0.0
 20
0.0
 30
0.0
  9
$PUCSXDIR
 10
1.0
 20
0.0
 30
0.0
  9
$PUCSYDIR
 10
0.0
 20
1.0
 30
0.0
  9
$USERI1
 70
     0
  9
$USERI2
 70
     0
  9
$USERI3
 70
     0
  9
$USERI4
 70
     0
  9
$USERI5
 70
     0
  9
$USERR1
 40
0.0
  9
$USERR2
 40
0.0
  9
$USERR3
 40
0.0
  9
$USERR4
 40
0.0
  9
$USERR5
 40
0.0
  9
$WORLDVIEW
 70
     1
  9
$SHADEDGE
 70
     3
  9
$SHADEDIF
 70
    70
  9
$TILEMODE
 70
     1
  9
$MAXACTVP
 70
    64
  9
$PINSBASE
 10
0.0
 20
0.0
 30
0.0
  9
$PLIMCHECK
 70
     0
  9
$PEXTMIN
 10
1.0000000000E+20
 20
1.0000000000E+20
 30
1.0000000000E+20
  9
$PEXTMAX
 10
-1.0000000000E+20
 20
-1.0000000000E+20
 30
-1.0000000000E+20
  9
$PLIMMIN
 10
0.0
 20
0.0
  9
$PLIMMAX
 10
12.0
 20
9.0
  9
$UNITMODE
 70
     0
  9
$VISRETAIN
 70
     1
  9
$PLINEGEN
 70
     0
  9
$PSLTSCALE
 70
     1
  9
$TREEDEPTH
 70
  3020
  9
$PICKSTYLE
 70
     1
  9
$CMLSTYLE
  2
STANDARD
  9
$CMLJUST
 70
     0
  9
$CMLSCALE
 40
1.0
  9
$SAVEIMAGES
 70
     1
  0
ENDSEC
  0
SECTION
  2
CLASSES
  0
CLASS
  1
ACDBDICTIONARYWDFLT
  2
AcDbDictionaryWithDefault
  3
ObjectDBX Classes
 90
    32768
280
     0
281
     0
  0
CLASS
  1
VISUALSTYLE
  2
AcDbVisualStyle
  3
ObjectDBX Classes
 90
     4095
280
     0
281
     0
  0
CLASS
  1
SCALE
  2
AcDbScale
  3
ObjectDBX Classes
 90
     1153
280
     0
281
     0
  0
CLASS
  1
DICTIONARYVAR
  2
AcDbDictionaryVar
  3
ObjectDBX Classes
 90
        0
280
     0
281
     0
  0
CLASS
  1
XRECORD
  2
AcDbXrecord
  3
AutoCAD 2000
 90
    32768
280
     0
281
     0
  0
CLASS
  1
LWPOLYLINE
  2
AcDbPolyline
  3
AutoCAD 2000
 90
    32768
280
     0
281
     1
  0
CLASS
  1
HATCH
  2
AcDbHatch
  3
AutoCAD 2000
 90
    32768
280
     0
281
     1
  0
CLASS
  1
ACDBPLACEHOLDER
  2
AcDbPlaceHolder
  3
ObjectDBX Classes
 90
        0
280
     0
281
     0
  0
CLASS
  1
LAYOUT
  2
AcDbLayout
  3
ObjectDBX Classes
 90
        0
280
     0
281
     0
  0
ENDSEC
  0
SECTION
  2
TABLES
  0
TABLE
  2
VPORT
  5
8
330
0
100
AcDbSymbolTable
 70
     1
  0
VPORT
  5
29
330
8
100
AcDbSymbolTableRecord
100
AcDbViewportTableRecord
  2
*ACTIVE
 70
     0
 10
0.0
 20
0.0
 11
1.0
 21
1.0
 12
5.5
 22
4.25
 13
0.0
 23
0.0
 14
0.5
 24
0.5
 15
0.5
 25
0.5
 16
0.0
 26
0.0
 36
1.0
 17
0.0
 27
0.0
 37
0.0
 40
8.5
 41
1.2941176471
 42
50.0
 43
0.0
 44
0.0
 50
0.0
 51
0.0
 71
     0
 72
  2000
 73
     1
 74
     3
 75
     0
 76
     0
 77
     0
 78
     0
  0
ENDTAB
  0
TABLE
  2
LTYPE
  5
5
330
0
100
AcDbSymbolTable
 70
     6
  0
LTYPE
  5
14
330
5
100
AcDbSymbolTableRecord
100
AcDbLinetypeTableRecord
  2
BYBLOCK
 70
     0
  3

 72
    65
 73
     0
 40
0.0
  0
LTYPE
  5
15
330
5
100
AcDbSymbolTableRecord
100
AcDbLinetypeTableRecord
  2
BYLAYER
 70
     0
  3

 72
    65
 73
     0
 40
0.0
  0
LTYPE
  5
16
330
5
100
AcDbSymbolTableRecord
100
AcDbLinetypeTableRecord
  2
CONTINUOUS
 70
     0
  3
Solid line
 72
    65
 73
     0
 40
0.0
  0
LTYPE
  5
3B
330
5
100
AcDbSymbolTableRecord
100
AcDbLinetypeTableRecord
  2
HIDDEN
 70
     0
  3
Hidden __ __ __ __ __ __ __ __ __ __ __ __ __ __
 72
    65
 73
     2
 40
0.075
 49
0.05
 74
     0
 49
-0.025
 74
     0
  0
LTYPE
  5
3C
330
5
100
AcDbSymbolTableRecord
100
AcDbLinetypeTableRecord
  2
PHANTOM
 70
     0
  3
Phantom ______  __  __  ______  __  __  ______
 72
    65
 73
     6
 40
0.5
 49
0.25
 74
     0
 49
-0.05
 74
     0
 49
0.05
 74
     0
 49
-0.05
 74
     0
 49
0.05
 74
     0
 49
-0.05
 74
     0
  0
LTYPE
  5
3D
330
5
100
AcDbSymbolTableRecord
100
AcDbLinetypeTableRecord
  2
CENTER
 70
     0
  3
Center ____ _ ____ _ ____ _ ____ _ ____ _ ____
 72
    65
 73
     4
 40
0.4
 49
0.25
 74
     0
 49
-0.05
 74
     0
 49
0.05
 74
     0
 49
-0.05
 74
     0
  0
LTYPE
  5
3E
330
5
100
AcDbSymbolTableRecord
100
AcDbLinetypeTableRecord
  2
CENTERX2
 70
     0
  3
Center (2x) ________  __  ________  __  _____
 72
    65
 73
     4
 40
0.8
 49
0.5
 74
     0
 49
-0.1
 74
     0
 49
0.1
 74
     0
 49
-0.1
 74
     0
  0
LTYPE
  5
3F
330
5
100
AcDbSymbolTableRecord
100
AcDbLinetypeTableRecord
  2
DOT2
 70
     0
  3
Dot (.5x) ........................................
 72
    65
 73
     2
 40
0.025
 49
0.0
 74
     0
 49
-0.025
 74
     0
  0
ENDTAB
  0
TABLE
  2
LAYER
  5
2
330
0
100
AcDbSymbolTable
 70
     2
  0
LAYER
  5
10
330
2
100
AcDbSymbolTableRecord
100
AcDbLayerTableRecord
  2
0
 70
     0
 62
     7
  6
CONTINUOUS
  0
LAYER
  5
40
330
2
100
AcDbSymbolTableRecord
100
AcDbLayerTableRecord
  2
FORMAT
 70
     0
 62
     7
  6
CONTINUOUS
  0
ENDTAB
  0
TABLE
  2
STYLE
  5
3
330
0
100
AcDbSymbolTable
 70
     4
  0
STYLE
  5
11
330
3
100
AcDbSymbolTableRecord
100
AcDbTextStyleTableRecord
  2
STANDARD
 70
     0
 40
0.0
 41
1.0
 50
0.0
 71
     0
 42
0.2
  3
txt
  4

  0
STYLE
  5
6E
330
3
100
AcDbSymbolTableRecord
100
AcDbTextStyleTableRecord
  2
SLDTEXTSTYLE0
 70
     0
 40
0.0
 41
0.75
 50
0.0
 71
     0
 42
0.2
  3
TXT
  4

  0
STYLE
  5
93
330
3
100
AcDbSymbolTableRecord
100
AcDbTextStyleTableRecord
  2
SLDTEXTSTYLE1
 70
     0
 40
0.0
 41
0.6875
 50
0.0
 71
     0
 42
0.2
  3
TXT
  4

  0
STYLE
  5
99
330
3
100
AcDbSymbolTableRecord
100
AcDbTextStyleTableRecord
  2
SLDTEXTSTYLE2
 70
     0
 40
0.0
 41
0.6944444444
 50
0.0
 71
     0
 42
0.2
  3
TXT
  4

  0
ENDTAB
  0
TABLE
  2
VIEW
  5
6
330
0
100
AcDbSymbolTable
 70
     0
  0
ENDTAB
  0
TABLE
  2
UCS
  5
7
330
0
100
AcDbSymbolTable
 70
     0
  0
ENDTAB
  0
TABLE
  2
APPID
  5
9
330
0
100
AcDbSymbolTable
 70
     1
  0
APPID
  5
12
330
9
100
AcDbSymbolTableRecord
100
AcDbRegAppTableRecord
  2
ACAD
 70
     0
  0
ENDTAB
  0
TABLE
  2
DIMSTYLE
  5
A
330
0
100
AcDbSymbolTable
 70
     1
  0
DIMSTYLE
105
27
330
A
100
AcDbSymbolTableRecord
100
AcDbDimStyleTableRecord
  2
STANDARD
 70
     0
  3

  4

  5

  6

  7

 40
1.0
 41
0.18
 42
0.0625
 43
0.38
 44
0.18
 45
0.0
 46
0.0
 47
0.0
 48
0.0
140
0.18
141
0.09
142
0.0
143
25.4
144
1.0
145
0.0
146
1.0
147
0.09
 71
     0
 72
     0
 73
     1
 74
     1
 75
     0
 76
     0
 77
     0
 78
     0
170
     0
171
     2
172
     0
173
     0
174
     0
175
     0
176
     0
177
     0
178
     0
270
     2
271
     4
272
     4
273
     2
274
     2
340
11
275
     0
280
     0
281
     0
282
     0
283
     1
284
     0
285
     0
286
     0
287
     3
288
     0
  0
ENDTAB
  0
TABLE
  2
BLOCK_RECORD
  5
1
330
0
100
AcDbSymbolTable
 70
     4
  0
BLOCK_RECORD
  5
1F
330
1
100
AcDbSymbolTableRecord
100
AcDbBlockTableRecord
  2
*MODEL_SPACE
  0
BLOCK_RECORD
  5
1B
330
1
100
AcDbSymbolTableRecord
100
AcDbBlockTableRecord
  2
*PAPER_SPACE
  0
BLOCK_RECORD
  5
A8
330
1
100
AcDbSymbolTableRecord
100
AcDbBlockTableRecord
  2
SW_NOTE_0
  0
BLOCK_RECORD
  5
AE
330
1
100
AcDbSymbolTableRecord
100
AcDbBlockTableRecord
  2
SW_NOTE_1
  0
BLOCK_RECORD
  5
C2
330
1
100
AcDbSymbolTableRecord
100
AcDbBlockTableRecord
  2
SW_NOTE_2
  0
ENDTAB
  0
ENDSEC
  0
SECTION
  2
BLOCKS
  0
BLOCK
  5
20
330
1F
100
AcDbEntity
  8
0
100
AcDbBlockBegin
  2
*MODEL_SPACE
 70
     0
 10
0.0
 20
0.0
 30
0.0
  3
*MODEL_SPACE
  1

  0
ENDBLK
  5
21
330
1F
100
AcDbEntity
  8
0
100
AcDbBlockEnd
  0
BLOCK
  5
1C
330
1B
100
AcDbEntity
 67
     1
  8
0
100
AcDbBlockBegin
  2
*PAPER_SPACE
 70
     0
 10
0.0
 20
0.0
 30
0.0
  3
*PAPER_SPACE
  1

  0
ENDBLK
  5
1D
330
1B
100
AcDbEntity
 67
     1
  8
0
100
AcDbBlockEnd
  0
BLOCK
  5
A9
330
A8
100
AcDbEntity
  8
0
100
AcDbBlockBegin
  2
SW_NOTE_0
 70
     0
 10
0.0
 20
0.0
 30
0.0
  3
SW_NOTE_0
  1

  0
MTEXT
  5
AB
330
A8
100
AcDbEntity
  8
0
  6
CONTINUOUS
 62
     0
100
AcDbMText
 10
0.0
 20
0.0773440644
 30
0.0
 40
0.06
 41
0.0
 71
     1
 72
     1
  1
INTERPRET GEOMETRIC
  7
SLDTEXTSTYLE0
  0
MTEXT
  5
AC
330
A8
100
AcDbEntity
  8
0
  6
CONTINUOUS
 62
     0
100
AcDbMText
 10
0.0
 20
-0.0220260102
 30
0.0
 40
0.06
 41
0.0
 71
     1
 72
     1
  1
TOLERANCING PER:
  7
SLDTEXTSTYLE0
  0
ENDBLK
  5
AA
330
A8
100
AcDbEntity
  8
0
100
AcDbBlockEnd
  0
BLOCK
  5
AF
330
AE
100
AcDbEntity
  8
0
100
AcDbBlockBegin
  2
SW_NOTE_1
 70
     0
 10
0.0
 20
0.0
 30
0.0
  3
SW_NOTE_1
  1

  0
MTEXT
  5
B1
330
AE
100
AcDbEntity
  8
0
  6
CONTINUOUS
 62
     0
100
AcDbMText
 10
0.0
 20
0.0837894031
 30
0.0
 40
0.065
 41
0.0
 71
     1
 72
     1
  1
DIMENSIONS ARE IN INCHES
  7
SLDTEXTSTYLE0
  0
MTEXT
  5
B2
330
AE
100
AcDbEntity
  8
0
  6
CONTINUOUS
 62
     0
100
AcDbMText
 10
0.0
 20
-0.0205806729
 30
0.0
 40
0.065
 41
0.0
 71
     1
 72
     1
  1
TOLERANCES:
  7
SLDTEXTSTYLE0
  0
MTEXT
  5
B3
330
AE
100
AcDbEntity
  8
0
  6
CONTINUOUS
 62
     0
100
AcDbMText
 10
0.0
 20
-0.1249507489
 30
0.0
 40
0.065
 41
0.0
 71
     1
 72
     1
  1
FRACTIONAL
  7
SLDTEXTSTYLE0
  0
MTEXT
  5
B4
330
AE
100
AcDbEntity
  8
0
  6
CONTINUOUS
 62
     0
100
AcDbMText
 10
0.5175850875
 20
-0.1249507489
 30
0.0
 40
0.065
 41
0.0
 71
     1
 72
     1
  1
%%p
  7
SLDTEXTSTYLE0
  0
MTEXT
  5
B5
330
AE
100
AcDbEntity
  8
0
  6
CONTINUOUS
 62
     0
100
AcDbMText
 10
0.0
 20
-0.2293208248
 30
0.0
 40
0.065
 41
0.0
 71
     1
 72
     1
  1
ANGULAR: MACH
  7
SLDTEXTSTYLE0
  0
MTEXT
  5
B6
330
AE
100
AcDbEntity
  8
0
  6
CONTINUOUS
 62
     0
100
AcDbMText
 10
0.7233732769
 20
-0.2293208248
 30
0.0
 40
0.065
 41
0.0
 71
     1
 72
     1
  1
%%p
  7
SLDTEXTSTYLE0
  0
MTEXT
  5
B7
330
AE
100
AcDbEntity
  8
0
  6
CONTINUOUS
 62
     0
100
AcDbMText
 10
0.7852857683
 20
-0.2293208248
 30
0.0
 40
0.065
 41
0.0
 71
     1
 72
     1
  1
     BEND 
  7
SLDTEXTSTYLE0
  0
MTEXT
  5
B8
330
AE
100
AcDbEntity
  8
0
  6
CONTINUOUS
 62
     0
100
AcDbMText
 10
1.14784136
 20
-0.2293208248
 30
0.0
 40
0.065
 41
0.0
 71
     1
 72
     1
  1
%%p
  7
SLDTEXTSTYLE0
  0
MTEXT
  5
B9
330
AE
100
AcDbEntity
  8
0
  6
CONTINUOUS
 62
     0
100
AcDbMText
 10
0.0
 20
-0.3336909008
 30
0.0
 40
0.065
 41
0.0
 71
     1
 72
     1
  1
TWO PLACE DECIMAL    
  7
SLDTEXTSTYLE0
  0
MTEXT
  5
BA
330
AE
100
AcDbEntity
  8
0
  6
CONTINUOUS
 62
     0
100
AcDbMText
 10
0.9794349188
 20
-0.3336909008
 30
0.0
 40
0.065
 41
0.0
 71
     1
 72
     1
  1
%%p
  7
SLDTEXTSTYLE0
  0
MTEXT
  5
BB
330
AE
100
AcDbEntity
  8
0
  6
CONTINUOUS
 62
     0
100
AcDbMText
 10
0.0
 20
-0.4380609768
 30
0.0
 40
0.065
 41
0.0
 71
     1
 72
     1
  1
THREE PLACE DECIMAL  
  7
SLDTEXTSTYLE0
  0
MTEXT
  5
BC
330
AE
100
AcDbEntity
  8
0
  6
CONTINUOUS
 62
     0
100
AcDbMText
 10
0.9738038639
 20
-0.4380609768
 30
0.0
 40
0.065
 41
0.0
 71
     1
 72
     1
  1
%%p
  7
SLDTEXTSTYLE0
  0
ENDBLK
  5
B0
330
AE
100
AcDbEntity
  8
0
100
AcDbBlockEnd
  0
BLOCK
  5
C3
330
C2
100
AcDbEntity
  8
0
100
AcDbBlockBegin
  2
SW_NOTE_2
 70
     0
 10
0.0
 20
0.0
 30
0.0
  3
SW_NOTE_2
  1

  0
MTEXT
  5
C5
330
C2
100
AcDbEntity
  8
0
  6
CONTINUOUS
 62
     0
100
AcDbMText
 10
0.0
 20
0.0773440644
 30
0.0
 40
0.06
 41
0.0
 71
     1
 72
     1
  1
THE INFORMATION CONTAINED IN THIS
  7
SLDTEXTSTYLE0
  0
MTEXT
  5
C6
330
C2
100
AcDbEntity
  8
0
  6
CONTINUOUS
 62
     0
100
AcDbMText
 10
0.0
 20
-0.0220260102
 30
0.0
 40
0.06
 41
0.0
 71
     1
 72
     1
  1
DRAWING IS THE SOLE PROPERTY OF
  7
SLDTEXTSTYLE0
  0
MTEXT
  5
C7
330
C2
100
AcDbEntity
  8
0
  6
CONTINUOUS
 62
     0
100
AcDbMText
 10
0.0
 20
-0.1213960848
 30
0.0
 40
0.06
 41
0.0
 71
     1
 72
     1
  1
Candy Controls.  ANY 
  7
SLDTEXTSTYLE0
  0
MTEXT
  5
C8
330
C2
100
AcDbEntity
  8
0
  6
CONTINUOUS
 62
     0
100
AcDbMText
 10
0.0
 20
-0.2207661593
 30
0.0
 40
0.06
 41
0.0
 71
     1
 72
     1
  1
REPRODUCTION IN PART OR AS A WHOLE
  7
SLDTEXTSTYLE0
  0
MTEXT
  5
C9
330
C2
100
AcDbEntity
  8
0
  6
CONTINUOUS
 62
     0
100
AcDbMText
 10
0.0
 20
-0.3201362339
 30
0.0
 40
0.06
 41
0.0
 71
     1
 72
     1
  1
WITHOUT THE WRITTEN PERMISSION OF
  7
SLDTEXTSTYLE0
  0
MTEXT
  5
CA
330
C2
100
AcDbEntity
  8
0
  6
CONTINUOUS
 62
     0
100
AcDbMText
 10
0.0
 20
-0.4195063085
 30
0.0
 40
0.06
 41
0.0
 71
     1
 72
     1
  1
Candy Controls IS 
  7
SLDTEXTSTYLE0
  0
MTEXT
  5
CB
330
C2
100
AcDbEntity
  8
0
  6
CONTINUOUS
 62
     0
100
AcDbMText
 10
0.0
 20
-0.518876383
 30
0.0
 40
0.06
 41
0.0
 71
     1
 72
     1
  1
PROHIBITED.
  7
SLDTEXTSTYLE0
  0
ENDBLK
  5
C4
330
C2
100
AcDbEntity
  8
0
100
AcDbBlockEnd
  0
ENDSEC
  0
SECTION
  2
ENTITIES
  0
LINE
  5
41
330
1F
100
AcDbEntity
  8
0
  6
CONTINUOUS
 62
     7
100
AcDbLine
 10
0.329927
 20
8.1920731707
 30
0.0
 11
10.629927
 21
8.1920731707
 31
0.0
  0
LINE
  5
42
330
1F
100
AcDbEntity
  8
0
  6
CONTINUOUS
 62
     7
100
AcDbLine
 10
0.329927
 20
8.1920731707
 30
0.0
 11
0.329927
 21
0.3920731707
 31
0.0
  0
LINE
  5
43
330
1F
100
AcDbEntity
  8
0
  6
CONTINUOUS
 62
     7
100
AcDbLine
 10
10.629927
 20
0.3920731707
 30
0.0
 11
0.329927
 21
0.3920731707
 31
0.0
  0
LINE
  5
44
330
1F
100
AcDbEntity
  8
0
  6
CONTINUOUS
 62
     7
100
AcDbLine
 10
10.629927
 20
0.3920731707
 30
0.0
 11
10.629927
 21
8.1920731707
 31
0.0
  0
LINE
  5
45
330
1F
100
AcDbEntity
  8
0
  6
CONTINUOUS
 62
     7
100
AcDbLine
 10
4.7981841288
 20
0.3920731707
 30
0.0
 11
4.7981841288
 21
2.3564211366
 31
0.0
  0
LINE
  5
46
330
1F
100
AcDbEntity
  8
0
  6
CONTINUOUS
 62
     7
100
AcDbLine
 10
2.8210345579
 20
2.3564211366
 30
0.0
 11
10.629927
 21
2.3564211366
 31
0.0
  0
LINE
  5
47
330
1F
100
AcDbEntity
  8
0
  6
CONTINUOUS
 62
     7
100
AcDbLine
 10
6.1796352514
 20
2.3564211366
 30
0.0
 11
6.1796352514
 21
0.3920731707
 31
0.0
  0
LINE
  5
48
330
1F
100
AcDbEntity
  8
0
  6
CONTINUOUS
 62
     7
100
AcDbLine
 10
7.8712070044
 20
2.3564211366
 30
0.0
 11
7.8712070044
 21
0.3920731707
 31
0.0
  0
LINE
  5
49
330
1F
100
AcDbEntity
  8
0
  6
CONTINUOUS
 62
     7
100
AcDbLine
 10
7.8712070044
 20
0.6049590101
 30
0.0
 11
10.629927
 21
0.6049590101
 31
0.0
  0
LINE
  5
4A
330
1F
100
AcDbEntity
  8
0
  6
CONTINUOUS
 62
     7
100
AcDbLine
 10
7.8712070044
 20
1.1119362457
 30
0.0
 11
10.629927
 21
1.1119362457
 31
0.0
  0
LINE
  5
4B
330
1F
100
AcDbEntity
  8
0
  6
CONTINUOUS
 62
     7
100
AcDbLine
 10
7.8712070044
 20
1.9892703708
 30
0.0
 11
10.629927
 21
1.9892703708
 31
0.0
  0
LINE
  5
4C
330
1F
100
AcDbEntity
  8
0
  6
CONTINUOUS
 62
     7
100
AcDbLine
 10
8.266751752
 20
1.1119362457
 30
0.0
 11
8.266751752
 21
0.6049590101
 31
0.0
  0
LINE
  5
4D
330
1F
100
AcDbEntity
  8
0
  6
CONTINUOUS
 62
     7
100
AcDbLine
 10
8.6943435176
 20
0.6049590101
 30
0.0
 11
8.6943435176
 21
0.3920731707
 31
0.0
  0
LINE
  5
4E
330
1F
100
AcDbEntity
  8
0
  6
CONTINUOUS
 62
     7
100
AcDbLine
 10
10.0579917045
 20
1.1119362457
 30
0.0
 11
10.0579917045
 21
0.6049590101
 31
0.0
  0
LINE
  5
4F
330
1F
100
AcDbEntity
  8
0
  6
CONTINUOUS
 62
     7
100
AcDbLine
 10
9.6662556631
 20
0.6049590101
 30
0.0
 11
9.6662556631
 21
0.3920731707
 31
0.0
  0
LINE
  5
50
330
1F
100
AcDbEntity
  8
0
  6
CONTINUOUS
 62
     7
100
AcDbLine
 10
2.8210345579
 20
0.5883479999
 30
0.0
 11
6.1796352514
 21
0.5883479999
 31
0.0
  0
LINE
  5
51
330
1F
100
AcDbEntity
  8
0
  6
CONTINUOUS
 62
     7
100
AcDbLine
 10
6.1796352514
 20
1.7939211366
 30
0.0
 11
7.8712070044
 21
1.7939211366
 31
0.0
  0
LINE
  5
52
330
1F
100
AcDbEntity
  8
0
  6
CONTINUOUS
 62
     7
100
AcDbLine
 10
6.1796352514
 20
1.9814211366
 30
0.0
 11
7.8712070044
 21
1.9814211366
 31
0.0
  0
LINE
  5
53
330
1F
100
AcDbEntity
  8
0
  6
CONTINUOUS
 62
     7
100
AcDbLine
 10
6.1796352514
 20
2.1689211366
 30
0.0
 11
7.8712070044
 21
2.1689211366
 31
0.0
  0
LINE
  5
54
330
1F
100
AcDbEntity
  8
0
  6
CONTINUOUS
 62
     7
100
AcDbLine
 10
7.8712070044
 20
1.2314211366
 30
0.0
 11
6.1796352514
 21
1.2314211366
 31
0.0
  0
LINE
  5
55
330
1F
100
AcDbEntity
  8
0
  6
CONTINUOUS
 62
     7
100
AcDbLine
 10
7.3921580388
 20
2.3564211366
 30
0.0
 11
7.3921580388
 21
1.2314211366
 31
0.0
  0
LINE
  5
56
330
1F
100
AcDbEntity
  8
0
  6
CONTINUOUS
 62
     7
100
AcDbLine
 10
6.9236308342
 20
2.3564211366
 30
0.0
 11
6.9236308342
 21
1.2314211366
 31
0.0
  0
LINE
  5
57
330
1F
100
AcDbEntity
  8
0
  6
CONTINUOUS
 62
     7
100
AcDbLine
 10
4.7981841288
 20
0.8557965305
 30
0.0
 11
6.1796352514
 21
0.8557965305
 31
0.0
  0
LINE
  5
58
330
1F
100
AcDbEntity
  8
0
  6
CONTINUOUS
 62
     7
100
AcDbLine
 10
4.7981841288
 20
1.1257965305
 30
0.0
 11
6.1796352514
 21
1.1257965305
 31
0.0
  0
LINE
  5
59
330
1F
100
AcDbEntity
  8
0
  6
CONTINUOUS
 62
     7
100
AcDbLine
 10
2.8210345579
 20
0.3920731707
 30
0.0
 11
2.8210345579
 21
2.3564211366
 31
0.0
  0
LINE
  5
5A
330
1F
100
AcDbEntity
  8
0
  6
CONTINUOUS
 62
     7
100
AcDbLine
 10
2.8210345579
 20
1.1064211366
 30
0.0
 11
4.7981841288
 21
1.1064211366
 31
0.0
  0
LINE
  5
5B
330
1F
100
AcDbEntity
  8
0
  6
CONTINUOUS
 62
     7
100
AcDbLine
 10
2.8210345579
 20
1.3564211366
 30
0.0
 11
4.7981841288
 21
1.3564211366
 31
0.0
  0
LINE
  5
5C
330
1F
100
AcDbEntity
  8
0
  6
CONTINUOUS
 62
     7
100
AcDbLine
 10
2.8210345579
 20
1.6064211366
 30
0.0
 11
4.7981841288
 21
1.6064211366
 31
0.0
  0
LINE
  5
5D
330
1F
100
AcDbEntity
  8
0
  6
CONTINUOUS
 62
     7
100
AcDbLine
 10
2.8210345579
 20
1.8564211366
 30
0.0
 11
4.7981841288
 21
1.8564211366
 31
0.0
  0
LINE
  5
5E
330
1F
100
AcDbEntity
  8
0
  6
CONTINUOUS
 62
     7
100
AcDbLine
 10
3.8190146875
 20
2.3564211366
 30
0.0
 11
3.8190146875
 21
0.5883479999
 31
0.0
  0
LINE
  5
5F
330
1F
100
AcDbEntity
  8
0
  6
CONTINUOUS
 62
     7
100
AcDbLine
 10
6.1796352514
 20
2.2020813496
 30
0.0
 11
4.7981841288
 21
2.2020813496
 31
0.0
  0
LINE
  5
60
330
1F
100
AcDbEntity
  8
0
  6
CONTINUOUS
 62
     7
100
AcDbLine
 10
7.8712070044
 20
1.6064211366
 30
0.0
 11
6.1796352514
 21
1.6064211366
 31
0.0
  0
LINE
  5
61
330
1F
100
AcDbEntity
  8
0
  6
CONTINUOUS
 62
     7
100
AcDbLine
 10
7.8712070044
 20
1.4189211366
 30
0.0
 11
6.1796352514
 21
1.4189211366
 31
0.0
  0
LINE
  5
62
330
1F
100
AcDbEntity
  8
0
  6
CONTINUOUS
 62
     7
100
AcDbLine
 10
2.8210345579
 20
2.1064211366
 30
0.0
 11
4.7981841288
 21
2.1064211366
 31
0.0
  0
LINE
  5
63
330
1F
100
AcDbEntity
  8
0
  6
CONTINUOUS
 62
     7
100
AcDbLine
 10
4.7981841288
 20
1.3957965305
 30
0.0
 11
6.1796352514
 21
1.3957965305
 31
0.0
  0
LINE
  5
64
330
1F
100
AcDbEntity
  8
0
  6
CONTINUOUS
 62
     7
100
AcDbLine
 10
2.8210345579
 20
0.8564211366
 30
0.0
 11
4.7981841288
 21
0.8564211366
 31
0.0
  0
LINE
  5
65
330
1F
100
AcDbEntity
  8
0
  6
CONTINUOUS
 62
     7
100
AcDbLine
 10
1.1838252943
 20
0.3920731707
 30
0.0
 11
1.1838252943
 21
1.3064211366
 31
0.0
  0
LINE
  5
66
330
1F
100
AcDbEntity
  8
0
  6
CONTINUOUS
 62
     7
100
AcDbLine
 10
2.8210345579
 20
1.3064211366
 30
0.0
 11
1.1838252943
 21
1.3064211366
 31
0.0
  0
LINE
  5
67
330
1F
100
AcDbEntity
  8
0
  6
CONTINUOUS
 62
     7
100
AcDbLine
 10
8.660927
 20
0.3920731707
 30
0.0
 11
8.660927
 21
0.3072739649
 31
0.0
  0
LINE
  5
68
330
1F
100
AcDbEntity
  8
0
  6
CONTINUOUS
 62
     7
100
AcDbLine
 10
6.692177
 20
0.3920731707
 30
0.0
 11
6.692177
 21
0.3072739649
 31
0.0
  0
LINE
  5
69
330
1F
100
AcDbEntity
  8
0
  6
CONTINUOUS
 62
     7
100
AcDbLine
 10
4.723427
 20
0.3920731707
 30
0.0
 11
4.723427
 21
0.3072739649
 31
0.0
  0
LINE
  5
6A
330
1F
100
AcDbEntity
  8
0
  6
CONTINUOUS
 62
     7
100
AcDbLine
 10
2.754677
 20
0.3920731707
 30
0.0
 11
2.754677
 21
0.3072739649
 31
0.0
  0
LINE
  5
6B
330
1F
100
AcDbEntity
  8
0
  6
CONTINUOUS
 62
     7
100
AcDbLine
 10
2.754677
 20
0.3920731707
 30
0.0
 11
2.7672319738
 21
0.3575
 31
0.0
  0
LINE
  5
6C
330
1F
100
AcDbEntity
  8
0
  6
CONTINUOUS
 62
     7
100
AcDbLine
 10
2.7672319738
 20
0.3575
 30
0.0
 11
2.7414258825
 21
0.3575
 31
0.0
  0
LINE
  5
6D
330
1F
100
AcDbEntity
  8
0
  6
CONTINUOUS
 62
     7
100
AcDbLine
 10
2.7414258825
 20
0.3575
 30
0.0
 11
2.754677
 21
0.3920731707
 31
0.0
  0
MTEXT
  5
91
330
1F
100
AcDbEntity
  8
0
  6
CONTINUOUS
 62
     7
100
AcDbMText
 10
4.9775846961
 20
0.5178452352
 30
0.0
 40
0.0625
 41
0.0
 71
     1
 72
     1
  1
DO NOT SCALE DRAWING
  7
SLDTEXTSTYLE0
  0
MTEXT
  5
92
330
1F
100
AcDbEntity
  8
0
  6
CONTINUOUS
 62
     7
100
AcDbMText
 10
8.9027456289
 20
0.9417064595
 30
0.0
 40
0.125
 41
0.0
 71
     1
 72
     1
  1
CL7-32
  7
SLDTEXTSTYLE0
  0
MTEXT
  5
94
330
1F
100
AcDbEntity
  8
0
  6
CONTINUOUS
 62
     7
100
AcDbMText
 10
9.7571278483
 20
0.5524239532
 30
0.0
 40
0.1
 41
0.0
 71
     1
 72
     1
  1
SHEET 1 OF 1
  7
SLDTEXTSTYLE1
  0
MTEXT
  5
95
330
1F
100
AcDbEntity
  8
0
  6
CONTINUOUS
 62
     7
100
AcDbMText
 10
4.8448077858
 20
2.3132954224
 30
0.0
 40
0.07
 41
0.0
 71
     1
 72
     1
  1
UNLESS OTHERWISE SPECIFIED:
  7
SLDTEXTSTYLE0
  0
MTEXT
  5
96
330
1F
100
AcDbEntity
  8
0
  6
CONTINUOUS
 62
     7
100
AcDbMText
 10
7.9586139647
 20
0.5520987879
 30
0.0
 40
0.1
 41
0.0
 71
     1
 72
     1
  1
SCALE: 1:1
  7
SLDTEXTSTYLE0
  0
MTEXT
  5
97
330
1F
100
AcDbEntity
  8
0
  6
CONTINUOUS
 62
     7
100
AcDbMText
 10
8.7023691647
 20
0.5486763345
 30
0.0
 40
0.1
 41
0.0
 71
     1
 72
     1
  1
WEIGHT: 
  7
SLDTEXTSTYLE0
  0
MTEXT
  5
98
330
1F
100
AcDbEntity
  8
0
  6
CONTINUOUS
 62
     7
100
AcDbMText
 10
10.2277580983
 20
1.081966299
 30
0.0
 40
0.1
 41
0.0
 71
     1
 72
     1
  1
REV
  7
SLDTEXTSTYLE0
  0
MTEXT
  5
9A
330
1F
100
AcDbEntity
  8
0
  6
CONTINUOUS
 62
     7
100
AcDbMText
 10
8.2984570898
 20
1.0858725293
 30
0.0
 40
0.1
 41
0.0
 71
     1
 72
     1
  1
DWG.  NO.
  7
SLDTEXTSTYLE2
  0
MTEXT
  5
9B
330
1F
100
AcDbEntity
  8
0
  6
CONTINUOUS
 62
     7
100
AcDbMText
 10
7.9598482632
 20
0.9442140768
 30
0.0
 40
0.25
 41
0.0
 71
     1
 72
     1
  1
A
  7
SLDTEXTSTYLE0
  0
MTEXT
  5
9C
330
1F
100
AcDbEntity
  8
0
  6
CONTINUOUS
 62
     7
100
AcDbMText
 10
7.9519581822
 20
1.0872713483
 30
0.0
 40
0.1
 41
0.0
 71
     1
 72
     1
  1
SIZE
  7
SLDTEXTSTYLE0
  0
MTEXT
  5
9D
330
1F
100
AcDbEntity
  8
0
  6
CONTINUOUS
 62
     7
100
AcDbMText
 10
7.9170704177
 20
1.9547881128
 30
0.0
 40
0.1
 41
0.0
 71
     1
 72
     1
  1
TITLE:
  7
SLDTEXTSTYLE0
  0
MTEXT
  5
9E
330
1F
100
AcDbEntity
  8
0
  6
CONTINUOUS
 62
     7
100
AcDbMText
 10
7.0363774929
 20
2.2906161274
 30
0.0
 40
0.065
 41
0.0
 71
     1
 72
     1
  1
NAME
  7
SLDTEXTSTYLE0
  0
MTEXT
  5
9F
330
1F
100
AcDbEntity
  8
0
  6
CONTINUOUS
 62
     7
100
AcDbMText
 10
7.5281510634
 20
2.2888799118
 30
0.0
 40
0.065
 41
0.0
 71
     1
 72
     1
  1
DATE
  7
SLDTEXTSTYLE0
  0
MTEXT
  5
A0
330
1F
100
AcDbEntity
  8
0
  6
CONTINUOUS
 62
     7
100
AcDbMText
 10
6.2277147029
 20
1.1876913145
 30
0.0
 40
0.065
 41
0.0
 71
     1
 72
     1
  1
COMMENTS:
  7
SLDTEXTSTYLE0
  0
MTEXT
  5
A1
330
1F
100
AcDbEntity
  8
0
  6
CONTINUOUS
 62
     7
100
AcDbMText
 10
6.2268411461
 20
1.3536101679
 30
0.0
 40
0.065
 41
0.0
 71
     1
 72
     1
  1
Q.A.
  7
SLDTEXTSTYLE0
  0
MTEXT
  5
A2
330
1F
100
AcDbEntity
  8
0
  6
CONTINUOUS
 62
     7
100
AcDbMText
 10
6.2284654509
 20
1.5395328424
 30
0.0
 40
0.065
 41
0.0
 71
     1
 72
     1
  1
MFG APPR.
  7
SLDTEXTSTYLE0
  0
MTEXT
  5
A3
330
1F
100
AcDbEntity
  8
0
  6
CONTINUOUS
 62
     7
100
AcDbMText
 10
6.2235171344
 20
1.7267501785
 30
0.0
 40
0.065
 41
0.0
 71
     1
 72
     1
  1
ENG APPR.
  7
SLDTEXTSTYLE0
  0
MTEXT
  5
A4
330
1F
100
AcDbEntity
  8
0
  6
CONTINUOUS
 62
     7
100
AcDbMText
 10
6.2264103951
 20
1.9092699088
 30
0.0
 40
0.065
 41
0.0
 71
     1
 72
     1
  1
CHECKED
  7
SLDTEXTSTYLE0
  0
MTEXT
  5
A5
330
1F
100
AcDbEntity
  8
0
  6
CONTINUOUS
 62
     7
100
AcDbMText
 10
6.2242794356
 20
2.1016301232
 30
0.0
 40
0.065
 41
0.0
 71
     1
 72
     1
  1
DRAWN
  7
SLDTEXTSTYLE0
  0
MTEXT
  5
A6
330
1F
100
AcDbEntity
  8
0
  6
CONTINUOUS
 62
     7
100
AcDbMText
 10
4.8208600979
 20
0.834523235
 30
0.0
 40
0.06
 41
0.0
 71
     1
 72
     1
  1
FINISH
  7
SLDTEXTSTYLE0
  0
MTEXT
  5
A7
330
1F
100
AcDbEntity
  8
0
  6
CONTINUOUS
 62
     7
100
AcDbMText
 10
4.8181240648
 20
1.1028217587
 30
0.0
 40
0.06
 41
0.0
 71
     1
 72
     1
  1
MATERIAL
  7
SLDTEXTSTYLE0
  0
INSERT
  5
AD
330
1F
100
AcDbEntity
  8
0
  6
CONTINUOUS
 62
     7
100
AcDbBlockReference
  2
SW_NOTE_0
 10
4.8231926633
 20
1.2646542947
 30
0.0
  0
INSERT
  5
BD
330
1F
100
AcDbEntity
  8
0
  6
CONTINUOUS
 62
     7
100
AcDbBlockReference
  2
SW_NOTE_1
 10
4.8353339353
 20
2.0049168724
 30
0.0
  0
MTEXT
  5
BE
330
1F
100
AcDbEntity
  8
0
  6
CONTINUOUS
 62
     7
100
AcDbMText
 10
3.5531400086
 20
0.5200091997
 30
0.0
 40
0.0625
 41
0.0
 71
     1
 72
     1
  1
APPLICATION
  7
SLDTEXTSTYLE0
  0
MTEXT
  5
BF
330
1F
100
AcDbEntity
  8
0
  6
CONTINUOUS
 62
     7
100
AcDbMText
 10
4.1005607758
 20
0.7502454275
 30
0.0
 40
0.0625
 41
0.0
 71
     1
 72
     1
  1
USED ON
  7
SLDTEXTSTYLE0
  0
MTEXT
  5
C0
330
1F
100
AcDbEntity
  8
0
  6
CONTINUOUS
 62
     7
100
AcDbMText
 10
3.1040019536
 20
0.7492094783
 30
0.0
 40
0.0625
 41
0.0
 71
     1
 72
     1
  1
NEXT ASSY
  7
SLDTEXTSTYLE0
  0
MTEXT
  5
C1
330
1F
100
AcDbEntity
  8
0
  6
CONTINUOUS
 62
     7
100
AcDbMText
 10
1.3712489489
 20
1.2496672684
 30
0.0
 40
0.06
 41
0.0
 71
     1
 72
     1
  1
PROPRIETARY AND CONFIDENTIAL
  7
SLDTEXTSTYLE0
  0
INSERT
  5
CC
330
1F
100
AcDbEntity
  8
0
  6
CONTINUOUS
 62
     7
100
AcDbBlockReference
  2
SW_NOTE_2
 10
1.2226209074
 20
1.0313492921
 30
0.0
  0
MTEXT
  5
CD
330
1F
100
AcDbEntity
  8
0
  6
CONTINUOUS
 62
     7
100
AcDbMText
 10
1.7387909509
 20
0.3105864247
 30
0.0
 40
0.09375
 41
0.0
 71
     1
 72
     1
  1
5
  7
SLDTEXTSTYLE0
  0
MTEXT
  5
CE
330
1F
100
AcDbEntity
  8
0
  6
CONTINUOUS
 62
     7
100
AcDbMText
 10
3.723800327
 20
0.3137237518
 30
0.0
 40
0.09375
 41
0.0
 71
     1
 72
     1
  1
4
  7
SLDTEXTSTYLE0
  0
MTEXT
  5
CF
330
1F
100
AcDbEntity
  8
0
  6
CONTINUOUS
 62
     7
100
AcDbMText
 10
5.6324457277
 20
0.3116191842
 30
0.0
 40
0.09375
 41
0.0
 71
     1
 72
     1
  1
3
  7
SLDTEXTSTYLE0
  0
MTEXT
  5
D0
330
1F
100
AcDbEntity
  8
0
  6
CONTINUOUS
 62
     7
100
AcDbMText
 10
7.6059721724
 20
0.3124391351
 30
0.0
 40
0.09375
 41
0.0
 71
     1
 72
     1
  1
2
  7
SLDTEXTSTYLE0
  0
MTEXT
  5
D1
330
1F
100
AcDbEntity
  8
0
  6
CONTINUOUS
 62
     7
100
AcDbMText
 10
9.6619921328
 20
0.301372012
 30
0.0
 40
0.09375
 41
0.0
 71
     1
 72
     1
  1
1
  7
SLDTEXTSTYLE0
  0
LINE
  5
D2
330
1F
100
AcDbEntity
  8
0
  6
CONTINUOUS
 62
     7
100
AcDbLine
 10
2.5345494892
 20
3.1267885226
 30
0.0
 11
4.1187227176
 21
3.1267885226
 31
0.0
  0
LINE
  5
D3
330
1F
100
AcDbEntity
  8
0
  6
CONTINUOUS
 62
     7
100
AcDbLine
 10
2.6790396392
 20
4.3866310423
 30
0.0
 11
2.5345494892
 21
4.3866310423
 31
0.0
  0
LINE
  5
D4
330
1F
100
AcDbEntity
  8
0
  6
CONTINUOUS
 62
     7
100
AcDbLine
 10
3.8207719227
 20
4.3866310423
 30
0.0
 11
2.8324917948
 21
4.3866310423
 31
0.0
  0
LINE
  5
D5
330
1F
100
AcDbEntity
  8
0
  6
CONTINUOUS
 62
     7
100
AcDbLine
 10
4.1187227176
 20
4.3866310423
 30
0.0
 11
3.9742240782
 21
4.3866310423
 31
0.0
  0
LINE
  5
D6
330
1F
100
AcDbEntity
  8
0
  6
CONTINUOUS
 62
     7
100
AcDbLine
 10
4.1187227176
 20
3.1267885226
 30
0.0
 11
4.1337227176
 21
3.1417885226
 31
0.0
  0
LINE
  5
D7
330
1F
100
AcDbEntity
  8
0
  6
CONTINUOUS
 62
     7
100
AcDbLine
 10
4.1337227176
 20
4.3716310423
 30
0.0
 11
4.1187227176
 21
4.3866310423
 31
0.0
  0
LINE
  5
D8
330
1F
100
AcDbEntity
  8
0
  6
CONTINUOUS
 62
     7
100
AcDbLine
 10
2.5345494892
 20
4.3866310423
 30
0.0
 11
2.5195494892
 21
4.3716310423
 31
0.0
  0
LINE
  5
D9
330
1F
100
AcDbEntity
  8
0
  6
CONTINUOUS
 62
     7
100
AcDbLine
 10
2.5195494892
 20
3.1417885226
 30
0.0
 11
2.5345494892
 21
3.1267885226
 31
0.0
  0
LINE
  5
DA
330
1F
100
AcDbEntity
  8
0
  6
CONTINUOUS
 62
     7
100
AcDbLine
 10
2.812898471
 20
4.3844631629
 30
0.0
 11
2.8107305916
 21
4.3866310423
 31
0.0
  0
LINE
  5
DB
330
1F
100
AcDbEntity
  8
0
  6
CONTINUOUS
 62
     7
100
AcDbLine
 10
2.7008093317
 20
4.3866310423
 30
0.0
 11
2.6986411809
 21
4.3844628914
 31
0.0
  0
LINE
  5
DC
330
1F
100
AcDbEntity
  8
0
  6
CONTINUOUS
 62
     7
100
AcDbLine
 10
3.9546307545
 20
4.3844631629
 30
0.0
 11
3.952462875
 21
4.3866310423
 31
0.0
  0
LINE
  5
DD
330
1F
100
AcDbEntity
  8
0
  6
CONTINUOUS
 62
     7
100
AcDbLine
 10
3.8425416152
 20
4.3866310423
 30
0.0
 11
3.8403734643
 21
4.3844628914
 31
0.0
  0
LINE
  5
DE
330
1F
100
AcDbEntity
  8
0
  6
CONTINUOUS
 62
     7
100
AcDbLine
 10
4.1187227176
 20
3.1267885226
 30
0.0
 11
4.1187227176
 21
4.3866310423
 31
0.0
  0
LINE
  5
DF
330
1F
100
AcDbEntity
  8
0
  6
CONTINUOUS
 62
     7
100
AcDbLine
 10
2.5345494892
 20
4.3866310423
 30
0.0
 11
2.5345494892
 21
3.1267885226
 31
0.0
  0
POLYLINE
  5
E0
330
1F
100
AcDbEntity
  8
0
  6
CONTINUOUS
 62
     7
100
AcDb2dPolyline
 66
     1
 10
0.0
 20
0.0
 30
0.0
  0
VERTEX
  5
202
330
E0
100
AcDbEntity
  8
0
  6
CONTINUOUS
 62
     7
100
AcDbVertex
100
AcDb2dVertex
 10
2.8324917948
 20
4.3866299975
 30
0.0
  0
VERTEX
  5
203
330
E0
100
AcDbEntity
  8
0
  6
CONTINUOUS
 62
     7
100
AcDbVertex
100
AcDb2dVertex
 10
2.8325002371
 20
4.3866310363
 30
0.0
  0
VERTEX
  5
204
330
E0
100
AcDbEntity
  8
0
  6
CONTINUOUS
 62
     7
100
AcDbVertex
100
AcDb2dVertex
 10
2.8310951018
 20
4.3864351883
 30
0.0
  0
VERTEX
  5
205
330
E0
100
AcDbEntity
  8
0
  6
CONTINUOUS
 62
     7
100
AcDbVertex
100
AcDb2dVertex
 10
2.8268764232
 20
4.3859091737
 30
0.0
  0
VERTEX
  5
206
330
E0
100
AcDbEntity
  8
0
  6
CONTINUOUS
 62
     7
100
AcDbVertex
100
AcDb2dVertex
 10
2.8198442012
 20
4.3851337553
 30
0.0
  0
VERTEX
  5
207
330
E0
100
AcDbEntity
  8
0
  6
CONTINUOUS
 62
     7
100
AcDbVertex
100
AcDb2dVertex
 10
2.8099984358
 20
4.3841831719
 30
0.0
  0
VERTEX
  5
208
330
E0
100
AcDbEntity
  8
0
  6
CONTINUOUS
 62
     7
100
AcDbVertex
100
AcDb2dVertex
 10
2.7981592935
 20
4.3832136308
 30
0.0
  0
VERTEX
  5
209
330
E0
100
AcDbEntity
  8
0
  6
CONTINUOUS
 62
     7
100
AcDbVertex
100
AcDb2dVertex
 10
2.7851682216
 20
4.3824226033
 30
0.0
  0
VERTEX
  5
20A
330
E0
100
AcDbEntity
  8
0
  6
CONTINUOUS
 62
     7
100
AcDbVertex
100
AcDb2dVertex
 10
2.7710252201
 20
4.3819086483
 30
0.0
  0
VERTEX
  5
20B
330
E0
100
AcDbEntity
  8
0
  6
CONTINUOUS
 62
     7
100
AcDbVertex
100
AcDb2dVertex
 10
2.7635217457
 20
4.3817755612
 30
0.0
  0
VERTEX
  5
20C
330
E0
100
AcDbEntity
  8
0
  6
CONTINUOUS
 62
     7
100
AcDbVertex
100
AcDb2dVertex
 10
2.755730289
 20
4.3817308024
 30
0.0
  0
VERTEX
  5
20D
330
E0
100
AcDbEntity
  8
0
  6
CONTINUOUS
 62
     7
100
AcDbVertex
100
AcDb2dVertex
 10
2.7408639095
 20
4.3819191505
 30
0.0
  0
VERTEX
  5
20E
330
E0
100
AcDbEntity
  8
0
  6
CONTINUOUS
 62
     7
100
AcDbVertex
100
AcDb2dVertex
 10
2.7263718335
 20
4.3824620581
 30
0.0
  0
VERTEX
  5
20F
330
E0
100
AcDbEntity
  8
0
  6
CONTINUOUS
 62
     7
100
AcDbVertex
100
AcDb2dVertex
 10
2.713042477
 20
4.3832576516
 30
0.0
  0
VERTEX
  5
210
330
E0
100
AcDbEntity
  8
0
  6
CONTINUOUS
 62
     7
100
AcDbVertex
100
AcDb2dVertex
 10
2.7014774544
 20
4.3841889555
 30
0.0
  0
VERTEX
  5
211
330
E0
100
AcDbEntity
  8
0
  6
CONTINUOUS
 62
     7
100
AcDbVertex
100
AcDb2dVertex
 10
2.6916474853
 20
4.3851383638
 30
0.0
  0
VERTEX
  5
212
330
E0
100
AcDbEntity
  8
0
  6
CONTINUOUS
 62
     7
100
AcDbVertex
100
AcDb2dVertex
 10
2.684631193
 20
4.3859125611
 30
0.0
  0
VERTEX
  5
213
330
E0
100
AcDbEntity
  8
0
  6
CONTINUOUS
 62
     7
100
AcDbVertex
100
AcDb2dVertex
 10
2.6804285777
 20
4.3864371159
 30
0.0
  0
VERTEX
  5
214
330
E0
100
AcDbEntity
  8
0
  6
CONTINUOUS
 62
     7
100
AcDbVertex
100
AcDb2dVertex
 10
2.6790396392
 20
4.3866310423
 30
0.0
  0
VERTEX
  5
215
330
E0
100
AcDbEntity
  8
0
  6
CONTINUOUS
 62
     7
100
AcDbVertex
100
AcDb2dVertex
 10
2.6790396392
 20
4.3866310423
 30
0.0
  0
SEQEND
  5
216
330
E0
100
AcDbEntity
  8
0
  6
CONTINUOUS
 62
     7
  0
POLYLINE
  5
E1
330
1F
100
AcDbEntity
  8
0
  6
CONTINUOUS
 62
     7
100
AcDb2dPolyline
 66
     1
 10
0.0
 20
0.0
 30
0.0
  0
VERTEX
  5
217
330
E1
100
AcDbEntity
  8
0
  6
CONTINUOUS
 62
     7
100
AcDbVertex
100
AcDb2dVertex
 10
3.9742240782
 20
4.3866299975
 30
0.0
  0
VERTEX
  5
218
330
E1
100
AcDbEntity
  8
0
  6
CONTINUOUS
 62
     7
100
AcDbVertex
100
AcDb2dVertex
 10
3.9742325205
 20
4.3866310363
 30
0.0
  0
VERTEX
  5
219
330
E1
100
AcDbEntity
  8
0
  6
CONTINUOUS
 62
     7
100
AcDbVertex
100
AcDb2dVertex
 10
3.9728273853
 20
4.3864351883
 30
0.0
  0
VERTEX
  5
21A
330
E1
100
AcDbEntity
  8
0
  6
CONTINUOUS
 62
     7
100
AcDbVertex
100
AcDb2dVertex
 10
3.9686087067
 20
4.3859091737
 30
0.0
  0
VERTEX
  5
21B
330
E1
100
AcDbEntity
  8
0
  6
CONTINUOUS
 62
     7
100
AcDbVertex
100
AcDb2dVertex
 10
3.9615764847
 20
4.3851337553
 30
0.0
  0
VERTEX
  5
21C
330
E1
100
AcDbEntity
  8
0
  6
CONTINUOUS
 62
     7
100
AcDbVertex
100
AcDb2dVertex
 10
3.9517307193
 20
4.3841831719
 30
0.0
  0
VERTEX
  5
21D
330
E1
100
AcDbEntity
  8
0
  6
CONTINUOUS
 62
     7
100
AcDbVertex
100
AcDb2dVertex
 10
3.939891577
 20
4.3832136308
 30
0.0
  0
VERTEX
  5
21E
330
E1
100
AcDbEntity
  8
0
  6
CONTINUOUS
 62
     7
100
AcDbVertex
100
AcDb2dVertex
 10
3.9269005051
 20
4.3824226033
 30
0.0
  0
VERTEX
  5
21F
330
E1
100
AcDbEntity
  8
0
  6
CONTINUOUS
 62
     7
100
AcDbVertex
100
AcDb2dVertex
 10
3.9127575036
 20
4.3819086483
 30
0.0
  0
VERTEX
  5
220
330
E1
100
AcDbEntity
  8
0
  6
CONTINUOUS
 62
     7
100
AcDbVertex
100
AcDb2dVertex
 10
3.9052540292
 20
4.3817755612
 30
0.0
  0
VERTEX
  5
221
330
E1
100
AcDbEntity
  8
0
  6
CONTINUOUS
 62
     7
100
AcDbVertex
100
AcDb2dVertex
 10
3.8974625724
 20
4.3817308024
 30
0.0
  0
VERTEX
  5
222
330
E1
100
AcDbEntity
  8
0
  6
CONTINUOUS
 62
     7
100
AcDbVertex
100
AcDb2dVertex
 10
3.8825961929
 20
4.3819191505
 30
0.0
  0
VERTEX
  5
223
330
E1
100
AcDbEntity
  8
0
  6
CONTINUOUS
 62
     7
100
AcDbVertex
100
AcDb2dVertex
 10
3.868104117
 20
4.3824620581
 30
0.0
  0
VERTEX
  5
224
330
E1
100
AcDbEntity
  8
0
  6
CONTINUOUS
 62
     7
100
AcDbVertex
100
AcDb2dVertex
 10
3.8547747605
 20
4.3832576516
 30
0.0
  0
VERTEX
  5
225
330
E1
100
AcDbEntity
  8
0
  6
CONTINUOUS
 62
     7
100
AcDbVertex
100
AcDb2dVertex
 10
3.8432097379
 20
4.3841889555
 30
0.0
  0
VERTEX
  5
226
330
E1
100
AcDbEntity
  8
0
  6
CONTINUOUS
 62
     7
100
AcDbVertex
100
AcDb2dVertex
 10
3.8333797687
 20
4.3851383638
 30
0.0
  0
VERTEX
  5
227
330
E1
100
AcDbEntity
  8
0
  6
CONTINUOUS
 62
     7
100
AcDbVertex
100
AcDb2dVertex
 10
3.8263634765
 20
4.3859125611
 30
0.0
  0
VERTEX
  5
228
330
E1
100
AcDbEntity
  8
0
  6
CONTINUOUS
 62
     7
100
AcDbVertex
100
AcDb2dVertex
 10
3.8221608611
 20
4.3864371159
 30
0.0
  0
VERTEX
  5
229
330
E1
100
AcDbEntity
  8
0
  6
CONTINUOUS
 62
     7
100
AcDbVertex
100
AcDb2dVertex
 10
3.8207719227
 20
4.3866310423
 30
0.0
  0
VERTEX
  5
22A
330
E1
100
AcDbEntity
  8
0
  6
CONTINUOUS
 62
     7
100
AcDbVertex
100
AcDb2dVertex
 10
3.8207719227
 20
4.3866310423
 30
0.0
  0
SEQEND
  5
22B
330
E1
100
AcDbEntity
  8
0
  6
CONTINUOUS
 62
     7
  0
LINE
  5
E2
330
1F
100
AcDbEntity
  8
0
  6
CONTINUOUS
 62
     7
100
AcDbLine
 10
4.1337227176
 20
4.3716310423
 30
0.0
 11
4.1337227176
 21
3.1417885226
 31
0.0
  0
LINE
  5
E3
330
1F
100
AcDbEntity
  8
0
  6
CONTINUOUS
 62
     7
100
AcDbLine
 10
2.5195494892
 20
3.1417885226
 30
0.0
 11
2.5195494892
 21
4.3716310423
 31
0.0
  0
LINE
  5
E4
330
1F
100
AcDbEntity
  8
0
  6
CONTINUOUS
 62
     7
100
AcDbLine
 10
2.8107305916
 20
4.3866310423
 30
0.0
 11
2.7008093317
 21
4.3866310423
 31
0.0
  0
LINE
  5
E5
330
1F
100
AcDbEntity
  8
0
  6
CONTINUOUS
 62
     7
100
AcDbLine
 10
3.8425416152
 20
4.3866310423
 30
0.0
 11
3.952462875
 21
4.3866310423
 31
0.0
  0
LINE
  5
E6
330
1F
100
AcDbEntity
  8
0
  6
HIDDEN
 62
     7
100
AcDbLine
 10
3.2766361034
 20
3.9685601762
 30
0.0
 11
3.2766361034
 21
3.5448593888
 31
0.0
  0
LINE
  5
E7
330
1F
100
AcDbEntity
  8
0
  6
HIDDEN
 62
     7
100
AcDbLine
 10
3.3766361034
 20
3.9685601762
 30
0.0
 11
3.3766361034
 21
3.5448593888
 31
0.0
  0
LINE
  5
E8
330
1F
100
AcDbEntity
  8
0
  6
HIDDEN
 62
     7
100
AcDbLine
 10
2.7557699617
 20
3.9425328006
 30
0.0
 11
2.7497908032
 21
3.9427002163
 31
0.0
  0
SPLINE
  5
E9
330
1F
100
AcDbEntity
  8
0
  6
HIDDEN
 62
     7
100
AcDbSpline
210
0.0
220
0.0
230
1.0
 70
     8
 71
     3
 72
    27
 73
    23
 74
     0
 42
0.00000001
 43
0.00000001
 40
0.0
 40
0.0
 40
0.0
 40
0.0
 40
0.0285686052702386
 40
0.0786902882871382
 40
0.1302332185879862
 40
0.1810606719052352
 40
0.2332377820824589
 40
0.2863829077417931
 40
0.3410238855313225
 40
0.3947992236884031
 40
0.4502751324415736
 40
0.5016657656260993
 40
0.5546541216550888
 40
0.6044174100480453
 40
0.6555433068554369
 40
0.7068959034506516
 40
0.7596079286931996
 40
0.8133063037404189
 40
0.8685774082070018
 40
0.9218343318331224
 40
0.9767849004235302
 40
1.0
 40
1.0
 40
1.0
 40
1.0
 10
2.691042534368608
 20
3.953483344475753
 30
0.0
 10
2.691002596781078
 20
3.953496462811853
 30
0.0
 10
2.690892591401171
 20
3.953532596380148
 30
0.0
 10
2.692617820068263
 20
3.95296572199368
 30
0.0
 10
2.695930933563841
 20
3.951916957947585
 30
0.0
 10
2.700908529035674
 20
3.950436830110301
 30
0.0
 10
2.707329290905987
 20
3.948701460670524
 30
0.0
 10
2.715225051657559
 20
3.946843239104991
 30
0.0
 10
2.724360420963198
 20
3.945087696073804
 30
0.0
 10
2.734578881795025
 20
3.943638297713078
 30
0.0
 10
2.74526722854421
 20
3.942723336417173
 30
0.0
 10
2.756223783228788
 20
3.942428984079839
 30
0.0
 10
2.76678138576375
 20
3.942761617726462
 30
0.0
 10
2.776987908240971
 20
3.943655855794014
 30
0.0
 10
2.786506650917251
 20
3.944984381899724
 30
0.0
 10
2.795371183157211
 20
3.946646214095811
 30
0.0
 10
2.803315741138812
 20
3.948474424644056
 30
0.0
 10
2.810135790123215
 20
3.950292292245037
 30
0.0
 10
2.815470786098085
 20
3.95187290941918
 30
0.0
 10
2.819027411804379
 20
3.952999032723753
 30
0.0
 10
2.820719415266756
 20
3.953556458464391
 30
0.0
 10
2.820567398470883
 20
3.953506393749837
 30
0.0
 10
2.820522249684513
 20
3.953491524596142
 30
0.0
  0
SPLINE
  5
EA
330
1F
100
AcDbEntity
  8
0
  6
HIDDEN
 62
     7
100
AcDbSpline
210
0.0
220
0.0
230
1.0
 70
     8
 71
     3
 72
    60
 73
    56
 74
     0
 42
0.00000001
 43
0.00000001
 40
-0.03125
 40
-0.03125
 40
0.0
 40
0.0
 40
0.0312500000000002
 40
0.0312500000000002
 40
0.0625000000000005
 40
0.0625000000000005
 40
0.0937500000000007
 40
0.0937500000000007
 40
0.1250000000000009
 40
0.1250000000000009
 40
0.1875000000000006
 40
0.1875000000000006
 40
0.2187500000000004
 40
0.2187500000000004
 40
0.2500000000000002
 40
0.2500000000000002
 40
0.2812500000000001
 40
0.2812500000000001
 40
0.3124999999999999
 40
0.3124999999999999
 40
0.3749999999999996
 40
0.3749999999999996
 40
0.4062499999999997
 40
0.4062499999999997
 40
0.4374999999999998
 40
0.4374999999999998
 40
0.4687499999999998
 40
0.4687499999999998
 40
0.4999999999999999
 40
0.4999999999999999
 40
0.5625
 40
0.5625
 40
0.59375
 40
0.59375
 40
0.625
 40
0.625
 40
0.6874999999999999
 40
0.6874999999999999
 40
0.7187499999999999
 40
0.7187499999999999
 40
0.7499999999999999
 40
0.7499999999999999
 40
0.78125
 40
0.78125
 40
0.8125
 40
0.8125
 40
0.875
 40
0.875
 40
0.90625
 40
0.90625
 40
0.9375
 40
0.9375
 40
0.96875
 40
0.96875
 40
1.0
 40
1.0
 40
1.03125
 40
1.03125
 10
2.690809331731009
 20
3.752385548745584
 30
0.0
 10
2.690809331731009
 20
3.761034016164494
 30
0.0
 10
2.691236751148701
 20
3.765280179888987
 30
0.0
 10
2.692905988515302
 20
3.773624505376458
 30
0.0
 10
2.69416985355292
 20
3.77776707804138
 30
0.0
 10
2.697442379081821
 20
3.785621304842308
 30
0.0
 10
2.699440517128267
 20
3.789341367102585
 30
0.0
 10
2.704155171541176
 20
3.796380175429906
 30
0.0
 10
2.706876989508281
 20
3.799687025521288
 30
0.0
 10
2.715800337990885
 20
3.808604324091514
 30
0.0
 10
2.722993046978293
 20
3.813428264439666
 30
0.0
 10
2.734696015905001
 20
3.818302229021259
 30
0.0
 10
2.738820470680403
 20
3.819566283328144
 30
0.0
 10
2.747219262585912
 20
3.821247449686607
 30
0.0
 10
2.751454275434784
 20
3.821667430962376
 30
0.0
 10
2.759995422563369
 20
3.821673362461218
 30
0.0
 10
2.764333989381571
 20
3.821244281510312
 30
0.0
 10
2.772691474256878
 20
3.819572383025134
 30
0.0
 10
2.77675627510763
 20
3.81833584228878
 30
0.0
 10
2.788610758632198
 20
3.813407385109264
 30
0.0
 10
2.795727371005454
 20
3.808621429773134
 30
0.0
 10
2.804697323758945
 20
3.799650197444666
 30
0.0
 10
2.807366348876159
 20
3.796402852034723
 30
0.0
 10
2.812072302911088
 20
3.789386583338704
 30
0.0
 10
2.81411400111585
 20
3.785585444213675
 30
0.0
 10
2.817370146251117
 20
3.777763239185819
 30
0.0
 10
2.818613193159049
 20
3.773709592646398
 30
0.0
 10
2.820302321285844
 20
3.765302794318173
 30
0.0
 10
2.820728864179654
 20
3.7609959183022
 30
0.0
 10
2.82073403043709
 20
3.748216293191446
 30
0.0
 10
2.819013309958215
 20
3.73961463142222
 30
0.0
 10
2.814124969804189
 20
3.727855026748914
 30
0.0
 10
2.812084418389277
 20
3.724053896712241
 30
0.0
 10
2.807381364081653
 20
3.717036264202894
 30
0.0
 10
2.804710117794453
 20
3.713782668613889
 30
0.0
 10
2.795713380691382
 20
3.704783133227747
 30
0.0
 10
2.788629360969884
 20
3.700023832111111
 30
0.0
 10
2.776784972218123
 20
3.695093703520888
 30
0.0
 10
2.772726870082618
 20
3.693857412394058
 30
0.0
 10
2.764390628848851
 20
3.692183498950691
 30
0.0
 10
2.760058076180557
 20
3.691749604083867
 30
0.0
 10
2.75149553911454
 20
3.691748701705169
 30
0.0
 10
2.747256874789592
 20
3.692167380786245
 30
0.0
 10
2.738864042676785
 20
3.693841792470455
 30
0.0
 10
2.734728361253146
 20
3.69510555451704
 30
0.0
 10
2.722994411704829
 20
3.699987367175758
 30
0.0
 10
2.715806279178253
 20
3.704808884881289
 30
0.0
 10
2.706871594147583
 20
3.71373814056573
 30
0.0
 10
2.7041438659145
 20
3.71705514612057
 30
0.0
 10
2.699441127051482
 20
3.724078412020113
 30
0.0
 10
2.697444869246878
 20
3.727793378202017
 30
0.0
 10
2.694172306304557
 20
3.735645507136719
 30
0.0
 10
2.692907219056601
 20
3.739790214397813
 30
0.0
 10
2.691237054433263
 20
3.748136563937149
 30
0.0
 10
2.690809331731009
 20
3.752385548745584
 30
0.0
 10
2.690809331731009
 20
3.761034016164494
 30
0.0
  0
LINE
  5
EB
330
1F
100
AcDbEntity
  8
0
  6
HIDDEN
 62
     7
100
AcDbLine
 10
3.8975022451
 20
3.9425328006
 30
0.0
 11
3.8915230867
 21
3.9427002163
 31
0.0
  0
SPLINE
  5
EC
330
1F
100
AcDbEntity
  8
0
  6
HIDDEN
 62
     7
100
AcDbSpline
210
0.0
220
0.0
230
1.0
 70
     8
 71
     3
 72
    27
 73
    23
 74
     0
 42
0.00000001
 43
0.00000001
 40
0.0
 40
0.0
 40
0.0
 40
0.0
 40
0.0285686052702387
 40
0.0786902882871381
 40
0.1302332185879862
 40
0.1810606719052351
 40
0.2332377820824587
 40
0.2863829077417928
 40
0.341023885531322
 40
0.3947992236884026
 40
0.4502751324415735
 40
0.5016657656260992
 40
0.5546541216550888
 40
0.6044174100480453
 40
0.6555433068554368
 40
0.7068959034506519
 40
0.7596079286932002
 40
0.8133063037404196
 40
0.8685774082070021
 40
0.9218343318331225
 40
0.9767849004235301
 40
1.0
 40
1.0
 40
1.0
 40
1.0
 10
3.832774817833175
 20
3.953483344475753
 30
0.0
 10
3.832734880245645
 20
3.953496462811853
 30
0.0
 10
3.832624874865737
 20
3.953532596380148
 30
0.0
 10
3.83435010353283
 20
3.95296572199368
 30
0.0
 10
3.837663217028408
 20
3.951916957947585
 30
0.0
 10
3.842640812500241
 20
3.950436830110301
 30
0.0
 10
3.849061574370554
 20
3.948701460670524
 30
0.0
 10
3.856957335122126
 20
3.946843239104991
 30
0.0
 10
3.866092704427765
 20
3.945087696073804
 30
0.0
 10
3.876311165259592
 20
3.943638297713078
 30
0.0
 10
3.886999512008777
 20
3.942723336417173
 30
0.0
 10
3.897956066693356
 20
3.942428984079839
 30
0.0
 10
3.908513669228317
 20
3.942761617726462
 30
0.0
 10
3.918720191705539
 20
3.943655855794014
 30
0.0
 10
3.928238934381818
 20
3.944984381899724
 30
0.0
 10
3.937103466621778
 20
3.946646214095811
 30
0.0
 10
3.945048024603379
 20
3.948474424644056
 30
0.0
 10
3.951868073587782
 20
3.950292292245037
 30
0.0
 10
3.957203069562652
 20
3.95187290941918
 30
0.0
 10
3.960759695268946
 20
3.952999032723753
 30
0.0
 10
3.962451698731324
 20
3.953556458464391
 30
0.0
 10
3.962299681935449
 20
3.953506393749837
 30
0.0
 10
3.96225453314908
 20
3.953491524596142
 30
0.0
  0
SPLINE
  5
ED
330
1F
100
AcDbEntity
  8
0
  6
HIDDEN
 62
     7
100
AcDbSpline
210
0.0
220
0.0
230
1.0
 70
     8
 71
     3
 72
    60
 73
    56
 74
     0
 42
0.00000001
 43
0.00000001
 40
-0.03125
 40
-0.03125
 40
0.0
 40
0.0
 40
0.0312499999999997
 40
0.0312499999999997
 40
0.0624999999999995
 40
0.0624999999999995
 40
0.0937499999999992
 40
0.0937499999999992
 40
0.124999999999999
 40
0.124999999999999
 40
0.1874999999999985
 40
0.1874999999999985
 40
0.2187499999999983
 40
0.2187499999999983
 40
0.2499999999999981
 40
0.2499999999999981
 40
0.2812499999999979
 40
0.2812499999999979
 40
0.3124999999999977
 40
0.3124999999999977
 40
0.3749999999999973
 40
0.3749999999999973
 40
0.4062499999999975
 40
0.4062499999999975
 40
0.4374999999999977
 40
0.4374999999999977
 40
0.468749999999998
 40
0.468749999999998
 40
0.4999999999999982
 40
0.4999999999999982
 40
0.5624999999999987
 40
0.5624999999999987
 40
0.5937499999999991
 40
0.5937499999999991
 40
0.6249999999999994
 40
0.6249999999999994
 40
0.6874999999999998
 40
0.6874999999999998
 40
0.7187499999999998
 40
0.7187499999999998
 40
0.7499999999999999
 40
0.7499999999999999
 40
0.78125
 40
0.78125
 40
0.8125
 40
0.8125
 40
0.8750000000000002
 40
0.8750000000000002
 40
0.9062500000000001
 40
0.9062500000000001
 40
0.9375000000000001
 40
0.9375000000000001
 40
0.96875
 40
0.96875
 40
1.0
 40
1.0
 40
1.03125
 40
1.03125
 10
3.832541615195577
 20
3.752385548745584
 30
0.0
 10
3.832541615195576
 20
3.761034016164494
 30
0.0
 10
3.832969034613268
 20
3.765280179888987
 30
0.0
 10
3.83463827197987
 20
3.773624505376458
 30
0.0
 10
3.835902137017487
 20
3.77776707804138
 30
0.0
 10
3.839174662546388
 20
3.785621304842308
 30
0.0
 10
3.841172800592834
 20
3.789341367102585
 30
0.0
 10
3.845887455005742
 20
3.796380175429906
 30
0.0
 10
3.848609272972848
 20
3.799687025521288
 30
0.0
 10
3.857532621455453
 20
3.808604324091514
 30
0.0
 10
3.86472533044286
 20
3.813428264439666
 30
0.0
 10
3.876428299369568
 20
3.818302229021259
 30
0.0
 10
3.880552754144969
 20
3.819566283328144
 30
0.0
 10
3.888951546050478
 20
3.821247449686607
 30
0.0
 10
3.893186558899352
 20
3.821667430962376
 30
0.0
 10
3.901727706027936
 20
3.821673362461218
 30
0.0
 10
3.906066272846139
 20
3.821244281510312
 30
0.0
 10
3.914423757721445
 20
3.819572383025134
 30
0.0
 10
3.918488558572197
 20
3.81833584228878
 30
0.0
 10
3.930343042096765
 20
3.813407385109264
 30
0.0
 10
3.93745965447002
 20
3.808621429773134
 30
0.0
 10
3.946429607223513
 20
3.799650197444666
 30
0.0
 10
3.949098632340726
 20
3.796402852034723
 30
0.0
 10
3.953804586375655
 20
3.789386583338704
 30
0.0
 10
3.955846284580416
 20
3.785585444213675
 30
0.0
 10
3.959102429715684
 20
3.777763239185819
 30
0.0
 10
3.960345476623616
 20
3.773709592646399
 30
0.0
 10
3.962034604750411
 20
3.765302794318173
 30
0.0
 10
3.962461147644221
 20
3.7609959183022
 30
0.0
 10
3.962466313901658
 20
3.748216293191446
 30
0.0
 10
3.960745593422783
 20
3.739614631422221
 30
0.0
 10
3.955857253268756
 20
3.727855026748914
 30
0.0
 10
3.953816701853845
 20
3.724053896712241
 30
0.0
 10
3.94911364754622
 20
3.717036264202894
 30
0.0
 10
3.94644240125902
 20
3.713782668613889
 30
0.0
 10
3.93744566415595
 20
3.704783133227747
 30
0.0
 10
3.930361644434452
 20
3.700023832111111
 30
0.0
 10
3.91851725568269
 20
3.695093703520888
 30
0.0
 10
3.914459153547185
 20
3.693857412394058
 30
0.0
 10
3.906122912313418
 20
3.692183498950691
 30
0.0
 10
3.901790359645124
 20
3.691749604083867
 30
0.0
 10
3.893227822579107
 20
3.691748701705169
 30
0.0
 10
3.88898915825416
 20
3.692167380786245
 30
0.0
 10
3.880596326141352
 20
3.693841792470455
 30
0.0
 10
3.876460644717713
 20
3.69510555451704
 30
0.0
 10
3.864726695169396
 20
3.699987367175758
 30
0.0
 10
3.85753856264282
 20
3.704808884881289
 30
0.0
 10
3.84860387761215
 20
3.71373814056573
 30
0.0
 10
3.845876149379067
 20
3.71705514612057
 30
0.0
 10
3.841173410516048
 20
3.724078412020113
 30
0.0
 10
3.839177152711446
 20
3.727793378202017
 30
0.0
 10
3.835904589769124
 20
3.735645507136719
 30
0.0
 10
3.834639502521168
 20
3.739790214397813
 30
0.0
 10
3.83296933789783
 20
3.748136563937149
 30
0.0
 10
3.832541615195577
 20
3.752385548745584
 30
0.0
 10
3.832541615195576
 20
3.761034016164494
 30
0.0
  0
SPLINE
  5
EE
330
1F
100
AcDbEntity
  8
0
  6
HIDDEN
 62
     7
100
AcDbSpline
210
0.0
220
0.0
230
1.0
 70
     8
 71
     3
 72
    24
 73
    20
 74
     0
 42
0.00000001
 43
0.00000001
 40
0.0
 40
0.0
 40
0.0
 40
0.0
 40
0.024550135646272
 40
0.051029754699623
 40
0.0794426653359044
 40
0.1097918845932898
 40
0.1420798229681168
 40
0.1763084172973479
 40
0.2124792283247704
 40
0.2505935136080301
 40
0.3480123520234581
 40
0.4314102709433154
 40
0.5007944262184801
 40
0.6098238075314397
 40
0.7500138443487716
 40
0.8471299876408647
 40
0.9304495499481672
 40
0.999981167873699
 40
1.0
 40
1.0
 40
1.0
 40
1.0
 10
2.690809331731009
 20
4.373067283679597
 30
0.0
 10
2.690846595833712
 20
4.373059490071736
 30
0.0
 10
2.690924052758899
 20
4.373043290328357
 30
0.0
 10
2.691586145741798
 20
4.372923769406029
 30
0.0
 10
2.692754702283537
 20
4.372736468641972
 30
0.0
 10
2.694563702157406
 20
4.372472766116824
 30
0.0
 10
2.697091789931449
 20
4.372135428804089
 30
0.0
 10
2.700425910518767
 20
4.371722507058045
 30
0.0
 10
2.704639718258399
 20
4.371238950501263
 30
0.0
 10
2.712357803042186
 20
4.370377728186877
 30
0.0
 10
2.724513719757609
 20
4.36933266476333
 30
0.0
 10
2.740633326195001
 20
4.36850475523841
 30
0.0
 10
2.758422921897052
 20
4.368112764166367
 30
0.0
 10
2.780157287070486
 20
4.368821640256566
 30
0.0
 10
2.800671997960002
 20
4.370455909130874
 30
0.0
 10
2.813689754209992
 20
4.372019026757639
 30
0.0
 10
2.819576340677214
 20
4.372834528446728
 30
0.0
 10
2.82072551373609
 20
4.373066885954518
 30
0.0
 10
2.820730554515635
 20
4.37306727804348
 30
0.0
 10
2.820730555880523
 20
4.373067278149646
 30
0.0
  0
SPLINE
  5
EF
330
1F
100
AcDbEntity
  8
0
  6
HIDDEN
 62
     7
100
AcDbSpline
210
0.0
220
0.0
230
1.0
 70
     8
 71
     3
 72
    24
 73
    20
 74
     0
 42
0.00000001
 43
0.00000001
 40
0.0
 40
0.0
 40
0.0
 40
0.0
 40
0.0245501356463526
 40
0.0510297546997614
 40
0.079442665336077
 40
0.1097918845934736
 40
0.1420798229682886
 40
0.1763084172974847
 40
0.2124792283248484
 40
0.2505935136080269
 40
0.3480123520232895
 40
0.4314102709431458
 40
0.5007944262184744
 40
0.6098238075316148
 40
0.7500138443487631
 40
0.8471299876406916
 40
0.9304495499479929
 40
0.9999811678736881
 40
1.0
 40
1.0
 40
1.0
 40
1.0
 10
3.832541615195576
 20
4.373067283679597
 30
0.0
 10
3.83257887929828
 20
4.373059490071736
 30
0.0
 10
3.832656336223467
 20
4.373043290328357
 30
0.0
 10
3.833318429206369
 20
4.372923769406029
 30
0.0
 10
3.834486985748113
 20
4.372736468641972
 30
0.0
 10
3.836295985621986
 20
4.372472766116824
 30
0.0
 10
3.838824073396031
 20
4.37213542880409
 30
0.0
 10
3.842158193983348
 20
4.371722507058045
 30
0.0
 10
3.846372001722976
 20
4.371238950501263
 30
0.0
 10
3.85409008650675
 20
4.370377728186876
 30
0.0
 10
3.866246003222157
 20
4.369332664763329
 30
0.0
 10
3.882365609659545
 20
4.368504755238409
 30
0.0
 10
3.900155205361619
 20
4.368112764166368
 30
0.0
 10
3.921889570535073
 20
4.368821640256559
 30
0.0
 10
3.942404281424541
 20
4.370455909130895
 30
0.0
 10
3.955422037674607
 20
4.372019026757592
 30
0.0
 10
3.9613086241416
 20
4.372834528446872
 30
0.0
 10
3.962457797200975
 20
4.37306688595426
 30
0.0
 10
3.962462837980202
 20
4.37306727804348
 30
0.0
 10
3.96246283934509
 20
4.373067278149646
 30
0.0
  0
CIRCLE
  5
F0
330
1F
100
AcDbEntity
  8
0
  6
HIDDEN
 62
     7
100
AcDbCircle
 10
3.8975022451
 20
3.7567097825
 30
0.0
 40
0.0549606299212595
  0
POLYLINE
  5
F1
330
1F
100
AcDbEntity
  8
0
  6
HIDDEN
 62
     7
100
AcDb2dPolyline
 66
     1
 10
0.0
 20
0.0
 30
0.0
  0
VERTEX
  5
22C
330
F1
100
AcDbEntity
  8
0
  6
HIDDEN
 62
     7
100
AcDbVertex
100
AcDb2dVertex
 10
3.962462875
 20
3.7567097825
 30
0.0
  0
VERTEX
  5
22D
330
F1
100
AcDbEntity
  8
0
  6
HIDDEN
 62
     7
100
AcDbVertex
100
AcDb2dVertex
 10
3.9616216519
 20
3.7462893646
 30
0.0
  0
VERTEX
  5
22E
330
F1
100
AcDbEntity
  8
0
  6
HIDDEN
 62
     7
100
AcDbVertex
100
AcDb2dVertex
 10
3.9594294436
 20
3.737090773
 30
0.0
  0
SEQEND
  5
22F
330
F1
100
AcDbEntity
  8
0
  6
HIDDEN
 62
     7
  0
ARC
  5
F2
330
1F
100
AcDbEntity
  8
0
  6
HIDDEN
 62
     7
100
AcDbCircle
 10
3.8975022451
 20
3.7567097825
 30
0.0
 40
0.0649606299212598
100
AcDbArc
 50
178.3529932698
 51
194.5320185835
  0
LINE
  5
F3
330
1F
100
AcDbEntity
  8
0
  6
HIDDEN
 62
     7
100
AcDbLine
 10
3.9624552492
 20
3.7577051186
 30
0.0
 11
3.962462875
 21
3.7567097825
 31
0.0
  0
LINE
  5
F4
330
1F
100
AcDbEntity
  8
0
  6
HIDDEN
 62
     7
100
AcDbLine
 10
3.8975022451
 20
3.7147100387
 30
0.0
 11
3.8611294001
 21
3.7357099106
 31
0.0
  0
LINE
  5
F5
330
1F
100
AcDbEntity
  8
0
  6
HIDDEN
 62
     7
100
AcDbLine
 10
3.8611294001
 20
3.7777096543
 30
0.0
 11
3.8975022451
 21
3.7987095262
 31
0.0
  0
LINE
  5
F6
330
1F
100
AcDbEntity
  8
0
  6
HIDDEN
 62
     7
100
AcDbLine
 10
3.8975022451
 20
3.7987095262
 30
0.0
 11
3.9338750902
 21
3.7777096543
 31
0.0
  0
LINE
  5
F7
330
1F
100
AcDbEntity
  8
0
  6
HIDDEN
 62
     7
100
AcDbLine
 10
3.9338750902
 20
3.7777096543
 30
0.0
 11
3.9338750902
 21
3.7357099106
 31
0.0
  0
LINE
  5
F8
330
1F
100
AcDbEntity
  8
0
  6
HIDDEN
 62
     7
100
AcDbLine
 10
3.8611294001
 20
3.7357099106
 30
0.0
 11
3.8611294001
 21
3.7777096543
 31
0.0
  0
LINE
  5
F9
330
1F
100
AcDbEntity
  8
0
  6
HIDDEN
 62
     7
100
AcDbLine
 10
3.9338750902
 20
3.7357099106
 30
0.0
 11
3.8975022451
 21
3.7147100387
 31
0.0
  0
CIRCLE
  5
FA
330
1F
100
AcDbEntity
  8
0
  6
HIDDEN
 62
     7
100
AcDbCircle
 10
2.7557699617
 20
3.7567097825
 30
0.0
 40
0.0549606299212595
  0
LINE
  5
FB
330
1F
100
AcDbEntity
  8
0
  6
HIDDEN
 62
     7
100
AcDbLine
 10
2.7921428067
 20
3.7777096543
 30
0.0
 11
2.7557699617
 21
3.7987095262
 31
0.0
  0
LINE
  5
FC
330
1F
100
AcDbEntity
  8
0
  6
HIDDEN
 62
     7
100
AcDbLine
 10
2.7557699617
 20
3.7987095262
 30
0.0
 11
2.7193971166
 21
3.7777096543
 31
0.0
  0
LINE
  5
FD
330
1F
100
AcDbEntity
  8
0
  6
HIDDEN
 62
     7
100
AcDbLine
 10
2.7193971166
 20
3.7777096543
 30
0.0
 11
2.7193971166
 21
3.7357099106
 31
0.0
  0
LINE
  5
FE
330
1F
100
AcDbEntity
  8
0
  6
HIDDEN
 62
     7
100
AcDbLine
 10
2.7921428067
 20
3.7357099106
 30
0.0
 11
2.7921428067
 21
3.7777096543
 31
0.0
  0
LINE
  5
FF
330
1F
100
AcDbEntity
  8
0
  6
HIDDEN
 62
     7
100
AcDbLine
 10
2.7193971166
 20
3.7357099106
 30
0.0
 11
2.7557699617
 21
3.7147100387
 31
0.0
  0
LINE
  5
100
330
1F
100
AcDbEntity
  8
0
  6
HIDDEN
 62
     7
100
AcDbLine
 10
2.7557699617
 20
3.7147100387
 30
0.0
 11
2.7921428067
 21
3.7357099106
 31
0.0
  0
LINE
  5
101
330
1F
100
AcDbEntity
  8
0
  6
HIDDEN
 62
     7
100
AcDbLine
 10
2.6908093317
 20
4.3766310423
 30
0.0
 11
2.8207305916
 21
4.3766310423
 31
0.0
  0
LINE
  5
102
330
1F
100
AcDbEntity
  8
0
  6
HIDDEN
 62
     7
100
AcDbLine
 10
2.8207305916
 20
3.9635601762
 30
0.0
 11
2.6908093317
 21
3.9635601762
 31
0.0
  0
LINE
  5
103
330
1F
100
AcDbEntity
  8
0
  6
HIDDEN
 62
     7
100
AcDbLine
 10
2.7008093317
 20
3.9535601762
 30
0.0
 11
2.8107305916
 21
3.9535601762
 31
0.0
  0
LINE
  5
104
330
1F
100
AcDbEntity
  8
0
  6
HIDDEN
 62
     7
100
AcDbLine
 10
2.7557699617
 20
4.3366310423
 30
0.0
 11
2.7557699617
 21
4.3866310423
 31
0.0
  0
LINE
  5
105
330
1F
100
AcDbEntity
  8
0
  6
HIDDEN
 62
     7
100
AcDbLine
 10
2.7921428067
 20
4.3366310423
 30
0.0
 11
2.7557699617
 21
4.3366310423
 31
0.0
  0
LINE
  5
106
330
1F
100
AcDbEntity
  8
0
  6
HIDDEN
 62
     7
100
AcDbLine
 10
2.7557699617
 20
4.3366310423
 30
0.0
 11
2.7193971166
 21
4.3366310423
 31
0.0
  0
LINE
  5
107
330
1F
100
AcDbEntity
  8
0
  6
HIDDEN
 62
     7
100
AcDbLine
 10
2.7193971166
 20
4.3366310423
 30
0.0
 11
2.7193971166
 21
4.3866310423
 31
0.0
  0
LINE
  5
108
330
1F
100
AcDbEntity
  8
0
  6
HIDDEN
 62
     7
100
AcDbLine
 10
2.7921428067
 20
4.3366310423
 30
0.0
 11
2.7921428067
 21
4.3866310423
 31
0.0
  0
LINE
  5
109
330
1F
100
AcDbEntity
  8
0
  6
HIDDEN
 62
     7
100
AcDbLine
 10
3.962462875
 20
4.3766310423
 30
0.0
 11
3.8325416152
 21
4.3766310423
 31
0.0
  0
LINE
  5
10A
330
1F
100
AcDbEntity
  8
0
  6
HIDDEN
 62
     7
100
AcDbLine
 10
3.8325416152
 20
3.9635601762
 30
0.0
 11
3.962462875
 21
3.9635601762
 31
0.0
  0
LINE
  5
10B
330
1F
100
AcDbEntity
  8
0
  6
HIDDEN
 62
     7
100
AcDbLine
 10
3.952462875
 20
3.9535601762
 30
0.0
 11
3.8425416152
 21
3.9535601762
 31
0.0
  0
LINE
  5
10C
330
1F
100
AcDbEntity
  8
0
  6
HIDDEN
 62
     7
100
AcDbLine
 10
3.8975022451
 20
4.3366310423
 30
0.0
 11
3.8975022451
 21
4.3866310423
 31
0.0
  0
LINE
  5
10D
330
1F
100
AcDbEntity
  8
0
  6
HIDDEN
 62
     7
100
AcDbLine
 10
3.8611294001
 20
4.3366310423
 30
0.0
 11
3.8975022451
 21
4.3366310423
 31
0.0
  0
LINE
  5
10E
330
1F
100
AcDbEntity
  8
0
  6
HIDDEN
 62
     7
100
AcDbLine
 10
3.8975022451
 20
4.3366310423
 30
0.0
 11
3.9338750902
 21
4.3366310423
 31
0.0
  0
LINE
  5
10F
330
1F
100
AcDbEntity
  8
0
  6
HIDDEN
 62
     7
100
AcDbLine
 10
3.9338750902
 20
4.3366310423
 30
0.0
 11
3.9338750902
 21
4.3866310423
 31
0.0
  0
LINE
  5
110
330
1F
100
AcDbEntity
  8
0
  6
HIDDEN
 62
     7
100
AcDbLine
 10
3.8611294001
 20
4.3366310423
 30
0.0
 11
3.8611294001
 21
4.3866310423
 31
0.0
  0
LINE
  5
111
330
1F
100
AcDbEntity
  8
0
  6
HIDDEN
 62
     7
100
AcDbLine
 10
2.5195494892
 20
3.5448593888
 30
0.0
 11
2.5345494892
 21
3.5598593888
 31
0.0
  0
LINE
  5
112
330
1F
100
AcDbEntity
  8
0
  6
HIDDEN
 62
     7
100
AcDbLine
 10
2.5345494892
 20
3.9535601762
 30
0.0
 11
2.5195494892
 21
3.9685601762
 31
0.0
  0
LINE
  5
113
330
1F
100
AcDbEntity
  8
0
  6
HIDDEN
 62
     7
100
AcDbLine
 10
3.3766361034
 20
3.9685601762
 30
0.0
 11
3.2766361034
 21
3.9685601762
 31
0.0
  0
LINE
  5
114
330
1F
100
AcDbEntity
  8
0
  6
HIDDEN
 62
     7
100
AcDbLine
 10
3.2766361034
 20
3.5448593888
 30
0.0
 11
3.3766361034
 21
3.5448593888
 31
0.0
  0
LINE
  5
115
330
1F
100
AcDbEntity
  8
0
  6
HIDDEN
 62
     7
100
AcDbLine
 10
4.1337227176
 20
3.9685601762
 30
0.0
 11
4.1187227176
 21
3.9535601762
 31
0.0
  0
LINE
  5
116
330
1F
100
AcDbEntity
  8
0
  6
HIDDEN
 62
     7
100
AcDbLine
 10
4.1187227176
 20
3.5598593888
 30
0.0
 11
4.1337227176
 21
3.5448593888
 31
0.0
  0
LINE
  5
117
330
1F
100
AcDbEntity
  8
0
  6
HIDDEN
 62
     7
100
AcDbLine
 10
2.6910425344
 20
3.9535601762
 30
0.0
 11
2.5345494892
 21
3.9535601762
 31
0.0
  0
LINE
  5
118
330
1F
100
AcDbEntity
  8
0
  6
HIDDEN
 62
     7
100
AcDbLine
 10
3.2766361034
 20
3.9535601762
 30
0.0
 11
2.8205222497
 21
3.9535601762
 31
0.0
  0
LINE
  5
119
330
1F
100
AcDbEntity
  8
0
  6
HIDDEN
 62
     7
100
AcDbLine
 10
2.5345494892
 20
3.5598593888
 30
0.0
 11
3.2766361034
 21
3.5598593888
 31
0.0
  0
LINE
  5
11A
330
1F
100
AcDbEntity
  8
0
  6
HIDDEN
 62
     7
100
AcDbLine
 10
3.8327748178
 20
3.9535601762
 30
0.0
 11
3.3766361034
 21
3.9535601762
 31
0.0
  0
LINE
  5
11B
330
1F
100
AcDbEntity
  8
0
  6
HIDDEN
 62
     7
100
AcDbLine
 10
4.1187227176
 20
3.9535601762
 30
0.0
 11
3.9622545331
 21
3.9535601762
 31
0.0
  0
LINE
  5
11C
330
1F
100
AcDbEntity
  8
0
  6
HIDDEN
 62
     7
100
AcDbLine
 10
3.3766361034
 20
3.5598593888
 30
0.0
 11
4.1187227176
 21
3.5598593888
 31
0.0
  0
LINE
  5
11D
330
1F
100
AcDbEntity
  8
0
  6
HIDDEN
 62
     7
100
AcDbLine
 10
2.6790396241
 20
4.3866310433
 30
0.0
 11
2.690809319
 21
4.3730672847
 31
0.0
  0
LINE
  5
11E
330
1F
100
AcDbEntity
  8
0
  6
HIDDEN
 62
     7
100
AcDbLine
 10
2.8207305524
 20
4.3730672781
 30
0.0
 11
2.8325002378
 21
4.3866310366
 31
0.0
  0
LINE
  5
11F
330
1F
100
AcDbEntity
  8
0
  6
HIDDEN
 62
     7
100
AcDbLine
 10
3.8207719076
 20
4.3866310433
 30
0.0
 11
3.8325416024
 21
4.3730672847
 31
0.0
  0
LINE
  5
120
330
1F
100
AcDbEntity
  8
0
  6
HIDDEN
 62
     7
100
AcDbLine
 10
3.9624628358
 20
4.3730672781
 30
0.0
 11
3.9742325213
 21
4.3866310366
 31
0.0
  0
LINE
  5
121
330
1F
100
AcDbEntity
  8
0
  6
HIDDEN
 62
     7
100
AcDbLine
 10
2.8207305916
 20
3.9534915276
 30
0.0
 11
2.8207305916
 21
4.3730662514
 31
0.0
  0
LINE
  5
122
330
1F
100
AcDbEntity
  8
0
  6
HIDDEN
 62
     7
100
AcDbLine
 10
2.6908093317
 20
4.3730672837
 30
0.0
 11
2.6908093317
 21
3.9534833465
 31
0.0
  0
LINE
  5
123
330
1F
100
AcDbEntity
  8
0
  6
HIDDEN
 62
     7
100
AcDbLine
 10
3.962462875
 20
3.9534915276
 30
0.0
 11
3.962462875
 21
4.3730662514
 31
0.0
  0
LINE
  5
124
330
1F
100
AcDbEntity
  8
0
  6
HIDDEN
 62
     7
100
AcDbLine
 10
3.8325416152
 20
4.3730672837
 30
0.0
 11
3.8325416152
 21
3.9534833465
 31
0.0
  0
LINE
  5
125
330
1F
100
AcDbEntity
  8
0
  6
HIDDEN
 62
     7
100
AcDbLine
 10
2.8207305916
 20
4.3766310423
 30
0.0
 11
2.812898471
 21
4.3844631629
 31
0.0
  0
LINE
  5
126
330
1F
100
AcDbEntity
  8
0
  6
HIDDEN
 62
     7
100
AcDbLine
 10
2.6986411809
 20
4.3844628914
 30
0.0
 11
2.6908093317
 21
4.3766310423
 31
0.0
  0
LINE
  5
127
330
1F
100
AcDbEntity
  8
0
  6
HIDDEN
 62
     7
100
AcDbLine
 10
2.8207305916
 20
3.9635601762
 30
0.0
 11
2.8207305916
 21
4.3766310423
 31
0.0
  0
LINE
  5
128
330
1F
100
AcDbEntity
  8
0
  6
HIDDEN
 62
     7
100
AcDbLine
 10
2.6908093317
 20
4.3766310423
 30
0.0
 11
2.6908093317
 21
3.9635601762
 31
0.0
  0
LINE
  5
129
330
1F
100
AcDbEntity
  8
0
  6
HIDDEN
 62
     7
100
AcDbLine
 10
2.6908093317
 20
3.9635601762
 30
0.0
 11
2.7008093317
 21
3.9535601762
 31
0.0
  0
LINE
  5
12A
330
1F
100
AcDbEntity
  8
0
  6
HIDDEN
 62
     7
100
AcDbLine
 10
2.8107305916
 20
3.9535601762
 30
0.0
 11
2.8207305916
 21
3.9635601762
 31
0.0
  0
LINE
  5
12B
330
1F
100
AcDbEntity
  8
0
  6
HIDDEN
 62
     7
100
AcDbLine
 10
3.962462875
 20
3.9635601762
 30
0.0
 11
3.962462875
 21
4.3766310423
 31
0.0
  0
LINE
  5
12C
330
1F
100
AcDbEntity
  8
0
  6
HIDDEN
 62
     7
100
AcDbLine
 10
3.8325416152
 20
4.3766310423
 30
0.0
 11
3.8325416152
 21
3.9635601762
 31
0.0
  0
LINE
  5
12D
330
1F
100
AcDbEntity
  8
0
  6
HIDDEN
 62
     7
100
AcDbLine
 10
3.962462875
 20
4.3766310423
 30
0.0
 11
3.9546307545
 21
4.3844631629
 31
0.0
  0
LINE
  5
12E
330
1F
100
AcDbEntity
  8
0
  6
HIDDEN
 62
     7
100
AcDbLine
 10
3.8403734643
 20
4.3844628914
 30
0.0
 11
3.8325416152
 21
4.3766310423
 31
0.0
  0
LINE
  5
12F
330
1F
100
AcDbEntity
  8
0
  6
HIDDEN
 62
     7
100
AcDbLine
 10
3.8325416152
 20
3.9635601762
 30
0.0
 11
3.8425416152
 21
3.9535601762
 31
0.0
  0
LINE
  5
130
330
1F
100
AcDbEntity
  8
0
  6
HIDDEN
 62
     7
100
AcDbLine
 10
3.952462875
 20
3.9535601762
 30
0.0
 11
3.962462875
 21
3.9635601762
 31
0.0
  0
LINE
  5
131
330
1F
100
AcDbEntity
  8
0
  6
CONTINUOUS
 62
     7
100
AcDbLine
 10
8.8781669037
 20
3.69911019
 30
0.0
 11
8.8808058662
 21
3.7017491525
 31
0.0
  0
LINE
  5
132
330
1F
100
AcDbEntity
  8
0
  6
CONTINUOUS
 62
     7
100
AcDbLine
 10
8.8808058662
 20
3.8116704124
 30
0.0
 11
8.8781669037
 21
3.8143093749
 31
0.0
  0
LINE
  5
133
330
1F
100
AcDbEntity
  8
0
  6
CONTINUOUS
 62
     7
100
AcDbLine
 10
8.3084841987
 20
4.3839920798
 30
0.0
 11
8.3058452362
 21
4.3866310423
 31
0.0
  0
LINE
  5
134
330
1F
100
AcDbEntity
  8
0
  6
CONTINUOUS
 62
     7
100
AcDbLine
 10
8.1959239764
 20
4.3866310423
 30
0.0
 11
8.1932850139
 21
4.3839920798
 31
0.0
  0
CIRCLE
  5
135
330
1F
100
AcDbEntity
  8
0
  6
CONTINUOUS
 62
     7
100
AcDbCircle
 10
8.2508846063
 20
3.7567097825
 30
0.0
 40
0.2118503937007876
  0
CIRCLE
  5
136
330
1F
100
AcDbEntity
  8
0
  6
CONTINUOUS
 62
     7
100
AcDbCircle
 10
8.2508846063
 20
3.7567097825
 30
0.0
 40
0.6149212598425216
  0
CIRCLE
  5
137
330
1F
100
AcDbEntity
  8
0
  6
CONTINUOUS
 62
     7
100
AcDbCircle
 10
8.2508846063
 20
3.7567097825
 30
0.0
 40
0.6299212598425203
  0
CIRCLE
  5
138
330
1F
100
AcDbEntity
  8
0
  6
CONTINUOUS
 62
     7
100
AcDbCircle
 10
8.2508846063
 20
3.7567097825
 30
0.0
 40
0.1968503937007888
  0
LINE
  5
139
330
1F
100
AcDbEntity
  8
0
  6
CONTINUOUS
 62
     7
100
AcDbLine
 10
8.8808058662
 20
3.8116704124
 30
0.0
 11
8.8808058662
 21
3.7017491525
 31
0.0
  0
LINE
  5
13A
330
1F
100
AcDbEntity
  8
0
  6
CONTINUOUS
 62
     7
100
AcDbLine
 10
8.1959239764
 20
4.3866310423
 30
0.0
 11
8.3058452362
 21
4.3866310423
 31
0.0
  0
SPLINE
  5
13B
330
1F
100
AcDbEntity
  8
0
  6
HIDDEN
 62
     7
100
AcDbSpline
210
0.0
220
0.0
230
1.0
 70
     8
 71
     3
 72
    25
 73
    21
 74
     0
 42
0.00000001
 43
0.00000001
 40
0.0
 40
0.0
 40
0.0
 40
0.0
 40
0.0505915813128702
 40
0.1091406206789696
 40
0.1755792015083292
 40
0.2499136624570172
 40
0.3240286402861866
 40
0.3903626627629152
 40
0.4489223672617928
 40
0.4997230518088968
 40
0.5507499481477285
 40
0.609495130767662
 40
0.6759741523897878
 40
0.7501939127690423
 40
0.824470893006298
 40
0.8908598422444998
 40
0.9211322638371552
 40
0.9494295127104552
 40
0.9757545966440592
 40
1.0
 40
1.0
 40
1.0
 40
1.0
 10
8.185925325024884
 20
4.36827280254281
 30
0.0
 10
8.186084084911439
 20
4.368305644097467
 30
0.0
 10
8.18642657573912
 20
4.36837649279534
 30
0.0
 10
8.189518997361388
 20
4.368867150287737
 30
0.0
 10
8.195376075379459
 20
4.369614252913207
 30
0.0
 10
8.204500942051933
 20
4.370671646413637
 30
0.0
 10
8.216024708905097
 20
4.371725037565363
 30
0.0
 10
8.228286477511228
 20
4.372477926839534
 30
0.0
 10
8.239911367574893
 20
4.372944514002223
 30
0.0
 10
8.250827737838323
 20
4.373123941408637
 30
0.0
 10
8.261758843066659
 20
4.372946173244995
 30
0.0
 10
8.273424847644444
 20
4.372480274994551
 30
0.0
 10
8.285717225449773
 20
4.371727281844301
 30
0.0
 10
8.29725745543586
 20
4.370672664730402
 30
0.0
 10
8.306372947073573
 20
4.369617235230971
 30
0.0
 10
8.311432040666293
 20
4.368969858126102
 30
0.0
 10
8.313911323878827
 20
4.368604700881569
 30
0.0
 10
8.315073729628205
 20
4.368416711405368
 30
0.0
 10
8.315730089845122
 20
4.368296739447203
 30
0.0
 10
8.315807330254051
 20
4.368280509472481
 30
0.0
 10
8.315844362226063
 20
4.368272728209046
 30
0.0
  0
SPLINE
  5
13C
330
1F
100
AcDbEntity
  8
0
  6
HIDDEN
 62
     7
100
AcDbSpline
210
0.0
220
0.0
230
1.0
 70
     8
 71
     3
 72
     9
 73
     5
 74
     0
 42
0.00000001
 43
0.00000001
 40
0.0
 40
0.0
 40
0.0
 40
0.0
 40
0.5258704031571556
 40
1.0
 40
1.0
 40
1.0
 40
1.0
 10
8.272363235123434
 20
4.372485930122392
 30
0.0
 10
8.268680148234933
 20
4.372653201622136
 30
0.0
 10
8.26167635629991
 20
4.372971286646012
 30
0.0
 10
8.25435559562932
 20
4.373036407808894
 30
0.0
 10
8.25088460632399
 20
4.373067283679597
 30
0.0
  0
LINE
  5
13D
330
1F
100
AcDbEntity
  8
0
  6
HIDDEN
 62
     7
100
AcDbLine
 10
8.8708058662
 20
3.6917491525
 30
0.0
 11
8.8708058662
 21
3.8216704124
 31
0.0
  0
LINE
  5
13E
330
1F
100
AcDbEntity
  8
0
  6
HIDDEN
 62
     7
100
AcDbLine
 10
8.457735
 20
3.7567097825
 30
0.0
 11
8.457735
 21
3.6917491525
 31
0.0
  0
LINE
  5
13F
330
1F
100
AcDbEntity
  8
0
  6
HIDDEN
 62
     7
100
AcDbLine
 10
8.457735
 20
3.8216704124
 30
0.0
 11
8.457735
 21
3.7567097825
 31
0.0
  0
LINE
  5
140
330
1F
100
AcDbEntity
  8
0
  6
HIDDEN
 62
     7
100
AcDbLine
 10
8.447735
 20
3.7567097825
 30
0.0
 11
8.447735
 21
3.8116704124
 31
0.0
  0
LINE
  5
141
330
1F
100
AcDbEntity
  8
0
  6
HIDDEN
 62
     7
100
AcDbLine
 10
8.447735
 20
3.7017491525
 30
0.0
 11
8.447735
 21
3.7567097825
 31
0.0
  0
LINE
  5
142
330
1F
100
AcDbEntity
  8
0
  6
HIDDEN
 62
     7
100
AcDbLine
 10
8.8308058662
 20
3.7777096543
 30
0.0
 11
8.8808058662
 21
3.7777096543
 31
0.0
  0
LINE
  5
143
330
1F
100
AcDbEntity
  8
0
  6
HIDDEN
 62
     7
100
AcDbLine
 10
8.8308058662
 20
3.7357099106
 30
0.0
 11
8.8808058662
 21
3.7357099106
 31
0.0
  0
LINE
  5
144
330
1F
100
AcDbEntity
  8
0
  6
HIDDEN
 62
     7
100
AcDbLine
 10
8.8308058662
 20
3.7357099106
 30
0.0
 11
8.8308058662
 21
3.7147100387
 31
0.0
  0
LINE
  5
145
330
1F
100
AcDbEntity
  8
0
  6
HIDDEN
 62
     7
100
AcDbLine
 10
8.8308058662
 20
3.7777096543
 30
0.0
 11
8.8308058662
 21
3.7357099106
 31
0.0
  0
LINE
  5
146
330
1F
100
AcDbEntity
  8
0
  6
HIDDEN
 62
     7
100
AcDbLine
 10
8.8308058662
 20
3.7987095262
 30
0.0
 11
8.8308058662
 21
3.7777096543
 31
0.0
  0
LINE
  5
147
330
1F
100
AcDbEntity
  8
0
  6
HIDDEN
 62
     7
100
AcDbLine
 10
8.8308058662
 20
3.7987095262
 30
0.0
 11
8.8808058662
 21
3.7987095262
 31
0.0
  0
LINE
  5
148
330
1F
100
AcDbEntity
  8
0
  6
HIDDEN
 62
     7
100
AcDbLine
 10
8.8308058662
 20
3.7147100387
 30
0.0
 11
8.8808058662
 21
3.7147100387
 31
0.0
  0
LINE
  5
149
330
1F
100
AcDbEntity
  8
0
  6
HIDDEN
 62
     7
100
AcDbLine
 10
8.2508846063
 20
3.9535601762
 30
0.0
 11
8.1959239764
 21
3.9535601762
 31
0.0
  0
LINE
  5
14A
330
1F
100
AcDbEntity
  8
0
  6
HIDDEN
 62
     7
100
AcDbLine
 10
8.3058452362
 20
3.9535601762
 30
0.0
 11
8.2508846063
 21
3.9535601762
 31
0.0
  0
LINE
  5
14B
330
1F
100
AcDbEntity
  8
0
  6
HIDDEN
 62
     7
100
AcDbLine
 10
8.2508846063
 20
3.9635601762
 30
0.0
 11
8.3158452362
 21
3.9635601762
 31
0.0
  0
LINE
  5
14C
330
1F
100
AcDbEntity
  8
0
  6
HIDDEN
 62
     7
100
AcDbLine
 10
8.1859239764
 20
3.9635601762
 30
0.0
 11
8.2508846063
 21
3.9635601762
 31
0.0
  0
LINE
  5
14D
330
1F
100
AcDbEntity
  8
0
  6
HIDDEN
 62
     7
100
AcDbLine
 10
8.3158452362
 20
4.3766310423
 30
0.0
 11
8.1859239764
 21
4.3766310423
 31
0.0
  0
LINE
  5
14E
330
1F
100
AcDbEntity
  8
0
  6
HIDDEN
 62
     7
100
AcDbLine
 10
8.2718844782
 20
4.3366310423
 30
0.0
 11
8.2928843501
 21
4.3366310423
 31
0.0
  0
LINE
  5
14F
330
1F
100
AcDbEntity
  8
0
  6
HIDDEN
 62
     7
100
AcDbLine
 10
8.2298847344
 20
4.3366310423
 30
0.0
 11
8.2718844782
 21
4.3366310423
 31
0.0
  0
LINE
  5
150
330
1F
100
AcDbEntity
  8
0
  6
HIDDEN
 62
     7
100
AcDbLine
 10
8.2718844782
 20
4.3366310423
 30
0.0
 11
8.2718844782
 21
4.3866310423
 31
0.0
  0
LINE
  5
151
330
1F
100
AcDbEntity
  8
0
  6
HIDDEN
 62
     7
100
AcDbLine
 10
8.2298847344
 20
4.3366310423
 30
0.0
 11
8.2298847344
 21
4.3866310423
 31
0.0
  0
LINE
  5
152
330
1F
100
AcDbEntity
  8
0
  6
HIDDEN
 62
     7
100
AcDbLine
 10
8.2088848626
 20
4.3366310423
 30
0.0
 11
8.2298847344
 21
4.3366310423
 31
0.0
  0
LINE
  5
153
330
1F
100
AcDbEntity
  8
0
  6
HIDDEN
 62
     7
100
AcDbLine
 10
8.2928843501
 20
4.3366310423
 30
0.0
 11
8.2928843501
 21
4.3866310423
 31
0.0
  0
LINE
  5
154
330
1F
100
AcDbEntity
  8
0
  6
HIDDEN
 62
     7
100
AcDbLine
 10
8.2088848626
 20
4.3366310423
 30
0.0
 11
8.2088848626
 21
4.3866310423
 31
0.0
  0
LINE
  5
155
330
1F
100
AcDbEntity
  8
0
  6
HIDDEN
 62
     7
100
AcDbLine
 10
8.1724657329
 20
4.3817308013
 30
0.0
 11
8.1859239771
 21
4.3682725569
 31
0.0
  0
LINE
  5
156
330
1F
100
AcDbEntity
  8
0
  6
HIDDEN
 62
     7
100
AcDbLine
 10
8.3158452424
 20
4.3682725565
 30
0.0
 11
8.3293034881
 21
4.3817308008
 31
0.0
  0
LINE
  5
157
330
1F
100
AcDbEntity
  8
0
  6
HIDDEN
 62
     7
100
AcDbLine
 10
8.3158452362
 20
3.9425328006
 30
0.0
 11
8.3158452362
 21
4.3682726789
 31
0.0
  0
LINE
  5
158
330
1F
100
AcDbEntity
  8
0
  6
HIDDEN
 62
     7
100
AcDbLine
 10
8.1859239764
 20
4.3682730409
 30
0.0
 11
8.1859239764
 21
3.9425421314
 31
0.0
  0
LINE
  5
159
330
1F
100
AcDbEntity
  8
0
  6
HIDDEN
 62
     7
100
AcDbLine
 10
8.436783814
 20
3.6917491525
 30
0.0
 11
8.8774692379
 21
3.6917491525
 31
0.0
  0
LINE
  5
15A
330
1F
100
AcDbEntity
  8
0
  6
HIDDEN
 62
     7
100
AcDbLine
 10
8.8774487324
 20
3.8216704124
 30
0.0
 11
8.4367891585
 21
3.8216704124
 31
0.0
  0
LINE
  5
15B
330
1F
100
AcDbEntity
  8
0
  6
HIDDEN
 62
     7
100
AcDbLine
 10
8.8708058662
 20
3.6917491525
 30
0.0
 11
8.8781669037
 21
3.69911019
 31
0.0
  0
LINE
  5
15C
330
1F
100
AcDbEntity
  8
0
  6
HIDDEN
 62
     7
100
AcDbLine
 10
8.8781669037
 20
3.8143093749
 30
0.0
 11
8.8708058662
 21
3.8216704124
 31
0.0
  0
LINE
  5
15D
330
1F
100
AcDbEntity
  8
0
  6
HIDDEN
 62
     7
100
AcDbLine
 10
8.457735
 20
3.6917491525
 30
0.0
 11
8.8708058662
 21
3.6917491525
 31
0.0
  0
LINE
  5
15E
330
1F
100
AcDbEntity
  8
0
  6
HIDDEN
 62
     7
100
AcDbLine
 10
8.8708058662
 20
3.8216704124
 30
0.0
 11
8.457735
 21
3.8216704124
 31
0.0
  0
LINE
  5
15F
330
1F
100
AcDbEntity
  8
0
  6
HIDDEN
 62
     7
100
AcDbLine
 10
8.457735
 20
3.8216704124
 30
0.0
 11
8.447735
 21
3.8116704124
 31
0.0
  0
LINE
  5
160
330
1F
100
AcDbEntity
  8
0
  6
HIDDEN
 62
     7
100
AcDbLine
 10
8.447735
 20
3.7017491525
 30
0.0
 11
8.457735
 21
3.6917491525
 31
0.0
  0
LINE
  5
161
330
1F
100
AcDbEntity
  8
0
  6
HIDDEN
 62
     7
100
AcDbLine
 10
8.1859239764
 20
3.9635601762
 30
0.0
 11
8.1959239764
 21
3.9535601762
 31
0.0
  0
LINE
  5
162
330
1F
100
AcDbEntity
  8
0
  6
HIDDEN
 62
     7
100
AcDbLine
 10
8.3058452362
 20
3.9535601762
 30
0.0
 11
8.3158452362
 21
3.9635601762
 31
0.0
  0
LINE
  5
163
330
1F
100
AcDbEntity
  8
0
  6
HIDDEN
 62
     7
100
AcDbLine
 10
8.3158452362
 20
4.3766310423
 30
0.0
 11
8.3084841987
 21
4.3839920798
 31
0.0
  0
LINE
  5
164
330
1F
100
AcDbEntity
  8
0
  6
HIDDEN
 62
     7
100
AcDbLine
 10
8.1932850139
 20
4.3839920798
 30
0.0
 11
8.1859239764
 21
4.3766310423
 31
0.0
  0
LINE
  5
165
330
1F
100
AcDbEntity
  8
0
  6
HIDDEN
 62
     7
100
AcDbLine
 10
8.3158452362
 20
3.9635601762
 30
0.0
 11
8.3158452362
 21
4.3766310423
 31
0.0
  0
LINE
  5
166
330
1F
100
AcDbEntity
  8
0
  6
HIDDEN
 62
     7
100
AcDbLine
 10
8.1859239764
 20
4.3766310423
 30
0.0
 11
8.1859239764
 21
3.9635601762
 31
0.0
  0
LINE
  5
167
330
1F
100
AcDbEntity
  8
0
  6
CONTINUOUS
 62
     7
100
AcDbLine
 10
2.5345494892
 20
6.0420558791
 30
0.0
 11
4.1187227176
 21
6.0420558791
 31
0.0
  0
LINE
  5
168
330
1F
100
AcDbEntity
  8
0
  6
CONTINUOUS
 62
     7
100
AcDbLine
 10
2.6908093317
 20
7.3018983988
 30
0.0
 11
2.5345494892
 21
7.3018983988
 31
0.0
  0
LINE
  5
169
330
1F
100
AcDbEntity
  8
0
  6
CONTINUOUS
 62
     7
100
AcDbLine
 10
3.8325416152
 20
7.3018983988
 30
0.0
 11
2.8205321283
 21
7.3018983988
 31
0.0
  0
LINE
  5
16A
330
1F
100
AcDbEntity
  8
0
  6
CONTINUOUS
 62
     7
100
AcDbLine
 10
4.1187227176
 20
7.3018983988
 30
0.0
 11
3.9622644118
 21
7.3018983988
 31
0.0
  0
LINE
  5
16B
330
1F
100
AcDbEntity
  8
0
  6
CONTINUOUS
 62
     7
100
AcDbLine
 10
2.5345494892
 20
7.3018983988
 30
0.0
 11
2.5195494892
 21
7.2868983988
 31
0.0
  0
LINE
  5
16C
330
1F
100
AcDbEntity
  8
0
  6
CONTINUOUS
 62
     7
100
AcDbLine
 10
2.5195494892
 20
6.0570558791
 30
0.0
 11
2.5345494892
 21
6.0420558791
 31
0.0
  0
LINE
  5
16D
330
1F
100
AcDbEntity
  8
0
  6
CONTINUOUS
 62
     7
100
AcDbLine
 10
4.1187227176
 20
6.0420558791
 30
0.0
 11
4.1337227176
 21
6.0570558791
 31
0.0
  0
LINE
  5
16E
330
1F
100
AcDbEntity
  8
0
  6
CONTINUOUS
 62
     7
100
AcDbLine
 10
4.1337227176
 20
7.2868983988
 30
0.0
 11
4.1187227176
 21
7.3018983988
 31
0.0
  0
LINE
  5
16F
330
1F
100
AcDbEntity
  8
0
  6
CONTINUOUS
 62
     7
100
AcDbLine
 10
3.9533357882
 20
7.3010254856
 30
0.0
 11
3.952462875
 21
7.3018983988
 31
0.0
  0
LINE
  5
170
330
1F
100
AcDbEntity
  8
0
  6
CONTINUOUS
 62
     7
100
AcDbLine
 10
3.8425416152
 20
7.3018983988
 30
0.0
 11
3.8416685147
 21
7.3010252982
 31
0.0
  0
LINE
  5
171
330
1F
100
AcDbEntity
  8
0
  6
CONTINUOUS
 62
     7
100
AcDbLine
 10
2.8116035047
 20
7.3010254856
 30
0.0
 11
2.8107305916
 21
7.3018983988
 31
0.0
  0
LINE
  5
172
330
1F
100
AcDbEntity
  8
0
  6
CONTINUOUS
 62
     7
100
AcDbLine
 10
2.7008093317
 20
7.3018983988
 30
0.0
 11
2.6999362312
 21
7.3010252982
 31
0.0
  0
LINE
  5
173
330
1F
100
AcDbEntity
  8
0
  6
CONTINUOUS
 62
     7
100
AcDbLine
 10
4.1187227176
 20
6.0420558791
 30
0.0
 11
4.1187227176
 21
7.3018983988
 31
0.0
  0
LINE
  5
174
330
1F
100
AcDbEntity
  8
0
  6
CONTINUOUS
 62
     7
100
AcDbLine
 10
2.5345494892
 20
7.3018983988
 30
0.0
 11
2.5345494892
 21
6.0420558791
 31
0.0
  0
SPLINE
  5
175
330
1F
100
AcDbEntity
  8
0
  6
CONTINUOUS
 62
     7
100
AcDbSpline
210
0.0
220
0.0
230
1.0
 70
     8
 71
     3
 72
    32
 73
    28
 74
     0
 42
0.00000001
 43
0.00000001
 40
-0.156535955127693
 40
-0.1254785076699831
 40
-0.0628695631559377
 40
0.0
 40
0.0629712266128638
 40
0.1255845661238601
 40
0.1677245527596325
 40
0.2081095947821563
 40
0.2498636454907416
 40
0.2805408209016103
 40
0.3117385443113208
 40
0.342934838715338
 40
0.3739628334142305
 40
0.4051065001080399
 40
0.4368264161548332
 40
0.4686398589265338
 40
0.5001104005375105
 40
0.5426773713236708
 40
0.583666305486874
 40
0.6260451987209867
 40
0.6682306411363519
 40
0.7086139926616819
 40
0.7503192886715474
 40
0.7810227357384197
 40
0.8122494164584629
 40
0.843464044872307
 40
0.8745214923300169
 40
0.9371304368440623
 40
1.0
 40
1.062971226612864
 40
1.12558456612386
 40
1.167724552759632
 10
2.682549452393891
 20
6.641129832864726
 30
0.0
 10
2.67727048904486
 20
6.671989773730954
 30
0.0
 10
2.682589093327785
 20
6.702874513685626
 30
0.0
 10
2.698365936724954
 20
6.725916099197131
 30
0.0
 10
2.71678936080776
 20
6.740843447717322
 30
0.0
 10
2.735601360447345
 20
6.748802490812466
 30
0.0
 10
2.753991685454224
 20
6.751031712153309
 30
0.0
 10
2.770828494518807
 20
6.749400132252018
 30
0.0
 10
2.785311086136947
 20
6.744798150983506
 30
0.0
 10
2.79871574733138
 20
6.737569748600778
 30
0.0
 10
2.810374411794669
 20
6.727783439137109
 30
0.0
 10
2.819948030769444
 20
6.715842738116432
 30
0.0
 10
2.827010955529381
 20
6.702123858361836
 30
0.0
 10
2.831517726480502
 20
6.687289682297509
 30
0.0
 10
2.83312291769011
 20
6.670094819311059
 30
0.0
 10
2.830959865094907
 20
6.65134870763176
 30
0.0
 10
2.823198411076119
 20
6.63218164625888
 30
0.0
 10
2.810581175251693
 20
6.61597183108158
 30
0.0
 10
2.79471077578143
 20
6.603082488342967
 30
0.0
 10
2.775899082078678
 20
6.595138719861823
 30
0.0
 10
2.75751030007921
 20
6.592919428371074
 30
0.0
 10
2.740673237078356
 20
6.594570459099269
 30
0.0
 10
2.72618710965329
 20
6.599188685749382
 30
0.0
 10
2.71276313442817
 20
6.606431087231605
 30
0.0
 10
2.697243117742951
 20
6.619533463194892
 30
0.0
 10
2.682549452393891
 20
6.641129832864726
 30
0.0
 10
2.67727048904486
 20
6.671989773730954
 30
0.0
 10
2.682589093327785
 20
6.702874513685626
 30
0.0
  0
SPLINE
  5
176
330
1F
100
AcDbEntity
  8
0
  6
CONTINUOUS
 62
     7
100
AcDbSpline
210
0.0
220
0.0
230
1.0
 70
     8
 71
     3
 72
    32
 73
    28
 74
     0
 42
0.00000001
 43
0.00000001
 40
-0.156535955127911
 40
-0.1254785076700119
 40
-0.0628695631561256
 40
0.0
 40
0.0629712266127373
 40
0.1255845661238412
 40
0.167724552759527
 40
0.2081095947820501
 40
0.2498636454907461
 40
0.2805408209016446
 40
0.3117385443113267
 40
0.3429348387155924
 40
0.3739628334142436
 40
0.4051065001083283
 40
0.4368264161548402
 40
0.4686398589267567
 40
0.500110400537521
 40
0.5426773713238059
 40
0.583666305487009
 40
0.6260451987209654
 40
0.6682306411363305
 40
0.7086139926616608
 40
0.7503192886715254
 40
0.7810227357383673
 40
0.8122494164584393
 40
0.843464044872089
 40
0.8745214923299881
 40
0.9371304368438744
 40
1.0
 40
1.062971226612737
 40
1.125584566123841
 40
1.167724552759527
 10
3.824281735858419
 20
6.641129832864674
 30
0.0
 10
3.81900277250943
 20
6.67198977373091
 30
0.0
 10
3.824321376792374
 20
6.702874513685593
 30
0.0
 10
3.840098220189505
 20
6.725916099197099
 30
0.0
 10
3.85852164427228
 20
6.740843447717336
 30
0.0
 10
3.877333643911877
 20
6.748802490812472
 30
0.0
 10
3.895723968918777
 20
6.751031712153306
 30
0.0
 10
3.912560777983381
 20
6.749400132252024
 30
0.0
 10
3.927043369601552
 20
6.744798150983484
 30
0.0
 10
3.940448030795998
 20
6.737569748600779
 30
0.0
 10
3.952106695259296
 20
6.727783439137045
 30
0.0
 10
3.961680314234018
 20
6.715842738116381
 30
0.0
 10
3.96874323899398
 20
6.702123858361763
 30
0.0
 10
3.973250009945087
 20
6.687289682297475
 30
0.0
 10
3.974855201154681
 20
6.670094819311002
 30
0.0
 10
3.972692148559412
 20
6.651348707631726
 30
0.0
 10
3.964930694540646
 20
6.63218164625885
 30
0.0
 10
3.952313458716243
 20
6.615971831081562
 30
0.0
 10
3.936443059245996
 20
6.603082488342967
 30
0.0
 10
3.917631365543246
 20
6.595138719861825
 30
0.0
 10
3.899242583543781
 20
6.592919428371072
 30
0.0
 10
3.882405520542931
 20
6.594570459099273
 30
0.0
 10
3.867919393117889
 20
6.599188685749365
 30
0.0
 10
3.854495417892775
 20
6.606431087231603
 30
0.0
 10
3.838975401207554
 20
6.619533463194844
 30
0.0
 10
3.824281735858419
 20
6.641129832864674
 30
0.0
 10
3.81900277250943
 20
6.67198977373091
 30
0.0
 10
3.824321376792374
 20
6.702874513685593
 30
0.0
  0
SPLINE
  5
177
330
1F
100
AcDbEntity
  8
0
  6
CONTINUOUS
 62
     7
100
AcDbSpline
210
0.0
220
0.0
230
1.0
 70
     8
 71
     3
 72
    26
 73
    22
 74
     0
 42
0.00000001
 43
0.00000001
 40
0.0
 40
0.0
 40
0.0
 40
0.0
 40
0.0176208940108723
 40
0.0718989656279218
 40
0.1245330058937537
 40
0.1786831819686174
 40
0.2315067230293592
 40
0.285850414057546
 40
0.3388685041893686
 40
0.3934292436993369
 40
0.4463427054717898
 40
0.500804930828738
 40
0.5534756999989457
 40
0.6076749619428393
 40
0.660344523422781
 40
0.7145279346912109
 40
0.767438491139378
 40
0.8218763450923239
 40
0.874895301555515
 40
0.9294623321795576
 40
1.0
 40
1.0
 40
1.0
 40
1.0
 10
3.96226441178336
 20
7.301877978522347
 30
0.0
 10
3.962319048354443
 20
7.301883599110417
 30
0.0
 10
3.962541983294289
 20
7.301906532933651
 30
0.0
 10
3.961057395439377
 20
7.301753420899268
 30
0.0
 10
3.957815999308132
 20
7.301431872810037
 30
0.0
 10
3.952793044366078
 20
7.30096579468793
 30
0.0
 10
3.946190642422784
 20
7.300414883526564
 30
0.0
 10
3.938253590867599
 20
7.299844210994663
 30
0.0
 10
3.929073759713531
 20
7.299310254106659
 30
0.0
 10
3.919071903774756
 20
7.298882313841075
 30
0.0
 10
3.908364322737868
 20
7.298602720148883
 30
0.0
 10
3.897466648036088
 20
7.298507775239474
 30
0.0
 10
3.886488344193309
 20
7.298605645897779
 30
0.0
 10
3.875938646342498
 20
7.298882527530738
 30
0.0
 10
3.86590793685363
 20
7.29931161514166
 30
0.0
 10
3.856840949525582
 20
7.2998385666939
 30
0.0
 10
3.848834343107307
 20
7.300413005464559
 30
0.0
 10
3.842243435350241
 20
7.300963180910496
 30
0.0
 10
3.837202294808495
 20
7.301430022065465
 30
0.0
 10
3.833384845840651
 20
7.301810306189815
 30
0.0
 10
3.832845636887165
 20
7.301866637517772
 30
0.0
 10
3.832541615195576
 20
7.301898398758946
 30
0.0
  0
SPLINE
  5
178
330
1F
100
AcDbEntity
  8
0
  6
CONTINUOUS
 62
     7
100
AcDbSpline
210
0.0
220
0.0
230
1.0
 70
     8
 71
     3
 72
    26
 73
    22
 74
     0
 42
0.00000001
 43
0.00000001
 40
0.0
 40
0.0
 40
0.0
 40
0.0
 40
0.0176208940108725
 40
0.0718989656279221
 40
0.124533005893754
 40
0.1786831819686176
 40
0.2315067230293593
 40
0.2858504140575463
 40
0.338868504189369
 40
0.3934292436993372
 40
0.4463427054717901
 40
0.5008049308287383
 40
0.5534756999989461
 40
0.6076749619428397
 40
0.6603445234227814
 40
0.7145279346912109
 40
0.7674384911393787
 40
0.8218763450923244
 40
0.8748953015555153
 40
0.9294623321795579
 40
1.0
 40
1.0
 40
1.0
 40
1.0
 10
2.820532128318792
 20
7.301877978522347
 30
0.0
 10
2.820586764889875
 20
7.301883599110417
 30
0.0
 10
2.820809699829721
 20
7.301906532933652
 30
0.0
 10
2.81932511197481
 20
7.301753420899268
 30
0.0
 10
2.816083715843565
 20
7.301431872810038
 30
0.0
 10
2.811060760901511
 20
7.30096579468793
 30
0.0
 10
2.804458358958217
 20
7.300414883526564
 30
0.0
 10
2.796521307403031
 20
7.299844210994664
 30
0.0
 10
2.787341476248964
 20
7.299310254106659
 30
0.0
 10
2.777339620310189
 20
7.298882313841075
 30
0.0
 10
2.766632039273301
 20
7.298602720148883
 30
0.0
 10
2.75573436457152
 20
7.298507775239474
 30
0.0
 10
2.744756060728742
 20
7.298605645897779
 30
0.0
 10
2.734206362877931
 20
7.298882527530738
 30
0.0
 10
2.724175653389063
 20
7.29931161514166
 30
0.0
 10
2.715108666061014
 20
7.299838566693901
 30
0.0
 10
2.70710205964274
 20
7.300413005464559
 30
0.0
 10
2.700511151885673
 20
7.300963180910497
 30
0.0
 10
2.695470011343927
 20
7.301430022065465
 30
0.0
 10
2.691652562376084
 20
7.301810306189817
 30
0.0
 10
2.691113353422598
 20
7.301866637517772
 30
0.0
 10
2.690809331731009
 20
7.301898398758946
 30
0.0
  0
LINE
  5
179
330
1F
100
AcDbEntity
  8
0
  6
CONTINUOUS
 62
     7
100
AcDbLine
 10
2.6908093317
 20
6.6719771389
 30
0.0
 11
2.6911309068
 21
6.667965127
 31
0.0
  0
SPLINE
  5
17A
330
1F
100
AcDbEntity
  8
0
  6
CONTINUOUS
 62
     7
100
AcDbSpline
210
0.0
220
0.0
230
1.0
 70
     8
 71
     3
 72
     9
 73
     5
 74
     0
 42
0.00000001
 43
0.00000001
 40
0.0
 40
0.0
 40
0.0
 40
0.0
 40
0.5380002069765627
 40
1.0
 40
1.0
 40
1.0
 40
1.0
 10
2.820727157686313
 20
6.671948029872033
 30
0.0
 10
2.820611977168558
 20
6.675419321086118
 30
0.0
 10
2.820397887069223
 20
6.68187153275643
 30
0.0
 10
2.81854808246613
 20
6.68804496381672
 30
0.0
 10
2.817693473122367
 20
6.690897087688818
 30
0.0
  0
SPLINE
  5
17B
330
1F
100
AcDbEntity
  8
0
  6
CONTINUOUS
 62
     7
100
AcDbSpline
210
0.0
220
0.0
230
1.0
 70
     8
 71
     3
 72
     9
 73
     5
 74
     0
 42
0.00000001
 43
0.00000001
 40
0.0
 40
0.0
 40
0.0
 40
0.0
 40
0.354084170281916
 40
1.0
 40
1.0
 40
1.0
 40
1.0
 10
2.693055025587781
 20
6.687823301335467
 30
0.0
 10
2.692525788359214
 20
6.685998208746447
 30
0.0
 10
2.691031123324783
 20
6.680843805522022
 30
0.0
 10
2.690896370629798
 20
6.675456733810637
 30
0.0
 10
2.690809331731009
 20
6.671977138916426
 30
0.0
  0
SPLINE
  5
17C
330
1F
100
AcDbEntity
  8
0
  6
CONTINUOUS
 62
     7
100
AcDbSpline
210
0.0
220
0.0
230
1.0
 70
     8
 71
     3
 72
    28
 73
    24
 74
     0
 42
0.00000001
 43
0.00000001
 40
-0.1252282474543838
 40
-0.0765822606048516
 40
-0.0348409700046248
 40
0.0
 40
0.0547068694347593
 40
0.1246627589361134
 40
0.1734332695648053
 40
0.215184527917465
 40
0.2499201164069708
 40
0.3045031794640966
 40
0.3746861111418804
 40
0.4233050843885838
 40
0.46501711529748
 40
0.4998265275860993
 40
0.5546815644001851
 40
0.6248278390786913
 40
0.673542753537692
 40
0.715255624132205
 40
0.7499702310235145
 40
0.7500002079511616
 40
0.804604988126225
 40
0.8747717525456162
 40
0.9234177393951484
 40
0.9651590299953752
 40
1.0
 40
1.054706869434759
 40
1.124662758936113
 40
1.173433269564805
 10
3.83368171663356
 20
6.687107124291843
 30
0.0
 10
3.831725321410884
 20
6.669288213055808
 30
0.0
 10
3.835470143928164
 20
6.647553727798035
 30
0.0
 10
3.848477965785136
 20
6.627046588909547
 30
0.0
 10
3.866240206545577
 20
6.614035561092826
 30
0.0
 10
3.882366770268138
 20
6.608159396074039
 30
0.0
 10
3.900154730261226
 20
6.606203317176889
 30
0.0
 10
3.921889790056529
 20
6.609927378821487
 30
0.0
 10
3.942404155383919
 20
6.622923208754416
 30
0.0
 10
3.955422246069491
 20
6.640683236171488
 30
0.0
 10
3.961308027876378
 20
6.656789143071888
 30
0.0
 10
3.963283609126823
 20
6.67461751662093
 30
0.0
 10
3.959545167557855
 20
6.696398807183003
 30
0.0
 10
3.946505309836238
 20
6.716937726881098
 30
0.0
 10
3.928718304994895
 20
6.729939867802029
 30
0.0
 10
3.91261282105756
 20
6.735802034518349
 30
0.0
 10
3.902216497510171
 20
6.736937325996839
 30
0.0
 10
3.890103750645282
 20
6.736938464818648
 30
0.0
 10
3.873066810749686
 20
6.734011913433389
 30
0.0
 10
3.852571304662786
 20
6.72100280153751
 30
0.0
 10
3.839558058793779
 20
6.703229386501598
 30
0.0
 10
3.83368171663356
 20
6.687107124291843
 30
0.0
 10
3.831725321410884
 20
6.669288213055808
 30
0.0
 10
3.835470143928164
 20
6.647553727798035
 30
0.0
  0
LINE
  5
17D
330
1F
100
AcDbEntity
  8
0
  6
CONTINUOUS
 62
     7
100
AcDbLine
 10
2.5195494892
 20
6.0570558791
 30
0.0
 11
2.5195494892
 21
7.2868983988
 31
0.0
  0
LINE
  5
17E
330
1F
100
AcDbEntity
  8
0
  6
CONTINUOUS
 62
     7
100
AcDbLine
 10
4.1337227176
 20
7.2868983988
 30
0.0
 11
4.1337227176
 21
6.0570558791
 31
0.0
  0
LINE
  5
17F
330
1F
100
AcDbEntity
  8
0
  6
CONTINUOUS
 62
     7
100
AcDbLine
 10
3.8425416152
 20
7.3018983988
 30
0.0
 11
3.952462875
 21
7.3018983988
 31
0.0
  0
LINE
  5
180
330
1F
100
AcDbEntity
  8
0
  6
CONTINUOUS
 62
     7
100
AcDbLine
 10
2.8107305916
 20
7.3018983988
 30
0.0
 11
2.7008093317
 21
7.3018983988
 31
0.0
  0
CIRCLE
  5
181
330
1F
100
AcDbEntity
  8
0
  6
CONTINUOUS
 62
     7
100
AcDbCircle
 10
2.7557699617
 20
6.6719771389
 30
0.0
 40
0.0549606299212595
  0
LINE
  5
182
330
1F
100
AcDbEntity
  8
0
  6
CONTINUOUS
 62
     7
100
AcDbLine
 10
2.7193971166
 20
6.650977267
 30
0.0
 11
2.7193971166
 21
6.6929770108
 31
0.0
  0
LINE
  5
183
330
1F
100
AcDbEntity
  8
0
  6
CONTINUOUS
 62
     7
100
AcDbLine
 10
2.7557699617
 20
6.6299773952
 30
0.0
 11
2.7193971166
 21
6.650977267
 31
0.0
  0
LINE
  5
184
330
1F
100
AcDbEntity
  8
0
  6
CONTINUOUS
 62
     7
100
AcDbLine
 10
2.7921428067
 20
6.650977267
 30
0.0
 11
2.7557699617
 21
6.6299773952
 31
0.0
  0
LINE
  5
185
330
1F
100
AcDbEntity
  8
0
  6
CONTINUOUS
 62
     7
100
AcDbLine
 10
2.7557699617
 20
6.7139768827
 30
0.0
 11
2.7921428067
 21
6.6929770108
 31
0.0
  0
LINE
  5
186
330
1F
100
AcDbEntity
  8
0
  6
CONTINUOUS
 62
     7
100
AcDbLine
 10
2.7193971166
 20
6.6929770108
 30
0.0
 11
2.7557699617
 21
6.7139768827
 31
0.0
  0
LINE
  5
187
330
1F
100
AcDbEntity
  8
0
  6
CONTINUOUS
 62
     7
100
AcDbLine
 10
2.7921428067
 20
6.6929770108
 30
0.0
 11
2.7921428067
 21
6.650977267
 31
0.0
  0
CIRCLE
  5
188
330
1F
100
AcDbEntity
  8
0
  6
CONTINUOUS
 62
     7
100
AcDbCircle
 10
2.7557699617
 20
6.6719771389
 30
0.0
 40
0.0649606299212593
  0
CIRCLE
  5
189
330
1F
100
AcDbEntity
  8
0
  6
CONTINUOUS
 62
     7
100
AcDbCircle
 10
3.8975022451
 20
6.6719771389
 30
0.0
 40
0.0549606299212591
  0
LINE
  5
18A
330
1F
100
AcDbEntity
  8
0
  6
CONTINUOUS
 62
     7
100
AcDbLine
 10
3.8975022451
 20
6.7139768827
 30
0.0
 11
3.8611294001
 21
6.6929770108
 31
0.0
  0
LINE
  5
18B
330
1F
100
AcDbEntity
  8
0
  6
CONTINUOUS
 62
     7
100
AcDbLine
 10
3.8611294001
 20
6.650977267
 30
0.0
 11
3.8975022451
 21
6.6299773952
 31
0.0
  0
LINE
  5
18C
330
1F
100
AcDbEntity
  8
0
  6
CONTINUOUS
 62
     7
100
AcDbLine
 10
3.8975022451
 20
6.6299773952
 30
0.0
 11
3.9338750902
 21
6.650977267
 31
0.0
  0
LINE
  5
18D
330
1F
100
AcDbEntity
  8
0
  6
CONTINUOUS
 62
     7
100
AcDbLine
 10
3.9338750902
 20
6.650977267
 30
0.0
 11
3.9338750902
 21
6.6929770108
 31
0.0
  0
LINE
  5
18E
330
1F
100
AcDbEntity
  8
0
  6
CONTINUOUS
 62
     7
100
AcDbLine
 10
3.8611294001
 20
6.6929770108
 30
0.0
 11
3.8611294001
 21
6.650977267
 31
0.0
  0
LINE
  5
18F
330
1F
100
AcDbEntity
  8
0
  6
CONTINUOUS
 62
     7
100
AcDbLine
 10
3.9338750902
 20
6.6929770108
 30
0.0
 11
3.8975022451
 21
6.7139768827
 31
0.0
  0
CIRCLE
  5
190
330
1F
100
AcDbEntity
  8
0
  6
CONTINUOUS
 62
     7
100
AcDbCircle
 10
3.8975022451
 20
6.6719771389
 30
0.0
 40
0.0649606299212593
  0
SPLINE
  5
191
330
1F
100
AcDbEntity
  8
0
  6
HIDDEN
 62
     7
100
AcDbSpline
210
0.0
220
0.0
230
1.0
 70
     8
 71
     3
 72
    24
 73
    20
 74
     0
 42
0.00000001
 43
0.00000001
 40
0.0
 40
0.0
 40
0.0
 40
0.0
 40
0.0317890065906484
 40
0.0915624864538342
 40
0.1592042943607631
 40
0.234721453226046
 40
0.3105939700296461
 40
0.3783986068326564
 40
0.4381416780480299
 40
0.489838487507968
 40
0.5415413028208544
 40
0.6012782348309534
 40
0.6690647780232362
 40
0.74490739965781
 40
0.8205260851129009
 40
0.888205948583879
 40
0.9479537621100285
 40
0.9997851340967742
 40
0.9999999999999999
 40
0.9999999999999999
 40
0.9999999999999999
 40
0.9999999999999999
 10
2.691130906815122
 20
6.667965126950544
 30
0.0
 10
2.691247001274383
 20
6.665846506949059
 30
0.0
 10
2.691581390375949
 20
6.659744205053164
 30
0.0
 10
2.694463530472834
 20
6.649433277373697
 30
0.0
 10
2.700277399595008
 20
6.637168648318691
 30
0.0
 10
2.709410103066711
 20
6.625640258420231
 30
0.0
 10
2.720935983564131
 20
6.616515501646101
 30
0.0
 10
2.733226328376128
 20
6.610606722624966
 30
0.0
 10
2.744853014163952
 20
6.607615453652603
 30
0.0
 10
2.755736652373477
 20
6.606741249365246
 30
0.0
 10
2.766620655179815
 20
6.607604271556783
 30
0.0
 10
2.778249910008093
 20
6.610583331644887
 30
0.0
 10
2.790540384654816
 20
6.616477569501645
 30
0.0
 10
2.802091515392008
 20
6.625591171285501
 30
0.0
 10
2.811196165661508
 20
6.637117036213458
 30
0.0
 10
2.817167339523926
 20
6.649381406611703
 30
0.0
 10
2.819975740697335
 20
6.660996135786173
 30
0.0
 10
2.821003374232197
 20
6.66847618015646
 30
0.0
 10
2.820728293320911
 20
6.671933755735613
 30
0.0
 10
2.820727157686313
 20
6.671948029872033
 30
0.0
  0
SPLINE
  5
192
330
1F
100
AcDbEntity
  8
0
  6
HIDDEN
 62
     7
100
AcDbSpline
210
0.0
220
0.0
230
1.0
 70
     8
 71
     3
 72
    24
 73
    20
 74
     0
 42
0.00000001
 43
0.00000001
 40
0.0
 40
0.0
 40
0.0
 40
0.0
 40
0.018265339463156
 40
0.0986405014910725
 40
0.188374452452904
 40
0.2781775839659243
 40
0.3584438457381622
 40
0.3950441255119723
 40
0.4292563613059454
 40
0.4610841896173038
 40
0.4905322315823386
 40
0.5303307617151979
 40
0.57439451012748
 40
0.6226943163893208
 40
0.7030191181891576
 40
0.7928716297968114
 40
0.8825575521237484
 40
0.9628342547484784
 40
1.0
 40
1.0
 40
1.0
 40
1.0
 10
2.817693473122367
 20
6.690897087688818
 30
0.0
 10
2.817453383846301
 20
6.691896307234854
 30
0.0
 10
2.816156800958172
 20
6.697292512288669
 30
0.0
 10
2.811093008054251
 20
6.706771415626233
 30
0.0
 10
2.802139394990554
 20
6.718360914209485
 30
0.0
 10
2.790550059121624
 20
6.727462437052263
 30
0.0
 10
2.780014645721338
 20
6.732525914195013
 30
0.0
 10
2.771882367091001
 20
6.735002188868743
 30
0.0
 10
2.766224290096712
 20
6.736171856673519
 30
0.0
 10
2.760885983127982
 20
6.736804850023314
 30
0.0
 10
2.755200128960921
 20
6.737023598090491
 30
0.0
 10
2.748823839953328
 20
6.736694913603394
 30
0.0
 10
2.741472419029925
 20
6.735504591311515
 30
0.0
 10
2.732123602401537
 20
6.732813239750901
 30
0.0
 10
2.720984193936502
 20
6.727462679398754
 30
0.0
 10
2.709409300135938
 20
6.718351858855674
 30
0.0
 10
2.700398790740141
 20
6.706785462096342
 30
0.0
 10
2.695002132087518
 20
6.696308692891979
 30
0.0
 10
2.693523083991949
 20
6.689863076166082
 30
0.0
 10
2.693055025587781
 20
6.687823301335467
 30
0.0
  0
LINE
  5
193
330
1F
100
AcDbEntity
  8
0
  6
HIDDEN
 62
     7
100
AcDbLine
 10
3.3766361034
 20
6.8838275326
 30
0.0
 11
3.3766361034
 21
6.4601267452
 31
0.0
  0
LINE
  5
194
330
1F
100
AcDbEntity
  8
0
  6
HIDDEN
 62
     7
100
AcDbLine
 10
3.2766361034
 20
6.8838275326
 30
0.0
 11
3.2766361034
 21
6.4601267452
 31
0.0
  0
SPLINE
  5
195
330
1F
100
AcDbEntity
  8
0
  6
HIDDEN
 62
     7
100
AcDbSpline
210
0.0
220
0.0
230
1.0
 70
     8
 71
     3
 72
    26
 73
    22
 74
     0
 42
0.00000001
 43
0.00000001
 40
0.0
 40
0.0
 40
0.0
 40
0.0
 40
0.0510010751203129
 40
0.1035284159083629
 40
0.1545170220056138
 40
0.206902599155757
 40
0.2594654360859546
 40
0.3134686212222673
 40
0.3674125452325631
 40
0.4230222741573708
 40
0.4751404897237326
 40
0.5289148813724728
 40
0.57878775419483
 40
0.6300678550038318
 40
0.6807901973563942
 40
0.7328464992727315
 40
0.7861164535448113
 40
0.8408975778630503
 40
0.8945859057461965
 40
0.9499673141472498
 40
1.0
 40
1.0
 40
1.0
 40
1.0
 10
3.832541615195576
 20
6.868827532617214
 30
0.0
 10
3.832705197584006
 20
6.868773241890268
 30
0.0
 10
3.833037257751457
 20
6.868663035724105
 30
0.0
 10
3.835700513818856
 20
6.867798830092796
 30
0.0
 10
3.839889227577482
 20
6.86650792610172
 30
0.0
 10
3.8456080308803
 20
6.864876891399715
 30
0.0
 10
3.852813290410789
 20
6.863047374153696
 30
0.0
 10
3.861332403259043
 20
6.861216646300723
 30
0.0
 10
3.871079073613835
 20
6.859578040014677
 30
0.0
 10
3.881538118157569
 20
6.858381681929127
 30
0.0
 10
3.892483228725182
 20
6.857761341114595
 30
0.0
 10
3.90320175288077
 20
6.85778576866586
 30
0.0
 10
3.913678691947348
 20
6.858412724470241
 30
0.0
 10
3.923500112927258
 20
6.859530200940832
 30
0.0
 10
3.932744463481545
 20
6.861046422167306
 30
0.0
 10
3.941162974109844
 20
6.862808124114554
 30
0.0
 10
3.948603338317914
 20
6.864660796715428
 30
0.0
 10
3.954702781831366
 20
6.866383129145837
 30
0.0
 10
3.959207943666723
 20
6.867767218910512
 30
0.0
 10
3.9619779357529
 20
6.868666635145772
 30
0.0
 10
3.962291648149585
 20
6.868770775643624
 30
0.0
 10
3.962440545447452
 20
6.868820203842485
 30
0.0
  0
SPLINE
  5
196
330
1F
100
AcDbEntity
  8
0
  6
HIDDEN
 62
     7
100
AcDbSpline
210
0.0
220
0.0
230
1.0
 70
     8
 71
     3
 72
    26
 73
    22
 74
     0
 42
0.00000001
 43
0.00000001
 40
0.0
 40
0.0
 40
0.0
 40
0.0
 40
0.0510010751203128
 40
0.1035284159083628
 40
0.1545170220056138
 40
0.206902599155757
 40
0.2594654360859542
 40
0.3134686212222672
 40
0.3674125452325626
 40
0.4230222741573705
 40
0.4751404897237326
 40
0.5289148813724728
 40
0.57878775419483
 40
0.6300678550038314
 40
0.6807901973563939
 40
0.7328464992727316
 40
0.7861164535448106
 40
0.8408975778630499
 40
0.8945859057461961
 40
0.9499673141472492
 40
1.0
 40
1.0
 40
1.0
 40
1.0
 10
2.690809331731009
 20
6.868827532617214
 30
0.0
 10
2.690972914119439
 20
6.868773241890268
 30
0.0
 10
2.69130497428689
 20
6.868663035724105
 30
0.0
 10
2.693968230354288
 20
6.867798830092796
 30
0.0
 10
2.698156944112915
 20
6.86650792610172
 30
0.0
 10
2.703875747415732
 20
6.864876891399715
 30
0.0
 10
2.711081006946223
 20
6.863047374153695
 30
0.0
 10
2.719600119794476
 20
6.861216646300723
 30
0.0
 10
2.729346790149268
 20
6.859578040014677
 30
0.0
 10
2.739805834693001
 20
6.858381681929127
 30
0.0
 10
2.750750945260615
 20
6.857761341114595
 30
0.0
 10
2.761469469416202
 20
6.85778576866586
 30
0.0
 10
2.771946408482781
 20
6.858412724470241
 30
0.0
 10
2.78176782946269
 20
6.859530200940832
 30
0.0
 10
2.791012180016978
 20
6.861046422167306
 30
0.0
 10
2.799430690645276
 20
6.862808124114554
 30
0.0
 10
2.806871054853346
 20
6.864660796715428
 30
0.0
 10
2.812970498366798
 20
6.866383129145837
 30
0.0
 10
2.817475660202156
 20
6.867767218910512
 30
0.0
 10
2.820245652288332
 20
6.868666635145772
 30
0.0
 10
2.820559364685018
 20
6.868770775643624
 30
0.0
 10
2.820708261982884
 20
6.868820203842485
 30
0.0
  0
LINE
  5
197
330
1F
100
AcDbEntity
  8
0
  6
HIDDEN
 62
     7
100
AcDbLine
 10
3.962462875
 20
7.2918983988
 30
0.0
 11
3.8325416152
 21
7.2918983988
 31
0.0
  0
LINE
  5
198
330
1F
100
AcDbEntity
  8
0
  6
HIDDEN
 62
     7
100
AcDbLine
 10
3.8325416152
 20
6.8788275326
 30
0.0
 11
3.962462875
 21
6.8788275326
 31
0.0
  0
LINE
  5
199
330
1F
100
AcDbEntity
  8
0
  6
HIDDEN
 62
     7
100
AcDbLine
 10
3.952462875
 20
6.8688275326
 30
0.0
 11
3.8425416152
 21
6.8688275326
 31
0.0
  0
LINE
  5
19A
330
1F
100
AcDbEntity
  8
0
  6
HIDDEN
 62
     7
100
AcDbLine
 10
3.8975022451
 20
7.2518983988
 30
0.0
 11
3.8975022451
 21
7.3018983988
 31
0.0
  0
LINE
  5
19B
330
1F
100
AcDbEntity
  8
0
  6
HIDDEN
 62
     7
100
AcDbLine
 10
3.8611294001
 20
7.2518983988
 30
0.0
 11
3.8975022451
 21
7.2518983988
 31
0.0
  0
LINE
  5
19C
330
1F
100
AcDbEntity
  8
0
  6
HIDDEN
 62
     7
100
AcDbLine
 10
3.8975022451
 20
7.2518983988
 30
0.0
 11
3.9338750902
 21
7.2518983988
 31
0.0
  0
LINE
  5
19D
330
1F
100
AcDbEntity
  8
0
  6
HIDDEN
 62
     7
100
AcDbLine
 10
3.9338750902
 20
7.2518983988
 30
0.0
 11
3.9338750902
 21
7.3018983988
 31
0.0
  0
LINE
  5
19E
330
1F
100
AcDbEntity
  8
0
  6
HIDDEN
 62
     7
100
AcDbLine
 10
3.8611294001
 20
7.2518983988
 30
0.0
 11
3.8611294001
 21
7.3018983988
 31
0.0
  0
LINE
  5
19F
330
1F
100
AcDbEntity
  8
0
  6
HIDDEN
 62
     7
100
AcDbLine
 10
2.6908093317
 20
7.2918983988
 30
0.0
 11
2.8207305916
 21
7.2918983988
 31
0.0
  0
LINE
  5
1A0
330
1F
100
AcDbEntity
  8
0
  6
HIDDEN
 62
     7
100
AcDbLine
 10
2.8207305916
 20
6.8788275326
 30
0.0
 11
2.6908093317
 21
6.8788275326
 31
0.0
  0
LINE
  5
1A1
330
1F
100
AcDbEntity
  8
0
  6
HIDDEN
 62
     7
100
AcDbLine
 10
2.7008093317
 20
6.8688275326
 30
0.0
 11
2.8107305916
 21
6.8688275326
 31
0.0
  0
LINE
  5
1A2
330
1F
100
AcDbEntity
  8
0
  6
HIDDEN
 62
     7
100
AcDbLine
 10
2.7557699617
 20
7.2518983988
 30
0.0
 11
2.7557699617
 21
7.3018983988
 31
0.0
  0
LINE
  5
1A3
330
1F
100
AcDbEntity
  8
0
  6
HIDDEN
 62
     7
100
AcDbLine
 10
2.7557699617
 20
7.2518983988
 30
0.0
 11
2.7193971166
 21
7.2518983988
 31
0.0
  0
LINE
  5
1A4
330
1F
100
AcDbEntity
  8
0
  6
HIDDEN
 62
     7
100
AcDbLine
 10
2.7921428067
 20
7.2518983988
 30
0.0
 11
2.7557699617
 21
7.2518983988
 31
0.0
  0
LINE
  5
1A5
330
1F
100
AcDbEntity
  8
0
  6
HIDDEN
 62
     7
100
AcDbLine
 10
2.7193971166
 20
7.2518983988
 30
0.0
 11
2.7193971166
 21
7.3018983988
 31
0.0
  0
LINE
  5
1A6
330
1F
100
AcDbEntity
  8
0
  6
HIDDEN
 62
     7
100
AcDbLine
 10
2.7921428067
 20
7.2518983988
 30
0.0
 11
2.7921428067
 21
7.3018983988
 31
0.0
  0
LINE
  5
1A7
330
1F
100
AcDbEntity
  8
0
  6
HIDDEN
 62
     7
100
AcDbLine
 10
3.3766361034
 20
6.8838275326
 30
0.0
 11
3.2766361034
 21
6.8838275326
 31
0.0
  0
LINE
  5
1A8
330
1F
100
AcDbEntity
  8
0
  6
HIDDEN
 62
     7
100
AcDbLine
 10
3.2766361034
 20
6.4601267452
 30
0.0
 11
3.3766361034
 21
6.4601267452
 31
0.0
  0
LINE
  5
1A9
330
1F
100
AcDbEntity
  8
0
  6
HIDDEN
 62
     7
100
AcDbLine
 10
2.5195494892
 20
6.4601267452
 30
0.0
 11
2.5345494892
 21
6.4751267452
 31
0.0
  0
LINE
  5
1AA
330
1F
100
AcDbEntity
  8
0
  6
HIDDEN
 62
     7
100
AcDbLine
 10
2.5345494892
 20
6.8688275326
 30
0.0
 11
2.5195494892
 21
6.8838275326
 31
0.0
  0
LINE
  5
1AB
330
1F
100
AcDbEntity
  8
0
  6
HIDDEN
 62
     7
100
AcDbLine
 10
4.1337227176
 20
6.8838275326
 30
0.0
 11
4.1187227176
 21
6.8688275326
 31
0.0
  0
LINE
  5
1AC
330
1F
100
AcDbEntity
  8
0
  6
HIDDEN
 62
     7
100
AcDbLine
 10
4.1187227176
 20
6.4751267452
 30
0.0
 11
4.1337227176
 21
6.4601267452
 31
0.0
  0
LINE
  5
1AD
330
1F
100
AcDbEntity
  8
0
  6
HIDDEN
 62
     7
100
AcDbLine
 10
3.8325416152
 20
6.8688275326
 30
0.0
 11
3.3766361034
 21
6.8688275326
 31
0.0
  0
LINE
  5
1AE
330
1F
100
AcDbEntity
  8
0
  6
HIDDEN
 62
     7
100
AcDbLine
 10
4.1187227176
 20
6.8688275326
 30
0.0
 11
3.9624405454
 21
6.8688275326
 31
0.0
  0
LINE
  5
1AF
330
1F
100
AcDbEntity
  8
0
  6
HIDDEN
 62
     7
100
AcDbLine
 10
3.3766361034
 20
6.4751267452
 30
0.0
 11
4.1187227176
 21
6.4751267452
 31
0.0
  0
LINE
  5
1B0
330
1F
100
AcDbEntity
  8
0
  6
HIDDEN
 62
     7
100
AcDbLine
 10
2.6908093317
 20
6.8688275326
 30
0.0
 11
2.5345494892
 21
6.8688275326
 31
0.0
  0
LINE
  5
1B1
330
1F
100
AcDbEntity
  8
0
  6
HIDDEN
 62
     7
100
AcDbLine
 10
3.2766361034
 20
6.8688275326
 30
0.0
 11
2.820708262
 21
6.8688275326
 31
0.0
  0
LINE
  5
1B2
330
1F
100
AcDbEntity
  8
0
  6
HIDDEN
 62
     7
100
AcDbLine
 10
2.5345494892
 20
6.4751267452
 30
0.0
 11
3.2766361034
 21
6.4751267452
 31
0.0
  0
LINE
  5
1B3
330
1F
100
AcDbEntity
  8
0
  6
HIDDEN
 62
     7
100
AcDbLine
 10
3.962462875
 20
6.8688202425
 30
0.0
 11
3.962462875
 21
7.3018983988
 31
0.0
  0
LINE
  5
1B4
330
1F
100
AcDbEntity
  8
0
  6
HIDDEN
 62
     7
100
AcDbLine
 10
3.8325416152
 20
7.3018983988
 30
0.0
 11
3.8325416152
 21
6.8688275326
 31
0.0
  0
LINE
  5
1B5
330
1F
100
AcDbEntity
  8
0
  6
HIDDEN
 62
     7
100
AcDbLine
 10
2.8207305916
 20
6.8688202425
 30
0.0
 11
2.8207305916
 21
7.3018983988
 31
0.0
  0
LINE
  5
1B6
330
1F
100
AcDbEntity
  8
0
  6
HIDDEN
 62
     7
100
AcDbLine
 10
2.6908093317
 20
7.3018983988
 30
0.0
 11
2.6908093317
 21
6.8688275326
 31
0.0
  0
LINE
  5
1B7
330
1F
100
AcDbEntity
  8
0
  6
HIDDEN
 62
     7
100
AcDbLine
 10
3.962462875
 20
7.2918983988
 30
0.0
 11
3.9533357882
 21
7.3010254856
 31
0.0
  0
LINE
  5
1B8
330
1F
100
AcDbEntity
  8
0
  6
HIDDEN
 62
     7
100
AcDbLine
 10
3.8416685147
 20
7.3010252982
 30
0.0
 11
3.8325416152
 21
7.2918983988
 31
0.0
  0
LINE
  5
1B9
330
1F
100
AcDbEntity
  8
0
  6
HIDDEN
 62
     7
100
AcDbLine
 10
3.962462875
 20
6.8788275326
 30
0.0
 11
3.962462875
 21
7.2918983988
 31
0.0
  0
LINE
  5
1BA
330
1F
100
AcDbEntity
  8
0
  6
HIDDEN
 62
     7
100
AcDbLine
 10
3.8325416152
 20
7.2918983988
 30
0.0
 11
3.8325416152
 21
6.8788275326
 31
0.0
  0
LINE
  5
1BB
330
1F
100
AcDbEntity
  8
0
  6
HIDDEN
 62
     7
100
AcDbLine
 10
3.8325416152
 20
6.8788275326
 30
0.0
 11
3.8425416152
 21
6.8688275326
 31
0.0
  0
LINE
  5
1BC
330
1F
100
AcDbEntity
  8
0
  6
HIDDEN
 62
     7
100
AcDbLine
 10
3.952462875
 20
6.8688275326
 30
0.0
 11
3.962462875
 21
6.8788275326
 31
0.0
  0
LINE
  5
1BD
330
1F
100
AcDbEntity
  8
0
  6
HIDDEN
 62
     7
100
AcDbLine
 10
2.8207305916
 20
7.2918983988
 30
0.0
 11
2.8116035047
 21
7.3010254856
 31
0.0
  0
LINE
  5
1BE
330
1F
100
AcDbEntity
  8
0
  6
HIDDEN
 62
     7
100
AcDbLine
 10
2.6999362312
 20
7.3010252982
 30
0.0
 11
2.6908093317
 21
7.2918983988
 31
0.0
  0
LINE
  5
1BF
330
1F
100
AcDbEntity
  8
0
  6
HIDDEN
 62
     7
100
AcDbLine
 10
2.8207305916
 20
6.8788275326
 30
0.0
 11
2.8207305916
 21
7.2918983988
 31
0.0
  0
LINE
  5
1C0
330
1F
100
AcDbEntity
  8
0
  6
HIDDEN
 62
     7
100
AcDbLine
 10
2.6908093317
 20
7.2918983988
 30
0.0
 11
2.6908093317
 21
6.8788275326
 31
0.0
  0
LINE
  5
1C1
330
1F
100
AcDbEntity
  8
0
  6
HIDDEN
 62
     7
100
AcDbLine
 10
2.6908093317
 20
6.8788275326
 30
0.0
 11
2.7008093317
 21
6.8688275326
 31
0.0
  0
LINE
  5
1C2
330
1F
100
AcDbEntity
  8
0
  6
HIDDEN
 62
     7
100
AcDbLine
 10
2.8107305916
 20
6.8688275326
 30
0.0
 11
2.8207305916
 21
6.8788275326
 31
0.0
  0
LINE
  5
1C3
330
1F
100
AcDbEntity
  8
0
  6
CONTINUOUS
 62
     7
100
AcDbLine
 10
8.7337025987
 20
6.0131920288
 30
0.0
 11
8.7443074766
 21
6.0193160848
 31
0.0
  0
LINE
  5
1C4
330
1F
100
AcDbEntity
  8
0
  6
CONTINUOUS
 62
     7
100
AcDbLine
 10
9.1790517996
 20
6.7723969385
 30
0.0
 11
9.1790517996
 21
6.7846430602
 31
0.0
  0
LINE
  5
1C5
330
1F
100
AcDbEntity
  8
0
  6
CONTINUOUS
 62
     7
100
AcDbLine
 10
7.2985155389
 20
6.6286299936
 30
0.0
 11
8.4186951713
 21
5.9819640565
 31
0.0
  0
LINE
  5
1C6
330
1F
100
AcDbEntity
  8
0
  6
CONTINUOUS
 62
     7
100
AcDbLine
 10
9.0485652391
 20
7.0730492375
 30
0.0
 11
7.9283856067
 21
7.7197151745
 31
0.0
  0
LINE
  5
1C7
330
1F
100
AcDbEntity
  8
0
  6
CONTINUOUS
 62
     7
100
AcDbLine
 10
7.6133781793
 20
7.6884872023
 30
0.0
 11
7.6027733014
 21
7.6823631463
 31
0.0
  0
LINE
  5
1C8
330
1F
100
AcDbEntity
  8
0
  6
CONTINUOUS
 62
     7
100
AcDbLine
 10
7.1680289784
 20
6.9292822926
 30
0.0
 11
7.1680289784
 21
6.9170361709
 31
0.0
  0
LINE
  5
1C9
330
1F
100
AcDbEntity
  8
0
  6
CONTINUOUS
 62
     7
100
AcDbLine
 10
8.7163916409
 20
6.6532909198
 30
0.0
 11
8.7234615595
 21
6.6492082158
 31
0.0
  0
LINE
  5
1CA
330
1F
100
AcDbEntity
  8
0
  6
CONTINUOUS
 62
     7
100
AcDbLine
 10
7.8158186347
 20
7.616573382
 30
0.0
 11
7.8087464179
 21
7.6206574129
 31
0.0
  0
LINE
  5
1CB
330
1F
100
AcDbEntity
  8
0
  6
CONTINUOUS
 62
     7
100
AcDbLine
 10
7.7310077201
 20
7.6206574129
 30
0.0
 11
7.7239355033
 21
7.616573382
 31
0.0
  0
LINE
  5
1CC
330
1F
100
AcDbEntity
  8
0
  6
CONTINUOUS
 62
     7
100
AcDbLine
 10
7.834837699
 20
7.5833260179
 30
0.0
 11
7.834837699
 21
7.5900604988
 31
0.0
  0
LINE
  5
1CD
330
1F
100
AcDbEntity
  8
0
  6
CONTINUOUS
 62
     7
100
AcDbLine
 10
7.7049164391
 20
7.5900604988
 30
0.0
 11
7.7049164391
 21
7.5829385388
 31
0.0
  0
LINE
  5
1CE
330
1F
100
AcDbEntity
  8
0
  6
CONTINUOUS
 62
     7
100
AcDbLine
 10
8.6231452747
 20
7.1505136331
 30
0.0
 11
8.6160730579
 21
7.154597664
 31
0.0
  0
LINE
  5
1CF
330
1F
100
AcDbEntity
  8
0
  6
CONTINUOUS
 62
     7
100
AcDbLine
 10
8.5383343601
 20
7.154597664
 30
0.0
 11
8.5312621433
 21
7.1505136331
 31
0.0
  0
LINE
  5
1D0
330
1F
100
AcDbEntity
  8
0
  6
CONTINUOUS
 62
     7
100
AcDbLine
 10
8.6421643389
 20
7.117266269
 30
0.0
 11
8.6421643389
 21
7.1240007499
 31
0.0
  0
LINE
  5
1D1
330
1F
100
AcDbEntity
  8
0
  6
CONTINUOUS
 62
     7
100
AcDbLine
 10
8.512243079
 20
7.1240007499
 30
0.0
 11
8.512243079
 21
7.1168787899
 31
0.0
  0
POLYLINE
  5
1D2
330
1F
100
AcDbEntity
  8
0
  6
CONTINUOUS
 62
     7
100
AcDb2dPolyline
 66
     1
 10
0.0
 20
0.0
 30
0.0
  0
VERTEX
  5
230
330
1D2
100
AcDbEntity
  8
0
  6
CONTINUOUS
 62
     7
100
AcDbVertex
100
AcDb2dVertex
 10
9.1790517996
 20
6.7723969385
 30
0.0
  0
VERTEX
  5
231
330
1D2
100
AcDbEntity
  8
0
  6
CONTINUOUS
 62
     7
100
AcDbVertex
100
AcDb2dVertex
 10
9.1784657074
 20
6.7981199328
 30
0.0
  0
VERTEX
  5
232
330
1D2
100
AcDbEntity
  8
0
  6
CONTINUOUS
 62
     7
100
AcDbVertex
100
AcDb2dVertex
 10
9.1767090109
 20
6.8230968949
 30
0.0
  0
VERTEX
  5
233
330
1D2
100
AcDbEntity
  8
0
  6
CONTINUOUS
 62
     7
100
AcDbVertex
100
AcDb2dVertex
 10
9.1737864458
 20
6.8472604912
 30
0.0
  0
VERTEX
  5
234
330
1D2
100
AcDbEntity
  8
0
  6
CONTINUOUS
 62
     7
100
AcDbVertex
100
AcDb2dVertex
 10
9.1697058908
 20
6.870545581
 30
0.0
  0
VERTEX
  5
235
330
1D2
100
AcDbEntity
  8
0
  6
CONTINUOUS
 62
     7
100
AcDbVertex
100
AcDb2dVertex
 10
9.1644783464
 20
6.8928893918
 30
0.0
  0
VERTEX
  5
236
330
1D2
100
AcDbEntity
  8
0
  6
CONTINUOUS
 62
     7
100
AcDbVertex
100
AcDb2dVertex
 10
9.158117905
 20
6.9142316886
 30
0.0
  0
VERTEX
  5
237
330
1D2
100
AcDbEntity
  8
0
  6
CONTINUOUS
 62
     7
100
AcDbVertex
100
AcDb2dVertex
 10
9.1506417135
 20
6.9345149364
 30
0.0
  0
VERTEX
  5
238
330
1D2
100
AcDbEntity
  8
0
  6
CONTINUOUS
 62
     7
100
AcDbVertex
100
AcDb2dVertex
 10
9.1420699261
 20
6.9536844551
 30
0.0
  0
VERTEX
  5
239
330
1D2
100
AcDbEntity
  8
0
  6
CONTINUOUS
 62
     7
100
AcDbVertex
100
AcDb2dVertex
 10
9.132425651
 20
6.9716885671
 30
0.0
  0
VERTEX
  5
23A
330
1D2
100
AcDbEntity
  8
0
  6
CONTINUOUS
 62
     7
100
AcDbVertex
100
AcDb2dVertex
 10
9.1217348873
 20
6.9884787365
 30
0.0
  0
VERTEX
  5
23B
330
1D2
100
AcDbEntity
  8
0
  6
CONTINUOUS
 62
     7
100
AcDbVertex
100
AcDb2dVertex
 10
9.1100264556
 20
7.0040096999
 30
0.0
  0
VERTEX
  5
23C
330
1D2
100
AcDbEntity
  8
0
  6
CONTINUOUS
 62
     7
100
AcDbVertex
100
AcDb2dVertex
 10
9.0973319197
 20
7.0182395887
 30
0.0
  0
VERTEX
  5
23D
330
1D2
100
AcDbEntity
  8
0
  6
CONTINUOUS
 62
     7
100
AcDbVertex
100
AcDb2dVertex
 10
9.0836855018
 20
7.0311300415
 30
0.0
  0
VERTEX
  5
23E
330
1D2
100
AcDbEntity
  8
0
  6
CONTINUOUS
 62
     7
100
AcDbVertex
100
AcDb2dVertex
 10
9.0691239902
 20
7.042646308
 30
0.0
  0
VERTEX
  5
23F
330
1D2
100
AcDbEntity
  8
0
  6
CONTINUOUS
 62
     7
100
AcDbVertex
100
AcDb2dVertex
 10
9.0536866402
 20
7.0527573424
 30
0.0
  0
VERTEX
  5
240
330
1D2
100
AcDbEntity
  8
0
  6
CONTINUOUS
 62
     7
100
AcDbVertex
100
AcDb2dVertex
 10
9.0374150682
 20
7.061435887
 30
0.0
  0
VERTEX
  5
241
330
1D2
100
AcDbEntity
  8
0
  6
CONTINUOUS
 62
     7
100
AcDbVertex
100
AcDb2dVertex
 10
9.0203531394
 20
7.0686585462
 30
0.0
  0
VERTEX
  5
242
330
1D2
100
AcDbEntity
  8
0
  6
CONTINUOUS
 62
     7
100
AcDbVertex
100
AcDb2dVertex
 10
9.0025468498
 20
7.0744058488
 30
0.0
  0
VERTEX
  5
243
330
1D2
100
AcDbEntity
  8
0
  6
CONTINUOUS
 62
     7
100
AcDbVertex
100
AcDb2dVertex
 10
8.984044202
 20
7.0786623011
 30
0.0
  0
VERTEX
  5
244
330
1D2
100
AcDbEntity
  8
0
  6
CONTINUOUS
 62
     7
100
AcDbVertex
100
AcDb2dVertex
 10
8.9648950758
 20
7.0814164286
 30
0.0
  0
VERTEX
  5
245
330
1D2
100
AcDbEntity
  8
0
  6
CONTINUOUS
 62
     7
100
AcDbVertex
100
AcDb2dVertex
 10
8.945151094
 20
7.0826608065
 30
0.0
  0
VERTEX
  5
246
330
1D2
100
AcDbEntity
  8
0
  6
CONTINUOUS
 62
     7
100
AcDbVertex
100
AcDb2dVertex
 10
8.9248654827
 20
7.0823920803
 30
0.0
  0
VERTEX
  5
247
330
1D2
100
AcDbEntity
  8
0
  6
CONTINUOUS
 62
     7
100
AcDbVertex
100
AcDb2dVertex
 10
8.9040929285
 20
7.0806109744
 30
0.0
  0
VERTEX
  5
248
330
1D2
100
AcDbEntity
  8
0
  6
CONTINUOUS
 62
     7
100
AcDbVertex
100
AcDb2dVertex
 10
8.8828894305
 20
7.0773222903
 30
0.0
  0
VERTEX
  5
249
330
1D2
100
AcDbEntity
  8
0
  6
CONTINUOUS
 62
     7
100
AcDbVertex
100
AcDb2dVertex
 10
8.8613121495
 20
7.0725348937
 30
0.0
  0
VERTEX
  5
24A
330
1D2
100
AcDbEntity
  8
0
  6
CONTINUOUS
 62
     7
100
AcDbVertex
100
AcDb2dVertex
 10
8.839419254
 20
7.0662616907
 30
0.0
  0
VERTEX
  5
24B
330
1D2
100
AcDbEntity
  8
0
  6
CONTINUOUS
 62
     7
100
AcDbVertex
100
AcDb2dVertex
 10
8.8172697636
 20
7.0585195926
 30
0.0
  0
VERTEX
  5
24C
330
1D2
100
AcDbEntity
  8
0
  6
CONTINUOUS
 62
     7
100
AcDbVertex
100
AcDb2dVertex
 10
8.7949233891
 20
7.0493294708
 30
0.0
  0
VERTEX
  5
24D
330
1D2
100
AcDbEntity
  8
0
  6
CONTINUOUS
 62
     7
100
AcDbVertex
100
AcDb2dVertex
 10
8.7724403726
 20
7.0387161003
 30
0.0
  0
VERTEX
  5
24E
330
1D2
100
AcDbEntity
  8
0
  6
CONTINUOUS
 62
     7
100
AcDbVertex
100
AcDb2dVertex
 10
8.7498813243
 20
7.0267080927
 30
0.0
  0
VERTEX
  5
24F
330
1D2
100
AcDbEntity
  8
0
  6
CONTINUOUS
 62
     7
100
AcDbVertex
100
AcDb2dVertex
 10
8.7273070594
 20
7.0133378196
 30
0.0
  0
VERTEX
  5
250
330
1D2
100
AcDbEntity
  8
0
  6
CONTINUOUS
 62
     7
100
AcDbVertex
100
AcDb2dVertex
 10
8.7047784341
 20
6.9986413249
 30
0.0
  0
VERTEX
  5
251
330
1D2
100
AcDbEntity
  8
0
  6
CONTINUOUS
 62
     7
100
AcDbVertex
100
AcDb2dVertex
 10
8.6823561815
 20
6.9826582277
 30
0.0
  0
VERTEX
  5
252
330
1D2
100
AcDbEntity
  8
0
  6
CONTINUOUS
 62
     7
100
AcDbVertex
100
AcDb2dVertex
 10
8.6601007482
 20
6.9654316156
 30
0.0
  0
VERTEX
  5
253
330
1D2
100
AcDbEntity
  8
0
  6
CONTINUOUS
 62
     7
100
AcDbVertex
100
AcDb2dVertex
 10
8.6380721308
 20
6.9470079286
 30
0.0
  0
VERTEX
  5
254
330
1D2
100
AcDbEntity
  8
0
  6
CONTINUOUS
 62
     7
100
AcDbVertex
100
AcDb2dVertex
 10
8.6163297147
 20
6.9274368335
 30
0.0
  0
VERTEX
  5
255
330
1D2
100
AcDbEntity
  8
0
  6
CONTINUOUS
 62
     7
100
AcDbVertex
100
AcDb2dVertex
 10
8.5949321134
 20
6.9067710907
 30
0.0
  0
VERTEX
  5
256
330
1D2
100
AcDbEntity
  8
0
  6
CONTINUOUS
 62
     7
100
AcDbVertex
100
AcDb2dVertex
 10
8.5739370112
 20
6.8850664113
 30
0.0
  0
VERTEX
  5
257
330
1D2
100
AcDbEntity
  8
0
  6
CONTINUOUS
 62
     7
100
AcDbVertex
100
AcDb2dVertex
 10
8.5534010071
 20
6.8623813074
 30
0.0
  0
VERTEX
  5
258
330
1D2
100
AcDbEntity
  8
0
  6
CONTINUOUS
 62
     7
100
AcDbVertex
100
AcDb2dVertex
 10
8.5333794626
 20
6.8387769338
 30
0.0
  0
VERTEX
  5
259
330
1D2
100
AcDbEntity
  8
0
  6
CONTINUOUS
 62
     7
100
AcDbVertex
100
AcDb2dVertex
 10
8.5139263523
 20
6.8143169239
 30
0.0
  0
VERTEX
  5
25A
330
1D2
100
AcDbEntity
  8
0
  6
CONTINUOUS
 62
     7
100
AcDbVertex
100
AcDb2dVertex
 10
8.4950941182
 20
6.7890672175
 30
0.0
  0
VERTEX
  5
25B
330
1D2
100
AcDbEntity
  8
0
  6
CONTINUOUS
 62
     7
100
AcDbVertex
100
AcDb2dVertex
 10
8.4769335287
 20
6.7630958834
 30
0.0
  0
VERTEX
  5
25C
330
1D2
100
AcDbEntity
  8
0
  6
CONTINUOUS
 62
     7
100
AcDbVertex
100
AcDb2dVertex
 10
8.4594935416
 20
6.7364729356
 30
0.0
  0
VERTEX
  5
25D
330
1D2
100
AcDbEntity
  8
0
  6
CONTINUOUS
 62
     7
100
AcDbVertex
100
AcDb2dVertex
 10
8.442821172
 20
6.709270145
 30
0.0
  0
VERTEX
  5
25E
330
1D2
100
AcDbEntity
  8
0
  6
CONTINUOUS
 62
     7
100
AcDbVertex
100
AcDb2dVertex
 10
8.4269613657
 20
6.6815608454
 30
0.0
  0
VERTEX
  5
25F
330
1D2
100
AcDbEntity
  8
0
  6
CONTINUOUS
 62
     7
100
AcDbVertex
100
AcDb2dVertex
 10
8.4119568779
 20
6.6534197363
 30
0.0
  0
VERTEX
  5
260
330
1D2
100
AcDbEntity
  8
0
  6
CONTINUOUS
 62
     7
100
AcDbVertex
100
AcDb2dVertex
 10
8.397848158
 20
6.6249226811
 30
0.0
  0
VERTEX
  5
261
330
1D2
100
AcDbEntity
  8
0
  6
CONTINUOUS
 62
     7
100
AcDbVertex
100
AcDb2dVertex
 10
8.3846732407
 20
6.5961465027
 30
0.0
  0
VERTEX
  5
262
330
1D2
100
AcDbEntity
  8
0
  6
CONTINUOUS
 62
     7
100
AcDbVertex
100
AcDb2dVertex
 10
8.3724676432
 20
6.5671687768
 30
0.0
  0
VERTEX
  5
263
330
1D2
100
AcDbEntity
  8
0
  6
CONTINUOUS
 62
     7
100
AcDbVertex
100
AcDb2dVertex
 10
8.3612642696
 20
6.5380676221
 30
0.0
  0
VERTEX
  5
264
330
1D2
100
AcDbEntity
  8
0
  6
CONTINUOUS
 62
     7
100
AcDbVertex
100
AcDb2dVertex
 10
8.3510933223
 20
6.5089214901
 30
0.0
  0
VERTEX
  5
265
330
1D2
100
AcDbEntity
  8
0
  6
CONTINUOUS
 62
     7
100
AcDbVertex
100
AcDb2dVertex
 10
8.3419822203
 20
6.4798089538
 30
0.0
  0
VERTEX
  5
266
330
1D2
100
AcDbEntity
  8
0
  6
CONTINUOUS
 62
     7
100
AcDbVertex
100
AcDb2dVertex
 10
8.3339555255
 20
6.4508084953
 30
0.0
  0
VERTEX
  5
267
330
1D2
100
AcDbEntity
  8
0
  6
CONTINUOUS
 62
     7
100
AcDbVertex
100
AcDb2dVertex
 10
8.3270348765
 20
6.4219982948
 30
0.0
  0
VERTEX
  5
268
330
1D2
100
AcDbEntity
  8
0
  6
CONTINUOUS
 62
     7
100
AcDbVertex
100
AcDb2dVertex
 10
8.3212389302
 20
6.3934560195
 30
0.0
  0
VERTEX
  5
269
330
1D2
100
AcDbEntity
  8
0
  6
CONTINUOUS
 62
     7
100
AcDbVertex
100
AcDb2dVertex
 10
8.3165833114
 20
6.3652586143
 30
0.0
  0
VERTEX
  5
26A
330
1D2
100
AcDbEntity
  8
0
  6
CONTINUOUS
 62
     7
100
AcDbVertex
100
AcDb2dVertex
 10
8.3130805708
 20
6.3374820944
 30
0.0
  0
VERTEX
  5
26B
330
1D2
100
AcDbEntity
  8
0
  6
CONTINUOUS
 62
     7
100
AcDbVertex
100
AcDb2dVertex
 10
8.3107401512
 20
6.3102013404
 30
0.0
  0
VERTEX
  5
26C
330
1D2
100
AcDbEntity
  8
0
  6
CONTINUOUS
 62
     7
100
AcDbVertex
100
AcDb2dVertex
 10
8.3095683619
 20
6.2834898964
 30
0.0
  0
VERTEX
  5
26D
330
1D2
100
AcDbEntity
  8
0
  6
CONTINUOUS
 62
     7
100
AcDbVertex
100
AcDb2dVertex
 10
8.3095683619
 20
6.2574197717
 30
0.0
  0
VERTEX
  5
26E
330
1D2
100
AcDbEntity
  8
0
  6
CONTINUOUS
 62
     7
100
AcDbVertex
100
AcDb2dVertex
 10
8.3107401512
 20
6.2320612468
 30
0.0
  0
VERTEX
  5
26F
330
1D2
100
AcDbEntity
  8
0
  6
CONTINUOUS
 62
     7
100
AcDbVertex
100
AcDb2dVertex
 10
8.3130805708
 20
6.2074826838
 30
0.0
  0
VERTEX
  5
270
330
1D2
100
AcDbEntity
  8
0
  6
CONTINUOUS
 62
     7
100
AcDbVertex
100
AcDb2dVertex
 10
8.3165833114
 20
6.1837503421
 30
0.0
  0
VERTEX
  5
271
330
1D2
100
AcDbEntity
  8
0
  6
CONTINUOUS
 62
     7
100
AcDbVertex
100
AcDb2dVertex
 10
8.3212389302
 20
6.1609282
 30
0.0
  0
VERTEX
  5
272
330
1D2
100
AcDbEntity
  8
0
  6
CONTINUOUS
 62
     7
100
AcDbVertex
100
AcDb2dVertex
 10
8.3270348765
 20
6.1390777818
 30
0.0
  0
VERTEX
  5
273
330
1D2
100
AcDbEntity
  8
0
  6
CONTINUOUS
 62
     7
100
AcDbVertex
100
AcDb2dVertex
 10
8.3339555255
 20
6.1182579925
 30
0.0
  0
VERTEX
  5
274
330
1D2
100
AcDbEntity
  8
0
  6
CONTINUOUS
 62
     7
100
AcDbVertex
100
AcDb2dVertex
 10
8.3419822203
 20
6.0985249585
 30
0.0
  0
VERTEX
  5
275
330
1D2
100
AcDbEntity
  8
0
  6
CONTINUOUS
 62
     7
100
AcDbVertex
100
AcDb2dVertex
 10
8.3510933223
 20
6.0799318767
 30
0.0
  0
VERTEX
  5
276
330
1D2
100
AcDbEntity
  8
0
  6
CONTINUOUS
 62
     7
100
AcDbVertex
100
AcDb2dVertex
 10
8.3612642696
 20
6.0625288706
 30
0.0
  0
VERTEX
  5
277
330
1D2
100
AcDbEntity
  8
0
  6
CONTINUOUS
 62
     7
100
AcDbVertex
100
AcDb2dVertex
 10
8.3724676432
 20
6.0463628556
 30
0.0
  0
VERTEX
  5
278
330
1D2
100
AcDbEntity
  8
0
  6
CONTINUOUS
 62
     7
100
AcDbVertex
100
AcDb2dVertex
 10
8.3846732407
 20
6.0314774126
 30
0.0
  0
VERTEX
  5
279
330
1D2
100
AcDbEntity
  8
0
  6
CONTINUOUS
 62
     7
100
AcDbVertex
100
AcDb2dVertex
 10
8.397848158
 20
6.01791267
 30
0.0
  0
VERTEX
  5
27A
330
1D2
100
AcDbEntity
  8
0
  6
CONTINUOUS
 62
     7
100
AcDbVertex
100
AcDb2dVertex
 10
8.4119568779
 20
6.005705196
 30
0.0
  0
VERTEX
  5
27B
330
1D2
100
AcDbEntity
  8
0
  6
CONTINUOUS
 62
     7
100
AcDbVertex
100
AcDb2dVertex
 10
8.4269613657
 20
5.9948878998
 30
0.0
  0
VERTEX
  5
27C
330
1D2
100
AcDbEntity
  8
0
  6
CONTINUOUS
 62
     7
100
AcDbVertex
100
AcDb2dVertex
 10
8.442821172
 20
5.9854899428
 30
0.0
  0
VERTEX
  5
27D
330
1D2
100
AcDbEntity
  8
0
  6
CONTINUOUS
 62
     7
100
AcDbVertex
100
AcDb2dVertex
 10
8.4594935416
 20
5.9775366604
 30
0.0
  0
VERTEX
  5
27E
330
1D2
100
AcDbEntity
  8
0
  6
CONTINUOUS
 62
     7
100
AcDbVertex
100
AcDb2dVertex
 10
8.4769335287
 20
5.9710494931
 30
0.0
  0
VERTEX
  5
27F
330
1D2
100
AcDbEntity
  8
0
  6
CONTINUOUS
 62
     7
100
AcDbVertex
100
AcDb2dVertex
 10
8.4950941182
 20
5.9660459293
 30
0.0
  0
VERTEX
  5
280
330
1D2
100
AcDbEntity
  8
0
  6
CONTINUOUS
 62
     7
100
AcDbVertex
100
AcDb2dVertex
 10
8.5139263523
 20
5.9625394576
 30
0.0
  0
VERTEX
  5
281
330
1D2
100
AcDbEntity
  8
0
  6
CONTINUOUS
 62
     7
100
AcDbVertex
100
AcDb2dVertex
 10
8.5333794626
 20
5.9605395308
 30
0.0
  0
VERTEX
  5
282
330
1D2
100
AcDbEntity
  8
0
  6
CONTINUOUS
 62
     7
100
AcDbVertex
100
AcDb2dVertex
 10
8.5534010071
 20
5.9600515405
 30
0.0
  0
VERTEX
  5
283
330
1D2
100
AcDbEntity
  8
0
  6
CONTINUOUS
 62
     7
100
AcDbVertex
100
AcDb2dVertex
 10
8.5739370112
 20
5.9610768021
 30
0.0
  0
VERTEX
  5
284
330
1D2
100
AcDbEntity
  8
0
  6
CONTINUOUS
 62
     7
100
AcDbVertex
100
AcDb2dVertex
 10
8.5949321134
 20
5.9636125518
 30
0.0
  0
VERTEX
  5
285
330
1D2
100
AcDbEntity
  8
0
  6
CONTINUOUS
 62
     7
100
AcDbVertex
100
AcDb2dVertex
 10
8.6163297147
 20
5.9676519535
 30
0.0
  0
VERTEX
  5
286
330
1D2
100
AcDbEntity
  8
0
  6
CONTINUOUS
 62
     7
100
AcDbVertex
100
AcDb2dVertex
 10
8.6380721308
 20
5.9731841179
 30
0.0
  0
VERTEX
  5
287
330
1D2
100
AcDbEntity
  8
0
  6
CONTINUOUS
 62
     7
100
AcDbVertex
100
AcDb2dVertex
 10
8.6601007482
 20
5.9801941311
 30
0.0
  0
VERTEX
  5
288
330
1D2
100
AcDbEntity
  8
0
  6
CONTINUOUS
 62
     7
100
AcDbVertex
100
AcDb2dVertex
 10
8.6823561815
 20
5.9886630953
 30
0.0
  0
VERTEX
  5
289
330
1D2
100
AcDbEntity
  8
0
  6
CONTINUOUS
 62
     7
100
AcDbVertex
100
AcDb2dVertex
 10
8.7047784341
 20
5.9985681798
 30
0.0
  0
VERTEX
  5
28A
330
1D2
100
AcDbEntity
  8
0
  6
CONTINUOUS
 62
     7
100
AcDbVertex
100
AcDb2dVertex
 10
8.7273070594
 20
6.0098826823
 30
0.0
  0
VERTEX
  5
28B
330
1D2
100
AcDbEntity
  8
0
  6
CONTINUOUS
 62
     7
100
AcDbVertex
100
AcDb2dVertex
 10
8.7498813243
 20
6.0225761007
 30
0.0
  0
VERTEX
  5
28C
330
1D2
100
AcDbEntity
  8
0
  6
CONTINUOUS
 62
     7
100
AcDbVertex
100
AcDb2dVertex
 10
8.7724403726
 20
6.0366142159
 30
0.0
  0
VERTEX
  5
28D
330
1D2
100
AcDbEntity
  8
0
  6
CONTINUOUS
 62
     7
100
AcDbVertex
100
AcDb2dVertex
 10
8.7949233891
 20
6.0519591837
 30
0.0
  0
VERTEX
  5
28E
330
1D2
100
AcDbEntity
  8
0
  6
CONTINUOUS
 62
     7
100
AcDbVertex
100
AcDb2dVertex
 10
8.8172697636
 20
6.0685696366
 30
0.0
  0
VERTEX
  5
28F
330
1D2
100
AcDbEntity
  8
0
  6
CONTINUOUS
 62
     7
100
AcDbVertex
100
AcDb2dVertex
 10
8.839419254
 20
6.0864007959
 30
0.0
  0
VERTEX
  5
290
330
1D2
100
AcDbEntity
  8
0
  6
CONTINUOUS
 62
     7
100
AcDbVertex
100
AcDb2dVertex
 10
8.8613121495
 20
6.1054045919
 30
0.0
  0
VERTEX
  5
291
330
1D2
100
AcDbEntity
  8
0
  6
CONTINUOUS
 62
     7
100
AcDbVertex
100
AcDb2dVertex
 10
8.8828894305
 20
6.1255297937
 30
0.0
  0
VERTEX
  5
292
330
1D2
100
AcDbEntity
  8
0
  6
CONTINUOUS
 62
     7
100
AcDbVertex
100
AcDb2dVertex
 10
8.9040929285
 20
6.1467221474
 30
0.0
  0
VERTEX
  5
293
330
1D2
100
AcDbEntity
  8
0
  6
CONTINUOUS
 62
     7
100
AcDbVertex
100
AcDb2dVertex
 10
8.9248654827
 20
6.168924522
 30
0.0
  0
VERTEX
  5
294
330
1D2
100
AcDbEntity
  8
0
  6
CONTINUOUS
 62
     7
100
AcDbVertex
100
AcDb2dVertex
 10
8.945151094
 20
6.192077064
 30
0.0
  0
VERTEX
  5
295
330
1D2
100
AcDbEntity
  8
0
  6
CONTINUOUS
 62
     7
100
AcDbVertex
100
AcDb2dVertex
 10
8.9648950758
 20
6.2161173582
 30
0.0
  0
VERTEX
  5
296
330
1D2
100
AcDbEntity
  8
0
  6
CONTINUOUS
 62
     7
100
AcDbVertex
100
AcDb2dVertex
 10
8.984044202
 20
6.2409805961
 30
0.0
  0
VERTEX
  5
297
330
1D2
100
AcDbEntity
  8
0
  6
CONTINUOUS
 62
     7
100
AcDbVertex
100
AcDb2dVertex
 10
9.0025468498
 20
6.2665997509
 30
0.0
  0
VERTEX
  5
298
330
1D2
100
AcDbEntity
  8
0
  6
CONTINUOUS
 62
     7
100
AcDbVertex
100
AcDb2dVertex
 10
9.0203531394
 20
6.2929057579
 30
0.0
  0
VERTEX
  5
299
330
1D2
100
AcDbEntity
  8
0
  6
CONTINUOUS
 62
     7
100
AcDbVertex
100
AcDb2dVertex
 10
9.0374150682
 20
6.3198277007
 30
0.0
  0
VERTEX
  5
29A
330
1D2
100
AcDbEntity
  8
0
  6
CONTINUOUS
 62
     7
100
AcDbVertex
100
AcDb2dVertex
 10
9.0536866402
 20
6.3472930025
 30
0.0
  0
VERTEX
  5
29B
330
1D2
100
AcDbEntity
  8
0
  6
CONTINUOUS
 62
     7
100
AcDbVertex
100
AcDb2dVertex
 10
9.0691239902
 20
6.3752276218
 30
0.0
  0
VERTEX
  5
29C
330
1D2
100
AcDbEntity
  8
0
  6
CONTINUOUS
 62
     7
100
AcDbVertex
100
AcDb2dVertex
 10
9.0836855018
 20
6.4035562517
 30
0.0
  0
VERTEX
  5
29D
330
1D2
100
AcDbEntity
  8
0
  6
CONTINUOUS
 62
     7
100
AcDbVertex
100
AcDb2dVertex
 10
9.0973319197
 20
6.4322025233
 30
0.0
  0
VERTEX
  5
29E
330
1D2
100
AcDbEntity
  8
0
  6
CONTINUOUS
 62
     7
100
AcDbVertex
100
AcDb2dVertex
 10
9.1100264556
 20
6.4610892113
 30
0.0
  0
VERTEX
  5
29F
330
1D2
100
AcDbEntity
  8
0
  6
CONTINUOUS
 62
     7
100
AcDbVertex
100
AcDb2dVertex
 10
9.1217348873
 20
6.4901384422
 30
0.0
  0
VERTEX
  5
2A0
330
1D2
100
AcDbEntity
  8
0
  6
CONTINUOUS
 62
     7
100
AcDbVertex
100
AcDb2dVertex
 10
9.132425651
 20
6.5192719045
 30
0.0
  0
VERTEX
  5
2A1
330
1D2
100
AcDbEntity
  8
0
  6
CONTINUOUS
 62
     7
100
AcDbVertex
100
AcDb2dVertex
 10
9.1420699261
 20
6.5484110596
 30
0.0
  0
VERTEX
  5
2A2
330
1D2
100
AcDbEntity
  8
0
  6
CONTINUOUS
 62
     7
100
AcDbVertex
100
AcDb2dVertex
 10
9.1506417135
 20
6.5774773533
 30
0.0
  0
VERTEX
  5
2A3
330
1D2
100
AcDbEntity
  8
0
  6
CONTINUOUS
 62
     7
100
AcDbVertex
100
AcDb2dVertex
 10
9.158117905
 20
6.6063924282
 30
0.0
  0
VERTEX
  5
2A4
330
1D2
100
AcDbEntity
  8
0
  6
CONTINUOUS
 62
     7
100
AcDbVertex
100
AcDb2dVertex
 10
9.1644783464
 20
6.6350783342
 30
0.0
  0
VERTEX
  5
2A5
330
1D2
100
AcDbEntity
  8
0
  6
CONTINUOUS
 62
     7
100
AcDbVertex
100
AcDb2dVertex
 10
9.1697058908
 20
6.6634577394
 30
0.0
  0
VERTEX
  5
2A6
330
1D2
100
AcDbEntity
  8
0
  6
CONTINUOUS
 62
     7
100
AcDbVertex
100
AcDb2dVertex
 10
9.1737864458
 20
6.6914541377
 30
0.0
  0
VERTEX
  5
2A7
330
1D2
100
AcDbEntity
  8
0
  6
CONTINUOUS
 62
     7
100
AcDbVertex
100
AcDb2dVertex
 10
9.1767090109
 20
6.7189920559
 30
0.0
  0
VERTEX
  5
2A8
330
1D2
100
AcDbEntity
  8
0
  6
CONTINUOUS
 62
     7
100
AcDbVertex
100
AcDb2dVertex
 10
9.1784657074
 20
6.7459972565
 30
0.0
  0
VERTEX
  5
2A9
330
1D2
100
AcDbEntity
  8
0
  6
CONTINUOUS
 62
     7
100
AcDbVertex
100
AcDb2dVertex
 10
9.1790517996
 20
6.7723969385
 30
0.0
  0
SEQEND
  5
2AA
330
1D2
100
AcDbEntity
  8
0
  6
CONTINUOUS
 62
     7
  0
POLYLINE
  5
1D3
330
1F
100
AcDbEntity
  8
0
  6
CONTINUOUS
 62
     7
100
AcDb2dPolyline
 66
     1
 10
0.0
 20
0.0
 30
0.0
  0
VERTEX
  5
2AB
330
1D3
100
AcDbEntity
  8
0
  6
CONTINUOUS
 62
     7
100
AcDbVertex
100
AcDb2dVertex
 10
8.7337025987
 20
6.0131920288
 30
0.0
  0
VERTEX
  5
2AC
330
1D3
100
AcDbEntity
  8
0
  6
CONTINUOUS
 62
     7
100
AcDbVertex
100
AcDb2dVertex
 10
8.7279420134
 20
6.0099084497
 30
0.0
  0
VERTEX
  5
2AD
330
1D3
100
AcDbEntity
  8
0
  6
CONTINUOUS
 62
     7
100
AcDbVertex
100
AcDb2dVertex
 10
8.7052077968
 20
5.9977905519
 30
0.0
  0
VERTEX
  5
2AE
330
1D3
100
AcDbEntity
  8
0
  6
CONTINUOUS
 62
     7
100
AcDbVertex
100
AcDb2dVertex
 10
8.682547731
 20
5.9870546229
 30
0.0
  0
VERTEX
  5
2AF
330
1D3
100
AcDbEntity
  8
0
  6
CONTINUOUS
 62
     7
100
AcDbVertex
100
AcDb2dVertex
 10
8.6600209335
 20
5.9777286715
 30
0.0
  0
VERTEX
  5
2B0
330
1D3
100
AcDbEntity
  8
0
  6
CONTINUOUS
 62
     7
100
AcDbVertex
100
AcDb2dVertex
 10
8.6376861742
 20
5.9698370281
 30
0.0
  0
VERTEX
  5
2B1
330
1D3
100
AcDbEntity
  8
0
  6
CONTINUOUS
 62
     7
100
AcDbVertex
100
AcDb2dVertex
 10
8.615601722
 20
5.963400281
 30
0.0
  0
VERTEX
  5
2B2
330
1D3
100
AcDbEntity
  8
0
  6
CONTINUOUS
 62
     7
100
AcDbVertex
100
AcDb2dVertex
 10
8.5938251925
 20
5.9584352231
 30
0.0
  0
VERTEX
  5
2B3
330
1D3
100
AcDbEntity
  8
0
  6
CONTINUOUS
 62
     7
100
AcDbVertex
100
AcDb2dVertex
 10
8.5724133984
 20
5.9549548075
 30
0.0
  0
VERTEX
  5
2B4
330
1D3
100
AcDbEntity
  8
0
  6
CONTINUOUS
 62
     7
100
AcDbVertex
100
AcDb2dVertex
 10
8.5514222006
 20
5.9529681143
 30
0.0
  0
VERTEX
  5
2B5
330
1D3
100
AcDbEntity
  8
0
  6
CONTINUOUS
 62
     7
100
AcDbVertex
100
AcDb2dVertex
 10
8.5309063626
 20
5.9524803265
 30
0.0
  0
VERTEX
  5
2B6
330
1D3
100
AcDbEntity
  8
0
  6
CONTINUOUS
 62
     7
100
AcDbVertex
100
AcDb2dVertex
 10
8.5109194079
 20
5.9534927167
 30
0.0
  0
VERTEX
  5
2B7
330
1D3
100
AcDbEntity
  8
0
  6
CONTINUOUS
 62
     7
100
AcDbVertex
100
AcDb2dVertex
 10
8.4915134804
 20
5.9560026438
 30
0.0
  0
VERTEX
  5
2B8
330
1D3
100
AcDbEntity
  8
0
  6
CONTINUOUS
 62
     7
100
AcDbVertex
100
AcDb2dVertex
 10
8.4727392077
 20
5.9600035595
 30
0.0
  0
VERTEX
  5
2B9
330
1D3
100
AcDbEntity
  8
0
  6
CONTINUOUS
 62
     7
100
AcDbVertex
100
AcDb2dVertex
 10
8.4546455698
 20
5.965485026
 30
0.0
  0
VERTEX
  5
2BA
330
1D3
100
AcDbEntity
  8
0
  6
CONTINUOUS
 62
     7
100
AcDbVertex
100
AcDb2dVertex
 10
8.437279771
 20
5.9724327427
 30
0.0
  0
VERTEX
  5
2BB
330
1D3
100
AcDbEntity
  8
0
  6
CONTINUOUS
 62
     7
100
AcDbVertex
100
AcDb2dVertex
 10
8.4206871166
 20
5.9808285839
 30
0.0
  0
VERTEX
  5
2BC
330
1D3
100
AcDbEntity
  8
0
  6
CONTINUOUS
 62
     7
100
AcDbVertex
100
AcDb2dVertex
 10
8.404910895
 20
5.9906506457
 30
0.0
  0
VERTEX
  5
2BD
330
1D3
100
AcDbEntity
  8
0
  6
CONTINUOUS
 62
     7
100
AcDbVertex
100
AcDb2dVertex
 10
8.3899922646
 20
6.0018733036
 30
0.0
  0
VERTEX
  5
2BE
330
1D3
100
AcDbEntity
  8
0
  6
CONTINUOUS
 62
     7
100
AcDbVertex
100
AcDb2dVertex
 10
8.3759701463
 20
6.0144672788
 30
0.0
  0
VERTEX
  5
2BF
330
1D3
100
AcDbEntity
  8
0
  6
CONTINUOUS
 62
     7
100
AcDbVertex
100
AcDb2dVertex
 10
8.3628811223
 20
6.0283997151
 30
0.0
  0
VERTEX
  5
2C0
330
1D3
100
AcDbEntity
  8
0
  6
CONTINUOUS
 62
     7
100
AcDbVertex
100
AcDb2dVertex
 10
8.3507593403
 20
6.0436342644
 30
0.0
  0
VERTEX
  5
2C1
330
1D3
100
AcDbEntity
  8
0
  6
CONTINUOUS
 62
     7
100
AcDbVertex
100
AcDb2dVertex
 10
8.3396364247
 20
6.0601311816
 30
0.0
  0
VERTEX
  5
2C2
330
1D3
100
AcDbEntity
  8
0
  6
CONTINUOUS
 62
     7
100
AcDbVertex
100
AcDb2dVertex
 10
8.3295413938
 20
6.0778474279
 30
0.0
  0
VERTEX
  5
2C3
330
1D3
100
AcDbEntity
  8
0
  6
CONTINUOUS
 62
     7
100
AcDbVertex
100
AcDb2dVertex
 10
8.3205005845
 20
6.0967367839
 30
0.0
  0
VERTEX
  5
2C4
330
1D3
100
AcDbEntity
  8
0
  6
CONTINUOUS
 62
     7
100
AcDbVertex
100
AcDb2dVertex
 10
8.3125375833
 20
6.1167499692
 30
0.0
  0
VERTEX
  5
2C5
330
1D3
100
AcDbEntity
  8
0
  6
CONTINUOUS
 62
     7
100
AcDbVertex
100
AcDb2dVertex
 10
8.3056731646
 20
6.1378347717
 30
0.0
  0
VERTEX
  5
2C6
330
1D3
100
AcDbEntity
  8
0
  6
CONTINUOUS
 62
     7
100
AcDbVertex
100
AcDb2dVertex
 10
8.299925237
 20
6.1599361838
 30
0.0
  0
VERTEX
  5
2C7
330
1D3
100
AcDbEntity
  8
0
  6
CONTINUOUS
 62
     7
100
AcDbVertex
100
AcDb2dVertex
 10
8.2953087961
 20
6.1829965451
 30
0.0
  0
VERTEX
  5
2C8
330
1D3
100
AcDbEntity
  8
0
  6
CONTINUOUS
 62
     7
100
AcDbVertex
100
AcDb2dVertex
 10
8.2918358857
 20
6.206955694
 30
0.0
  0
VERTEX
  5
2C9
330
1D3
100
AcDbEntity
  8
0
  6
CONTINUOUS
 62
     7
100
AcDbVertex
100
AcDb2dVertex
 10
8.2895155662
 20
6.2317511238
 30
0.0
  0
VERTEX
  5
2CA
330
1D3
100
AcDbEntity
  8
0
  6
CONTINUOUS
 62
     7
100
AcDbVertex
100
AcDb2dVertex
 10
8.2883538912
 20
6.2573181459
 30
0.0
  0
VERTEX
  5
2CB
330
1D3
100
AcDbEntity
  8
0
  6
CONTINUOUS
 62
     7
100
AcDbVertex
100
AcDb2dVertex
 10
8.2883538912
 20
6.283590059
 30
0.0
  0
VERTEX
  5
2CC
330
1D3
100
AcDbEntity
  8
0
  6
CONTINUOUS
 62
     7
100
AcDbVertex
100
AcDb2dVertex
 10
8.2895155662
 20
6.3104983226
 30
0.0
  0
VERTEX
  5
2CD
330
1D3
100
AcDbEntity
  8
0
  6
CONTINUOUS
 62
     7
100
AcDbVertex
100
AcDb2dVertex
 10
8.2918358857
 20
6.3379727361
 30
0.0
  0
VERTEX
  5
2CE
330
1D3
100
AcDbEntity
  8
0
  6
CONTINUOUS
 62
     7
100
AcDbVertex
100
AcDb2dVertex
 10
8.2953087961
 20
6.365941622
 30
0.0
  0
VERTEX
  5
2CF
330
1D3
100
AcDbEntity
  8
0
  6
CONTINUOUS
 62
     7
100
AcDbVertex
100
AcDb2dVertex
 10
8.299925237
 20
6.3943320126
 30
0.0
  0
VERTEX
  5
2D0
330
1D3
100
AcDbEntity
  8
0
  6
CONTINUOUS
 62
     7
100
AcDbVertex
100
AcDb2dVertex
 10
8.3056731646
 20
6.4230698406
 30
0.0
  0
VERTEX
  5
2D1
330
1D3
100
AcDbEntity
  8
0
  6
CONTINUOUS
 62
     7
100
AcDbVertex
100
AcDb2dVertex
 10
8.3125375833
 20
6.4520801323
 30
0.0
  0
VERTEX
  5
2D2
330
1D3
100
AcDbEntity
  8
0
  6
CONTINUOUS
 62
     7
100
AcDbVertex
100
AcDb2dVertex
 10
8.3205005845
 20
6.4812872032
 30
0.0
  0
VERTEX
  5
2D3
330
1D3
100
AcDbEntity
  8
0
  6
CONTINUOUS
 62
     7
100
AcDbVertex
100
AcDb2dVertex
 10
8.3295413938
 20
6.5106148553
 30
0.0
  0
VERTEX
  5
2D4
330
1D3
100
AcDbEntity
  8
0
  6
CONTINUOUS
 62
     7
100
AcDbVertex
100
AcDb2dVertex
 10
8.3396364247
 20
6.5399865762
 30
0.0
  0
VERTEX
  5
2D5
330
1D3
100
AcDbEntity
  8
0
  6
CONTINUOUS
 62
     7
100
AcDbVertex
100
AcDb2dVertex
 10
8.3507593403
 20
6.5693257383
 30
0.0
  0
VERTEX
  5
2D6
330
1D3
100
AcDbEntity
  8
0
  6
CONTINUOUS
 62
     7
100
AcDbVertex
100
AcDb2dVertex
 10
8.3628811223
 20
6.5985557993
 30
0.0
  0
VERTEX
  5
2D7
330
1D3
100
AcDbEntity
  8
0
  6
CONTINUOUS
 62
     7
100
AcDbVertex
100
AcDb2dVertex
 10
8.3759701463
 20
6.6276005011
 30
0.0
  0
VERTEX
  5
2D8
330
1D3
100
AcDbEntity
  8
0
  6
CONTINUOUS
 62
     7
100
AcDbVertex
100
AcDb2dVertex
 10
8.3899922646
 20
6.6563840694
 30
0.0
  0
VERTEX
  5
2D9
330
1D3
100
AcDbEntity
  8
0
  6
CONTINUOUS
 62
     7
100
AcDbVertex
100
AcDb2dVertex
 10
8.404910895
 20
6.6848314113
 30
0.0
  0
VERTEX
  5
2DA
330
1D3
100
AcDbEntity
  8
0
  6
CONTINUOUS
 62
     7
100
AcDbVertex
100
AcDb2dVertex
 10
8.4206871166
 20
6.7128683109
 30
0.0
  0
VERTEX
  5
2DB
330
1D3
100
AcDbEntity
  8
0
  6
CONTINUOUS
 62
     7
100
AcDbVertex
100
AcDb2dVertex
 10
8.437279771
 20
6.740421623
 30
0.0
  0
VERTEX
  5
2DC
330
1D3
100
AcDbEntity
  8
0
  6
CONTINUOUS
 62
     7
100
AcDbVertex
100
AcDb2dVertex
 10
8.4546455698
 20
6.7674194642
 30
0.0
  0
VERTEX
  5
2DD
330
1D3
100
AcDbEntity
  8
0
  6
CONTINUOUS
 62
     7
100
AcDbVertex
100
AcDb2dVertex
 10
8.4727392077
 20
6.7937914004
 30
0.0
  0
VERTEX
  5
2DE
330
1D3
100
AcDbEntity
  8
0
  6
CONTINUOUS
 62
     7
100
AcDbVertex
100
AcDb2dVertex
 10
8.4915134804
 20
6.81946863
 30
0.0
  0
VERTEX
  5
2DF
330
1D3
100
AcDbEntity
  8
0
  6
CONTINUOUS
 62
     7
100
AcDbVertex
100
AcDb2dVertex
 10
8.5109194079
 20
6.8443841641
 30
0.0
  0
VERTEX
  5
2E0
330
1D3
100
AcDbEntity
  8
0
  6
CONTINUOUS
 62
     7
100
AcDbVertex
100
AcDb2dVertex
 10
8.5309063626
 20
6.8684730009
 30
0.0
  0
VERTEX
  5
2E1
330
1D3
100
AcDbEntity
  8
0
  6
CONTINUOUS
 62
     7
100
AcDbVertex
100
AcDb2dVertex
 10
8.5514222006
 20
6.8916722955
 30
0.0
  0
VERTEX
  5
2E2
330
1D3
100
AcDbEntity
  8
0
  6
CONTINUOUS
 62
     7
100
AcDbVertex
100
AcDb2dVertex
 10
8.5724133984
 20
6.9139215235
 30
0.0
  0
VERTEX
  5
2E3
330
1D3
100
AcDbEntity
  8
0
  6
CONTINUOUS
 62
     7
100
AcDbVertex
100
AcDb2dVertex
 10
8.5938251925
 20
6.9351626392
 30
0.0
  0
VERTEX
  5
2E4
330
1D3
100
AcDbEntity
  8
0
  6
CONTINUOUS
 62
     7
100
AcDbVertex
100
AcDb2dVertex
 10
8.615601722
 20
6.9553402269
 30
0.0
  0
VERTEX
  5
2E5
330
1D3
100
AcDbEntity
  8
0
  6
CONTINUOUS
 62
     7
100
AcDbVertex
100
AcDb2dVertex
 10
8.6376861742
 20
6.9744016457
 30
0.0
  0
VERTEX
  5
2E6
330
1D3
100
AcDbEntity
  8
0
  6
CONTINUOUS
 62
     7
100
AcDbVertex
100
AcDb2dVertex
 10
8.6600209335
 20
6.9922971664
 30
0.0
  0
VERTEX
  5
2E7
330
1D3
100
AcDbEntity
  8
0
  6
CONTINUOUS
 62
     7
100
AcDbVertex
100
AcDb2dVertex
 10
8.682547731
 20
7.0089801018
 30
0.0
  0
VERTEX
  5
2E8
330
1D3
100
AcDbEntity
  8
0
  6
CONTINUOUS
 62
     7
100
AcDbVertex
100
AcDb2dVertex
 10
8.7052077968
 20
7.0244069279
 30
0.0
  0
VERTEX
  5
2E9
330
1D3
100
AcDbEntity
  8
0
  6
CONTINUOUS
 62
     7
100
AcDbVertex
100
AcDb2dVertex
 10
8.7279420134
 20
7.0385373979
 30
0.0
  0
VERTEX
  5
2EA
330
1D3
100
AcDbEntity
  8
0
  6
CONTINUOUS
 62
     7
100
AcDbVertex
100
AcDb2dVertex
 10
8.7506910699
 20
7.051334647
 30
0.0
  0
VERTEX
  5
2EB
330
1D3
100
AcDbEntity
  8
0
  6
CONTINUOUS
 62
     7
100
AcDbVertex
100
AcDb2dVertex
 10
8.7733956165
 20
7.0627652887
 30
0.0
  0
VERTEX
  5
2EC
330
1D3
100
AcDbEntity
  8
0
  6
CONTINUOUS
 62
     7
100
AcDbVertex
100
AcDb2dVertex
 10
8.7959964197
 20
7.0727995017
 30
0.0
  0
VERTEX
  5
2ED
330
1D3
100
AcDbEntity
  8
0
  6
CONTINUOUS
 62
     7
100
AcDbVertex
100
AcDb2dVertex
 10
8.8184345166
 20
7.0814111079
 30
0.0
  0
VERTEX
  5
2EE
330
1D3
100
AcDbEntity
  8
0
  6
CONTINUOUS
 62
     7
100
AcDbVertex
100
AcDb2dVertex
 10
8.8406513687
 20
7.0885776406
 30
0.0
  0
VERTEX
  5
2EF
330
1D3
100
AcDbEntity
  8
0
  6
CONTINUOUS
 62
     7
100
AcDbVertex
100
AcDb2dVertex
 10
8.8625890148
 20
7.0942804031
 30
0.0
  0
VERTEX
  5
2F0
330
1D3
100
AcDbEntity
  8
0
  6
CONTINUOUS
 62
     7
100
AcDbVertex
100
AcDb2dVertex
 10
8.8841902221
 20
7.0985045176
 30
0.0
  0
VERTEX
  5
2F1
330
1D3
100
AcDbEntity
  8
0
  6
CONTINUOUS
 62
     7
100
AcDbVertex
100
AcDb2dVertex
 10
8.9053986355
 20
7.1012389639
 30
0.0
  0
VERTEX
  5
2F2
330
1D3
100
AcDbEntity
  8
0
  6
CONTINUOUS
 62
     7
100
AcDbVertex
100
AcDb2dVertex
 10
8.9261589247
 20
7.1024766081
 30
0.0
  0
VERTEX
  5
2F3
330
1D3
100
AcDbEntity
  8
0
  6
CONTINUOUS
 62
     7
100
AcDbVertex
100
AcDb2dVertex
 10
8.9464169284
 20
7.1022142212
 30
0.0
  0
VERTEX
  5
2F4
330
1D3
100
AcDbEntity
  8
0
  6
CONTINUOUS
 62
     7
100
AcDbVertex
100
AcDb2dVertex
 10
8.9661197959
 20
7.100452488
 30
0.0
  0
VERTEX
  5
2F5
330
1D3
100
AcDbEntity
  8
0
  6
CONTINUOUS
 62
     7
100
AcDbVertex
100
AcDb2dVertex
 10
8.9852161246
 20
7.0971960045
 30
0.0
  0
VERTEX
  5
2F6
330
1D3
100
AcDbEntity
  8
0
  6
CONTINUOUS
 62
     7
100
AcDbVertex
100
AcDb2dVertex
 10
9.0036560943
 20
7.0924532664
 30
0.0
  0
VERTEX
  5
2F7
330
1D3
100
AcDbEntity
  8
0
  6
CONTINUOUS
 62
     7
100
AcDbVertex
100
AcDb2dVertex
 10
9.0213915973
 20
7.0862366472
 30
0.0
  0
VERTEX
  5
2F8
330
1D3
100
AcDbEntity
  8
0
  6
CONTINUOUS
 62
     7
100
AcDbVertex
100
AcDb2dVertex
 10
9.0383763637
 20
7.0785623652
 30
0.0
  0
VERTEX
  5
2F9
330
1D3
100
AcDbEntity
  8
0
  6
CONTINUOUS
 62
     7
100
AcDbVertex
100
AcDb2dVertex
 10
9.0545660822
 20
7.0694504417
 30
0.0
  0
VERTEX
  5
2FA
330
1D3
100
AcDbEntity
  8
0
  6
CONTINUOUS
 62
     7
100
AcDbVertex
100
AcDb2dVertex
 10
9.0699185156
 20
7.0589246487
 30
0.0
  0
VERTEX
  5
2FB
330
1D3
100
AcDbEntity
  8
0
  6
CONTINUOUS
 62
     7
100
AcDbVertex
100
AcDb2dVertex
 10
9.0843936113
 20
7.0470124469
 30
0.0
  0
VERTEX
  5
2FC
330
1D3
100
AcDbEntity
  8
0
  6
CONTINUOUS
 62
     7
100
AcDbVertex
100
AcDb2dVertex
 10
9.0979536052
 20
7.0337449137
 30
0.0
  0
VERTEX
  5
2FD
330
1D3
100
AcDbEntity
  8
0
  6
CONTINUOUS
 62
     7
100
AcDbVertex
100
AcDb2dVertex
 10
9.110563121
 20
7.0191566627
 30
0.0
  0
VERTEX
  5
2FE
330
1D3
100
AcDbEntity
  8
0
  6
CONTINUOUS
 62
     7
100
AcDbVertex
100
AcDb2dVertex
 10
9.1221892618
 20
7.003285753
 30
0.0
  0
VERTEX
  5
2FF
330
1D3
100
AcDbEntity
  8
0
  6
CONTINUOUS
 62
     7
100
AcDbVertex
100
AcDb2dVertex
 10
9.1328016964
 20
6.9861735899
 30
0.0
  0
VERTEX
  5
300
330
1D3
100
AcDbEntity
  8
0
  6
CONTINUOUS
 62
     7
100
AcDbVertex
100
AcDb2dVertex
 10
9.1423727382
 20
6.9678648171
 30
0.0
  0
VERTEX
  5
301
330
1D3
100
AcDbEntity
  8
0
  6
CONTINUOUS
 62
     7
100
AcDbVertex
100
AcDb2dVertex
 10
9.1508774174
 20
6.9484072001
 30
0.0
  0
VERTEX
  5
302
330
1D3
100
AcDbEntity
  8
0
  6
CONTINUOUS
 62
     7
100
AcDbVertex
100
AcDb2dVertex
 10
9.1582935463
 20
6.9278515016
 30
0.0
  0
VERTEX
  5
303
330
1D3
100
AcDbEntity
  8
0
  6
CONTINUOUS
 62
     7
100
AcDbVertex
100
AcDb2dVertex
 10
9.1646017769
 20
6.9062513491
 30
0.0
  0
VERTEX
  5
304
330
1D3
100
AcDbEntity
  8
0
  6
CONTINUOUS
 62
     7
100
AcDbVertex
100
AcDb2dVertex
 10
9.169785652
 20
6.8836630949
 30
0.0
  0
VERTEX
  5
305
330
1D3
100
AcDbEntity
  8
0
  6
CONTINUOUS
 62
     7
100
AcDbVertex
100
AcDb2dVertex
 10
9.1738316473
 20
6.8601456693
 30
0.0
  0
VERTEX
  5
306
330
1D3
100
AcDbEntity
  8
0
  6
CONTINUOUS
 62
     7
100
AcDbVertex
100
AcDb2dVertex
 10
9.1767292073
 20
6.8357604263
 30
0.0
  0
VERTEX
  5
307
330
1D3
100
AcDbEntity
  8
0
  6
CONTINUOUS
 62
     7
100
AcDbVertex
100
AcDb2dVertex
 10
9.1784707726
 20
6.8105709845
 30
0.0
  0
VERTEX
  5
308
330
1D3
100
AcDbEntity
  8
0
  6
CONTINUOUS
 62
     7
100
AcDbVertex
100
AcDb2dVertex
 10
9.1790517996
 20
6.7846430602
 30
0.0
  0
VERTEX
  5
309
330
1D3
100
AcDbEntity
  8
0
  6
CONTINUOUS
 62
     7
100
AcDbVertex
100
AcDb2dVertex
 10
9.1790517996
 20
6.7846430602
 30
0.0
  0
SEQEND
  5
30A
330
1D3
100
AcDbEntity
  8
0
  6
CONTINUOUS
 62
     7
  0
POLYLINE
  5
1D4
330
1F
100
AcDbEntity
  8
0
  6
CONTINUOUS
 62
     7
100
AcDb2dPolyline
 66
     1
 10
0.0
 20
0.0
 30
0.0
  0
VERTEX
  5
30B
330
1D4
100
AcDbEntity
  8
0
  6
CONTINUOUS
 62
     7
100
AcDbVertex
100
AcDb2dVertex
 10
7.9283856067
 20
7.7197151745
 30
0.0
  0
VERTEX
  5
30C
330
1D4
100
AcDbEntity
  8
0
  6
CONTINUOUS
 62
     7
100
AcDbVertex
100
AcDb2dVertex
 10
7.9181967314
 20
7.7252283022
 30
0.0
  0
VERTEX
  5
30D
330
1D4
100
AcDbEntity
  8
0
  6
CONTINUOUS
 62
     7
100
AcDbVertex
100
AcDb2dVertex
 10
7.901211965
 20
7.7329025843
 30
0.0
  0
VERTEX
  5
30E
330
1D4
100
AcDbEntity
  8
0
  6
CONTINUOUS
 62
     7
100
AcDbVertex
100
AcDb2dVertex
 10
7.883476462
 20
7.7391192035
 30
0.0
  0
VERTEX
  5
30F
330
1D4
100
AcDbEntity
  8
0
  6
CONTINUOUS
 62
     7
100
AcDbVertex
100
AcDb2dVertex
 10
7.8650364922
 20
7.7438619415
 30
0.0
  0
VERTEX
  5
310
330
1D4
100
AcDbEntity
  8
0
  6
CONTINUOUS
 62
     7
100
AcDbVertex
100
AcDb2dVertex
 10
7.8459401636
 20
7.7471184251
 30
0.0
  0
VERTEX
  5
311
330
1D4
100
AcDbEntity
  8
0
  6
CONTINUOUS
 62
     7
100
AcDbVertex
100
AcDb2dVertex
 10
7.8262372961
 20
7.7488801583
 30
0.0
  0
VERTEX
  5
312
330
1D4
100
AcDbEntity
  8
0
  6
CONTINUOUS
 62
     7
100
AcDbVertex
100
AcDb2dVertex
 10
7.8059792924
 20
7.7491425451
 30
0.0
  0
VERTEX
  5
313
330
1D4
100
AcDbEntity
  8
0
  6
CONTINUOUS
 62
     7
100
AcDbVertex
100
AcDb2dVertex
 10
7.7852190032
 20
7.747904901
 30
0.0
  0
VERTEX
  5
314
330
1D4
100
AcDbEntity
  8
0
  6
CONTINUOUS
 62
     7
100
AcDbVertex
100
AcDb2dVertex
 10
7.7640105898
 20
7.7451704547
 30
0.0
  0
VERTEX
  5
315
330
1D4
100
AcDbEntity
  8
0
  6
CONTINUOUS
 62
     7
100
AcDbVertex
100
AcDb2dVertex
 10
7.7424093825
 20
7.7409463402
 30
0.0
  0
VERTEX
  5
316
330
1D4
100
AcDbEntity
  8
0
  6
CONTINUOUS
 62
     7
100
AcDbVertex
100
AcDb2dVertex
 10
7.7204717364
 20
7.7352435776
 30
0.0
  0
VERTEX
  5
317
330
1D4
100
AcDbEntity
  8
0
  6
CONTINUOUS
 62
     7
100
AcDbVertex
100
AcDb2dVertex
 10
7.6982548842
 20
7.7280770449
 30
0.0
  0
VERTEX
  5
318
330
1D4
100
AcDbEntity
  8
0
  6
CONTINUOUS
 62
     7
100
AcDbVertex
100
AcDb2dVertex
 10
7.6758167874
 20
7.7194654387
 30
0.0
  0
VERTEX
  5
319
330
1D4
100
AcDbEntity
  8
0
  6
CONTINUOUS
 62
     7
100
AcDbVertex
100
AcDb2dVertex
 10
7.6532159842
 20
7.7094312258
 30
0.0
  0
VERTEX
  5
31A
330
1D4
100
AcDbEntity
  8
0
  6
CONTINUOUS
 62
     7
100
AcDbVertex
100
AcDb2dVertex
 10
7.6305114375
 20
7.6980005841
 30
0.0
  0
VERTEX
  5
31B
330
1D4
100
AcDbEntity
  8
0
  6
CONTINUOUS
 62
     7
100
AcDbVertex
100
AcDb2dVertex
 10
7.6077623811
 20
7.685203335
 30
0.0
  0
VERTEX
  5
31C
330
1D4
100
AcDbEntity
  8
0
  6
CONTINUOUS
 62
     7
100
AcDbVertex
100
AcDb2dVertex
 10
7.5850281644
 20
7.671072865
 30
0.0
  0
VERTEX
  5
31D
330
1D4
100
AcDbEntity
  8
0
  6
CONTINUOUS
 62
     7
100
AcDbVertex
100
AcDb2dVertex
 10
7.5623680986
 20
7.6556460389
 30
0.0
  0
VERTEX
  5
31E
330
1D4
100
AcDbEntity
  8
0
  6
CONTINUOUS
 62
     7
100
AcDbVertex
100
AcDb2dVertex
 10
7.5398413012
 20
7.6389631035
 30
0.0
  0
VERTEX
  5
31F
330
1D4
100
AcDbEntity
  8
0
  6
CONTINUOUS
 62
     7
100
AcDbVertex
100
AcDb2dVertex
 10
7.5175065419
 20
7.6210675828
 30
0.0
  0
VERTEX
  5
320
330
1D4
100
AcDbEntity
  8
0
  6
CONTINUOUS
 62
     7
100
AcDbVertex
100
AcDb2dVertex
 10
7.4954220896
 20
7.602006164
 30
0.0
  0
VERTEX
  5
321
330
1D4
100
AcDbEntity
  8
0
  6
CONTINUOUS
 62
     7
100
AcDbVertex
100
AcDb2dVertex
 10
7.4736455602
 20
7.5818285762
 30
0.0
  0
VERTEX
  5
322
330
1D4
100
AcDbEntity
  8
0
  6
CONTINUOUS
 62
     7
100
AcDbVertex
100
AcDb2dVertex
 10
7.4522337661
 20
7.5605874606
 30
0.0
  0
VERTEX
  5
323
330
1D4
100
AcDbEntity
  8
0
  6
CONTINUOUS
 62
     7
100
AcDbVertex
100
AcDb2dVertex
 10
7.4312425682
 20
7.5383382326
 30
0.0
  0
VERTEX
  5
324
330
1D4
100
AcDbEntity
  8
0
  6
CONTINUOUS
 62
     7
100
AcDbVertex
100
AcDb2dVertex
 10
7.4107267302
 20
7.515138938
 30
0.0
  0
VERTEX
  5
325
330
1D4
100
AcDbEntity
  8
0
  6
CONTINUOUS
 62
     7
100
AcDbVertex
100
AcDb2dVertex
 10
7.3907397756
 20
7.4910501012
 30
0.0
  0
VERTEX
  5
326
330
1D4
100
AcDbEntity
  8
0
  6
CONTINUOUS
 62
     7
100
AcDbVertex
100
AcDb2dVertex
 10
7.371333848
 20
7.466134567
 30
0.0
  0
VERTEX
  5
327
330
1D4
100
AcDbEntity
  8
0
  6
CONTINUOUS
 62
     7
100
AcDbVertex
100
AcDb2dVertex
 10
7.3525595753
 20
7.4404573374
 30
0.0
  0
VERTEX
  5
328
330
1D4
100
AcDbEntity
  8
0
  6
CONTINUOUS
 62
     7
100
AcDbVertex
100
AcDb2dVertex
 10
7.3344659374
 20
7.4140854013
 30
0.0
  0
VERTEX
  5
329
330
1D4
100
AcDbEntity
  8
0
  6
CONTINUOUS
 62
     7
100
AcDbVertex
100
AcDb2dVertex
 10
7.3171001386
 20
7.3870875601
 30
0.0
  0
VERTEX
  5
32A
330
1D4
100
AcDbEntity
  8
0
  6
CONTINUOUS
 62
     7
100
AcDbVertex
100
AcDb2dVertex
 10
7.3005074843
 20
7.3595342479
 30
0.0
  0
VERTEX
  5
32B
330
1D4
100
AcDbEntity
  8
0
  6
CONTINUOUS
 62
     7
100
AcDbVertex
100
AcDb2dVertex
 10
7.2847312627
 20
7.3314973484
 30
0.0
  0
VERTEX
  5
32C
330
1D4
100
AcDbEntity
  8
0
  6
CONTINUOUS
 62
     7
100
AcDbVertex
100
AcDb2dVertex
 10
7.2698126323
 20
7.3030500065
 30
0.0
  0
VERTEX
  5
32D
330
1D4
100
AcDbEntity
  8
0
  6
CONTINUOUS
 62
     7
100
AcDbVertex
100
AcDb2dVertex
 10
7.255790514
 20
7.2742664381
 30
0.0
  0
VERTEX
  5
32E
330
1D4
100
AcDbEntity
  8
0
  6
CONTINUOUS
 62
     7
100
AcDbVertex
100
AcDb2dVertex
 10
7.2427014899
 20
7.2452217363
 30
0.0
  0
VERTEX
  5
32F
330
1D4
100
AcDbEntity
  8
0
  6
CONTINUOUS
 62
     7
100
AcDbVertex
100
AcDb2dVertex
 10
7.2305797079
 20
7.2159916754
 30
0.0
  0
VERTEX
  5
330
330
1D4
100
AcDbEntity
  8
0
  6
CONTINUOUS
 62
     7
100
AcDbVertex
100
AcDb2dVertex
 10
7.2194567923
 20
7.1866525132
 30
0.0
  0
VERTEX
  5
331
330
1D4
100
AcDbEntity
  8
0
  6
CONTINUOUS
 62
     7
100
AcDbVertex
100
AcDb2dVertex
 10
7.2093617615
 20
7.1572807924
 30
0.0
  0
VERTEX
  5
332
330
1D4
100
AcDbEntity
  8
0
  6
CONTINUOUS
 62
     7
100
AcDbVertex
100
AcDb2dVertex
 10
7.2003209522
 20
7.1279531403
 30
0.0
  0
VERTEX
  5
333
330
1D4
100
AcDbEntity
  8
0
  6
CONTINUOUS
 62
     7
100
AcDbVertex
100
AcDb2dVertex
 10
7.1923579509
 20
7.0987460694
 30
0.0
  0
VERTEX
  5
334
330
1D4
100
AcDbEntity
  8
0
  6
CONTINUOUS
 62
     7
100
AcDbVertex
100
AcDb2dVertex
 10
7.1854935323
 20
7.0697357777
 30
0.0
  0
VERTEX
  5
335
330
1D4
100
AcDbEntity
  8
0
  6
CONTINUOUS
 62
     7
100
AcDbVertex
100
AcDb2dVertex
 10
7.1797456046
 20
7.0409979497
 30
0.0
  0
VERTEX
  5
336
330
1D4
100
AcDbEntity
  8
0
  6
CONTINUOUS
 62
     7
100
AcDbVertex
100
AcDb2dVertex
 10
7.1751291637
 20
7.0126075591
 30
0.0
  0
VERTEX
  5
337
330
1D4
100
AcDbEntity
  8
0
  6
CONTINUOUS
 62
     7
100
AcDbVertex
100
AcDb2dVertex
 10
7.1716562533
 20
6.9846386732
 30
0.0
  0
VERTEX
  5
338
330
1D4
100
AcDbEntity
  8
0
  6
CONTINUOUS
 62
     7
100
AcDbVertex
100
AcDb2dVertex
 10
7.1693359339
 20
6.9571642597
 30
0.0
  0
VERTEX
  5
339
330
1D4
100
AcDbEntity
  8
0
  6
CONTINUOUS
 62
     7
100
AcDbVertex
100
AcDb2dVertex
 10
7.1681742588
 20
6.9302559961
 30
0.0
  0
VERTEX
  5
33A
330
1D4
100
AcDbEntity
  8
0
  6
CONTINUOUS
 62
     7
100
AcDbVertex
100
AcDb2dVertex
 10
7.1681742588
 20
6.903984083
 30
0.0
  0
VERTEX
  5
33B
330
1D4
100
AcDbEntity
  8
0
  6
CONTINUOUS
 62
     7
100
AcDbVertex
100
AcDb2dVertex
 10
7.1693359339
 20
6.8784170609
 30
0.0
  0
VERTEX
  5
33C
330
1D4
100
AcDbEntity
  8
0
  6
CONTINUOUS
 62
     7
100
AcDbVertex
100
AcDb2dVertex
 10
7.1716562533
 20
6.8536216311
 30
0.0
  0
VERTEX
  5
33D
330
1D4
100
AcDbEntity
  8
0
  6
CONTINUOUS
 62
     7
100
AcDbVertex
100
AcDb2dVertex
 10
7.1751291637
 20
6.8296624822
 30
0.0
  0
VERTEX
  5
33E
330
1D4
100
AcDbEntity
  8
0
  6
CONTINUOUS
 62
     7
100
AcDbVertex
100
AcDb2dVertex
 10
7.1797456046
 20
6.8066021208
 30
0.0
  0
VERTEX
  5
33F
330
1D4
100
AcDbEntity
  8
0
  6
CONTINUOUS
 62
     7
100
AcDbVertex
100
AcDb2dVertex
 10
7.1854935323
 20
6.7845007088
 30
0.0
  0
VERTEX
  5
340
330
1D4
100
AcDbEntity
  8
0
  6
CONTINUOUS
 62
     7
100
AcDbVertex
100
AcDb2dVertex
 10
7.1923579509
 20
6.7634159062
 30
0.0
  0
VERTEX
  5
341
330
1D4
100
AcDbEntity
  8
0
  6
CONTINUOUS
 62
     7
100
AcDbVertex
100
AcDb2dVertex
 10
7.2003209522
 20
6.7434027209
 30
0.0
  0
VERTEX
  5
342
330
1D4
100
AcDbEntity
  8
0
  6
CONTINUOUS
 62
     7
100
AcDbVertex
100
AcDb2dVertex
 10
7.2093617615
 20
6.724513365
 30
0.0
  0
VERTEX
  5
343
330
1D4
100
AcDbEntity
  8
0
  6
CONTINUOUS
 62
     7
100
AcDbVertex
100
AcDb2dVertex
 10
7.2194567923
 20
6.7067971186
 30
0.0
  0
VERTEX
  5
344
330
1D4
100
AcDbEntity
  8
0
  6
CONTINUOUS
 62
     7
100
AcDbVertex
100
AcDb2dVertex
 10
7.2305797079
 20
6.6903002015
 30
0.0
  0
VERTEX
  5
345
330
1D4
100
AcDbEntity
  8
0
  6
CONTINUOUS
 62
     7
100
AcDbVertex
100
AcDb2dVertex
 10
7.2427014899
 20
6.6750656522
 30
0.0
  0
VERTEX
  5
346
330
1D4
100
AcDbEntity
  8
0
  6
CONTINUOUS
 62
     7
100
AcDbVertex
100
AcDb2dVertex
 10
7.255790514
 20
6.6611332158
 30
0.0
  0
VERTEX
  5
347
330
1D4
100
AcDbEntity
  8
0
  6
CONTINUOUS
 62
     7
100
AcDbVertex
100
AcDb2dVertex
 10
7.2698126323
 20
6.6485392406
 30
0.0
  0
VERTEX
  5
348
330
1D4
100
AcDbEntity
  8
0
  6
CONTINUOUS
 62
     7
100
AcDbVertex
100
AcDb2dVertex
 10
7.2847312627
 20
6.6373165828
 30
0.0
  0
VERTEX
  5
349
330
1D4
100
AcDbEntity
  8
0
  6
CONTINUOUS
 62
     7
100
AcDbVertex
100
AcDb2dVertex
 10
7.2985155389
 20
6.6286299936
 30
0.0
  0
SEQEND
  5
34A
330
1D4
100
AcDbEntity
  8
0
  6
CONTINUOUS
 62
     7
  0
SPLINE
  5
1D5
330
1F
100
AcDbEntity
  8
0
  6
CONTINUOUS
 62
     7
100
AcDbSpline
210
0.0
220
0.0
230
1.0
 70
     8
 71
     3
 72
    32
 73
    28
 74
     0
 42
0.00000001
 43
0.00000001
 40
-0.156535955127693
 40
-0.1254785076699831
 40
-0.0628695631559377
 40
0.0
 40
0.0629712266128638
 40
0.1255845661238601
 40
0.1677245527596325
 40
0.2081095947821563
 40
0.2498636454907416
 40
0.2805408209016103
 40
0.3117385443113208
 40
0.342934838715338
 40
0.3739628334142305
 40
0.4051065001080399
 40
0.4368264161548332
 40
0.4686398589265338
 40
0.5001104005375105
 40
0.5426773713236708
 40
0.583666305486874
 40
0.6260451987209867
 40
0.6682306411363519
 40
0.7086139926616819
 40
0.7503192886715474
 40
0.7810227357384197
 40
0.8122494164584629
 40
0.843464044872307
 40
0.8745214923300169
 40
0.9371304368440623
 40
1.0
 40
1.062971226612864
 40
1.12558456612386
 40
1.167724552759632
 10
7.696290011122609
 20
7.615088012282063
 30
0.0
 10
7.7143784937944
 20
7.630493469046556
 30
0.0
 10
7.739978124006435
 20
7.640273615532199
 30
0.0
 10
7.767426898322768
 20
7.641860600004239
 30
0.0
 10
7.791009455788157
 20
7.639189737929648
 30
0.0
 10
7.809939441645319
 20
7.633984557757081
 30
0.0
 10
7.824519662692784
 20
7.627154819338863
 30
0.0
 10
7.835271383343642
 20
7.619785307730123
 30
0.0
 10
7.842258029924126
 20
7.612451968331087
 30
0.0
 10
7.846625304412246
 20
7.604690163032109
 30
0.0
 10
7.847949259329265
 20
7.596719818730349
 30
0.0
 10
7.846275479562985
 20
7.588721798859346
 30
0.0
 10
7.841569008650987
 20
7.580906842656878
 30
0.0
 10
7.834266430463379
 20
7.573453904123726
 30
0.0
 10
7.823242867833502
 20
7.565951640237186
 30
0.0
 10
7.808457855986058
 20
7.558923258980267
 30
0.0
 10
7.789416520145323
 20
7.553497489044915
 30
0.0
 10
7.769032716900392
 20
7.551001104237299
 30
0.0
 10
7.748696508159319
 20
7.551145122828788
 30
0.0
 10
7.729777539415307
 20
7.554807228312075
 30
0.0
 10
7.715205430903182
 20
7.561176133641388
 30
0.0
 10
7.704467284503868
 20
7.56889437019049
 30
0.0
 10
7.697489624949823
 20
7.577151390975636
 30
0.0
 10
7.693118592237814
 20
7.586249004797613
 30
0.0
 10
7.691409062088865
 20
7.598981351640457
 30
0.0
 10
7.696290011122609
 20
7.615088012282063
 30
0.0
 10
7.7143784937944
 20
7.630493469046556
 30
0.0
 10
7.739978124006435
 20
7.640273615532199
 30
0.0
  0
SPLINE
  5
1D6
330
1F
100
AcDbEntity
  8
0
  6
CONTINUOUS
 62
     7
100
AcDbSpline
210
0.0
220
0.0
230
1.0
 70
     8
 71
     3
 72
    32
 73
    28
 74
     0
 42
0.00000001
 43
0.00000001
 40
-0.156535955127911
 40
-0.1254785076700119
 40
-0.0628695631561256
 40
0.0
 40
0.0629712266127373
 40
0.1255845661238412
 40
0.167724552759527
 40
0.2081095947820501
 40
0.2498636454907461
 40
0.2805408209016446
 40
0.3117385443113267
 40
0.3429348387155924
 40
0.3739628334142436
 40
0.4051065001083283
 40
0.4368264161548402
 40
0.4686398589267567
 40
0.500110400537521
 40
0.5426773713238059
 40
0.583666305487009
 40
0.6260451987209654
 40
0.6682306411363305
 40
0.7086139926616608
 40
0.7503192886715254
 40
0.7810227357383673
 40
0.8122494164584393
 40
0.843464044872089
 40
0.8745214923299881
 40
0.9371304368438744
 40
1.0
 40
1.062971226612737
 40
1.125584566123841
 40
1.167724552759527
 10
8.503616651059941
 20
7.149028263406887
 30
0.0
 10
8.521705133731766
 20
7.164433720171367
 30
0.0
 10
8.547304763943824
 20
7.174213866657008
 30
0.0
 10
8.57475353826013
 20
7.175800851129066
 30
0.0
 10
8.598336095725529
 20
7.173129989054502
 30
0.0
 10
8.617266081582693
 20
7.167924808881928
 30
0.0
 10
8.631846302630168
 20
7.161095070463698
 30
0.0
 10
8.642598023281048
 20
7.153725558854952
 30
0.0
 10
8.649584669861532
 20
7.146392219455895
 30
0.0
 10
8.653951944349679
 20
7.13863041415692
 30
0.0
 10
8.655275899266659
 20
7.130660069855134
 30
0.0
 10
8.653602119500349
 20
7.122662049984156
 30
0.0
 10
8.648895648588354
 20
7.114847093781669
 30
0.0
 10
8.641593070400765
 20
7.107394155248537
 30
0.0
 10
8.63056950777086
 20
7.099891891361992
 30
0.0
 10
8.615784495923386
 20
7.09286351010511
 30
0.0
 10
8.596743160082669
 20
7.087437740169746
 30
0.0
 10
8.576359356837763
 20
7.084941355362128
 30
0.0
 10
8.556023148096713
 20
7.08508537395362
 30
0.0
 10
8.537104179352703
 20
7.088747479436906
 30
0.0
 10
8.52253207084058
 20
7.095116384766216
 30
0.0
 10
8.511793924441273
 20
7.102834621315321
 30
0.0
 10
8.504816264887229
 20
7.111091642100444
 30
0.0
 10
8.500445232175236
 20
7.120189255922428
 30
0.0
 10
8.49873570202625
 20
7.132921602765249
 30
0.0
 10
8.503616651059941
 20
7.149028263406887
 30
0.0
 10
8.521705133731766
 20
7.164433720171367
 30
0.0
 10
8.547304763943824
 20
7.174213866657008
 30
0.0
  0
POLYLINE
  5
1D7
330
1F
100
AcDbEntity
  8
0
  6
CONTINUOUS
 62
     7
100
AcDb2dPolyline
 66
     1
 10
0.0
 20
0.0
 30
0.0
  0
VERTEX
  5
34B
330
1D7
100
AcDbEntity
  8
0
  6
CONTINUOUS
 62
     7
100
AcDbVertex
100
AcDb2dVertex
 10
8.8940376569
 20
6.6078617761
 30
0.0
  0
VERTEX
  5
34C
330
1D7
100
AcDbEntity
  8
0
  6
CONTINUOUS
 62
     7
100
AcDbVertex
100
AcDb2dVertex
 10
8.8934514595
 20
6.592234984
 30
0.0
  0
VERTEX
  5
34D
330
1D7
100
AcDbEntity
  8
0
  6
CONTINUOUS
 62
     7
100
AcDbVertex
100
AcDb2dVertex
 10
8.8916974551
 20
6.5760536837
 30
0.0
  0
VERTEX
  5
34E
330
1D7
100
AcDbEntity
  8
0
  6
CONTINUOUS
 62
     7
100
AcDbVertex
100
AcDb2dVertex
 10
8.8887893713
 20
6.5594445157
 30
0.0
  0
VERTEX
  5
34F
330
1D7
100
AcDbEntity
  8
0
  6
CONTINUOUS
 62
     7
100
AcDbVertex
100
AcDb2dVertex
 10
8.8847499676
 20
6.5425374694
 30
0.0
  0
VERTEX
  5
350
330
1D7
100
AcDbEntity
  8
0
  6
CONTINUOUS
 62
     7
100
AcDbVertex
100
AcDb2dVertex
 10
8.879610858
 20
6.5254648652
 30
0.0
  0
VERTEX
  5
351
330
1D7
100
AcDbEntity
  8
0
  6
CONTINUOUS
 62
     7
100
AcDbVertex
100
AcDb2dVertex
 10
8.8734122628
 20
6.5083603195
 30
0.0
  0
VERTEX
  5
352
330
1D7
100
AcDbEntity
  8
0
  6
CONTINUOUS
 62
     7
100
AcDbVertex
100
AcDb2dVertex
 10
8.8662026946
 20
6.4913576985
 30
0.0
  0
VERTEX
  5
353
330
1D7
100
AcDbEntity
  8
0
  6
CONTINUOUS
 62
     7
100
AcDbVertex
100
AcDb2dVertex
 10
8.8580385779
 20
6.4745900708
 30
0.0
  0
VERTEX
  5
354
330
1D7
100
AcDbEntity
  8
0
  6
CONTINUOUS
 62
     7
100
AcDbVertex
100
AcDb2dVertex
 10
8.848983808
 20
6.4581886658
 30
0.0
  0
VERTEX
  5
355
330
1D7
100
AcDbEntity
  8
0
  6
CONTINUOUS
 62
     7
100
AcDbVertex
100
AcDb2dVertex
 10
8.8391092509
 20
6.4422818467
 30
0.0
  0
VERTEX
  5
356
330
1D7
100
AcDbEntity
  8
0
  6
CONTINUOUS
 62
     7
100
AcDbVertex
100
AcDb2dVertex
 10
8.8284921882
 20
6.426994106
 30
0.0
  0
VERTEX
  5
357
330
1D7
100
AcDbEntity
  8
0
  6
CONTINUOUS
 62
     7
100
AcDbVertex
100
AcDb2dVertex
 10
8.817215713
 20
6.412445091
 30
0.0
  0
VERTEX
  5
358
330
1D7
100
AcDbEntity
  8
0
  6
CONTINUOUS
 62
     7
100
AcDbVertex
100
AcDb2dVertex
 10
8.8053680789
 20
6.3987486673
 30
0.0
  0
VERTEX
  5
359
330
1D7
100
AcDbEntity
  8
0
  6
CONTINUOUS
 62
     7
100
AcDbVertex
100
AcDb2dVertex
 10
8.7930420096
 20
6.3860120282
 30
0.0
  0
VERTEX
  5
35A
330
1D7
100
AcDbEntity
  8
0
  6
CONTINUOUS
 62
     7
100
AcDbVertex
100
AcDb2dVertex
 10
8.7803339735
 20
6.3743348551
 30
0.0
  0
VERTEX
  5
35B
330
1D7
100
AcDbEntity
  8
0
  6
CONTINUOUS
 62
     7
100
AcDbVertex
100
AcDb2dVertex
 10
8.7673434282
 20
6.3638085377
 30
0.0
  0
VERTEX
  5
35C
330
1D7
100
AcDbEntity
  8
0
  6
CONTINUOUS
 62
     7
100
AcDbVertex
100
AcDb2dVertex
 10
8.7541720421
 20
6.3545154586
 30
0.0
  0
VERTEX
  5
35D
330
1D7
100
AcDbEntity
  8
0
  6
CONTINUOUS
 62
     7
100
AcDbVertex
100
AcDb2dVertex
 10
8.7409228994
 20
6.346528349
 30
0.0
  0
VERTEX
  5
35E
330
1D7
100
AcDbEntity
  8
0
  6
CONTINUOUS
 62
     7
100
AcDbVertex
100
AcDb2dVertex
 10
8.7276996925
 20
6.3399097186
 30
0.0
  0
VERTEX
  5
35F
330
1D7
100
AcDbEntity
  8
0
  6
CONTINUOUS
 62
     7
100
AcDbVertex
100
AcDb2dVertex
 10
8.714605911
 20
6.3347113673
 30
0.0
  0
VERTEX
  5
360
330
1D7
100
AcDbEntity
  8
0
  6
CONTINUOUS
 62
     7
100
AcDbVertex
100
AcDb2dVertex
 10
8.7017440314
 20
6.3309739792
 30
0.0
  0
VERTEX
  5
361
330
1D7
100
AcDbEntity
  8
0
  6
CONTINUOUS
 62
     7
100
AcDbVertex
100
AcDb2dVertex
 10
8.6892147154
 20
6.3287268045
 30
0.0
  0
VERTEX
  5
362
330
1D7
100
AcDbEntity
  8
0
  6
CONTINUOUS
 62
     7
100
AcDbVertex
100
AcDb2dVertex
 10
8.6771160218
 20
6.3279874302
 30
0.0
  0
VERTEX
  5
363
330
1D7
100
AcDbEntity
  8
0
  6
CONTINUOUS
 62
     7
100
AcDbVertex
100
AcDb2dVertex
 10
8.6655426394
 20
6.3287616431
 30
0.0
  0
VERTEX
  5
364
330
1D7
100
AcDbEntity
  8
0
  6
CONTINUOUS
 62
     7
100
AcDbVertex
100
AcDb2dVertex
 10
8.6545851455
 20
6.3310433839
 30
0.0
  0
VERTEX
  5
365
330
1D7
100
AcDbEntity
  8
0
  6
CONTINUOUS
 62
     7
100
AcDbVertex
100
AcDb2dVertex
 10
8.6443292975
 20
6.3348147949
 30
0.0
  0
VERTEX
  5
366
330
1D7
100
AcDbEntity
  8
0
  6
CONTINUOUS
 62
     7
100
AcDbVertex
100
AcDb2dVertex
 10
8.6348553612
 20
6.3400463596
 30
0.0
  0
VERTEX
  5
367
330
1D7
100
AcDbEntity
  8
0
  6
CONTINUOUS
 62
     7
100
AcDbVertex
100
AcDb2dVertex
 10
8.6262374829
 20
6.3466971339
 30
0.0
  0
VERTEX
  5
368
330
1D7
100
AcDbEntity
  8
0
  6
CONTINUOUS
 62
     7
100
AcDbVertex
100
AcDb2dVertex
 10
8.6185431094
 20
6.3547150666
 30
0.0
  0
VERTEX
  5
369
330
1D7
100
AcDbEntity
  8
0
  6
CONTINUOUS
 62
     7
100
AcDbVertex
100
AcDb2dVertex
 10
8.6118324595
 20
6.3640374065
 30
0.0
  0
VERTEX
  5
36A
330
1D7
100
AcDbEntity
  8
0
  6
CONTINUOUS
 62
     7
100
AcDbVertex
100
AcDb2dVertex
 10
8.6061580532
 20
6.3745911935
 30
0.0
  0
VERTEX
  5
36B
330
1D7
100
AcDbEntity
  8
0
  6
CONTINUOUS
 62
     7
100
AcDbVertex
100
AcDb2dVertex
 10
8.6015643003
 20
6.38629383
 30
0.0
  0
VERTEX
  5
36C
330
1D7
100
AcDbEntity
  8
0
  6
CONTINUOUS
 62
     7
100
AcDbVertex
100
AcDb2dVertex
 10
8.5980871532
 20
6.3990537271
 30
0.0
  0
VERTEX
  5
36D
330
1D7
100
AcDbEntity
  8
0
  6
CONTINUOUS
 62
     7
100
AcDbVertex
100
AcDb2dVertex
 10
8.5957538253
 20
6.4127710211
 30
0.0
  0
VERTEX
  5
36E
330
1D7
100
AcDbEntity
  8
0
  6
CONTINUOUS
 62
     7
100
AcDbVertex
100
AcDb2dVertex
 10
8.594582578
 20
6.4273383557
 30
0.0
  0
VERTEX
  5
36F
330
1D7
100
AcDbEntity
  8
0
  6
CONTINUOUS
 62
     7
100
AcDbVertex
100
AcDb2dVertex
 10
8.594582578
 20
6.4426417218
 30
0.0
  0
VERTEX
  5
370
330
1D7
100
AcDbEntity
  8
0
  6
CONTINUOUS
 62
     7
100
AcDbVertex
100
AcDb2dVertex
 10
8.5957538253
 20
6.4585613497
 30
0.0
  0
VERTEX
  5
371
330
1D7
100
AcDbEntity
  8
0
  6
CONTINUOUS
 62
     7
100
AcDbVertex
100
AcDb2dVertex
 10
8.5980871532
 20
6.4749726468
 30
0.0
  0
VERTEX
  5
372
330
1D7
100
AcDbEntity
  8
0
  6
CONTINUOUS
 62
     7
100
AcDbVertex
100
AcDb2dVertex
 10
8.6015643003
 20
6.4917471724
 30
0.0
  0
VERTEX
  5
373
330
1D7
100
AcDbEntity
  8
0
  6
CONTINUOUS
 62
     7
100
AcDbVertex
100
AcDb2dVertex
 10
8.6061580532
 20
6.5087536432
 30
0.0
  0
VERTEX
  5
374
330
1D7
100
AcDbEntity
  8
0
  6
CONTINUOUS
 62
     7
100
AcDbVertex
100
AcDb2dVertex
 10
8.6118324595
 20
6.5258589603
 30
0.0
  0
VERTEX
  5
375
330
1D7
100
AcDbEntity
  8
0
  6
CONTINUOUS
 62
     7
100
AcDbVertex
100
AcDb2dVertex
 10
8.6185431094
 20
6.5429292516
 30
0.0
  0
VERTEX
  5
376
330
1D7
100
AcDbEntity
  8
0
  6
CONTINUOUS
 62
     7
100
AcDbVertex
100
AcDb2dVertex
 10
8.6262374829
 20
6.5598309189
 30
0.0
  0
VERTEX
  5
377
330
1D7
100
AcDbEntity
  8
0
  6
CONTINUOUS
 62
     7
100
AcDbVertex
100
AcDb2dVertex
 10
8.6348553612
 20
6.5764316836
 30
0.0
  0
VERTEX
  5
378
330
1D7
100
AcDbEntity
  8
0
  6
CONTINUOUS
 62
     7
100
AcDbVertex
100
AcDb2dVertex
 10
8.6443292975
 20
6.5926016224
 30
0.0
  0
VERTEX
  5
379
330
1D7
100
AcDbEntity
  8
0
  6
CONTINUOUS
 62
     7
100
AcDbVertex
100
AcDb2dVertex
 10
8.6545851455
 20
6.6082141834
 30
0.0
  0
VERTEX
  5
37A
330
1D7
100
AcDbEntity
  8
0
  6
CONTINUOUS
 62
     7
100
AcDbVertex
100
AcDb2dVertex
 10
8.6655426394
 20
6.6231471773
 30
0.0
  0
VERTEX
  5
37B
330
1D7
100
AcDbEntity
  8
0
  6
CONTINUOUS
 62
     7
100
AcDbVertex
100
AcDb2dVertex
 10
8.6771160218
 20
6.6372837332
 30
0.0
  0
VERTEX
  5
37C
330
1D7
100
AcDbEntity
  8
0
  6
CONTINUOUS
 62
     7
100
AcDbVertex
100
AcDb2dVertex
 10
8.6892147154
 20
6.6505132132
 30
0.0
  0
VERTEX
  5
37D
330
1D7
100
AcDbEntity
  8
0
  6
CONTINUOUS
 62
     7
100
AcDbVertex
100
AcDb2dVertex
 10
8.7017440314
 20
6.6627320788
 30
0.0
  0
VERTEX
  5
37E
330
1D7
100
AcDbEntity
  8
0
  6
CONTINUOUS
 62
     7
100
AcDbVertex
100
AcDb2dVertex
 10
8.714605911
 20
6.6738447008
 30
0.0
  0
VERTEX
  5
37F
330
1D7
100
AcDbEntity
  8
0
  6
CONTINUOUS
 62
     7
100
AcDbVertex
100
AcDb2dVertex
 10
8.7276996925
 20
6.6837641079
 30
0.0
  0
VERTEX
  5
380
330
1D7
100
AcDbEntity
  8
0
  6
CONTINUOUS
 62
     7
100
AcDbVertex
100
AcDb2dVertex
 10
8.7409228994
 20
6.6924126672
 30
0.0
  0
VERTEX
  5
381
330
1D7
100
AcDbEntity
  8
0
  6
CONTINUOUS
 62
     7
100
AcDbVertex
100
AcDb2dVertex
 10
8.7541720421
 20
6.6997226921
 30
0.0
  0
VERTEX
  5
382
330
1D7
100
AcDbEntity
  8
0
  6
CONTINUOUS
 62
     7
100
AcDbVertex
100
AcDb2dVertex
 10
8.7673434282
 20
6.7056369717
 30
0.0
  0
VERTEX
  5
383
330
1D7
100
AcDbEntity
  8
0
  6
CONTINUOUS
 62
     7
100
AcDbVertex
100
AcDb2dVertex
 10
8.7803339735
 20
6.7101092187
 30
0.0
  0
VERTEX
  5
384
330
1D7
100
AcDbEntity
  8
0
  6
CONTINUOUS
 62
     7
100
AcDbVertex
100
AcDb2dVertex
 10
8.7930420096
 20
6.7131044318
 30
0.0
  0
VERTEX
  5
385
330
1D7
100
AcDbEntity
  8
0
  6
CONTINUOUS
 62
     7
100
AcDbVertex
100
AcDb2dVertex
 10
8.8053680789
 20
6.7145991693
 30
0.0
  0
VERTEX
  5
386
330
1D7
100
AcDbEntity
  8
0
  6
CONTINUOUS
 62
     7
100
AcDbVertex
100
AcDb2dVertex
 10
8.817215713
 20
6.7145817328
 30
0.0
  0
VERTEX
  5
387
330
1D7
100
AcDbEntity
  8
0
  6
CONTINUOUS
 62
     7
100
AcDbVertex
100
AcDb2dVertex
 10
8.8284921882
 20
6.713052259
 30
0.0
  0
VERTEX
  5
388
330
1D7
100
AcDbEntity
  8
0
  6
CONTINUOUS
 62
     7
100
AcDbVertex
100
AcDb2dVertex
 10
8.8391092509
 20
6.7100227179
 30
0.0
  0
VERTEX
  5
389
330
1D7
100
AcDbEntity
  8
0
  6
CONTINUOUS
 62
     7
100
AcDbVertex
100
AcDb2dVertex
 10
8.848983808
 20
6.7055168198
 30
0.0
  0
VERTEX
  5
38A
330
1D7
100
AcDbEntity
  8
0
  6
CONTINUOUS
 62
     7
100
AcDbVertex
100
AcDb2dVertex
 10
8.8580385779
 20
6.6995698295
 30
0.0
  0
VERTEX
  5
38B
330
1D7
100
AcDbEntity
  8
0
  6
CONTINUOUS
 62
     7
100
AcDbVertex
100
AcDb2dVertex
 10
8.8662026946
 20
6.6922282903
 30
0.0
  0
VERTEX
  5
38C
330
1D7
100
AcDbEntity
  8
0
  6
CONTINUOUS
 62
     7
100
AcDbVertex
100
AcDb2dVertex
 10
8.8734122628
 20
6.6835496596
 30
0.0
  0
VERTEX
  5
38D
330
1D7
100
AcDbEntity
  8
0
  6
CONTINUOUS
 62
     7
100
AcDbVertex
100
AcDb2dVertex
 10
8.879610858
 20
6.6736018596
 30
0.0
  0
VERTEX
  5
38E
330
1D7
100
AcDbEntity
  8
0
  6
CONTINUOUS
 62
     7
100
AcDbVertex
100
AcDb2dVertex
 10
8.8847499676
 20
6.6624627451
 30
0.0
  0
VERTEX
  5
38F
330
1D7
100
AcDbEntity
  8
0
  6
CONTINUOUS
 62
     7
100
AcDbVertex
100
AcDb2dVertex
 10
8.8887893713
 20
6.6502194949
 30
0.0
  0
VERTEX
  5
390
330
1D7
100
AcDbEntity
  8
0
  6
CONTINUOUS
 62
     7
100
AcDbVertex
100
AcDb2dVertex
 10
8.8916974551
 20
6.6369679291
 30
0.0
  0
VERTEX
  5
391
330
1D7
100
AcDbEntity
  8
0
  6
CONTINUOUS
 62
     7
100
AcDbVertex
100
AcDb2dVertex
 10
8.8934514595
 20
6.6228117591
 30
0.0
  0
VERTEX
  5
392
330
1D7
100
AcDbEntity
  8
0
  6
CONTINUOUS
 62
     7
100
AcDbVertex
100
AcDb2dVertex
 10
8.8940376569
 20
6.6078617761
 30
0.0
  0
SEQEND
  5
393
330
1D7
100
AcDbEntity
  8
0
  6
CONTINUOUS
 62
     7
  0
SPLINE
  5
1D8
330
1F
100
AcDbEntity
  8
0
  6
CONTINUOUS
 62
     7
100
AcDbSpline
210
0.0
220
0.0
230
1.0
 70
     8
 71
     3
 72
    11
 73
     7
 74
     0
 42
0.00000001
 43
0.00000001
 40
0.0
 40
0.0
 40
0.0
 40
0.0
 40
0.3301907726128024
 40
0.6261076169893046
 40
0.8868417192720487
 40
0.9999999999999999
 40
0.9999999999999999
 40
0.9999999999999999
 40
0.9999999999999999
 10
8.512248050262507
 20
7.119137576072513
 30
0.0
 10
8.512577471363356
 20
7.115926040089668
 30
0.0
 10
8.513202119529042
 20
7.109836326784892
 30
0.0
 10
8.517955904025166
 20
7.101848525204005
 30
0.0
 10
8.522952187878644
 20
7.096278782611962
 30
0.0
 10
8.526755374463509
 20
7.093760510494859
 30
0.0
 10
8.52790640635072
 20
7.092998357115639
 30
0.0
  0
SPLINE
  5
1D9
330
1F
100
AcDbEntity
  8
0
  6
CONTINUOUS
 62
     7
100
AcDbSpline
210
0.0
220
0.0
230
1.0
 70
     8
 71
     3
 72
    10
 73
     6
 74
     0
 42
0.00000001
 43
0.00000001
 40
0.0
 40
0.0
 40
0.0
 40
0.0
 40
0.1634645108713706
 40
0.559068686665343
 40
1.0
 40
1.0
 40
1.0
 40
1.0
 10
8.633086437257841
 20
7.101967391619025
 30
0.0
 10
8.634074175486703
 20
7.102829322953674
 30
0.0
 10
8.637452361439328
 20
7.10577723388975
 30
0.0
 10
8.641110345908727
 20
7.11159129996192
 30
0.0
 10
8.641798627405072
 20
7.116532631170152
 30
0.0
 10
8.642161415198384
 20
7.119137168201253
 30
0.0
  0
ARC
  5
1DA
330
1F
100
AcDbEntity
  8
0
  6
CONTINUOUS
 62
     7
100
AcDbCircle
 10
8.7885874245
 20
6.62175858
 30
0.0
 40
0.085375629989631
100
AcDbArc
 50
350.632141748
 51
125.6624564588
  0
POLYLINE
  5
1DB
330
1F
100
AcDbEntity
  8
0
  6
CONTINUOUS
 62
     7
100
AcDb2dPolyline
 66
     1
 10
0.0
 20
0.0
 30
0.0
  0
VERTEX
  5
394
330
1DB
100
AcDbEntity
  8
0
  6
CONTINUOUS
 62
     7
100
AcDbVertex
100
AcDb2dVertex
 10
8.5945333109
 20
6.4411970973
 30
0.0
  0
VERTEX
  5
395
330
1DB
100
AcDbEntity
  8
0
  6
CONTINUOUS
 62
     7
100
AcDbVertex
100
AcDb2dVertex
 10
8.595029735
 20
6.4326634166
 30
0.0
  0
VERTEX
  5
396
330
1DB
100
AcDbEntity
  8
0
  6
CONTINUOUS
 62
     7
100
AcDbVertex
100
AcDb2dVertex
 10
8.5968060035
 20
6.4189844843
 30
0.0
  0
VERTEX
  5
397
330
1DB
100
AcDbEntity
  8
0
  6
CONTINUOUS
 62
     7
100
AcDbVertex
100
AcDb2dVertex
 10
8.5997496078
 20
6.4062314248
 30
0.0
  0
VERTEX
  5
398
330
1DB
100
AcDbEntity
  8
0
  6
CONTINUOUS
 62
     7
100
AcDbVertex
100
AcDb2dVertex
 10
8.6038354342
 20
6.3945130428
 30
0.0
  0
VERTEX
  5
399
330
1DB
100
AcDbEntity
  8
0
  6
CONTINUOUS
 62
     7
100
AcDbVertex
100
AcDb2dVertex
 10
8.6090286238
 20
6.3839293153
 30
0.0
  0
VERTEX
  5
39A
330
1DB
100
AcDbEntity
  8
0
  6
CONTINUOUS
 62
     7
100
AcDbVertex
100
AcDb2dVertex
 10
8.6152848701
 20
6.3745705389
 30
0.0
  0
VERTEX
  5
39B
330
1DB
100
AcDbEntity
  8
0
  6
CONTINUOUS
 62
     7
100
AcDbVertex
100
AcDb2dVertex
 10
8.6225507971
 20
6.3665165596
 30
0.0
  0
VERTEX
  5
39C
330
1DB
100
AcDbEntity
  8
0
  6
CONTINUOUS
 62
     7
100
AcDbVertex
100
AcDb2dVertex
 10
8.6307644145
 20
6.3598360909
 30
0.0
  0
VERTEX
  5
39D
330
1DB
100
AcDbEntity
  8
0
  6
CONTINUOUS
 62
     7
100
AcDbVertex
100
AcDb2dVertex
 10
8.6398556465
 20
6.3545861282
 30
0.0
  0
VERTEX
  5
39E
330
1DB
100
AcDbEntity
  8
0
  6
CONTINUOUS
 62
     7
100
AcDbVertex
100
AcDb2dVertex
 10
8.64974693
 20
6.3508114625
 30
0.0
  0
VERTEX
  5
39F
330
1DB
100
AcDbEntity
  8
0
  6
CONTINUOUS
 62
     7
100
AcDbVertex
100
AcDb2dVertex
 10
8.660353876
 20
6.3485442977
 30
0.0
  0
VERTEX
  5
3A0
330
1DB
100
AcDbEntity
  8
0
  6
CONTINUOUS
 62
     7
100
AcDbVertex
100
AcDb2dVertex
 10
8.6715859898
 20
6.3478039766
 30
0.0
  0
VERTEX
  5
3A1
330
1DB
100
AcDbEntity
  8
0
  6
CONTINUOUS
 62
     7
100
AcDbVertex
100
AcDb2dVertex
 10
8.683347443
 20
6.3485968154
 30
0.0
  0
VERTEX
  5
3A2
330
1DB
100
AcDbEntity
  8
0
  6
CONTINUOUS
 62
     7
100
AcDbVertex
100
AcDb2dVertex
 10
8.695537891
 20
6.3509160497
 30
0.0
  0
VERTEX
  5
3A3
330
1DB
100
AcDbEntity
  8
0
  6
CONTINUOUS
 62
     7
100
AcDbVertex
100
AcDb2dVertex
 10
8.7080533292
 20
6.3547418928
 30
0.0
  0
VERTEX
  5
3A4
330
1DB
100
AcDbEntity
  8
0
  6
CONTINUOUS
 62
     7
100
AcDbVertex
100
AcDb2dVertex
 10
8.7207869802
 20
6.3600417038
 30
0.0
  0
VERTEX
  5
3A5
330
1DB
100
AcDbEntity
  8
0
  6
CONTINUOUS
 62
     7
100
AcDbVertex
100
AcDb2dVertex
 10
8.7336302052
 20
6.3667702667
 30
0.0
  0
VERTEX
  5
3A6
330
1DB
100
AcDbEntity
  8
0
  6
CONTINUOUS
 62
     7
100
AcDbVertex
100
AcDb2dVertex
 10
8.7464734301
 20
6.3748701757
 30
0.0
  0
VERTEX
  5
3A7
330
1DB
100
AcDbEntity
  8
0
  6
CONTINUOUS
 62
     7
100
AcDbVertex
100
AcDb2dVertex
 10
8.7592070812
 20
6.3842723253
 30
0.0
  0
VERTEX
  5
3A8
330
1DB
100
AcDbEntity
  8
0
  6
CONTINUOUS
 62
     7
100
AcDbVertex
100
AcDb2dVertex
 10
8.7717225194
 20
6.3948964995
 30
0.0
  0
VERTEX
  5
3A9
330
1DB
100
AcDbEntity
  8
0
  6
CONTINUOUS
 62
     7
100
AcDbVertex
100
AcDb2dVertex
 10
8.7839129673
 20
6.4066520568
 30
0.0
  0
VERTEX
  5
3AA
330
1DB
100
AcDbEntity
  8
0
  6
CONTINUOUS
 62
     7
100
AcDbVertex
100
AcDb2dVertex
 10
8.7956744205
 20
6.4194387029
 30
0.0
  0
VERTEX
  5
3AB
330
1DB
100
AcDbEntity
  8
0
  6
CONTINUOUS
 62
     7
100
AcDbVertex
100
AcDb2dVertex
 10
8.8069065343
 20
6.4331473466
 30
0.0
  0
VERTEX
  5
3AC
330
1DB
100
AcDbEntity
  8
0
  6
CONTINUOUS
 62
     7
100
AcDbVertex
100
AcDb2dVertex
 10
8.8175134804
 20
6.4476610305
 30
0.0
  0
VERTEX
  5
3AD
330
1DB
100
AcDbEntity
  8
0
  6
CONTINUOUS
 62
     7
100
AcDbVertex
100
AcDb2dVertex
 10
8.8274047638
 20
6.4628559291
 30
0.0
  0
VERTEX
  5
3AE
330
1DB
100
AcDbEntity
  8
0
  6
CONTINUOUS
 62
     7
100
AcDbVertex
100
AcDb2dVertex
 10
8.8364959959
 20
6.4786024048
 30
0.0
  0
VERTEX
  5
3AF
330
1DB
100
AcDbEntity
  8
0
  6
CONTINUOUS
 62
     7
100
AcDbVertex
100
AcDb2dVertex
 10
8.8447096132
 20
6.4947661142
 30
0.0
  0
VERTEX
  5
3B0
330
1DB
100
AcDbEntity
  8
0
  6
CONTINUOUS
 62
     7
100
AcDbVertex
100
AcDb2dVertex
 10
8.8519755402
 20
6.5112091544
 30
0.0
  0
VERTEX
  5
3B1
330
1DB
100
AcDbEntity
  8
0
  6
CONTINUOUS
 62
     7
100
AcDbVertex
100
AcDb2dVertex
 10
8.8582317866
 20
6.527791239
 30
0.0
  0
VERTEX
  5
3B2
330
1DB
100
AcDbEntity
  8
0
  6
CONTINUOUS
 62
     7
100
AcDbVertex
100
AcDb2dVertex
 10
8.8634249762
 20
6.5443708956
 30
0.0
  0
VERTEX
  5
3B3
330
1DB
100
AcDbEntity
  8
0
  6
CONTINUOUS
 62
     7
100
AcDbVertex
100
AcDb2dVertex
 10
8.8675108025
 20
6.5608066723
 30
0.0
  0
VERTEX
  5
3B4
330
1DB
100
AcDbEntity
  8
0
  6
CONTINUOUS
 62
     7
100
AcDbVertex
100
AcDb2dVertex
 10
8.8704544068
 20
6.576958345
 30
0.0
  0
VERTEX
  5
3B5
330
1DB
100
AcDbEntity
  8
0
  6
CONTINUOUS
 62
     7
100
AcDbVertex
100
AcDb2dVertex
 10
8.8722306753
 20
6.5926881132
 30
0.0
  0
VERTEX
  5
3B6
330
1DB
100
AcDbEntity
  8
0
  6
CONTINUOUS
 62
     7
100
AcDbVertex
100
AcDb2dVertex
 10
8.8728244534
 20
6.6078617761
 30
0.0
  0
SEQEND
  5
3B7
330
1DB
100
AcDbEntity
  8
0
  6
CONTINUOUS
 62
     7
  0
SPLINE
  5
1DC
330
1F
100
AcDbEntity
  8
0
  6
CONTINUOUS
 62
     7
100
AcDbSpline
210
0.0
220
0.0
230
1.0
 70
     8
 71
     3
 72
    22
 73
    18
 74
     0
 42
0.00000001
 43
0.00000001
 40
0.0
 40
0.0
 40
0.0
 40
0.0
 40
0.061734368291538
 40
0.1338465900881965
 40
0.2007864603393676
 40
0.2697848624133022
 40
0.334930018186247
 40
0.401876166100102
 40
0.4687640575489067
 40
0.5374321422295869
 40
0.6072227371963801
 40
0.6790394113324965
 40
0.7485444884015916
 40
0.8202780860311858
 40
0.8863270759544422
 40
0.9543689147129641
 40
1.0
 40
1.0
 40
1.0
 40
1.0
 10
8.755388569282673
 20
6.698297449052685
 30
0.0
 10
8.75668090003379
 20
6.695526931377657
 30
0.0
 10
8.759482808745105
 20
6.689520158264982
 30
0.0
 10
8.761792291761035
 20
6.680416678093903
 30
0.0
 10
8.762615833798403
 20
6.671248689587506
 30
0.0
 10
8.761726898928838
 20
6.662865466739868
 30
0.0
 10
8.759268125484516
 20
6.655223267484036
 30
0.0
 10
8.755416598528571
 20
6.648594161120133
 30
0.0
 10
8.750224065863923
 20
6.64301021942808
 30
0.0
 10
8.743876663980025
 20
6.63871380307752
 30
0.0
 10
8.736512096982255
 20
6.635905430955085
 30
0.0
 10
8.728522667875431
 20
6.634864857766596
 30
0.0
 10
8.720188715308227
 20
6.635726353160591
 30
0.0
 10
8.712116217414557
 20
6.638457623976008
 30
0.0
 10
8.70447438313569
 20
6.643011087844848
 30
0.0
 10
8.6981951805971
 20
6.648253146031081
 30
0.0
 10
8.694740361704802
 20
6.652509624190498
 30
0.0
 10
8.693353513105196
 20
6.654218278380099
 30
0.0
  0
ARC
  5
1DD
330
1F
100
AcDbEntity
  8
0
  6
CONTINUOUS
 62
     7
100
AcDbCircle
 10
8.1101996684
 20
6.8874054352
 30
0.0
 40
0.9431008855911498
100
AcDbArc
 50
122.5503389866
 51
177.4550375461
  0
SPLINE
  5
1DE
330
1F
100
AcDbEntity
  8
0
  6
CONTINUOUS
 62
     7
100
AcDbSpline
210
0.0
220
0.0
230
1.0
 70
     8
 71
     3
 72
    11
 73
     7
 74
     0
 42
0.00000001
 43
0.00000001
 40
0.0
 40
0.0
 40
0.0
 40
0.0
 40
0.3301907726134433
 40
0.6261076169901748
 40
0.8868417192727311
 40
1.0
 40
1.0
 40
1.0
 40
1.0
 10
7.70492141032511
 20
7.585197324947682
 30
0.0
 10
7.705250831425962
 20
7.581985788964833
 30
0.0
 10
7.705875479591649
 20
7.57589607566005
 30
0.0
 10
7.710629264087783
 20
7.567908274079159
 30
0.0
 10
7.715625547941261
 20
7.562338531487121
 30
0.0
 10
7.719428734526116
 20
7.559820259370025
 30
0.0
 10
7.72057976641332
 20
7.559058105990809
 30
0.0
  0
SPLINE
  5
1DF
330
1F
100
AcDbEntity
  8
0
  6
CONTINUOUS
 62
     7
100
AcDbSpline
210
0.0
220
0.0
230
1.0
 70
     8
 71
     3
 72
    10
 73
     6
 74
     0
 42
0.00000001
 43
0.00000001
 40
0.0
 40
0.0
 40
0.0
 40
0.0
 40
0.1634645108554485
 40
0.559068686654331
 40
1.0
 40
1.0
 40
1.0
 40
1.0
 10
7.825759797320537
 20
7.56802714049426
 30
0.0
 10
7.826747535549304
 20
7.568889071828817
 30
0.0
 10
7.830125721501865
 20
7.57183698276481
 30
0.0
 10
7.833783705971288
 20
7.57765104883695
 30
0.0
 10
7.83447198746766
 20
7.582592380045262
 30
0.0
 10
7.834834775260987
 20
7.585196917076424
 30
0.0
  0
ARC
  5
1E0
330
1F
100
AcDbEntity
  8
0
  6
CONTINUOUS
 62
     7
100
AcDbCircle
 10
8.6854534332
 20
6.674526618
 30
0.0
 40
0.0698179248078599
100
AcDbArc
 50
0.9873678072
 51
18.9682010895
  0
POLYLINE
  5
1E1
330
1F
100
AcDbEntity
  8
0
  6
CONTINUOUS
 62
     7
100
AcDb2dPolyline
 66
     1
 10
0.0
 20
0.0
 30
0.0
  0
VERTEX
  5
3B8
330
1E1
100
AcDbEntity
  8
0
  6
CONTINUOUS
 62
     7
100
AcDbVertex
100
AcDb2dVertex
 10
8.7029443479
 20
6.6638287445
 30
0.0
  0
VERTEX
  5
3B9
330
1E1
100
AcDbEntity
  8
0
  6
CONTINUOUS
 62
     7
100
AcDbVertex
100
AcDb2dVertex
 10
8.7031060167
 20
6.663666997
 30
0.0
  0
VERTEX
  5
3BA
330
1E1
100
AcDbEntity
  8
0
  6
CONTINUOUS
 62
     7
100
AcDbVertex
100
AcDb2dVertex
 10
8.7096494622
 20
6.6578648876
 30
0.0
  0
VERTEX
  5
3BB
330
1E1
100
AcDbEntity
  8
0
  6
CONTINUOUS
 62
     7
100
AcDbVertex
100
AcDb2dVertex
 10
8.7163979572
 20
6.6532872728
 30
0.0
  0
VERTEX
  5
3BC
330
1E1
100
AcDbEntity
  8
0
  6
CONTINUOUS
 62
     7
100
AcDbVertex
100
AcDb2dVertex
 10
8.7231464523
 20
6.6500732411
 30
0.0
  0
VERTEX
  5
3BD
330
1E1
100
AcDbEntity
  8
0
  6
CONTINUOUS
 62
     7
100
AcDbVertex
100
AcDb2dVertex
 10
8.7296898977
 20
6.6483204492
 30
0.0
  0
VERTEX
  5
3BE
330
1E1
100
AcDbEntity
  8
0
  6
CONTINUOUS
 62
     7
100
AcDbVertex
100
AcDb2dVertex
 10
8.7358294743
 20
6.6480821548
 30
0.0
  0
VERTEX
  5
3BF
330
1E1
100
AcDbEntity
  8
0
  6
CONTINUOUS
 62
     7
100
AcDbVertex
100
AcDb2dVertex
 10
8.741378634
 20
6.6493655984
 30
0.0
  0
VERTEX
  5
3C0
330
1E1
100
AcDbEntity
  8
0
  6
CONTINUOUS
 62
     7
100
AcDbVertex
100
AcDb2dVertex
 10
8.7461687686
 20
6.6521317831
 30
0.0
  0
VERTEX
  5
3C1
330
1E1
100
AcDbEntity
  8
0
  6
CONTINUOUS
 62
     7
100
AcDbVertex
100
AcDb2dVertex
 10
8.750054332
 20
6.6562966599
 30
0.0
  0
VERTEX
  5
3C2
330
1E1
100
AcDbEntity
  8
0
  6
CONTINUOUS
 62
     7
100
AcDbVertex
100
AcDb2dVertex
 10
8.7529172636
 20
6.6617336811
 30
0.0
  0
VERTEX
  5
3C3
330
1E1
100
AcDbEntity
  8
0
  6
CONTINUOUS
 62
     7
100
AcDbVertex
100
AcDb2dVertex
 10
8.7546705745
 20
6.6682776455
 30
0.0
  0
VERTEX
  5
3C4
330
1E1
100
AcDbEntity
  8
0
  6
CONTINUOUS
 62
     7
100
AcDbVertex
100
AcDb2dVertex
 10
8.7552609913
 20
6.6757297182
 30
0.0
  0
SEQEND
  5
3C5
330
1E1
100
AcDbEntity
  8
0
  6
CONTINUOUS
 62
     7
  0
ARC
  5
1E2
330
1F
100
AcDbEntity
  8
0
  6
CONTINUOUS
 62
     7
100
AcDbCircle
 10
8.7435439077
 20
6.6792565219
 30
0.0
 40
0.0361414086116279
100
AcDbArc
 50
236.2437889267
 51
281.8821905502
  0
POLYLINE
  5
1E3
330
1F
100
AcDbEntity
  8
0
  6
CONTINUOUS
 62
     7
100
AcDb2dPolyline
 66
     1
 10
0.0
 20
0.0
 30
0.0
  0
VERTEX
  5
3C6
330
1E3
100
AcDbEntity
  8
0
  6
CONTINUOUS
 62
     7
100
AcDbVertex
100
AcDb2dVertex
 10
7.815811171
 20
7.5635433062
 30
0.0
  0
VERTEX
  5
3C7
330
1E3
100
AcDbEntity
  8
0
  6
CONTINUOUS
 62
     7
100
AcDbVertex
100
AcDb2dVertex
 10
7.8225846845
 20
7.5681403537
 30
0.0
  0
VERTEX
  5
3C8
330
1E3
100
AcDbEntity
  8
0
  6
CONTINUOUS
 62
     7
100
AcDbVertex
100
AcDb2dVertex
 10
7.8279930985
 20
7.5733051214
 30
0.0
  0
VERTEX
  5
3C9
330
1E3
100
AcDbEntity
  8
0
  6
CONTINUOUS
 62
     7
100
AcDbVertex
100
AcDb2dVertex
 10
7.8318963379
 20
7.5789038447
 30
0.0
  0
VERTEX
  5
3CA
330
1E3
100
AcDbEntity
  8
0
  6
CONTINUOUS
 62
     7
100
AcDbVertex
100
AcDb2dVertex
 10
7.8341933108
 20
7.5847915194
 30
0.0
  0
VERTEX
  5
3CB
330
1E3
100
AcDbEntity
  8
0
  6
CONTINUOUS
 62
     7
100
AcDbVertex
100
AcDb2dVertex
 10
7.8348245268
 20
7.5908156579
 30
0.0
  0
VERTEX
  5
3CC
330
1E3
100
AcDbEntity
  8
0
  6
CONTINUOUS
 62
     7
100
AcDbVertex
100
AcDb2dVertex
 10
7.8337736378
 20
7.5968202382
 30
0.0
  0
VERTEX
  5
3CD
330
1E3
100
AcDbEntity
  8
0
  6
CONTINUOUS
 62
     7
100
AcDbVertex
100
AcDb2dVertex
 10
7.8310678612
 20
7.6026497448
 30
0.0
  0
VERTEX
  5
3CE
330
1E3
100
AcDbEntity
  8
0
  6
CONTINUOUS
 62
     7
100
AcDbVertex
100
AcDb2dVertex
 10
7.8267772752
 20
7.6081531965
 30
0.0
  0
VERTEX
  5
3CF
330
1E3
100
AcDbEntity
  8
0
  6
CONTINUOUS
 62
     7
100
AcDbVertex
100
AcDb2dVertex
 10
7.8210130038
 20
7.6131880568
 30
0.0
  0
VERTEX
  5
3D0
330
1E3
100
AcDbEntity
  8
0
  6
CONTINUOUS
 62
     7
100
AcDbVertex
100
AcDb2dVertex
 10
7.8158186347
 20
7.616573382
 30
0.0
  0
SEQEND
  5
3D1
330
1E3
100
AcDbEntity
  8
0
  6
CONTINUOUS
 62
     7
  0
POLYLINE
  5
1E4
330
1F
100
AcDbEntity
  8
0
  6
CONTINUOUS
 62
     7
100
AcDb2dPolyline
 66
     1
 10
0.0
 20
0.0
 30
0.0
  0
VERTEX
  5
3D2
330
1E4
100
AcDbEntity
  8
0
  6
CONTINUOUS
 62
     7
100
AcDbVertex
100
AcDb2dVertex
 10
7.7239355033
 20
7.616573382
 30
0.0
  0
VERTEX
  5
3D3
330
1E4
100
AcDbEntity
  8
0
  6
CONTINUOUS
 62
     7
100
AcDbVertex
100
AcDb2dVertex
 10
7.7203957577
 20
7.6143579568
 30
0.0
  0
VERTEX
  5
3D4
330
1E4
100
AcDbEntity
  8
0
  6
CONTINUOUS
 62
     7
100
AcDbVertex
100
AcDb2dVertex
 10
7.7142849785
 20
7.6094611704
 30
0.0
  0
VERTEX
  5
3D5
330
1E4
100
AcDbEntity
  8
0
  6
CONTINUOUS
 62
     7
100
AcDbVertex
100
AcDb2dVertex
 10
7.7096140053
 20
7.6040619168
 30
0.0
  0
VERTEX
  5
3D6
330
1E4
100
AcDbEntity
  8
0
  6
CONTINUOUS
 62
     7
100
AcDbVertex
100
AcDb2dVertex
 10
7.7065038138
 20
7.5983000338
 30
0.0
  0
VERTEX
  5
3D7
330
1E4
100
AcDbEntity
  8
0
  6
CONTINUOUS
 62
     7
100
AcDbVertex
100
AcDb2dVertex
 10
7.7050349563
 20
7.5923247512
 30
0.0
  0
VERTEX
  5
3D8
330
1E4
100
AcDbEntity
  8
0
  6
CONTINUOUS
 62
     7
100
AcDbVertex
100
AcDb2dVertex
 10
7.7052454754
 20
7.5862908257
 30
0.0
  0
VERTEX
  5
3D9
330
1E4
100
AcDbEntity
  8
0
  6
CONTINUOUS
 62
     7
100
AcDbVertex
100
AcDb2dVertex
 10
7.7071299189
 20
7.5803545327
 30
0.0
  0
VERTEX
  5
3DA
330
1E4
100
AcDbEntity
  8
0
  6
CONTINUOUS
 62
     7
100
AcDbVertex
100
AcDb2dVertex
 10
7.7106394806
 20
7.5746696191
 30
0.0
  0
VERTEX
  5
3DB
330
1E4
100
AcDbEntity
  8
0
  6
CONTINUOUS
 62
     7
100
AcDbVertex
100
AcDb2dVertex
 10
7.7156832647
 20
7.5693833212
 30
0.0
  0
VERTEX
  5
3DC
330
1E4
100
AcDbEntity
  8
0
  6
CONTINUOUS
 62
     7
100
AcDbVertex
100
AcDb2dVertex
 10
7.7221306399
 20
7.5646325514
 30
0.0
  0
VERTEX
  5
3DD
330
1E4
100
AcDbEntity
  8
0
  6
CONTINUOUS
 62
     7
100
AcDbVertex
100
AcDb2dVertex
 10
7.7298146226
 20
7.560540352
 30
0.0
  0
VERTEX
  5
3DE
330
1E4
100
AcDbEntity
  8
0
  6
CONTINUOUS
 62
     7
100
AcDbVertex
100
AcDb2dVertex
 10
7.7385362015
 20
7.5572127089
 30
0.0
  0
VERTEX
  5
3DF
330
1E4
100
AcDbEntity
  8
0
  6
CONTINUOUS
 62
     7
100
AcDbVertex
100
AcDb2dVertex
 10
7.7480694925
 20
7.5547358064
 30
0.0
  0
VERTEX
  5
3E0
330
1E4
100
AcDbEntity
  8
0
  6
CONTINUOUS
 62
     7
100
AcDbVertex
100
AcDb2dVertex
 10
7.7581675882
 20
7.5531737948
 30
0.0
  0
VERTEX
  5
3E1
330
1E4
100
AcDbEntity
  8
0
  6
CONTINUOUS
 62
     7
100
AcDbVertex
100
AcDb2dVertex
 10
7.7685689534
 20
7.5525671295
 30
0.0
  0
VERTEX
  5
3E2
330
1E4
100
AcDbEntity
  8
0
  6
CONTINUOUS
 62
     7
100
AcDbVertex
100
AcDb2dVertex
 10
7.779004198
 20
7.5529315227
 30
0.0
  0
VERTEX
  5
3E3
330
1E4
100
AcDbEntity
  8
0
  6
CONTINUOUS
 62
     7
100
AcDbVertex
100
AcDb2dVertex
 10
7.7892030548
 20
7.5542575369
 30
0.0
  0
VERTEX
  5
3E4
330
1E4
100
AcDbEntity
  8
0
  6
CONTINUOUS
 62
     7
100
AcDbVertex
100
AcDb2dVertex
 10
7.7989013787
 20
7.5565108291
 30
0.0
  0
VERTEX
  5
3E5
330
1E4
100
AcDbEntity
  8
0
  6
CONTINUOUS
 62
     7
100
AcDbVertex
100
AcDb2dVertex
 10
7.8078479883
 20
7.55963304
 30
0.0
  0
VERTEX
  5
3E6
330
1E4
100
AcDbEntity
  8
0
  6
CONTINUOUS
 62
     7
100
AcDbVertex
100
AcDb2dVertex
 10
7.815811171
 20
7.5635433062
 30
0.0
  0
SEQEND
  5
3E7
330
1E4
100
AcDbEntity
  8
0
  6
CONTINUOUS
 62
     7
  0
POLYLINE
  5
1E5
330
1F
100
AcDbEntity
  8
0
  6
CONTINUOUS
 62
     7
100
AcDb2dPolyline
 66
     1
 10
0.0
 20
0.0
 30
0.0
  0
VERTEX
  5
3E8
330
1E5
100
AcDbEntity
  8
0
  6
CONTINUOUS
 62
     7
100
AcDbVertex
100
AcDb2dVertex
 10
7.8087401031
 20
7.5757907549
 30
0.0
  0
VERTEX
  5
3E9
330
1E5
100
AcDbEntity
  8
0
  6
CONTINUOUS
 62
     7
100
AcDbVertex
100
AcDb2dVertex
 10
7.8014011913
 20
7.572235772
 30
0.0
  0
VERTEX
  5
3EA
330
1E5
100
AcDbEntity
  8
0
  6
CONTINUOUS
 62
     7
100
AcDbVertex
100
AcDb2dVertex
 10
7.7931044349
 20
7.5694704862
 30
0.0
  0
VERTEX
  5
3EB
330
1E5
100
AcDbEntity
  8
0
  6
CONTINUOUS
 62
     7
100
AcDbVertex
100
AcDb2dVertex
 10
7.7841019268
 20
7.5675789193
 30
0.0
  0
VERTEX
  5
3EC
330
1E5
100
AcDbEntity
  8
0
  6
CONTINUOUS
 62
     7
100
AcDbVertex
100
AcDb2dVertex
 10
7.7746672036
 20
7.5666185456
 30
0.0
  0
VERTEX
  5
3ED
330
1E5
100
AcDbEntity
  8
0
  6
CONTINUOUS
 62
     7
100
AcDbVertex
100
AcDb2dVertex
 10
7.7650869345
 20
7.5666185456
 30
0.0
  0
VERTEX
  5
3EE
330
1E5
100
AcDbEntity
  8
0
  6
CONTINUOUS
 62
     7
100
AcDbVertex
100
AcDb2dVertex
 10
7.7556522113
 20
7.5675789193
 30
0.0
  0
VERTEX
  5
3EF
330
1E5
100
AcDbEntity
  8
0
  6
CONTINUOUS
 62
     7
100
AcDbVertex
100
AcDb2dVertex
 10
7.7466497032
 20
7.5694704862
 30
0.0
  0
VERTEX
  5
3F0
330
1E5
100
AcDbEntity
  8
0
  6
CONTINUOUS
 62
     7
100
AcDbVertex
100
AcDb2dVertex
 10
7.7383529468
 20
7.572235772
 30
0.0
  0
VERTEX
  5
3F1
330
1E5
100
AcDbEntity
  8
0
  6
CONTINUOUS
 62
     7
100
AcDbVertex
100
AcDb2dVertex
 10
7.7310140349
 20
7.5757907549
 30
0.0
  0
VERTEX
  5
3F2
330
1E5
100
AcDbEntity
  8
0
  6
CONTINUOUS
 62
     7
100
AcDbVertex
100
AcDb2dVertex
 10
7.7248559567
 20
7.5800274185
 30
0.0
  0
VERTEX
  5
3F3
330
1E5
100
AcDbEntity
  8
0
  6
CONTINUOUS
 62
     7
100
AcDbVertex
100
AcDb2dVertex
 10
7.7200658222
 20
7.584817034
 30
0.0
  0
VERTEX
  5
3F4
330
1E5
100
AcDbEntity
  8
0
  6
CONTINUOUS
 62
     7
100
AcDbVertex
100
AcDb2dVertex
 10
7.7167891772
 20
7.5900140713
 30
0.0
  0
VERTEX
  5
3F5
330
1E5
100
AcDbEntity
  8
0
  6
CONTINUOUS
 62
     7
100
AcDbVertex
100
AcDb2dVertex
 10
7.7151255809
 20
7.5954606211
 30
0.0
  0
VERTEX
  5
3F6
330
1E5
100
AcDbEntity
  8
0
  6
CONTINUOUS
 62
     7
100
AcDbVertex
100
AcDb2dVertex
 10
7.7151255809
 20
7.6009911927
 30
0.0
  0
VERTEX
  5
3F7
330
1E5
100
AcDbEntity
  8
0
  6
CONTINUOUS
 62
     7
100
AcDbVertex
100
AcDb2dVertex
 10
7.7167891772
 20
7.6064377425
 30
0.0
  0
VERTEX
  5
3F8
330
1E5
100
AcDbEntity
  8
0
  6
CONTINUOUS
 62
     7
100
AcDbVertex
100
AcDb2dVertex
 10
7.7200658222
 20
7.6116347798
 30
0.0
  0
VERTEX
  5
3F9
330
1E5
100
AcDbEntity
  8
0
  6
CONTINUOUS
 62
     7
100
AcDbVertex
100
AcDb2dVertex
 10
7.7248559567
 20
7.6164243953
 30
0.0
  0
VERTEX
  5
3FA
330
1E5
100
AcDbEntity
  8
0
  6
CONTINUOUS
 62
     7
100
AcDbVertex
100
AcDb2dVertex
 10
7.7310140349
 20
7.620661059
 30
0.0
  0
VERTEX
  5
3FB
330
1E5
100
AcDbEntity
  8
0
  6
CONTINUOUS
 62
     7
100
AcDbVertex
100
AcDb2dVertex
 10
7.7383529468
 20
7.6242160419
 30
0.0
  0
VERTEX
  5
3FC
330
1E5
100
AcDbEntity
  8
0
  6
CONTINUOUS
 62
     7
100
AcDbVertex
100
AcDb2dVertex
 10
7.7466497032
 20
7.6269813277
 30
0.0
  0
VERTEX
  5
3FD
330
1E5
100
AcDbEntity
  8
0
  6
CONTINUOUS
 62
     7
100
AcDbVertex
100
AcDb2dVertex
 10
7.7556522113
 20
7.6288728945
 30
0.0
  0
VERTEX
  5
3FE
330
1E5
100
AcDbEntity
  8
0
  6
CONTINUOUS
 62
     7
100
AcDbVertex
100
AcDb2dVertex
 10
7.7650869345
 20
7.6298332682
 30
0.0
  0
VERTEX
  5
3FF
330
1E5
100
AcDbEntity
  8
0
  6
CONTINUOUS
 62
     7
100
AcDbVertex
100
AcDb2dVertex
 10
7.7746672036
 20
7.6298332682
 30
0.0
  0
VERTEX
  5
400
330
1E5
100
AcDbEntity
  8
0
  6
CONTINUOUS
 62
     7
100
AcDbVertex
100
AcDb2dVertex
 10
7.7841019268
 20
7.6288728945
 30
0.0
  0
VERTEX
  5
401
330
1E5
100
AcDbEntity
  8
0
  6
CONTINUOUS
 62
     7
100
AcDbVertex
100
AcDb2dVertex
 10
7.7931044349
 20
7.6269813277
 30
0.0
  0
VERTEX
  5
402
330
1E5
100
AcDbEntity
  8
0
  6
CONTINUOUS
 62
     7
100
AcDbVertex
100
AcDb2dVertex
 10
7.8014011913
 20
7.6242160419
 30
0.0
  0
VERTEX
  5
403
330
1E5
100
AcDbEntity
  8
0
  6
CONTINUOUS
 62
     7
100
AcDbVertex
100
AcDb2dVertex
 10
7.8087401031
 20
7.620661059
 30
0.0
  0
VERTEX
  5
404
330
1E5
100
AcDbEntity
  8
0
  6
CONTINUOUS
 62
     7
100
AcDbVertex
100
AcDb2dVertex
 10
7.8148981814
 20
7.6164243953
 30
0.0
  0
VERTEX
  5
405
330
1E5
100
AcDbEntity
  8
0
  6
CONTINUOUS
 62
     7
100
AcDbVertex
100
AcDb2dVertex
 10
7.8196883159
 20
7.6116347798
 30
0.0
  0
VERTEX
  5
406
330
1E5
100
AcDbEntity
  8
0
  6
CONTINUOUS
 62
     7
100
AcDbVertex
100
AcDb2dVertex
 10
7.8229649609
 20
7.6064377425
 30
0.0
  0
VERTEX
  5
407
330
1E5
100
AcDbEntity
  8
0
  6
CONTINUOUS
 62
     7
100
AcDbVertex
100
AcDb2dVertex
 10
7.8246285572
 20
7.6009911927
 30
0.0
  0
VERTEX
  5
408
330
1E5
100
AcDbEntity
  8
0
  6
CONTINUOUS
 62
     7
100
AcDbVertex
100
AcDb2dVertex
 10
7.8246285572
 20
7.5954606211
 30
0.0
  0
VERTEX
  5
409
330
1E5
100
AcDbEntity
  8
0
  6
CONTINUOUS
 62
     7
100
AcDbVertex
100
AcDb2dVertex
 10
7.8229649609
 20
7.5900140713
 30
0.0
  0
VERTEX
  5
40A
330
1E5
100
AcDbEntity
  8
0
  6
CONTINUOUS
 62
     7
100
AcDbVertex
100
AcDb2dVertex
 10
7.8196883159
 20
7.584817034
 30
0.0
  0
VERTEX
  5
40B
330
1E5
100
AcDbEntity
  8
0
  6
CONTINUOUS
 62
     7
100
AcDbVertex
100
AcDb2dVertex
 10
7.8148981814
 20
7.5800274185
 30
0.0
  0
VERTEX
  5
40C
330
1E5
100
AcDbEntity
  8
0
  6
CONTINUOUS
 62
     7
100
AcDbVertex
100
AcDb2dVertex
 10
7.8087401031
 20
7.5757907549
 30
0.0
  0
SEQEND
  5
40D
330
1E5
100
AcDbEntity
  8
0
  6
CONTINUOUS
 62
     7
  0
LINE
  5
1E6
330
1F
100
AcDbEntity
  8
0
  6
CONTINUOUS
 62
     7
100
AcDbLine
 10
7.7293084318
 20
7.6045012169
 30
0.0
 11
7.7590067355
 21
7.6216456827
 31
0.0
  0
LINE
  5
1E7
330
1F
100
AcDbEntity
  8
0
  6
CONTINUOUS
 62
     7
100
AcDbLine
 10
7.7401787654
 20
7.5810814412
 30
0.0
 11
7.7293084318
 21
7.6045012169
 31
0.0
  0
LINE
  5
1E8
330
1F
100
AcDbEntity
  8
0
  6
CONTINUOUS
 62
     7
100
AcDbLine
 10
7.7807474026
 20
7.5748061312
 30
0.0
 11
7.7401787654
 21
7.5810814412
 31
0.0
  0
LINE
  5
1E9
330
1F
100
AcDbEntity
  8
0
  6
CONTINUOUS
 62
     7
100
AcDbLine
 10
7.8104457062
 20
7.5919505969
 30
0.0
 11
7.7807474026
 21
7.5748061312
 31
0.0
  0
LINE
  5
1EA
330
1F
100
AcDbEntity
  8
0
  6
CONTINUOUS
 62
     7
100
AcDbLine
 10
7.7995753727
 20
7.6153703727
 30
0.0
 11
7.8104457062
 21
7.5919505969
 31
0.0
  0
LINE
  5
1EB
330
1F
100
AcDbEntity
  8
0
  6
CONTINUOUS
 62
     7
100
AcDbLine
 10
7.7590067355
 20
7.6216456827
 30
0.0
 11
7.7995753727
 21
7.6153703727
 31
0.0
  0
LINE
  5
1EC
330
1F
100
AcDbEntity
  8
0
  6
CONTINUOUS
 62
     7
100
AcDbLine
 10
7.7553869464
 20
7.5787289823
 30
0.0
 11
7.7590067355
 21
7.5808186421
 31
0.0
  0
LINE
  5
1ED
330
1F
100
AcDbEntity
  8
0
  6
CONTINUOUS
 62
     7
100
AcDbLine
 10
7.7590067355
 20
7.5808186421
 30
0.0
 11
7.7843671917
 21
7.5768957909
 31
0.0
  0
LINE
  5
1EE
330
1F
100
AcDbEntity
  8
0
  6
CONTINUOUS
 62
     7
100
AcDbLine
 10
7.7995753727
 20
7.5856752869
 30
0.0
 11
7.7995753727
 21
7.6153703727
 31
0.0
  0
LINE
  5
1EF
330
1F
100
AcDbEntity
  8
0
  6
CONTINUOUS
 62
     7
100
AcDbLine
 10
7.7590067355
 20
7.5808186421
 30
0.0
 11
7.7590067355
 21
7.6216456827
 31
0.0
  0
POLYLINE
  5
1F0
330
1F
100
AcDbEntity
  8
0
  6
CONTINUOUS
 62
     7
100
AcDb2dPolyline
 66
     1
 10
0.0
 20
0.0
 30
0.0
  0
VERTEX
  5
40E
330
1F0
100
AcDbEntity
  8
0
  6
CONTINUOUS
 62
     7
100
AcDbVertex
100
AcDb2dVertex
 10
8.6231452747
 20
7.1505136331
 30
0.0
  0
VERTEX
  5
40F
330
1F0
100
AcDbEntity
  8
0
  6
CONTINUOUS
 62
     7
100
AcDbVertex
100
AcDb2dVertex
 10
8.6249501381
 20
7.1494286973
 30
0.0
  0
VERTEX
  5
410
330
1F0
100
AcDbEntity
  8
0
  6
CONTINUOUS
 62
     7
100
AcDbVertex
100
AcDb2dVertex
 10
8.6313975133
 20
7.1446779275
 30
0.0
  0
VERTEX
  5
411
330
1F0
100
AcDbEntity
  8
0
  6
CONTINUOUS
 62
     7
100
AcDbVertex
100
AcDb2dVertex
 10
8.6364412974
 20
7.1393916296
 30
0.0
  0
VERTEX
  5
412
330
1F0
100
AcDbEntity
  8
0
  6
CONTINUOUS
 62
     7
100
AcDbVertex
100
AcDb2dVertex
 10
8.6399508591
 20
7.133706716
 30
0.0
  0
VERTEX
  5
413
330
1F0
100
AcDbEntity
  8
0
  6
CONTINUOUS
 62
     7
100
AcDbVertex
100
AcDb2dVertex
 10
8.6418353026
 20
7.127770423
 30
0.0
  0
VERTEX
  5
414
330
1F0
100
AcDbEntity
  8
0
  6
CONTINUOUS
 62
     7
100
AcDbVertex
100
AcDb2dVertex
 10
8.6420458217
 20
7.1217364975
 30
0.0
  0
VERTEX
  5
415
330
1F0
100
AcDbEntity
  8
0
  6
CONTINUOUS
 62
     7
100
AcDbVertex
100
AcDb2dVertex
 10
8.6405769642
 20
7.1157612149
 30
0.0
  0
VERTEX
  5
416
330
1F0
100
AcDbEntity
  8
0
  6
CONTINUOUS
 62
     7
100
AcDbVertex
100
AcDb2dVertex
 10
8.6374667727
 20
7.1099993319
 30
0.0
  0
VERTEX
  5
417
330
1F0
100
AcDbEntity
  8
0
  6
CONTINUOUS
 62
     7
100
AcDbVertex
100
AcDb2dVertex
 10
8.6327957995
 20
7.1046000783
 30
0.0
  0
VERTEX
  5
418
330
1F0
100
AcDbEntity
  8
0
  6
CONTINUOUS
 62
     7
100
AcDbVertex
100
AcDb2dVertex
 10
8.6266850203
 20
7.0997032919
 30
0.0
  0
VERTEX
  5
419
330
1F0
100
AcDbEntity
  8
0
  6
CONTINUOUS
 62
     7
100
AcDbVertex
100
AcDb2dVertex
 10
8.6192927012
 20
7.0954357969
 30
0.0
  0
VERTEX
  5
41A
330
1F0
100
AcDbEntity
  8
0
  6
CONTINUOUS
 62
     7
100
AcDbVertex
100
AcDb2dVertex
 10
8.6108102993
 20
7.0919081192
 30
0.0
  0
VERTEX
  5
41B
330
1F0
100
AcDbEntity
  8
0
  6
CONTINUOUS
 62
     7
100
AcDbVertex
100
AcDb2dVertex
 10
8.6014575043
 20
7.0892116237
 30
0.0
  0
VERTEX
  5
41C
330
1F0
100
AcDbEntity
  8
0
  6
CONTINUOUS
 62
     7
100
AcDbVertex
100
AcDb2dVertex
 10
8.5914765488
 20
7.0874161484
 30
0.0
  0
VERTEX
  5
41D
330
1F0
100
AcDbEntity
  8
0
  6
CONTINUOUS
 62
     7
100
AcDbVertex
100
AcDb2dVertex
 10
8.5811259342
 20
7.086568195
 30
0.0
  0
VERTEX
  5
41E
330
1F0
100
AcDbEntity
  8
0
  6
CONTINUOUS
 62
     7
100
AcDbVertex
100
AcDb2dVertex
 10
8.570673736
 20
7.0866897251
 30
0.0
  0
VERTEX
  5
41F
330
1F0
100
AcDbEntity
  8
0
  6
CONTINUOUS
 62
     7
100
AcDbVertex
100
AcDb2dVertex
 10
8.5603906608
 20
7.0877775912
 30
0.0
  0
VERTEX
  5
420
330
1F0
100
AcDbEntity
  8
0
  6
CONTINUOUS
 62
     7
100
AcDbVertex
100
AcDb2dVertex
 10
8.5505430346
 20
7.089803618
 30
0.0
  0
VERTEX
  5
421
330
1F0
100
AcDbEntity
  8
0
  6
CONTINUOUS
 62
     7
100
AcDbVertex
100
AcDb2dVertex
 10
8.5413859059
 20
7.0927153326
 30
0.0
  0
VERTEX
  5
422
330
1F0
100
AcDbEntity
  8
0
  6
CONTINUOUS
 62
     7
100
AcDbVertex
100
AcDb2dVertex
 10
8.5331564395
 20
7.0964373231
 30
0.0
  0
VERTEX
  5
423
330
1F0
100
AcDbEntity
  8
0
  6
CONTINUOUS
 62
     7
100
AcDbVertex
100
AcDb2dVertex
 10
8.5260677742
 20
7.1008731919
 30
0.0
  0
VERTEX
  5
424
330
1F0
100
AcDbEntity
  8
0
  6
CONTINUOUS
 62
     7
100
AcDbVertex
100
AcDb2dVertex
 10
8.5203035028
 20
7.1059080522
 30
0.0
  0
VERTEX
  5
425
330
1F0
100
AcDbEntity
  8
0
  6
CONTINUOUS
 62
     7
100
AcDbVertex
100
AcDb2dVertex
 10
8.5160129168
 20
7.1114115039
 30
0.0
  0
VERTEX
  5
426
330
1F0
100
AcDbEntity
  8
0
  6
CONTINUOUS
 62
     7
100
AcDbVertex
100
AcDb2dVertex
 10
8.5133071402
 20
7.1172410105
 30
0.0
  0
VERTEX
  5
427
330
1F0
100
AcDbEntity
  8
0
  6
CONTINUOUS
 62
     7
100
AcDbVertex
100
AcDb2dVertex
 10
8.5122562512
 20
7.1232455908
 30
0.0
  0
VERTEX
  5
428
330
1F0
100
AcDbEntity
  8
0
  6
CONTINUOUS
 62
     7
100
AcDbVertex
100
AcDb2dVertex
 10
8.5128874672
 20
7.1292697293
 30
0.0
  0
VERTEX
  5
429
330
1F0
100
AcDbEntity
  8
0
  6
CONTINUOUS
 62
     7
100
AcDbVertex
100
AcDb2dVertex
 10
8.5151844401
 20
7.135157404
 30
0.0
  0
VERTEX
  5
42A
330
1F0
100
AcDbEntity
  8
0
  6
CONTINUOUS
 62
     7
100
AcDbVertex
100
AcDb2dVertex
 10
8.5190876795
 20
7.1407561273
 30
0.0
  0
VERTEX
  5
42B
330
1F0
100
AcDbEntity
  8
0
  6
CONTINUOUS
 62
     7
100
AcDbVertex
100
AcDb2dVertex
 10
8.5244960935
 20
7.145920895
 30
0.0
  0
VERTEX
  5
42C
330
1F0
100
AcDbEntity
  8
0
  6
CONTINUOUS
 62
     7
100
AcDbVertex
100
AcDb2dVertex
 10
8.531269607
 20
7.1505179425
 30
0.0
  0
VERTEX
  5
42D
330
1F0
100
AcDbEntity
  8
0
  6
CONTINUOUS
 62
     7
100
AcDbVertex
100
AcDb2dVertex
 10
8.531269607
 20
7.1505179425
 30
0.0
  0
SEQEND
  5
42E
330
1F0
100
AcDbEntity
  8
0
  6
CONTINUOUS
 62
     7
  0
POLYLINE
  5
1F1
330
1F
100
AcDbEntity
  8
0
  6
CONTINUOUS
 62
     7
100
AcDb2dPolyline
 66
     1
 10
0.0
 20
0.0
 30
0.0
  0
VERTEX
  5
42F
330
1F1
100
AcDbEntity
  8
0
  6
CONTINUOUS
 62
     7
100
AcDbVertex
100
AcDb2dVertex
 10
8.5383406749
 20
7.1546013101
 30
0.0
  0
VERTEX
  5
430
330
1F1
100
AcDbEntity
  8
0
  6
CONTINUOUS
 62
     7
100
AcDbVertex
100
AcDb2dVertex
 10
8.5321825966
 20
7.1503646464
 30
0.0
  0
VERTEX
  5
431
330
1F1
100
AcDbEntity
  8
0
  6
CONTINUOUS
 62
     7
100
AcDbVertex
100
AcDb2dVertex
 10
8.5273924621
 20
7.1455750309
 30
0.0
  0
VERTEX
  5
432
330
1F1
100
AcDbEntity
  8
0
  6
CONTINUOUS
 62
     7
100
AcDbVertex
100
AcDb2dVertex
 10
8.5241158171
 20
7.1403779936
 30
0.0
  0
VERTEX
  5
433
330
1F1
100
AcDbEntity
  8
0
  6
CONTINUOUS
 62
     7
100
AcDbVertex
100
AcDb2dVertex
 10
8.5224522208
 20
7.1349314438
 30
0.0
  0
VERTEX
  5
434
330
1F1
100
AcDbEntity
  8
0
  6
CONTINUOUS
 62
     7
100
AcDbVertex
100
AcDb2dVertex
 10
8.5224522208
 20
7.1294008722
 30
0.0
  0
VERTEX
  5
435
330
1F1
100
AcDbEntity
  8
0
  6
CONTINUOUS
 62
     7
100
AcDbVertex
100
AcDb2dVertex
 10
8.5241158171
 20
7.1239543224
 30
0.0
  0
VERTEX
  5
436
330
1F1
100
AcDbEntity
  8
0
  6
CONTINUOUS
 62
     7
100
AcDbVertex
100
AcDb2dVertex
 10
8.5273924621
 20
7.1187572851
 30
0.0
  0
VERTEX
  5
437
330
1F1
100
AcDbEntity
  8
0
  6
CONTINUOUS
 62
     7
100
AcDbVertex
100
AcDb2dVertex
 10
8.5321825966
 20
7.1139676696
 30
0.0
  0
VERTEX
  5
438
330
1F1
100
AcDbEntity
  8
0
  6
CONTINUOUS
 62
     7
100
AcDbVertex
100
AcDb2dVertex
 10
8.5383406749
 20
7.109731006
 30
0.0
  0
VERTEX
  5
439
330
1F1
100
AcDbEntity
  8
0
  6
CONTINUOUS
 62
     7
100
AcDbVertex
100
AcDb2dVertex
 10
8.5456795867
 20
7.1061760231
 30
0.0
  0
VERTEX
  5
43A
330
1F1
100
AcDbEntity
  8
0
  6
CONTINUOUS
 62
     7
100
AcDbVertex
100
AcDb2dVertex
 10
8.5539763431
 20
7.1034107373
 30
0.0
  0
VERTEX
  5
43B
330
1F1
100
AcDbEntity
  8
0
  6
CONTINUOUS
 62
     7
100
AcDbVertex
100
AcDb2dVertex
 10
8.5629788512
 20
7.1015191704
 30
0.0
  0
VERTEX
  5
43C
330
1F1
100
AcDbEntity
  8
0
  6
CONTINUOUS
 62
     7
100
AcDbVertex
100
AcDb2dVertex
 10
8.5724135744
 20
7.1005587967
 30
0.0
  0
VERTEX
  5
43D
330
1F1
100
AcDbEntity
  8
0
  6
CONTINUOUS
 62
     7
100
AcDbVertex
100
AcDb2dVertex
 10
8.5819938435
 20
7.1005587967
 30
0.0
  0
VERTEX
  5
43E
330
1F1
100
AcDbEntity
  8
0
  6
CONTINUOUS
 62
     7
100
AcDbVertex
100
AcDb2dVertex
 10
8.5914285667
 20
7.1015191704
 30
0.0
  0
VERTEX
  5
43F
330
1F1
100
AcDbEntity
  8
0
  6
CONTINUOUS
 62
     7
100
AcDbVertex
100
AcDb2dVertex
 10
8.6004310749
 20
7.1034107373
 30
0.0
  0
VERTEX
  5
440
330
1F1
100
AcDbEntity
  8
0
  6
CONTINUOUS
 62
     7
100
AcDbVertex
100
AcDb2dVertex
 10
8.6087278312
 20
7.1061760231
 30
0.0
  0
VERTEX
  5
441
330
1F1
100
AcDbEntity
  8
0
  6
CONTINUOUS
 62
     7
100
AcDbVertex
100
AcDb2dVertex
 10
8.6160667431
 20
7.109731006
 30
0.0
  0
VERTEX
  5
442
330
1F1
100
AcDbEntity
  8
0
  6
CONTINUOUS
 62
     7
100
AcDbVertex
100
AcDb2dVertex
 10
8.6222248213
 20
7.1139676696
 30
0.0
  0
VERTEX
  5
443
330
1F1
100
AcDbEntity
  8
0
  6
CONTINUOUS
 62
     7
100
AcDbVertex
100
AcDb2dVertex
 10
8.6270149558
 20
7.1187572851
 30
0.0
  0
VERTEX
  5
444
330
1F1
100
AcDbEntity
  8
0
  6
CONTINUOUS
 62
     7
100
AcDbVertex
100
AcDb2dVertex
 10
8.6302916008
 20
7.1239543224
 30
0.0
  0
VERTEX
  5
445
330
1F1
100
AcDbEntity
  8
0
  6
CONTINUOUS
 62
     7
100
AcDbVertex
100
AcDb2dVertex
 10
8.6319551971
 20
7.1294008722
 30
0.0
  0
VERTEX
  5
446
330
1F1
100
AcDbEntity
  8
0
  6
CONTINUOUS
 62
     7
100
AcDbVertex
100
AcDb2dVertex
 10
8.6319551971
 20
7.1349314438
 30
0.0
  0
VERTEX
  5
447
330
1F1
100
AcDbEntity
  8
0
  6
CONTINUOUS
 62
     7
100
AcDbVertex
100
AcDb2dVertex
 10
8.6302916008
 20
7.1403779936
 30
0.0
  0
VERTEX
  5
448
330
1F1
100
AcDbEntity
  8
0
  6
CONTINUOUS
 62
     7
100
AcDbVertex
100
AcDb2dVertex
 10
8.6270149558
 20
7.1455750309
 30
0.0
  0
VERTEX
  5
449
330
1F1
100
AcDbEntity
  8
0
  6
CONTINUOUS
 62
     7
100
AcDbVertex
100
AcDb2dVertex
 10
8.6222248213
 20
7.1503646464
 30
0.0
  0
VERTEX
  5
44A
330
1F1
100
AcDbEntity
  8
0
  6
CONTINUOUS
 62
     7
100
AcDbVertex
100
AcDb2dVertex
 10
8.6160667431
 20
7.1546013101
 30
0.0
  0
VERTEX
  5
44B
330
1F1
100
AcDbEntity
  8
0
  6
CONTINUOUS
 62
     7
100
AcDbVertex
100
AcDb2dVertex
 10
8.6087278312
 20
7.158156293
 30
0.0
  0
VERTEX
  5
44C
330
1F1
100
AcDbEntity
  8
0
  6
CONTINUOUS
 62
     7
100
AcDbVertex
100
AcDb2dVertex
 10
8.6004310749
 20
7.1609215788
 30
0.0
  0
VERTEX
  5
44D
330
1F1
100
AcDbEntity
  8
0
  6
CONTINUOUS
 62
     7
100
AcDbVertex
100
AcDb2dVertex
 10
8.5914285667
 20
7.1628131457
 30
0.0
  0
VERTEX
  5
44E
330
1F1
100
AcDbEntity
  8
0
  6
CONTINUOUS
 62
     7
100
AcDbVertex
100
AcDb2dVertex
 10
8.5819938435
 20
7.1637735194
 30
0.0
  0
VERTEX
  5
44F
330
1F1
100
AcDbEntity
  8
0
  6
CONTINUOUS
 62
     7
100
AcDbVertex
100
AcDb2dVertex
 10
8.5724135744
 20
7.1637735194
 30
0.0
  0
VERTEX
  5
450
330
1F1
100
AcDbEntity
  8
0
  6
CONTINUOUS
 62
     7
100
AcDbVertex
100
AcDb2dVertex
 10
8.5629788512
 20
7.1628131457
 30
0.0
  0
VERTEX
  5
451
330
1F1
100
AcDbEntity
  8
0
  6
CONTINUOUS
 62
     7
100
AcDbVertex
100
AcDb2dVertex
 10
8.5539763431
 20
7.1609215788
 30
0.0
  0
VERTEX
  5
452
330
1F1
100
AcDbEntity
  8
0
  6
CONTINUOUS
 62
     7
100
AcDbVertex
100
AcDb2dVertex
 10
8.5456795867
 20
7.158156293
 30
0.0
  0
VERTEX
  5
453
330
1F1
100
AcDbEntity
  8
0
  6
CONTINUOUS
 62
     7
100
AcDbVertex
100
AcDb2dVertex
 10
8.5383406749
 20
7.1546013101
 30
0.0
  0
SEQEND
  5
454
330
1F1
100
AcDbEntity
  8
0
  6
CONTINUOUS
 62
     7
  0
LINE
  5
1F2
330
1F
100
AcDbEntity
  8
0
  6
CONTINUOUS
 62
     7
100
AcDbLine
 10
8.6069020126
 20
7.1493106238
 30
0.0
 11
8.5663333754
 21
7.1555859338
 31
0.0
  0
LINE
  5
1F3
330
1F
100
AcDbEntity
  8
0
  6
CONTINUOUS
 62
     7
100
AcDbLine
 10
8.5663333754
 20
7.1555859338
 30
0.0
 11
8.5366350718
 21
7.138441468
 31
0.0
  0
LINE
  5
1F4
330
1F
100
AcDbEntity
  8
0
  6
CONTINUOUS
 62
     7
100
AcDbLine
 10
8.5366350718
 20
7.138441468
 30
0.0
 11
8.5475054053
 21
7.1150216923
 31
0.0
  0
LINE
  5
1F5
330
1F
100
AcDbEntity
  8
0
  6
CONTINUOUS
 62
     7
100
AcDbLine
 10
8.5475054053
 20
7.1150216923
 30
0.0
 11
8.5880740425
 21
7.1087463823
 31
0.0
  0
LINE
  5
1F6
330
1F
100
AcDbEntity
  8
0
  6
CONTINUOUS
 62
     7
100
AcDbLine
 10
8.5880740425
 20
7.1087463823
 30
0.0
 11
8.6177723462
 21
7.125890848
 31
0.0
  0
LINE
  5
1F7
330
1F
100
AcDbEntity
  8
0
  6
CONTINUOUS
 62
     7
100
AcDbLine
 10
8.6177723462
 20
7.125890848
 30
0.0
 11
8.6069020126
 21
7.1493106238
 31
0.0
  0
LINE
  5
1F8
330
1F
100
AcDbEntity
  8
0
  6
CONTINUOUS
 62
     7
100
AcDbLine
 10
8.5663333754
 20
7.1147588932
 30
0.0
 11
8.5627135863
 21
7.1126692334
 31
0.0
  0
LINE
  5
1F9
330
1F
100
AcDbEntity
  8
0
  6
CONTINUOUS
 62
     7
100
AcDbLine
 10
8.5916938316
 20
7.110836042
 30
0.0
 11
8.5663333754
 21
7.1147588932
 31
0.0
  0
LINE
  5
1FA
330
1F
100
AcDbEntity
  8
0
  6
CONTINUOUS
 62
     7
100
AcDbLine
 10
8.6069020126
 20
7.119615538
 30
0.0
 11
8.6069020126
 21
7.1493106238
 31
0.0
  0
LINE
  5
1FB
330
1F
100
AcDbEntity
  8
0
  6
CONTINUOUS
 62
     7
100
AcDbLine
 10
8.5663333754
 20
7.1147588932
 30
0.0
 11
8.5663333754
 21
7.1555859338
 31
0.0
  0
ENDSEC
  0
SECTION
  2
OBJECTS
  0
DICTIONARY
  5
C
330
0
100
AcDbDictionary
  3
ACAD_GROUP
350
D
  3
ACAD_LAYOUT
350
1A
  3
ACAD_MLEADERSTYLE
350
1FE
  3
ACAD_MLINESTYLE
350
17
  3
ACAD_PLOTSETTINGS
350
19
  3
ACAD_SCALELIST
350
6F
  3
ACAD_VISUALSTYLE
350
2A
  3
ACDBVARIABLEDICTIONARY
350
1FC
1001
ACAD
1000
TREAT_AS_HARD
1070
     0
  0
DICTIONARY
  5
D
102
{ACAD_REACTORS
330
C
102
}
330
C
100
AcDbDictionary
1001
ACAD
1000
TREAT_AS_HARD
1070
     0
  0
DICTIONARY
  5
1A
102
{ACAD_REACTORS
330
C
102
}
330
C
100
AcDbDictionary
1001
ACAD
1000
TREAT_AS_HARD
1070
     0
  0
DICTIONARY
  5
1FE
102
{ACAD_REACTORS
330
C
102
}
330
C
100
AcDbDictionary
1001
ACAD
1000
TREAT_AS_HARD
1070
     0
  0
DICTIONARY
  5
17
102
{ACAD_REACTORS
330
C
102
}
330
C
100
AcDbDictionary
  3
STANDARD
350
18
1001
ACAD
1000
TREAT_AS_HARD
1070
     0
  0
DICTIONARY
  5
19
102
{ACAD_REACTORS
330
C
102
}
330
C
100
AcDbDictionary
1001
ACAD
1000
TREAT_AS_HARD
1070
     0
  0
DICTIONARY
  5
6F
102
{ACAD_REACTORS
330
C
102
}
330
C
100
AcDbDictionary
  3
A0
350
70
  3
A1
350
71
  3
A2
350
72
  3
A3
350
73
  3
A4
350
74
  3
A5
350
75
  3
A6
350
76
  3
A7
350
77
  3
A8
350
78
  3
A9
350
79
  3
B0
350
7A
  3
B1
350
7B
  3
B2
350
7C
  3
B3
350
7D
  3
B4
350
7E
  3
B5
350
7F
  3
B6
350
80
  3
B7
350
81
  3
B8
350
82
  3
B9
350
83
  3
C0
350
84
  3
C1
350
85
  3
C2
350
86
  3
C3
350
87
  3
C4
350
88
  3
C5
350
89
  3
C6
350
8A
  3
C7
350
8B
  3
C8
350
8C
  3
C9
350
8D
  3
D0
350
8E
  3
D1
350
8F
  3
D2
350
90
1001
ACAD
1000
TREAT_AS_HARD
1070
     0
  0
DICTIONARY
  5
2A
102
{ACAD_REACTORS
330
C
102
}
330
C
100
AcDbDictionary
  3
2DWIREFRAME
350
2F
  3
3D_HIDDEN
350
31
  3
3DWIREFRAME
350
30
  3
BASIC
350
32
  3
BRIGHTEN
350
36
  3
COLORCHANGE
350
3A
  3
CONCEPTUAL
350
34
  3
DIM
350
35
  3
FACEPATTERN
350
39
  3
FLAT
350
2B
  3
FLATWITHEDGES
350
2C
  3
GOURAUD
350
2D
  3
GOURAUDWITHEDGES
350
2E
  3
LINEPATTERN
350
38
  3
REALISTIC
350
33
  3
THICKEN
350
37
1001
ACAD
1000
TREAT_AS_HARD
1070
     0
  0
DICTIONARY
  5
1FC
102
{ACAD_REACTORS
330
C
102
}
330
C
100
AcDbDictionary
  3
CANNOSCALE
350
1FF
  3
DIMASSOC
350
200
  3
HIDETEXT
350
201
1001
ACAD
1000
TREAT_AS_HARD
1070
     0
  0
MLINESTYLE
  5
18
102
{ACAD_REACTORS
330
17
102
}
330
17
100
AcDbMlineStyle
  2
Standard
 70
     0
  3

 62
   256
 51
90.0
 52
90.0
 71
     2
 49
0.5
 62
   256
  6
BYLAYER
 49
-0.5
 62
   256
  6
BYLAYER
  0
ACAD_PROXY_OBJECT
  5
70
102
{ACAD_REACTORS
330
6F
102
}
330
6F
100
AcDbZombieObject
 90
      499
 91
      502
 93
       41
310
903313A31580
  0
ACAD_PROXY_OBJECT
  5
71
102
{ACAD_REACTORS
330
6F
102
}
330
6F
100
AcDbZombieObject
 90
      499
 91
      502
 93
      105
310
903313A324000000000000004000
  0
ACAD_PROXY_OBJECT
  5
72
102
{ACAD_REACTORS
330
6F
102
}
330
6F
100
AcDbZombieObject
 90
      499
 91
      502
 93
      105
310
903313A344000000000000104000
  0
ACAD_PROXY_OBJECT
  5
73
102
{ACAD_REACTORS
330
6F
102
}
330
6F
100
AcDbZombieObject
 90
      499
 91
      502
 93
      105
310
903313A354000000000000144000
  0
ACAD_PROXY_OBJECT
  5
74
102
{ACAD_REACTORS
330
6F
102
}
330
6F
100
AcDbZombieObject
 90
      499
 91
      502
 93
      105
310
903313A384000000000000204000
  0
ACAD_PROXY_OBJECT
  5
75
102
{ACAD_REACTORS
330
6F
102
}
330
6F
100
AcDbZombieObject
 90
      499
 91
      502
 93
      113
310
904313A31304000000000000244000
  0
ACAD_PROXY_OBJECT
  5
76
102
{ACAD_REACTORS
330
6F
102
}
330
6F
100
AcDbZombieObject
 90
      499
 91
      502
 93
      113
310
904313A31364000000000000304000
  0
ACAD_PROXY_OBJECT
  5
77
102
{ACAD_REACTORS
330
6F
102
}
330
6F
100
AcDbZombieObject
 90
      499
 91
      502
 93
      113
310
904313A32304000000000000344000
  0
ACAD_PROXY_OBJECT
  5
78
102
{ACAD_REACTORS
330
6F
102
}
330
6F
100
AcDbZombieObject
 90
      499
 91
      502
 93
      113
310
904313A333040000000000003E4000
  0
ACAD_PROXY_OBJECT
  5
79
102
{ACAD_REACTORS
330
6F
102
}
330
6F
100
AcDbZombieObject
 90
      499
 91
      502
 93
      113
310
904313A34304000000000000444000
  0
ACAD_PROXY_OBJECT
  5
7A
102
{ACAD_REACTORS
330
6F
102
}
330
6F
100
AcDbZombieObject
 90
      499
 91
      502
 93
      113
310
904313A35304000000000000494000
  0
ACAD_PROXY_OBJECT
  5
7B
102
{ACAD_REACTORS
330
6F
102
}
330
6F
100
AcDbZombieObject
 90
      499
 91
      502
 93
      121
310
905313A3130304000000000000594000
  0
ACAD_PROXY_OBJECT
  5
7C
102
{ACAD_REACTORS
330
6F
102
}
330
6F
100
AcDbZombieObject
 90
      499
 91
      502
 93
      105
310
903323A310000000000000010100
  0
ACAD_PROXY_OBJECT
  5
7D
102
{ACAD_REACTORS
330
6F
102
}
330
6F
100
AcDbZombieObject
 90
      499
 91
      502
 93
      105
310
903343A310000000000000410100
  0
ACAD_PROXY_OBJECT
  5
7E
102
{ACAD_REACTORS
330
6F
102
}
330
6F
100
AcDbZombieObject
 90
      499
 91
      502
 93
      105
310
903383A310000000000000810100
  0
ACAD_PROXY_OBJECT
  5
7F
102
{ACAD_REACTORS
330
6F
102
}
330
6F
100
AcDbZombieObject
 90
      499
 91
      502
 93
      113
310
90431303A310000000000000910100
  0
ACAD_PROXY_OBJECT
  5
80
102
{ACAD_REACTORS
330
6F
102
}
330
6F
100
AcDbZombieObject
 90
      499
 91
      502
 93
      121
310
9053130303A310000000000001650100
  0
ACAD_PROXY_OBJECT
  5
81
102
{ACAD_REACTORS
330
6F
102
}
330
6F
100
AcDbZombieObject
 90
      499
 91
      502
 93
      257
310
90E312F31323822203D2031272D3022000000000000200FC000000000000284000
  0
ACAD_PROXY_OBJECT
  5
82
102
{ACAD_REACTORS
330
6F
102
}
330
6F
100
AcDbZombieObject
 90
      499
 91
      502
 93
      249
310
90D312F363422203D2031272D3022000000000000240FC000000000000284000
  0
ACAD_PROXY_OBJECT
  5
83
102
{ACAD_REACTORS
330
6F
102
}
330
6F
100
AcDbZombieObject
 90
      499
 91
      502
 93
      249
310
90D312F333222203D2031272D3022000000000000280FC000000000000284000
  0
ACAD_PROXY_OBJECT
  5
84
102
{ACAD_REACTORS
330
6F
102
}
330
6F
100
AcDbZombieObject
 90
      499
 91
      502
 93
      249
310
90D312F313622203D2031272D30220000000000002C0FC000000000000284000
  0
ACAD_PROXY_OBJECT
  5
85
102
{ACAD_REACTORS
330
6F
102
}
330
6F
100
AcDbZombieObject
 90
      499
 91
      502
 93
      249
310
90D332F333222203D2031272D30220000000000002E0FC000000000000284000
  0
ACAD_PROXY_OBJECT
  5
86
102
{ACAD_REACTORS
330
6F
102
}
330
6F
100
AcDbZombieObject
 90
      499
 91
      502
 93
      241
310
90C312F3822203D2031272D3022000000000000300FC000000000000284000
  0
ACAD_PROXY_OBJECT
  5
87
102
{ACAD_REACTORS
330
6F
102
}
330
6F
100
AcDbZombieObject
 90
      499
 91
      502
 93
      249
310
90D332F313622203D2031272D3022000000000000320FC000000000000284000
  0
ACAD_PROXY_OBJECT
  5
88
102
{ACAD_REACTORS
330
6F
102
}
330
6F
100
AcDbZombieObject
 90
      499
 91
      502
 93
      241
310
90C312F3422203D2031272D3022000000000000340FC000000000000284000
  0
ACAD_PROXY_OBJECT
  5
89
102
{ACAD_REACTORS
330
6F
102
}
330
6F
100
AcDbZombieObject
 90
      499
 91
      502
 93
      241
310
90C332F3822203D2031272D3022000000000000360FC000000000000284000
  0
ACAD_PROXY_OBJECT
  5
8A
102
{ACAD_REACTORS
330
6F
102
}
330
6F
100
AcDbZombieObject
 90
      499
 91
      502
 93
      241
310
90C312F3222203D2031272D3022000000000000380FC000000000000284000
  0
ACAD_PROXY_OBJECT
  5
8B
102
{ACAD_REACTORS
330
6F
102
}
330
6F
100
AcDbZombieObject
 90
      499
 91
      502
 93
      241
310
90C332F3422203D2031272D30220000000000003A0FC000000000000284000
  0
ACAD_PROXY_OBJECT
  5
8C
102
{ACAD_REACTORS
330
6F
102
}
330
6F
100
AcDbZombieObject
 90
      499
 91
      502
 93
      161
310
90A3122203D2031272D30224000000000000284000
  0
ACAD_PROXY_OBJECT
  5
8D
102
{ACAD_REACTORS
330
6F
102
}
330
6F
100
AcDbZombieObject
 90
      499
 91
      502
 93
      257
310
90E312D312F3222203D2031272D30220000000000003E0FC000000000000284000
  0
ACAD_PROXY_OBJECT
  5
8E
102
{ACAD_REACTORS
330
6F
102
}
330
6F
100
AcDbZombieObject
 90
      499
 91
      502
 93
      225
310
90A3322203D2031272D302200000000000002100000000000000284000
  0
ACAD_PROXY_OBJECT
  5
8F
102
{ACAD_REACTORS
330
6F
102
}
330
6F
100
AcDbZombieObject
 90
      499
 91
      502
 93
      225
310
90A3622203D2031272D302200000000000006100000000000000284000
  0
ACAD_PROXY_OBJECT
  5
90
102
{ACAD_REACTORS
330
6F
102
}
330
6F
100
AcDbZombieObject
 90
      499
 91
      502
 93
      249
310
90D31272D3022203D2031272D30220000000000000A100000000000000284000
  0
ACAD_PROXY_OBJECT
  5
2F
102
{ACAD_REACTORS
330
2A
102
}
330
2A
100
AcDbZombieObject
 90
      499
 91
      501
 93
      436
310
42CC9915DA5C99599C985B595049028333333333333E3BF0000000000000FB0107901411070040501600405405064090741402480A0340
1001
ACAD
1000
AcDbSavedByObjectVersion
1070
     0
  0
ACAD_PROXY_OBJECT
  5
31
102
{ACAD_REACTORS
330
2A
102
}
330
2A
100
AcDbZombieObject
 90
      499
 91
      501
 93
      500
310
424CD108121A5919195B90640502408333333333333E3BF0000000000000FB01079024090700405020000000000001110200405405064090740C02480A0340
1001
ACAD
1000
AcDbSavedByObjectVersion
1070
     0
  0
ACAD_PROXY_OBJECT
  5
30
102
{ACAD_REACTORS
330
2A
102
}
330
2A
100
AcDbZombieObject
 90
      499
 91
      501
 93
      436
310
42CCD915DA5C99599C985B595059028333333333333E3BF0000000000000FB0107901411070040501600405405064090741402480A0340
1001
ACAD
1000
AcDbSavedByObjectVersion
1070
     0
  0
ACAD_PROXY_OBJECT
  5
32
102
{ACAD_REACTORS
330
2A
102
}
330
2A
100
AcDbZombieObject
 90
      499
 91
      501
 93
      388
310
4150985CDA58D07406404333333333333E3BF0000000000000FB0107A41107004050150841D405064090741402480A0350
1001
ACAD
1000
AcDbSavedByObjectVersion
1070
     0
  0
ACAD_PROXY_OBJECT
  5
36
102
{ACAD_REACTORS
330
2A
102
}
330
2A
100
AcDbZombieObject
 90
      499
 91
      501
 93
      428
310
42109C9A59DA1D195B90C409028333333333333E3BF0000000000000FB010790141107004050150841D405064090741402480A029950
1001
ACAD
1000
AcDbSavedByObjectVersion
1070
     0
  0
ACAD_PROXY_OBJECT
  5
3A
102
{ACAD_REACTORS
330
2A
102
}
330
2A
100
AcDbZombieObject
 90
      499
 91
      501
 93
      452
310
42D0DBDB1BDC90DA185B99D95104090240C333333333333E3BF0000000000000FB0108901411070040501508421405064090741402480A0350
1001
ACAD
1000
AcDbSavedByObjectVersion
1070
     0
  0
ACAD_PROXY_OBJECT
  5
34
102
{ACAD_REACTORS
330
2A
102
}
330
2A
100
AcDbZombieObject
 90
      499
 91
      501
 93
      500
310
4290DBDB98D95C1D1D585B10940D028333333333333E3BF0000000000000FB0107902409070040501000000000000111010841D405064090740C02480A0340
1001
ACAD
1000
AcDbSavedByObjectVersion
1070
     0
  0
ACAD_PROXY_OBJECT
  5
35
102
{ACAD_REACTORS
330
2A
102
}
330
2A
100
AcDbZombieObject
 90
      499
 91
      501
 93
      412
310
40D11A5B50B409028333333333333E3BF0000000000000FB010790141107004050150841D405064090741402480A02677FFFFFD0
1001
ACAD
1000
AcDbSavedByObjectVersion
1070
     0
  0
ACAD_PROXY_OBJECT
  5
39
102
{ACAD_REACTORS
330
2A
102
}
330
2A
100
AcDbZombieObject
 90
      499
 91
      501
 93
      444
310
42D19858D95C185D1D195C9B90F409028333333333333E3BF0000000000000FB010790141107004050150841D405064090741402480A0350
1001
ACAD
1000
AcDbSavedByObjectVersion
1070
     0
  0
ACAD_PROXY_OBJECT
  5
2B
102
{ACAD_REACTORS
330
2A
102
}
330
2A
100
AcDbZombieObject
 90
      499
 91
      501
 93
      388
310
41119B185D240901404333333333333E3BF0000000000000F9010740A41107004050150841D405064090741402480A1B50
1001
ACAD
1000
AcDbSavedByObjectVersion
1070
     0
  0
ACAD_PROXY_OBJECT
  5
2C
102
{ACAD_REACTORS
330
2A
102
}
330
2A
100
AcDbZombieObject
 90
      499
 91
      501
 93
      476
310
43519B185D15DA5D1A115919D95CD0140901404333333333333E3BF0000000000000F9010740901411070040501600405405064090741402480A1B50
1001
ACAD
1000
AcDbSavedByObjectVersion
1070
     0
  0
ACAD_PROXY_OBJECT
  5
2D
102
{ACAD_REACTORS
330
2A
102
}
330
2A
100
AcDbZombieObject
 90
      499
 91
      501
 93
      412
310
41D1DBDD5C985D5910240902404333333333333E3BF0000000000000F9010740A411070040501641D405064090741402480A1B50
1001
ACAD
1000
AcDbSavedByObjectVersion
1070
     0
  0
ACAD_PROXY_OBJECT
  5
2E
102
{ACAD_REACTORS
330
2A
102
}
330
2A
100
AcDbZombieObject
 90
      499
 91
      501
 93
      500
310
4411DBDD5C985D5915DA5D1A115919D95CD0340902404333333333333E3BF0000000000000F9010740901411070040501600405405064090741402480A1B50
1001
ACAD
1000
AcDbSavedByObjectVersion
1070
     0
  0
ACAD_PROXY_OBJECT
  5
38
102
{ACAD_REACTORS
330
2A
102
}
330
2A
100
AcDbZombieObject
 90
      499
 91
      501
 93
      444
310
42D31A5B995C185D1D195C9B90E409028333333333333E3BF0000000000000FB010790141107004050750841D405064090741402483A0350
1001
ACAD
1000
AcDbSavedByObjectVersion
1070
     0
  0
ACAD_PROXY_OBJECT
  5
33
102
{ACAD_REACTORS
330
2A
102
}
330
2A
100
AcDbZombieObject
 90
      499
 91
      501
 93
      420
310
425499585B1A5CDD1A58D08409028333333333333E3BF0000000000000FB01079019070040501508421405064090741402480A1B40
1001
ACAD
1000
AcDbSavedByObjectVersion
1070
     0
  0
ACAD_PROXY_OBJECT
  5
37
102
{ACAD_REACTORS
330
2A
102
}
330
2A
100
AcDbZombieObject
 90
      499
 91
      501
 93
      412
310
41D51A1A58DAD95B90D409028333333333333E3BF0000000000000FB010790141107004050150C41D405064090741402480A0350
1001
ACAD
1000
AcDbSavedByObjectVersion
1070
     0
  0
DICTIONARYVAR
  5
1FF
102
{ACAD_REACTORS
330
1FC
102
}
330
1FC
100
DictionaryVariables
280
     0
  1
1:1
  0
DICTIONARYVAR
  5
200
102
{ACAD_REACTORS
330
1FC
102
}
330
1FC
100
DictionaryVariables
280
     0
  1
2
  0
DICTIONARYVAR
  5
201
102
{ACAD_REACTORS
330
1FC
102
}
330
1FC
100
DictionaryVariables
280
     0
  1
1
  0
ENDSEC
  0
EOF
