  0
SECTION
  2
HEADER
  9
$ACADVER
  1
AC1012
  9
$DWGCODEPAGE
  3
ansi_1252
  9
$INSBASE
 10
0.0
 20
0.0
 30
0.0
  9
$EXTMIN
 10
0.0
 20
0.0
 30
0.0
  9
$EXTMAX
 10
11.0
 20
8.5
 30
0.0
  9
$LIMMIN
 10
0.0
 20
0.0
  9
$LIMMAX
 10
11.0
 20
8.5
  9
$ORTHOMODE
 70
     0
  9
$REGENMODE
 70
     1
  9
$FILLMODE
 70
     1
  9
$QTEXTMODE
 70
     0
  9
$MIRRTEXT
 70
     1
  9
$DRAGMODE
 70
     2
  9
$LTSCALE
 40
1.0
  9
$OSMODE
 70
    37
  9
$ATTMODE
 70
     1
  9
$TEXTSIZE
 40
0.125
  9
$TRACEWID
 40
0.05
  9
$TEXTSTYLE
  7
STANDARD
  9
$CLAYER
  8
0
  9
$CELTYPE
  6
BYLAYER
  9
$CECOLOR
 62
   256
  9
$CELTSCALE
 40
1.0
  9
$DELOBJ
 70
     1
  9
$DISPSILH
 70
     0
  9
$DIMSCALE
 40
1.0
  9
$DIMASZ
 40
0.13
  9
$DIMEXO
 40
0.05
  9
$DIMDLI
 40
0.38
  9
$DIMRND
 40
0.0
  9
$DIMDLE
 40
0.0
  9
$DIMEXE
 40
0.125
  9
$DIMTP
 40
0.0
  9
$DIMTM
 40
0.0
  9
$DIMTXT
 40
0.125
  9
$DIMCEN
 40
0.09
  9
$DIMTSZ
 40
0.0
  9
$DIMTOL
 70
     0
  9
$DIMLIM
 70
     0
  9
$DIMTIH
 70
     1
  9
$DIMTOH
 70
     1
  9
$DIMSE1
 70
     0
  9
$DIMSE2
 70
     0
  9
$DIMTAD
 70
     0
  9
$DIMZIN
 70
     0
  9
$DIMBLK
  1

  9
$DIMASO
 70
     1
  9
$DIMSHO
 70
     1
  9
$DIMPOST
  1

  9
$DIMAPOST
  1

  9
$DIMALT
 70
     0
  9
$DIMALTD
 70
     2
  9
$DIMALTF
 40
25.4
  9
$DIMLFAC
 40
1.0
  9
$DIMTOFL
 70
     0
  9
$DIMTVP
 40
0.0
  9
$DIMTIX
 70
     0
  9
$DIMSOXD
 70
     0
  9
$DIMSAH
 70
     0
  9
$DIMBLK1
  1

  9
$DIMBLK2
  1

  9
$DIMSTYLE
  2
STANDARD
  9
$DIMCLRD
 70
     0
  9
$DIMCLRE
 70
     0
  9
$DIMCLRT
 70
     0
  9
$DIMTFAC
 40
1.0
  9
$DIMGAP
 40
0.06
  9
$DIMJUST
 70
     0
  9
$DIMSD1
 70
     0
  9
$DIMSD2
 70
     0
  9
$DIMTOLJ
 70
     1
  9
$DIMTZIN
 70
     0
  9
$DIMALTZ
 70
     0
  9
$DIMALTTZ
 70
     0
  9
$DIMFIT
 70
     3
  9
$DIMUPT
 70
     0
  9
$DIMUNIT
 70
     2
  9
$DIMDEC
 70
     3
  9
$DIMTDEC
 70
     3
  9
$DIMALTU
 70
     2
  9
$DIMALTTD
 70
     2
  9
$DIMTXSTY
  7
STANDARD
  9
$DIMAUNIT
 70
     0
  9
$LUNITS
 70
     2
  9
$LUPREC
 70
     2
  9
$SKETCHINC
 40
0.1
  9
$FILLETRAD
 40
0.5
  9
$AUNITS
 70
     0
  9
$AUPREC
 70
     2
  9
$MENU
  1
.
  9
$ELEVATION
 40
0.0
  9
$PELEVATION
 40
0.0
  9
$THICKNESS
 40
0.0
  9
$LIMCHECK
 70
     0
  9
$CHAMFERA
 40
0.5
  9
$CHAMFERB
 40
0.5
  9
$CHAMFERC
 40
1.0
  9
$CHAMFERD
 40
0.0
  9
$SKPOLY
 70
     0
  9
$TDCREATE
 40
2455784.027436343
  9
$TDUPDATE
 40
2455784.027436354
  9
$TDINDWG
 40
0.0000000116
  9
$TDUSRTIMER
 40
0.0000000116
  9
$USRTIMER
 70
     1
  9
$ANGBASE
 50
0.0
  9
$ANGDIR
 70
     0
  9
$PDMODE
 70
     0
  9
$PDSIZE
 40
-1.0
  9
$PLINEWID
 40
0.0
  9
$COORDS
 70
     1
  9
$SPLFRAME
 70
     0
  9
$SPLINETYPE
 70
     6
  9
$SPLINESEGS
 70
     8
  9
$ATTDIA
 70
     0
  9
$ATTREQ
 70
     1
  9
$HANDLING
 70
     1
  9
$HANDSEED
  5
455
  9
$SURFTAB1
 70
     6
  9
$SURFTAB2
 70
     6
  9
$SURFTYPE
 70
     6
  9
$SURFU
 70
     6
  9
$SURFV
 70
     6
  9
$UCSNAME
  2

  9
$UCSORG
 10
0.0
 20
0.0
 30
0.0
  9
$UCSXDIR
 10
1.0
 20
0.0
 30
0.0
  9
$UCSYDIR
 10
0.0
 20
1.0
 30
0.0
  9
$PUCSNAME
  2

  9
$PUCSORG
 10
0.0
 20
0.0
 30
0.0
  9
$PUCSXDIR
 10
1.0
 20
0.0
 30
0.0
  9
$PUCSYDIR
 10
0.0
 20
1.0
 30
0.0
  9
$USERI1
 70
     0
  9
$USERI2
 70
     0
  9
$USERI3
 70
     0
  9
$USERI4
 70
     0
  9
$USERI5
 70
     0
  9
$USERR1
 40
0.0
  9
$USERR2
 40
0.0
  9
$USERR3
 40
0.0
  9
$USERR4
 40
0.0
  9
$USERR5
 40
0.0
  9
$WORLDVIEW
 70
     1
  9
$SHADEDGE
 70
     3
  9
$SHADEDIF
 70
    70
  9
$TILEMODE
 70
     1
  9
$MAXACTVP
 70
    64
  9
$PINSBASE
 10
0.0
 20
0.0
 30
0.0
  9
$PLIMCHECK
 70
     0
  9
$PEXTMIN
 10
1.0000000000E+20
 20
1.0000000000E+20
 30
1.0000000000E+20
  9
$PEXTMAX
 10
-1.0000000000E+20
 20
-1.0000000000E+20
 30
-1.0000000000E+20
  9
$PLIMMIN
 10
0.0
 20
0.0
  9
$PLIMMAX
 10
12.0
 20
9.0
  9
$UNITMODE
 70
     0
  9
$VISRETAIN
 70
     1
  9
$PLINEGEN
 70
     0
  9
$PSLTSCALE
 70
     1
  9
$TREEDEPTH
 70
  3020
  9
$PICKSTYLE
 70
     1
  9
$CMLSTYLE
  2
STANDARD
  9
$CMLJUST
 70
     0
  9
$CMLSCALE
 40
1.0
  9
$SAVEIMAGES
 70
     1
  0
ENDSEC
  0
SECTION
  2
CLASSES
  0
CLASS
  1
ACDBDICTIONARYWDFLT
  2
AcDbDictionaryWithDefault
  3
ObjectDBX Classes
 90
    32768
280
     0
281
     0
  0
CLASS
  1
VISUALSTYLE
  2
AcDbVisualStyle
  3
ObjectDBX Classes
 90
     4095
280
     0
281
     0
  0
CLASS
  1
SCALE
  2
AcDbScale
  3
ObjectDBX Classes
 90
     1153
280
     0
281
     0
  0
CLASS
  1
DICTIONARYVAR
  2
AcDbDictionaryVar
  3
ObjectDBX Classes
 90
        0
280
     0
281
     0
  0
CLASS
  1
XRECORD
  2
AcDbXrecord
  3
AutoCAD 2000
 90
    32768
280
     0
281
     0
  0
CLASS
  1
LWPOLYLINE
  2
AcDbPolyline
  3
AutoCAD 2000
 90
    32768
280
     0
281
     1
  0
CLASS
  1
HATCH
  2
AcDbHatch
  3
AutoCAD 2000
 90
    32768
280
     0
281
     1
  0
CLASS
  1
ACDBPLACEHOLDER
  2
AcDbPlaceHolder
  3
ObjectDBX Classes
 90
        0
280
     0
281
     0
  0
CLASS
  1
LAYOUT
  2
AcDbLayout
  3
ObjectDBX Classes
 90
        0
280
     0
281
     0
  0
ENDSEC
  0
SECTION
  2
TABLES
  0
TABLE
  2
VPORT
  5
8
330
0
100
AcDbSymbolTable
 70
     1
  0
VPORT
  5
29
330
8
100
AcDbSymbolTableRecord
100
AcDbViewportTableRecord
  2
*ACTIVE
 70
     0
 10
0.0
 20
0.0
 11
1.0
 21
1.0
 12
5.5
 22
4.25
 13
0.0
 23
0.0
 14
0.5
 24
0.5
 15
0.5
 25
0.5
 16
0.0
 26
0.0
 36
1.0
 17
0.0
 27
0.0
 37
0.0
 40
8.5
 41
1.2941176471
 42
50.0
 43
0.0
 44
0.0
 50
0.0
 51
0.0
 71
     0
 72
  2000
 73
     1
 74
     3
 75
     0
 76
     0
 77
     0
 78
     0
  0
ENDTAB
  0
TABLE
  2
LTYPE
  5
5
330
0
100
AcDbSymbolTable
 70
     6
  0
LTYPE
  5
14
330
5
100
AcDbSymbolTableRecord
100
AcDbLinetypeTableRecord
  2
BYBLOCK
 70
     0
  3

 72
    65
 73
     0
 40
0.0
  0
LTYPE
  5
15
330
5
100
AcDbSymbolTableRecord
100
AcDbLinetypeTableRecord
  2
BYLAYER
 70
     0
  3

 72
    65
 73
     0
 40
0.0
  0
LTYPE
  5
16
330
5
100
AcDbSymbolTableRecord
100
AcDbLinetypeTableRecord
  2
CONTINUOUS
 70
     0
  3
Solid line
 72
    65
 73
     0
 40
0.0
  0
LTYPE
  5
3B
330
5
100
AcDbSymbolTableRecord
100
AcDbLinetypeTableRecord
  2
HIDDEN
 70
     0
  3
Hidden __ __ __ __ __ __ __ __ __ __ __ __ __ __
 72
    65
 73
     2
 40
0.075
 49
0.05
 74
     0
 49
-0.025
 74
     0
  0
LTYPE
  5
3C
330
5
100
AcDbSymbolTableRecord
100
AcDbLinetypeTableRecord
  2
PHANTOM
 70
     0
  3
Phantom ______  __  __  ______  __  __  ______
 72
    65
 73
     6
 40
0.5
 49
0.25
 74
     0
 49
-0.05
 74
     0
 49
0.05
 74
     0
 49
-0.05
 74
     0
 49
0.05
 74
     0
 49
-0.05
 74
     0
  0
LTYPE
  5
3D
330
5
100
AcDbSymbolTableRecord
100
AcDbLinetypeTableRecord
  2
CENTER
 70
     0
  3
Center ____ _ ____ _ ____ _ ____ _ ____ _ ____
 72
    65
 73
     4
 40
0.4
 49
0.25
 74
     0
 49
-0.05
 74
     0
 49
0.05
 74
     0
 49
-0.05
 74
     0
  0
LTYPE
  5
3E
330
5
100
AcDbSymbolTableRecord
100
AcDbLinetypeTableRecord
  2
CENTERX2
 70
     0
  3
Center (2x) ________  __  ________  __  _____
 72
    65
 73
     4
 40
0.8
 49
0.5
 74
     0
 49
-0.1
 74
     0
 49
0.1
 74
     0
 49
-0.1
 74
     0
  0
LTYPE
  5
3F
330
5
100
AcDbSymbolTableRecord
100
AcDbLinetypeTableRecord
  2
DOT2
 70
     0
  3
Dot (.5x) ........................................
 72
    65
 73
     2
 40
0.025
 49
0.0
 74
     0
 49
-0.025
 74
     0
  0
ENDTAB
  0
TABLE
  2
LAYER
  5
2
330
0
100
AcDbSymbolTable
 70
     2
  0
LAYER
  5
10
330
2
100
AcDbSymbolTableRecord
100
AcDbLayerTableRecord
  2
0
 70
     0
 62
     7
  6
CONTINUOUS
  0
LAYER
  5
40
330
2
100
AcDbSymbolTableRecord
100
AcDbLayerTableRecord
  2
FORMAT
 70
     0
 62
     7
  6
CONTINUOUS
  0
ENDTAB
  0
TABLE
  2
STYLE
  5
3
330
0
100
AcDbSymbolTable
 70
     4
  0
STYLE
  5
11
330
3
100
AcDbSymbolTableRecord
100
AcDbTextStyleTableRecord
  2
STANDARD
 70
     0
 40
0.0
 41
1.0
 50
0.0
 71
     0
 42
0.2
  3
txt
  4

  0
STYLE
  5
6E
330
3
100
AcDbSymbolTableRecord
100
AcDbTextStyleTableRecord
  2
SLDTEXTSTYLE0
 70
     0
 40
0.0
 41
0.75
 50
0.0
 71
     0
 42
0.2
  3
TXT
  4

  0
STYLE
  5
93
330
3
100
AcDbSymbolTableRecord
100
AcDbTextStyleTableRecord
  2
SLDTEXTSTYLE1
 70
     0
 40
0.0
 41
0.6875
 50
0.0
 71
     0
 42
0.2
  3
TXT
  4

  0
STYLE
  5
99
330
3
100
AcDbSymbolTableRecord
100
AcDbTextStyleTableRecord
  2
SLDTEXTSTYLE2
 70
     0
 40
0.0
 41
0.6944444444
 50
0.0
 71
     0
 42
0.2
  3
TXT
  4

  0
ENDTAB
  0
TABLE
  2
VIEW
  5
6
330
0
100
AcDbSymbolTable
 70
     0
  0
ENDTAB
  0
TABLE
  2
UCS
  5
7
330
0
100
AcDbSymbolTable
 70
     0
  0
ENDTAB
  0
TABLE
  2
APPID
  5
9
330
0
100
AcDbSymbolTable
 70
     1
  0
APPID
  5
12
330
9
100
AcDbSymbolTableRecord
100
AcDbRegAppTableRecord
  2
ACAD
 70
     0
  0
ENDTAB
  0
TABLE
  2
DIMSTYLE
  5
A
330
0
100
AcDbSymbolTable
 70
     1
  0
DIMSTYLE
105
27
330
A
100
AcDbSymbolTableRecord
100
AcDbDimStyleTableRecord
  2
STANDARD
 70
     0
  3

  4

  5

  6

  7

 40
1.0
 41
0.18
 42
0.0625
 43
0.38
 44
0.18
 45
0.0
 46
0.0
 47
0.0
 48
0.0
140
0.18
141
0.09
142
0.0
143
25.4
144
1.0
145
0.0
146
1.0
147
0.09
 71
     0
 72
     0
 73
     1
 74
     1
 75
     0
 76
     0
 77
     0
 78
     0
170
     0
171
     2
172
     0
173
     0
174
     0
175
     0
176
     0
177
     0
178
     0
270
     2
271
     4
272
     4
273
     2
274
     2
340
11
275
     0
280
     0
281
     0
282
     0
283
     1
284
     0
285
     0
286
     0
287
     3
288
     0
  0
ENDTAB
  0
TABLE
  2
BLOCK_RECORD
  5
1
330
0
100
AcDbSymbolTable
 70
     4
  0
BLOCK_RECORD
  5
1F
330
1
100
AcDbSymbolTableRecord
100
AcDbBlockTableRecord
  2
*MODEL_SPACE
  0
BLOCK_RECORD
  5
1B
330
1
100
AcDbSymbolTableRecord
100
AcDbBlockTableRecord
  2
*PAPER_SPACE
  0
BLOCK_RECORD
  5
A8
330
1
100
AcDbSymbolTableRecord
100
AcDbBlockTableRecord
  2
SW_NOTE_0
  0
BLOCK_RECORD
  5
AE
330
1
100
AcDbSymbolTableRecord
100
AcDbBlockTableRecord
  2
SW_NOTE_1
  0
BLOCK_RECORD
  5
C2
330
1
100
AcDbSymbolTableRecord
100
AcDbBlockTableRecord
  2
SW_NOTE_2
  0
ENDTAB
  0
ENDSEC
  0
SECTION
  2
BLOCKS
  0
BLOCK
  5
20
330
1F
100
AcDbEntity
  8
0
100
AcDbBlockBegin
  2
*MODEL_SPACE
 70
     0
 10
0.0
 20
0.0
 30
0.0
  3
*MODEL_SPACE
  1

  0
ENDBLK
  5
21
330
1F
100
AcDbEntity
  8
0
100
AcDbBlockEnd
  0
BLOCK
  5
1C
330
1B
100
AcDbEntity
 67
     1
  8
0
100
AcDbBlockBegin
  2
*PAPER_SPACE
 70
     0
 10
0.0
 20
0.0
 30
0.0
  3
*PAPER_SPACE
  1

  0
ENDBLK
  5
1D
330
1B
100
AcDbEntity
 67
     1
  8
0
100
AcDbBlockEnd
  0
BLOCK
  5
A9
330
A8
100
AcDbEntity
  8
0
100
AcDbBlockBegin
  2
SW_NOTE_0
 70
     0
 10
0.0
 20
0.0
 30
0.0
  3
SW_NOTE_0
  1

  0
MTEXT
  5
AB
330
A8
100
AcDbEntity
  8
0
  6
CONTINUOUS
 62
     0
100
AcDbMText
 10
0.0
 20
0.0773440644
 30
0.0
 40
0.06
 41
0.0
 71
     1
 72
     1
  1
INTERPRET GEOMETRIC
  7
SLDTEXTSTYLE0
  0
MTEXT
  5
AC
330
A8
100
AcDbEntity
  8
0
  6
CONTINUOUS
 62
     0
100
AcDbMText
 10
0.0
 20
-0.0220260102
 30
0.0
 40
0.06
 41
0.0
 71
     1
 72
     1
  1
TOLERANCING PER:
  7
SLDTEXTSTYLE0
  0
ENDBLK
  5
AA
330
A8
100
AcDbEntity
  8
0
100
AcDbBlockEnd
  0
BLOCK
  5
AF
330
AE
100
AcDbEntity
  8
0
100
AcDbBlockBegin
  2
SW_NOTE_1
 70
     0
 10
0.0
 20
0.0
 30
0.0
  3
SW_NOTE_1
  1

  0
MTEXT
  5
B1
330
AE
100
AcDbEntity
  8
0
  6
CONTINUOUS
 62
     0
100
AcDbMText
 10
0.0
 20
0.0837894031
 30
0.0
 40
0.065
 41
0.0
 71
     1
 72
     1
  1
DIMENSIONS ARE IN INCHES
  7
SLDTEXTSTYLE0
  0
MTEXT
  5
B2
330
AE
100
AcDbEntity
  8
0
  6
CONTINUOUS
 62
     0
100
AcDbMText
 10
0.0
 20
-0.0205806729
 30
0.0
 40
0.065
 41
0.0
 71
     1
 72
     1
  1
TOLERANCES:
  7
SLDTEXTSTYLE0
  0
MTEXT
  5
B3
330
AE
100
AcDbEntity
  8
0
  6
CONTINUOUS
 62
     0
100
AcDbMText
 10
0.0
 20
-0.1249507489
 30
0.0
 40
0.065
 41
0.0
 71
     1
 72
     1
  1
FRACTIONAL
  7
SLDTEXTSTYLE0
  0
MTEXT
  5
B4
330
AE
100
AcDbEntity
  8
0
  6
CONTINUOUS
 62
     0
100
AcDbMText
 10
0.5175850875
 20
-0.1249507489
 30
0.0
 40
0.065
 41
0.0
 71
     1
 72
     1
  1
%%p
  7
SLDTEXTSTYLE0
  0
MTEXT
  5
B5
330
AE
100
AcDbEntity
  8
0
  6
CONTINUOUS
 62
     0
100
AcDbMText
 10
0.0
 20
-0.2293208248
 30
0.0
 40
0.065
 41
0.0
 71
     1
 72
     1
  1
ANGULAR: MACH
  7
SLDTEXTSTYLE0
  0
MTEXT
  5
B6
330
AE
100
AcDbEntity
  8
0
  6
CONTINUOUS
 62
     0
100
AcDbMText
 10
0.7233732769
 20
-0.2293208248
 30
0.0
 40
0.065
 41
0.0
 71
     1
 72
     1
  1
%%p
  7
SLDTEXTSTYLE0
  0
MTEXT
  5
B7
330
AE
100
AcDbEntity
  8
0
  6
CONTINUOUS
 62
     0
100
AcDbMText
 10
0.7852857683
 20
-0.2293208248
 30
0.0
 40
0.065
 41
0.0
 71
     1
 72
     1
  1
     BEND 
  7
SLDTEXTSTYLE0
  0
MTEXT
  5
B8
330
AE
100
AcDbEntity
  8
0
  6
CONTINUOUS
 62
     0
100
AcDbMText
 10
1.14784136
 20
-0.2293208248
 30
0.0
 40
0.065
 41
0.0
 71
     1
 72
     1
  1
%%p
  7
SLDTEXTSTYLE0
  0
MTEXT
  5
B9
330
AE
100
AcDbEntity
  8
0
  6
CONTINUOUS
 62
     0
100
AcDbMText
 10
0.0
 20
-0.3336909008
 30
0.0
 40
0.065
 41
0.0
 71
     1
 72
     1
  1
TWO PLACE DECIMAL    
  7
SLDTEXTSTYLE0
  0
MTEXT
  5
BA
330
AE
100
AcDbEntity
  8
0
  6
CONTINUOUS
 62
     0
100
AcDbMText
 10
0.9794349188
 20
-0.3336909008
 30
0.0
 40
0.065
 41
0.0
 71
     1
 72
     1
  1
%%p
  7
SLDTEXTSTYLE0
  0
MTEXT
  5
BB
330
AE
100
AcDbEntity
  8
0
  6
CONTINUOUS
 62
     0
100
AcDbMText
 10
0.0
 20
-0.4380609768
 30
0.0
 40
0.065
 41
0.0
 71
     1
 72
     1
  1
THREE PLACE DECIMAL  
  7
SLDTEXTSTYLE0
  0
MTEXT
  5
BC
330
AE
100
AcDbEntity
  8
0
  6
CONTINUOUS
 62
     0
100
AcDbMText
 10
0.9738038639
 20
-0.4380609768
 30
0.0
 40
0.065
 41
0.0
 71
     1
 72
     1
  1
%%p
  7
SLDTEXTSTYLE0
  0
ENDBLK
  5
B0
330
AE
100
AcDbEntity
  8
0
100
AcDbBlockEnd
  0
BLOCK
  5
C3
330
C2
100
AcDbEntity
  8
0
100
AcDbBlockBegin
  2
SW_NOTE_2
 70
     0
 10
0.0
 20
0.0
 30
0.0
  3
SW_NOTE_2
  1

  0
MTEXT
  5
C5
330
C2
100
AcDbEntity
  8
0
  6
CONTINUOUS
 62
     0
100
AcDbMText
 10
0.0
 20
0.0773440644
 30
0.0
 40
0.06
 41
0.0
 71
     1
 72
     1
  1
THE INFORMATION CONTAINED IN THIS
  7
SLDTEXTSTYLE0
  0
MTEXT
  5
C6
330
C2
100
AcDbEntity
  8
0
  6
CONTINUOUS
 62
     0
100
AcDbMText
 10
0.0
 20
-0.0220260102
 30
0.0
 40
0.06
 41
0.0
 71
     1
 72
     1
  1
DRAWING IS THE SOLE PROPERTY OF
  7
SLDTEXTSTYLE0
  0
MTEXT
  5
C7
330
C2
100
AcDbEntity
  8
0
  6
CONTINUOUS
 62
     0
100
AcDbMText
 10
0.0
 20
-0.1213960848
 30
0.0
 40
0.06
 41
0.0
 71
     1
 72
     1
  1
Candy Controls.  ANY 
  7
SLDTEXTSTYLE0
  0
MTEXT
  5
C8
330
C2
100
AcDbEntity
  8
0
  6
CONTINUOUS
 62
     0
100
AcDbMText
 10
0.0
 20
-0.2207661593
 30
0.0
 40
0.06
 41
0.0
 71
     1
 72
     1
  1
REPRODUCTION IN PART OR AS A WHOLE
  7
SLDTEXTSTYLE0
  0
MTEXT
  5
C9
330
C2
100
AcDbEntity
  8
0
  6
CONTINUOUS
 62
     0
100
AcDbMText
 10
0.0
 20
-0.3201362339
 30
0.0
 40
0.06
 41
0.0
 71
     1
 72
     1
  1
WITHOUT THE WRITTEN PERMISSION OF
  7
SLDTEXTSTYLE0
  0
MTEXT
  5
CA
330
C2
100
AcDbEntity
  8
0
  6
CONTINUOUS
 62
     0
100
AcDbMText
 10
0.0
 20
-0.4195063085
 30
0.0
 40
0.06
 41
0.0
 71
     1
 72
     1
  1
Candy Controls IS 
  7
SLDTEXTSTYLE0
  0
MTEXT
  5
CB
330
C2
100
AcDbEntity
  8
0
  6
CONTINUOUS
 62
     0
100
AcDbMText
 10
0.0
 20
-0.518876383
 30
0.0
 40
0.06
 41
0.0
 71
     1
 72
     1
  1
PROHIBITED.
  7
SLDTEXTSTYLE0
  0
ENDBLK
  5
C4
330
C2
100
AcDbEntity
  8
0
100
AcDbBlockEnd
  0
ENDSEC
  0
SECTION
  2
ENTITIES
  0
LINE
  5
41
330
1F
100
AcDbEntity
  8
0
  6
CONTINUOUS
 62
     7
100
AcDbLine
 10
0.329927
 20
8.1920731707
 30
0.0
 11
10.629927
 21
8.1920731707
 31
0.0
  0
LINE
  5
42
330
1F
100
AcDbEntity
  8
0
  6
CONTINUOUS
 62
     7
100
AcDbLine
 10
0.329927
 20
8.1920731707
 30
0.0
 11
0.329927
 21
0.3920731707
 31
0.0
  0
LINE
  5
43
330
1F
100
AcDbEntity
  8
0
  6
CONTINUOUS
 62
     7
100
AcDbLine
 10
10.629927
 20
0.3920731707
 30
0.0
 11
0.329927
 21
0.3920731707
 31
0.0
  0
LINE
  5
44
330
1F
100
AcDbEntity
  8
0
  6
CONTINUOUS
 62
     7
100
AcDbLine
 10
10.629927
 20
0.3920731707
 30
0.0
 11
10.629927
 21
8.1920731707
 31
0.0
  0
LINE
  5
45
330
1F
100
AcDbEntity
  8
0
  6
CONTINUOUS
 62
     7
100
AcDbLine
 10
4.7981841288
 20
0.3920731707
 30
0.0
 11
4.7981841288
 21
2.3564211366
 31
0.0
  0
LINE
  5
46
330
1F
100
AcDbEntity
  8
0
  6
CONTINUOUS
 62
     7
100
AcDbLine
 10
2.8210345579
 20
2.3564211366
 30
0.0
 11
10.629927
 21
2.3564211366
 31
0.0
  0
LINE
  5
47
330
1F
100
AcDbEntity
  8
0
  6
CONTINUOUS
 62
     7
100
AcDbLine
 10
6.1796352514
 20
2.3564211366
 30
0.0
 11
6.1796352514
 21
0.3920731707
 31
0.0
  0
LINE
  5
48
330
1F
100
AcDbEntity
  8
0
  6
CONTINUOUS
 62
     7
100
AcDbLine
 10
7.8712070044
 20
2.3564211366
 30
0.0
 11
7.8712070044
 21
0.3920731707
 31
0.0
  0
LINE
  5
49
330
1F
100
AcDbEntity
  8
0
  6
CONTINUOUS
 62
     7
100
AcDbLine
 10
7.8712070044
 20
0.6049590101
 30
0.0
 11
10.629927
 21
0.6049590101
 31
0.0
  0
LINE
  5
4A
330
1F
100
AcDbEntity
  8
0
  6
CONTINUOUS
 62
     7
100
AcDbLine
 10
7.8712070044
 20
1.1119362457
 30
0.0
 11
10.629927
 21
1.1119362457
 31
0.0
  0
LINE
  5
4B
330
1F
100
AcDbEntity
  8
0
  6
CONTINUOUS
 62
     7
100
AcDbLine
 10
7.8712070044
 20
1.9892703708
 30
0.0
 11
10.629927
 21
1.9892703708
 31
0.0
  0
LINE
  5
4C
330
1F
100
AcDbEntity
  8
0
  6
CONTINUOUS
 62
     7
100
AcDbLine
 10
8.266751752
 20
1.1119362457
 30
0.0
 11
8.266751752
 21
0.6049590101
 31
0.0
  0
LINE
  5
4D
330
1F
100
AcDbEntity
  8
0
  6
CONTINUOUS
 62
     7
100
AcDbLine
 10
8.6943435176
 20
0.6049590101
 30
0.0
 11
8.6943435176
 21
0.3920731707
 31
0.0
  0
LINE
  5
4E
330
1F
100
AcDbEntity
  8
0
  6
CONTINUOUS
 62
     7
100
AcDbLine
 10
10.0579917045
 20
1.1119362457
 30
0.0
 11
10.0579917045
 21
0.6049590101
 31
0.0
  0
LINE
  5
4F
330
1F
100
AcDbEntity
  8
0
  6
CONTINUOUS
 62
     7
100
AcDbLine
 10
9.6662556631
 20
0.6049590101
 30
0.0
 11
9.6662556631
 21
0.3920731707
 31
0.0
  0
LINE
  5
50
330
1F
100
AcDbEntity
  8
0
  6
CONTINUOUS
 62
     7
100
AcDbLine
 10
2.8210345579
 20
0.5883479999
 30
0.0
 11
6.1796352514
 21
0.5883479999
 31
0.0
  0
LINE
  5
51
330
1F
100
AcDbEntity
  8
0
  6
CONTINUOUS
 62
     7
100
AcDbLine
 10
6.1796352514
 20
1.7939211366
 30
0.0
 11
7.8712070044
 21
1.7939211366
 31
0.0
  0
LINE
  5
52
330
1F
100
AcDbEntity
  8
0
  6
CONTINUOUS
 62
     7
100
AcDbLine
 10
6.1796352514
 20
1.9814211366
 30
0.0
 11
7.8712070044
 21
1.9814211366
 31
0.0
  0
LINE
  5
53
330
1F
100
AcDbEntity
  8
0
  6
CONTINUOUS
 62
     7
100
AcDbLine
 10
6.1796352514
 20
2.1689211366
 30
0.0
 11
7.8712070044
 21
2.1689211366
 31
0.0
  0
LINE
  5
54
330
1F
100
AcDbEntity
  8
0
  6
CONTINUOUS
 62
     7
100
AcDbLine
 10
7.8712070044
 20
1.2314211366
 30
0.0
 11
6.1796352514
 21
1.2314211366
 31
0.0
  0
LINE
  5
55
330
1F
100
AcDbEntity
  8
0
  6
CONTINUOUS
 62
     7
100
AcDbLine
 10
7.3921580388
 20
2.3564211366
 30
0.0
 11
7.3921580388
 21
1.2314211366
 31
0.0
  0
LINE
  5
56
330
1F
100
AcDbEntity
  8
0
  6
CONTINUOUS
 62
     7
100
AcDbLine
 10
6.9236308342
 20
2.3564211366
 30
0.0
 11
6.9236308342
 21
1.2314211366
 31
0.0
  0
LINE
  5
57
330
1F
100
AcDbEntity
  8
0
  6
CONTINUOUS
 62
     7
100
AcDbLine
 10
4.7981841288
 20
0.8557965305
 30
0.0
 11
6.1796352514
 21
0.8557965305
 31
0.0
  0
LINE
  5
58
330
1F
100
AcDbEntity
  8
0
  6
CONTINUOUS
 62
     7
100
AcDbLine
 10
4.7981841288
 20
1.1257965305
 30
0.0
 11
6.1796352514
 21
1.1257965305
 31
0.0
  0
LINE
  5
59
330
1F
100
AcDbEntity
  8
0
  6
CONTINUOUS
 62
     7
100
AcDbLine
 10
2.8210345579
 20
0.3920731707
 30
0.0
 11
2.8210345579
 21
2.3564211366
 31
0.0
  0
LINE
  5
5A
330
1F
100
AcDbEntity
  8
0
  6
CONTINUOUS
 62
     7
100
AcDbLine
 10
2.8210345579
 20
1.1064211366
 30
0.0
 11
4.7981841288
 21
1.1064211366
 31
0.0
  0
LINE
  5
5B
330
1F
100
AcDbEntity
  8
0
  6
CONTINUOUS
 62
     7
100
AcDbLine
 10
2.8210345579
 20
1.3564211366
 30
0.0
 11
4.7981841288
 21
1.3564211366
 31
0.0
  0
LINE
  5
5C
330
1F
100
AcDbEntity
  8
0
  6
CONTINUOUS
 62
     7
100
AcDbLine
 10
2.8210345579
 20
1.6064211366
 30
0.0
 11
4.7981841288
 21
1.6064211366
 31
0.0
  0
LINE
  5
5D
330
1F
100
AcDbEntity
  8
0
  6
CONTINUOUS
 62
     7
100
AcDbLine
 10
2.8210345579
 20
1.8564211366
 30
0.0
 11
4.7981841288
 21
1.8564211366
 31
0.0
  0
LINE
  5
5E
330
1F
100
AcDbEntity
  8
0
  6
CONTINUOUS
 62
     7
100
AcDbLine
 10
3.8190146875
 20
2.3564211366
 30
0.0
 11
3.8190146875
 21
0.5883479999
 31
0.0
  0
LINE
  5
5F
330
1F
100
AcDbEntity
  8
0
  6
CONTINUOUS
 62
     7
100
AcDbLine
 10
6.1796352514
 20
2.2020813496
 30
0.0
 11
4.7981841288
 21
2.2020813496
 31
0.0
  0
LINE
  5
60
330
1F
100
AcDbEntity
  8
0
  6
CONTINUOUS
 62
     7
100
AcDbLine
 10
7.8712070044
 20
1.6064211366
 30
0.0
 11
6.1796352514
 21
1.6064211366
 31
0.0
  0
LINE
  5
61
330
1F
100
AcDbEntity
  8
0
  6
CONTINUOUS
 62
     7
100
AcDbLine
 10
7.8712070044
 20
1.4189211366
 30
0.0
 11
6.1796352514
 21
1.4189211366
 31
0.0
  0
LINE
  5
62
330
1F
100
AcDbEntity
  8
0
  6
CONTINUOUS
 62
     7
100
AcDbLine
 10
2.8210345579
 20
2.1064211366
 30
0.0
 11
4.7981841288
 21
2.1064211366
 31
0.0
  0
LINE
  5
63
330
1F
100
AcDbEntity
  8
0
  6
CONTINUOUS
 62
     7
100
AcDbLine
 10
4.7981841288
 20
1.3957965305
 30
0.0
 11
6.1796352514
 21
1.3957965305
 31
0.0
  0
LINE
  5
64
330
1F
100
AcDbEntity
  8
0
  6
CONTINUOUS
 62
     7
100
AcDbLine
 10
2.8210345579
 20
0.8564211366
 30
0.0
 11
4.7981841288
 21
0.8564211366
 31
0.0
  0
LINE
  5
65
330
1F
100
AcDbEntity
  8
0
  6
CONTINUOUS
 62
     7
100
AcDbLine
 10
1.1838252943
 20
0.3920731707
 30
0.0
 11
1.1838252943
 21
1.3064211366
 31
0.0
  0
LINE
  5
66
330
1F
100
AcDbEntity
  8
0
  6
CONTINUOUS
 62
     7
100
AcDbLine
 10
2.8210345579
 20
1.3064211366
 30
0.0
 11
1.1838252943
 21
1.3064211366
 31
0.0
  0
LINE
  5
67
330
1F
100
AcDbEntity
  8
0
  6
CONTINUOUS
 62
     7
100
AcDbLine
 10
8.660927
 20
0.3920731707
 30
0.0
 11
8.660927
 21
0.3072739649
 31
0.0
  0
LINE
  5
68
330
1F
100
AcDbEntity
  8
0
  6
CONTINUOUS
 62
     7
100
AcDbLine
 10
6.692177
 20
0.3920731707
 30
0.0
 11
6.692177
 21
0.3072739649
 31
0.0
  0
LINE
  5
69
330
1F
100
AcDbEntity
  8
0
  6
CONTINUOUS
 62
     7
100
AcDbLine
 10
4.723427
 20
0.3920731707
 30
0.0
 11
4.723427
 21
0.3072739649
 31
0.0
  0
LINE
  5
6A
330
1F
100
AcDbEntity
  8
0
  6
CONTINUOUS
 62
     7
100
AcDbLine
 10
2.754677
 20
0.3920731707
 30
0.0
 11
2.754677
 21
0.3072739649
 31
0.0
  0
LINE
  5
6B
330
1F
100
AcDbEntity
  8
0
  6
CONTINUOUS
 62
     7
100
AcDbLine
 10
2.754677
 20
0.3920731707
 30
0.0
 11
2.7672319738
 21
0.3575
 31
0.0
  0
LINE
  5
6C
330
1F
100
AcDbEntity
  8
0
  6
CONTINUOUS
 62
     7
100
AcDbLine
 10
2.7672319738
 20
0.3575
 30
0.0
 11
2.7414258825
 21
0.3575
 31
0.0
  0
LINE
  5
6D
330
1F
100
AcDbEntity
  8
0
  6
CONTINUOUS
 62
     7
100
AcDbLine
 10
2.7414258825
 20
0.3575
 30
0.0
 11
2.754677
 21
0.3920731707
 31
0.0
  0
MTEXT
  5
91
330
1F
100
AcDbEntity
  8
0
  6
CONTINUOUS
 62
     7
100
AcDbMText
 10
4.9775846961
 20
0.5178452352
 30
0.0
 40
0.0625
 41
0.0
 71
     1
 72
     1
  1
DO NOT SCALE DRAWING
  7
SLDTEXTSTYLE0
  0
MTEXT
  5
92
330
1F
100
AcDbEntity
  8
0
  6
CONTINUOUS
 62
     7
100
AcDbMText
 10
8.5726240975
 20
0.9417064595
 30
0.0
 40
0.125
 41
0.0
 71
     1
 72
     1
  1
CL7-32_CLAMP
  7
SLDTEXTSTYLE0
  0
MTEXT
  5
94
330
1F
100
AcDbEntity
  8
0
  6
CONTINUOUS
 62
     7
100
AcDbMText
 10
9.7571278483
 20
0.5524239532
 30
0.0
 40
0.1
 41
0.0
 71
     1
 72
     1
  1
SHEET 1 OF 1
  7
SLDTEXTSTYLE1
  0
MTEXT
  5
95
330
1F
100
AcDbEntity
  8
0
  6
CONTINUOUS
 62
     7
100
AcDbMText
 10
4.8448077858
 20
2.3132954224
 30
0.0
 40
0.07
 41
0.0
 71
     1
 72
     1
  1
UNLESS OTHERWISE SPECIFIED:
  7
SLDTEXTSTYLE0
  0
MTEXT
  5
96
330
1F
100
AcDbEntity
  8
0
  6
CONTINUOUS
 62
     7
100
AcDbMText
 10
7.9586139647
 20
0.5520987879
 30
0.0
 40
0.1
 41
0.0
 71
     1
 72
     1
  1
SCALE: 1:1
  7
SLDTEXTSTYLE0
  0
MTEXT
  5
97
330
1F
100
AcDbEntity
  8
0
  6
CONTINUOUS
 62
     7
100
AcDbMText
 10
8.7023691647
 20
0.5486763345
 30
0.0
 40
0.1
 41
0.0
 71
     1
 72
     1
  1
WEIGHT: 
  7
SLDTEXTSTYLE0
  0
MTEXT
  5
98
330
1F
100
AcDbEntity
  8
0
  6
CONTINUOUS
 62
     7
100
AcDbMText
 10
10.2277580983
 20
1.081966299
 30
0.0
 40
0.1
 41
0.0
 71
     1
 72
     1
  1
REV
  7
SLDTEXTSTYLE0
  0
MTEXT
  5
9A
330
1F
100
AcDbEntity
  8
0
  6
CONTINUOUS
 62
     7
100
AcDbMText
 10
8.2984570898
 20
1.0858725293
 30
0.0
 40
0.1
 41
0.0
 71
     1
 72
     1
  1
DWG.  NO.
  7
SLDTEXTSTYLE2
  0
MTEXT
  5
9B
330
1F
100
AcDbEntity
  8
0
  6
CONTINUOUS
 62
     7
100
AcDbMText
 10
7.9598482632
 20
0.9442140768
 30
0.0
 40
0.25
 41
0.0
 71
     1
 72
     1
  1
A
  7
SLDTEXTSTYLE0
  0
MTEXT
  5
9C
330
1F
100
AcDbEntity
  8
0
  6
CONTINUOUS
 62
     7
100
AcDbMText
 10
7.9519581822
 20
1.0872713483
 30
0.0
 40
0.1
 41
0.0
 71
     1
 72
     1
  1
SIZE
  7
SLDTEXTSTYLE0
  0
MTEXT
  5
9D
330
1F
100
AcDbEntity
  8
0
  6
CONTINUOUS
 62
     7
100
AcDbMText
 10
7.9170704177
 20
1.9547881128
 30
0.0
 40
0.1
 41
0.0
 71
     1
 72
     1
  1
TITLE:
  7
SLDTEXTSTYLE0
  0
MTEXT
  5
9E
330
1F
100
AcDbEntity
  8
0
  6
CONTINUOUS
 62
     7
100
AcDbMText
 10
7.0363774929
 20
2.2906161274
 30
0.0
 40
0.065
 41
0.0
 71
     1
 72
     1
  1
NAME
  7
SLDTEXTSTYLE0
  0
MTEXT
  5
9F
330
1F
100
AcDbEntity
  8
0
  6
CONTINUOUS
 62
     7
100
AcDbMText
 10
7.5281510634
 20
2.2888799118
 30
0.0
 40
0.065
 41
0.0
 71
     1
 72
     1
  1
DATE
  7
SLDTEXTSTYLE0
  0
MTEXT
  5
A0
330
1F
100
AcDbEntity
  8
0
  6
CONTINUOUS
 62
     7
100
AcDbMText
 10
6.2277147029
 20
1.1876913145
 30
0.0
 40
0.065
 41
0.0
 71
     1
 72
     1
  1
COMMENTS:
  7
SLDTEXTSTYLE0
  0
MTEXT
  5
A1
330
1F
100
AcDbEntity
  8
0
  6
CONTINUOUS
 62
     7
100
AcDbMText
 10
6.2268411461
 20
1.3536101679
 30
0.0
 40
0.065
 41
0.0
 71
     1
 72
     1
  1
Q.A.
  7
SLDTEXTSTYLE0
  0
MTEXT
  5
A2
330
1F
100
AcDbEntity
  8
0
  6
CONTINUOUS
 62
     7
100
AcDbMText
 10
6.2284654509
 20
1.5395328424
 30
0.0
 40
0.065
 41
0.0
 71
     1
 72
     1
  1
MFG APPR.
  7
SLDTEXTSTYLE0
  0
MTEXT
  5
A3
330
1F
100
AcDbEntity
  8
0
  6
CONTINUOUS
 62
     7
100
AcDbMText
 10
6.2235171344
 20
1.7267501785
 30
0.0
 40
0.065
 41
0.0
 71
     1
 72
     1
  1
ENG APPR.
  7
SLDTEXTSTYLE0
  0
MTEXT
  5
A4
330
1F
100
AcDbEntity
  8
0
  6
CONTINUOUS
 62
     7
100
AcDbMText
 10
6.2264103951
 20
1.9092699088
 30
0.0
 40
0.065
 41
0.0
 71
     1
 72
     1
  1
CHECKED
  7
SLDTEXTSTYLE0
  0
MTEXT
  5
A5
330
1F
100
AcDbEntity
  8
0
  6
CONTINUOUS
 62
     7
100
AcDbMText
 10
6.2242794356
 20
2.1016301232
 30
0.0
 40
0.065
 41
0.0
 71
     1
 72
     1
  1
DRAWN
  7
SLDTEXTSTYLE0
  0
MTEXT
  5
A6
330
1F
100
AcDbEntity
  8
0
  6
CONTINUOUS
 62
     7
100
AcDbMText
 10
4.8208600979
 20
0.834523235
 30
0.0
 40
0.06
 41
0.0
 71
     1
 72
     1
  1
FINISH
  7
SLDTEXTSTYLE0
  0
MTEXT
  5
A7
330
1F
100
AcDbEntity
  8
0
  6
CONTINUOUS
 62
     7
100
AcDbMText
 10
4.8181240648
 20
1.1028217587
 30
0.0
 40
0.06
 41
0.0
 71
     1
 72
     1
  1
MATERIAL
  7
SLDTEXTSTYLE0
  0
INSERT
  5
AD
330
1F
100
AcDbEntity
  8
0
  6
CONTINUOUS
 62
     7
100
AcDbBlockReference
  2
SW_NOTE_0
 10
4.8231926633
 20
1.2646542947
 30
0.0
  0
INSERT
  5
BD
330
1F
100
AcDbEntity
  8
0
  6
CONTINUOUS
 62
     7
100
AcDbBlockReference
  2
SW_NOTE_1
 10
4.8353339353
 20
2.0049168724
 30
0.0
  0
MTEXT
  5
BE
330
1F
100
AcDbEntity
  8
0
  6
CONTINUOUS
 62
     7
100
AcDbMText
 10
3.5531400086
 20
0.5200091997
 30
0.0
 40
0.0625
 41
0.0
 71
     1
 72
     1
  1
APPLICATION
  7
SLDTEXTSTYLE0
  0
MTEXT
  5
BF
330
1F
100
AcDbEntity
  8
0
  6
CONTINUOUS
 62
     7
100
AcDbMText
 10
4.1005607758
 20
0.7502454275
 30
0.0
 40
0.0625
 41
0.0
 71
     1
 72
     1
  1
USED ON
  7
SLDTEXTSTYLE0
  0
MTEXT
  5
C0
330
1F
100
AcDbEntity
  8
0
  6
CONTINUOUS
 62
     7
100
AcDbMText
 10
3.1040019536
 20
0.7492094783
 30
0.0
 40
0.0625
 41
0.0
 71
     1
 72
     1
  1
NEXT ASSY
  7
SLDTEXTSTYLE0
  0
MTEXT
  5
C1
330
1F
100
AcDbEntity
  8
0
  6
CONTINUOUS
 62
     7
100
AcDbMText
 10
1.3712489489
 20
1.2496672684
 30
0.0
 40
0.06
 41
0.0
 71
     1
 72
     1
  1
PROPRIETARY AND CONFIDENTIAL
  7
SLDTEXTSTYLE0
  0
INSERT
  5
CC
330
1F
100
AcDbEntity
  8
0
  6
CONTINUOUS
 62
     7
100
AcDbBlockReference
  2
SW_NOTE_2
 10
1.2226209074
 20
1.0313492921
 30
0.0
  0
MTEXT
  5
CD
330
1F
100
AcDbEntity
  8
0
  6
CONTINUOUS
 62
     7
100
AcDbMText
 10
1.7387909509
 20
0.3105864247
 30
0.0
 40
0.09375
 41
0.0
 71
     1
 72
     1
  1
5
  7
SLDTEXTSTYLE0
  0
MTEXT
  5
CE
330
1F
100
AcDbEntity
  8
0
  6
CONTINUOUS
 62
     7
100
AcDbMText
 10
3.723800327
 20
0.3137237518
 30
0.0
 40
0.09375
 41
0.0
 71
     1
 72
     1
  1
4
  7
SLDTEXTSTYLE0
  0
MTEXT
  5
CF
330
1F
100
AcDbEntity
  8
0
  6
CONTINUOUS
 62
     7
100
AcDbMText
 10
5.6324457277
 20
0.3116191842
 30
0.0
 40
0.09375
 41
0.0
 71
     1
 72
     1
  1
3
  7
SLDTEXTSTYLE0
  0
MTEXT
  5
D0
330
1F
100
AcDbEntity
  8
0
  6
CONTINUOUS
 62
     7
100
AcDbMText
 10
7.6059721724
 20
0.3124391351
 30
0.0
 40
0.09375
 41
0.0
 71
     1
 72
     1
  1
2
  7
SLDTEXTSTYLE0
  0
MTEXT
  5
D1
330
1F
100
AcDbEntity
  8
0
  6
CONTINUOUS
 62
     7
100
AcDbMText
 10
9.6619921328
 20
0.301372012
 30
0.0
 40
0.09375
 41
0.0
 71
     1
 72
     1
  1
1
  7
SLDTEXTSTYLE0
  0
LINE
  5
D2
330
1F
100
AcDbEntity
  8
0
  6
CONTINUOUS
 62
     7
100
AcDbLine
 10
3.0116754735
 20
3.1287570265
 30
0.0
 11
3.6415967333
 21
3.1287570265
 31
0.0
  0
LINE
  5
D3
330
1F
100
AcDbEntity
  8
0
  6
CONTINUOUS
 62
     7
100
AcDbLine
 10
2.5295494892
 20
3.1287570265
 30
0.0
 11
2.9919904341
 21
3.1287570265
 31
0.0
  0
LINE
  5
D4
330
1F
100
AcDbEntity
  8
0
  6
CONTINUOUS
 62
     7
100
AcDbLine
 10
2.9919904341
 20
4.3885995462
 30
0.0
 11
2.5295494892
 21
4.3885995462
 31
0.0
  0
LINE
  5
D5
330
1F
100
AcDbEntity
  8
0
  6
CONTINUOUS
 62
     7
100
AcDbLine
 10
4.1237227176
 20
4.3885995462
 30
0.0
 11
3.0116754735
 21
4.3885995462
 31
0.0
  0
LINE
  5
D6
330
1F
100
AcDbEntity
  8
0
  6
CONTINUOUS
 62
     7
100
AcDbLine
 10
4.1337227176
 20
4.3785995462
 30
0.0
 11
4.1237227176
 21
4.3885995462
 31
0.0
  0
LINE
  5
D7
330
1F
100
AcDbEntity
  8
0
  6
CONTINUOUS
 62
     7
100
AcDbLine
 10
2.5295494892
 20
4.3885995462
 30
0.0
 11
2.5195494892
 21
4.3785995462
 31
0.0
  0
LINE
  5
D8
330
1F
100
AcDbEntity
  8
0
  6
CONTINUOUS
 62
     7
100
AcDbLine
 10
2.5195494892
 20
3.1387570265
 30
0.0
 11
2.5295494892
 21
3.1287570265
 31
0.0
  0
LINE
  5
D9
330
1F
100
AcDbEntity
  8
0
  6
CONTINUOUS
 62
     7
100
AcDbLine
 10
2.5295494892
 20
4.3885995462
 30
0.0
 11
2.5295494892
 21
3.1287570265
 31
0.0
  0
LINE
  5
DA
330
1F
100
AcDbEntity
  8
0
  6
CONTINUOUS
 62
     7
100
AcDbLine
 10
2.9919904341
 20
4.2339812969
 30
0.0
 11
2.9919904341
 21
4.3885995462
 31
0.0
  0
LINE
  5
DB
330
1F
100
AcDbEntity
  8
0
  6
CONTINUOUS
 62
     7
100
AcDbLine
 10
3.0116754735
 20
4.2339812969
 30
0.0
 11
2.9919904341
 21
4.2339812969
 31
0.0
  0
LINE
  5
DC
330
1F
100
AcDbEntity
  8
0
  6
CONTINUOUS
 62
     7
100
AcDbLine
 10
3.0116754735
 20
3.2833752759
 30
0.0
 11
3.0116754735
 21
3.1287570265
 31
0.0
  0
LINE
  5
DD
330
1F
100
AcDbEntity
  8
0
  6
CONTINUOUS
 62
     7
100
AcDbLine
 10
3.0116754735
 20
4.3885995462
 30
0.0
 11
3.0116754735
 21
4.2339812969
 31
0.0
  0
LINE
  5
DE
330
1F
100
AcDbEntity
  8
0
  6
CONTINUOUS
 62
     7
100
AcDbLine
 10
2.9919904341
 20
3.2833752759
 30
0.0
 11
3.0116754735
 21
3.2833752759
 31
0.0
  0
LINE
  5
DF
330
1F
100
AcDbEntity
  8
0
  6
CONTINUOUS
 62
     7
100
AcDbLine
 10
2.9919904341
 20
3.1287570265
 30
0.0
 11
2.9919904341
 21
3.2833752759
 31
0.0
  0
LINE
  5
E0
330
1F
100
AcDbEntity
  8
0
  6
CONTINUOUS
 62
     7
100
AcDbLine
 10
4.1237227176
 20
3.1288339259
 30
0.0
 11
3.6612817727
 21
3.1288339259
 31
0.0
  0
LINE
  5
E1
330
1F
100
AcDbEntity
  8
0
  6
CONTINUOUS
 62
     7
100
AcDbLine
 10
3.6612817727
 20
3.9752137195
 30
0.0
 11
3.6612817727
 21
3.1288339259
 31
0.0
  0
LINE
  5
E2
330
1F
100
AcDbEntity
  8
0
  6
CONTINUOUS
 62
     7
100
AcDbLine
 10
3.6415967333
 20
3.9752137195
 30
0.0
 11
3.6612817727
 21
3.9752137195
 31
0.0
  0
LINE
  5
E3
330
1F
100
AcDbEntity
  8
0
  6
CONTINUOUS
 62
     7
100
AcDbLine
 10
3.6415967333
 20
3.1287570265
 30
0.0
 11
3.6415967333
 21
3.9752137195
 31
0.0
  0
LINE
  5
E4
330
1F
100
AcDbEntity
  8
0
  6
CONTINUOUS
 62
     7
100
AcDbLine
 10
4.1237227176
 20
3.1288339259
 30
0.0
 11
4.1237227176
 21
4.3885995462
 31
0.0
  0
SPLINE
  5
E5
330
1F
100
AcDbEntity
  8
0
  6
CONTINUOUS
 62
     7
100
AcDbSpline
210
0.0
220
0.0
230
1.0
 70
     8
 71
     3
 72
    72
 73
    68
 74
     0
 42
0.00000001
 43
0.00000001
 40
-0.0312500000000002
 40
-0.0312500000000002
 40
0.0
 40
0.0
 40
0.0624999999999999
 40
0.0624999999999999
 40
0.1249999999999999
 40
0.1249999999999999
 40
0.1562499999999999
 40
0.1562499999999999
 40
0.1874999999999999
 40
0.1874999999999999
 40
0.2187499999999999
 40
0.2187499999999999
 40
0.2499999999999999
 40
0.2499999999999999
 40
0.265625
 40
0.265625
 40
0.28125
 40
0.28125
 40
0.2968750000000001
 40
0.2968750000000001
 40
0.3125000000000001
 40
0.3125000000000001
 40
0.3281250000000001
 40
0.3281250000000001
 40
0.3437500000000002
 40
0.3437500000000002
 40
0.3750000000000001
 40
0.3750000000000001
 40
0.4375
 40
0.4375
 40
0.4999999999999999
 40
0.4999999999999999
 40
0.5312499999999998
 40
0.5312499999999998
 40
0.5624999999999996
 40
0.5624999999999996
 40
0.5937499999999994
 40
0.5937499999999994
 40
0.6249999999999993
 40
0.6249999999999993
 40
0.6562499999999991
 40
0.6562499999999991
 40
0.687499999999999
 40
0.687499999999999
 40
0.7031249999999989
 40
0.7031249999999989
 40
0.7187499999999988
 40
0.7187499999999988
 40
0.7499999999999988
 40
0.7499999999999988
 40
0.7812499999999987
 40
0.7812499999999987
 40
0.7968749999999988
 40
0.7968749999999988
 40
0.8124999999999989
 40
0.8124999999999989
 40
0.8437499999999991
 40
0.8437499999999991
 40
0.8749999999999992
 40
0.8749999999999992
 40
0.9062499999999994
 40
0.9062499999999994
 40
0.9374999999999997
 40
0.9374999999999997
 40
0.9687499999999998
 40
0.9687499999999998
 40
1.0
 40
1.0
 40
1.0625
 40
1.0625
 10
4.054982560077466
 20
3.355001749790449
 30
0.0
 10
4.054982560077466
 20
3.32635855380967
 30
0.0
 10
4.05162150259047
 20
3.308662108593705
 30
0.0
 10
4.039782048342624
 20
3.275719896299069
 30
0.0
 10
4.031432677438724
 20
3.260894223128708
 30
0.0
 10
4.015624935579742
 20
3.240960012744218
 30
0.0
 10
4.009754998984693
 20
3.234661295094743
 30
0.0
 10
3.996870453211686
 20
3.22297272381821
 30
0.0
 10
3.989871558224235
 20
3.217577990720075
 30
0.0
 10
3.974383466598581
 20
3.207709159132915
 30
0.0
 10
3.965846960238936
 20
3.203211379587121
 30
0.0
 10
3.946938070613143
 20
3.195587185684192
 30
0.0
 10
3.93635541788063
 20
3.192383732064163
 30
0.0
 10
3.918871881894661
 20
3.1893181917476
 30
0.0
 10
3.912673352889094
 20
3.188581908319245
 30
0.0
 10
3.900208026270332
 20
3.187873244885494
 30
0.0
 10
3.893791570485195
 20
3.187893014657385
 30
0.0
 10
3.881296369542463
 20
3.188684733772828
 30
0.0
 10
3.875227712973214
 20
3.189443382751847
 30
0.0
 10
3.863515646372459
 20
3.191569697168817
 30
0.0
 10
3.858030202271463
 20
3.192903389347998
 30
0.0
 10
3.847581207957445
 20
3.195996242972463
 30
0.0
 10
3.842593207608117
 20
3.197768389354903
 30
0.0
 10
3.833154896285052
 20
3.201629590293218
 30
0.0
 10
3.828718447000243
 20
3.203709230001317
 30
0.0
 10
3.816041110444481
 20
3.210342516658789
 30
0.0
 10
3.80842029934478
 20
3.215286470790953
 30
0.0
 10
3.787281863566188
 20
3.231576662212842
 30
0.0
 10
3.775874638322638
 20
3.24401424304859
 30
0.0
 10
3.757184442920237
 20
3.272008684233864
 30
0.0
 10
3.749900920125828
 20
3.287808636493276
 30
0.0
 10
3.743091952752079
 20
3.313285957658127
 30
0.0
 10
3.741492300975504
 20
3.322098498438228
 30
0.0
 10
3.739834362842005
 20
3.340412008825924
 30
0.0
 10
3.739788162410941
 20
3.349993183432965
 30
0.0
 10
3.741540476821685
 20
3.369334192391768
 30
0.0
 10
3.743320675111261
 20
3.379123285039301
 30
0.0
 10
3.749001181743086
 20
3.398867595311309
 30
0.0
 10
3.752956445839084
 20
3.408896109230664
 30
0.0
 10
3.763052524475865
 20
3.428168343484154
 30
0.0
 10
3.769198876025435
 20
3.437501466540172
 30
0.0
 10
3.78406359538302
 20
3.455300092314455
 30
0.0
 10
3.792528836063117
 20
3.463446489187396
 30
0.0
 10
3.806720019808442
 20
3.474271853310547
 30
0.0
 10
3.811706566239207
 20
3.477653179512632
 30
0.0
 10
3.822226721595873
 20
3.483913804128744
 30
0.0
 10
3.827737526054568
 20
3.486772060317973
 30
0.0
 10
3.844594971983235
 20
3.494290479460719
 30
0.0
 10
3.856413450065799
 20
3.498004407104367
 30
0.0
 10
3.881278479874648
 20
3.50260585455986
 30
0.0
 10
3.893793419761059
 20
3.503390270570451
 30
0.0
 10
3.912592617052287
 20
3.50233525219519
 30
0.0
 10
3.918915501618412
 20
3.501598354766861
 30
0.0
 10
3.931295705333287
 20
3.499394212575231
 30
0.0
 10
3.937357312692324
 20
3.497933934558469
 30
0.0
 10
3.95516791846489
 20
3.492521101215676
 30
0.0
 10
3.966687605443818
 20
3.487446486064714
 30
0.0
 10
3.987703354979171
 20
3.475116020357266
 30
0.0
 10
3.99732263569296
 20
3.467832776269983
 30
0.0
 10
4.014523523204275
 20
3.451504436819961
 30
0.0
 10
4.021895210259954
 20
3.442681128030173
 30
0.0
 10
4.03445760642737
 20
3.424003045478424
 30
0.0
 10
4.039588516850175
 20
3.414184972691781
 30
0.0
 10
4.047518934774481
 20
3.394519745143044
 30
0.0
 10
4.050394867265021
 20
3.38450704671041
 30
0.0
 10
4.054121792583387
 20
3.364731214845277
 30
0.0
 10
4.054982560077466
 20
3.355001749790449
 30
0.0
 10
4.054982560077466
 20
3.32635855380967
 30
0.0
  0
LINE
  5
E6
330
1F
100
AcDbEntity
  8
0
  6
CONTINUOUS
 62
     7
100
AcDbLine
 10
4.1337227176
 20
4.3785995462
 30
0.0
 11
4.1337227176
 21
3.1388351666
 31
0.0
  0
LINE
  5
E7
330
1F
100
AcDbEntity
  8
0
  6
CONTINUOUS
 62
     7
100
AcDbLine
 10
4.1237227176
 20
3.1288339259
 30
0.0
 11
4.1337227176
 21
3.1388351666
 31
0.0
  0
LINE
  5
E8
330
1F
100
AcDbEntity
  8
0
  6
CONTINUOUS
 62
     7
100
AcDbLine
 10
2.5195494892
 20
3.1387570265
 30
0.0
 11
2.5195494892
 21
4.3785995462
 31
0.0
  0
CIRCLE
  5
E9
330
1F
100
AcDbEntity
  8
0
  6
CONTINUOUS
 62
     7
100
AcDbCircle
 10
3.8975022451
 20
3.3454540178
 30
0.0
 40
0.1299212598425199
  0
LINE
  5
EA
330
1F
100
AcDbEntity
  8
0
  6
CONTINUOUS
 62
     7
100
AcDbLine
 10
3.8975022451
 20
3.2772630411
 30
0.0
 11
3.9565573632
 21
3.3113585295
 31
0.0
  0
LINE
  5
EB
330
1F
100
AcDbEntity
  8
0
  6
CONTINUOUS
 62
     7
100
AcDbLine
 10
3.9565573632
 20
3.3113585295
 30
0.0
 11
3.9565573632
 21
3.3795495061
 31
0.0
  0
LINE
  5
EC
330
1F
100
AcDbEntity
  8
0
  6
CONTINUOUS
 62
     7
100
AcDbLine
 10
3.838447127
 20
3.3113585295
 30
0.0
 11
3.8975022451
 21
3.2772630411
 31
0.0
  0
LINE
  5
ED
330
1F
100
AcDbEntity
  8
0
  6
CONTINUOUS
 62
     7
100
AcDbLine
 10
3.838447127
 20
3.3795495061
 30
0.0
 11
3.838447127
 21
3.3113585295
 31
0.0
  0
LINE
  5
EE
330
1F
100
AcDbEntity
  8
0
  6
CONTINUOUS
 62
     7
100
AcDbLine
 10
3.8975022451
 20
3.4136449945
 30
0.0
 11
3.838447127
 21
3.3795495061
 31
0.0
  0
LINE
  5
EF
330
1F
100
AcDbEntity
  8
0
  6
CONTINUOUS
 62
     7
100
AcDbLine
 10
3.9565573632
 20
3.3795495061
 30
0.0
 11
3.8975022451
 21
3.4136449945
 31
0.0
  0
CIRCLE
  5
F0
330
1F
100
AcDbEntity
  8
0
  6
CONTINUOUS
 62
     7
100
AcDbCircle
 10
3.8975022451
 20
3.3454540178
 30
0.0
 40
0.1377952755905514
  0
SPLINE
  5
F1
330
1F
100
AcDbEntity
  8
0
  6
HIDDEN
 62
     7
100
AcDbSpline
210
0.0
220
0.0
230
1.0
 70
     8
 71
     3
 72
    75
 73
    71
 74
     0
 42
0.00000001
 43
0.00000001
 40
-0.015625
 40
-0.015625
 40
0.0
 40
0.0
 40
0.0156250000000001
 40
0.0156250000000001
 40
0.0312500000000001
 40
0.0312500000000001
 40
0.0625000000000004
 40
0.0625000000000004
 40
0.0937500000000007
 40
0.0937500000000007
 40
0.1250000000000009
 40
0.1250000000000009
 40
0.1875000000000013
 40
0.1875000000000013
 40
0.2500000000000017
 40
0.2500000000000017
 40
0.2812500000000019
 40
0.2812500000000019
 40
0.312500000000002
 40
0.312500000000002
 40
0.3437500000000022
 40
0.3437500000000022
 40
0.3750000000000023
 40
0.3750000000000023
 40
0.4062500000000024
 40
0.4062500000000024
 40
0.4375000000000026
 40
0.4375000000000026
 40
0.4687500000000027
 40
0.4687500000000027
 40
0.4843750000000027
 40
0.4843750000000027
 40
0.5000000000000027
 40
0.5156250000000027
 40
0.5156250000000027
 40
0.5312500000000026
 40
0.5312500000000026
 40
0.5625000000000024
 40
0.5625000000000024
 40
0.5937500000000022
 40
0.5937500000000022
 40
0.6093750000000022
 40
0.6093750000000022
 40
0.6250000000000021
 40
0.6250000000000021
 40
0.656250000000002
 40
0.656250000000002
 40
0.6875000000000018
 40
0.6875000000000018
 40
0.7187500000000016
 40
0.7187500000000016
 40
0.7500000000000013
 40
0.7500000000000013
 40
0.7812500000000012
 40
0.7812500000000012
 40
0.812500000000001
 40
0.812500000000001
 40
0.8437500000000008
 40
0.8437500000000008
 40
0.8750000000000007
 40
0.8750000000000007
 40
0.9062500000000004
 40
0.9062500000000004
 40
0.9375000000000002
 40
0.9375000000000002
 40
0.9687500000000001
 40
0.9687500000000001
 40
0.984375
 40
0.984375
 40
1.0
 40
1.0
 40
1.015625
 40
1.015625
 10
2.762156060117267
 20
3.492037944526897
 30
0.0
 10
2.749383863187271
 20
3.492037944526897
 30
0.0
 10
2.743168375099035
 20
3.491207893511786
 30
0.0
 10
2.731028800015486
 20
3.488138641788713
 30
0.0
 10
2.725114968195624
 20
3.485883780407246
 30
0.0
 10
2.708533933500186
 20
3.477834416693488
 30
0.0
 10
2.698559669300654
 20
3.470632320505215
 30
0.0
 10
2.680702137626935
 20
3.455095638110427
 30
0.0
 10
2.672703539829356
 20
3.446675628835368
 30
0.0
 10
2.657915874949064
 20
3.429137254179119
 30
0.0
 10
2.651215526332016
 20
3.420091187384751
 30
0.0
 10
2.632964906458782
 20
3.392867696900083
 30
0.0
 10
2.623069915275032
 20
3.374449896216296
 30
0.0
 10
2.607543646491167
 20
3.337601445300846
 30
0.0
 10
2.602211859418515
 20
3.319794985912001
 30
0.0
 10
2.598526836887998
 20
3.294224272548503
 30
0.0
 10
2.598026708570291
 20
3.28588172249598
 30
0.0
 10
2.598815255299092
 20
3.26956129020614
 30
0.0
 10
2.600099366918708
 20
3.261786264918959
 30
0.0
 10
2.604680399719824
 20
3.247051798734298
 30
0.0
 10
2.608006949552676
 20
3.240033968177527
 30
0.0
 10
2.616985434402113
 20
3.226998427287662
 30
0.0
 10
2.622546882392679
 20
3.221082660900263
 30
0.0
 10
2.636073403671671
 20
3.210361666330848
 30
0.0
 10
2.644126611869139
 20
3.205545767051139
 30
0.0
 10
2.662038460059585
 20
3.197422026007494
 30
0.0
 10
2.671993139048899
 20
3.19402661281406
 30
0.0
 10
2.693975540511066
 20
3.188502631314114
 30
0.0
 10
2.705528352098858
 20
3.186485426930367
 30
0.0
 10
2.723693982086576
 20
3.184427014420318
 30
0.0
 10
2.729938185172919
 20
3.18390259526948
 30
0.0
 10
2.742466779682645
 20
3.183201630861679
 30
0.0
 10
2.754996691466784
 20
3.182844156823721
 30
0.0
 10
2.767529171552252
 20
3.183147003819456
 30
0.0
 10
2.780062965370256
 20
3.183791701517003
 30
0.0
 10
2.786329645601135
 20
3.184288409226512
 30
0.0
 10
2.804580107969877
 20
3.186267675760427
 30
0.0
 10
2.816253227507709
 20
3.188245535713452
 30
0.0
 10
2.838342964797545
 20
3.193659539979418
 30
0.0
 10
2.848385538208206
 20
3.197001107495086
 30
0.0
 10
2.862054763200121
 20
3.203079266349359
 30
0.0
 10
2.866393207862324
 20
3.205297690112922
 30
0.0
 10
2.874413123773904
 20
3.210014250470778
 30
0.0
 10
2.878119158109234
 20
3.212520683595386
 30
0.0
 10
2.888383648008611
 20
3.220502142882046
 30
0.0
 10
2.894129568914038
 20
3.226507277572867
 30
0.0
 10
2.903203825326004
 20
3.239440411269931
 30
0.0
 10
2.906583433088625
 20
3.246377848463943
 30
0.0
 10
2.911331113157283
 20
3.26123707120001
 30
0.0
 10
2.912649873009183
 20
3.269032299691682
 30
0.0
 10
2.913522353105495
 20
3.285129692237895
 30
0.0
 10
2.913083901560121
 20
3.29346653455145
 30
0.0
 10
2.910671537370342
 20
3.310719386990349
 30
0.0
 10
2.908688867731901
 20
3.319614394924445
 30
0.0
 10
2.903470705273108
 20
3.337477232832923
 30
0.0
 10
2.900227366219787
 20
3.346507225395704
 30
0.0
 10
2.892574441575567
 20
3.364746152501025
 30
0.0
 10
2.888165301326417
 20
3.373955458894427
 30
0.0
 10
2.878153911854356
 20
3.392513442261883
 30
0.0
 10
2.872594877845322
 20
3.401776189088502
 30
0.0
 10
2.860441093639132
 20
3.419928672860531
 30
0.0
 10
2.853831224449176
 20
3.428859511874946
 30
0.0
 10
2.839259133862763
 20
3.446204914864276
 30
0.0
 10
2.831317849042689
 20
3.454632830708559
 30
0.0
 10
2.813272091550375
 20
3.470421656702023
 30
0.0
 10
2.803339176425793
 20
3.477641148966943
 30
0.0
 10
2.786578193620131
 20
3.485824703112439
 30
0.0
 10
2.780768295380667
 20
3.488054959243561
 30
0.0
 10
2.768561123630778
 20
3.491177954055153
 30
0.0
 10
2.762156060117267
 20
3.492037944526897
 30
0.0
 10
2.749383863187271
 20
3.492037944526897
 30
0.0
  0
SPLINE
  5
F2
330
1F
100
AcDbEntity
  8
0
  6
HIDDEN
 62
     7
100
AcDbSpline
210
0.0
220
0.0
230
1.0
 70
     8
 71
     3
 72
    58
 73
    54
 74
     0
 42
0.00000001
 43
0.00000001
 40
-0.0312500000000001
 40
-0.0312500000000001
 40
0.0
 40
0.0
 40
0.03125
 40
0.03125
 40
0.0624999999999999
 40
0.0624999999999999
 40
0.0937499999999999
 40
0.0937499999999999
 40
0.1249999999999998
 40
0.1249999999999998
 40
0.1874999999999999
 40
0.1874999999999999
 40
0.2187499999999999
 40
0.2187499999999999
 40
0.2499999999999999
 40
0.2499999999999999
 40
0.3124999999999998
 40
0.3124999999999998
 40
0.3749999999999998
 40
0.3749999999999998
 40
0.4062499999999998
 40
0.4062499999999998
 40
0.4374999999999997
 40
0.4374999999999997
 40
0.4687499999999997
 40
0.4687499999999997
 40
0.4999999999999997
 40
0.4999999999999997
 40
0.5312499999999997
 40
0.5312499999999997
 40
0.5624999999999996
 40
0.5624999999999996
 40
0.5937499999999996
 40
0.5937499999999996
 40
0.6249999999999994
 40
0.6249999999999994
 40
0.6874999999999996
 40
0.6874999999999996
 40
0.7499999999999996
 40
0.7499999999999996
 40
0.8124999999999996
 40
0.8124999999999996
 40
0.8437499999999997
 40
0.8437499999999997
 40
0.8749999999999997
 40
0.8749999999999997
 40
0.9062499999999998
 40
0.9062499999999998
 40
0.9374999999999999
 40
0.9374999999999999
 40
0.9687499999999999
 40
0.9687499999999999
 40
1.0
 40
1.0
 40
1.03125
 40
1.03125
 10
2.748825887117867
 20
4.139454576079391
 30
0.0
 10
2.762714036186671
 20
4.139454576079392
 30
0.0
 10
2.769385463626517
 20
4.140518624214388
 30
0.0
 10
2.782268346241802
 20
4.144416295271457
 30
0.0
 10
2.788223153132565
 20
4.14717645863148
 30
0.0
 10
2.799170282579237
 20
4.153706809569299
 30
0.0
 10
2.804112179034427
 20
4.157446203680221
 30
0.0
 10
2.81300382507264
 20
4.165381758140322
 30
0.0
 10
2.817011683210219
 20
4.169631521243412
 30
0.0
 10
2.827788352929878
 20
4.182829634178145
 30
0.0
 10
2.833190964879514
 20
4.191971682894194
 30
0.0
 10
2.839117088516498
 20
4.205921877746313
 30
0.0
 10
2.840713356571831
 20
4.210628655114788
 30
0.0
 10
2.843057576432402
 20
4.219871411487984
 30
0.0
 10
2.843820762643076
 20
4.224437828661806
 30
0.0
 10
2.844830524609839
 20
4.237967732054567
 30
0.0
 10
2.843764960672895
 20
4.246858719387615
 30
0.0
 10
2.837538125336081
 20
4.263160813751756
 30
0.0
 10
2.83226868288276
 20
4.270790301247722
 30
0.0
 10
2.820967169508307
 20
4.280458856004657
 30
0.0
 10
2.816555924124777
 20
4.283449930939489
 30
0.0
 10
2.806755348299836
 20
4.288655591610186
 30
0.0
 10
2.801390894282488
 20
4.290879425746356
 30
0.0
 10
2.789643571542815
 20
4.294568863698001
 30
0.0
 10
2.783229051182976
 20
4.29602071969077
 30
0.0
 10
2.77013751607723
 20
4.297953702811246
 30
0.0
 10
2.763260981597179
 20
4.298470714003981
 30
0.0
 10
2.749524191838734
 20
4.298528781181672
 30
0.0
 10
2.742750659141649
 20
4.298085676214829
 30
0.0
 10
2.729393195471256
 20
4.296236410109356
 30
0.0
 10
2.723051459186483
 20
4.294859015276642
 30
0.0
 10
2.711140885942538
 20
4.291251507708703
 30
0.0
 10
2.705577812765814
 20
4.289009306355299
 30
0.0
 10
2.695656335515279
 20
4.283865323812686
 30
0.0
 10
2.691185191235991
 20
4.280905327594704
 30
0.0
 10
2.679651978806556
 20
4.271255759563971
 30
0.0
 10
2.674290827571228
 20
4.263668364897048
 30
0.0
 10
2.667863919997493
 20
4.247326348250501
 30
0.0
 10
2.66673004234549
 20
4.238454495722164
 30
0.0
 10
2.667972325517578
 20
4.220318296143191
 30
0.0
 10
2.670355149410475
 20
4.210879996160989
 30
0.0
 10
2.676209182409317
 20
4.196965769493481
 30
0.0
 10
2.678546520916526
 20
4.192342591628778
 30
0.0
 10
2.68405215593038
 20
4.183155320180007
 30
0.0
 10
2.687229688681794
 20
4.178587826751511
 30
0.0
 10
2.694357391429765
 20
4.169823636088691
 30
0.0
 10
2.698321131231381
 20
4.165593775106693
 30
0.0
 10
2.707257288850687
 20
4.15757901654977
 30
0.0
 10
2.712228669999881
 20
4.153808406443164
 30
0.0
 10
2.723101747894474
 20
4.147287787844189
 30
0.0
 10
2.729142409104263
 20
4.144473183700959
 30
0.0
 10
2.741929723779905
 20
4.140569294255102
 30
0.0
 10
2.748825887117867
 20
4.139454576079391
 30
0.0
 10
2.762714036186671
 20
4.139454576079392
 30
0.0
  0
LINE
  5
F3
330
1F
100
AcDbEntity
  8
0
  6
HIDDEN
 62
     7
100
AcDbLine
 10
3.0116754735
 20
4.2339812969
 30
0.0
 11
3.0116754735
 21
3.2833752759
 31
0.0
  0
LINE
  5
F4
330
1F
100
AcDbEntity
  8
0
  6
HIDDEN
 62
     7
100
AcDbLine
 10
2.9919904341
 20
4.2339812969
 30
0.0
 11
2.9919904341
 21
3.2833752759
 31
0.0
  0
CIRCLE
  5
F5
330
1F
100
AcDbEntity
  8
0
  6
HIDDEN
 62
     7
100
AcDbCircle
 10
3.8975022451
 20
3.3454540178
 30
0.0
 40
0.0885826771653542
  0
LINE
  5
F6
330
1F
100
AcDbEntity
  8
0
  6
HIDDEN
 62
     7
100
AcDbLine
 10
2.5295494892
 20
3.7685208061
 30
0.0
 11
2.5195494892
 21
3.7685208061
 31
0.0
  0
LINE
  5
F7
330
1F
100
AcDbEntity
  8
0
  6
HIDDEN
 62
     7
100
AcDbLine
 10
2.5295494892
 20
3.7488357667
 30
0.0
 11
2.5195494892
 21
3.7488357667
 31
0.0
  0
LINE
  5
F8
330
1F
100
AcDbEntity
  8
0
  6
HIDDEN
 62
     7
100
AcDbLine
 10
4.1337227176
 20
3.5520621927
 30
0.0
 11
4.1237227176
 21
3.5620741097
 31
0.0
  0
LINE
  5
F9
330
1F
100
AcDbEntity
  8
0
  6
HIDDEN
 62
     7
100
AcDbLine
 10
2.5295494892
 20
3.7685208061
 30
0.0
 11
2.9919904341
 21
3.7685208061
 31
0.0
  0
LINE
  5
FA
330
1F
100
AcDbEntity
  8
0
  6
HIDDEN
 62
     7
100
AcDbLine
 10
2.5295494892
 20
3.7488357667
 30
0.0
 11
2.9919904341
 21
3.7488357667
 31
0.0
  0
LINE
  5
FB
330
1F
100
AcDbEntity
  8
0
  6
HIDDEN
 62
     7
100
AcDbLine
 10
3.6612817727
 20
3.5620741097
 30
0.0
 11
4.1237227176
 21
3.5620741097
 31
0.0
  0
LINE
  5
FC
330
1F
100
AcDbEntity
  8
0
  6
HIDDEN
 62
     7
100
AcDbLine
 10
2.9132502766
 20
3.522457814
 30
0.0
 11
2.5982896467
 21
3.522457814
 31
0.0
  0
CIRCLE
  5
FD
330
1F
100
AcDbEntity
  8
0
  6
HIDDEN
 62
     7
100
AcDbCircle
 10
3.8975022451
 20
3.3454540178
 30
0.0
 40
0.0787401574803148
  0
CIRCLE
  5
FE
330
1F
100
AcDbEntity
  8
0
  6
HIDDEN
 62
     7
100
AcDbCircle
 10
3.8975022451
 20
3.3454540178
 30
0.0
 40
0.0708661417322833
  0
LINE
  5
FF
330
1F
100
AcDbEntity
  8
0
  6
HIDDEN
 62
     7
100
AcDbLine
 10
2.8935652372
 20
3.3728515147
 30
0.0
 11
2.6179746861
 21
3.3728515147
 31
0.0
  0
LINE
  5
100
330
1F
100
AcDbEntity
  8
0
  6
HIDDEN
 62
     7
100
AcDbLine
 10
2.6179746861
 20
3.5145837982
 30
0.0
 11
2.8935652372
 21
3.5145837982
 31
0.0
  0
LINE
  5
101
330
1F
100
AcDbEntity
  8
0
  6
HIDDEN
 62
     7
100
AcDbLine
 10
2.6258487018
 20
3.364977499
 30
0.0
 11
2.8856912215
 21
3.364977499
 31
0.0
  0
LINE
  5
102
330
1F
100
AcDbEntity
  8
0
  6
HIDDEN
 62
     7
100
AcDbLine
 10
2.6770298042
 20
4.2035601762
 30
0.0
 11
2.8345101191
 21
4.2035601762
 31
0.0
  0
LINE
  5
103
330
1F
100
AcDbEntity
  8
0
  6
HIDDEN
 62
     7
100
AcDbLine
 10
2.8266361034
 20
4.2114341919
 30
0.0
 11
2.6849038199
 21
4.2114341919
 31
0.0
  0
LINE
  5
104
330
1F
100
AcDbEntity
  8
0
  6
HIDDEN
 62
     7
100
AcDbLine
 10
2.7557699617
 20
3.4240326171
 30
0.0
 11
2.7557699617
 21
3.364977499
 31
0.0
  0
LINE
  5
105
330
1F
100
AcDbEntity
  8
0
  6
HIDDEN
 62
     7
100
AcDbLine
 10
2.6967148435
 20
3.4240326171
 30
0.0
 11
2.7557699617
 21
3.4240326171
 31
0.0
  0
LINE
  5
106
330
1F
100
AcDbEntity
  8
0
  6
HIDDEN
 62
     7
100
AcDbLine
 10
2.7557699617
 20
3.4240326171
 30
0.0
 11
2.8148250798
 21
3.4240326171
 31
0.0
  0
LINE
  5
107
330
1F
100
AcDbEntity
  8
0
  6
HIDDEN
 62
     7
100
AcDbLine
 10
2.8148250798
 20
3.4240326171
 30
0.0
 11
2.8148250798
 21
3.364977499
 31
0.0
  0
LINE
  5
108
330
1F
100
AcDbEntity
  8
0
  6
HIDDEN
 62
     7
100
AcDbLine
 10
2.6967148435
 20
3.4240326171
 30
0.0
 11
2.6967148435
 21
3.364977499
 31
0.0
  0
LINE
  5
109
330
1F
100
AcDbEntity
  8
0
  6
HIDDEN
 62
     7
100
AcDbLine
 10
2.5195494892
 20
3.5518278927
 30
0.0
 11
2.5295494892
 21
3.5618278927
 31
0.0
  0
LINE
  5
10A
330
1F
100
AcDbEntity
  8
0
  6
HIDDEN
 62
     7
100
AcDbLine
 10
2.5295494892
 20
3.9555286801
 30
0.0
 11
2.5195494892
 21
3.9655286801
 31
0.0
  0
LINE
  5
10B
330
1F
100
AcDbEntity
  8
0
  6
HIDDEN
 62
     7
100
AcDbLine
 10
4.1337227176
 20
3.9655286801
 30
0.0
 11
4.1237227176
 21
3.9555286801
 31
0.0
  0
LINE
  5
10C
330
1F
100
AcDbEntity
  8
0
  6
HIDDEN
 62
     7
100
AcDbLine
 10
3.6415967333
 20
3.9555286801
 30
0.0
 11
3.0116754735
 21
3.9555286801
 31
0.0
  0
LINE
  5
10D
330
1F
100
AcDbEntity
  8
0
  6
HIDDEN
 62
     7
100
AcDbLine
 10
3.0116754735
 20
3.5618278927
 30
0.0
 11
3.6415967333
 21
3.5618278927
 31
0.0
  0
LINE
  5
10E
330
1F
100
AcDbEntity
  8
0
  6
HIDDEN
 62
     7
100
AcDbLine
 10
2.9919904341
 20
3.9555286801
 30
0.0
 11
2.5295494892
 21
3.9555286801
 31
0.0
  0
LINE
  5
10F
330
1F
100
AcDbEntity
  8
0
  6
HIDDEN
 62
     7
100
AcDbLine
 10
2.5295494892
 20
3.5618278927
 30
0.0
 11
2.9919904341
 21
3.5618278927
 31
0.0
  0
LINE
  5
110
330
1F
100
AcDbEntity
  8
0
  6
HIDDEN
 62
     7
100
AcDbLine
 10
4.1237227176
 20
3.9555286801
 30
0.0
 11
3.6612817727
 21
3.9555286801
 31
0.0
  0
LINE
  5
111
330
1F
100
AcDbEntity
  8
0
  6
HIDDEN
 62
     7
100
AcDbLine
 10
2.9132502766
 20
3.2834464865
 30
0.0
 11
2.9132502766
 21
3.522457814
 31
0.0
  0
LINE
  5
112
330
1F
100
AcDbEntity
  8
0
  6
HIDDEN
 62
     7
100
AcDbLine
 10
2.5982896467
 20
3.522457814
 30
0.0
 11
2.5982896467
 21
3.2835050183
 31
0.0
  0
LINE
  5
113
330
1F
100
AcDbEntity
  8
0
  6
HIDDEN
 62
     7
100
AcDbLine
 10
2.8443526388
 20
3.522457814
 30
0.0
 11
2.8443526388
 21
3.7488357667
 31
0.0
  0
LINE
  5
114
330
1F
100
AcDbEntity
  8
0
  6
HIDDEN
 62
     7
100
AcDbLine
 10
2.6671872845
 20
3.7488357667
 30
0.0
 11
2.6671872845
 21
3.522457814
 31
0.0
  0
LINE
  5
115
330
1F
100
AcDbEntity
  8
0
  6
HIDDEN
 62
     7
100
AcDbLine
 10
2.8443526388
 20
3.7685208061
 30
0.0
 11
2.8443526388
 21
4.2339401036
 31
0.0
  0
LINE
  5
116
330
1F
100
AcDbEntity
  8
0
  6
HIDDEN
 62
     7
100
AcDbLine
 10
2.6671872845
 20
4.234043381
 30
0.0
 11
2.6671872845
 21
3.7685208061
 31
0.0
  0
LINE
  5
117
330
1F
100
AcDbEntity
  8
0
  6
HIDDEN
 62
     7
100
AcDbLine
 10
2.6179746861
 20
3.5145837982
 30
0.0
 11
2.6179746861
 21
3.3728515147
 31
0.0
  0
LINE
  5
118
330
1F
100
AcDbEntity
  8
0
  6
HIDDEN
 62
     7
100
AcDbLine
 10
2.8935652372
 20
3.3728515147
 30
0.0
 11
2.8935652372
 21
3.5145837982
 31
0.0
  0
LINE
  5
119
330
1F
100
AcDbEntity
  8
0
  6
HIDDEN
 62
     7
100
AcDbLine
 10
2.8935652372
 20
3.5145837982
 30
0.0
 11
2.8856912215
 21
3.522457814
 31
0.0
  0
LINE
  5
11A
330
1F
100
AcDbEntity
  8
0
  6
HIDDEN
 62
     7
100
AcDbLine
 10
2.6258487018
 20
3.522457814
 30
0.0
 11
2.6179746861
 21
3.5145837982
 31
0.0
  0
LINE
  5
11B
330
1F
100
AcDbEntity
  8
0
  6
HIDDEN
 62
     7
100
AcDbLine
 10
2.6179746861
 20
3.3728515147
 30
0.0
 11
2.6258487018
 21
3.364977499
 31
0.0
  0
LINE
  5
11C
330
1F
100
AcDbEntity
  8
0
  6
HIDDEN
 62
     7
100
AcDbLine
 10
2.8856912215
 20
3.364977499
 30
0.0
 11
2.8935652372
 21
3.3728515147
 31
0.0
  0
LINE
  5
11D
330
1F
100
AcDbEntity
  8
0
  6
HIDDEN
 62
     7
100
AcDbLine
 10
2.8345101191
 20
3.522457814
 30
0.0
 11
2.8345101191
 21
4.2035601762
 31
0.0
  0
LINE
  5
11E
330
1F
100
AcDbEntity
  8
0
  6
HIDDEN
 62
     7
100
AcDbLine
 10
2.6770298042
 20
4.2035601762
 30
0.0
 11
2.6770298042
 21
3.522457814
 31
0.0
  0
LINE
  5
11F
330
1F
100
AcDbEntity
  8
0
  6
HIDDEN
 62
     7
100
AcDbLine
 10
2.8345101191
 20
4.2035601762
 30
0.0
 11
2.8266361034
 21
4.2114341919
 31
0.0
  0
LINE
  5
120
330
1F
100
AcDbEntity
  8
0
  6
HIDDEN
 62
     7
100
AcDbLine
 10
2.6849038199
 20
4.2114341919
 30
0.0
 11
2.6770298042
 21
4.2035601762
 31
0.0
  0
LINE
  5
121
330
1F
100
AcDbEntity
  8
0
  6
CONTINUOUS
 62
     7
100
AcDbLine
 10
7.8650578347
 20
3.2076587422
 30
0.0
 11
7.9456334711
 21
3.2076587422
 31
0.0
  0
LINE
  5
122
330
1F
100
AcDbEntity
  8
0
  6
CONTINUOUS
 62
     7
100
AcDbLine
 10
7.8571838189
 20
3.215532758
 30
0.0
 11
7.8650578347
 21
3.2076587422
 31
0.0
  0
LINE
  5
123
330
1F
100
AcDbEntity
  8
0
  6
CONTINUOUS
 62
     7
100
AcDbLine
 10
8.6957664961
 20
3.2667138603
 30
0.0
 11
8.7036405118
 21
3.2745878761
 31
0.0
  0
LINE
  5
124
330
1F
100
AcDbEntity
  8
0
  6
CONTINUOUS
 62
     7
100
AcDbLine
 10
8.2410420866
 20
3.2667138603
 30
0.0
 11
8.260727126
 21
3.2667138603
 31
0.0
  0
LINE
  5
125
330
1F
100
AcDbEntity
  8
0
  6
CONTINUOUS
 62
     7
100
AcDbLine
 10
8.6442950753
 20
3.2667138603
 30
0.0
 11
8.6957664961
 21
3.2667138603
 31
0.0
  0
LINE
  5
126
330
1F
100
AcDbEntity
  8
0
  6
CONTINUOUS
 62
     7
100
AcDbLine
 10
8.260727126
 20
3.4241941753
 30
0.0
 11
8.2410420866
 21
3.4241941753
 31
0.0
  0
LINE
  5
127
330
1F
100
AcDbEntity
  8
0
  6
CONTINUOUS
 62
     7
100
AcDbLine
 10
8.8019041505
 20
3.3728515147
 30
0.0
 11
8.8019041505
 21
3.4534271512
 31
0.0
  0
LINE
  5
128
330
1F
100
AcDbEntity
  8
0
  6
CONTINUOUS
 62
     7
100
AcDbLine
 10
8.7940301348
 20
3.364977499
 30
0.0
 11
8.8019041505
 21
3.3728515147
 31
0.0
  0
LINE
  5
129
330
1F
100
AcDbEntity
  8
0
  6
CONTINUOUS
 62
     7
100
AcDbLine
 10
8.7428490324
 20
4.1520887553
 30
0.0
 11
8.7428490324
 21
4.2035601762
 31
0.0
  0
LINE
  5
12A
330
1F
100
AcDbEntity
  8
0
  6
CONTINUOUS
 62
     7
100
AcDbLine
 10
8.7428490324
 20
4.2035601762
 30
0.0
 11
8.7349750167
 21
4.2114341919
 31
0.0
  0
ARC
  5
12B
330
1F
100
AcDbEntity
  8
0
  6
CONTINUOUS
 62
     7
100
AcDbCircle
 10
8.2508846063
 20
3.7586782864
 30
0.0
 40
0.206850393700787
100
AcDbArc
 50
272.7273231037
 51
267.2726768963
  0
LINE
  5
12C
330
1F
100
AcDbEntity
  8
0
  6
CONTINUOUS
 62
     7
100
AcDbLine
 10
8.2410420866
 20
3.1388351666
 30
0.0
 11
8.2410420866
 21
3.5520621927
 31
0.0
  0
ARC
  5
12D
330
1F
100
AcDbEntity
  8
0
  6
CONTINUOUS
 62
     7
100
AcDbCircle
 10
8.2508846063
 20
3.7586782864
 30
0.0
 40
0.6199212598425204
100
AcDbArc
 50
270.909726073
 51
269.090273927
  0
LINE
  5
12E
330
1F
100
AcDbEntity
  8
0
  6
CONTINUOUS
 62
     7
100
AcDbLine
 10
8.260727126
 20
3.1388351666
 30
0.0
 11
8.260727126
 21
3.5520621927
 31
0.0
  0
LINE
  5
12F
330
1F
100
AcDbEntity
  8
0
  6
CONTINUOUS
 62
     7
100
AcDbLine
 10
8.2410420866
 20
3.1288339259
 30
0.0
 11
8.2410420866
 21
3.1388351666
 31
0.0
  0
ARC
  5
130
330
1F
100
AcDbEntity
  8
0
  6
CONTINUOUS
 62
     7
100
AcDbCircle
 10
8.2508846063
 20
3.7586782864
 30
0.0
 40
0.6299212598425196
100
AcDbArc
 50
270.8952829866
 51
269.1047170134
  0
LINE
  5
131
330
1F
100
AcDbEntity
  8
0
  6
CONTINUOUS
 62
     7
100
AcDbLine
 10
8.260727126
 20
3.1288339259
 30
0.0
 11
8.260727126
 21
3.1388351666
 31
0.0
  0
ARC
  5
132
330
1F
100
AcDbEntity
  8
0
  6
CONTINUOUS
 62
     7
100
AcDbCircle
 10
8.2508846063
 20
3.7586782864
 30
0.0
 40
0.1968503937007872
100
AcDbArc
 50
272.8659839826
 51
267.1340160174
  0
LINE
  5
133
330
1F
100
AcDbEntity
  8
0
  6
CONTINUOUS
 62
     7
100
AcDbLine
 10
8.2410420866
 20
3.5520621927
 30
0.0
 11
8.2410420866
 21
3.5620741097
 31
0.0
  0
LINE
  5
134
330
1F
100
AcDbEntity
  8
0
  6
CONTINUOUS
 62
     7
100
AcDbLine
 10
8.260727126
 20
3.5520621927
 30
0.0
 11
8.260727126
 21
3.5620741097
 31
0.0
  0
POLYLINE
  5
135
330
1F
100
AcDbEntity
  8
0
  6
CONTINUOUS
 62
     7
100
AcDb2dPolyline
 66
     1
 10
0.0
 20
0.0
 30
0.0
  0
VERTEX
  5
20A
330
135
100
AcDbEntity
  8
0
  6
CONTINUOUS
 62
     7
100
AcDbVertex
100
AcDb2dVertex
 10
8.2410420866
 20
3.5620741097
 30
0.0
  0
VERTEX
  5
20B
330
135
100
AcDbEntity
  8
0
  6
CONTINUOUS
 62
     7
100
AcDbVertex
100
AcDb2dVertex
 10
8.2508846063
 20
3.5618278927
 30
0.0
  0
VERTEX
  5
20C
330
135
100
AcDbEntity
  8
0
  6
CONTINUOUS
 62
     7
100
AcDbVertex
100
AcDb2dVertex
 10
8.260727126
 20
3.5620741097
 30
0.0
  0
SEQEND
  5
20D
330
135
100
AcDbEntity
  8
0
  6
CONTINUOUS
 62
     7
  0
LINE
  5
136
330
1F
100
AcDbEntity
  8
0
  6
CONTINUOUS
 62
     7
100
AcDbLine
 10
8.260727126
 20
3.1288339259
 30
0.0
 11
8.2410420866
 21
3.1288339259
 31
0.0
  0
LINE
  5
137
330
1F
100
AcDbEntity
  8
0
  6
CONTINUOUS
 62
     7
100
AcDbLine
 10
7.8650578347
 20
3.2607440579
 30
0.0
 11
7.8650578347
 21
3.2076587422
 31
0.0
  0
LINE
  5
138
330
1F
100
AcDbEntity
  8
0
  6
CONTINUOUS
 62
     7
100
AcDbLine
 10
7.8571838189
 20
3.215532758
 30
0.0
 11
7.8571838189
 21
3.2669461605
 31
0.0
  0
LINE
  5
139
330
1F
100
AcDbEntity
  8
0
  6
CONTINUOUS
 62
     7
100
AcDbLine
 10
8.7036405118
 20
3.3207138088
 30
0.0
 11
8.7036405118
 21
3.2745878761
 31
0.0
  0
LINE
  5
13A
330
1F
100
AcDbEntity
  8
0
  6
CONTINUOUS
 62
     7
100
AcDbLine
 10
8.6957664961
 20
3.2667138603
 30
0.0
 11
8.6957664961
 21
3.3127176404
 31
0.0
  0
LINE
  5
13B
330
1F
100
AcDbEntity
  8
0
  6
CONTINUOUS
 62
     7
100
AcDbLine
 10
8.8019041505
 20
3.3728515147
 30
0.0
 11
8.7488188348
 21
3.3728515147
 31
0.0
  0
LINE
  5
13C
330
1F
100
AcDbEntity
  8
0
  6
CONTINUOUS
 62
     7
100
AcDbLine
 10
8.7426167322
 20
3.364977499
 30
0.0
 11
8.7940301348
 21
3.364977499
 31
0.0
  0
LINE
  5
13D
330
1F
100
AcDbEntity
  8
0
  6
CONTINUOUS
 62
     7
100
AcDbLine
 10
8.6968452523
 20
4.2035601762
 30
0.0
 11
8.7428490324
 21
4.2035601762
 31
0.0
  0
LINE
  5
13E
330
1F
100
AcDbEntity
  8
0
  6
CONTINUOUS
 62
     7
100
AcDbLine
 10
8.7349750167
 20
4.2114341919
 30
0.0
 11
8.6888490839
 21
4.2114341919
 31
0.0
  0
LINE
  5
13F
330
1F
100
AcDbEntity
  8
0
  6
HIDDEN
 62
     7
100
AcDbLine
 10
8.0146641339
 20
3.3454540178
 30
0.0
 11
8.0146641339
 21
3.5029343328
 31
0.0
  0
LINE
  5
140
330
1F
100
AcDbEntity
  8
0
  6
HIDDEN
 62
     7
100
AcDbLine
 10
8.0146641339
 20
3.1879737028
 30
0.0
 11
8.0146641339
 21
3.3454540178
 31
0.0
  0
LINE
  5
141
330
1F
100
AcDbEntity
  8
0
  6
HIDDEN
 62
     7
100
AcDbLine
 10
7.6593499921
 20
3.9752137195
 30
0.0
 11
8.8424192205
 21
3.9752137195
 31
0.0
  0
ARC
  5
142
330
1F
100
AcDbEntity
  8
0
  6
HIDDEN
 62
     7
100
AcDbCircle
 10
8.2508846063
 20
3.7586782864
 30
0.0
 40
0.1968503937007872
100
AcDbArc
 50
180.0
 51
267.1340160174
  0
ARC
  5
143
330
1F
100
AcDbEntity
  8
0
  6
HIDDEN
 62
     7
100
AcDbCircle
 10
8.2508846063
 20
3.7586782864
 30
0.0
 40
0.1968503937007871
100
AcDbArc
 50
272.8659839826
 51
180.0
  0
LINE
  5
144
330
1F
100
AcDbEntity
  8
0
  6
HIDDEN
 62
     7
100
AcDbLine
 10
7.8374987796
 20
4.2339812969
 30
0.0
 11
7.8374987796
 21
3.2833752759
 31
0.0
  0
LINE
  5
145
330
1F
100
AcDbEntity
  8
0
  6
HIDDEN
 62
     7
100
AcDbLine
 10
8.4474887831
 20
3.7685208061
 30
0.0
 11
8.8807289668
 21
3.7685208061
 31
0.0
  0
LINE
  5
146
330
1F
100
AcDbEntity
  8
0
  6
HIDDEN
 62
     7
100
AcDbLine
 10
8.4474887831
 20
3.7488357667
 30
0.0
 11
8.8807289668
 21
3.7488357667
 31
0.0
  0
LINE
  5
147
330
1F
100
AcDbEntity
  8
0
  6
HIDDEN
 62
     7
100
AcDbLine
 10
8.8215891899
 20
3.522457814
 30
0.0
 11
8.50662856
 21
3.522457814
 31
0.0
  0
POLYLINE
  5
148
330
1F
100
AcDbEntity
  8
0
  6
HIDDEN
 62
     7
100
AcDb2dPolyline
 66
     1
 10
0.0
 20
0.0
 30
0.0
  0
VERTEX
  5
20E
330
148
100
AcDbEntity
  8
0
  6
HIDDEN
 62
     7
100
AcDbVertex
100
AcDb2dVertex
 10
8.2410420866
 20
3.5520621927
 30
0.0
  0
VERTEX
  5
20F
330
148
100
AcDbEntity
  8
0
  6
HIDDEN
 62
     7
100
AcDbVertex
100
AcDb2dVertex
 10
8.2505991212
 20
3.5518280897
 30
0.0
  0
VERTEX
  5
210
330
148
100
AcDbEntity
  8
0
  6
HIDDEN
 62
     7
100
AcDbVertex
100
AcDb2dVertex
 10
8.260727126
 20
3.5520621927
 30
0.0
  0
SEQEND
  5
211
330
148
100
AcDbEntity
  8
0
  6
HIDDEN
 62
     7
  0
POLYLINE
  5
149
330
1F
100
AcDbEntity
  8
0
  6
HIDDEN
 62
     7
100
AcDb2dPolyline
 66
     1
 10
0.0
 20
0.0
 30
0.0
  0
VERTEX
  5
212
330
149
100
AcDbEntity
  8
0
  6
HIDDEN
 62
     7
100
AcDbVertex
100
AcDb2dVertex
 10
8.260727126
 20
3.1388351666
 30
0.0
  0
VERTEX
  5
213
330
149
100
AcDbEntity
  8
0
  6
HIDDEN
 62
     7
100
AcDbVertex
100
AcDb2dVertex
 10
8.2539701399
 20
3.1387647054
 30
0.0
  0
VERTEX
  5
214
330
149
100
AcDbEntity
  8
0
  6
HIDDEN
 62
     7
100
AcDbVertex
100
AcDb2dVertex
 10
8.2410420866
 20
3.1388351666
 30
0.0
  0
SEQEND
  5
215
330
149
100
AcDbEntity
  8
0
  6
HIDDEN
 62
     7
  0
LINE
  5
14A
330
1F
100
AcDbEntity
  8
0
  6
HIDDEN
 62
     7
100
AcDbLine
 10
7.8650578347
 20
3.3454540178
 30
0.0
 11
7.8650578347
 21
3.2607440579
 31
0.0
  0
LINE
  5
14B
330
1F
100
AcDbEntity
  8
0
  6
HIDDEN
 62
     7
100
AcDbLine
 10
7.8650578347
 20
3.4832492934
 30
0.0
 11
7.8650578347
 21
3.3454540178
 31
0.0
  0
LINE
  5
14C
330
1F
100
AcDbEntity
  8
0
  6
HIDDEN
 62
     7
100
AcDbLine
 10
8.0067901181
 20
3.3454540178
 30
0.0
 11
8.0067901181
 21
3.4832492934
 31
0.0
  0
LINE
  5
14D
330
1F
100
AcDbEntity
  8
0
  6
HIDDEN
 62
     7
100
AcDbLine
 10
8.0067901181
 20
3.2076587422
 30
0.0
 11
8.0067901181
 21
3.3454540178
 31
0.0
  0
LINE
  5
14E
330
1F
100
AcDbEntity
  8
0
  6
HIDDEN
 62
     7
100
AcDbLine
 10
7.8571838189
 20
3.3454540178
 30
0.0
 11
7.8571838189
 21
3.4753752776
 31
0.0
  0
LINE
  5
14F
330
1F
100
AcDbEntity
  8
0
  6
HIDDEN
 62
     7
100
AcDbLine
 10
7.8571838189
 20
3.2669461605
 30
0.0
 11
7.8571838189
 21
3.3454540178
 31
0.0
  0
LINE
  5
150
330
1F
100
AcDbEntity
  8
0
  6
HIDDEN
 62
     7
100
AcDbLine
 10
8.7036405118
 20
3.4163201595
 30
0.0
 11
8.7036405118
 21
3.3207138088
 31
0.0
  0
LINE
  5
151
330
1F
100
AcDbEntity
  8
0
  6
HIDDEN
 62
     7
100
AcDbLine
 10
8.6957664961
 20
3.3127176404
 30
0.0
 11
8.6957664961
 21
3.4241941753
 31
0.0
  0
LINE
  5
152
330
1F
100
AcDbEntity
  8
0
  6
HIDDEN
 62
     7
100
AcDbLine
 10
7.916238937
 20
3.3113585295
 30
0.0
 11
7.916238937
 21
3.3795495061
 31
0.0
  0
LINE
  5
153
330
1F
100
AcDbEntity
  8
0
  6
HIDDEN
 62
     7
100
AcDbLine
 10
7.916238937
 20
3.2772630411
 30
0.0
 11
7.916238937
 21
3.3113585295
 31
0.0
  0
LINE
  5
154
330
1F
100
AcDbEntity
  8
0
  6
HIDDEN
 62
     7
100
AcDbLine
 10
7.916238937
 20
3.3113585295
 30
0.0
 11
7.8571838189
 21
3.3113585295
 31
0.0
  0
LINE
  5
155
330
1F
100
AcDbEntity
  8
0
  6
HIDDEN
 62
     7
100
AcDbLine
 10
7.916238937
 20
3.3795495061
 30
0.0
 11
7.916238937
 21
3.4136449945
 31
0.0
  0
LINE
  5
156
330
1F
100
AcDbEntity
  8
0
  6
HIDDEN
 62
     7
100
AcDbLine
 10
7.916238937
 20
3.3795495061
 30
0.0
 11
7.8571838189
 21
3.3795495061
 31
0.0
  0
LINE
  5
157
330
1F
100
AcDbEntity
  8
0
  6
HIDDEN
 62
     7
100
AcDbLine
 10
7.916238937
 20
3.4136449945
 30
0.0
 11
7.8571838189
 21
3.4136449945
 31
0.0
  0
LINE
  5
158
330
1F
100
AcDbEntity
  8
0
  6
HIDDEN
 62
     7
100
AcDbLine
 10
7.916238937
 20
3.2772630411
 30
0.0
 11
7.8571838189
 21
3.2772630411
 31
0.0
  0
LINE
  5
159
330
1F
100
AcDbEntity
  8
0
  6
HIDDEN
 62
     7
100
AcDbLine
 10
8.7488188348
 20
3.3728515147
 30
0.0
 11
8.5263135993
 21
3.3728515147
 31
0.0
  0
LINE
  5
15A
330
1F
100
AcDbEntity
  8
0
  6
HIDDEN
 62
     7
100
AcDbLine
 10
8.5263135993
 20
3.5145837982
 30
0.0
 11
8.8019041505
 21
3.5145837982
 31
0.0
  0
LINE
  5
15B
330
1F
100
AcDbEntity
  8
0
  6
HIDDEN
 62
     7
100
AcDbLine
 10
8.5341876151
 20
3.364977499
 30
0.0
 11
8.7426167322
 21
3.364977499
 31
0.0
  0
LINE
  5
15C
330
1F
100
AcDbEntity
  8
0
  6
HIDDEN
 62
     7
100
AcDbLine
 10
8.6641088749
 20
4.2035601762
 30
0.0
 11
8.6968452523
 21
4.2035601762
 31
0.0
  0
LINE
  5
15D
330
1F
100
AcDbEntity
  8
0
  6
HIDDEN
 62
     7
100
AcDbLine
 10
8.5853687174
 20
4.2035601762
 30
0.0
 11
8.6641088749
 21
4.2035601762
 31
0.0
  0
LINE
  5
15E
330
1F
100
AcDbEntity
  8
0
  6
HIDDEN
 62
     7
100
AcDbLine
 10
8.6641088749
 20
4.2114341919
 30
0.0
 11
8.5932427332
 21
4.2114341919
 31
0.0
  0
LINE
  5
15F
330
1F
100
AcDbEntity
  8
0
  6
HIDDEN
 62
     7
100
AcDbLine
 10
8.6888490839
 20
4.2114341919
 30
0.0
 11
8.6641088749
 21
4.2114341919
 31
0.0
  0
LINE
  5
160
330
1F
100
AcDbEntity
  8
0
  6
HIDDEN
 62
     7
100
AcDbLine
 10
8.6982043633
 20
3.4240326171
 30
0.0
 11
8.7322998516
 21
3.4240326171
 31
0.0
  0
LINE
  5
161
330
1F
100
AcDbEntity
  8
0
  6
HIDDEN
 62
     7
100
AcDbLine
 10
8.6300133866
 20
3.4240326171
 30
0.0
 11
8.6982043633
 21
3.4240326171
 31
0.0
  0
LINE
  5
162
330
1F
100
AcDbEntity
  8
0
  6
HIDDEN
 62
     7
100
AcDbLine
 10
8.6982043633
 20
3.4240326171
 30
0.0
 11
8.6982043633
 21
3.364977499
 31
0.0
  0
LINE
  5
163
330
1F
100
AcDbEntity
  8
0
  6
HIDDEN
 62
     7
100
AcDbLine
 10
8.6300133866
 20
3.4240326171
 30
0.0
 11
8.6300133866
 21
3.364977499
 31
0.0
  0
LINE
  5
164
330
1F
100
AcDbEntity
  8
0
  6
HIDDEN
 62
     7
100
AcDbLine
 10
8.5959178982
 20
3.4240326171
 30
0.0
 11
8.6300133866
 21
3.4240326171
 31
0.0
  0
LINE
  5
165
330
1F
100
AcDbEntity
  8
0
  6
HIDDEN
 62
     7
100
AcDbLine
 10
8.7322998516
 20
3.4240326171
 30
0.0
 11
8.7322998516
 21
3.364977499
 31
0.0
  0
LINE
  5
166
330
1F
100
AcDbEntity
  8
0
  6
HIDDEN
 62
     7
100
AcDbLine
 10
8.5959178982
 20
3.4240326171
 30
0.0
 11
8.5959178982
 21
3.364977499
 31
0.0
  0
LINE
  5
167
330
1F
100
AcDbEntity
  8
0
  6
HIDDEN
 62
     7
100
AcDbLine
 10
7.9840197917
 20
3.1879737028
 30
0.0
 11
8.0146641339
 21
3.1879737028
 31
0.0
  0
LINE
  5
168
330
1F
100
AcDbEntity
  8
0
  6
HIDDEN
 62
     7
100
AcDbLine
 10
8.0146641339
 20
3.5029343328
 30
0.0
 11
7.6753209478
 21
3.5029343328
 31
0.0
  0
LINE
  5
169
330
1F
100
AcDbEntity
  8
0
  6
HIDDEN
 62
     7
100
AcDbLine
 10
8.260727126
 20
3.2568713406
 30
0.0
 11
8.6318520601
 21
3.2568713406
 31
0.0
  0
LINE
  5
16A
330
1F
100
AcDbEntity
  8
0
  6
HIDDEN
 62
     7
100
AcDbLine
 10
8.7906070696
 20
3.434036695
 30
0.0
 11
8.260727126
 21
3.434036695
 31
0.0
  0
LINE
  5
16B
330
1F
100
AcDbEntity
  8
0
  6
HIDDEN
 62
     7
100
AcDbLine
 10
8.0146641339
 20
3.2568713406
 30
0.0
 11
8.2410420866
 21
3.2568713406
 31
0.0
  0
LINE
  5
16C
330
1F
100
AcDbEntity
  8
0
  6
HIDDEN
 62
     7
100
AcDbLine
 10
8.2410420866
 20
3.434036695
 30
0.0
 11
8.0146641339
 21
3.434036695
 31
0.0
  0
LINE
  5
16D
330
1F
100
AcDbEntity
  8
0
  6
HIDDEN
 62
     7
100
AcDbLine
 10
8.8215891899
 20
3.4920379445
 30
0.0
 11
8.8215891899
 21
3.522457814
 31
0.0
  0
LINE
  5
16E
330
1F
100
AcDbEntity
  8
0
  6
HIDDEN
 62
     7
100
AcDbLine
 10
8.50662856
 20
3.522457814
 30
0.0
 11
8.50662856
 21
3.1830196233
 31
0.0
  0
LINE
  5
16F
330
1F
100
AcDbEntity
  8
0
  6
HIDDEN
 62
     7
100
AcDbLine
 10
8.7526915521
 20
3.522457814
 30
0.0
 11
8.7526915521
 21
3.7488357667
 31
0.0
  0
LINE
  5
170
330
1F
100
AcDbEntity
  8
0
  6
HIDDEN
 62
     7
100
AcDbLine
 10
8.5755261978
 20
3.7488357667
 30
0.0
 11
8.5755261978
 21
3.522457814
 31
0.0
  0
LINE
  5
171
330
1F
100
AcDbEntity
  8
0
  6
HIDDEN
 62
     7
100
AcDbLine
 10
8.7526915521
 20
3.7685208061
 30
0.0
 11
8.7526915521
 21
4.1394545761
 31
0.0
  0
LINE
  5
172
330
1F
100
AcDbEntity
  8
0
  6
HIDDEN
 62
     7
100
AcDbLine
 10
8.5755261978
 20
4.2983589396
 30
0.0
 11
8.5755261978
 21
3.7685208061
 31
0.0
  0
LINE
  5
173
330
1F
100
AcDbEntity
  8
0
  6
HIDDEN
 62
     7
100
AcDbLine
 10
8.0067901181
 20
3.4832492934
 30
0.0
 11
7.8650578347
 21
3.4832492934
 31
0.0
  0
LINE
  5
174
330
1F
100
AcDbEntity
  8
0
  6
HIDDEN
 62
     7
100
AcDbLine
 10
7.9456334711
 20
3.2076587422
 30
0.0
 11
8.0067901181
 21
3.2076587422
 31
0.0
  0
LINE
  5
175
330
1F
100
AcDbEntity
  8
0
  6
HIDDEN
 62
     7
100
AcDbLine
 10
8.0067901181
 20
3.2076587422
 30
0.0
 11
8.0146641339
 21
3.215532758
 31
0.0
  0
LINE
  5
176
330
1F
100
AcDbEntity
  8
0
  6
HIDDEN
 62
     7
100
AcDbLine
 10
8.0146641339
 20
3.4753752776
 30
0.0
 11
8.0067901181
 21
3.4832492934
 31
0.0
  0
LINE
  5
177
330
1F
100
AcDbEntity
  8
0
  6
HIDDEN
 62
     7
100
AcDbLine
 10
7.8650578347
 20
3.4832492934
 30
0.0
 11
7.8571838189
 21
3.4753752776
 31
0.0
  0
LINE
  5
178
330
1F
100
AcDbEntity
  8
0
  6
HIDDEN
 62
     7
100
AcDbLine
 10
8.7036405118
 20
3.4163201595
 30
0.0
 11
8.6957664961
 21
3.4241941753
 31
0.0
  0
LINE
  5
179
330
1F
100
AcDbEntity
  8
0
  6
HIDDEN
 62
     7
100
AcDbLine
 10
8.0146641339
 20
3.2667138603
 30
0.0
 11
8.2410420866
 21
3.2667138603
 31
0.0
  0
LINE
  5
17A
330
1F
100
AcDbEntity
  8
0
  6
HIDDEN
 62
     7
100
AcDbLine
 10
8.260727126
 20
3.2667138603
 30
0.0
 11
8.6442950753
 21
3.2667138603
 31
0.0
  0
LINE
  5
17B
330
1F
100
AcDbEntity
  8
0
  6
HIDDEN
 62
     7
100
AcDbLine
 10
8.6957664961
 20
3.4241941753
 30
0.0
 11
8.260727126
 21
3.4241941753
 31
0.0
  0
LINE
  5
17C
330
1F
100
AcDbEntity
  8
0
  6
HIDDEN
 62
     7
100
AcDbLine
 10
8.2410420866
 20
3.4241941753
 30
0.0
 11
8.0146641339
 21
3.4241941753
 31
0.0
  0
LINE
  5
17D
330
1F
100
AcDbEntity
  8
0
  6
HIDDEN
 62
     7
100
AcDbLine
 10
8.5263135993
 20
3.5145837982
 30
0.0
 11
8.5263135993
 21
3.3728515147
 31
0.0
  0
LINE
  5
17E
330
1F
100
AcDbEntity
  8
0
  6
HIDDEN
 62
     7
100
AcDbLine
 10
8.8019041505
 20
3.4534271512
 30
0.0
 11
8.8019041505
 21
3.5145837982
 31
0.0
  0
LINE
  5
17F
330
1F
100
AcDbEntity
  8
0
  6
HIDDEN
 62
     7
100
AcDbLine
 10
8.8019041505
 20
3.5145837982
 30
0.0
 11
8.7940301348
 21
3.522457814
 31
0.0
  0
LINE
  5
180
330
1F
100
AcDbEntity
  8
0
  6
HIDDEN
 62
     7
100
AcDbLine
 10
8.5341876151
 20
3.522457814
 30
0.0
 11
8.5263135993
 21
3.5145837982
 31
0.0
  0
LINE
  5
181
330
1F
100
AcDbEntity
  8
0
  6
HIDDEN
 62
     7
100
AcDbLine
 10
8.5263135993
 20
3.3728515147
 30
0.0
 11
8.5341876151
 21
3.364977499
 31
0.0
  0
LINE
  5
182
330
1F
100
AcDbEntity
  8
0
  6
HIDDEN
 62
     7
100
AcDbLine
 10
8.7428490324
 20
3.522457814
 30
0.0
 11
8.7428490324
 21
4.1520887553
 31
0.0
  0
LINE
  5
183
330
1F
100
AcDbEntity
  8
0
  6
HIDDEN
 62
     7
100
AcDbLine
 10
8.5853687174
 20
4.2035601762
 30
0.0
 11
8.5853687174
 21
3.522457814
 31
0.0
  0
LINE
  5
184
330
1F
100
AcDbEntity
  8
0
  6
HIDDEN
 62
     7
100
AcDbLine
 10
8.5932427332
 20
4.2114341919
 30
0.0
 11
8.5853687174
 21
4.2035601762
 31
0.0
  0
LINE
  5
185
330
1F
100
AcDbEntity
  8
0
  6
CONTINUOUS
 62
     7
100
AcDbLine
 10
3.6612817727
 20
6.0420558791
 30
0.0
 11
4.1237227176
 21
6.0420558791
 31
0.0
  0
LINE
  5
186
330
1F
100
AcDbEntity
  8
0
  6
CONTINUOUS
 62
     7
100
AcDbLine
 10
2.5295494892
 20
6.0420558791
 30
0.0
 11
3.6415967333
 21
6.0420558791
 31
0.0
  0
LINE
  5
187
330
1F
100
AcDbEntity
  8
0
  6
CONTINUOUS
 62
     7
100
AcDbLine
 10
3.6415967333
 20
7.3018983988
 30
0.0
 11
3.0116754735
 21
7.3018983988
 31
0.0
  0
LINE
  5
188
330
1F
100
AcDbEntity
  8
0
  6
CONTINUOUS
 62
     7
100
AcDbLine
 10
4.1237227176
 20
7.3018983988
 30
0.0
 11
3.6612817727
 21
7.3018983988
 31
0.0
  0
LINE
  5
189
330
1F
100
AcDbEntity
  8
0
  6
CONTINUOUS
 62
     7
100
AcDbLine
 10
2.5195494892
 20
6.0520558791
 30
0.0
 11
2.5295494892
 21
6.0420558791
 31
0.0
  0
LINE
  5
18A
330
1F
100
AcDbEntity
  8
0
  6
CONTINUOUS
 62
     7
100
AcDbLine
 10
4.1237227176
 20
6.0420558791
 30
0.0
 11
4.1337227176
 21
6.0520558791
 31
0.0
  0
LINE
  5
18B
330
1F
100
AcDbEntity
  8
0
  6
CONTINUOUS
 62
     7
100
AcDbLine
 10
4.1337227176
 20
7.2918983988
 30
0.0
 11
4.1237227176
 21
7.3018983988
 31
0.0
  0
LINE
  5
18C
330
1F
100
AcDbEntity
  8
0
  6
CONTINUOUS
 62
     7
100
AcDbLine
 10
2.5295494892
 20
7.3018214994
 30
0.0
 11
2.5295494892
 21
6.0420558791
 31
0.0
  0
LINE
  5
18D
330
1F
100
AcDbEntity
  8
0
  6
CONTINUOUS
 62
     7
100
AcDbLine
 10
2.9919904341
 20
7.3018214994
 30
0.0
 11
2.5295494892
 21
7.3018214994
 31
0.0
  0
LINE
  5
18E
330
1F
100
AcDbEntity
  8
0
  6
CONTINUOUS
 62
     7
100
AcDbLine
 10
2.9919904341
 20
6.2585913121
 30
0.0
 11
2.9919904341
 21
7.3018214994
 31
0.0
  0
LINE
  5
18F
330
1F
100
AcDbEntity
  8
0
  6
CONTINUOUS
 62
     7
100
AcDbLine
 10
3.0116754735
 20
6.2585913121
 30
0.0
 11
2.9919904341
 21
6.2585913121
 31
0.0
  0
LINE
  5
190
330
1F
100
AcDbEntity
  8
0
  6
CONTINUOUS
 62
     7
100
AcDbLine
 10
3.0116754735
 20
7.3018983988
 30
0.0
 11
3.0116754735
 21
6.2585913121
 31
0.0
  0
LINE
  5
191
330
1F
100
AcDbEntity
  8
0
  6
CONTINUOUS
 62
     7
100
AcDbLine
 10
3.6612817727
 20
6.0804425247
 30
0.0
 11
3.6612817727
 21
6.0420558791
 31
0.0
  0
LINE
  5
192
330
1F
100
AcDbEntity
  8
0
  6
CONTINUOUS
 62
     7
100
AcDbLine
 10
3.6415967333
 20
6.0804425247
 30
0.0
 11
3.6612817727
 21
6.0804425247
 31
0.0
  0
LINE
  5
193
330
1F
100
AcDbEntity
  8
0
  6
CONTINUOUS
 62
     7
100
AcDbLine
 10
3.6415967333
 20
7.2635117531
 30
0.0
 11
3.6415967333
 21
7.3018983988
 31
0.0
  0
LINE
  5
194
330
1F
100
AcDbEntity
  8
0
  6
CONTINUOUS
 62
     7
100
AcDbLine
 10
3.6415967333
 20
6.0420558791
 30
0.0
 11
3.6415967333
 21
6.0804425247
 31
0.0
  0
LINE
  5
195
330
1F
100
AcDbEntity
  8
0
  6
CONTINUOUS
 62
     7
100
AcDbLine
 10
3.6612817727
 20
7.2635117531
 30
0.0
 11
3.6415967333
 21
7.2635117531
 31
0.0
  0
LINE
  5
196
330
1F
100
AcDbEntity
  8
0
  6
CONTINUOUS
 62
     7
100
AcDbLine
 10
3.6612817727
 20
7.3018983988
 30
0.0
 11
3.6612817727
 21
7.2635117531
 31
0.0
  0
LINE
  5
197
330
1F
100
AcDbEntity
  8
0
  6
CONTINUOUS
 62
     7
100
AcDbLine
 10
4.1237227176
 20
6.0420558791
 30
0.0
 11
4.1237227176
 21
7.3018983988
 31
0.0
  0
SPLINE
  5
198
330
1F
100
AcDbEntity
  8
0
  6
CONTINUOUS
 62
     7
100
AcDbSpline
210
0.0
220
0.0
230
1.0
 70
     8
 71
     3
 72
    58
 73
    54
 74
     0
 42
0.00000001
 43
0.00000001
 40
-0.0312500000000001
 40
-0.0312500000000001
 40
0.0
 40
0.0
 40
0.03125
 40
0.03125
 40
0.0624999999999999
 40
0.0624999999999999
 40
0.0937499999999999
 40
0.0937499999999999
 40
0.1249999999999998
 40
0.1249999999999998
 40
0.1874999999999999
 40
0.1874999999999999
 40
0.2187499999999999
 40
0.2187499999999999
 40
0.2499999999999999
 40
0.2499999999999999
 40
0.3124999999999998
 40
0.3124999999999998
 40
0.3749999999999998
 40
0.3749999999999998
 40
0.4062499999999998
 40
0.4062499999999998
 40
0.4374999999999997
 40
0.4374999999999997
 40
0.4687499999999997
 40
0.4687499999999997
 40
0.4999999999999997
 40
0.4999999999999997
 40
0.5312499999999997
 40
0.5312499999999997
 40
0.5624999999999996
 40
0.5624999999999996
 40
0.5937499999999996
 40
0.5937499999999996
 40
0.6249999999999994
 40
0.6249999999999994
 40
0.6874999999999996
 40
0.6874999999999996
 40
0.7499999999999996
 40
0.7499999999999996
 40
0.8124999999999996
 40
0.8124999999999996
 40
0.8437499999999997
 40
0.8437499999999997
 40
0.8749999999999997
 40
0.8749999999999997
 40
0.9062499999999998
 40
0.9062499999999998
 40
0.9374999999999999
 40
0.9374999999999999
 40
0.9687499999999999
 40
0.9687499999999999
 40
1.0
 40
1.0
 40
1.03125
 40
1.03125
 10
2.748825887117867
 20
7.173784084676972
 30
0.0
 10
2.762714036186671
 20
7.173784084676972
 30
0.0
 10
2.769385463626517
 20
7.172980921403599
 30
0.0
 10
2.782268346241802
 20
7.169986197228101
 30
0.0
 10
2.788223153132565
 20
7.167847434386948
 30
0.0
 10
2.799170282579237
 20
7.162660994000126
 30
0.0
 10
2.804112179034427
 20
7.159636414678325
 30
0.0
 10
2.81300382507264
 20
7.153038161202444
 30
0.0
 10
2.817011683210219
 20
7.149420825884583
 30
0.0
 10
2.827788352929878
 20
7.137845570137801
 30
0.0
 10
2.833190964879514
 20
7.129392102266877
 30
0.0
 10
2.839117088516498
 20
7.115617386449316
 30
0.0
 10
2.840713356571831
 20
7.110824097425571
 30
0.0
 10
2.843057576432402
 20
7.101100303224288
 30
0.0
 10
2.843820762643076
 20
7.096140776635324
 30
0.0
 10
2.844830524609839
 20
7.080959067104951
 30
0.0
 10
2.843764960672895
 20
7.070293446761123
 30
0.0
 10
2.837538125336081
 20
7.049433620969035
 30
0.0
 10
2.83226868288276
 20
7.038952582374161
 30
0.0
 10
2.820967169508307
 20
7.024933305233244
 30
0.0
 10
2.816555924124777
 20
7.020456932056049
 30
0.0
 10
2.806755348299836
 20
7.012487786475913
 30
0.0
 10
2.801390894282488
 20
7.008985804773517
 30
0.0
 10
2.789643571542815
 20
7.003087668419027
 30
0.0
 10
2.783229051182976
 20
7.000713151923362
 30
0.0
 10
2.77013751607723
 20
6.997532483085413
 30
0.0
 10
2.763260981597179
 20
6.996669195899743
 30
0.0
 10
2.749524191838734
 20
6.996572641119768
 30
0.0
 10
2.742750659141649
 20
6.9973133292468
 30
0.0
 10
2.729393195471256
 20
7.000359892056164
 30
0.0
 10
2.723051459186483
 20
7.002616859640187
 30
0.0
 10
2.711140885942538
 20
7.008396762131097
 30
0.0
 10
2.705577812765814
 20
7.011935955112
 30
0.0
 10
2.695656335515279
 20
7.019829928426141
 30
0.0
 10
2.691185191235991
 20
7.024272366681012
 30
0.0
 10
2.679651978806556
 20
7.038302122323035
 30
0.0
 10
2.674290827571228
 20
7.048756205059286
 30
0.0
 10
2.667863919997493
 20
7.069721423242359
 30
0.0
 10
2.66673004234549
 20
7.080390881191568
 30
0.0
 10
2.667972325517578
 20
7.10078420195915
 30
0.0
 10
2.670355149410475
 20
7.110707807046681
 30
0.0
 10
2.676209182409317
 20
7.124467386023249
 30
0.0
 10
2.678546520916526
 20
7.128896639306805
 30
0.0
 10
2.68405215593038
 20
7.137444009123131
 30
0.0
 10
2.687229688681794
 20
7.141562878689215
 30
0.0
 10
2.694357391429765
 20
7.149255140196265
 30
0.0
 10
2.698321131231381
 20
7.152859407685651
 30
0.0
 10
2.707257288850687
 20
7.159528345306228
 30
0.0
 10
2.712228669999881
 20
7.162579138661495
 30
0.0
 10
2.723101747894474
 20
7.167760145186898
 30
0.0
 10
2.729142409104263
 20
7.169942148887984
 30
0.0
 10
2.741929723779905
 20
7.172942319401963
 30
0.0
 10
2.748825887117867
 20
7.173784084676972
 30
0.0
 10
2.762714036186671
 20
7.173784084676972
 30
0.0
  0
LINE
  5
199
330
1F
100
AcDbEntity
  8
0
  6
CONTINUOUS
 62
     7
100
AcDbLine
 10
2.5195494892
 20
7.2918202588
 30
0.0
 11
2.5295494892
 21
7.3018214994
 31
0.0
  0
LINE
  5
19A
330
1F
100
AcDbEntity
  8
0
  6
CONTINUOUS
 62
     7
100
AcDbLine
 10
2.5195494892
 20
6.0520558791
 30
0.0
 11
2.5195494892
 21
7.2918202588
 31
0.0
  0
LINE
  5
19B
330
1F
100
AcDbEntity
  8
0
  6
CONTINUOUS
 62
     7
100
AcDbLine
 10
4.1337227176
 20
7.2918983988
 30
0.0
 11
4.1337227176
 21
6.0520558791
 31
0.0
  0
LINE
  5
19C
330
1F
100
AcDbEntity
  8
0
  6
CONTINUOUS
 62
     7
100
AcDbLine
 10
2.7557699617
 20
6.9966187303
 30
0.0
 11
2.7573471917
 21
6.9966327729
 31
0.0
  0
ARC
  5
19D
330
1F
100
AcDbEntity
  8
0
  6
CONTINUOUS
 62
     7
100
AcDbCircle
 10
2.7557699617
 20
7.0852014075
 30
0.0
 40
0.088582677165354
100
AcDbArc
 50
82.0531320864
 51
97.0578132604
  0
LINE
  5
19E
330
1F
100
AcDbEntity
  8
0
  6
CONTINUOUS
 62
     7
100
AcDbLine
 10
2.7524115369
 20
6.996682417
 30
0.0
 11
2.7557699617
 21
6.9966187303
 31
0.0
  0
CIRCLE
  5
19F
330
1F
100
AcDbEntity
  8
0
  6
CONTINUOUS
 62
     7
100
AcDbCircle
 10
2.7557699617
 20
7.0852014075
 30
0.0
 40
0.0708661417322833
  0
CIRCLE
  5
1A0
330
1F
100
AcDbEntity
  8
0
  6
CONTINUOUS
 62
     7
100
AcDbCircle
 10
2.7557699617
 20
7.0852014075
 30
0.0
 40
0.0787401574803153
  0
SPLINE
  5
1A1
330
1F
100
AcDbEntity
  8
0
  6
HIDDEN
 62
     7
100
AcDbSpline
210
0.0
220
0.0
230
1.0
 70
     8
 71
     3
 72
    72
 73
    68
 74
     0
 42
0.00000001
 43
0.00000001
 40
-0.0312500000000002
 40
-0.0312500000000002
 40
0.0
 40
0.0
 40
0.0624999999999999
 40
0.0624999999999999
 40
0.1249999999999999
 40
0.1249999999999999
 40
0.1562499999999999
 40
0.1562499999999999
 40
0.1874999999999999
 40
0.1874999999999999
 40
0.2187499999999999
 40
0.2187499999999999
 40
0.2499999999999999
 40
0.2499999999999999
 40
0.265625
 40
0.265625
 40
0.28125
 40
0.28125
 40
0.2968750000000001
 40
0.2968750000000001
 40
0.3125000000000001
 40
0.3125000000000001
 40
0.3281250000000001
 40
0.3281250000000001
 40
0.3437500000000002
 40
0.3437500000000002
 40
0.3750000000000001
 40
0.3750000000000001
 40
0.4375
 40
0.4375
 40
0.4999999999999999
 40
0.4999999999999999
 40
0.5312499999999998
 40
0.5312499999999998
 40
0.5624999999999996
 40
0.5624999999999996
 40
0.5937499999999994
 40
0.5937499999999994
 40
0.6249999999999993
 40
0.6249999999999993
 40
0.6562499999999991
 40
0.6562499999999991
 40
0.687499999999999
 40
0.687499999999999
 40
0.7031249999999989
 40
0.7031249999999989
 40
0.7187499999999988
 40
0.7187499999999988
 40
0.7499999999999988
 40
0.7499999999999988
 40
0.7812499999999987
 40
0.7812499999999987
 40
0.7968749999999988
 40
0.7968749999999988
 40
0.8124999999999989
 40
0.8124999999999989
 40
0.8437499999999991
 40
0.8437499999999991
 40
0.8749999999999992
 40
0.8749999999999992
 40
0.9062499999999994
 40
0.9062499999999994
 40
0.9374999999999997
 40
0.9374999999999997
 40
0.9687499999999998
 40
0.9687499999999998
 40
1.0
 40
1.0
 40
1.0625
 40
1.0625
 10
4.054982560077466
 20
6.188235402305669
 30
0.0
 10
4.054982560077466
 20
6.213130188635021
 30
0.0
 10
4.05162150259047
 20
6.230517065409676
 30
0.0
 10
4.039782048342624
 20
6.266819453293146
 30
0.0
 10
4.031432677438724
 20
6.285287845920289
 30
0.0
 10
4.015624935579742
 20
6.312953769103951
 30
0.0
 10
4.009754998984693
 20
6.322228980259162
 30
0.0
 10
3.996870453211686
 20
6.340409450683882
 30
0.0
 10
3.989871558224235
 20
6.349317560188714
 30
0.0
 10
3.974383466598581
 20
6.366474676523159
 30
0.0
 10
3.965846960238936
 20
6.374780319264733
 30
0.0
 10
3.946938070613143
 20
6.389492012812184
 30
0.0
 10
3.93635541788063
 20
6.396053724839225
 30
0.0
 10
3.918871881894661
 20
6.402467415525941
 30
0.0
 10
3.912673352889094
 20
6.404037572632764
 30
0.0
 10
3.900208026270332
 20
6.405550608588259
 30
0.0
 10
3.893791570485195
 20
6.405507933645469
 30
0.0
 10
3.881296369542463
 20
6.403818578062087
 30
0.0
 10
3.875227712973214
 20
6.402202268954016
 30
0.0
 10
3.863515646372459
 20
6.39776061130596
 30
0.0
 10
3.858030202271463
 20
6.395008447836275
 30
0.0
 10
3.847581207957445
 20
6.388777901669895
 30
0.0
 10
3.842593207608117
 20
6.385274477397274
 30
0.0
 10
3.833154896285052
 20
6.377842681752736
 30
0.0
 10
3.828718447000243
 20
6.373931173613205
 30
0.0
 10
3.816041110444481
 20
6.361793795125599
 30
0.0
 10
3.80842029934478
 20
6.353174585444584
 30
0.0
 10
3.787281863566188
 20
6.326433465218637
 30
0.0
 10
3.775874638322638
 20
6.308035234847591
 30
0.0
 10
3.757184442920237
 20
6.271370741834351
 30
0.0
 10
3.749900920125828
 20
6.252832109858174
 30
0.0
 10
3.743091952752079
 20
6.226357946835145
 30
0.0
 10
3.741492300975504
 20
6.217714802187334
 30
0.0
 10
3.739834362842005
 20
6.200798295088146
 30
0.0
 10
3.739788162410941
 20
6.19246335639003
 30
0.0
 10
3.741540476821685
 20
6.17663063647541
 30
0.0
 10
3.743320675111261
 20
6.169097972966419
 30
0.0
 10
3.749001181743086
 20
6.154786921315146
 30
0.0
 10
3.752956445839084
 20
6.147969223665263
 30
0.0
 10
3.763052524475865
 20
6.13560502522608
 30
0.0
 10
3.769198876025435
 20
6.12998890360535
 30
0.0
 10
3.78406359538302
 20
6.119829089762943
 30
0.0
 10
3.792528836063117
 20
6.115465836731696
 30
0.0
 10
3.806720019808442
 20
6.109900420924962
 30
0.0
 10
3.811706566239207
 20
6.108206042053409
 30
0.0
 10
3.822226721595873
 20
6.105128446899504
 30
0.0
 10
3.827737526054568
 20
6.103755804857997
 30
0.0
 10
3.844594971983235
 20
6.100198661034279
 30
0.0
 10
3.856413450065799
 20
6.098517213334201
 30
0.0
 10
3.881278479874648
 20
6.09644775891293
 30
0.0
 10
3.893793419761059
 20
6.096104396780728
 30
0.0
 10
3.912592617052287
 20
6.096573636529455
 30
0.0
 10
3.918915501618412
 20
6.096901350741137
 30
0.0
 10
3.931295705333287
 20
6.097891759852653
 30
0.0
 10
3.937357312692324
 20
6.098551366534412
 30
0.0
 10
3.95516791846489
 20
6.101033266233379
 30
0.0
 10
3.966687605443818
 20
6.103398860609544
 30
0.0
 10
3.987703354979171
 20
6.109446793643884
 30
0.0
 10
3.99732263569296
 20
6.113142885314133
 30
0.0
 10
4.014523523204275
 20
6.121948903371685
 30
0.0
 10
4.021895210259954
 20
6.126939952085968
 30
0.0
 10
4.03445760642737
 20
6.138205444050309
 30
0.0
 10
4.039588516850175
 20
6.144467349330557
 30
0.0
 10
4.047518934774481
 20
6.157846048504151
 30
0.0
 10
4.050394867265021
 20
6.165072517334718
 30
0.0
 10
4.054121792583387
 20
6.180284026492109
 30
0.0
 10
4.054982560077466
 20
6.188235402305669
 30
0.0
 10
4.054982560077466
 20
6.213130188635021
 30
0.0
  0
SPLINE
  5
1A2
330
1F
100
AcDbEntity
  8
0
  6
HIDDEN
 62
     7
100
AcDbSpline
210
0.0
220
0.0
230
1.0
 70
     8
 71
     3
 72
    54
 73
    50
 74
     0
 42
0.00000001
 43
0.00000001
 40
-0.0625000000000002
 40
-0.0625000000000002
 40
0.0
 40
0.0
 40
0.0625000000000006
 40
0.0625000000000006
 40
0.1250000000000012
 40
0.1250000000000012
 40
0.1562500000000013
 40
0.1562500000000013
 40
0.1875000000000014
 40
0.1875000000000014
 40
0.2187500000000013
 40
0.2187500000000013
 40
0.2500000000000012
 40
0.2500000000000012
 40
0.281250000000001
 40
0.281250000000001
 40
0.3125000000000009
 40
0.3125000000000009
 40
0.3437500000000007
 40
0.3437500000000007
 40
0.3750000000000006
 40
0.3750000000000006
 40
0.4375000000000001
 40
0.4375000000000001
 40
0.4687500000000001
 40
0.4687500000000001
 40
0.4999999999999999
 40
0.4999999999999999
 40
0.5624999999999997
 40
0.5624999999999997
 40
0.6249999999999994
 40
0.6249999999999994
 40
0.6874999999999991
 40
0.6874999999999991
 40
0.7187499999999991
 40
0.7187499999999991
 40
0.749999999999999
 40
0.749999999999999
 40
0.781249999999999
 40
0.781249999999999
 40
0.812499999999999
 40
0.812499999999999
 40
0.8437499999999992
 40
0.8437499999999992
 40
0.8749999999999993
 40
0.8749999999999993
 40
0.9374999999999998
 40
0.9374999999999998
 40
1.0
 40
1.0
 40
1.062500000000001
 40
1.062500000000001
 10
3.98608492228219
 20
7.138400415557302
 30
0.0
 10
3.98608492228219
 20
7.156440811277495
 30
0.0
 10
3.984320731395009
 20
7.164928016313838
 30
0.0
 10
3.976443632234588
 20
7.180847913573737
 30
0.0
 10
3.970393244850589
 20
7.18803414983165
 30
0.0
 10
3.957658857193975
 20
7.197134860922897
 30
0.0
 10
3.952911572250638
 20
7.199814354046877
 30
0.0
 10
3.942320455305547
 20
7.204476714636487
 30
0.0
 10
3.93642911278662
 20
7.20645678702228
 30
0.0
 10
3.924116880221496
 20
7.209483739773883
 30
0.0
 10
3.917552921641416
 20
7.210576790592934
 30
0.0
 10
3.904003665493655
 20
7.211817137727881
 30
0.0
 10
3.897197396215478
 20
7.211959417038766
 30
0.0
 10
3.88352149734358
 20
7.211293269750417
 30
0.0
 10
3.876773589865039
 20
7.210477473729147
 30
0.0
 10
3.863983139688801
 20
7.207958888790567
 30
0.0
 10
3.857827316557939
 20
7.206226635028423
 30
0.0
 10
3.846651528743578
 20
7.202018640703784
 30
0.0
 10
3.84149507766939
 20
7.199496956997312
 30
0.0
 10
3.832382210477877
 20
7.193824935785756
 30
0.0
 10
3.828421826973188
 20
7.190690416985853
 30
0.0
 10
3.818139562175931
 20
7.180388081471723
 30
0.0
 10
3.81366524329691
 20
7.172545546531559
 30
0.0
 10
3.809992659108732
 20
7.159914373722109
 30
0.0
 10
3.809281174113886
 20
7.155593403605163
 30
0.0
 10
3.808771150379207
 20
7.146730349948466
 30
0.0
 10
3.808979497841835
 20
7.142159571495748
 30
0.0
 10
3.810882382290055
 20
7.128390112799478
 30
0.0
 10
3.81379584547099
 20
7.119086547525363
 30
0.0
 10
3.82284953248224
 20
7.100412013071691
 30
0.0
 10
3.828798397802384
 20
7.091374586604668
 30
0.0
 10
3.84420128255042
 20
7.074376354782585
 30
0.0
 10
3.853771489546217
 20
7.066315933820605
 30
0.0
 10
3.871323690021702
 20
7.05762976668548
 30
0.0
 10
3.877590123420972
 20
7.055377302435414
 30
0.0
 10
3.891050341250327
 20
7.052722183385484
 30
0.0
 10
3.89785414129713
 20
7.05240117153323
 30
0.0
 10
3.911616713603282
 20
7.05388471252606
 30
0.0
 10
3.918191231459256
 20
7.055660907118774
 30
0.0
 10
3.930467604310484
 20
7.060687780480094
 30
0.0
 10
3.936008163071291
 20
7.063844220514716
 30
0.0
 10
3.946236251430194
 20
7.071019171970624
 30
0.0
 10
3.950846154813299
 20
7.075000479467624
 30
0.0
 10
3.959089468315506
 20
7.083295227488733
 30
0.0
 10
3.962764838878116
 20
7.087644864022526
 30
0.0
 10
3.972651995663821
 20
7.101142383852493
 30
0.0
 10
3.977533723261489
 20
7.110422509907226
 30
0.0
 10
3.984257827004374
 20
7.128999021859514
 30
0.0
 10
3.98608492228219
 20
7.138400415557302
 30
0.0
 10
3.98608492228219
 20
7.156440811277495
 30
0.0
  0
LINE
  5
1A3
330
1F
100
AcDbEntity
  8
0
  6
HIDDEN
 62
     7
100
AcDbLine
 10
3.6415967333
 20
6.0804425247
 30
0.0
 11
3.6415967333
 21
7.2635117531
 31
0.0
  0
LINE
  5
1A4
330
1F
100
AcDbEntity
  8
0
  6
HIDDEN
 62
     7
100
AcDbLine
 10
3.6612817727
 20
6.0804425247
 30
0.0
 11
3.6612817727
 21
7.2635117531
 31
0.0
  0
LINE
  5
1A5
330
1F
100
AcDbEntity
  8
0
  6
HIDDEN
 62
     7
100
AcDbLine
 10
2.5295494892
 20
6.8685813156
 30
0.0
 11
2.5195494892
 21
6.8785932326
 31
0.0
  0
LINE
  5
1A6
330
1F
100
AcDbEntity
  8
0
  6
HIDDEN
 62
     7
100
AcDbLine
 10
4.1337227176
 20
6.6621346192
 30
0.0
 11
4.1237227176
 21
6.6621346192
 31
0.0
  0
LINE
  5
1A7
330
1F
100
AcDbEntity
  8
0
  6
HIDDEN
 62
     7
100
AcDbLine
 10
4.1337227176
 20
6.6818196586
 30
0.0
 11
4.1237227176
 21
6.6818196586
 31
0.0
  0
LINE
  5
1A8
330
1F
100
AcDbEntity
  8
0
  6
HIDDEN
 62
     7
100
AcDbLine
 10
2.5295494892
 20
6.8685813156
 30
0.0
 11
2.9919904341
 21
6.8685813156
 31
0.0
  0
LINE
  5
1A9
330
1F
100
AcDbEntity
  8
0
  6
HIDDEN
 62
     7
100
AcDbLine
 10
3.6612817727
 20
6.6621346192
 30
0.0
 11
4.1237227176
 21
6.6621346192
 31
0.0
  0
LINE
  5
1AA
330
1F
100
AcDbEntity
  8
0
  6
HIDDEN
 62
     7
100
AcDbLine
 10
3.6612817727
 20
6.6818196586
 30
0.0
 11
4.1237227176
 21
6.6818196586
 31
0.0
  0
CIRCLE
  5
1AB
330
1F
100
AcDbEntity
  8
0
  6
HIDDEN
 62
     7
100
AcDbCircle
 10
2.7557699617
 20
7.0852014075
 30
0.0
 40
0.1574803149606305
  0
LINE
  5
1AC
330
1F
100
AcDbEntity
  8
0
  6
HIDDEN
 62
     7
100
AcDbLine
 10
4.0549825601
 20
6.4357566665
 30
0.0
 11
3.7400219302
 21
6.4357566665
 31
0.0
  0
LINE
  5
1AD
330
1F
100
AcDbEntity
  8
0
  6
HIDDEN
 62
     7
100
AcDbLine
 10
4.0352975207
 20
6.4278826507
 30
0.0
 11
3.7597069695
 21
6.4278826507
 31
0.0
  0
LINE
  5
1AE
330
1F
100
AcDbEntity
  8
0
  6
HIDDEN
 62
     7
100
AcDbLine
 10
3.7597069695
 20
6.2861503673
 30
0.0
 11
4.0352975207
 21
6.2861503673
 31
0.0
  0
LINE
  5
1AF
330
1F
100
AcDbEntity
  8
0
  6
HIDDEN
 62
     7
100
AcDbLine
 10
4.027423505
 20
6.2782763515
 30
0.0
 11
3.7675809853
 21
6.2782763515
 31
0.0
  0
LINE
  5
1B0
330
1F
100
AcDbEntity
  8
0
  6
HIDDEN
 62
     7
100
AcDbLine
 10
3.9762424026
 20
7.1168590287
 30
0.0
 11
3.8187620876
 21
7.1168590287
 31
0.0
  0
LINE
  5
1B1
330
1F
100
AcDbEntity
  8
0
  6
HIDDEN
 62
     7
100
AcDbLine
 10
3.8266361034
 20
7.1247330444
 30
0.0
 11
3.9683683868
 21
7.1247330444
 31
0.0
  0
LINE
  5
1B2
330
1F
100
AcDbEntity
  8
0
  6
HIDDEN
 62
     7
100
AcDbLine
 10
3.8975022451
 20
6.3373314696
 30
0.0
 11
3.8975022451
 21
6.2782763515
 31
0.0
  0
LINE
  5
1B3
330
1F
100
AcDbEntity
  8
0
  6
HIDDEN
 62
     7
100
AcDbLine
 10
3.9565573632
 20
6.3373314696
 30
0.0
 11
3.8975022451
 21
6.3373314696
 31
0.0
  0
LINE
  5
1B4
330
1F
100
AcDbEntity
  8
0
  6
HIDDEN
 62
     7
100
AcDbLine
 10
3.8975022451
 20
6.3373314696
 30
0.0
 11
3.838447127
 21
6.3373314696
 31
0.0
  0
LINE
  5
1B5
330
1F
100
AcDbEntity
  8
0
  6
HIDDEN
 62
     7
100
AcDbLine
 10
3.838447127
 20
6.3373314696
 30
0.0
 11
3.838447127
 21
6.2782763515
 31
0.0
  0
LINE
  5
1B6
330
1F
100
AcDbEntity
  8
0
  6
HIDDEN
 62
     7
100
AcDbLine
 10
3.9565573632
 20
6.3373314696
 30
0.0
 11
3.9565573632
 21
6.2782763515
 31
0.0
  0
CIRCLE
  5
1B7
330
1F
100
AcDbEntity
  8
0
  6
HIDDEN
 62
     7
100
AcDbCircle
 10
2.7557699617
 20
7.0852014075
 30
0.0
 40
0.1377952755905509
  0
CIRCLE
  5
1B8
330
1F
100
AcDbEntity
  8
0
  6
HIDDEN
 62
     7
100
AcDbCircle
 10
2.7557699617
 20
7.0852014075
 30
0.0
 40
0.1299212598425195
  0
LINE
  5
1B9
330
1F
100
AcDbEntity
  8
0
  6
HIDDEN
 62
     7
100
AcDbLine
 10
2.8148250798
 20
7.1192968958
 30
0.0
 11
2.7557699617
 21
7.1533923842
 31
0.0
  0
LINE
  5
1BA
330
1F
100
AcDbEntity
  8
0
  6
HIDDEN
 62
     7
100
AcDbLine
 10
2.7557699617
 20
7.1533923842
 30
0.0
 11
2.6967148435
 21
7.1192968958
 31
0.0
  0
LINE
  5
1BB
330
1F
100
AcDbEntity
  8
0
  6
HIDDEN
 62
     7
100
AcDbLine
 10
2.6967148435
 20
7.1192968958
 30
0.0
 11
2.6967148435
 21
7.0511059192
 31
0.0
  0
LINE
  5
1BC
330
1F
100
AcDbEntity
  8
0
  6
HIDDEN
 62
     7
100
AcDbLine
 10
2.8148250798
 20
7.0511059192
 30
0.0
 11
2.8148250798
 21
7.1192968958
 31
0.0
  0
LINE
  5
1BD
330
1F
100
AcDbEntity
  8
0
  6
HIDDEN
 62
     7
100
AcDbLine
 10
2.7557699617
 20
7.0170104308
 30
0.0
 11
2.8148250798
 21
7.0511059192
 31
0.0
  0
LINE
  5
1BE
330
1F
100
AcDbEntity
  8
0
  6
HIDDEN
 62
     7
100
AcDbLine
 10
2.6967148435
 20
7.0511059192
 30
0.0
 11
2.7557699617
 21
7.0170104308
 31
0.0
  0
LINE
  5
1BF
330
1F
100
AcDbEntity
  8
0
  6
HIDDEN
 62
     7
100
AcDbLine
 10
2.5195494892
 20
6.4651267452
 30
0.0
 11
2.5295494892
 21
6.4751267452
 31
0.0
  0
LINE
  5
1C0
330
1F
100
AcDbEntity
  8
0
  6
HIDDEN
 62
     7
100
AcDbLine
 10
4.1337227176
 20
6.8788275326
 30
0.0
 11
4.1237227176
 21
6.8688275326
 31
0.0
  0
LINE
  5
1C1
330
1F
100
AcDbEntity
  8
0
  6
HIDDEN
 62
     7
100
AcDbLine
 10
4.1237227176
 20
6.4751267452
 30
0.0
 11
4.1337227176
 21
6.4651267452
 31
0.0
  0
LINE
  5
1C2
330
1F
100
AcDbEntity
  8
0
  6
HIDDEN
 62
     7
100
AcDbLine
 10
3.6415967333
 20
6.8688275326
 30
0.0
 11
3.0116754735
 21
6.8688275326
 31
0.0
  0
LINE
  5
1C3
330
1F
100
AcDbEntity
  8
0
  6
HIDDEN
 62
     7
100
AcDbLine
 10
3.0116754735
 20
6.4751267452
 30
0.0
 11
3.6415967333
 21
6.4751267452
 31
0.0
  0
LINE
  5
1C4
330
1F
100
AcDbEntity
  8
0
  6
HIDDEN
 62
     7
100
AcDbLine
 10
2.5295494892
 20
6.4751267452
 30
0.0
 11
2.9919904341
 21
6.4751267452
 31
0.0
  0
LINE
  5
1C5
330
1F
100
AcDbEntity
  8
0
  6
HIDDEN
 62
     7
100
AcDbLine
 10
4.1237227176
 20
6.8688275326
 30
0.0
 11
3.6612817727
 21
6.8688275326
 31
0.0
  0
LINE
  5
1C6
330
1F
100
AcDbEntity
  8
0
  6
HIDDEN
 62
     7
100
AcDbLine
 10
3.6612817727
 20
6.4751267452
 30
0.0
 11
4.1237227176
 21
6.4751267452
 31
0.0
  0
LINE
  5
1C7
330
1F
100
AcDbEntity
  8
0
  6
HIDDEN
 62
     7
100
AcDbLine
 10
4.0549825601
 20
6.1965336644
 30
0.0
 11
4.0549825601
 21
6.4357566665
 31
0.0
  0
LINE
  5
1C8
330
1F
100
AcDbEntity
  8
0
  6
HIDDEN
 62
     7
100
AcDbLine
 10
3.7400219302
 20
6.4357566665
 30
0.0
 11
3.7400219302
 21
6.1966077749
 31
0.0
  0
LINE
  5
1C9
330
1F
100
AcDbEntity
  8
0
  6
HIDDEN
 62
     7
100
AcDbLine
 10
3.9860849223
 20
6.6818196586
 30
0.0
 11
3.9860849223
 21
7.1474206134
 31
0.0
  0
LINE
  5
1CA
330
1F
100
AcDbEntity
  8
0
  6
HIDDEN
 62
     7
100
AcDbLine
 10
3.808919568
 20
7.1473193075
 30
0.0
 11
3.808919568
 21
6.6818196586
 31
0.0
  0
LINE
  5
1CB
330
1F
100
AcDbEntity
  8
0
  6
HIDDEN
 62
     7
100
AcDbLine
 10
3.9860849223
 20
6.4357566665
 30
0.0
 11
3.9860849223
 21
6.6621346192
 31
0.0
  0
LINE
  5
1CC
330
1F
100
AcDbEntity
  8
0
  6
HIDDEN
 62
     7
100
AcDbLine
 10
3.808919568
 20
6.6621346192
 30
0.0
 11
3.808919568
 21
6.4357566665
 31
0.0
  0
LINE
  5
1CD
330
1F
100
AcDbEntity
  8
0
  6
HIDDEN
 62
     7
100
AcDbLine
 10
4.0352975207
 20
6.4278826507
 30
0.0
 11
4.027423505
 21
6.4357566665
 31
0.0
  0
LINE
  5
1CE
330
1F
100
AcDbEntity
  8
0
  6
HIDDEN
 62
     7
100
AcDbLine
 10
3.7675809853
 20
6.4357566665
 30
0.0
 11
3.7597069695
 21
6.4278826507
 31
0.0
  0
LINE
  5
1CF
330
1F
100
AcDbEntity
  8
0
  6
HIDDEN
 62
     7
100
AcDbLine
 10
3.7597069695
 20
6.4278826507
 30
0.0
 11
3.7597069695
 21
6.2861503673
 31
0.0
  0
LINE
  5
1D0
330
1F
100
AcDbEntity
  8
0
  6
HIDDEN
 62
     7
100
AcDbLine
 10
4.0352975207
 20
6.2861503673
 30
0.0
 11
4.0352975207
 21
6.4278826507
 31
0.0
  0
LINE
  5
1D1
330
1F
100
AcDbEntity
  8
0
  6
HIDDEN
 62
     7
100
AcDbLine
 10
3.7597069695
 20
6.2861503673
 30
0.0
 11
3.7675809853
 21
6.2782763515
 31
0.0
  0
LINE
  5
1D2
330
1F
100
AcDbEntity
  8
0
  6
HIDDEN
 62
     7
100
AcDbLine
 10
4.027423505
 20
6.2782763515
 30
0.0
 11
4.0352975207
 21
6.2861503673
 31
0.0
  0
LINE
  5
1D3
330
1F
100
AcDbEntity
  8
0
  6
HIDDEN
 62
     7
100
AcDbLine
 10
3.9762424026
 20
6.4357566665
 30
0.0
 11
3.9762424026
 21
7.1168590287
 31
0.0
  0
LINE
  5
1D4
330
1F
100
AcDbEntity
  8
0
  6
HIDDEN
 62
     7
100
AcDbLine
 10
3.8187620876
 20
7.1168590287
 30
0.0
 11
3.8187620876
 21
6.4357566665
 31
0.0
  0
LINE
  5
1D5
330
1F
100
AcDbEntity
  8
0
  6
HIDDEN
 62
     7
100
AcDbLine
 10
3.9762424026
 20
7.1168590287
 30
0.0
 11
3.9683683868
 21
7.1247330444
 31
0.0
  0
LINE
  5
1D6
330
1F
100
AcDbEntity
  8
0
  6
HIDDEN
 62
     7
100
AcDbLine
 10
3.8266361034
 20
7.1247330444
 30
0.0
 11
3.8187620876
 21
7.1168590287
 31
0.0
  0
LINE
  5
1D7
330
1F
100
AcDbEntity
  8
0
  6
CONTINUOUS
 62
     7
100
AcDbLine
 10
9.1825873335
 20
6.7760453226
 30
0.0
 11
9.1825873335
 21
6.7842094037
 31
0.0
  0
LINE
  5
1D8
330
1F
100
AcDbEntity
  8
0
  6
CONTINUOUS
 62
     7
100
AcDbLine
 10
8.3710877489
 20
6.0110546003
 30
0.0
 11
8.4222307052
 21
5.9815304
 31
0.0
  0
LINE
  5
1D9
330
1F
100
AcDbEntity
  8
0
  6
CONTINUOUS
 62
     7
100
AcDbLine
 10
8.0952355771
 20
6.1703006694
 30
0.0
 11
8.1533031718
 21
6.1367789605
 31
0.0
  0
LINE
  5
1DA
330
1F
100
AcDbEntity
  8
0
  6
CONTINUOUS
 62
     7
100
AcDbLine
 10
7.294980005
 20
6.6322783777
 30
0.0
 11
8.0813161523
 21
6.1783361823
 31
0.0
  0
LINE
  5
1DB
330
1F
100
AcDbEntity
  8
0
  6
CONTINUOUS
 62
     7
100
AcDbLine
 10
8.0266784763
 20
7.6645792725
 30
0.0
 11
7.9248500728
 21
7.7233635586
 31
0.0
  0
LINE
  5
1DC
330
1F
100
AcDbEntity
  8
0
  6
CONTINUOUS
 62
     7
100
AcDbLine
 10
8.2518452009
 20
7.5345932893
 30
0.0
 11
8.1429745829
 21
7.5974429593
 31
0.0
  0
LINE
  5
1DD
330
1F
100
AcDbEntity
  8
0
  6
CONTINUOUS
 62
     7
100
AcDbLine
 10
9.052100773
 20
7.072615581
 30
0.0
 11
8.2657646257
 21
7.5265577764
 31
0.0
  0
LINE
  5
1DE
330
1F
100
AcDbEntity
  8
0
  6
CONTINUOUS
 62
     7
100
AcDbLine
 10
7.6098426454
 20
7.6921355864
 30
0.0
 11
7.6027727268
 21
7.6880528824
 31
0.0
  0
LINE
  5
1DF
330
1F
100
AcDbEntity
  8
0
  6
CONTINUOUS
 62
     7
100
AcDbLine
 10
7.1644934445
 20
6.9288486361
 30
0.0
 11
7.1644934445
 21
6.920684555
 31
0.0
  0
LINE
  5
1E0
330
1F
100
AcDbEntity
  8
0
  6
CONTINUOUS
 62
     7
100
AcDbLine
 10
8.2988002813
 20
6.0152149769
 30
0.0
 11
8.3043671463
 21
6.0120002493
 31
0.0
  0
LINE
  5
1E1
330
1F
100
AcDbEntity
  8
0
  6
CONTINUOUS
 62
     7
100
AcDbLine
 10
8.373275021
 20
6.0051691304
 30
0.0
 11
8.3772789037
 21
6.0074805227
 31
0.0
  0
LINE
  5
1E2
330
1F
100
AcDbEntity
  8
0
  6
CONTINUOUS
 62
     7
100
AcDbLine
 10
8.1177574978
 20
7.6495577238
 30
0.0
 11
8.1121888232
 21
7.6527734962
 31
0.0
  0
LINE
  5
1E3
330
1F
100
AcDbEntity
  8
0
  6
CONTINUOUS
 62
     7
100
AcDbLine
 10
8.140810909
 20
7.5985915217
 30
0.0
 11
8.140810909
 21
7.6174208957
 31
0.0
  0
POLYLINE
  5
1E4
330
1F
100
AcDbEntity
  8
0
  6
CONTINUOUS
 62
     7
100
AcDb2dPolyline
 66
     1
 10
0.0
 20
0.0
 30
0.0
  0
VERTEX
  5
216
330
1E4
100
AcDbEntity
  8
0
  6
CONTINUOUS
 62
     7
100
AcDbVertex
100
AcDb2dVertex
 10
8.7511965193
 20
6.0208815021
 30
0.0
  0
VERTEX
  5
217
330
1E4
100
AcDbEntity
  8
0
  6
CONTINUOUS
 62
     7
100
AcDbVertex
100
AcDb2dVertex
 10
8.7738215583
 20
6.0350330321
 30
0.0
  0
VERTEX
  5
218
330
1E4
100
AcDbEntity
  8
0
  6
CONTINUOUS
 62
     7
100
AcDbVertex
100
AcDb2dVertex
 10
8.796367646
 20
6.0504867504
 30
0.0
  0
VERTEX
  5
219
330
1E4
100
AcDbEntity
  8
0
  6
CONTINUOUS
 62
     7
100
AcDbVertex
100
AcDb2dVertex
 10
8.8187746148
 20
6.0672014162
 30
0.0
  0
VERTEX
  5
21A
330
1E4
100
AcDbEntity
  8
0
  6
CONTINUOUS
 62
     7
100
AcDbVertex
100
AcDb2dVertex
 10
8.8409826684
 20
6.0851324242
 30
0.0
  0
VERTEX
  5
21B
330
1E4
100
AcDbEntity
  8
0
  6
CONTINUOUS
 62
     7
100
AcDbVertex
100
AcDb2dVertex
 10
8.8629325413
 20
6.1042319227
 30
0.0
  0
VERTEX
  5
21C
330
1E4
100
AcDbEntity
  8
0
  6
CONTINUOUS
 62
     7
100
AcDbVertex
100
AcDb2dVertex
 10
8.884565657
 20
6.1244489418
 30
0.0
  0
VERTEX
  5
21D
330
1E4
100
AcDbEntity
  8
0
  6
CONTINUOUS
 62
     7
100
AcDbVertex
100
AcDb2dVertex
 10
8.9058242843
 20
6.1457295295
 30
0.0
  0
VERTEX
  5
21E
330
1E4
100
AcDbEntity
  8
0
  6
CONTINUOUS
 62
     7
100
AcDbVertex
100
AcDb2dVertex
 10
8.9266516914
 20
6.1680168953
 30
0.0
  0
VERTEX
  5
21F
330
1E4
100
AcDbEntity
  8
0
  6
CONTINUOUS
 62
     7
100
AcDbVertex
100
AcDb2dVertex
 10
8.9469922974
 20
6.1912515621
 30
0.0
  0
VERTEX
  5
220
330
1E4
100
AcDbEntity
  8
0
  6
CONTINUOUS
 62
     7
100
AcDbVertex
100
AcDb2dVertex
 10
8.9667918201
 20
6.2153715248
 30
0.0
  0
VERTEX
  5
221
330
1E4
100
AcDbEntity
  8
0
  6
CONTINUOUS
 62
     7
100
AcDbVertex
100
AcDb2dVertex
 10
8.9859974218
 20
6.2403124156
 30
0.0
  0
VERTEX
  5
222
330
1E4
100
AcDbEntity
  8
0
  6
CONTINUOUS
 62
     7
100
AcDbVertex
100
AcDb2dVertex
 10
9.0045578493
 20
6.2660076761
 30
0.0
  0
VERTEX
  5
223
330
1E4
100
AcDbEntity
  8
0
  6
CONTINUOUS
 62
     7
100
AcDbVertex
100
AcDb2dVertex
 10
9.0224235715
 20
6.2923887345
 30
0.0
  0
VERTEX
  5
224
330
1E4
100
AcDbEntity
  8
0
  6
CONTINUOUS
 62
     7
100
AcDbVertex
100
AcDb2dVertex
 10
9.039546911
 20
6.3193851893
 30
0.0
  0
VERTEX
  5
225
330
1E4
100
AcDbEntity
  8
0
  6
CONTINUOUS
 62
     7
100
AcDbVertex
100
AcDb2dVertex
 10
9.0558821715
 20
6.3469249963
 30
0.0
  0
VERTEX
  5
226
330
1E4
100
AcDbEntity
  8
0
  6
CONTINUOUS
 62
     7
100
AcDbVertex
100
AcDb2dVertex
 10
9.0713857602
 20
6.3749346614
 30
0.0
  0
VERTEX
  5
227
330
1E4
100
AcDbEntity
  8
0
  6
CONTINUOUS
 62
     7
100
AcDbVertex
100
AcDb2dVertex
 10
9.0860163032
 20
6.4033394367
 30
0.0
  0
VERTEX
  5
228
330
1E4
100
AcDbEntity
  8
0
  6
CONTINUOUS
 62
     7
100
AcDbVertex
100
AcDb2dVertex
 10
9.0997347569
 20
6.4320635199
 30
0.0
  0
VERTEX
  5
229
330
1E4
100
AcDbEntity
  8
0
  6
CONTINUOUS
 62
     7
100
AcDbVertex
100
AcDb2dVertex
 10
9.1125045116
 20
6.4610302564
 30
0.0
  0
VERTEX
  5
22A
330
1E4
100
AcDbEntity
  8
0
  6
CONTINUOUS
 62
     7
100
AcDbVertex
100
AcDb2dVertex
 10
9.1242914891
 20
6.4901623442
 30
0.0
  0
VERTEX
  5
22B
330
1E4
100
AcDbEntity
  8
0
  6
CONTINUOUS
 62
     7
100
AcDbVertex
100
AcDb2dVertex
 10
9.1350642343
 20
6.5193820401
 30
0.0
  0
VERTEX
  5
22C
330
1E4
100
AcDbEntity
  8
0
  6
CONTINUOUS
 62
     7
100
AcDbVertex
100
AcDb2dVertex
 10
9.1447939984
 20
6.5486113668
 30
0.0
  0
VERTEX
  5
22D
330
1E4
100
AcDbEntity
  8
0
  6
CONTINUOUS
 62
     7
100
AcDbVertex
100
AcDb2dVertex
 10
9.1534548161
 20
6.5777723217
 30
0.0
  0
VERTEX
  5
22E
330
1E4
100
AcDbEntity
  8
0
  6
CONTINUOUS
 62
     7
100
AcDbVertex
100
AcDb2dVertex
 10
9.1610235748
 20
6.6067870843
 30
0.0
  0
VERTEX
  5
22F
330
1E4
100
AcDbEntity
  8
0
  6
CONTINUOUS
 62
     7
100
AcDbVertex
100
AcDb2dVertex
 10
9.1674800761
 20
6.6355782245
 30
0.0
  0
VERTEX
  5
230
330
1E4
100
AcDbEntity
  8
0
  6
CONTINUOUS
 62
     7
100
AcDbVertex
100
AcDb2dVertex
 10
9.1728070899
 20
6.6640689089
 30
0.0
  0
VERTEX
  5
231
330
1E4
100
AcDbEntity
  8
0
  6
CONTINUOUS
 62
     7
100
AcDbVertex
100
AcDb2dVertex
 10
9.1769904002
 20
6.6921831057
 30
0.0
  0
VERTEX
  5
232
330
1E4
100
AcDbEntity
  8
0
  6
CONTINUOUS
 62
     7
100
AcDbVertex
100
AcDb2dVertex
 10
9.1800188433
 20
6.7198457882
 30
0.0
  0
VERTEX
  5
233
330
1E4
100
AcDbEntity
  8
0
  6
CONTINUOUS
 62
     7
100
AcDbVertex
100
AcDb2dVertex
 10
9.1818843372
 20
6.7469831343
 30
0.0
  0
VERTEX
  5
234
330
1E4
100
AcDbEntity
  8
0
  6
CONTINUOUS
 62
     7
100
AcDbVertex
100
AcDb2dVertex
 10
9.1825819037
 20
6.7735227239
 30
0.0
  0
VERTEX
  5
235
330
1E4
100
AcDbEntity
  8
0
  6
CONTINUOUS
 62
     7
100
AcDbVertex
100
AcDb2dVertex
 10
9.1821096813
 20
6.7993937323
 30
0.0
  0
VERTEX
  5
236
330
1E4
100
AcDbEntity
  8
0
  6
CONTINUOUS
 62
     7
100
AcDbVertex
100
AcDb2dVertex
 10
9.18046893
 20
6.8245271188
 30
0.0
  0
VERTEX
  5
237
330
1E4
100
AcDbEntity
  8
0
  6
CONTINUOUS
 62
     7
100
AcDbVertex
100
AcDb2dVertex
 10
9.1776640284
 20
6.8488558113
 30
0.0
  0
VERTEX
  5
238
330
1E4
100
AcDbEntity
  8
0
  6
CONTINUOUS
 62
     7
100
AcDbVertex
100
AcDb2dVertex
 10
9.173702462
 20
6.8723148849
 30
0.0
  0
VERTEX
  5
239
330
1E4
100
AcDbEntity
  8
0
  6
CONTINUOUS
 62
     7
100
AcDbVertex
100
AcDb2dVertex
 10
9.1685948027
 20
6.8948417358
 30
0.0
  0
VERTEX
  5
23A
330
1E4
100
AcDbEntity
  8
0
  6
CONTINUOUS
 62
     7
100
AcDbVertex
100
AcDb2dVertex
 10
9.162354681
 20
6.9163762476
 30
0.0
  0
VERTEX
  5
23B
330
1E4
100
AcDbEntity
  8
0
  6
CONTINUOUS
 62
     7
100
AcDbVertex
100
AcDb2dVertex
 10
9.1549987496
 20
6.9368609523
 30
0.0
  0
VERTEX
  5
23C
330
1E4
100
AcDbEntity
  8
0
  6
CONTINUOUS
 62
     7
100
AcDbVertex
100
AcDb2dVertex
 10
9.146546639
 20
6.9562411834
 30
0.0
  0
VERTEX
  5
23D
330
1E4
100
AcDbEntity
  8
0
  6
CONTINUOUS
 62
     7
100
AcDbVertex
100
AcDb2dVertex
 10
9.1370209049
 20
6.9744652219
 30
0.0
  0
VERTEX
  5
23E
330
1E4
100
AcDbEntity
  8
0
  6
CONTINUOUS
 62
     7
100
AcDbVertex
100
AcDb2dVertex
 10
9.126446968
 20
6.9914844343
 30
0.0
  0
VERTEX
  5
23F
330
1E4
100
AcDbEntity
  8
0
  6
CONTINUOUS
 62
     7
100
AcDbVertex
100
AcDb2dVertex
 10
9.1148530465
 20
7.0072534022
 30
0.0
  0
VERTEX
  5
240
330
1E4
100
AcDbEntity
  8
0
  6
CONTINUOUS
 62
     7
100
AcDbVertex
100
AcDb2dVertex
 10
9.1022700806
 20
7.0217300438
 30
0.0
  0
VERTEX
  5
241
330
1E4
100
AcDbEntity
  8
0
  6
CONTINUOUS
 62
     7
100
AcDbVertex
100
AcDb2dVertex
 10
9.0887316497
 20
7.034875726
 30
0.0
  0
VERTEX
  5
242
330
1E4
100
AcDbEntity
  8
0
  6
CONTINUOUS
 62
     7
100
AcDbVertex
100
AcDb2dVertex
 10
9.0742738831
 20
7.0466553677
 30
0.0
  0
VERTEX
  5
243
330
1E4
100
AcDbEntity
  8
0
  6
CONTINUOUS
 62
     7
100
AcDbVertex
100
AcDb2dVertex
 10
9.0589353635
 20
7.0570375331
 30
0.0
  0
VERTEX
  5
244
330
1E4
100
AcDbEntity
  8
0
  6
CONTINUOUS
 62
     7
100
AcDbVertex
100
AcDb2dVertex
 10
9.0427570241
 20
7.0659945159
 30
0.0
  0
VERTEX
  5
245
330
1E4
100
AcDbEntity
  8
0
  6
CONTINUOUS
 62
     7
100
AcDbVertex
100
AcDb2dVertex
 10
9.0257820392
 20
7.073502413
 30
0.0
  0
VERTEX
  5
246
330
1E4
100
AcDbEntity
  8
0
  6
CONTINUOUS
 62
     7
100
AcDbVertex
100
AcDb2dVertex
 10
9.008055709
 20
7.0795411884
 30
0.0
  0
VERTEX
  5
247
330
1E4
100
AcDbEntity
  8
0
  6
CONTINUOUS
 62
     7
100
AcDbVertex
100
AcDb2dVertex
 10
8.9896253389
 20
7.0840947269
 30
0.0
  0
VERTEX
  5
248
330
1E4
100
AcDbEntity
  8
0
  6
CONTINUOUS
 62
     7
100
AcDbVertex
100
AcDb2dVertex
 10
8.970540113
 20
7.0871508766
 30
0.0
  0
VERTEX
  5
249
330
1E4
100
AcDbEntity
  8
0
  6
CONTINUOUS
 62
     7
100
AcDbVertex
100
AcDb2dVertex
 10
8.9508509631
 20
7.0887014818
 30
0.0
  0
VERTEX
  5
24A
330
1E4
100
AcDbEntity
  8
0
  6
CONTINUOUS
 62
     7
100
AcDbVertex
100
AcDb2dVertex
 10
8.9306104326
 20
7.0887424043
 30
0.0
  0
VERTEX
  5
24B
330
1E4
100
AcDbEntity
  8
0
  6
CONTINUOUS
 62
     7
100
AcDbVertex
100
AcDb2dVertex
 10
8.9098725365
 20
7.0872735351
 30
0.0
  0
VERTEX
  5
24C
330
1E4
100
AcDbEntity
  8
0
  6
CONTINUOUS
 62
     7
100
AcDbVertex
100
AcDb2dVertex
 10
8.8886926168
 20
7.0842987939
 30
0.0
  0
VERTEX
  5
24D
330
1E4
100
AcDbEntity
  8
0
  6
CONTINUOUS
 62
     7
100
AcDbVertex
100
AcDb2dVertex
 10
8.8671271953
 20
7.0798261194
 30
0.0
  0
VERTEX
  5
24E
330
1E4
100
AcDbEntity
  8
0
  6
CONTINUOUS
 62
     7
100
AcDbVertex
100
AcDb2dVertex
 10
8.8452338226
 20
7.0738674476
 30
0.0
  0
VERTEX
  5
24F
330
1E4
100
AcDbEntity
  8
0
  6
CONTINUOUS
 62
     7
100
AcDbVertex
100
AcDb2dVertex
 10
8.8230709243
 20
7.0664386799
 30
0.0
  0
VERTEX
  5
250
330
1E4
100
AcDbEntity
  8
0
  6
CONTINUOUS
 62
     7
100
AcDbVertex
100
AcDb2dVertex
 10
8.8006976455
 20
7.0575596413
 30
0.0
  0
VERTEX
  5
251
330
1E4
100
AcDbEntity
  8
0
  6
CONTINUOUS
 62
     7
100
AcDbVertex
100
AcDb2dVertex
 10
8.7781736925
 20
7.0472540267
 30
0.0
  0
VERTEX
  5
252
330
1E4
100
AcDbEntity
  8
0
  6
CONTINUOUS
 62
     7
100
AcDbVertex
100
AcDb2dVertex
 10
8.7555591739
 20
7.0355493382
 30
0.0
  0
VERTEX
  5
253
330
1E4
100
AcDbEntity
  8
0
  6
CONTINUOUS
 62
     7
100
AcDbVertex
100
AcDb2dVertex
 10
8.7329144399
 20
7.0224768115
 30
0.0
  0
VERTEX
  5
254
330
1E4
100
AcDbEntity
  8
0
  6
CONTINUOUS
 62
     7
100
AcDbVertex
100
AcDb2dVertex
 10
8.7102999213
 20
7.0080713326
 30
0.0
  0
VERTEX
  5
255
330
1E4
100
AcDbEntity
  8
0
  6
CONTINUOUS
 62
     7
100
AcDbVertex
100
AcDb2dVertex
 10
8.6877759683
 20
6.9923713447
 30
0.0
  0
VERTEX
  5
256
330
1E4
100
AcDbEntity
  8
0
  6
CONTINUOUS
 62
     7
100
AcDbVertex
100
AcDb2dVertex
 10
8.6654026895
 20
6.9754187454
 30
0.0
  0
VERTEX
  5
257
330
1E4
100
AcDbEntity
  8
0
  6
CONTINUOUS
 62
     7
100
AcDbVertex
100
AcDb2dVertex
 10
8.6432397912
 20
6.9572587753
 30
0.0
  0
VERTEX
  5
258
330
1E4
100
AcDbEntity
  8
0
  6
CONTINUOUS
 62
     7
100
AcDbVertex
100
AcDb2dVertex
 10
8.6213464185
 20
6.9379398971
 30
0.0
  0
VERTEX
  5
259
330
1E4
100
AcDbEntity
  8
0
  6
CONTINUOUS
 62
     7
100
AcDbVertex
100
AcDb2dVertex
 10
8.599780997
 20
6.9175136659
 30
0.0
  0
VERTEX
  5
25A
330
1E4
100
AcDbEntity
  8
0
  6
CONTINUOUS
 62
     7
100
AcDbVertex
100
AcDb2dVertex
 10
8.5786010773
 20
6.8960345923
 30
0.0
  0
VERTEX
  5
25B
330
1E4
100
AcDbEntity
  8
0
  6
CONTINUOUS
 62
     7
100
AcDbVertex
100
AcDb2dVertex
 10
8.5578631811
 20
6.8735599963
 30
0.0
  0
VERTEX
  5
25C
330
1E4
100
AcDbEntity
  8
0
  6
CONTINUOUS
 62
     7
100
AcDbVertex
100
AcDb2dVertex
 10
8.5376226507
 20
6.8501498547
 30
0.0
  0
VERTEX
  5
25D
330
1E4
100
AcDbEntity
  8
0
  6
CONTINUOUS
 62
     7
100
AcDbVertex
100
AcDb2dVertex
 10
8.5179335008
 20
6.825866641
 30
0.0
  0
VERTEX
  5
25E
330
1E4
100
AcDbEntity
  8
0
  6
CONTINUOUS
 62
     7
100
AcDbVertex
100
AcDb2dVertex
 10
8.4988482749
 20
6.8007751585
 30
0.0
  0
VERTEX
  5
25F
330
1E4
100
AcDbEntity
  8
0
  6
CONTINUOUS
 62
     7
100
AcDbVertex
100
AcDb2dVertex
 10
8.4804179048
 20
6.7749423676
 30
0.0
  0
VERTEX
  5
260
330
1E4
100
AcDbEntity
  8
0
  6
CONTINUOUS
 62
     7
100
AcDbVertex
100
AcDb2dVertex
 10
8.4626915746
 20
6.7484372069
 30
0.0
  0
VERTEX
  5
261
330
1E4
100
AcDbEntity
  8
0
  6
CONTINUOUS
 62
     7
100
AcDbVertex
100
AcDb2dVertex
 10
8.4457165896
 20
6.7213304094
 30
0.0
  0
VERTEX
  5
262
330
1E4
100
AcDbEntity
  8
0
  6
CONTINUOUS
 62
     7
100
AcDbVertex
100
AcDb2dVertex
 10
8.4295382502
 20
6.6936943136
 30
0.0
  0
VERTEX
  5
263
330
1E4
100
AcDbEntity
  8
0
  6
CONTINUOUS
 62
     7
100
AcDbVertex
100
AcDb2dVertex
 10
8.4141997307
 20
6.6656026705
 30
0.0
  0
VERTEX
  5
264
330
1E4
100
AcDbEntity
  8
0
  6
CONTINUOUS
 62
     7
100
AcDbVertex
100
AcDb2dVertex
 10
8.3997419641
 20
6.6371304468
 30
0.0
  0
VERTEX
  5
265
330
1E4
100
AcDbEntity
  8
0
  6
CONTINUOUS
 62
     7
100
AcDbVertex
100
AcDb2dVertex
 10
8.3862035332
 20
6.6083536249
 30
0.0
  0
VERTEX
  5
266
330
1E4
100
AcDbEntity
  8
0
  6
CONTINUOUS
 62
     7
100
AcDbVertex
100
AcDb2dVertex
 10
8.3736205672
 20
6.5793490001
 30
0.0
  0
VERTEX
  5
267
330
1E4
100
AcDbEntity
  8
0
  6
CONTINUOUS
 62
     7
100
AcDbVertex
100
AcDb2dVertex
 10
8.3620266458
 20
6.5501939754
 30
0.0
  0
VERTEX
  5
268
330
1E4
100
AcDbEntity
  8
0
  6
CONTINUOUS
 62
     7
100
AcDbVertex
100
AcDb2dVertex
 10
8.3514527089
 20
6.5209663554
 30
0.0
  0
VERTEX
  5
269
330
1E4
100
AcDbEntity
  8
0
  6
CONTINUOUS
 62
     7
100
AcDbVertex
100
AcDb2dVertex
 10
8.3419269748
 20
6.4917441383
 30
0.0
  0
VERTEX
  5
26A
330
1E4
100
AcDbEntity
  8
0
  6
CONTINUOUS
 62
     7
100
AcDbVertex
100
AcDb2dVertex
 10
8.3334748641
 20
6.462605308
 30
0.0
  0
VERTEX
  5
26B
330
1E4
100
AcDbEntity
  8
0
  6
CONTINUOUS
 62
     7
100
AcDbVertex
100
AcDb2dVertex
 10
8.3261189328
 20
6.4336276258
 30
0.0
  0
VERTEX
  5
26C
330
1E4
100
AcDbEntity
  8
0
  6
CONTINUOUS
 62
     7
100
AcDbVertex
100
AcDb2dVertex
 10
8.3198788111
 20
6.4048884228
 30
0.0
  0
VERTEX
  5
26D
330
1E4
100
AcDbEntity
  8
0
  6
CONTINUOUS
 62
     7
100
AcDbVertex
100
AcDb2dVertex
 10
8.3147711518
 20
6.376464394
 30
0.0
  0
VERTEX
  5
26E
330
1E4
100
AcDbEntity
  8
0
  6
CONTINUOUS
 62
     7
100
AcDbVertex
100
AcDb2dVertex
 10
8.3108095853
 20
6.3484313931
 30
0.0
  0
VERTEX
  5
26F
330
1E4
100
AcDbEntity
  8
0
  6
CONTINUOUS
 62
     7
100
AcDbVertex
100
AcDb2dVertex
 10
8.3080046838
 20
6.3208642303
 30
0.0
  0
VERTEX
  5
270
330
1E4
100
AcDbEntity
  8
0
  6
CONTINUOUS
 62
     7
100
AcDbVertex
100
AcDb2dVertex
 10
8.3063639325
 20
6.2938364726
 30
0.0
  0
VERTEX
  5
271
330
1E4
100
AcDbEntity
  8
0
  6
CONTINUOUS
 62
     7
100
AcDbVertex
100
AcDb2dVertex
 10
8.30589171
 20
6.2674202478
 30
0.0
  0
VERTEX
  5
272
330
1E4
100
AcDbEntity
  8
0
  6
CONTINUOUS
 62
     7
100
AcDbVertex
100
AcDb2dVertex
 10
8.3065892765
 20
6.2416860513
 30
0.0
  0
VERTEX
  5
273
330
1E4
100
AcDbEntity
  8
0
  6
CONTINUOUS
 62
     7
100
AcDbVertex
100
AcDb2dVertex
 10
8.3084547705
 20
6.2167025587
 30
0.0
  0
VERTEX
  5
274
330
1E4
100
AcDbEntity
  8
0
  6
CONTINUOUS
 62
     7
100
AcDbVertex
100
AcDb2dVertex
 10
8.3114832136
 20
6.1925364422
 30
0.0
  0
VERTEX
  5
275
330
1E4
100
AcDbEntity
  8
0
  6
CONTINUOUS
 62
     7
100
AcDbVertex
100
AcDb2dVertex
 10
8.3156665239
 20
6.1692521926
 30
0.0
  0
VERTEX
  5
276
330
1E4
100
AcDbEntity
  8
0
  6
CONTINUOUS
 62
     7
100
AcDbVertex
100
AcDb2dVertex
 10
8.3209935376
 20
6.1469119474
 30
0.0
  0
VERTEX
  5
277
330
1E4
100
AcDbEntity
  8
0
  6
CONTINUOUS
 62
     7
100
AcDbVertex
100
AcDb2dVertex
 10
8.3274500389
 20
6.1255753249
 30
0.0
  0
VERTEX
  5
278
330
1E4
100
AcDbEntity
  8
0
  6
CONTINUOUS
 62
     7
100
AcDbVertex
100
AcDb2dVertex
 10
8.3350187976
 20
6.1052992651
 30
0.0
  0
VERTEX
  5
279
330
1E4
100
AcDbEntity
  8
0
  6
CONTINUOUS
 62
     7
100
AcDbVertex
100
AcDb2dVertex
 10
8.3436796154
 20
6.0861378776
 30
0.0
  0
VERTEX
  5
27A
330
1E4
100
AcDbEntity
  8
0
  6
CONTINUOUS
 62
     7
100
AcDbVertex
100
AcDb2dVertex
 10
8.3534093795
 20
6.0681422973
 30
0.0
  0
VERTEX
  5
27B
330
1E4
100
AcDbEntity
  8
0
  6
CONTINUOUS
 62
     7
100
AcDbVertex
100
AcDb2dVertex
 10
8.3641821247
 20
6.0513605483
 30
0.0
  0
VERTEX
  5
27C
330
1E4
100
AcDbEntity
  8
0
  6
CONTINUOUS
 62
     7
100
AcDbVertex
100
AcDb2dVertex
 10
8.3759691022
 20
6.0358374151
 30
0.0
  0
VERTEX
  5
27D
330
1E4
100
AcDbEntity
  8
0
  6
CONTINUOUS
 62
     7
100
AcDbVertex
100
AcDb2dVertex
 10
8.3887388568
 20
6.0216143234
 30
0.0
  0
VERTEX
  5
27E
330
1E4
100
AcDbEntity
  8
0
  6
CONTINUOUS
 62
     7
100
AcDbVertex
100
AcDb2dVertex
 10
8.4024573105
 20
6.0087292298
 30
0.0
  0
VERTEX
  5
27F
330
1E4
100
AcDbEntity
  8
0
  6
CONTINUOUS
 62
     7
100
AcDbVertex
100
AcDb2dVertex
 10
8.4170878536
 20
5.9972165199
 30
0.0
  0
VERTEX
  5
280
330
1E4
100
AcDbEntity
  8
0
  6
CONTINUOUS
 62
     7
100
AcDbVertex
100
AcDb2dVertex
 10
8.4325914422
 20
5.9871069172
 30
0.0
  0
VERTEX
  5
281
330
1E4
100
AcDbEntity
  8
0
  6
CONTINUOUS
 62
     7
100
AcDbVertex
100
AcDb2dVertex
 10
8.4489267028
 20
5.9784274006
 30
0.0
  0
VERTEX
  5
282
330
1E4
100
AcDbEntity
  8
0
  6
CONTINUOUS
 62
     7
100
AcDbVertex
100
AcDb2dVertex
 10
8.4660500423
 20
5.9712011328
 30
0.0
  0
VERTEX
  5
283
330
1E4
100
AcDbEntity
  8
0
  6
CONTINUOUS
 62
     7
100
AcDbVertex
100
AcDb2dVertex
 10
8.4839157645
 20
5.9654473981
 30
0.0
  0
VERTEX
  5
284
330
1E4
100
AcDbEntity
  8
0
  6
CONTINUOUS
 62
     7
100
AcDbVertex
100
AcDb2dVertex
 10
8.502476192
 20
5.9611815511
 30
0.0
  0
VERTEX
  5
285
330
1E4
100
AcDbEntity
  8
0
  6
CONTINUOUS
 62
     7
100
AcDbVertex
100
AcDb2dVertex
 10
8.5216817936
 20
5.958414976
 30
0.0
  0
VERTEX
  5
286
330
1E4
100
AcDbEntity
  8
0
  6
CONTINUOUS
 62
     7
100
AcDbVertex
100
AcDb2dVertex
 10
8.5414813164
 20
5.9571550557
 30
0.0
  0
VERTEX
  5
287
330
1E4
100
AcDbEntity
  8
0
  6
CONTINUOUS
 62
     7
100
AcDbVertex
100
AcDb2dVertex
 10
8.5618219223
 20
5.9574051526
 30
0.0
  0
VERTEX
  5
288
330
1E4
100
AcDbEntity
  8
0
  6
CONTINUOUS
 62
     7
100
AcDbVertex
100
AcDb2dVertex
 10
8.5826493295
 20
5.9591645992
 30
0.0
  0
VERTEX
  5
289
330
1E4
100
AcDbEntity
  8
0
  6
CONTINUOUS
 62
     7
100
AcDbVertex
100
AcDb2dVertex
 10
8.6039079568
 20
5.9624287002
 30
0.0
  0
VERTEX
  5
28A
330
1E4
100
AcDbEntity
  8
0
  6
CONTINUOUS
 62
     7
100
AcDbVertex
100
AcDb2dVertex
 10
8.6255410725
 20
5.9671887448
 30
0.0
  0
VERTEX
  5
28B
330
1E4
100
AcDbEntity
  8
0
  6
CONTINUOUS
 62
     7
100
AcDbVertex
100
AcDb2dVertex
 10
8.6474909454
 20
5.9734320301
 30
0.0
  0
VERTEX
  5
28C
330
1E4
100
AcDbEntity
  8
0
  6
CONTINUOUS
 62
     7
100
AcDbVertex
100
AcDb2dVertex
 10
8.669698999
 20
5.981141895
 30
0.0
  0
VERTEX
  5
28D
330
1E4
100
AcDbEntity
  8
0
  6
CONTINUOUS
 62
     7
100
AcDbVertex
100
AcDb2dVertex
 10
8.6921059678
 20
5.9902977647
 30
0.0
  0
VERTEX
  5
28E
330
1E4
100
AcDbEntity
  8
0
  6
CONTINUOUS
 62
     7
100
AcDbVertex
100
AcDb2dVertex
 10
8.7146520555
 20
6.0008752052
 30
0.0
  0
VERTEX
  5
28F
330
1E4
100
AcDbEntity
  8
0
  6
CONTINUOUS
 62
     7
100
AcDbVertex
100
AcDb2dVertex
 10
8.7372770945
 20
6.0128459892
 30
0.0
  0
SEQEND
  5
290
330
1E4
100
AcDbEntity
  8
0
  6
CONTINUOUS
 62
     7
  0
LINE
  5
1E5
330
1F
100
AcDbEntity
  8
0
  6
CONTINUOUS
 62
     7
100
AcDbLine
 10
8.7302060267
 20
6.0087616086
 30
0.0
 11
8.7372770945
 21
6.0128459892
 31
0.0
  0
POLYLINE
  5
1E6
330
1F
100
AcDbEntity
  8
0
  6
CONTINUOUS
 62
     7
100
AcDb2dPolyline
 66
     1
 10
0.0
 20
0.0
 30
0.0
  0
VERTEX
  5
291
330
1E6
100
AcDbEntity
  8
0
  6
CONTINUOUS
 62
     7
100
AcDbVertex
100
AcDb2dVertex
 10
8.7302060267
 20
6.0087616086
 30
0.0
  0
VERTEX
  5
292
330
1E6
100
AcDbEntity
  8
0
  6
CONTINUOUS
 62
     7
100
AcDbVertex
100
AcDb2dVertex
 10
8.7074021471
 20
5.9966840207
 30
0.0
  0
VERTEX
  5
293
330
1E6
100
AcDbEntity
  8
0
  6
CONTINUOUS
 62
     7
100
AcDbVertex
100
AcDb2dVertex
 10
8.6846764122
 20
5.9859989757
 30
0.0
  0
VERTEX
  5
294
330
1E6
100
AcDbEntity
  8
0
  6
CONTINUOUS
 62
     7
100
AcDbVertex
100
AcDb2dVertex
 10
8.6620884887
 20
5.9767345271
 30
0.0
  0
VERTEX
  5
295
330
1E6
100
AcDbEntity
  8
0
  6
CONTINUOUS
 62
     7
100
AcDbVertex
100
AcDb2dVertex
 10
8.6396976814
 20
5.968914999
 30
0.0
  0
VERTEX
  5
296
330
1E6
100
AcDbEntity
  8
0
  6
CONTINUOUS
 62
     7
100
AcDbVertex
100
AcDb2dVertex
 10
8.6175627778
 20
5.9625609217
 30
0.0
  0
VERTEX
  5
297
330
1E6
100
AcDbEntity
  8
0
  6
CONTINUOUS
 62
     7
100
AcDbVertex
100
AcDb2dVertex
 10
8.5957418932
 20
5.9576889777
 30
0.0
  0
VERTEX
  5
298
330
1E6
100
AcDbEntity
  8
0
  6
CONTINUOUS
 62
     7
100
AcDbVertex
100
AcDb2dVertex
 10
8.5742923186
 20
5.9543119585
 30
0.0
  0
VERTEX
  5
299
330
1E6
100
AcDbEntity
  8
0
  6
CONTINUOUS
 62
     7
100
AcDbVertex
100
AcDb2dVertex
 10
8.5532703702
 20
5.9524387305
 30
0.0
  0
VERTEX
  5
29A
330
1E6
100
AcDbEntity
  8
0
  6
CONTINUOUS
 62
     7
100
AcDbVertex
100
AcDb2dVertex
 10
8.5327312414
 20
5.9520742118
 30
0.0
  0
VERTEX
  5
29B
330
1E6
100
AcDbEntity
  8
0
  6
CONTINUOUS
 62
     7
100
AcDbVertex
100
AcDb2dVertex
 10
8.5127288579
 20
5.9532193596
 30
0.0
  0
VERTEX
  5
29C
330
1E6
100
AcDbEntity
  8
0
  6
CONTINUOUS
 62
     7
100
AcDbVertex
100
AcDb2dVertex
 10
8.4933157362
 20
5.9558711672
 30
0.0
  0
VERTEX
  5
29D
330
1E6
100
AcDbEntity
  8
0
  6
CONTINUOUS
 62
     7
100
AcDbVertex
100
AcDb2dVertex
 10
8.4745428457
 20
5.9600226722
 30
0.0
  0
VERTEX
  5
29E
330
1E6
100
AcDbEntity
  8
0
  6
CONTINUOUS
 62
     7
100
AcDbVertex
100
AcDb2dVertex
 10
8.4564594749
 20
5.9656629748
 30
0.0
  0
VERTEX
  5
29F
330
1E6
100
AcDbEntity
  8
0
  6
CONTINUOUS
 62
     7
100
AcDbVertex
100
AcDb2dVertex
 10
8.4391131018
 20
5.9727772664
 30
0.0
  0
VERTEX
  5
2A0
330
1E6
100
AcDbEntity
  8
0
  6
CONTINUOUS
 62
     7
100
AcDbVertex
100
AcDb2dVertex
 10
8.4225492696
 20
5.9813468683
 30
0.0
  0
VERTEX
  5
2A1
330
1E6
100
AcDbEntity
  8
0
  6
CONTINUOUS
 62
     7
100
AcDbVertex
100
AcDb2dVertex
 10
8.4068114669
 20
5.9913492809
 30
0.0
  0
VERTEX
  5
2A2
330
1E6
100
AcDbEntity
  8
0
  6
CONTINUOUS
 62
     7
100
AcDbVertex
100
AcDb2dVertex
 10
8.3919410134
 20
6.0027582427
 30
0.0
  0
VERTEX
  5
2A3
330
1E6
100
AcDbEntity
  8
0
  6
CONTINUOUS
 62
     7
100
AcDbVertex
100
AcDb2dVertex
 10
8.3779769516
 20
6.0155437993
 30
0.0
  0
VERTEX
  5
2A4
330
1E6
100
AcDbEntity
  8
0
  6
CONTINUOUS
 62
     7
100
AcDbVertex
100
AcDb2dVertex
 10
8.3649559445
 20
6.0296723822
 30
0.0
  0
VERTEX
  5
2A5
330
1E6
100
AcDbEntity
  8
0
  6
CONTINUOUS
 62
     7
100
AcDbVertex
100
AcDb2dVertex
 10
8.3529121788
 20
6.0451068965
 30
0.0
  0
VERTEX
  5
2A6
330
1E6
100
AcDbEntity
  8
0
  6
CONTINUOUS
 62
     7
100
AcDbVertex
100
AcDb2dVertex
 10
8.3418772756
 20
6.0618068188
 30
0.0
  0
VERTEX
  5
2A7
330
1E6
100
AcDbEntity
  8
0
  6
CONTINUOUS
 62
     7
100
AcDbVertex
100
AcDb2dVertex
 10
8.3318802071
 20
6.0797283031
 30
0.0
  0
VERTEX
  5
2A8
330
1E6
100
AcDbEntity
  8
0
  6
CONTINUOUS
 62
     7
100
AcDbVertex
100
AcDb2dVertex
 10
8.3229472208
 20
6.0988242965
 30
0.0
  0
VERTEX
  5
2A9
330
1E6
100
AcDbEntity
  8
0
  6
CONTINUOUS
 62
     7
100
AcDbVertex
100
AcDb2dVertex
 10
8.3151017704
 20
6.1190446621
 30
0.0
  0
VERTEX
  5
2AA
330
1E6
100
AcDbEntity
  8
0
  6
CONTINUOUS
 62
     7
100
AcDbVertex
100
AcDb2dVertex
 10
8.3083644541
 20
6.1403363112
 30
0.0
  0
VERTEX
  5
2AB
330
1E6
100
AcDbEntity
  8
0
  6
CONTINUOUS
 62
     7
100
AcDbVertex
100
AcDb2dVertex
 10
8.3027529609
 20
6.1626433421
 30
0.0
  0
VERTEX
  5
2AC
330
1E6
100
AcDbEntity
  8
0
  6
CONTINUOUS
 62
     7
100
AcDbVertex
100
AcDb2dVertex
 10
8.2982820238
 20
6.1859071877
 30
0.0
  0
VERTEX
  5
2AD
330
1E6
100
AcDbEntity
  8
0
  6
CONTINUOUS
 62
     7
100
AcDbVertex
100
AcDb2dVertex
 10
8.2949633814
 20
6.2100667682
 30
0.0
  0
VERTEX
  5
2AE
330
1E6
100
AcDbEntity
  8
0
  6
CONTINUOUS
 62
     7
100
AcDbVertex
100
AcDb2dVertex
 10
8.2928057467
 20
6.2350586526
 30
0.0
  0
VERTEX
  5
2AF
330
1E6
100
AcDbEntity
  8
0
  6
CONTINUOUS
 62
     7
100
AcDbVertex
100
AcDb2dVertex
 10
8.2918147847
 20
6.2608172242
 30
0.0
  0
VERTEX
  5
2B0
330
1E6
100
AcDbEntity
  8
0
  6
CONTINUOUS
 62
     7
100
AcDbVertex
100
AcDb2dVertex
 10
8.2919930971
 20
6.2872748536
 30
0.0
  0
VERTEX
  5
2B1
330
1E6
100
AcDbEntity
  8
0
  6
CONTINUOUS
 62
     7
100
AcDbVertex
100
AcDb2dVertex
 10
8.2933402158
 20
6.3143620759
 30
0.0
  0
VERTEX
  5
2B2
330
1E6
100
AcDbEntity
  8
0
  6
CONTINUOUS
 62
     7
100
AcDbVertex
100
AcDb2dVertex
 10
8.2958526039
 20
6.3420077734
 30
0.0
  0
VERTEX
  5
2B3
330
1E6
100
AcDbEntity
  8
0
  6
CONTINUOUS
 62
     7
100
AcDbVertex
100
AcDb2dVertex
 10
8.2995236651
 20
6.370139362
 30
0.0
  0
VERTEX
  5
2B4
330
1E6
100
AcDbEntity
  8
0
  6
CONTINUOUS
 62
     7
100
AcDbVertex
100
AcDb2dVertex
 10
8.304343761
 20
6.3986829817
 30
0.0
  0
VERTEX
  5
2B5
330
1E6
100
AcDbEntity
  8
0
  6
CONTINUOUS
 62
     7
100
AcDbVertex
100
AcDb2dVertex
 10
8.3103002363
 20
6.4275636909
 30
0.0
  0
VERTEX
  5
2B6
330
1E6
100
AcDbEntity
  8
0
  6
CONTINUOUS
 62
     7
100
AcDbVertex
100
AcDb2dVertex
 10
8.3173774523
 20
6.4567056631
 30
0.0
  0
VERTEX
  5
2B7
330
1E6
100
AcDbEntity
  8
0
  6
CONTINUOUS
 62
     7
100
AcDbVertex
100
AcDb2dVertex
 10
8.3255568276
 20
6.4860323856
 30
0.0
  0
VERTEX
  5
2B8
330
1E6
100
AcDbEntity
  8
0
  6
CONTINUOUS
 62
     7
100
AcDbVertex
100
AcDb2dVertex
 10
8.3348168873
 20
6.5154668606
 30
0.0
  0
VERTEX
  5
2B9
330
1E6
100
AcDbEntity
  8
0
  6
CONTINUOUS
 62
     7
100
AcDbVertex
100
AcDb2dVertex
 10
8.3451333188
 20
6.5449318077
 30
0.0
  0
VERTEX
  5
2BA
330
1E6
100
AcDbEntity
  8
0
  6
CONTINUOUS
 62
     7
100
AcDbVertex
100
AcDb2dVertex
 10
8.3564790363
 20
6.5743498663
 30
0.0
  0
VERTEX
  5
2BB
330
1E6
100
AcDbEntity
  8
0
  6
CONTINUOUS
 62
     7
100
AcDbVertex
100
AcDb2dVertex
 10
8.3688242514
 20
6.6036437988
 30
0.0
  0
VERTEX
  5
2BC
330
1E6
100
AcDbEntity
  8
0
  6
CONTINUOUS
 62
     7
100
AcDbVertex
100
AcDb2dVertex
 10
8.3821365517
 20
6.6327366938
 30
0.0
  0
VERTEX
  5
2BD
330
1E6
100
AcDbEntity
  8
0
  6
CONTINUOUS
 62
     7
100
AcDbVertex
100
AcDb2dVertex
 10
8.3963809855
 20
6.6615521673
 30
0.0
  0
VERTEX
  5
2BE
330
1E6
100
AcDbEntity
  8
0
  6
CONTINUOUS
 62
     7
100
AcDbVertex
100
AcDb2dVertex
 10
8.4115201539
 20
6.6900145642
 30
0.0
  0
VERTEX
  5
2BF
330
1E6
100
AcDbEntity
  8
0
  6
CONTINUOUS
 62
     7
100
AcDbVertex
100
AcDb2dVertex
 10
8.4275143088
 20
6.7180491559
 30
0.0
  0
VERTEX
  5
2C0
330
1E6
100
AcDbEntity
  8
0
  6
CONTINUOUS
 62
     7
100
AcDbVertex
100
AcDb2dVertex
 10
8.4443214573
 20
6.7455823373
 30
0.0
  0
VERTEX
  5
2C1
330
1E6
100
AcDbEntity
  8
0
  6
CONTINUOUS
 62
     7
100
AcDbVertex
100
AcDb2dVertex
 10
8.4618974722
 20
6.7725418197
 30
0.0
  0
VERTEX
  5
2C2
330
1E6
100
AcDbEntity
  8
0
  6
CONTINUOUS
 62
     7
100
AcDbVertex
100
AcDb2dVertex
 10
8.4801962073
 20
6.7988568207
 30
0.0
  0
VERTEX
  5
2C3
330
1E6
100
AcDbEntity
  8
0
  6
CONTINUOUS
 62
     7
100
AcDbVertex
100
AcDb2dVertex
 10
8.499169619
 20
6.8244582499
 30
0.0
  0
VERTEX
  5
2C4
330
1E6
100
AcDbEntity
  8
0
  6
CONTINUOUS
 62
     7
100
AcDbVertex
100
AcDb2dVertex
 10
8.5187678926
 20
6.8492788904
 30
0.0
  0
VERTEX
  5
2C5
330
1E6
100
AcDbEntity
  8
0
  6
CONTINUOUS
 62
     7
100
AcDbVertex
100
AcDb2dVertex
 10
8.5389395724
 20
6.8732535753
 30
0.0
  0
VERTEX
  5
2C6
330
1E6
100
AcDbEntity
  8
0
  6
CONTINUOUS
 62
     7
100
AcDbVertex
100
AcDb2dVertex
 10
8.5596316974
 20
6.8963193588
 30
0.0
  0
VERTEX
  5
2C7
330
1E6
100
AcDbEntity
  8
0
  6
CONTINUOUS
 62
     7
100
AcDbVertex
100
AcDb2dVertex
 10
8.5807899402
 20
6.9184156814
 30
0.0
  0
VERTEX
  5
2C8
330
1E6
100
AcDbEntity
  8
0
  6
CONTINUOUS
 62
     7
100
AcDbVertex
100
AcDb2dVertex
 10
8.6023587497
 20
6.939484529
 30
0.0
  0
VERTEX
  5
2C9
330
1E6
100
AcDbEntity
  8
0
  6
CONTINUOUS
 62
     7
100
AcDbVertex
100
AcDb2dVertex
 10
8.6242814966
 20
6.9594705849
 30
0.0
  0
VERTEX
  5
2CA
330
1E6
100
AcDbEntity
  8
0
  6
CONTINUOUS
 62
     7
100
AcDbVertex
100
AcDb2dVertex
 10
8.6465006224
 20
6.9783213756
 30
0.0
  0
VERTEX
  5
2CB
330
1E6
100
AcDbEntity
  8
0
  6
CONTINUOUS
 62
     7
100
AcDbVertex
100
AcDb2dVertex
 10
8.6689577907
 20
6.9959874081
 30
0.0
  0
VERTEX
  5
2CC
330
1E6
100
AcDbEntity
  8
0
  6
CONTINUOUS
 62
     7
100
AcDbVertex
100
AcDb2dVertex
 10
8.6915940397
 20
7.0124222999
 30
0.0
  0
VERTEX
  5
2CD
330
1E6
100
AcDbEntity
  8
0
  6
CONTINUOUS
 62
     7
100
AcDbVertex
100
AcDb2dVertex
 10
8.7143499378
 20
7.0275829012
 30
0.0
  0
VERTEX
  5
2CE
330
1E6
100
AcDbEntity
  8
0
  6
CONTINUOUS
 62
     7
100
AcDbVertex
100
AcDb2dVertex
 10
8.7371657391
 20
7.0414294075
 30
0.0
  0
VERTEX
  5
2CF
330
1E6
100
AcDbEntity
  8
0
  6
CONTINUOUS
 62
     7
100
AcDbVertex
100
AcDb2dVertex
 10
8.7599815403
 20
7.0539254646
 30
0.0
  0
VERTEX
  5
2D0
330
1E6
100
AcDbEntity
  8
0
  6
CONTINUOUS
 62
     7
100
AcDbVertex
100
AcDb2dVertex
 10
8.7827374385
 20
7.0650382641
 30
0.0
  0
VERTEX
  5
2D1
330
1E6
100
AcDbEntity
  8
0
  6
CONTINUOUS
 62
     7
100
AcDbVertex
100
AcDb2dVertex
 10
8.8053736875
 20
7.074738629
 30
0.0
  0
VERTEX
  5
2D2
330
1E6
100
AcDbEntity
  8
0
  6
CONTINUOUS
 62
     7
100
AcDbVertex
100
AcDb2dVertex
 10
8.8278308557
 20
7.0830010911
 30
0.0
  0
VERTEX
  5
2D3
330
1E6
100
AcDbEntity
  8
0
  6
CONTINUOUS
 62
     7
100
AcDbVertex
100
AcDb2dVertex
 10
8.8500499816
 20
7.0898039571
 30
0.0
  0
VERTEX
  5
2D4
330
1E6
100
AcDbEntity
  8
0
  6
CONTINUOUS
 62
     7
100
AcDbVertex
100
AcDb2dVertex
 10
8.8719727284
 20
7.0951293659
 30
0.0
  0
VERTEX
  5
2D5
330
1E6
100
AcDbEntity
  8
0
  6
CONTINUOUS
 62
     7
100
AcDbVertex
100
AcDb2dVertex
 10
8.8935415379
 20
7.0989633357
 30
0.0
  0
VERTEX
  5
2D6
330
1E6
100
AcDbEntity
  8
0
  6
CONTINUOUS
 62
     7
100
AcDbVertex
100
AcDb2dVertex
 10
8.9146997808
 20
7.1012958003
 30
0.0
  0
VERTEX
  5
2D7
330
1E6
100
AcDbEntity
  8
0
  6
CONTINUOUS
 62
     7
100
AcDbVertex
100
AcDb2dVertex
 10
8.9353919058
 20
7.1021206358
 30
0.0
  0
VERTEX
  5
2D8
330
1E6
100
AcDbEntity
  8
0
  6
CONTINUOUS
 62
     7
100
AcDbVertex
100
AcDb2dVertex
 10
8.9555635856
 20
7.1014356767
 30
0.0
  0
VERTEX
  5
2D9
330
1E6
100
AcDbEntity
  8
0
  6
CONTINUOUS
 62
     7
100
AcDbVertex
100
AcDb2dVertex
 10
8.9751618591
 20
7.0992427211
 30
0.0
  0
VERTEX
  5
2DA
330
1E6
100
AcDbEntity
  8
0
  6
CONTINUOUS
 62
     7
100
AcDbVertex
100
AcDb2dVertex
 10
8.9941352709
 20
7.0955475269
 30
0.0
  0
VERTEX
  5
2DB
330
1E6
100
AcDbEntity
  8
0
  6
CONTINUOUS
 62
     7
100
AcDbVertex
100
AcDb2dVertex
 10
9.012434006
 20
7.0903597958
 30
0.0
  0
VERTEX
  5
2DC
330
1E6
100
AcDbEntity
  8
0
  6
CONTINUOUS
 62
     7
100
AcDbVertex
100
AcDb2dVertex
 10
9.0300100208
 20
7.0836931481
 30
0.0
  0
VERTEX
  5
2DD
330
1E6
100
AcDbEntity
  8
0
  6
CONTINUOUS
 62
     7
100
AcDbVertex
100
AcDb2dVertex
 10
9.0468171694
 20
7.0755650874
 30
0.0
  0
VERTEX
  5
2DE
330
1E6
100
AcDbEntity
  8
0
  6
CONTINUOUS
 62
     7
100
AcDbVertex
100
AcDb2dVertex
 10
9.0628113243
 20
7.0659969538
 30
0.0
  0
VERTEX
  5
2DF
330
1E6
100
AcDbEntity
  8
0
  6
CONTINUOUS
 62
     7
100
AcDbVertex
100
AcDb2dVertex
 10
9.0779504927
 20
7.0550138688
 30
0.0
  0
VERTEX
  5
2E0
330
1E6
100
AcDbEntity
  8
0
  6
CONTINUOUS
 62
     7
100
AcDbVertex
100
AcDb2dVertex
 10
9.0921949265
 20
7.0426446684
 30
0.0
  0
VERTEX
  5
2E1
330
1E6
100
AcDbEntity
  8
0
  6
CONTINUOUS
 62
     7
100
AcDbVertex
100
AcDb2dVertex
 10
9.1055072267
 20
7.0289218282
 30
0.0
  0
VERTEX
  5
2E2
330
1E6
100
AcDbEntity
  8
0
  6
CONTINUOUS
 62
     7
100
AcDbVertex
100
AcDb2dVertex
 10
9.1178524419
 20
7.0138813776
 30
0.0
  0
VERTEX
  5
2E3
330
1E6
100
AcDbEntity
  8
0
  6
CONTINUOUS
 62
     7
100
AcDbVertex
100
AcDb2dVertex
 10
9.1291981594
 20
6.9975628057
 30
0.0
  0
VERTEX
  5
2E4
330
1E6
100
AcDbEntity
  8
0
  6
CONTINUOUS
 62
     7
100
AcDbVertex
100
AcDb2dVertex
 10
9.1395145909
 20
6.9800089569
 30
0.0
  0
VERTEX
  5
2E5
330
1E6
100
AcDbEntity
  8
0
  6
CONTINUOUS
 62
     7
100
AcDbVertex
100
AcDb2dVertex
 10
9.1487746505
 20
6.9612659191
 30
0.0
  0
VERTEX
  5
2E6
330
1E6
100
AcDbEntity
  8
0
  6
CONTINUOUS
 62
     7
100
AcDbVertex
100
AcDb2dVertex
 10
9.1569540259
 20
6.9413829024
 30
0.0
  0
VERTEX
  5
2E7
330
1E6
100
AcDbEntity
  8
0
  6
CONTINUOUS
 62
     7
100
AcDbVertex
100
AcDb2dVertex
 10
9.1640312419
 20
6.9204121099
 30
0.0
  0
VERTEX
  5
2E8
330
1E6
100
AcDbEntity
  8
0
  6
CONTINUOUS
 62
     7
100
AcDbVertex
100
AcDb2dVertex
 10
9.1699877172
 20
6.8984086006
 30
0.0
  0
VERTEX
  5
2E9
330
1E6
100
AcDbEntity
  8
0
  6
CONTINUOUS
 62
     7
100
AcDbVertex
100
AcDb2dVertex
 10
9.1748078131
 20
6.8754301452
 30
0.0
  0
VERTEX
  5
2EA
330
1E6
100
AcDbEntity
  8
0
  6
CONTINUOUS
 62
     7
100
AcDbVertex
100
AcDb2dVertex
 10
9.1784788743
 20
6.8515370737
 30
0.0
  0
VERTEX
  5
2EB
330
1E6
100
AcDbEntity
  8
0
  6
CONTINUOUS
 62
     7
100
AcDbVertex
100
AcDb2dVertex
 10
9.1809912624
 20
6.8267921177
 30
0.0
  0
VERTEX
  5
2EC
330
1E6
100
AcDbEntity
  8
0
  6
CONTINUOUS
 62
     7
100
AcDbVertex
100
AcDb2dVertex
 10
9.1823383811
 20
6.8012602455
 30
0.0
  0
VERTEX
  5
2ED
330
1E6
100
AcDbEntity
  8
0
  6
CONTINUOUS
 62
     7
100
AcDbVertex
100
AcDb2dVertex
 10
9.1825873335
 20
6.7842094037
 30
0.0
  0
SEQEND
  5
2EE
330
1E6
100
AcDbEntity
  8
0
  6
CONTINUOUS
 62
     7
  0
LINE
  5
1E7
330
1F
100
AcDbEntity
  8
0
  6
CONTINUOUS
 62
     7
100
AcDbLine
 10
8.7441254515
 20
6.0167971215
 30
0.0
 11
8.7511965193
 21
6.0208815021
 31
0.0
  0
POLYLINE
  5
1E8
330
1F
100
AcDbEntity
  8
0
  6
CONTINUOUS
 62
     7
100
AcDb2dPolyline
 66
     1
 10
0.0
 20
0.0
 30
0.0
  0
VERTEX
  5
2EF
330
1E8
100
AcDbEntity
  8
0
  6
CONTINUOUS
 62
     7
100
AcDbVertex
100
AcDb2dVertex
 10
7.9248500728
 20
7.7233635586
 30
0.0
  0
VERTEX
  5
2F0
330
1E8
100
AcDbEntity
  8
0
  6
CONTINUOUS
 62
     7
100
AcDbVertex
100
AcDb2dVertex
 10
7.9086899569
 20
7.7317809773
 30
0.0
  0
VERTEX
  5
2F1
330
1E8
100
AcDbEntity
  8
0
  6
CONTINUOUS
 62
     7
100
AcDbVertex
100
AcDb2dVertex
 10
7.891376023
 20
7.7389577068
 30
0.0
  0
VERTEX
  5
2F2
330
1E8
100
AcDbEntity
  8
0
  6
CONTINUOUS
 62
     7
100
AcDbVertex
100
AcDb2dVertex
 10
7.8733231097
 20
7.7446611649
 30
0.0
  0
VERTEX
  5
2F3
330
1E8
100
AcDbEntity
  8
0
  6
CONTINUOUS
 62
     7
100
AcDbVertex
100
AcDb2dVertex
 10
7.8545786153
 20
7.7488763771
 30
0.0
  0
VERTEX
  5
2F4
330
1E8
100
AcDbEntity
  8
0
  6
CONTINUOUS
 62
     7
100
AcDbVertex
100
AcDb2dVertex
 10
7.8351917537
 20
7.7515922762
 30
0.0
  0
VERTEX
  5
2F5
330
1E8
100
AcDbEntity
  8
0
  6
CONTINUOUS
 62
     7
100
AcDbVertex
100
AcDb2dVertex
 10
7.8152134252
 20
7.7528017316
 30
0.0
  0
VERTEX
  5
2F6
330
1E8
100
AcDbEntity
  8
0
  6
CONTINUOUS
 62
     7
100
AcDbVertex
100
AcDb2dVertex
 10
7.7946960833
 20
7.7525015679
 30
0.0
  0
VERTEX
  5
2F7
330
1E8
100
AcDbEntity
  8
0
  6
CONTINUOUS
 62
     7
100
AcDbVertex
100
AcDb2dVertex
 10
7.7736935965
 20
7.7506925732
 30
0.0
  0
VERTEX
  5
2F8
330
1E8
100
AcDbEntity
  8
0
  6
CONTINUOUS
 62
     7
100
AcDbVertex
100
AcDb2dVertex
 10
7.7522611071
 20
7.747379497
 30
0.0
  0
VERTEX
  5
2F9
330
1E8
100
AcDbEntity
  8
0
  6
CONTINUOUS
 62
     7
100
AcDbVertex
100
AcDb2dVertex
 10
7.7304548862
 20
7.7425710379
 30
0.0
  0
VERTEX
  5
2FA
330
1E8
100
AcDbEntity
  8
0
  6
CONTINUOUS
 62
     7
100
AcDbVertex
100
AcDb2dVertex
 10
7.7083321866
 20
7.7362798204
 30
0.0
  0
VERTEX
  5
2FB
330
1E8
100
AcDbEntity
  8
0
  6
CONTINUOUS
 62
     7
100
AcDbVertex
100
AcDb2dVertex
 10
7.6859510914
 20
7.7285223623
 30
0.0
  0
VERTEX
  5
2FC
330
1E8
100
AcDbEntity
  8
0
  6
CONTINUOUS
 62
     7
100
AcDbVertex
100
AcDb2dVertex
 10
7.6633703627
 20
7.7193190309
 30
0.0
  0
VERTEX
  5
2FD
330
1E8
100
AcDbEntity
  8
0
  6
CONTINUOUS
 62
     7
100
AcDbVertex
100
AcDb2dVertex
 10
7.6406492864
 20
7.7086939896
 30
0.0
  0
VERTEX
  5
2FE
330
1E8
100
AcDbEntity
  8
0
  6
CONTINUOUS
 62
     7
100
AcDbVertex
100
AcDb2dVertex
 10
7.6178475169
 20
7.6966751347
 30
0.0
  0
VERTEX
  5
2FF
330
1E8
100
AcDbEntity
  8
0
  6
CONTINUOUS
 62
     7
100
AcDbVertex
100
AcDb2dVertex
 10
7.5950249206
 20
7.6832940217
 30
0.0
  0
VERTEX
  5
300
330
1E8
100
AcDbEntity
  8
0
  6
CONTINUOUS
 62
     7
100
AcDbVertex
100
AcDb2dVertex
 10
7.5722414185
 20
7.6685857829
 30
0.0
  0
VERTEX
  5
301
330
1E8
100
AcDbEntity
  8
0
  6
CONTINUOUS
 62
     7
100
AcDbVertex
100
AcDb2dVertex
 10
7.549556829
 20
7.6525890351
 30
0.0
  0
VERTEX
  5
302
330
1E8
100
AcDbEntity
  8
0
  6
CONTINUOUS
 62
     7
100
AcDbVertex
100
AcDb2dVertex
 10
7.5270307107
 20
7.6353457778
 30
0.0
  0
VERTEX
  5
303
330
1E8
100
AcDbEntity
  8
0
  6
CONTINUOUS
 62
     7
100
AcDbVertex
100
AcDb2dVertex
 10
7.5047222062
 20
7.6169012835
 30
0.0
  0
VERTEX
  5
304
330
1E8
100
AcDbEntity
  8
0
  6
CONTINUOUS
 62
     7
100
AcDbVertex
100
AcDb2dVertex
 10
7.4826898868
 20
7.5973039783
 30
0.0
  0
VERTEX
  5
305
330
1E8
100
AcDbEntity
  8
0
  6
CONTINUOUS
 62
     7
100
AcDbVertex
100
AcDb2dVertex
 10
7.4609915986
 20
7.5766053154
 30
0.0
  0
VERTEX
  5
306
330
1E8
100
AcDbEntity
  8
0
  6
CONTINUOUS
 62
     7
100
AcDbVertex
100
AcDb2dVertex
 10
7.4396843107
 20
7.5548596391
 30
0.0
  0
VERTEX
  5
307
330
1E8
100
AcDbEntity
  8
0
  6
CONTINUOUS
 62
     7
100
AcDbVertex
100
AcDb2dVertex
 10
7.4188239657
 20
7.5321240432
 30
0.0
  0
VERTEX
  5
308
330
1E8
100
AcDbEntity
  8
0
  6
CONTINUOUS
 62
     7
100
AcDbVertex
100
AcDb2dVertex
 10
7.3984653327
 20
7.5084582202
 30
0.0
  0
VERTEX
  5
309
330
1E8
100
AcDbEntity
  8
0
  6
CONTINUOUS
 62
     7
100
AcDbVertex
100
AcDb2dVertex
 10
7.3786618636
 20
7.483924305
 30
0.0
  0
VERTEX
  5
30A
330
1E8
100
AcDbEntity
  8
0
  6
CONTINUOUS
 62
     7
100
AcDbVertex
100
AcDb2dVertex
 10
7.3594655525
 20
7.4585867117
 30
0.0
  0
VERTEX
  5
30B
330
1E8
100
AcDbEntity
  8
0
  6
CONTINUOUS
 62
     7
100
AcDbVertex
100
AcDb2dVertex
 10
7.3409267996
 20
7.4325119645
 30
0.0
  0
VERTEX
  5
30C
330
1E8
100
AcDbEntity
  8
0
  6
CONTINUOUS
 62
     7
100
AcDbVertex
100
AcDb2dVertex
 10
7.3230942786
 20
7.4057685229
 30
0.0
  0
VERTEX
  5
30D
330
1E8
100
AcDbEntity
  8
0
  6
CONTINUOUS
 62
     7
100
AcDbVertex
100
AcDb2dVertex
 10
7.3060148092
 20
7.3784266022
 30
0.0
  0
VERTEX
  5
30E
330
1E8
100
AcDbEntity
  8
0
  6
CONTINUOUS
 62
     7
100
AcDbVertex
100
AcDb2dVertex
 10
7.2897332335
 20
7.3505579889
 30
0.0
  0
VERTEX
  5
30F
330
1E8
100
AcDbEntity
  8
0
  6
CONTINUOUS
 62
     7
100
AcDbVertex
100
AcDb2dVertex
 10
7.2742922991
 20
7.3222358524
 30
0.0
  0
VERTEX
  5
310
330
1E8
100
AcDbEntity
  8
0
  6
CONTINUOUS
 62
     7
100
AcDbVertex
100
AcDb2dVertex
 10
7.2597325464
 20
7.2935345528
 30
0.0
  0
VERTEX
  5
311
330
1E8
100
AcDbEntity
  8
0
  6
CONTINUOUS
 62
     7
100
AcDbVertex
100
AcDb2dVertex
 10
7.2460922022
 20
7.2645294458
 30
0.0
  0
VERTEX
  5
312
330
1E8
100
AcDbEntity
  8
0
  6
CONTINUOUS
 62
     7
100
AcDbVertex
100
AcDb2dVertex
 10
7.2334070793
 20
7.2352966846
 30
0.0
  0
VERTEX
  5
313
330
1E8
100
AcDbEntity
  8
0
  6
CONTINUOUS
 62
     7
100
AcDbVertex
100
AcDb2dVertex
 10
7.2217104827
 20
7.2059130202
 30
0.0
  0
VERTEX
  5
314
330
1E8
100
AcDbEntity
  8
0
  6
CONTINUOUS
 62
     7
100
AcDbVertex
100
AcDb2dVertex
 10
7.211033122
 20
7.1764555998
 30
0.0
  0
VERTEX
  5
315
330
1E8
100
AcDbEntity
  8
0
  6
CONTINUOUS
 62
     7
100
AcDbVertex
100
AcDb2dVertex
 10
7.2014030307
 20
7.1470017642
 30
0.0
  0
VERTEX
  5
316
330
1E8
100
AcDbEntity
  8
0
  6
CONTINUOUS
 62
     7
100
AcDbVertex
100
AcDb2dVertex
 10
7.1928454928
 20
7.1176288448
 30
0.0
  0
VERTEX
  5
317
330
1E8
100
AcDbEntity
  8
0
  6
CONTINUOUS
 62
     7
100
AcDbVertex
100
AcDb2dVertex
 10
7.185382976
 20
7.0884139605
 30
0.0
  0
VERTEX
  5
318
330
1E8
100
AcDbEntity
  8
0
  6
CONTINUOUS
 62
     7
100
AcDbVertex
100
AcDb2dVertex
 10
7.1790350735
 20
7.0594338155
 30
0.0
  0
VERTEX
  5
319
330
1E8
100
AcDbEntity
  8
0
  6
CONTINUOUS
 62
     7
100
AcDbVertex
100
AcDb2dVertex
 10
7.1738184517
 20
7.0307644973
 30
0.0
  0
VERTEX
  5
31A
330
1E8
100
AcDbEntity
  8
0
  6
CONTINUOUS
 62
     7
100
AcDbVertex
100
AcDb2dVertex
 10
7.1697468068
 20
7.0024812778
 30
0.0
  0
VERTEX
  5
31B
330
1E8
100
AcDbEntity
  8
0
  6
CONTINUOUS
 62
     7
100
AcDbVertex
100
AcDb2dVertex
 10
7.1668308291
 20
6.9746584148
 30
0.0
  0
VERTEX
  5
31C
330
1E8
100
AcDbEntity
  8
0
  6
CONTINUOUS
 62
     7
100
AcDbVertex
100
AcDb2dVertex
 10
7.1650781744
 20
6.9473689576
 30
0.0
  0
VERTEX
  5
31D
330
1E8
100
AcDbEntity
  8
0
  6
CONTINUOUS
 62
     7
100
AcDbVertex
100
AcDb2dVertex
 10
7.1644934445
 20
6.920684555
 30
0.0
  0
VERTEX
  5
31E
330
1E8
100
AcDbEntity
  8
0
  6
CONTINUOUS
 62
     7
100
AcDbVertex
100
AcDb2dVertex
 10
7.1650781744
 20
6.8946752672
 30
0.0
  0
VERTEX
  5
31F
330
1E8
100
AcDbEntity
  8
0
  6
CONTINUOUS
 62
     7
100
AcDbVertex
100
AcDb2dVertex
 10
7.1668308291
 20
6.869409382
 30
0.0
  0
VERTEX
  5
320
330
1E8
100
AcDbEntity
  8
0
  6
CONTINUOUS
 62
     7
100
AcDbVertex
100
AcDb2dVertex
 10
7.1697468068
 20
6.8449532352
 30
0.0
  0
VERTEX
  5
321
330
1E8
100
AcDbEntity
  8
0
  6
CONTINUOUS
 62
     7
100
AcDbVertex
100
AcDb2dVertex
 10
7.1738184517
 20
6.8213710367
 30
0.0
  0
VERTEX
  5
322
330
1E8
100
AcDbEntity
  8
0
  6
CONTINUOUS
 62
     7
100
AcDbVertex
100
AcDb2dVertex
 10
7.1790350735
 20
6.798724702
 30
0.0
  0
VERTEX
  5
323
330
1E8
100
AcDbEntity
  8
0
  6
CONTINUOUS
 62
     7
100
AcDbVertex
100
AcDb2dVertex
 10
7.185382976
 20
6.7770736892
 30
0.0
  0
VERTEX
  5
324
330
1E8
100
AcDbEntity
  8
0
  6
CONTINUOUS
 62
     7
100
AcDbVertex
100
AcDb2dVertex
 10
7.1928454928
 20
6.7564748434
 30
0.0
  0
VERTEX
  5
325
330
1E8
100
AcDbEntity
  8
0
  6
CONTINUOUS
 62
     7
100
AcDbVertex
100
AcDb2dVertex
 10
7.2014030307
 20
6.736982247
 30
0.0
  0
VERTEX
  5
326
330
1E8
100
AcDbEntity
  8
0
  6
CONTINUOUS
 62
     7
100
AcDbVertex
100
AcDb2dVertex
 10
7.211033122
 20
6.7186470781
 30
0.0
  0
VERTEX
  5
327
330
1E8
100
AcDbEntity
  8
0
  6
CONTINUOUS
 62
     7
100
AcDbVertex
100
AcDb2dVertex
 10
7.2217104827
 20
6.7015174759
 30
0.0
  0
VERTEX
  5
328
330
1E8
100
AcDbEntity
  8
0
  6
CONTINUOUS
 62
     7
100
AcDbVertex
100
AcDb2dVertex
 10
7.2334070793
 20
6.6856384145
 30
0.0
  0
VERTEX
  5
329
330
1E8
100
AcDbEntity
  8
0
  6
CONTINUOUS
 62
     7
100
AcDbVertex
100
AcDb2dVertex
 10
7.2460922022
 20
6.6710515845
 30
0.0
  0
VERTEX
  5
32A
330
1E8
100
AcDbEntity
  8
0
  6
CONTINUOUS
 62
     7
100
AcDbVertex
100
AcDb2dVertex
 10
7.2597325464
 20
6.6577952837
 30
0.0
  0
VERTEX
  5
32B
330
1E8
100
AcDbEntity
  8
0
  6
CONTINUOUS
 62
     7
100
AcDbVertex
100
AcDb2dVertex
 10
7.2742922991
 20
6.6459043168
 30
0.0
  0
VERTEX
  5
32C
330
1E8
100
AcDbEntity
  8
0
  6
CONTINUOUS
 62
     7
100
AcDbVertex
100
AcDb2dVertex
 10
7.2897332335
 20
6.6354099037
 30
0.0
  0
VERTEX
  5
32D
330
1E8
100
AcDbEntity
  8
0
  6
CONTINUOUS
 62
     7
100
AcDbVertex
100
AcDb2dVertex
 10
7.294980005
 20
6.6322783777
 30
0.0
  0
SEQEND
  5
32E
330
1E8
100
AcDbEntity
  8
0
  6
CONTINUOUS
 62
     7
  0
POLYLINE
  5
1E9
330
1F
100
AcDbEntity
  8
0
  6
CONTINUOUS
 62
     7
100
AcDb2dPolyline
 66
     1
 10
0.0
 20
0.0
 30
0.0
  0
VERTEX
  5
32F
330
1E9
100
AcDbEntity
  8
0
  6
CONTINUOUS
 62
     7
100
AcDbVertex
100
AcDb2dVertex
 10
7.6446022456
 20
7.2084092338
 30
0.0
  0
VERTEX
  5
330
330
1E9
100
AcDbEntity
  8
0
  6
CONTINUOUS
 62
     7
100
AcDbVertex
100
AcDb2dVertex
 10
7.6623307036
 20
7.2355411468
 30
0.0
  0
VERTEX
  5
331
330
1E9
100
AcDbEntity
  8
0
  6
CONTINUOUS
 62
     7
100
AcDbVertex
100
AcDb2dVertex
 10
7.6807904755
 20
7.2620165579
 30
0.0
  0
VERTEX
  5
332
330
1E9
100
AcDbEntity
  8
0
  6
CONTINUOUS
 62
     7
100
AcDbVertex
100
AcDb2dVertex
 10
7.6999323958
 20
7.2877649527
 30
0.0
  0
VERTEX
  5
333
330
1E9
100
AcDbEntity
  8
0
  6
CONTINUOUS
 62
     7
100
AcDbVertex
100
AcDb2dVertex
 10
7.719705482
 20
7.3127177529
 30
0.0
  0
VERTEX
  5
334
330
1E9
100
AcDbEntity
  8
0
  6
CONTINUOUS
 62
     7
100
AcDbVertex
100
AcDb2dVertex
 10
7.7400570703
 20
7.3368084994
 30
0.0
  0
VERTEX
  5
335
330
1E9
100
AcDbEntity
  8
0
  6
CONTINUOUS
 62
     7
100
AcDbVertex
100
AcDb2dVertex
 10
7.7609329565
 20
7.3599730289
 30
0.0
  0
VERTEX
  5
336
330
1E9
100
AcDbEntity
  8
0
  6
CONTINUOUS
 62
     7
100
AcDbVertex
100
AcDb2dVertex
 10
7.7822775398
 20
7.3821496452
 30
0.0
  0
VERTEX
  5
337
330
1E9
100
AcDbEntity
  8
0
  6
CONTINUOUS
 62
     7
100
AcDbVertex
100
AcDb2dVertex
 10
7.8040339712
 20
7.403279283
 30
0.0
  0
VERTEX
  5
338
330
1E9
100
AcDbEntity
  8
0
  6
CONTINUOUS
 62
     7
100
AcDbVertex
100
AcDb2dVertex
 10
7.8261443045
 20
7.4233056659
 30
0.0
  0
VERTEX
  5
339
330
1E9
100
AcDbEntity
  8
0
  6
CONTINUOUS
 62
     7
100
AcDbVertex
100
AcDb2dVertex
 10
7.8485496513
 20
7.4421754554
 30
0.0
  0
VERTEX
  5
33A
330
1E9
100
AcDbEntity
  8
0
  6
CONTINUOUS
 62
     7
100
AcDbVertex
100
AcDb2dVertex
 10
7.8711903372
 20
7.4598383941
 30
0.0
  0
VERTEX
  5
33B
330
1E9
100
AcDbEntity
  8
0
  6
CONTINUOUS
 62
     7
100
AcDbVertex
100
AcDb2dVertex
 10
7.894006061
 20
7.4762474384
 30
0.0
  0
VERTEX
  5
33C
330
1E9
100
AcDbEntity
  8
0
  6
CONTINUOUS
 62
     7
100
AcDbVertex
100
AcDb2dVertex
 10
7.9169360555
 20
7.4913588845
 30
0.0
  0
VERTEX
  5
33D
330
1E9
100
AcDbEntity
  8
0
  6
CONTINUOUS
 62
     7
100
AcDbVertex
100
AcDb2dVertex
 10
7.939919249
 20
7.5051324847
 30
0.0
  0
VERTEX
  5
33E
330
1E9
100
AcDbEntity
  8
0
  6
CONTINUOUS
 62
     7
100
AcDbVertex
100
AcDb2dVertex
 10
7.9628944281
 20
7.5175315544
 30
0.0
  0
VERTEX
  5
33F
330
1E9
100
AcDbEntity
  8
0
  6
CONTINUOUS
 62
     7
100
AcDbVertex
100
AcDb2dVertex
 10
7.9858004009
 20
7.5285230699
 30
0.0
  0
VERTEX
  5
340
330
1E9
100
AcDbEntity
  8
0
  6
CONTINUOUS
 62
     7
100
AcDbVertex
100
AcDb2dVertex
 10
8.0085761595
 20
7.5380777566
 30
0.0
  0
VERTEX
  5
341
330
1E9
100
AcDbEntity
  8
0
  6
CONTINUOUS
 62
     7
100
AcDbVertex
100
AcDb2dVertex
 10
8.0311610431
 20
7.5461701664
 30
0.0
  0
VERTEX
  5
342
330
1E9
100
AcDbEntity
  8
0
  6
CONTINUOUS
 62
     7
100
AcDbVertex
100
AcDb2dVertex
 10
8.0534948993
 20
7.5527787461
 30
0.0
  0
VERTEX
  5
343
330
1E9
100
AcDbEntity
  8
0
  6
CONTINUOUS
 62
     7
100
AcDbVertex
100
AcDb2dVertex
 10
8.0755182442
 20
7.5578858945
 30
0.0
  0
VERTEX
  5
344
330
1E9
100
AcDbEntity
  8
0
  6
CONTINUOUS
 62
     7
100
AcDbVertex
100
AcDb2dVertex
 10
8.0971724207
 20
7.5614780091
 30
0.0
  0
VERTEX
  5
345
330
1E9
100
AcDbEntity
  8
0
  6
CONTINUOUS
 62
     7
100
AcDbVertex
100
AcDb2dVertex
 10
8.1183997553
 20
7.5635455227
 30
0.0
  0
VERTEX
  5
346
330
1E9
100
AcDbEntity
  8
0
  6
CONTINUOUS
 62
     7
100
AcDbVertex
100
AcDb2dVertex
 10
8.1391437111
 20
7.5640829287
 30
0.0
  0
VERTEX
  5
347
330
1E9
100
AcDbEntity
  8
0
  6
CONTINUOUS
 62
     7
100
AcDbVertex
100
AcDb2dVertex
 10
8.1593490388
 20
7.5630887958
 30
0.0
  0
VERTEX
  5
348
330
1E9
100
AcDbEntity
  8
0
  6
CONTINUOUS
 62
     7
100
AcDbVertex
100
AcDb2dVertex
 10
8.1789619235
 20
7.5605657718
 30
0.0
  0
VERTEX
  5
349
330
1E9
100
AcDbEntity
  8
0
  6
CONTINUOUS
 62
     7
100
AcDbVertex
100
AcDb2dVertex
 10
8.1979301284
 20
7.5565205764
 30
0.0
  0
VERTEX
  5
34A
330
1E9
100
AcDbEntity
  8
0
  6
CONTINUOUS
 62
     7
100
AcDbVertex
100
AcDb2dVertex
 10
8.2162031336
 20
7.5509639837
 30
0.0
  0
VERTEX
  5
34B
330
1E9
100
AcDbEntity
  8
0
  6
CONTINUOUS
 62
     7
100
AcDbVertex
100
AcDb2dVertex
 10
8.2337322709
 20
7.5439107931
 30
0.0
  0
VERTEX
  5
34C
330
1E9
100
AcDbEntity
  8
0
  6
CONTINUOUS
 62
     7
100
AcDbVertex
100
AcDb2dVertex
 10
8.2504708531
 20
7.5353797899
 30
0.0
  0
VERTEX
  5
34D
330
1E9
100
AcDbEntity
  8
0
  6
CONTINUOUS
 62
     7
100
AcDbVertex
100
AcDb2dVertex
 10
8.2587280279
 20
7.5304423491
 30
0.0
  0
SEQEND
  5
34E
330
1E9
100
AcDbEntity
  8
0
  6
CONTINUOUS
 62
     7
  0
LINE
  5
1EA
330
1F
100
AcDbEntity
  8
0
  6
CONTINUOUS
 62
     7
100
AcDbLine
 10
7.6585216704
 20
7.2003737209
 30
0.0
 11
7.6446022456
 21
7.2084092338
 31
0.0
  0
POLYLINE
  5
1EB
330
1F
100
AcDbEntity
  8
0
  6
CONTINUOUS
 62
     7
100
AcDb2dPolyline
 66
     1
 10
0.0
 20
0.0
 30
0.0
  0
VERTEX
  5
34F
330
1EB
100
AcDbEntity
  8
0
  6
CONTINUOUS
 62
     7
100
AcDbVertex
100
AcDb2dVertex
 10
8.2657646257
 20
7.5265577764
 30
0.0
  0
VERTEX
  5
350
330
1EB
100
AcDbEntity
  8
0
  6
CONTINUOUS
 62
     7
100
AcDbVertex
100
AcDb2dVertex
 10
8.2622843825
 20
7.5285229639
 30
0.0
  0
VERTEX
  5
351
330
1EB
100
AcDbEntity
  8
0
  6
CONTINUOUS
 62
     7
100
AcDbVertex
100
AcDb2dVertex
 10
8.2455180567
 20
7.5368314561
 30
0.0
  0
VERTEX
  5
352
330
1EB
100
AcDbEntity
  8
0
  6
CONTINUOUS
 62
     7
100
AcDbVertex
100
AcDb2dVertex
 10
8.2279738001
 20
7.5436726814
 30
0.0
  0
VERTEX
  5
353
330
1EB
100
AcDbEntity
  8
0
  6
CONTINUOUS
 62
     7
100
AcDbVertex
100
AcDb2dVertex
 10
8.2096979267
 20
7.54902858
 30
0.0
  0
VERTEX
  5
354
330
1EB
100
AcDbEntity
  8
0
  6
CONTINUOUS
 62
     7
100
AcDbVertex
100
AcDb2dVertex
 10
8.1907386818
 20
7.5528850131
 30
0.0
  0
VERTEX
  5
355
330
1EB
100
AcDbEntity
  8
0
  6
CONTINUOUS
 62
     7
100
AcDbVertex
100
AcDb2dVertex
 10
8.1711461149
 20
7.5552318005
 30
0.0
  0
VERTEX
  5
356
330
1EB
100
AcDbEntity
  8
0
  6
CONTINUOUS
 62
     7
100
AcDbVertex
100
AcDb2dVertex
 10
8.1509719473
 20
7.5560627469
 30
0.0
  0
VERTEX
  5
357
330
1EB
100
AcDbEntity
  8
0
  6
CONTINUOUS
 62
     7
100
AcDbVertex
100
AcDb2dVertex
 10
8.1302694356
 20
7.5553756589
 30
0.0
  0
VERTEX
  5
358
330
1EB
100
AcDbEntity
  8
0
  6
CONTINUOUS
 62
     7
100
AcDbVertex
100
AcDb2dVertex
 10
8.1090932311
 20
7.5531723501
 30
0.0
  0
VERTEX
  5
359
330
1EB
100
AcDbEntity
  8
0
  6
CONTINUOUS
 62
     7
100
AcDbVertex
100
AcDb2dVertex
 10
8.0874992357
 20
7.5494586371
 30
0.0
  0
VERTEX
  5
35A
330
1EB
100
AcDbEntity
  8
0
  6
CONTINUOUS
 62
     7
100
AcDbVertex
100
AcDb2dVertex
 10
8.065544454
 20
7.5442443233
 30
0.0
  0
VERTEX
  5
35B
330
1EB
100
AcDbEntity
  8
0
  6
CONTINUOUS
 62
     7
100
AcDbVertex
100
AcDb2dVertex
 10
8.0432868433
 20
7.5375431738
 30
0.0
  0
VERTEX
  5
35C
330
1EB
100
AcDbEntity
  8
0
  6
CONTINUOUS
 62
     7
100
AcDbVertex
100
AcDb2dVertex
 10
8.0207851601
 20
7.5293728786
 30
0.0
  0
VERTEX
  5
35D
330
1EB
100
AcDbEntity
  8
0
  6
CONTINUOUS
 62
     7
100
AcDbVertex
100
AcDb2dVertex
 10
7.9980988052
 20
7.5197550058
 30
0.0
  0
VERTEX
  5
35E
330
1EB
100
AcDbEntity
  8
0
  6
CONTINUOUS
 62
     7
100
AcDbVertex
100
AcDb2dVertex
 10
7.9752876671
 20
7.5087149453
 30
0.0
  0
VERTEX
  5
35F
330
1EB
100
AcDbEntity
  8
0
  6
CONTINUOUS
 62
     7
100
AcDbVertex
100
AcDb2dVertex
 10
7.9524119636
 20
7.4962818409
 30
0.0
  0
VERTEX
  5
360
330
1EB
100
AcDbEntity
  8
0
  6
CONTINUOUS
 62
     7
100
AcDbVertex
100
AcDb2dVertex
 10
7.9295320828
 20
7.4824885142
 30
0.0
  0
VERTEX
  5
361
330
1EB
100
AcDbEntity
  8
0
  6
CONTINUOUS
 62
     7
100
AcDbVertex
100
AcDb2dVertex
 10
7.9067084241
 20
7.4673713773
 30
0.0
  0
VERTEX
  5
362
330
1EB
100
AcDbEntity
  8
0
  6
CONTINUOUS
 62
     7
100
AcDbVertex
100
AcDb2dVertex
 10
7.8840012383
 20
7.4509703371
 30
0.0
  0
VERTEX
  5
363
330
1EB
100
AcDbEntity
  8
0
  6
CONTINUOUS
 62
     7
100
AcDbVertex
100
AcDb2dVertex
 10
7.8614704688
 20
7.4333286897
 30
0.0
  0
VERTEX
  5
364
330
1EB
100
AcDbEntity
  8
0
  6
CONTINUOUS
 62
     7
100
AcDbVertex
100
AcDb2dVertex
 10
7.8391755932
 20
7.4144930062
 30
0.0
  0
VERTEX
  5
365
330
1EB
100
AcDbEntity
  8
0
  6
CONTINUOUS
 62
     7
100
AcDbVertex
100
AcDb2dVertex
 10
7.8171754664
 20
7.39451301
 30
0.0
  0
VERTEX
  5
366
330
1EB
100
AcDbEntity
  8
0
  6
CONTINUOUS
 62
     7
100
AcDbVertex
100
AcDb2dVertex
 10
7.7955281654
 20
7.373441445
 30
0.0
  0
VERTEX
  5
367
330
1EB
100
AcDbEntity
  8
0
  6
CONTINUOUS
 62
     7
100
AcDbVertex
100
AcDb2dVertex
 10
7.7742908356
 20
7.3513339368
 30
0.0
  0
VERTEX
  5
368
330
1EB
100
AcDbEntity
  8
0
  6
CONTINUOUS
 62
     7
100
AcDbVertex
100
AcDb2dVertex
 10
7.7535195401
 20
7.3282488457
 30
0.0
  0
VERTEX
  5
369
330
1EB
100
AcDbEntity
  8
0
  6
CONTINUOUS
 62
     7
100
AcDbVertex
100
AcDb2dVertex
 10
7.733269112
 20
7.3042471128
 30
0.0
  0
VERTEX
  5
36A
330
1EB
100
AcDbEntity
  8
0
  6
CONTINUOUS
 62
     7
100
AcDbVertex
100
AcDb2dVertex
 10
7.713593009
 20
7.2793920987
 30
0.0
  0
VERTEX
  5
36B
330
1EB
100
AcDbEntity
  8
0
  6
CONTINUOUS
 62
     7
100
AcDbVertex
100
AcDb2dVertex
 10
7.6945431731
 20
7.2537494169
 30
0.0
  0
VERTEX
  5
36C
330
1EB
100
AcDbEntity
  8
0
  6
CONTINUOUS
 62
     7
100
AcDbVertex
100
AcDb2dVertex
 10
7.6761698927
 20
7.2273867599
 30
0.0
  0
VERTEX
  5
36D
330
1EB
100
AcDbEntity
  8
0
  6
CONTINUOUS
 62
     7
100
AcDbVertex
100
AcDb2dVertex
 10
7.6585216704
 20
7.2003737209
 30
0.0
  0
SEQEND
  5
36E
330
1EB
100
AcDbEntity
  8
0
  6
CONTINUOUS
 62
     7
  0
POLYLINE
  5
1EC
330
1F
100
AcDbEntity
  8
0
  6
CONTINUOUS
 62
     7
100
AcDb2dPolyline
 66
     1
 10
0.0
 20
0.0
 30
0.0
  0
VERTEX
  5
36F
330
1EC
100
AcDbEntity
  8
0
  6
CONTINUOUS
 62
     7
100
AcDbVertex
100
AcDb2dVertex
 10
7.991892474
 20
6.6511864494
 30
0.0
  0
VERTEX
  5
370
330
1EC
100
AcDbEntity
  8
0
  6
CONTINUOUS
 62
     7
100
AcDbVertex
100
AcDb2dVertex
 10
7.9845631191
 20
6.6218490729
 30
0.0
  0
VERTEX
  5
371
330
1EC
100
AcDbEntity
  8
0
  6
CONTINUOUS
 62
     7
100
AcDbVertex
100
AcDb2dVertex
 10
7.9783630169
 20
6.5927610886
 30
0.0
  0
VERTEX
  5
372
330
1EC
100
AcDbEntity
  8
0
  6
CONTINUOUS
 62
     7
100
AcDbVertex
100
AcDb2dVertex
 10
7.9733086179
 20
6.5639996748
 30
0.0
  0
VERTEX
  5
373
330
1EC
100
AcDbEntity
  8
0
  6
CONTINUOUS
 62
     7
100
AcDbVertex
100
AcDb2dVertex
 10
7.9694133328
 20
6.5356411434
 30
0.0
  0
VERTEX
  5
374
330
1EC
100
AcDbEntity
  8
0
  6
CONTINUOUS
 62
     7
100
AcDbVertex
100
AcDb2dVertex
 10
7.9666874969
 20
6.5077607373
 30
0.0
  0
VERTEX
  5
375
330
1EC
100
AcDbEntity
  8
0
  6
CONTINUOUS
 62
     7
100
AcDbVertex
100
AcDb2dVertex
 10
7.9651383425
 20
6.4804324309
 30
0.0
  0
VERTEX
  5
376
330
1EC
100
AcDbEntity
  8
0
  6
CONTINUOUS
 62
     7
100
AcDbVertex
100
AcDb2dVertex
 10
7.96476998
 20
6.4537287336
 30
0.0
  0
VERTEX
  5
377
330
1EC
100
AcDbEntity
  8
0
  6
CONTINUOUS
 62
     7
100
AcDbVertex
100
AcDb2dVertex
 10
7.9655833868
 20
6.4277204975
 30
0.0
  0
VERTEX
  5
378
330
1EC
100
AcDbEntity
  8
0
  6
CONTINUOUS
 62
     7
100
AcDbVertex
100
AcDb2dVertex
 10
7.9675764046
 20
6.4024767296
 30
0.0
  0
VERTEX
  5
379
330
1EC
100
AcDbEntity
  8
0
  6
CONTINUOUS
 62
     7
100
AcDbVertex
100
AcDb2dVertex
 10
7.9707437454
 20
6.3780644085
 30
0.0
  0
VERTEX
  5
37A
330
1EC
100
AcDbEntity
  8
0
  6
CONTINUOUS
 62
     7
100
AcDbVertex
100
AcDb2dVertex
 10
7.9750770055
 20
6.3545483068
 30
0.0
  0
VERTEX
  5
37B
330
1EC
100
AcDbEntity
  8
0
  6
CONTINUOUS
 62
     7
100
AcDbVertex
100
AcDb2dVertex
 10
7.9805646875
 20
6.331990819
 30
0.0
  0
VERTEX
  5
37C
330
1EC
100
AcDbEntity
  8
0
  6
CONTINUOUS
 62
     7
100
AcDbVertex
100
AcDb2dVertex
 10
7.987192231
 20
6.3104517964
 30
0.0
  0
VERTEX
  5
37D
330
1EC
100
AcDbEntity
  8
0
  6
CONTINUOUS
 62
     7
100
AcDbVertex
100
AcDb2dVertex
 10
7.9949420515
 20
6.2899883877
 30
0.0
  0
VERTEX
  5
37E
330
1EC
100
AcDbEntity
  8
0
  6
CONTINUOUS
 62
     7
100
AcDbVertex
100
AcDb2dVertex
 10
8.0037935865
 20
6.2706548881
 30
0.0
  0
VERTEX
  5
37F
330
1EC
100
AcDbEntity
  8
0
  6
CONTINUOUS
 62
     7
100
AcDbVertex
100
AcDb2dVertex
 10
8.0137233504
 20
6.2525025946
 30
0.0
  0
VERTEX
  5
380
330
1EC
100
AcDbEntity
  8
0
  6
CONTINUOUS
 62
     7
100
AcDbVertex
100
AcDb2dVertex
 10
8.024704997
 20
6.2355796701
 30
0.0
  0
VERTEX
  5
381
330
1EC
100
AcDbEntity
  8
0
  6
CONTINUOUS
 62
     7
100
AcDbVertex
100
AcDb2dVertex
 10
8.0367093889
 20
6.2199310158
 30
0.0
  0
VERTEX
  5
382
330
1EC
100
AcDbEntity
  8
0
  6
CONTINUOUS
 62
     7
100
AcDbVertex
100
AcDb2dVertex
 10
8.0497046752
 20
6.2055981518
 30
0.0
  0
VERTEX
  5
383
330
1EC
100
AcDbEntity
  8
0
  6
CONTINUOUS
 62
     7
100
AcDbVertex
100
AcDb2dVertex
 10
8.0636563759
 20
6.1926191072
 30
0.0
  0
VERTEX
  5
384
330
1EC
100
AcDbEntity
  8
0
  6
CONTINUOUS
 62
     7
100
AcDbVertex
100
AcDb2dVertex
 10
8.0785274732
 20
6.1810283187
 30
0.0
  0
VERTEX
  5
385
330
1EC
100
AcDbEntity
  8
0
  6
CONTINUOUS
 62
     7
100
AcDbVertex
100
AcDb2dVertex
 10
8.0942785102
 20
6.1708565401
 30
0.0
  0
VERTEX
  5
386
330
1EC
100
AcDbEntity
  8
0
  6
CONTINUOUS
 62
     7
100
AcDbVertex
100
AcDb2dVertex
 10
8.0952355771
 20
6.1703006694
 30
0.0
  0
SEQEND
  5
387
330
1EC
100
AcDbEntity
  8
0
  6
CONTINUOUS
 62
     7
  0
LINE
  5
1ED
330
1F
100
AcDbEntity
  8
0
  6
CONTINUOUS
 62
     7
100
AcDbLine
 10
7.9779730492
 20
6.6592219623
 30
0.0
 11
7.991892474
 21
6.6511864494
 31
0.0
  0
POLYLINE
  5
1EE
330
1F
100
AcDbEntity
  8
0
  6
CONTINUOUS
 62
     7
100
AcDb2dPolyline
 66
     1
 10
0.0
 20
0.0
 30
0.0
  0
VERTEX
  5
388
330
1EE
100
AcDbEntity
  8
0
  6
CONTINUOUS
 62
     7
100
AcDbVertex
100
AcDb2dVertex
 10
8.0883527501
 20
6.1744516095
 30
0.0
  0
VERTEX
  5
389
330
1EE
100
AcDbEntity
  8
0
  6
CONTINUOUS
 62
     7
100
AcDbVertex
100
AcDb2dVertex
 10
8.0784980384
 20
6.1799924191
 30
0.0
  0
VERTEX
  5
38A
330
1EE
100
AcDbEntity
  8
0
  6
CONTINUOUS
 62
     7
100
AcDbVertex
100
AcDb2dVertex
 10
8.0629262629
 20
6.1902714476
 30
0.0
  0
VERTEX
  5
38B
330
1EE
100
AcDbEntity
  8
0
  6
CONTINUOUS
 62
     7
100
AcDbVertex
100
AcDb2dVertex
 10
8.0482296384
 20
6.2019514725
 30
0.0
  0
VERTEX
  5
38C
330
1EE
100
AcDbEntity
  8
0
  6
CONTINUOUS
 62
     7
100
AcDbVertex
100
AcDb2dVertex
 10
8.0344467514
 20
6.2150018278
 30
0.0
  0
VERTEX
  5
38D
330
1EE
100
AcDbEntity
  8
0
  6
CONTINUOUS
 62
     7
100
AcDbVertex
100
AcDb2dVertex
 10
8.0216137889
 20
6.2293882494
 30
0.0
  0
VERTEX
  5
38E
330
1EE
100
AcDbEntity
  8
0
  6
CONTINUOUS
 62
     7
100
AcDbVertex
100
AcDb2dVertex
 10
8.0097644443
 20
6.2450729656
 30
0.0
  0
VERTEX
  5
38F
330
1EE
100
AcDbEntity
  8
0
  6
CONTINUOUS
 62
     7
100
AcDbVertex
100
AcDb2dVertex
 10
7.9989298282
 20
6.2620147958
 30
0.0
  0
VERTEX
  5
390
330
1EE
100
AcDbEntity
  8
0
  6
CONTINUOUS
 62
     7
100
AcDbVertex
100
AcDb2dVertex
 10
7.9891383871
 20
6.2801692589
 30
0.0
  0
VERTEX
  5
391
330
1EE
100
AcDbEntity
  8
0
  6
CONTINUOUS
 62
     7
100
AcDbVertex
100
AcDb2dVertex
 10
7.9804158286
 20
6.29948869
 30
0.0
  0
VERTEX
  5
392
330
1EE
100
AcDbEntity
  8
0
  6
CONTINUOUS
 62
     7
100
AcDbVertex
100
AcDb2dVertex
 10
7.972785054
 20
6.3199223656
 30
0.0
  0
VERTEX
  5
393
330
1EE
100
AcDbEntity
  8
0
  6
CONTINUOUS
 62
     7
100
AcDbVertex
100
AcDb2dVertex
 10
7.966266098
 20
6.3414166367
 30
0.0
  0
VERTEX
  5
394
330
1EE
100
AcDbEntity
  8
0
  6
CONTINUOUS
 62
     7
100
AcDbVertex
100
AcDb2dVertex
 10
7.9608760763
 20
6.3639150696
 30
0.0
  0
VERTEX
  5
395
330
1EE
100
AcDbEntity
  8
0
  6
CONTINUOUS
 62
     7
100
AcDbVertex
100
AcDb2dVertex
 10
7.9566291404
 20
6.3873585942
 30
0.0
  0
VERTEX
  5
396
330
1EE
100
AcDbEntity
  8
0
  6
CONTINUOUS
 62
     7
100
AcDbVertex
100
AcDb2dVertex
 10
7.9535364408
 20
6.4116856591
 30
0.0
  0
VERTEX
  5
397
330
1EE
100
AcDbEntity
  8
0
  6
CONTINUOUS
 62
     7
100
AcDbVertex
100
AcDb2dVertex
 10
7.9516060975
 20
6.4368323932
 30
0.0
  0
VERTEX
  5
398
330
1EE
100
AcDbEntity
  8
0
  6
CONTINUOUS
 62
     7
100
AcDbVertex
100
AcDb2dVertex
 10
7.9508431785
 20
6.4627327732
 30
0.0
  0
VERTEX
  5
399
330
1EE
100
AcDbEntity
  8
0
  6
CONTINUOUS
 62
     7
100
AcDbVertex
100
AcDb2dVertex
 10
7.951249687
 20
6.489318797
 30
0.0
  0
VERTEX
  5
39A
330
1EE
100
AcDbEntity
  8
0
  6
CONTINUOUS
 62
     7
100
AcDbVertex
100
AcDb2dVertex
 10
7.9528245557
 20
6.5165206627
 30
0.0
  0
VERTEX
  5
39B
330
1EE
100
AcDbEntity
  8
0
  6
CONTINUOUS
 62
     7
100
AcDbVertex
100
AcDb2dVertex
 10
7.9555636496
 20
6.5442669512
 30
0.0
  0
VERTEX
  5
39C
330
1EE
100
AcDbEntity
  8
0
  6
CONTINUOUS
 62
     7
100
AcDbVertex
100
AcDb2dVertex
 10
7.9594597773
 20
6.572484814
 30
0.0
  0
VERTEX
  5
39D
330
1EE
100
AcDbEntity
  8
0
  6
CONTINUOUS
 62
     7
100
AcDbVertex
100
AcDb2dVertex
 10
7.9645027093
 20
6.6011001647
 30
0.0
  0
VERTEX
  5
39E
330
1EE
100
AcDbEntity
  8
0
  6
CONTINUOUS
 62
     7
100
AcDbVertex
100
AcDb2dVertex
 10
7.9706792055
 20
6.6300378729
 30
0.0
  0
VERTEX
  5
39F
330
1EE
100
AcDbEntity
  8
0
  6
CONTINUOUS
 62
     7
100
AcDbVertex
100
AcDb2dVertex
 10
7.9779730492
 20
6.6592219623
 30
0.0
  0
SEQEND
  5
3A0
330
1EE
100
AcDbEntity
  8
0
  6
CONTINUOUS
 62
     7
  0
LINE
  5
1EF
330
1F
100
AcDbEntity
  8
0
  6
CONTINUOUS
 62
     7
100
AcDbLine
 10
8.7441254515
 20
6.0167971215
 30
0.0
 11
8.7372770945
 21
6.0207505939
 31
0.0
  0
SPLINE
  5
1F0
330
1F
100
AcDbEntity
  8
0
  6
CONTINUOUS
 62
     7
100
AcDbSpline
210
0.0
220
0.0
230
1.0
 70
     8
 71
     3
 72
    32
 73
    28
 74
     0
 42
0.00000001
 43
0.00000001
 40
0.0
 40
0.0
 40
0.0
 40
0.0
 40
0.0102700837309316
 40
0.0731410311541076
 40
0.1377592116857376
 40
0.1877788111866575
 40
0.239093792302691
 40
0.2797537647104555
 40
0.32149740982887
 40
0.3622134219493854
 40
0.4045353467750479
 40
0.4393633980508156
 40
0.4754458799908226
 40
0.5067698932220331
 40
0.5390414420955352
 40
0.5698108139521737
 40
0.6013922774234093
 40
0.633788871002535
 40
0.6669497904065699
 40
0.703075209479209
 40
0.739976338799751
 40
0.7822422104433113
 40
0.8253595619670012
 40
0.8764007054925359
 40
0.9284771033443961
 40
0.9896880574531647
 40
1.0
 40
1.0
 40
1.0
 40
1.0
 10
8.142941050459124
 20
7.597385889885855
 30
0.0
 10
8.142608951730645
 20
7.597602050880069
 30
0.0
 10
8.140243825595132
 20
7.599141496752799
 30
0.0
 10
8.132141515356102
 20
7.603030774086957
 30
0.0
 10
8.119518093527603
 20
7.608474776855572
 30
0.0
 10
8.10459466731208
 20
7.614316879831157
 30
0.0
 10
8.089851417638954
 20
7.619857210050516
 30
0.0
 10
8.074458296091882
 20
7.625607077022295
 30
0.0
 10
8.059315404303478
 20
7.631375532759433
 30
0.0
 10
8.043430456553782
 20
7.637706737325803
 30
0.0
 10
8.02847055880817
 20
7.644109719337672
 30
0.0
 10
8.01481405275218
 20
7.65050871488839
 30
0.0
 10
8.003530149365211
 20
7.656365044860161
 30
0.0
 10
7.993935336348066
 20
7.661964211756783
 30
0.0
 10
7.9863611646385
 20
7.667013751797922
 30
0.0
 10
7.98045567579359
 20
7.671657812344537
 30
0.0
 10
7.976292577559387
 20
7.675749855136181
 30
0.0
 10
7.973861727855997
 20
7.679227497518481
 30
0.0
 10
7.973196076830686
 20
7.681995378485599
 30
0.0
 10
7.974404944933088
 20
7.683855690334219
 30
0.0
 10
7.977639307015861
 20
7.684667808998892
 30
0.0
 10
7.982966701865706
 20
7.684163991936966
 30
0.0
 10
7.990796407183105
 20
7.68203033210545
 30
0.0
 10
8.000977172676102
 20
7.67805910275521
 30
0.0
 10
8.01428147096002
 20
7.671553269483701
 30
0.0
 10
8.025109050439214
 20
7.665695237124435
 30
0.0
 10
8.03215153017517
 20
7.661315250632967
 30
0.0
 10
8.033166892385319
 20
7.660683758185542
 30
0.0
  0
SPLINE
  5
1F1
330
1F
100
AcDbEntity
  8
0
  6
CONTINUOUS
 62
     7
100
AcDbSpline
210
0.0
220
0.0
230
1.0
 70
     8
 71
     3
 72
     9
 73
     5
 74
     0
 42
0.00000001
 43
0.00000001
 40
0.0
 40
0.0
 40
0.0
 40
0.0
 40
0.8921461569627037
 40
1.0
 40
1.0
 40
1.0
 40
1.0
 10
8.352369802690554
 20
6.023640567190081
 30
0.0
 10
8.358420058209822
 20
6.019140012195574
 30
0.0
 10
8.365201744676831
 20
6.014095373534765
 30
0.0
 10
8.370571830152292
 20
6.011452791122823
 30
0.0
 10
8.371151014508259
 20
6.011167778454152
 30
0.0
  0
POLYLINE
  5
1F2
330
1F
100
AcDbEntity
  8
0
  6
CONTINUOUS
 62
     7
100
AcDb2dPolyline
 66
     1
 10
0.0
 20
0.0
 30
0.0
  0
VERTEX
  5
3A1
330
1F2
100
AcDbEntity
  8
0
  6
CONTINUOUS
 62
     7
100
AcDbVertex
100
AcDb2dVertex
 10
8.2238004326
 20
6.1043873714
 30
0.0
  0
VERTEX
  5
3A2
330
1F2
100
AcDbEntity
  8
0
  6
CONTINUOUS
 62
     7
100
AcDbVertex
100
AcDb2dVertex
 10
8.2057627794
 20
6.1114678894
 30
0.0
  0
VERTEX
  5
3A3
330
1F2
100
AcDbEntity
  8
0
  6
CONTINUOUS
 62
     7
100
AcDbVertex
100
AcDb2dVertex
 10
8.1849251379
 20
6.1205457483
 30
0.0
  0
VERTEX
  5
3A4
330
1F2
100
AcDbEntity
  8
0
  6
CONTINUOUS
 62
     7
100
AcDbVertex
100
AcDb2dVertex
 10
8.1688319
 20
6.128355929
 30
0.0
  0
VERTEX
  5
3A5
330
1F2
100
AcDbEntity
  8
0
  6
CONTINUOUS
 62
     7
100
AcDbVertex
100
AcDb2dVertex
 10
8.1540345976
 20
6.1363581708
 30
0.0
  0
VERTEX
  5
3A6
330
1F2
100
AcDbEntity
  8
0
  6
CONTINUOUS
 62
     7
100
AcDbVertex
100
AcDb2dVertex
 10
8.140376185
 20
6.144712672
 30
0.0
  0
VERTEX
  5
3A7
330
1F2
100
AcDbEntity
  8
0
  6
CONTINUOUS
 62
     7
100
AcDbVertex
100
AcDb2dVertex
 10
8.1284764938
 20
6.153105276
 30
0.0
  0
VERTEX
  5
3A8
330
1F2
100
AcDbEntity
  8
0
  6
CONTINUOUS
 62
     7
100
AcDbVertex
100
AcDb2dVertex
 10
8.1147489886
 20
6.1651402492
 30
0.0
  0
VERTEX
  5
3A9
330
1F2
100
AcDbEntity
  8
0
  6
CONTINUOUS
 62
     7
100
AcDbVertex
100
AcDb2dVertex
 10
8.1096263249
 20
6.1710260208
 30
0.0
  0
VERTEX
  5
3AA
330
1F2
100
AcDbEntity
  8
0
  6
CONTINUOUS
 62
     7
100
AcDbVertex
100
AcDb2dVertex
 10
8.1059431779
 20
6.1765738388
 30
0.0
  0
VERTEX
  5
3AB
330
1F2
100
AcDbEntity
  8
0
  6
CONTINUOUS
 62
     7
100
AcDbVertex
100
AcDb2dVertex
 10
8.1032898727
 20
6.1844956461
 30
0.0
  0
VERTEX
  5
3AC
330
1F2
100
AcDbEntity
  8
0
  6
CONTINUOUS
 62
     7
100
AcDbVertex
100
AcDb2dVertex
 10
8.1050940787
 20
6.1906968725
 30
0.0
  0
VERTEX
  5
3AD
330
1F2
100
AcDbEntity
  8
0
  6
CONTINUOUS
 62
     7
100
AcDbVertex
100
AcDb2dVertex
 10
8.1113877777
 20
6.1941656547
 30
0.0
  0
VERTEX
  5
3AE
330
1F2
100
AcDbEntity
  8
0
  6
CONTINUOUS
 62
     7
100
AcDbVertex
100
AcDb2dVertex
 10
8.1224650202
 20
6.1944160888
 30
0.0
  0
VERTEX
  5
3AF
330
1F2
100
AcDbEntity
  8
0
  6
CONTINUOUS
 62
     7
100
AcDbVertex
100
AcDb2dVertex
 10
8.1352579908
 20
6.1915473543
 30
0.0
  0
VERTEX
  5
3B0
330
1F2
100
AcDbEntity
  8
0
  6
CONTINUOUS
 62
     7
100
AcDbVertex
100
AcDb2dVertex
 10
8.1511575577
 20
6.1854304402
 30
0.0
  0
VERTEX
  5
3B1
330
1F2
100
AcDbEntity
  8
0
  6
CONTINUOUS
 62
     7
100
AcDbVertex
100
AcDb2dVertex
 10
8.1674656557
 20
6.1771260107
 30
0.0
  0
VERTEX
  5
3B2
330
1F2
100
AcDbEntity
  8
0
  6
CONTINUOUS
 62
     7
100
AcDbVertex
100
AcDb2dVertex
 10
8.1855760427
 20
6.1660439804
 30
0.0
  0
VERTEX
  5
3B3
330
1F2
100
AcDbEntity
  8
0
  6
CONTINUOUS
 62
     7
100
AcDbVertex
100
AcDb2dVertex
 10
8.2036393608
 20
6.1533893669
 30
0.0
  0
VERTEX
  5
3B4
330
1F2
100
AcDbEntity
  8
0
  6
CONTINUOUS
 62
     7
100
AcDbVertex
100
AcDb2dVertex
 10
8.2225318052
 20
6.1387254006
 30
0.0
  0
VERTEX
  5
3B5
330
1F2
100
AcDbEntity
  8
0
  6
CONTINUOUS
 62
     7
100
AcDbVertex
100
AcDb2dVertex
 10
8.2409930504
 20
6.1232323491
 30
0.0
  0
VERTEX
  5
3B6
330
1F2
100
AcDbEntity
  8
0
  6
CONTINUOUS
 62
     7
100
AcDbVertex
100
AcDb2dVertex
 10
8.2594906819
 20
6.1068088405
 30
0.0
  0
VERTEX
  5
3B7
330
1F2
100
AcDbEntity
  8
0
  6
CONTINUOUS
 62
     7
100
AcDbVertex
100
AcDb2dVertex
 10
8.2775014449
 20
6.090225203
 30
0.0
  0
VERTEX
  5
3B8
330
1F2
100
AcDbEntity
  8
0
  6
CONTINUOUS
 62
     7
100
AcDbVertex
100
AcDb2dVertex
 10
8.294917523
 20
6.073935139
 30
0.0
  0
VERTEX
  5
3B9
330
1F2
100
AcDbEntity
  8
0
  6
CONTINUOUS
 62
     7
100
AcDbVertex
100
AcDb2dVertex
 10
8.3122382386
 20
6.0578424664
 30
0.0
  0
VERTEX
  5
3BA
330
1F2
100
AcDbEntity
  8
0
  6
CONTINUOUS
 62
     7
100
AcDbVertex
100
AcDb2dVertex
 10
8.328466394
 20
6.0432526411
 30
0.0
  0
VERTEX
  5
3BB
330
1F2
100
AcDbEntity
  8
0
  6
CONTINUOUS
 62
     7
100
AcDbVertex
100
AcDb2dVertex
 10
8.3408541861
 20
6.0327194623
 30
0.0
  0
VERTEX
  5
3BC
330
1F2
100
AcDbEntity
  8
0
  6
CONTINUOUS
 62
     7
100
AcDbVertex
100
AcDb2dVertex
 10
8.3523698027
 20
6.0236405672
 30
0.0
  0
VERTEX
  5
3BD
330
1F2
100
AcDbEntity
  8
0
  6
CONTINUOUS
 62
     7
100
AcDbVertex
100
AcDb2dVertex
 10
8.3523698027
 20
6.0236405672
 30
0.0
  0
SEQEND
  5
3BE
330
1F2
100
AcDbEntity
  8
0
  6
CONTINUOUS
 62
     7
  0
POLYLINE
  5
1F3
330
1F
100
AcDbEntity
  8
0
  6
CONTINUOUS
 62
     7
100
AcDb2dPolyline
 66
     1
 10
0.0
 20
0.0
 30
0.0
  0
VERTEX
  5
3BF
330
1F3
100
AcDbEntity
  8
0
  6
CONTINUOUS
 62
     7
100
AcDbVertex
100
AcDb2dVertex
 10
8.7372770945
 20
6.3502627206
 30
0.0
  0
VERTEX
  5
3C0
330
1F3
100
AcDbEntity
  8
0
  6
CONTINUOUS
 62
     7
100
AcDbVertex
100
AcDb2dVertex
 10
8.7242202681
 20
6.3441229454
 30
0.0
  0
VERTEX
  5
3C1
330
1F3
100
AcDbEntity
  8
0
  6
CONTINUOUS
 62
     7
100
AcDbVertex
100
AcDb2dVertex
 10
8.7113243203
 20
6.3394207823
 30
0.0
  0
VERTEX
  5
3C2
330
1F3
100
AcDbEntity
  8
0
  6
CONTINUOUS
 62
     7
100
AcDbVertex
100
AcDb2dVertex
 10
8.6986928993
 20
6.3361940239
 30
0.0
  0
VERTEX
  5
3C3
330
1F3
100
AcDbEntity
  8
0
  6
CONTINUOUS
 62
     7
100
AcDbVertex
100
AcDb2dVertex
 10
8.6864275274
 20
6.3344686046
 30
0.0
  0
VERTEX
  5
3C4
330
1F3
100
AcDbEntity
  8
0
  6
CONTINUOUS
 62
     7
100
AcDbVertex
100
AcDb2dVertex
 10
8.6746267849
 20
6.334258392
 30
0.0
  0
VERTEX
  5
3C5
330
1F3
100
AcDbEntity
  8
0
  6
CONTINUOUS
 62
     7
100
AcDbVertex
100
AcDb2dVertex
 10
8.6633855175
 20
6.3355650756
 30
0.0
  0
VERTEX
  5
3C6
330
1F3
100
AcDbEntity
  8
0
  6
CONTINUOUS
 62
     7
100
AcDbVertex
100
AcDb2dVertex
 10
8.6527940745
 20
6.3383781534
 30
0.0
  0
VERTEX
  5
3C7
330
1F3
100
AcDbEntity
  8
0
  6
CONTINUOUS
 62
     7
100
AcDbVertex
100
AcDb2dVertex
 10
8.6429375823
 20
6.3426750157
 30
0.0
  0
VERTEX
  5
3C8
330
1F3
100
AcDbEntity
  8
0
  6
CONTINUOUS
 62
     7
100
AcDbVertex
100
AcDb2dVertex
 10
8.6338952603
 20
6.3484211276
 30
0.0
  0
VERTEX
  5
3C9
330
1F3
100
AcDbEntity
  8
0
  6
CONTINUOUS
 62
     7
100
AcDbVertex
100
AcDb2dVertex
 10
8.625739784
 20
6.3555703059
 30
0.0
  0
VERTEX
  5
3CA
330
1F3
100
AcDbEntity
  8
0
  6
CONTINUOUS
 62
     7
100
AcDbVertex
100
AcDb2dVertex
 10
8.6185367015
 20
6.3640650906
 30
0.0
  0
VERTEX
  5
3CB
330
1F3
100
AcDbEntity
  8
0
  6
CONTINUOUS
 62
     7
100
AcDbVertex
100
AcDb2dVertex
 10
8.6123439057
 20
6.3738372068
 30
0.0
  0
VERTEX
  5
3CC
330
1F3
100
AcDbEntity
  8
0
  6
CONTINUOUS
 62
     7
100
AcDbVertex
100
AcDb2dVertex
 10
8.6072111701
 20
6.3848081134
 30
0.0
  0
VERTEX
  5
3CD
330
1F3
100
AcDbEntity
  8
0
  6
CONTINUOUS
 62
     7
100
AcDbVertex
100
AcDb2dVertex
 10
8.6031797477
 20
6.3968896339
 30
0.0
  0
VERTEX
  5
3CE
330
1F3
100
AcDbEntity
  8
0
  6
CONTINUOUS
 62
     7
100
AcDbVertex
100
AcDb2dVertex
 10
8.6002820404
 20
6.409984666
 30
0.0
  0
VERTEX
  5
3CF
330
1F3
100
AcDbEntity
  8
0
  6
CONTINUOUS
 62
     7
100
AcDbVertex
100
AcDb2dVertex
 10
8.5985413377
 20
6.4239879611
 30
0.0
  0
VERTEX
  5
3D0
330
1F3
100
AcDbEntity
  8
0
  6
CONTINUOUS
 62
     7
100
AcDbVertex
100
AcDb2dVertex
 10
8.5979716301
 20
6.4387869709
 30
0.0
  0
VERTEX
  5
3D1
330
1F3
100
AcDbEntity
  8
0
  6
CONTINUOUS
 62
     7
100
AcDbVertex
100
AcDb2dVertex
 10
8.5985774966
 20
6.4542627516
 30
0.0
  0
VERTEX
  5
3D2
330
1F3
100
AcDbEntity
  8
0
  6
CONTINUOUS
 62
     7
100
AcDbVertex
100
AcDb2dVertex
 10
8.6003540677
 20
6.47029092
 30
0.0
  0
VERTEX
  5
3D3
330
1F3
100
AcDbEntity
  8
0
  6
CONTINUOUS
 62
     7
100
AcDbVertex
100
AcDb2dVertex
 10
8.6032870645
 20
6.4867426533
 30
0.0
  0
VERTEX
  5
3D4
330
1F3
100
AcDbEntity
  8
0
  6
CONTINUOUS
 62
     7
100
AcDbVertex
100
AcDb2dVertex
 10
8.6073529138
 20
6.5034857242
 30
0.0
  0
VERTEX
  5
3D5
330
1F3
100
AcDbEntity
  8
0
  6
CONTINUOUS
 62
     7
100
AcDbVertex
100
AcDb2dVertex
 10
8.6125189371
 20
6.5203855641
 30
0.0
  0
VERTEX
  5
3D6
330
1F3
100
AcDbEntity
  8
0
  6
CONTINUOUS
 62
     7
100
AcDbVertex
100
AcDb2dVertex
 10
8.6187436138
 20
6.5373063442
 30
0.0
  0
VERTEX
  5
3D7
330
1F3
100
AcDbEntity
  8
0
  6
CONTINUOUS
 62
     7
100
AcDbVertex
100
AcDb2dVertex
 10
8.6259769143
 20
6.5541120675
 30
0.0
  0
VERTEX
  5
3D8
330
1F3
100
AcDbEntity
  8
0
  6
CONTINUOUS
 62
     7
100
AcDbVertex
100
AcDb2dVertex
 10
8.6341607025
 20
6.5706676617
 30
0.0
  0
VERTEX
  5
3D9
330
1F3
100
AcDbEntity
  8
0
  6
CONTINUOUS
 62
     7
100
AcDbVertex
100
AcDb2dVertex
 10
8.6432292031
 20
6.5868400648
 30
0.0
  0
VERTEX
  5
3DA
330
1F3
100
AcDbEntity
  8
0
  6
CONTINUOUS
 62
     7
100
AcDbVertex
100
AcDb2dVertex
 10
8.6531095301
 20
6.6024992947
 30
0.0
  0
VERTEX
  5
3DB
330
1F3
100
AcDbEntity
  8
0
  6
CONTINUOUS
 62
     7
100
AcDbVertex
100
AcDb2dVertex
 10
8.6637222724
 20
6.6175194939
 30
0.0
  0
VERTEX
  5
3DC
330
1F3
100
AcDbEntity
  8
0
  6
CONTINUOUS
 62
     7
100
AcDbVertex
100
AcDb2dVertex
 10
8.6749821326
 20
6.6317799408
 30
0.0
  0
VERTEX
  5
3DD
330
1F3
100
AcDbEntity
  8
0
  6
CONTINUOUS
 62
     7
100
AcDbVertex
100
AcDb2dVertex
 10
8.6867986118
 20
6.6451660202
 30
0.0
  0
VERTEX
  5
3DE
330
1F3
100
AcDbEntity
  8
0
  6
CONTINUOUS
 62
     7
100
AcDbVertex
100
AcDb2dVertex
 10
8.6990767379
 20
6.6575701444
 30
0.0
  0
VERTEX
  5
3DF
330
1F3
100
AcDbEntity
  8
0
  6
CONTINUOUS
 62
     7
100
AcDbVertex
100
AcDb2dVertex
 10
8.7117178281
 20
6.6688926181
 30
0.0
  0
VERTEX
  5
3E0
330
1F3
100
AcDbEntity
  8
0
  6
CONTINUOUS
 62
     7
100
AcDbVertex
100
AcDb2dVertex
 10
8.7246202824
 20
6.6790424393
 30
0.0
  0
VERTEX
  5
3E1
330
1F3
100
AcDbEntity
  8
0
  6
CONTINUOUS
 62
     7
100
AcDbVertex
100
AcDb2dVertex
 10
8.7376804002
 20
6.6879380312
 30
0.0
  0
VERTEX
  5
3E2
330
1F3
100
AcDbEntity
  8
0
  6
CONTINUOUS
 62
     7
100
AcDbVertex
100
AcDb2dVertex
 10
8.7507932136
 20
6.6955078972
 30
0.0
  0
VERTEX
  5
3E3
330
1F3
100
AcDbEntity
  8
0
  6
CONTINUOUS
 62
     7
100
AcDbVertex
100
AcDb2dVertex
 10
8.7638533314
 20
6.7016911964
 30
0.0
  0
VERTEX
  5
3E4
330
1F3
100
AcDbEntity
  8
0
  6
CONTINUOUS
 62
     7
100
AcDbVertex
100
AcDb2dVertex
 10
8.7767557857
 20
6.7064382318
 30
0.0
  0
VERTEX
  5
3E5
330
1F3
100
AcDbEntity
  8
0
  6
CONTINUOUS
 62
     7
100
AcDbVertex
100
AcDb2dVertex
 10
8.7893968759
 20
6.7097108502
 30
0.0
  0
VERTEX
  5
3E6
330
1F3
100
AcDbEntity
  8
0
  6
CONTINUOUS
 62
     7
100
AcDbVertex
100
AcDb2dVertex
 10
8.8016750019
 20
6.7114827486
 30
0.0
  0
VERTEX
  5
3E7
330
1F3
100
AcDbEntity
  8
0
  6
CONTINUOUS
 62
     7
100
AcDbVertex
100
AcDb2dVertex
 10
8.8134914812
 20
6.7117396858
 30
0.0
  0
VERTEX
  5
3E8
330
1F3
100
AcDbEntity
  8
0
  6
CONTINUOUS
 62
     7
100
AcDbVertex
100
AcDb2dVertex
 10
8.8247513413
 20
6.7104795967
 30
0.0
  0
VERTEX
  5
3E9
330
1F3
100
AcDbEntity
  8
0
  6
CONTINUOUS
 62
     7
100
AcDbVertex
100
AcDb2dVertex
 10
8.8353640837
 20
6.707712609
 30
0.0
  0
VERTEX
  5
3EA
330
1F3
100
AcDbEntity
  8
0
  6
CONTINUOUS
 62
     7
100
AcDbVertex
100
AcDb2dVertex
 10
8.8452444106
 20
6.7034609617
 30
0.0
  0
VERTEX
  5
3EB
330
1F3
100
AcDbEntity
  8
0
  6
CONTINUOUS
 62
     7
100
AcDbVertex
100
AcDb2dVertex
 10
8.8543129113
 20
6.6977588266
 30
0.0
  0
VERTEX
  5
3EC
330
1F3
100
AcDbEntity
  8
0
  6
CONTINUOUS
 62
     7
100
AcDbVertex
100
AcDb2dVertex
 10
8.8624966995
 20
6.6906520332
 30
0.0
  0
VERTEX
  5
3ED
330
1F3
100
AcDbEntity
  8
0
  6
CONTINUOUS
 62
     7
100
AcDbVertex
100
AcDb2dVertex
 10
8.86973
 20
6.6821977009
 30
0.0
  0
VERTEX
  5
3EE
330
1F3
100
AcDbEntity
  8
0
  6
CONTINUOUS
 62
     7
100
AcDbVertex
100
AcDb2dVertex
 10
8.8759546766
 20
6.6724637794
 30
0.0
  0
VERTEX
  5
3EF
330
1F3
100
AcDbEntity
  8
0
  6
CONTINUOUS
 62
     7
100
AcDbVertex
100
AcDb2dVertex
 10
8.8811207
 20
6.6615285031
 30
0.0
  0
VERTEX
  5
3F0
330
1F3
100
AcDbEntity
  8
0
  6
CONTINUOUS
 62
     7
100
AcDbVertex
100
AcDb2dVertex
 10
8.8851865492
 20
6.6494797618
 30
0.0
  0
VERTEX
  5
3F1
330
1F3
100
AcDbEntity
  8
0
  6
CONTINUOUS
 62
     7
100
AcDbVertex
100
AcDb2dVertex
 10
8.8881195461
 20
6.6364143946
 30
0.0
  0
VERTEX
  5
3F2
330
1F3
100
AcDbEntity
  8
0
  6
CONTINUOUS
 62
     7
100
AcDbVertex
100
AcDb2dVertex
 10
8.8898961171
 20
6.6224374115
 30
0.0
  0
VERTEX
  5
3F3
330
1F3
100
AcDbEntity
  8
0
  6
CONTINUOUS
 62
     7
100
AcDbVertex
100
AcDb2dVertex
 10
8.8905019837
 20
6.6076611494
 30
0.0
  0
VERTEX
  5
3F4
330
1F3
100
AcDbEntity
  8
0
  6
CONTINUOUS
 62
     7
100
AcDbVertex
100
AcDb2dVertex
 10
8.8899322761
 20
6.5922043693
 30
0.0
  0
VERTEX
  5
3F5
330
1F3
100
AcDbEntity
  8
0
  6
CONTINUOUS
 62
     7
100
AcDbVertex
100
AcDb2dVertex
 10
8.8881915734
 20
6.5761913016
 30
0.0
  0
VERTEX
  5
3F6
330
1F3
100
AcDbEntity
  8
0
  6
CONTINUOUS
 62
     7
100
AcDbVertex
100
AcDb2dVertex
 10
8.885293866
 20
6.5597506478
 30
0.0
  0
VERTEX
  5
3F7
330
1F3
100
AcDbEntity
  8
0
  6
CONTINUOUS
 62
     7
100
AcDbVertex
100
AcDb2dVertex
 10
8.8812624437
 20
6.5430145461
 30
0.0
  0
VERTEX
  5
3F8
330
1F3
100
AcDbEntity
  8
0
  6
CONTINUOUS
 62
     7
100
AcDbVertex
100
AcDb2dVertex
 10
8.876129708
 20
6.5261175091
 30
0.0
  0
VERTEX
  5
3F9
330
1F3
100
AcDbEntity
  8
0
  6
CONTINUOUS
 62
     7
100
AcDbVertex
100
AcDb2dVertex
 10
8.8699369123
 20
6.5091953431
 30
0.0
  0
VERTEX
  5
3FA
330
1F3
100
AcDbEntity
  8
0
  6
CONTINUOUS
 62
     7
100
AcDbVertex
100
AcDb2dVertex
 10
8.8627338297
 20
6.4923840563
 30
0.0
  0
VERTEX
  5
3FB
330
1F3
100
AcDbEntity
  8
0
  6
CONTINUOUS
 62
     7
100
AcDbVertex
100
AcDb2dVertex
 10
8.8545783535
 20
6.4758187656
 30
0.0
  0
VERTEX
  5
3FC
330
1F3
100
AcDbEntity
  8
0
  6
CONTINUOUS
 62
     7
100
AcDbVertex
100
AcDb2dVertex
 10
8.8455360315
 20
6.4596326109
 30
0.0
  0
VERTEX
  5
3FD
330
1F3
100
AcDbEntity
  8
0
  6
CONTINUOUS
 62
     7
100
AcDbVertex
100
AcDb2dVertex
 10
8.8356795392
 20
6.4439556849
 30
0.0
  0
VERTEX
  5
3FE
330
1F3
100
AcDbEntity
  8
0
  6
CONTINUOUS
 62
     7
100
AcDbVertex
100
AcDb2dVertex
 10
8.8250880963
 20
6.4289139874
 30
0.0
  0
VERTEX
  5
3FF
330
1F3
100
AcDbEntity
  8
0
  6
CONTINUOUS
 62
     7
100
AcDbVertex
100
AcDb2dVertex
 10
8.8138468289
 20
6.4146284126
 30
0.0
  0
VERTEX
  5
400
330
1F3
100
AcDbEntity
  8
0
  6
CONTINUOUS
 62
     7
100
AcDbVertex
100
AcDb2dVertex
 10
8.8020460863
 20
6.4012137779
 30
0.0
  0
VERTEX
  5
401
330
1F3
100
AcDbEntity
  8
0
  6
CONTINUOUS
 62
     7
100
AcDbVertex
100
AcDb2dVertex
 10
8.7897807144
 20
6.3887779003
 30
0.0
  0
VERTEX
  5
402
330
1F3
100
AcDbEntity
  8
0
  6
CONTINUOUS
 62
     7
100
AcDbVertex
100
AcDb2dVertex
 10
8.7771492935
 20
6.3774207305
 30
0.0
  0
VERTEX
  5
403
330
1F3
100
AcDbEntity
  8
0
  6
CONTINUOUS
 62
     7
100
AcDbVertex
100
AcDb2dVertex
 10
8.7642533456
 20
6.3672335491
 30
0.0
  0
VERTEX
  5
404
330
1F3
100
AcDbEntity
  8
0
  6
CONTINUOUS
 62
     7
100
AcDbVertex
100
AcDb2dVertex
 10
8.7511965193
 20
6.3582982335
 30
0.0
  0
SEQEND
  5
405
330
1F3
100
AcDbEntity
  8
0
  6
CONTINUOUS
 62
     7
  0
LINE
  5
1F4
330
1F
100
AcDbEntity
  8
0
  6
CONTINUOUS
 62
     7
100
AcDbLine
 10
8.7372770945
 20
6.0128459892
 30
0.0
 11
8.7372770945
 21
6.3502627206
 31
0.0
  0
LINE
  5
1F5
330
1F
100
AcDbEntity
  8
0
  6
CONTINUOUS
 62
     7
100
AcDbLine
 10
8.7511965193
 20
6.0208815021
 30
0.0
 11
8.7511965193
 21
6.3582982335
 31
0.0
  0
POLYLINE
  5
1F6
330
1F
100
AcDbEntity
  8
0
  6
CONTINUOUS
 62
     7
100
AcDb2dPolyline
 66
     1
 10
0.0
 20
0.0
 30
0.0
  0
VERTEX
  5
406
330
1F6
100
AcDbEntity
  8
0
  6
CONTINUOUS
 62
     7
100
AcDbVertex
100
AcDb2dVertex
 10
8.7441254515
 20
6.3705554129
 30
0.0
  0
VERTEX
  5
407
330
1F6
100
AcDbEntity
  8
0
  6
CONTINUOUS
 62
     7
100
AcDbVertex
100
AcDb2dVertex
 10
8.7569072077
 20
6.3793579221
 30
0.0
  0
VERTEX
  5
408
330
1F6
100
AcDbEntity
  8
0
  6
CONTINUOUS
 62
     7
100
AcDbVertex
100
AcDb2dVertex
 10
8.769520952
 20
6.3894175769
 30
0.0
  0
VERTEX
  5
409
330
1F6
100
AcDbEntity
  8
0
  6
CONTINUOUS
 62
     7
100
AcDbVertex
100
AcDb2dVertex
 10
8.7818593336
 20
6.4006487636
 30
0.0
  0
VERTEX
  5
40A
330
1F6
100
AcDbEntity
  8
0
  6
CONTINUOUS
 62
     7
100
AcDbVertex
100
AcDb2dVertex
 10
8.7938173453
 20
6.4129558979
 30
0.0
  0
VERTEX
  5
40B
330
1F6
100
AcDbEntity
  8
0
  6
CONTINUOUS
 62
     7
100
AcDbVertex
100
AcDb2dVertex
 10
8.8052932172
 20
6.4262342386
 30
0.0
  0
VERTEX
  5
40C
330
1F6
100
AcDbEntity
  8
0
  6
CONTINUOUS
 62
     7
100
AcDbVertex
100
AcDb2dVertex
 10
8.8161892825
 20
6.4403707787
 30
0.0
  0
VERTEX
  5
40D
330
1F6
100
AcDbEntity
  8
0
  6
CONTINUOUS
 62
     7
100
AcDbVertex
100
AcDb2dVertex
 10
8.8264128091
 20
6.4552452078
 30
0.0
  0
VERTEX
  5
40E
330
1F6
100
AcDbEntity
  8
0
  6
CONTINUOUS
 62
     7
100
AcDbVertex
100
AcDb2dVertex
 10
8.8358767885
 20
6.4707309353
 30
0.0
  0
VERTEX
  5
40F
330
1F6
100
AcDbEntity
  8
0
  6
CONTINUOUS
 62
     7
100
AcDbVertex
100
AcDb2dVertex
 10
8.8445006764
 20
6.4866961682
 30
0.0
  0
VERTEX
  5
410
330
1F6
100
AcDbEntity
  8
0
  6
CONTINUOUS
 62
     7
100
AcDbVertex
100
AcDb2dVertex
 10
8.8522110782
 20
6.5030050326
 30
0.0
  0
VERTEX
  5
411
330
1F6
100
AcDbEntity
  8
0
  6
CONTINUOUS
 62
     7
100
AcDbVertex
100
AcDb2dVertex
 10
8.8589423737
 20
6.51951873
 30
0.0
  0
VERTEX
  5
412
330
1F6
100
AcDbEntity
  8
0
  6
CONTINUOUS
 62
     7
100
AcDbVertex
100
AcDb2dVertex
 10
8.8646372756
 20
6.5360967188
 30
0.0
  0
VERTEX
  5
413
330
1F6
100
AcDbEntity
  8
0
  6
CONTINUOUS
 62
     7
100
AcDbVertex
100
AcDb2dVertex
 10
8.8692473165
 20
6.5525979102
 30
0.0
  0
VERTEX
  5
414
330
1F6
100
AcDbEntity
  8
0
  6
CONTINUOUS
 62
     7
100
AcDbVertex
100
AcDb2dVertex
 10
8.8727332624
 20
6.5688818689
 30
0.0
  0
VERTEX
  5
415
330
1F6
100
AcDbEntity
  8
0
  6
CONTINUOUS
 62
     7
100
AcDbVertex
100
AcDb2dVertex
 10
8.8750654457
 20
6.5848100084
 30
0.0
  0
VERTEX
  5
416
330
1F6
100
AcDbEntity
  8
0
  6
CONTINUOUS
 62
     7
100
AcDbVertex
100
AcDb2dVertex
 10
8.876224018
 20
6.6002467705
 30
0.0
  0
VERTEX
  5
417
330
1F6
100
AcDbEntity
  8
0
  6
CONTINUOUS
 62
     7
100
AcDbVertex
100
AcDb2dVertex
 10
8.8761991192
 20
6.615060779
 30
0.0
  0
VERTEX
  5
418
330
1F6
100
AcDbEntity
  8
0
  6
CONTINUOUS
 62
     7
100
AcDbVertex
100
AcDb2dVertex
 10
8.8749909612
 20
6.6291259575
 30
0.0
  0
VERTEX
  5
419
330
1F6
100
AcDbEntity
  8
0
  6
CONTINUOUS
 62
     7
100
AcDbVertex
100
AcDb2dVertex
 10
8.8726098261
 20
6.6423226027
 30
0.0
  0
VERTEX
  5
41A
330
1F6
100
AcDbEntity
  8
0
  6
CONTINUOUS
 62
     7
100
AcDbVertex
100
AcDb2dVertex
 10
8.8690759789
 20
6.6545384032
 30
0.0
  0
VERTEX
  5
41B
330
1F6
100
AcDbEntity
  8
0
  6
CONTINUOUS
 62
     7
100
AcDbVertex
100
AcDb2dVertex
 10
8.8644194948
 20
6.665669395
 30
0.0
  0
VERTEX
  5
41C
330
1F6
100
AcDbEntity
  8
0
  6
CONTINUOUS
 62
     7
100
AcDbVertex
100
AcDb2dVertex
 10
8.8586800034
 20
6.6756208465
 30
0.0
  0
VERTEX
  5
41D
330
1F6
100
AcDbEntity
  8
0
  6
CONTINUOUS
 62
     7
100
AcDbVertex
100
AcDb2dVertex
 10
8.8519063511
 20
6.6843080647
 30
0.0
  0
VERTEX
  5
41E
330
1F6
100
AcDbEntity
  8
0
  6
CONTINUOUS
 62
     7
100
AcDbVertex
100
AcDb2dVertex
 10
8.844156186
 20
6.6916571162
 30
0.0
  0
VERTEX
  5
41F
330
1F6
100
AcDbEntity
  8
0
  6
CONTINUOUS
 62
     7
100
AcDbVertex
100
AcDb2dVertex
 10
8.8354954666
 20
6.6976054561
 30
0.0
  0
VERTEX
  5
420
330
1F6
100
AcDbEntity
  8
0
  6
CONTINUOUS
 62
     7
100
AcDbVertex
100
AcDb2dVertex
 10
8.825997901
 20
6.7021024602
 30
0.0
  0
VERTEX
  5
421
330
1F6
100
AcDbEntity
  8
0
  6
CONTINUOUS
 62
     7
100
AcDbVertex
100
AcDb2dVertex
 10
8.8157443194
 20
6.7051098563
 30
0.0
  0
VERTEX
  5
422
330
1F6
100
AcDbEntity
  8
0
  6
CONTINUOUS
 62
     7
100
AcDbVertex
100
AcDb2dVertex
 10
8.8048219859
 20
6.7066020497
 30
0.0
  0
VERTEX
  5
423
330
1F6
100
AcDbEntity
  8
0
  6
CONTINUOUS
 62
     7
100
AcDbVertex
100
AcDb2dVertex
 10
8.7933238563
 20
6.7065663409
 30
0.0
  0
VERTEX
  5
424
330
1F6
100
AcDbEntity
  8
0
  6
CONTINUOUS
 62
     7
100
AcDbVertex
100
AcDb2dVertex
 10
8.7813477868
 20
6.7050030337
 30
0.0
  0
VERTEX
  5
425
330
1F6
100
AcDbEntity
  8
0
  6
CONTINUOUS
 62
     7
100
AcDbVertex
100
AcDb2dVertex
 10
8.768995701
 20
6.7019254329
 30
0.0
  0
VERTEX
  5
426
330
1F6
100
AcDbEntity
  8
0
  6
CONTINUOUS
 62
     7
100
AcDbVertex
100
AcDb2dVertex
 10
8.7563727227
 20
6.6973597308
 30
0.0
  0
VERTEX
  5
427
330
1F6
100
AcDbEntity
  8
0
  6
CONTINUOUS
 62
     7
100
AcDbVertex
100
AcDb2dVertex
 10
8.7435862812
 20
6.6913447842
 30
0.0
  0
VERTEX
  5
428
330
1F6
100
AcDbEntity
  8
0
  6
CONTINUOUS
 62
     7
100
AcDbVertex
100
AcDb2dVertex
 10
8.7406342871
 20
6.689761809
 30
0.0
  0
SEQEND
  5
429
330
1F6
100
AcDbEntity
  8
0
  6
CONTINUOUS
 62
     7
  0
ARC
  5
1F7
330
1F
100
AcDbEntity
  8
0
  6
CONTINUOUS
 62
     7
100
AcDbCircle
 10
8.6819558469
 20
6.4320323894
 30
0.0
 40
0.0846171733489155
100
AcDbArc
 50
172.7495337352
 51
304.7653831014
  0
LINE
  5
1F8
330
1F
100
AcDbEntity
  8
0
  6
CONTINUOUS
 62
     7
100
AcDbLine
 10
8.7372770945
 20
6.3502627206
 30
0.0
 11
8.7302060267
 21
6.3625199
 31
0.0
  0
LINE
  5
1F9
330
1F
100
AcDbEntity
  8
0
  6
CONTINUOUS
 62
     7
100
AcDbLine
 10
8.7511965193
 20
6.3582982335
 30
0.0
 11
8.7441254515
 21
6.3705554129
 31
0.0
  0
LINE
  5
1FA
330
1F
100
AcDbEntity
  8
0
  6
CONTINUOUS
 62
     7
100
AcDbLine
 10
8.5981467255
 20
6.4387561118
 30
0.0
 11
8.7302060267
 21
6.3625199
 31
0.0
  0
LINE
  5
1FB
330
1F
100
AcDbEntity
  8
0
  6
CONTINUOUS
 62
     7
100
AcDbLine
 10
8.5986005716
 20
6.4545651379
 30
0.0
 11
8.7441254515
 21
6.3705554129
 31
0.0
  0
ARC
  5
1FC
330
1F
100
AcDbEntity
  8
0
  6
CONTINUOUS
 62
     7
100
AcDbCircle
 10
8.1145205118
 20
6.8865184292
 30
0.0
 40
0.9509696499045794
100
AcDbArc
 50
122.5566081473
 51
177.4487683854
  0
POLYLINE
  5
1FD
330
1F
100
AcDbEntity
  8
0
  6
CONTINUOUS
 62
     7
100
AcDb2dPolyline
 66
     1
 10
0.0
 20
0.0
 30
0.0
  0
VERTEX
  5
42A
330
1FD
100
AcDbEntity
  8
0
  6
CONTINUOUS
 62
     7
100
AcDbVertex
100
AcDb2dVertex
 10
8.2093270938
 20
6.1489613631
 30
0.0
  0
VERTEX
  5
42B
330
1FD
100
AcDbEntity
  8
0
  6
CONTINUOUS
 62
     7
100
AcDbVertex
100
AcDb2dVertex
 10
8.2106683163
 20
6.1422906038
 30
0.0
  0
VERTEX
  5
42C
330
1FD
100
AcDbEntity
  8
0
  6
CONTINUOUS
 62
     7
100
AcDbVertex
100
AcDb2dVertex
 10
8.2141932369
 20
6.1288474808
 30
0.0
  0
VERTEX
  5
42D
330
1FD
100
AcDbEntity
  8
0
  6
CONTINUOUS
 62
     7
100
AcDbVertex
100
AcDb2dVertex
 10
8.2188213343
 20
6.1153058653
 30
0.0
  0
VERTEX
  5
42E
330
1FD
100
AcDbEntity
  8
0
  6
CONTINUOUS
 62
     7
100
AcDbVertex
100
AcDb2dVertex
 10
8.2244922743
 20
6.1018422931
 30
0.0
  0
VERTEX
  5
42F
330
1FD
100
AcDbEntity
  8
0
  6
CONTINUOUS
 62
     7
100
AcDbVertex
100
AcDb2dVertex
 10
8.2311321274
 20
6.0886322823
 30
0.0
  0
VERTEX
  5
430
330
1FD
100
AcDbEntity
  8
0
  6
CONTINUOUS
 62
     7
100
AcDbVertex
100
AcDb2dVertex
 10
8.238654333
 20
6.0758480457
 30
0.0
  0
VERTEX
  5
431
330
1FD
100
AcDbEntity
  8
0
  6
CONTINUOUS
 62
     7
100
AcDbVertex
100
AcDb2dVertex
 10
8.2469608277
 20
6.0636562453
 30
0.0
  0
VERTEX
  5
432
330
1FD
100
AcDbEntity
  8
0
  6
CONTINUOUS
 62
     7
100
AcDbVertex
100
AcDb2dVertex
 10
8.2559433237
 20
6.0522158198
 30
0.0
  0
VERTEX
  5
433
330
1FD
100
AcDbEntity
  8
0
  6
CONTINUOUS
 62
     7
100
AcDbVertex
100
AcDb2dVertex
 10
8.2654847202
 20
6.0416759129
 30
0.0
  0
VERTEX
  5
434
330
1FD
100
AcDbEntity
  8
0
  6
CONTINUOUS
 62
     7
100
AcDbVertex
100
AcDb2dVertex
 10
8.2754606307
 20
6.0321739281
 30
0.0
  0
VERTEX
  5
435
330
1FD
100
AcDbEntity
  8
0
  6
CONTINUOUS
 62
     7
100
AcDbVertex
100
AcDb2dVertex
 10
8.2857410039
 20
6.0238337385
 30
0.0
  0
VERTEX
  5
436
330
1FD
100
AcDbEntity
  8
0
  6
CONTINUOUS
 62
     7
100
AcDbVertex
100
AcDb2dVertex
 10
8.2961918193
 20
6.0167640711
 30
0.0
  0
VERTEX
  5
437
330
1FD
100
AcDbEntity
  8
0
  6
CONTINUOUS
 62
     7
100
AcDbVertex
100
AcDb2dVertex
 10
8.3066768348
 20
6.01105709
 30
0.0
  0
VERTEX
  5
438
330
1FD
100
AcDbEntity
  8
0
  6
CONTINUOUS
 62
     7
100
AcDbVertex
100
AcDb2dVertex
 10
8.3170593619
 20
6.0067871942
 30
0.0
  0
VERTEX
  5
439
330
1FD
100
AcDbEntity
  8
0
  6
CONTINUOUS
 62
     7
100
AcDbVertex
100
AcDb2dVertex
 10
8.3272040487
 20
6.0040100485
 30
0.0
  0
VERTEX
  5
43A
330
1FD
100
AcDbEntity
  8
0
  6
CONTINUOUS
 62
     7
100
AcDbVertex
100
AcDb2dVertex
 10
8.3369786435
 20
6.0027618572
 30
0.0
  0
VERTEX
  5
43B
330
1FD
100
AcDbEntity
  8
0
  6
CONTINUOUS
 62
     7
100
AcDbVertex
100
AcDb2dVertex
 10
8.3462557197
 20
6.0030588924
 30
0.0
  0
VERTEX
  5
43C
330
1FD
100
AcDbEntity
  8
0
  6
CONTINUOUS
 62
     7
100
AcDbVertex
100
AcDb2dVertex
 10
8.3549143363
 20
6.0048972817
 30
0.0
  0
VERTEX
  5
43D
330
1FD
100
AcDbEntity
  8
0
  6
CONTINUOUS
 62
     7
100
AcDbVertex
100
AcDb2dVertex
 10
8.3628416151
 20
6.0082530589
 30
0.0
  0
VERTEX
  5
43E
330
1FD
100
AcDbEntity
  8
0
  6
CONTINUOUS
 62
     7
100
AcDbVertex
100
AcDb2dVertex
 10
8.368823539
 20
6.012185019
 30
0.0
  0
SEQEND
  5
43F
330
1FD
100
AcDbEntity
  8
0
  6
CONTINUOUS
 62
     7
  0
ARC
  5
1FE
330
1F
100
AcDbEntity
  8
0
  6
CONTINUOUS
 62
     7
100
AcDbCircle
 10
8.3441750968
 20
6.0670982957
 30
0.0
 40
0.0679740217634027
100
AcDbArc
 50
234.1521538285
 51
298.9317251067
  0
LINE
  5
1FF
330
1F
100
AcDbEntity
  8
0
  6
CONTINUOUS
 62
     7
100
AcDbLine
 10
8.2988152124
 20
6.0656116514
 30
0.0
 11
8.3034318809
 21
6.0660244512
 31
0.0
  0
LINE
  5
200
330
1F
100
AcDbEntity
  8
0
  6
CONTINUOUS
 62
     7
100
AcDbLine
 10
8.2836592557
 20
6.0844655175
 30
0.0
 11
8.2988152124
 21
6.0656116514
 31
0.0
  0
LINE
  5
201
330
1F
100
AcDbEntity
  8
0
  6
CONTINUOUS
 62
     7
100
AcDbLine
 10
8.3019366838
 20
6.0674136385
 30
0.0
 11
8.2988152124
 21
6.0656116514
 31
0.0
  0
POLYLINE
  5
202
330
1F
100
AcDbEntity
  8
0
  6
CONTINUOUS
 62
     7
100
AcDb2dPolyline
 66
     1
 10
0.0
 20
0.0
 30
0.0
  0
VERTEX
  5
440
330
202
100
AcDbEntity
  8
0
  6
CONTINUOUS
 62
     7
100
AcDbVertex
100
AcDb2dVertex
 10
8.0119526798
 20
7.6527734962
 30
0.0
  0
VERTEX
  5
441
330
202
100
AcDbEntity
  8
0
  6
CONTINUOUS
 62
     7
100
AcDbVertex
100
AcDb2dVertex
 10
8.0159437323
 20
7.6549077224
 30
0.0
  0
VERTEX
  5
442
330
202
100
AcDbEntity
  8
0
  6
CONTINUOUS
 62
     7
100
AcDbVertex
100
AcDb2dVertex
 10
8.0246966658
 20
7.658608574
 30
0.0
  0
VERTEX
  5
443
330
202
100
AcDbEntity
  8
0
  6
CONTINUOUS
 62
     7
100
AcDbVertex
100
AcDb2dVertex
 10
8.0343256163
 20
7.6614947223
 30
0.0
  0
VERTEX
  5
444
330
202
100
AcDbEntity
  8
0
  6
CONTINUOUS
 62
     7
100
AcDbVertex
100
AcDb2dVertex
 10
8.0446048891
 20
7.6634985184
 30
0.0
  0
VERTEX
  5
445
330
202
100
AcDbEntity
  8
0
  6
CONTINUOUS
 62
     7
100
AcDbVertex
100
AcDb2dVertex
 10
8.055293547
 20
7.6645729951
 30
0.0
  0
VERTEX
  5
446
330
202
100
AcDbEntity
  8
0
  6
CONTINUOUS
 62
     7
100
AcDbVertex
100
AcDb2dVertex
 10
8.0661410569
 20
7.6646929676
 30
0.0
  0
VERTEX
  5
447
330
202
100
AcDbEntity
  8
0
  6
CONTINUOUS
 62
     7
100
AcDbVertex
100
AcDb2dVertex
 10
8.0768931622
 20
7.6638556237
 30
0.0
  0
VERTEX
  5
448
330
202
100
AcDbEntity
  8
0
  6
CONTINUOUS
 62
     7
100
AcDbVertex
100
AcDb2dVertex
 10
8.0872978428
 20
7.6620805902
 30
0.0
  0
VERTEX
  5
449
330
202
100
AcDbEntity
  8
0
  6
CONTINUOUS
 62
     7
100
AcDbVertex
100
AcDb2dVertex
 10
8.0971112217
 20
7.6594094722
 30
0.0
  0
VERTEX
  5
44A
330
202
100
AcDbEntity
  8
0
  6
CONTINUOUS
 62
     7
100
AcDbVertex
100
AcDb2dVertex
 10
8.1061032817
 20
7.6559048786
 30
0.0
  0
VERTEX
  5
44B
330
202
100
AcDbEntity
  8
0
  6
CONTINUOUS
 62
     7
100
AcDbVertex
100
AcDb2dVertex
 10
8.1140632565
 20
7.651648954
 30
0.0
  0
VERTEX
  5
44C
330
202
100
AcDbEntity
  8
0
  6
CONTINUOUS
 62
     7
100
AcDbVertex
100
AcDb2dVertex
 10
8.1208045711
 20
7.6467414537
 30
0.0
  0
VERTEX
  5
44D
330
202
100
AcDbEntity
  8
0
  6
CONTINUOUS
 62
     7
100
AcDbVertex
100
AcDb2dVertex
 10
8.1261692147
 20
7.6412974053
 30
0.0
  0
VERTEX
  5
44E
330
202
100
AcDbEntity
  8
0
  6
CONTINUOUS
 62
     7
100
AcDbVertex
100
AcDb2dVertex
 10
8.1300314447
 20
7.6354444128
 30
0.0
  0
VERTEX
  5
44F
330
202
100
AcDbEntity
  8
0
  6
CONTINUOUS
 62
     7
100
AcDbVertex
100
AcDb2dVertex
 10
8.1323007336
 20
7.6293196654
 30
0.0
  0
VERTEX
  5
450
330
202
100
AcDbEntity
  8
0
  6
CONTINUOUS
 62
     7
100
AcDbVertex
100
AcDb2dVertex
 10
8.1329238913
 20
7.6230667218
 30
0.0
  0
VERTEX
  5
451
330
202
100
AcDbEntity
  8
0
  6
CONTINUOUS
 62
     7
100
AcDbVertex
100
AcDb2dVertex
 10
8.1318863114
 20
7.6168321458
 30
0.0
  0
VERTEX
  5
452
330
202
100
AcDbEntity
  8
0
  6
CONTINUOUS
 62
     7
100
AcDbVertex
100
AcDb2dVertex
 10
8.129212314
 20
7.6107620706
 30
0.0
  0
VERTEX
  5
453
330
202
100
AcDbEntity
  8
0
  6
CONTINUOUS
 62
     7
100
AcDbVertex
100
AcDb2dVertex
 10
8.1256814902
 20
7.6058182263
 30
0.0
  0
SEQEND
  5
454
330
202
100
AcDbEntity
  8
0
  6
CONTINUOUS
 62
     7
  0
ARC
  5
203
330
1F
100
AcDbEntity
  8
0
  6
CONTINUOUS
 62
     7
100
AcDbCircle
 10
8.1061960206
 20
7.6177962429
 30
0.0
 40
0.0338002872570397
100
AcDbArc
 50
330.8811105603
 51
69.9980191398
  0
ENDSEC
  0
SECTION
  2
OBJECTS
  0
DICTIONARY
  5
C
330
0
100
AcDbDictionary
  3
ACAD_GROUP
350
D
  3
ACAD_LAYOUT
350
1A
  3
ACAD_MLEADERSTYLE
350
206
  3
ACAD_MLINESTYLE
350
17
  3
ACAD_PLOTSETTINGS
350
19
  3
ACAD_SCALELIST
350
6F
  3
ACAD_VISUALSTYLE
350
2A
  3
ACDBVARIABLEDICTIONARY
350
204
1001
ACAD
1000
TREAT_AS_HARD
1070
     0
  0
DICTIONARY
  5
D
102
{ACAD_REACTORS
330
C
102
}
330
C
100
AcDbDictionary
1001
ACAD
1000
TREAT_AS_HARD
1070
     0
  0
DICTIONARY
  5
1A
102
{ACAD_REACTORS
330
C
102
}
330
C
100
AcDbDictionary
1001
ACAD
1000
TREAT_AS_HARD
1070
     0
  0
DICTIONARY
  5
206
102
{ACAD_REACTORS
330
C
102
}
330
C
100
AcDbDictionary
1001
ACAD
1000
TREAT_AS_HARD
1070
     0
  0
DICTIONARY
  5
17
102
{ACAD_REACTORS
330
C
102
}
330
C
100
AcDbDictionary
  3
STANDARD
350
18
1001
ACAD
1000
TREAT_AS_HARD
1070
     0
  0
DICTIONARY
  5
19
102
{ACAD_REACTORS
330
C
102
}
330
C
100
AcDbDictionary
1001
ACAD
1000
TREAT_AS_HARD
1070
     0
  0
DICTIONARY
  5
6F
102
{ACAD_REACTORS
330
C
102
}
330
C
100
AcDbDictionary
  3
A0
350
70
  3
A1
350
71
  3
A2
350
72
  3
A3
350
73
  3
A4
350
74
  3
A5
350
75
  3
A6
350
76
  3
A7
350
77
  3
A8
350
78
  3
A9
350
79
  3
B0
350
7A
  3
B1
350
7B
  3
B2
350
7C
  3
B3
350
7D
  3
B4
350
7E
  3
B5
350
7F
  3
B6
350
80
  3
B7
350
81
  3
B8
350
82
  3
B9
350
83
  3
C0
350
84
  3
C1
350
85
  3
C2
350
86
  3
C3
350
87
  3
C4
350
88
  3
C5
350
89
  3
C6
350
8A
  3
C7
350
8B
  3
C8
350
8C
  3
C9
350
8D
  3
D0
350
8E
  3
D1
350
8F
  3
D2
350
90
1001
ACAD
1000
TREAT_AS_HARD
1070
     0
  0
DICTIONARY
  5
2A
102
{ACAD_REACTORS
330
C
102
}
330
C
100
AcDbDictionary
  3
2DWIREFRAME
350
2F
  3
3D_HIDDEN
350
31
  3
3DWIREFRAME
350
30
  3
BASIC
350
32
  3
BRIGHTEN
350
36
  3
COLORCHANGE
350
3A
  3
CONCEPTUAL
350
34
  3
DIM
350
35
  3
FACEPATTERN
350
39
  3
FLAT
350
2B
  3
FLATWITHEDGES
350
2C
  3
GOURAUD
350
2D
  3
GOURAUDWITHEDGES
350
2E
  3
LINEPATTERN
350
38
  3
REALISTIC
350
33
  3
THICKEN
350
37
1001
ACAD
1000
TREAT_AS_HARD
1070
     0
  0
DICTIONARY
  5
204
102
{ACAD_REACTORS
330
C
102
}
330
C
100
AcDbDictionary
  3
CANNOSCALE
350
207
  3
DIMASSOC
350
208
  3
HIDETEXT
350
209
1001
ACAD
1000
TREAT_AS_HARD
1070
     0
  0
MLINESTYLE
  5
18
102
{ACAD_REACTORS
330
17
102
}
330
17
100
AcDbMlineStyle
  2
Standard
 70
     0
  3

 62
   256
 51
90.0
 52
90.0
 71
     2
 49
0.5
 62
   256
  6
BYLAYER
 49
-0.5
 62
   256
  6
BYLAYER
  0
ACAD_PROXY_OBJECT
  5
70
102
{ACAD_REACTORS
330
6F
102
}
330
6F
100
AcDbZombieObject
 90
      499
 91
      502
 93
       41
310
903313A31580
  0
ACAD_PROXY_OBJECT
  5
71
102
{ACAD_REACTORS
330
6F
102
}
330
6F
100
AcDbZombieObject
 90
      499
 91
      502
 93
      105
310
903313A324000000000000004000
  0
ACAD_PROXY_OBJECT
  5
72
102
{ACAD_REACTORS
330
6F
102
}
330
6F
100
AcDbZombieObject
 90
      499
 91
      502
 93
      105
310
903313A344000000000000104000
  0
ACAD_PROXY_OBJECT
  5
73
102
{ACAD_REACTORS
330
6F
102
}
330
6F
100
AcDbZombieObject
 90
      499
 91
      502
 93
      105
310
903313A354000000000000144000
  0
ACAD_PROXY_OBJECT
  5
74
102
{ACAD_REACTORS
330
6F
102
}
330
6F
100
AcDbZombieObject
 90
      499
 91
      502
 93
      105
310
903313A384000000000000204000
  0
ACAD_PROXY_OBJECT
  5
75
102
{ACAD_REACTORS
330
6F
102
}
330
6F
100
AcDbZombieObject
 90
      499
 91
      502
 93
      113
310
904313A31304000000000000244000
  0
ACAD_PROXY_OBJECT
  5
76
102
{ACAD_REACTORS
330
6F
102
}
330
6F
100
AcDbZombieObject
 90
      499
 91
      502
 93
      113
310
904313A31364000000000000304000
  0
ACAD_PROXY_OBJECT
  5
77
102
{ACAD_REACTORS
330
6F
102
}
330
6F
100
AcDbZombieObject
 90
      499
 91
      502
 93
      113
310
904313A32304000000000000344000
  0
ACAD_PROXY_OBJECT
  5
78
102
{ACAD_REACTORS
330
6F
102
}
330
6F
100
AcDbZombieObject
 90
      499
 91
      502
 93
      113
310
904313A333040000000000003E4000
  0
ACAD_PROXY_OBJECT
  5
79
102
{ACAD_REACTORS
330
6F
102
}
330
6F
100
AcDbZombieObject
 90
      499
 91
      502
 93
      113
310
904313A34304000000000000444000
  0
ACAD_PROXY_OBJECT
  5
7A
102
{ACAD_REACTORS
330
6F
102
}
330
6F
100
AcDbZombieObject
 90
      499
 91
      502
 93
      113
310
904313A35304000000000000494000
  0
ACAD_PROXY_OBJECT
  5
7B
102
{ACAD_REACTORS
330
6F
102
}
330
6F
100
AcDbZombieObject
 90
      499
 91
      502
 93
      121
310
905313A3130304000000000000594000
  0
ACAD_PROXY_OBJECT
  5
7C
102
{ACAD_REACTORS
330
6F
102
}
330
6F
100
AcDbZombieObject
 90
      499
 91
      502
 93
      105
310
903323A310000000000000010100
  0
ACAD_PROXY_OBJECT
  5
7D
102
{ACAD_REACTORS
330
6F
102
}
330
6F
100
AcDbZombieObject
 90
      499
 91
      502
 93
      105
310
903343A310000000000000410100
  0
ACAD_PROXY_OBJECT
  5
7E
102
{ACAD_REACTORS
330
6F
102
}
330
6F
100
AcDbZombieObject
 90
      499
 91
      502
 93
      105
310
903383A310000000000000810100
  0
ACAD_PROXY_OBJECT
  5
7F
102
{ACAD_REACTORS
330
6F
102
}
330
6F
100
AcDbZombieObject
 90
      499
 91
      502
 93
      113
310
90431303A310000000000000910100
  0
ACAD_PROXY_OBJECT
  5
80
102
{ACAD_REACTORS
330
6F
102
}
330
6F
100
AcDbZombieObject
 90
      499
 91
      502
 93
      121
310
9053130303A310000000000001650100
  0
ACAD_PROXY_OBJECT
  5
81
102
{ACAD_REACTORS
330
6F
102
}
330
6F
100
AcDbZombieObject
 90
      499
 91
      502
 93
      257
310
90E312F31323822203D2031272D3022000000000000200FC000000000000284000
  0
ACAD_PROXY_OBJECT
  5
82
102
{ACAD_REACTORS
330
6F
102
}
330
6F
100
AcDbZombieObject
 90
      499
 91
      502
 93
      249
310
90D312F363422203D2031272D3022000000000000240FC000000000000284000
  0
ACAD_PROXY_OBJECT
  5
83
102
{ACAD_REACTORS
330
6F
102
}
330
6F
100
AcDbZombieObject
 90
      499
 91
      502
 93
      249
310
90D312F333222203D2031272D3022000000000000280FC000000000000284000
  0
ACAD_PROXY_OBJECT
  5
84
102
{ACAD_REACTORS
330
6F
102
}
330
6F
100
AcDbZombieObject
 90
      499
 91
      502
 93
      249
310
90D312F313622203D2031272D30220000000000002C0FC000000000000284000
  0
ACAD_PROXY_OBJECT
  5
85
102
{ACAD_REACTORS
330
6F
102
}
330
6F
100
AcDbZombieObject
 90
      499
 91
      502
 93
      249
310
90D332F333222203D2031272D30220000000000002E0FC000000000000284000
  0
ACAD_PROXY_OBJECT
  5
86
102
{ACAD_REACTORS
330
6F
102
}
330
6F
100
AcDbZombieObject
 90
      499
 91
      502
 93
      241
310
90C312F3822203D2031272D3022000000000000300FC000000000000284000
  0
ACAD_PROXY_OBJECT
  5
87
102
{ACAD_REACTORS
330
6F
102
}
330
6F
100
AcDbZombieObject
 90
      499
 91
      502
 93
      249
310
90D332F313622203D2031272D3022000000000000320FC000000000000284000
  0
ACAD_PROXY_OBJECT
  5
88
102
{ACAD_REACTORS
330
6F
102
}
330
6F
100
AcDbZombieObject
 90
      499
 91
      502
 93
      241
310
90C312F3422203D2031272D3022000000000000340FC000000000000284000
  0
ACAD_PROXY_OBJECT
  5
89
102
{ACAD_REACTORS
330
6F
102
}
330
6F
100
AcDbZombieObject
 90
      499
 91
      502
 93
      241
310
90C332F3822203D2031272D3022000000000000360FC000000000000284000
  0
ACAD_PROXY_OBJECT
  5
8A
102
{ACAD_REACTORS
330
6F
102
}
330
6F
100
AcDbZombieObject
 90
      499
 91
      502
 93
      241
310
90C312F3222203D2031272D3022000000000000380FC000000000000284000
  0
ACAD_PROXY_OBJECT
  5
8B
102
{ACAD_REACTORS
330
6F
102
}
330
6F
100
AcDbZombieObject
 90
      499
 91
      502
 93
      241
310
90C332F3422203D2031272D30220000000000003A0FC000000000000284000
  0
ACAD_PROXY_OBJECT
  5
8C
102
{ACAD_REACTORS
330
6F
102
}
330
6F
100
AcDbZombieObject
 90
      499
 91
      502
 93
      161
310
90A3122203D2031272D30224000000000000284000
  0
ACAD_PROXY_OBJECT
  5
8D
102
{ACAD_REACTORS
330
6F
102
}
330
6F
100
AcDbZombieObject
 90
      499
 91
      502
 93
      257
310
90E312D312F3222203D2031272D30220000000000003E0FC000000000000284000
  0
ACAD_PROXY_OBJECT
  5
8E
102
{ACAD_REACTORS
330
6F
102
}
330
6F
100
AcDbZombieObject
 90
      499
 91
      502
 93
      225
310
90A3322203D2031272D302200000000000002100000000000000284000
  0
ACAD_PROXY_OBJECT
  5
8F
102
{ACAD_REACTORS
330
6F
102
}
330
6F
100
AcDbZombieObject
 90
      499
 91
      502
 93
      225
310
90A3622203D2031272D302200000000000006100000000000000284000
  0
ACAD_PROXY_OBJECT
  5
90
102
{ACAD_REACTORS
330
6F
102
}
330
6F
100
AcDbZombieObject
 90
      499
 91
      502
 93
      249
310
90D31272D3022203D2031272D30220000000000000A100000000000000284000
  0
ACAD_PROXY_OBJECT
  5
2F
102
{ACAD_REACTORS
330
2A
102
}
330
2A
100
AcDbZombieObject
 90
      499
 91
      501
 93
      436
310
42CC9915DA5C99599C985B595049028333333333333E3BF0000000000000FB0107901411070040501600405405064090741402480A0340
1001
ACAD
1000
AcDbSavedByObjectVersion
1070
     0
  0
ACAD_PROXY_OBJECT
  5
31
102
{ACAD_REACTORS
330
2A
102
}
330
2A
100
AcDbZombieObject
 90
      499
 91
      501
 93
      500
310
424CD108121A5919195B90640502408333333333333E3BF0000000000000FB01079024090700405020000000000001110200405405064090740C02480A0340
1001
ACAD
1000
AcDbSavedByObjectVersion
1070
     0
  0
ACAD_PROXY_OBJECT
  5
30
102
{ACAD_REACTORS
330
2A
102
}
330
2A
100
AcDbZombieObject
 90
      499
 91
      501
 93
      436
310
42CCD915DA5C99599C985B595059028333333333333E3BF0000000000000FB0107901411070040501600405405064090741402480A0340
1001
ACAD
1000
AcDbSavedByObjectVersion
1070
     0
  0
ACAD_PROXY_OBJECT
  5
32
102
{ACAD_REACTORS
330
2A
102
}
330
2A
100
AcDbZombieObject
 90
      499
 91
      501
 93
      388
310
4150985CDA58D07406404333333333333E3BF0000000000000FB0107A41107004050150841D405064090741402480A0350
1001
ACAD
1000
AcDbSavedByObjectVersion
1070
     0
  0
ACAD_PROXY_OBJECT
  5
36
102
{ACAD_REACTORS
330
2A
102
}
330
2A
100
AcDbZombieObject
 90
      499
 91
      501
 93
      428
310
42109C9A59DA1D195B90C409028333333333333E3BF0000000000000FB010790141107004050150841D405064090741402480A029950
1001
ACAD
1000
AcDbSavedByObjectVersion
1070
     0
  0
ACAD_PROXY_OBJECT
  5
3A
102
{ACAD_REACTORS
330
2A
102
}
330
2A
100
AcDbZombieObject
 90
      499
 91
      501
 93
      452
310
42D0DBDB1BDC90DA185B99D95104090240C333333333333E3BF0000000000000FB0108901411070040501508421405064090741402480A0350
1001
ACAD
1000
AcDbSavedByObjectVersion
1070
     0
  0
ACAD_PROXY_OBJECT
  5
34
102
{ACAD_REACTORS
330
2A
102
}
330
2A
100
AcDbZombieObject
 90
      499
 91
      501
 93
      500
310
4290DBDB98D95C1D1D585B10940D028333333333333E3BF0000000000000FB0107902409070040501000000000000111010841D405064090740C02480A0340
1001
ACAD
1000
AcDbSavedByObjectVersion
1070
     0
  0
ACAD_PROXY_OBJECT
  5
35
102
{ACAD_REACTORS
330
2A
102
}
330
2A
100
AcDbZombieObject
 90
      499
 91
      501
 93
      412
310
40D11A5B50B409028333333333333E3BF0000000000000FB010790141107004050150841D405064090741402480A02677FFFFFD0
1001
ACAD
1000
AcDbSavedByObjectVersion
1070
     0
  0
ACAD_PROXY_OBJECT
  5
39
102
{ACAD_REACTORS
330
2A
102
}
330
2A
100
AcDbZombieObject
 90
      499
 91
      501
 93
      444
310
42D19858D95C185D1D195C9B90F409028333333333333E3BF0000000000000FB010790141107004050150841D405064090741402480A0350
1001
ACAD
1000
AcDbSavedByObjectVersion
1070
     0
  0
ACAD_PROXY_OBJECT
  5
2B
102
{ACAD_REACTORS
330
2A
102
}
330
2A
100
AcDbZombieObject
 90
      499
 91
      501
 93
      388
310
41119B185D240901404333333333333E3BF0000000000000F9010740A41107004050150841D405064090741402480A1B50
1001
ACAD
1000
AcDbSavedByObjectVersion
1070
     0
  0
ACAD_PROXY_OBJECT
  5
2C
102
{ACAD_REACTORS
330
2A
102
}
330
2A
100
AcDbZombieObject
 90
      499
 91
      501
 93
      476
310
43519B185D15DA5D1A115919D95CD0140901404333333333333E3BF0000000000000F9010740901411070040501600405405064090741402480A1B50
1001
ACAD
1000
AcDbSavedByObjectVersion
1070
     0
  0
ACAD_PROXY_OBJECT
  5
2D
102
{ACAD_REACTORS
330
2A
102
}
330
2A
100
AcDbZombieObject
 90
      499
 91
      501
 93
      412
310
41D1DBDD5C985D5910240902404333333333333E3BF0000000000000F9010740A411070040501641D405064090741402480A1B50
1001
ACAD
1000
AcDbSavedByObjectVersion
1070
     0
  0
ACAD_PROXY_OBJECT
  5
2E
102
{ACAD_REACTORS
330
2A
102
}
330
2A
100
AcDbZombieObject
 90
      499
 91
      501
 93
      500
310
4411DBDD5C985D5915DA5D1A115919D95CD0340902404333333333333E3BF0000000000000F9010740901411070040501600405405064090741402480A1B50
1001
ACAD
1000
AcDbSavedByObjectVersion
1070
     0
  0
ACAD_PROXY_OBJECT
  5
38
102
{ACAD_REACTORS
330
2A
102
}
330
2A
100
AcDbZombieObject
 90
      499
 91
      501
 93
      444
310
42D31A5B995C185D1D195C9B90E409028333333333333E3BF0000000000000FB010790141107004050750841D405064090741402483A0350
1001
ACAD
1000
AcDbSavedByObjectVersion
1070
     0
  0
ACAD_PROXY_OBJECT
  5
33
102
{ACAD_REACTORS
330
2A
102
}
330
2A
100
AcDbZombieObject
 90
      499
 91
      501
 93
      420
310
425499585B1A5CDD1A58D08409028333333333333E3BF0000000000000FB01079019070040501508421405064090741402480A1B40
1001
ACAD
1000
AcDbSavedByObjectVersion
1070
     0
  0
ACAD_PROXY_OBJECT
  5
37
102
{ACAD_REACTORS
330
2A
102
}
330
2A
100
AcDbZombieObject
 90
      499
 91
      501
 93
      412
310
41D51A1A58DAD95B90D409028333333333333E3BF0000000000000FB010790141107004050150C41D405064090741402480A0350
1001
ACAD
1000
AcDbSavedByObjectVersion
1070
     0
  0
DICTIONARYVAR
  5
207
102
{ACAD_REACTORS
330
204
102
}
330
204
100
DictionaryVariables
280
     0
  1
1:1
  0
DICTIONARYVAR
  5
208
102
{ACAD_REACTORS
330
204
102
}
330
204
100
DictionaryVariables
280
     0
  1
2
  0
DICTIONARYVAR
  5
209
102
{ACAD_REACTORS
330
204
102
}
330
204
100
DictionaryVariables
280
     0
  1
1
  0
ENDSEC
  0
EOF
