  0
SECTION
  2
HEADER
  9
$ACADVER
  1
AC1012
  9
$DWGCODEPAGE
  3
ansi_1252
  9
$INSBASE
 10
0.0
 20
0.0
 30
0.0
  9
$EXTMIN
 10
0.0
 20
0.0
 30
0.0
  9
$EXTMAX
 10
11.0
 20
8.5
 30
0.0
  9
$LIMMIN
 10
0.0
 20
0.0
  9
$LIMMAX
 10
11.0
 20
8.5
  9
$ORTHOMODE
 70
     0
  9
$REGENMODE
 70
     1
  9
$FILLMODE
 70
     1
  9
$QTEXTMODE
 70
     0
  9
$MIRRTEXT
 70
     1
  9
$DRAGMODE
 70
     2
  9
$LTSCALE
 40
1.0
  9
$OSMODE
 70
    37
  9
$ATTMODE
 70
     1
  9
$TEXTSIZE
 40
0.125
  9
$TRACEWID
 40
0.05
  9
$TEXTSTYLE
  7
STANDARD
  9
$CLAYER
  8
0
  9
$CELTYPE
  6
BYLAYER
  9
$CECOLOR
 62
   256
  9
$CELTSCALE
 40
1.0
  9
$DELOBJ
 70
     1
  9
$DISPSILH
 70
     0
  9
$DIMSCALE
 40
1.0
  9
$DIMASZ
 40
0.13
  9
$DIMEXO
 40
0.05
  9
$DIMDLI
 40
0.38
  9
$DIMRND
 40
0.0
  9
$DIMDLE
 40
0.0
  9
$DIMEXE
 40
0.125
  9
$DIMTP
 40
0.0
  9
$DIMTM
 40
0.0
  9
$DIMTXT
 40
0.125
  9
$DIMCEN
 40
0.09
  9
$DIMTSZ
 40
0.0
  9
$DIMTOL
 70
     0
  9
$DIMLIM
 70
     0
  9
$DIMTIH
 70
     1
  9
$DIMTOH
 70
     1
  9
$DIMSE1
 70
     0
  9
$DIMSE2
 70
     0
  9
$DIMTAD
 70
     0
  9
$DIMZIN
 70
     0
  9
$DIMBLK
  1

  9
$DIMASO
 70
     1
  9
$DIMSHO
 70
     1
  9
$DIMPOST
  1

  9
$DIMAPOST
  1

  9
$DIMALT
 70
     0
  9
$DIMALTD
 70
     2
  9
$DIMALTF
 40
25.4
  9
$DIMLFAC
 40
0.5
  9
$DIMTOFL
 70
     0
  9
$DIMTVP
 40
0.0
  9
$DIMTIX
 70
     0
  9
$DIMSOXD
 70
     0
  9
$DIMSAH
 70
     0
  9
$DIMBLK1
  1

  9
$DIMBLK2
  1

  9
$DIMSTYLE
  2
STANDARD
  9
$DIMCLRD
 70
     0
  9
$DIMCLRE
 70
     0
  9
$DIMCLRT
 70
     0
  9
$DIMTFAC
 40
1.0
  9
$DIMGAP
 40
0.06
  9
$DIMJUST
 70
     0
  9
$DIMSD1
 70
     0
  9
$DIMSD2
 70
     0
  9
$DIMTOLJ
 70
     1
  9
$DIMTZIN
 70
     0
  9
$DIMALTZ
 70
     0
  9
$DIMALTTZ
 70
     0
  9
$DIMFIT
 70
     3
  9
$DIMUPT
 70
     0
  9
$DIMUNIT
 70
     2
  9
$DIMDEC
 70
     3
  9
$DIMTDEC
 70
     3
  9
$DIMALTU
 70
     2
  9
$DIMALTTD
 70
     2
  9
$DIMTXSTY
  7
STANDARD
  9
$DIMAUNIT
 70
     0
  9
$LUNITS
 70
     2
  9
$LUPREC
 70
     2
  9
$SKETCHINC
 40
0.1
  9
$FILLETRAD
 40
0.5
  9
$AUNITS
 70
     0
  9
$AUPREC
 70
     2
  9
$MENU
  1
.
  9
$ELEVATION
 40
0.0
  9
$PELEVATION
 40
0.0
  9
$THICKNESS
 40
0.0
  9
$LIMCHECK
 70
     0
  9
$CHAMFERA
 40
0.5
  9
$CHAMFERB
 40
0.5
  9
$CHAMFERC
 40
1.0
  9
$CHAMFERD
 40
0.0
  9
$SKPOLY
 70
     0
  9
$TDCREATE
 40
2455784.026995428
  9
$TDUPDATE
 40
2455784.02699544
  9
$TDINDWG
 40
0.0000000116
  9
$TDUSRTIMER
 40
0.0000000116
  9
$USRTIMER
 70
     1
  9
$ANGBASE
 50
0.0
  9
$ANGDIR
 70
     0
  9
$PDMODE
 70
     0
  9
$PDSIZE
 40
-1.0
  9
$PLINEWID
 40
0.0
  9
$COORDS
 70
     1
  9
$SPLFRAME
 70
     0
  9
$SPLINETYPE
 70
     6
  9
$SPLINESEGS
 70
     8
  9
$ATTDIA
 70
     0
  9
$ATTREQ
 70
     1
  9
$HANDLING
 70
     1
  9
$HANDSEED
  5
45C
  9
$SURFTAB1
 70
     6
  9
$SURFTAB2
 70
     6
  9
$SURFTYPE
 70
     6
  9
$SURFU
 70
     6
  9
$SURFV
 70
     6
  9
$UCSNAME
  2

  9
$UCSORG
 10
0.0
 20
0.0
 30
0.0
  9
$UCSXDIR
 10
1.0
 20
0.0
 30
0.0
  9
$UCSYDIR
 10
0.0
 20
1.0
 30
0.0
  9
$PUCSNAME
  2

  9
$PUCSORG
 10
0.0
 20
0.0
 30
0.0
  9
$PUCSXDIR
 10
1.0
 20
0.0
 30
0.0
  9
$PUCSYDIR
 10
0.0
 20
1.0
 30
0.0
  9
$USERI1
 70
     0
  9
$USERI2
 70
     0
  9
$USERI3
 70
     0
  9
$USERI4
 70
     0
  9
$USERI5
 70
     0
  9
$USERR1
 40
0.0
  9
$USERR2
 40
0.0
  9
$USERR3
 40
0.0
  9
$USERR4
 40
0.0
  9
$USERR5
 40
0.0
  9
$WORLDVIEW
 70
     1
  9
$SHADEDGE
 70
     3
  9
$SHADEDIF
 70
    70
  9
$TILEMODE
 70
     1
  9
$MAXACTVP
 70
    64
  9
$PINSBASE
 10
0.0
 20
0.0
 30
0.0
  9
$PLIMCHECK
 70
     0
  9
$PEXTMIN
 10
1.0000000000E+20
 20
1.0000000000E+20
 30
1.0000000000E+20
  9
$PEXTMAX
 10
-1.0000000000E+20
 20
-1.0000000000E+20
 30
-1.0000000000E+20
  9
$PLIMMIN
 10
0.0
 20
0.0
  9
$PLIMMAX
 10
12.0
 20
9.0
  9
$UNITMODE
 70
     0
  9
$VISRETAIN
 70
     1
  9
$PLINEGEN
 70
     0
  9
$PSLTSCALE
 70
     1
  9
$TREEDEPTH
 70
  3020
  9
$PICKSTYLE
 70
     1
  9
$CMLSTYLE
  2
STANDARD
  9
$CMLJUST
 70
     0
  9
$CMLSCALE
 40
1.0
  9
$SAVEIMAGES
 70
     1
  0
ENDSEC
  0
SECTION
  2
CLASSES
  0
CLASS
  1
ACDBDICTIONARYWDFLT
  2
AcDbDictionaryWithDefault
  3
ObjectDBX Classes
 90
    32768
280
     0
281
     0
  0
CLASS
  1
VISUALSTYLE
  2
AcDbVisualStyle
  3
ObjectDBX Classes
 90
     4095
280
     0
281
     0
  0
CLASS
  1
SCALE
  2
AcDbScale
  3
ObjectDBX Classes
 90
     1153
280
     0
281
     0
  0
CLASS
  1
DICTIONARYVAR
  2
AcDbDictionaryVar
  3
ObjectDBX Classes
 90
        0
280
     0
281
     0
  0
CLASS
  1
XRECORD
  2
AcDbXrecord
  3
AutoCAD 2000
 90
    32768
280
     0
281
     0
  0
CLASS
  1
LWPOLYLINE
  2
AcDbPolyline
  3
AutoCAD 2000
 90
    32768
280
     0
281
     1
  0
CLASS
  1
HATCH
  2
AcDbHatch
  3
AutoCAD 2000
 90
    32768
280
     0
281
     1
  0
CLASS
  1
ACDBPLACEHOLDER
  2
AcDbPlaceHolder
  3
ObjectDBX Classes
 90
        0
280
     0
281
     0
  0
CLASS
  1
LAYOUT
  2
AcDbLayout
  3
ObjectDBX Classes
 90
        0
280
     0
281
     0
  0
ENDSEC
  0
SECTION
  2
TABLES
  0
TABLE
  2
VPORT
  5
8
330
0
100
AcDbSymbolTable
 70
     1
  0
VPORT
  5
29
330
8
100
AcDbSymbolTableRecord
100
AcDbViewportTableRecord
  2
*ACTIVE
 70
     0
 10
0.0
 20
0.0
 11
1.0
 21
1.0
 12
5.5
 22
4.25
 13
0.0
 23
0.0
 14
0.5
 24
0.5
 15
0.5
 25
0.5
 16
0.0
 26
0.0
 36
1.0
 17
0.0
 27
0.0
 37
0.0
 40
8.5
 41
1.2941176471
 42
50.0
 43
0.0
 44
0.0
 50
0.0
 51
0.0
 71
     0
 72
  2000
 73
     1
 74
     3
 75
     0
 76
     0
 77
     0
 78
     0
  0
ENDTAB
  0
TABLE
  2
LTYPE
  5
5
330
0
100
AcDbSymbolTable
 70
     6
  0
LTYPE
  5
14
330
5
100
AcDbSymbolTableRecord
100
AcDbLinetypeTableRecord
  2
BYBLOCK
 70
     0
  3

 72
    65
 73
     0
 40
0.0
  0
LTYPE
  5
15
330
5
100
AcDbSymbolTableRecord
100
AcDbLinetypeTableRecord
  2
BYLAYER
 70
     0
  3

 72
    65
 73
     0
 40
0.0
  0
LTYPE
  5
16
330
5
100
AcDbSymbolTableRecord
100
AcDbLinetypeTableRecord
  2
CONTINUOUS
 70
     0
  3
Solid line
 72
    65
 73
     0
 40
0.0
  0
LTYPE
  5
3B
330
5
100
AcDbSymbolTableRecord
100
AcDbLinetypeTableRecord
  2
HIDDEN
 70
     0
  3
Hidden __ __ __ __ __ __ __ __ __ __ __ __ __ __
 72
    65
 73
     2
 40
0.075
 49
0.05
 74
     0
 49
-0.025
 74
     0
  0
LTYPE
  5
3C
330
5
100
AcDbSymbolTableRecord
100
AcDbLinetypeTableRecord
  2
PHANTOM
 70
     0
  3
Phantom ______  __  __  ______  __  __  ______
 72
    65
 73
     6
 40
0.5
 49
0.25
 74
     0
 49
-0.05
 74
     0
 49
0.05
 74
     0
 49
-0.05
 74
     0
 49
0.05
 74
     0
 49
-0.05
 74
     0
  0
LTYPE
  5
3D
330
5
100
AcDbSymbolTableRecord
100
AcDbLinetypeTableRecord
  2
CENTER
 70
     0
  3
Center ____ _ ____ _ ____ _ ____ _ ____ _ ____
 72
    65
 73
     4
 40
0.4
 49
0.25
 74
     0
 49
-0.05
 74
     0
 49
0.05
 74
     0
 49
-0.05
 74
     0
  0
LTYPE
  5
3E
330
5
100
AcDbSymbolTableRecord
100
AcDbLinetypeTableRecord
  2
CENTERX2
 70
     0
  3
Center (2x) ________  __  ________  __  _____
 72
    65
 73
     4
 40
0.8
 49
0.5
 74
     0
 49
-0.1
 74
     0
 49
0.1
 74
     0
 49
-0.1
 74
     0
  0
LTYPE
  5
3F
330
5
100
AcDbSymbolTableRecord
100
AcDbLinetypeTableRecord
  2
DOT2
 70
     0
  3
Dot (.5x) ........................................
 72
    65
 73
     2
 40
0.025
 49
0.0
 74
     0
 49
-0.025
 74
     0
  0
ENDTAB
  0
TABLE
  2
LAYER
  5
2
330
0
100
AcDbSymbolTable
 70
     2
  0
LAYER
  5
10
330
2
100
AcDbSymbolTableRecord
100
AcDbLayerTableRecord
  2
0
 70
     0
 62
     7
  6
CONTINUOUS
  0
LAYER
  5
40
330
2
100
AcDbSymbolTableRecord
100
AcDbLayerTableRecord
  2
FORMAT
 70
     0
 62
     7
  6
CONTINUOUS
  0
ENDTAB
  0
TABLE
  2
STYLE
  5
3
330
0
100
AcDbSymbolTable
 70
     4
  0
STYLE
  5
11
330
3
100
AcDbSymbolTableRecord
100
AcDbTextStyleTableRecord
  2
STANDARD
 70
     0
 40
0.0
 41
1.0
 50
0.0
 71
     0
 42
0.2
  3
txt
  4

  0
STYLE
  5
6E
330
3
100
AcDbSymbolTableRecord
100
AcDbTextStyleTableRecord
  2
SLDTEXTSTYLE0
 70
     0
 40
0.0
 41
0.75
 50
0.0
 71
     0
 42
0.2
  3
TXT
  4

  0
STYLE
  5
93
330
3
100
AcDbSymbolTableRecord
100
AcDbTextStyleTableRecord
  2
SLDTEXTSTYLE1
 70
     0
 40
0.0
 41
0.6875
 50
0.0
 71
     0
 42
0.2
  3
TXT
  4

  0
STYLE
  5
99
330
3
100
AcDbSymbolTableRecord
100
AcDbTextStyleTableRecord
  2
SLDTEXTSTYLE2
 70
     0
 40
0.0
 41
0.6944444444
 50
0.0
 71
     0
 42
0.2
  3
TXT
  4

  0
ENDTAB
  0
TABLE
  2
VIEW
  5
6
330
0
100
AcDbSymbolTable
 70
     0
  0
ENDTAB
  0
TABLE
  2
UCS
  5
7
330
0
100
AcDbSymbolTable
 70
     0
  0
ENDTAB
  0
TABLE
  2
APPID
  5
9
330
0
100
AcDbSymbolTable
 70
     1
  0
APPID
  5
12
330
9
100
AcDbSymbolTableRecord
100
AcDbRegAppTableRecord
  2
ACAD
 70
     0
  0
ENDTAB
  0
TABLE
  2
DIMSTYLE
  5
A
330
0
100
AcDbSymbolTable
 70
     1
  0
DIMSTYLE
105
27
330
A
100
AcDbSymbolTableRecord
100
AcDbDimStyleTableRecord
  2
STANDARD
 70
     0
  3

  4

  5

  6

  7

 40
1.0
 41
0.18
 42
0.0625
 43
0.38
 44
0.18
 45
0.0
 46
0.0
 47
0.0
 48
0.0
140
0.18
141
0.09
142
0.0
143
25.4
144
1.0
145
0.0
146
1.0
147
0.09
 71
     0
 72
     0
 73
     1
 74
     1
 75
     0
 76
     0
 77
     0
 78
     0
170
     0
171
     2
172
     0
173
     0
174
     0
175
     0
176
     0
177
     0
178
     0
270
     2
271
     4
272
     4
273
     2
274
     2
340
11
275
     0
280
     0
281
     0
282
     0
283
     1
284
     0
285
     0
286
     0
287
     3
288
     0
  0
ENDTAB
  0
TABLE
  2
BLOCK_RECORD
  5
1
330
0
100
AcDbSymbolTable
 70
     4
  0
BLOCK_RECORD
  5
1F
330
1
100
AcDbSymbolTableRecord
100
AcDbBlockTableRecord
  2
*MODEL_SPACE
  0
BLOCK_RECORD
  5
1B
330
1
100
AcDbSymbolTableRecord
100
AcDbBlockTableRecord
  2
*PAPER_SPACE
  0
BLOCK_RECORD
  5
A8
330
1
100
AcDbSymbolTableRecord
100
AcDbBlockTableRecord
  2
SW_NOTE_0
  0
BLOCK_RECORD
  5
AE
330
1
100
AcDbSymbolTableRecord
100
AcDbBlockTableRecord
  2
SW_NOTE_1
  0
BLOCK_RECORD
  5
C2
330
1
100
AcDbSymbolTableRecord
100
AcDbBlockTableRecord
  2
SW_NOTE_2
  0
ENDTAB
  0
ENDSEC
  0
SECTION
  2
BLOCKS
  0
BLOCK
  5
20
330
1F
100
AcDbEntity
  8
0
100
AcDbBlockBegin
  2
*MODEL_SPACE
 70
     0
 10
0.0
 20
0.0
 30
0.0
  3
*MODEL_SPACE
  1

  0
ENDBLK
  5
21
330
1F
100
AcDbEntity
  8
0
100
AcDbBlockEnd
  0
BLOCK
  5
1C
330
1B
100
AcDbEntity
 67
     1
  8
0
100
AcDbBlockBegin
  2
*PAPER_SPACE
 70
     0
 10
0.0
 20
0.0
 30
0.0
  3
*PAPER_SPACE
  1

  0
ENDBLK
  5
1D
330
1B
100
AcDbEntity
 67
     1
  8
0
100
AcDbBlockEnd
  0
BLOCK
  5
A9
330
A8
100
AcDbEntity
  8
0
100
AcDbBlockBegin
  2
SW_NOTE_0
 70
     0
 10
0.0
 20
0.0
 30
0.0
  3
SW_NOTE_0
  1

  0
MTEXT
  5
AB
330
A8
100
AcDbEntity
  8
0
  6
CONTINUOUS
 62
     0
100
AcDbMText
 10
0.0
 20
0.0773440644
 30
0.0
 40
0.06
 41
0.0
 71
     1
 72
     1
  1
INTERPRET GEOMETRIC
  7
SLDTEXTSTYLE0
  0
MTEXT
  5
AC
330
A8
100
AcDbEntity
  8
0
  6
CONTINUOUS
 62
     0
100
AcDbMText
 10
0.0
 20
-0.0220260102
 30
0.0
 40
0.06
 41
0.0
 71
     1
 72
     1
  1
TOLERANCING PER:
  7
SLDTEXTSTYLE0
  0
ENDBLK
  5
AA
330
A8
100
AcDbEntity
  8
0
100
AcDbBlockEnd
  0
BLOCK
  5
AF
330
AE
100
AcDbEntity
  8
0
100
AcDbBlockBegin
  2
SW_NOTE_1
 70
     0
 10
0.0
 20
0.0
 30
0.0
  3
SW_NOTE_1
  1

  0
MTEXT
  5
B1
330
AE
100
AcDbEntity
  8
0
  6
CONTINUOUS
 62
     0
100
AcDbMText
 10
0.0
 20
0.0837894031
 30
0.0
 40
0.065
 41
0.0
 71
     1
 72
     1
  1
DIMENSIONS ARE IN INCHES
  7
SLDTEXTSTYLE0
  0
MTEXT
  5
B2
330
AE
100
AcDbEntity
  8
0
  6
CONTINUOUS
 62
     0
100
AcDbMText
 10
0.0
 20
-0.0205806729
 30
0.0
 40
0.065
 41
0.0
 71
     1
 72
     1
  1
TOLERANCES:
  7
SLDTEXTSTYLE0
  0
MTEXT
  5
B3
330
AE
100
AcDbEntity
  8
0
  6
CONTINUOUS
 62
     0
100
AcDbMText
 10
0.0
 20
-0.1249507489
 30
0.0
 40
0.065
 41
0.0
 71
     1
 72
     1
  1
FRACTIONAL
  7
SLDTEXTSTYLE0
  0
MTEXT
  5
B4
330
AE
100
AcDbEntity
  8
0
  6
CONTINUOUS
 62
     0
100
AcDbMText
 10
0.5175850875
 20
-0.1249507489
 30
0.0
 40
0.065
 41
0.0
 71
     1
 72
     1
  1
%%p
  7
SLDTEXTSTYLE0
  0
MTEXT
  5
B5
330
AE
100
AcDbEntity
  8
0
  6
CONTINUOUS
 62
     0
100
AcDbMText
 10
0.0
 20
-0.2293208248
 30
0.0
 40
0.065
 41
0.0
 71
     1
 72
     1
  1
ANGULAR: MACH
  7
SLDTEXTSTYLE0
  0
MTEXT
  5
B6
330
AE
100
AcDbEntity
  8
0
  6
CONTINUOUS
 62
     0
100
AcDbMText
 10
0.7233732769
 20
-0.2293208248
 30
0.0
 40
0.065
 41
0.0
 71
     1
 72
     1
  1
%%p
  7
SLDTEXTSTYLE0
  0
MTEXT
  5
B7
330
AE
100
AcDbEntity
  8
0
  6
CONTINUOUS
 62
     0
100
AcDbMText
 10
0.7852857683
 20
-0.2293208248
 30
0.0
 40
0.065
 41
0.0
 71
     1
 72
     1
  1
     BEND 
  7
SLDTEXTSTYLE0
  0
MTEXT
  5
B8
330
AE
100
AcDbEntity
  8
0
  6
CONTINUOUS
 62
     0
100
AcDbMText
 10
1.14784136
 20
-0.2293208248
 30
0.0
 40
0.065
 41
0.0
 71
     1
 72
     1
  1
%%p
  7
SLDTEXTSTYLE0
  0
MTEXT
  5
B9
330
AE
100
AcDbEntity
  8
0
  6
CONTINUOUS
 62
     0
100
AcDbMText
 10
0.0
 20
-0.3336909008
 30
0.0
 40
0.065
 41
0.0
 71
     1
 72
     1
  1
TWO PLACE DECIMAL    
  7
SLDTEXTSTYLE0
  0
MTEXT
  5
BA
330
AE
100
AcDbEntity
  8
0
  6
CONTINUOUS
 62
     0
100
AcDbMText
 10
0.9794349188
 20
-0.3336909008
 30
0.0
 40
0.065
 41
0.0
 71
     1
 72
     1
  1
%%p
  7
SLDTEXTSTYLE0
  0
MTEXT
  5
BB
330
AE
100
AcDbEntity
  8
0
  6
CONTINUOUS
 62
     0
100
AcDbMText
 10
0.0
 20
-0.4380609768
 30
0.0
 40
0.065
 41
0.0
 71
     1
 72
     1
  1
THREE PLACE DECIMAL  
  7
SLDTEXTSTYLE0
  0
MTEXT
  5
BC
330
AE
100
AcDbEntity
  8
0
  6
CONTINUOUS
 62
     0
100
AcDbMText
 10
0.9738038639
 20
-0.4380609768
 30
0.0
 40
0.065
 41
0.0
 71
     1
 72
     1
  1
%%p
  7
SLDTEXTSTYLE0
  0
ENDBLK
  5
B0
330
AE
100
AcDbEntity
  8
0
100
AcDbBlockEnd
  0
BLOCK
  5
C3
330
C2
100
AcDbEntity
  8
0
100
AcDbBlockBegin
  2
SW_NOTE_2
 70
     0
 10
0.0
 20
0.0
 30
0.0
  3
SW_NOTE_2
  1

  0
MTEXT
  5
C5
330
C2
100
AcDbEntity
  8
0
  6
CONTINUOUS
 62
     0
100
AcDbMText
 10
0.0
 20
0.0773440644
 30
0.0
 40
0.06
 41
0.0
 71
     1
 72
     1
  1
THE INFORMATION CONTAINED IN THIS
  7
SLDTEXTSTYLE0
  0
MTEXT
  5
C6
330
C2
100
AcDbEntity
  8
0
  6
CONTINUOUS
 62
     0
100
AcDbMText
 10
0.0
 20
-0.0220260102
 30
0.0
 40
0.06
 41
0.0
 71
     1
 72
     1
  1
DRAWING IS THE SOLE PROPERTY OF
  7
SLDTEXTSTYLE0
  0
MTEXT
  5
C7
330
C2
100
AcDbEntity
  8
0
  6
CONTINUOUS
 62
     0
100
AcDbMText
 10
0.0
 20
-0.1213960848
 30
0.0
 40
0.06
 41
0.0
 71
     1
 72
     1
  1
Candy Controls.  ANY 
  7
SLDTEXTSTYLE0
  0
MTEXT
  5
C8
330
C2
100
AcDbEntity
  8
0
  6
CONTINUOUS
 62
     0
100
AcDbMText
 10
0.0
 20
-0.2207661593
 30
0.0
 40
0.06
 41
0.0
 71
     1
 72
     1
  1
REPRODUCTION IN PART OR AS A WHOLE
  7
SLDTEXTSTYLE0
  0
MTEXT
  5
C9
330
C2
100
AcDbEntity
  8
0
  6
CONTINUOUS
 62
     0
100
AcDbMText
 10
0.0
 20
-0.3201362339
 30
0.0
 40
0.06
 41
0.0
 71
     1
 72
     1
  1
WITHOUT THE WRITTEN PERMISSION OF
  7
SLDTEXTSTYLE0
  0
MTEXT
  5
CA
330
C2
100
AcDbEntity
  8
0
  6
CONTINUOUS
 62
     0
100
AcDbMText
 10
0.0
 20
-0.4195063085
 30
0.0
 40
0.06
 41
0.0
 71
     1
 72
     1
  1
Candy Controls IS 
  7
SLDTEXTSTYLE0
  0
MTEXT
  5
CB
330
C2
100
AcDbEntity
  8
0
  6
CONTINUOUS
 62
     0
100
AcDbMText
 10
0.0
 20
-0.518876383
 30
0.0
 40
0.06
 41
0.0
 71
     1
 72
     1
  1
PROHIBITED.
  7
SLDTEXTSTYLE0
  0
ENDBLK
  5
C4
330
C2
100
AcDbEntity
  8
0
100
AcDbBlockEnd
  0
ENDSEC
  0
SECTION
  2
ENTITIES
  0
LINE
  5
41
330
1F
100
AcDbEntity
  8
0
  6
CONTINUOUS
 62
     7
100
AcDbLine
 10
0.329927
 20
8.1920731707
 30
0.0
 11
10.629927
 21
8.1920731707
 31
0.0
  0
LINE
  5
42
330
1F
100
AcDbEntity
  8
0
  6
CONTINUOUS
 62
     7
100
AcDbLine
 10
0.329927
 20
8.1920731707
 30
0.0
 11
0.329927
 21
0.3920731707
 31
0.0
  0
LINE
  5
43
330
1F
100
AcDbEntity
  8
0
  6
CONTINUOUS
 62
     7
100
AcDbLine
 10
10.629927
 20
0.3920731707
 30
0.0
 11
0.329927
 21
0.3920731707
 31
0.0
  0
LINE
  5
44
330
1F
100
AcDbEntity
  8
0
  6
CONTINUOUS
 62
     7
100
AcDbLine
 10
10.629927
 20
0.3920731707
 30
0.0
 11
10.629927
 21
8.1920731707
 31
0.0
  0
LINE
  5
45
330
1F
100
AcDbEntity
  8
0
  6
CONTINUOUS
 62
     7
100
AcDbLine
 10
4.7981841288
 20
0.3920731707
 30
0.0
 11
4.7981841288
 21
2.3564211366
 31
0.0
  0
LINE
  5
46
330
1F
100
AcDbEntity
  8
0
  6
CONTINUOUS
 62
     7
100
AcDbLine
 10
2.8210345579
 20
2.3564211366
 30
0.0
 11
10.629927
 21
2.3564211366
 31
0.0
  0
LINE
  5
47
330
1F
100
AcDbEntity
  8
0
  6
CONTINUOUS
 62
     7
100
AcDbLine
 10
6.1796352514
 20
2.3564211366
 30
0.0
 11
6.1796352514
 21
0.3920731707
 31
0.0
  0
LINE
  5
48
330
1F
100
AcDbEntity
  8
0
  6
CONTINUOUS
 62
     7
100
AcDbLine
 10
7.8712070044
 20
2.3564211366
 30
0.0
 11
7.8712070044
 21
0.3920731707
 31
0.0
  0
LINE
  5
49
330
1F
100
AcDbEntity
  8
0
  6
CONTINUOUS
 62
     7
100
AcDbLine
 10
7.8712070044
 20
0.6049590101
 30
0.0
 11
10.629927
 21
0.6049590101
 31
0.0
  0
LINE
  5
4A
330
1F
100
AcDbEntity
  8
0
  6
CONTINUOUS
 62
     7
100
AcDbLine
 10
7.8712070044
 20
1.1119362457
 30
0.0
 11
10.629927
 21
1.1119362457
 31
0.0
  0
LINE
  5
4B
330
1F
100
AcDbEntity
  8
0
  6
CONTINUOUS
 62
     7
100
AcDbLine
 10
7.8712070044
 20
1.9892703708
 30
0.0
 11
10.629927
 21
1.9892703708
 31
0.0
  0
LINE
  5
4C
330
1F
100
AcDbEntity
  8
0
  6
CONTINUOUS
 62
     7
100
AcDbLine
 10
8.266751752
 20
1.1119362457
 30
0.0
 11
8.266751752
 21
0.6049590101
 31
0.0
  0
LINE
  5
4D
330
1F
100
AcDbEntity
  8
0
  6
CONTINUOUS
 62
     7
100
AcDbLine
 10
8.6943435176
 20
0.6049590101
 30
0.0
 11
8.6943435176
 21
0.3920731707
 31
0.0
  0
LINE
  5
4E
330
1F
100
AcDbEntity
  8
0
  6
CONTINUOUS
 62
     7
100
AcDbLine
 10
10.0579917045
 20
1.1119362457
 30
0.0
 11
10.0579917045
 21
0.6049590101
 31
0.0
  0
LINE
  5
4F
330
1F
100
AcDbEntity
  8
0
  6
CONTINUOUS
 62
     7
100
AcDbLine
 10
9.6662556631
 20
0.6049590101
 30
0.0
 11
9.6662556631
 21
0.3920731707
 31
0.0
  0
LINE
  5
50
330
1F
100
AcDbEntity
  8
0
  6
CONTINUOUS
 62
     7
100
AcDbLine
 10
2.8210345579
 20
0.5883479999
 30
0.0
 11
6.1796352514
 21
0.5883479999
 31
0.0
  0
LINE
  5
51
330
1F
100
AcDbEntity
  8
0
  6
CONTINUOUS
 62
     7
100
AcDbLine
 10
6.1796352514
 20
1.7939211366
 30
0.0
 11
7.8712070044
 21
1.7939211366
 31
0.0
  0
LINE
  5
52
330
1F
100
AcDbEntity
  8
0
  6
CONTINUOUS
 62
     7
100
AcDbLine
 10
6.1796352514
 20
1.9814211366
 30
0.0
 11
7.8712070044
 21
1.9814211366
 31
0.0
  0
LINE
  5
53
330
1F
100
AcDbEntity
  8
0
  6
CONTINUOUS
 62
     7
100
AcDbLine
 10
6.1796352514
 20
2.1689211366
 30
0.0
 11
7.8712070044
 21
2.1689211366
 31
0.0
  0
LINE
  5
54
330
1F
100
AcDbEntity
  8
0
  6
CONTINUOUS
 62
     7
100
AcDbLine
 10
7.8712070044
 20
1.2314211366
 30
0.0
 11
6.1796352514
 21
1.2314211366
 31
0.0
  0
LINE
  5
55
330
1F
100
AcDbEntity
  8
0
  6
CONTINUOUS
 62
     7
100
AcDbLine
 10
7.3921580388
 20
2.3564211366
 30
0.0
 11
7.3921580388
 21
1.2314211366
 31
0.0
  0
LINE
  5
56
330
1F
100
AcDbEntity
  8
0
  6
CONTINUOUS
 62
     7
100
AcDbLine
 10
6.9236308342
 20
2.3564211366
 30
0.0
 11
6.9236308342
 21
1.2314211366
 31
0.0
  0
LINE
  5
57
330
1F
100
AcDbEntity
  8
0
  6
CONTINUOUS
 62
     7
100
AcDbLine
 10
4.7981841288
 20
0.8557965305
 30
0.0
 11
6.1796352514
 21
0.8557965305
 31
0.0
  0
LINE
  5
58
330
1F
100
AcDbEntity
  8
0
  6
CONTINUOUS
 62
     7
100
AcDbLine
 10
4.7981841288
 20
1.1257965305
 30
0.0
 11
6.1796352514
 21
1.1257965305
 31
0.0
  0
LINE
  5
59
330
1F
100
AcDbEntity
  8
0
  6
CONTINUOUS
 62
     7
100
AcDbLine
 10
2.8210345579
 20
0.3920731707
 30
0.0
 11
2.8210345579
 21
2.3564211366
 31
0.0
  0
LINE
  5
5A
330
1F
100
AcDbEntity
  8
0
  6
CONTINUOUS
 62
     7
100
AcDbLine
 10
2.8210345579
 20
1.1064211366
 30
0.0
 11
4.7981841288
 21
1.1064211366
 31
0.0
  0
LINE
  5
5B
330
1F
100
AcDbEntity
  8
0
  6
CONTINUOUS
 62
     7
100
AcDbLine
 10
2.8210345579
 20
1.3564211366
 30
0.0
 11
4.7981841288
 21
1.3564211366
 31
0.0
  0
LINE
  5
5C
330
1F
100
AcDbEntity
  8
0
  6
CONTINUOUS
 62
     7
100
AcDbLine
 10
2.8210345579
 20
1.6064211366
 30
0.0
 11
4.7981841288
 21
1.6064211366
 31
0.0
  0
LINE
  5
5D
330
1F
100
AcDbEntity
  8
0
  6
CONTINUOUS
 62
     7
100
AcDbLine
 10
2.8210345579
 20
1.8564211366
 30
0.0
 11
4.7981841288
 21
1.8564211366
 31
0.0
  0
LINE
  5
5E
330
1F
100
AcDbEntity
  8
0
  6
CONTINUOUS
 62
     7
100
AcDbLine
 10
3.8190146875
 20
2.3564211366
 30
0.0
 11
3.8190146875
 21
0.5883479999
 31
0.0
  0
LINE
  5
5F
330
1F
100
AcDbEntity
  8
0
  6
CONTINUOUS
 62
     7
100
AcDbLine
 10
6.1796352514
 20
2.2020813496
 30
0.0
 11
4.7981841288
 21
2.2020813496
 31
0.0
  0
LINE
  5
60
330
1F
100
AcDbEntity
  8
0
  6
CONTINUOUS
 62
     7
100
AcDbLine
 10
7.8712070044
 20
1.6064211366
 30
0.0
 11
6.1796352514
 21
1.6064211366
 31
0.0
  0
LINE
  5
61
330
1F
100
AcDbEntity
  8
0
  6
CONTINUOUS
 62
     7
100
AcDbLine
 10
7.8712070044
 20
1.4189211366
 30
0.0
 11
6.1796352514
 21
1.4189211366
 31
0.0
  0
LINE
  5
62
330
1F
100
AcDbEntity
  8
0
  6
CONTINUOUS
 62
     7
100
AcDbLine
 10
2.8210345579
 20
2.1064211366
 30
0.0
 11
4.7981841288
 21
2.1064211366
 31
0.0
  0
LINE
  5
63
330
1F
100
AcDbEntity
  8
0
  6
CONTINUOUS
 62
     7
100
AcDbLine
 10
4.7981841288
 20
1.3957965305
 30
0.0
 11
6.1796352514
 21
1.3957965305
 31
0.0
  0
LINE
  5
64
330
1F
100
AcDbEntity
  8
0
  6
CONTINUOUS
 62
     7
100
AcDbLine
 10
2.8210345579
 20
0.8564211366
 30
0.0
 11
4.7981841288
 21
0.8564211366
 31
0.0
  0
LINE
  5
65
330
1F
100
AcDbEntity
  8
0
  6
CONTINUOUS
 62
     7
100
AcDbLine
 10
1.1838252943
 20
0.3920731707
 30
0.0
 11
1.1838252943
 21
1.3064211366
 31
0.0
  0
LINE
  5
66
330
1F
100
AcDbEntity
  8
0
  6
CONTINUOUS
 62
     7
100
AcDbLine
 10
2.8210345579
 20
1.3064211366
 30
0.0
 11
1.1838252943
 21
1.3064211366
 31
0.0
  0
LINE
  5
67
330
1F
100
AcDbEntity
  8
0
  6
CONTINUOUS
 62
     7
100
AcDbLine
 10
8.660927
 20
0.3920731707
 30
0.0
 11
8.660927
 21
0.3072739649
 31
0.0
  0
LINE
  5
68
330
1F
100
AcDbEntity
  8
0
  6
CONTINUOUS
 62
     7
100
AcDbLine
 10
6.692177
 20
0.3920731707
 30
0.0
 11
6.692177
 21
0.3072739649
 31
0.0
  0
LINE
  5
69
330
1F
100
AcDbEntity
  8
0
  6
CONTINUOUS
 62
     7
100
AcDbLine
 10
4.723427
 20
0.3920731707
 30
0.0
 11
4.723427
 21
0.3072739649
 31
0.0
  0
LINE
  5
6A
330
1F
100
AcDbEntity
  8
0
  6
CONTINUOUS
 62
     7
100
AcDbLine
 10
2.754677
 20
0.3920731707
 30
0.0
 11
2.754677
 21
0.3072739649
 31
0.0
  0
LINE
  5
6B
330
1F
100
AcDbEntity
  8
0
  6
CONTINUOUS
 62
     7
100
AcDbLine
 10
2.754677
 20
0.3920731707
 30
0.0
 11
2.7672319738
 21
0.3575
 31
0.0
  0
LINE
  5
6C
330
1F
100
AcDbEntity
  8
0
  6
CONTINUOUS
 62
     7
100
AcDbLine
 10
2.7672319738
 20
0.3575
 30
0.0
 11
2.7414258825
 21
0.3575
 31
0.0
  0
LINE
  5
6D
330
1F
100
AcDbEntity
  8
0
  6
CONTINUOUS
 62
     7
100
AcDbLine
 10
2.7414258825
 20
0.3575
 30
0.0
 11
2.754677
 21
0.3920731707
 31
0.0
  0
MTEXT
  5
91
330
1F
100
AcDbEntity
  8
0
  6
CONTINUOUS
 62
     7
100
AcDbMText
 10
4.9775846961
 20
0.5178452352
 30
0.0
 40
0.0625
 41
0.0
 71
     1
 72
     1
  1
DO NOT SCALE DRAWING
  7
SLDTEXTSTYLE0
  0
MTEXT
  5
92
330
1F
100
AcDbEntity
  8
0
  6
CONTINUOUS
 62
     7
100
AcDbMText
 10
8.9028613842
 20
0.9417064595
 30
0.0
 40
0.125
 41
0.0
 71
     1
 72
     1
  1
CL7-25
  7
SLDTEXTSTYLE0
  0
MTEXT
  5
94
330
1F
100
AcDbEntity
  8
0
  6
CONTINUOUS
 62
     7
100
AcDbMText
 10
9.7571278483
 20
0.5524239532
 30
0.0
 40
0.1
 41
0.0
 71
     1
 72
     1
  1
SHEET 1 OF 1
  7
SLDTEXTSTYLE1
  0
MTEXT
  5
95
330
1F
100
AcDbEntity
  8
0
  6
CONTINUOUS
 62
     7
100
AcDbMText
 10
4.8448077858
 20
2.3132954224
 30
0.0
 40
0.07
 41
0.0
 71
     1
 72
     1
  1
UNLESS OTHERWISE SPECIFIED:
  7
SLDTEXTSTYLE0
  0
MTEXT
  5
96
330
1F
100
AcDbEntity
  8
0
  6
CONTINUOUS
 62
     7
100
AcDbMText
 10
7.9586139647
 20
0.5520987879
 30
0.0
 40
0.1
 41
0.0
 71
     1
 72
     1
  1
SCALE: 2:1
  7
SLDTEXTSTYLE0
  0
MTEXT
  5
97
330
1F
100
AcDbEntity
  8
0
  6
CONTINUOUS
 62
     7
100
AcDbMText
 10
8.7023691647
 20
0.5486763345
 30
0.0
 40
0.1
 41
0.0
 71
     1
 72
     1
  1
WEIGHT: 
  7
SLDTEXTSTYLE0
  0
MTEXT
  5
98
330
1F
100
AcDbEntity
  8
0
  6
CONTINUOUS
 62
     7
100
AcDbMText
 10
10.2277580983
 20
1.081966299
 30
0.0
 40
0.1
 41
0.0
 71
     1
 72
     1
  1
REV
  7
SLDTEXTSTYLE0
  0
MTEXT
  5
9A
330
1F
100
AcDbEntity
  8
0
  6
CONTINUOUS
 62
     7
100
AcDbMText
 10
8.2984570898
 20
1.0858725293
 30
0.0
 40
0.1
 41
0.0
 71
     1
 72
     1
  1
DWG.  NO.
  7
SLDTEXTSTYLE2
  0
MTEXT
  5
9B
330
1F
100
AcDbEntity
  8
0
  6
CONTINUOUS
 62
     7
100
AcDbMText
 10
7.9598482632
 20
0.9442140768
 30
0.0
 40
0.25
 41
0.0
 71
     1
 72
     1
  1
A
  7
SLDTEXTSTYLE0
  0
MTEXT
  5
9C
330
1F
100
AcDbEntity
  8
0
  6
CONTINUOUS
 62
     7
100
AcDbMText
 10
7.9519581822
 20
1.0872713483
 30
0.0
 40
0.1
 41
0.0
 71
     1
 72
     1
  1
SIZE
  7
SLDTEXTSTYLE0
  0
MTEXT
  5
9D
330
1F
100
AcDbEntity
  8
0
  6
CONTINUOUS
 62
     7
100
AcDbMText
 10
7.9170704177
 20
1.9547881128
 30
0.0
 40
0.1
 41
0.0
 71
     1
 72
     1
  1
TITLE:
  7
SLDTEXTSTYLE0
  0
MTEXT
  5
9E
330
1F
100
AcDbEntity
  8
0
  6
CONTINUOUS
 62
     7
100
AcDbMText
 10
7.0363774929
 20
2.2906161274
 30
0.0
 40
0.065
 41
0.0
 71
     1
 72
     1
  1
NAME
  7
SLDTEXTSTYLE0
  0
MTEXT
  5
9F
330
1F
100
AcDbEntity
  8
0
  6
CONTINUOUS
 62
     7
100
AcDbMText
 10
7.5281510634
 20
2.2888799118
 30
0.0
 40
0.065
 41
0.0
 71
     1
 72
     1
  1
DATE
  7
SLDTEXTSTYLE0
  0
MTEXT
  5
A0
330
1F
100
AcDbEntity
  8
0
  6
CONTINUOUS
 62
     7
100
AcDbMText
 10
6.2277147029
 20
1.1876913145
 30
0.0
 40
0.065
 41
0.0
 71
     1
 72
     1
  1
COMMENTS:
  7
SLDTEXTSTYLE0
  0
MTEXT
  5
A1
330
1F
100
AcDbEntity
  8
0
  6
CONTINUOUS
 62
     7
100
AcDbMText
 10
6.2268411461
 20
1.3536101679
 30
0.0
 40
0.065
 41
0.0
 71
     1
 72
     1
  1
Q.A.
  7
SLDTEXTSTYLE0
  0
MTEXT
  5
A2
330
1F
100
AcDbEntity
  8
0
  6
CONTINUOUS
 62
     7
100
AcDbMText
 10
6.2284654509
 20
1.5395328424
 30
0.0
 40
0.065
 41
0.0
 71
     1
 72
     1
  1
MFG APPR.
  7
SLDTEXTSTYLE0
  0
MTEXT
  5
A3
330
1F
100
AcDbEntity
  8
0
  6
CONTINUOUS
 62
     7
100
AcDbMText
 10
6.2235171344
 20
1.7267501785
 30
0.0
 40
0.065
 41
0.0
 71
     1
 72
     1
  1
ENG APPR.
  7
SLDTEXTSTYLE0
  0
MTEXT
  5
A4
330
1F
100
AcDbEntity
  8
0
  6
CONTINUOUS
 62
     7
100
AcDbMText
 10
6.2264103951
 20
1.9092699088
 30
0.0
 40
0.065
 41
0.0
 71
     1
 72
     1
  1
CHECKED
  7
SLDTEXTSTYLE0
  0
MTEXT
  5
A5
330
1F
100
AcDbEntity
  8
0
  6
CONTINUOUS
 62
     7
100
AcDbMText
 10
6.2242794356
 20
2.1016301232
 30
0.0
 40
0.065
 41
0.0
 71
     1
 72
     1
  1
DRAWN
  7
SLDTEXTSTYLE0
  0
MTEXT
  5
A6
330
1F
100
AcDbEntity
  8
0
  6
CONTINUOUS
 62
     7
100
AcDbMText
 10
4.8208600979
 20
0.834523235
 30
0.0
 40
0.06
 41
0.0
 71
     1
 72
     1
  1
FINISH
  7
SLDTEXTSTYLE0
  0
MTEXT
  5
A7
330
1F
100
AcDbEntity
  8
0
  6
CONTINUOUS
 62
     7
100
AcDbMText
 10
4.8181240648
 20
1.1028217587
 30
0.0
 40
0.06
 41
0.0
 71
     1
 72
     1
  1
MATERIAL
  7
SLDTEXTSTYLE0
  0
INSERT
  5
AD
330
1F
100
AcDbEntity
  8
0
  6
CONTINUOUS
 62
     7
100
AcDbBlockReference
  2
SW_NOTE_0
 10
4.8231926633
 20
1.2646542947
 30
0.0
  0
INSERT
  5
BD
330
1F
100
AcDbEntity
  8
0
  6
CONTINUOUS
 62
     7
100
AcDbBlockReference
  2
SW_NOTE_1
 10
4.8353339353
 20
2.0049168724
 30
0.0
  0
MTEXT
  5
BE
330
1F
100
AcDbEntity
  8
0
  6
CONTINUOUS
 62
     7
100
AcDbMText
 10
3.5531400086
 20
0.5200091997
 30
0.0
 40
0.0625
 41
0.0
 71
     1
 72
     1
  1
APPLICATION
  7
SLDTEXTSTYLE0
  0
MTEXT
  5
BF
330
1F
100
AcDbEntity
  8
0
  6
CONTINUOUS
 62
     7
100
AcDbMText
 10
4.1005607758
 20
0.7502454275
 30
0.0
 40
0.0625
 41
0.0
 71
     1
 72
     1
  1
USED ON
  7
SLDTEXTSTYLE0
  0
MTEXT
  5
C0
330
1F
100
AcDbEntity
  8
0
  6
CONTINUOUS
 62
     7
100
AcDbMText
 10
3.1040019536
 20
0.7492094783
 30
0.0
 40
0.0625
 41
0.0
 71
     1
 72
     1
  1
NEXT ASSY
  7
SLDTEXTSTYLE0
  0
MTEXT
  5
C1
330
1F
100
AcDbEntity
  8
0
  6
CONTINUOUS
 62
     7
100
AcDbMText
 10
1.3712489489
 20
1.2496672684
 30
0.0
 40
0.06
 41
0.0
 71
     1
 72
     1
  1
PROPRIETARY AND CONFIDENTIAL
  7
SLDTEXTSTYLE0
  0
INSERT
  5
CC
330
1F
100
AcDbEntity
  8
0
  6
CONTINUOUS
 62
     7
100
AcDbBlockReference
  2
SW_NOTE_2
 10
1.2226209074
 20
1.0313492921
 30
0.0
  0
MTEXT
  5
CD
330
1F
100
AcDbEntity
  8
0
  6
CONTINUOUS
 62
     7
100
AcDbMText
 10
1.7387909509
 20
0.3105864247
 30
0.0
 40
0.09375
 41
0.0
 71
     1
 72
     1
  1
5
  7
SLDTEXTSTYLE0
  0
MTEXT
  5
CE
330
1F
100
AcDbEntity
  8
0
  6
CONTINUOUS
 62
     7
100
AcDbMText
 10
3.723800327
 20
0.3137237518
 30
0.0
 40
0.09375
 41
0.0
 71
     1
 72
     1
  1
4
  7
SLDTEXTSTYLE0
  0
MTEXT
  5
CF
330
1F
100
AcDbEntity
  8
0
  6
CONTINUOUS
 62
     7
100
AcDbMText
 10
5.6324457277
 20
0.3116191842
 30
0.0
 40
0.09375
 41
0.0
 71
     1
 72
     1
  1
3
  7
SLDTEXTSTYLE0
  0
MTEXT
  5
D0
330
1F
100
AcDbEntity
  8
0
  6
CONTINUOUS
 62
     7
100
AcDbMText
 10
7.6059721724
 20
0.3124391351
 30
0.0
 40
0.09375
 41
0.0
 71
     1
 72
     1
  1
2
  7
SLDTEXTSTYLE0
  0
MTEXT
  5
D1
330
1F
100
AcDbEntity
  8
0
  6
CONTINUOUS
 62
     7
100
AcDbMText
 10
9.6619921328
 20
0.301372012
 30
0.0
 40
0.09375
 41
0.0
 71
     1
 72
     1
  1
1
  7
SLDTEXTSTYLE0
  0
LINE
  5
D2
330
1F
100
AcDbEntity
  8
0
  6
CONTINUOUS
 62
     7
100
AcDbLine
 10
2.1361636624
 20
2.77048931
 30
0.0
 11
4.5171085443
 21
2.77048931
 31
0.0
  0
LINE
  5
D3
330
1F
100
AcDbEntity
  8
0
  6
CONTINUOUS
 62
     7
100
AcDbLine
 10
2.2692459301
 20
4.738993247
 30
0.0
 11
2.1361636624
 21
4.738993247
 31
0.0
  0
LINE
  5
D4
330
1F
100
AcDbEntity
  8
0
  6
CONTINUOUS
 62
     7
100
AcDbLine
 10
4.0802695522
 20
4.738993247
 30
0.0
 11
2.5729856693
 21
4.738993247
 31
0.0
  0
LINE
  5
D5
330
1F
100
AcDbEntity
  8
0
  6
CONTINUOUS
 62
     7
100
AcDbLine
 10
4.5171085443
 20
4.738993247
 30
0.0
 11
4.3840092913
 21
4.738993247
 31
0.0
  0
LINE
  5
D6
330
1F
100
AcDbEntity
  8
0
  6
CONTINUOUS
 62
     7
100
AcDbLine
 10
4.5171085443
 20
2.77048931
 30
0.0
 11
4.5471085443
 21
2.80048931
 31
0.0
  0
LINE
  5
D7
330
1F
100
AcDbEntity
  8
0
  6
CONTINUOUS
 62
     7
100
AcDbLine
 10
4.5471085443
 20
4.708993247
 30
0.0
 11
4.5171085443
 21
4.738993247
 31
0.0
  0
LINE
  5
D8
330
1F
100
AcDbEntity
  8
0
  6
CONTINUOUS
 62
     7
100
AcDbLine
 10
2.1361636624
 20
4.738993247
 30
0.0
 11
2.1061636624
 21
4.708993247
 31
0.0
  0
LINE
  5
D9
330
1F
100
AcDbEntity
  8
0
  6
CONTINUOUS
 62
     7
100
AcDbLine
 10
2.1061636624
 20
2.80048931
 30
0.0
 11
2.1361636624
 21
2.77048931
 31
0.0
  0
LINE
  5
DA
330
1F
100
AcDbEntity
  8
0
  6
CONTINUOUS
 62
     7
100
AcDbLine
 10
2.5362894832
 20
4.733749316
 30
0.0
 11
2.5310455522
 21
4.738993247
 31
0.0
  0
LINE
  5
DB
330
1F
100
AcDbEntity
  8
0
  6
CONTINUOUS
 62
     7
100
AcDbLine
 10
2.3112030325
 20
4.738993247
 30
0.0
 11
2.3059586667
 21
4.7337488812
 31
0.0
  0
LINE
  5
DC
330
1F
100
AcDbEntity
  8
0
  6
CONTINUOUS
 62
     7
100
AcDbLine
 10
4.3473131052
 20
4.733749316
 30
0.0
 11
4.3420691743
 21
4.738993247
 31
0.0
  0
LINE
  5
DD
330
1F
100
AcDbEntity
  8
0
  6
CONTINUOUS
 62
     7
100
AcDbLine
 10
4.1222266546
 20
4.738993247
 30
0.0
 11
4.1169822888
 21
4.7337488812
 31
0.0
  0
LINE
  5
DE
330
1F
100
AcDbEntity
  8
0
  6
CONTINUOUS
 62
     7
100
AcDbLine
 10
4.5171085443
 20
2.77048931
 30
0.0
 11
4.5171085443
 21
4.738993247
 31
0.0
  0
LINE
  5
DF
330
1F
100
AcDbEntity
  8
0
  6
CONTINUOUS
 62
     7
100
AcDbLine
 10
2.1361636624
 20
4.738993247
 30
0.0
 11
2.1361636624
 21
2.77048931
 31
0.0
  0
POLYLINE
  5
E0
330
1F
100
AcDbEntity
  8
0
  6
CONTINUOUS
 62
     7
100
AcDb2dPolyline
 66
     1
 10
0.0
 20
0.0
 30
0.0
  0
VERTEX
  5
200
330
E0
100
AcDbEntity
  8
0
  6
CONTINUOUS
 62
     7
100
AcDbVertex
100
AcDb2dVertex
 10
2.5729856693
 20
4.7389905698
 30
0.0
  0
VERTEX
  5
201
330
E0
100
AcDbEntity
  8
0
  6
CONTINUOUS
 62
     7
100
AcDbVertex
100
AcDb2dVertex
 10
2.5730025595
 20
4.7389932315
 30
0.0
  0
VERTEX
  5
202
330
E0
100
AcDbEntity
  8
0
  6
CONTINUOUS
 62
     7
100
AcDbVertex
100
AcDb2dVertex
 10
2.5702219544
 20
4.7384967175
 30
0.0
  0
VERTEX
  5
203
330
E0
100
AcDbEntity
  8
0
  6
CONTINUOUS
 62
     7
100
AcDbVertex
100
AcDb2dVertex
 10
2.5618711316
 20
4.7371624167
 30
0.0
  0
VERTEX
  5
204
330
E0
100
AcDbEntity
  8
0
  6
CONTINUOUS
 62
     7
100
AcDbVertex
100
AcDb2dVertex
 10
2.5479500911
 20
4.7351940653
 30
0.0
  0
VERTEX
  5
205
330
E0
100
AcDbEntity
  8
0
  6
CONTINUOUS
 62
     7
100
AcDbVertex
100
AcDb2dVertex
 10
2.528458833
 20
4.7327790985
 30
0.0
  0
VERTEX
  5
206
330
E0
100
AcDbEntity
  8
0
  6
CONTINUOUS
 62
     7
100
AcDbVertex
100
AcDb2dVertex
 10
2.5050061744
 20
4.7303124047
 30
0.0
  0
VERTEX
  5
207
330
E0
100
AcDbEntity
  8
0
  6
CONTINUOUS
 62
     7
100
AcDbVertex
100
AcDb2dVertex
 10
2.4792846138
 20
4.7282997623
 30
0.0
  0
VERTEX
  5
208
330
E0
100
AcDbEntity
  8
0
  6
CONTINUOUS
 62
     7
100
AcDbVertex
100
AcDb2dVertex
 10
2.4512941512
 20
4.7269919768
 30
0.0
  0
VERTEX
  5
209
330
E0
100
AcDbEntity
  8
0
  6
CONTINUOUS
 62
     7
100
AcDbVertex
100
AcDb2dVertex
 10
2.4364480817
 20
4.7266532259
 30
0.0
  0
VERTEX
  5
20A
330
E0
100
AcDbEntity
  8
0
  6
CONTINUOUS
 62
     7
100
AcDbVertex
100
AcDb2dVertex
 10
2.4210347866
 20
4.7265391448
 30
0.0
  0
VERTEX
  5
20B
330
E0
100
AcDbEntity
  8
0
  6
CONTINUOUS
 62
     7
100
AcDbVertex
100
AcDb2dVertex
 10
2.3916074741
 20
4.7270189831
 30
0.0
  0
VERTEX
  5
20C
330
E0
100
AcDbEntity
  8
0
  6
CONTINUOUS
 62
     7
100
AcDbVertex
100
AcDb2dVertex
 10
2.3629063545
 20
4.7284029086
 30
0.0
  0
VERTEX
  5
20D
330
E0
100
AcDbEntity
  8
0
  6
CONTINUOUS
 62
     7
100
AcDbVertex
100
AcDb2dVertex
 10
2.3365406857
 20
4.7304267683
 30
0.0
  0
VERTEX
  5
20E
330
E0
100
AcDbEntity
  8
0
  6
CONTINUOUS
 62
     7
100
AcDbVertex
100
AcDb2dVertex
 10
2.3136570371
 20
4.7327944896
 30
0.0
  0
VERTEX
  5
20F
330
E0
100
AcDbEntity
  8
0
  6
CONTINUOUS
 62
     7
100
AcDbVertex
100
AcDb2dVertex
 10
2.2941985578
 20
4.7352068197
 30
0.0
  0
VERTEX
  5
210
330
E0
100
AcDbEntity
  8
0
  6
CONTINUOUS
 62
     7
100
AcDbVertex
100
AcDb2dVertex
 10
2.2803105469
 20
4.7371718159
 30
0.0
  0
VERTEX
  5
211
330
E0
100
AcDbEntity
  8
0
  6
CONTINUOUS
 62
     7
100
AcDbVertex
100
AcDb2dVertex
 10
2.2719930044
 20
4.7385019159
 30
0.0
  0
VERTEX
  5
212
330
E0
100
AcDbEntity
  8
0
  6
CONTINUOUS
 62
     7
100
AcDbVertex
100
AcDb2dVertex
 10
2.2692459301
 20
4.738993247
 30
0.0
  0
VERTEX
  5
213
330
E0
100
AcDbEntity
  8
0
  6
CONTINUOUS
 62
     7
100
AcDbVertex
100
AcDb2dVertex
 10
2.2692459301
 20
4.738993247
 30
0.0
  0
SEQEND
  5
214
330
E0
100
AcDbEntity
  8
0
  6
CONTINUOUS
 62
     7
  0
POLYLINE
  5
E1
330
1F
100
AcDbEntity
  8
0
  6
CONTINUOUS
 62
     7
100
AcDb2dPolyline
 66
     1
 10
0.0
 20
0.0
 30
0.0
  0
VERTEX
  5
215
330
E1
100
AcDbEntity
  8
0
  6
CONTINUOUS
 62
     7
100
AcDbVertex
100
AcDb2dVertex
 10
4.3840092913
 20
4.7389905698
 30
0.0
  0
VERTEX
  5
216
330
E1
100
AcDbEntity
  8
0
  6
CONTINUOUS
 62
     7
100
AcDbVertex
100
AcDb2dVertex
 10
4.3840261816
 20
4.7389932315
 30
0.0
  0
VERTEX
  5
217
330
E1
100
AcDbEntity
  8
0
  6
CONTINUOUS
 62
     7
100
AcDbVertex
100
AcDb2dVertex
 10
4.3812455764
 20
4.7384967175
 30
0.0
  0
VERTEX
  5
218
330
E1
100
AcDbEntity
  8
0
  6
CONTINUOUS
 62
     7
100
AcDbVertex
100
AcDb2dVertex
 10
4.3728947536
 20
4.7371624167
 30
0.0
  0
VERTEX
  5
219
330
E1
100
AcDbEntity
  8
0
  6
CONTINUOUS
 62
     7
100
AcDbVertex
100
AcDb2dVertex
 10
4.3589737132
 20
4.7351940653
 30
0.0
  0
VERTEX
  5
21A
330
E1
100
AcDbEntity
  8
0
  6
CONTINUOUS
 62
     7
100
AcDbVertex
100
AcDb2dVertex
 10
4.3394824551
 20
4.7327790985
 30
0.0
  0
VERTEX
  5
21B
330
E1
100
AcDbEntity
  8
0
  6
CONTINUOUS
 62
     7
100
AcDbVertex
100
AcDb2dVertex
 10
4.3160297965
 20
4.7303124047
 30
0.0
  0
VERTEX
  5
21C
330
E1
100
AcDbEntity
  8
0
  6
CONTINUOUS
 62
     7
100
AcDbVertex
100
AcDb2dVertex
 10
4.2903082358
 20
4.7282997623
 30
0.0
  0
VERTEX
  5
21D
330
E1
100
AcDbEntity
  8
0
  6
CONTINUOUS
 62
     7
100
AcDbVertex
100
AcDb2dVertex
 10
4.2623177732
 20
4.7269919768
 30
0.0
  0
VERTEX
  5
21E
330
E1
100
AcDbEntity
  8
0
  6
CONTINUOUS
 62
     7
100
AcDbVertex
100
AcDb2dVertex
 10
4.2474717037
 20
4.7266532259
 30
0.0
  0
VERTEX
  5
21F
330
E1
100
AcDbEntity
  8
0
  6
CONTINUOUS
 62
     7
100
AcDbVertex
100
AcDb2dVertex
 10
4.2320584087
 20
4.7265391448
 30
0.0
  0
VERTEX
  5
220
330
E1
100
AcDbEntity
  8
0
  6
CONTINUOUS
 62
     7
100
AcDbVertex
100
AcDb2dVertex
 10
4.2026310961
 20
4.7270189831
 30
0.0
  0
VERTEX
  5
221
330
E1
100
AcDbEntity
  8
0
  6
CONTINUOUS
 62
     7
100
AcDbVertex
100
AcDb2dVertex
 10
4.1739299765
 20
4.7284029086
 30
0.0
  0
VERTEX
  5
222
330
E1
100
AcDbEntity
  8
0
  6
CONTINUOUS
 62
     7
100
AcDbVertex
100
AcDb2dVertex
 10
4.1475643078
 20
4.7304267683
 30
0.0
  0
VERTEX
  5
223
330
E1
100
AcDbEntity
  8
0
  6
CONTINUOUS
 62
     7
100
AcDbVertex
100
AcDb2dVertex
 10
4.1246806591
 20
4.7327944896
 30
0.0
  0
VERTEX
  5
224
330
E1
100
AcDbEntity
  8
0
  6
CONTINUOUS
 62
     7
100
AcDbVertex
100
AcDb2dVertex
 10
4.1052221799
 20
4.7352068197
 30
0.0
  0
VERTEX
  5
225
330
E1
100
AcDbEntity
  8
0
  6
CONTINUOUS
 62
     7
100
AcDbVertex
100
AcDb2dVertex
 10
4.091334169
 20
4.7371718159
 30
0.0
  0
VERTEX
  5
226
330
E1
100
AcDbEntity
  8
0
  6
CONTINUOUS
 62
     7
100
AcDbVertex
100
AcDb2dVertex
 10
4.0830166264
 20
4.7385019159
 30
0.0
  0
VERTEX
  5
227
330
E1
100
AcDbEntity
  8
0
  6
CONTINUOUS
 62
     7
100
AcDbVertex
100
AcDb2dVertex
 10
4.0802695522
 20
4.738993247
 30
0.0
  0
VERTEX
  5
228
330
E1
100
AcDbEntity
  8
0
  6
CONTINUOUS
 62
     7
100
AcDbVertex
100
AcDb2dVertex
 10
4.0802695522
 20
4.738993247
 30
0.0
  0
SEQEND
  5
229
330
E1
100
AcDbEntity
  8
0
  6
CONTINUOUS
 62
     7
  0
LINE
  5
E2
330
1F
100
AcDbEntity
  8
0
  6
CONTINUOUS
 62
     7
100
AcDbLine
 10
4.5471085443
 20
4.708993247
 30
0.0
 11
4.5471085443
 21
2.80048931
 31
0.0
  0
LINE
  5
E3
330
1F
100
AcDbEntity
  8
0
  6
CONTINUOUS
 62
     7
100
AcDbLine
 10
2.1061636624
 20
2.80048931
 30
0.0
 11
2.1061636624
 21
4.708993247
 31
0.0
  0
LINE
  5
E4
330
1F
100
AcDbEntity
  8
0
  6
CONTINUOUS
 62
     7
100
AcDbLine
 10
2.5310455522
 20
4.738993247
 30
0.0
 11
2.3112030325
 21
4.738993247
 31
0.0
  0
LINE
  5
E5
330
1F
100
AcDbEntity
  8
0
  6
CONTINUOUS
 62
     7
100
AcDbLine
 10
4.1222266546
 20
4.738993247
 30
0.0
 11
4.3420691743
 21
4.738993247
 31
0.0
  0
LINE
  5
E6
330
1F
100
AcDbEntity
  8
0
  6
HIDDEN
 62
     7
100
AcDbLine
 10
3.2266361034
 20
4.0997019084
 30
0.0
 11
3.2266361034
 21
3.4097806486
 31
0.0
  0
LINE
  5
E7
330
1F
100
AcDbEntity
  8
0
  6
HIDDEN
 62
     7
100
AcDbLine
 10
3.4266361034
 20
4.0997019084
 30
0.0
 11
3.4266361034
 21
3.4097806486
 31
0.0
  0
SPLINE
  5
E8
330
1F
100
AcDbEntity
  8
0
  6
HIDDEN
 62
     7
100
AcDbSpline
210
0.0
220
0.0
230
1.0
 70
     8
 71
     3
 72
    27
 73
    23
 74
     0
 42
0.00000001
 43
0.00000001
 40
0.0
 40
0.0
 40
0.0
 40
0.0
 40
0.0240995936712435
 40
0.0728295605244307
 40
0.1229372633777162
 40
0.1724882532799678
 40
0.2233009180790824
 40
0.2762590246675508
 40
0.330655980861119
 40
0.3851290063105188
 40
0.4413919842205896
 40
0.4923507115182701
 40
0.5449930245042096
 40
0.5929247842741152
 40
0.642145425466435
 40
0.6921511992217847
 40
0.7434039766387094
 40
0.7972960920276566
 40
0.852737233728121
 40
0.9065916697470523
 40
0.9622396129157025
 40
1.0
 40
1.0
 40
1.0
 40
1.0
 10
2.291666151384369
 20
4.069511165540183
 30
0.0
 10
2.291560740861296
 20
4.069554532790711
 30
0.0
 10
2.291242187686716
 20
4.069685589680726
 30
0.0
 10
2.294308473286403
 20
4.068423879647353
 30
0.0
 10
2.300373027167578
 20
4.066005427462833
 30
0.0
 10
2.309638076845925
 20
4.06250350795454
 30
0.0
 10
2.321742040249604
 20
4.058292334502601
 30
0.0
 10
2.336825242959483
 20
4.053644500805901
 30
0.0
 10
2.354636181511276
 20
4.049065584041753
 30
0.0
 10
2.374868611205207
 20
4.045109872372647
 30
0.0
 10
2.396234989164485
 20
4.042460728806796
 30
0.0
 10
2.418173898318379
 20
4.041403392685477
 30
0.0
 10
2.439079292067041
 20
4.04197279775682
 30
0.0
 10
2.459170598633505
 20
4.043961756670286
 30
0.0
 10
2.477876544843544
 20
4.04703366351272
 30
0.0
 10
2.495491881870577
 20
4.050988219858346
 30
0.0
 10
2.511704625069452
 20
4.055497259965477
 30
0.0
 10
2.52603763836446
 20
4.060152662815594
 30
0.0
 10
2.537692270603184
 20
4.064387918756571
 30
0.0
 10
2.545993372824225
 20
4.06763226054727
 30
0.0
 10
2.550527986828251
 20
4.069487771012461
 30
0.0
 10
2.550677684009056
 20
4.069550188360603
 30
0.0
 10
2.550738199205905
 20
4.069575420620084
 30
0.0
  0
SPLINE
  5
E9
330
1F
100
AcDbEntity
  8
0
  6
HIDDEN
 62
     7
100
AcDbSpline
210
0.0
220
0.0
230
1.0
 70
     8
 71
     3
 72
    58
 73
    54
 74
     0
 42
0.00000001
 43
0.00000001
 40
-0.0624999999999996
 40
-0.0624999999999996
 40
0.0
 40
0.0
 40
0.0312500000000001
 40
0.0312500000000001
 40
0.0625000000000002
 40
0.0625000000000002
 40
0.1250000000000004
 40
0.1250000000000004
 40
0.1875000000000005
 40
0.1875000000000005
 40
0.2187500000000006
 40
0.2187500000000006
 40
0.2500000000000007
 40
0.2500000000000007
 40
0.2812500000000008
 40
0.2812500000000008
 40
0.3125000000000008
 40
0.3125000000000008
 40
0.3437500000000009
 40
0.3437500000000009
 40
0.3750000000000011
 40
0.3750000000000011
 40
0.4062500000000012
 40
0.4062500000000012
 40
0.4375000000000012
 40
0.4375000000000012
 40
0.5000000000000013
 40
0.5000000000000013
 40
0.5312500000000014
 40
0.5312500000000014
 40
0.5625000000000016
 40
0.5625000000000016
 40
0.6250000000000014
 40
0.6250000000000014
 40
0.6562500000000014
 40
0.6562500000000014
 40
0.6875000000000014
 40
0.6875000000000014
 40
0.7187500000000014
 40
0.7187500000000014
 40
0.7500000000000014
 40
0.7500000000000014
 40
0.8125000000000014
 40
0.8125000000000014
 40
0.8437500000000012
 40
0.8437500000000012
 40
0.8750000000000009
 40
0.8750000000000009
 40
0.9062500000000007
 40
0.9062500000000007
 40
0.9375000000000004
 40
0.9375000000000004
 40
1.0
 40
1.0
 40
1.03125
 40
1.03125
 10
2.291203032518411
 20
3.737370066054761
 30
0.0
 10
2.291203032518411
 20
3.763426884749667
 30
0.0
 10
2.292065100484247
 20
3.771949241135625
 30
0.0
 10
2.29542572958194
 20
3.788686238388498
 30
0.0
 10
2.297969842454789
 20
3.796988789530556
 30
0.0
 10
2.307808032865684
 20
3.820531148031159
 30
0.0
 10
2.317446042945135
 20
3.834808583291014
 30
0.0
 10
2.341137217209553
 20
3.85848143710795
 30
0.0
 10
2.355436627435686
 20
3.868098268402082
 30
0.0
 10
2.378806231813713
 20
3.877867235125679
 30
0.0
 10
2.387081661396565
 20
3.880415919719308
 30
0.0
 10
2.403888885356085
 20
3.883799238014618
 30
0.0
 10
2.412380779006309
 20
3.884651736602445
 30
0.0
 10
2.429543794115714
 20
3.884673138104839
 30
0.0
 10
2.438255564871873
 20
3.883811104744745
 30
0.0
 10
2.455007199963897
 20
3.880457025791024
 30
0.0
 10
2.463173550046343
 20
3.877967806606494
 30
0.0
 10
2.478989172531361
 20
3.871379921083403
 30
0.0
 10
2.486418082824904
 20
3.867378036856908
 30
0.0
 10
2.500399951870099
 20
3.858016097383186
 30
0.0
 10
2.507001870154979
 20
3.852593543947423
 30
0.0
 10
2.518881943508865
 20
3.840726543880626
 30
0.0
 10
2.524210557020221
 20
3.834266038779081
 30
0.0
 10
2.533644740383136
 20
3.820240242119487
 30
0.0
 10
2.537716586336786
 20
3.812683274446217
 30
0.0
 10
2.547506988527258
 20
3.789280596103995
 30
0.0
 10
2.551024711417248
 20
3.772008943714607
 30
0.0
 10
2.55105582935373
 20
3.746343731431135
 30
0.0
 10
2.550204279086008
 20
3.737662692828905
 30
0.0
 10
2.546832141424492
 20
3.720816984186387
 30
0.0
 10
2.544342702577906
 20
3.712676908592067
 30
0.0
 10
2.534514765227078
 20
3.689069741908491
 30
0.0
 10
2.524964966046756
 20
3.674847299997138
 30
0.0
 10
2.507016365892512
 20
3.656896067329121
 30
0.0
 10
2.500542165920178
 20
3.65157714520396
 30
0.0
 10
2.486602259834871
 20
3.642212736278305
 30
0.0
 10
2.479039752727794
 20
3.638133455746563
 30
0.0
 10
2.463375244809192
 20
3.631589169732909
 30
0.0
 10
2.455276018045909
 20
3.629097733824205
 30
0.0
 10
2.438515305211407
 20
3.625705650249998
 30
0.0
 10
2.429798822990421
 20
3.624827145989883
 30
0.0
 10
2.404097470369733
 20
3.624805897253301
 30
0.0
 10
2.386841416583954
 20
3.628282546579368
 30
0.0
 10
2.363357800153743
 20
3.638060241879054
 30
0.0
 10
2.35578585572487
 20
3.642129125834453
 30
0.0
 10
2.341780302596663
 20
3.651517543251564
 30
0.0
 10
2.335301569760036
 20
3.656837468950482
 30
0.0
 10
2.323361807910464
 20
3.66875760404118
 30
0.0
 10
2.317954706203339
 20
3.675330240579169
 30
0.0
 10
2.308588867483739
 20
3.689274839771403
 30
0.0
 10
2.304570073533429
 20
3.696702571843431
 30
0.0
 10
2.294626895084053
 20
3.720487566299196
 30
0.0
 10
2.291203032518411
 20
3.737370066054761
 30
0.0
 10
2.291203032518411
 20
3.763426884749667
 30
0.0
  0
SPLINE
  5
EA
330
1F
100
AcDbEntity
  8
0
  6
HIDDEN
 62
     7
100
AcDbSpline
210
0.0
220
0.0
230
1.0
 70
     8
 71
     3
 72
    27
 73
    23
 74
     0
 42
0.00000001
 43
0.00000001
 40
0.0
 40
0.0
 40
0.0
 40
0.0
 40
0.0240995936712435
 40
0.0728295605244307
 40
0.1229372633777162
 40
0.1724882532799678
 40
0.2233009180790824
 40
0.2762590246675508
 40
0.330655980861119
 40
0.3851290063105188
 40
0.4413919842205896
 40
0.4923507115182701
 40
0.5449930245042096
 40
0.5929247842741152
 40
0.642145425466435
 40
0.6921511992217847
 40
0.7434039766387094
 40
0.7972960920276566
 40
0.852737233728121
 40
0.9065916697470523
 40
0.9622396129157025
 40
1.0
 40
1.0
 40
1.0
 40
1.0
 10
4.102689773431614
 20
4.069511165540183
 30
0.0
 10
4.10258436290854
 20
4.069554532790711
 30
0.0
 10
4.10226580973396
 20
4.069685589680726
 30
0.0
 10
4.105332095333647
 20
4.068423879647353
 30
0.0
 10
4.111396649214822
 20
4.066005427462833
 30
0.0
 10
4.120661698893168
 20
4.06250350795454
 30
0.0
 10
4.132765662296849
 20
4.058292334502601
 30
0.0
 10
4.147848865006727
 20
4.053644500805901
 30
0.0
 10
4.165659803558521
 20
4.049065584041753
 30
0.0
 10
4.18589223325245
 20
4.045109872372647
 30
0.0
 10
4.20725861121173
 20
4.042460728806796
 30
0.0
 10
4.229197520365624
 20
4.041403392685477
 30
0.0
 10
4.250102914114286
 20
4.04197279775682
 30
0.0
 10
4.270194220680749
 20
4.043961756670286
 30
0.0
 10
4.288900166890788
 20
4.04703366351272
 30
0.0
 10
4.306515503917821
 20
4.050988219858346
 30
0.0
 10
4.322728247116697
 20
4.055497259965477
 30
0.0
 10
4.337061260411704
 20
4.060152662815594
 30
0.0
 10
4.348715892650429
 20
4.064387918756571
 30
0.0
 10
4.357016994871469
 20
4.06763226054727
 30
0.0
 10
4.361551608875495
 20
4.069487771012461
 30
0.0
 10
4.3617013060563
 20
4.069550188360603
 30
0.0
 10
4.361761821253149
 20
4.069575420620084
 30
0.0
  0
SPLINE
  5
EB
330
1F
100
AcDbEntity
  8
0
  6
HIDDEN
 62
     7
100
AcDbSpline
210
0.0
220
0.0
230
1.0
 70
     8
 71
     3
 72
    58
 73
    54
 74
     0
 42
0.00000001
 43
0.00000001
 40
-0.0624999999999996
 40
-0.0624999999999996
 40
0.0
 40
0.0
 40
0.0312500000000001
 40
0.0312500000000001
 40
0.0625000000000002
 40
0.0625000000000002
 40
0.1250000000000004
 40
0.1250000000000004
 40
0.1875000000000005
 40
0.1875000000000005
 40
0.2187500000000006
 40
0.2187500000000006
 40
0.2500000000000007
 40
0.2500000000000007
 40
0.2812500000000008
 40
0.2812500000000008
 40
0.3125000000000008
 40
0.3125000000000008
 40
0.3437500000000009
 40
0.3437500000000009
 40
0.3750000000000011
 40
0.3750000000000011
 40
0.4062500000000012
 40
0.4062500000000012
 40
0.4375000000000012
 40
0.4375000000000012
 40
0.5000000000000013
 40
0.5000000000000013
 40
0.5312500000000014
 40
0.5312500000000014
 40
0.5625000000000016
 40
0.5625000000000016
 40
0.6250000000000014
 40
0.6250000000000014
 40
0.6562500000000014
 40
0.6562500000000014
 40
0.6875000000000014
 40
0.6875000000000014
 40
0.7187500000000014
 40
0.7187500000000014
 40
0.7500000000000014
 40
0.7500000000000014
 40
0.8125000000000014
 40
0.8125000000000014
 40
0.8437500000000012
 40
0.8437500000000012
 40
0.8750000000000009
 40
0.8750000000000009
 40
0.9062500000000007
 40
0.9062500000000007
 40
0.9375000000000004
 40
0.9375000000000004
 40
1.0
 40
1.0
 40
1.03125
 40
1.03125
 10
4.102226654565655
 20
3.737370066054761
 30
0.0
 10
4.102226654565655
 20
3.763426884749667
 30
0.0
 10
4.103088722531491
 20
3.771949241135625
 30
0.0
 10
4.106449351629185
 20
3.788686238388498
 30
0.0
 10
4.108993464502033
 20
3.796988789530556
 30
0.0
 10
4.118831654912929
 20
3.820531148031159
 30
0.0
 10
4.12846966499238
 20
3.834808583291014
 30
0.0
 10
4.152160839256797
 20
3.85848143710795
 30
0.0
 10
4.166460249482931
 20
3.868098268402082
 30
0.0
 10
4.189829853860958
 20
3.877867235125679
 30
0.0
 10
4.19810528344381
 20
3.880415919719308
 30
0.0
 10
4.214912507403329
 20
3.883799238014618
 30
0.0
 10
4.223404401053553
 20
3.884651736602445
 30
0.0
 10
4.240567416162958
 20
3.884673138104839
 30
0.0
 10
4.249279186919117
 20
3.883811104744745
 30
0.0
 10
4.266030822011142
 20
3.880457025791024
 30
0.0
 10
4.274197172093588
 20
3.877967806606494
 30
0.0
 10
4.290012794578605
 20
3.871379921083403
 30
0.0
 10
4.29744170487215
 20
3.867378036856908
 30
0.0
 10
4.311423573917343
 20
3.858016097383186
 30
0.0
 10
4.318025492202223
 20
3.852593543947423
 30
0.0
 10
4.329905565556109
 20
3.840726543880626
 30
0.0
 10
4.335234179067466
 20
3.834266038779081
 30
0.0
 10
4.34466836243038
 20
3.820240242119487
 30
0.0
 10
4.34874020838403
 20
3.812683274446217
 30
0.0
 10
4.358530610574502
 20
3.789280596103995
 30
0.0
 10
4.362048333464493
 20
3.772008943714607
 30
0.0
 10
4.362079451400973
 20
3.746343731431135
 30
0.0
 10
4.361227901133253
 20
3.737662692828905
 30
0.0
 10
4.357855763471735
 20
3.720816984186387
 30
0.0
 10
4.355366324625151
 20
3.712676908592067
 30
0.0
 10
4.345538387274322
 20
3.689069741908491
 30
0.0
 10
4.335988588094001
 20
3.674847299997138
 30
0.0
 10
4.318039987939756
 20
3.656896067329121
 30
0.0
 10
4.311565787967423
 20
3.65157714520396
 30
0.0
 10
4.297625881882116
 20
3.642212736278305
 30
0.0
 10
4.290063374775039
 20
3.638133455746563
 30
0.0
 10
4.274398866856436
 20
3.631589169732909
 30
0.0
 10
4.266299640093153
 20
3.629097733824205
 30
0.0
 10
4.249538927258651
 20
3.625705650249998
 30
0.0
 10
4.240822445037666
 20
3.624827145989883
 30
0.0
 10
4.215121092416978
 20
3.624805897253301
 30
0.0
 10
4.1978650386312
 20
3.628282546579368
 30
0.0
 10
4.174381422200987
 20
3.638060241879054
 30
0.0
 10
4.166809477772115
 20
3.642129125834453
 30
0.0
 10
4.152803924643908
 20
3.651517543251564
 30
0.0
 10
4.146325191807281
 20
3.656837468950482
 30
0.0
 10
4.134385429957708
 20
3.66875760404118
 30
0.0
 10
4.128978328250584
 20
3.675330240579169
 30
0.0
 10
4.119612489530983
 20
3.689274839771403
 30
0.0
 10
4.115593695580672
 20
3.696702571843431
 30
0.0
 10
4.105650517131297
 20
3.720487566299196
 30
0.0
 10
4.102226654565655
 20
3.737370066054761
 30
0.0
 10
4.102226654565655
 20
3.763426884749667
 30
0.0
  0
SPLINE
  5
EC
330
1F
100
AcDbEntity
  8
0
  6
HIDDEN
 62
     7
100
AcDbSpline
210
0.0
220
0.0
230
1.0
 70
     8
 71
     3
 72
    24
 73
    20
 74
     0
 42
0.00000001
 43
0.00000001
 40
0.0
 40
0.0
 40
0.0
 40
0.0
 40
0.0245702480936919
 40
0.0510603206943247
 40
0.0794764292192795
 40
0.1098235402043412
 40
0.1421056663708552
 40
0.176326076864802
 40
0.2124874520183044
 40
0.2505919992232592
 40
0.3481607708916542
 40
0.4315452664240458
 40
0.5007801375507346
 40
0.6096624121112056
 40
0.7500105516231415
 40
0.8471173194608393
 40
0.9304310420442947
 40
0.9999890620620744
 40
1.0
 40
1.0
 40
1.0
 40
1.0
 10
4.102226654565655
 20
4.712499636134724
 30
0.0
 10
4.102301420298683
 20
4.712480008141823
 30
0.0
 10
4.102456793671013
 20
4.712439218500291
 30
0.0
 10
4.103784294620515
 20
4.712137601312507
 30
0.0
 10
4.106125502154093
 20
4.71166482746853
 30
0.0
 10
4.109747418340735
 20
4.710999159828859
 30
0.0
 10
4.114806020462178
 20
4.710147575346868
 30
0.0
 10
4.121473779369545
 20
4.709105171152951
 30
0.0
 10
4.12989697421755
 20
4.707884386411598
 30
0.0
 10
4.145332362731553
 20
4.705708215567242
 30
0.0
 10
4.16964309077529
 20
4.703065894580726
 30
0.0
 10
4.201885361865731
 20
4.700969533182761
 30
0.0
 10
4.237448855088998
 20
4.699975748163617
 30
0.0
 10
4.280929999929113
 20
4.701775333189412
 30
0.0
 10
4.321933945430133
 20
4.705905418345297
 30
0.0
 10
4.347968458614191
 20
4.709853113593275
 30
0.0
 10
4.359755202094757
 20
4.711912489565359
 30
0.0
 10
4.362058738724154
 20
4.712498616454418
 30
0.0
 10
4.362069096204717
 20
4.712499621380863
 30
0.0
 10
4.362069097833166
 20
4.712499621538861
 30
0.0
  0
SPLINE
  5
ED
330
1F
100
AcDbEntity
  8
0
  6
HIDDEN
 62
     7
100
AcDbSpline
210
0.0
220
0.0
230
1.0
 70
     8
 71
     3
 72
    24
 73
    20
 74
     0
 42
0.00000001
 43
0.00000001
 40
0.0
 40
0.0
 40
0.0
 40
0.0
 40
0.0245702480936637
 40
0.0510603206942759
 40
0.0794764292192183
 40
0.1098235402042762
 40
0.1421056663707946
 40
0.1763260768647537
 40
0.2124874520182764
 40
0.25059199922326
 40
0.3481607708917099
 40
0.4315452664241017
 40
0.500780137550735
 40
0.6096624121111486
 40
0.7500105516231415
 40
0.8471173194608972
 40
0.9304310420443527
 40
0.9999890620620747
 40
1.0
 40
1.0
 40
1.0
 40
1.0
 10
2.291203032518411
 20
4.712499636134724
 30
0.0
 10
2.291277798251438
 20
4.712480008141823
 30
0.0
 10
2.291433171623768
 20
4.712439218500292
 30
0.0
 10
2.292760672573268
 20
4.712137601312508
 30
0.0
 10
2.295101880106843
 20
4.711664827468531
 30
0.0
 10
2.298723796293483
 20
4.71099915982886
 30
0.0
 10
2.303782398414923
 20
4.710147575346868
 30
0.0
 10
2.310450157322291
 20
4.709105171152952
 30
0.0
 10
2.318873352170298
 20
4.707884386411598
 30
0.0
 10
2.33430874068431
 20
4.705708215567244
 30
0.0
 10
2.358619468728059
 20
4.703065894580727
 30
0.0
 10
2.390861739818502
 20
4.700969533182763
 30
0.0
 10
2.426425233041754
 20
4.699975748163613
 30
0.0
 10
2.469906377881856
 20
4.701775333189433
 30
0.0
 10
2.510910323382908
 20
4.705905418345217
 30
0.0
 10
2.536944836566915
 20
4.709853113593462
 30
0.0
 10
2.548731580047634
 20
4.711912489564807
 30
0.0
 10
2.551035116676697
 20
4.71249861645541
 30
0.0
 10
2.551045474157472
 20
4.712499621380863
 30
0.0
 10
2.551045475785922
 20
4.712499621538861
 30
0.0
  0
CIRCLE
  5
EE
330
1F
100
AcDbEntity
  8
0
  6
HIDDEN
 62
     7
100
AcDbCircle
 10
4.2321479144
 20
3.7547412785
 30
0.0
 40
0.1099212598425199
  0
POLYLINE
  5
EF
330
1F
100
AcDbEntity
  8
0
  6
HIDDEN
 62
     7
100
AcDb2dPolyline
 66
     1
 10
0.0
 20
0.0
 30
0.0
  0
VERTEX
  5
22A
330
EF
100
AcDbEntity
  8
0
  6
HIDDEN
 62
     7
100
AcDbVertex
100
AcDb2dVertex
 10
4.3620691743
 20
3.7547412785
 30
0.0
  0
VERTEX
  5
22B
330
EF
100
AcDbEntity
  8
0
  6
HIDDEN
 62
     7
100
AcDbVertex
100
AcDb2dVertex
 10
4.3607467632
 20
3.7362515554
 30
0.0
  0
VERTEX
  5
22C
330
EF
100
AcDbEntity
  8
0
  6
HIDDEN
 62
     7
100
AcDbVertex
100
AcDb2dVertex
 10
4.3575843296
 20
3.7208998909
 30
0.0
  0
SEQEND
  5
22D
330
EF
100
AcDbEntity
  8
0
  6
HIDDEN
 62
     7
  0
ARC
  5
F0
330
1F
100
AcDbEntity
  8
0
  6
HIDDEN
 62
     7
100
AcDbCircle
 10
4.2321479144
 20
3.7547412785
 30
0.0
 40
0.1299212598425193
100
AcDbArc
 50
168.9128303357
 51
183.6170900102
  0
LINE
  5
F1
330
1F
100
AcDbEntity
  8
0
  6
HIDDEN
 62
     7
100
AcDbLine
 10
4.3620561833
 20
3.756578517
 30
0.0
 11
4.3620691743
 21
3.7547412785
 31
0.0
  0
LINE
  5
F2
330
1F
100
AcDbEntity
  8
0
  6
HIDDEN
 62
     7
100
AcDbLine
 10
4.2321479144
 20
3.671722765
 30
0.0
 11
4.1602517727
 21
3.7132320218
 31
0.0
  0
LINE
  5
F3
330
1F
100
AcDbEntity
  8
0
  6
HIDDEN
 62
     7
100
AcDbLine
 10
4.1602517727
 20
3.7962505353
 30
0.0
 11
4.2321479144
 21
3.837759792
 31
0.0
  0
LINE
  5
F4
330
1F
100
AcDbEntity
  8
0
  6
HIDDEN
 62
     7
100
AcDbLine
 10
4.2321479144
 20
3.837759792
 30
0.0
 11
4.3040440561
 21
3.7962505353
 31
0.0
  0
LINE
  5
F5
330
1F
100
AcDbEntity
  8
0
  6
HIDDEN
 62
     7
100
AcDbLine
 10
4.3040440561
 20
3.7962505353
 30
0.0
 11
4.3040440561
 21
3.7132320218
 31
0.0
  0
LINE
  5
F6
330
1F
100
AcDbEntity
  8
0
  6
HIDDEN
 62
     7
100
AcDbLine
 10
4.1602517727
 20
3.7132320218
 30
0.0
 11
4.1602517727
 21
3.7962505353
 31
0.0
  0
LINE
  5
F7
330
1F
100
AcDbEntity
  8
0
  6
HIDDEN
 62
     7
100
AcDbLine
 10
4.3040440561
 20
3.7132320218
 30
0.0
 11
4.2321479144
 21
3.671722765
 31
0.0
  0
CIRCLE
  5
F8
330
1F
100
AcDbEntity
  8
0
  6
HIDDEN
 62
     7
100
AcDbCircle
 10
2.4211242924
 20
3.7547412785
 30
0.0
 40
0.1099212598425194
  0
LINE
  5
F9
330
1F
100
AcDbEntity
  8
0
  6
HIDDEN
 62
     7
100
AcDbLine
 10
2.493020434
 20
3.7962505353
 30
0.0
 11
2.4211242924
 21
3.837759792
 31
0.0
  0
LINE
  5
FA
330
1F
100
AcDbEntity
  8
0
  6
HIDDEN
 62
     7
100
AcDbLine
 10
2.4211242924
 20
3.837759792
 30
0.0
 11
2.3492281507
 21
3.7962505353
 31
0.0
  0
LINE
  5
FB
330
1F
100
AcDbEntity
  8
0
  6
HIDDEN
 62
     7
100
AcDbLine
 10
2.3492281507
 20
3.7962505353
 30
0.0
 11
2.3492281507
 21
3.7132320218
 31
0.0
  0
LINE
  5
FC
330
1F
100
AcDbEntity
  8
0
  6
HIDDEN
 62
     7
100
AcDbLine
 10
2.493020434
 20
3.7132320218
 30
0.0
 11
2.493020434
 21
3.7962505353
 31
0.0
  0
LINE
  5
FD
330
1F
100
AcDbEntity
  8
0
  6
HIDDEN
 62
     7
100
AcDbLine
 10
2.3492281507
 20
3.7132320218
 30
0.0
 11
2.4211242924
 21
3.671722765
 31
0.0
  0
LINE
  5
FE
330
1F
100
AcDbEntity
  8
0
  6
HIDDEN
 62
     7
100
AcDbLine
 10
2.4211242924
 20
3.671722765
 30
0.0
 11
2.493020434
 21
3.7132320218
 31
0.0
  0
LINE
  5
FF
330
1F
100
AcDbEntity
  8
0
  6
HIDDEN
 62
     7
100
AcDbLine
 10
2.2912030325
 20
4.718993247
 30
0.0
 11
2.5510455522
 21
4.718993247
 31
0.0
  0
LINE
  5
100
330
1F
100
AcDbEntity
  8
0
  6
HIDDEN
 62
     7
100
AcDbLine
 10
2.5510455522
 20
4.0897019084
 30
0.0
 11
2.2912030325
 21
4.0897019084
 31
0.0
  0
LINE
  5
101
330
1F
100
AcDbEntity
  8
0
  6
HIDDEN
 62
     7
100
AcDbLine
 10
2.3112030325
 20
4.0697019084
 30
0.0
 11
2.5310455522
 21
4.0697019084
 31
0.0
  0
LINE
  5
102
330
1F
100
AcDbEntity
  8
0
  6
HIDDEN
 62
     7
100
AcDbLine
 10
2.4211242924
 20
4.638993247
 30
0.0
 11
2.4211242924
 21
4.738993247
 31
0.0
  0
LINE
  5
103
330
1F
100
AcDbEntity
  8
0
  6
HIDDEN
 62
     7
100
AcDbLine
 10
2.493020434
 20
4.638993247
 30
0.0
 11
2.4211242924
 21
4.638993247
 31
0.0
  0
LINE
  5
104
330
1F
100
AcDbEntity
  8
0
  6
HIDDEN
 62
     7
100
AcDbLine
 10
2.4211242924
 20
4.638993247
 30
0.0
 11
2.3492281507
 21
4.638993247
 31
0.0
  0
LINE
  5
105
330
1F
100
AcDbEntity
  8
0
  6
HIDDEN
 62
     7
100
AcDbLine
 10
2.3492281507
 20
4.638993247
 30
0.0
 11
2.3492281507
 21
4.738993247
 31
0.0
  0
LINE
  5
106
330
1F
100
AcDbEntity
  8
0
  6
HIDDEN
 62
     7
100
AcDbLine
 10
2.493020434
 20
4.638993247
 30
0.0
 11
2.493020434
 21
4.738993247
 31
0.0
  0
LINE
  5
107
330
1F
100
AcDbEntity
  8
0
  6
HIDDEN
 62
     7
100
AcDbLine
 10
4.3620691743
 20
4.718993247
 30
0.0
 11
4.1022266546
 21
4.718993247
 31
0.0
  0
LINE
  5
108
330
1F
100
AcDbEntity
  8
0
  6
HIDDEN
 62
     7
100
AcDbLine
 10
4.1022266546
 20
4.0897019084
 30
0.0
 11
4.3620691743
 21
4.0897019084
 31
0.0
  0
LINE
  5
109
330
1F
100
AcDbEntity
  8
0
  6
HIDDEN
 62
     7
100
AcDbLine
 10
4.3420691743
 20
4.0697019084
 30
0.0
 11
4.1222266546
 21
4.0697019084
 31
0.0
  0
LINE
  5
10A
330
1F
100
AcDbEntity
  8
0
  6
HIDDEN
 62
     7
100
AcDbLine
 10
4.2321479144
 20
4.638993247
 30
0.0
 11
4.2321479144
 21
4.738993247
 31
0.0
  0
LINE
  5
10B
330
1F
100
AcDbEntity
  8
0
  6
HIDDEN
 62
     7
100
AcDbLine
 10
4.1602517727
 20
4.638993247
 30
0.0
 11
4.2321479144
 21
4.638993247
 31
0.0
  0
LINE
  5
10C
330
1F
100
AcDbEntity
  8
0
  6
HIDDEN
 62
     7
100
AcDbLine
 10
4.2321479144
 20
4.638993247
 30
0.0
 11
4.3040440561
 21
4.638993247
 31
0.0
  0
LINE
  5
10D
330
1F
100
AcDbEntity
  8
0
  6
HIDDEN
 62
     7
100
AcDbLine
 10
4.3040440561
 20
4.638993247
 30
0.0
 11
4.3040440561
 21
4.738993247
 31
0.0
  0
LINE
  5
10E
330
1F
100
AcDbEntity
  8
0
  6
HIDDEN
 62
     7
100
AcDbLine
 10
4.1602517727
 20
4.638993247
 30
0.0
 11
4.1602517727
 21
4.738993247
 31
0.0
  0
LINE
  5
10F
330
1F
100
AcDbEntity
  8
0
  6
HIDDEN
 62
     7
100
AcDbLine
 10
4.5471085443
 20
4.0997019084
 30
0.0
 11
4.5171085443
 21
4.0697019084
 31
0.0
  0
LINE
  5
110
330
1F
100
AcDbEntity
  8
0
  6
HIDDEN
 62
     7
100
AcDbLine
 10
4.5171085443
 20
3.4397806486
 30
0.0
 11
4.5471085443
 21
3.4097806486
 31
0.0
  0
LINE
  5
111
330
1F
100
AcDbEntity
  8
0
  6
HIDDEN
 62
     7
100
AcDbLine
 10
2.1061636624
 20
3.4097806486
 30
0.0
 11
2.1361636624
 21
3.4397806486
 31
0.0
  0
LINE
  5
112
330
1F
100
AcDbEntity
  8
0
  6
HIDDEN
 62
     7
100
AcDbLine
 10
2.1361636624
 20
4.0697019084
 30
0.0
 11
2.1061636624
 21
4.0997019084
 31
0.0
  0
LINE
  5
113
330
1F
100
AcDbEntity
  8
0
  6
HIDDEN
 62
     7
100
AcDbLine
 10
3.4266361034
 20
4.0997019084
 30
0.0
 11
3.2266361034
 21
4.0997019084
 31
0.0
  0
LINE
  5
114
330
1F
100
AcDbEntity
  8
0
  6
HIDDEN
 62
     7
100
AcDbLine
 10
3.2266361034
 20
3.4097806486
 30
0.0
 11
3.4266361034
 21
3.4097806486
 31
0.0
  0
LINE
  5
115
330
1F
100
AcDbEntity
  8
0
  6
HIDDEN
 62
     7
100
AcDbLine
 10
2.2916661514
 20
4.0697019084
 30
0.0
 11
2.1361636624
 21
4.0697019084
 31
0.0
  0
LINE
  5
116
330
1F
100
AcDbEntity
  8
0
  6
HIDDEN
 62
     7
100
AcDbLine
 10
3.2266361034
 20
4.0697019084
 30
0.0
 11
2.5507381992
 21
4.0697019084
 31
0.0
  0
LINE
  5
117
330
1F
100
AcDbEntity
  8
0
  6
HIDDEN
 62
     7
100
AcDbLine
 10
2.1361636624
 20
3.4397806486
 30
0.0
 11
3.2266361034
 21
3.4397806486
 31
0.0
  0
LINE
  5
118
330
1F
100
AcDbEntity
  8
0
  6
HIDDEN
 62
     7
100
AcDbLine
 10
4.1026897734
 20
4.0697019084
 30
0.0
 11
3.4266361034
 21
4.0697019084
 31
0.0
  0
LINE
  5
119
330
1F
100
AcDbEntity
  8
0
  6
HIDDEN
 62
     7
100
AcDbLine
 10
4.5171085443
 20
4.0697019084
 30
0.0
 11
4.3617618213
 21
4.0697019084
 31
0.0
  0
LINE
  5
11A
330
1F
100
AcDbEntity
  8
0
  6
HIDDEN
 62
     7
100
AcDbLine
 10
3.4266361034
 20
3.4397806486
 30
0.0
 11
4.5171085443
 21
3.4397806486
 31
0.0
  0
LINE
  5
11B
330
1F
100
AcDbEntity
  8
0
  6
HIDDEN
 62
     7
100
AcDbLine
 10
4.080269514
 20
4.7389932502
 30
0.0
 11
4.1022266219
 21
4.7124996392
 31
0.0
  0
LINE
  5
11C
330
1F
100
AcDbEntity
  8
0
  6
HIDDEN
 62
     7
100
AcDbLine
 10
4.3620690935
 20
4.7124996215
 30
0.0
 11
4.3840261823
 21
4.738993232
 31
0.0
  0
LINE
  5
11D
330
1F
100
AcDbEntity
  8
0
  6
HIDDEN
 62
     7
100
AcDbLine
 10
2.269245892
 20
4.7389932502
 30
0.0
 11
2.2912029999
 21
4.7124996392
 31
0.0
  0
LINE
  5
11E
330
1F
100
AcDbEntity
  8
0
  6
HIDDEN
 62
     7
100
AcDbLine
 10
2.5510454715
 20
4.7124996215
 30
0.0
 11
2.5730025602
 21
4.738993232
 31
0.0
  0
LINE
  5
11F
330
1F
100
AcDbEntity
  8
0
  6
HIDDEN
 62
     7
100
AcDbLine
 10
2.5510455522
 20
4.0695755909
 30
0.0
 11
2.5510455522
 21
4.7124970062
 31
0.0
  0
LINE
  5
120
330
1F
100
AcDbEntity
  8
0
  6
HIDDEN
 62
     7
100
AcDbLine
 10
2.2912030325
 20
4.7124996361
 30
0.0
 11
2.2912030325
 21
4.0695111764
 31
0.0
  0
LINE
  5
121
330
1F
100
AcDbEntity
  8
0
  6
HIDDEN
 62
     7
100
AcDbLine
 10
4.3620691743
 20
4.0695755909
 30
0.0
 11
4.3620691743
 21
4.7124970062
 31
0.0
  0
LINE
  5
122
330
1F
100
AcDbEntity
  8
0
  6
HIDDEN
 62
     7
100
AcDbLine
 10
4.1022266546
 20
4.7124996361
 30
0.0
 11
4.1022266546
 21
4.0695111764
 31
0.0
  0
LINE
  5
123
330
1F
100
AcDbEntity
  8
0
  6
HIDDEN
 62
     7
100
AcDbLine
 10
2.5510455522
 20
4.718993247
 30
0.0
 11
2.5362894832
 21
4.733749316
 31
0.0
  0
LINE
  5
124
330
1F
100
AcDbEntity
  8
0
  6
HIDDEN
 62
     7
100
AcDbLine
 10
2.3059586667
 20
4.7337488812
 30
0.0
 11
2.2912030325
 21
4.718993247
 31
0.0
  0
LINE
  5
125
330
1F
100
AcDbEntity
  8
0
  6
HIDDEN
 62
     7
100
AcDbLine
 10
2.5510455522
 20
4.0897019084
 30
0.0
 11
2.5510455522
 21
4.718993247
 31
0.0
  0
LINE
  5
126
330
1F
100
AcDbEntity
  8
0
  6
HIDDEN
 62
     7
100
AcDbLine
 10
2.2912030325
 20
4.718993247
 30
0.0
 11
2.2912030325
 21
4.0897019084
 31
0.0
  0
LINE
  5
127
330
1F
100
AcDbEntity
  8
0
  6
HIDDEN
 62
     7
100
AcDbLine
 10
2.2912030325
 20
4.0897019084
 30
0.0
 11
2.3112030325
 21
4.0697019084
 31
0.0
  0
LINE
  5
128
330
1F
100
AcDbEntity
  8
0
  6
HIDDEN
 62
     7
100
AcDbLine
 10
2.5310455522
 20
4.0697019084
 30
0.0
 11
2.5510455522
 21
4.0897019084
 31
0.0
  0
LINE
  5
129
330
1F
100
AcDbEntity
  8
0
  6
HIDDEN
 62
     7
100
AcDbLine
 10
4.3620691743
 20
4.0897019084
 30
0.0
 11
4.3620691743
 21
4.718993247
 31
0.0
  0
LINE
  5
12A
330
1F
100
AcDbEntity
  8
0
  6
HIDDEN
 62
     7
100
AcDbLine
 10
4.1022266546
 20
4.718993247
 30
0.0
 11
4.1022266546
 21
4.0897019084
 31
0.0
  0
LINE
  5
12B
330
1F
100
AcDbEntity
  8
0
  6
HIDDEN
 62
     7
100
AcDbLine
 10
4.3620691743
 20
4.718993247
 30
0.0
 11
4.3473131052
 21
4.733749316
 31
0.0
  0
LINE
  5
12C
330
1F
100
AcDbEntity
  8
0
  6
HIDDEN
 62
     7
100
AcDbLine
 10
4.1169822888
 20
4.7337488812
 30
0.0
 11
4.1022266546
 21
4.718993247
 31
0.0
  0
LINE
  5
12D
330
1F
100
AcDbEntity
  8
0
  6
HIDDEN
 62
     7
100
AcDbLine
 10
4.1022266546
 20
4.0897019084
 30
0.0
 11
4.1222266546
 21
4.0697019084
 31
0.0
  0
LINE
  5
12E
330
1F
100
AcDbEntity
  8
0
  6
HIDDEN
 62
     7
100
AcDbLine
 10
4.3420691743
 20
4.0697019084
 30
0.0
 11
4.3620691743
 21
4.0897019084
 31
0.0
  0
LINE
  5
12F
330
1F
100
AcDbEntity
  8
0
  6
CONTINUOUS
 62
     7
100
AcDbLine
 10
9.2281714127
 20
3.6378548565
 30
0.0
 11
9.2351365748
 21
3.6448200187
 31
0.0
  0
LINE
  5
130
330
1F
100
AcDbEntity
  8
0
  6
CONTINUOUS
 62
     7
100
AcDbLine
 10
9.2351365748
 20
3.8646625384
 30
0.0
 11
9.2281714127
 21
3.8716277005
 31
0.0
  0
LINE
  5
131
330
1F
100
AcDbEntity
  8
0
  6
CONTINUOUS
 62
     7
100
AcDbLine
 10
8.3677710283
 20
4.7320280849
 30
0.0
 11
8.3608058662
 21
4.738993247
 31
0.0
  0
LINE
  5
132
330
1F
100
AcDbEntity
  8
0
  6
CONTINUOUS
 62
     7
100
AcDbLine
 10
8.1409633465
 20
4.738993247
 30
0.0
 11
8.1339981843
 21
4.7320280849
 31
0.0
  0
CIRCLE
  5
133
330
1F
100
AcDbEntity
  8
0
  6
CONTINUOUS
 62
     7
100
AcDbCircle
 10
8.2508846063
 20
3.7547412785
 30
0.0
 40
0.9542519685039395
  0
CIRCLE
  5
134
330
1F
100
AcDbEntity
  8
0
  6
CONTINUOUS
 62
     7
100
AcDbCircle
 10
8.2508846063
 20
3.7547412785
 30
0.0
 40
0.984251968503937
  0
CIRCLE
  5
135
330
1F
100
AcDbEntity
  8
0
  6
CONTINUOUS
 62
     7
100
AcDbCircle
 10
8.2508846063
 20
3.7547412785
 30
0.0
 40
0.3449606299212622
  0
CIRCLE
  5
136
330
1F
100
AcDbEntity
  8
0
  6
CONTINUOUS
 62
     7
100
AcDbCircle
 10
8.2508846063
 20
3.7547412785
 30
0.0
 40
0.3149606299212611
  0
LINE
  5
137
330
1F
100
AcDbEntity
  8
0
  6
CONTINUOUS
 62
     7
100
AcDbLine
 10
9.2351365748
 20
3.8646625384
 30
0.0
 11
9.2351365748
 21
3.6448200187
 31
0.0
  0
LINE
  5
138
330
1F
100
AcDbEntity
  8
0
  6
CONTINUOUS
 62
     7
100
AcDbLine
 10
8.1409633465
 20
4.738993247
 30
0.0
 11
8.3608058662
 21
4.738993247
 31
0.0
  0
SPLINE
  5
139
330
1F
100
AcDbEntity
  8
0
  6
HIDDEN
 62
     7
100
AcDbSpline
210
0.0
220
0.0
230
1.0
 70
     8
 71
     3
 72
    25
 73
    21
 74
     0
 42
0.00000001
 43
0.00000001
 40
0.0
 40
0.0
 40
0.0
 40
0.0
 40
0.0504972902254771
 40
0.1090007339266128
 40
0.1754701275303119
 40
0.2499213509985679
 40
0.3240229879560406
 40
0.390343613581645
 40
0.4488997531257479
 40
0.4997210244982661
 40
0.5507753492243262
 40
0.6095160924180069
 40
0.6759732551934396
 40
0.7501637606900005
 40
0.8245611275028822
 40
0.8909824244203391
 40
0.9212409530845128
 40
0.9495061908976026
 40
0.9757830890117165
 40
0.9999999999999999
 40
0.9999999999999999
 40
0.9999999999999999
 40
0.9999999999999999
 10
8.120965609716473
 20
4.700381286630025
 30
0.0
 10
8.121281958834794
 20
4.700464570854852
 30
0.0
 10
8.121964813022025
 20
4.700644343701872
 30
0.0
 10
8.1281417151913
 20
4.701886597763076
 30
0.0
 10
8.139855161721057
 20
4.70377738915182
 30
0.0
 10
8.158101513503034
 20
4.706450185231092
 30
0.0
 10
8.181139105840044
 20
4.709110918012752
 30
0.0
 10
8.205654250277892
 20
4.711011908772321
 30
0.0
 10
8.228912886970523
 20
4.712189957867675
 30
0.0
 10
8.25077030359076
 20
4.71264259323312
 30
0.0
 10
8.272657201888276
 20
4.712194140016678
 30
0.0
 10
8.29599788738167
 20
4.711018055428026
 30
0.0
 10
8.320571368515441
 20
4.709117138907745
 30
0.0
 10
8.343640540285872
 20
4.706453484734758
 30
0.0
 10
8.361868847814259
 20
4.703785615392455
 30
0.0
 10
8.37199093672106
 20
4.702146435095629
 30
0.0
 10
8.37694600380826
 20
4.701221882498094
 30
0.0
 10
8.379266840846308
 20
4.70074598639721
 30
0.0
 10
8.380576674599459
 20
4.700442081352948
 30
0.0
 10
8.380730749043137
 20
4.700400844997636
 30
0.0
 10
8.380804643390867
 20
4.700381067976179
 30
0.0
  0
LINE
  5
13A
330
1F
100
AcDbEntity
  8
0
  6
HIDDEN
 62
     7
100
AcDbLine
 10
8.2709679074
 20
4.7121334428
 30
0.0
 11
8.2508846063
 21
4.7124996361
 31
0.0
  0
LINE
  5
13B
330
1F
100
AcDbEntity
  8
0
  6
HIDDEN
 62
     7
100
AcDbLine
 10
9.2151365748
 20
3.6248200187
 30
0.0
 11
9.2151365748
 21
3.8846625384
 31
0.0
  0
LINE
  5
13C
330
1F
100
AcDbEntity
  8
0
  6
HIDDEN
 62
     7
100
AcDbLine
 10
8.5858452362
 20
3.7547412785
 30
0.0
 11
8.5858452362
 21
3.6248200187
 31
0.0
  0
LINE
  5
13D
330
1F
100
AcDbEntity
  8
0
  6
HIDDEN
 62
     7
100
AcDbLine
 10
8.5858452362
 20
3.8846625384
 30
0.0
 11
8.5858452362
 21
3.7547412785
 31
0.0
  0
LINE
  5
13E
330
1F
100
AcDbEntity
  8
0
  6
HIDDEN
 62
     7
100
AcDbLine
 10
8.5658452362
 20
3.7547412785
 30
0.0
 11
8.5658452362
 21
3.8646625384
 31
0.0
  0
LINE
  5
13F
330
1F
100
AcDbEntity
  8
0
  6
HIDDEN
 62
     7
100
AcDbLine
 10
8.5658452362
 20
3.6448200187
 30
0.0
 11
8.5658452362
 21
3.7547412785
 31
0.0
  0
LINE
  5
140
330
1F
100
AcDbEntity
  8
0
  6
HIDDEN
 62
     7
100
AcDbLine
 10
9.1351365748
 20
3.7962505353
 30
0.0
 11
9.2351365748
 21
3.7962505353
 31
0.0
  0
LINE
  5
141
330
1F
100
AcDbEntity
  8
0
  6
HIDDEN
 62
     7
100
AcDbLine
 10
9.1351365748
 20
3.7132320218
 30
0.0
 11
9.2351365748
 21
3.7132320218
 31
0.0
  0
LINE
  5
142
330
1F
100
AcDbEntity
  8
0
  6
HIDDEN
 62
     7
100
AcDbLine
 10
9.1351365748
 20
3.7132320218
 30
0.0
 11
9.1351365748
 21
3.671722765
 31
0.0
  0
LINE
  5
143
330
1F
100
AcDbEntity
  8
0
  6
HIDDEN
 62
     7
100
AcDbLine
 10
9.1351365748
 20
3.7962505353
 30
0.0
 11
9.1351365748
 21
3.7132320218
 31
0.0
  0
LINE
  5
144
330
1F
100
AcDbEntity
  8
0
  6
HIDDEN
 62
     7
100
AcDbLine
 10
9.1351365748
 20
3.837759792
 30
0.0
 11
9.1351365748
 21
3.7962505353
 31
0.0
  0
LINE
  5
145
330
1F
100
AcDbEntity
  8
0
  6
HIDDEN
 62
     7
100
AcDbLine
 10
9.1351365748
 20
3.837759792
 30
0.0
 11
9.2351365748
 21
3.837759792
 31
0.0
  0
LINE
  5
146
330
1F
100
AcDbEntity
  8
0
  6
HIDDEN
 62
     7
100
AcDbLine
 10
9.1351365748
 20
3.671722765
 30
0.0
 11
9.2351365748
 21
3.671722765
 31
0.0
  0
LINE
  5
147
330
1F
100
AcDbEntity
  8
0
  6
HIDDEN
 62
     7
100
AcDbLine
 10
8.2508846063
 20
4.0697019084
 30
0.0
 11
8.1409633465
 21
4.0697019084
 31
0.0
  0
LINE
  5
148
330
1F
100
AcDbEntity
  8
0
  6
HIDDEN
 62
     7
100
AcDbLine
 10
8.3608058662
 20
4.0697019084
 30
0.0
 11
8.2508846063
 21
4.0697019084
 31
0.0
  0
LINE
  5
149
330
1F
100
AcDbEntity
  8
0
  6
HIDDEN
 62
     7
100
AcDbLine
 10
8.2508846063
 20
4.0897019084
 30
0.0
 11
8.3808058662
 21
4.0897019084
 31
0.0
  0
LINE
  5
14A
330
1F
100
AcDbEntity
  8
0
  6
HIDDEN
 62
     7
100
AcDbLine
 10
8.1209633465
 20
4.0897019084
 30
0.0
 11
8.2508846063
 21
4.0897019084
 31
0.0
  0
LINE
  5
14B
330
1F
100
AcDbEntity
  8
0
  6
HIDDEN
 62
     7
100
AcDbLine
 10
8.3808058662
 20
4.718993247
 30
0.0
 11
8.1209633465
 21
4.718993247
 31
0.0
  0
LINE
  5
14C
330
1F
100
AcDbEntity
  8
0
  6
HIDDEN
 62
     7
100
AcDbLine
 10
8.2923938631
 20
4.638993247
 30
0.0
 11
8.3339031198
 21
4.638993247
 31
0.0
  0
LINE
  5
14D
330
1F
100
AcDbEntity
  8
0
  6
HIDDEN
 62
     7
100
AcDbLine
 10
8.2093753496
 20
4.638993247
 30
0.0
 11
8.2923938631
 21
4.638993247
 31
0.0
  0
LINE
  5
14E
330
1F
100
AcDbEntity
  8
0
  6
HIDDEN
 62
     7
100
AcDbLine
 10
8.2923938631
 20
4.638993247
 30
0.0
 11
8.2923938631
 21
4.738993247
 31
0.0
  0
LINE
  5
14F
330
1F
100
AcDbEntity
  8
0
  6
HIDDEN
 62
     7
100
AcDbLine
 10
8.2093753496
 20
4.638993247
 30
0.0
 11
8.2093753496
 21
4.738993247
 31
0.0
  0
LINE
  5
150
330
1F
100
AcDbEntity
  8
0
  6
HIDDEN
 62
     7
100
AcDbLine
 10
8.1678660928
 20
4.638993247
 30
0.0
 11
8.2093753496
 21
4.638993247
 31
0.0
  0
LINE
  5
151
330
1F
100
AcDbEntity
  8
0
  6
HIDDEN
 62
     7
100
AcDbLine
 10
8.3339031198
 20
4.638993247
 30
0.0
 11
8.3339031198
 21
4.738993247
 31
0.0
  0
LINE
  5
152
330
1F
100
AcDbEntity
  8
0
  6
HIDDEN
 62
     7
100
AcDbLine
 10
8.1678660928
 20
4.638993247
 30
0.0
 11
8.1678660928
 21
4.738993247
 31
0.0
  0
LINE
  5
153
330
1F
100
AcDbEntity
  8
0
  6
HIDDEN
 62
     7
100
AcDbLine
 10
8.0948049832
 20
4.7265391424
 30
0.0
 11
8.1209633582
 21
4.700380765
 31
0.0
  0
LINE
  5
154
330
1F
100
AcDbEntity
  8
0
  6
HIDDEN
 62
     7
100
AcDbLine
 10
8.3808058723
 20
4.7003807628
 30
0.0
 11
8.4069642509
 21
4.7265391402
 31
0.0
  0
LINE
  5
155
330
1F
100
AcDbEntity
  8
0
  6
HIDDEN
 62
     7
100
AcDbLine
 10
8.3808058662
 20
4.0416570582
 30
0.0
 11
8.3808058662
 21
4.7003810754
 31
0.0
  0
LINE
  5
156
330
1F
100
AcDbEntity
  8
0
  6
HIDDEN
 62
     7
100
AcDbLine
 10
8.1209633465
 20
4.7003821625
 30
0.0
 11
8.1209633465
 21
4.0417585883
 31
0.0
  0
LINE
  5
157
330
1F
100
AcDbEntity
  8
0
  6
HIDDEN
 62
     7
100
AcDbLine
 10
8.5379607003
 20
3.6248200187
 30
0.0
 11
9.2265809089
 21
3.6248200187
 31
0.0
  0
LINE
  5
158
330
1F
100
AcDbEntity
  8
0
  6
HIDDEN
 62
     7
100
AcDbLine
 10
9.2265282314
 20
3.8846625384
 30
0.0
 11
8.5380127624
 21
3.8846625384
 31
0.0
  0
LINE
  5
159
330
1F
100
AcDbEntity
  8
0
  6
HIDDEN
 62
     7
100
AcDbLine
 10
9.2151365748
 20
3.6248200187
 30
0.0
 11
9.2281714127
 21
3.6378548565
 31
0.0
  0
LINE
  5
15A
330
1F
100
AcDbEntity
  8
0
  6
HIDDEN
 62
     7
100
AcDbLine
 10
9.2281714127
 20
3.8716277005
 30
0.0
 11
9.2151365748
 21
3.8846625384
 31
0.0
  0
LINE
  5
15B
330
1F
100
AcDbEntity
  8
0
  6
HIDDEN
 62
     7
100
AcDbLine
 10
8.5858452362
 20
3.6248200187
 30
0.0
 11
9.2151365748
 21
3.6248200187
 31
0.0
  0
LINE
  5
15C
330
1F
100
AcDbEntity
  8
0
  6
HIDDEN
 62
     7
100
AcDbLine
 10
9.2151365748
 20
3.8846625384
 30
0.0
 11
8.5858452362
 21
3.8846625384
 31
0.0
  0
LINE
  5
15D
330
1F
100
AcDbEntity
  8
0
  6
HIDDEN
 62
     7
100
AcDbLine
 10
8.5858452362
 20
3.8846625384
 30
0.0
 11
8.5658452362
 21
3.8646625384
 31
0.0
  0
LINE
  5
15E
330
1F
100
AcDbEntity
  8
0
  6
HIDDEN
 62
     7
100
AcDbLine
 10
8.5658452362
 20
3.6448200187
 30
0.0
 11
8.5858452362
 21
3.6248200187
 31
0.0
  0
LINE
  5
15F
330
1F
100
AcDbEntity
  8
0
  6
HIDDEN
 62
     7
100
AcDbLine
 10
8.1209633465
 20
4.0897019084
 30
0.0
 11
8.1409633465
 21
4.0697019084
 31
0.0
  0
LINE
  5
160
330
1F
100
AcDbEntity
  8
0
  6
HIDDEN
 62
     7
100
AcDbLine
 10
8.3608058662
 20
4.0697019084
 30
0.0
 11
8.3808058662
 21
4.0897019084
 31
0.0
  0
LINE
  5
161
330
1F
100
AcDbEntity
  8
0
  6
HIDDEN
 62
     7
100
AcDbLine
 10
8.3808058662
 20
4.718993247
 30
0.0
 11
8.3677710283
 21
4.7320280849
 31
0.0
  0
LINE
  5
162
330
1F
100
AcDbEntity
  8
0
  6
HIDDEN
 62
     7
100
AcDbLine
 10
8.1339981843
 20
4.7320280849
 30
0.0
 11
8.1209633465
 21
4.718993247
 31
0.0
  0
LINE
  5
163
330
1F
100
AcDbEntity
  8
0
  6
HIDDEN
 62
     7
100
AcDbLine
 10
8.3808058662
 20
4.0897019084
 30
0.0
 11
8.3808058662
 21
4.718993247
 31
0.0
  0
LINE
  5
164
330
1F
100
AcDbEntity
  8
0
  6
HIDDEN
 62
     7
100
AcDbLine
 10
8.1209633465
 20
4.718993247
 30
0.0
 11
8.1209633465
 21
4.0897019084
 31
0.0
  0
LINE
  5
165
330
1F
100
AcDbEntity
  8
0
  6
CONTINUOUS
 62
     7
100
AcDbLine
 10
2.1361636624
 20
5.6877251704
 30
0.0
 11
4.5171085443
 21
5.6877251704
 31
0.0
  0
LINE
  5
166
330
1F
100
AcDbEntity
  8
0
  6
CONTINUOUS
 62
     7
100
AcDbLine
 10
2.2912030325
 20
7.6562291074
 30
0.0
 11
2.1361636624
 21
7.6562291074
 31
0.0
  0
LINE
  5
167
330
1F
100
AcDbEntity
  8
0
  6
CONTINUOUS
 62
     7
100
AcDbLine
 10
4.1022266546
 20
7.6562291074
 30
0.0
 11
2.5506632954
 21
7.6562291074
 31
0.0
  0
LINE
  5
168
330
1F
100
AcDbEntity
  8
0
  6
CONTINUOUS
 62
     7
100
AcDbLine
 10
4.5171085443
 20
7.6562291074
 30
0.0
 11
4.3616869174
 21
7.6562291074
 31
0.0
  0
LINE
  5
169
330
1F
100
AcDbEntity
  8
0
  6
CONTINUOUS
 62
     7
100
AcDbLine
 10
2.1361636624
 20
7.6562291074
 30
0.0
 11
2.1061636624
 21
7.6262291074
 31
0.0
  0
LINE
  5
16A
330
1F
100
AcDbEntity
  8
0
  6
CONTINUOUS
 62
     7
100
AcDbLine
 10
2.1061636624
 20
5.7177251704
 30
0.0
 11
2.1361636624
 21
5.6877251704
 31
0.0
  0
LINE
  5
16B
330
1F
100
AcDbEntity
  8
0
  6
CONTINUOUS
 62
     7
100
AcDbLine
 10
4.5171085443
 20
5.6877251704
 30
0.0
 11
4.5471085443
 21
5.7177251704
 31
0.0
  0
LINE
  5
16C
330
1F
100
AcDbEntity
  8
0
  6
CONTINUOUS
 62
     7
100
AcDbLine
 10
4.5471085443
 20
7.6262291074
 30
0.0
 11
4.5171085443
 21
7.6562291074
 31
0.0
  0
LINE
  5
16D
330
1F
100
AcDbEntity
  8
0
  6
CONTINUOUS
 62
     7
100
AcDbLine
 10
4.3442545995
 20
7.6540436822
 30
0.0
 11
4.3420691743
 21
7.6562291074
 31
0.0
  0
LINE
  5
16E
330
1F
100
AcDbEntity
  8
0
  6
CONTINUOUS
 62
     7
100
AcDbLine
 10
4.1222266546
 20
7.6562291074
 30
0.0
 11
4.1200433059
 21
7.6540457587
 31
0.0
  0
LINE
  5
16F
330
1F
100
AcDbEntity
  8
0
  6
CONTINUOUS
 62
     7
100
AcDbLine
 10
2.5332309774
 20
7.6540436822
 30
0.0
 11
2.5310455522
 21
7.6562291074
 31
0.0
  0
LINE
  5
170
330
1F
100
AcDbEntity
  8
0
  6
CONTINUOUS
 62
     7
100
AcDbLine
 10
2.3112030325
 20
7.6562291074
 30
0.0
 11
2.3090196838
 21
7.6540457587
 31
0.0
  0
LINE
  5
171
330
1F
100
AcDbEntity
  8
0
  6
CONTINUOUS
 62
     7
100
AcDbLine
 10
4.5171085443
 20
5.6877251704
 30
0.0
 11
4.5171085443
 21
7.6562291074
 31
0.0
  0
LINE
  5
172
330
1F
100
AcDbEntity
  8
0
  6
CONTINUOUS
 62
     7
100
AcDbLine
 10
2.1361636624
 20
7.6562291074
 30
0.0
 11
2.1361636624
 21
5.6877251704
 31
0.0
  0
SPLINE
  5
173
330
1F
100
AcDbEntity
  8
0
  6
CONTINUOUS
 62
     7
100
AcDbSpline
210
0.0
220
0.0
230
1.0
 70
     8
 71
     3
 72
    32
 73
    28
 74
     0
 42
0.00000001
 43
0.00000001
 40
-0.1567457381496578
 40
-0.1256937459801331
 40
-0.0629861369658155
 40
0.0
 40
0.0631037282750016
 40
0.1258268593656513
 40
0.1679790504343374
 40
0.208274313134353
 40
0.2498650350182281
 40
0.2804427750890034
 40
0.3115804050631772
 40
0.3427244805230276
 40
0.3737497582669433
 40
0.4049181236973024
 40
0.4366819192213072
 40
0.4685677594074877
 40
0.5001132484817964
 40
0.5427654337178272
 40
0.5838371767490762
 40
0.6262701724412402
 40
0.6684759873496251
 40
0.7087790913371022
 40
0.7503296360545012
 40
0.7809322735754775
 40
0.8120987900456026
 40
0.8432542618503421
 40
0.8743062540198668
 40
0.9370138630341844
 40
0.9999999999999999
 40
1.063103728275002
 40
1.125826859365651
 40
1.167979050434337
 10
2.27618992035525
 20
6.610605556013855
 30
0.0
 10
2.265742699732395
 20
6.672007744280237
 30
0.0
 10
2.276278384565179
 20
6.733460819834675
 30
0.0
 10
2.307489507293265
 20
6.779322297748085
 30
0.0
 10
2.34395623475795
 20
6.809046962791083
 30
0.0
 10
2.381197314976492
 20
6.824887469352581
 30
0.0
 10
2.417613409484758
 20
6.829323096255561
 30
0.0
 10
2.450950639878628
 20
6.826067554198065
 30
0.0
 10
2.479624183884591
 20
6.816899007876088
 30
0.0
 10
2.506157335939223
 20
6.802507955386125
 30
0.0
 10
2.529221040422853
 20
6.783034989069129
 30
0.0
 10
2.548159185543886
 20
6.759279833473835
 30
0.0
 10
2.562135670409107
 20
6.731984952651866
 30
0.0
 10
2.571056060956842
 20
6.702460128045666
 30
0.0
 10
2.57423565175785
 20
6.668232970717221
 30
0.0
 10
2.569953663576885
 20
6.630921933013055
 30
0.0
 10
2.554597552040034
 20
6.592781841256572
 30
0.0
 10
2.529625951444556
 20
6.560517082769016
 30
0.0
 10
2.498217429935579
 20
6.534863648462093
 30
0.0
 10
2.460970173395199
 20
6.519049030034746
 30
0.0
 10
2.424552840639674
 20
6.514625217616167
 30
0.0
 10
2.391211996305151
 20
6.517914334317958
 30
0.0
 10
2.362534226386689
 20
6.527115874504391
 30
0.0
 10
2.335967574524692
 20
6.541536565308778
 30
0.0
 10
2.305250630648541
 20
6.567627349769412
 30
0.0
 10
2.27618992035525
 20
6.610605556013855
 30
0.0
 10
2.265742699732395
 20
6.672007744280237
 30
0.0
 10
2.276278384565179
 20
6.733460819834675
 30
0.0
  0
SPLINE
  5
174
330
1F
100
AcDbEntity
  8
0
  6
CONTINUOUS
 62
     7
100
AcDbSpline
210
0.0
220
0.0
230
1.0
 70
     8
 71
     3
 72
    32
 73
    28
 74
     0
 42
0.00000001
 43
0.00000001
 40
-0.156745738149719
 40
-0.1256937459801324
 40
-0.0629861369658145
 40
0.0
 40
0.0631037282750649
 40
0.12582685936566
 40
0.1679790504344501
 40
0.2082743131344656
 40
0.2498650350182372
 40
0.2804427750889568
 40
0.3115804050631786
 40
0.3427244805229736
 40
0.3737497582669511
 40
0.4049181236971411
 40
0.4366819192213041
 40
0.4685677594072672
 40
0.5001132484818009
 40
0.5427654337179196
 40
0.5838371767491682
 40
0.6262701724412614
 40
0.6684759873497136
 40
0.7087790913371901
 40
0.7503296360545026
 40
0.7809322735754178
 40
0.8120987900456011
 40
0.8432542618502809
 40
0.8743062540198675
 40
0.9370138630341854
 40
0.9999999999999999
 40
1.063103728275065
 40
1.12582685936566
 40
1.16797905043445
 10
4.087213542402489
 20
6.610605556013853
 30
0.0
 10
4.076766321779646
 20
6.672007744280257
 30
0.0
 10
4.087302006612396
 20
6.733460819834708
 30
0.0
 10
4.118513129340541
 20
6.779322297748132
 30
0.0
 10
4.154979856805265
 20
6.809046962791103
 30
0.0
 10
4.192220937023796
 20
6.824887469352619
 30
0.0
 10
4.228637031532022
 20
6.82932309625557
 30
0.0
 10
4.261974261925845
 20
6.826067554198017
 30
0.0
 10
4.290647805931803
 20
6.816899007876104
 30
0.0
 10
4.317180957986477
 20
6.802507955386174
 30
0.0
 10
4.340244662470053
 20
6.783034989069183
 30
0.0
 10
4.359182807591033
 20
6.759279833473836
 30
0.0
 10
4.373159292456307
 20
6.731984952651985
 30
0.0
 10
4.382079683004138
 20
6.702460128045749
 30
0.0
 10
4.385259273805078
 20
6.668232970717263
 30
0.0
 10
4.380977285624145
 20
6.630921933012999
 30
0.0
 10
4.365621174087298
 20
6.592781841256498
 30
0.0
 10
4.340649573491767
 20
6.560517082768981
 30
0.0
 10
4.309241051982751
 20
6.534863648462113
 30
0.0
 10
4.271993795442389
 20
6.519049030034757
 30
0.0
 10
4.235576462686909
 20
6.514625217616162
 30
0.0
 10
4.20223561835242
 20
6.517914334317974
 30
0.0
 10
4.17355784843397
 20
6.527115874504376
 30
0.0
 10
4.146991196571943
 20
6.541536565308752
 30
0.0
 10
4.116274252695804
 20
6.567627349769403
 30
0.0
 10
4.087213542402489
 20
6.610605556013853
 30
0.0
 10
4.076766321779646
 20
6.672007744280257
 30
0.0
 10
4.087302006612396
 20
6.733460819834708
 30
0.0
  0
SPLINE
  5
175
330
1F
100
AcDbEntity
  8
0
  6
CONTINUOUS
 62
     7
100
AcDbSpline
210
0.0
220
0.0
230
1.0
 70
     8
 71
     3
 72
    26
 73
    22
 74
     0
 42
0.00000001
 43
0.00000001
 40
0.0
 40
0.0
 40
0.0
 40
0.0
 40
0.0164709511326498
 40
0.0706359778703211
 40
0.123083336665626
 40
0.1770353312143208
 40
0.2297862683890576
 40
0.2840476166732566
 40
0.3371217467325747
 40
0.391742906384011
 40
0.4446542615772467
 40
0.4991236875691367
 40
0.5516342431974063
 40
0.6056698358512999
 40
0.6581692261417322
 40
0.712169121885309
 40
0.7650612007152634
 40
0.8194749962293959
 40
0.8725543350242287
 40
0.9271898251877368
 40
1.0
 40
1.0
 40
1.0
 40
1.0
 10
4.361686917433124
 20
7.656178770062978
 30
0.0
 10
4.361794876001265
 20
7.656192984281817
 30
0.0
 10
4.362257858312894
 20
7.656253942221598
 30
0.0
 10
4.359364456063418
 20
7.655871853261918
 30
0.0
 10
4.352994241471281
 20
7.65506178813311
 30
0.0
 10
4.343068930043788
 20
7.653879409119996
 30
0.0
 10
4.329990640109027
 20
7.652475544244887
 30
0.0
 10
4.314217613338456
 20
7.651012928853025
 30
0.0
 10
4.295930543944984
 20
7.649636630659774
 30
0.0
 10
4.275964073312034
 20
7.648526421666358
 30
0.0
 10
4.254565997001147
 20
7.647793759159352
 30
0.0
 10
4.232792507415817
 20
7.647534432298504
 30
0.0
 10
4.210860106479982
 20
7.647769338469891
 30
0.0
 10
4.189789120944841
 20
7.648463128021025
 30
0.0
 10
4.169735942963929
 20
7.649548388212251
 30
0.0
 10
4.151565768072363
 20
7.650888945822186
 30
0.0
 10
4.135470376823139
 20
7.652358080567259
 30
0.0
 10
4.122159922479999
 20
7.653773896190991
 30
0.0
 10
4.111924744253547
 20
7.654983195500991
 30
0.0
 10
4.104007902758973
 20
7.655990725501408
 30
0.0
 10
4.10287429107142
 20
7.656142435145489
 30
0.0
 10
4.102226654565655
 20
7.656229107420363
 30
0.0
  0
SPLINE
  5
176
330
1F
100
AcDbEntity
  8
0
  6
CONTINUOUS
 62
     7
100
AcDbSpline
210
0.0
220
0.0
230
1.0
 70
     8
 71
     3
 72
    26
 73
    22
 74
     0
 42
0.00000001
 43
0.00000001
 40
0.0
 40
0.0
 40
0.0
 40
0.0
 40
0.0164709511326498
 40
0.0706359778703211
 40
0.123083336665626
 40
0.1770353312143208
 40
0.2297862683890576
 40
0.2840476166732566
 40
0.3371217467325747
 40
0.391742906384011
 40
0.4446542615772467
 40
0.4991236875691367
 40
0.5516342431974063
 40
0.6056698358512999
 40
0.6581692261417322
 40
0.712169121885309
 40
0.7650612007152634
 40
0.8194749962293959
 40
0.8725543350242287
 40
0.9271898251877368
 40
1.0
 40
1.0
 40
1.0
 40
1.0
 10
2.550663295385879
 20
7.656178770062978
 30
0.0
 10
2.550771253954021
 20
7.656192984281817
 30
0.0
 10
2.55123423626565
 20
7.656253942221598
 30
0.0
 10
2.548340834016174
 20
7.655871853261918
 30
0.0
 10
2.541970619424037
 20
7.65506178813311
 30
0.0
 10
2.532045307996543
 20
7.653879409119996
 30
0.0
 10
2.518967018061782
 20
7.652475544244887
 30
0.0
 10
2.503193991291211
 20
7.651012928853025
 30
0.0
 10
2.484906921897739
 20
7.649636630659774
 30
0.0
 10
2.464940451264789
 20
7.648526421666358
 30
0.0
 10
2.443542374953903
 20
7.647793759159352
 30
0.0
 10
2.421768885368571
 20
7.647534432298504
 30
0.0
 10
2.399836484432738
 20
7.647769338469891
 30
0.0
 10
2.378765498897596
 20
7.648463128021025
 30
0.0
 10
2.358712320916685
 20
7.649548388212251
 30
0.0
 10
2.340542146025117
 20
7.650888945822186
 30
0.0
 10
2.324446754775896
 20
7.652358080567259
 30
0.0
 10
2.311136300432755
 20
7.653773896190991
 30
0.0
 10
2.300901122206303
 20
7.654983195500991
 30
0.0
 10
2.292984280711728
 20
7.655990725501408
 30
0.0
 10
2.291850669024176
 20
7.656142435145489
 30
0.0
 10
2.291203032518411
 20
7.656229107420363
 30
0.0
  0
SPLINE
  5
177
330
1F
100
AcDbEntity
  8
0
  6
CONTINUOUS
 62
     7
100
AcDbSpline
210
0.0
220
0.0
230
1.0
 70
     8
 71
     3
 72
     9
 73
     5
 74
     0
 42
0.00000001
 43
0.00000001
 40
0.0
 40
0.0
 40
0.0
 40
0.0
 40
0.8348977152058834
 40
1.0
 40
1.0
 40
1.0
 40
1.0
 10
2.291203032518411
 20
6.671977138916426
 30
0.0
 10
2.291267493242005
 20
6.664985312739422
 30
0.0
 10
2.291344701171096
 20
6.656610842370581
 30
0.0
 10
2.293530192704752
 20
6.648601967311766
 30
0.0
 10
2.293891022350357
 20
6.647279683740924
 30
0.0
  0
ARC
  5
178
330
1F
100
AcDbEntity
  8
0
  6
CONTINUOUS
 62
     7
100
AcDbCircle
 10
2.4211215971
 20
6.6719800172
 30
0.0
 40
0.1299185646138773
100
AcDbArc
 50
359.9642666664
 51
180.0012693693
  0
SPLINE
  5
179
330
1F
100
AcDbEntity
  8
0
  6
CONTINUOUS
 62
     7
100
AcDbSpline
210
0.0
220
0.0
230
1.0
 70
     8
 71
     3
 72
    28
 73
    24
 74
     0
 42
0.00000001
 43
0.00000001
 40
-0.125254711467689
 40
-0.0766085079977427
 40
-0.0348632008549261
 40
0.0
 40
0.0547192654971331
 40
0.1246588361136631
 40
0.1735040682752077
 40
0.2152483166992377
 40
0.2499089288605895
 40
0.3044179678516585
 40
0.3746795622191723
 40
0.4232935043482194
 40
0.4650023221619995
 40
0.499824710292631
 40
0.5546932380044789
 40
0.6248202307664887
 40
0.6736093791310374
 40
0.7153201043324677
 40
0.7499700111459019
 40
0.7500002740377505
 40
0.8045132437223609
 40
0.874745288532311
 40
0.9233914920022573
 40
0.9651367991450739
 40
1.0
 40
1.054719265497133
 40
1.124658836113663
 40
1.173504068275208
 10
4.104513199559157
 20
6.702273394009125
 30
0.0
 10
4.100589358676655
 20
6.666597802988233
 30
0.0
 10
4.108098164354081
 20
6.623091206352221
 30
0.0
 10
4.134120207304006
 20
6.5820981413874
 30
0.0
 10
4.169631009415893
 20
6.556088258547352
 30
0.0
 10
4.201887773455609
 20
6.544340451489523
 30
0.0
 10
4.237447867544738
 20
6.540431714139895
 30
0.0
 10
4.280930460491438
 20
6.547878706947785
 30
0.0
 10
4.321933669273603
 20
6.57385545059993
 30
0.0
 10
4.347968923671252
 20
6.60935720187544
 30
0.0
 10
4.359753868034526
 20
6.641570463833509
 30
0.0
 10
4.363715021627133
 20
6.67726067058301
 30
0.0
 10
4.356219786557393
 20
6.720858126652317
 30
0.0
 10
4.330134618529521
 20
6.761914326195273
 30
0.0
 10
4.294574683278758
 20
6.787907516908146
 30
0.0
 10
4.262356094267743
 20
6.799629209036556
 30
0.0
 10
4.241566260959497
 20
6.801897504790849
 30
0.0
 10
4.217364548934691
 20
6.801899803988044
 30
0.0
 10
4.183274496303626
 20
6.796045372609132
 30
0.0
 10
4.142313139513428
 20
6.770050044947869
 30
0.0
 10
4.116283658764096
 20
6.734524341247863
 30
0.0
 10
4.104513199559157
 20
6.702273394009125
 30
0.0
 10
4.100589358676655
 20
6.666597802988233
 30
0.0
 10
4.108098164354081
 20
6.623091206352221
 30
0.0
  0
LINE
  5
17A
330
1F
100
AcDbEntity
  8
0
  6
CONTINUOUS
 62
     7
100
AcDbLine
 10
2.1061636624
 20
5.7177251704
 30
0.0
 11
2.1061636624
 21
7.6262291074
 31
0.0
  0
LINE
  5
17B
330
1F
100
AcDbEntity
  8
0
  6
CONTINUOUS
 62
     7
100
AcDbLine
 10
4.5471085443
 20
7.6262291074
 30
0.0
 11
4.5471085443
 21
5.7177251704
 31
0.0
  0
LINE
  5
17C
330
1F
100
AcDbEntity
  8
0
  6
CONTINUOUS
 62
     7
100
AcDbLine
 10
4.1222266546
 20
7.6562291074
 30
0.0
 11
4.3420691743
 21
7.6562291074
 31
0.0
  0
LINE
  5
17D
330
1F
100
AcDbEntity
  8
0
  6
CONTINUOUS
 62
     7
100
AcDbLine
 10
2.5310455522
 20
7.6562291074
 30
0.0
 11
2.3112030325
 21
7.6562291074
 31
0.0
  0
CIRCLE
  5
17E
330
1F
100
AcDbEntity
  8
0
  6
CONTINUOUS
 62
     7
100
AcDbCircle
 10
2.4211242924
 20
6.6719771389
 30
0.0
 40
0.1099212598425194
  0
LINE
  5
17F
330
1F
100
AcDbEntity
  8
0
  6
CONTINUOUS
 62
     7
100
AcDbLine
 10
2.3492281507
 20
6.6304678822
 30
0.0
 11
2.3492281507
 21
6.7134863957
 31
0.0
  0
LINE
  5
180
330
1F
100
AcDbEntity
  8
0
  6
CONTINUOUS
 62
     7
100
AcDbLine
 10
2.4211242924
 20
6.5889586254
 30
0.0
 11
2.3492281507
 21
6.6304678822
 31
0.0
  0
LINE
  5
181
330
1F
100
AcDbEntity
  8
0
  6
CONTINUOUS
 62
     7
100
AcDbLine
 10
2.493020434
 20
6.6304678822
 30
0.0
 11
2.4211242924
 21
6.5889586254
 31
0.0
  0
LINE
  5
182
330
1F
100
AcDbEntity
  8
0
  6
CONTINUOUS
 62
     7
100
AcDbLine
 10
2.493020434
 20
6.7134863957
 30
0.0
 11
2.493020434
 21
6.6304678822
 31
0.0
  0
LINE
  5
183
330
1F
100
AcDbEntity
  8
0
  6
CONTINUOUS
 62
     7
100
AcDbLine
 10
2.4211242924
 20
6.7549956524
 30
0.0
 11
2.493020434
 21
6.7134863957
 31
0.0
  0
LINE
  5
184
330
1F
100
AcDbEntity
  8
0
  6
CONTINUOUS
 62
     7
100
AcDbLine
 10
2.3492281507
 20
6.7134863957
 30
0.0
 11
2.4211242924
 21
6.7549956524
 31
0.0
  0
CIRCLE
  5
185
330
1F
100
AcDbEntity
  8
0
  6
CONTINUOUS
 62
     7
100
AcDbCircle
 10
2.4211242924
 20
6.6719771389
 30
0.0
 40
0.1299212598425199
  0
CIRCLE
  5
186
330
1F
100
AcDbEntity
  8
0
  6
CONTINUOUS
 62
     7
100
AcDbCircle
 10
4.2321479144
 20
6.6719771389
 30
0.0
 40
0.109921259842519
  0
LINE
  5
187
330
1F
100
AcDbEntity
  8
0
  6
CONTINUOUS
 62
     7
100
AcDbLine
 10
4.2321479144
 20
6.7549956524
 30
0.0
 11
4.1602517727
 21
6.7134863957
 31
0.0
  0
LINE
  5
188
330
1F
100
AcDbEntity
  8
0
  6
CONTINUOUS
 62
     7
100
AcDbLine
 10
4.1602517727
 20
6.7134863957
 30
0.0
 11
4.1602517727
 21
6.6304678822
 31
0.0
  0
LINE
  5
189
330
1F
100
AcDbEntity
  8
0
  6
CONTINUOUS
 62
     7
100
AcDbLine
 10
4.1602517727
 20
6.6304678822
 30
0.0
 11
4.2321479144
 21
6.5889586254
 31
0.0
  0
LINE
  5
18A
330
1F
100
AcDbEntity
  8
0
  6
CONTINUOUS
 62
     7
100
AcDbLine
 10
4.2321479144
 20
6.5889586254
 30
0.0
 11
4.3040440561
 21
6.6304678822
 31
0.0
  0
LINE
  5
18B
330
1F
100
AcDbEntity
  8
0
  6
CONTINUOUS
 62
     7
100
AcDbLine
 10
4.3040440561
 20
6.6304678822
 30
0.0
 11
4.3040440561
 21
6.7134863957
 31
0.0
  0
LINE
  5
18C
330
1F
100
AcDbEntity
  8
0
  6
CONTINUOUS
 62
     7
100
AcDbLine
 10
4.3040440561
 20
6.7134863957
 30
0.0
 11
4.2321479144
 21
6.7549956524
 31
0.0
  0
CIRCLE
  5
18D
330
1F
100
AcDbEntity
  8
0
  6
CONTINUOUS
 62
     7
100
AcDbCircle
 10
4.2321479144
 20
6.6719771389
 30
0.0
 40
0.1299212598425195
  0
SPLINE
  5
18E
330
1F
100
AcDbEntity
  8
0
  6
HIDDEN
 62
     7
100
AcDbSpline
210
0.0
220
0.0
230
1.0
 70
     8
 71
     3
 72
    23
 73
    19
 74
     0
 42
0.00000001
 43
0.00000001
 40
0.0
 40
0.0
 40
0.0
 40
0.0
 40
0.051677596671883
 40
0.1222791431080097
 40
0.2010973547258175
 40
0.2804435292210041
 40
0.3512661014440236
 40
0.4135817363157482
 40
0.467421439536638
 40
0.5212878724004892
 40
0.5836087441623894
 40
0.6544153547275878
 40
0.7337246202468675
 40
0.8126614882673063
 40
0.883309623544582
 40
0.9456866296237817
 40
0.9998240570231143
 40
1.0
 40
1.0
 40
1.0
 40
1.0
 10
2.293891022350357
 20
6.647279683740924
 30
0.0
 10
2.295318396402373
 20
6.640821889046252
 30
0.0
 10
2.298695838218861
 20
6.625541503492605
 30
0.0
 10
2.310297485768533
 20
6.602362118836191
 30
0.0
 10
2.328377126300751
 20
6.579284116682255
 30
0.0
 10
2.351477579014316
 20
6.56104645798409
 30
0.0
 10
2.376059303161346
 20
6.549226961756867
 30
0.0
 10
2.399305438921514
 20
6.543252662582388
 30
0.0
 10
2.421050733855208
 20
6.54150686435939
 30
0.0
 10
2.44279929688089
 20
6.543227883646046
 30
0.0
 10
2.466052812367529
 20
6.549177833162605
 30
0.0
 10
2.490648172492783
 20
6.560965652823806
 30
0.0
 10
2.513751159597857
 20
6.579189445914507
 30
0.0
 10
2.531959002761879
 20
6.60223119717433
 30
0.0
 10
2.543906981209809
 20
6.62675167186835
 30
0.0
 10
2.549531559628662
 20
6.649989589918049
 30
0.0
 10
2.551592460388319
 20
6.664959389029972
 30
0.0
 10
2.551041919871335
 20
6.671876584058441
 30
0.0
 10
2.551040136447902
 20
6.671898991651203
 30
0.0
  0
LINE
  5
18F
330
1F
100
AcDbEntity
  8
0
  6
HIDDEN
 62
     7
100
AcDbLine
 10
3.4266361034
 20
7.0169377688
 30
0.0
 11
3.4266361034
 21
6.327016509
 31
0.0
  0
LINE
  5
190
330
1F
100
AcDbEntity
  8
0
  6
HIDDEN
 62
     7
100
AcDbLine
 10
3.2266361034
 20
7.0169377688
 30
0.0
 11
3.2266361034
 21
6.327016509
 31
0.0
  0
SPLINE
  5
191
330
1F
100
AcDbEntity
  8
0
  6
HIDDEN
 62
     7
100
AcDbSpline
210
0.0
220
0.0
230
1.0
 70
     8
 71
     3
 72
    27
 73
    23
 74
     0
 42
0.00000001
 43
0.00000001
 40
0.0
 40
0.0
 40
0.0
 40
0.0
 40
0.0499624446708275
 40
0.1014445012385934
 40
0.1513890736640248
 40
0.202667570582189
 40
0.2548804624081574
 40
0.3084703176544686
 40
0.363045373670113
 40
0.4193516971628151
 40
0.4712538097144486
 40
0.524914204887167
 40
0.5730624272899266
 40
0.62255865114281
 40
0.671812656995085
 40
0.7222894631742007
 40
0.775557788198328
 40
0.8302983135543224
 40
0.8846027455837705
 40
0.9406887121018643
 40
0.9916112671533743
 40
1.0
 40
1.0
 40
1.0
 40
1.0
 10
4.102226654565655
 20
6.986937768837686
 30
0.0
 10
4.102543541729457
 20
6.986806379913372
 30
0.0
 10
4.103186954206419
 20
6.986539605859714
 30
0.0
 10
4.108339030858527
 20
6.984446389256966
 30
0.0
 10
4.116416591792565
 20
6.981313815647233
 30
0.0
 10
4.12746311844489
 20
6.977319275908675
 30
0.0
 10
4.141437593820786
 20
6.972772658114075
 30
0.0
 10
4.158176542810285
 20
6.968103460957828
 30
0.0
 10
4.177548946605676
 20
6.963808947902036
 30
0.0
 10
4.198511909913634
 20
6.960591697681636
 30
0.0
 10
4.220473938418829
 20
6.958854348904447
 30
0.0
 10
4.241730976297907
 20
6.958795538182627
 30
0.0
 10
4.262318875720601
 20
6.960255259534894
 30
0.0
 10
4.281468801720431
 20
6.962906569252416
 30
0.0
 10
4.299584366034115
 20
6.9665501638267
 30
0.0
 10
4.316395334984267
 20
6.970873336170657
 30
0.0
 10
4.331574420407147
 20
6.975533991638983
 30
0.0
 10
4.344345976923716
 20
6.979990010214132
 30
0.0
 10
4.354237411424194
 20
6.983761103451566
 30
0.0
 10
4.360024925565842
 20
6.986092852525783
 30
0.0
 10
4.362452177800074
 20
6.987095165430429
 30
0.0
 10
4.361904108046816
 20
6.986869908990339
 30
0.0
 10
4.361826591423854
 20
6.986838049690621
 30
0.0
  0
SPLINE
  5
192
330
1F
100
AcDbEntity
  8
0
  6
HIDDEN
 62
     7
100
AcDbSpline
210
0.0
220
0.0
230
1.0
 70
     8
 71
     3
 72
    27
 73
    23
 74
     0
 42
0.00000001
 43
0.00000001
 40
0.0
 40
0.0
 40
0.0
 40
0.0
 40
0.0499624446708275
 40
0.1014445012385934
 40
0.1513890736640248
 40
0.202667570582189
 40
0.2548804624081574
 40
0.3084703176544686
 40
0.363045373670113
 40
0.4193516971628151
 40
0.4712538097144486
 40
0.524914204887167
 40
0.5730624272899266
 40
0.62255865114281
 40
0.671812656995085
 40
0.7222894631742007
 40
0.775557788198328
 40
0.8302983135543224
 40
0.8846027455837705
 40
0.9406887121018643
 40
0.9916112671533743
 40
1.0
 40
1.0
 40
1.0
 40
1.0
 10
2.291203032518411
 20
6.986937768837686
 30
0.0
 10
2.291519919682212
 20
6.986806379913372
 30
0.0
 10
2.292163332159174
 20
6.986539605859714
 30
0.0
 10
2.297315408811283
 20
6.984446389256966
 30
0.0
 10
2.30539296974532
 20
6.981313815647233
 30
0.0
 10
2.316439496397646
 20
6.977319275908675
 30
0.0
 10
2.330413971773541
 20
6.972772658114075
 30
0.0
 10
2.34715292076304
 20
6.968103460957828
 30
0.0
 10
2.366525324558432
 20
6.963808947902036
 30
0.0
 10
2.38748828786639
 20
6.960591697681636
 30
0.0
 10
2.409450316371585
 20
6.958854348904447
 30
0.0
 10
2.430707354250662
 20
6.958795538182627
 30
0.0
 10
2.451295253673357
 20
6.960255259534894
 30
0.0
 10
2.470445179673186
 20
6.962906569252416
 30
0.0
 10
2.48856074398687
 20
6.9665501638267
 30
0.0
 10
2.505371712937023
 20
6.970873336170657
 30
0.0
 10
2.520550798359902
 20
6.975533991638983
 30
0.0
 10
2.533322354876471
 20
6.979990010214132
 30
0.0
 10
2.543213789376949
 20
6.983761103451566
 30
0.0
 10
2.549001303518598
 20
6.986092852525783
 30
0.0
 10
2.551428555752828
 20
6.987095165430429
 30
0.0
 10
2.550880485999572
 20
6.986869908990339
 30
0.0
 10
2.55080296937661
 20
6.986838049690621
 30
0.0
  0
LINE
  5
193
330
1F
100
AcDbEntity
  8
0
  6
HIDDEN
 62
     7
100
AcDbLine
 10
4.3620691743
 20
7.6362291074
 30
0.0
 11
4.1022266546
 21
7.6362291074
 31
0.0
  0
LINE
  5
194
330
1F
100
AcDbEntity
  8
0
  6
HIDDEN
 62
     7
100
AcDbLine
 10
4.1022266546
 20
7.0069377688
 30
0.0
 11
4.3620691743
 21
7.0069377688
 31
0.0
  0
LINE
  5
195
330
1F
100
AcDbEntity
  8
0
  6
HIDDEN
 62
     7
100
AcDbLine
 10
4.3420691743
 20
6.9869377688
 30
0.0
 11
4.1222266546
 21
6.9869377688
 31
0.0
  0
LINE
  5
196
330
1F
100
AcDbEntity
  8
0
  6
HIDDEN
 62
     7
100
AcDbLine
 10
4.2321479144
 20
7.5562291074
 30
0.0
 11
4.2321479144
 21
7.6562291074
 31
0.0
  0
LINE
  5
197
330
1F
100
AcDbEntity
  8
0
  6
HIDDEN
 62
     7
100
AcDbLine
 10
4.1602517727
 20
7.5562291074
 30
0.0
 11
4.2321479144
 21
7.5562291074
 31
0.0
  0
LINE
  5
198
330
1F
100
AcDbEntity
  8
0
  6
HIDDEN
 62
     7
100
AcDbLine
 10
4.2321479144
 20
7.5562291074
 30
0.0
 11
4.3040440561
 21
7.5562291074
 31
0.0
  0
LINE
  5
199
330
1F
100
AcDbEntity
  8
0
  6
HIDDEN
 62
     7
100
AcDbLine
 10
4.3040440561
 20
7.5562291074
 30
0.0
 11
4.3040440561
 21
7.6562291074
 31
0.0
  0
LINE
  5
19A
330
1F
100
AcDbEntity
  8
0
  6
HIDDEN
 62
     7
100
AcDbLine
 10
4.1602517727
 20
7.5562291074
 30
0.0
 11
4.1602517727
 21
7.6562291074
 31
0.0
  0
LINE
  5
19B
330
1F
100
AcDbEntity
  8
0
  6
HIDDEN
 62
     7
100
AcDbLine
 10
2.2912030325
 20
7.6362291074
 30
0.0
 11
2.5510455522
 21
7.6362291074
 31
0.0
  0
LINE
  5
19C
330
1F
100
AcDbEntity
  8
0
  6
HIDDEN
 62
     7
100
AcDbLine
 10
2.5510455522
 20
7.0069377688
 30
0.0
 11
2.2912030325
 21
7.0069377688
 31
0.0
  0
LINE
  5
19D
330
1F
100
AcDbEntity
  8
0
  6
HIDDEN
 62
     7
100
AcDbLine
 10
2.3112030325
 20
6.9869377688
 30
0.0
 11
2.5310455522
 21
6.9869377688
 31
0.0
  0
LINE
  5
19E
330
1F
100
AcDbEntity
  8
0
  6
HIDDEN
 62
     7
100
AcDbLine
 10
2.4211242924
 20
7.5562291074
 30
0.0
 11
2.4211242924
 21
7.6562291074
 31
0.0
  0
LINE
  5
19F
330
1F
100
AcDbEntity
  8
0
  6
HIDDEN
 62
     7
100
AcDbLine
 10
2.4211242924
 20
7.5562291074
 30
0.0
 11
2.3492281507
 21
7.5562291074
 31
0.0
  0
LINE
  5
1A0
330
1F
100
AcDbEntity
  8
0
  6
HIDDEN
 62
     7
100
AcDbLine
 10
2.493020434
 20
7.5562291074
 30
0.0
 11
2.4211242924
 21
7.5562291074
 31
0.0
  0
LINE
  5
1A1
330
1F
100
AcDbEntity
  8
0
  6
HIDDEN
 62
     7
100
AcDbLine
 10
2.3492281507
 20
7.5562291074
 30
0.0
 11
2.3492281507
 21
7.6562291074
 31
0.0
  0
LINE
  5
1A2
330
1F
100
AcDbEntity
  8
0
  6
HIDDEN
 62
     7
100
AcDbLine
 10
2.493020434
 20
7.5562291074
 30
0.0
 11
2.493020434
 21
7.6562291074
 31
0.0
  0
LINE
  5
1A3
330
1F
100
AcDbEntity
  8
0
  6
HIDDEN
 62
     7
100
AcDbLine
 10
4.5471085443
 20
7.0169377688
 30
0.0
 11
4.5171085443
 21
6.9869377688
 31
0.0
  0
LINE
  5
1A4
330
1F
100
AcDbEntity
  8
0
  6
HIDDEN
 62
     7
100
AcDbLine
 10
4.5171085443
 20
6.357016509
 30
0.0
 11
4.5471085443
 21
6.327016509
 31
0.0
  0
LINE
  5
1A5
330
1F
100
AcDbEntity
  8
0
  6
HIDDEN
 62
     7
100
AcDbLine
 10
3.4266361034
 20
7.0169377688
 30
0.0
 11
3.2266361034
 21
7.0169377688
 31
0.0
  0
LINE
  5
1A6
330
1F
100
AcDbEntity
  8
0
  6
HIDDEN
 62
     7
100
AcDbLine
 10
3.2266361034
 20
6.327016509
 30
0.0
 11
3.4266361034
 21
6.327016509
 31
0.0
  0
LINE
  5
1A7
330
1F
100
AcDbEntity
  8
0
  6
HIDDEN
 62
     7
100
AcDbLine
 10
2.1061636624
 20
6.327016509
 30
0.0
 11
2.1361636624
 21
6.357016509
 31
0.0
  0
LINE
  5
1A8
330
1F
100
AcDbEntity
  8
0
  6
HIDDEN
 62
     7
100
AcDbLine
 10
2.1361636624
 20
6.9869377688
 30
0.0
 11
2.1061636624
 21
7.0169377688
 31
0.0
  0
LINE
  5
1A9
330
1F
100
AcDbEntity
  8
0
  6
HIDDEN
 62
     7
100
AcDbLine
 10
4.1022266546
 20
6.9869377688
 30
0.0
 11
3.4266361034
 21
6.9869377688
 31
0.0
  0
LINE
  5
1AA
330
1F
100
AcDbEntity
  8
0
  6
HIDDEN
 62
     7
100
AcDbLine
 10
4.5171085443
 20
6.9869377688
 30
0.0
 11
4.3618265914
 21
6.9869377688
 31
0.0
  0
LINE
  5
1AB
330
1F
100
AcDbEntity
  8
0
  6
HIDDEN
 62
     7
100
AcDbLine
 10
3.4266361034
 20
6.357016509
 30
0.0
 11
4.5171085443
 21
6.357016509
 31
0.0
  0
LINE
  5
1AC
330
1F
100
AcDbEntity
  8
0
  6
HIDDEN
 62
     7
100
AcDbLine
 10
2.2912030325
 20
6.9869377688
 30
0.0
 11
2.1361636624
 21
6.9869377688
 31
0.0
  0
LINE
  5
1AD
330
1F
100
AcDbEntity
  8
0
  6
HIDDEN
 62
     7
100
AcDbLine
 10
3.2266361034
 20
6.9869377688
 30
0.0
 11
2.5508029694
 21
6.9869377688
 31
0.0
  0
LINE
  5
1AE
330
1F
100
AcDbEntity
  8
0
  6
HIDDEN
 62
     7
100
AcDbLine
 10
2.1361636624
 20
6.357016509
 30
0.0
 11
3.2266361034
 21
6.357016509
 31
0.0
  0
LINE
  5
1AF
330
1F
100
AcDbEntity
  8
0
  6
HIDDEN
 62
     7
100
AcDbLine
 10
4.3620691743
 20
6.9868383174
 30
0.0
 11
4.3620691743
 21
7.6562291074
 31
0.0
  0
LINE
  5
1B0
330
1F
100
AcDbEntity
  8
0
  6
HIDDEN
 62
     7
100
AcDbLine
 10
4.1022266546
 20
7.6562291074
 30
0.0
 11
4.1022266546
 21
6.9869377688
 31
0.0
  0
LINE
  5
1B1
330
1F
100
AcDbEntity
  8
0
  6
HIDDEN
 62
     7
100
AcDbLine
 10
2.5510455522
 20
6.9868383174
 30
0.0
 11
2.5510455522
 21
7.6562291074
 31
0.0
  0
LINE
  5
1B2
330
1F
100
AcDbEntity
  8
0
  6
HIDDEN
 62
     7
100
AcDbLine
 10
2.2912030325
 20
7.6562291074
 30
0.0
 11
2.2912030325
 21
6.9869377688
 31
0.0
  0
LINE
  5
1B3
330
1F
100
AcDbEntity
  8
0
  6
HIDDEN
 62
     7
100
AcDbLine
 10
4.3620691743
 20
7.6362291074
 30
0.0
 11
4.3442545995
 21
7.6540436822
 31
0.0
  0
LINE
  5
1B4
330
1F
100
AcDbEntity
  8
0
  6
HIDDEN
 62
     7
100
AcDbLine
 10
4.1200433059
 20
7.6540457587
 30
0.0
 11
4.1022266546
 21
7.6362291074
 31
0.0
  0
LINE
  5
1B5
330
1F
100
AcDbEntity
  8
0
  6
HIDDEN
 62
     7
100
AcDbLine
 10
4.3620691743
 20
7.0069377688
 30
0.0
 11
4.3620691743
 21
7.6362291074
 31
0.0
  0
LINE
  5
1B6
330
1F
100
AcDbEntity
  8
0
  6
HIDDEN
 62
     7
100
AcDbLine
 10
4.1022266546
 20
7.6362291074
 30
0.0
 11
4.1022266546
 21
7.0069377688
 31
0.0
  0
LINE
  5
1B7
330
1F
100
AcDbEntity
  8
0
  6
HIDDEN
 62
     7
100
AcDbLine
 10
4.1022266546
 20
7.0069377688
 30
0.0
 11
4.1222266546
 21
6.9869377688
 31
0.0
  0
LINE
  5
1B8
330
1F
100
AcDbEntity
  8
0
  6
HIDDEN
 62
     7
100
AcDbLine
 10
4.3420691743
 20
6.9869377688
 30
0.0
 11
4.3620691743
 21
7.0069377688
 31
0.0
  0
LINE
  5
1B9
330
1F
100
AcDbEntity
  8
0
  6
HIDDEN
 62
     7
100
AcDbLine
 10
2.5510455522
 20
7.6362291074
 30
0.0
 11
2.5332309774
 21
7.6540436822
 31
0.0
  0
LINE
  5
1BA
330
1F
100
AcDbEntity
  8
0
  6
HIDDEN
 62
     7
100
AcDbLine
 10
2.3090196838
 20
7.6540457587
 30
0.0
 11
2.2912030325
 21
7.6362291074
 31
0.0
  0
LINE
  5
1BB
330
1F
100
AcDbEntity
  8
0
  6
HIDDEN
 62
     7
100
AcDbLine
 10
2.5510455522
 20
7.0069377688
 30
0.0
 11
2.5510455522
 21
7.6362291074
 31
0.0
  0
LINE
  5
1BC
330
1F
100
AcDbEntity
  8
0
  6
HIDDEN
 62
     7
100
AcDbLine
 10
2.2912030325
 20
7.6362291074
 30
0.0
 11
2.2912030325
 21
7.0069377688
 31
0.0
  0
LINE
  5
1BD
330
1F
100
AcDbEntity
  8
0
  6
HIDDEN
 62
     7
100
AcDbLine
 10
2.2912030325
 20
7.0069377688
 30
0.0
 11
2.3112030325
 21
6.9869377688
 31
0.0
  0
LINE
  5
1BE
330
1F
100
AcDbEntity
  8
0
  6
HIDDEN
 62
     7
100
AcDbLine
 10
2.5310455522
 20
6.9869377688
 30
0.0
 11
2.5510455522
 21
7.0069377688
 31
0.0
  0
LINE
  5
1BF
330
1F
100
AcDbEntity
  8
0
  6
CONTINUOUS
 62
     7
100
AcDbLine
 10
9.0154446397
 20
5.5596599819
 30
0.0
 11
9.0366543954
 21
5.5719080939
 31
0.0
  0
LINE
  5
1C0
330
1F
100
AcDbEntity
  8
0
  6
CONTINUOUS
 62
     7
100
AcDbLine
 10
9.7113027661
 20
6.7405599751
 30
0.0
 11
9.7113027661
 21
6.7650522185
 31
0.0
  0
LINE
  5
1C1
330
1F
100
AcDbEntity
  8
0
  6
CONTINUOUS
 62
     7
100
AcDbLine
 10
6.8396632627
 20
6.482777633
 30
0.0
 11
8.5232455343
 21
5.5108662753
 31
0.0
  0
LINE
  5
1C2
330
1F
100
AcDbEntity
  8
0
  6
CONTINUOUS
 62
     7
100
AcDbLine
 10
9.5074175153
 20
7.2156868705
 30
0.0
 11
7.8238352437
 21
8.1875982282
 31
0.0
  0
LINE
  5
1C3
330
1F
100
AcDbEntity
  8
0
  6
CONTINUOUS
 62
     7
100
AcDbLine
 10
7.3316361383
 20
8.1388045216
 30
0.0
 11
7.3104263826
 21
8.1265564096
 31
0.0
  0
LINE
  5
1C4
330
1F
100
AcDbEntity
  8
0
  6
CONTINUOUS
 62
     7
100
AcDbLine
 10
6.6357780119
 20
6.9579045283
 30
0.0
 11
6.6357780119
 21
6.933412285
 31
0.0
  0
LINE
  5
1C5
330
1F
100
AcDbEntity
  8
0
  6
CONTINUOUS
 62
     7
100
AcDbLine
 10
9.0365320956
 20
6.5184189635
 30
0.0
 11
9.0506719327
 21
6.5102535555
 31
0.0
  0
LINE
  5
1C6
330
1F
100
AcDbEntity
  8
0
  6
CONTINUOUS
 62
     7
100
AcDbLine
 10
7.6251299784
 20
8.0592426972
 30
0.0
 11
7.6109855448
 21
8.0674107591
 31
0.0
  0
LINE
  5
1C7
330
1F
100
AcDbEntity
  8
0
  6
CONTINUOUS
 62
     7
100
AcDbLine
 10
7.4555081492
 20
8.0674107591
 30
0.0
 11
7.4413637156
 21
8.0592426972
 31
0.0
  0
LINE
  5
1C8
330
1F
100
AcDbEntity
  8
0
  6
CONTINUOUS
 62
     7
100
AcDbLine
 10
7.6631681068
 20
7.9924901814
 30
0.0
 11
7.6631681068
 21
8.0062169309
 31
0.0
  0
LINE
  5
1C9
330
1F
100
AcDbEntity
  8
0
  6
CONTINUOUS
 62
     7
100
AcDbLine
 10
7.4033255871
 20
8.0062169309
 30
0.0
 11
7.4033255871
 21
7.9915577765
 31
0.0
  0
LINE
  5
1CA
330
1F
100
AcDbEntity
  8
0
  6
CONTINUOUS
 62
     7
100
AcDbLine
 10
8.9057170624
 20
7.3199755094
 30
0.0
 11
8.8915726288
 21
7.3281435713
 31
0.0
  0
LINE
  5
1CB
330
1F
100
AcDbEntity
  8
0
  6
CONTINUOUS
 62
     7
100
AcDbLine
 10
8.7360952332
 20
7.3281435713
 30
0.0
 11
8.7219507996
 21
7.3199755094
 31
0.0
  0
LINE
  5
1CC
330
1F
100
AcDbEntity
  8
0
  6
CONTINUOUS
 62
     7
100
AcDbLine
 10
8.9437551909
 20
7.2532229935
 30
0.0
 11
8.9437551909
 21
7.266949743
 31
0.0
  0
LINE
  5
1CD
330
1F
100
AcDbEntity
  8
0
  6
CONTINUOUS
 62
     7
100
AcDbLine
 10
8.6839126712
 20
7.266949743
 30
0.0
 11
8.6839126712
 21
7.2522905886
 31
0.0
  0
POLYLINE
  5
1CE
330
1F
100
AcDbEntity
  8
0
  6
CONTINUOUS
 62
     7
100
AcDb2dPolyline
 66
     1
 10
0.0
 20
0.0
 30
0.0
  0
VERTEX
  5
22E
330
1CE
100
AcDbEntity
  8
0
  6
CONTINUOUS
 62
     7
100
AcDbVertex
100
AcDb2dVertex
 10
9.7113027661
 20
6.7405599751
 30
0.0
  0
VERTEX
  5
22F
330
1CE
100
AcDbEntity
  8
0
  6
CONTINUOUS
 62
     7
100
AcDbVertex
100
AcDb2dVertex
 10
9.7104080976
 20
6.7801550024
 30
0.0
  0
VERTEX
  5
230
330
1CE
100
AcDbEntity
  8
0
  6
CONTINUOUS
 62
     7
100
AcDbVertex
100
AcDb2dVertex
 10
9.7077264646
 20
6.8186120685
 30
0.0
  0
VERTEX
  5
231
330
1CE
100
AcDbEntity
  8
0
  6
CONTINUOUS
 62
     7
100
AcDbVertex
100
AcDb2dVertex
 10
9.7032649783
 20
6.8558291922
 30
0.0
  0
VERTEX
  5
232
330
1CE
100
AcDbEntity
  8
0
  6
CONTINUOUS
 62
     7
100
AcDbVertex
100
AcDb2dVertex
 10
9.6970354697
 20
6.8917076803
 30
0.0
  0
VERTEX
  5
233
330
1CE
100
AcDbEntity
  8
0
  6
CONTINUOUS
 62
     7
100
AcDbVertex
100
AcDb2dVertex
 10
9.6890544584
 20
6.9261523897
 30
0.0
  0
VERTEX
  5
234
330
1CE
100
AcDbEntity
  8
0
  6
CONTINUOUS
 62
     7
100
AcDbVertex
100
AcDb2dVertex
 10
9.6793431086
 20
6.9590719791
 30
0.0
  0
VERTEX
  5
235
330
1CE
100
AcDbEntity
  8
0
  6
CONTINUOUS
 62
     7
100
AcDbVertex
100
AcDb2dVertex
 10
9.6679271731
 20
6.9903791516
 30
0.0
  0
VERTEX
  5
236
330
1CE
100
AcDbEntity
  8
0
  6
CONTINUOUS
 62
     7
100
AcDbVertex
100
AcDb2dVertex
 10
9.6548369248
 20
7.0199908864
 30
0.0
  0
VERTEX
  5
237
330
1CE
100
AcDbEntity
  8
0
  6
CONTINUOUS
 62
     7
100
AcDbVertex
100
AcDb2dVertex
 10
9.6401070768
 20
7.0478286583
 30
0.0
  0
VERTEX
  5
238
330
1CE
100
AcDbEntity
  8
0
  6
CONTINUOUS
 62
     7
100
AcDbVertex
100
AcDb2dVertex
 10
9.6237766899
 20
7.0738186466
 30
0.0
  0
VERTEX
  5
239
330
1CE
100
AcDbEntity
  8
0
  6
CONTINUOUS
 62
     7
100
AcDbVertex
100
AcDb2dVertex
 10
9.6058890694
 20
7.0978919306
 30
0.0
  0
VERTEX
  5
23A
330
1CE
100
AcDbEntity
  8
0
  6
CONTINUOUS
 62
     7
100
AcDbVertex
100
AcDb2dVertex
 10
9.5864916501
 20
7.1199846722
 30
0.0
  0
VERTEX
  5
23B
330
1CE
100
AcDbEntity
  8
0
  6
CONTINUOUS
 62
     7
100
AcDbVertex
100
AcDb2dVertex
 10
9.5656358704
 20
7.1400382855
 30
0.0
  0
VERTEX
  5
23C
330
1CE
100
AcDbEntity
  8
0
  6
CONTINUOUS
 62
     7
100
AcDbVertex
100
AcDb2dVertex
 10
9.5433770361
 20
7.1579995918
 30
0.0
  0
VERTEX
  5
23D
330
1CE
100
AcDbEntity
  8
0
  6
CONTINUOUS
 62
     7
100
AcDbVertex
100
AcDb2dVertex
 10
9.5197741737
 20
7.173820961
 30
0.0
  0
VERTEX
  5
23E
330
1CE
100
AcDbEntity
  8
0
  6
CONTINUOUS
 62
     7
100
AcDbVertex
100
AcDb2dVertex
 10
9.4948898736
 20
7.1874604377
 30
0.0
  0
VERTEX
  5
23F
330
1CE
100
AcDbEntity
  8
0
  6
CONTINUOUS
 62
     7
100
AcDbVertex
100
AcDb2dVertex
 10
9.4687901246
 20
7.1988818524
 30
0.0
  0
VERTEX
  5
240
330
1CE
100
AcDbEntity
  8
0
  6
CONTINUOUS
 62
     7
100
AcDbVertex
100
AcDb2dVertex
 10
9.4415441385
 20
7.2080549176
 30
0.0
  0
VERTEX
  5
241
330
1CE
100
AcDbEntity
  8
0
  6
CONTINUOUS
 62
     7
100
AcDbVertex
100
AcDb2dVertex
 10
9.4132241668
 20
7.2149553081
 30
0.0
  0
VERTEX
  5
242
330
1CE
100
AcDbEntity
  8
0
  6
CONTINUOUS
 62
     7
100
AcDbVertex
100
AcDb2dVertex
 10
9.3839053089
 20
7.2195647251
 30
0.0
  0
VERTEX
  5
243
330
1CE
100
AcDbEntity
  8
0
  6
CONTINUOUS
 62
     7
100
AcDbVertex
100
AcDb2dVertex
 10
9.3536653132
 20
7.2218709453
 30
0.0
  0
VERTEX
  5
244
330
1CE
100
AcDbEntity
  8
0
  6
CONTINUOUS
 62
     7
100
AcDbVertex
100
AcDb2dVertex
 10
9.3225843708
 20
7.2218678531
 30
0.0
  0
VERTEX
  5
245
330
1CE
100
AcDbEntity
  8
0
  6
CONTINUOUS
 62
     7
100
AcDbVertex
100
AcDb2dVertex
 10
9.2907449026
 20
7.2195554567
 30
0.0
  0
VERTEX
  5
246
330
1CE
100
AcDbEntity
  8
0
  6
CONTINUOUS
 62
     7
100
AcDbVertex
100
AcDb2dVertex
 10
9.2582313412
 20
7.2149398881
 30
0.0
  0
VERTEX
  5
247
330
1CE
100
AcDbEntity
  8
0
  6
CONTINUOUS
 62
     7
100
AcDbVertex
100
AcDb2dVertex
 10
9.2251299068
 20
7.2080333869
 30
0.0
  0
VERTEX
  5
248
330
1CE
100
AcDbEntity
  8
0
  6
CONTINUOUS
 62
     7
100
AcDbVertex
100
AcDb2dVertex
 10
9.1915283785
 20
7.1988542681
 30
0.0
  0
VERTEX
  5
249
330
1CE
100
AcDbEntity
  8
0
  6
CONTINUOUS
 62
     7
100
AcDbVertex
100
AcDb2dVertex
 10
9.1575158613
 20
7.1874268729
 30
0.0
  0
VERTEX
  5
24A
330
1CE
100
AcDbEntity
  8
0
  6
CONTINUOUS
 62
     7
100
AcDbVertex
100
AcDb2dVertex
 10
9.1231825504
 20
7.1737815047
 30
0.0
  0
VERTEX
  5
24B
330
1CE
100
AcDbEntity
  8
0
  6
CONTINUOUS
 62
     7
100
AcDbVertex
100
AcDb2dVertex
 10
9.0886194916
 20
7.1579543487
 30
0.0
  0
VERTEX
  5
24C
330
1CE
100
AcDbEntity
  8
0
  6
CONTINUOUS
 62
     7
100
AcDbVertex
100
AcDb2dVertex
 10
9.0539183399
 20
7.1399873755
 30
0.0
  0
VERTEX
  5
24D
330
1CE
100
AcDbEntity
  8
0
  6
CONTINUOUS
 62
     7
100
AcDbVertex
100
AcDb2dVertex
 10
9.0191711165
 20
7.1199282304
 30
0.0
  0
VERTEX
  5
24E
330
1CE
100
AcDbEntity
  8
0
  6
CONTINUOUS
 62
     7
100
AcDbVertex
100
AcDb2dVertex
 10
8.9844699648
 20
7.0978301066
 30
0.0
  0
VERTEX
  5
24F
330
1CE
100
AcDbEntity
  8
0
  6
CONTINUOUS
 62
     7
100
AcDbVertex
100
AcDb2dVertex
 10
8.9499069061
 20
7.0737516044
 30
0.0
  0
VERTEX
  5
250
330
1CE
100
AcDbEntity
  8
0
  6
CONTINUOUS
 62
     7
100
AcDbVertex
100
AcDb2dVertex
 10
8.9155735952
 20
7.0477565756
 30
0.0
  0
VERTEX
  5
251
330
1CE
100
AcDbEntity
  8
0
  6
CONTINUOUS
 62
     7
100
AcDbVertex
100
AcDb2dVertex
 10
8.881561078
 20
7.0199139544
 30
0.0
  0
VERTEX
  5
252
330
1CE
100
AcDbEntity
  8
0
  6
CONTINUOUS
 62
     7
100
AcDbVertex
100
AcDb2dVertex
 10
8.8479595497
 20
6.9902975744
 30
0.0
  0
VERTEX
  5
253
330
1CE
100
AcDbEntity
  8
0
  6
CONTINUOUS
 62
     7
100
AcDbVertex
100
AcDb2dVertex
 10
8.8148581153
 20
6.9589859729
 30
0.0
  0
VERTEX
  5
254
330
1CE
100
AcDbEntity
  8
0
  6
CONTINUOUS
 62
     7
100
AcDbVertex
100
AcDb2dVertex
 10
8.7823445539
 20
6.9260621826
 30
0.0
  0
VERTEX
  5
255
330
1CE
100
AcDbEntity
  8
0
  6
CONTINUOUS
 62
     7
100
AcDbVertex
100
AcDb2dVertex
 10
8.7505050857
 20
6.8916135115
 30
0.0
  0
VERTEX
  5
256
330
1CE
100
AcDbEntity
  8
0
  6
CONTINUOUS
 62
     7
100
AcDbVertex
100
AcDb2dVertex
 10
8.7194241433
 20
6.8557313114
 30
0.0
  0
VERTEX
  5
257
330
1CE
100
AcDbEntity
  8
0
  6
CONTINUOUS
 62
     7
100
AcDbVertex
100
AcDb2dVertex
 10
8.6891841476
 20
6.8185107353
 30
0.0
  0
VERTEX
  5
258
330
1CE
100
AcDbEntity
  8
0
  6
CONTINUOUS
 62
     7
100
AcDbVertex
100
AcDb2dVertex
 10
8.6598652897
 20
6.7800504855
 30
0.0
  0
VERTEX
  5
259
330
1CE
100
AcDbEntity
  8
0
  6
CONTINUOUS
 62
     7
100
AcDbVertex
100
AcDb2dVertex
 10
8.631545318
 20
6.7404525518
 30
0.0
  0
VERTEX
  5
25A
330
1CE
100
AcDbEntity
  8
0
  6
CONTINUOUS
 62
     7
100
AcDbVertex
100
AcDb2dVertex
 10
8.6042993319
 20
6.6998219406
 30
0.0
  0
VERTEX
  5
25B
330
1CE
100
AcDbEntity
  8
0
  6
CONTINUOUS
 62
     7
100
AcDbVertex
100
AcDb2dVertex
 10
8.5781995829
 20
6.6582663971
 30
0.0
  0
VERTEX
  5
25C
330
1CE
100
AcDbEntity
  8
0
  6
CONTINUOUS
 62
     7
100
AcDbVertex
100
AcDb2dVertex
 10
8.5533152828
 20
6.6158961191
 30
0.0
  0
VERTEX
  5
25D
330
1CE
100
AcDbEntity
  8
0
  6
CONTINUOUS
 62
     7
100
AcDbVertex
100
AcDb2dVertex
 10
8.5297124204
 20
6.5728234649
 30
0.0
  0
VERTEX
  5
25E
330
1CE
100
AcDbEntity
  8
0
  6
CONTINUOUS
 62
     7
100
AcDbVertex
100
AcDb2dVertex
 10
8.5074535861
 20
6.5291626556
 30
0.0
  0
VERTEX
  5
25F
330
1CE
100
AcDbEntity
  8
0
  6
CONTINUOUS
 62
     7
100
AcDbVertex
100
AcDb2dVertex
 10
8.4865978064
 20
6.4850294717
 30
0.0
  0
VERTEX
  5
260
330
1CE
100
AcDbEntity
  8
0
  6
CONTINUOUS
 62
     7
100
AcDbVertex
100
AcDb2dVertex
 10
8.4672003871
 20
6.4405409464
 30
0.0
  0
VERTEX
  5
261
330
1CE
100
AcDbEntity
  8
0
  6
CONTINUOUS
 62
     7
100
AcDbVertex
100
AcDb2dVertex
 10
8.4493127666
 20
6.3958150554
 30
0.0
  0
VERTEX
  5
262
330
1CE
100
AcDbEntity
  8
0
  6
CONTINUOUS
 62
     7
100
AcDbVertex
100
AcDb2dVertex
 10
8.4329823797
 20
6.3509704037
 30
0.0
  0
VERTEX
  5
263
330
1CE
100
AcDbEntity
  8
0
  6
CONTINUOUS
 62
     7
100
AcDbVertex
100
AcDb2dVertex
 10
8.4182525317
 20
6.3061259113
 30
0.0
  0
VERTEX
  5
264
330
1CE
100
AcDbEntity
  8
0
  6
CONTINUOUS
 62
     7
100
AcDbVertex
100
AcDb2dVertex
 10
8.4051622834
 20
6.2614004976
 30
0.0
  0
VERTEX
  5
265
330
1CE
100
AcDbEntity
  8
0
  6
CONTINUOUS
 62
     7
100
AcDbVertex
100
AcDb2dVertex
 10
8.3937463479
 20
6.2169127664
 30
0.0
  0
VERTEX
  5
266
330
1CE
100
AcDbEntity
  8
0
  6
CONTINUOUS
 62
     7
100
AcDbVertex
100
AcDb2dVertex
 10
8.3840349981
 20
6.1727806912
 30
0.0
  0
VERTEX
  5
267
330
1CE
100
AcDbEntity
  8
0
  6
CONTINUOUS
 62
     7
100
AcDbVertex
100
AcDb2dVertex
 10
8.3760539868
 20
6.1291213024
 30
0.0
  0
VERTEX
  5
268
330
1CE
100
AcDbEntity
  8
0
  6
CONTINUOUS
 62
     7
100
AcDbVertex
100
AcDb2dVertex
 10
8.3698244782
 20
6.0860503767
 30
0.0
  0
VERTEX
  5
269
330
1CE
100
AcDbEntity
  8
0
  6
CONTINUOUS
 62
     7
100
AcDbVertex
100
AcDb2dVertex
 10
8.3653629919
 20
6.0436821305
 30
0.0
  0
VERTEX
  5
26A
330
1CE
100
AcDbEntity
  8
0
  6
CONTINUOUS
 62
     7
100
AcDbVertex
100
AcDb2dVertex
 10
8.3626813589
 20
6.0021289168
 30
0.0
  0
VERTEX
  5
26B
330
1CE
100
AcDbEntity
  8
0
  6
CONTINUOUS
 62
     7
100
AcDbVertex
100
AcDb2dVertex
 10
8.3617866904
 20
5.9615009273
 30
0.0
  0
VERTEX
  5
26C
330
1CE
100
AcDbEntity
  8
0
  6
CONTINUOUS
 62
     7
100
AcDbVertex
100
AcDb2dVertex
 10
8.3626813589
 20
5.9219059
 30
0.0
  0
VERTEX
  5
26D
330
1CE
100
AcDbEntity
  8
0
  6
CONTINUOUS
 62
     7
100
AcDbVertex
100
AcDb2dVertex
 10
8.3653629919
 20
5.883448834
 30
0.0
  0
VERTEX
  5
26E
330
1CE
100
AcDbEntity
  8
0
  6
CONTINUOUS
 62
     7
100
AcDbVertex
100
AcDb2dVertex
 10
8.3698244782
 20
5.8462317103
 30
0.0
  0
VERTEX
  5
26F
330
1CE
100
AcDbEntity
  8
0
  6
CONTINUOUS
 62
     7
100
AcDbVertex
100
AcDb2dVertex
 10
8.3760539868
 20
5.8103532221
 30
0.0
  0
VERTEX
  5
270
330
1CE
100
AcDbEntity
  8
0
  6
CONTINUOUS
 62
     7
100
AcDbVertex
100
AcDb2dVertex
 10
8.3840349981
 20
5.7759085127
 30
0.0
  0
VERTEX
  5
271
330
1CE
100
AcDbEntity
  8
0
  6
CONTINUOUS
 62
     7
100
AcDbVertex
100
AcDb2dVertex
 10
8.3937463479
 20
5.7429889233
 30
0.0
  0
VERTEX
  5
272
330
1CE
100
AcDbEntity
  8
0
  6
CONTINUOUS
 62
     7
100
AcDbVertex
100
AcDb2dVertex
 10
8.4051622834
 20
5.7116817508
 30
0.0
  0
VERTEX
  5
273
330
1CE
100
AcDbEntity
  8
0
  6
CONTINUOUS
 62
     7
100
AcDbVertex
100
AcDb2dVertex
 10
8.4182525317
 20
5.682070016
 30
0.0
  0
VERTEX
  5
274
330
1CE
100
AcDbEntity
  8
0
  6
CONTINUOUS
 62
     7
100
AcDbVertex
100
AcDb2dVertex
 10
8.4329823797
 20
5.6542322441
 30
0.0
  0
VERTEX
  5
275
330
1CE
100
AcDbEntity
  8
0
  6
CONTINUOUS
 62
     7
100
AcDbVertex
100
AcDb2dVertex
 10
8.4493127666
 20
5.6282422558
 30
0.0
  0
VERTEX
  5
276
330
1CE
100
AcDbEntity
  8
0
  6
CONTINUOUS
 62
     7
100
AcDbVertex
100
AcDb2dVertex
 10
8.4672003871
 20
5.6041689718
 30
0.0
  0
VERTEX
  5
277
330
1CE
100
AcDbEntity
  8
0
  6
CONTINUOUS
 62
     7
100
AcDbVertex
100
AcDb2dVertex
 10
8.4865978064
 20
5.5820762302
 30
0.0
  0
VERTEX
  5
278
330
1CE
100
AcDbEntity
  8
0
  6
CONTINUOUS
 62
     7
100
AcDbVertex
100
AcDb2dVertex
 10
8.5074535861
 20
5.562022617
 30
0.0
  0
VERTEX
  5
279
330
1CE
100
AcDbEntity
  8
0
  6
CONTINUOUS
 62
     7
100
AcDbVertex
100
AcDb2dVertex
 10
8.5297124204
 20
5.5440613107
 30
0.0
  0
VERTEX
  5
27A
330
1CE
100
AcDbEntity
  8
0
  6
CONTINUOUS
 62
     7
100
AcDbVertex
100
AcDb2dVertex
 10
8.5533152828
 20
5.5282399414
 30
0.0
  0
VERTEX
  5
27B
330
1CE
100
AcDbEntity
  8
0
  6
CONTINUOUS
 62
     7
100
AcDbVertex
100
AcDb2dVertex
 10
8.5781995829
 20
5.5146004647
 30
0.0
  0
VERTEX
  5
27C
330
1CE
100
AcDbEntity
  8
0
  6
CONTINUOUS
 62
     7
100
AcDbVertex
100
AcDb2dVertex
 10
8.6042993319
 20
5.50317905
 30
0.0
  0
VERTEX
  5
27D
330
1CE
100
AcDbEntity
  8
0
  6
CONTINUOUS
 62
     7
100
AcDbVertex
100
AcDb2dVertex
 10
8.631545318
 20
5.4940059848
 30
0.0
  0
VERTEX
  5
27E
330
1CE
100
AcDbEntity
  8
0
  6
CONTINUOUS
 62
     7
100
AcDbVertex
100
AcDb2dVertex
 10
8.6598652897
 20
5.4871055944
 30
0.0
  0
VERTEX
  5
27F
330
1CE
100
AcDbEntity
  8
0
  6
CONTINUOUS
 62
     7
100
AcDbVertex
100
AcDb2dVertex
 10
8.6891841476
 20
5.4824961774
 30
0.0
  0
VERTEX
  5
280
330
1CE
100
AcDbEntity
  8
0
  6
CONTINUOUS
 62
     7
100
AcDbVertex
100
AcDb2dVertex
 10
8.7194241433
 20
5.4801899571
 30
0.0
  0
VERTEX
  5
281
330
1CE
100
AcDbEntity
  8
0
  6
CONTINUOUS
 62
     7
100
AcDbVertex
100
AcDb2dVertex
 10
8.7505050857
 20
5.4801930493
 30
0.0
  0
VERTEX
  5
282
330
1CE
100
AcDbEntity
  8
0
  6
CONTINUOUS
 62
     7
100
AcDbVertex
100
AcDb2dVertex
 10
8.7823445539
 20
5.4825054457
 30
0.0
  0
VERTEX
  5
283
330
1CE
100
AcDbEntity
  8
0
  6
CONTINUOUS
 62
     7
100
AcDbVertex
100
AcDb2dVertex
 10
8.8148581153
 20
5.4871210144
 30
0.0
  0
VERTEX
  5
284
330
1CE
100
AcDbEntity
  8
0
  6
CONTINUOUS
 62
     7
100
AcDbVertex
100
AcDb2dVertex
 10
8.8479595497
 20
5.4940275155
 30
0.0
  0
VERTEX
  5
285
330
1CE
100
AcDbEntity
  8
0
  6
CONTINUOUS
 62
     7
100
AcDbVertex
100
AcDb2dVertex
 10
8.881561078
 20
5.5032066343
 30
0.0
  0
VERTEX
  5
286
330
1CE
100
AcDbEntity
  8
0
  6
CONTINUOUS
 62
     7
100
AcDbVertex
100
AcDb2dVertex
 10
8.9155735952
 20
5.5146340296
 30
0.0
  0
VERTEX
  5
287
330
1CE
100
AcDbEntity
  8
0
  6
CONTINUOUS
 62
     7
100
AcDbVertex
100
AcDb2dVertex
 10
8.9499069061
 20
5.5282793977
 30
0.0
  0
VERTEX
  5
288
330
1CE
100
AcDbEntity
  8
0
  6
CONTINUOUS
 62
     7
100
AcDbVertex
100
AcDb2dVertex
 10
8.9844699648
 20
5.5441065538
 30
0.0
  0
VERTEX
  5
289
330
1CE
100
AcDbEntity
  8
0
  6
CONTINUOUS
 62
     7
100
AcDbVertex
100
AcDb2dVertex
 10
9.0191711165
 20
5.5620735269
 30
0.0
  0
VERTEX
  5
28A
330
1CE
100
AcDbEntity
  8
0
  6
CONTINUOUS
 62
     7
100
AcDbVertex
100
AcDb2dVertex
 10
9.0539183399
 20
5.582132672
 30
0.0
  0
VERTEX
  5
28B
330
1CE
100
AcDbEntity
  8
0
  6
CONTINUOUS
 62
     7
100
AcDbVertex
100
AcDb2dVertex
 10
9.0886194916
 20
5.6042307958
 30
0.0
  0
VERTEX
  5
28C
330
1CE
100
AcDbEntity
  8
0
  6
CONTINUOUS
 62
     7
100
AcDbVertex
100
AcDb2dVertex
 10
9.1231825504
 20
5.628309298
 30
0.0
  0
VERTEX
  5
28D
330
1CE
100
AcDbEntity
  8
0
  6
CONTINUOUS
 62
     7
100
AcDbVertex
100
AcDb2dVertex
 10
9.1575158613
 20
5.6543043268
 30
0.0
  0
VERTEX
  5
28E
330
1CE
100
AcDbEntity
  8
0
  6
CONTINUOUS
 62
     7
100
AcDbVertex
100
AcDb2dVertex
 10
9.1915283785
 20
5.682146948
 30
0.0
  0
VERTEX
  5
28F
330
1CE
100
AcDbEntity
  8
0
  6
CONTINUOUS
 62
     7
100
AcDbVertex
100
AcDb2dVertex
 10
9.2251299068
 20
5.7117633281
 30
0.0
  0
VERTEX
  5
290
330
1CE
100
AcDbEntity
  8
0
  6
CONTINUOUS
 62
     7
100
AcDbVertex
100
AcDb2dVertex
 10
9.2582313412
 20
5.7430749296
 30
0.0
  0
VERTEX
  5
291
330
1CE
100
AcDbEntity
  8
0
  6
CONTINUOUS
 62
     7
100
AcDbVertex
100
AcDb2dVertex
 10
9.2907449026
 20
5.7759987198
 30
0.0
  0
VERTEX
  5
292
330
1CE
100
AcDbEntity
  8
0
  6
CONTINUOUS
 62
     7
100
AcDbVertex
100
AcDb2dVertex
 10
9.3225843708
 20
5.8104473909
 30
0.0
  0
VERTEX
  5
293
330
1CE
100
AcDbEntity
  8
0
  6
CONTINUOUS
 62
     7
100
AcDbVertex
100
AcDb2dVertex
 10
9.3536653132
 20
5.846329591
 30
0.0
  0
VERTEX
  5
294
330
1CE
100
AcDbEntity
  8
0
  6
CONTINUOUS
 62
     7
100
AcDbVertex
100
AcDb2dVertex
 10
9.3839053089
 20
5.8835501671
 30
0.0
  0
VERTEX
  5
295
330
1CE
100
AcDbEntity
  8
0
  6
CONTINUOUS
 62
     7
100
AcDbVertex
100
AcDb2dVertex
 10
9.4132241668
 20
5.9220104169
 30
0.0
  0
VERTEX
  5
296
330
1CE
100
AcDbEntity
  8
0
  6
CONTINUOUS
 62
     7
100
AcDbVertex
100
AcDb2dVertex
 10
9.4415441385
 20
5.9616083507
 30
0.0
  0
VERTEX
  5
297
330
1CE
100
AcDbEntity
  8
0
  6
CONTINUOUS
 62
     7
100
AcDbVertex
100
AcDb2dVertex
 10
9.4687901246
 20
6.0022389618
 30
0.0
  0
VERTEX
  5
298
330
1CE
100
AcDbEntity
  8
0
  6
CONTINUOUS
 62
     7
100
AcDbVertex
100
AcDb2dVertex
 10
9.4948898736
 20
6.0437945054
 30
0.0
  0
VERTEX
  5
299
330
1CE
100
AcDbEntity
  8
0
  6
CONTINUOUS
 62
     7
100
AcDbVertex
100
AcDb2dVertex
 10
9.5197741737
 20
6.0861647834
 30
0.0
  0
VERTEX
  5
29A
330
1CE
100
AcDbEntity
  8
0
  6
CONTINUOUS
 62
     7
100
AcDbVertex
100
AcDb2dVertex
 10
9.5433770361
 20
6.1292374375
 30
0.0
  0
VERTEX
  5
29B
330
1CE
100
AcDbEntity
  8
0
  6
CONTINUOUS
 62
     7
100
AcDbVertex
100
AcDb2dVertex
 10
9.5656358704
 20
6.1728982468
 30
0.0
  0
VERTEX
  5
29C
330
1CE
100
AcDbEntity
  8
0
  6
CONTINUOUS
 62
     7
100
AcDbVertex
100
AcDb2dVertex
 10
9.5864916501
 20
6.2170314308
 30
0.0
  0
VERTEX
  5
29D
330
1CE
100
AcDbEntity
  8
0
  6
CONTINUOUS
 62
     7
100
AcDbVertex
100
AcDb2dVertex
 10
9.6058890694
 20
6.261519956
 30
0.0
  0
VERTEX
  5
29E
330
1CE
100
AcDbEntity
  8
0
  6
CONTINUOUS
 62
     7
100
AcDbVertex
100
AcDb2dVertex
 10
9.6237766899
 20
6.306245847
 30
0.0
  0
VERTEX
  5
29F
330
1CE
100
AcDbEntity
  8
0
  6
CONTINUOUS
 62
     7
100
AcDbVertex
100
AcDb2dVertex
 10
9.6401070768
 20
6.3510904987
 30
0.0
  0
VERTEX
  5
2A0
330
1CE
100
AcDbEntity
  8
0
  6
CONTINUOUS
 62
     7
100
AcDbVertex
100
AcDb2dVertex
 10
9.6548369248
 20
6.3959349911
 30
0.0
  0
VERTEX
  5
2A1
330
1CE
100
AcDbEntity
  8
0
  6
CONTINUOUS
 62
     7
100
AcDbVertex
100
AcDb2dVertex
 10
9.6679271731
 20
6.4406604048
 30
0.0
  0
VERTEX
  5
2A2
330
1CE
100
AcDbEntity
  8
0
  6
CONTINUOUS
 62
     7
100
AcDbVertex
100
AcDb2dVertex
 10
9.6793431086
 20
6.485148136
 30
0.0
  0
VERTEX
  5
2A3
330
1CE
100
AcDbEntity
  8
0
  6
CONTINUOUS
 62
     7
100
AcDbVertex
100
AcDb2dVertex
 10
9.6890544584
 20
6.5292802112
 30
0.0
  0
VERTEX
  5
2A4
330
1CE
100
AcDbEntity
  8
0
  6
CONTINUOUS
 62
     7
100
AcDbVertex
100
AcDb2dVertex
 10
9.6970354697
 20
6.5729396
 30
0.0
  0
VERTEX
  5
2A5
330
1CE
100
AcDbEntity
  8
0
  6
CONTINUOUS
 62
     7
100
AcDbVertex
100
AcDb2dVertex
 10
9.7032649783
 20
6.6160105257
 30
0.0
  0
VERTEX
  5
2A6
330
1CE
100
AcDbEntity
  8
0
  6
CONTINUOUS
 62
     7
100
AcDbVertex
100
AcDb2dVertex
 10
9.7077264646
 20
6.6583787719
 30
0.0
  0
VERTEX
  5
2A7
330
1CE
100
AcDbEntity
  8
0
  6
CONTINUOUS
 62
     7
100
AcDbVertex
100
AcDb2dVertex
 10
9.7104080976
 20
6.6999319856
 30
0.0
  0
VERTEX
  5
2A8
330
1CE
100
AcDbEntity
  8
0
  6
CONTINUOUS
 62
     7
100
AcDbVertex
100
AcDb2dVertex
 10
9.7113027661
 20
6.7405599751
 30
0.0
  0
SEQEND
  5
2A9
330
1CE
100
AcDbEntity
  8
0
  6
CONTINUOUS
 62
     7
  0
POLYLINE
  5
1CF
330
1F
100
AcDbEntity
  8
0
  6
CONTINUOUS
 62
     7
100
AcDb2dPolyline
 66
     1
 10
0.0
 20
0.0
 30
0.0
  0
VERTEX
  5
2AA
330
1CF
100
AcDbEntity
  8
0
  6
CONTINUOUS
 62
     7
100
AcDbVertex
100
AcDb2dVertex
 10
9.0154446397
 20
5.5596599819
 30
0.0
  0
VERTEX
  5
2AB
330
1CF
100
AcDbEntity
  8
0
  6
CONTINUOUS
 62
     7
100
AcDbVertex
100
AcDb2dVertex
 10
9.0064437252
 20
5.5545293896
 30
0.0
  0
VERTEX
  5
2AC
330
1CF
100
AcDbEntity
  8
0
  6
CONTINUOUS
 62
     7
100
AcDbVertex
100
AcDb2dVertex
 10
8.9709215117
 20
5.5355951743
 30
0.0
  0
VERTEX
  5
2AD
330
1CF
100
AcDbEntity
  8
0
  6
CONTINUOUS
 62
     7
100
AcDbVertex
100
AcDb2dVertex
 10
8.9355151589
 20
5.5188202852
 30
0.0
  0
VERTEX
  5
2AE
330
1CF
100
AcDbEntity
  8
0
  6
CONTINUOUS
 62
     7
100
AcDbVertex
100
AcDb2dVertex
 10
8.9003170378
 20
5.5042484862
 30
0.0
  0
VERTEX
  5
2AF
330
1CF
100
AcDbEntity
  8
0
  6
CONTINUOUS
 62
     7
100
AcDbVertex
100
AcDb2dVertex
 10
8.8654189765
 20
5.4919177933
 30
0.0
  0
VERTEX
  5
2B0
330
1CF
100
AcDbEntity
  8
0
  6
CONTINUOUS
 62
     7
100
AcDbVertex
100
AcDb2dVertex
 10
8.8309120198
 20
5.4818603761
 30
0.0
  0
VERTEX
  5
2B1
330
1CF
100
AcDbEntity
  8
0
  6
CONTINUOUS
 62
     7
100
AcDbVertex
100
AcDb2dVertex
 10
8.7968861926
 20
5.474102473
 30
0.0
  0
VERTEX
  5
2B2
330
1CF
100
AcDbEntity
  8
0
  6
CONTINUOUS
 62
     7
100
AcDbVertex
100
AcDb2dVertex
 10
8.7634302643
 20
5.4686643237
 30
0.0
  0
VERTEX
  5
2B3
330
1CF
100
AcDbEntity
  8
0
  6
CONTINUOUS
 62
     7
100
AcDbVertex
100
AcDb2dVertex
 10
8.7306315176
 20
5.4655601155
 30
0.0
  0
VERTEX
  5
2B4
330
1CF
100
AcDbEntity
  8
0
  6
CONTINUOUS
 62
     7
100
AcDbVertex
100
AcDb2dVertex
 10
8.6985755208
 20
5.4647979471
 30
0.0
  0
VERTEX
  5
2B5
330
1CF
100
AcDbEntity
  8
0
  6
CONTINUOUS
 62
     7
100
AcDbVertex
100
AcDb2dVertex
 10
8.6673459041
 20
5.4663798069
 30
0.0
  0
VERTEX
  5
2B6
330
1CF
100
AcDbEntity
  8
0
  6
CONTINUOUS
 62
     7
100
AcDbVertex
100
AcDb2dVertex
 10
8.6370241423
 20
5.4703015679
 30
0.0
  0
VERTEX
  5
2B7
330
1CF
100
AcDbEntity
  8
0
  6
CONTINUOUS
 62
     7
100
AcDbVertex
100
AcDb2dVertex
 10
8.6076893412
 20
5.4765529987
 30
0.0
  0
VERTEX
  5
2B8
330
1CF
100
AcDbEntity
  8
0
  6
CONTINUOUS
 62
     7
100
AcDbVertex
100
AcDb2dVertex
 10
8.579418032
 20
5.4851177901
 30
0.0
  0
VERTEX
  5
2B9
330
1CF
100
AcDbEntity
  8
0
  6
CONTINUOUS
 62
     7
100
AcDbVertex
100
AcDb2dVertex
 10
8.5522839714
 20
5.4959735975
 30
0.0
  0
VERTEX
  5
2BA
330
1CF
100
AcDbEntity
  8
0
  6
CONTINUOUS
 62
     7
100
AcDbVertex
100
AcDb2dVertex
 10
8.5263579489
 20
5.5090920993
 30
0.0
  0
VERTEX
  5
2BB
330
1CF
100
AcDbEntity
  8
0
  6
CONTINUOUS
 62
     7
100
AcDbVertex
100
AcDb2dVertex
 10
8.5017076027
 20
5.5244390709
 30
0.0
  0
VERTEX
  5
2BC
330
1CF
100
AcDbEntity
  8
0
  6
CONTINUOUS
 62
     7
100
AcDbVertex
100
AcDb2dVertex
 10
8.4783972427
 20
5.5419744738
 30
0.0
  0
VERTEX
  5
2BD
330
1CF
100
AcDbEntity
  8
0
  6
CONTINUOUS
 62
     7
100
AcDbVertex
100
AcDb2dVertex
 10
8.4564876828
 20
5.56165256
 30
0.0
  0
VERTEX
  5
2BE
330
1CF
100
AcDbEntity
  8
0
  6
CONTINUOUS
 62
     7
100
AcDbVertex
100
AcDb2dVertex
 10
8.4360360828
 20
5.5834219918
 30
0.0
  0
VERTEX
  5
2BF
330
1CF
100
AcDbEntity
  8
0
  6
CONTINUOUS
 62
     7
100
AcDbVertex
100
AcDb2dVertex
 10
8.4170957984
 20
5.6072259751
 30
0.0
  0
VERTEX
  5
2C0
330
1CF
100
AcDbEntity
  8
0
  6
CONTINUOUS
 62
     7
100
AcDbVertex
100
AcDb2dVertex
 10
8.3997162428
 20
5.6330024082
 30
0.0
  0
VERTEX
  5
2C1
330
1CF
100
AcDbEntity
  8
0
  6
CONTINUOUS
 62
     7
100
AcDbVertex
100
AcDb2dVertex
 10
8.3839427571
 20
5.6606840431
 30
0.0
  0
VERTEX
  5
2C2
330
1CF
100
AcDbEntity
  8
0
  6
CONTINUOUS
 62
     7
100
AcDbVertex
100
AcDb2dVertex
 10
8.3698164926
 20
5.6901986617
 30
0.0
  0
VERTEX
  5
2C3
330
1CF
100
AcDbEntity
  8
0
  6
CONTINUOUS
 62
     7
100
AcDbVertex
100
AcDb2dVertex
 10
8.3573743031
 20
5.7214692638
 30
0.0
  0
VERTEX
  5
2C4
330
1CF
100
AcDbEntity
  8
0
  6
CONTINUOUS
 62
     7
100
AcDbVertex
100
AcDb2dVertex
 10
8.3466486489
 20
5.7544142678
 30
0.0
  0
VERTEX
  5
2C5
330
1CF
100
AcDbEntity
  8
0
  6
CONTINUOUS
 62
     7
100
AcDbVertex
100
AcDb2dVertex
 10
8.337667512
 20
5.7889477241
 30
0.0
  0
VERTEX
  5
2C6
330
1CF
100
AcDbEntity
  8
0
  6
CONTINUOUS
 62
     7
100
AcDbVertex
100
AcDb2dVertex
 10
8.3304543231
 20
5.8249795387
 30
0.0
  0
VERTEX
  5
2C7
330
1CF
100
AcDbEntity
  8
0
  6
CONTINUOUS
 62
     7
100
AcDbVertex
100
AcDb2dVertex
 10
8.3250279006
 20
5.8624157089
 30
0.0
  0
VERTEX
  5
2C8
330
1CF
100
AcDbEntity
  8
0
  6
CONTINUOUS
 62
     7
100
AcDbVertex
100
AcDb2dVertex
 10
8.3214024015
 20
5.9011585679
 30
0.0
  0
VERTEX
  5
2C9
330
1CF
100
AcDbEntity
  8
0
  6
CONTINUOUS
 62
     7
100
AcDbVertex
100
AcDb2dVertex
 10
8.3195872842
 20
5.9411070399
 30
0.0
  0
VERTEX
  5
2CA
330
1CF
100
AcDbEntity
  8
0
  6
CONTINUOUS
 62
     7
100
AcDbVertex
100
AcDb2dVertex
 10
8.3195872842
 20
5.9821569041
 30
0.0
  0
VERTEX
  5
2CB
330
1CF
100
AcDbEntity
  8
0
  6
CONTINUOUS
 62
     7
100
AcDbVertex
100
AcDb2dVertex
 10
8.3214024015
 20
6.024201066
 30
0.0
  0
VERTEX
  5
2CC
330
1CF
100
AcDbEntity
  8
0
  6
CONTINUOUS
 62
     7
100
AcDbVertex
100
AcDb2dVertex
 10
8.3250279006
 20
6.0671298372
 30
0.0
  0
VERTEX
  5
2CD
330
1CF
100
AcDbEntity
  8
0
  6
CONTINUOUS
 62
     7
100
AcDbVertex
100
AcDb2dVertex
 10
8.3304543231
 20
6.1108312214
 30
0.0
  0
VERTEX
  5
2CE
330
1CF
100
AcDbEntity
  8
0
  6
CONTINUOUS
 62
     7
100
AcDbVertex
100
AcDb2dVertex
 10
8.337667512
 20
6.1551912066
 30
0.0
  0
VERTEX
  5
2CF
330
1CF
100
AcDbEntity
  8
0
  6
CONTINUOUS
 62
     7
100
AcDbVertex
100
AcDb2dVertex
 10
8.3466486489
 20
6.2000940629
 30
0.0
  0
VERTEX
  5
2D0
330
1CF
100
AcDbEntity
  8
0
  6
CONTINUOUS
 62
     7
100
AcDbVertex
100
AcDb2dVertex
 10
8.3573743031
 20
6.2454226437
 30
0.0
  0
VERTEX
  5
2D1
330
1CF
100
AcDbEntity
  8
0
  6
CONTINUOUS
 62
     7
100
AcDbVertex
100
AcDb2dVertex
 10
8.3698164926
 20
6.2910586919
 30
0.0
  0
VERTEX
  5
2D2
330
1CF
100
AcDbEntity
  8
0
  6
CONTINUOUS
 62
     7
100
AcDbVertex
100
AcDb2dVertex
 10
8.3839427571
 20
6.3368831483
 30
0.0
  0
VERTEX
  5
2D3
330
1CF
100
AcDbEntity
  8
0
  6
CONTINUOUS
 62
     7
100
AcDbVertex
100
AcDb2dVertex
 10
8.3997162428
 20
6.3827764622
 30
0.0
  0
VERTEX
  5
2D4
330
1CF
100
AcDbEntity
  8
0
  6
CONTINUOUS
 62
     7
100
AcDbVertex
100
AcDb2dVertex
 10
8.4170957984
 20
6.4286189031
 30
0.0
  0
VERTEX
  5
2D5
330
1CF
100
AcDbEntity
  8
0
  6
CONTINUOUS
 62
     7
100
AcDbVertex
100
AcDb2dVertex
 10
8.4360360828
 20
6.4742908733
 30
0.0
  0
VERTEX
  5
2D6
330
1CF
100
AcDbEntity
  8
0
  6
CONTINUOUS
 62
     7
100
AcDbVertex
100
AcDb2dVertex
 10
8.4564876828
 20
6.5196732199
 30
0.0
  0
VERTEX
  5
2D7
330
1CF
100
AcDbEntity
  8
0
  6
CONTINUOUS
 62
     7
100
AcDbVertex
100
AcDb2dVertex
 10
8.4783972427
 20
6.5646475454
 30
0.0
  0
VERTEX
  5
2D8
330
1CF
100
AcDbEntity
  8
0
  6
CONTINUOUS
 62
     7
100
AcDbVertex
100
AcDb2dVertex
 10
8.5017076027
 20
6.6090965171
 30
0.0
  0
VERTEX
  5
2D9
330
1CF
100
AcDbEntity
  8
0
  6
CONTINUOUS
 62
     7
100
AcDbVertex
100
AcDb2dVertex
 10
8.5263579489
 20
6.6529041727
 30
0.0
  0
VERTEX
  5
2DA
330
1CF
100
AcDbEntity
  8
0
  6
CONTINUOUS
 62
     7
100
AcDbVertex
100
AcDb2dVertex
 10
8.5522839714
 20
6.6959562229
 30
0.0
  0
VERTEX
  5
2DB
330
1CF
100
AcDbEntity
  8
0
  6
CONTINUOUS
 62
     7
100
AcDbVertex
100
AcDb2dVertex
 10
8.579418032
 20
6.7381403498
 30
0.0
  0
VERTEX
  5
2DC
330
1CF
100
AcDbEntity
  8
0
  6
CONTINUOUS
 62
     7
100
AcDbVertex
100
AcDb2dVertex
 10
8.6076893412
 20
6.7793465
 30
0.0
  0
VERTEX
  5
2DD
330
1CF
100
AcDbEntity
  8
0
  6
CONTINUOUS
 62
     7
100
AcDbVertex
100
AcDb2dVertex
 10
8.6370241423
 20
6.8194671713
 30
0.0
  0
VERTEX
  5
2DE
330
1CF
100
AcDbEntity
  8
0
  6
CONTINUOUS
 62
     7
100
AcDbVertex
100
AcDb2dVertex
 10
8.6673459041
 20
6.8583976933
 30
0.0
  0
VERTEX
  5
2DF
330
1CF
100
AcDbEntity
  8
0
  6
CONTINUOUS
 62
     7
100
AcDbVertex
100
AcDb2dVertex
 10
8.6985755208
 20
6.8960365009
 30
0.0
  0
VERTEX
  5
2E0
330
1CF
100
AcDbEntity
  8
0
  6
CONTINUOUS
 62
     7
100
AcDbVertex
100
AcDb2dVertex
 10
8.7306315176
 20
6.9322853987
 30
0.0
  0
VERTEX
  5
2E1
330
1CF
100
AcDbEntity
  8
0
  6
CONTINUOUS
 62
     7
100
AcDbVertex
100
AcDb2dVertex
 10
8.7634302643
 20
6.9670498174
 30
0.0
  0
VERTEX
  5
2E2
330
1CF
100
AcDbEntity
  8
0
  6
CONTINUOUS
 62
     7
100
AcDbVertex
100
AcDb2dVertex
 10
8.7968861926
 20
7.0002390606
 30
0.0
  0
VERTEX
  5
2E3
330
1CF
100
AcDbEntity
  8
0
  6
CONTINUOUS
 62
     7
100
AcDbVertex
100
AcDb2dVertex
 10
8.8309120198
 20
7.0317665415
 30
0.0
  0
VERTEX
  5
2E4
330
1CF
100
AcDbEntity
  8
0
  6
CONTINUOUS
 62
     7
100
AcDbVertex
100
AcDb2dVertex
 10
8.8654189765
 20
7.0615500083
 30
0.0
  0
VERTEX
  5
2E5
330
1CF
100
AcDbEntity
  8
0
  6
CONTINUOUS
 62
     7
100
AcDbVertex
100
AcDb2dVertex
 10
8.9003170378
 20
7.0895117595
 30
0.0
  0
VERTEX
  5
2E6
330
1CF
100
AcDbEntity
  8
0
  6
CONTINUOUS
 62
     7
100
AcDbVertex
100
AcDb2dVertex
 10
8.9355151589
 20
7.115578846
 30
0.0
  0
VERTEX
  5
2E7
330
1CF
100
AcDbEntity
  8
0
  6
CONTINUOUS
 62
     7
100
AcDbVertex
100
AcDb2dVertex
 10
8.9709215117
 20
7.1396832618
 30
0.0
  0
VERTEX
  5
2E8
330
1CF
100
AcDbEntity
  8
0
  6
CONTINUOUS
 62
     7
100
AcDbVertex
100
AcDb2dVertex
 10
9.0064437252
 20
7.1617621212
 30
0.0
  0
VERTEX
  5
2E9
330
1CF
100
AcDbEntity
  8
0
  6
CONTINUOUS
 62
     7
100
AcDbVertex
100
AcDb2dVertex
 10
9.0419891259
 20
7.1817578229
 30
0.0
  0
VERTEX
  5
2EA
330
1CF
100
AcDbEntity
  8
0
  6
CONTINUOUS
 62
     7
100
AcDbVertex
100
AcDb2dVertex
 10
9.07746498
 20
7.1996182005
 30
0.0
  0
VERTEX
  5
2EB
330
1CF
100
AcDbEntity
  8
0
  6
CONTINUOUS
 62
     7
100
AcDbVertex
100
AcDb2dVertex
 10
9.112778735
 20
7.2152966583
 30
0.0
  0
VERTEX
  5
2EC
330
1CF
100
AcDbEntity
  8
0
  6
CONTINUOUS
 62
     7
100
AcDbVertex
100
AcDb2dVertex
 10
9.1478382614
 20
7.228752293
 30
0.0
  0
VERTEX
  5
2ED
330
1CF
100
AcDbEntity
  8
0
  6
CONTINUOUS
 62
     7
100
AcDbVertex
100
AcDb2dVertex
 10
9.1825520928
 20
7.2399500003
 30
0.0
  0
VERTEX
  5
2EE
330
1CF
100
AcDbEntity
  8
0
  6
CONTINUOUS
 62
     7
100
AcDbVertex
100
AcDb2dVertex
 10
9.2168296649
 20
7.2488605668
 30
0.0
  0
VERTEX
  5
2EF
330
1CF
100
AcDbEntity
  8
0
  6
CONTINUOUS
 62
     7
100
AcDbVertex
100
AcDb2dVertex
 10
9.2505815513
 20
7.2554607457
 30
0.0
  0
VERTEX
  5
2F0
330
1CF
100
AcDbEntity
  8
0
  6
CONTINUOUS
 62
     7
100
AcDbVertex
100
AcDb2dVertex
 10
9.2837196972
 20
7.259733318
 30
0.0
  0
VERTEX
  5
2F1
330
1CF
100
AcDbEntity
  8
0
  6
CONTINUOUS
 62
     7
100
AcDbVertex
100
AcDb2dVertex
 10
9.3161576491
 20
7.261667137
 30
0.0
  0
VERTEX
  5
2F2
330
1CF
100
AcDbEntity
  8
0
  6
CONTINUOUS
 62
     7
100
AcDbVertex
100
AcDb2dVertex
 10
9.3478107799
 20
7.2612571576
 30
0.0
  0
VERTEX
  5
2F3
330
1CF
100
AcDbEntity
  8
0
  6
CONTINUOUS
 62
     7
100
AcDbVertex
100
AcDb2dVertex
 10
9.3785965103
 20
7.2585044494
 30
0.0
  0
VERTEX
  5
2F4
330
1CF
100
AcDbEntity
  8
0
  6
CONTINUOUS
 62
     7
100
AcDbVertex
100
AcDb2dVertex
 10
9.4084345239
 20
7.2534161939
 30
0.0
  0
VERTEX
  5
2F5
330
1CF
100
AcDbEntity
  8
0
  6
CONTINUOUS
 62
     7
100
AcDbVertex
100
AcDb2dVertex
 10
9.4372469766
 20
7.2460056658
 30
0.0
  0
VERTEX
  5
2F6
330
1CF
100
AcDbEntity
  8
0
  6
CONTINUOUS
 62
     7
100
AcDbVertex
100
AcDb2dVertex
 10
9.4649587001
 20
7.2362921982
 30
0.0
  0
VERTEX
  5
2F7
330
1CF
100
AcDbEntity
  8
0
  6
CONTINUOUS
 62
     7
100
AcDbVertex
100
AcDb2dVertex
 10
9.4914973976
 20
7.2243011325
 30
0.0
  0
VERTEX
  5
2F8
330
1CF
100
AcDbEntity
  8
0
  6
CONTINUOUS
 62
     7
100
AcDbVertex
100
AcDb2dVertex
 10
9.5167938327
 20
7.2100637521
 30
0.0
  0
VERTEX
  5
2F9
330
1CF
100
AcDbEntity
  8
0
  6
CONTINUOUS
 62
     7
100
AcDbVertex
100
AcDb2dVertex
 10
9.5407820099
 20
7.1936172006
 30
0.0
  0
VERTEX
  5
2FA
330
1CF
100
AcDbEntity
  8
0
  6
CONTINUOUS
 62
     7
100
AcDbVertex
100
AcDb2dVertex
 10
9.5633993468
 20
7.1750043852
 30
0.0
  0
VERTEX
  5
2FB
330
1CF
100
AcDbEntity
  8
0
  6
CONTINUOUS
 62
     7
100
AcDbVertex
100
AcDb2dVertex
 10
9.5845868373
 20
7.1542738646
 30
0.0
  0
VERTEX
  5
2FC
330
1CF
100
AcDbEntity
  8
0
  6
CONTINUOUS
 62
     7
100
AcDbVertex
100
AcDb2dVertex
 10
9.6042892057
 20
7.1314797225
 30
0.0
  0
VERTEX
  5
2FD
330
1CF
100
AcDbEntity
  8
0
  6
CONTINUOUS
 62
     7
100
AcDbVertex
100
AcDb2dVertex
 10
9.6224550508
 20
7.106681426
 30
0.0
  0
VERTEX
  5
2FE
330
1CF
100
AcDbEntity
  8
0
  6
CONTINUOUS
 62
     7
100
AcDbVertex
100
AcDb2dVertex
 10
9.6390369799
 20
7.0799436711
 30
0.0
  0
VERTEX
  5
2FF
330
1CF
100
AcDbEntity
  8
0
  6
CONTINUOUS
 62
     7
100
AcDbVertex
100
AcDb2dVertex
 10
9.6539917327
 20
7.0513362136
 30
0.0
  0
VERTEX
  5
300
330
1CF
100
AcDbEntity
  8
0
  6
CONTINUOUS
 62
     7
100
AcDbVertex
100
AcDb2dVertex
 10
9.6672802939
 20
7.0209336871
 30
0.0
  0
VERTEX
  5
301
330
1CF
100
AcDbEntity
  8
0
  6
CONTINUOUS
 62
     7
100
AcDbVertex
100
AcDb2dVertex
 10
9.6788679953
 20
6.9888154082
 30
0.0
  0
VERTEX
  5
302
330
1CF
100
AcDbEntity
  8
0
  6
CONTINUOUS
 62
     7
100
AcDbVertex
100
AcDb2dVertex
 10
9.6887246057
 20
6.9550651699
 30
0.0
  0
VERTEX
  5
303
330
1CF
100
AcDbEntity
  8
0
  6
CONTINUOUS
 62
     7
100
AcDbVertex
100
AcDb2dVertex
 10
9.6968244105
 20
6.9197710228
 30
0.0
  0
VERTEX
  5
304
330
1CF
100
AcDbEntity
  8
0
  6
CONTINUOUS
 62
     7
100
AcDbVertex
100
AcDb2dVertex
 10
9.7031462781
 20
6.8830250452
 30
0.0
  0
VERTEX
  5
305
330
1CF
100
AcDbEntity
  8
0
  6
CONTINUOUS
 62
     7
100
AcDbVertex
100
AcDb2dVertex
 10
9.7076737156
 20
6.8449231031
 30
0.0
  0
VERTEX
  5
306
330
1CF
100
AcDbEntity
  8
0
  6
CONTINUOUS
 62
     7
100
AcDbVertex
100
AcDb2dVertex
 10
9.7103949114
 20
6.8055646003
 30
0.0
  0
VERTEX
  5
307
330
1CF
100
AcDbEntity
  8
0
  6
CONTINUOUS
 62
     7
100
AcDbVertex
100
AcDb2dVertex
 10
9.7113027661
 20
6.7650522185
 30
0.0
  0
VERTEX
  5
308
330
1CF
100
AcDbEntity
  8
0
  6
CONTINUOUS
 62
     7
100
AcDbVertex
100
AcDb2dVertex
 10
9.7113027661
 20
6.7650522185
 30
0.0
  0
SEQEND
  5
309
330
1CF
100
AcDbEntity
  8
0
  6
CONTINUOUS
 62
     7
  0
POLYLINE
  5
1D0
330
1F
100
AcDbEntity
  8
0
  6
CONTINUOUS
 62
     7
100
AcDb2dPolyline
 66
     1
 10
0.0
 20
0.0
 30
0.0
  0
VERTEX
  5
30A
330
1D0
100
AcDbEntity
  8
0
  6
CONTINUOUS
 62
     7
100
AcDbVertex
100
AcDb2dVertex
 10
7.8238352437
 20
8.1875982282
 30
0.0
  0
VERTEX
  5
30B
330
1D0
100
AcDbEntity
  8
0
  6
CONTINUOUS
 62
     7
100
AcDbVertex
100
AcDb2dVertex
 10
7.807915126
 20
8.1962124902
 30
0.0
  0
VERTEX
  5
30C
330
1D0
100
AcDbEntity
  8
0
  6
CONTINUOUS
 62
     7
100
AcDbVertex
100
AcDb2dVertex
 10
7.7813764285
 20
8.2082035559
 30
0.0
  0
VERTEX
  5
30D
330
1D0
100
AcDbEntity
  8
0
  6
CONTINUOUS
 62
     7
100
AcDbVertex
100
AcDb2dVertex
 10
7.753664705
 20
8.2179170234
 30
0.0
  0
VERTEX
  5
30E
330
1D0
100
AcDbEntity
  8
0
  6
CONTINUOUS
 62
     7
100
AcDbVertex
100
AcDb2dVertex
 10
7.7248522523
 20
8.2253275516
 30
0.0
  0
VERTEX
  5
30F
330
1D0
100
AcDbEntity
  8
0
  6
CONTINUOUS
 62
     7
100
AcDbVertex
100
AcDb2dVertex
 10
7.6950142387
 20
8.2304158071
 30
0.0
  0
VERTEX
  5
310
330
1D0
100
AcDbEntity
  8
0
  6
CONTINUOUS
 62
     7
100
AcDbVertex
100
AcDb2dVertex
 10
7.6642285083
 20
8.2331685153
 30
0.0
  0
VERTEX
  5
311
330
1D0
100
AcDbEntity
  8
0
  6
CONTINUOUS
 62
     7
100
AcDbVertex
100
AcDb2dVertex
 10
7.6325753774
 20
8.2335784947
 30
0.0
  0
VERTEX
  5
312
330
1D0
100
AcDbEntity
  8
0
  6
CONTINUOUS
 62
     7
100
AcDbVertex
100
AcDb2dVertex
 10
7.6001374256
 20
8.2316446757
 30
0.0
  0
VERTEX
  5
313
330
1D0
100
AcDbEntity
  8
0
  6
CONTINUOUS
 62
     7
100
AcDbVertex
100
AcDb2dVertex
 10
7.5669992796
 20
8.2273721034
 30
0.0
  0
VERTEX
  5
314
330
1D0
100
AcDbEntity
  8
0
  6
CONTINUOUS
 62
     7
100
AcDbVertex
100
AcDb2dVertex
 10
7.5332473932
 20
8.2207719245
 30
0.0
  0
VERTEX
  5
315
330
1D0
100
AcDbEntity
  8
0
  6
CONTINUOUS
 62
     7
100
AcDbVertex
100
AcDb2dVertex
 10
7.4989698212
 20
8.211861358
 30
0.0
  0
VERTEX
  5
316
330
1D0
100
AcDbEntity
  8
0
  6
CONTINUOUS
 62
     7
100
AcDbVertex
100
AcDb2dVertex
 10
7.4642559898
 20
8.2006636507
 30
0.0
  0
VERTEX
  5
317
330
1D0
100
AcDbEntity
  8
0
  6
CONTINUOUS
 62
     7
100
AcDbVertex
100
AcDb2dVertex
 10
7.4291964634
 20
8.187208016
 30
0.0
  0
VERTEX
  5
318
330
1D0
100
AcDbEntity
  8
0
  6
CONTINUOUS
 62
     7
100
AcDbVertex
100
AcDb2dVertex
 10
7.3938827084
 20
8.1715295582
 30
0.0
  0
VERTEX
  5
319
330
1D0
100
AcDbEntity
  8
0
  6
CONTINUOUS
 62
     7
100
AcDbVertex
100
AcDb2dVertex
 10
7.3584068543
 20
8.1536691806
 30
0.0
  0
VERTEX
  5
31A
330
1D0
100
AcDbEntity
  8
0
  6
CONTINUOUS
 62
     7
100
AcDbVertex
100
AcDb2dVertex
 10
7.3228614536
 20
8.1336734788
 30
0.0
  0
VERTEX
  5
31B
330
1D0
100
AcDbEntity
  8
0
  6
CONTINUOUS
 62
     7
100
AcDbVertex
100
AcDb2dVertex
 10
7.2873392401
 20
8.1115946195
 30
0.0
  0
VERTEX
  5
31C
330
1D0
100
AcDbEntity
  8
0
  6
CONTINUOUS
 62
     7
100
AcDbVertex
100
AcDb2dVertex
 10
7.2519328873
 20
8.0874902037
 30
0.0
  0
VERTEX
  5
31D
330
1D0
100
AcDbEntity
  8
0
  6
CONTINUOUS
 62
     7
100
AcDbVertex
100
AcDb2dVertex
 10
7.2167347662
 20
8.0614231172
 30
0.0
  0
VERTEX
  5
31E
330
1D0
100
AcDbEntity
  8
0
  6
CONTINUOUS
 62
     7
100
AcDbVertex
100
AcDb2dVertex
 10
7.1818367048
 20
8.033461366
 30
0.0
  0
VERTEX
  5
31F
330
1D0
100
AcDbEntity
  8
0
  6
CONTINUOUS
 62
     7
100
AcDbVertex
100
AcDb2dVertex
 10
7.1473297482
 20
8.0036778992
 30
0.0
  0
VERTEX
  5
320
330
1D0
100
AcDbEntity
  8
0
  6
CONTINUOUS
 62
     7
100
AcDbVertex
100
AcDb2dVertex
 10
7.113303921
 20
7.9721504183
 30
0.0
  0
VERTEX
  5
321
330
1D0
100
AcDbEntity
  8
0
  6
CONTINUOUS
 62
     7
100
AcDbVertex
100
AcDb2dVertex
 10
7.0798479927
 20
7.9389611751
 30
0.0
  0
VERTEX
  5
322
330
1D0
100
AcDbEntity
  8
0
  6
CONTINUOUS
 62
     7
100
AcDbVertex
100
AcDb2dVertex
 10
7.047049246
 20
7.9041967564
 30
0.0
  0
VERTEX
  5
323
330
1D0
100
AcDbEntity
  8
0
  6
CONTINUOUS
 62
     7
100
AcDbVertex
100
AcDb2dVertex
 10
7.0149932491
 20
7.8679478586
 30
0.0
  0
VERTEX
  5
324
330
1D0
100
AcDbEntity
  8
0
  6
CONTINUOUS
 62
     7
100
AcDbVertex
100
AcDb2dVertex
 10
6.9837636325
 20
7.830309051
 30
0.0
  0
VERTEX
  5
325
330
1D0
100
AcDbEntity
  8
0
  6
CONTINUOUS
 62
     7
100
AcDbVertex
100
AcDb2dVertex
 10
6.9534418707
 20
7.791378529
 30
0.0
  0
VERTEX
  5
326
330
1D0
100
AcDbEntity
  8
0
  6
CONTINUOUS
 62
     7
100
AcDbVertex
100
AcDb2dVertex
 10
6.9241070696
 20
7.7512578577
 30
0.0
  0
VERTEX
  5
327
330
1D0
100
AcDbEntity
  8
0
  6
CONTINUOUS
 62
     7
100
AcDbVertex
100
AcDb2dVertex
 10
6.8958357604
 20
7.7100517075
 30
0.0
  0
VERTEX
  5
328
330
1D0
100
AcDbEntity
  8
0
  6
CONTINUOUS
 62
     7
100
AcDbVertex
100
AcDb2dVertex
 10
6.8687016998
 20
7.6678675806
 30
0.0
  0
VERTEX
  5
329
330
1D0
100
AcDbEntity
  8
0
  6
CONTINUOUS
 62
     7
100
AcDbVertex
100
AcDb2dVertex
 10
6.8427756773
 20
7.6248155304
 30
0.0
  0
VERTEX
  5
32A
330
1D0
100
AcDbEntity
  8
0
  6
CONTINUOUS
 62
     7
100
AcDbVertex
100
AcDb2dVertex
 10
6.8181253311
 20
7.5810078748
 30
0.0
  0
VERTEX
  5
32B
330
1D0
100
AcDbEntity
  8
0
  6
CONTINUOUS
 62
     7
100
AcDbVertex
100
AcDb2dVertex
 10
6.794814971
 20
7.5365589031
 30
0.0
  0
VERTEX
  5
32C
330
1D0
100
AcDbEntity
  8
0
  6
CONTINUOUS
 62
     7
100
AcDbVertex
100
AcDb2dVertex
 10
6.7729054112
 20
7.4915845776
 30
0.0
  0
VERTEX
  5
32D
330
1D0
100
AcDbEntity
  8
0
  6
CONTINUOUS
 62
     7
100
AcDbVertex
100
AcDb2dVertex
 10
6.7524538112
 20
7.446202231
 30
0.0
  0
VERTEX
  5
32E
330
1D0
100
AcDbEntity
  8
0
  6
CONTINUOUS
 62
     7
100
AcDbVertex
100
AcDb2dVertex
 10
6.7335135268
 20
7.4005302608
 30
0.0
  0
VERTEX
  5
32F
330
1D0
100
AcDbEntity
  8
0
  6
CONTINUOUS
 62
     7
100
AcDbVertex
100
AcDb2dVertex
 10
6.7161339711
 20
7.3546878199
 30
0.0
  0
VERTEX
  5
330
330
1D0
100
AcDbEntity
  8
0
  6
CONTINUOUS
 62
     7
100
AcDbVertex
100
AcDb2dVertex
 10
6.7003604855
 20
7.308794506
 30
0.0
  0
VERTEX
  5
331
330
1D0
100
AcDbEntity
  8
0
  6
CONTINUOUS
 62
     7
100
AcDbVertex
100
AcDb2dVertex
 10
6.686234221
 20
7.2629700496
 30
0.0
  0
VERTEX
  5
332
330
1D0
100
AcDbEntity
  8
0
  6
CONTINUOUS
 62
     7
100
AcDbVertex
100
AcDb2dVertex
 10
6.6737920315
 20
7.2173340014
 30
0.0
  0
VERTEX
  5
333
330
1D0
100
AcDbEntity
  8
0
  6
CONTINUOUS
 62
     7
100
AcDbVertex
100
AcDb2dVertex
 10
6.6630663773
 20
7.1720054206
 30
0.0
  0
VERTEX
  5
334
330
1D0
100
AcDbEntity
  8
0
  6
CONTINUOUS
 62
     7
100
AcDbVertex
100
AcDb2dVertex
 10
6.6540852404
 20
7.1271025643
 30
0.0
  0
VERTEX
  5
335
330
1D0
100
AcDbEntity
  8
0
  6
CONTINUOUS
 62
     7
100
AcDbVertex
100
AcDb2dVertex
 10
6.6468720515
 20
7.0827425791
 30
0.0
  0
VERTEX
  5
336
330
1D0
100
AcDbEntity
  8
0
  6
CONTINUOUS
 62
     7
100
AcDbVertex
100
AcDb2dVertex
 10
6.641445629
 20
7.0390411949
 30
0.0
  0
VERTEX
  5
337
330
1D0
100
AcDbEntity
  8
0
  6
CONTINUOUS
 62
     7
100
AcDbVertex
100
AcDb2dVertex
 10
6.6378201299
 20
6.9961124237
 30
0.0
  0
VERTEX
  5
338
330
1D0
100
AcDbEntity
  8
0
  6
CONTINUOUS
 62
     7
100
AcDbVertex
100
AcDb2dVertex
 10
6.6360050126
 20
6.9540682618
 30
0.0
  0
VERTEX
  5
339
330
1D0
100
AcDbEntity
  8
0
  6
CONTINUOUS
 62
     7
100
AcDbVertex
100
AcDb2dVertex
 10
6.6360050126
 20
6.9130183976
 30
0.0
  0
VERTEX
  5
33A
330
1D0
100
AcDbEntity
  8
0
  6
CONTINUOUS
 62
     7
100
AcDbVertex
100
AcDb2dVertex
 10
6.6378201299
 20
6.8730699255
 30
0.0
  0
VERTEX
  5
33B
330
1D0
100
AcDbEntity
  8
0
  6
CONTINUOUS
 62
     7
100
AcDbVertex
100
AcDb2dVertex
 10
6.641445629
 20
6.8343270666
 30
0.0
  0
VERTEX
  5
33C
330
1D0
100
AcDbEntity
  8
0
  6
CONTINUOUS
 62
     7
100
AcDbVertex
100
AcDb2dVertex
 10
6.6468720515
 20
6.7968908964
 30
0.0
  0
VERTEX
  5
33D
330
1D0
100
AcDbEntity
  8
0
  6
CONTINUOUS
 62
     7
100
AcDbVertex
100
AcDb2dVertex
 10
6.6540852404
 20
6.7608590818
 30
0.0
  0
VERTEX
  5
33E
330
1D0
100
AcDbEntity
  8
0
  6
CONTINUOUS
 62
     7
100
AcDbVertex
100
AcDb2dVertex
 10
6.6630663773
 20
6.7263256255
 30
0.0
  0
VERTEX
  5
33F
330
1D0
100
AcDbEntity
  8
0
  6
CONTINUOUS
 62
     7
100
AcDbVertex
100
AcDb2dVertex
 10
6.6737920315
 20
6.6933806215
 30
0.0
  0
VERTEX
  5
340
330
1D0
100
AcDbEntity
  8
0
  6
CONTINUOUS
 62
     7
100
AcDbVertex
100
AcDb2dVertex
 10
6.686234221
 20
6.6621100194
 30
0.0
  0
VERTEX
  5
341
330
1D0
100
AcDbEntity
  8
0
  6
CONTINUOUS
 62
     7
100
AcDbVertex
100
AcDb2dVertex
 10
6.7003604855
 20
6.6325954008
 30
0.0
  0
VERTEX
  5
342
330
1D0
100
AcDbEntity
  8
0
  6
CONTINUOUS
 62
     7
100
AcDbVertex
100
AcDb2dVertex
 10
6.7161339711
 20
6.6049137658
 30
0.0
  0
VERTEX
  5
343
330
1D0
100
AcDbEntity
  8
0
  6
CONTINUOUS
 62
     7
100
AcDbVertex
100
AcDb2dVertex
 10
6.7335135268
 20
6.5791373328
 30
0.0
  0
VERTEX
  5
344
330
1D0
100
AcDbEntity
  8
0
  6
CONTINUOUS
 62
     7
100
AcDbVertex
100
AcDb2dVertex
 10
6.7524538112
 20
6.5553333495
 30
0.0
  0
VERTEX
  5
345
330
1D0
100
AcDbEntity
  8
0
  6
CONTINUOUS
 62
     7
100
AcDbVertex
100
AcDb2dVertex
 10
6.7729054112
 20
6.5335639177
 30
0.0
  0
VERTEX
  5
346
330
1D0
100
AcDbEntity
  8
0
  6
CONTINUOUS
 62
     7
100
AcDbVertex
100
AcDb2dVertex
 10
6.794814971
 20
6.5138858315
 30
0.0
  0
VERTEX
  5
347
330
1D0
100
AcDbEntity
  8
0
  6
CONTINUOUS
 62
     7
100
AcDbVertex
100
AcDb2dVertex
 10
6.8181253311
 20
6.4963504286
 30
0.0
  0
VERTEX
  5
348
330
1D0
100
AcDbEntity
  8
0
  6
CONTINUOUS
 62
     7
100
AcDbVertex
100
AcDb2dVertex
 10
6.8396632627
 20
6.482777633
 30
0.0
  0
SEQEND
  5
349
330
1D0
100
AcDbEntity
  8
0
  6
CONTINUOUS
 62
     7
  0
SPLINE
  5
1D1
330
1F
100
AcDbEntity
  8
0
  6
CONTINUOUS
 62
     7
100
AcDbSpline
210
0.0
220
0.0
230
1.0
 70
     8
 71
     3
 72
    32
 73
    28
 74
     0
 42
0.00000001
 43
0.00000001
 40
-0.1567457381496578
 40
-0.1256937459801331
 40
-0.0629861369658155
 40
0.0
 40
0.0631037282750016
 40
0.1258268593656513
 40
0.1679790504343374
 40
0.208274313134353
 40
0.2498650350182281
 40
0.2804427750890034
 40
0.3115804050631772
 40
0.3427244805230276
 40
0.3737497582669433
 40
0.4049181236973024
 40
0.4366819192213072
 40
0.4685677594074877
 40
0.5001132484817964
 40
0.5427654337178272
 40
0.5838371767490762
 40
0.6262701724412402
 40
0.6684759873496251
 40
0.7087790913371022
 40
0.7503296360545012
 40
0.7809322735754775
 40
0.8120987900456026
 40
0.8432542618503421
 40
0.8743062540198668
 40
0.9370138630341844
 40
0.9999999999999999
 40
1.063103728275002
 40
1.125826859365651
 40
1.167979050434337
 10
7.387366507266229
 20
8.055557511275003
 30
0.0
 10
7.423397110422108
 20
8.086541333020806
 30
0.0
 10
7.474300851061126
 20
8.105664220296497
 30
0.0
 10
7.528799409618411
 20
8.108145868374605
 30
0.0
 10
7.575603792116775
 20
8.102228825995478
 30
0.0
 10
7.613138142085082
 20
8.091519602403249
 30
0.0
 10
7.642024671318119
 20
8.077872204423224
 30
0.0
 10
7.663295637130307
 20
8.063367511172352
 30
0.0
 10
7.677087753259682
 20
8.049085431738217
 30
0.0
 10
7.685673514199701
 20
8.034061797309205
 30
0.0
 10
7.688212549506794
 20
8.018689817614167
 30
0.0
 10
7.684806408735397
 20
8.003253148959235
 30
0.0
 10
7.675388880639853
 20
7.988101388550633
 30
0.0
 10
7.660819345594602
 20
7.973529359530935
 30
0.0
 10
7.63886540076371
 20
7.958695888461868
 30
0.0
 10
7.609454690110267
 20
7.944556490848512
 30
0.0
 10
7.571627161993816
 20
7.933303497658812
 30
0.0
 10
7.531154944355774
 20
7.927711081463921
 30
0.0
 10
7.490806048450584
 20
7.927331921929805
 30
0.0
 10
7.453285636838432
 20
7.934108866316717
 30
0.0
 10
7.424406586134399
 20
7.946577827098177
 30
0.0
 10
7.403156805738924
 20
7.96196728149389
 30
0.0
 10
7.389385031623458
 20
7.978598894210029
 30
0.0
 10
7.380796540195595
 20
7.997014200419018
 30
0.0
 10
7.377525351502031
 20
8.022870594733112
 30
0.0
 10
7.387366507266229
 20
8.055557511275003
 30
0.0
 10
7.423397110422108
 20
8.086541333020806
 30
0.0
 10
7.474300851061126
 20
8.105664220296497
 30
0.0
  0
SPLINE
  5
1D2
330
1F
100
AcDbEntity
  8
0
  6
CONTINUOUS
 62
     7
100
AcDbSpline
210
0.0
220
0.0
230
1.0
 70
     8
 71
     3
 72
    32
 73
    28
 74
     0
 42
0.00000001
 43
0.00000001
 40
-0.156745738149719
 40
-0.1256937459801324
 40
-0.0629861369658145
 40
0.0
 40
0.0631037282750649
 40
0.12582685936566
 40
0.1679790504344501
 40
0.2082743131344656
 40
0.2498650350182372
 40
0.2804427750889568
 40
0.3115804050631786
 40
0.3427244805229736
 40
0.3737497582669511
 40
0.4049181236971411
 40
0.4366819192213041
 40
0.4685677594072672
 40
0.5001132484818009
 40
0.5427654337179196
 40
0.5838371767491682
 40
0.6262701724412614
 40
0.6684759873497136
 40
0.7087790913371901
 40
0.7503296360545026
 40
0.7809322735754178
 40
0.8120987900456011
 40
0.8432542618502809
 40
0.8743062540198675
 40
0.9370138630341854
 40
0.9999999999999999
 40
1.063103728275065
 40
1.12582685936566
 40
1.16797905043445
 10
8.667953591304851
 20
7.316290323404046
 30
0.0
 10
8.703984194460753
 20
7.347274145149855
 30
0.0
 10
8.754887935099756
 20
7.366397032425562
 30
0.0
 10
8.809386493657092
 20
7.368878680503647
 30
0.0
 10
8.856190876155464
 20
7.362961638124498
 30
0.0
 10
8.89372522612378
 20
7.352252414532277
 30
0.0
 10
8.922611755356765
 20
7.33860501655226
 30
0.0
 10
8.943882721168881
 20
7.324100323301391
 30
0.0
 10
8.957674837298297
 20
7.309818243867277
 30
0.0
 10
8.966260598238371
 20
7.294794609438258
 30
0.0
 10
8.968799633545427
 20
7.279422629743244
 30
0.0
 10
8.965393492773956
 20
7.263985961088317
 30
0.0
 10
8.955975964678533
 20
7.248834200679734
 30
0.0
 10
8.941406429633323
 20
7.234262171659988
 30
0.0
 10
8.919452484802356
 20
7.219428700590935
 30
0.0
 10
8.890041774148866
 20
7.205289302977523
 30
0.0
 10
8.852214246032405
 20
7.194036309787811
 30
0.0
 10
8.811742028394354
 20
7.188443893592958
 30
0.0
 10
8.771393132489175
 20
7.188064734058887
 30
0.0
 10
8.733872720877029
 20
7.194841678445788
 30
0.0
 10
8.704993670173016
 20
7.207310639227219
 30
0.0
 10
8.683743889777578
 20
7.22270009362293
 30
0.0
 10
8.6699721156621
 20
7.239331706339047
 30
0.0
 10
8.661383624234206
 20
7.257747012548044
 30
0.0
 10
8.658112435540666
 20
7.283603406862142
 30
0.0
 10
8.667953591304851
 20
7.316290323404046
 30
0.0
 10
8.703984194460753
 20
7.347274145149855
 30
0.0
 10
8.754887935099756
 20
7.366397032425562
 30
0.0
  0
POLYLINE
  5
1D3
330
1F
100
AcDbEntity
  8
0
  6
CONTINUOUS
 62
     7
100
AcDb2dPolyline
 66
     1
 10
0.0
 20
0.0
 30
0.0
  0
VERTEX
  5
34A
330
1D3
100
AcDbEntity
  8
0
  6
CONTINUOUS
 62
     7
100
AcDbVertex
100
AcDb2dVertex
 10
9.2804687289
 20
6.4918447795
 30
0.0
  0
VERTEX
  5
34B
330
1D3
100
AcDbEntity
  8
0
  6
CONTINUOUS
 62
     7
100
AcDbVertex
100
AcDb2dVertex
 10
9.2795657649
 20
6.4671094235
 30
0.0
  0
VERTEX
  5
34C
330
1D3
100
AcDbEntity
  8
0
  6
CONTINUOUS
 62
     7
100
AcDbVertex
100
AcDb2dVertex
 10
9.2768635582
 20
6.4415146595
 30
0.0
  0
VERTEX
  5
34D
330
1D3
100
AcDbEntity
  8
0
  6
CONTINUOUS
 62
     7
100
AcDbVertex
100
AcDb2dVertex
 10
9.272382115
 20
6.415249982
 30
0.0
  0
VERTEX
  5
34E
330
1D3
100
AcDbEntity
  8
0
  6
CONTINUOUS
 62
     7
100
AcDbVertex
100
AcDb2dVertex
 10
9.2661546142
 20
6.3885098457
 30
0.0
  0
VERTEX
  5
34F
330
1D3
100
AcDbEntity
  8
0
  6
CONTINUOUS
 62
     7
100
AcDbVertex
100
AcDb2dVertex
 10
9.2582271622
 20
6.3614922249
 30
0.0
  0
VERTEX
  5
350
330
1D3
100
AcDbEntity
  8
0
  6
CONTINUOUS
 62
     7
100
AcDbVertex
100
AcDb2dVertex
 10
9.248658451
 20
6.3343971489
 30
0.0
  0
VERTEX
  5
351
330
1D3
100
AcDbEntity
  8
0
  6
CONTINUOUS
 62
     7
100
AcDbVertex
100
AcDb2dVertex
 10
9.237519324
 20
6.30742522
 30
0.0
  0
VERTEX
  5
352
330
1D3
100
AcDbEntity
  8
0
  6
CONTINUOUS
 62
     7
100
AcDbVertex
100
AcDb2dVertex
 10
9.2248922515
 20
6.280776129
 30
0.0
  0
VERTEX
  5
353
330
1D3
100
AcDbEntity
  8
0
  6
CONTINUOUS
 62
     7
100
AcDbVertex
100
AcDb2dVertex
 10
9.2108707197
 20
6.2546471764
 30
0.0
  0
VERTEX
  5
354
330
1D3
100
AcDbEntity
  8
0
  6
CONTINUOUS
 62
     7
100
AcDbVertex
100
AcDb2dVertex
 10
9.1955585393
 20
6.2292318119
 30
0.0
  0
VERTEX
  5
355
330
1D3
100
AcDbEntity
  8
0
  6
CONTINUOUS
 62
     7
100
AcDbVertex
100
AcDb2dVertex
 10
9.1790690763
 20
6.2047182019
 30
0.0
  0
VERTEX
  5
356
330
1D3
100
AcDbEntity
  8
0
  6
CONTINUOUS
 62
     7
100
AcDbVertex
100
AcDb2dVertex
 10
9.1615244129
 20
6.1812878366
 30
0.0
  0
VERTEX
  5
357
330
1D3
100
AcDbEntity
  8
0
  6
CONTINUOUS
 62
     7
100
AcDbVertex
100
AcDb2dVertex
 10
9.1430544436
 20
6.1591141862
 30
0.0
  0
VERTEX
  5
358
330
1D3
100
AcDbEntity
  8
0
  6
CONTINUOUS
 62
     7
100
AcDbVertex
100
AcDb2dVertex
 10
9.1237959137
 20
6.1383614167
 30
0.0
  0
VERTEX
  5
359
330
1D3
100
AcDbEntity
  8
0
  6
CONTINUOUS
 62
     7
100
AcDbVertex
100
AcDb2dVertex
 10
9.1038914065
 20
6.1191831743
 30
0.0
  0
VERTEX
  5
35A
330
1D3
100
AcDbEntity
  8
0
  6
CONTINUOUS
 62
     7
100
AcDbVertex
100
AcDb2dVertex
 10
9.0834882881
 20
6.101721448
 30
0.0
  0
VERTEX
  5
35B
330
1D3
100
AcDbEntity
  8
0
  6
CONTINUOUS
 62
     7
100
AcDbVertex
100
AcDb2dVertex
 10
9.0627376159
 20
6.0861055184
 30
0.0
  0
VERTEX
  5
35C
330
1D3
100
AcDbEntity
  8
0
  6
CONTINUOUS
 62
     7
100
AcDbVertex
100
AcDb2dVertex
 10
9.0417930208
 20
6.0724510003
 30
0.0
  0
VERTEX
  5
35D
330
1D3
100
AcDbEntity
  8
0
  6
CONTINUOUS
 62
     7
100
AcDbVertex
100
AcDb2dVertex
 10
9.0208095692
 20
6.0608589869
 30
0.0
  0
VERTEX
  5
35E
330
1D3
100
AcDbEntity
  8
0
  6
CONTINUOUS
 62
     7
100
AcDbVertex
100
AcDb2dVertex
 10
8.9999426152
 20
6.0514153016
 30
0.0
  0
VERTEX
  5
35F
330
1D3
100
AcDbEntity
  8
0
  6
CONTINUOUS
 62
     7
100
AcDbVertex
100
AcDb2dVertex
 10
8.9793466504
 20
6.044189862
 30
0.0
  0
VERTEX
  5
360
330
1D3
100
AcDbEntity
  8
0
  6
CONTINUOUS
 62
     7
100
AcDbVertex
100
AcDb2dVertex
 10
8.9591741602
 20
6.0392361628
 30
0.0
  0
VERTEX
  5
361
330
1D3
100
AcDbEntity
  8
0
  6
CONTINUOUS
 62
     7
100
AcDbVertex
100
AcDb2dVertex
 10
8.9395744946
 20
6.0365908794
 30
0.0
  0
VERTEX
  5
362
330
1D3
100
AcDbEntity
  8
0
  6
CONTINUOUS
 62
     7
100
AcDbVertex
100
AcDb2dVertex
 10
8.9206927626
 20
6.0362735966
 30
0.0
  0
VERTEX
  5
363
330
1D3
100
AcDbEntity
  8
0
  6
CONTINUOUS
 62
     7
100
AcDbVertex
100
AcDb2dVertex
 10
8.9026687581
 20
6.0382866634
 30
0.0
  0
VERTEX
  5
364
330
1D3
100
AcDbEntity
  8
0
  6
CONTINUOUS
 62
     7
100
AcDbVertex
100
AcDb2dVertex
 10
8.8856359245
 20
6.0426151758
 30
0.0
  0
VERTEX
  5
365
330
1D3
100
AcDbEntity
  8
0
  6
CONTINUOUS
 62
     7
100
AcDbVertex
100
AcDb2dVertex
 10
8.8697203668
 20
6.049227087
 30
0.0
  0
VERTEX
  5
366
330
1D3
100
AcDbEntity
  8
0
  6
CONTINUOUS
 62
     7
100
AcDbVertex
100
AcDb2dVertex
 10
8.8550399183
 20
6.0580734447
 30
0.0
  0
VERTEX
  5
367
330
1D3
100
AcDbEntity
  8
0
  6
CONTINUOUS
 62
     7
100
AcDbVertex
100
AcDb2dVertex
 10
8.841703268
 20
6.0690887536
 30
0.0
  0
VERTEX
  5
368
330
1D3
100
AcDbEntity
  8
0
  6
CONTINUOUS
 62
     7
100
AcDbVertex
100
AcDb2dVertex
 10
8.8298091556
 20
6.0821914602
 30
0.0
  0
VERTEX
  5
369
330
1D3
100
AcDbEntity
  8
0
  6
CONTINUOUS
 62
     7
100
AcDbVertex
100
AcDb2dVertex
 10
8.8194456411
 20
6.0972845566
 30
0.0
  0
VERTEX
  5
36A
330
1D3
100
AcDbEntity
  8
0
  6
CONTINUOUS
 62
     7
100
AcDbVertex
100
AcDb2dVertex
 10
8.8106894523
 20
6.1142562988
 30
0.0
  0
VERTEX
  5
36B
330
1D3
100
AcDbEntity
  8
0
  6
CONTINUOUS
 62
     7
100
AcDbVertex
100
AcDb2dVertex
 10
8.8036054169
 20
6.132981034
 30
0.0
  0
VERTEX
  5
36C
330
1D3
100
AcDbEntity
  8
0
  6
CONTINUOUS
 62
     7
100
AcDbVertex
100
AcDb2dVertex
 10
8.7982459827
 20
6.1533201308
 30
0.0
  0
VERTEX
  5
36D
330
1D3
100
AcDbEntity
  8
0
  6
CONTINUOUS
 62
     7
100
AcDbVertex
100
AcDb2dVertex
 10
8.794650829
 20
6.1751230057
 30
0.0
  0
VERTEX
  5
36E
330
1D3
100
AcDbEntity
  8
0
  6
CONTINUOUS
 62
     7
100
AcDbVertex
100
AcDb2dVertex
 10
8.7928465731
 20
6.1982282377
 30
0.0
  0
VERTEX
  5
36F
330
1D3
100
AcDbEntity
  8
0
  6
CONTINUOUS
 62
     7
100
AcDbVertex
100
AcDb2dVertex
 10
8.7928465731
 20
6.2224647639
 30
0.0
  0
VERTEX
  5
370
330
1D3
100
AcDbEntity
  8
0
  6
CONTINUOUS
 62
     7
100
AcDbVertex
100
AcDb2dVertex
 10
8.794650829
 20
6.2476531454
 30
0.0
  0
VERTEX
  5
371
330
1D3
100
AcDbEntity
  8
0
  6
CONTINUOUS
 62
     7
100
AcDbVertex
100
AcDb2dVertex
 10
8.7982459827
 20
6.2736068963
 30
0.0
  0
VERTEX
  5
372
330
1D3
100
AcDbEntity
  8
0
  6
CONTINUOUS
 62
     7
100
AcDbVertex
100
AcDb2dVertex
 10
8.8036054169
 20
6.3001338642
 30
0.0
  0
VERTEX
  5
373
330
1D3
100
AcDbEntity
  8
0
  6
CONTINUOUS
 62
     7
100
AcDbVertex
100
AcDb2dVertex
 10
8.8106894523
 20
6.3270376526
 30
0.0
  0
VERTEX
  5
374
330
1D3
100
AcDbEntity
  8
0
  6
CONTINUOUS
 62
     7
100
AcDbVertex
100
AcDb2dVertex
 10
8.8194456411
 20
6.3541190752
 30
0.0
  0
VERTEX
  5
375
330
1D3
100
AcDbEntity
  8
0
  6
CONTINUOUS
 62
     7
100
AcDbVertex
100
AcDb2dVertex
 10
8.8298091556
 20
6.3811776308
 30
0.0
  0
VERTEX
  5
376
330
1D3
100
AcDbEntity
  8
0
  6
CONTINUOUS
 62
     7
100
AcDbVertex
100
AcDb2dVertex
 10
8.841703268
 20
6.4080129872
 30
0.0
  0
VERTEX
  5
377
330
1D3
100
AcDbEntity
  8
0
  6
CONTINUOUS
 62
     7
100
AcDbVertex
100
AcDb2dVertex
 10
8.8550399183
 20
6.4344264648
 30
0.0
  0
VERTEX
  5
378
330
1D3
100
AcDbEntity
  8
0
  6
CONTINUOUS
 62
     7
100
AcDbVertex
100
AcDb2dVertex
 10
8.8697203668
 20
6.4602225075
 30
0.0
  0
VERTEX
  5
379
330
1D3
100
AcDbEntity
  8
0
  6
CONTINUOUS
 62
     7
100
AcDbVertex
100
AcDb2dVertex
 10
8.8856359245
 20
6.4852101305
 30
0.0
  0
VERTEX
  5
37A
330
1D3
100
AcDbEntity
  8
0
  6
CONTINUOUS
 62
     7
100
AcDbVertex
100
AcDb2dVertex
 10
8.9026687581
 20
6.509204334
 30
0.0
  0
VERTEX
  5
37B
330
1D3
100
AcDbEntity
  8
0
  6
CONTINUOUS
 62
     7
100
AcDbVertex
100
AcDb2dVertex
 10
8.9206927626
 20
6.5320274735
 30
0.0
  0
VERTEX
  5
37C
330
1D3
100
AcDbEntity
  8
0
  6
CONTINUOUS
 62
     7
100
AcDbVertex
100
AcDb2dVertex
 10
8.9395744946
 20
6.5535105743
 30
0.0
  0
VERTEX
  5
37D
330
1D3
100
AcDbEntity
  8
0
  6
CONTINUOUS
 62
     7
100
AcDbVertex
100
AcDb2dVertex
 10
8.9591741602
 20
6.5734945831
 30
0.0
  0
VERTEX
  5
37E
330
1D3
100
AcDbEntity
  8
0
  6
CONTINUOUS
 62
     7
100
AcDbVertex
100
AcDb2dVertex
 10
8.9793466504
 20
6.5918315454
 30
0.0
  0
VERTEX
  5
37F
330
1D3
100
AcDbEntity
  8
0
  6
CONTINUOUS
 62
     7
100
AcDbVertex
100
AcDb2dVertex
 10
8.9999426152
 20
6.6083857006
 30
0.0
  0
VERTEX
  5
380
330
1D3
100
AcDbEntity
  8
0
  6
CONTINUOUS
 62
     7
100
AcDbVertex
100
AcDb2dVertex
 10
9.0208095692
 20
6.6230344875
 30
0.0
  0
VERTEX
  5
381
330
1D3
100
AcDbEntity
  8
0
  6
CONTINUOUS
 62
     7
100
AcDbVertex
100
AcDb2dVertex
 10
9.0417930208
 20
6.6356694518
 30
0.0
  0
VERTEX
  5
382
330
1D3
100
AcDbEntity
  8
0
  6
CONTINUOUS
 62
     7
100
AcDbVertex
100
AcDb2dVertex
 10
9.0627376159
 20
6.6461970484
 30
0.0
  0
VERTEX
  5
383
330
1D3
100
AcDbEntity
  8
0
  6
CONTINUOUS
 62
     7
100
AcDbVertex
100
AcDb2dVertex
 10
9.0834882881
 20
6.6545393349
 30
0.0
  0
VERTEX
  5
384
330
1D3
100
AcDbEntity
  8
0
  6
CONTINUOUS
 62
     7
100
AcDbVertex
100
AcDb2dVertex
 10
9.1038914065
 20
6.6606345478
 30
0.0
  0
VERTEX
  5
385
330
1D3
100
AcDbEntity
  8
0
  6
CONTINUOUS
 62
     7
100
AcDbVertex
100
AcDb2dVertex
 10
9.1237959137
 20
6.6644375602
 30
0.0
  0
VERTEX
  5
386
330
1D3
100
AcDbEntity
  8
0
  6
CONTINUOUS
 62
     7
100
AcDbVertex
100
AcDb2dVertex
 10
9.1430544436
 20
6.6659202161
 30
0.0
  0
VERTEX
  5
387
330
1D3
100
AcDbEntity
  8
0
  6
CONTINUOUS
 62
     7
100
AcDbVertex
100
AcDb2dVertex
 10
9.1615244129
 20
6.6650715383
 30
0.0
  0
VERTEX
  5
388
330
1D3
100
AcDbEntity
  8
0
  6
CONTINUOUS
 62
     7
100
AcDbVertex
100
AcDb2dVertex
 10
9.1790690763
 20
6.6618978102
 30
0.0
  0
VERTEX
  5
389
330
1D3
100
AcDbEntity
  8
0
  6
CONTINUOUS
 62
     7
100
AcDbVertex
100
AcDb2dVertex
 10
9.1955585393
 20
6.6564225289
 30
0.0
  0
VERTEX
  5
38A
330
1D3
100
AcDbEntity
  8
0
  6
CONTINUOUS
 62
     7
100
AcDbVertex
100
AcDb2dVertex
 10
9.2108707197
 20
6.6486862316
 30
0.0
  0
VERTEX
  5
38B
330
1D3
100
AcDbEntity
  8
0
  6
CONTINUOUS
 62
     7
100
AcDbVertex
100
AcDb2dVertex
 10
9.2248922515
 20
6.6387461949
 30
0.0
  0
VERTEX
  5
38C
330
1D3
100
AcDbEntity
  8
0
  6
CONTINUOUS
 62
     7
100
AcDbVertex
100
AcDb2dVertex
 10
9.237519324
 20
6.6266760116
 30
0.0
  0
VERTEX
  5
38D
330
1D3
100
AcDbEntity
  8
0
  6
CONTINUOUS
 62
     7
100
AcDbVertex
100
AcDb2dVertex
 10
9.248658451
 20
6.612565045
 30
0.0
  0
VERTEX
  5
38E
330
1D3
100
AcDbEntity
  8
0
  6
CONTINUOUS
 62
     7
100
AcDbVertex
100
AcDb2dVertex
 10
9.2582271622
 20
6.5965177677
 30
0.0
  0
VERTEX
  5
38F
330
1D3
100
AcDbEntity
  8
0
  6
CONTINUOUS
 62
     7
100
AcDbVertex
100
AcDb2dVertex
 10
9.2661546142
 20
6.5786529883
 30
0.0
  0
VERTEX
  5
390
330
1D3
100
AcDbEntity
  8
0
  6
CONTINUOUS
 62
     7
100
AcDbVertex
100
AcDb2dVertex
 10
9.272382115
 20
6.5591029712
 30
0.0
  0
VERTEX
  5
391
330
1D3
100
AcDbEntity
  8
0
  6
CONTINUOUS
 62
     7
100
AcDbVertex
100
AcDb2dVertex
 10
9.2768635582
 20
6.538012458
 30
0.0
  0
VERTEX
  5
392
330
1D3
100
AcDbEntity
  8
0
  6
CONTINUOUS
 62
     7
100
AcDbVertex
100
AcDb2dVertex
 10
9.2795657649
 20
6.5155375954
 30
0.0
  0
VERTEX
  5
393
330
1D3
100
AcDbEntity
  8
0
  6
CONTINUOUS
 62
     7
100
AcDbVertex
100
AcDb2dVertex
 10
9.2804687289
 20
6.4918447795
 30
0.0
  0
SEQEND
  5
394
330
1D3
100
AcDbEntity
  8
0
  6
CONTINUOUS
 62
     7
  0
SPLINE
  5
1D4
330
1F
100
AcDbEntity
  8
0
  6
CONTINUOUS
 62
     7
100
AcDbSpline
210
0.0
220
0.0
230
1.0
 70
     8
 71
     3
 72
    11
 73
     7
 74
     0
 42
0.00000001
 43
0.00000001
 40
0.0
 40
0.0
 40
0.0
 40
0.0
 40
0.3292272684813783
 40
0.623941825310358
 40
0.883256393226837
 40
1.0
 40
1.0
 40
1.0
 40
1.0
 10
8.683922878496134
 20
7.256716542952431
 30
0.0
 10
8.684582900186102
 20
7.250130396816259
 30
0.0
 10
8.685833753858955
 20
7.237648526584434
 30
0.0
 10
8.695345398675538
 20
7.22134449390377
 30
0.0
 10
8.705418975165584
 20
7.209949356391044
 30
0.0
 10
8.713115583827024
 20
7.204831219741625
 30
0.0
 10
8.715504921210265
 20
7.203242343943607
 30
0.0
  0
SPLINE
  5
1D5
330
1F
100
AcDbEntity
  8
0
  6
CONTINUOUS
 62
     7
100
AcDbSpline
210
0.0
220
0.0
230
1.0
 70
     8
 71
     3
 72
    10
 73
     6
 74
     0
 42
0.00000001
 43
0.00000001
 40
0.0
 40
0.0
 40
0.0
 40
0.0
 40
0.0328702641921221
 40
0.4902082453922924
 40
1.0
 40
1.0
 40
1.0
 40
1.0
 10
8.930321834727216
 20
7.227493028572666
 30
0.0
 10
8.930655266881345
 20
7.227790128402305
 30
0.0
 10
8.935627882564548
 20
7.232220904660809
 30
0.0
 10
8.941515139683915
 20
7.242113743632475
 30
0.0
 10
8.942978555131237
 20
7.251675411392934
 30
0.0
 10
8.943749948152243
 20
7.256715541175014
 30
0.0
  0
ARC
  5
1D6
330
1F
100
AcDbEntity
  8
0
  6
CONTINUOUS
 62
     7
100
AcDbCircle
 10
9.1037238003
 20
6.5145107638
 30
0.0
 40
0.1362175177123089
100
AcDbArc
 50
350.4216874817
 51
124.965960695
  0
POLYLINE
  5
1D7
330
1F
100
AcDbEntity
  8
0
  6
CONTINUOUS
 62
     7
100
AcDb2dPolyline
 66
     1
 10
0.0
 20
0.0
 30
0.0
  0
VERTEX
  5
395
330
1D7
100
AcDbEntity
  8
0
  6
CONTINUOUS
 62
     7
100
AcDbVertex
100
AcDb2dVertex
 10
8.7928619866
 20
6.2228801628
 30
0.0
  0
VERTEX
  5
396
330
1D7
100
AcDbEntity
  8
0
  6
CONTINUOUS
 62
     7
100
AcDbVertex
100
AcDb2dVertex
 10
8.7935172958
 20
6.2121726672
 30
0.0
  0
VERTEX
  5
397
330
1D7
100
AcDbEntity
  8
0
  6
CONTINUOUS
 62
     7
100
AcDbVertex
100
AcDb2dVertex
 10
8.7961997817
 20
6.190853568
 30
0.0
  0
VERTEX
  5
398
330
1D7
100
AcDbEntity
  8
0
  6
CONTINUOUS
 62
     7
100
AcDbVertex
100
AcDb2dVertex
 10
8.8006465876
 20
6.1709227173
 30
0.0
  0
VERTEX
  5
399
330
1D7
100
AcDbEntity
  8
0
  6
CONTINUOUS
 62
     7
100
AcDbVertex
100
AcDb2dVertex
 10
8.8068219104
 20
6.1525405869
 30
0.0
  0
VERTEX
  5
39A
330
1D7
100
AcDbEntity
  8
0
  6
CONTINUOUS
 62
     7
100
AcDbVertex
100
AcDb2dVertex
 10
8.81467603
 20
6.1358551786
 30
0.0
  0
VERTEX
  5
39B
330
1D7
100
AcDbEntity
  8
0
  6
CONTINUOUS
 62
     7
100
AcDbVertex
100
AcDb2dVertex
 10
8.8241457096
 20
6.1210008338
 30
0.0
  0
VERTEX
  5
39C
330
1D7
100
AcDbEntity
  8
0
  6
CONTINUOUS
 62
     7
100
AcDbVertex
100
AcDb2dVertex
 10
8.835154705
 20
6.1080971507
 30
0.0
  0
VERTEX
  5
39D
330
1D7
100
AcDbEntity
  8
0
  6
CONTINUOUS
 62
     7
100
AcDbVertex
100
AcDb2dVertex
 10
8.8476143782
 20
6.0972480223
 30
0.0
  0
VERTEX
  5
39E
330
1D7
100
AcDbEntity
  8
0
  6
CONTINUOUS
 62
     7
100
AcDbVertex
100
AcDb2dVertex
 10
8.8614244113
 20
6.0885407993
 30
0.0
  0
VERTEX
  5
39F
330
1D7
100
AcDbEntity
  8
0
  6
CONTINUOUS
 62
     7
100
AcDbVertex
100
AcDb2dVertex
 10
8.876473614
 20
6.0820455873
 30
0.0
  0
VERTEX
  5
3A0
330
1D7
100
AcDbEntity
  8
0
  6
CONTINUOUS
 62
     7
100
AcDbVertex
100
AcDb2dVertex
 10
8.8926408189
 20
6.0778146817
 30
0.0
  0
VERTEX
  5
3A1
330
1D7
100
AcDbEntity
  8
0
  6
CONTINUOUS
 62
     7
100
AcDbVertex
100
AcDb2dVertex
 10
8.9097958572
 20
6.0758821475
 30
0.0
  0
VERTEX
  5
3A2
330
1D7
100
AcDbEntity
  8
0
  6
CONTINUOUS
 62
     7
100
AcDbVertex
100
AcDb2dVertex
 10
8.9278006067
 20
6.0762635442
 30
0.0
  0
VERTEX
  5
3A3
330
1D7
100
AcDbEntity
  8
0
  6
CONTINUOUS
 62
     7
100
AcDbVertex
100
AcDb2dVertex
 10
8.9465101036
 20
6.0789558011
 30
0.0
  0
VERTEX
  5
3A4
330
1D7
100
AcDbEntity
  8
0
  6
CONTINUOUS
 62
     7
100
AcDbVertex
100
AcDb2dVertex
 10
8.9657737102
 20
6.0839372416
 30
0.0
  0
VERTEX
  5
3A5
330
1D7
100
AcDbEntity
  8
0
  6
CONTINUOUS
 62
     7
100
AcDbVertex
100
AcDb2dVertex
 10
8.9854363272
 20
6.0911677582
 30
0.0
  0
VERTEX
  5
3A6
330
1D7
100
AcDbEntity
  8
0
  6
CONTINUOUS
 62
     7
100
AcDbVertex
100
AcDb2dVertex
 10
9.0053396427
 20
6.100589135
 30
0.0
  0
VERTEX
  5
3A7
330
1D7
100
AcDbEntity
  8
0
  6
CONTINUOUS
 62
     7
100
AcDbVertex
100
AcDb2dVertex
 10
9.0253234069
 20
6.1121255165
 30
0.0
  0
VERTEX
  5
3A8
330
1D7
100
AcDbEntity
  8
0
  6
CONTINUOUS
 62
     7
100
AcDbVertex
100
AcDb2dVertex
 10
9.0452267225
 20
6.1256840187
 30
0.0
  0
VERTEX
  5
3A9
330
1D7
100
AcDbEntity
  8
0
  6
CONTINUOUS
 62
     7
100
AcDbVertex
100
AcDb2dVertex
 10
9.0648893394
 20
6.1411554765
 30
0.0
  0
VERTEX
  5
3AA
330
1D7
100
AcDbEntity
  8
0
  6
CONTINUOUS
 62
     7
100
AcDbVertex
100
AcDb2dVertex
 10
9.084152946
 20
6.1584153226
 30
0.0
  0
VERTEX
  5
3AB
330
1D7
100
AcDbEntity
  8
0
  6
CONTINUOUS
 62
     7
100
AcDbVertex
100
AcDb2dVertex
 10
9.1028624429
 20
6.1773245912
 30
0.0
  0
VERTEX
  5
3AC
330
1D7
100
AcDbEntity
  8
0
  6
CONTINUOUS
 62
     7
100
AcDbVertex
100
AcDb2dVertex
 10
9.1208671924
 20
6.1977310357
 30
0.0
  0
VERTEX
  5
3AD
330
1D7
100
AcDbEntity
  8
0
  6
CONTINUOUS
 62
     7
100
AcDbVertex
100
AcDb2dVertex
 10
9.1380222307
 20
6.2194703556
 30
0.0
  0
VERTEX
  5
3AE
330
1D7
100
AcDbEntity
  8
0
  6
CONTINUOUS
 62
     7
100
AcDbVertex
100
AcDb2dVertex
 10
9.1541894356
 20
6.2423675186
 30
0.0
  0
VERTEX
  5
3AF
330
1D7
100
AcDbEntity
  8
0
  6
CONTINUOUS
 62
     7
100
AcDbVertex
100
AcDb2dVertex
 10
9.1692386383
 20
6.2662381701
 30
0.0
  0
VERTEX
  5
3B0
330
1D7
100
AcDbEntity
  8
0
  6
CONTINUOUS
 62
     7
100
AcDbVertex
100
AcDb2dVertex
 10
9.1830486714
 20
6.2908901179
 30
0.0
  0
VERTEX
  5
3B1
330
1D7
100
AcDbEntity
  8
0
  6
CONTINUOUS
 62
     7
100
AcDbVertex
100
AcDb2dVertex
 10
9.1955083446
 20
6.3161248788
 30
0.0
  0
VERTEX
  5
3B2
330
1D7
100
AcDbEntity
  8
0
  6
CONTINUOUS
 62
     7
100
AcDbVertex
100
AcDb2dVertex
 10
9.20651734
 20
6.3417392774
 30
0.0
  0
VERTEX
  5
3B3
330
1D7
100
AcDbEntity
  8
0
  6
CONTINUOUS
 62
     7
100
AcDbVertex
100
AcDb2dVertex
 10
9.2159870197
 20
6.3675270817
 30
0.0
  0
VERTEX
  5
3B4
330
1D7
100
AcDbEntity
  8
0
  6
CONTINUOUS
 62
     7
100
AcDbVertex
100
AcDb2dVertex
 10
9.2238411392
 20
6.3932806634
 30
0.0
  0
VERTEX
  5
3B5
330
1D7
100
AcDbEntity
  8
0
  6
CONTINUOUS
 62
     7
100
AcDbVertex
100
AcDb2dVertex
 10
9.230016462
 20
6.4187926698
 30
0.0
  0
VERTEX
  5
3B6
330
1D7
100
AcDbEntity
  8
0
  6
CONTINUOUS
 62
     7
100
AcDbVertex
100
AcDb2dVertex
 10
9.2344632679
 20
6.4438576932
 30
0.0
  0
VERTEX
  5
3B7
330
1D7
100
AcDbEntity
  8
0
  6
CONTINUOUS
 62
     7
100
AcDbVertex
100
AcDb2dVertex
 10
9.2371457538
 20
6.4682739248
 30
0.0
  0
VERTEX
  5
3B8
330
1D7
100
AcDbEntity
  8
0
  6
CONTINUOUS
 62
     7
100
AcDbVertex
100
AcDb2dVertex
 10
9.238042322
 20
6.4918447795
 30
0.0
  0
SEQEND
  5
3B9
330
1D7
100
AcDbEntity
  8
0
  6
CONTINUOUS
 62
     7
  0
SPLINE
  5
1D8
330
1F
100
AcDbEntity
  8
0
  6
CONTINUOUS
 62
     7
100
AcDbSpline
210
0.0
220
0.0
230
1.0
 70
     8
 71
     3
 72
    28
 73
    24
 74
     0
 42
0.00000001
 43
0.00000001
 40
0.0
 40
0.0
 40
0.0
 40
0.0
 40
0.0480666593299114
 40
0.1004906870069553
 40
0.1524970758602584
 40
0.2062096086121265
 40
0.2549772340239244
 40
0.3053089574195387
 40
0.3518179069708452
 40
0.399602297066622
 40
0.4476125708268827
 40
0.4968422966424862
 40
0.5481648341492291
 40
0.6009310985407774
 40
0.6527638320843592
 40
0.7063453770031174
 40
0.7542730364628913
 40
0.8037294338080115
 40
0.8496499640908863
 40
0.8967645507843429
 40
0.9454466318278542
 40
0.9953599783187681
 40
0.9999999999999999
 40
0.9999999999999999
 40
0.9999999999999999
 40
0.9999999999999999
 10
9.085071169963935
 20
6.647710605435414
 30
0.0
 10
9.089608524549181
 20
6.642533194914455
 30
0.0
 10
9.099094556776548
 20
6.631709028071545
 30
0.0
 10
9.110961738018359
 20
6.613989552546777
 30
0.0
 10
9.120574535834963
 20
6.594995274350488
 30
0.0
 10
9.126593295517818
 20
6.576097616583128
 30
0.0
 10
9.128960718834051
 20
6.55765585703521
 30
0.0
 10
9.127761531255608
 20
6.540812643194704
 30
0.0
 10
9.123298079809258
 20
6.525338325835415
 30
0.0
 10
9.116012279211635
 20
6.511733208183941
 30
0.0
 10
9.10597136936567
 20
6.499937910510371
 30
0.0
 10
9.093432025050976
 20
6.49034392607639
 30
0.0
 10
9.07863018352035
 20
6.483426173411661
 30
0.0
 10
9.062240076170054
 20
6.479871957196085
 30
0.0
 10
9.044951192574493
 20
6.48014432456787
 30
0.0
 10
9.028255246122704
 20
6.484430446615908
 30
0.0
 10
9.012601525054533
 20
6.492476599521674
 30
0.0
 10
8.998926098250875
 20
6.503390923610795
 30
0.0
 10
8.986829723844437
 20
6.517020680251377
 30
0.0
 10
8.976320158879144
 20
6.532786013029519
 30
0.0
 10
8.967350200680588
 20
6.550882289018989
 30
0.0
 10
8.961709736239325
 20
6.56447585146562
 30
0.0
 10
8.959540030630826
 20
6.572002033213238
 30
0.0
 10
8.959355486918813
 20
6.57264217052567
 30
0.0
  0
ARC
  5
1D9
330
1F
100
AcDbEntity
  8
0
  6
CONTINUOUS
 62
     7
100
AcDbCircle
 10
8.0980487745
 20
6.8928126332
 30
0.0
 40
1.463718804262359
100
AcDbArc
 50
122.5541729265
 51
177.4512036062
  0
SPLINE
  5
1DA
330
1F
100
AcDbEntity
  8
0
  6
CONTINUOUS
 62
     7
100
AcDbSpline
210
0.0
220
0.0
230
1.0
 70
     8
 71
     3
 72
    11
 73
     7
 74
     0
 42
0.00000001
 43
0.00000001
 40
0.0
 40
0.0
 40
0.0
 40
0.0
 40
0.3292272684814945
 40
0.6239418253104592
 40
0.8832563932267959
 40
1.0
 40
1.0
 40
1.0
 40
1.0
 10
7.403335794457506
 20
7.995983730823389
 30
0.0
 10
7.403995816147475
 20
7.989397584687214
 30
0.0
 10
7.405246669820328
 20
7.976915714455385
 30
0.0
 10
7.414758314636918
 20
7.960611681774718
 30
0.0
 10
7.42483189112697
 20
7.949216544261991
 30
0.0
 10
7.432528499788412
 20
7.944098407612573
 30
0.0
 10
7.434917837171652
 20
7.942509531814554
 30
0.0
  0
SPLINE
  5
1DB
330
1F
100
AcDbEntity
  8
0
  6
CONTINUOUS
 62
     7
100
AcDbSpline
210
0.0
220
0.0
230
1.0
 70
     8
 71
     3
 72
    10
 73
     6
 74
     0
 42
0.00000001
 43
0.00000001
 40
0.0
 40
0.0
 40
0.0
 40
0.0
 40
0.0328702641702877
 40
0.4902082453784535
 40
0.9999999999999999
 40
0.9999999999999999
 40
0.9999999999999999
 40
0.9999999999999999
 10
7.649734750688984
 20
7.966760216443904
 30
0.0
 10
7.650068182842888
 20
7.967057316273341
 30
0.0
 10
7.655040798525897
 20
7.97148809253166
 30
0.0
 10
7.660928055645204
 20
7.981380931503217
 30
0.0
 10
7.662391471092578
 20
7.990942599263803
 30
0.0
 10
7.663162864113617
 20
7.995982729045973
 30
0.0
  0
ARC
  5
1DC
330
1F
100
AcDbEntity
  8
0
  6
CONTINUOUS
 62
     7
100
AcDbCircle
 10
8.9528734311
 20
6.5571676509
 30
0.0
 40
0.1615136931866454
100
AcDbArc
 50
2.1747070879
 51
32.3218315238
  0
POLYLINE
  5
1DD
330
1F
100
AcDbEntity
  8
0
  6
CONTINUOUS
 62
     7
100
AcDb2dPolyline
 66
     1
 10
0.0
 20
0.0
 30
0.0
  0
VERTEX
  5
3BA
330
1DD
100
AcDbEntity
  8
0
  6
CONTINUOUS
 62
     7
100
AcDbVertex
100
AcDb2dVertex
 10
8.9752767082
 20
6.5883054807
 30
0.0
  0
VERTEX
  5
3BB
330
1DD
100
AcDbEntity
  8
0
  6
CONTINUOUS
 62
     7
100
AcDbVertex
100
AcDb2dVertex
 10
8.9765799076
 20
6.5856777542
 30
0.0
  0
VERTEX
  5
3BC
330
1DD
100
AcDbEntity
  8
0
  6
CONTINUOUS
 62
     7
100
AcDbVertex
100
AcDb2dVertex
 10
8.9848315775
 20
6.5710132011
 30
0.0
  0
VERTEX
  5
3BD
330
1DD
100
AcDbEntity
  8
0
  6
CONTINUOUS
 62
     7
100
AcDbVertex
100
AcDb2dVertex
 10
8.9942953598
 20
6.5572194984
 30
0.0
  0
VERTEX
  5
3BE
330
1DD
100
AcDbEntity
  8
0
  6
CONTINUOUS
 62
     7
100
AcDbVertex
100
AcDb2dVertex
 10
9.0047494314
 20
6.5446199587
 30
0.0
  0
VERTEX
  5
3BF
330
1DD
100
AcDbEntity
  8
0
  6
CONTINUOUS
 62
     7
100
AcDbVertex
100
AcDb2dVertex
 10
9.0159487579
 20
6.5335099047
 30
0.0
  0
VERTEX
  5
3C0
330
1DD
100
AcDbEntity
  8
0
  6
CONTINUOUS
 62
     7
100
AcDbVertex
100
AcDb2dVertex
 10
9.0276308365
 20
6.5241497465
 30
0.0
  0
VERTEX
  5
3C1
330
1DD
100
AcDbEntity
  8
0
  6
CONTINUOUS
 62
     7
100
AcDbVertex
100
AcDb2dVertex
 10
9.0395218491
 20
6.5167588784
 30
0.0
  0
VERTEX
  5
3C2
330
1DD
100
AcDbEntity
  8
0
  6
CONTINUOUS
 62
     7
100
AcDbVertex
100
AcDb2dVertex
 10
9.0513430806
 20
6.511510536
 30
0.0
  0
VERTEX
  5
3C3
330
1DD
100
AcDbEntity
  8
0
  6
CONTINUOUS
 62
     7
100
AcDbVertex
100
AcDb2dVertex
 10
9.0628174512
 20
6.508527736
 30
0.0
  0
VERTEX
  5
3C4
330
1DD
100
AcDbEntity
  8
0
  6
CONTINUOUS
 62
     7
100
AcDbVertex
100
AcDb2dVertex
 10
9.0736760115
 20
6.5078803927
 30
0.0
  0
VERTEX
  5
3C5
330
1DD
100
AcDbEntity
  8
0
  6
CONTINUOUS
 62
     7
100
AcDbVertex
100
AcDb2dVertex
 10
9.0836642459
 20
6.5095836793
 30
0.0
  0
VERTEX
  5
3C6
330
1DD
100
AcDbEntity
  8
0
  6
CONTINUOUS
 62
     7
100
AcDbVertex
100
AcDb2dVertex
 10
9.0925480388
 20
6.5135976722
 30
0.0
  0
VERTEX
  5
3C7
330
1DD
100
AcDbEntity
  8
0
  6
CONTINUOUS
 62
     7
100
AcDbVertex
100
AcDb2dVertex
 10
9.1001191615
 20
6.5198282868
 30
0.0
  0
VERTEX
  5
3C8
330
1DD
100
AcDbEntity
  8
0
  6
CONTINUOUS
 62
     7
100
AcDbVertex
100
AcDb2dVertex
 10
9.1062001535
 20
6.5281294829
 30
0.0
  0
VERTEX
  5
3C9
330
1DD
100
AcDbEntity
  8
0
  6
CONTINUOUS
 62
     7
100
AcDbVertex
100
AcDb2dVertex
 10
9.1106484813
 20
6.5383066873
 30
0.0
  0
VERTEX
  5
3CA
330
1DD
100
AcDbEntity
  8
0
  6
CONTINUOUS
 62
     7
100
AcDbVertex
100
AcDb2dVertex
 10
9.1133598799
 20
6.550121355
 30
0.0
  0
VERTEX
  5
3CB
330
1DD
100
AcDbEntity
  8
0
  6
CONTINUOUS
 62
     7
100
AcDbVertex
100
AcDb2dVertex
 10
9.1142707965
 20
6.5632965603
 30
0.0
  0
SEQEND
  5
3CC
330
1DD
100
AcDbEntity
  8
0
  6
CONTINUOUS
 62
     7
  0
ARC
  5
1DE
330
1F
100
AcDbEntity
  8
0
  6
CONTINUOUS
 62
     7
100
AcDbCircle
 10
9.0911116888
 20
6.5721822977
 30
0.0
 40
0.0739631190688712
100
AcDbArc
 50
236.8552768981
 51
281.9259445373
  0
ARC
  5
1DF
330
1F
100
AcDbEntity
  8
0
  6
CONTINUOUS
 62
     7
100
AcDbCircle
 10
7.6044743642
 20
8.0062155276
 30
0.0
 40
0.0569081287243661
100
AcDbArc
 50
291.2662221712
 51
68.717649541
  0
POLYLINE
  5
1E0
330
1F
100
AcDbEntity
  8
0
  6
CONTINUOUS
 62
     7
100
AcDb2dPolyline
 66
     1
 10
0.0
 20
0.0
 30
0.0
  0
VERTEX
  5
3CD
330
1E0
100
AcDbEntity
  8
0
  6
CONTINUOUS
 62
     7
100
AcDbVertex
100
AcDb2dVertex
 10
7.4413637156
 20
8.0592426972
 30
0.0
  0
VERTEX
  5
3CE
330
1E0
100
AcDbEntity
  8
0
  6
CONTINUOUS
 62
     7
100
AcDbVertex
100
AcDb2dVertex
 10
7.4292395204
 20
8.0511639226
 30
0.0
  0
VERTEX
  5
3CF
330
1E0
100
AcDbEntity
  8
0
  6
CONTINUOUS
 62
     7
100
AcDbVertex
100
AcDb2dVertex
 10
7.4192176869
 20
8.0421615379
 30
0.0
  0
VERTEX
  5
3D0
330
1E0
100
AcDbEntity
  8
0
  6
CONTINUOUS
 62
     7
100
AcDbVertex
100
AcDb2dVertex
 10
7.4115171583
 20
8.0324274247
 30
0.0
  0
VERTEX
  5
3D1
330
1E0
100
AcDbEntity
  8
0
  6
CONTINUOUS
 62
     7
100
AcDbVertex
100
AcDb2dVertex
 10
7.4062946951
 20
8.0221597414
 30
0.0
  0
VERTEX
  5
3D2
330
1E0
100
AcDbEntity
  8
0
  6
CONTINUOUS
 62
     7
100
AcDbVertex
100
AcDb2dVertex
 10
7.4036566116
 20
8.0115675085
 30
0.0
  0
VERTEX
  5
3D3
330
1E0
100
AcDbEntity
  8
0
  6
CONTINUOUS
 62
     7
100
AcDbVertex
100
AcDb2dVertex
 10
7.4036566116
 20
8.0008663533
 30
0.0
  0
VERTEX
  5
3D4
330
1E0
100
AcDbEntity
  8
0
  6
CONTINUOUS
 62
     7
100
AcDbVertex
100
AcDb2dVertex
 10
7.4062946951
 20
7.9902741203
 30
0.0
  0
VERTEX
  5
3D5
330
1E0
100
AcDbEntity
  8
0
  6
CONTINUOUS
 62
     7
100
AcDbVertex
100
AcDb2dVertex
 10
7.4115171583
 20
7.9800064371
 30
0.0
  0
VERTEX
  5
3D6
330
1E0
100
AcDbEntity
  8
0
  6
CONTINUOUS
 62
     7
100
AcDbVertex
100
AcDb2dVertex
 10
7.4192176869
 20
7.9702723239
 30
0.0
  0
VERTEX
  5
3D7
330
1E0
100
AcDbEntity
  8
0
  6
CONTINUOUS
 62
     7
100
AcDbVertex
100
AcDb2dVertex
 10
7.4292395204
 20
7.9612699392
 30
0.0
  0
VERTEX
  5
3D8
330
1E0
100
AcDbEntity
  8
0
  6
CONTINUOUS
 62
     7
100
AcDbVertex
100
AcDb2dVertex
 10
7.4413786431
 20
7.9531825457
 30
0.0
  0
VERTEX
  5
3D9
330
1E0
100
AcDbEntity
  8
0
  6
CONTINUOUS
 62
     7
100
AcDbVertex
100
AcDb2dVertex
 10
7.4553879376
 20
7.9461747793
 30
0.0
  0
VERTEX
  5
3DA
330
1E0
100
AcDbEntity
  8
0
  6
CONTINUOUS
 62
     7
100
AcDbVertex
100
AcDb2dVertex
 10
7.4709822148
 20
7.940389298
 30
0.0
  0
VERTEX
  5
3DB
330
1E0
100
AcDbEntity
  8
0
  6
CONTINUOUS
 62
     7
100
AcDbVertex
100
AcDb2dVertex
 10
7.4878440205
 20
7.9359438774
 30
0.0
  0
VERTEX
  5
3DC
330
1E0
100
AcDbEntity
  8
0
  6
CONTINUOUS
 62
     7
100
AcDbVertex
100
AcDb2dVertex
 10
7.5056300968
 20
7.9329290136
 30
0.0
  0
VERTEX
  5
3DD
330
1E0
100
AcDbEntity
  8
0
  6
CONTINUOUS
 62
     7
100
AcDbVertex
100
AcDb2dVertex
 10
7.5239783704
 20
7.9314060804
 30
0.0
  0
VERTEX
  5
3DE
330
1E0
100
AcDbEntity
  8
0
  6
CONTINUOUS
 62
     7
100
AcDbVertex
100
AcDb2dVertex
 10
7.5425153235
 20
7.9314060804
 30
0.0
  0
VERTEX
  5
3DF
330
1E0
100
AcDbEntity
  8
0
  6
CONTINUOUS
 62
     7
100
AcDbVertex
100
AcDb2dVertex
 10
7.5608635972
 20
7.9329290136
 30
0.0
  0
VERTEX
  5
3E0
330
1E0
100
AcDbEntity
  8
0
  6
CONTINUOUS
 62
     7
100
AcDbVertex
100
AcDb2dVertex
 10
7.5757802189
 20
7.935348084
 30
0.0
  0
SEQEND
  5
3E1
330
1E0
100
AcDbEntity
  8
0
  6
CONTINUOUS
 62
     7
  0
LINE
  5
1E1
330
1F
100
AcDbEntity
  8
0
  6
CONTINUOUS
 62
     7
100
AcDbLine
 10
7.6141131069
 20
7.9475144576
 30
0.0
 11
7.6251150508
 21
7.9531825457
 31
0.0
  0
POLYLINE
  5
1E2
330
1F
100
AcDbEntity
  8
0
  6
CONTINUOUS
 62
     7
100
AcDb2dPolyline
 66
     1
 10
0.0
 20
0.0
 30
0.0
  0
VERTEX
  5
3E2
330
1E2
100
AcDbEntity
  8
0
  6
CONTINUOUS
 62
     7
100
AcDbVertex
100
AcDb2dVertex
 10
7.6109729152
 20
7.977677443
 30
0.0
  0
VERTEX
  5
3E3
330
1E2
100
AcDbEntity
  8
0
  6
CONTINUOUS
 62
     7
100
AcDbVertex
100
AcDb2dVertex
 10
7.59819717
 20
7.9713538842
 30
0.0
  0
VERTEX
  5
3E4
330
1E2
100
AcDbEntity
  8
0
  6
CONTINUOUS
 62
     7
100
AcDbVertex
100
AcDb2dVertex
 10
7.5838990442
 20
7.9662302661
 30
0.0
  0
VERTEX
  5
3E5
330
1E2
100
AcDbEntity
  8
0
  6
CONTINUOUS
 62
     7
100
AcDbVertex
100
AcDb2dVertex
 10
7.5684136738
 20
7.962426682
 30
0.0
  0
VERTEX
  5
3E6
330
1E2
100
AcDbEntity
  8
0
  6
CONTINUOUS
 62
     7
100
AcDbVertex
100
AcDb2dVertex
 10
7.5521040228
 20
7.9600322847
 30
0.0
  0
VERTEX
  5
3E7
330
1E2
100
AcDbEntity
  8
0
  6
CONTINUOUS
 62
     7
100
AcDbVertex
100
AcDb2dVertex
 10
7.5353523757
 20
7.9591031969
 30
0.0
  0
VERTEX
  5
3E8
330
1E2
100
AcDbEntity
  8
0
  6
CONTINUOUS
 62
     7
100
AcDbVertex
100
AcDb2dVertex
 10
7.5185513767
 20
7.9596611956
 30
0.0
  0
VERTEX
  5
3E9
330
1E2
100
AcDbEntity
  8
0
  6
CONTINUOUS
 62
     7
100
AcDbVertex
100
AcDb2dVertex
 10
7.502094827
 20
7.9616932017
 30
0.0
  0
VERTEX
  5
3EA
330
1E2
100
AcDbEntity
  8
0
  6
CONTINUOUS
 62
     7
100
AcDbVertex
100
AcDb2dVertex
 10
7.4863684544
 20
7.9651515869
 30
0.0
  0
VERTEX
  5
3EB
330
1E2
100
AcDbEntity
  8
0
  6
CONTINUOUS
 62
     7
100
AcDbVertex
100
AcDb2dVertex
 10
7.4717408715
 20
7.9699552893
 30
0.0
  0
VERTEX
  5
3EC
330
1E2
100
AcDbEntity
  8
0
  6
CONTINUOUS
 62
     7
100
AcDbVertex
100
AcDb2dVertex
 10
7.4585549365
 20
7.9759917144
 30
0.0
  0
VERTEX
  5
3ED
330
1E2
100
AcDbEntity
  8
0
  6
CONTINUOUS
 62
     7
100
AcDbVertex
100
AcDb2dVertex
 10
7.4471197166
 20
7.9831193734
 30
0.0
  0
VERTEX
  5
3EE
330
1E2
100
AcDbEntity
  8
0
  6
CONTINUOUS
 62
     7
100
AcDbVertex
100
AcDb2dVertex
 10
7.4377032437
 20
7.9911712001
 30
0.0
  0
VERTEX
  5
3EF
330
1E2
100
AcDbEntity
  8
0
  6
CONTINUOUS
 62
     7
100
AcDbVertex
100
AcDb2dVertex
 10
7.4305262318
 20
7.9999584665
 30
0.0
  0
VERTEX
  5
3F0
330
1E2
100
AcDbEntity
  8
0
  6
CONTINUOUS
 62
     7
100
AcDbVertex
100
AcDb2dVertex
 10
7.4257569041
 20
8.0092752065
 30
0.0
  0
VERTEX
  5
3F1
330
1E2
100
AcDbEntity
  8
0
  6
CONTINUOUS
 62
     7
100
AcDbVertex
100
AcDb2dVertex
 10
7.4235070496
 20
8.0189030435
 30
0.0
  0
VERTEX
  5
3F2
330
1E2
100
AcDbEntity
  8
0
  6
CONTINUOUS
 62
     7
100
AcDbVertex
100
AcDb2dVertex
 10
7.4238294029
 20
8.0286163094
 30
0.0
  0
VERTEX
  5
3F3
330
1E2
100
AcDbEntity
  8
0
  6
CONTINUOUS
 62
     7
100
AcDbVertex
100
AcDb2dVertex
 10
7.4267164083
 20
8.0381873332
 30
0.0
  0
VERTEX
  5
3F4
330
1E2
100
AcDbEntity
  8
0
  6
CONTINUOUS
 62
     7
100
AcDbVertex
100
AcDb2dVertex
 10
7.432100397
 20
8.0473917785
 30
0.0
  0
VERTEX
  5
3F5
330
1E2
100
AcDbEntity
  8
0
  6
CONTINUOUS
 62
     7
100
AcDbVertex
100
AcDb2dVertex
 10
7.4398551726
 20
8.0560139007
 30
0.0
  0
VERTEX
  5
3F6
330
1E2
100
AcDbEntity
  8
0
  6
CONTINUOUS
 62
     7
100
AcDbVertex
100
AcDb2dVertex
 10
7.44979897
 20
8.0638516046
 30
0.0
  0
VERTEX
  5
3F7
330
1E2
100
AcDbEntity
  8
0
  6
CONTINUOUS
 62
     7
100
AcDbVertex
100
AcDb2dVertex
 10
7.4616987149
 20
8.0707211811
 30
0.0
  0
VERTEX
  5
3F8
330
1E2
100
AcDbEntity
  8
0
  6
CONTINUOUS
 62
     7
100
AcDbVertex
100
AcDb2dVertex
 10
7.4752754874
 20
8.0764616131
 30
0.0
  0
VERTEX
  5
3F9
330
1E2
100
AcDbEntity
  8
0
  6
CONTINUOUS
 62
     7
100
AcDbVertex
100
AcDb2dVertex
 10
7.4902110594
 20
8.0809383499
 30
0.0
  0
VERTEX
  5
3FA
330
1E2
100
AcDbEntity
  8
0
  6
CONTINUOUS
 62
     7
100
AcDbVertex
100
AcDb2dVertex
 10
7.5061553538
 20
8.0840464603
 30
0.0
  0
VERTEX
  5
3FB
330
1E2
100
AcDbEntity
  8
0
  6
CONTINUOUS
 62
     7
100
AcDbVertex
100
AcDb2dVertex
 10
7.5227346498
 20
8.0857130931
 30
0.0
  0
VERTEX
  5
3FC
330
1E2
100
AcDbEntity
  8
0
  6
CONTINUOUS
 62
     7
100
AcDbVertex
100
AcDb2dVertex
 10
7.5395603429
 20
8.0858991837
 30
0.0
  0
VERTEX
  5
3FD
330
1E2
100
AcDbEntity
  8
0
  6
CONTINUOUS
 62
     7
100
AcDbVertex
100
AcDb2dVertex
 10
7.5562380529
 20
8.0846003703
 30
0.0
  0
VERTEX
  5
3FE
330
1E2
100
AcDbEntity
  8
0
  6
CONTINUOUS
 62
     7
100
AcDbVertex
100
AcDb2dVertex
 10
7.5723768685
 20
8.081847096
 30
0.0
  0
VERTEX
  5
3FF
330
1E2
100
AcDbEntity
  8
0
  6
CONTINUOUS
 62
     7
100
AcDbVertex
100
AcDb2dVertex
 10
7.5875985096
 20
8.0777038953
 30
0.0
  0
VERTEX
  5
400
330
1E2
100
AcDbEntity
  8
0
  6
CONTINUOUS
 62
     7
100
AcDbVertex
100
AcDb2dVertex
 10
7.6015461938
 20
8.0722678812
 30
0.0
  0
VERTEX
  5
401
330
1E2
100
AcDbEntity
  8
0
  6
CONTINUOUS
 62
     7
100
AcDbVertex
100
AcDb2dVertex
 10
7.6138929992
 20
8.0656664692
 30
0.0
  0
VERTEX
  5
402
330
1E2
100
AcDbEntity
  8
0
  6
CONTINUOUS
 62
     7
100
AcDbVertex
100
AcDb2dVertex
 10
7.6243495272
 20
8.058054391
 30
0.0
  0
VERTEX
  5
403
330
1E2
100
AcDbEntity
  8
0
  6
CONTINUOUS
 62
     7
100
AcDbVertex
100
AcDb2dVertex
 10
7.6326706855
 20
8.0496100672
 30
0.0
  0
VERTEX
  5
404
330
1E2
100
AcDbEntity
  8
0
  6
CONTINUOUS
 62
     7
100
AcDbVertex
100
AcDb2dVertex
 10
7.6386614333
 20
8.0405314255
 30
0.0
  0
VERTEX
  5
405
330
1E2
100
AcDbEntity
  8
0
  6
CONTINUOUS
 62
     7
100
AcDbVertex
100
AcDb2dVertex
 10
7.6421813526
 20
8.0310312616
 30
0.0
  0
VERTEX
  5
406
330
1E2
100
AcDbEntity
  8
0
  6
CONTINUOUS
 62
     7
100
AcDbVertex
100
AcDb2dVertex
 10
7.6431479394
 20
8.0213322513
 30
0.0
  0
VERTEX
  5
407
330
1E2
100
AcDbEntity
  8
0
  6
CONTINUOUS
 62
     7
100
AcDbVertex
100
AcDb2dVertex
 10
7.6415385377
 20
8.0116617312
 30
0.0
  0
VERTEX
  5
408
330
1E2
100
AcDbEntity
  8
0
  6
CONTINUOUS
 62
     7
100
AcDbVertex
100
AcDb2dVertex
 10
7.6373908706
 20
8.0022463701
 30
0.0
  0
VERTEX
  5
409
330
1E2
100
AcDbEntity
  8
0
  6
CONTINUOUS
 62
     7
100
AcDbVertex
100
AcDb2dVertex
 10
7.6308021558
 20
7.9933068561
 30
0.0
  0
VERTEX
  5
40A
330
1E2
100
AcDbEntity
  8
0
  6
CONTINUOUS
 62
     7
100
AcDbVertex
100
AcDb2dVertex
 10
7.6219268273
 20
7.9850527238
 30
0.0
  0
VERTEX
  5
40B
330
1E2
100
AcDbEntity
  8
0
  6
CONTINUOUS
 62
     7
100
AcDbVertex
100
AcDb2dVertex
 10
7.6109729152
 20
7.977677443
 30
0.0
  0
SEQEND
  5
40C
330
1E2
100
AcDbEntity
  8
0
  6
CONTINUOUS
 62
     7
  0
LINE
  5
1E3
330
1F
100
AcDbEntity
  8
0
  6
CONTINUOUS
 62
     7
100
AcDbLine
 10
7.4530571207
 20
8.0349517968
 30
0.0
 11
7.5117600746
 21
8.0688402907
 31
0.0
  0
LINE
  5
1E4
330
1F
100
AcDbEntity
  8
0
  6
CONTINUOUS
 62
     7
100
AcDbLine
 10
7.4745438931
 20
7.9886592532
 30
0.0
 11
7.4530571207
 21
8.0349517968
 31
0.0
  0
LINE
  5
1E5
330
1F
100
AcDbEntity
  8
0
  6
CONTINUOUS
 62
     7
100
AcDbLine
 10
7.5547336194
 20
7.9762552035
 30
0.0
 11
7.4745438931
 21
7.9886592532
 31
0.0
  0
LINE
  5
1E6
330
1F
100
AcDbEntity
  8
0
  6
CONTINUOUS
 62
     7
100
AcDbLine
 10
7.6134365732
 20
8.0101436975
 30
0.0
 11
7.5547336194
 21
7.9762552035
 31
0.0
  0
LINE
  5
1E7
330
1F
100
AcDbEntity
  8
0
  6
CONTINUOUS
 62
     7
100
AcDbLine
 10
7.5919498008
 20
8.0564362411
 30
0.0
 11
7.6134365732
 21
8.0101436975
 31
0.0
  0
LINE
  5
1E8
330
1F
100
AcDbEntity
  8
0
  6
CONTINUOUS
 62
     7
100
AcDbLine
 10
7.5117600746
 20
8.0688402907
 30
0.0
 11
7.5919498008
 21
8.0564362411
 31
0.0
  0
LINE
  5
1E9
330
1F
100
AcDbEntity
  8
0
  6
CONTINUOUS
 62
     7
100
AcDbLine
 10
7.5059078032
 20
7.9838077652
 30
0.0
 11
7.5117600746
 21
7.9871862095
 31
0.0
  0
LINE
  5
1EA
330
1F
100
AcDbEntity
  8
0
  6
CONTINUOUS
 62
     7
100
AcDbLine
 10
7.5117600746
 20
7.9871862095
 30
0.0
 11
7.5605858908
 21
7.9796336479
 31
0.0
  0
LINE
  5
1EB
330
1F
100
AcDbEntity
  8
0
  6
CONTINUOUS
 62
     7
100
AcDbLine
 10
7.5919498008
 20
7.9977396478
 30
0.0
 11
7.5919498008
 21
8.0564362411
 31
0.0
  0
LINE
  5
1EC
330
1F
100
AcDbEntity
  8
0
  6
CONTINUOUS
 62
     7
100
AcDbLine
 10
7.5117600746
 20
7.9871862095
 30
0.0
 11
7.5117600746
 21
8.0688402907
 31
0.0
  0
POLYLINE
  5
1ED
330
1F
100
AcDbEntity
  8
0
  6
CONTINUOUS
 62
     7
100
AcDb2dPolyline
 66
     1
 10
0.0
 20
0.0
 30
0.0
  0
VERTEX
  5
40D
330
1ED
100
AcDbEntity
  8
0
  6
CONTINUOUS
 62
     7
100
AcDbVertex
100
AcDb2dVertex
 10
8.9057170624
 20
7.3199755094
 30
0.0
  0
VERTEX
  5
40E
330
1ED
100
AcDbEntity
  8
0
  6
CONTINUOUS
 62
     7
100
AcDbVertex
100
AcDb2dVertex
 10
8.9178412576
 20
7.3118967347
 30
0.0
  0
VERTEX
  5
40F
330
1ED
100
AcDbEntity
  8
0
  6
CONTINUOUS
 62
     7
100
AcDbVertex
100
AcDb2dVertex
 10
8.9278630911
 20
7.30289435
 30
0.0
  0
VERTEX
  5
410
330
1ED
100
AcDbEntity
  8
0
  6
CONTINUOUS
 62
     7
100
AcDbVertex
100
AcDb2dVertex
 10
8.9355636197
 20
7.2931602368
 30
0.0
  0
VERTEX
  5
411
330
1ED
100
AcDbEntity
  8
0
  6
CONTINUOUS
 62
     7
100
AcDbVertex
100
AcDb2dVertex
 10
8.9407860829
 20
7.2828925536
 30
0.0
  0
VERTEX
  5
412
330
1ED
100
AcDbEntity
  8
0
  6
CONTINUOUS
 62
     7
100
AcDbVertex
100
AcDb2dVertex
 10
8.9434241664
 20
7.2723003206
 30
0.0
  0
VERTEX
  5
413
330
1ED
100
AcDbEntity
  8
0
  6
CONTINUOUS
 62
     7
100
AcDbVertex
100
AcDb2dVertex
 10
8.9434241664
 20
7.2615991654
 30
0.0
  0
VERTEX
  5
414
330
1ED
100
AcDbEntity
  8
0
  6
CONTINUOUS
 62
     7
100
AcDbVertex
100
AcDb2dVertex
 10
8.9407860829
 20
7.2510069325
 30
0.0
  0
VERTEX
  5
415
330
1ED
100
AcDbEntity
  8
0
  6
CONTINUOUS
 62
     7
100
AcDbVertex
100
AcDb2dVertex
 10
8.9355636197
 20
7.2407392492
 30
0.0
  0
VERTEX
  5
416
330
1ED
100
AcDbEntity
  8
0
  6
CONTINUOUS
 62
     7
100
AcDbVertex
100
AcDb2dVertex
 10
8.9278630911
 20
7.231005136
 30
0.0
  0
VERTEX
  5
417
330
1ED
100
AcDbEntity
  8
0
  6
CONTINUOUS
 62
     7
100
AcDbVertex
100
AcDb2dVertex
 10
8.9178412576
 20
7.2220027513
 30
0.0
  0
VERTEX
  5
418
330
1ED
100
AcDbEntity
  8
0
  6
CONTINUOUS
 62
     7
100
AcDbVertex
100
AcDb2dVertex
 10
8.9057021349
 20
7.2139153578
 30
0.0
  0
VERTEX
  5
419
330
1ED
100
AcDbEntity
  8
0
  6
CONTINUOUS
 62
     7
100
AcDbVertex
100
AcDb2dVertex
 10
8.8916928404
 20
7.2069075914
 30
0.0
  0
VERTEX
  5
41A
330
1ED
100
AcDbEntity
  8
0
  6
CONTINUOUS
 62
     7
100
AcDbVertex
100
AcDb2dVertex
 10
8.8898872056
 20
7.2061412215
 30
0.0
  0
SEQEND
  5
41B
330
1ED
100
AcDbEntity
  8
0
  6
CONTINUOUS
 62
     7
  0
POLYLINE
  5
1EE
330
1F
100
AcDbEntity
  8
0
  6
CONTINUOUS
 62
     7
100
AcDb2dPolyline
 66
     1
 10
0.0
 20
0.0
 30
0.0
  0
VERTEX
  5
41C
330
1EE
100
AcDbEntity
  8
0
  6
CONTINUOUS
 62
     7
100
AcDbVertex
100
AcDb2dVertex
 10
8.8509315777
 20
7.1950703558
 30
0.0
  0
VERTEX
  5
41D
330
1EE
100
AcDbEntity
  8
0
  6
CONTINUOUS
 62
     7
100
AcDbVertex
100
AcDb2dVertex
 10
8.8414506812
 20
7.1936618257
 30
0.0
  0
VERTEX
  5
41E
330
1EE
100
AcDbEntity
  8
0
  6
CONTINUOUS
 62
     7
100
AcDbVertex
100
AcDb2dVertex
 10
8.8231024076
 20
7.1921388925
 30
0.0
  0
VERTEX
  5
41F
330
1EE
100
AcDbEntity
  8
0
  6
CONTINUOUS
 62
     7
100
AcDbVertex
100
AcDb2dVertex
 10
8.8045654545
 20
7.1921388925
 30
0.0
  0
VERTEX
  5
420
330
1EE
100
AcDbEntity
  8
0
  6
CONTINUOUS
 62
     7
100
AcDbVertex
100
AcDb2dVertex
 10
8.7862171808
 20
7.1936618257
 30
0.0
  0
VERTEX
  5
421
330
1EE
100
AcDbEntity
  8
0
  6
CONTINUOUS
 62
     7
100
AcDbVertex
100
AcDb2dVertex
 10
8.7684311045
 20
7.1966766896
 30
0.0
  0
VERTEX
  5
422
330
1EE
100
AcDbEntity
  8
0
  6
CONTINUOUS
 62
     7
100
AcDbVertex
100
AcDb2dVertex
 10
8.7515692989
 20
7.2011221101
 30
0.0
  0
VERTEX
  5
423
330
1EE
100
AcDbEntity
  8
0
  6
CONTINUOUS
 62
     7
100
AcDbVertex
100
AcDb2dVertex
 10
8.7359750216
 20
7.2069075914
 30
0.0
  0
VERTEX
  5
424
330
1EE
100
AcDbEntity
  8
0
  6
CONTINUOUS
 62
     7
100
AcDbVertex
100
AcDb2dVertex
 10
8.7219657272
 20
7.2139153578
 30
0.0
  0
VERTEX
  5
425
330
1EE
100
AcDbEntity
  8
0
  6
CONTINUOUS
 62
     7
100
AcDbVertex
100
AcDb2dVertex
 10
8.7098266044
 20
7.2220027513
 30
0.0
  0
VERTEX
  5
426
330
1EE
100
AcDbEntity
  8
0
  6
CONTINUOUS
 62
     7
100
AcDbVertex
100
AcDb2dVertex
 10
8.699804771
 20
7.231005136
 30
0.0
  0
VERTEX
  5
427
330
1EE
100
AcDbEntity
  8
0
  6
CONTINUOUS
 62
     7
100
AcDbVertex
100
AcDb2dVertex
 10
8.6921042423
 20
7.2407392492
 30
0.0
  0
VERTEX
  5
428
330
1EE
100
AcDbEntity
  8
0
  6
CONTINUOUS
 62
     7
100
AcDbVertex
100
AcDb2dVertex
 10
8.6868817791
 20
7.2510069325
 30
0.0
  0
VERTEX
  5
429
330
1EE
100
AcDbEntity
  8
0
  6
CONTINUOUS
 62
     7
100
AcDbVertex
100
AcDb2dVertex
 10
8.6842436957
 20
7.2615991654
 30
0.0
  0
VERTEX
  5
42A
330
1EE
100
AcDbEntity
  8
0
  6
CONTINUOUS
 62
     7
100
AcDbVertex
100
AcDb2dVertex
 10
8.6842436957
 20
7.2723003206
 30
0.0
  0
VERTEX
  5
42B
330
1EE
100
AcDbEntity
  8
0
  6
CONTINUOUS
 62
     7
100
AcDbVertex
100
AcDb2dVertex
 10
8.6868817791
 20
7.2828925536
 30
0.0
  0
VERTEX
  5
42C
330
1EE
100
AcDbEntity
  8
0
  6
CONTINUOUS
 62
     7
100
AcDbVertex
100
AcDb2dVertex
 10
8.6921042423
 20
7.2931602368
 30
0.0
  0
VERTEX
  5
42D
330
1EE
100
AcDbEntity
  8
0
  6
CONTINUOUS
 62
     7
100
AcDbVertex
100
AcDb2dVertex
 10
8.699804771
 20
7.30289435
 30
0.0
  0
VERTEX
  5
42E
330
1EE
100
AcDbEntity
  8
0
  6
CONTINUOUS
 62
     7
100
AcDbVertex
100
AcDb2dVertex
 10
8.7098266044
 20
7.3118967347
 30
0.0
  0
VERTEX
  5
42F
330
1EE
100
AcDbEntity
  8
0
  6
CONTINUOUS
 62
     7
100
AcDbVertex
100
AcDb2dVertex
 10
8.7219657272
 20
7.3199841282
 30
0.0
  0
SEQEND
  5
430
330
1EE
100
AcDbEntity
  8
0
  6
CONTINUOUS
 62
     7
  0
POLYLINE
  5
1EF
330
1F
100
AcDbEntity
  8
0
  6
CONTINUOUS
 62
     7
100
AcDb2dPolyline
 66
     1
 10
0.0
 20
0.0
 30
0.0
  0
VERTEX
  5
431
330
1EF
100
AcDbEntity
  8
0
  6
CONTINUOUS
 62
     7
100
AcDbVertex
100
AcDb2dVertex
 10
8.7361078628
 20
7.3281508634
 30
0.0
  0
VERTEX
  5
432
330
1EF
100
AcDbEntity
  8
0
  6
CONTINUOUS
 62
     7
100
AcDbVertex
100
AcDb2dVertex
 10
8.7251539507
 20
7.3207755826
 30
0.0
  0
VERTEX
  5
433
330
1EF
100
AcDbEntity
  8
0
  6
CONTINUOUS
 62
     7
100
AcDbVertex
100
AcDb2dVertex
 10
8.7162786222
 20
7.3125214503
 30
0.0
  0
VERTEX
  5
434
330
1EF
100
AcDbEntity
  8
0
  6
CONTINUOUS
 62
     7
100
AcDbVertex
100
AcDb2dVertex
 10
8.7096899074
 20
7.3035819363
 30
0.0
  0
VERTEX
  5
435
330
1EF
100
AcDbEntity
  8
0
  6
CONTINUOUS
 62
     7
100
AcDbVertex
100
AcDb2dVertex
 10
8.7055422403
 20
7.2941665752
 30
0.0
  0
VERTEX
  5
436
330
1EF
100
AcDbEntity
  8
0
  6
CONTINUOUS
 62
     7
100
AcDbVertex
100
AcDb2dVertex
 10
8.7039328386
 20
7.2844960551
 30
0.0
  0
VERTEX
  5
437
330
1EF
100
AcDbEntity
  8
0
  6
CONTINUOUS
 62
     7
100
AcDbVertex
100
AcDb2dVertex
 10
8.7048994254
 20
7.2747970448
 30
0.0
  0
VERTEX
  5
438
330
1EF
100
AcDbEntity
  8
0
  6
CONTINUOUS
 62
     7
100
AcDbVertex
100
AcDb2dVertex
 10
8.7084193447
 20
7.2652968809
 30
0.0
  0
VERTEX
  5
439
330
1EF
100
AcDbEntity
  8
0
  6
CONTINUOUS
 62
     7
100
AcDbVertex
100
AcDb2dVertex
 10
8.7144100925
 20
7.2562182392
 30
0.0
  0
VERTEX
  5
43A
330
1EF
100
AcDbEntity
  8
0
  6
CONTINUOUS
 62
     7
100
AcDbVertex
100
AcDb2dVertex
 10
8.7227312508
 20
7.2477739154
 30
0.0
  0
VERTEX
  5
43B
330
1EF
100
AcDbEntity
  8
0
  6
CONTINUOUS
 62
     7
100
AcDbVertex
100
AcDb2dVertex
 10
8.7331877788
 20
7.2401618371
 30
0.0
  0
VERTEX
  5
43C
330
1EF
100
AcDbEntity
  8
0
  6
CONTINUOUS
 62
     7
100
AcDbVertex
100
AcDb2dVertex
 10
8.7455345842
 20
7.2335604252
 30
0.0
  0
VERTEX
  5
43D
330
1EF
100
AcDbEntity
  8
0
  6
CONTINUOUS
 62
     7
100
AcDbVertex
100
AcDb2dVertex
 10
8.7594822684
 20
7.2281244111
 30
0.0
  0
VERTEX
  5
43E
330
1EF
100
AcDbEntity
  8
0
  6
CONTINUOUS
 62
     7
100
AcDbVertex
100
AcDb2dVertex
 10
8.7747039095
 20
7.2239812103
 30
0.0
  0
VERTEX
  5
43F
330
1EF
100
AcDbEntity
  8
0
  6
CONTINUOUS
 62
     7
100
AcDbVertex
100
AcDb2dVertex
 10
8.7908427251
 20
7.2212279361
 30
0.0
  0
VERTEX
  5
440
330
1EF
100
AcDbEntity
  8
0
  6
CONTINUOUS
 62
     7
100
AcDbVertex
100
AcDb2dVertex
 10
8.8075204351
 20
7.2199291227
 30
0.0
  0
VERTEX
  5
441
330
1EF
100
AcDbEntity
  8
0
  6
CONTINUOUS
 62
     7
100
AcDbVertex
100
AcDb2dVertex
 10
8.8243461282
 20
7.2201152133
 30
0.0
  0
VERTEX
  5
442
330
1EF
100
AcDbEntity
  8
0
  6
CONTINUOUS
 62
     7
100
AcDbVertex
100
AcDb2dVertex
 10
8.8409254242
 20
7.2217818461
 30
0.0
  0
VERTEX
  5
443
330
1EF
100
AcDbEntity
  8
0
  6
CONTINUOUS
 62
     7
100
AcDbVertex
100
AcDb2dVertex
 10
8.8568697186
 20
7.2248899565
 30
0.0
  0
VERTEX
  5
444
330
1EF
100
AcDbEntity
  8
0
  6
CONTINUOUS
 62
     7
100
AcDbVertex
100
AcDb2dVertex
 10
8.8718052906
 20
7.2293666933
 30
0.0
  0
VERTEX
  5
445
330
1EF
100
AcDbEntity
  8
0
  6
CONTINUOUS
 62
     7
100
AcDbVertex
100
AcDb2dVertex
 10
8.8853820631
 20
7.2351071253
 30
0.0
  0
VERTEX
  5
446
330
1EF
100
AcDbEntity
  8
0
  6
CONTINUOUS
 62
     7
100
AcDbVertex
100
AcDb2dVertex
 10
8.897281808
 20
7.2419767018
 30
0.0
  0
VERTEX
  5
447
330
1EF
100
AcDbEntity
  8
0
  6
CONTINUOUS
 62
     7
100
AcDbVertex
100
AcDb2dVertex
 10
8.9072256054
 20
7.2498144057
 30
0.0
  0
VERTEX
  5
448
330
1EF
100
AcDbEntity
  8
0
  6
CONTINUOUS
 62
     7
100
AcDbVertex
100
AcDb2dVertex
 10
8.9149803811
 20
7.2584365279
 30
0.0
  0
VERTEX
  5
449
330
1EF
100
AcDbEntity
  8
0
  6
CONTINUOUS
 62
     7
100
AcDbVertex
100
AcDb2dVertex
 10
8.9203643697
 20
7.2676409731
 30
0.0
  0
VERTEX
  5
44A
330
1EF
100
AcDbEntity
  8
0
  6
CONTINUOUS
 62
     7
100
AcDbVertex
100
AcDb2dVertex
 10
8.9232513751
 20
7.277211997
 30
0.0
  0
VERTEX
  5
44B
330
1EF
100
AcDbEntity
  8
0
  6
CONTINUOUS
 62
     7
100
AcDbVertex
100
AcDb2dVertex
 10
8.9235737284
 20
7.2869252628
 30
0.0
  0
VERTEX
  5
44C
330
1EF
100
AcDbEntity
  8
0
  6
CONTINUOUS
 62
     7
100
AcDbVertex
100
AcDb2dVertex
 10
8.9213238739
 20
7.2965530999
 30
0.0
  0
VERTEX
  5
44D
330
1EF
100
AcDbEntity
  8
0
  6
CONTINUOUS
 62
     7
100
AcDbVertex
100
AcDb2dVertex
 10
8.9165545462
 20
7.3058698399
 30
0.0
  0
VERTEX
  5
44E
330
1EF
100
AcDbEntity
  8
0
  6
CONTINUOUS
 62
     7
100
AcDbVertex
100
AcDb2dVertex
 10
8.9093775343
 20
7.3146571062
 30
0.0
  0
VERTEX
  5
44F
330
1EF
100
AcDbEntity
  8
0
  6
CONTINUOUS
 62
     7
100
AcDbVertex
100
AcDb2dVertex
 10
8.8999610614
 20
7.3227089329
 30
0.0
  0
VERTEX
  5
450
330
1EF
100
AcDbEntity
  8
0
  6
CONTINUOUS
 62
     7
100
AcDbVertex
100
AcDb2dVertex
 10
8.8885258415
 20
7.329836592
 30
0.0
  0
VERTEX
  5
451
330
1EF
100
AcDbEntity
  8
0
  6
CONTINUOUS
 62
     7
100
AcDbVertex
100
AcDb2dVertex
 10
8.8753399065
 20
7.3358730171
 30
0.0
  0
VERTEX
  5
452
330
1EF
100
AcDbEntity
  8
0
  6
CONTINUOUS
 62
     7
100
AcDbVertex
100
AcDb2dVertex
 10
8.8607123236
 20
7.3406767195
 30
0.0
  0
VERTEX
  5
453
330
1EF
100
AcDbEntity
  8
0
  6
CONTINUOUS
 62
     7
100
AcDbVertex
100
AcDb2dVertex
 10
8.844985951
 20
7.3441351046
 30
0.0
  0
VERTEX
  5
454
330
1EF
100
AcDbEntity
  8
0
  6
CONTINUOUS
 62
     7
100
AcDbVertex
100
AcDb2dVertex
 10
8.8285294013
 20
7.3461671108
 30
0.0
  0
VERTEX
  5
455
330
1EF
100
AcDbEntity
  8
0
  6
CONTINUOUS
 62
     7
100
AcDbVertex
100
AcDb2dVertex
 10
8.8117284023
 20
7.3467251095
 30
0.0
  0
VERTEX
  5
456
330
1EF
100
AcDbEntity
  8
0
  6
CONTINUOUS
 62
     7
100
AcDbVertex
100
AcDb2dVertex
 10
8.7949767552
 20
7.3457960216
 30
0.0
  0
VERTEX
  5
457
330
1EF
100
AcDbEntity
  8
0
  6
CONTINUOUS
 62
     7
100
AcDbVertex
100
AcDb2dVertex
 10
8.7786671042
 20
7.3434016244
 30
0.0
  0
VERTEX
  5
458
330
1EF
100
AcDbEntity
  8
0
  6
CONTINUOUS
 62
     7
100
AcDbVertex
100
AcDb2dVertex
 10
8.7631817338
 20
7.3395980403
 30
0.0
  0
VERTEX
  5
459
330
1EF
100
AcDbEntity
  8
0
  6
CONTINUOUS
 62
     7
100
AcDbVertex
100
AcDb2dVertex
 10
8.748883608
 20
7.3344744222
 30
0.0
  0
VERTEX
  5
45A
330
1EF
100
AcDbEntity
  8
0
  6
CONTINUOUS
 62
     7
100
AcDbVertex
100
AcDb2dVertex
 10
8.7361078628
 20
7.3281508634
 30
0.0
  0
SEQEND
  5
45B
330
1EF
100
AcDbEntity
  8
0
  6
CONTINUOUS
 62
     7
  0
LINE
  5
1F0
330
1F
100
AcDbEntity
  8
0
  6
CONTINUOUS
 62
     7
100
AcDbLine
 10
8.8725368849
 20
7.3171690532
 30
0.0
 11
8.7923471586
 21
7.3295731029
 31
0.0
  0
LINE
  5
1F1
330
1F
100
AcDbEntity
  8
0
  6
CONTINUOUS
 62
     7
100
AcDbLine
 10
8.7923471586
 20
7.3295731029
 30
0.0
 11
8.7336442048
 21
7.2956846089
 31
0.0
  0
LINE
  5
1F2
330
1F
100
AcDbEntity
  8
0
  6
CONTINUOUS
 62
     7
100
AcDbLine
 10
8.7336442048
 20
7.2956846089
 30
0.0
 11
8.7551309772
 21
7.2493920653
 31
0.0
  0
LINE
  5
1F3
330
1F
100
AcDbEntity
  8
0
  6
CONTINUOUS
 62
     7
100
AcDbLine
 10
8.7551309772
 20
7.2493920653
 30
0.0
 11
8.8353207034
 21
7.2369880157
 31
0.0
  0
LINE
  5
1F4
330
1F
100
AcDbEntity
  8
0
  6
CONTINUOUS
 62
     7
100
AcDbLine
 10
8.8353207034
 20
7.2369880157
 30
0.0
 11
8.8940236573
 21
7.2708765096
 31
0.0
  0
LINE
  5
1F5
330
1F
100
AcDbEntity
  8
0
  6
CONTINUOUS
 62
     7
100
AcDbLine
 10
8.8940236573
 20
7.2708765096
 30
0.0
 11
8.8725368849
 21
7.3171690532
 31
0.0
  0
LINE
  5
1F6
330
1F
100
AcDbEntity
  8
0
  6
CONTINUOUS
 62
     7
100
AcDbLine
 10
8.7923471586
 20
7.2479190217
 30
0.0
 11
8.7864948872
 21
7.2445405773
 31
0.0
  0
LINE
  5
1F7
330
1F
100
AcDbEntity
  8
0
  6
CONTINUOUS
 62
     7
100
AcDbLine
 10
8.8411729748
 20
7.24036646
 30
0.0
 11
8.7923471586
 21
7.2479190217
 31
0.0
  0
LINE
  5
1F8
330
1F
100
AcDbEntity
  8
0
  6
CONTINUOUS
 62
     7
100
AcDbLine
 10
8.8725368849
 20
7.2584724599
 30
0.0
 11
8.8725368849
 21
7.3171690532
 31
0.0
  0
LINE
  5
1F9
330
1F
100
AcDbEntity
  8
0
  6
CONTINUOUS
 62
     7
100
AcDbLine
 10
8.7923471586
 20
7.2479190217
 30
0.0
 11
8.7923471586
 21
7.3295731029
 31
0.0
  0
ENDSEC
  0
SECTION
  2
OBJECTS
  0
DICTIONARY
  5
C
330
0
100
AcDbDictionary
  3
ACAD_GROUP
350
D
  3
ACAD_LAYOUT
350
1A
  3
ACAD_MLEADERSTYLE
350
1FC
  3
ACAD_MLINESTYLE
350
17
  3
ACAD_PLOTSETTINGS
350
19
  3
ACAD_SCALELIST
350
6F
  3
ACAD_VISUALSTYLE
350
2A
  3
ACDBVARIABLEDICTIONARY
350
1FA
1001
ACAD
1000
TREAT_AS_HARD
1070
     0
  0
DICTIONARY
  5
D
102
{ACAD_REACTORS
330
C
102
}
330
C
100
AcDbDictionary
1001
ACAD
1000
TREAT_AS_HARD
1070
     0
  0
DICTIONARY
  5
1A
102
{ACAD_REACTORS
330
C
102
}
330
C
100
AcDbDictionary
1001
ACAD
1000
TREAT_AS_HARD
1070
     0
  0
DICTIONARY
  5
1FC
102
{ACAD_REACTORS
330
C
102
}
330
C
100
AcDbDictionary
1001
ACAD
1000
TREAT_AS_HARD
1070
     0
  0
DICTIONARY
  5
17
102
{ACAD_REACTORS
330
C
102
}
330
C
100
AcDbDictionary
  3
STANDARD
350
18
1001
ACAD
1000
TREAT_AS_HARD
1070
     0
  0
DICTIONARY
  5
19
102
{ACAD_REACTORS
330
C
102
}
330
C
100
AcDbDictionary
1001
ACAD
1000
TREAT_AS_HARD
1070
     0
  0
DICTIONARY
  5
6F
102
{ACAD_REACTORS
330
C
102
}
330
C
100
AcDbDictionary
  3
A0
350
70
  3
A1
350
71
  3
A2
350
72
  3
A3
350
73
  3
A4
350
74
  3
A5
350
75
  3
A6
350
76
  3
A7
350
77
  3
A8
350
78
  3
A9
350
79
  3
B0
350
7A
  3
B1
350
7B
  3
B2
350
7C
  3
B3
350
7D
  3
B4
350
7E
  3
B5
350
7F
  3
B6
350
80
  3
B7
350
81
  3
B8
350
82
  3
B9
350
83
  3
C0
350
84
  3
C1
350
85
  3
C2
350
86
  3
C3
350
87
  3
C4
350
88
  3
C5
350
89
  3
C6
350
8A
  3
C7
350
8B
  3
C8
350
8C
  3
C9
350
8D
  3
D0
350
8E
  3
D1
350
8F
  3
D2
350
90
1001
ACAD
1000
TREAT_AS_HARD
1070
     0
  0
DICTIONARY
  5
2A
102
{ACAD_REACTORS
330
C
102
}
330
C
100
AcDbDictionary
  3
2DWIREFRAME
350
2F
  3
3D_HIDDEN
350
31
  3
3DWIREFRAME
350
30
  3
BASIC
350
32
  3
BRIGHTEN
350
36
  3
COLORCHANGE
350
3A
  3
CONCEPTUAL
350
34
  3
DIM
350
35
  3
FACEPATTERN
350
39
  3
FLAT
350
2B
  3
FLATWITHEDGES
350
2C
  3
GOURAUD
350
2D
  3
GOURAUDWITHEDGES
350
2E
  3
LINEPATTERN
350
38
  3
REALISTIC
350
33
  3
THICKEN
350
37
1001
ACAD
1000
TREAT_AS_HARD
1070
     0
  0
DICTIONARY
  5
1FA
102
{ACAD_REACTORS
330
C
102
}
330
C
100
AcDbDictionary
  3
CANNOSCALE
350
1FD
  3
DIMASSOC
350
1FE
  3
HIDETEXT
350
1FF
1001
ACAD
1000
TREAT_AS_HARD
1070
     0
  0
MLINESTYLE
  5
18
102
{ACAD_REACTORS
330
17
102
}
330
17
100
AcDbMlineStyle
  2
Standard
 70
     0
  3

 62
   256
 51
90.0
 52
90.0
 71
     2
 49
0.5
 62
   256
  6
BYLAYER
 49
-0.5
 62
   256
  6
BYLAYER
  0
ACAD_PROXY_OBJECT
  5
70
102
{ACAD_REACTORS
330
6F
102
}
330
6F
100
AcDbZombieObject
 90
      499
 91
      502
 93
       41
310
903313A31580
  0
ACAD_PROXY_OBJECT
  5
71
102
{ACAD_REACTORS
330
6F
102
}
330
6F
100
AcDbZombieObject
 90
      499
 91
      502
 93
      105
310
903313A324000000000000004000
  0
ACAD_PROXY_OBJECT
  5
72
102
{ACAD_REACTORS
330
6F
102
}
330
6F
100
AcDbZombieObject
 90
      499
 91
      502
 93
      105
310
903313A344000000000000104000
  0
ACAD_PROXY_OBJECT
  5
73
102
{ACAD_REACTORS
330
6F
102
}
330
6F
100
AcDbZombieObject
 90
      499
 91
      502
 93
      105
310
903313A354000000000000144000
  0
ACAD_PROXY_OBJECT
  5
74
102
{ACAD_REACTORS
330
6F
102
}
330
6F
100
AcDbZombieObject
 90
      499
 91
      502
 93
      105
310
903313A384000000000000204000
  0
ACAD_PROXY_OBJECT
  5
75
102
{ACAD_REACTORS
330
6F
102
}
330
6F
100
AcDbZombieObject
 90
      499
 91
      502
 93
      113
310
904313A31304000000000000244000
  0
ACAD_PROXY_OBJECT
  5
76
102
{ACAD_REACTORS
330
6F
102
}
330
6F
100
AcDbZombieObject
 90
      499
 91
      502
 93
      113
310
904313A31364000000000000304000
  0
ACAD_PROXY_OBJECT
  5
77
102
{ACAD_REACTORS
330
6F
102
}
330
6F
100
AcDbZombieObject
 90
      499
 91
      502
 93
      113
310
904313A32304000000000000344000
  0
ACAD_PROXY_OBJECT
  5
78
102
{ACAD_REACTORS
330
6F
102
}
330
6F
100
AcDbZombieObject
 90
      499
 91
      502
 93
      113
310
904313A333040000000000003E4000
  0
ACAD_PROXY_OBJECT
  5
79
102
{ACAD_REACTORS
330
6F
102
}
330
6F
100
AcDbZombieObject
 90
      499
 91
      502
 93
      113
310
904313A34304000000000000444000
  0
ACAD_PROXY_OBJECT
  5
7A
102
{ACAD_REACTORS
330
6F
102
}
330
6F
100
AcDbZombieObject
 90
      499
 91
      502
 93
      113
310
904313A35304000000000000494000
  0
ACAD_PROXY_OBJECT
  5
7B
102
{ACAD_REACTORS
330
6F
102
}
330
6F
100
AcDbZombieObject
 90
      499
 91
      502
 93
      121
310
905313A3130304000000000000594000
  0
ACAD_PROXY_OBJECT
  5
7C
102
{ACAD_REACTORS
330
6F
102
}
330
6F
100
AcDbZombieObject
 90
      499
 91
      502
 93
      105
310
903323A310000000000000010100
  0
ACAD_PROXY_OBJECT
  5
7D
102
{ACAD_REACTORS
330
6F
102
}
330
6F
100
AcDbZombieObject
 90
      499
 91
      502
 93
      105
310
903343A310000000000000410100
  0
ACAD_PROXY_OBJECT
  5
7E
102
{ACAD_REACTORS
330
6F
102
}
330
6F
100
AcDbZombieObject
 90
      499
 91
      502
 93
      105
310
903383A310000000000000810100
  0
ACAD_PROXY_OBJECT
  5
7F
102
{ACAD_REACTORS
330
6F
102
}
330
6F
100
AcDbZombieObject
 90
      499
 91
      502
 93
      113
310
90431303A310000000000000910100
  0
ACAD_PROXY_OBJECT
  5
80
102
{ACAD_REACTORS
330
6F
102
}
330
6F
100
AcDbZombieObject
 90
      499
 91
      502
 93
      121
310
9053130303A310000000000001650100
  0
ACAD_PROXY_OBJECT
  5
81
102
{ACAD_REACTORS
330
6F
102
}
330
6F
100
AcDbZombieObject
 90
      499
 91
      502
 93
      257
310
90E312F31323822203D2031272D3022000000000000200FC000000000000284000
  0
ACAD_PROXY_OBJECT
  5
82
102
{ACAD_REACTORS
330
6F
102
}
330
6F
100
AcDbZombieObject
 90
      499
 91
      502
 93
      249
310
90D312F363422203D2031272D3022000000000000240FC000000000000284000
  0
ACAD_PROXY_OBJECT
  5
83
102
{ACAD_REACTORS
330
6F
102
}
330
6F
100
AcDbZombieObject
 90
      499
 91
      502
 93
      249
310
90D312F333222203D2031272D3022000000000000280FC000000000000284000
  0
ACAD_PROXY_OBJECT
  5
84
102
{ACAD_REACTORS
330
6F
102
}
330
6F
100
AcDbZombieObject
 90
      499
 91
      502
 93
      249
310
90D312F313622203D2031272D30220000000000002C0FC000000000000284000
  0
ACAD_PROXY_OBJECT
  5
85
102
{ACAD_REACTORS
330
6F
102
}
330
6F
100
AcDbZombieObject
 90
      499
 91
      502
 93
      249
310
90D332F333222203D2031272D30220000000000002E0FC000000000000284000
  0
ACAD_PROXY_OBJECT
  5
86
102
{ACAD_REACTORS
330
6F
102
}
330
6F
100
AcDbZombieObject
 90
      499
 91
      502
 93
      241
310
90C312F3822203D2031272D3022000000000000300FC000000000000284000
  0
ACAD_PROXY_OBJECT
  5
87
102
{ACAD_REACTORS
330
6F
102
}
330
6F
100
AcDbZombieObject
 90
      499
 91
      502
 93
      249
310
90D332F313622203D2031272D3022000000000000320FC000000000000284000
  0
ACAD_PROXY_OBJECT
  5
88
102
{ACAD_REACTORS
330
6F
102
}
330
6F
100
AcDbZombieObject
 90
      499
 91
      502
 93
      241
310
90C312F3422203D2031272D3022000000000000340FC000000000000284000
  0
ACAD_PROXY_OBJECT
  5
89
102
{ACAD_REACTORS
330
6F
102
}
330
6F
100
AcDbZombieObject
 90
      499
 91
      502
 93
      241
310
90C332F3822203D2031272D3022000000000000360FC000000000000284000
  0
ACAD_PROXY_OBJECT
  5
8A
102
{ACAD_REACTORS
330
6F
102
}
330
6F
100
AcDbZombieObject
 90
      499
 91
      502
 93
      241
310
90C312F3222203D2031272D3022000000000000380FC000000000000284000
  0
ACAD_PROXY_OBJECT
  5
8B
102
{ACAD_REACTORS
330
6F
102
}
330
6F
100
AcDbZombieObject
 90
      499
 91
      502
 93
      241
310
90C332F3422203D2031272D30220000000000003A0FC000000000000284000
  0
ACAD_PROXY_OBJECT
  5
8C
102
{ACAD_REACTORS
330
6F
102
}
330
6F
100
AcDbZombieObject
 90
      499
 91
      502
 93
      161
310
90A3122203D2031272D30224000000000000284000
  0
ACAD_PROXY_OBJECT
  5
8D
102
{ACAD_REACTORS
330
6F
102
}
330
6F
100
AcDbZombieObject
 90
      499
 91
      502
 93
      257
310
90E312D312F3222203D2031272D30220000000000003E0FC000000000000284000
  0
ACAD_PROXY_OBJECT
  5
8E
102
{ACAD_REACTORS
330
6F
102
}
330
6F
100
AcDbZombieObject
 90
      499
 91
      502
 93
      225
310
90A3322203D2031272D302200000000000002100000000000000284000
  0
ACAD_PROXY_OBJECT
  5
8F
102
{ACAD_REACTORS
330
6F
102
}
330
6F
100
AcDbZombieObject
 90
      499
 91
      502
 93
      225
310
90A3622203D2031272D302200000000000006100000000000000284000
  0
ACAD_PROXY_OBJECT
  5
90
102
{ACAD_REACTORS
330
6F
102
}
330
6F
100
AcDbZombieObject
 90
      499
 91
      502
 93
      249
310
90D31272D3022203D2031272D30220000000000000A100000000000000284000
  0
ACAD_PROXY_OBJECT
  5
2F
102
{ACAD_REACTORS
330
2A
102
}
330
2A
100
AcDbZombieObject
 90
      499
 91
      501
 93
      436
310
42CC9915DA5C99599C985B595049028333333333333E3BF0000000000000FB0107901411070040501600405405064090741402480A0340
1001
ACAD
1000
AcDbSavedByObjectVersion
1070
     0
  0
ACAD_PROXY_OBJECT
  5
31
102
{ACAD_REACTORS
330
2A
102
}
330
2A
100
AcDbZombieObject
 90
      499
 91
      501
 93
      500
310
424CD108121A5919195B90640502408333333333333E3BF0000000000000FB01079024090700405020000000000001110200405405064090740C02480A0340
1001
ACAD
1000
AcDbSavedByObjectVersion
1070
     0
  0
ACAD_PROXY_OBJECT
  5
30
102
{ACAD_REACTORS
330
2A
102
}
330
2A
100
AcDbZombieObject
 90
      499
 91
      501
 93
      436
310
42CCD915DA5C99599C985B595059028333333333333E3BF0000000000000FB0107901411070040501600405405064090741402480A0340
1001
ACAD
1000
AcDbSavedByObjectVersion
1070
     0
  0
ACAD_PROXY_OBJECT
  5
32
102
{ACAD_REACTORS
330
2A
102
}
330
2A
100
AcDbZombieObject
 90
      499
 91
      501
 93
      388
310
4150985CDA58D07406404333333333333E3BF0000000000000FB0107A41107004050150841D405064090741402480A0350
1001
ACAD
1000
AcDbSavedByObjectVersion
1070
     0
  0
ACAD_PROXY_OBJECT
  5
36
102
{ACAD_REACTORS
330
2A
102
}
330
2A
100
AcDbZombieObject
 90
      499
 91
      501
 93
      428
310
42109C9A59DA1D195B90C409028333333333333E3BF0000000000000FB010790141107004050150841D405064090741402480A029950
1001
ACAD
1000
AcDbSavedByObjectVersion
1070
     0
  0
ACAD_PROXY_OBJECT
  5
3A
102
{ACAD_REACTORS
330
2A
102
}
330
2A
100
AcDbZombieObject
 90
      499
 91
      501
 93
      452
310
42D0DBDB1BDC90DA185B99D95104090240C333333333333E3BF0000000000000FB0108901411070040501508421405064090741402480A0350
1001
ACAD
1000
AcDbSavedByObjectVersion
1070
     0
  0
ACAD_PROXY_OBJECT
  5
34
102
{ACAD_REACTORS
330
2A
102
}
330
2A
100
AcDbZombieObject
 90
      499
 91
      501
 93
      500
310
4290DBDB98D95C1D1D585B10940D028333333333333E3BF0000000000000FB0107902409070040501000000000000111010841D405064090740C02480A0340
1001
ACAD
1000
AcDbSavedByObjectVersion
1070
     0
  0
ACAD_PROXY_OBJECT
  5
35
102
{ACAD_REACTORS
330
2A
102
}
330
2A
100
AcDbZombieObject
 90
      499
 91
      501
 93
      412
310
40D11A5B50B409028333333333333E3BF0000000000000FB010790141107004050150841D405064090741402480A02677FFFFFD0
1001
ACAD
1000
AcDbSavedByObjectVersion
1070
     0
  0
ACAD_PROXY_OBJECT
  5
39
102
{ACAD_REACTORS
330
2A
102
}
330
2A
100
AcDbZombieObject
 90
      499
 91
      501
 93
      444
310
42D19858D95C185D1D195C9B90F409028333333333333E3BF0000000000000FB010790141107004050150841D405064090741402480A0350
1001
ACAD
1000
AcDbSavedByObjectVersion
1070
     0
  0
ACAD_PROXY_OBJECT
  5
2B
102
{ACAD_REACTORS
330
2A
102
}
330
2A
100
AcDbZombieObject
 90
      499
 91
      501
 93
      388
310
41119B185D240901404333333333333E3BF0000000000000F9010740A41107004050150841D405064090741402480A1B50
1001
ACAD
1000
AcDbSavedByObjectVersion
1070
     0
  0
ACAD_PROXY_OBJECT
  5
2C
102
{ACAD_REACTORS
330
2A
102
}
330
2A
100
AcDbZombieObject
 90
      499
 91
      501
 93
      476
310
43519B185D15DA5D1A115919D95CD0140901404333333333333E3BF0000000000000F9010740901411070040501600405405064090741402480A1B50
1001
ACAD
1000
AcDbSavedByObjectVersion
1070
     0
  0
ACAD_PROXY_OBJECT
  5
2D
102
{ACAD_REACTORS
330
2A
102
}
330
2A
100
AcDbZombieObject
 90
      499
 91
      501
 93
      412
310
41D1DBDD5C985D5910240902404333333333333E3BF0000000000000F9010740A411070040501641D405064090741402480A1B50
1001
ACAD
1000
AcDbSavedByObjectVersion
1070
     0
  0
ACAD_PROXY_OBJECT
  5
2E
102
{ACAD_REACTORS
330
2A
102
}
330
2A
100
AcDbZombieObject
 90
      499
 91
      501
 93
      500
310
4411DBDD5C985D5915DA5D1A115919D95CD0340902404333333333333E3BF0000000000000F9010740901411070040501600405405064090741402480A1B50
1001
ACAD
1000
AcDbSavedByObjectVersion
1070
     0
  0
ACAD_PROXY_OBJECT
  5
38
102
{ACAD_REACTORS
330
2A
102
}
330
2A
100
AcDbZombieObject
 90
      499
 91
      501
 93
      444
310
42D31A5B995C185D1D195C9B90E409028333333333333E3BF0000000000000FB010790141107004050750841D405064090741402483A0350
1001
ACAD
1000
AcDbSavedByObjectVersion
1070
     0
  0
ACAD_PROXY_OBJECT
  5
33
102
{ACAD_REACTORS
330
2A
102
}
330
2A
100
AcDbZombieObject
 90
      499
 91
      501
 93
      420
310
425499585B1A5CDD1A58D08409028333333333333E3BF0000000000000FB01079019070040501508421405064090741402480A1B40
1001
ACAD
1000
AcDbSavedByObjectVersion
1070
     0
  0
ACAD_PROXY_OBJECT
  5
37
102
{ACAD_REACTORS
330
2A
102
}
330
2A
100
AcDbZombieObject
 90
      499
 91
      501
 93
      412
310
41D51A1A58DAD95B90D409028333333333333E3BF0000000000000FB010790141107004050150C41D405064090741402480A0350
1001
ACAD
1000
AcDbSavedByObjectVersion
1070
     0
  0
DICTIONARYVAR
  5
1FD
102
{ACAD_REACTORS
330
1FA
102
}
330
1FA
100
DictionaryVariables
280
     0
  1
1:1
  0
DICTIONARYVAR
  5
1FE
102
{ACAD_REACTORS
330
1FA
102
}
330
1FA
100
DictionaryVariables
280
     0
  1
2
  0
DICTIONARYVAR
  5
1FF
102
{ACAD_REACTORS
330
1FA
102
}
330
1FA
100
DictionaryVariables
280
     0
  1
1
  0
ENDSEC
  0
EOF
