  0
SECTION
  2
HEADER
  9
$ACADVER
  1
AC1012
  9
$DWGCODEPAGE
  3
ansi_1252
  9
$INSBASE
 10
0.0
 20
0.0
 30
0.0
  9
$EXTMIN
 10
0.0
 20
0.0
 30
0.0
  9
$EXTMAX
 10
11.0
 20
8.5
 30
0.0
  9
$LIMMIN
 10
0.0
 20
0.0
  9
$LIMMAX
 10
11.0
 20
8.5
  9
$ORTHOMODE
 70
     0
  9
$REGENMODE
 70
     1
  9
$FILLMODE
 70
     1
  9
$QTEXTMODE
 70
     0
  9
$MIRRTEXT
 70
     1
  9
$DRAGMODE
 70
     2
  9
$LTSCALE
 40
1.0
  9
$OSMODE
 70
    37
  9
$ATTMODE
 70
     1
  9
$TEXTSIZE
 40
0.125
  9
$TRACEWID
 40
0.05
  9
$TEXTSTYLE
  7
STANDARD
  9
$CLAYER
  8
0
  9
$CELTYPE
  6
BYLAYER
  9
$CECOLOR
 62
   256
  9
$CELTSCALE
 40
1.0
  9
$DELOBJ
 70
     1
  9
$DISPSILH
 70
     0
  9
$DIMSCALE
 40
1.0
  9
$DIMASZ
 40
0.13
  9
$DIMEXO
 40
0.05
  9
$DIMDLI
 40
0.38
  9
$DIMRND
 40
0.0
  9
$DIMDLE
 40
0.0
  9
$DIMEXE
 40
0.125
  9
$DIMTP
 40
0.0
  9
$DIMTM
 40
0.0
  9
$DIMTXT
 40
0.125
  9
$DIMCEN
 40
0.09
  9
$DIMTSZ
 40
0.0
  9
$DIMTOL
 70
     0
  9
$DIMLIM
 70
     0
  9
$DIMTIH
 70
     1
  9
$DIMTOH
 70
     1
  9
$DIMSE1
 70
     0
  9
$DIMSE2
 70
     0
  9
$DIMTAD
 70
     0
  9
$DIMZIN
 70
     0
  9
$DIMBLK
  1

  9
$DIMASO
 70
     1
  9
$DIMSHO
 70
     1
  9
$DIMPOST
  1

  9
$DIMAPOST
  1

  9
$DIMALT
 70
     0
  9
$DIMALTD
 70
     2
  9
$DIMALTF
 40
25.4
  9
$DIMLFAC
 40
0.5
  9
$DIMTOFL
 70
     0
  9
$DIMTVP
 40
0.0
  9
$DIMTIX
 70
     0
  9
$DIMSOXD
 70
     0
  9
$DIMSAH
 70
     0
  9
$DIMBLK1
  1

  9
$DIMBLK2
  1

  9
$DIMSTYLE
  2
STANDARD
  9
$DIMCLRD
 70
     0
  9
$DIMCLRE
 70
     0
  9
$DIMCLRT
 70
     0
  9
$DIMTFAC
 40
1.0
  9
$DIMGAP
 40
0.06
  9
$DIMJUST
 70
     0
  9
$DIMSD1
 70
     0
  9
$DIMSD2
 70
     0
  9
$DIMTOLJ
 70
     1
  9
$DIMTZIN
 70
     0
  9
$DIMALTZ
 70
     0
  9
$DIMALTTZ
 70
     0
  9
$DIMFIT
 70
     3
  9
$DIMUPT
 70
     0
  9
$DIMUNIT
 70
     2
  9
$DIMDEC
 70
     3
  9
$DIMTDEC
 70
     3
  9
$DIMALTU
 70
     2
  9
$DIMALTTD
 70
     2
  9
$DIMTXSTY
  7
STANDARD
  9
$DIMAUNIT
 70
     0
  9
$LUNITS
 70
     2
  9
$LUPREC
 70
     2
  9
$SKETCHINC
 40
0.1
  9
$FILLETRAD
 40
0.5
  9
$AUNITS
 70
     0
  9
$AUPREC
 70
     2
  9
$MENU
  1
.
  9
$ELEVATION
 40
0.0
  9
$PELEVATION
 40
0.0
  9
$THICKNESS
 40
0.0
  9
$LIMCHECK
 70
     0
  9
$CHAMFERA
 40
0.5
  9
$CHAMFERB
 40
0.5
  9
$CHAMFERC
 40
1.0
  9
$CHAMFERD
 40
0.0
  9
$SKPOLY
 70
     0
  9
$TDCREATE
 40
2455784.027140776
  9
$TDUPDATE
 40
2455784.027140787
  9
$TDINDWG
 40
0.0000000116
  9
$TDUSRTIMER
 40
0.0000000116
  9
$USRTIMER
 70
     1
  9
$ANGBASE
 50
0.0
  9
$ANGDIR
 70
     0
  9
$PDMODE
 70
     0
  9
$PDSIZE
 40
-1.0
  9
$PLINEWID
 40
0.0
  9
$COORDS
 70
     1
  9
$SPLFRAME
 70
     0
  9
$SPLINETYPE
 70
     6
  9
$SPLINESEGS
 70
     8
  9
$ATTDIA
 70
     0
  9
$ATTREQ
 70
     1
  9
$HANDLING
 70
     1
  9
$HANDSEED
  5
44E
  9
$SURFTAB1
 70
     6
  9
$SURFTAB2
 70
     6
  9
$SURFTYPE
 70
     6
  9
$SURFU
 70
     6
  9
$SURFV
 70
     6
  9
$UCSNAME
  2

  9
$UCSORG
 10
0.0
 20
0.0
 30
0.0
  9
$UCSXDIR
 10
1.0
 20
0.0
 30
0.0
  9
$UCSYDIR
 10
0.0
 20
1.0
 30
0.0
  9
$PUCSNAME
  2

  9
$PUCSORG
 10
0.0
 20
0.0
 30
0.0
  9
$PUCSXDIR
 10
1.0
 20
0.0
 30
0.0
  9
$PUCSYDIR
 10
0.0
 20
1.0
 30
0.0
  9
$USERI1
 70
     0
  9
$USERI2
 70
     0
  9
$USERI3
 70
     0
  9
$USERI4
 70
     0
  9
$USERI5
 70
     0
  9
$USERR1
 40
0.0
  9
$USERR2
 40
0.0
  9
$USERR3
 40
0.0
  9
$USERR4
 40
0.0
  9
$USERR5
 40
0.0
  9
$WORLDVIEW
 70
     1
  9
$SHADEDGE
 70
     3
  9
$SHADEDIF
 70
    70
  9
$TILEMODE
 70
     1
  9
$MAXACTVP
 70
    64
  9
$PINSBASE
 10
0.0
 20
0.0
 30
0.0
  9
$PLIMCHECK
 70
     0
  9
$PEXTMIN
 10
1.0000000000E+20
 20
1.0000000000E+20
 30
1.0000000000E+20
  9
$PEXTMAX
 10
-1.0000000000E+20
 20
-1.0000000000E+20
 30
-1.0000000000E+20
  9
$PLIMMIN
 10
0.0
 20
0.0
  9
$PLIMMAX
 10
12.0
 20
9.0
  9
$UNITMODE
 70
     0
  9
$VISRETAIN
 70
     1
  9
$PLINEGEN
 70
     0
  9
$PSLTSCALE
 70
     1
  9
$TREEDEPTH
 70
  3020
  9
$PICKSTYLE
 70
     1
  9
$CMLSTYLE
  2
STANDARD
  9
$CMLJUST
 70
     0
  9
$CMLSCALE
 40
1.0
  9
$SAVEIMAGES
 70
     1
  0
ENDSEC
  0
SECTION
  2
CLASSES
  0
CLASS
  1
ACDBDICTIONARYWDFLT
  2
AcDbDictionaryWithDefault
  3
ObjectDBX Classes
 90
    32768
280
     0
281
     0
  0
CLASS
  1
VISUALSTYLE
  2
AcDbVisualStyle
  3
ObjectDBX Classes
 90
     4095
280
     0
281
     0
  0
CLASS
  1
SCALE
  2
AcDbScale
  3
ObjectDBX Classes
 90
     1153
280
     0
281
     0
  0
CLASS
  1
DICTIONARYVAR
  2
AcDbDictionaryVar
  3
ObjectDBX Classes
 90
        0
280
     0
281
     0
  0
CLASS
  1
XRECORD
  2
AcDbXrecord
  3
AutoCAD 2000
 90
    32768
280
     0
281
     0
  0
CLASS
  1
LWPOLYLINE
  2
AcDbPolyline
  3
AutoCAD 2000
 90
    32768
280
     0
281
     1
  0
CLASS
  1
HATCH
  2
AcDbHatch
  3
AutoCAD 2000
 90
    32768
280
     0
281
     1
  0
CLASS
  1
ACDBPLACEHOLDER
  2
AcDbPlaceHolder
  3
ObjectDBX Classes
 90
        0
280
     0
281
     0
  0
CLASS
  1
LAYOUT
  2
AcDbLayout
  3
ObjectDBX Classes
 90
        0
280
     0
281
     0
  0
ENDSEC
  0
SECTION
  2
TABLES
  0
TABLE
  2
VPORT
  5
8
330
0
100
AcDbSymbolTable
 70
     1
  0
VPORT
  5
29
330
8
100
AcDbSymbolTableRecord
100
AcDbViewportTableRecord
  2
*ACTIVE
 70
     0
 10
0.0
 20
0.0
 11
1.0
 21
1.0
 12
5.5
 22
4.25
 13
0.0
 23
0.0
 14
0.5
 24
0.5
 15
0.5
 25
0.5
 16
0.0
 26
0.0
 36
1.0
 17
0.0
 27
0.0
 37
0.0
 40
8.5
 41
1.2941176471
 42
50.0
 43
0.0
 44
0.0
 50
0.0
 51
0.0
 71
     0
 72
  2000
 73
     1
 74
     3
 75
     0
 76
     0
 77
     0
 78
     0
  0
ENDTAB
  0
TABLE
  2
LTYPE
  5
5
330
0
100
AcDbSymbolTable
 70
     6
  0
LTYPE
  5
14
330
5
100
AcDbSymbolTableRecord
100
AcDbLinetypeTableRecord
  2
BYBLOCK
 70
     0
  3

 72
    65
 73
     0
 40
0.0
  0
LTYPE
  5
15
330
5
100
AcDbSymbolTableRecord
100
AcDbLinetypeTableRecord
  2
BYLAYER
 70
     0
  3

 72
    65
 73
     0
 40
0.0
  0
LTYPE
  5
16
330
5
100
AcDbSymbolTableRecord
100
AcDbLinetypeTableRecord
  2
CONTINUOUS
 70
     0
  3
Solid line
 72
    65
 73
     0
 40
0.0
  0
LTYPE
  5
3B
330
5
100
AcDbSymbolTableRecord
100
AcDbLinetypeTableRecord
  2
HIDDEN
 70
     0
  3
Hidden __ __ __ __ __ __ __ __ __ __ __ __ __ __
 72
    65
 73
     2
 40
0.075
 49
0.05
 74
     0
 49
-0.025
 74
     0
  0
LTYPE
  5
3C
330
5
100
AcDbSymbolTableRecord
100
AcDbLinetypeTableRecord
  2
PHANTOM
 70
     0
  3
Phantom ______  __  __  ______  __  __  ______
 72
    65
 73
     6
 40
0.5
 49
0.25
 74
     0
 49
-0.05
 74
     0
 49
0.05
 74
     0
 49
-0.05
 74
     0
 49
0.05
 74
     0
 49
-0.05
 74
     0
  0
LTYPE
  5
3D
330
5
100
AcDbSymbolTableRecord
100
AcDbLinetypeTableRecord
  2
CENTER
 70
     0
  3
Center ____ _ ____ _ ____ _ ____ _ ____ _ ____
 72
    65
 73
     4
 40
0.4
 49
0.25
 74
     0
 49
-0.05
 74
     0
 49
0.05
 74
     0
 49
-0.05
 74
     0
  0
LTYPE
  5
3E
330
5
100
AcDbSymbolTableRecord
100
AcDbLinetypeTableRecord
  2
CENTERX2
 70
     0
  3
Center (2x) ________  __  ________  __  _____
 72
    65
 73
     4
 40
0.8
 49
0.5
 74
     0
 49
-0.1
 74
     0
 49
0.1
 74
     0
 49
-0.1
 74
     0
  0
LTYPE
  5
3F
330
5
100
AcDbSymbolTableRecord
100
AcDbLinetypeTableRecord
  2
DOT2
 70
     0
  3
Dot (.5x) ........................................
 72
    65
 73
     2
 40
0.025
 49
0.0
 74
     0
 49
-0.025
 74
     0
  0
ENDTAB
  0
TABLE
  2
LAYER
  5
2
330
0
100
AcDbSymbolTable
 70
     2
  0
LAYER
  5
10
330
2
100
AcDbSymbolTableRecord
100
AcDbLayerTableRecord
  2
0
 70
     0
 62
     7
  6
CONTINUOUS
  0
LAYER
  5
40
330
2
100
AcDbSymbolTableRecord
100
AcDbLayerTableRecord
  2
FORMAT
 70
     0
 62
     7
  6
CONTINUOUS
  0
ENDTAB
  0
TABLE
  2
STYLE
  5
3
330
0
100
AcDbSymbolTable
 70
     4
  0
STYLE
  5
11
330
3
100
AcDbSymbolTableRecord
100
AcDbTextStyleTableRecord
  2
STANDARD
 70
     0
 40
0.0
 41
1.0
 50
0.0
 71
     0
 42
0.2
  3
txt
  4

  0
STYLE
  5
6E
330
3
100
AcDbSymbolTableRecord
100
AcDbTextStyleTableRecord
  2
SLDTEXTSTYLE0
 70
     0
 40
0.0
 41
0.75
 50
0.0
 71
     0
 42
0.2
  3
TXT
  4

  0
STYLE
  5
93
330
3
100
AcDbSymbolTableRecord
100
AcDbTextStyleTableRecord
  2
SLDTEXTSTYLE1
 70
     0
 40
0.0
 41
0.6875
 50
0.0
 71
     0
 42
0.2
  3
TXT
  4

  0
STYLE
  5
99
330
3
100
AcDbSymbolTableRecord
100
AcDbTextStyleTableRecord
  2
SLDTEXTSTYLE2
 70
     0
 40
0.0
 41
0.6944444444
 50
0.0
 71
     0
 42
0.2
  3
TXT
  4

  0
ENDTAB
  0
TABLE
  2
VIEW
  5
6
330
0
100
AcDbSymbolTable
 70
     0
  0
ENDTAB
  0
TABLE
  2
UCS
  5
7
330
0
100
AcDbSymbolTable
 70
     0
  0
ENDTAB
  0
TABLE
  2
APPID
  5
9
330
0
100
AcDbSymbolTable
 70
     1
  0
APPID
  5
12
330
9
100
AcDbSymbolTableRecord
100
AcDbRegAppTableRecord
  2
ACAD
 70
     0
  0
ENDTAB
  0
TABLE
  2
DIMSTYLE
  5
A
330
0
100
AcDbSymbolTable
 70
     1
  0
DIMSTYLE
105
27
330
A
100
AcDbSymbolTableRecord
100
AcDbDimStyleTableRecord
  2
STANDARD
 70
     0
  3

  4

  5

  6

  7

 40
1.0
 41
0.18
 42
0.0625
 43
0.38
 44
0.18
 45
0.0
 46
0.0
 47
0.0
 48
0.0
140
0.18
141
0.09
142
0.0
143
25.4
144
1.0
145
0.0
146
1.0
147
0.09
 71
     0
 72
     0
 73
     1
 74
     1
 75
     0
 76
     0
 77
     0
 78
     0
170
     0
171
     2
172
     0
173
     0
174
     0
175
     0
176
     0
177
     0
178
     0
270
     2
271
     4
272
     4
273
     2
274
     2
340
11
275
     0
280
     0
281
     0
282
     0
283
     1
284
     0
285
     0
286
     0
287
     3
288
     0
  0
ENDTAB
  0
TABLE
  2
BLOCK_RECORD
  5
1
330
0
100
AcDbSymbolTable
 70
     4
  0
BLOCK_RECORD
  5
1F
330
1
100
AcDbSymbolTableRecord
100
AcDbBlockTableRecord
  2
*MODEL_SPACE
  0
BLOCK_RECORD
  5
1B
330
1
100
AcDbSymbolTableRecord
100
AcDbBlockTableRecord
  2
*PAPER_SPACE
  0
BLOCK_RECORD
  5
A8
330
1
100
AcDbSymbolTableRecord
100
AcDbBlockTableRecord
  2
SW_NOTE_0
  0
BLOCK_RECORD
  5
AE
330
1
100
AcDbSymbolTableRecord
100
AcDbBlockTableRecord
  2
SW_NOTE_1
  0
BLOCK_RECORD
  5
C2
330
1
100
AcDbSymbolTableRecord
100
AcDbBlockTableRecord
  2
SW_NOTE_2
  0
ENDTAB
  0
ENDSEC
  0
SECTION
  2
BLOCKS
  0
BLOCK
  5
20
330
1F
100
AcDbEntity
  8
0
100
AcDbBlockBegin
  2
*MODEL_SPACE
 70
     0
 10
0.0
 20
0.0
 30
0.0
  3
*MODEL_SPACE
  1

  0
ENDBLK
  5
21
330
1F
100
AcDbEntity
  8
0
100
AcDbBlockEnd
  0
BLOCK
  5
1C
330
1B
100
AcDbEntity
 67
     1
  8
0
100
AcDbBlockBegin
  2
*PAPER_SPACE
 70
     0
 10
0.0
 20
0.0
 30
0.0
  3
*PAPER_SPACE
  1

  0
ENDBLK
  5
1D
330
1B
100
AcDbEntity
 67
     1
  8
0
100
AcDbBlockEnd
  0
BLOCK
  5
A9
330
A8
100
AcDbEntity
  8
0
100
AcDbBlockBegin
  2
SW_NOTE_0
 70
     0
 10
0.0
 20
0.0
 30
0.0
  3
SW_NOTE_0
  1

  0
MTEXT
  5
AB
330
A8
100
AcDbEntity
  8
0
  6
CONTINUOUS
 62
     0
100
AcDbMText
 10
0.0
 20
0.0773440644
 30
0.0
 40
0.06
 41
0.0
 71
     1
 72
     1
  1
INTERPRET GEOMETRIC
  7
SLDTEXTSTYLE0
  0
MTEXT
  5
AC
330
A8
100
AcDbEntity
  8
0
  6
CONTINUOUS
 62
     0
100
AcDbMText
 10
0.0
 20
-0.0220260102
 30
0.0
 40
0.06
 41
0.0
 71
     1
 72
     1
  1
TOLERANCING PER:
  7
SLDTEXTSTYLE0
  0
ENDBLK
  5
AA
330
A8
100
AcDbEntity
  8
0
100
AcDbBlockEnd
  0
BLOCK
  5
AF
330
AE
100
AcDbEntity
  8
0
100
AcDbBlockBegin
  2
SW_NOTE_1
 70
     0
 10
0.0
 20
0.0
 30
0.0
  3
SW_NOTE_1
  1

  0
MTEXT
  5
B1
330
AE
100
AcDbEntity
  8
0
  6
CONTINUOUS
 62
     0
100
AcDbMText
 10
0.0
 20
0.0837894031
 30
0.0
 40
0.065
 41
0.0
 71
     1
 72
     1
  1
DIMENSIONS ARE IN INCHES
  7
SLDTEXTSTYLE0
  0
MTEXT
  5
B2
330
AE
100
AcDbEntity
  8
0
  6
CONTINUOUS
 62
     0
100
AcDbMText
 10
0.0
 20
-0.0205806729
 30
0.0
 40
0.065
 41
0.0
 71
     1
 72
     1
  1
TOLERANCES:
  7
SLDTEXTSTYLE0
  0
MTEXT
  5
B3
330
AE
100
AcDbEntity
  8
0
  6
CONTINUOUS
 62
     0
100
AcDbMText
 10
0.0
 20
-0.1249507489
 30
0.0
 40
0.065
 41
0.0
 71
     1
 72
     1
  1
FRACTIONAL
  7
SLDTEXTSTYLE0
  0
MTEXT
  5
B4
330
AE
100
AcDbEntity
  8
0
  6
CONTINUOUS
 62
     0
100
AcDbMText
 10
0.5175850875
 20
-0.1249507489
 30
0.0
 40
0.065
 41
0.0
 71
     1
 72
     1
  1
%%p
  7
SLDTEXTSTYLE0
  0
MTEXT
  5
B5
330
AE
100
AcDbEntity
  8
0
  6
CONTINUOUS
 62
     0
100
AcDbMText
 10
0.0
 20
-0.2293208248
 30
0.0
 40
0.065
 41
0.0
 71
     1
 72
     1
  1
ANGULAR: MACH
  7
SLDTEXTSTYLE0
  0
MTEXT
  5
B6
330
AE
100
AcDbEntity
  8
0
  6
CONTINUOUS
 62
     0
100
AcDbMText
 10
0.7233732769
 20
-0.2293208248
 30
0.0
 40
0.065
 41
0.0
 71
     1
 72
     1
  1
%%p
  7
SLDTEXTSTYLE0
  0
MTEXT
  5
B7
330
AE
100
AcDbEntity
  8
0
  6
CONTINUOUS
 62
     0
100
AcDbMText
 10
0.7852857683
 20
-0.2293208248
 30
0.0
 40
0.065
 41
0.0
 71
     1
 72
     1
  1
     BEND 
  7
SLDTEXTSTYLE0
  0
MTEXT
  5
B8
330
AE
100
AcDbEntity
  8
0
  6
CONTINUOUS
 62
     0
100
AcDbMText
 10
1.14784136
 20
-0.2293208248
 30
0.0
 40
0.065
 41
0.0
 71
     1
 72
     1
  1
%%p
  7
SLDTEXTSTYLE0
  0
MTEXT
  5
B9
330
AE
100
AcDbEntity
  8
0
  6
CONTINUOUS
 62
     0
100
AcDbMText
 10
0.0
 20
-0.3336909008
 30
0.0
 40
0.065
 41
0.0
 71
     1
 72
     1
  1
TWO PLACE DECIMAL    
  7
SLDTEXTSTYLE0
  0
MTEXT
  5
BA
330
AE
100
AcDbEntity
  8
0
  6
CONTINUOUS
 62
     0
100
AcDbMText
 10
0.9794349188
 20
-0.3336909008
 30
0.0
 40
0.065
 41
0.0
 71
     1
 72
     1
  1
%%p
  7
SLDTEXTSTYLE0
  0
MTEXT
  5
BB
330
AE
100
AcDbEntity
  8
0
  6
CONTINUOUS
 62
     0
100
AcDbMText
 10
0.0
 20
-0.4380609768
 30
0.0
 40
0.065
 41
0.0
 71
     1
 72
     1
  1
THREE PLACE DECIMAL  
  7
SLDTEXTSTYLE0
  0
MTEXT
  5
BC
330
AE
100
AcDbEntity
  8
0
  6
CONTINUOUS
 62
     0
100
AcDbMText
 10
0.9738038639
 20
-0.4380609768
 30
0.0
 40
0.065
 41
0.0
 71
     1
 72
     1
  1
%%p
  7
SLDTEXTSTYLE0
  0
ENDBLK
  5
B0
330
AE
100
AcDbEntity
  8
0
100
AcDbBlockEnd
  0
BLOCK
  5
C3
330
C2
100
AcDbEntity
  8
0
100
AcDbBlockBegin
  2
SW_NOTE_2
 70
     0
 10
0.0
 20
0.0
 30
0.0
  3
SW_NOTE_2
  1

  0
MTEXT
  5
C5
330
C2
100
AcDbEntity
  8
0
  6
CONTINUOUS
 62
     0
100
AcDbMText
 10
0.0
 20
0.0773440644
 30
0.0
 40
0.06
 41
0.0
 71
     1
 72
     1
  1
THE INFORMATION CONTAINED IN THIS
  7
SLDTEXTSTYLE0
  0
MTEXT
  5
C6
330
C2
100
AcDbEntity
  8
0
  6
CONTINUOUS
 62
     0
100
AcDbMText
 10
0.0
 20
-0.0220260102
 30
0.0
 40
0.06
 41
0.0
 71
     1
 72
     1
  1
DRAWING IS THE SOLE PROPERTY OF
  7
SLDTEXTSTYLE0
  0
MTEXT
  5
C7
330
C2
100
AcDbEntity
  8
0
  6
CONTINUOUS
 62
     0
100
AcDbMText
 10
0.0
 20
-0.1213960848
 30
0.0
 40
0.06
 41
0.0
 71
     1
 72
     1
  1
Candy Controls.  ANY 
  7
SLDTEXTSTYLE0
  0
MTEXT
  5
C8
330
C2
100
AcDbEntity
  8
0
  6
CONTINUOUS
 62
     0
100
AcDbMText
 10
0.0
 20
-0.2207661593
 30
0.0
 40
0.06
 41
0.0
 71
     1
 72
     1
  1
REPRODUCTION IN PART OR AS A WHOLE
  7
SLDTEXTSTYLE0
  0
MTEXT
  5
C9
330
C2
100
AcDbEntity
  8
0
  6
CONTINUOUS
 62
     0
100
AcDbMText
 10
0.0
 20
-0.3201362339
 30
0.0
 40
0.06
 41
0.0
 71
     1
 72
     1
  1
WITHOUT THE WRITTEN PERMISSION OF
  7
SLDTEXTSTYLE0
  0
MTEXT
  5
CA
330
C2
100
AcDbEntity
  8
0
  6
CONTINUOUS
 62
     0
100
AcDbMText
 10
0.0
 20
-0.4195063085
 30
0.0
 40
0.06
 41
0.0
 71
     1
 72
     1
  1
Candy Controls IS 
  7
SLDTEXTSTYLE0
  0
MTEXT
  5
CB
330
C2
100
AcDbEntity
  8
0
  6
CONTINUOUS
 62
     0
100
AcDbMText
 10
0.0
 20
-0.518876383
 30
0.0
 40
0.06
 41
0.0
 71
     1
 72
     1
  1
PROHIBITED.
  7
SLDTEXTSTYLE0
  0
ENDBLK
  5
C4
330
C2
100
AcDbEntity
  8
0
100
AcDbBlockEnd
  0
ENDSEC
  0
SECTION
  2
ENTITIES
  0
LINE
  5
41
330
1F
100
AcDbEntity
  8
0
  6
CONTINUOUS
 62
     7
100
AcDbLine
 10
0.329927
 20
8.1920731707
 30
0.0
 11
10.629927
 21
8.1920731707
 31
0.0
  0
LINE
  5
42
330
1F
100
AcDbEntity
  8
0
  6
CONTINUOUS
 62
     7
100
AcDbLine
 10
0.329927
 20
8.1920731707
 30
0.0
 11
0.329927
 21
0.3920731707
 31
0.0
  0
LINE
  5
43
330
1F
100
AcDbEntity
  8
0
  6
CONTINUOUS
 62
     7
100
AcDbLine
 10
10.629927
 20
0.3920731707
 30
0.0
 11
0.329927
 21
0.3920731707
 31
0.0
  0
LINE
  5
44
330
1F
100
AcDbEntity
  8
0
  6
CONTINUOUS
 62
     7
100
AcDbLine
 10
10.629927
 20
0.3920731707
 30
0.0
 11
10.629927
 21
8.1920731707
 31
0.0
  0
LINE
  5
45
330
1F
100
AcDbEntity
  8
0
  6
CONTINUOUS
 62
     7
100
AcDbLine
 10
4.7981841288
 20
0.3920731707
 30
0.0
 11
4.7981841288
 21
2.3564211366
 31
0.0
  0
LINE
  5
46
330
1F
100
AcDbEntity
  8
0
  6
CONTINUOUS
 62
     7
100
AcDbLine
 10
2.8210345579
 20
2.3564211366
 30
0.0
 11
10.629927
 21
2.3564211366
 31
0.0
  0
LINE
  5
47
330
1F
100
AcDbEntity
  8
0
  6
CONTINUOUS
 62
     7
100
AcDbLine
 10
6.1796352514
 20
2.3564211366
 30
0.0
 11
6.1796352514
 21
0.3920731707
 31
0.0
  0
LINE
  5
48
330
1F
100
AcDbEntity
  8
0
  6
CONTINUOUS
 62
     7
100
AcDbLine
 10
7.8712070044
 20
2.3564211366
 30
0.0
 11
7.8712070044
 21
0.3920731707
 31
0.0
  0
LINE
  5
49
330
1F
100
AcDbEntity
  8
0
  6
CONTINUOUS
 62
     7
100
AcDbLine
 10
7.8712070044
 20
0.6049590101
 30
0.0
 11
10.629927
 21
0.6049590101
 31
0.0
  0
LINE
  5
4A
330
1F
100
AcDbEntity
  8
0
  6
CONTINUOUS
 62
     7
100
AcDbLine
 10
7.8712070044
 20
1.1119362457
 30
0.0
 11
10.629927
 21
1.1119362457
 31
0.0
  0
LINE
  5
4B
330
1F
100
AcDbEntity
  8
0
  6
CONTINUOUS
 62
     7
100
AcDbLine
 10
7.8712070044
 20
1.9892703708
 30
0.0
 11
10.629927
 21
1.9892703708
 31
0.0
  0
LINE
  5
4C
330
1F
100
AcDbEntity
  8
0
  6
CONTINUOUS
 62
     7
100
AcDbLine
 10
8.266751752
 20
1.1119362457
 30
0.0
 11
8.266751752
 21
0.6049590101
 31
0.0
  0
LINE
  5
4D
330
1F
100
AcDbEntity
  8
0
  6
CONTINUOUS
 62
     7
100
AcDbLine
 10
8.6943435176
 20
0.6049590101
 30
0.0
 11
8.6943435176
 21
0.3920731707
 31
0.0
  0
LINE
  5
4E
330
1F
100
AcDbEntity
  8
0
  6
CONTINUOUS
 62
     7
100
AcDbLine
 10
10.0579917045
 20
1.1119362457
 30
0.0
 11
10.0579917045
 21
0.6049590101
 31
0.0
  0
LINE
  5
4F
330
1F
100
AcDbEntity
  8
0
  6
CONTINUOUS
 62
     7
100
AcDbLine
 10
9.6662556631
 20
0.6049590101
 30
0.0
 11
9.6662556631
 21
0.3920731707
 31
0.0
  0
LINE
  5
50
330
1F
100
AcDbEntity
  8
0
  6
CONTINUOUS
 62
     7
100
AcDbLine
 10
2.8210345579
 20
0.5883479999
 30
0.0
 11
6.1796352514
 21
0.5883479999
 31
0.0
  0
LINE
  5
51
330
1F
100
AcDbEntity
  8
0
  6
CONTINUOUS
 62
     7
100
AcDbLine
 10
6.1796352514
 20
1.7939211366
 30
0.0
 11
7.8712070044
 21
1.7939211366
 31
0.0
  0
LINE
  5
52
330
1F
100
AcDbEntity
  8
0
  6
CONTINUOUS
 62
     7
100
AcDbLine
 10
6.1796352514
 20
1.9814211366
 30
0.0
 11
7.8712070044
 21
1.9814211366
 31
0.0
  0
LINE
  5
53
330
1F
100
AcDbEntity
  8
0
  6
CONTINUOUS
 62
     7
100
AcDbLine
 10
6.1796352514
 20
2.1689211366
 30
0.0
 11
7.8712070044
 21
2.1689211366
 31
0.0
  0
LINE
  5
54
330
1F
100
AcDbEntity
  8
0
  6
CONTINUOUS
 62
     7
100
AcDbLine
 10
7.8712070044
 20
1.2314211366
 30
0.0
 11
6.1796352514
 21
1.2314211366
 31
0.0
  0
LINE
  5
55
330
1F
100
AcDbEntity
  8
0
  6
CONTINUOUS
 62
     7
100
AcDbLine
 10
7.3921580388
 20
2.3564211366
 30
0.0
 11
7.3921580388
 21
1.2314211366
 31
0.0
  0
LINE
  5
56
330
1F
100
AcDbEntity
  8
0
  6
CONTINUOUS
 62
     7
100
AcDbLine
 10
6.9236308342
 20
2.3564211366
 30
0.0
 11
6.9236308342
 21
1.2314211366
 31
0.0
  0
LINE
  5
57
330
1F
100
AcDbEntity
  8
0
  6
CONTINUOUS
 62
     7
100
AcDbLine
 10
4.7981841288
 20
0.8557965305
 30
0.0
 11
6.1796352514
 21
0.8557965305
 31
0.0
  0
LINE
  5
58
330
1F
100
AcDbEntity
  8
0
  6
CONTINUOUS
 62
     7
100
AcDbLine
 10
4.7981841288
 20
1.1257965305
 30
0.0
 11
6.1796352514
 21
1.1257965305
 31
0.0
  0
LINE
  5
59
330
1F
100
AcDbEntity
  8
0
  6
CONTINUOUS
 62
     7
100
AcDbLine
 10
2.8210345579
 20
0.3920731707
 30
0.0
 11
2.8210345579
 21
2.3564211366
 31
0.0
  0
LINE
  5
5A
330
1F
100
AcDbEntity
  8
0
  6
CONTINUOUS
 62
     7
100
AcDbLine
 10
2.8210345579
 20
1.1064211366
 30
0.0
 11
4.7981841288
 21
1.1064211366
 31
0.0
  0
LINE
  5
5B
330
1F
100
AcDbEntity
  8
0
  6
CONTINUOUS
 62
     7
100
AcDbLine
 10
2.8210345579
 20
1.3564211366
 30
0.0
 11
4.7981841288
 21
1.3564211366
 31
0.0
  0
LINE
  5
5C
330
1F
100
AcDbEntity
  8
0
  6
CONTINUOUS
 62
     7
100
AcDbLine
 10
2.8210345579
 20
1.6064211366
 30
0.0
 11
4.7981841288
 21
1.6064211366
 31
0.0
  0
LINE
  5
5D
330
1F
100
AcDbEntity
  8
0
  6
CONTINUOUS
 62
     7
100
AcDbLine
 10
2.8210345579
 20
1.8564211366
 30
0.0
 11
4.7981841288
 21
1.8564211366
 31
0.0
  0
LINE
  5
5E
330
1F
100
AcDbEntity
  8
0
  6
CONTINUOUS
 62
     7
100
AcDbLine
 10
3.8190146875
 20
2.3564211366
 30
0.0
 11
3.8190146875
 21
0.5883479999
 31
0.0
  0
LINE
  5
5F
330
1F
100
AcDbEntity
  8
0
  6
CONTINUOUS
 62
     7
100
AcDbLine
 10
6.1796352514
 20
2.2020813496
 30
0.0
 11
4.7981841288
 21
2.2020813496
 31
0.0
  0
LINE
  5
60
330
1F
100
AcDbEntity
  8
0
  6
CONTINUOUS
 62
     7
100
AcDbLine
 10
7.8712070044
 20
1.6064211366
 30
0.0
 11
6.1796352514
 21
1.6064211366
 31
0.0
  0
LINE
  5
61
330
1F
100
AcDbEntity
  8
0
  6
CONTINUOUS
 62
     7
100
AcDbLine
 10
7.8712070044
 20
1.4189211366
 30
0.0
 11
6.1796352514
 21
1.4189211366
 31
0.0
  0
LINE
  5
62
330
1F
100
AcDbEntity
  8
0
  6
CONTINUOUS
 62
     7
100
AcDbLine
 10
2.8210345579
 20
2.1064211366
 30
0.0
 11
4.7981841288
 21
2.1064211366
 31
0.0
  0
LINE
  5
63
330
1F
100
AcDbEntity
  8
0
  6
CONTINUOUS
 62
     7
100
AcDbLine
 10
4.7981841288
 20
1.3957965305
 30
0.0
 11
6.1796352514
 21
1.3957965305
 31
0.0
  0
LINE
  5
64
330
1F
100
AcDbEntity
  8
0
  6
CONTINUOUS
 62
     7
100
AcDbLine
 10
2.8210345579
 20
0.8564211366
 30
0.0
 11
4.7981841288
 21
0.8564211366
 31
0.0
  0
LINE
  5
65
330
1F
100
AcDbEntity
  8
0
  6
CONTINUOUS
 62
     7
100
AcDbLine
 10
1.1838252943
 20
0.3920731707
 30
0.0
 11
1.1838252943
 21
1.3064211366
 31
0.0
  0
LINE
  5
66
330
1F
100
AcDbEntity
  8
0
  6
CONTINUOUS
 62
     7
100
AcDbLine
 10
2.8210345579
 20
1.3064211366
 30
0.0
 11
1.1838252943
 21
1.3064211366
 31
0.0
  0
LINE
  5
67
330
1F
100
AcDbEntity
  8
0
  6
CONTINUOUS
 62
     7
100
AcDbLine
 10
8.660927
 20
0.3920731707
 30
0.0
 11
8.660927
 21
0.3072739649
 31
0.0
  0
LINE
  5
68
330
1F
100
AcDbEntity
  8
0
  6
CONTINUOUS
 62
     7
100
AcDbLine
 10
6.692177
 20
0.3920731707
 30
0.0
 11
6.692177
 21
0.3072739649
 31
0.0
  0
LINE
  5
69
330
1F
100
AcDbEntity
  8
0
  6
CONTINUOUS
 62
     7
100
AcDbLine
 10
4.723427
 20
0.3920731707
 30
0.0
 11
4.723427
 21
0.3072739649
 31
0.0
  0
LINE
  5
6A
330
1F
100
AcDbEntity
  8
0
  6
CONTINUOUS
 62
     7
100
AcDbLine
 10
2.754677
 20
0.3920731707
 30
0.0
 11
2.754677
 21
0.3072739649
 31
0.0
  0
LINE
  5
6B
330
1F
100
AcDbEntity
  8
0
  6
CONTINUOUS
 62
     7
100
AcDbLine
 10
2.754677
 20
0.3920731707
 30
0.0
 11
2.7672319738
 21
0.3575
 31
0.0
  0
LINE
  5
6C
330
1F
100
AcDbEntity
  8
0
  6
CONTINUOUS
 62
     7
100
AcDbLine
 10
2.7672319738
 20
0.3575
 30
0.0
 11
2.7414258825
 21
0.3575
 31
0.0
  0
LINE
  5
6D
330
1F
100
AcDbEntity
  8
0
  6
CONTINUOUS
 62
     7
100
AcDbLine
 10
2.7414258825
 20
0.3575
 30
0.0
 11
2.754677
 21
0.3920731707
 31
0.0
  0
MTEXT
  5
91
330
1F
100
AcDbEntity
  8
0
  6
CONTINUOUS
 62
     7
100
AcDbMText
 10
4.9775846961
 20
0.5178452352
 30
0.0
 40
0.0625
 41
0.0
 71
     1
 72
     1
  1
DO NOT SCALE DRAWING
  7
SLDTEXTSTYLE0
  0
MTEXT
  5
92
330
1F
100
AcDbEntity
  8
0
  6
CONTINUOUS
 62
     7
100
AcDbMText
 10
8.5727398528
 20
0.9417064595
 30
0.0
 40
0.125
 41
0.0
 71
     1
 72
     1
  1
CL7-25_CLAMP
  7
SLDTEXTSTYLE0
  0
MTEXT
  5
94
330
1F
100
AcDbEntity
  8
0
  6
CONTINUOUS
 62
     7
100
AcDbMText
 10
9.7571278483
 20
0.5524239532
 30
0.0
 40
0.1
 41
0.0
 71
     1
 72
     1
  1
SHEET 1 OF 1
  7
SLDTEXTSTYLE1
  0
MTEXT
  5
95
330
1F
100
AcDbEntity
  8
0
  6
CONTINUOUS
 62
     7
100
AcDbMText
 10
4.8448077858
 20
2.3132954224
 30
0.0
 40
0.07
 41
0.0
 71
     1
 72
     1
  1
UNLESS OTHERWISE SPECIFIED:
  7
SLDTEXTSTYLE0
  0
MTEXT
  5
96
330
1F
100
AcDbEntity
  8
0
  6
CONTINUOUS
 62
     7
100
AcDbMText
 10
7.9586139647
 20
0.5520987879
 30
0.0
 40
0.1
 41
0.0
 71
     1
 72
     1
  1
SCALE: 2:1
  7
SLDTEXTSTYLE0
  0
MTEXT
  5
97
330
1F
100
AcDbEntity
  8
0
  6
CONTINUOUS
 62
     7
100
AcDbMText
 10
8.7023691647
 20
0.5486763345
 30
0.0
 40
0.1
 41
0.0
 71
     1
 72
     1
  1
WEIGHT: 
  7
SLDTEXTSTYLE0
  0
MTEXT
  5
98
330
1F
100
AcDbEntity
  8
0
  6
CONTINUOUS
 62
     7
100
AcDbMText
 10
10.2277580983
 20
1.081966299
 30
0.0
 40
0.1
 41
0.0
 71
     1
 72
     1
  1
REV
  7
SLDTEXTSTYLE0
  0
MTEXT
  5
9A
330
1F
100
AcDbEntity
  8
0
  6
CONTINUOUS
 62
     7
100
AcDbMText
 10
8.2984570898
 20
1.0858725293
 30
0.0
 40
0.1
 41
0.0
 71
     1
 72
     1
  1
DWG.  NO.
  7
SLDTEXTSTYLE2
  0
MTEXT
  5
9B
330
1F
100
AcDbEntity
  8
0
  6
CONTINUOUS
 62
     7
100
AcDbMText
 10
7.9598482632
 20
0.9442140768
 30
0.0
 40
0.25
 41
0.0
 71
     1
 72
     1
  1
A
  7
SLDTEXTSTYLE0
  0
MTEXT
  5
9C
330
1F
100
AcDbEntity
  8
0
  6
CONTINUOUS
 62
     7
100
AcDbMText
 10
7.9519581822
 20
1.0872713483
 30
0.0
 40
0.1
 41
0.0
 71
     1
 72
     1
  1
SIZE
  7
SLDTEXTSTYLE0
  0
MTEXT
  5
9D
330
1F
100
AcDbEntity
  8
0
  6
CONTINUOUS
 62
     7
100
AcDbMText
 10
7.9170704177
 20
1.9547881128
 30
0.0
 40
0.1
 41
0.0
 71
     1
 72
     1
  1
TITLE:
  7
SLDTEXTSTYLE0
  0
MTEXT
  5
9E
330
1F
100
AcDbEntity
  8
0
  6
CONTINUOUS
 62
     7
100
AcDbMText
 10
7.0363774929
 20
2.2906161274
 30
0.0
 40
0.065
 41
0.0
 71
     1
 72
     1
  1
NAME
  7
SLDTEXTSTYLE0
  0
MTEXT
  5
9F
330
1F
100
AcDbEntity
  8
0
  6
CONTINUOUS
 62
     7
100
AcDbMText
 10
7.5281510634
 20
2.2888799118
 30
0.0
 40
0.065
 41
0.0
 71
     1
 72
     1
  1
DATE
  7
SLDTEXTSTYLE0
  0
MTEXT
  5
A0
330
1F
100
AcDbEntity
  8
0
  6
CONTINUOUS
 62
     7
100
AcDbMText
 10
6.2277147029
 20
1.1876913145
 30
0.0
 40
0.065
 41
0.0
 71
     1
 72
     1
  1
COMMENTS:
  7
SLDTEXTSTYLE0
  0
MTEXT
  5
A1
330
1F
100
AcDbEntity
  8
0
  6
CONTINUOUS
 62
     7
100
AcDbMText
 10
6.2268411461
 20
1.3536101679
 30
0.0
 40
0.065
 41
0.0
 71
     1
 72
     1
  1
Q.A.
  7
SLDTEXTSTYLE0
  0
MTEXT
  5
A2
330
1F
100
AcDbEntity
  8
0
  6
CONTINUOUS
 62
     7
100
AcDbMText
 10
6.2284654509
 20
1.5395328424
 30
0.0
 40
0.065
 41
0.0
 71
     1
 72
     1
  1
MFG APPR.
  7
SLDTEXTSTYLE0
  0
MTEXT
  5
A3
330
1F
100
AcDbEntity
  8
0
  6
CONTINUOUS
 62
     7
100
AcDbMText
 10
6.2235171344
 20
1.7267501785
 30
0.0
 40
0.065
 41
0.0
 71
     1
 72
     1
  1
ENG APPR.
  7
SLDTEXTSTYLE0
  0
MTEXT
  5
A4
330
1F
100
AcDbEntity
  8
0
  6
CONTINUOUS
 62
     7
100
AcDbMText
 10
6.2264103951
 20
1.9092699088
 30
0.0
 40
0.065
 41
0.0
 71
     1
 72
     1
  1
CHECKED
  7
SLDTEXTSTYLE0
  0
MTEXT
  5
A5
330
1F
100
AcDbEntity
  8
0
  6
CONTINUOUS
 62
     7
100
AcDbMText
 10
6.2242794356
 20
2.1016301232
 30
0.0
 40
0.065
 41
0.0
 71
     1
 72
     1
  1
DRAWN
  7
SLDTEXTSTYLE0
  0
MTEXT
  5
A6
330
1F
100
AcDbEntity
  8
0
  6
CONTINUOUS
 62
     7
100
AcDbMText
 10
4.8208600979
 20
0.834523235
 30
0.0
 40
0.06
 41
0.0
 71
     1
 72
     1
  1
FINISH
  7
SLDTEXTSTYLE0
  0
MTEXT
  5
A7
330
1F
100
AcDbEntity
  8
0
  6
CONTINUOUS
 62
     7
100
AcDbMText
 10
4.8181240648
 20
1.1028217587
 30
0.0
 40
0.06
 41
0.0
 71
     1
 72
     1
  1
MATERIAL
  7
SLDTEXTSTYLE0
  0
INSERT
  5
AD
330
1F
100
AcDbEntity
  8
0
  6
CONTINUOUS
 62
     7
100
AcDbBlockReference
  2
SW_NOTE_0
 10
4.8231926633
 20
1.2646542947
 30
0.0
  0
INSERT
  5
BD
330
1F
100
AcDbEntity
  8
0
  6
CONTINUOUS
 62
     7
100
AcDbBlockReference
  2
SW_NOTE_1
 10
4.8353339353
 20
2.0049168724
 30
0.0
  0
MTEXT
  5
BE
330
1F
100
AcDbEntity
  8
0
  6
CONTINUOUS
 62
     7
100
AcDbMText
 10
3.5531400086
 20
0.5200091997
 30
0.0
 40
0.0625
 41
0.0
 71
     1
 72
     1
  1
APPLICATION
  7
SLDTEXTSTYLE0
  0
MTEXT
  5
BF
330
1F
100
AcDbEntity
  8
0
  6
CONTINUOUS
 62
     7
100
AcDbMText
 10
4.1005607758
 20
0.7502454275
 30
0.0
 40
0.0625
 41
0.0
 71
     1
 72
     1
  1
USED ON
  7
SLDTEXTSTYLE0
  0
MTEXT
  5
C0
330
1F
100
AcDbEntity
  8
0
  6
CONTINUOUS
 62
     7
100
AcDbMText
 10
3.1040019536
 20
0.7492094783
 30
0.0
 40
0.0625
 41
0.0
 71
     1
 72
     1
  1
NEXT ASSY
  7
SLDTEXTSTYLE0
  0
MTEXT
  5
C1
330
1F
100
AcDbEntity
  8
0
  6
CONTINUOUS
 62
     7
100
AcDbMText
 10
1.3712489489
 20
1.2496672684
 30
0.0
 40
0.06
 41
0.0
 71
     1
 72
     1
  1
PROPRIETARY AND CONFIDENTIAL
  7
SLDTEXTSTYLE0
  0
INSERT
  5
CC
330
1F
100
AcDbEntity
  8
0
  6
CONTINUOUS
 62
     7
100
AcDbBlockReference
  2
SW_NOTE_2
 10
1.2226209074
 20
1.0313492921
 30
0.0
  0
MTEXT
  5
CD
330
1F
100
AcDbEntity
  8
0
  6
CONTINUOUS
 62
     7
100
AcDbMText
 10
1.7387909509
 20
0.3105864247
 30
0.0
 40
0.09375
 41
0.0
 71
     1
 72
     1
  1
5
  7
SLDTEXTSTYLE0
  0
MTEXT
  5
CE
330
1F
100
AcDbEntity
  8
0
  6
CONTINUOUS
 62
     7
100
AcDbMText
 10
3.723800327
 20
0.3137237518
 30
0.0
 40
0.09375
 41
0.0
 71
     1
 72
     1
  1
4
  7
SLDTEXTSTYLE0
  0
MTEXT
  5
CF
330
1F
100
AcDbEntity
  8
0
  6
CONTINUOUS
 62
     7
100
AcDbMText
 10
5.6324457277
 20
0.3116191842
 30
0.0
 40
0.09375
 41
0.0
 71
     1
 72
     1
  1
3
  7
SLDTEXTSTYLE0
  0
MTEXT
  5
D0
330
1F
100
AcDbEntity
  8
0
  6
CONTINUOUS
 62
     7
100
AcDbMText
 10
7.6059721724
 20
0.3124391351
 30
0.0
 40
0.09375
 41
0.0
 71
     1
 72
     1
  1
2
  7
SLDTEXTSTYLE0
  0
MTEXT
  5
D1
330
1F
100
AcDbEntity
  8
0
  6
CONTINUOUS
 62
     7
100
AcDbMText
 10
9.6619921328
 20
0.301372012
 30
0.0
 40
0.09375
 41
0.0
 71
     1
 72
     1
  1
1
  7
SLDTEXTSTYLE0
  0
LINE
  5
D2
330
1F
100
AcDbEntity
  8
0
  6
CONTINUOUS
 62
     7
100
AcDbLine
 10
2.8148250798
 20
2.7744263179
 30
0.0
 11
3.838447127
 21
2.7744263179
 31
0.0
  0
LINE
  5
D3
330
1F
100
AcDbEntity
  8
0
  6
CONTINUOUS
 62
     7
100
AcDbLine
 10
2.1261636624
 20
2.7744263179
 30
0.0
 11
2.775455001
 21
2.7744263179
 31
0.0
  0
LINE
  5
D4
330
1F
100
AcDbEntity
  8
0
  6
CONTINUOUS
 62
     7
100
AcDbLine
 10
2.775455001
 20
4.7429302549
 30
0.0
 11
2.1261636624
 21
4.7429302549
 31
0.0
  0
LINE
  5
D5
330
1F
100
AcDbEntity
  8
0
  6
CONTINUOUS
 62
     7
100
AcDbLine
 10
4.5271085443
 20
4.7429302549
 30
0.0
 11
2.8148250798
 21
4.7429302549
 31
0.0
  0
LINE
  5
D6
330
1F
100
AcDbEntity
  8
0
  6
CONTINUOUS
 62
     7
100
AcDbLine
 10
4.5471085443
 20
4.7229302549
 30
0.0
 11
4.5271085443
 21
4.7429302549
 31
0.0
  0
LINE
  5
D7
330
1F
100
AcDbEntity
  8
0
  6
CONTINUOUS
 62
     7
100
AcDbLine
 10
2.1261636624
 20
4.7429302549
 30
0.0
 11
2.1061636624
 21
4.7229302549
 31
0.0
  0
LINE
  5
D8
330
1F
100
AcDbEntity
  8
0
  6
CONTINUOUS
 62
     7
100
AcDbLine
 10
2.1061636624
 20
2.7944263179
 30
0.0
 11
2.1261636624
 21
2.7744263179
 31
0.0
  0
LINE
  5
D9
330
1F
100
AcDbEntity
  8
0
  6
CONTINUOUS
 62
     7
100
AcDbLine
 10
2.1261636624
 20
4.7429302549
 30
0.0
 11
2.1261636624
 21
2.7744263179
 31
0.0
  0
LINE
  5
DA
330
1F
100
AcDbEntity
  8
0
  6
CONTINUOUS
 62
     7
100
AcDbLine
 10
2.775455001
 20
4.4981129309
 30
0.0
 11
2.775455001
 21
4.7429302549
 31
0.0
  0
LINE
  5
DB
330
1F
100
AcDbEntity
  8
0
  6
CONTINUOUS
 62
     7
100
AcDbLine
 10
2.8148250798
 20
4.4981129309
 30
0.0
 11
2.775455001
 21
4.4981129309
 31
0.0
  0
LINE
  5
DC
330
1F
100
AcDbEntity
  8
0
  6
CONTINUOUS
 62
     7
100
AcDbLine
 10
2.8148250798
 20
3.0192436419
 30
0.0
 11
2.8148250798
 21
2.7744263179
 31
0.0
  0
LINE
  5
DD
330
1F
100
AcDbEntity
  8
0
  6
CONTINUOUS
 62
     7
100
AcDbLine
 10
2.8148250798
 20
4.7429302549
 30
0.0
 11
2.8148250798
 21
4.4981129309
 31
0.0
  0
LINE
  5
DE
330
1F
100
AcDbEntity
  8
0
  6
CONTINUOUS
 62
     7
100
AcDbLine
 10
2.775455001
 20
3.0192436419
 30
0.0
 11
2.8148250798
 21
3.0192436419
 31
0.0
  0
LINE
  5
DF
330
1F
100
AcDbEntity
  8
0
  6
CONTINUOUS
 62
     7
100
AcDbLine
 10
2.775455001
 20
2.7744263179
 30
0.0
 11
2.775455001
 21
3.0192436419
 31
0.0
  0
LINE
  5
E0
330
1F
100
AcDbEntity
  8
0
  6
CONTINUOUS
 62
     7
100
AcDbLine
 10
4.5271085443
 20
2.774623188
 30
0.0
 11
3.8778172057
 21
2.774623188
 31
0.0
  0
LINE
  5
E1
330
1F
100
AcDbEntity
  8
0
  6
CONTINUOUS
 62
     7
100
AcDbLine
 10
3.8778172057
 20
4.0933239557
 30
0.0
 11
3.8778172057
 21
2.774623188
 31
0.0
  0
LINE
  5
E2
330
1F
100
AcDbEntity
  8
0
  6
CONTINUOUS
 62
     7
100
AcDbLine
 10
3.838447127
 20
4.0933239557
 30
0.0
 11
3.8778172057
 21
4.0933239557
 31
0.0
  0
LINE
  5
E3
330
1F
100
AcDbEntity
  8
0
  6
CONTINUOUS
 62
     7
100
AcDbLine
 10
3.838447127
 20
2.7744263179
 30
0.0
 11
3.838447127
 21
4.0933239557
 31
0.0
  0
LINE
  5
E4
330
1F
100
AcDbEntity
  8
0
  6
CONTINUOUS
 62
     7
100
AcDbLine
 10
4.5271085443
 20
2.774623188
 30
0.0
 11
4.5271085443
 21
4.7429302549
 31
0.0
  0
SPLINE
  5
E5
330
1F
100
AcDbEntity
  8
0
  6
CONTINUOUS
 62
     7
100
AcDbSpline
210
0.0
220
0.0
230
1.0
 70
     8
 71
     3
 72
    72
 73
    68
 74
     0
 42
0.00000001
 43
0.00000001
 40
-0.0312499999999999
 40
-0.0312499999999999
 40
0.0
 40
0.0
 40
0.0625000000000003
 40
0.0625000000000003
 40
0.1250000000000006
 40
0.1250000000000006
 40
0.1562500000000008
 40
0.1562500000000008
 40
0.1875000000000009
 40
0.1875000000000009
 40
0.218750000000001
 40
0.218750000000001
 40
0.2500000000000012
 40
0.2500000000000012
 40
0.2656250000000011
 40
0.2656250000000011
 40
0.2812500000000011
 40
0.2812500000000011
 40
0.2968750000000011
 40
0.2968750000000011
 40
0.3125000000000011
 40
0.3125000000000011
 40
0.328125000000001
 40
0.328125000000001
 40
0.343750000000001
 40
0.343750000000001
 40
0.3750000000000009
 40
0.3750000000000009
 40
0.4375000000000009
 40
0.4375000000000009
 40
0.4687500000000009
 40
0.4687500000000009
 40
0.5000000000000009
 40
0.5000000000000009
 40
0.5312500000000009
 40
0.5312500000000009
 40
0.5625000000000009
 40
0.5625000000000009
 40
0.5937500000000008
 40
0.5937500000000008
 40
0.6250000000000008
 40
0.6250000000000008
 40
0.6562500000000007
 40
0.6562500000000007
 40
0.6875000000000007
 40
0.6875000000000007
 40
0.7031250000000006
 40
0.7031250000000006
 40
0.7187500000000006
 40
0.7187500000000006
 40
0.7500000000000004
 40
0.7500000000000004
 40
0.7812500000000004
 40
0.7812500000000004
 40
0.8125000000000003
 40
0.8125000000000003
 40
0.8437500000000003
 40
0.8437500000000003
 40
0.8750000000000002
 40
0.8750000000000002
 40
0.9062500000000002
 40
0.9062500000000002
 40
0.9375000000000001
 40
0.9375000000000001
 40
0.9687500000000001
 40
0.9687500000000001
 40
1.0
 40
1.0
 40
1.0625
 40
1.0625
 10
4.46836838684912
 20
3.125071414987907
 30
0.0
 10
4.468368386849119
 20
3.0782920757809
 30
0.0
 10
4.462852984406891
 20
3.049489857116864
 30
0.0
 10
4.443613161177733
 20
2.996061523631704
 30
0.0
 10
4.430105144165662
 20
2.972133165323816
 30
0.0
 10
4.404721539349739
 20
2.940037190635725
 30
0.0
 10
4.395326335043717
 20
2.92991793006615
 30
0.0
 10
4.374794251498662
 20
2.911161645125924
 30
0.0
 10
4.363672797077041
 20
2.902509293741217
 30
0.0
 10
4.33916283429848
 20
2.886660593483294
 30
0.0
 10
4.325694021523681
 20
2.879416993291568
 30
0.0
 10
4.295811865256619
 20
2.866986149280277
 30
0.0
 10
4.279126855522816
 20
2.861681160428823
 30
0.0
 10
4.251176854027626
 20
2.856340338609516
 30
0.0
 10
4.24119233780091
 20
2.85498729533178
 30
0.0
 10
4.220906588311198
 20
2.853510026207774
 30
0.0
 10
4.210354888569071
 20
2.85337537706056
 30
0.0
 10
4.189834239199834
 20
2.854368332360575
 30
0.0
 10
4.179764319105833
 20
2.855484997138852
 30
0.0
 10
4.160623322914093
 20
2.858690632228525
 30
0.0
 10
4.151662173880135
 20
2.860742276772168
 30
0.0
 10
4.134582826676651
 20
2.865549965036294
 30
0.0
 10
4.126453436916039
 20
2.868320579482828
 30
0.0
 10
4.111213314929543
 20
2.874311983934266
 30
0.0
 10
4.104036979081931
 20
2.8775509272681
 30
0.0
 10
4.083489850116323
 20
2.887917939890879
 30
0.0
 10
4.071013225802855
 20
2.895745155739375
 30
0.0
 10
4.036797618146959
 20
2.921227754047522
 30
0.0
 10
4.018141769943361
 20
2.940760912533055
 30
0.0
 10
3.994815364921293
 20
2.974193983119547
 30
0.0
 10
3.987826584487918
 20
2.986119491084891
 30
0.0
 10
3.975841448925498
 20
3.011044771315933
 30
0.0
 10
3.970826938311154
 20
3.024042189917629
 30
0.0
 10
3.962890221253189
 20
3.051162389557351
 30
0.0
 10
3.959966252285363
 20
3.065284624773779
 30
0.0
 10
3.956551256141174
 20
3.094751832053394
 30
0.0
 10
3.956071734578986
 20
3.110245817645178
 30
0.0
 10
3.958111352805106
 20
3.141763114510489
 30
0.0
 10
3.960597447886995
 20
3.157751940808263
 30
0.0
 10
3.96900769376634
 20
3.190076765412719
 30
0.0
 10
3.975026476670156
 20
3.206570075633348
 30
0.0
 10
3.990709127853064
 20
3.238428413986917
 30
0.0
 10
4.000360480234238
 20
3.25390033152778
 30
0.0
 10
4.023889764025125
 20
3.283505111120155
 30
0.0
 10
4.037484019269071
 20
3.297225810157252
 30
0.0
 10
4.060298280042948
 20
3.315459711190216
 30
0.0
 10
4.068329859864408
 20
3.321170183751867
 30
0.0
 10
4.08530150751283
 20
3.331779371430825
 30
0.0
 10
4.094249077716565
 20
3.336667650345696
 30
0.0
 10
4.12163971763163
 20
3.34957467593567
 30
0.0
 10
4.140887361894144
 20
3.356041221798254
 30
0.0
 10
4.181457065409754
 20
3.364340945926498
 30
0.0
 10
4.202027359090623
 20
3.365998712054579
 30
0.0
 10
4.24317704837643
 20
3.364367023453239
 30
0.0
 10
4.263872308600088
 20
3.360994276746719
 30
0.0
 10
4.303043660405297
 20
3.349683082835129
 30
0.0
 10
4.322079406551081
 20
3.341584626732784
 30
0.0
 10
4.356869931007187
 20
3.321694541132314
 30
0.0
 10
4.372809235466947
 20
3.309871702576254
 30
0.0
 10
4.401341948330082
 20
3.283240110156952
 30
0.0
 10
4.413572732480614
 20
3.268806228999238
 30
0.0
 10
4.434416632446328
 20
3.238191520667539
 30
0.0
 10
4.442918539208045
 20
3.222089015635208
 30
0.0
 10
4.456051360382403
 20
3.189825273233164
 30
0.0
 10
4.460808515766706
 20
3.17338203298173
 30
0.0
 10
4.466953963737978
 20
3.140998611006891
 30
0.0
 10
4.46836838684912
 20
3.125071414987907
 30
0.0
 10
4.468368386849119
 20
3.0782920757809
 30
0.0
  0
LINE
  5
E6
330
1F
100
AcDbEntity
  8
0
  6
CONTINUOUS
 62
     7
100
AcDbLine
 10
4.5471085443
 20
4.7229302549
 30
0.0
 11
4.5471085443
 21
2.7946272722
 31
0.0
  0
LINE
  5
E7
330
1F
100
AcDbEntity
  8
0
  6
CONTINUOUS
 62
     7
100
AcDbLine
 10
4.5271085443
 20
2.774623188
 30
0.0
 11
4.5471085443
 21
2.7946272722
 31
0.0
  0
LINE
  5
E8
330
1F
100
AcDbEntity
  8
0
  6
CONTINUOUS
 62
     7
100
AcDbLine
 10
2.1061636624
 20
2.7944263179
 30
0.0
 11
2.1061636624
 21
4.7229302549
 31
0.0
  0
CIRCLE
  5
E9
330
1F
100
AcDbEntity
  8
0
  6
CONTINUOUS
 62
     7
100
AcDbCircle
 10
4.212462875
 20
3.1094783019
 30
0.0
 40
0.2007874015748037
  0
LINE
  5
EA
330
1F
100
AcDbEntity
  8
0
  6
CONTINUOUS
 62
     7
100
AcDbLine
 10
4.212462875
 20
2.9958266741
 30
0.0
 11
4.3108880719
 21
3.052652488
 31
0.0
  0
LINE
  5
EB
330
1F
100
AcDbEntity
  8
0
  6
CONTINUOUS
 62
     7
100
AcDbLine
 10
4.3108880719
 20
3.052652488
 30
0.0
 11
4.3108880719
 21
3.1663041158
 31
0.0
  0
LINE
  5
EC
330
1F
100
AcDbEntity
  8
0
  6
CONTINUOUS
 62
     7
100
AcDbLine
 10
4.1140376782
 20
3.052652488
 30
0.0
 11
4.212462875
 21
2.9958266741
 31
0.0
  0
LINE
  5
ED
330
1F
100
AcDbEntity
  8
0
  6
CONTINUOUS
 62
     7
100
AcDbLine
 10
4.1140376782
 20
3.1663041158
 30
0.0
 11
4.1140376782
 21
3.052652488
 31
0.0
  0
LINE
  5
EE
330
1F
100
AcDbEntity
  8
0
  6
CONTINUOUS
 62
     7
100
AcDbLine
 10
4.212462875
 20
3.2231299297
 30
0.0
 11
4.1140376782
 21
3.1663041158
 31
0.0
  0
LINE
  5
EF
330
1F
100
AcDbEntity
  8
0
  6
CONTINUOUS
 62
     7
100
AcDbLine
 10
4.3108880719
 20
3.1663041158
 30
0.0
 11
4.212462875
 21
3.2231299297
 31
0.0
  0
CIRCLE
  5
F0
330
1F
100
AcDbEntity
  8
0
  6
CONTINUOUS
 62
     7
100
AcDbCircle
 10
4.212462875
 20
3.1094783019
 30
0.0
 40
0.2165354330708658
  0
SPLINE
  5
F1
330
1F
100
AcDbEntity
  8
0
  6
HIDDEN
 62
     7
100
AcDbSpline
210
0.0
220
0.0
230
1.0
 70
     8
 71
     3
 72
    70
 73
    66
 74
     0
 42
0.00000001
 43
0.00000001
 40
-0.0156250000000001
 40
-0.0156250000000001
 40
0.0
 40
0.0
 40
0.0156249999999999
 40
0.0156249999999999
 40
0.0312499999999998
 40
0.0312499999999998
 40
0.0624999999999996
 40
0.0624999999999996
 40
0.0937499999999993
 40
0.0937499999999993
 40
0.1249999999999991
 40
0.1249999999999991
 40
0.1874999999999989
 40
0.1874999999999989
 40
0.2499999999999988
 40
0.2499999999999988
 40
0.2812499999999986
 40
0.2812499999999986
 40
0.3124999999999985
 40
0.3124999999999985
 40
0.3437499999999983
 40
0.3437499999999983
 40
0.3749999999999982
 40
0.3749999999999982
 40
0.4062499999999981
 40
0.4062499999999981
 40
0.4374999999999979
 40
0.4374999999999979
 40
0.4687499999999978
 40
0.4687499999999978
 40
0.4843749999999978
 40
0.4843749999999978
 40
0.4999999999999977
 40
0.4999999999999977
 40
0.5312499999999978
 40
0.5312499999999978
 40
0.5624999999999979
 40
0.5624999999999979
 40
0.5937499999999981
 40
0.5937499999999981
 40
0.6249999999999982
 40
0.6249999999999982
 40
0.6562499999999983
 40
0.6562499999999983
 40
0.6874999999999984
 40
0.6874999999999984
 40
0.7499999999999988
 40
0.7499999999999988
 40
0.7812499999999989
 40
0.7812499999999989
 40
0.8124999999999991
 40
0.8124999999999991
 40
0.8749999999999996
 40
0.8749999999999996
 40
0.9062499999999997
 40
0.9062499999999997
 40
0.9374999999999998
 40
0.9374999999999998
 40
0.9531249999999999
 40
0.9531249999999999
 40
0.9687499999999999
 40
0.9687499999999999
 40
0.9843749999999999
 40
0.9843749999999999
 40
1.0
 40
1.0
 40
1.015625
 40
1.015625
 10
2.451285392653416
 20
3.371979465473145
 30
0.0
 10
2.430333270808602
 20
3.371979465473145
 30
0.0
 10
2.420166271060942
 20
3.370476104927855
 30
0.0
 10
2.400349249523209
 20
3.364970526701725
 30
0.0
 10
2.390797865658679
 20
3.360972497890819
 30
0.0
 10
2.36406458715044
 20
3.346853653436091
 30
0.0
 10
2.348115940434016
 20
3.334423874055232
 30
0.0
 10
2.319577320052763
 20
3.307961549736157
 30
0.0
 10
2.30675955591651
 20
3.293712412160339
 30
0.0
 10
2.282988286745933
 20
3.264150030203743
 30
0.0
 10
2.272268167818058
 20
3.24908632837702
 30
0.0
 10
2.242801445266763
 20
3.203636230627223
 30
0.0
 10
2.226633693787281
 20
3.172959185655515
 30
0.0
 10
2.201022625277
 20
3.111716451681443
 30
0.0
 10
2.192080540979042
 20
3.082253437622091
 30
0.0
 10
2.185563518309042
 20
3.03989159491417
 30
0.0
 10
2.184560701721268
 20
3.02607550998013
 30
0.0
 10
2.185453763212084
 20
2.999056562791861
 30
0.0
 10
2.187352207290542
 20
2.986158427499803
 30
0.0
 10
2.194452369054346
 20
2.96176951757176
 30
0.0
 10
2.199699954003334
 20
2.95016625485528
 30
0.0
 10
2.214045908675786
 20
2.928627278222
 30
0.0
 10
2.222995166271299
 20
2.918867041411691
 30
0.0
 10
2.244891519900313
 20
2.901202928554949
 30
0.0
 10
2.257977427090518
 20
2.893286993162401
 30
0.0
 10
2.287171439323754
 20
2.879957987095204
 30
0.0
 10
2.303476704976555
 20
2.874389050125084
 30
0.0
 10
2.339410217403346
 20
2.865374374161442
 30
0.0
 10
2.358329278154551
 20
2.862086682366508
 30
0.0
 10
2.388132174625761
 20
2.858730989004235
 30
0.0
 10
2.398388318770273
 20
2.857876421604139
 30
0.0
 10
2.418907676068713
 20
2.856736371596504
 30
0.0
 10
2.429176117762127
 20
2.85644454327202
 30
0.0
 10
2.460007167040804
 20
2.856373318833358
 30
0.0
 10
2.480893314357976
 20
2.857422496533351
 30
0.0
 10
2.520753629198254
 20
2.861705132911069
 30
0.0
 10
2.539963313188874
 20
2.864937037980817
 30
0.0
 10
2.576052338646573
 20
2.873753237536762
 30
0.0
 10
2.592469843686633
 20
2.879209054491554
 30
0.0
 10
2.622251086212922
 20
2.892514967130897
 30
0.0
 10
2.635365414814795
 20
2.900303207150658
 30
0.0
 10
2.657555537012084
 20
2.917827456157527
 30
0.0
 10
2.666823602128163
 20
2.927739915906618
 30
0.0
 10
2.681335491115088
 20
2.949074189360378
 30
0.0
 10
2.686694331200794
 20
2.96055321731358
 30
0.0
 10
2.697792597311583
 20
2.997512270550879
 30
0.0
 10
2.698343794461563
 20
3.024168559141659
 30
0.0
 10
2.691917471268992
 20
3.067185172864232
 30
0.0
 10
2.688542017989735
 20
3.081868165770271
 30
0.0
 10
2.679789718123543
 20
3.111473915620248
 30
0.0
 10
2.674400915451786
 20
3.126465086311568
 30
0.0
 10
2.65545438575906
 20
3.171963249797161
 30
0.0
 10
2.639010114112424
 20
3.203298347430218
 30
0.0
 10
2.609546256153736
 20
3.248804262848406
 30
0.0
 10
2.598888741453012
 20
3.263786782666898
 30
0.0
 10
2.575436787507797
 20
3.293034470719468
 30
0.0
 10
2.562608319072813
 20
3.307386738232859
 30
0.0
 10
2.540978867698655
 20
3.327515142234265
 30
0.0
 10
2.533432701599786
 20
3.33392118912313
 30
0.0
 10
2.517422586738407
 20
3.345851754725577
 30
0.0
 10
2.508890279750312
 20
3.351413079465342
 30
0.0
 10
2.490989337025822
 20
3.360899361914451
 30
0.0
 10
2.481605475603235
 20
3.364855443503501
 30
0.0
 10
2.461593550537334
 20
3.370458094769484
 30
0.0
 10
2.451285392653416
 20
3.371979465473145
 30
0.0
 10
2.430333270808602
 20
3.371979465473145
 30
0.0
  0
SPLINE
  5
F2
330
1F
100
AcDbEntity
  8
0
  6
HIDDEN
 62
     7
100
AcDbSpline
210
0.0
220
0.0
230
1.0
 70
     8
 71
     3
 72
    46
 73
    42
 74
     0
 42
0.00000001
 43
0.00000001
 40
-0.03125
 40
-0.03125
 40
0.0
 40
0.0
 40
0.0624999999999998
 40
0.0624999999999998
 40
0.1249999999999996
 40
0.1249999999999996
 40
0.1874999999999994
 40
0.1874999999999994
 40
0.2499999999999992
 40
0.2499999999999992
 40
0.312499999999999
 40
0.312499999999999
 40
0.3749999999999988
 40
0.3749999999999988
 40
0.4062499999999987
 40
0.4062499999999987
 40
0.4374999999999987
 40
0.4374999999999987
 40
0.4687499999999986
 40
0.4687499999999986
 40
0.4999999999999984
 40
0.4999999999999984
 40
0.5624999999999987
 40
0.5624999999999987
 40
0.6249999999999989
 40
0.6249999999999989
 40
0.6874999999999992
 40
0.6874999999999992
 40
0.7499999999999994
 40
0.7499999999999994
 40
0.8124999999999997
 40
0.8124999999999997
 40
0.8749999999999999
 40
0.8749999999999999
 40
0.90625
 40
0.90625
 40
0.9375
 40
0.9375
 40
0.96875
 40
0.96875
 40
1.0
 40
1.0
 40
1.0625
 40
1.0625
 10
2.430294958278242
 20
4.354976627142315
 30
0.0
 10
2.461838078636543
 20
4.354976627142315
 30
0.0
 10
2.481663299687238
 20
4.361713476503591
 30
0.0
 10
2.514804428220478
 20
4.381489269209478
 30
0.0
 10
2.528076357561068
 20
4.394007696224275
 30
0.0
 10
2.54977094865801
 20
4.420683984111661
 30
0.0
 10
2.557914906788042
 20
4.434554051120374
 30
0.0
 10
2.569805909961519
 20
4.462801497205489
 30
0.0
 10
2.573388813029276
 20
4.477013071844304
 30
0.0
 10
2.575379573785594
 20
4.504463475229011
 30
0.0
 10
2.573755007568566
 20
4.518005189166334
 30
0.0
 10
2.5643531026357
 20
4.542884807691741
 30
0.0
 10
2.556412442241991
 20
4.554558188789119
 30
0.0
 10
2.539376349215789
 20
4.569394335982671
 30
0.0
 10
2.532726375149152
 20
4.573991914792553
 30
0.0
 10
2.517937365595134
 20
4.582008436196245
 30
0.0
 10
2.509839424083579
 20
4.585439080347286
 30
0.0
 10
2.492096243575789
 20
4.591137670970617
 30
0.0
 10
2.482391462525339
 20
4.593387169806491
 30
0.0
 10
2.462582176806431
 20
4.596382627803938
 30
0.0
 10
2.452177693433879
 20
4.597185284447828
 30
0.0
 10
2.420966889507485
 20
4.59732353222982
 30
0.0
 10
2.4003080457665
 20
4.594383200361532
 30
0.0
 10
2.364294289936134
 20
4.583234406092866
 30
0.0
 10
2.348973213758788
 20
4.575024298262715
 30
0.0
 10
2.325788761275106
 20
4.555281366789926
 30
0.0
 10
2.31770636819778
 20
4.543669844712671
 30
0.0
 10
2.307999096089152
 20
4.518722781874596
 30
0.0
 10
2.306271765006174
 20
4.505207698388779
 30
0.0
 10
2.308103685445182
 20
4.477614813583495
 30
0.0
 10
2.311674026700358
 20
4.463271388710466
 30
0.0
 10
2.323415747282693
 20
4.435102870988556
 30
0.0
 10
2.331709740977524
 20
4.42090848390618
 30
0.0
 10
2.347859348627884
 20
4.400969027742708
 30
0.0
 10
2.353849894366066
 20
4.394556753129747
 30
0.0
 10
2.367362237685245
 20
4.382412361207637
 30
0.0
 10
2.374885093958583
 20
4.3767000448338
 30
0.0
 10
2.391341876894955
 20
4.366827363187556
 30
0.0
 10
2.40048814473816
 20
4.362567822801569
 30
0.0
 10
2.419851680697611
 20
4.356661790639088
 30
0.0
 10
2.430294958278242
 20
4.354976627142315
 30
0.0
 10
2.461838078636543
 20
4.354976627142315
 30
0.0
  0
LINE
  5
F3
330
1F
100
AcDbEntity
  8
0
  6
HIDDEN
 62
     7
100
AcDbLine
 10
2.8148250798
 20
4.4981129309
 30
0.0
 11
2.8148250798
 21
3.0192436419
 31
0.0
  0
LINE
  5
F4
330
1F
100
AcDbEntity
  8
0
  6
HIDDEN
 62
     7
100
AcDbLine
 10
2.775455001
 20
4.4981129309
 30
0.0
 11
2.775455001
 21
3.0192436419
 31
0.0
  0
CIRCLE
  5
F5
330
1F
100
AcDbEntity
  8
0
  6
HIDDEN
 62
     7
100
AcDbCircle
 10
4.212462875
 20
3.1094783019
 30
0.0
 40
0.1338582677165352
  0
LINE
  5
F6
330
1F
100
AcDbEntity
  8
0
  6
HIDDEN
 62
     7
100
AcDbLine
 10
4.5471085443
 20
3.4242965841
 30
0.0
 11
4.5271085443
 21
3.4443334159
 31
0.0
  0
LINE
  5
F7
330
1F
100
AcDbEntity
  8
0
  6
HIDDEN
 62
     7
100
AcDbLine
 10
2.1261636624
 20
3.7783633258
 30
0.0
 11
2.1061636624
 21
3.7783633258
 31
0.0
  0
LINE
  5
F8
330
1F
100
AcDbEntity
  8
0
  6
HIDDEN
 62
     7
100
AcDbLine
 10
2.1261636624
 20
3.738993247
 30
0.0
 11
2.1061636624
 21
3.738993247
 31
0.0
  0
LINE
  5
F9
330
1F
100
AcDbEntity
  8
0
  6
HIDDEN
 62
     7
100
AcDbLine
 10
2.1261636624
 20
3.7783633258
 30
0.0
 11
2.775455001
 21
3.7783633258
 31
0.0
  0
LINE
  5
FA
330
1F
100
AcDbEntity
  8
0
  6
HIDDEN
 62
     7
100
AcDbLine
 10
2.1261636624
 20
3.738993247
 30
0.0
 11
2.775455001
 21
3.738993247
 31
0.0
  0
LINE
  5
FB
330
1F
100
AcDbEntity
  8
0
  6
HIDDEN
 62
     7
100
AcDbLine
 10
3.8778172057
 20
3.4443334159
 30
0.0
 11
4.5271085443
 21
3.4443334159
 31
0.0
  0
LINE
  5
FC
330
1F
100
AcDbEntity
  8
0
  6
HIDDEN
 62
     7
100
AcDbLine
 10
2.6967148435
 20
3.4043475777
 30
0.0
 11
2.1849038199
 21
3.4043475777
 31
0.0
  0
CIRCLE
  5
FD
330
1F
100
AcDbEntity
  8
0
  6
HIDDEN
 62
     7
100
AcDbCircle
 10
4.212462875
 20
3.1094783019
 30
0.0
 40
0.1181102362204731
  0
CIRCLE
  5
FE
330
1F
100
AcDbEntity
  8
0
  6
HIDDEN
 62
     7
100
AcDbCircle
 10
4.212462875
 20
3.1094783019
 30
0.0
 40
0.1023622047244102
  0
LINE
  5
FF
330
1F
100
AcDbEntity
  8
0
  6
HIDDEN
 62
     7
100
AcDbLine
 10
2.6573447648
 20
3.1838751368
 30
0.0
 11
2.2242738987
 21
3.1838751368
 31
0.0
  0
LINE
  5
100
330
1F
100
AcDbEntity
  8
0
  6
HIDDEN
 62
     7
100
AcDbLine
 10
2.2242738987
 20
3.3885995462
 30
0.0
 11
2.6573447648
 21
3.3885995462
 31
0.0
  0
LINE
  5
101
330
1F
100
AcDbEntity
  8
0
  6
HIDDEN
 62
     7
100
AcDbLine
 10
2.2400219302
 20
3.1681271053
 30
0.0
 11
2.6415967333
 21
3.1681271053
 31
0.0
  0
LINE
  5
102
330
1F
100
AcDbEntity
  8
0
  6
HIDDEN
 62
     7
100
AcDbLine
 10
2.3226990955
 20
4.4515916722
 30
0.0
 11
2.558919568
 21
4.4515916722
 31
0.0
  0
LINE
  5
103
330
1F
100
AcDbEntity
  8
0
  6
HIDDEN
 62
     7
100
AcDbLine
 10
2.5431715365
 20
4.4673397037
 30
0.0
 11
2.338447127
 21
4.4673397037
 31
0.0
  0
LINE
  5
104
330
1F
100
AcDbEntity
  8
0
  6
HIDDEN
 62
     7
100
AcDbLine
 10
2.4408093317
 20
3.2862373415
 30
0.0
 11
2.4408093317
 21
3.1681271053
 31
0.0
  0
LINE
  5
105
330
1F
100
AcDbEntity
  8
0
  6
HIDDEN
 62
     7
100
AcDbLine
 10
2.4408093317
 20
3.2862373415
 30
0.0
 11
2.5392345286
 21
3.2862373415
 31
0.0
  0
LINE
  5
106
330
1F
100
AcDbEntity
  8
0
  6
HIDDEN
 62
     7
100
AcDbLine
 10
2.3423841349
 20
3.2862373415
 30
0.0
 11
2.4408093317
 21
3.2862373415
 31
0.0
  0
LINE
  5
107
330
1F
100
AcDbEntity
  8
0
  6
HIDDEN
 62
     7
100
AcDbLine
 10
2.3423841349
 20
3.2862373415
 30
0.0
 11
2.3423841349
 21
3.1681271053
 31
0.0
  0
LINE
  5
108
330
1F
100
AcDbEntity
  8
0
  6
HIDDEN
 62
     7
100
AcDbLine
 10
2.5392345286
 20
3.2862373415
 30
0.0
 11
2.5392345286
 21
3.1681271053
 31
0.0
  0
LINE
  5
109
330
1F
100
AcDbEntity
  8
0
  6
HIDDEN
 62
     7
100
AcDbLine
 10
4.5471085443
 20
4.0936389163
 30
0.0
 11
4.5271085443
 21
4.0736389163
 31
0.0
  0
LINE
  5
10A
330
1F
100
AcDbEntity
  8
0
  6
HIDDEN
 62
     7
100
AcDbLine
 10
2.1061636624
 20
3.4237176565
 30
0.0
 11
2.1261636624
 21
3.4437176565
 31
0.0
  0
LINE
  5
10B
330
1F
100
AcDbEntity
  8
0
  6
HIDDEN
 62
     7
100
AcDbLine
 10
2.1261636624
 20
4.0736389163
 30
0.0
 11
2.1061636624
 21
4.0936389163
 31
0.0
  0
LINE
  5
10C
330
1F
100
AcDbEntity
  8
0
  6
HIDDEN
 62
     7
100
AcDbLine
 10
3.838447127
 20
4.0736389163
 30
0.0
 11
2.8148250798
 21
4.0736389163
 31
0.0
  0
LINE
  5
10D
330
1F
100
AcDbEntity
  8
0
  6
HIDDEN
 62
     7
100
AcDbLine
 10
2.8148250798
 20
3.4437176565
 30
0.0
 11
3.838447127
 21
3.4437176565
 31
0.0
  0
LINE
  5
10E
330
1F
100
AcDbEntity
  8
0
  6
HIDDEN
 62
     7
100
AcDbLine
 10
2.775455001
 20
4.0736389163
 30
0.0
 11
2.1261636624
 21
4.0736389163
 31
0.0
  0
LINE
  5
10F
330
1F
100
AcDbEntity
  8
0
  6
HIDDEN
 62
     7
100
AcDbLine
 10
2.1261636624
 20
3.4437176565
 30
0.0
 11
2.775455001
 21
3.4437176565
 31
0.0
  0
LINE
  5
110
330
1F
100
AcDbEntity
  8
0
  6
HIDDEN
 62
     7
100
AcDbLine
 10
4.5271085443
 20
4.0736389163
 30
0.0
 11
3.8778172057
 21
4.0736389163
 31
0.0
  0
LINE
  5
111
330
1F
100
AcDbEntity
  8
0
  6
HIDDEN
 62
     7
100
AcDbLine
 10
2.6967148435
 20
3.0192133082
 30
0.0
 11
2.6967148435
 21
3.4043475777
 31
0.0
  0
LINE
  5
112
330
1F
100
AcDbEntity
  8
0
  6
HIDDEN
 62
     7
100
AcDbLine
 10
2.1849038199
 20
3.4043475777
 30
0.0
 11
2.1849038199
 21
3.019306584
 31
0.0
  0
LINE
  5
113
330
1F
100
AcDbEntity
  8
0
  6
HIDDEN
 62
     7
100
AcDbLine
 10
2.5746675994
 20
3.4043475777
 30
0.0
 11
2.5746675994
 21
3.738993247
 31
0.0
  0
LINE
  5
114
330
1F
100
AcDbEntity
  8
0
  6
HIDDEN
 62
     7
100
AcDbLine
 10
2.306951064
 20
3.738993247
 30
0.0
 11
2.306951064
 21
3.4043475777
 31
0.0
  0
LINE
  5
115
330
1F
100
AcDbEntity
  8
0
  6
HIDDEN
 62
     7
100
AcDbLine
 10
2.5746675994
 20
3.7783633258
 30
0.0
 11
2.5746675994
 21
4.4982045283
 31
0.0
  0
LINE
  5
116
330
1F
100
AcDbEntity
  8
0
  6
HIDDEN
 62
     7
100
AcDbLine
 10
2.306951064
 20
4.4983575125
 30
0.0
 11
2.306951064
 21
3.7783633258
 31
0.0
  0
LINE
  5
117
330
1F
100
AcDbEntity
  8
0
  6
HIDDEN
 62
     7
100
AcDbLine
 10
2.2242738987
 20
3.3885995462
 30
0.0
 11
2.2242738987
 21
3.1838751368
 31
0.0
  0
LINE
  5
118
330
1F
100
AcDbEntity
  8
0
  6
HIDDEN
 62
     7
100
AcDbLine
 10
2.6573447648
 20
3.1838751368
 30
0.0
 11
2.6573447648
 21
3.3885995462
 31
0.0
  0
LINE
  5
119
330
1F
100
AcDbEntity
  8
0
  6
HIDDEN
 62
     7
100
AcDbLine
 10
2.6573447648
 20
3.3885995462
 30
0.0
 11
2.6415967333
 21
3.4043475777
 31
0.0
  0
LINE
  5
11A
330
1F
100
AcDbEntity
  8
0
  6
HIDDEN
 62
     7
100
AcDbLine
 10
2.2400219302
 20
3.4043475777
 30
0.0
 11
2.2242738987
 21
3.3885995462
 31
0.0
  0
LINE
  5
11B
330
1F
100
AcDbEntity
  8
0
  6
HIDDEN
 62
     7
100
AcDbLine
 10
2.2242738987
 20
3.1838751368
 30
0.0
 11
2.2400219302
 21
3.1681271053
 31
0.0
  0
LINE
  5
11C
330
1F
100
AcDbEntity
  8
0
  6
HIDDEN
 62
     7
100
AcDbLine
 10
2.6415967333
 20
3.1681271053
 30
0.0
 11
2.6573447648
 21
3.1838751368
 31
0.0
  0
LINE
  5
11D
330
1F
100
AcDbEntity
  8
0
  6
HIDDEN
 62
     7
100
AcDbLine
 10
2.558919568
 20
3.4043475777
 30
0.0
 11
2.558919568
 21
4.4515916722
 31
0.0
  0
LINE
  5
11E
330
1F
100
AcDbEntity
  8
0
  6
HIDDEN
 62
     7
100
AcDbLine
 10
2.3226990955
 20
4.4515916722
 30
0.0
 11
2.3226990955
 21
3.4043475777
 31
0.0
  0
LINE
  5
11F
330
1F
100
AcDbEntity
  8
0
  6
HIDDEN
 62
     7
100
AcDbLine
 10
2.558919568
 20
4.4515916722
 30
0.0
 11
2.5431715365
 21
4.4673397037
 31
0.0
  0
LINE
  5
120
330
1F
100
AcDbEntity
  8
0
  6
HIDDEN
 62
     7
100
AcDbLine
 10
2.338447127
 20
4.4673397037
 30
0.0
 11
2.3226990955
 21
4.4515916722
 31
0.0
  0
LINE
  5
121
330
1F
100
AcDbEntity
  8
0
  6
CONTINUOUS
 62
     7
100
AcDbLine
 10
7.6760814567
 20
2.8929428688
 30
0.0
 11
7.7826388116
 21
2.8929428688
 31
0.0
  0
LINE
  5
122
330
1F
100
AcDbEntity
  8
0
  6
CONTINUOUS
 62
     7
100
AcDbLine
 10
7.6603334252
 20
2.9086909003
 30
0.0
 11
7.6760814567
 21
2.8929428688
 31
0.0
  0
LINE
  5
123
330
1F
100
AcDbEntity
  8
0
  6
CONTINUOUS
 62
     7
100
AcDbLine
 10
8.231199567
 20
2.9913680657
 30
0.0
 11
8.2705696457
 21
2.9913680657
 31
0.0
  0
LINE
  5
124
330
1F
100
AcDbEntity
  8
0
  6
CONTINUOUS
 62
     7
100
AcDbLine
 10
8.8673154319
 20
2.9913680657
 30
0.0
 11
8.9437979922
 21
2.9913680657
 31
0.0
  0
LINE
  5
125
330
1F
100
AcDbEntity
  8
0
  6
CONTINUOUS
 62
     7
100
AcDbLine
 10
8.2705696457
 20
3.2275885381
 30
0.0
 11
8.231199567
 21
3.2275885381
 31
0.0
  0
LINE
  5
126
330
1F
100
AcDbEntity
  8
0
  6
CONTINUOUS
 62
     7
100
AcDbLine
 10
8.9437979922
 20
2.9913680657
 30
0.0
 11
8.9595460236
 21
3.0071160972
 31
0.0
  0
LINE
  5
127
330
1F
100
AcDbEntity
  8
0
  6
CONTINUOUS
 62
     7
100
AcDbLine
 10
9.1166200239
 20
3.1838751368
 30
0.0
 11
9.1166200239
 21
3.2904324916
 31
0.0
  0
LINE
  5
128
330
1F
100
AcDbEntity
  8
0
  6
CONTINUOUS
 62
     7
100
AcDbLine
 10
9.1008719924
 20
3.1681271053
 30
0.0
 11
9.1166200239
 21
3.1838751368
 31
0.0
  0
LINE
  5
129
330
1F
100
AcDbEntity
  8
0
  6
CONTINUOUS
 62
     7
100
AcDbLine
 10
9.018194827
 20
4.375109112
 30
0.0
 11
9.018194827
 21
4.4515916722
 31
0.0
  0
LINE
  5
12A
330
1F
100
AcDbEntity
  8
0
  6
CONTINUOUS
 62
     7
100
AcDbLine
 10
9.018194827
 20
4.4515916722
 30
0.0
 11
9.0024467955
 21
4.4673397037
 31
0.0
  0
ARC
  5
12B
330
1F
100
AcDbEntity
  8
0
  6
CONTINUOUS
 62
     7
100
AcDbCircle
 10
8.2508846063
 20
3.7586782864
 30
0.0
 40
0.33496062992126
100
AcDbArc
 50
273.3691120895
 51
266.6308879105
  0
LINE
  5
12C
330
1F
100
AcDbEntity
  8
0
  6
CONTINUOUS
 62
     7
100
AcDbLine
 10
8.231199567
 20
2.7946272722
 30
0.0
 11
8.231199567
 21
3.4242965841
 31
0.0
  0
ARC
  5
12D
330
1F
100
AcDbEntity
  8
0
  6
CONTINUOUS
 62
     7
100
AcDbCircle
 10
8.2508846063
 20
3.7586782864
 30
0.0
 40
0.9642519685039367
100
AcDbArc
 50
271.1697648227
 51
268.8302351773
  0
LINE
  5
12E
330
1F
100
AcDbEntity
  8
0
  6
CONTINUOUS
 62
     7
100
AcDbLine
 10
8.2705696457
 20
2.7946272722
 30
0.0
 11
8.2705696457
 21
3.4242965841
 31
0.0
  0
LINE
  5
12F
330
1F
100
AcDbEntity
  8
0
  6
CONTINUOUS
 62
     7
100
AcDbLine
 10
8.231199567
 20
2.774623188
 30
0.0
 11
8.231199567
 21
2.7946272722
 31
0.0
  0
ARC
  5
130
330
1F
100
AcDbEntity
  8
0
  6
CONTINUOUS
 62
     7
100
AcDbCircle
 10
8.2508846063
 20
3.7586782864
 30
0.0
 40
0.984251968503937
100
AcDbArc
 50
271.1459919984
 51
268.8540080016
  0
LINE
  5
131
330
1F
100
AcDbEntity
  8
0
  6
CONTINUOUS
 62
     7
100
AcDbLine
 10
8.2705696457
 20
2.774623188
 30
0.0
 11
8.2705696457
 21
2.7946272722
 31
0.0
  0
ARC
  5
132
330
1F
100
AcDbEntity
  8
0
  6
CONTINUOUS
 62
     7
100
AcDbCircle
 10
8.2508846063
 20
3.7586782864
 30
0.0
 40
0.3149606299212597
100
AcDbArc
 50
273.5833216985
 51
266.4166783015
  0
LINE
  5
133
330
1F
100
AcDbEntity
  8
0
  6
CONTINUOUS
 62
     7
100
AcDbLine
 10
8.231199567
 20
3.4242965841
 30
0.0
 11
8.231199567
 21
3.4443334159
 31
0.0
  0
LINE
  5
134
330
1F
100
AcDbEntity
  8
0
  6
CONTINUOUS
 62
     7
100
AcDbLine
 10
8.2705696457
 20
3.4242965841
 30
0.0
 11
8.2705696457
 21
3.4443334159
 31
0.0
  0
ARC
  5
135
330
1F
100
AcDbEntity
  8
0
  6
CONTINUOUS
 62
     7
100
AcDbCircle
 10
8.2508846063
 20
3.7586782864
 30
0.0
 40
0.3149606299212597
100
AcDbArc
 50
266.4166783015
 51
273.5833216985
  0
LINE
  5
136
330
1F
100
AcDbEntity
  8
0
  6
CONTINUOUS
 62
     7
100
AcDbLine
 10
8.2705696457
 20
2.774623188
 30
0.0
 11
8.231199567
 21
2.774623188
 31
0.0
  0
LINE
  5
137
330
1F
100
AcDbEntity
  8
0
  6
CONTINUOUS
 62
     7
100
AcDbLine
 10
7.6760814567
 20
2.9597081513
 30
0.0
 11
7.6760814567
 21
2.8929428688
 31
0.0
  0
LINE
  5
138
330
1F
100
AcDbEntity
  8
0
  6
CONTINUOUS
 62
     7
100
AcDbLine
 10
7.6603334252
 20
2.9086909003
 30
0.0
 11
7.6603334252
 21
2.9712767116
 31
0.0
  0
LINE
  5
139
330
1F
100
AcDbEntity
  8
0
  6
CONTINUOUS
 62
     7
100
AcDbLine
 10
8.9437979922
 20
2.9913680657
 30
0.0
 11
8.9437979922
 21
3.0596625661
 31
0.0
  0
LINE
  5
13A
330
1F
100
AcDbEntity
  8
0
  6
CONTINUOUS
 62
     7
100
AcDbLine
 10
8.9595460236
 20
3.0756329489
 30
0.0
 11
8.9595460236
 21
3.0071160972
 31
0.0
  0
LINE
  5
13B
330
1F
100
AcDbEntity
  8
0
  6
CONTINUOUS
 62
     7
100
AcDbLine
 10
9.1166200239
 20
3.1838751368
 30
0.0
 11
9.0498547414
 21
3.1838751368
 31
0.0
  0
LINE
  5
13C
330
1F
100
AcDbEntity
  8
0
  6
CONTINUOUS
 62
     7
100
AcDbLine
 10
9.0382861811
 20
3.1681271053
 30
0.0
 11
9.1008719924
 21
3.1681271053
 31
0.0
  0
LINE
  5
13D
330
1F
100
AcDbEntity
  8
0
  6
CONTINUOUS
 62
     7
100
AcDbLine
 10
8.9499003266
 20
4.4515916722
 30
0.0
 11
9.018194827
 21
4.4515916722
 31
0.0
  0
LINE
  5
13E
330
1F
100
AcDbEntity
  8
0
  6
CONTINUOUS
 62
     7
100
AcDbLine
 10
9.0024467955
 20
4.4673397037
 30
0.0
 11
8.9339299438
 21
4.4673397037
 31
0.0
  0
LINE
  5
13F
330
1F
100
AcDbEntity
  8
0
  6
HIDDEN
 62
     7
100
AcDbLine
 10
7.8965538977
 20
3.1094783019
 30
0.0
 11
7.8965538977
 21
3.3653838137
 31
0.0
  0
LINE
  5
140
330
1F
100
AcDbEntity
  8
0
  6
HIDDEN
 62
     7
100
AcDbLine
 10
7.8965538977
 20
2.8535727901
 30
0.0
 11
7.8965538977
 21
3.1094783019
 31
0.0
  0
LINE
  5
141
330
1F
100
AcDbEntity
  8
0
  6
HIDDEN
 62
     7
100
AcDbLine
 10
7.3252690201
 20
4.0933239557
 30
0.0
 11
9.1765001926
 21
4.0933239557
 31
0.0
  0
ARC
  5
142
330
1F
100
AcDbEntity
  8
0
  6
HIDDEN
 62
     7
100
AcDbCircle
 10
8.2508846063
 20
3.7586782864
 30
0.0
 40
0.3149606299212597
100
AcDbArc
 50
180.0
 51
266.4166783015
  0
ARC
  5
143
330
1F
100
AcDbEntity
  8
0
  6
HIDDEN
 62
     7
100
AcDbCircle
 10
8.2508846063
 20
3.7586782864
 30
0.0
 40
0.3149606299212596
100
AcDbArc
 50
273.5833216985
 51
180.0
  0
LINE
  5
144
330
1F
100
AcDbEntity
  8
0
  6
HIDDEN
 62
     7
100
AcDbLine
 10
7.6012783071
 20
4.4981129309
 30
0.0
 11
7.6012783071
 21
3.0192436419
 31
0.0
  0
LINE
  5
145
330
1F
100
AcDbEntity
  8
0
  6
HIDDEN
 62
     7
100
AcDbLine
 10
8.5652294768
 20
3.7783633258
 30
0.0
 11
9.2349397047
 21
3.7783633258
 31
0.0
  0
LINE
  5
146
330
1F
100
AcDbEntity
  8
0
  6
HIDDEN
 62
     7
100
AcDbLine
 10
8.5652294768
 20
3.738993247
 30
0.0
 11
9.2349397047
 21
3.738993247
 31
0.0
  0
LINE
  5
147
330
1F
100
AcDbEntity
  8
0
  6
HIDDEN
 62
     7
100
AcDbLine
 10
9.1559901026
 20
3.4043475777
 30
0.0
 11
8.644179079
 21
3.4043475777
 31
0.0
  0
POLYLINE
  5
148
330
1F
100
AcDbEntity
  8
0
  6
HIDDEN
 62
     7
100
AcDb2dPolyline
 66
     1
 10
0.0
 20
0.0
 30
0.0
  0
VERTEX
  5
207
330
148
100
AcDbEntity
  8
0
  6
HIDDEN
 62
     7
100
AcDbVertex
100
AcDb2dVertex
 10
8.231199567
 20
3.4242965841
 30
0.0
  0
VERTEX
  5
208
330
148
100
AcDbEntity
  8
0
  6
HIDDEN
 62
     7
100
AcDbVertex
100
AcDb2dVertex
 10
8.2557878581
 20
3.423753546
 30
0.0
  0
VERTEX
  5
209
330
148
100
AcDbEntity
  8
0
  6
HIDDEN
 62
     7
100
AcDbVertex
100
AcDb2dVertex
 10
8.2705696457
 20
3.4242965841
 30
0.0
  0
SEQEND
  5
20A
330
148
100
AcDbEntity
  8
0
  6
HIDDEN
 62
     7
  0
POLYLINE
  5
149
330
1F
100
AcDbEntity
  8
0
  6
HIDDEN
 62
     7
100
AcDb2dPolyline
 66
     1
 10
0.0
 20
0.0
 30
0.0
  0
VERTEX
  5
20B
330
149
100
AcDbEntity
  8
0
  6
HIDDEN
 62
     7
100
AcDbVertex
100
AcDb2dVertex
 10
8.2705696457
 20
2.7946272722
 30
0.0
  0
VERTEX
  5
20C
330
149
100
AcDbEntity
  8
0
  6
HIDDEN
 62
     7
100
AcDbVertex
100
AcDb2dVertex
 10
8.2534777654
 20
2.7944298048
 30
0.0
  0
VERTEX
  5
20D
330
149
100
AcDbEntity
  8
0
  6
HIDDEN
 62
     7
100
AcDbVertex
100
AcDb2dVertex
 10
8.231199567
 20
2.7946272722
 30
0.0
  0
SEQEND
  5
20E
330
149
100
AcDbEntity
  8
0
  6
HIDDEN
 62
     7
  0
LINE
  5
14A
330
1F
100
AcDbEntity
  8
0
  6
HIDDEN
 62
     7
100
AcDbLine
 10
7.6760814567
 20
3.1094783019
 30
0.0
 11
7.6760814567
 21
2.9597081513
 31
0.0
  0
LINE
  5
14B
330
1F
100
AcDbEntity
  8
0
  6
HIDDEN
 62
     7
100
AcDbLine
 10
7.6760814567
 20
3.326013735
 30
0.0
 11
7.6760814567
 21
3.1094783019
 31
0.0
  0
LINE
  5
14C
330
1F
100
AcDbEntity
  8
0
  6
HIDDEN
 62
     7
100
AcDbLine
 10
7.8808058662
 20
3.1094783019
 30
0.0
 11
7.8808058662
 21
3.326013735
 31
0.0
  0
LINE
  5
14D
330
1F
100
AcDbEntity
  8
0
  6
HIDDEN
 62
     7
100
AcDbLine
 10
7.8808058662
 20
2.8929428688
 30
0.0
 11
7.8808058662
 21
3.1094783019
 31
0.0
  0
LINE
  5
14E
330
1F
100
AcDbEntity
  8
0
  6
HIDDEN
 62
     7
100
AcDbLine
 10
7.6603334252
 20
3.1094783019
 30
0.0
 11
7.6603334252
 21
3.3102657035
 31
0.0
  0
LINE
  5
14F
330
1F
100
AcDbEntity
  8
0
  6
HIDDEN
 62
     7
100
AcDbLine
 10
7.6603334252
 20
2.9712767116
 30
0.0
 11
7.6603334252
 21
3.1094783019
 31
0.0
  0
LINE
  5
150
330
1F
100
AcDbEntity
  8
0
  6
HIDDEN
 62
     7
100
AcDbLine
 10
8.9437979922
 20
3.0596625661
 30
0.0
 11
8.9437979922
 21
3.2275885381
 31
0.0
  0
LINE
  5
151
330
1F
100
AcDbEntity
  8
0
  6
HIDDEN
 62
     7
100
AcDbLine
 10
8.9595460236
 20
3.2118405066
 30
0.0
 11
8.9595460236
 21
3.0756329489
 31
0.0
  0
LINE
  5
152
330
1F
100
AcDbEntity
  8
0
  6
HIDDEN
 62
     7
100
AcDbLine
 10
7.7784436614
 20
3.052652488
 30
0.0
 11
7.7784436614
 21
3.1663041158
 31
0.0
  0
LINE
  5
153
330
1F
100
AcDbEntity
  8
0
  6
HIDDEN
 62
     7
100
AcDbLine
 10
7.7784436614
 20
2.9958266741
 30
0.0
 11
7.7784436614
 21
3.052652488
 31
0.0
  0
LINE
  5
154
330
1F
100
AcDbEntity
  8
0
  6
HIDDEN
 62
     7
100
AcDbLine
 10
7.7784436614
 20
3.052652488
 30
0.0
 11
7.6603334252
 21
3.052652488
 31
0.0
  0
LINE
  5
155
330
1F
100
AcDbEntity
  8
0
  6
HIDDEN
 62
     7
100
AcDbLine
 10
7.7784436614
 20
3.1663041158
 30
0.0
 11
7.7784436614
 21
3.2231299297
 31
0.0
  0
LINE
  5
156
330
1F
100
AcDbEntity
  8
0
  6
HIDDEN
 62
     7
100
AcDbLine
 10
7.7784436614
 20
3.1663041158
 30
0.0
 11
7.6603334252
 21
3.1663041158
 31
0.0
  0
LINE
  5
157
330
1F
100
AcDbEntity
  8
0
  6
HIDDEN
 62
     7
100
AcDbLine
 10
7.7784436614
 20
2.9958266741
 30
0.0
 11
7.6603334252
 21
2.9958266741
 31
0.0
  0
LINE
  5
158
330
1F
100
AcDbEntity
  8
0
  6
HIDDEN
 62
     7
100
AcDbLine
 10
7.7784436614
 20
3.2231299297
 30
0.0
 11
7.6603334252
 21
3.2231299297
 31
0.0
  0
LINE
  5
159
330
1F
100
AcDbEntity
  8
0
  6
HIDDEN
 62
     7
100
AcDbLine
 10
9.0498547414
 20
3.1838751368
 30
0.0
 11
8.6835491577
 21
3.1838751368
 31
0.0
  0
LINE
  5
15A
330
1F
100
AcDbEntity
  8
0
  6
HIDDEN
 62
     7
100
AcDbLine
 10
8.6835491577
 20
3.3885995462
 30
0.0
 11
9.1166200239
 21
3.3885995462
 31
0.0
  0
LINE
  5
15B
330
1F
100
AcDbEntity
  8
0
  6
HIDDEN
 62
     7
100
AcDbLine
 10
8.6992971892
 20
3.1681271053
 30
0.0
 11
9.0382861811
 21
3.1681271053
 31
0.0
  0
LINE
  5
15C
330
1F
100
AcDbEntity
  8
0
  6
HIDDEN
 62
     7
100
AcDbLine
 10
8.9000845908
 20
4.4515916722
 30
0.0
 11
8.9499003266
 21
4.4515916722
 31
0.0
  0
LINE
  5
15D
330
1F
100
AcDbEntity
  8
0
  6
HIDDEN
 62
     7
100
AcDbLine
 10
8.7819743546
 20
4.4515916722
 30
0.0
 11
8.9000845908
 21
4.4515916722
 31
0.0
  0
LINE
  5
15E
330
1F
100
AcDbEntity
  8
0
  6
HIDDEN
 62
     7
100
AcDbLine
 10
8.9000845908
 20
4.4673397037
 30
0.0
 11
8.7977223861
 21
4.4673397037
 31
0.0
  0
LINE
  5
15F
330
1F
100
AcDbEntity
  8
0
  6
HIDDEN
 62
     7
100
AcDbLine
 10
8.9339299438
 20
4.4673397037
 30
0.0
 11
8.9000845908
 21
4.4673397037
 31
0.0
  0
LINE
  5
160
330
1F
100
AcDbEntity
  8
0
  6
HIDDEN
 62
     7
100
AcDbLine
 10
8.9569104047
 20
3.2862373415
 30
0.0
 11
9.0137362186
 21
3.2862373415
 31
0.0
  0
LINE
  5
161
330
1F
100
AcDbEntity
  8
0
  6
HIDDEN
 62
     7
100
AcDbLine
 10
8.8432587769
 20
3.2862373415
 30
0.0
 11
8.9569104047
 21
3.2862373415
 31
0.0
  0
LINE
  5
162
330
1F
100
AcDbEntity
  8
0
  6
HIDDEN
 62
     7
100
AcDbLine
 10
8.9569104047
 20
3.2862373415
 30
0.0
 11
8.9569104047
 21
3.1681271053
 31
0.0
  0
LINE
  5
163
330
1F
100
AcDbEntity
  8
0
  6
HIDDEN
 62
     7
100
AcDbLine
 10
8.8432587769
 20
3.2862373415
 30
0.0
 11
8.8432587769
 21
3.1681271053
 31
0.0
  0
LINE
  5
164
330
1F
100
AcDbEntity
  8
0
  6
HIDDEN
 62
     7
100
AcDbLine
 10
8.786432963
 20
3.2862373415
 30
0.0
 11
8.8432587769
 21
3.2862373415
 31
0.0
  0
LINE
  5
165
330
1F
100
AcDbEntity
  8
0
  6
HIDDEN
 62
     7
100
AcDbLine
 10
9.0137362186
 20
3.2862373415
 30
0.0
 11
9.0137362186
 21
3.1681271053
 31
0.0
  0
LINE
  5
166
330
1F
100
AcDbEntity
  8
0
  6
HIDDEN
 62
     7
100
AcDbLine
 10
8.786432963
 20
3.2862373415
 30
0.0
 11
8.786432963
 21
3.1681271053
 31
0.0
  0
LINE
  5
167
330
1F
100
AcDbEntity
  8
0
  6
HIDDEN
 62
     7
100
AcDbLine
 10
7.8640262635
 20
2.8535727901
 30
0.0
 11
7.8965538977
 21
2.8535727901
 31
0.0
  0
LINE
  5
168
330
1F
100
AcDbEntity
  8
0
  6
HIDDEN
 62
     7
100
AcDbLine
 10
7.8965538977
 20
3.3653838137
 30
0.0
 11
7.3488553934
 21
3.3653838137
 31
0.0
  0
LINE
  5
169
330
1F
100
AcDbEntity
  8
0
  6
HIDDEN
 62
     7
100
AcDbLine
 10
8.2705696457
 20
2.9756200342
 30
0.0
 11
8.8474741505
 21
2.9756200342
 31
0.0
  0
LINE
  5
16A
330
1F
100
AcDbEntity
  8
0
  6
HIDDEN
 62
     7
100
AcDbLine
 10
9.0892808849
 20
3.2433365696
 30
0.0
 11
8.2705696457
 21
3.2433365696
 31
0.0
  0
LINE
  5
16B
330
1F
100
AcDbEntity
  8
0
  6
HIDDEN
 62
     7
100
AcDbLine
 10
7.8965538977
 20
2.9756200342
 30
0.0
 11
8.231199567
 21
2.9756200342
 31
0.0
  0
LINE
  5
16C
330
1F
100
AcDbEntity
  8
0
  6
HIDDEN
 62
     7
100
AcDbLine
 10
8.231199567
 20
3.2433365696
 30
0.0
 11
7.8965538977
 21
3.2433365696
 31
0.0
  0
LINE
  5
16D
330
1F
100
AcDbEntity
  8
0
  6
HIDDEN
 62
     7
100
AcDbLine
 10
9.1559901026
 20
3.3719794655
 30
0.0
 11
9.1559901026
 21
3.4043475777
 31
0.0
  0
LINE
  5
16E
330
1F
100
AcDbEntity
  8
0
  6
HIDDEN
 62
     7
100
AcDbLine
 10
8.644179079
 20
3.4043475777
 30
0.0
 11
8.644179079
 21
2.8565187295
 31
0.0
  0
LINE
  5
16F
330
1F
100
AcDbEntity
  8
0
  6
HIDDEN
 62
     7
100
AcDbLine
 10
9.0339428585
 20
3.4043475777
 30
0.0
 11
9.0339428585
 21
3.738993247
 31
0.0
  0
LINE
  5
170
330
1F
100
AcDbEntity
  8
0
  6
HIDDEN
 62
     7
100
AcDbLine
 10
8.7662263231
 20
3.738993247
 30
0.0
 11
8.7662263231
 21
3.4043475777
 31
0.0
  0
LINE
  5
171
330
1F
100
AcDbEntity
  8
0
  6
HIDDEN
 62
     7
100
AcDbLine
 10
9.0339428585
 20
3.7783633258
 30
0.0
 11
9.0339428585
 21
4.3549766271
 31
0.0
  0
LINE
  5
172
330
1F
100
AcDbEntity
  8
0
  6
HIDDEN
 62
     7
100
AcDbLine
 10
8.7662263231
 20
4.5970184268
 30
0.0
 11
8.7662263231
 21
3.7783633258
 31
0.0
  0
LINE
  5
173
330
1F
100
AcDbEntity
  8
0
  6
HIDDEN
 62
     7
100
AcDbLine
 10
7.8808058662
 20
3.326013735
 30
0.0
 11
7.6760814567
 21
3.326013735
 31
0.0
  0
LINE
  5
174
330
1F
100
AcDbEntity
  8
0
  6
HIDDEN
 62
     7
100
AcDbLine
 10
7.7826388116
 20
2.8929428688
 30
0.0
 11
7.8808058662
 21
2.8929428688
 31
0.0
  0
LINE
  5
175
330
1F
100
AcDbEntity
  8
0
  6
HIDDEN
 62
     7
100
AcDbLine
 10
7.8808058662
 20
2.8929428688
 30
0.0
 11
7.8965538977
 21
2.9086909003
 31
0.0
  0
LINE
  5
176
330
1F
100
AcDbEntity
  8
0
  6
HIDDEN
 62
     7
100
AcDbLine
 10
7.8965538977
 20
3.3102657035
 30
0.0
 11
7.8808058662
 21
3.326013735
 31
0.0
  0
LINE
  5
177
330
1F
100
AcDbEntity
  8
0
  6
HIDDEN
 62
     7
100
AcDbLine
 10
7.6760814567
 20
3.326013735
 30
0.0
 11
7.6603334252
 21
3.3102657035
 31
0.0
  0
LINE
  5
178
330
1F
100
AcDbEntity
  8
0
  6
HIDDEN
 62
     7
100
AcDbLine
 10
7.8965538977
 20
2.9913680657
 30
0.0
 11
8.231199567
 21
2.9913680657
 31
0.0
  0
LINE
  5
179
330
1F
100
AcDbEntity
  8
0
  6
HIDDEN
 62
     7
100
AcDbLine
 10
8.2705696457
 20
2.9913680657
 30
0.0
 11
8.8673154319
 21
2.9913680657
 31
0.0
  0
LINE
  5
17A
330
1F
100
AcDbEntity
  8
0
  6
HIDDEN
 62
     7
100
AcDbLine
 10
8.9437979922
 20
3.2275885381
 30
0.0
 11
8.2705696457
 21
3.2275885381
 31
0.0
  0
LINE
  5
17B
330
1F
100
AcDbEntity
  8
0
  6
HIDDEN
 62
     7
100
AcDbLine
 10
8.231199567
 20
3.2275885381
 30
0.0
 11
7.8965538977
 21
3.2275885381
 31
0.0
  0
LINE
  5
17C
330
1F
100
AcDbEntity
  8
0
  6
HIDDEN
 62
     7
100
AcDbLine
 10
8.9595460236
 20
3.2118405066
 30
0.0
 11
8.9437979922
 21
3.2275885381
 31
0.0
  0
LINE
  5
17D
330
1F
100
AcDbEntity
  8
0
  6
HIDDEN
 62
     7
100
AcDbLine
 10
8.6835491577
 20
3.3885995462
 30
0.0
 11
8.6835491577
 21
3.1838751368
 31
0.0
  0
LINE
  5
17E
330
1F
100
AcDbEntity
  8
0
  6
HIDDEN
 62
     7
100
AcDbLine
 10
9.1166200239
 20
3.2904324916
 30
0.0
 11
9.1166200239
 21
3.3885995462
 31
0.0
  0
LINE
  5
17F
330
1F
100
AcDbEntity
  8
0
  6
HIDDEN
 62
     7
100
AcDbLine
 10
9.1166200239
 20
3.3885995462
 30
0.0
 11
9.1008719924
 21
3.4043475777
 31
0.0
  0
LINE
  5
180
330
1F
100
AcDbEntity
  8
0
  6
HIDDEN
 62
     7
100
AcDbLine
 10
8.6992971892
 20
3.4043475777
 30
0.0
 11
8.6835491577
 21
3.3885995462
 31
0.0
  0
LINE
  5
181
330
1F
100
AcDbEntity
  8
0
  6
HIDDEN
 62
     7
100
AcDbLine
 10
8.6835491577
 20
3.1838751368
 30
0.0
 11
8.6992971892
 21
3.1681271053
 31
0.0
  0
LINE
  5
182
330
1F
100
AcDbEntity
  8
0
  6
HIDDEN
 62
     7
100
AcDbLine
 10
9.018194827
 20
3.4043475777
 30
0.0
 11
9.018194827
 21
4.375109112
 31
0.0
  0
LINE
  5
183
330
1F
100
AcDbEntity
  8
0
  6
HIDDEN
 62
     7
100
AcDbLine
 10
8.7819743546
 20
4.4515916722
 30
0.0
 11
8.7819743546
 21
3.4043475777
 31
0.0
  0
LINE
  5
184
330
1F
100
AcDbEntity
  8
0
  6
HIDDEN
 62
     7
100
AcDbLine
 10
8.7977223861
 20
4.4673397037
 30
0.0
 11
8.7819743546
 21
4.4515916722
 31
0.0
  0
LINE
  5
185
330
1F
100
AcDbEntity
  8
0
  6
CONTINUOUS
 62
     7
100
AcDbLine
 10
3.8778172057
 20
5.6877251704
 30
0.0
 11
4.5271085443
 21
5.6877251704
 31
0.0
  0
LINE
  5
186
330
1F
100
AcDbEntity
  8
0
  6
CONTINUOUS
 62
     7
100
AcDbLine
 10
2.1261636624
 20
5.6877251704
 30
0.0
 11
3.838447127
 21
5.6877251704
 31
0.0
  0
LINE
  5
187
330
1F
100
AcDbEntity
  8
0
  6
CONTINUOUS
 62
     7
100
AcDbLine
 10
3.838447127
 20
7.6562291074
 30
0.0
 11
2.8148250798
 21
7.6562291074
 31
0.0
  0
LINE
  5
188
330
1F
100
AcDbEntity
  8
0
  6
CONTINUOUS
 62
     7
100
AcDbLine
 10
4.5271085443
 20
7.6562291074
 30
0.0
 11
3.8778172057
 21
7.6562291074
 31
0.0
  0
LINE
  5
189
330
1F
100
AcDbEntity
  8
0
  6
CONTINUOUS
 62
     7
100
AcDbLine
 10
2.1061636624
 20
5.7077251704
 30
0.0
 11
2.1261636624
 21
5.6877251704
 31
0.0
  0
LINE
  5
18A
330
1F
100
AcDbEntity
  8
0
  6
CONTINUOUS
 62
     7
100
AcDbLine
 10
4.5271085443
 20
5.6877251704
 30
0.0
 11
4.5471085443
 21
5.7077251704
 31
0.0
  0
LINE
  5
18B
330
1F
100
AcDbEntity
  8
0
  6
CONTINUOUS
 62
     7
100
AcDbLine
 10
4.5471085443
 20
7.6362291074
 30
0.0
 11
4.5271085443
 21
7.6562291074
 31
0.0
  0
LINE
  5
18C
330
1F
100
AcDbEntity
  8
0
  6
CONTINUOUS
 62
     7
100
AcDbLine
 10
2.1261636624
 20
7.6560322373
 30
0.0
 11
2.1261636624
 21
5.6877251704
 31
0.0
  0
LINE
  5
18D
330
1F
100
AcDbEntity
  8
0
  6
CONTINUOUS
 62
     7
100
AcDbLine
 10
2.775455001
 20
7.6560322373
 30
0.0
 11
2.1261636624
 21
7.6560322373
 31
0.0
  0
LINE
  5
18E
330
1F
100
AcDbEntity
  8
0
  6
CONTINUOUS
 62
     7
100
AcDbLine
 10
2.775455001
 20
6.0223708397
 30
0.0
 11
2.775455001
 21
7.6560322373
 31
0.0
  0
LINE
  5
18F
330
1F
100
AcDbEntity
  8
0
  6
CONTINUOUS
 62
     7
100
AcDbLine
 10
2.8148250798
 20
6.0223708397
 30
0.0
 11
2.775455001
 21
6.0223708397
 31
0.0
  0
LINE
  5
190
330
1F
100
AcDbEntity
  8
0
  6
CONTINUOUS
 62
     7
100
AcDbLine
 10
2.8148250798
 20
7.6562291074
 30
0.0
 11
2.8148250798
 21
6.0223708397
 31
0.0
  0
LINE
  5
191
330
1F
100
AcDbEntity
  8
0
  6
CONTINUOUS
 62
     7
100
AcDbLine
 10
3.8778172057
 20
5.7463615527
 30
0.0
 11
3.8778172057
 21
5.6877251704
 31
0.0
  0
LINE
  5
192
330
1F
100
AcDbEntity
  8
0
  6
CONTINUOUS
 62
     7
100
AcDbLine
 10
3.838447127
 20
5.7463615527
 30
0.0
 11
3.8778172057
 21
5.7463615527
 31
0.0
  0
LINE
  5
193
330
1F
100
AcDbEntity
  8
0
  6
CONTINUOUS
 62
     7
100
AcDbLine
 10
3.838447127
 20
7.5975927252
 30
0.0
 11
3.838447127
 21
7.6562291074
 31
0.0
  0
LINE
  5
194
330
1F
100
AcDbEntity
  8
0
  6
CONTINUOUS
 62
     7
100
AcDbLine
 10
3.838447127
 20
5.6877251704
 30
0.0
 11
3.838447127
 21
5.7463615527
 31
0.0
  0
LINE
  5
195
330
1F
100
AcDbEntity
  8
0
  6
CONTINUOUS
 62
     7
100
AcDbLine
 10
3.8778172057
 20
7.5975927252
 30
0.0
 11
3.838447127
 21
7.5975927252
 31
0.0
  0
LINE
  5
196
330
1F
100
AcDbEntity
  8
0
  6
CONTINUOUS
 62
     7
100
AcDbLine
 10
3.8778172057
 20
7.6562291074
 30
0.0
 11
3.8778172057
 21
7.5975927252
 31
0.0
  0
LINE
  5
197
330
1F
100
AcDbEntity
  8
0
  6
CONTINUOUS
 62
     7
100
AcDbLine
 10
4.5271085443
 20
5.6877251704
 30
0.0
 11
4.5271085443
 21
7.6562291074
 31
0.0
  0
SPLINE
  5
198
330
1F
100
AcDbEntity
  8
0
  6
CONTINUOUS
 62
     7
100
AcDbSpline
210
0.0
220
0.0
230
1.0
 70
     8
 71
     3
 72
    46
 73
    42
 74
     0
 42
0.00000001
 43
0.00000001
 40
-0.03125
 40
-0.03125
 40
0.0
 40
0.0
 40
0.0624999999999998
 40
0.0624999999999998
 40
0.1249999999999996
 40
0.1249999999999996
 40
0.1874999999999994
 40
0.1874999999999994
 40
0.2499999999999992
 40
0.2499999999999992
 40
0.312499999999999
 40
0.312499999999999
 40
0.3749999999999988
 40
0.3749999999999988
 40
0.4062499999999987
 40
0.4062499999999987
 40
0.4374999999999987
 40
0.4374999999999987
 40
0.4687499999999986
 40
0.4687499999999986
 40
0.4999999999999984
 40
0.4999999999999984
 40
0.5624999999999987
 40
0.5624999999999987
 40
0.6249999999999989
 40
0.6249999999999989
 40
0.6874999999999992
 40
0.6874999999999992
 40
0.7499999999999994
 40
0.7499999999999994
 40
0.8124999999999997
 40
0.8124999999999997
 40
0.8749999999999999
 40
0.8749999999999999
 40
0.90625
 40
0.90625
 40
0.9375
 40
0.9375
 40
0.96875
 40
0.96875
 40
1.0
 40
1.0
 40
1.0625
 40
1.0625
 10
2.430294958278242
 20
7.455035391106104
 30
0.0
 10
2.461838078636543
 20
7.455035391106104
 30
0.0
 10
2.481663299687238
 20
7.449961842202102
 30
0.0
 10
2.514804428220478
 20
7.434222584125089
 30
0.0
 10
2.528076357561068
 20
7.423923274099002
 30
0.0
 10
2.54977094865801
 20
7.400547592201864
 30
0.0
 10
2.557914906788042
 20
7.387753741397201
 30
0.0
 10
2.569805909961519
 20
7.359984913581648
 30
0.0
 10
2.573388813029276
 20
7.345155194725412
 30
0.0
 10
2.575379573785594
 20
7.314610791104762
 30
0.0
 10
2.573755007568566
 20
7.298536287339283
 30
0.0
 10
2.5643531026357
 20
7.267102204512053
 30
0.0
 10
2.556412442241991
 20
7.251307573618694
 30
0.0
 10
2.539376349215789
 20
7.230157739588871
 30
0.0
 10
2.532726375149152
 20
7.223400703534089
 30
0.0
 10
2.517937365595134
 20
7.211358010559688
 30
0.0
 10
2.509839424083579
 20
7.206061931501067
 30
0.0
 10
2.492096243575789
 20
7.197135542751635
 30
0.0
 10
2.482391462525339
 20
7.193533541023932
 30
0.0
 10
2.462582176806431
 20
7.188708633031101
 30
0.0
 10
2.452177693433879
 20
7.187397316501259
 30
0.0
 10
2.420966889507485
 20
7.187172364168431
 30
0.0
 10
2.4003080457665
 20
7.192031833032688
 30
0.0
 10
2.364294289936134
 20
7.209533455565234
 30
0.0
 10
2.348973213758788
 20
7.222093178799732
 30
0.0
 10
2.325788761275106
 20
7.250312682294702
 30
0.0
 10
2.31770636819778
 20
7.266069224680162
 30
0.0
 10
2.307999096089152
 20
7.297668370985748
 30
0.0
 10
2.306271765006174
 20
7.313750273667712
 30
0.0
 10
2.308103685445182
 20
7.34451649786472
 30
0.0
 10
2.311674026700358
 20
7.359502500419597
 30
0.0
 10
2.323415747282693
 20
7.387233976631524
 30
0.0
 10
2.331709740977524
 20
7.400342217414889
 30
0.0
 10
2.347859348627884
 20
7.417827450454904
 30
0.0
 10
2.353849894366066
 20
7.423291286970388
 30
0.0
 10
2.367362237685245
 20
7.433403548650602
 30
0.0
 10
2.374885093958583
 20
7.438032528279955
 30
0.0
 10
2.391341876894955
 20
7.445893448263318
 30
0.0
 10
2.40048814473816
 20
7.449205077342116
 30
0.0
 10
2.419851680697611
 20
7.453758162671021
 30
0.0
 10
2.430294958278242
 20
7.455035391106104
 30
0.0
 10
2.461838078636543
 20
7.455035391106104
 30
0.0
  0
LINE
  5
199
330
1F
100
AcDbEntity
  8
0
  6
CONTINUOUS
 62
     7
100
AcDbLine
 10
2.1061636624
 20
7.6360281531
 30
0.0
 11
2.1261636624
 21
7.6560322373
 31
0.0
  0
LINE
  5
19A
330
1F
100
AcDbEntity
  8
0
  6
CONTINUOUS
 62
     7
100
AcDbLine
 10
2.1061636624
 20
5.7077251704
 30
0.0
 11
2.1061636624
 21
7.6360281531
 31
0.0
  0
LINE
  5
19B
330
1F
100
AcDbEntity
  8
0
  6
CONTINUOUS
 62
     7
100
AcDbLine
 10
4.5471085443
 20
7.6362291074
 30
0.0
 11
4.5471085443
 21
5.7077251704
 31
0.0
  0
LINE
  5
19C
330
1F
100
AcDbEntity
  8
0
  6
CONTINUOUS
 62
     7
100
AcDbLine
 10
2.4408093317
 20
7.1873188557
 30
0.0
 11
2.4430991539
 21
7.1873384423
 31
0.0
  0
ARC
  5
19D
330
1F
100
AcDbEntity
  8
0
  6
CONTINUOUS
 62
     7
100
AcDbCircle
 10
2.4408093317
 20
7.3211771234
 30
0.0
 40
0.1338582677165356
100
AcDbArc
 50
83.735241885
 51
98.4794120174
  0
LINE
  5
19E
330
1F
100
AcDbEntity
  8
0
  6
CONTINUOUS
 62
     7
100
AcDbLine
 10
2.4372767849
 20
7.1873654761
 30
0.0
 11
2.4408093317
 21
7.1873188557
 31
0.0
  0
CIRCLE
  5
19F
330
1F
100
AcDbEntity
  8
0
  6
CONTINUOUS
 62
     7
100
AcDbCircle
 10
2.4408093317
 20
7.3211771234
 30
0.0
 40
0.1023622047244102
  0
CIRCLE
  5
1A0
330
1F
100
AcDbEntity
  8
0
  6
CONTINUOUS
 62
     7
100
AcDbCircle
 10
2.4408093317
 20
7.3211771234
 30
0.0
 40
0.1181102362204722
  0
SPLINE
  5
1A1
330
1F
100
AcDbEntity
  8
0
  6
HIDDEN
 62
     7
100
AcDbSpline
210
0.0
220
0.0
230
1.0
 70
     8
 71
     3
 72
    72
 73
    68
 74
     0
 42
0.00000001
 43
0.00000001
 40
-0.0312499999999999
 40
-0.0312499999999999
 40
0.0
 40
0.0
 40
0.0625000000000003
 40
0.0625000000000003
 40
0.1250000000000006
 40
0.1250000000000006
 40
0.1562500000000008
 40
0.1562500000000008
 40
0.1875000000000009
 40
0.1875000000000009
 40
0.218750000000001
 40
0.218750000000001
 40
0.2500000000000012
 40
0.2500000000000012
 40
0.2656250000000011
 40
0.2656250000000011
 40
0.2812500000000011
 40
0.2812500000000011
 40
0.2968750000000011
 40
0.2968750000000011
 40
0.3125000000000011
 40
0.3125000000000011
 40
0.328125000000001
 40
0.328125000000001
 40
0.343750000000001
 40
0.343750000000001
 40
0.3750000000000009
 40
0.3750000000000009
 40
0.4375000000000009
 40
0.4375000000000009
 40
0.4687500000000009
 40
0.4687500000000009
 40
0.5000000000000009
 40
0.5000000000000009
 40
0.5312500000000009
 40
0.5312500000000009
 40
0.5625000000000009
 40
0.5625000000000009
 40
0.5937500000000008
 40
0.5937500000000008
 40
0.6250000000000008
 40
0.6250000000000008
 40
0.6562500000000007
 40
0.6562500000000007
 40
0.6875000000000007
 40
0.6875000000000007
 40
0.7031250000000006
 40
0.7031250000000006
 40
0.7187500000000006
 40
0.7187500000000006
 40
0.7500000000000004
 40
0.7500000000000004
 40
0.7812500000000004
 40
0.7812500000000004
 40
0.8125000000000003
 40
0.8125000000000003
 40
0.8437500000000003
 40
0.8437500000000003
 40
0.8750000000000002
 40
0.8750000000000002
 40
0.9062500000000002
 40
0.9062500000000002
 40
0.9375000000000001
 40
0.9375000000000001
 40
0.9687500000000001
 40
0.9687500000000001
 40
1.0
 40
1.0
 40
1.0625
 40
1.0625
 10
4.46836838684912
 20
5.918502084554677
 30
0.0
 10
4.468368386849119
 20
5.959553043280612
 30
0.0
 10
4.462852984406891
 20
5.988294440092795
 30
0.0
 10
4.443613161177733
 20
6.048450127436172
 30
0.0
 10
4.430105144165662
 20
6.079100763027718
 30
0.0
 10
4.404721539349739
 20
6.125232577345314
 30
0.0
 10
4.395326335043717
 20
6.140725613571717
 30
0.0
 10
4.374794251498662
 20
6.17119030385035
 30
0.0
 10
4.363672797077041
 20
6.18617831254
 30
0.0
 10
4.33916283429848
 20
6.215237621314166
 30
0.0
 10
4.325694021523681
 20
6.2294230101947
 30
0.0
 10
4.295811865256619
 20
6.255036242617662
 30
0.0
 10
4.279126855522816
 20
6.266729131062117
 30
0.0
 10
4.251176854027626
 20
6.278838958267993
 30
0.0
 10
4.24119233780091
 20
6.28197965688311
 30
0.0
 10
4.220906588311198
 20
6.28542072120901
 30
0.0
 10
4.210354888569071
 20
6.285738649174081
 30
0.0
 10
4.189834239199834
 20
6.283419504012543
 30
0.0
 10
4.179764319105833
 20
6.280812487051933
 30
0.0
 10
4.160623322914093
 20
6.273492352539935
 30
0.0
 10
4.151662173880135
 20
6.26886868464627
 30
0.0
 10
4.134582826676651
 20
6.258325951478991
 30
0.0
 10
4.126453436916039
 20
6.252378481742704
 30
0.0
 10
4.111213314929543
 20
6.239893671942988
 30
0.0
 10
4.104036979081931
 20
6.23331461431884
 30
0.0
 10
4.083489850116323
 20
6.212889412679035
 30
0.0
 10
4.071013225802855
 20
6.198277667138135
 30
0.0
 10
4.036797618146959
 20
6.15371089119383
 30
0.0
 10
4.018141769943361
 20
6.123163324734905
 30
0.0
 10
3.994815364921293
 20
6.077254775690374
 30
0.0
 10
3.987826584487918
 20
6.061821701253466
 30
0.0
 10
3.975841448925498
 20
6.031523489187537
 30
0.0
 10
3.970826938311154
 20
6.016646194963748
 30
0.0
 10
3.962890221253189
 20
5.987455337896712
 30
0.0
 10
3.959966252285363
 20
5.973141682530839
 30
0.0
 10
3.956551256141174
 20
5.94508826962254
 30
0.0
 10
3.956071734578986
 20
5.931227205364824
 30
0.0
 10
3.958111352805106
 20
5.904780422758042
 30
0.0
 10
3.960597447886995
 20
5.892205892143819
 30
0.0
 10
3.96900769376634
 20
5.868330462540555
 30
0.0
 10
3.975026476670156
 20
5.856937707267886
 30
0.0
 10
3.990709127853064
 20
5.836242239686059
 30
0.0
 10
4.000360480234238
 20
5.826848477285473
 30
0.0
 10
4.023889764025125
 20
5.80985551644712
 30
0.0
 10
4.037484019269071
 20
5.802494411589938
 30
0.0
 10
4.060298280042948
 20
5.793139327964059
 30
0.0
 10
4.068329859864408
 20
5.790289292579589
 30
0.0
 10
4.08530150751283
 20
5.785103915361429
 30
0.0
 10
4.094249077716565
 20
5.782774385380291
 30
0.0
 10
4.12163971763163
 20
5.776724951692128
 30
0.0
 10
4.140887361894144
 20
5.773836877426852
 30
0.0
 10
4.181457065409754
 20
5.770161971042308
 30
0.0
 10
4.202027359090623
 20
5.769449864188469
 30
0.0
 10
4.24317704837643
 20
5.770161549314356
 30
0.0
 10
4.263872308600088
 20
5.771622871307841
 30
0.0
 10
4.303043660405297
 20
5.776704385954507
 30
0.0
 10
4.322079406551081
 20
5.780401760140361
 30
0.0
 10
4.356869931007187
 20
5.789979982828938
 30
0.0
 10
4.372809235466947
 20
5.795876665896249
 30
0.0
 10
4.401341948330082
 20
5.810038667167527
 30
0.0
 10
4.413572732480614
 20
5.818106290985066
 30
0.0
 10
4.434416632446328
 20
5.836415301428065
 30
0.0
 10
4.442918539208045
 20
5.846626306020791
 30
0.0
 10
4.456051360382403
 20
5.868523162466665
 30
0.0
 10
4.460808515766706
 20
5.880397278759303
 30
0.0
 10
4.466953963737978
 20
5.905398899022668
 30
0.0
 10
4.46836838684912
 20
5.918502084554677
 30
0.0
 10
4.468368386849119
 20
5.959553043280612
 30
0.0
  0
SPLINE
  5
1A2
330
1F
100
AcDbEntity
  8
0
  6
HIDDEN
 62
     7
100
AcDbSpline
210
0.0
220
0.0
230
1.0
 70
     8
 71
     3
 72
    50
 73
    46
 74
     0
 42
0.00000001
 43
0.00000001
 40
-0.0624999999999993
 40
-0.0624999999999993
 40
0.0
 40
0.0
 40
0.0625
 40
0.0625
 40
0.125
 40
0.125
 40
0.1562500000000002
 40
0.1562500000000002
 40
0.1875000000000003
 40
0.1875000000000003
 40
0.2187500000000005
 40
0.2187500000000005
 40
0.2500000000000007
 40
0.2500000000000007
 40
0.3125000000000014
 40
0.3125000000000014
 40
0.3437500000000016
 40
0.3437500000000016
 40
0.3750000000000018
 40
0.3750000000000018
 40
0.4375000000000022
 40
0.4375000000000022
 40
0.5000000000000024
 40
0.5000000000000024
 40
0.5625000000000023
 40
0.5625000000000023
 40
0.6250000000000022
 40
0.6250000000000022
 40
0.6875000000000021
 40
0.6875000000000021
 40
0.718750000000002
 40
0.718750000000002
 40
0.7500000000000019
 40
0.7500000000000019
 40
0.7812500000000018
 40
0.7812500000000018
 40
0.8125000000000017
 40
0.8125000000000017
 40
0.8437500000000014
 40
0.8437500000000014
 40
0.8750000000000012
 40
0.8750000000000012
 40
0.9375000000000007
 40
0.9375000000000007
 40
1.0
 40
1.0
 40
1.0625
 40
1.0625
 10
4.346321142754631
 20
7.398036534817736
 30
0.0
 10
4.346321142754631
 20
7.425500545921324
 30
0.0
 10
4.343666836458448
 20
7.43844753704124
 30
0.0
 10
4.331823845841049
 20
7.462783537037065
 30
0.0
 10
4.322736307008396
 20
7.473795219548173
 30
0.0
 10
4.303568043322831
 20
7.487798090261124
 30
0.0
 10
4.296417715748644
 20
7.491930197684878
 30
0.0
 10
4.28045100328418
 20
7.499133483729221
 30
0.0
 10
4.271559489305378
 20
7.502201729365932
 30
0.0
 10
4.25296093271362
 20
7.506901539586883
 30
0.0
 10
4.243040697641594
 20
7.508604603037459
 30
0.0
 10
4.222533058137714
 20
7.510548660079672
 30
0.0
 10
4.212228763720437
 20
7.510779966844381
 30
0.0
 10
4.181164252786331
 20
7.50926331509365
 30
0.0
 10
4.161073197562293
 20
7.505205522982599
 30
0.0
 10
4.135719433337844
 20
7.495490089176907
 30
0.0
 10
4.127921556351289
 20
7.491609736596341
 30
0.0
 10
4.114155317122039
 20
7.482903330366491
 30
0.0
 10
4.108170412421736
 20
7.478095702356886
 30
0.0
 10
4.092624565399621
 20
7.462310618037223
 30
0.0
 10
4.085860417247789
 20
7.45033391779157
 30
0.0
 10
4.078414882900231
 20
7.42466645074854
 30
0.0
 10
4.077736118872317
 20
7.411031152922179
 30
0.0
 10
4.081482405383079
 20
7.383122407578455
 30
0.0
 10
4.085837997978611
 20
7.368987948302065
 30
0.0
 10
4.099434114178064
 20
7.340640442426891
 30
0.0
 10
4.108387994734513
 20
7.32693038146305
 30
0.0
 10
4.131616221594356
 20
7.301150354582012
 30
0.0
 10
4.146067134338003
 20
7.288928434607845
 30
0.0
 10
4.172611561506821
 20
7.275735417195421
 30
0.0
 10
4.182083662939076
 20
7.272311998189075
 30
0.0
 10
4.202460107930925
 20
7.268250743439188
 30
0.0
 10
4.212761577805457
 20
7.267741872747777
 30
0.0
 10
4.233602624739806
 20
7.269937284955692
 30
0.0
 10
4.243570106459627
 20
7.272602399371605
 30
0.0
 10
4.262184279697583
 20
7.280178930126604
 30
0.0
 10
4.270582918480591
 20
7.284945654321155
 30
0.0
 10
4.286082711967039
 20
7.295794593312654
 30
0.0
 10
4.293066498278178
 20
7.301821125852054
 30
0.0
 10
4.305547537025415
 20
7.314384524551605
 30
0.0
 10
4.311109092742301
 20
7.320976646015815
 30
0.0
 10
4.326062705931524
 20
7.341444800686812
 30
0.0
 10
4.333429522616441
 20
7.355523344149307
 30
0.0
 10
4.343572163842031
 20
7.38374199054064
 30
0.0
 10
4.346321142754631
 20
7.398036534817736
 30
0.0
 10
4.346321142754631
 20
7.425500545921324
 30
0.0
  0
LINE
  5
1A3
330
1F
100
AcDbEntity
  8
0
  6
HIDDEN
 62
     7
100
AcDbLine
 10
4.5471085443
 20
6.6522920995
 30
0.0
 11
4.5271085443
 21
6.6522920995
 31
0.0
  0
LINE
  5
1A4
330
1F
100
AcDbEntity
  8
0
  6
HIDDEN
 62
     7
100
AcDbLine
 10
4.5471085443
 20
6.6916621783
 30
0.0
 11
4.5271085443
 21
6.6916621783
 31
0.0
  0
LINE
  5
1A5
330
1F
100
AcDbEntity
  8
0
  6
HIDDEN
 62
     7
100
AcDbLine
 10
2.1261636624
 20
6.9863220094
 30
0.0
 11
2.1061636624
 21
7.0063588412
 31
0.0
  0
LINE
  5
1A6
330
1F
100
AcDbEntity
  8
0
  6
HIDDEN
 62
     7
100
AcDbLine
 10
3.838447127
 20
5.7463615527
 30
0.0
 11
3.838447127
 21
7.5975927252
 31
0.0
  0
LINE
  5
1A7
330
1F
100
AcDbEntity
  8
0
  6
HIDDEN
 62
     7
100
AcDbLine
 10
3.8778172057
 20
5.7463615527
 30
0.0
 11
3.8778172057
 21
7.5975927252
 31
0.0
  0
LINE
  5
1A8
330
1F
100
AcDbEntity
  8
0
  6
HIDDEN
 62
     7
100
AcDbLine
 10
2.1261636624
 20
6.9863220094
 30
0.0
 11
2.775455001
 21
6.9863220094
 31
0.0
  0
LINE
  5
1A9
330
1F
100
AcDbEntity
  8
0
  6
HIDDEN
 62
     7
100
AcDbLine
 10
3.8778172057
 20
6.6522920995
 30
0.0
 11
4.5271085443
 21
6.6522920995
 31
0.0
  0
LINE
  5
1AA
330
1F
100
AcDbEntity
  8
0
  6
HIDDEN
 62
     7
100
AcDbLine
 10
3.8778172057
 20
6.6916621783
 30
0.0
 11
4.5271085443
 21
6.6916621783
 31
0.0
  0
CIRCLE
  5
1AB
330
1F
100
AcDbEntity
  8
0
  6
HIDDEN
 62
     7
100
AcDbCircle
 10
2.4408093317
 20
7.3211771234
 30
0.0
 40
0.2559055118110241
  0
LINE
  5
1AC
330
1F
100
AcDbEntity
  8
0
  6
HIDDEN
 62
     7
100
AcDbLine
 10
4.4683683868
 20
6.3176464303
 30
0.0
 11
3.9565573632
 21
6.3176464303
 31
0.0
  0
LINE
  5
1AD
330
1F
100
AcDbEntity
  8
0
  6
HIDDEN
 62
     7
100
AcDbLine
 10
4.4289983081
 20
6.3018983988
 30
0.0
 11
3.995927442
 21
6.3018983988
 31
0.0
  0
LINE
  5
1AE
330
1F
100
AcDbEntity
  8
0
  6
HIDDEN
 62
     7
100
AcDbLine
 10
3.995927442
 20
6.0971739893
 30
0.0
 11
4.4289983081
 21
6.0971739893
 31
0.0
  0
LINE
  5
1AF
330
1F
100
AcDbEntity
  8
0
  6
HIDDEN
 62
     7
100
AcDbLine
 10
4.4132502766
 20
6.0814259578
 30
0.0
 11
4.0116754735
 21
6.0814259578
 31
0.0
  0
LINE
  5
1B0
330
1F
100
AcDbEntity
  8
0
  6
HIDDEN
 62
     7
100
AcDbLine
 10
4.1101006703
 20
7.3806385562
 30
0.0
 11
4.3148250798
 21
7.3806385562
 31
0.0
  0
LINE
  5
1B1
330
1F
100
AcDbEntity
  8
0
  6
HIDDEN
 62
     7
100
AcDbLine
 10
4.3305731113
 20
7.3648905247
 30
0.0
 11
4.0943526388
 21
7.3648905247
 31
0.0
  0
LINE
  5
1B2
330
1F
100
AcDbEntity
  8
0
  6
HIDDEN
 62
     7
100
AcDbLine
 10
4.212462875
 20
6.199536194
 30
0.0
 11
4.212462875
 21
6.0814259578
 31
0.0
  0
LINE
  5
1B3
330
1F
100
AcDbEntity
  8
0
  6
HIDDEN
 62
     7
100
AcDbLine
 10
4.3108880719
 20
6.199536194
 30
0.0
 11
4.212462875
 21
6.199536194
 31
0.0
  0
LINE
  5
1B4
330
1F
100
AcDbEntity
  8
0
  6
HIDDEN
 62
     7
100
AcDbLine
 10
4.212462875
 20
6.199536194
 30
0.0
 11
4.1140376782
 21
6.199536194
 31
0.0
  0
LINE
  5
1B5
330
1F
100
AcDbEntity
  8
0
  6
HIDDEN
 62
     7
100
AcDbLine
 10
4.3108880719
 20
6.199536194
 30
0.0
 11
4.3108880719
 21
6.0814259578
 31
0.0
  0
LINE
  5
1B6
330
1F
100
AcDbEntity
  8
0
  6
HIDDEN
 62
     7
100
AcDbLine
 10
4.1140376782
 20
6.199536194
 30
0.0
 11
4.1140376782
 21
6.0814259578
 31
0.0
  0
CIRCLE
  5
1B7
330
1F
100
AcDbEntity
  8
0
  6
HIDDEN
 62
     7
100
AcDbCircle
 10
2.4408093317
 20
7.3211771234
 30
0.0
 40
0.2165354330708662
  0
CIRCLE
  5
1B8
330
1F
100
AcDbEntity
  8
0
  6
HIDDEN
 62
     7
100
AcDbCircle
 10
2.4408093317
 20
7.3211771234
 30
0.0
 40
0.2007874015748023
  0
LINE
  5
1B9
330
1F
100
AcDbEntity
  8
0
  6
HIDDEN
 62
     7
100
AcDbLine
 10
2.4408093317
 20
7.4348287512
 30
0.0
 11
2.3423841349
 21
7.3780029373
 31
0.0
  0
LINE
  5
1BA
330
1F
100
AcDbEntity
  8
0
  6
HIDDEN
 62
     7
100
AcDbLine
 10
2.5392345286
 20
7.3780029373
 30
0.0
 11
2.4408093317
 21
7.4348287512
 31
0.0
  0
LINE
  5
1BB
330
1F
100
AcDbEntity
  8
0
  6
HIDDEN
 62
     7
100
AcDbLine
 10
2.5392345286
 20
7.2643513095
 30
0.0
 11
2.5392345286
 21
7.3780029373
 31
0.0
  0
LINE
  5
1BC
330
1F
100
AcDbEntity
  8
0
  6
HIDDEN
 62
     7
100
AcDbLine
 10
2.3423841349
 20
7.3780029373
 30
0.0
 11
2.3423841349
 21
7.2643513095
 31
0.0
  0
LINE
  5
1BD
330
1F
100
AcDbEntity
  8
0
  6
HIDDEN
 62
     7
100
AcDbLine
 10
2.4408093317
 20
7.2075254956
 30
0.0
 11
2.5392345286
 21
7.2643513095
 31
0.0
  0
LINE
  5
1BE
330
1F
100
AcDbEntity
  8
0
  6
HIDDEN
 62
     7
100
AcDbLine
 10
2.3423841349
 20
7.2643513095
 30
0.0
 11
2.4408093317
 21
7.2075254956
 31
0.0
  0
LINE
  5
1BF
330
1F
100
AcDbEntity
  8
0
  6
HIDDEN
 62
     7
100
AcDbLine
 10
4.5471085443
 20
7.0069377688
 30
0.0
 11
4.5271085443
 21
6.9869377688
 31
0.0
  0
LINE
  5
1C0
330
1F
100
AcDbEntity
  8
0
  6
HIDDEN
 62
     7
100
AcDbLine
 10
4.5271085443
 20
6.357016509
 30
0.0
 11
4.5471085443
 21
6.337016509
 31
0.0
  0
LINE
  5
1C1
330
1F
100
AcDbEntity
  8
0
  6
HIDDEN
 62
     7
100
AcDbLine
 10
2.1061636624
 20
6.337016509
 30
0.0
 11
2.1261636624
 21
6.357016509
 31
0.0
  0
LINE
  5
1C2
330
1F
100
AcDbEntity
  8
0
  6
HIDDEN
 62
     7
100
AcDbLine
 10
3.838447127
 20
6.9869377688
 30
0.0
 11
2.8148250798
 21
6.9869377688
 31
0.0
  0
LINE
  5
1C3
330
1F
100
AcDbEntity
  8
0
  6
HIDDEN
 62
     7
100
AcDbLine
 10
2.8148250798
 20
6.357016509
 30
0.0
 11
3.838447127
 21
6.357016509
 31
0.0
  0
LINE
  5
1C4
330
1F
100
AcDbEntity
  8
0
  6
HIDDEN
 62
     7
100
AcDbLine
 10
2.1261636624
 20
6.357016509
 30
0.0
 11
2.775455001
 21
6.357016509
 31
0.0
  0
LINE
  5
1C5
330
1F
100
AcDbEntity
  8
0
  6
HIDDEN
 62
     7
100
AcDbLine
 10
4.5271085443
 20
6.9869377688
 30
0.0
 11
3.8778172057
 21
6.9869377688
 31
0.0
  0
LINE
  5
1C6
330
1F
100
AcDbEntity
  8
0
  6
HIDDEN
 62
     7
100
AcDbLine
 10
3.8778172057
 20
6.357016509
 30
0.0
 11
4.5271085443
 21
6.357016509
 31
0.0
  0
LINE
  5
1C7
330
1F
100
AcDbEntity
  8
0
  6
HIDDEN
 62
     7
100
AcDbLine
 10
4.4683683868
 20
5.9321857375
 30
0.0
 11
4.4683683868
 21
6.3176464303
 31
0.0
  0
LINE
  5
1C8
330
1F
100
AcDbEntity
  8
0
  6
HIDDEN
 62
     7
100
AcDbLine
 10
3.9565573632
 20
6.3176464303
 30
0.0
 11
3.9565573632
 21
5.9322753804
 31
0.0
  0
LINE
  5
1C9
330
1F
100
AcDbEntity
  8
0
  6
HIDDEN
 62
     7
100
AcDbLine
 10
4.3463211428
 20
6.6916621783
 30
0.0
 11
4.3463211428
 21
7.4117685404
 31
0.0
  0
LINE
  5
1CA
330
1F
100
AcDbEntity
  8
0
  6
HIDDEN
 62
     7
100
AcDbLine
 10
4.0786046073
 20
7.4116226293
 30
0.0
 11
4.0786046073
 21
6.6916621783
 31
0.0
  0
LINE
  5
1CB
330
1F
100
AcDbEntity
  8
0
  6
HIDDEN
 62
     7
100
AcDbLine
 10
4.3463211428
 20
6.3176464303
 30
0.0
 11
4.3463211428
 21
6.6522920995
 31
0.0
  0
LINE
  5
1CC
330
1F
100
AcDbEntity
  8
0
  6
HIDDEN
 62
     7
100
AcDbLine
 10
4.0786046073
 20
6.6522920995
 30
0.0
 11
4.0786046073
 21
6.3176464303
 31
0.0
  0
LINE
  5
1CD
330
1F
100
AcDbEntity
  8
0
  6
HIDDEN
 62
     7
100
AcDbLine
 10
4.4289983081
 20
6.3018983988
 30
0.0
 11
4.4132502766
 21
6.3176464303
 31
0.0
  0
LINE
  5
1CE
330
1F
100
AcDbEntity
  8
0
  6
HIDDEN
 62
     7
100
AcDbLine
 10
4.0116754735
 20
6.3176464303
 30
0.0
 11
3.995927442
 21
6.3018983988
 31
0.0
  0
LINE
  5
1CF
330
1F
100
AcDbEntity
  8
0
  6
HIDDEN
 62
     7
100
AcDbLine
 10
3.995927442
 20
6.3018983988
 30
0.0
 11
3.995927442
 21
6.0971739893
 31
0.0
  0
LINE
  5
1D0
330
1F
100
AcDbEntity
  8
0
  6
HIDDEN
 62
     7
100
AcDbLine
 10
4.4289983081
 20
6.0971739893
 30
0.0
 11
4.4289983081
 21
6.3018983988
 31
0.0
  0
LINE
  5
1D1
330
1F
100
AcDbEntity
  8
0
  6
HIDDEN
 62
     7
100
AcDbLine
 10
3.995927442
 20
6.0971739893
 30
0.0
 11
4.0116754735
 21
6.0814259578
 31
0.0
  0
LINE
  5
1D2
330
1F
100
AcDbEntity
  8
0
  6
HIDDEN
 62
     7
100
AcDbLine
 10
4.4132502766
 20
6.0814259578
 30
0.0
 11
4.4289983081
 21
6.0971739893
 31
0.0
  0
LINE
  5
1D3
330
1F
100
AcDbEntity
  8
0
  6
HIDDEN
 62
     7
100
AcDbLine
 10
4.3305731113
 20
7.3648905247
 30
0.0
 11
4.3148250798
 21
7.3806385562
 31
0.0
  0
LINE
  5
1D4
330
1F
100
AcDbEntity
  8
0
  6
HIDDEN
 62
     7
100
AcDbLine
 10
4.1101006703
 20
7.3806385562
 30
0.0
 11
4.0943526388
 21
7.3648905247
 31
0.0
  0
LINE
  5
1D5
330
1F
100
AcDbEntity
  8
0
  6
HIDDEN
 62
     7
100
AcDbLine
 10
4.3305731113
 20
6.3176464303
 30
0.0
 11
4.3305731113
 21
7.3648905247
 31
0.0
  0
LINE
  5
1D6
330
1F
100
AcDbEntity
  8
0
  6
HIDDEN
 62
     7
100
AcDbLine
 10
4.0943526388
 20
7.3648905247
 30
0.0
 11
4.0943526388
 21
6.3176464303
 31
0.0
  0
LINE
  5
1D7
330
1F
100
AcDbEntity
  8
0
  6
CONTINUOUS
 62
     7
100
AcDbLine
 10
9.7183738339
 20
6.7478567433
 30
0.0
 11
9.7183738339
 21
6.7641849055
 31
0.0
  0
LINE
  5
1D8
330
1F
100
AcDbEntity
  8
0
  6
CONTINUOUS
 62
     7
100
AcDbLine
 10
8.4857188288
 20
5.5357447088
 30
0.0
 11
8.5303166021
 21
5.5099989623
 31
0.0
  0
LINE
  5
1D9
330
1F
100
AcDbEntity
  8
0
  6
CONTINUOUS
 62
     7
100
AcDbLine
 10
8.0711982937
 20
5.7750423202
 30
0.0
 11
8.1302925486
 21
5.7409279329
 31
0.0
  0
LINE
  5
1DA
330
1F
100
AcDbEntity
  8
0
  6
CONTINUOUS
 62
     7
100
AcDbLine
 10
6.8325921949
 20
6.4900744011
 30
0.0
 11
8.043359444
 21
5.791113346
 31
0.0
  0
LINE
  5
1DB
330
1F
100
AcDbEntity
  8
0
  6
CONTINUOUS
 62
     7
100
AcDbLine
 10
7.9509769744
 20
8.1174155969
 30
0.0
 11
7.8167641759
 21
8.1948949964
 31
0.0
  0
LINE
  5
1DC
330
1F
100
AcDbEntity
  8
0
  6
CONTINUOUS
 62
     7
100
AcDbLine
 10
8.2758824843
 20
7.9298516385
 30
0.0
 11
8.1277767776
 21
8.0153512431
 31
0.0
  0
LINE
  5
1DD
330
1F
100
AcDbEntity
  8
0
  6
CONTINUOUS
 62
     7
100
AcDbLine
 10
9.5144885831
 20
7.2148195576
 30
0.0
 11
8.303721334
 21
7.9137806127
 31
0.0
  0
LINE
  5
1DE
330
1F
100
AcDbEntity
  8
0
  6
CONTINUOUS
 62
     7
100
AcDbLine
 10
7.3245650705
 20
8.1461012897
 30
0.0
 11
7.3104252334
 21
8.1379358817
 31
0.0
  0
LINE
  5
1DF
330
1F
100
AcDbEntity
  8
0
  6
CONTINUOUS
 62
     7
100
AcDbLine
 10
6.6287069441
 20
6.9570372154
 30
0.0
 11
6.6287069441
 21
6.9407090532
 31
0.0
  0
LINE
  5
1E0
330
1F
100
AcDbEntity
  8
0
  6
CONTINUOUS
 62
     7
100
AcDbLine
 10
8.382308686
 20
5.555747444
 30
0.0
 11
8.393442416
 21
5.5493179889
 31
0.0
  0
LINE
  5
1E1
330
1F
100
AcDbEntity
  8
0
  6
CONTINUOUS
 62
     7
100
AcDbLine
 10
8.0897501026
 20
8.0930484279
 30
0.0
 11
8.0786127534
 21
8.0994799727
 31
0.0
  0
LINE
  5
1E2
330
1F
100
AcDbEntity
  8
0
  6
CONTINUOUS
 62
     7
100
AcDbLine
 10
7.933827213
 20
8.0994799727
 30
0.0
 11
7.9318084614
 21
8.0983141934
 31
0.0
  0
LINE
  5
1E3
330
1F
100
AcDbEntity
  8
0
  6
CONTINUOUS
 62
     7
100
AcDbLine
 10
8.1243302194
 20
8.0171598834
 30
0.0
 11
8.1243302194
 21
8.0448431858
 31
0.0
  0
POLYLINE
  5
1E4
330
1F
100
AcDbEntity
  8
0
  6
CONTINUOUS
 62
     7
100
AcDb2dPolyline
 66
     1
 10
0.0
 20
0.0
 30
0.0
  0
VERTEX
  5
20F
330
1E4
100
AcDbEntity
  8
0
  6
CONTINUOUS
 62
     7
100
AcDbVertex
100
AcDb2dVertex
 10
9.0504641531
 20
5.5750936939
 30
0.0
  0
VERTEX
  5
210
330
1E4
100
AcDbEntity
  8
0
  6
CONTINUOUS
 62
     7
100
AcDbVertex
100
AcDb2dVertex
 10
9.0855980594
 20
5.5972522479
 30
0.0
  0
VERTEX
  5
211
330
1E4
100
AcDbEntity
  8
0
  6
CONTINUOUS
 62
     7
100
AcDbVertex
100
AcDb2dVertex
 10
9.1206014394
 20
5.6214250891
 30
0.0
  0
VERTEX
  5
212
330
1E4
100
AcDbEntity
  8
0
  6
CONTINUOUS
 62
     7
100
AcDbVertex
100
AcDb2dVertex
 10
9.1553811524
 20
5.6475478957
 30
0.0
  0
VERTEX
  5
213
330
1E4
100
AcDbEntity
  8
0
  6
CONTINUOUS
 62
     7
100
AcDbVertex
100
AcDb2dVertex
 10
9.1898446528
 20
5.6755511575
 30
0.0
  0
VERTEX
  5
214
330
1E4
100
AcDbEntity
  8
0
  6
CONTINUOUS
 62
     7
100
AcDbVertex
100
AcDb2dVertex
 10
9.2239002365
 20
5.7053603604
 30
0.0
  0
VERTEX
  5
215
330
1E4
100
AcDbEntity
  8
0
  6
CONTINUOUS
 62
     7
100
AcDbVertex
100
AcDb2dVertex
 10
9.2574572848
 20
5.7368961848
 30
0.0
  0
VERTEX
  5
216
330
1E4
100
AcDbEntity
  8
0
  6
CONTINUOUS
 62
     7
100
AcDbVertex
100
AcDb2dVertex
 10
9.2904265055
 20
5.770074717
 30
0.0
  0
VERTEX
  5
217
330
1E4
100
AcDbEntity
  8
0
  6
CONTINUOUS
 62
     7
100
AcDbVertex
100
AcDb2dVertex
 10
9.3227201706
 20
5.804807672
 30
0.0
  0
VERTEX
  5
218
330
1E4
100
AcDbEntity
  8
0
  6
CONTINUOUS
 62
     7
100
AcDbVertex
100
AcDb2dVertex
 10
9.3542523498
 20
5.8410026286
 30
0.0
  0
VERTEX
  5
219
330
1E4
100
AcDbEntity
  8
0
  6
CONTINUOUS
 62
     7
100
AcDbVertex
100
AcDb2dVertex
 10
9.3849391387
 20
5.8785632755
 30
0.0
  0
VERTEX
  5
21A
330
1E4
100
AcDbEntity
  8
0
  6
CONTINUOUS
 62
     7
100
AcDbVertex
100
AcDb2dVertex
 10
9.4146988829
 20
5.9173896672
 30
0.0
  0
VERTEX
  5
21B
330
1E4
100
AcDbEntity
  8
0
  6
CONTINUOUS
 62
     7
100
AcDbVertex
100
AcDb2dVertex
 10
9.4434523943
 20
5.9573784905
 30
0.0
  0
VERTEX
  5
21C
330
1E4
100
AcDbEntity
  8
0
  6
CONTINUOUS
 62
     7
100
AcDbVertex
100
AcDb2dVertex
 10
9.4711231626
 20
5.9984233388
 30
0.0
  0
VERTEX
  5
21D
330
1E4
100
AcDbEntity
  8
0
  6
CONTINUOUS
 62
     7
100
AcDbVertex
100
AcDb2dVertex
 10
9.4976375585
 20
6.0404149956
 30
0.0
  0
VERTEX
  5
21E
330
1E4
100
AcDbEntity
  8
0
  6
CONTINUOUS
 62
     7
100
AcDbVertex
100
AcDb2dVertex
 10
9.5229250297
 20
6.0832417251
 30
0.0
  0
VERTEX
  5
21F
330
1E4
100
AcDbEntity
  8
0
  6
CONTINUOUS
 62
     7
100
AcDbVertex
100
AcDb2dVertex
 10
9.5469182885
 20
6.1267895693
 30
0.0
  0
VERTEX
  5
220
330
1E4
100
AcDbEntity
  8
0
  6
CONTINUOUS
 62
     7
100
AcDbVertex
100
AcDb2dVertex
 10
9.5695534912
 20
6.1709426516
 30
0.0
  0
VERTEX
  5
221
330
1E4
100
AcDbEntity
  8
0
  6
CONTINUOUS
 62
     7
100
AcDbVertex
100
AcDb2dVertex
 10
9.5907704075
 20
6.2155834847
 30
0.0
  0
VERTEX
  5
222
330
1E4
100
AcDbEntity
  8
0
  6
CONTINUOUS
 62
     7
100
AcDbVertex
100
AcDb2dVertex
 10
9.6105125814
 20
6.2605932835
 30
0.0
  0
VERTEX
  5
223
330
1E4
100
AcDbEntity
  8
0
  6
CONTINUOUS
 62
     7
100
AcDbVertex
100
AcDb2dVertex
 10
9.6287274807
 20
6.3058522812
 30
0.0
  0
VERTEX
  5
224
330
1E4
100
AcDbEntity
  8
0
  6
CONTINUOUS
 62
     7
100
AcDbVertex
100
AcDb2dVertex
 10
9.6453666372
 20
6.3512400479
 30
0.0
  0
VERTEX
  5
225
330
1E4
100
AcDbEntity
  8
0
  6
CONTINUOUS
 62
     7
100
AcDbVertex
100
AcDb2dVertex
 10
9.6603857758
 20
6.396635811
 30
0.0
  0
VERTEX
  5
226
330
1E4
100
AcDbEntity
  8
0
  6
CONTINUOUS
 62
     7
100
AcDbVertex
100
AcDb2dVertex
 10
9.673744932
 20
6.4419187766
 30
0.0
  0
VERTEX
  5
227
330
1E4
100
AcDbEntity
  8
0
  6
CONTINUOUS
 62
     7
100
AcDbVertex
100
AcDb2dVertex
 10
9.6854085581
 20
6.4869684509
 30
0.0
  0
VERTEX
  5
228
330
1E4
100
AcDbEntity
  8
0
  6
CONTINUOUS
 62
     7
100
AcDbVertex
100
AcDb2dVertex
 10
9.6953456186
 20
6.5316649611
 30
0.0
  0
VERTEX
  5
229
330
1E4
100
AcDbEntity
  8
0
  6
CONTINUOUS
 62
     7
100
AcDbVertex
100
AcDb2dVertex
 10
9.7035296717
 20
6.5758893739
 30
0.0
  0
VERTEX
  5
22A
330
1E4
100
AcDbEntity
  8
0
  6
CONTINUOUS
 62
     7
100
AcDbVertex
100
AcDb2dVertex
 10
9.7099389404
 20
6.6195240123
 30
0.0
  0
VERTEX
  5
22B
330
1E4
100
AcDbEntity
  8
0
  6
CONTINUOUS
 62
     7
100
AcDbVertex
100
AcDb2dVertex
 10
9.7145563704
 20
6.6624527686
 30
0.0
  0
VERTEX
  5
22C
330
1E4
100
AcDbEntity
  8
0
  6
CONTINUOUS
 62
     7
100
AcDbVertex
100
AcDb2dVertex
 10
9.717369675
 20
6.7045614135
 30
0.0
  0
VERTEX
  5
22D
330
1E4
100
AcDbEntity
  8
0
  6
CONTINUOUS
 62
     7
100
AcDbVertex
100
AcDb2dVertex
 10
9.7183713683
 20
6.7457378997
 30
0.0
  0
VERTEX
  5
22E
330
1E4
100
AcDbEntity
  8
0
  6
CONTINUOUS
 62
     7
100
AcDbVertex
100
AcDb2dVertex
 10
9.717558785
 20
6.7858726605
 30
0.0
  0
VERTEX
  5
22F
330
1E4
100
AcDbEntity
  8
0
  6
CONTINUOUS
 62
     7
100
AcDbVertex
100
AcDb2dVertex
 10
9.7149340871
 20
6.8248589012
 30
0.0
  0
VERTEX
  5
230
330
1E4
100
AcDbEntity
  8
0
  6
CONTINUOUS
 62
     7
100
AcDbVertex
100
AcDb2dVertex
 10
9.7105042589
 20
6.8625928829
 30
0.0
  0
VERTEX
  5
231
330
1E4
100
AcDbEntity
  8
0
  6
CONTINUOUS
 62
     7
100
AcDbVertex
100
AcDb2dVertex
 10
9.7042810875
 20
6.898974199
 30
0.0
  0
VERTEX
  5
232
330
1E4
100
AcDbEntity
  8
0
  6
CONTINUOUS
 62
     7
100
AcDbVertex
100
AcDb2dVertex
 10
9.6962811324
 20
6.9339060424
 30
0.0
  0
VERTEX
  5
233
330
1E4
100
AcDbEntity
  8
0
  6
CONTINUOUS
 62
     7
100
AcDbVertex
100
AcDb2dVertex
 10
9.6865256807
 20
6.9672954626
 30
0.0
  0
VERTEX
  5
234
330
1E4
100
AcDbEntity
  8
0
  6
CONTINUOUS
 62
     7
100
AcDbVertex
100
AcDb2dVertex
 10
9.6750406906
 20
6.9990536135
 30
0.0
  0
VERTEX
  5
235
330
1E4
100
AcDbEntity
  8
0
  6
CONTINUOUS
 62
     7
100
AcDbVertex
100
AcDb2dVertex
 10
9.6618567227
 20
7.0290959897
 30
0.0
  0
VERTEX
  5
236
330
1E4
100
AcDbEntity
  8
0
  6
CONTINUOUS
 62
     7
100
AcDbVertex
100
AcDb2dVertex
 10
9.6470088583
 20
7.0573426512
 30
0.0
  0
VERTEX
  5
237
330
1E4
100
AcDbEntity
  8
0
  6
CONTINUOUS
 62
     7
100
AcDbVertex
100
AcDb2dVertex
 10
9.6305366062
 20
7.0837184364
 30
0.0
  0
VERTEX
  5
238
330
1E4
100
AcDbEntity
  8
0
  6
CONTINUOUS
 62
     7
100
AcDbVertex
100
AcDb2dVertex
 10
9.6124837973
 20
7.1081531617
 30
0.0
  0
VERTEX
  5
239
330
1E4
100
AcDbEntity
  8
0
  6
CONTINUOUS
 62
     7
100
AcDbVertex
100
AcDb2dVertex
 10
9.5928984687
 20
7.1305818086
 30
0.0
  0
VERTEX
  5
23A
330
1E4
100
AcDbEntity
  8
0
  6
CONTINUOUS
 62
     7
100
AcDbVertex
100
AcDb2dVertex
 10
9.571832735
 20
7.1509446966
 30
0.0
  0
VERTEX
  5
23B
330
1E4
100
AcDbEntity
  8
0
  6
CONTINUOUS
 62
     7
100
AcDbVertex
100
AcDb2dVertex
 10
9.5493426502
 20
7.1691876419
 30
0.0
  0
VERTEX
  5
23C
330
1E4
100
AcDbEntity
  8
0
  6
CONTINUOUS
 62
     7
100
AcDbVertex
100
AcDb2dVertex
 10
9.5254880582
 20
7.1852621018
 30
0.0
  0
VERTEX
  5
23D
330
1E4
100
AcDbEntity
  8
0
  6
CONTINUOUS
 62
     7
100
AcDbVertex
100
AcDb2dVertex
 10
9.5003324339
 20
7.1991253037
 30
0.0
  0
VERTEX
  5
23E
330
1E4
100
AcDbEntity
  8
0
  6
CONTINUOUS
 62
     7
100
AcDbVertex
100
AcDb2dVertex
 10
9.473942714
 20
7.2107403589
 30
0.0
  0
VERTEX
  5
23F
330
1E4
100
AcDbEntity
  8
0
  6
CONTINUOUS
 62
     7
100
AcDbVertex
100
AcDb2dVertex
 10
9.4463891192
 20
7.2200763608
 30
0.0
  0
VERTEX
  5
240
330
1E4
100
AcDbEntity
  8
0
  6
CONTINUOUS
 62
     7
100
AcDbVertex
100
AcDb2dVertex
 10
9.4177449669
 20
7.2271084672
 30
0.0
  0
VERTEX
  5
241
330
1E4
100
AcDbEntity
  8
0
  6
CONTINUOUS
 62
     7
100
AcDbVertex
100
AcDb2dVertex
 10
9.3880864765
 20
7.2318179663
 30
0.0
  0
VERTEX
  5
242
330
1E4
100
AcDbEntity
  8
0
  6
CONTINUOUS
 62
     7
100
AcDbVertex
100
AcDb2dVertex
 10
9.3574925665
 20
7.2341923266
 30
0.0
  0
VERTEX
  5
243
330
1E4
100
AcDbEntity
  8
0
  6
CONTINUOUS
 62
     7
100
AcDbVertex
100
AcDb2dVertex
 10
9.3260446445
 20
7.2342252301
 30
0.0
  0
VERTEX
  5
244
330
1E4
100
AcDbEntity
  8
0
  6
CONTINUOUS
 62
     7
100
AcDbVertex
100
AcDb2dVertex
 10
9.2938263904
 20
7.2319165893
 30
0.0
  0
VERTEX
  5
245
330
1E4
100
AcDbEntity
  8
0
  6
CONTINUOUS
 62
     7
100
AcDbVertex
100
AcDb2dVertex
 10
9.2609235339
 20
7.2272725472
 30
0.0
  0
VERTEX
  5
246
330
1E4
100
AcDbEntity
  8
0
  6
CONTINUOUS
 62
     7
100
AcDbVertex
100
AcDb2dVertex
 10
9.2274236264
 20
7.2203054613
 30
0.0
  0
VERTEX
  5
247
330
1E4
100
AcDbEntity
  8
0
  6
CONTINUOUS
 62
     7
100
AcDbVertex
100
AcDb2dVertex
 10
9.1934158082
 20
7.2110338702
 30
0.0
  0
VERTEX
  5
248
330
1E4
100
AcDbEntity
  8
0
  6
CONTINUOUS
 62
     7
100
AcDbVertex
100
AcDb2dVertex
 10
9.1589905707
 20
7.1994824448
 30
0.0
  0
VERTEX
  5
249
330
1E4
100
AcDbEntity
  8
0
  6
CONTINUOUS
 62
     7
100
AcDbVertex
100
AcDb2dVertex
 10
9.1242395163
 20
7.1856819224
 30
0.0
  0
VERTEX
  5
24A
330
1E4
100
AcDbEntity
  8
0
  6
CONTINUOUS
 62
     7
100
AcDbVertex
100
AcDb2dVertex
 10
9.0892551143
 20
7.1696690248
 30
0.0
  0
VERTEX
  5
24B
330
1E4
100
AcDbEntity
  8
0
  6
CONTINUOUS
 62
     7
100
AcDbVertex
100
AcDb2dVertex
 10
9.0541304549
 20
7.151486361
 30
0.0
  0
VERTEX
  5
24C
330
1E4
100
AcDbEntity
  8
0
  6
CONTINUOUS
 62
     7
100
AcDbVertex
100
AcDb2dVertex
 10
9.0189590016
 20
7.1311823131
 30
0.0
  0
VERTEX
  5
24D
330
1E4
100
AcDbEntity
  8
0
  6
CONTINUOUS
 62
     7
100
AcDbVertex
100
AcDb2dVertex
 10
8.9838343422
 20
7.1088109085
 30
0.0
  0
VERTEX
  5
24E
330
1E4
100
AcDbEntity
  8
0
  6
CONTINUOUS
 62
     7
100
AcDbVertex
100
AcDb2dVertex
 10
8.9488499402
 20
7.0844316753
 30
0.0
  0
VERTEX
  5
24F
330
1E4
100
AcDbEntity
  8
0
  6
CONTINUOUS
 62
     7
100
AcDbVertex
100
AcDb2dVertex
 10
8.9140988858
 20
7.0581094844
 30
0.0
  0
VERTEX
  5
250
330
1E4
100
AcDbEntity
  8
0
  6
CONTINUOUS
 62
     7
100
AcDbVertex
100
AcDb2dVertex
 10
8.8796736483
 20
7.0299143765
 30
0.0
  0
VERTEX
  5
251
330
1E4
100
AcDbEntity
  8
0
  6
CONTINUOUS
 62
     7
100
AcDbVertex
100
AcDb2dVertex
 10
8.8456658301
 20
6.9999213764
 30
0.0
  0
VERTEX
  5
252
330
1E4
100
AcDbEntity
  8
0
  6
CONTINUOUS
 62
     7
100
AcDbVertex
100
AcDb2dVertex
 10
8.8121659226
 20
6.9682102925
 30
0.0
  0
VERTEX
  5
253
330
1E4
100
AcDbEntity
  8
0
  6
CONTINUOUS
 62
     7
100
AcDbVertex
100
AcDb2dVertex
 10
8.7792630661
 20
6.9348655051
 30
0.0
  0
VERTEX
  5
254
330
1E4
100
AcDbEntity
  8
0
  6
CONTINUOUS
 62
     7
100
AcDbVertex
100
AcDb2dVertex
 10
8.747044812
 20
6.8999757415
 30
0.0
  0
VERTEX
  5
255
330
1E4
100
AcDbEntity
  8
0
  6
CONTINUOUS
 62
     7
100
AcDbVertex
100
AcDb2dVertex
 10
8.7155968899
 20
6.8636338401
 30
0.0
  0
VERTEX
  5
256
330
1E4
100
AcDbEntity
  8
0
  6
CONTINUOUS
 62
     7
100
AcDbVertex
100
AcDb2dVertex
 10
8.68500298
 20
6.8259365032
 30
0.0
  0
VERTEX
  5
257
330
1E4
100
AcDbEntity
  8
0
  6
CONTINUOUS
 62
     7
100
AcDbVertex
100
AcDb2dVertex
 10
8.6553444896
 20
6.78698404
 30
0.0
  0
VERTEX
  5
258
330
1E4
100
AcDbEntity
  8
0
  6
CONTINUOUS
 62
     7
100
AcDbVertex
100
AcDb2dVertex
 10
8.6267003373
 20
6.7468800993
 30
0.0
  0
VERTEX
  5
259
330
1E4
100
AcDbEntity
  8
0
  6
CONTINUOUS
 62
     7
100
AcDbVertex
100
AcDb2dVertex
 10
8.5991467425
 20
6.705731394
 30
0.0
  0
VERTEX
  5
25A
330
1E4
100
AcDbEntity
  8
0
  6
CONTINUOUS
 62
     7
100
AcDbVertex
100
AcDb2dVertex
 10
8.5727570226
 20
6.6636474168
 30
0.0
  0
VERTEX
  5
25B
330
1E4
100
AcDbEntity
  8
0
  6
CONTINUOUS
 62
     7
100
AcDbVertex
100
AcDb2dVertex
 10
8.5476013983
 20
6.6207401493
 30
0.0
  0
VERTEX
  5
25C
330
1E4
100
AcDbEntity
  8
0
  6
CONTINUOUS
 62
     7
100
AcDbVertex
100
AcDb2dVertex
 10
8.5237468063
 20
6.5771237637
 30
0.0
  0
VERTEX
  5
25D
330
1E4
100
AcDbEntity
  8
0
  6
CONTINUOUS
 62
     7
100
AcDbVertex
100
AcDb2dVertex
 10
8.5012567215
 20
6.5329143191
 30
0.0
  0
VERTEX
  5
25E
330
1E4
100
AcDbEntity
  8
0
  6
CONTINUOUS
 62
     7
100
AcDbVertex
100
AcDb2dVertex
 10
8.4801909878
 20
6.4882294527
 30
0.0
  0
VERTEX
  5
25F
330
1E4
100
AcDbEntity
  8
0
  6
CONTINUOUS
 62
     7
100
AcDbVertex
100
AcDb2dVertex
 10
8.4606056591
 20
6.4431880667
 30
0.0
  0
VERTEX
  5
260
330
1E4
100
AcDbEntity
  8
0
  6
CONTINUOUS
 62
     7
100
AcDbVertex
100
AcDb2dVertex
 10
8.4425528503
 20
6.397910012
 30
0.0
  0
VERTEX
  5
261
330
1E4
100
AcDbEntity
  8
0
  6
CONTINUOUS
 62
     7
100
AcDbVertex
100
AcDb2dVertex
 10
8.4260805982
 20
6.3525157693
 30
0.0
  0
VERTEX
  5
262
330
1E4
100
AcDbEntity
  8
0
  6
CONTINUOUS
 62
     7
100
AcDbVertex
100
AcDb2dVertex
 10
8.4112327337
 20
6.3071261284
 30
0.0
  0
VERTEX
  5
263
330
1E4
100
AcDbEntity
  8
0
  6
CONTINUOUS
 62
     7
100
AcDbVertex
100
AcDb2dVertex
 10
8.3980487659
 20
6.2618618669
 30
0.0
  0
VERTEX
  5
264
330
1E4
100
AcDbEntity
  8
0
  6
CONTINUOUS
 62
     7
100
AcDbVertex
100
AcDb2dVertex
 10
8.3865637758
 20
6.2168434287
 30
0.0
  0
VERTEX
  5
265
330
1E4
100
AcDbEntity
  8
0
  6
CONTINUOUS
 62
     7
100
AcDbVertex
100
AcDb2dVertex
 10
8.376808324
 20
6.1721906036
 30
0.0
  0
VERTEX
  5
266
330
1E4
100
AcDbEntity
  8
0
  6
CONTINUOUS
 62
     7
100
AcDbVertex
100
AcDb2dVertex
 10
8.3688083689
 20
6.1280222087
 30
0.0
  0
VERTEX
  5
267
330
1E4
100
AcDbEntity
  8
0
  6
CONTINUOUS
 62
     7
100
AcDbVertex
100
AcDb2dVertex
 10
8.3625851976
 20
6.0844557719
 30
0.0
  0
VERTEX
  5
268
330
1E4
100
AcDbEntity
  8
0
  6
CONTINUOUS
 62
     7
100
AcDbVertex
100
AcDb2dVertex
 10
8.3581553694
 20
6.0416072194
 30
0.0
  0
VERTEX
  5
269
330
1E4
100
AcDbEntity
  8
0
  6
CONTINUOUS
 62
     7
100
AcDbVertex
100
AcDb2dVertex
 10
8.3555306715
 20
5.9995905671
 30
0.0
  0
VERTEX
  5
26A
330
1E4
100
AcDbEntity
  8
0
  6
CONTINUOUS
 62
     7
100
AcDbVertex
100
AcDb2dVertex
 10
8.3547180881
 20
5.9585176175
 30
0.0
  0
VERTEX
  5
26B
330
1E4
100
AcDbEntity
  8
0
  6
CONTINUOUS
 62
     7
100
AcDbVertex
100
AcDb2dVertex
 10
8.3557197815
 20
5.9184976618
 30
0.0
  0
VERTEX
  5
26C
330
1E4
100
AcDbEntity
  8
0
  6
CONTINUOUS
 62
     7
100
AcDbVertex
100
AcDb2dVertex
 10
8.3585330861
 20
5.8796371893
 30
0.0
  0
VERTEX
  5
26D
330
1E4
100
AcDbEntity
  8
0
  6
CONTINUOUS
 62
     7
100
AcDbVertex
100
AcDb2dVertex
 10
8.3631505161
 20
5.8420396041
 30
0.0
  0
VERTEX
  5
26E
330
1E4
100
AcDbEntity
  8
0
  6
CONTINUOUS
 62
     7
100
AcDbVertex
100
AcDb2dVertex
 10
8.3695597848
 20
5.8058049499
 30
0.0
  0
VERTEX
  5
26F
330
1E4
100
AcDbEntity
  8
0
  6
CONTINUOUS
 62
     7
100
AcDbVertex
100
AcDb2dVertex
 10
8.3777438379
 20
5.7710296437
 30
0.0
  0
VERTEX
  5
270
330
1E4
100
AcDbEntity
  8
0
  6
CONTINUOUS
 62
     7
100
AcDbVertex
100
AcDb2dVertex
 10
8.3876808983
 20
5.7378062193
 30
0.0
  0
VERTEX
  5
271
330
1E4
100
AcDbEntity
  8
0
  6
CONTINUOUS
 62
     7
100
AcDbVertex
100
AcDb2dVertex
 10
8.3993445245
 20
5.7062230811
 30
0.0
  0
VERTEX
  5
272
330
1E4
100
AcDbEntity
  8
0
  6
CONTINUOUS
 62
     7
100
AcDbVertex
100
AcDb2dVertex
 10
8.4127036807
 20
5.6763642689
 30
0.0
  0
VERTEX
  5
273
330
1E4
100
AcDbEntity
  8
0
  6
CONTINUOUS
 62
     7
100
AcDbVertex
100
AcDb2dVertex
 10
8.4277228192
 20
5.6483092341
 30
0.0
  0
VERTEX
  5
274
330
1E4
100
AcDbEntity
  8
0
  6
CONTINUOUS
 62
     7
100
AcDbVertex
100
AcDb2dVertex
 10
8.4443619758
 20
5.6221326286
 30
0.0
  0
VERTEX
  5
275
330
1E4
100
AcDbEntity
  8
0
  6
CONTINUOUS
 62
     7
100
AcDbVertex
100
AcDb2dVertex
 10
8.4625768751
 20
5.597904106
 30
0.0
  0
VERTEX
  5
276
330
1E4
100
AcDbEntity
  8
0
  6
CONTINUOUS
 62
     7
100
AcDbVertex
100
AcDb2dVertex
 10
8.4823190489
 20
5.5756881359
 30
0.0
  0
VERTEX
  5
277
330
1E4
100
AcDbEntity
  8
0
  6
CONTINUOUS
 62
     7
100
AcDbVertex
100
AcDb2dVertex
 10
8.5035359653
 20
5.5555438331
 30
0.0
  0
VERTEX
  5
278
330
1E4
100
AcDbEntity
  8
0
  6
CONTINUOUS
 62
     7
100
AcDbVertex
100
AcDb2dVertex
 10
8.526171168
 20
5.5375247995
 30
0.0
  0
VERTEX
  5
279
330
1E4
100
AcDbEntity
  8
0
  6
CONTINUOUS
 62
     7
100
AcDbVertex
100
AcDb2dVertex
 10
8.5501644268
 20
5.5216789823
 30
0.0
  0
VERTEX
  5
27A
330
1E4
100
AcDbEntity
  8
0
  6
CONTINUOUS
 62
     7
100
AcDbVertex
100
AcDb2dVertex
 10
8.575451898
 20
5.5080485455
 30
0.0
  0
VERTEX
  5
27B
330
1E4
100
AcDbEntity
  8
0
  6
CONTINUOUS
 62
     7
100
AcDbVertex
100
AcDb2dVertex
 10
8.6019662939
 20
5.4966697586
 30
0.0
  0
VERTEX
  5
27C
330
1E4
100
AcDbEntity
  8
0
  6
CONTINUOUS
 62
     7
100
AcDbVertex
100
AcDb2dVertex
 10
8.6296370622
 20
5.4875728994
 30
0.0
  0
VERTEX
  5
27D
330
1E4
100
AcDbEntity
  8
0
  6
CONTINUOUS
 62
     7
100
AcDbVertex
100
AcDb2dVertex
 10
8.6583905736
 20
5.4807821738
 30
0.0
  0
VERTEX
  5
27E
330
1E4
100
AcDbEntity
  8
0
  6
CONTINUOUS
 62
     7
100
AcDbVertex
100
AcDb2dVertex
 10
8.6881503178
 20
5.4763156512
 30
0.0
  0
VERTEX
  5
27F
330
1E4
100
AcDbEntity
  8
0
  6
CONTINUOUS
 62
     7
100
AcDbVertex
100
AcDb2dVertex
 10
8.7188371067
 20
5.4741852167
 30
0.0
  0
VERTEX
  5
280
330
1E4
100
AcDbEntity
  8
0
  6
CONTINUOUS
 62
     7
100
AcDbVertex
100
AcDb2dVertex
 10
8.7503692859
 20
5.4743965392
 30
0.0
  0
VERTEX
  5
281
330
1E4
100
AcDbEntity
  8
0
  6
CONTINUOUS
 62
     7
100
AcDbVertex
100
AcDb2dVertex
 10
8.782662951
 20
5.4769490564
 30
0.0
  0
VERTEX
  5
282
330
1E4
100
AcDbEntity
  8
0
  6
CONTINUOUS
 62
     7
100
AcDbVertex
100
AcDb2dVertex
 10
8.8156321717
 20
5.4818359761
 30
0.0
  0
VERTEX
  5
283
330
1E4
100
AcDbEntity
  8
0
  6
CONTINUOUS
 62
     7
100
AcDbVertex
100
AcDb2dVertex
 10
8.84918922
 20
5.4890442949
 30
0.0
  0
VERTEX
  5
284
330
1E4
100
AcDbEntity
  8
0
  6
CONTINUOUS
 62
     7
100
AcDbVertex
100
AcDb2dVertex
 10
8.8832448037
 20
5.4985548321
 30
0.0
  0
VERTEX
  5
285
330
1E4
100
AcDbEntity
  8
0
  6
CONTINUOUS
 62
     7
100
AcDbVertex
100
AcDb2dVertex
 10
8.9177083041
 20
5.5103422809
 30
0.0
  0
VERTEX
  5
286
330
1E4
100
AcDbEntity
  8
0
  6
CONTINUOUS
 62
     7
100
AcDbVertex
100
AcDb2dVertex
 10
8.9524880171
 20
5.5243752761
 30
0.0
  0
VERTEX
  5
287
330
1E4
100
AcDbEntity
  8
0
  6
CONTINUOUS
 62
     7
100
AcDbVertex
100
AcDb2dVertex
 10
8.9874913971
 20
5.5406164773
 30
0.0
  0
VERTEX
  5
288
330
1E4
100
AcDbEntity
  8
0
  6
CONTINUOUS
 62
     7
100
AcDbVertex
100
AcDb2dVertex
 10
9.0226253034
 20
5.5590226681
 30
0.0
  0
SEQEND
  5
289
330
1E4
100
AcDbEntity
  8
0
  6
CONTINUOUS
 62
     7
  0
LINE
  5
1E5
330
1F
100
AcDbEntity
  8
0
  6
CONTINUOUS
 62
     7
100
AcDbLine
 10
9.0084831678
 20
5.550852598
 30
0.0
 11
9.0226253034
 21
5.5590226681
 31
0.0
  0
POLYLINE
  5
1E6
330
1F
100
AcDbEntity
  8
0
  6
CONTINUOUS
 62
     7
100
AcDb2dPolyline
 66
     1
 10
0.0
 20
0.0
 30
0.0
  0
VERTEX
  5
28A
330
1E6
100
AcDbEntity
  8
0
  6
CONTINUOUS
 62
     7
100
AcDbVertex
100
AcDb2dVertex
 10
9.0084831678
 20
5.550852598
 30
0.0
  0
VERTEX
  5
28B
330
1E6
100
AcDbEntity
  8
0
  6
CONTINUOUS
 62
     7
100
AcDbVertex
100
AcDb2dVertex
 10
8.9731975062
 20
5.5323329744
 30
0.0
  0
VERTEX
  5
28C
330
1E6
100
AcDbEntity
  8
0
  6
CONTINUOUS
 62
     7
100
AcDbVertex
100
AcDb2dVertex
 10
8.9380385861
 20
5.5159514439
 30
0.0
  0
VERTEX
  5
28D
330
1E6
100
AcDbEntity
  8
0
  6
CONTINUOUS
 62
     7
100
AcDbVertex
100
AcDb2dVertex
 10
8.9030969689
 20
5.5017502018
 30
0.0
  0
VERTEX
  5
28E
330
1E6
100
AcDbEntity
  8
0
  6
CONTINUOUS
 62
     7
100
AcDbVertex
100
AcDb2dVertex
 10
8.8684626568
 20
5.4897658273
 30
0.0
  0
VERTEX
  5
28F
330
1E6
100
AcDbEntity
  8
0
  6
CONTINUOUS
 62
     7
100
AcDbVertex
100
AcDb2dVertex
 10
8.8342248599
 20
5.4800291895
 30
0.0
  0
VERTEX
  5
290
330
1E6
100
AcDbEntity
  8
0
  6
CONTINUOUS
 62
     7
100
AcDbVertex
100
AcDb2dVertex
 10
8.8004717672
 20
5.4725653678
 30
0.0
  0
VERTEX
  5
291
330
1E6
100
AcDbEntity
  8
0
  6
CONTINUOUS
 62
     7
100
AcDbVertex
100
AcDb2dVertex
 10
8.7672903194
 20
5.4673935875
 30
0.0
  0
VERTEX
  5
292
330
1E6
100
AcDbEntity
  8
0
  6
CONTINUOUS
 62
     7
100
AcDbVertex
100
AcDb2dVertex
 10
8.7347659844
 20
5.4645271698
 30
0.0
  0
VERTEX
  5
293
330
1E6
100
AcDbEntity
  8
0
  6
CONTINUOUS
 62
     7
100
AcDbVertex
100
AcDb2dVertex
 10
8.7029825378
 20
5.463973498
 30
0.0
  0
VERTEX
  5
294
330
1E6
100
AcDbEntity
  8
0
  6
CONTINUOUS
 62
     7
100
AcDbVertex
100
AcDb2dVertex
 10
8.6720218466
 20
5.4657339983
 30
0.0
  0
VERTEX
  5
295
330
1E6
100
AcDbEntity
  8
0
  6
CONTINUOUS
 62
     7
100
AcDbVertex
100
AcDb2dVertex
 10
8.6419636589
 20
5.4698041359
 30
0.0
  0
VERTEX
  5
296
330
1E6
100
AcDbEntity
  8
0
  6
CONTINUOUS
 62
     7
100
AcDbVertex
100
AcDb2dVertex
 10
8.6128853978
 20
5.4761734272
 30
0.0
  0
VERTEX
  5
297
330
1E6
100
AcDbEntity
  8
0
  6
CONTINUOUS
 62
     7
100
AcDbVertex
100
AcDb2dVertex
 10
8.5848619626
 20
5.4848254663
 30
0.0
  0
VERTEX
  5
298
330
1E6
100
AcDbEntity
  8
0
  6
CONTINUOUS
 62
     7
100
AcDbVertex
100
AcDb2dVertex
 10
8.5579655353
 20
5.4957379673
 30
0.0
  0
VERTEX
  5
299
330
1E6
100
AcDbEntity
  8
0
  6
CONTINUOUS
 62
     7
100
AcDbVertex
100
AcDb2dVertex
 10
8.5322653954
 20
5.5088828221
 30
0.0
  0
VERTEX
  5
29A
330
1E6
100
AcDbEntity
  8
0
  6
CONTINUOUS
 62
     7
100
AcDbVertex
100
AcDb2dVertex
 10
8.5078277406
 20
5.5242261725
 30
0.0
  0
VERTEX
  5
29B
330
1E6
100
AcDbEntity
  8
0
  6
CONTINUOUS
 62
     7
100
AcDbVertex
100
AcDb2dVertex
 10
8.4847155169
 20
5.5417284974
 30
0.0
  0
VERTEX
  5
29C
330
1E6
100
AcDbEntity
  8
0
  6
CONTINUOUS
 62
     7
100
AcDbVertex
100
AcDb2dVertex
 10
8.4629882564
 20
5.5613447146
 30
0.0
  0
VERTEX
  5
29D
330
1E6
100
AcDbEntity
  8
0
  6
CONTINUOUS
 62
     7
100
AcDbVertex
100
AcDb2dVertex
 10
8.4427019236
 20
5.5830242971
 30
0.0
  0
VERTEX
  5
29E
330
1E6
100
AcDbEntity
  8
0
  6
CONTINUOUS
 62
     7
100
AcDbVertex
100
AcDb2dVertex
 10
8.4239087716
 20
5.6067114032
 30
0.0
  0
VERTEX
  5
29F
330
1E6
100
AcDbEntity
  8
0
  6
CONTINUOUS
 62
     7
100
AcDbVertex
100
AcDb2dVertex
 10
8.4066572076
 20
5.6323450199
 30
0.0
  0
VERTEX
  5
2A0
330
1E6
100
AcDbEntity
  8
0
  6
CONTINUOUS
 62
     7
100
AcDbVertex
100
AcDb2dVertex
 10
8.3909916677
 20
5.6598591209
 30
0.0
  0
VERTEX
  5
2A1
330
1E6
100
AcDbEntity
  8
0
  6
CONTINUOUS
 62
     7
100
AcDbVertex
100
AcDb2dVertex
 10
8.3769525028
 20
5.6891828359
 30
0.0
  0
VERTEX
  5
2A2
330
1E6
100
AcDbEntity
  8
0
  6
CONTINUOUS
 62
     7
100
AcDbVertex
100
AcDb2dVertex
 10
8.3645758747
 20
5.7202406334
 30
0.0
  0
VERTEX
  5
2A3
330
1E6
100
AcDbEntity
  8
0
  6
CONTINUOUS
 62
     7
100
AcDbVertex
100
AcDb2dVertex
 10
8.353893663
 20
5.7529525154
 30
0.0
  0
VERTEX
  5
2A4
330
1E6
100
AcDbEntity
  8
0
  6
CONTINUOUS
 62
     7
100
AcDbVertex
100
AcDb2dVertex
 10
8.3449333826
 20
5.7872342234
 30
0.0
  0
VERTEX
  5
2A5
330
1E6
100
AcDbEntity
  8
0
  6
CONTINUOUS
 62
     7
100
AcDbVertex
100
AcDb2dVertex
 10
8.3377181132
 20
5.8229974552
 30
0.0
  0
VERTEX
  5
2A6
330
1E6
100
AcDbEntity
  8
0
  6
CONTINUOUS
 62
     7
100
AcDbVertex
100
AcDb2dVertex
 10
8.3322664398
 20
5.8601500926
 30
0.0
  0
VERTEX
  5
2A7
330
1E6
100
AcDbEntity
  8
0
  6
CONTINUOUS
 62
     7
100
AcDbVertex
100
AcDb2dVertex
 10
8.3285924047
 20
5.8985964388
 30
0.0
  0
VERTEX
  5
2A8
330
1E6
100
AcDbEntity
  8
0
  6
CONTINUOUS
 62
     7
100
AcDbVertex
100
AcDb2dVertex
 10
8.3267054714
 20
5.9382374642
 30
0.0
  0
VERTEX
  5
2A9
330
1E6
100
AcDbEntity
  8
0
  6
CONTINUOUS
 62
     7
100
AcDbVertex
100
AcDb2dVertex
 10
8.3266105002
 20
5.9789710626
 30
0.0
  0
VERTEX
  5
2AA
330
1E6
100
AcDbEntity
  8
0
  6
CONTINUOUS
 62
     7
100
AcDbVertex
100
AcDb2dVertex
 10
8.3283077356
 20
6.020692313
 30
0.0
  0
VERTEX
  5
2AB
330
1E6
100
AcDbEntity
  8
0
  6
CONTINUOUS
 62
     7
100
AcDbVertex
100
AcDb2dVertex
 10
8.3317928062
 20
6.0632937508
 30
0.0
  0
VERTEX
  5
2AC
330
1E6
100
AcDbEntity
  8
0
  6
CONTINUOUS
 62
     7
100
AcDbVertex
100
AcDb2dVertex
 10
8.3370567349
 20
6.1066656441
 30
0.0
  0
VERTEX
  5
2AD
330
1E6
100
AcDbEntity
  8
0
  6
CONTINUOUS
 62
     7
100
AcDbVertex
100
AcDb2dVertex
 10
8.3440859632
 20
6.1506962764
 30
0.0
  0
VERTEX
  5
2AE
330
1E6
100
AcDbEntity
  8
0
  6
CONTINUOUS
 62
     7
100
AcDbVertex
100
AcDb2dVertex
 10
8.3528623854
 20
6.1952722347
 30
0.0
  0
VERTEX
  5
2AF
330
1E6
100
AcDbEntity
  8
0
  6
CONTINUOUS
 62
     7
100
AcDbVertex
100
AcDb2dVertex
 10
8.3633633951
 20
6.2402787009
 30
0.0
  0
VERTEX
  5
2B0
330
1E6
100
AcDbEntity
  8
0
  6
CONTINUOUS
 62
     7
100
AcDbVertex
100
AcDb2dVertex
 10
8.3755619443
 20
6.2855997486
 30
0.0
  0
VERTEX
  5
2B1
330
1E6
100
AcDbEntity
  8
0
  6
CONTINUOUS
 62
     7
100
AcDbVertex
100
AcDb2dVertex
 10
8.3894266121
 20
6.3311186405
 30
0.0
  0
VERTEX
  5
2B2
330
1E6
100
AcDbEntity
  8
0
  6
CONTINUOUS
 62
     7
100
AcDbVertex
100
AcDb2dVertex
 10
8.4049216862
 20
6.3767181302
 30
0.0
  0
VERTEX
  5
2B3
330
1E6
100
AcDbEntity
  8
0
  6
CONTINUOUS
 62
     7
100
AcDbVertex
100
AcDb2dVertex
 10
8.4220072547
 20
6.4222807634
 30
0.0
  0
VERTEX
  5
2B4
330
1E6
100
AcDbEntity
  8
0
  6
CONTINUOUS
 62
     7
100
AcDbVertex
100
AcDb2dVertex
 10
8.4406393089
 20
6.4676891808
 30
0.0
  0
VERTEX
  5
2B5
330
1E6
100
AcDbEntity
  8
0
  6
CONTINUOUS
 62
     7
100
AcDbVertex
100
AcDb2dVertex
 10
8.4607698569
 20
6.5128264204
 30
0.0
  0
VERTEX
  5
2B6
330
1E6
100
AcDbEntity
  8
0
  6
CONTINUOUS
 62
     7
100
AcDbVertex
100
AcDb2dVertex
 10
8.4823470467
 20
6.5575762186
 30
0.0
  0
VERTEX
  5
2B7
330
1E6
100
AcDbEntity
  8
0
  6
CONTINUOUS
 62
     7
100
AcDbVertex
100
AcDb2dVertex
 10
8.5053153004
 20
6.6018233098
 30
0.0
  0
VERTEX
  5
2B8
330
1E6
100
AcDbEntity
  8
0
  6
CONTINUOUS
 62
     7
100
AcDbVertex
100
AcDb2dVertex
 10
8.5296154566
 20
6.6454537234
 30
0.0
  0
VERTEX
  5
2B9
330
1E6
100
AcDbEntity
  8
0
  6
CONTINUOUS
 62
     7
100
AcDbVertex
100
AcDb2dVertex
 10
8.5551849237
 20
6.6883550769
 30
0.0
  0
VERTEX
  5
2BA
330
1E6
100
AcDbEntity
  8
0
  6
CONTINUOUS
 62
     7
100
AcDbVertex
100
AcDb2dVertex
 10
8.5819578403
 20
6.730416866
 30
0.0
  0
VERTEX
  5
2BB
330
1E6
100
AcDbEntity
  8
0
  6
CONTINUOUS
 62
     7
100
AcDbVertex
100
AcDb2dVertex
 10
8.6098652452
 20
6.7715307488
 30
0.0
  0
VERTEX
  5
2BC
330
1E6
100
AcDbEntity
  8
0
  6
CONTINUOUS
 62
     7
100
AcDbVertex
100
AcDb2dVertex
 10
8.6388352552
 20
6.811590825
 30
0.0
  0
VERTEX
  5
2BD
330
1E6
100
AcDbEntity
  8
0
  6
CONTINUOUS
 62
     7
100
AcDbVertex
100
AcDb2dVertex
 10
8.66879325
 20
6.8504939088
 30
0.0
  0
VERTEX
  5
2BE
330
1E6
100
AcDbEntity
  8
0
  6
CONTINUOUS
 62
     7
100
AcDbVertex
100
AcDb2dVertex
 10
8.6996620643
 20
6.8881397943
 30
0.0
  0
VERTEX
  5
2BF
330
1E6
100
AcDbEntity
  8
0
  6
CONTINUOUS
 62
     7
100
AcDbVertex
100
AcDb2dVertex
 10
8.731362187
 20
6.9244315141
 30
0.0
  0
VERTEX
  5
2C0
330
1E6
100
AcDbEntity
  8
0
  6
CONTINUOUS
 62
     7
100
AcDbVertex
100
AcDb2dVertex
 10
8.7638119654
 20
6.9592755887
 30
0.0
  0
VERTEX
  5
2C1
330
1E6
100
AcDbEntity
  8
0
  6
CONTINUOUS
 62
     7
100
AcDbVertex
100
AcDb2dVertex
 10
8.7969278161
 20
6.9925822675
 30
0.0
  0
VERTEX
  5
2C2
330
1E6
100
AcDbEntity
  8
0
  6
CONTINUOUS
 62
     7
100
AcDbVertex
100
AcDb2dVertex
 10
8.8306244401
 20
7.0242657598
 30
0.0
  0
VERTEX
  5
2C3
330
1E6
100
AcDbEntity
  8
0
  6
CONTINUOUS
 62
     7
100
AcDbVertex
100
AcDb2dVertex
 10
8.8648150422
 20
7.054244456
 30
0.0
  0
VERTEX
  5
2C4
330
1E6
100
AcDbEntity
  8
0
  6
CONTINUOUS
 62
     7
100
AcDbVertex
100
AcDb2dVertex
 10
8.8994115551
 20
7.0824411375
 30
0.0
  0
VERTEX
  5
2C5
330
1E6
100
AcDbEntity
  8
0
  6
CONTINUOUS
 62
     7
100
AcDbVertex
100
AcDb2dVertex
 10
8.9343248657
 20
7.108783176
 30
0.0
  0
VERTEX
  5
2C6
330
1E6
100
AcDbEntity
  8
0
  6
CONTINUOUS
 62
     7
100
AcDbVertex
100
AcDb2dVertex
 10
8.969465045
 20
7.1332027202
 30
0.0
  0
VERTEX
  5
2C7
330
1E6
100
AcDbEntity
  8
0
  6
CONTINUOUS
 62
     7
100
AcDbVertex
100
AcDb2dVertex
 10
9.0047415798
 20
7.1556368707
 30
0.0
  0
VERTEX
  5
2C8
330
1E6
100
AcDbEntity
  8
0
  6
CONTINUOUS
 62
     7
100
AcDbVertex
100
AcDb2dVertex
 10
9.0400636054
 20
7.176027842
 30
0.0
  0
VERTEX
  5
2C9
330
1E6
100
AcDbEntity
  8
0
  6
CONTINUOUS
 62
     7
100
AcDbVertex
100
AcDb2dVertex
 10
9.0753401402
 20
7.1943231117
 30
0.0
  0
VERTEX
  5
2CA
330
1E6
100
AcDbEntity
  8
0
  6
CONTINUOUS
 62
     7
100
AcDbVertex
100
AcDb2dVertex
 10
9.1104803196
 20
7.210475555
 30
0.0
  0
VERTEX
  5
2CB
330
1E6
100
AcDbEntity
  8
0
  6
CONTINUOUS
 62
     7
100
AcDbVertex
100
AcDb2dVertex
 10
9.1453936302
 20
7.2244435669
 30
0.0
  0
VERTEX
  5
2CC
330
1E6
100
AcDbEntity
  8
0
  6
CONTINUOUS
 62
     7
100
AcDbVertex
100
AcDb2dVertex
 10
9.179990143
 20
7.2361911688
 30
0.0
  0
VERTEX
  5
2CD
330
1E6
100
AcDbEntity
  8
0
  6
CONTINUOUS
 62
     7
100
AcDbVertex
100
AcDb2dVertex
 10
9.2141807451
 20
7.2456881016
 30
0.0
  0
VERTEX
  5
2CE
330
1E6
100
AcDbEntity
  8
0
  6
CONTINUOUS
 62
     7
100
AcDbVertex
100
AcDb2dVertex
 10
9.2478773691
 20
7.2529099032
 30
0.0
  0
VERTEX
  5
2CF
330
1E6
100
AcDbEntity
  8
0
  6
CONTINUOUS
 62
     7
100
AcDbVertex
100
AcDb2dVertex
 10
9.2809932199
 20
7.2578379718
 30
0.0
  0
VERTEX
  5
2D0
330
1E6
100
AcDbEntity
  8
0
  6
CONTINUOUS
 62
     7
100
AcDbVertex
100
AcDb2dVertex
 10
9.3134429983
 20
7.2604596139
 30
0.0
  0
VERTEX
  5
2D1
330
1E6
100
AcDbEntity
  8
0
  6
CONTINUOUS
 62
     7
100
AcDbVertex
100
AcDb2dVertex
 10
9.3451431209
 20
7.2607680766
 30
0.0
  0
VERTEX
  5
2D2
330
1E6
100
AcDbEntity
  8
0
  6
CONTINUOUS
 62
     7
100
AcDbVertex
100
AcDb2dVertex
 10
9.3760119352
 20
7.2587625655
 30
0.0
  0
VERTEX
  5
2D3
330
1E6
100
AcDbEntity
  8
0
  6
CONTINUOUS
 62
     7
100
AcDbVertex
100
AcDb2dVertex
 10
9.40596993
 20
7.2544482463
 30
0.0
  0
VERTEX
  5
2D4
330
1E6
100
AcDbEntity
  8
0
  6
CONTINUOUS
 62
     7
100
AcDbVertex
100
AcDb2dVertex
 10
9.43493994
 20
7.2478362317
 30
0.0
  0
VERTEX
  5
2D5
330
1E6
100
AcDbEntity
  8
0
  6
CONTINUOUS
 62
     7
100
AcDbVertex
100
AcDb2dVertex
 10
9.462847345
 20
7.2389435528
 30
0.0
  0
VERTEX
  5
2D6
330
1E6
100
AcDbEntity
  8
0
  6
CONTINUOUS
 62
     7
100
AcDbVertex
100
AcDb2dVertex
 10
9.4896202616
 20
7.2277931152
 30
0.0
  0
VERTEX
  5
2D7
330
1E6
100
AcDbEntity
  8
0
  6
CONTINUOUS
 62
     7
100
AcDbVertex
100
AcDb2dVertex
 10
9.5151897286
 20
7.21441364
 30
0.0
  0
VERTEX
  5
2D8
330
1E6
100
AcDbEntity
  8
0
  6
CONTINUOUS
 62
     7
100
AcDbVertex
100
AcDb2dVertex
 10
9.5394898849
 20
7.1988395896
 30
0.0
  0
VERTEX
  5
2D9
330
1E6
100
AcDbEntity
  8
0
  6
CONTINUOUS
 62
     7
100
AcDbVertex
100
AcDb2dVertex
 10
9.5624581385
 20
7.1811110795
 30
0.0
  0
VERTEX
  5
2DA
330
1E6
100
AcDbEntity
  8
0
  6
CONTINUOUS
 62
     7
100
AcDbVertex
100
AcDb2dVertex
 10
9.5840353283
 20
7.1612737744
 30
0.0
  0
VERTEX
  5
2DB
330
1E6
100
AcDbEntity
  8
0
  6
CONTINUOUS
 62
     7
100
AcDbVertex
100
AcDb2dVertex
 10
9.6041658763
 20
7.1393787708
 30
0.0
  0
VERTEX
  5
2DC
330
1E6
100
AcDbEntity
  8
0
  6
CONTINUOUS
 62
     7
100
AcDbVertex
100
AcDb2dVertex
 10
9.6227979306
 20
7.1154824653
 30
0.0
  0
VERTEX
  5
2DD
330
1E6
100
AcDbEntity
  8
0
  6
CONTINUOUS
 62
     7
100
AcDbVertex
100
AcDb2dVertex
 10
9.6398834991
 20
7.0896464097
 30
0.0
  0
VERTEX
  5
2DE
330
1E6
100
AcDbEntity
  8
0
  6
CONTINUOUS
 62
     7
100
AcDbVertex
100
AcDb2dVertex
 10
9.6553785732
 20
7.0619371517
 30
0.0
  0
VERTEX
  5
2DF
330
1E6
100
AcDbEntity
  8
0
  6
CONTINUOUS
 62
     7
100
AcDbVertex
100
AcDb2dVertex
 10
9.6692432409
 20
7.0324260645
 30
0.0
  0
VERTEX
  5
2E0
330
1E6
100
AcDbEntity
  8
0
  6
CONTINUOUS
 62
     7
100
AcDbVertex
100
AcDb2dVertex
 10
9.6814417901
 20
7.0011891619
 30
0.0
  0
VERTEX
  5
2E1
330
1E6
100
AcDbEntity
  8
0
  6
CONTINUOUS
 62
     7
100
AcDbVertex
100
AcDb2dVertex
 10
9.6919427999
 20
6.9683069035
 30
0.0
  0
VERTEX
  5
2E2
330
1E6
100
AcDbEntity
  8
0
  6
CONTINUOUS
 62
     7
100
AcDbVertex
100
AcDb2dVertex
 10
9.700719222
 20
6.9338639865
 30
0.0
  0
VERTEX
  5
2E3
330
1E6
100
AcDbEntity
  8
0
  6
CONTINUOUS
 62
     7
100
AcDbVertex
100
AcDb2dVertex
 10
9.7077484503
 20
6.8979491284
 30
0.0
  0
VERTEX
  5
2E4
330
1E6
100
AcDbEntity
  8
0
  6
CONTINUOUS
 62
     7
100
AcDbVertex
100
AcDb2dVertex
 10
9.7130123791
 20
6.860654838
 30
0.0
  0
VERTEX
  5
2E5
330
1E6
100
AcDbEntity
  8
0
  6
CONTINUOUS
 62
     7
100
AcDbVertex
100
AcDb2dVertex
 10
9.7164974496
 20
6.8220771769
 30
0.0
  0
VERTEX
  5
2E6
330
1E6
100
AcDbEntity
  8
0
  6
CONTINUOUS
 62
     7
100
AcDbVertex
100
AcDb2dVertex
 10
9.7181946851
 20
6.7823155129
 30
0.0
  0
VERTEX
  5
2E7
330
1E6
100
AcDbEntity
  8
0
  6
CONTINUOUS
 62
     7
100
AcDbVertex
100
AcDb2dVertex
 10
9.7183738339
 20
6.7641849055
 30
0.0
  0
SEQEND
  5
2E8
330
1E6
100
AcDbEntity
  8
0
  6
CONTINUOUS
 62
     7
  0
LINE
  5
1E7
330
1F
100
AcDbEntity
  8
0
  6
CONTINUOUS
 62
     7
100
AcDbLine
 10
9.0363220174
 20
5.5669236238
 30
0.0
 11
9.0504641531
 21
5.5750936939
 31
0.0
  0
POLYLINE
  5
1E8
330
1F
100
AcDbEntity
  8
0
  6
CONTINUOUS
 62
     7
100
AcDb2dPolyline
 66
     1
 10
0.0
 20
0.0
 30
0.0
  0
VERTEX
  5
2E9
330
1E8
100
AcDbEntity
  8
0
  6
CONTINUOUS
 62
     7
100
AcDbVertex
100
AcDb2dVertex
 10
7.8167641759
 20
8.1948949964
 30
0.0
  0
VERTEX
  5
2EA
330
1E8
100
AcDbEntity
  8
0
  6
CONTINUOUS
 62
     7
100
AcDbVertex
100
AcDb2dVertex
 10
7.7932810987
 20
8.2072154489
 30
0.0
  0
VERTEX
  5
2EB
330
1E8
100
AcDbEntity
  8
0
  6
CONTINUOUS
 62
     7
100
AcDbVertex
100
AcDb2dVertex
 10
7.766570228
 20
8.2184847343
 30
0.0
  0
VERTEX
  5
2EC
330
1E8
100
AcDbEntity
  8
0
  6
CONTINUOUS
 62
     7
100
AcDbVertex
100
AcDb2dVertex
 10
7.738721141
 20
8.2274976371
 30
0.0
  0
VERTEX
  5
2ED
330
1E8
100
AcDbEntity
  8
0
  6
CONTINUOUS
 62
     7
100
AcDbVertex
100
AcDb2dVertex
 10
7.7098055709
 20
8.2342309421
 30
0.0
  0
VERTEX
  5
2EE
330
1E8
100
AcDbEntity
  8
0
  6
CONTINUOUS
 62
     7
100
AcDbVertex
100
AcDb2dVertex
 10
7.6798979976
 20
8.2386673057
 30
0.0
  0
VERTEX
  5
2EF
330
1E8
100
AcDbEntity
  8
0
  6
CONTINUOUS
 62
     7
100
AcDbVertex
100
AcDb2dVertex
 10
7.6490754566
 20
8.240795301
 30
0.0
  0
VERTEX
  5
2F0
330
1E8
100
AcDbEntity
  8
0
  6
CONTINUOUS
 62
     7
100
AcDbVertex
100
AcDb2dVertex
 10
7.6174173399
 20
8.2406094465
 30
0.0
  0
VERTEX
  5
2F1
330
1E8
100
AcDbEntity
  8
0
  6
CONTINUOUS
 62
     7
100
AcDbVertex
100
AcDb2dVertex
 10
7.5850051918
 20
8.2381102211
 30
0.0
  0
VERTEX
  5
2F2
330
1E8
100
AcDbEntity
  8
0
  6
CONTINUOUS
 62
     7
100
AcDbVertex
100
AcDb2dVertex
 10
7.5519224988
 20
8.2333040622
 30
0.0
  0
VERTEX
  5
2F3
330
1E8
100
AcDbEntity
  8
0
  6
CONTINUOUS
 62
     7
100
AcDbVertex
100
AcDb2dVertex
 10
7.5182544747
 20
8.2262033494
 30
0.0
  0
VERTEX
  5
2F4
330
1E8
100
AcDbEntity
  8
0
  6
CONTINUOUS
 62
     7
100
AcDbVertex
100
AcDb2dVertex
 10
7.4840878408
 20
8.2168263726
 30
0.0
  0
VERTEX
  5
2F5
330
1E8
100
AcDbEntity
  8
0
  6
CONTINUOUS
 62
     7
100
AcDbVertex
100
AcDb2dVertex
 10
7.4495106028
 20
8.2051972848
 30
0.0
  0
VERTEX
  5
2F6
330
1E8
100
AcDbEntity
  8
0
  6
CONTINUOUS
 62
     7
100
AcDbVertex
100
AcDb2dVertex
 10
7.4146118242
 20
8.1913460399
 30
0.0
  0
VERTEX
  5
2F7
330
1E8
100
AcDbEntity
  8
0
  6
CONTINUOUS
 62
     7
100
AcDbVertex
100
AcDb2dVertex
 10
7.3794813963
 20
8.1753083157
 30
0.0
  0
VERTEX
  5
2F8
330
1E8
100
AcDbEntity
  8
0
  6
CONTINUOUS
 62
     7
100
AcDbVertex
100
AcDb2dVertex
 10
7.3442098075
 20
8.1571254219
 30
0.0
  0
VERTEX
  5
2F9
330
1E8
100
AcDbEntity
  8
0
  6
CONTINUOUS
 62
     7
100
AcDbVertex
100
AcDb2dVertex
 10
7.3088879095
 20
8.1368441935
 30
0.0
  0
VERTEX
  5
2FA
330
1E8
100
AcDbEntity
  8
0
  6
CONTINUOUS
 62
     7
100
AcDbVertex
100
AcDb2dVertex
 10
7.2736066838
 20
8.1145168705
 30
0.0
  0
VERTEX
  5
2FB
330
1E8
100
AcDbEntity
  8
0
  6
CONTINUOUS
 62
     7
100
AcDbVertex
100
AcDb2dVertex
 10
7.238457007
 20
8.0902009632
 30
0.0
  0
VERTEX
  5
2FC
330
1E8
100
AcDbEntity
  8
0
  6
CONTINUOUS
 62
     7
100
AcDbVertex
100
AcDb2dVertex
 10
7.2035294169
 20
8.0639591039
 30
0.0
  0
VERTEX
  5
2FD
330
1E8
100
AcDbEntity
  8
0
  6
CONTINUOUS
 62
     7
100
AcDbVertex
100
AcDb2dVertex
 10
7.1689138792
 20
8.035858886
 30
0.0
  0
VERTEX
  5
2FE
330
1E8
100
AcDbEntity
  8
0
  6
CONTINUOUS
 62
     7
100
AcDbVertex
100
AcDb2dVertex
 10
7.134699556
 20
8.0059726894
 30
0.0
  0
VERTEX
  5
2FF
330
1E8
100
AcDbEntity
  8
0
  6
CONTINUOUS
 62
     7
100
AcDbVertex
100
AcDb2dVertex
 10
7.1009745758
 20
7.9743774942
 30
0.0
  0
VERTEX
  5
300
330
1E8
100
AcDbEntity
  8
0
  6
CONTINUOUS
 62
     7
100
AcDbVertex
100
AcDb2dVertex
 10
7.0678258067
 20
7.9411546828
 30
0.0
  0
VERTEX
  5
301
330
1E8
100
AcDbEntity
  8
0
  6
CONTINUOUS
 62
     7
100
AcDbVertex
100
AcDb2dVertex
 10
7.0353386326
 20
7.9063898297
 30
0.0
  0
VERTEX
  5
302
330
1E8
100
AcDbEntity
  8
0
  6
CONTINUOUS
 62
     7
100
AcDbVertex
100
AcDb2dVertex
 10
7.0035967332
 20
7.8701724816
 30
0.0
  0
VERTEX
  5
303
330
1E8
100
AcDbEntity
  8
0
  6
CONTINUOUS
 62
     7
100
AcDbVertex
100
AcDb2dVertex
 10
6.9726818687
 20
7.8325959264
 30
0.0
  0
VERTEX
  5
304
330
1E8
100
AcDbEntity
  8
0
  6
CONTINUOUS
 62
     7
100
AcDbVertex
100
AcDb2dVertex
 10
6.942673669
 20
7.7937569528
 30
0.0
  0
VERTEX
  5
305
330
1E8
100
AcDbEntity
  8
0
  6
CONTINUOUS
 62
     7
100
AcDbVertex
100
AcDb2dVertex
 10
6.9136494286
 20
7.7537556017
 30
0.0
  0
VERTEX
  5
306
330
1E8
100
AcDbEntity
  8
0
  6
CONTINUOUS
 62
     7
100
AcDbVertex
100
AcDb2dVertex
 10
6.8856839074
 20
7.7126949075
 30
0.0
  0
VERTEX
  5
307
330
1E8
100
AcDbEntity
  8
0
  6
CONTINUOUS
 62
     7
100
AcDbVertex
100
AcDb2dVertex
 10
6.8588491385
 20
7.6706806336
 30
0.0
  0
VERTEX
  5
308
330
1E8
100
AcDbEntity
  8
0
  6
CONTINUOUS
 62
     7
100
AcDbVertex
100
AcDb2dVertex
 10
6.8332142423
 20
7.6278209995
 30
0.0
  0
VERTEX
  5
309
330
1E8
100
AcDbEntity
  8
0
  6
CONTINUOUS
 62
     7
100
AcDbVertex
100
AcDb2dVertex
 10
6.8088452487
 20
7.5842264022
 30
0.0
  0
VERTEX
  5
30A
330
1E8
100
AcDbEntity
  8
0
  6
CONTINUOUS
 62
     7
100
AcDbVertex
100
AcDb2dVertex
 10
6.7858049268
 20
7.5400091316
 30
0.0
  0
VERTEX
  5
30B
330
1E8
100
AcDbEntity
  8
0
  6
CONTINUOUS
 62
     7
100
AcDbVertex
100
AcDb2dVertex
 10
6.7641526233
 20
7.4952830816
 30
0.0
  0
VERTEX
  5
30C
330
1E8
100
AcDbEntity
  8
0
  6
CONTINUOUS
 62
     7
100
AcDbVertex
100
AcDb2dVertex
 10
6.7439441099
 20
7.4501634568
 30
0.0
  0
VERTEX
  5
30D
330
1E8
100
AcDbEntity
  8
0
  6
CONTINUOUS
 62
     7
100
AcDbVertex
100
AcDb2dVertex
 10
6.7252314391
 20
7.4047664754
 30
0.0
  0
VERTEX
  5
30E
330
1E8
100
AcDbEntity
  8
0
  6
CONTINUOUS
 62
     7
100
AcDbVertex
100
AcDb2dVertex
 10
6.7080628108
 20
7.3592090698
 30
0.0
  0
VERTEX
  5
30F
330
1E8
100
AcDbEntity
  8
0
  6
CONTINUOUS
 62
     7
100
AcDbVertex
100
AcDb2dVertex
 10
6.6924824475
 20
7.3136085859
 30
0.0
  0
VERTEX
  5
310
330
1E8
100
AcDbEntity
  8
0
  6
CONTINUOUS
 62
     7
100
AcDbVertex
100
AcDb2dVertex
 10
6.6785304807
 20
7.2680824805
 30
0.0
  0
VERTEX
  5
311
330
1E8
100
AcDbEntity
  8
0
  6
CONTINUOUS
 62
     7
100
AcDbVertex
100
AcDb2dVertex
 10
6.6662428477
 20
7.2227480188
 30
0.0
  0
VERTEX
  5
312
330
1E8
100
AcDbEntity
  8
0
  6
CONTINUOUS
 62
     7
100
AcDbVertex
100
AcDb2dVertex
 10
6.6556511987
 20
7.1777219723
 30
0.0
  0
VERTEX
  5
313
330
1E8
100
AcDbEntity
  8
0
  6
CONTINUOUS
 62
     7
100
AcDbVertex
100
AcDb2dVertex
 10
6.6467828153
 20
7.1331203182
 30
0.0
  0
VERTEX
  5
314
330
1E8
100
AcDbEntity
  8
0
  6
CONTINUOUS
 62
     7
100
AcDbVertex
100
AcDb2dVertex
 10
6.6396605408
 20
7.0890579406
 30
0.0
  0
VERTEX
  5
315
330
1E8
100
AcDbEntity
  8
0
  6
CONTINUOUS
 62
     7
100
AcDbVertex
100
AcDb2dVertex
 10
6.6343027203
 20
7.0456483342
 30
0.0
  0
VERTEX
  5
316
330
1E8
100
AcDbEntity
  8
0
  6
CONTINUOUS
 62
     7
100
AcDbVertex
100
AcDb2dVertex
 10
6.6307231546
 20
7.0030033128
 30
0.0
  0
VERTEX
  5
317
330
1E8
100
AcDbEntity
  8
0
  6
CONTINUOUS
 62
     7
100
AcDbVertex
100
AcDb2dVertex
 10
6.6289310637
 20
6.9612327204
 30
0.0
  0
VERTEX
  5
318
330
1E8
100
AcDbEntity
  8
0
  6
CONTINUOUS
 62
     7
100
AcDbVertex
100
AcDb2dVertex
 10
6.6289310637
 20
6.9204441489
 30
0.0
  0
VERTEX
  5
319
330
1E8
100
AcDbEntity
  8
0
  6
CONTINUOUS
 62
     7
100
AcDbVertex
100
AcDb2dVertex
 10
6.6307231546
 20
6.8807426606
 30
0.0
  0
VERTEX
  5
31A
330
1E8
100
AcDbEntity
  8
0
  6
CONTINUOUS
 62
     7
100
AcDbVertex
100
AcDb2dVertex
 10
6.6343027203
 20
6.8422305178
 30
0.0
  0
VERTEX
  5
31B
330
1E8
100
AcDbEntity
  8
0
  6
CONTINUOUS
 62
     7
100
AcDbVertex
100
AcDb2dVertex
 10
6.6396605408
 20
6.8050069193
 30
0.0
  0
VERTEX
  5
31C
330
1E8
100
AcDbEntity
  8
0
  6
CONTINUOUS
 62
     7
100
AcDbVertex
100
AcDb2dVertex
 10
6.6467828153
 20
6.7691677448
 30
0.0
  0
VERTEX
  5
31D
330
1E8
100
AcDbEntity
  8
0
  6
CONTINUOUS
 62
     7
100
AcDbVertex
100
AcDb2dVertex
 10
6.6556511987
 20
6.7348053082
 30
0.0
  0
VERTEX
  5
31E
330
1E8
100
AcDbEntity
  8
0
  6
CONTINUOUS
 62
     7
100
AcDbVertex
100
AcDb2dVertex
 10
6.6662428477
 20
6.7020081194
 30
0.0
  0
VERTEX
  5
31F
330
1E8
100
AcDbEntity
  8
0
  6
CONTINUOUS
 62
     7
100
AcDbVertex
100
AcDb2dVertex
 10
6.6785304807
 20
6.6708606568
 30
0.0
  0
VERTEX
  5
320
330
1E8
100
AcDbEntity
  8
0
  6
CONTINUOUS
 62
     7
100
AcDbVertex
100
AcDb2dVertex
 10
6.6924824475
 20
6.6414431493
 30
0.0
  0
VERTEX
  5
321
330
1E8
100
AcDbEntity
  8
0
  6
CONTINUOUS
 62
     7
100
AcDbVertex
100
AcDb2dVertex
 10
6.7080628108
 20
6.6138313701
 30
0.0
  0
VERTEX
  5
322
330
1E8
100
AcDbEntity
  8
0
  6
CONTINUOUS
 62
     7
100
AcDbVertex
100
AcDb2dVertex
 10
6.7252314391
 20
6.5880964408
 30
0.0
  0
VERTEX
  5
323
330
1E8
100
AcDbEntity
  8
0
  6
CONTINUOUS
 62
     7
100
AcDbVertex
100
AcDb2dVertex
 10
6.7439441099
 20
6.5643046491
 30
0.0
  0
VERTEX
  5
324
330
1E8
100
AcDbEntity
  8
0
  6
CONTINUOUS
 62
     7
100
AcDbVertex
100
AcDb2dVertex
 10
6.7641526233
 20
6.5425172772
 30
0.0
  0
VERTEX
  5
325
330
1E8
100
AcDbEntity
  8
0
  6
CONTINUOUS
 62
     7
100
AcDbVertex
100
AcDb2dVertex
 10
6.7858049268
 20
6.5227904448
 30
0.0
  0
VERTEX
  5
326
330
1E8
100
AcDbEntity
  8
0
  6
CONTINUOUS
 62
     7
100
AcDbVertex
100
AcDb2dVertex
 10
6.8088452487
 20
6.5051749636
 30
0.0
  0
VERTEX
  5
327
330
1E8
100
AcDbEntity
  8
0
  6
CONTINUOUS
 62
     7
100
AcDbVertex
100
AcDb2dVertex
 10
6.8325921949
 20
6.4900744011
 30
0.0
  0
SEQEND
  5
328
330
1E8
100
AcDbEntity
  8
0
  6
CONTINUOUS
 62
     7
  0
POLYLINE
  5
1E9
330
1F
100
AcDbEntity
  8
0
  6
CONTINUOUS
 62
     7
100
AcDb2dPolyline
 66
     1
 10
0.0
 20
0.0
 30
0.0
  0
VERTEX
  5
329
330
1E9
100
AcDbEntity
  8
0
  6
CONTINUOUS
 62
     7
100
AcDbVertex
100
AcDb2dVertex
 10
7.3244554746
 20
7.4160479798
 30
0.0
  0
VERTEX
  5
32A
330
1E9
100
AcDbEntity
  8
0
  6
CONTINUOUS
 62
     7
100
AcDbVertex
100
AcDb2dVertex
 10
7.3520494747
 20
7.4585458369
 30
0.0
  0
VERTEX
  5
32B
330
1E9
100
AcDbEntity
  8
0
  6
CONTINUOUS
 62
     7
100
AcDbVertex
100
AcDb2dVertex
 10
7.380794001
 20
7.5000281209
 30
0.0
  0
VERTEX
  5
32C
330
1E9
100
AcDbEntity
  8
0
  6
CONTINUOUS
 62
     7
100
AcDbVertex
100
AcDb2dVertex
 10
7.4106124546
 20
7.5403842891
 30
0.0
  0
VERTEX
  5
32D
330
1E9
100
AcDbEntity
  8
0
  6
CONTINUOUS
 62
     7
100
AcDbVertex
100
AcDb2dVertex
 10
7.4414253749
 20
7.5795067996
 30
0.0
  0
VERTEX
  5
32E
330
1E9
100
AcDbEntity
  8
0
  6
CONTINUOUS
 62
     7
100
AcDbVertex
100
AcDb2dVertex
 10
7.473150651
 20
7.6172913983
 30
0.0
  0
VERTEX
  5
32F
330
1E9
100
AcDbEntity
  8
0
  6
CONTINUOUS
 62
     7
100
AcDbVertex
100
AcDb2dVertex
 10
7.5057037411
 20
7.6536373962
 30
0.0
  0
VERTEX
  5
330
330
1E9
100
AcDbEntity
  8
0
  6
CONTINUOUS
 62
     7
100
AcDbVertex
100
AcDb2dVertex
 10
7.538997897
 20
7.6884479378
 30
0.0
  0
VERTEX
  5
331
330
1E9
100
AcDbEntity
  8
0
  6
CONTINUOUS
 62
     7
100
AcDbVertex
100
AcDb2dVertex
 10
7.5729443961
 20
7.7216302595
 30
0.0
  0
VERTEX
  5
332
330
1E9
100
AcDbEntity
  8
0
  6
CONTINUOUS
 62
     7
100
AcDbVertex
100
AcDb2dVertex
 10
7.6074527771
 20
7.7530959366
 30
0.0
  0
VERTEX
  5
333
330
1E9
100
AcDbEntity
  8
0
  6
CONTINUOUS
 62
     7
100
AcDbVertex
100
AcDb2dVertex
 10
7.6424310816
 20
7.7827611187
 30
0.0
  0
VERTEX
  5
334
330
1E9
100
AcDbEntity
  8
0
  6
CONTINUOUS
 62
     7
100
AcDbVertex
100
AcDb2dVertex
 10
7.6777860989
 20
7.8105467537
 30
0.0
  0
VERTEX
  5
335
330
1E9
100
AcDbEntity
  8
0
  6
CONTINUOUS
 62
     7
100
AcDbVertex
100
AcDb2dVertex
 10
7.7134236143
 20
7.836378798
 30
0.0
  0
VERTEX
  5
336
330
1E9
100
AcDbEntity
  8
0
  6
CONTINUOUS
 62
     7
100
AcDbVertex
100
AcDb2dVertex
 10
7.7492486604
 20
7.860188414
 30
0.0
  0
VERTEX
  5
337
330
1E9
100
AcDbEntity
  8
0
  6
CONTINUOUS
 62
     7
100
AcDbVertex
100
AcDb2dVertex
 10
7.7851657702
 20
7.8819121533
 30
0.0
  0
VERTEX
  5
338
330
1E9
100
AcDbEntity
  8
0
  6
CONTINUOUS
 62
     7
100
AcDbVertex
100
AcDb2dVertex
 10
7.8210792311
 20
7.9014921262
 30
0.0
  0
VERTEX
  5
339
330
1E9
100
AcDbEntity
  8
0
  6
CONTINUOUS
 62
     7
100
AcDbVertex
100
AcDb2dVertex
 10
7.8568933404
 20
7.9188761558
 30
0.0
  0
VERTEX
  5
33A
330
1E9
100
AcDbEntity
  8
0
  6
CONTINUOUS
 62
     7
100
AcDbVertex
100
AcDb2dVertex
 10
7.89251266
 20
7.9340179168
 30
0.0
  0
VERTEX
  5
33B
330
1E9
100
AcDbEntity
  8
0
  6
CONTINUOUS
 62
     7
100
AcDbVertex
100
AcDb2dVertex
 10
7.9278422711
 20
7.9468770592
 30
0.0
  0
VERTEX
  5
33C
330
1E9
100
AcDbEntity
  8
0
  6
CONTINUOUS
 62
     7
100
AcDbVertex
100
AcDb2dVertex
 10
7.9627880268
 20
7.9574193157
 30
0.0
  0
VERTEX
  5
33D
330
1E9
100
AcDbEntity
  8
0
  6
CONTINUOUS
 62
     7
100
AcDbVertex
100
AcDb2dVertex
 10
7.9972568031
 20
7.9656165932
 30
0.0
  0
VERTEX
  5
33E
330
1E9
100
AcDbEntity
  8
0
  6
CONTINUOUS
 62
     7
100
AcDbVertex
100
AcDb2dVertex
 10
8.031156747
 20
7.9714470474
 30
0.0
  0
VERTEX
  5
33F
330
1E9
100
AcDbEntity
  8
0
  6
CONTINUOUS
 62
     7
100
AcDbVertex
100
AcDb2dVertex
 10
8.0643975214
 20
7.9748951413
 30
0.0
  0
VERTEX
  5
340
330
1E9
100
AcDbEntity
  8
0
  6
CONTINUOUS
 62
     7
100
AcDbVertex
100
AcDb2dVertex
 10
8.0968905459
 20
7.9759516864
 30
0.0
  0
VERTEX
  5
341
330
1E9
100
AcDbEntity
  8
0
  6
CONTINUOUS
 62
     7
100
AcDbVertex
100
AcDb2dVertex
 10
8.1285492324
 20
7.974613867
 30
0.0
  0
VERTEX
  5
342
330
1E9
100
AcDbEntity
  8
0
  6
CONTINUOUS
 62
     7
100
AcDbVertex
100
AcDb2dVertex
 10
8.1592892165
 20
7.9708852483
 30
0.0
  0
VERTEX
  5
343
330
1E9
100
AcDbEntity
  8
0
  6
CONTINUOUS
 62
     7
100
AcDbVertex
100
AcDb2dVertex
 10
8.1890285817
 20
7.9647757664
 30
0.0
  0
VERTEX
  5
344
330
1E9
100
AcDbEntity
  8
0
  6
CONTINUOUS
 62
     7
100
AcDbVertex
100
AcDb2dVertex
 10
8.2176880782
 20
7.9563017019
 30
0.0
  0
VERTEX
  5
345
330
1E9
100
AcDbEntity
  8
0
  6
CONTINUOUS
 62
     7
100
AcDbVertex
100
AcDb2dVertex
 10
8.2451913335
 20
7.9454856366
 30
0.0
  0
VERTEX
  5
346
330
1E9
100
AcDbEntity
  8
0
  6
CONTINUOUS
 62
     7
100
AcDbVertex
100
AcDb2dVertex
 10
8.2714650567
 20
7.9323563933
 30
0.0
  0
VERTEX
  5
347
330
1E9
100
AcDbEntity
  8
0
  6
CONTINUOUS
 62
     7
100
AcDbVertex
100
AcDb2dVertex
 10
8.2896050674
 20
7.9214751487
 30
0.0
  0
SEQEND
  5
348
330
1E9
100
AcDbEntity
  8
0
  6
CONTINUOUS
 62
     7
  0
LINE
  5
1EA
330
1F
100
AcDbEntity
  8
0
  6
CONTINUOUS
 62
     7
100
AcDbLine
 10
7.3522943242
 20
7.3999769539
 30
0.0
 11
7.3244554746
 21
7.4160479798
 31
0.0
  0
POLYLINE
  5
1EB
330
1F
100
AcDbEntity
  8
0
  6
CONTINUOUS
 62
     7
100
AcDb2dPolyline
 66
     1
 10
0.0
 20
0.0
 30
0.0
  0
VERTEX
  5
349
330
1EB
100
AcDbEntity
  8
0
  6
CONTINUOUS
 62
     7
100
AcDbVertex
100
AcDb2dVertex
 10
8.303721334
 20
7.9137806127
 30
0.0
  0
VERTEX
  5
34A
330
1EB
100
AcDbEntity
  8
0
  6
CONTINUOUS
 62
     7
100
AcDbVertex
100
AcDb2dVertex
 10
8.289083091
 20
7.9217427268
 30
0.0
  0
VERTEX
  5
34B
330
1EB
100
AcDbEntity
  8
0
  6
CONTINUOUS
 62
     7
100
AcDbVertex
100
AcDb2dVertex
 10
8.2626880434
 20
7.9338118163
 30
0.0
  0
VERTEX
  5
34C
330
1EB
100
AcDbEntity
  8
0
  6
CONTINUOUS
 62
     7
100
AcDbVertex
100
AcDb2dVertex
 10
8.2351235185
 20
7.9436188633
 30
0.0
  0
VERTEX
  5
34D
330
1EB
100
AcDbEntity
  8
0
  6
CONTINUOUS
 62
     7
100
AcDbVertex
100
AcDb2dVertex
 10
8.206460985
 20
7.9511384401
 30
0.0
  0
VERTEX
  5
34E
330
1EB
100
AcDbEntity
  8
0
  6
CONTINUOUS
 62
     7
100
AcDbVertex
100
AcDb2dVertex
 10
8.1767747584
 20
7.9563510504
 30
0.0
  0
VERTEX
  5
34F
330
1EB
100
AcDbEntity
  8
0
  6
CONTINUOUS
 62
     7
100
AcDbVertex
100
AcDb2dVertex
 10
8.1461418082
 20
7.959243179
 30
0.0
  0
VERTEX
  5
350
330
1EB
100
AcDbEntity
  8
0
  6
CONTINUOUS
 62
     7
100
AcDbVertex
100
AcDb2dVertex
 10
8.1146415588
 20
7.9598073273
 30
0.0
  0
VERTEX
  5
351
330
1EB
100
AcDbEntity
  8
0
  6
CONTINUOUS
 62
     7
100
AcDbVertex
100
AcDb2dVertex
 10
8.0823556831
 20
7.9580420325
 30
0.0
  0
VERTEX
  5
352
330
1EB
100
AcDbEntity
  8
0
  6
CONTINUOUS
 62
     7
100
AcDbVertex
100
AcDb2dVertex
 10
8.049367891
 20
7.9539518717
 30
0.0
  0
VERTEX
  5
353
330
1EB
100
AcDbEntity
  8
0
  6
CONTINUOUS
 62
     7
100
AcDbVertex
100
AcDb2dVertex
 10
8.0157637125
 20
7.9475474497
 30
0.0
  0
VERTEX
  5
354
330
1EB
100
AcDbEntity
  8
0
  6
CONTINUOUS
 62
     7
100
AcDbVertex
100
AcDb2dVertex
 10
7.9816302755
 20
7.9388453718
 30
0.0
  0
VERTEX
  5
355
330
1EB
100
AcDbEntity
  8
0
  6
CONTINUOUS
 62
     7
100
AcDbVertex
100
AcDb2dVertex
 10
7.9470560802
 20
7.9278682004
 30
0.0
  0
VERTEX
  5
356
330
1EB
100
AcDbEntity
  8
0
  6
CONTINUOUS
 62
     7
100
AcDbVertex
100
AcDb2dVertex
 10
7.9121307698
 20
7.9146443968
 30
0.0
  0
VERTEX
  5
357
330
1EB
100
AcDbEntity
  8
0
  6
CONTINUOUS
 62
     7
100
AcDbVertex
100
AcDb2dVertex
 10
7.8769448975
 20
7.8992082475
 30
0.0
  0
VERTEX
  5
358
330
1EB
100
AcDbEntity
  8
0
  6
CONTINUOUS
 62
     7
100
AcDbVertex
100
AcDb2dVertex
 10
7.8415896925
 20
7.8815997747
 30
0.0
  0
VERTEX
  5
359
330
1EB
100
AcDbEntity
  8
0
  6
CONTINUOUS
 62
     7
100
AcDbVertex
100
AcDb2dVertex
 10
7.8061568226
 20
7.8618646334
 30
0.0
  0
VERTEX
  5
35A
330
1EB
100
AcDbEntity
  8
0
  6
CONTINUOUS
 62
     7
100
AcDbVertex
100
AcDb2dVertex
 10
7.7707381572
 20
7.8400539921
 30
0.0
  0
VERTEX
  5
35B
330
1EB
100
AcDbEntity
  8
0
  6
CONTINUOUS
 62
     7
100
AcDbVertex
100
AcDb2dVertex
 10
7.735425529
 20
7.816224401
 30
0.0
  0
VERTEX
  5
35C
330
1EB
100
AcDbEntity
  8
0
  6
CONTINUOUS
 62
     7
100
AcDbVertex
100
AcDb2dVertex
 10
7.7003104955
 20
7.7904376447
 30
0.0
  0
VERTEX
  5
35D
330
1EB
100
AcDbEntity
  8
0
  6
CONTINUOUS
 62
     7
100
AcDbVertex
100
AcDb2dVertex
 10
7.665484102
 20
7.7627605825
 30
0.0
  0
VERTEX
  5
35E
330
1EB
100
AcDbEntity
  8
0
  6
CONTINUOUS
 62
     7
100
AcDbVertex
100
AcDb2dVertex
 10
7.6310366455
 20
7.7332649748
 30
0.0
  0
VERTEX
  5
35F
330
1EB
100
AcDbEntity
  8
0
  6
CONTINUOUS
 62
     7
100
AcDbVertex
100
AcDb2dVertex
 10
7.5970574404
 20
7.7020272968
 30
0.0
  0
VERTEX
  5
360
330
1EB
100
AcDbEntity
  8
0
  6
CONTINUOUS
 62
     7
100
AcDbVertex
100
AcDb2dVertex
 10
7.563634587
 20
7.6691285408
 30
0.0
  0
VERTEX
  5
361
330
1EB
100
AcDbEntity
  8
0
  6
CONTINUOUS
 62
     7
100
AcDbVertex
100
AcDb2dVertex
 10
7.5308547433
 20
7.6346540059
 30
0.0
  0
VERTEX
  5
362
330
1EB
100
AcDbEntity
  8
0
  6
CONTINUOUS
 62
     7
100
AcDbVertex
100
AcDb2dVertex
 10
7.4988028999
 20
7.5986930765
 30
0.0
  0
VERTEX
  5
363
330
1EB
100
AcDbEntity
  8
0
  6
CONTINUOUS
 62
     7
100
AcDbVertex
100
AcDb2dVertex
 10
7.4675621599
 20
7.5613389914
 30
0.0
  0
VERTEX
  5
364
330
1EB
100
AcDbEntity
  8
0
  6
CONTINUOUS
 62
     7
100
AcDbVertex
100
AcDb2dVertex
 10
7.4372135234
 20
7.5226886011
 30
0.0
  0
VERTEX
  5
365
330
1EB
100
AcDbEntity
  8
0
  6
CONTINUOUS
 62
     7
100
AcDbVertex
100
AcDb2dVertex
 10
7.4078356777
 20
7.4828421172
 30
0.0
  0
VERTEX
  5
366
330
1EB
100
AcDbEntity
  8
0
  6
CONTINUOUS
 62
     7
100
AcDbVertex
100
AcDb2dVertex
 10
7.3795047928
 20
7.4419028528
 30
0.0
  0
VERTEX
  5
367
330
1EB
100
AcDbEntity
  8
0
  6
CONTINUOUS
 62
     7
100
AcDbVertex
100
AcDb2dVertex
 10
7.3522943242
 20
7.3999769539
 30
0.0
  0
SEQEND
  5
368
330
1EB
100
AcDbEntity
  8
0
  6
CONTINUOUS
 62
     7
  0
POLYLINE
  5
1EC
330
1F
100
AcDbEntity
  8
0
  6
CONTINUOUS
 62
     7
100
AcDb2dPolyline
 66
     1
 10
0.0
 20
0.0
 30
0.0
  0
VERTEX
  5
369
330
1EC
100
AcDbEntity
  8
0
  6
CONTINUOUS
 62
     7
100
AcDbVertex
100
AcDb2dVertex
 10
7.9087752263
 20
6.5228644278
 30
0.0
  0
VERTEX
  5
36A
330
1EC
100
AcDbEntity
  8
0
  6
CONTINUOUS
 62
     7
100
AcDbVertex
100
AcDb2dVertex
 10
7.8975045901
 20
6.4772509294
 30
0.0
  0
VERTEX
  5
36B
330
1EC
100
AcDbEntity
  8
0
  6
CONTINUOUS
 62
     7
100
AcDbVertex
100
AcDb2dVertex
 10
7.8879849793
 20
6.432032467
 30
0.0
  0
VERTEX
  5
36C
330
1EC
100
AcDbEntity
  8
0
  6
CONTINUOUS
 62
     7
100
AcDbVertex
100
AcDb2dVertex
 10
7.8802414308
 20
6.387327967
 30
0.0
  0
VERTEX
  5
36D
330
1EC
100
AcDbEntity
  8
0
  6
CONTINUOUS
 62
     7
100
AcDbVertex
100
AcDb2dVertex
 10
7.8742943105
 20
6.3432550037
 30
0.0
  0
VERTEX
  5
36E
330
1EC
100
AcDbEntity
  8
0
  6
CONTINUOUS
 62
     7
100
AcDbVertex
100
AcDb2dVertex
 10
7.8701592595
 20
6.2999294907
 30
0.0
  0
VERTEX
  5
36F
330
1EC
100
AcDbEntity
  8
0
  6
CONTINUOUS
 62
     7
100
AcDbVertex
100
AcDb2dVertex
 10
7.8678471531
 20
6.2574653757
 30
0.0
  0
VERTEX
  5
370
330
1EC
100
AcDbEntity
  8
0
  6
CONTINUOUS
 62
     7
100
AcDbVertex
100
AcDb2dVertex
 10
7.8673640723
 20
6.215974341
 30
0.0
  0
VERTEX
  5
371
330
1EC
100
AcDbEntity
  8
0
  6
CONTINUOUS
 62
     7
100
AcDbVertex
100
AcDb2dVertex
 10
7.8687112876
 20
6.1755655095
 30
0.0
  0
VERTEX
  5
372
330
1EC
100
AcDbEntity
  8
0
  6
CONTINUOUS
 62
     7
100
AcDbVertex
100
AcDb2dVertex
 10
7.8718852557
 20
6.1363451579
 30
0.0
  0
VERTEX
  5
373
330
1EC
100
AcDbEntity
  8
0
  6
CONTINUOUS
 62
     7
100
AcDbVertex
100
AcDb2dVertex
 10
7.8768776291
 20
6.0984164373
 30
0.0
  0
VERTEX
  5
374
330
1EC
100
AcDbEntity
  8
0
  6
CONTINUOUS
 62
     7
100
AcDbVertex
100
AcDb2dVertex
 10
7.8836752776
 20
6.0618791015
 30
0.0
  0
VERTEX
  5
375
330
1EC
100
AcDbEntity
  8
0
  6
CONTINUOUS
 62
     7
100
AcDbVertex
100
AcDb2dVertex
 10
7.892260323
 20
6.0268292451
 30
0.0
  0
VERTEX
  5
376
330
1EC
100
AcDbEntity
  8
0
  6
CONTINUOUS
 62
     7
100
AcDbVertex
100
AcDb2dVertex
 10
7.9026101865
 20
5.9933590506
 30
0.0
  0
VERTEX
  5
377
330
1EC
100
AcDbEntity
  8
0
  6
CONTINUOUS
 62
     7
100
AcDbVertex
100
AcDb2dVertex
 10
7.9146976475
 20
5.9615565458
 30
0.0
  0
VERTEX
  5
378
330
1EC
100
AcDbEntity
  8
0
  6
CONTINUOUS
 62
     7
100
AcDbVertex
100
AcDb2dVertex
 10
7.9284909155
 20
5.9315053725
 30
0.0
  0
VERTEX
  5
379
330
1EC
100
AcDbEntity
  8
0
  6
CONTINUOUS
 62
     7
100
AcDbVertex
100
AcDb2dVertex
 10
7.9439537137
 20
5.9032845664
 30
0.0
  0
VERTEX
  5
37A
330
1EC
100
AcDbEntity
  8
0
  6
CONTINUOUS
 62
     7
100
AcDbVertex
100
AcDb2dVertex
 10
7.9610453745
 20
5.8769683493
 30
0.0
  0
VERTEX
  5
37B
330
1EC
100
AcDbEntity
  8
0
  6
CONTINUOUS
 62
     7
100
AcDbVertex
100
AcDb2dVertex
 10
7.9797209459
 20
5.8526259337
 30
0.0
  0
VERTEX
  5
37C
330
1EC
100
AcDbEntity
  8
0
  6
CONTINUOUS
 62
     7
100
AcDbVertex
100
AcDb2dVertex
 10
7.9999313108
 20
5.8303213412
 30
0.0
  0
VERTEX
  5
37D
330
1EC
100
AcDbEntity
  8
0
  6
CONTINUOUS
 62
     7
100
AcDbVertex
100
AcDb2dVertex
 10
8.0216233149
 20
5.8101132336
 30
0.0
  0
VERTEX
  5
37E
330
1EC
100
AcDbEntity
  8
0
  6
CONTINUOUS
 62
     7
100
AcDbVertex
100
AcDb2dVertex
 10
8.0447399075
 20
5.7920547591
 30
0.0
  0
VERTEX
  5
37F
330
1EC
100
AcDbEntity
  8
0
  6
CONTINUOUS
 62
     7
100
AcDbVertex
100
AcDb2dVertex
 10
8.0692202912
 20
5.7761934121
 30
0.0
  0
VERTEX
  5
380
330
1EC
100
AcDbEntity
  8
0
  6
CONTINUOUS
 62
     7
100
AcDbVertex
100
AcDb2dVertex
 10
8.0711982937
 20
5.7750423202
 30
0.0
  0
SEQEND
  5
381
330
1EC
100
AcDbEntity
  8
0
  6
CONTINUOUS
 62
     7
  0
LINE
  5
1ED
330
1F
100
AcDbEntity
  8
0
  6
CONTINUOUS
 62
     7
100
AcDbLine
 10
7.8809363767
 20
6.5389354536
 30
0.0
 11
7.9087752263
 21
6.5228644278
 31
0.0
  0
POLYLINE
  5
1EE
330
1F
100
AcDbEntity
  8
0
  6
CONTINUOUS
 62
     7
100
AcDb2dPolyline
 66
     1
 10
0.0
 20
0.0
 30
0.0
  0
VERTEX
  5
382
330
1EE
100
AcDbEntity
  8
0
  6
CONTINUOUS
 62
     7
100
AcDbVertex
100
AcDb2dVertex
 10
8.0574757106
 20
5.78341881
 30
0.0
  0
VERTEX
  5
383
330
1EE
100
AcDbEntity
  8
0
  6
CONTINUOUS
 62
     7
100
AcDbVertex
100
AcDb2dVertex
 10
8.0397612598
 20
5.7932211303
 30
0.0
  0
VERTEX
  5
384
330
1EE
100
AcDbEntity
  8
0
  6
CONTINUOUS
 62
     7
100
AcDbVertex
100
AcDb2dVertex
 10
8.0154366105
 20
5.8091754356
 30
0.0
  0
VERTEX
  5
385
330
1EE
100
AcDbEntity
  8
0
  6
CONTINUOUS
 62
     7
100
AcDbVertex
100
AcDb2dVertex
 10
7.9924715915
 20
5.8273112522
 30
0.0
  0
VERTEX
  5
386
330
1EE
100
AcDbEntity
  8
0
  6
CONTINUOUS
 62
     7
100
AcDbVertex
100
AcDb2dVertex
 10
7.9709262479
 20
5.8475811618
 30
0.0
  0
VERTEX
  5
387
330
1EE
100
AcDbEntity
  8
0
  6
CONTINUOUS
 62
     7
100
AcDbVertex
100
AcDb2dVertex
 10
7.9508569128
 20
5.8699321659
 30
0.0
  0
VERTEX
  5
388
330
1EE
100
AcDbEntity
  8
0
  6
CONTINUOUS
 62
     7
100
AcDbVertex
100
AcDb2dVertex
 10
7.9323160601
 20
5.8943058251
 30
0.0
  0
VERTEX
  5
389
330
1EE
100
AcDbEntity
  8
0
  6
CONTINUOUS
 62
     7
100
AcDbVertex
100
AcDb2dVertex
 10
7.9153521671
 20
5.9206384113
 30
0.0
  0
VERTEX
  5
38A
330
1EE
100
AcDbEntity
  8
0
  6
CONTINUOUS
 62
     7
100
AcDbVertex
100
AcDb2dVertex
 10
7.9000095882
 20
5.9488610744
 30
0.0
  0
VERTEX
  5
38B
330
1EE
100
AcDbEntity
  8
0
  6
CONTINUOUS
 62
     7
100
AcDbVertex
100
AcDb2dVertex
 10
7.8863284386
 20
5.9789000227
 30
0.0
  0
VERTEX
  5
38C
330
1EE
100
AcDbEntity
  8
0
  6
CONTINUOUS
 62
     7
100
AcDbVertex
100
AcDb2dVertex
 10
7.8743444894
 20
6.0106767155
 30
0.0
  0
VERTEX
  5
38D
330
1EE
100
AcDbEntity
  8
0
  6
CONTINUOUS
 62
     7
100
AcDbVertex
100
AcDb2dVertex
 10
7.8640890741
 20
6.0441080684
 30
0.0
  0
VERTEX
  5
38E
330
1EE
100
AcDbEntity
  8
0
  6
CONTINUOUS
 62
     7
100
AcDbVertex
100
AcDb2dVertex
 10
7.8555890069
 20
6.079106671
 30
0.0
  0
VERTEX
  5
38F
330
1EE
100
AcDbEntity
  8
0
  6
CONTINUOUS
 62
     7
100
AcDbVertex
100
AcDb2dVertex
 10
7.8488665123
 20
6.1155810147
 30
0.0
  0
VERTEX
  5
390
330
1EE
100
AcDbEntity
  8
0
  6
CONTINUOUS
 62
     7
100
AcDbVertex
100
AcDb2dVertex
 10
7.8439391672
 20
6.1534357328
 30
0.0
  0
VERTEX
  5
391
330
1EE
100
AcDbEntity
  8
0
  6
CONTINUOUS
 62
     7
100
AcDbVertex
100
AcDb2dVertex
 10
7.8408198547
 20
6.1925718491
 30
0.0
  0
VERTEX
  5
392
330
1EE
100
AcDbEntity
  8
0
  6
CONTINUOUS
 62
     7
100
AcDbVertex
100
AcDb2dVertex
 10
7.8395167306
 20
6.2328870373
 30
0.0
  0
VERTEX
  5
393
330
1EE
100
AcDbEntity
  8
0
  6
CONTINUOUS
 62
     7
100
AcDbVertex
100
AcDb2dVertex
 10
7.8400332022
 20
6.274275888
 30
0.0
  0
VERTEX
  5
394
330
1EE
100
AcDbEntity
  8
0
  6
CONTINUOUS
 62
     7
100
AcDbVertex
100
AcDb2dVertex
 10
7.8423679191
 20
6.3166301848
 30
0.0
  0
VERTEX
  5
395
330
1EE
100
AcDbEntity
  8
0
  6
CONTINUOUS
 62
     7
100
AcDbVertex
100
AcDb2dVertex
 10
7.8465147769
 20
6.3598391868
 30
0.0
  0
VERTEX
  5
396
330
1EE
100
AcDbEntity
  8
0
  6
CONTINUOUS
 62
     7
100
AcDbVertex
100
AcDb2dVertex
 10
7.8524629329
 20
6.4037899185
 30
0.0
  0
VERTEX
  5
397
330
1EE
100
AcDbEntity
  8
0
  6
CONTINUOUS
 62
     7
100
AcDbVertex
100
AcDb2dVertex
 10
7.8601968352
 20
6.4483674651
 30
0.0
  0
VERTEX
  5
398
330
1EE
100
AcDbEntity
  8
0
  6
CONTINUOUS
 62
     7
100
AcDbVertex
100
AcDb2dVertex
 10
7.8696962622
 20
6.4934552728
 30
0.0
  0
VERTEX
  5
399
330
1EE
100
AcDbEntity
  8
0
  6
CONTINUOUS
 62
     7
100
AcDbVertex
100
AcDb2dVertex
 10
7.8809363767
 20
6.5389354536
 30
0.0
  0
SEQEND
  5
39A
330
1EE
100
AcDbEntity
  8
0
  6
CONTINUOUS
 62
     7
  0
LINE
  5
1EF
330
1F
100
AcDbEntity
  8
0
  6
CONTINUOUS
 62
     7
100
AcDbLine
 10
9.0363220174
 20
5.5669236238
 30
0.0
 11
9.0226253034
 21
5.5748305685
 31
0.0
  0
SPLINE
  5
1F0
330
1F
100
AcDbEntity
  8
0
  6
CONTINUOUS
 62
     7
100
AcDbSpline
210
0.0
220
0.0
230
1.0
 70
     8
 71
     3
 72
    32
 73
    28
 74
     0
 42
0.00000001
 43
0.00000001
 40
0.0
 40
0.0
 40
0.0
 40
0.0
 40
0.0055346374679907
 40
0.068669167681225
 40
0.1335328011740471
 40
0.1842161695734445
 40
0.2362104953203427
 40
0.2772011071896172
 40
0.3192798139141871
 40
0.3603285868822876
 40
0.4030119713146361
 40
0.4379486980236396
 40
0.4741573105538124
 40
0.5054160254449336
 40
0.5376218203949945
 40
0.5683080757928456
 40
0.5998000363882607
 40
0.6321988089041896
 40
0.665355750021789
 40
0.7016365928718561
 40
0.7386902406849883
 40
0.7813129186285515
 40
0.8247895093396175
 40
0.8764044778098717
 40
0.9290656748353969
 40
0.9909733364131826
 40
1.0
 40
1.0
 40
1.0
 40
1.0
 10
8.127748004053451
 20
8.0153024292095
 30
0.0
 10
8.127475027108535
 20
8.015481511401859
 30
0.0
 10
8.124088156746744
 20
8.017703413950482
 30
0.0
 10
8.112159192813532
 20
8.023521434271094
 30
0.0
 10
8.093182374955823
 20
8.031907885874615
 30
0.0
 10
8.070600095966878
 20
8.040961091094296
 30
0.0
 10
8.048234746788522
 20
8.049561843672752
 30
0.0
 10
8.024901901150216
 20
8.058465285872185
 30
0.0
 10
8.00197691825772
 20
8.067365706418952
 30
0.0
 10
7.977902696377393
 20
8.07711512898072
 30
0.0
 10
7.955243020132285
 20
8.0869350523657
 30
0.0
 10
7.934584362437779
 20
8.096700389734288
 30
0.0
 10
7.917576299478341
 20
8.105572023975629
 30
0.0
 10
7.903143713722211
 20
8.114002963639521
 30
0.0
 10
7.89177473709977
 20
8.121556304134263
 30
0.0
 10
7.882908286285608
 20
8.12846879432525
 30
0.0
 10
7.876641958413035
 20
8.134533738942025
 30
0.0
 10
7.872961597431207
 20
8.13966160705153
 30
0.0
 10
7.871917081204494
 20
8.143718767072576
 30
0.0
 10
7.873686206762313
 20
8.14640468458208
 30
0.0
 10
7.878511862011369
 20
8.1475063048925
 30
0.0
 10
7.886508298102489
 20
8.146617260640285
 30
0.0
 10
7.898319337003361
 20
8.14325011696497
 30
0.0
 10
7.913719278675931
 20
8.137095944844381
 30
0.0
 10
7.933909479676758
 20
8.127076164435831
 30
0.0
 10
7.95015073909285
 20
8.118209180820758
 30
0.0
 10
7.960657371038245
 20
8.11164707113076
 30
0.0
 10
7.961994380050195
 20
8.110812017629454
 30
0.0
  0
SPLINE
  5
1F1
330
1F
100
AcDbEntity
  8
0
  6
CONTINUOUS
 62
     7
100
AcDbSpline
210
0.0
220
0.0
230
1.0
 70
     8
 71
     3
 72
     9
 73
     5
 74
     0
 42
0.00000001
 43
0.00000001
 40
0.0
 40
0.0
 40
0.0
 40
0.0
 40
0.9974435510030694
 40
1.0
 40
1.0
 40
1.0
 40
1.0
 10
8.457755512306738
 20
5.554303097463702
 30
0.0
 10
8.467707606411901
 20
5.546958163022404
 30
0.0
 10
8.477685207745987
 20
5.539594403505474
 30
0.0
 10
8.485700881770674
 20
5.535759118863555
 30
0.0
 10
8.485721373432494
 20
5.53574931415398
 30
0.0
  0
POLYLINE
  5
1F2
330
1F
100
AcDbEntity
  8
0
  6
CONTINUOUS
 62
     7
100
AcDb2dPolyline
 66
     1
 10
0.0
 20
0.0
 30
0.0
  0
VERTEX
  5
39B
330
1F2
100
AcDbEntity
  8
0
  6
CONTINUOUS
 62
     7
100
AcDbVertex
100
AcDb2dVertex
 10
8.2724207078
 20
5.6796187881
 30
0.0
  0
VERTEX
  5
39C
330
1F2
100
AcDbEntity
  8
0
  6
CONTINUOUS
 62
     7
100
AcDbVertex
100
AcDb2dVertex
 10
8.2463103144
 20
5.6886834117
 30
0.0
  0
VERTEX
  5
39D
330
1F2
100
AcDbEntity
  8
0
  6
CONTINUOUS
 62
     7
100
AcDbVertex
100
AcDb2dVertex
 10
8.2108466119
 20
5.7023244775
 30
0.0
  0
VERTEX
  5
39E
330
1F2
100
AcDbEntity
  8
0
  6
CONTINUOUS
 62
     7
100
AcDbVertex
100
AcDb2dVertex
 10
8.1775627226
 20
5.7167092972
 30
0.0
  0
VERTEX
  5
39F
330
1F2
100
AcDbEntity
  8
0
  6
CONTINUOUS
 62
     7
100
AcDbVertex
100
AcDb2dVertex
 10
8.1470523213
 20
5.7317020056
 30
0.0
  0
VERTEX
  5
3A0
330
1F2
100
AcDbEntity
  8
0
  6
CONTINUOUS
 62
     7
100
AcDbVertex
100
AcDb2dVertex
 10
8.1188632225
 20
5.7477494195
 30
0.0
  0
VERTEX
  5
3A1
330
1F2
100
AcDbEntity
  8
0
  6
CONTINUOUS
 62
     7
100
AcDbVertex
100
AcDb2dVertex
 10
8.0947393875
 20
5.7640514245
 30
0.0
  0
VERTEX
  5
3A2
330
1F2
100
AcDbEntity
  8
0
  6
CONTINUOUS
 62
     7
100
AcDbVertex
100
AcDb2dVertex
 10
8.0722801939
 20
5.783259372
 30
0.0
  0
VERTEX
  5
3A3
330
1F2
100
AcDbEntity
  8
0
  6
CONTINUOUS
 62
     7
100
AcDbVertex
100
AcDb2dVertex
 10
8.0638105038
 20
5.79271324
 30
0.0
  0
VERTEX
  5
3A4
330
1F2
100
AcDbEntity
  8
0
  6
CONTINUOUS
 62
     7
100
AcDbVertex
100
AcDb2dVertex
 10
8.0576258556
 20
5.8016760884
 30
0.0
  0
VERTEX
  5
3A5
330
1F2
100
AcDbEntity
  8
0
  6
CONTINUOUS
 62
     7
100
AcDbVertex
100
AcDb2dVertex
 10
8.0528566095
 20
5.8147631842
 30
0.0
  0
VERTEX
  5
3A6
330
1F2
100
AcDbEntity
  8
0
  6
CONTINUOUS
 62
     7
100
AcDbVertex
100
AcDb2dVertex
 10
8.0553774382
 20
5.8251613223
 30
0.0
  0
VERTEX
  5
3A7
330
1F2
100
AcDbEntity
  8
0
  6
CONTINUOUS
 62
     7
100
AcDbVertex
100
AcDb2dVertex
 10
8.0652761952
 20
5.8311790721
 30
0.0
  0
VERTEX
  5
3A8
330
1F2
100
AcDbEntity
  8
0
  6
CONTINUOUS
 62
     7
100
AcDbVertex
100
AcDb2dVertex
 10
8.0830140744
 20
5.8320152157
 30
0.0
  0
VERTEX
  5
3A9
330
1F2
100
AcDbEntity
  8
0
  6
CONTINUOUS
 62
     7
100
AcDbVertex
100
AcDb2dVertex
 10
8.1036053108
 20
5.8277260868
 30
0.0
  0
VERTEX
  5
3AA
330
1F2
100
AcDbEntity
  8
0
  6
CONTINUOUS
 62
     7
100
AcDbVertex
100
AcDb2dVertex
 10
8.1292665088
 20
5.8181553705
 30
0.0
  0
VERTEX
  5
3AB
330
1F2
100
AcDbEntity
  8
0
  6
CONTINUOUS
 62
     7
100
AcDbVertex
100
AcDb2dVertex
 10
8.1556844727
 20
5.804931287
 30
0.0
  0
VERTEX
  5
3AC
330
1F2
100
AcDbEntity
  8
0
  6
CONTINUOUS
 62
     7
100
AcDbVertex
100
AcDb2dVertex
 10
8.1850564137
 20
5.787131921
 30
0.0
  0
VERTEX
  5
3AD
330
1F2
100
AcDbEntity
  8
0
  6
CONTINUOUS
 62
     7
100
AcDbVertex
100
AcDb2dVertex
 10
8.2144018605
 20
5.7666721356
 30
0.0
  0
VERTEX
  5
3AE
330
1F2
100
AcDbEntity
  8
0
  6
CONTINUOUS
 62
     7
100
AcDbVertex
100
AcDb2dVertex
 10
8.2451250642
 20
5.742855508
 30
0.0
  0
VERTEX
  5
3AF
330
1F2
100
AcDbEntity
  8
0
  6
CONTINUOUS
 62
     7
100
AcDbVertex
100
AcDb2dVertex
 10
8.2751176113
 20
5.717652953
 30
0.0
  0
VERTEX
  5
3B0
330
1F2
100
AcDbEntity
  8
0
  6
CONTINUOUS
 62
     7
100
AcDbVertex
100
AcDb2dVertex
 10
8.3052047206
 20
5.6908597455
 30
0.0
  0
VERTEX
  5
3B1
330
1F2
100
AcDbEntity
  8
0
  6
CONTINUOUS
 62
     7
100
AcDbVertex
100
AcDb2dVertex
 10
8.3344053764
 20
5.6638687517
 30
0.0
  0
VERTEX
  5
3B2
330
1F2
100
AcDbEntity
  8
0
  6
CONTINUOUS
 62
     7
100
AcDbVertex
100
AcDb2dVertex
 10
8.3626858151
 20
5.6373127471
 30
0.0
  0
VERTEX
  5
3B3
330
1F2
100
AcDbEntity
  8
0
  6
CONTINUOUS
 62
     7
100
AcDbVertex
100
AcDb2dVertex
 10
8.3907187451
 20
5.6111856344
 30
0.0
  0
VERTEX
  5
3B4
330
1F2
100
AcDbEntity
  8
0
  6
CONTINUOUS
 62
     7
100
AcDbVertex
100
AcDb2dVertex
 10
8.417048691
 20
5.5874804042
 30
0.0
  0
VERTEX
  5
3B5
330
1F2
100
AcDbEntity
  8
0
  6
CONTINUOUS
 62
     7
100
AcDbVertex
100
AcDb2dVertex
 10
8.4381443567
 20
5.5695922542
 30
0.0
  0
VERTEX
  5
3B6
330
1F2
100
AcDbEntity
  8
0
  6
CONTINUOUS
 62
     7
100
AcDbVertex
100
AcDb2dVertex
 10
8.4577555123
 20
5.5543030975
 30
0.0
  0
VERTEX
  5
3B7
330
1F2
100
AcDbEntity
  8
0
  6
CONTINUOUS
 62
     7
100
AcDbVertex
100
AcDb2dVertex
 10
8.4577555123
 20
5.5543030975
 30
0.0
  0
SEQEND
  5
3B8
330
1F2
100
AcDbEntity
  8
0
  6
CONTINUOUS
 62
     7
  0
POLYLINE
  5
1F3
330
1F
100
AcDbEntity
  8
0
  6
CONTINUOUS
 62
     7
100
AcDb2dPolyline
 66
     1
 10
0.0
 20
0.0
 30
0.0
  0
VERTEX
  5
3B9
330
1F3
100
AcDbEntity
  8
0
  6
CONTINUOUS
 62
     7
100
AcDbVertex
100
AcDb2dVertex
 10
9.0226253034
 20
6.0731733592
 30
0.0
  0
VERTEX
  5
3BA
330
1F3
100
AcDbEntity
  8
0
  6
CONTINUOUS
 62
     7
100
AcDbVertex
100
AcDb2dVertex
 10
9.001880294
 20
6.0636698807
 30
0.0
  0
VERTEX
  5
3BB
330
1F3
100
AcDbEntity
  8
0
  6
CONTINUOUS
 62
     7
100
AcDbVertex
100
AcDb2dVertex
 10
8.9814040389
 20
6.0564192395
 30
0.0
  0
VERTEX
  5
3BC
330
1F3
100
AcDbEntity
  8
0
  6
CONTINUOUS
 62
     7
100
AcDbVertex
100
AcDb2dVertex
 10
8.9613552908
 20
6.0514776501
 30
0.0
  0
VERTEX
  5
3BD
330
1F3
100
AcDbEntity
  8
0
  6
CONTINUOUS
 62
     7
100
AcDbVertex
100
AcDb2dVertex
 10
8.9418894883
 20
6.0488834249
 30
0.0
  0
VERTEX
  5
3BE
330
1F3
100
AcDbEntity
  8
0
  6
CONTINUOUS
 62
     7
100
AcDbVertex
100
AcDb2dVertex
 10
8.9231575502
 20
6.0486566768
 30
0.0
  0
VERTEX
  5
3BF
330
1F3
100
AcDbEntity
  8
0
  6
CONTINUOUS
 62
     7
100
AcDbVertex
100
AcDb2dVertex
 10
8.9053047057
 20
6.0507991639
 30
0.0
  0
VERTEX
  5
3C0
330
1F3
100
AcDbEntity
  8
0
  6
CONTINUOUS
 62
     7
100
AcDbVertex
100
AcDb2dVertex
 10
8.8884693683
 20
6.0552942754
 30
0.0
  0
VERTEX
  5
3C1
330
1F3
100
AcDbEntity
  8
0
  6
CONTINUOUS
 62
     7
100
AcDbVertex
100
AcDb2dVertex
 10
8.8727820628
 20
6.0621071606
 30
0.0
  0
VERTEX
  5
3C2
330
1F3
100
AcDbEntity
  8
0
  6
CONTINUOUS
 62
     7
100
AcDbVertex
100
AcDb2dVertex
 10
8.8583644132
 20
6.071184999
 30
0.0
  0
VERTEX
  5
3C3
330
1F3
100
AcDbEntity
  8
0
  6
CONTINUOUS
 62
     7
100
AcDbVertex
100
AcDb2dVertex
 10
8.8453282001
 20
6.0824574099
 30
0.0
  0
VERTEX
  5
3C4
330
1F3
100
AcDbEntity
  8
0
  6
CONTINUOUS
 62
     7
100
AcDbVertex
100
AcDb2dVertex
 10
8.8337744933
 20
6.0958369981
 30
0.0
  0
VERTEX
  5
3C5
330
1F3
100
AcDbEntity
  8
0
  6
CONTINUOUS
 62
     7
100
AcDbVertex
100
AcDb2dVertex
 10
8.8237928692
 20
6.1112200313
 30
0.0
  0
VERTEX
  5
3C6
330
1F3
100
AcDbEntity
  8
0
  6
CONTINUOUS
 62
     7
100
AcDbVertex
100
AcDb2dVertex
 10
8.8154607155
 20
6.1284872444
 30
0.0
  0
VERTEX
  5
3C7
330
1F3
100
AcDbEntity
  8
0
  6
CONTINUOUS
 62
     7
100
AcDbVertex
100
AcDb2dVertex
 10
8.8088426315
 20
6.1475047643
 30
0.0
  0
VERTEX
  5
3C8
330
1F3
100
AcDbEntity
  8
0
  6
CONTINUOUS
 62
     7
100
AcDbVertex
100
AcDb2dVertex
 10
8.8039899275
 20
6.1681251477
 30
0.0
  0
VERTEX
  5
3C9
330
1F3
100
AcDbEntity
  8
0
  6
CONTINUOUS
 62
     7
100
AcDbVertex
100
AcDb2dVertex
 10
8.8009402266
 20
6.1901885243
 30
0.0
  0
VERTEX
  5
3CA
330
1F3
100
AcDbEntity
  8
0
  6
CONTINUOUS
 62
     7
100
AcDbVertex
100
AcDb2dVertex
 10
8.7997171731
 20
6.2135238362
 30
0.0
  0
VERTEX
  5
3CB
330
1F3
100
AcDbEntity
  8
0
  6
CONTINUOUS
 62
     7
100
AcDbVertex
100
AcDb2dVertex
 10
8.8003302495
 20
6.2379501641
 30
0.0
  0
VERTEX
  5
3CC
330
1F3
100
AcDbEntity
  8
0
  6
CONTINUOUS
 62
     7
100
AcDbVertex
100
AcDb2dVertex
 10
8.8027747026
 20
6.2632781301
 30
0.0
  0
VERTEX
  5
3CD
330
1F3
100
AcDbEntity
  8
0
  6
CONTINUOUS
 62
     7
100
AcDbVertex
100
AcDb2dVertex
 10
8.8070315804
 20
6.2893113658
 30
0.0
  0
VERTEX
  5
3CE
330
1F3
100
AcDbEntity
  8
0
  6
CONTINUOUS
 62
     7
100
AcDbVertex
100
AcDb2dVertex
 10
8.8130678793
 20
6.315848035
 30
0.0
  0
VERTEX
  5
3CF
330
1F3
100
AcDbEntity
  8
0
  6
CONTINUOUS
 62
     7
100
AcDbVertex
100
AcDb2dVertex
 10
8.8208367997
 20
6.3426823982
 30
0.0
  0
VERTEX
  5
3D0
330
1F3
100
AcDbEntity
  8
0
  6
CONTINUOUS
 62
     7
100
AcDbVertex
100
AcDb2dVertex
 10
8.830278109
 20
6.369606408
 30
0.0
  0
VERTEX
  5
3D1
330
1F3
100
AcDbEntity
  8
0
  6
CONTINUOUS
 62
     7
100
AcDbVertex
100
AcDb2dVertex
 10
8.8413186084
 20
6.3964113217
 30
0.0
  0
VERTEX
  5
3D2
330
1F3
100
AcDbEntity
  8
0
  6
CONTINUOUS
 62
     7
100
AcDbVertex
100
AcDb2dVertex
 10
8.8538727007
 20
6.4228893203
 30
0.0
  0
VERTEX
  5
3D3
330
1F3
100
AcDbEntity
  8
0
  6
CONTINUOUS
 62
     7
100
AcDbVertex
100
AcDb2dVertex
 10
8.8678430538
 20
6.4488351192
 30
0.0
  0
VERTEX
  5
3D4
330
1F3
100
AcDbEntity
  8
0
  6
CONTINUOUS
 62
     7
100
AcDbVertex
100
AcDb2dVertex
 10
8.883121355
 20
6.4740475599
 30
0.0
  0
VERTEX
  5
3D5
330
1F3
100
AcDbEntity
  8
0
  6
CONTINUOUS
 62
     7
100
AcDbVertex
100
AcDb2dVertex
 10
8.8995891515
 20
6.4983311699
 30
0.0
  0
VERTEX
  5
3D6
330
1F3
100
AcDbEntity
  8
0
  6
CONTINUOUS
 62
     7
100
AcDbVertex
100
AcDb2dVertex
 10
8.9171187679
 20
6.5214976776
 30
0.0
  0
VERTEX
  5
3D7
330
1F3
100
AcDbEntity
  8
0
  6
CONTINUOUS
 62
     7
100
AcDbVertex
100
AcDb2dVertex
 10
8.9355742967
 20
6.5433674726
 30
0.0
  0
VERTEX
  5
3D8
330
1F3
100
AcDbEntity
  8
0
  6
CONTINUOUS
 62
     7
100
AcDbVertex
100
AcDb2dVertex
 10
8.9548126517
 20
6.5637709978
 30
0.0
  0
VERTEX
  5
3D9
330
1F3
100
AcDbEntity
  8
0
  6
CONTINUOUS
 62
     7
100
AcDbVertex
100
AcDb2dVertex
 10
8.9746846775
 20
6.5825500642
 30
0.0
  0
VERTEX
  5
3DA
330
1F3
100
AcDbEntity
  8
0
  6
CONTINUOUS
 62
     7
100
AcDbVertex
100
AcDb2dVertex
 10
8.9950363059
 20
6.5995590772
 30
0.0
  0
VERTEX
  5
3DB
330
1F3
100
AcDbEntity
  8
0
  6
CONTINUOUS
 62
     7
100
AcDbVertex
100
AcDb2dVertex
 10
9.01570975
 20
6.6146661655
 30
0.0
  0
VERTEX
  5
3DC
330
1F3
100
AcDbEntity
  8
0
  6
CONTINUOUS
 62
     7
100
AcDbVertex
100
AcDb2dVertex
 10
9.0365447282
 20
6.6277542035
 30
0.0
  0
VERTEX
  5
3DD
330
1F3
100
AcDbEntity
  8
0
  6
CONTINUOUS
 62
     7
100
AcDbVertex
100
AcDb2dVertex
 10
9.0573797065
 20
6.6387217193
 30
0.0
  0
VERTEX
  5
3DE
330
1F3
100
AcDbEntity
  8
0
  6
CONTINUOUS
 62
     7
100
AcDbVertex
100
AcDb2dVertex
 10
9.0780531506
 20
6.6474836816
 30
0.0
  0
VERTEX
  5
3DF
330
1F3
100
AcDbEntity
  8
0
  6
CONTINUOUS
 62
     7
100
AcDbVertex
100
AcDb2dVertex
 10
9.098404779
 20
6.6539721585
 30
0.0
  0
VERTEX
  5
3E0
330
1F3
100
AcDbEntity
  8
0
  6
CONTINUOUS
 62
     7
100
AcDbVertex
100
AcDb2dVertex
 10
9.1182768048
 20
6.6581368448
 30
0.0
  0
VERTEX
  5
3E1
330
1F3
100
AcDbEntity
  8
0
  6
CONTINUOUS
 62
     7
100
AcDbVertex
100
AcDb2dVertex
 10
9.1375151598
 20
6.6599454515
 30
0.0
  0
VERTEX
  5
3E2
330
1F3
100
AcDbEntity
  8
0
  6
CONTINUOUS
 62
     7
100
AcDbVertex
100
AcDb2dVertex
 10
9.1559706886
 20
6.6593839565
 30
0.0
  0
VERTEX
  5
3E3
330
1F3
100
AcDbEntity
  8
0
  6
CONTINUOUS
 62
     7
100
AcDbVertex
100
AcDb2dVertex
 10
9.173500305
 20
6.656456713
 30
0.0
  0
VERTEX
  5
3E4
330
1F3
100
AcDbEntity
  8
0
  6
CONTINUOUS
 62
     7
100
AcDbVertex
100
AcDb2dVertex
 10
9.1899681015
 20
6.6511864162
 30
0.0
  0
VERTEX
  5
3E5
330
1F3
100
AcDbEntity
  8
0
  6
CONTINUOUS
 62
     7
100
AcDbVertex
100
AcDb2dVertex
 10
9.2052464027
 20
6.6436139266
 30
0.0
  0
VERTEX
  5
3E6
330
1F3
100
AcDbEntity
  8
0
  6
CONTINUOUS
 62
     7
100
AcDbVertex
100
AcDb2dVertex
 10
9.2192167558
 20
6.633797954
 30
0.0
  0
VERTEX
  5
3E7
330
1F3
100
AcDbEntity
  8
0
  6
CONTINUOUS
 62
     7
100
AcDbVertex
100
AcDb2dVertex
 10
9.2317708481
 20
6.6218146018
 30
0.0
  0
VERTEX
  5
3E8
330
1F3
100
AcDbEntity
  8
0
  6
CONTINUOUS
 62
     7
100
AcDbVertex
100
AcDb2dVertex
 10
9.2428113475
 20
6.6077567774
 30
0.0
  0
VERTEX
  5
3E9
330
1F3
100
AcDbEntity
  8
0
  6
CONTINUOUS
 62
     7
100
AcDbVertex
100
AcDb2dVertex
 10
9.2522526568
 20
6.5917334713
 30
0.0
  0
VERTEX
  5
3EA
330
1F3
100
AcDbEntity
  8
0
  6
CONTINUOUS
 62
     7
100
AcDbVertex
100
AcDb2dVertex
 10
9.2600215772
 20
6.5738689127
 30
0.0
  0
VERTEX
  5
3EB
330
1F3
100
AcDbEntity
  8
0
  6
CONTINUOUS
 62
     7
100
AcDbVertex
100
AcDb2dVertex
 10
9.2660578761
 20
6.5543016058
 30
0.0
  0
VERTEX
  5
3EC
330
1F3
100
AcDbEntity
  8
0
  6
CONTINUOUS
 62
     7
100
AcDbVertex
100
AcDb2dVertex
 10
9.2703147539
 20
6.5331832566
 30
0.0
  0
VERTEX
  5
3ED
330
1F3
100
AcDbEntity
  8
0
  6
CONTINUOUS
 62
     7
100
AcDbVertex
100
AcDb2dVertex
 10
9.2727592069
 20
6.510677596
 30
0.0
  0
VERTEX
  5
3EE
330
1F3
100
AcDbEntity
  8
0
  6
CONTINUOUS
 62
     7
100
AcDbVertex
100
AcDb2dVertex
 10
9.2733722834
 20
6.4869591111
 30
0.0
  0
VERTEX
  5
3EF
330
1F3
100
AcDbEntity
  8
0
  6
CONTINUOUS
 62
     7
100
AcDbVertex
100
AcDb2dVertex
 10
9.2721492299
 20
6.4622116918
 30
0.0
  0
VERTEX
  5
3F0
330
1F3
100
AcDbEntity
  8
0
  6
CONTINUOUS
 62
     7
100
AcDbVertex
100
AcDb2dVertex
 10
9.269099529
 20
6.4366272054
 30
0.0
  0
VERTEX
  5
3F1
330
1F3
100
AcDbEntity
  8
0
  6
CONTINUOUS
 62
     7
100
AcDbVertex
100
AcDb2dVertex
 10
9.264246825
 20
6.4104040092
 30
0.0
  0
VERTEX
  5
3F2
330
1F3
100
AcDbEntity
  8
0
  6
CONTINUOUS
 62
     7
100
AcDbVertex
100
AcDb2dVertex
 10
9.257628741
 20
6.3837454122
 30
0.0
  0
VERTEX
  5
3F3
330
1F3
100
AcDbEntity
  8
0
  6
CONTINUOUS
 62
     7
100
AcDbVertex
100
AcDb2dVertex
 10
9.2492965873
 20
6.3568580992
 30
0.0
  0
VERTEX
  5
3F4
330
1F3
100
AcDbEntity
  8
0
  6
CONTINUOUS
 62
     7
100
AcDbVertex
100
AcDb2dVertex
 10
9.2393149632
 20
6.3299505281
 30
0.0
  0
VERTEX
  5
3F5
330
1F3
100
AcDbEntity
  8
0
  6
CONTINUOUS
 62
     7
100
AcDbVertex
100
AcDb2dVertex
 10
9.2277612564
 20
6.3032313141
 30
0.0
  0
VERTEX
  5
3F6
330
1F3
100
AcDbEntity
  8
0
  6
CONTINUOUS
 62
     7
100
AcDbVertex
100
AcDb2dVertex
 10
9.2147250432
 20
6.2769076118
 30
0.0
  0
VERTEX
  5
3F7
330
1F3
100
AcDbEntity
  8
0
  6
CONTINUOUS
 62
     7
100
AcDbVertex
100
AcDb2dVertex
 10
9.2003073937
 20
6.2511835095
 30
0.0
  0
VERTEX
  5
3F8
330
1F3
100
AcDbEntity
  8
0
  6
CONTINUOUS
 62
     7
100
AcDbVertex
100
AcDb2dVertex
 10
9.1846200882
 20
6.2262584469
 30
0.0
  0
VERTEX
  5
3F9
330
1F3
100
AcDbEntity
  8
0
  6
CONTINUOUS
 62
     7
100
AcDbVertex
100
AcDb2dVertex
 10
9.1677847508
 20
6.2023256686
 30
0.0
  0
VERTEX
  5
3FA
330
1F3
100
AcDbEntity
  8
0
  6
CONTINUOUS
 62
     7
100
AcDbVertex
100
AcDb2dVertex
 10
9.1499319063
 20
6.179570726
 30
0.0
  0
VERTEX
  5
3FB
330
1F3
100
AcDbEntity
  8
0
  6
CONTINUOUS
 62
     7
100
AcDbVertex
100
AcDb2dVertex
 10
9.1311999682
 20
6.1581700387
 30
0.0
  0
VERTEX
  5
3FC
330
1F3
100
AcDbEntity
  8
0
  6
CONTINUOUS
 62
     7
100
AcDbVertex
100
AcDb2dVertex
 10
9.1117341657
 20
6.1382895268
 30
0.0
  0
VERTEX
  5
3FD
330
1F3
100
AcDbEntity
  8
0
  6
CONTINUOUS
 62
     7
100
AcDbVertex
100
AcDb2dVertex
 10
9.0916854176
 20
6.1200833243
 30
0.0
  0
VERTEX
  5
3FE
330
1F3
100
AcDbEntity
  8
0
  6
CONTINUOUS
 62
     7
100
AcDbVertex
100
AcDb2dVertex
 10
9.0712091625
 20
6.1036925845
 30
0.0
  0
VERTEX
  5
3FF
330
1F3
100
AcDbEntity
  8
0
  6
CONTINUOUS
 62
     7
100
AcDbVertex
100
AcDb2dVertex
 10
9.0504641531
 20
6.0892443851
 30
0.0
  0
SEQEND
  5
400
330
1F3
100
AcDbEntity
  8
0
  6
CONTINUOUS
 62
     7
  0
LINE
  5
1F4
330
1F
100
AcDbEntity
  8
0
  6
CONTINUOUS
 62
     7
100
AcDbLine
 10
9.0226253034
 20
5.5590226681
 30
0.0
 11
9.0226253034
 21
6.0731733592
 31
0.0
  0
LINE
  5
1F5
330
1F
100
AcDbEntity
  8
0
  6
CONTINUOUS
 62
     7
100
AcDbLine
 10
9.0504641531
 20
5.5750936939
 30
0.0
 11
9.0504641531
 21
6.0892443851
 31
0.0
  0
POLYLINE
  5
1F6
330
1F
100
AcDbEntity
  8
0
  6
CONTINUOUS
 62
     7
100
AcDb2dPolyline
 66
     1
 10
0.0
 20
0.0
 30
0.0
  0
VERTEX
  5
401
330
1F6
100
AcDbEntity
  8
0
  6
CONTINUOUS
 62
     7
100
AcDbVertex
100
AcDb2dVertex
 10
9.0363220174
 20
6.1137693571
 30
0.0
  0
VERTEX
  5
402
330
1F6
100
AcDbEntity
  8
0
  6
CONTINUOUS
 62
     7
100
AcDbVertex
100
AcDb2dVertex
 10
9.0563668129
 20
6.1278464177
 30
0.0
  0
VERTEX
  5
403
330
1F6
100
AcDbEntity
  8
0
  6
CONTINUOUS
 62
     7
100
AcDbVertex
100
AcDb2dVertex
 10
9.076133252
 20
6.1438458554
 30
0.0
  0
VERTEX
  5
404
330
1F6
100
AcDbEntity
  8
0
  6
CONTINUOUS
 62
     7
100
AcDbVertex
100
AcDb2dVertex
 10
9.0954593376
 20
6.1616365455
 30
0.0
  0
VERTEX
  5
405
330
1F6
100
AcDbEntity
  8
0
  6
CONTINUOUS
 62
     7
100
AcDbVertex
100
AcDb2dVertex
 10
9.1141866813
 20
6.1810726832
 30
0.0
  0
VERTEX
  5
406
330
1F6
100
AcDbEntity
  8
0
  6
CONTINUOUS
 62
     7
100
AcDbVertex
100
AcDb2dVertex
 10
9.1321618017
 20
6.2019949781
 30
0.0
  0
VERTEX
  5
407
330
1F6
100
AcDbEntity
  8
0
  6
CONTINUOUS
 62
     7
100
AcDbVertex
100
AcDb2dVertex
 10
9.1492373825
 20
6.2242319601
 30
0.0
  0
VERTEX
  5
408
330
1F6
100
AcDbEntity
  8
0
  6
CONTINUOUS
 62
     7
100
AcDbVertex
100
AcDb2dVertex
 10
9.1652734794
 20
6.2476013843
 30
0.0
  0
VERTEX
  5
409
330
1F6
100
AcDbEntity
  8
0
  6
CONTINUOUS
 62
     7
100
AcDbVertex
100
AcDb2dVertex
 10
9.1801386674
 20
6.2719117249
 30
0.0
  0
VERTEX
  5
40A
330
1F6
100
AcDbEntity
  8
0
  6
CONTINUOUS
 62
     7
100
AcDbVertex
100
AcDb2dVertex
 10
9.1937111178
 20
6.2969637447
 30
0.0
  0
VERTEX
  5
40B
330
1F6
100
AcDbEntity
  8
0
  6
CONTINUOUS
 62
     7
100
AcDbVertex
100
AcDb2dVertex
 10
9.2058795967
 20
6.322552128
 30
0.0
  0
VERTEX
  5
40C
330
1F6
100
AcDbEntity
  8
0
  6
CONTINUOUS
 62
     7
100
AcDbVertex
100
AcDb2dVertex
 10
9.2165443762
 20
6.3484671634
 30
0.0
  0
VERTEX
  5
40D
330
1F6
100
AcDbEntity
  8
0
  6
CONTINUOUS
 62
     7
100
AcDbVertex
100
AcDb2dVertex
 10
9.2256180525
 20
6.3744964622
 30
0.0
  0
VERTEX
  5
40E
330
1F6
100
AcDbEntity
  8
0
  6
CONTINUOUS
 62
     7
100
AcDbVertex
100
AcDb2dVertex
 10
9.2330262615
 20
6.4004266995
 30
0.0
  0
VERTEX
  5
40F
330
1F6
100
AcDbEntity
  8
0
  6
CONTINUOUS
 62
     7
100
AcDbVertex
100
AcDb2dVertex
 10
9.2387082888
 20
6.4260453621
 30
0.0
  0
VERTEX
  5
410
330
1F6
100
AcDbEntity
  8
0
  6
CONTINUOUS
 62
     7
100
AcDbVertex
100
AcDb2dVertex
 10
9.2426175668
 20
6.4511424903
 30
0.0
  0
VERTEX
  5
411
330
1F6
100
AcDbEntity
  8
0
  6
CONTINUOUS
 62
     7
100
AcDbVertex
100
AcDb2dVertex
 10
9.2447220568
 20
6.4755123988
 30
0.0
  0
VERTEX
  5
412
330
1F6
100
AcDbEntity
  8
0
  6
CONTINUOUS
 62
     7
100
AcDbVertex
100
AcDb2dVertex
 10
9.2450045113
 20
6.4989553623
 30
0.0
  0
VERTEX
  5
413
330
1F6
100
AcDbEntity
  8
0
  6
CONTINUOUS
 62
     7
100
AcDbVertex
100
AcDb2dVertex
 10
9.2434626154
 20
6.521279252
 30
0.0
  0
VERTEX
  5
414
330
1F6
100
AcDbEntity
  8
0
  6
CONTINUOUS
 62
     7
100
AcDbVertex
100
AcDb2dVertex
 10
9.2401090058
 20
6.5423011111
 30
0.0
  0
VERTEX
  5
415
330
1F6
100
AcDbEntity
  8
0
  6
CONTINUOUS
 62
     7
100
AcDbVertex
100
AcDb2dVertex
 10
9.2349711674
 20
6.5618486533
 30
0.0
  0
VERTEX
  5
416
330
1F6
100
AcDbEntity
  8
0
  6
CONTINUOUS
 62
     7
100
AcDbVertex
100
AcDb2dVertex
 10
9.2280912075
 20
6.5797616753
 30
0.0
  0
VERTEX
  5
417
330
1F6
100
AcDbEntity
  8
0
  6
CONTINUOUS
 62
     7
100
AcDbVertex
100
AcDb2dVertex
 10
9.2195255114
 20
6.5958933696
 30
0.0
  0
VERTEX
  5
418
330
1F6
100
AcDbEntity
  8
0
  6
CONTINUOUS
 62
     7
100
AcDbVertex
100
AcDb2dVertex
 10
9.20934428
 20
6.6101115277
 30
0.0
  0
VERTEX
  5
419
330
1F6
100
AcDbEntity
  8
0
  6
CONTINUOUS
 62
     7
100
AcDbVertex
100
AcDb2dVertex
 10
9.1976309542
 20
6.6222996236
 30
0.0
  0
VERTEX
  5
41A
330
1F6
100
AcDbEntity
  8
0
  6
CONTINUOUS
 62
     7
100
AcDbVertex
100
AcDb2dVertex
 10
9.1844815315
 20
6.6323577689
 30
0.0
  0
VERTEX
  5
41B
330
1F6
100
AcDbEntity
  8
0
  6
CONTINUOUS
 62
     7
100
AcDbVertex
100
AcDb2dVertex
 10
9.170003779
 20
6.6402035314
 30
0.0
  0
VERTEX
  5
41C
330
1F6
100
AcDbEntity
  8
0
  6
CONTINUOUS
 62
     7
100
AcDbVertex
100
AcDb2dVertex
 10
9.15431635
 20
6.6457726105
 30
0.0
  0
VERTEX
  5
41D
330
1F6
100
AcDbEntity
  8
0
  6
CONTINUOUS
 62
     7
100
AcDbVertex
100
AcDb2dVertex
 10
9.1375478122
 20
6.6490193645
 30
0.0
  0
VERTEX
  5
41E
330
1F6
100
AcDbEntity
  8
0
  6
CONTINUOUS
 62
     7
100
AcDbVertex
100
AcDb2dVertex
 10
9.1198355933
 20
6.6499171842
 30
0.0
  0
VERTEX
  5
41F
330
1F6
100
AcDbEntity
  8
0
  6
CONTINUOUS
 62
     7
100
AcDbVertex
100
AcDb2dVertex
 10
9.101324855
 20
6.6484587116
 30
0.0
  0
VERTEX
  5
420
330
1F6
100
AcDbEntity
  8
0
  6
CONTINUOUS
 62
     7
100
AcDbVertex
100
AcDb2dVertex
 10
9.0821673035
 20
6.6446558997
 30
0.0
  0
VERTEX
  5
421
330
1F6
100
AcDbEntity
  8
0
  6
CONTINUOUS
 62
     7
100
AcDbVertex
100
AcDb2dVertex
 10
9.062519946
 20
6.6385399147
 30
0.0
  0
VERTEX
  5
422
330
1F6
100
AcDbEntity
  8
0
  6
CONTINUOUS
 62
     7
100
AcDbVertex
100
AcDb2dVertex
 10
9.0425438037
 20
6.6301608806
 30
0.0
  0
VERTEX
  5
423
330
1F6
100
AcDbEntity
  8
0
  6
CONTINUOUS
 62
     7
100
AcDbVertex
100
AcDb2dVertex
 10
9.0293274994
 20
6.6234607795
 30
0.0
  0
SEQEND
  5
424
330
1F6
100
AcDbEntity
  8
0
  6
CONTINUOUS
 62
     7
  0
ARC
  5
1F7
330
1F
100
AcDbEntity
  8
0
  6
CONTINUOUS
 62
     7
100
AcDbCircle
 10
8.9335392339
 20
6.2096468454
 30
0.0
 40
0.1347184584601815
100
AcDbArc
 50
173.0854466312
 51
303.8003307101
  0
LINE
  5
1F8
330
1F
100
AcDbEntity
  8
0
  6
CONTINUOUS
 62
     7
100
AcDbLine
 10
9.0226253034
 20
6.0731733592
 30
0.0
 11
9.0084831678
 21
6.0976983312
 31
0.0
  0
LINE
  5
1F9
330
1F
100
AcDbEntity
  8
0
  6
CONTINUOUS
 62
     7
100
AcDbLine
 10
9.0504641531
 20
6.0892443851
 30
0.0
 11
9.0363220174
 21
6.1137693571
 31
0.0
  0
LINE
  5
1FA
330
1F
100
AcDbEntity
  8
0
  6
CONTINUOUS
 62
     7
100
AcDbLine
 10
8.8001294683
 20
6.2179783617
 30
0.0
 11
9.0084831678
 21
6.0976983312
 31
0.0
  0
LINE
  5
1FB
330
1F
100
AcDbEntity
  8
0
  6
CONTINUOUS
 62
     7
100
AcDbLine
 10
8.8012267628
 20
6.2494869587
 30
0.0
 11
9.0363220174
 21
6.1137693571
 31
0.0
  0
ARC
  5
1FC
330
1F
100
AcDbEntity
  8
0
  6
CONTINUOUS
 62
     7
100
AcDbCircle
 10
8.1065048595
 20
6.8911457668
 30
0.0
 40
1.479266156528282
100
AcDbArc
 50
122.5583663681
 51
177.4470101646
  0
POLYLINE
  5
1FD
330
1F
100
AcDbEntity
  8
0
  6
CONTINUOUS
 62
     7
100
AcDb2dPolyline
 66
     1
 10
0.0
 20
0.0
 30
0.0
  0
VERTEX
  5
425
330
1FD
100
AcDbEntity
  8
0
  6
CONTINUOUS
 62
     7
100
AcDbVertex
100
AcDb2dVertex
 10
8.2494438496
 20
5.7386778801
 30
0.0
  0
VERTEX
  5
426
330
1FD
100
AcDbEntity
  8
0
  6
CONTINUOUS
 62
     7
100
AcDbVertex
100
AcDb2dVertex
 10
8.2515523447
 20
5.7313613136
 30
0.0
  0
VERTEX
  5
427
330
1FD
100
AcDbEntity
  8
0
  6
CONTINUOUS
 62
     7
100
AcDbVertex
100
AcDb2dVertex
 10
8.2587048589
 20
5.7104333625
 30
0.0
  0
VERTEX
  5
428
330
1FD
100
AcDbEntity
  8
0
  6
CONTINUOUS
 62
     7
100
AcDbVertex
100
AcDb2dVertex
 10
8.2674690388
 20
5.6896260236
 30
0.0
  0
VERTEX
  5
429
330
1FD
100
AcDbEntity
  8
0
  6
CONTINUOUS
 62
     7
100
AcDbVertex
100
AcDb2dVertex
 10
8.27773063
 20
5.6692105524
 30
0.0
  0
VERTEX
  5
42A
330
1FD
100
AcDbEntity
  8
0
  6
CONTINUOUS
 62
     7
100
AcDbVertex
100
AcDb2dVertex
 10
8.2893558569
 20
5.6494530958
 30
0.0
  0
VERTEX
  5
42B
330
1FD
100
AcDbEntity
  8
0
  6
CONTINUOUS
 62
     7
100
AcDbVertex
100
AcDb2dVertex
 10
8.3021931669
 20
5.6306112224
 30
0.0
  0
VERTEX
  5
42C
330
1FD
100
AcDbEntity
  8
0
  6
CONTINUOUS
 62
     7
100
AcDbVertex
100
AcDb2dVertex
 10
8.316075206
 20
5.6129305649
 30
0.0
  0
VERTEX
  5
42D
330
1FD
100
AcDbEntity
  8
0
  6
CONTINUOUS
 62
     7
100
AcDbVertex
100
AcDb2dVertex
 10
8.3308210007
 20
5.5966416178
 30
0.0
  0
VERTEX
  5
42E
330
1FD
100
AcDbEntity
  8
0
  6
CONTINUOUS
 62
     7
100
AcDbVertex
100
AcDb2dVertex
 10
8.3462383169
 20
5.5819567322
 30
0.0
  0
VERTEX
  5
42F
330
1FD
100
AcDbEntity
  8
0
  6
CONTINUOUS
 62
     7
100
AcDbVertex
100
AcDb2dVertex
 10
8.3621261663
 20
5.5690673483
 30
0.0
  0
VERTEX
  5
430
330
1FD
100
AcDbEntity
  8
0
  6
CONTINUOUS
 62
     7
100
AcDbVertex
100
AcDb2dVertex
 10
8.3782774266
 20
5.5581414988
 30
0.0
  0
VERTEX
  5
431
330
1FD
100
AcDbEntity
  8
0
  6
CONTINUOUS
 62
     7
100
AcDbVertex
100
AcDb2dVertex
 10
8.3944815414
 20
5.5493216188
 30
0.0
  0
VERTEX
  5
432
330
1FD
100
AcDbEntity
  8
0
  6
CONTINUOUS
 62
     7
100
AcDbVertex
100
AcDb2dVertex
 10
8.4105272651
 20
5.542722689
 30
0.0
  0
VERTEX
  5
433
330
1FD
100
AcDbEntity
  8
0
  6
CONTINUOUS
 62
     7
100
AcDbVertex
100
AcDb2dVertex
 10
8.4262054174
 20
5.5384307366
 30
0.0
  0
VERTEX
  5
434
330
1FD
100
AcDbEntity
  8
0
  6
CONTINUOUS
 62
     7
100
AcDbVertex
100
AcDb2dVertex
 10
8.4413116095
 20
5.5365017136
 30
0.0
  0
VERTEX
  5
435
330
1FD
100
AcDbEntity
  8
0
  6
CONTINUOUS
 62
     7
100
AcDbVertex
100
AcDb2dVertex
 10
8.455648909
 20
5.5369607679
 30
0.0
  0
VERTEX
  5
436
330
1FD
100
AcDbEntity
  8
0
  6
CONTINUOUS
 62
     7
100
AcDbVertex
100
AcDb2dVertex
 10
8.4690304074
 20
5.539801915
 30
0.0
  0
VERTEX
  5
437
330
1FD
100
AcDbEntity
  8
0
  6
CONTINUOUS
 62
     7
100
AcDbVertex
100
AcDb2dVertex
 10
8.4754369734
 20
5.5421602975
 30
0.0
  0
SEQEND
  5
438
330
1FD
100
AcDbEntity
  8
0
  6
CONTINUOUS
 62
     7
  0
ARC
  5
1FE
330
1F
100
AcDbEntity
  8
0
  6
CONTINUOUS
 62
     7
100
AcDbCircle
 10
8.4601017522
 20
5.6510651556
 30
0.0
 40
0.1216386166064159
100
AcDbArc
 50
236.7693135692
 51
284.2960984742
  0
POLYLINE
  5
1FF
330
1F
100
AcDbEntity
  8
0
  6
CONTINUOUS
 62
     7
100
AcDb2dPolyline
 66
     1
 10
0.0
 20
0.0
 30
0.0
  0
VERTEX
  5
439
330
1FF
100
AcDbEntity
  8
0
  6
CONTINUOUS
 62
     7
100
AcDbVertex
100
AcDb2dVertex
 10
7.933827213
 20
8.0994799727
 30
0.0
  0
VERTEX
  5
43A
330
1FF
100
AcDbEntity
  8
0
  6
CONTINUOUS
 62
     7
100
AcDbVertex
100
AcDb2dVertex
 10
7.9398979348
 20
8.1027135373
 30
0.0
  0
VERTEX
  5
43B
330
1FF
100
AcDbEntity
  8
0
  6
CONTINUOUS
 62
     7
100
AcDbVertex
100
AcDb2dVertex
 10
7.9532641439
 20
8.1082723022
 30
0.0
  0
VERTEX
  5
43C
330
1FF
100
AcDbEntity
  8
0
  6
CONTINUOUS
 62
     7
100
AcDbVertex
100
AcDb2dVertex
 10
7.9680018814
 20
8.1125213253
 30
0.0
  0
VERTEX
  5
43D
330
1FF
100
AcDbEntity
  8
0
  6
CONTINUOUS
 62
     7
100
AcDbVertex
100
AcDb2dVertex
 10
7.9837294477
 20
8.1153505592
 30
0.0
  0
VERTEX
  5
43E
330
1FF
100
AcDbEntity
  8
0
  6
CONTINUOUS
 62
     7
100
AcDbVertex
100
AcDb2dVertex
 10
8.0000395071
 20
8.1166867282
 30
0.0
  0
VERTEX
  5
43F
330
1FF
100
AcDbEntity
  8
0
  6
CONTINUOUS
 62
     7
100
AcDbVertex
100
AcDb2dVertex
 10
8.0165096375
 20
8.1164952262
 30
0.0
  0
VERTEX
  5
440
330
1FF
100
AcDbEntity
  8
0
  6
CONTINUOUS
 62
     7
100
AcDbVertex
100
AcDb2dVertex
 10
8.0327132713
 20
8.114781013
 30
0.0
  0
VERTEX
  5
441
330
1FF
100
AcDbEntity
  8
0
  6
CONTINUOUS
 62
     7
100
AcDbVertex
100
AcDb2dVertex
 10
8.0482307428
 20
8.1115884858
 30
0.0
  0
VERTEX
  5
442
330
1FF
100
AcDbEntity
  8
0
  6
CONTINUOUS
 62
     7
100
AcDbVertex
100
AcDb2dVertex
 10
8.0626601577
 20
8.1070003295
 30
0.0
  0
VERTEX
  5
443
330
1FF
100
AcDbEntity
  8
0
  6
CONTINUOUS
 62
     7
100
AcDbVertex
100
AcDb2dVertex
 10
8.0756278018
 20
8.1011353748
 30
0.0
  0
VERTEX
  5
444
330
1FF
100
AcDbEntity
  8
0
  6
CONTINUOUS
 62
     7
100
AcDbVertex
100
AcDb2dVertex
 10
8.0867978198
 20
8.094145521
 30
0.0
  0
VERTEX
  5
445
330
1FF
100
AcDbEntity
  8
0
  6
CONTINUOUS
 62
     7
100
AcDbVertex
100
AcDb2dVertex
 10
8.0958809141
 20
8.0862118016
 30
0.0
  0
VERTEX
  5
446
330
1FF
100
AcDbEntity
  8
0
  6
CONTINUOUS
 62
     7
100
AcDbVertex
100
AcDb2dVertex
 10
8.1026418375
 20
8.0775396959
 30
0.0
  0
VERTEX
  5
447
330
1FF
100
AcDbEntity
  8
0
  6
CONTINUOUS
 62
     7
100
AcDbVertex
100
AcDb2dVertex
 10
8.1069054855
 20
8.0683538067
 30
0.0
  0
VERTEX
  5
448
330
1FF
100
AcDbEntity
  8
0
  6
CONTINUOUS
 62
     7
100
AcDbVertex
100
AcDb2dVertex
 10
8.1085614318
 20
8.0588920438
 30
0.0
  0
VERTEX
  5
449
330
1FF
100
AcDbEntity
  8
0
  6
CONTINUOUS
 62
     7
100
AcDbVertex
100
AcDb2dVertex
 10
8.1075667884
 20
8.049399462
 30
0.0
  0
VERTEX
  5
44A
330
1FF
100
AcDbEntity
  8
0
  6
CONTINUOUS
 62
     7
100
AcDbVertex
100
AcDb2dVertex
 10
8.103947316
 20
8.0401219139
 30
0.0
  0
VERTEX
  5
44B
330
1FF
100
AcDbEntity
  8
0
  6
CONTINUOUS
 62
     7
100
AcDbVertex
100
AcDb2dVertex
 10
8.0977967569
 20
8.0312996834
 30
0.0
  0
VERTEX
  5
44C
330
1FF
100
AcDbEntity
  8
0
  6
CONTINUOUS
 62
     7
100
AcDbVertex
100
AcDb2dVertex
 10
8.0967702181
 20
8.030144991
 30
0.0
  0
SEQEND
  5
44D
330
1FF
100
AcDbEntity
  8
0
  6
CONTINUOUS
 62
     7
  0
ARC
  5
200
330
1F
100
AcDbEntity
  8
0
  6
CONTINUOUS
 62
     7
100
AcDbCircle
 10
8.0719554409
 20
8.0452039465
 30
0.0
 40
0.051046492329864
100
AcDbArc
 50
331.9974360773
 51
69.5984655356
  0
ENDSEC
  0
SECTION
  2
OBJECTS
  0
DICTIONARY
  5
C
330
0
100
AcDbDictionary
  3
ACAD_GROUP
350
D
  3
ACAD_LAYOUT
350
1A
  3
ACAD_MLEADERSTYLE
350
203
  3
ACAD_MLINESTYLE
350
17
  3
ACAD_PLOTSETTINGS
350
19
  3
ACAD_SCALELIST
350
6F
  3
ACAD_VISUALSTYLE
350
2A
  3
ACDBVARIABLEDICTIONARY
350
201
1001
ACAD
1000
TREAT_AS_HARD
1070
     0
  0
DICTIONARY
  5
D
102
{ACAD_REACTORS
330
C
102
}
330
C
100
AcDbDictionary
1001
ACAD
1000
TREAT_AS_HARD
1070
     0
  0
DICTIONARY
  5
1A
102
{ACAD_REACTORS
330
C
102
}
330
C
100
AcDbDictionary
1001
ACAD
1000
TREAT_AS_HARD
1070
     0
  0
DICTIONARY
  5
203
102
{ACAD_REACTORS
330
C
102
}
330
C
100
AcDbDictionary
1001
ACAD
1000
TREAT_AS_HARD
1070
     0
  0
DICTIONARY
  5
17
102
{ACAD_REACTORS
330
C
102
}
330
C
100
AcDbDictionary
  3
STANDARD
350
18
1001
ACAD
1000
TREAT_AS_HARD
1070
     0
  0
DICTIONARY
  5
19
102
{ACAD_REACTORS
330
C
102
}
330
C
100
AcDbDictionary
1001
ACAD
1000
TREAT_AS_HARD
1070
     0
  0
DICTIONARY
  5
6F
102
{ACAD_REACTORS
330
C
102
}
330
C
100
AcDbDictionary
  3
A0
350
70
  3
A1
350
71
  3
A2
350
72
  3
A3
350
73
  3
A4
350
74
  3
A5
350
75
  3
A6
350
76
  3
A7
350
77
  3
A8
350
78
  3
A9
350
79
  3
B0
350
7A
  3
B1
350
7B
  3
B2
350
7C
  3
B3
350
7D
  3
B4
350
7E
  3
B5
350
7F
  3
B6
350
80
  3
B7
350
81
  3
B8
350
82
  3
B9
350
83
  3
C0
350
84
  3
C1
350
85
  3
C2
350
86
  3
C3
350
87
  3
C4
350
88
  3
C5
350
89
  3
C6
350
8A
  3
C7
350
8B
  3
C8
350
8C
  3
C9
350
8D
  3
D0
350
8E
  3
D1
350
8F
  3
D2
350
90
1001
ACAD
1000
TREAT_AS_HARD
1070
     0
  0
DICTIONARY
  5
2A
102
{ACAD_REACTORS
330
C
102
}
330
C
100
AcDbDictionary
  3
2DWIREFRAME
350
2F
  3
3D_HIDDEN
350
31
  3
3DWIREFRAME
350
30
  3
BASIC
350
32
  3
BRIGHTEN
350
36
  3
COLORCHANGE
350
3A
  3
CONCEPTUAL
350
34
  3
DIM
350
35
  3
FACEPATTERN
350
39
  3
FLAT
350
2B
  3
FLATWITHEDGES
350
2C
  3
GOURAUD
350
2D
  3
GOURAUDWITHEDGES
350
2E
  3
LINEPATTERN
350
38
  3
REALISTIC
350
33
  3
THICKEN
350
37
1001
ACAD
1000
TREAT_AS_HARD
1070
     0
  0
DICTIONARY
  5
201
102
{ACAD_REACTORS
330
C
102
}
330
C
100
AcDbDictionary
  3
CANNOSCALE
350
204
  3
DIMASSOC
350
205
  3
HIDETEXT
350
206
1001
ACAD
1000
TREAT_AS_HARD
1070
     0
  0
MLINESTYLE
  5
18
102
{ACAD_REACTORS
330
17
102
}
330
17
100
AcDbMlineStyle
  2
Standard
 70
     0
  3

 62
   256
 51
90.0
 52
90.0
 71
     2
 49
0.5
 62
   256
  6
BYLAYER
 49
-0.5
 62
   256
  6
BYLAYER
  0
ACAD_PROXY_OBJECT
  5
70
102
{ACAD_REACTORS
330
6F
102
}
330
6F
100
AcDbZombieObject
 90
      499
 91
      502
 93
       41
310
903313A31580
  0
ACAD_PROXY_OBJECT
  5
71
102
{ACAD_REACTORS
330
6F
102
}
330
6F
100
AcDbZombieObject
 90
      499
 91
      502
 93
      105
310
903313A324000000000000004000
  0
ACAD_PROXY_OBJECT
  5
72
102
{ACAD_REACTORS
330
6F
102
}
330
6F
100
AcDbZombieObject
 90
      499
 91
      502
 93
      105
310
903313A344000000000000104000
  0
ACAD_PROXY_OBJECT
  5
73
102
{ACAD_REACTORS
330
6F
102
}
330
6F
100
AcDbZombieObject
 90
      499
 91
      502
 93
      105
310
903313A354000000000000144000
  0
ACAD_PROXY_OBJECT
  5
74
102
{ACAD_REACTORS
330
6F
102
}
330
6F
100
AcDbZombieObject
 90
      499
 91
      502
 93
      105
310
903313A384000000000000204000
  0
ACAD_PROXY_OBJECT
  5
75
102
{ACAD_REACTORS
330
6F
102
}
330
6F
100
AcDbZombieObject
 90
      499
 91
      502
 93
      113
310
904313A31304000000000000244000
  0
ACAD_PROXY_OBJECT
  5
76
102
{ACAD_REACTORS
330
6F
102
}
330
6F
100
AcDbZombieObject
 90
      499
 91
      502
 93
      113
310
904313A31364000000000000304000
  0
ACAD_PROXY_OBJECT
  5
77
102
{ACAD_REACTORS
330
6F
102
}
330
6F
100
AcDbZombieObject
 90
      499
 91
      502
 93
      113
310
904313A32304000000000000344000
  0
ACAD_PROXY_OBJECT
  5
78
102
{ACAD_REACTORS
330
6F
102
}
330
6F
100
AcDbZombieObject
 90
      499
 91
      502
 93
      113
310
904313A333040000000000003E4000
  0
ACAD_PROXY_OBJECT
  5
79
102
{ACAD_REACTORS
330
6F
102
}
330
6F
100
AcDbZombieObject
 90
      499
 91
      502
 93
      113
310
904313A34304000000000000444000
  0
ACAD_PROXY_OBJECT
  5
7A
102
{ACAD_REACTORS
330
6F
102
}
330
6F
100
AcDbZombieObject
 90
      499
 91
      502
 93
      113
310
904313A35304000000000000494000
  0
ACAD_PROXY_OBJECT
  5
7B
102
{ACAD_REACTORS
330
6F
102
}
330
6F
100
AcDbZombieObject
 90
      499
 91
      502
 93
      121
310
905313A3130304000000000000594000
  0
ACAD_PROXY_OBJECT
  5
7C
102
{ACAD_REACTORS
330
6F
102
}
330
6F
100
AcDbZombieObject
 90
      499
 91
      502
 93
      105
310
903323A310000000000000010100
  0
ACAD_PROXY_OBJECT
  5
7D
102
{ACAD_REACTORS
330
6F
102
}
330
6F
100
AcDbZombieObject
 90
      499
 91
      502
 93
      105
310
903343A310000000000000410100
  0
ACAD_PROXY_OBJECT
  5
7E
102
{ACAD_REACTORS
330
6F
102
}
330
6F
100
AcDbZombieObject
 90
      499
 91
      502
 93
      105
310
903383A310000000000000810100
  0
ACAD_PROXY_OBJECT
  5
7F
102
{ACAD_REACTORS
330
6F
102
}
330
6F
100
AcDbZombieObject
 90
      499
 91
      502
 93
      113
310
90431303A310000000000000910100
  0
ACAD_PROXY_OBJECT
  5
80
102
{ACAD_REACTORS
330
6F
102
}
330
6F
100
AcDbZombieObject
 90
      499
 91
      502
 93
      121
310
9053130303A310000000000001650100
  0
ACAD_PROXY_OBJECT
  5
81
102
{ACAD_REACTORS
330
6F
102
}
330
6F
100
AcDbZombieObject
 90
      499
 91
      502
 93
      257
310
90E312F31323822203D2031272D3022000000000000200FC000000000000284000
  0
ACAD_PROXY_OBJECT
  5
82
102
{ACAD_REACTORS
330
6F
102
}
330
6F
100
AcDbZombieObject
 90
      499
 91
      502
 93
      249
310
90D312F363422203D2031272D3022000000000000240FC000000000000284000
  0
ACAD_PROXY_OBJECT
  5
83
102
{ACAD_REACTORS
330
6F
102
}
330
6F
100
AcDbZombieObject
 90
      499
 91
      502
 93
      249
310
90D312F333222203D2031272D3022000000000000280FC000000000000284000
  0
ACAD_PROXY_OBJECT
  5
84
102
{ACAD_REACTORS
330
6F
102
}
330
6F
100
AcDbZombieObject
 90
      499
 91
      502
 93
      249
310
90D312F313622203D2031272D30220000000000002C0FC000000000000284000
  0
ACAD_PROXY_OBJECT
  5
85
102
{ACAD_REACTORS
330
6F
102
}
330
6F
100
AcDbZombieObject
 90
      499
 91
      502
 93
      249
310
90D332F333222203D2031272D30220000000000002E0FC000000000000284000
  0
ACAD_PROXY_OBJECT
  5
86
102
{ACAD_REACTORS
330
6F
102
}
330
6F
100
AcDbZombieObject
 90
      499
 91
      502
 93
      241
310
90C312F3822203D2031272D3022000000000000300FC000000000000284000
  0
ACAD_PROXY_OBJECT
  5
87
102
{ACAD_REACTORS
330
6F
102
}
330
6F
100
AcDbZombieObject
 90
      499
 91
      502
 93
      249
310
90D332F313622203D2031272D3022000000000000320FC000000000000284000
  0
ACAD_PROXY_OBJECT
  5
88
102
{ACAD_REACTORS
330
6F
102
}
330
6F
100
AcDbZombieObject
 90
      499
 91
      502
 93
      241
310
90C312F3422203D2031272D3022000000000000340FC000000000000284000
  0
ACAD_PROXY_OBJECT
  5
89
102
{ACAD_REACTORS
330
6F
102
}
330
6F
100
AcDbZombieObject
 90
      499
 91
      502
 93
      241
310
90C332F3822203D2031272D3022000000000000360FC000000000000284000
  0
ACAD_PROXY_OBJECT
  5
8A
102
{ACAD_REACTORS
330
6F
102
}
330
6F
100
AcDbZombieObject
 90
      499
 91
      502
 93
      241
310
90C312F3222203D2031272D3022000000000000380FC000000000000284000
  0
ACAD_PROXY_OBJECT
  5
8B
102
{ACAD_REACTORS
330
6F
102
}
330
6F
100
AcDbZombieObject
 90
      499
 91
      502
 93
      241
310
90C332F3422203D2031272D30220000000000003A0FC000000000000284000
  0
ACAD_PROXY_OBJECT
  5
8C
102
{ACAD_REACTORS
330
6F
102
}
330
6F
100
AcDbZombieObject
 90
      499
 91
      502
 93
      161
310
90A3122203D2031272D30224000000000000284000
  0
ACAD_PROXY_OBJECT
  5
8D
102
{ACAD_REACTORS
330
6F
102
}
330
6F
100
AcDbZombieObject
 90
      499
 91
      502
 93
      257
310
90E312D312F3222203D2031272D30220000000000003E0FC000000000000284000
  0
ACAD_PROXY_OBJECT
  5
8E
102
{ACAD_REACTORS
330
6F
102
}
330
6F
100
AcDbZombieObject
 90
      499
 91
      502
 93
      225
310
90A3322203D2031272D302200000000000002100000000000000284000
  0
ACAD_PROXY_OBJECT
  5
8F
102
{ACAD_REACTORS
330
6F
102
}
330
6F
100
AcDbZombieObject
 90
      499
 91
      502
 93
      225
310
90A3622203D2031272D302200000000000006100000000000000284000
  0
ACAD_PROXY_OBJECT
  5
90
102
{ACAD_REACTORS
330
6F
102
}
330
6F
100
AcDbZombieObject
 90
      499
 91
      502
 93
      249
310
90D31272D3022203D2031272D30220000000000000A100000000000000284000
  0
ACAD_PROXY_OBJECT
  5
2F
102
{ACAD_REACTORS
330
2A
102
}
330
2A
100
AcDbZombieObject
 90
      499
 91
      501
 93
      436
310
42CC9915DA5C99599C985B595049028333333333333E3BF0000000000000FB0107901411070040501600405405064090741402480A0340
1001
ACAD
1000
AcDbSavedByObjectVersion
1070
     0
  0
ACAD_PROXY_OBJECT
  5
31
102
{ACAD_REACTORS
330
2A
102
}
330
2A
100
AcDbZombieObject
 90
      499
 91
      501
 93
      500
310
424CD108121A5919195B90640502408333333333333E3BF0000000000000FB01079024090700405020000000000001110200405405064090740C02480A0340
1001
ACAD
1000
AcDbSavedByObjectVersion
1070
     0
  0
ACAD_PROXY_OBJECT
  5
30
102
{ACAD_REACTORS
330
2A
102
}
330
2A
100
AcDbZombieObject
 90
      499
 91
      501
 93
      436
310
42CCD915DA5C99599C985B595059028333333333333E3BF0000000000000FB0107901411070040501600405405064090741402480A0340
1001
ACAD
1000
AcDbSavedByObjectVersion
1070
     0
  0
ACAD_PROXY_OBJECT
  5
32
102
{ACAD_REACTORS
330
2A
102
}
330
2A
100
AcDbZombieObject
 90
      499
 91
      501
 93
      388
310
4150985CDA58D07406404333333333333E3BF0000000000000FB0107A41107004050150841D405064090741402480A0350
1001
ACAD
1000
AcDbSavedByObjectVersion
1070
     0
  0
ACAD_PROXY_OBJECT
  5
36
102
{ACAD_REACTORS
330
2A
102
}
330
2A
100
AcDbZombieObject
 90
      499
 91
      501
 93
      428
310
42109C9A59DA1D195B90C409028333333333333E3BF0000000000000FB010790141107004050150841D405064090741402480A029950
1001
ACAD
1000
AcDbSavedByObjectVersion
1070
     0
  0
ACAD_PROXY_OBJECT
  5
3A
102
{ACAD_REACTORS
330
2A
102
}
330
2A
100
AcDbZombieObject
 90
      499
 91
      501
 93
      452
310
42D0DBDB1BDC90DA185B99D95104090240C333333333333E3BF0000000000000FB0108901411070040501508421405064090741402480A0350
1001
ACAD
1000
AcDbSavedByObjectVersion
1070
     0
  0
ACAD_PROXY_OBJECT
  5
34
102
{ACAD_REACTORS
330
2A
102
}
330
2A
100
AcDbZombieObject
 90
      499
 91
      501
 93
      500
310
4290DBDB98D95C1D1D585B10940D028333333333333E3BF0000000000000FB0107902409070040501000000000000111010841D405064090740C02480A0340
1001
ACAD
1000
AcDbSavedByObjectVersion
1070
     0
  0
ACAD_PROXY_OBJECT
  5
35
102
{ACAD_REACTORS
330
2A
102
}
330
2A
100
AcDbZombieObject
 90
      499
 91
      501
 93
      412
310
40D11A5B50B409028333333333333E3BF0000000000000FB010790141107004050150841D405064090741402480A02677FFFFFD0
1001
ACAD
1000
AcDbSavedByObjectVersion
1070
     0
  0
ACAD_PROXY_OBJECT
  5
39
102
{ACAD_REACTORS
330
2A
102
}
330
2A
100
AcDbZombieObject
 90
      499
 91
      501
 93
      444
310
42D19858D95C185D1D195C9B90F409028333333333333E3BF0000000000000FB010790141107004050150841D405064090741402480A0350
1001
ACAD
1000
AcDbSavedByObjectVersion
1070
     0
  0
ACAD_PROXY_OBJECT
  5
2B
102
{ACAD_REACTORS
330
2A
102
}
330
2A
100
AcDbZombieObject
 90
      499
 91
      501
 93
      388
310
41119B185D240901404333333333333E3BF0000000000000F9010740A41107004050150841D405064090741402480A1B50
1001
ACAD
1000
AcDbSavedByObjectVersion
1070
     0
  0
ACAD_PROXY_OBJECT
  5
2C
102
{ACAD_REACTORS
330
2A
102
}
330
2A
100
AcDbZombieObject
 90
      499
 91
      501
 93
      476
310
43519B185D15DA5D1A115919D95CD0140901404333333333333E3BF0000000000000F9010740901411070040501600405405064090741402480A1B50
1001
ACAD
1000
AcDbSavedByObjectVersion
1070
     0
  0
ACAD_PROXY_OBJECT
  5
2D
102
{ACAD_REACTORS
330
2A
102
}
330
2A
100
AcDbZombieObject
 90
      499
 91
      501
 93
      412
310
41D1DBDD5C985D5910240902404333333333333E3BF0000000000000F9010740A411070040501641D405064090741402480A1B50
1001
ACAD
1000
AcDbSavedByObjectVersion
1070
     0
  0
ACAD_PROXY_OBJECT
  5
2E
102
{ACAD_REACTORS
330
2A
102
}
330
2A
100
AcDbZombieObject
 90
      499
 91
      501
 93
      500
310
4411DBDD5C985D5915DA5D1A115919D95CD0340902404333333333333E3BF0000000000000F9010740901411070040501600405405064090741402480A1B50
1001
ACAD
1000
AcDbSavedByObjectVersion
1070
     0
  0
ACAD_PROXY_OBJECT
  5
38
102
{ACAD_REACTORS
330
2A
102
}
330
2A
100
AcDbZombieObject
 90
      499
 91
      501
 93
      444
310
42D31A5B995C185D1D195C9B90E409028333333333333E3BF0000000000000FB010790141107004050750841D405064090741402483A0350
1001
ACAD
1000
AcDbSavedByObjectVersion
1070
     0
  0
ACAD_PROXY_OBJECT
  5
33
102
{ACAD_REACTORS
330
2A
102
}
330
2A
100
AcDbZombieObject
 90
      499
 91
      501
 93
      420
310
425499585B1A5CDD1A58D08409028333333333333E3BF0000000000000FB01079019070040501508421405064090741402480A1B40
1001
ACAD
1000
AcDbSavedByObjectVersion
1070
     0
  0
ACAD_PROXY_OBJECT
  5
37
102
{ACAD_REACTORS
330
2A
102
}
330
2A
100
AcDbZombieObject
 90
      499
 91
      501
 93
      412
310
41D51A1A58DAD95B90D409028333333333333E3BF0000000000000FB010790141107004050150C41D405064090741402480A0350
1001
ACAD
1000
AcDbSavedByObjectVersion
1070
     0
  0
DICTIONARYVAR
  5
204
102
{ACAD_REACTORS
330
201
102
}
330
201
100
DictionaryVariables
280
     0
  1
1:1
  0
DICTIONARYVAR
  5
205
102
{ACAD_REACTORS
330
201
102
}
330
201
100
DictionaryVariables
280
     0
  1
2
  0
DICTIONARYVAR
  5
206
102
{ACAD_REACTORS
330
201
102
}
330
201
100
DictionaryVariables
280
     0
  1
1
  0
ENDSEC
  0
EOF
