  0
SECTION
  2
HEADER
  9
$ACADVER
  1
AC1012
  9
$DWGCODEPAGE
  3
ansi_1252
  9
$INSBASE
 10
0.0
 20
0.0
 30
0.0
  9
$EXTMIN
 10
0.0
 20
0.0
 30
0.0
  9
$EXTMAX
 10
11.0
 20
8.5
 30
0.0
  9
$LIMMIN
 10
0.0
 20
0.0
  9
$LIMMAX
 10
11.0
 20
8.5
  9
$ORTHOMODE
 70
     0
  9
$REGENMODE
 70
     1
  9
$FILLMODE
 70
     1
  9
$QTEXTMODE
 70
     0
  9
$MIRRTEXT
 70
     1
  9
$DRAGMODE
 70
     2
  9
$LTSCALE
 40
1.0
  9
$OSMODE
 70
    37
  9
$ATTMODE
 70
     1
  9
$TEXTSIZE
 40
0.125
  9
$TRACEWID
 40
0.05
  9
$TEXTSTYLE
  7
STANDARD
  9
$CLAYER
  8
0
  9
$CELTYPE
  6
BYLAYER
  9
$CECOLOR
 62
   256
  9
$CELTSCALE
 40
1.0
  9
$DELOBJ
 70
     1
  9
$DISPSILH
 70
     0
  9
$DIMSCALE
 40
1.0
  9
$DIMASZ
 40
0.13
  9
$DIMEXO
 40
0.05
  9
$DIMDLI
 40
0.38
  9
$DIMRND
 40
0.0
  9
$DIMDLE
 40
0.0
  9
$DIMEXE
 40
0.125
  9
$DIMTP
 40
0.0
  9
$DIMTM
 40
0.0
  9
$DIMTXT
 40
0.125
  9
$DIMCEN
 40
0.09
  9
$DIMTSZ
 40
0.0
  9
$DIMTOL
 70
     0
  9
$DIMLIM
 70
     0
  9
$DIMTIH
 70
     1
  9
$DIMTOH
 70
     1
  9
$DIMSE1
 70
     0
  9
$DIMSE2
 70
     0
  9
$DIMTAD
 70
     0
  9
$DIMZIN
 70
     0
  9
$DIMBLK
  1

  9
$DIMASO
 70
     1
  9
$DIMSHO
 70
     1
  9
$DIMPOST
  1

  9
$DIMAPOST
  1

  9
$DIMALT
 70
     0
  9
$DIMALTD
 70
     2
  9
$DIMALTF
 40
25.4
  9
$DIMLFAC
 40
0.5
  9
$DIMTOFL
 70
     0
  9
$DIMTVP
 40
0.0
  9
$DIMTIX
 70
     0
  9
$DIMSOXD
 70
     0
  9
$DIMSAH
 70
     0
  9
$DIMBLK1
  1

  9
$DIMBLK2
  1

  9
$DIMSTYLE
  2
STANDARD
  9
$DIMCLRD
 70
     0
  9
$DIMCLRE
 70
     0
  9
$DIMCLRT
 70
     0
  9
$DIMTFAC
 40
1.0
  9
$DIMGAP
 40
0.06
  9
$DIMJUST
 70
     0
  9
$DIMSD1
 70
     0
  9
$DIMSD2
 70
     0
  9
$DIMTOLJ
 70
     1
  9
$DIMTZIN
 70
     0
  9
$DIMALTZ
 70
     0
  9
$DIMALTTZ
 70
     0
  9
$DIMFIT
 70
     3
  9
$DIMUPT
 70
     0
  9
$DIMUNIT
 70
     2
  9
$DIMDEC
 70
     3
  9
$DIMTDEC
 70
     3
  9
$DIMALTU
 70
     2
  9
$DIMALTTD
 70
     2
  9
$DIMTXSTY
  7
STANDARD
  9
$DIMAUNIT
 70
     0
  9
$LUNITS
 70
     2
  9
$LUPREC
 70
     2
  9
$SKETCHINC
 40
0.1
  9
$FILLETRAD
 40
0.5
  9
$AUNITS
 70
     0
  9
$AUPREC
 70
     2
  9
$MENU
  1
.
  9
$ELEVATION
 40
0.0
  9
$PELEVATION
 40
0.0
  9
$THICKNESS
 40
0.0
  9
$LIMCHECK
 70
     0
  9
$CHAMFERA
 40
0.5
  9
$CHAMFERB
 40
0.5
  9
$CHAMFERC
 40
1.0
  9
$CHAMFERD
 40
0.0
  9
$SKPOLY
 70
     0
  9
$TDCREATE
 40
2455784.026708877
  9
$TDUPDATE
 40
2455784.026708889
  9
$TDINDWG
 40
0.0000000116
  9
$TDUSRTIMER
 40
0.0000000116
  9
$USRTIMER
 70
     1
  9
$ANGBASE
 50
0.0
  9
$ANGDIR
 70
     0
  9
$PDMODE
 70
     0
  9
$PDSIZE
 40
-1.0
  9
$PLINEWID
 40
0.0
  9
$COORDS
 70
     1
  9
$SPLFRAME
 70
     0
  9
$SPLINETYPE
 70
     6
  9
$SPLINESEGS
 70
     8
  9
$ATTDIA
 70
     0
  9
$ATTREQ
 70
     1
  9
$HANDLING
 70
     1
  9
$HANDSEED
  5
452
  9
$SURFTAB1
 70
     6
  9
$SURFTAB2
 70
     6
  9
$SURFTYPE
 70
     6
  9
$SURFU
 70
     6
  9
$SURFV
 70
     6
  9
$UCSNAME
  2

  9
$UCSORG
 10
0.0
 20
0.0
 30
0.0
  9
$UCSXDIR
 10
1.0
 20
0.0
 30
0.0
  9
$UCSYDIR
 10
0.0
 20
1.0
 30
0.0
  9
$PUCSNAME
  2

  9
$PUCSORG
 10
0.0
 20
0.0
 30
0.0
  9
$PUCSXDIR
 10
1.0
 20
0.0
 30
0.0
  9
$PUCSYDIR
 10
0.0
 20
1.0
 30
0.0
  9
$USERI1
 70
     0
  9
$USERI2
 70
     0
  9
$USERI3
 70
     0
  9
$USERI4
 70
     0
  9
$USERI5
 70
     0
  9
$USERR1
 40
0.0
  9
$USERR2
 40
0.0
  9
$USERR3
 40
0.0
  9
$USERR4
 40
0.0
  9
$USERR5
 40
0.0
  9
$WORLDVIEW
 70
     1
  9
$SHADEDGE
 70
     3
  9
$SHADEDIF
 70
    70
  9
$TILEMODE
 70
     1
  9
$MAXACTVP
 70
    64
  9
$PINSBASE
 10
0.0
 20
0.0
 30
0.0
  9
$PLIMCHECK
 70
     0
  9
$PEXTMIN
 10
1.0000000000E+20
 20
1.0000000000E+20
 30
1.0000000000E+20
  9
$PEXTMAX
 10
-1.0000000000E+20
 20
-1.0000000000E+20
 30
-1.0000000000E+20
  9
$PLIMMIN
 10
0.0
 20
0.0
  9
$PLIMMAX
 10
12.0
 20
9.0
  9
$UNITMODE
 70
     0
  9
$VISRETAIN
 70
     1
  9
$PLINEGEN
 70
     0
  9
$PSLTSCALE
 70
     1
  9
$TREEDEPTH
 70
  3020
  9
$PICKSTYLE
 70
     1
  9
$CMLSTYLE
  2
STANDARD
  9
$CMLJUST
 70
     0
  9
$CMLSCALE
 40
1.0
  9
$SAVEIMAGES
 70
     1
  0
ENDSEC
  0
SECTION
  2
CLASSES
  0
CLASS
  1
ACDBDICTIONARYWDFLT
  2
AcDbDictionaryWithDefault
  3
ObjectDBX Classes
 90
    32768
280
     0
281
     0
  0
CLASS
  1
VISUALSTYLE
  2
AcDbVisualStyle
  3
ObjectDBX Classes
 90
     4095
280
     0
281
     0
  0
CLASS
  1
SCALE
  2
AcDbScale
  3
ObjectDBX Classes
 90
     1153
280
     0
281
     0
  0
CLASS
  1
DICTIONARYVAR
  2
AcDbDictionaryVar
  3
ObjectDBX Classes
 90
        0
280
     0
281
     0
  0
CLASS
  1
XRECORD
  2
AcDbXrecord
  3
AutoCAD 2000
 90
    32768
280
     0
281
     0
  0
CLASS
  1
LWPOLYLINE
  2
AcDbPolyline
  3
AutoCAD 2000
 90
    32768
280
     0
281
     1
  0
CLASS
  1
HATCH
  2
AcDbHatch
  3
AutoCAD 2000
 90
    32768
280
     0
281
     1
  0
CLASS
  1
ACDBPLACEHOLDER
  2
AcDbPlaceHolder
  3
ObjectDBX Classes
 90
        0
280
     0
281
     0
  0
CLASS
  1
LAYOUT
  2
AcDbLayout
  3
ObjectDBX Classes
 90
        0
280
     0
281
     0
  0
ENDSEC
  0
SECTION
  2
TABLES
  0
TABLE
  2
VPORT
  5
8
330
0
100
AcDbSymbolTable
 70
     1
  0
VPORT
  5
29
330
8
100
AcDbSymbolTableRecord
100
AcDbViewportTableRecord
  2
*ACTIVE
 70
     0
 10
0.0
 20
0.0
 11
1.0
 21
1.0
 12
5.5
 22
4.25
 13
0.0
 23
0.0
 14
0.5
 24
0.5
 15
0.5
 25
0.5
 16
0.0
 26
0.0
 36
1.0
 17
0.0
 27
0.0
 37
0.0
 40
8.5
 41
1.2941176471
 42
50.0
 43
0.0
 44
0.0
 50
0.0
 51
0.0
 71
     0
 72
  2000
 73
     1
 74
     3
 75
     0
 76
     0
 77
     0
 78
     0
  0
ENDTAB
  0
TABLE
  2
LTYPE
  5
5
330
0
100
AcDbSymbolTable
 70
     6
  0
LTYPE
  5
14
330
5
100
AcDbSymbolTableRecord
100
AcDbLinetypeTableRecord
  2
BYBLOCK
 70
     0
  3

 72
    65
 73
     0
 40
0.0
  0
LTYPE
  5
15
330
5
100
AcDbSymbolTableRecord
100
AcDbLinetypeTableRecord
  2
BYLAYER
 70
     0
  3

 72
    65
 73
     0
 40
0.0
  0
LTYPE
  5
16
330
5
100
AcDbSymbolTableRecord
100
AcDbLinetypeTableRecord
  2
CONTINUOUS
 70
     0
  3
Solid line
 72
    65
 73
     0
 40
0.0
  0
LTYPE
  5
3B
330
5
100
AcDbSymbolTableRecord
100
AcDbLinetypeTableRecord
  2
HIDDEN
 70
     0
  3
Hidden __ __ __ __ __ __ __ __ __ __ __ __ __ __
 72
    65
 73
     2
 40
0.075
 49
0.05
 74
     0
 49
-0.025
 74
     0
  0
LTYPE
  5
3C
330
5
100
AcDbSymbolTableRecord
100
AcDbLinetypeTableRecord
  2
PHANTOM
 70
     0
  3
Phantom ______  __  __  ______  __  __  ______
 72
    65
 73
     6
 40
0.5
 49
0.25
 74
     0
 49
-0.05
 74
     0
 49
0.05
 74
     0
 49
-0.05
 74
     0
 49
0.05
 74
     0
 49
-0.05
 74
     0
  0
LTYPE
  5
3D
330
5
100
AcDbSymbolTableRecord
100
AcDbLinetypeTableRecord
  2
CENTER
 70
     0
  3
Center ____ _ ____ _ ____ _ ____ _ ____ _ ____
 72
    65
 73
     4
 40
0.4
 49
0.25
 74
     0
 49
-0.05
 74
     0
 49
0.05
 74
     0
 49
-0.05
 74
     0
  0
LTYPE
  5
3E
330
5
100
AcDbSymbolTableRecord
100
AcDbLinetypeTableRecord
  2
CENTERX2
 70
     0
  3
Center (2x) ________  __  ________  __  _____
 72
    65
 73
     4
 40
0.8
 49
0.5
 74
     0
 49
-0.1
 74
     0
 49
0.1
 74
     0
 49
-0.1
 74
     0
  0
LTYPE
  5
3F
330
5
100
AcDbSymbolTableRecord
100
AcDbLinetypeTableRecord
  2
DOT2
 70
     0
  3
Dot (.5x) ........................................
 72
    65
 73
     2
 40
0.025
 49
0.0
 74
     0
 49
-0.025
 74
     0
  0
ENDTAB
  0
TABLE
  2
LAYER
  5
2
330
0
100
AcDbSymbolTable
 70
     2
  0
LAYER
  5
10
330
2
100
AcDbSymbolTableRecord
100
AcDbLayerTableRecord
  2
0
 70
     0
 62
     7
  6
CONTINUOUS
  0
LAYER
  5
40
330
2
100
AcDbSymbolTableRecord
100
AcDbLayerTableRecord
  2
FORMAT
 70
     0
 62
     7
  6
CONTINUOUS
  0
ENDTAB
  0
TABLE
  2
STYLE
  5
3
330
0
100
AcDbSymbolTable
 70
     4
  0
STYLE
  5
11
330
3
100
AcDbSymbolTableRecord
100
AcDbTextStyleTableRecord
  2
STANDARD
 70
     0
 40
0.0
 41
1.0
 50
0.0
 71
     0
 42
0.2
  3
txt
  4

  0
STYLE
  5
6E
330
3
100
AcDbSymbolTableRecord
100
AcDbTextStyleTableRecord
  2
SLDTEXTSTYLE0
 70
     0
 40
0.0
 41
0.75
 50
0.0
 71
     0
 42
0.2
  3
TXT
  4

  0
STYLE
  5
93
330
3
100
AcDbSymbolTableRecord
100
AcDbTextStyleTableRecord
  2
SLDTEXTSTYLE1
 70
     0
 40
0.0
 41
0.6875
 50
0.0
 71
     0
 42
0.2
  3
TXT
  4

  0
STYLE
  5
99
330
3
100
AcDbSymbolTableRecord
100
AcDbTextStyleTableRecord
  2
SLDTEXTSTYLE2
 70
     0
 40
0.0
 41
0.6944444444
 50
0.0
 71
     0
 42
0.2
  3
TXT
  4

  0
ENDTAB
  0
TABLE
  2
VIEW
  5
6
330
0
100
AcDbSymbolTable
 70
     0
  0
ENDTAB
  0
TABLE
  2
UCS
  5
7
330
0
100
AcDbSymbolTable
 70
     0
  0
ENDTAB
  0
TABLE
  2
APPID
  5
9
330
0
100
AcDbSymbolTable
 70
     1
  0
APPID
  5
12
330
9
100
AcDbSymbolTableRecord
100
AcDbRegAppTableRecord
  2
ACAD
 70
     0
  0
ENDTAB
  0
TABLE
  2
DIMSTYLE
  5
A
330
0
100
AcDbSymbolTable
 70
     1
  0
DIMSTYLE
105
27
330
A
100
AcDbSymbolTableRecord
100
AcDbDimStyleTableRecord
  2
STANDARD
 70
     0
  3

  4

  5

  6

  7

 40
1.0
 41
0.18
 42
0.0625
 43
0.38
 44
0.18
 45
0.0
 46
0.0
 47
0.0
 48
0.0
140
0.18
141
0.09
142
0.0
143
25.4
144
1.0
145
0.0
146
1.0
147
0.09
 71
     0
 72
     0
 73
     1
 74
     1
 75
     0
 76
     0
 77
     0
 78
     0
170
     0
171
     2
172
     0
173
     0
174
     0
175
     0
176
     0
177
     0
178
     0
270
     2
271
     4
272
     4
273
     2
274
     2
340
11
275
     0
280
     0
281
     0
282
     0
283
     1
284
     0
285
     0
286
     0
287
     3
288
     0
  0
ENDTAB
  0
TABLE
  2
BLOCK_RECORD
  5
1
330
0
100
AcDbSymbolTable
 70
     4
  0
BLOCK_RECORD
  5
1F
330
1
100
AcDbSymbolTableRecord
100
AcDbBlockTableRecord
  2
*MODEL_SPACE
  0
BLOCK_RECORD
  5
1B
330
1
100
AcDbSymbolTableRecord
100
AcDbBlockTableRecord
  2
*PAPER_SPACE
  0
BLOCK_RECORD
  5
A8
330
1
100
AcDbSymbolTableRecord
100
AcDbBlockTableRecord
  2
SW_NOTE_0
  0
BLOCK_RECORD
  5
AE
330
1
100
AcDbSymbolTableRecord
100
AcDbBlockTableRecord
  2
SW_NOTE_1
  0
BLOCK_RECORD
  5
C2
330
1
100
AcDbSymbolTableRecord
100
AcDbBlockTableRecord
  2
SW_NOTE_2
  0
ENDTAB
  0
ENDSEC
  0
SECTION
  2
BLOCKS
  0
BLOCK
  5
20
330
1F
100
AcDbEntity
  8
0
100
AcDbBlockBegin
  2
*MODEL_SPACE
 70
     0
 10
0.0
 20
0.0
 30
0.0
  3
*MODEL_SPACE
  1

  0
ENDBLK
  5
21
330
1F
100
AcDbEntity
  8
0
100
AcDbBlockEnd
  0
BLOCK
  5
1C
330
1B
100
AcDbEntity
 67
     1
  8
0
100
AcDbBlockBegin
  2
*PAPER_SPACE
 70
     0
 10
0.0
 20
0.0
 30
0.0
  3
*PAPER_SPACE
  1

  0
ENDBLK
  5
1D
330
1B
100
AcDbEntity
 67
     1
  8
0
100
AcDbBlockEnd
  0
BLOCK
  5
A9
330
A8
100
AcDbEntity
  8
0
100
AcDbBlockBegin
  2
SW_NOTE_0
 70
     0
 10
0.0
 20
0.0
 30
0.0
  3
SW_NOTE_0
  1

  0
MTEXT
  5
AB
330
A8
100
AcDbEntity
  8
0
  6
CONTINUOUS
 62
     0
100
AcDbMText
 10
0.0
 20
0.0773440644
 30
0.0
 40
0.06
 41
0.0
 71
     1
 72
     1
  1
INTERPRET GEOMETRIC
  7
SLDTEXTSTYLE0
  0
MTEXT
  5
AC
330
A8
100
AcDbEntity
  8
0
  6
CONTINUOUS
 62
     0
100
AcDbMText
 10
0.0
 20
-0.0220260102
 30
0.0
 40
0.06
 41
0.0
 71
     1
 72
     1
  1
TOLERANCING PER:
  7
SLDTEXTSTYLE0
  0
ENDBLK
  5
AA
330
A8
100
AcDbEntity
  8
0
100
AcDbBlockEnd
  0
BLOCK
  5
AF
330
AE
100
AcDbEntity
  8
0
100
AcDbBlockBegin
  2
SW_NOTE_1
 70
     0
 10
0.0
 20
0.0
 30
0.0
  3
SW_NOTE_1
  1

  0
MTEXT
  5
B1
330
AE
100
AcDbEntity
  8
0
  6
CONTINUOUS
 62
     0
100
AcDbMText
 10
0.0
 20
0.0837894031
 30
0.0
 40
0.065
 41
0.0
 71
     1
 72
     1
  1
DIMENSIONS ARE IN INCHES
  7
SLDTEXTSTYLE0
  0
MTEXT
  5
B2
330
AE
100
AcDbEntity
  8
0
  6
CONTINUOUS
 62
     0
100
AcDbMText
 10
0.0
 20
-0.0205806729
 30
0.0
 40
0.065
 41
0.0
 71
     1
 72
     1
  1
TOLERANCES:
  7
SLDTEXTSTYLE0
  0
MTEXT
  5
B3
330
AE
100
AcDbEntity
  8
0
  6
CONTINUOUS
 62
     0
100
AcDbMText
 10
0.0
 20
-0.1249507489
 30
0.0
 40
0.065
 41
0.0
 71
     1
 72
     1
  1
FRACTIONAL
  7
SLDTEXTSTYLE0
  0
MTEXT
  5
B4
330
AE
100
AcDbEntity
  8
0
  6
CONTINUOUS
 62
     0
100
AcDbMText
 10
0.5175850875
 20
-0.1249507489
 30
0.0
 40
0.065
 41
0.0
 71
     1
 72
     1
  1
%%p
  7
SLDTEXTSTYLE0
  0
MTEXT
  5
B5
330
AE
100
AcDbEntity
  8
0
  6
CONTINUOUS
 62
     0
100
AcDbMText
 10
0.0
 20
-0.2293208248
 30
0.0
 40
0.065
 41
0.0
 71
     1
 72
     1
  1
ANGULAR: MACH
  7
SLDTEXTSTYLE0
  0
MTEXT
  5
B6
330
AE
100
AcDbEntity
  8
0
  6
CONTINUOUS
 62
     0
100
AcDbMText
 10
0.7233732769
 20
-0.2293208248
 30
0.0
 40
0.065
 41
0.0
 71
     1
 72
     1
  1
%%p
  7
SLDTEXTSTYLE0
  0
MTEXT
  5
B7
330
AE
100
AcDbEntity
  8
0
  6
CONTINUOUS
 62
     0
100
AcDbMText
 10
0.7852857683
 20
-0.2293208248
 30
0.0
 40
0.065
 41
0.0
 71
     1
 72
     1
  1
     BEND 
  7
SLDTEXTSTYLE0
  0
MTEXT
  5
B8
330
AE
100
AcDbEntity
  8
0
  6
CONTINUOUS
 62
     0
100
AcDbMText
 10
1.14784136
 20
-0.2293208248
 30
0.0
 40
0.065
 41
0.0
 71
     1
 72
     1
  1
%%p
  7
SLDTEXTSTYLE0
  0
MTEXT
  5
B9
330
AE
100
AcDbEntity
  8
0
  6
CONTINUOUS
 62
     0
100
AcDbMText
 10
0.0
 20
-0.3336909008
 30
0.0
 40
0.065
 41
0.0
 71
     1
 72
     1
  1
TWO PLACE DECIMAL    
  7
SLDTEXTSTYLE0
  0
MTEXT
  5
BA
330
AE
100
AcDbEntity
  8
0
  6
CONTINUOUS
 62
     0
100
AcDbMText
 10
0.9794349188
 20
-0.3336909008
 30
0.0
 40
0.065
 41
0.0
 71
     1
 72
     1
  1
%%p
  7
SLDTEXTSTYLE0
  0
MTEXT
  5
BB
330
AE
100
AcDbEntity
  8
0
  6
CONTINUOUS
 62
     0
100
AcDbMText
 10
0.0
 20
-0.4380609768
 30
0.0
 40
0.065
 41
0.0
 71
     1
 72
     1
  1
THREE PLACE DECIMAL  
  7
SLDTEXTSTYLE0
  0
MTEXT
  5
BC
330
AE
100
AcDbEntity
  8
0
  6
CONTINUOUS
 62
     0
100
AcDbMText
 10
0.9738038639
 20
-0.4380609768
 30
0.0
 40
0.065
 41
0.0
 71
     1
 72
     1
  1
%%p
  7
SLDTEXTSTYLE0
  0
ENDBLK
  5
B0
330
AE
100
AcDbEntity
  8
0
100
AcDbBlockEnd
  0
BLOCK
  5
C3
330
C2
100
AcDbEntity
  8
0
100
AcDbBlockBegin
  2
SW_NOTE_2
 70
     0
 10
0.0
 20
0.0
 30
0.0
  3
SW_NOTE_2
  1

  0
MTEXT
  5
C5
330
C2
100
AcDbEntity
  8
0
  6
CONTINUOUS
 62
     0
100
AcDbMText
 10
0.0
 20
0.0773440644
 30
0.0
 40
0.06
 41
0.0
 71
     1
 72
     1
  1
THE INFORMATION CONTAINED IN THIS
  7
SLDTEXTSTYLE0
  0
MTEXT
  5
C6
330
C2
100
AcDbEntity
  8
0
  6
CONTINUOUS
 62
     0
100
AcDbMText
 10
0.0
 20
-0.0220260102
 30
0.0
 40
0.06
 41
0.0
 71
     1
 72
     1
  1
DRAWING IS THE SOLE PROPERTY OF
  7
SLDTEXTSTYLE0
  0
MTEXT
  5
C7
330
C2
100
AcDbEntity
  8
0
  6
CONTINUOUS
 62
     0
100
AcDbMText
 10
0.0
 20
-0.1213960848
 30
0.0
 40
0.06
 41
0.0
 71
     1
 72
     1
  1
Candy Controls.  ANY 
  7
SLDTEXTSTYLE0
  0
MTEXT
  5
C8
330
C2
100
AcDbEntity
  8
0
  6
CONTINUOUS
 62
     0
100
AcDbMText
 10
0.0
 20
-0.2207661593
 30
0.0
 40
0.06
 41
0.0
 71
     1
 72
     1
  1
REPRODUCTION IN PART OR AS A WHOLE
  7
SLDTEXTSTYLE0
  0
MTEXT
  5
C9
330
C2
100
AcDbEntity
  8
0
  6
CONTINUOUS
 62
     0
100
AcDbMText
 10
0.0
 20
-0.3201362339
 30
0.0
 40
0.06
 41
0.0
 71
     1
 72
     1
  1
WITHOUT THE WRITTEN PERMISSION OF
  7
SLDTEXTSTYLE0
  0
MTEXT
  5
CA
330
C2
100
AcDbEntity
  8
0
  6
CONTINUOUS
 62
     0
100
AcDbMText
 10
0.0
 20
-0.4195063085
 30
0.0
 40
0.06
 41
0.0
 71
     1
 72
     1
  1
Candy Controls IS 
  7
SLDTEXTSTYLE0
  0
MTEXT
  5
CB
330
C2
100
AcDbEntity
  8
0
  6
CONTINUOUS
 62
     0
100
AcDbMText
 10
0.0
 20
-0.518876383
 30
0.0
 40
0.06
 41
0.0
 71
     1
 72
     1
  1
PROHIBITED.
  7
SLDTEXTSTYLE0
  0
ENDBLK
  5
C4
330
C2
100
AcDbEntity
  8
0
100
AcDbBlockEnd
  0
ENDSEC
  0
SECTION
  2
ENTITIES
  0
LINE
  5
41
330
1F
100
AcDbEntity
  8
0
  6
CONTINUOUS
 62
     7
100
AcDbLine
 10
0.329927
 20
8.1920731707
 30
0.0
 11
10.629927
 21
8.1920731707
 31
0.0
  0
LINE
  5
42
330
1F
100
AcDbEntity
  8
0
  6
CONTINUOUS
 62
     7
100
AcDbLine
 10
0.329927
 20
8.1920731707
 30
0.0
 11
0.329927
 21
0.3920731707
 31
0.0
  0
LINE
  5
43
330
1F
100
AcDbEntity
  8
0
  6
CONTINUOUS
 62
     7
100
AcDbLine
 10
10.629927
 20
0.3920731707
 30
0.0
 11
0.329927
 21
0.3920731707
 31
0.0
  0
LINE
  5
44
330
1F
100
AcDbEntity
  8
0
  6
CONTINUOUS
 62
     7
100
AcDbLine
 10
10.629927
 20
0.3920731707
 30
0.0
 11
10.629927
 21
8.1920731707
 31
0.0
  0
LINE
  5
45
330
1F
100
AcDbEntity
  8
0
  6
CONTINUOUS
 62
     7
100
AcDbLine
 10
4.7981841288
 20
0.3920731707
 30
0.0
 11
4.7981841288
 21
2.3564211366
 31
0.0
  0
LINE
  5
46
330
1F
100
AcDbEntity
  8
0
  6
CONTINUOUS
 62
     7
100
AcDbLine
 10
2.8210345579
 20
2.3564211366
 30
0.0
 11
10.629927
 21
2.3564211366
 31
0.0
  0
LINE
  5
47
330
1F
100
AcDbEntity
  8
0
  6
CONTINUOUS
 62
     7
100
AcDbLine
 10
6.1796352514
 20
2.3564211366
 30
0.0
 11
6.1796352514
 21
0.3920731707
 31
0.0
  0
LINE
  5
48
330
1F
100
AcDbEntity
  8
0
  6
CONTINUOUS
 62
     7
100
AcDbLine
 10
7.8712070044
 20
2.3564211366
 30
0.0
 11
7.8712070044
 21
0.3920731707
 31
0.0
  0
LINE
  5
49
330
1F
100
AcDbEntity
  8
0
  6
CONTINUOUS
 62
     7
100
AcDbLine
 10
7.8712070044
 20
0.6049590101
 30
0.0
 11
10.629927
 21
0.6049590101
 31
0.0
  0
LINE
  5
4A
330
1F
100
AcDbEntity
  8
0
  6
CONTINUOUS
 62
     7
100
AcDbLine
 10
7.8712070044
 20
1.1119362457
 30
0.0
 11
10.629927
 21
1.1119362457
 31
0.0
  0
LINE
  5
4B
330
1F
100
AcDbEntity
  8
0
  6
CONTINUOUS
 62
     7
100
AcDbLine
 10
7.8712070044
 20
1.9892703708
 30
0.0
 11
10.629927
 21
1.9892703708
 31
0.0
  0
LINE
  5
4C
330
1F
100
AcDbEntity
  8
0
  6
CONTINUOUS
 62
     7
100
AcDbLine
 10
8.266751752
 20
1.1119362457
 30
0.0
 11
8.266751752
 21
0.6049590101
 31
0.0
  0
LINE
  5
4D
330
1F
100
AcDbEntity
  8
0
  6
CONTINUOUS
 62
     7
100
AcDbLine
 10
8.6943435176
 20
0.6049590101
 30
0.0
 11
8.6943435176
 21
0.3920731707
 31
0.0
  0
LINE
  5
4E
330
1F
100
AcDbEntity
  8
0
  6
CONTINUOUS
 62
     7
100
AcDbLine
 10
10.0579917045
 20
1.1119362457
 30
0.0
 11
10.0579917045
 21
0.6049590101
 31
0.0
  0
LINE
  5
4F
330
1F
100
AcDbEntity
  8
0
  6
CONTINUOUS
 62
     7
100
AcDbLine
 10
9.6662556631
 20
0.6049590101
 30
0.0
 11
9.6662556631
 21
0.3920731707
 31
0.0
  0
LINE
  5
50
330
1F
100
AcDbEntity
  8
0
  6
CONTINUOUS
 62
     7
100
AcDbLine
 10
2.8210345579
 20
0.5883479999
 30
0.0
 11
6.1796352514
 21
0.5883479999
 31
0.0
  0
LINE
  5
51
330
1F
100
AcDbEntity
  8
0
  6
CONTINUOUS
 62
     7
100
AcDbLine
 10
6.1796352514
 20
1.7939211366
 30
0.0
 11
7.8712070044
 21
1.7939211366
 31
0.0
  0
LINE
  5
52
330
1F
100
AcDbEntity
  8
0
  6
CONTINUOUS
 62
     7
100
AcDbLine
 10
6.1796352514
 20
1.9814211366
 30
0.0
 11
7.8712070044
 21
1.9814211366
 31
0.0
  0
LINE
  5
53
330
1F
100
AcDbEntity
  8
0
  6
CONTINUOUS
 62
     7
100
AcDbLine
 10
6.1796352514
 20
2.1689211366
 30
0.0
 11
7.8712070044
 21
2.1689211366
 31
0.0
  0
LINE
  5
54
330
1F
100
AcDbEntity
  8
0
  6
CONTINUOUS
 62
     7
100
AcDbLine
 10
7.8712070044
 20
1.2314211366
 30
0.0
 11
6.1796352514
 21
1.2314211366
 31
0.0
  0
LINE
  5
55
330
1F
100
AcDbEntity
  8
0
  6
CONTINUOUS
 62
     7
100
AcDbLine
 10
7.3921580388
 20
2.3564211366
 30
0.0
 11
7.3921580388
 21
1.2314211366
 31
0.0
  0
LINE
  5
56
330
1F
100
AcDbEntity
  8
0
  6
CONTINUOUS
 62
     7
100
AcDbLine
 10
6.9236308342
 20
2.3564211366
 30
0.0
 11
6.9236308342
 21
1.2314211366
 31
0.0
  0
LINE
  5
57
330
1F
100
AcDbEntity
  8
0
  6
CONTINUOUS
 62
     7
100
AcDbLine
 10
4.7981841288
 20
0.8557965305
 30
0.0
 11
6.1796352514
 21
0.8557965305
 31
0.0
  0
LINE
  5
58
330
1F
100
AcDbEntity
  8
0
  6
CONTINUOUS
 62
     7
100
AcDbLine
 10
4.7981841288
 20
1.1257965305
 30
0.0
 11
6.1796352514
 21
1.1257965305
 31
0.0
  0
LINE
  5
59
330
1F
100
AcDbEntity
  8
0
  6
CONTINUOUS
 62
     7
100
AcDbLine
 10
2.8210345579
 20
0.3920731707
 30
0.0
 11
2.8210345579
 21
2.3564211366
 31
0.0
  0
LINE
  5
5A
330
1F
100
AcDbEntity
  8
0
  6
CONTINUOUS
 62
     7
100
AcDbLine
 10
2.8210345579
 20
1.1064211366
 30
0.0
 11
4.7981841288
 21
1.1064211366
 31
0.0
  0
LINE
  5
5B
330
1F
100
AcDbEntity
  8
0
  6
CONTINUOUS
 62
     7
100
AcDbLine
 10
2.8210345579
 20
1.3564211366
 30
0.0
 11
4.7981841288
 21
1.3564211366
 31
0.0
  0
LINE
  5
5C
330
1F
100
AcDbEntity
  8
0
  6
CONTINUOUS
 62
     7
100
AcDbLine
 10
2.8210345579
 20
1.6064211366
 30
0.0
 11
4.7981841288
 21
1.6064211366
 31
0.0
  0
LINE
  5
5D
330
1F
100
AcDbEntity
  8
0
  6
CONTINUOUS
 62
     7
100
AcDbLine
 10
2.8210345579
 20
1.8564211366
 30
0.0
 11
4.7981841288
 21
1.8564211366
 31
0.0
  0
LINE
  5
5E
330
1F
100
AcDbEntity
  8
0
  6
CONTINUOUS
 62
     7
100
AcDbLine
 10
3.8190146875
 20
2.3564211366
 30
0.0
 11
3.8190146875
 21
0.5883479999
 31
0.0
  0
LINE
  5
5F
330
1F
100
AcDbEntity
  8
0
  6
CONTINUOUS
 62
     7
100
AcDbLine
 10
6.1796352514
 20
2.2020813496
 30
0.0
 11
4.7981841288
 21
2.2020813496
 31
0.0
  0
LINE
  5
60
330
1F
100
AcDbEntity
  8
0
  6
CONTINUOUS
 62
     7
100
AcDbLine
 10
7.8712070044
 20
1.6064211366
 30
0.0
 11
6.1796352514
 21
1.6064211366
 31
0.0
  0
LINE
  5
61
330
1F
100
AcDbEntity
  8
0
  6
CONTINUOUS
 62
     7
100
AcDbLine
 10
7.8712070044
 20
1.4189211366
 30
0.0
 11
6.1796352514
 21
1.4189211366
 31
0.0
  0
LINE
  5
62
330
1F
100
AcDbEntity
  8
0
  6
CONTINUOUS
 62
     7
100
AcDbLine
 10
2.8210345579
 20
2.1064211366
 30
0.0
 11
4.7981841288
 21
2.1064211366
 31
0.0
  0
LINE
  5
63
330
1F
100
AcDbEntity
  8
0
  6
CONTINUOUS
 62
     7
100
AcDbLine
 10
4.7981841288
 20
1.3957965305
 30
0.0
 11
6.1796352514
 21
1.3957965305
 31
0.0
  0
LINE
  5
64
330
1F
100
AcDbEntity
  8
0
  6
CONTINUOUS
 62
     7
100
AcDbLine
 10
2.8210345579
 20
0.8564211366
 30
0.0
 11
4.7981841288
 21
0.8564211366
 31
0.0
  0
LINE
  5
65
330
1F
100
AcDbEntity
  8
0
  6
CONTINUOUS
 62
     7
100
AcDbLine
 10
1.1838252943
 20
0.3920731707
 30
0.0
 11
1.1838252943
 21
1.3064211366
 31
0.0
  0
LINE
  5
66
330
1F
100
AcDbEntity
  8
0
  6
CONTINUOUS
 62
     7
100
AcDbLine
 10
2.8210345579
 20
1.3064211366
 30
0.0
 11
1.1838252943
 21
1.3064211366
 31
0.0
  0
LINE
  5
67
330
1F
100
AcDbEntity
  8
0
  6
CONTINUOUS
 62
     7
100
AcDbLine
 10
8.660927
 20
0.3920731707
 30
0.0
 11
8.660927
 21
0.3072739649
 31
0.0
  0
LINE
  5
68
330
1F
100
AcDbEntity
  8
0
  6
CONTINUOUS
 62
     7
100
AcDbLine
 10
6.692177
 20
0.3920731707
 30
0.0
 11
6.692177
 21
0.3072739649
 31
0.0
  0
LINE
  5
69
330
1F
100
AcDbEntity
  8
0
  6
CONTINUOUS
 62
     7
100
AcDbLine
 10
4.723427
 20
0.3920731707
 30
0.0
 11
4.723427
 21
0.3072739649
 31
0.0
  0
LINE
  5
6A
330
1F
100
AcDbEntity
  8
0
  6
CONTINUOUS
 62
     7
100
AcDbLine
 10
2.754677
 20
0.3920731707
 30
0.0
 11
2.754677
 21
0.3072739649
 31
0.0
  0
LINE
  5
6B
330
1F
100
AcDbEntity
  8
0
  6
CONTINUOUS
 62
     7
100
AcDbLine
 10
2.754677
 20
0.3920731707
 30
0.0
 11
2.7672319738
 21
0.3575
 31
0.0
  0
LINE
  5
6C
330
1F
100
AcDbEntity
  8
0
  6
CONTINUOUS
 62
     7
100
AcDbLine
 10
2.7672319738
 20
0.3575
 30
0.0
 11
2.7414258825
 21
0.3575
 31
0.0
  0
LINE
  5
6D
330
1F
100
AcDbEntity
  8
0
  6
CONTINUOUS
 62
     7
100
AcDbLine
 10
2.7414258825
 20
0.3575
 30
0.0
 11
2.754677
 21
0.3920731707
 31
0.0
  0
MTEXT
  5
91
330
1F
100
AcDbEntity
  8
0
  6
CONTINUOUS
 62
     7
100
AcDbMText
 10
4.9775846961
 20
0.5178452352
 30
0.0
 40
0.0625
 41
0.0
 71
     1
 72
     1
  1
DO NOT SCALE DRAWING
  7
SLDTEXTSTYLE0
  0
MTEXT
  5
92
330
1F
100
AcDbEntity
  8
0
  6
CONTINUOUS
 62
     7
100
AcDbMText
 10
8.9026298919
 20
0.9417064595
 30
0.0
 40
0.125
 41
0.0
 71
     1
 72
     1
  1
CL7-20
  7
SLDTEXTSTYLE0
  0
MTEXT
  5
94
330
1F
100
AcDbEntity
  8
0
  6
CONTINUOUS
 62
     7
100
AcDbMText
 10
9.7571278483
 20
0.5524239532
 30
0.0
 40
0.1
 41
0.0
 71
     1
 72
     1
  1
SHEET 1 OF 1
  7
SLDTEXTSTYLE1
  0
MTEXT
  5
95
330
1F
100
AcDbEntity
  8
0
  6
CONTINUOUS
 62
     7
100
AcDbMText
 10
4.8448077858
 20
2.3132954224
 30
0.0
 40
0.07
 41
0.0
 71
     1
 72
     1
  1
UNLESS OTHERWISE SPECIFIED:
  7
SLDTEXTSTYLE0
  0
MTEXT
  5
96
330
1F
100
AcDbEntity
  8
0
  6
CONTINUOUS
 62
     7
100
AcDbMText
 10
7.9586139647
 20
0.5520987879
 30
0.0
 40
0.1
 41
0.0
 71
     1
 72
     1
  1
SCALE: 2:1
  7
SLDTEXTSTYLE0
  0
MTEXT
  5
97
330
1F
100
AcDbEntity
  8
0
  6
CONTINUOUS
 62
     7
100
AcDbMText
 10
8.7023691647
 20
0.5486763345
 30
0.0
 40
0.1
 41
0.0
 71
     1
 72
     1
  1
WEIGHT: 
  7
SLDTEXTSTYLE0
  0
MTEXT
  5
98
330
1F
100
AcDbEntity
  8
0
  6
CONTINUOUS
 62
     7
100
AcDbMText
 10
10.2277580983
 20
1.081966299
 30
0.0
 40
0.1
 41
0.0
 71
     1
 72
     1
  1
REV
  7
SLDTEXTSTYLE0
  0
MTEXT
  5
9A
330
1F
100
AcDbEntity
  8
0
  6
CONTINUOUS
 62
     7
100
AcDbMText
 10
8.2984570898
 20
1.0858725293
 30
0.0
 40
0.1
 41
0.0
 71
     1
 72
     1
  1
DWG.  NO.
  7
SLDTEXTSTYLE2
  0
MTEXT
  5
9B
330
1F
100
AcDbEntity
  8
0
  6
CONTINUOUS
 62
     7
100
AcDbMText
 10
7.9598482632
 20
0.9442140768
 30
0.0
 40
0.25
 41
0.0
 71
     1
 72
     1
  1
A
  7
SLDTEXTSTYLE0
  0
MTEXT
  5
9C
330
1F
100
AcDbEntity
  8
0
  6
CONTINUOUS
 62
     7
100
AcDbMText
 10
7.9519581822
 20
1.0872713483
 30
0.0
 40
0.1
 41
0.0
 71
     1
 72
     1
  1
SIZE
  7
SLDTEXTSTYLE0
  0
MTEXT
  5
9D
330
1F
100
AcDbEntity
  8
0
  6
CONTINUOUS
 62
     7
100
AcDbMText
 10
7.9170704177
 20
1.9547881128
 30
0.0
 40
0.1
 41
0.0
 71
     1
 72
     1
  1
TITLE:
  7
SLDTEXTSTYLE0
  0
MTEXT
  5
9E
330
1F
100
AcDbEntity
  8
0
  6
CONTINUOUS
 62
     7
100
AcDbMText
 10
7.0363774929
 20
2.2906161274
 30
0.0
 40
0.065
 41
0.0
 71
     1
 72
     1
  1
NAME
  7
SLDTEXTSTYLE0
  0
MTEXT
  5
9F
330
1F
100
AcDbEntity
  8
0
  6
CONTINUOUS
 62
     7
100
AcDbMText
 10
7.5281510634
 20
2.2888799118
 30
0.0
 40
0.065
 41
0.0
 71
     1
 72
     1
  1
DATE
  7
SLDTEXTSTYLE0
  0
MTEXT
  5
A0
330
1F
100
AcDbEntity
  8
0
  6
CONTINUOUS
 62
     7
100
AcDbMText
 10
6.2277147029
 20
1.1876913145
 30
0.0
 40
0.065
 41
0.0
 71
     1
 72
     1
  1
COMMENTS:
  7
SLDTEXTSTYLE0
  0
MTEXT
  5
A1
330
1F
100
AcDbEntity
  8
0
  6
CONTINUOUS
 62
     7
100
AcDbMText
 10
6.2268411461
 20
1.3536101679
 30
0.0
 40
0.065
 41
0.0
 71
     1
 72
     1
  1
Q.A.
  7
SLDTEXTSTYLE0
  0
MTEXT
  5
A2
330
1F
100
AcDbEntity
  8
0
  6
CONTINUOUS
 62
     7
100
AcDbMText
 10
6.2284654509
 20
1.5395328424
 30
0.0
 40
0.065
 41
0.0
 71
     1
 72
     1
  1
MFG APPR.
  7
SLDTEXTSTYLE0
  0
MTEXT
  5
A3
330
1F
100
AcDbEntity
  8
0
  6
CONTINUOUS
 62
     7
100
AcDbMText
 10
6.2235171344
 20
1.7267501785
 30
0.0
 40
0.065
 41
0.0
 71
     1
 72
     1
  1
ENG APPR.
  7
SLDTEXTSTYLE0
  0
MTEXT
  5
A4
330
1F
100
AcDbEntity
  8
0
  6
CONTINUOUS
 62
     7
100
AcDbMText
 10
6.2264103951
 20
1.9092699088
 30
0.0
 40
0.065
 41
0.0
 71
     1
 72
     1
  1
CHECKED
  7
SLDTEXTSTYLE0
  0
MTEXT
  5
A5
330
1F
100
AcDbEntity
  8
0
  6
CONTINUOUS
 62
     7
100
AcDbMText
 10
6.2242794356
 20
2.1016301232
 30
0.0
 40
0.065
 41
0.0
 71
     1
 72
     1
  1
DRAWN
  7
SLDTEXTSTYLE0
  0
MTEXT
  5
A6
330
1F
100
AcDbEntity
  8
0
  6
CONTINUOUS
 62
     7
100
AcDbMText
 10
4.8208600979
 20
0.834523235
 30
0.0
 40
0.06
 41
0.0
 71
     1
 72
     1
  1
FINISH
  7
SLDTEXTSTYLE0
  0
MTEXT
  5
A7
330
1F
100
AcDbEntity
  8
0
  6
CONTINUOUS
 62
     7
100
AcDbMText
 10
4.8181240648
 20
1.1028217587
 30
0.0
 40
0.06
 41
0.0
 71
     1
 72
     1
  1
MATERIAL
  7
SLDTEXTSTYLE0
  0
INSERT
  5
AD
330
1F
100
AcDbEntity
  8
0
  6
CONTINUOUS
 62
     7
100
AcDbBlockReference
  2
SW_NOTE_0
 10
4.8231926633
 20
1.2646542947
 30
0.0
  0
INSERT
  5
BD
330
1F
100
AcDbEntity
  8
0
  6
CONTINUOUS
 62
     7
100
AcDbBlockReference
  2
SW_NOTE_1
 10
4.8353339353
 20
2.0049168724
 30
0.0
  0
MTEXT
  5
BE
330
1F
100
AcDbEntity
  8
0
  6
CONTINUOUS
 62
     7
100
AcDbMText
 10
3.5531400086
 20
0.5200091997
 30
0.0
 40
0.0625
 41
0.0
 71
     1
 72
     1
  1
APPLICATION
  7
SLDTEXTSTYLE0
  0
MTEXT
  5
BF
330
1F
100
AcDbEntity
  8
0
  6
CONTINUOUS
 62
     7
100
AcDbMText
 10
4.1005607758
 20
0.7502454275
 30
0.0
 40
0.0625
 41
0.0
 71
     1
 72
     1
  1
USED ON
  7
SLDTEXTSTYLE0
  0
MTEXT
  5
C0
330
1F
100
AcDbEntity
  8
0
  6
CONTINUOUS
 62
     7
100
AcDbMText
 10
3.1040019536
 20
0.7492094783
 30
0.0
 40
0.0625
 41
0.0
 71
     1
 72
     1
  1
NEXT ASSY
  7
SLDTEXTSTYLE0
  0
MTEXT
  5
C1
330
1F
100
AcDbEntity
  8
0
  6
CONTINUOUS
 62
     7
100
AcDbMText
 10
1.3712489489
 20
1.2496672684
 30
0.0
 40
0.06
 41
0.0
 71
     1
 72
     1
  1
PROPRIETARY AND CONFIDENTIAL
  7
SLDTEXTSTYLE0
  0
INSERT
  5
CC
330
1F
100
AcDbEntity
  8
0
  6
CONTINUOUS
 62
     7
100
AcDbBlockReference
  2
SW_NOTE_2
 10
1.2226209074
 20
1.0313492921
 30
0.0
  0
MTEXT
  5
CD
330
1F
100
AcDbEntity
  8
0
  6
CONTINUOUS
 62
     7
100
AcDbMText
 10
1.7387909509
 20
0.3105864247
 30
0.0
 40
0.09375
 41
0.0
 71
     1
 72
     1
  1
5
  7
SLDTEXTSTYLE0
  0
MTEXT
  5
CE
330
1F
100
AcDbEntity
  8
0
  6
CONTINUOUS
 62
     7
100
AcDbMText
 10
3.723800327
 20
0.3137237518
 30
0.0
 40
0.09375
 41
0.0
 71
     1
 72
     1
  1
4
  7
SLDTEXTSTYLE0
  0
MTEXT
  5
CF
330
1F
100
AcDbEntity
  8
0
  6
CONTINUOUS
 62
     7
100
AcDbMText
 10
5.6324457277
 20
0.3116191842
 30
0.0
 40
0.09375
 41
0.0
 71
     1
 72
     1
  1
3
  7
SLDTEXTSTYLE0
  0
MTEXT
  5
D0
330
1F
100
AcDbEntity
  8
0
  6
CONTINUOUS
 62
     7
100
AcDbMText
 10
7.6059721724
 20
0.3124391351
 30
0.0
 40
0.09375
 41
0.0
 71
     1
 72
     1
  1
2
  7
SLDTEXTSTYLE0
  0
MTEXT
  5
D1
330
1F
100
AcDbEntity
  8
0
  6
CONTINUOUS
 62
     7
100
AcDbMText
 10
9.6619921328
 20
0.301372012
 30
0.0
 40
0.09375
 41
0.0
 71
     1
 72
     1
  1
1
  7
SLDTEXTSTYLE0
  0
LINE
  5
D2
330
1F
100
AcDbEntity
  8
0
  6
CONTINUOUS
 62
     7
100
AcDbLine
 10
2.3330140561
 20
2.9673397037
 30
0.0
 11
4.3202581506
 21
2.9673397037
 31
0.0
  0
LINE
  5
D3
330
1F
100
AcDbEntity
  8
0
  6
CONTINUOUS
 62
     7
100
AcDbLine
 10
2.4187738146
 20
4.5421428533
 30
0.0
 11
2.3330140561
 21
4.5421428533
 31
0.0
  0
LINE
  5
D4
330
1F
100
AcDbEntity
  8
0
  6
CONTINUOUS
 62
     7
100
AcDbLine
 10
3.9935769642
 20
4.5421428533
 30
0.0
 11
2.6596828006
 21
4.5421428533
 31
0.0
  0
LINE
  5
D5
330
1F
100
AcDbEntity
  8
0
  6
CONTINUOUS
 62
     7
100
AcDbLine
 10
4.3202581506
 20
4.5421428533
 30
0.0
 11
4.2344859502
 21
4.5421428533
 31
0.0
  0
LINE
  5
D6
330
1F
100
AcDbEntity
  8
0
  6
CONTINUOUS
 62
     7
100
AcDbLine
 10
4.3202581506
 20
2.9673397037
 30
0.0
 11
4.3502581506
 21
2.9973397037
 31
0.0
  0
LINE
  5
D7
330
1F
100
AcDbEntity
  8
0
  6
CONTINUOUS
 62
     7
100
AcDbLine
 10
4.3502581506
 20
4.5121428533
 30
0.0
 11
4.3202581506
 21
4.5421428533
 31
0.0
  0
LINE
  5
D8
330
1F
100
AcDbEntity
  8
0
  6
CONTINUOUS
 62
     7
100
AcDbLine
 10
2.3330140561
 20
4.5421428533
 30
0.0
 11
2.3030140561
 21
4.5121428533
 31
0.0
  0
LINE
  5
D9
330
1F
100
AcDbEntity
  8
0
  6
CONTINUOUS
 62
     7
100
AcDbLine
 10
2.3030140561
 20
2.9973397037
 30
0.0
 11
2.3330140561
 21
2.9673397037
 31
0.0
  0
LINE
  5
DA
330
1F
100
AcDbEntity
  8
0
  6
CONTINUOUS
 62
     7
100
AcDbLine
 10
2.6227829084
 20
4.5370196703
 30
0.0
 11
2.6176597254
 21
4.5421428533
 31
0.0
  0
LINE
  5
DB
330
1F
100
AcDbEntity
  8
0
  6
CONTINUOUS
 62
     7
100
AcDbLine
 10
2.4608093317
 20
4.5421428533
 30
0.0
 11
2.4556869786
 21
4.5370205002
 31
0.0
  0
LINE
  5
DC
330
1F
100
AcDbEntity
  8
0
  6
CONTINUOUS
 62
     7
100
AcDbLine
 10
4.197586058
 20
4.5370196703
 30
0.0
 11
4.192462875
 21
4.5421428533
 31
0.0
  0
LINE
  5
DD
330
1F
100
AcDbEntity
  8
0
  6
CONTINUOUS
 62
     7
100
AcDbLine
 10
4.0356124813
 20
4.5421428533
 30
0.0
 11
4.0304901282
 21
4.5370205002
 31
0.0
  0
LINE
  5
DE
330
1F
100
AcDbEntity
  8
0
  6
CONTINUOUS
 62
     7
100
AcDbLine
 10
4.3202581506
 20
2.9673397037
 30
0.0
 11
4.3202581506
 21
4.5421428533
 31
0.0
  0
LINE
  5
DF
330
1F
100
AcDbEntity
  8
0
  6
CONTINUOUS
 62
     7
100
AcDbLine
 10
2.3330140561
 20
4.5421428533
 30
0.0
 11
2.3330140561
 21
2.9673397037
 31
0.0
  0
POLYLINE
  5
E0
330
1F
100
AcDbEntity
  8
0
  6
CONTINUOUS
 62
     7
100
AcDb2dPolyline
 66
     1
 10
0.0
 20
0.0
 30
0.0
  0
VERTEX
  5
201
330
E0
100
AcDbEntity
  8
0
  6
CONTINUOUS
 62
     7
100
AcDbVertex
100
AcDb2dVertex
 10
2.6596828006
 20
4.5421406565
 30
0.0
  0
VERTEX
  5
202
330
E0
100
AcDbEntity
  8
0
  6
CONTINUOUS
 62
     7
100
AcDbVertex
100
AcDb2dVertex
 10
2.6596951671
 20
4.542142841
 30
0.0
  0
VERTEX
  5
203
330
E0
100
AcDbEntity
  8
0
  6
CONTINUOUS
 62
     7
100
AcDbVertex
100
AcDb2dVertex
 10
2.6574909339
 20
4.5417469724
 30
0.0
  0
VERTEX
  5
204
330
E0
100
AcDbEntity
  8
0
  6
CONTINUOUS
 62
     7
100
AcDbVertex
100
AcDb2dVertex
 10
2.6508679703
 20
4.5406830283
 30
0.0
  0
VERTEX
  5
205
330
E0
100
AcDbEntity
  8
0
  6
CONTINUOUS
 62
     7
100
AcDbVertex
100
AcDb2dVertex
 10
2.6398262763
 20
4.5391132946
 30
0.0
  0
VERTEX
  5
206
330
E0
100
AcDbEntity
  8
0
  6
CONTINUOUS
 62
     7
100
AcDbVertex
100
AcDb2dVertex
 10
2.624365852
 20
4.5371870872
 30
0.0
  0
VERTEX
  5
207
330
E0
100
AcDbEntity
  8
0
  6
CONTINUOUS
 62
     7
100
AcDbVertex
100
AcDb2dVertex
 10
2.6057689789
 20
4.5352202265
 30
0.0
  0
VERTEX
  5
208
330
E0
100
AcDbEntity
  8
0
  6
CONTINUOUS
 62
     7
100
AcDbVertex
100
AcDb2dVertex
 10
2.5853699979
 20
4.5336153145
 30
0.0
  0
VERTEX
  5
209
330
E0
100
AcDbEntity
  8
0
  6
CONTINUOUS
 62
     7
100
AcDbVertex
100
AcDb2dVertex
 10
2.5631689092
 20
4.5325722889
 30
0.0
  0
VERTEX
  5
20A
330
E0
100
AcDbEntity
  8
0
  6
CONTINUOUS
 62
     7
100
AcDbVertex
100
AcDb2dVertex
 10
2.5391657126
 20
4.532210825
 30
0.0
  0
VERTEX
  5
20B
330
E0
100
AcDbEntity
  8
0
  6
CONTINUOUS
 62
     7
100
AcDbVertex
100
AcDb2dVertex
 10
2.5152031891
 20
4.5325722469
 30
0.0
  0
VERTEX
  5
20C
330
E0
100
AcDbEntity
  8
0
  6
CONTINUOUS
 62
     7
100
AcDbVertex
100
AcDb2dVertex
 10
2.4930210525
 20
4.5336179435
 30
0.0
  0
VERTEX
  5
20D
330
E0
100
AcDbEntity
  8
0
  6
CONTINUOUS
 62
     7
100
AcDbVertex
100
AcDb2dVertex
 10
2.4726193028
 20
4.5352274424
 30
0.0
  0
VERTEX
  5
20E
330
E0
100
AcDbEntity
  8
0
  6
CONTINUOUS
 62
     7
100
AcDbVertex
100
AcDb2dVertex
 10
2.4539979401
 20
4.5371993619
 30
0.0
  0
VERTEX
  5
20F
330
E0
100
AcDbEntity
  8
0
  6
CONTINUOUS
 62
     7
100
AcDbVertex
100
AcDb2dVertex
 10
2.4385625777
 20
4.5391231777
 30
0.0
  0
VERTEX
  5
210
330
E0
100
AcDbEntity
  8
0
  6
CONTINUOUS
 62
     7
100
AcDbVertex
100
AcDb2dVertex
 10
2.4275467693
 20
4.5406902572
 30
0.0
  0
VERTEX
  5
211
330
E0
100
AcDbEntity
  8
0
  6
CONTINUOUS
 62
     7
100
AcDbVertex
100
AcDb2dVertex
 10
2.420950515
 20
4.5417510141
 30
0.0
  0
VERTEX
  5
212
330
E0
100
AcDbEntity
  8
0
  6
CONTINUOUS
 62
     7
100
AcDbVertex
100
AcDb2dVertex
 10
2.4187738146
 20
4.5421428533
 30
0.0
  0
VERTEX
  5
213
330
E0
100
AcDbEntity
  8
0
  6
CONTINUOUS
 62
     7
100
AcDbVertex
100
AcDb2dVertex
 10
2.4187738146
 20
4.5421428533
 30
0.0
  0
SEQEND
  5
214
330
E0
100
AcDbEntity
  8
0
  6
CONTINUOUS
 62
     7
  0
POLYLINE
  5
E1
330
1F
100
AcDbEntity
  8
0
  6
CONTINUOUS
 62
     7
100
AcDb2dPolyline
 66
     1
 10
0.0
 20
0.0
 30
0.0
  0
VERTEX
  5
215
330
E1
100
AcDbEntity
  8
0
  6
CONTINUOUS
 62
     7
100
AcDbVertex
100
AcDb2dVertex
 10
4.2344859502
 20
4.5421406565
 30
0.0
  0
VERTEX
  5
216
330
E1
100
AcDbEntity
  8
0
  6
CONTINUOUS
 62
     7
100
AcDbVertex
100
AcDb2dVertex
 10
4.2344983167
 20
4.542142841
 30
0.0
  0
VERTEX
  5
217
330
E1
100
AcDbEntity
  8
0
  6
CONTINUOUS
 62
     7
100
AcDbVertex
100
AcDb2dVertex
 10
4.2322940835
 20
4.5417469724
 30
0.0
  0
VERTEX
  5
218
330
E1
100
AcDbEntity
  8
0
  6
CONTINUOUS
 62
     7
100
AcDbVertex
100
AcDb2dVertex
 10
4.2256711199
 20
4.5406830283
 30
0.0
  0
VERTEX
  5
219
330
E1
100
AcDbEntity
  8
0
  6
CONTINUOUS
 62
     7
100
AcDbVertex
100
AcDb2dVertex
 10
4.2146294259
 20
4.5391132946
 30
0.0
  0
VERTEX
  5
21A
330
E1
100
AcDbEntity
  8
0
  6
CONTINUOUS
 62
     7
100
AcDbVertex
100
AcDb2dVertex
 10
4.1991690016
 20
4.5371870872
 30
0.0
  0
VERTEX
  5
21B
330
E1
100
AcDbEntity
  8
0
  6
CONTINUOUS
 62
     7
100
AcDbVertex
100
AcDb2dVertex
 10
4.1805721285
 20
4.5352202265
 30
0.0
  0
VERTEX
  5
21C
330
E1
100
AcDbEntity
  8
0
  6
CONTINUOUS
 62
     7
100
AcDbVertex
100
AcDb2dVertex
 10
4.1601731475
 20
4.5336153145
 30
0.0
  0
VERTEX
  5
21D
330
E1
100
AcDbEntity
  8
0
  6
CONTINUOUS
 62
     7
100
AcDbVertex
100
AcDb2dVertex
 10
4.1379720588
 20
4.5325722889
 30
0.0
  0
VERTEX
  5
21E
330
E1
100
AcDbEntity
  8
0
  6
CONTINUOUS
 62
     7
100
AcDbVertex
100
AcDb2dVertex
 10
4.1139688622
 20
4.532210825
 30
0.0
  0
VERTEX
  5
21F
330
E1
100
AcDbEntity
  8
0
  6
CONTINUOUS
 62
     7
100
AcDbVertex
100
AcDb2dVertex
 10
4.0900063387
 20
4.5325722469
 30
0.0
  0
VERTEX
  5
220
330
E1
100
AcDbEntity
  8
0
  6
CONTINUOUS
 62
     7
100
AcDbVertex
100
AcDb2dVertex
 10
4.0678242021
 20
4.5336179435
 30
0.0
  0
VERTEX
  5
221
330
E1
100
AcDbEntity
  8
0
  6
CONTINUOUS
 62
     7
100
AcDbVertex
100
AcDb2dVertex
 10
4.0474224524
 20
4.5352274424
 30
0.0
  0
VERTEX
  5
222
330
E1
100
AcDbEntity
  8
0
  6
CONTINUOUS
 62
     7
100
AcDbVertex
100
AcDb2dVertex
 10
4.0288010897
 20
4.5371993619
 30
0.0
  0
VERTEX
  5
223
330
E1
100
AcDbEntity
  8
0
  6
CONTINUOUS
 62
     7
100
AcDbVertex
100
AcDb2dVertex
 10
4.0133657273
 20
4.5391231777
 30
0.0
  0
VERTEX
  5
224
330
E1
100
AcDbEntity
  8
0
  6
CONTINUOUS
 62
     7
100
AcDbVertex
100
AcDb2dVertex
 10
4.0023499189
 20
4.5406902572
 30
0.0
  0
VERTEX
  5
225
330
E1
100
AcDbEntity
  8
0
  6
CONTINUOUS
 62
     7
100
AcDbVertex
100
AcDb2dVertex
 10
3.9957536646
 20
4.5417510141
 30
0.0
  0
VERTEX
  5
226
330
E1
100
AcDbEntity
  8
0
  6
CONTINUOUS
 62
     7
100
AcDbVertex
100
AcDb2dVertex
 10
3.9935769642
 20
4.5421428533
 30
0.0
  0
VERTEX
  5
227
330
E1
100
AcDbEntity
  8
0
  6
CONTINUOUS
 62
     7
100
AcDbVertex
100
AcDb2dVertex
 10
3.9935769642
 20
4.5421428533
 30
0.0
  0
SEQEND
  5
228
330
E1
100
AcDbEntity
  8
0
  6
CONTINUOUS
 62
     7
  0
LINE
  5
E2
330
1F
100
AcDbEntity
  8
0
  6
CONTINUOUS
 62
     7
100
AcDbLine
 10
4.3502581506
 20
4.5121428533
 30
0.0
 11
4.3502581506
 21
2.9973397037
 31
0.0
  0
LINE
  5
E3
330
1F
100
AcDbEntity
  8
0
  6
CONTINUOUS
 62
     7
100
AcDbLine
 10
2.3030140561
 20
2.9973397037
 30
0.0
 11
2.3030140561
 21
4.5121428533
 31
0.0
  0
LINE
  5
E4
330
1F
100
AcDbEntity
  8
0
  6
CONTINUOUS
 62
     7
100
AcDbLine
 10
2.6176597254
 20
4.5421428533
 30
0.0
 11
2.4608093317
 21
4.5421428533
 31
0.0
  0
LINE
  5
E5
330
1F
100
AcDbEntity
  8
0
  6
CONTINUOUS
 62
     7
100
AcDbLine
 10
4.0356124813
 20
4.5421428533
 30
0.0
 11
4.192462875
 21
4.5421428533
 31
0.0
  0
LINE
  5
E6
330
1F
100
AcDbEntity
  8
0
  6
HIDDEN
 62
     7
100
AcDbLine
 10
3.2266361034
 20
3.9815916722
 30
0.0
 11
3.2266361034
 21
3.5278908848
 31
0.0
  0
LINE
  5
E7
330
1F
100
AcDbEntity
  8
0
  6
HIDDEN
 62
     7
100
AcDbLine
 10
3.4266361034
 20
3.9815916722
 30
0.0
 11
3.4266361034
 21
3.5278908848
 31
0.0
  0
SPLINE
  5
E8
330
1F
100
AcDbEntity
  8
0
  6
HIDDEN
 62
     7
100
AcDbSpline
210
0.0
220
0.0
230
1.0
 70
     8
 71
     3
 72
    28
 73
    24
 74
     0
 42
0.00000001
 43
0.00000001
 40
0.0
 40
0.0
 40
0.0
 40
0.0
 40
0.0184898602065779
 40
0.06557706395204
 40
0.1140011750849499
 40
0.161845472458003
 40
0.2108549361628247
 40
0.2632189466429494
 40
0.3169234888333589
 40
0.3723802877283454
 40
0.4297114260333115
 40
0.48065811761691
 40
0.5334705992581413
 40
0.5790565028497936
 40
0.6258620805411849
 40
0.6736684126664011
 40
0.7225731862006798
 40
0.776312314726128
 40
0.8315213521678257
 40
0.8864587683783056
 40
0.9433141856643145
 40
0.9932196332439098
 40
1.0
 40
1.0
 40
1.0
 40
1.0
 10
2.441132021894751
 20
3.951430607440717
 30
0.0
 10
2.441042869483868
 20
3.951475086851993
 30
0.0
 10
2.440726677079782
 20
3.951632839759005
 30
0.0
 10
2.442724030380654
 20
3.950635015474711
 30
0.0
 10
2.446815992226614
 20
3.948640424335397
 30
0.0
 10
2.453216320834668
 20
3.945653600399196
 30
0.0
 10
2.461685569040003
 20
3.94196191047204
 30
0.0
 10
2.472388158353005
 20
3.937745169761409
 30
0.0
 10
2.485349129293756
 20
3.93336737345477
 30
0.0
 10
2.500387381042945
 20
3.92935569335851
 30
0.0
 10
2.516567315801277
 20
3.926455998338714
 30
0.0
 10
2.533307549399532
 20
3.925058997047154
 30
0.0
 10
2.549053248720783
 20
3.925268544953929
 30
0.0
 10
2.564007180250901
 20
3.926823535599422
 30
0.0
 10
2.577771453090416
 20
3.9293551590286
 30
0.0
 10
2.590857473202083
 20
3.932726794351037
 30
0.0
 10
2.603271113836057
 20
3.936733870581162
 30
0.0
 10
2.614644711211943
 20
3.941066728425986
 30
0.0
 10
2.624354035126522
 20
3.94523552373546
 30
0.0
 10
2.631891261222489
 20
3.948748359046905
 30
0.0
 10
2.636204077436783
 20
3.950862465106156
 30
0.0
 10
2.637968703852629
 20
3.951745609231303
 30
0.0
 10
2.637556626462965
 20
3.95154029193542
 30
0.0
 10
2.637507336603296
 20
3.951515733294361
 30
0.0
  0
LINE
  5
E9
330
1F
100
AcDbEntity
  8
0
  6
HIDDEN
 62
     7
100
AcDbLine
 10
2.5469139697
 20
3.9255057323
 30
0.0
 11
2.5392345286
 21
3.9252187202
 31
0.0
  0
SPLINE
  5
EA
330
1F
100
AcDbEntity
  8
0
  6
HIDDEN
 62
     7
100
AcDbSpline
210
0.0
220
0.0
230
1.0
 70
     8
 71
     3
 72
    46
 73
    42
 74
     0
 42
0.00000001
 43
0.00000001
 40
-0.0625
 40
-0.0625
 40
0.0
 40
0.0
 40
0.03125
 40
0.03125
 40
0.0625
 40
0.0625
 40
0.125
 40
0.125
 40
0.1875
 40
0.1875
 40
0.21875
 40
0.21875
 40
0.25
 40
0.25
 40
0.3125
 40
0.3125
 40
0.375
 40
0.375
 40
0.4375
 40
0.4375
 40
0.5
 40
0.5
 40
0.53125
 40
0.53125
 40
0.5625
 40
0.5625
 40
0.625
 40
0.625
 40
0.6875
 40
0.6875
 40
0.75
 40
0.75
 40
0.8125
 40
0.8125
 40
0.875
 40
0.875
 40
0.90625
 40
0.90625
 40
0.9375
 40
0.9375
 40
1.0
 40
1.0
 40
1.03125
 40
1.03125
 10
2.44080933173101
 20
3.741505238914246
 30
0.0
 10
2.440809331731009
 20
3.761359298319924
 30
0.0
 10
2.441469851866809
 20
3.767846611965171
 30
0.0
 10
2.444038818763944
 20
3.780576498861971
 30
0.0
 10
2.445982603842376
 20
3.786882863776622
 30
0.0
 10
2.453458423196644
 20
3.804700396822696
 30
0.0
 10
2.460747821506322
 20
3.815457073363058
 30
0.0
 10
2.478591533592323
 20
3.833284248221929
 30
0.0
 10
2.489320771916122
 20
3.840527306028786
 30
0.0
 10
2.506980946995003
 20
3.847950733034501
 30
0.0
 10
2.513268740885893
 20
3.849901800862875
 30
0.0
 10
2.526005086950305
 20
3.85248957271144
 30
0.0
 10
2.532459138915512
 20
3.853150781927784
 30
0.0
 10
2.552089469603872
 20
3.853197042351887
 30
0.0
 10
2.565197456390841
 20
3.850554591927654
 30
0.0
 10
2.589034044235283
 20
3.84061486518825
 30
0.0
 10
2.599742867553871
 20
3.833389359547367
 30
0.0
 10
2.617627497549264
 20
3.815579770866281
 30
0.0
 10
2.624943476818249
 20
3.804794570922625
 30
0.0
 10
2.634894663305984
 20
3.781208135393778
 30
0.0
 10
2.637623117842319
 20
3.768070611390531
 30
0.0
 10
2.637677460851664
 20
3.748486278901191
 30
0.0
 10
2.637027720460403
 20
3.741839446033673
 30
0.0
 10
2.634473912073119
 20
3.7290619971524
 30
0.0
 10
2.632583020935172
 20
3.722868008481492
 30
0.0
 10
2.62507177308981
 20
3.704853456354067
 30
0.0
 10
2.6178236574518
 20
3.69414731778327
 30
0.0
 10
2.599926142307979
 20
3.67622753910003
 30
0.0
 10
2.58918580386167
 20
3.668977142535918
 30
0.0
 10
2.565643899388791
 20
3.659069119263411
 30
0.0
 10
2.552507646594258
 20
3.656348527669748
 30
0.0
 10
2.526447050066885
 20
3.656284234714573
 30
0.0
 10
2.513310222901729
 20
3.658917799375311
 30
0.0
 10
2.489473417771256
 20
3.668845756918074
 30
0.0
 10
2.478752913116366
 20
3.676057424067298
 30
0.0
 10
2.465245845079109
 20
3.689521588738018
 30
0.0
 10
2.461222240036505
 20
3.694392153072232
 30
0.0
 10
2.454106963596161
 20
3.704929314234653
 30
0.0
 10
2.45099466775371
 20
3.710665865227762
 30
0.0
 10
2.443514315860614
 20
3.728459285938301
 30
0.0
 10
2.44080933173101
 20
3.741505238914246
 30
0.0
 10
2.440809331731009
 20
3.761359298319924
 30
0.0
  0
SPLINE
  5
EB
330
1F
100
AcDbEntity
  8
0
  6
HIDDEN
 62
     7
100
AcDbSpline
210
0.0
220
0.0
230
1.0
 70
     8
 71
     3
 72
    28
 73
    24
 74
     0
 42
0.00000001
 43
0.00000001
 40
0.0
 40
0.0
 40
0.0
 40
0.0
 40
0.0184898602065783
 40
0.0655770639520403
 40
0.1140011750849502
 40
0.1618454724580033
 40
0.2108549361628252
 40
0.2632189466429493
 40
0.3169234888333587
 40
0.3723802877283452
 40
0.4297114260333117
 40
0.4806581176169102
 40
0.533470599258142
 40
0.5790565028497942
 40
0.6258620805411855
 40
0.6736684126664013
 40
0.7225731862006802
 40
0.7763123147261278
 40
0.8315213521678255
 40
0.8864587683783056
 40
0.9433141856643149
 40
0.9932196332439103
 40
1.0
 40
1.0
 40
1.0
 40
1.0
 10
4.015935171501051
 20
3.951430607440717
 30
0.0
 10
4.015846019090167
 20
3.951475086851993
 30
0.0
 10
4.015529826686081
 20
3.951632839759005
 30
0.0
 10
4.017527179986953
 20
3.950635015474711
 30
0.0
 10
4.021619141832914
 20
3.948640424335397
 30
0.0
 10
4.028019470440967
 20
3.945653600399196
 30
0.0
 10
4.036488718646302
 20
3.941961910472041
 30
0.0
 10
4.047191307959305
 20
3.937745169761409
 30
0.0
 10
4.060152278900055
 20
3.93336737345477
 30
0.0
 10
4.075190530649244
 20
3.92935569335851
 30
0.0
 10
4.091370465407576
 20
3.926455998338714
 30
0.0
 10
4.108110699005831
 20
3.925058997047154
 30
0.0
 10
4.123856398327082
 20
3.925268544953929
 30
0.0
 10
4.138810329857201
 20
3.926823535599422
 30
0.0
 10
4.152574602696715
 20
3.9293551590286
 30
0.0
 10
4.165660622808383
 20
3.932726794351037
 30
0.0
 10
4.178074263442356
 20
3.936733870581162
 30
0.0
 10
4.189447860818243
 20
3.941066728425986
 30
0.0
 10
4.199157184732822
 20
3.94523552373546
 30
0.0
 10
4.206694410828788
 20
3.948748359046905
 30
0.0
 10
4.211007227043082
 20
3.950862465106156
 30
0.0
 10
4.212771853458928
 20
3.951745609231303
 30
0.0
 10
4.212359776069264
 20
3.95154029193542
 30
0.0
 10
4.212310486209596
 20
3.951515733294361
 30
0.0
  0
LINE
  5
EC
330
1F
100
AcDbEntity
  8
0
  6
HIDDEN
 62
     7
100
AcDbLine
 10
4.1217171193
 20
3.9255057323
 30
0.0
 11
4.1140376782
 21
3.9252187202
 31
0.0
  0
SPLINE
  5
ED
330
1F
100
AcDbEntity
  8
0
  6
HIDDEN
 62
     7
100
AcDbSpline
210
0.0
220
0.0
230
1.0
 70
     8
 71
     3
 72
    46
 73
    42
 74
     0
 42
0.00000001
 43
0.00000001
 40
-0.0625
 40
-0.0625
 40
0.0
 40
0.0
 40
0.0312500000000002
 40
0.0312500000000002
 40
0.0625000000000004
 40
0.0625000000000004
 40
0.1250000000000008
 40
0.1250000000000008
 40
0.1875000000000013
 40
0.1875000000000013
 40
0.2187500000000015
 40
0.2187500000000015
 40
0.2500000000000017
 40
0.2500000000000017
 40
0.3125000000000015
 40
0.3125000000000015
 40
0.3750000000000012
 40
0.3750000000000012
 40
0.4375000000000011
 40
0.4375000000000011
 40
0.5000000000000009
 40
0.5000000000000009
 40
0.5312500000000008
 40
0.5312500000000008
 40
0.5625000000000007
 40
0.5625000000000007
 40
0.6250000000000006
 40
0.6250000000000006
 40
0.6875000000000004
 40
0.6875000000000004
 40
0.7500000000000002
 40
0.7500000000000002
 40
0.8125000000000001
 40
0.8125000000000001
 40
0.875
 40
0.875
 40
0.90625
 40
0.90625
 40
0.9375
 40
0.9375
 40
1.0
 40
1.0
 40
1.03125
 40
1.03125
 10
4.015612481337309
 20
3.741505238914246
 30
0.0
 10
4.015612481337308
 20
3.761359298319924
 30
0.0
 10
4.016273001473109
 20
3.767846611965171
 30
0.0
 10
4.018841968370244
 20
3.780576498861971
 30
0.0
 10
4.020785753448676
 20
3.786882863776622
 30
0.0
 10
4.028261572802943
 20
3.804700396822696
 30
0.0
 10
4.035550971112622
 20
3.815457073363058
 30
0.0
 10
4.053394683198623
 20
3.833284248221929
 30
0.0
 10
4.064123921522421
 20
3.840527306028786
 30
0.0
 10
4.081784096601303
 20
3.847950733034501
 30
0.0
 10
4.088071890492192
 20
3.849901800862875
 30
0.0
 10
4.100808236556603
 20
3.85248957271144
 30
0.0
 10
4.107262288521811
 20
3.853150781927784
 30
0.0
 10
4.126892619210173
 20
3.853197042351887
 30
0.0
 10
4.14000060599714
 20
3.850554591927654
 30
0.0
 10
4.163837193841582
 20
3.84061486518825
 30
0.0
 10
4.17454601716017
 20
3.833389359547367
 30
0.0
 10
4.192430647155564
 20
3.81557977086628
 30
0.0
 10
4.199746626424549
 20
3.804794570922625
 30
0.0
 10
4.209697812912283
 20
3.781208135393778
 30
0.0
 10
4.212426267448617
 20
3.768070611390531
 30
0.0
 10
4.212480610457964
 20
3.748486278901191
 30
0.0
 10
4.211830870066702
 20
3.741839446033673
 30
0.0
 10
4.209277061679418
 20
3.7290619971524
 30
0.0
 10
4.207386170541472
 20
3.722868008481492
 30
0.0
 10
4.199874922696108
 20
3.704853456354067
 30
0.0
 10
4.192626807058099
 20
3.69414731778327
 30
0.0
 10
4.174729291914278
 20
3.67622753910003
 30
0.0
 10
4.16398895346797
 20
3.668977142535918
 30
0.0
 10
4.140447048995091
 20
3.659069119263411
 30
0.0
 10
4.127310796200557
 20
3.656348527669748
 30
0.0
 10
4.101250199673184
 20
3.656284234714573
 30
0.0
 10
4.088113372508029
 20
3.658917799375311
 30
0.0
 10
4.064276567377555
 20
3.668845756918074
 30
0.0
 10
4.053556062722665
 20
3.676057424067297
 30
0.0
 10
4.040048994685408
 20
3.689521588738018
 30
0.0
 10
4.036025389642805
 20
3.694392153072232
 30
0.0
 10
4.028910113202461
 20
3.704929314234652
 30
0.0
 10
4.02579781736001
 20
3.710665865227762
 30
0.0
 10
4.018317465466913
 20
3.728459285938301
 30
0.0
 10
4.015612481337309
 20
3.741505238914246
 30
0.0
 10
4.015612481337308
 20
3.761359298319924
 30
0.0
  0
SPLINE
  5
EE
330
1F
100
AcDbEntity
  8
0
  6
HIDDEN
 62
     7
100
AcDbSpline
210
0.0
220
0.0
230
1.0
 70
     8
 71
     3
 72
    27
 73
    23
 74
     0
 42
0.00000001
 43
0.00000001
 40
0.0
 40
0.0
 40
0.0
 40
0.0
 40
0.043298353560258
 40
0.0931131036885598
 40
0.1494726222376291
 40
0.2123933022198663
 40
0.2757410274455083
 40
0.3322798335758234
 40
0.3820250521592486
 40
0.4250044170120781
 40
0.4679898591293413
 40
0.5177325156789616
 40
0.5742603857202347
 40
0.637589001526325
 40
0.7006091823694192
 40
0.7570075095341484
 40
0.8068000867938495
 40
0.850015087136811
 40
0.8934153569870712
 40
0.9433606923569824
 40
0.999879621269208
 40
1.0
 40
1.0
 40
1.0
 40
1.0
 10
2.440809331731009
 20
4.515563831667293
 30
0.0
 10
2.441055664062227
 20
4.515497754029195
 30
0.0
 10
2.441585401708407
 20
4.515355654077077
 30
0.0
 10
2.446306500136887
 20
4.514378950400849
 30
0.0
 10
2.455185612857056
 20
4.512892408214765
 30
0.0
 10
2.468998141831744
 20
4.510781888915908
 30
0.0
 10
2.486463415789422
 20
4.50867154537689
 30
0.0
 10
2.505093300175472
 20
4.507155923983289
 30
0.0
 10
2.522703699568861
 20
4.506216299373667
 30
0.0
 10
2.53917878915765
 20
4.505852723871395
 30
0.0
 10
2.555655143517687
 20
4.506211152505852
 30
0.0
 10
2.573270152577025
 20
4.507147559006293
 30
0.0
 10
2.591905727166437
 20
4.508660485843151
 30
0.0
 10
2.609398752397863
 20
4.510772130926384
 30
0.0
 10
2.62322220269981
 20
4.512880304321558
 30
0.0
 10
2.632176583208081
 20
4.514385213151061
 30
0.0
 10
2.636740618925148
 20
4.515318712886691
 30
0.0
 10
2.638067806976659
 20
4.515675875089782
 30
0.0
 10
2.636822881229273
 20
4.51532679545948
 30
0.0
 10
2.63195410932909
 20
4.514369098786574
 30
0.0
 10
2.627222509971249
 20
4.513497269477305
 30
0.0
 10
2.622976858527692
 20
4.512870230824078
 30
0.0
 10
2.62296783500404
 20
4.512868898143288
 30
0.0
  0
SPLINE
  5
EF
330
1F
100
AcDbEntity
  8
0
  6
HIDDEN
 62
     7
100
AcDbSpline
210
0.0
220
0.0
230
1.0
 70
     8
 71
     3
 72
    23
 73
    19
 74
     0
 42
0.00000001
 43
0.00000001
 40
0.0
 40
0.0
 40
0.0
 40
0.0
 40
0.0282376923319964
 40
0.0589817424473552
 40
0.0922417238534355
 40
0.1280250541625829
 40
0.166337547881308
 40
0.2071838011652165
 40
0.2505674659464765
 40
0.3481476135696626
 40
0.4315346707516396
 40
0.5007702497596114
 40
0.609627281653845
 40
0.7500028892650124
 40
0.8471196551588562
 40
0.9304336941347886
 40
0.999989348371141
 40
1.0
 40
1.0
 40
1.0
 40
1.0
 10
4.015612481337309
 20
4.515563831667293
 30
0.0
 10
4.015687397560956
 20
4.515543229346846
 30
0.0
 10
4.015843879519764
 20
4.515500196058427
 30
0.0
 10
4.017189855409367
 20
4.515187115979801
 30
0.0
 10
4.019590226415434
 20
4.51469754480151
 30
0.0
 10
4.023336759281242
 20
4.514009198326289
 30
0.0
 10
4.028600120881245
 20
4.513125952575705
 30
0.0
 10
4.035564738429922
 20
4.51205728669421
 30
0.0
 10
4.047826797862202
 20
4.510239681931288
 30
0.0
 10
4.066681693296657
 20
4.508092739298965
 30
0.0
 10
4.091109403837856
 20
4.506433896204571
 30
0.0
 10
4.118053281795659
 20
4.505646129249658
 30
0.0
 10
4.150998645781157
 20
4.50707155733993
 30
0.0
 10
4.182056576256547
 20
4.51034190648322
 30
0.0
 10
4.201778472889618
 20
4.513467645373145
 30
0.0
 10
4.210709310638174
 20
4.515098572296624
 30
0.0
 10
4.212454962816047
 20
4.515562887186536
 30
0.0
 10
4.212462815829925
 20
4.515563820015162
 30
0.0
 10
4.212462817032337
 20
4.515563820157992
 30
0.0
  0
CIRCLE
  5
F0
330
1F
100
AcDbEntity
  8
0
  6
HIDDEN
 62
     7
100
AcDbCircle
 10
4.1140376782
 20
3.7547412785
 30
0.0
 40
0.078425196850394
  0
POLYLINE
  5
F1
330
1F
100
AcDbEntity
  8
0
  6
HIDDEN
 62
     7
100
AcDb2dPolyline
 66
     1
 10
0.0
 20
0.0
 30
0.0
  0
VERTEX
  5
229
330
F1
100
AcDbEntity
  8
0
  6
HIDDEN
 62
     7
100
AcDbVertex
100
AcDb2dVertex
 10
4.212462875
 20
3.7547412785
 30
0.0
  0
VERTEX
  5
22A
330
F1
100
AcDbEntity
  8
0
  6
HIDDEN
 62
     7
100
AcDbVertex
100
AcDb2dVertex
 10
4.2114139939
 20
3.7404104549
 30
0.0
  0
VERTEX
  5
22B
330
F1
100
AcDbEntity
  8
0
  6
HIDDEN
 62
     7
100
AcDbVertex
100
AcDb2dVertex
 10
4.2086837494
 20
3.7277294184
 30
0.0
  0
SEQEND
  5
22C
330
F1
100
AcDbEntity
  8
0
  6
HIDDEN
 62
     7
  0
POLYLINE
  5
F2
330
1F
100
AcDbEntity
  8
0
  6
HIDDEN
 62
     7
100
AcDb2dPolyline
 66
     1
 10
0.0
 20
0.0
 30
0.0
  0
VERTEX
  5
22D
330
F2
100
AcDbEntity
  8
0
  6
HIDDEN
 62
     7
100
AcDbVertex
100
AcDb2dVertex
 10
4.0177873086
 20
3.7341649393
 30
0.0
  0
VERTEX
  5
22E
330
F2
100
AcDbEntity
  8
0
  6
HIDDEN
 62
     7
100
AcDbVertex
100
AcDb2dVertex
 10
4.0158750518
 20
3.7475567003
 30
0.0
  0
VERTEX
  5
22F
330
F2
100
AcDbEntity
  8
0
  6
HIDDEN
 62
     7
100
AcDbVertex
100
AcDb2dVertex
 10
4.0156694464
 20
3.758089465
 30
0.0
  0
SEQEND
  5
230
330
F2
100
AcDbEntity
  8
0
  6
HIDDEN
 62
     7
  0
LINE
  5
F3
330
1F
100
AcDbEntity
  8
0
  6
HIDDEN
 62
     7
100
AcDbLine
 10
4.2124209372
 20
3.7576142083
 30
0.0
 11
4.212462875
 21
3.7547412785
 31
0.0
  0
LINE
  5
F4
330
1F
100
AcDbEntity
  8
0
  6
HIDDEN
 62
     7
100
AcDbLine
 10
4.1140376782
 20
3.6886882767
 30
0.0
 11
4.0568341006
 21
3.7217147776
 31
0.0
  0
LINE
  5
F5
330
1F
100
AcDbEntity
  8
0
  6
HIDDEN
 62
     7
100
AcDbLine
 10
4.0568341006
 20
3.7877677794
 30
0.0
 11
4.1140376782
 21
3.8207942803
 31
0.0
  0
LINE
  5
F6
330
1F
100
AcDbEntity
  8
0
  6
HIDDEN
 62
     7
100
AcDbLine
 10
4.1140376782
 20
3.8207942803
 30
0.0
 11
4.1712412557
 21
3.7877677794
 31
0.0
  0
LINE
  5
F7
330
1F
100
AcDbEntity
  8
0
  6
HIDDEN
 62
     7
100
AcDbLine
 10
4.1712412557
 20
3.7877677794
 30
0.0
 11
4.1712412557
 21
3.7217147776
 31
0.0
  0
LINE
  5
F8
330
1F
100
AcDbEntity
  8
0
  6
HIDDEN
 62
     7
100
AcDbLine
 10
4.0568341006
 20
3.7217147776
 30
0.0
 11
4.0568341006
 21
3.7877677794
 31
0.0
  0
LINE
  5
F9
330
1F
100
AcDbEntity
  8
0
  6
HIDDEN
 62
     7
100
AcDbLine
 10
4.1712412557
 20
3.7217147776
 30
0.0
 11
4.1140376782
 21
3.6886882767
 31
0.0
  0
CIRCLE
  5
FA
330
1F
100
AcDbEntity
  8
0
  6
HIDDEN
 62
     7
100
AcDbCircle
 10
2.5392345286
 20
3.7547412785
 30
0.0
 40
0.0784251968503935
  0
LINE
  5
FB
330
1F
100
AcDbEntity
  8
0
  6
HIDDEN
 62
     7
100
AcDbLine
 10
2.5964381061
 20
3.7877677794
 30
0.0
 11
2.5392345286
 21
3.8207942803
 31
0.0
  0
LINE
  5
FC
330
1F
100
AcDbEntity
  8
0
  6
HIDDEN
 62
     7
100
AcDbLine
 10
2.5392345286
 20
3.8207942803
 30
0.0
 11
2.482030951
 21
3.7877677794
 31
0.0
  0
LINE
  5
FD
330
1F
100
AcDbEntity
  8
0
  6
HIDDEN
 62
     7
100
AcDbLine
 10
2.482030951
 20
3.7877677794
 30
0.0
 11
2.482030951
 21
3.7217147776
 31
0.0
  0
LINE
  5
FE
330
1F
100
AcDbEntity
  8
0
  6
HIDDEN
 62
     7
100
AcDbLine
 10
2.5964381061
 20
3.7217147776
 30
0.0
 11
2.5964381061
 21
3.7877677794
 31
0.0
  0
LINE
  5
FF
330
1F
100
AcDbEntity
  8
0
  6
HIDDEN
 62
     7
100
AcDbLine
 10
2.482030951
 20
3.7217147776
 30
0.0
 11
2.5392345286
 21
3.6886882767
 31
0.0
  0
LINE
  5
100
330
1F
100
AcDbEntity
  8
0
  6
HIDDEN
 62
     7
100
AcDbLine
 10
2.5392345286
 20
3.6886882767
 30
0.0
 11
2.5964381061
 21
3.7217147776
 31
0.0
  0
LINE
  5
101
330
1F
100
AcDbEntity
  8
0
  6
HIDDEN
 62
     7
100
AcDbLine
 10
2.4408093317
 20
4.5221428533
 30
0.0
 11
2.6376597254
 21
4.5221428533
 31
0.0
  0
LINE
  5
102
330
1F
100
AcDbEntity
  8
0
  6
HIDDEN
 62
     7
100
AcDbLine
 10
2.6376597254
 20
3.9715916722
 30
0.0
 11
2.4408093317
 21
3.9715916722
 31
0.0
  0
LINE
  5
103
330
1F
100
AcDbEntity
  8
0
  6
HIDDEN
 62
     7
100
AcDbLine
 10
2.4608093317
 20
3.9515916722
 30
0.0
 11
2.6176597254
 21
3.9515916722
 31
0.0
  0
LINE
  5
104
330
1F
100
AcDbEntity
  8
0
  6
HIDDEN
 62
     7
100
AcDbLine
 10
2.5392345286
 20
4.4421428533
 30
0.0
 11
2.5392345286
 21
4.5421428533
 31
0.0
  0
LINE
  5
105
330
1F
100
AcDbEntity
  8
0
  6
HIDDEN
 62
     7
100
AcDbLine
 10
2.5964381061
 20
4.4421428533
 30
0.0
 11
2.5392345286
 21
4.4421428533
 31
0.0
  0
LINE
  5
106
330
1F
100
AcDbEntity
  8
0
  6
HIDDEN
 62
     7
100
AcDbLine
 10
2.5392345286
 20
4.4421428533
 30
0.0
 11
2.482030951
 21
4.4421428533
 31
0.0
  0
LINE
  5
107
330
1F
100
AcDbEntity
  8
0
  6
HIDDEN
 62
     7
100
AcDbLine
 10
2.482030951
 20
4.4421428533
 30
0.0
 11
2.482030951
 21
4.5421428533
 31
0.0
  0
LINE
  5
108
330
1F
100
AcDbEntity
  8
0
  6
HIDDEN
 62
     7
100
AcDbLine
 10
2.5964381061
 20
4.4421428533
 30
0.0
 11
2.5964381061
 21
4.5421428533
 31
0.0
  0
LINE
  5
109
330
1F
100
AcDbEntity
  8
0
  6
HIDDEN
 62
     7
100
AcDbLine
 10
4.212462875
 20
4.5221428533
 30
0.0
 11
4.0156124813
 21
4.5221428533
 31
0.0
  0
LINE
  5
10A
330
1F
100
AcDbEntity
  8
0
  6
HIDDEN
 62
     7
100
AcDbLine
 10
4.0156124813
 20
3.9715916722
 30
0.0
 11
4.212462875
 21
3.9715916722
 31
0.0
  0
LINE
  5
10B
330
1F
100
AcDbEntity
  8
0
  6
HIDDEN
 62
     7
100
AcDbLine
 10
4.192462875
 20
3.9515916722
 30
0.0
 11
4.0356124813
 21
3.9515916722
 31
0.0
  0
LINE
  5
10C
330
1F
100
AcDbEntity
  8
0
  6
HIDDEN
 62
     7
100
AcDbLine
 10
4.1140376782
 20
4.4421428533
 30
0.0
 11
4.1140376782
 21
4.5421428533
 31
0.0
  0
LINE
  5
10D
330
1F
100
AcDbEntity
  8
0
  6
HIDDEN
 62
     7
100
AcDbLine
 10
4.0568341006
 20
4.4421428533
 30
0.0
 11
4.1140376782
 21
4.4421428533
 31
0.0
  0
LINE
  5
10E
330
1F
100
AcDbEntity
  8
0
  6
HIDDEN
 62
     7
100
AcDbLine
 10
4.1140376782
 20
4.4421428533
 30
0.0
 11
4.1712412557
 21
4.4421428533
 31
0.0
  0
LINE
  5
10F
330
1F
100
AcDbEntity
  8
0
  6
HIDDEN
 62
     7
100
AcDbLine
 10
4.1712412557
 20
4.4421428533
 30
0.0
 11
4.1712412557
 21
4.5421428533
 31
0.0
  0
LINE
  5
110
330
1F
100
AcDbEntity
  8
0
  6
HIDDEN
 62
     7
100
AcDbLine
 10
4.0568341006
 20
4.4421428533
 30
0.0
 11
4.0568341006
 21
4.5421428533
 31
0.0
  0
LINE
  5
111
330
1F
100
AcDbEntity
  8
0
  6
HIDDEN
 62
     7
100
AcDbLine
 10
4.3502581506
 20
3.9815916722
 30
0.0
 11
4.3202581506
 21
3.9515916722
 31
0.0
  0
LINE
  5
112
330
1F
100
AcDbEntity
  8
0
  6
HIDDEN
 62
     7
100
AcDbLine
 10
4.3202581506
 20
3.5578908848
 30
0.0
 11
4.3502581506
 21
3.5278908848
 31
0.0
  0
LINE
  5
113
330
1F
100
AcDbEntity
  8
0
  6
HIDDEN
 62
     7
100
AcDbLine
 10
3.4266361034
 20
3.9815916722
 30
0.0
 11
3.2266361034
 21
3.9815916722
 31
0.0
  0
LINE
  5
114
330
1F
100
AcDbEntity
  8
0
  6
HIDDEN
 62
     7
100
AcDbLine
 10
3.2266361034
 20
3.5278908848
 30
0.0
 11
3.4266361034
 21
3.5278908848
 31
0.0
  0
LINE
  5
115
330
1F
100
AcDbEntity
  8
0
  6
HIDDEN
 62
     7
100
AcDbLine
 10
2.3030140561
 20
3.5278908848
 30
0.0
 11
2.3330140561
 21
3.5578908848
 31
0.0
  0
LINE
  5
116
330
1F
100
AcDbEntity
  8
0
  6
HIDDEN
 62
     7
100
AcDbLine
 10
2.3330140561
 20
3.9515916722
 30
0.0
 11
2.3030140561
 21
3.9815916722
 31
0.0
  0
LINE
  5
117
330
1F
100
AcDbEntity
  8
0
  6
HIDDEN
 62
     7
100
AcDbLine
 10
2.4411320219
 20
3.9515916722
 30
0.0
 11
2.3330140561
 21
3.9515916722
 31
0.0
  0
LINE
  5
118
330
1F
100
AcDbEntity
  8
0
  6
HIDDEN
 62
     7
100
AcDbLine
 10
3.2266361034
 20
3.9515916722
 30
0.0
 11
2.6375073366
 21
3.9515916722
 31
0.0
  0
LINE
  5
119
330
1F
100
AcDbEntity
  8
0
  6
HIDDEN
 62
     7
100
AcDbLine
 10
2.3330140561
 20
3.5578908848
 30
0.0
 11
3.2266361034
 21
3.5578908848
 31
0.0
  0
LINE
  5
11A
330
1F
100
AcDbEntity
  8
0
  6
HIDDEN
 62
     7
100
AcDbLine
 10
4.0159351715
 20
3.9515916722
 30
0.0
 11
3.4266361034
 21
3.9515916722
 31
0.0
  0
LINE
  5
11B
330
1F
100
AcDbEntity
  8
0
  6
HIDDEN
 62
     7
100
AcDbLine
 10
4.3202581506
 20
3.9515916722
 30
0.0
 11
4.2123104862
 21
3.9515916722
 31
0.0
  0
LINE
  5
11C
330
1F
100
AcDbEntity
  8
0
  6
HIDDEN
 62
     7
100
AcDbLine
 10
3.4266361034
 20
3.5578908848
 30
0.0
 11
4.3202581506
 21
3.5578908848
 31
0.0
  0
LINE
  5
11D
330
1F
100
AcDbEntity
  8
0
  6
HIDDEN
 62
     7
100
AcDbLine
 10
2.4187737853
 20
4.5421428558
 30
0.0
 11
2.4408093078
 21
4.515563834
 31
0.0
  0
LINE
  5
11E
330
1F
100
AcDbEntity
  8
0
  6
HIDDEN
 62
     7
100
AcDbLine
 10
2.6376596642
 20
4.51556382
 30
0.0
 11
2.6596951677
 21
4.5421428413
 31
0.0
  0
LINE
  5
11F
330
1F
100
AcDbEntity
  8
0
  6
HIDDEN
 62
     7
100
AcDbLine
 10
3.9935769349
 20
4.5421428558
 30
0.0
 11
4.0156124574
 21
4.515563834
 31
0.0
  0
LINE
  5
120
330
1F
100
AcDbEntity
  8
0
  6
HIDDEN
 62
     7
100
AcDbLine
 10
4.2124628138
 20
4.51556382
 30
0.0
 11
4.2344983173
 21
4.5421428413
 31
0.0
  0
LINE
  5
121
330
1F
100
AcDbEntity
  8
0
  6
HIDDEN
 62
     7
100
AcDbLine
 10
2.6376597254
 20
3.9515159437
 30
0.0
 11
2.6376597254
 21
4.5155617497
 31
0.0
  0
LINE
  5
122
330
1F
100
AcDbEntity
  8
0
  6
HIDDEN
 62
     7
100
AcDbLine
 10
2.4408093317
 20
4.5155638317
 30
0.0
 11
2.4408093317
 21
3.951430689
 31
0.0
  0
LINE
  5
123
330
1F
100
AcDbEntity
  8
0
  6
HIDDEN
 62
     7
100
AcDbLine
 10
4.212462875
 20
3.9515159437
 30
0.0
 11
4.212462875
 21
4.5155617497
 31
0.0
  0
LINE
  5
124
330
1F
100
AcDbEntity
  8
0
  6
HIDDEN
 62
     7
100
AcDbLine
 10
4.0156124813
 20
4.5155638317
 30
0.0
 11
4.0156124813
 21
3.951430689
 31
0.0
  0
LINE
  5
125
330
1F
100
AcDbEntity
  8
0
  6
HIDDEN
 62
     7
100
AcDbLine
 10
2.6376597254
 20
4.5221428533
 30
0.0
 11
2.6227829084
 21
4.5370196703
 31
0.0
  0
LINE
  5
126
330
1F
100
AcDbEntity
  8
0
  6
HIDDEN
 62
     7
100
AcDbLine
 10
2.4556869786
 20
4.5370205002
 30
0.0
 11
2.4408093317
 21
4.5221428533
 31
0.0
  0
LINE
  5
127
330
1F
100
AcDbEntity
  8
0
  6
HIDDEN
 62
     7
100
AcDbLine
 10
2.6376597254
 20
3.9715916722
 30
0.0
 11
2.6376597254
 21
4.5221428533
 31
0.0
  0
LINE
  5
128
330
1F
100
AcDbEntity
  8
0
  6
HIDDEN
 62
     7
100
AcDbLine
 10
2.4408093317
 20
4.5221428533
 30
0.0
 11
2.4408093317
 21
3.9715916722
 31
0.0
  0
LINE
  5
129
330
1F
100
AcDbEntity
  8
0
  6
HIDDEN
 62
     7
100
AcDbLine
 10
2.4408093317
 20
3.9715916722
 30
0.0
 11
2.4608093317
 21
3.9515916722
 31
0.0
  0
LINE
  5
12A
330
1F
100
AcDbEntity
  8
0
  6
HIDDEN
 62
     7
100
AcDbLine
 10
2.6176597254
 20
3.9515916722
 30
0.0
 11
2.6376597254
 21
3.9715916722
 31
0.0
  0
LINE
  5
12B
330
1F
100
AcDbEntity
  8
0
  6
HIDDEN
 62
     7
100
AcDbLine
 10
4.212462875
 20
3.9715916722
 30
0.0
 11
4.212462875
 21
4.5221428533
 31
0.0
  0
LINE
  5
12C
330
1F
100
AcDbEntity
  8
0
  6
HIDDEN
 62
     7
100
AcDbLine
 10
4.0156124813
 20
4.5221428533
 30
0.0
 11
4.0156124813
 21
3.9715916722
 31
0.0
  0
LINE
  5
12D
330
1F
100
AcDbEntity
  8
0
  6
HIDDEN
 62
     7
100
AcDbLine
 10
4.212462875
 20
4.5221428533
 30
0.0
 11
4.197586058
 21
4.5370196703
 31
0.0
  0
LINE
  5
12E
330
1F
100
AcDbEntity
  8
0
  6
HIDDEN
 62
     7
100
AcDbLine
 10
4.0304901282
 20
4.5370205002
 30
0.0
 11
4.0156124813
 21
4.5221428533
 31
0.0
  0
LINE
  5
12F
330
1F
100
AcDbEntity
  8
0
  6
HIDDEN
 62
     7
100
AcDbLine
 10
4.0156124813
 20
3.9715916722
 30
0.0
 11
4.0356124813
 21
3.9515916722
 31
0.0
  0
LINE
  5
130
330
1F
100
AcDbEntity
  8
0
  6
HIDDEN
 62
     7
100
AcDbLine
 10
4.192462875
 20
3.9515916722
 30
0.0
 11
4.212462875
 21
3.9715916722
 31
0.0
  0
LINE
  5
131
330
1F
100
AcDbEntity
  8
0
  6
CONTINUOUS
 62
     7
100
AcDbLine
 10
9.0339217137
 20
3.6719516142
 30
0.0
 11
9.0382861811
 21
3.6763160817
 31
0.0
  0
LINE
  5
132
330
1F
100
AcDbEntity
  8
0
  6
CONTINUOUS
 62
     7
100
AcDbLine
 10
9.0382861811
 20
3.8331664754
 30
0.0
 11
9.0339217137
 21
3.8375309428
 31
0.0
  0
LINE
  5
133
330
1F
100
AcDbEntity
  8
0
  6
CONTINUOUS
 62
     7
100
AcDbLine
 10
8.3336742706
 20
4.5377783859
 30
0.0
 11
8.3293098032
 21
4.5421428533
 31
0.0
  0
LINE
  5
134
330
1F
100
AcDbEntity
  8
0
  6
CONTINUOUS
 62
     7
100
AcDbLine
 10
8.1724594095
 20
4.5421428533
 30
0.0
 11
8.168094942
 21
4.5377783859
 31
0.0
  0
CIRCLE
  5
135
330
1F
100
AcDbEntity
  8
0
  6
CONTINUOUS
 62
     7
100
AcDbCircle
 10
8.2508846063
 20
3.7547412785
 30
0.0
 40
0.7574015748031524
  0
CIRCLE
  5
136
330
1F
100
AcDbEntity
  8
0
  6
CONTINUOUS
 62
     7
100
AcDbCircle
 10
8.2508846063
 20
3.7547412785
 30
0.0
 40
0.78740157480315
  0
CIRCLE
  5
137
330
1F
100
AcDbEntity
  8
0
  6
CONTINUOUS
 62
     7
100
AcDbCircle
 10
8.2508846063
 20
3.7547412785
 30
0.0
 40
0.22685039370079
  0
CIRCLE
  5
138
330
1F
100
AcDbEntity
  8
0
  6
CONTINUOUS
 62
     7
100
AcDbCircle
 10
8.2508846063
 20
3.7547412785
 30
0.0
 40
0.1968503937007888
  0
LINE
  5
139
330
1F
100
AcDbEntity
  8
0
  6
CONTINUOUS
 62
     7
100
AcDbLine
 10
9.0382861811
 20
3.8331664754
 30
0.0
 11
9.0382861811
 21
3.6763160817
 31
0.0
  0
LINE
  5
13A
330
1F
100
AcDbEntity
  8
0
  6
CONTINUOUS
 62
     7
100
AcDbLine
 10
8.1724594095
 20
4.5421428533
 30
0.0
 11
8.3293098032
 21
4.5421428533
 31
0.0
  0
LINE
  5
13B
330
1F
100
AcDbEntity
  8
0
  6
HIDDEN
 62
     7
100
AcDbLine
 10
8.2508846063
 20
4.5155638317
 30
0.0
 11
8.2365509186
 21
4.5152908055
 31
0.0
  0
SPLINE
  5
13C
330
1F
100
AcDbEntity
  8
0
  6
HIDDEN
 62
     7
100
AcDbSpline
210
0.0
220
0.0
230
1.0
 70
     8
 71
     3
 72
    31
 73
    27
 74
     0
 42
0.00000001
 43
0.00000001
 40
0.0
 40
0.0
 40
0.0
 40
0.0
 40
0.0504825547567447
 40
0.1089839512157345
 40
0.1754653087799748
 40
0.2499448946618202
 40
0.3240617360240986
 40
0.3903907406642126
 40
0.448950847925048
 40
0.4997751915246575
 40
0.550817427082644
 40
0.6095571902640057
 40
0.6760280323359981
 40
0.7502492963109817
 40
0.8246631110802728
 40
0.8910931777720689
 40
0.9495576966460932
 40
0.9758354675951537
 40
0.9882331089147474
 40
0.9942466154518761
 40
0.9972070584414193
 40
0.9986757057750494
 40
0.9994071363971783
 40
0.9997721285133417
 40
0.999954443781251
 40
1.0
 40
1.0
 40
1.0
 40
1.0
 10
8.152461177405396
 20
4.50596748668244
 30
0.0
 10
8.152700851891554
 20
4.50603335845981
 30
0.0
 10
8.153218271674143
 20
4.506175565339114
 30
0.0
 10
8.157897299482743
 20
4.50715930493575
 30
0.0
 10
8.16677128435521
 20
4.50865672181697
 30
0.0
 10
8.180593569087687
 20
4.510773196001661
 30
0.0
 10
8.198044721816354
 20
4.512880016188576
 30
0.0
 10
8.216616216420299
 20
4.514385387521689
 30
0.0
 10
8.234237160775356
 20
4.515318335814659
 30
0.0
 10
8.250796432782614
 20
4.515677048315409
 30
0.0
 10
8.26737753140401
 20
4.515322103309353
 30
0.0
 10
8.285059404901189
 20
4.514390730185566
 30
0.0
 10
8.303677107180773
 20
4.512885264499572
 30
0.0
 10
8.321153255667149
 20
4.5107760181851
 30
0.0
 10
8.334962264124032
 20
4.508663627944263
 30
0.0
 10
8.34389468239233
 20
4.507151429199498
 30
0.0
 10
8.347786234819754
 20
4.506342326265641
 30
0.0
 10
8.348964494218157
 20
4.506058193987883
 30
0.0
 10
8.349227537858502
 20
4.505989493749663
 30
0.0
 10
8.349289581455654
 20
4.505972642528363
 30
0.0
 10
8.349304714741882
 20
4.505968461220829
 30
0.0
 10
8.349308487250054
 20
4.505967415775024
 30
0.0
 10
8.349309449943762
 20
4.505967151448126
 30
0.0
 10
8.34930969956574
 20
4.50596708463804
 30
0.0
 10
8.34930976671346
 20
4.505967067417776
 30
0.0
 10
8.349309780484806
 20
4.505967064214955
 30
0.0
 10
8.349309783237983
 20
4.505967063574645
 30
0.0
  0
SPLINE
  5
13D
330
1F
100
AcDbEntity
  8
0
  6
HIDDEN
 62
     7
100
AcDbSpline
210
0.0
220
0.0
230
1.0
 70
     8
 71
     3
 72
     9
 73
     5
 74
     0
 42
0.00000001
 43
0.00000001
 40
0.0
 40
0.0
 40
0.0
 40
0.0
 40
0.5312023565923272
 40
1.0
 40
1.0
 40
1.0
 40
1.0
 10
8.283828236516094
 20
4.514382632702643
 30
0.0
 10
8.278123617359434
 20
4.514724985137394
 30
0.0
 10
8.267384547613485
 20
4.515369471048465
 30
0.0
 10
8.256150909430886
 20
4.51550179739015
 30
0.0
 10
8.25088460632399
 20
4.515563831667293
 30
0.0
  0
LINE
  5
13E
330
1F
100
AcDbEntity
  8
0
  6
HIDDEN
 62
     7
100
AcDbLine
 10
9.0182861811
 20
3.6563160817
 30
0.0
 11
9.0182861811
 21
3.8531664754
 31
0.0
  0
LINE
  5
13F
330
1F
100
AcDbEntity
  8
0
  6
HIDDEN
 62
     7
100
AcDbLine
 10
8.467735
 20
3.7547412785
 30
0.0
 11
8.467735
 21
3.6563160817
 31
0.0
  0
LINE
  5
140
330
1F
100
AcDbEntity
  8
0
  6
HIDDEN
 62
     7
100
AcDbLine
 10
8.467735
 20
3.8531664754
 30
0.0
 11
8.467735
 21
3.7547412785
 31
0.0
  0
LINE
  5
141
330
1F
100
AcDbEntity
  8
0
  6
HIDDEN
 62
     7
100
AcDbLine
 10
8.447735
 20
3.7547412785
 30
0.0
 11
8.447735
 21
3.8331664754
 31
0.0
  0
LINE
  5
142
330
1F
100
AcDbEntity
  8
0
  6
HIDDEN
 62
     7
100
AcDbLine
 10
8.447735
 20
3.6763160817
 30
0.0
 11
8.447735
 21
3.7547412785
 31
0.0
  0
LINE
  5
143
330
1F
100
AcDbEntity
  8
0
  6
HIDDEN
 62
     7
100
AcDbLine
 10
8.9382861811
 20
3.7877677794
 30
0.0
 11
9.0382861811
 21
3.7877677794
 31
0.0
  0
LINE
  5
144
330
1F
100
AcDbEntity
  8
0
  6
HIDDEN
 62
     7
100
AcDbLine
 10
8.9382861811
 20
3.7217147776
 30
0.0
 11
9.0382861811
 21
3.7217147776
 31
0.0
  0
LINE
  5
145
330
1F
100
AcDbEntity
  8
0
  6
HIDDEN
 62
     7
100
AcDbLine
 10
8.9382861811
 20
3.7217147776
 30
0.0
 11
8.9382861811
 21
3.6886882767
 31
0.0
  0
LINE
  5
146
330
1F
100
AcDbEntity
  8
0
  6
HIDDEN
 62
     7
100
AcDbLine
 10
8.9382861811
 20
3.7877677794
 30
0.0
 11
8.9382861811
 21
3.7217147776
 31
0.0
  0
LINE
  5
147
330
1F
100
AcDbEntity
  8
0
  6
HIDDEN
 62
     7
100
AcDbLine
 10
8.9382861811
 20
3.8207942803
 30
0.0
 11
8.9382861811
 21
3.7877677794
 31
0.0
  0
LINE
  5
148
330
1F
100
AcDbEntity
  8
0
  6
HIDDEN
 62
     7
100
AcDbLine
 10
8.9382861811
 20
3.8207942803
 30
0.0
 11
9.0382861811
 21
3.8207942803
 31
0.0
  0
LINE
  5
149
330
1F
100
AcDbEntity
  8
0
  6
HIDDEN
 62
     7
100
AcDbLine
 10
8.9382861811
 20
3.6886882767
 30
0.0
 11
9.0382861811
 21
3.6886882767
 31
0.0
  0
LINE
  5
14A
330
1F
100
AcDbEntity
  8
0
  6
HIDDEN
 62
     7
100
AcDbLine
 10
8.2508846063
 20
3.9515916722
 30
0.0
 11
8.1724594095
 21
3.9515916722
 31
0.0
  0
LINE
  5
14B
330
1F
100
AcDbEntity
  8
0
  6
HIDDEN
 62
     7
100
AcDbLine
 10
8.3293098032
 20
3.9515916722
 30
0.0
 11
8.2508846063
 21
3.9515916722
 31
0.0
  0
LINE
  5
14C
330
1F
100
AcDbEntity
  8
0
  6
HIDDEN
 62
     7
100
AcDbLine
 10
8.2508846063
 20
3.9715916722
 30
0.0
 11
8.3493098032
 21
3.9715916722
 31
0.0
  0
LINE
  5
14D
330
1F
100
AcDbEntity
  8
0
  6
HIDDEN
 62
     7
100
AcDbLine
 10
8.1524594095
 20
3.9715916722
 30
0.0
 11
8.2508846063
 21
3.9715916722
 31
0.0
  0
LINE
  5
14E
330
1F
100
AcDbEntity
  8
0
  6
HIDDEN
 62
     7
100
AcDbLine
 10
8.3493098032
 20
4.5221428533
 30
0.0
 11
8.1524594095
 21
4.5221428533
 31
0.0
  0
LINE
  5
14F
330
1F
100
AcDbEntity
  8
0
  6
HIDDEN
 62
     7
100
AcDbLine
 10
8.2839111072
 20
4.4421428533
 30
0.0
 11
8.3169376081
 21
4.4421428533
 31
0.0
  0
LINE
  5
150
330
1F
100
AcDbEntity
  8
0
  6
HIDDEN
 62
     7
100
AcDbLine
 10
8.2178581054
 20
4.4421428533
 30
0.0
 11
8.2839111072
 21
4.4421428533
 31
0.0
  0
LINE
  5
151
330
1F
100
AcDbEntity
  8
0
  6
HIDDEN
 62
     7
100
AcDbLine
 10
8.2839111072
 20
4.4421428533
 30
0.0
 11
8.2839111072
 21
4.5421428533
 31
0.0
  0
LINE
  5
152
330
1F
100
AcDbEntity
  8
0
  6
HIDDEN
 62
     7
100
AcDbLine
 10
8.2178581054
 20
4.4421428533
 30
0.0
 11
8.2178581054
 21
4.5421428533
 31
0.0
  0
LINE
  5
153
330
1F
100
AcDbEntity
  8
0
  6
HIDDEN
 62
     7
100
AcDbLine
 10
8.1848316045
 20
4.4421428533
 30
0.0
 11
8.2178581054
 21
4.4421428533
 31
0.0
  0
LINE
  5
154
330
1F
100
AcDbEntity
  8
0
  6
HIDDEN
 62
     7
100
AcDbLine
 10
8.3169376081
 20
4.4421428533
 30
0.0
 11
8.3169376081
 21
4.5421428533
 31
0.0
  0
LINE
  5
155
330
1F
100
AcDbEntity
  8
0
  6
HIDDEN
 62
     7
100
AcDbLine
 10
8.1848316045
 20
4.4421428533
 30
0.0
 11
8.1848316045
 21
4.5421428533
 31
0.0
  0
LINE
  5
156
330
1F
100
AcDbEntity
  8
0
  6
HIDDEN
 62
     7
100
AcDbLine
 10
8.1262156563
 20
4.532210823
 30
0.0
 11
8.1524594168
 21
4.5059670606
 31
0.0
  0
LINE
  5
157
330
1F
100
AcDbEntity
  8
0
  6
HIDDEN
 62
     7
100
AcDbLine
 10
8.3493098084
 20
4.5059670591
 30
0.0
 11
8.3755535721
 21
4.5322108215
 31
0.0
  0
LINE
  5
158
330
1F
100
AcDbEntity
  8
0
  6
HIDDEN
 62
     7
100
AcDbLine
 10
8.3493098032
 20
3.9252187202
 30
0.0
 11
8.3493098032
 21
4.5059671427
 31
0.0
  0
LINE
  5
159
330
1F
100
AcDbEntity
  8
0
  6
HIDDEN
 62
     7
100
AcDbLine
 10
8.1524594095
 20
4.5059681329
 30
0.0
 11
8.1524594095
 21
3.9254060235
 31
0.0
  0
LINE
  5
15A
330
1F
100
AcDbEntity
  8
0
  6
HIDDEN
 62
     7
100
AcDbLine
 10
8.4214364926
 20
3.6563160817
 30
0.0
 11
9.0321509869
 21
3.6563160817
 31
0.0
  0
LINE
  5
15B
330
1F
100
AcDbEntity
  8
0
  6
HIDDEN
 62
     7
100
AcDbLine
 10
9.0321119319
 20
3.8531664754
 30
0.0
 11
8.4215593803
 21
3.8531664754
 31
0.0
  0
LINE
  5
15C
330
1F
100
AcDbEntity
  8
0
  6
HIDDEN
 62
     7
100
AcDbLine
 10
9.0182861811
 20
3.6563160817
 30
0.0
 11
9.0339217137
 21
3.6719516142
 31
0.0
  0
LINE
  5
15D
330
1F
100
AcDbEntity
  8
0
  6
HIDDEN
 62
     7
100
AcDbLine
 10
9.0339217137
 20
3.8375309428
 30
0.0
 11
9.0182861811
 21
3.8531664754
 31
0.0
  0
LINE
  5
15E
330
1F
100
AcDbEntity
  8
0
  6
HIDDEN
 62
     7
100
AcDbLine
 10
8.467735
 20
3.6563160817
 30
0.0
 11
9.0182861811
 21
3.6563160817
 31
0.0
  0
LINE
  5
15F
330
1F
100
AcDbEntity
  8
0
  6
HIDDEN
 62
     7
100
AcDbLine
 10
9.0182861811
 20
3.8531664754
 30
0.0
 11
8.467735
 21
3.8531664754
 31
0.0
  0
LINE
  5
160
330
1F
100
AcDbEntity
  8
0
  6
HIDDEN
 62
     7
100
AcDbLine
 10
8.467735
 20
3.8531664754
 30
0.0
 11
8.447735
 21
3.8331664754
 31
0.0
  0
LINE
  5
161
330
1F
100
AcDbEntity
  8
0
  6
HIDDEN
 62
     7
100
AcDbLine
 10
8.447735
 20
3.6763160817
 30
0.0
 11
8.467735
 21
3.6563160817
 31
0.0
  0
LINE
  5
162
330
1F
100
AcDbEntity
  8
0
  6
HIDDEN
 62
     7
100
AcDbLine
 10
8.1524594095
 20
3.9715916722
 30
0.0
 11
8.1724594095
 21
3.9515916722
 31
0.0
  0
LINE
  5
163
330
1F
100
AcDbEntity
  8
0
  6
HIDDEN
 62
     7
100
AcDbLine
 10
8.3293098032
 20
3.9515916722
 30
0.0
 11
8.3493098032
 21
3.9715916722
 31
0.0
  0
LINE
  5
164
330
1F
100
AcDbEntity
  8
0
  6
HIDDEN
 62
     7
100
AcDbLine
 10
8.3493098032
 20
4.5221428533
 30
0.0
 11
8.3336742706
 21
4.5377783859
 31
0.0
  0
LINE
  5
165
330
1F
100
AcDbEntity
  8
0
  6
HIDDEN
 62
     7
100
AcDbLine
 10
8.168094942
 20
4.5377783859
 30
0.0
 11
8.1524594095
 21
4.5221428533
 31
0.0
  0
LINE
  5
166
330
1F
100
AcDbEntity
  8
0
  6
HIDDEN
 62
     7
100
AcDbLine
 10
8.3493098032
 20
3.9715916722
 30
0.0
 11
8.3493098032
 21
4.5221428533
 31
0.0
  0
LINE
  5
167
330
1F
100
AcDbEntity
  8
0
  6
HIDDEN
 62
     7
100
AcDbLine
 10
8.1524594095
 20
4.5221428533
 30
0.0
 11
8.1524594095
 21
3.9715916722
 31
0.0
  0
LINE
  5
168
330
1F
100
AcDbEntity
  8
0
  6
CONTINUOUS
 62
     7
100
AcDbLine
 10
2.3330140561
 20
5.8845755641
 30
0.0
 11
4.3202581506
 21
5.8845755641
 31
0.0
  0
LINE
  5
169
330
1F
100
AcDbEntity
  8
0
  6
CONTINUOUS
 62
     7
100
AcDbLine
 10
2.4408093317
 20
7.4593787137
 30
0.0
 11
2.3330140561
 21
7.4593787137
 31
0.0
  0
LINE
  5
16A
330
1F
100
AcDbEntity
  8
0
  6
CONTINUOUS
 62
     7
100
AcDbLine
 10
4.0156124813
 20
7.4593787137
 30
0.0
 11
2.6373670848
 21
7.4593787137
 31
0.0
  0
LINE
  5
16B
330
1F
100
AcDbEntity
  8
0
  6
CONTINUOUS
 62
     7
100
AcDbLine
 10
4.3202581506
 20
7.4593787137
 30
0.0
 11
4.2121702344
 21
7.4593787137
 31
0.0
  0
LINE
  5
16C
330
1F
100
AcDbEntity
  8
0
  6
CONTINUOUS
 62
     7
100
AcDbLine
 10
2.3330140561
 20
7.4593787137
 30
0.0
 11
2.3030140561
 21
7.4293787137
 31
0.0
  0
LINE
  5
16D
330
1F
100
AcDbEntity
  8
0
  6
CONTINUOUS
 62
     7
100
AcDbLine
 10
2.3030140561
 20
5.9145755641
 30
0.0
 11
2.3330140561
 21
5.8845755641
 31
0.0
  0
LINE
  5
16E
330
1F
100
AcDbEntity
  8
0
  6
CONTINUOUS
 62
     7
100
AcDbLine
 10
4.3202581506
 20
5.8845755641
 30
0.0
 11
4.3502581506
 21
5.9145755641
 31
0.0
  0
LINE
  5
16F
330
1F
100
AcDbEntity
  8
0
  6
CONTINUOUS
 62
     7
100
AcDbLine
 10
4.3502581506
 20
7.4293787137
 30
0.0
 11
4.3202581506
 21
7.4593787137
 31
0.0
  0
LINE
  5
170
330
1F
100
AcDbEntity
  8
0
  6
CONTINUOUS
 62
     7
100
AcDbLine
 10
4.1944937708
 20
7.457347818
 30
0.0
 11
4.192462875
 21
7.4593787137
 31
0.0
  0
LINE
  5
171
330
1F
100
AcDbEntity
  8
0
  6
CONTINUOUS
 62
     7
100
AcDbLine
 10
4.0356124813
 20
7.4593787137
 30
0.0
 11
4.0335813079
 21
7.4573475402
 31
0.0
  0
LINE
  5
172
330
1F
100
AcDbEntity
  8
0
  6
CONTINUOUS
 62
     7
100
AcDbLine
 10
2.6196906212
 20
7.457347818
 30
0.0
 11
2.6176597254
 21
7.4593787137
 31
0.0
  0
LINE
  5
173
330
1F
100
AcDbEntity
  8
0
  6
CONTINUOUS
 62
     7
100
AcDbLine
 10
2.4608093317
 20
7.4593787137
 30
0.0
 11
2.4587781583
 21
7.4573475402
 31
0.0
  0
LINE
  5
174
330
1F
100
AcDbEntity
  8
0
  6
CONTINUOUS
 62
     7
100
AcDbLine
 10
4.3202581506
 20
5.8845755641
 30
0.0
 11
4.3202581506
 21
7.4593787137
 31
0.0
  0
LINE
  5
175
330
1F
100
AcDbEntity
  8
0
  6
CONTINUOUS
 62
     7
100
AcDbLine
 10
2.3330140561
 20
7.4593787137
 30
0.0
 11
2.3330140561
 21
5.8845755641
 31
0.0
  0
SPLINE
  5
176
330
1F
100
AcDbEntity
  8
0
  6
CONTINUOUS
 62
     7
100
AcDbSpline
210
0.0
220
0.0
230
1.0
 70
     8
 71
     3
 72
    29
 73
    25
 74
     0
 42
0.00000001
 43
0.00000001
 40
-0.1263929690052235
 40
-0.0839496093627676
 40
-0.0427923571123515
 40
0.0
 40
0.0428797206788295
 40
0.0840857876148387
 40
0.126518631641032
 40
0.1885215803448652
 40
0.2497720076106281
 40
0.2910989103194975
 40
0.3312632528475592
 40
0.373450357090283
 40
0.415935414680255
 40
0.4571997387269922
 40
0.5001602082826349
 40
0.5429388544319829
 40
0.5841010041703287
 40
0.6265654505333677
 40
0.6886303670100756
 40
0.7498355342615447
 40
0.7911728541663106
 40
0.8313697090893799
 40
0.8736070309947765
 40
0.9160503906372324
 40
0.9572076428876485
 40
1.0
 40
1.042879720678829
 40
1.084085787614839
 40
1.126518631641032
 10
2.421128133421133
 20
6.63933732217626
 30
0.0
 10
2.417555743668866
 20
6.672001790263895
 30
0.0
 10
2.421197838001034
 20
6.704666061163773
 30
0.0
 10
2.433395971759094
 20
6.735167467369734
 30
0.0
 10
2.456177364062354
 20
6.765025544322277
 30
0.0
 10
2.491377324245965
 20
6.79077692898884
 30
0.0
 10
2.534182419413209
 20
6.798558571483453
 30
0.0
 10
2.570890916622966
 20
6.794166929427655
 30
0.0
 10
2.600440753622142
 20
6.781486457249534
 30
0.0
 10
2.625330325391629
 20
6.760970193022732
 30
0.0
 10
2.645120081394376
 20
6.735140040759982
 30
0.0
 10
2.657296892177338
 20
6.704587152080484
 30
0.0
 10
2.660915089641076
 20
6.671884656734503
 30
0.0
 10
2.657308012737307
 20
6.639207204959736
 30
0.0
 10
2.645088563338129
 20
6.608740813074696
 30
0.0
 10
2.622255981946851
 20
6.578907753370145
 30
0.0
 10
2.587041142639328
 20
6.553162332059163
 30
0.0
 10
2.544225106477072
 20
6.545386769046225
 30
0.0
 10
2.50752084513296
 20
6.549818649231048
 30
0.0
 10
2.477960280511642
 20
6.562530685753857
 30
0.0
 10
2.453069619010862
 20
6.583060674513329
 30
0.0
 10
2.433287226110488
 20
6.608862395176507
 30
0.0
 10
2.421128133421133
 20
6.63933732217626
 30
0.0
 10
2.417555743668866
 20
6.672001790263895
 30
0.0
 10
2.421197838001034
 20
6.704666061163773
 30
0.0
  0
SPLINE
  5
177
330
1F
100
AcDbEntity
  8
0
  6
CONTINUOUS
 62
     7
100
AcDbSpline
210
0.0
220
0.0
230
1.0
 70
     8
 71
     3
 72
    29
 73
    25
 74
     0
 42
0.00000001
 43
0.00000001
 40
-0.1263929690052016
 40
-0.0839496093626531
 40
-0.0427923571122368
 40
0.0
 40
0.042879720678657
 40
0.0840857876146665
 40
0.1265186316409992
 40
0.1885215803446789
 40
0.249772007610627
 40
0.2910989103193855
 40
0.3312632528474474
 40
0.3734503570902584
 40
0.4159354146800581
 40
0.4571997387267956
 40
0.5001602082826179
 40
0.5429388544318446
 40
0.584101004170191
 40
0.6265654505333556
 40
0.6886303670100666
 40
0.7498355342615524
 40
0.7911728541664672
 40
0.8313697090895369
 40
0.8736070309947984
 40
0.916050390637347
 40
0.9572076428877632
 40
1.0
 40
1.042879720678657
 40
1.084085787614667
 40
1.126518631640999
 10
3.995931283027442
 20
6.639337322176318
 30
0.0
 10
3.99235889327516
 20
6.67200179026388
 30
0.0
 10
3.996000987607347
 20
6.704666061163684
 30
0.0
 10
4.008199121365426
 20
6.735167467369618
 30
0.0
 10
4.030980513668577
 20
6.765025544322233
 30
0.0
 10
4.066180473852187
 20
6.790776928988901
 30
0.0
 10
4.108985569019434
 20
6.798558571483448
 30
0.0
 10
4.145694066229207
 20
6.794166929427648
 30
0.0
 10
4.175243903228366
 20
6.78148645724951
 30
0.0
 10
4.200133474997879
 20
6.760970193022785
 30
0.0
 10
4.219923231000664
 20
6.735140040760083
 30
0.0
 10
4.232100041783598
 20
6.70458715208057
 30
0.0
 10
4.235718239247372
 20
6.671884656734583
 30
0.0
 10
4.232111162343648
 20
6.639207204959792
 30
0.0
 10
4.219891712944449
 20
6.608740813074758
 30
0.0
 10
4.197059131553177
 20
6.578907753370169
 30
0.0
 10
4.161844292245651
 20
6.553162332059109
 30
0.0
 10
4.119028256083332
 20
6.545386769046224
 30
0.0
 10
4.082323994739187
 20
6.549818649231068
 30
0.0
 10
4.052763430117852
 20
6.562530685753855
 30
0.0
 10
4.027872768617117
 20
6.583060674513375
 30
0.0
 10
4.008090375716809
 20
6.608862395176582
 30
0.0
 10
3.995931283027442
 20
6.639337322176318
 30
0.0
 10
3.99235889327516
 20
6.67200179026388
 30
0.0
 10
3.996000987607347
 20
6.704666061163684
 30
0.0
  0
SPLINE
  5
178
330
1F
100
AcDbEntity
  8
0
  6
CONTINUOUS
 62
     7
100
AcDbSpline
210
0.0
220
0.0
230
1.0
 70
     8
 71
     3
 72
    26
 73
    22
 74
     0
 42
0.00000001
 43
0.00000001
 40
0.0
 40
0.0
 40
0.0
 40
0.0
 40
0.0167751910503374
 40
0.0709697923460729
 40
0.1234665310610384
 40
0.1774709159747601
 40
0.2302415272799712
 40
0.2845251519389939
 40
0.337584554869181
 40
0.3921898702484925
 40
0.4451012365317338
 40
0.4995681725365297
 40
0.5521208597332065
 40
0.606199450195799
 40
0.6587443073280441
 40
0.7127931966489575
 40
0.765690730104283
 40
0.8201115123242396
 40
0.8731746884103885
 40
0.9277919016922123
 40
1.0
 40
1.0
 40
1.0
 40
1.0
 10
4.212170234357051
 20
7.459342219733164
 30
0.0
 10
4.212252348080518
 20
7.459352458087489
 30
0.0
 10
4.21259974167417
 20
7.459395772877654
 30
0.0
 10
4.210392721903555
 20
7.459119803041382
 30
0.0
 10
4.205544286666927
 20
7.45853617630559
 30
0.0
 10
4.198000983448159
 20
7.457685884675607
 30
0.0
 10
4.188067804644093
 20
7.456677505095691
 30
0.0
 10
4.176098169982952
 20
7.455628521382265
 30
0.0
 10
4.162229631950618
 20
7.45464292459818
 30
0.0
 10
4.147095978440853
 20
7.453849245376015
 30
0.0
 10
4.130881904057775
 20
7.453326850176463
 30
0.0
 10
4.114382545813615
 20
7.453143904285587
 30
0.0
 10
4.09776231704834
 20
7.453315397798711
 30
0.0
 10
4.081793717056653
 20
7.45381597626091
 30
0.0
 10
4.066600133864828
 20
7.454597056165054
 30
0.0
 10
4.052841890303952
 20
7.455560395009408
 30
0.0
 10
4.040664668168698
 20
7.456614652558256
 30
0.0
 10
4.030606663389895
 20
7.457628985280844
 30
0.0
 10
4.02288337446253
 20
7.458493857999929
 30
0.0
 10
4.016942685067313
 20
7.459210170534816
 30
0.0
 10
4.016095071078172
 20
7.459317567287624
 30
0.0
 10
4.015612481337309
 20
7.459378713719575
 30
0.0
  0
SPLINE
  5
179
330
1F
100
AcDbEntity
  8
0
  6
CONTINUOUS
 62
     7
100
AcDbSpline
210
0.0
220
0.0
230
1.0
 70
     8
 71
     3
 72
    26
 73
    22
 74
     0
 42
0.00000001
 43
0.00000001
 40
0.0
 40
0.0
 40
0.0
 40
0.0
 40
0.0167751910503374
 40
0.0709697923460729
 40
0.1234665310610384
 40
0.17747091597476
 40
0.2302415272799712
 40
0.2845251519389939
 40
0.337584554869181
 40
0.3921898702484925
 40
0.4451012365317338
 40
0.4995681725365297
 40
0.5521208597332065
 40
0.606199450195799
 40
0.6587443073280441
 40
0.7127931966489575
 40
0.7656907301042836
 40
0.8201115123242396
 40
0.8731746884103885
 40
0.9277919016922122
 40
1.0
 40
1.0
 40
1.0
 40
1.0
 10
2.637367084750752
 20
7.459342219733164
 30
0.0
 10
2.637449198474218
 20
7.459352458087489
 30
0.0
 10
2.637796592067871
 20
7.459395772877654
 30
0.0
 10
2.635589572297255
 20
7.459119803041382
 30
0.0
 10
2.630741137060629
 20
7.45853617630559
 30
0.0
 10
2.62319783384186
 20
7.457685884675607
 30
0.0
 10
2.613264655037794
 20
7.456677505095691
 30
0.0
 10
2.601295020376652
 20
7.455628521382265
 30
0.0
 10
2.587426482344319
 20
7.45464292459818
 30
0.0
 10
2.572292828834554
 20
7.453849245376015
 30
0.0
 10
2.556078754451476
 20
7.453326850176463
 30
0.0
 10
2.539579396207316
 20
7.453143904285587
 30
0.0
 10
2.52295916744204
 20
7.453315397798711
 30
0.0
 10
2.506990567450353
 20
7.45381597626091
 30
0.0
 10
2.491796984258529
 20
7.454597056165054
 30
0.0
 10
2.478038740697653
 20
7.455560395009406
 30
0.0
 10
2.465861518562398
 20
7.456614652558254
 30
0.0
 10
2.455803513783595
 20
7.457628985280844
 30
0.0
 10
2.44808022485623
 20
7.458493857999929
 30
0.0
 10
2.442139535461014
 20
7.459210170534816
 30
0.0
 10
2.441291921471873
 20
7.459317567287624
 30
0.0
 10
2.440809331731009
 20
7.459378713719575
 30
0.0
  0
LINE
  5
17A
330
1F
100
AcDbEntity
  8
0
  6
CONTINUOUS
 62
     7
100
AcDbLine
 10
2.4408093317
 20
6.6719771389
 30
0.0
 11
2.4413877644
 21
6.6647714705
 31
0.0
  0
SPLINE
  5
17B
330
1F
100
AcDbEntity
  8
0
  6
CONTINUOUS
 62
     7
100
AcDbSpline
210
0.0
220
0.0
230
1.0
 70
     8
 71
     3
 72
     9
 73
     5
 74
     0
 42
0.00000001
 43
0.00000001
 40
0.0
 40
0.0
 40
0.0
 40
0.0
 40
0.6205705640857818
 40
1.0
 40
1.0
 40
1.0
 40
1.0
 10
2.63765491494941
 20
6.67192684812245
 30
0.0
 10
2.637516482822018
 20
6.677201103735833
 30
0.0
 10
2.637293410482779
 20
6.685700146259954
 30
0.0
 10
2.634918537210562
 20
6.693826476699026
 30
0.0
 10
2.634017440384517
 20
6.696909845673575
 30
0.0
  0
SPLINE
  5
17C
330
1F
100
AcDbEntity
  8
0
  6
CONTINUOUS
 62
     7
100
AcDbSpline
210
0.0
220
0.0
230
1.0
 70
     8
 71
     3
 72
     9
 73
     5
 74
     0
 42
0.00000001
 43
0.00000001
 40
0.0
 40
0.0
 40
0.0
 40
0.0
 40
0.2519584412257465
 40
1.0
 40
1.0
 40
1.0
 40
1.0
 10
2.443389912454331
 20
6.692796012983367
 30
0.0
 10
2.442911562397808
 20
6.691093019537238
 30
0.0
 10
2.441013034790651
 20
6.684333994366884
 30
0.0
 10
2.440896502630063
 20
6.677265023158257
 30
0.0
 10
2.440809331731009
 20
6.671977138916426
 30
0.0
  0
SPLINE
  5
17D
330
1F
100
AcDbEntity
  8
0
  6
CONTINUOUS
 62
     7
100
AcDbSpline
210
0.0
220
0.0
230
1.0
 70
     8
 71
     3
 72
    29
 73
    25
 74
     0
 42
0.00000001
 43
0.00000001
 40
-0.1251633721427613
 40
-0.0765419284705476
 40
-0.0348282363089473
 40
0.0
 40
0.0348611978390748
 40
0.0765428343331603
 40
0.1250676020682807
 40
0.173894170454284
 40
0.2156188854621544
 40
0.2502625687883109
 40
0.3047317968182367
 40
0.3749721005244879
 40
0.4235668047429566
 40
0.4652549833392955
 40
0.5000588239864632
 40
0.5548880714508453
 40
0.6249958677279022
 40
0.6737664099325709
 40
0.7154564650953764
 40
0.750087117204592
 40
0.7501175288794625
 40
0.8045927019943362
 40
0.8748366278572387
 40
0.9234580715294524
 40
0.9651717636910527
 40
1.0
 40
1.034861197839075
 40
1.07654283433316
 40
1.125067602068281
 10
4.017342935895551
 20
6.694926483128652
 30
0.0
 10
4.014824013805632
 20
6.671970503048144
 30
0.0
 10
4.017346036328523
 20
6.649020128611016
 30
0.0
 10
4.026246859687311
 20
6.624620453246957
 30
0.0
 10
4.04334845959674
 20
6.601296718993295
 30
0.0
 10
4.066675852028321
 20
6.584176267219248
 30
0.0
 10
4.091110570228224
 20
6.575284584177111
 30
0.0
 10
4.11805280261782
 20
6.57232068729622
 30
0.0
 10
4.150998881689151
 20
6.577965209345179
 30
0.0
 10
4.182056386899681
 20
6.597642438036287
 30
0.0
 10
4.201778827131032
 20
6.62453432170735
 30
0.0
 10
4.210708282528318
 20
6.648938645053076
 30
0.0
 10
4.213709935018811
 20
6.675978255408244
 30
0.0
 10
4.208030270369512
 20
6.709012072295907
 30
0.0
 10
4.188270260796934
 20
6.740110507511536
 30
0.0
 10
4.1613338815917
 20
6.759801319427194
 30
0.0
 10
4.136925513670177
 20
6.768682742026087
 30
0.0
 10
4.121173578724377
 20
6.770401654641519
 30
0.0
 10
4.102838604204838
 20
6.77040340627588
 30
0.0
 10
4.077001673460222
 20
6.765965643253839
 30
0.0
 10
4.045971331310374
 20
6.746267454973938
 30
0.0
 10
4.026256883686485
 20
6.719349320975453
 30
0.0
 10
4.017342935895551
 20
6.694926483128652
 30
0.0
 10
4.014824013805632
 20
6.671970503048144
 30
0.0
 10
4.017346036328523
 20
6.649020128611016
 30
0.0
  0
LINE
  5
17E
330
1F
100
AcDbEntity
  8
0
  6
CONTINUOUS
 62
     7
100
AcDbLine
 10
2.3030140561
 20
5.9145755641
 30
0.0
 11
2.3030140561
 21
7.4293787137
 31
0.0
  0
LINE
  5
17F
330
1F
100
AcDbEntity
  8
0
  6
CONTINUOUS
 62
     7
100
AcDbLine
 10
4.3502581506
 20
7.4293787137
 30
0.0
 11
4.3502581506
 21
5.9145755641
 31
0.0
  0
LINE
  5
180
330
1F
100
AcDbEntity
  8
0
  6
CONTINUOUS
 62
     7
100
AcDbLine
 10
4.0356124813
 20
7.4593787137
 30
0.0
 11
4.192462875
 21
7.4593787137
 31
0.0
  0
LINE
  5
181
330
1F
100
AcDbEntity
  8
0
  6
CONTINUOUS
 62
     7
100
AcDbLine
 10
2.6176597254
 20
7.4593787137
 30
0.0
 11
2.4608093317
 21
7.4593787137
 31
0.0
  0
CIRCLE
  5
182
330
1F
100
AcDbEntity
  8
0
  6
CONTINUOUS
 62
     7
100
AcDbCircle
 10
2.5392345286
 20
6.6719771389
 30
0.0
 40
0.0784251968503935
  0
LINE
  5
183
330
1F
100
AcDbEntity
  8
0
  6
CONTINUOUS
 62
     7
100
AcDbLine
 10
2.482030951
 20
6.638950638
 30
0.0
 11
2.482030951
 21
6.7050036398
 31
0.0
  0
LINE
  5
184
330
1F
100
AcDbEntity
  8
0
  6
CONTINUOUS
 62
     7
100
AcDbLine
 10
2.5392345286
 20
6.6059241371
 30
0.0
 11
2.482030951
 21
6.638950638
 31
0.0
  0
LINE
  5
185
330
1F
100
AcDbEntity
  8
0
  6
CONTINUOUS
 62
     7
100
AcDbLine
 10
2.5964381061
 20
6.638950638
 30
0.0
 11
2.5392345286
 21
6.6059241371
 31
0.0
  0
LINE
  5
186
330
1F
100
AcDbEntity
  8
0
  6
CONTINUOUS
 62
     7
100
AcDbLine
 10
2.5964381061
 20
6.7050036398
 30
0.0
 11
2.5964381061
 21
6.638950638
 31
0.0
  0
LINE
  5
187
330
1F
100
AcDbEntity
  8
0
  6
CONTINUOUS
 62
     7
100
AcDbLine
 10
2.5392345286
 20
6.7380301407
 30
0.0
 11
2.5964381061
 21
6.7050036398
 31
0.0
  0
LINE
  5
188
330
1F
100
AcDbEntity
  8
0
  6
CONTINUOUS
 62
     7
100
AcDbLine
 10
2.482030951
 20
6.7050036398
 30
0.0
 11
2.5392345286
 21
6.7380301407
 31
0.0
  0
CIRCLE
  5
189
330
1F
100
AcDbEntity
  8
0
  6
CONTINUOUS
 62
     7
100
AcDbCircle
 10
2.5392345286
 20
6.6719771389
 30
0.0
 40
0.098425196850394
  0
CIRCLE
  5
18A
330
1F
100
AcDbEntity
  8
0
  6
CONTINUOUS
 62
     7
100
AcDbCircle
 10
4.1140376782
 20
6.6719771389
 30
0.0
 40
0.0784251968503931
  0
LINE
  5
18B
330
1F
100
AcDbEntity
  8
0
  6
CONTINUOUS
 62
     7
100
AcDbLine
 10
4.1140376782
 20
6.7380301407
 30
0.0
 11
4.0568341006
 21
6.7050036398
 31
0.0
  0
LINE
  5
18C
330
1F
100
AcDbEntity
  8
0
  6
CONTINUOUS
 62
     7
100
AcDbLine
 10
4.0568341006
 20
6.7050036398
 30
0.0
 11
4.0568341006
 21
6.638950638
 31
0.0
  0
LINE
  5
18D
330
1F
100
AcDbEntity
  8
0
  6
CONTINUOUS
 62
     7
100
AcDbLine
 10
4.0568341006
 20
6.638950638
 30
0.0
 11
4.1140376782
 21
6.6059241371
 31
0.0
  0
LINE
  5
18E
330
1F
100
AcDbEntity
  8
0
  6
CONTINUOUS
 62
     7
100
AcDbLine
 10
4.1140376782
 20
6.6059241371
 30
0.0
 11
4.1712412557
 21
6.638950638
 31
0.0
  0
LINE
  5
18F
330
1F
100
AcDbEntity
  8
0
  6
CONTINUOUS
 62
     7
100
AcDbLine
 10
4.1712412557
 20
6.638950638
 30
0.0
 11
4.1712412557
 21
6.7050036398
 31
0.0
  0
LINE
  5
190
330
1F
100
AcDbEntity
  8
0
  6
CONTINUOUS
 62
     7
100
AcDbLine
 10
4.1712412557
 20
6.7050036398
 30
0.0
 11
4.1140376782
 21
6.7380301407
 31
0.0
  0
CIRCLE
  5
191
330
1F
100
AcDbEntity
  8
0
  6
CONTINUOUS
 62
     7
100
AcDbCircle
 10
4.1140376782
 20
6.6719771389
 30
0.0
 40
0.0984251968503935
  0
SPLINE
  5
192
330
1F
100
AcDbEntity
  8
0
  6
HIDDEN
 62
     7
100
AcDbSpline
210
0.0
220
0.0
230
1.0
 70
     8
 71
     3
 72
    24
 73
    20
 74
     0
 42
0.00000001
 43
0.00000001
 40
0.0
 40
0.0
 40
0.0
 40
0.0
 40
0.0282151782448595
 40
0.0882106063929306
 40
0.1560883622154877
 40
0.2318681889772279
 40
0.3081623365405516
 40
0.3762560210824292
 40
0.4361677074714044
 40
0.487930797504705
 40
0.539701206817551
 40
0.599609807567942
 40
0.6676903210040196
 40
0.7439614537413187
 40
0.8198611164298242
 40
0.8877856122140665
 40
0.9477543360076734
 40
0.9998012185337788
 40
1.0
 40
1.0
 40
1.0
 40
1.0
 10
2.441387764368734
 20
6.664771470541392
 30
0.0
 10
2.441549107380778
 20
6.661930953664609
 30
0.0
 10
2.442053522586173
 20
6.653050495281681
 30
0.0
 10
2.446369232048823
 20
6.637791350916821
 30
0.0
 10
2.455165641465492
 20
6.619215598124514
 30
0.0
 10
2.469003805487008
 20
6.601760467333352
 30
0.0
 10
2.486462067560943
 20
6.587938956820683
 30
0.0
 10
2.505093601454169
 20
6.57898571854735
 30
0.0
 10
2.522703629252304
 20
6.574458592401748
 30
0.0
 10
2.539178824211048
 20
6.573136019190855
 30
0.0
 10
2.555655062590798
 20
6.574439939293772
 30
0.0
 10
2.573270507002772
 20
6.578947080776716
 30
0.0
 10
2.591904138756173
 20
6.587877430044911
 30
0.0
 10
2.609405430408662
 20
6.601682615904063
 30
0.0
 10
2.623198613447412
 20
6.619136916692941
 30
0.0
 10
2.632250569173743
 20
6.637712464074568
 30
0.0
 10
2.636512720650042
 20
6.655317667120332
 30
0.0
 10
2.638074001103762
 20
6.666663026804714
 30
0.0
 10
2.637656503421927
 20
6.671906896531573
 30
0.0
 10
2.63765491494941
 20
6.67192684812245
 30
0.0
  0
SPLINE
  5
193
330
1F
100
AcDbEntity
  8
0
  6
HIDDEN
 62
     7
100
AcDbSpline
210
0.0
220
0.0
230
1.0
 70
     8
 71
     3
 72
    40
 73
    36
 74
     0
 42
0.00000001
 43
0.00000001
 40
0.0
 40
0.0
 40
0.0
 40
0.0
 40
0.0325148497057357
 40
0.1106802994799057
 40
0.1979597486416404
 40
0.2854656251950021
 40
0.3635831257353321
 40
0.4323336526015088
 40
0.463234626943593
 40
0.4778134584991974
 40
0.4848849567466316
 40
0.4883662479505222
 40
0.4900932830808225
 40
0.4909533986108537
 40
0.4913826059450201
 40
0.4915969970144486
 40
0.4917041394010263
 40
0.4917576973074416
 40
0.4917844729389514
 40
0.4917978599242842
 40
0.4918045532093456
 40
0.4918078997999749
 40
0.4918112463560033
 40
0.4918161890874483
 40
0.4918297252813967
 40
0.4918518549378469
 40
0.5203808148964365
 40
0.5512626730517755
 40
0.5844825901021208
 40
0.6200469172424523
 40
0.6982426473916686
 40
0.7858512519212129
 40
0.8731145192569487
 40
0.9512082174550379
 40
0.9999999999999999
 40
0.9999999999999999
 40
0.9999999999999999
 40
0.9999999999999999
 10
2.634017440384517
 20
6.696909845673575
 30
0.0
 10
2.633374934146396
 20
6.699689664700339
 30
0.0
 10
2.631187847830554
 20
6.709152147386454
 30
0.0
 10
2.623106422165767
 20
6.724730399872439
 30
0.0
 10
2.609467706218669
 20
6.742256866571562
 30
0.0
 10
2.591927719347079
 20
6.75605216027798
 30
0.0
 10
2.573325892640081
 20
6.764987814722927
 30
0.0
 10
2.55814942688102
 20
6.768878702427694
 30
0.0
 10
2.54819529146911
 20
6.770057032039497
 30
0.0
 10
2.543593434278911
 20
6.770320069781839
 30
0.0
 10
2.541390278013218
 20
6.770382114428247
 30
0.0
 10
2.540313471920711
 20
6.770397246853582
 30
0.0
 10
2.539781300306619
 20
6.770401020510773
 30
0.0
 10
2.539516776401964
 20
6.770401981597653
 30
0.0
 10
2.539384905435663
 20
6.770402233479788
 30
0.0
 10
2.539319067758619
 20
6.77040230260238
 30
0.0
 10
2.539286173379209
 20
6.77040232300227
 30
0.0
 10
2.539269732305204
 20
6.770402329667269
 30
0.0
 10
2.539261513297243
 20
6.770402332116707
 30
0.0
 10
2.539257404175537
 20
6.770402333120744
 30
0.0
 10
2.539255349710254
 20
6.770402333567604
 30
0.0
 10
2.539254175760434
 20
6.770402333807193
 30
0.0
 10
2.539253155328899
 20
6.770402334006323
 30
0.0
 10
2.539251241299807
 20
6.770402334358628
 30
0.0
 10
2.539247680049146
 20
6.770402334926161
 30
0.0
 10
2.536742648584893
 20
6.770402614775154
 30
0.0
 10
2.531528347857677
 20
6.770204078633905
 30
0.0
 10
2.523455135764847
 20
6.769251323976812
 30
0.0
 10
2.514890425930751
 20
6.76748697956805
 30
0.0
 10
2.502560930226448
 20
6.76374238044108
 30
0.0
 10
2.486559810842147
 20
6.756070285776175
 30
0.0
 10
2.469026590702681
 20
6.742264300696679
 30
0.0
 10
2.455321402563199
 20
6.724757980742067
 30
0.0
 10
2.446762976380079
 20
6.707847660691955
 30
0.0
 10
2.444326731474022
 20
6.69697638731409
 30
0.0
 10
2.443389912454331
 20
6.692796012983367
 30
0.0
  0
LINE
  5
194
330
1F
100
AcDbEntity
  8
0
  6
HIDDEN
 62
     7
100
AcDbLine
 10
3.4266361034
 20
6.8988275326
 30
0.0
 11
3.4266361034
 21
6.4451267452
 31
0.0
  0
LINE
  5
195
330
1F
100
AcDbEntity
  8
0
  6
HIDDEN
 62
     7
100
AcDbLine
 10
3.2266361034
 20
6.8988275326
 30
0.0
 11
3.2266361034
 21
6.4451267452
 31
0.0
  0
SPLINE
  5
196
330
1F
100
AcDbEntity
  8
0
  6
HIDDEN
 62
     7
100
AcDbSpline
210
0.0
220
0.0
230
1.0
 70
     8
 71
     3
 72
    27
 73
    23
 74
     0
 42
0.00000001
 43
0.00000001
 40
0.0
 40
0.0
 40
0.0
 40
0.0
 40
0.0486520828223988
 40
0.0988132676981481
 40
0.1474418272479558
 40
0.1973345870906367
 40
0.2489485591030477
 40
0.3018515957424588
 40
0.3572651824430698
 40
0.4144757917411225
 40
0.4664010484914645
 40
0.5202674732814383
 40
0.566180293421938
 40
0.6133772423211128
 40
0.6604935397088064
 40
0.7086924000020878
 40
0.7617190030461285
 40
0.8161427836209086
 40
0.8714084923235701
 40
0.9285645700509999
 40
0.979223079156747
 40
1.0
 40
1.0
 40
1.0
 40
1.0
 10
4.015612481337309
 20
6.868827532617214
 30
0.0
 10
4.015843033175693
 20
6.868711742372811
 30
0.0
 10
4.016311288165056
 20
6.868476570274246
 30
0.0
 10
4.020053508082841
 20
6.866629945023754
 30
0.0
 10
4.025898084561188
 20
6.863860166031378
 30
0.0
 10
4.0339004079509
 20
6.860291463729723
 30
0.0
 10
4.044058431658816
 20
6.856161776582744
 30
0.0
 10
4.056417166579738
 20
6.851780483124167
 30
0.0
 10
4.07093397210259
 20
6.847602384754671
 30
0.0
 10
4.086859494322419
 20
6.844351679751552
 30
0.0
 10
4.103623955147456
 20
6.842503004669577
 30
0.0
 10
4.119623097688683
 20
6.84230324410532
 30
0.0
 10
4.134894392596874
 20
6.843530488364654
 30
0.0
 10
4.148880567570032
 20
6.845806417827753
 30
0.0
 10
4.162167151138779
 20
6.848976132544136
 30
0.0
 10
4.174785011554918
 20
6.852831985912204
 30
0.0
 10
4.186472882537378
 20
6.857110766538488
 30
0.0
 10
4.196711788408199
 20
6.86138281320151
 30
0.0
 10
4.204923514877787
 20
6.865137461370062
 30
0.0
 10
4.210111099520478
 20
6.867652991520041
 30
0.0
 10
4.212502342599031
 20
6.86884714378107
 30
0.0
 10
4.212216025127765
 20
6.868704269867186
 30
0.0
 10
4.212132749987674
 20
6.868662715137251
 30
0.0
  0
SPLINE
  5
197
330
1F
100
AcDbEntity
  8
0
  6
HIDDEN
 62
     7
100
AcDbSpline
210
0.0
220
0.0
230
1.0
 70
     8
 71
     3
 72
    27
 73
    23
 74
     0
 42
0.00000001
 43
0.00000001
 40
0.0
 40
0.0
 40
0.0
 40
0.0
 40
0.0486520828223988
 40
0.0988132676981481
 40
0.1474418272479557
 40
0.1973345870906366
 40
0.2489485591030475
 40
0.3018515957424586
 40
0.3572651824430701
 40
0.4144757917411224
 40
0.4664010484914644
 40
0.5202674732814381
 40
0.5661802934219373
 40
0.613377242321112
 40
0.6604935397088062
 40
0.7086924000020877
 40
0.7617190030461284
 40
0.8161427836209084
 40
0.87140849232357
 40
0.928564570051
 40
0.9792230791567468
 40
1.0
 40
1.0
 40
1.0
 40
1.0
 10
2.440809331731009
 20
6.868827532617214
 30
0.0
 10
2.441039883569393
 20
6.868711742372811
 30
0.0
 10
2.441508138558757
 20
6.868476570274246
 30
0.0
 10
2.445250358476541
 20
6.866629945023754
 30
0.0
 10
2.451094934954889
 20
6.863860166031378
 30
0.0
 10
2.4590972583446
 20
6.860291463729723
 30
0.0
 10
2.469255282052516
 20
6.856161776582744
 30
0.0
 10
2.48161401697344
 20
6.851780483124167
 30
0.0
 10
2.496130822496291
 20
6.847602384754671
 30
0.0
 10
2.512056344716119
 20
6.844351679751552
 30
0.0
 10
2.528820805541157
 20
6.842503004669577
 30
0.0
 10
2.544819948082383
 20
6.84230324410532
 30
0.0
 10
2.560091242990575
 20
6.843530488364654
 30
0.0
 10
2.574077417963732
 20
6.845806417827753
 30
0.0
 10
2.58736400153248
 20
6.848976132544136
 30
0.0
 10
2.599981861948619
 20
6.852831985912204
 30
0.0
 10
2.611669732931078
 20
6.857110766538488
 30
0.0
 10
2.6219086388019
 20
6.86138281320151
 30
0.0
 10
2.630120365271487
 20
6.865137461370062
 30
0.0
 10
2.63530794991418
 20
6.867652991520041
 30
0.0
 10
2.637699192992731
 20
6.86884714378107
 30
0.0
 10
2.637412875521467
 20
6.868704269867186
 30
0.0
 10
2.637329600381375
 20
6.868662715137251
 30
0.0
  0
LINE
  5
198
330
1F
100
AcDbEntity
  8
0
  6
HIDDEN
 62
     7
100
AcDbLine
 10
4.212462875
 20
7.4393787137
 30
0.0
 11
4.0156124813
 21
7.4393787137
 31
0.0
  0
LINE
  5
199
330
1F
100
AcDbEntity
  8
0
  6
HIDDEN
 62
     7
100
AcDbLine
 10
4.0156124813
 20
6.8888275326
 30
0.0
 11
4.212462875
 21
6.8888275326
 31
0.0
  0
LINE
  5
19A
330
1F
100
AcDbEntity
  8
0
  6
HIDDEN
 62
     7
100
AcDbLine
 10
4.192462875
 20
6.8688275326
 30
0.0
 11
4.0356124813
 21
6.8688275326
 31
0.0
  0
LINE
  5
19B
330
1F
100
AcDbEntity
  8
0
  6
HIDDEN
 62
     7
100
AcDbLine
 10
4.1140376782
 20
7.3593787137
 30
0.0
 11
4.1140376782
 21
7.4593787137
 31
0.0
  0
LINE
  5
19C
330
1F
100
AcDbEntity
  8
0
  6
HIDDEN
 62
     7
100
AcDbLine
 10
4.0568341006
 20
7.3593787137
 30
0.0
 11
4.1140376782
 21
7.3593787137
 31
0.0
  0
LINE
  5
19D
330
1F
100
AcDbEntity
  8
0
  6
HIDDEN
 62
     7
100
AcDbLine
 10
4.1140376782
 20
7.3593787137
 30
0.0
 11
4.1712412557
 21
7.3593787137
 31
0.0
  0
LINE
  5
19E
330
1F
100
AcDbEntity
  8
0
  6
HIDDEN
 62
     7
100
AcDbLine
 10
4.1712412557
 20
7.3593787137
 30
0.0
 11
4.1712412557
 21
7.4593787137
 31
0.0
  0
LINE
  5
19F
330
1F
100
AcDbEntity
  8
0
  6
HIDDEN
 62
     7
100
AcDbLine
 10
4.0568341006
 20
7.3593787137
 30
0.0
 11
4.0568341006
 21
7.4593787137
 31
0.0
  0
LINE
  5
1A0
330
1F
100
AcDbEntity
  8
0
  6
HIDDEN
 62
     7
100
AcDbLine
 10
2.4408093317
 20
7.4393787137
 30
0.0
 11
2.6376597254
 21
7.4393787137
 31
0.0
  0
LINE
  5
1A1
330
1F
100
AcDbEntity
  8
0
  6
HIDDEN
 62
     7
100
AcDbLine
 10
2.6376597254
 20
6.8888275326
 30
0.0
 11
2.4408093317
 21
6.8888275326
 31
0.0
  0
LINE
  5
1A2
330
1F
100
AcDbEntity
  8
0
  6
HIDDEN
 62
     7
100
AcDbLine
 10
2.4608093317
 20
6.8688275326
 30
0.0
 11
2.6176597254
 21
6.8688275326
 31
0.0
  0
LINE
  5
1A3
330
1F
100
AcDbEntity
  8
0
  6
HIDDEN
 62
     7
100
AcDbLine
 10
2.5392345286
 20
7.3593787137
 30
0.0
 11
2.5392345286
 21
7.4593787137
 31
0.0
  0
LINE
  5
1A4
330
1F
100
AcDbEntity
  8
0
  6
HIDDEN
 62
     7
100
AcDbLine
 10
2.5392345286
 20
7.3593787137
 30
0.0
 11
2.482030951
 21
7.3593787137
 31
0.0
  0
LINE
  5
1A5
330
1F
100
AcDbEntity
  8
0
  6
HIDDEN
 62
     7
100
AcDbLine
 10
2.5964381061
 20
7.3593787137
 30
0.0
 11
2.5392345286
 21
7.3593787137
 31
0.0
  0
LINE
  5
1A6
330
1F
100
AcDbEntity
  8
0
  6
HIDDEN
 62
     7
100
AcDbLine
 10
2.482030951
 20
7.3593787137
 30
0.0
 11
2.482030951
 21
7.4593787137
 31
0.0
  0
LINE
  5
1A7
330
1F
100
AcDbEntity
  8
0
  6
HIDDEN
 62
     7
100
AcDbLine
 10
2.5964381061
 20
7.3593787137
 30
0.0
 11
2.5964381061
 21
7.4593787137
 31
0.0
  0
LINE
  5
1A8
330
1F
100
AcDbEntity
  8
0
  6
HIDDEN
 62
     7
100
AcDbLine
 10
4.3502581506
 20
6.8988275326
 30
0.0
 11
4.3202581506
 21
6.8688275326
 31
0.0
  0
LINE
  5
1A9
330
1F
100
AcDbEntity
  8
0
  6
HIDDEN
 62
     7
100
AcDbLine
 10
4.3202581506
 20
6.4751267452
 30
0.0
 11
4.3502581506
 21
6.4451267452
 31
0.0
  0
LINE
  5
1AA
330
1F
100
AcDbEntity
  8
0
  6
HIDDEN
 62
     7
100
AcDbLine
 10
3.4266361034
 20
6.8988275326
 30
0.0
 11
3.2266361034
 21
6.8988275326
 31
0.0
  0
LINE
  5
1AB
330
1F
100
AcDbEntity
  8
0
  6
HIDDEN
 62
     7
100
AcDbLine
 10
3.2266361034
 20
6.4451267452
 30
0.0
 11
3.4266361034
 21
6.4451267452
 31
0.0
  0
LINE
  5
1AC
330
1F
100
AcDbEntity
  8
0
  6
HIDDEN
 62
     7
100
AcDbLine
 10
2.3030140561
 20
6.4451267452
 30
0.0
 11
2.3330140561
 21
6.4751267452
 31
0.0
  0
LINE
  5
1AD
330
1F
100
AcDbEntity
  8
0
  6
HIDDEN
 62
     7
100
AcDbLine
 10
2.3330140561
 20
6.8688275326
 30
0.0
 11
2.3030140561
 21
6.8988275326
 31
0.0
  0
LINE
  5
1AE
330
1F
100
AcDbEntity
  8
0
  6
HIDDEN
 62
     7
100
AcDbLine
 10
4.0156124813
 20
6.8688275326
 30
0.0
 11
3.4266361034
 21
6.8688275326
 31
0.0
  0
LINE
  5
1AF
330
1F
100
AcDbEntity
  8
0
  6
HIDDEN
 62
     7
100
AcDbLine
 10
4.3202581506
 20
6.8688275326
 30
0.0
 11
4.21213275
 21
6.8688275326
 31
0.0
  0
LINE
  5
1B0
330
1F
100
AcDbEntity
  8
0
  6
HIDDEN
 62
     7
100
AcDbLine
 10
3.4266361034
 20
6.4751267452
 30
0.0
 11
4.3202581506
 21
6.4751267452
 31
0.0
  0
LINE
  5
1B1
330
1F
100
AcDbEntity
  8
0
  6
HIDDEN
 62
     7
100
AcDbLine
 10
2.4408093317
 20
6.8688275326
 30
0.0
 11
2.3330140561
 21
6.8688275326
 31
0.0
  0
LINE
  5
1B2
330
1F
100
AcDbEntity
  8
0
  6
HIDDEN
 62
     7
100
AcDbLine
 10
3.2266361034
 20
6.8688275326
 30
0.0
 11
2.6373296004
 21
6.8688275326
 31
0.0
  0
LINE
  5
1B3
330
1F
100
AcDbEntity
  8
0
  6
HIDDEN
 62
     7
100
AcDbLine
 10
2.3330140561
 20
6.4751267452
 30
0.0
 11
3.2266361034
 21
6.4751267452
 31
0.0
  0
LINE
  5
1B4
330
1F
100
AcDbEntity
  8
0
  6
HIDDEN
 62
     7
100
AcDbLine
 10
4.212462875
 20
6.8686627523
 30
0.0
 11
4.212462875
 21
7.4593787137
 31
0.0
  0
LINE
  5
1B5
330
1F
100
AcDbEntity
  8
0
  6
HIDDEN
 62
     7
100
AcDbLine
 10
4.0156124813
 20
7.4593787137
 30
0.0
 11
4.0156124813
 21
6.8688275326
 31
0.0
  0
LINE
  5
1B6
330
1F
100
AcDbEntity
  8
0
  6
HIDDEN
 62
     7
100
AcDbLine
 10
2.6376597254
 20
6.8686627523
 30
0.0
 11
2.6376597254
 21
7.4593787137
 31
0.0
  0
LINE
  5
1B7
330
1F
100
AcDbEntity
  8
0
  6
HIDDEN
 62
     7
100
AcDbLine
 10
2.4408093317
 20
7.4593787137
 30
0.0
 11
2.4408093317
 21
6.8688275326
 31
0.0
  0
LINE
  5
1B8
330
1F
100
AcDbEntity
  8
0
  6
HIDDEN
 62
     7
100
AcDbLine
 10
4.212462875
 20
7.4393787137
 30
0.0
 11
4.1944937708
 21
7.457347818
 31
0.0
  0
LINE
  5
1B9
330
1F
100
AcDbEntity
  8
0
  6
HIDDEN
 62
     7
100
AcDbLine
 10
4.0335813079
 20
7.4573475402
 30
0.0
 11
4.0156124813
 21
7.4393787137
 31
0.0
  0
LINE
  5
1BA
330
1F
100
AcDbEntity
  8
0
  6
HIDDEN
 62
     7
100
AcDbLine
 10
4.212462875
 20
6.8888275326
 30
0.0
 11
4.212462875
 21
7.4393787137
 31
0.0
  0
LINE
  5
1BB
330
1F
100
AcDbEntity
  8
0
  6
HIDDEN
 62
     7
100
AcDbLine
 10
4.0156124813
 20
7.4393787137
 30
0.0
 11
4.0156124813
 21
6.8888275326
 31
0.0
  0
LINE
  5
1BC
330
1F
100
AcDbEntity
  8
0
  6
HIDDEN
 62
     7
100
AcDbLine
 10
4.0156124813
 20
6.8888275326
 30
0.0
 11
4.0356124813
 21
6.8688275326
 31
0.0
  0
LINE
  5
1BD
330
1F
100
AcDbEntity
  8
0
  6
HIDDEN
 62
     7
100
AcDbLine
 10
4.192462875
 20
6.8688275326
 30
0.0
 11
4.212462875
 21
6.8888275326
 31
0.0
  0
LINE
  5
1BE
330
1F
100
AcDbEntity
  8
0
  6
HIDDEN
 62
     7
100
AcDbLine
 10
2.6376597254
 20
7.4393787137
 30
0.0
 11
2.6196906212
 21
7.457347818
 31
0.0
  0
LINE
  5
1BF
330
1F
100
AcDbEntity
  8
0
  6
HIDDEN
 62
     7
100
AcDbLine
 10
2.4587781583
 20
7.4573475402
 30
0.0
 11
2.4408093317
 21
7.4393787137
 31
0.0
  0
LINE
  5
1C0
330
1F
100
AcDbEntity
  8
0
  6
HIDDEN
 62
     7
100
AcDbLine
 10
2.6376597254
 20
6.8888275326
 30
0.0
 11
2.6376597254
 21
7.4393787137
 31
0.0
  0
LINE
  5
1C1
330
1F
100
AcDbEntity
  8
0
  6
HIDDEN
 62
     7
100
AcDbLine
 10
2.4408093317
 20
7.4393787137
 30
0.0
 11
2.4408093317
 21
6.8888275326
 31
0.0
  0
LINE
  5
1C2
330
1F
100
AcDbEntity
  8
0
  6
HIDDEN
 62
     7
100
AcDbLine
 10
2.4408093317
 20
6.8888275326
 30
0.0
 11
2.4608093317
 21
6.8688275326
 31
0.0
  0
LINE
  5
1C3
330
1F
100
AcDbEntity
  8
0
  6
HIDDEN
 62
     7
100
AcDbLine
 10
2.6176597254
 20
6.8688275326
 30
0.0
 11
2.6376597254
 21
6.8888275326
 31
0.0
  0
LINE
  5
1C4
330
1F
100
AcDbEntity
  8
0
  6
CONTINUOUS
 62
     7
100
AcDbLine
 10
8.8762277685
 20
5.8007384292
 30
0.0
 11
8.8974375242
 21
5.8129865412
 31
0.0
  0
LINE
  5
1C5
330
1F
100
AcDbEntity
  8
0
  6
CONTINUOUS
 62
     7
100
AcDbLine
 10
9.4329142696
 20
6.7405599751
 30
0.0
 11
9.4329142696
 21
6.7650522185
 31
0.0
  0
LINE
  5
1C6
330
1F
100
AcDbEntity
  8
0
  6
CONTINUOUS
 62
     7
100
AcDbLine
 10
7.0772747091
 20
6.5729045634
 30
0.0
 11
8.4824684842
 21
5.7617034639
 31
0.0
  0
LINE
  5
1C7
330
1F
100
AcDbEntity
  8
0
  6
CONTINUOUS
 62
     7
100
AcDbLine
 10
9.2698060689
 20
7.1255599401
 30
0.0
 11
7.8646122938
 21
7.9367610396
 31
0.0
  0
LINE
  5
1C8
330
1F
100
AcDbEntity
  8
0
  6
CONTINUOUS
 62
     7
100
AcDbLine
 10
7.4708530095
 20
7.8977260743
 30
0.0
 11
7.4496432538
 21
7.8854779622
 31
0.0
  0
LINE
  5
1C9
330
1F
100
AcDbEntity
  8
0
  6
CONTINUOUS
 62
     7
100
AcDbLine
 10
6.9141665084
 20
6.9579045283
 30
0.0
 11
6.9141665084
 21
6.933412285
 31
0.0
  0
LINE
  5
1CA
330
1F
100
AcDbEntity
  8
0
  6
CONTINUOUS
 62
     7
100
AcDbLine
 10
8.8695026173
 20
6.5441346944
 30
0.0
 11
8.8836424545
 21
6.5359692864
 31
0.0
  0
LINE
  5
1CB
330
1F
100
AcDbEntity
  8
0
  6
CONTINUOUS
 62
     7
100
AcDbLine
 10
7.6863718288
 20
7.8374385082
 30
0.0
 11
7.6722273952
 21
7.8456065701
 31
0.0
  0
LINE
  5
1CC
330
1F
100
AcDbEntity
  8
0
  6
CONTINUOUS
 62
     7
100
AcDbLine
 10
7.5612993966
 20
7.8456065701
 30
0.0
 11
7.5471549631
 21
7.8374385082
 31
0.0
  0
LINE
  5
1CD
330
1F
100
AcDbEntity
  8
0
  6
CONTINUOUS
 62
     7
100
AcDbLine
 10
7.7151885928
 20
7.7845164983
 30
0.0
 11
7.7151885928
 21
7.7972674731
 31
0.0
  0
LINE
  5
1CE
330
1F
100
AcDbEntity
  8
0
  6
CONTINUOUS
 62
     7
100
AcDbLine
 10
7.5183381991
 20
7.7972674731
 30
0.0
 11
7.5183381991
 21
7.7835360347
 31
0.0
  0
LINE
  5
1CF
330
1F
100
AcDbEntity
  8
0
  6
CONTINUOUS
 62
     7
100
AcDbLine
 10
8.7999258149
 20
7.1945974753
 30
0.0
 11
8.7857813814
 21
7.2027655372
 31
0.0
  0
LINE
  5
1D0
330
1F
100
AcDbEntity
  8
0
  6
CONTINUOUS
 62
     7
100
AcDbLine
 10
8.6748533828
 20
7.2027655372
 30
0.0
 11
8.6607089492
 21
7.1945974753
 31
0.0
  0
LINE
  5
1D1
330
1F
100
AcDbEntity
  8
0
  6
CONTINUOUS
 62
     7
100
AcDbLine
 10
8.8287425789
 20
7.1416754654
 30
0.0
 11
8.8287425789
 21
7.1544264402
 31
0.0
  0
LINE
  5
1D2
330
1F
100
AcDbEntity
  8
0
  6
CONTINUOUS
 62
     7
100
AcDbLine
 10
8.6318921852
 20
7.1544264402
 30
0.0
 11
8.6318921852
 21
7.1406950018
 31
0.0
  0
POLYLINE
  5
1D3
330
1F
100
AcDbEntity
  8
0
  6
CONTINUOUS
 62
     7
100
AcDb2dPolyline
 66
     1
 10
0.0
 20
0.0
 30
0.0
  0
VERTEX
  5
231
330
1D3
100
AcDbEntity
  8
0
  6
CONTINUOUS
 62
     7
100
AcDbVertex
100
AcDb2dVertex
 10
9.4329142696
 20
6.7405599751
 30
0.0
  0
VERTEX
  5
232
330
1D3
100
AcDbEntity
  8
0
  6
CONTINUOUS
 62
     7
100
AcDbVertex
100
AcDb2dVertex
 10
9.432180298
 20
6.7725033977
 30
0.0
  0
VERTEX
  5
233
330
1D3
100
AcDbEntity
  8
0
  6
CONTINUOUS
 62
     7
100
AcDbVertex
100
AcDb2dVertex
 10
9.4299803951
 20
6.80351184
 30
0.0
  0
VERTEX
  5
234
330
1D3
100
AcDbEntity
  8
0
  6
CONTINUOUS
 62
     7
100
AcDbVertex
100
AcDb2dVertex
 10
9.4263205906
 20
6.8335003102
 30
0.0
  0
VERTEX
  5
235
330
1D3
100
AcDbEntity
  8
0
  6
CONTINUOUS
 62
     7
100
AcDbVertex
100
AcDb2dVertex
 10
9.4212109158
 20
6.8623866118
 30
0.0
  0
VERTEX
  5
236
330
1D3
100
AcDbEntity
  8
0
  6
CONTINUOUS
 62
     7
100
AcDbVertex
100
AcDb2dVertex
 10
9.414665376
 20
6.8900915695
 30
0.0
  0
VERTEX
  5
237
330
1D3
100
AcDbEntity
  8
0
  6
CONTINUOUS
 62
     7
100
AcDbVertex
100
AcDb2dVertex
 10
9.406701912
 20
6.916539246
 30
0.0
  0
VERTEX
  5
238
330
1D3
100
AcDbEntity
  8
0
  6
CONTINUOUS
 62
     7
100
AcDbVertex
100
AcDb2dVertex
 10
9.3973423511
 20
6.9416571501
 30
0.0
  0
VERTEX
  5
239
330
1D3
100
AcDbEntity
  8
0
  6
CONTINUOUS
 62
     7
100
AcDbVertex
100
AcDb2dVertex
 10
9.3866123473
 20
6.9653764352
 30
0.0
  0
VERTEX
  5
23A
330
1D3
100
AcDbEntity
  8
0
  6
CONTINUOUS
 62
     7
100
AcDbVertex
100
AcDb2dVertex
 10
9.3745413107
 20
6.9876320885
 30
0.0
  0
VERTEX
  5
23B
330
1D3
100
AcDbEntity
  8
0
  6
CONTINUOUS
 62
     7
100
AcDbVertex
100
AcDb2dVertex
 10
9.3611623271
 20
7.0083631088
 30
0.0
  0
VERTEX
  5
23C
330
1D3
100
AcDbEntity
  8
0
  6
CONTINUOUS
 62
     7
100
AcDbVertex
100
AcDb2dVertex
 10
9.3465120676
 20
7.0275126738
 30
0.0
  0
VERTEX
  5
23D
330
1D3
100
AcDbEntity
  8
0
  6
CONTINUOUS
 62
     7
100
AcDbVertex
100
AcDb2dVertex
 10
9.3306306874
 20
7.0450282959
 30
0.0
  0
VERTEX
  5
23E
330
1D3
100
AcDbEntity
  8
0
  6
CONTINUOUS
 62
     7
100
AcDbVertex
100
AcDb2dVertex
 10
9.3135617162
 20
7.0608619659
 30
0.0
  0
VERTEX
  5
23F
330
1D3
100
AcDbEntity
  8
0
  6
CONTINUOUS
 62
     7
100
AcDbVertex
100
AcDb2dVertex
 10
9.295351939
 20
7.074970285
 30
0.0
  0
VERTEX
  5
240
330
1D3
100
AcDbEntity
  8
0
  6
CONTINUOUS
 62
     7
100
AcDbVertex
100
AcDb2dVertex
 10
9.2760512674
 20
7.087314583
 30
0.0
  0
VERTEX
  5
241
330
1D3
100
AcDbEntity
  8
0
  6
CONTINUOUS
 62
     7
100
AcDbVertex
100
AcDb2dVertex
 10
9.2557126033
 20
7.0978610253
 30
0.0
  0
VERTEX
  5
242
330
1D3
100
AcDbEntity
  8
0
  6
CONTINUOUS
 62
     7
100
AcDbVertex
100
AcDb2dVertex
 10
9.2343916935
 20
7.1065807047
 30
0.0
  0
VERTEX
  5
243
330
1D3
100
AcDbEntity
  8
0
  6
CONTINUOUS
 62
     7
100
AcDbVertex
100
AcDb2dVertex
 10
9.2121469772
 20
7.1134497213
 30
0.0
  0
VERTEX
  5
244
330
1D3
100
AcDbEntity
  8
0
  6
CONTINUOUS
 62
     7
100
AcDbVertex
100
AcDb2dVertex
 10
9.1890394255
 20
7.1184492474
 30
0.0
  0
VERTEX
  5
245
330
1D3
100
AcDbEntity
  8
0
  6
CONTINUOUS
 62
     7
100
AcDbVertex
100
AcDb2dVertex
 10
9.1651323748
 20
7.1215655797
 30
0.0
  0
VERTEX
  5
246
330
1D3
100
AcDbEntity
  8
0
  6
CONTINUOUS
 62
     7
100
AcDbVertex
100
AcDb2dVertex
 10
9.1404913525
 20
7.1227901767
 30
0.0
  0
VERTEX
  5
247
330
1D3
100
AcDbEntity
  8
0
  6
CONTINUOUS
 62
     7
100
AcDbVertex
100
AcDb2dVertex
 10
9.1151838979
 20
7.1221196817
 30
0.0
  0
VERTEX
  5
248
330
1D3
100
AcDbEntity
  8
0
  6
CONTINUOUS
 62
     7
100
AcDbVertex
100
AcDb2dVertex
 10
9.0892793771
 20
7.1195559325
 30
0.0
  0
VERTEX
  5
249
330
1D3
100
AcDbEntity
  8
0
  6
CONTINUOUS
 62
     7
100
AcDbVertex
100
AcDb2dVertex
 10
9.0628487925
 20
7.1151059563
 30
0.0
  0
VERTEX
  5
24A
330
1D3
100
AcDbEntity
  8
0
  6
CONTINUOUS
 62
     7
100
AcDbVertex
100
AcDb2dVertex
 10
9.0359645886
 20
7.10878195
 30
0.0
  0
VERTEX
  5
24B
330
1D3
100
AcDbEntity
  8
0
  6
CONTINUOUS
 62
     7
100
AcDbVertex
100
AcDb2dVertex
 10
9.008700453
 20
7.1006012474
 30
0.0
  0
VERTEX
  5
24C
330
1D3
100
AcDbEntity
  8
0
  6
CONTINUOUS
 62
     7
100
AcDbVertex
100
AcDb2dVertex
 10
8.9811311149
 20
7.0905862711
 30
0.0
  0
VERTEX
  5
24D
330
1D3
100
AcDbEntity
  8
0
  6
CONTINUOUS
 62
     7
100
AcDbVertex
100
AcDb2dVertex
 10
8.9533321399
 20
7.0787644716
 30
0.0
  0
VERTEX
  5
24E
330
1D3
100
AcDbEntity
  8
0
  6
CONTINUOUS
 62
     7
100
AcDbVertex
100
AcDb2dVertex
 10
8.925379723
 20
7.0651682515
 30
0.0
  0
VERTEX
  5
24F
330
1D3
100
AcDbEntity
  8
0
  6
CONTINUOUS
 62
     7
100
AcDbVertex
100
AcDb2dVertex
 10
8.89735048
 20
7.0498348771
 30
0.0
  0
VERTEX
  5
250
330
1D3
100
AcDbEntity
  8
0
  6
CONTINUOUS
 62
     7
100
AcDbVertex
100
AcDb2dVertex
 10
8.8693212369
 20
7.0328063763
 30
0.0
  0
VERTEX
  5
251
330
1D3
100
AcDbEntity
  8
0
  6
CONTINUOUS
 62
     7
100
AcDbVertex
100
AcDb2dVertex
 10
8.8413688201
 20
7.0141294228
 30
0.0
  0
VERTEX
  5
252
330
1D3
100
AcDbEntity
  8
0
  6
CONTINUOUS
 62
     7
100
AcDbVertex
100
AcDb2dVertex
 10
8.8135698451
 20
6.993855209
 30
0.0
  0
VERTEX
  5
253
330
1D3
100
AcDbEntity
  8
0
  6
CONTINUOUS
 62
     7
100
AcDbVertex
100
AcDb2dVertex
 10
8.7860005069
 20
6.972039305
 30
0.0
  0
VERTEX
  5
254
330
1D3
100
AcDbEntity
  8
0
  6
CONTINUOUS
 62
     7
100
AcDbVertex
100
AcDb2dVertex
 10
8.7587363714
 20
6.9487415067
 30
0.0
  0
VERTEX
  5
255
330
1D3
100
AcDbEntity
  8
0
  6
CONTINUOUS
 62
     7
100
AcDbVertex
100
AcDb2dVertex
 10
8.7318521674
 20
6.9240256718
 30
0.0
  0
VERTEX
  5
256
330
1D3
100
AcDbEntity
  8
0
  6
CONTINUOUS
 62
     7
100
AcDbVertex
100
AcDb2dVertex
 10
8.7054215828
 20
6.8979595447
 30
0.0
  0
VERTEX
  5
257
330
1D3
100
AcDbEntity
  8
0
  6
CONTINUOUS
 62
     7
100
AcDbVertex
100
AcDb2dVertex
 10
8.679517062
 20
6.8706145708
 30
0.0
  0
VERTEX
  5
258
330
1D3
100
AcDbEntity
  8
0
  6
CONTINUOUS
 62
     7
100
AcDbVertex
100
AcDb2dVertex
 10
8.6542096075
 20
6.8420657007
 30
0.0
  0
VERTEX
  5
259
330
1D3
100
AcDbEntity
  8
0
  6
CONTINUOUS
 62
     7
100
AcDbVertex
100
AcDb2dVertex
 10
8.6295685852
 20
6.8123911849
 30
0.0
  0
VERTEX
  5
25A
330
1D3
100
AcDbEntity
  8
0
  6
CONTINUOUS
 62
     7
100
AcDbVertex
100
AcDb2dVertex
 10
8.6056615344
 20
6.7816723593
 30
0.0
  0
VERTEX
  5
25B
330
1D3
100
AcDbEntity
  8
0
  6
CONTINUOUS
 62
     7
100
AcDbVertex
100
AcDb2dVertex
 10
8.5825539828
 20
6.749993422
 30
0.0
  0
VERTEX
  5
25C
330
1D3
100
AcDbEntity
  8
0
  6
CONTINUOUS
 62
     7
100
AcDbVertex
100
AcDb2dVertex
 10
8.5603092665
 20
6.7174412027
 30
0.0
  0
VERTEX
  5
25D
330
1D3
100
AcDbEntity
  8
0
  6
CONTINUOUS
 62
     7
100
AcDbVertex
100
AcDb2dVertex
 10
8.5389883567
 20
6.6841049248
 30
0.0
  0
VERTEX
  5
25E
330
1D3
100
AcDbEntity
  8
0
  6
CONTINUOUS
 62
     7
100
AcDbVertex
100
AcDb2dVertex
 10
8.5186496926
 20
6.6500759608
 30
0.0
  0
VERTEX
  5
25F
330
1D3
100
AcDbEntity
  8
0
  6
CONTINUOUS
 62
     7
100
AcDbVertex
100
AcDb2dVertex
 10
8.499349021
 20
6.6154475816
 30
0.0
  0
VERTEX
  5
260
330
1D3
100
AcDbEntity
  8
0
  6
CONTINUOUS
 62
     7
100
AcDbVertex
100
AcDb2dVertex
 10
8.4811392438
 20
6.5803147013
 30
0.0
  0
VERTEX
  5
261
330
1D3
100
AcDbEntity
  8
0
  6
CONTINUOUS
 62
     7
100
AcDbVertex
100
AcDb2dVertex
 10
8.4640702726
 20
6.5447736167
 30
0.0
  0
VERTEX
  5
262
330
1D3
100
AcDbEntity
  8
0
  6
CONTINUOUS
 62
     7
100
AcDbVertex
100
AcDb2dVertex
 10
8.4481888924
 20
6.5089217433
 30
0.0
  0
VERTEX
  5
263
330
1D3
100
AcDbEntity
  8
0
  6
CONTINUOUS
 62
     7
100
AcDbVertex
100
AcDb2dVertex
 10
8.4335386328
 20
6.4728573486
 30
0.0
  0
VERTEX
  5
264
330
1D3
100
AcDbEntity
  8
0
  6
CONTINUOUS
 62
     7
100
AcDbVertex
100
AcDb2dVertex
 10
8.4201596493
 20
6.4366792828
 30
0.0
  0
VERTEX
  5
265
330
1D3
100
AcDbEntity
  8
0
  6
CONTINUOUS
 62
     7
100
AcDbVertex
100
AcDb2dVertex
 10
8.4080886127
 20
6.4004867072
 30
0.0
  0
VERTEX
  5
266
330
1D3
100
AcDbEntity
  8
0
  6
CONTINUOUS
 62
     7
100
AcDbVertex
100
AcDb2dVertex
 10
8.3973586088
 20
6.3643788234
 30
0.0
  0
VERTEX
  5
267
330
1D3
100
AcDbEntity
  8
0
  6
CONTINUOUS
 62
     7
100
AcDbVertex
100
AcDb2dVertex
 10
8.387999048
 20
6.3284546004
 30
0.0
  0
VERTEX
  5
268
330
1D3
100
AcDbEntity
  8
0
  6
CONTINUOUS
 62
     7
100
AcDbVertex
100
AcDb2dVertex
 10
8.380035584
 20
6.292812504
 30
0.0
  0
VERTEX
  5
269
330
1D3
100
AcDbEntity
  8
0
  6
CONTINUOUS
 62
     7
100
AcDbVertex
100
AcDb2dVertex
 10
8.3734900441
 20
6.2575502268
 30
0.0
  0
VERTEX
  5
26A
330
1D3
100
AcDbEntity
  8
0
  6
CONTINUOUS
 62
     7
100
AcDbVertex
100
AcDb2dVertex
 10
8.3683803693
 20
6.2227644203
 30
0.0
  0
VERTEX
  5
26B
330
1D3
100
AcDbEntity
  8
0
  6
CONTINUOUS
 62
     7
100
AcDbVertex
100
AcDb2dVertex
 10
8.3647205648
 20
6.1885504298
 30
0.0
  0
VERTEX
  5
26C
330
1D3
100
AcDbEntity
  8
0
  6
CONTINUOUS
 62
     7
100
AcDbVertex
100
AcDb2dVertex
 10
8.3625206619
 20
6.1550020336
 30
0.0
  0
VERTEX
  5
26D
330
1D3
100
AcDbEntity
  8
0
  6
CONTINUOUS
 62
     7
100
AcDbVertex
100
AcDb2dVertex
 10
8.3617866904
 20
6.1222111855
 30
0.0
  0
VERTEX
  5
26E
330
1D3
100
AcDbEntity
  8
0
  6
CONTINUOUS
 62
     7
100
AcDbVertex
100
AcDb2dVertex
 10
8.3625206619
 20
6.090267763
 30
0.0
  0
VERTEX
  5
26F
330
1D3
100
AcDbEntity
  8
0
  6
CONTINUOUS
 62
     7
100
AcDbVertex
100
AcDb2dVertex
 10
8.3647205648
 20
6.0592593206
 30
0.0
  0
VERTEX
  5
270
330
1D3
100
AcDbEntity
  8
0
  6
CONTINUOUS
 62
     7
100
AcDbVertex
100
AcDb2dVertex
 10
8.3683803693
 20
6.0292708505
 30
0.0
  0
VERTEX
  5
271
330
1D3
100
AcDbEntity
  8
0
  6
CONTINUOUS
 62
     7
100
AcDbVertex
100
AcDb2dVertex
 10
8.3734900441
 20
6.0003845489
 30
0.0
  0
VERTEX
  5
272
330
1D3
100
AcDbEntity
  8
0
  6
CONTINUOUS
 62
     7
100
AcDbVertex
100
AcDb2dVertex
 10
8.380035584
 20
5.9726795911
 30
0.0
  0
VERTEX
  5
273
330
1D3
100
AcDbEntity
  8
0
  6
CONTINUOUS
 62
     7
100
AcDbVertex
100
AcDb2dVertex
 10
8.387999048
 20
5.9462319146
 30
0.0
  0
VERTEX
  5
274
330
1D3
100
AcDbEntity
  8
0
  6
CONTINUOUS
 62
     7
100
AcDbVertex
100
AcDb2dVertex
 10
8.3973586088
 20
5.9211140106
 30
0.0
  0
VERTEX
  5
275
330
1D3
100
AcDbEntity
  8
0
  6
CONTINUOUS
 62
     7
100
AcDbVertex
100
AcDb2dVertex
 10
8.4080886127
 20
5.8973947255
 30
0.0
  0
VERTEX
  5
276
330
1D3
100
AcDbEntity
  8
0
  6
CONTINUOUS
 62
     7
100
AcDbVertex
100
AcDb2dVertex
 10
8.4201596493
 20
5.8751390721
 30
0.0
  0
VERTEX
  5
277
330
1D3
100
AcDbEntity
  8
0
  6
CONTINUOUS
 62
     7
100
AcDbVertex
100
AcDb2dVertex
 10
8.4335386328
 20
5.8544080518
 30
0.0
  0
VERTEX
  5
278
330
1D3
100
AcDbEntity
  8
0
  6
CONTINUOUS
 62
     7
100
AcDbVertex
100
AcDb2dVertex
 10
8.4481888924
 20
5.8352584868
 30
0.0
  0
VERTEX
  5
279
330
1D3
100
AcDbEntity
  8
0
  6
CONTINUOUS
 62
     7
100
AcDbVertex
100
AcDb2dVertex
 10
8.4640702726
 20
5.8177428648
 30
0.0
  0
VERTEX
  5
27A
330
1D3
100
AcDbEntity
  8
0
  6
CONTINUOUS
 62
     7
100
AcDbVertex
100
AcDb2dVertex
 10
8.4811392438
 20
5.8019091947
 30
0.0
  0
VERTEX
  5
27B
330
1D3
100
AcDbEntity
  8
0
  6
CONTINUOUS
 62
     7
100
AcDbVertex
100
AcDb2dVertex
 10
8.499349021
 20
5.7878008757
 30
0.0
  0
VERTEX
  5
27C
330
1D3
100
AcDbEntity
  8
0
  6
CONTINUOUS
 62
     7
100
AcDbVertex
100
AcDb2dVertex
 10
8.5186496926
 20
5.7754565776
 30
0.0
  0
VERTEX
  5
27D
330
1D3
100
AcDbEntity
  8
0
  6
CONTINUOUS
 62
     7
100
AcDbVertex
100
AcDb2dVertex
 10
8.5389883567
 20
5.7649101353
 30
0.0
  0
VERTEX
  5
27E
330
1D3
100
AcDbEntity
  8
0
  6
CONTINUOUS
 62
     7
100
AcDbVertex
100
AcDb2dVertex
 10
8.5603092665
 20
5.7561904559
 30
0.0
  0
VERTEX
  5
27F
330
1D3
100
AcDbEntity
  8
0
  6
CONTINUOUS
 62
     7
100
AcDbVertex
100
AcDb2dVertex
 10
8.5825539828
 20
5.7493214394
 30
0.0
  0
VERTEX
  5
280
330
1D3
100
AcDbEntity
  8
0
  6
CONTINUOUS
 62
     7
100
AcDbVertex
100
AcDb2dVertex
 10
8.6056615344
 20
5.7443219133
 30
0.0
  0
VERTEX
  5
281
330
1D3
100
AcDbEntity
  8
0
  6
CONTINUOUS
 62
     7
100
AcDbVertex
100
AcDb2dVertex
 10
8.6295685852
 20
5.7412055809
 30
0.0
  0
VERTEX
  5
282
330
1D3
100
AcDbEntity
  8
0
  6
CONTINUOUS
 62
     7
100
AcDbVertex
100
AcDb2dVertex
 10
8.6542096075
 20
5.739980984
 30
0.0
  0
VERTEX
  5
283
330
1D3
100
AcDbEntity
  8
0
  6
CONTINUOUS
 62
     7
100
AcDbVertex
100
AcDb2dVertex
 10
8.679517062
 20
5.740651479
 30
0.0
  0
VERTEX
  5
284
330
1D3
100
AcDbEntity
  8
0
  6
CONTINUOUS
 62
     7
100
AcDbVertex
100
AcDb2dVertex
 10
8.7054215828
 20
5.7432152281
 30
0.0
  0
VERTEX
  5
285
330
1D3
100
AcDbEntity
  8
0
  6
CONTINUOUS
 62
     7
100
AcDbVertex
100
AcDb2dVertex
 10
8.7318521674
 20
5.7476652044
 30
0.0
  0
VERTEX
  5
286
330
1D3
100
AcDbEntity
  8
0
  6
CONTINUOUS
 62
     7
100
AcDbVertex
100
AcDb2dVertex
 10
8.7587363714
 20
5.7539892107
 30
0.0
  0
VERTEX
  5
287
330
1D3
100
AcDbEntity
  8
0
  6
CONTINUOUS
 62
     7
100
AcDbVertex
100
AcDb2dVertex
 10
8.7860005069
 20
5.7621699133
 30
0.0
  0
VERTEX
  5
288
330
1D3
100
AcDbEntity
  8
0
  6
CONTINUOUS
 62
     7
100
AcDbVertex
100
AcDb2dVertex
 10
8.8135698451
 20
5.7721848896
 30
0.0
  0
VERTEX
  5
289
330
1D3
100
AcDbEntity
  8
0
  6
CONTINUOUS
 62
     7
100
AcDbVertex
100
AcDb2dVertex
 10
8.8413688201
 20
5.7840066891
 30
0.0
  0
VERTEX
  5
28A
330
1D3
100
AcDbEntity
  8
0
  6
CONTINUOUS
 62
     7
100
AcDbVertex
100
AcDb2dVertex
 10
8.8693212369
 20
5.7976029092
 30
0.0
  0
VERTEX
  5
28B
330
1D3
100
AcDbEntity
  8
0
  6
CONTINUOUS
 62
     7
100
AcDbVertex
100
AcDb2dVertex
 10
8.89735048
 20
5.8129362835
 30
0.0
  0
VERTEX
  5
28C
330
1D3
100
AcDbEntity
  8
0
  6
CONTINUOUS
 62
     7
100
AcDbVertex
100
AcDb2dVertex
 10
8.925379723
 20
5.8299647844
 30
0.0
  0
VERTEX
  5
28D
330
1D3
100
AcDbEntity
  8
0
  6
CONTINUOUS
 62
     7
100
AcDbVertex
100
AcDb2dVertex
 10
8.9533321399
 20
5.8486417378
 30
0.0
  0
VERTEX
  5
28E
330
1D3
100
AcDbEntity
  8
0
  6
CONTINUOUS
 62
     7
100
AcDbVertex
100
AcDb2dVertex
 10
8.9811311149
 20
5.8689159517
 30
0.0
  0
VERTEX
  5
28F
330
1D3
100
AcDbEntity
  8
0
  6
CONTINUOUS
 62
     7
100
AcDbVertex
100
AcDb2dVertex
 10
9.008700453
 20
5.8907318557
 30
0.0
  0
VERTEX
  5
290
330
1D3
100
AcDbEntity
  8
0
  6
CONTINUOUS
 62
     7
100
AcDbVertex
100
AcDb2dVertex
 10
9.0359645886
 20
5.9140296539
 30
0.0
  0
VERTEX
  5
291
330
1D3
100
AcDbEntity
  8
0
  6
CONTINUOUS
 62
     7
100
AcDbVertex
100
AcDb2dVertex
 10
9.0628487925
 20
5.9387454888
 30
0.0
  0
VERTEX
  5
292
330
1D3
100
AcDbEntity
  8
0
  6
CONTINUOUS
 62
     7
100
AcDbVertex
100
AcDb2dVertex
 10
9.0892793771
 20
5.964811616
 30
0.0
  0
VERTEX
  5
293
330
1D3
100
AcDbEntity
  8
0
  6
CONTINUOUS
 62
     7
100
AcDbVertex
100
AcDb2dVertex
 10
9.1151838979
 20
5.9921565899
 30
0.0
  0
VERTEX
  5
294
330
1D3
100
AcDbEntity
  8
0
  6
CONTINUOUS
 62
     7
100
AcDbVertex
100
AcDb2dVertex
 10
9.1404913525
 20
6.02070546
 30
0.0
  0
VERTEX
  5
295
330
1D3
100
AcDbEntity
  8
0
  6
CONTINUOUS
 62
     7
100
AcDbVertex
100
AcDb2dVertex
 10
9.1651323748
 20
6.0503799757
 30
0.0
  0
VERTEX
  5
296
330
1D3
100
AcDbEntity
  8
0
  6
CONTINUOUS
 62
     7
100
AcDbVertex
100
AcDb2dVertex
 10
9.1890394255
 20
6.0810988014
 30
0.0
  0
VERTEX
  5
297
330
1D3
100
AcDbEntity
  8
0
  6
CONTINUOUS
 62
     7
100
AcDbVertex
100
AcDb2dVertex
 10
9.2121469772
 20
6.1127777387
 30
0.0
  0
VERTEX
  5
298
330
1D3
100
AcDbEntity
  8
0
  6
CONTINUOUS
 62
     7
100
AcDbVertex
100
AcDb2dVertex
 10
9.2343916935
 20
6.145329958
 30
0.0
  0
VERTEX
  5
299
330
1D3
100
AcDbEntity
  8
0
  6
CONTINUOUS
 62
     7
100
AcDbVertex
100
AcDb2dVertex
 10
9.2557126033
 20
6.1786662358
 30
0.0
  0
VERTEX
  5
29A
330
1D3
100
AcDbEntity
  8
0
  6
CONTINUOUS
 62
     7
100
AcDbVertex
100
AcDb2dVertex
 10
9.2760512674
 20
6.2126951999
 30
0.0
  0
VERTEX
  5
29B
330
1D3
100
AcDbEntity
  8
0
  6
CONTINUOUS
 62
     7
100
AcDbVertex
100
AcDb2dVertex
 10
9.295351939
 20
6.247323579
 30
0.0
  0
VERTEX
  5
29C
330
1D3
100
AcDbEntity
  8
0
  6
CONTINUOUS
 62
     7
100
AcDbVertex
100
AcDb2dVertex
 10
9.3135617162
 20
6.2824564593
 30
0.0
  0
VERTEX
  5
29D
330
1D3
100
AcDbEntity
  8
0
  6
CONTINUOUS
 62
     7
100
AcDbVertex
100
AcDb2dVertex
 10
9.3306306874
 20
6.317997544
 30
0.0
  0
VERTEX
  5
29E
330
1D3
100
AcDbEntity
  8
0
  6
CONTINUOUS
 62
     7
100
AcDbVertex
100
AcDb2dVertex
 10
9.3465120676
 20
6.3538494174
 30
0.0
  0
VERTEX
  5
29F
330
1D3
100
AcDbEntity
  8
0
  6
CONTINUOUS
 62
     7
100
AcDbVertex
100
AcDb2dVertex
 10
9.3611623271
 20
6.389913812
 30
0.0
  0
VERTEX
  5
2A0
330
1D3
100
AcDbEntity
  8
0
  6
CONTINUOUS
 62
     7
100
AcDbVertex
100
AcDb2dVertex
 10
9.3745413107
 20
6.4260918779
 30
0.0
  0
VERTEX
  5
2A1
330
1D3
100
AcDbEntity
  8
0
  6
CONTINUOUS
 62
     7
100
AcDbVertex
100
AcDb2dVertex
 10
9.3866123473
 20
6.4622844534
 30
0.0
  0
VERTEX
  5
2A2
330
1D3
100
AcDbEntity
  8
0
  6
CONTINUOUS
 62
     7
100
AcDbVertex
100
AcDb2dVertex
 10
9.3973423511
 20
6.4983923373
 30
0.0
  0
VERTEX
  5
2A3
330
1D3
100
AcDbEntity
  8
0
  6
CONTINUOUS
 62
     7
100
AcDbVertex
100
AcDb2dVertex
 10
9.406701912
 20
6.5343165603
 30
0.0
  0
VERTEX
  5
2A4
330
1D3
100
AcDbEntity
  8
0
  6
CONTINUOUS
 62
     7
100
AcDbVertex
100
AcDb2dVertex
 10
9.414665376
 20
6.5699586566
 30
0.0
  0
VERTEX
  5
2A5
330
1D3
100
AcDbEntity
  8
0
  6
CONTINUOUS
 62
     7
100
AcDbVertex
100
AcDb2dVertex
 10
9.4212109158
 20
6.6052209338
 30
0.0
  0
VERTEX
  5
2A6
330
1D3
100
AcDbEntity
  8
0
  6
CONTINUOUS
 62
     7
100
AcDbVertex
100
AcDb2dVertex
 10
9.4263205906
 20
6.6400067404
 30
0.0
  0
VERTEX
  5
2A7
330
1D3
100
AcDbEntity
  8
0
  6
CONTINUOUS
 62
     7
100
AcDbVertex
100
AcDb2dVertex
 10
9.4299803951
 20
6.6742207308
 30
0.0
  0
VERTEX
  5
2A8
330
1D3
100
AcDbEntity
  8
0
  6
CONTINUOUS
 62
     7
100
AcDbVertex
100
AcDb2dVertex
 10
9.432180298
 20
6.707769127
 30
0.0
  0
VERTEX
  5
2A9
330
1D3
100
AcDbEntity
  8
0
  6
CONTINUOUS
 62
     7
100
AcDbVertex
100
AcDb2dVertex
 10
9.4329142696
 20
6.7405599751
 30
0.0
  0
SEQEND
  5
2AA
330
1D3
100
AcDbEntity
  8
0
  6
CONTINUOUS
 62
     7
  0
POLYLINE
  5
1D4
330
1F
100
AcDbEntity
  8
0
  6
CONTINUOUS
 62
     7
100
AcDb2dPolyline
 66
     1
 10
0.0
 20
0.0
 30
0.0
  0
VERTEX
  5
2AB
330
1D4
100
AcDbEntity
  8
0
  6
CONTINUOUS
 62
     7
100
AcDbVertex
100
AcDb2dVertex
 10
8.8762277685
 20
5.8007384292
 30
0.0
  0
VERTEX
  5
2AC
330
1D4
100
AcDbEntity
  8
0
  6
CONTINUOUS
 62
     7
100
AcDbVertex
100
AcDb2dVertex
 10
8.8618014306
 20
5.7926234305
 30
0.0
  0
VERTEX
  5
2AD
330
1D4
100
AcDbEntity
  8
0
  6
CONTINUOUS
 62
     7
100
AcDbVertex
100
AcDb2dVertex
 10
8.8331677548
 20
5.777797972
 30
0.0
  0
VERTEX
  5
2AE
330
1D4
100
AcDbEntity
  8
0
  6
CONTINUOUS
 62
     7
100
AcDbVertex
100
AcDb2dVertex
 10
8.8046480265
 20
5.7647381848
 30
0.0
  0
VERTEX
  5
2AF
330
1D4
100
AcDbEntity
  8
0
  6
CONTINUOUS
 62
     7
100
AcDbVertex
100
AcDb2dVertex
 10
8.7763178747
 20
5.7534787012
 30
0.0
  0
VERTEX
  5
2B0
330
1D4
100
AcDbEntity
  8
0
  6
CONTINUOUS
 62
     7
100
AcDbVertex
100
AcDb2dVertex
 10
8.7482524261
 20
5.7440493793
 30
0.0
  0
VERTEX
  5
2B1
330
1D4
100
AcDbEntity
  8
0
  6
CONTINUOUS
 62
     7
100
AcDbVertex
100
AcDb2dVertex
 10
8.7205261052
 20
5.736475224
 30
0.0
  0
VERTEX
  5
2B2
330
1D4
100
AcDbEntity
  8
0
  6
CONTINUOUS
 62
     7
100
AcDbVertex
100
AcDb2dVertex
 10
8.693212437
 20
5.7307763205
 30
0.0
  0
VERTEX
  5
2B3
330
1D4
100
AcDbEntity
  8
0
  6
CONTINUOUS
 62
     7
100
AcDbVertex
100
AcDb2dVertex
 10
8.6663838527
 20
5.7269677813
 30
0.0
  0
VERTEX
  5
2B4
330
1D4
100
AcDbEntity
  8
0
  6
CONTINUOUS
 62
     7
100
AcDbVertex
100
AcDb2dVertex
 10
8.6401114968
 20
5.725059706
 30
0.0
  0
VERTEX
  5
2B5
330
1D4
100
AcDbEntity
  8
0
  6
CONTINUOUS
 62
     7
100
AcDbVertex
100
AcDb2dVertex
 10
8.6144650388
 20
5.7250571545
 30
0.0
  0
VERTEX
  5
2B6
330
1D4
100
AcDbEntity
  8
0
  6
CONTINUOUS
 62
     7
100
AcDbVertex
100
AcDb2dVertex
 10
8.5895124885
 20
5.7269601335
 30
0.0
  0
VERTEX
  5
2B7
330
1D4
100
AcDbEntity
  8
0
  6
CONTINUOUS
 62
     7
100
AcDbVertex
100
AcDb2dVertex
 10
8.5653200156
 20
5.7307635967
 30
0.0
  0
VERTEX
  5
2B8
330
1D4
100
AcDbEntity
  8
0
  6
CONTINUOUS
 62
     7
100
AcDbVertex
100
AcDb2dVertex
 10
8.5419517742
 20
5.7364574579
 30
0.0
  0
VERTEX
  5
2B9
330
1D4
100
AcDbEntity
  8
0
  6
CONTINUOUS
 62
     7
100
AcDbVertex
100
AcDb2dVertex
 10
8.5194697327
 20
5.7440266181
 30
0.0
  0
VERTEX
  5
2BA
330
1D4
100
AcDbEntity
  8
0
  6
CONTINUOUS
 62
     7
100
AcDbVertex
100
AcDb2dVertex
 10
8.4979335094
 20
5.7534510052
 30
0.0
  0
VERTEX
  5
2BB
330
1D4
100
AcDbEntity
  8
0
  6
CONTINUOUS
 62
     7
100
AcDbVertex
100
AcDb2dVertex
 10
8.4774002146
 20
5.7647056274
 30
0.0
  0
VERTEX
  5
2BC
330
1D4
100
AcDbEntity
  8
0
  6
CONTINUOUS
 62
     7
100
AcDbVertex
100
AcDb2dVertex
 10
8.4579242987
 20
5.7777606396
 30
0.0
  0
VERTEX
  5
2BD
330
1D4
100
AcDbEntity
  8
0
  6
CONTINUOUS
 62
     7
100
AcDbVertex
100
AcDb2dVertex
 10
8.4395574084
 20
5.7925814221
 30
0.0
  0
VERTEX
  5
2BE
330
1D4
100
AcDbEntity
  8
0
  6
CONTINUOUS
 62
     7
100
AcDbVertex
100
AcDb2dVertex
 10
8.4223482495
 20
5.8091286729
 30
0.0
  0
VERTEX
  5
2BF
330
1D4
100
AcDbEntity
  8
0
  6
CONTINUOUS
 62
     7
100
AcDbVertex
100
AcDb2dVertex
 10
8.4063424575
 20
5.8273585116
 30
0.0
  0
VERTEX
  5
2C0
330
1D4
100
AcDbEntity
  8
0
  6
CONTINUOUS
 62
     7
100
AcDbVertex
100
AcDb2dVertex
 10
8.3915824769
 20
5.8472225961
 30
0.0
  0
VERTEX
  5
2C1
330
1D4
100
AcDbEntity
  8
0
  6
CONTINUOUS
 62
     7
100
AcDbVertex
100
AcDb2dVertex
 10
8.3781074486
 20
5.8686682503
 30
0.0
  0
VERTEX
  5
2C2
330
1D4
100
AcDbEntity
  8
0
  6
CONTINUOUS
 62
     7
100
AcDbVertex
100
AcDb2dVertex
 10
8.3659531058
 20
5.8916386042
 30
0.0
  0
VERTEX
  5
2C3
330
1D4
100
AcDbEntity
  8
0
  6
CONTINUOUS
 62
     7
100
AcDbVertex
100
AcDb2dVertex
 10
8.3551516797
 20
5.9160727446
 30
0.0
  0
VERTEX
  5
2C4
330
1D4
100
AcDbEntity
  8
0
  6
CONTINUOUS
 62
     7
100
AcDbVertex
100
AcDb2dVertex
 10
8.3457318137
 20
5.9419058765
 30
0.0
  0
VERTEX
  5
2C5
330
1D4
100
AcDbEntity
  8
0
  6
CONTINUOUS
 62
     7
100
AcDbVertex
100
AcDb2dVertex
 10
8.3377184877
 20
5.9690694951
 30
0.0
  0
VERTEX
  5
2C6
330
1D4
100
AcDbEntity
  8
0
  6
CONTINUOUS
 62
     7
100
AcDbVertex
100
AcDb2dVertex
 10
8.3311329516
 20
5.9974915674
 30
0.0
  0
VERTEX
  5
2C7
330
1D4
100
AcDbEntity
  8
0
  6
CONTINUOUS
 62
     7
100
AcDbVertex
100
AcDb2dVertex
 10
8.3259926689
 20
6.0270967231
 30
0.0
  0
VERTEX
  5
2C8
330
1D4
100
AcDbEntity
  8
0
  6
CONTINUOUS
 62
     7
100
AcDbVertex
100
AcDb2dVertex
 10
8.3223112708
 20
6.0578064547
 30
0.0
  0
VERTEX
  5
2C9
330
1D4
100
AcDbEntity
  8
0
  6
CONTINUOUS
 62
     7
100
AcDbVertex
100
AcDb2dVertex
 10
8.3200985197
 20
6.0895393254
 30
0.0
  0
VERTEX
  5
2CA
330
1D4
100
AcDbEntity
  8
0
  6
CONTINUOUS
 62
     7
100
AcDbVertex
100
AcDb2dVertex
 10
8.3193602835
 20
6.1222111855
 30
0.0
  0
VERTEX
  5
2CB
330
1D4
100
AcDbEntity
  8
0
  6
CONTINUOUS
 62
     7
100
AcDbVertex
100
AcDb2dVertex
 10
8.3200985197
 20
6.1557353951
 30
0.0
  0
VERTEX
  5
2CC
330
1D4
100
AcDbEntity
  8
0
  6
CONTINUOUS
 62
     7
100
AcDbVertex
100
AcDb2dVertex
 10
8.3223112708
 20
6.1900230538
 30
0.0
  0
VERTEX
  5
2CD
330
1D4
100
AcDbEntity
  8
0
  6
CONTINUOUS
 62
     7
100
AcDbVertex
100
AcDb2dVertex
 10
8.3259926689
 20
6.2249832372
 30
0.0
  0
VERTEX
  5
2CE
330
1D4
100
AcDbEntity
  8
0
  6
CONTINUOUS
 62
     7
100
AcDbVertex
100
AcDb2dVertex
 10
8.3311329516
 20
6.2605232369
 30
0.0
  0
VERTEX
  5
2CF
330
1D4
100
AcDbEntity
  8
0
  6
CONTINUOUS
 62
     7
100
AcDbVertex
100
AcDb2dVertex
 10
8.3377184877
 20
6.2965488074
 30
0.0
  0
VERTEX
  5
2D0
330
1D4
100
AcDbEntity
  8
0
  6
CONTINUOUS
 62
     7
100
AcDbVertex
100
AcDb2dVertex
 10
8.3457318137
 20
6.3329644153
 30
0.0
  0
VERTEX
  5
2D1
330
1D4
100
AcDbEntity
  8
0
  6
CONTINUOUS
 62
     7
100
AcDbVertex
100
AcDb2dVertex
 10
8.3551516797
 20
6.3696734929
 30
0.0
  0
VERTEX
  5
2D2
330
1D4
100
AcDbEntity
  8
0
  6
CONTINUOUS
 62
     7
100
AcDbVertex
100
AcDb2dVertex
 10
8.3659531058
 20
6.4065786944
 30
0.0
  0
VERTEX
  5
2D3
330
1D4
100
AcDbEntity
  8
0
  6
CONTINUOUS
 62
     7
100
AcDbVertex
100
AcDb2dVertex
 10
8.3781074486
 20
6.4435821538
 30
0.0
  0
VERTEX
  5
2D4
330
1D4
100
AcDbEntity
  8
0
  6
CONTINUOUS
 62
     7
100
AcDbVertex
100
AcDb2dVertex
 10
8.3915824769
 20
6.4805857446
 30
0.0
  0
VERTEX
  5
2D5
330
1D4
100
AcDbEntity
  8
0
  6
CONTINUOUS
 62
     7
100
AcDbVertex
100
AcDb2dVertex
 10
8.4063424575
 20
6.5174913399
 30
0.0
  0
VERTEX
  5
2D6
330
1D4
100
AcDbEntity
  8
0
  6
CONTINUOUS
 62
     7
100
AcDbVertex
100
AcDb2dVertex
 10
8.4223482495
 20
6.5542010728
 30
0.0
  0
VERTEX
  5
2D7
330
1D4
100
AcDbEntity
  8
0
  6
CONTINUOUS
 62
     7
100
AcDbVertex
100
AcDb2dVertex
 10
8.4395574084
 20
6.5906175955
 30
0.0
  0
VERTEX
  5
2D8
330
1D4
100
AcDbEntity
  8
0
  6
CONTINUOUS
 62
     7
100
AcDbVertex
100
AcDb2dVertex
 10
8.4579242987
 20
6.6266443381
 30
0.0
  0
VERTEX
  5
2D9
330
1D4
100
AcDbEntity
  8
0
  6
CONTINUOUS
 62
     7
100
AcDbVertex
100
AcDb2dVertex
 10
8.4774002146
 20
6.6621857641
 30
0.0
  0
VERTEX
  5
2DA
330
1D4
100
AcDbEntity
  8
0
  6
CONTINUOUS
 62
     7
100
AcDbVertex
100
AcDb2dVertex
 10
8.4979335094
 20
6.697147624
 30
0.0
  0
VERTEX
  5
2DB
330
1D4
100
AcDbEntity
  8
0
  6
CONTINUOUS
 62
     7
100
AcDbVertex
100
AcDb2dVertex
 10
8.5194697327
 20
6.7314372052
 30
0.0
  0
VERTEX
  5
2DC
330
1D4
100
AcDbEntity
  8
0
  6
CONTINUOUS
 62
     7
100
AcDbVertex
100
AcDb2dVertex
 10
8.5419517742
 20
6.764963578
 30
0.0
  0
VERTEX
  5
2DD
330
1D4
100
AcDbEntity
  8
0
  6
CONTINUOUS
 62
     7
100
AcDbVertex
100
AcDb2dVertex
 10
8.5653200156
 20
6.7976378364
 30
0.0
  0
VERTEX
  5
2DE
330
1D4
100
AcDbEntity
  8
0
  6
CONTINUOUS
 62
     7
100
AcDbVertex
100
AcDb2dVertex
 10
8.5895124885
 20
6.8293733342
 30
0.0
  0
VERTEX
  5
2DF
330
1D4
100
AcDbEntity
  8
0
  6
CONTINUOUS
 62
     7
100
AcDbVertex
100
AcDb2dVertex
 10
8.6144650388
 20
6.8600859145
 30
0.0
  0
VERTEX
  5
2E0
330
1D4
100
AcDbEntity
  8
0
  6
CONTINUOUS
 62
     7
100
AcDbVertex
100
AcDb2dVertex
 10
8.6401114968
 20
6.8896941332
 30
0.0
  0
VERTEX
  5
2E1
330
1D4
100
AcDbEntity
  8
0
  6
CONTINUOUS
 62
     7
100
AcDbVertex
100
AcDb2dVertex
 10
8.6663838527
 20
6.9181194744
 30
0.0
  0
VERTEX
  5
2E2
330
1D4
100
AcDbEntity
  8
0
  6
CONTINUOUS
 62
     7
100
AcDbVertex
100
AcDb2dVertex
 10
8.693212437
 20
6.9452865594
 30
0.0
  0
VERTEX
  5
2E3
330
1D4
100
AcDbEntity
  8
0
  6
CONTINUOUS
 62
     7
100
AcDbVertex
100
AcDb2dVertex
 10
8.7205261052
 20
6.9711233458
 30
0.0
  0
VERTEX
  5
2E4
330
1D4
100
AcDbEntity
  8
0
  6
CONTINUOUS
 62
     7
100
AcDbVertex
100
AcDb2dVertex
 10
8.7482524261
 20
6.9955613193
 30
0.0
  0
VERTEX
  5
2E5
330
1D4
100
AcDbEntity
  8
0
  6
CONTINUOUS
 62
     7
100
AcDbVertex
100
AcDb2dVertex
 10
8.7763178747
 20
7.0185356746
 30
0.0
  0
VERTEX
  5
2E6
330
1D4
100
AcDbEntity
  8
0
  6
CONTINUOUS
 62
     7
100
AcDbVertex
100
AcDb2dVertex
 10
8.8046480265
 20
7.039985488
 30
0.0
  0
VERTEX
  5
2E7
330
1D4
100
AcDbEntity
  8
0
  6
CONTINUOUS
 62
     7
100
AcDbVertex
100
AcDb2dVertex
 10
8.8331677548
 20
7.0598538783
 30
0.0
  0
VERTEX
  5
2E8
330
1D4
100
AcDbEntity
  8
0
  6
CONTINUOUS
 62
     7
100
AcDbVertex
100
AcDb2dVertex
 10
8.8618014306
 20
7.0780881581
 30
0.0
  0
VERTEX
  5
2E9
330
1D4
100
AcDbEntity
  8
0
  6
CONTINUOUS
 62
     7
100
AcDbVertex
100
AcDb2dVertex
 10
8.8904731225
 20
7.0946399736
 30
0.0
  0
VERTEX
  5
2EA
330
1D4
100
AcDbEntity
  8
0
  6
CONTINUOUS
 62
     7
100
AcDbVertex
100
AcDb2dVertex
 10
8.9191067983
 20
7.1094654321
 30
0.0
  0
VERTEX
  5
2EB
330
1D4
100
AcDbEntity
  8
0
  6
CONTINUOUS
 62
     7
100
AcDbVertex
100
AcDb2dVertex
 10
8.9476265266
 20
7.1225252192
 30
0.0
  0
VERTEX
  5
2EC
330
1D4
100
AcDbEntity
  8
0
  6
CONTINUOUS
 62
     7
100
AcDbVertex
100
AcDb2dVertex
 10
8.9759566783
 20
7.1337847028
 30
0.0
  0
VERTEX
  5
2ED
330
1D4
100
AcDbEntity
  8
0
  6
CONTINUOUS
 62
     7
100
AcDbVertex
100
AcDb2dVertex
 10
9.004022127
 20
7.1432140247
 30
0.0
  0
VERTEX
  5
2EE
330
1D4
100
AcDbEntity
  8
0
  6
CONTINUOUS
 62
     7
100
AcDbVertex
100
AcDb2dVertex
 10
9.0317484479
 20
7.15078818
 30
0.0
  0
VERTEX
  5
2EF
330
1D4
100
AcDbEntity
  8
0
  6
CONTINUOUS
 62
     7
100
AcDbVertex
100
AcDb2dVertex
 10
9.059062116
 20
7.1564870835
 30
0.0
  0
VERTEX
  5
2F0
330
1D4
100
AcDbEntity
  8
0
  6
CONTINUOUS
 62
     7
100
AcDbVertex
100
AcDb2dVertex
 10
9.0858907004
 20
7.1602956227
 30
0.0
  0
VERTEX
  5
2F1
330
1D4
100
AcDbEntity
  8
0
  6
CONTINUOUS
 62
     7
100
AcDbVertex
100
AcDb2dVertex
 10
9.1121630563
 20
7.162203698
 30
0.0
  0
VERTEX
  5
2F2
330
1D4
100
AcDbEntity
  8
0
  6
CONTINUOUS
 62
     7
100
AcDbVertex
100
AcDb2dVertex
 10
9.1378095143
 20
7.1622062495
 30
0.0
  0
VERTEX
  5
2F3
330
1D4
100
AcDbEntity
  8
0
  6
CONTINUOUS
 62
     7
100
AcDbVertex
100
AcDb2dVertex
 10
9.1627620646
 20
7.1603032705
 30
0.0
  0
VERTEX
  5
2F4
330
1D4
100
AcDbEntity
  8
0
  6
CONTINUOUS
 62
     7
100
AcDbVertex
100
AcDb2dVertex
 10
9.1869545375
 20
7.1564998073
 30
0.0
  0
VERTEX
  5
2F5
330
1D4
100
AcDbEntity
  8
0
  6
CONTINUOUS
 62
     7
100
AcDbVertex
100
AcDb2dVertex
 10
9.2103227789
 20
7.1508059461
 30
0.0
  0
VERTEX
  5
2F6
330
1D4
100
AcDbEntity
  8
0
  6
CONTINUOUS
 62
     7
100
AcDbVertex
100
AcDb2dVertex
 10
9.2328048204
 20
7.1432367859
 30
0.0
  0
VERTEX
  5
2F7
330
1D4
100
AcDbEntity
  8
0
  6
CONTINUOUS
 62
     7
100
AcDbVertex
100
AcDb2dVertex
 10
9.2543410436
 20
7.1338123988
 30
0.0
  0
VERTEX
  5
2F8
330
1D4
100
AcDbEntity
  8
0
  6
CONTINUOUS
 62
     7
100
AcDbVertex
100
AcDb2dVertex
 10
9.2748743385
 20
7.1225577766
 30
0.0
  0
VERTEX
  5
2F9
330
1D4
100
AcDbEntity
  8
0
  6
CONTINUOUS
 62
     7
100
AcDbVertex
100
AcDb2dVertex
 10
9.2943502544
 20
7.1095027644
 30
0.0
  0
VERTEX
  5
2FA
330
1D4
100
AcDbEntity
  8
0
  6
CONTINUOUS
 62
     7
100
AcDbVertex
100
AcDb2dVertex
 10
9.3127171446
 20
7.0946819819
 30
0.0
  0
VERTEX
  5
2FB
330
1D4
100
AcDbEntity
  8
0
  6
CONTINUOUS
 62
     7
100
AcDbVertex
100
AcDb2dVertex
 10
9.3299263036
 20
7.0781347311
 30
0.0
  0
VERTEX
  5
2FC
330
1D4
100
AcDbEntity
  8
0
  6
CONTINUOUS
 62
     7
100
AcDbVertex
100
AcDb2dVertex
 10
9.3459320956
 20
7.0599048924
 30
0.0
  0
VERTEX
  5
2FD
330
1D4
100
AcDbEntity
  8
0
  6
CONTINUOUS
 62
     7
100
AcDbVertex
100
AcDb2dVertex
 10
9.3606920761
 20
7.0400408079
 30
0.0
  0
VERTEX
  5
2FE
330
1D4
100
AcDbEntity
  8
0
  6
CONTINUOUS
 62
     7
100
AcDbVertex
100
AcDb2dVertex
 10
9.3741671045
 20
7.0185951537
 30
0.0
  0
VERTEX
  5
2FF
330
1D4
100
AcDbEntity
  8
0
  6
CONTINUOUS
 62
     7
100
AcDbVertex
100
AcDb2dVertex
 10
9.3863214473
 20
6.9956247998
 30
0.0
  0
VERTEX
  5
300
330
1D4
100
AcDbEntity
  8
0
  6
CONTINUOUS
 62
     7
100
AcDbVertex
100
AcDb2dVertex
 10
9.3971228734
 20
6.9711906594
 30
0.0
  0
VERTEX
  5
301
330
1D4
100
AcDbEntity
  8
0
  6
CONTINUOUS
 62
     7
100
AcDbVertex
100
AcDb2dVertex
 10
9.4065427393
 20
6.9453575275
 30
0.0
  0
VERTEX
  5
302
330
1D4
100
AcDbEntity
  8
0
  6
CONTINUOUS
 62
     7
100
AcDbVertex
100
AcDb2dVertex
 10
9.4145560654
 20
6.9181939089
 30
0.0
  0
VERTEX
  5
303
330
1D4
100
AcDbEntity
  8
0
  6
CONTINUOUS
 62
     7
100
AcDbVertex
100
AcDb2dVertex
 10
9.4211416015
 20
6.8897718366
 30
0.0
  0
VERTEX
  5
304
330
1D4
100
AcDbEntity
  8
0
  6
CONTINUOUS
 62
     7
100
AcDbVertex
100
AcDb2dVertex
 10
9.4262818842
 20
6.8601666809
 30
0.0
  0
VERTEX
  5
305
330
1D4
100
AcDbEntity
  8
0
  6
CONTINUOUS
 62
     7
100
AcDbVertex
100
AcDb2dVertex
 10
9.4299632823
 20
6.8294569493
 30
0.0
  0
VERTEX
  5
306
330
1D4
100
AcDbEntity
  8
0
  6
CONTINUOUS
 62
     7
100
AcDbVertex
100
AcDb2dVertex
 10
9.4321760334
 20
6.7977240786
 30
0.0
  0
VERTEX
  5
307
330
1D4
100
AcDbEntity
  8
0
  6
CONTINUOUS
 62
     7
100
AcDbVertex
100
AcDb2dVertex
 10
9.4329142696
 20
6.7650522185
 30
0.0
  0
VERTEX
  5
308
330
1D4
100
AcDbEntity
  8
0
  6
CONTINUOUS
 62
     7
100
AcDbVertex
100
AcDb2dVertex
 10
9.4329142696
 20
6.7650522185
 30
0.0
  0
SEQEND
  5
309
330
1D4
100
AcDbEntity
  8
0
  6
CONTINUOUS
 62
     7
  0
POLYLINE
  5
1D5
330
1F
100
AcDbEntity
  8
0
  6
CONTINUOUS
 62
     7
100
AcDb2dPolyline
 66
     1
 10
0.0
 20
0.0
 30
0.0
  0
VERTEX
  5
30A
330
1D5
100
AcDbEntity
  8
0
  6
CONTINUOUS
 62
     7
100
AcDbVertex
100
AcDb2dVertex
 10
7.8646122938
 20
7.9367610396
 30
0.0
  0
VERTEX
  5
30B
330
1D5
100
AcDbEntity
  8
0
  6
CONTINUOUS
 62
     7
100
AcDbVertex
100
AcDb2dVertex
 10
7.8491472686
 20
7.9450134983
 30
0.0
  0
VERTEX
  5
30C
330
1D5
100
AcDbEntity
  8
0
  6
CONTINUOUS
 62
     7
100
AcDbVertex
100
AcDb2dVertex
 10
7.8276110453
 20
7.9544378854
 30
0.0
  0
VERTEX
  5
30D
330
1D5
100
AcDbEntity
  8
0
  6
CONTINUOUS
 62
     7
100
AcDbVertex
100
AcDb2dVertex
 10
7.8051290038
 20
7.9620070456
 30
0.0
  0
VERTEX
  5
30E
330
1D5
100
AcDbEntity
  8
0
  6
CONTINUOUS
 62
     7
100
AcDbVertex
100
AcDb2dVertex
 10
7.7817607624
 20
7.9677009068
 30
0.0
  0
VERTEX
  5
30F
330
1D5
100
AcDbEntity
  8
0
  6
CONTINUOUS
 62
     7
100
AcDbVertex
100
AcDb2dVertex
 10
7.7575682895
 20
7.9715043699
 30
0.0
  0
VERTEX
  5
310
330
1D5
100
AcDbEntity
  8
0
  6
CONTINUOUS
 62
     7
100
AcDbVertex
100
AcDb2dVertex
 10
7.7326157392
 20
7.9734073489
 30
0.0
  0
VERTEX
  5
311
330
1D5
100
AcDbEntity
  8
0
  6
CONTINUOUS
 62
     7
100
AcDbVertex
100
AcDb2dVertex
 10
7.7069692812
 20
7.9734047974
 30
0.0
  0
VERTEX
  5
312
330
1D5
100
AcDbEntity
  8
0
  6
CONTINUOUS
 62
     7
100
AcDbVertex
100
AcDb2dVertex
 10
7.6806969253
 20
7.9714967221
 30
0.0
  0
VERTEX
  5
313
330
1D5
100
AcDbEntity
  8
0
  6
CONTINUOUS
 62
     7
100
AcDbVertex
100
AcDb2dVertex
 10
7.653868341
 20
7.967688183
 30
0.0
  0
VERTEX
  5
314
330
1D5
100
AcDbEntity
  8
0
  6
CONTINUOUS
 62
     7
100
AcDbVertex
100
AcDb2dVertex
 10
7.6265546728
 20
7.9619892795
 30
0.0
  0
VERTEX
  5
315
330
1D5
100
AcDbEntity
  8
0
  6
CONTINUOUS
 62
     7
100
AcDbVertex
100
AcDb2dVertex
 10
7.5988283519
 20
7.9544151241
 30
0.0
  0
VERTEX
  5
316
330
1D5
100
AcDbEntity
  8
0
  6
CONTINUOUS
 62
     7
100
AcDbVertex
100
AcDb2dVertex
 10
7.5707629033
 20
7.9449858023
 30
0.0
  0
VERTEX
  5
317
330
1D5
100
AcDbEntity
  8
0
  6
CONTINUOUS
 62
     7
100
AcDbVertex
100
AcDb2dVertex
 10
7.5424327515
 20
7.9337263187
 30
0.0
  0
VERTEX
  5
318
330
1D5
100
AcDbEntity
  8
0
  6
CONTINUOUS
 62
     7
100
AcDbVertex
100
AcDb2dVertex
 10
7.5139130232
 20
7.9206665315
 30
0.0
  0
VERTEX
  5
319
330
1D5
100
AcDbEntity
  8
0
  6
CONTINUOUS
 62
     7
100
AcDbVertex
100
AcDb2dVertex
 10
7.4852793474
 20
7.905841073
 30
0.0
  0
VERTEX
  5
31A
330
1D5
100
AcDbEntity
  8
0
  6
CONTINUOUS
 62
     7
100
AcDbVertex
100
AcDb2dVertex
 10
7.4566076555
 20
7.8892892576
 30
0.0
  0
VERTEX
  5
31B
330
1D5
100
AcDbEntity
  8
0
  6
CONTINUOUS
 62
     7
100
AcDbVertex
100
AcDb2dVertex
 10
7.4279739797
 20
7.8710549777
 30
0.0
  0
VERTEX
  5
31C
330
1D5
100
AcDbEntity
  8
0
  6
CONTINUOUS
 62
     7
100
AcDbVertex
100
AcDb2dVertex
 10
7.3994542514
 20
7.8511865874
 30
0.0
  0
VERTEX
  5
31D
330
1D5
100
AcDbEntity
  8
0
  6
CONTINUOUS
 62
     7
100
AcDbVertex
100
AcDb2dVertex
 10
7.3711240997
 20
7.8297367741
 30
0.0
  0
VERTEX
  5
31E
330
1D5
100
AcDbEntity
  8
0
  6
CONTINUOUS
 62
     7
100
AcDbVertex
100
AcDb2dVertex
 10
7.3430586511
 20
7.8067624187
 30
0.0
  0
VERTEX
  5
31F
330
1D5
100
AcDbEntity
  8
0
  6
CONTINUOUS
 62
     7
100
AcDbVertex
100
AcDb2dVertex
 10
7.3153323301
 20
7.7823244453
 30
0.0
  0
VERTEX
  5
320
330
1D5
100
AcDbEntity
  8
0
  6
CONTINUOUS
 62
     7
100
AcDbVertex
100
AcDb2dVertex
 10
7.288018662
 20
7.7564876588
 30
0.0
  0
VERTEX
  5
321
330
1D5
100
AcDbEntity
  8
0
  6
CONTINUOUS
 62
     7
100
AcDbVertex
100
AcDb2dVertex
 10
7.2611900776
 20
7.7293205739
 30
0.0
  0
VERTEX
  5
322
330
1D5
100
AcDbEntity
  8
0
  6
CONTINUOUS
 62
     7
100
AcDbVertex
100
AcDb2dVertex
 10
7.2349177217
 20
7.7008952326
 30
0.0
  0
VERTEX
  5
323
330
1D5
100
AcDbEntity
  8
0
  6
CONTINUOUS
 62
     7
100
AcDbVertex
100
AcDb2dVertex
 10
7.2092712637
 20
7.671287014
 30
0.0
  0
VERTEX
  5
324
330
1D5
100
AcDbEntity
  8
0
  6
CONTINUOUS
 62
     7
100
AcDbVertex
100
AcDb2dVertex
 10
7.1843187134
 20
7.6405744337
 30
0.0
  0
VERTEX
  5
325
330
1D5
100
AcDbEntity
  8
0
  6
CONTINUOUS
 62
     7
100
AcDbVertex
100
AcDb2dVertex
 10
7.1601262405
 20
7.6088389359
 30
0.0
  0
VERTEX
  5
326
330
1D5
100
AcDbEntity
  8
0
  6
CONTINUOUS
 62
     7
100
AcDbVertex
100
AcDb2dVertex
 10
7.1367579991
 20
7.5761646775
 30
0.0
  0
VERTEX
  5
327
330
1D5
100
AcDbEntity
  8
0
  6
CONTINUOUS
 62
     7
100
AcDbVertex
100
AcDb2dVertex
 10
7.1142759576
 20
7.5426383047
 30
0.0
  0
VERTEX
  5
328
330
1D5
100
AcDbEntity
  8
0
  6
CONTINUOUS
 62
     7
100
AcDbVertex
100
AcDb2dVertex
 10
7.0927397344
 20
7.5083487235
 30
0.0
  0
VERTEX
  5
329
330
1D5
100
AcDbEntity
  8
0
  6
CONTINUOUS
 62
     7
100
AcDbVertex
100
AcDb2dVertex
 10
7.0722064395
 20
7.4733868636
 30
0.0
  0
VERTEX
  5
32A
330
1D5
100
AcDbEntity
  8
0
  6
CONTINUOUS
 62
     7
100
AcDbVertex
100
AcDb2dVertex
 10
7.0527305236
 20
7.4378454376
 30
0.0
  0
VERTEX
  5
32B
330
1D5
100
AcDbEntity
  8
0
  6
CONTINUOUS
 62
     7
100
AcDbVertex
100
AcDb2dVertex
 10
7.0343636334
 20
7.401818695
 30
0.0
  0
VERTEX
  5
32C
330
1D5
100
AcDbEntity
  8
0
  6
CONTINUOUS
 62
     7
100
AcDbVertex
100
AcDb2dVertex
 10
7.0171544744
 20
7.3654021722
 30
0.0
  0
VERTEX
  5
32D
330
1D5
100
AcDbEntity
  8
0
  6
CONTINUOUS
 62
     7
100
AcDbVertex
100
AcDb2dVertex
 10
7.0011486824
 20
7.3286924394
 30
0.0
  0
VERTEX
  5
32E
330
1D5
100
AcDbEntity
  8
0
  6
CONTINUOUS
 62
     7
100
AcDbVertex
100
AcDb2dVertex
 10
6.9863887019
 20
7.2917868441
 30
0.0
  0
VERTEX
  5
32F
330
1D5
100
AcDbEntity
  8
0
  6
CONTINUOUS
 62
     7
100
AcDbVertex
100
AcDb2dVertex
 10
6.9729136735
 20
7.2547832533
 30
0.0
  0
VERTEX
  5
330
330
1D5
100
AcDbEntity
  8
0
  6
CONTINUOUS
 62
     7
100
AcDbVertex
100
AcDb2dVertex
 10
6.9607593307
 20
7.2177797938
 30
0.0
  0
VERTEX
  5
331
330
1D5
100
AcDbEntity
  8
0
  6
CONTINUOUS
 62
     7
100
AcDbVertex
100
AcDb2dVertex
 10
6.9499579046
 20
7.1808745923
 30
0.0
  0
VERTEX
  5
332
330
1D5
100
AcDbEntity
  8
0
  6
CONTINUOUS
 62
     7
100
AcDbVertex
100
AcDb2dVertex
 10
6.9405380387
 20
7.1441655147
 30
0.0
  0
VERTEX
  5
333
330
1D5
100
AcDbEntity
  8
0
  6
CONTINUOUS
 62
     7
100
AcDbVertex
100
AcDb2dVertex
 10
6.9325247126
 20
7.1077499069
 30
0.0
  0
VERTEX
  5
334
330
1D5
100
AcDbEntity
  8
0
  6
CONTINUOUS
 62
     7
100
AcDbVertex
100
AcDb2dVertex
 10
6.9259391765
 20
7.0717243364
 30
0.0
  0
VERTEX
  5
335
330
1D5
100
AcDbEntity
  8
0
  6
CONTINUOUS
 62
     7
100
AcDbVertex
100
AcDb2dVertex
 10
6.9207988938
 20
7.0361843366
 30
0.0
  0
VERTEX
  5
336
330
1D5
100
AcDbEntity
  8
0
  6
CONTINUOUS
 62
     7
100
AcDbVertex
100
AcDb2dVertex
 10
6.9171174957
 20
7.0012241533
 30
0.0
  0
VERTEX
  5
337
330
1D5
100
AcDbEntity
  8
0
  6
CONTINUOUS
 62
     7
100
AcDbVertex
100
AcDb2dVertex
 10
6.9149047446
 20
6.9669364945
 30
0.0
  0
VERTEX
  5
338
330
1D5
100
AcDbEntity
  8
0
  6
CONTINUOUS
 62
     7
100
AcDbVertex
100
AcDb2dVertex
 10
6.9141665084
 20
6.933412285
 30
0.0
  0
VERTEX
  5
339
330
1D5
100
AcDbEntity
  8
0
  6
CONTINUOUS
 62
     7
100
AcDbVertex
100
AcDb2dVertex
 10
6.9149047446
 20
6.9007404249
 30
0.0
  0
VERTEX
  5
33A
330
1D5
100
AcDbEntity
  8
0
  6
CONTINUOUS
 62
     7
100
AcDbVertex
100
AcDb2dVertex
 10
6.9171174957
 20
6.8690075541
 30
0.0
  0
VERTEX
  5
33B
330
1D5
100
AcDbEntity
  8
0
  6
CONTINUOUS
 62
     7
100
AcDbVertex
100
AcDb2dVertex
 10
6.9207988938
 20
6.8382978225
 30
0.0
  0
VERTEX
  5
33C
330
1D5
100
AcDbEntity
  8
0
  6
CONTINUOUS
 62
     7
100
AcDbVertex
100
AcDb2dVertex
 10
6.9259391765
 20
6.8086926668
 30
0.0
  0
VERTEX
  5
33D
330
1D5
100
AcDbEntity
  8
0
  6
CONTINUOUS
 62
     7
100
AcDbVertex
100
AcDb2dVertex
 10
6.9325247126
 20
6.7802705946
 30
0.0
  0
VERTEX
  5
33E
330
1D5
100
AcDbEntity
  8
0
  6
CONTINUOUS
 62
     7
100
AcDbVertex
100
AcDb2dVertex
 10
6.9405380387
 20
6.753106976
 30
0.0
  0
VERTEX
  5
33F
330
1D5
100
AcDbEntity
  8
0
  6
CONTINUOUS
 62
     7
100
AcDbVertex
100
AcDb2dVertex
 10
6.9499579046
 20
6.7272738441
 30
0.0
  0
VERTEX
  5
340
330
1D5
100
AcDbEntity
  8
0
  6
CONTINUOUS
 62
     7
100
AcDbVertex
100
AcDb2dVertex
 10
6.9607593307
 20
6.7028397037
 30
0.0
  0
VERTEX
  5
341
330
1D5
100
AcDbEntity
  8
0
  6
CONTINUOUS
 62
     7
100
AcDbVertex
100
AcDb2dVertex
 10
6.9729136735
 20
6.6798693498
 30
0.0
  0
VERTEX
  5
342
330
1D5
100
AcDbEntity
  8
0
  6
CONTINUOUS
 62
     7
100
AcDbVertex
100
AcDb2dVertex
 10
6.9863887019
 20
6.6584236956
 30
0.0
  0
VERTEX
  5
343
330
1D5
100
AcDbEntity
  8
0
  6
CONTINUOUS
 62
     7
100
AcDbVertex
100
AcDb2dVertex
 10
7.0011486824
 20
6.6385596111
 30
0.0
  0
VERTEX
  5
344
330
1D5
100
AcDbEntity
  8
0
  6
CONTINUOUS
 62
     7
100
AcDbVertex
100
AcDb2dVertex
 10
7.0171544744
 20
6.6203297723
 30
0.0
  0
VERTEX
  5
345
330
1D5
100
AcDbEntity
  8
0
  6
CONTINUOUS
 62
     7
100
AcDbVertex
100
AcDb2dVertex
 10
7.0343636334
 20
6.6037825215
 30
0.0
  0
VERTEX
  5
346
330
1D5
100
AcDbEntity
  8
0
  6
CONTINUOUS
 62
     7
100
AcDbVertex
100
AcDb2dVertex
 10
7.0527305236
 20
6.588961739
 30
0.0
  0
VERTEX
  5
347
330
1D5
100
AcDbEntity
  8
0
  6
CONTINUOUS
 62
     7
100
AcDbVertex
100
AcDb2dVertex
 10
7.0722064395
 20
6.5759067269
 30
0.0
  0
VERTEX
  5
348
330
1D5
100
AcDbEntity
  8
0
  6
CONTINUOUS
 62
     7
100
AcDbVertex
100
AcDb2dVertex
 10
7.0772747091
 20
6.5729045634
 30
0.0
  0
SEQEND
  5
349
330
1D5
100
AcDbEntity
  8
0
  6
CONTINUOUS
 62
     7
  0
SPLINE
  5
1D6
330
1F
100
AcDbEntity
  8
0
  6
CONTINUOUS
 62
     7
100
AcDbSpline
210
0.0
220
0.0
230
1.0
 70
     8
 71
     3
 72
    29
 73
    25
 74
     0
 42
0.00000001
 43
0.00000001
 40
-0.1263929690052235
 40
-0.0839496093627676
 40
-0.0427923571123515
 40
0.0
 40
0.0428797206788295
 40
0.0840857876148387
 40
0.126518631641032
 40
0.1885215803448652
 40
0.2497720076106281
 40
0.2910989103194975
 40
0.3312632528475592
 40
0.373450357090283
 40
0.415935414680255
 40
0.4571997387269922
 40
0.5001602082826349
 40
0.5429388544319829
 40
0.5841010041703287
 40
0.6265654505333677
 40
0.6886303670100756
 40
0.7498355342615447
 40
0.7911728541663106
 40
0.8313697090893799
 40
0.8736070309947765
 40
0.9160503906372324
 40
0.9572076428876485
 40
1.0
 40
1.042879720678829
 40
1.084085787614839
 40
1.126518631641032
 10
7.510169727267077
 20
7.848108524656586
 30
0.0
 10
7.530740933136826
 20
7.863470900020181
 30
0.0
 10
7.556413410192642
 20
7.87474645675394
 30
0.0
 10
7.586606544454747
 20
7.880661060333897
 30
0.0
 10
7.623828270123586
 20
7.881138498384814
 30
0.0
 10
7.666927379389583
 20
7.874328955237557
 30
0.0
 10
7.702697604628388
 20
7.858961604086367
 30
0.0
 10
7.725549072054375
 20
7.842776853618711
 30
0.0
 10
7.737477514313654
 20
7.82711576865101
 30
0.0
 10
7.740569909733301
 20
7.810759354048522
 30
0.0
 10
7.736298704576798
 20
7.794226102364831
 30
0.0
 10
7.723304855284545
 20
7.778340811129396
 30
0.0
 10
7.702739151025961
 20
7.764083117627949
 30
0.0
 10
7.67708211474521
 20
7.751641459981286
 30
0.0
 10
7.646898666912488
 20
7.742636139051609
 30
0.0
 10
7.60965843495809
 20
7.737368408862808
 30
0.0
 10
7.566553021291845
 20
7.738281402838533
 30
0.0
 10
7.530779358443994
 20
7.751515206084373
 30
0.0
 10
7.507959338881224
 20
7.768904927162284
 30
0.0
 10
7.496045630409757
 20
7.787741554691483
 30
0.0
 10
7.492962169143843
 20
7.808460619495962
 30
0.0
 10
7.497218476623106
 20
7.829152690815754
 30
0.0
 10
7.510169727267077
 20
7.848108524656586
 30
0.0
 10
7.530740933136826
 20
7.863470900020181
 30
0.0
 10
7.556413410192642
 20
7.87474645675394
 30
0.0
  0
SPLINE
  5
1D7
330
1F
100
AcDbEntity
  8
0
  6
CONTINUOUS
 62
     7
100
AcDbSpline
210
0.0
220
0.0
230
1.0
 70
     8
 71
     3
 72
    29
 73
    25
 74
     0
 42
0.00000001
 43
0.00000001
 40
-0.1263929690052016
 40
-0.0839496093626531
 40
-0.0427923571122368
 40
0.0
 40
0.042879720678657
 40
0.0840857876146665
 40
0.1265186316409992
 40
0.1885215803446789
 40
0.249772007610627
 40
0.2910989103193855
 40
0.3312632528474474
 40
0.3734503570902584
 40
0.4159354146800581
 40
0.4571997387267956
 40
0.5001602082826179
 40
0.5429388544318446
 40
0.584101004170191
 40
0.6265654505333556
 40
0.6886303670100666
 40
0.7498355342615524
 40
0.7911728541664672
 40
0.8313697090895369
 40
0.8736070309947984
 40
0.916050390637347
 40
0.9572076428877632
 40
1.0
 40
1.042879720678657
 40
1.084085787614667
 40
1.126518631640999
 10
8.62372371338767
 20
7.20526749172534
 30
0.0
 10
8.644294919257359
 20
7.220629867088908
 30
0.0
 10
8.669967396313135
 20
7.231905423822633
 30
0.0
 10
8.700160530575234
 20
7.237820027402577
 30
0.0
 10
8.737382256244047
 20
7.238297465453564
 30
0.0
 10
8.780481365510118
 20
7.231487922306338
 30
0.0
 10
8.816251590748877
 20
7.216120571155128
 30
0.0
 10
8.839103058174874
 20
7.199935820687465
 30
0.0
 10
8.851031500434129
 20
7.184274735719766
 30
0.0
 10
8.85412389585385
 20
7.16791832111729
 30
0.0
 10
8.849852690697407
 20
7.151385069433601
 30
0.0
 10
8.836858841405123
 20
7.135499778198177
 30
0.0
 10
8.81629313714656
 20
7.121242084696713
 30
0.0
 10
8.790636100865827
 20
7.108800427050025
 30
0.0
 10
8.760452653033092
 20
7.099795106120363
 30
0.0
 10
8.723212421078673
 20
7.09452737593154
 30
0.0
 10
8.68010700741237
 20
7.095440369907227
 30
0.0
 10
8.644333344564512
 20
7.10867417315312
 30
0.0
 10
8.621513325001732
 20
7.126063894231058
 30
0.0
 10
8.609599616530238
 20
7.144900521760252
 30
0.0
 10
8.606516155264389
 20
7.165619586564735
 30
0.0
 10
8.61077246274372
 20
7.186311657884513
 30
0.0
 10
8.62372371338767
 20
7.20526749172534
 30
0.0
 10
8.644294919257359
 20
7.220629867088908
 30
0.0
 10
8.669967396313135
 20
7.231905423822633
 30
0.0
  0
POLYLINE
  5
1D8
330
1F
100
AcDbEntity
  8
0
  6
CONTINUOUS
 62
     7
100
AcDb2dPolyline
 66
     1
 10
0.0
 20
0.0
 30
0.0
  0
VERTEX
  5
34A
330
1D8
100
AcDbEntity
  8
0
  6
CONTINUOUS
 62
     7
100
AcDbVertex
100
AcDb2dVertex
 10
9.0577579317
 20
6.5239868311
 30
0.0
  0
VERTEX
  5
34B
330
1D8
100
AcDbEntity
  8
0
  6
CONTINUOUS
 62
     7
100
AcDbVertex
100
AcDb2dVertex
 10
9.0570090911
 20
6.5056770097
 30
0.0
  0
VERTEX
  5
34C
330
1D8
100
AcDbEntity
  8
0
  6
CONTINUOUS
 62
     7
100
AcDbVertex
100
AcDb2dVertex
 10
9.0547695611
 20
6.4866735492
 30
0.0
  0
VERTEX
  5
34D
330
1D8
100
AcDbEntity
  8
0
  6
CONTINUOUS
 62
     7
100
AcDbVertex
100
AcDb2dVertex
 10
9.0510602515
 20
6.4671538799
 30
0.0
  0
VERTEX
  5
34E
330
1D8
100
AcDbEntity
  8
0
  6
CONTINUOUS
 62
     7
100
AcDbVertex
100
AcDb2dVertex
 10
9.0459157952
 20
6.4473002515
 30
0.0
  0
VERTEX
  5
34F
330
1D8
100
AcDbEntity
  8
0
  6
CONTINUOUS
 62
     7
100
AcDbVertex
100
AcDb2dVertex
 10
9.0393842246
 20
6.4272980322
 30
0.0
  0
VERTEX
  5
350
330
1D8
100
AcDbEntity
  8
0
  6
CONTINUOUS
 62
     7
100
AcDbVertex
100
AcDb2dVertex
 10
9.0315265232
 20
6.4073339772
 30
0.0
  0
VERTEX
  5
351
330
1D8
100
AcDbEntity
  8
0
  6
CONTINUOUS
 62
     7
100
AcDbVertex
100
AcDb2dVertex
 10
9.0224160563
 20
6.3875944856
 30
0.0
  0
VERTEX
  5
352
330
1D8
100
AcDbEntity
  8
0
  6
CONTINUOUS
 62
     7
100
AcDbVertex
100
AcDb2dVertex
 10
9.0121378857
 20
6.3682638596
 30
0.0
  0
VERTEX
  5
353
330
1D8
100
AcDbEntity
  8
0
  6
CONTINUOUS
 62
     7
100
AcDbVertex
100
AcDb2dVertex
 10
9.0007879761
 20
6.3495225841
 30
0.0
  0
VERTEX
  5
354
330
1D8
100
AcDbEntity
  8
0
  6
CONTINUOUS
 62
     7
100
AcDbVertex
100
AcDb2dVertex
 10
8.9884722984
 20
6.3315456413
 30
0.0
  0
VERTEX
  5
355
330
1D8
100
AcDbEntity
  8
0
  6
CONTINUOUS
 62
     7
100
AcDbVertex
100
AcDb2dVertex
 10
8.9753058409
 20
6.3145008772
 30
0.0
  0
VERTEX
  5
356
330
1D8
100
AcDbEntity
  8
0
  6
CONTINUOUS
 62
     7
100
AcDbVertex
100
AcDb2dVertex
 10
8.9614115351
 20
6.298547434
 30
0.0
  0
VERTEX
  5
357
330
1D8
100
AcDbEntity
  8
0
  6
CONTINUOUS
 62
     7
100
AcDbVertex
100
AcDb2dVertex
 10
8.9469191086
 20
6.2838342648
 30
0.0
  0
VERTEX
  5
358
330
1D8
100
AcDbEntity
  8
0
  6
CONTINUOUS
 62
     7
100
AcDbVertex
100
AcDb2dVertex
 10
8.9319638731
 20
6.2704987425
 30
0.0
  0
VERTEX
  5
359
330
1D8
100
AcDbEntity
  8
0
  6
CONTINUOUS
 62
     7
100
AcDbVertex
100
AcDb2dVertex
 10
8.9166854617
 20
6.2586653773
 30
0.0
  0
VERTEX
  5
35A
330
1D8
100
AcDbEntity
  8
0
  6
CONTINUOUS
 62
     7
100
AcDbVertex
100
AcDb2dVertex
 10
8.9012265248
 20
6.248444654
 30
0.0
  0
VERTEX
  5
35B
330
1D8
100
AcDbEntity
  8
0
  6
CONTINUOUS
 62
     7
100
AcDbVertex
100
AcDb2dVertex
 10
8.8857313983
 20
6.2399320009
 30
0.0
  0
VERTEX
  5
35C
330
1D8
100
AcDbEntity
  8
0
  6
CONTINUOUS
 62
     7
100
AcDbVertex
100
AcDb2dVertex
 10
8.870344756
 20
6.2332068983
 30
0.0
  0
VERTEX
  5
35D
330
1D8
100
AcDbEntity
  8
0
  6
CONTINUOUS
 62
     7
100
AcDbVertex
100
AcDb2dVertex
 10
8.8552102589
 20
6.2283321366
 30
0.0
  0
VERTEX
  5
35E
330
1D8
100
AcDbEntity
  8
0
  6
CONTINUOUS
 62
     7
100
AcDbVertex
100
AcDb2dVertex
 10
8.8404692137
 20
6.2253532302
 30
0.0
  0
VERTEX
  5
35F
330
1D8
100
AcDbEntity
  8
0
  6
CONTINUOUS
 62
     7
100
AcDbVertex
100
AcDb2dVertex
 10
8.8262592535
 20
6.2242979924
 30
0.0
  0
VERTEX
  5
360
330
1D8
100
AcDbEntity
  8
0
  6
CONTINUOUS
 62
     7
100
AcDbVertex
100
AcDb2dVertex
 10
8.812713053
 20
6.2251762756
 30
0.0
  0
VERTEX
  5
361
330
1D8
100
AcDbEntity
  8
0
  6
CONTINUOUS
 62
     7
100
AcDbVertex
100
AcDb2dVertex
 10
8.7999570893
 20
6.2279798795
 30
0.0
  0
VERTEX
  5
362
330
1D8
100
AcDbEntity
  8
0
  6
CONTINUOUS
 62
     7
100
AcDbVertex
100
AcDb2dVertex
 10
8.7881104615
 20
6.2326826276
 30
0.0
  0
VERTEX
  5
363
330
1D8
100
AcDbEntity
  8
0
  6
CONTINUOUS
 62
     7
100
AcDbVertex
100
AcDb2dVertex
 10
8.7772837783
 20
6.2392406116
 30
0.0
  0
VERTEX
  5
364
330
1D8
100
AcDbEntity
  8
0
  6
CONTINUOUS
 62
     7
100
AcDbVertex
100
AcDb2dVertex
 10
8.7675781255
 20
6.2475926015
 30
0.0
  0
VERTEX
  5
365
330
1D8
100
AcDbEntity
  8
0
  6
CONTINUOUS
 62
     7
100
AcDbVertex
100
AcDb2dVertex
 10
8.7590841223
 20
6.2576606169
 30
0.0
  0
VERTEX
  5
366
330
1D8
100
AcDbEntity
  8
0
  6
CONTINUOUS
 62
     7
100
AcDbVertex
100
AcDb2dVertex
 10
8.7518810747
 20
6.2693506554
 30
0.0
  0
VERTEX
  5
367
330
1D8
100
AcDbEntity
  8
0
  6
CONTINUOUS
 62
     7
100
AcDbVertex
100
AcDb2dVertex
 10
8.7460362359
 20
6.2825535704
 30
0.0
  0
VERTEX
  5
368
330
1D8
100
AcDbEntity
  8
0
  6
CONTINUOUS
 62
     7
100
AcDbVertex
100
AcDb2dVertex
 10
8.7416041773
 20
6.2971460898
 30
0.0
  0
VERTEX
  5
369
330
1D8
100
AcDbEntity
  8
0
  6
CONTINUOUS
 62
     7
100
AcDbVertex
100
AcDb2dVertex
 10
8.73862628
 20
6.3129919671
 30
0.0
  0
VERTEX
  5
36A
330
1D8
100
AcDbEntity
  8
0
  6
CONTINUOUS
 62
     7
100
AcDbVertex
100
AcDb2dVertex
 10
8.7371303478
 20
6.3299432537
 30
0.0
  0
VERTEX
  5
36B
330
1D8
100
AcDbEntity
  8
0
  6
CONTINUOUS
 62
     7
100
AcDbVertex
100
AcDb2dVertex
 10
8.7371303478
 20
6.3478416799
 30
0.0
  0
VERTEX
  5
36C
330
1D8
100
AcDbEntity
  8
0
  6
CONTINUOUS
 62
     7
100
AcDbVertex
100
AcDb2dVertex
 10
8.73862628
 20
6.3665201331
 30
0.0
  0
VERTEX
  5
36D
330
1D8
100
AcDbEntity
  8
0
  6
CONTINUOUS
 62
     7
100
AcDbVertex
100
AcDb2dVertex
 10
8.7416041773
 20
6.3858042174
 30
0.0
  0
VERTEX
  5
36E
330
1D8
100
AcDbEntity
  8
0
  6
CONTINUOUS
 62
     7
100
AcDbVertex
100
AcDb2dVertex
 10
8.7460362359
 20
6.4055138827
 30
0.0
  0
VERTEX
  5
36F
330
1D8
100
AcDbEntity
  8
0
  6
CONTINUOUS
 62
     7
100
AcDbVertex
100
AcDb2dVertex
 10
8.7518810747
 20
6.425465105
 30
0.0
  0
VERTEX
  5
370
330
1D8
100
AcDbEntity
  8
0
  6
CONTINUOUS
 62
     7
100
AcDbVertex
100
AcDb2dVertex
 10
8.7590841223
 20
6.4454716052
 30
0.0
  0
VERTEX
  5
371
330
1D8
100
AcDbEntity
  8
0
  6
CONTINUOUS
 62
     7
100
AcDbVertex
100
AcDb2dVertex
 10
8.7675781255
 20
6.465346588
 30
0.0
  0
VERTEX
  5
372
330
1D8
100
AcDbEntity
  8
0
  6
CONTINUOUS
 62
     7
100
AcDbVertex
100
AcDb2dVertex
 10
8.7772837783
 20
6.484904486
 30
0.0
  0
VERTEX
  5
373
330
1D8
100
AcDbEntity
  8
0
  6
CONTINUOUS
 62
     7
100
AcDbVertex
100
AcDb2dVertex
 10
8.7881104615
 20
6.5039626924
 30
0.0
  0
VERTEX
  5
374
330
1D8
100
AcDbEntity
  8
0
  6
CONTINUOUS
 62
     7
100
AcDbVertex
100
AcDb2dVertex
 10
8.7999570893
 20
6.5223432659
 30
0.0
  0
VERTEX
  5
375
330
1D8
100
AcDbEntity
  8
0
  6
CONTINUOUS
 62
     7
100
AcDbVertex
100
AcDb2dVertex
 10
8.812713053
 20
6.5398745919
 30
0.0
  0
VERTEX
  5
376
330
1D8
100
AcDbEntity
  8
0
  6
CONTINUOUS
 62
     7
100
AcDbVertex
100
AcDb2dVertex
 10
8.8262592535
 20
6.5563929853
 30
0.0
  0
VERTEX
  5
377
330
1D8
100
AcDbEntity
  8
0
  6
CONTINUOUS
 62
     7
100
AcDbVertex
100
AcDb2dVertex
 10
8.8404692137
 20
6.5717442183
 30
0.0
  0
VERTEX
  5
378
330
1D8
100
AcDbEntity
  8
0
  6
CONTINUOUS
 62
     7
100
AcDbVertex
100
AcDb2dVertex
 10
8.8552102589
 20
6.5857849604
 30
0.0
  0
VERTEX
  5
379
330
1D8
100
AcDbEntity
  8
0
  6
CONTINUOUS
 62
     7
100
AcDbVertex
100
AcDb2dVertex
 10
8.870344756
 20
6.5983841172
 30
0.0
  0
VERTEX
  5
37A
330
1D8
100
AcDbEntity
  8
0
  6
CONTINUOUS
 62
     7
100
AcDbVertex
100
AcDb2dVertex
 10
8.8857313983
 20
6.6094240536
 30
0.0
  0
VERTEX
  5
37B
330
1D8
100
AcDbEntity
  8
0
  6
CONTINUOUS
 62
     7
100
AcDbVertex
100
AcDb2dVertex
 10
8.9012265248
 20
6.6188016927
 30
0.0
  0
VERTEX
  5
37C
330
1D8
100
AcDbEntity
  8
0
  6
CONTINUOUS
 62
     7
100
AcDbVertex
100
AcDb2dVertex
 10
8.9166854617
 20
6.6264294781
 30
0.0
  0
VERTEX
  5
37D
330
1D8
100
AcDbEntity
  8
0
  6
CONTINUOUS
 62
     7
100
AcDbVertex
100
AcDb2dVertex
 10
8.9319638731
 20
6.6322361912
 30
0.0
  0
VERTEX
  5
37E
330
1D8
100
AcDbEntity
  8
0
  6
CONTINUOUS
 62
     7
100
AcDbVertex
100
AcDb2dVertex
 10
8.9469191086
 20
6.6361676162
 30
0.0
  0
VERTEX
  5
37F
330
1D8
100
AcDbEntity
  8
0
  6
CONTINUOUS
 62
     7
100
AcDbVertex
100
AcDb2dVertex
 10
8.9614115351
 20
6.6381870465
 30
0.0
  0
VERTEX
  5
380
330
1D8
100
AcDbEntity
  8
0
  6
CONTINUOUS
 62
     7
100
AcDbVertex
100
AcDb2dVertex
 10
8.9753058409
 20
6.6382756273
 30
0.0
  0
VERTEX
  5
381
330
1D8
100
AcDbEntity
  8
0
  6
CONTINUOUS
 62
     7
100
AcDbVertex
100
AcDb2dVertex
 10
8.9884722984
 20
6.6364325315
 30
0.0
  0
VERTEX
  5
382
330
1D8
100
AcDbEntity
  8
0
  6
CONTINUOUS
 62
     7
100
AcDbVertex
100
AcDb2dVertex
 10
9.0007879761
 20
6.6326749675
 30
0.0
  0
VERTEX
  5
383
330
1D8
100
AcDbEntity
  8
0
  6
CONTINUOUS
 62
     7
100
AcDbVertex
100
AcDb2dVertex
 10
9.0121378857
 20
6.6270380187
 30
0.0
  0
VERTEX
  5
384
330
1D8
100
AcDbEntity
  8
0
  6
CONTINUOUS
 62
     7
100
AcDbVertex
100
AcDb2dVertex
 10
9.0224160563
 20
6.6195743159
 30
0.0
  0
VERTEX
  5
385
330
1D8
100
AcDbEntity
  8
0
  6
CONTINUOUS
 62
     7
100
AcDbVertex
100
AcDb2dVertex
 10
9.0315265232
 20
6.6103535455
 30
0.0
  0
VERTEX
  5
386
330
1D8
100
AcDbEntity
  8
0
  6
CONTINUOUS
 62
     7
100
AcDbVertex
100
AcDb2dVertex
 10
9.0393842246
 20
6.5994617994
 30
0.0
  0
VERTEX
  5
387
330
1D8
100
AcDbEntity
  8
0
  6
CONTINUOUS
 62
     7
100
AcDbVertex
100
AcDb2dVertex
 10
9.0459157952
 20
6.587000771
 30
0.0
  0
VERTEX
  5
388
330
1D8
100
AcDbEntity
  8
0
  6
CONTINUOUS
 62
     7
100
AcDbVertex
100
AcDb2dVertex
 10
9.0510602515
 20
6.5730868055
 30
0.0
  0
VERTEX
  5
389
330
1D8
100
AcDbEntity
  8
0
  6
CONTINUOUS
 62
     7
100
AcDbVertex
100
AcDb2dVertex
 10
9.0547695611
 20
6.5578498138
 30
0.0
  0
VERTEX
  5
38A
330
1D8
100
AcDbEntity
  8
0
  6
CONTINUOUS
 62
     7
100
AcDbVertex
100
AcDb2dVertex
 10
9.0570090911
 20
6.5414320596
 30
0.0
  0
VERTEX
  5
38B
330
1D8
100
AcDbEntity
  8
0
  6
CONTINUOUS
 62
     7
100
AcDbVertex
100
AcDb2dVertex
 10
9.0577579317
 20
6.5239868311
 30
0.0
  0
SEQEND
  5
38C
330
1D8
100
AcDbEntity
  8
0
  6
CONTINUOUS
 62
     7
  0
SPLINE
  5
1D9
330
1F
100
AcDbEntity
  8
0
  6
CONTINUOUS
 62
     7
100
AcDbSpline
210
0.0
220
0.0
230
1.0
 70
     8
 71
     3
 72
    11
 73
     7
 74
     0
 42
0.00000001
 43
0.00000001
 40
0.0
 40
0.0
 40
0.0
 40
0.0
 40
0.36192294869152
 40
0.6858845262389461
 40
0.9709195418450315
 40
0.9999999999999999
 40
0.9999999999999999
 40
0.9999999999999999
 40
0.9999999999999999
 10
8.63189992728818
 20
7.145149624150037
 30
0.0
 10
8.63239145000982
 20
7.140129513803553
 30
0.0
 10
8.633322940622083
 20
7.130615842401633
 30
0.0
 10
8.640632917580124
 20
7.118277543154946
 30
0.0
 10
8.646991998715947
 20
7.110624614108223
 30
0.0
 10
8.651339026060052
 20
7.107620972649004
 30
0.0
 10
8.651741468974645
 20
7.107342898892493
 30
0.0
  0
SPLINE
  5
1DA
330
1F
100
AcDbEntity
  8
0
  6
CONTINUOUS
 62
     7
100
AcDbSpline
210
0.0
220
0.0
230
1.0
 70
     8
 71
     3
 72
     9
 73
     5
 74
     0
 42
0.00000001
 43
0.00000001
 40
0.0
 40
0.0
 40
0.0
 40
0.0
 40
0.4567313601027215
 40
1.0
 40
1.0
 40
1.0
 40
1.0
 10
8.819739753945099
 20
7.124436235843813
 30
0.0
 10
8.822172442948908
 20
7.127527586969716
 30
0.0
 10
8.827498744613992
 20
7.134296010152236
 30
0.0
 10
8.82830213285163
 20
7.141328377067683
 30
0.0
 10
8.8287385884868
 20
7.145148841477097
 30
0.0
  0
ARC
  5
1DB
330
1F
100
AcDbEntity
  8
0
  6
CONTINUOUS
 62
     7
100
AcDbCircle
 10
8.9318709475
 20
6.5384070595
 30
0.0
 40
0.0846971720049443
100
AcDbArc
 50
350.1972779614
 51
122.5160278794
  0
POLYLINE
  5
1DC
330
1F
100
AcDbEntity
  8
0
  6
CONTINUOUS
 62
     7
100
AcDb2dPolyline
 66
     1
 10
0.0
 20
0.0
 30
0.0
  0
VERTEX
  5
38D
330
1DC
100
AcDbEntity
  8
0
  6
CONTINUOUS
 62
     7
100
AcDbVertex
100
AcDb2dVertex
 10
8.7373193503
 20
6.3516823307
 30
0.0
  0
VERTEX
  5
38E
330
1DC
100
AcDbEntity
  8
0
  6
CONTINUOUS
 62
     7
100
AcDbVertex
100
AcDb2dVertex
 10
8.7386011246
 20
6.3394979573
 30
0.0
  0
VERTEX
  5
38F
330
1DC
100
AcDbEntity
  8
0
  6
CONTINUOUS
 62
     7
100
AcDbVertex
100
AcDb2dVertex
 10
8.7415325793
 20
6.3249911503
 30
0.0
  0
VERTEX
  5
390
330
1DC
100
AcDbEntity
  8
0
  6
CONTINUOUS
 62
     7
100
AcDbVertex
100
AcDb2dVertex
 10
8.7458908773
 20
6.3117419627
 30
0.0
  0
VERTEX
  5
391
330
1DC
100
AcDbEntity
  8
0
  6
CONTINUOUS
 62
     7
100
AcDbVertex
100
AcDb2dVertex
 10
8.7516298195
 20
6.2998908391
 30
0.0
  0
VERTEX
  5
392
330
1DC
100
AcDbEntity
  8
0
  6
CONTINUOUS
 62
     7
100
AcDbVertex
100
AcDb2dVertex
 10
8.7586885718
 20
6.2895634044
 30
0.0
  0
VERTEX
  5
393
330
1DC
100
AcDbEntity
  8
0
  6
CONTINUOUS
 62
     7
100
AcDbVertex
100
AcDb2dVertex
 10
8.7669923095
 20
6.280869132
 30
0.0
  0
VERTEX
  5
394
330
1DC
100
AcDbEntity
  8
0
  6
CONTINUOUS
 62
     7
100
AcDbVertex
100
AcDb2dVertex
 10
8.776453011
 20
6.2739001834
 30
0.0
  0
VERTEX
  5
395
330
1DC
100
AcDbEntity
  8
0
  6
CONTINUOUS
 62
     7
100
AcDbVertex
100
AcDb2dVertex
 10
8.7869703906
 20
6.268730431
 30
0.0
  0
VERTEX
  5
396
330
1DC
100
AcDbEntity
  8
0
  6
CONTINUOUS
 62
     7
100
AcDbVertex
100
AcDb2dVertex
 10
8.7984329613
 20
6.2654146757
 30
0.0
  0
VERTEX
  5
397
330
1DC
100
AcDbEntity
  8
0
  6
CONTINUOUS
 62
     7
100
AcDbVertex
100
AcDb2dVertex
 10
8.8107192171
 20
6.2639880651
 30
0.0
  0
VERTEX
  5
398
330
1DC
100
AcDbEntity
  8
0
  6
CONTINUOUS
 62
     7
100
AcDbVertex
100
AcDb2dVertex
 10
8.8236989206
 20
6.2644657218
 30
0.0
  0
VERTEX
  5
399
330
1DC
100
AcDbEntity
  8
0
  6
CONTINUOUS
 62
     7
100
AcDbVertex
100
AcDb2dVertex
 10
8.8372344837
 20
6.2668425825
 30
0.0
  0
VERTEX
  5
39A
330
1DC
100
AcDbEntity
  8
0
  6
CONTINUOUS
 62
     7
100
AcDbVertex
100
AcDb2dVertex
 10
8.8511824261
 20
6.2710934518
 30
0.0
  0
VERTEX
  5
39B
330
1DC
100
AcDbEntity
  8
0
  6
CONTINUOUS
 62
     7
100
AcDbVertex
100
AcDb2dVertex
 10
8.8653948961
 20
6.2771732695
 30
0.0
  0
VERTEX
  5
39C
330
1DC
100
AcDbEntity
  8
0
  6
CONTINUOUS
 62
     7
100
AcDbVertex
100
AcDb2dVertex
 10
8.879721238
 20
6.285017588
 30
0.0
  0
VERTEX
  5
39D
330
1DC
100
AcDbEntity
  8
0
  6
CONTINUOUS
 62
     7
100
AcDbVertex
100
AcDb2dVertex
 10
8.8940095891
 20
6.2945432555
 30
0.0
  0
VERTEX
  5
39E
330
1DC
100
AcDbEntity
  8
0
  6
CONTINUOUS
 62
     7
100
AcDbVertex
100
AcDb2dVertex
 10
8.9081084891
 20
6.3056492977
 30
0.0
  0
VERTEX
  5
39F
330
1DC
100
AcDbEntity
  8
0
  6
CONTINUOUS
 62
     7
100
AcDbVertex
100
AcDb2dVertex
 10
8.9218684864
 20
6.3182179877
 30
0.0
  0
VERTEX
  5
3A0
330
1DC
100
AcDbEntity
  8
0
  6
CONTINUOUS
 62
     7
100
AcDbVertex
100
AcDb2dVertex
 10
8.9351437215
 20
6.3321160942
 30
0.0
  0
VERTEX
  5
3A1
330
1DC
100
AcDbEntity
  8
0
  6
CONTINUOUS
 62
     7
100
AcDbVertex
100
AcDb2dVertex
 10
8.9477934736
 20
6.3471962939
 30
0.0
  0
VERTEX
  5
3A2
330
1DC
100
AcDbEntity
  8
0
  6
CONTINUOUS
 62
     7
100
AcDbVertex
100
AcDb2dVertex
 10
8.9596836521
 20
6.363298733
 30
0.0
  0
VERTEX
  5
3A3
330
1DC
100
AcDbEntity
  8
0
  6
CONTINUOUS
 62
     7
100
AcDbVertex
100
AcDb2dVertex
 10
8.9706882183
 20
6.3802527215
 30
0.0
  0
VERTEX
  5
3A4
330
1DC
100
AcDbEntity
  8
0
  6
CONTINUOUS
 62
     7
100
AcDbVertex
100
AcDb2dVertex
 10
8.980690521
 20
6.397878543
 30
0.0
  0
VERTEX
  5
3A5
330
1DC
100
AcDbEntity
  8
0
  6
CONTINUOUS
 62
     7
100
AcDbVertex
100
AcDb2dVertex
 10
8.9895845333
 20
6.4159893593
 30
0.0
  0
VERTEX
  5
3A6
330
1DC
100
AcDbEntity
  8
0
  6
CONTINUOUS
 62
     7
100
AcDbVertex
100
AcDb2dVertex
 10
8.9972759764
 20
6.4343931914
 30
0.0
  0
VERTEX
  5
3A7
330
1DC
100
AcDbEntity
  8
0
  6
CONTINUOUS
 62
     7
100
AcDbVertex
100
AcDb2dVertex
 10
9.0036833192
 20
6.4528949539
 30
0.0
  0
VERTEX
  5
3A8
330
1DC
100
AcDbEntity
  8
0
  6
CONTINUOUS
 62
     7
100
AcDbVertex
100
AcDb2dVertex
 10
9.0087386422
 20
6.4712985237
 30
0.0
  0
VERTEX
  5
3A9
330
1DC
100
AcDbEntity
  8
0
  6
CONTINUOUS
 62
     7
100
AcDbVertex
100
AcDb2dVertex
 10
9.0123883578
 20
6.4894088183
 30
0.0
  0
VERTEX
  5
3AA
330
1DC
100
AcDbEntity
  8
0
  6
CONTINUOUS
 62
     7
100
AcDbVertex
100
AcDb2dVertex
 10
9.014593778
 20
6.507033864
 30
0.0
  0
VERTEX
  5
3AB
330
1DC
100
AcDbEntity
  8
0
  6
CONTINUOUS
 62
     7
100
AcDbVertex
100
AcDb2dVertex
 10
9.0153315248
 20
6.5239868311
 30
0.0
  0
SEQEND
  5
3AC
330
1DC
100
AcDbEntity
  8
0
  6
CONTINUOUS
 62
     7
  0
SPLINE
  5
1DD
330
1F
100
AcDbEntity
  8
0
  6
CONTINUOUS
 62
     7
100
AcDbSpline
210
0.0
220
0.0
230
1.0
 70
     8
 71
     3
 72
    25
 73
    21
 74
     0
 42
0.00000001
 43
0.00000001
 40
0.0
 40
0.0
 40
0.0
 40
0.0
 40
0.0242310634114945
 40
0.0878525161503387
 40
0.1536501469640058
 40
0.2119678274669684
 40
0.2722751710876045
 40
0.3262362566196365
 40
0.3816862908358471
 40
0.4372988436275203
 40
0.4942559634560575
 40
0.5552997816833789
 40
0.6179488658044782
 40
0.6816533027195748
 40
0.7475921520226565
 40
0.8051178543944659
 40
0.8646894304469178
 40
0.9169851650071097
 40
0.9706258506416041
 40
1.0
 40
1.0
 40
1.0
 40
1.0
 10
8.918366343907257
 20
6.620710638795211
 30
0.0
 10
8.919714756929665
 20
6.619032933894582
 30
0.0
 10
8.924603583920728
 20
6.612950221205709
 30
0.0
 10
8.931057651574905
 20
6.601520627437126
 30
0.0
 10
8.936757598689288
 20
6.587259872418362
 30
0.0
 10
8.939358822545877
 20
6.573154536921251
 30
0.0
 10
8.939072205698052
 20
6.560311892424806
 30
0.0
 10
8.936201819251997
 20
6.548442534855975
 30
0.0
 10
8.931178527674142
 20
6.537926918516612
 30
0.0
 10
8.924037073417697
 20
6.528569711408678
 30
0.0
 10
8.91488795620603
 20
6.520554325114651
 30
0.0
 10
8.903845251682021
 20
6.514247419794196
 30
0.0
 10
8.891217429560998
 20
6.510181000552804
 30
0.0
 10
8.877576746055773
 20
6.508908279959954
 30
0.0
 10
8.864230012409406
 20
6.510875079379696
 30
0.0
 10
8.851795144227529
 20
6.51595216961387
 30
0.0
 10
8.841260695429828
 20
6.523320424353347
 30
0.0
 10
8.83226015032211
 20
6.532784687587049
 30
0.0
 10
8.825732159120081
 20
6.541758002413302
 30
0.0
 10
8.82253132742952
 20
6.548135445855985
 30
0.0
 10
8.821398738198235
 20
6.550392054282975
 30
0.0
  0
ARC
  5
1DE
330
1F
100
AcDbEntity
  8
0
  6
CONTINUOUS
 62
     7
100
AcDbCircle
 10
8.0743570461
 20
6.9064895769
 30
0.0
 40
1.161329230204455
100
AcDbArc
 50
122.5428334731
 51
177.4625430596
  0
SPLINE
  5
1DF
330
1F
100
AcDbEntity
  8
0
  6
CONTINUOUS
 62
     7
100
AcDbSpline
210
0.0
220
0.0
230
1.0
 70
     8
 71
     3
 72
    11
 73
     7
 74
     0
 42
0.00000001
 43
0.00000001
 40
0.0
 40
0.0
 40
0.0
 40
0.0
 40
0.3619229486911604
 40
0.6858845262386486
 40
0.9709195418452166
 40
1.0
 40
1.0
 40
1.0
 40
1.0
 10
7.518345941167635
 20
7.787990657081304
 30
0.0
 10
7.518837463889274
 20
7.78297054673483
 30
0.0
 10
7.519768954501532
 20
7.773456875332919
 30
0.0
 10
7.527078931459557
 20
7.76111857608624
 30
0.0
 10
7.533438012595369
 20
7.753465647039516
 30
0.0
 10
7.537785039939476
 20
7.750462005580297
 30
0.0
 10
7.538187482854065
 20
7.750183931823787
 30
0.0
  0
SPLINE
  5
1E0
330
1F
100
AcDbEntity
  8
0
  6
CONTINUOUS
 62
     7
100
AcDbSpline
210
0.0
220
0.0
230
1.0
 70
     8
 71
     3
 72
     9
 73
     5
 74
     0
 42
0.00000001
 43
0.00000001
 40
0.0
 40
0.0
 40
0.0
 40
0.0
 40
0.4567313601104715
 40
1.0
 40
1.0
 40
1.0
 40
1.0
 10
7.706185767824592
 20
7.767277268775101
 30
0.0
 10
7.708618456828423
 20
7.770368619901062
 30
0.0
 10
7.713944758493459
 20
7.77713704308359
 30
0.0
 10
7.714748146731092
 20
7.784169409999016
 30
0.0
 10
7.715184602366254
 20
7.787989874408364
 30
0.0
  0
ARC
  5
1E1
330
1F
100
AcDbEntity
  8
0
  6
CONTINUOUS
 62
     7
100
AcDbCircle
 10
8.8174559448
 20
6.5733024966
 30
0.0
 40
0.1075484661716838
100
AcDbArc
 50
1.5189688814
 51
25.8659613083
  0
POLYLINE
  5
1E2
330
1F
100
AcDbEntity
  8
0
  6
CONTINUOUS
 62
     7
100
AcDb2dPolyline
 66
     1
 10
0.0
 20
0.0
 30
0.0
  0
VERTEX
  5
3AD
330
1E2
100
AcDbEntity
  8
0
  6
CONTINUOUS
 62
     7
100
AcDbVertex
100
AcDb2dVertex
 10
8.8398797234
 20
6.5711442167
 30
0.0
  0
VERTEX
  5
3AE
330
1E2
100
AcDbEntity
  8
0
  6
CONTINUOUS
 62
     7
100
AcDbVertex
100
AcDb2dVertex
 10
8.8472356152
 20
6.5623828153
 30
0.0
  0
VERTEX
  5
3AF
330
1E2
100
AcDbEntity
  8
0
  6
CONTINUOUS
 62
     7
100
AcDbVertex
100
AcDb2dVertex
 10
8.8558982355
 20
6.5539478627
 30
0.0
  0
VERTEX
  5
3B0
330
1E2
100
AcDbEntity
  8
0
  6
CONTINUOUS
 62
     7
100
AcDbVertex
100
AcDb2dVertex
 10
8.8649321937
 20
6.5469918631
 30
0.0
  0
VERTEX
  5
3B1
330
1E2
100
AcDbEntity
  8
0
  6
CONTINUOUS
 62
     7
100
AcDbVertex
100
AcDb2dVertex
 10
8.874091067
 20
6.5417045581
 30
0.0
  0
VERTEX
  5
3B2
330
1E2
100
AcDbEntity
  8
0
  6
CONTINUOUS
 62
     7
100
AcDbVertex
100
AcDb2dVertex
 10
8.8831250252
 20
6.5382301715
 30
0.0
  0
VERTEX
  5
3B3
330
1E2
100
AcDbEntity
  8
0
  6
CONTINUOUS
 62
     7
100
AcDbVertex
100
AcDb2dVertex
 10
8.8917876455
 20
6.5366634756
 30
0.0
  0
VERTEX
  5
3B4
330
1E2
100
AcDbEntity
  8
0
  6
CONTINUOUS
 62
     7
100
AcDbVertex
100
AcDb2dVertex
 10
8.8998426341
 20
6.5370472058
 30
0.0
  0
VERTEX
  5
3B5
330
1E2
100
AcDbEntity
  8
0
  6
CONTINUOUS
 62
     7
100
AcDbVertex
100
AcDb2dVertex
 10
8.9070702721
 20
6.5393708948
 30
0.0
  0
VERTEX
  5
3B6
330
1E2
100
AcDbEntity
  8
0
  6
CONTINUOUS
 62
     7
100
AcDbVertex
100
AcDb2dVertex
 10
8.9132734082
 20
6.5435711586
 30
0.0
  0
VERTEX
  5
3B7
330
1E2
100
AcDbEntity
  8
0
  6
CONTINUOUS
 62
     7
100
AcDbVertex
100
AcDb2dVertex
 10
8.9182828371
 20
6.5495334248
 30
0.0
  0
VERTEX
  5
3B8
330
1E2
100
AcDbEntity
  8
0
  6
CONTINUOUS
 62
     7
100
AcDbVertex
100
AcDb2dVertex
 10
8.9219619146
 20
6.5570950585
 30
0.0
  0
VERTEX
  5
3B9
330
1E2
100
AcDbEntity
  8
0
  6
CONTINUOUS
 62
     7
100
AcDbVertex
100
AcDb2dVertex
 10
8.9242102851
 20
6.5660497978
 30
0.0
  0
VERTEX
  5
3BA
330
1E2
100
AcDbEntity
  8
0
  6
CONTINUOUS
 62
     7
100
AcDbVertex
100
AcDb2dVertex
 10
8.9249666188
 20
6.5761533809
 30
0.0
  0
SEQEND
  5
3BB
330
1E2
100
AcDbEntity
  8
0
  6
CONTINUOUS
 62
     7
  0
ARC
  5
1E3
330
1F
100
AcDbEntity
  8
0
  6
CONTINUOUS
 62
     7
100
AcDbCircle
 10
8.9146355365
 20
6.583325713
 30
0.0
 40
0.0565968398372066
100
AcDbArc
 50
236.7966922142
 51
278.8924208335
  0
POLYLINE
  5
1E4
330
1F
100
AcDbEntity
  8
0
  6
CONTINUOUS
 62
     7
100
AcDb2dPolyline
 66
     1
 10
0.0
 20
0.0
 30
0.0
  0
VERTEX
  5
3BC
330
1E4
100
AcDbEntity
  8
0
  6
CONTINUOUS
 62
     7
100
AcDbVertex
100
AcDb2dVertex
 10
7.6863605201
 20
7.7570899086
 30
0.0
  0
VERTEX
  5
3BD
330
1E4
100
AcDbEntity
  8
0
  6
CONTINUOUS
 62
     7
100
AcDbVertex
100
AcDb2dVertex
 10
7.6957522717
 20
7.7633679664
 30
0.0
  0
VERTEX
  5
3BE
330
1E4
100
AcDbEntity
  8
0
  6
CONTINUOUS
 62
     7
100
AcDbVertex
100
AcDb2dVertex
 10
7.7034605125
 20
7.7703685334
 30
0.0
  0
VERTEX
  5
3BF
330
1E4
100
AcDbEntity
  8
0
  6
CONTINUOUS
 62
     7
100
AcDbVertex
100
AcDb2dVertex
 10
7.7093209549
 20
7.7779424045
 30
0.0
  0
VERTEX
  5
3C0
330
1E4
100
AcDbEntity
  8
0
  6
CONTINUOUS
 62
     7
100
AcDbVertex
100
AcDb2dVertex
 10
7.7132086935
 20
7.785928156
 30
0.0
  0
VERTEX
  5
3C1
330
1E4
100
AcDbEntity
  8
0
  6
CONTINUOUS
 62
     7
100
AcDbVertex
100
AcDb2dVertex
 10
7.7150408681
 20
7.7941555853
 30
0.0
  0
VERTEX
  5
3C2
330
1E4
100
AcDbEntity
  8
0
  6
CONTINUOUS
 62
     7
100
AcDbVertex
100
AcDb2dVertex
 10
7.714778429
 20
7.8024493391
 30
0.0
  0
VERTEX
  5
3C3
330
1E4
100
AcDbEntity
  8
0
  6
CONTINUOUS
 62
     7
100
AcDbVertex
100
AcDb2dVertex
 10
7.7124269697
 20
7.8106326504
 30
0.0
  0
VERTEX
  5
3C4
330
1E4
100
AcDbEntity
  8
0
  6
CONTINUOUS
 62
     7
100
AcDbVertex
100
AcDb2dVertex
 10
7.7080366073
 20
7.8185311062
 30
0.0
  0
VERTEX
  5
3C5
330
1E4
100
AcDbEntity
  8
0
  6
CONTINUOUS
 62
     7
100
AcDbVertex
100
AcDb2dVertex
 10
7.7017009149
 20
7.8259763645
 30
0.0
  0
VERTEX
  5
3C6
330
1E4
100
AcDbEntity
  8
0
  6
CONTINUOUS
 62
     7
100
AcDbVertex
100
AcDb2dVertex
 10
7.6935549268
 20
7.8328097427
 30
0.0
  0
VERTEX
  5
3C7
330
1E4
100
AcDbEntity
  8
0
  6
CONTINUOUS
 62
     7
100
AcDbVertex
100
AcDb2dVertex
 10
7.6863718288
 20
7.8374385082
 30
0.0
  0
SEQEND
  5
3C8
330
1E4
100
AcDbEntity
  8
0
  6
CONTINUOUS
 62
     7
  0
POLYLINE
  5
1E5
330
1F
100
AcDbEntity
  8
0
  6
CONTINUOUS
 62
     7
100
AcDb2dPolyline
 66
     1
 10
0.0
 20
0.0
 30
0.0
  0
VERTEX
  5
3C9
330
1E5
100
AcDbEntity
  8
0
  6
CONTINUOUS
 62
     7
100
AcDbVertex
100
AcDb2dVertex
 10
7.5471549631
 20
7.8374385082
 30
0.0
  0
VERTEX
  5
3CA
330
1E5
100
AcDbEntity
  8
0
  6
CONTINUOUS
 62
     7
100
AcDbVertex
100
AcDb2dVertex
 10
7.5422716732
 20
7.8344050814
 30
0.0
  0
VERTEX
  5
3CB
330
1E5
100
AcDbEntity
  8
0
  6
CONTINUOUS
 62
     7
100
AcDbVertex
100
AcDb2dVertex
 10
7.533698807
 20
7.8277480098
 30
0.0
  0
VERTEX
  5
3CC
330
1E5
100
AcDbEntity
  8
0
  6
CONTINUOUS
 62
     7
100
AcDbVertex
100
AcDb2dVertex
 10
7.5268963183
 20
7.8204412985
 30
0.0
  0
VERTEX
  5
3CD
330
1E5
100
AcDbEntity
  8
0
  6
CONTINUOUS
 62
     7
100
AcDbVertex
100
AcDb2dVertex
 10
7.5220091903
 20
7.8126406773
 30
0.0
  0
VERTEX
  5
3CE
330
1E5
100
AcDbEntity
  8
0
  6
CONTINUOUS
 62
     7
100
AcDbVertex
100
AcDb2dVertex
 10
7.5191415837
 20
7.804512403
 30
0.0
  0
VERTEX
  5
3CF
330
1E5
100
AcDbEntity
  8
0
  6
CONTINUOUS
 62
     7
100
AcDbVertex
100
AcDb2dVertex
 10
7.5183546166
 20
7.7962297156
 30
0.0
  0
VERTEX
  5
3D0
330
1E5
100
AcDbEntity
  8
0
  6
CONTINUOUS
 62
     7
100
AcDbVertex
100
AcDb2dVertex
 10
7.5196650617
 20
7.7879691462
 30
0.0
  0
VERTEX
  5
3D1
330
1E5
100
AcDbEntity
  8
0
  6
CONTINUOUS
 62
     7
100
AcDbVertex
100
AcDb2dVertex
 10
7.5230449893
 20
7.7799067545
 30
0.0
  0
VERTEX
  5
3D2
330
1E5
100
AcDbEntity
  8
0
  6
CONTINUOUS
 62
     7
100
AcDbVertex
100
AcDb2dVertex
 10
7.528422362
 20
7.7722143764
 30
0.0
  0
VERTEX
  5
3D3
330
1E5
100
AcDbEntity
  8
0
  6
CONTINUOUS
 62
     7
100
AcDbVertex
100
AcDb2dVertex
 10
7.5356825704
 20
7.7650559615
 30
0.0
  0
VERTEX
  5
3D4
330
1E5
100
AcDbEntity
  8
0
  6
CONTINUOUS
 62
     7
100
AcDbVertex
100
AcDb2dVertex
 10
7.5446708759
 20
7.758584079
 30
0.0
  0
VERTEX
  5
3D5
330
1E5
100
AcDbEntity
  8
0
  6
CONTINUOUS
 62
     7
100
AcDbVertex
100
AcDb2dVertex
 10
7.5551957082
 20
7.752936666
 30
0.0
  0
VERTEX
  5
3D6
330
1E5
100
AcDbEntity
  8
0
  6
CONTINUOUS
 62
     7
100
AcDbVertex
100
AcDb2dVertex
 10
7.567032749
 20
7.7482340871
 30
0.0
  0
VERTEX
  5
3D7
330
1E5
100
AcDbEntity
  8
0
  6
CONTINUOUS
 62
     7
100
AcDbVertex
100
AcDb2dVertex
 10
7.5799297121
 20
7.7445765698
 30
0.0
  0
VERTEX
  5
3D8
330
1E5
100
AcDbEntity
  8
0
  6
CONTINUOUS
 62
     7
100
AcDbVertex
100
AcDb2dVertex
 10
7.5936117213
 20
7.7420420675
 30
0.0
  0
VERTEX
  5
3D9
330
1E5
100
AcDbEntity
  8
0
  6
CONTINUOUS
 62
     7
100
AcDbVertex
100
AcDb2dVertex
 10
7.6077871682
 20
7.7406845989
 30
0.0
  0
VERTEX
  5
3DA
330
1E5
100
AcDbEntity
  8
0
  6
CONTINUOUS
 62
     7
100
AcDbVertex
100
AcDb2dVertex
 10
7.6221539279
 20
7.7405330961
 30
0.0
  0
VERTEX
  5
3DB
330
1E5
100
AcDbEntity
  8
0
  6
CONTINUOUS
 62
     7
100
AcDbVertex
100
AcDb2dVertex
 10
7.6364057977
 20
7.7415907879
 30
0.0
  0
VERTEX
  5
3DC
330
1E5
100
AcDbEntity
  8
0
  6
CONTINUOUS
 62
     7
100
AcDbVertex
100
AcDb2dVertex
 10
7.6426741057
 20
7.7424520229
 30
0.0
  0
SEQEND
  5
3DD
330
1E5
100
AcDbEntity
  8
0
  6
CONTINUOUS
 62
     7
  0
LINE
  5
1E6
330
1F
100
AcDbEntity
  8
0
  6
CONTINUOUS
 62
     7
100
AcDbLine
 10
7.6782820396
 20
7.7529139813
 30
0.0
 11
7.6863605201
 21
7.7570899086
 31
0.0
  0
POLYLINE
  5
1E7
330
1F
100
AcDbEntity
  8
0
  6
CONTINUOUS
 62
     7
100
AcDb2dPolyline
 66
     1
 10
0.0
 20
0.0
 30
0.0
  0
VERTEX
  5
3DE
330
1E7
100
AcDbEntity
  8
0
  6
CONTINUOUS
 62
     7
100
AcDbVertex
100
AcDb2dVertex
 10
7.6722183844
 20
7.7815848059
 30
0.0
  0
VERTEX
  5
3DF
330
1E7
100
AcDbEntity
  8
0
  6
CONTINUOUS
 62
     7
100
AcDbVertex
100
AcDb2dVertex
 10
7.6623344596
 20
7.7767521819
 30
0.0
  0
VERTEX
  5
3E0
330
1E7
100
AcDbEntity
  8
0
  6
CONTINUOUS
 62
     7
100
AcDbVertex
100
AcDb2dVertex
 10
7.6512074749
 20
7.7729246237
 30
0.0
  0
VERTEX
  5
3E1
330
1E7
100
AcDbEntity
  8
0
  6
CONTINUOUS
 62
     7
100
AcDbVertex
100
AcDb2dVertex
 10
7.6391409455
 20
7.770206537
 30
0.0
  0
VERTEX
  5
3E2
330
1E7
100
AcDbEntity
  8
0
  6
CONTINUOUS
 62
     7
100
AcDbVertex
100
AcDb2dVertex
 10
7.6264640149
 20
7.7686720642
 30
0.0
  0
VERTEX
  5
3E3
330
1E7
100
AcDbEntity
  8
0
  6
CONTINUOUS
 62
     7
100
AcDbVertex
100
AcDb2dVertex
 10
7.6135224767
 20
7.7683630618
 30
0.0
  0
VERTEX
  5
3E4
330
1E7
100
AcDbEntity
  8
0
  6
CONTINUOUS
 62
     7
100
AcDbVertex
100
AcDb2dVertex
 10
7.6006693423
 20
7.7692879584
 30
0.0
  0
VERTEX
  5
3E5
330
1E7
100
AcDbEntity
  8
0
  6
CONTINUOUS
 62
     7
100
AcDbVertex
100
AcDb2dVertex
 10
7.5882552118
 20
7.7714215253
 30
0.0
  0
VERTEX
  5
3E6
330
1E7
100
AcDbEntity
  8
0
  6
CONTINUOUS
 62
     7
100
AcDbVertex
100
AcDb2dVertex
 10
7.5766187102
 20
7.7747055644
 30
0.0
  0
VERTEX
  5
3E7
330
1E7
100
AcDbEntity
  8
0
  6
CONTINUOUS
 62
     7
100
AcDbVertex
100
AcDb2dVertex
 10
7.566077251
 20
7.7790504957
 30
0.0
  0
VERTEX
  5
3E8
330
1E7
100
AcDbEntity
  8
0
  6
CONTINUOUS
 62
     7
100
AcDbVertex
100
AcDb2dVertex
 10
7.5569183777
 20
7.7843378007
 30
0.0
  0
VERTEX
  5
3E9
330
1E7
100
AcDbEntity
  8
0
  6
CONTINUOUS
 62
     7
100
AcDbVertex
100
AcDb2dVertex
 10
7.5493919205
 20
7.7904232556
 30
0.0
  0
VERTEX
  5
3EA
330
1E7
100
AcDbEntity
  8
0
  6
CONTINUOUS
 62
     7
100
AcDbVertex
100
AcDb2dVertex
 10
7.5437031815
 20
7.797140865
 30
0.0
  0
VERTEX
  5
3EB
330
1E7
100
AcDbEntity
  8
0
  6
CONTINUOUS
 62
     7
100
AcDbVertex
100
AcDb2dVertex
 10
7.5400073347
 20
7.80430739
 30
0.0
  0
VERTEX
  5
3EC
330
1E7
100
AcDbEntity
  8
0
  6
CONTINUOUS
 62
     7
100
AcDbVertex
100
AcDb2dVertex
 10
7.5384051932
 20
7.8117273465
 30
0.0
  0
VERTEX
  5
3ED
330
1E7
100
AcDbEntity
  8
0
  6
CONTINUOUS
 62
     7
100
AcDbVertex
100
AcDb2dVertex
 10
7.5389404591
 20
7.8191983375
 30
0.0
  0
VERTEX
  5
3EE
330
1E7
100
AcDbEntity
  8
0
  6
CONTINUOUS
 62
     7
100
AcDbVertex
100
AcDb2dVertex
 10
7.541598532
 20
7.8265165738
 30
0.0
  0
VERTEX
  5
3EF
330
1E7
100
AcDbEntity
  8
0
  6
CONTINUOUS
 62
     7
100
AcDbVertex
100
AcDb2dVertex
 10
7.5463069063
 20
7.8334824329
 30
0.0
  0
VERTEX
  5
3F0
330
1E7
100
AcDbEntity
  8
0
  6
CONTINUOUS
 62
     7
100
AcDbVertex
100
AcDb2dVertex
 10
7.5529371501
 20
7.8399059044
 30
0.0
  0
VERTEX
  5
3F1
330
1E7
100
AcDbEntity
  8
0
  6
CONTINUOUS
 62
     7
100
AcDbVertex
100
AcDb2dVertex
 10
7.5613084074
 20
7.8456117728
 30
0.0
  0
VERTEX
  5
3F2
330
1E7
100
AcDbEntity
  8
0
  6
CONTINUOUS
 62
     7
100
AcDbVertex
100
AcDb2dVertex
 10
7.5711923323
 20
7.8504443968
 30
0.0
  0
VERTEX
  5
3F3
330
1E7
100
AcDbEntity
  8
0
  6
CONTINUOUS
 62
     7
100
AcDbVertex
100
AcDb2dVertex
 10
7.582319317
 20
7.8542719551
 30
0.0
  0
VERTEX
  5
3F4
330
1E7
100
AcDbEntity
  8
0
  6
CONTINUOUS
 62
     7
100
AcDbVertex
100
AcDb2dVertex
 10
7.5943858464
 20
7.8569900417
 30
0.0
  0
VERTEX
  5
3F5
330
1E7
100
AcDbEntity
  8
0
  6
CONTINUOUS
 62
     7
100
AcDbVertex
100
AcDb2dVertex
 10
7.607062777
 20
7.8585245145
 30
0.0
  0
VERTEX
  5
3F6
330
1E7
100
AcDbEntity
  8
0
  6
CONTINUOUS
 62
     7
100
AcDbVertex
100
AcDb2dVertex
 10
7.6200043152
 20
7.858833517
 30
0.0
  0
VERTEX
  5
3F7
330
1E7
100
AcDbEntity
  8
0
  6
CONTINUOUS
 62
     7
100
AcDbVertex
100
AcDb2dVertex
 10
7.6328574495
 20
7.8579086204
 30
0.0
  0
VERTEX
  5
3F8
330
1E7
100
AcDbEntity
  8
0
  6
CONTINUOUS
 62
     7
100
AcDbVertex
100
AcDb2dVertex
 10
7.6452715801
 20
7.8557750534
 30
0.0
  0
VERTEX
  5
3F9
330
1E7
100
AcDbEntity
  8
0
  6
CONTINUOUS
 62
     7
100
AcDbVertex
100
AcDb2dVertex
 10
7.6569080817
 20
7.8524910143
 30
0.0
  0
VERTEX
  5
3FA
330
1E7
100
AcDbEntity
  8
0
  6
CONTINUOUS
 62
     7
100
AcDbVertex
100
AcDb2dVertex
 10
7.6674495409
 20
7.848146083
 30
0.0
  0
VERTEX
  5
3FB
330
1E7
100
AcDbEntity
  8
0
  6
CONTINUOUS
 62
     7
100
AcDbVertex
100
AcDb2dVertex
 10
7.6766084142
 20
7.842858778
 30
0.0
  0
VERTEX
  5
3FC
330
1E7
100
AcDbEntity
  8
0
  6
CONTINUOUS
 62
     7
100
AcDbVertex
100
AcDb2dVertex
 10
7.6841348714
 20
7.8367733232
 30
0.0
  0
VERTEX
  5
3FD
330
1E7
100
AcDbEntity
  8
0
  6
CONTINUOUS
 62
     7
100
AcDbVertex
100
AcDb2dVertex
 10
7.6898236104
 20
7.8300557138
 30
0.0
  0
VERTEX
  5
3FE
330
1E7
100
AcDbEntity
  8
0
  6
CONTINUOUS
 62
     7
100
AcDbVertex
100
AcDb2dVertex
 10
7.6935194572
 20
7.8228891888
 30
0.0
  0
VERTEX
  5
3FF
330
1E7
100
AcDbEntity
  8
0
  6
CONTINUOUS
 62
     7
100
AcDbVertex
100
AcDb2dVertex
 10
7.6951215987
 20
7.8154692322
 30
0.0
  0
VERTEX
  5
400
330
1E7
100
AcDbEntity
  8
0
  6
CONTINUOUS
 62
     7
100
AcDbVertex
100
AcDb2dVertex
 10
7.6945863327
 20
7.8079982412
 30
0.0
  0
VERTEX
  5
401
330
1E7
100
AcDbEntity
  8
0
  6
CONTINUOUS
 62
     7
100
AcDbVertex
100
AcDb2dVertex
 10
7.6919282599
 20
7.800680005
 30
0.0
  0
VERTEX
  5
402
330
1E7
100
AcDbEntity
  8
0
  6
CONTINUOUS
 62
     7
100
AcDbVertex
100
AcDb2dVertex
 10
7.6872198855
 20
7.7937141458
 30
0.0
  0
VERTEX
  5
403
330
1E7
100
AcDbEntity
  8
0
  6
CONTINUOUS
 62
     7
100
AcDbVertex
100
AcDb2dVertex
 10
7.6805896418
 20
7.7872906743
 30
0.0
  0
VERTEX
  5
404
330
1E7
100
AcDbEntity
  8
0
  6
CONTINUOUS
 62
     7
100
AcDbVertex
100
AcDb2dVertex
 10
7.6722183844
 20
7.7815848059
 30
0.0
  0
SEQEND
  5
405
330
1E7
100
AcDbEntity
  8
0
  6
CONTINUOUS
 62
     7
  0
LINE
  5
1E8
330
1F
100
AcDbEntity
  8
0
  6
CONTINUOUS
 62
     7
100
AcDbLine
 10
7.5529610956
 20
7.8234674701
 30
0.0
 11
7.5996676211
 21
7.8504305734
 31
0.0
  0
LINE
  5
1E9
330
1F
100
AcDbEntity
  8
0
  6
CONTINUOUS
 62
     7
100
AcDbLine
 10
7.5700568705
 20
7.7866351861
 30
0.0
 11
7.5529610956
 21
7.8234674701
 31
0.0
  0
LINE
  5
1EA
330
1F
100
AcDbEntity
  8
0
  6
CONTINUOUS
 62
     7
100
AcDbLine
 10
7.6338591708
 20
7.7767660054
 30
0.0
 11
7.5700568705
 21
7.7866351861
 31
0.0
  0
LINE
  5
1EB
330
1F
100
AcDbEntity
  8
0
  6
CONTINUOUS
 62
     7
100
AcDbLine
 10
7.6805656963
 20
7.8037291086
 30
0.0
 11
7.6338591708
 21
7.7767660054
 31
0.0
  0
LINE
  5
1EC
330
1F
100
AcDbEntity
  8
0
  6
CONTINUOUS
 62
     7
100
AcDbLine
 10
7.6634699214
 20
7.8405613926
 30
0.0
 11
7.6805656963
 21
7.8037291086
 31
0.0
  0
LINE
  5
1ED
330
1F
100
AcDbEntity
  8
0
  6
CONTINUOUS
 62
     7
100
AcDbLine
 10
7.5996676211
 20
7.8504305734
 30
0.0
 11
7.6634699214
 21
7.8405613926
 31
0.0
  0
LINE
  5
1EE
330
1F
100
AcDbEntity
  8
0
  6
CONTINUOUS
 62
     7
100
AcDbLine
 10
7.6634699214
 20
7.7938599279
 30
0.0
 11
7.6634699214
 21
7.8405613926
 31
0.0
  0
LINE
  5
1EF
330
1F
100
AcDbEntity
  8
0
  6
CONTINUOUS
 62
     7
100
AcDbLine
 10
7.5996676211
 20
7.7820548834
 30
0.0
 11
7.5996676211
 21
7.8504305734
 31
0.0
  0
POLYLINE
  5
1F0
330
1F
100
AcDbEntity
  8
0
  6
CONTINUOUS
 62
     7
100
AcDb2dPolyline
 66
     1
 10
0.0
 20
0.0
 30
0.0
  0
VERTEX
  5
406
330
1F0
100
AcDbEntity
  8
0
  6
CONTINUOUS
 62
     7
100
AcDbVertex
100
AcDb2dVertex
 10
8.7999258149
 20
7.1945974753
 30
0.0
  0
VERTEX
  5
407
330
1F0
100
AcDbEntity
  8
0
  6
CONTINUOUS
 62
     7
100
AcDbVertex
100
AcDb2dVertex
 10
8.8024099021
 20
7.1931098343
 30
0.0
  0
VERTEX
  5
408
330
1F0
100
AcDbEntity
  8
0
  6
CONTINUOUS
 62
     7
100
AcDbVertex
100
AcDb2dVertex
 10
8.8113982076
 20
7.1866379519
 30
0.0
  0
VERTEX
  5
409
330
1F0
100
AcDbEntity
  8
0
  6
CONTINUOUS
 62
     7
100
AcDbVertex
100
AcDb2dVertex
 10
8.818658416
 20
7.179479537
 30
0.0
  0
VERTEX
  5
40A
330
1F0
100
AcDbEntity
  8
0
  6
CONTINUOUS
 62
     7
100
AcDbVertex
100
AcDb2dVertex
 10
8.8240357887
 20
7.1717871588
 30
0.0
  0
VERTEX
  5
40B
330
1F0
100
AcDbEntity
  8
0
  6
CONTINUOUS
 62
     7
100
AcDbVertex
100
AcDb2dVertex
 10
8.8274157163
 20
7.1637247671
 30
0.0
  0
VERTEX
  5
40C
330
1F0
100
AcDbEntity
  8
0
  6
CONTINUOUS
 62
     7
100
AcDbVertex
100
AcDb2dVertex
 10
8.8287261614
 20
7.1554641977
 30
0.0
  0
VERTEX
  5
40D
330
1F0
100
AcDbEntity
  8
0
  6
CONTINUOUS
 62
     7
100
AcDbVertex
100
AcDb2dVertex
 10
8.8279391943
 20
7.1471815103
 30
0.0
  0
VERTEX
  5
40E
330
1F0
100
AcDbEntity
  8
0
  6
CONTINUOUS
 62
     7
100
AcDbVertex
100
AcDb2dVertex
 10
8.8250715877
 20
7.139053236
 30
0.0
  0
VERTEX
  5
40F
330
1F0
100
AcDbEntity
  8
0
  6
CONTINUOUS
 62
     7
100
AcDbVertex
100
AcDb2dVertex
 10
8.8201844597
 20
7.1312526148
 30
0.0
  0
VERTEX
  5
410
330
1F0
100
AcDbEntity
  8
0
  6
CONTINUOUS
 62
     7
100
AcDbVertex
100
AcDb2dVertex
 10
8.813381971
 20
7.1239459035
 30
0.0
  0
VERTEX
  5
411
330
1F0
100
AcDbEntity
  8
0
  6
CONTINUOUS
 62
     7
100
AcDbVertex
100
AcDb2dVertex
 10
8.8048091048
 20
7.117288832
 30
0.0
  0
VERTEX
  5
412
330
1F0
100
AcDbEntity
  8
0
  6
CONTINUOUS
 62
     7
100
AcDbVertex
100
AcDb2dVertex
 10
8.7946485768
 20
7.111423284
 30
0.0
  0
VERTEX
  5
413
330
1F0
100
AcDbEntity
  8
0
  6
CONTINUOUS
 62
     7
100
AcDbVertex
100
AcDb2dVertex
 10
8.7856904303
 20
7.1074515884
 30
0.0
  0
SEQEND
  5
414
330
1F0
100
AcDbEntity
  8
0
  6
CONTINUOUS
 62
     7
  0
POLYLINE
  5
1F1
330
1F
100
AcDbEntity
  8
0
  6
CONTINUOUS
 62
     7
100
AcDb2dPolyline
 66
     1
 10
0.0
 20
0.0
 30
0.0
  0
VERTEX
  5
415
330
1F1
100
AcDbEntity
  8
0
  6
CONTINUOUS
 62
     7
100
AcDbVertex
100
AcDb2dVertex
 10
8.7617284283
 20
7.1005779486
 30
0.0
  0
VERTEX
  5
416
330
1F1
100
AcDbEntity
  8
0
  6
CONTINUOUS
 62
     7
100
AcDbVertex
100
AcDb2dVertex
 10
8.7569474383
 20
7.0997260016
 30
0.0
  0
VERTEX
  5
417
330
1F1
100
AcDbEntity
  8
0
  6
CONTINUOUS
 62
     7
100
AcDbVertex
100
AcDb2dVertex
 10
8.7428673286
 20
7.0980705676
 30
0.0
  0
VERTEX
  5
418
330
1F1
100
AcDbEntity
  8
0
  6
CONTINUOUS
 62
     7
100
AcDbVertex
100
AcDb2dVertex
 10
8.7285197386
 20
7.0976162611
 30
0.0
  0
VERTEX
  5
419
330
1F1
100
AcDbEntity
  8
0
  6
CONTINUOUS
 62
     7
100
AcDbVertex
100
AcDb2dVertex
 10
8.7142104622
 20
7.098372765
 30
0.0
  0
VERTEX
  5
41A
330
1F1
100
AcDbEntity
  8
0
  6
CONTINUOUS
 62
     7
100
AcDbVertex
100
AcDb2dVertex
 10
8.7002444769
 20
7.1003239556
 30
0.0
  0
VERTEX
  5
41B
330
1F1
100
AcDbEntity
  8
0
  6
CONTINUOUS
 62
     7
100
AcDbVertex
100
AcDb2dVertex
 10
8.6869194433
 20
7.1034282468
 30
0.0
  0
VERTEX
  5
41C
330
1F1
100
AcDbEntity
  8
0
  6
CONTINUOUS
 62
     7
100
AcDbVertex
100
AcDb2dVertex
 10
8.6745193614
 20
7.1076194759
 30
0.0
  0
VERTEX
  5
41D
330
1F1
100
AcDbEntity
  8
0
  6
CONTINUOUS
 62
     7
100
AcDbVertex
100
AcDb2dVertex
 10
8.6633085175
 20
7.1128083142
 30
0.0
  0
VERTEX
  5
41E
330
1F1
100
AcDbEntity
  8
0
  6
CONTINUOUS
 62
     7
100
AcDbVertex
100
AcDb2dVertex
 10
8.6535258512
 20
7.1188841706
 30
0.0
  0
VERTEX
  5
41F
330
1F1
100
AcDbEntity
  8
0
  6
CONTINUOUS
 62
     7
100
AcDbVertex
100
AcDb2dVertex
 10
8.6453798631
 20
7.1257175488
 30
0.0
  0
VERTEX
  5
420
330
1F1
100
AcDbEntity
  8
0
  6
CONTINUOUS
 62
     7
100
AcDbVertex
100
AcDb2dVertex
 10
8.6390441707
 20
7.1331628071
 30
0.0
  0
VERTEX
  5
421
330
1F1
100
AcDbEntity
  8
0
  6
CONTINUOUS
 62
     7
100
AcDbVertex
100
AcDb2dVertex
 10
8.6346538083
 20
7.1410612629
 30
0.0
  0
VERTEX
  5
422
330
1F1
100
AcDbEntity
  8
0
  6
CONTINUOUS
 62
     7
100
AcDbVertex
100
AcDb2dVertex
 10
8.632302349
 20
7.1492445742
 30
0.0
  0
VERTEX
  5
423
330
1F1
100
AcDbEntity
  8
0
  6
CONTINUOUS
 62
     7
100
AcDbVertex
100
AcDb2dVertex
 10
8.6320399099
 20
7.157538328
 30
0.0
  0
VERTEX
  5
424
330
1F1
100
AcDbEntity
  8
0
  6
CONTINUOUS
 62
     7
100
AcDbVertex
100
AcDb2dVertex
 10
8.6338720845
 20
7.1657657573
 30
0.0
  0
VERTEX
  5
425
330
1F1
100
AcDbEntity
  8
0
  6
CONTINUOUS
 62
     7
100
AcDbVertex
100
AcDb2dVertex
 10
8.6377598231
 20
7.1737515088
 30
0.0
  0
VERTEX
  5
426
330
1F1
100
AcDbEntity
  8
0
  6
CONTINUOUS
 62
     7
100
AcDbVertex
100
AcDb2dVertex
 10
8.6436202655
 20
7.18132538
 30
0.0
  0
VERTEX
  5
427
330
1F1
100
AcDbEntity
  8
0
  6
CONTINUOUS
 62
     7
100
AcDbVertex
100
AcDb2dVertex
 10
8.6513285063
 20
7.1883259469
 30
0.0
  0
VERTEX
  5
428
330
1F1
100
AcDbEntity
  8
0
  6
CONTINUOUS
 62
     7
100
AcDbVertex
100
AcDb2dVertex
 10
8.6607202579
 20
7.1946040048
 30
0.0
  0
SEQEND
  5
429
330
1F1
100
AcDbEntity
  8
0
  6
CONTINUOUS
 62
     7
  0
POLYLINE
  5
1F2
330
1F
100
AcDbEntity
  8
0
  6
CONTINUOUS
 62
     7
100
AcDb2dPolyline
 66
     1
 10
0.0
 20
0.0
 30
0.0
  0
VERTEX
  5
42A
330
1F2
100
AcDbEntity
  8
0
  6
CONTINUOUS
 62
     7
100
AcDbVertex
100
AcDb2dVertex
 10
8.6748623936
 20
7.2027707399
 30
0.0
  0
VERTEX
  5
42B
330
1F2
100
AcDbEntity
  8
0
  6
CONTINUOUS
 62
     7
100
AcDbVertex
100
AcDb2dVertex
 10
8.6664911362
 20
7.1970648715
 30
0.0
  0
VERTEX
  5
42C
330
1F2
100
AcDbEntity
  8
0
  6
CONTINUOUS
 62
     7
100
AcDbVertex
100
AcDb2dVertex
 10
8.6598608925
 20
7.1906414
 30
0.0
  0
VERTEX
  5
42D
330
1F2
100
AcDbEntity
  8
0
  6
CONTINUOUS
 62
     7
100
AcDbVertex
100
AcDb2dVertex
 10
8.6551525181
 20
7.1836755408
 30
0.0
  0
VERTEX
  5
42E
330
1F2
100
AcDbEntity
  8
0
  6
CONTINUOUS
 62
     7
100
AcDbVertex
100
AcDb2dVertex
 10
8.6524944453
 20
7.1763573046
 30
0.0
  0
VERTEX
  5
42F
330
1F2
100
AcDbEntity
  8
0
  6
CONTINUOUS
 62
     7
100
AcDbVertex
100
AcDb2dVertex
 10
8.6519591793
 20
7.1688863136
 30
0.0
  0
VERTEX
  5
430
330
1F2
100
AcDbEntity
  8
0
  6
CONTINUOUS
 62
     7
100
AcDbVertex
100
AcDb2dVertex
 10
8.6535613208
 20
7.1614663571
 30
0.0
  0
VERTEX
  5
431
330
1F2
100
AcDbEntity
  8
0
  6
CONTINUOUS
 62
     7
100
AcDbVertex
100
AcDb2dVertex
 10
8.6572571676
 20
7.154299832
 30
0.0
  0
VERTEX
  5
432
330
1F2
100
AcDbEntity
  8
0
  6
CONTINUOUS
 62
     7
100
AcDbVertex
100
AcDb2dVertex
 10
8.6629459066
 20
7.1475822227
 30
0.0
  0
VERTEX
  5
433
330
1F2
100
AcDbEntity
  8
0
  6
CONTINUOUS
 62
     7
100
AcDbVertex
100
AcDb2dVertex
 10
8.6704723638
 20
7.1414967678
 30
0.0
  0
VERTEX
  5
434
330
1F2
100
AcDbEntity
  8
0
  6
CONTINUOUS
 62
     7
100
AcDbVertex
100
AcDb2dVertex
 10
8.6796312371
 20
7.1362094628
 30
0.0
  0
VERTEX
  5
435
330
1F2
100
AcDbEntity
  8
0
  6
CONTINUOUS
 62
     7
100
AcDbVertex
100
AcDb2dVertex
 10
8.6901726963
 20
7.1318645315
 30
0.0
  0
VERTEX
  5
436
330
1F2
100
AcDbEntity
  8
0
  6
CONTINUOUS
 62
     7
100
AcDbVertex
100
AcDb2dVertex
 10
8.7018091979
 20
7.1285804924
 30
0.0
  0
VERTEX
  5
437
330
1F2
100
AcDbEntity
  8
0
  6
CONTINUOUS
 62
     7
100
AcDbVertex
100
AcDb2dVertex
 10
8.7142233285
 20
7.1264469254
 30
0.0
  0
VERTEX
  5
438
330
1F2
100
AcDbEntity
  8
0
  6
CONTINUOUS
 62
     7
100
AcDbVertex
100
AcDb2dVertex
 10
8.7270764628
 20
7.1255220288
 30
0.0
  0
VERTEX
  5
439
330
1F2
100
AcDbEntity
  8
0
  6
CONTINUOUS
 62
     7
100
AcDbVertex
100
AcDb2dVertex
 10
8.740018001
 20
7.1258310313
 30
0.0
  0
VERTEX
  5
43A
330
1F2
100
AcDbEntity
  8
0
  6
CONTINUOUS
 62
     7
100
AcDbVertex
100
AcDb2dVertex
 10
8.7526949316
 20
7.1273655041
 30
0.0
  0
VERTEX
  5
43B
330
1F2
100
AcDbEntity
  8
0
  6
CONTINUOUS
 62
     7
100
AcDbVertex
100
AcDb2dVertex
 10
8.764761461
 20
7.1300835908
 30
0.0
  0
VERTEX
  5
43C
330
1F2
100
AcDbEntity
  8
0
  6
CONTINUOUS
 62
     7
100
AcDbVertex
100
AcDb2dVertex
 10
8.7758884457
 20
7.133911149
 30
0.0
  0
VERTEX
  5
43D
330
1F2
100
AcDbEntity
  8
0
  6
CONTINUOUS
 62
     7
100
AcDbVertex
100
AcDb2dVertex
 10
8.7857723706
 20
7.138743773
 30
0.0
  0
VERTEX
  5
43E
330
1F2
100
AcDbEntity
  8
0
  6
CONTINUOUS
 62
     7
100
AcDbVertex
100
AcDb2dVertex
 10
8.7941436279
 20
7.1444496414
 30
0.0
  0
VERTEX
  5
43F
330
1F2
100
AcDbEntity
  8
0
  6
CONTINUOUS
 62
     7
100
AcDbVertex
100
AcDb2dVertex
 10
8.8007738717
 20
7.1508731129
 30
0.0
  0
VERTEX
  5
440
330
1F2
100
AcDbEntity
  8
0
  6
CONTINUOUS
 62
     7
100
AcDbVertex
100
AcDb2dVertex
 10
8.805482246
 20
7.1578389721
 30
0.0
  0
VERTEX
  5
441
330
1F2
100
AcDbEntity
  8
0
  6
CONTINUOUS
 62
     7
100
AcDbVertex
100
AcDb2dVertex
 10
8.8081403189
 20
7.1651572083
 30
0.0
  0
VERTEX
  5
442
330
1F2
100
AcDbEntity
  8
0
  6
CONTINUOUS
 62
     7
100
AcDbVertex
100
AcDb2dVertex
 10
8.8086755848
 20
7.1726281993
 30
0.0
  0
VERTEX
  5
443
330
1F2
100
AcDbEntity
  8
0
  6
CONTINUOUS
 62
     7
100
AcDbVertex
100
AcDb2dVertex
 10
8.8070734433
 20
7.1800481558
 30
0.0
  0
VERTEX
  5
444
330
1F2
100
AcDbEntity
  8
0
  6
CONTINUOUS
 62
     7
100
AcDbVertex
100
AcDb2dVertex
 10
8.8033775965
 20
7.1872146808
 30
0.0
  0
VERTEX
  5
445
330
1F2
100
AcDbEntity
  8
0
  6
CONTINUOUS
 62
     7
100
AcDbVertex
100
AcDb2dVertex
 10
8.7976888575
 20
7.1939322902
 30
0.0
  0
VERTEX
  5
446
330
1F2
100
AcDbEntity
  8
0
  6
CONTINUOUS
 62
     7
100
AcDbVertex
100
AcDb2dVertex
 10
8.7901624003
 20
7.2000177451
 30
0.0
  0
VERTEX
  5
447
330
1F2
100
AcDbEntity
  8
0
  6
CONTINUOUS
 62
     7
100
AcDbVertex
100
AcDb2dVertex
 10
8.781003527
 20
7.2053050501
 30
0.0
  0
VERTEX
  5
448
330
1F2
100
AcDbEntity
  8
0
  6
CONTINUOUS
 62
     7
100
AcDbVertex
100
AcDb2dVertex
 10
8.7704620678
 20
7.2096499814
 30
0.0
  0
VERTEX
  5
449
330
1F2
100
AcDbEntity
  8
0
  6
CONTINUOUS
 62
     7
100
AcDbVertex
100
AcDb2dVertex
 10
8.7588255662
 20
7.2129340205
 30
0.0
  0
VERTEX
  5
44A
330
1F2
100
AcDbEntity
  8
0
  6
CONTINUOUS
 62
     7
100
AcDbVertex
100
AcDb2dVertex
 10
8.7464114357
 20
7.2150675874
 30
0.0
  0
VERTEX
  5
44B
330
1F2
100
AcDbEntity
  8
0
  6
CONTINUOUS
 62
     7
100
AcDbVertex
100
AcDb2dVertex
 10
8.7335583013
 20
7.215992484
 30
0.0
  0
VERTEX
  5
44C
330
1F2
100
AcDbEntity
  8
0
  6
CONTINUOUS
 62
     7
100
AcDbVertex
100
AcDb2dVertex
 10
8.7206167631
 20
7.2156834816
 30
0.0
  0
VERTEX
  5
44D
330
1F2
100
AcDbEntity
  8
0
  6
CONTINUOUS
 62
     7
100
AcDbVertex
100
AcDb2dVertex
 10
8.7079398325
 20
7.2141490088
 30
0.0
  0
VERTEX
  5
44E
330
1F2
100
AcDbEntity
  8
0
  6
CONTINUOUS
 62
     7
100
AcDbVertex
100
AcDb2dVertex
 10
8.6958733031
 20
7.2114309221
 30
0.0
  0
VERTEX
  5
44F
330
1F2
100
AcDbEntity
  8
0
  6
CONTINUOUS
 62
     7
100
AcDbVertex
100
AcDb2dVertex
 10
8.6847463184
 20
7.2076033639
 30
0.0
  0
VERTEX
  5
450
330
1F2
100
AcDbEntity
  8
0
  6
CONTINUOUS
 62
     7
100
AcDbVertex
100
AcDb2dVertex
 10
8.6748623936
 20
7.2027707399
 30
0.0
  0
SEQEND
  5
451
330
1F2
100
AcDbEntity
  8
0
  6
CONTINUOUS
 62
     7
  0
LINE
  5
1F3
330
1F
100
AcDbEntity
  8
0
  6
CONTINUOUS
 62
     7
100
AcDbLine
 10
8.7770239075
 20
7.1977203597
 30
0.0
 11
8.7132216072
 21
7.2075895404
 31
0.0
  0
LINE
  5
1F4
330
1F
100
AcDbEntity
  8
0
  6
CONTINUOUS
 62
     7
100
AcDbLine
 10
8.7132216072
 20
7.2075895404
 30
0.0
 11
8.6665150817
 21
7.1806264372
 31
0.0
  0
LINE
  5
1F5
330
1F
100
AcDbEntity
  8
0
  6
CONTINUOUS
 62
     7
100
AcDbLine
 10
8.6665150817
 20
7.1806264372
 30
0.0
 11
8.6836108566
 21
7.1437941532
 31
0.0
  0
LINE
  5
1F6
330
1F
100
AcDbEntity
  8
0
  6
CONTINUOUS
 62
     7
100
AcDbLine
 10
8.6836108566
 20
7.1437941532
 30
0.0
 11
8.7474131569
 21
7.1339249725
 31
0.0
  0
LINE
  5
1F7
330
1F
100
AcDbEntity
  8
0
  6
CONTINUOUS
 62
     7
100
AcDbLine
 10
8.7474131569
 20
7.1339249725
 30
0.0
 11
8.7941196824
 21
7.1608880757
 31
0.0
  0
LINE
  5
1F8
330
1F
100
AcDbEntity
  8
0
  6
CONTINUOUS
 62
     7
100
AcDbLine
 10
8.7941196824
 20
7.1608880757
 30
0.0
 11
8.7770239075
 21
7.1977203597
 31
0.0
  0
LINE
  5
1F9
330
1F
100
AcDbEntity
  8
0
  6
CONTINUOUS
 62
     7
100
AcDbLine
 10
8.7770239075
 20
7.1510188949
 30
0.0
 11
8.7770239075
 21
7.1977203597
 31
0.0
  0
LINE
  5
1FA
330
1F
100
AcDbEntity
  8
0
  6
CONTINUOUS
 62
     7
100
AcDbLine
 10
8.7132216072
 20
7.1392138505
 30
0.0
 11
8.7132216072
 21
7.2075895404
 31
0.0
  0
ENDSEC
  0
SECTION
  2
OBJECTS
  0
DICTIONARY
  5
C
330
0
100
AcDbDictionary
  3
ACAD_GROUP
350
D
  3
ACAD_LAYOUT
350
1A
  3
ACAD_MLEADERSTYLE
350
1FD
  3
ACAD_MLINESTYLE
350
17
  3
ACAD_PLOTSETTINGS
350
19
  3
ACAD_SCALELIST
350
6F
  3
ACAD_VISUALSTYLE
350
2A
  3
ACDBVARIABLEDICTIONARY
350
1FB
1001
ACAD
1000
TREAT_AS_HARD
1070
     0
  0
DICTIONARY
  5
D
102
{ACAD_REACTORS
330
C
102
}
330
C
100
AcDbDictionary
1001
ACAD
1000
TREAT_AS_HARD
1070
     0
  0
DICTIONARY
  5
1A
102
{ACAD_REACTORS
330
C
102
}
330
C
100
AcDbDictionary
1001
ACAD
1000
TREAT_AS_HARD
1070
     0
  0
DICTIONARY
  5
1FD
102
{ACAD_REACTORS
330
C
102
}
330
C
100
AcDbDictionary
1001
ACAD
1000
TREAT_AS_HARD
1070
     0
  0
DICTIONARY
  5
17
102
{ACAD_REACTORS
330
C
102
}
330
C
100
AcDbDictionary
  3
STANDARD
350
18
1001
ACAD
1000
TREAT_AS_HARD
1070
     0
  0
DICTIONARY
  5
19
102
{ACAD_REACTORS
330
C
102
}
330
C
100
AcDbDictionary
1001
ACAD
1000
TREAT_AS_HARD
1070
     0
  0
DICTIONARY
  5
6F
102
{ACAD_REACTORS
330
C
102
}
330
C
100
AcDbDictionary
  3
A0
350
70
  3
A1
350
71
  3
A2
350
72
  3
A3
350
73
  3
A4
350
74
  3
A5
350
75
  3
A6
350
76
  3
A7
350
77
  3
A8
350
78
  3
A9
350
79
  3
B0
350
7A
  3
B1
350
7B
  3
B2
350
7C
  3
B3
350
7D
  3
B4
350
7E
  3
B5
350
7F
  3
B6
350
80
  3
B7
350
81
  3
B8
350
82
  3
B9
350
83
  3
C0
350
84
  3
C1
350
85
  3
C2
350
86
  3
C3
350
87
  3
C4
350
88
  3
C5
350
89
  3
C6
350
8A
  3
C7
350
8B
  3
C8
350
8C
  3
C9
350
8D
  3
D0
350
8E
  3
D1
350
8F
  3
D2
350
90
1001
ACAD
1000
TREAT_AS_HARD
1070
     0
  0
DICTIONARY
  5
2A
102
{ACAD_REACTORS
330
C
102
}
330
C
100
AcDbDictionary
  3
2DWIREFRAME
350
2F
  3
3D_HIDDEN
350
31
  3
3DWIREFRAME
350
30
  3
BASIC
350
32
  3
BRIGHTEN
350
36
  3
COLORCHANGE
350
3A
  3
CONCEPTUAL
350
34
  3
DIM
350
35
  3
FACEPATTERN
350
39
  3
FLAT
350
2B
  3
FLATWITHEDGES
350
2C
  3
GOURAUD
350
2D
  3
GOURAUDWITHEDGES
350
2E
  3
LINEPATTERN
350
38
  3
REALISTIC
350
33
  3
THICKEN
350
37
1001
ACAD
1000
TREAT_AS_HARD
1070
     0
  0
DICTIONARY
  5
1FB
102
{ACAD_REACTORS
330
C
102
}
330
C
100
AcDbDictionary
  3
CANNOSCALE
350
1FE
  3
DIMASSOC
350
1FF
  3
HIDETEXT
350
200
1001
ACAD
1000
TREAT_AS_HARD
1070
     0
  0
MLINESTYLE
  5
18
102
{ACAD_REACTORS
330
17
102
}
330
17
100
AcDbMlineStyle
  2
Standard
 70
     0
  3

 62
   256
 51
90.0
 52
90.0
 71
     2
 49
0.5
 62
   256
  6
BYLAYER
 49
-0.5
 62
   256
  6
BYLAYER
  0
ACAD_PROXY_OBJECT
  5
70
102
{ACAD_REACTORS
330
6F
102
}
330
6F
100
AcDbZombieObject
 90
      499
 91
      502
 93
       41
310
903313A31580
  0
ACAD_PROXY_OBJECT
  5
71
102
{ACAD_REACTORS
330
6F
102
}
330
6F
100
AcDbZombieObject
 90
      499
 91
      502
 93
      105
310
903313A324000000000000004000
  0
ACAD_PROXY_OBJECT
  5
72
102
{ACAD_REACTORS
330
6F
102
}
330
6F
100
AcDbZombieObject
 90
      499
 91
      502
 93
      105
310
903313A344000000000000104000
  0
ACAD_PROXY_OBJECT
  5
73
102
{ACAD_REACTORS
330
6F
102
}
330
6F
100
AcDbZombieObject
 90
      499
 91
      502
 93
      105
310
903313A354000000000000144000
  0
ACAD_PROXY_OBJECT
  5
74
102
{ACAD_REACTORS
330
6F
102
}
330
6F
100
AcDbZombieObject
 90
      499
 91
      502
 93
      105
310
903313A384000000000000204000
  0
ACAD_PROXY_OBJECT
  5
75
102
{ACAD_REACTORS
330
6F
102
}
330
6F
100
AcDbZombieObject
 90
      499
 91
      502
 93
      113
310
904313A31304000000000000244000
  0
ACAD_PROXY_OBJECT
  5
76
102
{ACAD_REACTORS
330
6F
102
}
330
6F
100
AcDbZombieObject
 90
      499
 91
      502
 93
      113
310
904313A31364000000000000304000
  0
ACAD_PROXY_OBJECT
  5
77
102
{ACAD_REACTORS
330
6F
102
}
330
6F
100
AcDbZombieObject
 90
      499
 91
      502
 93
      113
310
904313A32304000000000000344000
  0
ACAD_PROXY_OBJECT
  5
78
102
{ACAD_REACTORS
330
6F
102
}
330
6F
100
AcDbZombieObject
 90
      499
 91
      502
 93
      113
310
904313A333040000000000003E4000
  0
ACAD_PROXY_OBJECT
  5
79
102
{ACAD_REACTORS
330
6F
102
}
330
6F
100
AcDbZombieObject
 90
      499
 91
      502
 93
      113
310
904313A34304000000000000444000
  0
ACAD_PROXY_OBJECT
  5
7A
102
{ACAD_REACTORS
330
6F
102
}
330
6F
100
AcDbZombieObject
 90
      499
 91
      502
 93
      113
310
904313A35304000000000000494000
  0
ACAD_PROXY_OBJECT
  5
7B
102
{ACAD_REACTORS
330
6F
102
}
330
6F
100
AcDbZombieObject
 90
      499
 91
      502
 93
      121
310
905313A3130304000000000000594000
  0
ACAD_PROXY_OBJECT
  5
7C
102
{ACAD_REACTORS
330
6F
102
}
330
6F
100
AcDbZombieObject
 90
      499
 91
      502
 93
      105
310
903323A310000000000000010100
  0
ACAD_PROXY_OBJECT
  5
7D
102
{ACAD_REACTORS
330
6F
102
}
330
6F
100
AcDbZombieObject
 90
      499
 91
      502
 93
      105
310
903343A310000000000000410100
  0
ACAD_PROXY_OBJECT
  5
7E
102
{ACAD_REACTORS
330
6F
102
}
330
6F
100
AcDbZombieObject
 90
      499
 91
      502
 93
      105
310
903383A310000000000000810100
  0
ACAD_PROXY_OBJECT
  5
7F
102
{ACAD_REACTORS
330
6F
102
}
330
6F
100
AcDbZombieObject
 90
      499
 91
      502
 93
      113
310
90431303A310000000000000910100
  0
ACAD_PROXY_OBJECT
  5
80
102
{ACAD_REACTORS
330
6F
102
}
330
6F
100
AcDbZombieObject
 90
      499
 91
      502
 93
      121
310
9053130303A310000000000001650100
  0
ACAD_PROXY_OBJECT
  5
81
102
{ACAD_REACTORS
330
6F
102
}
330
6F
100
AcDbZombieObject
 90
      499
 91
      502
 93
      257
310
90E312F31323822203D2031272D3022000000000000200FC000000000000284000
  0
ACAD_PROXY_OBJECT
  5
82
102
{ACAD_REACTORS
330
6F
102
}
330
6F
100
AcDbZombieObject
 90
      499
 91
      502
 93
      249
310
90D312F363422203D2031272D3022000000000000240FC000000000000284000
  0
ACAD_PROXY_OBJECT
  5
83
102
{ACAD_REACTORS
330
6F
102
}
330
6F
100
AcDbZombieObject
 90
      499
 91
      502
 93
      249
310
90D312F333222203D2031272D3022000000000000280FC000000000000284000
  0
ACAD_PROXY_OBJECT
  5
84
102
{ACAD_REACTORS
330
6F
102
}
330
6F
100
AcDbZombieObject
 90
      499
 91
      502
 93
      249
310
90D312F313622203D2031272D30220000000000002C0FC000000000000284000
  0
ACAD_PROXY_OBJECT
  5
85
102
{ACAD_REACTORS
330
6F
102
}
330
6F
100
AcDbZombieObject
 90
      499
 91
      502
 93
      249
310
90D332F333222203D2031272D30220000000000002E0FC000000000000284000
  0
ACAD_PROXY_OBJECT
  5
86
102
{ACAD_REACTORS
330
6F
102
}
330
6F
100
AcDbZombieObject
 90
      499
 91
      502
 93
      241
310
90C312F3822203D2031272D3022000000000000300FC000000000000284000
  0
ACAD_PROXY_OBJECT
  5
87
102
{ACAD_REACTORS
330
6F
102
}
330
6F
100
AcDbZombieObject
 90
      499
 91
      502
 93
      249
310
90D332F313622203D2031272D3022000000000000320FC000000000000284000
  0
ACAD_PROXY_OBJECT
  5
88
102
{ACAD_REACTORS
330
6F
102
}
330
6F
100
AcDbZombieObject
 90
      499
 91
      502
 93
      241
310
90C312F3422203D2031272D3022000000000000340FC000000000000284000
  0
ACAD_PROXY_OBJECT
  5
89
102
{ACAD_REACTORS
330
6F
102
}
330
6F
100
AcDbZombieObject
 90
      499
 91
      502
 93
      241
310
90C332F3822203D2031272D3022000000000000360FC000000000000284000
  0
ACAD_PROXY_OBJECT
  5
8A
102
{ACAD_REACTORS
330
6F
102
}
330
6F
100
AcDbZombieObject
 90
      499
 91
      502
 93
      241
310
90C312F3222203D2031272D3022000000000000380FC000000000000284000
  0
ACAD_PROXY_OBJECT
  5
8B
102
{ACAD_REACTORS
330
6F
102
}
330
6F
100
AcDbZombieObject
 90
      499
 91
      502
 93
      241
310
90C332F3422203D2031272D30220000000000003A0FC000000000000284000
  0
ACAD_PROXY_OBJECT
  5
8C
102
{ACAD_REACTORS
330
6F
102
}
330
6F
100
AcDbZombieObject
 90
      499
 91
      502
 93
      161
310
90A3122203D2031272D30224000000000000284000
  0
ACAD_PROXY_OBJECT
  5
8D
102
{ACAD_REACTORS
330
6F
102
}
330
6F
100
AcDbZombieObject
 90
      499
 91
      502
 93
      257
310
90E312D312F3222203D2031272D30220000000000003E0FC000000000000284000
  0
ACAD_PROXY_OBJECT
  5
8E
102
{ACAD_REACTORS
330
6F
102
}
330
6F
100
AcDbZombieObject
 90
      499
 91
      502
 93
      225
310
90A3322203D2031272D302200000000000002100000000000000284000
  0
ACAD_PROXY_OBJECT
  5
8F
102
{ACAD_REACTORS
330
6F
102
}
330
6F
100
AcDbZombieObject
 90
      499
 91
      502
 93
      225
310
90A3622203D2031272D302200000000000006100000000000000284000
  0
ACAD_PROXY_OBJECT
  5
90
102
{ACAD_REACTORS
330
6F
102
}
330
6F
100
AcDbZombieObject
 90
      499
 91
      502
 93
      249
310
90D31272D3022203D2031272D30220000000000000A100000000000000284000
  0
ACAD_PROXY_OBJECT
  5
2F
102
{ACAD_REACTORS
330
2A
102
}
330
2A
100
AcDbZombieObject
 90
      499
 91
      501
 93
      436
310
42CC9915DA5C99599C985B595049028333333333333E3BF0000000000000FB0107901411070040501600405405064090741402480A0340
1001
ACAD
1000
AcDbSavedByObjectVersion
1070
     0
  0
ACAD_PROXY_OBJECT
  5
31
102
{ACAD_REACTORS
330
2A
102
}
330
2A
100
AcDbZombieObject
 90
      499
 91
      501
 93
      500
310
424CD108121A5919195B90640502408333333333333E3BF0000000000000FB01079024090700405020000000000001110200405405064090740C02480A0340
1001
ACAD
1000
AcDbSavedByObjectVersion
1070
     0
  0
ACAD_PROXY_OBJECT
  5
30
102
{ACAD_REACTORS
330
2A
102
}
330
2A
100
AcDbZombieObject
 90
      499
 91
      501
 93
      436
310
42CCD915DA5C99599C985B595059028333333333333E3BF0000000000000FB0107901411070040501600405405064090741402480A0340
1001
ACAD
1000
AcDbSavedByObjectVersion
1070
     0
  0
ACAD_PROXY_OBJECT
  5
32
102
{ACAD_REACTORS
330
2A
102
}
330
2A
100
AcDbZombieObject
 90
      499
 91
      501
 93
      388
310
4150985CDA58D07406404333333333333E3BF0000000000000FB0107A41107004050150841D405064090741402480A0350
1001
ACAD
1000
AcDbSavedByObjectVersion
1070
     0
  0
ACAD_PROXY_OBJECT
  5
36
102
{ACAD_REACTORS
330
2A
102
}
330
2A
100
AcDbZombieObject
 90
      499
 91
      501
 93
      428
310
42109C9A59DA1D195B90C409028333333333333E3BF0000000000000FB010790141107004050150841D405064090741402480A029950
1001
ACAD
1000
AcDbSavedByObjectVersion
1070
     0
  0
ACAD_PROXY_OBJECT
  5
3A
102
{ACAD_REACTORS
330
2A
102
}
330
2A
100
AcDbZombieObject
 90
      499
 91
      501
 93
      452
310
42D0DBDB1BDC90DA185B99D95104090240C333333333333E3BF0000000000000FB0108901411070040501508421405064090741402480A0350
1001
ACAD
1000
AcDbSavedByObjectVersion
1070
     0
  0
ACAD_PROXY_OBJECT
  5
34
102
{ACAD_REACTORS
330
2A
102
}
330
2A
100
AcDbZombieObject
 90
      499
 91
      501
 93
      500
310
4290DBDB98D95C1D1D585B10940D028333333333333E3BF0000000000000FB0107902409070040501000000000000111010841D405064090740C02480A0340
1001
ACAD
1000
AcDbSavedByObjectVersion
1070
     0
  0
ACAD_PROXY_OBJECT
  5
35
102
{ACAD_REACTORS
330
2A
102
}
330
2A
100
AcDbZombieObject
 90
      499
 91
      501
 93
      412
310
40D11A5B50B409028333333333333E3BF0000000000000FB010790141107004050150841D405064090741402480A02677FFFFFD0
1001
ACAD
1000
AcDbSavedByObjectVersion
1070
     0
  0
ACAD_PROXY_OBJECT
  5
39
102
{ACAD_REACTORS
330
2A
102
}
330
2A
100
AcDbZombieObject
 90
      499
 91
      501
 93
      444
310
42D19858D95C185D1D195C9B90F409028333333333333E3BF0000000000000FB010790141107004050150841D405064090741402480A0350
1001
ACAD
1000
AcDbSavedByObjectVersion
1070
     0
  0
ACAD_PROXY_OBJECT
  5
2B
102
{ACAD_REACTORS
330
2A
102
}
330
2A
100
AcDbZombieObject
 90
      499
 91
      501
 93
      388
310
41119B185D240901404333333333333E3BF0000000000000F9010740A41107004050150841D405064090741402480A1B50
1001
ACAD
1000
AcDbSavedByObjectVersion
1070
     0
  0
ACAD_PROXY_OBJECT
  5
2C
102
{ACAD_REACTORS
330
2A
102
}
330
2A
100
AcDbZombieObject
 90
      499
 91
      501
 93
      476
310
43519B185D15DA5D1A115919D95CD0140901404333333333333E3BF0000000000000F9010740901411070040501600405405064090741402480A1B50
1001
ACAD
1000
AcDbSavedByObjectVersion
1070
     0
  0
ACAD_PROXY_OBJECT
  5
2D
102
{ACAD_REACTORS
330
2A
102
}
330
2A
100
AcDbZombieObject
 90
      499
 91
      501
 93
      412
310
41D1DBDD5C985D5910240902404333333333333E3BF0000000000000F9010740A411070040501641D405064090741402480A1B50
1001
ACAD
1000
AcDbSavedByObjectVersion
1070
     0
  0
ACAD_PROXY_OBJECT
  5
2E
102
{ACAD_REACTORS
330
2A
102
}
330
2A
100
AcDbZombieObject
 90
      499
 91
      501
 93
      500
310
4411DBDD5C985D5915DA5D1A115919D95CD0340902404333333333333E3BF0000000000000F9010740901411070040501600405405064090741402480A1B50
1001
ACAD
1000
AcDbSavedByObjectVersion
1070
     0
  0
ACAD_PROXY_OBJECT
  5
38
102
{ACAD_REACTORS
330
2A
102
}
330
2A
100
AcDbZombieObject
 90
      499
 91
      501
 93
      444
310
42D31A5B995C185D1D195C9B90E409028333333333333E3BF0000000000000FB010790141107004050750841D405064090741402483A0350
1001
ACAD
1000
AcDbSavedByObjectVersion
1070
     0
  0
ACAD_PROXY_OBJECT
  5
33
102
{ACAD_REACTORS
330
2A
102
}
330
2A
100
AcDbZombieObject
 90
      499
 91
      501
 93
      420
310
425499585B1A5CDD1A58D08409028333333333333E3BF0000000000000FB01079019070040501508421405064090741402480A1B40
1001
ACAD
1000
AcDbSavedByObjectVersion
1070
     0
  0
ACAD_PROXY_OBJECT
  5
37
102
{ACAD_REACTORS
330
2A
102
}
330
2A
100
AcDbZombieObject
 90
      499
 91
      501
 93
      412
310
41D51A1A58DAD95B90D409028333333333333E3BF0000000000000FB010790141107004050150C41D405064090741402480A0350
1001
ACAD
1000
AcDbSavedByObjectVersion
1070
     0
  0
DICTIONARYVAR
  5
1FE
102
{ACAD_REACTORS
330
1FB
102
}
330
1FB
100
DictionaryVariables
280
     0
  1
1:1
  0
DICTIONARYVAR
  5
1FF
102
{ACAD_REACTORS
330
1FB
102
}
330
1FB
100
DictionaryVariables
280
     0
  1
2
  0
DICTIONARYVAR
  5
200
102
{ACAD_REACTORS
330
1FB
102
}
330
1FB
100
DictionaryVariables
280
     0
  1
1
  0
ENDSEC
  0
EOF
