  0
SECTION
  2
HEADER
  9
$ACADVER
  1
AC1012
  9
$DWGCODEPAGE
  3
ansi_1252
  9
$INSBASE
 10
0.0
 20
0.0
 30
0.0
  9
$EXTMIN
 10
0.0
 20
0.0
 30
0.0
  9
$EXTMAX
 10
11.0
 20
8.5
 30
0.0
  9
$LIMMIN
 10
0.0
 20
0.0
  9
$LIMMAX
 10
11.0
 20
8.5
  9
$ORTHOMODE
 70
     0
  9
$REGENMODE
 70
     1
  9
$FILLMODE
 70
     1
  9
$QTEXTMODE
 70
     0
  9
$MIRRTEXT
 70
     1
  9
$DRAGMODE
 70
     2
  9
$LTSCALE
 40
1.0
  9
$OSMODE
 70
    37
  9
$ATTMODE
 70
     1
  9
$TEXTSIZE
 40
0.125
  9
$TRACEWID
 40
0.05
  9
$TEXTSTYLE
  7
STANDARD
  9
$CLAYER
  8
0
  9
$CELTYPE
  6
BYLAYER
  9
$CECOLOR
 62
   256
  9
$CELTSCALE
 40
1.0
  9
$DELOBJ
 70
     1
  9
$DISPSILH
 70
     0
  9
$DIMSCALE
 40
1.0
  9
$DIMASZ
 40
0.13
  9
$DIMEXO
 40
0.05
  9
$DIMDLI
 40
0.38
  9
$DIMRND
 40
0.0
  9
$DIMDLE
 40
0.0
  9
$DIMEXE
 40
0.125
  9
$DIMTP
 40
0.0
  9
$DIMTM
 40
0.0
  9
$DIMTXT
 40
0.125
  9
$DIMCEN
 40
0.09
  9
$DIMTSZ
 40
0.0
  9
$DIMTOL
 70
     0
  9
$DIMLIM
 70
     0
  9
$DIMTIH
 70
     1
  9
$DIMTOH
 70
     1
  9
$DIMSE1
 70
     0
  9
$DIMSE2
 70
     0
  9
$DIMTAD
 70
     0
  9
$DIMZIN
 70
     0
  9
$DIMBLK
  1

  9
$DIMASO
 70
     1
  9
$DIMSHO
 70
     1
  9
$DIMPOST
  1

  9
$DIMAPOST
  1

  9
$DIMALT
 70
     0
  9
$DIMALTD
 70
     2
  9
$DIMALTF
 40
25.4
  9
$DIMLFAC
 40
0.5
  9
$DIMTOFL
 70
     0
  9
$DIMTVP
 40
0.0
  9
$DIMTIX
 70
     0
  9
$DIMSOXD
 70
     0
  9
$DIMSAH
 70
     0
  9
$DIMBLK1
  1

  9
$DIMBLK2
  1

  9
$DIMSTYLE
  2
STANDARD
  9
$DIMCLRD
 70
     0
  9
$DIMCLRE
 70
     0
  9
$DIMCLRT
 70
     0
  9
$DIMTFAC
 40
1.0
  9
$DIMGAP
 40
0.06
  9
$DIMJUST
 70
     0
  9
$DIMSD1
 70
     0
  9
$DIMSD2
 70
     0
  9
$DIMTOLJ
 70
     1
  9
$DIMTZIN
 70
     0
  9
$DIMALTZ
 70
     0
  9
$DIMALTTZ
 70
     0
  9
$DIMFIT
 70
     3
  9
$DIMUPT
 70
     0
  9
$DIMUNIT
 70
     2
  9
$DIMDEC
 70
     3
  9
$DIMTDEC
 70
     3
  9
$DIMALTU
 70
     2
  9
$DIMALTTD
 70
     2
  9
$DIMTXSTY
  7
STANDARD
  9
$DIMAUNIT
 70
     0
  9
$LUNITS
 70
     2
  9
$LUPREC
 70
     2
  9
$SKETCHINC
 40
0.1
  9
$FILLETRAD
 40
0.5
  9
$AUNITS
 70
     0
  9
$AUPREC
 70
     2
  9
$MENU
  1
.
  9
$ELEVATION
 40
0.0
  9
$PELEVATION
 40
0.0
  9
$THICKNESS
 40
0.0
  9
$LIMCHECK
 70
     0
  9
$CHAMFERA
 40
0.5
  9
$CHAMFERB
 40
0.5
  9
$CHAMFERC
 40
1.0
  9
$CHAMFERD
 40
0.0
  9
$SKPOLY
 70
     0
  9
$TDCREATE
 40
2455784.026419271
  9
$TDUPDATE
 40
2455784.026419282
  9
$TDINDWG
 40
0.0000000116
  9
$TDUSRTIMER
 40
0.0000000116
  9
$USRTIMER
 70
     1
  9
$ANGBASE
 50
0.0
  9
$ANGDIR
 70
     0
  9
$PDMODE
 70
     0
  9
$PDSIZE
 40
-1.0
  9
$PLINEWID
 40
0.0
  9
$COORDS
 70
     1
  9
$SPLFRAME
 70
     0
  9
$SPLINETYPE
 70
     6
  9
$SPLINESEGS
 70
     8
  9
$ATTDIA
 70
     0
  9
$ATTREQ
 70
     1
  9
$HANDLING
 70
     1
  9
$HANDSEED
  5
444
  9
$SURFTAB1
 70
     6
  9
$SURFTAB2
 70
     6
  9
$SURFTYPE
 70
     6
  9
$SURFU
 70
     6
  9
$SURFV
 70
     6
  9
$UCSNAME
  2

  9
$UCSORG
 10
0.0
 20
0.0
 30
0.0
  9
$UCSXDIR
 10
1.0
 20
0.0
 30
0.0
  9
$UCSYDIR
 10
0.0
 20
1.0
 30
0.0
  9
$PUCSNAME
  2

  9
$PUCSORG
 10
0.0
 20
0.0
 30
0.0
  9
$PUCSXDIR
 10
1.0
 20
0.0
 30
0.0
  9
$PUCSYDIR
 10
0.0
 20
1.0
 30
0.0
  9
$USERI1
 70
     0
  9
$USERI2
 70
     0
  9
$USERI3
 70
     0
  9
$USERI4
 70
     0
  9
$USERI5
 70
     0
  9
$USERR1
 40
0.0
  9
$USERR2
 40
0.0
  9
$USERR3
 40
0.0
  9
$USERR4
 40
0.0
  9
$USERR5
 40
0.0
  9
$WORLDVIEW
 70
     1
  9
$SHADEDGE
 70
     3
  9
$SHADEDIF
 70
    70
  9
$TILEMODE
 70
     1
  9
$MAXACTVP
 70
    64
  9
$PINSBASE
 10
0.0
 20
0.0
 30
0.0
  9
$PLIMCHECK
 70
     0
  9
$PEXTMIN
 10
1.0000000000E+20
 20
1.0000000000E+20
 30
1.0000000000E+20
  9
$PEXTMAX
 10
-1.0000000000E+20
 20
-1.0000000000E+20
 30
-1.0000000000E+20
  9
$PLIMMIN
 10
0.0
 20
0.0
  9
$PLIMMAX
 10
12.0
 20
9.0
  9
$UNITMODE
 70
     0
  9
$VISRETAIN
 70
     1
  9
$PLINEGEN
 70
     0
  9
$PSLTSCALE
 70
     1
  9
$TREEDEPTH
 70
  3020
  9
$PICKSTYLE
 70
     1
  9
$CMLSTYLE
  2
STANDARD
  9
$CMLJUST
 70
     0
  9
$CMLSCALE
 40
1.0
  9
$SAVEIMAGES
 70
     1
  0
ENDSEC
  0
SECTION
  2
CLASSES
  0
CLASS
  1
ACDBDICTIONARYWDFLT
  2
AcDbDictionaryWithDefault
  3
ObjectDBX Classes
 90
    32768
280
     0
281
     0
  0
CLASS
  1
VISUALSTYLE
  2
AcDbVisualStyle
  3
ObjectDBX Classes
 90
     4095
280
     0
281
     0
  0
CLASS
  1
SCALE
  2
AcDbScale
  3
ObjectDBX Classes
 90
     1153
280
     0
281
     0
  0
CLASS
  1
DICTIONARYVAR
  2
AcDbDictionaryVar
  3
ObjectDBX Classes
 90
        0
280
     0
281
     0
  0
CLASS
  1
XRECORD
  2
AcDbXrecord
  3
AutoCAD 2000
 90
    32768
280
     0
281
     0
  0
CLASS
  1
LWPOLYLINE
  2
AcDbPolyline
  3
AutoCAD 2000
 90
    32768
280
     0
281
     1
  0
CLASS
  1
HATCH
  2
AcDbHatch
  3
AutoCAD 2000
 90
    32768
280
     0
281
     1
  0
CLASS
  1
ACDBPLACEHOLDER
  2
AcDbPlaceHolder
  3
ObjectDBX Classes
 90
        0
280
     0
281
     0
  0
CLASS
  1
LAYOUT
  2
AcDbLayout
  3
ObjectDBX Classes
 90
        0
280
     0
281
     0
  0
ENDSEC
  0
SECTION
  2
TABLES
  0
TABLE
  2
VPORT
  5
8
330
0
100
AcDbSymbolTable
 70
     1
  0
VPORT
  5
29
330
8
100
AcDbSymbolTableRecord
100
AcDbViewportTableRecord
  2
*ACTIVE
 70
     0
 10
0.0
 20
0.0
 11
1.0
 21
1.0
 12
5.5
 22
4.25
 13
0.0
 23
0.0
 14
0.5
 24
0.5
 15
0.5
 25
0.5
 16
0.0
 26
0.0
 36
1.0
 17
0.0
 27
0.0
 37
0.0
 40
8.5
 41
1.2941176471
 42
50.0
 43
0.0
 44
0.0
 50
0.0
 51
0.0
 71
     0
 72
  2000
 73
     1
 74
     3
 75
     0
 76
     0
 77
     0
 78
     0
  0
ENDTAB
  0
TABLE
  2
LTYPE
  5
5
330
0
100
AcDbSymbolTable
 70
     6
  0
LTYPE
  5
14
330
5
100
AcDbSymbolTableRecord
100
AcDbLinetypeTableRecord
  2
BYBLOCK
 70
     0
  3

 72
    65
 73
     0
 40
0.0
  0
LTYPE
  5
15
330
5
100
AcDbSymbolTableRecord
100
AcDbLinetypeTableRecord
  2
BYLAYER
 70
     0
  3

 72
    65
 73
     0
 40
0.0
  0
LTYPE
  5
16
330
5
100
AcDbSymbolTableRecord
100
AcDbLinetypeTableRecord
  2
CONTINUOUS
 70
     0
  3
Solid line
 72
    65
 73
     0
 40
0.0
  0
LTYPE
  5
3B
330
5
100
AcDbSymbolTableRecord
100
AcDbLinetypeTableRecord
  2
HIDDEN
 70
     0
  3
Hidden __ __ __ __ __ __ __ __ __ __ __ __ __ __
 72
    65
 73
     2
 40
0.075
 49
0.05
 74
     0
 49
-0.025
 74
     0
  0
LTYPE
  5
3C
330
5
100
AcDbSymbolTableRecord
100
AcDbLinetypeTableRecord
  2
PHANTOM
 70
     0
  3
Phantom ______  __  __  ______  __  __  ______
 72
    65
 73
     6
 40
0.5
 49
0.25
 74
     0
 49
-0.05
 74
     0
 49
0.05
 74
     0
 49
-0.05
 74
     0
 49
0.05
 74
     0
 49
-0.05
 74
     0
  0
LTYPE
  5
3D
330
5
100
AcDbSymbolTableRecord
100
AcDbLinetypeTableRecord
  2
CENTER
 70
     0
  3
Center ____ _ ____ _ ____ _ ____ _ ____ _ ____
 72
    65
 73
     4
 40
0.4
 49
0.25
 74
     0
 49
-0.05
 74
     0
 49
0.05
 74
     0
 49
-0.05
 74
     0
  0
LTYPE
  5
3E
330
5
100
AcDbSymbolTableRecord
100
AcDbLinetypeTableRecord
  2
CENTERX2
 70
     0
  3
Center (2x) ________  __  ________  __  _____
 72
    65
 73
     4
 40
0.8
 49
0.5
 74
     0
 49
-0.1
 74
     0
 49
0.1
 74
     0
 49
-0.1
 74
     0
  0
LTYPE
  5
3F
330
5
100
AcDbSymbolTableRecord
100
AcDbLinetypeTableRecord
  2
DOT2
 70
     0
  3
Dot (.5x) ........................................
 72
    65
 73
     2
 40
0.025
 49
0.0
 74
     0
 49
-0.025
 74
     0
  0
ENDTAB
  0
TABLE
  2
LAYER
  5
2
330
0
100
AcDbSymbolTable
 70
     2
  0
LAYER
  5
10
330
2
100
AcDbSymbolTableRecord
100
AcDbLayerTableRecord
  2
0
 70
     0
 62
     7
  6
CONTINUOUS
  0
LAYER
  5
40
330
2
100
AcDbSymbolTableRecord
100
AcDbLayerTableRecord
  2
FORMAT
 70
     0
 62
     7
  6
CONTINUOUS
  0
ENDTAB
  0
TABLE
  2
STYLE
  5
3
330
0
100
AcDbSymbolTable
 70
     4
  0
STYLE
  5
11
330
3
100
AcDbSymbolTableRecord
100
AcDbTextStyleTableRecord
  2
STANDARD
 70
     0
 40
0.0
 41
1.0
 50
0.0
 71
     0
 42
0.2
  3
txt
  4

  0
STYLE
  5
6E
330
3
100
AcDbSymbolTableRecord
100
AcDbTextStyleTableRecord
  2
SLDTEXTSTYLE0
 70
     0
 40
0.0
 41
0.75
 50
0.0
 71
     0
 42
0.2
  3
TXT
  4

  0
STYLE
  5
93
330
3
100
AcDbSymbolTableRecord
100
AcDbTextStyleTableRecord
  2
SLDTEXTSTYLE1
 70
     0
 40
0.0
 41
0.6875
 50
0.0
 71
     0
 42
0.2
  3
TXT
  4

  0
STYLE
  5
99
330
3
100
AcDbSymbolTableRecord
100
AcDbTextStyleTableRecord
  2
SLDTEXTSTYLE2
 70
     0
 40
0.0
 41
0.6944444444
 50
0.0
 71
     0
 42
0.2
  3
TXT
  4

  0
ENDTAB
  0
TABLE
  2
VIEW
  5
6
330
0
100
AcDbSymbolTable
 70
     0
  0
ENDTAB
  0
TABLE
  2
UCS
  5
7
330
0
100
AcDbSymbolTable
 70
     0
  0
ENDTAB
  0
TABLE
  2
APPID
  5
9
330
0
100
AcDbSymbolTable
 70
     1
  0
APPID
  5
12
330
9
100
AcDbSymbolTableRecord
100
AcDbRegAppTableRecord
  2
ACAD
 70
     0
  0
ENDTAB
  0
TABLE
  2
DIMSTYLE
  5
A
330
0
100
AcDbSymbolTable
 70
     1
  0
DIMSTYLE
105
27
330
A
100
AcDbSymbolTableRecord
100
AcDbDimStyleTableRecord
  2
STANDARD
 70
     0
  3

  4

  5

  6

  7

 40
1.0
 41
0.18
 42
0.0625
 43
0.38
 44
0.18
 45
0.0
 46
0.0
 47
0.0
 48
0.0
140
0.18
141
0.09
142
0.0
143
25.4
144
1.0
145
0.0
146
1.0
147
0.09
 71
     0
 72
     0
 73
     1
 74
     1
 75
     0
 76
     0
 77
     0
 78
     0
170
     0
171
     2
172
     0
173
     0
174
     0
175
     0
176
     0
177
     0
178
     0
270
     2
271
     4
272
     4
273
     2
274
     2
340
11
275
     0
280
     0
281
     0
282
     0
283
     1
284
     0
285
     0
286
     0
287
     3
288
     0
  0
ENDTAB
  0
TABLE
  2
BLOCK_RECORD
  5
1
330
0
100
AcDbSymbolTable
 70
     4
  0
BLOCK_RECORD
  5
1F
330
1
100
AcDbSymbolTableRecord
100
AcDbBlockTableRecord
  2
*MODEL_SPACE
  0
BLOCK_RECORD
  5
1B
330
1
100
AcDbSymbolTableRecord
100
AcDbBlockTableRecord
  2
*PAPER_SPACE
  0
BLOCK_RECORD
  5
A8
330
1
100
AcDbSymbolTableRecord
100
AcDbBlockTableRecord
  2
SW_NOTE_0
  0
BLOCK_RECORD
  5
AE
330
1
100
AcDbSymbolTableRecord
100
AcDbBlockTableRecord
  2
SW_NOTE_1
  0
BLOCK_RECORD
  5
C2
330
1
100
AcDbSymbolTableRecord
100
AcDbBlockTableRecord
  2
SW_NOTE_2
  0
ENDTAB
  0
ENDSEC
  0
SECTION
  2
BLOCKS
  0
BLOCK
  5
20
330
1F
100
AcDbEntity
  8
0
100
AcDbBlockBegin
  2
*MODEL_SPACE
 70
     0
 10
0.0
 20
0.0
 30
0.0
  3
*MODEL_SPACE
  1

  0
ENDBLK
  5
21
330
1F
100
AcDbEntity
  8
0
100
AcDbBlockEnd
  0
BLOCK
  5
1C
330
1B
100
AcDbEntity
 67
     1
  8
0
100
AcDbBlockBegin
  2
*PAPER_SPACE
 70
     0
 10
0.0
 20
0.0
 30
0.0
  3
*PAPER_SPACE
  1

  0
ENDBLK
  5
1D
330
1B
100
AcDbEntity
 67
     1
  8
0
100
AcDbBlockEnd
  0
BLOCK
  5
A9
330
A8
100
AcDbEntity
  8
0
100
AcDbBlockBegin
  2
SW_NOTE_0
 70
     0
 10
0.0
 20
0.0
 30
0.0
  3
SW_NOTE_0
  1

  0
MTEXT
  5
AB
330
A8
100
AcDbEntity
  8
0
  6
CONTINUOUS
 62
     0
100
AcDbMText
 10
0.0
 20
0.0773440644
 30
0.0
 40
0.06
 41
0.0
 71
     1
 72
     1
  1
INTERPRET GEOMETRIC
  7
SLDTEXTSTYLE0
  0
MTEXT
  5
AC
330
A8
100
AcDbEntity
  8
0
  6
CONTINUOUS
 62
     0
100
AcDbMText
 10
0.0
 20
-0.0220260102
 30
0.0
 40
0.06
 41
0.0
 71
     1
 72
     1
  1
TOLERANCING PER:
  7
SLDTEXTSTYLE0
  0
ENDBLK
  5
AA
330
A8
100
AcDbEntity
  8
0
100
AcDbBlockEnd
  0
BLOCK
  5
AF
330
AE
100
AcDbEntity
  8
0
100
AcDbBlockBegin
  2
SW_NOTE_1
 70
     0
 10
0.0
 20
0.0
 30
0.0
  3
SW_NOTE_1
  1

  0
MTEXT
  5
B1
330
AE
100
AcDbEntity
  8
0
  6
CONTINUOUS
 62
     0
100
AcDbMText
 10
0.0
 20
0.0837894031
 30
0.0
 40
0.065
 41
0.0
 71
     1
 72
     1
  1
DIMENSIONS ARE IN INCHES
  7
SLDTEXTSTYLE0
  0
MTEXT
  5
B2
330
AE
100
AcDbEntity
  8
0
  6
CONTINUOUS
 62
     0
100
AcDbMText
 10
0.0
 20
-0.0205806729
 30
0.0
 40
0.065
 41
0.0
 71
     1
 72
     1
  1
TOLERANCES:
  7
SLDTEXTSTYLE0
  0
MTEXT
  5
B3
330
AE
100
AcDbEntity
  8
0
  6
CONTINUOUS
 62
     0
100
AcDbMText
 10
0.0
 20
-0.1249507489
 30
0.0
 40
0.065
 41
0.0
 71
     1
 72
     1
  1
FRACTIONAL
  7
SLDTEXTSTYLE0
  0
MTEXT
  5
B4
330
AE
100
AcDbEntity
  8
0
  6
CONTINUOUS
 62
     0
100
AcDbMText
 10
0.5175850875
 20
-0.1249507489
 30
0.0
 40
0.065
 41
0.0
 71
     1
 72
     1
  1
%%p
  7
SLDTEXTSTYLE0
  0
MTEXT
  5
B5
330
AE
100
AcDbEntity
  8
0
  6
CONTINUOUS
 62
     0
100
AcDbMText
 10
0.0
 20
-0.2293208248
 30
0.0
 40
0.065
 41
0.0
 71
     1
 72
     1
  1
ANGULAR: MACH
  7
SLDTEXTSTYLE0
  0
MTEXT
  5
B6
330
AE
100
AcDbEntity
  8
0
  6
CONTINUOUS
 62
     0
100
AcDbMText
 10
0.7233732769
 20
-0.2293208248
 30
0.0
 40
0.065
 41
0.0
 71
     1
 72
     1
  1
%%p
  7
SLDTEXTSTYLE0
  0
MTEXT
  5
B7
330
AE
100
AcDbEntity
  8
0
  6
CONTINUOUS
 62
     0
100
AcDbMText
 10
0.7852857683
 20
-0.2293208248
 30
0.0
 40
0.065
 41
0.0
 71
     1
 72
     1
  1
     BEND 
  7
SLDTEXTSTYLE0
  0
MTEXT
  5
B8
330
AE
100
AcDbEntity
  8
0
  6
CONTINUOUS
 62
     0
100
AcDbMText
 10
1.14784136
 20
-0.2293208248
 30
0.0
 40
0.065
 41
0.0
 71
     1
 72
     1
  1
%%p
  7
SLDTEXTSTYLE0
  0
MTEXT
  5
B9
330
AE
100
AcDbEntity
  8
0
  6
CONTINUOUS
 62
     0
100
AcDbMText
 10
0.0
 20
-0.3336909008
 30
0.0
 40
0.065
 41
0.0
 71
     1
 72
     1
  1
TWO PLACE DECIMAL    
  7
SLDTEXTSTYLE0
  0
MTEXT
  5
BA
330
AE
100
AcDbEntity
  8
0
  6
CONTINUOUS
 62
     0
100
AcDbMText
 10
0.9794349188
 20
-0.3336909008
 30
0.0
 40
0.065
 41
0.0
 71
     1
 72
     1
  1
%%p
  7
SLDTEXTSTYLE0
  0
MTEXT
  5
BB
330
AE
100
AcDbEntity
  8
0
  6
CONTINUOUS
 62
     0
100
AcDbMText
 10
0.0
 20
-0.4380609768
 30
0.0
 40
0.065
 41
0.0
 71
     1
 72
     1
  1
THREE PLACE DECIMAL  
  7
SLDTEXTSTYLE0
  0
MTEXT
  5
BC
330
AE
100
AcDbEntity
  8
0
  6
CONTINUOUS
 62
     0
100
AcDbMText
 10
0.9738038639
 20
-0.4380609768
 30
0.0
 40
0.065
 41
0.0
 71
     1
 72
     1
  1
%%p
  7
SLDTEXTSTYLE0
  0
ENDBLK
  5
B0
330
AE
100
AcDbEntity
  8
0
100
AcDbBlockEnd
  0
BLOCK
  5
C3
330
C2
100
AcDbEntity
  8
0
100
AcDbBlockBegin
  2
SW_NOTE_2
 70
     0
 10
0.0
 20
0.0
 30
0.0
  3
SW_NOTE_2
  1

  0
MTEXT
  5
C5
330
C2
100
AcDbEntity
  8
0
  6
CONTINUOUS
 62
     0
100
AcDbMText
 10
0.0
 20
0.0773440644
 30
0.0
 40
0.06
 41
0.0
 71
     1
 72
     1
  1
THE INFORMATION CONTAINED IN THIS
  7
SLDTEXTSTYLE0
  0
MTEXT
  5
C6
330
C2
100
AcDbEntity
  8
0
  6
CONTINUOUS
 62
     0
100
AcDbMText
 10
0.0
 20
-0.0220260102
 30
0.0
 40
0.06
 41
0.0
 71
     1
 72
     1
  1
DRAWING IS THE SOLE PROPERTY OF
  7
SLDTEXTSTYLE0
  0
MTEXT
  5
C7
330
C2
100
AcDbEntity
  8
0
  6
CONTINUOUS
 62
     0
100
AcDbMText
 10
0.0
 20
-0.1213960848
 30
0.0
 40
0.06
 41
0.0
 71
     1
 72
     1
  1
Candy Controls.  ANY 
  7
SLDTEXTSTYLE0
  0
MTEXT
  5
C8
330
C2
100
AcDbEntity
  8
0
  6
CONTINUOUS
 62
     0
100
AcDbMText
 10
0.0
 20
-0.2207661593
 30
0.0
 40
0.06
 41
0.0
 71
     1
 72
     1
  1
REPRODUCTION IN PART OR AS A WHOLE
  7
SLDTEXTSTYLE0
  0
MTEXT
  5
C9
330
C2
100
AcDbEntity
  8
0
  6
CONTINUOUS
 62
     0
100
AcDbMText
 10
0.0
 20
-0.3201362339
 30
0.0
 40
0.06
 41
0.0
 71
     1
 72
     1
  1
WITHOUT THE WRITTEN PERMISSION OF
  7
SLDTEXTSTYLE0
  0
MTEXT
  5
CA
330
C2
100
AcDbEntity
  8
0
  6
CONTINUOUS
 62
     0
100
AcDbMText
 10
0.0
 20
-0.4195063085
 30
0.0
 40
0.06
 41
0.0
 71
     1
 72
     1
  1
Candy Controls IS 
  7
SLDTEXTSTYLE0
  0
MTEXT
  5
CB
330
C2
100
AcDbEntity
  8
0
  6
CONTINUOUS
 62
     0
100
AcDbMText
 10
0.0
 20
-0.518876383
 30
0.0
 40
0.06
 41
0.0
 71
     1
 72
     1
  1
PROHIBITED.
  7
SLDTEXTSTYLE0
  0
ENDBLK
  5
C4
330
C2
100
AcDbEntity
  8
0
100
AcDbBlockEnd
  0
ENDSEC
  0
SECTION
  2
ENTITIES
  0
LINE
  5
41
330
1F
100
AcDbEntity
  8
0
  6
CONTINUOUS
 62
     7
100
AcDbLine
 10
0.329927
 20
8.1920731707
 30
0.0
 11
10.629927
 21
8.1920731707
 31
0.0
  0
LINE
  5
42
330
1F
100
AcDbEntity
  8
0
  6
CONTINUOUS
 62
     7
100
AcDbLine
 10
0.329927
 20
8.1920731707
 30
0.0
 11
0.329927
 21
0.3920731707
 31
0.0
  0
LINE
  5
43
330
1F
100
AcDbEntity
  8
0
  6
CONTINUOUS
 62
     7
100
AcDbLine
 10
10.629927
 20
0.3920731707
 30
0.0
 11
0.329927
 21
0.3920731707
 31
0.0
  0
LINE
  5
44
330
1F
100
AcDbEntity
  8
0
  6
CONTINUOUS
 62
     7
100
AcDbLine
 10
10.629927
 20
0.3920731707
 30
0.0
 11
10.629927
 21
8.1920731707
 31
0.0
  0
LINE
  5
45
330
1F
100
AcDbEntity
  8
0
  6
CONTINUOUS
 62
     7
100
AcDbLine
 10
4.7981841288
 20
0.3920731707
 30
0.0
 11
4.7981841288
 21
2.3564211366
 31
0.0
  0
LINE
  5
46
330
1F
100
AcDbEntity
  8
0
  6
CONTINUOUS
 62
     7
100
AcDbLine
 10
2.8210345579
 20
2.3564211366
 30
0.0
 11
10.629927
 21
2.3564211366
 31
0.0
  0
LINE
  5
47
330
1F
100
AcDbEntity
  8
0
  6
CONTINUOUS
 62
     7
100
AcDbLine
 10
6.1796352514
 20
2.3564211366
 30
0.0
 11
6.1796352514
 21
0.3920731707
 31
0.0
  0
LINE
  5
48
330
1F
100
AcDbEntity
  8
0
  6
CONTINUOUS
 62
     7
100
AcDbLine
 10
7.8712070044
 20
2.3564211366
 30
0.0
 11
7.8712070044
 21
0.3920731707
 31
0.0
  0
LINE
  5
49
330
1F
100
AcDbEntity
  8
0
  6
CONTINUOUS
 62
     7
100
AcDbLine
 10
7.8712070044
 20
0.6049590101
 30
0.0
 11
10.629927
 21
0.6049590101
 31
0.0
  0
LINE
  5
4A
330
1F
100
AcDbEntity
  8
0
  6
CONTINUOUS
 62
     7
100
AcDbLine
 10
7.8712070044
 20
1.1119362457
 30
0.0
 11
10.629927
 21
1.1119362457
 31
0.0
  0
LINE
  5
4B
330
1F
100
AcDbEntity
  8
0
  6
CONTINUOUS
 62
     7
100
AcDbLine
 10
7.8712070044
 20
1.9892703708
 30
0.0
 11
10.629927
 21
1.9892703708
 31
0.0
  0
LINE
  5
4C
330
1F
100
AcDbEntity
  8
0
  6
CONTINUOUS
 62
     7
100
AcDbLine
 10
8.266751752
 20
1.1119362457
 30
0.0
 11
8.266751752
 21
0.6049590101
 31
0.0
  0
LINE
  5
4D
330
1F
100
AcDbEntity
  8
0
  6
CONTINUOUS
 62
     7
100
AcDbLine
 10
8.6943435176
 20
0.6049590101
 30
0.0
 11
8.6943435176
 21
0.3920731707
 31
0.0
  0
LINE
  5
4E
330
1F
100
AcDbEntity
  8
0
  6
CONTINUOUS
 62
     7
100
AcDbLine
 10
10.0579917045
 20
1.1119362457
 30
0.0
 11
10.0579917045
 21
0.6049590101
 31
0.0
  0
LINE
  5
4F
330
1F
100
AcDbEntity
  8
0
  6
CONTINUOUS
 62
     7
100
AcDbLine
 10
9.6662556631
 20
0.6049590101
 30
0.0
 11
9.6662556631
 21
0.3920731707
 31
0.0
  0
LINE
  5
50
330
1F
100
AcDbEntity
  8
0
  6
CONTINUOUS
 62
     7
100
AcDbLine
 10
2.8210345579
 20
0.5883479999
 30
0.0
 11
6.1796352514
 21
0.5883479999
 31
0.0
  0
LINE
  5
51
330
1F
100
AcDbEntity
  8
0
  6
CONTINUOUS
 62
     7
100
AcDbLine
 10
6.1796352514
 20
1.7939211366
 30
0.0
 11
7.8712070044
 21
1.7939211366
 31
0.0
  0
LINE
  5
52
330
1F
100
AcDbEntity
  8
0
  6
CONTINUOUS
 62
     7
100
AcDbLine
 10
6.1796352514
 20
1.9814211366
 30
0.0
 11
7.8712070044
 21
1.9814211366
 31
0.0
  0
LINE
  5
53
330
1F
100
AcDbEntity
  8
0
  6
CONTINUOUS
 62
     7
100
AcDbLine
 10
6.1796352514
 20
2.1689211366
 30
0.0
 11
7.8712070044
 21
2.1689211366
 31
0.0
  0
LINE
  5
54
330
1F
100
AcDbEntity
  8
0
  6
CONTINUOUS
 62
     7
100
AcDbLine
 10
7.8712070044
 20
1.2314211366
 30
0.0
 11
6.1796352514
 21
1.2314211366
 31
0.0
  0
LINE
  5
55
330
1F
100
AcDbEntity
  8
0
  6
CONTINUOUS
 62
     7
100
AcDbLine
 10
7.3921580388
 20
2.3564211366
 30
0.0
 11
7.3921580388
 21
1.2314211366
 31
0.0
  0
LINE
  5
56
330
1F
100
AcDbEntity
  8
0
  6
CONTINUOUS
 62
     7
100
AcDbLine
 10
6.9236308342
 20
2.3564211366
 30
0.0
 11
6.9236308342
 21
1.2314211366
 31
0.0
  0
LINE
  5
57
330
1F
100
AcDbEntity
  8
0
  6
CONTINUOUS
 62
     7
100
AcDbLine
 10
4.7981841288
 20
0.8557965305
 30
0.0
 11
6.1796352514
 21
0.8557965305
 31
0.0
  0
LINE
  5
58
330
1F
100
AcDbEntity
  8
0
  6
CONTINUOUS
 62
     7
100
AcDbLine
 10
4.7981841288
 20
1.1257965305
 30
0.0
 11
6.1796352514
 21
1.1257965305
 31
0.0
  0
LINE
  5
59
330
1F
100
AcDbEntity
  8
0
  6
CONTINUOUS
 62
     7
100
AcDbLine
 10
2.8210345579
 20
0.3920731707
 30
0.0
 11
2.8210345579
 21
2.3564211366
 31
0.0
  0
LINE
  5
5A
330
1F
100
AcDbEntity
  8
0
  6
CONTINUOUS
 62
     7
100
AcDbLine
 10
2.8210345579
 20
1.1064211366
 30
0.0
 11
4.7981841288
 21
1.1064211366
 31
0.0
  0
LINE
  5
5B
330
1F
100
AcDbEntity
  8
0
  6
CONTINUOUS
 62
     7
100
AcDbLine
 10
2.8210345579
 20
1.3564211366
 30
0.0
 11
4.7981841288
 21
1.3564211366
 31
0.0
  0
LINE
  5
5C
330
1F
100
AcDbEntity
  8
0
  6
CONTINUOUS
 62
     7
100
AcDbLine
 10
2.8210345579
 20
1.6064211366
 30
0.0
 11
4.7981841288
 21
1.6064211366
 31
0.0
  0
LINE
  5
5D
330
1F
100
AcDbEntity
  8
0
  6
CONTINUOUS
 62
     7
100
AcDbLine
 10
2.8210345579
 20
1.8564211366
 30
0.0
 11
4.7981841288
 21
1.8564211366
 31
0.0
  0
LINE
  5
5E
330
1F
100
AcDbEntity
  8
0
  6
CONTINUOUS
 62
     7
100
AcDbLine
 10
3.8190146875
 20
2.3564211366
 30
0.0
 11
3.8190146875
 21
0.5883479999
 31
0.0
  0
LINE
  5
5F
330
1F
100
AcDbEntity
  8
0
  6
CONTINUOUS
 62
     7
100
AcDbLine
 10
6.1796352514
 20
2.2020813496
 30
0.0
 11
4.7981841288
 21
2.2020813496
 31
0.0
  0
LINE
  5
60
330
1F
100
AcDbEntity
  8
0
  6
CONTINUOUS
 62
     7
100
AcDbLine
 10
7.8712070044
 20
1.6064211366
 30
0.0
 11
6.1796352514
 21
1.6064211366
 31
0.0
  0
LINE
  5
61
330
1F
100
AcDbEntity
  8
0
  6
CONTINUOUS
 62
     7
100
AcDbLine
 10
7.8712070044
 20
1.4189211366
 30
0.0
 11
6.1796352514
 21
1.4189211366
 31
0.0
  0
LINE
  5
62
330
1F
100
AcDbEntity
  8
0
  6
CONTINUOUS
 62
     7
100
AcDbLine
 10
2.8210345579
 20
2.1064211366
 30
0.0
 11
4.7981841288
 21
2.1064211366
 31
0.0
  0
LINE
  5
63
330
1F
100
AcDbEntity
  8
0
  6
CONTINUOUS
 62
     7
100
AcDbLine
 10
4.7981841288
 20
1.3957965305
 30
0.0
 11
6.1796352514
 21
1.3957965305
 31
0.0
  0
LINE
  5
64
330
1F
100
AcDbEntity
  8
0
  6
CONTINUOUS
 62
     7
100
AcDbLine
 10
2.8210345579
 20
0.8564211366
 30
0.0
 11
4.7981841288
 21
0.8564211366
 31
0.0
  0
LINE
  5
65
330
1F
100
AcDbEntity
  8
0
  6
CONTINUOUS
 62
     7
100
AcDbLine
 10
1.1838252943
 20
0.3920731707
 30
0.0
 11
1.1838252943
 21
1.3064211366
 31
0.0
  0
LINE
  5
66
330
1F
100
AcDbEntity
  8
0
  6
CONTINUOUS
 62
     7
100
AcDbLine
 10
2.8210345579
 20
1.3064211366
 30
0.0
 11
1.1838252943
 21
1.3064211366
 31
0.0
  0
LINE
  5
67
330
1F
100
AcDbEntity
  8
0
  6
CONTINUOUS
 62
     7
100
AcDbLine
 10
8.660927
 20
0.3920731707
 30
0.0
 11
8.660927
 21
0.3072739649
 31
0.0
  0
LINE
  5
68
330
1F
100
AcDbEntity
  8
0
  6
CONTINUOUS
 62
     7
100
AcDbLine
 10
6.692177
 20
0.3920731707
 30
0.0
 11
6.692177
 21
0.3072739649
 31
0.0
  0
LINE
  5
69
330
1F
100
AcDbEntity
  8
0
  6
CONTINUOUS
 62
     7
100
AcDbLine
 10
4.723427
 20
0.3920731707
 30
0.0
 11
4.723427
 21
0.3072739649
 31
0.0
  0
LINE
  5
6A
330
1F
100
AcDbEntity
  8
0
  6
CONTINUOUS
 62
     7
100
AcDbLine
 10
2.754677
 20
0.3920731707
 30
0.0
 11
2.754677
 21
0.3072739649
 31
0.0
  0
LINE
  5
6B
330
1F
100
AcDbEntity
  8
0
  6
CONTINUOUS
 62
     7
100
AcDbLine
 10
2.754677
 20
0.3920731707
 30
0.0
 11
2.7672319738
 21
0.3575
 31
0.0
  0
LINE
  5
6C
330
1F
100
AcDbEntity
  8
0
  6
CONTINUOUS
 62
     7
100
AcDbLine
 10
2.7672319738
 20
0.3575
 30
0.0
 11
2.7414258825
 21
0.3575
 31
0.0
  0
LINE
  5
6D
330
1F
100
AcDbEntity
  8
0
  6
CONTINUOUS
 62
     7
100
AcDbLine
 10
2.7414258825
 20
0.3575
 30
0.0
 11
2.754677
 21
0.3920731707
 31
0.0
  0
MTEXT
  5
91
330
1F
100
AcDbEntity
  8
0
  6
CONTINUOUS
 62
     7
100
AcDbMText
 10
4.9775846961
 20
0.5178452352
 30
0.0
 40
0.0625
 41
0.0
 71
     1
 72
     1
  1
DO NOT SCALE DRAWING
  7
SLDTEXTSTYLE0
  0
MTEXT
  5
92
330
1F
100
AcDbEntity
  8
0
  6
CONTINUOUS
 62
     7
100
AcDbMText
 10
8.9062902096
 20
0.9417064595
 30
0.0
 40
0.125
 41
0.0
 71
     1
 72
     1
  1
CL7-16
  7
SLDTEXTSTYLE0
  0
MTEXT
  5
94
330
1F
100
AcDbEntity
  8
0
  6
CONTINUOUS
 62
     7
100
AcDbMText
 10
9.7571278483
 20
0.5524239532
 30
0.0
 40
0.1
 41
0.0
 71
     1
 72
     1
  1
SHEET 1 OF 1
  7
SLDTEXTSTYLE1
  0
MTEXT
  5
95
330
1F
100
AcDbEntity
  8
0
  6
CONTINUOUS
 62
     7
100
AcDbMText
 10
4.8448077858
 20
2.3132954224
 30
0.0
 40
0.07
 41
0.0
 71
     1
 72
     1
  1
UNLESS OTHERWISE SPECIFIED:
  7
SLDTEXTSTYLE0
  0
MTEXT
  5
96
330
1F
100
AcDbEntity
  8
0
  6
CONTINUOUS
 62
     7
100
AcDbMText
 10
7.9586139647
 20
0.5520987879
 30
0.0
 40
0.1
 41
0.0
 71
     1
 72
     1
  1
SCALE: 2:1
  7
SLDTEXTSTYLE0
  0
MTEXT
  5
97
330
1F
100
AcDbEntity
  8
0
  6
CONTINUOUS
 62
     7
100
AcDbMText
 10
8.7023691647
 20
0.5486763345
 30
0.0
 40
0.1
 41
0.0
 71
     1
 72
     1
  1
WEIGHT: 
  7
SLDTEXTSTYLE0
  0
MTEXT
  5
98
330
1F
100
AcDbEntity
  8
0
  6
CONTINUOUS
 62
     7
100
AcDbMText
 10
10.2277580983
 20
1.081966299
 30
0.0
 40
0.1
 41
0.0
 71
     1
 72
     1
  1
REV
  7
SLDTEXTSTYLE0
  0
MTEXT
  5
9A
330
1F
100
AcDbEntity
  8
0
  6
CONTINUOUS
 62
     7
100
AcDbMText
 10
8.2984570898
 20
1.0858725293
 30
0.0
 40
0.1
 41
0.0
 71
     1
 72
     1
  1
DWG.  NO.
  7
SLDTEXTSTYLE2
  0
MTEXT
  5
9B
330
1F
100
AcDbEntity
  8
0
  6
CONTINUOUS
 62
     7
100
AcDbMText
 10
7.9598482632
 20
0.9442140768
 30
0.0
 40
0.25
 41
0.0
 71
     1
 72
     1
  1
A
  7
SLDTEXTSTYLE0
  0
MTEXT
  5
9C
330
1F
100
AcDbEntity
  8
0
  6
CONTINUOUS
 62
     7
100
AcDbMText
 10
7.9519581822
 20
1.0872713483
 30
0.0
 40
0.1
 41
0.0
 71
     1
 72
     1
  1
SIZE
  7
SLDTEXTSTYLE0
  0
MTEXT
  5
9D
330
1F
100
AcDbEntity
  8
0
  6
CONTINUOUS
 62
     7
100
AcDbMText
 10
7.9170704177
 20
1.9547881128
 30
0.0
 40
0.1
 41
0.0
 71
     1
 72
     1
  1
TITLE:
  7
SLDTEXTSTYLE0
  0
MTEXT
  5
9E
330
1F
100
AcDbEntity
  8
0
  6
CONTINUOUS
 62
     7
100
AcDbMText
 10
7.0363774929
 20
2.2906161274
 30
0.0
 40
0.065
 41
0.0
 71
     1
 72
     1
  1
NAME
  7
SLDTEXTSTYLE0
  0
MTEXT
  5
9F
330
1F
100
AcDbEntity
  8
0
  6
CONTINUOUS
 62
     7
100
AcDbMText
 10
7.5281510634
 20
2.2888799118
 30
0.0
 40
0.065
 41
0.0
 71
     1
 72
     1
  1
DATE
  7
SLDTEXTSTYLE0
  0
MTEXT
  5
A0
330
1F
100
AcDbEntity
  8
0
  6
CONTINUOUS
 62
     7
100
AcDbMText
 10
6.2277147029
 20
1.1876913145
 30
0.0
 40
0.065
 41
0.0
 71
     1
 72
     1
  1
COMMENTS:
  7
SLDTEXTSTYLE0
  0
MTEXT
  5
A1
330
1F
100
AcDbEntity
  8
0
  6
CONTINUOUS
 62
     7
100
AcDbMText
 10
6.2268411461
 20
1.3536101679
 30
0.0
 40
0.065
 41
0.0
 71
     1
 72
     1
  1
Q.A.
  7
SLDTEXTSTYLE0
  0
MTEXT
  5
A2
330
1F
100
AcDbEntity
  8
0
  6
CONTINUOUS
 62
     7
100
AcDbMText
 10
6.2284654509
 20
1.5395328424
 30
0.0
 40
0.065
 41
0.0
 71
     1
 72
     1
  1
MFG APPR.
  7
SLDTEXTSTYLE0
  0
MTEXT
  5
A3
330
1F
100
AcDbEntity
  8
0
  6
CONTINUOUS
 62
     7
100
AcDbMText
 10
6.2235171344
 20
1.7267501785
 30
0.0
 40
0.065
 41
0.0
 71
     1
 72
     1
  1
ENG APPR.
  7
SLDTEXTSTYLE0
  0
MTEXT
  5
A4
330
1F
100
AcDbEntity
  8
0
  6
CONTINUOUS
 62
     7
100
AcDbMText
 10
6.2264103951
 20
1.9092699088
 30
0.0
 40
0.065
 41
0.0
 71
     1
 72
     1
  1
CHECKED
  7
SLDTEXTSTYLE0
  0
MTEXT
  5
A5
330
1F
100
AcDbEntity
  8
0
  6
CONTINUOUS
 62
     7
100
AcDbMText
 10
6.2242794356
 20
2.1016301232
 30
0.0
 40
0.065
 41
0.0
 71
     1
 72
     1
  1
DRAWN
  7
SLDTEXTSTYLE0
  0
MTEXT
  5
A6
330
1F
100
AcDbEntity
  8
0
  6
CONTINUOUS
 62
     7
100
AcDbMText
 10
4.8208600979
 20
0.834523235
 30
0.0
 40
0.06
 41
0.0
 71
     1
 72
     1
  1
FINISH
  7
SLDTEXTSTYLE0
  0
MTEXT
  5
A7
330
1F
100
AcDbEntity
  8
0
  6
CONTINUOUS
 62
     7
100
AcDbMText
 10
4.8181240648
 20
1.1028217587
 30
0.0
 40
0.06
 41
0.0
 71
     1
 72
     1
  1
MATERIAL
  7
SLDTEXTSTYLE0
  0
INSERT
  5
AD
330
1F
100
AcDbEntity
  8
0
  6
CONTINUOUS
 62
     7
100
AcDbBlockReference
  2
SW_NOTE_0
 10
4.8231926633
 20
1.2646542947
 30
0.0
  0
INSERT
  5
BD
330
1F
100
AcDbEntity
  8
0
  6
CONTINUOUS
 62
     7
100
AcDbBlockReference
  2
SW_NOTE_1
 10
4.8353339353
 20
2.0049168724
 30
0.0
  0
MTEXT
  5
BE
330
1F
100
AcDbEntity
  8
0
  6
CONTINUOUS
 62
     7
100
AcDbMText
 10
3.5531400086
 20
0.5200091997
 30
0.0
 40
0.0625
 41
0.0
 71
     1
 72
     1
  1
APPLICATION
  7
SLDTEXTSTYLE0
  0
MTEXT
  5
BF
330
1F
100
AcDbEntity
  8
0
  6
CONTINUOUS
 62
     7
100
AcDbMText
 10
4.1005607758
 20
0.7502454275
 30
0.0
 40
0.0625
 41
0.0
 71
     1
 72
     1
  1
USED ON
  7
SLDTEXTSTYLE0
  0
MTEXT
  5
C0
330
1F
100
AcDbEntity
  8
0
  6
CONTINUOUS
 62
     7
100
AcDbMText
 10
3.1040019536
 20
0.7492094783
 30
0.0
 40
0.0625
 41
0.0
 71
     1
 72
     1
  1
NEXT ASSY
  7
SLDTEXTSTYLE0
  0
MTEXT
  5
C1
330
1F
100
AcDbEntity
  8
0
  6
CONTINUOUS
 62
     7
100
AcDbMText
 10
1.3712489489
 20
1.2496672684
 30
0.0
 40
0.06
 41
0.0
 71
     1
 72
     1
  1
PROPRIETARY AND CONFIDENTIAL
  7
SLDTEXTSTYLE0
  0
INSERT
  5
CC
330
1F
100
AcDbEntity
  8
0
  6
CONTINUOUS
 62
     7
100
AcDbBlockReference
  2
SW_NOTE_2
 10
1.2226209074
 20
1.0313492921
 30
0.0
  0
MTEXT
  5
CD
330
1F
100
AcDbEntity
  8
0
  6
CONTINUOUS
 62
     7
100
AcDbMText
 10
1.7387909509
 20
0.3105864247
 30
0.0
 40
0.09375
 41
0.0
 71
     1
 72
     1
  1
5
  7
SLDTEXTSTYLE0
  0
MTEXT
  5
CE
330
1F
100
AcDbEntity
  8
0
  6
CONTINUOUS
 62
     7
100
AcDbMText
 10
3.723800327
 20
0.3137237518
 30
0.0
 40
0.09375
 41
0.0
 71
     1
 72
     1
  1
4
  7
SLDTEXTSTYLE0
  0
MTEXT
  5
CF
330
1F
100
AcDbEntity
  8
0
  6
CONTINUOUS
 62
     7
100
AcDbMText
 10
5.6324457277
 20
0.3116191842
 30
0.0
 40
0.09375
 41
0.0
 71
     1
 72
     1
  1
3
  7
SLDTEXTSTYLE0
  0
MTEXT
  5
D0
330
1F
100
AcDbEntity
  8
0
  6
CONTINUOUS
 62
     7
100
AcDbMText
 10
7.6059721724
 20
0.3124391351
 30
0.0
 40
0.09375
 41
0.0
 71
     1
 72
     1
  1
2
  7
SLDTEXTSTYLE0
  0
MTEXT
  5
D1
330
1F
100
AcDbEntity
  8
0
  6
CONTINUOUS
 62
     7
100
AcDbMText
 10
9.6619921328
 20
0.301372012
 30
0.0
 40
0.09375
 41
0.0
 71
     1
 72
     1
  1
1
  7
SLDTEXTSTYLE0
  0
LINE
  5
D2
330
1F
100
AcDbEntity
  8
0
  6
CONTINUOUS
 62
     7
100
AcDbLine
 10
2.4511242924
 20
3.1248200187
 30
0.0
 11
4.2021479144
 21
3.1248200187
 31
0.0
  0
LINE
  5
D3
330
1F
100
AcDbEntity
  8
0
  6
CONTINUOUS
 62
     7
100
AcDbLine
 10
2.538582383
 20
4.3846625384
 30
0.0
 11
2.4511242924
 21
4.3846625384
 31
0.0
  0
LINE
  5
D4
330
1F
100
AcDbEntity
  8
0
  6
CONTINUOUS
 62
     7
100
AcDbLine
 10
3.8771650601
 20
4.3846625384
 30
0.0
 11
2.7760950282
 21
4.3846625384
 31
0.0
  0
LINE
  5
D5
330
1F
100
AcDbEntity
  8
0
  6
CONTINUOUS
 62
     7
100
AcDbLine
 10
4.2021479144
 20
4.3846625384
 30
0.0
 11
4.1146777054
 21
4.3846625384
 31
0.0
  0
LINE
  5
D6
330
1F
100
AcDbEntity
  8
0
  6
CONTINUOUS
 62
     7
100
AcDbLine
 10
4.2021479144
 20
3.1248200187
 30
0.0
 11
4.2321479144
 21
3.1548200187
 31
0.0
  0
LINE
  5
D7
330
1F
100
AcDbEntity
  8
0
  6
CONTINUOUS
 62
     7
100
AcDbLine
 10
4.2321479144
 20
4.3546625384
 30
0.0
 11
4.2021479144
 21
4.3846625384
 31
0.0
  0
LINE
  5
D8
330
1F
100
AcDbEntity
  8
0
  6
CONTINUOUS
 62
     7
100
AcDbLine
 10
2.4511242924
 20
4.3846625384
 30
0.0
 11
2.4211242924
 21
4.3546625384
 31
0.0
  0
LINE
  5
D9
330
1F
100
AcDbEntity
  8
0
  6
CONTINUOUS
 62
     7
100
AcDbLine
 10
2.4211242924
 20
3.1548200187
 30
0.0
 11
2.4511242924
 21
3.1248200187
 31
0.0
  0
LINE
  5
DA
330
1F
100
AcDbEntity
  8
0
  6
CONTINUOUS
 62
     7
100
AcDbLine
 10
2.7418116748
 20
4.3786208252
 30
0.0
 11
2.7357699617
 21
4.3846625384
 31
0.0
  0
LINE
  5
DB
330
1F
100
AcDbEntity
  8
0
  6
CONTINUOUS
 62
     7
100
AcDbLine
 10
2.578919568
 20
4.3846625384
 30
0.0
 11
2.5728769728
 21
4.3786199433
 31
0.0
  0
LINE
  5
DC
330
1F
100
AcDbEntity
  8
0
  6
CONTINUOUS
 62
     7
100
AcDbLine
 10
4.080394352
 20
4.3786208252
 30
0.0
 11
4.0743526388
 21
4.3846625384
 31
0.0
  0
LINE
  5
DD
330
1F
100
AcDbEntity
  8
0
  6
CONTINUOUS
 62
     7
100
AcDbLine
 10
3.9175022451
 20
4.3846625384
 30
0.0
 11
3.91145965
 21
4.3786199433
 31
0.0
  0
LINE
  5
DE
330
1F
100
AcDbEntity
  8
0
  6
CONTINUOUS
 62
     7
100
AcDbLine
 10
4.2021479144
 20
3.1248200187
 30
0.0
 11
4.2021479144
 21
4.3846625384
 31
0.0
  0
LINE
  5
DF
330
1F
100
AcDbEntity
  8
0
  6
CONTINUOUS
 62
     7
100
AcDbLine
 10
2.4511242924
 20
4.3846625384
 30
0.0
 11
2.4511242924
 21
3.1248200187
 31
0.0
  0
POLYLINE
  5
E0
330
1F
100
AcDbEntity
  8
0
  6
CONTINUOUS
 62
     7
100
AcDb2dPolyline
 66
     1
 10
0.0
 20
0.0
 30
0.0
  0
VERTEX
  5
1FF
330
E0
100
AcDbEntity
  8
0
  6
CONTINUOUS
 62
     7
100
AcDbVertex
100
AcDb2dVertex
 10
2.7760950282
 20
4.3846598618
 30
0.0
  0
VERTEX
  5
200
330
E0
100
AcDbEntity
  8
0
  6
CONTINUOUS
 62
     7
100
AcDbVertex
100
AcDb2dVertex
 10
2.7761070741
 20
4.3846625235
 30
0.0
  0
VERTEX
  5
201
330
E0
100
AcDbEntity
  8
0
  6
CONTINUOUS
 62
     7
100
AcDbVertex
100
AcDb2dVertex
 10
2.7739344674
 20
4.3841741969
 30
0.0
  0
VERTEX
  5
202
330
E0
100
AcDbEntity
  8
0
  6
CONTINUOUS
 62
     7
100
AcDbVertex
100
AcDb2dVertex
 10
2.7674045404
 20
4.3828604713
 30
0.0
  0
VERTEX
  5
203
330
E0
100
AcDbEntity
  8
0
  6
CONTINUOUS
 62
     7
100
AcDbVertex
100
AcDb2dVertex
 10
2.7565172933
 20
4.380920197
 30
0.0
  0
VERTEX
  5
204
330
E0
100
AcDbEntity
  8
0
  6
CONTINUOUS
 62
     7
100
AcDbVertex
100
AcDb2dVertex
 10
2.7412727259
 20
4.3785365551
 30
0.0
  0
VERTEX
  5
205
330
E0
100
AcDbEntity
  8
0
  6
CONTINUOUS
 62
     7
100
AcDbVertex
100
AcDb2dVertex
 10
2.7229177946
 20
4.3760974831
 30
0.0
  0
VERTEX
  5
206
330
E0
100
AcDbEntity
  8
0
  6
CONTINUOUS
 62
     7
100
AcDbVertex
100
AcDb2dVertex
 10
2.7027987296
 20
4.3741070632
 30
0.0
  0
VERTEX
  5
207
330
E0
100
AcDbEntity
  8
0
  6
CONTINUOUS
 62
     7
100
AcDbVertex
100
AcDb2dVertex
 10
2.6809155307
 20
4.3728133201
 30
0.0
  0
VERTEX
  5
208
330
E0
100
AcDbEntity
  8
0
  6
CONTINUOUS
 62
     7
100
AcDbVertex
100
AcDb2dVertex
 10
2.657268198
 20
4.3723645216
 30
0.0
  0
VERTEX
  5
209
330
E0
100
AcDbEntity
  8
0
  6
CONTINUOUS
 62
     7
100
AcDbVertex
100
AcDb2dVertex
 10
2.6336668122
 20
4.3728122701
 30
0.0
  0
VERTEX
  5
20A
330
E0
100
AcDbEntity
  8
0
  6
CONTINUOUS
 62
     7
100
AcDbVertex
100
AcDb2dVertex
 10
2.6118065582
 20
4.3741091768
 30
0.0
  0
VERTEX
  5
20B
330
E0
100
AcDbEntity
  8
0
  6
CONTINUOUS
 62
     7
100
AcDbVertex
100
AcDb2dVertex
 10
2.5916874361
 20
4.3761058792
 30
0.0
  0
VERTEX
  5
20C
330
E0
100
AcDbEntity
  8
0
  6
CONTINUOUS
 62
     7
100
AcDbVertex
100
AcDb2dVertex
 10
2.5733094457
 20
4.378552277
 30
0.0
  0
VERTEX
  5
20D
330
E0
100
AcDbEntity
  8
0
  6
CONTINUOUS
 62
     7
100
AcDbVertex
100
AcDb2dVertex
 10
2.5580906579
 20
4.3809334645
 30
0.0
  0
VERTEX
  5
20E
330
E0
100
AcDbEntity
  8
0
  6
CONTINUOUS
 62
     7
100
AcDbVertex
100
AcDb2dVertex
 10
2.5472298849
 20
4.382870205
 30
0.0
  0
VERTEX
  5
20F
330
E0
100
AcDbEntity
  8
0
  6
CONTINUOUS
 62
     7
100
AcDbVertex
100
AcDb2dVertex
 10
2.5407271265
 20
4.3841794548
 30
0.0
  0
VERTEX
  5
210
330
E0
100
AcDbEntity
  8
0
  6
CONTINUOUS
 62
     7
100
AcDbVertex
100
AcDb2dVertex
 10
2.538582383
 20
4.3846625384
 30
0.0
  0
VERTEX
  5
211
330
E0
100
AcDbEntity
  8
0
  6
CONTINUOUS
 62
     7
100
AcDbVertex
100
AcDb2dVertex
 10
2.538582383
 20
4.3846625384
 30
0.0
  0
SEQEND
  5
212
330
E0
100
AcDbEntity
  8
0
  6
CONTINUOUS
 62
     7
  0
POLYLINE
  5
E1
330
1F
100
AcDbEntity
  8
0
  6
CONTINUOUS
 62
     7
100
AcDb2dPolyline
 66
     1
 10
0.0
 20
0.0
 30
0.0
  0
VERTEX
  5
213
330
E1
100
AcDbEntity
  8
0
  6
CONTINUOUS
 62
     7
100
AcDbVertex
100
AcDb2dVertex
 10
4.1146777054
 20
4.3846598618
 30
0.0
  0
VERTEX
  5
214
330
E1
100
AcDbEntity
  8
0
  6
CONTINUOUS
 62
     7
100
AcDbVertex
100
AcDb2dVertex
 10
4.1146897513
 20
4.3846625235
 30
0.0
  0
VERTEX
  5
215
330
E1
100
AcDbEntity
  8
0
  6
CONTINUOUS
 62
     7
100
AcDbVertex
100
AcDb2dVertex
 10
4.1125171445
 20
4.3841741969
 30
0.0
  0
VERTEX
  5
216
330
E1
100
AcDbEntity
  8
0
  6
CONTINUOUS
 62
     7
100
AcDbVertex
100
AcDb2dVertex
 10
4.1059872176
 20
4.3828604713
 30
0.0
  0
VERTEX
  5
217
330
E1
100
AcDbEntity
  8
0
  6
CONTINUOUS
 62
     7
100
AcDbVertex
100
AcDb2dVertex
 10
4.0950999704
 20
4.380920197
 30
0.0
  0
VERTEX
  5
218
330
E1
100
AcDbEntity
  8
0
  6
CONTINUOUS
 62
     7
100
AcDbVertex
100
AcDb2dVertex
 10
4.079855403
 20
4.3785365551
 30
0.0
  0
VERTEX
  5
219
330
E1
100
AcDbEntity
  8
0
  6
CONTINUOUS
 62
     7
100
AcDbVertex
100
AcDb2dVertex
 10
4.0615004718
 20
4.3760974831
 30
0.0
  0
VERTEX
  5
21A
330
E1
100
AcDbEntity
  8
0
  6
CONTINUOUS
 62
     7
100
AcDbVertex
100
AcDb2dVertex
 10
4.0413814067
 20
4.3741070632
 30
0.0
  0
VERTEX
  5
21B
330
E1
100
AcDbEntity
  8
0
  6
CONTINUOUS
 62
     7
100
AcDbVertex
100
AcDb2dVertex
 10
4.0194982079
 20
4.3728133201
 30
0.0
  0
VERTEX
  5
21C
330
E1
100
AcDbEntity
  8
0
  6
CONTINUOUS
 62
     7
100
AcDbVertex
100
AcDb2dVertex
 10
3.9958508752
 20
4.3723645216
 30
0.0
  0
VERTEX
  5
21D
330
E1
100
AcDbEntity
  8
0
  6
CONTINUOUS
 62
     7
100
AcDbVertex
100
AcDb2dVertex
 10
3.9722494894
 20
4.3728122701
 30
0.0
  0
VERTEX
  5
21E
330
E1
100
AcDbEntity
  8
0
  6
CONTINUOUS
 62
     7
100
AcDbVertex
100
AcDb2dVertex
 10
3.9503892354
 20
4.3741091768
 30
0.0
  0
VERTEX
  5
21F
330
E1
100
AcDbEntity
  8
0
  6
CONTINUOUS
 62
     7
100
AcDbVertex
100
AcDb2dVertex
 10
3.9302701132
 20
4.3761058792
 30
0.0
  0
VERTEX
  5
220
330
E1
100
AcDbEntity
  8
0
  6
CONTINUOUS
 62
     7
100
AcDbVertex
100
AcDb2dVertex
 10
3.9118921229
 20
4.378552277
 30
0.0
  0
VERTEX
  5
221
330
E1
100
AcDbEntity
  8
0
  6
CONTINUOUS
 62
     7
100
AcDbVertex
100
AcDb2dVertex
 10
3.8966733351
 20
4.3809334645
 30
0.0
  0
VERTEX
  5
222
330
E1
100
AcDbEntity
  8
0
  6
CONTINUOUS
 62
     7
100
AcDbVertex
100
AcDb2dVertex
 10
3.885812562
 20
4.382870205
 30
0.0
  0
VERTEX
  5
223
330
E1
100
AcDbEntity
  8
0
  6
CONTINUOUS
 62
     7
100
AcDbVertex
100
AcDb2dVertex
 10
3.8793098037
 20
4.3841794548
 30
0.0
  0
VERTEX
  5
224
330
E1
100
AcDbEntity
  8
0
  6
CONTINUOUS
 62
     7
100
AcDbVertex
100
AcDb2dVertex
 10
3.8771650601
 20
4.3846625384
 30
0.0
  0
VERTEX
  5
225
330
E1
100
AcDbEntity
  8
0
  6
CONTINUOUS
 62
     7
100
AcDbVertex
100
AcDb2dVertex
 10
3.8771650601
 20
4.3846625384
 30
0.0
  0
SEQEND
  5
226
330
E1
100
AcDbEntity
  8
0
  6
CONTINUOUS
 62
     7
  0
LINE
  5
E2
330
1F
100
AcDbEntity
  8
0
  6
CONTINUOUS
 62
     7
100
AcDbLine
 10
4.2321479144
 20
4.3546625384
 30
0.0
 11
4.2321479144
 21
3.1548200187
 31
0.0
  0
LINE
  5
E3
330
1F
100
AcDbEntity
  8
0
  6
CONTINUOUS
 62
     7
100
AcDbLine
 10
2.4211242924
 20
3.1548200187
 30
0.0
 11
2.4211242924
 21
4.3546625384
 31
0.0
  0
LINE
  5
E4
330
1F
100
AcDbEntity
  8
0
  6
CONTINUOUS
 62
     7
100
AcDbLine
 10
2.7357699617
 20
4.3846625384
 30
0.0
 11
2.578919568
 21
4.3846625384
 31
0.0
  0
LINE
  5
E5
330
1F
100
AcDbEntity
  8
0
  6
CONTINUOUS
 62
     7
100
AcDbLine
 10
3.9175022451
 20
4.3846625384
 30
0.0
 11
4.0743526388
 21
4.3846625384
 31
0.0
  0
LINE
  5
E6
330
1F
100
AcDbEntity
  8
0
  6
HIDDEN
 62
     7
100
AcDbLine
 10
3.2266361034
 20
3.9422215935
 30
0.0
 11
3.2266361034
 21
3.5672609636
 31
0.0
  0
LINE
  5
E7
330
1F
100
AcDbEntity
  8
0
  6
HIDDEN
 62
     7
100
AcDbLine
 10
3.4266361034
 20
3.9422215935
 30
0.0
 11
3.4266361034
 21
3.5672609636
 31
0.0
  0
SPLINE
  5
E8
330
1F
100
AcDbEntity
  8
0
  6
HIDDEN
 62
     7
100
AcDbSpline
210
0.0
220
0.0
230
1.0
 70
     8
 71
     3
 72
    29
 73
    25
 74
     0
 42
0.00000001
 43
0.00000001
 40
0.0
 40
0.0
 40
0.0
 40
0.0
 40
0.0091805505789247
 40
0.0537835491073569
 40
0.0996837907845555
 40
0.1445395384480176
 40
0.1904335200146391
 40
0.2409229042393289
 40
0.2925630926555603
 40
0.3493611311346872
 40
0.4080063806176177
 40
0.4498973709648298
 40
0.4929491846903542
 40
0.5348702245419519
 40
0.5780636266093652
 40
0.6195140545262922
 40
0.6618245613979651
 40
0.711182012262378
 40
0.7616021764607956
 40
0.8185812479182839
 40
0.8774051351157472
 40
0.9307361426535796
 40
0.9861878833923516
 40
1.0
 40
1.0
 40
1.0
 40
1.0
 10
2.559127736066532
 20
3.912091826232925
 30
0.0
 10
2.559060824763051
 20
3.912133528869757
 30
0.0
 10
2.558668830040548
 20
3.91237784055855
 30
0.0
 10
2.560223387289659
 20
3.91140602762017
 30
0.0
 10
2.563548304632769
 20
3.909358101539101
 30
0.0
 10
2.569018777195065
 20
3.906086683349003
 30
0.0
 10
2.576357958174225
 20
3.901899589904417
 30
0.0
 10
2.585791177935802
 20
3.896884483759947
 30
0.0
 10
2.597650135507129
 20
3.891237981364133
 30
0.0
 10
2.611875060057132
 20
3.885541608257439
 30
0.0
 10
2.626868423915296
 20
3.881108889577739
 30
0.0
 10
2.641529860337659
 20
3.878453030515688
 30
0.0
 10
2.654960157735897
 20
3.877445989346141
 30
0.0
 10
2.668598040231764
 20
3.877944233490948
 30
0.0
 10
2.681727035946318
 20
3.87985703937827
 30
0.0
 10
2.694229645583895
 20
3.882917547819432
 30
0.0
 10
2.706458725405062
 20
3.886961115616946
 30
0.0
 10
2.718356014552158
 20
3.891845800483558
 30
0.0
 10
2.729958010283872
 20
3.897411850896522
 30
0.0
 10
2.740331578819012
 20
3.902991181606142
 30
0.0
 10
2.748525606109267
 20
3.907769094767167
 30
0.0
 10
2.753731296300892
 20
3.910945888137291
 30
0.0
 10
2.755924451321236
 20
3.912318062083727
 30
0.0
 10
2.755607157533068
 20
3.912119969877694
 30
0.0
 10
2.755543885013043
 20
3.912080467707968
 30
0.0
  0
SPLINE
  5
E9
330
1F
100
AcDbEntity
  8
0
  6
HIDDEN
 62
     7
100
AcDbSpline
210
0.0
220
0.0
230
1.0
 70
     8
 71
     3
 72
    48
 73
    44
 74
     0
 42
0.00000001
 43
0.00000001
 40
-0.0312499999999999
 40
-0.0312499999999999
 40
0.0
 40
0.0
 40
0.03125
 40
0.03125
 40
0.0625
 40
0.0625
 40
0.1250000000000001
 40
0.1250000000000001
 40
0.1875000000000001
 40
0.1875000000000001
 40
0.2500000000000001
 40
0.2500000000000001
 40
0.3125000000000002
 40
0.3125000000000002
 40
0.3750000000000002
 40
0.3750000000000002
 40
0.4375000000000002
 40
0.4375000000000002
 40
0.4687500000000002
 40
0.4687500000000002
 40
0.5
 40
0.5
 40
0.5624999999999999
 40
0.5624999999999999
 40
0.6249999999999999
 40
0.6249999999999999
 40
0.6874999999999999
 40
0.6874999999999999
 40
0.7187499999999999
 40
0.7187499999999999
 40
0.7499999999999999
 40
0.7499999999999999
 40
0.8125
 40
0.8125
 40
0.875
 40
0.875
 40
0.90625
 40
0.90625
 40
0.9375000000000001
 40
0.9375000000000001
 40
0.9687500000000001
 40
0.9687500000000001
 40
1.0
 40
1.0
 40
1.03125
 40
1.03125
 10
2.558919567951481
 20
3.748047106610713
 30
0.0
 10
2.558919567951481
 20
3.76143545042535
 30
0.0
 10
2.559595127728119
 20
3.767986235244919
 30
0.0
 10
2.562212125349672
 20
3.780821948325483
 30
0.0
 10
2.564188769752636
 20
3.787160452212101
 30
0.0
 10
2.571721720430308
 20
3.804963834147045
 30
0.0
 10
2.578996649233197
 20
3.815609100920545
 30
0.0
 10
2.596670606648059
 20
3.833239466710579
 30
0.0
 10
2.607177916037156
 20
3.840372734489632
 30
0.0
 10
2.630606340271651
 20
3.850315938446487
 30
0.0
 10
2.643798018309867
 20
3.853136758530993
 30
0.0
 10
2.670456194062651
 20
3.853195710872495
 30
0.0
 10
2.683584924752544
 20
3.850462362511755
 30
0.0
 10
2.707175455772048
 20
3.840578182892579
 30
0.0
 10
2.717717329409079
 20
3.833487495073259
 30
0.0
 10
2.73558433835705
 20
3.815768996064389
 30
0.0
 10
2.742745078324008
 20
3.805381851892251
 30
0.0
 10
2.750427384491687
 20
3.787386121116794
 30
0.0
 10
2.752371593810009
 20
3.781197745666751
 30
0.0
 10
2.755031338007379
 20
3.768429824850573
 30
0.0
 10
2.755744765715962
 20
3.76175355439189
 30
0.0
 10
2.755818344814827
 20
3.74180587417142
 30
0.0
 10
2.753102124292673
 20
3.728573915186213
 30
0.0
 10
2.743113947804408
 20
3.704762782667642
 30
0.0
 10
2.735872758855232
 20
3.694087114037743
 30
0.0
 10
2.718105386265074
 20
3.67629562600464
 30
0.0
 10
2.707728411034572
 20
3.66921062184738
 30
0.0
 10
2.689916896567165
 20
3.661638125923194
 30
0.0
 10
2.683730743643346
 20
3.659693092878761
 30
0.0
 10
2.670910012073744
 20
3.65703579484801
 30
0.0
 10
2.664185050987488
 20
3.656331927416947
 30
0.0
 10
2.644360002809212
 20
3.656285210001016
 30
0.0
 10
2.631139463908533
 20
3.659000497778893
 30
0.0
 10
2.607412856711447
 20
3.66895188846367
 30
0.0
 10
2.596834440395185
 20
3.676105090974589
 30
0.0
 10
2.583482383972451
 20
3.689386282019823
 30
0.0
 10
2.57948469042721
 20
3.694199428739903
 30
0.0
 10
2.572377490075539
 20
3.704660653703987
 30
0.0
 10
2.56924880523338
 20
3.710378317867434
 30
0.0
 10
2.564220421154625
 20
3.722232402956898
 30
0.0
 10
2.56228013081213
 20
3.728406079312457
 30
0.0
 10
2.559620358301998
 20
3.741296289598432
 30
0.0
 10
2.558919567951481
 20
3.748047106610713
 30
0.0
 10
2.558919567951481
 20
3.76143545042535
 30
0.0
  0
SPLINE
  5
EA
330
1F
100
AcDbEntity
  8
0
  6
HIDDEN
 62
     7
100
AcDbSpline
210
0.0
220
0.0
230
1.0
 70
     8
 71
     3
 72
    29
 73
    25
 74
     0
 42
0.00000001
 43
0.00000001
 40
0.0
 40
0.0
 40
0.0
 40
0.0
 40
0.0091805505789247
 40
0.053783549107357
 40
0.0996837907845555
 40
0.1445395384480177
 40
0.190433520014639
 40
0.2409229042393287
 40
0.2925630926555599
 40
0.3493611311346868
 40
0.4080063806176173
 40
0.449897370964829
 40
0.4929491846903539
 40
0.5348702245419515
 40
0.5780636266093648
 40
0.6195140545262918
 40
0.6618245613979649
 40
0.7111820122623781
 40
0.7616021764607952
 40
0.8185812479182837
 40
0.8774051351157471
 40
0.9307361426535794
 40
0.9861878833923514
 40
1.0
 40
1.0
 40
1.0
 40
1.0
 10
3.897710413231886
 20
3.912091826232925
 30
0.0
 10
3.897643501928405
 20
3.912133528869757
 30
0.0
 10
3.897251507205902
 20
3.91237784055855
 30
0.0
 10
3.898806064455013
 20
3.91140602762017
 30
0.0
 10
3.902130981798122
 20
3.909358101539101
 30
0.0
 10
3.907601454360419
 20
3.906086683349003
 30
0.0
 10
3.914940635339578
 20
3.901899589904417
 30
0.0
 10
3.924373855101156
 20
3.896884483759947
 30
0.0
 10
3.936232812672483
 20
3.891237981364133
 30
0.0
 10
3.950457737222486
 20
3.885541608257439
 30
0.0
 10
3.965451101080649
 20
3.881108889577739
 30
0.0
 10
3.980112537503014
 20
3.878453030515688
 30
0.0
 10
3.993542834901251
 20
3.877445989346141
 30
0.0
 10
4.007180717397119
 20
3.877944233490948
 30
0.0
 10
4.020309713111673
 20
3.87985703937827
 30
0.0
 10
4.032812322749249
 20
3.882917547819432
 30
0.0
 10
4.045041402570416
 20
3.886961115616946
 30
0.0
 10
4.056938691717511
 20
3.891845800483558
 30
0.0
 10
4.068540687449226
 20
3.897411850896522
 30
0.0
 10
4.078914255984366
 20
3.902991181606142
 30
0.0
 10
4.087108283274621
 20
3.907769094767167
 30
0.0
 10
4.092313973466247
 20
3.910945888137291
 30
0.0
 10
4.094507128486589
 20
3.912318062083727
 30
0.0
 10
4.094189834698423
 20
3.912119969877694
 30
0.0
 10
4.094126562178396
 20
3.912080467707968
 30
0.0
  0
SPLINE
  5
EB
330
1F
100
AcDbEntity
  8
0
  6
HIDDEN
 62
     7
100
AcDbSpline
210
0.0
220
0.0
230
1.0
 70
     8
 71
     3
 72
    48
 73
    44
 74
     0
 42
0.00000001
 43
0.00000001
 40
-0.0312499999999999
 40
-0.0312499999999999
 40
0.0
 40
0.0
 40
0.03125
 40
0.03125
 40
0.0625000000000001
 40
0.0625000000000001
 40
0.1250000000000002
 40
0.1250000000000002
 40
0.1875000000000004
 40
0.1875000000000004
 40
0.2500000000000006
 40
0.2500000000000006
 40
0.3125000000000007
 40
0.3125000000000007
 40
0.3750000000000009
 40
0.3750000000000009
 40
0.4375000000000011
 40
0.4375000000000011
 40
0.4687500000000011
 40
0.4687500000000011
 40
0.500000000000001
 40
0.500000000000001
 40
0.562500000000001
 40
0.562500000000001
 40
0.6250000000000009
 40
0.6250000000000009
 40
0.6875000000000009
 40
0.6875000000000009
 40
0.7187500000000008
 40
0.7187500000000008
 40
0.7500000000000007
 40
0.7500000000000007
 40
0.8125000000000006
 40
0.8125000000000006
 40
0.8750000000000006
 40
0.8750000000000006
 40
0.9062500000000003
 40
0.9062500000000003
 40
0.9375000000000001
 40
0.9375000000000001
 40
0.9687500000000001
 40
0.9687500000000001
 40
1.0
 40
1.0
 40
1.03125
 40
1.03125
 10
3.897502245116836
 20
3.748047106610713
 30
0.0
 10
3.897502245116836
 20
3.76143545042535
 30
0.0
 10
3.898177804893474
 20
3.767986235244919
 30
0.0
 10
3.900794802515026
 20
3.780821948325483
 30
0.0
 10
3.90277144691799
 20
3.787160452212101
 30
0.0
 10
3.910304397595662
 20
3.804963834147045
 30
0.0
 10
3.917579326398552
 20
3.815609100920545
 30
0.0
 10
3.935253283813414
 20
3.833239466710579
 30
0.0
 10
3.94576059320251
 20
3.840372734489632
 30
0.0
 10
3.969189017437005
 20
3.850315938446487
 30
0.0
 10
3.98238069547522
 20
3.853136758530993
 30
0.0
 10
4.009038871228005
 20
3.853195710872495
 30
0.0
 10
4.022167601917898
 20
3.850462362511755
 30
0.0
 10
4.045758132937403
 20
3.840578182892579
 30
0.0
 10
4.056300006574433
 20
3.833487495073259
 30
0.0
 10
4.074167015522404
 20
3.81576899606439
 30
0.0
 10
4.081327755489362
 20
3.805381851892251
 30
0.0
 10
4.089010061657041
 20
3.787386121116794
 30
0.0
 10
4.090954270975363
 20
3.781197745666752
 30
0.0
 10
4.093614015172733
 20
3.768429824850573
 30
0.0
 10
4.094327442881316
 20
3.761753554391891
 30
0.0
 10
4.094401021980181
 20
3.74180587417142
 30
0.0
 10
4.091684801458028
 20
3.728573915186213
 30
0.0
 10
4.081696624969762
 20
3.704762782667642
 30
0.0
 10
4.074455436020586
 20
3.694087114037744
 30
0.0
 10
4.056688063430428
 20
3.67629562600464
 30
0.0
 10
4.046311088199926
 20
3.66921062184738
 30
0.0
 10
4.028499573732519
 20
3.661638125923194
 30
0.0
 10
4.022313420808699
 20
3.659693092878761
 30
0.0
 10
4.009492689239099
 20
3.65703579484801
 30
0.0
 10
4.002767728152842
 20
3.656331927416947
 30
0.0
 10
3.982942679974566
 20
3.656285210001016
 30
0.0
 10
3.969722141073887
 20
3.659000497778893
 30
0.0
 10
3.945995533876801
 20
3.66895188846367
 30
0.0
 10
3.935417117560539
 20
3.676105090974589
 30
0.0
 10
3.922065061137805
 20
3.689386282019823
 30
0.0
 10
3.918067367592565
 20
3.694199428739903
 30
0.0
 10
3.910960167240893
 20
3.704660653703987
 30
0.0
 10
3.907831482398734
 20
3.710378317867434
 30
0.0
 10
3.902803098319978
 20
3.722232402956898
 30
0.0
 10
3.900862807977485
 20
3.728406079312458
 30
0.0
 10
3.898203035467353
 20
3.741296289598432
 30
0.0
 10
3.897502245116836
 20
3.748047106610713
 30
0.0
 10
3.897502245116836
 20
3.76143545042535
 30
0.0
  0
SPLINE
  5
EC
330
1F
100
AcDbEntity
  8
0
  6
HIDDEN
 62
     7
100
AcDbSpline
210
0.0
220
0.0
230
1.0
 70
     8
 71
     3
 72
    27
 73
    23
 74
     0
 42
0.00000001
 43
0.00000001
 40
0.0
 40
0.0
 40
0.0
 40
0.0
 40
0.0433330214069982
 40
0.0931480914794874
 40
0.1494916670443546
 40
0.2123926986782035
 40
0.2758995004405481
 40
0.3324806244583329
 40
0.382163168399425
 40
0.4249926195111077
 40
0.4678480721713554
 40
0.5175391514326249
 40
0.5741117046851939
 40
0.6375931289237174
 40
0.7006050224167951
 40
0.7569939150303105
 40
0.8067883666262191
 40
0.8500345709231979
 40
0.8934640260062433
 40
0.9434040920991831
 40
0.9999014697249873
 40
1.0
 40
1.0
 40
1.0
 40
1.0
 10
2.558919567951481
 20
4.358717040418032
 30
0.0
 10
2.559166916241399
 20
4.358636110936752
 30
0.0
 10
2.559698612864168
 20
4.358462145990829
 30
0.0
 10
2.564430422268948
 20
4.357264231524208
 30
0.0
 10
2.573314096034214
 20
4.35544057629979
 30
0.0
 10
2.58712358185201
 20
4.352849752827987
 30
0.0
 10
2.604587839848513
 20
4.350256208839917
 30
0.0
 10
2.62323197029869
 20
4.348390006318256
 30
0.0
 10
2.640832133034665
 20
4.347232905567526
 30
0.0
 10
2.657284178318212
 20
4.346784591528007
 30
0.0
 10
2.673739103274219
 20
4.347227127122169
 30
0.0
 10
2.691348188485317
 20
4.348380181179159
 30
0.0
 10
2.709999147839186
 20
4.350242741621931
 30
0.0
 10
2.727492353164503
 20
4.35283747654015
 30
0.0
 10
2.741313980411637
 20
4.355425277048903
 30
0.0
 10
2.750273867502336
 20
4.357271561632778
 30
0.0
 10
2.754847733066852
 20
4.358416734676175
 30
0.0
 10
2.756179754938362
 20
4.35885436222284
 30
0.0
 10
2.754929564223004
 20
4.358426643535981
 30
0.0
 10
2.750052520705199
 20
4.357252001891387
 30
0.0
 10
2.745316094433608
 20
4.356182935173414
 30
0.0
 10
2.741077579409501
 20
4.355414287804069
 30
0.0
 10
2.741070200394543
 20
4.355412949632468
 30
0.0
  0
SPLINE
  5
ED
330
1F
100
AcDbEntity
  8
0
  6
HIDDEN
 62
     7
100
AcDbSpline
210
0.0
220
0.0
230
1.0
 70
     8
 71
     3
 72
    23
 73
    19
 74
     0
 42
0.00000001
 43
0.00000001
 40
0.0
 40
0.0
 40
0.0
 40
0.0
 40
0.0282680575512978
 40
0.0590253722501403
 40
0.0922865862547377
 40
0.1280631344854972
 40
0.1663640651481392
 40
0.2071966137651909
 40
0.2505666136787413
 40
0.3483644243469362
 40
0.4317325055562014
 40
0.5007529615642016
 40
0.6093910233404191
 40
0.7499955872641447
 40
0.8470984054331624
 40
0.9304033609877942
 40
0.999997293647607
 40
1.0
 40
1.0
 40
1.0
 40
1.0
 10
3.897502245116836
 20
4.358717040418032
 30
0.0
 10
3.897577498425911
 20
4.358691820165178
 30
0.0
 10
3.897734631775916
 20
4.358639158788987
 30
0.0
 10
3.899085193725409
 20
4.358255252937882
 30
0.0
 10
3.901490866043069
 20
4.357654791755034
 30
0.0
 10
3.905241786154488
 20
4.356810495719413
 30
0.0
 10
3.910506307537982
 20
4.355727133026341
 30
0.0
 10
3.917467129162841
 20
4.354416242641126
 30
0.0
 10
3.929728086421532
 20
4.352184109137901
 30
0.0
 10
3.948581262781647
 20
4.349545150340623
 30
0.0
 10
3.973012829959051
 20
4.347501738015247
 30
0.0
 10
3.999940166879524
 20
4.346529652325941
 30
0.0
 10
4.032899535783681
 20
4.3482923156747
 30
0.0
 10
4.063927828386545
 20
4.352309618035039
 30
0.0
 10
4.08364810273993
 20
4.356145696420023
 30
0.0
 10
4.092593598551441
 20
4.358147002300273
 30
0.0
 10
4.094344693568192
 20
4.358715873827684
 30
0.0
 10
4.094352579311844
 20
4.358717026243673
 30
0.0
 10
4.094352579618492
 20
4.358717026288485
 30
0.0
  0
CIRCLE
  5
EE
330
1F
100
AcDbEntity
  8
0
  6
HIDDEN
 62
     7
100
AcDbCircle
 10
3.995927442
 20
3.7547412785
 30
0.0
 40
0.0784251968503931
  0
POLYLINE
  5
EF
330
1F
100
AcDbEntity
  8
0
  6
HIDDEN
 62
     7
100
AcDb2dPolyline
 66
     1
 10
0.0
 20
0.0
 30
0.0
  0
VERTEX
  5
227
330
EF
100
AcDbEntity
  8
0
  6
HIDDEN
 62
     7
100
AcDbVertex
100
AcDb2dVertex
 10
4.0943526388
 20
3.7547412785
 30
0.0
  0
VERTEX
  5
228
330
EF
100
AcDbEntity
  8
0
  6
HIDDEN
 62
     7
100
AcDbVertex
100
AcDb2dVertex
 10
4.0934744388
 20
3.7416224837
 30
0.0
  0
VERTEX
  5
229
330
EF
100
AcDbEntity
  8
0
  6
HIDDEN
 62
     7
100
AcDbVertex
100
AcDb2dVertex
 10
4.0910628865
 20
3.7295070446
 30
0.0
  0
SEQEND
  5
22A
330
EF
100
AcDbEntity
  8
0
  6
HIDDEN
 62
     7
  0
POLYLINE
  5
F0
330
1F
100
AcDbEntity
  8
0
  6
HIDDEN
 62
     7
100
AcDb2dPolyline
 66
     1
 10
0.0
 20
0.0
 30
0.0
  0
VERTEX
  5
22B
330
F0
100
AcDbEntity
  8
0
  6
HIDDEN
 62
     7
100
AcDbVertex
100
AcDb2dVertex
 10
3.8992395733
 20
3.7363299932
 30
0.0
  0
VERTEX
  5
22C
330
F0
100
AcDbEntity
  8
0
  6
HIDDEN
 62
     7
100
AcDbVertex
100
AcDb2dVertex
 10
3.8977220405
 20
3.7481672004
 30
0.0
  0
VERTEX
  5
22D
330
F0
100
AcDbEntity
  8
0
  6
HIDDEN
 62
     7
100
AcDbVertex
100
AcDb2dVertex
 10
3.8975547754
 20
3.7579565301
 30
0.0
  0
SEQEND
  5
22E
330
F0
100
AcDbEntity
  8
0
  6
HIDDEN
 62
     7
  0
LINE
  5
F1
330
1F
100
AcDbEntity
  8
0
  6
HIDDEN
 62
     7
100
AcDbLine
 10
4.0943223598
 20
3.7571824925
 30
0.0
 11
4.0943526388
 21
3.7547412785
 31
0.0
  0
LINE
  5
F2
330
1F
100
AcDbEntity
  8
0
  6
HIDDEN
 62
     7
100
AcDbLine
 10
3.995927442
 20
3.691276793
 30
0.0
 11
3.9409655852
 21
3.7230090357
 31
0.0
  0
LINE
  5
F3
330
1F
100
AcDbEntity
  8
0
  6
HIDDEN
 62
     7
100
AcDbLine
 10
3.9409655852
 20
3.7864735213
 30
0.0
 11
3.995927442
 21
3.8182057641
 31
0.0
  0
LINE
  5
F4
330
1F
100
AcDbEntity
  8
0
  6
HIDDEN
 62
     7
100
AcDbLine
 10
3.995927442
 20
3.8182057641
 30
0.0
 11
4.0508892987
 21
3.7864735213
 31
0.0
  0
LINE
  5
F5
330
1F
100
AcDbEntity
  8
0
  6
HIDDEN
 62
     7
100
AcDbLine
 10
4.0508892987
 20
3.7864735213
 30
0.0
 11
4.0508892987
 21
3.7230090357
 31
0.0
  0
LINE
  5
F6
330
1F
100
AcDbEntity
  8
0
  6
HIDDEN
 62
     7
100
AcDbLine
 10
3.9409655852
 20
3.7230090357
 30
0.0
 11
3.9409655852
 21
3.7864735213
 31
0.0
  0
LINE
  5
F7
330
1F
100
AcDbEntity
  8
0
  6
HIDDEN
 62
     7
100
AcDbLine
 10
4.0508892987
 20
3.7230090357
 30
0.0
 11
3.995927442
 21
3.691276793
 31
0.0
  0
CIRCLE
  5
F8
330
1F
100
AcDbEntity
  8
0
  6
HIDDEN
 62
     7
100
AcDbCircle
 10
2.6573447648
 20
3.7547412785
 30
0.0
 40
0.0784251968503935
  0
LINE
  5
F9
330
1F
100
AcDbEntity
  8
0
  6
HIDDEN
 62
     7
100
AcDbLine
 10
2.7123066215
 20
3.7864735213
 30
0.0
 11
2.6573447648
 21
3.8182057641
 31
0.0
  0
LINE
  5
FA
330
1F
100
AcDbEntity
  8
0
  6
HIDDEN
 62
     7
100
AcDbLine
 10
2.6573447648
 20
3.8182057641
 30
0.0
 11
2.6023829081
 21
3.7864735213
 31
0.0
  0
LINE
  5
FB
330
1F
100
AcDbEntity
  8
0
  6
HIDDEN
 62
     7
100
AcDbLine
 10
2.6023829081
 20
3.7864735213
 30
0.0
 11
2.6023829081
 21
3.7230090357
 31
0.0
  0
LINE
  5
FC
330
1F
100
AcDbEntity
  8
0
  6
HIDDEN
 62
     7
100
AcDbLine
 10
2.7123066215
 20
3.7230090357
 30
0.0
 11
2.7123066215
 21
3.7864735213
 31
0.0
  0
LINE
  5
FD
330
1F
100
AcDbEntity
  8
0
  6
HIDDEN
 62
     7
100
AcDbLine
 10
2.6023829081
 20
3.7230090357
 30
0.0
 11
2.6573447648
 21
3.691276793
 31
0.0
  0
LINE
  5
FE
330
1F
100
AcDbEntity
  8
0
  6
HIDDEN
 62
     7
100
AcDbLine
 10
2.6573447648
 20
3.691276793
 30
0.0
 11
2.7123066215
 21
3.7230090357
 31
0.0
  0
LINE
  5
FF
330
1F
100
AcDbEntity
  8
0
  6
HIDDEN
 62
     7
100
AcDbLine
 10
2.558919568
 20
4.3646625384
 30
0.0
 11
2.7557699617
 21
4.3646625384
 31
0.0
  0
LINE
  5
100
330
1F
100
AcDbEntity
  8
0
  6
HIDDEN
 62
     7
100
AcDbLine
 10
2.7557699617
 20
3.9322215935
 30
0.0
 11
2.558919568
 21
3.9322215935
 31
0.0
  0
LINE
  5
101
330
1F
100
AcDbEntity
  8
0
  6
HIDDEN
 62
     7
100
AcDbLine
 10
2.578919568
 20
3.9122215935
 30
0.0
 11
2.7357699617
 21
3.9122215935
 31
0.0
  0
LINE
  5
102
330
1F
100
AcDbEntity
  8
0
  6
HIDDEN
 62
     7
100
AcDbLine
 10
2.6573447648
 20
4.2846625384
 30
0.0
 11
2.6573447648
 21
4.3846625384
 31
0.0
  0
LINE
  5
103
330
1F
100
AcDbEntity
  8
0
  6
HIDDEN
 62
     7
100
AcDbLine
 10
2.7123066215
 20
4.2846625384
 30
0.0
 11
2.6573447648
 21
4.2846625384
 31
0.0
  0
LINE
  5
104
330
1F
100
AcDbEntity
  8
0
  6
HIDDEN
 62
     7
100
AcDbLine
 10
2.6573447648
 20
4.2846625384
 30
0.0
 11
2.6023829081
 21
4.2846625384
 31
0.0
  0
LINE
  5
105
330
1F
100
AcDbEntity
  8
0
  6
HIDDEN
 62
     7
100
AcDbLine
 10
2.7123066215
 20
4.2846625384
 30
0.0
 11
2.7123066215
 21
4.3846625384
 31
0.0
  0
LINE
  5
106
330
1F
100
AcDbEntity
  8
0
  6
HIDDEN
 62
     7
100
AcDbLine
 10
2.6023829081
 20
4.2846625384
 30
0.0
 11
2.6023829081
 21
4.3846625384
 31
0.0
  0
LINE
  5
107
330
1F
100
AcDbEntity
  8
0
  6
HIDDEN
 62
     7
100
AcDbLine
 10
4.0943526388
 20
4.3646625384
 30
0.0
 11
3.8975022451
 21
4.3646625384
 31
0.0
  0
LINE
  5
108
330
1F
100
AcDbEntity
  8
0
  6
HIDDEN
 62
     7
100
AcDbLine
 10
3.8975022451
 20
3.9322215935
 30
0.0
 11
4.0943526388
 21
3.9322215935
 31
0.0
  0
LINE
  5
109
330
1F
100
AcDbEntity
  8
0
  6
HIDDEN
 62
     7
100
AcDbLine
 10
4.0743526388
 20
3.9122215935
 30
0.0
 11
3.9175022451
 21
3.9122215935
 31
0.0
  0
LINE
  5
10A
330
1F
100
AcDbEntity
  8
0
  6
HIDDEN
 62
     7
100
AcDbLine
 10
3.995927442
 20
4.2846625384
 30
0.0
 11
3.995927442
 21
4.3846625384
 31
0.0
  0
LINE
  5
10B
330
1F
100
AcDbEntity
  8
0
  6
HIDDEN
 62
     7
100
AcDbLine
 10
3.9409655852
 20
4.2846625384
 30
0.0
 11
3.995927442
 21
4.2846625384
 31
0.0
  0
LINE
  5
10C
330
1F
100
AcDbEntity
  8
0
  6
HIDDEN
 62
     7
100
AcDbLine
 10
3.995927442
 20
4.2846625384
 30
0.0
 11
4.0508892987
 21
4.2846625384
 31
0.0
  0
LINE
  5
10D
330
1F
100
AcDbEntity
  8
0
  6
HIDDEN
 62
     7
100
AcDbLine
 10
3.9409655852
 20
4.2846625384
 30
0.0
 11
3.9409655852
 21
4.3846625384
 31
0.0
  0
LINE
  5
10E
330
1F
100
AcDbEntity
  8
0
  6
HIDDEN
 62
     7
100
AcDbLine
 10
4.0508892987
 20
4.2846625384
 30
0.0
 11
4.0508892987
 21
4.3846625384
 31
0.0
  0
LINE
  5
10F
330
1F
100
AcDbEntity
  8
0
  6
HIDDEN
 62
     7
100
AcDbLine
 10
4.2321479144
 20
3.9422215935
 30
0.0
 11
4.2021479144
 21
3.9122215935
 31
0.0
  0
LINE
  5
110
330
1F
100
AcDbEntity
  8
0
  6
HIDDEN
 62
     7
100
AcDbLine
 10
4.2021479144
 20
3.5972609636
 30
0.0
 11
4.2321479144
 21
3.5672609636
 31
0.0
  0
LINE
  5
111
330
1F
100
AcDbEntity
  8
0
  6
HIDDEN
 62
     7
100
AcDbLine
 10
2.4211242924
 20
3.5672609636
 30
0.0
 11
2.4511242924
 21
3.5972609636
 31
0.0
  0
LINE
  5
112
330
1F
100
AcDbEntity
  8
0
  6
HIDDEN
 62
     7
100
AcDbLine
 10
2.4511242924
 20
3.9122215935
 30
0.0
 11
2.4211242924
 21
3.9422215935
 31
0.0
  0
LINE
  5
113
330
1F
100
AcDbEntity
  8
0
  6
HIDDEN
 62
     7
100
AcDbLine
 10
3.4266361034
 20
3.9422215935
 30
0.0
 11
3.2266361034
 21
3.9422215935
 31
0.0
  0
LINE
  5
114
330
1F
100
AcDbEntity
  8
0
  6
HIDDEN
 62
     7
100
AcDbLine
 10
3.2266361034
 20
3.5672609636
 30
0.0
 11
3.4266361034
 21
3.5672609636
 31
0.0
  0
LINE
  5
115
330
1F
100
AcDbEntity
  8
0
  6
HIDDEN
 62
     7
100
AcDbLine
 10
2.5591277361
 20
3.9122215935
 30
0.0
 11
2.4511242924
 21
3.9122215935
 31
0.0
  0
LINE
  5
116
330
1F
100
AcDbEntity
  8
0
  6
HIDDEN
 62
     7
100
AcDbLine
 10
3.2266361034
 20
3.9122215935
 30
0.0
 11
2.755543885
 21
3.9122215935
 31
0.0
  0
LINE
  5
117
330
1F
100
AcDbEntity
  8
0
  6
HIDDEN
 62
     7
100
AcDbLine
 10
2.4511242924
 20
3.5972609636
 30
0.0
 11
3.2266361034
 21
3.5972609636
 31
0.0
  0
LINE
  5
118
330
1F
100
AcDbEntity
  8
0
  6
HIDDEN
 62
     7
100
AcDbLine
 10
3.8977104132
 20
3.9122215935
 30
0.0
 11
3.4266361034
 21
3.9122215935
 31
0.0
  0
LINE
  5
119
330
1F
100
AcDbEntity
  8
0
  6
HIDDEN
 62
     7
100
AcDbLine
 10
4.2021479144
 20
3.9122215935
 30
0.0
 11
4.0941265622
 21
3.9122215935
 31
0.0
  0
LINE
  5
11A
330
1F
100
AcDbEntity
  8
0
  6
HIDDEN
 62
     7
100
AcDbLine
 10
3.4266361034
 20
3.5972609636
 30
0.0
 11
4.2021479144
 21
3.5972609636
 31
0.0
  0
LINE
  5
11B
330
1F
100
AcDbEntity
  8
0
  6
HIDDEN
 62
     7
100
AcDbLine
 10
2.5385823487
 20
4.3846625419
 30
0.0
 11
2.5589195396
 21
4.3587170437
 31
0.0
  0
LINE
  5
11C
330
1F
100
AcDbEntity
  8
0
  6
HIDDEN
 62
     7
100
AcDbLine
 10
2.7557699016
 20
4.3587170263
 30
0.0
 11
2.7761070742
 21
4.3846625236
 31
0.0
  0
LINE
  5
11D
330
1F
100
AcDbEntity
  8
0
  6
HIDDEN
 62
     7
100
AcDbLine
 10
3.8771650258
 20
4.3846625419
 30
0.0
 11
3.8975022168
 21
4.3587170437
 31
0.0
  0
LINE
  5
11E
330
1F
100
AcDbEntity
  8
0
  6
HIDDEN
 62
     7
100
AcDbLine
 10
4.0943525788
 20
4.3587170263
 30
0.0
 11
4.1146897514
 21
4.3846625236
 31
0.0
  0
LINE
  5
11F
330
1F
100
AcDbEntity
  8
0
  6
HIDDEN
 62
     7
100
AcDbLine
 10
2.7557699617
 20
3.9120805407
 30
0.0
 11
2.7557699617
 21
4.358714523
 31
0.0
  0
LINE
  5
120
330
1F
100
AcDbEntity
  8
0
  6
HIDDEN
 62
     7
100
AcDbLine
 10
2.558919568
 20
4.3587170404
 30
0.0
 11
2.558919568
 21
3.9120920793
 31
0.0
  0
LINE
  5
121
330
1F
100
AcDbEntity
  8
0
  6
HIDDEN
 62
     7
100
AcDbLine
 10
4.0943526388
 20
3.9120805407
 30
0.0
 11
4.0943526388
 21
4.358714523
 31
0.0
  0
LINE
  5
122
330
1F
100
AcDbEntity
  8
0
  6
HIDDEN
 62
     7
100
AcDbLine
 10
3.8975022451
 20
4.3587170404
 30
0.0
 11
3.8975022451
 21
3.9120920793
 31
0.0
  0
LINE
  5
123
330
1F
100
AcDbEntity
  8
0
  6
HIDDEN
 62
     7
100
AcDbLine
 10
2.7557699617
 20
4.3646625384
 30
0.0
 11
2.7418116748
 21
4.3786208252
 31
0.0
  0
LINE
  5
124
330
1F
100
AcDbEntity
  8
0
  6
HIDDEN
 62
     7
100
AcDbLine
 10
2.5728769728
 20
4.3786199433
 30
0.0
 11
2.558919568
 21
4.3646625384
 31
0.0
  0
LINE
  5
125
330
1F
100
AcDbEntity
  8
0
  6
HIDDEN
 62
     7
100
AcDbLine
 10
2.7557699617
 20
3.9322215935
 30
0.0
 11
2.7557699617
 21
4.3646625384
 31
0.0
  0
LINE
  5
126
330
1F
100
AcDbEntity
  8
0
  6
HIDDEN
 62
     7
100
AcDbLine
 10
2.558919568
 20
4.3646625384
 30
0.0
 11
2.558919568
 21
3.9322215935
 31
0.0
  0
LINE
  5
127
330
1F
100
AcDbEntity
  8
0
  6
HIDDEN
 62
     7
100
AcDbLine
 10
2.558919568
 20
3.9322215935
 30
0.0
 11
2.578919568
 21
3.9122215935
 31
0.0
  0
LINE
  5
128
330
1F
100
AcDbEntity
  8
0
  6
HIDDEN
 62
     7
100
AcDbLine
 10
2.7357699617
 20
3.9122215935
 30
0.0
 11
2.7557699617
 21
3.9322215935
 31
0.0
  0
LINE
  5
129
330
1F
100
AcDbEntity
  8
0
  6
HIDDEN
 62
     7
100
AcDbLine
 10
4.0943526388
 20
3.9322215935
 30
0.0
 11
4.0943526388
 21
4.3646625384
 31
0.0
  0
LINE
  5
12A
330
1F
100
AcDbEntity
  8
0
  6
HIDDEN
 62
     7
100
AcDbLine
 10
3.8975022451
 20
4.3646625384
 30
0.0
 11
3.8975022451
 21
3.9322215935
 31
0.0
  0
LINE
  5
12B
330
1F
100
AcDbEntity
  8
0
  6
HIDDEN
 62
     7
100
AcDbLine
 10
4.0943526388
 20
4.3646625384
 30
0.0
 11
4.080394352
 21
4.3786208252
 31
0.0
  0
LINE
  5
12C
330
1F
100
AcDbEntity
  8
0
  6
HIDDEN
 62
     7
100
AcDbLine
 10
3.91145965
 20
4.3786199433
 30
0.0
 11
3.8975022451
 21
4.3646625384
 31
0.0
  0
LINE
  5
12D
330
1F
100
AcDbEntity
  8
0
  6
HIDDEN
 62
     7
100
AcDbLine
 10
3.8975022451
 20
3.9322215935
 30
0.0
 11
3.9175022451
 21
3.9122215935
 31
0.0
  0
LINE
  5
12E
330
1F
100
AcDbEntity
  8
0
  6
HIDDEN
 62
     7
100
AcDbLine
 10
4.0743526388
 20
3.9122215935
 30
0.0
 11
4.0943526388
 21
3.9322215935
 31
0.0
  0
LINE
  5
12F
330
1F
100
AcDbEntity
  8
0
  6
CONTINUOUS
 62
     7
100
AcDbLine
 10
8.8751721089
 20
3.6706823244
 30
0.0
 11
8.8808058662
 21
3.6763160817
 31
0.0
  0
LINE
  5
130
330
1F
100
AcDbEntity
  8
0
  6
CONTINUOUS
 62
     7
100
AcDbLine
 10
8.8808058662
 20
3.8331664754
 30
0.0
 11
8.8751721089
 21
3.8388002327
 31
0.0
  0
LINE
  5
131
330
1F
100
AcDbEntity
  8
0
  6
CONTINUOUS
 62
     7
100
AcDbLine
 10
8.3349435605
 20
4.3790287811
 30
0.0
 11
8.3293098032
 21
4.3846625384
 31
0.0
  0
LINE
  5
132
330
1F
100
AcDbEntity
  8
0
  6
CONTINUOUS
 62
     7
100
AcDbLine
 10
8.1724594095
 20
4.3846625384
 30
0.0
 11
8.1668256522
 21
4.3790287811
 31
0.0
  0
CIRCLE
  5
133
330
1F
100
AcDbEntity
  8
0
  6
CONTINUOUS
 62
     7
100
AcDbCircle
 10
8.2508846063
 20
3.7547412785
 30
0.0
 40
0.599921259842521
  0
CIRCLE
  5
134
330
1F
100
AcDbEntity
  8
0
  6
CONTINUOUS
 62
     7
100
AcDbCircle
 10
8.2508846063
 20
3.7547412785
 30
0.0
 40
0.6299212598425203
  0
CIRCLE
  5
135
330
1F
100
AcDbEntity
  8
0
  6
CONTINUOUS
 62
     7
100
AcDbCircle
 10
8.2508846063
 20
3.7547412785
 30
0.0
 40
0.1874803149606308
  0
CIRCLE
  5
136
330
1F
100
AcDbEntity
  8
0
  6
CONTINUOUS
 62
     7
100
AcDbCircle
 10
8.2508846063
 20
3.7547412785
 30
0.0
 40
0.1574803149606314
  0
LINE
  5
137
330
1F
100
AcDbEntity
  8
0
  6
CONTINUOUS
 62
     7
100
AcDbLine
 10
8.8808058662
 20
3.8331664754
 30
0.0
 11
8.8808058662
 21
3.6763160817
 31
0.0
  0
LINE
  5
138
330
1F
100
AcDbEntity
  8
0
  6
CONTINUOUS
 62
     7
100
AcDbLine
 10
8.1724594095
 20
4.3846625384
 30
0.0
 11
8.3293098032
 21
4.3846625384
 31
0.0
  0
SPLINE
  5
139
330
1F
100
AcDbEntity
  8
0
  6
HIDDEN
 62
     7
100
AcDbSpline
210
0.0
220
0.0
230
1.0
 70
     8
 71
     3
 72
    32
 73
    28
 74
     0
 42
0.00000001
 43
0.00000001
 40
0.0
 40
0.0
 40
0.0
 40
0.0
 40
0.0503435255799394
 40
0.1087763883701068
 40
0.1753013319020913
 40
0.2499505729208955
 40
0.3240476821281381
 40
0.3903566549652444
 40
0.4489110756191493
 40
0.4997652643273157
 40
0.5508349417752368
 40
0.6095605938061758
 40
0.6759971366202111
 40
0.7501787385199374
 40
0.8247722280567287
 40
0.8912519528874822
 40
0.9496499867487027
 40
0.9758573985731696
 40
0.9882120298494748
 40
0.9942022967556825
 40
0.9971507173543227
 40
0.9986132569559991
 40
0.999341610106166
 40
0.9997050576518156
 40
0.9998865991842657
 40
0.9999773243925406
 40
1.0
 40
1.0
 40
1.0
 40
1.0
 10
8.152460676072327
 20
4.346925933665658
 30
0.0
 10
8.152699221833277
 20
4.347007273926553
 30
0.0
 10
8.153214643549145
 20
4.347183024426888
 30
0.0
 10
8.157885334337324
 20
4.348394730181485
 30
0.0
 10
8.16675884090689
 20
4.350238067326779
 30
0.0
 10
8.180577538384606
 20
4.35283879625213
 30
0.0
 10
8.198017890461584
 20
4.355424920766695
 30
0.0
 10
8.216580493226443
 20
4.357271776386006
 30
0.0
 10
8.234211723119744
 20
4.358416271063809
 30
0.0
 10
8.250797567488492
 20
4.358855805431181
 30
0.0
 10
8.267404418944318
 20
4.358420874237451
 30
0.0
 10
8.285094153792583
 20
4.357278572550419
 30
0.0
 10
8.303699263661821
 20
4.355432049816027
 30
0.0
 10
8.32116364813609
 20
4.352843214431819
 30
0.0
 10
8.334970446651825
 20
4.350247466865521
 30
0.0
 10
8.343904557248145
 20
4.348385446514828
 30
0.0
 10
8.347791394288972
 20
4.347388388973072
 30
0.0
 10
8.348966182247203
 20
4.347038036333634
 30
0.0
 10
8.349228020594277
 20
4.346953305614223
 30
0.0
 10
8.349289719630455
 20
4.34693249380913
 30
0.0
 10
8.349304755684967
 20
4.346927314134016
 30
0.0
 10
8.34930850185136
 20
4.346926010272059
 30
0.0
 10
8.349309454072825
 20
4.346925677281677
 30
0.0
 10
8.349309703395145
 20
4.346925589961731
 30
0.0
 10
8.34930977081386
 20
4.34692556636715
 30
0.0
 10
8.34930979003898
 20
4.346925559653592
 30
0.0
 10
8.349309794441798
 20
4.346925558123256
 30
0.0
 10
8.349309795322183
 20
4.34692555781725
 30
0.0
  0
SPLINE
  5
13A
330
1F
100
AcDbEntity
  8
0
  6
HIDDEN
 62
     7
100
AcDbSpline
210
0.0
220
0.0
230
1.0
 70
     8
 71
     3
 72
     9
 73
     5
 74
     0
 42
0.00000001
 43
0.00000001
 40
0.0
 40
0.0
 40
0.0
 40
0.0
 40
0.4963526074570646
 40
1.0
 40
1.0
 40
1.0
 40
1.0
 10
8.281632418576615
 20
4.357407913289768
 30
0.0
 10
8.276662227972148
 20
4.357770175873365
 30
0.0
 10
8.266648800965227
 20
4.358500025134061
 30
0.0
 10
8.256164830641188
 20
4.358644351047867
 30
0.0
 10
8.25088460632399
 20
4.358717040418032
 30
0.0
  0
LINE
  5
13B
330
1F
100
AcDbEntity
  8
0
  6
HIDDEN
 62
     7
100
AcDbLine
 10
8.8608058662
 20
3.6563160817
 30
0.0
 11
8.8608058662
 21
3.8531664754
 31
0.0
  0
LINE
  5
13C
330
1F
100
AcDbEntity
  8
0
  6
HIDDEN
 62
     7
100
AcDbLine
 10
8.4283649213
 20
3.7547412785
 30
0.0
 11
8.4283649213
 21
3.6563160817
 31
0.0
  0
LINE
  5
13D
330
1F
100
AcDbEntity
  8
0
  6
HIDDEN
 62
     7
100
AcDbLine
 10
8.4283649213
 20
3.8531664754
 30
0.0
 11
8.4283649213
 21
3.7547412785
 31
0.0
  0
LINE
  5
13E
330
1F
100
AcDbEntity
  8
0
  6
HIDDEN
 62
     7
100
AcDbLine
 10
8.4083649213
 20
3.7547412785
 30
0.0
 11
8.4083649213
 21
3.8331664754
 31
0.0
  0
LINE
  5
13F
330
1F
100
AcDbEntity
  8
0
  6
HIDDEN
 62
     7
100
AcDbLine
 10
8.4083649213
 20
3.6763160817
 30
0.0
 11
8.4083649213
 21
3.7547412785
 31
0.0
  0
LINE
  5
140
330
1F
100
AcDbEntity
  8
0
  6
HIDDEN
 62
     7
100
AcDbLine
 10
8.7808058662
 20
3.7864735213
 30
0.0
 11
8.8808058662
 21
3.7864735213
 31
0.0
  0
LINE
  5
141
330
1F
100
AcDbEntity
  8
0
  6
HIDDEN
 62
     7
100
AcDbLine
 10
8.7808058662
 20
3.7230090357
 30
0.0
 11
8.8808058662
 21
3.7230090357
 31
0.0
  0
LINE
  5
142
330
1F
100
AcDbEntity
  8
0
  6
HIDDEN
 62
     7
100
AcDbLine
 10
8.7808058662
 20
3.7230090357
 30
0.0
 11
8.7808058662
 21
3.691276793
 31
0.0
  0
LINE
  5
143
330
1F
100
AcDbEntity
  8
0
  6
HIDDEN
 62
     7
100
AcDbLine
 10
8.7808058662
 20
3.7864735213
 30
0.0
 11
8.7808058662
 21
3.7230090357
 31
0.0
  0
LINE
  5
144
330
1F
100
AcDbEntity
  8
0
  6
HIDDEN
 62
     7
100
AcDbLine
 10
8.7808058662
 20
3.8182057641
 30
0.0
 11
8.7808058662
 21
3.7864735213
 31
0.0
  0
LINE
  5
145
330
1F
100
AcDbEntity
  8
0
  6
HIDDEN
 62
     7
100
AcDbLine
 10
8.7808058662
 20
3.691276793
 30
0.0
 11
8.8808058662
 21
3.691276793
 31
0.0
  0
LINE
  5
146
330
1F
100
AcDbEntity
  8
0
  6
HIDDEN
 62
     7
100
AcDbLine
 10
8.7808058662
 20
3.8182057641
 30
0.0
 11
8.8808058662
 21
3.8182057641
 31
0.0
  0
LINE
  5
147
330
1F
100
AcDbEntity
  8
0
  6
HIDDEN
 62
     7
100
AcDbLine
 10
8.2508846063
 20
3.9122215935
 30
0.0
 11
8.1724594095
 21
3.9122215935
 31
0.0
  0
LINE
  5
148
330
1F
100
AcDbEntity
  8
0
  6
HIDDEN
 62
     7
100
AcDbLine
 10
8.3293098032
 20
3.9122215935
 30
0.0
 11
8.2508846063
 21
3.9122215935
 31
0.0
  0
LINE
  5
149
330
1F
100
AcDbEntity
  8
0
  6
HIDDEN
 62
     7
100
AcDbLine
 10
8.2508846063
 20
3.9322215935
 30
0.0
 11
8.3493098032
 21
3.9322215935
 31
0.0
  0
LINE
  5
14A
330
1F
100
AcDbEntity
  8
0
  6
HIDDEN
 62
     7
100
AcDbLine
 10
8.1524594095
 20
3.9322215935
 30
0.0
 11
8.2508846063
 21
3.9322215935
 31
0.0
  0
LINE
  5
14B
330
1F
100
AcDbEntity
  8
0
  6
HIDDEN
 62
     7
100
AcDbLine
 10
8.3493098032
 20
4.3646625384
 30
0.0
 11
8.1524594095
 21
4.3646625384
 31
0.0
  0
LINE
  5
14C
330
1F
100
AcDbEntity
  8
0
  6
HIDDEN
 62
     7
100
AcDbLine
 10
8.2826168491
 20
4.2846625384
 30
0.0
 11
8.3143490919
 21
4.2846625384
 31
0.0
  0
LINE
  5
14D
330
1F
100
AcDbEntity
  8
0
  6
HIDDEN
 62
     7
100
AcDbLine
 10
8.2191523636
 20
4.2846625384
 30
0.0
 11
8.2826168491
 21
4.2846625384
 31
0.0
  0
LINE
  5
14E
330
1F
100
AcDbEntity
  8
0
  6
HIDDEN
 62
     7
100
AcDbLine
 10
8.2826168491
 20
4.2846625384
 30
0.0
 11
8.2826168491
 21
4.3846625384
 31
0.0
  0
LINE
  5
14F
330
1F
100
AcDbEntity
  8
0
  6
HIDDEN
 62
     7
100
AcDbLine
 10
8.2191523636
 20
4.2846625384
 30
0.0
 11
8.2191523636
 21
4.3846625384
 31
0.0
  0
LINE
  5
150
330
1F
100
AcDbEntity
  8
0
  6
HIDDEN
 62
     7
100
AcDbLine
 10
8.1874201208
 20
4.2846625384
 30
0.0
 11
8.2191523636
 21
4.2846625384
 31
0.0
  0
LINE
  5
151
330
1F
100
AcDbEntity
  8
0
  6
HIDDEN
 62
     7
100
AcDbLine
 10
8.3143490919
 20
4.2846625384
 30
0.0
 11
8.3143490919
 21
4.3846625384
 31
0.0
  0
LINE
  5
152
330
1F
100
AcDbEntity
  8
0
  6
HIDDEN
 62
     7
100
AcDbLine
 10
8.1874201208
 20
4.2846625384
 30
0.0
 11
8.1874201208
 21
4.3846625384
 31
0.0
  0
LINE
  5
153
330
1F
100
AcDbEntity
  8
0
  6
HIDDEN
 62
     7
100
AcDbLine
 10
8.1270204689
 20
4.37236452
 30
0.0
 11
8.1524594258
 21
4.3469255587
 31
0.0
  0
LINE
  5
154
330
1F
100
AcDbEntity
  8
0
  6
HIDDEN
 62
     7
100
AcDbLine
 10
8.3493098038
 20
4.3469255554
 30
0.0
 11
8.3747487651
 21
4.3723645166
 31
0.0
  0
LINE
  5
155
330
1F
100
AcDbEntity
  8
0
  6
HIDDEN
 62
     7
100
AcDbLine
 10
8.3493098032
 20
3.87767431
 30
0.0
 11
8.3493098032
 21
4.3469242029
 31
0.0
  0
LINE
  5
156
330
1F
100
AcDbEntity
  8
0
  6
HIDDEN
 62
     7
100
AcDbLine
 10
8.1524594095
 20
4.346927051
 30
0.0
 11
8.1524594095
 21
3.87777531
 31
0.0
  0
LINE
  5
157
330
1F
100
AcDbEntity
  8
0
  6
HIDDEN
 62
     7
100
AcDbLine
 10
8.3739781659
 20
3.6563160817
 30
0.0
 11
8.8731205985
 21
3.6563160817
 31
0.0
  0
LINE
  5
158
330
1F
100
AcDbEntity
  8
0
  6
HIDDEN
 62
     7
100
AcDbLine
 10
8.8730792301
 20
3.8531664754
 30
0.0
 11
8.3739514177
 21
3.8531664754
 31
0.0
  0
LINE
  5
159
330
1F
100
AcDbEntity
  8
0
  6
HIDDEN
 62
     7
100
AcDbLine
 10
8.8608058662
 20
3.6563160817
 30
0.0
 11
8.8751721089
 21
3.6706823244
 31
0.0
  0
LINE
  5
15A
330
1F
100
AcDbEntity
  8
0
  6
HIDDEN
 62
     7
100
AcDbLine
 10
8.8751721089
 20
3.8388002327
 30
0.0
 11
8.8608058662
 21
3.8531664754
 31
0.0
  0
LINE
  5
15B
330
1F
100
AcDbEntity
  8
0
  6
HIDDEN
 62
     7
100
AcDbLine
 10
8.4283649213
 20
3.6563160817
 30
0.0
 11
8.8608058662
 21
3.6563160817
 31
0.0
  0
LINE
  5
15C
330
1F
100
AcDbEntity
  8
0
  6
HIDDEN
 62
     7
100
AcDbLine
 10
8.8608058662
 20
3.8531664754
 30
0.0
 11
8.4283649213
 21
3.8531664754
 31
0.0
  0
LINE
  5
15D
330
1F
100
AcDbEntity
  8
0
  6
HIDDEN
 62
     7
100
AcDbLine
 10
8.4283649213
 20
3.8531664754
 30
0.0
 11
8.4083649213
 21
3.8331664754
 31
0.0
  0
LINE
  5
15E
330
1F
100
AcDbEntity
  8
0
  6
HIDDEN
 62
     7
100
AcDbLine
 10
8.4083649213
 20
3.6763160817
 30
0.0
 11
8.4283649213
 21
3.6563160817
 31
0.0
  0
LINE
  5
15F
330
1F
100
AcDbEntity
  8
0
  6
HIDDEN
 62
     7
100
AcDbLine
 10
8.1524594095
 20
3.9322215935
 30
0.0
 11
8.1724594095
 21
3.9122215935
 31
0.0
  0
LINE
  5
160
330
1F
100
AcDbEntity
  8
0
  6
HIDDEN
 62
     7
100
AcDbLine
 10
8.3293098032
 20
3.9122215935
 30
0.0
 11
8.3493098032
 21
3.9322215935
 31
0.0
  0
LINE
  5
161
330
1F
100
AcDbEntity
  8
0
  6
HIDDEN
 62
     7
100
AcDbLine
 10
8.3493098032
 20
4.3646625384
 30
0.0
 11
8.3349435605
 21
4.3790287811
 31
0.0
  0
LINE
  5
162
330
1F
100
AcDbEntity
  8
0
  6
HIDDEN
 62
     7
100
AcDbLine
 10
8.1668256522
 20
4.3790287811
 30
0.0
 11
8.1524594095
 21
4.3646625384
 31
0.0
  0
LINE
  5
163
330
1F
100
AcDbEntity
  8
0
  6
HIDDEN
 62
     7
100
AcDbLine
 10
8.3493098032
 20
3.9322215935
 30
0.0
 11
8.3493098032
 21
4.3646625384
 31
0.0
  0
LINE
  5
164
330
1F
100
AcDbEntity
  8
0
  6
HIDDEN
 62
     7
100
AcDbLine
 10
8.1524594095
 20
4.3646625384
 30
0.0
 11
8.1524594095
 21
3.9322215935
 31
0.0
  0
LINE
  5
165
330
1F
100
AcDbEntity
  8
0
  6
CONTINUOUS
 62
     7
100
AcDbLine
 10
2.4511242924
 20
6.0420558791
 30
0.0
 11
4.2021479144
 21
6.0420558791
 31
0.0
  0
LINE
  5
166
330
1F
100
AcDbEntity
  8
0
  6
CONTINUOUS
 62
     7
100
AcDbLine
 10
2.558919568
 20
7.3018983988
 30
0.0
 11
2.4511242924
 21
7.3018983988
 31
0.0
  0
LINE
  5
167
330
1F
100
AcDbEntity
  8
0
  6
CONTINUOUS
 62
     7
100
AcDbLine
 10
3.8975022451
 20
7.3018983988
 30
0.0
 11
2.7554929651
 21
7.3018983988
 31
0.0
  0
LINE
  5
168
330
1F
100
AcDbEntity
  8
0
  6
CONTINUOUS
 62
     7
100
AcDbLine
 10
4.2021479144
 20
7.3018983988
 30
0.0
 11
4.0940756423
 21
7.3018983988
 31
0.0
  0
LINE
  5
169
330
1F
100
AcDbEntity
  8
0
  6
CONTINUOUS
 62
     7
100
AcDbLine
 10
2.4511242924
 20
7.3018983988
 30
0.0
 11
2.4211242924
 21
7.2718983988
 31
0.0
  0
LINE
  5
16A
330
1F
100
AcDbEntity
  8
0
  6
CONTINUOUS
 62
     7
100
AcDbLine
 10
2.4211242924
 20
6.0720558791
 30
0.0
 11
2.4511242924
 21
6.0420558791
 31
0.0
  0
LINE
  5
16B
330
1F
100
AcDbEntity
  8
0
  6
CONTINUOUS
 62
     7
100
AcDbLine
 10
4.2021479144
 20
6.0420558791
 30
0.0
 11
4.2321479144
 21
6.0720558791
 31
0.0
  0
LINE
  5
16C
330
1F
100
AcDbEntity
  8
0
  6
CONTINUOUS
 62
     7
100
AcDbLine
 10
4.2321479144
 20
7.2718983988
 30
0.0
 11
4.2021479144
 21
7.3018983988
 31
0.0
  0
LINE
  5
16D
330
1F
100
AcDbEntity
  8
0
  6
CONTINUOUS
 62
     7
100
AcDbLine
 10
4.0768356471
 20
7.2994153905
 30
0.0
 11
4.0743526388
 21
7.3018983988
 31
0.0
  0
LINE
  5
16E
330
1F
100
AcDbEntity
  8
0
  6
CONTINUOUS
 62
     7
100
AcDbLine
 10
3.9175022451
 20
7.3018983988
 30
0.0
 11
3.9150155496
 21
7.2994117032
 31
0.0
  0
LINE
  5
16F
330
1F
100
AcDbEntity
  8
0
  6
CONTINUOUS
 62
     7
100
AcDbLine
 10
2.7382529699
 20
7.2994153905
 30
0.0
 11
2.7357699617
 21
7.3018983988
 31
0.0
  0
LINE
  5
170
330
1F
100
AcDbEntity
  8
0
  6
CONTINUOUS
 62
     7
100
AcDbLine
 10
2.578919568
 20
7.3018983988
 30
0.0
 11
2.5764328724
 21
7.2994117032
 31
0.0
  0
LINE
  5
171
330
1F
100
AcDbEntity
  8
0
  6
CONTINUOUS
 62
     7
100
AcDbLine
 10
4.2021479144
 20
6.0420558791
 30
0.0
 11
4.2021479144
 21
7.3018983988
 31
0.0
  0
LINE
  5
172
330
1F
100
AcDbEntity
  8
0
  6
CONTINUOUS
 62
     7
100
AcDbLine
 10
2.4511242924
 20
7.3018983988
 30
0.0
 11
2.4511242924
 21
6.0420558791
 31
0.0
  0
SPLINE
  5
173
330
1F
100
AcDbEntity
  8
0
  6
CONTINUOUS
 62
     7
100
AcDbSpline
210
0.0
220
0.0
230
1.0
 70
     8
 71
     3
 72
    29
 73
    25
 74
     0
 42
0.00000001
 43
0.00000001
 40
-0.1266947025799385
 40
-0.0841685720803865
 40
-0.0428976851387306
 40
0.0
 40
0.0429962470702217
 40
0.0843257633633162
 40
0.126850369485049
 40
0.1888314282622869
 40
0.2497681766319669
 40
0.2908792720596007
 40
0.3309346517161682
 40
0.3731576478466373
 40
0.4157106969654978
 40
0.4570849288777234
 40
0.5001579679458492
 40
0.5430555992108356
 40
0.5843340793587927
 40
0.626875144349705
 40
0.6889310251003801
 40
0.7498412709360226
 40
0.7909499072218595
 40
0.8310305719310151
 40
0.8733052974200615
 40
0.9158314279196135
 40
0.9571023148612694
 40
1.0
 40
1.042996247070222
 40
1.084325763363316
 40
1.126850369485049
 10
2.540903985354444
 20
6.639558597131327
 30
0.0
 10
2.537380273018973
 20
6.672004503061054
 30
0.0
 10
2.540977203974565
 20
6.704452207599435
 30
0.0
 10
2.553001045377963
 20
6.734751143958523
 30
0.0
 10
2.575441598207458
 20
6.764404706302372
 30
0.0
 10
2.610090208865064
 20
6.78999017655587
 30
0.0
 10
2.652362831240631
 20
6.79774458268326
 30
0.0
 10
2.688570258155008
 20
6.793369439057485
 30
0.0
 10
2.717716584905896
 20
6.780762586015357
 30
0.0
 10
2.742244972453777
 20
6.760377097871904
 30
0.0
 10
2.761747119415357
 20
6.734711662192037
 30
0.0
 10
2.773740623995808
 20
6.70436999596668
 30
0.0
 10
2.77731038218621
 20
6.671885199407475
 30
0.0
 10
2.773753158735284
 20
6.639423532787544
 30
0.0
 10
2.761713737180574
 20
6.609162104745196
 30
0.0
 10
2.739220163218638
 20
6.579536578004844
 30
0.0
 10
2.704549151190686
 20
6.553962400330354
 30
0.0
 10
2.662264829081296
 20
6.546202070592314
 30
0.0
 10
2.626060027247174
 20
6.550607567728667
 30
0.0
 10
2.596907622901706
 20
6.563245526755423
 30
0.0
 10
2.572379978662334
 20
6.583650155601052
 30
0.0
 10
2.552883381273756
 20
6.609292351197817
 30
0.0
 10
2.540903985354444
 20
6.639558597131327
 30
0.0
 10
2.537380273018973
 20
6.672004503061054
 30
0.0
 10
2.540977203974565
 20
6.704452207599435
 30
0.0
  0
SPLINE
  5
174
330
1F
100
AcDbEntity
  8
0
  6
CONTINUOUS
 62
     7
100
AcDbSpline
210
0.0
220
0.0
230
1.0
 70
     8
 71
     3
 72
    29
 73
    25
 74
     0
 42
0.00000001
 43
0.00000001
 40
-0.126694702579961
 40
-0.0841685720805037
 40
-0.0428976851388474
 40
0.0
 40
0.0429962470703664
 40
0.0843257633634607
 40
0.1268503694850765
 40
0.1888314282624413
 40
0.2497681766319681
 40
0.2908792720595466
 40
0.3309346517161141
 40
0.3731576478466264
 40
0.4157106969656004
 40
0.457084928877826
 40
0.500157967945881
 40
0.5430555992111128
 40
0.5843340793590698
 40
0.6268751443497284
 40
0.6889310251005062
 40
0.7498412709360247
 40
0.7909499072217502
 40
0.8310305719309058
 40
0.873305297420039
 40
0.9158314279194963
 40
0.9571023148611526
 40
1.0
 40
1.042996247070366
 40
1.084325763363461
 40
1.126850369485076
 10
3.879486662519787
 20
6.639558597131268
 30
0.0
 10
3.87596295018433
 20
6.672004503061062
 30
0.0
 10
3.879559881139908
 20
6.704452207599508
 30
0.0
 10
3.891583722543289
 20
6.734751143958618
 30
0.0
 10
3.914024275372875
 20
6.764404706302408
 30
0.0
 10
3.948672886030482
 20
6.789990176555817
 30
0.0
 10
3.990945508406007
 20
6.797744582683269
 30
0.0
 10
4.027152935320333
 20
6.793369439057478
 30
0.0
 10
4.056299262071213
 20
6.780762586015349
 30
0.0
 10
4.08082764961914
 20
6.760377097871892
 30
0.0
 10
4.100329796580787
 20
6.734711662192025
 30
0.0
 10
4.112323301161261
 20
6.704369995966657
 30
0.0
 10
4.115893059351562
 20
6.671885199407389
 30
0.0
 10
4.112335835900554
 20
6.63942353278743
 30
0.0
 10
4.100296414345888
 20
6.60916210474507
 30
0.0
 10
4.077802840383915
 20
6.579536578004782
 30
0.0
 10
4.043131828355986
 20
6.553962400330402
 30
0.0
 10
4.00084750624665
 20
6.546202070592305
 30
0.0
 10
3.964642704412585
 20
6.550607567728678
 30
0.0
 10
3.935490300067135
 20
6.563245526755444
 30
0.0
 10
3.910962655827723
 20
6.583650155601014
 30
0.0
 10
3.891466058439089
 20
6.609292351197742
 30
0.0
 10
3.879486662519787
 20
6.639558597131268
 30
0.0
 10
3.87596295018433
 20
6.672004503061062
 30
0.0
 10
3.879559881139908
 20
6.704452207599508
 30
0.0
  0
SPLINE
  5
175
330
1F
100
AcDbEntity
  8
0
  6
CONTINUOUS
 62
     7
100
AcDbSpline
210
0.0
220
0.0
230
1.0
 70
     8
 71
     3
 72
    26
 73
    22
 74
     0
 42
0.00000001
 43
0.00000001
 40
0.0
 40
0.0
 40
0.0
 40
0.0
 40
0.015291959774023
 40
0.0693446588764728
 40
0.1216007793017378
 40
0.1753500874615949
 40
0.228021646220074
 40
0.2821933679900551
 40
0.3353237875167834
 40
0.390005271456725
 40
0.4429203054850001
 40
0.4974033622104849
 40
0.5497524866275944
 40
0.6036236231443655
 40
0.6559438586215981
 40
0.7097509660996095
 40
0.7626179895671394
 40
0.8170004185396497
 40
0.870143557158166
 40
0.9248508726184401
 40
1.0
 40
1.0
 40
1.0
 40
1.0
 10
4.094075642255157
 20
7.301855227811659
 30
0.0
 10
4.094155732890841
 20
7.301867708482002
 30
0.0
 10
4.094518920990522
 20
7.301924304748294
 30
0.0
 10
4.092384314117863
 20
7.301590531319125
 30
0.0
 10
4.08764531472456
 20
7.300876131997229
 30
0.0
 10
4.08021932947713
 20
7.299825809694567
 30
0.0
 10
4.070410055590907
 20
7.298573069190243
 30
0.0
 10
4.058540491033766
 20
7.297260217255482
 30
0.0
 10
4.044744615539148
 20
7.296017635883048
 30
0.0
 10
4.029648254228094
 20
7.295008566719003
 30
0.0
 10
4.01345073339342
 20
7.294335881679333
 30
0.0
 10
3.996971668294659
 20
7.29408826631249
 30
0.0
 10
3.980374158800726
 20
7.29428450207507
 30
0.0
 10
3.964433733538752
 20
7.29489283477827
 30
0.0
 10
3.949249696389283
 20
7.295853817964314
 30
0.0
 10
3.935458593127304
 20
7.297047950033931
 30
0.0
 10
3.923203602319072
 20
7.298363722254402
 30
0.0
 10
3.913021225672366
 20
7.299639820061791
 30
0.0
 10
3.905148701267327
 20
7.300737133693157
 30
0.0
 10
3.898927756907395
 20
7.301672390443119
 30
0.0
 10
3.89802479661149
 20
7.301815550630981
 30
0.0
 10
3.897502245116836
 20
7.301898398758946
 30
0.0
  0
SPLINE
  5
176
330
1F
100
AcDbEntity
  8
0
  6
CONTINUOUS
 62
     7
100
AcDbSpline
210
0.0
220
0.0
230
1.0
 70
     8
 71
     3
 72
    26
 73
    22
 74
     0
 42
0.00000001
 43
0.00000001
 40
0.0
 40
0.0
 40
0.0
 40
0.0
 40
0.0152919597740231
 40
0.0693446588764729
 40
0.1216007793017378
 40
0.1753500874615949
 40
0.2280216462200738
 40
0.2821933679900546
 40
0.335323787516783
 40
0.3900052714567251
 40
0.4429203054850001
 40
0.497403362210485
 40
0.5497524866275945
 40
0.6036236231443656
 40
0.6559438586215981
 40
0.7097509660996097
 40
0.7626179895671391
 40
0.8170004185396492
 40
0.8701435571581658
 40
0.92485087261844
 40
1.0
 40
1.0
 40
1.0
 40
1.0
 10
2.755492965089803
 20
7.301855227811659
 30
0.0
 10
2.755573055725486
 20
7.301867708482003
 30
0.0
 10
2.755936243825168
 20
7.301924304748294
 30
0.0
 10
2.753801636952509
 20
7.301590531319125
 30
0.0
 10
2.749062637559206
 20
7.300876131997229
 30
0.0
 10
2.741636652311775
 20
7.299825809694567
 30
0.0
 10
2.731827378425553
 20
7.298573069190243
 30
0.0
 10
2.719957813868413
 20
7.297260217255482
 30
0.0
 10
2.706161938373794
 20
7.296017635883048
 30
0.0
 10
2.69106557706274
 20
7.295008566719003
 30
0.0
 10
2.674868056228067
 20
7.294335881679333
 30
0.0
 10
2.658388991129304
 20
7.29408826631249
 30
0.0
 10
2.641791481635372
 20
7.29428450207507
 30
0.0
 10
2.625851056373397
 20
7.294892834778268
 30
0.0
 10
2.610667019223929
 20
7.295853817964314
 30
0.0
 10
2.59687591596195
 20
7.297047950033931
 30
0.0
 10
2.584620925153718
 20
7.298363722254402
 30
0.0
 10
2.574438548507012
 20
7.299639820061791
 30
0.0
 10
2.566566024101974
 20
7.300737133693157
 30
0.0
 10
2.560345079742041
 20
7.301672390443119
 30
0.0
 10
2.559442119446136
 20
7.301815550630981
 30
0.0
 10
2.558919567951481
 20
7.301898398758946
 30
0.0
  0
LINE
  5
177
330
1F
100
AcDbEntity
  8
0
  6
CONTINUOUS
 62
     7
100
AcDbLine
 10
2.558919568
 20
6.6719771389
 30
0.0
 11
2.5591735942
 21
6.6688185582
 31
0.0
  0
SPLINE
  5
178
330
1F
100
AcDbEntity
  8
0
  6
CONTINUOUS
 62
     7
100
AcDbSpline
210
0.0
220
0.0
230
1.0
 70
     8
 71
     3
 72
     9
 73
     5
 74
     0
 42
0.00000001
 43
0.00000001
 40
0.0
 40
0.0
 40
0.0
 40
0.0
 40
0.6920038877584871
 40
1.0
 40
1.0
 40
1.0
 40
1.0
 10
2.755765475465513
 20
6.671924030755468
 30
0.0
 10
2.755657895252078
 20
6.677215317088421
 30
0.0
 10
2.755502433389308
 20
6.684861641663405
 30
0.0
 10
2.753413021017661
 20
6.692166498947092
 30
0.0
 10
2.752769490130324
 20
6.694416366590947
 30
0.0
  0
SPLINE
  5
179
330
1F
100
AcDbEntity
  8
0
  6
CONTINUOUS
 62
     7
100
AcDbSpline
210
0.0
220
0.0
230
1.0
 70
     8
 71
     3
 72
     9
 73
     5
 74
     0
 42
0.00000001
 43
0.00000001
 40
0.0
 40
0.0
 40
0.0
 40
0.0
 40
0.18096977587903
 40
1.0
 40
1.0
 40
1.0
 40
1.0
 10
2.561053016693275
 20
6.691067446998173
 30
0.0
 10
2.560745283164476
 20
6.689947607936563
 30
0.0
 10
2.559044813971181
 20
6.68375961849927
 30
0.0
 10
2.558975960788843
 20
6.677282277206858
 30
0.0
 10
2.558919567951481
 20
6.671977138916426
 30
0.0
  0
SPLINE
  5
17A
330
1F
100
AcDbEntity
  8
0
  6
CONTINUOUS
 62
     7
100
AcDbSpline
210
0.0
220
0.0
230
1.0
 70
     8
 71
     3
 72
    29
 73
    25
 74
     0
 42
0.00000001
 43
0.00000001
 40
-0.125193127727563
 40
-0.0765714861925916
 40
-0.034854986970548
 40
0.0
 40
0.034882453924489
 40
0.0765564304113126
 40
0.1250660181112614
 40
0.1740015612069631
 40
0.2157168337979141
 40
0.2502529187714697
 40
0.3046126484787169
 40
0.3749676047945179
 40
0.4235553912772412
 40
0.4652390773922614
 40
0.5000621155319198
 40
0.5549016744400795
 40
0.6249825383695531
 40
0.6738644962037488
 40
0.7155530785014073
 40
0.7500896733968033
 40
0.750118181970978
 40
0.8044618966132467
 40
0.874806872272437
 40
0.9234285138074084
 40
0.965145013029452
 40
1.0
 40
1.034882453924489
 40
1.076556430411313
 40
1.125066018111261
 10
3.899239202397137
 20
6.694964161129667
 30
0.0
 10
3.896710636596275
 20
6.67197163647189
 30
0.0
 10
3.899241681759066
 20
6.648986835995149
 30
0.0
 10
3.908156881937776
 20
6.624587005332012
 30
0.0
 10
3.925256645638973
 20
6.601280028391969
 30
0.0
 10
3.94857512116955
 20
6.584169153651539
 30
0.0
 10
3.973014050981881
 20
6.575282749562669
 30
0.0
 10
3.999939664914656
 20
6.572323185365939
 30
0.0
 10
4.03289978701823
 20
6.577967623695534
 30
0.0
 10
4.063927615029349
 20
6.597628588030174
 30
0.0
 10
4.083648507524802
 20
6.624500453240753
 30
0.0
 10
4.09259242141131
 20
6.648906985285317
 30
0.0
 10
4.095604286253709
 20
6.675982506397629
 30
0.0
 10
4.089904259144564
 20
6.709053750956528
 30
0.0
 10
4.070139286635745
 20
6.740127531897317
 30
0.0
 10
4.043218055074473
 20
6.759806704028501
 30
0.0
 10
4.018800385680802
 20
6.768685456885473
 30
0.0
 10
4.003051347073172
 20
6.770401697446737
 30
0.0
 10
3.9847422447839
 20
6.770403339357371
 30
0.0
 10
3.958885849920827
 20
6.76596348480041
 30
0.0
 10
3.927888130629444
 20
6.746288821074152
 30
0.0
 10
3.908171518129498
 20
6.719392936694291
 30
0.0
 10
3.899239202397137
 20
6.694964161129667
 30
0.0
 10
3.896710636596275
 20
6.67197163647189
 30
0.0
 10
3.899241681759066
 20
6.648986835995149
 30
0.0
  0
LINE
  5
17B
330
1F
100
AcDbEntity
  8
0
  6
CONTINUOUS
 62
     7
100
AcDbLine
 10
2.4211242924
 20
6.0720558791
 30
0.0
 11
2.4211242924
 21
7.2718983988
 31
0.0
  0
LINE
  5
17C
330
1F
100
AcDbEntity
  8
0
  6
CONTINUOUS
 62
     7
100
AcDbLine
 10
4.2321479144
 20
7.2718983988
 30
0.0
 11
4.2321479144
 21
6.0720558791
 31
0.0
  0
LINE
  5
17D
330
1F
100
AcDbEntity
  8
0
  6
CONTINUOUS
 62
     7
100
AcDbLine
 10
3.9175022451
 20
7.3018983988
 30
0.0
 11
4.0743526388
 21
7.3018983988
 31
0.0
  0
LINE
  5
17E
330
1F
100
AcDbEntity
  8
0
  6
CONTINUOUS
 62
     7
100
AcDbLine
 10
2.7357699617
 20
7.3018983988
 30
0.0
 11
2.578919568
 21
7.3018983988
 31
0.0
  0
CIRCLE
  5
17F
330
1F
100
AcDbEntity
  8
0
  6
CONTINUOUS
 62
     7
100
AcDbCircle
 10
2.6573447648
 20
6.6719771389
 30
0.0
 40
0.0784251968503935
  0
LINE
  5
180
330
1F
100
AcDbEntity
  8
0
  6
CONTINUOUS
 62
     7
100
AcDbLine
 10
2.6023829081
 20
6.6402448961
 30
0.0
 11
2.6023829081
 21
6.7037093817
 31
0.0
  0
LINE
  5
181
330
1F
100
AcDbEntity
  8
0
  6
CONTINUOUS
 62
     7
100
AcDbLine
 10
2.6573447648
 20
6.6085126534
 30
0.0
 11
2.6023829081
 21
6.6402448961
 31
0.0
  0
LINE
  5
182
330
1F
100
AcDbEntity
  8
0
  6
CONTINUOUS
 62
     7
100
AcDbLine
 10
2.7123066215
 20
6.6402448961
 30
0.0
 11
2.6573447648
 21
6.6085126534
 31
0.0
  0
LINE
  5
183
330
1F
100
AcDbEntity
  8
0
  6
CONTINUOUS
 62
     7
100
AcDbLine
 10
2.7123066215
 20
6.7037093817
 30
0.0
 11
2.7123066215
 21
6.6402448961
 31
0.0
  0
LINE
  5
184
330
1F
100
AcDbEntity
  8
0
  6
CONTINUOUS
 62
     7
100
AcDbLine
 10
2.6573447648
 20
6.7354416245
 30
0.0
 11
2.7123066215
 21
6.7037093817
 31
0.0
  0
LINE
  5
185
330
1F
100
AcDbEntity
  8
0
  6
CONTINUOUS
 62
     7
100
AcDbLine
 10
2.6023829081
 20
6.7037093817
 30
0.0
 11
2.6573447648
 21
6.7354416245
 31
0.0
  0
CIRCLE
  5
186
330
1F
100
AcDbEntity
  8
0
  6
CONTINUOUS
 62
     7
100
AcDbCircle
 10
2.6573447648
 20
6.6719771389
 30
0.0
 40
0.0984251968503935
  0
CIRCLE
  5
187
330
1F
100
AcDbEntity
  8
0
  6
CONTINUOUS
 62
     7
100
AcDbCircle
 10
3.995927442
 20
6.6719771389
 30
0.0
 40
0.0784251968503935
  0
LINE
  5
188
330
1F
100
AcDbEntity
  8
0
  6
CONTINUOUS
 62
     7
100
AcDbLine
 10
3.995927442
 20
6.7354416245
 30
0.0
 11
3.9409655852
 21
6.7037093817
 31
0.0
  0
LINE
  5
189
330
1F
100
AcDbEntity
  8
0
  6
CONTINUOUS
 62
     7
100
AcDbLine
 10
3.9409655852
 20
6.7037093817
 30
0.0
 11
3.9409655852
 21
6.6402448961
 31
0.0
  0
LINE
  5
18A
330
1F
100
AcDbEntity
  8
0
  6
CONTINUOUS
 62
     7
100
AcDbLine
 10
3.9409655852
 20
6.6402448961
 30
0.0
 11
3.995927442
 21
6.6085126534
 31
0.0
  0
LINE
  5
18B
330
1F
100
AcDbEntity
  8
0
  6
CONTINUOUS
 62
     7
100
AcDbLine
 10
3.995927442
 20
6.6085126534
 30
0.0
 11
4.0508892987
 21
6.6402448961
 31
0.0
  0
LINE
  5
18C
330
1F
100
AcDbEntity
  8
0
  6
CONTINUOUS
 62
     7
100
AcDbLine
 10
4.0508892987
 20
6.6402448961
 30
0.0
 11
4.0508892987
 21
6.7037093817
 31
0.0
  0
LINE
  5
18D
330
1F
100
AcDbEntity
  8
0
  6
CONTINUOUS
 62
     7
100
AcDbLine
 10
4.0508892987
 20
6.7037093817
 30
0.0
 11
3.995927442
 21
6.7354416245
 31
0.0
  0
CIRCLE
  5
18E
330
1F
100
AcDbEntity
  8
0
  6
CONTINUOUS
 62
     7
100
AcDbCircle
 10
3.995927442
 20
6.6719771389
 30
0.0
 40
0.098425196850394
  0
SPLINE
  5
18F
330
1F
100
AcDbEntity
  8
0
  6
HIDDEN
 62
     7
100
AcDbSpline
210
0.0
220
0.0
230
1.0
 70
     8
 71
     3
 72
    24
 73
    20
 74
     0
 42
0.00000001
 43
0.00000001
 40
0.0
 40
0.0
 40
0.0
 40
0.0
 40
0.0411553147631728
 40
0.1003542038248506
 40
0.1673113931723543
 40
0.2420612868920408
 40
0.3175310615349401
 40
0.3847705470729457
 40
0.4438119456455218
 40
0.4947093130735621
 40
0.5456375800423777
 40
0.6046891217598204
 40
0.6719184220310296
 40
0.7473580387073706
 40
0.8222396776779641
 40
0.8892507205868828
 40
0.9484251072057065
 40
0.9998177329069269
 40
0.9999999999999999
 40
0.9999999999999999
 40
0.9999999999999999
 40
0.9999999999999999
 10
2.559173594238518
 20
6.668818558204518
 30
0.0
 10
2.559386858737093
 20
6.664611318254241
 30
0.0
 10
2.559906888509234
 20
6.65435227351264
 30
0.0
 10
2.564453983503592
 20
6.637749003160507
 30
0.0
 10
2.573306596746623
 20
6.619191066363245
 30
0.0
 10
2.587125715418328
 20
6.601745493253891
 30
0.0
 10
2.604587331931637
 20
6.587928225983116
 30
0.0
 10
2.623232084595402
 20
6.57897523088073
 30
0.0
 10
2.640832103008398
 20
6.574456883462858
 30
0.0
 10
2.657284203249209
 20
6.573137673594672
 30
0.0
 10
2.673739025580305
 20
6.57443655470118
 30
0.0
 10
2.691348542616013
 20
6.578935099447299
 30
0.0
 10
2.709997552144045
 20
6.587865024910799
 30
0.0
 10
2.72749906742623
 20
6.601666592484738
 30
0.0
 10
2.741290331079559
 20
6.619110052151665
 30
0.0
 10
2.750348050504216
 20
6.637676844489964
 30
0.0
 10
2.754619114500784
 20
6.655291904298632
 30
0.0
 10
2.756185779850925
 20
6.666653792841589
 30
0.0
 10
2.755766955601956
 20
6.671905471179431
 30
0.0
 10
2.755765475465513
 20
6.671924030755468
 30
0.0
  0
SPLINE
  5
190
330
1F
100
AcDbEntity
  8
0
  6
HIDDEN
 62
     7
100
AcDbSpline
210
0.0
220
0.0
230
1.0
 70
     8
 71
     3
 72
    40
 73
    36
 74
     0
 42
0.00000001
 43
0.00000001
 40
0.0
 40
0.0
 40
0.0
 40
0.0
 40
0.0417291784792893
 40
0.1185766565716231
 40
0.204382882864774
 40
0.2906655416272226
 40
0.3675629685720415
 40
0.4351122635490903
 40
0.4654265065958835
 40
0.4797171697782278
 40
0.4866461411748302
 40
0.490056593883035
 40
0.491748320683376
 40
0.4925908103792702
 40
0.4930112119552608
 40
0.4932212019449126
 40
0.4933261442426315
 40
0.4933786022175258
 40
0.493404827911521
 40
0.49341793993516
 40
0.4934244957411411
 40
0.4934277735926717
 40
0.4934310514098958
 40
0.4934356233443846
 40
0.4934481082853561
 40
0.49346850623281
 40
0.521411530965441
 40
0.5516941111987695
 40
0.5843041652210138
 40
0.6192512575887464
 40
0.6961998966930175
 40
0.7825581115232484
 40
0.86838434089323
 40
0.9451902757458737
 40
1.0
 40
1.0
 40
1.0
 40
1.0
 10
2.752769490130324
 20
6.694416366590947
 30
0.0
 10
2.751945806428426
 20
6.698051089257927
 30
0.0
 10
2.749605246105817
 20
6.708379432089536
 30
0.0
 10
2.741232326675892
 20
6.724762282130301
 30
0.0
 10
2.727557981041896
 20
6.742264540858065
 30
0.0
 10
2.710030308288008
 20
6.756060990730854
 30
0.0
 10
2.691409577505228
 20
6.764997540874795
 30
0.0
 10
2.676231537571571
 20
6.76888387827357
 30
0.0
 10
2.666284681940728
 20
6.770058718577471
 30
0.0
 10
2.661691252085591
 20
6.770320552920007
 30
0.0
 10
2.659493392979192
 20
6.77038225218878
 30
0.0
 10
2.65841948975306
 20
6.770397288359197
 30
0.0
 10
2.657888830437171
 20
6.770401034326386
 30
0.0
 10
2.657625077553576
 20
6.770401986830472
 30
0.0
 10
2.657493595769203
 20
6.770402235754918
 30
0.0
 10
2.657427953595194
 20
6.770402303734307
 30
0.0
 10
2.657395157194577
 20
6.770402323646779
 30
0.0
 10
2.657378765166694
 20
6.77040233008915
 30
0.0
 10
2.657370570695964
 20
6.770402332432547
 30
0.0
 10
2.657366473846416
 20
6.770402333384883
 30
0.0
 10
2.657364425518096
 20
6.770402333806222
 30
0.0
 10
2.657363255075393
 20
6.770402334031323
 30
0.0
 10
2.657362261730072
 20
6.770402334213503
 30
0.0
 10
2.657360446480988
 20
6.770402334527039
 30
0.0
 10
2.657357102942115
 20
6.770402335026946
 30
0.0
 10
2.654859733786792
 20
6.770402596744359
 30
0.0
 10
2.649657965640556
 20
6.770205090309686
 30
0.0
 10
2.641600608109374
 20
6.769256644632494
 30
0.0
 10
2.633045436341313
 20
6.767498140849801
 30
0.0
 10
2.620714562785428
 20
6.763759973188687
 30
0.0
 10
2.604695411299836
 20
6.756088733936627
 30
0.0
 10
2.587167422017684
 20
6.74228811264708
 30
0.0
 10
2.573439375744229
 20
6.724800199259757
 30
0.0
 10
2.564661643231002
 20
6.707329589790304
 30
0.0
 10
2.562113965700879
 20
6.695848574686629
 30
0.0
 10
2.561053016693275
 20
6.691067446998173
 30
0.0
  0
LINE
  5
191
330
1F
100
AcDbEntity
  8
0
  6
HIDDEN
 62
     7
100
AcDbLine
 10
3.4266361034
 20
6.8594574539
 30
0.0
 11
3.4266361034
 21
6.484496824
 31
0.0
  0
LINE
  5
192
330
1F
100
AcDbEntity
  8
0
  6
HIDDEN
 62
     7
100
AcDbLine
 10
3.2266361034
 20
6.8594574539
 30
0.0
 11
3.2266361034
 21
6.484496824
 31
0.0
  0
SPLINE
  5
193
330
1F
100
AcDbEntity
  8
0
  6
HIDDEN
 62
     7
100
AcDbSpline
210
0.0
220
0.0
230
1.0
 70
     8
 71
     3
 72
    17
 73
    13
 74
     0
 42
0.00000001
 43
0.00000001
 40
0.0
 40
0.0
 40
0.0
 40
0.0
 40
0.0968016381329645
 40
0.1966998862340956
 40
0.2934380278016643
 40
0.3926100733131796
 40
0.4972706097349207
 40
0.6042968177045818
 40
0.7225560366434159
 40
0.8446105701381523
 40
0.9322642721617048
 40
0.9999999999999999
 40
0.9999999999999999
 40
0.9999999999999999
 40
0.9999999999999999
 10
3.897502245116836
 20
6.829457453877056
 30
0.0
 10
3.897717571420236
 20
6.829322419060263
 30
0.0
 10
3.898155112149906
 20
6.829048029766722
 30
0.0
 10
3.901641265307954
 20
6.826890867674619
 30
0.0
 10
3.907052507400568
 20
6.82364370063282
 30
0.0
 10
3.914459621236791
 20
6.819399990596901
 30
0.0
 10
3.923877308186722
 20
6.814373224801683
 30
0.0
 10
3.935605311517143
 20
6.808756520930268
 30
0.0
 10
3.94970024720655
 20
6.80303454563612
 30
0.0
 10
3.964625426489546
 20
6.798593568917833
 30
0.0
 10
3.978145664390282
 20
6.795907490872364
 30
0.0
 10
3.986029538804373
 20
6.795428438867153
 30
0.0
 10
3.989466194515761
 20
6.795219615549671
 30
0.0
  0
SPLINE
  5
194
330
1F
100
AcDbEntity
  8
0
  6
HIDDEN
 62
     7
100
AcDbSpline
210
0.0
220
0.0
230
1.0
 70
     8
 71
     3
 72
    18
 73
    14
 74
     0
 42
0.00000001
 43
0.00000001
 40
0.0
 40
0.0
 40
0.0
 40
0.0
 40
0.0249900840841253
 40
0.1154160147237524
 40
0.2016090852015254
 40
0.2896018395227328
 40
0.3919424320150251
 40
0.4964698519454526
 40
0.6151097059764951
 40
0.7375451055279024
 40
0.8492363415423981
 40
0.9653756713188016
 40
0.9999999999999999
 40
0.9999999999999999
 40
0.9999999999999999
 40
0.9999999999999999
 10
4.0024087383435
 20
6.795228611338512
 30
0.0
 10
4.0036803920868
 20
6.79525269963803
 30
0.0
 10
4.009553489858947
 20
6.795363950785587
 30
0.0
 10
4.019580107906343
 20
6.797018925090888
 30
0.0
 10
4.032127778971335
 20
6.799938773572036
 30
0.0
 10
4.044362752909235
 20
6.803951485460455
 30
0.0
 10
4.056272936867903
 20
6.808784080412345
 30
0.0
 10
4.067918609204365
 20
6.814330798678875
 30
0.0
 10
4.078380896084151
 20
6.819926928257783
 30
0.0
 10
4.086717092563378
 20
6.82477048987878
 30
0.0
 10
4.092110697469887
 20
6.828055427777785
 30
0.0
 10
4.094447715794215
 20
6.829516849430719
 30
0.0
 10
4.094167689486456
 20
6.829341985203897
 30
0.0
 10
4.094103378743281
 20
6.829301825947178
 30
0.0
  0
SPLINE
  5
195
330
1F
100
AcDbEntity
  8
0
  6
HIDDEN
 62
     7
100
AcDbSpline
210
0.0
220
0.0
230
1.0
 70
     8
 71
     3
 72
    17
 73
    13
 74
     0
 42
0.00000001
 43
0.00000001
 40
0.0
 40
0.0
 40
0.0
 40
0.0
 40
0.0968016381329729
 40
0.1966998862341126
 40
0.2934380278016896
 40
0.392610073313214
 40
0.4972706097349643
 40
0.6042968177046345
 40
0.7225560366434797
 40
0.8446105701382256
 40
0.9322642721617858
 40
1.0
 40
1.0
 40
1.0
 40
1.0
 10
2.558919567951481
 20
6.829457453877056
 30
0.0
 10
2.559134894254881
 20
6.829322419060263
 30
0.0
 10
2.559572434984552
 20
6.829048029766722
 30
0.0
 10
2.5630585881426
 20
6.826890867674619
 30
0.0
 10
2.568469830235213
 20
6.82364370063282
 30
0.0
 10
2.575876944071438
 20
6.8193999905969
 30
0.0
 10
2.585294631021368
 20
6.814373224801683
 30
0.0
 10
2.59702263435179
 20
6.808756520930268
 30
0.0
 10
2.611117570041196
 20
6.80303454563612
 30
0.0
 10
2.626042749324192
 20
6.798593568917833
 30
0.0
 10
2.639562987224923
 20
6.795907490872364
 30
0.0
 10
2.64744686163901
 20
6.795428438867154
 30
0.0
 10
2.650883517350394
 20
6.795219615549672
 30
0.0
  0
SPLINE
  5
196
330
1F
100
AcDbEntity
  8
0
  6
HIDDEN
 62
     7
100
AcDbSpline
210
0.0
220
0.0
230
1.0
 70
     8
 71
     3
 72
    18
 73
    14
 74
     0
 42
0.00000001
 43
0.00000001
 40
0.0
 40
0.0
 40
0.0
 40
0.0
 40
0.0249900840840764
 40
0.1154160147237071
 40
0.2016090852014853
 40
0.2896018395226971
 40
0.391942432014994
 40
0.4964698519454266
 40
0.615109705976476
 40
0.7375451055278897
 40
0.849236341542391
 40
0.9653756713188004
 40
1.0
 40
1.0
 40
1.0
 40
1.0
 10
2.663826061178153
 20
6.795228611338512
 30
0.0
 10
2.665097714921451
 20
6.79525269963803
 30
0.0
 10
2.670970812693595
 20
6.795363950785587
 30
0.0
 10
2.680997430740989
 20
6.797018925090888
 30
0.0
 10
2.693545101805981
 20
6.799938773572036
 30
0.0
 10
2.705780075743881
 20
6.803951485460455
 30
0.0
 10
2.717690259702549
 20
6.808784080412345
 30
0.0
 10
2.729335932039011
 20
6.814330798678875
 30
0.0
 10
2.739798218918797
 20
6.819926928257783
 30
0.0
 10
2.748134415398024
 20
6.82477048987878
 30
0.0
 10
2.753528020304533
 20
6.828055427777785
 30
0.0
 10
2.75586503862886
 20
6.829516849430719
 30
0.0
 10
2.755585012321102
 20
6.829341985203897
 30
0.0
 10
2.755520701577926
 20
6.829301825947178
 30
0.0
  0
LINE
  5
197
330
1F
100
AcDbEntity
  8
0
  6
HIDDEN
 62
     7
100
AcDbLine
 10
4.0943526388
 20
7.2818983988
 30
0.0
 11
3.8975022451
 21
7.2818983988
 31
0.0
  0
LINE
  5
198
330
1F
100
AcDbEntity
  8
0
  6
HIDDEN
 62
     7
100
AcDbLine
 10
3.8975022451
 20
6.8494574539
 30
0.0
 11
4.0943526388
 21
6.8494574539
 31
0.0
  0
LINE
  5
199
330
1F
100
AcDbEntity
  8
0
  6
HIDDEN
 62
     7
100
AcDbLine
 10
4.0743526388
 20
6.8294574539
 30
0.0
 11
3.9175022451
 21
6.8294574539
 31
0.0
  0
LINE
  5
19A
330
1F
100
AcDbEntity
  8
0
  6
HIDDEN
 62
     7
100
AcDbLine
 10
3.995927442
 20
7.2018983988
 30
0.0
 11
3.995927442
 21
7.3018983988
 31
0.0
  0
LINE
  5
19B
330
1F
100
AcDbEntity
  8
0
  6
HIDDEN
 62
     7
100
AcDbLine
 10
3.9409655852
 20
7.2018983988
 30
0.0
 11
3.995927442
 21
7.2018983988
 31
0.0
  0
LINE
  5
19C
330
1F
100
AcDbEntity
  8
0
  6
HIDDEN
 62
     7
100
AcDbLine
 10
3.995927442
 20
7.2018983988
 30
0.0
 11
4.0508892987
 21
7.2018983988
 31
0.0
  0
LINE
  5
19D
330
1F
100
AcDbEntity
  8
0
  6
HIDDEN
 62
     7
100
AcDbLine
 10
3.9409655852
 20
7.2018983988
 30
0.0
 11
3.9409655852
 21
7.3018983988
 31
0.0
  0
LINE
  5
19E
330
1F
100
AcDbEntity
  8
0
  6
HIDDEN
 62
     7
100
AcDbLine
 10
4.0508892987
 20
7.2018983988
 30
0.0
 11
4.0508892987
 21
7.3018983988
 31
0.0
  0
LINE
  5
19F
330
1F
100
AcDbEntity
  8
0
  6
HIDDEN
 62
     7
100
AcDbLine
 10
2.558919568
 20
7.2818983988
 30
0.0
 11
2.7557699617
 21
7.2818983988
 31
0.0
  0
LINE
  5
1A0
330
1F
100
AcDbEntity
  8
0
  6
HIDDEN
 62
     7
100
AcDbLine
 10
2.7557699617
 20
6.8494574539
 30
0.0
 11
2.558919568
 21
6.8494574539
 31
0.0
  0
LINE
  5
1A1
330
1F
100
AcDbEntity
  8
0
  6
HIDDEN
 62
     7
100
AcDbLine
 10
2.578919568
 20
6.8294574539
 30
0.0
 11
2.7357699617
 21
6.8294574539
 31
0.0
  0
LINE
  5
1A2
330
1F
100
AcDbEntity
  8
0
  6
HIDDEN
 62
     7
100
AcDbLine
 10
2.6573447648
 20
7.2018983988
 30
0.0
 11
2.6573447648
 21
7.3018983988
 31
0.0
  0
LINE
  5
1A3
330
1F
100
AcDbEntity
  8
0
  6
HIDDEN
 62
     7
100
AcDbLine
 10
2.6573447648
 20
7.2018983988
 30
0.0
 11
2.6023829081
 21
7.2018983988
 31
0.0
  0
LINE
  5
1A4
330
1F
100
AcDbEntity
  8
0
  6
HIDDEN
 62
     7
100
AcDbLine
 10
2.7123066215
 20
7.2018983988
 30
0.0
 11
2.6573447648
 21
7.2018983988
 31
0.0
  0
LINE
  5
1A5
330
1F
100
AcDbEntity
  8
0
  6
HIDDEN
 62
     7
100
AcDbLine
 10
2.7123066215
 20
7.2018983988
 30
0.0
 11
2.7123066215
 21
7.3018983988
 31
0.0
  0
LINE
  5
1A6
330
1F
100
AcDbEntity
  8
0
  6
HIDDEN
 62
     7
100
AcDbLine
 10
2.6023829081
 20
7.2018983988
 30
0.0
 11
2.6023829081
 21
7.3018983988
 31
0.0
  0
LINE
  5
1A7
330
1F
100
AcDbEntity
  8
0
  6
HIDDEN
 62
     7
100
AcDbLine
 10
4.2321479144
 20
6.8594574539
 30
0.0
 11
4.2021479144
 21
6.8294574539
 31
0.0
  0
LINE
  5
1A8
330
1F
100
AcDbEntity
  8
0
  6
HIDDEN
 62
     7
100
AcDbLine
 10
4.2021479144
 20
6.514496824
 30
0.0
 11
4.2321479144
 21
6.484496824
 31
0.0
  0
LINE
  5
1A9
330
1F
100
AcDbEntity
  8
0
  6
HIDDEN
 62
     7
100
AcDbLine
 10
3.4266361034
 20
6.8594574539
 30
0.0
 11
3.2266361034
 21
6.8594574539
 31
0.0
  0
LINE
  5
1AA
330
1F
100
AcDbEntity
  8
0
  6
HIDDEN
 62
     7
100
AcDbLine
 10
3.2266361034
 20
6.484496824
 30
0.0
 11
3.4266361034
 21
6.484496824
 31
0.0
  0
LINE
  5
1AB
330
1F
100
AcDbEntity
  8
0
  6
HIDDEN
 62
     7
100
AcDbLine
 10
2.4211242924
 20
6.484496824
 30
0.0
 11
2.4511242924
 21
6.514496824
 31
0.0
  0
LINE
  5
1AC
330
1F
100
AcDbEntity
  8
0
  6
HIDDEN
 62
     7
100
AcDbLine
 10
2.4511242924
 20
6.8294574539
 30
0.0
 11
2.4211242924
 21
6.8594574539
 31
0.0
  0
LINE
  5
1AD
330
1F
100
AcDbEntity
  8
0
  6
HIDDEN
 62
     7
100
AcDbLine
 10
3.8975022451
 20
6.8294574539
 30
0.0
 11
3.4266361034
 21
6.8294574539
 31
0.0
  0
LINE
  5
1AE
330
1F
100
AcDbEntity
  8
0
  6
HIDDEN
 62
     7
100
AcDbLine
 10
4.2021479144
 20
6.8294574539
 30
0.0
 11
4.0941033787
 21
6.8294574539
 31
0.0
  0
LINE
  5
1AF
330
1F
100
AcDbEntity
  8
0
  6
HIDDEN
 62
     7
100
AcDbLine
 10
3.4266361034
 20
6.514496824
 30
0.0
 11
4.2021479144
 21
6.514496824
 31
0.0
  0
LINE
  5
1B0
330
1F
100
AcDbEntity
  8
0
  6
HIDDEN
 62
     7
100
AcDbLine
 10
2.558919568
 20
6.8294574539
 30
0.0
 11
2.4511242924
 21
6.8294574539
 31
0.0
  0
LINE
  5
1B1
330
1F
100
AcDbEntity
  8
0
  6
HIDDEN
 62
     7
100
AcDbLine
 10
3.2266361034
 20
6.8294574539
 30
0.0
 11
2.7555207016
 21
6.8294574539
 31
0.0
  0
LINE
  5
1B2
330
1F
100
AcDbEntity
  8
0
  6
HIDDEN
 62
     7
100
AcDbLine
 10
2.4511242924
 20
6.514496824
 30
0.0
 11
3.2266361034
 21
6.514496824
 31
0.0
  0
LINE
  5
1B3
330
1F
100
AcDbEntity
  8
0
  6
HIDDEN
 62
     7
100
AcDbLine
 10
4.0943526388
 20
6.8293018652
 30
0.0
 11
4.0943526388
 21
7.3018983988
 31
0.0
  0
LINE
  5
1B4
330
1F
100
AcDbEntity
  8
0
  6
HIDDEN
 62
     7
100
AcDbLine
 10
3.8975022451
 20
7.3018983988
 30
0.0
 11
3.8975022451
 21
6.8294574539
 31
0.0
  0
LINE
  5
1B5
330
1F
100
AcDbEntity
  8
0
  6
HIDDEN
 62
     7
100
AcDbLine
 10
2.7557699617
 20
6.8293018652
 30
0.0
 11
2.7557699617
 21
7.3018983988
 31
0.0
  0
LINE
  5
1B6
330
1F
100
AcDbEntity
  8
0
  6
HIDDEN
 62
     7
100
AcDbLine
 10
2.558919568
 20
7.3018983988
 30
0.0
 11
2.558919568
 21
6.8294574539
 31
0.0
  0
LINE
  5
1B7
330
1F
100
AcDbEntity
  8
0
  6
HIDDEN
 62
     7
100
AcDbLine
 10
4.0943526388
 20
7.2818983988
 30
0.0
 11
4.0768356471
 21
7.2994153905
 31
0.0
  0
LINE
  5
1B8
330
1F
100
AcDbEntity
  8
0
  6
HIDDEN
 62
     7
100
AcDbLine
 10
3.9150155496
 20
7.2994117032
 30
0.0
 11
3.8975022451
 21
7.2818983988
 31
0.0
  0
LINE
  5
1B9
330
1F
100
AcDbEntity
  8
0
  6
HIDDEN
 62
     7
100
AcDbLine
 10
4.0943526388
 20
6.8494574539
 30
0.0
 11
4.0943526388
 21
7.2818983988
 31
0.0
  0
LINE
  5
1BA
330
1F
100
AcDbEntity
  8
0
  6
HIDDEN
 62
     7
100
AcDbLine
 10
3.8975022451
 20
7.2818983988
 30
0.0
 11
3.8975022451
 21
6.8494574539
 31
0.0
  0
LINE
  5
1BB
330
1F
100
AcDbEntity
  8
0
  6
HIDDEN
 62
     7
100
AcDbLine
 10
3.8975022451
 20
6.8494574539
 30
0.0
 11
3.9175022451
 21
6.8294574539
 31
0.0
  0
LINE
  5
1BC
330
1F
100
AcDbEntity
  8
0
  6
HIDDEN
 62
     7
100
AcDbLine
 10
4.0743526388
 20
6.8294574539
 30
0.0
 11
4.0943526388
 21
6.8494574539
 31
0.0
  0
LINE
  5
1BD
330
1F
100
AcDbEntity
  8
0
  6
HIDDEN
 62
     7
100
AcDbLine
 10
2.7557699617
 20
7.2818983988
 30
0.0
 11
2.7382529699
 21
7.2994153905
 31
0.0
  0
LINE
  5
1BE
330
1F
100
AcDbEntity
  8
0
  6
HIDDEN
 62
     7
100
AcDbLine
 10
2.5764328724
 20
7.2994117032
 30
0.0
 11
2.558919568
 21
7.2818983988
 31
0.0
  0
LINE
  5
1BF
330
1F
100
AcDbEntity
  8
0
  6
HIDDEN
 62
     7
100
AcDbLine
 10
2.7557699617
 20
6.8494574539
 30
0.0
 11
2.7557699617
 21
7.2818983988
 31
0.0
  0
LINE
  5
1C0
330
1F
100
AcDbEntity
  8
0
  6
HIDDEN
 62
     7
100
AcDbLine
 10
2.558919568
 20
7.2818983988
 30
0.0
 11
2.558919568
 21
6.8494574539
 31
0.0
  0
LINE
  5
1C1
330
1F
100
AcDbEntity
  8
0
  6
HIDDEN
 62
     7
100
AcDbLine
 10
2.558919568
 20
6.8494574539
 30
0.0
 11
2.578919568
 21
6.8294574539
 31
0.0
  0
LINE
  5
1C2
330
1F
100
AcDbEntity
  8
0
  6
HIDDEN
 62
     7
100
AcDbLine
 10
2.7357699617
 20
6.8294574539
 30
0.0
 11
2.7557699617
 21
6.8494574539
 31
0.0
  0
LINE
  5
1C3
330
1F
100
AcDbEntity
  8
0
  6
CONTINUOUS
 62
     7
100
AcDbLine
 10
8.7926931211
 20
5.9775301612
 30
0.0
 11
8.8139028768
 21
5.9897782732
 31
0.0
  0
LINE
  5
1C4
330
1F
100
AcDbEntity
  8
0
  6
CONTINUOUS
 62
     7
100
AcDbLine
 10
9.238042322
 20
6.7244889493
 30
0.0
 11
9.238042322
 21
6.7489811926
 31
0.0
  0
LINE
  5
1C5
330
1F
100
AcDbEntity
  8
0
  6
CONTINUOUS
 62
     7
100
AcDbLine
 10
7.2395250165
 20
6.6610771335
 30
0.0
 11
8.4776856937
 21
5.946302189
 31
0.0
  0
LINE
  5
1C6
330
1F
100
AcDbEntity
  8
0
  6
CONTINUOUS
 62
     7
100
AcDbLine
 10
9.1075557615
 20
7.03738737
 30
0.0
 11
7.8693950843
 21
7.7521623145
 31
0.0
  0
LINE
  5
1C7
330
1F
100
AcDbEntity
  8
0
  6
CONTINUOUS
 62
     7
100
AcDbLine
 10
7.5543876569
 20
7.7209343422
 30
0.0
 11
7.5331779012
 21
7.7086862302
 31
0.0
  0
LINE
  5
1C8
330
1F
100
AcDbEntity
  8
0
  6
CONTINUOUS
 62
     7
100
AcDbLine
 10
7.109038456
 20
6.9739755542
 30
0.0
 11
7.109038456
 21
6.9494833108
 31
0.0
  0
LINE
  5
1C9
330
1F
100
AcDbEntity
  8
0
  6
CONTINUOUS
 62
     7
100
AcDbLine
 10
8.7581472187
 20
6.5762767461
 30
0.0
 11
8.7722870558
 21
6.568111338
 31
0.0
  0
LINE
  5
1CA
330
1F
100
AcDbEntity
  8
0
  6
CONTINUOUS
 62
     7
100
AcDbLine
 10
7.7698883778
 20
7.6606363265
 30
0.0
 11
7.7557439442
 21
7.6688043884
 31
0.0
  0
LINE
  5
1CB
330
1F
100
AcDbEntity
  8
0
  6
CONTINUOUS
 62
     7
100
AcDbLine
 10
7.6448159456
 20
7.6688043884
 30
0.0
 11
7.630671512
 21
7.6606363265
 31
0.0
  0
LINE
  5
1CC
330
1F
100
AcDbEntity
  8
0
  6
CONTINUOUS
 62
     7
100
AcDbLine
 10
7.7987051417
 20
7.6074553696
 30
0.0
 11
7.7987051417
 21
7.6204652914
 31
0.0
  0
LINE
  5
1CD
330
1F
100
AcDbEntity
  8
0
  6
CONTINUOUS
 62
     7
100
AcDbLine
 10
7.601854748
 20
7.6204652914
 30
0.0
 11
7.601854748
 21
7.6062589892
 31
0.0
  0
LINE
  5
1CE
330
1F
100
AcDbEntity
  8
0
  6
CONTINUOUS
 62
     7
100
AcDbLine
 10
8.716409266
 20
7.1142214485
 30
0.0
 11
8.7022648324
 21
7.1223895104
 31
0.0
  0
LINE
  5
1CF
330
1F
100
AcDbEntity
  8
0
  6
CONTINUOUS
 62
     7
100
AcDbLine
 10
8.5913368338
 20
7.1223895104
 30
0.0
 11
8.5771924002
 21
7.1142214485
 31
0.0
  0
LINE
  5
1D0
330
1F
100
AcDbEntity
  8
0
  6
CONTINUOUS
 62
     7
100
AcDbLine
 10
8.74522603
 20
7.0610404916
 30
0.0
 11
8.74522603
 21
7.0740504134
 31
0.0
  0
LINE
  5
1D1
330
1F
100
AcDbEntity
  8
0
  6
CONTINUOUS
 62
     7
100
AcDbLine
 10
8.5483756363
 20
7.0740504134
 30
0.0
 11
8.5483756363
 21
7.0598441112
 31
0.0
  0
POLYLINE
  5
1D2
330
1F
100
AcDbEntity
  8
0
  6
CONTINUOUS
 62
     7
100
AcDb2dPolyline
 66
     1
 10
0.0
 20
0.0
 30
0.0
  0
VERTEX
  5
22F
330
1D2
100
AcDbEntity
  8
0
  6
CONTINUOUS
 62
     7
100
AcDbVertex
100
AcDb2dVertex
 10
9.238042322
 20
6.7244889493
 30
0.0
  0
VERTEX
  5
230
330
1D2
100
AcDbEntity
  8
0
  6
CONTINUOUS
 62
     7
100
AcDbVertex
100
AcDb2dVertex
 10
9.2374201839
 20
6.7506502928
 30
0.0
  0
VERTEX
  5
231
330
1D2
100
AcDbEntity
  8
0
  6
CONTINUOUS
 62
     7
100
AcDbVertex
100
AcDb2dVertex
 10
9.2355555943
 20
6.7760165951
 30
0.0
  0
VERTEX
  5
232
330
1D2
100
AcDbEntity
  8
0
  6
CONTINUOUS
 62
     7
100
AcDbVertex
100
AcDb2dVertex
 10
9.2324540224
 20
6.8005134525
 30
0.0
  0
VERTEX
  5
233
330
1D2
100
AcDbEntity
  8
0
  6
CONTINUOUS
 62
     7
100
AcDbVertex
100
AcDb2dVertex
 10
9.2281245656
 20
6.8240690116
 30
0.0
  0
VERTEX
  5
234
330
1D2
100
AcDbEntity
  8
0
  6
CONTINUOUS
 62
     7
100
AcDbVertex
100
AcDb2dVertex
 10
9.222579923
 20
6.8466141798
 30
0.0
  0
VERTEX
  5
235
330
1D2
100
AcDbEntity
  8
0
  6
CONTINUOUS
 62
     7
100
AcDbVertex
100
AcDb2dVertex
 10
9.215836358
 20
6.8680828282
 30
0.0
  0
VERTEX
  5
236
330
1D2
100
AcDbEntity
  8
0
  6
CONTINUOUS
 62
     7
100
AcDbVertex
100
AcDb2dVertex
 10
9.2079136506
 20
6.8884119856
 30
0.0
  0
VERTEX
  5
237
330
1D2
100
AcDbEntity
  8
0
  6
CONTINUOUS
 62
     7
100
AcDbVertex
100
AcDb2dVertex
 10
9.1988350395
 20
6.907542023
 30
0.0
  0
VERTEX
  5
238
330
1D2
100
AcDbEntity
  8
0
  6
CONTINUOUS
 62
     7
100
AcDbVertex
100
AcDb2dVertex
 10
9.1886271538
 20
6.9254168289
 30
0.0
  0
VERTEX
  5
239
330
1D2
100
AcDbEntity
  8
0
  6
CONTINUOUS
 62
     7
100
AcDbVertex
100
AcDb2dVertex
 10
9.177319935
 20
6.9419839732
 30
0.0
  0
VERTEX
  5
23A
330
1D2
100
AcDbEntity
  8
0
  6
CONTINUOUS
 62
     7
100
AcDbVertex
100
AcDb2dVertex
 10
9.1649465492
 20
6.9571948617
 30
0.0
  0
VERTEX
  5
23B
330
1D2
100
AcDbEntity
  8
0
  6
CONTINUOUS
 62
     7
100
AcDbVertex
100
AcDb2dVertex
 10
9.1515432895
 20
6.9710048783
 30
0.0
  0
VERTEX
  5
23C
330
1D2
100
AcDbEntity
  8
0
  6
CONTINUOUS
 62
     7
100
AcDbVertex
100
AcDb2dVertex
 10
9.1371494701
 20
6.9833735158
 30
0.0
  0
VERTEX
  5
23D
330
1D2
100
AcDbEntity
  8
0
  6
CONTINUOUS
 62
     7
100
AcDbVertex
100
AcDb2dVertex
 10
9.1218073105
 20
6.9942644948
 30
0.0
  0
VERTEX
  5
23E
330
1D2
100
AcDbEntity
  8
0
  6
CONTINUOUS
 62
     7
100
AcDbVertex
100
AcDb2dVertex
 10
9.105561812
 20
7.0036458702
 30
0.0
  0
VERTEX
  5
23F
330
1D2
100
AcDbEntity
  8
0
  6
CONTINUOUS
 62
     7
100
AcDbVertex
100
AcDb2dVertex
 10
9.0884606253
 20
7.0114901249
 30
0.0
  0
VERTEX
  5
240
330
1D2
100
AcDbEntity
  8
0
  6
CONTINUOUS
 62
     7
100
AcDbVertex
100
AcDb2dVertex
 10
9.0705539111
 20
7.0177742502
 30
0.0
  0
VERTEX
  5
241
330
1D2
100
AcDbEntity
  8
0
  6
CONTINUOUS
 62
     7
100
AcDbVertex
100
AcDb2dVertex
 10
9.0518941931
 20
7.0224798138
 30
0.0
  0
VERTEX
  5
242
330
1D2
100
AcDbEntity
  8
0
  6
CONTINUOUS
 62
     7
100
AcDbVertex
100
AcDb2dVertex
 10
9.0325362033
 20
7.0255930135
 30
0.0
  0
VERTEX
  5
243
330
1D2
100
AcDbEntity
  8
0
  6
CONTINUOUS
 62
     7
100
AcDbVertex
100
AcDb2dVertex
 10
9.012536722
 20
7.0271047176
 30
0.0
  0
VERTEX
  5
244
330
1D2
100
AcDbEntity
  8
0
  6
CONTINUOUS
 62
     7
100
AcDbVertex
100
AcDb2dVertex
 10
8.9919544112
 20
7.0270104921
 30
0.0
  0
VERTEX
  5
245
330
1D2
100
AcDbEntity
  8
0
  6
CONTINUOUS
 62
     7
100
AcDbVertex
100
AcDb2dVertex
 10
8.9708496423
 20
7.0253106134
 30
0.0
  0
VERTEX
  5
246
330
1D2
100
AcDbEntity
  8
0
  6
CONTINUOUS
 62
     7
100
AcDbVertex
100
AcDb2dVertex
 10
8.9492843194
 20
7.0220100675
 30
0.0
  0
VERTEX
  5
247
330
1D2
100
AcDbEntity
  8
0
  6
CONTINUOUS
 62
     7
100
AcDbVertex
100
AcDb2dVertex
 10
8.9273216971
 20
7.0171185355
 30
0.0
  0
VERTEX
  5
248
330
1D2
100
AcDbEntity
  8
0
  6
CONTINUOUS
 62
     7
100
AcDbVertex
100
AcDb2dVertex
 10
8.9050261956
 20
7.0106503651
 30
0.0
  0
VERTEX
  5
249
330
1D2
100
AcDbEntity
  8
0
  6
CONTINUOUS
 62
     7
100
AcDbVertex
100
AcDb2dVertex
 10
8.8824632115
 20
7.0026245285
 30
0.0
  0
VERTEX
  5
24A
330
1D2
100
AcDbEntity
  8
0
  6
CONTINUOUS
 62
     7
100
AcDbVertex
100
AcDb2dVertex
 10
8.8596989259
 20
6.9930645669
 30
0.0
  0
VERTEX
  5
24B
330
1D2
100
AcDbEntity
  8
0
  6
CONTINUOUS
 62
     7
100
AcDbVertex
100
AcDb2dVertex
 10
8.8368001103
 20
6.9819985213
 30
0.0
  0
VERTEX
  5
24C
330
1D2
100
AcDbEntity
  8
0
  6
CONTINUOUS
 62
     7
100
AcDbVertex
100
AcDb2dVertex
 10
8.813833931
 20
6.9694588504
 30
0.0
  0
VERTEX
  5
24D
330
1D2
100
AcDbEntity
  8
0
  6
CONTINUOUS
 62
     7
100
AcDbVertex
100
AcDb2dVertex
 10
8.7908677517
 20
6.9554823351
 30
0.0
  0
VERTEX
  5
24E
330
1D2
100
AcDbEntity
  8
0
  6
CONTINUOUS
 62
     7
100
AcDbVertex
100
AcDb2dVertex
 10
8.7679689362
 20
6.940109971
 30
0.0
  0
VERTEX
  5
24F
330
1D2
100
AcDbEntity
  8
0
  6
CONTINUOUS
 62
     7
100
AcDbVertex
100
AcDb2dVertex
 10
8.7452046506
 20
6.9233868479
 30
0.0
  0
VERTEX
  5
250
330
1D2
100
AcDbEntity
  8
0
  6
CONTINUOUS
 62
     7
100
AcDbVertex
100
AcDb2dVertex
 10
8.7226416665
 20
6.9053620175
 30
0.0
  0
VERTEX
  5
251
330
1D2
100
AcDbEntity
  8
0
  6
CONTINUOUS
 62
     7
100
AcDbVertex
100
AcDb2dVertex
 10
8.700346165
 20
6.8860883499
 30
0.0
  0
VERTEX
  5
252
330
1D2
100
AcDbEntity
  8
0
  6
CONTINUOUS
 62
     7
100
AcDbVertex
100
AcDb2dVertex
 10
8.6783835427
 20
6.8656223779
 30
0.0
  0
VERTEX
  5
253
330
1D2
100
AcDbEntity
  8
0
  6
CONTINUOUS
 62
     7
100
AcDbVertex
100
AcDb2dVertex
 10
8.6568182197
 20
6.8440241319
 30
0.0
  0
VERTEX
  5
254
330
1D2
100
AcDbEntity
  8
0
  6
CONTINUOUS
 62
     7
100
AcDbVertex
100
AcDb2dVertex
 10
8.6357134508
 20
6.8213569632
 30
0.0
  0
VERTEX
  5
255
330
1D2
100
AcDbEntity
  8
0
  6
CONTINUOUS
 62
     7
100
AcDbVertex
100
AcDb2dVertex
 10
8.6151311401
 20
6.7976873585
 30
0.0
  0
VERTEX
  5
256
330
1D2
100
AcDbEntity
  8
0
  6
CONTINUOUS
 62
     7
100
AcDbVertex
100
AcDb2dVertex
 10
8.5951316588
 20
6.7730847448
 30
0.0
  0
VERTEX
  5
257
330
1D2
100
AcDbEntity
  8
0
  6
CONTINUOUS
 62
     7
100
AcDbVertex
100
AcDb2dVertex
 10
8.575773669
 20
6.7476212858
 30
0.0
  0
VERTEX
  5
258
330
1D2
100
AcDbEntity
  8
0
  6
CONTINUOUS
 62
     7
100
AcDbVertex
100
AcDb2dVertex
 10
8.5571139509
 20
6.7213716703
 30
0.0
  0
VERTEX
  5
259
330
1D2
100
AcDbEntity
  8
0
  6
CONTINUOUS
 62
     7
100
AcDbVertex
100
AcDb2dVertex
 10
8.5392072368
 20
6.6944128929
 30
0.0
  0
VERTEX
  5
25A
330
1D2
100
AcDbEntity
  8
0
  6
CONTINUOUS
 62
     7
100
AcDbVertex
100
AcDb2dVertex
 10
8.5221060501
 20
6.6668240283
 30
0.0
  0
VERTEX
  5
25B
330
1D2
100
AcDbEntity
  8
0
  6
CONTINUOUS
 62
     7
100
AcDbVertex
100
AcDb2dVertex
 10
8.5058605515
 20
6.6386859995
 30
0.0
  0
VERTEX
  5
25C
330
1D2
100
AcDbEntity
  8
0
  6
CONTINUOUS
 62
     7
100
AcDbVertex
100
AcDb2dVertex
 10
8.4905183919
 20
6.6100813401
 30
0.0
  0
VERTEX
  5
25D
330
1D2
100
AcDbEntity
  8
0
  6
CONTINUOUS
 62
     7
100
AcDbVertex
100
AcDb2dVertex
 10
8.4761245725
 20
6.5810939525
 30
0.0
  0
VERTEX
  5
25E
330
1D2
100
AcDbEntity
  8
0
  6
CONTINUOUS
 62
     7
100
AcDbVertex
100
AcDb2dVertex
 10
8.4627213129
 20
6.5518088617
 30
0.0
  0
VERTEX
  5
25F
330
1D2
100
AcDbEntity
  8
0
  6
CONTINUOUS
 62
     7
100
AcDbVertex
100
AcDb2dVertex
 10
8.450347927
 20
6.5223119659
 30
0.0
  0
VERTEX
  5
260
330
1D2
100
AcDbEntity
  8
0
  6
CONTINUOUS
 62
     7
100
AcDbVertex
100
AcDb2dVertex
 10
8.4390407082
 20
6.4926897847
 30
0.0
  0
VERTEX
  5
261
330
1D2
100
AcDbEntity
  8
0
  6
CONTINUOUS
 62
     7
100
AcDbVertex
100
AcDb2dVertex
 10
8.4288328225
 20
6.4630292049
 30
0.0
  0
VERTEX
  5
262
330
1D2
100
AcDbEntity
  8
0
  6
CONTINUOUS
 62
     7
100
AcDbVertex
100
AcDb2dVertex
 10
8.4197542114
 20
6.4334172261
 30
0.0
  0
VERTEX
  5
263
330
1D2
100
AcDbEntity
  8
0
  6
CONTINUOUS
 62
     7
100
AcDbVertex
100
AcDb2dVertex
 10
8.411831504
 20
6.4039407055
 30
0.0
  0
VERTEX
  5
264
330
1D2
100
AcDbEntity
  8
0
  6
CONTINUOUS
 62
     7
100
AcDbVertex
100
AcDb2dVertex
 10
8.405087939
 20
6.3746861027
 30
0.0
  0
VERTEX
  5
265
330
1D2
100
AcDbEntity
  8
0
  6
CONTINUOUS
 62
     7
100
AcDbVertex
100
AcDb2dVertex
 10
8.3995432965
 20
6.3457392265
 30
0.0
  0
VERTEX
  5
266
330
1D2
100
AcDbEntity
  8
0
  6
CONTINUOUS
 62
     7
100
AcDbVertex
100
AcDb2dVertex
 10
8.3952138397
 20
6.317184983
 30
0.0
  0
VERTEX
  5
267
330
1D2
100
AcDbEntity
  8
0
  6
CONTINUOUS
 62
     7
100
AcDbVertex
100
AcDb2dVertex
 10
8.3921122678
 20
6.2891071269
 30
0.0
  0
VERTEX
  5
268
330
1D2
100
AcDbEntity
  8
0
  6
CONTINUOUS
 62
     7
100
AcDbVertex
100
AcDb2dVertex
 10
8.3902476782
 20
6.2615880152
 30
0.0
  0
VERTEX
  5
269
330
1D2
100
AcDbEntity
  8
0
  6
CONTINUOUS
 62
     7
100
AcDbVertex
100
AcDb2dVertex
 10
8.38962554
 20
6.2347083663
 30
0.0
  0
VERTEX
  5
26A
330
1D2
100
AcDbEntity
  8
0
  6
CONTINUOUS
 62
     7
100
AcDbVertex
100
AcDb2dVertex
 10
8.3902476782
 20
6.2085470228
 30
0.0
  0
VERTEX
  5
26B
330
1D2
100
AcDbEntity
  8
0
  6
CONTINUOUS
 62
     7
100
AcDbVertex
100
AcDb2dVertex
 10
8.3921122678
 20
6.1831807205
 30
0.0
  0
VERTEX
  5
26C
330
1D2
100
AcDbEntity
  8
0
  6
CONTINUOUS
 62
     7
100
AcDbVertex
100
AcDb2dVertex
 10
8.3952138397
 20
6.158683863
 30
0.0
  0
VERTEX
  5
26D
330
1D2
100
AcDbEntity
  8
0
  6
CONTINUOUS
 62
     7
100
AcDbVertex
100
AcDb2dVertex
 10
8.3995432965
 20
6.135128304
 30
0.0
  0
VERTEX
  5
26E
330
1D2
100
AcDbEntity
  8
0
  6
CONTINUOUS
 62
     7
100
AcDbVertex
100
AcDb2dVertex
 10
8.405087939
 20
6.1125831358
 30
0.0
  0
VERTEX
  5
26F
330
1D2
100
AcDbEntity
  8
0
  6
CONTINUOUS
 62
     7
100
AcDbVertex
100
AcDb2dVertex
 10
8.411831504
 20
6.0911144874
 30
0.0
  0
VERTEX
  5
270
330
1D2
100
AcDbEntity
  8
0
  6
CONTINUOUS
 62
     7
100
AcDbVertex
100
AcDb2dVertex
 10
8.4197542114
 20
6.07078533
 30
0.0
  0
VERTEX
  5
271
330
1D2
100
AcDbEntity
  8
0
  6
CONTINUOUS
 62
     7
100
AcDbVertex
100
AcDb2dVertex
 10
8.4288328225
 20
6.0516552926
 30
0.0
  0
VERTEX
  5
272
330
1D2
100
AcDbEntity
  8
0
  6
CONTINUOUS
 62
     7
100
AcDbVertex
100
AcDb2dVertex
 10
8.4390407082
 20
6.0337804867
 30
0.0
  0
VERTEX
  5
273
330
1D2
100
AcDbEntity
  8
0
  6
CONTINUOUS
 62
     7
100
AcDbVertex
100
AcDb2dVertex
 10
8.450347927
 20
6.0172133424
 30
0.0
  0
VERTEX
  5
274
330
1D2
100
AcDbEntity
  8
0
  6
CONTINUOUS
 62
     7
100
AcDbVertex
100
AcDb2dVertex
 10
8.4627213129
 20
6.0020024539
 30
0.0
  0
VERTEX
  5
275
330
1D2
100
AcDbEntity
  8
0
  6
CONTINUOUS
 62
     7
100
AcDbVertex
100
AcDb2dVertex
 10
8.4761245725
 20
5.9881924373
 30
0.0
  0
VERTEX
  5
276
330
1D2
100
AcDbEntity
  8
0
  6
CONTINUOUS
 62
     7
100
AcDbVertex
100
AcDb2dVertex
 10
8.4905183919
 20
5.9758237998
 30
0.0
  0
VERTEX
  5
277
330
1D2
100
AcDbEntity
  8
0
  6
CONTINUOUS
 62
     7
100
AcDbVertex
100
AcDb2dVertex
 10
8.5058605515
 20
5.9649328208
 30
0.0
  0
VERTEX
  5
278
330
1D2
100
AcDbEntity
  8
0
  6
CONTINUOUS
 62
     7
100
AcDbVertex
100
AcDb2dVertex
 10
8.5221060501
 20
5.9555514454
 30
0.0
  0
VERTEX
  5
279
330
1D2
100
AcDbEntity
  8
0
  6
CONTINUOUS
 62
     7
100
AcDbVertex
100
AcDb2dVertex
 10
8.5392072368
 20
5.9477071907
 30
0.0
  0
VERTEX
  5
27A
330
1D2
100
AcDbEntity
  8
0
  6
CONTINUOUS
 62
     7
100
AcDbVertex
100
AcDb2dVertex
 10
8.5571139509
 20
5.9414230654
 30
0.0
  0
VERTEX
  5
27B
330
1D2
100
AcDbEntity
  8
0
  6
CONTINUOUS
 62
     7
100
AcDbVertex
100
AcDb2dVertex
 10
8.575773669
 20
5.9367175017
 30
0.0
  0
VERTEX
  5
27C
330
1D2
100
AcDbEntity
  8
0
  6
CONTINUOUS
 62
     7
100
AcDbVertex
100
AcDb2dVertex
 10
8.5951316588
 20
5.9336043021
 30
0.0
  0
VERTEX
  5
27D
330
1D2
100
AcDbEntity
  8
0
  6
CONTINUOUS
 62
     7
100
AcDbVertex
100
AcDb2dVertex
 10
8.6151311401
 20
5.932092598
 30
0.0
  0
VERTEX
  5
27E
330
1D2
100
AcDbEntity
  8
0
  6
CONTINUOUS
 62
     7
100
AcDbVertex
100
AcDb2dVertex
 10
8.6357134508
 20
5.9321868235
 30
0.0
  0
VERTEX
  5
27F
330
1D2
100
AcDbEntity
  8
0
  6
CONTINUOUS
 62
     7
100
AcDbVertex
100
AcDb2dVertex
 10
8.6568182197
 20
5.9338867022
 30
0.0
  0
VERTEX
  5
280
330
1D2
100
AcDbEntity
  8
0
  6
CONTINUOUS
 62
     7
100
AcDbVertex
100
AcDb2dVertex
 10
8.6783835427
 20
5.9371872481
 30
0.0
  0
VERTEX
  5
281
330
1D2
100
AcDbEntity
  8
0
  6
CONTINUOUS
 62
     7
100
AcDbVertex
100
AcDb2dVertex
 10
8.700346165
 20
5.9420787801
 30
0.0
  0
VERTEX
  5
282
330
1D2
100
AcDbEntity
  8
0
  6
CONTINUOUS
 62
     7
100
AcDbVertex
100
AcDb2dVertex
 10
8.7226416665
 20
5.9485469505
 30
0.0
  0
VERTEX
  5
283
330
1D2
100
AcDbEntity
  8
0
  6
CONTINUOUS
 62
     7
100
AcDbVertex
100
AcDb2dVertex
 10
8.7452046506
 20
5.9565727871
 30
0.0
  0
VERTEX
  5
284
330
1D2
100
AcDbEntity
  8
0
  6
CONTINUOUS
 62
     7
100
AcDbVertex
100
AcDb2dVertex
 10
8.7679689362
 20
5.9661327487
 30
0.0
  0
VERTEX
  5
285
330
1D2
100
AcDbEntity
  8
0
  6
CONTINUOUS
 62
     7
100
AcDbVertex
100
AcDb2dVertex
 10
8.7908677517
 20
5.9771987943
 30
0.0
  0
VERTEX
  5
286
330
1D2
100
AcDbEntity
  8
0
  6
CONTINUOUS
 62
     7
100
AcDbVertex
100
AcDb2dVertex
 10
8.813833931
 20
5.9897384652
 30
0.0
  0
VERTEX
  5
287
330
1D2
100
AcDbEntity
  8
0
  6
CONTINUOUS
 62
     7
100
AcDbVertex
100
AcDb2dVertex
 10
8.8368001103
 20
6.0037149805
 30
0.0
  0
VERTEX
  5
288
330
1D2
100
AcDbEntity
  8
0
  6
CONTINUOUS
 62
     7
100
AcDbVertex
100
AcDb2dVertex
 10
8.8596989259
 20
6.0190873446
 30
0.0
  0
VERTEX
  5
289
330
1D2
100
AcDbEntity
  8
0
  6
CONTINUOUS
 62
     7
100
AcDbVertex
100
AcDb2dVertex
 10
8.8824632115
 20
6.0358104677
 30
0.0
  0
VERTEX
  5
28A
330
1D2
100
AcDbEntity
  8
0
  6
CONTINUOUS
 62
     7
100
AcDbVertex
100
AcDb2dVertex
 10
8.9050261956
 20
6.0538352981
 30
0.0
  0
VERTEX
  5
28B
330
1D2
100
AcDbEntity
  8
0
  6
CONTINUOUS
 62
     7
100
AcDbVertex
100
AcDb2dVertex
 10
8.9273216971
 20
6.0731089657
 30
0.0
  0
VERTEX
  5
28C
330
1D2
100
AcDbEntity
  8
0
  6
CONTINUOUS
 62
     7
100
AcDbVertex
100
AcDb2dVertex
 10
8.9492843194
 20
6.0935749377
 30
0.0
  0
VERTEX
  5
28D
330
1D2
100
AcDbEntity
  8
0
  6
CONTINUOUS
 62
     7
100
AcDbVertex
100
AcDb2dVertex
 10
8.9708496423
 20
6.1151731837
 30
0.0
  0
VERTEX
  5
28E
330
1D2
100
AcDbEntity
  8
0
  6
CONTINUOUS
 62
     7
100
AcDbVertex
100
AcDb2dVertex
 10
8.9919544112
 20
6.1378403524
 30
0.0
  0
VERTEX
  5
28F
330
1D2
100
AcDbEntity
  8
0
  6
CONTINUOUS
 62
     7
100
AcDbVertex
100
AcDb2dVertex
 10
9.012536722
 20
6.1615099571
 30
0.0
  0
VERTEX
  5
290
330
1D2
100
AcDbEntity
  8
0
  6
CONTINUOUS
 62
     7
100
AcDbVertex
100
AcDb2dVertex
 10
9.0325362033
 20
6.1861125708
 30
0.0
  0
VERTEX
  5
291
330
1D2
100
AcDbEntity
  8
0
  6
CONTINUOUS
 62
     7
100
AcDbVertex
100
AcDb2dVertex
 10
9.0518941931
 20
6.2115760298
 30
0.0
  0
VERTEX
  5
292
330
1D2
100
AcDbEntity
  8
0
  6
CONTINUOUS
 62
     7
100
AcDbVertex
100
AcDb2dVertex
 10
9.0705539111
 20
6.2378256453
 30
0.0
  0
VERTEX
  5
293
330
1D2
100
AcDbEntity
  8
0
  6
CONTINUOUS
 62
     7
100
AcDbVertex
100
AcDb2dVertex
 10
9.0884606253
 20
6.2647844227
 30
0.0
  0
VERTEX
  5
294
330
1D2
100
AcDbEntity
  8
0
  6
CONTINUOUS
 62
     7
100
AcDbVertex
100
AcDb2dVertex
 10
9.105561812
 20
6.2923732873
 30
0.0
  0
VERTEX
  5
295
330
1D2
100
AcDbEntity
  8
0
  6
CONTINUOUS
 62
     7
100
AcDbVertex
100
AcDb2dVertex
 10
9.1218073105
 20
6.3205113161
 30
0.0
  0
VERTEX
  5
296
330
1D2
100
AcDbEntity
  8
0
  6
CONTINUOUS
 62
     7
100
AcDbVertex
100
AcDb2dVertex
 10
9.1371494701
 20
6.3491159755
 30
0.0
  0
VERTEX
  5
297
330
1D2
100
AcDbEntity
  8
0
  6
CONTINUOUS
 62
     7
100
AcDbVertex
100
AcDb2dVertex
 10
9.1515432895
 20
6.3781033631
 30
0.0
  0
VERTEX
  5
298
330
1D2
100
AcDbEntity
  8
0
  6
CONTINUOUS
 62
     7
100
AcDbVertex
100
AcDb2dVertex
 10
9.1649465492
 20
6.4073884539
 30
0.0
  0
VERTEX
  5
299
330
1D2
100
AcDbEntity
  8
0
  6
CONTINUOUS
 62
     7
100
AcDbVertex
100
AcDb2dVertex
 10
9.177319935
 20
6.4368853497
 30
0.0
  0
VERTEX
  5
29A
330
1D2
100
AcDbEntity
  8
0
  6
CONTINUOUS
 62
     7
100
AcDbVertex
100
AcDb2dVertex
 10
9.1886271538
 20
6.4665075309
 30
0.0
  0
VERTEX
  5
29B
330
1D2
100
AcDbEntity
  8
0
  6
CONTINUOUS
 62
     7
100
AcDbVertex
100
AcDb2dVertex
 10
9.1988350395
 20
6.4961681107
 30
0.0
  0
VERTEX
  5
29C
330
1D2
100
AcDbEntity
  8
0
  6
CONTINUOUS
 62
     7
100
AcDbVertex
100
AcDb2dVertex
 10
9.2079136506
 20
6.5257800894
 30
0.0
  0
VERTEX
  5
29D
330
1D2
100
AcDbEntity
  8
0
  6
CONTINUOUS
 62
     7
100
AcDbVertex
100
AcDb2dVertex
 10
9.215836358
 20
6.5552566101
 30
0.0
  0
VERTEX
  5
29E
330
1D2
100
AcDbEntity
  8
0
  6
CONTINUOUS
 62
     7
100
AcDbVertex
100
AcDb2dVertex
 10
9.222579923
 20
6.5845112129
 30
0.0
  0
VERTEX
  5
29F
330
1D2
100
AcDbEntity
  8
0
  6
CONTINUOUS
 62
     7
100
AcDbVertex
100
AcDb2dVertex
 10
9.2281245656
 20
6.6134580891
 30
0.0
  0
VERTEX
  5
2A0
330
1D2
100
AcDbEntity
  8
0
  6
CONTINUOUS
 62
     7
100
AcDbVertex
100
AcDb2dVertex
 10
9.2324540224
 20
6.6420123326
 30
0.0
  0
VERTEX
  5
2A1
330
1D2
100
AcDbEntity
  8
0
  6
CONTINUOUS
 62
     7
100
AcDbVertex
100
AcDb2dVertex
 10
9.2355555943
 20
6.6700901887
 30
0.0
  0
VERTEX
  5
2A2
330
1D2
100
AcDbEntity
  8
0
  6
CONTINUOUS
 62
     7
100
AcDbVertex
100
AcDb2dVertex
 10
9.2374201839
 20
6.6976093004
 30
0.0
  0
VERTEX
  5
2A3
330
1D2
100
AcDbEntity
  8
0
  6
CONTINUOUS
 62
     7
100
AcDbVertex
100
AcDb2dVertex
 10
9.238042322
 20
6.7244889493
 30
0.0
  0
SEQEND
  5
2A4
330
1D2
100
AcDbEntity
  8
0
  6
CONTINUOUS
 62
     7
  0
POLYLINE
  5
1D3
330
1F
100
AcDbEntity
  8
0
  6
CONTINUOUS
 62
     7
100
AcDb2dPolyline
 66
     1
 10
0.0
 20
0.0
 30
0.0
  0
VERTEX
  5
2A5
330
1D3
100
AcDbEntity
  8
0
  6
CONTINUOUS
 62
     7
100
AcDbVertex
100
AcDb2dVertex
 10
8.7926931211
 20
5.9775301612
 30
0.0
  0
VERTEX
  5
2A6
330
1D3
100
AcDbEntity
  8
0
  6
CONTINUOUS
 62
     7
100
AcDbVertex
100
AcDb2dVertex
 10
8.786741347
 20
5.9741390783
 30
0.0
  0
VERTEX
  5
2A7
330
1D3
100
AcDbEntity
  8
0
  6
CONTINUOUS
 62
     7
100
AcDbVertex
100
AcDb2dVertex
 10
8.7632443091
 20
5.9616495736
 30
0.0
  0
VERTEX
  5
2A8
330
1D3
100
AcDbEntity
  8
0
  6
CONTINUOUS
 62
     7
100
AcDbVertex
100
AcDb2dVertex
 10
8.7398291486
 20
5.950637818
 30
0.0
  0
VERTEX
  5
2A9
330
1D3
100
AcDbEntity
  8
0
  6
CONTINUOUS
 62
     7
100
AcDbVertex
100
AcDb2dVertex
 10
8.7165611276
 20
5.9411345033
 30
0.0
  0
VERTEX
  5
2AA
330
1D3
100
AcDbEntity
  8
0
  6
CONTINUOUS
 62
     7
100
AcDbVertex
100
AcDb2dVertex
 10
8.6935050984
 20
5.933166117
 30
0.0
  0
VERTEX
  5
2AB
330
1D3
100
AcDbEntity
  8
0
  6
CONTINUOUS
 62
     7
100
AcDbVertex
100
AcDb2dVertex
 10
8.6707253222
 20
5.9267548682
 30
0.0
  0
VERTEX
  5
2AC
330
1D3
100
AcDbEntity
  8
0
  6
CONTINUOUS
 62
     7
100
AcDbVertex
100
AcDb2dVertex
 10
8.6482852904
 20
5.9219186265
 30
0.0
  0
VERTEX
  5
2AD
330
1D3
100
AcDbEntity
  8
0
  6
CONTINUOUS
 62
     7
100
AcDbVertex
100
AcDb2dVertex
 10
8.6262475473
 20
5.9186708711
 30
0.0
  0
VERTEX
  5
2AE
330
1D3
100
AcDbEntity
  8
0
  6
CONTINUOUS
 62
     7
100
AcDbVertex
100
AcDb2dVertex
 10
8.6046735161
 20
5.9170206542
 30
0.0
  0
VERTEX
  5
2AF
330
1D3
100
AcDbEntity
  8
0
  6
CONTINUOUS
 62
     7
100
AcDbVertex
100
AcDb2dVertex
 10
8.5836233275
 20
5.9169725752
 30
0.0
  0
VERTEX
  5
2B0
330
1D3
100
AcDbEntity
  8
0
  6
CONTINUOUS
 62
     7
100
AcDbVertex
100
AcDb2dVertex
 10
8.5631556522
 20
5.9185267682
 30
0.0
  0
VERTEX
  5
2B1
330
1D3
100
AcDbEntity
  8
0
  6
CONTINUOUS
 62
     7
100
AcDbVertex
100
AcDb2dVertex
 10
8.5433275372
 20
5.9216789013
 30
0.0
  0
VERTEX
  5
2B2
330
1D3
100
AcDbEntity
  8
0
  6
CONTINUOUS
 62
     7
100
AcDbVertex
100
AcDb2dVertex
 10
8.524194247
 20
5.9264201889
 30
0.0
  0
VERTEX
  5
2B3
330
1D3
100
AcDbEntity
  8
0
  6
CONTINUOUS
 62
     7
100
AcDbVertex
100
AcDb2dVertex
 10
8.5058091095
 20
5.9327374164
 30
0.0
  0
VERTEX
  5
2B4
330
1D3
100
AcDbEntity
  8
0
  6
CONTINUOUS
 62
     7
100
AcDbVertex
100
AcDb2dVertex
 10
8.4882233675
 20
5.9406129763
 30
0.0
  0
VERTEX
  5
2B5
330
1D3
100
AcDbEntity
  8
0
  6
CONTINUOUS
 62
     7
100
AcDbVertex
100
AcDb2dVertex
 10
8.4714860355
 20
5.9500249181
 30
0.0
  0
VERTEX
  5
2B6
330
1D3
100
AcDbEntity
  8
0
  6
CONTINUOUS
 62
     7
100
AcDbVertex
100
AcDb2dVertex
 10
8.4556437635
 20
5.960947009
 30
0.0
  0
VERTEX
  5
2B7
330
1D3
100
AcDbEntity
  8
0
  6
CONTINUOUS
 62
     7
100
AcDbVertex
100
AcDb2dVertex
 10
8.4407407067
 20
5.9733488073
 30
0.0
  0
VERTEX
  5
2B8
330
1D3
100
AcDbEntity
  8
0
  6
CONTINUOUS
 62
     7
100
AcDbVertex
100
AcDb2dVertex
 10
8.4268184027
 20
5.9871957468
 30
0.0
  0
VERTEX
  5
2B9
330
1D3
100
AcDbEntity
  8
0
  6
CONTINUOUS
 62
     7
100
AcDbVertex
100
AcDb2dVertex
 10
8.4139156554
 20
6.0024492337
 30
0.0
  0
VERTEX
  5
2BA
330
1D3
100
AcDbEntity
  8
0
  6
CONTINUOUS
 62
     7
100
AcDbVertex
100
AcDb2dVertex
 10
8.402068427
 20
6.0190667538
 30
0.0
  0
VERTEX
  5
2BB
330
1D3
100
AcDbEntity
  8
0
  6
CONTINUOUS
 62
     7
100
AcDbVertex
100
AcDb2dVertex
 10
8.3913097379
 20
6.037001991
 30
0.0
  0
VERTEX
  5
2BC
330
1D3
100
AcDbEntity
  8
0
  6
CONTINUOUS
 62
     7
100
AcDbVertex
100
AcDb2dVertex
 10
8.3816695745
 20
6.0562049566
 30
0.0
  0
VERTEX
  5
2BD
330
1D3
100
AcDbEntity
  8
0
  6
CONTINUOUS
 62
     7
100
AcDbVertex
100
AcDb2dVertex
 10
8.3731748057
 20
6.0766221286
 30
0.0
  0
VERTEX
  5
2BE
330
1D3
100
AcDbEntity
  8
0
  6
CONTINUOUS
 62
     7
100
AcDbVertex
100
AcDb2dVertex
 10
8.3658491079
 20
6.0981966005
 30
0.0
  0
VERTEX
  5
2BF
330
1D3
100
AcDbEntity
  8
0
  6
CONTINUOUS
 62
     7
100
AcDbVertex
100
AcDb2dVertex
 10
8.3597128992
 20
6.1208682406
 30
0.0
  0
VERTEX
  5
2C0
330
1D3
100
AcDbEntity
  8
0
  6
CONTINUOUS
 62
     7
100
AcDbVertex
100
AcDb2dVertex
 10
8.3547832822
 20
6.1445738588
 30
0.0
  0
VERTEX
  5
2C1
330
1D3
100
AcDbEntity
  8
0
  6
CONTINUOUS
 62
     7
100
AcDbVertex
100
AcDb2dVertex
 10
8.3510739967
 20
6.1692473833
 30
0.0
  0
VERTEX
  5
2C2
330
1D3
100
AcDbEntity
  8
0
  6
CONTINUOUS
 62
     7
100
AcDbVertex
100
AcDb2dVertex
 10
8.3485953812
 20
6.1948200446
 30
0.0
  0
VERTEX
  5
2C3
330
1D3
100
AcDbEntity
  8
0
  6
CONTINUOUS
 62
     7
100
AcDbVertex
100
AcDb2dVertex
 10
8.3473543439
 20
6.2212205672
 30
0.0
  0
VERTEX
  5
2C4
330
1D3
100
AcDbEntity
  8
0
  6
CONTINUOUS
 62
     7
100
AcDbVertex
100
AcDb2dVertex
 10
8.3473543439
 20
6.248375368
 30
0.0
  0
VERTEX
  5
2C5
330
1D3
100
AcDbEntity
  8
0
  6
CONTINUOUS
 62
     7
100
AcDbVertex
100
AcDb2dVertex
 10
8.3485953812
 20
6.2762087616
 30
0.0
  0
VERTEX
  5
2C6
330
1D3
100
AcDbEntity
  8
0
  6
CONTINUOUS
 62
     7
100
AcDbVertex
100
AcDb2dVertex
 10
8.3510739967
 20
6.3046431716
 30
0.0
  0
VERTEX
  5
2C7
330
1D3
100
AcDbEntity
  8
0
  6
CONTINUOUS
 62
     7
100
AcDbVertex
100
AcDb2dVertex
 10
8.3547832822
 20
6.333599346
 30
0.0
  0
VERTEX
  5
2C8
330
1D3
100
AcDbEntity
  8
0
  6
CONTINUOUS
 62
     7
100
AcDbVertex
100
AcDb2dVertex
 10
8.3597128992
 20
6.3629965788
 30
0.0
  0
VERTEX
  5
2C9
330
1D3
100
AcDbEntity
  8
0
  6
CONTINUOUS
 62
     7
100
AcDbVertex
100
AcDb2dVertex
 10
8.3658491079
 20
6.3927529346
 30
0.0
  0
VERTEX
  5
2CA
330
1D3
100
AcDbEntity
  8
0
  6
CONTINUOUS
 62
     7
100
AcDbVertex
100
AcDb2dVertex
 10
8.3731748057
 20
6.4227854772
 30
0.0
  0
VERTEX
  5
2CB
330
1D3
100
AcDbEntity
  8
0
  6
CONTINUOUS
 62
     7
100
AcDbVertex
100
AcDb2dVertex
 10
8.3816695745
 20
6.4530105005
 30
0.0
  0
VERTEX
  5
2CC
330
1D3
100
AcDbEntity
  8
0
  6
CONTINUOUS
 62
     7
100
AcDbVertex
100
AcDb2dVertex
 10
8.3913097379
 20
6.4833437618
 30
0.0
  0
VERTEX
  5
2CD
330
1D3
100
AcDbEntity
  8
0
  6
CONTINUOUS
 62
     7
100
AcDbVertex
100
AcDb2dVertex
 10
8.402068427
 20
6.513700717
 30
0.0
  0
VERTEX
  5
2CE
330
1D3
100
AcDbEntity
  8
0
  6
CONTINUOUS
 62
     7
100
AcDbVertex
100
AcDb2dVertex
 10
8.4139156554
 20
6.5439967558
 30
0.0
  0
VERTEX
  5
2CF
330
1D3
100
AcDbEntity
  8
0
  6
CONTINUOUS
 62
     7
100
AcDbVertex
100
AcDb2dVertex
 10
8.4268184027
 20
6.5741474377
 30
0.0
  0
VERTEX
  5
2D0
330
1D3
100
AcDbEntity
  8
0
  6
CONTINUOUS
 62
     7
100
AcDbVertex
100
AcDb2dVertex
 10
8.4407407067
 20
6.6040687273
 30
0.0
  0
VERTEX
  5
2D1
330
1D3
100
AcDbEntity
  8
0
  6
CONTINUOUS
 62
     7
100
AcDbVertex
100
AcDb2dVertex
 10
8.4556437635
 20
6.6336772287
 30
0.0
  0
VERTEX
  5
2D2
330
1D3
100
AcDbEntity
  8
0
  6
CONTINUOUS
 62
     7
100
AcDbVertex
100
AcDb2dVertex
 10
8.4714860355
 20
6.6628904175
 30
0.0
  0
VERTEX
  5
2D3
330
1D3
100
AcDbEntity
  8
0
  6
CONTINUOUS
 62
     7
100
AcDbVertex
100
AcDb2dVertex
 10
8.4882233675
 20
6.6916268715
 30
0.0
  0
VERTEX
  5
2D4
330
1D3
100
AcDbEntity
  8
0
  6
CONTINUOUS
 62
     7
100
AcDbVertex
100
AcDb2dVertex
 10
8.5058091095
 20
6.719806497
 30
0.0
  0
VERTEX
  5
2D5
330
1D3
100
AcDbEntity
  8
0
  6
CONTINUOUS
 62
     7
100
AcDbVertex
100
AcDb2dVertex
 10
8.524194247
 20
6.7473507523
 30
0.0
  0
VERTEX
  5
2D6
330
1D3
100
AcDbEntity
  8
0
  6
CONTINUOUS
 62
     7
100
AcDbVertex
100
AcDb2dVertex
 10
8.5433275372
 20
6.7741828666
 30
0.0
  0
VERTEX
  5
2D7
330
1D3
100
AcDbEntity
  8
0
  6
CONTINUOUS
 62
     7
100
AcDbVertex
100
AcDb2dVertex
 10
8.5631556522
 20
6.800228054
 30
0.0
  0
VERTEX
  5
2D8
330
1D3
100
AcDbEntity
  8
0
  6
CONTINUOUS
 62
     7
100
AcDbVertex
100
AcDb2dVertex
 10
8.5836233275
 20
6.825413722
 30
0.0
  0
VERTEX
  5
2D9
330
1D3
100
AcDbEntity
  8
0
  6
CONTINUOUS
 62
     7
100
AcDbVertex
100
AcDb2dVertex
 10
8.6046735161
 20
6.8496696734
 30
0.0
  0
VERTEX
  5
2DA
330
1D3
100
AcDbEntity
  8
0
  6
CONTINUOUS
 62
     7
100
AcDbVertex
100
AcDb2dVertex
 10
8.6262475473
 20
6.8729283027
 30
0.0
  0
VERTEX
  5
2DB
330
1D3
100
AcDbEntity
  8
0
  6
CONTINUOUS
 62
     7
100
AcDbVertex
100
AcDb2dVertex
 10
8.6482852904
 20
6.8951247839
 30
0.0
  0
VERTEX
  5
2DC
330
1D3
100
AcDbEntity
  8
0
  6
CONTINUOUS
 62
     7
100
AcDbVertex
100
AcDb2dVertex
 10
8.6707253222
 20
6.9161972513
 30
0.0
  0
VERTEX
  5
2DD
330
1D3
100
AcDbEntity
  8
0
  6
CONTINUOUS
 62
     7
100
AcDbVertex
100
AcDb2dVertex
 10
8.6935050984
 20
6.9360869723
 30
0.0
  0
VERTEX
  5
2DE
330
1D3
100
AcDbEntity
  8
0
  6
CONTINUOUS
 62
     7
100
AcDbVertex
100
AcDb2dVertex
 10
8.7165611276
 20
6.9547385107
 30
0.0
  0
VERTEX
  5
2DF
330
1D3
100
AcDbEntity
  8
0
  6
CONTINUOUS
 62
     7
100
AcDbVertex
100
AcDb2dVertex
 10
8.7398291486
 20
6.9720998812
 30
0.0
  0
VERTEX
  5
2E0
330
1D3
100
AcDbEntity
  8
0
  6
CONTINUOUS
 62
     7
100
AcDbVertex
100
AcDb2dVertex
 10
8.7632443091
 20
6.9881226946
 30
0.0
  0
VERTEX
  5
2E1
330
1D3
100
AcDbEntity
  8
0
  6
CONTINUOUS
 62
     7
100
AcDbVertex
100
AcDb2dVertex
 10
8.786741347
 20
7.0027622924
 30
0.0
  0
VERTEX
  5
2E2
330
1D3
100
AcDbEntity
  8
0
  6
CONTINUOUS
 62
     7
100
AcDbVertex
100
AcDb2dVertex
 10
8.8102547718
 20
7.0159778715
 30
0.0
  0
VERTEX
  5
2E3
330
1D3
100
AcDbEntity
  8
0
  6
CONTINUOUS
 62
     7
100
AcDbVertex
100
AcDb2dVertex
 10
8.8337190474
 20
7.0277325976
 30
0.0
  0
VERTEX
  5
2E4
330
1D3
100
AcDbEntity
  8
0
  6
CONTINUOUS
 62
     7
100
AcDbVertex
100
AcDb2dVertex
 10
8.8570687745
 20
7.0379937083
 30
0.0
  0
VERTEX
  5
2E5
330
1D3
100
AcDbEntity
  8
0
  6
CONTINUOUS
 62
     7
100
AcDbVertex
100
AcDb2dVertex
 10
8.8802388734
 20
7.046732604
 30
0.0
  0
VERTEX
  5
2E6
330
1D3
100
AcDbEntity
  8
0
  6
CONTINUOUS
 62
     7
100
AcDbVertex
100
AcDb2dVertex
 10
8.9031647648
 20
7.0539249277
 30
0.0
  0
VERTEX
  5
2E7
330
1D3
100
AcDbEntity
  8
0
  6
CONTINUOUS
 62
     7
100
AcDbVertex
100
AcDb2dVertex
 10
8.9257825502
 20
7.0595506333
 30
0.0
  0
VERTEX
  5
2E8
330
1D3
100
AcDbEntity
  8
0
  6
CONTINUOUS
 62
     7
100
AcDbVertex
100
AcDb2dVertex
 10
8.9480291897
 20
7.0635940409
 30
0.0
  0
VERTEX
  5
2E9
330
1D3
100
AcDbEntity
  8
0
  6
CONTINUOUS
 62
     7
100
AcDbVertex
100
AcDb2dVertex
 10
8.9698426779
 20
7.0660438807
 30
0.0
  0
VERTEX
  5
2EA
330
1D3
100
AcDbEntity
  8
0
  6
CONTINUOUS
 62
     7
100
AcDbVertex
100
AcDb2dVertex
 10
8.9911622167
 20
7.0668933246
 30
0.0
  0
VERTEX
  5
2EB
330
1D3
100
AcDbEntity
  8
0
  6
CONTINUOUS
 62
     7
100
AcDbVertex
100
AcDb2dVertex
 10
9.0119283848
 20
7.0661400051
 30
0.0
  0
VERTEX
  5
2EC
330
1D3
100
AcDbEntity
  8
0
  6
CONTINUOUS
 62
     7
100
AcDbVertex
100
AcDb2dVertex
 10
9.0320833032
 20
7.0637860218
 30
0.0
  0
VERTEX
  5
2ED
330
1D3
100
AcDbEntity
  8
0
  6
CONTINUOUS
 62
     7
100
AcDbVertex
100
AcDb2dVertex
 10
9.0515707963
 20
7.0598379357
 30
0.0
  0
VERTEX
  5
2EE
330
1D3
100
AcDbEntity
  8
0
  6
CONTINUOUS
 62
     7
100
AcDbVertex
100
AcDb2dVertex
 10
9.0703365493
 20
7.0543067507
 30
0.0
  0
VERTEX
  5
2EF
330
1D3
100
AcDbEntity
  8
0
  6
CONTINUOUS
 62
     7
100
AcDbVertex
100
AcDb2dVertex
 10
9.0883282583
 20
7.0472078834
 30
0.0
  0
VERTEX
  5
2F0
330
1D3
100
AcDbEntity
  8
0
  6
CONTINUOUS
 62
     7
100
AcDbVertex
100
AcDb2dVertex
 10
9.1054957775
 20
7.0385611195
 30
0.0
  0
VERTEX
  5
2F1
330
1D3
100
AcDbEntity
  8
0
  6
CONTINUOUS
 62
     7
100
AcDbVertex
100
AcDb2dVertex
 10
9.1217912578
 20
7.0283905591
 30
0.0
  0
VERTEX
  5
2F2
330
1D3
100
AcDbEntity
  8
0
  6
CONTINUOUS
 62
     7
100
AcDbVertex
100
AcDb2dVertex
 10
9.1371692808
 20
7.0167245494
 30
0.0
  0
VERTEX
  5
2F3
330
1D3
100
AcDbEntity
  8
0
  6
CONTINUOUS
 62
     7
100
AcDbVertex
100
AcDb2dVertex
 10
9.1515869852
 20
7.0035956056
 30
0.0
  0
VERTEX
  5
2F4
330
1D3
100
AcDbEntity
  8
0
  6
CONTINUOUS
 62
     7
100
AcDbVertex
100
AcDb2dVertex
 10
9.1650041862
 20
6.9890403205
 30
0.0
  0
VERTEX
  5
2F5
330
1D3
100
AcDbEntity
  8
0
  6
CONTINUOUS
 62
     7
100
AcDbVertex
100
AcDb2dVertex
 10
9.1773834877
 20
6.9730992622
 30
0.0
  0
VERTEX
  5
2F6
330
1D3
100
AcDbEntity
  8
0
  6
CONTINUOUS
 62
     7
100
AcDbVertex
100
AcDb2dVertex
 10
9.1886903864
 20
6.9558168614
 30
0.0
  0
VERTEX
  5
2F7
330
1D3
100
AcDbEntity
  8
0
  6
CONTINUOUS
 62
     7
100
AcDbVertex
100
AcDb2dVertex
 10
9.198893368
 20
6.9372412872
 30
0.0
  0
VERTEX
  5
2F8
330
1D3
100
AcDbEntity
  8
0
  6
CONTINUOUS
 62
     7
100
AcDbVertex
100
AcDb2dVertex
 10
9.2079639948
 20
6.917424313
 30
0.0
  0
VERTEX
  5
2F9
330
1D3
100
AcDbEntity
  8
0
  6
CONTINUOUS
 62
     7
100
AcDbVertex
100
AcDb2dVertex
 10
9.2158769854
 20
6.8964211723
 30
0.0
  0
VERTEX
  5
2FA
330
1D3
100
AcDbEntity
  8
0
  6
CONTINUOUS
 62
     7
100
AcDbVertex
100
AcDb2dVertex
 10
9.222610285
 20
6.8742904047
 30
0.0
  0
VERTEX
  5
2FB
330
1D3
100
AcDbEntity
  8
0
  6
CONTINUOUS
 62
     7
100
AcDbVertex
100
AcDb2dVertex
 10
9.2281451265
 20
6.8510936925
 30
0.0
  0
VERTEX
  5
2FC
330
1D3
100
AcDbEntity
  8
0
  6
CONTINUOUS
 62
     7
100
AcDbVertex
100
AcDb2dVertex
 10
9.2324660834
 20
6.8268956891
 30
0.0
  0
VERTEX
  5
2FD
330
1D3
100
AcDbEntity
  8
0
  6
CONTINUOUS
 62
     7
100
AcDbVertex
100
AcDb2dVertex
 10
9.2355611124
 20
6.8017638388
 30
0.0
  0
VERTEX
  5
2FE
330
1D3
100
AcDbEntity
  8
0
  6
CONTINUOUS
 62
     7
100
AcDbVertex
100
AcDb2dVertex
 10
9.2374215871
 20
6.7757681884
 30
0.0
  0
VERTEX
  5
2FF
330
1D3
100
AcDbEntity
  8
0
  6
CONTINUOUS
 62
     7
100
AcDbVertex
100
AcDb2dVertex
 10
9.238042322
 20
6.7489811926
 30
0.0
  0
VERTEX
  5
300
330
1D3
100
AcDbEntity
  8
0
  6
CONTINUOUS
 62
     7
100
AcDbVertex
100
AcDb2dVertex
 10
9.238042322
 20
6.7489811926
 30
0.0
  0
SEQEND
  5
301
330
1D3
100
AcDbEntity
  8
0
  6
CONTINUOUS
 62
     7
  0
POLYLINE
  5
1D4
330
1F
100
AcDbEntity
  8
0
  6
CONTINUOUS
 62
     7
100
AcDb2dPolyline
 66
     1
 10
0.0
 20
0.0
 30
0.0
  0
VERTEX
  5
302
330
1D4
100
AcDbEntity
  8
0
  6
CONTINUOUS
 62
     7
100
AcDbVertex
100
AcDb2dVertex
 10
7.8693950843
 20
7.7521623145
 30
0.0
  0
VERTEX
  5
303
330
1D4
100
AcDbEntity
  8
0
  6
CONTINUOUS
 62
     7
100
AcDbVertex
100
AcDb2dVertex
 10
7.8673351003
 20
7.753336064
 30
0.0
  0
VERTEX
  5
304
330
1D4
100
AcDbEntity
  8
0
  6
CONTINUOUS
 62
     7
100
AcDbVertex
100
AcDb2dVertex
 10
7.8501675812
 20
7.7619828279
 30
0.0
  0
VERTEX
  5
305
330
1D4
100
AcDbEntity
  8
0
  6
CONTINUOUS
 62
     7
100
AcDbVertex
100
AcDb2dVertex
 10
7.8321758721
 20
7.7690816953
 30
0.0
  0
VERTEX
  5
306
330
1D4
100
AcDbEntity
  8
0
  6
CONTINUOUS
 62
     7
100
AcDbVertex
100
AcDb2dVertex
 10
7.8134101192
 20
7.7746128802
 30
0.0
  0
VERTEX
  5
307
330
1D4
100
AcDbEntity
  8
0
  6
CONTINUOUS
 62
     7
100
AcDbVertex
100
AcDb2dVertex
 10
7.793922626
 20
7.7785609663
 30
0.0
  0
VERTEX
  5
308
330
1D4
100
AcDbEntity
  8
0
  6
CONTINUOUS
 62
     7
100
AcDbVertex
100
AcDb2dVertex
 10
7.7737677077
 20
7.7809149496
 30
0.0
  0
VERTEX
  5
309
330
1D4
100
AcDbEntity
  8
0
  6
CONTINUOUS
 62
     7
100
AcDbVertex
100
AcDb2dVertex
 10
7.7530015396
 20
7.7816682691
 30
0.0
  0
VERTEX
  5
30A
330
1D4
100
AcDbEntity
  8
0
  6
CONTINUOUS
 62
     7
100
AcDbVertex
100
AcDb2dVertex
 10
7.7316820007
 20
7.7808188252
 30
0.0
  0
VERTEX
  5
30B
330
1D4
100
AcDbEntity
  8
0
  6
CONTINUOUS
 62
     7
100
AcDbVertex
100
AcDb2dVertex
 10
7.7098685125
 20
7.7783689854
 30
0.0
  0
VERTEX
  5
30C
330
1D4
100
AcDbEntity
  8
0
  6
CONTINUOUS
 62
     7
100
AcDbVertex
100
AcDb2dVertex
 10
7.687621873
 20
7.7743255778
 30
0.0
  0
VERTEX
  5
30D
330
1D4
100
AcDbEntity
  8
0
  6
CONTINUOUS
 62
     7
100
AcDbVertex
100
AcDb2dVertex
 10
7.6650040877
 20
7.7686998722
 30
0.0
  0
VERTEX
  5
30E
330
1D4
100
AcDbEntity
  8
0
  6
CONTINUOUS
 62
     7
100
AcDbVertex
100
AcDb2dVertex
 10
7.6420781963
 20
7.7615075485
 30
0.0
  0
VERTEX
  5
30F
330
1D4
100
AcDbEntity
  8
0
  6
CONTINUOUS
 62
     7
100
AcDbVertex
100
AcDb2dVertex
 10
7.6189080974
 20
7.7527686528
 30
0.0
  0
VERTEX
  5
310
330
1D4
100
AcDbEntity
  8
0
  6
CONTINUOUS
 62
     7
100
AcDbVertex
100
AcDb2dVertex
 10
7.5955583702
 20
7.7425075421
 30
0.0
  0
VERTEX
  5
311
330
1D4
100
AcDbEntity
  8
0
  6
CONTINUOUS
 62
     7
100
AcDbVertex
100
AcDb2dVertex
 10
7.5720940947
 20
7.730752816
 30
0.0
  0
VERTEX
  5
312
330
1D4
100
AcDbEntity
  8
0
  6
CONTINUOUS
 62
     7
100
AcDbVertex
100
AcDb2dVertex
 10
7.5485806699
 20
7.7175372369
 30
0.0
  0
VERTEX
  5
313
330
1D4
100
AcDbEntity
  8
0
  6
CONTINUOUS
 62
     7
100
AcDbVertex
100
AcDb2dVertex
 10
7.525083632
 20
7.7028976391
 30
0.0
  0
VERTEX
  5
314
330
1D4
100
AcDbEntity
  8
0
  6
CONTINUOUS
 62
     7
100
AcDbVertex
100
AcDb2dVertex
 10
7.5016684714
 20
7.6868748257
 30
0.0
  0
VERTEX
  5
315
330
1D4
100
AcDbEntity
  8
0
  6
CONTINUOUS
 62
     7
100
AcDbVertex
100
AcDb2dVertex
 10
7.4784004504
 20
7.6695134552
 30
0.0
  0
VERTEX
  5
316
330
1D4
100
AcDbEntity
  8
0
  6
CONTINUOUS
 62
     7
100
AcDbVertex
100
AcDb2dVertex
 10
7.4553444212
 20
7.6508619169
 30
0.0
  0
VERTEX
  5
317
330
1D4
100
AcDbEntity
  8
0
  6
CONTINUOUS
 62
     7
100
AcDbVertex
100
AcDb2dVertex
 10
7.432564645
 20
7.6309721958
 30
0.0
  0
VERTEX
  5
318
330
1D4
100
AcDbEntity
  8
0
  6
CONTINUOUS
 62
     7
100
AcDbVertex
100
AcDb2dVertex
 10
7.4101246132
 20
7.6098997284
 30
0.0
  0
VERTEX
  5
319
330
1D4
100
AcDbEntity
  8
0
  6
CONTINUOUS
 62
     7
100
AcDbVertex
100
AcDb2dVertex
 10
7.3880868701
 20
7.5877032472
 30
0.0
  0
VERTEX
  5
31A
330
1D4
100
AcDbEntity
  8
0
  6
CONTINUOUS
 62
     7
100
AcDbVertex
100
AcDb2dVertex
 10
7.366512839
 20
7.5644446179
 30
0.0
  0
VERTEX
  5
31B
330
1D4
100
AcDbEntity
  8
0
  6
CONTINUOUS
 62
     7
100
AcDbVertex
100
AcDb2dVertex
 10
7.3454626504
 20
7.5401886665
 30
0.0
  0
VERTEX
  5
31C
330
1D4
100
AcDbEntity
  8
0
  6
CONTINUOUS
 62
     7
100
AcDbVertex
100
AcDb2dVertex
 10
7.324994975
 20
7.5150029985
 30
0.0
  0
VERTEX
  5
31D
330
1D4
100
AcDbEntity
  8
0
  6
CONTINUOUS
 62
     7
100
AcDbVertex
100
AcDb2dVertex
 10
7.30516686
 20
7.4889578111
 30
0.0
  0
VERTEX
  5
31E
330
1D4
100
AcDbEntity
  8
0
  6
CONTINUOUS
 62
     7
100
AcDbVertex
100
AcDb2dVertex
 10
7.2860335698
 20
7.4621256968
 30
0.0
  0
VERTEX
  5
31F
330
1D4
100
AcDbEntity
  8
0
  6
CONTINUOUS
 62
     7
100
AcDbVertex
100
AcDb2dVertex
 10
7.2676484324
 20
7.4345814415
 30
0.0
  0
VERTEX
  5
320
330
1D4
100
AcDbEntity
  8
0
  6
CONTINUOUS
 62
     7
100
AcDbVertex
100
AcDb2dVertex
 10
7.2500626903
 20
7.4064018161
 30
0.0
  0
VERTEX
  5
321
330
1D4
100
AcDbEntity
  8
0
  6
CONTINUOUS
 62
     7
100
AcDbVertex
100
AcDb2dVertex
 10
7.2333253583
 20
7.3776653621
 30
0.0
  0
VERTEX
  5
322
330
1D4
100
AcDbEntity
  8
0
  6
CONTINUOUS
 62
     7
100
AcDbVertex
100
AcDb2dVertex
 10
7.2174830863
 20
7.3484521732
 30
0.0
  0
VERTEX
  5
323
330
1D4
100
AcDbEntity
  8
0
  6
CONTINUOUS
 62
     7
100
AcDbVertex
100
AcDb2dVertex
 10
7.2025800296
 20
7.3188436718
 30
0.0
  0
VERTEX
  5
324
330
1D4
100
AcDbEntity
  8
0
  6
CONTINUOUS
 62
     7
100
AcDbVertex
100
AcDb2dVertex
 10
7.1886577255
 20
7.2889223822
 30
0.0
  0
VERTEX
  5
325
330
1D4
100
AcDbEntity
  8
0
  6
CONTINUOUS
 62
     7
100
AcDbVertex
100
AcDb2dVertex
 10
7.1757549782
 20
7.2587717003
 30
0.0
  0
VERTEX
  5
326
330
1D4
100
AcDbEntity
  8
0
  6
CONTINUOUS
 62
     7
100
AcDbVertex
100
AcDb2dVertex
 10
7.1639077498
 20
7.2284756616
 30
0.0
  0
VERTEX
  5
327
330
1D4
100
AcDbEntity
  8
0
  6
CONTINUOUS
 62
     7
100
AcDbVertex
100
AcDb2dVertex
 10
7.1531490607
 20
7.1981187063
 30
0.0
  0
VERTEX
  5
328
330
1D4
100
AcDbEntity
  8
0
  6
CONTINUOUS
 62
     7
100
AcDbVertex
100
AcDb2dVertex
 10
7.1435088974
 20
7.167785445
 30
0.0
  0
VERTEX
  5
329
330
1D4
100
AcDbEntity
  8
0
  6
CONTINUOUS
 62
     7
100
AcDbVertex
100
AcDb2dVertex
 10
7.1350141286
 20
7.1375604217
 30
0.0
  0
VERTEX
  5
32A
330
1D4
100
AcDbEntity
  8
0
  6
CONTINUOUS
 62
     7
100
AcDbVertex
100
AcDb2dVertex
 10
7.1276884308
 20
7.1075278791
 30
0.0
  0
VERTEX
  5
32B
330
1D4
100
AcDbEntity
  8
0
  6
CONTINUOUS
 62
     7
100
AcDbVertex
100
AcDb2dVertex
 10
7.121552222
 20
7.0777715233
 30
0.0
  0
VERTEX
  5
32C
330
1D4
100
AcDbEntity
  8
0
  6
CONTINUOUS
 62
     7
100
AcDbVertex
100
AcDb2dVertex
 10
7.1166226051
 20
7.0483742905
 30
0.0
  0
VERTEX
  5
32D
330
1D4
100
AcDbEntity
  8
0
  6
CONTINUOUS
 62
     7
100
AcDbVertex
100
AcDb2dVertex
 10
7.1129133196
 20
7.0194181161
 30
0.0
  0
VERTEX
  5
32E
330
1D4
100
AcDbEntity
  8
0
  6
CONTINUOUS
 62
     7
100
AcDbVertex
100
AcDb2dVertex
 10
7.110434704
 20
6.9909837062
 30
0.0
  0
VERTEX
  5
32F
330
1D4
100
AcDbEntity
  8
0
  6
CONTINUOUS
 62
     7
100
AcDbVertex
100
AcDb2dVertex
 10
7.1091936667
 20
6.9631503125
 30
0.0
  0
VERTEX
  5
330
330
1D4
100
AcDbEntity
  8
0
  6
CONTINUOUS
 62
     7
100
AcDbVertex
100
AcDb2dVertex
 10
7.1091936667
 20
6.9359955117
 30
0.0
  0
VERTEX
  5
331
330
1D4
100
AcDbEntity
  8
0
  6
CONTINUOUS
 62
     7
100
AcDbVertex
100
AcDb2dVertex
 10
7.110434704
 20
6.9095949892
 30
0.0
  0
VERTEX
  5
332
330
1D4
100
AcDbEntity
  8
0
  6
CONTINUOUS
 62
     7
100
AcDbVertex
100
AcDb2dVertex
 10
7.1129133196
 20
6.8840223278
 30
0.0
  0
VERTEX
  5
333
330
1D4
100
AcDbEntity
  8
0
  6
CONTINUOUS
 62
     7
100
AcDbVertex
100
AcDb2dVertex
 10
7.1166226051
 20
6.8593488033
 30
0.0
  0
VERTEX
  5
334
330
1D4
100
AcDbEntity
  8
0
  6
CONTINUOUS
 62
     7
100
AcDbVertex
100
AcDb2dVertex
 10
7.121552222
 20
6.8356431851
 30
0.0
  0
VERTEX
  5
335
330
1D4
100
AcDbEntity
  8
0
  6
CONTINUOUS
 62
     7
100
AcDbVertex
100
AcDb2dVertex
 10
7.1276884308
 20
6.8129715451
 30
0.0
  0
VERTEX
  5
336
330
1D4
100
AcDbEntity
  8
0
  6
CONTINUOUS
 62
     7
100
AcDbVertex
100
AcDb2dVertex
 10
7.1350141286
 20
6.7913970731
 30
0.0
  0
VERTEX
  5
337
330
1D4
100
AcDbEntity
  8
0
  6
CONTINUOUS
 62
     7
100
AcDbVertex
100
AcDb2dVertex
 10
7.1435088974
 20
6.7709799011
 30
0.0
  0
VERTEX
  5
338
330
1D4
100
AcDbEntity
  8
0
  6
CONTINUOUS
 62
     7
100
AcDbVertex
100
AcDb2dVertex
 10
7.1531490607
 20
6.7517769355
 30
0.0
  0
VERTEX
  5
339
330
1D4
100
AcDbEntity
  8
0
  6
CONTINUOUS
 62
     7
100
AcDbVertex
100
AcDb2dVertex
 10
7.1639077498
 20
6.7338416983
 30
0.0
  0
VERTEX
  5
33A
330
1D4
100
AcDbEntity
  8
0
  6
CONTINUOUS
 62
     7
100
AcDbVertex
100
AcDb2dVertex
 10
7.1757549782
 20
6.7172241782
 30
0.0
  0
VERTEX
  5
33B
330
1D4
100
AcDbEntity
  8
0
  6
CONTINUOUS
 62
     7
100
AcDbVertex
100
AcDb2dVertex
 10
7.1886577255
 20
6.7019706913
 30
0.0
  0
VERTEX
  5
33C
330
1D4
100
AcDbEntity
  8
0
  6
CONTINUOUS
 62
     7
100
AcDbVertex
100
AcDb2dVertex
 10
7.2025800296
 20
6.6881237518
 30
0.0
  0
VERTEX
  5
33D
330
1D4
100
AcDbEntity
  8
0
  6
CONTINUOUS
 62
     7
100
AcDbVertex
100
AcDb2dVertex
 10
7.2174830863
 20
6.6757219536
 30
0.0
  0
VERTEX
  5
33E
330
1D4
100
AcDbEntity
  8
0
  6
CONTINUOUS
 62
     7
100
AcDbVertex
100
AcDb2dVertex
 10
7.2333253583
 20
6.6647998626
 30
0.0
  0
VERTEX
  5
33F
330
1D4
100
AcDbEntity
  8
0
  6
CONTINUOUS
 62
     7
100
AcDbVertex
100
AcDb2dVertex
 10
7.2395250165
 20
6.6610771335
 30
0.0
  0
SEQEND
  5
340
330
1D4
100
AcDbEntity
  8
0
  6
CONTINUOUS
 62
     7
  0
SPLINE
  5
1D5
330
1F
100
AcDbEntity
  8
0
  6
CONTINUOUS
 62
     7
100
AcDbSpline
210
0.0
220
0.0
230
1.0
 70
     8
 71
     3
 72
    29
 73
    25
 74
     0
 42
0.00000001
 43
0.00000001
 40
-0.1266947025799385
 40
-0.0841685720803865
 40
-0.0428976851387306
 40
0.0
 40
0.0429962470702217
 40
0.0843257633633162
 40
0.126850369485049
 40
0.1888314282622869
 40
0.2497681766319669
 40
0.2908792720596007
 40
0.3309346517161682
 40
0.3731576478466373
 40
0.4157106969654978
 40
0.4570849288777234
 40
0.5001579679458492
 40
0.5430555992108356
 40
0.5843340793587927
 40
0.626875144349705
 40
0.6889310251003801
 40
0.7498412709360226
 40
0.7909499072218595
 40
0.8310305719310151
 40
0.8733052974200615
 40
0.9158314279196135
 40
0.9571023148612694
 40
1.0
 40
1.042996247070222
 40
1.084325763363316
 40
1.126850369485049
 10
7.595020509412752
 20
7.670628873623455
 30
0.0
 10
7.61547158863004
 20
7.686014933876112
 30
0.0
 10
7.640958994813226
 20
7.697087294037195
 30
0.0
 10
7.670885717967732
 20
7.702625294550747
 30
0.0
 10
7.707721820066716
 20
7.702589069248592
 30
0.0
 10
7.750313747137497
 20
7.695228103871246
 30
0.0
 10
7.78568819823455
 20
7.679802838682423
 30
0.0
 10
7.808197021608573
 20
7.663975291461075
 30
0.0
 10
7.819892195625292
 20
7.648891273448247
 30
0.0
 10
7.822821667887937
 20
7.633257091210075
 30
0.0
 10
7.818463564640825
 20
7.617402684082141
 30
0.0
 10
7.805489455119407
 20
7.602042718350762
 30
0.0
 10
7.785043435410557
 20
7.588026210699583
 30
0.0
 10
7.759574233990641
 20
7.575518248386941
 30
0.0
 10
7.729663016390609
 20
7.566158230747289
 30
0.0
 10
7.692809246854676
 20
7.560268377628195
 30
0.0
 10
7.650209464682209
 20
7.560321759270592
 30
0.0
 10
7.614822551998771
 20
7.573078886329209
 30
0.0
 10
7.592337048009962
 20
7.590399582634948
 30
0.0
 10
7.580659571737566
 20
7.609422594666674
 30
0.0
 10
7.577744159593714
 20
7.63046455696267
 30
0.0
 10
7.582089753761172
 20
7.651468481293021
 30
0.0
 10
7.595020509412752
 20
7.670628873623455
 30
0.0
 10
7.61547158863004
 20
7.686014933876112
 30
0.0
 10
7.640958994813226
 20
7.697087294037195
 30
0.0
  0
SPLINE
  5
1D6
330
1F
100
AcDbEntity
  8
0
  6
CONTINUOUS
 62
     7
100
AcDbSpline
210
0.0
220
0.0
230
1.0
 70
     8
 71
     3
 72
    29
 73
    25
 74
     0
 42
0.00000001
 43
0.00000001
 40
-0.126694702579961
 40
-0.0841685720805037
 40
-0.0428976851388474
 40
0.0
 40
0.0429962470703664
 40
0.0843257633634607
 40
0.1268503694850765
 40
0.1888314282624413
 40
0.2497681766319681
 40
0.2908792720595466
 40
0.3309346517161141
 40
0.3731576478466264
 40
0.4157106969656004
 40
0.457084928877826
 40
0.500157967945881
 40
0.5430555992111128
 40
0.5843340793590698
 40
0.6268751443497284
 40
0.6889310251005062
 40
0.7498412709360247
 40
0.7909499072217502
 40
0.8310305719309058
 40
0.873305297420039
 40
0.9158314279194963
 40
0.9571023148611526
 40
1.0
 40
1.042996247070366
 40
1.084325763363461
 40
1.126850369485076
 10
8.541541397615166
 20
7.124213995631855
 30
0.0
 10
8.561992476832511
 20
7.139600055884537
 30
0.0
 10
8.587479883015734
 20
7.150672416045651
 30
0.0
 10
8.617406606170242
 20
7.15621041655921
 30
0.0
 10
8.65424270826925
 20
7.156174191256999
 30
0.0
 10
8.696834635339966
 20
7.148813225879629
 30
0.0
 10
8.732209086437035
 20
7.133387960690839
 30
0.0
 10
8.75471790981101
 20
7.117560413469507
 30
0.0
 10
8.766413083827725
 20
7.102476395456681
 30
0.0
 10
8.769342556090399
 20
7.086842213218491
 30
0.0
 10
8.764984452843334
 20
7.070987806090528
 30
0.0
 10
8.752010343321922
 20
7.055627840359135
 30
0.0
 10
8.731564323612957
 20
7.041611332707972
 30
0.0
 10
8.706095122192965
 20
7.029103370395348
 30
0.0
 10
8.676183904592953
 20
7.019743352755666
 30
0.0
 10
8.639330135057042
 20
7.013853499636614
 30
0.0
 10
8.596730352884668
 20
7.013906881279063
 30
0.0
 10
8.56134344020123
 20
7.026664008337627
 30
0.0
 10
8.538857936212473
 20
7.043984704643353
 30
0.0
 10
8.527180459940096
 20
7.063007716675076
 30
0.0
 10
8.524265047796176
 20
7.084049678971057
 30
0.0
 10
8.528610641963565
 20
7.105053603301415
 30
0.0
 10
8.541541397615166
 20
7.124213995631855
 30
0.0
 10
8.561992476832511
 20
7.139600055884537
 30
0.0
 10
8.587479883015734
 20
7.150672416045651
 30
0.0
  0
POLYLINE
  5
1D7
330
1F
100
AcDbEntity
  8
0
  6
CONTINUOUS
 62
     7
100
AcDb2dPolyline
 66
     1
 10
0.0
 20
0.0
 30
0.0
  0
VERTEX
  5
341
330
1D7
100
AcDbEntity
  8
0
  6
CONTINUOUS
 62
     7
100
AcDbVertex
100
AcDb2dVertex
 10
8.9464025331
 20
6.5561288828
 30
0.0
  0
VERTEX
  5
342
330
1D7
100
AcDbEntity
  8
0
  6
CONTINUOUS
 62
     7
100
AcDbVertex
100
AcDb2dVertex
 10
8.9457836544
 20
6.5409967464
 30
0.0
  0
VERTEX
  5
343
330
1D7
100
AcDbEntity
  8
0
  6
CONTINUOUS
 62
     7
100
AcDbVertex
100
AcDb2dVertex
 10
8.9439327967
 20
6.5252913527
 30
0.0
  0
VERTEX
  5
344
330
1D7
100
AcDbEntity
  8
0
  6
CONTINUOUS
 62
     7
100
AcDbVertex
100
AcDb2dVertex
 10
8.940867241
 20
6.5091593385
 30
0.0
  0
VERTEX
  5
345
330
1D7
100
AcDbEntity
  8
0
  6
CONTINUOUS
 62
     7
100
AcDbVertex
100
AcDb2dVertex
 10
8.9366156095
 20
6.4927513243
 30
0.0
  0
VERTEX
  5
346
330
1D7
100
AcDbEntity
  8
0
  6
CONTINUOUS
 62
     7
100
AcDbVertex
100
AcDb2dVertex
 10
8.9312175985
 20
6.4762205071
 30
0.0
  0
VERTEX
  5
347
330
1D7
100
AcDbEntity
  8
0
  6
CONTINUOUS
 62
     7
100
AcDbVertex
100
AcDb2dVertex
 10
8.9247236079
 20
6.4597212309
 30
0.0
  0
VERTEX
  5
348
330
1D7
100
AcDbEntity
  8
0
  6
CONTINUOUS
 62
     7
100
AcDbVertex
100
AcDb2dVertex
 10
8.9171942702
 20
6.4434075448
 30
0.0
  0
VERTEX
  5
349
330
1D7
100
AcDbEntity
  8
0
  6
CONTINUOUS
 62
     7
100
AcDbVertex
100
AcDb2dVertex
 10
8.9086998849
 20
6.4274317654
 30
0.0
  0
VERTEX
  5
34A
330
1D7
100
AcDbEntity
  8
0
  6
CONTINUOUS
 62
     7
100
AcDbVertex
100
AcDb2dVertex
 10
8.8993197617
 20
6.4119430542
 30
0.0
  0
VERTEX
  5
34B
330
1D7
100
AcDbEntity
  8
0
  6
CONTINUOUS
 62
     7
100
AcDbVertex
100
AcDb2dVertex
 10
8.8891414804
 20
6.3970860251
 30
0.0
  0
VERTEX
  5
34C
330
1D7
100
AcDbEntity
  8
0
  6
CONTINUOUS
 62
     7
100
AcDbVertex
100
AcDb2dVertex
 10
8.8782600727
 20
6.3829993943
 30
0.0
  0
VERTEX
  5
34D
330
1D7
100
AcDbEntity
  8
0
  6
CONTINUOUS
 62
     7
100
AcDbVertex
100
AcDb2dVertex
 10
8.8667771356
 20
6.3698146848
 30
0.0
  0
VERTEX
  5
34E
330
1D7
100
AcDbEntity
  8
0
  6
CONTINUOUS
 62
     7
100
AcDbVertex
100
AcDb2dVertex
 10
8.854799882
 20
6.3576549986
 30
0.0
  0
VERTEX
  5
34F
330
1D7
100
AcDbEntity
  8
0
  6
CONTINUOUS
 62
     7
100
AcDbVertex
100
AcDb2dVertex
 10
8.8424401403
 20
6.3466338675
 30
0.0
  0
VERTEX
  5
350
330
1D7
100
AcDbEntity
  8
0
  6
CONTINUOUS
 62
     7
100
AcDbVertex
100
AcDb2dVertex
 10
8.8298133102
 20
6.3368541929
 30
0.0
  0
VERTEX
  5
351
330
1D7
100
AcDbEntity
  8
0
  6
CONTINUOUS
 62
     7
100
AcDbVertex
100
AcDb2dVertex
 10
8.8170372849
 20
6.3284072848
 30
0.0
  0
VERTEX
  5
352
330
1D7
100
AcDbEntity
  8
0
  6
CONTINUOUS
 62
     7
100
AcDbVertex
100
AcDb2dVertex
 10
8.8042313508
 20
6.3213720099
 30
0.0
  0
VERTEX
  5
353
330
1D7
100
AcDbEntity
  8
0
  6
CONTINUOUS
 62
     7
100
AcDbVertex
100
AcDb2dVertex
 10
8.7915150734
 20
6.3158140545
 30
0.0
  0
VERTEX
  5
354
330
1D7
100
AcDbEntity
  8
0
  6
CONTINUOUS
 62
     7
100
AcDbVertex
100
AcDb2dVertex
 10
8.7790071811
 20
6.3117853119
 30
0.0
  0
VERTEX
  5
355
330
1D7
100
AcDbEntity
  8
0
  6
CONTINUOUS
 62
     7
100
AcDbVertex
100
AcDb2dVertex
 10
8.7668244569
 20
6.3093233973
 30
0.0
  0
VERTEX
  5
356
330
1D7
100
AcDbEntity
  8
0
  6
CONTINUOUS
 62
     7
100
AcDbVertex
100
AcDb2dVertex
 10
8.7550806474
 20
6.3084512969
 30
0.0
  0
VERTEX
  5
357
330
1D7
100
AcDbEntity
  8
0
  6
CONTINUOUS
 62
     7
100
AcDbVertex
100
AcDb2dVertex
 10
8.7438854015
 20
6.3091771532
 30
0.0
  0
VERTEX
  5
358
330
1D7
100
AcDbEntity
  8
0
  6
CONTINUOUS
 62
     7
100
AcDbVertex
100
AcDb2dVertex
 10
8.7333432461
 20
6.3114941893
 30
0.0
  0
VERTEX
  5
359
330
1D7
100
AcDbEntity
  8
0
  6
CONTINUOUS
 62
     7
100
AcDbVertex
100
AcDb2dVertex
 10
8.7235526106
 20
6.3153807715
 30
0.0
  0
VERTEX
  5
35A
330
1D7
100
AcDbEntity
  8
0
  6
CONTINUOUS
 62
     7
100
AcDbVertex
100
AcDb2dVertex
 10
8.7146049075
 20
6.3208006118
 30
0.0
  0
VERTEX
  5
35B
330
1D7
100
AcDbEntity
  8
0
  6
CONTINUOUS
 62
     7
100
AcDbVertex
100
AcDb2dVertex
 10
8.706583679
 20
6.3277031067
 30
0.0
  0
VERTEX
  5
35C
330
1D7
100
AcDbEntity
  8
0
  6
CONTINUOUS
 62
     7
100
AcDbVertex
100
AcDb2dVertex
 10
8.6995638173
 20
6.3360238095
 30
0.0
  0
VERTEX
  5
35D
330
1D7
100
AcDbEntity
  8
0
  6
CONTINUOUS
 62
     7
100
AcDbVertex
100
AcDb2dVertex
 10
8.6936108648
 20
6.3456850319
 30
0.0
  0
VERTEX
  5
35E
330
1D7
100
AcDbEntity
  8
0
  6
CONTINUOUS
 62
     7
100
AcDbVertex
100
AcDb2dVertex
 10
8.6887804026
 20
6.3565965698
 30
0.0
  0
VERTEX
  5
35F
330
1D7
100
AcDbEntity
  8
0
  6
CONTINUOUS
 62
     7
100
AcDbVertex
100
AcDb2dVertex
 10
8.6851175316
 20
6.368656545
 30
0.0
  0
VERTEX
  5
360
330
1D7
100
AcDbEntity
  8
0
  6
CONTINUOUS
 62
     7
100
AcDbVertex
100
AcDb2dVertex
 10
8.6826564509
 20
6.3817523568
 30
0.0
  0
VERTEX
  5
361
330
1D7
100
AcDbEntity
  8
0
  6
CONTINUOUS
 62
     7
100
AcDbVertex
100
AcDb2dVertex
 10
8.681420139
 20
6.3957617332
 30
0.0
  0
VERTEX
  5
362
330
1D7
100
AcDbEntity
  8
0
  6
CONTINUOUS
 62
     7
100
AcDbVertex
100
AcDb2dVertex
 10
8.681420139
 20
6.4105538723
 30
0.0
  0
VERTEX
  5
363
330
1D7
100
AcDbEntity
  8
0
  6
CONTINUOUS
 62
     7
100
AcDbVertex
100
AcDb2dVertex
 10
8.6826564509
 20
6.4259906641
 30
0.0
  0
VERTEX
  5
364
330
1D7
100
AcDbEntity
  8
0
  6
CONTINUOUS
 62
     7
100
AcDbVertex
100
AcDb2dVertex
 10
8.6851175316
 20
6.4419279792
 30
0.0
  0
VERTEX
  5
365
330
1D7
100
AcDbEntity
  8
0
  6
CONTINUOUS
 62
     7
100
AcDbVertex
100
AcDb2dVertex
 10
8.6887804026
 20
6.4582170153
 30
0.0
  0
VERTEX
  5
366
330
1D7
100
AcDbEntity
  8
0
  6
CONTINUOUS
 62
     7
100
AcDbVertex
100
AcDb2dVertex
 10
8.6936108648
 20
6.474705686
 30
0.0
  0
VERTEX
  5
367
330
1D7
100
AcDbEntity
  8
0
  6
CONTINUOUS
 62
     7
100
AcDbVertex
100
AcDb2dVertex
 10
8.6995638173
 20
6.4912400411
 30
0.0
  0
VERTEX
  5
368
330
1D7
100
AcDbEntity
  8
0
  6
CONTINUOUS
 62
     7
100
AcDbVertex
100
AcDb2dVertex
 10
8.706583679
 20
6.5076657037
 30
0.0
  0
VERTEX
  5
369
330
1D7
100
AcDbEntity
  8
0
  6
CONTINUOUS
 62
     7
100
AcDbVertex
100
AcDb2dVertex
 10
8.7146049075
 20
6.5238293119
 30
0.0
  0
VERTEX
  5
36A
330
1D7
100
AcDbEntity
  8
0
  6
CONTINUOUS
 62
     7
100
AcDbVertex
100
AcDb2dVertex
 10
8.7235526106
 20
6.5395799504
 30
0.0
  0
VERTEX
  5
36B
330
1D7
100
AcDbEntity
  8
0
  6
CONTINUOUS
 62
     7
100
AcDbVertex
100
AcDb2dVertex
 10
8.7333432461
 20
6.5547705597
 30
0.0
  0
VERTEX
  5
36C
330
1D7
100
AcDbEntity
  8
0
  6
CONTINUOUS
 62
     7
100
AcDbVertex
100
AcDb2dVertex
 10
8.7438854015
 20
6.5692593092
 30
0.0
  0
VERTEX
  5
36D
330
1D7
100
AcDbEntity
  8
0
  6
CONTINUOUS
 62
     7
100
AcDbVertex
100
AcDb2dVertex
 10
8.7550806474
 20
6.5829109214
 30
0.0
  0
VERTEX
  5
36E
330
1D7
100
AcDbEntity
  8
0
  6
CONTINUOUS
 62
     7
100
AcDbVertex
100
AcDb2dVertex
 10
8.7668244569
 20
6.5955979348
 30
0.0
  0
VERTEX
  5
36F
330
1D7
100
AcDbEntity
  8
0
  6
CONTINUOUS
 62
     7
100
AcDbVertex
100
AcDb2dVertex
 10
8.7790071811
 20
6.6072018942
 30
0.0
  0
VERTEX
  5
370
330
1D7
100
AcDbEntity
  8
0
  6
CONTINUOUS
 62
     7
100
AcDbVertex
100
AcDb2dVertex
 10
8.7915150734
 20
6.6176144565
 30
0.0
  0
VERTEX
  5
371
330
1D7
100
AcDbEntity
  8
0
  6
CONTINUOUS
 62
     7
100
AcDbVertex
100
AcDb2dVertex
 10
8.8042313508
 20
6.6267384026
 30
0.0
  0
VERTEX
  5
372
330
1D7
100
AcDbEntity
  8
0
  6
CONTINUOUS
 62
     7
100
AcDbVertex
100
AcDb2dVertex
 10
8.8170372849
 20
6.6344885445
 30
0.0
  0
VERTEX
  5
373
330
1D7
100
AcDbEntity
  8
0
  6
CONTINUOUS
 62
     7
100
AcDbVertex
100
AcDb2dVertex
 10
8.8298133102
 20
6.6407925212
 30
0.0
  0
VERTEX
  5
374
330
1D7
100
AcDbEntity
  8
0
  6
CONTINUOUS
 62
     7
100
AcDbVertex
100
AcDb2dVertex
 10
8.8424401403
 20
6.6455914743
 30
0.0
  0
VERTEX
  5
375
330
1D7
100
AcDbEntity
  8
0
  6
CONTINUOUS
 62
     7
100
AcDbVertex
100
AcDb2dVertex
 10
8.854799882
 20
6.6488405972
 30
0.0
  0
VERTEX
  5
376
330
1D7
100
AcDbEntity
  8
0
  6
CONTINUOUS
 62
     7
100
AcDbVertex
100
AcDb2dVertex
 10
8.8667771356
 20
6.6505095537
 30
0.0
  0
VERTEX
  5
377
330
1D7
100
AcDbEntity
  8
0
  6
CONTINUOUS
 62
     7
100
AcDbVertex
100
AcDb2dVertex
 10
8.8782600727
 20
6.6505827612
 30
0.0
  0
VERTEX
  5
378
330
1D7
100
AcDbEntity
  8
0
  6
CONTINUOUS
 62
     7
100
AcDbVertex
100
AcDb2dVertex
 10
8.8891414804
 20
6.6490595362
 30
0.0
  0
VERTEX
  5
379
330
1D7
100
AcDbEntity
  8
0
  6
CONTINUOUS
 62
     7
100
AcDbVertex
100
AcDb2dVertex
 10
8.8993197617
 20
6.6459541006
 30
0.0
  0
VERTEX
  5
37A
330
1D7
100
AcDbEntity
  8
0
  6
CONTINUOUS
 62
     7
100
AcDbVertex
100
AcDb2dVertex
 10
8.9086998849
 20
6.6412954491
 30
0.0
  0
VERTEX
  5
37B
330
1D7
100
AcDbEntity
  8
0
  6
CONTINUOUS
 62
     7
100
AcDbVertex
100
AcDb2dVertex
 10
8.9171942702
 20
6.6351270782
 30
0.0
  0
VERTEX
  5
37C
330
1D7
100
AcDbEntity
  8
0
  6
CONTINUOUS
 62
     7
100
AcDbVertex
100
AcDb2dVertex
 10
8.9247236079
 20
6.6275065804
 30
0.0
  0
VERTEX
  5
37D
330
1D7
100
AcDbEntity
  8
0
  6
CONTINUOUS
 62
     7
100
AcDbVertex
100
AcDb2dVertex
 10
8.9312175985
 20
6.6185051061
 30
0.0
  0
VERTEX
  5
37E
330
1D7
100
AcDbEntity
  8
0
  6
CONTINUOUS
 62
     7
100
AcDbVertex
100
AcDb2dVertex
 10
8.9366156095
 20
6.6082066998
 30
0.0
  0
VERTEX
  5
37F
330
1D7
100
AcDbEntity
  8
0
  6
CONTINUOUS
 62
     7
100
AcDbVertex
100
AcDb2dVertex
 10
8.940867241
 20
6.5967075148
 30
0.0
  0
VERTEX
  5
380
330
1D7
100
AcDbEntity
  8
0
  6
CONTINUOUS
 62
     7
100
AcDbVertex
100
AcDb2dVertex
 10
8.9439327967
 20
6.584114916
 30
0.0
  0
VERTEX
  5
381
330
1D7
100
AcDbEntity
  8
0
  6
CONTINUOUS
 62
     7
100
AcDbVertex
100
AcDb2dVertex
 10
8.9457836544
 20
6.570546477
 30
0.0
  0
VERTEX
  5
382
330
1D7
100
AcDbEntity
  8
0
  6
CONTINUOUS
 62
     7
100
AcDbVertex
100
AcDb2dVertex
 10
8.9464025331
 20
6.5561288828
 30
0.0
  0
SEQEND
  5
383
330
1D7
100
AcDbEntity
  8
0
  6
CONTINUOUS
 62
     7
  0
SPLINE
  5
1D8
330
1F
100
AcDbEntity
  8
0
  6
CONTINUOUS
 62
     7
100
AcDbSpline
210
0.0
220
0.0
230
1.0
 70
     8
 71
     3
 72
    11
 73
     7
 74
     0
 42
0.00000001
 43
0.00000001
 40
0.0
 40
0.0
 40
0.0
 40
0.0
 40
0.3602708665667
 40
0.6821925635118475
 40
0.9648643755642378
 40
0.9999999999999999
 40
0.9999999999999999
 40
0.9999999999999999
 40
0.9999999999999999
 10
8.548383450887252
 20
7.06440623917669
 30
0.0
 10
8.548876674326523
 20
7.059242469092872
 30
0.0
 10
8.5498106198482
 20
7.04946458839873
 30
0.0
 10
8.557122222981691
 20
7.036839351476616
 30
0.0
 10
8.563571453890512
 20
7.028965459354741
 30
0.0
 10
8.568013325916905
 20
7.025883617959305
 30
0.0
 10
8.56850440299501
 20
7.02554290087906
 30
0.0
  0
SPLINE
  5
1D9
330
1F
100
AcDbEntity
  8
0
  6
CONTINUOUS
 62
     7
100
AcDbSpline
210
0.0
220
0.0
230
1.0
 70
     8
 71
     3
 72
     9
 73
     5
 74
     0
 42
0.00000001
 43
0.00000001
 40
0.0
 40
0.0
 40
0.0
 40
0.0
 40
0.388883762262231
 40
1.0
 40
1.0
 40
1.0
 40
1.0
 10
8.737779099963067
 20
7.046559458384007
 30
0.0
 10
8.739583050767253
 20
7.048839166589665
 30
0.0
 10
8.744221842558643
 20
7.054701350683948
 30
0.0
 10
8.744843169930858
 20
7.060724483521062
 30
0.0
 10
8.745222873176969
 20
7.064405317799873
 30
0.0
  0
ARC
  5
1DA
330
1F
100
AcDbEntity
  8
0
  6
CONTINUOUS
 62
     7
100
AcDbCircle
 10
8.8372584032
 20
6.5675230593
 30
0.0
 40
0.0676836894696039
100
AcDbArc
 50
350.3084215583
 51
120.6589391567
  0
POLYLINE
  5
1DB
330
1F
100
AcDbEntity
  8
0
  6
CONTINUOUS
 62
     7
100
AcDb2dPolyline
 66
     1
 10
0.0
 20
0.0
 30
0.0
  0
VERTEX
  5
384
330
1DB
100
AcDbEntity
  8
0
  6
CONTINUOUS
 62
     7
100
AcDbVertex
100
AcDb2dVertex
 10
8.6817281449
 20
6.416116262
 30
0.0
  0
VERTEX
  5
385
330
1DB
100
AcDbEntity
  8
0
  6
CONTINUOUS
 62
     7
100
AcDbVertex
100
AcDb2dVertex
 10
8.6826830664
 20
6.4079252861
 30
0.0
  0
VERTEX
  5
386
330
1DB
100
AcDbEntity
  8
0
  6
CONTINUOUS
 62
     7
100
AcDbVertex
100
AcDb2dVertex
 10
8.685188617
 20
6.3959934191
 30
0.0
  0
VERTEX
  5
387
330
1DB
100
AcDbEntity
  8
0
  6
CONTINUOUS
 62
     7
100
AcDbVertex
100
AcDb2dVertex
 10
8.6889114163
 20
6.3851475863
 30
0.0
  0
VERTEX
  5
388
330
1DB
100
AcDbEntity
  8
0
  6
CONTINUOUS
 62
     7
100
AcDbVertex
100
AcDb2dVertex
 10
8.6938092836
 20
6.3755106753
 30
0.0
  0
VERTEX
  5
389
330
1DB
100
AcDbEntity
  8
0
  6
CONTINUOUS
 62
     7
100
AcDbVertex
100
AcDb2dVertex
 10
8.699826724
 20
6.3671918762
 30
0.0
  0
VERTEX
  5
38A
330
1DB
100
AcDbEntity
  8
0
  6
CONTINUOUS
 62
     7
100
AcDbVertex
100
AcDb2dVertex
 10
8.7068955575
 20
6.3602854443
 30
0.0
  0
VERTEX
  5
38B
330
1DB
100
AcDbEntity
  8
0
  6
CONTINUOUS
 62
     7
100
AcDbVertex
100
AcDb2dVertex
 10
8.7149356915
 20
6.3548696323
 30
0.0
  0
VERTEX
  5
38C
330
1DB
100
AcDbEntity
  8
0
  6
CONTINUOUS
 62
     7
100
AcDbVertex
100
AcDb2dVertex
 10
8.7238560279
 20
6.3510058033
 30
0.0
  0
VERTEX
  5
38D
330
1DB
100
AcDbEntity
  8
0
  6
CONTINUOUS
 62
     7
100
AcDbVertex
100
AcDb2dVertex
 10
8.7335554959
 20
6.3487377363
 30
0.0
  0
VERTEX
  5
38E
330
1DB
100
AcDbEntity
  8
0
  6
CONTINUOUS
 62
     7
100
AcDbVertex
100
AcDb2dVertex
 10
8.7439241966
 20
6.3480911293
 30
0.0
  0
VERTEX
  5
38F
330
1DB
100
AcDbEntity
  8
0
  6
CONTINUOUS
 62
     7
100
AcDbVertex
100
AcDb2dVertex
 10
8.7548446484
 20
6.3490733085
 30
0.0
  0
VERTEX
  5
390
330
1DB
100
AcDbEntity
  8
0
  6
CONTINUOUS
 62
     7
100
AcDbVertex
100
AcDb2dVertex
 10
8.7661931183
 20
6.3516731456
 30
0.0
  0
VERTEX
  5
391
330
1DB
100
AcDbEntity
  8
0
  6
CONTINUOUS
 62
     7
100
AcDbVertex
100
AcDb2dVertex
 10
8.7778410236
 20
6.3558611833
 30
0.0
  0
VERTEX
  5
392
330
1DB
100
AcDbEntity
  8
0
  6
CONTINUOUS
 62
     7
100
AcDbVertex
100
AcDb2dVertex
 10
8.7896563888
 20
6.3615899694
 30
0.0
  0
VERTEX
  5
393
330
1DB
100
AcDbEntity
  8
0
  6
CONTINUOUS
 62
     7
100
AcDbVertex
100
AcDb2dVertex
 10
8.8015053412
 20
6.3687945947
 30
0.0
  0
VERTEX
  5
394
330
1DB
100
AcDbEntity
  8
0
  6
CONTINUOUS
 62
     7
100
AcDbVertex
100
AcDb2dVertex
 10
8.8132536273
 20
6.3773934276
 30
0.0
  0
VERTEX
  5
395
330
1DB
100
AcDbEntity
  8
0
  6
CONTINUOUS
 62
     7
100
AcDbVertex
100
AcDb2dVertex
 10
8.8247681345
 20
6.3872890402
 30
0.0
  0
VERTEX
  5
396
330
1DB
100
AcDbEntity
  8
0
  6
CONTINUOUS
 62
     7
100
AcDbVertex
100
AcDb2dVertex
 10
8.8359183986
 20
6.398369311
 30
0.0
  0
VERTEX
  5
397
330
1DB
100
AcDbEntity
  8
0
  6
CONTINUOUS
 62
     7
100
AcDbVertex
100
AcDb2dVertex
 10
8.8465780829
 20
6.4105086962
 30
0.0
  0
VERTEX
  5
398
330
1DB
100
AcDbEntity
  8
0
  6
CONTINUOUS
 62
     7
100
AcDbVertex
100
AcDb2dVertex
 10
8.8566264088
 20
6.4235696518
 30
0.0
  0
VERTEX
  5
399
330
1DB
100
AcDbEntity
  8
0
  6
CONTINUOUS
 62
     7
100
AcDbVertex
100
AcDb2dVertex
 10
8.8659495247
 20
6.4374041918
 30
0.0
  0
VERTEX
  5
39A
330
1DB
100
AcDbEntity
  8
0
  6
CONTINUOUS
 62
     7
100
AcDbVertex
100
AcDb2dVertex
 10
8.874441796
 20
6.4518555655
 30
0.0
  0
VERTEX
  5
39B
330
1DB
100
AcDbEntity
  8
0
  6
CONTINUOUS
 62
     7
100
AcDbVertex
100
AcDb2dVertex
 10
8.882007002
 20
6.4667600329
 30
0.0
  0
VERTEX
  5
39C
330
1DB
100
AcDbEntity
  8
0
  6
CONTINUOUS
 62
     7
100
AcDbVertex
100
AcDb2dVertex
 10
8.8885594257
 20
6.4819487205
 30
0.0
  0
VERTEX
  5
39D
330
1DB
100
AcDbEntity
  8
0
  6
CONTINUOUS
 62
     7
100
AcDbVertex
100
AcDb2dVertex
 10
8.8940248257
 20
6.4972495344
 30
0.0
  0
VERTEX
  5
39E
330
1DB
100
AcDbEntity
  8
0
  6
CONTINUOUS
 62
     7
100
AcDbVertex
100
AcDb2dVertex
 10
8.8983412767
 20
6.5124891103
 30
0.0
  0
VERTEX
  5
39F
330
1DB
100
AcDbEntity
  8
0
  6
CONTINUOUS
 62
     7
100
AcDbVertex
100
AcDb2dVertex
 10
8.9014598717
 20
6.5274947777
 30
0.0
  0
VERTEX
  5
3A0
330
1DB
100
AcDbEntity
  8
0
  6
CONTINUOUS
 62
     7
100
AcDbVertex
100
AcDb2dVertex
 10
8.9033452756
 20
6.5420965164
 30
0.0
  0
VERTEX
  5
3A1
330
1DB
100
AcDbEntity
  8
0
  6
CONTINUOUS
 62
     7
100
AcDbVertex
100
AcDb2dVertex
 10
8.9039761262
 20
6.5561288828
 30
0.0
  0
SEQEND
  5
3A2
330
1DB
100
AcDbEntity
  8
0
  6
CONTINUOUS
 62
     7
  0
SPLINE
  5
1DC
330
1F
100
AcDbEntity
  8
0
  6
CONTINUOUS
 62
     7
100
AcDbSpline
210
0.0
220
0.0
230
1.0
 70
     8
 71
     3
 72
    21
 73
    17
 74
     0
 42
0.00000001
 43
0.00000001
 40
0.0
 40
0.0
 40
0.0
 40
0.0
 40
0.0748287911526805
 40
0.1619051620225906
 40
0.2334549066318935
 40
0.3072668594327843
 40
0.3762747278753653
 40
0.4469493447724115
 40
0.5230424030731855
 40
0.6008300223242475
 40
0.6877238523078956
 40
0.7770851104170154
 40
0.8457415516599773
 40
0.9162353871113043
 40
0.9849746655303092
 40
1.0
 40
1.0
 40
1.0
 40
1.0
 10
8.81938693061164
 20
6.631484944662997
 30
0.0
 10
8.82133833705209
 20
6.627386740444178
 30
0.0
 10
8.825560545790813
 20
6.618519559672865
 30
0.0
 10
8.827994293108787
 20
6.605285364104016
 30
0.0
 10
8.827665963860722
 20
6.592410162398883
 30
0.0
 10
8.824815243294593
 20
6.581091335382514
 30
0.0
 10
8.819746822355034
 20
6.570723682746349
 30
0.0
 10
8.812686168158901
 20
6.561374427256087
 30
0.0
 10
8.803579886408912
 20
6.553084858803472
 30
0.0
 10
8.792270486083927
 20
6.546015323102928
 30
0.0
 10
8.779056748630504
 20
6.540825122452707
 30
0.0
 10
8.765551492846075
 20
6.538516218899205
 30
0.0
 10
8.752841542464948
 20
6.538913546542846
 30
0.0
 10
8.741748351511385
 20
6.541777971165843
 30
0.0
 10
8.733831446789916
 20
6.545181989676955
 30
0.0
 10
8.730222848311847
 20
6.548229581928882
 30
0.0
 10
8.729575553502858
 20
6.548776245864086
 30
0.0
  0
ARC
  5
1DD
330
1F
100
AcDbEntity
  8
0
  6
CONTINUOUS
 62
     7
100
AcDbCircle
 10
8.028976461
 20
6.932687231
 30
0.0
 40
0.9208640826158694
100
AcDbArc
 50
122.575180305
 51
177.4301962277
  0
SPLINE
  5
1DE
330
1F
100
AcDbEntity
  8
0
  6
CONTINUOUS
 62
     7
100
AcDbSpline
210
0.0
220
0.0
230
1.0
 70
     8
 71
     3
 72
    11
 73
     7
 74
     0
 42
0.00000001
 43
0.00000001
 40
0.0
 40
0.0
 40
0.0
 40
0.0
 40
0.360270866566586
 40
0.6821925635116379
 40
0.9648643755639442
 40
1.0
 40
1.0
 40
1.0
 40
1.0
 10
7.601862562684788
 20
7.610821117168268
 30
0.0
 10
7.60235578612406
 20
7.605657347084452
 30
0.0
 10
7.603289731645737
 20
7.595879466390308
 30
0.0
 10
7.610601334779227
 20
7.583254229468194
 30
0.0
 10
7.617050565688052
 20
7.575380337346315
 30
0.0
 10
7.621492437714449
 20
7.572298495950878
 30
0.0
 10
7.62198351479256
 20
7.57195777887063
 30
0.0
  0
SPLINE
  5
1DF
330
1F
100
AcDbEntity
  8
0
  6
CONTINUOUS
 62
     7
100
AcDbSpline
210
0.0
220
0.0
230
1.0
 70
     8
 71
     3
 72
     9
 73
     5
 74
     0
 42
0.00000001
 43
0.00000001
 40
0.0
 40
0.0
 40
0.0
 40
0.0
 40
0.3888837622626657
 40
0.9999999999999999
 40
0.9999999999999999
 40
0.9999999999999999
 40
0.9999999999999999
 10
7.791258211760626
 20
7.592974336375624
 30
0.0
 10
7.793062162564809
 20
7.595254044581282
 30
0.0
 10
7.797700954356183
 20
7.601116228675558
 30
0.0
 10
7.798322281728396
 20
7.607139361512654
 30
0.0
 10
7.798701984974504
 20
7.610820195791452
 30
0.0
  0
ARC
  5
1E0
330
1F
100
AcDbEntity
  8
0
  6
CONTINUOUS
 62
     7
100
AcDbCircle
 10
8.7199628291
 20
6.6072368814
 30
0.0
 40
0.0936543735495686
100
AcDbArc
 50
0.6476132041
 51
13.6104166901
  0
POLYLINE
  5
1E1
330
1F
100
AcDbEntity
  8
0
  6
CONTINUOUS
 62
     7
100
AcDb2dPolyline
 66
     1
 10
0.0
 20
0.0
 30
0.0
  0
VERTEX
  5
3A3
330
1E1
100
AcDbEntity
  8
0
  6
CONTINUOUS
 62
     7
100
AcDbVertex
100
AcDb2dVertex
 10
8.7524806361
 20
6.5798842628
 30
0.0
  0
VERTEX
  5
3A4
330
1E1
100
AcDbEntity
  8
0
  6
CONTINUOUS
 62
     7
100
AcDbVertex
100
AcDb2dVertex
 10
8.7540120752
 20
6.5788429742
 30
0.0
  0
VERTEX
  5
3A5
330
1E1
100
AcDbEntity
  8
0
  6
CONTINUOUS
 62
     7
100
AcDbVertex
100
AcDb2dVertex
 10
8.7623003882
 20
6.574058233
 30
0.0
  0
VERTEX
  5
3A6
330
1E1
100
AcDbEntity
  8
0
  6
CONTINUOUS
 62
     7
100
AcDbVertex
100
AcDb2dVertex
 10
8.7704961275
 20
6.5707534225
 30
0.0
  0
VERTEX
  5
3A7
330
1E1
100
AcDbEntity
  8
0
  6
CONTINUOUS
 62
     7
100
AcDbVertex
100
AcDb2dVertex
 10
8.778416214
 20
6.5690023669
 30
0.0
  0
VERTEX
  5
3A8
330
1E1
100
AcDbEntity
  8
0
  6
CONTINUOUS
 62
     7
100
AcDbVertex
100
AcDb2dVertex
 10
8.785883726
 20
6.5688441817
 30
0.0
  0
VERTEX
  5
3A9
330
1E1
100
AcDbEntity
  8
0
  6
CONTINUOUS
 62
     7
100
AcDbVertex
100
AcDb2dVertex
 10
8.7927318515
 20
6.5702824006
 30
0.0
  0
VERTEX
  5
3AA
330
1E1
100
AcDbEntity
  8
0
  6
CONTINUOUS
 62
     7
100
AcDbVertex
100
AcDb2dVertex
 10
8.7988076148
 20
6.5732848961
 30
0.0
  0
VERTEX
  5
3AB
330
1E1
100
AcDbEntity
  8
0
  6
CONTINUOUS
 62
     7
100
AcDbVertex
100
AcDb2dVertex
 10
8.8039752934
 20
6.5777845975
 30
0.0
  0
VERTEX
  5
3AC
330
1E1
100
AcDbEntity
  8
0
  6
CONTINUOUS
 62
     7
100
AcDbVertex
100
AcDb2dVertex
 10
8.8081194499
 20
6.5836809889
 30
0.0
  0
VERTEX
  5
3AD
330
1E1
100
AcDbEntity
  8
0
  6
CONTINUOUS
 62
     7
100
AcDbVertex
100
AcDb2dVertex
 10
8.8111475107
 20
6.5908423545
 30
0.0
  0
VERTEX
  5
3AE
330
1E1
100
AcDbEntity
  8
0
  6
CONTINUOUS
 62
     7
100
AcDbVertex
100
AcDb2dVertex
 10
8.8129918338
 20
6.5991087214
 30
0.0
  0
VERTEX
  5
3AF
330
1E1
100
AcDbEntity
  8
0
  6
CONTINUOUS
 62
     7
100
AcDbVertex
100
AcDb2dVertex
 10
8.8136112202
 20
6.6082954326
 30
0.0
  0
SEQEND
  5
3B0
330
1E1
100
AcDbEntity
  8
0
  6
CONTINUOUS
 62
     7
  0
ARC
  5
1E2
330
1F
100
AcDbEntity
  8
0
  6
CONTINUOUS
 62
     7
100
AcDbCircle
 10
8.8036933979
 20
6.6168123813
 30
0.0
 40
0.0579495464804686
100
AcDbArc
 50
237.1828286377
 51
277.1038868858
  0
ARC
  5
1E3
330
1F
100
AcDbEntity
  8
0
  6
CONTINUOUS
 62
     7
100
AcDbCircle
 10
7.7550987576
 20
7.6207852545
 30
0.0
 40
0.0425069501031111
100
AcDbArc
 50
295.409227566
 51
69.6389886519
  0
POLYLINE
  5
1E4
330
1F
100
AcDbEntity
  8
0
  6
CONTINUOUS
 62
     7
100
AcDb2dPolyline
 66
     1
 10
0.0
 20
0.0
 30
0.0
  0
VERTEX
  5
3B1
330
1E4
100
AcDbEntity
  8
0
  6
CONTINUOUS
 62
     7
100
AcDbVertex
100
AcDb2dVertex
 10
7.630671512
 20
7.6606363265
 30
0.0
  0
VERTEX
  5
3B2
330
1E4
100
AcDbEntity
  8
0
  6
CONTINUOUS
 62
     7
100
AcDbVertex
100
AcDb2dVertex
 10
7.6261896644
 20
7.6578695693
 30
0.0
  0
VERTEX
  5
3B3
330
1E4
100
AcDbEntity
  8
0
  6
CONTINUOUS
 62
     7
100
AcDbVertex
100
AcDb2dVertex
 10
7.6182146567
 20
7.6518349583
 30
0.0
  0
VERTEX
  5
3B4
330
1E4
100
AcDbEntity
  8
0
  6
CONTINUOUS
 62
     7
100
AcDbVertex
100
AcDb2dVertex
 10
7.6117041061
 20
7.6452405549
 30
0.0
  0
VERTEX
  5
3B5
330
1E4
100
AcDbEntity
  8
0
  6
CONTINUOUS
 62
     7
100
AcDbVertex
100
AcDb2dVertex
 10
7.6067741934
 20
7.6382040364
 30
0.0
  0
VERTEX
  5
3B6
330
1E4
100
AcDbEntity
  8
0
  6
CONTINUOUS
 62
     7
100
AcDbVertex
100
AcDb2dVertex
 10
7.6035128931
 20
7.6308509695
 30
0.0
  0
VERTEX
  5
3B7
330
1E4
100
AcDbEntity
  8
0
  6
CONTINUOUS
 62
     7
100
AcDbVertex
100
AcDb2dVertex
 10
7.6019784031
 20
7.62331257
 30
0.0
  0
VERTEX
  5
3B8
330
1E4
100
AcDbEntity
  8
0
  6
CONTINUOUS
 62
     7
100
AcDbVertex
100
AcDb2dVertex
 10
7.6021981065
 20
7.6157233607
 30
0.0
  0
VERTEX
  5
3B9
330
1E4
100
AcDbEntity
  8
0
  6
CONTINUOUS
 62
     7
100
AcDbVertex
100
AcDb2dVertex
 10
7.6041680825
 20
7.6082187713
 30
0.0
  0
VERTEX
  5
3BA
330
1E4
100
AcDbEntity
  8
0
  6
CONTINUOUS
 62
     7
100
AcDbVertex
100
AcDb2dVertex
 10
7.6078531771
 20
7.6009327213
 30
0.0
  0
VERTEX
  5
3BB
330
1E4
100
AcDbEntity
  8
0
  6
CONTINUOUS
 62
     7
100
AcDbVertex
100
AcDb2dVertex
 10
7.6131876295
 20
7.5939952305
 30
0.0
  0
VERTEX
  5
3BC
330
1E4
100
AcDbEntity
  8
0
  6
CONTINUOUS
 62
     7
100
AcDbVertex
100
AcDb2dVertex
 10
7.6200762463
 20
7.5875300985
 30
0.0
  0
VERTEX
  5
3BD
330
1E4
100
AcDbEntity
  8
0
  6
CONTINUOUS
 62
     7
100
AcDbVertex
100
AcDb2dVertex
 10
7.6283961
 20
7.5816526959
 30
0.0
  0
VERTEX
  5
3BE
330
1E4
100
AcDbEntity
  8
0
  6
CONTINUOUS
 62
     7
100
AcDbVertex
100
AcDb2dVertex
 10
7.6379987227
 20
7.5764679049
 30
0.0
  0
VERTEX
  5
3BF
330
1E4
100
AcDbEntity
  8
0
  6
CONTINUOUS
 62
     7
100
AcDbVertex
100
AcDb2dVertex
 10
7.6487127552
 20
7.5720682484
 30
0.0
  0
VERTEX
  5
3C0
330
1E4
100
AcDbEntity
  8
0
  6
CONTINUOUS
 62
     7
100
AcDbVertex
100
AcDb2dVertex
 10
7.6603470055
 20
7.5685322382
 30
0.0
  0
VERTEX
  5
3C1
330
1E4
100
AcDbEntity
  8
0
  6
CONTINUOUS
 62
     7
100
AcDbVertex
100
AcDb2dVertex
 10
7.67269386
 20
7.5659229746
 30
0.0
  0
VERTEX
  5
3C2
330
1E4
100
AcDbEntity
  8
0
  6
CONTINUOUS
 62
     7
100
AcDbVertex
100
AcDb2dVertex
 10
7.6855329888
 20
7.5642870199
 30
0.0
  0
VERTEX
  5
3C3
330
1E4
100
AcDbEntity
  8
0
  6
CONTINUOUS
 62
     7
100
AcDbVertex
100
AcDb2dVertex
 10
7.6986352774
 20
7.5636535678
 30
0.0
  0
VERTEX
  5
3C4
330
1E4
100
AcDbEntity
  8
0
  6
CONTINUOUS
 62
     7
100
AcDbVertex
100
AcDb2dVertex
 10
7.7117669152
 20
7.5640339223
 30
0.0
  0
VERTEX
  5
3C5
330
1E4
100
AcDbEntity
  8
0
  6
CONTINUOUS
 62
     7
100
AcDbVertex
100
AcDb2dVertex
 10
7.7243471848
 20
7.5653704833
 30
0.0
  0
SEQEND
  5
3C6
330
1E4
100
AcDbEntity
  8
0
  6
CONTINUOUS
 62
     7
  0
POLYLINE
  5
1E5
330
1F
100
AcDbEntity
  8
0
  6
CONTINUOUS
 62
     7
100
AcDb2dPolyline
 66
     1
 10
0.0
 20
0.0
 30
0.0
  0
VERTEX
  5
3C7
330
1E5
100
AcDbEntity
  8
0
  6
CONTINUOUS
 62
     7
100
AcDbVertex
100
AcDb2dVertex
 10
7.7557349334
 20
7.6047826242
 30
0.0
  0
VERTEX
  5
3C8
330
1E5
100
AcDbEntity
  8
0
  6
CONTINUOUS
 62
     7
100
AcDbVertex
100
AcDb2dVertex
 10
7.7468504098
 20
7.6003688263
 30
0.0
  0
VERTEX
  5
3C9
330
1E5
100
AcDbEntity
  8
0
  6
CONTINUOUS
 62
     7
100
AcDbVertex
100
AcDb2dVertex
 10
7.7369255791
 20
7.5967687536
 30
0.0
  0
VERTEX
  5
3CA
330
1E5
100
AcDbEntity
  8
0
  6
CONTINUOUS
 62
     7
100
AcDbVertex
100
AcDb2dVertex
 10
7.7261821453
 20
7.5940628258
 30
0.0
  0
VERTEX
  5
3CB
330
1E5
100
AcDbEntity
  8
0
  6
CONTINUOUS
 62
     7
100
AcDbVertex
100
AcDb2dVertex
 10
7.7148600993
 20
7.592311489
 30
0.0
  0
VERTEX
  5
3CC
330
1E5
100
AcDbEntity
  8
0
  6
CONTINUOUS
 62
     7
100
AcDbVertex
100
AcDb2dVertex
 10
7.7032123567
 20
7.591553865
 30
0.0
  0
VERTEX
  5
3CD
330
1E5
100
AcDbEntity
  8
0
  6
CONTINUOUS
 62
     7
100
AcDbVertex
100
AcDb2dVertex
 10
7.6914991088
 20
7.591806878
 30
0.0
  0
VERTEX
  5
3CE
330
1E5
100
AcDbEntity
  8
0
  6
CONTINUOUS
 62
     7
100
AcDbVertex
100
AcDb2dVertex
 10
7.6799820103
 20
7.593064876
 30
0.0
  0
VERTEX
  5
3CF
330
1E5
100
AcDbEntity
  8
0
  6
CONTINUOUS
 62
     7
100
AcDbVertex
100
AcDb2dVertex
 10
7.6689183342
 20
7.5952997575
 30
0.0
  0
VERTEX
  5
3D0
330
1E5
100
AcDbEntity
  8
0
  6
CONTINUOUS
 62
     7
100
AcDbVertex
100
AcDb2dVertex
 10
7.6585552246
 20
7.5984615989
 30
0.0
  0
VERTEX
  5
3D1
330
1E5
100
AcDbEntity
  8
0
  6
CONTINUOUS
 62
     7
100
AcDbVertex
100
AcDb2dVertex
 10
7.6491241763
 20
7.6024797698
 30
0.0
  0
VERTEX
  5
3D2
330
1E5
100
AcDbEntity
  8
0
  6
CONTINUOUS
 62
     7
100
AcDbVertex
100
AcDb2dVertex
 10
7.6408358633
 20
7.607264511
 30
0.0
  0
VERTEX
  5
3D3
330
1E5
100
AcDbEntity
  8
0
  6
CONTINUOUS
 62
     7
100
AcDbVertex
100
AcDb2dVertex
 10
7.6338754329
 20
7.6127089393
 30
0.0
  0
VERTEX
  5
3D4
330
1E5
100
AcDbEntity
  8
0
  6
CONTINUOUS
 62
     7
100
AcDbVertex
100
AcDb2dVertex
 10
7.6283983696
 20
7.6186914352
 30
0.0
  0
VERTEX
  5
3D5
330
1E5
100
AcDbEntity
  8
0
  6
CONTINUOUS
 62
     7
100
AcDbVertex
100
AcDb2dVertex
 10
7.6245270218
 20
7.6250783595
 30
0.0
  0
VERTEX
  5
3D6
330
1E5
100
AcDbEntity
  8
0
  6
CONTINUOUS
 62
     7
100
AcDbVertex
100
AcDb2dVertex
 10
7.6223478692
 20
7.6317270389
 30
0.0
  0
VERTEX
  5
3D7
330
1E5
100
AcDbEntity
  8
0
  6
CONTINUOUS
 62
     7
100
AcDbVertex
100
AcDb2dVertex
 10
7.6219095904
 20
7.6384889529
 30
0.0
  0
VERTEX
  5
3D8
330
1E5
100
AcDbEntity
  8
0
  6
CONTINUOUS
 62
     7
100
AcDbVertex
100
AcDb2dVertex
 10
7.6232219758
 20
7.6452130516
 30
0.0
  0
VERTEX
  5
3D9
330
1E5
100
AcDbEntity
  8
0
  6
CONTINUOUS
 62
     7
100
AcDbVertex
100
AcDb2dVertex
 10
7.6262557089
 20
7.6517491297
 30
0.0
  0
VERTEX
  5
3DA
330
1E5
100
AcDbEntity
  8
0
  6
CONTINUOUS
 62
     7
100
AcDbVertex
100
AcDb2dVertex
 10
7.6309430211
 20
7.657951182
 30
0.0
  0
VERTEX
  5
3DB
330
1E5
100
AcDbEntity
  8
0
  6
CONTINUOUS
 62
     7
100
AcDbVertex
100
AcDb2dVertex
 10
7.6371792056
 20
7.6636806648
 30
0.0
  0
VERTEX
  5
3DC
330
1E5
100
AcDbEntity
  8
0
  6
CONTINUOUS
 62
     7
100
AcDbVertex
100
AcDb2dVertex
 10
7.6448249564
 20
7.6688095911
 30
0.0
  0
VERTEX
  5
3DD
330
1E5
100
AcDbEntity
  8
0
  6
CONTINUOUS
 62
     7
100
AcDbVertex
100
AcDb2dVertex
 10
7.65370948
 20
7.6732233891
 30
0.0
  0
VERTEX
  5
3DE
330
1E5
100
AcDbEntity
  8
0
  6
CONTINUOUS
 62
     7
100
AcDbVertex
100
AcDb2dVertex
 10
7.6636343107
 20
7.6768234618
 30
0.0
  0
VERTEX
  5
3DF
330
1E5
100
AcDbEntity
  8
0
  6
CONTINUOUS
 62
     7
100
AcDbVertex
100
AcDb2dVertex
 10
7.6743777444
 20
7.6795293895
 30
0.0
  0
VERTEX
  5
3E0
330
1E5
100
AcDbEntity
  8
0
  6
CONTINUOUS
 62
     7
100
AcDbVertex
100
AcDb2dVertex
 10
7.6856997905
 20
7.6812807263
 30
0.0
  0
VERTEX
  5
3E1
330
1E5
100
AcDbEntity
  8
0
  6
CONTINUOUS
 62
     7
100
AcDbVertex
100
AcDb2dVertex
 10
7.6973475331
 20
7.6820383503
 30
0.0
  0
VERTEX
  5
3E2
330
1E5
100
AcDbEntity
  8
0
  6
CONTINUOUS
 62
     7
100
AcDbVertex
100
AcDb2dVertex
 10
7.709060781
 20
7.6817853373
 30
0.0
  0
VERTEX
  5
3E3
330
1E5
100
AcDbEntity
  8
0
  6
CONTINUOUS
 62
     7
100
AcDbVertex
100
AcDb2dVertex
 10
7.7205778795
 20
7.6805273393
 30
0.0
  0
VERTEX
  5
3E4
330
1E5
100
AcDbEntity
  8
0
  6
CONTINUOUS
 62
     7
100
AcDbVertex
100
AcDb2dVertex
 10
7.7316415556
 20
7.6782924578
 30
0.0
  0
VERTEX
  5
3E5
330
1E5
100
AcDbEntity
  8
0
  6
CONTINUOUS
 62
     7
100
AcDbVertex
100
AcDb2dVertex
 10
7.7420046652
 20
7.6751306165
 30
0.0
  0
VERTEX
  5
3E6
330
1E5
100
AcDbEntity
  8
0
  6
CONTINUOUS
 62
     7
100
AcDbVertex
100
AcDb2dVertex
 10
7.7514357135
 20
7.6711124455
 30
0.0
  0
VERTEX
  5
3E7
330
1E5
100
AcDbEntity
  8
0
  6
CONTINUOUS
 62
     7
100
AcDbVertex
100
AcDb2dVertex
 10
7.7597240265
 20
7.6663277043
 30
0.0
  0
VERTEX
  5
3E8
330
1E5
100
AcDbEntity
  8
0
  6
CONTINUOUS
 62
     7
100
AcDbVertex
100
AcDb2dVertex
 10
7.7666844569
 20
7.660883276
 30
0.0
  0
VERTEX
  5
3E9
330
1E5
100
AcDbEntity
  8
0
  6
CONTINUOUS
 62
     7
100
AcDbVertex
100
AcDb2dVertex
 10
7.7721615202
 20
7.6549007802
 30
0.0
  0
VERTEX
  5
3EA
330
1E5
100
AcDbEntity
  8
0
  6
CONTINUOUS
 62
     7
100
AcDbVertex
100
AcDb2dVertex
 10
7.776032868
 20
7.6485138559
 30
0.0
  0
VERTEX
  5
3EB
330
1E5
100
AcDbEntity
  8
0
  6
CONTINUOUS
 62
     7
100
AcDbVertex
100
AcDb2dVertex
 10
7.7782120206
 20
7.6418651764
 30
0.0
  0
VERTEX
  5
3EC
330
1E5
100
AcDbEntity
  8
0
  6
CONTINUOUS
 62
     7
100
AcDbVertex
100
AcDb2dVertex
 10
7.7786502994
 20
7.6351032624
 30
0.0
  0
VERTEX
  5
3ED
330
1E5
100
AcDbEntity
  8
0
  6
CONTINUOUS
 62
     7
100
AcDbVertex
100
AcDb2dVertex
 10
7.777337914
 20
7.6283791637
 30
0.0
  0
VERTEX
  5
3EE
330
1E5
100
AcDbEntity
  8
0
  6
CONTINUOUS
 62
     7
100
AcDbVertex
100
AcDb2dVertex
 10
7.7743041809
 20
7.6218430856
 30
0.0
  0
VERTEX
  5
3EF
330
1E5
100
AcDbEntity
  8
0
  6
CONTINUOUS
 62
     7
100
AcDbVertex
100
AcDb2dVertex
 10
7.7696168687
 20
7.6156410334
 30
0.0
  0
VERTEX
  5
3F0
330
1E5
100
AcDbEntity
  8
0
  6
CONTINUOUS
 62
     7
100
AcDbVertex
100
AcDb2dVertex
 10
7.7633806842
 20
7.6099115505
 30
0.0
  0
VERTEX
  5
3F1
330
1E5
100
AcDbEntity
  8
0
  6
CONTINUOUS
 62
     7
100
AcDbVertex
100
AcDb2dVertex
 10
7.7557349334
 20
7.6047826242
 30
0.0
  0
SEQEND
  5
3F2
330
1E5
100
AcDbEntity
  8
0
  6
CONTINUOUS
 62
     7
  0
LINE
  5
1E6
330
1F
100
AcDbEntity
  8
0
  6
CONTINUOUS
 62
     7
100
AcDbLine
 10
7.6389779593
 20
7.6462785303
 30
0.0
 11
7.6838541274
 21
7.6721849907
 31
0.0
  0
LINE
  5
1E7
330
1F
100
AcDbEntity
  8
0
  6
CONTINUOUS
 62
     7
100
AcDbLine
 10
7.6554037768
 20
7.6108896473
 30
0.0
 11
7.6389779593
 21
7.6462785303
 31
0.0
  0
LINE
  5
1E8
330
1F
100
AcDbEntity
  8
0
  6
CONTINUOUS
 62
     7
100
AcDbLine
 10
7.7167057624
 20
7.6014072246
 30
0.0
 11
7.6554037768
 21
7.6108896473
 31
0.0
  0
LINE
  5
1E9
330
1F
100
AcDbEntity
  8
0
  6
CONTINUOUS
 62
     7
100
AcDbLine
 10
7.7615819305
 20
7.627313685
 30
0.0
 11
7.7167057624
 21
7.6014072246
 31
0.0
  0
LINE
  5
1EA
330
1F
100
AcDbEntity
  8
0
  6
CONTINUOUS
 62
     7
100
AcDbLine
 10
7.745156113
 20
7.6627025681
 30
0.0
 11
7.7615819305
 21
7.627313685
 31
0.0
  0
LINE
  5
1EB
330
1F
100
AcDbEntity
  8
0
  6
CONTINUOUS
 62
     7
100
AcDbLine
 10
7.6838541274
 20
7.6721849907
 30
0.0
 11
7.745156113
 21
7.6627025681
 31
0.0
  0
LINE
  5
1EC
330
1F
100
AcDbEntity
  8
0
  6
CONTINUOUS
 62
     7
100
AcDbLine
 10
7.745156113
 20
7.6178312624
 30
0.0
 11
7.745156113
 21
7.6627025681
 31
0.0
  0
LINE
  5
1ED
330
1F
100
AcDbEntity
  8
0
  6
CONTINUOUS
 62
     7
100
AcDbLine
 10
7.6838541274
 20
7.6064888396
 30
0.0
 11
7.6838541274
 21
7.6721849907
 31
0.0
  0
POLYLINE
  5
1EE
330
1F
100
AcDbEntity
  8
0
  6
CONTINUOUS
 62
     7
100
AcDb2dPolyline
 66
     1
 10
0.0
 20
0.0
 30
0.0
  0
VERTEX
  5
3F3
330
1EE
100
AcDbEntity
  8
0
  6
CONTINUOUS
 62
     7
100
AcDbVertex
100
AcDb2dVertex
 10
8.716409266
 20
7.1142214485
 30
0.0
  0
VERTEX
  5
3F4
330
1EE
100
AcDbEntity
  8
0
  6
CONTINUOUS
 62
     7
100
AcDbVertex
100
AcDb2dVertex
 10
8.718684678
 20
7.112863009
 30
0.0
  0
VERTEX
  5
3F5
330
1EE
100
AcDbEntity
  8
0
  6
CONTINUOUS
 62
     7
100
AcDbVertex
100
AcDb2dVertex
 10
8.7270045317
 20
7.1069856063
 30
0.0
  0
VERTEX
  5
3F6
330
1EE
100
AcDbEntity
  8
0
  6
CONTINUOUS
 62
     7
100
AcDbVertex
100
AcDb2dVertex
 10
8.7338931485
 20
7.1005204744
 30
0.0
  0
VERTEX
  5
3F7
330
1EE
100
AcDbEntity
  8
0
  6
CONTINUOUS
 62
     7
100
AcDbVertex
100
AcDb2dVertex
 10
8.7392276009
 20
7.0935829836
 30
0.0
  0
VERTEX
  5
3F8
330
1EE
100
AcDbEntity
  8
0
  6
CONTINUOUS
 62
     7
100
AcDbVertex
100
AcDb2dVertex
 10
8.7429126955
 20
7.0862969336
 30
0.0
  0
VERTEX
  5
3F9
330
1EE
100
AcDbEntity
  8
0
  6
CONTINUOUS
 62
     7
100
AcDbVertex
100
AcDb2dVertex
 10
8.7448826715
 20
7.0787923442
 30
0.0
  0
VERTEX
  5
3FA
330
1EE
100
AcDbEntity
  8
0
  6
CONTINUOUS
 62
     7
100
AcDbVertex
100
AcDb2dVertex
 10
8.7451023749
 20
7.0712031349
 30
0.0
  0
VERTEX
  5
3FB
330
1EE
100
AcDbEntity
  8
0
  6
CONTINUOUS
 62
     7
100
AcDbVertex
100
AcDb2dVertex
 10
8.7435678849
 20
7.0636647353
 30
0.0
  0
VERTEX
  5
3FC
330
1EE
100
AcDbEntity
  8
0
  6
CONTINUOUS
 62
     7
100
AcDbVertex
100
AcDb2dVertex
 10
8.7403065846
 20
7.0563116685
 30
0.0
  0
VERTEX
  5
3FD
330
1EE
100
AcDbEntity
  8
0
  6
CONTINUOUS
 62
     7
100
AcDbVertex
100
AcDb2dVertex
 10
8.7353766719
 20
7.0492751499
 30
0.0
  0
VERTEX
  5
3FE
330
1EE
100
AcDbEntity
  8
0
  6
CONTINUOUS
 62
     7
100
AcDbVertex
100
AcDb2dVertex
 10
8.7288661213
 20
7.0426807465
 30
0.0
  0
VERTEX
  5
3FF
330
1EE
100
AcDbEntity
  8
0
  6
CONTINUOUS
 62
     7
100
AcDbVertex
100
AcDb2dVertex
 10
8.7208911136
 20
7.0366461356
 30
0.0
  0
VERTEX
  5
400
330
1EE
100
AcDbEntity
  8
0
  6
CONTINUOUS
 62
     7
100
AcDbVertex
100
AcDb2dVertex
 10
8.7186170699
 20
7.0351961305
 30
0.0
  0
SEQEND
  5
401
330
1EE
100
AcDbEntity
  8
0
  6
CONTINUOUS
 62
     7
  0
POLYLINE
  5
1EF
330
1F
100
AcDbEntity
  8
0
  6
CONTINUOUS
 62
     7
100
AcDb2dPolyline
 66
     1
 10
0.0
 20
0.0
 30
0.0
  0
VERTEX
  5
402
330
1EF
100
AcDbEntity
  8
0
  6
CONTINUOUS
 62
     7
100
AcDbVertex
100
AcDb2dVertex
 10
8.6649005025
 20
7.0181997402
 30
0.0
  0
VERTEX
  5
403
330
1EF
100
AcDbEntity
  8
0
  6
CONTINUOUS
 62
     7
100
AcDbVertex
100
AcDb2dVertex
 10
8.6647913045
 20
7.0181879835
 30
0.0
  0
VERTEX
  5
404
330
1EF
100
AcDbEntity
  8
0
  6
CONTINUOUS
 62
     7
100
AcDbVertex
100
AcDb2dVertex
 10
8.6517329986
 20
7.0173021413
 30
0.0
  0
VERTEX
  5
405
330
1EF
100
AcDbEntity
  8
0
  6
CONTINUOUS
 62
     7
100
AcDbVertex
100
AcDb2dVertex
 10
8.6385866781
 20
7.0174289733
 30
0.0
  0
VERTEX
  5
406
330
1EF
100
AcDbEntity
  8
0
  6
CONTINUOUS
 62
     7
100
AcDbVertex
100
AcDb2dVertex
 10
8.6255869394
 20
7.0185662163
 30
0.0
  0
VERTEX
  5
407
330
1EF
100
AcDbEntity
  8
0
  6
CONTINUOUS
 62
     7
100
AcDbVertex
100
AcDb2dVertex
 10
8.6129657631
 20
7.0206935761
 30
0.0
  0
VERTEX
  5
408
330
1EF
100
AcDbEntity
  8
0
  6
CONTINUOUS
 62
     7
100
AcDbVertex
100
AcDb2dVertex
 10
8.6009483744
 20
7.0237730899
 30
0.0
  0
VERTEX
  5
409
330
1EF
100
AcDbEntity
  8
0
  6
CONTINUOUS
 62
     7
100
AcDbVertex
100
AcDb2dVertex
 10
8.589749224
 20
7.0277498038
 30
0.0
  0
VERTEX
  5
40A
330
1EF
100
AcDbEntity
  8
0
  6
CONTINUOUS
 62
     7
100
AcDbVertex
100
AcDb2dVertex
 10
8.5795681608
 20
7.0325527531
 30
0.0
  0
VERTEX
  5
40B
330
1EF
100
AcDbEntity
  8
0
  6
CONTINUOUS
 62
     7
100
AcDbVertex
100
AcDb2dVertex
 10
8.5705868663
 20
7.0380962291
 30
0.0
  0
VERTEX
  5
40C
330
1EF
100
AcDbEntity
  8
0
  6
CONTINUOUS
 62
     7
100
AcDbVertex
100
AcDb2dVertex
 10
8.5629656119
 20
7.0442813085
 30
0.0
  0
VERTEX
  5
40D
330
1EF
100
AcDbEntity
  8
0
  6
CONTINUOUS
 62
     7
100
AcDbVertex
100
AcDb2dVertex
 10
8.5568403989
 20
7.0509976182
 30
0.0
  0
VERTEX
  5
40E
330
1EF
100
AcDbEntity
  8
0
  6
CONTINUOUS
 62
     7
100
AcDbVertex
100
AcDb2dVertex
 10
8.552320532
 20
7.0581253056
 30
0.0
  0
VERTEX
  5
40F
330
1EF
100
AcDbEntity
  8
0
  6
CONTINUOUS
 62
     7
100
AcDbVertex
100
AcDb2dVertex
 10
8.5494866684
 20
7.0655371769
 30
0.0
  0
VERTEX
  5
410
330
1EF
100
AcDbEntity
  8
0
  6
CONTINUOUS
 62
     7
100
AcDbVertex
100
AcDb2dVertex
 10
8.5483893783
 20
7.0731009671
 30
0.0
  0
VERTEX
  5
411
330
1EF
100
AcDbEntity
  8
0
  6
CONTINUOUS
 62
     7
100
AcDbVertex
100
AcDb2dVertex
 10
8.5490482429
 20
7.0806817002
 30
0.0
  0
VERTEX
  5
412
330
1EF
100
AcDbEntity
  8
0
  6
CONTINUOUS
 62
     7
100
AcDbVertex
100
AcDb2dVertex
 10
8.5514515049
 20
7.0881440979
 30
0.0
  0
VERTEX
  5
413
330
1EF
100
AcDbEntity
  8
0
  6
CONTINUOUS
 62
     7
100
AcDbVertex
100
AcDb2dVertex
 10
8.5555562778
 20
7.0953549934
 30
0.0
  0
VERTEX
  5
414
330
1EF
100
AcDbEntity
  8
0
  6
CONTINUOUS
 62
     7
100
AcDbVertex
100
AcDb2dVertex
 10
8.561289312
 20
7.1021857082
 30
0.0
  0
VERTEX
  5
415
330
1EF
100
AcDbEntity
  8
0
  6
CONTINUOUS
 62
     7
100
AcDbVertex
100
AcDb2dVertex
 10
8.5685483014
 20
7.1085143479
 30
0.0
  0
VERTEX
  5
416
330
1EF
100
AcDbEntity
  8
0
  6
CONTINUOUS
 62
     7
100
AcDbVertex
100
AcDb2dVertex
 10
8.577203709
 20
7.114227978
 30
0.0
  0
SEQEND
  5
417
330
1EF
100
AcDbEntity
  8
0
  6
CONTINUOUS
 62
     7
  0
POLYLINE
  5
1F0
330
1F
100
AcDbEntity
  8
0
  6
CONTINUOUS
 62
     7
100
AcDb2dPolyline
 66
     1
 10
0.0
 20
0.0
 30
0.0
  0
VERTEX
  5
418
330
1F0
100
AcDbEntity
  8
0
  6
CONTINUOUS
 62
     7
100
AcDbVertex
100
AcDb2dVertex
 10
8.5913458446
 20
7.1223947131
 30
0.0
  0
VERTEX
  5
419
330
1F0
100
AcDbEntity
  8
0
  6
CONTINUOUS
 62
     7
100
AcDbVertex
100
AcDb2dVertex
 10
8.5837000938
 20
7.1172657868
 30
0.0
  0
VERTEX
  5
41A
330
1F0
100
AcDbEntity
  8
0
  6
CONTINUOUS
 62
     7
100
AcDbVertex
100
AcDb2dVertex
 10
8.5774639093
 20
7.111536304
 30
0.0
  0
VERTEX
  5
41B
330
1F0
100
AcDbEntity
  8
0
  6
CONTINUOUS
 62
     7
100
AcDbVertex
100
AcDb2dVertex
 10
8.5727765971
 20
7.1053342517
 30
0.0
  0
VERTEX
  5
41C
330
1F0
100
AcDbEntity
  8
0
  6
CONTINUOUS
 62
     7
100
AcDbVertex
100
AcDb2dVertex
 10
8.569742864
 20
7.0987981736
 30
0.0
  0
VERTEX
  5
41D
330
1F0
100
AcDbEntity
  8
0
  6
CONTINUOUS
 62
     7
100
AcDbVertex
100
AcDb2dVertex
 10
8.5684304786
 20
7.092074075
 30
0.0
  0
VERTEX
  5
41E
330
1F0
100
AcDbEntity
  8
0
  6
CONTINUOUS
 62
     7
100
AcDbVertex
100
AcDb2dVertex
 10
8.5688687574
 20
7.0853121609
 30
0.0
  0
VERTEX
  5
41F
330
1F0
100
AcDbEntity
  8
0
  6
CONTINUOUS
 62
     7
100
AcDbVertex
100
AcDb2dVertex
 10
8.57104791
 20
7.0786634815
 30
0.0
  0
VERTEX
  5
420
330
1F0
100
AcDbEntity
  8
0
  6
CONTINUOUS
 62
     7
100
AcDbVertex
100
AcDb2dVertex
 10
8.5749192578
 20
7.0722765572
 30
0.0
  0
VERTEX
  5
421
330
1F0
100
AcDbEntity
  8
0
  6
CONTINUOUS
 62
     7
100
AcDbVertex
100
AcDb2dVertex
 10
8.5803963211
 20
7.0662940613
 30
0.0
  0
VERTEX
  5
422
330
1F0
100
AcDbEntity
  8
0
  6
CONTINUOUS
 62
     7
100
AcDbVertex
100
AcDb2dVertex
 10
8.5873567515
 20
7.060849633
 30
0.0
  0
VERTEX
  5
423
330
1F0
100
AcDbEntity
  8
0
  6
CONTINUOUS
 62
     7
100
AcDbVertex
100
AcDb2dVertex
 10
8.5956450645
 20
7.0560648918
 30
0.0
  0
VERTEX
  5
424
330
1F0
100
AcDbEntity
  8
0
  6
CONTINUOUS
 62
     7
100
AcDbVertex
100
AcDb2dVertex
 10
8.6050761128
 20
7.0520467209
 30
0.0
  0
VERTEX
  5
425
330
1F0
100
AcDbEntity
  8
0
  6
CONTINUOUS
 62
     7
100
AcDbVertex
100
AcDb2dVertex
 10
8.6154392224
 20
7.0488848795
 30
0.0
  0
VERTEX
  5
426
330
1F0
100
AcDbEntity
  8
0
  6
CONTINUOUS
 62
     7
100
AcDbVertex
100
AcDb2dVertex
 10
8.6265028985
 20
7.046649998
 30
0.0
  0
VERTEX
  5
427
330
1F0
100
AcDbEntity
  8
0
  6
CONTINUOUS
 62
     7
100
AcDbVertex
100
AcDb2dVertex
 10
8.638019997
 20
7.045392
 30
0.0
  0
VERTEX
  5
428
330
1F0
100
AcDbEntity
  8
0
  6
CONTINUOUS
 62
     7
100
AcDbVertex
100
AcDb2dVertex
 10
8.6497332449
 20
7.045138987
 30
0.0
  0
VERTEX
  5
429
330
1F0
100
AcDbEntity
  8
0
  6
CONTINUOUS
 62
     7
100
AcDbVertex
100
AcDb2dVertex
 10
8.6613809875
 20
7.045896611
 30
0.0
  0
VERTEX
  5
42A
330
1F0
100
AcDbEntity
  8
0
  6
CONTINUOUS
 62
     7
100
AcDbVertex
100
AcDb2dVertex
 10
8.6727030336
 20
7.0476479478
 30
0.0
  0
VERTEX
  5
42B
330
1F0
100
AcDbEntity
  8
0
  6
CONTINUOUS
 62
     7
100
AcDbVertex
100
AcDb2dVertex
 10
8.6834464673
 20
7.0503538756
 30
0.0
  0
VERTEX
  5
42C
330
1F0
100
AcDbEntity
  8
0
  6
CONTINUOUS
 62
     7
100
AcDbVertex
100
AcDb2dVertex
 10
8.693371298
 20
7.0539539483
 30
0.0
  0
VERTEX
  5
42D
330
1F0
100
AcDbEntity
  8
0
  6
CONTINUOUS
 62
     7
100
AcDbVertex
100
AcDb2dVertex
 10
8.7022558216
 20
7.0583677462
 30
0.0
  0
VERTEX
  5
42E
330
1F0
100
AcDbEntity
  8
0
  6
CONTINUOUS
 62
     7
100
AcDbVertex
100
AcDb2dVertex
 10
8.7099015724
 20
7.0634966725
 30
0.0
  0
VERTEX
  5
42F
330
1F0
100
AcDbEntity
  8
0
  6
CONTINUOUS
 62
     7
100
AcDbVertex
100
AcDb2dVertex
 10
8.7161377569
 20
7.0692261554
 30
0.0
  0
VERTEX
  5
430
330
1F0
100
AcDbEntity
  8
0
  6
CONTINUOUS
 62
     7
100
AcDbVertex
100
AcDb2dVertex
 10
8.7208250691
 20
7.0754282076
 30
0.0
  0
VERTEX
  5
431
330
1F0
100
AcDbEntity
  8
0
  6
CONTINUOUS
 62
     7
100
AcDbVertex
100
AcDb2dVertex
 10
8.7238588022
 20
7.0819642857
 30
0.0
  0
VERTEX
  5
432
330
1F0
100
AcDbEntity
  8
0
  6
CONTINUOUS
 62
     7
100
AcDbVertex
100
AcDb2dVertex
 10
8.7251711876
 20
7.0886883844
 30
0.0
  0
VERTEX
  5
433
330
1F0
100
AcDbEntity
  8
0
  6
CONTINUOUS
 62
     7
100
AcDbVertex
100
AcDb2dVertex
 10
8.7247329088
 20
7.0954502984
 30
0.0
  0
VERTEX
  5
434
330
1F0
100
AcDbEntity
  8
0
  6
CONTINUOUS
 62
     7
100
AcDbVertex
100
AcDb2dVertex
 10
8.7225537562
 20
7.1020989779
 30
0.0
  0
VERTEX
  5
435
330
1F0
100
AcDbEntity
  8
0
  6
CONTINUOUS
 62
     7
100
AcDbVertex
100
AcDb2dVertex
 10
8.7186824084
 20
7.1084859022
 30
0.0
  0
VERTEX
  5
436
330
1F0
100
AcDbEntity
  8
0
  6
CONTINUOUS
 62
     7
100
AcDbVertex
100
AcDb2dVertex
 10
8.7132053451
 20
7.114468398
 30
0.0
  0
VERTEX
  5
437
330
1F0
100
AcDbEntity
  8
0
  6
CONTINUOUS
 62
     7
100
AcDbVertex
100
AcDb2dVertex
 10
8.7062449147
 20
7.1199128263
 30
0.0
  0
VERTEX
  5
438
330
1F0
100
AcDbEntity
  8
0
  6
CONTINUOUS
 62
     7
100
AcDbVertex
100
AcDb2dVertex
 10
8.6979566017
 20
7.1246975675
 30
0.0
  0
VERTEX
  5
439
330
1F0
100
AcDbEntity
  8
0
  6
CONTINUOUS
 62
     7
100
AcDbVertex
100
AcDb2dVertex
 10
8.6885255534
 20
7.1287157385
 30
0.0
  0
VERTEX
  5
43A
330
1F0
100
AcDbEntity
  8
0
  6
CONTINUOUS
 62
     7
100
AcDbVertex
100
AcDb2dVertex
 10
8.6781624438
 20
7.1318775798
 30
0.0
  0
VERTEX
  5
43B
330
1F0
100
AcDbEntity
  8
0
  6
CONTINUOUS
 62
     7
100
AcDbVertex
100
AcDb2dVertex
 10
8.6670987677
 20
7.1341124613
 30
0.0
  0
VERTEX
  5
43C
330
1F0
100
AcDbEntity
  8
0
  6
CONTINUOUS
 62
     7
100
AcDbVertex
100
AcDb2dVertex
 10
8.6555816692
 20
7.1353704593
 30
0.0
  0
VERTEX
  5
43D
330
1F0
100
AcDbEntity
  8
0
  6
CONTINUOUS
 62
     7
100
AcDbVertex
100
AcDb2dVertex
 10
8.6438684213
 20
7.1356234723
 30
0.0
  0
VERTEX
  5
43E
330
1F0
100
AcDbEntity
  8
0
  6
CONTINUOUS
 62
     7
100
AcDbVertex
100
AcDb2dVertex
 10
8.6322206787
 20
7.1348658483
 30
0.0
  0
VERTEX
  5
43F
330
1F0
100
AcDbEntity
  8
0
  6
CONTINUOUS
 62
     7
100
AcDbVertex
100
AcDb2dVertex
 10
8.6208986327
 20
7.1331145115
 30
0.0
  0
VERTEX
  5
440
330
1F0
100
AcDbEntity
  8
0
  6
CONTINUOUS
 62
     7
100
AcDbVertex
100
AcDb2dVertex
 10
8.6101551989
 20
7.1304085838
 30
0.0
  0
VERTEX
  5
441
330
1F0
100
AcDbEntity
  8
0
  6
CONTINUOUS
 62
     7
100
AcDbVertex
100
AcDb2dVertex
 10
8.6002303682
 20
7.1268085111
 30
0.0
  0
VERTEX
  5
442
330
1F0
100
AcDbEntity
  8
0
  6
CONTINUOUS
 62
     7
100
AcDbVertex
100
AcDb2dVertex
 10
8.5913458446
 20
7.1223947131
 30
0.0
  0
SEQEND
  5
443
330
1F0
100
AcDbEntity
  8
0
  6
CONTINUOUS
 62
     7
  0
LINE
  5
1F1
330
1F
100
AcDbEntity
  8
0
  6
CONTINUOUS
 62
     7
100
AcDbLine
 10
8.6916770012
 20
7.1162876901
 30
0.0
 11
8.6303750156
 21
7.1257701127
 31
0.0
  0
LINE
  5
1F2
330
1F
100
AcDbEntity
  8
0
  6
CONTINUOUS
 62
     7
100
AcDbLine
 10
8.6303750156
 20
7.1257701127
 30
0.0
 11
8.5854988475
 21
7.0998636523
 31
0.0
  0
LINE
  5
1F3
330
1F
100
AcDbEntity
  8
0
  6
CONTINUOUS
 62
     7
100
AcDbLine
 10
8.5854988475
 20
7.0998636523
 30
0.0
 11
8.601924665
 21
7.0644747693
 31
0.0
  0
LINE
  5
1F4
330
1F
100
AcDbEntity
  8
0
  6
CONTINUOUS
 62
     7
100
AcDbLine
 10
8.601924665
 20
7.0644747693
 30
0.0
 11
8.6632266506
 21
7.0549923466
 31
0.0
  0
LINE
  5
1F5
330
1F
100
AcDbEntity
  8
0
  6
CONTINUOUS
 62
     7
100
AcDbLine
 10
8.6632266506
 20
7.0549923466
 30
0.0
 11
8.7081028187
 21
7.080898807
 31
0.0
  0
LINE
  5
1F6
330
1F
100
AcDbEntity
  8
0
  6
CONTINUOUS
 62
     7
100
AcDbLine
 10
8.7081028187
 20
7.080898807
 30
0.0
 11
8.6916770012
 21
7.1162876901
 31
0.0
  0
LINE
  5
1F7
330
1F
100
AcDbEntity
  8
0
  6
CONTINUOUS
 62
     7
100
AcDbLine
 10
8.6916770012
 20
7.0714163844
 30
0.0
 11
8.6916770012
 21
7.1162876901
 31
0.0
  0
LINE
  5
1F8
330
1F
100
AcDbEntity
  8
0
  6
CONTINUOUS
 62
     7
100
AcDbLine
 10
8.6303750156
 20
7.0600739616
 30
0.0
 11
8.6303750156
 21
7.1257701127
 31
0.0
  0
ENDSEC
  0
SECTION
  2
OBJECTS
  0
DICTIONARY
  5
C
330
0
100
AcDbDictionary
  3
ACAD_GROUP
350
D
  3
ACAD_LAYOUT
350
1A
  3
ACAD_MLEADERSTYLE
350
1FB
  3
ACAD_MLINESTYLE
350
17
  3
ACAD_PLOTSETTINGS
350
19
  3
ACAD_SCALELIST
350
6F
  3
ACAD_VISUALSTYLE
350
2A
  3
ACDBVARIABLEDICTIONARY
350
1F9
1001
ACAD
1000
TREAT_AS_HARD
1070
     0
  0
DICTIONARY
  5
D
102
{ACAD_REACTORS
330
C
102
}
330
C
100
AcDbDictionary
1001
ACAD
1000
TREAT_AS_HARD
1070
     0
  0
DICTIONARY
  5
1A
102
{ACAD_REACTORS
330
C
102
}
330
C
100
AcDbDictionary
1001
ACAD
1000
TREAT_AS_HARD
1070
     0
  0
DICTIONARY
  5
1FB
102
{ACAD_REACTORS
330
C
102
}
330
C
100
AcDbDictionary
1001
ACAD
1000
TREAT_AS_HARD
1070
     0
  0
DICTIONARY
  5
17
102
{ACAD_REACTORS
330
C
102
}
330
C
100
AcDbDictionary
  3
STANDARD
350
18
1001
ACAD
1000
TREAT_AS_HARD
1070
     0
  0
DICTIONARY
  5
19
102
{ACAD_REACTORS
330
C
102
}
330
C
100
AcDbDictionary
1001
ACAD
1000
TREAT_AS_HARD
1070
     0
  0
DICTIONARY
  5
6F
102
{ACAD_REACTORS
330
C
102
}
330
C
100
AcDbDictionary
  3
A0
350
70
  3
A1
350
71
  3
A2
350
72
  3
A3
350
73
  3
A4
350
74
  3
A5
350
75
  3
A6
350
76
  3
A7
350
77
  3
A8
350
78
  3
A9
350
79
  3
B0
350
7A
  3
B1
350
7B
  3
B2
350
7C
  3
B3
350
7D
  3
B4
350
7E
  3
B5
350
7F
  3
B6
350
80
  3
B7
350
81
  3
B8
350
82
  3
B9
350
83
  3
C0
350
84
  3
C1
350
85
  3
C2
350
86
  3
C3
350
87
  3
C4
350
88
  3
C5
350
89
  3
C6
350
8A
  3
C7
350
8B
  3
C8
350
8C
  3
C9
350
8D
  3
D0
350
8E
  3
D1
350
8F
  3
D2
350
90
1001
ACAD
1000
TREAT_AS_HARD
1070
     0
  0
DICTIONARY
  5
2A
102
{ACAD_REACTORS
330
C
102
}
330
C
100
AcDbDictionary
  3
2DWIREFRAME
350
2F
  3
3D_HIDDEN
350
31
  3
3DWIREFRAME
350
30
  3
BASIC
350
32
  3
BRIGHTEN
350
36
  3
COLORCHANGE
350
3A
  3
CONCEPTUAL
350
34
  3
DIM
350
35
  3
FACEPATTERN
350
39
  3
FLAT
350
2B
  3
FLATWITHEDGES
350
2C
  3
GOURAUD
350
2D
  3
GOURAUDWITHEDGES
350
2E
  3
LINEPATTERN
350
38
  3
REALISTIC
350
33
  3
THICKEN
350
37
1001
ACAD
1000
TREAT_AS_HARD
1070
     0
  0
DICTIONARY
  5
1F9
102
{ACAD_REACTORS
330
C
102
}
330
C
100
AcDbDictionary
  3
CANNOSCALE
350
1FC
  3
DIMASSOC
350
1FD
  3
HIDETEXT
350
1FE
1001
ACAD
1000
TREAT_AS_HARD
1070
     0
  0
MLINESTYLE
  5
18
102
{ACAD_REACTORS
330
17
102
}
330
17
100
AcDbMlineStyle
  2
Standard
 70
     0
  3

 62
   256
 51
90.0
 52
90.0
 71
     2
 49
0.5
 62
   256
  6
BYLAYER
 49
-0.5
 62
   256
  6
BYLAYER
  0
ACAD_PROXY_OBJECT
  5
70
102
{ACAD_REACTORS
330
6F
102
}
330
6F
100
AcDbZombieObject
 90
      499
 91
      502
 93
       41
310
903313A31580
  0
ACAD_PROXY_OBJECT
  5
71
102
{ACAD_REACTORS
330
6F
102
}
330
6F
100
AcDbZombieObject
 90
      499
 91
      502
 93
      105
310
903313A324000000000000004000
  0
ACAD_PROXY_OBJECT
  5
72
102
{ACAD_REACTORS
330
6F
102
}
330
6F
100
AcDbZombieObject
 90
      499
 91
      502
 93
      105
310
903313A344000000000000104000
  0
ACAD_PROXY_OBJECT
  5
73
102
{ACAD_REACTORS
330
6F
102
}
330
6F
100
AcDbZombieObject
 90
      499
 91
      502
 93
      105
310
903313A354000000000000144000
  0
ACAD_PROXY_OBJECT
  5
74
102
{ACAD_REACTORS
330
6F
102
}
330
6F
100
AcDbZombieObject
 90
      499
 91
      502
 93
      105
310
903313A384000000000000204000
  0
ACAD_PROXY_OBJECT
  5
75
102
{ACAD_REACTORS
330
6F
102
}
330
6F
100
AcDbZombieObject
 90
      499
 91
      502
 93
      113
310
904313A31304000000000000244000
  0
ACAD_PROXY_OBJECT
  5
76
102
{ACAD_REACTORS
330
6F
102
}
330
6F
100
AcDbZombieObject
 90
      499
 91
      502
 93
      113
310
904313A31364000000000000304000
  0
ACAD_PROXY_OBJECT
  5
77
102
{ACAD_REACTORS
330
6F
102
}
330
6F
100
AcDbZombieObject
 90
      499
 91
      502
 93
      113
310
904313A32304000000000000344000
  0
ACAD_PROXY_OBJECT
  5
78
102
{ACAD_REACTORS
330
6F
102
}
330
6F
100
AcDbZombieObject
 90
      499
 91
      502
 93
      113
310
904313A333040000000000003E4000
  0
ACAD_PROXY_OBJECT
  5
79
102
{ACAD_REACTORS
330
6F
102
}
330
6F
100
AcDbZombieObject
 90
      499
 91
      502
 93
      113
310
904313A34304000000000000444000
  0
ACAD_PROXY_OBJECT
  5
7A
102
{ACAD_REACTORS
330
6F
102
}
330
6F
100
AcDbZombieObject
 90
      499
 91
      502
 93
      113
310
904313A35304000000000000494000
  0
ACAD_PROXY_OBJECT
  5
7B
102
{ACAD_REACTORS
330
6F
102
}
330
6F
100
AcDbZombieObject
 90
      499
 91
      502
 93
      121
310
905313A3130304000000000000594000
  0
ACAD_PROXY_OBJECT
  5
7C
102
{ACAD_REACTORS
330
6F
102
}
330
6F
100
AcDbZombieObject
 90
      499
 91
      502
 93
      105
310
903323A310000000000000010100
  0
ACAD_PROXY_OBJECT
  5
7D
102
{ACAD_REACTORS
330
6F
102
}
330
6F
100
AcDbZombieObject
 90
      499
 91
      502
 93
      105
310
903343A310000000000000410100
  0
ACAD_PROXY_OBJECT
  5
7E
102
{ACAD_REACTORS
330
6F
102
}
330
6F
100
AcDbZombieObject
 90
      499
 91
      502
 93
      105
310
903383A310000000000000810100
  0
ACAD_PROXY_OBJECT
  5
7F
102
{ACAD_REACTORS
330
6F
102
}
330
6F
100
AcDbZombieObject
 90
      499
 91
      502
 93
      113
310
90431303A310000000000000910100
  0
ACAD_PROXY_OBJECT
  5
80
102
{ACAD_REACTORS
330
6F
102
}
330
6F
100
AcDbZombieObject
 90
      499
 91
      502
 93
      121
310
9053130303A310000000000001650100
  0
ACAD_PROXY_OBJECT
  5
81
102
{ACAD_REACTORS
330
6F
102
}
330
6F
100
AcDbZombieObject
 90
      499
 91
      502
 93
      257
310
90E312F31323822203D2031272D3022000000000000200FC000000000000284000
  0
ACAD_PROXY_OBJECT
  5
82
102
{ACAD_REACTORS
330
6F
102
}
330
6F
100
AcDbZombieObject
 90
      499
 91
      502
 93
      249
310
90D312F363422203D2031272D3022000000000000240FC000000000000284000
  0
ACAD_PROXY_OBJECT
  5
83
102
{ACAD_REACTORS
330
6F
102
}
330
6F
100
AcDbZombieObject
 90
      499
 91
      502
 93
      249
310
90D312F333222203D2031272D3022000000000000280FC000000000000284000
  0
ACAD_PROXY_OBJECT
  5
84
102
{ACAD_REACTORS
330
6F
102
}
330
6F
100
AcDbZombieObject
 90
      499
 91
      502
 93
      249
310
90D312F313622203D2031272D30220000000000002C0FC000000000000284000
  0
ACAD_PROXY_OBJECT
  5
85
102
{ACAD_REACTORS
330
6F
102
}
330
6F
100
AcDbZombieObject
 90
      499
 91
      502
 93
      249
310
90D332F333222203D2031272D30220000000000002E0FC000000000000284000
  0
ACAD_PROXY_OBJECT
  5
86
102
{ACAD_REACTORS
330
6F
102
}
330
6F
100
AcDbZombieObject
 90
      499
 91
      502
 93
      241
310
90C312F3822203D2031272D3022000000000000300FC000000000000284000
  0
ACAD_PROXY_OBJECT
  5
87
102
{ACAD_REACTORS
330
6F
102
}
330
6F
100
AcDbZombieObject
 90
      499
 91
      502
 93
      249
310
90D332F313622203D2031272D3022000000000000320FC000000000000284000
  0
ACAD_PROXY_OBJECT
  5
88
102
{ACAD_REACTORS
330
6F
102
}
330
6F
100
AcDbZombieObject
 90
      499
 91
      502
 93
      241
310
90C312F3422203D2031272D3022000000000000340FC000000000000284000
  0
ACAD_PROXY_OBJECT
  5
89
102
{ACAD_REACTORS
330
6F
102
}
330
6F
100
AcDbZombieObject
 90
      499
 91
      502
 93
      241
310
90C332F3822203D2031272D3022000000000000360FC000000000000284000
  0
ACAD_PROXY_OBJECT
  5
8A
102
{ACAD_REACTORS
330
6F
102
}
330
6F
100
AcDbZombieObject
 90
      499
 91
      502
 93
      241
310
90C312F3222203D2031272D3022000000000000380FC000000000000284000
  0
ACAD_PROXY_OBJECT
  5
8B
102
{ACAD_REACTORS
330
6F
102
}
330
6F
100
AcDbZombieObject
 90
      499
 91
      502
 93
      241
310
90C332F3422203D2031272D30220000000000003A0FC000000000000284000
  0
ACAD_PROXY_OBJECT
  5
8C
102
{ACAD_REACTORS
330
6F
102
}
330
6F
100
AcDbZombieObject
 90
      499
 91
      502
 93
      161
310
90A3122203D2031272D30224000000000000284000
  0
ACAD_PROXY_OBJECT
  5
8D
102
{ACAD_REACTORS
330
6F
102
}
330
6F
100
AcDbZombieObject
 90
      499
 91
      502
 93
      257
310
90E312D312F3222203D2031272D30220000000000003E0FC000000000000284000
  0
ACAD_PROXY_OBJECT
  5
8E
102
{ACAD_REACTORS
330
6F
102
}
330
6F
100
AcDbZombieObject
 90
      499
 91
      502
 93
      225
310
90A3322203D2031272D302200000000000002100000000000000284000
  0
ACAD_PROXY_OBJECT
  5
8F
102
{ACAD_REACTORS
330
6F
102
}
330
6F
100
AcDbZombieObject
 90
      499
 91
      502
 93
      225
310
90A3622203D2031272D302200000000000006100000000000000284000
  0
ACAD_PROXY_OBJECT
  5
90
102
{ACAD_REACTORS
330
6F
102
}
330
6F
100
AcDbZombieObject
 90
      499
 91
      502
 93
      249
310
90D31272D3022203D2031272D30220000000000000A100000000000000284000
  0
ACAD_PROXY_OBJECT
  5
2F
102
{ACAD_REACTORS
330
2A
102
}
330
2A
100
AcDbZombieObject
 90
      499
 91
      501
 93
      436
310
42CC9915DA5C99599C985B595049028333333333333E3BF0000000000000FB0107901411070040501600405405064090741402480A0340
1001
ACAD
1000
AcDbSavedByObjectVersion
1070
     0
  0
ACAD_PROXY_OBJECT
  5
31
102
{ACAD_REACTORS
330
2A
102
}
330
2A
100
AcDbZombieObject
 90
      499
 91
      501
 93
      500
310
424CD108121A5919195B90640502408333333333333E3BF0000000000000FB01079024090700405020000000000001110200405405064090740C02480A0340
1001
ACAD
1000
AcDbSavedByObjectVersion
1070
     0
  0
ACAD_PROXY_OBJECT
  5
30
102
{ACAD_REACTORS
330
2A
102
}
330
2A
100
AcDbZombieObject
 90
      499
 91
      501
 93
      436
310
42CCD915DA5C99599C985B595059028333333333333E3BF0000000000000FB0107901411070040501600405405064090741402480A0340
1001
ACAD
1000
AcDbSavedByObjectVersion
1070
     0
  0
ACAD_PROXY_OBJECT
  5
32
102
{ACAD_REACTORS
330
2A
102
}
330
2A
100
AcDbZombieObject
 90
      499
 91
      501
 93
      388
310
4150985CDA58D07406404333333333333E3BF0000000000000FB0107A41107004050150841D405064090741402480A0350
1001
ACAD
1000
AcDbSavedByObjectVersion
1070
     0
  0
ACAD_PROXY_OBJECT
  5
36
102
{ACAD_REACTORS
330
2A
102
}
330
2A
100
AcDbZombieObject
 90
      499
 91
      501
 93
      428
310
42109C9A59DA1D195B90C409028333333333333E3BF0000000000000FB010790141107004050150841D405064090741402480A029950
1001
ACAD
1000
AcDbSavedByObjectVersion
1070
     0
  0
ACAD_PROXY_OBJECT
  5
3A
102
{ACAD_REACTORS
330
2A
102
}
330
2A
100
AcDbZombieObject
 90
      499
 91
      501
 93
      452
310
42D0DBDB1BDC90DA185B99D95104090240C333333333333E3BF0000000000000FB0108901411070040501508421405064090741402480A0350
1001
ACAD
1000
AcDbSavedByObjectVersion
1070
     0
  0
ACAD_PROXY_OBJECT
  5
34
102
{ACAD_REACTORS
330
2A
102
}
330
2A
100
AcDbZombieObject
 90
      499
 91
      501
 93
      500
310
4290DBDB98D95C1D1D585B10940D028333333333333E3BF0000000000000FB0107902409070040501000000000000111010841D405064090740C02480A0340
1001
ACAD
1000
AcDbSavedByObjectVersion
1070
     0
  0
ACAD_PROXY_OBJECT
  5
35
102
{ACAD_REACTORS
330
2A
102
}
330
2A
100
AcDbZombieObject
 90
      499
 91
      501
 93
      412
310
40D11A5B50B409028333333333333E3BF0000000000000FB010790141107004050150841D405064090741402480A02677FFFFFD0
1001
ACAD
1000
AcDbSavedByObjectVersion
1070
     0
  0
ACAD_PROXY_OBJECT
  5
39
102
{ACAD_REACTORS
330
2A
102
}
330
2A
100
AcDbZombieObject
 90
      499
 91
      501
 93
      444
310
42D19858D95C185D1D195C9B90F409028333333333333E3BF0000000000000FB010790141107004050150841D405064090741402480A0350
1001
ACAD
1000
AcDbSavedByObjectVersion
1070
     0
  0
ACAD_PROXY_OBJECT
  5
2B
102
{ACAD_REACTORS
330
2A
102
}
330
2A
100
AcDbZombieObject
 90
      499
 91
      501
 93
      388
310
41119B185D240901404333333333333E3BF0000000000000F9010740A41107004050150841D405064090741402480A1B50
1001
ACAD
1000
AcDbSavedByObjectVersion
1070
     0
  0
ACAD_PROXY_OBJECT
  5
2C
102
{ACAD_REACTORS
330
2A
102
}
330
2A
100
AcDbZombieObject
 90
      499
 91
      501
 93
      476
310
43519B185D15DA5D1A115919D95CD0140901404333333333333E3BF0000000000000F9010740901411070040501600405405064090741402480A1B50
1001
ACAD
1000
AcDbSavedByObjectVersion
1070
     0
  0
ACAD_PROXY_OBJECT
  5
2D
102
{ACAD_REACTORS
330
2A
102
}
330
2A
100
AcDbZombieObject
 90
      499
 91
      501
 93
      412
310
41D1DBDD5C985D5910240902404333333333333E3BF0000000000000F9010740A411070040501641D405064090741402480A1B50
1001
ACAD
1000
AcDbSavedByObjectVersion
1070
     0
  0
ACAD_PROXY_OBJECT
  5
2E
102
{ACAD_REACTORS
330
2A
102
}
330
2A
100
AcDbZombieObject
 90
      499
 91
      501
 93
      500
310
4411DBDD5C985D5915DA5D1A115919D95CD0340902404333333333333E3BF0000000000000F9010740901411070040501600405405064090741402480A1B50
1001
ACAD
1000
AcDbSavedByObjectVersion
1070
     0
  0
ACAD_PROXY_OBJECT
  5
38
102
{ACAD_REACTORS
330
2A
102
}
330
2A
100
AcDbZombieObject
 90
      499
 91
      501
 93
      444
310
42D31A5B995C185D1D195C9B90E409028333333333333E3BF0000000000000FB010790141107004050750841D405064090741402483A0350
1001
ACAD
1000
AcDbSavedByObjectVersion
1070
     0
  0
ACAD_PROXY_OBJECT
  5
33
102
{ACAD_REACTORS
330
2A
102
}
330
2A
100
AcDbZombieObject
 90
      499
 91
      501
 93
      420
310
425499585B1A5CDD1A58D08409028333333333333E3BF0000000000000FB01079019070040501508421405064090741402480A1B40
1001
ACAD
1000
AcDbSavedByObjectVersion
1070
     0
  0
ACAD_PROXY_OBJECT
  5
37
102
{ACAD_REACTORS
330
2A
102
}
330
2A
100
AcDbZombieObject
 90
      499
 91
      501
 93
      412
310
41D51A1A58DAD95B90D409028333333333333E3BF0000000000000FB010790141107004050150C41D405064090741402480A0350
1001
ACAD
1000
AcDbSavedByObjectVersion
1070
     0
  0
DICTIONARYVAR
  5
1FC
102
{ACAD_REACTORS
330
1F9
102
}
330
1F9
100
DictionaryVariables
280
     0
  1
1:1
  0
DICTIONARYVAR
  5
1FD
102
{ACAD_REACTORS
330
1F9
102
}
330
1F9
100
DictionaryVariables
280
     0
  1
2
  0
DICTIONARYVAR
  5
1FE
102
{ACAD_REACTORS
330
1F9
102
}
330
1F9
100
DictionaryVariables
280
     0
  1
1
  0
ENDSEC
  0
EOF
