  0
SECTION
  2
HEADER
  9
$ACADVER
  1
AC1012
  9
$DWGCODEPAGE
  3
ansi_1252
  9
$INSBASE
 10
0.0
 20
0.0
 30
0.0
  9
$EXTMIN
 10
0.0
 20
0.0
 30
0.0
  9
$EXTMAX
 10
11.0
 20
8.5
 30
0.0
  9
$LIMMIN
 10
0.0
 20
0.0
  9
$LIMMAX
 10
11.0
 20
8.5
  9
$ORTHOMODE
 70
     0
  9
$REGENMODE
 70
     1
  9
$FILLMODE
 70
     1
  9
$QTEXTMODE
 70
     0
  9
$MIRRTEXT
 70
     1
  9
$DRAGMODE
 70
     2
  9
$LTSCALE
 40
1.0
  9
$OSMODE
 70
    37
  9
$ATTMODE
 70
     1
  9
$TEXTSIZE
 40
0.125
  9
$TRACEWID
 40
0.05
  9
$TEXTSTYLE
  7
STANDARD
  9
$CLAYER
  8
0
  9
$CELTYPE
  6
BYLAYER
  9
$CECOLOR
 62
   256
  9
$CELTSCALE
 40
1.0
  9
$DELOBJ
 70
     1
  9
$DISPSILH
 70
     0
  9
$DIMSCALE
 40
1.0
  9
$DIMASZ
 40
0.13
  9
$DIMEXO
 40
0.05
  9
$DIMDLI
 40
0.38
  9
$DIMRND
 40
0.0
  9
$DIMDLE
 40
0.0
  9
$DIMEXE
 40
0.125
  9
$DIMTP
 40
0.0
  9
$DIMTM
 40
0.0
  9
$DIMTXT
 40
0.125
  9
$DIMCEN
 40
0.09
  9
$DIMTSZ
 40
0.0
  9
$DIMTOL
 70
     0
  9
$DIMLIM
 70
     0
  9
$DIMTIH
 70
     1
  9
$DIMTOH
 70
     1
  9
$DIMSE1
 70
     0
  9
$DIMSE2
 70
     0
  9
$DIMTAD
 70
     0
  9
$DIMZIN
 70
     0
  9
$DIMBLK
  1

  9
$DIMASO
 70
     1
  9
$DIMSHO
 70
     1
  9
$DIMPOST
  1

  9
$DIMAPOST
  1

  9
$DIMALT
 70
     0
  9
$DIMALTD
 70
     2
  9
$DIMALTF
 40
25.4
  9
$DIMLFAC
 40
0.5
  9
$DIMTOFL
 70
     0
  9
$DIMTVP
 40
0.0
  9
$DIMTIX
 70
     0
  9
$DIMSOXD
 70
     0
  9
$DIMSAH
 70
     0
  9
$DIMBLK1
  1

  9
$DIMBLK2
  1

  9
$DIMSTYLE
  2
STANDARD
  9
$DIMCLRD
 70
     0
  9
$DIMCLRE
 70
     0
  9
$DIMCLRT
 70
     0
  9
$DIMTFAC
 40
1.0
  9
$DIMGAP
 40
0.06
  9
$DIMJUST
 70
     0
  9
$DIMSD1
 70
     0
  9
$DIMSD2
 70
     0
  9
$DIMTOLJ
 70
     1
  9
$DIMTZIN
 70
     0
  9
$DIMALTZ
 70
     0
  9
$DIMALTTZ
 70
     0
  9
$DIMFIT
 70
     3
  9
$DIMUPT
 70
     0
  9
$DIMUNIT
 70
     2
  9
$DIMDEC
 70
     3
  9
$DIMTDEC
 70
     3
  9
$DIMALTU
 70
     2
  9
$DIMALTTD
 70
     2
  9
$DIMTXSTY
  7
STANDARD
  9
$DIMAUNIT
 70
     0
  9
$LUNITS
 70
     2
  9
$LUPREC
 70
     2
  9
$SKETCHINC
 40
0.1
  9
$FILLETRAD
 40
0.5
  9
$AUNITS
 70
     0
  9
$AUPREC
 70
     2
  9
$MENU
  1
.
  9
$ELEVATION
 40
0.0
  9
$PELEVATION
 40
0.0
  9
$THICKNESS
 40
0.0
  9
$LIMCHECK
 70
     0
  9
$CHAMFERA
 40
0.5
  9
$CHAMFERB
 40
0.5
  9
$CHAMFERC
 40
1.0
  9
$CHAMFERD
 40
0.0
  9
$SKPOLY
 70
     0
  9
$TDCREATE
 40
2455784.02656353
  9
$TDUPDATE
 40
2455784.026563541
  9
$TDINDWG
 40
0.0000000116
  9
$TDUSRTIMER
 40
0.0000000116
  9
$USRTIMER
 70
     1
  9
$ANGBASE
 50
0.0
  9
$ANGDIR
 70
     0
  9
$PDMODE
 70
     0
  9
$PDSIZE
 40
-1.0
  9
$PLINEWID
 40
0.0
  9
$COORDS
 70
     1
  9
$SPLFRAME
 70
     0
  9
$SPLINETYPE
 70
     6
  9
$SPLINESEGS
 70
     8
  9
$ATTDIA
 70
     0
  9
$ATTREQ
 70
     1
  9
$HANDLING
 70
     1
  9
$HANDSEED
  5
42D
  9
$SURFTAB1
 70
     6
  9
$SURFTAB2
 70
     6
  9
$SURFTYPE
 70
     6
  9
$SURFU
 70
     6
  9
$SURFV
 70
     6
  9
$UCSNAME
  2

  9
$UCSORG
 10
0.0
 20
0.0
 30
0.0
  9
$UCSXDIR
 10
1.0
 20
0.0
 30
0.0
  9
$UCSYDIR
 10
0.0
 20
1.0
 30
0.0
  9
$PUCSNAME
  2

  9
$PUCSORG
 10
0.0
 20
0.0
 30
0.0
  9
$PUCSXDIR
 10
1.0
 20
0.0
 30
0.0
  9
$PUCSYDIR
 10
0.0
 20
1.0
 30
0.0
  9
$USERI1
 70
     0
  9
$USERI2
 70
     0
  9
$USERI3
 70
     0
  9
$USERI4
 70
     0
  9
$USERI5
 70
     0
  9
$USERR1
 40
0.0
  9
$USERR2
 40
0.0
  9
$USERR3
 40
0.0
  9
$USERR4
 40
0.0
  9
$USERR5
 40
0.0
  9
$WORLDVIEW
 70
     1
  9
$SHADEDGE
 70
     3
  9
$SHADEDIF
 70
    70
  9
$TILEMODE
 70
     1
  9
$MAXACTVP
 70
    64
  9
$PINSBASE
 10
0.0
 20
0.0
 30
0.0
  9
$PLIMCHECK
 70
     0
  9
$PEXTMIN
 10
1.0000000000E+20
 20
1.0000000000E+20
 30
1.0000000000E+20
  9
$PEXTMAX
 10
-1.0000000000E+20
 20
-1.0000000000E+20
 30
-1.0000000000E+20
  9
$PLIMMIN
 10
0.0
 20
0.0
  9
$PLIMMAX
 10
12.0
 20
9.0
  9
$UNITMODE
 70
     0
  9
$VISRETAIN
 70
     1
  9
$PLINEGEN
 70
     0
  9
$PSLTSCALE
 70
     1
  9
$TREEDEPTH
 70
  3020
  9
$PICKSTYLE
 70
     1
  9
$CMLSTYLE
  2
STANDARD
  9
$CMLJUST
 70
     0
  9
$CMLSCALE
 40
1.0
  9
$SAVEIMAGES
 70
     1
  0
ENDSEC
  0
SECTION
  2
CLASSES
  0
CLASS
  1
ACDBDICTIONARYWDFLT
  2
AcDbDictionaryWithDefault
  3
ObjectDBX Classes
 90
    32768
280
     0
281
     0
  0
CLASS
  1
VISUALSTYLE
  2
AcDbVisualStyle
  3
ObjectDBX Classes
 90
     4095
280
     0
281
     0
  0
CLASS
  1
SCALE
  2
AcDbScale
  3
ObjectDBX Classes
 90
     1153
280
     0
281
     0
  0
CLASS
  1
DICTIONARYVAR
  2
AcDbDictionaryVar
  3
ObjectDBX Classes
 90
        0
280
     0
281
     0
  0
CLASS
  1
XRECORD
  2
AcDbXrecord
  3
AutoCAD 2000
 90
    32768
280
     0
281
     0
  0
CLASS
  1
LWPOLYLINE
  2
AcDbPolyline
  3
AutoCAD 2000
 90
    32768
280
     0
281
     1
  0
CLASS
  1
HATCH
  2
AcDbHatch
  3
AutoCAD 2000
 90
    32768
280
     0
281
     1
  0
CLASS
  1
ACDBPLACEHOLDER
  2
AcDbPlaceHolder
  3
ObjectDBX Classes
 90
        0
280
     0
281
     0
  0
CLASS
  1
LAYOUT
  2
AcDbLayout
  3
ObjectDBX Classes
 90
        0
280
     0
281
     0
  0
ENDSEC
  0
SECTION
  2
TABLES
  0
TABLE
  2
VPORT
  5
8
330
0
100
AcDbSymbolTable
 70
     1
  0
VPORT
  5
29
330
8
100
AcDbSymbolTableRecord
100
AcDbViewportTableRecord
  2
*ACTIVE
 70
     0
 10
0.0
 20
0.0
 11
1.0
 21
1.0
 12
5.5
 22
4.25
 13
0.0
 23
0.0
 14
0.5
 24
0.5
 15
0.5
 25
0.5
 16
0.0
 26
0.0
 36
1.0
 17
0.0
 27
0.0
 37
0.0
 40
8.5
 41
1.2941176471
 42
50.0
 43
0.0
 44
0.0
 50
0.0
 51
0.0
 71
     0
 72
  2000
 73
     1
 74
     3
 75
     0
 76
     0
 77
     0
 78
     0
  0
ENDTAB
  0
TABLE
  2
LTYPE
  5
5
330
0
100
AcDbSymbolTable
 70
     6
  0
LTYPE
  5
14
330
5
100
AcDbSymbolTableRecord
100
AcDbLinetypeTableRecord
  2
BYBLOCK
 70
     0
  3

 72
    65
 73
     0
 40
0.0
  0
LTYPE
  5
15
330
5
100
AcDbSymbolTableRecord
100
AcDbLinetypeTableRecord
  2
BYLAYER
 70
     0
  3

 72
    65
 73
     0
 40
0.0
  0
LTYPE
  5
16
330
5
100
AcDbSymbolTableRecord
100
AcDbLinetypeTableRecord
  2
CONTINUOUS
 70
     0
  3
Solid line
 72
    65
 73
     0
 40
0.0
  0
LTYPE
  5
3B
330
5
100
AcDbSymbolTableRecord
100
AcDbLinetypeTableRecord
  2
HIDDEN
 70
     0
  3
Hidden __ __ __ __ __ __ __ __ __ __ __ __ __ __
 72
    65
 73
     2
 40
0.075
 49
0.05
 74
     0
 49
-0.025
 74
     0
  0
LTYPE
  5
3C
330
5
100
AcDbSymbolTableRecord
100
AcDbLinetypeTableRecord
  2
PHANTOM
 70
     0
  3
Phantom ______  __  __  ______  __  __  ______
 72
    65
 73
     6
 40
0.5
 49
0.25
 74
     0
 49
-0.05
 74
     0
 49
0.05
 74
     0
 49
-0.05
 74
     0
 49
0.05
 74
     0
 49
-0.05
 74
     0
  0
LTYPE
  5
3D
330
5
100
AcDbSymbolTableRecord
100
AcDbLinetypeTableRecord
  2
CENTER
 70
     0
  3
Center ____ _ ____ _ ____ _ ____ _ ____ _ ____
 72
    65
 73
     4
 40
0.4
 49
0.25
 74
     0
 49
-0.05
 74
     0
 49
0.05
 74
     0
 49
-0.05
 74
     0
  0
LTYPE
  5
3E
330
5
100
AcDbSymbolTableRecord
100
AcDbLinetypeTableRecord
  2
CENTERX2
 70
     0
  3
Center (2x) ________  __  ________  __  _____
 72
    65
 73
     4
 40
0.8
 49
0.5
 74
     0
 49
-0.1
 74
     0
 49
0.1
 74
     0
 49
-0.1
 74
     0
  0
LTYPE
  5
3F
330
5
100
AcDbSymbolTableRecord
100
AcDbLinetypeTableRecord
  2
DOT2
 70
     0
  3
Dot (.5x) ........................................
 72
    65
 73
     2
 40
0.025
 49
0.0
 74
     0
 49
-0.025
 74
     0
  0
ENDTAB
  0
TABLE
  2
LAYER
  5
2
330
0
100
AcDbSymbolTable
 70
     2
  0
LAYER
  5
10
330
2
100
AcDbSymbolTableRecord
100
AcDbLayerTableRecord
  2
0
 70
     0
 62
     7
  6
CONTINUOUS
  0
LAYER
  5
40
330
2
100
AcDbSymbolTableRecord
100
AcDbLayerTableRecord
  2
FORMAT
 70
     0
 62
     7
  6
CONTINUOUS
  0
ENDTAB
  0
TABLE
  2
STYLE
  5
3
330
0
100
AcDbSymbolTable
 70
     4
  0
STYLE
  5
11
330
3
100
AcDbSymbolTableRecord
100
AcDbTextStyleTableRecord
  2
STANDARD
 70
     0
 40
0.0
 41
1.0
 50
0.0
 71
     0
 42
0.2
  3
txt
  4

  0
STYLE
  5
6E
330
3
100
AcDbSymbolTableRecord
100
AcDbTextStyleTableRecord
  2
SLDTEXTSTYLE0
 70
     0
 40
0.0
 41
0.75
 50
0.0
 71
     0
 42
0.2
  3
TXT
  4

  0
STYLE
  5
93
330
3
100
AcDbSymbolTableRecord
100
AcDbTextStyleTableRecord
  2
SLDTEXTSTYLE1
 70
     0
 40
0.0
 41
0.6875
 50
0.0
 71
     0
 42
0.2
  3
TXT
  4

  0
STYLE
  5
99
330
3
100
AcDbSymbolTableRecord
100
AcDbTextStyleTableRecord
  2
SLDTEXTSTYLE2
 70
     0
 40
0.0
 41
0.6944444444
 50
0.0
 71
     0
 42
0.2
  3
TXT
  4

  0
ENDTAB
  0
TABLE
  2
VIEW
  5
6
330
0
100
AcDbSymbolTable
 70
     0
  0
ENDTAB
  0
TABLE
  2
UCS
  5
7
330
0
100
AcDbSymbolTable
 70
     0
  0
ENDTAB
  0
TABLE
  2
APPID
  5
9
330
0
100
AcDbSymbolTable
 70
     1
  0
APPID
  5
12
330
9
100
AcDbSymbolTableRecord
100
AcDbRegAppTableRecord
  2
ACAD
 70
     0
  0
ENDTAB
  0
TABLE
  2
DIMSTYLE
  5
A
330
0
100
AcDbSymbolTable
 70
     1
  0
DIMSTYLE
105
27
330
A
100
AcDbSymbolTableRecord
100
AcDbDimStyleTableRecord
  2
STANDARD
 70
     0
  3

  4

  5

  6

  7

 40
1.0
 41
0.18
 42
0.0625
 43
0.38
 44
0.18
 45
0.0
 46
0.0
 47
0.0
 48
0.0
140
0.18
141
0.09
142
0.0
143
25.4
144
1.0
145
0.0
146
1.0
147
0.09
 71
     0
 72
     0
 73
     1
 74
     1
 75
     0
 76
     0
 77
     0
 78
     0
170
     0
171
     2
172
     0
173
     0
174
     0
175
     0
176
     0
177
     0
178
     0
270
     2
271
     4
272
     4
273
     2
274
     2
340
11
275
     0
280
     0
281
     0
282
     0
283
     1
284
     0
285
     0
286
     0
287
     3
288
     0
  0
ENDTAB
  0
TABLE
  2
BLOCK_RECORD
  5
1
330
0
100
AcDbSymbolTable
 70
     4
  0
BLOCK_RECORD
  5
1F
330
1
100
AcDbSymbolTableRecord
100
AcDbBlockTableRecord
  2
*MODEL_SPACE
  0
BLOCK_RECORD
  5
1B
330
1
100
AcDbSymbolTableRecord
100
AcDbBlockTableRecord
  2
*PAPER_SPACE
  0
BLOCK_RECORD
  5
A8
330
1
100
AcDbSymbolTableRecord
100
AcDbBlockTableRecord
  2
SW_NOTE_0
  0
BLOCK_RECORD
  5
AE
330
1
100
AcDbSymbolTableRecord
100
AcDbBlockTableRecord
  2
SW_NOTE_1
  0
BLOCK_RECORD
  5
C2
330
1
100
AcDbSymbolTableRecord
100
AcDbBlockTableRecord
  2
SW_NOTE_2
  0
ENDTAB
  0
ENDSEC
  0
SECTION
  2
BLOCKS
  0
BLOCK
  5
20
330
1F
100
AcDbEntity
  8
0
100
AcDbBlockBegin
  2
*MODEL_SPACE
 70
     0
 10
0.0
 20
0.0
 30
0.0
  3
*MODEL_SPACE
  1

  0
ENDBLK
  5
21
330
1F
100
AcDbEntity
  8
0
100
AcDbBlockEnd
  0
BLOCK
  5
1C
330
1B
100
AcDbEntity
 67
     1
  8
0
100
AcDbBlockBegin
  2
*PAPER_SPACE
 70
     0
 10
0.0
 20
0.0
 30
0.0
  3
*PAPER_SPACE
  1

  0
ENDBLK
  5
1D
330
1B
100
AcDbEntity
 67
     1
  8
0
100
AcDbBlockEnd
  0
BLOCK
  5
A9
330
A8
100
AcDbEntity
  8
0
100
AcDbBlockBegin
  2
SW_NOTE_0
 70
     0
 10
0.0
 20
0.0
 30
0.0
  3
SW_NOTE_0
  1

  0
MTEXT
  5
AB
330
A8
100
AcDbEntity
  8
0
  6
CONTINUOUS
 62
     0
100
AcDbMText
 10
0.0
 20
0.0773440644
 30
0.0
 40
0.06
 41
0.0
 71
     1
 72
     1
  1
INTERPRET GEOMETRIC
  7
SLDTEXTSTYLE0
  0
MTEXT
  5
AC
330
A8
100
AcDbEntity
  8
0
  6
CONTINUOUS
 62
     0
100
AcDbMText
 10
0.0
 20
-0.0220260102
 30
0.0
 40
0.06
 41
0.0
 71
     1
 72
     1
  1
TOLERANCING PER:
  7
SLDTEXTSTYLE0
  0
ENDBLK
  5
AA
330
A8
100
AcDbEntity
  8
0
100
AcDbBlockEnd
  0
BLOCK
  5
AF
330
AE
100
AcDbEntity
  8
0
100
AcDbBlockBegin
  2
SW_NOTE_1
 70
     0
 10
0.0
 20
0.0
 30
0.0
  3
SW_NOTE_1
  1

  0
MTEXT
  5
B1
330
AE
100
AcDbEntity
  8
0
  6
CONTINUOUS
 62
     0
100
AcDbMText
 10
0.0
 20
0.0837894031
 30
0.0
 40
0.065
 41
0.0
 71
     1
 72
     1
  1
DIMENSIONS ARE IN INCHES
  7
SLDTEXTSTYLE0
  0
MTEXT
  5
B2
330
AE
100
AcDbEntity
  8
0
  6
CONTINUOUS
 62
     0
100
AcDbMText
 10
0.0
 20
-0.0205806729
 30
0.0
 40
0.065
 41
0.0
 71
     1
 72
     1
  1
TOLERANCES:
  7
SLDTEXTSTYLE0
  0
MTEXT
  5
B3
330
AE
100
AcDbEntity
  8
0
  6
CONTINUOUS
 62
     0
100
AcDbMText
 10
0.0
 20
-0.1249507489
 30
0.0
 40
0.065
 41
0.0
 71
     1
 72
     1
  1
FRACTIONAL
  7
SLDTEXTSTYLE0
  0
MTEXT
  5
B4
330
AE
100
AcDbEntity
  8
0
  6
CONTINUOUS
 62
     0
100
AcDbMText
 10
0.5175850875
 20
-0.1249507489
 30
0.0
 40
0.065
 41
0.0
 71
     1
 72
     1
  1
%%p
  7
SLDTEXTSTYLE0
  0
MTEXT
  5
B5
330
AE
100
AcDbEntity
  8
0
  6
CONTINUOUS
 62
     0
100
AcDbMText
 10
0.0
 20
-0.2293208248
 30
0.0
 40
0.065
 41
0.0
 71
     1
 72
     1
  1
ANGULAR: MACH
  7
SLDTEXTSTYLE0
  0
MTEXT
  5
B6
330
AE
100
AcDbEntity
  8
0
  6
CONTINUOUS
 62
     0
100
AcDbMText
 10
0.7233732769
 20
-0.2293208248
 30
0.0
 40
0.065
 41
0.0
 71
     1
 72
     1
  1
%%p
  7
SLDTEXTSTYLE0
  0
MTEXT
  5
B7
330
AE
100
AcDbEntity
  8
0
  6
CONTINUOUS
 62
     0
100
AcDbMText
 10
0.7852857683
 20
-0.2293208248
 30
0.0
 40
0.065
 41
0.0
 71
     1
 72
     1
  1
     BEND 
  7
SLDTEXTSTYLE0
  0
MTEXT
  5
B8
330
AE
100
AcDbEntity
  8
0
  6
CONTINUOUS
 62
     0
100
AcDbMText
 10
1.14784136
 20
-0.2293208248
 30
0.0
 40
0.065
 41
0.0
 71
     1
 72
     1
  1
%%p
  7
SLDTEXTSTYLE0
  0
MTEXT
  5
B9
330
AE
100
AcDbEntity
  8
0
  6
CONTINUOUS
 62
     0
100
AcDbMText
 10
0.0
 20
-0.3336909008
 30
0.0
 40
0.065
 41
0.0
 71
     1
 72
     1
  1
TWO PLACE DECIMAL    
  7
SLDTEXTSTYLE0
  0
MTEXT
  5
BA
330
AE
100
AcDbEntity
  8
0
  6
CONTINUOUS
 62
     0
100
AcDbMText
 10
0.9794349188
 20
-0.3336909008
 30
0.0
 40
0.065
 41
0.0
 71
     1
 72
     1
  1
%%p
  7
SLDTEXTSTYLE0
  0
MTEXT
  5
BB
330
AE
100
AcDbEntity
  8
0
  6
CONTINUOUS
 62
     0
100
AcDbMText
 10
0.0
 20
-0.4380609768
 30
0.0
 40
0.065
 41
0.0
 71
     1
 72
     1
  1
THREE PLACE DECIMAL  
  7
SLDTEXTSTYLE0
  0
MTEXT
  5
BC
330
AE
100
AcDbEntity
  8
0
  6
CONTINUOUS
 62
     0
100
AcDbMText
 10
0.9738038639
 20
-0.4380609768
 30
0.0
 40
0.065
 41
0.0
 71
     1
 72
     1
  1
%%p
  7
SLDTEXTSTYLE0
  0
ENDBLK
  5
B0
330
AE
100
AcDbEntity
  8
0
100
AcDbBlockEnd
  0
BLOCK
  5
C3
330
C2
100
AcDbEntity
  8
0
100
AcDbBlockBegin
  2
SW_NOTE_2
 70
     0
 10
0.0
 20
0.0
 30
0.0
  3
SW_NOTE_2
  1

  0
MTEXT
  5
C5
330
C2
100
AcDbEntity
  8
0
  6
CONTINUOUS
 62
     0
100
AcDbMText
 10
0.0
 20
0.0773440644
 30
0.0
 40
0.06
 41
0.0
 71
     1
 72
     1
  1
THE INFORMATION CONTAINED IN THIS
  7
SLDTEXTSTYLE0
  0
MTEXT
  5
C6
330
C2
100
AcDbEntity
  8
0
  6
CONTINUOUS
 62
     0
100
AcDbMText
 10
0.0
 20
-0.0220260102
 30
0.0
 40
0.06
 41
0.0
 71
     1
 72
     1
  1
DRAWING IS THE SOLE PROPERTY OF
  7
SLDTEXTSTYLE0
  0
MTEXT
  5
C7
330
C2
100
AcDbEntity
  8
0
  6
CONTINUOUS
 62
     0
100
AcDbMText
 10
0.0
 20
-0.1213960848
 30
0.0
 40
0.06
 41
0.0
 71
     1
 72
     1
  1
Candy Controls.  ANY 
  7
SLDTEXTSTYLE0
  0
MTEXT
  5
C8
330
C2
100
AcDbEntity
  8
0
  6
CONTINUOUS
 62
     0
100
AcDbMText
 10
0.0
 20
-0.2207661593
 30
0.0
 40
0.06
 41
0.0
 71
     1
 72
     1
  1
REPRODUCTION IN PART OR AS A WHOLE
  7
SLDTEXTSTYLE0
  0
MTEXT
  5
C9
330
C2
100
AcDbEntity
  8
0
  6
CONTINUOUS
 62
     0
100
AcDbMText
 10
0.0
 20
-0.3201362339
 30
0.0
 40
0.06
 41
0.0
 71
     1
 72
     1
  1
WITHOUT THE WRITTEN PERMISSION OF
  7
SLDTEXTSTYLE0
  0
MTEXT
  5
CA
330
C2
100
AcDbEntity
  8
0
  6
CONTINUOUS
 62
     0
100
AcDbMText
 10
0.0
 20
-0.4195063085
 30
0.0
 40
0.06
 41
0.0
 71
     1
 72
     1
  1
Candy Controls IS 
  7
SLDTEXTSTYLE0
  0
MTEXT
  5
CB
330
C2
100
AcDbEntity
  8
0
  6
CONTINUOUS
 62
     0
100
AcDbMText
 10
0.0
 20
-0.518876383
 30
0.0
 40
0.06
 41
0.0
 71
     1
 72
     1
  1
PROHIBITED.
  7
SLDTEXTSTYLE0
  0
ENDBLK
  5
C4
330
C2
100
AcDbEntity
  8
0
100
AcDbBlockEnd
  0
ENDSEC
  0
SECTION
  2
ENTITIES
  0
LINE
  5
41
330
1F
100
AcDbEntity
  8
0
  6
CONTINUOUS
 62
     7
100
AcDbLine
 10
0.329927
 20
8.1920731707
 30
0.0
 11
10.629927
 21
8.1920731707
 31
0.0
  0
LINE
  5
42
330
1F
100
AcDbEntity
  8
0
  6
CONTINUOUS
 62
     7
100
AcDbLine
 10
0.329927
 20
8.1920731707
 30
0.0
 11
0.329927
 21
0.3920731707
 31
0.0
  0
LINE
  5
43
330
1F
100
AcDbEntity
  8
0
  6
CONTINUOUS
 62
     7
100
AcDbLine
 10
10.629927
 20
0.3920731707
 30
0.0
 11
0.329927
 21
0.3920731707
 31
0.0
  0
LINE
  5
44
330
1F
100
AcDbEntity
  8
0
  6
CONTINUOUS
 62
     7
100
AcDbLine
 10
10.629927
 20
0.3920731707
 30
0.0
 11
10.629927
 21
8.1920731707
 31
0.0
  0
LINE
  5
45
330
1F
100
AcDbEntity
  8
0
  6
CONTINUOUS
 62
     7
100
AcDbLine
 10
4.7981841288
 20
0.3920731707
 30
0.0
 11
4.7981841288
 21
2.3564211366
 31
0.0
  0
LINE
  5
46
330
1F
100
AcDbEntity
  8
0
  6
CONTINUOUS
 62
     7
100
AcDbLine
 10
2.8210345579
 20
2.3564211366
 30
0.0
 11
10.629927
 21
2.3564211366
 31
0.0
  0
LINE
  5
47
330
1F
100
AcDbEntity
  8
0
  6
CONTINUOUS
 62
     7
100
AcDbLine
 10
6.1796352514
 20
2.3564211366
 30
0.0
 11
6.1796352514
 21
0.3920731707
 31
0.0
  0
LINE
  5
48
330
1F
100
AcDbEntity
  8
0
  6
CONTINUOUS
 62
     7
100
AcDbLine
 10
7.8712070044
 20
2.3564211366
 30
0.0
 11
7.8712070044
 21
0.3920731707
 31
0.0
  0
LINE
  5
49
330
1F
100
AcDbEntity
  8
0
  6
CONTINUOUS
 62
     7
100
AcDbLine
 10
7.8712070044
 20
0.6049590101
 30
0.0
 11
10.629927
 21
0.6049590101
 31
0.0
  0
LINE
  5
4A
330
1F
100
AcDbEntity
  8
0
  6
CONTINUOUS
 62
     7
100
AcDbLine
 10
7.8712070044
 20
1.1119362457
 30
0.0
 11
10.629927
 21
1.1119362457
 31
0.0
  0
LINE
  5
4B
330
1F
100
AcDbEntity
  8
0
  6
CONTINUOUS
 62
     7
100
AcDbLine
 10
7.8712070044
 20
1.9892703708
 30
0.0
 11
10.629927
 21
1.9892703708
 31
0.0
  0
LINE
  5
4C
330
1F
100
AcDbEntity
  8
0
  6
CONTINUOUS
 62
     7
100
AcDbLine
 10
8.266751752
 20
1.1119362457
 30
0.0
 11
8.266751752
 21
0.6049590101
 31
0.0
  0
LINE
  5
4D
330
1F
100
AcDbEntity
  8
0
  6
CONTINUOUS
 62
     7
100
AcDbLine
 10
8.6943435176
 20
0.6049590101
 30
0.0
 11
8.6943435176
 21
0.3920731707
 31
0.0
  0
LINE
  5
4E
330
1F
100
AcDbEntity
  8
0
  6
CONTINUOUS
 62
     7
100
AcDbLine
 10
10.0579917045
 20
1.1119362457
 30
0.0
 11
10.0579917045
 21
0.6049590101
 31
0.0
  0
LINE
  5
4F
330
1F
100
AcDbEntity
  8
0
  6
CONTINUOUS
 62
     7
100
AcDbLine
 10
9.6662556631
 20
0.6049590101
 30
0.0
 11
9.6662556631
 21
0.3920731707
 31
0.0
  0
LINE
  5
50
330
1F
100
AcDbEntity
  8
0
  6
CONTINUOUS
 62
     7
100
AcDbLine
 10
2.8210345579
 20
0.5883479999
 30
0.0
 11
6.1796352514
 21
0.5883479999
 31
0.0
  0
LINE
  5
51
330
1F
100
AcDbEntity
  8
0
  6
CONTINUOUS
 62
     7
100
AcDbLine
 10
6.1796352514
 20
1.7939211366
 30
0.0
 11
7.8712070044
 21
1.7939211366
 31
0.0
  0
LINE
  5
52
330
1F
100
AcDbEntity
  8
0
  6
CONTINUOUS
 62
     7
100
AcDbLine
 10
6.1796352514
 20
1.9814211366
 30
0.0
 11
7.8712070044
 21
1.9814211366
 31
0.0
  0
LINE
  5
53
330
1F
100
AcDbEntity
  8
0
  6
CONTINUOUS
 62
     7
100
AcDbLine
 10
6.1796352514
 20
2.1689211366
 30
0.0
 11
7.8712070044
 21
2.1689211366
 31
0.0
  0
LINE
  5
54
330
1F
100
AcDbEntity
  8
0
  6
CONTINUOUS
 62
     7
100
AcDbLine
 10
7.8712070044
 20
1.2314211366
 30
0.0
 11
6.1796352514
 21
1.2314211366
 31
0.0
  0
LINE
  5
55
330
1F
100
AcDbEntity
  8
0
  6
CONTINUOUS
 62
     7
100
AcDbLine
 10
7.3921580388
 20
2.3564211366
 30
0.0
 11
7.3921580388
 21
1.2314211366
 31
0.0
  0
LINE
  5
56
330
1F
100
AcDbEntity
  8
0
  6
CONTINUOUS
 62
     7
100
AcDbLine
 10
6.9236308342
 20
2.3564211366
 30
0.0
 11
6.9236308342
 21
1.2314211366
 31
0.0
  0
LINE
  5
57
330
1F
100
AcDbEntity
  8
0
  6
CONTINUOUS
 62
     7
100
AcDbLine
 10
4.7981841288
 20
0.8557965305
 30
0.0
 11
6.1796352514
 21
0.8557965305
 31
0.0
  0
LINE
  5
58
330
1F
100
AcDbEntity
  8
0
  6
CONTINUOUS
 62
     7
100
AcDbLine
 10
4.7981841288
 20
1.1257965305
 30
0.0
 11
6.1796352514
 21
1.1257965305
 31
0.0
  0
LINE
  5
59
330
1F
100
AcDbEntity
  8
0
  6
CONTINUOUS
 62
     7
100
AcDbLine
 10
2.8210345579
 20
0.3920731707
 30
0.0
 11
2.8210345579
 21
2.3564211366
 31
0.0
  0
LINE
  5
5A
330
1F
100
AcDbEntity
  8
0
  6
CONTINUOUS
 62
     7
100
AcDbLine
 10
2.8210345579
 20
1.1064211366
 30
0.0
 11
4.7981841288
 21
1.1064211366
 31
0.0
  0
LINE
  5
5B
330
1F
100
AcDbEntity
  8
0
  6
CONTINUOUS
 62
     7
100
AcDbLine
 10
2.8210345579
 20
1.3564211366
 30
0.0
 11
4.7981841288
 21
1.3564211366
 31
0.0
  0
LINE
  5
5C
330
1F
100
AcDbEntity
  8
0
  6
CONTINUOUS
 62
     7
100
AcDbLine
 10
2.8210345579
 20
1.6064211366
 30
0.0
 11
4.7981841288
 21
1.6064211366
 31
0.0
  0
LINE
  5
5D
330
1F
100
AcDbEntity
  8
0
  6
CONTINUOUS
 62
     7
100
AcDbLine
 10
2.8210345579
 20
1.8564211366
 30
0.0
 11
4.7981841288
 21
1.8564211366
 31
0.0
  0
LINE
  5
5E
330
1F
100
AcDbEntity
  8
0
  6
CONTINUOUS
 62
     7
100
AcDbLine
 10
3.8190146875
 20
2.3564211366
 30
0.0
 11
3.8190146875
 21
0.5883479999
 31
0.0
  0
LINE
  5
5F
330
1F
100
AcDbEntity
  8
0
  6
CONTINUOUS
 62
     7
100
AcDbLine
 10
6.1796352514
 20
2.2020813496
 30
0.0
 11
4.7981841288
 21
2.2020813496
 31
0.0
  0
LINE
  5
60
330
1F
100
AcDbEntity
  8
0
  6
CONTINUOUS
 62
     7
100
AcDbLine
 10
7.8712070044
 20
1.6064211366
 30
0.0
 11
6.1796352514
 21
1.6064211366
 31
0.0
  0
LINE
  5
61
330
1F
100
AcDbEntity
  8
0
  6
CONTINUOUS
 62
     7
100
AcDbLine
 10
7.8712070044
 20
1.4189211366
 30
0.0
 11
6.1796352514
 21
1.4189211366
 31
0.0
  0
LINE
  5
62
330
1F
100
AcDbEntity
  8
0
  6
CONTINUOUS
 62
     7
100
AcDbLine
 10
2.8210345579
 20
2.1064211366
 30
0.0
 11
4.7981841288
 21
2.1064211366
 31
0.0
  0
LINE
  5
63
330
1F
100
AcDbEntity
  8
0
  6
CONTINUOUS
 62
     7
100
AcDbLine
 10
4.7981841288
 20
1.3957965305
 30
0.0
 11
6.1796352514
 21
1.3957965305
 31
0.0
  0
LINE
  5
64
330
1F
100
AcDbEntity
  8
0
  6
CONTINUOUS
 62
     7
100
AcDbLine
 10
2.8210345579
 20
0.8564211366
 30
0.0
 11
4.7981841288
 21
0.8564211366
 31
0.0
  0
LINE
  5
65
330
1F
100
AcDbEntity
  8
0
  6
CONTINUOUS
 62
     7
100
AcDbLine
 10
1.1838252943
 20
0.3920731707
 30
0.0
 11
1.1838252943
 21
1.3064211366
 31
0.0
  0
LINE
  5
66
330
1F
100
AcDbEntity
  8
0
  6
CONTINUOUS
 62
     7
100
AcDbLine
 10
2.8210345579
 20
1.3064211366
 30
0.0
 11
1.1838252943
 21
1.3064211366
 31
0.0
  0
LINE
  5
67
330
1F
100
AcDbEntity
  8
0
  6
CONTINUOUS
 62
     7
100
AcDbLine
 10
8.660927
 20
0.3920731707
 30
0.0
 11
8.660927
 21
0.3072739649
 31
0.0
  0
LINE
  5
68
330
1F
100
AcDbEntity
  8
0
  6
CONTINUOUS
 62
     7
100
AcDbLine
 10
6.692177
 20
0.3920731707
 30
0.0
 11
6.692177
 21
0.3072739649
 31
0.0
  0
LINE
  5
69
330
1F
100
AcDbEntity
  8
0
  6
CONTINUOUS
 62
     7
100
AcDbLine
 10
4.723427
 20
0.3920731707
 30
0.0
 11
4.723427
 21
0.3072739649
 31
0.0
  0
LINE
  5
6A
330
1F
100
AcDbEntity
  8
0
  6
CONTINUOUS
 62
     7
100
AcDbLine
 10
2.754677
 20
0.3920731707
 30
0.0
 11
2.754677
 21
0.3072739649
 31
0.0
  0
LINE
  5
6B
330
1F
100
AcDbEntity
  8
0
  6
CONTINUOUS
 62
     7
100
AcDbLine
 10
2.754677
 20
0.3920731707
 30
0.0
 11
2.7672319738
 21
0.3575
 31
0.0
  0
LINE
  5
6C
330
1F
100
AcDbEntity
  8
0
  6
CONTINUOUS
 62
     7
100
AcDbLine
 10
2.7672319738
 20
0.3575
 30
0.0
 11
2.7414258825
 21
0.3575
 31
0.0
  0
LINE
  5
6D
330
1F
100
AcDbEntity
  8
0
  6
CONTINUOUS
 62
     7
100
AcDbLine
 10
2.7414258825
 20
0.3575
 30
0.0
 11
2.754677
 21
0.3920731707
 31
0.0
  0
MTEXT
  5
91
330
1F
100
AcDbEntity
  8
0
  6
CONTINUOUS
 62
     7
100
AcDbMText
 10
4.9775846961
 20
0.5178452352
 30
0.0
 40
0.0625
 41
0.0
 71
     1
 72
     1
  1
DO NOT SCALE DRAWING
  7
SLDTEXTSTYLE0
  0
MTEXT
  5
92
330
1F
100
AcDbEntity
  8
0
  6
CONTINUOUS
 62
     7
100
AcDbMText
 10
8.5761686599
 20
0.9417064595
 30
0.0
 40
0.125
 41
0.0
 71
     1
 72
     1
  1
CL7-16_CLAMP
  7
SLDTEXTSTYLE0
  0
MTEXT
  5
94
330
1F
100
AcDbEntity
  8
0
  6
CONTINUOUS
 62
     7
100
AcDbMText
 10
9.7571278483
 20
0.5524239532
 30
0.0
 40
0.1
 41
0.0
 71
     1
 72
     1
  1
SHEET 1 OF 1
  7
SLDTEXTSTYLE1
  0
MTEXT
  5
95
330
1F
100
AcDbEntity
  8
0
  6
CONTINUOUS
 62
     7
100
AcDbMText
 10
4.8448077858
 20
2.3132954224
 30
0.0
 40
0.07
 41
0.0
 71
     1
 72
     1
  1
UNLESS OTHERWISE SPECIFIED:
  7
SLDTEXTSTYLE0
  0
MTEXT
  5
96
330
1F
100
AcDbEntity
  8
0
  6
CONTINUOUS
 62
     7
100
AcDbMText
 10
7.9586139647
 20
0.5520987879
 30
0.0
 40
0.1
 41
0.0
 71
     1
 72
     1
  1
SCALE: 2:1
  7
SLDTEXTSTYLE0
  0
MTEXT
  5
97
330
1F
100
AcDbEntity
  8
0
  6
CONTINUOUS
 62
     7
100
AcDbMText
 10
8.7023691647
 20
0.5486763345
 30
0.0
 40
0.1
 41
0.0
 71
     1
 72
     1
  1
WEIGHT: 
  7
SLDTEXTSTYLE0
  0
MTEXT
  5
98
330
1F
100
AcDbEntity
  8
0
  6
CONTINUOUS
 62
     7
100
AcDbMText
 10
10.2277580983
 20
1.081966299
 30
0.0
 40
0.1
 41
0.0
 71
     1
 72
     1
  1
REV
  7
SLDTEXTSTYLE0
  0
MTEXT
  5
9A
330
1F
100
AcDbEntity
  8
0
  6
CONTINUOUS
 62
     7
100
AcDbMText
 10
8.2984570898
 20
1.0858725293
 30
0.0
 40
0.1
 41
0.0
 71
     1
 72
     1
  1
DWG.  NO.
  7
SLDTEXTSTYLE2
  0
MTEXT
  5
9B
330
1F
100
AcDbEntity
  8
0
  6
CONTINUOUS
 62
     7
100
AcDbMText
 10
7.9598482632
 20
0.9442140768
 30
0.0
 40
0.25
 41
0.0
 71
     1
 72
     1
  1
A
  7
SLDTEXTSTYLE0
  0
MTEXT
  5
9C
330
1F
100
AcDbEntity
  8
0
  6
CONTINUOUS
 62
     7
100
AcDbMText
 10
7.9519581822
 20
1.0872713483
 30
0.0
 40
0.1
 41
0.0
 71
     1
 72
     1
  1
SIZE
  7
SLDTEXTSTYLE0
  0
MTEXT
  5
9D
330
1F
100
AcDbEntity
  8
0
  6
CONTINUOUS
 62
     7
100
AcDbMText
 10
7.9170704177
 20
1.9547881128
 30
0.0
 40
0.1
 41
0.0
 71
     1
 72
     1
  1
TITLE:
  7
SLDTEXTSTYLE0
  0
MTEXT
  5
9E
330
1F
100
AcDbEntity
  8
0
  6
CONTINUOUS
 62
     7
100
AcDbMText
 10
7.0363774929
 20
2.2906161274
 30
0.0
 40
0.065
 41
0.0
 71
     1
 72
     1
  1
NAME
  7
SLDTEXTSTYLE0
  0
MTEXT
  5
9F
330
1F
100
AcDbEntity
  8
0
  6
CONTINUOUS
 62
     7
100
AcDbMText
 10
7.5281510634
 20
2.2888799118
 30
0.0
 40
0.065
 41
0.0
 71
     1
 72
     1
  1
DATE
  7
SLDTEXTSTYLE0
  0
MTEXT
  5
A0
330
1F
100
AcDbEntity
  8
0
  6
CONTINUOUS
 62
     7
100
AcDbMText
 10
6.2277147029
 20
1.1876913145
 30
0.0
 40
0.065
 41
0.0
 71
     1
 72
     1
  1
COMMENTS:
  7
SLDTEXTSTYLE0
  0
MTEXT
  5
A1
330
1F
100
AcDbEntity
  8
0
  6
CONTINUOUS
 62
     7
100
AcDbMText
 10
6.2268411461
 20
1.3536101679
 30
0.0
 40
0.065
 41
0.0
 71
     1
 72
     1
  1
Q.A.
  7
SLDTEXTSTYLE0
  0
MTEXT
  5
A2
330
1F
100
AcDbEntity
  8
0
  6
CONTINUOUS
 62
     7
100
AcDbMText
 10
6.2284654509
 20
1.5395328424
 30
0.0
 40
0.065
 41
0.0
 71
     1
 72
     1
  1
MFG APPR.
  7
SLDTEXTSTYLE0
  0
MTEXT
  5
A3
330
1F
100
AcDbEntity
  8
0
  6
CONTINUOUS
 62
     7
100
AcDbMText
 10
6.2235171344
 20
1.7267501785
 30
0.0
 40
0.065
 41
0.0
 71
     1
 72
     1
  1
ENG APPR.
  7
SLDTEXTSTYLE0
  0
MTEXT
  5
A4
330
1F
100
AcDbEntity
  8
0
  6
CONTINUOUS
 62
     7
100
AcDbMText
 10
6.2264103951
 20
1.9092699088
 30
0.0
 40
0.065
 41
0.0
 71
     1
 72
     1
  1
CHECKED
  7
SLDTEXTSTYLE0
  0
MTEXT
  5
A5
330
1F
100
AcDbEntity
  8
0
  6
CONTINUOUS
 62
     7
100
AcDbMText
 10
6.2242794356
 20
2.1016301232
 30
0.0
 40
0.065
 41
0.0
 71
     1
 72
     1
  1
DRAWN
  7
SLDTEXTSTYLE0
  0
MTEXT
  5
A6
330
1F
100
AcDbEntity
  8
0
  6
CONTINUOUS
 62
     7
100
AcDbMText
 10
4.8208600979
 20
0.834523235
 30
0.0
 40
0.06
 41
0.0
 71
     1
 72
     1
  1
FINISH
  7
SLDTEXTSTYLE0
  0
MTEXT
  5
A7
330
1F
100
AcDbEntity
  8
0
  6
CONTINUOUS
 62
     7
100
AcDbMText
 10
4.8181240648
 20
1.1028217587
 30
0.0
 40
0.06
 41
0.0
 71
     1
 72
     1
  1
MATERIAL
  7
SLDTEXTSTYLE0
  0
INSERT
  5
AD
330
1F
100
AcDbEntity
  8
0
  6
CONTINUOUS
 62
     7
100
AcDbBlockReference
  2
SW_NOTE_0
 10
4.8231926633
 20
1.2646542947
 30
0.0
  0
INSERT
  5
BD
330
1F
100
AcDbEntity
  8
0
  6
CONTINUOUS
 62
     7
100
AcDbBlockReference
  2
SW_NOTE_1
 10
4.8353339353
 20
2.0049168724
 30
0.0
  0
MTEXT
  5
BE
330
1F
100
AcDbEntity
  8
0
  6
CONTINUOUS
 62
     7
100
AcDbMText
 10
3.5531400086
 20
0.5200091997
 30
0.0
 40
0.0625
 41
0.0
 71
     1
 72
     1
  1
APPLICATION
  7
SLDTEXTSTYLE0
  0
MTEXT
  5
BF
330
1F
100
AcDbEntity
  8
0
  6
CONTINUOUS
 62
     7
100
AcDbMText
 10
4.1005607758
 20
0.7502454275
 30
0.0
 40
0.0625
 41
0.0
 71
     1
 72
     1
  1
USED ON
  7
SLDTEXTSTYLE0
  0
MTEXT
  5
C0
330
1F
100
AcDbEntity
  8
0
  6
CONTINUOUS
 62
     7
100
AcDbMText
 10
3.1040019536
 20
0.7492094783
 30
0.0
 40
0.0625
 41
0.0
 71
     1
 72
     1
  1
NEXT ASSY
  7
SLDTEXTSTYLE0
  0
MTEXT
  5
C1
330
1F
100
AcDbEntity
  8
0
  6
CONTINUOUS
 62
     7
100
AcDbMText
 10
1.3712489489
 20
1.2496672684
 30
0.0
 40
0.06
 41
0.0
 71
     1
 72
     1
  1
PROPRIETARY AND CONFIDENTIAL
  7
SLDTEXTSTYLE0
  0
INSERT
  5
CC
330
1F
100
AcDbEntity
  8
0
  6
CONTINUOUS
 62
     7
100
AcDbBlockReference
  2
SW_NOTE_2
 10
1.2226209074
 20
1.0313492921
 30
0.0
  0
MTEXT
  5
CD
330
1F
100
AcDbEntity
  8
0
  6
CONTINUOUS
 62
     7
100
AcDbMText
 10
1.7387909509
 20
0.3105864247
 30
0.0
 40
0.09375
 41
0.0
 71
     1
 72
     1
  1
5
  7
SLDTEXTSTYLE0
  0
MTEXT
  5
CE
330
1F
100
AcDbEntity
  8
0
  6
CONTINUOUS
 62
     7
100
AcDbMText
 10
3.723800327
 20
0.3137237518
 30
0.0
 40
0.09375
 41
0.0
 71
     1
 72
     1
  1
4
  7
SLDTEXTSTYLE0
  0
MTEXT
  5
CF
330
1F
100
AcDbEntity
  8
0
  6
CONTINUOUS
 62
     7
100
AcDbMText
 10
5.6324457277
 20
0.3116191842
 30
0.0
 40
0.09375
 41
0.0
 71
     1
 72
     1
  1
3
  7
SLDTEXTSTYLE0
  0
MTEXT
  5
D0
330
1F
100
AcDbEntity
  8
0
  6
CONTINUOUS
 62
     7
100
AcDbMText
 10
7.6059721724
 20
0.3124391351
 30
0.0
 40
0.09375
 41
0.0
 71
     1
 72
     1
  1
2
  7
SLDTEXTSTYLE0
  0
MTEXT
  5
D1
330
1F
100
AcDbEntity
  8
0
  6
CONTINUOUS
 62
     7
100
AcDbMText
 10
9.6619921328
 20
0.301372012
 30
0.0
 40
0.09375
 41
0.0
 71
     1
 72
     1
  1
1
  7
SLDTEXTSTYLE0
  0
LINE
  5
D2
330
1F
100
AcDbEntity
  8
0
  6
CONTINUOUS
 62
     7
100
AcDbLine
 10
2.9723053947
 20
3.1287570265
 30
0.0
 11
3.680966812
 21
3.1287570265
 31
0.0
  0
LINE
  5
D3
330
1F
100
AcDbEntity
  8
0
  6
CONTINUOUS
 62
     7
100
AcDbLine
 10
2.4411242924
 20
3.1287570265
 30
0.0
 11
2.932935316
 21
3.1287570265
 31
0.0
  0
LINE
  5
D4
330
1F
100
AcDbEntity
  8
0
  6
CONTINUOUS
 62
     7
100
AcDbLine
 10
2.932935316
 20
4.3885995462
 30
0.0
 11
2.4411242924
 21
4.3885995462
 31
0.0
  0
LINE
  5
D5
330
1F
100
AcDbEntity
  8
0
  6
CONTINUOUS
 62
     7
100
AcDbLine
 10
4.2121479144
 20
4.3885995462
 30
0.0
 11
2.9723053947
 21
4.3885995462
 31
0.0
  0
LINE
  5
D6
330
1F
100
AcDbEntity
  8
0
  6
CONTINUOUS
 62
     7
100
AcDbLine
 10
4.2321479144
 20
4.3685995462
 30
0.0
 11
4.2121479144
 21
4.3885995462
 31
0.0
  0
LINE
  5
D7
330
1F
100
AcDbEntity
  8
0
  6
CONTINUOUS
 62
     7
100
AcDbLine
 10
2.4411242924
 20
4.3885995462
 30
0.0
 11
2.4211242924
 21
4.3685995462
 31
0.0
  0
LINE
  5
D8
330
1F
100
AcDbEntity
  8
0
  6
CONTINUOUS
 62
     7
100
AcDbLine
 10
2.4211242924
 20
3.1487570265
 30
0.0
 11
2.4411242924
 21
3.1287570265
 31
0.0
  0
LINE
  5
D9
330
1F
100
AcDbEntity
  8
0
  6
CONTINUOUS
 62
     7
100
AcDbLine
 10
2.4411242924
 20
4.3885995462
 30
0.0
 11
2.4411242924
 21
3.1287570265
 31
0.0
  0
LINE
  5
DA
330
1F
100
AcDbEntity
  8
0
  6
CONTINUOUS
 62
     7
100
AcDbLine
 10
2.932935316
 20
4.2504104123
 30
0.0
 11
2.932935316
 21
4.3885995462
 31
0.0
  0
LINE
  5
DB
330
1F
100
AcDbEntity
  8
0
  6
CONTINUOUS
 62
     7
100
AcDbLine
 10
2.9723053947
 20
4.2504104123
 30
0.0
 11
2.932935316
 21
4.2504104123
 31
0.0
  0
LINE
  5
DC
330
1F
100
AcDbEntity
  8
0
  6
CONTINUOUS
 62
     7
100
AcDbLine
 10
2.9723053947
 20
3.2669461605
 30
0.0
 11
2.9723053947
 21
3.1287570265
 31
0.0
  0
LINE
  5
DD
330
1F
100
AcDbEntity
  8
0
  6
CONTINUOUS
 62
     7
100
AcDbLine
 10
2.9723053947
 20
4.3885995462
 30
0.0
 11
2.9723053947
 21
4.2504104123
 31
0.0
  0
LINE
  5
DE
330
1F
100
AcDbEntity
  8
0
  6
CONTINUOUS
 62
     7
100
AcDbLine
 10
2.932935316
 20
3.2669461605
 30
0.0
 11
2.9723053947
 21
3.2669461605
 31
0.0
  0
LINE
  5
DF
330
1F
100
AcDbEntity
  8
0
  6
CONTINUOUS
 62
     7
100
AcDbLine
 10
2.932935316
 20
3.1287570265
 30
0.0
 11
2.932935316
 21
3.2669461605
 31
0.0
  0
LINE
  5
E0
330
1F
100
AcDbEntity
  8
0
  6
CONTINUOUS
 62
     7
100
AcDbLine
 10
4.2121479144
 20
3.1290646804
 30
0.0
 11
3.7203368908
 21
3.1290646804
 31
0.0
  0
LINE
  5
E1
330
1F
100
AcDbEntity
  8
0
  6
CONTINUOUS
 62
     7
100
AcDbLine
 10
3.7203368908
 20
3.9948987588
 30
0.0
 11
3.7203368908
 21
3.1290646804
 31
0.0
  0
LINE
  5
E2
330
1F
100
AcDbEntity
  8
0
  6
CONTINUOUS
 62
     7
100
AcDbLine
 10
3.680966812
 20
3.9948987588
 30
0.0
 11
3.7203368908
 21
3.9948987588
 31
0.0
  0
LINE
  5
E3
330
1F
100
AcDbEntity
  8
0
  6
CONTINUOUS
 62
     7
100
AcDbLine
 10
3.680966812
 20
3.1287570265
 30
0.0
 11
3.680966812
 21
3.9948987588
 31
0.0
  0
LINE
  5
E4
330
1F
100
AcDbEntity
  8
0
  6
CONTINUOUS
 62
     7
100
AcDbLine
 10
4.2121479144
 20
3.1290646804
 30
0.0
 11
4.2121479144
 21
4.3885995462
 31
0.0
  0
LINE
  5
E5
330
1F
100
AcDbEntity
  8
0
  6
CONTINUOUS
 62
     7
100
AcDbLine
 10
4.0782115624
 20
3.1747256496
 30
0.0
 11
3.8742732428
 21
3.1747256496
 31
0.0
  0
SPLINE
  5
E6
330
1F
100
AcDbEntity
  8
0
  6
CONTINUOUS
 62
     7
100
AcDbSpline
210
0.0
220
0.0
230
1.0
 70
     8
 71
     3
 72
    52
 73
    48
 74
     0
 42
0.00000001
 43
0.00000001
 40
0.0
 40
0.0
 40
0.0
 40
0.0
 40
0.0625000000000002
 40
0.0625000000000002
 40
0.1250000000000004
 40
0.1250000000000004
 40
0.1875000000000006
 40
0.1875000000000006
 40
0.2500000000000007
 40
0.2500000000000007
 40
0.2812500000000008
 40
0.2812500000000008
 40
0.3125000000000008
 40
0.3125000000000008
 40
0.3437500000000008
 40
0.3437500000000008
 40
0.3750000000000008
 40
0.3750000000000008
 40
0.4062500000000008
 40
0.4062500000000008
 40
0.4375000000000008
 40
0.4375000000000008
 40
0.4687500000000008
 40
0.4687500000000008
 40
0.5000000000000008
 40
0.5000000000000008
 40
0.5312500000000008
 40
0.5312500000000008
 40
0.5625000000000008
 40
0.5625000000000008
 40
0.6250000000000007
 40
0.6250000000000007
 40
0.6562500000000007
 40
0.6562500000000007
 40
0.6875000000000007
 40
0.6875000000000007
 40
0.7500000000000007
 40
0.7500000000000007
 40
0.8125000000000007
 40
0.8125000000000007
 40
0.8437500000000006
 40
0.8437500000000006
 40
0.8750000000000004
 40
0.8750000000000004
 40
0.9375000000000002
 40
0.9375000000000002
 40
1.0
 40
1.0
 40
1.0
 40
1.0
 10
3.874273242783253
 20
3.174725649612861
 30
0.0
 10
3.85710536357118
 20
3.183889948548795
 30
0.0
 10
3.842121523210609
 20
3.194743820548123
 30
0.0
 10
3.815009858565201
 20
3.22002582530045
 30
0.0
 10
3.802949121353545
 20
3.234450265853949
 30
0.0
 10
3.782232201068339
 20
3.267616669267066
 30
0.0
 10
3.773877249327553
 20
3.285894656720145
 30
0.0
 10
3.762306004502226
 20
3.326257465137681
 30
0.0
 10
3.759123701901718
 20
3.348623294858368
 30
0.0
 10
3.760133328799905
 20
3.38366587312574
 30
0.0
 10
3.761416118223532
 20
3.395645614709302
 30
0.0
 10
3.766289448086303
 20
3.420190640986563
 30
0.0
 10
3.769849582065731
 20
3.432533987265834
 30
0.0
 10
3.779375379156667
 20
3.456862124005592
 30
0.0
 10
3.785399172073311
 20
3.468984230883234
 30
0.0
 10
3.800075381337066
 20
3.492413232189896
 30
0.0
 10
3.808556254981822
 20
3.503476164527771
 30
0.0
 10
3.827886686428294
 20
3.524109328125374
 30
0.0
 10
3.83889981187844
 20
3.533788374409005
 30
0.0
 10
3.862671322944269
 20
3.550686354917469
 30
0.0
 10
3.875370751324738
 20
3.55792300975664
 30
0.0
 10
3.902414830445088
 20
3.569845612879547
 30
0.0
 10
3.916761400021052
 20
3.574480627221527
 30
0.0
 10
3.945734318965452
 20
3.580635336321565
 30
0.0
 10
3.96063629995182
 20
3.582240717387539
 30
0.0
 10
3.990613593284451
 20
3.58232619870574
 30
0.0
 10
4.005376121253517
 20
3.58082851370054
 30
0.0
 10
4.034458800240515
 20
3.574839465961246
 30
0.0
 10
4.048868609266542
 20
3.570272844810979
 30
0.0
 10
4.089415189886443
 20
3.552691596453994
 30
0.0
 10
4.113891485171727
 20
3.535300583289692
 30
0.0
 10
4.143206017987485
 20
3.504358453428035
 30
0.0
 10
4.151938244677136
 20
3.493059079552761
 30
0.0
 10
4.166639302352321
 20
3.469796634516072
 30
0.0
 10
4.172686840218256
 20
3.457790079871057
 30
0.0
 10
4.187280768215534
 20
3.420957658700402
 30
0.0
 10
4.191931994165358
 20
3.39616247376736
 30
0.0
 10
4.193411729873493
 20
3.34888271586785
 30
0.0
 10
4.190327306710524
 20
3.327000939960921
 30
0.0
 10
4.181684238075749
 20
3.296518960112643
 30
0.0
 10
4.178097056450381
 20
3.286730900147233
 30
0.0
 10
4.169885626390532
 20
3.268324841031482
 30
0.0
 10
4.165247964275939
 20
3.259645980137329
 30
0.0
 10
4.149947581878816
 20
3.235029887276884
 30
0.0
 10
4.13792815330354
 20
3.220495456229679
 30
0.0
 10
4.110482982164364
 20
3.194809403590773
 30
0.0
 10
4.09537726663328
 20
3.183888787528447
 30
0.0
 10
4.078211562411049
 20
3.174725649612861
 30
0.0
  0
LINE
  5
E7
330
1F
100
AcDbEntity
  8
0
  6
CONTINUOUS
 62
     7
100
AcDbLine
 10
4.2321479144
 20
4.3685995462
 30
0.0
 11
4.2321479144
 21
3.1490747739
 31
0.0
  0
LINE
  5
E8
330
1F
100
AcDbEntity
  8
0
  6
CONTINUOUS
 62
     7
100
AcDbLine
 10
4.2121479144
 20
3.1290646804
 30
0.0
 11
4.2321479144
 21
3.1490747739
 31
0.0
  0
LINE
  5
E9
330
1F
100
AcDbEntity
  8
0
  6
CONTINUOUS
 62
     7
100
AcDbLine
 10
2.4211242924
 20
3.1487570265
 30
0.0
 11
2.4211242924
 21
4.3685995462
 31
0.0
  0
CIRCLE
  5
EA
330
1F
100
AcDbEntity
  8
0
  6
CONTINUOUS
 62
     7
100
AcDbCircle
 10
3.9762424026
 20
3.3657489053
 30
0.0
 40
0.1614173228346458
  0
LINE
  5
EB
330
1F
100
AcDbEntity
  8
0
  6
CONTINUOUS
 62
     7
100
AcDbLine
 10
4.0549825601
 20
3.3202882542
 30
0.0
 11
4.0549825601
 21
3.4112095564
 31
0.0
  0
LINE
  5
EC
330
1F
100
AcDbEntity
  8
0
  6
CONTINUOUS
 62
     7
100
AcDbLine
 10
3.9762424026
 20
3.4566702076
 30
0.0
 11
3.8975022451
 21
3.4112095564
 31
0.0
  0
LINE
  5
ED
330
1F
100
AcDbEntity
  8
0
  6
CONTINUOUS
 62
     7
100
AcDbLine
 10
3.8975022451
 20
3.3202882542
 30
0.0
 11
3.9762424026
 21
3.2748276031
 31
0.0
  0
LINE
  5
EE
330
1F
100
AcDbEntity
  8
0
  6
CONTINUOUS
 62
     7
100
AcDbLine
 10
3.8975022451
 20
3.4112095564
 30
0.0
 11
3.8975022451
 21
3.3202882542
 31
0.0
  0
LINE
  5
EF
330
1F
100
AcDbEntity
  8
0
  6
CONTINUOUS
 62
     7
100
AcDbLine
 10
4.0549825601
 20
3.4112095564
 30
0.0
 11
3.9762424026
 21
3.4566702076
 31
0.0
  0
LINE
  5
F0
330
1F
100
AcDbEntity
  8
0
  6
CONTINUOUS
 62
     7
100
AcDbLine
 10
3.9762424026
 20
3.2748276031
 30
0.0
 11
4.0549825601
 21
3.3202882542
 31
0.0
  0
CIRCLE
  5
F1
330
1F
100
AcDbEntity
  8
0
  6
CONTINUOUS
 62
     7
100
AcDbCircle
 10
3.9762424026
 20
3.3657489053
 30
0.0
 40
0.1771653543307088
  0
SPLINE
  5
F2
330
1F
100
AcDbEntity
  8
0
  6
HIDDEN
 62
     7
100
AcDbSpline
210
0.0
220
0.0
230
1.0
 70
     8
 71
     3
 72
    52
 73
    48
 74
     0
 42
0.00000001
 43
0.00000001
 40
0.0
 40
0.0
 40
0.0
 40
0.0
 40
0.0624999999999998
 40
0.0624999999999998
 40
0.1249999999999996
 40
0.1249999999999996
 40
0.1874999999999995
 40
0.1874999999999995
 40
0.2499999999999993
 40
0.2499999999999993
 40
0.2812499999999992
 40
0.2812499999999992
 40
0.3124999999999991
 40
0.3124999999999991
 40
0.343749999999999
 40
0.343749999999999
 40
0.3749999999999989
 40
0.3749999999999989
 40
0.4062499999999988
 40
0.4062499999999988
 40
0.4374999999999987
 40
0.4374999999999987
 40
0.4687499999999986
 40
0.4687499999999986
 40
0.4999999999999984
 40
0.4999999999999984
 40
0.5312499999999983
 40
0.5312499999999983
 40
0.5624999999999983
 40
0.5624999999999983
 40
0.6249999999999986
 40
0.6249999999999986
 40
0.6562499999999986
 40
0.6562499999999986
 40
0.6874999999999986
 40
0.6874999999999986
 40
0.7499999999999988
 40
0.7499999999999988
 40
0.8124999999999991
 40
0.8124999999999991
 40
0.8437499999999992
 40
0.8437499999999992
 40
0.8749999999999993
 40
0.8749999999999993
 40
0.9374999999999997
 40
0.9374999999999997
 40
1.0
 40
1.0
 40
1.0
 40
1.0
 10
2.575060644358056
 20
3.522457813951102
 30
0.0
 10
2.557892765145983
 20
3.49980306064978
 30
0.0
 10
2.542908924785412
 20
3.476789278209536
 30
0.0
 10
2.515797260140004
 20
3.431054995307977
 30
0.0
 10
2.503736522928349
 20
3.408292398356281
 30
0.0
 10
2.483019602643142
 20
3.363148545110177
 30
0.0
 10
2.474664650902355
 20
3.3414033459056
 30
0.0
 10
2.463093406077029
 20
3.299706642617178
 30
0.0
 10
2.459911103476521
 20
3.27958381525211
 30
0.0
 10
2.460920730374708
 20
3.252333110462616
 30
0.0
 10
2.462203519798335
 20
3.243676952044754
 30
0.0
 10
2.467076849661106
 20
3.22722254129519
 30
0.0
 10
2.470636983640534
 20
3.219579438399641
 30
0.0
 10
2.480162780731471
 20
3.205591786935063
 30
0.0
 10
2.486186573648113
 20
3.199170856562171
 30
0.0
 10
2.500862782911869
 20
3.18764927597077
 30
0.0
 10
2.509343656556625
 20
3.182659144877847
 30
0.0
 10
2.528674088003098
 20
3.173953070403825
 30
0.0
 10
2.539687213453243
 20
3.170200366202437
 30
0.0
 10
2.563458724519072
 20
3.164017802162681
 30
0.0
 10
2.576158152899541
 20
3.161570752323681
 30
0.0
 10
2.603202232019891
 20
3.157693835884145
 30
0.0
 10
2.617548801595855
 20
3.156281125420167
 30
0.0
 10
2.646521720540256
 20
3.154433447670954
 30
0.0
 10
2.661423701526624
 20
3.15397126656545
 30
0.0
 10
2.691400994859253
 20
3.153946331925883
 30
0.0
 10
2.706163522828321
 20
3.154377016661528
 30
0.0
 10
2.735246201815318
 20
3.156171975763727
 30
0.0
 10
2.749656010841345
 20
3.1575608790222
 30
0.0
 10
2.790202591461246
 20
3.163260706700935
 30
0.0
 10
2.81467888674653
 20
3.169268554130648
 30
0.0
 10
2.843993419562287
 20
3.182269251552826
 30
0.0
 10
2.852725646251939
 20
3.187350867263644
 30
0.0
 10
2.867426703927124
 20
3.1987533145438
 30
0.0
 10
2.873474241793059
 20
3.205083394751778
 30
0.0
 10
2.888068169790337
 20
3.22618747490205
 30
0.0
 10
2.892719395740161
 20
3.242656610601262
 30
0.0
 10
2.894199131448296
 20
3.2793415835749
 30
0.0
 10
2.891114708285326
 20
3.298997202940088
 30
0.0
 10
2.882471639650552
 20
3.330399919193208
 30
0.0
 10
2.878884458025184
 20
3.341221970731437
 30
0.0
 10
2.870673027965335
 20
3.363004671538508
 30
0.0
 10
2.866035365850742
 20
3.374023834551208
 30
0.0
 10
2.850734983453618
 20
3.40745309747918
 30
0.0
 10
2.838715554878343
 20
3.430254017153699
 30
0.0
 10
2.811270383739167
 20
3.476623074926701
 30
0.0
 10
2.796164668208083
 20
3.499805930768895
 30
0.0
 10
2.778998963985852
 20
3.522457813951102
 30
0.0
  0
SPLINE
  5
F3
330
1F
100
AcDbEntity
  8
0
  6
HIDDEN
 62
     7
100
AcDbSpline
210
0.0
220
0.0
230
1.0
 70
     8
 71
     3
 72
    44
 73
    40
 74
     0
 42
0.00000001
 43
0.00000001
 40
-0.0312499999999999
 40
-0.0312499999999999
 40
0.0
 40
0.0
 40
0.0625000000000002
 40
0.0625000000000002
 40
0.1250000000000004
 40
0.1250000000000004
 40
0.1875000000000006
 40
0.1875000000000006
 40
0.2500000000000008
 40
0.2500000000000008
 40
0.312500000000001
 40
0.312500000000001
 40
0.3750000000000012
 40
0.3750000000000012
 40
0.4062500000000012
 40
0.4062500000000012
 40
0.4375000000000011
 40
0.4375000000000011
 40
0.500000000000001
 40
0.500000000000001
 40
0.5625000000000009
 40
0.5625000000000009
 40
0.6250000000000007
 40
0.6250000000000007
 40
0.6875000000000006
 40
0.6875000000000006
 40
0.7500000000000004
 40
0.7500000000000004
 40
0.8125000000000003
 40
0.8125000000000003
 40
0.8750000000000001
 40
0.8750000000000001
 40
0.9062500000000001
 40
0.9062500000000001
 40
0.9375000000000001
 40
0.9375000000000001
 40
0.9687500000000001
 40
0.9687500000000001
 40
1.0
 40
1.0
 40
1.0625
 40
1.0625
 10
2.668226991086052
 20
4.132372997520529
 30
0.0
 10
2.694635430343757
 20
4.132372997520529
 30
0.0
 10
2.71121057682787
 20
4.138100860030418
 30
0.0
 10
2.739036756443126
 20
4.154651039607005
 30
0.0
 10
2.750267370172192
 20
4.165033711154678
 30
0.0
 10
2.76892136630247
 20
4.187109668562433
 30
0.0
 10
2.776026120103937
 20
4.198495921034882
 30
0.0
 10
2.786552767337016
 20
4.221462109862851
 30
0.0
 10
2.789851783308804
 20
4.23297975996271
 30
0.0
 10
2.791882559671314
 20
4.254848184753234
 30
0.0
 10
2.790601840066846
 20
4.265518094875837
 30
0.0
 10
2.782504463810794
 20
4.284722391074988
 30
0.0
 10
2.775549249956672
 20
4.2934925590556
 30
0.0
 10
2.760697026341615
 20
4.304318080618082
 30
0.0
 10
2.754907490573705
 20
4.307613345115142
 30
0.0
 10
2.742149318651812
 20
4.31325794013556
 30
0.0
 10
2.735187600254394
 20
4.315632036835149
 30
0.0
 10
2.712420325899503
 20
4.321479328366911
 30
0.0
 10
2.695085686391776
 20
4.323511550932572
 30
0.0
 10
2.660342417175802
 20
4.323614304138212
 30
0.0
 10
2.642989876778079
 20
4.321691294872863
 30
0.0
 10
2.61242990860026
 20
4.314101792240857
 30
0.0
 10
2.599185330891082
 20
4.308394319813427
 30
0.0
 10
2.578977765570692
 20
4.29399026787269
 30
0.0
 10
2.571922211271908
 20
4.285288950576188
 30
0.0
 10
2.563573136933289
 20
4.266078431312625
 30
0.0
 10
2.562195308215484
 20
4.255443725680994
 30
0.0
 10
2.564095715029114
 20
4.233431625361461
 30
0.0
 10
2.567374910532005
 20
4.221851574656459
 30
0.0
 10
2.577802732163437
 20
4.198901196041834
 30
0.0
 10
2.585067741204552
 20
4.187233120458523
 30
0.0
 10
2.598896797639333
 20
4.170807754984119
 30
0.0
 10
2.604000646352709
 20
4.165499981469326
 30
0.0
 10
2.615458349491317
 20
4.155403989214077
 30
0.0
 10
2.621794194481105
 20
4.15064511896547
 30
0.0
 10
2.635627715099946
 20
4.142375098712463
 30
0.0
 10
2.643287297814103
 20
4.138791543239603
 30
0.0
 10
2.659490926854832
 20
4.133805557420196
 30
0.0
 10
2.668226991086052
 20
4.132372997520529
 30
0.0
 10
2.694635430343757
 20
4.132372997520529
 30
0.0
  0
LINE
  5
F4
330
1F
100
AcDbEntity
  8
0
  6
HIDDEN
 62
     7
100
AcDbLine
 10
2.932935316
 20
4.2504104123
 30
0.0
 11
2.932935316
 21
3.2669461605
 31
0.0
  0
LINE
  5
F5
330
1F
100
AcDbEntity
  8
0
  6
HIDDEN
 62
     7
100
AcDbLine
 10
2.9723053947
 20
4.2504104123
 30
0.0
 11
2.9723053947
 21
3.2669461605
 31
0.0
  0
CIRCLE
  5
F6
330
1F
100
AcDbEntity
  8
0
  6
HIDDEN
 62
     7
100
AcDbCircle
 10
3.9762424026
 20
3.3657489053
 30
0.0
 40
0.1141732283464569
  0
SPLINE
  5
F7
330
1F
100
AcDbEntity
  8
0
  6
HIDDEN
 62
     7
100
AcDbSpline
210
0.0
220
0.0
230
1.0
 70
     8
 71
     3
 72
     8
 73
     4
 74
     0
 42
0.00000001
 43
0.00000001
 40
0.0
 40
0.0
 40
0.0
 40
0.0
 40
1.0
 40
1.0
 40
1.0
 40
1.0
 10
4.232147914408174
 20
3.582293022201631
 30
0.0
 10
4.225478590357669
 20
3.589003751346104
 30
0.0
 10
4.218811561571789
 20
3.595716805190776
 30
0.0
 10
4.212147914408175
 20
3.602433130226815
 30
0.0
  0
SPLINE
  5
F8
330
1F
100
AcDbEntity
  8
0
  6
HIDDEN
 62
     7
100
AcDbSpline
210
0.0
220
0.0
230
1.0
 70
    24
 71
     3
 72
     8
 73
     4
 74
     0
 42
0.00000001
 43
0.00000001
 40
0.0
 40
0.0
 40
0.0
 40
0.0
 40
1.0
 40
1.0
 40
1.0
 40
1.0
 10
2.44112429236093
 20
3.778363325762126
 30
0.0
 10
2.434460631490636
 20
3.778363325762126
 30
0.0
 10
2.427793614705521
 20
3.778363325762126
 30
0.0
 10
2.42112429236093
 20
3.778363325762126
 30
0.0
  0
SPLINE
  5
F9
330
1F
100
AcDbEntity
  8
0
  6
HIDDEN
 62
     7
100
AcDbSpline
210
0.0
220
0.0
230
1.0
 70
    24
 71
     3
 72
     8
 73
     4
 74
     0
 42
0.00000001
 43
0.00000001
 40
0.0
 40
0.0
 40
0.0
 40
0.0
 40
1.0
 40
1.0
 40
1.0
 40
1.0
 10
2.44112429236093
 20
3.738993247021968
 30
0.0
 10
2.434460631490636
 20
3.738993247021968
 30
0.0
 10
2.427793614705521
 20
3.738993247021968
 30
0.0
 10
2.42112429236093
 20
3.738993247021968
 30
0.0
  0
LINE
  5
FA
330
1F
100
AcDbEntity
  8
0
  6
HIDDEN
 62
     7
100
AcDbLine
 10
2.4411242924
 20
3.7783633258
 30
0.0
 11
2.932935316
 21
3.7783633258
 31
0.0
  0
LINE
  5
FB
330
1F
100
AcDbEntity
  8
0
  6
HIDDEN
 62
     7
100
AcDbLine
 10
2.4411242924
 20
3.738993247
 30
0.0
 11
2.932935316
 21
3.738993247
 31
0.0
  0
LINE
  5
FC
330
1F
100
AcDbEntity
  8
0
  6
HIDDEN
 62
     7
100
AcDbLine
 10
3.7203368908
 20
3.6024331302
 30
0.0
 11
4.2121479144
 21
3.6024331302
 31
0.0
  0
LINE
  5
FD
330
1F
100
AcDbEntity
  8
0
  6
HIDDEN
 62
     7
100
AcDbLine
 10
2.8935652372
 20
3.522457814
 30
0.0
 11
2.4604943711
 21
3.522457814
 31
0.0
  0
CIRCLE
  5
FE
330
1F
100
AcDbEntity
  8
0
  6
HIDDEN
 62
     7
100
AcDbCircle
 10
3.9762424026
 20
3.3657489053
 30
0.0
 40
0.098425196850394
  0
CIRCLE
  5
FF
330
1F
100
AcDbEntity
  8
0
  6
HIDDEN
 62
     7
100
AcDbCircle
 10
3.9762424026
 20
3.3657489053
 30
0.0
 40
0.0826771653543314
  0
LINE
  5
100
330
1F
100
AcDbEntity
  8
0
  6
HIDDEN
 62
     7
100
AcDbLine
 10
2.8541951585
 20
3.3413554517
 30
0.0
 11
2.4998644498
 21
3.3413554517
 31
0.0
  0
LINE
  5
101
330
1F
100
AcDbEntity
  8
0
  6
HIDDEN
 62
     7
100
AcDbLine
 10
2.4998644498
 20
3.5067097825
 30
0.0
 11
2.8541951585
 21
3.5067097825
 31
0.0
  0
LINE
  5
102
330
1F
100
AcDbEntity
  8
0
  6
HIDDEN
 62
     7
100
AcDbLine
 10
2.5156124813
 20
3.3256074203
 30
0.0
 11
2.838447127
 21
3.3256074203
 31
0.0
  0
LINE
  5
103
330
1F
100
AcDbEntity
  8
0
  6
HIDDEN
 62
     7
100
AcDbLine
 10
2.5786046073
 20
4.176001121
 30
0.0
 11
2.775455001
 21
4.176001121
 31
0.0
  0
LINE
  5
104
330
1F
100
AcDbEntity
  8
0
  6
HIDDEN
 62
     7
100
AcDbLine
 10
2.7597069695
 20
4.1917491525
 30
0.0
 11
2.5943526388
 21
4.1917491525
 31
0.0
  0
LINE
  5
105
330
1F
100
AcDbEntity
  8
0
  6
HIDDEN
 62
     7
100
AcDbLine
 10
2.6770298042
 20
3.4437176565
 30
0.0
 11
2.6770298042
 21
3.3256074203
 31
0.0
  0
LINE
  5
106
330
1F
100
AcDbEntity
  8
0
  6
HIDDEN
 62
     7
100
AcDbLine
 10
2.6770298042
 20
3.4437176565
 30
0.0
 11
2.7557699617
 21
3.4437176565
 31
0.0
  0
LINE
  5
107
330
1F
100
AcDbEntity
  8
0
  6
HIDDEN
 62
     7
100
AcDbLine
 10
2.5982896467
 20
3.4437176565
 30
0.0
 11
2.6770298042
 21
3.4437176565
 31
0.0
  0
LINE
  5
108
330
1F
100
AcDbEntity
  8
0
  6
HIDDEN
 62
     7
100
AcDbLine
 10
2.5982896467
 20
3.4437176565
 30
0.0
 11
2.5982896467
 21
3.3256074203
 31
0.0
  0
LINE
  5
109
330
1F
100
AcDbEntity
  8
0
  6
HIDDEN
 62
     7
100
AcDbLine
 10
2.7557699617
 20
3.4437176565
 30
0.0
 11
2.7557699617
 21
3.3256074203
 31
0.0
  0
LINE
  5
10A
330
1F
100
AcDbEntity
  8
0
  6
HIDDEN
 62
     7
100
AcDbLine
 10
4.2321479144
 20
3.9361586014
 30
0.0
 11
4.2121479144
 21
3.9161586014
 31
0.0
  0
LINE
  5
10B
330
1F
100
AcDbEntity
  8
0
  6
HIDDEN
 62
     7
100
AcDbLine
 10
2.4211242924
 20
3.5811979714
 30
0.0
 11
2.4411242924
 21
3.6011979714
 31
0.0
  0
LINE
  5
10C
330
1F
100
AcDbEntity
  8
0
  6
HIDDEN
 62
     7
100
AcDbLine
 10
2.4411242924
 20
3.9161586014
 30
0.0
 11
2.4211242924
 21
3.9361586014
 31
0.0
  0
LINE
  5
10D
330
1F
100
AcDbEntity
  8
0
  6
HIDDEN
 62
     7
100
AcDbLine
 10
3.680966812
 20
3.9161586014
 30
0.0
 11
2.9723053947
 21
3.9161586014
 31
0.0
  0
LINE
  5
10E
330
1F
100
AcDbEntity
  8
0
  6
HIDDEN
 62
     7
100
AcDbLine
 10
2.9723053947
 20
3.6011979714
 30
0.0
 11
3.680966812
 21
3.6011979714
 31
0.0
  0
LINE
  5
10F
330
1F
100
AcDbEntity
  8
0
  6
HIDDEN
 62
     7
100
AcDbLine
 10
2.932935316
 20
3.9161586014
 30
0.0
 11
2.4411242924
 21
3.9161586014
 31
0.0
  0
LINE
  5
110
330
1F
100
AcDbEntity
  8
0
  6
HIDDEN
 62
     7
100
AcDbLine
 10
2.4411242924
 20
3.6011979714
 30
0.0
 11
2.932935316
 21
3.6011979714
 31
0.0
  0
LINE
  5
111
330
1F
100
AcDbEntity
  8
0
  6
HIDDEN
 62
     7
100
AcDbLine
 10
4.2121479144
 20
3.9161586014
 30
0.0
 11
3.7203368908
 21
3.9161586014
 31
0.0
  0
LINE
  5
112
330
1F
100
AcDbEntity
  8
0
  6
HIDDEN
 62
     7
100
AcDbLine
 10
2.8935652372
 20
3.2666713196
 30
0.0
 11
2.8935652372
 21
3.522457814
 31
0.0
  0
LINE
  5
113
330
1F
100
AcDbEntity
  8
0
  6
HIDDEN
 62
     7
100
AcDbLine
 10
2.4604943711
 20
3.522457814
 30
0.0
 11
2.4604943711
 21
3.2665534604
 31
0.0
  0
LINE
  5
114
330
1F
100
AcDbEntity
  8
0
  6
HIDDEN
 62
     7
100
AcDbLine
 10
2.7912030325
 20
3.522457814
 30
0.0
 11
2.7912030325
 21
3.738993247
 31
0.0
  0
LINE
  5
115
330
1F
100
AcDbEntity
  8
0
  6
HIDDEN
 62
     7
100
AcDbLine
 10
2.5628565758
 20
3.738993247
 30
0.0
 11
2.5628565758
 21
3.522457814
 31
0.0
  0
LINE
  5
116
330
1F
100
AcDbEntity
  8
0
  6
HIDDEN
 62
     7
100
AcDbLine
 10
2.7912030325
 20
3.7783633258
 30
0.0
 11
2.7912030325
 21
4.2507340266
 31
0.0
  0
LINE
  5
117
330
1F
100
AcDbEntity
  8
0
  6
HIDDEN
 62
     7
100
AcDbLine
 10
2.5628565758
 20
4.2508875132
 30
0.0
 11
2.5628565758
 21
3.7783633258
 31
0.0
  0
LINE
  5
118
330
1F
100
AcDbEntity
  8
0
  6
HIDDEN
 62
     7
100
AcDbLine
 10
2.4998644498
 20
3.5067097825
 30
0.0
 11
2.4998644498
 21
3.3413554517
 31
0.0
  0
LINE
  5
119
330
1F
100
AcDbEntity
  8
0
  6
HIDDEN
 62
     7
100
AcDbLine
 10
2.8541951585
 20
3.3413554517
 30
0.0
 11
2.8541951585
 21
3.5067097825
 31
0.0
  0
LINE
  5
11A
330
1F
100
AcDbEntity
  8
0
  6
HIDDEN
 62
     7
100
AcDbLine
 10
2.8541951585
 20
3.5067097825
 30
0.0
 11
2.838447127
 21
3.522457814
 31
0.0
  0
LINE
  5
11B
330
1F
100
AcDbEntity
  8
0
  6
HIDDEN
 62
     7
100
AcDbLine
 10
2.5156124813
 20
3.522457814
 30
0.0
 11
2.4998644498
 21
3.5067097825
 31
0.0
  0
LINE
  5
11C
330
1F
100
AcDbEntity
  8
0
  6
HIDDEN
 62
     7
100
AcDbLine
 10
2.4998644498
 20
3.3413554517
 30
0.0
 11
2.5156124813
 21
3.3256074203
 31
0.0
  0
LINE
  5
11D
330
1F
100
AcDbEntity
  8
0
  6
HIDDEN
 62
     7
100
AcDbLine
 10
2.838447127
 20
3.3256074203
 30
0.0
 11
2.8541951585
 21
3.3413554517
 31
0.0
  0
LINE
  5
11E
330
1F
100
AcDbEntity
  8
0
  6
HIDDEN
 62
     7
100
AcDbLine
 10
2.775455001
 20
3.522457814
 30
0.0
 11
2.775455001
 21
4.176001121
 31
0.0
  0
LINE
  5
11F
330
1F
100
AcDbEntity
  8
0
  6
HIDDEN
 62
     7
100
AcDbLine
 10
2.5786046073
 20
4.176001121
 30
0.0
 11
2.5786046073
 21
3.522457814
 31
0.0
  0
LINE
  5
120
330
1F
100
AcDbEntity
  8
0
  6
HIDDEN
 62
     7
100
AcDbLine
 10
2.775455001
 20
4.176001121
 30
0.0
 11
2.7597069695
 21
4.1917491525
 31
0.0
  0
LINE
  5
121
330
1F
100
AcDbEntity
  8
0
  6
HIDDEN
 62
     7
100
AcDbLine
 10
2.5943526388
 20
4.1917491525
 30
0.0
 11
2.5786046073
 21
4.176001121
 31
0.0
  0
LINE
  5
122
330
1F
100
AcDbEntity
  8
0
  6
CONTINUOUS
 62
     7
100
AcDbLine
 10
7.8335617717
 20
3.188583551
 30
0.0
 11
7.9829428472
 21
3.188583551
 31
0.0
  0
LINE
  5
123
330
1F
100
AcDbEntity
  8
0
  6
CONTINUOUS
 62
     7
100
AcDbLine
 10
7.8178137402
 20
3.2043315825
 30
0.0
 11
7.8335617717
 21
3.188583551
 31
0.0
  0
LINE
  5
124
330
1F
100
AcDbEntity
  8
0
  6
CONTINUOUS
 62
     7
100
AcDbLine
 10
8.231199567
 20
3.2673237085
 30
0.0
 11
8.2705696457
 21
3.2673237085
 31
0.0
  0
LINE
  5
125
330
1F
100
AcDbEntity
  8
0
  6
CONTINUOUS
 62
     7
100
AcDbLine
 10
8.6450564881
 20
3.2673237085
 30
0.0
 11
8.668207441
 21
3.2673237085
 31
0.0
  0
LINE
  5
126
330
1F
100
AcDbEntity
  8
0
  6
CONTINUOUS
 62
     7
100
AcDbLine
 10
8.2705696457
 20
3.4641741022
 30
0.0
 11
8.231199567
 21
3.4641741022
 31
0.0
  0
LINE
  5
127
330
1F
100
AcDbEntity
  8
0
  6
CONTINUOUS
 62
     7
100
AcDbLine
 10
8.668207441
 20
3.2673237085
 30
0.0
 11
8.6839554725
 21
3.28307174
 31
0.0
  0
LINE
  5
128
330
1F
100
AcDbEntity
  8
0
  6
CONTINUOUS
 62
     7
100
AcDbLine
 10
8.8209793417
 20
3.3413554517
 30
0.0
 11
8.8209793417
 21
3.4907365273
 31
0.0
  0
LINE
  5
129
330
1F
100
AcDbEntity
  8
0
  6
CONTINUOUS
 62
     7
100
AcDbLine
 10
8.8052313102
 20
3.3256074203
 30
0.0
 11
8.8209793417
 21
3.3413554517
 31
0.0
  0
LINE
  5
12A
330
1F
100
AcDbEntity
  8
0
  6
CONTINUOUS
 62
     7
100
AcDbLine
 10
8.7422391842
 20
4.1528501681
 30
0.0
 11
8.7422391842
 21
4.176001121
 31
0.0
  0
LINE
  5
12B
330
1F
100
AcDbEntity
  8
0
  6
CONTINUOUS
 62
     7
100
AcDbLine
 10
8.7422391842
 20
4.176001121
 30
0.0
 11
8.7264911527
 21
4.1917491525
 31
0.0
  0
ARC
  5
12C
330
1F
100
AcDbEntity
  8
0
  6
CONTINUOUS
 62
     7
100
AcDbCircle
 10
8.2508846063
 20
3.7586782864
 30
0.0
 40
0.17748031496063
100
AcDbArc
 50
276.3680023435
 51
263.6319976565
  0
LINE
  5
12D
330
1F
100
AcDbEntity
  8
0
  6
CONTINUOUS
 62
     7
100
AcDbLine
 10
8.231199567
 20
3.1490747739
 30
0.0
 11
8.231199567
 21
3.5822930222
 31
0.0
  0
ARC
  5
12E
330
1F
100
AcDbEntity
  8
0
  6
CONTINUOUS
 62
     7
100
AcDbCircle
 10
8.2508846063
 20
3.7586782864
 30
0.0
 40
0.6099212598425203
100
AcDbArc
 50
271.849526571
 51
268.150473429
  0
LINE
  5
12F
330
1F
100
AcDbEntity
  8
0
  6
CONTINUOUS
 62
     7
100
AcDbLine
 10
8.2705696457
 20
3.1490747739
 30
0.0
 11
8.2705696457
 21
3.5822930222
 31
0.0
  0
LINE
  5
130
330
1F
100
AcDbEntity
  8
0
  6
CONTINUOUS
 62
     7
100
AcDbLine
 10
8.231199567
 20
3.1290646804
 30
0.0
 11
8.231199567
 21
3.1490747739
 31
0.0
  0
ARC
  5
131
330
1F
100
AcDbEntity
  8
0
  6
CONTINUOUS
 62
     7
100
AcDbCircle
 10
8.2508846063
 20
3.7586782864
 30
0.0
 40
0.6299212598425196
100
AcDbArc
 50
271.7907846593
 51
268.2092153407
  0
LINE
  5
132
330
1F
100
AcDbEntity
  8
0
  6
CONTINUOUS
 62
     7
100
AcDbLine
 10
8.2705696457
 20
3.1290646804
 30
0.0
 11
8.2705696457
 21
3.1490747739
 31
0.0
  0
ARC
  5
133
330
1F
100
AcDbEntity
  8
0
  6
CONTINUOUS
 62
     7
100
AcDbCircle
 10
8.2508846063
 20
3.7586782864
 30
0.0
 40
0.1574803149606303
100
AcDbArc
 50
277.1807557815
 51
262.8192442185
  0
SPLINE
  5
134
330
1F
100
AcDbEntity
  8
0
  6
CONTINUOUS
 62
     7
100
AcDbSpline
210
0.0
220
0.0
230
1.0
 70
    24
 71
     3
 72
     8
 73
     4
 74
     0
 42
0.00000001
 43
0.00000001
 40
0.0
 40
0.0
 40
0.0
 40
0.0
 40
1.0
 40
1.0
 40
1.0
 40
1.0
 10
8.231199566953912
 20
3.582293022201631
 30
0.0
 10
8.231199566953912
 20
3.589003751346104
 30
0.0
 10
8.231199566953912
 20
3.595716805190776
 30
0.0
 10
8.231199566953912
 20
3.602433130226815
 30
0.0
  0
SPLINE
  5
135
330
1F
100
AcDbEntity
  8
0
  6
CONTINUOUS
 62
     7
100
AcDbSpline
210
0.0
220
0.0
230
1.0
 70
    24
 71
     3
 72
     8
 73
     4
 74
     0
 42
0.00000001
 43
0.00000001
 40
0.0
 40
0.0
 40
0.0
 40
0.0
 40
1.0
 40
1.0
 40
1.0
 40
1.0
 10
8.270569645694069
 20
3.582293022201631
 30
0.0
 10
8.270569645694069
 20
3.589003751346104
 30
0.0
 10
8.270569645694069
 20
3.595716805190776
 30
0.0
 10
8.270569645694069
 20
3.602433130226815
 30
0.0
  0
ARC
  5
136
330
1F
100
AcDbEntity
  8
0
  6
CONTINUOUS
 62
     7
100
AcDbCircle
 10
8.2508846063
 20
3.7586782864
 30
0.0
 40
0.1574803149606303
100
AcDbArc
 50
262.8192442185
 51
277.1807557815
  0
POLYLINE
  5
137
330
1F
100
AcDbEntity
  8
0
  6
CONTINUOUS
 62
     7
100
AcDb2dPolyline
 66
     1
 10
0.0
 20
0.0
 30
0.0
  0
VERTEX
  5
20C
330
137
100
AcDbEntity
  8
0
  6
CONTINUOUS
 62
     7
100
AcDbVertex
100
AcDb2dVertex
 10
8.2705696457
 20
3.1290646804
 30
0.0
  0
VERTEX
  5
20D
330
137
100
AcDbEntity
  8
0
  6
CONTINUOUS
 62
     7
100
AcDbVertex
100
AcDb2dVertex
 10
8.2508846063
 20
3.1287570265
 30
0.0
  0
VERTEX
  5
20E
330
137
100
AcDbEntity
  8
0
  6
CONTINUOUS
 62
     7
100
AcDbVertex
100
AcDb2dVertex
 10
8.231199567
 20
3.1290646804
 30
0.0
  0
SEQEND
  5
20F
330
137
100
AcDbEntity
  8
0
  6
CONTINUOUS
 62
     7
  0
LINE
  5
138
330
1F
100
AcDbEntity
  8
0
  6
CONTINUOUS
 62
     7
100
AcDbLine
 10
7.8335617717
 20
3.2868282622
 30
0.0
 11
7.8335617717
 21
3.188583551
 31
0.0
  0
LINE
  5
139
330
1F
100
AcDbEntity
  8
0
  6
CONTINUOUS
 62
     7
100
AcDbLine
 10
7.8178137402
 20
3.2043315825
 30
0.0
 11
7.8178137402
 21
3.3012393085
 31
0.0
  0
LINE
  5
13A
330
1F
100
AcDbEntity
  8
0
  6
CONTINUOUS
 62
     7
100
AcDbLine
 10
8.668207441
 20
3.2673237085
 30
0.0
 11
8.668207441
 21
3.2868282622
 31
0.0
  0
LINE
  5
13B
330
1F
100
AcDbEntity
  8
0
  6
CONTINUOUS
 62
     7
100
AcDbLine
 10
8.6839554725
 20
3.3012393085
 30
0.0
 11
8.6839554725
 21
3.28307174
 31
0.0
  0
LINE
  5
13C
330
1F
100
AcDbEntity
  8
0
  6
CONTINUOUS
 62
     7
100
AcDbLine
 10
8.8209793417
 20
3.3413554517
 30
0.0
 11
8.7227346305
 21
3.3413554517
 31
0.0
  0
LINE
  5
13D
330
1F
100
AcDbEntity
  8
0
  6
CONTINUOUS
 62
     7
100
AcDbLine
 10
8.7083235842
 20
3.3256074203
 30
0.0
 11
8.8052313102
 21
3.3256074203
 31
0.0
  0
LINE
  5
13E
330
1F
100
AcDbEntity
  8
0
  6
CONTINUOUS
 62
     7
100
AcDbLine
 10
8.7227346305
 20
4.176001121
 30
0.0
 11
8.7422391842
 21
4.176001121
 31
0.0
  0
LINE
  5
13F
330
1F
100
AcDbEntity
  8
0
  6
CONTINUOUS
 62
     7
100
AcDbLine
 10
8.7264911527
 20
4.1917491525
 30
0.0
 11
8.7083235842
 21
4.1917491525
 31
0.0
  0
LINE
  5
140
330
1F
100
AcDbEntity
  8
0
  6
HIDDEN
 62
     7
100
AcDbLine
 10
8.0146641339
 20
3.1747256496
 30
0.0
 11
8.0146641339
 21
3.5822843384
 31
0.0
  0
LINE
  5
141
330
1F
100
AcDbEntity
  8
0
  6
HIDDEN
 62
     7
100
AcDbLine
 10
7.6669319695
 20
3.9948987588
 30
0.0
 11
8.8348372431
 21
3.9948987588
 31
0.0
  0
ARC
  5
142
330
1F
100
AcDbEntity
  8
0
  6
HIDDEN
 62
     7
100
AcDbCircle
 10
8.2508846063
 20
3.7586782864
 30
0.0
 40
0.1574803149606303
100
AcDbArc
 50
180.0
 51
262.8192442185
  0
ARC
  5
143
330
1F
100
AcDbEntity
  8
0
  6
HIDDEN
 62
     7
100
AcDbCircle
 10
8.2508846063
 20
3.7586782864
 30
0.0
 40
0.1574803149606301
100
AcDbArc
 50
277.1807557815
 51
180.0
  0
LINE
  5
144
330
1F
100
AcDbEntity
  8
0
  6
HIDDEN
 62
     7
100
AcDbLine
 10
7.8571838189
 20
4.2504104123
 30
0.0
 11
7.8571838189
 21
3.2669461605
 31
0.0
  0
LINE
  5
145
330
1F
100
AcDbEntity
  8
0
  6
HIDDEN
 62
     7
100
AcDbLine
 10
8.4071297625
 20
3.7783633258
 30
0.0
 11
8.8804982123
 21
3.7783633258
 31
0.0
  0
LINE
  5
146
330
1F
100
AcDbEntity
  8
0
  6
HIDDEN
 62
     7
100
AcDbLine
 10
8.4071297625
 20
3.738993247
 30
0.0
 11
8.8804982123
 21
3.738993247
 31
0.0
  0
LINE
  5
147
330
1F
100
AcDbEntity
  8
0
  6
HIDDEN
 62
     7
100
AcDbLine
 10
8.8348372431
 20
3.522457814
 30
0.0
 11
8.4272785543
 21
3.522457814
 31
0.0
  0
ARC
  5
148
330
1F
100
AcDbEntity
  8
0
  6
HIDDEN
 62
     7
100
AcDbCircle
 10
8.2508846063
 20
3.7586782864
 30
0.0
 40
0.1774803149606306
100
AcDbArc
 50
263.6319976565
 51
276.3680023435
  0
POLYLINE
  5
149
330
1F
100
AcDbEntity
  8
0
  6
HIDDEN
 62
     7
100
AcDb2dPolyline
 66
     1
 10
0.0
 20
0.0
 30
0.0
  0
VERTEX
  5
210
330
149
100
AcDbEntity
  8
0
  6
HIDDEN
 62
     7
100
AcDbVertex
100
AcDb2dVertex
 10
8.2705696457
 20
3.1490747739
 30
0.0
  0
VERTEX
  5
211
330
149
100
AcDbEntity
  8
0
  6
HIDDEN
 62
     7
100
AcDbVertex
100
AcDb2dVertex
 10
8.2410408045
 20
3.1488364686
 30
0.0
  0
VERTEX
  5
212
330
149
100
AcDbEntity
  8
0
  6
HIDDEN
 62
     7
100
AcDbVertex
100
AcDb2dVertex
 10
8.231199567
 20
3.1490747739
 30
0.0
  0
SEQEND
  5
213
330
149
100
AcDbEntity
  8
0
  6
HIDDEN
 62
     7
  0
LINE
  5
14A
330
1F
100
AcDbEntity
  8
0
  6
HIDDEN
 62
     7
100
AcDbLine
 10
7.9989161024
 20
3.3657489053
 30
0.0
 11
7.9989161024
 21
3.5429142597
 31
0.0
  0
LINE
  5
14B
330
1F
100
AcDbEntity
  8
0
  6
HIDDEN
 62
     7
100
AcDbLine
 10
7.9989161024
 20
3.188583551
 30
0.0
 11
7.9989161024
 21
3.3657489053
 31
0.0
  0
LINE
  5
14C
330
1F
100
AcDbEntity
  8
0
  6
HIDDEN
 62
     7
100
AcDbLine
 10
7.8335617717
 20
3.3657489053
 30
0.0
 11
7.8335617717
 21
3.2868282622
 31
0.0
  0
LINE
  5
14D
330
1F
100
AcDbEntity
  8
0
  6
HIDDEN
 62
     7
100
AcDbLine
 10
7.8335617717
 20
3.5429142597
 30
0.0
 11
7.8335617717
 21
3.3657489053
 31
0.0
  0
LINE
  5
14E
330
1F
100
AcDbEntity
  8
0
  6
HIDDEN
 62
     7
100
AcDbLine
 10
7.8178137402
 20
3.3657489053
 30
0.0
 11
7.8178137402
 21
3.5271662282
 31
0.0
  0
LINE
  5
14F
330
1F
100
AcDbEntity
  8
0
  6
HIDDEN
 62
     7
100
AcDbLine
 10
7.8178137402
 20
3.3012393085
 30
0.0
 11
7.8178137402
 21
3.3657489053
 31
0.0
  0
LINE
  5
150
330
1F
100
AcDbEntity
  8
0
  6
HIDDEN
 62
     7
100
AcDbLine
 10
8.668207441
 20
3.2868282622
 30
0.0
 11
8.668207441
 21
3.4641741022
 31
0.0
  0
LINE
  5
151
330
1F
100
AcDbEntity
  8
0
  6
HIDDEN
 62
     7
100
AcDbLine
 10
8.6839554725
 20
3.4484260707
 30
0.0
 11
8.6839554725
 21
3.3012393085
 31
0.0
  0
LINE
  5
152
330
1F
100
AcDbEntity
  8
0
  6
HIDDEN
 62
     7
100
AcDbLine
 10
7.9359239764
 20
3.3202882542
 30
0.0
 11
7.9359239764
 21
3.4112095564
 31
0.0
  0
LINE
  5
153
330
1F
100
AcDbEntity
  8
0
  6
HIDDEN
 62
     7
100
AcDbLine
 10
7.9359239764
 20
3.2748276031
 30
0.0
 11
7.9359239764
 21
3.3202882542
 31
0.0
  0
LINE
  5
154
330
1F
100
AcDbEntity
  8
0
  6
HIDDEN
 62
     7
100
AcDbLine
 10
7.9359239764
 20
3.3202882542
 30
0.0
 11
7.8178137402
 21
3.3202882542
 31
0.0
  0
LINE
  5
155
330
1F
100
AcDbEntity
  8
0
  6
HIDDEN
 62
     7
100
AcDbLine
 10
7.9359239764
 20
3.4112095564
 30
0.0
 11
7.9359239764
 21
3.4566702076
 31
0.0
  0
LINE
  5
156
330
1F
100
AcDbEntity
  8
0
  6
HIDDEN
 62
     7
100
AcDbLine
 10
7.9359239764
 20
3.4112095564
 30
0.0
 11
7.8178137402
 21
3.4112095564
 31
0.0
  0
LINE
  5
157
330
1F
100
AcDbEntity
  8
0
  6
HIDDEN
 62
     7
100
AcDbLine
 10
7.9359239764
 20
3.2748276031
 30
0.0
 11
7.8178137402
 21
3.2748276031
 31
0.0
  0
LINE
  5
158
330
1F
100
AcDbEntity
  8
0
  6
HIDDEN
 62
     7
100
AcDbLine
 10
7.9359239764
 20
3.4566702076
 30
0.0
 11
7.8178137402
 21
3.4566702076
 31
0.0
  0
LINE
  5
159
330
1F
100
AcDbEntity
  8
0
  6
HIDDEN
 62
     7
100
AcDbLine
 10
8.7227346305
 20
3.3413554517
 30
0.0
 11
8.4666486331
 21
3.3413554517
 31
0.0
  0
LINE
  5
15A
330
1F
100
AcDbEntity
  8
0
  6
HIDDEN
 62
     7
100
AcDbLine
 10
8.4666486331
 20
3.5067097825
 30
0.0
 11
8.8209793417
 21
3.5067097825
 31
0.0
  0
LINE
  5
15B
330
1F
100
AcDbEntity
  8
0
  6
HIDDEN
 62
     7
100
AcDbLine
 10
8.4823966646
 20
3.3256074203
 30
0.0
 11
8.7083235842
 21
3.3256074203
 31
0.0
  0
LINE
  5
15C
330
1F
100
AcDbEntity
  8
0
  6
HIDDEN
 62
     7
100
AcDbLine
 10
8.6438139874
 20
4.176001121
 30
0.0
 11
8.7227346305
 21
4.176001121
 31
0.0
  0
LINE
  5
15D
330
1F
100
AcDbEntity
  8
0
  6
HIDDEN
 62
     7
100
AcDbLine
 10
8.5453887905
 20
4.176001121
 30
0.0
 11
8.6438139874
 21
4.176001121
 31
0.0
  0
LINE
  5
15E
330
1F
100
AcDbEntity
  8
0
  6
HIDDEN
 62
     7
100
AcDbLine
 10
8.6438139874
 20
4.1917491525
 30
0.0
 11
8.561136822
 21
4.1917491525
 31
0.0
  0
LINE
  5
15F
330
1F
100
AcDbEntity
  8
0
  6
HIDDEN
 62
     7
100
AcDbLine
 10
8.7083235842
 20
4.1917491525
 30
0.0
 11
8.6438139874
 21
4.1917491525
 31
0.0
  0
LINE
  5
160
330
1F
100
AcDbEntity
  8
0
  6
HIDDEN
 62
     7
100
AcDbLine
 10
8.6892746385
 20
3.4437176565
 30
0.0
 11
8.7347352896
 21
3.4437176565
 31
0.0
  0
LINE
  5
161
330
1F
100
AcDbEntity
  8
0
  6
HIDDEN
 62
     7
100
AcDbLine
 10
8.5983533363
 20
3.4437176565
 30
0.0
 11
8.6892746385
 21
3.4437176565
 31
0.0
  0
LINE
  5
162
330
1F
100
AcDbEntity
  8
0
  6
HIDDEN
 62
     7
100
AcDbLine
 10
8.6892746385
 20
3.4437176565
 30
0.0
 11
8.6892746385
 21
3.3256074203
 31
0.0
  0
LINE
  5
163
330
1F
100
AcDbEntity
  8
0
  6
HIDDEN
 62
     7
100
AcDbLine
 10
8.5983533363
 20
3.4437176565
 30
0.0
 11
8.5983533363
 21
3.3256074203
 31
0.0
  0
LINE
  5
164
330
1F
100
AcDbEntity
  8
0
  6
HIDDEN
 62
     7
100
AcDbLine
 10
8.5528926852
 20
3.4437176565
 30
0.0
 11
8.5983533363
 21
3.4437176565
 31
0.0
  0
LINE
  5
165
330
1F
100
AcDbEntity
  8
0
  6
HIDDEN
 62
     7
100
AcDbLine
 10
8.7347352896
 20
3.4437176565
 30
0.0
 11
8.7347352896
 21
3.3256074203
 31
0.0
  0
LINE
  5
166
330
1F
100
AcDbEntity
  8
0
  6
HIDDEN
 62
     7
100
AcDbLine
 10
8.5528926852
 20
3.4437176565
 30
0.0
 11
8.5528926852
 21
3.3256074203
 31
0.0
  0
LINE
  5
167
330
1F
100
AcDbEntity
  8
0
  6
HIDDEN
 62
     7
100
AcDbLine
 10
8.0146641339
 20
3.5822843384
 30
0.0
 11
7.6462809733
 21
3.5822843384
 31
0.0
  0
LINE
  5
168
330
1F
100
AcDbEntity
  8
0
  6
HIDDEN
 62
     7
100
AcDbLine
 10
8.2705696457
 20
3.251575677
 30
0.0
 11
8.6246860975
 21
3.251575677
 31
0.0
  0
LINE
  5
169
330
1F
100
AcDbEntity
  8
0
  6
HIDDEN
 62
     7
100
AcDbLine
 10
8.8156710871
 20
3.4799221337
 30
0.0
 11
8.2705696457
 21
3.4799221337
 31
0.0
  0
LINE
  5
16A
330
1F
100
AcDbEntity
  8
0
  6
HIDDEN
 62
     7
100
AcDbLine
 10
8.0146641339
 20
3.251575677
 30
0.0
 11
8.231199567
 21
3.251575677
 31
0.0
  0
LINE
  5
16B
330
1F
100
AcDbEntity
  8
0
  6
HIDDEN
 62
     7
100
AcDbLine
 10
8.231199567
 20
3.4799221337
 30
0.0
 11
8.0146641339
 21
3.4799221337
 31
0.0
  0
LINE
  5
16C
330
1F
100
AcDbEntity
  8
0
  6
HIDDEN
 62
     7
100
AcDbLine
 10
8.4272785543
 20
3.522457814
 30
0.0
 11
8.4272785543
 21
3.1540746533
 31
0.0
  0
LINE
  5
16D
330
1F
100
AcDbEntity
  8
0
  6
HIDDEN
 62
     7
100
AcDbLine
 10
8.7579872157
 20
3.522457814
 30
0.0
 11
8.7579872157
 21
3.738993247
 31
0.0
  0
LINE
  5
16E
330
1F
100
AcDbEntity
  8
0
  6
HIDDEN
 62
     7
100
AcDbLine
 10
8.529640759
 20
3.738993247
 30
0.0
 11
8.529640759
 21
3.522457814
 31
0.0
  0
LINE
  5
16F
330
1F
100
AcDbEntity
  8
0
  6
HIDDEN
 62
     7
100
AcDbLine
 10
8.7579872157
 20
3.7783633258
 30
0.0
 11
8.7579872157
 21
4.1323729975
 31
0.0
  0
LINE
  5
170
330
1F
100
AcDbEntity
  8
0
  6
HIDDEN
 62
     7
100
AcDbLine
 10
8.529640759
 20
4.3233958599
 30
0.0
 11
8.529640759
 21
3.7783633258
 31
0.0
  0
LINE
  5
171
330
1F
100
AcDbEntity
  8
0
  6
HIDDEN
 62
     7
100
AcDbLine
 10
7.9989161024
 20
3.188583551
 30
0.0
 11
8.0146641339
 21
3.2043315825
 31
0.0
  0
LINE
  5
172
330
1F
100
AcDbEntity
  8
0
  6
HIDDEN
 62
     7
100
AcDbLine
 10
8.0146641339
 20
3.5271662282
 30
0.0
 11
7.9989161024
 21
3.5429142597
 31
0.0
  0
LINE
  5
173
330
1F
100
AcDbEntity
  8
0
  6
HIDDEN
 62
     7
100
AcDbLine
 10
7.9989161024
 20
3.5429142597
 30
0.0
 11
7.8335617717
 21
3.5429142597
 31
0.0
  0
LINE
  5
174
330
1F
100
AcDbEntity
  8
0
  6
HIDDEN
 62
     7
100
AcDbLine
 10
7.9829428472
 20
3.188583551
 30
0.0
 11
7.9989161024
 21
3.188583551
 31
0.0
  0
LINE
  5
175
330
1F
100
AcDbEntity
  8
0
  6
HIDDEN
 62
     7
100
AcDbLine
 10
7.8335617717
 20
3.5429142597
 30
0.0
 11
7.8178137402
 21
3.5271662282
 31
0.0
  0
LINE
  5
176
330
1F
100
AcDbEntity
  8
0
  6
HIDDEN
 62
     7
100
AcDbLine
 10
8.0146641339
 20
3.2673237085
 30
0.0
 11
8.231199567
 21
3.2673237085
 31
0.0
  0
LINE
  5
177
330
1F
100
AcDbEntity
  8
0
  6
HIDDEN
 62
     7
100
AcDbLine
 10
8.2705696457
 20
3.2673237085
 30
0.0
 11
8.6450564881
 21
3.2673237085
 31
0.0
  0
LINE
  5
178
330
1F
100
AcDbEntity
  8
0
  6
HIDDEN
 62
     7
100
AcDbLine
 10
8.668207441
 20
3.4641741022
 30
0.0
 11
8.2705696457
 21
3.4641741022
 31
0.0
  0
LINE
  5
179
330
1F
100
AcDbEntity
  8
0
  6
HIDDEN
 62
     7
100
AcDbLine
 10
8.231199567
 20
3.4641741022
 30
0.0
 11
8.0146641339
 21
3.4641741022
 31
0.0
  0
LINE
  5
17A
330
1F
100
AcDbEntity
  8
0
  6
HIDDEN
 62
     7
100
AcDbLine
 10
8.6839554725
 20
3.4484260707
 30
0.0
 11
8.668207441
 21
3.4641741022
 31
0.0
  0
LINE
  5
17B
330
1F
100
AcDbEntity
  8
0
  6
HIDDEN
 62
     7
100
AcDbLine
 10
8.4666486331
 20
3.5067097825
 30
0.0
 11
8.4666486331
 21
3.3413554517
 31
0.0
  0
LINE
  5
17C
330
1F
100
AcDbEntity
  8
0
  6
HIDDEN
 62
     7
100
AcDbLine
 10
8.8209793417
 20
3.4907365273
 30
0.0
 11
8.8209793417
 21
3.5067097825
 31
0.0
  0
LINE
  5
17D
330
1F
100
AcDbEntity
  8
0
  6
HIDDEN
 62
     7
100
AcDbLine
 10
8.4666486331
 20
3.3413554517
 30
0.0
 11
8.4823966646
 21
3.3256074203
 31
0.0
  0
LINE
  5
17E
330
1F
100
AcDbEntity
  8
0
  6
HIDDEN
 62
     7
100
AcDbLine
 10
8.8209793417
 20
3.5067097825
 30
0.0
 11
8.8052313102
 21
3.522457814
 31
0.0
  0
LINE
  5
17F
330
1F
100
AcDbEntity
  8
0
  6
HIDDEN
 62
     7
100
AcDbLine
 10
8.4823966646
 20
3.522457814
 30
0.0
 11
8.4666486331
 21
3.5067097825
 31
0.0
  0
LINE
  5
180
330
1F
100
AcDbEntity
  8
0
  6
HIDDEN
 62
     7
100
AcDbLine
 10
8.7422391842
 20
3.522457814
 30
0.0
 11
8.7422391842
 21
4.1528501681
 31
0.0
  0
LINE
  5
181
330
1F
100
AcDbEntity
  8
0
  6
HIDDEN
 62
     7
100
AcDbLine
 10
8.5453887905
 20
4.176001121
 30
0.0
 11
8.5453887905
 21
3.522457814
 31
0.0
  0
LINE
  5
182
330
1F
100
AcDbEntity
  8
0
  6
HIDDEN
 62
     7
100
AcDbLine
 10
8.561136822
 20
4.1917491525
 30
0.0
 11
8.5453887905
 21
4.176001121
 31
0.0
  0
LINE
  5
183
330
1F
100
AcDbEntity
  8
0
  6
CONTINUOUS
 62
     7
100
AcDbLine
 10
3.7203368908
 20
6.0420558791
 30
0.0
 11
4.2121479144
 21
6.0420558791
 31
0.0
  0
LINE
  5
184
330
1F
100
AcDbEntity
  8
0
  6
CONTINUOUS
 62
     7
100
AcDbLine
 10
2.4411242924
 20
6.0420558791
 30
0.0
 11
3.680966812
 21
6.0420558791
 31
0.0
  0
LINE
  5
185
330
1F
100
AcDbEntity
  8
0
  6
CONTINUOUS
 62
     7
100
AcDbLine
 10
3.680966812
 20
7.3018983988
 30
0.0
 11
2.9723053947
 21
7.3018983988
 31
0.0
  0
LINE
  5
186
330
1F
100
AcDbEntity
  8
0
  6
CONTINUOUS
 62
     7
100
AcDbLine
 10
4.2121479144
 20
7.3018983988
 30
0.0
 11
3.7203368908
 21
7.3018983988
 31
0.0
  0
LINE
  5
187
330
1F
100
AcDbEntity
  8
0
  6
CONTINUOUS
 62
     7
100
AcDbLine
 10
2.4211242924
 20
6.0620558791
 30
0.0
 11
2.4411242924
 21
6.0420558791
 31
0.0
  0
LINE
  5
188
330
1F
100
AcDbEntity
  8
0
  6
CONTINUOUS
 62
     7
100
AcDbLine
 10
4.2121479144
 20
6.0420558791
 30
0.0
 11
4.2321479144
 21
6.0620558791
 31
0.0
  0
LINE
  5
189
330
1F
100
AcDbEntity
  8
0
  6
CONTINUOUS
 62
     7
100
AcDbLine
 10
4.2321479144
 20
7.2818983988
 30
0.0
 11
4.2121479144
 21
7.3018983988
 31
0.0
  0
LINE
  5
18A
330
1F
100
AcDbEntity
  8
0
  6
CONTINUOUS
 62
     7
100
AcDbLine
 10
2.4411242924
 20
7.3015907449
 30
0.0
 11
2.4411242924
 21
6.0420558791
 31
0.0
  0
LINE
  5
18B
330
1F
100
AcDbEntity
  8
0
  6
CONTINUOUS
 62
     7
100
AcDbLine
 10
2.932935316
 20
7.3015907449
 30
0.0
 11
2.4411242924
 21
7.3015907449
 31
0.0
  0
LINE
  5
18C
330
1F
100
AcDbEntity
  8
0
  6
CONTINUOUS
 62
     7
100
AcDbLine
 10
2.932935316
 20
6.2782763515
 30
0.0
 11
2.932935316
 21
7.3015907449
 31
0.0
  0
LINE
  5
18D
330
1F
100
AcDbEntity
  8
0
  6
CONTINUOUS
 62
     7
100
AcDbLine
 10
2.9723053947
 20
6.2782763515
 30
0.0
 11
2.932935316
 21
6.2782763515
 31
0.0
  0
LINE
  5
18E
330
1F
100
AcDbEntity
  8
0
  6
CONTINUOUS
 62
     7
100
AcDbLine
 10
2.9723053947
 20
7.3018983988
 30
0.0
 11
2.9723053947
 21
6.2782763515
 31
0.0
  0
LINE
  5
18F
330
1F
100
AcDbEntity
  8
0
  6
CONTINUOUS
 62
     7
100
AcDbLine
 10
3.7203368908
 20
6.0880245021
 30
0.0
 11
3.7203368908
 21
6.0420558791
 31
0.0
  0
LINE
  5
190
330
1F
100
AcDbEntity
  8
0
  6
CONTINUOUS
 62
     7
100
AcDbLine
 10
3.680966812
 20
6.0880245021
 30
0.0
 11
3.7203368908
 21
6.0880245021
 31
0.0
  0
LINE
  5
191
330
1F
100
AcDbEntity
  8
0
  6
CONTINUOUS
 62
     7
100
AcDbLine
 10
3.680966812
 20
7.2559297757
 30
0.0
 11
3.680966812
 21
7.3018983988
 31
0.0
  0
LINE
  5
192
330
1F
100
AcDbEntity
  8
0
  6
CONTINUOUS
 62
     7
100
AcDbLine
 10
3.680966812
 20
6.0420558791
 30
0.0
 11
3.680966812
 21
6.0880245021
 31
0.0
  0
LINE
  5
193
330
1F
100
AcDbEntity
  8
0
  6
CONTINUOUS
 62
     7
100
AcDbLine
 10
3.7203368908
 20
7.2559297757
 30
0.0
 11
3.680966812
 21
7.2559297757
 31
0.0
  0
LINE
  5
194
330
1F
100
AcDbEntity
  8
0
  6
CONTINUOUS
 62
     7
100
AcDbLine
 10
3.7203368908
 20
7.3018983988
 30
0.0
 11
3.7203368908
 21
7.2559297757
 31
0.0
  0
LINE
  5
195
330
1F
100
AcDbEntity
  8
0
  6
CONTINUOUS
 62
     7
100
AcDbLine
 10
4.2121479144
 20
6.0420558791
 30
0.0
 11
4.2121479144
 21
7.3018983988
 31
0.0
  0
SPLINE
  5
196
330
1F
100
AcDbEntity
  8
0
  6
CONTINUOUS
 62
     7
100
AcDbSpline
210
0.0
220
0.0
230
1.0
 70
     8
 71
     3
 72
    44
 73
    40
 74
     0
 42
0.00000001
 43
0.00000001
 40
-0.0312499999999999
 40
-0.0312499999999999
 40
0.0
 40
0.0
 40
0.0625000000000002
 40
0.0625000000000002
 40
0.1250000000000004
 40
0.1250000000000004
 40
0.1875000000000006
 40
0.1875000000000006
 40
0.2500000000000008
 40
0.2500000000000008
 40
0.312500000000001
 40
0.312500000000001
 40
0.3750000000000012
 40
0.3750000000000012
 40
0.4062500000000012
 40
0.4062500000000012
 40
0.4375000000000011
 40
0.4375000000000011
 40
0.500000000000001
 40
0.500000000000001
 40
0.5625000000000009
 40
0.5625000000000009
 40
0.6250000000000007
 40
0.6250000000000007
 40
0.6875000000000006
 40
0.6875000000000006
 40
0.7500000000000004
 40
0.7500000000000004
 40
0.8125000000000003
 40
0.8125000000000003
 40
0.8750000000000001
 40
0.8750000000000001
 40
0.9062500000000001
 40
0.9062500000000001
 40
0.9375000000000001
 40
0.9375000000000001
 40
0.9687500000000001
 40
0.9687500000000001
 40
1.0
 40
1.0
 40
1.0625
 40
1.0625
 10
2.668226991086052
 20
7.179079748332103
 30
0.0
 10
2.694635430343757
 20
7.179079748332103
 30
0.0
 10
2.71121057682787
 20
7.174918028496208
 30
0.0
 10
2.739036756443126
 20
7.161994084040808
 30
0.0
 10
2.750267370172192
 20
7.153530107707899
 30
0.0
 10
2.76892136630247
 20
7.13399937188522
 30
0.0
 10
2.776026120103937
 20
7.123233345286189
 30
0.0
 10
2.786552767337016
 20
7.09964856450363
 30
0.0
 10
2.789851783308804
 20
7.086866198985389
 30
0.0
 10
2.791882559671314
 20
7.060448826374415
 30
0.0
 10
2.790601840066846
 20
7.046403951290802
 30
0.0
 10
2.782504463810794
 20
7.018905992165972
 30
0.0
 10
2.775549249956672
 20
7.005106448591938
 30
0.0
 10
2.760697026341615
 20
6.986823404513689
 30
0.0
 10
2.754907490573705
 20
6.981016479963684
 30
0.0
 10
2.742149318651812
 20
6.970768739641708
 30
0.0
 10
2.735187600254394
 20
6.966291882181329
 30
0.0
 10
2.712420325899503
 20
6.955044620782747
 30
0.0
 10
2.695085686391776
 20
6.950839453237993
 30
0.0
 10
2.660342417175802
 20
6.95063123081782
 30
0.0
 10
2.642989876778079
 20
6.954616676580576
 30
0.0
 10
2.61242990860026
 20
6.969253920923094
 30
0.0
 10
2.599185330891082
 20
6.979895819817041
 30
0.0
 10
2.578977765570692
 20
7.004306364130487
 30
0.0
 10
2.571922211271908
 20
7.01804748621741
 30
0.0
 10
2.563573136933289
 20
7.045646203528499
 30
0.0
 10
2.562195308215484
 20
7.059693190146941
 30
0.0
 10
2.564095715029114
 20
7.086354871415552
 30
0.0
 10
2.567374910532005
 20
7.099226891741519
 30
0.0
 10
2.577802732163437
 20
7.122838133093397
 30
0.0
 10
2.585067741204552
 20
7.133881325501874
 30
0.0
 10
2.598896797639333
 20
7.14842606290087
 30
0.0
 10
2.604000646352709
 20
7.15295516331393
 30
0.0
 10
2.615458349491317
 20
7.161315946144346
 30
0.0
 10
2.621794194481105
 20
7.165120457009952
 30
0.0
 10
2.635627715099946
 20
7.171582069069328
 30
0.0
 10
2.643287297814103
 20
7.17429616795286
 30
0.0
 10
2.659490926854832
 20
7.178030520976398
 30
0.0
 10
2.668226991086052
 20
7.179079748332103
 30
0.0
 10
2.694635430343757
 20
7.179079748332103
 30
0.0
  0
LINE
  5
197
330
1F
100
AcDbEntity
  8
0
  6
CONTINUOUS
 62
     7
100
AcDbLine
 10
2.4211242924
 20
7.2815806514
 30
0.0
 11
2.4411242924
 21
7.3015907449
 31
0.0
  0
LINE
  5
198
330
1F
100
AcDbEntity
  8
0
  6
CONTINUOUS
 62
     7
100
AcDbLine
 10
2.4211242924
 20
6.0620558791
 30
0.0
 11
2.4211242924
 21
7.2815806514
 31
0.0
  0
LINE
  5
199
330
1F
100
AcDbEntity
  8
0
  6
CONTINUOUS
 62
     7
100
AcDbLine
 10
4.2321479144
 20
7.2818983988
 30
0.0
 11
4.2321479144
 21
6.0620558791
 31
0.0
  0
LINE
  5
19A
330
1F
100
AcDbEntity
  8
0
  6
CONTINUOUS
 62
     7
100
AcDbLine
 10
2.6770298042
 20
6.9507332916
 30
0.0
 11
2.6798004221
 21
6.9507669136
 31
0.0
  0
ARC
  5
19B
330
1F
100
AcDbEntity
  8
0
  6
CONTINUOUS
 62
     7
100
AcDbCircle
 10
2.6770298042
 20
7.06490652
 30
0.0
 40
0.1141732283464566
100
AcDbArc
 50
80.4373196154
 51
94.4139474676
  0
LINE
  5
19C
330
1F
100
AcDbEntity
  8
0
  6
CONTINUOUS
 62
     7
100
AcDbLine
 10
2.6711198122
 20
6.9508863548
 30
0.0
 11
2.6770298042
 21
6.9507332916
 31
0.0
  0
CIRCLE
  5
19D
330
1F
100
AcDbEntity
  8
0
  6
CONTINUOUS
 62
     7
100
AcDbCircle
 10
2.6770298042
 20
7.06490652
 30
0.0
 40
0.0826771653543314
  0
CIRCLE
  5
19E
330
1F
100
AcDbEntity
  8
0
  6
CONTINUOUS
 62
     7
100
AcDbCircle
 10
2.6770298042
 20
7.06490652
 30
0.0
 40
0.098425196850394
  0
LINE
  5
19F
330
1F
100
AcDbEntity
  8
0
  6
HIDDEN
 62
     7
100
AcDbLine
 10
2.778998964
 20
7.2559297757
 30
0.0
 11
2.5750606444
 21
7.2559297757
 31
0.0
  0
SPLINE
  5
1A0
330
1F
100
AcDbEntity
  8
0
  6
HIDDEN
 62
     7
100
AcDbSpline
210
0.0
220
0.0
230
1.0
 70
     8
 71
     3
 72
    52
 73
    48
 74
     0
 42
0.00000001
 43
0.00000001
 40
0.0
 40
0.0
 40
0.0
 40
0.0
 40
0.0625000000000002
 40
0.0625000000000002
 40
0.1250000000000004
 40
0.1250000000000004
 40
0.1875000000000006
 40
0.1875000000000006
 40
0.2500000000000007
 40
0.2500000000000007
 40
0.2812500000000008
 40
0.2812500000000008
 40
0.3125000000000008
 40
0.3125000000000008
 40
0.3437500000000008
 40
0.3437500000000008
 40
0.3750000000000008
 40
0.3750000000000008
 40
0.4062500000000008
 40
0.4062500000000008
 40
0.4375000000000008
 40
0.4375000000000008
 40
0.4687500000000008
 40
0.4687500000000008
 40
0.5000000000000008
 40
0.5000000000000008
 40
0.5312500000000008
 40
0.5312500000000008
 40
0.5625000000000008
 40
0.5625000000000008
 40
0.6250000000000007
 40
0.6250000000000007
 40
0.6562500000000007
 40
0.6562500000000007
 40
0.6875000000000007
 40
0.6875000000000007
 40
0.7500000000000007
 40
0.7500000000000007
 40
0.8125000000000007
 40
0.8125000000000007
 40
0.8437500000000006
 40
0.8437500000000006
 40
0.8750000000000004
 40
0.8750000000000004
 40
0.9375000000000002
 40
0.9375000000000002
 40
1.0
 40
1.0
 40
1.0
 40
1.0
 10
3.874273242783253
 20
6.435756666475482
 30
0.0
 10
3.85710536357118
 20
6.41310191317416
 30
0.0
 10
3.842121523210609
 20
6.390088130733915
 30
0.0
 10
3.815009858565201
 20
6.344353847832356
 30
0.0
 10
3.802949121353545
 20
6.321591250880661
 30
0.0
 10
3.782232201068339
 20
6.276447397634556
 30
0.0
 10
3.773877249327553
 20
6.254702198429979
 30
0.0
 10
3.762306004502226
 20
6.213005495141557
 30
0.0
 10
3.759123701901718
 20
6.192882667776488
 30
0.0
 10
3.760133328799905
 20
6.165631962986995
 30
0.0
 10
3.761416118223532
 20
6.156975804569133
 30
0.0
 10
3.766289448086303
 20
6.14052139381957
 30
0.0
 10
3.769849582065731
 20
6.13287829092402
 30
0.0
 10
3.779375379156667
 20
6.118890639459442
 30
0.0
 10
3.785399172073311
 20
6.11246970908655
 30
0.0
 10
3.800075381337066
 20
6.100948128495149
 30
0.0
 10
3.808556254981822
 20
6.095957997402226
 30
0.0
 10
3.827886686428294
 20
6.087251922928204
 30
0.0
 10
3.83889981187844
 20
6.083499218726816
 30
0.0
 10
3.862671322944269
 20
6.07731665468706
 30
0.0
 10
3.875370751324738
 20
6.07486960484806
 30
0.0
 10
3.902414830445088
 20
6.070992688408524
 30
0.0
 10
3.916761400021052
 20
6.069579977944547
 30
0.0
 10
3.945734318965452
 20
6.067732300195333
 30
0.0
 10
3.96063629995182
 20
6.067270119089829
 30
0.0
 10
3.990613593284451
 20
6.067245184450262
 30
0.0
 10
4.005376121253517
 20
6.067675869185909
 30
0.0
 10
4.034458800240515
 20
6.069470828288106
 30
0.0
 10
4.048868609266542
 20
6.070859731546578
 30
0.0
 10
4.089415189886443
 20
6.076559559225315
 30
0.0
 10
4.113891485171727
 20
6.082567406655027
 30
0.0
 10
4.143206017987485
 20
6.095568104077206
 30
0.0
 10
4.151938244677136
 20
6.100649719788025
 30
0.0
 10
4.166639302352321
 20
6.112052167068179
 30
0.0
 10
4.172686840218256
 20
6.118382247276157
 30
0.0
 10
4.187280768215534
 20
6.13948632742643
 30
0.0
 10
4.191931994165358
 20
6.155955463125641
 30
0.0
 10
4.193411729873493
 20
6.192640436099278
 30
0.0
 10
4.190327306710524
 20
6.212296055464467
 30
0.0
 10
4.181684238075749
 20
6.243698771717586
 30
0.0
 10
4.178097056450381
 20
6.254520823255815
 30
0.0
 10
4.169885626390532
 20
6.276303524062888
 30
0.0
 10
4.165247964275939
 20
6.287322687075587
 30
0.0
 10
4.149947581878816
 20
6.320751950003559
 30
0.0
 10
4.13792815330354
 20
6.343552869678079
 30
0.0
 10
4.110482982164364
 20
6.389921927451081
 30
0.0
 10
4.09537726663328
 20
6.413104783293274
 30
0.0
 10
4.078211562411049
 20
6.435756666475482
 30
0.0
  0
SPLINE
  5
1A1
330
1F
100
AcDbEntity
  8
0
  6
HIDDEN
 62
     7
100
AcDbSpline
210
0.0
220
0.0
230
1.0
 70
     8
 71
     3
 72
    48
 73
    44
 74
     0
 42
0.00000001
 43
0.00000001
 40
-0.0625000000000001
 40
-0.0625000000000001
 40
0.0
 40
0.0
 40
0.0625000000000001
 40
0.0625000000000001
 40
0.1250000000000001
 40
0.1250000000000001
 40
0.15625
 40
0.15625
 40
0.1874999999999999
 40
0.1874999999999999
 40
0.2499999999999998
 40
0.2499999999999998
 40
0.3124999999999997
 40
0.3124999999999997
 40
0.3749999999999996
 40
0.3749999999999996
 40
0.4062499999999994
 40
0.4062499999999994
 40
0.4374999999999993
 40
0.4374999999999993
 40
0.4999999999999992
 40
0.4999999999999992
 40
0.5624999999999991
 40
0.5624999999999991
 40
0.6249999999999991
 40
0.6249999999999991
 40
0.687499999999999
 40
0.687499999999999
 40
0.7187499999999992
 40
0.7187499999999992
 40
0.7499999999999993
 40
0.7499999999999993
 40
0.7812499999999994
 40
0.7812499999999994
 40
0.8124999999999996
 40
0.8124999999999996
 40
0.8437499999999998
 40
0.8437499999999998
 40
0.8749999999999999
 40
0.8749999999999999
 40
0.9374999999999999
 40
0.9374999999999999
 40
1.0
 40
1.0
 40
1.0625
 40
1.0625
 10
4.090415630943608
 20
7.153454480589486
 30
0.0
 10
4.090415630943607
 20
7.17519730428631
 30
0.0
 10
4.088058384810617
 20
7.185230195834472
 30
0.0
 10
4.077499587782029
 20
7.203683317772351
 30
0.0
 10
4.069327431273754
 20
7.211821403641078
 30
0.0
 10
4.052458808437239
 20
7.221763734267416
 30
0.0
 10
4.04622025586666
 20
7.224624690198715
 30
0.0
 10
4.032458409320425
 20
7.229519981990904
 30
0.0
 10
4.024810337927081
 20
7.23157135534576
 30
0.0
 10
4.000963141599976
 20
7.236201835569042
 30
0.0
 10
3.983269099831159
 20
7.237401701003991
 30
0.0
 10
3.94880595239071
 20
7.235872413943794
 30
0.0
 10
3.931929055904809
 20
7.233121780913741
 30
0.0
 10
3.903161589903479
 20
7.223982692499068
 30
0.0
 10
3.891221047236808
 20
7.217588574169124
 30
0.0
 10
3.877989165462004
 20
7.205947988246746
 30
0.0
 10
3.874285841926006
 20
7.201672322368299
 30
0.0
 10
3.868433468617035
 20
7.192661302804436
 30
0.0
 10
3.866245523914397
 20
7.187904977090846
 30
0.0
 10
3.861669894852362
 20
7.172860148754962
 30
0.0
 10
3.861338786725694
 20
7.162113376149244
 30
0.0
 10
3.865141175198978
 20
7.139598405711766
 30
0.0
 10
3.869205549448383
 20
7.128133193619083
 30
0.0
 10
3.881312476340053
 20
7.105102433997024
 30
0.0
 10
3.889297978461707
 20
7.093671553351623
 30
0.0
 10
3.909271399472588
 20
7.072513492187245
 30
0.0
 10
3.921577105586724
 20
7.062401333819144
 30
0.0
 10
3.943963474920734
 20
7.051556524807761
 30
0.0
 10
3.952029743004295
 20
7.048733069512536
 30
0.0
 10
3.969058050757225
 20
7.045544780713263
 30
0.0
 10
3.977863792016759
 20
7.045243423836216
 30
0.0
 10
3.995130932289793
 20
7.047351111683374
 30
0.0
 10
4.003470419258714
 20
7.049725069728461
 30
0.0
 10
4.018984264522755
 20
7.056299350180594
 30
0.0
 10
4.025991589465299
 20
7.060382612706333
 30
0.0
 10
4.038868532719158
 20
7.069502757048897
 30
0.0
 10
4.044760466308157
 20
7.074582762248145
 30
0.0
 10
4.05528131325343
 20
7.085068386388895
 30
0.0
 10
4.059975920160295
 20
7.090522525198193
 30
0.0
 10
4.072632998905643
 20
7.10731332139601
 30
0.0
 10
4.079115374965898
 20
7.119007003360363
 30
0.0
 10
4.087975353599215
 20
7.141966693096132
 30
0.0
 10
4.090415630943608
 20
7.153454480589486
 30
0.0
 10
4.090415630943607
 20
7.17519730428631
 30
0.0
  0
LINE
  5
1A2
330
1F
100
AcDbEntity
  8
0
  6
HIDDEN
 62
     7
100
AcDbLine
 10
3.680966812
 20
6.0880245021
 30
0.0
 11
3.680966812
 21
7.2559297757
 31
0.0
  0
LINE
  5
1A3
330
1F
100
AcDbEntity
  8
0
  6
HIDDEN
 62
     7
100
AcDbLine
 10
3.7203368908
 20
6.0880245021
 30
0.0
 11
3.7203368908
 21
7.2559297757
 31
0.0
  0
SPLINE
  5
1A4
330
1F
100
AcDbEntity
  8
0
  6
HIDDEN
 62
     7
100
AcDbSpline
210
0.0
220
0.0
230
1.0
 70
     8
 71
     3
 72
     8
 73
     4
 74
     0
 42
0.00000001
 43
0.00000001
 40
0.0
 40
0.0
 40
0.0
 40
0.0
 40
1.0
 40
1.0
 40
1.0
 40
1.0
 10
2.44112429236093
 20
6.828222295081658
 30
0.0
 10
2.434460631490636
 20
6.834938633932731
 30
0.0
 10
2.427793614705521
 20
6.841651675678874
 30
0.0
 10
2.42112429236093
 20
6.848362403106842
 30
0.0
  0
SPLINE
  5
1A5
330
1F
100
AcDbEntity
  8
0
  6
HIDDEN
 62
     7
100
AcDbSpline
210
0.0
220
0.0
230
1.0
 70
    24
 71
     3
 72
     8
 73
     4
 74
     0
 42
0.00000001
 43
0.00000001
 40
0.0
 40
0.0
 40
0.0
 40
0.0
 40
1.0
 40
1.0
 40
1.0
 40
1.0
 10
4.232147914408174
 20
6.652292099546347
 30
0.0
 10
4.225478590357669
 20
6.652292099546347
 30
0.0
 10
4.218811561571789
 20
6.652292099546347
 30
0.0
 10
4.212147914408175
 20
6.652292099546347
 30
0.0
  0
SPLINE
  5
1A6
330
1F
100
AcDbEntity
  8
0
  6
HIDDEN
 62
     7
100
AcDbSpline
210
0.0
220
0.0
230
1.0
 70
    24
 71
     3
 72
     8
 73
     4
 74
     0
 42
0.00000001
 43
0.00000001
 40
0.0
 40
0.0
 40
0.0
 40
0.0
 40
1.0
 40
1.0
 40
1.0
 40
1.0
 10
4.232147914408174
 20
6.691662178286505
 30
0.0
 10
4.225478590357669
 20
6.691662178286505
 30
0.0
 10
4.218811561571789
 20
6.691662178286505
 30
0.0
 10
4.212147914408175
 20
6.691662178286505
 30
0.0
  0
LINE
  5
1A7
330
1F
100
AcDbEntity
  8
0
  6
HIDDEN
 62
     7
100
AcDbLine
 10
2.4411242924
 20
6.8282222951
 30
0.0
 11
2.932935316
 21
6.8282222951
 31
0.0
  0
LINE
  5
1A8
330
1F
100
AcDbEntity
  8
0
  6
HIDDEN
 62
     7
100
AcDbLine
 10
3.7203368908
 20
6.6522920995
 30
0.0
 11
4.2121479144
 21
6.6522920995
 31
0.0
  0
LINE
  5
1A9
330
1F
100
AcDbEntity
  8
0
  6
HIDDEN
 62
     7
100
AcDbLine
 10
3.7203368908
 20
6.6916621783
 30
0.0
 11
4.2121479144
 21
6.6916621783
 31
0.0
  0
LINE
  5
1AA
330
1F
100
AcDbEntity
  8
0
  6
HIDDEN
 62
     7
100
AcDbLine
 10
4.1927778357
 20
6.4357566665
 30
0.0
 11
3.7597069695
 21
6.4357566665
 31
0.0
  0
ARC
  5
1AB
330
1F
100
AcDbEntity
  8
0
  6
HIDDEN
 62
     7
100
AcDbCircle
 10
2.6770298042
 20
7.06490652
 30
0.0
 40
0.2165354330708661
100
AcDbArc
 50
118.0935205104
 51
61.9064794896
  0
LINE
  5
1AC
330
1F
100
AcDbEntity
  8
0
  6
HIDDEN
 62
     7
100
AcDbLine
 10
4.1534077569
 20
6.420008635
 30
0.0
 11
3.7990770483
 21
6.420008635
 31
0.0
  0
LINE
  5
1AD
330
1F
100
AcDbEntity
  8
0
  6
HIDDEN
 62
     7
100
AcDbLine
 10
3.7990770483
 20
6.2546543043
 30
0.0
 11
4.1534077569
 21
6.2546543043
 31
0.0
  0
LINE
  5
1AE
330
1F
100
AcDbEntity
  8
0
  6
HIDDEN
 62
     7
100
AcDbLine
 10
4.1376597254
 20
6.2389062728
 30
0.0
 11
3.8148250798
 21
6.2389062728
 31
0.0
  0
LINE
  5
1AF
330
1F
100
AcDbEntity
  8
0
  6
HIDDEN
 62
     7
100
AcDbLine
 10
3.8935652372
 20
7.1050480051
 30
0.0
 11
4.058919568
 21
7.1050480051
 31
0.0
  0
LINE
  5
1B0
330
1F
100
AcDbEntity
  8
0
  6
HIDDEN
 62
     7
100
AcDbLine
 10
4.0746675994
 20
7.0892999736
 30
0.0
 11
3.8778172057
 21
7.0892999736
 31
0.0
  0
LINE
  5
1B1
330
1F
100
AcDbEntity
  8
0
  6
HIDDEN
 62
     7
100
AcDbLine
 10
3.9762424026
 20
6.357016509
 30
0.0
 11
3.9762424026
 21
6.2389062728
 31
0.0
  0
LINE
  5
1B2
330
1F
100
AcDbEntity
  8
0
  6
HIDDEN
 62
     7
100
AcDbLine
 10
4.0549825601
 20
6.357016509
 30
0.0
 11
3.9762424026
 21
6.357016509
 31
0.0
  0
LINE
  5
1B3
330
1F
100
AcDbEntity
  8
0
  6
HIDDEN
 62
     7
100
AcDbLine
 10
3.9762424026
 20
6.357016509
 30
0.0
 11
3.8975022451
 21
6.357016509
 31
0.0
  0
LINE
  5
1B4
330
1F
100
AcDbEntity
  8
0
  6
HIDDEN
 62
     7
100
AcDbLine
 10
4.0549825601
 20
6.357016509
 30
0.0
 11
4.0549825601
 21
6.2389062728
 31
0.0
  0
LINE
  5
1B5
330
1F
100
AcDbEntity
  8
0
  6
HIDDEN
 62
     7
100
AcDbLine
 10
3.8975022451
 20
6.357016509
 30
0.0
 11
3.8975022451
 21
6.2389062728
 31
0.0
  0
CIRCLE
  5
1B6
330
1F
100
AcDbEntity
  8
0
  6
HIDDEN
 62
     7
100
AcDbCircle
 10
2.6770298042
 20
7.06490652
 30
0.0
 40
0.1771653543307088
  0
CIRCLE
  5
1B7
330
1F
100
AcDbEntity
  8
0
  6
HIDDEN
 62
     7
100
AcDbCircle
 10
2.6770298042
 20
7.06490652
 30
0.0
 40
0.1614173228346454
  0
LINE
  5
1B8
330
1F
100
AcDbEntity
  8
0
  6
HIDDEN
 62
     7
100
AcDbLine
 10
2.6770298042
 20
7.1558278222
 30
0.0
 11
2.5982896467
 21
7.1103671711
 31
0.0
  0
LINE
  5
1B9
330
1F
100
AcDbEntity
  8
0
  6
HIDDEN
 62
     7
100
AcDbLine
 10
2.7557699617
 20
7.1103671711
 30
0.0
 11
2.6770298042
 21
7.1558278222
 31
0.0
  0
LINE
  5
1BA
330
1F
100
AcDbEntity
  8
0
  6
HIDDEN
 62
     7
100
AcDbLine
 10
2.7557699617
 20
7.0194458689
 30
0.0
 11
2.7557699617
 21
7.1103671711
 31
0.0
  0
LINE
  5
1BB
330
1F
100
AcDbEntity
  8
0
  6
HIDDEN
 62
     7
100
AcDbLine
 10
2.5982896467
 20
7.1103671711
 30
0.0
 11
2.5982896467
 21
7.0194458689
 31
0.0
  0
LINE
  5
1BC
330
1F
100
AcDbEntity
  8
0
  6
HIDDEN
 62
     7
100
AcDbLine
 10
2.5982896467
 20
7.0194458689
 30
0.0
 11
2.6770298042
 21
6.9739852178
 31
0.0
  0
LINE
  5
1BD
330
1F
100
AcDbEntity
  8
0
  6
HIDDEN
 62
     7
100
AcDbLine
 10
2.6770298042
 20
6.9739852178
 30
0.0
 11
2.7557699617
 21
7.0194458689
 31
0.0
  0
LINE
  5
1BE
330
1F
100
AcDbEntity
  8
0
  6
HIDDEN
 62
     7
100
AcDbLine
 10
2.4211242924
 20
6.494496824
 30
0.0
 11
2.4411242924
 21
6.514496824
 31
0.0
  0
LINE
  5
1BF
330
1F
100
AcDbEntity
  8
0
  6
HIDDEN
 62
     7
100
AcDbLine
 10
4.2321479144
 20
6.8494574539
 30
0.0
 11
4.2121479144
 21
6.8294574539
 31
0.0
  0
LINE
  5
1C0
330
1F
100
AcDbEntity
  8
0
  6
HIDDEN
 62
     7
100
AcDbLine
 10
4.2121479144
 20
6.514496824
 30
0.0
 11
4.2321479144
 21
6.494496824
 31
0.0
  0
LINE
  5
1C1
330
1F
100
AcDbEntity
  8
0
  6
HIDDEN
 62
     7
100
AcDbLine
 10
3.680966812
 20
6.8294574539
 30
0.0
 11
2.9723053947
 21
6.8294574539
 31
0.0
  0
LINE
  5
1C2
330
1F
100
AcDbEntity
  8
0
  6
HIDDEN
 62
     7
100
AcDbLine
 10
2.9723053947
 20
6.514496824
 30
0.0
 11
3.680966812
 21
6.514496824
 31
0.0
  0
LINE
  5
1C3
330
1F
100
AcDbEntity
  8
0
  6
HIDDEN
 62
     7
100
AcDbLine
 10
2.4411242924
 20
6.514496824
 30
0.0
 11
2.932935316
 21
6.514496824
 31
0.0
  0
LINE
  5
1C4
330
1F
100
AcDbEntity
  8
0
  6
HIDDEN
 62
     7
100
AcDbLine
 10
4.2121479144
 20
6.8294574539
 30
0.0
 11
3.7203368908
 21
6.8294574539
 31
0.0
  0
LINE
  5
1C5
330
1F
100
AcDbEntity
  8
0
  6
HIDDEN
 62
     7
100
AcDbLine
 10
3.7203368908
 20
6.514496824
 30
0.0
 11
4.2121479144
 21
6.514496824
 31
0.0
  0
LINE
  5
1C6
330
1F
100
AcDbEntity
  8
0
  6
HIDDEN
 62
     7
100
AcDbLine
 10
4.1927778357
 20
6.1799701722
 30
0.0
 11
4.1927778357
 21
6.4357566665
 31
0.0
  0
LINE
  5
1C7
330
1F
100
AcDbEntity
  8
0
  6
HIDDEN
 62
     7
100
AcDbLine
 10
3.7597069695
 20
6.4357566665
 30
0.0
 11
3.7597069695
 21
6.179852313
 31
0.0
  0
LINE
  5
1C8
330
1F
100
AcDbEntity
  8
0
  6
HIDDEN
 62
     7
100
AcDbLine
 10
4.0904156309
 20
6.6916621783
 30
0.0
 11
4.0904156309
 21
7.1643258924
 31
0.0
  0
LINE
  5
1C9
330
1F
100
AcDbEntity
  8
0
  6
HIDDEN
 62
     7
100
AcDbLine
 10
3.8620691743
 20
7.1642841264
 30
0.0
 11
3.8620691743
 21
6.6916621783
 31
0.0
  0
LINE
  5
1CA
330
1F
100
AcDbEntity
  8
0
  6
HIDDEN
 62
     7
100
AcDbLine
 10
4.0904156309
 20
6.4357566665
 30
0.0
 11
4.0904156309
 21
6.6522920995
 31
0.0
  0
LINE
  5
1CB
330
1F
100
AcDbEntity
  8
0
  6
HIDDEN
 62
     7
100
AcDbLine
 10
3.8620691743
 20
6.6522920995
 30
0.0
 11
3.8620691743
 21
6.4357566665
 31
0.0
  0
LINE
  5
1CC
330
1F
100
AcDbEntity
  8
0
  6
HIDDEN
 62
     7
100
AcDbLine
 10
4.1534077569
 20
6.420008635
 30
0.0
 11
4.1376597254
 21
6.4357566665
 31
0.0
  0
LINE
  5
1CD
330
1F
100
AcDbEntity
  8
0
  6
HIDDEN
 62
     7
100
AcDbLine
 10
3.8148250798
 20
6.4357566665
 30
0.0
 11
3.7990770483
 21
6.420008635
 31
0.0
  0
LINE
  5
1CE
330
1F
100
AcDbEntity
  8
0
  6
HIDDEN
 62
     7
100
AcDbLine
 10
3.7990770483
 20
6.420008635
 30
0.0
 11
3.7990770483
 21
6.2546543043
 31
0.0
  0
LINE
  5
1CF
330
1F
100
AcDbEntity
  8
0
  6
HIDDEN
 62
     7
100
AcDbLine
 10
4.1534077569
 20
6.2546543043
 30
0.0
 11
4.1534077569
 21
6.420008635
 31
0.0
  0
LINE
  5
1D0
330
1F
100
AcDbEntity
  8
0
  6
HIDDEN
 62
     7
100
AcDbLine
 10
3.7990770483
 20
6.2546543043
 30
0.0
 11
3.8148250798
 21
6.2389062728
 31
0.0
  0
LINE
  5
1D1
330
1F
100
AcDbEntity
  8
0
  6
HIDDEN
 62
     7
100
AcDbLine
 10
4.1376597254
 20
6.2389062728
 30
0.0
 11
4.1534077569
 21
6.2546543043
 31
0.0
  0
LINE
  5
1D2
330
1F
100
AcDbEntity
  8
0
  6
HIDDEN
 62
     7
100
AcDbLine
 10
4.0746675994
 20
7.0892999736
 30
0.0
 11
4.058919568
 21
7.1050480051
 31
0.0
  0
LINE
  5
1D3
330
1F
100
AcDbEntity
  8
0
  6
HIDDEN
 62
     7
100
AcDbLine
 10
3.8935652372
 20
7.1050480051
 30
0.0
 11
3.8778172057
 21
7.0892999736
 31
0.0
  0
LINE
  5
1D4
330
1F
100
AcDbEntity
  8
0
  6
HIDDEN
 62
     7
100
AcDbLine
 10
4.0746675994
 20
6.4357566665
 30
0.0
 11
4.0746675994
 21
7.0892999736
 31
0.0
  0
LINE
  5
1D5
330
1F
100
AcDbEntity
  8
0
  6
HIDDEN
 62
     7
100
AcDbLine
 10
3.8778172057
 20
7.0892999736
 30
0.0
 11
3.8778172057
 21
6.4357566665
 31
0.0
  0
LINE
  5
1D6
330
1F
100
AcDbEntity
  8
0
  6
CONTINUOUS
 62
     7
100
AcDbLine
 10
9.2451133898
 20
6.7317857175
 30
0.0
 11
9.2451133898
 21
6.7481138797
 31
0.0
  0
LINE
  5
1D7
330
1F
100
AcDbEntity
  8
0
  6
CONTINUOUS
 62
     7
100
AcDbLine
 10
8.4664837545
 20
5.9559836585
 30
0.0
 11
8.4847567615
 21
5.945434876
 31
0.0
  0
LINE
  5
1D8
330
1F
100
AcDbEntity
  8
0
  6
CONTINUOUS
 62
     7
100
AcDbLine
 10
8.1369938516
 20
6.1461941306
 30
0.0
 11
8.1694557651
 21
6.1274542668
 31
0.0
  0
LINE
  5
1D9
330
1F
100
AcDbEntity
  8
0
  6
CONTINUOUS
 62
     7
100
AcDbLine
 10
7.2324539487
 20
6.6683739017
 30
0.0
 11
8.109155002
 21
6.1622651565
 31
0.0
  0
LINE
  5
1DA
330
1F
100
AcDbEntity
  8
0
  6
CONTINUOUS
 62
     7
100
AcDbLine
 10
7.9577972027
 20
7.7043435854
 30
0.0
 11
7.8623240165
 21
7.7594590826
 31
0.0
  0
LINE
  5
1DB
330
1F
100
AcDbEntity
  8
0
  6
CONTINUOUS
 62
     7
100
AcDbLine
 10
8.2100869264
 20
7.558699828
 30
0.0
 11
8.100407376
 21
7.6220164847
 31
0.0
  0
LINE
  5
1DC
330
1F
100
AcDbEntity
  8
0
  6
CONTINUOUS
 62
     7
100
AcDbLine
 10
9.1146268293
 20
7.036520057
 30
0.0
 11
8.237925776
 21
7.5426288022
 31
0.0
  0
LINE
  5
1DD
330
1F
100
AcDbEntity
  8
0
  6
CONTINUOUS
 62
     7
100
AcDbLine
 10
7.5473165891
 20
7.7282311104
 30
0.0
 11
7.5331767519
 21
7.7200657024
 31
0.0
  0
LINE
  5
1DE
330
1F
100
AcDbEntity
  8
0
  6
CONTINUOUS
 62
     7
100
AcDbLine
 10
7.1019673882
 20
6.9731082412
 30
0.0
 11
7.1019673882
 21
6.956780079
 31
0.0
  0
LINE
  5
1DF
330
1F
100
AcDbEntity
  8
0
  6
CONTINUOUS
 62
     7
100
AcDbLine
 10
8.2125147785
 20
6.1683989199
 30
0.0
 11
8.2125147785
 21
6.1555420992
 31
0.0
  0
LINE
  5
1E0
330
1F
100
AcDbEntity
  8
0
  6
CONTINUOUS
 62
     7
100
AcDbLine
 10
8.3266355112
 20
5.9578577724
 30
0.0
 11
8.3377692413
 21
5.9514283173
 31
0.0
  0
LINE
  5
1E1
330
1F
100
AcDbEntity
  8
0
  6
CONTINUOUS
 62
     7
100
AcDbLine
 10
8.4263650802
 20
5.9426454501
 30
0.0
 11
8.4584462907
 21
5.9611655387
 31
0.0
  0
LINE
  5
1E2
330
1F
100
AcDbEntity
  8
0
  6
CONTINUOUS
 62
     7
100
AcDbLine
 10
8.0616508325
 20
7.6589464338
 30
0.0
 11
8.0505134832
 21
7.6653779786
 31
0.0
  0
POLYLINE
  5
1E3
330
1F
100
AcDbEntity
  8
0
  6
CONTINUOUS
 62
     7
100
AcDb2dPolyline
 66
     1
 10
0.0
 20
0.0
 30
0.0
  0
VERTEX
  5
214
330
1E3
100
AcDbEntity
  8
0
  6
CONTINUOUS
 62
     7
100
AcDbVertex
100
AcDb2dVertex
 10
8.8277533558
 20
5.9930827513
 30
0.0
  0
VERTEX
  5
215
330
1E3
100
AcDbEntity
  8
0
  6
CONTINUOUS
 62
     7
100
AcDbVertex
100
AcDb2dVertex
 10
8.8508306358
 20
6.0079813533
 30
0.0
  0
VERTEX
  5
216
330
1E3
100
AcDbEntity
  8
0
  6
CONTINUOUS
 62
     7
100
AcDbVertex
100
AcDb2dVertex
 10
8.8738016161
 20
6.0242442515
 30
0.0
  0
VERTEX
  5
217
330
1E3
100
AcDbEntity
  8
0
  6
CONTINUOUS
 62
     7
100
AcDbVertex
100
AcDb2dVertex
 10
8.8966002961
 20
6.0418247193
 30
0.0
  0
VERTEX
  5
218
330
1E3
100
AcDbEntity
  8
0
  6
CONTINUOUS
 62
     7
100
AcDbVertex
100
AcDb2dVertex
 10
8.9191611703
 20
6.0606722439
 30
0.0
  0
VERTEX
  5
219
330
1E3
100
AcDbEntity
  8
0
  6
CONTINUOUS
 62
     7
100
AcDbVertex
100
AcDb2dVertex
 10
8.9414194163
 20
6.0807326724
 30
0.0
  0
VERTEX
  5
21A
330
1E3
100
AcDbEntity
  8
0
  6
CONTINUOUS
 62
     7
100
AcDbVertex
100
AcDb2dVertex
 10
8.9633110812
 20
6.1019483668
 30
0.0
  0
VERTEX
  5
21B
330
1E3
100
AcDbEntity
  8
0
  6
CONTINUOUS
 62
     7
100
AcDbVertex
100
AcDb2dVertex
 10
8.9847732656
 20
6.1242583697
 30
0.0
  0
VERTEX
  5
21C
330
1E3
100
AcDbEntity
  8
0
  6
CONTINUOUS
 62
     7
100
AcDbVertex
100
AcDb2dVertex
 10
9.0057443039
 20
6.1475985796
 30
0.0
  0
VERTEX
  5
21D
330
1E3
100
AcDbEntity
  8
0
  6
CONTINUOUS
 62
     7
100
AcDbVertex
100
AcDb2dVertex
 10
9.0261639417
 20
6.1719019349
 30
0.0
  0
VERTEX
  5
21E
330
1E3
100
AcDbEntity
  8
0
  6
CONTINUOUS
 62
     7
100
AcDbVertex
100
AcDb2dVertex
 10
9.0459735089
 20
6.1970986069
 30
0.0
  0
VERTEX
  5
21F
330
1E3
100
AcDbEntity
  8
0
  6
CONTINUOUS
 62
     7
100
AcDbVertex
100
AcDb2dVertex
 10
9.0651160883
 20
6.2231162
 30
0.0
  0
VERTEX
  5
220
330
1E3
100
AcDbEntity
  8
0
  6
CONTINUOUS
 62
     7
100
AcDbVertex
100
AcDb2dVertex
 10
9.0835366791
 20
6.2498799599
 30
0.0
  0
VERTEX
  5
221
330
1E3
100
AcDbEntity
  8
0
  6
CONTINUOUS
 62
     7
100
AcDbVertex
100
AcDb2dVertex
 10
9.1011823549
 20
6.2773129884
 30
0.0
  0
VERTEX
  5
222
330
1E3
100
AcDbEntity
  8
0
  6
CONTINUOUS
 62
     7
100
AcDbVertex
100
AcDb2dVertex
 10
9.1180024158
 20
6.3053364646
 30
0.0
  0
VERTEX
  5
223
330
1E3
100
AcDbEntity
  8
0
  6
CONTINUOUS
 62
     7
100
AcDbVertex
100
AcDb2dVertex
 10
9.1339485342
 20
6.3338698708
 30
0.0
  0
VERTEX
  5
224
330
1E3
100
AcDbEntity
  8
0
  6
CONTINUOUS
 62
     7
100
AcDbVertex
100
AcDb2dVertex
 10
9.1489748932
 20
6.3628312243
 30
0.0
  0
VERTEX
  5
225
330
1E3
100
AcDbEntity
  8
0
  6
CONTINUOUS
 62
     7
100
AcDbVertex
100
AcDb2dVertex
 10
9.1630383189
 20
6.3921373129
 30
0.0
  0
VERTEX
  5
226
330
1E3
100
AcDbEntity
  8
0
  6
CONTINUOUS
 62
     7
100
AcDbVertex
100
AcDb2dVertex
 10
9.176098404
 20
6.4217039336
 30
0.0
  0
VERTEX
  5
227
330
1E3
100
AcDbEntity
  8
0
  6
CONTINUOUS
 62
     7
100
AcDbVertex
100
AcDb2dVertex
 10
9.188117624
 20
6.4514461351
 30
0.0
  0
VERTEX
  5
228
330
1E3
100
AcDbEntity
  8
0
  6
CONTINUOUS
 62
     7
100
AcDbVertex
100
AcDb2dVertex
 10
9.1990614451
 20
6.4812784616
 30
0.0
  0
VERTEX
  5
229
330
1E3
100
AcDbEntity
  8
0
  6
CONTINUOUS
 62
     7
100
AcDbVertex
100
AcDb2dVertex
 10
9.2088984233
 20
6.5111151983
 30
0.0
  0
VERTEX
  5
22A
330
1E3
100
AcDbEntity
  8
0
  6
CONTINUOUS
 62
     7
100
AcDbVertex
100
AcDb2dVertex
 10
9.2176002947
 20
6.5408706176
 30
0.0
  0
VERTEX
  5
22B
330
1E3
100
AcDbEntity
  8
0
  6
CONTINUOUS
 62
     7
100
AcDbVertex
100
AcDb2dVertex
 10
9.225142057
 20
6.5704592259
 30
0.0
  0
VERTEX
  5
22C
330
1E3
100
AcDbEntity
  8
0
  6
CONTINUOUS
 62
     7
100
AcDbVertex
100
AcDb2dVertex
 10
9.2315020411
 20
6.5997960084
 30
0.0
  0
VERTEX
  5
22D
330
1E3
100
AcDbEntity
  8
0
  6
CONTINUOUS
 62
     7
100
AcDbVertex
100
AcDb2dVertex
 10
9.2366619734
 20
6.6287966743
 30
0.0
  0
VERTEX
  5
22E
330
1E3
100
AcDbEntity
  8
0
  6
CONTINUOUS
 62
     7
100
AcDbVertex
100
AcDb2dVertex
 10
9.2406070281
 20
6.6573778983
 30
0.0
  0
VERTEX
  5
22F
330
1E3
100
AcDbEntity
  8
0
  6
CONTINUOUS
 62
     7
100
AcDbVertex
100
AcDb2dVertex
 10
9.2433258704
 20
6.6854575602
 30
0.0
  0
VERTEX
  5
230
330
1E3
100
AcDbEntity
  8
0
  6
CONTINUOUS
 62
     7
100
AcDbVertex
100
AcDb2dVertex
 10
9.2448106884
 20
6.7129549811
 30
0.0
  0
VERTEX
  5
231
330
1E3
100
AcDbEntity
  8
0
  6
CONTINUOUS
 62
     7
100
AcDbVertex
100
AcDb2dVertex
 10
9.2450572159
 20
6.7397911548
 30
0.0
  0
VERTEX
  5
232
330
1E3
100
AcDbEntity
  8
0
  6
CONTINUOUS
 62
     7
100
AcDbVertex
100
AcDb2dVertex
 10
9.2440647445
 20
6.7658889752
 30
0.0
  0
VERTEX
  5
233
330
1E3
100
AcDbEntity
  8
0
  6
CONTINUOUS
 62
     7
100
AcDbVertex
100
AcDb2dVertex
 10
9.2418361258
 20
6.7911734575
 30
0.0
  0
VERTEX
  5
234
330
1E3
100
AcDbEntity
  8
0
  6
CONTINUOUS
 62
     7
100
AcDbVertex
100
AcDb2dVertex
 10
9.2383777633
 20
6.8155719538
 30
0.0
  0
VERTEX
  5
235
330
1E3
100
AcDbEntity
  8
0
  6
CONTINUOUS
 62
     7
100
AcDbVertex
100
AcDb2dVertex
 10
9.2336995934
 20
6.839014362
 30
0.0
  0
VERTEX
  5
236
330
1E3
100
AcDbEntity
  8
0
  6
CONTINUOUS
 62
     7
100
AcDbVertex
100
AcDb2dVertex
 10
9.2278150576
 20
6.8614333268
 30
0.0
  0
VERTEX
  5
237
330
1E3
100
AcDbEntity
  8
0
  6
CONTINUOUS
 62
     7
100
AcDbVertex
100
AcDb2dVertex
 10
9.2207410634
 20
6.8827644337
 30
0.0
  0
VERTEX
  5
238
330
1E3
100
AcDbEntity
  8
0
  6
CONTINUOUS
 62
     7
100
AcDbVertex
100
AcDb2dVertex
 10
9.2124979361
 20
6.9029463937
 30
0.0
  0
VERTEX
  5
239
330
1E3
100
AcDbEntity
  8
0
  6
CONTINUOUS
 62
     7
100
AcDbVertex
100
AcDb2dVertex
 10
9.2031093598
 20
6.9219212196
 30
0.0
  0
VERTEX
  5
23A
330
1E3
100
AcDbEntity
  8
0
  6
CONTINUOUS
 62
     7
100
AcDbVertex
100
AcDb2dVertex
 10
9.19260231
 20
6.9396343927
 30
0.0
  0
VERTEX
  5
23B
330
1E3
100
AcDbEntity
  8
0
  6
CONTINUOUS
 62
     7
100
AcDbVertex
100
AcDb2dVertex
 10
9.1810069759
 20
6.9560350191
 30
0.0
  0
VERTEX
  5
23C
330
1E3
100
AcDbEntity
  8
0
  6
CONTINUOUS
 62
     7
100
AcDbVertex
100
AcDb2dVertex
 10
9.1683566732
 20
6.9710759762
 30
0.0
  0
VERTEX
  5
23D
330
1E3
100
AcDbEntity
  8
0
  6
CONTINUOUS
 62
     7
100
AcDbVertex
100
AcDb2dVertex
 10
9.1546877492
 20
6.9847140481
 30
0.0
  0
VERTEX
  5
23E
330
1E3
100
AcDbEntity
  8
0
  6
CONTINUOUS
 62
     7
100
AcDbVertex
100
AcDb2dVertex
 10
9.1400394775
 20
6.9969100495
 30
0.0
  0
VERTEX
  5
23F
330
1E3
100
AcDbEntity
  8
0
  6
CONTINUOUS
 62
     7
100
AcDbVertex
100
AcDb2dVertex
 10
9.1244539459
 20
7.0076289388
 30
0.0
  0
VERTEX
  5
240
330
1E3
100
AcDbEntity
  8
0
  6
CONTINUOUS
 62
     7
100
AcDbVertex
100
AcDb2dVertex
 10
9.1079759351
 20
7.0168399181
 30
0.0
  0
VERTEX
  5
241
330
1E3
100
AcDbEntity
  8
0
  6
CONTINUOUS
 62
     7
100
AcDbVertex
100
AcDb2dVertex
 10
9.09065279
 20
7.0245165224
 30
0.0
  0
VERTEX
  5
242
330
1E3
100
AcDbEntity
  8
0
  6
CONTINUOUS
 62
     7
100
AcDbVertex
100
AcDb2dVertex
 10
9.0725342837
 20
7.0306366951
 30
0.0
  0
VERTEX
  5
243
330
1E3
100
AcDbEntity
  8
0
  6
CONTINUOUS
 62
     7
100
AcDbVertex
100
AcDb2dVertex
 10
9.0536724747
 20
7.0351828515
 30
0.0
  0
VERTEX
  5
244
330
1E3
100
AcDbEntity
  8
0
  6
CONTINUOUS
 62
     7
100
AcDbVertex
100
AcDb2dVertex
 10
9.0341215571
 20
7.0381419296
 30
0.0
  0
VERTEX
  5
245
330
1E3
100
AcDbEntity
  8
0
  6
CONTINUOUS
 62
     7
100
AcDbVertex
100
AcDb2dVertex
 10
9.0139377049
 20
7.0395054273
 30
0.0
  0
VERTEX
  5
246
330
1E3
100
AcDbEntity
  8
0
  6
CONTINUOUS
 62
     7
100
AcDbVertex
100
AcDb2dVertex
 10
8.9931789108
 20
7.039269427
 30
0.0
  0
VERTEX
  5
247
330
1E3
100
AcDbEntity
  8
0
  6
CONTINUOUS
 62
     7
100
AcDbVertex
100
AcDb2dVertex
 10
8.9719048194
 20
7.0374346067
 30
0.0
  0
VERTEX
  5
248
330
1E3
100
AcDbEntity
  8
0
  6
CONTINUOUS
 62
     7
100
AcDbVertex
100
AcDb2dVertex
 10
8.9501765557
 20
7.0340062383
 30
0.0
  0
VERTEX
  5
249
330
1E3
100
AcDbEntity
  8
0
  6
CONTINUOUS
 62
     7
100
AcDbVertex
100
AcDb2dVertex
 10
8.9280565498
 20
7.0289941723
 30
0.0
  0
VERTEX
  5
24A
330
1E3
100
AcDbEntity
  8
0
  6
CONTINUOUS
 62
     7
100
AcDbVertex
100
AcDb2dVertex
 10
8.9056083573
 20
7.0224128093
 30
0.0
  0
VERTEX
  5
24B
330
1E3
100
AcDbEntity
  8
0
  6
CONTINUOUS
 62
     7
100
AcDbVertex
100
AcDb2dVertex
 10
8.8828964769
 20
7.0142810592
 30
0.0
  0
VERTEX
  5
24C
330
1E3
100
AcDbEntity
  8
0
  6
CONTINUOUS
 62
     7
100
AcDbVertex
100
AcDb2dVertex
 10
8.8599861646
 20
7.0046222861
 30
0.0
  0
VERTEX
  5
24D
330
1E3
100
AcDbEntity
  8
0
  6
CONTINUOUS
 62
     7
100
AcDbVertex
100
AcDb2dVertex
 10
8.8369432469
 20
6.9934642419
 30
0.0
  0
VERTEX
  5
24E
330
1E3
100
AcDbEntity
  8
0
  6
CONTINUOUS
 62
     7
100
AcDbVertex
100
AcDb2dVertex
 10
8.813833931
 20
6.9808389861
 30
0.0
  0
VERTEX
  5
24F
330
1E3
100
AcDbEntity
  8
0
  6
CONTINUOUS
 62
     7
100
AcDbVertex
100
AcDb2dVertex
 10
8.7907246152
 20
6.9667827938
 30
0.0
  0
VERTEX
  5
250
330
1E3
100
AcDbEntity
  8
0
  6
CONTINUOUS
 62
     7
100
AcDbVertex
100
AcDb2dVertex
 10
8.7676816974
 20
6.9513360514
 30
0.0
  0
VERTEX
  5
251
330
1E3
100
AcDbEntity
  8
0
  6
CONTINUOUS
 62
     7
100
AcDbVertex
100
AcDb2dVertex
 10
8.7447713852
 20
6.934543141
 30
0.0
  0
VERTEX
  5
252
330
1E3
100
AcDbEntity
  8
0
  6
CONTINUOUS
 62
     7
100
AcDbVertex
100
AcDb2dVertex
 10
8.7220595047
 20
6.9164523121
 30
0.0
  0
VERTEX
  5
253
330
1E3
100
AcDbEntity
  8
0
  6
CONTINUOUS
 62
     7
100
AcDbVertex
100
AcDb2dVertex
 10
8.6996113122
 20
6.8971155437
 30
0.0
  0
VERTEX
  5
254
330
1E3
100
AcDbEntity
  8
0
  6
CONTINUOUS
 62
     7
100
AcDbVertex
100
AcDb2dVertex
 10
8.6774913064
 20
6.8765883946
 30
0.0
  0
VERTEX
  5
255
330
1E3
100
AcDbEntity
  8
0
  6
CONTINUOUS
 62
     7
100
AcDbVertex
100
AcDb2dVertex
 10
8.6557630427
 20
6.8549298437
 30
0.0
  0
VERTEX
  5
256
330
1E3
100
AcDbEntity
  8
0
  6
CONTINUOUS
 62
     7
100
AcDbVertex
100
AcDb2dVertex
 10
8.6344889512
 20
6.8322021209
 30
0.0
  0
VERTEX
  5
257
330
1E3
100
AcDbEntity
  8
0
  6
CONTINUOUS
 62
     7
100
AcDbVertex
100
AcDb2dVertex
 10
8.6137301571
 20
6.8084705277
 30
0.0
  0
VERTEX
  5
258
330
1E3
100
AcDbEntity
  8
0
  6
CONTINUOUS
 62
     7
100
AcDbVertex
100
AcDb2dVertex
 10
8.593546305
 20
6.7838032503
 30
0.0
  0
VERTEX
  5
259
330
1E3
100
AcDbEntity
  8
0
  6
CONTINUOUS
 62
     7
100
AcDbVertex
100
AcDb2dVertex
 10
8.5739953874
 20
6.7582711632
 30
0.0
  0
VERTEX
  5
25A
330
1E3
100
AcDbEntity
  8
0
  6
CONTINUOUS
 62
     7
100
AcDbVertex
100
AcDb2dVertex
 10
8.5551335784
 20
6.7319476257
 30
0.0
  0
VERTEX
  5
25B
330
1E3
100
AcDbEntity
  8
0
  6
CONTINUOUS
 62
     7
100
AcDbVertex
100
AcDb2dVertex
 10
8.5370150721
 20
6.7049082709
 30
0.0
  0
VERTEX
  5
25C
330
1E3
100
AcDbEntity
  8
0
  6
CONTINUOUS
 62
     7
100
AcDbVertex
100
AcDb2dVertex
 10
8.5196919269
 20
6.677230789
 30
0.0
  0
VERTEX
  5
25D
330
1E3
100
AcDbEntity
  8
0
  6
CONTINUOUS
 62
     7
100
AcDbVertex
100
AcDb2dVertex
 10
8.5032139161
 20
6.6489947033
 30
0.0
  0
VERTEX
  5
25E
330
1E3
100
AcDbEntity
  8
0
  6
CONTINUOUS
 62
     7
100
AcDbVertex
100
AcDb2dVertex
 10
8.4876283845
 20
6.6202811423
 30
0.0
  0
VERTEX
  5
25F
330
1E3
100
AcDbEntity
  8
0
  6
CONTINUOUS
 62
     7
100
AcDbVertex
100
AcDb2dVertex
 10
8.4729801129
 20
6.5911726064
 30
0.0
  0
VERTEX
  5
260
330
1E3
100
AcDbEntity
  8
0
  6
CONTINUOUS
 62
     7
100
AcDbVertex
100
AcDb2dVertex
 10
8.4593111888
 20
6.5617527308
 30
0.0
  0
VERTEX
  5
261
330
1E3
100
AcDbEntity
  8
0
  6
CONTINUOUS
 62
     7
100
AcDbVertex
100
AcDb2dVertex
 10
8.4466608862
 20
6.5321060451
 30
0.0
  0
VERTEX
  5
262
330
1E3
100
AcDbEntity
  8
0
  6
CONTINUOUS
 62
     7
100
AcDbVertex
100
AcDb2dVertex
 10
8.435065552
 20
6.5023177309
 30
0.0
  0
VERTEX
  5
263
330
1E3
100
AcDbEntity
  8
0
  6
CONTINUOUS
 62
     7
100
AcDbVertex
100
AcDb2dVertex
 10
8.4245585022
 20
6.4724733764
 30
0.0
  0
VERTEX
  5
264
330
1E3
100
AcDbEntity
  8
0
  6
CONTINUOUS
 62
     7
100
AcDbVertex
100
AcDb2dVertex
 10
8.415169926
 20
6.442658731
 30
0.0
  0
VERTEX
  5
265
330
1E3
100
AcDbEntity
  8
0
  6
CONTINUOUS
 62
     7
100
AcDbVertex
100
AcDb2dVertex
 10
8.4069267986
 20
6.4129594587
 30
0.0
  0
VERTEX
  5
266
330
1E3
100
AcDbEntity
  8
0
  6
CONTINUOUS
 62
     7
100
AcDbVertex
100
AcDb2dVertex
 10
8.3998528045
 20
6.383460892
 30
0.0
  0
VERTEX
  5
267
330
1E3
100
AcDbEntity
  8
0
  6
CONTINUOUS
 62
     7
100
AcDbVertex
100
AcDb2dVertex
 10
8.3939682687
 20
6.3542477867
 30
0.0
  0
VERTEX
  5
268
330
1E3
100
AcDbEntity
  8
0
  6
CONTINUOUS
 62
     7
100
AcDbVertex
100
AcDb2dVertex
 10
8.3892900988
 20
6.3254040786
 30
0.0
  0
VERTEX
  5
269
330
1E3
100
AcDbEntity
  8
0
  6
CONTINUOUS
 62
     7
100
AcDbVertex
100
AcDb2dVertex
 10
8.3858317362
 20
6.2970126419
 30
0.0
  0
VERTEX
  5
26A
330
1E3
100
AcDbEntity
  8
0
  6
CONTINUOUS
 62
     7
100
AcDbVertex
100
AcDb2dVertex
 10
8.3836031176
 20
6.2691550513
 30
0.0
  0
VERTEX
  5
26B
330
1E3
100
AcDbEntity
  8
0
  6
CONTINUOUS
 62
     7
100
AcDbVertex
100
AcDb2dVertex
 10
8.3826106462
 20
6.2419113478
 30
0.0
  0
VERTEX
  5
26C
330
1E3
100
AcDbEntity
  8
0
  6
CONTINUOUS
 62
     7
100
AcDbVertex
100
AcDb2dVertex
 10
8.3828571736
 20
6.2153598087
 30
0.0
  0
VERTEX
  5
26D
330
1E3
100
AcDbEntity
  8
0
  6
CONTINUOUS
 62
     7
100
AcDbVertex
100
AcDb2dVertex
 10
8.3843419916
 20
6.1895767221
 30
0.0
  0
VERTEX
  5
26E
330
1E3
100
AcDbEntity
  8
0
  6
CONTINUOUS
 62
     7
100
AcDbVertex
100
AcDb2dVertex
 10
8.3870608339
 20
6.1646361687
 30
0.0
  0
VERTEX
  5
26F
330
1E3
100
AcDbEntity
  8
0
  6
CONTINUOUS
 62
     7
100
AcDbVertex
100
AcDb2dVertex
 10
8.3910058887
 20
6.140609808
 30
0.0
  0
VERTEX
  5
270
330
1E3
100
AcDbEntity
  8
0
  6
CONTINUOUS
 62
     7
100
AcDbVertex
100
AcDb2dVertex
 10
8.3961658209
 20
6.1175666731
 30
0.0
  0
VERTEX
  5
271
330
1E3
100
AcDbEntity
  8
0
  6
CONTINUOUS
 62
     7
100
AcDbVertex
100
AcDb2dVertex
 10
8.402525805
 20
6.0955729718
 30
0.0
  0
VERTEX
  5
272
330
1E3
100
AcDbEntity
  8
0
  6
CONTINUOUS
 62
     7
100
AcDbVertex
100
AcDb2dVertex
 10
8.4100675673
 20
6.074691897
 30
0.0
  0
VERTEX
  5
273
330
1E3
100
AcDbEntity
  8
0
  6
CONTINUOUS
 62
     7
100
AcDbVertex
100
AcDb2dVertex
 10
8.4187694388
 20
6.0549834446
 30
0.0
  0
VERTEX
  5
274
330
1E3
100
AcDbEntity
  8
0
  6
CONTINUOUS
 62
     7
100
AcDbVertex
100
AcDb2dVertex
 10
8.4286064169
 20
6.0365042411
 30
0.0
  0
VERTEX
  5
275
330
1E3
100
AcDbEntity
  8
0
  6
CONTINUOUS
 62
     7
100
AcDbVertex
100
AcDb2dVertex
 10
8.439550238
 20
6.0193073815
 30
0.0
  0
VERTEX
  5
276
330
1E3
100
AcDbEntity
  8
0
  6
CONTINUOUS
 62
     7
100
AcDbVertex
100
AcDb2dVertex
 10
8.451569458
 20
6.003442276
 30
0.0
  0
VERTEX
  5
277
330
1E3
100
AcDbEntity
  8
0
  6
CONTINUOUS
 62
     7
100
AcDbVertex
100
AcDb2dVertex
 10
8.4646295431
 20
5.9889545086
 30
0.0
  0
VERTEX
  5
278
330
1E3
100
AcDbEntity
  8
0
  6
CONTINUOUS
 62
     7
100
AcDbVertex
100
AcDb2dVertex
 10
8.4786929689
 20
5.9758857058
 30
0.0
  0
VERTEX
  5
279
330
1E3
100
AcDbEntity
  8
0
  6
CONTINUOUS
 62
     7
100
AcDbVertex
100
AcDb2dVertex
 10
8.4937193279
 20
5.9642734171
 30
0.0
  0
VERTEX
  5
27A
330
1E3
100
AcDbEntity
  8
0
  6
CONTINUOUS
 62
     7
100
AcDbVertex
100
AcDb2dVertex
 10
8.5096654462
 20
5.9541510072
 30
0.0
  0
VERTEX
  5
27B
330
1E3
100
AcDbEntity
  8
0
  6
CONTINUOUS
 62
     7
100
AcDbVertex
100
AcDb2dVertex
 10
8.5264855071
 20
5.94554756
 30
0.0
  0
VERTEX
  5
27C
330
1E3
100
AcDbEntity
  8
0
  6
CONTINUOUS
 62
     7
100
AcDbVertex
100
AcDb2dVertex
 10
8.5441311829
 20
5.9384877951
 30
0.0
  0
VERTEX
  5
27D
330
1E3
100
AcDbEntity
  8
0
  6
CONTINUOUS
 62
     7
100
AcDbVertex
100
AcDb2dVertex
 10
8.5625517737
 20
5.9329919966
 30
0.0
  0
VERTEX
  5
27E
330
1E3
100
AcDbEntity
  8
0
  6
CONTINUOUS
 62
     7
100
AcDbVertex
100
AcDb2dVertex
 10
8.5816943532
 20
5.9290759553
 30
0.0
  0
VERTEX
  5
27F
330
1E3
100
AcDbEntity
  8
0
  6
CONTINUOUS
 62
     7
100
AcDbVertex
100
AcDb2dVertex
 10
8.6015039204
 20
5.9267509228
 30
0.0
  0
VERTEX
  5
280
330
1E3
100
AcDbEntity
  8
0
  6
CONTINUOUS
 62
     7
100
AcDbVertex
100
AcDb2dVertex
 10
8.6219235582
 20
5.9260235794
 30
0.0
  0
VERTEX
  5
281
330
1E3
100
AcDbEntity
  8
0
  6
CONTINUOUS
 62
     7
100
AcDbVertex
100
AcDb2dVertex
 10
8.6428945965
 20
5.926896015
 30
0.0
  0
VERTEX
  5
282
330
1E3
100
AcDbEntity
  8
0
  6
CONTINUOUS
 62
     7
100
AcDbVertex
100
AcDb2dVertex
 10
8.6643567808
 20
5.9293657227
 30
0.0
  0
VERTEX
  5
283
330
1E3
100
AcDbEntity
  8
0
  6
CONTINUOUS
 62
     7
100
AcDbVertex
100
AcDb2dVertex
 10
8.6862484458
 20
5.9334256067
 30
0.0
  0
VERTEX
  5
284
330
1E3
100
AcDbEntity
  8
0
  6
CONTINUOUS
 62
     7
100
AcDbVertex
100
AcDb2dVertex
 10
8.7085066917
 20
5.939064002
 30
0.0
  0
VERTEX
  5
285
330
1E3
100
AcDbEntity
  8
0
  6
CONTINUOUS
 62
     7
100
AcDbVertex
100
AcDb2dVertex
 10
8.7310675659
 20
5.9462647082
 30
0.0
  0
VERTEX
  5
286
330
1E3
100
AcDbEntity
  8
0
  6
CONTINUOUS
 62
     7
100
AcDbVertex
100
AcDb2dVertex
 10
8.7538662459
 20
5.9550070361
 30
0.0
  0
VERTEX
  5
287
330
1E3
100
AcDbEntity
  8
0
  6
CONTINUOUS
 62
     7
100
AcDbVertex
100
AcDb2dVertex
 10
8.7768372263
 20
5.9652658672
 30
0.0
  0
VERTEX
  5
288
330
1E3
100
AcDbEntity
  8
0
  6
CONTINUOUS
 62
     7
100
AcDbVertex
100
AcDb2dVertex
 10
8.7999145062
 20
5.9770117255
 30
0.0
  0
SEQEND
  5
289
330
1E3
100
AcDbEntity
  8
0
  6
CONTINUOUS
 62
     7
  0
LINE
  5
1E4
330
1F
100
AcDbEntity
  8
0
  6
CONTINUOUS
 62
     7
100
AcDbLine
 10
8.7857723706
 20
5.9688367486
 30
0.0
 11
8.7999145062
 21
5.9770117255
 31
0.0
  0
POLYLINE
  5
1E5
330
1F
100
AcDbEntity
  8
0
  6
CONTINUOUS
 62
     7
100
AcDb2dPolyline
 66
     1
 10
0.0
 20
0.0
 30
0.0
  0
VERTEX
  5
28A
330
1E5
100
AcDbEntity
  8
0
  6
CONTINUOUS
 62
     7
100
AcDbVertex
100
AcDb2dVertex
 10
8.7857723706
 20
5.9688367486
 30
0.0
  0
VERTEX
  5
28B
330
1E5
100
AcDbEntity
  8
0
  6
CONTINUOUS
 62
     7
100
AcDbVertex
100
AcDb2dVertex
 10
8.762332495
 20
5.9568663882
 30
0.0
  0
VERTEX
  5
28C
330
1E5
100
AcDbEntity
  8
0
  6
CONTINUOUS
 62
     7
100
AcDbVertex
100
AcDb2dVertex
 10
8.7389964223
 20
5.9463800555
 30
0.0
  0
VERTEX
  5
28D
330
1E5
100
AcDbEntity
  8
0
  6
CONTINUOUS
 62
     7
100
AcDbVertex
100
AcDb2dVertex
 10
8.7158289916
 20
5.9374068869
 30
0.0
  0
VERTEX
  5
28E
330
1E5
100
AcDbEntity
  8
0
  6
CONTINUOUS
 62
     7
100
AcDbVertex
100
AcDb2dVertex
 10
8.6928945738
 20
5.9299718143
 30
0.0
  0
VERTEX
  5
28F
330
1E5
100
AcDbEntity
  8
0
  6
CONTINUOUS
 62
     7
100
AcDbVertex
100
AcDb2dVertex
 10
8.6702568921
 20
5.924095496
 30
0.0
  0
VERTEX
  5
290
330
1E5
100
AcDbEntity
  8
0
  6
CONTINUOUS
 62
     7
100
AcDbVertex
100
AcDb2dVertex
 10
8.6479788453
 20
5.9197942595
 30
0.0
  0
VERTEX
  5
291
330
1E5
100
AcDbEntity
  8
0
  6
CONTINUOUS
 62
     7
100
AcDbVertex
100
AcDb2dVertex
 10
8.626122333
 20
5.9170800557
 30
0.0
  0
VERTEX
  5
292
330
1E5
100
AcDbEntity
  8
0
  6
CONTINUOUS
 62
     7
100
AcDbVertex
100
AcDb2dVertex
 10
8.6047480835
 20
5.915960426
 30
0.0
  0
VERTEX
  5
293
330
1E5
100
AcDbEntity
  8
0
  6
CONTINUOUS
 62
     7
100
AcDbVertex
100
AcDb2dVertex
 10
8.5839154852
 20
5.9164384813
 30
0.0
  0
VERTEX
  5
294
330
1E5
100
AcDbEntity
  8
0
  6
CONTINUOUS
 62
     7
100
AcDbVertex
100
AcDb2dVertex
 10
8.5636824214
 20
5.9185128933
 30
0.0
  0
VERTEX
  5
295
330
1E5
100
AcDbEntity
  8
0
  6
CONTINUOUS
 62
     7
100
AcDbVertex
100
AcDb2dVertex
 10
8.5441051097
 20
5.9221778983
 30
0.0
  0
VERTEX
  5
296
330
1E5
100
AcDbEntity
  8
0
  6
CONTINUOUS
 62
     7
100
AcDbVertex
100
AcDb2dVertex
 10
8.5252379457
 20
5.9274233131
 30
0.0
  0
VERTEX
  5
297
330
1E5
100
AcDbEntity
  8
0
  6
CONTINUOUS
 62
     7
100
AcDbVertex
100
AcDb2dVertex
 10
8.5071333517
 20
5.9342345632
 30
0.0
  0
VERTEX
  5
298
330
1E5
100
AcDbEntity
  8
0
  6
CONTINUOUS
 62
     7
100
AcDbVertex
100
AcDb2dVertex
 10
8.4898416315
 20
5.9425927237
 30
0.0
  0
VERTEX
  5
299
330
1E5
100
AcDbEntity
  8
0
  6
CONTINUOUS
 62
     7
100
AcDbVertex
100
AcDb2dVertex
 10
8.4734108301
 20
5.9524745713
 30
0.0
  0
VERTEX
  5
29A
330
1E5
100
AcDbEntity
  8
0
  6
CONTINUOUS
 62
     7
100
AcDbVertex
100
AcDb2dVertex
 10
8.4578866004
 20
5.9638526494
 30
0.0
  0
VERTEX
  5
29B
330
1E5
100
AcDbEntity
  8
0
  6
CONTINUOUS
 62
     7
100
AcDbVertex
100
AcDb2dVertex
 10
8.4433120766
 20
5.9766953439
 30
0.0
  0
VERTEX
  5
29C
330
1E5
100
AcDbEntity
  8
0
  6
CONTINUOUS
 62
     7
100
AcDbVertex
100
AcDb2dVertex
 10
8.4297277539
 20
5.9909669714
 30
0.0
  0
VERTEX
  5
29D
330
1E5
100
AcDbEntity
  8
0
  6
CONTINUOUS
 62
     7
100
AcDbVertex
100
AcDb2dVertex
 10
8.4171713763
 20
6.0066278783
 30
0.0
  0
VERTEX
  5
29E
330
1E5
100
AcDbEntity
  8
0
  6
CONTINUOUS
 62
     7
100
AcDbVertex
100
AcDb2dVertex
 10
8.4056778319
 20
6.0236345506
 30
0.0
  0
VERTEX
  5
29F
330
1E5
100
AcDbEntity
  8
0
  6
CONTINUOUS
 62
     7
100
AcDbVertex
100
AcDb2dVertex
 10
8.3952790554
 20
6.0419397353
 30
0.0
  0
VERTEX
  5
2A0
330
1E5
100
AcDbEntity
  8
0
  6
CONTINUOUS
 62
     7
100
AcDbVertex
100
AcDb2dVertex
 10
8.3860039398
 20
6.0614925715
 30
0.0
  0
VERTEX
  5
2A1
330
1E5
100
AcDbEntity
  8
0
  6
CONTINUOUS
 62
     7
100
AcDbVertex
100
AcDb2dVertex
 10
8.377878256
 20
6.0822387316
 30
0.0
  0
VERTEX
  5
2A2
330
1E5
100
AcDbEntity
  8
0
  6
CONTINUOUS
 62
     7
100
AcDbVertex
100
AcDb2dVertex
 10
8.3709245813
 20
6.1041205724
 30
0.0
  0
VERTEX
  5
2A3
330
1E5
100
AcDbEntity
  8
0
  6
CONTINUOUS
 62
     7
100
AcDbVertex
100
AcDb2dVertex
 10
8.3651622364
 20
6.1270772951
 30
0.0
  0
VERTEX
  5
2A4
330
1E5
100
AcDbEntity
  8
0
  6
CONTINUOUS
 62
     7
100
AcDbVertex
100
AcDb2dVertex
 10
8.360607232
 20
6.1510451146
 30
0.0
  0
VERTEX
  5
2A5
330
1E5
100
AcDbEntity
  8
0
  6
CONTINUOUS
 62
     7
100
AcDbVertex
100
AcDb2dVertex
 10
8.3572722241
 20
6.1759574363
 30
0.0
  0
VERTEX
  5
2A6
330
1E5
100
AcDbEntity
  8
0
  6
CONTINUOUS
 62
     7
100
AcDbVertex
100
AcDb2dVertex
 10
8.3551664792
 20
6.2017450412
 30
0.0
  0
VERTEX
  5
2A7
330
1E5
100
AcDbEntity
  8
0
  6
CONTINUOUS
 62
     7
100
AcDbVertex
100
AcDb2dVertex
 10
8.354295848
 20
6.2283362784
 30
0.0
  0
VERTEX
  5
2A8
330
1E5
100
AcDbEntity
  8
0
  6
CONTINUOUS
 62
     7
100
AcDbVertex
100
AcDb2dVertex
 10
8.3546627496
 20
6.2556572643
 30
0.0
  0
VERTEX
  5
2A9
330
1E5
100
AcDbEntity
  8
0
  6
CONTINUOUS
 62
     7
100
AcDbVertex
100
AcDb2dVertex
 10
8.3562661644
 20
6.2836320874
 30
0.0
  0
VERTEX
  5
2AA
330
1E5
100
AcDbEntity
  8
0
  6
CONTINUOUS
 62
     7
100
AcDbVertex
100
AcDb2dVertex
 10
8.3591016376
 20
6.3121830197
 30
0.0
  0
VERTEX
  5
2AB
330
1E5
100
AcDbEntity
  8
0
  6
CONTINUOUS
 62
     7
100
AcDbVertex
100
AcDb2dVertex
 10
8.3631612906
 20
6.3412307324
 30
0.0
  0
VERTEX
  5
2AC
330
1E5
100
AcDbEntity
  8
0
  6
CONTINUOUS
 62
     7
100
AcDbVertex
100
AcDb2dVertex
 10
8.3684338437
 20
6.3706945165
 30
0.0
  0
VERTEX
  5
2AD
330
1E5
100
AcDbEntity
  8
0
  6
CONTINUOUS
 62
     7
100
AcDbVertex
100
AcDb2dVertex
 10
8.3749046472
 20
6.4004925068
 30
0.0
  0
VERTEX
  5
2AE
330
1E5
100
AcDbEntity
  8
0
  6
CONTINUOUS
 62
     7
100
AcDbVertex
100
AcDb2dVertex
 10
8.3825557218
 20
6.4305419096
 30
0.0
  0
VERTEX
  5
2AF
330
1E5
100
AcDbEntity
  8
0
  6
CONTINUOUS
 62
     7
100
AcDbVertex
100
AcDb2dVertex
 10
8.3913658092
 20
6.4607592325
 30
0.0
  0
VERTEX
  5
2B0
330
1E5
100
AcDbEntity
  8
0
  6
CONTINUOUS
 62
     7
100
AcDbVertex
100
AcDb2dVertex
 10
8.4013104305
 20
6.4910605169
 30
0.0
  0
VERTEX
  5
2B1
330
1E5
100
AcDbEntity
  8
0
  6
CONTINUOUS
 62
     7
100
AcDbVertex
100
AcDb2dVertex
 10
8.4123619544
 20
6.5213615705
 30
0.0
  0
VERTEX
  5
2B2
330
1E5
100
AcDbEntity
  8
0
  6
CONTINUOUS
 62
     7
100
AcDbVertex
100
AcDb2dVertex
 10
8.4244896745
 20
6.5515782018
 30
0.0
  0
VERTEX
  5
2B3
330
1E5
100
AcDbEntity
  8
0
  6
CONTINUOUS
 62
     7
100
AcDbVertex
100
AcDb2dVertex
 10
8.4376598937
 20
6.581626454
 30
0.0
  0
VERTEX
  5
2B4
330
1E5
100
AcDbEntity
  8
0
  6
CONTINUOUS
 62
     7
100
AcDbVertex
100
AcDb2dVertex
 10
8.4518360187
 20
6.611422838
 30
0.0
  0
VERTEX
  5
2B5
330
1E5
100
AcDbEntity
  8
0
  6
CONTINUOUS
 62
     7
100
AcDbVertex
100
AcDb2dVertex
 10
8.4669786611
 20
6.6408845645
 30
0.0
  0
VERTEX
  5
2B6
330
1E5
100
AcDbEntity
  8
0
  6
CONTINUOUS
 62
     7
100
AcDbVertex
100
AcDb2dVertex
 10
8.483045747
 20
6.669929774
 30
0.0
  0
VERTEX
  5
2B7
330
1E5
100
AcDbEntity
  8
0
  6
CONTINUOUS
 62
     7
100
AcDbVertex
100
AcDb2dVertex
 10
8.499992634
 20
6.6984777645
 30
0.0
  0
VERTEX
  5
2B8
330
1E5
100
AcDbEntity
  8
0
  6
CONTINUOUS
 62
     7
100
AcDbVertex
100
AcDb2dVertex
 10
8.5177722353
 20
6.7264492154
 30
0.0
  0
VERTEX
  5
2B9
330
1E5
100
AcDbEntity
  8
0
  6
CONTINUOUS
 62
     7
100
AcDbVertex
100
AcDb2dVertex
 10
8.5363351501
 20
6.7537664079
 30
0.0
  0
VERTEX
  5
2BA
330
1E5
100
AcDbEntity
  8
0
  6
CONTINUOUS
 62
     7
100
AcDbVertex
100
AcDb2dVertex
 10
8.5556298014
 20
6.7803534413
 30
0.0
  0
VERTEX
  5
2BB
330
1E5
100
AcDbEntity
  8
0
  6
CONTINUOUS
 62
     7
100
AcDbVertex
100
AcDb2dVertex
 10
8.5756025791
 20
6.8061364435
 30
0.0
  0
VERTEX
  5
2BC
330
1E5
100
AcDbEntity
  8
0
  6
CONTINUOUS
 62
     7
100
AcDbVertex
100
AcDb2dVertex
 10
8.5961979887
 20
6.8310437764
 30
0.0
  0
VERTEX
  5
2BD
330
1E5
100
AcDbEntity
  8
0
  6
CONTINUOUS
 62
     7
100
AcDbVertex
100
AcDb2dVertex
 10
8.6173588059
 20
6.8550062349
 30
0.0
  0
VERTEX
  5
2BE
330
1E5
100
AcDbEntity
  8
0
  6
CONTINUOUS
 62
     7
100
AcDbVertex
100
AcDb2dVertex
 10
8.6390262353
 20
6.8779572394
 30
0.0
  0
VERTEX
  5
2BF
330
1E5
100
AcDbEntity
  8
0
  6
CONTINUOUS
 62
     7
100
AcDbVertex
100
AcDb2dVertex
 10
8.6611400741
 20
6.8998330205
 30
0.0
  0
VERTEX
  5
2C0
330
1E5
100
AcDbEntity
  8
0
  6
CONTINUOUS
 62
     7
100
AcDbVertex
100
AcDb2dVertex
 10
8.6836388788
 20
6.9205727963
 30
0.0
  0
VERTEX
  5
2C1
330
1E5
100
AcDbEntity
  8
0
  6
CONTINUOUS
 62
     7
100
AcDbVertex
100
AcDb2dVertex
 10
8.7064601367
 20
6.9401189414
 30
0.0
  0
VERTEX
  5
2C2
330
1E5
100
AcDbEntity
  8
0
  6
CONTINUOUS
 62
     7
100
AcDbVertex
100
AcDb2dVertex
 10
8.7295404387
 20
6.9584171468
 30
0.0
  0
VERTEX
  5
2C3
330
1E5
100
AcDbEntity
  8
0
  6
CONTINUOUS
 62
     7
100
AcDbVertex
100
AcDb2dVertex
 10
8.7528156562
 20
6.9754165709
 30
0.0
  0
VERTEX
  5
2C4
330
1E5
100
AcDbEntity
  8
0
  6
CONTINUOUS
 62
     7
100
AcDbVertex
100
AcDb2dVertex
 10
8.7762211192
 20
6.9910699808
 30
0.0
  0
VERTEX
  5
2C5
330
1E5
100
AcDbEntity
  8
0
  6
CONTINUOUS
 62
     7
100
AcDbVertex
100
AcDb2dVertex
 10
8.7996917954
 20
7.0053338835
 30
0.0
  0
VERTEX
  5
2C6
330
1E5
100
AcDbEntity
  8
0
  6
CONTINUOUS
 62
     7
100
AcDbVertex
100
AcDb2dVertex
 10
8.8231624716
 20
7.0181686467
 30
0.0
  0
VERTEX
  5
2C7
330
1E5
100
AcDbEntity
  8
0
  6
CONTINUOUS
 62
     7
100
AcDbVertex
100
AcDb2dVertex
 10
8.8465679346
 20
7.0295386091
 30
0.0
  0
VERTEX
  5
2C8
330
1E5
100
AcDbEntity
  8
0
  6
CONTINUOUS
 62
     7
100
AcDbVertex
100
AcDb2dVertex
 10
8.8698431521
 20
7.0394121792
 30
0.0
  0
VERTEX
  5
2C9
330
1E5
100
AcDbEntity
  8
0
  6
CONTINUOUS
 62
     7
100
AcDbVertex
100
AcDb2dVertex
 10
8.8929234541
 20
7.0477619234
 30
0.0
  0
VERTEX
  5
2CA
330
1E5
100
AcDbEntity
  8
0
  6
CONTINUOUS
 62
     7
100
AcDbVertex
100
AcDb2dVertex
 10
8.915744712
 20
7.0545646417
 30
0.0
  0
VERTEX
  5
2CB
330
1E5
100
AcDbEntity
  8
0
  6
CONTINUOUS
 62
     7
100
AcDbVertex
100
AcDb2dVertex
 10
8.9382435167
 20
7.0598014329
 30
0.0
  0
VERTEX
  5
2CC
330
1E5
100
AcDbEntity
  8
0
  6
CONTINUOUS
 62
     7
100
AcDbVertex
100
AcDb2dVertex
 10
8.9603573555
 20
7.0634577466
 30
0.0
  0
VERTEX
  5
2CD
330
1E5
100
AcDbEntity
  8
0
  6
CONTINUOUS
 62
     7
100
AcDbVertex
100
AcDb2dVertex
 10
8.9820247849
 20
7.0655234237
 30
0.0
  0
VERTEX
  5
2CE
330
1E5
100
AcDbEntity
  8
0
  6
CONTINUOUS
 62
     7
100
AcDbVertex
100
AcDb2dVertex
 10
9.0031856021
 20
7.0659927246
 30
0.0
  0
VERTEX
  5
2CF
330
1E5
100
AcDbEntity
  8
0
  6
CONTINUOUS
 62
     7
100
AcDbVertex
100
AcDb2dVertex
 10
9.0237810117
 20
7.0648643455
 30
0.0
  0
VERTEX
  5
2D0
330
1E5
100
AcDbEntity
  8
0
  6
CONTINUOUS
 62
     7
100
AcDbVertex
100
AcDb2dVertex
 10
9.0437537894
 20
7.0621414216
 30
0.0
  0
VERTEX
  5
2D1
330
1E5
100
AcDbEntity
  8
0
  6
CONTINUOUS
 62
     7
100
AcDbVertex
100
AcDb2dVertex
 10
9.0630484407
 20
7.0578315184
 30
0.0
  0
VERTEX
  5
2D2
330
1E5
100
AcDbEntity
  8
0
  6
CONTINUOUS
 62
     7
100
AcDbVertex
100
AcDb2dVertex
 10
9.0816113555
 20
7.0519466111
 30
0.0
  0
VERTEX
  5
2D3
330
1E5
100
AcDbEntity
  8
0
  6
CONTINUOUS
 62
     7
100
AcDbVertex
100
AcDb2dVertex
 10
9.0993909568
 20
7.0445030509
 30
0.0
  0
VERTEX
  5
2D4
330
1E5
100
AcDbEntity
  8
0
  6
CONTINUOUS
 62
     7
100
AcDbVertex
100
AcDb2dVertex
 10
9.1163378438
 20
7.0355215196
 30
0.0
  0
VERTEX
  5
2D5
330
1E5
100
AcDbEntity
  8
0
  6
CONTINUOUS
 62
     7
100
AcDbVertex
100
AcDb2dVertex
 10
9.1324049297
 20
7.0250269726
 30
0.0
  0
VERTEX
  5
2D6
330
1E5
100
AcDbEntity
  8
0
  6
CONTINUOUS
 62
     7
100
AcDbVertex
100
AcDb2dVertex
 10
9.1475475721
 20
7.0130485689
 30
0.0
  0
VERTEX
  5
2D7
330
1E5
100
AcDbEntity
  8
0
  6
CONTINUOUS
 62
     7
100
AcDbVertex
100
AcDb2dVertex
 10
9.161723697
 20
6.9996195904
 30
0.0
  0
VERTEX
  5
2D8
330
1E5
100
AcDbEntity
  8
0
  6
CONTINUOUS
 62
     7
100
AcDbVertex
100
AcDb2dVertex
 10
9.1748939163
 20
6.9847773497
 30
0.0
  0
VERTEX
  5
2D9
330
1E5
100
AcDbEntity
  8
0
  6
CONTINUOUS
 62
     7
100
AcDbVertex
100
AcDb2dVertex
 10
9.1870216363
 20
6.9685630859
 30
0.0
  0
VERTEX
  5
2DA
330
1E5
100
AcDbEntity
  8
0
  6
CONTINUOUS
 62
     7
100
AcDbVertex
100
AcDb2dVertex
 10
9.1980731603
 20
6.9510218503
 30
0.0
  0
VERTEX
  5
2DB
330
1E5
100
AcDbEntity
  8
0
  6
CONTINUOUS
 62
     7
100
AcDbVertex
100
AcDb2dVertex
 10
9.2080177816
 20
6.9322023812
 30
0.0
  0
VERTEX
  5
2DC
330
1E5
100
AcDbEntity
  8
0
  6
CONTINUOUS
 62
     7
100
AcDbVertex
100
AcDb2dVertex
 10
9.2168278689
 20
6.9121569686
 30
0.0
  0
VERTEX
  5
2DD
330
1E5
100
AcDbEntity
  8
0
  6
CONTINUOUS
 62
     7
100
AcDbVertex
100
AcDb2dVertex
 10
9.2244789436
 20
6.8909413086
 30
0.0
  0
VERTEX
  5
2DE
330
1E5
100
AcDbEntity
  8
0
  6
CONTINUOUS
 62
     7
100
AcDbVertex
100
AcDb2dVertex
 10
9.2309497471
 20
6.868614349
 30
0.0
  0
VERTEX
  5
2DF
330
1E5
100
AcDbEntity
  8
0
  6
CONTINUOUS
 62
     7
100
AcDbVertex
100
AcDb2dVertex
 10
9.2362223002
 20
6.8452381252
 30
0.0
  0
VERTEX
  5
2E0
330
1E5
100
AcDbEntity
  8
0
  6
CONTINUOUS
 62
     7
100
AcDbVertex
100
AcDb2dVertex
 10
9.2402819532
 20
6.8208775881
 30
0.0
  0
VERTEX
  5
2E1
330
1E5
100
AcDbEntity
  8
0
  6
CONTINUOUS
 62
     7
100
AcDbVertex
100
AcDb2dVertex
 10
9.2431174263
 20
6.7956004233
 30
0.0
  0
VERTEX
  5
2E2
330
1E5
100
AcDbEntity
  8
0
  6
CONTINUOUS
 62
     7
100
AcDbVertex
100
AcDb2dVertex
 10
9.2447208412
 20
6.7694768636
 30
0.0
  0
VERTEX
  5
2E3
330
1E5
100
AcDbEntity
  8
0
  6
CONTINUOUS
 62
     7
100
AcDbVertex
100
AcDb2dVertex
 10
9.2451133898
 20
6.7481138797
 30
0.0
  0
SEQEND
  5
2E4
330
1E5
100
AcDbEntity
  8
0
  6
CONTINUOUS
 62
     7
  0
LINE
  5
1E6
330
1F
100
AcDbEntity
  8
0
  6
CONTINUOUS
 62
     7
100
AcDbLine
 10
8.8136112202
 20
5.9849077744
 30
0.0
 11
8.8277533558
 21
5.9930827513
 31
0.0
  0
POLYLINE
  5
1E7
330
1F
100
AcDbEntity
  8
0
  6
CONTINUOUS
 62
     7
100
AcDb2dPolyline
 66
     1
 10
0.0
 20
0.0
 30
0.0
  0
VERTEX
  5
2E5
330
1E7
100
AcDbEntity
  8
0
  6
CONTINUOUS
 62
     7
100
AcDbVertex
100
AcDb2dVertex
 10
7.8623240165
 20
7.7594590826
 30
0.0
  0
VERTEX
  5
2E6
330
1E7
100
AcDbEntity
  8
0
  6
CONTINUOUS
 62
     7
100
AcDbVertex
100
AcDb2dVertex
 10
7.850606938
 20
7.7657377077
 30
0.0
  0
VERTEX
  5
2E7
330
1E7
100
AcDbEntity
  8
0
  6
CONTINUOUS
 62
     7
100
AcDbVertex
100
AcDb2dVertex
 10
7.8329929138
 20
7.7734961554
 30
0.0
  0
VERTEX
  5
2E8
330
1E7
100
AcDbEntity
  8
0
  6
CONTINUOUS
 62
     7
100
AcDbVertex
100
AcDb2dVertex
 10
7.8145853389
 20
7.7796998108
 30
0.0
  0
VERTEX
  5
2E9
330
1E7
100
AcDbEntity
  8
0
  6
CONTINUOUS
 62
     7
100
AcDbVertex
100
AcDb2dVertex
 10
7.7954353589
 20
7.7843314371
 30
0.0
  0
VERTEX
  5
2EA
330
1E7
100
AcDbEntity
  8
0
  6
CONTINUOUS
 62
     7
100
AcDbVertex
100
AcDb2dVertex
 10
7.7755961819
 20
7.7873781654
 30
0.0
  0
VERTEX
  5
2EB
330
1E7
100
AcDbEntity
  8
0
  6
CONTINUOUS
 62
     7
100
AcDbVertex
100
AcDb2dVertex
 10
7.7551229312
 20
7.7888315302
 30
0.0
  0
VERTEX
  5
2EC
330
1E7
100
AcDbEntity
  8
0
  6
CONTINUOUS
 62
     7
100
AcDbVertex
100
AcDb2dVertex
 10
7.7340724916
 20
7.7886874934
 30
0.0
  0
VERTEX
  5
2ED
330
1E7
100
AcDbEntity
  8
0
  6
CONTINUOUS
 62
     7
100
AcDbVertex
100
AcDb2dVertex
 10
7.7125033519
 20
7.7869464552
 30
0.0
  0
VERTEX
  5
2EE
330
1E7
100
AcDbEntity
  8
0
  6
CONTINUOUS
 62
     7
100
AcDbVertex
100
AcDb2dVertex
 10
7.6904754419
 20
7.7836132531
 30
0.0
  0
VERTEX
  5
2EF
330
1E7
100
AcDbEntity
  8
0
  6
CONTINUOUS
 62
     7
100
AcDbVertex
100
AcDb2dVertex
 10
7.668049966
 20
7.7786971484
 30
0.0
  0
VERTEX
  5
2F0
330
1E7
100
AcDbEntity
  8
0
  6
CONTINUOUS
 62
     7
100
AcDbVertex
100
AcDb2dVertex
 10
7.6452892336
 20
7.7722118005
 30
0.0
  0
VERTEX
  5
2F1
330
1E7
100
AcDbEntity
  8
0
  6
CONTINUOUS
 62
     7
100
AcDbVertex
100
AcDb2dVertex
 10
7.6222564854
 20
7.7641752289
 30
0.0
  0
VERTEX
  5
2F2
330
1E7
100
AcDbEntity
  8
0
  6
CONTINUOUS
 62
     7
100
AcDbVertex
100
AcDb2dVertex
 10
7.5990157177
 20
7.7546097633
 30
0.0
  0
VERTEX
  5
2F3
330
1E7
100
AcDbEntity
  8
0
  6
CONTINUOUS
 62
     7
100
AcDbVertex
100
AcDb2dVertex
 10
7.5756315052
 20
7.7435419813
 30
0.0
  0
VERTEX
  5
2F4
330
1E7
100
AcDbEntity
  8
0
  6
CONTINUOUS
 62
     7
100
AcDbVertex
100
AcDb2dVertex
 10
7.5521688208
 20
7.7310026346
 30
0.0
  0
VERTEX
  5
2F5
330
1E7
100
AcDbEntity
  8
0
  6
CONTINUOUS
 62
     7
100
AcDbVertex
100
AcDb2dVertex
 10
7.5286928556
 20
7.717026564
 30
0.0
  0
VERTEX
  5
2F6
330
1E7
100
AcDbEntity
  8
0
  6
CONTINUOUS
 62
     7
100
AcDbVertex
100
AcDb2dVertex
 10
7.5052688376
 20
7.701652602
 30
0.0
  0
VERTEX
  5
2F7
330
1E7
100
AcDbEntity
  8
0
  6
CONTINUOUS
 62
     7
100
AcDbVertex
100
AcDb2dVertex
 10
7.4819618504
 20
7.684923465
 30
0.0
  0
VERTEX
  5
2F8
330
1E7
100
AcDbEntity
  8
0
  6
CONTINUOUS
 62
     7
100
AcDbVertex
100
AcDb2dVertex
 10
7.4588366526
 20
7.666885635
 30
0.0
  0
VERTEX
  5
2F9
330
1E7
100
AcDbEntity
  8
0
  6
CONTINUOUS
 62
     7
100
AcDbVertex
100
AcDb2dVertex
 10
7.4359574974
 20
7.6475892301
 30
0.0
  0
VERTEX
  5
2FA
330
1E7
100
AcDbEntity
  8
0
  6
CONTINUOUS
 62
     7
100
AcDbVertex
100
AcDb2dVertex
 10
7.4133879546
 20
7.6270878653
 30
0.0
  0
VERTEX
  5
2FB
330
1E7
100
AcDbEntity
  8
0
  6
CONTINUOUS
 62
     7
100
AcDbVertex
100
AcDb2dVertex
 10
7.3911907338
 20
7.6054385039
 30
0.0
  0
VERTEX
  5
2FC
330
1E7
100
AcDbEntity
  8
0
  6
CONTINUOUS
 62
     7
100
AcDbVertex
100
AcDb2dVertex
 10
7.3694275098
 20
7.5827012983
 30
0.0
  0
VERTEX
  5
2FD
330
1E7
100
AcDbEntity
  8
0
  6
CONTINUOUS
 62
     7
100
AcDbVertex
100
AcDb2dVertex
 10
7.3481587518
 20
7.5589394241
 30
0.0
  0
VERTEX
  5
2FE
330
1E7
100
AcDbEntity
  8
0
  6
CONTINUOUS
 62
     7
100
AcDbVertex
100
AcDb2dVertex
 10
7.327443555
 20
7.5342189036
 30
0.0
  0
VERTEX
  5
2FF
330
1E7
100
AcDbEntity
  8
0
  6
CONTINUOUS
 62
     7
100
AcDbVertex
100
AcDb2dVertex
 10
7.3073394767
 20
7.5086084228
 30
0.0
  0
VERTEX
  5
300
330
1E7
100
AcDbEntity
  8
0
  6
CONTINUOUS
 62
     7
100
AcDbVertex
100
AcDb2dVertex
 10
7.287902376
 20
7.4821791403
 30
0.0
  0
VERTEX
  5
301
330
1E7
100
AcDbEntity
  8
0
  6
CONTINUOUS
 62
     7
100
AcDbVertex
100
AcDb2dVertex
 10
7.269186259
 20
7.45500449
 30
0.0
  0
VERTEX
  5
302
330
1E7
100
AcDbEntity
  8
0
  6
CONTINUOUS
 62
     7
100
AcDbVertex
100
AcDb2dVertex
 10
7.2512431282
 20
7.4271599766
 30
0.0
  0
VERTEX
  5
303
330
1E7
100
AcDbEntity
  8
0
  6
CONTINUOUS
 62
     7
100
AcDbVertex
100
AcDb2dVertex
 10
7.2341228388
 20
7.3987229662
 30
0.0
  0
VERTEX
  5
304
330
1E7
100
AcDbEntity
  8
0
  6
CONTINUOUS
 62
     7
100
AcDbVertex
100
AcDb2dVertex
 10
7.2178729595
 20
7.3697724709
 30
0.0
  0
VERTEX
  5
305
330
1E7
100
AcDbEntity
  8
0
  6
CONTINUOUS
 62
     7
100
AcDbVertex
100
AcDb2dVertex
 10
7.2025386405
 20
7.3403889297
 30
0.0
  0
VERTEX
  5
306
330
1E7
100
AcDbEntity
  8
0
  6
CONTINUOUS
 62
     7
100
AcDbVertex
100
AcDb2dVertex
 10
7.1881624884
 20
7.3106539848
 30
0.0
  0
VERTEX
  5
307
330
1E7
100
AcDbEntity
  8
0
  6
CONTINUOUS
 62
     7
100
AcDbVertex
100
AcDb2dVertex
 10
7.1747844471
 20
7.2806502548
 30
0.0
  0
VERTEX
  5
308
330
1E7
100
AcDbEntity
  8
0
  6
CONTINUOUS
 62
     7
100
AcDbVertex
100
AcDb2dVertex
 10
7.1624416876
 20
7.2504611049
 30
0.0
  0
VERTEX
  5
309
330
1E7
100
AcDbEntity
  8
0
  6
CONTINUOUS
 62
     7
100
AcDbVertex
100
AcDb2dVertex
 10
7.1511685043
 20
7.2201704159
 30
0.0
  0
VERTEX
  5
30A
330
1E7
100
AcDbEntity
  8
0
  6
CONTINUOUS
 62
     7
100
AcDbVertex
100
AcDb2dVertex
 10
7.1409962197
 20
7.1898623504
 30
0.0
  0
VERTEX
  5
30B
330
1E7
100
AcDbEntity
  8
0
  6
CONTINUOUS
 62
     7
100
AcDbVertex
100
AcDb2dVertex
 10
7.1319530975
 20
7.1596211192
 30
0.0
  0
VERTEX
  5
30C
330
1E7
100
AcDbEntity
  8
0
  6
CONTINUOUS
 62
     7
100
AcDbVertex
100
AcDb2dVertex
 10
7.1240642641
 20
7.1295307478
 30
0.0
  0
VERTEX
  5
30D
330
1E7
100
AcDbEntity
  8
0
  6
CONTINUOUS
 62
     7
100
AcDbVertex
100
AcDb2dVertex
 10
7.1173516385
 20
7.0996748422
 30
0.0
  0
VERTEX
  5
30E
330
1E7
100
AcDbEntity
  8
0
  6
CONTINUOUS
 62
     7
100
AcDbVertex
100
AcDb2dVertex
 10
7.1118338717
 20
7.0701363571
 30
0.0
  0
VERTEX
  5
30F
330
1E7
100
AcDbEntity
  8
0
  6
CONTINUOUS
 62
     7
100
AcDbVertex
100
AcDb2dVertex
 10
7.107526295
 20
7.0409973651
 30
0.0
  0
VERTEX
  5
310
330
1E7
100
AcDbEntity
  8
0
  6
CONTINUOUS
 62
     7
100
AcDbVertex
100
AcDb2dVertex
 10
7.1044408769
 20
7.0123388289
 30
0.0
  0
VERTEX
  5
311
330
1E7
100
AcDbEntity
  8
0
  6
CONTINUOUS
 62
     7
100
AcDbVertex
100
AcDb2dVertex
 10
7.1025861902
 20
6.9842403764
 30
0.0
  0
VERTEX
  5
312
330
1E7
100
AcDbEntity
  8
0
  6
CONTINUOUS
 62
     7
100
AcDbVertex
100
AcDb2dVertex
 10
7.1019673882
 20
6.956780079
 30
0.0
  0
VERTEX
  5
313
330
1E7
100
AcDbEntity
  8
0
  6
CONTINUOUS
 62
     7
100
AcDbVertex
100
AcDb2dVertex
 10
7.1025861902
 20
6.9300342352
 30
0.0
  0
VERTEX
  5
314
330
1E7
100
AcDbEntity
  8
0
  6
CONTINUOUS
 62
     7
100
AcDbVertex
100
AcDb2dVertex
 10
7.1044408769
 20
6.9040771583
 30
0.0
  0
VERTEX
  5
315
330
1E7
100
AcDbEntity
  8
0
  6
CONTINUOUS
 62
     7
100
AcDbVertex
100
AcDb2dVertex
 10
7.107526295
 20
6.8789809701
 30
0.0
  0
VERTEX
  5
316
330
1E7
100
AcDbEntity
  8
0
  6
CONTINUOUS
 62
     7
100
AcDbVertex
100
AcDb2dVertex
 10
7.1118338717
 20
6.8548154003
 30
0.0
  0
VERTEX
  5
317
330
1E7
100
AcDbEntity
  8
0
  6
CONTINUOUS
 62
     7
100
AcDbVertex
100
AcDb2dVertex
 10
7.1173516385
 20
6.8316475931
 30
0.0
  0
VERTEX
  5
318
330
1E7
100
AcDbEntity
  8
0
  6
CONTINUOUS
 62
     7
100
AcDbVertex
100
AcDb2dVertex
 10
7.1240642641
 20
6.80954192
 30
0.0
  0
VERTEX
  5
319
330
1E7
100
AcDbEntity
  8
0
  6
CONTINUOUS
 62
     7
100
AcDbVertex
100
AcDb2dVertex
 10
7.1319530975
 20
6.7885598019
 30
0.0
  0
VERTEX
  5
31A
330
1E7
100
AcDbEntity
  8
0
  6
CONTINUOUS
 62
     7
100
AcDbVertex
100
AcDb2dVertex
 10
7.1409962197
 20
6.7687595374
 30
0.0
  0
VERTEX
  5
31B
330
1E7
100
AcDbEntity
  8
0
  6
CONTINUOUS
 62
     7
100
AcDbVertex
100
AcDb2dVertex
 10
7.1511685043
 20
6.7501961416
 30
0.0
  0
VERTEX
  5
31C
330
1E7
100
AcDbEntity
  8
0
  6
CONTINUOUS
 62
     7
100
AcDbVertex
100
AcDb2dVertex
 10
7.1624416876
 20
6.732921193
 30
0.0
  0
VERTEX
  5
31D
330
1E7
100
AcDbEntity
  8
0
  6
CONTINUOUS
 62
     7
100
AcDbVertex
100
AcDb2dVertex
 10
7.1747844471
 20
6.7169826899
 30
0.0
  0
VERTEX
  5
31E
330
1E7
100
AcDbEntity
  8
0
  6
CONTINUOUS
 62
     7
100
AcDbVertex
100
AcDb2dVertex
 10
7.1881624884
 20
6.7024249176
 30
0.0
  0
VERTEX
  5
31F
330
1E7
100
AcDbEntity
  8
0
  6
CONTINUOUS
 62
     7
100
AcDbVertex
100
AcDb2dVertex
 10
7.2025386405
 20
6.6892883247
 30
0.0
  0
VERTEX
  5
320
330
1E7
100
AcDbEntity
  8
0
  6
CONTINUOUS
 62
     7
100
AcDbVertex
100
AcDb2dVertex
 10
7.2178729595
 20
6.6776094113
 30
0.0
  0
VERTEX
  5
321
330
1E7
100
AcDbEntity
  8
0
  6
CONTINUOUS
 62
     7
100
AcDbVertex
100
AcDb2dVertex
 10
7.2324539487
 20
6.6683739017
 30
0.0
  0
SEQEND
  5
322
330
1E7
100
AcDbEntity
  8
0
  6
CONTINUOUS
 62
     7
  0
POLYLINE
  5
1E8
330
1F
100
AcDbEntity
  8
0
  6
CONTINUOUS
 62
     7
100
AcDb2dPolyline
 66
     1
 10
0.0
 20
0.0
 30
0.0
  0
VERTEX
  5
323
330
1E8
100
AcDbEntity
  8
0
  6
CONTINUOUS
 62
     7
100
AcDbVertex
100
AcDb2dVertex
 10
7.6167633959
 20
7.2539663286
 30
0.0
  0
VERTEX
  5
324
330
1E8
100
AcDbEntity
  8
0
  6
CONTINUOUS
 62
     7
100
AcDbVertex
100
AcDb2dVertex
 10
7.6354765406
 20
7.2811546192
 30
0.0
  0
VERTEX
  5
325
330
1E8
100
AcDbEntity
  8
0
  6
CONTINUOUS
 62
     7
100
AcDbVertex
100
AcDb2dVertex
 10
7.6549115414
 20
7.3075979197
 30
0.0
  0
VERTEX
  5
326
330
1E8
100
AcDbEntity
  8
0
  6
CONTINUOUS
 62
     7
100
AcDbVertex
100
AcDb2dVertex
 10
7.6750143721
 20
7.333222722
 30
0.0
  0
VERTEX
  5
327
330
1E8
100
AcDbEntity
  8
0
  6
CONTINUOUS
 62
     7
100
AcDbVertex
100
AcDb2dVertex
 10
7.6957291501
 20
7.3579577932
 30
0.0
  0
VERTEX
  5
328
330
1E8
100
AcDbEntity
  8
0
  6
CONTINUOUS
 62
     7
100
AcDbVertex
100
AcDb2dVertex
 10
7.7169982916
 20
7.3817343738
 30
0.0
  0
VERTEX
  5
329
330
1E8
100
AcDbEntity
  8
0
  6
CONTINUOUS
 62
     7
100
AcDbVertex
100
AcDb2dVertex
 10
7.7387626717
 20
7.4044863686
 30
0.0
  0
VERTEX
  5
32A
330
1E8
100
AcDbEntity
  8
0
  6
CONTINUOUS
 62
     7
100
AcDbVertex
100
AcDb2dVertex
 10
7.7609617889
 20
7.4261505307
 30
0.0
  0
VERTEX
  5
32B
330
1E8
100
AcDbEntity
  8
0
  6
CONTINUOUS
 62
     7
100
AcDbVertex
100
AcDb2dVertex
 10
7.7835339332
 20
7.4466666373
 30
0.0
  0
VERTEX
  5
32C
330
1E8
100
AcDbEntity
  8
0
  6
CONTINUOUS
 62
     7
100
AcDbVertex
100
AcDb2dVertex
 10
7.8064163577
 20
7.4659776567
 30
0.0
  0
VERTEX
  5
32D
330
1E8
100
AcDbEntity
  8
0
  6
CONTINUOUS
 62
     7
100
AcDbVertex
100
AcDb2dVertex
 10
7.8295454529
 20
7.4840299075
 30
0.0
  0
VERTEX
  5
32E
330
1E8
100
AcDbEntity
  8
0
  6
CONTINUOUS
 62
     7
100
AcDbVertex
100
AcDb2dVertex
 10
7.8528569235
 20
7.5007732073
 30
0.0
  0
VERTEX
  5
32F
330
1E8
100
AcDbEntity
  8
0
  6
CONTINUOUS
 62
     7
100
AcDbVertex
100
AcDb2dVertex
 10
7.8762859674
 20
7.5161610123
 30
0.0
  0
VERTEX
  5
330
330
1E8
100
AcDbEntity
  8
0
  6
CONTINUOUS
 62
     7
100
AcDbVertex
100
AcDb2dVertex
 10
7.8997674555
 20
7.5301505469
 30
0.0
  0
VERTEX
  5
331
330
1E8
100
AcDbEntity
  8
0
  6
CONTINUOUS
 62
     7
100
AcDbVertex
100
AcDb2dVertex
 10
7.9232361132
 20
7.5427029224
 30
0.0
  0
VERTEX
  5
332
330
1E8
100
AcDbEntity
  8
0
  6
CONTINUOUS
 62
     7
100
AcDbVertex
100
AcDb2dVertex
 10
7.9466267011
 20
7.5537832452
 30
0.0
  0
VERTEX
  5
333
330
1E8
100
AcDbEntity
  8
0
  6
CONTINUOUS
 62
     7
100
AcDbVertex
100
AcDb2dVertex
 10
7.9698741973
 20
7.5633607138
 30
0.0
  0
VERTEX
  5
334
330
1E8
100
AcDbEntity
  8
0
  6
CONTINUOUS
 62
     7
100
AcDbVertex
100
AcDb2dVertex
 10
7.9929139774
 20
7.5714087044
 30
0.0
  0
VERTEX
  5
335
330
1E8
100
AcDbEntity
  8
0
  6
CONTINUOUS
 62
     7
100
AcDbVertex
100
AcDb2dVertex
 10
8.0156819945
 20
7.5779048447
 30
0.0
  0
VERTEX
  5
336
330
1E8
100
AcDbEntity
  8
0
  6
CONTINUOUS
 62
     7
100
AcDbVertex
100
AcDb2dVertex
 10
8.038114957
 20
7.5828310767
 30
0.0
  0
VERTEX
  5
337
330
1E8
100
AcDbEntity
  8
0
  6
CONTINUOUS
 62
     7
100
AcDbVertex
100
AcDb2dVertex
 10
8.060150505
 20
7.5861737061
 30
0.0
  0
VERTEX
  5
338
330
1E8
100
AcDbEntity
  8
0
  6
CONTINUOUS
 62
     7
100
AcDbVertex
100
AcDb2dVertex
 10
8.0817273832
 20
7.5879234409
 30
0.0
  0
VERTEX
  5
339
330
1E8
100
AcDbEntity
  8
0
  6
CONTINUOUS
 62
     7
100
AcDbVertex
100
AcDb2dVertex
 10
8.1027856111
 20
7.5880754172
 30
0.0
  0
VERTEX
  5
33A
330
1E8
100
AcDbEntity
  8
0
  6
CONTINUOUS
 62
     7
100
AcDbVertex
100
AcDb2dVertex
 10
8.1232666505
 20
7.5866292126
 30
0.0
  0
VERTEX
  5
33B
330
1E8
100
AcDbEntity
  8
0
  6
CONTINUOUS
 62
     7
100
AcDbVertex
100
AcDb2dVertex
 10
8.1431135671
 20
7.5835888471
 30
0.0
  0
VERTEX
  5
33C
330
1E8
100
AcDbEntity
  8
0
  6
CONTINUOUS
 62
     7
100
AcDbVertex
100
AcDb2dVertex
 10
8.1622711897
 20
7.5789627726
 30
0.0
  0
VERTEX
  5
33D
330
1E8
100
AcDbEntity
  8
0
  6
CONTINUOUS
 62
     7
100
AcDbVertex
100
AcDb2dVertex
 10
8.1806862632
 20
7.5727638488
 30
0.0
  0
VERTEX
  5
33E
330
1E8
100
AcDbEntity
  8
0
  6
CONTINUOUS
 62
     7
100
AcDbVertex
100
AcDb2dVertex
 10
8.1983075966
 20
7.5650093077
 30
0.0
  0
VERTEX
  5
33F
330
1E8
100
AcDbEntity
  8
0
  6
CONTINUOUS
 62
     7
100
AcDbVertex
100
AcDb2dVertex
 10
8.2150862055
 20
7.5557207058
 30
0.0
  0
VERTEX
  5
340
330
1E8
100
AcDbEntity
  8
0
  6
CONTINUOUS
 62
     7
100
AcDbVertex
100
AcDb2dVertex
 10
8.2236986972
 20
7.550131385
 30
0.0
  0
SEQEND
  5
341
330
1E8
100
AcDbEntity
  8
0
  6
CONTINUOUS
 62
     7
  0
LINE
  5
1E9
330
1F
100
AcDbEntity
  8
0
  6
CONTINUOUS
 62
     7
100
AcDbLine
 10
7.6446022456
 20
7.2378953028
 30
0.0
 11
7.6167633959
 21
7.2539663286
 31
0.0
  0
POLYLINE
  5
1EA
330
1F
100
AcDbEntity
  8
0
  6
CONTINUOUS
 62
     7
100
AcDb2dPolyline
 66
     1
 10
0.0
 20
0.0
 30
0.0
  0
VERTEX
  5
342
330
1EA
100
AcDbEntity
  8
0
  6
CONTINUOUS
 62
     7
100
AcDbVertex
100
AcDb2dVertex
 10
8.237925776
 20
7.5426288022
 30
0.0
  0
VERTEX
  5
343
330
1EA
100
AcDbEntity
  8
0
  6
CONTINUOUS
 62
     7
100
AcDbVertex
100
AcDb2dVertex
 10
8.227158769
 20
7.5484333481
 30
0.0
  0
VERTEX
  5
344
330
1EA
100
AcDbEntity
  8
0
  6
CONTINUOUS
 62
     7
100
AcDbVertex
100
AcDb2dVertex
 10
8.2095465145
 20
7.5562943328
 30
0.0
  0
VERTEX
  5
345
330
1EA
100
AcDbEntity
  8
0
  6
CONTINUOUS
 62
     7
100
AcDbVertex
100
AcDb2dVertex
 10
8.1911342015
 20
7.5625940183
 30
0.0
  0
VERTEX
  5
346
330
1EA
100
AcDbEntity
  8
0
  6
CONTINUOUS
 62
     7
100
AcDbVertex
100
AcDb2dVertex
 10
8.1719732366
 20
7.5673148159
 30
0.0
  0
VERTEX
  5
347
330
1EA
100
AcDbEntity
  8
0
  6
CONTINUOUS
 62
     7
100
AcDbVertex
100
AcDb2dVertex
 10
8.152117117
 20
7.5704435453
 30
0.0
  0
VERTEX
  5
348
330
1EA
100
AcDbEntity
  8
0
  6
CONTINUOUS
 62
     7
100
AcDbVertex
100
AcDb2dVertex
 10
8.1316212805
 20
7.5719714712
 30
0.0
  0
VERTEX
  5
349
330
1EA
100
AcDbEntity
  8
0
  6
CONTINUOUS
 62
     7
100
AcDbVertex
100
AcDb2dVertex
 10
8.1105429513
 20
7.5718943275
 30
0.0
  0
VERTEX
  5
34A
330
1EA
100
AcDbEntity
  8
0
  6
CONTINUOUS
 62
     7
100
AcDbVertex
100
AcDb2dVertex
 10
8.0889409796
 20
7.5702123297
 30
0.0
  0
VERTEX
  5
34B
330
1EA
100
AcDbEntity
  8
0
  6
CONTINUOUS
 62
     7
100
AcDbVertex
100
AcDb2dVertex
 10
8.0668756778
 20
7.5669301739
 30
0.0
  0
VERTEX
  5
34C
330
1EA
100
AcDbEntity
  8
0
  6
CONTINUOUS
 62
     7
100
AcDbVertex
100
AcDb2dVertex
 10
8.0444086518
 20
7.5620570238
 30
0.0
  0
VERTEX
  5
34D
330
1EA
100
AcDbEntity
  8
0
  6
CONTINUOUS
 62
     7
100
AcDbVertex
100
AcDb2dVertex
 10
8.0216026291
 20
7.5556064851
 30
0.0
  0
VERTEX
  5
34E
330
1EA
100
AcDbEntity
  8
0
  6
CONTINUOUS
 62
     7
100
AcDbVertex
100
AcDb2dVertex
 10
7.9985212838
 20
7.5475965676
 30
0.0
  0
VERTEX
  5
34F
330
1EA
100
AcDbEntity
  8
0
  6
CONTINUOUS
 62
     7
100
AcDbVertex
100
AcDb2dVertex
 10
7.9752290585
 20
7.538049635
 30
0.0
  0
VERTEX
  5
350
330
1EA
100
AcDbEntity
  8
0
  6
CONTINUOUS
 62
     7
100
AcDbVertex
100
AcDb2dVertex
 10
7.9517909848
 20
7.5269923419
 30
0.0
  0
VERTEX
  5
351
330
1EA
100
AcDbEntity
  8
0
  6
CONTINUOUS
 62
     7
100
AcDbVertex
100
AcDb2dVertex
 10
7.9282725012
 20
7.5144555604
 30
0.0
  0
VERTEX
  5
352
330
1EA
100
AcDbEntity
  8
0
  6
CONTINUOUS
 62
     7
100
AcDbVertex
100
AcDb2dVertex
 10
7.9047392712
 20
7.5004742927
 30
0.0
  0
VERTEX
  5
353
330
1EA
100
AcDbEntity
  8
0
  6
CONTINUOUS
 62
     7
100
AcDbVertex
100
AcDb2dVertex
 10
7.8812569989
 20
7.4850875743
 30
0.0
  0
VERTEX
  5
354
330
1EA
100
AcDbEntity
  8
0
  6
CONTINUOUS
 62
     7
100
AcDbVertex
100
AcDb2dVertex
 10
7.8578912464
 20
7.4683383647
 30
0.0
  0
VERTEX
  5
355
330
1EA
100
AcDbEntity
  8
0
  6
CONTINUOUS
 62
     7
100
AcDbVertex
100
AcDb2dVertex
 10
7.8347072506
 20
7.4502734275
 30
0.0
  0
VERTEX
  5
356
330
1EA
100
AcDbEntity
  8
0
  6
CONTINUOUS
 62
     7
100
AcDbVertex
100
AcDb2dVertex
 10
7.8117697408
 20
7.4309431995
 30
0.0
  0
VERTEX
  5
357
330
1EA
100
AcDbEntity
  8
0
  6
CONTINUOUS
 62
     7
100
AcDbVertex
100
AcDb2dVertex
 10
7.7891427581
 20
7.4104016504
 30
0.0
  0
VERTEX
  5
358
330
1EA
100
AcDbEntity
  8
0
  6
CONTINUOUS
 62
     7
100
AcDbVertex
100
AcDb2dVertex
 10
7.7668894765
 20
7.3887061319
 30
0.0
  0
VERTEX
  5
359
330
1EA
100
AcDbEntity
  8
0
  6
CONTINUOUS
 62
     7
100
AcDbVertex
100
AcDb2dVertex
 10
7.745072027
 20
7.3659172175
 30
0.0
  0
VERTEX
  5
35A
330
1EA
100
AcDbEntity
  8
0
  6
CONTINUOUS
 62
     7
100
AcDbVertex
100
AcDb2dVertex
 10
7.7237513233
 20
7.3420985335
 30
0.0
  0
VERTEX
  5
35B
330
1EA
100
AcDbEntity
  8
0
  6
CONTINUOUS
 62
     7
100
AcDbVertex
100
AcDb2dVertex
 10
7.7029868926
 20
7.3173165811
 30
0.0
  0
VERTEX
  5
35C
330
1EA
100
AcDbEntity
  8
0
  6
CONTINUOUS
 62
     7
100
AcDbVertex
100
AcDb2dVertex
 10
7.6828367088
 20
7.2916405511
 30
0.0
  0
VERTEX
  5
35D
330
1EA
100
AcDbEntity
  8
0
  6
CONTINUOUS
 62
     7
100
AcDbVertex
100
AcDb2dVertex
 10
7.6633570308
 20
7.2651421307
 30
0.0
  0
VERTEX
  5
35E
330
1EA
100
AcDbEntity
  8
0
  6
CONTINUOUS
 62
     7
100
AcDbVertex
100
AcDb2dVertex
 10
7.6446022456
 20
7.2378953028
 30
0.0
  0
SEQEND
  5
35F
330
1EA
100
AcDbEntity
  8
0
  6
CONTINUOUS
 62
     7
  0
POLYLINE
  5
1EB
330
1F
100
AcDbEntity
  8
0
  6
CONTINUOUS
 62
     7
100
AcDb2dPolyline
 66
     1
 10
0.0
 20
0.0
 30
0.0
  0
VERTEX
  5
360
330
1EB
100
AcDbEntity
  8
0
  6
CONTINUOUS
 62
     7
100
AcDbVertex
100
AcDb2dVertex
 10
8.0390120162
 20
6.6462485427
 30
0.0
  0
VERTEX
  5
361
330
1EB
100
AcDbEntity
  8
0
  6
CONTINUOUS
 62
     7
100
AcDbVertex
100
AcDb2dVertex
 10
8.030679092
 20
6.6156921712
 30
0.0
  0
VERTEX
  5
362
330
1EB
100
AcDbEntity
  8
0
  6
CONTINUOUS
 62
     7
100
AcDbVertex
100
AcDb2dVertex
 10
8.0235490234
 20
6.5853529407
 30
0.0
  0
VERTEX
  5
363
330
1EB
100
AcDbEntity
  8
0
  6
CONTINUOUS
 62
     7
100
AcDbVertex
100
AcDb2dVertex
 10
8.0176421699
 20
6.5553174832
 30
0.0
  0
VERTEX
  5
364
330
1EB
100
AcDbEntity
  8
0
  6
CONTINUOUS
 62
     7
100
AcDbVertex
100
AcDb2dVertex
 10
8.0129753982
 20
6.5256715634
 30
0.0
  0
VERTEX
  5
365
330
1EB
100
AcDbEntity
  8
0
  6
CONTINUOUS
 62
     7
100
AcDbVertex
100
AcDb2dVertex
 10
8.009562034
 20
6.4964998335
 30
0.0
  0
VERTEX
  5
366
330
1EB
100
AcDbEntity
  8
0
  6
CONTINUOUS
 62
     7
100
AcDbVertex
100
AcDb2dVertex
 10
8.0074118239
 20
6.4678855917
 30
0.0
  0
VERTEX
  5
367
330
1EB
100
AcDbEntity
  8
0
  6
CONTINUOUS
 62
     7
100
AcDbVertex
100
AcDb2dVertex
 10
8.0065309078
 20
6.4399105445
 30
0.0
  0
VERTEX
  5
368
330
1EB
100
AcDbEntity
  8
0
  6
CONTINUOUS
 62
     7
100
AcDbVertex
100
AcDb2dVertex
 10
8.006921801
 20
6.412654573
 30
0.0
  0
VERTEX
  5
369
330
1EB
100
AcDbEntity
  8
0
  6
CONTINUOUS
 62
     7
100
AcDbVertex
100
AcDb2dVertex
 10
8.0085833875
 20
6.3861955053
 30
0.0
  0
VERTEX
  5
36A
330
1EB
100
AcDbEntity
  8
0
  6
CONTINUOUS
 62
     7
100
AcDbVertex
100
AcDb2dVertex
 10
8.0115109226
 20
6.3606088936
 30
0.0
  0
VERTEX
  5
36B
330
1EB
100
AcDbEntity
  8
0
  6
CONTINUOUS
 62
     7
100
AcDbVertex
100
AcDb2dVertex
 10
8.0156960469
 20
6.3359677992
 30
0.0
  0
VERTEX
  5
36C
330
1EB
100
AcDbEntity
  8
0
  6
CONTINUOUS
 62
     7
100
AcDbVertex
100
AcDb2dVertex
 10
8.02112681
 20
6.3123425834
 30
0.0
  0
VERTEX
  5
36D
330
1EB
100
AcDbEntity
  8
0
  6
CONTINUOUS
 62
     7
100
AcDbVertex
100
AcDb2dVertex
 10
8.0277877047
 20
6.2898007066
 30
0.0
  0
VERTEX
  5
36E
330
1EB
100
AcDbEntity
  8
0
  6
CONTINUOUS
 62
     7
100
AcDbVertex
100
AcDb2dVertex
 10
8.0356597112
 20
6.2684065359
 30
0.0
  0
VERTEX
  5
36F
330
1EB
100
AcDbEntity
  8
0
  6
CONTINUOUS
 62
     7
100
AcDbVertex
100
AcDb2dVertex
 10
8.0447203513
 20
6.2482211612
 30
0.0
  0
VERTEX
  5
370
330
1EB
100
AcDbEntity
  8
0
  6
CONTINUOUS
 62
     7
100
AcDbVertex
100
AcDb2dVertex
 10
8.054943753
 20
6.2293022208
 30
0.0
  0
VERTEX
  5
371
330
1EB
100
AcDbEntity
  8
0
  6
CONTINUOUS
 62
     7
100
AcDbVertex
100
AcDb2dVertex
 10
8.0663007238
 20
6.2117037366
 30
0.0
  0
VERTEX
  5
372
330
1EB
100
AcDbEntity
  8
0
  6
CONTINUOUS
 62
     7
100
AcDbVertex
100
AcDb2dVertex
 10
8.0787588346
 20
6.1954759601
 30
0.0
  0
VERTEX
  5
373
330
1EB
100
AcDbEntity
  8
0
  6
CONTINUOUS
 62
     7
100
AcDbVertex
100
AcDb2dVertex
 10
8.0922825119
 20
6.1806652289
 30
0.0
  0
VERTEX
  5
374
330
1EB
100
AcDbEntity
  8
0
  6
CONTINUOUS
 62
     7
100
AcDbVertex
100
AcDb2dVertex
 10
8.1068331396
 20
6.1673138341
 30
0.0
  0
VERTEX
  5
375
330
1EB
100
AcDbEntity
  8
0
  6
CONTINUOUS
 62
     7
100
AcDbVertex
100
AcDb2dVertex
 10
8.1223691691
 20
6.1554599
 30
0.0
  0
VERTEX
  5
376
330
1EB
100
AcDbEntity
  8
0
  6
CONTINUOUS
 62
     7
100
AcDbVertex
100
AcDb2dVertex
 10
8.1369938516
 20
6.1461941306
 30
0.0
  0
SEQEND
  5
377
330
1EB
100
AcDbEntity
  8
0
  6
CONTINUOUS
 62
     7
  0
LINE
  5
1EC
330
1F
100
AcDbEntity
  8
0
  6
CONTINUOUS
 62
     7
100
AcDbLine
 10
8.0111731665
 20
6.6623195685
 30
0.0
 11
8.0390120162
 21
6.6462485427
 31
0.0
  0
POLYLINE
  5
1ED
330
1F
100
AcDbEntity
  8
0
  6
CONTINUOUS
 62
     7
100
AcDb2dPolyline
 66
     1
 10
0.0
 20
0.0
 30
0.0
  0
VERTEX
  5
378
330
1ED
100
AcDbEntity
  8
0
  6
CONTINUOUS
 62
     7
100
AcDbVertex
100
AcDb2dVertex
 10
8.1233820808
 20
6.1547625737
 30
0.0
  0
VERTEX
  5
379
330
1ED
100
AcDbEntity
  8
0
  6
CONTINUOUS
 62
     7
100
AcDbVertex
100
AcDb2dVertex
 10
8.1068549617
 20
6.1636124757
 30
0.0
  0
VERTEX
  5
37A
330
1ED
100
AcDbEntity
  8
0
  6
CONTINUOUS
 62
     7
100
AcDbVertex
100
AcDb2dVertex
 10
8.0907830492
 20
6.1741874105
 30
0.0
  0
VERTEX
  5
37B
330
1ED
100
AcDbEntity
  8
0
  6
CONTINUOUS
 62
     7
100
AcDbVertex
100
AcDb2dVertex
 10
8.0756416429
 20
6.186252074
 30
0.0
  0
VERTEX
  5
37C
330
1ED
100
AcDbEntity
  8
0
  6
CONTINUOUS
 62
     7
100
AcDbVertex
100
AcDb2dVertex
 10
8.0614730135
 20
6.1997727847
 30
0.0
  0
VERTEX
  5
37D
330
1ED
100
AcDbEntity
  8
0
  6
CONTINUOUS
 62
     7
100
AcDbVertex
100
AcDb2dVertex
 10
8.0483167162
 20
6.2147117965
 30
0.0
  0
VERTEX
  5
37E
330
1ED
100
AcDbEntity
  8
0
  6
CONTINUOUS
 62
     7
100
AcDbVertex
100
AcDb2dVertex
 10
8.0362094798
 20
6.2310274033
 30
0.0
  0
VERTEX
  5
37F
330
1ED
100
AcDbEntity
  8
0
  6
CONTINUOUS
 62
     7
100
AcDbVertex
100
AcDb2dVertex
 10
8.0251851048
 20
6.2486740565
 30
0.0
  0
VERTEX
  5
380
330
1ED
100
AcDbEntity
  8
0
  6
CONTINUOUS
 62
     7
100
AcDbVertex
100
AcDb2dVertex
 10
8.0152743681
 20
6.267602491
 30
0.0
  0
VERTEX
  5
381
330
1ED
100
AcDbEntity
  8
0
  6
CONTINUOUS
 62
     7
100
AcDbVertex
100
AcDb2dVertex
 10
8.0065049381
 20
6.2877598637
 30
0.0
  0
VERTEX
  5
382
330
1ED
100
AcDbEntity
  8
0
  6
CONTINUOUS
 62
     7
100
AcDbVertex
100
AcDb2dVertex
 10
7.9989012966
 20
6.3090899004
 30
0.0
  0
VERTEX
  5
383
330
1ED
100
AcDbEntity
  8
0
  6
CONTINUOUS
 62
     7
100
AcDbVertex
100
AcDb2dVertex
 10
7.9924846711
 20
6.3315330532
 30
0.0
  0
VERTEX
  5
384
330
1ED
100
AcDbEntity
  8
0
  6
CONTINUOUS
 62
     7
100
AcDbVertex
100
AcDb2dVertex
 10
7.987272975
 20
6.3550266668
 30
0.0
  0
VERTEX
  5
385
330
1ED
100
AcDbEntity
  8
0
  6
CONTINUOUS
 62
     7
100
AcDbVertex
100
AcDb2dVertex
 10
7.9832807582
 20
6.379505153
 30
0.0
  0
VERTEX
  5
386
330
1ED
100
AcDbEntity
  8
0
  6
CONTINUOUS
 62
     7
100
AcDbVertex
100
AcDb2dVertex
 10
7.9805191658
 20
6.4049001744
 30
0.0
  0
VERTEX
  5
387
330
1ED
100
AcDbEntity
  8
0
  6
CONTINUOUS
 62
     7
100
AcDbVertex
100
AcDb2dVertex
 10
7.9789959074
 20
6.4311408346
 30
0.0
  0
VERTEX
  5
388
330
1ED
100
AcDbEntity
  8
0
  6
CONTINUOUS
 62
     7
100
AcDbVertex
100
AcDb2dVertex
 10
7.9787152357
 20
6.4581538766
 30
0.0
  0
VERTEX
  5
389
330
1ED
100
AcDbEntity
  8
0
  6
CONTINUOUS
 62
     7
100
AcDbVertex
100
AcDb2dVertex
 10
7.9796779341
 20
6.485863887
 30
0.0
  0
VERTEX
  5
38A
330
1ED
100
AcDbEntity
  8
0
  6
CONTINUOUS
 62
     7
100
AcDbVertex
100
AcDb2dVertex
 10
7.9818813151
 20
6.5141935067
 30
0.0
  0
VERTEX
  5
38B
330
1ED
100
AcDbEntity
  8
0
  6
CONTINUOUS
 62
     7
100
AcDbVertex
100
AcDb2dVertex
 10
7.9853192274
 20
6.5430636469
 30
0.0
  0
VERTEX
  5
38C
330
1ED
100
AcDbEntity
  8
0
  6
CONTINUOUS
 62
     7
100
AcDbVertex
100
AcDb2dVertex
 10
7.9899820732
 20
6.5723937096
 30
0.0
  0
VERTEX
  5
38D
330
1ED
100
AcDbEntity
  8
0
  6
CONTINUOUS
 62
     7
100
AcDbVertex
100
AcDb2dVertex
 10
7.9958568351
 20
6.6021018129
 30
0.0
  0
VERTEX
  5
38E
330
1ED
100
AcDbEntity
  8
0
  6
CONTINUOUS
 62
     7
100
AcDbVertex
100
AcDb2dVertex
 10
8.0029271124
 20
6.6321050196
 30
0.0
  0
VERTEX
  5
38F
330
1ED
100
AcDbEntity
  8
0
  6
CONTINUOUS
 62
     7
100
AcDbVertex
100
AcDb2dVertex
 10
8.0111731665
 20
6.6623195685
 30
0.0
  0
SEQEND
  5
390
330
1ED
100
AcDbEntity
  8
0
  6
CONTINUOUS
 62
     7
  0
LINE
  5
1EE
330
1F
100
AcDbEntity
  8
0
  6
CONTINUOUS
 62
     7
100
AcDbLine
 10
8.8136112202
 20
5.9849077744
 30
0.0
 11
8.7999145062
 21
5.9928147191
 31
0.0
  0
SPLINE
  5
1EF
330
1F
100
AcDbEntity
  8
0
  6
CONTINUOUS
 62
     7
100
AcDbSpline
210
0.0
220
0.0
230
1.0
 70
     8
 71
     3
 72
    34
 73
    30
 74
     0
 42
0.00000001
 43
0.00000001
 40
0.0
 40
0.0
 40
0.0
 40
0.0
 40
0.0380924617970981
 40
0.0935267804047417
 40
0.1506972008564471
 40
0.1919915734363107
 40
0.2343704971222114
 40
0.2693023965804988
 40
0.3051924423914283
 40
0.3401608702241835
 40
0.3764044672222648
 40
0.4075625767450711
 40
0.4397563827108284
 40
0.4688992816301039
 40
0.4989113471054479
 40
0.5277018762119488
 40
0.55728243942544
 40
0.5869677824745961
 40
0.617401090874929
 40
0.6493929948681435
 40
0.6821191363247707
 40
0.7182966871821133
 40
0.7552378902550182
 40
0.7979184724565929
 40
0.8414718626915338
 40
0.8925143470617232
 40
0.944742318135943
 40
0.9893973840242004
 40
1.0
 40
1.0
 40
1.0
 40
1.0
 10
8.10032066837621
 20
7.621864509444858
 30
0.0
 10
8.098618612795265
 20
7.622850096585492
 30
0.0
 10
8.094439629052925
 20
7.62526996623222
 30
0.0
 10
8.081906989385205
 20
7.630319879909097
 30
0.0
 10
8.065177849963844
 20
7.63607475293463
 30
0.0
 10
8.046128146546335
 20
7.642037230366189
 30
0.0
 10
8.027701697755429
 20
7.647625549740892
 30
0.0
 10
8.008339753921023
 20
7.653569522541302
 30
0.0
 10
7.989120691056224
 20
7.659731129914716
 30
0.0
 10
7.96912894042695
 20
7.666638182568012
 30
0.0
 10
7.950198625168606
 20
7.673892178141628
 30
0.0
 10
7.932726180829507
 20
7.681464230926149
 30
0.0
 10
7.917874435814641
 20
7.688829513898192
 30
0.0
 10
7.905050966662761
 20
7.696225424290065
 30
0.0
 10
7.894762852394506
 20
7.703258742282852
 30
0.0
 10
7.886752051711936
 20
7.709993000159055
 30
0.0
 10
7.881211867111485
 20
7.716134262630077
 30
0.0
 10
7.878126676776926
 20
7.721560038697818
 30
0.0
 10
7.877537629851753
 20
7.726055578734412
 30
0.0
 10
7.879498650742794
 20
7.729374972819713
 30
0.0
 10
7.884092128753474
 20
7.731325687896024
 30
0.0
 10
7.891325774139362
 20
7.731582059078702
 30
0.0
 10
7.901542577010367
 20
7.729831259753481
 30
0.0
 10
7.914557096882874
 20
7.725749853329365
 30
0.0
 10
7.931056550255436
 20
7.7187594952559
 30
0.0
 10
7.950494861201634
 20
7.708761664439251
 30
0.0
 10
7.971694440136902
 20
7.696176317810772
 30
0.0
 10
7.987741983854656
 20
7.68593665698952
 30
0.0
 10
7.996471531296516
 20
7.680044767112813
 30
0.0
 10
7.998146520837269
 20
7.678914255596096
 30
0.0
  0
SPLINE
  5
1F0
330
1F
100
AcDbEntity
  8
0
  6
CONTINUOUS
 62
     7
100
AcDbSpline
210
0.0
220
0.0
230
1.0
 70
     8
 71
     3
 72
    39
 73
    35
 74
     0
 42
0.00000001
 43
0.00000001
 40
0.0
 40
0.0
 40
0.0
 40
0.0
 40
0.0083250866293753
 40
0.0419751035255988
 40
0.0764318566131234
 40
0.1108809968873186
 40
0.136148763785779
 40
0.1614133433476322
 40
0.1873214997605872
 40
0.2132252541974056
 40
0.254884388654884
 40
0.2763037970658789
 40
0.2977212109127318
 40
0.3185948757162184
 40
0.3394672429747125
 40
0.3610879023241015
 40
0.3827077725960478
 40
0.4203679618018359
 40
0.4591988178790841
 40
0.4956264991074034
 40
0.5331117714871976
 40
0.569525266138031
 40
0.6069935078651162
 40
0.6434205811128864
 40
0.6809071178672185
 40
0.7172937127583064
 40
0.7547034915259513
 40
0.7917573889993501
 40
0.8297451455037919
 40
0.8697358459493225
 40
0.9105868083788077
 40
0.9401518338296705
 40
0.9697229048693267
 40
0.9999999999999999
 40
0.9999999999999999
 40
0.9999999999999999
 40
0.9999999999999999
 10
8.220490747175083
 20
6.102901268326735
 30
0.0
 10
8.218490362450169
 20
6.103682081952098
 30
0.0
 10
8.208404418644735
 20
6.107618945821257
 30
0.0
 10
8.191529369007222
 20
6.115535412299562
 30
0.0
 10
8.170280470612797
 20
6.126648676245217
 30
0.0
 10
8.152865411528083
 20
6.137477395874047
 30
0.0
 10
8.138952532523895
 20
6.147576549613685
 30
0.0
 10
8.127981589320077
 20
6.156829154566876
 30
0.0
 10
8.118675123643447
 20
6.166223353245461
 30
0.0
 10
8.109745979510526
 20
6.177501714897376
 30
0.0
 10
8.10444713424085
 20
6.187858600555397
 30
0.0
 10
8.102574374892562
 20
6.196845353585424
 30
0.0
 10
8.10280487360227
 20
6.203057582606815
 30
0.0
 10
8.104688505677299
 20
6.208512304051142
 30
0.0
 10
8.108181314237513
 20
6.21315888304472
 30
0.0
 10
8.113354491430114
 20
6.216859999367617
 30
0.0
 10
8.121855236758767
 20
6.220099615798791
 30
0.0
 10
8.135289908307612
 20
6.221383823635402
 30
0.0
 10
8.15462199641497
 20
6.218481175215008
 30
0.0
 10
8.176862365002256
 20
6.211080610684506
 30
0.0
 10
8.200670111134505
 20
6.199551847246867
 30
0.0
 10
8.225986133502053
 20
6.183860623116359
 30
0.0
 10
8.251678806337653
 20
6.164763063868634
 30
0.0
 10
8.277634847922481
 20
6.142583837965617
 30
0.0
 10
8.302871114925232
 20
6.118583538754739
 30
0.0
 10
8.327427197045116
 20
6.093339444496329
 30
0.0
 10
8.350673381671127
 20
6.068203682484851
 30
0.0
 10
8.372765476052734
 20
6.043772889590239
 30
0.0
 10
8.393699653826314
 20
6.020779162858723
 30
0.0
 10
8.41350529194487
 20
5.999891149405023
 30
0.0
 10
8.430230162446826
 20
5.98363369007373
 30
0.0
 10
8.44413030576698
 20
5.971573567420874
 30
0.0
 10
8.455761910064187
 20
5.962589682001943
 30
0.0
 10
8.462883144131064
 20
5.958205162103731
 30
0.0
 10
8.466485765482519
 20
5.955987040237093
 30
0.0
  0
POLYLINE
  5
1F1
330
1F
100
AcDbEntity
  8
0
  6
CONTINUOUS
 62
     7
100
AcDb2dPolyline
 66
     1
 10
0.0
 20
0.0
 30
0.0
  0
VERTEX
  5
391
330
1F1
100
AcDbEntity
  8
0
  6
CONTINUOUS
 62
     7
100
AcDbVertex
100
AcDb2dVertex
 10
8.7999145062
 20
6.3307521057
 30
0.0
  0
VERTEX
  5
392
330
1F1
100
AcDbEntity
  8
0
  6
CONTINUOUS
 62
     7
100
AcDbVertex
100
AcDb2dVertex
 10
8.7876111611
 20
6.3259543121
 30
0.0
  0
VERTEX
  5
393
330
1F1
100
AcDbEntity
  8
0
  6
CONTINUOUS
 62
     7
100
AcDbVertex
100
AcDb2dVertex
 10
8.77556648
 20
6.3227037915
 30
0.0
  0
VERTEX
  5
394
330
1F1
100
AcDbEntity
  8
0
  6
CONTINUOUS
 62
     7
100
AcDbVertex
100
AcDb2dVertex
 10
8.7638992726
 20
6.3210326071
 30
0.0
  0
VERTEX
  5
395
330
1F1
100
AcDbEntity
  8
0
  6
CONTINUOUS
 62
     7
100
AcDbVertex
100
AcDb2dVertex
 10
8.7527246255
 20
6.3209572438
 30
0.0
  0
VERTEX
  5
396
330
1F1
100
AcDbEntity
  8
0
  6
CONTINUOUS
 62
     7
100
AcDbVertex
100
AcDb2dVertex
 10
8.7421527664
 20
6.3224784448
 30
0.0
  0
VERTEX
  5
397
330
1F1
100
AcDbEntity
  8
0
  6
CONTINUOUS
 62
     7
100
AcDbVertex
100
AcDb2dVertex
 10
8.7322879771
 20
6.3255812051
 30
0.0
  0
VERTEX
  5
398
330
1F1
100
AcDbEntity
  8
0
  6
CONTINUOUS
 62
     7
100
AcDbVertex
100
AcDb2dVertex
 10
8.7232275649
 20
6.3302349185
 30
0.0
  0
VERTEX
  5
399
330
1F1
100
AcDbEntity
  8
0
  6
CONTINUOUS
 62
     7
100
AcDbVertex
100
AcDb2dVertex
 10
8.7150609026
 20
6.3363936805
 30
0.0
  0
VERTEX
  5
39A
330
1F1
100
AcDbEntity
  8
0
  6
CONTINUOUS
 62
     7
100
AcDbVertex
100
AcDb2dVertex
 10
8.7078685468
 20
6.3439967405
 30
0.0
  0
VERTEX
  5
39B
330
1F1
100
AcDbEntity
  8
0
  6
CONTINUOUS
 62
     7
100
AcDbVertex
100
AcDb2dVertex
 10
8.7017214437
 20
6.3529691011
 30
0.0
  0
VERTEX
  5
39C
330
1F1
100
AcDbEntity
  8
0
  6
CONTINUOUS
 62
     7
100
AcDbVertex
100
AcDb2dVertex
 10
8.6966802288
 20
6.363222258
 30
0.0
  0
VERTEX
  5
39D
330
1F1
100
AcDbEntity
  8
0
  6
CONTINUOUS
 62
     7
100
AcDbVertex
100
AcDb2dVertex
 10
8.6927946292
 20
6.3746550733
 30
0.0
  0
VERTEX
  5
39E
330
1F1
100
AcDbEntity
  8
0
  6
CONTINUOUS
 62
     7
100
AcDbVertex
100
AcDb2dVertex
 10
8.6901029729
 20
6.3871547725
 30
0.0
  0
VERTEX
  5
39F
330
1F1
100
AcDbEntity
  8
0
  6
CONTINUOUS
 62
     7
100
AcDbVertex
100
AcDb2dVertex
 10
8.6886318105
 20
6.4005980574
 30
0.0
  0
VERTEX
  5
3A0
330
1F1
100
AcDbEntity
  8
0
  6
CONTINUOUS
 62
     7
100
AcDbVertex
100
AcDb2dVertex
 10
8.6883956538
 20
6.4148523221
 30
0.0
  0
VERTEX
  5
3A1
330
1F1
100
AcDbEntity
  8
0
  6
CONTINUOUS
 62
     7
100
AcDbVertex
100
AcDb2dVertex
 10
8.6893968322
 20
6.4297769612
 30
0.0
  0
VERTEX
  5
3A2
330
1F1
100
AcDbEntity
  8
0
  6
CONTINUOUS
 62
     7
100
AcDbVertex
100
AcDb2dVertex
 10
8.6916254701
 20
6.4452247566
 30
0.0
  0
VERTEX
  5
3A3
330
1F1
100
AcDbEntity
  8
0
  6
CONTINUOUS
 62
     7
100
AcDbVertex
100
AcDb2dVertex
 10
8.6950595838
 20
6.4610433299
 30
0.0
  0
VERTEX
  5
3A4
330
1F1
100
AcDbEntity
  8
0
  6
CONTINUOUS
 62
     7
100
AcDbVertex
100
AcDb2dVertex
 10
8.6996652991
 20
6.4770766451
 30
0.0
  0
VERTEX
  5
3A5
330
1F1
100
AcDbEntity
  8
0
  6
CONTINUOUS
 62
     7
100
AcDbVertex
100
AcDb2dVertex
 10
8.7053971846
 20
6.493166548
 30
0.0
  0
VERTEX
  5
3A6
330
1F1
100
AcDbEntity
  8
0
  6
CONTINUOUS
 62
     7
100
AcDbVertex
100
AcDb2dVertex
 10
8.7121987005
 20
6.5091543264
 30
0.0
  0
VERTEX
  5
3A7
330
1F1
100
AcDbEntity
  8
0
  6
CONTINUOUS
 62
     7
100
AcDbVertex
100
AcDb2dVertex
 10
8.7200027561
 20
6.5248822752
 30
0.0
  0
VERTEX
  5
3A8
330
1F1
100
AcDbEntity
  8
0
  6
CONTINUOUS
 62
     7
100
AcDbVertex
100
AcDb2dVertex
 10
8.7287323713
 20
6.5401952524
 30
0.0
  0
VERTEX
  5
3A9
330
1F1
100
AcDbEntity
  8
0
  6
CONTINUOUS
 62
     7
100
AcDbVertex
100
AcDb2dVertex
 10
8.7383014364
 20
6.5549422095
 30
0.0
  0
VERTEX
  5
3AA
330
1F1
100
AcDbEntity
  8
0
  6
CONTINUOUS
 62
     7
100
AcDbVertex
100
AcDb2dVertex
 10
8.7486155612
 20
6.5689776809
 30
0.0
  0
VERTEX
  5
3AB
330
1F1
100
AcDbEntity
  8
0
  6
CONTINUOUS
 62
     7
100
AcDbVertex
100
AcDb2dVertex
 10
8.7595730063
 20
6.5821632195
 30
0.0
  0
VERTEX
  5
3AC
330
1F1
100
AcDbEntity
  8
0
  6
CONTINUOUS
 62
     7
100
AcDbVertex
100
AcDb2dVertex
 10
8.7710656863
 20
6.5943687619
 30
0.0
  0
VERTEX
  5
3AD
330
1F1
100
AcDbEntity
  8
0
  6
CONTINUOUS
 62
     7
100
AcDbVertex
100
AcDb2dVertex
 10
8.7829802363
 20
6.6054739114
 30
0.0
  0
VERTEX
  5
3AE
330
1F1
100
AcDbEntity
  8
0
  6
CONTINUOUS
 62
     7
100
AcDbVertex
100
AcDb2dVertex
 10
8.7951991301
 20
6.6153691258
 30
0.0
  0
VERTEX
  5
3AF
330
1F1
100
AcDbEntity
  8
0
  6
CONTINUOUS
 62
     7
100
AcDbVertex
100
AcDb2dVertex
 10
8.8076018394
 20
6.6239567977
 30
0.0
  0
VERTEX
  5
3B0
330
1F1
100
AcDbEntity
  8
0
  6
CONTINUOUS
 62
     7
100
AcDbVertex
100
AcDb2dVertex
 10
8.8200660226
 20
6.6311522175
 30
0.0
  0
VERTEX
  5
3B1
330
1F1
100
AcDbEntity
  8
0
  6
CONTINUOUS
 62
     7
100
AcDbVertex
100
AcDb2dVertex
 10
8.8324687319
 20
6.6368844089
 30
0.0
  0
VERTEX
  5
3B2
330
1F1
100
AcDbEntity
  8
0
  6
CONTINUOUS
 62
     7
100
AcDbVertex
100
AcDb2dVertex
 10
8.8446876257
 20
6.6410968291
 30
0.0
  0
VERTEX
  5
3B3
330
1F1
100
AcDbEntity
  8
0
  6
CONTINUOUS
 62
     7
100
AcDbVertex
100
AcDb2dVertex
 10
8.8566021758
 20
6.6437479262
 30
0.0
  0
VERTEX
  5
3B4
330
1F1
100
AcDbEntity
  8
0
  6
CONTINUOUS
 62
     7
100
AcDbVertex
100
AcDb2dVertex
 10
8.8680948558
 20
6.6448115498
 30
0.0
  0
VERTEX
  5
3B5
330
1F1
100
AcDbEntity
  8
0
  6
CONTINUOUS
 62
     7
100
AcDbVertex
100
AcDb2dVertex
 10
8.8790523008
 20
6.6442772079
 30
0.0
  0
VERTEX
  5
3B6
330
1F1
100
AcDbEntity
  8
0
  6
CONTINUOUS
 62
     7
100
AcDbVertex
100
AcDb2dVertex
 10
8.8893664257
 20
6.6421501715
 30
0.0
  0
VERTEX
  5
3B7
330
1F1
100
AcDbEntity
  8
0
  6
CONTINUOUS
 62
     7
100
AcDbVertex
100
AcDb2dVertex
 10
8.8989354908
 20
6.6384514219
 30
0.0
  0
VERTEX
  5
3B8
330
1F1
100
AcDbEntity
  8
0
  6
CONTINUOUS
 62
     7
100
AcDbVertex
100
AcDb2dVertex
 10
8.907665106
 20
6.6332174438
 30
0.0
  0
VERTEX
  5
3B9
330
1F1
100
AcDbEntity
  8
0
  6
CONTINUOUS
 62
     7
100
AcDbVertex
100
AcDb2dVertex
 10
8.9154691615
 20
6.6264998657
 30
0.0
  0
VERTEX
  5
3BA
330
1F1
100
AcDbEntity
  8
0
  6
CONTINUOUS
 62
     7
100
AcDbVertex
100
AcDb2dVertex
 10
8.9222706774
 20
6.6183649505
 30
0.0
  0
VERTEX
  5
3BB
330
1F1
100
AcDbEntity
  8
0
  6
CONTINUOUS
 62
     7
100
AcDbVertex
100
AcDb2dVertex
 10
8.928002563
 20
6.6088929417
 30
0.0
  0
VERTEX
  5
3BC
330
1F1
100
AcDbEntity
  8
0
  6
CONTINUOUS
 62
     7
100
AcDbVertex
100
AcDb2dVertex
 10
8.9326082782
 20
6.5981772722
 30
0.0
  0
VERTEX
  5
3BD
330
1F1
100
AcDbEntity
  8
0
  6
CONTINUOUS
 62
     7
100
AcDbVertex
100
AcDb2dVertex
 10
8.936042392
 20
6.5863236422
 30
0.0
  0
VERTEX
  5
3BE
330
1F1
100
AcDbEntity
  8
0
  6
CONTINUOUS
 62
     7
100
AcDbVertex
100
AcDb2dVertex
 10
8.9382710298
 20
6.5734489773
 30
0.0
  0
VERTEX
  5
3BF
330
1F1
100
AcDbEntity
  8
0
  6
CONTINUOUS
 62
     7
100
AcDbVertex
100
AcDb2dVertex
 10
8.9392722082
 20
6.5596802742
 30
0.0
  0
VERTEX
  5
3C0
330
1F1
100
AcDbEntity
  8
0
  6
CONTINUOUS
 62
     7
100
AcDbVertex
100
AcDb2dVertex
 10
8.9390360515
 20
6.5451533487
 30
0.0
  0
VERTEX
  5
3C1
330
1F1
100
AcDbEntity
  8
0
  6
CONTINUOUS
 62
     7
100
AcDbVertex
100
AcDb2dVertex
 10
8.9375648891
 20
6.530011496
 30
0.0
  0
VERTEX
  5
3C2
330
1F1
100
AcDbEntity
  8
0
  6
CONTINUOUS
 62
     7
100
AcDbVertex
100
AcDb2dVertex
 10
8.9348732328
 20
6.5144040765
 30
0.0
  0
VERTEX
  5
3C3
330
1F1
100
AcDbEntity
  8
0
  6
CONTINUOUS
 62
     7
100
AcDbVertex
100
AcDb2dVertex
 10
8.9309876332
 20
6.4984850435
 30
0.0
  0
VERTEX
  5
3C4
330
1F1
100
AcDbEntity
  8
0
  6
CONTINUOUS
 62
     7
100
AcDbVertex
100
AcDb2dVertex
 10
8.9259464184
 20
6.4824114237
 30
0.0
  0
VERTEX
  5
3C5
330
1F1
100
AcDbEntity
  8
0
  6
CONTINUOUS
 62
     7
100
AcDbVertex
100
AcDb2dVertex
 10
8.9197993153
 20
6.4663417689
 30
0.0
  0
VERTEX
  5
3C6
330
1F1
100
AcDbEntity
  8
0
  6
CONTINUOUS
 62
     7
100
AcDbVertex
100
AcDb2dVertex
 10
8.9126069595
 20
6.4504345918
 30
0.0
  0
VERTEX
  5
3C7
330
1F1
100
AcDbEntity
  8
0
  6
CONTINUOUS
 62
     7
100
AcDbVertex
100
AcDb2dVertex
 10
8.9044402971
 20
6.4348468021
 30
0.0
  0
VERTEX
  5
3C8
330
1F1
100
AcDbEntity
  8
0
  6
CONTINUOUS
 62
     7
100
AcDbVertex
100
AcDb2dVertex
 10
8.8953798849
 20
6.4197321594
 30
0.0
  0
VERTEX
  5
3C9
330
1F1
100
AcDbEntity
  8
0
  6
CONTINUOUS
 62
     7
100
AcDbVertex
100
AcDb2dVertex
 10
8.8855150957
 20
6.4052397559
 30
0.0
  0
VERTEX
  5
3CA
330
1F1
100
AcDbEntity
  8
0
  6
CONTINUOUS
 62
     7
100
AcDbVertex
100
AcDb2dVertex
 10
8.8749432365
 20
6.3915125461
 30
0.0
  0
VERTEX
  5
3CB
330
1F1
100
AcDbEntity
  8
0
  6
CONTINUOUS
 62
     7
100
AcDbVertex
100
AcDb2dVertex
 10
8.8637685894
 20
6.3786859365
 30
0.0
  0
VERTEX
  5
3CC
330
1F1
100
AcDbEntity
  8
0
  6
CONTINUOUS
 62
     7
100
AcDbVertex
100
AcDb2dVertex
 10
8.8521013821
 20
6.36688645
 30
0.0
  0
VERTEX
  5
3CD
330
1F1
100
AcDbEntity
  8
0
  6
CONTINUOUS
 62
     7
100
AcDbVertex
100
AcDb2dVertex
 10
8.8400567009
 20
6.3562304778
 30
0.0
  0
VERTEX
  5
3CE
330
1F1
100
AcDbEntity
  8
0
  6
CONTINUOUS
 62
     7
100
AcDbVertex
100
AcDb2dVertex
 10
8.8277533558
 20
6.3468231315
 30
0.0
  0
SEQEND
  5
3CF
330
1F1
100
AcDbEntity
  8
0
  6
CONTINUOUS
 62
     7
  0
LINE
  5
1F2
330
1F
100
AcDbEntity
  8
0
  6
CONTINUOUS
 62
     7
100
AcDbLine
 10
8.7999145062
 20
5.9770117255
 30
0.0
 11
8.7999145062
 21
6.3307521057
 31
0.0
  0
LINE
  5
1F3
330
1F
100
AcDbEntity
  8
0
  6
CONTINUOUS
 62
     7
100
AcDbLine
 10
8.8277533558
 20
5.9930827513
 30
0.0
 11
8.8277533558
 21
6.3468231315
 31
0.0
  0
POLYLINE
  5
1F4
330
1F
100
AcDbEntity
  8
0
  6
CONTINUOUS
 62
     7
100
AcDb2dPolyline
 66
     1
 10
0.0
 20
0.0
 30
0.0
  0
VERTEX
  5
3D0
330
1F4
100
AcDbEntity
  8
0
  6
CONTINUOUS
 62
     7
100
AcDbVertex
100
AcDb2dVertex
 10
8.8136112202
 20
6.3714324328
 30
0.0
  0
VERTEX
  5
3D1
330
1F4
100
AcDbEntity
  8
0
  6
CONTINUOUS
 62
     7
100
AcDbVertex
100
AcDb2dVertex
 10
8.8252042596
 20
6.3805367488
 30
0.0
  0
VERTEX
  5
3D2
330
1F4
100
AcDbEntity
  8
0
  6
CONTINUOUS
 62
     7
100
AcDbVertex
100
AcDb2dVertex
 10
8.8365118055
 20
6.3908769355
 30
0.0
  0
VERTEX
  5
3D3
330
1F4
100
AcDbEntity
  8
0
  6
CONTINUOUS
 62
     7
100
AcDbVertex
100
AcDb2dVertex
 10
8.8474073224
 20
6.4023372826
 30
0.0
  0
VERTEX
  5
3D4
330
1F4
100
AcDbEntity
  8
0
  6
CONTINUOUS
 62
     7
100
AcDbVertex
100
AcDb2dVertex
 10
8.8577688857
 20
6.4147895446
 30
0.0
  0
VERTEX
  5
3D5
330
1F4
100
AcDbEntity
  8
0
  6
CONTINUOUS
 62
     7
100
AcDbVertex
100
AcDb2dVertex
 10
8.8674805458
 20
6.4280943765
 30
0.0
  0
VERTEX
  5
3D6
330
1F4
100
AcDbEntity
  8
0
  6
CONTINUOUS
 62
     7
100
AcDbVertex
100
AcDb2dVertex
 10
8.8764336259
 20
6.4421028923
 30
0.0
  0
VERTEX
  5
3D7
330
1F4
100
AcDbEntity
  8
0
  6
CONTINUOUS
 62
     7
100
AcDbVertex
100
AcDb2dVertex
 10
8.8845279377
 20
6.4566583319
 30
0.0
  0
VERTEX
  5
3D8
330
1F4
100
AcDbEntity
  8
0
  6
CONTINUOUS
 62
     7
100
AcDbVertex
100
AcDb2dVertex
 10
8.8916729031
 20
6.4715978148
 30
0.0
  0
VERTEX
  5
3D9
330
1F4
100
AcDbEntity
  8
0
  6
CONTINUOUS
 62
     7
100
AcDbVertex
100
AcDb2dVertex
 10
8.8977885674
 20
6.4867541628
 30
0.0
  0
VERTEX
  5
3DA
330
1F4
100
AcDbEntity
  8
0
  6
CONTINUOUS
 62
     7
100
AcDbVertex
100
AcDb2dVertex
 10
8.9028064941
 20
6.5019577711
 30
0.0
  0
VERTEX
  5
3DB
330
1F4
100
AcDbEntity
  8
0
  6
CONTINUOUS
 62
     7
100
AcDbVertex
100
AcDb2dVertex
 10
8.9066705309
 20
6.5170385059
 30
0.0
  0
VERTEX
  5
3DC
330
1F4
100
AcDbEntity
  8
0
  6
CONTINUOUS
 62
     7
100
AcDbVertex
100
AcDb2dVertex
 10
8.9093374378
 20
6.5318276085
 30
0.0
  0
VERTEX
  5
3DD
330
1F4
100
AcDbEntity
  8
0
  6
CONTINUOUS
 62
     7
100
AcDbVertex
100
AcDb2dVertex
 10
8.9107773712
 20
6.5461595835
 30
0.0
  0
VERTEX
  5
3DE
330
1F4
100
AcDbEntity
  8
0
  6
CONTINUOUS
 62
     7
100
AcDbVertex
100
AcDb2dVertex
 10
8.9109742177
 20
6.5598740511
 30
0.0
  0
VERTEX
  5
3DF
330
1F4
100
AcDbEntity
  8
0
  6
CONTINUOUS
 62
     7
100
AcDbVertex
100
AcDb2dVertex
 10
8.9099257746
 20
6.5728175416
 30
0.0
  0
VERTEX
  5
3E0
330
1F4
100
AcDbEntity
  8
0
  6
CONTINUOUS
 62
     7
100
AcDbVertex
100
AcDb2dVertex
 10
8.9076437742
 20
6.5848452127
 30
0.0
  0
VERTEX
  5
3E1
330
1F4
100
AcDbEntity
  8
0
  6
CONTINUOUS
 62
     7
100
AcDbVertex
100
AcDb2dVertex
 10
8.9041537531
 20
6.5958224705
 30
0.0
  0
VERTEX
  5
3E2
330
1F4
100
AcDbEntity
  8
0
  6
CONTINUOUS
 62
     7
100
AcDbVertex
100
AcDb2dVertex
 10
8.8994947657
 20
6.6056264757
 30
0.0
  0
VERTEX
  5
3E3
330
1F4
100
AcDbEntity
  8
0
  6
CONTINUOUS
 62
     7
100
AcDbVertex
100
AcDb2dVertex
 10
8.8937189478
 20
6.6141475179
 30
0.0
  0
VERTEX
  5
3E4
330
1F4
100
AcDbEntity
  8
0
  6
CONTINUOUS
 62
     7
100
AcDbVertex
100
AcDb2dVertex
 10
8.8868909327
 20
6.6212902436
 30
0.0
  0
VERTEX
  5
3E5
330
1F4
100
AcDbEntity
  8
0
  6
CONTINUOUS
 62
     7
100
AcDbVertex
100
AcDb2dVertex
 10
8.8790871285
 20
6.6269747234
 30
0.0
  0
VERTEX
  5
3E6
330
1F4
100
AcDbEntity
  8
0
  6
CONTINUOUS
 62
     7
100
AcDbVertex
100
AcDb2dVertex
 10
8.8703948625
 20
6.6311373457
 30
0.0
  0
VERTEX
  5
3E7
330
1F4
100
AcDbEntity
  8
0
  6
CONTINUOUS
 62
     7
100
AcDbVertex
100
AcDb2dVertex
 10
8.8609114041
 20
6.6337315294
 30
0.0
  0
VERTEX
  5
3E8
330
1F4
100
AcDbEntity
  8
0
  6
CONTINUOUS
 62
     7
100
AcDbVertex
100
AcDb2dVertex
 10
8.8507428767
 20
6.6347282447
 30
0.0
  0
VERTEX
  5
3E9
330
1F4
100
AcDbEntity
  8
0
  6
CONTINUOUS
 62
     7
100
AcDbVertex
100
AcDb2dVertex
 10
8.8400030696
 20
6.634116338
 30
0.0
  0
VERTEX
  5
3EA
330
1F4
100
AcDbEntity
  8
0
  6
CONTINUOUS
 62
     7
100
AcDbVertex
100
AcDb2dVertex
 10
8.8288121651
 20
6.6319026566
 30
0.0
  0
VERTEX
  5
3EB
330
1F4
100
AcDbEntity
  8
0
  6
CONTINUOUS
 62
     7
100
AcDbVertex
100
AcDb2dVertex
 10
8.8172953934
 20
6.6281119726
 30
0.0
  0
VERTEX
  5
3EC
330
1F4
100
AcDbEntity
  8
0
  6
CONTINUOUS
 62
     7
100
AcDbVertex
100
AcDb2dVertex
 10
8.8065322053
 20
6.623272612
 30
0.0
  0
SEQEND
  5
3ED
330
1F4
100
AcDbEntity
  8
0
  6
CONTINUOUS
 62
     7
  0
ARC
  5
1F5
330
1F
100
AcDbEntity
  8
0
  6
CONTINUOUS
 62
     7
100
AcDbCircle
 10
8.7545498309
 20
6.4137395212
 30
0.0
 40
0.0662031057449658
100
AcDbArc
 50
175.5332155097
 51
298.1393398178
  0
SPLINE
  5
1F6
330
1F
100
AcDbEntity
  8
0
  6
CONTINUOUS
 62
     7
100
AcDbSpline
210
0.0
220
0.0
230
1.0
 70
     8
 71
     3
 72
     8
 73
     4
 74
     0
 42
0.00000001
 43
0.00000001
 40
0.0
 40
0.0
 40
0.0
 40
0.0
 40
1.0
 40
1.0
 40
1.0
 40
1.0
 10
8.799914506193138
 20
6.330752105664445
 30
0.0
 10
8.795198581931096
 20
6.338954135016021
 30
0.0
 10
8.790484280666234
 20
6.347157125643856
 30
0.0
 10
8.785772370569408
 20
6.355361406941022
 30
0.0
  0
SPLINE
  5
1F7
330
1F
100
AcDbEntity
  8
0
  6
CONTINUOUS
 62
     7
100
AcDbSpline
210
0.0
220
0.0
230
1.0
 70
     8
 71
     3
 72
     8
 73
     4
 74
     0
 42
0.00000001
 43
0.00000001
 40
0.0
 40
0.0
 40
0.0
 40
0.0
 40
1.0
 40
1.0
 40
1.0
 40
1.0
 10
8.827753355846154
 20
6.346823131487726
 30
0.0
 10
8.823037431584112
 20
6.355025160839302
 30
0.0
 10
8.818323130319248
 20
6.363228151467138
 30
0.0
 10
8.813611220222423
 20
6.371432432764303
 30
0.0
  0
LINE
  5
1F8
330
1F
100
AcDbEntity
  8
0
  6
CONTINUOUS
 62
     7
100
AcDbLine
 10
8.6892120497
 20
6.4111044937
 30
0.0
 11
8.7857723706
 21
6.3553614069
 31
0.0
  0
LINE
  5
1F9
330
1F
100
AcDbEntity
  8
0
  6
CONTINUOUS
 62
     7
100
AcDbLine
 10
8.6910924914
 20
6.4421609894
 30
0.0
 11
8.8136112202
 21
6.3714324328
 31
0.0
  0
ARC
  5
1FA
330
1F
100
AcDbEntity
  8
0
  6
CONTINUOUS
 62
     7
100
AcDbCircle
 10
8.035360894
 20
6.9322163039
 30
0.0
 40
0.9342888136041104
100
AcDbArc
 50
122.5138986003
 51
177.4914779324
  0
POLYLINE
  5
1FB
330
1F
100
AcDbEntity
  8
0
  6
CONTINUOUS
 62
     7
100
AcDb2dPolyline
 66
     1
 10
0.0
 20
0.0
 30
0.0
  0
VERTEX
  5
3EE
330
1FB
100
AcDbEntity
  8
0
  6
CONTINUOUS
 62
     7
100
AcDbVertex
100
AcDb2dVertex
 10
8.216875622
 20
6.1891092781
 30
0.0
  0
VERTEX
  5
3EF
330
1FB
100
AcDbEntity
  8
0
  6
CONTINUOUS
 62
     7
100
AcDbVertex
100
AcDb2dVertex
 10
8.2150089957
 20
6.1815057758
 30
0.0
  0
VERTEX
  5
3F0
330
1FB
100
AcDbEntity
  8
0
  6
CONTINUOUS
 62
     7
100
AcDbVertex
100
AcDb2dVertex
 10
8.2131400455
 20
6.1689583923
 30
0.0
  0
VERTEX
  5
3F1
330
1FB
100
AcDbEntity
  8
0
  6
CONTINUOUS
 62
     7
100
AcDbVertex
100
AcDb2dVertex
 10
8.2125147785
 20
6.1555420992
 30
0.0
  0
VERTEX
  5
3F2
330
1FB
100
AcDbEntity
  8
0
  6
CONTINUOUS
 62
     7
100
AcDbVertex
100
AcDb2dVertex
 10
8.2131400455
 20
6.1414038883
 30
0.0
  0
VERTEX
  5
3F3
330
1FB
100
AcDbEntity
  8
0
  6
CONTINUOUS
 62
     7
100
AcDbVertex
100
AcDb2dVertex
 10
8.2150089957
 20
6.1266986608
 30
0.0
  0
VERTEX
  5
3F4
330
1FB
100
AcDbEntity
  8
0
  6
CONTINUOUS
 62
     7
100
AcDbVertex
100
AcDb2dVertex
 10
8.2181011527
 20
6.1115875301
 30
0.0
  0
VERTEX
  5
3F5
330
1FB
100
AcDbEntity
  8
0
  6
CONTINUOUS
 62
     7
100
AcDbVertex
100
AcDb2dVertex
 10
8.222382638
 20
6.0962360571
 30
0.0
  0
VERTEX
  5
3F6
330
1FB
100
AcDbEntity
  8
0
  6
CONTINUOUS
 62
     7
100
AcDbVertex
100
AcDb2dVertex
 10
8.2278065429
 20
6.0808124356
 30
0.0
  0
VERTEX
  5
3F7
330
1FB
100
AcDbEntity
  8
0
  6
CONTINUOUS
 62
     7
100
AcDbVertex
100
AcDb2dVertex
 10
8.234313442
 20
6.0654856501
 30
0.0
  0
VERTEX
  5
3F8
330
1FB
100
AcDbEntity
  8
0
  6
CONTINUOUS
 62
     7
100
AcDbVertex
100
AcDb2dVertex
 10
8.2418320441
 20
6.0504236241
 30
0.0
  0
VERTEX
  5
3F9
330
1FB
100
AcDbEntity
  8
0
  6
CONTINUOUS
 62
     7
100
AcDbVertex
100
AcDb2dVertex
 10
8.2502799741
 20
6.0357913803
 30
0.0
  0
VERTEX
  5
3FA
330
1FB
100
AcDbEntity
  8
0
  6
CONTINUOUS
 62
     7
100
AcDbVertex
100
AcDb2dVertex
 10
8.2595646745
 20
6.0217492326
 30
0.0
  0
VERTEX
  5
3FB
330
1FB
100
AcDbEntity
  8
0
  6
CONTINUOUS
 62
     7
100
AcDbVertex
100
AcDb2dVertex
 10
8.2695844203
 20
6.0084510296
 30
0.0
  0
VERTEX
  5
3FC
330
1FB
100
AcDbEntity
  8
0
  6
CONTINUOUS
 62
     7
100
AcDbVertex
100
AcDb2dVertex
 10
8.280229433
 20
5.9960424694
 30
0.0
  0
VERTEX
  5
3FD
330
1FB
100
AcDbEntity
  8
0
  6
CONTINUOUS
 62
     7
100
AcDbVertex
100
AcDb2dVertex
 10
8.2913830837
 20
5.9846595026
 30
0.0
  0
VERTEX
  5
3FE
330
1FB
100
AcDbEntity
  8
0
  6
CONTINUOUS
 62
     7
100
AcDbVertex
100
AcDb2dVertex
 10
8.3029231707
 20
5.9744268435
 30
0.0
  0
VERTEX
  5
3FF
330
1FB
100
AcDbEntity
  8
0
  6
CONTINUOUS
 62
     7
100
AcDbVertex
100
AcDb2dVertex
 10
8.3147232582
 20
5.9654566032
 30
0.0
  0
VERTEX
  5
400
330
1FB
100
AcDbEntity
  8
0
  6
CONTINUOUS
 62
     7
100
AcDbVertex
100
AcDb2dVertex
 10
8.3266540621
 20
5.9578470615
 30
0.0
  0
VERTEX
  5
401
330
1FB
100
AcDbEntity
  8
0
  6
CONTINUOUS
 62
     7
100
AcDbVertex
100
AcDb2dVertex
 10
8.338584866
 20
5.9516815902
 30
0.0
  0
VERTEX
  5
402
330
1FB
100
AcDbEntity
  8
0
  6
CONTINUOUS
 62
     7
100
AcDbVertex
100
AcDb2dVertex
 10
8.3503849535
 20
5.9470277395
 30
0.0
  0
VERTEX
  5
403
330
1FB
100
AcDbEntity
  8
0
  6
CONTINUOUS
 62
     7
100
AcDbVertex
100
AcDb2dVertex
 10
8.3619250404
 20
5.9439364978
 30
0.0
  0
VERTEX
  5
404
330
1FB
100
AcDbEntity
  8
0
  6
CONTINUOUS
 62
     7
100
AcDbVertex
100
AcDb2dVertex
 10
8.3730786911
 20
5.9424417336
 30
0.0
  0
VERTEX
  5
405
330
1FB
100
AcDbEntity
  8
0
  6
CONTINUOUS
 62
     7
100
AcDbVertex
100
AcDb2dVertex
 10
8.3837237039
 20
5.9425598237
 30
0.0
  0
VERTEX
  5
406
330
1FB
100
AcDbEntity
  8
0
  6
CONTINUOUS
 62
     7
100
AcDbVertex
100
AcDb2dVertex
 10
8.3937434497
 20
5.9442894744
 30
0.0
  0
VERTEX
  5
407
330
1FB
100
AcDbEntity
  8
0
  6
CONTINUOUS
 62
     7
100
AcDbVertex
100
AcDb2dVertex
 10
8.4030281501
 20
5.9476117352
 30
0.0
  0
VERTEX
  5
408
330
1FB
100
AcDbEntity
  8
0
  6
CONTINUOUS
 62
     7
100
AcDbVertex
100
AcDb2dVertex
 10
8.4114760801
 20
5.9524902068
 30
0.0
  0
VERTEX
  5
409
330
1FB
100
AcDbEntity
  8
0
  6
CONTINUOUS
 62
     7
100
AcDbVertex
100
AcDb2dVertex
 10
8.4189946822
 20
5.9588714395
 30
0.0
  0
VERTEX
  5
40A
330
1FB
100
AcDbEntity
  8
0
  6
CONTINUOUS
 62
     7
100
AcDbVertex
100
AcDb2dVertex
 10
8.4255015812
 20
5.9666855193
 30
0.0
  0
VERTEX
  5
40B
330
1FB
100
AcDbEntity
  8
0
  6
CONTINUOUS
 62
     7
100
AcDbVertex
100
AcDb2dVertex
 10
8.4309254861
 20
5.9758468334
 30
0.0
  0
VERTEX
  5
40C
330
1FB
100
AcDbEntity
  8
0
  6
CONTINUOUS
 62
     7
100
AcDbVertex
100
AcDb2dVertex
 10
8.4332878842
 20
5.9810863487
 30
0.0
  0
SEQEND
  5
40D
330
1FB
100
AcDbEntity
  8
0
  6
CONTINUOUS
 62
     7
  0
POLYLINE
  5
1FC
330
1F
100
AcDbEntity
  8
0
  6
CONTINUOUS
 62
     7
100
AcDb2dPolyline
 66
     1
 10
0.0
 20
0.0
 30
0.0
  0
VERTEX
  5
40E
330
1FC
100
AcDbEntity
  8
0
  6
CONTINUOUS
 62
     7
100
AcDbVertex
100
AcDb2dVertex
 10
8.4500385405
 20
5.9670475779
 30
0.0
  0
VERTEX
  5
40F
330
1FC
100
AcDbEntity
  8
0
  6
CONTINUOUS
 62
     7
100
AcDbVertex
100
AcDb2dVertex
 10
8.4478086545
 20
5.9633811245
 30
0.0
  0
VERTEX
  5
410
330
1FC
100
AcDbEntity
  8
0
  6
CONTINUOUS
 62
     7
100
AcDbVertex
100
AcDb2dVertex
 10
8.4412965185
 20
5.9548346083
 30
0.0
  0
VERTEX
  5
411
330
1FC
100
AcDbEntity
  8
0
  6
CONTINUOUS
 62
     7
100
AcDbVertex
100
AcDb2dVertex
 10
8.4337556843
 20
5.9476918453
 30
0.0
  0
VERTEX
  5
412
330
1FC
100
AcDbEntity
  8
0
  6
CONTINUOUS
 62
     7
100
AcDbVertex
100
AcDb2dVertex
 10
8.4252610961
 20
5.9420238235
 30
0.0
  0
VERTEX
  5
413
330
1FC
100
AcDbEntity
  8
0
  6
CONTINUOUS
 62
     7
100
AcDbVertex
100
AcDb2dVertex
 10
8.4158971768
 20
5.9378868743
 30
0.0
  0
VERTEX
  5
414
330
1FC
100
AcDbEntity
  8
0
  6
CONTINUOUS
 62
     7
100
AcDbVertex
100
AcDb2dVertex
 10
8.4057569894
 20
5.9353221125
 30
0.0
  0
VERTEX
  5
415
330
1FC
100
AcDbEntity
  8
0
  6
CONTINUOUS
 62
     7
100
AcDbVertex
100
AcDb2dVertex
 10
8.3949413115
 20
5.9343550279
 30
0.0
  0
VERTEX
  5
416
330
1FC
100
AcDbEntity
  8
0
  6
CONTINUOUS
 62
     7
100
AcDbVertex
100
AcDb2dVertex
 10
8.3835576343
 20
5.9349952318
 30
0.0
  0
VERTEX
  5
417
330
1FC
100
AcDbEntity
  8
0
  6
CONTINUOUS
 62
     7
100
AcDbVertex
100
AcDb2dVertex
 10
8.3717190938
 20
5.9372363617
 30
0.0
  0
VERTEX
  5
418
330
1FC
100
AcDbEntity
  8
0
  6
CONTINUOUS
 62
     7
100
AcDbVertex
100
AcDb2dVertex
 10
8.3595433468
 20
5.941056144
 30
0.0
  0
VERTEX
  5
419
330
1FC
100
AcDbEntity
  8
0
  6
CONTINUOUS
 62
     7
100
AcDbVertex
100
AcDb2dVertex
 10
8.3471514012
 20
5.9464166161
 30
0.0
  0
VERTEX
  5
41A
330
1FC
100
AcDbEntity
  8
0
  6
CONTINUOUS
 62
     7
100
AcDbVertex
100
AcDb2dVertex
 10
8.3377692413
 20
5.9514283173
 30
0.0
  0
SEQEND
  5
41B
330
1FC
100
AcDbEntity
  8
0
  6
CONTINUOUS
 62
     7
  0
ARC
  5
1FD
330
1F
100
AcDbEntity
  8
0
  6
CONTINUOUS
 62
     7
100
AcDbCircle
 10
8.3582483609
 20
6.1689747414
 30
0.0
 40
0.1457347200194364
100
AcDbArc
 50
171.4113573371
 51
180.2263854848
  0
LINE
  5
1FE
330
1F
100
AcDbEntity
  8
0
  6
CONTINUOUS
 62
     7
100
AcDbLine
 10
8.3266540621
 20
6.0154099394
 30
0.0
 11
8.3823317614
 21
6.0203883647
 31
0.0
  0
LINE
  5
1FF
330
1F
100
AcDbEntity
  8
0
  6
CONTINUOUS
 62
     7
100
AcDbLine
 10
8.3823317614
 20
6.0203883647
 30
0.0
 11
8.3823317614
 21
6.0333452118
 31
0.0
  0
LINE
  5
200
330
1F
100
AcDbEntity
  8
0
  6
CONTINUOUS
 62
     7
100
AcDbLine
 10
8.2709763628
 20
6.1478598582
 30
0.0
 11
8.2709763628
 21
6.084672468
 31
0.0
  0
LINE
  5
201
330
1F
100
AcDbEntity
  8
0
  6
CONTINUOUS
 62
     7
100
AcDbLine
 10
8.2709763628
 20
6.084672468
 30
0.0
 11
8.3266540621
 21
6.0154099394
 31
0.0
  0
LINE
  5
202
330
1F
100
AcDbEntity
  8
0
  6
CONTINUOUS
 62
     7
100
AcDbLine
 10
8.3738273918
 20
6.042642523
 30
0.0
 11
8.3266540621
 21
6.0154099394
 31
0.0
  0
LINE
  5
203
330
1F
100
AcDbEntity
  8
0
  6
CONTINUOUS
 62
     7
100
AcDbLine
 10
8.3123571231
 20
6.1085610725
 30
0.0
 11
8.2709763628
 21
6.084672468
 31
0.0
  0
POLYLINE
  5
204
330
1F
100
AcDbEntity
  8
0
  6
CONTINUOUS
 62
     7
100
AcDb2dPolyline
 66
     1
 10
0.0
 20
0.0
 30
0.0
  0
VERTEX
  5
41C
330
204
100
AcDbEntity
  8
0
  6
CONTINUOUS
 62
     7
100
AcDbVertex
100
AcDb2dVertex
 10
7.9521799175
 20
7.6734488174
 30
0.0
  0
VERTEX
  5
41D
330
204
100
AcDbEntity
  8
0
  6
CONTINUOUS
 62
     7
100
AcDbVertex
100
AcDb2dVertex
 10
7.9583226219
 20
7.6752128032
 30
0.0
  0
VERTEX
  5
41E
330
204
100
AcDbEntity
  8
0
  6
CONTINUOUS
 62
     7
100
AcDbVertex
100
AcDb2dVertex
 10
7.9696731524
 20
7.6775826775
 30
0.0
  0
VERTEX
  5
41F
330
204
100
AcDbEntity
  8
0
  6
CONTINUOUS
 62
     7
100
AcDbVertex
100
AcDb2dVertex
 10
7.9815004445
 20
7.6789732421
 30
0.0
  0
VERTEX
  5
420
330
204
100
AcDbEntity
  8
0
  6
CONTINUOUS
 62
     7
100
AcDbVertex
100
AcDb2dVertex
 10
7.9935524202
 20
7.6793548595
 30
0.0
  0
VERTEX
  5
421
330
204
100
AcDbEntity
  8
0
  6
CONTINUOUS
 62
     7
100
AcDbVertex
100
AcDb2dVertex
 10
8.0055722123
 20
7.6787193963
 30
0.0
  0
VERTEX
  5
422
330
204
100
AcDbEntity
  8
0
  6
CONTINUOUS
 62
     7
100
AcDbVertex
100
AcDb2dVertex
 10
8.01730364
 20
7.6770803961
 30
0.0
  0
VERTEX
  5
423
330
204
100
AcDbEntity
  8
0
  6
CONTINUOUS
 62
     7
100
AcDbVertex
100
AcDb2dVertex
 10
8.0284966682
 20
7.6744727916
 30
0.0
  0
VERTEX
  5
424
330
204
100
AcDbEntity
  8
0
  6
CONTINUOUS
 62
     7
100
AcDbVertex
100
AcDb2dVertex
 10
8.0389127369
 20
7.6709521591
 30
0.0
  0
VERTEX
  5
425
330
204
100
AcDbEntity
  8
0
  6
CONTINUOUS
 62
     7
100
AcDbVertex
100
AcDb2dVertex
 10
8.0483298458
 20
7.6665935349
 30
0.0
  0
VERTEX
  5
426
330
204
100
AcDbEntity
  8
0
  6
CONTINUOUS
 62
     7
100
AcDbVertex
100
AcDb2dVertex
 10
8.0565472855
 20
7.6614898155
 30
0.0
  0
VERTEX
  5
427
330
204
100
AcDbEntity
  8
0
  6
CONTINUOUS
 62
     7
100
AcDbVertex
100
AcDb2dVertex
 10
8.0633899155
 20
7.6557497779
 30
0.0
  0
VERTEX
  5
428
330
204
100
AcDbEntity
  8
0
  6
CONTINUOUS
 62
     7
100
AcDbVertex
100
AcDb2dVertex
 10
8.0687118972
 20
7.6494957609
 30
0.0
  0
VERTEX
  5
429
330
204
100
AcDbEntity
  8
0
  6
CONTINUOUS
 62
     7
100
AcDbVertex
100
AcDb2dVertex
 10
8.0723998015
 20
7.642861058
 30
0.0
  0
VERTEX
  5
42A
330
204
100
AcDbEntity
  8
0
  6
CONTINUOUS
 62
     7
100
AcDbVertex
100
AcDb2dVertex
 10
8.0743750274
 20
7.6359870765
 30
0.0
  0
VERTEX
  5
42B
330
204
100
AcDbEntity
  8
0
  6
CONTINUOUS
 62
     7
100
AcDbVertex
100
AcDb2dVertex
 10
8.0746946827
 20
7.632805188
 30
0.0
  0
SEQEND
  5
42C
330
204
100
AcDbEntity
  8
0
  6
CONTINUOUS
 62
     7
  0
ARC
  5
205
330
1F
100
AcDbEntity
  8
0
  6
CONTINUOUS
 62
     7
100
AcDbCircle
 10
8.0359889672
 20
7.608497991
 30
0.0
 40
0.0566001475786267
100
AcDbArc
 50
19.6622063801
 51
63.0386941746
  0
ENDSEC
  0
SECTION
  2
OBJECTS
  0
DICTIONARY
  5
C
330
0
100
AcDbDictionary
  3
ACAD_GROUP
350
D
  3
ACAD_LAYOUT
350
1A
  3
ACAD_MLEADERSTYLE
350
208
  3
ACAD_MLINESTYLE
350
17
  3
ACAD_PLOTSETTINGS
350
19
  3
ACAD_SCALELIST
350
6F
  3
ACAD_VISUALSTYLE
350
2A
  3
ACDBVARIABLEDICTIONARY
350
206
1001
ACAD
1000
TREAT_AS_HARD
1070
     0
  0
DICTIONARY
  5
D
102
{ACAD_REACTORS
330
C
102
}
330
C
100
AcDbDictionary
1001
ACAD
1000
TREAT_AS_HARD
1070
     0
  0
DICTIONARY
  5
1A
102
{ACAD_REACTORS
330
C
102
}
330
C
100
AcDbDictionary
1001
ACAD
1000
TREAT_AS_HARD
1070
     0
  0
DICTIONARY
  5
208
102
{ACAD_REACTORS
330
C
102
}
330
C
100
AcDbDictionary
1001
ACAD
1000
TREAT_AS_HARD
1070
     0
  0
DICTIONARY
  5
17
102
{ACAD_REACTORS
330
C
102
}
330
C
100
AcDbDictionary
  3
STANDARD
350
18
1001
ACAD
1000
TREAT_AS_HARD
1070
     0
  0
DICTIONARY
  5
19
102
{ACAD_REACTORS
330
C
102
}
330
C
100
AcDbDictionary
1001
ACAD
1000
TREAT_AS_HARD
1070
     0
  0
DICTIONARY
  5
6F
102
{ACAD_REACTORS
330
C
102
}
330
C
100
AcDbDictionary
  3
A0
350
70
  3
A1
350
71
  3
A2
350
72
  3
A3
350
73
  3
A4
350
74
  3
A5
350
75
  3
A6
350
76
  3
A7
350
77
  3
A8
350
78
  3
A9
350
79
  3
B0
350
7A
  3
B1
350
7B
  3
B2
350
7C
  3
B3
350
7D
  3
B4
350
7E
  3
B5
350
7F
  3
B6
350
80
  3
B7
350
81
  3
B8
350
82
  3
B9
350
83
  3
C0
350
84
  3
C1
350
85
  3
C2
350
86
  3
C3
350
87
  3
C4
350
88
  3
C5
350
89
  3
C6
350
8A
  3
C7
350
8B
  3
C8
350
8C
  3
C9
350
8D
  3
D0
350
8E
  3
D1
350
8F
  3
D2
350
90
1001
ACAD
1000
TREAT_AS_HARD
1070
     0
  0
DICTIONARY
  5
2A
102
{ACAD_REACTORS
330
C
102
}
330
C
100
AcDbDictionary
  3
2DWIREFRAME
350
2F
  3
3D_HIDDEN
350
31
  3
3DWIREFRAME
350
30
  3
BASIC
350
32
  3
BRIGHTEN
350
36
  3
COLORCHANGE
350
3A
  3
CONCEPTUAL
350
34
  3
DIM
350
35
  3
FACEPATTERN
350
39
  3
FLAT
350
2B
  3
FLATWITHEDGES
350
2C
  3
GOURAUD
350
2D
  3
GOURAUDWITHEDGES
350
2E
  3
LINEPATTERN
350
38
  3
REALISTIC
350
33
  3
THICKEN
350
37
1001
ACAD
1000
TREAT_AS_HARD
1070
     0
  0
DICTIONARY
  5
206
102
{ACAD_REACTORS
330
C
102
}
330
C
100
AcDbDictionary
  3
CANNOSCALE
350
209
  3
DIMASSOC
350
20A
  3
HIDETEXT
350
20B
1001
ACAD
1000
TREAT_AS_HARD
1070
     0
  0
MLINESTYLE
  5
18
102
{ACAD_REACTORS
330
17
102
}
330
17
100
AcDbMlineStyle
  2
Standard
 70
     0
  3

 62
   256
 51
90.0
 52
90.0
 71
     2
 49
0.5
 62
   256
  6
BYLAYER
 49
-0.5
 62
   256
  6
BYLAYER
  0
ACAD_PROXY_OBJECT
  5
70
102
{ACAD_REACTORS
330
6F
102
}
330
6F
100
AcDbZombieObject
 90
      499
 91
      502
 93
       41
310
903313A31580
  0
ACAD_PROXY_OBJECT
  5
71
102
{ACAD_REACTORS
330
6F
102
}
330
6F
100
AcDbZombieObject
 90
      499
 91
      502
 93
      105
310
903313A324000000000000004000
  0
ACAD_PROXY_OBJECT
  5
72
102
{ACAD_REACTORS
330
6F
102
}
330
6F
100
AcDbZombieObject
 90
      499
 91
      502
 93
      105
310
903313A344000000000000104000
  0
ACAD_PROXY_OBJECT
  5
73
102
{ACAD_REACTORS
330
6F
102
}
330
6F
100
AcDbZombieObject
 90
      499
 91
      502
 93
      105
310
903313A354000000000000144000
  0
ACAD_PROXY_OBJECT
  5
74
102
{ACAD_REACTORS
330
6F
102
}
330
6F
100
AcDbZombieObject
 90
      499
 91
      502
 93
      105
310
903313A384000000000000204000
  0
ACAD_PROXY_OBJECT
  5
75
102
{ACAD_REACTORS
330
6F
102
}
330
6F
100
AcDbZombieObject
 90
      499
 91
      502
 93
      113
310
904313A31304000000000000244000
  0
ACAD_PROXY_OBJECT
  5
76
102
{ACAD_REACTORS
330
6F
102
}
330
6F
100
AcDbZombieObject
 90
      499
 91
      502
 93
      113
310
904313A31364000000000000304000
  0
ACAD_PROXY_OBJECT
  5
77
102
{ACAD_REACTORS
330
6F
102
}
330
6F
100
AcDbZombieObject
 90
      499
 91
      502
 93
      113
310
904313A32304000000000000344000
  0
ACAD_PROXY_OBJECT
  5
78
102
{ACAD_REACTORS
330
6F
102
}
330
6F
100
AcDbZombieObject
 90
      499
 91
      502
 93
      113
310
904313A333040000000000003E4000
  0
ACAD_PROXY_OBJECT
  5
79
102
{ACAD_REACTORS
330
6F
102
}
330
6F
100
AcDbZombieObject
 90
      499
 91
      502
 93
      113
310
904313A34304000000000000444000
  0
ACAD_PROXY_OBJECT
  5
7A
102
{ACAD_REACTORS
330
6F
102
}
330
6F
100
AcDbZombieObject
 90
      499
 91
      502
 93
      113
310
904313A35304000000000000494000
  0
ACAD_PROXY_OBJECT
  5
7B
102
{ACAD_REACTORS
330
6F
102
}
330
6F
100
AcDbZombieObject
 90
      499
 91
      502
 93
      121
310
905313A3130304000000000000594000
  0
ACAD_PROXY_OBJECT
  5
7C
102
{ACAD_REACTORS
330
6F
102
}
330
6F
100
AcDbZombieObject
 90
      499
 91
      502
 93
      105
310
903323A310000000000000010100
  0
ACAD_PROXY_OBJECT
  5
7D
102
{ACAD_REACTORS
330
6F
102
}
330
6F
100
AcDbZombieObject
 90
      499
 91
      502
 93
      105
310
903343A310000000000000410100
  0
ACAD_PROXY_OBJECT
  5
7E
102
{ACAD_REACTORS
330
6F
102
}
330
6F
100
AcDbZombieObject
 90
      499
 91
      502
 93
      105
310
903383A310000000000000810100
  0
ACAD_PROXY_OBJECT
  5
7F
102
{ACAD_REACTORS
330
6F
102
}
330
6F
100
AcDbZombieObject
 90
      499
 91
      502
 93
      113
310
90431303A310000000000000910100
  0
ACAD_PROXY_OBJECT
  5
80
102
{ACAD_REACTORS
330
6F
102
}
330
6F
100
AcDbZombieObject
 90
      499
 91
      502
 93
      121
310
9053130303A310000000000001650100
  0
ACAD_PROXY_OBJECT
  5
81
102
{ACAD_REACTORS
330
6F
102
}
330
6F
100
AcDbZombieObject
 90
      499
 91
      502
 93
      257
310
90E312F31323822203D2031272D3022000000000000200FC000000000000284000
  0
ACAD_PROXY_OBJECT
  5
82
102
{ACAD_REACTORS
330
6F
102
}
330
6F
100
AcDbZombieObject
 90
      499
 91
      502
 93
      249
310
90D312F363422203D2031272D3022000000000000240FC000000000000284000
  0
ACAD_PROXY_OBJECT
  5
83
102
{ACAD_REACTORS
330
6F
102
}
330
6F
100
AcDbZombieObject
 90
      499
 91
      502
 93
      249
310
90D312F333222203D2031272D3022000000000000280FC000000000000284000
  0
ACAD_PROXY_OBJECT
  5
84
102
{ACAD_REACTORS
330
6F
102
}
330
6F
100
AcDbZombieObject
 90
      499
 91
      502
 93
      249
310
90D312F313622203D2031272D30220000000000002C0FC000000000000284000
  0
ACAD_PROXY_OBJECT
  5
85
102
{ACAD_REACTORS
330
6F
102
}
330
6F
100
AcDbZombieObject
 90
      499
 91
      502
 93
      249
310
90D332F333222203D2031272D30220000000000002E0FC000000000000284000
  0
ACAD_PROXY_OBJECT
  5
86
102
{ACAD_REACTORS
330
6F
102
}
330
6F
100
AcDbZombieObject
 90
      499
 91
      502
 93
      241
310
90C312F3822203D2031272D3022000000000000300FC000000000000284000
  0
ACAD_PROXY_OBJECT
  5
87
102
{ACAD_REACTORS
330
6F
102
}
330
6F
100
AcDbZombieObject
 90
      499
 91
      502
 93
      249
310
90D332F313622203D2031272D3022000000000000320FC000000000000284000
  0
ACAD_PROXY_OBJECT
  5
88
102
{ACAD_REACTORS
330
6F
102
}
330
6F
100
AcDbZombieObject
 90
      499
 91
      502
 93
      241
310
90C312F3422203D2031272D3022000000000000340FC000000000000284000
  0
ACAD_PROXY_OBJECT
  5
89
102
{ACAD_REACTORS
330
6F
102
}
330
6F
100
AcDbZombieObject
 90
      499
 91
      502
 93
      241
310
90C332F3822203D2031272D3022000000000000360FC000000000000284000
  0
ACAD_PROXY_OBJECT
  5
8A
102
{ACAD_REACTORS
330
6F
102
}
330
6F
100
AcDbZombieObject
 90
      499
 91
      502
 93
      241
310
90C312F3222203D2031272D3022000000000000380FC000000000000284000
  0
ACAD_PROXY_OBJECT
  5
8B
102
{ACAD_REACTORS
330
6F
102
}
330
6F
100
AcDbZombieObject
 90
      499
 91
      502
 93
      241
310
90C332F3422203D2031272D30220000000000003A0FC000000000000284000
  0
ACAD_PROXY_OBJECT
  5
8C
102
{ACAD_REACTORS
330
6F
102
}
330
6F
100
AcDbZombieObject
 90
      499
 91
      502
 93
      161
310
90A3122203D2031272D30224000000000000284000
  0
ACAD_PROXY_OBJECT
  5
8D
102
{ACAD_REACTORS
330
6F
102
}
330
6F
100
AcDbZombieObject
 90
      499
 91
      502
 93
      257
310
90E312D312F3222203D2031272D30220000000000003E0FC000000000000284000
  0
ACAD_PROXY_OBJECT
  5
8E
102
{ACAD_REACTORS
330
6F
102
}
330
6F
100
AcDbZombieObject
 90
      499
 91
      502
 93
      225
310
90A3322203D2031272D302200000000000002100000000000000284000
  0
ACAD_PROXY_OBJECT
  5
8F
102
{ACAD_REACTORS
330
6F
102
}
330
6F
100
AcDbZombieObject
 90
      499
 91
      502
 93
      225
310
90A3622203D2031272D302200000000000006100000000000000284000
  0
ACAD_PROXY_OBJECT
  5
90
102
{ACAD_REACTORS
330
6F
102
}
330
6F
100
AcDbZombieObject
 90
      499
 91
      502
 93
      249
310
90D31272D3022203D2031272D30220000000000000A100000000000000284000
  0
ACAD_PROXY_OBJECT
  5
2F
102
{ACAD_REACTORS
330
2A
102
}
330
2A
100
AcDbZombieObject
 90
      499
 91
      501
 93
      436
310
42CC9915DA5C99599C985B595049028333333333333E3BF0000000000000FB0107901411070040501600405405064090741402480A0340
1001
ACAD
1000
AcDbSavedByObjectVersion
1070
     0
  0
ACAD_PROXY_OBJECT
  5
31
102
{ACAD_REACTORS
330
2A
102
}
330
2A
100
AcDbZombieObject
 90
      499
 91
      501
 93
      500
310
424CD108121A5919195B90640502408333333333333E3BF0000000000000FB01079024090700405020000000000001110200405405064090740C02480A0340
1001
ACAD
1000
AcDbSavedByObjectVersion
1070
     0
  0
ACAD_PROXY_OBJECT
  5
30
102
{ACAD_REACTORS
330
2A
102
}
330
2A
100
AcDbZombieObject
 90
      499
 91
      501
 93
      436
310
42CCD915DA5C99599C985B595059028333333333333E3BF0000000000000FB0107901411070040501600405405064090741402480A0340
1001
ACAD
1000
AcDbSavedByObjectVersion
1070
     0
  0
ACAD_PROXY_OBJECT
  5
32
102
{ACAD_REACTORS
330
2A
102
}
330
2A
100
AcDbZombieObject
 90
      499
 91
      501
 93
      388
310
4150985CDA58D07406404333333333333E3BF0000000000000FB0107A41107004050150841D405064090741402480A0350
1001
ACAD
1000
AcDbSavedByObjectVersion
1070
     0
  0
ACAD_PROXY_OBJECT
  5
36
102
{ACAD_REACTORS
330
2A
102
}
330
2A
100
AcDbZombieObject
 90
      499
 91
      501
 93
      428
310
42109C9A59DA1D195B90C409028333333333333E3BF0000000000000FB010790141107004050150841D405064090741402480A029950
1001
ACAD
1000
AcDbSavedByObjectVersion
1070
     0
  0
ACAD_PROXY_OBJECT
  5
3A
102
{ACAD_REACTORS
330
2A
102
}
330
2A
100
AcDbZombieObject
 90
      499
 91
      501
 93
      452
310
42D0DBDB1BDC90DA185B99D95104090240C333333333333E3BF0000000000000FB0108901411070040501508421405064090741402480A0350
1001
ACAD
1000
AcDbSavedByObjectVersion
1070
     0
  0
ACAD_PROXY_OBJECT
  5
34
102
{ACAD_REACTORS
330
2A
102
}
330
2A
100
AcDbZombieObject
 90
      499
 91
      501
 93
      500
310
4290DBDB98D95C1D1D585B10940D028333333333333E3BF0000000000000FB0107902409070040501000000000000111010841D405064090740C02480A0340
1001
ACAD
1000
AcDbSavedByObjectVersion
1070
     0
  0
ACAD_PROXY_OBJECT
  5
35
102
{ACAD_REACTORS
330
2A
102
}
330
2A
100
AcDbZombieObject
 90
      499
 91
      501
 93
      412
310
40D11A5B50B409028333333333333E3BF0000000000000FB010790141107004050150841D405064090741402480A02677FFFFFD0
1001
ACAD
1000
AcDbSavedByObjectVersion
1070
     0
  0
ACAD_PROXY_OBJECT
  5
39
102
{ACAD_REACTORS
330
2A
102
}
330
2A
100
AcDbZombieObject
 90
      499
 91
      501
 93
      444
310
42D19858D95C185D1D195C9B90F409028333333333333E3BF0000000000000FB010790141107004050150841D405064090741402480A0350
1001
ACAD
1000
AcDbSavedByObjectVersion
1070
     0
  0
ACAD_PROXY_OBJECT
  5
2B
102
{ACAD_REACTORS
330
2A
102
}
330
2A
100
AcDbZombieObject
 90
      499
 91
      501
 93
      388
310
41119B185D240901404333333333333E3BF0000000000000F9010740A41107004050150841D405064090741402480A1B50
1001
ACAD
1000
AcDbSavedByObjectVersion
1070
     0
  0
ACAD_PROXY_OBJECT
  5
2C
102
{ACAD_REACTORS
330
2A
102
}
330
2A
100
AcDbZombieObject
 90
      499
 91
      501
 93
      476
310
43519B185D15DA5D1A115919D95CD0140901404333333333333E3BF0000000000000F9010740901411070040501600405405064090741402480A1B50
1001
ACAD
1000
AcDbSavedByObjectVersion
1070
     0
  0
ACAD_PROXY_OBJECT
  5
2D
102
{ACAD_REACTORS
330
2A
102
}
330
2A
100
AcDbZombieObject
 90
      499
 91
      501
 93
      412
310
41D1DBDD5C985D5910240902404333333333333E3BF0000000000000F9010740A411070040501641D405064090741402480A1B50
1001
ACAD
1000
AcDbSavedByObjectVersion
1070
     0
  0
ACAD_PROXY_OBJECT
  5
2E
102
{ACAD_REACTORS
330
2A
102
}
330
2A
100
AcDbZombieObject
 90
      499
 91
      501
 93
      500
310
4411DBDD5C985D5915DA5D1A115919D95CD0340902404333333333333E3BF0000000000000F9010740901411070040501600405405064090741402480A1B50
1001
ACAD
1000
AcDbSavedByObjectVersion
1070
     0
  0
ACAD_PROXY_OBJECT
  5
38
102
{ACAD_REACTORS
330
2A
102
}
330
2A
100
AcDbZombieObject
 90
      499
 91
      501
 93
      444
310
42D31A5B995C185D1D195C9B90E409028333333333333E3BF0000000000000FB010790141107004050750841D405064090741402483A0350
1001
ACAD
1000
AcDbSavedByObjectVersion
1070
     0
  0
ACAD_PROXY_OBJECT
  5
33
102
{ACAD_REACTORS
330
2A
102
}
330
2A
100
AcDbZombieObject
 90
      499
 91
      501
 93
      420
310
425499585B1A5CDD1A58D08409028333333333333E3BF0000000000000FB01079019070040501508421405064090741402480A1B40
1001
ACAD
1000
AcDbSavedByObjectVersion
1070
     0
  0
ACAD_PROXY_OBJECT
  5
37
102
{ACAD_REACTORS
330
2A
102
}
330
2A
100
AcDbZombieObject
 90
      499
 91
      501
 93
      412
310
41D51A1A58DAD95B90D409028333333333333E3BF0000000000000FB010790141107004050150C41D405064090741402480A0350
1001
ACAD
1000
AcDbSavedByObjectVersion
1070
     0
  0
DICTIONARYVAR
  5
209
102
{ACAD_REACTORS
330
206
102
}
330
206
100
DictionaryVariables
280
     0
  1
1:1
  0
DICTIONARYVAR
  5
20A
102
{ACAD_REACTORS
330
206
102
}
330
206
100
DictionaryVariables
280
     0
  1
2
  0
DICTIONARYVAR
  5
20B
102
{ACAD_REACTORS
330
206
102
}
330
206
100
DictionaryVariables
280
     0
  1
1
  0
ENDSEC
  0
EOF
