  0
SECTION
  2
HEADER
  9
$ACADVER
  1
AC1012
  9
$DWGCODEPAGE
  3
ansi_1252
  9
$INSBASE
 10
0.0
 20
0.0
 30
0.0
  9
$EXTMIN
 10
0.0
 20
0.0
 30
0.0
  9
$EXTMAX
 10
11.0
 20
8.5
 30
0.0
  9
$LIMMIN
 10
0.0
 20
0.0
  9
$LIMMAX
 10
11.0
 20
8.5
  9
$ORTHOMODE
 70
     0
  9
$REGENMODE
 70
     1
  9
$FILLMODE
 70
     1
  9
$QTEXTMODE
 70
     0
  9
$MIRRTEXT
 70
     1
  9
$DRAGMODE
 70
     2
  9
$LTSCALE
 40
1.0
  9
$OSMODE
 70
    37
  9
$ATTMODE
 70
     1
  9
$TEXTSIZE
 40
0.125
  9
$TRACEWID
 40
0.05
  9
$TEXTSTYLE
  7
STANDARD
  9
$CLAYER
  8
0
  9
$CELTYPE
  6
BYLAYER
  9
$CECOLOR
 62
   256
  9
$CELTSCALE
 40
1.0
  9
$DELOBJ
 70
     1
  9
$DISPSILH
 70
     0
  9
$DIMSCALE
 40
1.0
  9
$DIMASZ
 40
0.13
  9
$DIMEXO
 40
0.05
  9
$DIMDLI
 40
0.38
  9
$DIMRND
 40
0.0
  9
$DIMDLE
 40
0.0
  9
$DIMEXE
 40
0.125
  9
$DIMTP
 40
0.0
  9
$DIMTM
 40
0.0
  9
$DIMTXT
 40
0.125
  9
$DIMCEN
 40
0.09
  9
$DIMTSZ
 40
0.0
  9
$DIMTOL
 70
     0
  9
$DIMLIM
 70
     0
  9
$DIMTIH
 70
     1
  9
$DIMTOH
 70
     1
  9
$DIMSE1
 70
     0
  9
$DIMSE2
 70
     0
  9
$DIMTAD
 70
     0
  9
$DIMZIN
 70
     0
  9
$DIMBLK
  1

  9
$DIMASO
 70
     1
  9
$DIMSHO
 70
     1
  9
$DIMPOST
  1

  9
$DIMAPOST
  1

  9
$DIMALT
 70
     0
  9
$DIMALTD
 70
     2
  9
$DIMALTF
 40
25.4
  9
$DIMLFAC
 40
0.5
  9
$DIMTOFL
 70
     0
  9
$DIMTVP
 40
0.0
  9
$DIMTIX
 70
     0
  9
$DIMSOXD
 70
     0
  9
$DIMSAH
 70
     0
  9
$DIMBLK1
  1

  9
$DIMBLK2
  1

  9
$DIMSTYLE
  2
STANDARD
  9
$DIMCLRD
 70
     0
  9
$DIMCLRE
 70
     0
  9
$DIMCLRT
 70
     0
  9
$DIMTFAC
 40
1.0
  9
$DIMGAP
 40
0.06
  9
$DIMJUST
 70
     0
  9
$DIMSD1
 70
     0
  9
$DIMSD2
 70
     0
  9
$DIMTOLJ
 70
     1
  9
$DIMTZIN
 70
     0
  9
$DIMALTZ
 70
     0
  9
$DIMALTTZ
 70
     0
  9
$DIMFIT
 70
     3
  9
$DIMUPT
 70
     0
  9
$DIMUNIT
 70
     2
  9
$DIMDEC
 70
     3
  9
$DIMTDEC
 70
     3
  9
$DIMALTU
 70
     2
  9
$DIMALTTD
 70
     2
  9
$DIMTXSTY
  7
STANDARD
  9
$DIMAUNIT
 70
     0
  9
$LUNITS
 70
     2
  9
$LUPREC
 70
     2
  9
$SKETCHINC
 40
0.1
  9
$FILLETRAD
 40
0.5
  9
$AUNITS
 70
     0
  9
$AUPREC
 70
     2
  9
$MENU
  1
.
  9
$ELEVATION
 40
0.0
  9
$PELEVATION
 40
0.0
  9
$THICKNESS
 40
0.0
  9
$LIMCHECK
 70
     0
  9
$CHAMFERA
 40
0.5
  9
$CHAMFERB
 40
0.5
  9
$CHAMFERC
 40
1.0
  9
$CHAMFERD
 40
0.0
  9
$SKPOLY
 70
     0
  9
$TDCREATE
 40
2455784.02612515
  9
$TDUPDATE
 40
2455784.026125162
  9
$TDINDWG
 40
0.0000000116
  9
$TDUSRTIMER
 40
0.0000000116
  9
$USRTIMER
 70
     1
  9
$ANGBASE
 50
0.0
  9
$ANGDIR
 70
     0
  9
$PDMODE
 70
     0
  9
$PDSIZE
 40
-1.0
  9
$PLINEWID
 40
0.0
  9
$COORDS
 70
     1
  9
$SPLFRAME
 70
     0
  9
$SPLINETYPE
 70
     6
  9
$SPLINESEGS
 70
     8
  9
$ATTDIA
 70
     0
  9
$ATTREQ
 70
     1
  9
$HANDLING
 70
     1
  9
$HANDSEED
  5
460
  9
$SURFTAB1
 70
     6
  9
$SURFTAB2
 70
     6
  9
$SURFTYPE
 70
     6
  9
$SURFU
 70
     6
  9
$SURFV
 70
     6
  9
$UCSNAME
  2

  9
$UCSORG
 10
0.0
 20
0.0
 30
0.0
  9
$UCSXDIR
 10
1.0
 20
0.0
 30
0.0
  9
$UCSYDIR
 10
0.0
 20
1.0
 30
0.0
  9
$PUCSNAME
  2

  9
$PUCSORG
 10
0.0
 20
0.0
 30
0.0
  9
$PUCSXDIR
 10
1.0
 20
0.0
 30
0.0
  9
$PUCSYDIR
 10
0.0
 20
1.0
 30
0.0
  9
$USERI1
 70
     0
  9
$USERI2
 70
     0
  9
$USERI3
 70
     0
  9
$USERI4
 70
     0
  9
$USERI5
 70
     0
  9
$USERR1
 40
0.0
  9
$USERR2
 40
0.0
  9
$USERR3
 40
0.0
  9
$USERR4
 40
0.0
  9
$USERR5
 40
0.0
  9
$WORLDVIEW
 70
     1
  9
$SHADEDGE
 70
     3
  9
$SHADEDIF
 70
    70
  9
$TILEMODE
 70
     1
  9
$MAXACTVP
 70
    64
  9
$PINSBASE
 10
0.0
 20
0.0
 30
0.0
  9
$PLIMCHECK
 70
     0
  9
$PEXTMIN
 10
1.0000000000E+20
 20
1.0000000000E+20
 30
1.0000000000E+20
  9
$PEXTMAX
 10
-1.0000000000E+20
 20
-1.0000000000E+20
 30
-1.0000000000E+20
  9
$PLIMMIN
 10
0.0
 20
0.0
  9
$PLIMMAX
 10
12.0
 20
9.0
  9
$UNITMODE
 70
     0
  9
$VISRETAIN
 70
     1
  9
$PLINEGEN
 70
     0
  9
$PSLTSCALE
 70
     1
  9
$TREEDEPTH
 70
  3020
  9
$PICKSTYLE
 70
     1
  9
$CMLSTYLE
  2
STANDARD
  9
$CMLJUST
 70
     0
  9
$CMLSCALE
 40
1.0
  9
$SAVEIMAGES
 70
     1
  0
ENDSEC
  0
SECTION
  2
CLASSES
  0
CLASS
  1
ACDBDICTIONARYWDFLT
  2
AcDbDictionaryWithDefault
  3
ObjectDBX Classes
 90
    32768
280
     0
281
     0
  0
CLASS
  1
VISUALSTYLE
  2
AcDbVisualStyle
  3
ObjectDBX Classes
 90
     4095
280
     0
281
     0
  0
CLASS
  1
SCALE
  2
AcDbScale
  3
ObjectDBX Classes
 90
     1153
280
     0
281
     0
  0
CLASS
  1
DICTIONARYVAR
  2
AcDbDictionaryVar
  3
ObjectDBX Classes
 90
        0
280
     0
281
     0
  0
CLASS
  1
XRECORD
  2
AcDbXrecord
  3
AutoCAD 2000
 90
    32768
280
     0
281
     0
  0
CLASS
  1
LWPOLYLINE
  2
AcDbPolyline
  3
AutoCAD 2000
 90
    32768
280
     0
281
     1
  0
CLASS
  1
HATCH
  2
AcDbHatch
  3
AutoCAD 2000
 90
    32768
280
     0
281
     1
  0
CLASS
  1
ACDBPLACEHOLDER
  2
AcDbPlaceHolder
  3
ObjectDBX Classes
 90
        0
280
     0
281
     0
  0
CLASS
  1
LAYOUT
  2
AcDbLayout
  3
ObjectDBX Classes
 90
        0
280
     0
281
     0
  0
ENDSEC
  0
SECTION
  2
TABLES
  0
TABLE
  2
VPORT
  5
8
330
0
100
AcDbSymbolTable
 70
     1
  0
VPORT
  5
29
330
8
100
AcDbSymbolTableRecord
100
AcDbViewportTableRecord
  2
*ACTIVE
 70
     0
 10
0.0
 20
0.0
 11
1.0
 21
1.0
 12
5.5
 22
4.25
 13
0.0
 23
0.0
 14
0.5
 24
0.5
 15
0.5
 25
0.5
 16
0.0
 26
0.0
 36
1.0
 17
0.0
 27
0.0
 37
0.0
 40
8.5
 41
1.2941176471
 42
50.0
 43
0.0
 44
0.0
 50
0.0
 51
0.0
 71
     0
 72
  2000
 73
     1
 74
     3
 75
     0
 76
     0
 77
     0
 78
     0
  0
ENDTAB
  0
TABLE
  2
LTYPE
  5
5
330
0
100
AcDbSymbolTable
 70
     6
  0
LTYPE
  5
14
330
5
100
AcDbSymbolTableRecord
100
AcDbLinetypeTableRecord
  2
BYBLOCK
 70
     0
  3

 72
    65
 73
     0
 40
0.0
  0
LTYPE
  5
15
330
5
100
AcDbSymbolTableRecord
100
AcDbLinetypeTableRecord
  2
BYLAYER
 70
     0
  3

 72
    65
 73
     0
 40
0.0
  0
LTYPE
  5
16
330
5
100
AcDbSymbolTableRecord
100
AcDbLinetypeTableRecord
  2
CONTINUOUS
 70
     0
  3
Solid line
 72
    65
 73
     0
 40
0.0
  0
LTYPE
  5
3B
330
5
100
AcDbSymbolTableRecord
100
AcDbLinetypeTableRecord
  2
HIDDEN
 70
     0
  3
Hidden __ __ __ __ __ __ __ __ __ __ __ __ __ __
 72
    65
 73
     2
 40
0.075
 49
0.05
 74
     0
 49
-0.025
 74
     0
  0
LTYPE
  5
3C
330
5
100
AcDbSymbolTableRecord
100
AcDbLinetypeTableRecord
  2
PHANTOM
 70
     0
  3
Phantom ______  __  __  ______  __  __  ______
 72
    65
 73
     6
 40
0.5
 49
0.25
 74
     0
 49
-0.05
 74
     0
 49
0.05
 74
     0
 49
-0.05
 74
     0
 49
0.05
 74
     0
 49
-0.05
 74
     0
  0
LTYPE
  5
3D
330
5
100
AcDbSymbolTableRecord
100
AcDbLinetypeTableRecord
  2
CENTER
 70
     0
  3
Center ____ _ ____ _ ____ _ ____ _ ____ _ ____
 72
    65
 73
     4
 40
0.4
 49
0.25
 74
     0
 49
-0.05
 74
     0
 49
0.05
 74
     0
 49
-0.05
 74
     0
  0
LTYPE
  5
3E
330
5
100
AcDbSymbolTableRecord
100
AcDbLinetypeTableRecord
  2
CENTERX2
 70
     0
  3
Center (2x) ________  __  ________  __  _____
 72
    65
 73
     4
 40
0.8
 49
0.5
 74
     0
 49
-0.1
 74
     0
 49
0.1
 74
     0
 49
-0.1
 74
     0
  0
LTYPE
  5
3F
330
5
100
AcDbSymbolTableRecord
100
AcDbLinetypeTableRecord
  2
DOT2
 70
     0
  3
Dot (.5x) ........................................
 72
    65
 73
     2
 40
0.025
 49
0.0
 74
     0
 49
-0.025
 74
     0
  0
ENDTAB
  0
TABLE
  2
LAYER
  5
2
330
0
100
AcDbSymbolTable
 70
     2
  0
LAYER
  5
10
330
2
100
AcDbSymbolTableRecord
100
AcDbLayerTableRecord
  2
0
 70
     0
 62
     7
  6
CONTINUOUS
  0
LAYER
  5
40
330
2
100
AcDbSymbolTableRecord
100
AcDbLayerTableRecord
  2
FORMAT
 70
     0
 62
     7
  6
CONTINUOUS
  0
ENDTAB
  0
TABLE
  2
STYLE
  5
3
330
0
100
AcDbSymbolTable
 70
     4
  0
STYLE
  5
11
330
3
100
AcDbSymbolTableRecord
100
AcDbTextStyleTableRecord
  2
STANDARD
 70
     0
 40
0.0
 41
1.0
 50
0.0
 71
     0
 42
0.2
  3
txt
  4

  0
STYLE
  5
6E
330
3
100
AcDbSymbolTableRecord
100
AcDbTextStyleTableRecord
  2
SLDTEXTSTYLE0
 70
     0
 40
0.0
 41
0.75
 50
0.0
 71
     0
 42
0.2
  3
TXT
  4

  0
STYLE
  5
93
330
3
100
AcDbSymbolTableRecord
100
AcDbTextStyleTableRecord
  2
SLDTEXTSTYLE1
 70
     0
 40
0.0
 41
0.6875
 50
0.0
 71
     0
 42
0.2
  3
TXT
  4

  0
STYLE
  5
99
330
3
100
AcDbSymbolTableRecord
100
AcDbTextStyleTableRecord
  2
SLDTEXTSTYLE2
 70
     0
 40
0.0
 41
0.6944444444
 50
0.0
 71
     0
 42
0.2
  3
TXT
  4

  0
ENDTAB
  0
TABLE
  2
VIEW
  5
6
330
0
100
AcDbSymbolTable
 70
     0
  0
ENDTAB
  0
TABLE
  2
UCS
  5
7
330
0
100
AcDbSymbolTable
 70
     0
  0
ENDTAB
  0
TABLE
  2
APPID
  5
9
330
0
100
AcDbSymbolTable
 70
     1
  0
APPID
  5
12
330
9
100
AcDbSymbolTableRecord
100
AcDbRegAppTableRecord
  2
ACAD
 70
     0
  0
ENDTAB
  0
TABLE
  2
DIMSTYLE
  5
A
330
0
100
AcDbSymbolTable
 70
     1
  0
DIMSTYLE
105
27
330
A
100
AcDbSymbolTableRecord
100
AcDbDimStyleTableRecord
  2
STANDARD
 70
     0
  3

  4

  5

  6

  7

 40
1.0
 41
0.18
 42
0.0625
 43
0.38
 44
0.18
 45
0.0
 46
0.0
 47
0.0
 48
0.0
140
0.18
141
0.09
142
0.0
143
25.4
144
1.0
145
0.0
146
1.0
147
0.09
 71
     0
 72
     0
 73
     1
 74
     1
 75
     0
 76
     0
 77
     0
 78
     0
170
     0
171
     2
172
     0
173
     0
174
     0
175
     0
176
     0
177
     0
178
     0
270
     2
271
     4
272
     4
273
     2
274
     2
340
11
275
     0
280
     0
281
     0
282
     0
283
     1
284
     0
285
     0
286
     0
287
     3
288
     0
  0
ENDTAB
  0
TABLE
  2
BLOCK_RECORD
  5
1
330
0
100
AcDbSymbolTable
 70
     4
  0
BLOCK_RECORD
  5
1F
330
1
100
AcDbSymbolTableRecord
100
AcDbBlockTableRecord
  2
*MODEL_SPACE
  0
BLOCK_RECORD
  5
1B
330
1
100
AcDbSymbolTableRecord
100
AcDbBlockTableRecord
  2
*PAPER_SPACE
  0
BLOCK_RECORD
  5
A8
330
1
100
AcDbSymbolTableRecord
100
AcDbBlockTableRecord
  2
SW_NOTE_0
  0
BLOCK_RECORD
  5
AE
330
1
100
AcDbSymbolTableRecord
100
AcDbBlockTableRecord
  2
SW_NOTE_1
  0
BLOCK_RECORD
  5
C2
330
1
100
AcDbSymbolTableRecord
100
AcDbBlockTableRecord
  2
SW_NOTE_2
  0
ENDTAB
  0
ENDSEC
  0
SECTION
  2
BLOCKS
  0
BLOCK
  5
20
330
1F
100
AcDbEntity
  8
0
100
AcDbBlockBegin
  2
*MODEL_SPACE
 70
     0
 10
0.0
 20
0.0
 30
0.0
  3
*MODEL_SPACE
  1

  0
ENDBLK
  5
21
330
1F
100
AcDbEntity
  8
0
100
AcDbBlockEnd
  0
BLOCK
  5
1C
330
1B
100
AcDbEntity
 67
     1
  8
0
100
AcDbBlockBegin
  2
*PAPER_SPACE
 70
     0
 10
0.0
 20
0.0
 30
0.0
  3
*PAPER_SPACE
  1

  0
ENDBLK
  5
1D
330
1B
100
AcDbEntity
 67
     1
  8
0
100
AcDbBlockEnd
  0
BLOCK
  5
A9
330
A8
100
AcDbEntity
  8
0
100
AcDbBlockBegin
  2
SW_NOTE_0
 70
     0
 10
0.0
 20
0.0
 30
0.0
  3
SW_NOTE_0
  1

  0
MTEXT
  5
AB
330
A8
100
AcDbEntity
  8
0
  6
CONTINUOUS
 62
     0
100
AcDbMText
 10
0.0
 20
0.0773440644
 30
0.0
 40
0.06
 41
0.0
 71
     1
 72
     1
  1
INTERPRET GEOMETRIC
  7
SLDTEXTSTYLE0
  0
MTEXT
  5
AC
330
A8
100
AcDbEntity
  8
0
  6
CONTINUOUS
 62
     0
100
AcDbMText
 10
0.0
 20
-0.0220260102
 30
0.0
 40
0.06
 41
0.0
 71
     1
 72
     1
  1
TOLERANCING PER:
  7
SLDTEXTSTYLE0
  0
ENDBLK
  5
AA
330
A8
100
AcDbEntity
  8
0
100
AcDbBlockEnd
  0
BLOCK
  5
AF
330
AE
100
AcDbEntity
  8
0
100
AcDbBlockBegin
  2
SW_NOTE_1
 70
     0
 10
0.0
 20
0.0
 30
0.0
  3
SW_NOTE_1
  1

  0
MTEXT
  5
B1
330
AE
100
AcDbEntity
  8
0
  6
CONTINUOUS
 62
     0
100
AcDbMText
 10
0.0
 20
0.0837894031
 30
0.0
 40
0.065
 41
0.0
 71
     1
 72
     1
  1
DIMENSIONS ARE IN INCHES
  7
SLDTEXTSTYLE0
  0
MTEXT
  5
B2
330
AE
100
AcDbEntity
  8
0
  6
CONTINUOUS
 62
     0
100
AcDbMText
 10
0.0
 20
-0.0205806729
 30
0.0
 40
0.065
 41
0.0
 71
     1
 72
     1
  1
TOLERANCES:
  7
SLDTEXTSTYLE0
  0
MTEXT
  5
B3
330
AE
100
AcDbEntity
  8
0
  6
CONTINUOUS
 62
     0
100
AcDbMText
 10
0.0
 20
-0.1249507489
 30
0.0
 40
0.065
 41
0.0
 71
     1
 72
     1
  1
FRACTIONAL
  7
SLDTEXTSTYLE0
  0
MTEXT
  5
B4
330
AE
100
AcDbEntity
  8
0
  6
CONTINUOUS
 62
     0
100
AcDbMText
 10
0.5175850875
 20
-0.1249507489
 30
0.0
 40
0.065
 41
0.0
 71
     1
 72
     1
  1
%%p
  7
SLDTEXTSTYLE0
  0
MTEXT
  5
B5
330
AE
100
AcDbEntity
  8
0
  6
CONTINUOUS
 62
     0
100
AcDbMText
 10
0.0
 20
-0.2293208248
 30
0.0
 40
0.065
 41
0.0
 71
     1
 72
     1
  1
ANGULAR: MACH
  7
SLDTEXTSTYLE0
  0
MTEXT
  5
B6
330
AE
100
AcDbEntity
  8
0
  6
CONTINUOUS
 62
     0
100
AcDbMText
 10
0.7233732769
 20
-0.2293208248
 30
0.0
 40
0.065
 41
0.0
 71
     1
 72
     1
  1
%%p
  7
SLDTEXTSTYLE0
  0
MTEXT
  5
B7
330
AE
100
AcDbEntity
  8
0
  6
CONTINUOUS
 62
     0
100
AcDbMText
 10
0.7852857683
 20
-0.2293208248
 30
0.0
 40
0.065
 41
0.0
 71
     1
 72
     1
  1
     BEND 
  7
SLDTEXTSTYLE0
  0
MTEXT
  5
B8
330
AE
100
AcDbEntity
  8
0
  6
CONTINUOUS
 62
     0
100
AcDbMText
 10
1.14784136
 20
-0.2293208248
 30
0.0
 40
0.065
 41
0.0
 71
     1
 72
     1
  1
%%p
  7
SLDTEXTSTYLE0
  0
MTEXT
  5
B9
330
AE
100
AcDbEntity
  8
0
  6
CONTINUOUS
 62
     0
100
AcDbMText
 10
0.0
 20
-0.3336909008
 30
0.0
 40
0.065
 41
0.0
 71
     1
 72
     1
  1
TWO PLACE DECIMAL    
  7
SLDTEXTSTYLE0
  0
MTEXT
  5
BA
330
AE
100
AcDbEntity
  8
0
  6
CONTINUOUS
 62
     0
100
AcDbMText
 10
0.9794349188
 20
-0.3336909008
 30
0.0
 40
0.065
 41
0.0
 71
     1
 72
     1
  1
%%p
  7
SLDTEXTSTYLE0
  0
MTEXT
  5
BB
330
AE
100
AcDbEntity
  8
0
  6
CONTINUOUS
 62
     0
100
AcDbMText
 10
0.0
 20
-0.4380609768
 30
0.0
 40
0.065
 41
0.0
 71
     1
 72
     1
  1
THREE PLACE DECIMAL  
  7
SLDTEXTSTYLE0
  0
MTEXT
  5
BC
330
AE
100
AcDbEntity
  8
0
  6
CONTINUOUS
 62
     0
100
AcDbMText
 10
0.9738038639
 20
-0.4380609768
 30
0.0
 40
0.065
 41
0.0
 71
     1
 72
     1
  1
%%p
  7
SLDTEXTSTYLE0
  0
ENDBLK
  5
B0
330
AE
100
AcDbEntity
  8
0
100
AcDbBlockEnd
  0
BLOCK
  5
C3
330
C2
100
AcDbEntity
  8
0
100
AcDbBlockBegin
  2
SW_NOTE_2
 70
     0
 10
0.0
 20
0.0
 30
0.0
  3
SW_NOTE_2
  1

  0
MTEXT
  5
C5
330
C2
100
AcDbEntity
  8
0
  6
CONTINUOUS
 62
     0
100
AcDbMText
 10
0.0
 20
0.0773440644
 30
0.0
 40
0.06
 41
0.0
 71
     1
 72
     1
  1
THE INFORMATION CONTAINED IN THIS
  7
SLDTEXTSTYLE0
  0
MTEXT
  5
C6
330
C2
100
AcDbEntity
  8
0
  6
CONTINUOUS
 62
     0
100
AcDbMText
 10
0.0
 20
-0.0220260102
 30
0.0
 40
0.06
 41
0.0
 71
     1
 72
     1
  1
DRAWING IS THE SOLE PROPERTY OF
  7
SLDTEXTSTYLE0
  0
MTEXT
  5
C7
330
C2
100
AcDbEntity
  8
0
  6
CONTINUOUS
 62
     0
100
AcDbMText
 10
0.0
 20
-0.1213960848
 30
0.0
 40
0.06
 41
0.0
 71
     1
 72
     1
  1
Candy Controls.  ANY 
  7
SLDTEXTSTYLE0
  0
MTEXT
  5
C8
330
C2
100
AcDbEntity
  8
0
  6
CONTINUOUS
 62
     0
100
AcDbMText
 10
0.0
 20
-0.2207661593
 30
0.0
 40
0.06
 41
0.0
 71
     1
 72
     1
  1
REPRODUCTION IN PART OR AS A WHOLE
  7
SLDTEXTSTYLE0
  0
MTEXT
  5
C9
330
C2
100
AcDbEntity
  8
0
  6
CONTINUOUS
 62
     0
100
AcDbMText
 10
0.0
 20
-0.3201362339
 30
0.0
 40
0.06
 41
0.0
 71
     1
 72
     1
  1
WITHOUT THE WRITTEN PERMISSION OF
  7
SLDTEXTSTYLE0
  0
MTEXT
  5
CA
330
C2
100
AcDbEntity
  8
0
  6
CONTINUOUS
 62
     0
100
AcDbMText
 10
0.0
 20
-0.4195063085
 30
0.0
 40
0.06
 41
0.0
 71
     1
 72
     1
  1
Candy Controls IS 
  7
SLDTEXTSTYLE0
  0
MTEXT
  5
CB
330
C2
100
AcDbEntity
  8
0
  6
CONTINUOUS
 62
     0
100
AcDbMText
 10
0.0
 20
-0.518876383
 30
0.0
 40
0.06
 41
0.0
 71
     1
 72
     1
  1
PROHIBITED.
  7
SLDTEXTSTYLE0
  0
ENDBLK
  5
C4
330
C2
100
AcDbEntity
  8
0
100
AcDbBlockEnd
  0
ENDSEC
  0
SECTION
  2
ENTITIES
  0
LINE
  5
41
330
1F
100
AcDbEntity
  8
0
  6
CONTINUOUS
 62
     7
100
AcDbLine
 10
0.329927
 20
8.1920731707
 30
0.0
 11
10.629927
 21
8.1920731707
 31
0.0
  0
LINE
  5
42
330
1F
100
AcDbEntity
  8
0
  6
CONTINUOUS
 62
     7
100
AcDbLine
 10
0.329927
 20
8.1920731707
 30
0.0
 11
0.329927
 21
0.3920731707
 31
0.0
  0
LINE
  5
43
330
1F
100
AcDbEntity
  8
0
  6
CONTINUOUS
 62
     7
100
AcDbLine
 10
10.629927
 20
0.3920731707
 30
0.0
 11
0.329927
 21
0.3920731707
 31
0.0
  0
LINE
  5
44
330
1F
100
AcDbEntity
  8
0
  6
CONTINUOUS
 62
     7
100
AcDbLine
 10
10.629927
 20
0.3920731707
 30
0.0
 11
10.629927
 21
8.1920731707
 31
0.0
  0
LINE
  5
45
330
1F
100
AcDbEntity
  8
0
  6
CONTINUOUS
 62
     7
100
AcDbLine
 10
4.7981841288
 20
0.3920731707
 30
0.0
 11
4.7981841288
 21
2.3564211366
 31
0.0
  0
LINE
  5
46
330
1F
100
AcDbEntity
  8
0
  6
CONTINUOUS
 62
     7
100
AcDbLine
 10
2.8210345579
 20
2.3564211366
 30
0.0
 11
10.629927
 21
2.3564211366
 31
0.0
  0
LINE
  5
47
330
1F
100
AcDbEntity
  8
0
  6
CONTINUOUS
 62
     7
100
AcDbLine
 10
6.1796352514
 20
2.3564211366
 30
0.0
 11
6.1796352514
 21
0.3920731707
 31
0.0
  0
LINE
  5
48
330
1F
100
AcDbEntity
  8
0
  6
CONTINUOUS
 62
     7
100
AcDbLine
 10
7.8712070044
 20
2.3564211366
 30
0.0
 11
7.8712070044
 21
0.3920731707
 31
0.0
  0
LINE
  5
49
330
1F
100
AcDbEntity
  8
0
  6
CONTINUOUS
 62
     7
100
AcDbLine
 10
7.8712070044
 20
0.6049590101
 30
0.0
 11
10.629927
 21
0.6049590101
 31
0.0
  0
LINE
  5
4A
330
1F
100
AcDbEntity
  8
0
  6
CONTINUOUS
 62
     7
100
AcDbLine
 10
7.8712070044
 20
1.1119362457
 30
0.0
 11
10.629927
 21
1.1119362457
 31
0.0
  0
LINE
  5
4B
330
1F
100
AcDbEntity
  8
0
  6
CONTINUOUS
 62
     7
100
AcDbLine
 10
7.8712070044
 20
1.9892703708
 30
0.0
 11
10.629927
 21
1.9892703708
 31
0.0
  0
LINE
  5
4C
330
1F
100
AcDbEntity
  8
0
  6
CONTINUOUS
 62
     7
100
AcDbLine
 10
8.266751752
 20
1.1119362457
 30
0.0
 11
8.266751752
 21
0.6049590101
 31
0.0
  0
LINE
  5
4D
330
1F
100
AcDbEntity
  8
0
  6
CONTINUOUS
 62
     7
100
AcDbLine
 10
8.6943435176
 20
0.6049590101
 30
0.0
 11
8.6943435176
 21
0.3920731707
 31
0.0
  0
LINE
  5
4E
330
1F
100
AcDbEntity
  8
0
  6
CONTINUOUS
 62
     7
100
AcDbLine
 10
10.0579917045
 20
1.1119362457
 30
0.0
 11
10.0579917045
 21
0.6049590101
 31
0.0
  0
LINE
  5
4F
330
1F
100
AcDbEntity
  8
0
  6
CONTINUOUS
 62
     7
100
AcDbLine
 10
9.6662556631
 20
0.6049590101
 30
0.0
 11
9.6662556631
 21
0.3920731707
 31
0.0
  0
LINE
  5
50
330
1F
100
AcDbEntity
  8
0
  6
CONTINUOUS
 62
     7
100
AcDbLine
 10
2.8210345579
 20
0.5883479999
 30
0.0
 11
6.1796352514
 21
0.5883479999
 31
0.0
  0
LINE
  5
51
330
1F
100
AcDbEntity
  8
0
  6
CONTINUOUS
 62
     7
100
AcDbLine
 10
6.1796352514
 20
1.7939211366
 30
0.0
 11
7.8712070044
 21
1.7939211366
 31
0.0
  0
LINE
  5
52
330
1F
100
AcDbEntity
  8
0
  6
CONTINUOUS
 62
     7
100
AcDbLine
 10
6.1796352514
 20
1.9814211366
 30
0.0
 11
7.8712070044
 21
1.9814211366
 31
0.0
  0
LINE
  5
53
330
1F
100
AcDbEntity
  8
0
  6
CONTINUOUS
 62
     7
100
AcDbLine
 10
6.1796352514
 20
2.1689211366
 30
0.0
 11
7.8712070044
 21
2.1689211366
 31
0.0
  0
LINE
  5
54
330
1F
100
AcDbEntity
  8
0
  6
CONTINUOUS
 62
     7
100
AcDbLine
 10
7.8712070044
 20
1.2314211366
 30
0.0
 11
6.1796352514
 21
1.2314211366
 31
0.0
  0
LINE
  5
55
330
1F
100
AcDbEntity
  8
0
  6
CONTINUOUS
 62
     7
100
AcDbLine
 10
7.3921580388
 20
2.3564211366
 30
0.0
 11
7.3921580388
 21
1.2314211366
 31
0.0
  0
LINE
  5
56
330
1F
100
AcDbEntity
  8
0
  6
CONTINUOUS
 62
     7
100
AcDbLine
 10
6.9236308342
 20
2.3564211366
 30
0.0
 11
6.9236308342
 21
1.2314211366
 31
0.0
  0
LINE
  5
57
330
1F
100
AcDbEntity
  8
0
  6
CONTINUOUS
 62
     7
100
AcDbLine
 10
4.7981841288
 20
0.8557965305
 30
0.0
 11
6.1796352514
 21
0.8557965305
 31
0.0
  0
LINE
  5
58
330
1F
100
AcDbEntity
  8
0
  6
CONTINUOUS
 62
     7
100
AcDbLine
 10
4.7981841288
 20
1.1257965305
 30
0.0
 11
6.1796352514
 21
1.1257965305
 31
0.0
  0
LINE
  5
59
330
1F
100
AcDbEntity
  8
0
  6
CONTINUOUS
 62
     7
100
AcDbLine
 10
2.8210345579
 20
0.3920731707
 30
0.0
 11
2.8210345579
 21
2.3564211366
 31
0.0
  0
LINE
  5
5A
330
1F
100
AcDbEntity
  8
0
  6
CONTINUOUS
 62
     7
100
AcDbLine
 10
2.8210345579
 20
1.1064211366
 30
0.0
 11
4.7981841288
 21
1.1064211366
 31
0.0
  0
LINE
  5
5B
330
1F
100
AcDbEntity
  8
0
  6
CONTINUOUS
 62
     7
100
AcDbLine
 10
2.8210345579
 20
1.3564211366
 30
0.0
 11
4.7981841288
 21
1.3564211366
 31
0.0
  0
LINE
  5
5C
330
1F
100
AcDbEntity
  8
0
  6
CONTINUOUS
 62
     7
100
AcDbLine
 10
2.8210345579
 20
1.6064211366
 30
0.0
 11
4.7981841288
 21
1.6064211366
 31
0.0
  0
LINE
  5
5D
330
1F
100
AcDbEntity
  8
0
  6
CONTINUOUS
 62
     7
100
AcDbLine
 10
2.8210345579
 20
1.8564211366
 30
0.0
 11
4.7981841288
 21
1.8564211366
 31
0.0
  0
LINE
  5
5E
330
1F
100
AcDbEntity
  8
0
  6
CONTINUOUS
 62
     7
100
AcDbLine
 10
3.8190146875
 20
2.3564211366
 30
0.0
 11
3.8190146875
 21
0.5883479999
 31
0.0
  0
LINE
  5
5F
330
1F
100
AcDbEntity
  8
0
  6
CONTINUOUS
 62
     7
100
AcDbLine
 10
6.1796352514
 20
2.2020813496
 30
0.0
 11
4.7981841288
 21
2.2020813496
 31
0.0
  0
LINE
  5
60
330
1F
100
AcDbEntity
  8
0
  6
CONTINUOUS
 62
     7
100
AcDbLine
 10
7.8712070044
 20
1.6064211366
 30
0.0
 11
6.1796352514
 21
1.6064211366
 31
0.0
  0
LINE
  5
61
330
1F
100
AcDbEntity
  8
0
  6
CONTINUOUS
 62
     7
100
AcDbLine
 10
7.8712070044
 20
1.4189211366
 30
0.0
 11
6.1796352514
 21
1.4189211366
 31
0.0
  0
LINE
  5
62
330
1F
100
AcDbEntity
  8
0
  6
CONTINUOUS
 62
     7
100
AcDbLine
 10
2.8210345579
 20
2.1064211366
 30
0.0
 11
4.7981841288
 21
2.1064211366
 31
0.0
  0
LINE
  5
63
330
1F
100
AcDbEntity
  8
0
  6
CONTINUOUS
 62
     7
100
AcDbLine
 10
4.7981841288
 20
1.3957965305
 30
0.0
 11
6.1796352514
 21
1.3957965305
 31
0.0
  0
LINE
  5
64
330
1F
100
AcDbEntity
  8
0
  6
CONTINUOUS
 62
     7
100
AcDbLine
 10
2.8210345579
 20
0.8564211366
 30
0.0
 11
4.7981841288
 21
0.8564211366
 31
0.0
  0
LINE
  5
65
330
1F
100
AcDbEntity
  8
0
  6
CONTINUOUS
 62
     7
100
AcDbLine
 10
1.1838252943
 20
0.3920731707
 30
0.0
 11
1.1838252943
 21
1.3064211366
 31
0.0
  0
LINE
  5
66
330
1F
100
AcDbEntity
  8
0
  6
CONTINUOUS
 62
     7
100
AcDbLine
 10
2.8210345579
 20
1.3064211366
 30
0.0
 11
1.1838252943
 21
1.3064211366
 31
0.0
  0
LINE
  5
67
330
1F
100
AcDbEntity
  8
0
  6
CONTINUOUS
 62
     7
100
AcDbLine
 10
8.660927
 20
0.3920731707
 30
0.0
 11
8.660927
 21
0.3072739649
 31
0.0
  0
LINE
  5
68
330
1F
100
AcDbEntity
  8
0
  6
CONTINUOUS
 62
     7
100
AcDbLine
 10
6.692177
 20
0.3920731707
 30
0.0
 11
6.692177
 21
0.3072739649
 31
0.0
  0
LINE
  5
69
330
1F
100
AcDbEntity
  8
0
  6
CONTINUOUS
 62
     7
100
AcDbLine
 10
4.723427
 20
0.3920731707
 30
0.0
 11
4.723427
 21
0.3072739649
 31
0.0
  0
LINE
  5
6A
330
1F
100
AcDbEntity
  8
0
  6
CONTINUOUS
 62
     7
100
AcDbLine
 10
2.754677
 20
0.3920731707
 30
0.0
 11
2.754677
 21
0.3072739649
 31
0.0
  0
LINE
  5
6B
330
1F
100
AcDbEntity
  8
0
  6
CONTINUOUS
 62
     7
100
AcDbLine
 10
2.754677
 20
0.3920731707
 30
0.0
 11
2.7672319738
 21
0.3575
 31
0.0
  0
LINE
  5
6C
330
1F
100
AcDbEntity
  8
0
  6
CONTINUOUS
 62
     7
100
AcDbLine
 10
2.7672319738
 20
0.3575
 30
0.0
 11
2.7414258825
 21
0.3575
 31
0.0
  0
LINE
  5
6D
330
1F
100
AcDbEntity
  8
0
  6
CONTINUOUS
 62
     7
100
AcDbLine
 10
2.7414258825
 20
0.3575
 30
0.0
 11
2.754677
 21
0.3920731707
 31
0.0
  0
MTEXT
  5
91
330
1F
100
AcDbEntity
  8
0
  6
CONTINUOUS
 62
     7
100
AcDbMText
 10
4.9775846961
 20
0.5178452352
 30
0.0
 40
0.0625
 41
0.0
 71
     1
 72
     1
  1
DO NOT SCALE DRAWING
  7
SLDTEXTSTYLE0
  0
MTEXT
  5
92
330
1F
100
AcDbEntity
  8
0
  6
CONTINUOUS
 62
     7
100
AcDbMText
 10
8.9058272433
 20
0.9417064595
 30
0.0
 40
0.125
 41
0.0
 71
     1
 72
     1
  1
CL7-12
  7
SLDTEXTSTYLE0
  0
MTEXT
  5
94
330
1F
100
AcDbEntity
  8
0
  6
CONTINUOUS
 62
     7
100
AcDbMText
 10
9.7571278483
 20
0.5524239532
 30
0.0
 40
0.1
 41
0.0
 71
     1
 72
     1
  1
SHEET 1 OF 1
  7
SLDTEXTSTYLE1
  0
MTEXT
  5
95
330
1F
100
AcDbEntity
  8
0
  6
CONTINUOUS
 62
     7
100
AcDbMText
 10
4.8448077858
 20
2.3132954224
 30
0.0
 40
0.07
 41
0.0
 71
     1
 72
     1
  1
UNLESS OTHERWISE SPECIFIED:
  7
SLDTEXTSTYLE0
  0
MTEXT
  5
96
330
1F
100
AcDbEntity
  8
0
  6
CONTINUOUS
 62
     7
100
AcDbMText
 10
7.9586139647
 20
0.5520987879
 30
0.0
 40
0.1
 41
0.0
 71
     1
 72
     1
  1
SCALE: 2:1
  7
SLDTEXTSTYLE0
  0
MTEXT
  5
97
330
1F
100
AcDbEntity
  8
0
  6
CONTINUOUS
 62
     7
100
AcDbMText
 10
8.7023691647
 20
0.5486763345
 30
0.0
 40
0.1
 41
0.0
 71
     1
 72
     1
  1
WEIGHT: 
  7
SLDTEXTSTYLE0
  0
MTEXT
  5
98
330
1F
100
AcDbEntity
  8
0
  6
CONTINUOUS
 62
     7
100
AcDbMText
 10
10.2277580983
 20
1.081966299
 30
0.0
 40
0.1
 41
0.0
 71
     1
 72
     1
  1
REV
  7
SLDTEXTSTYLE0
  0
MTEXT
  5
9A
330
1F
100
AcDbEntity
  8
0
  6
CONTINUOUS
 62
     7
100
AcDbMText
 10
8.2984570898
 20
1.0858725293
 30
0.0
 40
0.1
 41
0.0
 71
     1
 72
     1
  1
DWG.  NO.
  7
SLDTEXTSTYLE2
  0
MTEXT
  5
9B
330
1F
100
AcDbEntity
  8
0
  6
CONTINUOUS
 62
     7
100
AcDbMText
 10
7.9598482632
 20
0.9442140768
 30
0.0
 40
0.25
 41
0.0
 71
     1
 72
     1
  1
A
  7
SLDTEXTSTYLE0
  0
MTEXT
  5
9C
330
1F
100
AcDbEntity
  8
0
  6
CONTINUOUS
 62
     7
100
AcDbMText
 10
7.9519581822
 20
1.0872713483
 30
0.0
 40
0.1
 41
0.0
 71
     1
 72
     1
  1
SIZE
  7
SLDTEXTSTYLE0
  0
MTEXT
  5
9D
330
1F
100
AcDbEntity
  8
0
  6
CONTINUOUS
 62
     7
100
AcDbMText
 10
7.9170704177
 20
1.9547881128
 30
0.0
 40
0.1
 41
0.0
 71
     1
 72
     1
  1
TITLE:
  7
SLDTEXTSTYLE0
  0
MTEXT
  5
9E
330
1F
100
AcDbEntity
  8
0
  6
CONTINUOUS
 62
     7
100
AcDbMText
 10
7.0363774929
 20
2.2906161274
 30
0.0
 40
0.065
 41
0.0
 71
     1
 72
     1
  1
NAME
  7
SLDTEXTSTYLE0
  0
MTEXT
  5
9F
330
1F
100
AcDbEntity
  8
0
  6
CONTINUOUS
 62
     7
100
AcDbMText
 10
7.5281510634
 20
2.2888799118
 30
0.0
 40
0.065
 41
0.0
 71
     1
 72
     1
  1
DATE
  7
SLDTEXTSTYLE0
  0
MTEXT
  5
A0
330
1F
100
AcDbEntity
  8
0
  6
CONTINUOUS
 62
     7
100
AcDbMText
 10
6.2277147029
 20
1.1876913145
 30
0.0
 40
0.065
 41
0.0
 71
     1
 72
     1
  1
COMMENTS:
  7
SLDTEXTSTYLE0
  0
MTEXT
  5
A1
330
1F
100
AcDbEntity
  8
0
  6
CONTINUOUS
 62
     7
100
AcDbMText
 10
6.2268411461
 20
1.3536101679
 30
0.0
 40
0.065
 41
0.0
 71
     1
 72
     1
  1
Q.A.
  7
SLDTEXTSTYLE0
  0
MTEXT
  5
A2
330
1F
100
AcDbEntity
  8
0
  6
CONTINUOUS
 62
     7
100
AcDbMText
 10
6.2284654509
 20
1.5395328424
 30
0.0
 40
0.065
 41
0.0
 71
     1
 72
     1
  1
MFG APPR.
  7
SLDTEXTSTYLE0
  0
MTEXT
  5
A3
330
1F
100
AcDbEntity
  8
0
  6
CONTINUOUS
 62
     7
100
AcDbMText
 10
6.2235171344
 20
1.7267501785
 30
0.0
 40
0.065
 41
0.0
 71
     1
 72
     1
  1
ENG APPR.
  7
SLDTEXTSTYLE0
  0
MTEXT
  5
A4
330
1F
100
AcDbEntity
  8
0
  6
CONTINUOUS
 62
     7
100
AcDbMText
 10
6.2264103951
 20
1.9092699088
 30
0.0
 40
0.065
 41
0.0
 71
     1
 72
     1
  1
CHECKED
  7
SLDTEXTSTYLE0
  0
MTEXT
  5
A5
330
1F
100
AcDbEntity
  8
0
  6
CONTINUOUS
 62
     7
100
AcDbMText
 10
6.2242794356
 20
2.1016301232
 30
0.0
 40
0.065
 41
0.0
 71
     1
 72
     1
  1
DRAWN
  7
SLDTEXTSTYLE0
  0
MTEXT
  5
A6
330
1F
100
AcDbEntity
  8
0
  6
CONTINUOUS
 62
     7
100
AcDbMText
 10
4.8208600979
 20
0.834523235
 30
0.0
 40
0.06
 41
0.0
 71
     1
 72
     1
  1
FINISH
  7
SLDTEXTSTYLE0
  0
MTEXT
  5
A7
330
1F
100
AcDbEntity
  8
0
  6
CONTINUOUS
 62
     7
100
AcDbMText
 10
4.8181240648
 20
1.1028217587
 30
0.0
 40
0.06
 41
0.0
 71
     1
 72
     1
  1
MATERIAL
  7
SLDTEXTSTYLE0
  0
INSERT
  5
AD
330
1F
100
AcDbEntity
  8
0
  6
CONTINUOUS
 62
     7
100
AcDbBlockReference
  2
SW_NOTE_0
 10
4.8231926633
 20
1.2646542947
 30
0.0
  0
INSERT
  5
BD
330
1F
100
AcDbEntity
  8
0
  6
CONTINUOUS
 62
     7
100
AcDbBlockReference
  2
SW_NOTE_1
 10
4.8353339353
 20
2.0049168724
 30
0.0
  0
MTEXT
  5
BE
330
1F
100
AcDbEntity
  8
0
  6
CONTINUOUS
 62
     7
100
AcDbMText
 10
3.5531400086
 20
0.5200091997
 30
0.0
 40
0.0625
 41
0.0
 71
     1
 72
     1
  1
APPLICATION
  7
SLDTEXTSTYLE0
  0
MTEXT
  5
BF
330
1F
100
AcDbEntity
  8
0
  6
CONTINUOUS
 62
     7
100
AcDbMText
 10
4.1005607758
 20
0.7502454275
 30
0.0
 40
0.0625
 41
0.0
 71
     1
 72
     1
  1
USED ON
  7
SLDTEXTSTYLE0
  0
MTEXT
  5
C0
330
1F
100
AcDbEntity
  8
0
  6
CONTINUOUS
 62
     7
100
AcDbMText
 10
3.1040019536
 20
0.7492094783
 30
0.0
 40
0.0625
 41
0.0
 71
     1
 72
     1
  1
NEXT ASSY
  7
SLDTEXTSTYLE0
  0
MTEXT
  5
C1
330
1F
100
AcDbEntity
  8
0
  6
CONTINUOUS
 62
     7
100
AcDbMText
 10
1.3712489489
 20
1.2496672684
 30
0.0
 40
0.06
 41
0.0
 71
     1
 72
     1
  1
PROPRIETARY AND CONFIDENTIAL
  7
SLDTEXTSTYLE0
  0
INSERT
  5
CC
330
1F
100
AcDbEntity
  8
0
  6
CONTINUOUS
 62
     7
100
AcDbBlockReference
  2
SW_NOTE_2
 10
1.2226209074
 20
1.0313492921
 30
0.0
  0
MTEXT
  5
CD
330
1F
100
AcDbEntity
  8
0
  6
CONTINUOUS
 62
     7
100
AcDbMText
 10
1.7387909509
 20
0.3105864247
 30
0.0
 40
0.09375
 41
0.0
 71
     1
 72
     1
  1
5
  7
SLDTEXTSTYLE0
  0
MTEXT
  5
CE
330
1F
100
AcDbEntity
  8
0
  6
CONTINUOUS
 62
     7
100
AcDbMText
 10
3.723800327
 20
0.3137237518
 30
0.0
 40
0.09375
 41
0.0
 71
     1
 72
     1
  1
4
  7
SLDTEXTSTYLE0
  0
MTEXT
  5
CF
330
1F
100
AcDbEntity
  8
0
  6
CONTINUOUS
 62
     7
100
AcDbMText
 10
5.6324457277
 20
0.3116191842
 30
0.0
 40
0.09375
 41
0.0
 71
     1
 72
     1
  1
3
  7
SLDTEXTSTYLE0
  0
MTEXT
  5
D0
330
1F
100
AcDbEntity
  8
0
  6
CONTINUOUS
 62
     7
100
AcDbMText
 10
7.6059721724
 20
0.3124391351
 30
0.0
 40
0.09375
 41
0.0
 71
     1
 72
     1
  1
2
  7
SLDTEXTSTYLE0
  0
MTEXT
  5
D1
330
1F
100
AcDbEntity
  8
0
  6
CONTINUOUS
 62
     7
100
AcDbMText
 10
9.6619921328
 20
0.301372012
 30
0.0
 40
0.09375
 41
0.0
 71
     1
 72
     1
  1
1
  7
SLDTEXTSTYLE0
  0
LINE
  5
D2
330
1F
100
AcDbEntity
  8
0
  6
CONTINUOUS
 62
     7
100
AcDbLine
 10
2.6282896467
 20
3.2823003336
 30
0.0
 11
4.0249825601
 21
3.2823003336
 31
0.0
  0
LINE
  5
D3
330
1F
100
AcDbEntity
  8
0
  6
CONTINUOUS
 62
     7
100
AcDbLine
 10
2.6951898355
 20
4.2271822234
 30
0.0
 11
2.6282896467
 21
4.2271822234
 31
0.0
  0
LINE
  5
D4
330
1F
100
AcDbEntity
  8
0
  6
CONTINUOUS
 62
     7
100
AcDbLine
 10
3.7581819615
 20
4.2271822234
 30
0.0
 11
2.8950804176
 21
4.2271822234
 31
0.0
  0
LINE
  5
D5
330
1F
100
AcDbEntity
  8
0
  6
CONTINUOUS
 62
     7
100
AcDbLine
 10
4.0249825601
 20
4.2271822234
 30
0.0
 11
3.9580725436
 21
4.2271822234
 31
0.0
  0
LINE
  5
D6
330
1F
100
AcDbEntity
  8
0
  6
CONTINUOUS
 62
     7
100
AcDbLine
 10
4.0249825601
 20
3.2823003336
 30
0.0
 11
4.0549825601
 21
3.3123003336
 31
0.0
  0
LINE
  5
D7
330
1F
100
AcDbEntity
  8
0
  6
CONTINUOUS
 62
     7
100
AcDbLine
 10
4.0549825601
 20
4.1971822234
 30
0.0
 11
4.0249825601
 21
4.2271822234
 31
0.0
  0
LINE
  5
D8
330
1F
100
AcDbEntity
  8
0
  6
CONTINUOUS
 62
     7
100
AcDbLine
 10
2.6282896467
 20
4.2271822234
 30
0.0
 11
2.5982896467
 21
4.1971822234
 31
0.0
  0
LINE
  5
D9
330
1F
100
AcDbEntity
  8
0
  6
CONTINUOUS
 62
     7
100
AcDbLine
 10
2.5982896467
 20
3.3123003336
 30
0.0
 11
2.6282896467
 21
3.2823003336
 31
0.0
  0
LINE
  5
DA
330
1F
100
AcDbEntity
  8
0
  6
CONTINUOUS
 62
     7
100
AcDbLine
 10
2.8623324745
 20
4.2206984507
 30
0.0
 11
2.8558487018
 21
4.2271822234
 31
0.0
  0
LINE
  5
DB
330
1F
100
AcDbEntity
  8
0
  6
CONTINUOUS
 62
     7
100
AcDbLine
 10
2.734431379
 20
4.2271822234
 30
0.0
 11
2.7279479154
 21
4.2206987598
 31
0.0
  0
LINE
  5
DC
330
1F
100
AcDbEntity
  8
0
  6
CONTINUOUS
 62
     7
100
AcDbLine
 10
3.9253246004
 20
4.2206984507
 30
0.0
 11
3.9188408278
 21
4.2271822234
 31
0.0
  0
LINE
  5
DD
330
1F
100
AcDbEntity
  8
0
  6
CONTINUOUS
 62
     7
100
AcDbLine
 10
3.797423505
 20
4.2271822234
 30
0.0
 11
3.7909400414
 21
4.2206987598
 31
0.0
  0
LINE
  5
DE
330
1F
100
AcDbEntity
  8
0
  6
CONTINUOUS
 62
     7
100
AcDbLine
 10
4.0249825601
 20
3.2823003336
 30
0.0
 11
4.0249825601
 21
4.2271822234
 31
0.0
  0
LINE
  5
DF
330
1F
100
AcDbEntity
  8
0
  6
CONTINUOUS
 62
     7
100
AcDbLine
 10
2.6282896467
 20
4.2271822234
 30
0.0
 11
2.6282896467
 21
3.2823003336
 31
0.0
  0
POLYLINE
  5
E0
330
1F
100
AcDbEntity
  8
0
  6
CONTINUOUS
 62
     7
100
AcDb2dPolyline
 66
     1
 10
0.0
 20
0.0
 30
0.0
  0
VERTEX
  5
1F8
330
E0
100
AcDbEntity
  8
0
  6
CONTINUOUS
 62
     7
100
AcDbVertex
100
AcDb2dVertex
 10
2.8950804176
 20
4.227179721
 30
0.0
  0
VERTEX
  5
1F9
330
E0
100
AcDbEntity
  8
0
  6
CONTINUOUS
 62
     7
100
AcDbVertex
100
AcDb2dVertex
 10
2.8950901887
 20
4.22718221
 30
0.0
  0
VERTEX
  5
1FA
330
E0
100
AcDbEntity
  8
0
  6
CONTINUOUS
 62
     7
100
AcDbVertex
100
AcDb2dVertex
 10
2.8932627079
 20
4.2267085541
 30
0.0
  0
VERTEX
  5
1FB
330
E0
100
AcDbEntity
  8
0
  6
CONTINUOUS
 62
     7
100
AcDbVertex
100
AcDb2dVertex
 10
2.8877673103
 20
4.2254328984
 30
0.0
  0
VERTEX
  5
1FC
330
E0
100
AcDbEntity
  8
0
  6
CONTINUOUS
 62
     7
100
AcDbVertex
100
AcDb2dVertex
 10
2.8786039959
 20
4.2235469431
 30
0.0
  0
VERTEX
  5
1FD
330
E0
100
AcDbEntity
  8
0
  6
CONTINUOUS
 62
     7
100
AcDbVertex
100
AcDb2dVertex
 10
2.8657727647
 20
4.2212274816
 30
0.0
  0
VERTEX
  5
1FE
330
E0
100
AcDbEntity
  8
0
  6
CONTINUOUS
 62
     7
100
AcDbVertex
100
AcDb2dVertex
 10
2.8503140052
 20
4.21885031
 30
0.0
  0
VERTEX
  5
1FF
330
E0
100
AcDbEntity
  8
0
  6
CONTINUOUS
 62
     7
100
AcDbVertex
100
AcDb2dVertex
 10
2.8333779228
 20
4.2169101254
 30
0.0
  0
VERTEX
  5
200
330
E0
100
AcDbEntity
  8
0
  6
CONTINUOUS
 62
     7
100
AcDbVertex
100
AcDb2dVertex
 10
2.8149645175
 20
4.2156486947
 30
0.0
  0
VERTEX
  5
201
330
E0
100
AcDbEntity
  8
0
  6
CONTINUOUS
 62
     7
100
AcDbVertex
100
AcDb2dVertex
 10
2.7950737893
 20
4.2152104077
 30
0.0
  0
VERTEX
  5
202
330
E0
100
AcDbEntity
  8
0
  6
CONTINUOUS
 62
     7
100
AcDbVertex
100
AcDb2dVertex
 10
2.7752290603
 20
4.2156460954
 30
0.0
  0
VERTEX
  5
203
330
E0
100
AcDbEntity
  8
0
  6
CONTINUOUS
 62
     7
100
AcDbVertex
100
AcDb2dVertex
 10
2.7568379698
 20
4.2169102068
 30
0.0
  0
VERTEX
  5
204
330
E0
100
AcDbEntity
  8
0
  6
CONTINUOUS
 62
     7
100
AcDbVertex
100
AcDb2dVertex
 10
2.7399005178
 20
4.2188571675
 30
0.0
  0
VERTEX
  5
205
330
E0
100
AcDbEntity
  8
0
  6
CONTINUOUS
 62
     7
100
AcDbVertex
100
AcDb2dVertex
 10
2.7244167042
 20
4.2212428297
 30
0.0
  0
VERTEX
  5
206
330
E0
100
AcDbEntity
  8
0
  6
CONTINUOUS
 62
     7
100
AcDbVertex
100
AcDb2dVertex
 10
2.7116066647
 20
4.2235600459
 30
0.0
  0
VERTEX
  5
207
330
E0
100
AcDbEntity
  8
0
  6
CONTINUOUS
 62
     7
100
AcDbVertex
100
AcDb2dVertex
 10
2.7024655067
 20
4.2254424683
 30
0.0
  0
VERTEX
  5
208
330
E0
100
AcDbEntity
  8
0
  6
CONTINUOUS
 62
     7
100
AcDbVertex
100
AcDb2dVertex
 10
2.6969932303
 20
4.2267136289
 30
0.0
  0
VERTEX
  5
209
330
E0
100
AcDbEntity
  8
0
  6
CONTINUOUS
 62
     7
100
AcDbVertex
100
AcDb2dVertex
 10
2.6951898355
 20
4.2271822234
 30
0.0
  0
VERTEX
  5
20A
330
E0
100
AcDbEntity
  8
0
  6
CONTINUOUS
 62
     7
100
AcDbVertex
100
AcDb2dVertex
 10
2.6951898355
 20
4.2271822234
 30
0.0
  0
SEQEND
  5
20B
330
E0
100
AcDbEntity
  8
0
  6
CONTINUOUS
 62
     7
  0
POLYLINE
  5
E1
330
1F
100
AcDbEntity
  8
0
  6
CONTINUOUS
 62
     7
100
AcDb2dPolyline
 66
     1
 10
0.0
 20
0.0
 30
0.0
  0
VERTEX
  5
20C
330
E1
100
AcDbEntity
  8
0
  6
CONTINUOUS
 62
     7
100
AcDbVertex
100
AcDb2dVertex
 10
3.9580725436
 20
4.227179721
 30
0.0
  0
VERTEX
  5
20D
330
E1
100
AcDbEntity
  8
0
  6
CONTINUOUS
 62
     7
100
AcDbVertex
100
AcDb2dVertex
 10
3.9580823147
 20
4.22718221
 30
0.0
  0
VERTEX
  5
20E
330
E1
100
AcDbEntity
  8
0
  6
CONTINUOUS
 62
     7
100
AcDbVertex
100
AcDb2dVertex
 10
3.9562548339
 20
4.2267085541
 30
0.0
  0
VERTEX
  5
20F
330
E1
100
AcDbEntity
  8
0
  6
CONTINUOUS
 62
     7
100
AcDbVertex
100
AcDb2dVertex
 10
3.9507594363
 20
4.2254328984
 30
0.0
  0
VERTEX
  5
210
330
E1
100
AcDbEntity
  8
0
  6
CONTINUOUS
 62
     7
100
AcDbVertex
100
AcDb2dVertex
 10
3.9415961219
 20
4.2235469431
 30
0.0
  0
VERTEX
  5
211
330
E1
100
AcDbEntity
  8
0
  6
CONTINUOUS
 62
     7
100
AcDbVertex
100
AcDb2dVertex
 10
3.9287648907
 20
4.2212274816
 30
0.0
  0
VERTEX
  5
212
330
E1
100
AcDbEntity
  8
0
  6
CONTINUOUS
 62
     7
100
AcDbVertex
100
AcDb2dVertex
 10
3.9133061312
 20
4.21885031
 30
0.0
  0
VERTEX
  5
213
330
E1
100
AcDbEntity
  8
0
  6
CONTINUOUS
 62
     7
100
AcDbVertex
100
AcDb2dVertex
 10
3.8963700487
 20
4.2169101254
 30
0.0
  0
VERTEX
  5
214
330
E1
100
AcDbEntity
  8
0
  6
CONTINUOUS
 62
     7
100
AcDbVertex
100
AcDb2dVertex
 10
3.8779566435
 20
4.2156486947
 30
0.0
  0
VERTEX
  5
215
330
E1
100
AcDbEntity
  8
0
  6
CONTINUOUS
 62
     7
100
AcDbVertex
100
AcDb2dVertex
 10
3.8580659153
 20
4.2152104077
 30
0.0
  0
VERTEX
  5
216
330
E1
100
AcDbEntity
  8
0
  6
CONTINUOUS
 62
     7
100
AcDbVertex
100
AcDb2dVertex
 10
3.8382211863
 20
4.2156460954
 30
0.0
  0
VERTEX
  5
217
330
E1
100
AcDbEntity
  8
0
  6
CONTINUOUS
 62
     7
100
AcDbVertex
100
AcDb2dVertex
 10
3.8198300958
 20
4.2169102068
 30
0.0
  0
VERTEX
  5
218
330
E1
100
AcDbEntity
  8
0
  6
CONTINUOUS
 62
     7
100
AcDbVertex
100
AcDb2dVertex
 10
3.8028926438
 20
4.2188571675
 30
0.0
  0
VERTEX
  5
219
330
E1
100
AcDbEntity
  8
0
  6
CONTINUOUS
 62
     7
100
AcDbVertex
100
AcDb2dVertex
 10
3.7874088302
 20
4.2212428297
 30
0.0
  0
VERTEX
  5
21A
330
E1
100
AcDbEntity
  8
0
  6
CONTINUOUS
 62
     7
100
AcDbVertex
100
AcDb2dVertex
 10
3.7745987907
 20
4.2235600459
 30
0.0
  0
VERTEX
  5
21B
330
E1
100
AcDbEntity
  8
0
  6
CONTINUOUS
 62
     7
100
AcDbVertex
100
AcDb2dVertex
 10
3.7654576327
 20
4.2254424683
 30
0.0
  0
VERTEX
  5
21C
330
E1
100
AcDbEntity
  8
0
  6
CONTINUOUS
 62
     7
100
AcDbVertex
100
AcDb2dVertex
 10
3.7599853563
 20
4.2267136289
 30
0.0
  0
VERTEX
  5
21D
330
E1
100
AcDbEntity
  8
0
  6
CONTINUOUS
 62
     7
100
AcDbVertex
100
AcDb2dVertex
 10
3.7581819615
 20
4.2271822234
 30
0.0
  0
VERTEX
  5
21E
330
E1
100
AcDbEntity
  8
0
  6
CONTINUOUS
 62
     7
100
AcDbVertex
100
AcDb2dVertex
 10
3.7581819615
 20
4.2271822234
 30
0.0
  0
SEQEND
  5
21F
330
E1
100
AcDbEntity
  8
0
  6
CONTINUOUS
 62
     7
  0
LINE
  5
E2
330
1F
100
AcDbEntity
  8
0
  6
CONTINUOUS
 62
     7
100
AcDbLine
 10
4.0549825601
 20
4.1971822234
 30
0.0
 11
4.0549825601
 21
3.3123003336
 31
0.0
  0
LINE
  5
E3
330
1F
100
AcDbEntity
  8
0
  6
CONTINUOUS
 62
     7
100
AcDbLine
 10
2.5982896467
 20
3.3123003336
 30
0.0
 11
2.5982896467
 21
4.1971822234
 31
0.0
  0
LINE
  5
E4
330
1F
100
AcDbEntity
  8
0
  6
CONTINUOUS
 62
     7
100
AcDbLine
 10
2.8558487018
 20
4.2271822234
 30
0.0
 11
2.734431379
 21
4.2271822234
 31
0.0
  0
LINE
  5
E5
330
1F
100
AcDbEntity
  8
0
  6
CONTINUOUS
 62
     7
100
AcDbLine
 10
3.797423505
 20
4.2271822234
 30
0.0
 11
3.9188408278
 21
4.2271822234
 31
0.0
  0
LINE
  5
E6
330
1F
100
AcDbEntity
  8
0
  6
HIDDEN
 62
     7
100
AcDbLine
 10
3.2266361034
 20
3.9028515147
 30
0.0
 11
3.2266361034
 21
3.6066310423
 31
0.0
  0
LINE
  5
E7
330
1F
100
AcDbEntity
  8
0
  6
HIDDEN
 62
     7
100
AcDbLine
 10
3.4266361034
 20
3.9028515147
 30
0.0
 11
3.4266361034
 21
3.6066310423
 31
0.0
  0
SPLINE
  5
E8
330
1F
100
AcDbEntity
  8
0
  6
HIDDEN
 62
     7
100
AcDbSpline
210
0.0
220
0.0
230
1.0
 70
     8
 71
     3
 72
    29
 73
    25
 74
     0
 42
0.00000001
 43
0.00000001
 40
0.0
 40
0.0
 40
0.0
 40
0.0
 40
0.0309287294594522
 40
0.0756818325443922
 40
0.1184314759174701
 40
0.1621931410089971
 40
0.20984636412591
 40
0.2585165685968533
 40
0.3141900159767624
 40
0.3713626953383481
 40
0.4138670323458685
 40
0.457453431928358
 40
0.500028185360543
 40
0.5442007851734082
 40
0.5820451365926707
 40
0.6207350910957137
 40
0.6757789640764725
 40
0.7323984928089885
 40
0.788282655698129
 40
0.8457472898283936
 40
0.891908250235965
 40
0.9393337878944766
 40
0.9855400036913222
 40
1.0
 40
1.0
 40
1.0
 40
1.0
 10
2.714597075504634
 20
3.872738405356027
 30
0.0
 10
2.714610867470173
 20
3.872728882612293
 30
0.0
 10
2.714644616067178
 20
3.872705580694974
 30
0.0
 10
2.716596703158713
 20
3.871376506158591
 30
0.0
 10
2.720055912321957
 20
3.869068203833528
 30
0.0
 10
2.725028556467874
 20
3.865850756042121
 30
0.0
 10
2.731545472419
 20
3.861833886680738
 30
0.0
 10
2.739963003721576
 20
3.857018385108539
 30
0.0
 10
2.750294454691268
 20
3.851760079759168
 30
0.0
 10
2.761569819786745
 20
3.847067833960978
 30
0.0
 10
2.772956918008815
 20
3.843583909518956
 30
0.0
 10
2.783848120018918
 20
3.841473397084484
 30
0.0
 10
2.79528356588924
 20
3.84071794500665
 30
0.0
 10
2.806218588612928
 20
3.841469316774797
 30
0.0
 10
2.816437571933937
 20
3.843406071563753
 30
0.0
 10
2.826996784925486
 20
3.846474051255929
 30
0.0
 10
2.838106230114017
 20
3.850897216851538
 30
0.0
 10
2.849074365882584
 20
3.856328704793124
 30
0.0
 10
2.858657623107423
 20
3.861766147519762
 30
0.0
 10
2.865993673413064
 20
3.86631594345397
 30
0.0
 10
2.871299377904677
 20
3.869777641043834
 30
0.0
 10
2.874473106454351
 20
3.871911394376097
 30
0.0
 10
2.875950893962133
 20
3.872921233113022
 30
0.0
 10
2.875701548167025
 20
3.872751073668194
 30
0.0
 10
2.87564211575561
 20
3.872710515590498
 30
0.0
  0
SPLINE
  5
E9
330
1F
100
AcDbEntity
  8
0
  6
HIDDEN
 62
     7
100
AcDbSpline
210
0.0
220
0.0
230
1.0
 70
     8
 71
     3
 72
    40
 73
    36
 74
     0
 42
0.00000001
 43
0.00000001
 40
-0.0625
 40
-0.0625
 40
0.0
 40
0.0
 40
0.0625
 40
0.0625
 40
0.125
 40
0.125
 40
0.1875
 40
0.1875
 40
0.25
 40
0.25
 40
0.3125
 40
0.3125
 40
0.375
 40
0.375
 40
0.4375
 40
0.4375
 40
0.46875
 40
0.46875
 40
0.5
 40
0.5
 40
0.5625
 40
0.5625
 40
0.625
 40
0.625
 40
0.6875
 40
0.6875
 40
0.75
 40
0.75
 40
0.8125
 40
0.8125
 40
0.875
 40
0.875
 40
0.9375
 40
0.9375
 40
1.0
 40
1.0
 40
1.0625
 40
1.0625
 10
2.714431378975103
 20
3.743675836532776
 30
0.0
 10
2.714431378975104
 20
3.765806720503286
 30
0.0
 10
2.716735585103062
 20
3.776620573382486
 30
0.0
 10
2.725030615543973
 20
3.796101050040692
 30
0.0
 10
2.731003673364027
 20
3.804782892553457
 30
0.0
 10
2.745447507480758
 20
3.819148489944197
 30
0.0
 10
2.753960169664395
 20
3.824931332448068
 30
0.0
 10
2.773133713639639
 20
3.833087605852044
 30
0.0
 10
2.784057968766478
 20
3.83543266953715
 30
0.0
 10
2.805969114194746
 20
3.835467012065066
 30
0.0
 10
2.816801944322106
 20
3.833193482245674
 30
0.0
 10
2.836141634612148
 20
3.825046723705609
 30
0.0
 10
2.844605447994799
 20
3.819335499293603
 30
0.0
 10
2.859198883813533
 20
3.804898077522975
 30
0.0
 10
2.865077020651999
 20
3.796421424973405
 30
0.0
 10
2.871411218413082
 20
3.781671324531096
 30
0.0
 10
2.873031130069502
 20
3.77656531968965
 30
0.0
 10
2.875250946613332
 20
3.7659463366887
 30
0.0
 10
2.875834779545311
 20
3.760399159282284
 30
0.0
 10
2.875875786391259
 20
3.744032151501222
 30
0.0
 10
2.873615600137822
 20
3.733082211233231
 30
0.0
 10
2.865300917363753
 20
3.713449874865272
 30
0.0
 10
2.859324564947682
 20
3.704752470682767
 30
0.0
 10
2.844823301956262
 20
3.690319949584558
 30
0.0
 10
2.836262608318542
 20
3.684515761195502
 30
0.0
 10
2.817057799880966
 20
3.676368447160108
 30
0.0
 10
2.806227444701832
 20
3.674042043641887
 30
0.0
 10
2.784190300800495
 20
3.674023249263197
 30
0.0
 10
2.773274859569946
 20
3.676354699226819
 30
0.0
 10
2.754076893041467
 20
3.684482045138989
 30
0.0
 10
2.745484515864822
 20
3.690305422567107
 30
0.0
 10
2.731031568940702
 20
3.704663793194153
 30
0.0
 10
2.725058177562067
 20
3.713346512341352
 30
0.0
 10
2.716777706812799
 20
3.732733578943783
 30
0.0
 10
2.714431378975103
 20
3.743675836532776
 30
0.0
 10
2.714431378975104
 20
3.765806720503286
 30
0.0
  0
SPLINE
  5
EA
330
1F
100
AcDbEntity
  8
0
  6
HIDDEN
 62
     7
100
AcDbSpline
210
0.0
220
0.0
230
1.0
 70
     8
 71
     3
 72
    29
 73
    25
 74
     0
 42
0.00000001
 43
0.00000001
 40
0.0
 40
0.0
 40
0.0
 40
0.0
 40
0.0309287294594522
 40
0.0756818325443922
 40
0.1184314759174701
 40
0.1621931410089971
 40
0.20984636412591
 40
0.2585165685968533
 40
0.3141900159767624
 40
0.3713626953383481
 40
0.4138670323458685
 40
0.457453431928358
 40
0.500028185360543
 40
0.5442007851734082
 40
0.5820451365926707
 40
0.6207350910957137
 40
0.6757789640764725
 40
0.7323984928089885
 40
0.788282655698129
 40
0.8457472898283936
 40
0.891908250235965
 40
0.9393337878944766
 40
0.9855400036913222
 40
1.0
 40
1.0
 40
1.0
 40
1.0
 10
3.777589201488886
 20
3.872738405356027
 30
0.0
 10
3.777602993454425
 20
3.872728882612293
 30
0.0
 10
3.777636742051429
 20
3.872705580694974
 30
0.0
 10
3.779588829142964
 20
3.871376506158591
 30
0.0
 10
3.783048038306209
 20
3.869068203833528
 30
0.0
 10
3.788020682452125
 20
3.865850756042121
 30
0.0
 10
3.794537598403253
 20
3.861833886680738
 30
0.0
 10
3.802955129705828
 20
3.857018385108539
 30
0.0
 10
3.81328658067552
 20
3.851760079759168
 30
0.0
 10
3.824561945770997
 20
3.847067833960978
 30
0.0
 10
3.835949043993068
 20
3.843583909518956
 30
0.0
 10
3.84684024600317
 20
3.841473397084484
 30
0.0
 10
3.858275691873493
 20
3.84071794500665
 30
0.0
 10
3.869210714597181
 20
3.841469316774797
 30
0.0
 10
3.879429697918189
 20
3.843406071563753
 30
0.0
 10
3.889988910909738
 20
3.846474051255929
 30
0.0
 10
3.901098356098269
 20
3.850897216851538
 30
0.0
 10
3.912066491866836
 20
3.856328704793124
 30
0.0
 10
3.921649749091676
 20
3.861766147519762
 30
0.0
 10
3.928985799397316
 20
3.86631594345397
 30
0.0
 10
3.934291503888929
 20
3.869777641043834
 30
0.0
 10
3.937465232438603
 20
3.871911394376097
 30
0.0
 10
3.938943019946386
 20
3.872921233113022
 30
0.0
 10
3.938693674151277
 20
3.872751073668194
 30
0.0
 10
3.938634241739862
 20
3.872710515590498
 30
0.0
  0
SPLINE
  5
EB
330
1F
100
AcDbEntity
  8
0
  6
HIDDEN
 62
     7
100
AcDbSpline
210
0.0
220
0.0
230
1.0
 70
     8
 71
     3
 72
    40
 73
    36
 74
     0
 42
0.00000001
 43
0.00000001
 40
-0.0625
 40
-0.0625
 40
0.0
 40
0.0
 40
0.0625
 40
0.0625
 40
0.125
 40
0.125
 40
0.1875
 40
0.1875
 40
0.25
 40
0.25
 40
0.3125
 40
0.3125
 40
0.375
 40
0.375
 40
0.4375
 40
0.4375
 40
0.46875
 40
0.46875
 40
0.5
 40
0.5
 40
0.5625
 40
0.5625
 40
0.625
 40
0.625
 40
0.6875
 40
0.6875
 40
0.75
 40
0.75
 40
0.8125
 40
0.8125
 40
0.875
 40
0.875
 40
0.9375
 40
0.9375
 40
1.0
 40
1.0
 40
1.0625
 40
1.0625
 10
3.777423504959356
 20
3.743675836532776
 30
0.0
 10
3.777423504959356
 20
3.765806720503286
 30
0.0
 10
3.779727711087314
 20
3.776620573382486
 30
0.0
 10
3.788022741528225
 20
3.796101050040692
 30
0.0
 10
3.793995799348279
 20
3.804782892553457
 30
0.0
 10
3.808439633465009
 20
3.819148489944197
 30
0.0
 10
3.816952295648647
 20
3.824931332448068
 30
0.0
 10
3.836125839623891
 20
3.833087605852044
 30
0.0
 10
3.84705009475073
 20
3.83543266953715
 30
0.0
 10
3.868961240178997
 20
3.835467012065066
 30
0.0
 10
3.879794070306358
 20
3.833193482245674
 30
0.0
 10
3.8991337605964
 20
3.825046723705609
 30
0.0
 10
3.907597573979051
 20
3.819335499293603
 30
0.0
 10
3.922191009797785
 20
3.804898077522975
 30
0.0
 10
3.928069146636251
 20
3.796421424973405
 30
0.0
 10
3.934403344397334
 20
3.781671324531096
 30
0.0
 10
3.936023256053755
 20
3.77656531968965
 30
0.0
 10
3.938243072597583
 20
3.7659463366887
 30
0.0
 10
3.938826905529563
 20
3.760399159282284
 30
0.0
 10
3.938867912375511
 20
3.744032151501222
 30
0.0
 10
3.936607726122074
 20
3.733082211233231
 30
0.0
 10
3.928293043348005
 20
3.713449874865272
 30
0.0
 10
3.922316690931934
 20
3.704752470682767
 30
0.0
 10
3.907815427940514
 20
3.690319949584558
 30
0.0
 10
3.899254734302794
 20
3.684515761195502
 30
0.0
 10
3.880049925865218
 20
3.676368447160108
 30
0.0
 10
3.869219570686084
 20
3.674042043641887
 30
0.0
 10
3.847182426784747
 20
3.674023249263197
 30
0.0
 10
3.836266985554198
 20
3.676354699226819
 30
0.0
 10
3.81706901902572
 20
3.684482045138989
 30
0.0
 10
3.808476641849074
 20
3.690305422567107
 30
0.0
 10
3.794023694924954
 20
3.704663793194153
 30
0.0
 10
3.788050303546319
 20
3.713346512341352
 30
0.0
 10
3.779769832797051
 20
3.732733578943783
 30
0.0
 10
3.777423504959356
 20
3.743675836532776
 30
0.0
 10
3.777423504959356
 20
3.765806720503286
 30
0.0
  0
SPLINE
  5
EC
330
1F
100
AcDbEntity
  8
0
  6
HIDDEN
 62
     7
100
AcDbSpline
210
0.0
220
0.0
230
1.0
 70
     8
 71
     3
 72
    22
 73
    18
 74
     0
 42
0.00000001
 43
0.00000001
 40
0.0
 40
0.0
 40
0.0
 40
0.0
 40
0.0929770580102658
 40
0.1494108072238061
 40
0.2124171995360142
 40
0.2761886679841836
 40
0.3329134650389731
 40
0.4250504893429278
 40
0.5172223757691292
 40
0.5739412614397765
 40
0.637691616561473
 40
0.7008199392514803
 40
0.7573048861520776
 40
0.8501716882432298
 40
0.9433261161664055
 40
0.9999117915113945
 40
1.0
 40
1.0
 40
1.0
 40
1.0
 10
2.714431378975104
 20
4.201559854399354
 30
0.0
 10
2.715343986771965
 20
4.20123411274571
 30
0.0
 10
2.716810514865302
 20
4.200710657557312
 30
0.0
 10
2.726321272481698
 20
4.198393844722717
 30
0.0
 10
2.737549089044778
 20
4.19593974327846
 30
0.0
 10
2.751897997631643
 20
4.193438298206696
 30
0.0
 10
2.770976516561914
 20
4.191209355117459
 30
0.0
 10
2.795089390562556
 20
4.189638671254598
 30
0.0
 10
2.819205024341914
 20
4.191199516511419
 30
0.0
 10
2.838301775735216
 20
4.193427094603124
 30
0.0
 10
2.852649558253865
 20
4.195920574228188
 30
0.0
 10
2.863985143541927
 20
4.198405380794974
 30
0.0
 10
2.873177513544056
 20
4.200612941749344
 30
0.0
 10
2.877618097646471
 20
4.202160864529891
 30
0.0
 10
2.872828727996839
 20
4.200573928970135
 30
0.0
 10
2.867265481912213
 20
4.199130702825691
 30
0.0
 10
2.863795054798734
 20
4.198394134936951
 30
0.0
 10
2.863789653349075
 20
4.198392988526368
 30
0.0
  0
SPLINE
  5
ED
330
1F
100
AcDbEntity
  8
0
  6
HIDDEN
 62
     7
100
AcDbSpline
210
0.0
220
0.0
230
1.0
 70
     8
 71
     3
 72
    22
 73
    18
 74
     0
 42
0.00000001
 43
0.00000001
 40
0.0
 40
0.0
 40
0.0
 40
0.0
 40
0.0929770580101937
 40
0.1494108072240843
 40
0.2124171995368993
 40
0.2761886679856856
 40
0.3329134650408288
 40
0.4250504893446982
 40
0.517222375770883
 40
0.5739412614418666
 40
0.6376916165641285
 40
0.7008199392546973
 40
0.75730488615563
 40
0.8501716882467711
 40
0.9433261161707638
 40
0.9999117915158803
 40
1.0
 40
1.0
 40
1.0
 40
1.0
 10
3.777423504959356
 20
4.201559854399354
 30
0.0
 10
3.778336112756208
 20
4.201234112745707
 30
0.0
 10
3.779802640849534
 20
4.200710657557305
 30
0.0
 10
3.789313398465902
 20
4.198393844722712
 30
0.0
 10
3.800541215029025
 20
4.19593974327846
 30
0.0
 10
3.814890123615963
 20
4.193438298206701
 30
0.0
 10
3.83396864254625
 20
4.191209355117468
 30
0.0
 10
3.858081516546815
 20
4.189638671254595
 30
0.0
 10
3.882197150326094
 20
4.191199516511427
 30
0.0
 10
3.901293901719409
 20
4.193427094603127
 30
0.0
 10
3.915641684238122
 20
4.195920574228188
 30
0.0
 10
3.926977269526222
 20
4.198405380794971
 30
0.0
 10
3.936169639528322
 20
4.200612941749339
 30
0.0
 10
3.940610223630739
 20
4.202160864529882
 30
0.0
 10
3.935820853981023
 20
4.200573928970168
 30
0.0
 10
3.930257607896639
 20
4.199130702825702
 30
0.0
 10
3.926787180783484
 20
4.198394134937068
 30
0.0
 10
3.9267817793341
 20
4.198392988526543
 30
0.0
  0
CIRCLE
  5
EE
330
1F
100
AcDbEntity
  8
0
  6
HIDDEN
 62
     7
100
AcDbCircle
 10
3.8581321664
 20
3.7547412785
 30
0.0
 40
0.0607086614173222
  0
POLYLINE
  5
EF
330
1F
100
AcDbEntity
  8
0
  6
HIDDEN
 62
     7
100
AcDb2dPolyline
 66
     1
 10
0.0
 20
0.0
 30
0.0
  0
VERTEX
  5
220
330
EF
100
AcDbEntity
  8
0
  6
HIDDEN
 62
     7
100
AcDbVertex
100
AcDb2dVertex
 10
3.9388408278
 20
3.7547412785
 30
0.0
  0
VERTEX
  5
221
330
EF
100
AcDbEntity
  8
0
  6
HIDDEN
 62
     7
100
AcDbVertex
100
AcDb2dVertex
 10
3.938150354
 20
3.7442066843
 30
0.0
  0
VERTEX
  5
222
330
EF
100
AcDbEntity
  8
0
  6
HIDDEN
 62
     7
100
AcDbVertex
100
AcDb2dVertex
 10
3.9365525975
 20
3.7356592448
 30
0.0
  0
SEQEND
  5
223
330
EF
100
AcDbEntity
  8
0
  6
HIDDEN
 62
     7
  0
ARC
  5
F0
330
1F
100
AcDbEntity
  8
0
  6
HIDDEN
 62
     7
100
AcDbCircle
 10
3.8581321664
 20
3.7547412785
 30
0.0
 40
0.0807086614173228
100
AcDbArc
 50
168.3474598388
 51
181.2965681774
  0
LINE
  5
F1
330
1F
100
AcDbEntity
  8
0
  6
HIDDEN
 62
     7
100
AcDbLine
 10
3.9385481688
 20
3.7616081975
 30
0.0
 11
3.9388408278
 21
3.7547412785
 31
0.0
  0
LINE
  5
F2
330
1F
100
AcDbEntity
  8
0
  6
HIDDEN
 62
     7
100
AcDbLine
 10
3.8581321664
 20
3.7049522741
 30
0.0
 11
3.8150136237
 21
3.7298467763
 31
0.0
  0
LINE
  5
F3
330
1F
100
AcDbEntity
  8
0
  6
HIDDEN
 62
     7
100
AcDbLine
 10
3.8150136237
 20
3.7796357807
 30
0.0
 11
3.8581321664
 21
3.8045302829
 31
0.0
  0
LINE
  5
F4
330
1F
100
AcDbEntity
  8
0
  6
HIDDEN
 62
     7
100
AcDbLine
 10
3.8581321664
 20
3.8045302829
 30
0.0
 11
3.901250709
 21
3.7796357807
 31
0.0
  0
LINE
  5
F5
330
1F
100
AcDbEntity
  8
0
  6
HIDDEN
 62
     7
100
AcDbLine
 10
3.901250709
 20
3.7796357807
 30
0.0
 11
3.901250709
 21
3.7298467763
 31
0.0
  0
LINE
  5
F6
330
1F
100
AcDbEntity
  8
0
  6
HIDDEN
 62
     7
100
AcDbLine
 10
3.8150136237
 20
3.7298467763
 30
0.0
 11
3.8150136237
 21
3.7796357807
 31
0.0
  0
LINE
  5
F7
330
1F
100
AcDbEntity
  8
0
  6
HIDDEN
 62
     7
100
AcDbLine
 10
3.901250709
 20
3.7298467763
 30
0.0
 11
3.8581321664
 21
3.7049522741
 31
0.0
  0
CIRCLE
  5
F8
330
1F
100
AcDbEntity
  8
0
  6
HIDDEN
 62
     7
100
AcDbCircle
 10
2.7951400404
 20
3.7547412785
 30
0.0
 40
0.0607086614173227
  0
LINE
  5
F9
330
1F
100
AcDbEntity
  8
0
  6
HIDDEN
 62
     7
100
AcDbLine
 10
2.838258583
 20
3.7796357807
 30
0.0
 11
2.7951400404
 21
3.8045302829
 31
0.0
  0
LINE
  5
FA
330
1F
100
AcDbEntity
  8
0
  6
HIDDEN
 62
     7
100
AcDbLine
 10
2.7951400404
 20
3.8045302829
 30
0.0
 11
2.7520214978
 21
3.7796357807
 31
0.0
  0
LINE
  5
FB
330
1F
100
AcDbEntity
  8
0
  6
HIDDEN
 62
     7
100
AcDbLine
 10
2.7520214978
 20
3.7796357807
 30
0.0
 11
2.7520214978
 21
3.7298467763
 31
0.0
  0
LINE
  5
FC
330
1F
100
AcDbEntity
  8
0
  6
HIDDEN
 62
     7
100
AcDbLine
 10
2.838258583
 20
3.7298467763
 30
0.0
 11
2.838258583
 21
3.7796357807
 31
0.0
  0
LINE
  5
FD
330
1F
100
AcDbEntity
  8
0
  6
HIDDEN
 62
     7
100
AcDbLine
 10
2.7520214978
 20
3.7298467763
 30
0.0
 11
2.7951400404
 21
3.7049522741
 31
0.0
  0
LINE
  5
FE
330
1F
100
AcDbEntity
  8
0
  6
HIDDEN
 62
     7
100
AcDbLine
 10
2.7951400404
 20
3.7049522741
 30
0.0
 11
2.838258583
 21
3.7298467763
 31
0.0
  0
LINE
  5
FF
330
1F
100
AcDbEntity
  8
0
  6
HIDDEN
 62
     7
100
AcDbLine
 10
2.714431379
 20
4.2071822234
 30
0.0
 11
2.8758487018
 21
4.2071822234
 31
0.0
  0
LINE
  5
100
330
1F
100
AcDbEntity
  8
0
  6
HIDDEN
 62
     7
100
AcDbLine
 10
2.8758487018
 20
3.8928515147
 30
0.0
 11
2.714431379
 21
3.8928515147
 31
0.0
  0
LINE
  5
101
330
1F
100
AcDbEntity
  8
0
  6
HIDDEN
 62
     7
100
AcDbLine
 10
2.734431379
 20
3.8728515147
 30
0.0
 11
2.8558487018
 21
3.8728515147
 31
0.0
  0
LINE
  5
102
330
1F
100
AcDbEntity
  8
0
  6
HIDDEN
 62
     7
100
AcDbLine
 10
2.7951400404
 20
4.1271822234
 30
0.0
 11
2.7951400404
 21
4.2271822234
 31
0.0
  0
LINE
  5
103
330
1F
100
AcDbEntity
  8
0
  6
HIDDEN
 62
     7
100
AcDbLine
 10
2.838258583
 20
4.1271822234
 30
0.0
 11
2.7951400404
 21
4.1271822234
 31
0.0
  0
LINE
  5
104
330
1F
100
AcDbEntity
  8
0
  6
HIDDEN
 62
     7
100
AcDbLine
 10
2.7951400404
 20
4.1271822234
 30
0.0
 11
2.7520214978
 21
4.1271822234
 31
0.0
  0
LINE
  5
105
330
1F
100
AcDbEntity
  8
0
  6
HIDDEN
 62
     7
100
AcDbLine
 10
2.7520214978
 20
4.1271822234
 30
0.0
 11
2.7520214978
 21
4.2271822234
 31
0.0
  0
LINE
  5
106
330
1F
100
AcDbEntity
  8
0
  6
HIDDEN
 62
     7
100
AcDbLine
 10
2.838258583
 20
4.1271822234
 30
0.0
 11
2.838258583
 21
4.2271822234
 31
0.0
  0
LINE
  5
107
330
1F
100
AcDbEntity
  8
0
  6
HIDDEN
 62
     7
100
AcDbLine
 10
3.9388408278
 20
4.2071822234
 30
0.0
 11
3.777423505
 21
4.2071822234
 31
0.0
  0
LINE
  5
108
330
1F
100
AcDbEntity
  8
0
  6
HIDDEN
 62
     7
100
AcDbLine
 10
3.777423505
 20
3.8928515147
 30
0.0
 11
3.9388408278
 21
3.8928515147
 31
0.0
  0
LINE
  5
109
330
1F
100
AcDbEntity
  8
0
  6
HIDDEN
 62
     7
100
AcDbLine
 10
3.9188408278
 20
3.8728515147
 30
0.0
 11
3.797423505
 21
3.8728515147
 31
0.0
  0
LINE
  5
10A
330
1F
100
AcDbEntity
  8
0
  6
HIDDEN
 62
     7
100
AcDbLine
 10
3.8581321664
 20
4.1271822234
 30
0.0
 11
3.8581321664
 21
4.2271822234
 31
0.0
  0
LINE
  5
10B
330
1F
100
AcDbEntity
  8
0
  6
HIDDEN
 62
     7
100
AcDbLine
 10
3.8150136237
 20
4.1271822234
 30
0.0
 11
3.8581321664
 21
4.1271822234
 31
0.0
  0
LINE
  5
10C
330
1F
100
AcDbEntity
  8
0
  6
HIDDEN
 62
     7
100
AcDbLine
 10
3.8581321664
 20
4.1271822234
 30
0.0
 11
3.901250709
 21
4.1271822234
 31
0.0
  0
LINE
  5
10D
330
1F
100
AcDbEntity
  8
0
  6
HIDDEN
 62
     7
100
AcDbLine
 10
3.901250709
 20
4.1271822234
 30
0.0
 11
3.901250709
 21
4.2271822234
 31
0.0
  0
LINE
  5
10E
330
1F
100
AcDbEntity
  8
0
  6
HIDDEN
 62
     7
100
AcDbLine
 10
3.8150136237
 20
4.1271822234
 30
0.0
 11
3.8150136237
 21
4.2271822234
 31
0.0
  0
LINE
  5
10F
330
1F
100
AcDbEntity
  8
0
  6
HIDDEN
 62
     7
100
AcDbLine
 10
3.4266361034
 20
3.9028515147
 30
0.0
 11
3.2266361034
 21
3.9028515147
 31
0.0
  0
LINE
  5
110
330
1F
100
AcDbEntity
  8
0
  6
HIDDEN
 62
     7
100
AcDbLine
 10
3.2266361034
 20
3.6066310423
 30
0.0
 11
3.4266361034
 21
3.6066310423
 31
0.0
  0
LINE
  5
111
330
1F
100
AcDbEntity
  8
0
  6
HIDDEN
 62
     7
100
AcDbLine
 10
2.5982896467
 20
3.6066310423
 30
0.0
 11
2.6282896467
 21
3.6366310423
 31
0.0
  0
LINE
  5
112
330
1F
100
AcDbEntity
  8
0
  6
HIDDEN
 62
     7
100
AcDbLine
 10
2.6282896467
 20
3.8728515147
 30
0.0
 11
2.5982896467
 21
3.9028515147
 31
0.0
  0
LINE
  5
113
330
1F
100
AcDbEntity
  8
0
  6
HIDDEN
 62
     7
100
AcDbLine
 10
4.0549825601
 20
3.9028515147
 30
0.0
 11
4.0249825601
 21
3.8728515147
 31
0.0
  0
LINE
  5
114
330
1F
100
AcDbEntity
  8
0
  6
HIDDEN
 62
     7
100
AcDbLine
 10
4.0249825601
 20
3.6366310423
 30
0.0
 11
4.0549825601
 21
3.6066310423
 31
0.0
  0
LINE
  5
115
330
1F
100
AcDbEntity
  8
0
  6
HIDDEN
 62
     7
100
AcDbLine
 10
2.7145970755
 20
3.8728515147
 30
0.0
 11
2.6282896467
 21
3.8728515147
 31
0.0
  0
LINE
  5
116
330
1F
100
AcDbEntity
  8
0
  6
HIDDEN
 62
     7
100
AcDbLine
 10
3.2266361034
 20
3.8728515147
 30
0.0
 11
2.8756421158
 21
3.8728515147
 31
0.0
  0
LINE
  5
117
330
1F
100
AcDbEntity
  8
0
  6
HIDDEN
 62
     7
100
AcDbLine
 10
2.6282896467
 20
3.6366310423
 30
0.0
 11
3.2266361034
 21
3.6366310423
 31
0.0
  0
LINE
  5
118
330
1F
100
AcDbEntity
  8
0
  6
HIDDEN
 62
     7
100
AcDbLine
 10
3.7775892015
 20
3.8728515147
 30
0.0
 11
3.4266361034
 21
3.8728515147
 31
0.0
  0
LINE
  5
119
330
1F
100
AcDbEntity
  8
0
  6
HIDDEN
 62
     7
100
AcDbLine
 10
4.0249825601
 20
3.8728515147
 30
0.0
 11
3.9386342417
 21
3.8728515147
 31
0.0
  0
LINE
  5
11A
330
1F
100
AcDbEntity
  8
0
  6
HIDDEN
 62
     7
100
AcDbLine
 10
3.4266361034
 20
3.6366310423
 30
0.0
 11
4.0249825601
 21
3.6366310423
 31
0.0
  0
LINE
  5
11B
330
1F
100
AcDbEntity
  8
0
  6
HIDDEN
 62
     7
100
AcDbLine
 10
2.6951898066
 20
4.2271822269
 30
0.0
 11
2.7144313557
 21
4.2015598576
 31
0.0
  0
LINE
  5
11C
330
1F
100
AcDbEntity
  8
0
  6
HIDDEN
 62
     7
100
AcDbLine
 10
2.875848656
 20
4.2015598417
 30
0.0
 11
2.8950901887
 21
4.22718221
 31
0.0
  0
LINE
  5
11D
330
1F
100
AcDbEntity
  8
0
  6
HIDDEN
 62
     7
100
AcDbLine
 10
3.7581819326
 20
4.2271822269
 30
0.0
 11
3.7774234817
 21
4.2015598576
 31
0.0
  0
LINE
  5
11E
330
1F
100
AcDbEntity
  8
0
  6
HIDDEN
 62
     7
100
AcDbLine
 10
3.938840782
 20
4.2015598417
 30
0.0
 11
3.9580823147
 21
4.22718221
 31
0.0
  0
LINE
  5
11F
330
1F
100
AcDbEntity
  8
0
  6
HIDDEN
 62
     7
100
AcDbLine
 10
2.8758487018
 20
3.872710587
 30
0.0
 11
2.8758487018
 21
4.2015555613
 31
0.0
  0
LINE
  5
120
330
1F
100
AcDbEntity
  8
0
  6
HIDDEN
 62
     7
100
AcDbLine
 10
2.714431379
 20
4.2015598544
 30
0.0
 11
2.714431379
 21
3.8727384598
 31
0.0
  0
LINE
  5
121
330
1F
100
AcDbEntity
  8
0
  6
HIDDEN
 62
     7
100
AcDbLine
 10
3.9388408278
 20
3.872710587
 30
0.0
 11
3.9388408278
 21
4.2015555613
 31
0.0
  0
LINE
  5
122
330
1F
100
AcDbEntity
  8
0
  6
HIDDEN
 62
     7
100
AcDbLine
 10
3.777423505
 20
4.2015598544
 30
0.0
 11
3.777423505
 21
3.8727384598
 31
0.0
  0
LINE
  5
123
330
1F
100
AcDbEntity
  8
0
  6
HIDDEN
 62
     7
100
AcDbLine
 10
2.8758487018
 20
4.2071822234
 30
0.0
 11
2.8623324745
 21
4.2206984507
 31
0.0
  0
LINE
  5
124
330
1F
100
AcDbEntity
  8
0
  6
HIDDEN
 62
     7
100
AcDbLine
 10
2.7279479154
 20
4.2206987598
 30
0.0
 11
2.714431379
 21
4.2071822234
 31
0.0
  0
LINE
  5
125
330
1F
100
AcDbEntity
  8
0
  6
HIDDEN
 62
     7
100
AcDbLine
 10
2.8758487018
 20
3.8928515147
 30
0.0
 11
2.8758487018
 21
4.2071822234
 31
0.0
  0
LINE
  5
126
330
1F
100
AcDbEntity
  8
0
  6
HIDDEN
 62
     7
100
AcDbLine
 10
2.714431379
 20
4.2071822234
 30
0.0
 11
2.714431379
 21
3.8928515147
 31
0.0
  0
LINE
  5
127
330
1F
100
AcDbEntity
  8
0
  6
HIDDEN
 62
     7
100
AcDbLine
 10
2.714431379
 20
3.8928515147
 30
0.0
 11
2.734431379
 21
3.8728515147
 31
0.0
  0
LINE
  5
128
330
1F
100
AcDbEntity
  8
0
  6
HIDDEN
 62
     7
100
AcDbLine
 10
2.8558487018
 20
3.8728515147
 30
0.0
 11
2.8758487018
 21
3.8928515147
 31
0.0
  0
LINE
  5
129
330
1F
100
AcDbEntity
  8
0
  6
HIDDEN
 62
     7
100
AcDbLine
 10
3.9388408278
 20
3.8928515147
 30
0.0
 11
3.9388408278
 21
4.2071822234
 31
0.0
  0
LINE
  5
12A
330
1F
100
AcDbEntity
  8
0
  6
HIDDEN
 62
     7
100
AcDbLine
 10
3.777423505
 20
4.2071822234
 30
0.0
 11
3.777423505
 21
3.8928515147
 31
0.0
  0
LINE
  5
12B
330
1F
100
AcDbEntity
  8
0
  6
HIDDEN
 62
     7
100
AcDbLine
 10
3.9388408278
 20
4.2071822234
 30
0.0
 11
3.9253246004
 21
4.2206984507
 31
0.0
  0
LINE
  5
12C
330
1F
100
AcDbEntity
  8
0
  6
HIDDEN
 62
     7
100
AcDbLine
 10
3.7909400414
 20
4.2206987598
 30
0.0
 11
3.777423505
 21
4.2071822234
 31
0.0
  0
LINE
  5
12D
330
1F
100
AcDbEntity
  8
0
  6
HIDDEN
 62
     7
100
AcDbLine
 10
3.777423505
 20
3.8928515147
 30
0.0
 11
3.797423505
 21
3.8728515147
 31
0.0
  0
LINE
  5
12E
330
1F
100
AcDbEntity
  8
0
  6
HIDDEN
 62
     7
100
AcDbLine
 10
3.9188408278
 20
3.8728515147
 30
0.0
 11
3.9388408278
 21
3.8928515147
 31
0.0
  0
LINE
  5
12F
330
1F
100
AcDbEntity
  8
0
  6
CONTINUOUS
 62
     7
100
AcDbLine
 10
8.7188001593
 20
3.6895072252
 30
0.0
 11
8.7233255512
 21
3.6940326171
 31
0.0
  0
LINE
  5
130
330
1F
100
AcDbEntity
  8
0
  6
CONTINUOUS
 62
     7
100
AcDbLine
 10
8.7233255512
 20
3.8154499399
 30
0.0
 11
8.7188001593
 21
3.8199753319
 31
0.0
  0
LINE
  5
131
330
1F
100
AcDbEntity
  8
0
  6
CONTINUOUS
 62
     7
100
AcDbLine
 10
8.3161186597
 20
4.2226568315
 30
0.0
 11
8.3115932677
 21
4.2271822234
 31
0.0
  0
LINE
  5
132
330
1F
100
AcDbEntity
  8
0
  6
CONTINUOUS
 62
     7
100
AcDbLine
 10
8.1901759449
 20
4.2271822234
 30
0.0
 11
8.185650553
 21
4.2226568315
 31
0.0
  0
CIRCLE
  5
133
330
1F
100
AcDbEntity
  8
0
  6
CONTINUOUS
 62
     7
100
AcDbCircle
 10
8.2508846063
 20
3.7547412785
 30
0.0
 40
0.4424409448818913
  0
CIRCLE
  5
134
330
1F
100
AcDbEntity
  8
0
  6
CONTINUOUS
 62
     7
100
AcDbCircle
 10
8.2508846063
 20
3.7547412785
 30
0.0
 40
0.4724409448818907
  0
CIRCLE
  5
135
330
1F
100
AcDbEntity
  8
0
  6
CONTINUOUS
 62
     7
100
AcDbCircle
 10
8.2508846063
 20
3.7547412785
 30
0.0
 40
0.1481102362204734
  0
CIRCLE
  5
136
330
1F
100
AcDbEntity
  8
0
  6
CONTINUOUS
 62
     7
100
AcDbCircle
 10
8.2508846063
 20
3.7547412785
 30
0.0
 40
0.118110236220474
  0
LINE
  5
137
330
1F
100
AcDbEntity
  8
0
  6
CONTINUOUS
 62
     7
100
AcDbLine
 10
8.7233255512
 20
3.8154499399
 30
0.0
 11
8.7233255512
 21
3.6940326171
 31
0.0
  0
LINE
  5
138
330
1F
100
AcDbEntity
  8
0
  6
CONTINUOUS
 62
     7
100
AcDbLine
 10
8.1901759449
 20
4.2271822234
 30
0.0
 11
8.3115932677
 21
4.2271822234
 31
0.0
  0
SPLINE
  5
139
330
1F
100
AcDbEntity
  8
0
  6
HIDDEN
 62
     7
100
AcDbSpline
210
0.0
220
0.0
230
1.0
 70
     8
 71
     3
 72
    39
 73
    35
 74
     0
 42
0.00000001
 43
0.00000001
 40
0.0
 40
0.0
 40
0.0
 40
0.0
 40
0.0981589928937895
 40
0.1585812686744108
 40
0.2264941250844308
 40
0.2937443342176642
 40
0.3539173964830236
 40
0.4528478225736391
 40
0.5520846546732687
 40
0.6123650223230946
 40
0.6796916166105119
 40
0.7475553813329422
 40
0.8079414960081535
 40
0.8608927133548568
 40
0.8846220593080234
 40
0.8958005423262586
 40
0.9012186581054922
 40
0.9038850103345341
 40
0.9052075209560063
 40
0.9058661113501104
 40
0.9061947405058224
 40
0.9063588885971805
 40
0.9064409210242371
 40
0.9064819268334864
 40
0.9065024271370884
 40
0.9065126766386399
 40
0.9065178012268537
 40
0.9065229257066933
 40
0.9065460046238439
 40
0.9065575440826777
 40
0.9065633138122468
 40
0.90656619867708
 40
0.9065690835419498
 40
1.0
 40
1.0
 40
1.0
 40
1.0
 10
8.170177440684197
 20
4.190237768714109
 30
0.0
 10
8.17106837899747
 20
4.190570022173284
 30
0.0
 10
8.172507738997648
 20
4.19110679596776
 30
0.0
 10
8.181965673088182
 20
4.193449584028128
 30
0.0
 10
8.193200453084271
 20
4.195914461402035
 30
0.0
 10
8.207523325763157
 20
4.198406249691139
 30
0.0
 10
8.226564222453902
 20
4.200614746436803
 30
0.0
 10
8.250825823467947
 20
4.202145069576784
 30
0.0
 10
8.275106018616256
 20
4.200623071672155
 30
0.0
 10
8.294202448404
 20
4.198412378863793
 30
0.0
 10
8.308520913748927
 20
4.195926561538402
 30
0.0
 10
8.319839091149305
 20
4.193434784086349
 30
0.0
 10
8.327167402024962
 20
4.191643332785538
 30
0.0
 10
8.330351704850504
 20
4.190683422988039
 30
0.0
 10
8.331312707358622
 20
4.190345860689725
 30
0.0
 10
8.331526566546485
 20
4.190264177510748
 30
0.0
 10
8.331576908750474
 20
4.19024407395105
 30
0.0
 10
8.331589164973364
 20
4.190239048809542
 30
0.0
 10
8.331592213918167
 20
4.190237772961448
 30
0.0
 10
8.331592987200263
 20
4.190237441582439
 30
0.0
 10
8.331593188345963
 20
4.19023735220279
 30
0.0
 10
8.331593242832776
 20
4.190237326547667
 30
0.0
 10
8.33159325859052
 20
4.19023731847506
 30
0.0
 10
8.33159326360246
 20
4.190237315624781
 30
0.0
 10
8.331593265392257
 20
4.190237314498975
 30
0.0
 10
8.331593266108182
 20
4.190237314006789
 30
0.0
 10
8.331593266466156
 20
4.190237313752367
 30
0.0
 10
8.331593266992776
 20
4.190237313327256
 30
0.0
 10
8.331593267439063
 20
4.190237313327461
 30
0.0
 10
8.331593267665653
 20
4.190237314129718
 30
0.0
 10
8.331593267722534
 20
4.19023731471783
 30
0.0
 10
8.331593267738413
 20
4.190237315106304
 30
0.0
 10
8.331593321929308
 20
4.190240818129917
 30
0.0
 10
8.329370653005594
 20
4.190917673022414
 30
0.0
 10
8.32714805270907
 20
4.191594507016321
 30
0.0
  0
LINE
  5
13A
330
1F
100
AcDbEntity
  8
0
  6
HIDDEN
 62
     7
100
AcDbLine
 10
8.2727925928
 20
4.2004311753
 30
0.0
 11
8.2508846063
 21
4.2015598544
 31
0.0
  0
LINE
  5
13B
330
1F
100
AcDbEntity
  8
0
  6
HIDDEN
 62
     7
100
AcDbLine
 10
8.7033255512
 20
3.6740326171
 30
0.0
 11
8.7033255512
 21
3.8354499399
 31
0.0
  0
LINE
  5
13C
330
1F
100
AcDbEntity
  8
0
  6
HIDDEN
 62
     7
100
AcDbLine
 10
8.3889948425
 20
3.7547412785
 30
0.0
 11
8.3889948425
 21
3.6740326171
 31
0.0
  0
LINE
  5
13D
330
1F
100
AcDbEntity
  8
0
  6
HIDDEN
 62
     7
100
AcDbLine
 10
8.3889948425
 20
3.8354499399
 30
0.0
 11
8.3889948425
 21
3.7547412785
 31
0.0
  0
LINE
  5
13E
330
1F
100
AcDbEntity
  8
0
  6
HIDDEN
 62
     7
100
AcDbLine
 10
8.3689948425
 20
3.7547412785
 30
0.0
 11
8.3689948425
 21
3.8154499399
 31
0.0
  0
LINE
  5
13F
330
1F
100
AcDbEntity
  8
0
  6
HIDDEN
 62
     7
100
AcDbLine
 10
8.3689948425
 20
3.6940326171
 30
0.0
 11
8.3689948425
 21
3.7547412785
 31
0.0
  0
LINE
  5
140
330
1F
100
AcDbEntity
  8
0
  6
HIDDEN
 62
     7
100
AcDbLine
 10
8.6233255512
 20
3.7796357807
 30
0.0
 11
8.7233255512
 21
3.7796357807
 31
0.0
  0
LINE
  5
141
330
1F
100
AcDbEntity
  8
0
  6
HIDDEN
 62
     7
100
AcDbLine
 10
8.6233255512
 20
3.7298467763
 30
0.0
 11
8.7233255512
 21
3.7298467763
 31
0.0
  0
LINE
  5
142
330
1F
100
AcDbEntity
  8
0
  6
HIDDEN
 62
     7
100
AcDbLine
 10
8.6233255512
 20
3.7298467763
 30
0.0
 11
8.6233255512
 21
3.7049522741
 31
0.0
  0
LINE
  5
143
330
1F
100
AcDbEntity
  8
0
  6
HIDDEN
 62
     7
100
AcDbLine
 10
8.6233255512
 20
3.7796357807
 30
0.0
 11
8.6233255512
 21
3.7298467763
 31
0.0
  0
LINE
  5
144
330
1F
100
AcDbEntity
  8
0
  6
HIDDEN
 62
     7
100
AcDbLine
 10
8.6233255512
 20
3.8045302829
 30
0.0
 11
8.6233255512
 21
3.7796357807
 31
0.0
  0
LINE
  5
145
330
1F
100
AcDbEntity
  8
0
  6
HIDDEN
 62
     7
100
AcDbLine
 10
8.6233255512
 20
3.7049522741
 30
0.0
 11
8.7233255512
 21
3.7049522741
 31
0.0
  0
LINE
  5
146
330
1F
100
AcDbEntity
  8
0
  6
HIDDEN
 62
     7
100
AcDbLine
 10
8.6233255512
 20
3.8045302829
 30
0.0
 11
8.7233255512
 21
3.8045302829
 31
0.0
  0
LINE
  5
147
330
1F
100
AcDbEntity
  8
0
  6
HIDDEN
 62
     7
100
AcDbLine
 10
8.2508846063
 20
3.8728515147
 30
0.0
 11
8.1901759449
 21
3.8728515147
 31
0.0
  0
LINE
  5
148
330
1F
100
AcDbEntity
  8
0
  6
HIDDEN
 62
     7
100
AcDbLine
 10
8.3115932677
 20
3.8728515147
 30
0.0
 11
8.2508846063
 21
3.8728515147
 31
0.0
  0
LINE
  5
149
330
1F
100
AcDbEntity
  8
0
  6
HIDDEN
 62
     7
100
AcDbLine
 10
8.2508846063
 20
3.8928515147
 30
0.0
 11
8.3315932677
 21
3.8928515147
 31
0.0
  0
LINE
  5
14A
330
1F
100
AcDbEntity
  8
0
  6
HIDDEN
 62
     7
100
AcDbLine
 10
8.1701759449
 20
3.8928515147
 30
0.0
 11
8.2508846063
 21
3.8928515147
 31
0.0
  0
LINE
  5
14B
330
1F
100
AcDbEntity
  8
0
  6
HIDDEN
 62
     7
100
AcDbLine
 10
8.3315932677
 20
4.2071822234
 30
0.0
 11
8.1701759449
 21
4.2071822234
 31
0.0
  0
LINE
  5
14C
330
1F
100
AcDbEntity
  8
0
  6
HIDDEN
 62
     7
100
AcDbLine
 10
8.2757791085
 20
4.1271822234
 30
0.0
 11
8.3006736107
 21
4.1271822234
 31
0.0
  0
LINE
  5
14D
330
1F
100
AcDbEntity
  8
0
  6
HIDDEN
 62
     7
100
AcDbLine
 10
8.2259901041
 20
4.1271822234
 30
0.0
 11
8.2757791085
 21
4.1271822234
 31
0.0
  0
LINE
  5
14E
330
1F
100
AcDbEntity
  8
0
  6
HIDDEN
 62
     7
100
AcDbLine
 10
8.2757791085
 20
4.1271822234
 30
0.0
 11
8.2757791085
 21
4.2271822234
 31
0.0
  0
LINE
  5
14F
330
1F
100
AcDbEntity
  8
0
  6
HIDDEN
 62
     7
100
AcDbLine
 10
8.2259901041
 20
4.1271822234
 30
0.0
 11
8.2259901041
 21
4.2271822234
 31
0.0
  0
LINE
  5
150
330
1F
100
AcDbEntity
  8
0
  6
HIDDEN
 62
     7
100
AcDbLine
 10
8.2010956019
 20
4.1271822234
 30
0.0
 11
8.2259901041
 21
4.1271822234
 31
0.0
  0
LINE
  5
151
330
1F
100
AcDbEntity
  8
0
  6
HIDDEN
 62
     7
100
AcDbLine
 10
8.3006736107
 20
4.1271822234
 30
0.0
 11
8.3006736107
 21
4.2271822234
 31
0.0
  0
LINE
  5
152
330
1F
100
AcDbEntity
  8
0
  6
HIDDEN
 62
     7
100
AcDbLine
 10
8.2010956019
 20
4.1271822234
 30
0.0
 11
8.2010956019
 21
4.2271822234
 31
0.0
  0
LINE
  5
153
330
1F
100
AcDbEntity
  8
0
  6
HIDDEN
 62
     7
100
AcDbLine
 10
8.1452028773
 20
4.2152104068
 30
0.0
 11
8.1701759613
 21
4.1902373175
 31
0.0
  0
LINE
  5
154
330
1F
100
AcDbEntity
  8
0
  6
HIDDEN
 62
     7
100
AcDbLine
 10
8.3315932671
 20
4.1902373135
 30
0.0
 11
8.3565663559
 21
4.2152104026
 31
0.0
  0
LINE
  5
155
330
1F
100
AcDbEntity
  8
0
  6
HIDDEN
 62
     7
100
AcDbLine
 10
8.3315932677
 20
3.8409743341
 30
0.0
 11
8.3315932677
 21
4.1902373154
 31
0.0
  0
LINE
  5
156
330
1F
100
AcDbEntity
  8
0
  6
HIDDEN
 62
     7
100
AcDbLine
 10
8.1701759449
 20
4.1902400427
 30
0.0
 11
8.1701759449
 21
3.8409745836
 31
0.0
  0
LINE
  5
157
330
1F
100
AcDbEntity
  8
0
  6
HIDDEN
 62
     7
100
AcDbLine
 10
8.3372430085
 20
3.6740326171
 30
0.0
 11
8.7164274558
 21
3.6740326171
 31
0.0
  0
LINE
  5
158
330
1F
100
AcDbEntity
  8
0
  6
HIDDEN
 62
     7
100
AcDbLine
 10
8.716393739
 20
3.8354499399
 30
0.0
 11
8.3372892867
 21
3.8354499399
 31
0.0
  0
LINE
  5
159
330
1F
100
AcDbEntity
  8
0
  6
HIDDEN
 62
     7
100
AcDbLine
 10
8.7033255512
 20
3.6740326171
 30
0.0
 11
8.7188001593
 21
3.6895072252
 31
0.0
  0
LINE
  5
15A
330
1F
100
AcDbEntity
  8
0
  6
HIDDEN
 62
     7
100
AcDbLine
 10
8.7188001593
 20
3.8199753319
 30
0.0
 11
8.7033255512
 21
3.8354499399
 31
0.0
  0
LINE
  5
15B
330
1F
100
AcDbEntity
  8
0
  6
HIDDEN
 62
     7
100
AcDbLine
 10
8.3889948425
 20
3.6740326171
 30
0.0
 11
8.7033255512
 21
3.6740326171
 31
0.0
  0
LINE
  5
15C
330
1F
100
AcDbEntity
  8
0
  6
HIDDEN
 62
     7
100
AcDbLine
 10
8.7033255512
 20
3.8354499399
 30
0.0
 11
8.3889948425
 21
3.8354499399
 31
0.0
  0
LINE
  5
15D
330
1F
100
AcDbEntity
  8
0
  6
HIDDEN
 62
     7
100
AcDbLine
 10
8.3889948425
 20
3.8354499399
 30
0.0
 11
8.3689948425
 21
3.8154499399
 31
0.0
  0
LINE
  5
15E
330
1F
100
AcDbEntity
  8
0
  6
HIDDEN
 62
     7
100
AcDbLine
 10
8.3689948425
 20
3.6940326171
 30
0.0
 11
8.3889948425
 21
3.6740326171
 31
0.0
  0
LINE
  5
15F
330
1F
100
AcDbEntity
  8
0
  6
HIDDEN
 62
     7
100
AcDbLine
 10
8.1701759449
 20
3.8928515147
 30
0.0
 11
8.1901759449
 21
3.8728515147
 31
0.0
  0
LINE
  5
160
330
1F
100
AcDbEntity
  8
0
  6
HIDDEN
 62
     7
100
AcDbLine
 10
8.3115932677
 20
3.8728515147
 30
0.0
 11
8.3315932677
 21
3.8928515147
 31
0.0
  0
LINE
  5
161
330
1F
100
AcDbEntity
  8
0
  6
HIDDEN
 62
     7
100
AcDbLine
 10
8.3315932677
 20
4.2071822234
 30
0.0
 11
8.3161186597
 21
4.2226568315
 31
0.0
  0
LINE
  5
162
330
1F
100
AcDbEntity
  8
0
  6
HIDDEN
 62
     7
100
AcDbLine
 10
8.185650553
 20
4.2226568315
 30
0.0
 11
8.1701759449
 21
4.2071822234
 31
0.0
  0
LINE
  5
163
330
1F
100
AcDbEntity
  8
0
  6
HIDDEN
 62
     7
100
AcDbLine
 10
8.3315932677
 20
3.8928515147
 30
0.0
 11
8.3315932677
 21
4.2071822234
 31
0.0
  0
LINE
  5
164
330
1F
100
AcDbEntity
  8
0
  6
HIDDEN
 62
     7
100
AcDbLine
 10
8.1701759449
 20
4.2071822234
 30
0.0
 11
8.1701759449
 21
3.8928515147
 31
0.0
  0
LINE
  5
165
330
1F
100
AcDbEntity
  8
0
  6
CONTINUOUS
 62
     7
100
AcDbLine
 10
2.6282896467
 20
6.199536194
 30
0.0
 11
4.0249825601
 21
6.199536194
 31
0.0
  0
LINE
  5
166
330
1F
100
AcDbEntity
  8
0
  6
CONTINUOUS
 62
     7
100
AcDbLine
 10
2.714431379
 20
7.1444180838
 30
0.0
 11
2.6282896467
 21
7.1444180838
 31
0.0
  0
LINE
  5
167
330
1F
100
AcDbEntity
  8
0
  6
CONTINUOUS
 62
     7
100
AcDbLine
 10
3.777423505
 20
7.1444180838
 30
0.0
 11
2.8756291576
 21
7.1444180838
 31
0.0
  0
LINE
  5
168
330
1F
100
AcDbEntity
  8
0
  6
CONTINUOUS
 62
     7
100
AcDbLine
 10
4.0249825601
 20
7.1444180838
 30
0.0
 11
3.9386212836
 21
7.1444180838
 31
0.0
  0
LINE
  5
169
330
1F
100
AcDbEntity
  8
0
  6
CONTINUOUS
 62
     7
100
AcDbLine
 10
2.6282896467
 20
7.1444180838
 30
0.0
 11
2.5982896467
 21
7.1144180838
 31
0.0
  0
LINE
  5
16A
330
1F
100
AcDbEntity
  8
0
  6
CONTINUOUS
 62
     7
100
AcDbLine
 10
2.5982896467
 20
6.229536194
 30
0.0
 11
2.6282896467
 21
6.199536194
 31
0.0
  0
LINE
  5
16B
330
1F
100
AcDbEntity
  8
0
  6
CONTINUOUS
 62
     7
100
AcDbLine
 10
4.0249825601
 20
6.199536194
 30
0.0
 11
4.0549825601
 21
6.229536194
 31
0.0
  0
LINE
  5
16C
330
1F
100
AcDbEntity
  8
0
  6
CONTINUOUS
 62
     7
100
AcDbLine
 10
4.0549825601
 20
7.1144180838
 30
0.0
 11
4.0249825601
 21
7.1444180838
 31
0.0
  0
LINE
  5
16D
330
1F
100
AcDbEntity
  8
0
  6
CONTINUOUS
 62
     7
100
AcDbLine
 10
3.9214816586
 20
7.141777253
 30
0.0
 11
3.9188408278
 21
7.1444180838
 31
0.0
  0
LINE
  5
16E
330
1F
100
AcDbEntity
  8
0
  6
CONTINUOUS
 62
     7
100
AcDbLine
 10
3.797423505
 20
7.1444180838
 30
0.0
 11
3.7947876048
 21
7.1417821836
 31
0.0
  0
LINE
  5
16F
330
1F
100
AcDbEntity
  8
0
  6
CONTINUOUS
 62
     7
100
AcDbLine
 10
2.8584895326
 20
7.141777253
 30
0.0
 11
2.8558487018
 21
7.1444180838
 31
0.0
  0
LINE
  5
170
330
1F
100
AcDbEntity
  8
0
  6
CONTINUOUS
 62
     7
100
AcDbLine
 10
2.734431379
 20
7.1444180838
 30
0.0
 11
2.7317954788
 21
7.1417821836
 31
0.0
  0
LINE
  5
171
330
1F
100
AcDbEntity
  8
0
  6
CONTINUOUS
 62
     7
100
AcDbLine
 10
4.0249825601
 20
6.199536194
 30
0.0
 11
4.0249825601
 21
7.1444180838
 31
0.0
  0
LINE
  5
172
330
1F
100
AcDbEntity
  8
0
  6
CONTINUOUS
 62
     7
100
AcDbLine
 10
2.6282896467
 20
7.1444180838
 30
0.0
 11
2.6282896467
 21
6.199536194
 31
0.0
  0
SPLINE
  5
173
330
1F
100
AcDbEntity
  8
0
  6
CONTINUOUS
 62
     7
100
AcDbSpline
210
0.0
220
0.0
230
1.0
 70
     8
 71
     3
 72
    27
 73
    23
 74
     0
 42
0.00000001
 43
0.00000001
 40
-0.1273486926360935
 40
-0.0846749500030854
 40
-0.0431688374656273
 40
0.0
 40
0.0638819074202515
 40
0.1270818103282811
 40
0.1890209100502799
 40
0.2495422910685288
 40
0.2903544884312425
 40
0.3302522011612555
 40
0.3725172745849669
 40
0.4152011559813741
 40
0.4568050127312753
 40
0.5001534725104165
 40
0.5638987540876792
 40
0.6270899229805265
 40
0.6891084107810056
 40
0.749616630319383
 40
0.7904169343665752
 40
0.8303343371865077
 40
0.8726513073639065
 40
0.9153250499969146
 40
0.9568311625343727
 40
1.0
 40
1.063881907420251
 40
1.127081810328281
 40
1.18902091005028
 10
2.697147874659798
 20
6.644346289221528
 30
0.0
 10
2.693667858958346
 20
6.676407973047986
 30
0.0
 10
2.699819171410657
 20
6.713537750325063
 30
0.0
 10
2.722580974188527
 20
6.748165611409834
 30
0.0
 10
2.755264307183491
 20
6.772608069500889
 30
0.0
 10
2.790941515460094
 20
6.779291259225785
 30
0.0
 10
2.821442265604264
 20
6.77554207986776
 30
0.0
 10
2.845988712457326
 20
6.764770320789936
 30
0.0
 10
2.86661932679261
 20
6.747370016702272
 30
0.0
 10
2.88302420642693
 20
6.725472547900992
 30
0.0
 10
2.893090867932973
 20
6.699589886974145
 30
0.0
 10
2.896621310001542
 20
6.667506062688491
 30
0.0
 10
2.8905046572922
 20
6.630353183884385
 30
0.0
 10
2.867677204405192
 20
6.595776592300622
 30
0.0
 10
2.834975456410903
 20
6.571352577095374
 30
0.0
 10
2.799288154506047
 20
6.564657450298842
 30
0.0
 10
2.768788943452148
 20
6.568426099891284
 30
0.0
 10
2.744240193730716
 20
6.579223256931065
 30
0.0
 10
2.723609982653236
 20
6.596642980798324
 30
0.0
 10
2.70720694871075
 20
6.618524583143582
 30
0.0
 10
2.697147874659798
 20
6.644346289221528
 30
0.0
 10
2.693667858958346
 20
6.676407973047986
 30
0.0
 10
2.699819171410657
 20
6.713537750325063
 30
0.0
  0
SPLINE
  5
174
330
1F
100
AcDbEntity
  8
0
  6
CONTINUOUS
 62
     7
100
AcDbSpline
210
0.0
220
0.0
230
1.0
 70
     8
 71
     3
 72
    27
 73
    23
 74
     0
 42
0.00000001
 43
0.00000001
 40
-0.1273486926360927
 40
-0.0846749500030846
 40
-0.0431688374656265
 40
0.0
 40
0.063881907420151
 40
0.1270818103282659
 40
0.1890209100501873
 40
0.2495422910685296
 40
0.2903544884312989
 40
0.3302522011613118
 40
0.3725172745849796
 40
0.4152011559815165
 40
0.4568050127314171
 40
0.5001534725104324
 40
0.5638987540877715
 40
0.6270899229805286
 40
0.6891084107810073
 40
0.7496166303193845
 40
0.7904169343665762
 40
0.8303343371865086
 40
0.8726513073639073
 40
0.9153250499969154
 40
0.9568311625343735
 40
1.0
 40
1.063881907420151
 40
1.127081810328266
 40
1.189020910050187
 10
3.760140000644051
 20
6.644346289221528
 30
0.0
 10
3.756659984942595
 20
6.676407973047967
 30
0.0
 10
3.762811297394938
 20
6.713537750325029
 30
0.0
 10
3.785573100172751
 20
6.748165611409804
 30
0.0
 10
3.818256433167709
 20
6.772608069500919
 30
0.0
 10
3.85393364144434
 20
6.779291259225779
 30
0.0
 10
3.88443439158854
 20
6.775542079867765
 30
0.0
 10
3.90898083844161
 20
6.764770320789946
 30
0.0
 10
3.929611452776888
 20
6.747370016702241
 30
0.0
 10
3.9460163324112
 20
6.725472547900937
 30
0.0
 10
3.956082993917263
 20
6.699589886974096
 30
0.0
 10
3.959613435985785
 20
6.667506062688444
 30
0.0
 10
3.953496783276413
 20
6.630353183884379
 30
0.0
 10
3.930669330389437
 20
6.595776592300606
 30
0.0
 10
3.897967582395153
 20
6.571352577095375
 30
0.0
 10
3.8622802804903
 20
6.564657450298841
 30
0.0
 10
3.8317810694364
 20
6.568426099891284
 30
0.0
 10
3.807232319714968
 20
6.579223256931065
 30
0.0
 10
3.786602108637488
 20
6.596642980798324
 30
0.0
 10
3.770199074695001
 20
6.618524583143583
 30
0.0
 10
3.760140000644051
 20
6.644346289221528
 30
0.0
 10
3.756659984942595
 20
6.676407973047967
 30
0.0
 10
3.762811297394938
 20
6.713537750325029
 30
0.0
  0
SPLINE
  5
175
330
1F
100
AcDbEntity
  8
0
  6
CONTINUOUS
 62
     7
100
AcDbSpline
210
0.0
220
0.0
230
1.0
 70
     8
 71
     3
 72
    26
 73
    22
 74
     0
 42
0.00000001
 43
0.00000001
 40
0.0
 40
0.0
 40
0.0
 40
0.0
 40
0.0144902259063793
 40
0.0684686210444808
 40
0.1205948468558766
 40
0.1742066732640278
 40
0.2268214296091164
 40
0.280929240567838
 40
0.3340971337497651
 40
0.3888185585224537
 40
0.4417394794834836
 40
0.4962354232893952
 40
0.5484765269219843
 40
0.602237891993841
 40
0.6544336658176183
 40
0.7081070777363512
 40
0.7609534449535865
 40
0.8153105898962181
 40
0.8684980745629299
 40
0.923255030459003
 40
1.0
 40
1.0
 40
1.0
 40
1.0
 10
3.938621283588597
 20
7.14438067755495
 30
0.0
 10
3.938685694081772
 20
7.144391650448027
 30
0.0
 10
3.938990043901914
 20
7.144443499112271
 30
0.0
 10
3.937270940704662
 20
7.144149551408233
 30
0.0
 10
3.933433186619144
 20
7.143516393701129
 30
0.0
 10
3.927395602669574
 20
7.142580859029108
 30
0.0
 10
3.919407035592466
 20
7.14146161849005
 30
0.0
 10
3.909718981933156
 20
7.140284001888265
 30
0.0
 10
3.898439440424653
 20
7.139164999303468
 30
0.0
 10
3.886077432744766
 20
7.138252122809678
 30
0.0
 10
3.87280275626538
 20
7.137639419694412
 30
0.0
 10
3.859298379317611
 20
7.137408182857242
 30
0.0
 10
3.84569800213253
 20
7.137575305829554
 30
0.0
 10
3.832639517589588
 20
7.13811226578944
 30
0.0
 10
3.820193559582056
 20
7.138966324983406
 30
0.0
 10
3.80887154804076
 20
7.140031887716503
 30
0.0
 10
3.798789274589461
 20
7.141210311192586
 30
0.0
 10
3.790385303454853
 20
7.1423581508484
 30
0.0
 10
3.783863807681336
 20
7.143349683137552
 30
0.0
 10
3.778636036433977
 20
7.144207780948355
 30
0.0
 10
3.777870357677602
 20
7.144340581150239
 30
0.0
 10
3.777423504959356
 20
7.144418083798317
 30
0.0
  0
SPLINE
  5
176
330
1F
100
AcDbEntity
  8
0
  6
CONTINUOUS
 62
     7
100
AcDbSpline
210
0.0
220
0.0
230
1.0
 70
     8
 71
     3
 72
    26
 73
    22
 74
     0
 42
0.00000001
 43
0.00000001
 40
0.0
 40
0.0
 40
0.0
 40
0.0
 40
0.0144902259063795
 40
0.068468621044481
 40
0.1205948468558768
 40
0.174206673264028
 40
0.2268214296091166
 40
0.2809292405678381
 40
0.3340971337497654
 40
0.3888185585224539
 40
0.4417394794834837
 40
0.4962354232893951
 40
0.5484765269219846
 40
0.6022378919938411
 40
0.6544336658176185
 40
0.7081070777363513
 40
0.7609534449535866
 40
0.8153105898962182
 40
0.86849807456293
 40
0.9232550304590029
 40
1.0
 40
1.0
 40
1.0
 40
1.0
 10
2.875629157604345
 20
7.14438067755495
 30
0.0
 10
2.875693568097519
 20
7.144391650448028
 30
0.0
 10
2.875997917917662
 20
7.144443499112271
 30
0.0
 10
2.87427881472041
 20
7.144149551408233
 30
0.0
 10
2.870441060634892
 20
7.143516393701129
 30
0.0
 10
2.864403476685322
 20
7.142580859029108
 30
0.0
 10
2.856414909608215
 20
7.14146161849005
 30
0.0
 10
2.846726855948904
 20
7.140284001888265
 30
0.0
 10
2.835447314440402
 20
7.139164999303468
 30
0.0
 10
2.823085306760514
 20
7.138252122809678
 30
0.0
 10
2.809810630281128
 20
7.137639419694412
 30
0.0
 10
2.796306253333358
 20
7.137408182857242
 30
0.0
 10
2.782705876148278
 20
7.137575305829554
 30
0.0
 10
2.769647391605337
 20
7.138112265789438
 30
0.0
 10
2.757201433597804
 20
7.138966324983407
 30
0.0
 10
2.745879422056508
 20
7.140031887716503
 30
0.0
 10
2.735797148605208
 20
7.141210311192586
 30
0.0
 10
2.727393177470601
 20
7.1423581508484
 30
0.0
 10
2.720871681697083
 20
7.143349683137552
 30
0.0
 10
2.715643910449725
 20
7.144207780948355
 30
0.0
 10
2.71487823169335
 20
7.144340581150239
 30
0.0
 10
2.714431378975104
 20
7.144418083798317
 30
0.0
  0
LINE
  5
177
330
1F
100
AcDbEntity
  8
0
  6
CONTINUOUS
 62
     7
100
AcDbLine
 10
2.714431379
 20
6.6719771389
 30
0.0
 11
2.7151140255
 21
6.668061118
 31
0.0
  0
LINE
  5
178
330
1F
100
AcDbEntity
  8
0
  6
CONTINUOUS
 62
     7
100
AcDbLine
 10
2.5982896467
 20
6.229536194
 30
0.0
 11
2.5982896467
 21
7.1144180838
 31
0.0
  0
LINE
  5
179
330
1F
100
AcDbEntity
  8
0
  6
CONTINUOUS
 62
     7
100
AcDbLine
 10
4.0549825601
 20
7.1144180838
 30
0.0
 11
4.0549825601
 21
6.229536194
 31
0.0
  0
LINE
  5
17A
330
1F
100
AcDbEntity
  8
0
  6
CONTINUOUS
 62
     7
100
AcDbLine
 10
3.797423505
 20
7.1444180838
 30
0.0
 11
3.9188408278
 21
7.1444180838
 31
0.0
  0
LINE
  5
17B
330
1F
100
AcDbEntity
  8
0
  6
CONTINUOUS
 62
     7
100
AcDbLine
 10
2.8558487018
 20
7.1444180838
 30
0.0
 11
2.734431379
 21
7.1444180838
 31
0.0
  0
CIRCLE
  5
17C
330
1F
100
AcDbEntity
  8
0
  6
CONTINUOUS
 62
     7
100
AcDbCircle
 10
2.7951400404
 20
6.6719771389
 30
0.0
 40
0.0607086614173222
  0
LINE
  5
17D
330
1F
100
AcDbEntity
  8
0
  6
CONTINUOUS
 62
     7
100
AcDbLine
 10
2.7520214978
 20
6.6470826367
 30
0.0
 11
2.7520214978
 21
6.6968716411
 31
0.0
  0
LINE
  5
17E
330
1F
100
AcDbEntity
  8
0
  6
CONTINUOUS
 62
     7
100
AcDbLine
 10
2.7951400404
 20
6.6221881345
 30
0.0
 11
2.7520214978
 21
6.6470826367
 31
0.0
  0
LINE
  5
17F
330
1F
100
AcDbEntity
  8
0
  6
CONTINUOUS
 62
     7
100
AcDbLine
 10
2.838258583
 20
6.6470826367
 30
0.0
 11
2.7951400404
 21
6.6221881345
 31
0.0
  0
LINE
  5
180
330
1F
100
AcDbEntity
  8
0
  6
CONTINUOUS
 62
     7
100
AcDbLine
 10
2.838258583
 20
6.6968716411
 30
0.0
 11
2.838258583
 21
6.6470826367
 31
0.0
  0
LINE
  5
181
330
1F
100
AcDbEntity
  8
0
  6
CONTINUOUS
 62
     7
100
AcDbLine
 10
2.7951400404
 20
6.7217661433
 30
0.0
 11
2.838258583
 21
6.6968716411
 31
0.0
  0
LINE
  5
182
330
1F
100
AcDbEntity
  8
0
  6
CONTINUOUS
 62
     7
100
AcDbLine
 10
2.7520214978
 20
6.6968716411
 30
0.0
 11
2.7951400404
 21
6.7217661433
 31
0.0
  0
CIRCLE
  5
183
330
1F
100
AcDbEntity
  8
0
  6
CONTINUOUS
 62
     7
100
AcDbCircle
 10
2.7951400404
 20
6.6719771389
 30
0.0
 40
0.0807086614173227
  0
CIRCLE
  5
184
330
1F
100
AcDbEntity
  8
0
  6
CONTINUOUS
 62
     7
100
AcDbCircle
 10
3.8581321664
 20
6.6719771389
 30
0.0
 40
0.0607086614173227
  0
LINE
  5
185
330
1F
100
AcDbEntity
  8
0
  6
CONTINUOUS
 62
     7
100
AcDbLine
 10
3.8581321664
 20
6.7217661433
 30
0.0
 11
3.8150136237
 21
6.6968716411
 31
0.0
  0
LINE
  5
186
330
1F
100
AcDbEntity
  8
0
  6
CONTINUOUS
 62
     7
100
AcDbLine
 10
3.8150136237
 20
6.6968716411
 30
0.0
 11
3.8150136237
 21
6.6470826367
 31
0.0
  0
LINE
  5
187
330
1F
100
AcDbEntity
  8
0
  6
CONTINUOUS
 62
     7
100
AcDbLine
 10
3.8150136237
 20
6.6470826367
 30
0.0
 11
3.8581321664
 21
6.6221881345
 31
0.0
  0
LINE
  5
188
330
1F
100
AcDbEntity
  8
0
  6
CONTINUOUS
 62
     7
100
AcDbLine
 10
3.8581321664
 20
6.6221881345
 30
0.0
 11
3.901250709
 21
6.6470826367
 31
0.0
  0
LINE
  5
189
330
1F
100
AcDbEntity
  8
0
  6
CONTINUOUS
 62
     7
100
AcDbLine
 10
3.901250709
 20
6.6470826367
 30
0.0
 11
3.901250709
 21
6.6968716411
 31
0.0
  0
LINE
  5
18A
330
1F
100
AcDbEntity
  8
0
  6
CONTINUOUS
 62
     7
100
AcDbLine
 10
3.901250709
 20
6.6968716411
 30
0.0
 11
3.8581321664
 21
6.7217661433
 31
0.0
  0
CIRCLE
  5
18B
330
1F
100
AcDbEntity
  8
0
  6
CONTINUOUS
 62
     7
100
AcDbCircle
 10
3.8581321664
 20
6.6719771389
 30
0.0
 40
0.0807086614173227
  0
POLYLINE
  5
18C
330
1F
100
AcDbEntity
  8
0
  6
HIDDEN
 62
     7
100
AcDb2dPolyline
 66
     1
 10
0.0
 20
0.0
 30
0.0
  0
VERTEX
  5
224
330
18C
100
AcDbEntity
  8
0
  6
HIDDEN
 62
     7
100
AcDbVertex
100
AcDb2dVertex
 10
2.7151140255
 20
6.668061118
 30
0.0
  0
VERTEX
  5
225
330
18C
100
AcDbEntity
  8
0
  6
HIDDEN
 62
     7
100
AcDbVertex
100
AcDb2dVertex
 10
2.7191918626
 20
6.6446684899
 30
0.0
  0
VERTEX
  5
226
330
18C
100
AcDbEntity
  8
0
  6
HIDDEN
 62
     7
100
AcDbVertex
100
AcDb2dVertex
 10
2.7264671974
 20
6.62957515
 30
0.0
  0
VERTEX
  5
227
330
18C
100
AcDbEntity
  8
0
  6
HIDDEN
 62
     7
100
AcDbVertex
100
AcDb2dVertex
 10
2.7380317454
 20
6.6149461766
 30
0.0
  0
VERTEX
  5
228
330
18C
100
AcDbEntity
  8
0
  6
HIDDEN
 62
     7
100
AcDbVertex
100
AcDb2dVertex
 10
2.7528381659
 20
6.6032425811
 30
0.0
  0
VERTEX
  5
229
330
18C
100
AcDbEntity
  8
0
  6
HIDDEN
 62
     7
100
AcDbVertex
100
AcDb2dVertex
 10
2.7680221054
 20
6.5959606563
 30
0.0
  0
VERTEX
  5
22A
330
18C
100
AcDbEntity
  8
0
  6
HIDDEN
 62
     7
100
AcDbVertex
100
AcDb2dVertex
 10
2.7950865434
 20
6.5912684952
 30
0.0
  0
VERTEX
  5
22B
330
18C
100
AcDbEntity
  8
0
  6
HIDDEN
 62
     7
100
AcDbVertex
100
AcDb2dVertex
 10
2.8221675871
 20
6.5959284719
 30
0.0
  0
VERTEX
  5
22C
330
18C
100
AcDbEntity
  8
0
  6
HIDDEN
 62
     7
100
AcDbVertex
100
AcDb2dVertex
 10
2.8373589423
 20
6.6031915856
 30
0.0
  0
VERTEX
  5
22D
330
18C
100
AcDbEntity
  8
0
  6
HIDDEN
 62
     7
100
AcDbVertex
100
AcDb2dVertex
 10
2.8521751674
 20
6.6148730032
 30
0.0
  0
VERTEX
  5
22E
330
18C
100
AcDbEntity
  8
0
  6
HIDDEN
 62
     7
100
AcDbVertex
100
AcDb2dVertex
 10
2.8637775378
 20
6.6295179588
 30
0.0
  0
VERTEX
  5
22F
330
18C
100
AcDbEntity
  8
0
  6
HIDDEN
 62
     7
100
AcDbVertex
100
AcDb2dVertex
 10
2.8710705314
 20
6.644619351
 30
0.0
  0
VERTEX
  5
230
330
18C
100
AcDbEntity
  8
0
  6
HIDDEN
 62
     7
100
AcDbVertex
100
AcDb2dVertex
 10
2.8758486561
 20
6.671891208
 30
0.0
  0
VERTEX
  5
231
330
18C
100
AcDbEntity
  8
0
  6
HIDDEN
 62
     7
100
AcDbVertex
100
AcDb2dVertex
 10
2.871099055
 20
6.6992556309
 30
0.0
  0
VERTEX
  5
232
330
18C
100
AcDbEntity
  8
0
  6
HIDDEN
 62
     7
100
AcDbVertex
100
AcDb2dVertex
 10
2.8638058544
 20
6.7143905096
 30
0.0
  0
VERTEX
  5
233
330
18C
100
AcDbEntity
  8
0
  6
HIDDEN
 62
     7
100
AcDbVertex
100
AcDb2dVertex
 10
2.8521980585
 20
6.729058402
 30
0.0
  0
VERTEX
  5
234
330
18C
100
AcDbEntity
  8
0
  6
HIDDEN
 62
     7
100
AcDbVertex
100
AcDb2dVertex
 10
2.8373982976
 20
6.7407385214
 30
0.0
  0
VERTEX
  5
235
330
18C
100
AcDbEntity
  8
0
  6
HIDDEN
 62
     7
100
AcDbVertex
100
AcDb2dVertex
 10
2.822220792
 20
6.748006876
 30
0.0
  0
VERTEX
  5
236
330
18C
100
AcDbEntity
  8
0
  6
HIDDEN
 62
     7
100
AcDbVertex
100
AcDb2dVertex
 10
2.8078822392
 20
6.7516735905
 30
0.0
  0
VERTEX
  5
237
330
18C
100
AcDbEntity
  8
0
  6
HIDDEN
 62
     7
100
AcDbVertex
100
AcDb2dVertex
 10
2.8012836803
 20
6.75245163
 30
0.0
  0
VERTEX
  5
238
330
18C
100
AcDbEntity
  8
0
  6
HIDDEN
 62
     7
100
AcDbVertex
100
AcDb2dVertex
 10
2.7981569123
 20
6.7526293956
 30
0.0
  0
VERTEX
  5
239
330
18C
100
AcDbEntity
  8
0
  6
HIDDEN
 62
     7
100
AcDbVertex
100
AcDb2dVertex
 10
2.7966392873
 20
6.7526718741
 30
0.0
  0
VERTEX
  5
23A
330
18C
100
AcDbEntity
  8
0
  6
HIDDEN
 62
     7
100
AcDbVertex
100
AcDb2dVertex
 10
2.795892183
 20
6.7526822956
 30
0.0
  0
VERTEX
  5
23B
330
18C
100
AcDbEntity
  8
0
  6
HIDDEN
 62
     7
100
AcDbVertex
100
AcDb2dVertex
 10
2.795521588
 20
6.7526848985
 30
0.0
  0
VERTEX
  5
23C
330
18C
100
AcDbEntity
  8
0
  6
HIDDEN
 62
     7
100
AcDbVertex
100
AcDb2dVertex
 10
2.7953370333
 20
6.7526855599
 30
0.0
  0
VERTEX
  5
23D
330
18C
100
AcDbEntity
  8
0
  6
HIDDEN
 62
     7
100
AcDbVertex
100
AcDb2dVertex
 10
2.7952449421
 20
6.7526857322
 30
0.0
  0
VERTEX
  5
23E
330
18C
100
AcDbEntity
  8
0
  6
HIDDEN
 62
     7
100
AcDbVertex
100
AcDb2dVertex
 10
2.7951989431
 20
6.7526857788
 30
0.0
  0
VERTEX
  5
23F
330
18C
100
AcDbEntity
  8
0
  6
HIDDEN
 62
     7
100
AcDbVertex
100
AcDb2dVertex
 10
2.7951759552
 20
6.7526857923
 30
0.0
  0
VERTEX
  5
240
330
18C
100
AcDbEntity
  8
0
  6
HIDDEN
 62
     7
100
AcDbVertex
100
AcDb2dVertex
 10
2.7951644642
 20
6.7526857966
 30
0.0
  0
VERTEX
  5
241
330
18C
100
AcDbEntity
  8
0
  6
HIDDEN
 62
     7
100
AcDbVertex
100
AcDb2dVertex
 10
2.7951587194
 20
6.7526857982
 30
0.0
  0
VERTEX
  5
242
330
18C
100
AcDbEntity
  8
0
  6
HIDDEN
 62
     7
100
AcDbVertex
100
AcDb2dVertex
 10
2.7951558472
 20
6.7526857988
 30
0.0
  0
VERTEX
  5
243
330
18C
100
AcDbEntity
  8
0
  6
HIDDEN
 62
     7
100
AcDbVertex
100
AcDb2dVertex
 10
2.7951544112
 20
6.7526857991
 30
0.0
  0
VERTEX
  5
244
330
18C
100
AcDbEntity
  8
0
  6
HIDDEN
 62
     7
100
AcDbVertex
100
AcDb2dVertex
 10
2.7951529752
 20
6.7526857993
 30
0.0
  0
VERTEX
  5
245
330
18C
100
AcDbEntity
  8
0
  6
HIDDEN
 62
     7
100
AcDbVertex
100
AcDb2dVertex
 10
2.7951465078
 20
6.7526858001
 30
0.0
  0
VERTEX
  5
246
330
18C
100
AcDbEntity
  8
0
  6
HIDDEN
 62
     7
100
AcDbVertex
100
AcDb2dVertex
 10
2.7951432741
 20
6.7526858003
 30
0.0
  0
VERTEX
  5
247
330
18C
100
AcDbEntity
  8
0
  6
HIDDEN
 62
     7
100
AcDbVertex
100
AcDb2dVertex
 10
2.7951416572
 20
6.7526858003
 30
0.0
  0
VERTEX
  5
248
330
18C
100
AcDbEntity
  8
0
  6
HIDDEN
 62
     7
100
AcDbVertex
100
AcDb2dVertex
 10
2.7951408488
 20
6.7526858003
 30
0.0
  0
VERTEX
  5
249
330
18C
100
AcDbEntity
  8
0
  6
HIDDEN
 62
     7
100
AcDbVertex
100
AcDb2dVertex
 10
2.7951400404
 20
6.7526858003
 30
0.0
  0
VERTEX
  5
24A
330
18C
100
AcDbEntity
  8
0
  6
HIDDEN
 62
     7
100
AcDbVertex
100
AcDb2dVertex
 10
2.7680970429
 20
6.7480203129
 30
0.0
  0
VERTEX
  5
24B
330
18C
100
AcDbEntity
  8
0
  6
HIDDEN
 62
     7
100
AcDbVertex
100
AcDb2dVertex
 10
2.7529142817
 20
6.7407584833
 30
0.0
  0
VERTEX
  5
24C
330
18C
100
AcDbEntity
  8
0
  6
HIDDEN
 62
     7
100
AcDbVertex
100
AcDb2dVertex
 10
2.738111176
 20
6.7290875289
 30
0.0
  0
VERTEX
  5
24D
330
18C
100
AcDbEntity
  8
0
  6
HIDDEN
 62
     7
100
AcDbVertex
100
AcDb2dVertex
 10
2.7264898914
 20
6.7144158603
 30
0.0
  0
VERTEX
  5
24E
330
18C
100
AcDbEntity
  8
0
  6
HIDDEN
 62
     7
100
AcDbVertex
100
AcDb2dVertex
 10
2.7191924007
 20
6.6992872846
 30
0.0
  0
VERTEX
  5
24F
330
18C
100
AcDbEntity
  8
0
  6
HIDDEN
 62
     7
100
AcDbVertex
100
AcDb2dVertex
 10
2.714431379
 20
6.6719771389
 30
0.0
  0
VERTEX
  5
250
330
18C
100
AcDbEntity
  8
0
  6
HIDDEN
 62
     7
100
AcDbVertex
100
AcDb2dVertex
 10
2.714431379
 20
6.6719771389
 30
0.0
  0
SEQEND
  5
251
330
18C
100
AcDbEntity
  8
0
  6
HIDDEN
 62
     7
  0
SPLINE
  5
18D
330
1F
100
AcDbEntity
  8
0
  6
HIDDEN
 62
     7
100
AcDbSpline
210
0.0
220
0.0
230
1.0
 70
     8
 71
     3
 72
    29
 73
    25
 74
     0
 42
0.00000001
 43
0.00000001
 40
-0.1252103047703276
 40
-0.0765728687021338
 40
-0.034858389324348
 40
0.0
 40
0.0348986407439175
 40
0.076564863914146
 40
0.1250660257916051
 40
0.1741030523533741
 40
0.2158106912463101
 40
0.2502521522802574
 40
0.3044995181055363
 40
0.3749677559414125
 40
0.4235549492517729
 40
0.4652334062602818
 40
0.5000697443279919
 40
0.5548953807099093
 40
0.6249680555248107
 40
0.6739561636637962
 40
0.7156433850314697
 40
0.7500932327233305
 40
0.7501187336649681
 40
0.8043850744313419
 40
0.8747896952296724
 40
0.9234271312978662
 40
0.965141610675652
 40
1.0
 40
1.034898640743917
 40
1.076564863914146
 40
1.125066025791605
 10
3.77885202895972
 20
6.690850747152878
 30
0.0
 10
3.776772171534763
 20
6.671970463218543
 30
0.0
 10
3.778854729809256
 20
6.653097445470402
 30
0.0
 10
3.78617737423444
 20
6.633088799637888
 30
0.0
 10
3.800196604312447
 20
6.613992922169539
 30
0.0
 10
3.819307965812218
 20
6.599970729175077
 30
0.0
 10
3.839352134699426
 20
6.592686361672012
 30
0.0
 10
3.86142204489631
 20
6.590262526717005
 30
0.0
 10
3.888464716929626
 20
6.594893786010648
 30
0.0
 10
3.913879564334755
 20
6.611002738922544
 30
0.0
 10
3.930047879200151
 20
6.633020040615989
 30
0.0
 10
3.937393337004165
 20
6.653035807013448
 30
0.0
 10
3.939870504476146
 20
6.67526450975542
 30
0.0
 10
3.935180143752185
 20
6.702414277466427
 30
0.0
 10
3.918971373714814
 20
6.727871652506791
 30
0.0
 10
3.896909723351553
 20
6.743999446205525
 30
0.0
 10
3.876879669540342
 20
6.751279532672632
 30
0.0
 10
3.863965408159848
 20
6.752685332060787
 30
0.0
 10
3.848961379688013
 20
6.752686537435225
 30
0.0
 10
3.827738854575426
 20
6.749038793078607
 30
0.0
 10
3.802351263548848
 20
6.732918304820156
 30
0.0
 10
3.786188500046965
 20
6.710886498759835
 30
0.0
 10
3.77885202895972
 20
6.690850747152878
 30
0.0
 10
3.776772171534763
 20
6.671970463218543
 30
0.0
 10
3.778854729809256
 20
6.653097445470402
 30
0.0
  0
LINE
  5
18E
330
1F
100
AcDbEntity
  8
0
  6
HIDDEN
 62
     7
100
AcDbLine
 10
3.4266361034
 20
6.8200873751
 30
0.0
 11
3.4266361034
 21
6.5238669027
 31
0.0
  0
LINE
  5
18F
330
1F
100
AcDbEntity
  8
0
  6
HIDDEN
 62
     7
100
AcDbLine
 10
3.2266361034
 20
6.8200873751
 30
0.0
 11
3.2266361034
 21
6.5238669027
 31
0.0
  0
SPLINE
  5
190
330
1F
100
AcDbEntity
  8
0
  6
HIDDEN
 62
     7
100
AcDbSpline
210
0.0
220
0.0
230
1.0
 70
     8
 71
     3
 72
    28
 73
    24
 74
     0
 42
0.00000001
 43
0.00000001
 40
0.0
 40
0.0
 40
0.0
 40
0.0
 40
0.0452537144490917
 40
0.0919767856049798
 40
0.1371975430149069
 40
0.1835433895237754
 40
0.2328061293184835
 40
0.2831263308421106
 40
0.3403366931966707
 40
0.3993130647050774
 40
0.4393588450740481
 40
0.4804661209119009
 40
0.5205588441225173
 40
0.5619681485338249
 40
0.6001370663747188
 40
0.6390781486635612
 40
0.6960062183199418
 40
0.754571820742423
 40
0.8119223131440985
 40
0.8711090099723062
 40
0.9157754483701523
 40
0.9616818815781433
 40
1.0
 40
1.0
 40
1.0
 40
1.0
 10
3.777423504959356
 20
6.790087375136899
 30
0.0
 10
3.777593884323021
 20
6.789970617459956
 30
0.0
 10
3.777940175150063
 20
6.789733311065319
 30
0.0
 10
3.780695235661753
 20
6.787866499583037
 30
0.0
 10
3.784958734164845
 20
6.785051574006673
 30
0.0
 10
3.790787650684237
 20
6.78135055462269
 30
0.0
 10
3.798191517571573
 20
6.776924575324135
 30
0.0
 10
3.80750318281874
 20
6.77184736023453
 30
0.0
 10
3.818806101678559
 20
6.766525596164757
 30
0.0
 10
3.830763594028239
 20
6.762201902176647
 30
0.0
 10
3.842365298649757
 20
6.759442450508422
 30
0.0
 10
3.85287592192597
 20
6.758149211861312
 30
0.0
 10
3.863677121361989
 20
6.75816587742678
 30
0.0
 10
3.874042180740465
 20
6.759476947169422
 30
0.0
 10
3.883848578247911
 20
6.761815859117992
 30
0.0
 10
3.894279345864518
 20
6.76529658248296
 30
0.0
 10
3.905252133395409
 20
6.770070918438003
 30
0.0
 10
3.915995236885717
 20
6.775716318342887
 30
0.0
 10
3.925163071814622
 20
6.781134807355659
 30
0.0
 10
3.931799611060829
 20
6.785369798260174
 30
0.0
 10
3.936113755528654
 20
6.78823287852027
 30
0.0
 10
3.938480616360573
 20
6.789840700521152
 30
0.0
 10
3.938656285158093
 20
6.789961193332485
 30
0.0
 10
3.938736206008441
 20
6.790016011763979
 30
0.0
  0
SPLINE
  5
191
330
1F
100
AcDbEntity
  8
0
  6
HIDDEN
 62
     7
100
AcDbSpline
210
0.0
220
0.0
230
1.0
 70
     8
 71
     3
 72
    28
 73
    24
 74
     0
 42
0.00000001
 43
0.00000001
 40
0.0
 40
0.0
 40
0.0
 40
0.0
 40
0.0452537144490918
 40
0.0919767856049798
 40
0.1371975430149069
 40
0.1835433895237754
 40
0.2328061293184833
 40
0.2831263308421105
 40
0.3403366931966707
 40
0.3993130647050774
 40
0.4393588450740481
 40
0.4804661209119009
 40
0.5205588441225172
 40
0.5619681485338248
 40
0.6001370663747186
 40
0.639078148663561
 40
0.6960062183199415
 40
0.754571820742423
 40
0.8119223131440985
 40
0.8711090099723062
 40
0.9157754483701522
 40
0.9616818815781432
 40
1.0
 40
1.0
 40
1.0
 40
1.0
 10
2.714431378975104
 20
6.790087375136899
 30
0.0
 10
2.714601758338768
 20
6.789970617459956
 30
0.0
 10
2.714948049165811
 20
6.789733311065319
 30
0.0
 10
2.717703109677501
 20
6.787866499583037
 30
0.0
 10
2.721966608180594
 20
6.785051574006673
 30
0.0
 10
2.727795524699985
 20
6.78135055462269
 30
0.0
 10
2.735199391587321
 20
6.776924575324135
 30
0.0
 10
2.744511056834488
 20
6.77184736023453
 30
0.0
 10
2.755813975694307
 20
6.766525596164757
 30
0.0
 10
2.767771468043987
 20
6.762201902176647
 30
0.0
 10
2.779373172665505
 20
6.759442450508422
 30
0.0
 10
2.789883795941718
 20
6.758149211861312
 30
0.0
 10
2.800684995377737
 20
6.75816587742678
 30
0.0
 10
2.811050054756213
 20
6.759476947169422
 30
0.0
 10
2.820856452263659
 20
6.761815859117992
 30
0.0
 10
2.831287219880266
 20
6.76529658248296
 30
0.0
 10
2.842260007411157
 20
6.770070918438003
 30
0.0
 10
2.853003110901465
 20
6.775716318342887
 30
0.0
 10
2.86217094583037
 20
6.781134807355659
 30
0.0
 10
2.868807485076577
 20
6.785369798260174
 30
0.0
 10
2.873121629544402
 20
6.78823287852027
 30
0.0
 10
2.875488490376321
 20
6.789840700521153
 30
0.0
 10
2.875664159173841
 20
6.789961193332485
 30
0.0
 10
2.875744080024189
 20
6.790016011763979
 30
0.0
  0
LINE
  5
192
330
1F
100
AcDbEntity
  8
0
  6
HIDDEN
 62
     7
100
AcDbLine
 10
3.9388408278
 20
7.1244180838
 30
0.0
 11
3.777423505
 21
7.1244180838
 31
0.0
  0
LINE
  5
193
330
1F
100
AcDbEntity
  8
0
  6
HIDDEN
 62
     7
100
AcDbLine
 10
3.777423505
 20
6.8100873751
 30
0.0
 11
3.9388408278
 21
6.8100873751
 31
0.0
  0
LINE
  5
194
330
1F
100
AcDbEntity
  8
0
  6
HIDDEN
 62
     7
100
AcDbLine
 10
3.9188408278
 20
6.7900873751
 30
0.0
 11
3.797423505
 21
6.7900873751
 31
0.0
  0
LINE
  5
195
330
1F
100
AcDbEntity
  8
0
  6
HIDDEN
 62
     7
100
AcDbLine
 10
3.8581321664
 20
7.0444180838
 30
0.0
 11
3.8581321664
 21
7.1444180838
 31
0.0
  0
LINE
  5
196
330
1F
100
AcDbEntity
  8
0
  6
HIDDEN
 62
     7
100
AcDbLine
 10
3.8150136237
 20
7.0444180838
 30
0.0
 11
3.8581321664
 21
7.0444180838
 31
0.0
  0
LINE
  5
197
330
1F
100
AcDbEntity
  8
0
  6
HIDDEN
 62
     7
100
AcDbLine
 10
3.8581321664
 20
7.0444180838
 30
0.0
 11
3.901250709
 21
7.0444180838
 31
0.0
  0
LINE
  5
198
330
1F
100
AcDbEntity
  8
0
  6
HIDDEN
 62
     7
100
AcDbLine
 10
3.901250709
 20
7.0444180838
 30
0.0
 11
3.901250709
 21
7.1444180838
 31
0.0
  0
LINE
  5
199
330
1F
100
AcDbEntity
  8
0
  6
HIDDEN
 62
     7
100
AcDbLine
 10
3.8150136237
 20
7.0444180838
 30
0.0
 11
3.8150136237
 21
7.1444180838
 31
0.0
  0
LINE
  5
19A
330
1F
100
AcDbEntity
  8
0
  6
HIDDEN
 62
     7
100
AcDbLine
 10
2.714431379
 20
7.1244180838
 30
0.0
 11
2.8758487018
 21
7.1244180838
 31
0.0
  0
LINE
  5
19B
330
1F
100
AcDbEntity
  8
0
  6
HIDDEN
 62
     7
100
AcDbLine
 10
2.8758487018
 20
6.8100873751
 30
0.0
 11
2.714431379
 21
6.8100873751
 31
0.0
  0
LINE
  5
19C
330
1F
100
AcDbEntity
  8
0
  6
HIDDEN
 62
     7
100
AcDbLine
 10
2.734431379
 20
6.7900873751
 30
0.0
 11
2.8558487018
 21
6.7900873751
 31
0.0
  0
LINE
  5
19D
330
1F
100
AcDbEntity
  8
0
  6
HIDDEN
 62
     7
100
AcDbLine
 10
2.7951400404
 20
7.0444180838
 30
0.0
 11
2.7951400404
 21
7.1444180838
 31
0.0
  0
LINE
  5
19E
330
1F
100
AcDbEntity
  8
0
  6
HIDDEN
 62
     7
100
AcDbLine
 10
2.7951400404
 20
7.0444180838
 30
0.0
 11
2.7520214978
 21
7.0444180838
 31
0.0
  0
LINE
  5
19F
330
1F
100
AcDbEntity
  8
0
  6
HIDDEN
 62
     7
100
AcDbLine
 10
2.838258583
 20
7.0444180838
 30
0.0
 11
2.7951400404
 21
7.0444180838
 31
0.0
  0
LINE
  5
1A0
330
1F
100
AcDbEntity
  8
0
  6
HIDDEN
 62
     7
100
AcDbLine
 10
2.7520214978
 20
7.0444180838
 30
0.0
 11
2.7520214978
 21
7.1444180838
 31
0.0
  0
LINE
  5
1A1
330
1F
100
AcDbEntity
  8
0
  6
HIDDEN
 62
     7
100
AcDbLine
 10
2.838258583
 20
7.0444180838
 30
0.0
 11
2.838258583
 21
7.1444180838
 31
0.0
  0
LINE
  5
1A2
330
1F
100
AcDbEntity
  8
0
  6
HIDDEN
 62
     7
100
AcDbLine
 10
3.4266361034
 20
6.8200873751
 30
0.0
 11
3.2266361034
 21
6.8200873751
 31
0.0
  0
LINE
  5
1A3
330
1F
100
AcDbEntity
  8
0
  6
HIDDEN
 62
     7
100
AcDbLine
 10
3.2266361034
 20
6.5238669027
 30
0.0
 11
3.4266361034
 21
6.5238669027
 31
0.0
  0
LINE
  5
1A4
330
1F
100
AcDbEntity
  8
0
  6
HIDDEN
 62
     7
100
AcDbLine
 10
2.5982896467
 20
6.5238669027
 30
0.0
 11
2.6282896467
 21
6.5538669027
 31
0.0
  0
LINE
  5
1A5
330
1F
100
AcDbEntity
  8
0
  6
HIDDEN
 62
     7
100
AcDbLine
 10
2.6282896467
 20
6.7900873751
 30
0.0
 11
2.5982896467
 21
6.8200873751
 31
0.0
  0
LINE
  5
1A6
330
1F
100
AcDbEntity
  8
0
  6
HIDDEN
 62
     7
100
AcDbLine
 10
4.0549825601
 20
6.8200873751
 30
0.0
 11
4.0249825601
 21
6.7900873751
 31
0.0
  0
LINE
  5
1A7
330
1F
100
AcDbEntity
  8
0
  6
HIDDEN
 62
     7
100
AcDbLine
 10
4.0249825601
 20
6.5538669027
 30
0.0
 11
4.0549825601
 21
6.5238669027
 31
0.0
  0
LINE
  5
1A8
330
1F
100
AcDbEntity
  8
0
  6
HIDDEN
 62
     7
100
AcDbLine
 10
3.777423505
 20
6.7900873751
 30
0.0
 11
3.4266361034
 21
6.7900873751
 31
0.0
  0
LINE
  5
1A9
330
1F
100
AcDbEntity
  8
0
  6
HIDDEN
 62
     7
100
AcDbLine
 10
4.0249825601
 20
6.7900873751
 30
0.0
 11
3.938736206
 21
6.7900873751
 31
0.0
  0
LINE
  5
1AA
330
1F
100
AcDbEntity
  8
0
  6
HIDDEN
 62
     7
100
AcDbLine
 10
3.4266361034
 20
6.5538669027
 30
0.0
 11
4.0249825601
 21
6.5538669027
 31
0.0
  0
LINE
  5
1AB
330
1F
100
AcDbEntity
  8
0
  6
HIDDEN
 62
     7
100
AcDbLine
 10
2.714431379
 20
6.7900873751
 30
0.0
 11
2.6282896467
 21
6.7900873751
 31
0.0
  0
LINE
  5
1AC
330
1F
100
AcDbEntity
  8
0
  6
HIDDEN
 62
     7
100
AcDbLine
 10
3.2266361034
 20
6.7900873751
 30
0.0
 11
2.87574408
 21
6.7900873751
 31
0.0
  0
LINE
  5
1AD
330
1F
100
AcDbEntity
  8
0
  6
HIDDEN
 62
     7
100
AcDbLine
 10
2.6282896467
 20
6.5538669027
 30
0.0
 11
3.2266361034
 21
6.5538669027
 31
0.0
  0
LINE
  5
1AE
330
1F
100
AcDbEntity
  8
0
  6
HIDDEN
 62
     7
100
AcDbLine
 10
3.9388408278
 20
6.790016115
 30
0.0
 11
3.9388408278
 21
7.1444180838
 31
0.0
  0
LINE
  5
1AF
330
1F
100
AcDbEntity
  8
0
  6
HIDDEN
 62
     7
100
AcDbLine
 10
3.777423505
 20
7.1444180838
 30
0.0
 11
3.777423505
 21
6.7900873751
 31
0.0
  0
LINE
  5
1B0
330
1F
100
AcDbEntity
  8
0
  6
HIDDEN
 62
     7
100
AcDbLine
 10
2.8758487018
 20
6.790016115
 30
0.0
 11
2.8758487018
 21
7.1444180838
 31
0.0
  0
LINE
  5
1B1
330
1F
100
AcDbEntity
  8
0
  6
HIDDEN
 62
     7
100
AcDbLine
 10
2.714431379
 20
7.1444180838
 30
0.0
 11
2.714431379
 21
6.7900873751
 31
0.0
  0
LINE
  5
1B2
330
1F
100
AcDbEntity
  8
0
  6
HIDDEN
 62
     7
100
AcDbLine
 10
3.9388408278
 20
7.1244180838
 30
0.0
 11
3.9214816586
 21
7.141777253
 31
0.0
  0
LINE
  5
1B3
330
1F
100
AcDbEntity
  8
0
  6
HIDDEN
 62
     7
100
AcDbLine
 10
3.7947876048
 20
7.1417821836
 30
0.0
 11
3.777423505
 21
7.1244180838
 31
0.0
  0
LINE
  5
1B4
330
1F
100
AcDbEntity
  8
0
  6
HIDDEN
 62
     7
100
AcDbLine
 10
3.9388408278
 20
6.8100873751
 30
0.0
 11
3.9388408278
 21
7.1244180838
 31
0.0
  0
LINE
  5
1B5
330
1F
100
AcDbEntity
  8
0
  6
HIDDEN
 62
     7
100
AcDbLine
 10
3.777423505
 20
7.1244180838
 30
0.0
 11
3.777423505
 21
6.8100873751
 31
0.0
  0
LINE
  5
1B6
330
1F
100
AcDbEntity
  8
0
  6
HIDDEN
 62
     7
100
AcDbLine
 10
3.777423505
 20
6.8100873751
 30
0.0
 11
3.797423505
 21
6.7900873751
 31
0.0
  0
LINE
  5
1B7
330
1F
100
AcDbEntity
  8
0
  6
HIDDEN
 62
     7
100
AcDbLine
 10
3.9188408278
 20
6.7900873751
 30
0.0
 11
3.9388408278
 21
6.8100873751
 31
0.0
  0
LINE
  5
1B8
330
1F
100
AcDbEntity
  8
0
  6
HIDDEN
 62
     7
100
AcDbLine
 10
2.8758487018
 20
7.1244180838
 30
0.0
 11
2.8584895326
 21
7.141777253
 31
0.0
  0
LINE
  5
1B9
330
1F
100
AcDbEntity
  8
0
  6
HIDDEN
 62
     7
100
AcDbLine
 10
2.7317954788
 20
7.1417821836
 30
0.0
 11
2.714431379
 21
7.1244180838
 31
0.0
  0
LINE
  5
1BA
330
1F
100
AcDbEntity
  8
0
  6
HIDDEN
 62
     7
100
AcDbLine
 10
2.8758487018
 20
6.8100873751
 30
0.0
 11
2.8758487018
 21
7.1244180838
 31
0.0
  0
LINE
  5
1BB
330
1F
100
AcDbEntity
  8
0
  6
HIDDEN
 62
     7
100
AcDbLine
 10
2.714431379
 20
7.1244180838
 30
0.0
 11
2.714431379
 21
6.8100873751
 31
0.0
  0
LINE
  5
1BC
330
1F
100
AcDbEntity
  8
0
  6
HIDDEN
 62
     7
100
AcDbLine
 10
2.714431379
 20
6.8100873751
 30
0.0
 11
2.734431379
 21
6.7900873751
 31
0.0
  0
LINE
  5
1BD
330
1F
100
AcDbEntity
  8
0
  6
HIDDEN
 62
     7
100
AcDbLine
 10
2.8558487018
 20
6.7900873751
 30
0.0
 11
2.8758487018
 21
6.8100873751
 31
0.0
  0
LINE
  5
1BE
330
1F
100
AcDbEntity
  8
0
  6
CONTINUOUS
 62
     7
100
AcDbLine
 10
8.6674001993
 20
6.178428432
 30
0.0
 11
8.688609955
 21
6.190676544
 31
0.0
  0
LINE
  5
1BF
330
1F
100
AcDbEntity
  8
0
  6
CONTINUOUS
 62
     7
100
AcDbLine
 10
9.0014121
 20
6.7325244622
 30
0.0
 11
9.0014121
 21
6.7570167056
 31
0.0
  0
LINE
  5
1C0
330
1F
100
AcDbEntity
  8
0
  6
CONTINUOUS
 62
     7
100
AcDbLine
 10
7.4435335984
 20
6.7251431649
 30
0.0
 11
8.4311446287
 21
6.1550074528
 31
0.0
  0
LINE
  5
1C1
330
1F
100
AcDbEntity
  8
0
  6
CONTINUOUS
 62
     7
100
AcDbLine
 10
8.9035471796
 20
6.9733213385
 30
0.0
 11
7.9159361493
 21
7.5434570506
 31
0.0
  0
LINE
  5
1C2
330
1F
100
AcDbEntity
  8
0
  6
CONTINUOUS
 62
     7
100
AcDbLine
 10
7.6796805787
 20
7.5200360715
 30
0.0
 11
7.658470823
 21
7.5077879595
 31
0.0
  0
LINE
  5
1C3
330
1F
100
AcDbEntity
  8
0
  6
CONTINUOUS
 62
     7
100
AcDbLine
 10
7.345668678
 20
6.9659400413
 30
0.0
 11
7.345668678
 21
6.9414477979
 31
0.0
  0
LINE
  5
1C4
330
1F
100
AcDbEntity
  8
0
  6
CONTINUOUS
 62
     7
100
AcDbLine
 10
8.6376190642
 20
6.6281795005
 30
0.0
 11
8.6470142685
 21
6.6227540012
 31
0.0
  0
LINE
  5
1C5
330
1F
100
AcDbEntity
  8
0
  6
CONTINUOUS
 62
     7
100
AcDbLine
 10
7.8547948336
 20
7.4685678456
 30
0.0
 11
7.8406504001
 21
7.4767359075
 31
0.0
  0
LINE
  5
1C6
330
1F
100
AcDbEntity
  8
0
  6
CONTINUOUS
 62
     7
100
AcDbLine
 10
7.7547814373
 20
7.4767359075
 30
0.0
 11
7.7406370037
 21
7.4685678456
 31
0.0
  0
LINE
  5
1C7
330
1F
100
AcDbEntity
  8
0
  6
CONTINUOUS
 62
     7
100
AcDbLine
 10
7.8784245801
 20
7.4177783208
 30
0.0
 11
7.8784245801
 21
7.4356275968
 31
0.0
  0
LINE
  5
1C8
330
1F
100
AcDbEntity
  8
0
  6
CONTINUOUS
 62
     7
100
AcDbLine
 10
7.7170072573
 20
7.4356275968
 30
0.0
 11
7.7170072573
 21
7.4217792564
 31
0.0
  0
LINE
  5
1C9
330
1F
100
AcDbEntity
  8
0
  6
CONTINUOUS
 62
     7
100
AcDbLine
 10
8.6064437743
 20
7.0346501484
 30
0.0
 11
8.5922993407
 21
7.0428182103
 31
0.0
  0
LINE
  5
1CA
330
1F
100
AcDbEntity
  8
0
  6
CONTINUOUS
 62
     7
100
AcDbLine
 10
8.5064303779
 20
7.0428182103
 30
0.0
 11
8.4922859444
 21
7.0346501484
 31
0.0
  0
LINE
  5
1CB
330
1F
100
AcDbEntity
  8
0
  6
CONTINUOUS
 62
     7
100
AcDbLine
 10
8.6300735207
 20
6.9838606236
 30
0.0
 11
8.6300735207
 21
7.0017098996
 31
0.0
  0
LINE
  5
1CC
330
1F
100
AcDbEntity
  8
0
  6
CONTINUOUS
 62
     7
100
AcDbLine
 10
8.4686561979
 20
7.0017098996
 30
0.0
 11
8.4686561979
 21
6.9878615592
 31
0.0
  0
POLYLINE
  5
1CD
330
1F
100
AcDbEntity
  8
0
  6
CONTINUOUS
 62
     7
100
AcDb2dPolyline
 66
     1
 10
0.0
 20
0.0
 30
0.0
  0
VERTEX
  5
252
330
1CD
100
AcDbEntity
  8
0
  6
CONTINUOUS
 62
     7
100
AcDbVertex
100
AcDb2dVertex
 10
9.0014121
 20
6.7325244622
 30
0.0
  0
VERTEX
  5
253
330
1CD
100
AcDbEntity
  8
0
  6
CONTINUOUS
 62
     7
100
AcDbVertex
100
AcDb2dVertex
 10
9.0009285946
 20
6.7523228954
 30
0.0
  0
VERTEX
  5
254
330
1CD
100
AcDbEntity
  8
0
  6
CONTINUOUS
 62
     7
100
AcDbVertex
100
AcDb2dVertex
 10
8.9994795731
 20
6.7715018894
 30
0.0
  0
VERTEX
  5
255
330
1CD
100
AcDbEntity
  8
0
  6
CONTINUOUS
 62
     7
100
AcDbVertex
100
AcDb2dVertex
 10
8.9970695143
 20
6.790002163
 30
0.0
  0
VERTEX
  5
256
330
1CD
100
AcDbEntity
  8
0
  6
CONTINUOUS
 62
     7
100
AcDbVertex
100
AcDb2dVertex
 10
8.9937058674
 20
6.807766533
 30
0.0
  0
VERTEX
  5
257
330
1CD
100
AcDbEntity
  8
0
  6
CONTINUOUS
 62
     7
100
AcDbVertex
100
AcDb2dVertex
 10
8.9893990294
 20
6.8247400906
 30
0.0
  0
VERTEX
  5
258
330
1CD
100
AcDbEntity
  8
0
  6
CONTINUOUS
 62
     7
100
AcDbVertex
100
AcDb2dVertex
 10
8.9841623125
 20
6.8408703717
 30
0.0
  0
VERTEX
  5
259
330
1CD
100
AcDbEntity
  8
0
  6
CONTINUOUS
 62
     7
100
AcDbVertex
100
AcDb2dVertex
 10
8.978011903
 20
6.8561075184
 30
0.0
  0
VERTEX
  5
25A
330
1CD
100
AcDbEntity
  8
0
  6
CONTINUOUS
 62
     7
100
AcDbVertex
100
AcDb2dVertex
 10
8.9709668114
 20
6.8704044335
 30
0.0
  0
VERTEX
  5
25B
330
1CD
100
AcDbEntity
  8
0
  6
CONTINUOUS
 62
     7
100
AcDbVertex
100
AcDb2dVertex
 10
8.9630488139
 20
6.8837169262
 30
0.0
  0
VERTEX
  5
25C
330
1CD
100
AcDbEntity
  8
0
  6
CONTINUOUS
 62
     7
100
AcDbVertex
100
AcDb2dVertex
 10
8.9542823844
 20
6.8960038483
 30
0.0
  0
VERTEX
  5
25D
330
1CD
100
AcDbEntity
  8
0
  6
CONTINUOUS
 62
     7
100
AcDbVertex
100
AcDb2dVertex
 10
8.9446946195
 20
6.9072272216
 30
0.0
  0
VERTEX
  5
25E
330
1CD
100
AcDbEntity
  8
0
  6
CONTINUOUS
 62
     7
100
AcDbVertex
100
AcDb2dVertex
 10
8.9343151544
 20
6.9173523553
 30
0.0
  0
VERTEX
  5
25F
330
1CD
100
AcDbEntity
  8
0
  6
CONTINUOUS
 62
     7
100
AcDbVertex
100
AcDb2dVertex
 10
8.9231760714
 20
6.9263479531
 30
0.0
  0
VERTEX
  5
260
330
1CD
100
AcDbEntity
  8
0
  6
CONTINUOUS
 62
     7
100
AcDbVertex
100
AcDb2dVertex
 10
8.9113118008
 20
6.9341862103
 30
0.0
  0
VERTEX
  5
261
330
1CD
100
AcDbEntity
  8
0
  6
CONTINUOUS
 62
     7
100
AcDbVertex
100
AcDb2dVertex
 10
8.8987590145
 20
6.9408428993
 30
0.0
  0
VERTEX
  5
262
330
1CD
100
AcDbEntity
  8
0
  6
CONTINUOUS
 62
     7
100
AcDbVertex
100
AcDb2dVertex
 10
8.8855565122
 20
6.9462974444
 30
0.0
  0
VERTEX
  5
263
330
1CD
100
AcDbEntity
  8
0
  6
CONTINUOUS
 62
     7
100
AcDbVertex
100
AcDb2dVertex
 10
8.8717451023
 20
6.9505329862
 30
0.0
  0
VERTEX
  5
264
330
1CD
100
AcDbEntity
  8
0
  6
CONTINUOUS
 62
     7
100
AcDbVertex
100
AcDb2dVertex
 10
8.857367475
 20
6.9535364328
 30
0.0
  0
VERTEX
  5
265
330
1CD
100
AcDbEntity
  8
0
  6
CONTINUOUS
 62
     7
100
AcDbVertex
100
AcDb2dVertex
 10
8.8424680707
 20
6.9552985006
 30
0.0
  0
VERTEX
  5
266
330
1CD
100
AcDbEntity
  8
0
  6
CONTINUOUS
 62
     7
100
AcDbVertex
100
AcDb2dVertex
 10
8.8270929425
 20
6.9558137433
 30
0.0
  0
VERTEX
  5
267
330
1CD
100
AcDbEntity
  8
0
  6
CONTINUOUS
 62
     7
100
AcDbVertex
100
AcDb2dVertex
 10
8.8112896143
 20
6.9550805682
 30
0.0
  0
VERTEX
  5
268
330
1CD
100
AcDbEntity
  8
0
  6
CONTINUOUS
 62
     7
100
AcDbVertex
100
AcDb2dVertex
 10
8.7951069331
 20
6.9531012416
 30
0.0
  0
VERTEX
  5
269
330
1CD
100
AcDbEntity
  8
0
  6
CONTINUOUS
 62
     7
100
AcDbVertex
100
AcDb2dVertex
 10
8.7785949186
 20
6.9498818814
 30
0.0
  0
VERTEX
  5
26A
330
1CD
100
AcDbEntity
  8
0
  6
CONTINUOUS
 62
     7
100
AcDbVertex
100
AcDb2dVertex
 10
8.7618046087
 20
6.9454324385
 30
0.0
  0
VERTEX
  5
26B
330
1CD
100
AcDbEntity
  8
0
  6
CONTINUOUS
 62
     7
100
AcDbVertex
100
AcDb2dVertex
 10
8.7447879011
 20
6.9397666658
 30
0.0
  0
VERTEX
  5
26C
330
1CD
100
AcDbEntity
  8
0
  6
CONTINUOUS
 62
     7
100
AcDbVertex
100
AcDb2dVertex
 10
8.7275973935
 20
6.9329020761
 30
0.0
  0
VERTEX
  5
26D
330
1CD
100
AcDbEntity
  8
0
  6
CONTINUOUS
 62
     7
100
AcDbVertex
100
AcDb2dVertex
 10
8.7102862208
 20
6.9248598872
 30
0.0
  0
VERTEX
  5
26E
330
1CD
100
AcDbEntity
  8
0
  6
CONTINUOUS
 62
     7
100
AcDbVertex
100
AcDb2dVertex
 10
8.6929078908
 20
6.9156649572
 30
0.0
  0
VERTEX
  5
26F
330
1CD
100
AcDbEntity
  8
0
  6
CONTINUOUS
 62
     7
100
AcDbVertex
100
AcDb2dVertex
 10
8.675516119
 20
6.905345707
 30
0.0
  0
VERTEX
  5
270
330
1CD
100
AcDbEntity
  8
0
  6
CONTINUOUS
 62
     7
100
AcDbVertex
100
AcDb2dVertex
 10
8.6581646623
 20
6.8939340328
 30
0.0
  0
VERTEX
  5
271
330
1CD
100
AcDbEntity
  8
0
  6
CONTINUOUS
 62
     7
100
AcDbVertex
100
AcDb2dVertex
 10
8.6409071532
 20
6.8814652076
 30
0.0
  0
VERTEX
  5
272
330
1CD
100
AcDbEntity
  8
0
  6
CONTINUOUS
 62
     7
100
AcDbVertex
100
AcDb2dVertex
 10
8.6237969334
 20
6.8679777717
 30
0.0
  0
VERTEX
  5
273
330
1CD
100
AcDbEntity
  8
0
  6
CONTINUOUS
 62
     7
100
AcDbVertex
100
AcDb2dVertex
 10
8.6068868899
 20
6.853513414
 30
0.0
  0
VERTEX
  5
274
330
1CD
100
AcDbEntity
  8
0
  6
CONTINUOUS
 62
     7
100
AcDbVertex
100
AcDb2dVertex
 10
8.5902292905
 20
6.838116843
 30
0.0
  0
VERTEX
  5
275
330
1CD
100
AcDbEntity
  8
0
  6
CONTINUOUS
 62
     7
100
AcDbVertex
100
AcDb2dVertex
 10
8.5738756229
 20
6.8218356486
 30
0.0
  0
VERTEX
  5
276
330
1CD
100
AcDbEntity
  8
0
  6
CONTINUOUS
 62
     7
100
AcDbVertex
100
AcDb2dVertex
 10
8.5578764354
 20
6.8047201551
 30
0.0
  0
VERTEX
  5
277
330
1CD
100
AcDbEntity
  8
0
  6
CONTINUOUS
 62
     7
100
AcDbVertex
100
AcDb2dVertex
 10
8.5422811806
 20
6.7868232654
 30
0.0
  0
VERTEX
  5
278
330
1CD
100
AcDbEntity
  8
0
  6
CONTINUOUS
 62
     7
100
AcDbVertex
100
AcDb2dVertex
 10
8.5271380624
 20
6.7682002979
 30
0.0
  0
VERTEX
  5
279
330
1CD
100
AcDbEntity
  8
0
  6
CONTINUOUS
 62
     7
100
AcDbVertex
100
AcDb2dVertex
 10
8.5124938874
 20
6.748908815
 30
0.0
  0
VERTEX
  5
27A
330
1CD
100
AcDbEntity
  8
0
  6
CONTINUOUS
 62
     7
100
AcDbVertex
100
AcDb2dVertex
 10
8.49839392
 20
6.7290084457
 30
0.0
  0
VERTEX
  5
27B
330
1CD
100
AcDbEntity
  8
0
  6
CONTINUOUS
 62
     7
100
AcDbVertex
100
AcDb2dVertex
 10
8.4848817422
 20
6.7085607008
 30
0.0
  0
VERTEX
  5
27C
330
1CD
100
AcDbEntity
  8
0
  6
CONTINUOUS
 62
     7
100
AcDbVertex
100
AcDb2dVertex
 10
8.4719991195
 20
6.6876287831
 30
0.0
  0
VERTEX
  5
27D
330
1CD
100
AcDbEntity
  8
0
  6
CONTINUOUS
 62
     7
100
AcDbVertex
100
AcDb2dVertex
 10
8.4597858714
 20
6.6662773921
 30
0.0
  0
VERTEX
  5
27E
330
1CD
100
AcDbEntity
  8
0
  6
CONTINUOUS
 62
     7
100
AcDbVertex
100
AcDb2dVertex
 10
8.4482797481
 20
6.6445725235
 30
0.0
  0
VERTEX
  5
27F
330
1CD
100
AcDbEntity
  8
0
  6
CONTINUOUS
 62
     7
100
AcDbVertex
100
AcDb2dVertex
 10
8.4375163146
 20
6.622581266
 30
0.0
  0
VERTEX
  5
280
330
1CD
100
AcDbEntity
  8
0
  6
CONTINUOUS
 62
     7
100
AcDbVertex
100
AcDb2dVertex
 10
8.42752884
 20
6.6003715932
 30
0.0
  0
VERTEX
  5
281
330
1CD
100
AcDbEntity
  8
0
  6
CONTINUOUS
 62
     7
100
AcDbVertex
100
AcDb2dVertex
 10
8.418348195
 20
6.578012154
 30
0.0
  0
VERTEX
  5
282
330
1CD
100
AcDbEntity
  8
0
  6
CONTINUOUS
 62
     7
100
AcDbVertex
100
AcDb2dVertex
 10
8.4100027565
 20
6.5555720601
 30
0.0
  0
VERTEX
  5
283
330
1CD
100
AcDbEntity
  8
0
  6
CONTINUOUS
 62
     7
100
AcDbVertex
100
AcDb2dVertex
 10
8.4025183196
 20
6.5331206725
 30
0.0
  0
VERTEX
  5
284
330
1CD
100
AcDbEntity
  8
0
  6
CONTINUOUS
 62
     7
100
AcDbVertex
100
AcDb2dVertex
 10
8.3959180185
 20
6.5107273873
 30
0.0
  0
VERTEX
  5
285
330
1CD
100
AcDbEntity
  8
0
  6
CONTINUOUS
 62
     7
100
AcDbVertex
100
AcDb2dVertex
 10
8.3902222542
 20
6.4884614207
 30
0.0
  0
VERTEX
  5
286
330
1CD
100
AcDbEntity
  8
0
  6
CONTINUOUS
 62
     7
100
AcDbVertex
100
AcDb2dVertex
 10
8.385448632
 20
6.4663915956
 30
0.0
  0
VERTEX
  5
287
330
1CD
100
AcDbEntity
  8
0
  6
CONTINUOUS
 62
     7
100
AcDbVertex
100
AcDb2dVertex
 10
8.3816119069
 20
6.4445861286
 30
0.0
  0
VERTEX
  5
288
330
1CD
100
AcDbEntity
  8
0
  6
CONTINUOUS
 62
     7
100
AcDbVertex
100
AcDb2dVertex
 10
8.378723938
 20
6.4231124191
 30
0.0
  0
VERTEX
  5
289
330
1CD
100
AcDbEntity
  8
0
  6
CONTINUOUS
 62
     7
100
AcDbVertex
100
AcDb2dVertex
 10
8.3767936519
 20
6.4020368411
 30
0.0
  0
VERTEX
  5
28A
330
1CD
100
AcDbEntity
  8
0
  6
CONTINUOUS
 62
     7
100
AcDbVertex
100
AcDb2dVertex
 10
8.3758270149
 20
6.3814245381
 30
0.0
  0
VERTEX
  5
28B
330
1CD
100
AcDbEntity
  8
0
  6
CONTINUOUS
 62
     7
100
AcDbVertex
100
AcDb2dVertex
 10
8.3758270149
 20
6.3613392214
 30
0.0
  0
VERTEX
  5
28C
330
1CD
100
AcDbEntity
  8
0
  6
CONTINUOUS
 62
     7
100
AcDbVertex
100
AcDb2dVertex
 10
8.3767936519
 20
6.3418429736
 30
0.0
  0
VERTEX
  5
28D
330
1CD
100
AcDbEntity
  8
0
  6
CONTINUOUS
 62
     7
100
AcDbVertex
100
AcDb2dVertex
 10
8.378723938
 20
6.3229960565
 30
0.0
  0
VERTEX
  5
28E
330
1CD
100
AcDbEntity
  8
0
  6
CONTINUOUS
 62
     7
100
AcDbVertex
100
AcDb2dVertex
 10
8.3816119069
 20
6.3048567249
 30
0.0
  0
VERTEX
  5
28F
330
1CD
100
AcDbEntity
  8
0
  6
CONTINUOUS
 62
     7
100
AcDbVertex
100
AcDb2dVertex
 10
8.385448632
 20
6.2874810464
 30
0.0
  0
VERTEX
  5
290
330
1CD
100
AcDbEntity
  8
0
  6
CONTINUOUS
 62
     7
100
AcDbVertex
100
AcDb2dVertex
 10
8.3902222542
 20
6.2709227282
 30
0.0
  0
VERTEX
  5
291
330
1CD
100
AcDbEntity
  8
0
  6
CONTINUOUS
 62
     7
100
AcDbVertex
100
AcDb2dVertex
 10
8.3959180185
 20
6.2552329512
 30
0.0
  0
VERTEX
  5
292
330
1CD
100
AcDbEntity
  8
0
  6
CONTINUOUS
 62
     7
100
AcDbVertex
100
AcDb2dVertex
 10
8.4025183196
 20
6.2404602114
 30
0.0
  0
VERTEX
  5
293
330
1CD
100
AcDbEntity
  8
0
  6
CONTINUOUS
 62
     7
100
AcDbVertex
100
AcDb2dVertex
 10
8.4100027565
 20
6.2266501707
 30
0.0
  0
VERTEX
  5
294
330
1CD
100
AcDbEntity
  8
0
  6
CONTINUOUS
 62
     7
100
AcDbVertex
100
AcDb2dVertex
 10
8.418348195
 20
6.2138455151
 30
0.0
  0
VERTEX
  5
295
330
1CD
100
AcDbEntity
  8
0
  6
CONTINUOUS
 62
     7
100
AcDbVertex
100
AcDb2dVertex
 10
8.42752884
 20
6.2020858229
 30
0.0
  0
VERTEX
  5
296
330
1CD
100
AcDbEntity
  8
0
  6
CONTINUOUS
 62
     7
100
AcDbVertex
100
AcDb2dVertex
 10
8.4375163146
 20
6.1914074429
 30
0.0
  0
VERTEX
  5
297
330
1CD
100
AcDbEntity
  8
0
  6
CONTINUOUS
 62
     7
100
AcDbVertex
100
AcDb2dVertex
 10
8.4482797481
 20
6.1818433811
 30
0.0
  0
VERTEX
  5
298
330
1CD
100
AcDbEntity
  8
0
  6
CONTINUOUS
 62
     7
100
AcDbVertex
100
AcDb2dVertex
 10
8.4597858714
 20
6.1734231997
 30
0.0
  0
VERTEX
  5
299
330
1CD
100
AcDbEntity
  8
0
  6
CONTINUOUS
 62
     7
100
AcDbVertex
100
AcDb2dVertex
 10
8.4719991195
 20
6.1661729248
 30
0.0
  0
VERTEX
  5
29A
330
1CD
100
AcDbEntity
  8
0
  6
CONTINUOUS
 62
     7
100
AcDbVertex
100
AcDb2dVertex
 10
8.4848817422
 20
6.1601149667
 30
0.0
  0
VERTEX
  5
29B
330
1CD
100
AcDbEntity
  8
0
  6
CONTINUOUS
 62
     7
100
AcDbVertex
100
AcDb2dVertex
 10
8.49839392
 20
6.1552680502
 30
0.0
  0
VERTEX
  5
29C
330
1CD
100
AcDbEntity
  8
0
  6
CONTINUOUS
 62
     7
100
AcDbVertex
100
AcDb2dVertex
 10
8.5124938874
 20
6.1516471567
 30
0.0
  0
VERTEX
  5
29D
330
1CD
100
AcDbEntity
  8
0
  6
CONTINUOUS
 62
     7
100
AcDbVertex
100
AcDb2dVertex
 10
8.5271380624
 20
6.1492634784
 30
0.0
  0
VERTEX
  5
29E
330
1CD
100
AcDbEntity
  8
0
  6
CONTINUOUS
 62
     7
100
AcDbVertex
100
AcDb2dVertex
 10
8.5422811806
 20
6.1481243829
 30
0.0
  0
VERTEX
  5
29F
330
1CD
100
AcDbEntity
  8
0
  6
CONTINUOUS
 62
     7
100
AcDbVertex
100
AcDb2dVertex
 10
8.5578764354
 20
6.1482333913
 30
0.0
  0
VERTEX
  5
2A0
330
1CD
100
AcDbEntity
  8
0
  6
CONTINUOUS
 62
     7
100
AcDbVertex
100
AcDb2dVertex
 10
8.5738756229
 20
6.1495901665
 30
0.0
  0
VERTEX
  5
2A1
330
1CD
100
AcDbEntity
  8
0
  6
CONTINUOUS
 62
     7
100
AcDbVertex
100
AcDb2dVertex
 10
8.5902292905
 20
6.1521905147
 30
0.0
  0
VERTEX
  5
2A2
330
1CD
100
AcDbEntity
  8
0
  6
CONTINUOUS
 62
     7
100
AcDbVertex
100
AcDb2dVertex
 10
8.6068868899
 20
6.1560263986
 30
0.0
  0
VERTEX
  5
2A3
330
1CD
100
AcDbEntity
  8
0
  6
CONTINUOUS
 62
     7
100
AcDbVertex
100
AcDb2dVertex
 10
8.6237969334
 20
6.1610859616
 30
0.0
  0
VERTEX
  5
2A4
330
1CD
100
AcDbEntity
  8
0
  6
CONTINUOUS
 62
     7
100
AcDbVertex
100
AcDb2dVertex
 10
8.6409071532
 20
6.1673535649
 30
0.0
  0
VERTEX
  5
2A5
330
1CD
100
AcDbEntity
  8
0
  6
CONTINUOUS
 62
     7
100
AcDbVertex
100
AcDb2dVertex
 10
8.6581646623
 20
6.1748098356
 30
0.0
  0
VERTEX
  5
2A6
330
1CD
100
AcDbEntity
  8
0
  6
CONTINUOUS
 62
     7
100
AcDbVertex
100
AcDb2dVertex
 10
8.675516119
 20
6.183431727
 30
0.0
  0
VERTEX
  5
2A7
330
1CD
100
AcDbEntity
  8
0
  6
CONTINUOUS
 62
     7
100
AcDbVertex
100
AcDb2dVertex
 10
8.6929078908
 20
6.1931925891
 30
0.0
  0
VERTEX
  5
2A8
330
1CD
100
AcDbEntity
  8
0
  6
CONTINUOUS
 62
     7
100
AcDbVertex
100
AcDb2dVertex
 10
8.7102862208
 20
6.2040622517
 30
0.0
  0
VERTEX
  5
2A9
330
1CD
100
AcDbEntity
  8
0
  6
CONTINUOUS
 62
     7
100
AcDbVertex
100
AcDb2dVertex
 10
8.7275973935
 20
6.2160071174
 30
0.0
  0
VERTEX
  5
2AA
330
1CD
100
AcDbEntity
  8
0
  6
CONTINUOUS
 62
     7
100
AcDbVertex
100
AcDb2dVertex
 10
8.7447879011
 20
6.2289902652
 30
0.0
  0
VERTEX
  5
2AB
330
1CD
100
AcDbEntity
  8
0
  6
CONTINUOUS
 62
     7
100
AcDbVertex
100
AcDb2dVertex
 10
8.7618046087
 20
6.242971565
 30
0.0
  0
VERTEX
  5
2AC
330
1CD
100
AcDbEntity
  8
0
  6
CONTINUOUS
 62
     7
100
AcDbVertex
100
AcDb2dVertex
 10
8.7785949186
 20
6.2579078014
 30
0.0
  0
VERTEX
  5
2AD
330
1CD
100
AcDbEntity
  8
0
  6
CONTINUOUS
 62
     7
100
AcDbVertex
100
AcDb2dVertex
 10
8.7951069331
 20
6.2737528073
 30
0.0
  0
VERTEX
  5
2AE
330
1CD
100
AcDbEntity
  8
0
  6
CONTINUOUS
 62
     7
100
AcDbVertex
100
AcDb2dVertex
 10
8.8112896143
 20
6.2904576067
 30
0.0
  0
VERTEX
  5
2AF
330
1CD
100
AcDbEntity
  8
0
  6
CONTINUOUS
 62
     7
100
AcDbVertex
100
AcDb2dVertex
 10
8.8270929425
 20
6.307970566
 30
0.0
  0
VERTEX
  5
2B0
330
1CD
100
AcDbEntity
  8
0
  6
CONTINUOUS
 62
     7
100
AcDbVertex
100
AcDb2dVertex
 10
8.8424680707
 20
6.3262375537
 30
0.0
  0
VERTEX
  5
2B1
330
1CD
100
AcDbEntity
  8
0
  6
CONTINUOUS
 62
     7
100
AcDbVertex
100
AcDb2dVertex
 10
8.857367475
 20
6.3452021076
 30
0.0
  0
VERTEX
  5
2B2
330
1CD
100
AcDbEntity
  8
0
  6
CONTINUOUS
 62
     7
100
AcDbVertex
100
AcDb2dVertex
 10
8.8717451023
 20
6.3648056093
 30
0.0
  0
VERTEX
  5
2B3
330
1CD
100
AcDbEntity
  8
0
  6
CONTINUOUS
 62
     7
100
AcDbVertex
100
AcDb2dVertex
 10
8.8855565122
 20
6.3849874656
 30
0.0
  0
VERTEX
  5
2B4
330
1CD
100
AcDbEntity
  8
0
  6
CONTINUOUS
 62
     7
100
AcDbVertex
100
AcDb2dVertex
 10
8.8987590145
 20
6.4056852954
 30
0.0
  0
VERTEX
  5
2B5
330
1CD
100
AcDbEntity
  8
0
  6
CONTINUOUS
 62
     7
100
AcDbVertex
100
AcDb2dVertex
 10
8.9113118008
 20
6.426835123
 30
0.0
  0
VERTEX
  5
2B6
330
1CD
100
AcDbEntity
  8
0
  6
CONTINUOUS
 62
     7
100
AcDbVertex
100
AcDb2dVertex
 10
8.9231760714
 20
6.4483715754
 30
0.0
  0
VERTEX
  5
2B7
330
1CD
100
AcDbEntity
  8
0
  6
CONTINUOUS
 62
     7
100
AcDbVertex
100
AcDb2dVertex
 10
8.9343151544
 20
6.4702280847
 30
0.0
  0
VERTEX
  5
2B8
330
1CD
100
AcDbEntity
  8
0
  6
CONTINUOUS
 62
     7
100
AcDbVertex
100
AcDb2dVertex
 10
8.9446946195
 20
6.4923370937
 30
0.0
  0
VERTEX
  5
2B9
330
1CD
100
AcDbEntity
  8
0
  6
CONTINUOUS
 62
     7
100
AcDbVertex
100
AcDb2dVertex
 10
8.9542823844
 20
6.5146302647
 30
0.0
  0
VERTEX
  5
2BA
330
1CD
100
AcDbEntity
  8
0
  6
CONTINUOUS
 62
     7
100
AcDbVertex
100
AcDb2dVertex
 10
8.9630488139
 20
6.5370386909
 30
0.0
  0
VERTEX
  5
2BB
330
1CD
100
AcDbEntity
  8
0
  6
CONTINUOUS
 62
     7
100
AcDbVertex
100
AcDb2dVertex
 10
8.9709668114
 20
6.5594931089
 30
0.0
  0
VERTEX
  5
2BC
330
1CD
100
AcDbEntity
  8
0
  6
CONTINUOUS
 62
     7
100
AcDbVertex
100
AcDb2dVertex
 10
8.978011903
 20
6.5819241136
 30
0.0
  0
VERTEX
  5
2BD
330
1CD
100
AcDbEntity
  8
0
  6
CONTINUOUS
 62
     7
100
AcDbVertex
100
AcDb2dVertex
 10
8.9841623125
 20
6.604262372
 30
0.0
  0
VERTEX
  5
2BE
330
1CD
100
AcDbEntity
  8
0
  6
CONTINUOUS
 62
     7
100
AcDbVertex
100
AcDb2dVertex
 10
8.9893990294
 20
6.6264388378
 30
0.0
  0
VERTEX
  5
2BF
330
1CD
100
AcDbEntity
  8
0
  6
CONTINUOUS
 62
     7
100
AcDbVertex
100
AcDb2dVertex
 10
8.9937058674
 20
6.6483849647
 30
0.0
  0
VERTEX
  5
2C0
330
1CD
100
AcDbEntity
  8
0
  6
CONTINUOUS
 62
     7
100
AcDbVertex
100
AcDb2dVertex
 10
8.9970695143
 20
6.6700329187
 30
0.0
  0
VERTEX
  5
2C1
330
1CD
100
AcDbEntity
  8
0
  6
CONTINUOUS
 62
     7
100
AcDbVertex
100
AcDb2dVertex
 10
8.9994795731
 20
6.691315787
 30
0.0
  0
VERTEX
  5
2C2
330
1CD
100
AcDbEntity
  8
0
  6
CONTINUOUS
 62
     7
100
AcDbVertex
100
AcDb2dVertex
 10
9.0009285946
 20
6.7121677856
 30
0.0
  0
VERTEX
  5
2C3
330
1CD
100
AcDbEntity
  8
0
  6
CONTINUOUS
 62
     7
100
AcDbVertex
100
AcDb2dVertex
 10
9.0014121
 20
6.7325244622
 30
0.0
  0
SEQEND
  5
2C4
330
1CD
100
AcDbEntity
  8
0
  6
CONTINUOUS
 62
     7
  0
POLYLINE
  5
1CE
330
1F
100
AcDbEntity
  8
0
  6
CONTINUOUS
 62
     7
100
AcDb2dPolyline
 66
     1
 10
0.0
 20
0.0
 30
0.0
  0
VERTEX
  5
2C5
330
1CE
100
AcDbEntity
  8
0
  6
CONTINUOUS
 62
     7
100
AcDbVertex
100
AcDb2dVertex
 10
8.6674001993
 20
6.178428432
 30
0.0
  0
VERTEX
  5
2C6
330
1CE
100
AcDbEntity
  8
0
  6
CONTINUOUS
 62
     7
100
AcDbVertex
100
AcDb2dVertex
 10
8.6538944147
 20
6.1709445614
 30
0.0
  0
VERTEX
  5
2C7
330
1CE
100
AcDbEntity
  8
0
  6
CONTINUOUS
 62
     7
100
AcDbVertex
100
AcDb2dVertex
 10
8.6359968018
 20
6.1620019462
 30
0.0
  0
VERTEX
  5
2C8
330
1CE
100
AcDbEntity
  8
0
  6
CONTINUOUS
 62
     7
100
AcDbVertex
100
AcDb2dVertex
 10
8.6181895765
 20
6.1542188694
 30
0.0
  0
VERTEX
  5
2C9
330
1CE
100
AcDbEntity
  8
0
  6
CONTINUOUS
 62
     7
100
AcDbVertex
100
AcDb2dVertex
 10
8.6005240816
 20
6.1476177718
 30
0.0
  0
VERTEX
  5
2CA
330
1CE
100
AcDbEntity
  8
0
  6
CONTINUOUS
 62
     7
100
AcDbVertex
100
AcDb2dVertex
 10
8.5830512513
 20
6.1422176858
 30
0.0
  0
VERTEX
  5
2CB
330
1CE
100
AcDbEntity
  8
0
  6
CONTINUOUS
 62
     7
100
AcDbVertex
100
AcDb2dVertex
 10
8.5658214643
 20
6.1380341815
 30
0.0
  0
VERTEX
  5
2CC
330
1CE
100
AcDbEntity
  8
0
  6
CONTINUOUS
 62
     7
100
AcDbVertex
100
AcDb2dVertex
 10
8.5488843985
 20
6.1350793208
 30
0.0
  0
VERTEX
  5
2CD
330
1CE
100
AcDbEntity
  8
0
  6
CONTINUOUS
 62
     7
100
AcDbVertex
100
AcDb2dVertex
 10
8.5322888879
 20
6.1333616236
 30
0.0
  0
VERTEX
  5
2CE
330
1CE
100
AcDbEntity
  8
0
  6
CONTINUOUS
 62
     7
100
AcDbVertex
100
AcDb2dVertex
 10
8.5160827817
 20
6.1328860422
 30
0.0
  0
VERTEX
  5
2CF
330
1CE
100
AcDbEntity
  8
0
  6
CONTINUOUS
 62
     7
100
AcDbVertex
100
AcDb2dVertex
 10
8.5003128062
 20
6.133653948
 30
0.0
  0
VERTEX
  5
2D0
330
1CE
100
AcDbEntity
  8
0
  6
CONTINUOUS
 62
     7
100
AcDbVertex
100
AcDb2dVertex
 10
8.4850244304
 20
6.1356631268
 30
0.0
  0
VERTEX
  5
2D1
330
1CE
100
AcDbEntity
  8
0
  6
CONTINUOUS
 62
     7
100
AcDbVertex
100
AcDb2dVertex
 10
8.4702617346
 20
6.1389077858
 30
0.0
  0
VERTEX
  5
2D2
330
1CE
100
AcDbEntity
  8
0
  6
CONTINUOUS
 62
     7
100
AcDbVertex
100
AcDb2dVertex
 10
8.4560672834
 20
6.1433785696
 30
0.0
  0
VERTEX
  5
2D3
330
1CE
100
AcDbEntity
  8
0
  6
CONTINUOUS
 62
     7
100
AcDbVertex
100
AcDb2dVertex
 10
8.4424820033
 20
6.1490625879
 30
0.0
  0
VERTEX
  5
2D4
330
1CE
100
AcDbEntity
  8
0
  6
CONTINUOUS
 62
     7
100
AcDbVertex
100
AcDb2dVertex
 10
8.4295450639
 20
6.1559434521
 30
0.0
  0
VERTEX
  5
2D5
330
1CE
100
AcDbEntity
  8
0
  6
CONTINUOUS
 62
     7
100
AcDbVertex
100
AcDb2dVertex
 10
8.417293766
 20
6.1640013231
 30
0.0
  0
VERTEX
  5
2D6
330
1CE
100
AcDbEntity
  8
0
  6
CONTINUOUS
 62
     7
100
AcDbVertex
100
AcDb2dVertex
 10
8.405763433
 20
6.1732129677
 30
0.0
  0
VERTEX
  5
2D7
330
1CE
100
AcDbEntity
  8
0
  6
CONTINUOUS
 62
     7
100
AcDbVertex
100
AcDb2dVertex
 10
8.3949873101
 20
6.1835518265
 30
0.0
  0
VERTEX
  5
2D8
330
1CE
100
AcDbEntity
  8
0
  6
CONTINUOUS
 62
     7
100
AcDbVertex
100
AcDb2dVertex
 10
8.3849964675
 20
6.1949880899
 30
0.0
  0
VERTEX
  5
2D9
330
1CE
100
AcDbEntity
  8
0
  6
CONTINUOUS
 62
     7
100
AcDbVertex
100
AcDb2dVertex
 10
8.3758197114
 20
6.2074887842
 30
0.0
  0
VERTEX
  5
2DA
330
1CE
100
AcDbEntity
  8
0
  6
CONTINUOUS
 62
     7
100
AcDbVertex
100
AcDb2dVertex
 10
8.3674835008
 20
6.2210178665
 30
0.0
  0
VERTEX
  5
2DB
330
1CE
100
AcDbEntity
  8
0
  6
CONTINUOUS
 62
     7
100
AcDbVertex
100
AcDb2dVertex
 10
8.3600118712
 20
6.2355363292
 30
0.0
  0
VERTEX
  5
2DC
330
1CE
100
AcDbEntity
  8
0
  6
CONTINUOUS
 62
     7
100
AcDbVertex
100
AcDb2dVertex
 10
8.3534263651
 20
6.2510023116
 30
0.0
  0
VERTEX
  5
2DD
330
1CE
100
AcDbEntity
  8
0
  6
CONTINUOUS
 62
     7
100
AcDbVertex
100
AcDb2dVertex
 10
8.3477459703
 20
6.2673712214
 30
0.0
  0
VERTEX
  5
2DE
330
1CE
100
AcDbEntity
  8
0
  6
CONTINUOUS
 62
     7
100
AcDbVertex
100
AcDb2dVertex
 10
8.3429870648
 20
6.2845958627
 30
0.0
  0
VERTEX
  5
2DF
330
1CE
100
AcDbEntity
  8
0
  6
CONTINUOUS
 62
     7
100
AcDbVertex
100
AcDb2dVertex
 10
8.3391633699
 20
6.3026265725
 30
0.0
  0
VERTEX
  5
2E0
330
1CE
100
AcDbEntity
  8
0
  6
CONTINUOUS
 62
     7
100
AcDbVertex
100
AcDb2dVertex
 10
8.3362859101
 20
6.3214113636
 30
0.0
  0
VERTEX
  5
2E1
330
1CE
100
AcDbEntity
  8
0
  6
CONTINUOUS
 62
     7
100
AcDbVertex
100
AcDb2dVertex
 10
8.334362982
 20
6.3408960744
 30
0.0
  0
VERTEX
  5
2E2
330
1CE
100
AcDbEntity
  8
0
  6
CONTINUOUS
 62
     7
100
AcDbVertex
100
AcDb2dVertex
 10
8.3334001299
 20
6.3610245257
 30
0.0
  0
VERTEX
  5
2E3
330
1CE
100
AcDbEntity
  8
0
  6
CONTINUOUS
 62
     7
100
AcDbVertex
100
AcDb2dVertex
 10
8.3334001299
 20
6.3817386818
 30
0.0
  0
VERTEX
  5
2E4
330
1CE
100
AcDbEntity
  8
0
  6
CONTINUOUS
 62
     7
100
AcDbVertex
100
AcDb2dVertex
 10
8.334362982
 20
6.4029788184
 30
0.0
  0
VERTEX
  5
2E5
330
1CE
100
AcDbEntity
  8
0
  6
CONTINUOUS
 62
     7
100
AcDbVertex
100
AcDb2dVertex
 10
8.3362859101
 20
6.4246836948
 30
0.0
  0
VERTEX
  5
2E6
330
1CE
100
AcDbEntity
  8
0
  6
CONTINUOUS
 62
     7
100
AcDbVertex
100
AcDb2dVertex
 10
8.3391633699
 20
6.4467907301
 30
0.0
  0
VERTEX
  5
2E7
330
1CE
100
AcDbEntity
  8
0
  6
CONTINUOUS
 62
     7
100
AcDbVertex
100
AcDb2dVertex
 10
8.3429870648
 20
6.4692361841
 30
0.0
  0
VERTEX
  5
2E8
330
1CE
100
AcDbEntity
  8
0
  6
CONTINUOUS
 62
     7
100
AcDbVertex
100
AcDb2dVertex
 10
8.3477459703
 20
6.4919553407
 30
0.0
  0
VERTEX
  5
2E9
330
1CE
100
AcDbEntity
  8
0
  6
CONTINUOUS
 62
     7
100
AcDbVertex
100
AcDb2dVertex
 10
8.3534263651
 20
6.5148826948
 30
0.0
  0
VERTEX
  5
2EA
330
1CE
100
AcDbEntity
  8
0
  6
CONTINUOUS
 62
     7
100
AcDbVertex
100
AcDb2dVertex
 10
8.3600118712
 20
6.5379521407
 30
0.0
  0
VERTEX
  5
2EB
330
1CE
100
AcDbEntity
  8
0
  6
CONTINUOUS
 62
     7
100
AcDbVertex
100
AcDb2dVertex
 10
8.3674835008
 20
6.5610971633
 30
0.0
  0
VERTEX
  5
2EC
330
1CE
100
AcDbEntity
  8
0
  6
CONTINUOUS
 62
     7
100
AcDbVertex
100
AcDb2dVertex
 10
8.3758197114
 20
6.5842510296
 30
0.0
  0
VERTEX
  5
2ED
330
1CE
100
AcDbEntity
  8
0
  6
CONTINUOUS
 62
     7
100
AcDbVertex
100
AcDb2dVertex
 10
8.3849964675
 20
6.6073469809
 30
0.0
  0
VERTEX
  5
2EE
330
1CE
100
AcDbEntity
  8
0
  6
CONTINUOUS
 62
     7
100
AcDbVertex
100
AcDb2dVertex
 10
8.3949873101
 20
6.6303184256
 30
0.0
  0
VERTEX
  5
2EF
330
1CE
100
AcDbEntity
  8
0
  6
CONTINUOUS
 62
     7
100
AcDbVertex
100
AcDb2dVertex
 10
8.405763433
 20
6.6530991311
 30
0.0
  0
VERTEX
  5
2F0
330
1CE
100
AcDbEntity
  8
0
  6
CONTINUOUS
 62
     7
100
AcDbVertex
100
AcDb2dVertex
 10
8.417293766
 20
6.6756234148
 30
0.0
  0
VERTEX
  5
2F1
330
1CE
100
AcDbEntity
  8
0
  6
CONTINUOUS
 62
     7
100
AcDbVertex
100
AcDb2dVertex
 10
8.4295450639
 20
6.6978263332
 30
0.0
  0
VERTEX
  5
2F2
330
1CE
100
AcDbEntity
  8
0
  6
CONTINUOUS
 62
     7
100
AcDbVertex
100
AcDb2dVertex
 10
8.4424820033
 20
6.7196438697
 30
0.0
  0
VERTEX
  5
2F3
330
1CE
100
AcDbEntity
  8
0
  6
CONTINUOUS
 62
     7
100
AcDbVertex
100
AcDb2dVertex
 10
8.4560672834
 20
6.7410131187
 30
0.0
  0
VERTEX
  5
2F4
330
1CE
100
AcDbEntity
  8
0
  6
CONTINUOUS
 62
     7
100
AcDbVertex
100
AcDb2dVertex
 10
8.4702617346
 20
6.7618724669
 30
0.0
  0
VERTEX
  5
2F5
330
1CE
100
AcDbEntity
  8
0
  6
CONTINUOUS
 62
     7
100
AcDbVertex
100
AcDb2dVertex
 10
8.4850244304
 20
6.7821617716
 30
0.0
  0
VERTEX
  5
2F6
330
1CE
100
AcDbEntity
  8
0
  6
CONTINUOUS
 62
     7
100
AcDbVertex
100
AcDb2dVertex
 10
8.5003128062
 20
6.8018225335
 30
0.0
  0
VERTEX
  5
2F7
330
1CE
100
AcDbEntity
  8
0
  6
CONTINUOUS
 62
     7
100
AcDbVertex
100
AcDb2dVertex
 10
8.5160827817
 20
6.8207980654
 30
0.0
  0
VERTEX
  5
2F8
330
1CE
100
AcDbEntity
  8
0
  6
CONTINUOUS
 62
     7
100
AcDbVertex
100
AcDb2dVertex
 10
8.5322888879
 20
6.839033656
 30
0.0
  0
VERTEX
  5
2F9
330
1CE
100
AcDbEntity
  8
0
  6
CONTINUOUS
 62
     7
100
AcDbVertex
100
AcDb2dVertex
 10
8.5488843985
 20
6.8564767274
 30
0.0
  0
VERTEX
  5
2FA
330
1CE
100
AcDbEntity
  8
0
  6
CONTINUOUS
 62
     7
100
AcDbVertex
100
AcDb2dVertex
 10
8.5658214643
 20
6.8730769866
 30
0.0
  0
VERTEX
  5
2FB
330
1CE
100
AcDbEntity
  8
0
  6
CONTINUOUS
 62
     7
100
AcDbVertex
100
AcDb2dVertex
 10
8.5830512513
 20
6.8887865709
 30
0.0
  0
VERTEX
  5
2FC
330
1CE
100
AcDbEntity
  8
0
  6
CONTINUOUS
 62
     7
100
AcDbVertex
100
AcDb2dVertex
 10
8.6005240816
 20
6.9035601854
 30
0.0
  0
VERTEX
  5
2FD
330
1CE
100
AcDbEntity
  8
0
  6
CONTINUOUS
 62
     7
100
AcDbVertex
100
AcDb2dVertex
 10
8.6181895765
 20
6.917355234
 30
0.0
  0
VERTEX
  5
2FE
330
1CE
100
AcDbEntity
  8
0
  6
CONTINUOUS
 62
     7
100
AcDbVertex
100
AcDb2dVertex
 10
8.6359968018
 20
6.930131942
 30
0.0
  0
VERTEX
  5
2FF
330
1CE
100
AcDbEntity
  8
0
  6
CONTINUOUS
 62
     7
100
AcDbVertex
100
AcDb2dVertex
 10
8.6538944147
 20
6.9418534708
 30
0.0
  0
VERTEX
  5
300
330
1CE
100
AcDbEntity
  8
0
  6
CONTINUOUS
 62
     7
100
AcDbVertex
100
AcDb2dVertex
 10
8.6718308117
 20
6.9524860243
 30
0.0
  0
VERTEX
  5
301
330
1CE
100
AcDbEntity
  8
0
  6
CONTINUOUS
 62
     7
100
AcDbVertex
100
AcDb2dVertex
 10
8.6897542776
 20
6.9619989459
 30
0.0
  0
VERTEX
  5
302
330
1CE
100
AcDbEntity
  8
0
  6
CONTINUOUS
 62
     7
100
AcDbVertex
100
AcDb2dVertex
 10
8.7076131344
 20
6.9703648075
 30
0.0
  0
VERTEX
  5
303
330
1CE
100
AcDbEntity
  8
0
  6
CONTINUOUS
 62
     7
100
AcDbVertex
100
AcDb2dVertex
 10
8.7253558903
 20
6.9775594883
 30
0.0
  0
VERTEX
  5
304
330
1CE
100
AcDbEntity
  8
0
  6
CONTINUOUS
 62
     7
100
AcDbVertex
100
AcDb2dVertex
 10
8.7429313884
 20
6.9835622439
 30
0.0
  0
VERTEX
  5
305
330
1CE
100
AcDbEntity
  8
0
  6
CONTINUOUS
 62
     7
100
AcDbVertex
100
AcDb2dVertex
 10
8.7602889539
 20
6.988355767
 30
0.0
  0
VERTEX
  5
306
330
1CE
100
AcDbEntity
  8
0
  6
CONTINUOUS
 62
     7
100
AcDbVertex
100
AcDb2dVertex
 10
8.7773785406
 20
6.9919262365
 30
0.0
  0
VERTEX
  5
307
330
1CE
100
AcDbEntity
  8
0
  6
CONTINUOUS
 62
     7
100
AcDbVertex
100
AcDb2dVertex
 10
8.7941508748
 20
6.9942633579
 30
0.0
  0
VERTEX
  5
308
330
1CE
100
AcDbEntity
  8
0
  6
CONTINUOUS
 62
     7
100
AcDbVertex
100
AcDb2dVertex
 10
8.8105575973
 20
6.9953603927
 30
0.0
  0
VERTEX
  5
309
330
1CE
100
AcDbEntity
  8
0
  6
CONTINUOUS
 62
     7
100
AcDbVertex
100
AcDb2dVertex
 10
8.8265514035
 20
6.9952141778
 30
0.0
  0
VERTEX
  5
30A
330
1CE
100
AcDbEntity
  8
0
  6
CONTINUOUS
 62
     7
100
AcDbVertex
100
AcDb2dVertex
 10
8.842086179
 20
6.9938251348
 30
0.0
  0
VERTEX
  5
30B
330
1CE
100
AcDbEntity
  8
0
  6
CONTINUOUS
 62
     7
100
AcDbVertex
100
AcDb2dVertex
 10
8.8571171331
 20
6.9911972686
 30
0.0
  0
VERTEX
  5
30C
330
1CE
100
AcDbEntity
  8
0
  6
CONTINUOUS
 62
     7
100
AcDbVertex
100
AcDb2dVertex
 10
8.8716009276
 20
6.9873381561
 30
0.0
  0
VERTEX
  5
30D
330
1CE
100
AcDbEntity
  8
0
  6
CONTINUOUS
 62
     7
100
AcDbVertex
100
AcDb2dVertex
 10
8.8854958019
 20
6.9822589241
 30
0.0
  0
VERTEX
  5
30E
330
1CE
100
AcDbEntity
  8
0
  6
CONTINUOUS
 62
     7
100
AcDbVertex
100
AcDb2dVertex
 10
8.8987616937
 20
6.9759742174
 30
0.0
  0
VERTEX
  5
30F
330
1CE
100
AcDbEntity
  8
0
  6
CONTINUOUS
 62
     7
100
AcDbVertex
100
AcDb2dVertex
 10
8.9113603538
 20
6.9685021563
 30
0.0
  0
VERTEX
  5
310
330
1CE
100
AcDbEntity
  8
0
  6
CONTINUOUS
 62
     7
100
AcDbVertex
100
AcDb2dVertex
 10
8.9232554571
 20
6.9598642848
 30
0.0
  0
VERTEX
  5
311
330
1CE
100
AcDbEntity
  8
0
  6
CONTINUOUS
 62
     7
100
AcDbVertex
100
AcDb2dVertex
 10
8.9344127069
 20
6.9500855081
 30
0.0
  0
VERTEX
  5
312
330
1CE
100
AcDbEntity
  8
0
  6
CONTINUOUS
 62
     7
100
AcDbVertex
100
AcDb2dVertex
 10
8.944799934
 20
6.9391940209
 30
0.0
  0
VERTEX
  5
313
330
1CE
100
AcDbEntity
  8
0
  6
CONTINUOUS
 62
     7
100
AcDbVertex
100
AcDb2dVertex
 10
8.9543871893
 20
6.9272212263
 30
0.0
  0
VERTEX
  5
314
330
1CE
100
AcDbEntity
  8
0
  6
CONTINUOUS
 62
     7
100
AcDbVertex
100
AcDb2dVertex
 10
8.9631468302
 20
6.9142016448
 30
0.0
  0
VERTEX
  5
315
330
1CE
100
AcDbEntity
  8
0
  6
CONTINUOUS
 62
     7
100
AcDbVertex
100
AcDb2dVertex
 10
8.9710536005
 20
6.9001728152
 30
0.0
  0
VERTEX
  5
316
330
1CE
100
AcDbEntity
  8
0
  6
CONTINUOUS
 62
     7
100
AcDbVertex
100
AcDb2dVertex
 10
8.9780847029
 20
6.8851751865
 30
0.0
  0
VERTEX
  5
317
330
1CE
100
AcDbEntity
  8
0
  6
CONTINUOUS
 62
     7
100
AcDbVertex
100
AcDb2dVertex
 10
8.9842198649
 20
6.8692520005
 30
0.0
  0
VERTEX
  5
318
330
1CE
100
AcDbEntity
  8
0
  6
CONTINUOUS
 62
     7
100
AcDbVertex
100
AcDb2dVertex
 10
8.9894413973
 20
6.852449168
 30
0.0
  0
VERTEX
  5
319
330
1CE
100
AcDbEntity
  8
0
  6
CONTINUOUS
 62
     7
100
AcDbVertex
100
AcDb2dVertex
 10
8.9937342449
 20
6.8348151358
 30
0.0
  0
VERTEX
  5
31A
330
1CE
100
AcDbEntity
  8
0
  6
CONTINUOUS
 62
     7
100
AcDbVertex
100
AcDb2dVertex
 10
8.9970860305
 20
6.8164007475
 30
0.0
  0
VERTEX
  5
31B
330
1CE
100
AcDbEntity
  8
0
  6
CONTINUOUS
 62
     7
100
AcDbVertex
100
AcDb2dVertex
 10
8.9994870899
 20
6.7972590965
 30
0.0
  0
VERTEX
  5
31C
330
1CE
100
AcDbEntity
  8
0
  6
CONTINUOUS
 62
     7
100
AcDbVertex
100
AcDb2dVertex
 10
9.0009305003
 20
6.7774453732
 30
0.0
  0
VERTEX
  5
31D
330
1CE
100
AcDbEntity
  8
0
  6
CONTINUOUS
 62
     7
100
AcDbVertex
100
AcDb2dVertex
 10
9.0014121
 20
6.7570167056
 30
0.0
  0
VERTEX
  5
31E
330
1CE
100
AcDbEntity
  8
0
  6
CONTINUOUS
 62
     7
100
AcDbVertex
100
AcDb2dVertex
 10
9.0014121
 20
6.7570167056
 30
0.0
  0
SEQEND
  5
31F
330
1CE
100
AcDbEntity
  8
0
  6
CONTINUOUS
 62
     7
  0
POLYLINE
  5
1CF
330
1F
100
AcDbEntity
  8
0
  6
CONTINUOUS
 62
     7
100
AcDb2dPolyline
 66
     1
 10
0.0
 20
0.0
 30
0.0
  0
VERTEX
  5
320
330
1CF
100
AcDbEntity
  8
0
  6
CONTINUOUS
 62
     7
100
AcDbVertex
100
AcDb2dVertex
 10
7.9159361493
 20
7.5434570506
 30
0.0
  0
VERTEX
  5
321
330
1CF
100
AcDbEntity
  8
0
  6
CONTINUOUS
 62
     7
100
AcDbVertex
100
AcDb2dVertex
 10
7.9111506634
 20
7.5461099295
 30
0.0
  0
VERTEX
  5
322
330
1CF
100
AcDbEntity
  8
0
  6
CONTINUOUS
 62
     7
100
AcDbVertex
100
AcDb2dVertex
 10
7.8978847716
 20
7.5523946362
 30
0.0
  0
VERTEX
  5
323
330
1CF
100
AcDbEntity
  8
0
  6
CONTINUOUS
 62
     7
100
AcDbVertex
100
AcDb2dVertex
 10
7.8839898973
 20
7.5574738682
 30
0.0
  0
VERTEX
  5
324
330
1CF
100
AcDbEntity
  8
0
  6
CONTINUOUS
 62
     7
100
AcDbVertex
100
AcDb2dVertex
 10
7.8695061028
 20
7.5613329807
 30
0.0
  0
VERTEX
  5
325
330
1CF
100
AcDbEntity
  8
0
  6
CONTINUOUS
 62
     7
100
AcDbVertex
100
AcDb2dVertex
 10
7.8544751487
 20
7.5639608469
 30
0.0
  0
VERTEX
  5
326
330
1CF
100
AcDbEntity
  8
0
  6
CONTINUOUS
 62
     7
100
AcDbVertex
100
AcDb2dVertex
 10
7.8389403732
 20
7.5653498899
 30
0.0
  0
VERTEX
  5
327
330
1CF
100
AcDbEntity
  8
0
  6
CONTINUOUS
 62
     7
100
AcDbVertex
100
AcDb2dVertex
 10
7.822946567
 20
7.5654961048
 30
0.0
  0
VERTEX
  5
328
330
1CF
100
AcDbEntity
  8
0
  6
CONTINUOUS
 62
     7
100
AcDbVertex
100
AcDb2dVertex
 10
7.8065398445
 20
7.56439907
 30
0.0
  0
VERTEX
  5
329
330
1CF
100
AcDbEntity
  8
0
  6
CONTINUOUS
 62
     7
100
AcDbVertex
100
AcDb2dVertex
 10
7.7897675103
 20
7.5620619486
 30
0.0
  0
VERTEX
  5
32A
330
1CF
100
AcDbEntity
  8
0
  6
CONTINUOUS
 62
     7
100
AcDbVertex
100
AcDb2dVertex
 10
7.7726779236
 20
7.5584914791
 30
0.0
  0
VERTEX
  5
32B
330
1CF
100
AcDbEntity
  8
0
  6
CONTINUOUS
 62
     7
100
AcDbVertex
100
AcDb2dVertex
 10
7.7553203581
 20
7.553697956
 30
0.0
  0
VERTEX
  5
32C
330
1CF
100
AcDbEntity
  8
0
  6
CONTINUOUS
 62
     7
100
AcDbVertex
100
AcDb2dVertex
 10
7.73774486
 20
7.5476952004
 30
0.0
  0
VERTEX
  5
32D
330
1CF
100
AcDbEntity
  8
0
  6
CONTINUOUS
 62
     7
100
AcDbVertex
100
AcDb2dVertex
 10
7.7200021041
 20
7.5405005197
 30
0.0
  0
VERTEX
  5
32E
330
1CF
100
AcDbEntity
  8
0
  6
CONTINUOUS
 62
     7
100
AcDbVertex
100
AcDb2dVertex
 10
7.7021432473
 20
7.532134658
 30
0.0
  0
VERTEX
  5
32F
330
1CF
100
AcDbEntity
  8
0
  6
CONTINUOUS
 62
     7
100
AcDbVertex
100
AcDb2dVertex
 10
7.6842197815
 20
7.5226217364
 30
0.0
  0
VERTEX
  5
330
330
1CF
100
AcDbEntity
  8
0
  6
CONTINUOUS
 62
     7
100
AcDbVertex
100
AcDb2dVertex
 10
7.6662833844
 20
7.5119891829
 30
0.0
  0
VERTEX
  5
331
330
1CF
100
AcDbEntity
  8
0
  6
CONTINUOUS
 62
     7
100
AcDbVertex
100
AcDb2dVertex
 10
7.6483857715
 20
7.5002676541
 30
0.0
  0
VERTEX
  5
332
330
1CF
100
AcDbEntity
  8
0
  6
CONTINUOUS
 62
     7
100
AcDbVertex
100
AcDb2dVertex
 10
7.6305785462
 20
7.4874909462
 30
0.0
  0
VERTEX
  5
333
330
1CF
100
AcDbEntity
  8
0
  6
CONTINUOUS
 62
     7
100
AcDbVertex
100
AcDb2dVertex
 10
7.6129130513
 20
7.4736958976
 30
0.0
  0
VERTEX
  5
334
330
1CF
100
AcDbEntity
  8
0
  6
CONTINUOUS
 62
     7
100
AcDbVertex
100
AcDb2dVertex
 10
7.595440221
 20
7.458922283
 30
0.0
  0
VERTEX
  5
335
330
1CF
100
AcDbEntity
  8
0
  6
CONTINUOUS
 62
     7
100
AcDbVertex
100
AcDb2dVertex
 10
7.578210434
 20
7.4432126988
 30
0.0
  0
VERTEX
  5
336
330
1CF
100
AcDbEntity
  8
0
  6
CONTINUOUS
 62
     7
100
AcDbVertex
100
AcDb2dVertex
 10
7.5612733682
 20
7.4266124395
 30
0.0
  0
VERTEX
  5
337
330
1CF
100
AcDbEntity
  8
0
  6
CONTINUOUS
 62
     7
100
AcDbVertex
100
AcDb2dVertex
 10
7.5446778576
 20
7.4091693681
 30
0.0
  0
VERTEX
  5
338
330
1CF
100
AcDbEntity
  8
0
  6
CONTINUOUS
 62
     7
100
AcDbVertex
100
AcDb2dVertex
 10
7.5284717514
 20
7.3909337775
 30
0.0
  0
VERTEX
  5
339
330
1CF
100
AcDbEntity
  8
0
  6
CONTINUOUS
 62
     7
100
AcDbVertex
100
AcDb2dVertex
 10
7.5127017759
 20
7.3719582456
 30
0.0
  0
VERTEX
  5
33A
330
1CF
100
AcDbEntity
  8
0
  6
CONTINUOUS
 62
     7
100
AcDbVertex
100
AcDb2dVertex
 10
7.4974134001
 20
7.3522974837
 30
0.0
  0
VERTEX
  5
33B
330
1CF
100
AcDbEntity
  8
0
  6
CONTINUOUS
 62
     7
100
AcDbVertex
100
AcDb2dVertex
 10
7.4826507043
 20
7.332008179
 30
0.0
  0
VERTEX
  5
33C
330
1CF
100
AcDbEntity
  8
0
  6
CONTINUOUS
 62
     7
100
AcDbVertex
100
AcDb2dVertex
 10
7.4684562532
 20
7.3111488308
 30
0.0
  0
VERTEX
  5
33D
330
1CF
100
AcDbEntity
  8
0
  6
CONTINUOUS
 62
     7
100
AcDbVertex
100
AcDb2dVertex
 10
7.454870973
 20
7.2897795818
 30
0.0
  0
VERTEX
  5
33E
330
1CF
100
AcDbEntity
  8
0
  6
CONTINUOUS
 62
     7
100
AcDbVertex
100
AcDb2dVertex
 10
7.4419340336
 20
7.2679620454
 30
0.0
  0
VERTEX
  5
33F
330
1CF
100
AcDbEntity
  8
0
  6
CONTINUOUS
 62
     7
100
AcDbVertex
100
AcDb2dVertex
 10
7.4296827357
 20
7.2457591269
 30
0.0
  0
VERTEX
  5
340
330
1CF
100
AcDbEntity
  8
0
  6
CONTINUOUS
 62
     7
100
AcDbVertex
100
AcDb2dVertex
 10
7.4181524028
 20
7.2232348432
 30
0.0
  0
VERTEX
  5
341
330
1CF
100
AcDbEntity
  8
0
  6
CONTINUOUS
 62
     7
100
AcDbVertex
100
AcDb2dVertex
 10
7.4073762798
 20
7.2004541377
 30
0.0
  0
VERTEX
  5
342
330
1CF
100
AcDbEntity
  8
0
  6
CONTINUOUS
 62
     7
100
AcDbVertex
100
AcDb2dVertex
 10
7.3973854372
 20
7.177482693
 30
0.0
  0
VERTEX
  5
343
330
1CF
100
AcDbEntity
  8
0
  6
CONTINUOUS
 62
     7
100
AcDbVertex
100
AcDb2dVertex
 10
7.3882086811
 20
7.1543867417
 30
0.0
  0
VERTEX
  5
344
330
1CF
100
AcDbEntity
  8
0
  6
CONTINUOUS
 62
     7
100
AcDbVertex
100
AcDb2dVertex
 10
7.3798724705
 20
7.1312328754
 30
0.0
  0
VERTEX
  5
345
330
1CF
100
AcDbEntity
  8
0
  6
CONTINUOUS
 62
     7
100
AcDbVertex
100
AcDb2dVertex
 10
7.3724008409
 20
7.1080878528
 30
0.0
  0
VERTEX
  5
346
330
1CF
100
AcDbEntity
  8
0
  6
CONTINUOUS
 62
     7
100
AcDbVertex
100
AcDb2dVertex
 10
7.3658153348
 20
7.0850184069
 30
0.0
  0
VERTEX
  5
347
330
1CF
100
AcDbEntity
  8
0
  6
CONTINUOUS
 62
     7
100
AcDbVertex
100
AcDb2dVertex
 10
7.36013494
 20
7.0620910529
 30
0.0
  0
VERTEX
  5
348
330
1CF
100
AcDbEntity
  8
0
  6
CONTINUOUS
 62
     7
100
AcDbVertex
100
AcDb2dVertex
 10
7.3553760345
 20
7.0393718962
 30
0.0
  0
VERTEX
  5
349
330
1CF
100
AcDbEntity
  8
0
  6
CONTINUOUS
 62
     7
100
AcDbVertex
100
AcDb2dVertex
 10
7.3515523396
 20
7.0169264422
 30
0.0
  0
VERTEX
  5
34A
330
1CF
100
AcDbEntity
  8
0
  6
CONTINUOUS
 62
     7
100
AcDbVertex
100
AcDb2dVertex
 10
7.3486748798
 20
6.9948194069
 30
0.0
  0
VERTEX
  5
34B
330
1CF
100
AcDbEntity
  8
0
  6
CONTINUOUS
 62
     7
100
AcDbVertex
100
AcDb2dVertex
 10
7.3467519518
 20
6.9731145305
 30
0.0
  0
VERTEX
  5
34C
330
1CF
100
AcDbEntity
  8
0
  6
CONTINUOUS
 62
     7
100
AcDbVertex
100
AcDb2dVertex
 10
7.3457890996
 20
6.9518743939
 30
0.0
  0
VERTEX
  5
34D
330
1CF
100
AcDbEntity
  8
0
  6
CONTINUOUS
 62
     7
100
AcDbVertex
100
AcDb2dVertex
 10
7.3457890996
 20
6.9311602378
 30
0.0
  0
VERTEX
  5
34E
330
1CF
100
AcDbEntity
  8
0
  6
CONTINUOUS
 62
     7
100
AcDbVertex
100
AcDb2dVertex
 10
7.3467519518
 20
6.9110317865
 30
0.0
  0
VERTEX
  5
34F
330
1CF
100
AcDbEntity
  8
0
  6
CONTINUOUS
 62
     7
100
AcDbVertex
100
AcDb2dVertex
 10
7.3486748798
 20
6.8915470757
 30
0.0
  0
VERTEX
  5
350
330
1CF
100
AcDbEntity
  8
0
  6
CONTINUOUS
 62
     7
100
AcDbVertex
100
AcDb2dVertex
 10
7.3515523396
 20
6.8727622846
 30
0.0
  0
VERTEX
  5
351
330
1CF
100
AcDbEntity
  8
0
  6
CONTINUOUS
 62
     7
100
AcDbVertex
100
AcDb2dVertex
 10
7.3553760345
 20
6.8547315748
 30
0.0
  0
VERTEX
  5
352
330
1CF
100
AcDbEntity
  8
0
  6
CONTINUOUS
 62
     7
100
AcDbVertex
100
AcDb2dVertex
 10
7.36013494
 20
6.8375069335
 30
0.0
  0
VERTEX
  5
353
330
1CF
100
AcDbEntity
  8
0
  6
CONTINUOUS
 62
     7
100
AcDbVertex
100
AcDb2dVertex
 10
7.3658153348
 20
6.8211380237
 30
0.0
  0
VERTEX
  5
354
330
1CF
100
AcDbEntity
  8
0
  6
CONTINUOUS
 62
     7
100
AcDbVertex
100
AcDb2dVertex
 10
7.3724008409
 20
6.8056720413
 30
0.0
  0
VERTEX
  5
355
330
1CF
100
AcDbEntity
  8
0
  6
CONTINUOUS
 62
     7
100
AcDbVertex
100
AcDb2dVertex
 10
7.3798724705
 20
6.7911535786
 30
0.0
  0
VERTEX
  5
356
330
1CF
100
AcDbEntity
  8
0
  6
CONTINUOUS
 62
     7
100
AcDbVertex
100
AcDb2dVertex
 10
7.3882086811
 20
6.7776244963
 30
0.0
  0
VERTEX
  5
357
330
1CF
100
AcDbEntity
  8
0
  6
CONTINUOUS
 62
     7
100
AcDbVertex
100
AcDb2dVertex
 10
7.3973854372
 20
6.765123802
 30
0.0
  0
VERTEX
  5
358
330
1CF
100
AcDbEntity
  8
0
  6
CONTINUOUS
 62
     7
100
AcDbVertex
100
AcDb2dVertex
 10
7.4073762798
 20
6.7536875386
 30
0.0
  0
VERTEX
  5
359
330
1CF
100
AcDbEntity
  8
0
  6
CONTINUOUS
 62
     7
100
AcDbVertex
100
AcDb2dVertex
 10
7.4181524028
 20
6.7433486798
 30
0.0
  0
VERTEX
  5
35A
330
1CF
100
AcDbEntity
  8
0
  6
CONTINUOUS
 62
     7
100
AcDbVertex
100
AcDb2dVertex
 10
7.4296827357
 20
6.7341370352
 30
0.0
  0
VERTEX
  5
35B
330
1CF
100
AcDbEntity
  8
0
  6
CONTINUOUS
 62
     7
100
AcDbVertex
100
AcDb2dVertex
 10
7.4419340336
 20
6.7260791643
 30
0.0
  0
VERTEX
  5
35C
330
1CF
100
AcDbEntity
  8
0
  6
CONTINUOUS
 62
     7
100
AcDbVertex
100
AcDb2dVertex
 10
7.4435335984
 20
6.7251431649
 30
0.0
  0
SEQEND
  5
35D
330
1CF
100
AcDbEntity
  8
0
  6
CONTINUOUS
 62
     7
  0
SPLINE
  5
1D0
330
1F
100
AcDbEntity
  8
0
  6
CONTINUOUS
 62
     7
100
AcDbSpline
210
0.0
220
0.0
230
1.0
 70
     8
 71
     3
 72
    27
 73
    23
 74
     0
 42
0.00000001
 43
0.00000001
 40
-0.1273486926360935
 40
-0.0846749500030854
 40
-0.0431688374656273
 40
0.0
 40
0.0638819074202515
 40
0.1270818103282811
 40
0.1890209100502799
 40
0.2495422910685288
 40
0.2903544884312425
 40
0.3302522011612555
 40
0.3725172745849669
 40
0.4152011559813741
 40
0.4568050127312753
 40
0.5001534725104165
 40
0.5638987540876792
 40
0.6270899229805265
 40
0.6891084107810056
 40
0.749616630319383
 40
0.7904169343665752
 40
0.8303343371865077
 40
0.8726513073639065
 40
0.9153250499969146
 40
0.9568311625343727
 40
1.0
 40
1.063881907420251
 40
1.127081810328281
 40
1.18902091005028
 10
7.708887032602743
 20
7.480227317560088
 30
0.0
 10
7.729097323951558
 20
7.495537407691166
 30
0.0
 10
7.759701675996351
 20
7.506782468342721
 30
0.0
 10
7.80028229648364
 20
7.507898216084135
 30
0.0
 10
7.840676330741212
 20
7.500535256555759
 30
0.0
 10
7.870629655421832
 20
7.487385227209286
 30
0.0
 10
7.889545872532107
 20
7.47412819338903
 30
0.0
 10
7.899286047666706
 20
7.461626079145628
 30
0.0
 10
7.901570221948134
 20
7.448732071748505
 30
0.0
 10
7.897686374901904
 20
7.435608775187228
 30
0.0
 10
7.886502774460213
 20
7.422795363110243
 30
0.0
 10
7.8663124842687
 20
7.409057167445336
 30
0.0
 10
7.835716305116775
 20
7.394981944983297
 30
0.0
 10
7.795125516003959
 20
7.386461455098572
 30
0.0
 10
7.75473150146511
 20
7.385844658128283
 30
0.0
 10
7.724762598727203
 20
7.396362670687629
 30
0.0
 10
7.705861237452883
 20
7.411078536218436
 30
0.0
 10
7.696137393015571
 20
7.427425852190828
 30
0.0
 10
7.693867235738312
 20
7.445589577565041
 30
0.0
 10
7.697741168607108
 20
7.463724954962005
 30
0.0
 10
7.708887032602743
 20
7.480227317560088
 30
0.0
 10
7.729097323951558
 20
7.495537407691166
 30
0.0
 10
7.759701675996351
 20
7.506782468342721
 30
0.0
  0
SPLINE
  5
1D1
330
1F
100
AcDbEntity
  8
0
  6
CONTINUOUS
 62
     7
100
AcDbSpline
210
0.0
220
0.0
230
1.0
 70
     8
 71
     3
 72
    27
 73
    23
 74
     0
 42
0.00000001
 43
0.00000001
 40
-0.1273486926360927
 40
-0.0846749500030846
 40
-0.0431688374656265
 40
0.0
 40
0.063881907420151
 40
0.1270818103282659
 40
0.1890209100501873
 40
0.2495422910685296
 40
0.2903544884312989
 40
0.3302522011613118
 40
0.3725172745849796
 40
0.4152011559815165
 40
0.4568050127314171
 40
0.5001534725104324
 40
0.5638987540877715
 40
0.6270899229805286
 40
0.6891084107810073
 40
0.7496166303193845
 40
0.7904169343665762
 40
0.8303343371865086
 40
0.8726513073639073
 40
0.9153250499969154
 40
0.9568311625343735
 40
1.0
 40
1.063881907420151
 40
1.127081810328266
 40
1.189020910050187
 10
8.460535973234112
 20
7.046309620331482
 30
0.0
 10
8.48074626458291
 20
7.061619710462552
 30
0.0
 10
8.511350616627716
 20
7.072864771114093
 30
0.0
 10
8.551931237114967
 20
7.073980518855533
 30
0.0
 10
8.592325271372577
 20
7.066617559327174
 30
0.0
 10
8.622278596053192
 20
7.053467529980681
 30
0.0
 10
8.641194813163496
 20
7.040210496160415
 30
0.0
 10
8.650934988298104
 20
7.027708381917012
 30
0.0
 10
8.6532191625795
 20
7.014814374519882
 30
0.0
 10
8.649335315533246
 20
7.001691077958598
 30
0.0
 10
8.63815171509157
 20
6.988877665881603
 30
0.0
 10
8.61796142490003
 20
6.975139470216713
 30
0.0
 10
8.587365245748112
 20
6.961064247754704
 30
0.0
 10
8.54677445663531
 20
6.952543757869961
 30
0.0
 10
8.506380442096477
 20
6.951926960899678
 30
0.0
 10
8.47641153935857
 20
6.962444973459021
 30
0.0
 10
8.45751017808425
 20
6.977160838989829
 30
0.0
 10
8.44778633364694
 20
6.993508154962221
 30
0.0
 10
8.445516176369681
 20
7.011671880336435
 30
0.0
 10
8.449390109238475
 20
7.0298072577334
 30
0.0
 10
8.460535973234112
 20
7.046309620331482
 30
0.0
 10
8.48074626458291
 20
7.061619710462552
 30
0.0
 10
8.511350616627716
 20
7.072864771114093
 30
0.0
  0
POLYLINE
  5
1D2
330
1F
100
AcDbEntity
  8
0
  6
CONTINUOUS
 62
     7
100
AcDb2dPolyline
 66
     1
 10
0.0
 20
0.0
 30
0.0
  0
VERTEX
  5
35E
330
1D2
100
AcDbEntity
  8
0
  6
CONTINUOUS
 62
     7
100
AcDbVertex
100
AcDb2dVertex
 10
8.79328886
 20
6.6123774731
 30
0.0
  0
VERTEX
  5
35F
330
1D2
100
AcDbEntity
  8
0
  6
CONTINUOUS
 62
     7
100
AcDbVertex
100
AcDb2dVertex
 10
8.7927999432
 20
6.6004230219
 30
0.0
  0
VERTEX
  5
360
330
1D2
100
AcDbEntity
  8
0
  6
CONTINUOUS
 62
     7
100
AcDbVertex
100
AcDb2dVertex
 10
8.7913377579
 20
6.5880156949
 30
0.0
  0
VERTEX
  5
361
330
1D2
100
AcDbEntity
  8
0
  6
CONTINUOUS
 62
     7
100
AcDbVertex
100
AcDb2dVertex
 10
8.788915956
 20
6.5752713359
 30
0.0
  0
VERTEX
  5
362
330
1D2
100
AcDbEntity
  8
0
  6
CONTINUOUS
 62
     7
100
AcDbVertex
100
AcDb2dVertex
 10
8.7855571492
 20
6.5623089358
 30
0.0
  0
VERTEX
  5
363
330
1D2
100
AcDbEntity
  8
0
  6
CONTINUOUS
 62
     7
100
AcDbVertex
100
AcDb2dVertex
 10
8.7812926979
 20
6.5492495208
 30
0.0
  0
VERTEX
  5
364
330
1D2
100
AcDbEntity
  8
0
  6
CONTINUOUS
 62
     7
100
AcDbVertex
100
AcDb2dVertex
 10
8.776162418
 20
6.5362150233
 30
0.0
  0
VERTEX
  5
365
330
1D2
100
AcDbEntity
  8
0
  6
CONTINUOUS
 62
     7
100
AcDbVertex
100
AcDb2dVertex
 10
8.7702142096
 20
6.5233271427
 30
0.0
  0
VERTEX
  5
366
330
1D2
100
AcDbEntity
  8
0
  6
CONTINUOUS
 62
     7
100
AcDbVertex
100
AcDb2dVertex
 10
8.7635036096
 20
6.5107062099
 30
0.0
  0
VERTEX
  5
367
330
1D2
100
AcDbEntity
  8
0
  6
CONTINUOUS
 62
     7
100
AcDbVertex
100
AcDb2dVertex
 10
8.7560932729
 20
6.498470063
 30
0.0
  0
VERTEX
  5
368
330
1D2
100
AcDbEntity
  8
0
  6
CONTINUOUS
 62
     7
100
AcDbVertex
100
AcDb2dVertex
 10
8.7480523879
 20
6.4867329476
 30
0.0
  0
VERTEX
  5
369
330
1D2
100
AcDbEntity
  8
0
  6
CONTINUOUS
 62
     7
100
AcDbVertex
100
AcDb2dVertex
 10
8.7394560301
 20
6.4756044501
 30
0.0
  0
VERTEX
  5
36A
330
1D2
100
AcDbEntity
  8
0
  6
CONTINUOUS
 62
     7
100
AcDbVertex
100
AcDb2dVertex
 10
8.7303844615
 20
6.4651884742
 30
0.0
  0
VERTEX
  5
36B
330
1D2
100
AcDbEntity
  8
0
  6
CONTINUOUS
 62
     7
100
AcDbVertex
100
AcDb2dVertex
 10
8.7209223809
 20
6.4555822711
 30
0.0
  0
VERTEX
  5
36C
330
1D2
100
AcDbEntity
  8
0
  6
CONTINUOUS
 62
     7
100
AcDbVertex
100
AcDb2dVertex
 10
8.7111581331
 20
6.4468755312
 30
0.0
  0
VERTEX
  5
36D
330
1D2
100
AcDbEntity
  8
0
  6
CONTINUOUS
 62
     7
100
AcDbVertex
100
AcDb2dVertex
 10
8.7011828843
 20
6.4391495472
 30
0.0
  0
VERTEX
  5
36E
330
1D2
100
AcDbEntity
  8
0
  6
CONTINUOUS
 62
     7
100
AcDbVertex
100
AcDb2dVertex
 10
8.6910897706
 20
6.4324764544
 30
0.0
  0
VERTEX
  5
36F
330
1D2
100
AcDbEntity
  8
0
  6
CONTINUOUS
 62
     7
100
AcDbVertex
100
AcDb2dVertex
 10
8.6809730289
 20
6.4269185576
 30
0.0
  0
VERTEX
  5
370
330
1D2
100
AcDbEntity
  8
0
  6
CONTINUOUS
 62
     7
100
AcDbVertex
100
AcDb2dVertex
 10
8.6709271163
 20
6.4225277496
 30
0.0
  0
VERTEX
  5
371
330
1D2
100
AcDbEntity
  8
0
  6
CONTINUOUS
 62
     7
100
AcDbVertex
100
AcDb2dVertex
 10
8.6610458289
 20
6.4193450259
 30
0.0
  0
VERTEX
  5
372
330
1D2
100
AcDbEntity
  8
0
  6
CONTINUOUS
 62
     7
100
AcDbVertex
100
AcDb2dVertex
 10
8.6514214256
 20
6.417400103
 30
0.0
  0
VERTEX
  5
373
330
1D2
100
AcDbEntity
  8
0
  6
CONTINUOUS
 62
     7
100
AcDbVertex
100
AcDb2dVertex
 10
8.6421437667
 20
6.4167111401
 30
0.0
  0
VERTEX
  5
374
330
1D2
100
AcDbEntity
  8
0
  6
CONTINUOUS
 62
     7
100
AcDbVertex
100
AcDb2dVertex
 10
8.6332994755
 20
6.4172845696
 30
0.0
  0
VERTEX
  5
375
330
1D2
100
AcDbEntity
  8
0
  6
CONTINUOUS
 62
     7
100
AcDbVertex
100
AcDb2dVertex
 10
8.6249711285
 20
6.4191150379
 30
0.0
  0
VERTEX
  5
376
330
1D2
100
AcDbEntity
  8
0
  6
CONTINUOUS
 62
     7
100
AcDbVertex
100
AcDb2dVertex
 10
8.6172364853
 20
6.4221854541
 30
0.0
  0
VERTEX
  5
377
330
1D2
100
AcDbEntity
  8
0
  6
CONTINUOUS
 62
     7
100
AcDbVertex
100
AcDb2dVertex
 10
8.6101677623
 20
6.4264671507
 30
0.0
  0
VERTEX
  5
378
330
1D2
100
AcDbEntity
  8
0
  6
CONTINUOUS
 62
     7
100
AcDbVertex
100
AcDb2dVertex
 10
8.6038309581
 20
6.4319201507
 30
0.0
  0
VERTEX
  5
379
330
1D2
100
AcDbEntity
  8
0
  6
CONTINUOUS
 62
     7
100
AcDbVertex
100
AcDb2dVertex
 10
8.5982852378
 20
6.4384935408
 30
0.0
  0
VERTEX
  5
37A
330
1D2
100
AcDbEntity
  8
0
  6
CONTINUOUS
 62
     7
100
AcDbVertex
100
AcDb2dVertex
 10
8.5935823803
 20
6.4461259471
 30
0.0
  0
VERTEX
  5
37B
330
1D2
100
AcDbEntity
  8
0
  6
CONTINUOUS
 62
     7
100
AcDbVertex
100
AcDb2dVertex
 10
8.5897662949
 20
6.4547461078
 30
0.0
  0
VERTEX
  5
37C
330
1D2
100
AcDbEntity
  8
0
  6
CONTINUOUS
 62
     7
100
AcDbVertex
100
AcDb2dVertex
 10
8.5868726115
 20
6.4642735389
 30
0.0
  0
VERTEX
  5
37D
330
1D2
100
AcDbEntity
  8
0
  6
CONTINUOUS
 62
     7
100
AcDbVertex
100
AcDb2dVertex
 10
8.5849283474
 20
6.4746192853
 30
0.0
  0
VERTEX
  5
37E
330
1D2
100
AcDbEntity
  8
0
  6
CONTINUOUS
 62
     7
100
AcDbVertex
100
AcDb2dVertex
 10
8.5839516558
 20
6.4856867515
 30
0.0
  0
VERTEX
  5
37F
330
1D2
100
AcDbEntity
  8
0
  6
CONTINUOUS
 62
     7
100
AcDbVertex
100
AcDb2dVertex
 10
8.5839516558
 20
6.4973726035
 30
0.0
  0
VERTEX
  5
380
330
1D2
100
AcDbEntity
  8
0
  6
CONTINUOUS
 62
     7
100
AcDbVertex
100
AcDb2dVertex
 10
8.5849283474
 20
6.5095677338
 30
0.0
  0
VERTEX
  5
381
330
1D2
100
AcDbEntity
  8
0
  6
CONTINUOUS
 62
     7
100
AcDbVertex
100
AcDb2dVertex
 10
8.5868726115
 20
6.5221582797
 30
0.0
  0
VERTEX
  5
382
330
1D2
100
AcDbEntity
  8
0
  6
CONTINUOUS
 62
     7
100
AcDbVertex
100
AcDb2dVertex
 10
8.5897662949
 20
6.5350266866
 30
0.0
  0
VERTEX
  5
383
330
1D2
100
AcDbEntity
  8
0
  6
CONTINUOUS
 62
     7
100
AcDbVertex
100
AcDb2dVertex
 10
8.5935823803
 20
6.5480528057
 30
0.0
  0
VERTEX
  5
384
330
1D2
100
AcDbEntity
  8
0
  6
CONTINUOUS
 62
     7
100
AcDbVertex
100
AcDb2dVertex
 10
8.5982852378
 20
6.5611150157
 30
0.0
  0
VERTEX
  5
385
330
1D2
100
AcDbEntity
  8
0
  6
CONTINUOUS
 62
     7
100
AcDbVertex
100
AcDb2dVertex
 10
8.6038309581
 20
6.5740913581
 30
0.0
  0
VERTEX
  5
386
330
1D2
100
AcDbEntity
  8
0
  6
CONTINUOUS
 62
     7
100
AcDbVertex
100
AcDb2dVertex
 10
8.6101677623
 20
6.5868606765
 30
0.0
  0
VERTEX
  5
387
330
1D2
100
AcDbEntity
  8
0
  6
CONTINUOUS
 62
     7
100
AcDbVertex
100
AcDb2dVertex
 10
8.6172364853
 20
6.599303747
 30
0.0
  0
VERTEX
  5
388
330
1D2
100
AcDbEntity
  8
0
  6
CONTINUOUS
 62
     7
100
AcDbVertex
100
AcDb2dVertex
 10
8.6249711285
 20
6.6113043922
 30
0.0
  0
VERTEX
  5
389
330
1D2
100
AcDbEntity
  8
0
  6
CONTINUOUS
 62
     7
100
AcDbVertex
100
AcDb2dVertex
 10
8.6332994755
 20
6.6227505652
 30
0.0
  0
VERTEX
  5
38A
330
1D2
100
AcDbEntity
  8
0
  6
CONTINUOUS
 62
     7
100
AcDbVertex
100
AcDb2dVertex
 10
8.6421437667
 20
6.6335353961
 30
0.0
  0
VERTEX
  5
38B
330
1D2
100
AcDbEntity
  8
0
  6
CONTINUOUS
 62
     7
100
AcDbVertex
100
AcDb2dVertex
 10
8.6514214256
 20
6.64355819
 30
0.0
  0
VERTEX
  5
38C
330
1D2
100
AcDbEntity
  8
0
  6
CONTINUOUS
 62
     7
100
AcDbVertex
100
AcDb2dVertex
 10
8.6610458289
 20
6.6527253667
 30
0.0
  0
VERTEX
  5
38D
330
1D2
100
AcDbEntity
  8
0
  6
CONTINUOUS
 62
     7
100
AcDbVertex
100
AcDb2dVertex
 10
8.6709271163
 20
6.6609513347
 30
0.0
  0
VERTEX
  5
38E
330
1D2
100
AcDbEntity
  8
0
  6
CONTINUOUS
 62
     7
100
AcDbVertex
100
AcDb2dVertex
 10
8.6809730289
 20
6.6681592904
 30
0.0
  0
VERTEX
  5
38F
330
1D2
100
AcDbEntity
  8
0
  6
CONTINUOUS
 62
     7
100
AcDbVertex
100
AcDb2dVertex
 10
8.6910897706
 20
6.674281935
 30
0.0
  0
VERTEX
  5
390
330
1D2
100
AcDbEntity
  8
0
  6
CONTINUOUS
 62
     7
100
AcDbVertex
100
AcDb2dVertex
 10
8.7011828843
 20
6.6792621031
 30
0.0
  0
VERTEX
  5
391
330
1D2
100
AcDbEntity
  8
0
  6
CONTINUOUS
 62
     7
100
AcDbVertex
100
AcDb2dVertex
 10
8.7111581331
 20
6.6830532962
 30
0.0
  0
VERTEX
  5
392
330
1D2
100
AcDbEntity
  8
0
  6
CONTINUOUS
 62
     7
100
AcDbVertex
100
AcDb2dVertex
 10
8.7209223809
 20
6.6856201169
 30
0.0
  0
VERTEX
  5
393
330
1D2
100
AcDbEntity
  8
0
  6
CONTINUOUS
 62
     7
100
AcDbVertex
100
AcDb2dVertex
 10
8.7303844615
 20
6.6869385996
 30
0.0
  0
VERTEX
  5
394
330
1D2
100
AcDbEntity
  8
0
  6
CONTINUOUS
 62
     7
100
AcDbVertex
100
AcDb2dVertex
 10
8.7394560301
 20
6.6869964338
 30
0.0
  0
VERTEX
  5
395
330
1D2
100
AcDbEntity
  8
0
  6
CONTINUOUS
 62
     7
100
AcDbVertex
100
AcDb2dVertex
 10
8.7480523879
 20
6.6857930797
 30
0.0
  0
VERTEX
  5
396
330
1D2
100
AcDbEntity
  8
0
  6
CONTINUOUS
 62
     7
100
AcDbVertex
100
AcDb2dVertex
 10
8.7560932729
 20
6.6833397725
 30
0.0
  0
VERTEX
  5
397
330
1D2
100
AcDbEntity
  8
0
  6
CONTINUOUS
 62
     7
100
AcDbVertex
100
AcDb2dVertex
 10
8.7635036096
 20
6.6796594183
 30
0.0
  0
VERTEX
  5
398
330
1D2
100
AcDbEntity
  8
0
  6
CONTINUOUS
 62
     7
100
AcDbVertex
100
AcDb2dVertex
 10
8.7702142096
 20
6.6747863794
 30
0.0
  0
VERTEX
  5
399
330
1D2
100
AcDbEntity
  8
0
  6
CONTINUOUS
 62
     7
100
AcDbVertex
100
AcDb2dVertex
 10
8.776162418
 20
6.6687661541
 30
0.0
  0
VERTEX
  5
39A
330
1D2
100
AcDbEntity
  8
0
  6
CONTINUOUS
 62
     7
100
AcDbVertex
100
AcDb2dVertex
 10
8.7812926979
 20
6.6616549516
 30
0.0
  0
VERTEX
  5
39B
330
1D2
100
AcDbEntity
  8
0
  6
CONTINUOUS
 62
     7
100
AcDbVertex
100
AcDb2dVertex
 10
8.7855571492
 20
6.6535191673
 30
0.0
  0
VERTEX
  5
39C
330
1D2
100
AcDbEntity
  8
0
  6
CONTINUOUS
 62
     7
100
AcDbVertex
100
AcDb2dVertex
 10
8.788915956
 20
6.6444347629
 30
0.0
  0
VERTEX
  5
39D
330
1D2
100
AcDbEntity
  8
0
  6
CONTINUOUS
 62
     7
100
AcDbVertex
100
AcDb2dVertex
 10
8.7913377579
 20
6.6344865569
 30
0.0
  0
VERTEX
  5
39E
330
1D2
100
AcDbEntity
  8
0
  6
CONTINUOUS
 62
     7
100
AcDbVertex
100
AcDb2dVertex
 10
8.7927999432
 20
6.6237674332
 30
0.0
  0
VERTEX
  5
39F
330
1D2
100
AcDbEntity
  8
0
  6
CONTINUOUS
 62
     7
100
AcDbVertex
100
AcDb2dVertex
 10
8.79328886
 20
6.6123774731
 30
0.0
  0
SEQEND
  5
3A0
330
1D2
100
AcDbEntity
  8
0
  6
CONTINUOUS
 62
     7
  0
SPLINE
  5
1D3
330
1F
100
AcDbEntity
  8
0
  6
CONTINUOUS
 62
     7
100
AcDbSpline
210
0.0
220
0.0
230
1.0
 70
     8
 71
     3
 72
    10
 73
     6
 74
     0
 42
0.00000001
 43
0.00000001
 40
0.0
 40
0.0
 40
0.0
 40
0.0
 40
0.347105446704419
 40
0.6567471721611553
 40
1.0
 40
1.0
 40
1.0
 40
1.0
 10
8.468662529907736
 20
6.992526837973321
 30
0.0
 10
8.469114449860372
 20
6.988216105735345
 30
0.0
 10
8.469969513224415
 20
6.980059906418643
 30
0.0
 10
8.47580646020873
 20
6.96824698853898
 30
0.0
 10
8.483296590932989
 20
6.962472363851324
 30
0.0
 10
8.487234452780674
 20
6.959436412266584
 30
0.0
  0
ARC
  5
1D4
330
1F
100
AcDbEntity
  8
0
  6
CONTINUOUS
 62
     7
100
AcDbCircle
 10
8.7010732496
 20
6.6210612543
 30
0.0
 40
0.0505408037257579
100
AcDbArc
 50
350.1065062664
 51
118.0126346596
  0
POLYLINE
  5
1D5
330
1F
100
AcDbEntity
  8
0
  6
CONTINUOUS
 62
     7
100
AcDb2dPolyline
 66
     1
 10
0.0
 20
0.0
 30
0.0
  0
VERTEX
  5
3A1
330
1D5
100
AcDbEntity
  8
0
  6
CONTINUOUS
 62
     7
100
AcDbVertex
100
AcDb2dVertex
 10
8.5844306239
 20
6.5047467373
 30
0.0
  0
VERTEX
  5
3A2
330
1D5
100
AcDbEntity
  8
0
  6
CONTINUOUS
 62
     7
100
AcDbVertex
100
AcDb2dVertex
 10
8.5857819257
 20
6.4963463709
 30
0.0
  0
VERTEX
  5
3A3
330
1D5
100
AcDbEntity
  8
0
  6
CONTINUOUS
 62
     7
100
AcDbVertex
100
AcDb2dVertex
 10
8.5882011817
 20
6.4876810966
 30
0.0
  0
VERTEX
  5
3A4
330
1D5
100
AcDbEntity
  8
0
  6
CONTINUOUS
 62
     7
100
AcDbVertex
100
AcDb2dVertex
 10
8.5915483372
 20
6.4799125191
 30
0.0
  0
VERTEX
  5
3A5
330
1D5
100
AcDbEntity
  8
0
  6
CONTINUOUS
 62
     7
100
AcDbVertex
100
AcDb2dVertex
 10
8.5957841498
 20
6.4731317178
 30
0.0
  0
VERTEX
  5
3A6
330
1D5
100
AcDbEntity
  8
0
  6
CONTINUOUS
 62
     7
100
AcDbVertex
100
AcDb2dVertex
 10
8.6008589586
 20
6.4674181914
 30
0.0
  0
VERTEX
  5
3A7
330
1D5
100
AcDbEntity
  8
0
  6
CONTINUOUS
 62
     7
100
AcDbVertex
100
AcDb2dVertex
 10
8.6067132661
 20
6.4628389257
 30
0.0
  0
VERTEX
  5
3A8
330
1D5
100
AcDbEntity
  8
0
  6
CONTINUOUS
 62
     7
100
AcDbVertex
100
AcDb2dVertex
 10
8.6132784358
 20
6.4594476086
 30
0.0
  0
VERTEX
  5
3A9
330
1D5
100
AcDbEntity
  8
0
  6
CONTINUOUS
 62
     7
100
AcDbVertex
100
AcDb2dVertex
 10
8.6204774971
 20
6.4572840001
 30
0.0
  0
VERTEX
  5
3AA
330
1D5
100
AcDbEntity
  8
0
  6
CONTINUOUS
 62
     7
100
AcDbVertex
100
AcDb2dVertex
 10
8.6282260477
 20
6.4563734665
 30
0.0
  0
VERTEX
  5
3AB
330
1D5
100
AcDbEntity
  8
0
  6
CONTINUOUS
 62
     7
100
AcDbVertex
100
AcDb2dVertex
 10
8.6364332428
 20
6.4567266829
 30
0.0
  0
VERTEX
  5
3AC
330
1D5
100
AcDbEntity
  8
0
  6
CONTINUOUS
 62
     7
100
AcDbVertex
100
AcDb2dVertex
 10
8.6450028606
 20
6.4583395084
 30
0.0
  0
VERTEX
  5
3AD
330
1D5
100
AcDbEntity
  8
0
  6
CONTINUOUS
 62
     7
100
AcDbVertex
100
AcDb2dVertex
 10
8.6538344301
 20
6.4611930338
 30
0.0
  0
VERTEX
  5
3AE
330
1D5
100
AcDbEntity
  8
0
  6
CONTINUOUS
 62
     7
100
AcDbVertex
100
AcDb2dVertex
 10
8.6628244093
 20
6.4652538044
 30
0.0
  0
VERTEX
  5
3AF
330
1D5
100
AcDbEntity
  8
0
  6
CONTINUOUS
 62
     7
100
AcDbVertex
100
AcDb2dVertex
 10
8.671867399
 20
6.4704742111
 30
0.0
  0
VERTEX
  5
3B0
330
1D5
100
AcDbEntity
  8
0
  6
CONTINUOUS
 62
     7
100
AcDbVertex
100
AcDb2dVertex
 10
8.6808573782
 20
6.4767930497
 30
0.0
  0
VERTEX
  5
3B1
330
1D5
100
AcDbEntity
  8
0
  6
CONTINUOUS
 62
     7
100
AcDbVertex
100
AcDb2dVertex
 10
8.6896889477
 20
6.4841362374
 30
0.0
  0
VERTEX
  5
3B2
330
1D5
100
AcDbEntity
  8
0
  6
CONTINUOUS
 62
     7
100
AcDbVertex
100
AcDb2dVertex
 10
8.6982585655
 20
6.492417682
 30
0.0
  0
VERTEX
  5
3B3
330
1D5
100
AcDbEntity
  8
0
  6
CONTINUOUS
 62
     7
100
AcDbVertex
100
AcDb2dVertex
 10
8.7064657606
 20
6.5015402913
 30
0.0
  0
VERTEX
  5
3B4
330
1D5
100
AcDbEntity
  8
0
  6
CONTINUOUS
 62
     7
100
AcDbVertex
100
AcDb2dVertex
 10
8.7142143112
 20
6.511397111
 30
0.0
  0
VERTEX
  5
3B5
330
1D5
100
AcDbEntity
  8
0
  6
CONTINUOUS
 62
     7
100
AcDbVertex
100
AcDb2dVertex
 10
8.7214133725
 20
6.5218725788
 30
0.0
  0
VERTEX
  5
3B6
330
1D5
100
AcDbEntity
  8
0
  6
CONTINUOUS
 62
     7
100
AcDbVertex
100
AcDb2dVertex
 10
8.7279785422
 20
6.5328438795
 30
0.0
  0
VERTEX
  5
3B7
330
1D5
100
AcDbEntity
  8
0
  6
CONTINUOUS
 62
     7
100
AcDbVertex
100
AcDb2dVertex
 10
8.7338328496
 20
6.5441823847
 30
0.0
  0
VERTEX
  5
3B8
330
1D5
100
AcDbEntity
  8
0
  6
CONTINUOUS
 62
     7
100
AcDbVertex
100
AcDb2dVertex
 10
8.7389076584
 20
6.5557551606
 30
0.0
  0
VERTEX
  5
3B9
330
1D5
100
AcDbEntity
  8
0
  6
CONTINUOUS
 62
     7
100
AcDbVertex
100
AcDb2dVertex
 10
8.7431434711
 20
6.5674265271
 30
0.0
  0
VERTEX
  5
3BA
330
1D5
100
AcDbEntity
  8
0
  6
CONTINUOUS
 62
     7
100
AcDbVertex
100
AcDb2dVertex
 10
8.7464906266
 20
6.5790596481
 30
0.0
  0
VERTEX
  5
3BB
330
1D5
100
AcDbEntity
  8
0
  6
CONTINUOUS
 62
     7
100
AcDbVertex
100
AcDb2dVertex
 10
8.7489098826
 20
6.5905181359
 30
0.0
  0
VERTEX
  5
3BC
330
1D5
100
AcDbEntity
  8
0
  6
CONTINUOUS
 62
     7
100
AcDbVertex
100
AcDb2dVertex
 10
8.7503728755
 20
6.6016676502
 30
0.0
  0
VERTEX
  5
3BD
330
1D5
100
AcDbEntity
  8
0
  6
CONTINUOUS
 62
     7
100
AcDbVertex
100
AcDb2dVertex
 10
8.7508624531
 20
6.6123774731
 30
0.0
  0
SEQEND
  5
3BE
330
1D5
100
AcDbEntity
  8
0
  6
CONTINUOUS
 62
     7
  0
SPLINE
  5
1D6
330
1F
100
AcDbEntity
  8
0
  6
CONTINUOUS
 62
     7
100
AcDbSpline
210
0.0
220
0.0
230
1.0
 70
     8
 71
     3
 72
    20
 73
    16
 74
     0
 42
0.00000001
 43
0.00000001
 40
0.0
 40
0.0
 40
0.0
 40
0.0
 40
0.0210430900739967
 40
0.1028288542968232
 40
0.1824660756934978
 40
0.264698775673219
 40
0.3402337833173667
 40
0.4176692796402341
 40
0.499366821388692
 40
0.5828182135321381
 40
0.6782011373617778
 40
0.7758723254053753
 40
0.8584476149433315
 40
0.9431106588662459
 40
1.0
 40
1.0
 40
1.0
 40
1.0
 10
8.68520269337189
 20
6.668187391894238
 30
0.0
 10
8.685616915088007
 20
6.667366224764906
 30
0.0
 10
8.68764104483052
 20
6.66335352155456
 30
0.0
 10
8.689447331203349
 20
6.655903729645753
 30
0.0
 10
8.690303457870595
 20
6.646029459937561
 30
0.0
 10
8.688931877869711
 20
6.636646315660635
 30
0.0
 10
8.6857076770472
 20
6.627913450540297
 30
0.0
 10
8.680837122955868
 20
6.61994446555486
 30
0.0
 10
8.674303043791323
 20
6.612683397736413
 30
0.0
 10
8.665936296121275
 20
6.606117064922364
 30
0.0
 10
8.6558622599926
 20
6.600707394781963
 30
0.0
 10
8.644932485477797
 20
6.597167604995614
 30
0.0
 10
8.634062818438501
 20
6.595772866456661
 30
0.0
 10
8.624806821273417
 20
6.596166940574891
 30
0.0
 10
8.619359409115784
 20
6.597884129000954
 30
0.0
 10
8.617170115813465
 20
6.5985742602066
 30
0.0
  0
ARC
  5
1D7
330
1F
100
AcDbEntity
  8
0
  6
CONTINUOUS
 62
     7
100
AcDbCircle
 10
8.0234929621
 20
6.9358527875
 30
0.0
 40
0.6784917117448606
100
AcDbArc
 50
122.546952359
 51
177.4584241737
  0
SPLINE
  5
1D8
330
1F
100
AcDbEntity
  8
0
  6
CONTINUOUS
 62
     7
100
AcDbSpline
210
0.0
220
0.0
230
1.0
 70
     8
 71
     3
 72
    10
 73
     6
 74
     0
 42
0.00000001
 43
0.00000001
 40
0.0
 40
0.0
 40
0.0
 40
0.0
 40
0.3471054467024124
 40
0.6567471721584294
 40
1.0
 40
1.0
 40
1.0
 40
1.0
 10
7.717013589276367
 20
7.426444535201926
 30
0.0
 10
7.717465509228998
 20
7.422133802963971
 30
0.0
 10
7.718320572593034
 20
7.413977603647292
 30
0.0
 10
7.724157519577323
 20
7.40216468576762
 30
0.0
 10
7.731647650301603
 20
7.396390061079948
 30
0.0
 10
7.73558551214932
 20
7.393354109495183
 30
0.0
  0
POLYLINE
  5
1D9
330
1F
100
AcDbEntity
  8
0
  6
CONTINUOUS
 62
     7
100
AcDb2dPolyline
 66
     1
 10
0.0
 20
0.0
 30
0.0
  0
VERTEX
  5
3BF
330
1D9
100
AcDbEntity
  8
0
  6
CONTINUOUS
 62
     7
100
AcDbVertex
100
AcDb2dVertex
 10
8.6758089144
 20
6.6557049588
 30
0.0
  0
VERTEX
  5
3C0
330
1D9
100
AcDbEntity
  8
0
  6
CONTINUOUS
 62
     7
100
AcDbVertex
100
AcDb2dVertex
 10
8.6753294497
 20
6.6633699369
 30
0.0
  0
VERTEX
  5
3C1
330
1D9
100
AcDbEntity
  8
0
  6
CONTINUOUS
 62
     7
100
AcDbVertex
100
AcDb2dVertex
 10
8.6751563218
 20
6.6646924216
 30
0.0
  0
SEQEND
  5
3C2
330
1D9
100
AcDbEntity
  8
0
  6
CONTINUOUS
 62
     7
  0
ARC
  5
1DA
330
1F
100
AcDbEntity
  8
0
  6
CONTINUOUS
 62
     7
100
AcDbCircle
 10
8.6501317321
 20
6.6513431497
 30
0.0
 40
0.0260450201154823
100
AcDbArc
 50
241.743358003
 51
9.6408626121
  0
ARC
  5
1DB
330
1F
100
AcDbEntity
  8
0
  6
CONTINUOUS
 62
     7
100
AcDbCircle
 10
8.6734586734
 20
6.6645484564
 30
0.0
 40
0.0494578914878082
100
AcDbArc
 50
237.6774318533
 51
273.1286237371
  0
POLYLINE
  5
1DC
330
1F
100
AcDbEntity
  8
0
  6
CONTINUOUS
 62
     7
100
AcDb2dPolyline
 66
     1
 10
0.0
 20
0.0
 30
0.0
  0
VERTEX
  5
3C3
330
1DC
100
AcDbEntity
  8
0
  6
CONTINUOUS
 62
     7
100
AcDbVertex
100
AcDb2dVertex
 10
7.8617320688
 20
7.4072533299
 30
0.0
  0
VERTEX
  5
3C4
330
1DC
100
AcDbEntity
  8
0
  6
CONTINUOUS
 62
     7
100
AcDbVertex
100
AcDb2dVertex
 10
7.8617464048
 20
7.4072641122
 30
0.0
  0
VERTEX
  5
3C5
330
1DC
100
AcDbEntity
  8
0
  6
CONTINUOUS
 62
     7
100
AcDbVertex
100
AcDb2dVertex
 10
7.8676116698
 20
7.4123315376
 30
0.0
  0
VERTEX
  5
3C6
330
1DC
100
AcDbEntity
  8
0
  6
CONTINUOUS
 62
     7
100
AcDbVertex
100
AcDb2dVertex
 10
7.8722809991
 20
7.417797565
 30
0.0
  0
VERTEX
  5
3C7
330
1DC
100
AcDbEntity
  8
0
  6
CONTINUOUS
 62
     7
100
AcDbVertex
100
AcDb2dVertex
 10
7.8756744992
 20
7.4235686692
 30
0.0
  0
VERTEX
  5
3C8
330
1DC
100
AcDbEntity
  8
0
  6
CONTINUOUS
 62
     7
100
AcDbVertex
100
AcDb2dVertex
 10
7.8777341063
 20
7.429546105
 30
0.0
  0
VERTEX
  5
3C9
330
1DC
100
AcDbEntity
  8
0
  6
CONTINUOUS
 62
     7
100
AcDbVertex
100
AcDb2dVertex
 10
7.8784245801
 20
7.4356275968
 30
0.0
  0
VERTEX
  5
3CA
330
1DC
100
AcDbEntity
  8
0
  6
CONTINUOUS
 62
     7
100
AcDbVertex
100
AcDb2dVertex
 10
7.8777341063
 20
7.4417090886
 30
0.0
  0
VERTEX
  5
3CB
330
1DC
100
AcDbEntity
  8
0
  6
CONTINUOUS
 62
     7
100
AcDbVertex
100
AcDb2dVertex
 10
7.8756744992
 20
7.4476865244
 30
0.0
  0
VERTEX
  5
3CC
330
1DC
100
AcDbEntity
  8
0
  6
CONTINUOUS
 62
     7
100
AcDbVertex
100
AcDb2dVertex
 10
7.8722809991
 20
7.4534576286
 30
0.0
  0
VERTEX
  5
3CD
330
1DC
100
AcDbEntity
  8
0
  6
CONTINUOUS
 62
     7
100
AcDbVertex
100
AcDb2dVertex
 10
7.8676116698
 20
7.4589236561
 30
0.0
  0
VERTEX
  5
3CE
330
1DC
100
AcDbEntity
  8
0
  6
CONTINUOUS
 62
     7
100
AcDbVertex
100
AcDb2dVertex
 10
7.8617464048
 20
7.4639910814
 30
0.0
  0
VERTEX
  5
3CF
330
1DC
100
AcDbEntity
  8
0
  6
CONTINUOUS
 62
     7
100
AcDbVertex
100
AcDb2dVertex
 10
7.8547948336
 20
7.4685678456
 30
0.0
  0
SEQEND
  5
3D0
330
1DC
100
AcDbEntity
  8
0
  6
CONTINUOUS
 62
     7
  0
POLYLINE
  5
1DD
330
1F
100
AcDbEntity
  8
0
  6
CONTINUOUS
 62
     7
100
AcDb2dPolyline
 66
     1
 10
0.0
 20
0.0
 30
0.0
  0
VERTEX
  5
3D1
330
1DD
100
AcDbEntity
  8
0
  6
CONTINUOUS
 62
     7
100
AcDbVertex
100
AcDb2dVertex
 10
7.7406370037
 20
7.4685678456
 30
0.0
  0
VERTEX
  5
3D2
330
1DD
100
AcDbEntity
  8
0
  6
CONTINUOUS
 62
     7
100
AcDbVertex
100
AcDb2dVertex
 10
7.7336854326
 20
7.4639910814
 30
0.0
  0
VERTEX
  5
3D3
330
1DD
100
AcDbEntity
  8
0
  6
CONTINUOUS
 62
     7
100
AcDbVertex
100
AcDb2dVertex
 10
7.7278201676
 20
7.4589236561
 30
0.0
  0
VERTEX
  5
3D4
330
1DD
100
AcDbEntity
  8
0
  6
CONTINUOUS
 62
     7
100
AcDbVertex
100
AcDb2dVertex
 10
7.7231508383
 20
7.4534576286
 30
0.0
  0
VERTEX
  5
3D5
330
1DD
100
AcDbEntity
  8
0
  6
CONTINUOUS
 62
     7
100
AcDbVertex
100
AcDb2dVertex
 10
7.7197573382
 20
7.4476865244
 30
0.0
  0
VERTEX
  5
3D6
330
1DD
100
AcDbEntity
  8
0
  6
CONTINUOUS
 62
     7
100
AcDbVertex
100
AcDb2dVertex
 10
7.7176977311
 20
7.4417090886
 30
0.0
  0
VERTEX
  5
3D7
330
1DD
100
AcDbEntity
  8
0
  6
CONTINUOUS
 62
     7
100
AcDbVertex
100
AcDb2dVertex
 10
7.7170072573
 20
7.4356275968
 30
0.0
  0
VERTEX
  5
3D8
330
1DD
100
AcDbEntity
  8
0
  6
CONTINUOUS
 62
     7
100
AcDbVertex
100
AcDb2dVertex
 10
7.7176977311
 20
7.429546105
 30
0.0
  0
VERTEX
  5
3D9
330
1DD
100
AcDbEntity
  8
0
  6
CONTINUOUS
 62
     7
100
AcDbVertex
100
AcDb2dVertex
 10
7.7197573382
 20
7.4235686692
 30
0.0
  0
VERTEX
  5
3DA
330
1DD
100
AcDbEntity
  8
0
  6
CONTINUOUS
 62
     7
100
AcDbVertex
100
AcDb2dVertex
 10
7.7231508383
 20
7.417797565
 30
0.0
  0
VERTEX
  5
3DB
330
1DD
100
AcDbEntity
  8
0
  6
CONTINUOUS
 62
     7
100
AcDbVertex
100
AcDb2dVertex
 10
7.7278201676
 20
7.4123315376
 30
0.0
  0
VERTEX
  5
3DC
330
1DD
100
AcDbEntity
  8
0
  6
CONTINUOUS
 62
     7
100
AcDbVertex
100
AcDb2dVertex
 10
7.7336854326
 20
7.4072641122
 30
0.0
  0
VERTEX
  5
3DD
330
1DD
100
AcDbEntity
  8
0
  6
CONTINUOUS
 62
     7
100
AcDbVertex
100
AcDb2dVertex
 10
7.7406462769
 20
7.4026819939
 30
0.0
  0
VERTEX
  5
3DE
330
1DD
100
AcDbEntity
  8
0
  6
CONTINUOUS
 62
     7
100
AcDbVertex
100
AcDb2dVertex
 10
7.7485835986
 20
7.398663584
 30
0.0
  0
VERTEX
  5
3DF
330
1DD
100
AcDbEntity
  8
0
  6
CONTINUOUS
 62
     7
100
AcDbVertex
100
AcDb2dVertex
 10
7.757361588
 20
7.3952776386
 30
0.0
  0
VERTEX
  5
3E0
330
1DD
100
AcDbEntity
  8
0
  6
CONTINUOUS
 62
     7
100
AcDbVertex
100
AcDb2dVertex
 10
7.7668300511
 20
7.3925820922
 30
0.0
  0
VERTEX
  5
3E1
330
1DD
100
AcDbEntity
  8
0
  6
CONTINUOUS
 62
     7
100
AcDbVertex
100
AcDb2dVertex
 10
7.77682698
 20
7.3906230663
 30
0.0
  0
VERTEX
  5
3E2
330
1DD
100
AcDbEntity
  8
0
  6
CONTINUOUS
 62
     7
100
AcDbVertex
100
AcDb2dVertex
 10
7.7871813244
 20
7.3894340803
 30
0.0
  0
VERTEX
  5
3E3
330
1DD
100
AcDbEntity
  8
0
  6
CONTINUOUS
 62
     7
100
AcDbVertex
100
AcDb2dVertex
 10
7.7977159187
 20
7.3890354783
 30
0.0
  0
VERTEX
  5
3E4
330
1DD
100
AcDbEntity
  8
0
  6
CONTINUOUS
 62
     7
100
AcDbVertex
100
AcDb2dVertex
 10
7.8069735803
 20
7.3893430033
 30
0.0
  0
SEQEND
  5
3E5
330
1DD
100
AcDbEntity
  8
0
  6
CONTINUOUS
 62
     7
  0
POLYLINE
  5
1DE
330
1F
100
AcDbEntity
  8
0
  6
CONTINUOUS
 62
     7
100
AcDb2dPolyline
 66
     1
 10
0.0
 20
0.0
 30
0.0
  0
VERTEX
  5
3E6
330
1DE
100
AcDbEntity
  8
0
  6
CONTINUOUS
 62
     7
100
AcDbVertex
100
AcDb2dVertex
 10
7.8406434248
 20
7.4271768912
 30
0.0
  0
VERTEX
  5
3E7
330
1DE
100
AcDbEntity
  8
0
  6
CONTINUOUS
 62
     7
100
AcDbVertex
100
AcDb2dVertex
 10
7.8337659473
 20
7.4237601862
 30
0.0
  0
VERTEX
  5
3E8
330
1DE
100
AcDbEntity
  8
0
  6
CONTINUOUS
 62
     7
100
AcDbVertex
100
AcDb2dVertex
 10
7.8260831716
 20
7.4209733829
 30
0.0
  0
VERTEX
  5
3E9
330
1DE
100
AcDbEntity
  8
0
  6
CONTINUOUS
 62
     7
100
AcDbVertex
100
AcDb2dVertex
 10
7.8177667184
 20
7.418878734
 30
0.0
  0
VERTEX
  5
3EA
330
1DE
100
AcDbEntity
  8
0
  6
CONTINUOUS
 62
     7
100
AcDbVertex
100
AcDb2dVertex
 10
7.8090023635
 20
7.4175230305
 30
0.0
  0
VERTEX
  5
3EB
330
1DE
100
AcDbEntity
  8
0
  6
CONTINUOUS
 62
     7
100
AcDbVertex
100
AcDb2dVertex
 10
7.799985888
 20
7.4169365565
 30
0.0
  0
VERTEX
  5
3EC
330
1DE
100
AcDbEntity
  8
0
  6
CONTINUOUS
 62
     7
100
AcDbVertex
100
AcDb2dVertex
 10
7.7909187052
 20
7.417132413
 30
0.0
  0
VERTEX
  5
3ED
330
1DE
100
AcDbEntity
  8
0
  6
CONTINUOUS
 62
     7
100
AcDbVertex
100
AcDb2dVertex
 10
7.7820033609
 20
7.4181062247
 30
0.0
  0
VERTEX
  5
3EE
330
1DE
100
AcDbEntity
  8
0
  6
CONTINUOUS
 62
     7
100
AcDbVertex
100
AcDb2dVertex
 10
7.7734390092
 20
7.4198362384
 30
0.0
  0
VERTEX
  5
3EF
330
1DE
100
AcDbEntity
  8
0
  6
CONTINUOUS
 62
     7
100
AcDbVertex
100
AcDb2dVertex
 10
7.7654169635
 20
7.4222838083
 30
0.0
  0
VERTEX
  5
3F0
330
1DE
100
AcDbEntity
  8
0
  6
CONTINUOUS
 62
     7
100
AcDbVertex
100
AcDb2dVertex
 10
7.7581164231
 20
7.4253942599
 30
0.0
  0
VERTEX
  5
3F1
330
1DE
100
AcDbEntity
  8
0
  6
CONTINUOUS
 62
     7
100
AcDbVertex
100
AcDb2dVertex
 10
7.75170047
 20
7.4290981108
 30
0.0
  0
VERTEX
  5
3F2
330
1DE
100
AcDbEntity
  8
0
  6
CONTINUOUS
 62
     7
100
AcDbVertex
100
AcDb2dVertex
 10
7.746312426
 20
7.4333126231
 30
0.0
  0
VERTEX
  5
3F3
330
1DE
100
AcDbEntity
  8
0
  6
CONTINUOUS
 62
     7
100
AcDbVertex
100
AcDb2dVertex
 10
7.742072651
 20
7.4379436515
 30
0.0
  0
VERTEX
  5
3F4
330
1DE
100
AcDbEntity
  8
0
  6
CONTINUOUS
 62
     7
100
AcDbVertex
100
AcDb2dVertex
 10
7.7390758547
 20
7.4428877465
 30
0.0
  0
VERTEX
  5
3F5
330
1DE
100
AcDbEntity
  8
0
  6
CONTINUOUS
 62
     7
100
AcDbVertex
100
AcDb2dVertex
 10
7.7373889806
 20
7.4480344652
 30
0.0
  0
VERTEX
  5
3F6
330
1DE
100
AcDbEntity
  8
0
  6
CONTINUOUS
 62
     7
100
AcDbVertex
100
AcDb2dVertex
 10
7.7370497105
 20
7.4532688385
 30
0.0
  0
VERTEX
  5
3F7
330
1DE
100
AcDbEntity
  8
0
  6
CONTINUOUS
 62
     7
100
AcDbVertex
100
AcDb2dVertex
 10
7.7380656233
 20
7.458473939
 30
0.0
  0
VERTEX
  5
3F8
330
1DE
100
AcDbEntity
  8
0
  6
CONTINUOUS
 62
     7
100
AcDbVertex
100
AcDb2dVertex
 10
7.7404140252
 20
7.4635334934
 30
0.0
  0
VERTEX
  5
3F9
330
1DE
100
AcDbEntity
  8
0
  6
CONTINUOUS
 62
     7
100
AcDbVertex
100
AcDb2dVertex
 10
7.7440424566
 20
7.4683344796
 30
0.0
  0
VERTEX
  5
3FA
330
1DE
100
AcDbEntity
  8
0
  6
CONTINUOUS
 62
     7
100
AcDbVertex
100
AcDb2dVertex
 10
7.7488698645
 20
7.4727696516
 30
0.0
  0
VERTEX
  5
3FB
330
1DE
100
AcDbEntity
  8
0
  6
CONTINUOUS
 62
     7
100
AcDbVertex
100
AcDb2dVertex
 10
7.7547884125
 20
7.4767399349
 30
0.0
  0
VERTEX
  5
3FC
330
1DE
100
AcDbEntity
  8
0
  6
CONTINUOUS
 62
     7
100
AcDbVertex
100
AcDb2dVertex
 10
7.7616658901
 20
7.4801566399
 30
0.0
  0
VERTEX
  5
3FD
330
1DE
100
AcDbEntity
  8
0
  6
CONTINUOUS
 62
     7
100
AcDbVertex
100
AcDb2dVertex
 10
7.7693486657
 20
7.4829434432
 30
0.0
  0
VERTEX
  5
3FE
330
1DE
100
AcDbEntity
  8
0
  6
CONTINUOUS
 62
     7
100
AcDbVertex
100
AcDb2dVertex
 10
7.7776651189
 20
7.4850380921
 30
0.0
  0
VERTEX
  5
3FF
330
1DE
100
AcDbEntity
  8
0
  6
CONTINUOUS
 62
     7
100
AcDbVertex
100
AcDb2dVertex
 10
7.7864294739
 20
7.4863937956
 30
0.0
  0
VERTEX
  5
400
330
1DE
100
AcDbEntity
  8
0
  6
CONTINUOUS
 62
     7
100
AcDbVertex
100
AcDb2dVertex
 10
7.7954459493
 20
7.4869802695
 30
0.0
  0
VERTEX
  5
401
330
1DE
100
AcDbEntity
  8
0
  6
CONTINUOUS
 62
     7
100
AcDbVertex
100
AcDb2dVertex
 10
7.8045131322
 20
7.4867844131
 30
0.0
  0
VERTEX
  5
402
330
1DE
100
AcDbEntity
  8
0
  6
CONTINUOUS
 62
     7
100
AcDbVertex
100
AcDb2dVertex
 10
7.8134284765
 20
7.4858106014
 30
0.0
  0
VERTEX
  5
403
330
1DE
100
AcDbEntity
  8
0
  6
CONTINUOUS
 62
     7
100
AcDbVertex
100
AcDb2dVertex
 10
7.8219928282
 20
7.4840805877
 30
0.0
  0
VERTEX
  5
404
330
1DE
100
AcDbEntity
  8
0
  6
CONTINUOUS
 62
     7
100
AcDbVertex
100
AcDb2dVertex
 10
7.8300148739
 20
7.4816330178
 30
0.0
  0
VERTEX
  5
405
330
1DE
100
AcDbEntity
  8
0
  6
CONTINUOUS
 62
     7
100
AcDbVertex
100
AcDb2dVertex
 10
7.8373154143
 20
7.4785225662
 30
0.0
  0
VERTEX
  5
406
330
1DE
100
AcDbEntity
  8
0
  6
CONTINUOUS
 62
     7
100
AcDbVertex
100
AcDb2dVertex
 10
7.8437313674
 20
7.4748187153
 30
0.0
  0
VERTEX
  5
407
330
1DE
100
AcDbEntity
  8
0
  6
CONTINUOUS
 62
     7
100
AcDbVertex
100
AcDb2dVertex
 10
7.8491194114
 20
7.470604203
 30
0.0
  0
VERTEX
  5
408
330
1DE
100
AcDbEntity
  8
0
  6
CONTINUOUS
 62
     7
100
AcDbVertex
100
AcDb2dVertex
 10
7.8533591863
 20
7.4659731746
 30
0.0
  0
VERTEX
  5
409
330
1DE
100
AcDbEntity
  8
0
  6
CONTINUOUS
 62
     7
100
AcDbVertex
100
AcDb2dVertex
 10
7.8563559826
 20
7.4610290796
 30
0.0
  0
VERTEX
  5
40A
330
1DE
100
AcDbEntity
  8
0
  6
CONTINUOUS
 62
     7
100
AcDbVertex
100
AcDb2dVertex
 10
7.8580428568
 20
7.4558823609
 30
0.0
  0
VERTEX
  5
40B
330
1DE
100
AcDbEntity
  8
0
  6
CONTINUOUS
 62
     7
100
AcDbVertex
100
AcDb2dVertex
 10
7.8583821268
 20
7.4506479876
 30
0.0
  0
VERTEX
  5
40C
330
1DE
100
AcDbEntity
  8
0
  6
CONTINUOUS
 62
     7
100
AcDbVertex
100
AcDb2dVertex
 10
7.857366214
 20
7.4454428871
 30
0.0
  0
VERTEX
  5
40D
330
1DE
100
AcDbEntity
  8
0
  6
CONTINUOUS
 62
     7
100
AcDbVertex
100
AcDb2dVertex
 10
7.8550178122
 20
7.4403833327
 30
0.0
  0
VERTEX
  5
40E
330
1DE
100
AcDbEntity
  8
0
  6
CONTINUOUS
 62
     7
100
AcDbVertex
100
AcDb2dVertex
 10
7.8513893808
 20
7.4355823465
 30
0.0
  0
VERTEX
  5
40F
330
1DE
100
AcDbEntity
  8
0
  6
CONTINUOUS
 62
     7
100
AcDbVertex
100
AcDb2dVertex
 10
7.8465619729
 20
7.4311471745
 30
0.0
  0
VERTEX
  5
410
330
1DE
100
AcDbEntity
  8
0
  6
CONTINUOUS
 62
     7
100
AcDbVertex
100
AcDb2dVertex
 10
7.8406434248
 20
7.4271768912
 30
0.0
  0
SEQEND
  5
411
330
1DE
100
AcDbEntity
  8
0
  6
CONTINUOUS
 62
     7
  0
LINE
  5
1DF
330
1F
100
AcDbEntity
  8
0
  6
CONTINUOUS
 62
     7
100
AcDbLine
 10
7.7496234335
 20
7.4593975403
 30
0.0
 11
7.7848295761
 21
7.4797216138
 31
0.0
  0
LINE
  5
1E0
330
1F
100
AcDbEntity
  8
0
  6
CONTINUOUS
 62
     7
100
AcDbLine
 10
7.7625097761
 20
7.4316343395
 30
0.0
 11
7.7496234335
 21
7.4593975403
 31
0.0
  0
LINE
  5
1E1
330
1F
100
AcDbEntity
  8
0
  6
CONTINUOUS
 62
     7
100
AcDbLine
 10
7.8106022613
 20
7.4241952123
 30
0.0
 11
7.7625097761
 21
7.4316343395
 31
0.0
  0
LINE
  5
1E2
330
1F
100
AcDbEntity
  8
0
  6
CONTINUOUS
 62
     7
100
AcDbLine
 10
7.8458084039
 20
7.4445192858
 30
0.0
 11
7.8106022613
 21
7.4241952123
 31
0.0
  0
LINE
  5
1E3
330
1F
100
AcDbEntity
  8
0
  6
CONTINUOUS
 62
     7
100
AcDbLine
 10
7.8329220613
 20
7.4722824866
 30
0.0
 11
7.8458084039
 21
7.4445192858
 31
0.0
  0
LINE
  5
1E4
330
1F
100
AcDbEntity
  8
0
  6
CONTINUOUS
 62
     7
100
AcDbLine
 10
7.7848295761
 20
7.4797216138
 30
0.0
 11
7.8329220613
 21
7.4722824866
 31
0.0
  0
LINE
  5
1E5
330
1F
100
AcDbEntity
  8
0
  6
CONTINUOUS
 62
     7
100
AcDbLine
 10
7.8329220613
 20
7.4370801586
 30
0.0
 11
7.8329220613
 21
7.4722824866
 31
0.0
  0
LINE
  5
1E6
330
1F
100
AcDbEntity
  8
0
  6
CONTINUOUS
 62
     7
100
AcDbLine
 10
7.7848295761
 20
7.4281818286
 30
0.0
 11
7.7848295761
 21
7.4797216138
 31
0.0
  0
POLYLINE
  5
1E7
330
1F
100
AcDbEntity
  8
0
  6
CONTINUOUS
 62
     7
100
AcDb2dPolyline
 66
     1
 10
0.0
 20
0.0
 30
0.0
  0
VERTEX
  5
412
330
1E7
100
AcDbEntity
  8
0
  6
CONTINUOUS
 62
     7
100
AcDbVertex
100
AcDb2dVertex
 10
8.6064437743
 20
7.0346501484
 30
0.0
  0
VERTEX
  5
413
330
1E7
100
AcDbEntity
  8
0
  6
CONTINUOUS
 62
     7
100
AcDbVertex
100
AcDb2dVertex
 10
8.6133953454
 20
7.0300733842
 30
0.0
  0
VERTEX
  5
414
330
1E7
100
AcDbEntity
  8
0
  6
CONTINUOUS
 62
     7
100
AcDbVertex
100
AcDb2dVertex
 10
8.6192606104
 20
7.0250059588
 30
0.0
  0
VERTEX
  5
415
330
1E7
100
AcDbEntity
  8
0
  6
CONTINUOUS
 62
     7
100
AcDbVertex
100
AcDb2dVertex
 10
8.6239299397
 20
7.0195399314
 30
0.0
  0
VERTEX
  5
416
330
1E7
100
AcDbEntity
  8
0
  6
CONTINUOUS
 62
     7
100
AcDbVertex
100
AcDb2dVertex
 10
8.6273234398
 20
7.0137688272
 30
0.0
  0
VERTEX
  5
417
330
1E7
100
AcDbEntity
  8
0
  6
CONTINUOUS
 62
     7
100
AcDbVertex
100
AcDb2dVertex
 10
8.6293830469
 20
7.0077913914
 30
0.0
  0
VERTEX
  5
418
330
1E7
100
AcDbEntity
  8
0
  6
CONTINUOUS
 62
     7
100
AcDbVertex
100
AcDb2dVertex
 10
8.6300735207
 20
7.0017098996
 30
0.0
  0
VERTEX
  5
419
330
1E7
100
AcDbEntity
  8
0
  6
CONTINUOUS
 62
     7
100
AcDbVertex
100
AcDb2dVertex
 10
8.6293830469
 20
6.9956284078
 30
0.0
  0
VERTEX
  5
41A
330
1E7
100
AcDbEntity
  8
0
  6
CONTINUOUS
 62
     7
100
AcDbVertex
100
AcDb2dVertex
 10
8.6273234398
 20
6.989650972
 30
0.0
  0
VERTEX
  5
41B
330
1E7
100
AcDbEntity
  8
0
  6
CONTINUOUS
 62
     7
100
AcDbVertex
100
AcDb2dVertex
 10
8.6239299397
 20
6.9838798678
 30
0.0
  0
VERTEX
  5
41C
330
1E7
100
AcDbEntity
  8
0
  6
CONTINUOUS
 62
     7
100
AcDbVertex
100
AcDb2dVertex
 10
8.6192606104
 20
6.9784138403
 30
0.0
  0
VERTEX
  5
41D
330
1E7
100
AcDbEntity
  8
0
  6
CONTINUOUS
 62
     7
100
AcDbVertex
100
AcDb2dVertex
 10
8.6135016163
 20
6.9734265459
 30
0.0
  0
SEQEND
  5
41E
330
1E7
100
AcDbEntity
  8
0
  6
CONTINUOUS
 62
     7
  0
POLYLINE
  5
1E8
330
1F
100
AcDbEntity
  8
0
  6
CONTINUOUS
 62
     7
100
AcDb2dPolyline
 66
     1
 10
0.0
 20
0.0
 30
0.0
  0
VERTEX
  5
41F
330
1E8
100
AcDbEntity
  8
0
  6
CONTINUOUS
 62
     7
100
AcDbVertex
100
AcDb2dVertex
 10
8.5581854818
 20
6.9553968705
 30
0.0
  0
VERTEX
  5
420
330
1E8
100
AcDbEntity
  8
0
  6
CONTINUOUS
 62
     7
100
AcDbVertex
100
AcDb2dVertex
 10
8.5493648593
 20
6.9551177811
 30
0.0
  0
VERTEX
  5
421
330
1E8
100
AcDbEntity
  8
0
  6
CONTINUOUS
 62
     7
100
AcDbVertex
100
AcDb2dVertex
 10
8.5388302651
 20
6.9555163831
 30
0.0
  0
VERTEX
  5
422
330
1E8
100
AcDbEntity
  8
0
  6
CONTINUOUS
 62
     7
100
AcDbVertex
100
AcDb2dVertex
 10
8.5284759206
 20
6.956705369
 30
0.0
  0
VERTEX
  5
423
330
1E8
100
AcDbEntity
  8
0
  6
CONTINUOUS
 62
     7
100
AcDbVertex
100
AcDb2dVertex
 10
8.5184789917
 20
6.9586643949
 30
0.0
  0
VERTEX
  5
424
330
1E8
100
AcDbEntity
  8
0
  6
CONTINUOUS
 62
     7
100
AcDbVertex
100
AcDb2dVertex
 10
8.5090105286
 20
6.9613599413
 30
0.0
  0
VERTEX
  5
425
330
1E8
100
AcDbEntity
  8
0
  6
CONTINUOUS
 62
     7
100
AcDbVertex
100
AcDb2dVertex
 10
8.5002325393
 20
6.9647458867
 30
0.0
  0
VERTEX
  5
426
330
1E8
100
AcDbEntity
  8
0
  6
CONTINUOUS
 62
     7
100
AcDbVertex
100
AcDb2dVertex
 10
8.4922952175
 20
6.9687642966
 30
0.0
  0
VERTEX
  5
427
330
1E8
100
AcDbEntity
  8
0
  6
CONTINUOUS
 62
     7
100
AcDbVertex
100
AcDb2dVertex
 10
8.4853343732
 20
6.9733464149
 30
0.0
  0
VERTEX
  5
428
330
1E8
100
AcDbEntity
  8
0
  6
CONTINUOUS
 62
     7
100
AcDbVertex
100
AcDb2dVertex
 10
8.4794691082
 20
6.9784138403
 30
0.0
  0
VERTEX
  5
429
330
1E8
100
AcDbEntity
  8
0
  6
CONTINUOUS
 62
     7
100
AcDbVertex
100
AcDb2dVertex
 10
8.4747997789
 20
6.9838798678
 30
0.0
  0
VERTEX
  5
42A
330
1E8
100
AcDbEntity
  8
0
  6
CONTINUOUS
 62
     7
100
AcDbVertex
100
AcDb2dVertex
 10
8.4714062788
 20
6.989650972
 30
0.0
  0
VERTEX
  5
42B
330
1E8
100
AcDbEntity
  8
0
  6
CONTINUOUS
 62
     7
100
AcDbVertex
100
AcDb2dVertex
 10
8.4693466717
 20
6.9956284078
 30
0.0
  0
VERTEX
  5
42C
330
1E8
100
AcDbEntity
  8
0
  6
CONTINUOUS
 62
     7
100
AcDbVertex
100
AcDb2dVertex
 10
8.4686561979
 20
7.0017098996
 30
0.0
  0
VERTEX
  5
42D
330
1E8
100
AcDbEntity
  8
0
  6
CONTINUOUS
 62
     7
100
AcDbVertex
100
AcDb2dVertex
 10
8.4693466717
 20
7.0077913914
 30
0.0
  0
VERTEX
  5
42E
330
1E8
100
AcDbEntity
  8
0
  6
CONTINUOUS
 62
     7
100
AcDbVertex
100
AcDb2dVertex
 10
8.4714062788
 20
7.0137688272
 30
0.0
  0
VERTEX
  5
42F
330
1E8
100
AcDbEntity
  8
0
  6
CONTINUOUS
 62
     7
100
AcDbVertex
100
AcDb2dVertex
 10
8.4747997789
 20
7.0195399314
 30
0.0
  0
VERTEX
  5
430
330
1E8
100
AcDbEntity
  8
0
  6
CONTINUOUS
 62
     7
100
AcDbVertex
100
AcDb2dVertex
 10
8.4794691082
 20
7.0250059588
 30
0.0
  0
VERTEX
  5
431
330
1E8
100
AcDbEntity
  8
0
  6
CONTINUOUS
 62
     7
100
AcDbVertex
100
AcDb2dVertex
 10
8.4853343732
 20
7.0300733842
 30
0.0
  0
VERTEX
  5
432
330
1E8
100
AcDbEntity
  8
0
  6
CONTINUOUS
 62
     7
100
AcDbVertex
100
AcDb2dVertex
 10
8.4922952175
 20
7.0346555025
 30
0.0
  0
SEQEND
  5
433
330
1E8
100
AcDbEntity
  8
0
  6
CONTINUOUS
 62
     7
  0
POLYLINE
  5
1E9
330
1F
100
AcDbEntity
  8
0
  6
CONTINUOUS
 62
     7
100
AcDb2dPolyline
 66
     1
 10
0.0
 20
0.0
 30
0.0
  0
VERTEX
  5
434
330
1E9
100
AcDbEntity
  8
0
  6
CONTINUOUS
 62
     7
100
AcDbVertex
100
AcDb2dVertex
 10
8.5064373532
 20
7.0428222376
 30
0.0
  0
VERTEX
  5
435
330
1E9
100
AcDbEntity
  8
0
  6
CONTINUOUS
 62
     7
100
AcDbVertex
100
AcDb2dVertex
 10
8.5005188051
 20
7.0388519543
 30
0.0
  0
VERTEX
  5
436
330
1E9
100
AcDbEntity
  8
0
  6
CONTINUOUS
 62
     7
100
AcDbVertex
100
AcDb2dVertex
 10
8.4956913972
 20
7.0344167824
 30
0.0
  0
VERTEX
  5
437
330
1E9
100
AcDbEntity
  8
0
  6
CONTINUOUS
 62
     7
100
AcDbVertex
100
AcDb2dVertex
 10
8.4920629658
 20
7.0296157961
 30
0.0
  0
VERTEX
  5
438
330
1E9
100
AcDbEntity
  8
0
  6
CONTINUOUS
 62
     7
100
AcDbVertex
100
AcDb2dVertex
 10
8.489714564
 20
7.0245562417
 30
0.0
  0
VERTEX
  5
439
330
1E9
100
AcDbEntity
  8
0
  6
CONTINUOUS
 62
     7
100
AcDbVertex
100
AcDb2dVertex
 10
8.4886986512
 20
7.0193511412
 30
0.0
  0
VERTEX
  5
43A
330
1E9
100
AcDbEntity
  8
0
  6
CONTINUOUS
 62
     7
100
AcDbVertex
100
AcDb2dVertex
 10
8.4890379212
 20
7.014116768
 30
0.0
  0
VERTEX
  5
43B
330
1E9
100
AcDbEntity
  8
0
  6
CONTINUOUS
 62
     7
100
AcDbVertex
100
AcDb2dVertex
 10
8.4907247954
 20
7.0089700493
 30
0.0
  0
VERTEX
  5
43C
330
1E9
100
AcDbEntity
  8
0
  6
CONTINUOUS
 62
     7
100
AcDbVertex
100
AcDb2dVertex
 10
8.4937215917
 20
7.0040259543
 30
0.0
  0
VERTEX
  5
43D
330
1E9
100
AcDbEntity
  8
0
  6
CONTINUOUS
 62
     7
100
AcDbVertex
100
AcDb2dVertex
 10
8.4979613666
 20
6.9993949259
 30
0.0
  0
VERTEX
  5
43E
330
1E9
100
AcDbEntity
  8
0
  6
CONTINUOUS
 62
     7
100
AcDbVertex
100
AcDb2dVertex
 10
8.5033494106
 20
6.9951804136
 30
0.0
  0
VERTEX
  5
43F
330
1E9
100
AcDbEntity
  8
0
  6
CONTINUOUS
 62
     7
100
AcDbVertex
100
AcDb2dVertex
 10
8.5097653637
 20
6.9914765627
 30
0.0
  0
VERTEX
  5
440
330
1E9
100
AcDbEntity
  8
0
  6
CONTINUOUS
 62
     7
100
AcDbVertex
100
AcDb2dVertex
 10
8.5170659041
 20
6.9883661111
 30
0.0
  0
VERTEX
  5
441
330
1E9
100
AcDbEntity
  8
0
  6
CONTINUOUS
 62
     7
100
AcDbVertex
100
AcDb2dVertex
 10
8.5250879498
 20
6.9859185411
 30
0.0
  0
VERTEX
  5
442
330
1E9
100
AcDbEntity
  8
0
  6
CONTINUOUS
 62
     7
100
AcDbVertex
100
AcDb2dVertex
 10
8.5336523015
 20
6.9841885275
 30
0.0
  0
VERTEX
  5
443
330
1E9
100
AcDbEntity
  8
0
  6
CONTINUOUS
 62
     7
100
AcDbVertex
100
AcDb2dVertex
 10
8.5425676458
 20
6.9832147157
 30
0.0
  0
VERTEX
  5
444
330
1E9
100
AcDbEntity
  8
0
  6
CONTINUOUS
 62
     7
100
AcDbVertex
100
AcDb2dVertex
 10
8.5516348287
 20
6.9830188593
 30
0.0
  0
VERTEX
  5
445
330
1E9
100
AcDbEntity
  8
0
  6
CONTINUOUS
 62
     7
100
AcDbVertex
100
AcDb2dVertex
 10
8.5606513041
 20
6.9836053333
 30
0.0
  0
VERTEX
  5
446
330
1E9
100
AcDbEntity
  8
0
  6
CONTINUOUS
 62
     7
100
AcDbVertex
100
AcDb2dVertex
 10
8.5694156591
 20
6.9849610368
 30
0.0
  0
VERTEX
  5
447
330
1E9
100
AcDbEntity
  8
0
  6
CONTINUOUS
 62
     7
100
AcDbVertex
100
AcDb2dVertex
 10
8.5777321123
 20
6.9870556857
 30
0.0
  0
VERTEX
  5
448
330
1E9
100
AcDbEntity
  8
0
  6
CONTINUOUS
 62
     7
100
AcDbVertex
100
AcDb2dVertex
 10
8.5854148879
 20
6.989842489
 30
0.0
  0
VERTEX
  5
449
330
1E9
100
AcDbEntity
  8
0
  6
CONTINUOUS
 62
     7
100
AcDbVertex
100
AcDb2dVertex
 10
8.5922923655
 20
6.993259194
 30
0.0
  0
VERTEX
  5
44A
330
1E9
100
AcDbEntity
  8
0
  6
CONTINUOUS
 62
     7
100
AcDbVertex
100
AcDb2dVertex
 10
8.5982109135
 20
6.9972294773
 30
0.0
  0
VERTEX
  5
44B
330
1E9
100
AcDbEntity
  8
0
  6
CONTINUOUS
 62
     7
100
AcDbVertex
100
AcDb2dVertex
 10
8.6030383214
 20
7.0016646493
 30
0.0
  0
VERTEX
  5
44C
330
1E9
100
AcDbEntity
  8
0
  6
CONTINUOUS
 62
     7
100
AcDbVertex
100
AcDb2dVertex
 10
8.6066667528
 20
7.0064656355
 30
0.0
  0
VERTEX
  5
44D
330
1E9
100
AcDbEntity
  8
0
  6
CONTINUOUS
 62
     7
100
AcDbVertex
100
AcDb2dVertex
 10
8.6090151547
 20
7.0115251899
 30
0.0
  0
VERTEX
  5
44E
330
1E9
100
AcDbEntity
  8
0
  6
CONTINUOUS
 62
     7
100
AcDbVertex
100
AcDb2dVertex
 10
8.6100310675
 20
7.0167302904
 30
0.0
  0
VERTEX
  5
44F
330
1E9
100
AcDbEntity
  8
0
  6
CONTINUOUS
 62
     7
100
AcDbVertex
100
AcDb2dVertex
 10
8.6096917974
 20
7.0219646636
 30
0.0
  0
VERTEX
  5
450
330
1E9
100
AcDbEntity
  8
0
  6
CONTINUOUS
 62
     7
100
AcDbVertex
100
AcDb2dVertex
 10
8.6080049233
 20
7.0271113824
 30
0.0
  0
VERTEX
  5
451
330
1E9
100
AcDbEntity
  8
0
  6
CONTINUOUS
 62
     7
100
AcDbVertex
100
AcDb2dVertex
 10
8.605008127
 20
7.0320554774
 30
0.0
  0
VERTEX
  5
452
330
1E9
100
AcDbEntity
  8
0
  6
CONTINUOUS
 62
     7
100
AcDbVertex
100
AcDb2dVertex
 10
8.600768352
 20
7.0366865058
 30
0.0
  0
VERTEX
  5
453
330
1E9
100
AcDbEntity
  8
0
  6
CONTINUOUS
 62
     7
100
AcDbVertex
100
AcDb2dVertex
 10
8.595380308
 20
7.040901018
 30
0.0
  0
VERTEX
  5
454
330
1E9
100
AcDbEntity
  8
0
  6
CONTINUOUS
 62
     7
100
AcDbVertex
100
AcDb2dVertex
 10
8.5889643549
 20
7.0446048689
 30
0.0
  0
VERTEX
  5
455
330
1E9
100
AcDbEntity
  8
0
  6
CONTINUOUS
 62
     7
100
AcDbVertex
100
AcDb2dVertex
 10
8.5816638145
 20
7.0477153205
 30
0.0
  0
VERTEX
  5
456
330
1E9
100
AcDbEntity
  8
0
  6
CONTINUOUS
 62
     7
100
AcDbVertex
100
AcDb2dVertex
 10
8.5736417688
 20
7.0501628905
 30
0.0
  0
VERTEX
  5
457
330
1E9
100
AcDbEntity
  8
0
  6
CONTINUOUS
 62
     7
100
AcDbVertex
100
AcDb2dVertex
 10
8.5650774171
 20
7.0518929042
 30
0.0
  0
VERTEX
  5
458
330
1E9
100
AcDbEntity
  8
0
  6
CONTINUOUS
 62
     7
100
AcDbVertex
100
AcDb2dVertex
 10
8.5561620728
 20
7.0528667159
 30
0.0
  0
VERTEX
  5
459
330
1E9
100
AcDbEntity
  8
0
  6
CONTINUOUS
 62
     7
100
AcDbVertex
100
AcDb2dVertex
 10
8.54709489
 20
7.0530625723
 30
0.0
  0
VERTEX
  5
45A
330
1E9
100
AcDbEntity
  8
0
  6
CONTINUOUS
 62
     7
100
AcDbVertex
100
AcDb2dVertex
 10
8.5380784145
 20
7.0524760983
 30
0.0
  0
VERTEX
  5
45B
330
1E9
100
AcDbEntity
  8
0
  6
CONTINUOUS
 62
     7
100
AcDbVertex
100
AcDb2dVertex
 10
8.5293140596
 20
7.0511203948
 30
0.0
  0
VERTEX
  5
45C
330
1E9
100
AcDbEntity
  8
0
  6
CONTINUOUS
 62
     7
100
AcDbVertex
100
AcDb2dVertex
 10
8.5209976064
 20
7.0490257459
 30
0.0
  0
VERTEX
  5
45D
330
1E9
100
AcDbEntity
  8
0
  6
CONTINUOUS
 62
     7
100
AcDbVertex
100
AcDb2dVertex
 10
8.5133148307
 20
7.0462389427
 30
0.0
  0
VERTEX
  5
45E
330
1E9
100
AcDbEntity
  8
0
  6
CONTINUOUS
 62
     7
100
AcDbVertex
100
AcDb2dVertex
 10
8.5064373532
 20
7.0428222376
 30
0.0
  0
SEQEND
  5
45F
330
1E9
100
AcDbEntity
  8
0
  6
CONTINUOUS
 62
     7
  0
LINE
  5
1EA
330
1F
100
AcDbEntity
  8
0
  6
CONTINUOUS
 62
     7
100
AcDbLine
 10
8.5845710019
 20
7.0383647894
 30
0.0
 11
8.5364785167
 21
7.0458039166
 31
0.0
  0
LINE
  5
1EB
330
1F
100
AcDbEntity
  8
0
  6
CONTINUOUS
 62
     7
100
AcDbLine
 10
8.5364785167
 20
7.0458039166
 30
0.0
 11
8.5012723741
 21
7.025479843
 31
0.0
  0
LINE
  5
1EC
330
1F
100
AcDbEntity
  8
0
  6
CONTINUOUS
 62
     7
100
AcDbLine
 10
8.5012723741
 20
7.025479843
 30
0.0
 11
8.5141587167
 21
6.9977166423
 31
0.0
  0
LINE
  5
1ED
330
1F
100
AcDbEntity
  8
0
  6
CONTINUOUS
 62
     7
100
AcDbLine
 10
8.5141587167
 20
6.9977166423
 30
0.0
 11
8.5622512019
 21
6.9902775151
 31
0.0
  0
LINE
  5
1EE
330
1F
100
AcDbEntity
  8
0
  6
CONTINUOUS
 62
     7
100
AcDbLine
 10
8.5622512019
 20
6.9902775151
 30
0.0
 11
8.5974573445
 21
7.0106015886
 31
0.0
  0
LINE
  5
1EF
330
1F
100
AcDbEntity
  8
0
  6
CONTINUOUS
 62
     7
100
AcDbLine
 10
8.5974573445
 20
7.0106015886
 30
0.0
 11
8.5845710019
 21
7.0383647894
 31
0.0
  0
LINE
  5
1F0
330
1F
100
AcDbEntity
  8
0
  6
CONTINUOUS
 62
     7
100
AcDbLine
 10
8.5845710019
 20
7.0031624614
 30
0.0
 11
8.5845710019
 21
7.0383647894
 31
0.0
  0
LINE
  5
1F1
330
1F
100
AcDbEntity
  8
0
  6
CONTINUOUS
 62
     7
100
AcDbLine
 10
8.5364785167
 20
6.9942641313
 30
0.0
 11
8.5364785167
 21
7.0458039166
 31
0.0
  0
ENDSEC
  0
SECTION
  2
OBJECTS
  0
DICTIONARY
  5
C
330
0
100
AcDbDictionary
  3
ACAD_GROUP
350
D
  3
ACAD_LAYOUT
350
1A
  3
ACAD_MLEADERSTYLE
350
1F4
  3
ACAD_MLINESTYLE
350
17
  3
ACAD_PLOTSETTINGS
350
19
  3
ACAD_SCALELIST
350
6F
  3
ACAD_VISUALSTYLE
350
2A
  3
ACDBVARIABLEDICTIONARY
350
1F2
1001
ACAD
1000
TREAT_AS_HARD
1070
     0
  0
DICTIONARY
  5
D
102
{ACAD_REACTORS
330
C
102
}
330
C
100
AcDbDictionary
1001
ACAD
1000
TREAT_AS_HARD
1070
     0
  0
DICTIONARY
  5
1A
102
{ACAD_REACTORS
330
C
102
}
330
C
100
AcDbDictionary
1001
ACAD
1000
TREAT_AS_HARD
1070
     0
  0
DICTIONARY
  5
1F4
102
{ACAD_REACTORS
330
C
102
}
330
C
100
AcDbDictionary
1001
ACAD
1000
TREAT_AS_HARD
1070
     0
  0
DICTIONARY
  5
17
102
{ACAD_REACTORS
330
C
102
}
330
C
100
AcDbDictionary
  3
STANDARD
350
18
1001
ACAD
1000
TREAT_AS_HARD
1070
     0
  0
DICTIONARY
  5
19
102
{ACAD_REACTORS
330
C
102
}
330
C
100
AcDbDictionary
1001
ACAD
1000
TREAT_AS_HARD
1070
     0
  0
DICTIONARY
  5
6F
102
{ACAD_REACTORS
330
C
102
}
330
C
100
AcDbDictionary
  3
A0
350
70
  3
A1
350
71
  3
A2
350
72
  3
A3
350
73
  3
A4
350
74
  3
A5
350
75
  3
A6
350
76
  3
A7
350
77
  3
A8
350
78
  3
A9
350
79
  3
B0
350
7A
  3
B1
350
7B
  3
B2
350
7C
  3
B3
350
7D
  3
B4
350
7E
  3
B5
350
7F
  3
B6
350
80
  3
B7
350
81
  3
B8
350
82
  3
B9
350
83
  3
C0
350
84
  3
C1
350
85
  3
C2
350
86
  3
C3
350
87
  3
C4
350
88
  3
C5
350
89
  3
C6
350
8A
  3
C7
350
8B
  3
C8
350
8C
  3
C9
350
8D
  3
D0
350
8E
  3
D1
350
8F
  3
D2
350
90
1001
ACAD
1000
TREAT_AS_HARD
1070
     0
  0
DICTIONARY
  5
2A
102
{ACAD_REACTORS
330
C
102
}
330
C
100
AcDbDictionary
  3
2DWIREFRAME
350
2F
  3
3D_HIDDEN
350
31
  3
3DWIREFRAME
350
30
  3
BASIC
350
32
  3
BRIGHTEN
350
36
  3
COLORCHANGE
350
3A
  3
CONCEPTUAL
350
34
  3
DIM
350
35
  3
FACEPATTERN
350
39
  3
FLAT
350
2B
  3
FLATWITHEDGES
350
2C
  3
GOURAUD
350
2D
  3
GOURAUDWITHEDGES
350
2E
  3
LINEPATTERN
350
38
  3
REALISTIC
350
33
  3
THICKEN
350
37
1001
ACAD
1000
TREAT_AS_HARD
1070
     0
  0
DICTIONARY
  5
1F2
102
{ACAD_REACTORS
330
C
102
}
330
C
100
AcDbDictionary
  3
CANNOSCALE
350
1F5
  3
DIMASSOC
350
1F6
  3
HIDETEXT
350
1F7
1001
ACAD
1000
TREAT_AS_HARD
1070
     0
  0
MLINESTYLE
  5
18
102
{ACAD_REACTORS
330
17
102
}
330
17
100
AcDbMlineStyle
  2
Standard
 70
     0
  3

 62
   256
 51
90.0
 52
90.0
 71
     2
 49
0.5
 62
   256
  6
BYLAYER
 49
-0.5
 62
   256
  6
BYLAYER
  0
ACAD_PROXY_OBJECT
  5
70
102
{ACAD_REACTORS
330
6F
102
}
330
6F
100
AcDbZombieObject
 90
      499
 91
      502
 93
       41
310
903313A31580
  0
ACAD_PROXY_OBJECT
  5
71
102
{ACAD_REACTORS
330
6F
102
}
330
6F
100
AcDbZombieObject
 90
      499
 91
      502
 93
      105
310
903313A324000000000000004000
  0
ACAD_PROXY_OBJECT
  5
72
102
{ACAD_REACTORS
330
6F
102
}
330
6F
100
AcDbZombieObject
 90
      499
 91
      502
 93
      105
310
903313A344000000000000104000
  0
ACAD_PROXY_OBJECT
  5
73
102
{ACAD_REACTORS
330
6F
102
}
330
6F
100
AcDbZombieObject
 90
      499
 91
      502
 93
      105
310
903313A354000000000000144000
  0
ACAD_PROXY_OBJECT
  5
74
102
{ACAD_REACTORS
330
6F
102
}
330
6F
100
AcDbZombieObject
 90
      499
 91
      502
 93
      105
310
903313A384000000000000204000
  0
ACAD_PROXY_OBJECT
  5
75
102
{ACAD_REACTORS
330
6F
102
}
330
6F
100
AcDbZombieObject
 90
      499
 91
      502
 93
      113
310
904313A31304000000000000244000
  0
ACAD_PROXY_OBJECT
  5
76
102
{ACAD_REACTORS
330
6F
102
}
330
6F
100
AcDbZombieObject
 90
      499
 91
      502
 93
      113
310
904313A31364000000000000304000
  0
ACAD_PROXY_OBJECT
  5
77
102
{ACAD_REACTORS
330
6F
102
}
330
6F
100
AcDbZombieObject
 90
      499
 91
      502
 93
      113
310
904313A32304000000000000344000
  0
ACAD_PROXY_OBJECT
  5
78
102
{ACAD_REACTORS
330
6F
102
}
330
6F
100
AcDbZombieObject
 90
      499
 91
      502
 93
      113
310
904313A333040000000000003E4000
  0
ACAD_PROXY_OBJECT
  5
79
102
{ACAD_REACTORS
330
6F
102
}
330
6F
100
AcDbZombieObject
 90
      499
 91
      502
 93
      113
310
904313A34304000000000000444000
  0
ACAD_PROXY_OBJECT
  5
7A
102
{ACAD_REACTORS
330
6F
102
}
330
6F
100
AcDbZombieObject
 90
      499
 91
      502
 93
      113
310
904313A35304000000000000494000
  0
ACAD_PROXY_OBJECT
  5
7B
102
{ACAD_REACTORS
330
6F
102
}
330
6F
100
AcDbZombieObject
 90
      499
 91
      502
 93
      121
310
905313A3130304000000000000594000
  0
ACAD_PROXY_OBJECT
  5
7C
102
{ACAD_REACTORS
330
6F
102
}
330
6F
100
AcDbZombieObject
 90
      499
 91
      502
 93
      105
310
903323A310000000000000010100
  0
ACAD_PROXY_OBJECT
  5
7D
102
{ACAD_REACTORS
330
6F
102
}
330
6F
100
AcDbZombieObject
 90
      499
 91
      502
 93
      105
310
903343A310000000000000410100
  0
ACAD_PROXY_OBJECT
  5
7E
102
{ACAD_REACTORS
330
6F
102
}
330
6F
100
AcDbZombieObject
 90
      499
 91
      502
 93
      105
310
903383A310000000000000810100
  0
ACAD_PROXY_OBJECT
  5
7F
102
{ACAD_REACTORS
330
6F
102
}
330
6F
100
AcDbZombieObject
 90
      499
 91
      502
 93
      113
310
90431303A310000000000000910100
  0
ACAD_PROXY_OBJECT
  5
80
102
{ACAD_REACTORS
330
6F
102
}
330
6F
100
AcDbZombieObject
 90
      499
 91
      502
 93
      121
310
9053130303A310000000000001650100
  0
ACAD_PROXY_OBJECT
  5
81
102
{ACAD_REACTORS
330
6F
102
}
330
6F
100
AcDbZombieObject
 90
      499
 91
      502
 93
      257
310
90E312F31323822203D2031272D3022000000000000200FC000000000000284000
  0
ACAD_PROXY_OBJECT
  5
82
102
{ACAD_REACTORS
330
6F
102
}
330
6F
100
AcDbZombieObject
 90
      499
 91
      502
 93
      249
310
90D312F363422203D2031272D3022000000000000240FC000000000000284000
  0
ACAD_PROXY_OBJECT
  5
83
102
{ACAD_REACTORS
330
6F
102
}
330
6F
100
AcDbZombieObject
 90
      499
 91
      502
 93
      249
310
90D312F333222203D2031272D3022000000000000280FC000000000000284000
  0
ACAD_PROXY_OBJECT
  5
84
102
{ACAD_REACTORS
330
6F
102
}
330
6F
100
AcDbZombieObject
 90
      499
 91
      502
 93
      249
310
90D312F313622203D2031272D30220000000000002C0FC000000000000284000
  0
ACAD_PROXY_OBJECT
  5
85
102
{ACAD_REACTORS
330
6F
102
}
330
6F
100
AcDbZombieObject
 90
      499
 91
      502
 93
      249
310
90D332F333222203D2031272D30220000000000002E0FC000000000000284000
  0
ACAD_PROXY_OBJECT
  5
86
102
{ACAD_REACTORS
330
6F
102
}
330
6F
100
AcDbZombieObject
 90
      499
 91
      502
 93
      241
310
90C312F3822203D2031272D3022000000000000300FC000000000000284000
  0
ACAD_PROXY_OBJECT
  5
87
102
{ACAD_REACTORS
330
6F
102
}
330
6F
100
AcDbZombieObject
 90
      499
 91
      502
 93
      249
310
90D332F313622203D2031272D3022000000000000320FC000000000000284000
  0
ACAD_PROXY_OBJECT
  5
88
102
{ACAD_REACTORS
330
6F
102
}
330
6F
100
AcDbZombieObject
 90
      499
 91
      502
 93
      241
310
90C312F3422203D2031272D3022000000000000340FC000000000000284000
  0
ACAD_PROXY_OBJECT
  5
89
102
{ACAD_REACTORS
330
6F
102
}
330
6F
100
AcDbZombieObject
 90
      499
 91
      502
 93
      241
310
90C332F3822203D2031272D3022000000000000360FC000000000000284000
  0
ACAD_PROXY_OBJECT
  5
8A
102
{ACAD_REACTORS
330
6F
102
}
330
6F
100
AcDbZombieObject
 90
      499
 91
      502
 93
      241
310
90C312F3222203D2031272D3022000000000000380FC000000000000284000
  0
ACAD_PROXY_OBJECT
  5
8B
102
{ACAD_REACTORS
330
6F
102
}
330
6F
100
AcDbZombieObject
 90
      499
 91
      502
 93
      241
310
90C332F3422203D2031272D30220000000000003A0FC000000000000284000
  0
ACAD_PROXY_OBJECT
  5
8C
102
{ACAD_REACTORS
330
6F
102
}
330
6F
100
AcDbZombieObject
 90
      499
 91
      502
 93
      161
310
90A3122203D2031272D30224000000000000284000
  0
ACAD_PROXY_OBJECT
  5
8D
102
{ACAD_REACTORS
330
6F
102
}
330
6F
100
AcDbZombieObject
 90
      499
 91
      502
 93
      257
310
90E312D312F3222203D2031272D30220000000000003E0FC000000000000284000
  0
ACAD_PROXY_OBJECT
  5
8E
102
{ACAD_REACTORS
330
6F
102
}
330
6F
100
AcDbZombieObject
 90
      499
 91
      502
 93
      225
310
90A3322203D2031272D302200000000000002100000000000000284000
  0
ACAD_PROXY_OBJECT
  5
8F
102
{ACAD_REACTORS
330
6F
102
}
330
6F
100
AcDbZombieObject
 90
      499
 91
      502
 93
      225
310
90A3622203D2031272D302200000000000006100000000000000284000
  0
ACAD_PROXY_OBJECT
  5
90
102
{ACAD_REACTORS
330
6F
102
}
330
6F
100
AcDbZombieObject
 90
      499
 91
      502
 93
      249
310
90D31272D3022203D2031272D30220000000000000A100000000000000284000
  0
ACAD_PROXY_OBJECT
  5
2F
102
{ACAD_REACTORS
330
2A
102
}
330
2A
100
AcDbZombieObject
 90
      499
 91
      501
 93
      436
310
42CC9915DA5C99599C985B595049028333333333333E3BF0000000000000FB0107901411070040501600405405064090741402480A0340
1001
ACAD
1000
AcDbSavedByObjectVersion
1070
     0
  0
ACAD_PROXY_OBJECT
  5
31
102
{ACAD_REACTORS
330
2A
102
}
330
2A
100
AcDbZombieObject
 90
      499
 91
      501
 93
      500
310
424CD108121A5919195B90640502408333333333333E3BF0000000000000FB01079024090700405020000000000001110200405405064090740C02480A0340
1001
ACAD
1000
AcDbSavedByObjectVersion
1070
     0
  0
ACAD_PROXY_OBJECT
  5
30
102
{ACAD_REACTORS
330
2A
102
}
330
2A
100
AcDbZombieObject
 90
      499
 91
      501
 93
      436
310
42CCD915DA5C99599C985B595059028333333333333E3BF0000000000000FB0107901411070040501600405405064090741402480A0340
1001
ACAD
1000
AcDbSavedByObjectVersion
1070
     0
  0
ACAD_PROXY_OBJECT
  5
32
102
{ACAD_REACTORS
330
2A
102
}
330
2A
100
AcDbZombieObject
 90
      499
 91
      501
 93
      388
310
4150985CDA58D07406404333333333333E3BF0000000000000FB0107A41107004050150841D405064090741402480A0350
1001
ACAD
1000
AcDbSavedByObjectVersion
1070
     0
  0
ACAD_PROXY_OBJECT
  5
36
102
{ACAD_REACTORS
330
2A
102
}
330
2A
100
AcDbZombieObject
 90
      499
 91
      501
 93
      428
310
42109C9A59DA1D195B90C409028333333333333E3BF0000000000000FB010790141107004050150841D405064090741402480A029950
1001
ACAD
1000
AcDbSavedByObjectVersion
1070
     0
  0
ACAD_PROXY_OBJECT
  5
3A
102
{ACAD_REACTORS
330
2A
102
}
330
2A
100
AcDbZombieObject
 90
      499
 91
      501
 93
      452
310
42D0DBDB1BDC90DA185B99D95104090240C333333333333E3BF0000000000000FB0108901411070040501508421405064090741402480A0350
1001
ACAD
1000
AcDbSavedByObjectVersion
1070
     0
  0
ACAD_PROXY_OBJECT
  5
34
102
{ACAD_REACTORS
330
2A
102
}
330
2A
100
AcDbZombieObject
 90
      499
 91
      501
 93
      500
310
4290DBDB98D95C1D1D585B10940D028333333333333E3BF0000000000000FB0107902409070040501000000000000111010841D405064090740C02480A0340
1001
ACAD
1000
AcDbSavedByObjectVersion
1070
     0
  0
ACAD_PROXY_OBJECT
  5
35
102
{ACAD_REACTORS
330
2A
102
}
330
2A
100
AcDbZombieObject
 90
      499
 91
      501
 93
      412
310
40D11A5B50B409028333333333333E3BF0000000000000FB010790141107004050150841D405064090741402480A02677FFFFFD0
1001
ACAD
1000
AcDbSavedByObjectVersion
1070
     0
  0
ACAD_PROXY_OBJECT
  5
39
102
{ACAD_REACTORS
330
2A
102
}
330
2A
100
AcDbZombieObject
 90
      499
 91
      501
 93
      444
310
42D19858D95C185D1D195C9B90F409028333333333333E3BF0000000000000FB010790141107004050150841D405064090741402480A0350
1001
ACAD
1000
AcDbSavedByObjectVersion
1070
     0
  0
ACAD_PROXY_OBJECT
  5
2B
102
{ACAD_REACTORS
330
2A
102
}
330
2A
100
AcDbZombieObject
 90
      499
 91
      501
 93
      388
310
41119B185D240901404333333333333E3BF0000000000000F9010740A41107004050150841D405064090741402480A1B50
1001
ACAD
1000
AcDbSavedByObjectVersion
1070
     0
  0
ACAD_PROXY_OBJECT
  5
2C
102
{ACAD_REACTORS
330
2A
102
}
330
2A
100
AcDbZombieObject
 90
      499
 91
      501
 93
      476
310
43519B185D15DA5D1A115919D95CD0140901404333333333333E3BF0000000000000F9010740901411070040501600405405064090741402480A1B50
1001
ACAD
1000
AcDbSavedByObjectVersion
1070
     0
  0
ACAD_PROXY_OBJECT
  5
2D
102
{ACAD_REACTORS
330
2A
102
}
330
2A
100
AcDbZombieObject
 90
      499
 91
      501
 93
      412
310
41D1DBDD5C985D5910240902404333333333333E3BF0000000000000F9010740A411070040501641D405064090741402480A1B50
1001
ACAD
1000
AcDbSavedByObjectVersion
1070
     0
  0
ACAD_PROXY_OBJECT
  5
2E
102
{ACAD_REACTORS
330
2A
102
}
330
2A
100
AcDbZombieObject
 90
      499
 91
      501
 93
      500
310
4411DBDD5C985D5915DA5D1A115919D95CD0340902404333333333333E3BF0000000000000F9010740901411070040501600405405064090741402480A1B50
1001
ACAD
1000
AcDbSavedByObjectVersion
1070
     0
  0
ACAD_PROXY_OBJECT
  5
38
102
{ACAD_REACTORS
330
2A
102
}
330
2A
100
AcDbZombieObject
 90
      499
 91
      501
 93
      444
310
42D31A5B995C185D1D195C9B90E409028333333333333E3BF0000000000000FB010790141107004050750841D405064090741402483A0350
1001
ACAD
1000
AcDbSavedByObjectVersion
1070
     0
  0
ACAD_PROXY_OBJECT
  5
33
102
{ACAD_REACTORS
330
2A
102
}
330
2A
100
AcDbZombieObject
 90
      499
 91
      501
 93
      420
310
425499585B1A5CDD1A58D08409028333333333333E3BF0000000000000FB01079019070040501508421405064090741402480A1B40
1001
ACAD
1000
AcDbSavedByObjectVersion
1070
     0
  0
ACAD_PROXY_OBJECT
  5
37
102
{ACAD_REACTORS
330
2A
102
}
330
2A
100
AcDbZombieObject
 90
      499
 91
      501
 93
      412
310
41D51A1A58DAD95B90D409028333333333333E3BF0000000000000FB010790141107004050150C41D405064090741402480A0350
1001
ACAD
1000
AcDbSavedByObjectVersion
1070
     0
  0
DICTIONARYVAR
  5
1F5
102
{ACAD_REACTORS
330
1F2
102
}
330
1F2
100
DictionaryVariables
280
     0
  1
1:1
  0
DICTIONARYVAR
  5
1F6
102
{ACAD_REACTORS
330
1F2
102
}
330
1F2
100
DictionaryVariables
280
     0
  1
2
  0
DICTIONARYVAR
  5
1F7
102
{ACAD_REACTORS
330
1F2
102
}
330
1F2
100
DictionaryVariables
280
     0
  1
1
  0
ENDSEC
  0
EOF
