  0
SECTION
  2
HEADER
  9
$ACADVER
  1
AC1012
  9
$DWGCODEPAGE
  3
ansi_1252
  9
$INSBASE
 10
0.0
 20
0.0
 30
0.0
  9
$EXTMIN
 10
0.0
 20
0.0
 30
0.0
  9
$EXTMAX
 10
11.0
 20
8.5
 30
0.0
  9
$LIMMIN
 10
0.0
 20
0.0
  9
$LIMMAX
 10
11.0
 20
8.5
  9
$ORTHOMODE
 70
     0
  9
$REGENMODE
 70
     1
  9
$FILLMODE
 70
     1
  9
$QTEXTMODE
 70
     0
  9
$MIRRTEXT
 70
     1
  9
$DRAGMODE
 70
     2
  9
$LTSCALE
 40
1.0
  9
$OSMODE
 70
    37
  9
$ATTMODE
 70
     1
  9
$TEXTSIZE
 40
0.125
  9
$TRACEWID
 40
0.05
  9
$TEXTSTYLE
  7
STANDARD
  9
$CLAYER
  8
0
  9
$CELTYPE
  6
BYLAYER
  9
$CECOLOR
 62
   256
  9
$CELTSCALE
 40
1.0
  9
$DELOBJ
 70
     1
  9
$DISPSILH
 70
     0
  9
$DIMSCALE
 40
1.0
  9
$DIMASZ
 40
0.13
  9
$DIMEXO
 40
0.05
  9
$DIMDLI
 40
0.38
  9
$DIMRND
 40
0.0
  9
$DIMDLE
 40
0.0
  9
$DIMEXE
 40
0.125
  9
$DIMTP
 40
0.0
  9
$DIMTM
 40
0.0
  9
$DIMTXT
 40
0.125
  9
$DIMCEN
 40
0.09
  9
$DIMTSZ
 40
0.0
  9
$DIMTOL
 70
     0
  9
$DIMLIM
 70
     0
  9
$DIMTIH
 70
     1
  9
$DIMTOH
 70
     1
  9
$DIMSE1
 70
     0
  9
$DIMSE2
 70
     0
  9
$DIMTAD
 70
     0
  9
$DIMZIN
 70
     0
  9
$DIMBLK
  1

  9
$DIMASO
 70
     1
  9
$DIMSHO
 70
     1
  9
$DIMPOST
  1

  9
$DIMAPOST
  1

  9
$DIMALT
 70
     0
  9
$DIMALTD
 70
     2
  9
$DIMALTF
 40
25.4
  9
$DIMLFAC
 40
0.5
  9
$DIMTOFL
 70
     0
  9
$DIMTVP
 40
0.0
  9
$DIMTIX
 70
     0
  9
$DIMSOXD
 70
     0
  9
$DIMSAH
 70
     0
  9
$DIMBLK1
  1

  9
$DIMBLK2
  1

  9
$DIMSTYLE
  2
STANDARD
  9
$DIMCLRD
 70
     0
  9
$DIMCLRE
 70
     0
  9
$DIMCLRT
 70
     0
  9
$DIMTFAC
 40
1.0
  9
$DIMGAP
 40
0.06
  9
$DIMJUST
 70
     0
  9
$DIMSD1
 70
     0
  9
$DIMSD2
 70
     0
  9
$DIMTOLJ
 70
     1
  9
$DIMTZIN
 70
     0
  9
$DIMALTZ
 70
     0
  9
$DIMALTTZ
 70
     0
  9
$DIMFIT
 70
     3
  9
$DIMUPT
 70
     0
  9
$DIMUNIT
 70
     2
  9
$DIMDEC
 70
     3
  9
$DIMTDEC
 70
     3
  9
$DIMALTU
 70
     2
  9
$DIMALTTD
 70
     2
  9
$DIMTXSTY
  7
STANDARD
  9
$DIMAUNIT
 70
     0
  9
$LUNITS
 70
     2
  9
$LUPREC
 70
     2
  9
$SKETCHINC
 40
0.1
  9
$FILLETRAD
 40
0.5
  9
$AUNITS
 70
     0
  9
$AUPREC
 70
     2
  9
$MENU
  1
.
  9
$ELEVATION
 40
0.0
  9
$PELEVATION
 40
0.0
  9
$THICKNESS
 40
0.0
  9
$LIMCHECK
 70
     0
  9
$CHAMFERA
 40
0.5
  9
$CHAMFERB
 40
0.5
  9
$CHAMFERC
 40
1.0
  9
$CHAMFERD
 40
0.0
  9
$SKPOLY
 70
     0
  9
$TDCREATE
 40
2455784.026274641
  9
$TDUPDATE
 40
2455784.026274653
  9
$TDINDWG
 40
0.0000000116
  9
$TDUSRTIMER
 40
0.0000000116
  9
$USRTIMER
 70
     1
  9
$ANGBASE
 50
0.0
  9
$ANGDIR
 70
     0
  9
$PDMODE
 70
     0
  9
$PDSIZE
 40
-1.0
  9
$PLINEWID
 40
0.0
  9
$COORDS
 70
     1
  9
$SPLFRAME
 70
     0
  9
$SPLINETYPE
 70
     6
  9
$SPLINESEGS
 70
     8
  9
$ATTDIA
 70
     0
  9
$ATTREQ
 70
     1
  9
$HANDLING
 70
     1
  9
$HANDSEED
  5
42D
  9
$SURFTAB1
 70
     6
  9
$SURFTAB2
 70
     6
  9
$SURFTYPE
 70
     6
  9
$SURFU
 70
     6
  9
$SURFV
 70
     6
  9
$UCSNAME
  2

  9
$UCSORG
 10
0.0
 20
0.0
 30
0.0
  9
$UCSXDIR
 10
1.0
 20
0.0
 30
0.0
  9
$UCSYDIR
 10
0.0
 20
1.0
 30
0.0
  9
$PUCSNAME
  2

  9
$PUCSORG
 10
0.0
 20
0.0
 30
0.0
  9
$PUCSXDIR
 10
1.0
 20
0.0
 30
0.0
  9
$PUCSYDIR
 10
0.0
 20
1.0
 30
0.0
  9
$USERI1
 70
     0
  9
$USERI2
 70
     0
  9
$USERI3
 70
     0
  9
$USERI4
 70
     0
  9
$USERI5
 70
     0
  9
$USERR1
 40
0.0
  9
$USERR2
 40
0.0
  9
$USERR3
 40
0.0
  9
$USERR4
 40
0.0
  9
$USERR5
 40
0.0
  9
$WORLDVIEW
 70
     1
  9
$SHADEDGE
 70
     3
  9
$SHADEDIF
 70
    70
  9
$TILEMODE
 70
     1
  9
$MAXACTVP
 70
    64
  9
$PINSBASE
 10
0.0
 20
0.0
 30
0.0
  9
$PLIMCHECK
 70
     0
  9
$PEXTMIN
 10
1.0000000000E+20
 20
1.0000000000E+20
 30
1.0000000000E+20
  9
$PEXTMAX
 10
-1.0000000000E+20
 20
-1.0000000000E+20
 30
-1.0000000000E+20
  9
$PLIMMIN
 10
0.0
 20
0.0
  9
$PLIMMAX
 10
12.0
 20
9.0
  9
$UNITMODE
 70
     0
  9
$VISRETAIN
 70
     1
  9
$PLINEGEN
 70
     0
  9
$PSLTSCALE
 70
     1
  9
$TREEDEPTH
 70
  3020
  9
$PICKSTYLE
 70
     1
  9
$CMLSTYLE
  2
STANDARD
  9
$CMLJUST
 70
     0
  9
$CMLSCALE
 40
1.0
  9
$SAVEIMAGES
 70
     1
  0
ENDSEC
  0
SECTION
  2
CLASSES
  0
CLASS
  1
ACDBDICTIONARYWDFLT
  2
AcDbDictionaryWithDefault
  3
ObjectDBX Classes
 90
    32768
280
     0
281
     0
  0
CLASS
  1
VISUALSTYLE
  2
AcDbVisualStyle
  3
ObjectDBX Classes
 90
     4095
280
     0
281
     0
  0
CLASS
  1
SCALE
  2
AcDbScale
  3
ObjectDBX Classes
 90
     1153
280
     0
281
     0
  0
CLASS
  1
DICTIONARYVAR
  2
AcDbDictionaryVar
  3
ObjectDBX Classes
 90
        0
280
     0
281
     0
  0
CLASS
  1
XRECORD
  2
AcDbXrecord
  3
AutoCAD 2000
 90
    32768
280
     0
281
     0
  0
CLASS
  1
LWPOLYLINE
  2
AcDbPolyline
  3
AutoCAD 2000
 90
    32768
280
     0
281
     1
  0
CLASS
  1
HATCH
  2
AcDbHatch
  3
AutoCAD 2000
 90
    32768
280
     0
281
     1
  0
CLASS
  1
ACDBPLACEHOLDER
  2
AcDbPlaceHolder
  3
ObjectDBX Classes
 90
        0
280
     0
281
     0
  0
CLASS
  1
LAYOUT
  2
AcDbLayout
  3
ObjectDBX Classes
 90
        0
280
     0
281
     0
  0
ENDSEC
  0
SECTION
  2
TABLES
  0
TABLE
  2
VPORT
  5
8
330
0
100
AcDbSymbolTable
 70
     1
  0
VPORT
  5
29
330
8
100
AcDbSymbolTableRecord
100
AcDbViewportTableRecord
  2
*ACTIVE
 70
     0
 10
0.0
 20
0.0
 11
1.0
 21
1.0
 12
5.5
 22
4.25
 13
0.0
 23
0.0
 14
0.5
 24
0.5
 15
0.5
 25
0.5
 16
0.0
 26
0.0
 36
1.0
 17
0.0
 27
0.0
 37
0.0
 40
8.5
 41
1.2941176471
 42
50.0
 43
0.0
 44
0.0
 50
0.0
 51
0.0
 71
     0
 72
  2000
 73
     1
 74
     3
 75
     0
 76
     0
 77
     0
 78
     0
  0
ENDTAB
  0
TABLE
  2
LTYPE
  5
5
330
0
100
AcDbSymbolTable
 70
     6
  0
LTYPE
  5
14
330
5
100
AcDbSymbolTableRecord
100
AcDbLinetypeTableRecord
  2
BYBLOCK
 70
     0
  3

 72
    65
 73
     0
 40
0.0
  0
LTYPE
  5
15
330
5
100
AcDbSymbolTableRecord
100
AcDbLinetypeTableRecord
  2
BYLAYER
 70
     0
  3

 72
    65
 73
     0
 40
0.0
  0
LTYPE
  5
16
330
5
100
AcDbSymbolTableRecord
100
AcDbLinetypeTableRecord
  2
CONTINUOUS
 70
     0
  3
Solid line
 72
    65
 73
     0
 40
0.0
  0
LTYPE
  5
3B
330
5
100
AcDbSymbolTableRecord
100
AcDbLinetypeTableRecord
  2
HIDDEN
 70
     0
  3
Hidden __ __ __ __ __ __ __ __ __ __ __ __ __ __
 72
    65
 73
     2
 40
0.075
 49
0.05
 74
     0
 49
-0.025
 74
     0
  0
LTYPE
  5
3C
330
5
100
AcDbSymbolTableRecord
100
AcDbLinetypeTableRecord
  2
PHANTOM
 70
     0
  3
Phantom ______  __  __  ______  __  __  ______
 72
    65
 73
     6
 40
0.5
 49
0.25
 74
     0
 49
-0.05
 74
     0
 49
0.05
 74
     0
 49
-0.05
 74
     0
 49
0.05
 74
     0
 49
-0.05
 74
     0
  0
LTYPE
  5
3D
330
5
100
AcDbSymbolTableRecord
100
AcDbLinetypeTableRecord
  2
CENTER
 70
     0
  3
Center ____ _ ____ _ ____ _ ____ _ ____ _ ____
 72
    65
 73
     4
 40
0.4
 49
0.25
 74
     0
 49
-0.05
 74
     0
 49
0.05
 74
     0
 49
-0.05
 74
     0
  0
LTYPE
  5
3E
330
5
100
AcDbSymbolTableRecord
100
AcDbLinetypeTableRecord
  2
CENTERX2
 70
     0
  3
Center (2x) ________  __  ________  __  _____
 72
    65
 73
     4
 40
0.8
 49
0.5
 74
     0
 49
-0.1
 74
     0
 49
0.1
 74
     0
 49
-0.1
 74
     0
  0
LTYPE
  5
3F
330
5
100
AcDbSymbolTableRecord
100
AcDbLinetypeTableRecord
  2
DOT2
 70
     0
  3
Dot (.5x) ........................................
 72
    65
 73
     2
 40
0.025
 49
0.0
 74
     0
 49
-0.025
 74
     0
  0
ENDTAB
  0
TABLE
  2
LAYER
  5
2
330
0
100
AcDbSymbolTable
 70
     2
  0
LAYER
  5
10
330
2
100
AcDbSymbolTableRecord
100
AcDbLayerTableRecord
  2
0
 70
     0
 62
     7
  6
CONTINUOUS
  0
LAYER
  5
40
330
2
100
AcDbSymbolTableRecord
100
AcDbLayerTableRecord
  2
FORMAT
 70
     0
 62
     7
  6
CONTINUOUS
  0
ENDTAB
  0
TABLE
  2
STYLE
  5
3
330
0
100
AcDbSymbolTable
 70
     4
  0
STYLE
  5
11
330
3
100
AcDbSymbolTableRecord
100
AcDbTextStyleTableRecord
  2
STANDARD
 70
     0
 40
0.0
 41
1.0
 50
0.0
 71
     0
 42
0.2
  3
txt
  4

  0
STYLE
  5
6E
330
3
100
AcDbSymbolTableRecord
100
AcDbTextStyleTableRecord
  2
SLDTEXTSTYLE0
 70
     0
 40
0.0
 41
0.75
 50
0.0
 71
     0
 42
0.2
  3
TXT
  4

  0
STYLE
  5
93
330
3
100
AcDbSymbolTableRecord
100
AcDbTextStyleTableRecord
  2
SLDTEXTSTYLE1
 70
     0
 40
0.0
 41
0.6875
 50
0.0
 71
     0
 42
0.2
  3
TXT
  4

  0
STYLE
  5
99
330
3
100
AcDbSymbolTableRecord
100
AcDbTextStyleTableRecord
  2
SLDTEXTSTYLE2
 70
     0
 40
0.0
 41
0.6944444444
 50
0.0
 71
     0
 42
0.2
  3
TXT
  4

  0
ENDTAB
  0
TABLE
  2
VIEW
  5
6
330
0
100
AcDbSymbolTable
 70
     0
  0
ENDTAB
  0
TABLE
  2
UCS
  5
7
330
0
100
AcDbSymbolTable
 70
     0
  0
ENDTAB
  0
TABLE
  2
APPID
  5
9
330
0
100
AcDbSymbolTable
 70
     1
  0
APPID
  5
12
330
9
100
AcDbSymbolTableRecord
100
AcDbRegAppTableRecord
  2
ACAD
 70
     0
  0
ENDTAB
  0
TABLE
  2
DIMSTYLE
  5
A
330
0
100
AcDbSymbolTable
 70
     1
  0
DIMSTYLE
105
27
330
A
100
AcDbSymbolTableRecord
100
AcDbDimStyleTableRecord
  2
STANDARD
 70
     0
  3

  4

  5

  6

  7

 40
1.0
 41
0.18
 42
0.0625
 43
0.38
 44
0.18
 45
0.0
 46
0.0
 47
0.0
 48
0.0
140
0.18
141
0.09
142
0.0
143
25.4
144
1.0
145
0.0
146
1.0
147
0.09
 71
     0
 72
     0
 73
     1
 74
     1
 75
     0
 76
     0
 77
     0
 78
     0
170
     0
171
     2
172
     0
173
     0
174
     0
175
     0
176
     0
177
     0
178
     0
270
     2
271
     4
272
     4
273
     2
274
     2
340
11
275
     0
280
     0
281
     0
282
     0
283
     1
284
     0
285
     0
286
     0
287
     3
288
     0
  0
ENDTAB
  0
TABLE
  2
BLOCK_RECORD
  5
1
330
0
100
AcDbSymbolTable
 70
     4
  0
BLOCK_RECORD
  5
1F
330
1
100
AcDbSymbolTableRecord
100
AcDbBlockTableRecord
  2
*MODEL_SPACE
  0
BLOCK_RECORD
  5
1B
330
1
100
AcDbSymbolTableRecord
100
AcDbBlockTableRecord
  2
*PAPER_SPACE
  0
BLOCK_RECORD
  5
A8
330
1
100
AcDbSymbolTableRecord
100
AcDbBlockTableRecord
  2
SW_NOTE_0
  0
BLOCK_RECORD
  5
AE
330
1
100
AcDbSymbolTableRecord
100
AcDbBlockTableRecord
  2
SW_NOTE_1
  0
BLOCK_RECORD
  5
C2
330
1
100
AcDbSymbolTableRecord
100
AcDbBlockTableRecord
  2
SW_NOTE_2
  0
ENDTAB
  0
ENDSEC
  0
SECTION
  2
BLOCKS
  0
BLOCK
  5
20
330
1F
100
AcDbEntity
  8
0
100
AcDbBlockBegin
  2
*MODEL_SPACE
 70
     0
 10
0.0
 20
0.0
 30
0.0
  3
*MODEL_SPACE
  1

  0
ENDBLK
  5
21
330
1F
100
AcDbEntity
  8
0
100
AcDbBlockEnd
  0
BLOCK
  5
1C
330
1B
100
AcDbEntity
 67
     1
  8
0
100
AcDbBlockBegin
  2
*PAPER_SPACE
 70
     0
 10
0.0
 20
0.0
 30
0.0
  3
*PAPER_SPACE
  1

  0
ENDBLK
  5
1D
330
1B
100
AcDbEntity
 67
     1
  8
0
100
AcDbBlockEnd
  0
BLOCK
  5
A9
330
A8
100
AcDbEntity
  8
0
100
AcDbBlockBegin
  2
SW_NOTE_0
 70
     0
 10
0.0
 20
0.0
 30
0.0
  3
SW_NOTE_0
  1

  0
MTEXT
  5
AB
330
A8
100
AcDbEntity
  8
0
  6
CONTINUOUS
 62
     0
100
AcDbMText
 10
0.0
 20
0.0773440644
 30
0.0
 40
0.06
 41
0.0
 71
     1
 72
     1
  1
INTERPRET GEOMETRIC
  7
SLDTEXTSTYLE0
  0
MTEXT
  5
AC
330
A8
100
AcDbEntity
  8
0
  6
CONTINUOUS
 62
     0
100
AcDbMText
 10
0.0
 20
-0.0220260102
 30
0.0
 40
0.06
 41
0.0
 71
     1
 72
     1
  1
TOLERANCING PER:
  7
SLDTEXTSTYLE0
  0
ENDBLK
  5
AA
330
A8
100
AcDbEntity
  8
0
100
AcDbBlockEnd
  0
BLOCK
  5
AF
330
AE
100
AcDbEntity
  8
0
100
AcDbBlockBegin
  2
SW_NOTE_1
 70
     0
 10
0.0
 20
0.0
 30
0.0
  3
SW_NOTE_1
  1

  0
MTEXT
  5
B1
330
AE
100
AcDbEntity
  8
0
  6
CONTINUOUS
 62
     0
100
AcDbMText
 10
0.0
 20
0.0837894031
 30
0.0
 40
0.065
 41
0.0
 71
     1
 72
     1
  1
DIMENSIONS ARE IN INCHES
  7
SLDTEXTSTYLE0
  0
MTEXT
  5
B2
330
AE
100
AcDbEntity
  8
0
  6
CONTINUOUS
 62
     0
100
AcDbMText
 10
0.0
 20
-0.0205806729
 30
0.0
 40
0.065
 41
0.0
 71
     1
 72
     1
  1
TOLERANCES:
  7
SLDTEXTSTYLE0
  0
MTEXT
  5
B3
330
AE
100
AcDbEntity
  8
0
  6
CONTINUOUS
 62
     0
100
AcDbMText
 10
0.0
 20
-0.1249507489
 30
0.0
 40
0.065
 41
0.0
 71
     1
 72
     1
  1
FRACTIONAL
  7
SLDTEXTSTYLE0
  0
MTEXT
  5
B4
330
AE
100
AcDbEntity
  8
0
  6
CONTINUOUS
 62
     0
100
AcDbMText
 10
0.5175850875
 20
-0.1249507489
 30
0.0
 40
0.065
 41
0.0
 71
     1
 72
     1
  1
%%p
  7
SLDTEXTSTYLE0
  0
MTEXT
  5
B5
330
AE
100
AcDbEntity
  8
0
  6
CONTINUOUS
 62
     0
100
AcDbMText
 10
0.0
 20
-0.2293208248
 30
0.0
 40
0.065
 41
0.0
 71
     1
 72
     1
  1
ANGULAR: MACH
  7
SLDTEXTSTYLE0
  0
MTEXT
  5
B6
330
AE
100
AcDbEntity
  8
0
  6
CONTINUOUS
 62
     0
100
AcDbMText
 10
0.7233732769
 20
-0.2293208248
 30
0.0
 40
0.065
 41
0.0
 71
     1
 72
     1
  1
%%p
  7
SLDTEXTSTYLE0
  0
MTEXT
  5
B7
330
AE
100
AcDbEntity
  8
0
  6
CONTINUOUS
 62
     0
100
AcDbMText
 10
0.7852857683
 20
-0.2293208248
 30
0.0
 40
0.065
 41
0.0
 71
     1
 72
     1
  1
     BEND 
  7
SLDTEXTSTYLE0
  0
MTEXT
  5
B8
330
AE
100
AcDbEntity
  8
0
  6
CONTINUOUS
 62
     0
100
AcDbMText
 10
1.14784136
 20
-0.2293208248
 30
0.0
 40
0.065
 41
0.0
 71
     1
 72
     1
  1
%%p
  7
SLDTEXTSTYLE0
  0
MTEXT
  5
B9
330
AE
100
AcDbEntity
  8
0
  6
CONTINUOUS
 62
     0
100
AcDbMText
 10
0.0
 20
-0.3336909008
 30
0.0
 40
0.065
 41
0.0
 71
     1
 72
     1
  1
TWO PLACE DECIMAL    
  7
SLDTEXTSTYLE0
  0
MTEXT
  5
BA
330
AE
100
AcDbEntity
  8
0
  6
CONTINUOUS
 62
     0
100
AcDbMText
 10
0.9794349188
 20
-0.3336909008
 30
0.0
 40
0.065
 41
0.0
 71
     1
 72
     1
  1
%%p
  7
SLDTEXTSTYLE0
  0
MTEXT
  5
BB
330
AE
100
AcDbEntity
  8
0
  6
CONTINUOUS
 62
     0
100
AcDbMText
 10
0.0
 20
-0.4380609768
 30
0.0
 40
0.065
 41
0.0
 71
     1
 72
     1
  1
THREE PLACE DECIMAL  
  7
SLDTEXTSTYLE0
  0
MTEXT
  5
BC
330
AE
100
AcDbEntity
  8
0
  6
CONTINUOUS
 62
     0
100
AcDbMText
 10
0.9738038639
 20
-0.4380609768
 30
0.0
 40
0.065
 41
0.0
 71
     1
 72
     1
  1
%%p
  7
SLDTEXTSTYLE0
  0
ENDBLK
  5
B0
330
AE
100
AcDbEntity
  8
0
100
AcDbBlockEnd
  0
BLOCK
  5
C3
330
C2
100
AcDbEntity
  8
0
100
AcDbBlockBegin
  2
SW_NOTE_2
 70
     0
 10
0.0
 20
0.0
 30
0.0
  3
SW_NOTE_2
  1

  0
MTEXT
  5
C5
330
C2
100
AcDbEntity
  8
0
  6
CONTINUOUS
 62
     0
100
AcDbMText
 10
0.0
 20
0.0773440644
 30
0.0
 40
0.06
 41
0.0
 71
     1
 72
     1
  1
THE INFORMATION CONTAINED IN THIS
  7
SLDTEXTSTYLE0
  0
MTEXT
  5
C6
330
C2
100
AcDbEntity
  8
0
  6
CONTINUOUS
 62
     0
100
AcDbMText
 10
0.0
 20
-0.0220260102
 30
0.0
 40
0.06
 41
0.0
 71
     1
 72
     1
  1
DRAWING IS THE SOLE PROPERTY OF
  7
SLDTEXTSTYLE0
  0
MTEXT
  5
C7
330
C2
100
AcDbEntity
  8
0
  6
CONTINUOUS
 62
     0
100
AcDbMText
 10
0.0
 20
-0.1213960848
 30
0.0
 40
0.06
 41
0.0
 71
     1
 72
     1
  1
Candy Controls.  ANY 
  7
SLDTEXTSTYLE0
  0
MTEXT
  5
C8
330
C2
100
AcDbEntity
  8
0
  6
CONTINUOUS
 62
     0
100
AcDbMText
 10
0.0
 20
-0.2207661593
 30
0.0
 40
0.06
 41
0.0
 71
     1
 72
     1
  1
REPRODUCTION IN PART OR AS A WHOLE
  7
SLDTEXTSTYLE0
  0
MTEXT
  5
C9
330
C2
100
AcDbEntity
  8
0
  6
CONTINUOUS
 62
     0
100
AcDbMText
 10
0.0
 20
-0.3201362339
 30
0.0
 40
0.06
 41
0.0
 71
     1
 72
     1
  1
WITHOUT THE WRITTEN PERMISSION OF
  7
SLDTEXTSTYLE0
  0
MTEXT
  5
CA
330
C2
100
AcDbEntity
  8
0
  6
CONTINUOUS
 62
     0
100
AcDbMText
 10
0.0
 20
-0.4195063085
 30
0.0
 40
0.06
 41
0.0
 71
     1
 72
     1
  1
Candy Controls IS 
  7
SLDTEXTSTYLE0
  0
MTEXT
  5
CB
330
C2
100
AcDbEntity
  8
0
  6
CONTINUOUS
 62
     0
100
AcDbMText
 10
0.0
 20
-0.518876383
 30
0.0
 40
0.06
 41
0.0
 71
     1
 72
     1
  1
PROHIBITED.
  7
SLDTEXTSTYLE0
  0
ENDBLK
  5
C4
330
C2
100
AcDbEntity
  8
0
100
AcDbBlockEnd
  0
ENDSEC
  0
SECTION
  2
ENTITIES
  0
LINE
  5
41
330
1F
100
AcDbEntity
  8
0
  6
CONTINUOUS
 62
     7
100
AcDbLine
 10
0.329927
 20
8.1920731707
 30
0.0
 11
10.629927
 21
8.1920731707
 31
0.0
  0
LINE
  5
42
330
1F
100
AcDbEntity
  8
0
  6
CONTINUOUS
 62
     7
100
AcDbLine
 10
0.329927
 20
8.1920731707
 30
0.0
 11
0.329927
 21
0.3920731707
 31
0.0
  0
LINE
  5
43
330
1F
100
AcDbEntity
  8
0
  6
CONTINUOUS
 62
     7
100
AcDbLine
 10
10.629927
 20
0.3920731707
 30
0.0
 11
0.329927
 21
0.3920731707
 31
0.0
  0
LINE
  5
44
330
1F
100
AcDbEntity
  8
0
  6
CONTINUOUS
 62
     7
100
AcDbLine
 10
10.629927
 20
0.3920731707
 30
0.0
 11
10.629927
 21
8.1920731707
 31
0.0
  0
LINE
  5
45
330
1F
100
AcDbEntity
  8
0
  6
CONTINUOUS
 62
     7
100
AcDbLine
 10
4.7981841288
 20
0.3920731707
 30
0.0
 11
4.7981841288
 21
2.3564211366
 31
0.0
  0
LINE
  5
46
330
1F
100
AcDbEntity
  8
0
  6
CONTINUOUS
 62
     7
100
AcDbLine
 10
2.8210345579
 20
2.3564211366
 30
0.0
 11
10.629927
 21
2.3564211366
 31
0.0
  0
LINE
  5
47
330
1F
100
AcDbEntity
  8
0
  6
CONTINUOUS
 62
     7
100
AcDbLine
 10
6.1796352514
 20
2.3564211366
 30
0.0
 11
6.1796352514
 21
0.3920731707
 31
0.0
  0
LINE
  5
48
330
1F
100
AcDbEntity
  8
0
  6
CONTINUOUS
 62
     7
100
AcDbLine
 10
7.8712070044
 20
2.3564211366
 30
0.0
 11
7.8712070044
 21
0.3920731707
 31
0.0
  0
LINE
  5
49
330
1F
100
AcDbEntity
  8
0
  6
CONTINUOUS
 62
     7
100
AcDbLine
 10
7.8712070044
 20
0.6049590101
 30
0.0
 11
10.629927
 21
0.6049590101
 31
0.0
  0
LINE
  5
4A
330
1F
100
AcDbEntity
  8
0
  6
CONTINUOUS
 62
     7
100
AcDbLine
 10
7.8712070044
 20
1.1119362457
 30
0.0
 11
10.629927
 21
1.1119362457
 31
0.0
  0
LINE
  5
4B
330
1F
100
AcDbEntity
  8
0
  6
CONTINUOUS
 62
     7
100
AcDbLine
 10
7.8712070044
 20
1.9892703708
 30
0.0
 11
10.629927
 21
1.9892703708
 31
0.0
  0
LINE
  5
4C
330
1F
100
AcDbEntity
  8
0
  6
CONTINUOUS
 62
     7
100
AcDbLine
 10
8.266751752
 20
1.1119362457
 30
0.0
 11
8.266751752
 21
0.6049590101
 31
0.0
  0
LINE
  5
4D
330
1F
100
AcDbEntity
  8
0
  6
CONTINUOUS
 62
     7
100
AcDbLine
 10
8.6943435176
 20
0.6049590101
 30
0.0
 11
8.6943435176
 21
0.3920731707
 31
0.0
  0
LINE
  5
4E
330
1F
100
AcDbEntity
  8
0
  6
CONTINUOUS
 62
     7
100
AcDbLine
 10
10.0579917045
 20
1.1119362457
 30
0.0
 11
10.0579917045
 21
0.6049590101
 31
0.0
  0
LINE
  5
4F
330
1F
100
AcDbEntity
  8
0
  6
CONTINUOUS
 62
     7
100
AcDbLine
 10
9.6662556631
 20
0.6049590101
 30
0.0
 11
9.6662556631
 21
0.3920731707
 31
0.0
  0
LINE
  5
50
330
1F
100
AcDbEntity
  8
0
  6
CONTINUOUS
 62
     7
100
AcDbLine
 10
2.8210345579
 20
0.5883479999
 30
0.0
 11
6.1796352514
 21
0.5883479999
 31
0.0
  0
LINE
  5
51
330
1F
100
AcDbEntity
  8
0
  6
CONTINUOUS
 62
     7
100
AcDbLine
 10
6.1796352514
 20
1.7939211366
 30
0.0
 11
7.8712070044
 21
1.7939211366
 31
0.0
  0
LINE
  5
52
330
1F
100
AcDbEntity
  8
0
  6
CONTINUOUS
 62
     7
100
AcDbLine
 10
6.1796352514
 20
1.9814211366
 30
0.0
 11
7.8712070044
 21
1.9814211366
 31
0.0
  0
LINE
  5
53
330
1F
100
AcDbEntity
  8
0
  6
CONTINUOUS
 62
     7
100
AcDbLine
 10
6.1796352514
 20
2.1689211366
 30
0.0
 11
7.8712070044
 21
2.1689211366
 31
0.0
  0
LINE
  5
54
330
1F
100
AcDbEntity
  8
0
  6
CONTINUOUS
 62
     7
100
AcDbLine
 10
7.8712070044
 20
1.2314211366
 30
0.0
 11
6.1796352514
 21
1.2314211366
 31
0.0
  0
LINE
  5
55
330
1F
100
AcDbEntity
  8
0
  6
CONTINUOUS
 62
     7
100
AcDbLine
 10
7.3921580388
 20
2.3564211366
 30
0.0
 11
7.3921580388
 21
1.2314211366
 31
0.0
  0
LINE
  5
56
330
1F
100
AcDbEntity
  8
0
  6
CONTINUOUS
 62
     7
100
AcDbLine
 10
6.9236308342
 20
2.3564211366
 30
0.0
 11
6.9236308342
 21
1.2314211366
 31
0.0
  0
LINE
  5
57
330
1F
100
AcDbEntity
  8
0
  6
CONTINUOUS
 62
     7
100
AcDbLine
 10
4.7981841288
 20
0.8557965305
 30
0.0
 11
6.1796352514
 21
0.8557965305
 31
0.0
  0
LINE
  5
58
330
1F
100
AcDbEntity
  8
0
  6
CONTINUOUS
 62
     7
100
AcDbLine
 10
4.7981841288
 20
1.1257965305
 30
0.0
 11
6.1796352514
 21
1.1257965305
 31
0.0
  0
LINE
  5
59
330
1F
100
AcDbEntity
  8
0
  6
CONTINUOUS
 62
     7
100
AcDbLine
 10
2.8210345579
 20
0.3920731707
 30
0.0
 11
2.8210345579
 21
2.3564211366
 31
0.0
  0
LINE
  5
5A
330
1F
100
AcDbEntity
  8
0
  6
CONTINUOUS
 62
     7
100
AcDbLine
 10
2.8210345579
 20
1.1064211366
 30
0.0
 11
4.7981841288
 21
1.1064211366
 31
0.0
  0
LINE
  5
5B
330
1F
100
AcDbEntity
  8
0
  6
CONTINUOUS
 62
     7
100
AcDbLine
 10
2.8210345579
 20
1.3564211366
 30
0.0
 11
4.7981841288
 21
1.3564211366
 31
0.0
  0
LINE
  5
5C
330
1F
100
AcDbEntity
  8
0
  6
CONTINUOUS
 62
     7
100
AcDbLine
 10
2.8210345579
 20
1.6064211366
 30
0.0
 11
4.7981841288
 21
1.6064211366
 31
0.0
  0
LINE
  5
5D
330
1F
100
AcDbEntity
  8
0
  6
CONTINUOUS
 62
     7
100
AcDbLine
 10
2.8210345579
 20
1.8564211366
 30
0.0
 11
4.7981841288
 21
1.8564211366
 31
0.0
  0
LINE
  5
5E
330
1F
100
AcDbEntity
  8
0
  6
CONTINUOUS
 62
     7
100
AcDbLine
 10
3.8190146875
 20
2.3564211366
 30
0.0
 11
3.8190146875
 21
0.5883479999
 31
0.0
  0
LINE
  5
5F
330
1F
100
AcDbEntity
  8
0
  6
CONTINUOUS
 62
     7
100
AcDbLine
 10
6.1796352514
 20
2.2020813496
 30
0.0
 11
4.7981841288
 21
2.2020813496
 31
0.0
  0
LINE
  5
60
330
1F
100
AcDbEntity
  8
0
  6
CONTINUOUS
 62
     7
100
AcDbLine
 10
7.8712070044
 20
1.6064211366
 30
0.0
 11
6.1796352514
 21
1.6064211366
 31
0.0
  0
LINE
  5
61
330
1F
100
AcDbEntity
  8
0
  6
CONTINUOUS
 62
     7
100
AcDbLine
 10
7.8712070044
 20
1.4189211366
 30
0.0
 11
6.1796352514
 21
1.4189211366
 31
0.0
  0
LINE
  5
62
330
1F
100
AcDbEntity
  8
0
  6
CONTINUOUS
 62
     7
100
AcDbLine
 10
2.8210345579
 20
2.1064211366
 30
0.0
 11
4.7981841288
 21
2.1064211366
 31
0.0
  0
LINE
  5
63
330
1F
100
AcDbEntity
  8
0
  6
CONTINUOUS
 62
     7
100
AcDbLine
 10
4.7981841288
 20
1.3957965305
 30
0.0
 11
6.1796352514
 21
1.3957965305
 31
0.0
  0
LINE
  5
64
330
1F
100
AcDbEntity
  8
0
  6
CONTINUOUS
 62
     7
100
AcDbLine
 10
2.8210345579
 20
0.8564211366
 30
0.0
 11
4.7981841288
 21
0.8564211366
 31
0.0
  0
LINE
  5
65
330
1F
100
AcDbEntity
  8
0
  6
CONTINUOUS
 62
     7
100
AcDbLine
 10
1.1838252943
 20
0.3920731707
 30
0.0
 11
1.1838252943
 21
1.3064211366
 31
0.0
  0
LINE
  5
66
330
1F
100
AcDbEntity
  8
0
  6
CONTINUOUS
 62
     7
100
AcDbLine
 10
2.8210345579
 20
1.3064211366
 30
0.0
 11
1.1838252943
 21
1.3064211366
 31
0.0
  0
LINE
  5
67
330
1F
100
AcDbEntity
  8
0
  6
CONTINUOUS
 62
     7
100
AcDbLine
 10
8.660927
 20
0.3920731707
 30
0.0
 11
8.660927
 21
0.3072739649
 31
0.0
  0
LINE
  5
68
330
1F
100
AcDbEntity
  8
0
  6
CONTINUOUS
 62
     7
100
AcDbLine
 10
6.692177
 20
0.3920731707
 30
0.0
 11
6.692177
 21
0.3072739649
 31
0.0
  0
LINE
  5
69
330
1F
100
AcDbEntity
  8
0
  6
CONTINUOUS
 62
     7
100
AcDbLine
 10
4.723427
 20
0.3920731707
 30
0.0
 11
4.723427
 21
0.3072739649
 31
0.0
  0
LINE
  5
6A
330
1F
100
AcDbEntity
  8
0
  6
CONTINUOUS
 62
     7
100
AcDbLine
 10
2.754677
 20
0.3920731707
 30
0.0
 11
2.754677
 21
0.3072739649
 31
0.0
  0
LINE
  5
6B
330
1F
100
AcDbEntity
  8
0
  6
CONTINUOUS
 62
     7
100
AcDbLine
 10
2.754677
 20
0.3920731707
 30
0.0
 11
2.7672319738
 21
0.3575
 31
0.0
  0
LINE
  5
6C
330
1F
100
AcDbEntity
  8
0
  6
CONTINUOUS
 62
     7
100
AcDbLine
 10
2.7672319738
 20
0.3575
 30
0.0
 11
2.7414258825
 21
0.3575
 31
0.0
  0
LINE
  5
6D
330
1F
100
AcDbEntity
  8
0
  6
CONTINUOUS
 62
     7
100
AcDbLine
 10
2.7414258825
 20
0.3575
 30
0.0
 11
2.754677
 21
0.3920731707
 31
0.0
  0
MTEXT
  5
91
330
1F
100
AcDbEntity
  8
0
  6
CONTINUOUS
 62
     7
100
AcDbMText
 10
4.9775846961
 20
0.5178452352
 30
0.0
 40
0.0625
 41
0.0
 71
     1
 72
     1
  1
DO NOT SCALE DRAWING
  7
SLDTEXTSTYLE0
  0
MTEXT
  5
92
330
1F
100
AcDbEntity
  8
0
  6
CONTINUOUS
 62
     7
100
AcDbMText
 10
8.5757057119
 20
0.9417064595
 30
0.0
 40
0.125
 41
0.0
 71
     1
 72
     1
  1
CL7-12_CLAMP
  7
SLDTEXTSTYLE0
  0
MTEXT
  5
94
330
1F
100
AcDbEntity
  8
0
  6
CONTINUOUS
 62
     7
100
AcDbMText
 10
9.7571278483
 20
0.5524239532
 30
0.0
 40
0.1
 41
0.0
 71
     1
 72
     1
  1
SHEET 1 OF 1
  7
SLDTEXTSTYLE1
  0
MTEXT
  5
95
330
1F
100
AcDbEntity
  8
0
  6
CONTINUOUS
 62
     7
100
AcDbMText
 10
4.8448077858
 20
2.3132954224
 30
0.0
 40
0.07
 41
0.0
 71
     1
 72
     1
  1
UNLESS OTHERWISE SPECIFIED:
  7
SLDTEXTSTYLE0
  0
MTEXT
  5
96
330
1F
100
AcDbEntity
  8
0
  6
CONTINUOUS
 62
     7
100
AcDbMText
 10
7.9586139647
 20
0.5520987879
 30
0.0
 40
0.1
 41
0.0
 71
     1
 72
     1
  1
SCALE: 2:1
  7
SLDTEXTSTYLE0
  0
MTEXT
  5
97
330
1F
100
AcDbEntity
  8
0
  6
CONTINUOUS
 62
     7
100
AcDbMText
 10
8.7023691647
 20
0.5486763345
 30
0.0
 40
0.1
 41
0.0
 71
     1
 72
     1
  1
WEIGHT: 
  7
SLDTEXTSTYLE0
  0
MTEXT
  5
98
330
1F
100
AcDbEntity
  8
0
  6
CONTINUOUS
 62
     7
100
AcDbMText
 10
10.2277580983
 20
1.081966299
 30
0.0
 40
0.1
 41
0.0
 71
     1
 72
     1
  1
REV
  7
SLDTEXTSTYLE0
  0
MTEXT
  5
9A
330
1F
100
AcDbEntity
  8
0
  6
CONTINUOUS
 62
     7
100
AcDbMText
 10
8.2984570898
 20
1.0858725293
 30
0.0
 40
0.1
 41
0.0
 71
     1
 72
     1
  1
DWG.  NO.
  7
SLDTEXTSTYLE2
  0
MTEXT
  5
9B
330
1F
100
AcDbEntity
  8
0
  6
CONTINUOUS
 62
     7
100
AcDbMText
 10
7.9598482632
 20
0.9442140768
 30
0.0
 40
0.25
 41
0.0
 71
     1
 72
     1
  1
A
  7
SLDTEXTSTYLE0
  0
MTEXT
  5
9C
330
1F
100
AcDbEntity
  8
0
  6
CONTINUOUS
 62
     7
100
AcDbMText
 10
7.9519581822
 20
1.0872713483
 30
0.0
 40
0.1
 41
0.0
 71
     1
 72
     1
  1
SIZE
  7
SLDTEXTSTYLE0
  0
MTEXT
  5
9D
330
1F
100
AcDbEntity
  8
0
  6
CONTINUOUS
 62
     7
100
AcDbMText
 10
7.9170704177
 20
1.9547881128
 30
0.0
 40
0.1
 41
0.0
 71
     1
 72
     1
  1
TITLE:
  7
SLDTEXTSTYLE0
  0
MTEXT
  5
9E
330
1F
100
AcDbEntity
  8
0
  6
CONTINUOUS
 62
     7
100
AcDbMText
 10
7.0363774929
 20
2.2906161274
 30
0.0
 40
0.065
 41
0.0
 71
     1
 72
     1
  1
NAME
  7
SLDTEXTSTYLE0
  0
MTEXT
  5
9F
330
1F
100
AcDbEntity
  8
0
  6
CONTINUOUS
 62
     7
100
AcDbMText
 10
7.5281510634
 20
2.2888799118
 30
0.0
 40
0.065
 41
0.0
 71
     1
 72
     1
  1
DATE
  7
SLDTEXTSTYLE0
  0
MTEXT
  5
A0
330
1F
100
AcDbEntity
  8
0
  6
CONTINUOUS
 62
     7
100
AcDbMText
 10
6.2277147029
 20
1.1876913145
 30
0.0
 40
0.065
 41
0.0
 71
     1
 72
     1
  1
COMMENTS:
  7
SLDTEXTSTYLE0
  0
MTEXT
  5
A1
330
1F
100
AcDbEntity
  8
0
  6
CONTINUOUS
 62
     7
100
AcDbMText
 10
6.2268411461
 20
1.3536101679
 30
0.0
 40
0.065
 41
0.0
 71
     1
 72
     1
  1
Q.A.
  7
SLDTEXTSTYLE0
  0
MTEXT
  5
A2
330
1F
100
AcDbEntity
  8
0
  6
CONTINUOUS
 62
     7
100
AcDbMText
 10
6.2284654509
 20
1.5395328424
 30
0.0
 40
0.065
 41
0.0
 71
     1
 72
     1
  1
MFG APPR.
  7
SLDTEXTSTYLE0
  0
MTEXT
  5
A3
330
1F
100
AcDbEntity
  8
0
  6
CONTINUOUS
 62
     7
100
AcDbMText
 10
6.2235171344
 20
1.7267501785
 30
0.0
 40
0.065
 41
0.0
 71
     1
 72
     1
  1
ENG APPR.
  7
SLDTEXTSTYLE0
  0
MTEXT
  5
A4
330
1F
100
AcDbEntity
  8
0
  6
CONTINUOUS
 62
     7
100
AcDbMText
 10
6.2264103951
 20
1.9092699088
 30
0.0
 40
0.065
 41
0.0
 71
     1
 72
     1
  1
CHECKED
  7
SLDTEXTSTYLE0
  0
MTEXT
  5
A5
330
1F
100
AcDbEntity
  8
0
  6
CONTINUOUS
 62
     7
100
AcDbMText
 10
6.2242794356
 20
2.1016301232
 30
0.0
 40
0.065
 41
0.0
 71
     1
 72
     1
  1
DRAWN
  7
SLDTEXTSTYLE0
  0
MTEXT
  5
A6
330
1F
100
AcDbEntity
  8
0
  6
CONTINUOUS
 62
     7
100
AcDbMText
 10
4.8208600979
 20
0.834523235
 30
0.0
 40
0.06
 41
0.0
 71
     1
 72
     1
  1
FINISH
  7
SLDTEXTSTYLE0
  0
MTEXT
  5
A7
330
1F
100
AcDbEntity
  8
0
  6
CONTINUOUS
 62
     7
100
AcDbMText
 10
4.8181240648
 20
1.1028217587
 30
0.0
 40
0.06
 41
0.0
 71
     1
 72
     1
  1
MATERIAL
  7
SLDTEXTSTYLE0
  0
INSERT
  5
AD
330
1F
100
AcDbEntity
  8
0
  6
CONTINUOUS
 62
     7
100
AcDbBlockReference
  2
SW_NOTE_0
 10
4.8231926633
 20
1.2646542947
 30
0.0
  0
INSERT
  5
BD
330
1F
100
AcDbEntity
  8
0
  6
CONTINUOUS
 62
     7
100
AcDbBlockReference
  2
SW_NOTE_1
 10
4.8353339353
 20
2.0049168724
 30
0.0
  0
MTEXT
  5
BE
330
1F
100
AcDbEntity
  8
0
  6
CONTINUOUS
 62
     7
100
AcDbMText
 10
3.5531400086
 20
0.5200091997
 30
0.0
 40
0.0625
 41
0.0
 71
     1
 72
     1
  1
APPLICATION
  7
SLDTEXTSTYLE0
  0
MTEXT
  5
BF
330
1F
100
AcDbEntity
  8
0
  6
CONTINUOUS
 62
     7
100
AcDbMText
 10
4.1005607758
 20
0.7502454275
 30
0.0
 40
0.0625
 41
0.0
 71
     1
 72
     1
  1
USED ON
  7
SLDTEXTSTYLE0
  0
MTEXT
  5
C0
330
1F
100
AcDbEntity
  8
0
  6
CONTINUOUS
 62
     7
100
AcDbMText
 10
3.1040019536
 20
0.7492094783
 30
0.0
 40
0.0625
 41
0.0
 71
     1
 72
     1
  1
NEXT ASSY
  7
SLDTEXTSTYLE0
  0
MTEXT
  5
C1
330
1F
100
AcDbEntity
  8
0
  6
CONTINUOUS
 62
     7
100
AcDbMText
 10
1.3712489489
 20
1.2496672684
 30
0.0
 40
0.06
 41
0.0
 71
     1
 72
     1
  1
PROPRIETARY AND CONFIDENTIAL
  7
SLDTEXTSTYLE0
  0
INSERT
  5
CC
330
1F
100
AcDbEntity
  8
0
  6
CONTINUOUS
 62
     7
100
AcDbBlockReference
  2
SW_NOTE_2
 10
1.2226209074
 20
1.0313492921
 30
0.0
  0
MTEXT
  5
CD
330
1F
100
AcDbEntity
  8
0
  6
CONTINUOUS
 62
     7
100
AcDbMText
 10
1.7387909509
 20
0.3105864247
 30
0.0
 40
0.09375
 41
0.0
 71
     1
 72
     1
  1
5
  7
SLDTEXTSTYLE0
  0
MTEXT
  5
CE
330
1F
100
AcDbEntity
  8
0
  6
CONTINUOUS
 62
     7
100
AcDbMText
 10
3.723800327
 20
0.3137237518
 30
0.0
 40
0.09375
 41
0.0
 71
     1
 72
     1
  1
4
  7
SLDTEXTSTYLE0
  0
MTEXT
  5
CF
330
1F
100
AcDbEntity
  8
0
  6
CONTINUOUS
 62
     7
100
AcDbMText
 10
5.6324457277
 20
0.3116191842
 30
0.0
 40
0.09375
 41
0.0
 71
     1
 72
     1
  1
3
  7
SLDTEXTSTYLE0
  0
MTEXT
  5
D0
330
1F
100
AcDbEntity
  8
0
  6
CONTINUOUS
 62
     7
100
AcDbMText
 10
7.6059721724
 20
0.3124391351
 30
0.0
 40
0.09375
 41
0.0
 71
     1
 72
     1
  1
2
  7
SLDTEXTSTYLE0
  0
MTEXT
  5
D1
330
1F
100
AcDbEntity
  8
0
  6
CONTINUOUS
 62
     7
100
AcDbMText
 10
9.6619921328
 20
0.301372012
 30
0.0
 40
0.09375
 41
0.0
 71
     1
 72
     1
  1
1
  7
SLDTEXTSTYLE0
  0
LINE
  5
D2
330
1F
100
AcDbEntity
  8
0
  6
CONTINUOUS
 62
     7
100
AcDbLine
 10
3.0313605128
 20
3.2862373415
 30
0.0
 11
3.6219116939
 21
3.2862373415
 31
0.0
  0
LINE
  5
D3
330
1F
100
AcDbEntity
  8
0
  6
CONTINUOUS
 62
     7
100
AcDbLine
 10
2.6182896467
 20
3.2862373415
 30
0.0
 11
2.9919904341
 21
3.2862373415
 31
0.0
  0
LINE
  5
D4
330
1F
100
AcDbEntity
  8
0
  6
CONTINUOUS
 62
     7
100
AcDbLine
 10
2.9919904341
 20
4.2311192313
 30
0.0
 11
2.6182896467
 21
4.2311192313
 31
0.0
  0
LINE
  5
D5
330
1F
100
AcDbEntity
  8
0
  6
CONTINUOUS
 62
     7
100
AcDbLine
 10
4.0349825601
 20
4.2311192313
 30
0.0
 11
3.0313605128
 21
4.2311192313
 31
0.0
  0
LINE
  5
D6
330
1F
100
AcDbEntity
  8
0
  6
CONTINUOUS
 62
     7
100
AcDbLine
 10
2.6182896467
 20
4.2311192313
 30
0.0
 11
2.5982896467
 21
4.2111192313
 31
0.0
  0
LINE
  5
D7
330
1F
100
AcDbEntity
  8
0
  6
CONTINUOUS
 62
     7
100
AcDbLine
 10
2.5982896467
 20
3.3062373415
 30
0.0
 11
2.6182896467
 21
3.2862373415
 31
0.0
  0
LINE
  5
D8
330
1F
100
AcDbEntity
  8
0
  6
CONTINUOUS
 62
     7
100
AcDbLine
 10
4.0549825601
 20
4.2111192313
 30
0.0
 11
4.0349825601
 21
4.2311192313
 31
0.0
  0
LINE
  5
D9
330
1F
100
AcDbEntity
  8
0
  6
CONTINUOUS
 62
     7
100
AcDbLine
 10
2.6182896467
 20
4.2311192313
 30
0.0
 11
2.6182896467
 21
3.2862373415
 31
0.0
  0
LINE
  5
DA
330
1F
100
AcDbEntity
  8
0
  6
CONTINUOUS
 62
     7
100
AcDbLine
 10
2.9919904341
 20
4.1274773808
 30
0.0
 11
2.9919904341
 21
4.2311192313
 31
0.0
  0
LINE
  5
DB
330
1F
100
AcDbEntity
  8
0
  6
CONTINUOUS
 62
     7
100
AcDbLine
 10
3.0313605128
 20
4.1274773808
 30
0.0
 11
2.9919904341
 21
4.1274773808
 31
0.0
  0
LINE
  5
DC
330
1F
100
AcDbEntity
  8
0
  6
CONTINUOUS
 62
     7
100
AcDbLine
 10
3.0313605128
 20
3.389879192
 30
0.0
 11
3.0313605128
 21
3.2862373415
 31
0.0
  0
LINE
  5
DD
330
1F
100
AcDbEntity
  8
0
  6
CONTINUOUS
 62
     7
100
AcDbLine
 10
3.0313605128
 20
4.2311192313
 30
0.0
 11
3.0313605128
 21
4.1274773808
 31
0.0
  0
LINE
  5
DE
330
1F
100
AcDbEntity
  8
0
  6
CONTINUOUS
 62
     7
100
AcDbLine
 10
2.9919904341
 20
3.389879192
 30
0.0
 11
3.0313605128
 21
3.389879192
 31
0.0
  0
LINE
  5
DF
330
1F
100
AcDbEntity
  8
0
  6
CONTINUOUS
 62
     7
100
AcDbLine
 10
2.9919904341
 20
3.2862373415
 30
0.0
 11
2.9919904341
 21
3.389879192
 31
0.0
  0
LINE
  5
E0
330
1F
100
AcDbEntity
  8
0
  6
CONTINUOUS
 62
     7
100
AcDbLine
 10
4.0349825601
 20
3.2866476246
 30
0.0
 11
3.6612817727
 21
3.2866476246
 31
0.0
  0
LINE
  5
E1
330
1F
100
AcDbEntity
  8
0
  6
CONTINUOUS
 62
     7
100
AcDbLine
 10
3.6612817727
 20
3.9358436407
 30
0.0
 11
3.6612817727
 21
3.2866476246
 31
0.0
  0
LINE
  5
E2
330
1F
100
AcDbEntity
  8
0
  6
CONTINUOUS
 62
     7
100
AcDbLine
 10
3.6219116939
 20
3.9358436407
 30
0.0
 11
3.6612817727
 21
3.9358436407
 31
0.0
  0
LINE
  5
E3
330
1F
100
AcDbEntity
  8
0
  6
CONTINUOUS
 62
     7
100
AcDbLine
 10
3.6219116939
 20
3.2862373415
 30
0.0
 11
3.6219116939
 21
3.9358436407
 31
0.0
  0
LINE
  5
E4
330
1F
100
AcDbEntity
  8
0
  6
CONTINUOUS
 62
     7
100
AcDbLine
 10
4.0349825601
 20
3.2866476246
 30
0.0
 11
4.0349825601
 21
4.2311192313
 31
0.0
  0
LINE
  5
E5
330
1F
100
AcDbEntity
  8
0
  6
CONTINUOUS
 62
     7
100
AcDbLine
 10
3.9427107383
 20
3.3132566919
 30
0.0
 11
3.7735535945
 21
3.3132566919
 31
0.0
  0
SPLINE
  5
E6
330
1F
100
AcDbEntity
  8
0
  6
CONTINUOUS
 62
     7
100
AcDbSpline
210
0.0
220
0.0
230
1.0
 70
     8
 71
     3
 72
    52
 73
    48
 74
     0
 42
0.00000001
 43
0.00000001
 40
0.0
 40
0.0
 40
0.0
 40
0.0
 40
0.0625000000000003
 40
0.0625000000000003
 40
0.1250000000000006
 40
0.1250000000000006
 40
0.1875000000000008
 40
0.1875000000000008
 40
0.2187500000000009
 40
0.2187500000000009
 40
0.250000000000001
 40
0.250000000000001
 40
0.2812500000000011
 40
0.2812500000000011
 40
0.3125000000000012
 40
0.3125000000000012
 40
0.3750000000000014
 40
0.3750000000000014
 40
0.4062500000000014
 40
0.4062500000000014
 40
0.4375000000000016
 40
0.4375000000000016
 40
0.4687500000000016
 40
0.4687500000000016
 40
0.5000000000000017
 40
0.5000000000000017
 40
0.5312500000000018
 40
0.5312500000000018
 40
0.5625000000000018
 40
0.5625000000000018
 40
0.6250000000000017
 40
0.6250000000000017
 40
0.6562500000000016
 40
0.6562500000000016
 40
0.6875000000000014
 40
0.6875000000000014
 40
0.7187500000000014
 40
0.7187500000000014
 40
0.7500000000000013
 40
0.7500000000000013
 40
0.812500000000001
 40
0.812500000000001
 40
0.843750000000001
 40
0.843750000000001
 40
0.8750000000000009
 40
0.8750000000000009
 40
1.0
 40
1.0
 40
1.0
 40
1.0
 10
3.773553594499471
 20
3.313256691943828
 30
0.0
 10
3.76130019872617
 20
3.320112058906068
 30
0.0
 10
3.750058869187823
 20
3.328317118577317
 30
0.0
 10
3.7294343228388
 20
3.347624320442906
 30
0.0
 10
3.72006269888535
 20
3.35872010301068
 30
0.0
 10
3.703778513736747
 20
3.384349377538471
 30
0.0
 10
3.696899890042149
 20
3.398931252734672
 30
0.0
 10
3.689746441559761
 20
3.422913935467164
 30
0.0
 10
3.687871027800135
 20
3.431293539241035
 30
0.0
 10
3.685372531358818
 20
3.448901847801503
 30
0.0
 10
3.684765380187663
 20
3.458105502862368
 30
0.0
 10
3.685096058414519
 20
3.476867469306858
 30
0.0
 10
3.686021574666329
 20
3.486483608804049
 30
0.0
 10
3.689706682079427
 20
3.506160374540833
 30
0.0
 10
3.692494240147084
 20
3.516234474430064
 30
0.0
 10
3.703752132305199
 20
3.545794410559518
 30
0.0
 10
3.715524055498701
 20
3.565384667615543
 30
0.0
 10
3.738763870222551
 20
3.590486556509557
 30
0.0
 10
3.747549009263514
 20
3.598293479572824
 30
0.0
 10
3.766704275448898
 20
3.612041353557622
 30
0.0
 10
3.776920042425588
 20
3.617905694689191
 30
0.0
 10
3.798618614123399
 20
3.627550841088243
 30
0.0
 10
3.810172650666214
 20
3.631316910566793
 30
0.0
 10
3.833477681543297
 20
3.63631237445006
 30
0.0
 10
3.845380626068636
 20
3.637614279544837
 30
0.0
 10
3.869547532811041
 20
3.637707484352854
 30
0.0
 10
3.881425091774835
 20
3.636502648703833
 30
0.0
 10
3.904781991664735
 20
3.63168822487218
 30
0.0
 10
3.916373071098529
 20
3.628009272731853
 30
0.0
 10
3.949022110350624
 20
3.613801022151761
 30
0.0
 10
3.96870569793795
 20
3.599734707799066
 30
0.0
 10
3.992232316634569
 20
3.574689905199839
 30
0.0
 10
3.999225242765548
 20
3.565550113643049
 30
0.0
 10
4.01099774422222
 20
3.546676606988334
 30
0.0
 10
4.015808057237983
 20
3.536956035418922
 30
0.0
 10
4.023495041755663
 20
3.517124213659266
 30
0.0
 10
4.026329595130732
 20
3.507070487520838
 30
0.0
 10
4.030121195860365
 20
3.487412811377761
 30
0.0
 10
4.03111341810098
 20
3.477693480887701
 30
0.0
 10
4.031732220793448
 20
3.449196734993074
 30
0.0
 10
4.02907351351357
 20
3.431740513723694
 30
0.0
 10
4.021980985329027
 20
3.407582625822394
 30
0.0
 10
4.019067420024284
 20
3.399847702006917
 30
0.0
 10
4.012460352013456
 20
3.385349475708617
 30
0.0
 10
4.008757455565005
 20
3.378541679106499
 30
0.0
 10
3.988576749074035
 20
3.346491792253659
 30
0.0
 10
3.967259350999875
 20
3.326990823436942
 30
0.0
 10
3.942710738253886
 20
3.313256691943828
 30
0.0
  0
LINE
  5
E7
330
1F
100
AcDbEntity
  8
0
  6
CONTINUOUS
 62
     7
100
AcDbLine
 10
2.5982896467
 20
3.3062373415
 30
0.0
 11
2.5982896467
 21
4.2111192313
 31
0.0
  0
LINE
  5
E8
330
1F
100
AcDbEntity
  8
0
  6
CONTINUOUS
 62
     7
100
AcDbLine
 10
4.0549825601
 20
4.2111192313
 30
0.0
 11
4.0549825601
 21
3.3066657779
 31
0.0
  0
LINE
  5
E9
330
1F
100
AcDbEntity
  8
0
  6
CONTINUOUS
 62
     7
100
AcDbLine
 10
4.0349825601
 20
3.2866476246
 30
0.0
 11
4.0549825601
 21
3.3066657779
 31
0.0
  0
CIRCLE
  5
EA
330
1F
100
AcDbEntity
  8
0
  6
CONTINUOUS
 62
     7
100
AcDbCircle
 10
3.8581321664
 20
3.4644338238
 30
0.0
 40
0.1338582677165356
  0
LINE
  5
EB
330
1F
100
AcDbEntity
  8
0
  6
CONTINUOUS
 62
     7
100
AcDbLine
 10
3.9171872845
 20
3.4303383355
 30
0.0
 11
3.9171872845
 21
3.4985293121
 31
0.0
  0
LINE
  5
EC
330
1F
100
AcDbEntity
  8
0
  6
CONTINUOUS
 62
     7
100
AcDbLine
 10
3.8581321664
 20
3.5326248005
 30
0.0
 11
3.7990770483
 21
3.4985293121
 31
0.0
  0
LINE
  5
ED
330
1F
100
AcDbEntity
  8
0
  6
CONTINUOUS
 62
     7
100
AcDbLine
 10
3.7990770483
 20
3.4303383355
 30
0.0
 11
3.8581321664
 21
3.3962428471
 31
0.0
  0
LINE
  5
EE
330
1F
100
AcDbEntity
  8
0
  6
CONTINUOUS
 62
     7
100
AcDbLine
 10
3.7990770483
 20
3.4985293121
 30
0.0
 11
3.7990770483
 21
3.4303383355
 31
0.0
  0
LINE
  5
EF
330
1F
100
AcDbEntity
  8
0
  6
CONTINUOUS
 62
     7
100
AcDbLine
 10
3.9171872845
 20
3.4985293121
 30
0.0
 11
3.8581321664
 21
3.5326248005
 31
0.0
  0
LINE
  5
F0
330
1F
100
AcDbEntity
  8
0
  6
CONTINUOUS
 62
     7
100
AcDbLine
 10
3.8581321664
 20
3.3962428471
 30
0.0
 11
3.9171872845
 21
3.4303383355
 31
0.0
  0
CIRCLE
  5
F1
330
1F
100
AcDbEntity
  8
0
  6
CONTINUOUS
 62
     7
100
AcDbCircle
 10
3.8581321664
 20
3.4644338238
 30
0.0
 40
0.1496062992125986
  0
SPLINE
  5
F2
330
1F
100
AcDbEntity
  8
0
  6
HIDDEN
 62
     7
100
AcDbSpline
210
0.0
220
0.0
230
1.0
 70
     8
 71
     3
 72
    52
 73
    48
 74
     0
 42
0.00000001
 43
0.00000001
 40
0.0
 40
0.0
 40
0.0
 40
0.0
 40
0.0625000000000001
 40
0.0625000000000001
 40
0.1250000000000002
 40
0.1250000000000002
 40
0.1875000000000003
 40
0.1875000000000003
 40
0.2187500000000003
 40
0.2187500000000003
 40
0.2500000000000003
 40
0.2500000000000003
 40
0.2812500000000003
 40
0.2812500000000003
 40
0.3125000000000004
 40
0.3125000000000004
 40
0.3750000000000003
 40
0.3750000000000003
 40
0.4062500000000004
 40
0.4062500000000004
 40
0.4375000000000004
 40
0.4375000000000004
 40
0.4687500000000005
 40
0.4687500000000005
 40
0.5000000000000006
 40
0.5000000000000006
 40
0.5312500000000006
 40
0.5312500000000006
 40
0.5625000000000007
 40
0.5625000000000007
 40
0.6250000000000007
 40
0.6250000000000007
 40
0.6562500000000006
 40
0.6562500000000006
 40
0.6875000000000006
 40
0.6875000000000006
 40
0.7187500000000004
 40
0.7187500000000004
 40
0.7500000000000003
 40
0.7500000000000003
 40
0.8125000000000002
 40
0.8125000000000002
 40
0.8437500000000002
 40
0.8437500000000002
 40
0.8750000000000001
 40
0.8750000000000001
 40
1.0
 40
1.0
 40
1.0
 40
1.0
 10
2.710561468515219
 20
3.601197971431417
 30
0.0
 10
2.698308072741918
 20
3.581808065565328
 30
0.0
 10
2.687066743203571
 20
3.562617366235987
 30
0.0
 10
2.666442196854549
 20
3.524829497101229
 30
0.0
 10
2.657070572901098
 20
3.50622274936464
 30
0.0
 10
2.640786387752495
 20
3.469579316096389
 30
0.0
 10
2.633907764057897
 20
3.451553296586948
 30
0.0
 10
2.626754315575509
 20
3.426114672408681
 30
0.0
 10
2.624878901815884
 20
3.417853072388376
 30
0.0
 10
2.622380405374567
 20
3.401773316880639
 30
0.0
 10
2.621773254203412
 20
3.393988878578057
 30
0.0
 10
2.622103932430267
 20
3.379303767289517
 30
0.0
 10
2.623029448682077
 20
3.372348820271025
 30
0.0
 10
2.626714556095175
 20
3.359209760604482
 30
0.0
 10
2.629502114162833
 20
3.353031158886041
 30
0.0
 10
2.640760006320947
 20
3.336311748586355
 30
0.0
 10
2.652531929514449
 20
3.32721156487914
 30
0.0
 10
2.6757717442383
 20
3.317097755222467
 30
0.0
 10
2.684556883279262
 20
3.314234826743521
 30
0.0
 10
2.703712149464646
 20
3.309511407591192
 30
0.0
 10
2.713927916441336
 20
3.307669549500909
 30
0.0
 10
2.735626488139147
 20
3.304771471709809
 30
0.0
 10
2.747180524681962
 20
3.303720888912907
 30
0.0
 10
2.770485555559045
 20
3.302351936980029
 30
0.0
 10
2.782388500084383
 20
3.302012155645214
 30
0.0
 10
2.806555406826789
 20
3.301987456859442
 30
0.0
 10
2.818432965790584
 20
3.302301481888452
 30
0.0
 10
2.841789865680484
 20
3.303617632842859
 30
0.0
 10
2.853380945114276
 20
3.30464029989662
 30
0.0
 10
2.886029984366372
 20
3.30889080729712
 30
0.0
 10
2.905713571953698
 20
3.31341334322595
 30
0.0
 10
2.929240190650317
 20
3.32344318545911
 30
0.0
 10
2.936233116781295
 20
3.327388283885289
 30
0.0
 10
2.948005618237967
 20
3.336345662383848
 30
0.0
 10
2.952815931253731
 20
3.341342531328194
 30
0.0
 10
2.960502915771411
 20
3.352499115363408
 30
0.0
 10
2.963337469146479
 20
3.358636777910287
 30
0.0
 10
2.967129069876112
 20
3.371696717029304
 30
0.0
 10
2.968121292116728
 20
3.378687417650942
 30
0.0
 10
2.968740094809197
 20
3.40090473350594
 30
0.0
 10
2.966081387529317
 20
3.416829226760822
 30
0.0
 10
2.958988859344775
 20
3.442340739423857
 30
0.0
 10
2.956075294040032
 20
3.451151749662192
 30
0.0
 10
2.949468226029204
 20
3.468923979785695
 30
0.0
 10
2.945765329580754
 20
3.477927681712552
 30
0.0
 10
2.925584623089783
 20
3.523536895607652
 30
0.0
 10
2.904267225015623
 20
3.562351981381462
 30
0.0
 10
2.879718612269633
 20
3.601197971431417
 30
0.0
  0
SPLINE
  5
F3
330
1F
100
AcDbEntity
  8
0
  6
HIDDEN
 62
     7
100
AcDbSpline
210
0.0
220
0.0
230
1.0
 70
     8
 71
     3
 72
    48
 73
    44
 74
     0
 42
0.00000001
 43
0.00000001
 40
-0.0312500000000002
 40
-0.0312500000000002
 40
0.0
 40
0.0
 40
0.0312499999999998
 40
0.0312499999999998
 40
0.0624999999999997
 40
0.0624999999999997
 40
0.1249999999999996
 40
0.1249999999999996
 40
0.1874999999999995
 40
0.1874999999999995
 40
0.2499999999999995
 40
0.2499999999999995
 40
0.3124999999999993
 40
0.3124999999999993
 40
0.3749999999999992
 40
0.3749999999999992
 40
0.4062499999999992
 40
0.4062499999999992
 40
0.4374999999999992
 40
0.4374999999999992
 40
0.4687499999999993
 40
0.4687499999999993
 40
0.4999999999999992
 40
0.4999999999999992
 40
0.5624999999999992
 40
0.5624999999999992
 40
0.6249999999999992
 40
0.6249999999999992
 40
0.6874999999999993
 40
0.6874999999999993
 40
0.7499999999999993
 40
0.7499999999999993
 40
0.8124999999999994
 40
0.8124999999999994
 40
0.8749999999999996
 40
0.8749999999999996
 40
0.9062499999999997
 40
0.9062499999999997
 40
0.9374999999999998
 40
0.9374999999999998
 40
0.9687499999999998
 40
0.9687499999999998
 40
1.0
 40
1.0
 40
1.03125
 40
1.03125
 10
2.787830237587786
 20
4.027169202445259
 30
0.0
 10
2.802449843197066
 20
4.027169202445259
 30
0.0
 10
2.809566418640852
 20
4.028412053954559
 30
0.0
 10
2.82304747018525
 20
4.03281434334843
 30
0.0
 10
2.829191047521288
 20
4.0358609677419
 30
0.0
 10
2.846374738108637
 20
4.046653304244122
 30
0.0
 10
2.855541421841757
 20
4.055530990511115
 30
0.0
 10
2.870809715640989
 20
4.074150060984169
 30
0.0
 10
2.876711722619116
 20
4.083739049859359
 30
0.0
 10
2.885547473825836
 20
4.103062925782274
 30
0.0
 10
2.888349208590324
 20
4.112635454045494
 30
0.0
 10
2.890220467800377
 20
4.130860336051865
 30
0.0
 10
2.88925678033567
 20
4.139707592453041
 30
0.0
 10
2.88267122197174
 20
4.155534668738923
 30
0.0
 10
2.876943638696514
 20
4.162698083536801
 30
0.0
 10
2.864586074809128
 20
4.171485985388651
 30
0.0
 10
2.859763613384229
 20
4.174141025934933
 30
0.0
 10
2.849180963159323
 20
4.178652433554782
 30
0.0
 10
2.843384030629344
 20
4.180548840288155
 30
0.0
 10
2.830677926686389
 20
4.183659033238267
 30
0.0
 10
2.823962064159115
 20
4.184820381813767
 30
0.0
 10
2.810085539321432
 20
4.186386035920552
 30
0.0
 10
2.802786121234703
 20
4.186794576624949
 30
0.0
 10
2.781217575670195
 20
4.186843203490146
 30
0.0
 10
2.766805971722142
 20
4.185336472920035
 30
0.0
 10
2.741343861151367
 20
4.179270270801869
 30
0.0
 10
2.730356587372806
 20
4.174693346471679
 30
0.0
 10
2.713662911870108
 20
4.163033083238203
 30
0.0
 10
2.707847312652923
 20
4.155906787662836
 30
0.0
 10
2.701089128991383
 20
4.140057819258205
 30
0.0
 10
2.700063696425057
 20
4.131254232945661
 30
0.0
 10
2.701862141995096
 20
4.11288611763971
 30
0.0
 10
2.704673941872377
 20
4.103238314055701
 30
0.0
 10
2.713450293680075
 20
4.083951107399558
 30
0.0
 10
2.719500296157321
 20
4.074126037199841
 30
0.0
 10
2.730821084150943
 20
4.060302147940315
 30
0.0
 10
2.734987670543948
 20
4.055817391703132
 30
0.0
 10
2.744320672014283
 20
4.047245976567471
 30
0.0
 10
2.749542217622044
 20
4.043125123274604
 30
0.0
 10
2.760933215919082
 20
4.035946991628257
 30
0.0
 10
2.767248688394536
 20
4.032813879921273
 30
0.0
 10
2.78060634392397
 20
4.02844234487954
 30
0.0
 10
2.787830237587786
 20
4.027169202445259
 30
0.0
 10
2.802449843197066
 20
4.027169202445259
 30
0.0
  0
LINE
  5
F4
330
1F
100
AcDbEntity
  8
0
  6
HIDDEN
 62
     7
100
AcDbLine
 10
2.9919904341
 20
4.1274773808
 30
0.0
 11
2.9919904341
 21
3.389879192
 31
0.0
  0
LINE
  5
F5
330
1F
100
AcDbEntity
  8
0
  6
HIDDEN
 62
     7
100
AcDbLine
 10
3.0313605128
 20
4.1274773808
 30
0.0
 11
3.0313605128
 21
3.389879192
 31
0.0
  0
CIRCLE
  5
F6
330
1F
100
AcDbEntity
  8
0
  6
HIDDEN
 62
     7
100
AcDbCircle
 10
3.8581321664
 20
3.4644338238
 30
0.0
 40
0.0944881889763778
  0
SPLINE
  5
F7
330
1F
100
AcDbEntity
  8
0
  6
HIDDEN
 62
     7
100
AcDbSpline
210
0.0
220
0.0
230
1.0
 70
     8
 71
     3
 72
     8
 73
     4
 74
     0
 42
0.00000001
 43
0.00000001
 40
0.0
 40
0.0
 40
0.0
 40
0.0
 40
1.0
 40
1.0
 40
1.0
 40
1.0
 10
4.054982560077466
 20
3.621978116041483
 30
0.0
 10
4.048309938361622
 20
3.628719566026671
 30
0.0
 10
4.041642138290488
 20
3.635465977911484
 30
0.0
 10
4.034982560077465
 20
3.642220022945204
 30
0.0
  0
SPLINE
  5
F8
330
1F
100
AcDbEntity
  8
0
  6
HIDDEN
 62
     7
100
AcDbSpline
210
0.0
220
0.0
230
1.0
 70
    24
 71
     3
 72
     8
 73
     4
 74
     0
 42
0.00000001
 43
0.00000001
 40
0.0
 40
0.0
 40
0.0
 40
0.0
 40
1.0
 40
1.0
 40
1.0
 40
1.0
 10
2.618289646691639
 20
3.778363325762126
 30
0.0
 10
2.611629986365108
 20
3.778363325762126
 30
0.0
 10
2.604962251194491
 20
3.778363325762126
 30
0.0
 10
2.598289646691639
 20
3.778363325762126
 30
0.0
  0
SPLINE
  5
F9
330
1F
100
AcDbEntity
  8
0
  6
HIDDEN
 62
     7
100
AcDbSpline
210
0.0
220
0.0
230
1.0
 70
    24
 71
     3
 72
     8
 73
     4
 74
     0
 42
0.00000001
 43
0.00000001
 40
0.0
 40
0.0
 40
0.0
 40
0.0
 40
1.0
 40
1.0
 40
1.0
 40
1.0
 10
2.618289646691639
 20
3.738993247021968
 30
0.0
 10
2.611629986365108
 20
3.738993247021968
 30
0.0
 10
2.604962251194491
 20
3.738993247021968
 30
0.0
 10
2.598289646691639
 20
3.738993247021968
 30
0.0
  0
LINE
  5
FA
330
1F
100
AcDbEntity
  8
0
  6
HIDDEN
 62
     7
100
AcDbLine
 10
2.6182896467
 20
3.7783633258
 30
0.0
 11
2.9919904341
 21
3.7783633258
 31
0.0
  0
LINE
  5
FB
330
1F
100
AcDbEntity
  8
0
  6
HIDDEN
 62
     7
100
AcDbLine
 10
2.6182896467
 20
3.738993247
 30
0.0
 11
2.9919904341
 21
3.738993247
 31
0.0
  0
LINE
  5
FC
330
1F
100
AcDbEntity
  8
0
  6
HIDDEN
 62
     7
100
AcDbLine
 10
3.6612817727
 20
3.6422200229
 30
0.0
 11
4.0349825601
 21
3.6422200229
 31
0.0
  0
LINE
  5
FD
330
1F
100
AcDbEntity
  8
0
  6
HIDDEN
 62
     7
100
AcDbLine
 10
2.9683683868
 20
3.6011979714
 30
0.0
 11
2.6219116939
 21
3.6011979714
 31
0.0
  0
CIRCLE
  5
FE
330
1F
100
AcDbEntity
  8
0
  6
HIDDEN
 62
     7
100
AcDbCircle
 10
3.8581321664
 20
3.4644338238
 30
0.0
 40
0.0787401574803148
  0
CIRCLE
  5
FF
330
1F
100
AcDbEntity
  8
0
  6
HIDDEN
 62
     7
100
AcDbCircle
 10
3.8581321664
 20
3.4644338238
 30
0.0
 40
0.0629921259842523
  0
LINE
  5
100
330
1F
100
AcDbEntity
  8
0
  6
HIDDEN
 62
     7
100
AcDbLine
 10
2.9447463396
 20
3.459465688
 30
0.0
 11
2.6455337412
 21
3.459465688
 31
0.0
  0
LINE
  5
101
330
1F
100
AcDbEntity
  8
0
  6
HIDDEN
 62
     7
100
AcDbLine
 10
2.6455337412
 20
3.5854499399
 30
0.0
 11
2.9447463396
 21
3.5854499399
 31
0.0
  0
LINE
  5
102
330
1F
100
AcDbEntity
  8
0
  6
HIDDEN
 62
     7
100
AcDbLine
 10
2.6612817727
 20
3.4437176565
 30
0.0
 11
2.9289983081
 21
3.4437176565
 31
0.0
  0
LINE
  5
103
330
1F
100
AcDbEntity
  8
0
  6
HIDDEN
 62
     7
100
AcDbLine
 10
2.7163998829
 20
4.0972609636
 30
0.0
 11
2.8738801979
 21
4.0972609636
 31
0.0
  0
LINE
  5
104
330
1F
100
AcDbEntity
  8
0
  6
HIDDEN
 62
     7
100
AcDbLine
 10
2.8581321664
 20
4.1130089951
 30
0.0
 11
2.7321479144
 21
4.1130089951
 31
0.0
  0
LINE
  5
105
330
1F
100
AcDbEntity
  8
0
  6
HIDDEN
 62
     7
100
AcDbLine
 10
2.7951400404
 20
3.5618278927
 30
0.0
 11
2.7951400404
 21
3.4437176565
 31
0.0
  0
LINE
  5
106
330
1F
100
AcDbEntity
  8
0
  6
HIDDEN
 62
     7
100
AcDbLine
 10
2.7951400404
 20
3.5618278927
 30
0.0
 11
2.8541951585
 21
3.5618278927
 31
0.0
  0
LINE
  5
107
330
1F
100
AcDbEntity
  8
0
  6
HIDDEN
 62
     7
100
AcDbLine
 10
2.7360849223
 20
3.5618278927
 30
0.0
 11
2.7951400404
 21
3.5618278927
 31
0.0
  0
LINE
  5
108
330
1F
100
AcDbEntity
  8
0
  6
HIDDEN
 62
     7
100
AcDbLine
 10
2.8541951585
 20
3.5618278927
 30
0.0
 11
2.8541951585
 21
3.4437176565
 31
0.0
  0
LINE
  5
109
330
1F
100
AcDbEntity
  8
0
  6
HIDDEN
 62
     7
100
AcDbLine
 10
2.7360849223
 20
3.5618278927
 30
0.0
 11
2.7360849223
 21
3.4437176565
 31
0.0
  0
LINE
  5
10A
330
1F
100
AcDbEntity
  8
0
  6
HIDDEN
 62
     7
100
AcDbLine
 10
4.0549825601
 20
3.8967885226
 30
0.0
 11
4.0349825601
 21
3.8767885226
 31
0.0
  0
LINE
  5
10B
330
1F
100
AcDbEntity
  8
0
  6
HIDDEN
 62
     7
100
AcDbLine
 10
2.5982896467
 20
3.6205680502
 30
0.0
 11
2.6182896467
 21
3.6405680502
 31
0.0
  0
LINE
  5
10C
330
1F
100
AcDbEntity
  8
0
  6
HIDDEN
 62
     7
100
AcDbLine
 10
2.6182896467
 20
3.8767885226
 30
0.0
 11
2.5982896467
 21
3.8967885226
 31
0.0
  0
LINE
  5
10D
330
1F
100
AcDbEntity
  8
0
  6
HIDDEN
 62
     7
100
AcDbLine
 10
3.6219116939
 20
3.8767885226
 30
0.0
 11
3.0313605128
 21
3.8767885226
 31
0.0
  0
LINE
  5
10E
330
1F
100
AcDbEntity
  8
0
  6
HIDDEN
 62
     7
100
AcDbLine
 10
3.0313605128
 20
3.6405680502
 30
0.0
 11
3.6219116939
 21
3.6405680502
 31
0.0
  0
LINE
  5
10F
330
1F
100
AcDbEntity
  8
0
  6
HIDDEN
 62
     7
100
AcDbLine
 10
2.9919904341
 20
3.8767885226
 30
0.0
 11
2.6182896467
 21
3.8767885226
 31
0.0
  0
LINE
  5
110
330
1F
100
AcDbEntity
  8
0
  6
HIDDEN
 62
     7
100
AcDbLine
 10
2.6182896467
 20
3.6405680502
 30
0.0
 11
2.9919904341
 21
3.6405680502
 31
0.0
  0
LINE
  5
111
330
1F
100
AcDbEntity
  8
0
  6
HIDDEN
 62
     7
100
AcDbLine
 10
4.0349825601
 20
3.8767885226
 30
0.0
 11
3.6612817727
 21
3.8767885226
 31
0.0
  0
LINE
  5
112
330
1F
100
AcDbEntity
  8
0
  6
HIDDEN
 62
     7
100
AcDbLine
 10
2.9683683868
 20
3.3892762262
 30
0.0
 11
2.9683683868
 21
3.6011979714
 31
0.0
  0
LINE
  5
113
330
1F
100
AcDbEntity
  8
0
  6
HIDDEN
 62
     7
100
AcDbLine
 10
2.6219116939
 20
3.6011979714
 30
0.0
 11
2.6219116939
 21
3.3891324378
 31
0.0
  0
LINE
  5
114
330
1F
100
AcDbEntity
  8
0
  6
HIDDEN
 62
     7
100
AcDbLine
 10
2.8896282294
 20
3.6011979714
 30
0.0
 11
2.8896282294
 21
3.738993247
 31
0.0
  0
LINE
  5
115
330
1F
100
AcDbEntity
  8
0
  6
HIDDEN
 62
     7
100
AcDbLine
 10
2.7006518514
 20
3.738993247
 30
0.0
 11
2.7006518514
 21
3.6011979714
 31
0.0
  0
LINE
  5
116
330
1F
100
AcDbEntity
  8
0
  6
HIDDEN
 62
     7
100
AcDbLine
 10
2.8896282294
 20
3.7783633258
 30
0.0
 11
2.8896282294
 21
4.1281765306
 31
0.0
  0
LINE
  5
117
330
1F
100
AcDbEntity
  8
0
  6
HIDDEN
 62
     7
100
AcDbLine
 10
2.7006518514
 20
4.1282624001
 30
0.0
 11
2.7006518514
 21
3.7783633258
 31
0.0
  0
LINE
  5
118
330
1F
100
AcDbEntity
  8
0
  6
HIDDEN
 62
     7
100
AcDbLine
 10
2.6455337412
 20
3.5854499399
 30
0.0
 11
2.6455337412
 21
3.459465688
 31
0.0
  0
LINE
  5
119
330
1F
100
AcDbEntity
  8
0
  6
HIDDEN
 62
     7
100
AcDbLine
 10
2.9447463396
 20
3.459465688
 30
0.0
 11
2.9447463396
 21
3.5854499399
 31
0.0
  0
LINE
  5
11A
330
1F
100
AcDbEntity
  8
0
  6
HIDDEN
 62
     7
100
AcDbLine
 10
2.9447463396
 20
3.5854499399
 30
0.0
 11
2.9289983081
 21
3.6011979714
 31
0.0
  0
LINE
  5
11B
330
1F
100
AcDbEntity
  8
0
  6
HIDDEN
 62
     7
100
AcDbLine
 10
2.6612817727
 20
3.6011979714
 30
0.0
 11
2.6455337412
 21
3.5854499399
 31
0.0
  0
LINE
  5
11C
330
1F
100
AcDbEntity
  8
0
  6
HIDDEN
 62
     7
100
AcDbLine
 10
2.6455337412
 20
3.459465688
 30
0.0
 11
2.6612817727
 21
3.4437176565
 31
0.0
  0
LINE
  5
11D
330
1F
100
AcDbEntity
  8
0
  6
HIDDEN
 62
     7
100
AcDbLine
 10
2.9289983081
 20
3.4437176565
 30
0.0
 11
2.9447463396
 21
3.459465688
 31
0.0
  0
LINE
  5
11E
330
1F
100
AcDbEntity
  8
0
  6
HIDDEN
 62
     7
100
AcDbLine
 10
2.8738801979
 20
3.6011979714
 30
0.0
 11
2.8738801979
 21
4.0972609636
 31
0.0
  0
LINE
  5
11F
330
1F
100
AcDbEntity
  8
0
  6
HIDDEN
 62
     7
100
AcDbLine
 10
2.7163998829
 20
4.0972609636
 30
0.0
 11
2.7163998829
 21
3.6011979714
 31
0.0
  0
LINE
  5
120
330
1F
100
AcDbEntity
  8
0
  6
HIDDEN
 62
     7
100
AcDbLine
 10
2.8738801979
 20
4.0972609636
 30
0.0
 11
2.8581321664
 21
4.1130089951
 31
0.0
  0
LINE
  5
121
330
1F
100
AcDbEntity
  8
0
  6
HIDDEN
 62
     7
100
AcDbLine
 10
2.7321479144
 20
4.1130089951
 30
0.0
 11
2.7163998829
 21
4.0972609636
 31
0.0
  0
LINE
  5
122
330
1F
100
AcDbEntity
  8
0
  6
CONTINUOUS
 62
     7
100
AcDbLine
 10
8.0776562599
 20
3.3148275246
 30
0.0
 11
8.0807598956
 21
3.3179311603
 31
0.0
  0
LINE
  5
123
330
1F
100
AcDbEntity
  8
0
  6
CONTINUOUS
 62
     7
100
AcDbLine
 10
7.9516720079
 20
3.3148275246
 30
0.0
 11
8.0776562599
 21
3.3148275246
 31
0.0
  0
LINE
  5
124
330
1F
100
AcDbEntity
  8
0
  6
CONTINUOUS
 62
     7
100
AcDbLine
 10
7.9359239764
 20
3.3305755561
 30
0.0
 11
7.9516720079
 21
3.3148275246
 31
0.0
  0
LINE
  5
125
330
1F
100
AcDbEntity
  8
0
  6
CONTINUOUS
 62
     7
100
AcDbLine
 10
8.5894672835
 20
3.3856936663
 30
0.0
 11
8.605215315
 21
3.4014416978
 31
0.0
  0
LINE
  5
126
330
1F
100
AcDbEntity
  8
0
  6
CONTINUOUS
 62
     7
100
AcDbLine
 10
8.231199567
 20
3.3856936663
 30
0.0
 11
8.2705696457
 21
3.3856936663
 31
0.0
  0
LINE
  5
127
330
1F
100
AcDbEntity
  8
0
  6
CONTINUOUS
 62
     7
100
AcDbLine
 10
8.5408551558
 20
3.3856936663
 30
0.0
 11
8.5894672835
 21
3.3856936663
 31
0.0
  0
LINE
  5
128
330
1F
100
AcDbEntity
  8
0
  6
CONTINUOUS
 62
     7
100
AcDbLine
 10
8.2705696457
 20
3.5431739813
 30
0.0
 11
8.231199567
 21
3.5431739813
 31
0.0
  0
LINE
  5
129
330
1F
100
AcDbEntity
  8
0
  6
CONTINUOUS
 62
     7
100
AcDbLine
 10
8.6947353681
 20
3.459465688
 30
0.0
 11
8.6947353681
 21
3.5854499399
 31
0.0
  0
LINE
  5
12A
330
1F
100
AcDbEntity
  8
0
  6
CONTINUOUS
 62
     7
100
AcDbLine
 10
8.6789873366
 20
3.4437176565
 30
0.0
 11
8.6947353681
 21
3.459465688
 31
0.0
  0
LINE
  5
12B
330
1F
100
AcDbEntity
  8
0
  6
CONTINUOUS
 62
     7
100
AcDbLine
 10
8.6947353681
 20
3.5854499399
 30
0.0
 11
8.6916317324
 21
3.5885535756
 31
0.0
  0
LINE
  5
12C
330
1F
100
AcDbEntity
  8
0
  6
CONTINUOUS
 62
     7
100
AcDbLine
 10
8.6238692264
 20
4.0486488359
 30
0.0
 11
8.6238692264
 21
4.0972609636
 31
0.0
  0
LINE
  5
12D
330
1F
100
AcDbEntity
  8
0
  6
CONTINUOUS
 62
     7
100
AcDbLine
 10
8.6238692264
 20
4.0972609636
 30
0.0
 11
8.6081211949
 21
4.1130089951
 31
0.0
  0
ARC
  5
12E
330
1F
100
AcDbEntity
  8
0
  6
CONTINUOUS
 62
     7
100
AcDbCircle
 10
8.2508846063
 20
3.7586782864
 30
0.0
 40
0.1381102362204734
100
AcDbArc
 50
278.1943515521
 51
261.8056484479
  0
LINE
  5
12F
330
1F
100
AcDbEntity
  8
0
  6
CONTINUOUS
 62
     7
100
AcDbLine
 10
8.231199567
 20
3.3066657779
 30
0.0
 11
8.231199567
 21
3.621978116
 31
0.0
  0
ARC
  5
130
330
1F
100
AcDbEntity
  8
0
  6
CONTINUOUS
 62
     7
100
AcDbCircle
 10
8.2508846063
 20
3.7586782864
 30
0.0
 40
0.4524409448818906
100
AcDbArc
 50
272.4936421716
 51
267.5063578285
  0
LINE
  5
131
330
1F
100
AcDbEntity
  8
0
  6
CONTINUOUS
 62
     7
100
AcDbLine
 10
8.2705696457
 20
3.3066657779
 30
0.0
 11
8.2705696457
 21
3.621978116
 31
0.0
  0
LINE
  5
132
330
1F
100
AcDbEntity
  8
0
  6
CONTINUOUS
 62
     7
100
AcDbLine
 10
8.231199567
 20
3.2866476246
 30
0.0
 11
8.231199567
 21
3.3066657779
 31
0.0
  0
ARC
  5
133
330
1F
100
AcDbEntity
  8
0
  6
CONTINUOUS
 62
     7
100
AcDbCircle
 10
8.2508846063
 20
3.7586782864
 30
0.0
 40
0.4724409448818899
100
AcDbArc
 50
272.3880154633
 51
267.6119845367
  0
LINE
  5
134
330
1F
100
AcDbEntity
  8
0
  6
CONTINUOUS
 62
     7
100
AcDbLine
 10
8.2705696457
 20
3.2866476246
 30
0.0
 11
8.2705696457
 21
3.3066657779
 31
0.0
  0
ARC
  5
135
330
1F
100
AcDbEntity
  8
0
  6
CONTINUOUS
 62
     7
100
AcDbCircle
 10
8.2508846063
 20
3.7586782864
 30
0.0
 40
0.1181102362204729
100
AcDbArc
 50
279.5940682269
 51
260.4059317731
  0
SPLINE
  5
136
330
1F
100
AcDbEntity
  8
0
  6
CONTINUOUS
 62
     7
100
AcDbSpline
210
0.0
220
0.0
230
1.0
 70
    24
 71
     3
 72
     8
 73
     4
 74
     0
 42
0.00000001
 43
0.00000001
 40
0.0
 40
0.0
 40
0.0
 40
0.0
 40
1.0
 40
1.0
 40
1.0
 40
1.0
 10
8.231199566953912
 20
3.621978116041483
 30
0.0
 10
8.231199566953912
 20
3.628719566026671
 30
0.0
 10
8.231199566953912
 20
3.635465977911484
 30
0.0
 10
8.231199566953912
 20
3.642220022945204
 30
0.0
  0
SPLINE
  5
137
330
1F
100
AcDbEntity
  8
0
  6
CONTINUOUS
 62
     7
100
AcDbSpline
210
0.0
220
0.0
230
1.0
 70
    24
 71
     3
 72
     8
 73
     4
 74
     0
 42
0.00000001
 43
0.00000001
 40
0.0
 40
0.0
 40
0.0
 40
0.0
 40
1.0
 40
1.0
 40
1.0
 40
1.0
 10
8.270569645694069
 20
3.621978116041483
 30
0.0
 10
8.270569645694069
 20
3.628719566026671
 30
0.0
 10
8.270569645694069
 20
3.635465977911484
 30
0.0
 10
8.270569645694069
 20
3.642220022945204
 30
0.0
  0
POLYLINE
  5
138
330
1F
100
AcDbEntity
  8
0
  6
CONTINUOUS
 62
     7
100
AcDb2dPolyline
 66
     1
 10
0.0
 20
0.0
 30
0.0
  0
VERTEX
  5
210
330
138
100
AcDbEntity
  8
0
  6
CONTINUOUS
 62
     7
100
AcDbVertex
100
AcDb2dVertex
 10
8.2508846063
 20
3.6405680502
 30
0.0
  0
VERTEX
  5
211
330
138
100
AcDbEntity
  8
0
  6
CONTINUOUS
 62
     7
100
AcDbVertex
100
AcDb2dVertex
 10
8.2636545691
 20
3.6412604174
 30
0.0
  0
VERTEX
  5
212
330
138
100
AcDbEntity
  8
0
  6
CONTINUOUS
 62
     7
100
AcDbVertex
100
AcDb2dVertex
 10
8.2705696457
 20
3.6422200229
 30
0.0
  0
SEQEND
  5
213
330
138
100
AcDbEntity
  8
0
  6
CONTINUOUS
 62
     7
  0
POLYLINE
  5
139
330
1F
100
AcDbEntity
  8
0
  6
CONTINUOUS
 62
     7
100
AcDb2dPolyline
 66
     1
 10
0.0
 20
0.0
 30
0.0
  0
VERTEX
  5
214
330
139
100
AcDbEntity
  8
0
  6
CONTINUOUS
 62
     7
100
AcDbVertex
100
AcDb2dVertex
 10
8.231199567
 20
3.6422200229
 30
0.0
  0
VERTEX
  5
215
330
139
100
AcDbEntity
  8
0
  6
CONTINUOUS
 62
     7
100
AcDbVertex
100
AcDb2dVertex
 10
8.2381146435
 20
3.6412604174
 30
0.0
  0
VERTEX
  5
216
330
139
100
AcDbEntity
  8
0
  6
CONTINUOUS
 62
     7
100
AcDbVertex
100
AcDb2dVertex
 10
8.2508846063
 20
3.6405680502
 30
0.0
  0
SEQEND
  5
217
330
139
100
AcDbEntity
  8
0
  6
CONTINUOUS
 62
     7
  0
ARC
  5
13A
330
1F
100
AcDbEntity
  8
0
  6
CONTINUOUS
 62
     7
100
AcDbCircle
 10
8.2508846063
 20
3.7586782864
 30
0.0
 40
0.4724409448818899
100
AcDbArc
 50
267.6119845367
 51
272.3880154633
  0
LINE
  5
13B
330
1F
100
AcDbEntity
  8
0
  6
CONTINUOUS
 62
     7
100
AcDbLine
 10
8.0776562599
 20
3.3148275246
 30
0.0
 11
8.0776562599
 21
3.3191417277
 31
0.0
  0
LINE
  5
13C
330
1F
100
AcDbEntity
  8
0
  6
CONTINUOUS
 62
     7
100
AcDbLine
 10
7.9516720079
 20
3.3930661048
 30
0.0
 11
7.9516720079
 21
3.3148275246
 31
0.0
  0
LINE
  5
13D
330
1F
100
AcDbEntity
  8
0
  6
CONTINUOUS
 62
     7
100
AcDbLine
 10
7.9359239764
 20
3.3305755561
 30
0.0
 11
7.9359239764
 21
3.406541597
 31
0.0
  0
LINE
  5
13E
330
1F
100
AcDbEntity
  8
0
  6
CONTINUOUS
 62
     7
100
AcDbLine
 10
8.605215315
 20
3.4461879741
 30
0.0
 11
8.605215315
 21
3.4014416978
 31
0.0
  0
LINE
  5
13F
330
1F
100
AcDbEntity
  8
0
  6
CONTINUOUS
 62
     7
100
AcDbLine
 10
8.5894672835
 20
3.3856936663
 30
0.0
 11
8.5894672835
 21
3.4291904761
 31
0.0
  0
LINE
  5
140
330
1F
100
AcDbEntity
  8
0
  6
CONTINUOUS
 62
     7
100
AcDbLine
 10
8.6947353681
 20
3.459465688
 30
0.0
 11
8.6164967879
 21
3.459465688
 31
0.0
  0
LINE
  5
141
330
1F
100
AcDbEntity
  8
0
  6
CONTINUOUS
 62
     7
100
AcDbLine
 10
8.690421165
 20
3.5854499399
 30
0.0
 11
8.6947353681
 21
3.5854499399
 31
0.0
  0
LINE
  5
142
330
1F
100
AcDbEntity
  8
0
  6
CONTINUOUS
 62
     7
100
AcDbLine
 10
8.605215315
 20
3.4437176565
 30
0.0
 11
8.6789873366
 21
3.4437176565
 31
0.0
  0
LINE
  5
143
330
1F
100
AcDbEntity
  8
0
  6
CONTINUOUS
 62
     7
100
AcDbLine
 10
8.5803724166
 20
4.0972609636
 30
0.0
 11
8.6238692264
 21
4.0972609636
 31
0.0
  0
LINE
  5
144
330
1F
100
AcDbEntity
  8
0
  6
CONTINUOUS
 62
     7
100
AcDbLine
 10
8.6081211949
 20
4.1130089951
 30
0.0
 11
8.5633749187
 21
4.1130089951
 31
0.0
  0
LINE
  5
145
330
1F
100
AcDbEntity
  8
0
  6
HIDDEN
 62
     7
100
AcDbLine
 10
8.0934042914
 20
3.3132566919
 30
0.0
 11
8.0934042914
 21
3.6376621703
 31
0.0
  0
LINE
  5
146
330
1F
100
AcDbEntity
  8
0
  6
HIDDEN
 62
     7
100
AcDbLine
 10
7.8129201287
 20
3.9358436407
 30
0.0
 11
8.6888490839
 21
3.9358436407
 31
0.0
  0
LINE
  5
147
330
1F
100
AcDbEntity
  8
0
  6
HIDDEN
 62
     7
100
AcDbLine
 10
7.9556090158
 20
4.1274773808
 30
0.0
 11
7.9556090158
 21
3.389879192
 31
0.0
  0
LINE
  5
148
330
1F
100
AcDbEntity
  8
0
  6
HIDDEN
 62
     7
100
AcDbLine
 10
8.3673428698
 20
3.7783633258
 30
0.0
 11
8.7229152681
 21
3.7783633258
 31
0.0
  0
LINE
  5
149
330
1F
100
AcDbEntity
  8
0
  6
HIDDEN
 62
     7
100
AcDbLine
 10
8.3673428698
 20
3.738993247
 30
0.0
 11
8.7229152681
 21
3.738993247
 31
0.0
  0
LINE
  5
14A
330
1F
100
AcDbEntity
  8
0
  6
HIDDEN
 62
     7
100
AcDbLine
 10
8.6963062008
 20
3.6011979714
 30
0.0
 11
8.3719007225
 21
3.6011979714
 31
0.0
  0
ARC
  5
14B
330
1F
100
AcDbEntity
  8
0
  6
HIDDEN
 62
     7
100
AcDbCircle
 10
8.2508846063
 20
3.7586782864
 30
0.0
 40
0.1381102362204739
100
AcDbArc
 50
261.8056484479
 51
278.1943515521
  0
POLYLINE
  5
14C
330
1F
100
AcDbEntity
  8
0
  6
HIDDEN
 62
     7
100
AcDb2dPolyline
 66
     1
 10
0.0
 20
0.0
 30
0.0
  0
VERTEX
  5
218
330
14C
100
AcDbEntity
  8
0
  6
HIDDEN
 62
     7
100
AcDbVertex
100
AcDb2dVertex
 10
8.2705696457
 20
3.3066657779
 30
0.0
  0
VERTEX
  5
219
330
14C
100
AcDbEntity
  8
0
  6
HIDDEN
 62
     7
100
AcDbVertex
100
AcDb2dVertex
 10
8.2472412034
 20
3.3062520115
 30
0.0
  0
VERTEX
  5
21A
330
14C
100
AcDbEntity
  8
0
  6
HIDDEN
 62
     7
100
AcDbVertex
100
AcDb2dVertex
 10
8.231199567
 20
3.3066657779
 30
0.0
  0
SEQEND
  5
21B
330
14C
100
AcDbEntity
  8
0
  6
HIDDEN
 62
     7
  0
LINE
  5
14D
330
1F
100
AcDbEntity
  8
0
  6
HIDDEN
 62
     7
100
AcDbLine
 10
8.0776562599
 20
3.4644338238
 30
0.0
 11
8.0776562599
 21
3.614040123
 31
0.0
  0
LINE
  5
14E
330
1F
100
AcDbEntity
  8
0
  6
HIDDEN
 62
     7
100
AcDbLine
 10
8.0776562599
 20
3.3191417277
 30
0.0
 11
8.0776562599
 21
3.4644338238
 31
0.0
  0
LINE
  5
14F
330
1F
100
AcDbEntity
  8
0
  6
HIDDEN
 62
     7
100
AcDbLine
 10
7.9516720079
 20
3.4644338238
 30
0.0
 11
7.9516720079
 21
3.3930661048
 31
0.0
  0
LINE
  5
150
330
1F
100
AcDbEntity
  8
0
  6
HIDDEN
 62
     7
100
AcDbLine
 10
7.9516720079
 20
3.614040123
 30
0.0
 11
7.9516720079
 21
3.4644338238
 31
0.0
  0
LINE
  5
151
330
1F
100
AcDbEntity
  8
0
  6
HIDDEN
 62
     7
100
AcDbLine
 10
7.9359239764
 20
3.4644338238
 30
0.0
 11
7.9359239764
 21
3.5982920915
 31
0.0
  0
LINE
  5
152
330
1F
100
AcDbEntity
  8
0
  6
HIDDEN
 62
     7
100
AcDbLine
 10
7.9359239764
 20
3.406541597
 30
0.0
 11
7.9359239764
 21
3.4644338238
 31
0.0
  0
LINE
  5
153
330
1F
100
AcDbEntity
  8
0
  6
HIDDEN
 62
     7
100
AcDbLine
 10
8.605215315
 20
3.5274259498
 30
0.0
 11
8.605215315
 21
3.4461879741
 31
0.0
  0
LINE
  5
154
330
1F
100
AcDbEntity
  8
0
  6
HIDDEN
 62
     7
100
AcDbLine
 10
8.5894672835
 20
3.4291904761
 30
0.0
 11
8.5894672835
 21
3.5431739813
 31
0.0
  0
LINE
  5
155
330
1F
100
AcDbEntity
  8
0
  6
HIDDEN
 62
     7
100
AcDbLine
 10
8.0540342126
 20
3.4303383355
 30
0.0
 11
8.0540342126
 21
3.4985293121
 31
0.0
  0
LINE
  5
156
330
1F
100
AcDbEntity
  8
0
  6
HIDDEN
 62
     7
100
AcDbLine
 10
8.0540342126
 20
3.3962428471
 30
0.0
 11
8.0540342126
 21
3.4303383355
 31
0.0
  0
LINE
  5
157
330
1F
100
AcDbEntity
  8
0
  6
HIDDEN
 62
     7
100
AcDbLine
 10
8.0540342126
 20
3.4303383355
 30
0.0
 11
7.9359239764
 21
3.4303383355
 31
0.0
  0
LINE
  5
158
330
1F
100
AcDbEntity
  8
0
  6
HIDDEN
 62
     7
100
AcDbLine
 10
8.0540342126
 20
3.4985293121
 30
0.0
 11
8.0540342126
 21
3.5326248005
 31
0.0
  0
LINE
  5
159
330
1F
100
AcDbEntity
  8
0
  6
HIDDEN
 62
     7
100
AcDbLine
 10
8.0540342126
 20
3.4985293121
 30
0.0
 11
7.9359239764
 21
3.4985293121
 31
0.0
  0
LINE
  5
15A
330
1F
100
AcDbEntity
  8
0
  6
HIDDEN
 62
     7
100
AcDbLine
 10
8.0540342126
 20
3.5326248005
 30
0.0
 11
7.9359239764
 21
3.5326248005
 31
0.0
  0
LINE
  5
15B
330
1F
100
AcDbEntity
  8
0
  6
HIDDEN
 62
     7
100
AcDbLine
 10
8.0540342126
 20
3.3962428471
 30
0.0
 11
7.9359239764
 21
3.3962428471
 31
0.0
  0
LINE
  5
15C
330
1F
100
AcDbEntity
  8
0
  6
HIDDEN
 62
     7
100
AcDbLine
 10
8.6164967879
 20
3.459465688
 30
0.0
 11
8.3955227697
 21
3.459465688
 31
0.0
  0
LINE
  5
15D
330
1F
100
AcDbEntity
  8
0
  6
HIDDEN
 62
     7
100
AcDbLine
 10
8.3955227697
 20
3.5854499399
 30
0.0
 11
8.690421165
 21
3.5854499399
 31
0.0
  0
LINE
  5
15E
330
1F
100
AcDbEntity
  8
0
  6
HIDDEN
 62
     7
100
AcDbLine
 10
8.4112708012
 20
3.4437176565
 30
0.0
 11
8.605215315
 21
3.4437176565
 31
0.0
  0
LINE
  5
15F
330
1F
100
AcDbEntity
  8
0
  6
HIDDEN
 62
     7
100
AcDbLine
 10
8.5451290689
 20
4.0972609636
 30
0.0
 11
8.5803724166
 21
4.0972609636
 31
0.0
  0
LINE
  5
160
330
1F
100
AcDbEntity
  8
0
  6
HIDDEN
 62
     7
100
AcDbLine
 10
8.4663889114
 20
4.0972609636
 30
0.0
 11
8.5451290689
 21
4.0972609636
 31
0.0
  0
LINE
  5
161
330
1F
100
AcDbEntity
  8
0
  6
HIDDEN
 62
     7
100
AcDbLine
 10
8.5451290689
 20
4.1130089951
 30
0.0
 11
8.4821369429
 21
4.1130089951
 31
0.0
  0
LINE
  5
162
330
1F
100
AcDbEntity
  8
0
  6
HIDDEN
 62
     7
100
AcDbLine
 10
8.5633749187
 20
4.1130089951
 30
0.0
 11
8.5451290689
 21
4.1130089951
 31
0.0
  0
LINE
  5
163
330
1F
100
AcDbEntity
  8
0
  6
HIDDEN
 62
     7
100
AcDbLine
 10
8.5792245573
 20
3.5618278927
 30
0.0
 11
8.6133200456
 21
3.5618278927
 31
0.0
  0
LINE
  5
164
330
1F
100
AcDbEntity
  8
0
  6
HIDDEN
 62
     7
100
AcDbLine
 10
8.5110335806
 20
3.5618278927
 30
0.0
 11
8.5792245573
 21
3.5618278927
 31
0.0
  0
LINE
  5
165
330
1F
100
AcDbEntity
  8
0
  6
HIDDEN
 62
     7
100
AcDbLine
 10
8.5792245573
 20
3.5618278927
 30
0.0
 11
8.5792245573
 21
3.4437176565
 31
0.0
  0
LINE
  5
166
330
1F
100
AcDbEntity
  8
0
  6
HIDDEN
 62
     7
100
AcDbLine
 10
8.5110335806
 20
3.5618278927
 30
0.0
 11
8.5110335806
 21
3.4437176565
 31
0.0
  0
LINE
  5
167
330
1F
100
AcDbEntity
  8
0
  6
HIDDEN
 62
     7
100
AcDbLine
 10
8.4769380922
 20
3.5618278927
 30
0.0
 11
8.5110335806
 21
3.5618278927
 31
0.0
  0
LINE
  5
168
330
1F
100
AcDbEntity
  8
0
  6
HIDDEN
 62
     7
100
AcDbLine
 10
8.6133200456
 20
3.5618278927
 30
0.0
 11
8.6133200456
 21
3.4437176565
 31
0.0
  0
LINE
  5
169
330
1F
100
AcDbEntity
  8
0
  6
HIDDEN
 62
     7
100
AcDbLine
 10
8.4769380922
 20
3.5618278927
 30
0.0
 11
8.4769380922
 21
3.4437176565
 31
0.0
  0
LINE
  5
16A
330
1F
100
AcDbEntity
  8
0
  6
HIDDEN
 62
     7
100
AcDbLine
 10
8.0934042914
 20
3.6376621703
 30
0.0
 11
7.7942418793
 21
3.6376621703
 31
0.0
  0
LINE
  5
16B
330
1F
100
AcDbEntity
  8
0
  6
HIDDEN
 62
     7
100
AcDbLine
 10
8.2705696457
 20
3.3699456348
 30
0.0
 11
8.5194622139
 21
3.3699456348
 31
0.0
  0
LINE
  5
16C
330
1F
100
AcDbEntity
  8
0
  6
HIDDEN
 62
     7
100
AcDbLine
 10
8.6789494092
 20
3.5589220128
 30
0.0
 11
8.2705696457
 21
3.5589220128
 31
0.0
  0
LINE
  5
16D
330
1F
100
AcDbEntity
  8
0
  6
HIDDEN
 62
     7
100
AcDbLine
 10
8.0934042914
 20
3.3699456348
 30
0.0
 11
8.231199567
 21
3.3699456348
 31
0.0
  0
LINE
  5
16E
330
1F
100
AcDbEntity
  8
0
  6
HIDDEN
 62
     7
100
AcDbLine
 10
8.231199567
 20
3.5589220128
 30
0.0
 11
8.0934042914
 21
3.5589220128
 31
0.0
  0
LINE
  5
16F
330
1F
100
AcDbEntity
  8
0
  6
HIDDEN
 62
     7
100
AcDbLine
 10
8.3719007225
 20
3.6011979714
 30
0.0
 11
8.3719007225
 21
3.3020355594
 31
0.0
  0
LINE
  5
170
330
1F
100
AcDbEntity
  8
0
  6
HIDDEN
 62
     7
100
AcDbLine
 10
8.6396172579
 20
3.6011979714
 30
0.0
 11
8.6396172579
 21
3.738993247
 31
0.0
  0
LINE
  5
171
330
1F
100
AcDbEntity
  8
0
  6
HIDDEN
 62
     7
100
AcDbLine
 10
8.4506408799
 20
3.738993247
 30
0.0
 11
8.4506408799
 21
3.6011979714
 31
0.0
  0
LINE
  5
172
330
1F
100
AcDbEntity
  8
0
  6
HIDDEN
 62
     7
100
AcDbLine
 10
8.6396172579
 20
3.7783633258
 30
0.0
 11
8.6396172579
 21
4.0271692024
 31
0.0
  0
LINE
  5
173
330
1F
100
AcDbEntity
  8
0
  6
HIDDEN
 62
     7
100
AcDbLine
 10
8.4506408799
 20
4.1867026382
 30
0.0
 11
8.4506408799
 21
3.7783633258
 31
0.0
  0
LINE
  5
174
330
1F
100
AcDbEntity
  8
0
  6
HIDDEN
 62
     7
100
AcDbLine
 10
8.0807598956
 20
3.3179311603
 30
0.0
 11
8.0934042914
 21
3.3305755561
 31
0.0
  0
LINE
  5
175
330
1F
100
AcDbEntity
  8
0
  6
HIDDEN
 62
     7
100
AcDbLine
 10
8.0934042914
 20
3.5982920915
 30
0.0
 11
8.0776562599
 21
3.614040123
 31
0.0
  0
LINE
  5
176
330
1F
100
AcDbEntity
  8
0
  6
HIDDEN
 62
     7
100
AcDbLine
 10
8.0776562599
 20
3.614040123
 30
0.0
 11
7.9516720079
 21
3.614040123
 31
0.0
  0
LINE
  5
177
330
1F
100
AcDbEntity
  8
0
  6
HIDDEN
 62
     7
100
AcDbLine
 10
7.9516720079
 20
3.614040123
 30
0.0
 11
7.9359239764
 21
3.5982920915
 31
0.0
  0
LINE
  5
178
330
1F
100
AcDbEntity
  8
0
  6
HIDDEN
 62
     7
100
AcDbLine
 10
8.605215315
 20
3.5274259498
 30
0.0
 11
8.5894672835
 21
3.5431739813
 31
0.0
  0
LINE
  5
179
330
1F
100
AcDbEntity
  8
0
  6
HIDDEN
 62
     7
100
AcDbLine
 10
8.0934042914
 20
3.3856936663
 30
0.0
 11
8.231199567
 21
3.3856936663
 31
0.0
  0
LINE
  5
17A
330
1F
100
AcDbEntity
  8
0
  6
HIDDEN
 62
     7
100
AcDbLine
 10
8.2705696457
 20
3.3856936663
 30
0.0
 11
8.5408551558
 21
3.3856936663
 31
0.0
  0
LINE
  5
17B
330
1F
100
AcDbEntity
  8
0
  6
HIDDEN
 62
     7
100
AcDbLine
 10
8.5894672835
 20
3.5431739813
 30
0.0
 11
8.2705696457
 21
3.5431739813
 31
0.0
  0
LINE
  5
17C
330
1F
100
AcDbEntity
  8
0
  6
HIDDEN
 62
     7
100
AcDbLine
 10
8.231199567
 20
3.5431739813
 30
0.0
 11
8.0934042914
 21
3.5431739813
 31
0.0
  0
LINE
  5
17D
330
1F
100
AcDbEntity
  8
0
  6
HIDDEN
 62
     7
100
AcDbLine
 10
8.3955227697
 20
3.5854499399
 30
0.0
 11
8.3955227697
 21
3.459465688
 31
0.0
  0
LINE
  5
17E
330
1F
100
AcDbEntity
  8
0
  6
HIDDEN
 62
     7
100
AcDbLine
 10
8.3955227697
 20
3.459465688
 30
0.0
 11
8.4112708012
 21
3.4437176565
 31
0.0
  0
LINE
  5
17F
330
1F
100
AcDbEntity
  8
0
  6
HIDDEN
 62
     7
100
AcDbLine
 10
8.6916317324
 20
3.5885535756
 30
0.0
 11
8.6789873366
 21
3.6011979714
 31
0.0
  0
LINE
  5
180
330
1F
100
AcDbEntity
  8
0
  6
HIDDEN
 62
     7
100
AcDbLine
 10
8.4112708012
 20
3.6011979714
 30
0.0
 11
8.3955227697
 21
3.5854499399
 31
0.0
  0
LINE
  5
181
330
1F
100
AcDbEntity
  8
0
  6
HIDDEN
 62
     7
100
AcDbLine
 10
8.6238692264
 20
3.6011979714
 30
0.0
 11
8.6238692264
 21
4.0486488359
 31
0.0
  0
LINE
  5
182
330
1F
100
AcDbEntity
  8
0
  6
HIDDEN
 62
     7
100
AcDbLine
 10
8.4663889114
 20
4.0972609636
 30
0.0
 11
8.4663889114
 21
3.6011979714
 31
0.0
  0
LINE
  5
183
330
1F
100
AcDbEntity
  8
0
  6
HIDDEN
 62
     7
100
AcDbLine
 10
8.4821369429
 20
4.1130089951
 30
0.0
 11
8.4663889114
 21
4.0972609636
 31
0.0
  0
LINE
  5
184
330
1F
100
AcDbEntity
  8
0
  6
CONTINUOUS
 62
     7
100
AcDbLine
 10
3.6612817727
 20
6.199536194
 30
0.0
 11
4.0349825601
 21
6.199536194
 31
0.0
  0
LINE
  5
185
330
1F
100
AcDbEntity
  8
0
  6
CONTINUOUS
 62
     7
100
AcDbLine
 10
2.6182896467
 20
6.199536194
 30
0.0
 11
3.6219116939
 21
6.199536194
 31
0.0
  0
LINE
  5
186
330
1F
100
AcDbEntity
  8
0
  6
CONTINUOUS
 62
     7
100
AcDbLine
 10
3.6219116939
 20
7.1444180838
 30
0.0
 11
3.0313605128
 21
7.1444180838
 31
0.0
  0
LINE
  5
187
330
1F
100
AcDbEntity
  8
0
  6
CONTINUOUS
 62
     7
100
AcDbLine
 10
4.0349825601
 20
7.1444180838
 30
0.0
 11
3.6612817727
 21
7.1444180838
 31
0.0
  0
LINE
  5
188
330
1F
100
AcDbEntity
  8
0
  6
CONTINUOUS
 62
     7
100
AcDbLine
 10
2.5982896467
 20
6.219536194
 30
0.0
 11
2.6182896467
 21
6.199536194
 31
0.0
  0
LINE
  5
189
330
1F
100
AcDbEntity
  8
0
  6
CONTINUOUS
 62
     7
100
AcDbLine
 10
4.0349825601
 20
6.199536194
 30
0.0
 11
4.0549825601
 21
6.219536194
 31
0.0
  0
LINE
  5
18A
330
1F
100
AcDbEntity
  8
0
  6
CONTINUOUS
 62
     7
100
AcDbLine
 10
4.0549825601
 20
7.1244180838
 30
0.0
 11
4.0349825601
 21
7.1444180838
 31
0.0
  0
LINE
  5
18B
330
1F
100
AcDbEntity
  8
0
  6
CONTINUOUS
 62
     7
100
AcDbLine
 10
2.6182896467
 20
7.1440078007
 30
0.0
 11
2.6182896467
 21
6.199536194
 31
0.0
  0
LINE
  5
18C
330
1F
100
AcDbEntity
  8
0
  6
CONTINUOUS
 62
     7
100
AcDbLine
 10
2.9919904341
 20
7.1440078007
 30
0.0
 11
2.6182896467
 21
7.1440078007
 31
0.0
  0
LINE
  5
18D
330
1F
100
AcDbEntity
  8
0
  6
CONTINUOUS
 62
     7
100
AcDbLine
 10
2.9919904341
 20
6.3767015484
 30
0.0
 11
2.9919904341
 21
7.1440078007
 31
0.0
  0
LINE
  5
18E
330
1F
100
AcDbEntity
  8
0
  6
CONTINUOUS
 62
     7
100
AcDbLine
 10
3.0313605128
 20
6.3767015484
 30
0.0
 11
2.9919904341
 21
6.3767015484
 31
0.0
  0
LINE
  5
18F
330
1F
100
AcDbEntity
  8
0
  6
CONTINUOUS
 62
     7
100
AcDbLine
 10
3.0313605128
 20
7.1444180838
 30
0.0
 11
3.0313605128
 21
6.3767015484
 31
0.0
  0
LINE
  5
190
330
1F
100
AcDbEntity
  8
0
  6
CONTINUOUS
 62
     7
100
AcDbLine
 10
3.6612817727
 20
6.2340126613
 30
0.0
 11
3.6612817727
 21
6.199536194
 31
0.0
  0
LINE
  5
191
330
1F
100
AcDbEntity
  8
0
  6
CONTINUOUS
 62
     7
100
AcDbLine
 10
3.6219116939
 20
6.2340126613
 30
0.0
 11
3.6612817727
 21
6.2340126613
 31
0.0
  0
LINE
  5
192
330
1F
100
AcDbEntity
  8
0
  6
CONTINUOUS
 62
     7
100
AcDbLine
 10
3.6219116939
 20
7.1099416165
 30
0.0
 11
3.6219116939
 21
7.1444180838
 31
0.0
  0
LINE
  5
193
330
1F
100
AcDbEntity
  8
0
  6
CONTINUOUS
 62
     7
100
AcDbLine
 10
3.6219116939
 20
6.199536194
 30
0.0
 11
3.6219116939
 21
6.2340126613
 31
0.0
  0
LINE
  5
194
330
1F
100
AcDbEntity
  8
0
  6
CONTINUOUS
 62
     7
100
AcDbLine
 10
3.6612817727
 20
7.1099416165
 30
0.0
 11
3.6219116939
 21
7.1099416165
 31
0.0
  0
LINE
  5
195
330
1F
100
AcDbEntity
  8
0
  6
CONTINUOUS
 62
     7
100
AcDbLine
 10
3.6612817727
 20
7.1444180838
 30
0.0
 11
3.6612817727
 21
7.1099416165
 31
0.0
  0
LINE
  5
196
330
1F
100
AcDbEntity
  8
0
  6
CONTINUOUS
 62
     7
100
AcDbLine
 10
4.0349825601
 20
6.199536194
 30
0.0
 11
4.0349825601
 21
7.1444180838
 31
0.0
  0
SPLINE
  5
197
330
1F
100
AcDbEntity
  8
0
  6
CONTINUOUS
 62
     7
100
AcDbSpline
210
0.0
220
0.0
230
1.0
 70
     8
 71
     3
 72
    48
 73
    44
 74
     0
 42
0.00000001
 43
0.00000001
 40
-0.0312500000000002
 40
-0.0312500000000002
 40
0.0
 40
0.0
 40
0.0312499999999998
 40
0.0312499999999998
 40
0.0624999999999997
 40
0.0624999999999997
 40
0.1249999999999996
 40
0.1249999999999996
 40
0.1874999999999995
 40
0.1874999999999995
 40
0.2499999999999995
 40
0.2499999999999995
 40
0.3124999999999993
 40
0.3124999999999993
 40
0.3749999999999992
 40
0.3749999999999992
 40
0.4062499999999992
 40
0.4062499999999992
 40
0.4374999999999992
 40
0.4374999999999992
 40
0.4687499999999993
 40
0.4687499999999993
 40
0.4999999999999992
 40
0.4999999999999992
 40
0.5624999999999992
 40
0.5624999999999992
 40
0.6249999999999992
 40
0.6249999999999992
 40
0.6874999999999993
 40
0.6874999999999993
 40
0.7499999999999993
 40
0.7499999999999993
 40
0.8124999999999994
 40
0.8124999999999994
 40
0.8749999999999996
 40
0.8749999999999996
 40
0.9062499999999997
 40
0.9062499999999997
 40
0.9374999999999998
 40
0.9374999999999998
 40
0.9687499999999998
 40
0.9687499999999998
 40
1.0
 40
1.0
 40
1.03125
 40
1.03125
 10
2.787830237587786
 20
7.060709790487914
 30
0.0
 10
2.802449843197066
 20
7.060709790487914
 30
0.0
 10
2.809566418640852
 20
7.059857773399309
 30
0.0
 10
2.82304747018525
 20
7.056759043697197
 30
0.0
 10
2.829191047521288
 20
7.054586883522617
 30
0.0
 10
2.846374738108637
 20
7.046611456514338
 30
0.0
 10
2.855541421841757
 20
7.039711193433116
 30
0.0
 10
2.870809715640989
 20
7.023868346862552
 30
0.0
 10
2.876711722619116
 20
7.015085562007187
 30
0.0
 10
2.885547473825836
 20
6.995685510902453
 30
0.0
 10
2.888349208590324
 20
6.985214411706787
 30
0.0
 10
2.890220467800377
 20
6.963325362712986
 30
0.0
 10
2.88925678033567
 20
6.951640248313031
 30
0.0
 10
2.88267122197174
 20
6.928686699753668
 30
0.0
 10
2.876943638696514
 20
6.917144907956871
 30
0.0
 10
2.864586074809128
 20
6.901813920818471
 30
0.0
 10
2.859763613384229
 20
6.896953744187166
 30
0.0
 10
2.849180963159323
 20
6.888415297711404
 30
0.0
 10
2.843384030629344
 20
6.884669344937723
 30
0.0
 10
2.830677926686389
 20
6.87838475398148
 30
0.0
 10
2.823962064159115
 20
6.875954349142326
 30
0.0
 10
2.810085539321432
 20
6.872650676721528
 30
0.0
 10
2.802786121234703
 20
6.87176925564707
 30
0.0
 10
2.781217575670195
 20
6.871665035509271
 30
0.0
 10
2.766805971722142
 20
6.874980047634791
 30
0.0
 10
2.741343861151367
 20
6.887267110186981
 30
0.0
 10
2.730356587372806
 20
6.896186827444378
 30
0.0
 10
2.713662911870108
 20
6.916590533705768
 30
0.0
 10
2.707847312652923
 20
6.928113054382735
 30
0.0
 10
2.701089128991383
 20
6.951164784281318
 30
0.0
 10
2.700063696425057
 20
6.962827889935491
 30
0.0
 10
2.701862141995096
 20
6.984936892880899
 30
0.0
 10
2.704673941872377
 20
6.995498057456117
 30
0.0
 10
2.713450293680075
 20
7.014883816177395
 30
0.0
 10
2.719500296157321
 20
7.023885703469725
 30
0.0
 10
2.730821084150943
 20
7.035652971587908
 30
0.0
 10
2.734987670543948
 20
7.039317073132568
 30
0.0
 10
2.744320672014283
 20
7.046088036060326
 30
0.0
 10
2.749542217622044
 20
7.049217599903561
 30
0.0
 10
2.760933215919082
 20
7.054524434704691
 30
0.0
 10
2.767248688394536
 20
7.056759243278957
 30
0.0
 10
2.78060634392397
 20
7.059836577664067
 30
0.0
 10
2.787830237587786
 20
7.060709790487914
 30
0.0
 10
2.802449843197066
 20
7.060709790487914
 30
0.0
  0
LINE
  5
198
330
1F
100
AcDbEntity
  8
0
  6
CONTINUOUS
 62
     7
100
AcDbLine
 10
2.5982896467
 20
7.1239896474
 30
0.0
 11
2.6182896467
 21
7.1440078007
 31
0.0
  0
LINE
  5
199
330
1F
100
AcDbEntity
  8
0
  6
CONTINUOUS
 62
     7
100
AcDbLine
 10
2.5982896467
 20
6.219536194
 30
0.0
 11
2.5982896467
 21
7.1239896474
 31
0.0
  0
LINE
  5
19A
330
1F
100
AcDbEntity
  8
0
  6
CONTINUOUS
 62
     7
100
AcDbLine
 10
4.0549825601
 20
7.1244180838
 30
0.0
 11
4.0549825601
 21
6.219536194
 31
0.0
  0
LINE
  5
19B
330
1F
100
AcDbEntity
  8
0
  6
CONTINUOUS
 62
     7
100
AcDbLine
 10
2.7951400404
 20
6.8717334125
 30
0.0
 11
2.7978974367
 21
6.8717736549
 31
0.0
  0
ARC
  5
19C
330
1F
100
AcDbEntity
  8
0
  6
CONTINUOUS
 62
     7
100
AcDbCircle
 10
2.7951400404
 20
6.9662216015
 30
0.0
 40
0.0944881889763775
100
AcDbArc
 50
88.5967532342
 51
101.5511470456
  0
LINE
  5
19D
330
1F
100
AcDbEntity
  8
0
  6
CONTINUOUS
 62
     7
100
AcDbLine
 10
2.7916130761
 20
6.871799261
 30
0.0
 11
2.7951400404
 21
6.8717334125
 31
0.0
  0
CIRCLE
  5
19E
330
1F
100
AcDbEntity
  8
0
  6
CONTINUOUS
 62
     7
100
AcDbCircle
 10
2.7951400404
 20
6.9662216015
 30
0.0
 40
0.0629921259842519
  0
CIRCLE
  5
19F
330
1F
100
AcDbEntity
  8
0
  6
CONTINUOUS
 62
     7
100
AcDbCircle
 10
2.7951400404
 20
6.9662216015
 30
0.0
 40
0.0787401574803148
  0
LINE
  5
1A0
330
1F
100
AcDbEntity
  8
0
  6
HIDDEN
 62
     7
100
AcDbLine
 10
2.8797186123
 20
7.1173987334
 30
0.0
 11
2.7105614685
 21
7.1173987334
 31
0.0
  0
SPLINE
  5
1A1
330
1F
100
AcDbEntity
  8
0
  6
HIDDEN
 62
     7
100
AcDbSpline
210
0.0
220
0.0
230
1.0
 70
     8
 71
     3
 72
    52
 73
    48
 74
     0
 42
0.00000001
 43
0.00000001
 40
0.0
 40
0.0
 40
0.0
 40
0.0
 40
0.0625000000000003
 40
0.0625000000000003
 40
0.1250000000000006
 40
0.1250000000000006
 40
0.1875000000000008
 40
0.1875000000000008
 40
0.2187500000000009
 40
0.2187500000000009
 40
0.250000000000001
 40
0.250000000000001
 40
0.2812500000000011
 40
0.2812500000000011
 40
0.3125000000000012
 40
0.3125000000000012
 40
0.3750000000000014
 40
0.3750000000000014
 40
0.4062500000000014
 40
0.4062500000000014
 40
0.4375000000000016
 40
0.4375000000000016
 40
0.4687500000000016
 40
0.4687500000000016
 40
0.5000000000000017
 40
0.5000000000000017
 40
0.5312500000000018
 40
0.5312500000000018
 40
0.5625000000000018
 40
0.5625000000000018
 40
0.6250000000000017
 40
0.6250000000000017
 40
0.6562500000000016
 40
0.6562500000000016
 40
0.6875000000000014
 40
0.6875000000000014
 40
0.7187500000000014
 40
0.7187500000000014
 40
0.7500000000000013
 40
0.7500000000000013
 40
0.812500000000001
 40
0.812500000000001
 40
0.843750000000001
 40
0.843750000000001
 40
0.8750000000000009
 40
0.8750000000000009
 40
1.0
 40
1.0
 40
1.0
 40
1.0
 10
3.773553594499471
 20
6.514496823955796
 30
0.0
 10
3.76130019872617
 20
6.495106918089707
 30
0.0
 10
3.750058869187823
 20
6.475916218760367
 30
0.0
 10
3.7294343228388
 20
6.438128349625609
 30
0.0
 10
3.72006269888535
 20
6.41952160188902
 30
0.0
 10
3.703778513736747
 20
6.382878168620768
 30
0.0
 10
3.696899890042149
 20
6.364852149111327
 30
0.0
 10
3.689746441559761
 20
6.339413524933059
 30
0.0
 10
3.687871027800135
 20
6.331151924912755
 30
0.0
 10
3.685372531358818
 20
6.315072169405019
 30
0.0
 10
3.684765380187663
 20
6.307287731102436
 30
0.0
 10
3.685096058414519
 20
6.292602619813896
 30
0.0
 10
3.686021574666329
 20
6.285647672795404
 30
0.0
 10
3.689706682079427
 20
6.272508613128861
 30
0.0
 10
3.692494240147084
 20
6.26633001141042
 30
0.0
 10
3.703752132305199
 20
6.249610601110734
 30
0.0
 10
3.715524055498701
 20
6.24051041740352
 30
0.0
 10
3.738763870222551
 20
6.230396607746846
 30
0.0
 10
3.747549009263514
 20
6.227533679267901
 30
0.0
 10
3.766704275448898
 20
6.22281026011557
 30
0.0
 10
3.776920042425588
 20
6.220968402025289
 30
0.0
 10
3.798618614123399
 20
6.218070324234188
 30
0.0
 10
3.810172650666214
 20
6.217019741437286
 30
0.0
 10
3.833477681543297
 20
6.215650789504408
 30
0.0
 10
3.845380626068636
 20
6.215311008169593
 30
0.0
 10
3.869547532811041
 20
6.215286309383821
 30
0.0
 10
3.881425091774835
 20
6.215600334412831
 30
0.0
 10
3.904781991664735
 20
6.216916485367238
 30
0.0
 10
3.916373071098529
 20
6.217939152421
 30
0.0
 10
3.949022110350624
 20
6.222189659821499
 30
0.0
 10
3.96870569793795
 20
6.226712195750329
 30
0.0
 10
3.992232316634569
 20
6.23674203798349
 30
0.0
 10
3.999225242765548
 20
6.240687136409668
 30
0.0
 10
4.01099774422222
 20
6.249644514908227
 30
0.0
 10
4.015808057237983
 20
6.254641383852572
 30
0.0
 10
4.023495041755663
 20
6.265797967887787
 30
0.0
 10
4.026329595130732
 20
6.271935630434665
 30
0.0
 10
4.030121195860365
 20
6.284995569553683
 30
0.0
 10
4.03111341810098
 20
6.291986270175321
 30
0.0
 10
4.031732220793448
 20
6.314203586030319
 30
0.0
 10
4.02907351351357
 20
6.330128079285201
 30
0.0
 10
4.021980985329027
 20
6.355639591948235
 30
0.0
 10
4.019067420024284
 20
6.364450602186571
 30
0.0
 10
4.012460352013456
 20
6.382222832310073
 30
0.0
 10
4.008757455565005
 20
6.391226534236932
 30
0.0
 10
3.988576749074035
 20
6.436835748132031
 30
0.0
 10
3.967259350999875
 20
6.475650833905841
 30
0.0
 10
3.942710738253886
 20
6.514496823955796
 30
0.0
  0
SPLINE
  5
1A2
330
1F
100
AcDbEntity
  8
0
  6
HIDDEN
 62
     7
100
AcDbSpline
210
0.0
220
0.0
230
1.0
 70
     8
 71
     3
 72
    46
 73
    42
 74
     0
 42
0.00000001
 43
0.00000001
 40
-0.0624999999999997
 40
-0.0624999999999997
 40
0.0
 40
0.0
 40
0.0625000000000001
 40
0.0625000000000001
 40
0.1250000000000002
 40
0.1250000000000002
 40
0.1562500000000004
 40
0.1562500000000004
 40
0.1875000000000006
 40
0.1875000000000006
 40
0.2500000000000008
 40
0.2500000000000008
 40
0.3125000000000011
 40
0.3125000000000011
 40
0.3750000000000014
 40
0.3750000000000014
 40
0.4062500000000015
 40
0.4062500000000015
 40
0.4375000000000016
 40
0.4375000000000016
 40
0.5000000000000016
 40
0.5000000000000016
 40
0.5625000000000016
 40
0.5625000000000016
 40
0.6250000000000016
 40
0.6250000000000016
 40
0.6875000000000016
 40
0.6875000000000016
 40
0.7187500000000014
 40
0.7187500000000014
 40
0.7500000000000012
 40
0.7500000000000012
 40
0.7812500000000011
 40
0.7812500000000011
 40
0.812500000000001
 40
0.812500000000001
 40
0.8750000000000006
 40
0.8750000000000006
 40
0.9375000000000003
 40
0.9375000000000003
 40
1.0
 40
1.0
 40
1.0625
 40
1.0625
 10
3.952620355353056
 20
7.032586984132052
 30
0.0
 10
3.952620355353056
 20
7.050611888224178
 30
0.0
 10
3.950653744829742
 20
7.058870930605202
 30
0.0
 10
3.941774419772955
 20
7.073948287937704
 30
0.0
 10
3.934869895926184
 20
7.080531664197227
 30
0.0
 10
3.920691309405635
 20
7.088451621027246
 30
0.0
 10
3.91544971765936
 20
7.090713551933615
 30
0.0
 10
3.903891504845386
 20
7.094558887907049
 30
0.0
 10
3.897483363903185
 20
7.096150603198332
 30
0.0
 10
3.877578362646152
 20
7.099701594670384
 30
0.0
 10
3.862861092128411
 20
7.100564901502694
 30
0.0
 10
3.8342474223165
 20
7.099200573471827
 30
0.0
 10
3.820297675077056
 20
7.096953835783355
 30
0.0
 10
3.796610558176938
 20
7.089520983825988
 30
0.0
 10
3.786801886505445
 20
7.084310246325733
 30
0.0
 10
3.776036827144809
 20
7.074741863907954
 30
0.0
 10
3.773048091708247
 20
7.07121821513584
 30
0.0
 10
3.768376500650129
 20
7.06377789669175
 30
0.0
 10
3.766656840192004
 20
7.059837005659647
 30
0.0
 10
3.763161303496815
 20
7.047325518010928
 30
0.0
 10
3.763105212668945
 20
7.038379891378749
 30
0.0
 10
3.766644411415591
 20
7.019559487080225
 30
0.0
 10
3.770167515321031
 20
7.009975136182161
 30
0.0
 10
3.780461659041253
 20
6.990580973831498
 30
0.0
 10
3.787111655503194
 20
6.980996988326274
 30
0.0
 10
3.803736872618613
 20
6.963057943222958
 30
0.0
 10
3.813875864949956
 20
6.954457468429014
 30
0.0
 10
3.83252606186054
 20
6.945205647044667
 30
0.0
 10
3.839148595665669
 20
6.942842423759728
 30
0.0
 10
3.853423727470211
 20
6.940246062579654
 30
0.0
 10
3.860603845774444
 20
6.940117080179962
 30
0.0
 10
3.874997850021497
 20
6.942252416394264
 30
0.0
 10
3.881805271262367
 20
6.944463547196458
 30
0.0
 10
3.894390003137421
 20
6.950328688771913
 30
0.0
 10
3.900063337979937
 20
6.953902373826926
 30
0.0
 10
3.915800675821901
 20
6.965832579853669
 30
0.0
 10
3.924191896599683
 20
6.975013839019878
 30
0.0
 10
3.937996897473955
 20
6.994031037701094
 30
0.0
 10
3.943278246407947
 20
7.00379492005229
 30
0.0
 10
3.950598126700274
 20
7.023056645514492
 30
0.0
 10
3.952620355353056
 20
7.032586984132052
 30
0.0
 10
3.952620355353056
 20
7.050611888224178
 30
0.0
  0
LINE
  5
1A3
330
1F
100
AcDbEntity
  8
0
  6
HIDDEN
 62
     7
100
AcDbLine
 10
3.6219116939
 20
6.2340126613
 30
0.0
 11
3.6219116939
 21
7.1099416165
 31
0.0
  0
LINE
  5
1A4
330
1F
100
AcDbEntity
  8
0
  6
HIDDEN
 62
     7
100
AcDbLine
 10
3.6612817727
 20
6.2340126613
 30
0.0
 11
3.6612817727
 21
7.1099416165
 31
0.0
  0
SPLINE
  5
1A5
330
1F
100
AcDbEntity
  8
0
  6
HIDDEN
 62
     7
100
AcDbSpline
210
0.0
220
0.0
230
1.0
 70
    24
 71
     3
 72
     8
 73
     4
 74
     0
 42
0.00000001
 43
0.00000001
 40
0.0
 40
0.0
 40
0.0
 40
0.0
 40
1.0
 40
1.0
 40
1.0
 40
1.0
 10
4.054982560077466
 20
6.652292099546347
 30
0.0
 10
4.048309938361622
 20
6.652292099546347
 30
0.0
 10
4.041642138290488
 20
6.652292099546347
 30
0.0
 10
4.034982560077465
 20
6.652292099546347
 30
0.0
  0
SPLINE
  5
1A6
330
1F
100
AcDbEntity
  8
0
  6
HIDDEN
 62
     7
100
AcDbSpline
210
0.0
220
0.0
230
1.0
 70
    24
 71
     3
 72
     8
 73
     4
 74
     0
 42
0.00000001
 43
0.00000001
 40
0.0
 40
0.0
 40
0.0
 40
0.0
 40
1.0
 40
1.0
 40
1.0
 40
1.0
 10
4.054982560077466
 20
6.691662178286505
 30
0.0
 10
4.048309938361622
 20
6.691662178286505
 30
0.0
 10
4.041642138290488
 20
6.691662178286505
 30
0.0
 10
4.034982560077465
 20
6.691662178286505
 30
0.0
  0
SPLINE
  5
1A7
330
1F
100
AcDbEntity
  8
0
  6
HIDDEN
 62
     7
100
AcDbSpline
210
0.0
220
0.0
230
1.0
 70
     8
 71
     3
 72
     8
 73
     4
 74
     0
 42
0.00000001
 43
0.00000001
 40
0.0
 40
0.0
 40
0.0
 40
0.0
 40
1.0
 40
1.0
 40
1.0
 40
1.0
 10
2.618289646691639
 20
6.788435402363269
 30
0.0
 10
2.611629986365108
 20
6.795189530675287
 30
0.0
 10
2.604962251194491
 20
6.801935876672347
 30
0.0
 10
2.598289646691639
 20
6.80867730926699
 30
0.0
  0
LINE
  5
1A8
330
1F
100
AcDbEntity
  8
0
  6
HIDDEN
 62
     7
100
AcDbLine
 10
2.6182896467
 20
6.7884354024
 30
0.0
 11
2.9919904341
 21
6.7884354024
 31
0.0
  0
LINE
  5
1A9
330
1F
100
AcDbEntity
  8
0
  6
HIDDEN
 62
     7
100
AcDbLine
 10
3.6612817727
 20
6.6522920995
 30
0.0
 11
4.0349825601
 21
6.6522920995
 31
0.0
  0
LINE
  5
1AA
330
1F
100
AcDbEntity
  8
0
  6
HIDDEN
 62
     7
100
AcDbLine
 10
3.6612817727
 20
6.6916621783
 30
0.0
 11
4.0349825601
 21
6.6916621783
 31
0.0
  0
LINE
  5
1AB
330
1F
100
AcDbEntity
  8
0
  6
HIDDEN
 62
     7
100
AcDbLine
 10
4.0313605128
 20
6.514496824
 30
0.0
 11
3.6849038199
 21
6.514496824
 31
0.0
  0
ARC
  5
1AC
330
1F
100
AcDbEntity
  8
0
  6
HIDDEN
 62
     7
100
AcDbCircle
 10
2.7951400404
 20
6.9662216015
 30
0.0
 40
0.1732283464566929
100
AcDbArc
 50
119.2255601359
 51
60.7744398641
  0
LINE
  5
1AD
330
1F
100
AcDbEntity
  8
0
  6
HIDDEN
 62
     7
100
AcDbLine
 10
4.0077384656
 20
6.4987487925
 30
0.0
 11
3.7085258672
 21
6.4987487925
 31
0.0
  0
LINE
  5
1AE
330
1F
100
AcDbEntity
  8
0
  6
HIDDEN
 62
     7
100
AcDbLine
 10
3.7085258672
 20
6.3727645405
 30
0.0
 11
4.0077384656
 21
6.3727645405
 31
0.0
  0
LINE
  5
1AF
330
1F
100
AcDbEntity
  8
0
  6
HIDDEN
 62
     7
100
AcDbLine
 10
3.9919904341
 20
6.357016509
 30
0.0
 11
3.7242738987
 21
6.357016509
 31
0.0
  0
LINE
  5
1B0
330
1F
100
AcDbEntity
  8
0
  6
HIDDEN
 62
     7
100
AcDbLine
 10
3.7951400404
 20
7.0263078476
 30
0.0
 11
3.9211242924
 21
7.0263078476
 31
0.0
  0
LINE
  5
1B1
330
1F
100
AcDbEntity
  8
0
  6
HIDDEN
 62
     7
100
AcDbLine
 10
3.9368723239
 20
7.0105598161
 30
0.0
 11
3.7793920089
 21
7.0105598161
 31
0.0
  0
LINE
  5
1B2
330
1F
100
AcDbEntity
  8
0
  6
HIDDEN
 62
     7
100
AcDbLine
 10
3.8581321664
 20
6.4751267452
 30
0.0
 11
3.8581321664
 21
6.357016509
 31
0.0
  0
LINE
  5
1B3
330
1F
100
AcDbEntity
  8
0
  6
HIDDEN
 62
     7
100
AcDbLine
 10
3.9171872845
 20
6.4751267452
 30
0.0
 11
3.8581321664
 21
6.4751267452
 31
0.0
  0
LINE
  5
1B4
330
1F
100
AcDbEntity
  8
0
  6
HIDDEN
 62
     7
100
AcDbLine
 10
3.8581321664
 20
6.4751267452
 30
0.0
 11
3.7990770483
 21
6.4751267452
 31
0.0
  0
LINE
  5
1B5
330
1F
100
AcDbEntity
  8
0
  6
HIDDEN
 62
     7
100
AcDbLine
 10
3.7990770483
 20
6.4751267452
 30
0.0
 11
3.7990770483
 21
6.357016509
 31
0.0
  0
LINE
  5
1B6
330
1F
100
AcDbEntity
  8
0
  6
HIDDEN
 62
     7
100
AcDbLine
 10
3.9171872845
 20
6.4751267452
 30
0.0
 11
3.9171872845
 21
6.357016509
 31
0.0
  0
CIRCLE
  5
1B7
330
1F
100
AcDbEntity
  8
0
  6
HIDDEN
 62
     7
100
AcDbCircle
 10
2.7951400404
 20
6.9662216015
 30
0.0
 40
0.1496062992125986
  0
CIRCLE
  5
1B8
330
1F
100
AcDbEntity
  8
0
  6
HIDDEN
 62
     7
100
AcDbCircle
 10
2.7951400404
 20
6.9662216015
 30
0.0
 40
0.1338582677165356
  0
LINE
  5
1B9
330
1F
100
AcDbEntity
  8
0
  6
HIDDEN
 62
     7
100
AcDbLine
 10
2.7951400404
 20
7.0344125782
 30
0.0
 11
2.7360849223
 21
7.0003170898
 31
0.0
  0
LINE
  5
1BA
330
1F
100
AcDbEntity
  8
0
  6
HIDDEN
 62
     7
100
AcDbLine
 10
2.8541951585
 20
7.0003170898
 30
0.0
 11
2.7951400404
 21
7.0344125782
 31
0.0
  0
LINE
  5
1BB
330
1F
100
AcDbEntity
  8
0
  6
HIDDEN
 62
     7
100
AcDbLine
 10
2.7360849223
 20
7.0003170898
 30
0.0
 11
2.7360849223
 21
6.9321261132
 31
0.0
  0
LINE
  5
1BC
330
1F
100
AcDbEntity
  8
0
  6
HIDDEN
 62
     7
100
AcDbLine
 10
2.8541951585
 20
6.9321261132
 30
0.0
 11
2.8541951585
 21
7.0003170898
 31
0.0
  0
LINE
  5
1BD
330
1F
100
AcDbEntity
  8
0
  6
HIDDEN
 62
     7
100
AcDbLine
 10
2.7951400404
 20
6.8980306248
 30
0.0
 11
2.8541951585
 21
6.9321261132
 31
0.0
  0
LINE
  5
1BE
330
1F
100
AcDbEntity
  8
0
  6
HIDDEN
 62
     7
100
AcDbLine
 10
2.7360849223
 20
6.9321261132
 30
0.0
 11
2.7951400404
 21
6.8980306248
 31
0.0
  0
LINE
  5
1BF
330
1F
100
AcDbEntity
  8
0
  6
HIDDEN
 62
     7
100
AcDbLine
 10
4.0549825601
 20
6.8100873751
 30
0.0
 11
4.0349825601
 21
6.7900873751
 31
0.0
  0
LINE
  5
1C0
330
1F
100
AcDbEntity
  8
0
  6
HIDDEN
 62
     7
100
AcDbLine
 10
4.0349825601
 20
6.5538669027
 30
0.0
 11
4.0549825601
 21
6.5338669027
 31
0.0
  0
LINE
  5
1C1
330
1F
100
AcDbEntity
  8
0
  6
HIDDEN
 62
     7
100
AcDbLine
 10
2.5982896467
 20
6.5338669027
 30
0.0
 11
2.6182896467
 21
6.5538669027
 31
0.0
  0
LINE
  5
1C2
330
1F
100
AcDbEntity
  8
0
  6
HIDDEN
 62
     7
100
AcDbLine
 10
3.6219116939
 20
6.7900873751
 30
0.0
 11
3.0313605128
 21
6.7900873751
 31
0.0
  0
LINE
  5
1C3
330
1F
100
AcDbEntity
  8
0
  6
HIDDEN
 62
     7
100
AcDbLine
 10
3.0313605128
 20
6.5538669027
 30
0.0
 11
3.6219116939
 21
6.5538669027
 31
0.0
  0
LINE
  5
1C4
330
1F
100
AcDbEntity
  8
0
  6
HIDDEN
 62
     7
100
AcDbLine
 10
2.6182896467
 20
6.5538669027
 30
0.0
 11
2.9919904341
 21
6.5538669027
 31
0.0
  0
LINE
  5
1C5
330
1F
100
AcDbEntity
  8
0
  6
HIDDEN
 62
     7
100
AcDbLine
 10
4.0349825601
 20
6.7900873751
 30
0.0
 11
3.6612817727
 21
6.7900873751
 31
0.0
  0
LINE
  5
1C6
330
1F
100
AcDbEntity
  8
0
  6
HIDDEN
 62
     7
100
AcDbLine
 10
3.6612817727
 20
6.5538669027
 30
0.0
 11
4.0349825601
 21
6.5538669027
 31
0.0
  0
LINE
  5
1C7
330
1F
100
AcDbEntity
  8
0
  6
HIDDEN
 62
     7
100
AcDbLine
 10
4.0313605128
 20
6.3025750787
 30
0.0
 11
4.0313605128
 21
6.514496824
 31
0.0
  0
LINE
  5
1C8
330
1F
100
AcDbEntity
  8
0
  6
HIDDEN
 62
     7
100
AcDbLine
 10
3.6849038199
 20
6.514496824
 30
0.0
 11
3.6849038199
 21
6.3024312903
 31
0.0
  0
LINE
  5
1C9
330
1F
100
AcDbEntity
  8
0
  6
HIDDEN
 62
     7
100
AcDbLine
 10
3.9526203554
 20
6.6916621783
 30
0.0
 11
3.9526203554
 21
7.0415994362
 31
0.0
  0
LINE
  5
1CA
330
1F
100
AcDbEntity
  8
0
  6
HIDDEN
 62
     7
100
AcDbLine
 10
3.7636439774
 20
7.0415598141
 30
0.0
 11
3.7636439774
 21
6.6916621783
 31
0.0
  0
LINE
  5
1CB
330
1F
100
AcDbEntity
  8
0
  6
HIDDEN
 62
     7
100
AcDbLine
 10
3.9526203554
 20
6.514496824
 30
0.0
 11
3.9526203554
 21
6.6522920995
 31
0.0
  0
LINE
  5
1CC
330
1F
100
AcDbEntity
  8
0
  6
HIDDEN
 62
     7
100
AcDbLine
 10
3.7636439774
 20
6.6522920995
 30
0.0
 11
3.7636439774
 21
6.514496824
 31
0.0
  0
LINE
  5
1CD
330
1F
100
AcDbEntity
  8
0
  6
HIDDEN
 62
     7
100
AcDbLine
 10
4.0077384656
 20
6.4987487925
 30
0.0
 11
3.9919904341
 21
6.514496824
 31
0.0
  0
LINE
  5
1CE
330
1F
100
AcDbEntity
  8
0
  6
HIDDEN
 62
     7
100
AcDbLine
 10
3.7242738987
 20
6.514496824
 30
0.0
 11
3.7085258672
 21
6.4987487925
 31
0.0
  0
LINE
  5
1CF
330
1F
100
AcDbEntity
  8
0
  6
HIDDEN
 62
     7
100
AcDbLine
 10
3.7085258672
 20
6.4987487925
 30
0.0
 11
3.7085258672
 21
6.3727645405
 31
0.0
  0
LINE
  5
1D0
330
1F
100
AcDbEntity
  8
0
  6
HIDDEN
 62
     7
100
AcDbLine
 10
4.0077384656
 20
6.3727645405
 30
0.0
 11
4.0077384656
 21
6.4987487925
 31
0.0
  0
LINE
  5
1D1
330
1F
100
AcDbEntity
  8
0
  6
HIDDEN
 62
     7
100
AcDbLine
 10
3.7085258672
 20
6.3727645405
 30
0.0
 11
3.7242738987
 21
6.357016509
 31
0.0
  0
LINE
  5
1D2
330
1F
100
AcDbEntity
  8
0
  6
HIDDEN
 62
     7
100
AcDbLine
 10
3.9919904341
 20
6.357016509
 30
0.0
 11
4.0077384656
 21
6.3727645405
 31
0.0
  0
LINE
  5
1D3
330
1F
100
AcDbEntity
  8
0
  6
HIDDEN
 62
     7
100
AcDbLine
 10
3.9368723239
 20
7.0105598161
 30
0.0
 11
3.9211242924
 21
7.0263078476
 31
0.0
  0
LINE
  5
1D4
330
1F
100
AcDbEntity
  8
0
  6
HIDDEN
 62
     7
100
AcDbLine
 10
3.7951400404
 20
7.0263078476
 30
0.0
 11
3.7793920089
 21
7.0105598161
 31
0.0
  0
LINE
  5
1D5
330
1F
100
AcDbEntity
  8
0
  6
HIDDEN
 62
     7
100
AcDbLine
 10
3.9368723239
 20
6.514496824
 30
0.0
 11
3.9368723239
 21
7.0105598161
 31
0.0
  0
LINE
  5
1D6
330
1F
100
AcDbEntity
  8
0
  6
HIDDEN
 62
     7
100
AcDbLine
 10
3.7793920089
 20
7.0105598161
 30
0.0
 11
3.7793920089
 21
6.514496824
 31
0.0
  0
LINE
  5
1D7
330
1F
100
AcDbEntity
  8
0
  6
CONTINUOUS
 62
     7
100
AcDbLine
 10
9.0084831678
 20
6.7398212304
 30
0.0
 11
9.0084831678
 21
6.7561493926
 31
0.0
  0
LINE
  5
1D8
330
1F
100
AcDbEntity
  8
0
  6
CONTINUOUS
 62
     7
100
AcDbLine
 10
8.4322596512
 20
6.1575784917
 30
0.0
 11
8.4382156965
 21
6.1541401399
 31
0.0
  0
LINE
  5
1D9
330
1F
100
AcDbEntity
  8
0
  6
CONTINUOUS
 62
     7
100
AcDbLine
 10
8.1739693356
 20
6.306686317
 30
0.0
 11
8.1940678312
 21
6.2950837024
 31
0.0
  0
LINE
  5
1DA
330
1F
100
AcDbEntity
  8
0
  6
CONTINUOUS
 62
     7
100
AcDbLine
 10
7.4364625306
 20
6.7324399331
 30
0.0
 11
8.146130486
 21
6.3227573428
 31
0.0
  0
LINE
  5
1DB
330
1F
100
AcDbEntity
  8
0
  6
CONTINUOUS
 62
     7
100
AcDbLine
 10
7.973603287
 20
7.5133812482
 30
0.0
 11
7.9088650815
 21
7.5507538188
 31
0.0
  0
LINE
  5
1DC
330
1F
100
AcDbEntity
  8
0
  6
CONTINUOUS
 62
     7
100
AcDbLine
 10
8.1731114424
 20
7.3982076417
 30
0.0
 11
8.0941861706
 21
7.4437702313
 31
0.0
  0
LINE
  5
1DD
330
1F
100
AcDbEntity
  8
0
  6
CONTINUOUS
 62
     7
100
AcDbLine
 10
8.9106182474
 20
6.9724540256
 30
0.0
 11
8.200950292
 21
7.3821366159
 31
0.0
  0
LINE
  5
1DE
330
1F
100
AcDbEntity
  8
0
  6
CONTINUOUS
 62
     7
100
AcDbLine
 10
7.6726095109
 20
7.5273328396
 30
0.0
 11
7.6584696738
 21
7.5191674316
 31
0.0
  0
LINE
  5
1DF
330
1F
100
AcDbEntity
  8
0
  6
CONTINUOUS
 62
     7
100
AcDbLine
 10
7.3385976102
 20
6.9650727283
 30
0.0
 11
7.3385976102
 21
6.9487445661
 31
0.0
  0
LINE
  5
1E0
330
1F
100
AcDbEntity
  8
0
  6
CONTINUOUS
 62
     7
100
AcDbLine
 10
8.2320019733
 20
6.3341556202
 30
0.0
 11
8.2320019733
 21
6.3212987996
 31
0.0
  0
LINE
  5
1E1
330
1F
100
AcDbEntity
  8
0
  6
CONTINUOUS
 62
     7
100
AcDbLine
 10
8.3266386785
 20
6.1573654554
 30
0.0
 11
8.3377724085
 21
6.1509360003
 31
0.0
  0
LINE
  5
1E2
330
1F
100
AcDbEntity
  8
0
  6
CONTINUOUS
 62
     7
100
AcDbLine
 10
8.4125866725
 20
6.1435193568
 30
0.0
 11
8.4346000491
 21
6.1562274087
 31
0.0
  0
LINE
  5
1E3
330
1F
100
AcDbEntity
  8
0
  6
CONTINUOUS
 62
     7
100
AcDbLine
 10
8.0614649198
 20
7.4981210132
 30
0.0
 11
8.0503275705
 21
7.504552558
 31
0.0
  0
LINE
  5
1E4
330
1F
100
AcDbEntity
  8
0
  6
CONTINUOUS
 62
     7
100
AcDbLine
 10
7.9612287765
 20
7.504552558
 30
0.0
 11
7.9500914272
 21
7.4981210132
 31
0.0
  0
LINE
  5
1E5
330
1F
100
AcDbEntity
  8
0
  6
CONTINUOUS
 62
     7
100
AcDbLine
 10
8.084518331
 20
7.4482256551
 30
0.0
 11
8.084518331
 21
7.4659841851
 31
0.0
  0
POLYLINE
  5
1E6
330
1F
100
AcDbEntity
  8
0
  6
CONTINUOUS
 62
     7
100
AcDb2dPolyline
 66
     1
 10
0.0
 20
0.0
 30
0.0
  0
VERTEX
  5
21C
330
1E6
100
AcDbEntity
  8
0
  6
CONTINUOUS
 62
     7
100
AcDbVertex
100
AcDb2dVertex
 10
8.7024785324
 20
6.1940818539
 30
0.0
  0
VERTEX
  5
21D
330
1E6
100
AcDbEntity
  8
0
  6
CONTINUOUS
 62
     7
100
AcDbVertex
100
AcDb2dVertex
 10
8.7199746487
 20
6.2056177944
 30
0.0
  0
VERTEX
  5
21E
330
1E6
100
AcDbEntity
  8
0
  6
CONTINUOUS
 62
     7
100
AcDbVertex
100
AcDb2dVertex
 10
8.7373763324
 20
6.2182043483
 30
0.0
  0
VERTEX
  5
21F
330
1E6
100
AcDbEntity
  8
0
  6
CONTINUOUS
 62
     7
100
AcDbVertex
100
AcDb2dVertex
 10
8.7546312757
 20
6.2318036815
 30
0.0
  0
VERTEX
  5
220
330
1E6
100
AcDbEntity
  8
0
  6
CONTINUOUS
 62
     7
100
AcDbVertex
100
AcDb2dVertex
 10
8.7716876116
 20
6.2463749155
 30
0.0
  0
VERTEX
  5
221
330
1E6
100
AcDbEntity
  8
0
  6
CONTINUOUS
 62
     7
100
AcDbVertex
100
AcDb2dVertex
 10
8.7884940702
 20
6.2618742503
 30
0.0
  0
VERTEX
  5
222
330
1E6
100
AcDbEntity
  8
0
  6
CONTINUOUS
 62
     7
100
AcDbVertex
100
AcDb2dVertex
 10
8.8050001327
 20
6.2782550963
 30
0.0
  0
VERTEX
  5
223
330
1E6
100
AcDbEntity
  8
0
  6
CONTINUOUS
 62
     7
100
AcDbVertex
100
AcDb2dVertex
 10
8.8211561832
 20
6.2954682141
 30
0.0
  0
VERTEX
  5
224
330
1E6
100
AcDbEntity
  8
0
  6
CONTINUOUS
 62
     7
100
AcDbVertex
100
AcDb2dVertex
 10
8.8369136581
 20
6.3134618625
 30
0.0
  0
VERTEX
  5
225
330
1E6
100
AcDbEntity
  8
0
  6
CONTINUOUS
 62
     7
100
AcDbVertex
100
AcDb2dVertex
 10
8.8522251916
 20
6.3321819539
 30
0.0
  0
VERTEX
  5
226
330
1E6
100
AcDbEntity
  8
0
  6
CONTINUOUS
 62
     7
100
AcDbVertex
100
AcDb2dVertex
 10
8.8670447586
 20
6.3515722176
 30
0.0
  0
VERTEX
  5
227
330
1E6
100
AcDbEntity
  8
0
  6
CONTINUOUS
 62
     7
100
AcDbVertex
100
AcDb2dVertex
 10
8.8813278128
 20
6.3715743678
 30
0.0
  0
VERTEX
  5
228
330
1E6
100
AcDbEntity
  8
0
  6
CONTINUOUS
 62
     7
100
AcDbVertex
100
AcDb2dVertex
 10
8.8950314204
 20
6.3921282799
 30
0.0
  0
VERTEX
  5
229
330
1E6
100
AcDbEntity
  8
0
  6
CONTINUOUS
 62
     7
100
AcDbVertex
100
AcDb2dVertex
 10
8.9081143895
 20
6.4131721705
 30
0.0
  0
VERTEX
  5
22A
330
1E6
100
AcDbEntity
  8
0
  6
CONTINUOUS
 62
     7
100
AcDbVertex
100
AcDb2dVertex
 10
8.9205373939
 20
6.4346427835
 30
0.0
  0
VERTEX
  5
22B
330
1E6
100
AcDbEntity
  8
0
  6
CONTINUOUS
 62
     7
100
AcDbVertex
100
AcDb2dVertex
 10
8.9322630911
 20
6.4564755799
 30
0.0
  0
VERTEX
  5
22C
330
1E6
100
AcDbEntity
  8
0
  6
CONTINUOUS
 62
     7
100
AcDbVertex
100
AcDb2dVertex
 10
8.9432562345
 20
6.4786049322
 30
0.0
  0
VERTEX
  5
22D
330
1E6
100
AcDbEntity
  8
0
  6
CONTINUOUS
 62
     7
100
AcDbVertex
100
AcDb2dVertex
 10
8.9534837798
 20
6.5009643215
 30
0.0
  0
VERTEX
  5
22E
330
1E6
100
AcDbEntity
  8
0
  6
CONTINUOUS
 62
     7
100
AcDbVertex
100
AcDb2dVertex
 10
8.9629149837
 20
6.5234865374
 30
0.0
  0
VERTEX
  5
22F
330
1E6
100
AcDbEntity
  8
0
  6
CONTINUOUS
 62
     7
100
AcDbVertex
100
AcDb2dVertex
 10
8.9715214969
 20
6.5461038798
 30
0.0
  0
VERTEX
  5
230
330
1E6
100
AcDbEntity
  8
0
  6
CONTINUOUS
 62
     7
100
AcDbVertex
100
AcDb2dVertex
 10
8.9792774489
 20
6.568748363
 30
0.0
  0
VERTEX
  5
231
330
1E6
100
AcDbEntity
  8
0
  6
CONTINUOUS
 62
     7
100
AcDbVertex
100
AcDb2dVertex
 10
8.986159526
 20
6.5913519196
 30
0.0
  0
VERTEX
  5
232
330
1E6
100
AcDbEntity
  8
0
  6
CONTINUOUS
 62
     7
100
AcDbVertex
100
AcDb2dVertex
 10
8.9921470412
 20
6.6138466051
 30
0.0
  0
VERTEX
  5
233
330
1E6
100
AcDbEntity
  8
0
  6
CONTINUOUS
 62
     7
100
AcDbVertex
100
AcDb2dVertex
 10
8.9972219965
 20
6.6361648025
 30
0.0
  0
VERTEX
  5
234
330
1E6
100
AcDbEntity
  8
0
  6
CONTINUOUS
 62
     7
100
AcDbVertex
100
AcDb2dVertex
 10
9.0013691372
 20
6.6582394251
 30
0.0
  0
VERTEX
  5
235
330
1E6
100
AcDbEntity
  8
0
  6
CONTINUOUS
 62
     7
100
AcDbVertex
100
AcDb2dVertex
 10
9.0045759971
 20
6.6800041184
 30
0.0
  0
VERTEX
  5
236
330
1E6
100
AcDbEntity
  8
0
  6
CONTINUOUS
 62
     7
100
AcDbVertex
100
AcDb2dVertex
 10
9.0068329368
 20
6.7013934597
 30
0.0
  0
VERTEX
  5
237
330
1E6
100
AcDbEntity
  8
0
  6
CONTINUOUS
 62
     7
100
AcDbVertex
100
AcDb2dVertex
 10
9.0081331721
 20
6.7223431543
 30
0.0
  0
VERTEX
  5
238
330
1E6
100
AcDbEntity
  8
0
  6
CONTINUOUS
 62
     7
100
AcDbVertex
100
AcDb2dVertex
 10
9.0084727946
 20
6.7427902292
 30
0.0
  0
VERTEX
  5
239
330
1E6
100
AcDbEntity
  8
0
  6
CONTINUOUS
 62
     7
100
AcDbVertex
100
AcDb2dVertex
 10
9.0078507833
 20
6.7626732222
 30
0.0
  0
VERTEX
  5
23A
330
1E6
100
AcDbEntity
  8
0
  6
CONTINUOUS
 62
     7
100
AcDbVertex
100
AcDb2dVertex
 10
9.0062690081
 20
6.7819323668
 30
0.0
  0
VERTEX
  5
23B
330
1E6
100
AcDbEntity
  8
0
  6
CONTINUOUS
 62
     7
100
AcDbVertex
100
AcDb2dVertex
 10
9.0037322237
 20
6.8005097715
 30
0.0
  0
VERTEX
  5
23C
330
1E6
100
AcDbEntity
  8
0
  6
CONTINUOUS
 62
     7
100
AcDbVertex
100
AcDb2dVertex
 10
9.0002480553
 20
6.8183495942
 30
0.0
  0
VERTEX
  5
23D
330
1E6
100
AcDbEntity
  8
0
  6
CONTINUOUS
 62
     7
100
AcDbVertex
100
AcDb2dVertex
 10
8.995826976
 20
6.8353982099
 30
0.0
  0
VERTEX
  5
23E
330
1E6
100
AcDbEntity
  8
0
  6
CONTINUOUS
 62
     7
100
AcDbVertex
100
AcDb2dVertex
 10
8.9904822754
 20
6.851604372
 30
0.0
  0
VERTEX
  5
23F
330
1E6
100
AcDbEntity
  8
0
  6
CONTINUOUS
 62
     7
100
AcDbVertex
100
AcDb2dVertex
 10
8.9842300191
 20
6.866919366
 30
0.0
  0
VERTEX
  5
240
330
1E6
100
AcDbEntity
  8
0
  6
CONTINUOUS
 62
     7
100
AcDbVertex
100
AcDb2dVertex
 10
8.9770890008
 20
6.8812971564
 30
0.0
  0
VERTEX
  5
241
330
1E6
100
AcDbEntity
  8
0
  6
CONTINUOUS
 62
     7
100
AcDbVertex
100
AcDb2dVertex
 10
8.9690806859
 20
6.8946945247
 30
0.0
  0
VERTEX
  5
242
330
1E6
100
AcDbEntity
  8
0
  6
CONTINUOUS
 62
     7
100
AcDbVertex
100
AcDb2dVertex
 10
8.9602291467
 20
6.9070711995
 30
0.0
  0
VERTEX
  5
243
330
1E6
100
AcDbEntity
  8
0
  6
CONTINUOUS
 62
     7
100
AcDbVertex
100
AcDb2dVertex
 10
8.9505609901
 20
6.9183899777
 30
0.0
  0
VERTEX
  5
244
330
1E6
100
AcDbEntity
  8
0
  6
CONTINUOUS
 62
     7
100
AcDbVertex
100
AcDb2dVertex
 10
8.9401052779
 20
6.9286168359
 30
0.0
  0
VERTEX
  5
245
330
1E6
100
AcDbEntity
  8
0
  6
CONTINUOUS
 62
     7
100
AcDbVertex
100
AcDb2dVertex
 10
8.928893439
 20
6.9377210331
 30
0.0
  0
VERTEX
  5
246
330
1E6
100
AcDbEntity
  8
0
  6
CONTINUOUS
 62
     7
100
AcDbVertex
100
AcDb2dVertex
 10
8.9169591753
 20
6.9456752027
 30
0.0
  0
VERTEX
  5
247
330
1E6
100
AcDbEntity
  8
0
  6
CONTINUOUS
 62
     7
100
AcDbVertex
100
AcDb2dVertex
 10
8.9043383601
 20
6.9524554353
 30
0.0
  0
VERTEX
  5
248
330
1E6
100
AcDbEntity
  8
0
  6
CONTINUOUS
 62
     7
100
AcDbVertex
100
AcDb2dVertex
 10
8.8910689306
 20
6.95804135
 30
0.0
  0
VERTEX
  5
249
330
1E6
100
AcDbEntity
  8
0
  6
CONTINUOUS
 62
     7
100
AcDbVertex
100
AcDb2dVertex
 10
8.8771907736
 20
6.962416156
 30
0.0
  0
VERTEX
  5
24A
330
1E6
100
AcDbEntity
  8
0
  6
CONTINUOUS
 62
     7
100
AcDbVertex
100
AcDb2dVertex
 10
8.8627456057
 20
6.9655667031
 30
0.0
  0
VERTEX
  5
24B
330
1E6
100
AcDbEntity
  8
0
  6
CONTINUOUS
 62
     7
100
AcDbVertex
100
AcDb2dVertex
 10
8.8477768477
 20
6.9674835209
 30
0.0
  0
VERTEX
  5
24C
330
1E6
100
AcDbEntity
  8
0
  6
CONTINUOUS
 62
     7
100
AcDbVertex
100
AcDb2dVertex
 10
8.8323294946
 20
6.9681608476
 30
0.0
  0
VERTEX
  5
24D
330
1E6
100
AcDbEntity
  8
0
  6
CONTINUOUS
 62
     7
100
AcDbVertex
100
AcDb2dVertex
 10
8.8164499798
 20
6.9675966474
 30
0.0
  0
VERTEX
  5
24E
330
1E6
100
AcDbEntity
  8
0
  6
CONTINUOUS
 62
     7
100
AcDbVertex
100
AcDb2dVertex
 10
8.8001860358
 20
6.965792616
 30
0.0
  0
VERTEX
  5
24F
330
1E6
100
AcDbEntity
  8
0
  6
CONTINUOUS
 62
     7
100
AcDbVertex
100
AcDb2dVertex
 10
8.7835865506
 20
6.9627541763
 30
0.0
  0
VERTEX
  5
250
330
1E6
100
AcDbEntity
  8
0
  6
CONTINUOUS
 62
     7
100
AcDbVertex
100
AcDb2dVertex
 10
8.7667014208
 20
6.9584904616
 30
0.0
  0
VERTEX
  5
251
330
1E6
100
AcDbEntity
  8
0
  6
CONTINUOUS
 62
     7
100
AcDbVertex
100
AcDb2dVertex
 10
8.7495814019
 20
6.9530142882
 30
0.0
  0
VERTEX
  5
252
330
1E6
100
AcDbEntity
  8
0
  6
CONTINUOUS
 62
     7
100
AcDbVertex
100
AcDb2dVertex
 10
8.732277955
 20
6.946342117
 30
0.0
  0
VERTEX
  5
253
330
1E6
100
AcDbEntity
  8
0
  6
CONTINUOUS
 62
     7
100
AcDbVertex
100
AcDb2dVertex
 10
8.7148430929
 20
6.9384940041
 30
0.0
  0
VERTEX
  5
254
330
1E6
100
AcDbEntity
  8
0
  6
CONTINUOUS
 62
     7
100
AcDbVertex
100
AcDb2dVertex
 10
8.6973292234
 20
6.9294935402
 30
0.0
  0
VERTEX
  5
255
330
1E6
100
AcDbEntity
  8
0
  6
CONTINUOUS
 62
     7
100
AcDbVertex
100
AcDb2dVertex
 10
8.6797889917
 20
6.91936778
 30
0.0
  0
VERTEX
  5
256
330
1E6
100
AcDbEntity
  8
0
  6
CONTINUOUS
 62
     7
100
AcDbVertex
100
AcDb2dVertex
 10
8.6622751222
 20
6.9081471606
 30
0.0
  0
VERTEX
  5
257
330
1E6
100
AcDbEntity
  8
0
  6
CONTINUOUS
 62
     7
100
AcDbVertex
100
AcDb2dVertex
 10
8.6448402602
 20
6.8958654102
 30
0.0
  0
VERTEX
  5
258
330
1E6
100
AcDbEntity
  8
0
  6
CONTINUOUS
 62
     7
100
AcDbVertex
100
AcDb2dVertex
 10
8.6275368133
 20
6.8825594469
 30
0.0
  0
VERTEX
  5
259
330
1E6
100
AcDbEntity
  8
0
  6
CONTINUOUS
 62
     7
100
AcDbVertex
100
AcDb2dVertex
 10
8.6104167943
 20
6.8682692671
 30
0.0
  0
VERTEX
  5
25A
330
1E6
100
AcDbEntity
  8
0
  6
CONTINUOUS
 62
     7
100
AcDbVertex
100
AcDb2dVertex
 10
8.5935316646
 20
6.853037826
 30
0.0
  0
VERTEX
  5
25B
330
1E6
100
AcDbEntity
  8
0
  6
CONTINUOUS
 62
     7
100
AcDbVertex
100
AcDb2dVertex
 10
8.5769321794
 20
6.836910908
 30
0.0
  0
VERTEX
  5
25C
330
1E6
100
AcDbEntity
  8
0
  6
CONTINUOUS
 62
     7
100
AcDbVertex
100
AcDb2dVertex
 10
8.5606682353
 20
6.8199369893
 30
0.0
  0
VERTEX
  5
25D
330
1E6
100
AcDbEntity
  8
0
  6
CONTINUOUS
 62
     7
100
AcDbVertex
100
AcDb2dVertex
 10
8.5447887205
 20
6.802167092
 30
0.0
  0
VERTEX
  5
25E
330
1E6
100
AcDbEntity
  8
0
  6
CONTINUOUS
 62
     7
100
AcDbVertex
100
AcDb2dVertex
 10
8.5293413674
 20
6.783654631
 30
0.0
  0
VERTEX
  5
25F
330
1E6
100
AcDbEntity
  8
0
  6
CONTINUOUS
 62
     7
100
AcDbVertex
100
AcDb2dVertex
 10
8.5143726095
 20
6.7644552531
 30
0.0
  0
VERTEX
  5
260
330
1E6
100
AcDbEntity
  8
0
  6
CONTINUOUS
 62
     7
100
AcDbVertex
100
AcDb2dVertex
 10
8.4999274415
 20
6.7446266702
 30
0.0
  0
VERTEX
  5
261
330
1E6
100
AcDbEntity
  8
0
  6
CONTINUOUS
 62
     7
100
AcDbVertex
100
AcDb2dVertex
 10
8.4860492845
 20
6.7242284851
 30
0.0
  0
VERTEX
  5
262
330
1E6
100
AcDbEntity
  8
0
  6
CONTINUOUS
 62
     7
100
AcDbVertex
100
AcDb2dVertex
 10
8.4727798551
 20
6.7033220133
 30
0.0
  0
VERTEX
  5
263
330
1E6
100
AcDbEntity
  8
0
  6
CONTINUOUS
 62
     7
100
AcDbVertex
100
AcDb2dVertex
 10
8.4601590399
 20
6.6819700977
 30
0.0
  0
VERTEX
  5
264
330
1E6
100
AcDbEntity
  8
0
  6
CONTINUOUS
 62
     7
100
AcDbVertex
100
AcDb2dVertex
 10
8.4482247762
 20
6.6602369205
 30
0.0
  0
VERTEX
  5
265
330
1E6
100
AcDbEntity
  8
0
  6
CONTINUOUS
 62
     7
100
AcDbVertex
100
AcDb2dVertex
 10
8.4370129373
 20
6.6381878097
 30
0.0
  0
VERTEX
  5
266
330
1E6
100
AcDbEntity
  8
0
  6
CONTINUOUS
 62
     7
100
AcDbVertex
100
AcDb2dVertex
 10
8.4265572251
 20
6.6158890431
 30
0.0
  0
VERTEX
  5
267
330
1E6
100
AcDbEntity
  8
0
  6
CONTINUOUS
 62
     7
100
AcDbVertex
100
AcDb2dVertex
 10
8.4168890685
 20
6.5934076489
 30
0.0
  0
VERTEX
  5
268
330
1E6
100
AcDbEntity
  8
0
  6
CONTINUOUS
 62
     7
100
AcDbVertex
100
AcDb2dVertex
 10
8.4080375293
 20
6.5708112044
 30
0.0
  0
VERTEX
  5
269
330
1E6
100
AcDbEntity
  8
0
  6
CONTINUOUS
 62
     7
100
AcDbVertex
100
AcDb2dVertex
 10
8.4000292144
 20
6.5481676325
 30
0.0
  0
VERTEX
  5
26A
330
1E6
100
AcDbEntity
  8
0
  6
CONTINUOUS
 62
     7
100
AcDbVertex
100
AcDb2dVertex
 10
8.3928881961
 20
6.5255449979
 30
0.0
  0
VERTEX
  5
26B
330
1E6
100
AcDbEntity
  8
0
  6
CONTINUOUS
 62
     7
100
AcDbVertex
100
AcDb2dVertex
 10
8.3866359398
 20
6.5030113024
 30
0.0
  0
VERTEX
  5
26C
330
1E6
100
AcDbEntity
  8
0
  6
CONTINUOUS
 62
     7
100
AcDbVertex
100
AcDb2dVertex
 10
8.3812912391
 20
6.4806342804
 30
0.0
  0
VERTEX
  5
26D
330
1E6
100
AcDbEntity
  8
0
  6
CONTINUOUS
 62
     7
100
AcDbVertex
100
AcDb2dVertex
 10
8.3768701599
 20
6.4584811952
 30
0.0
  0
VERTEX
  5
26E
330
1E6
100
AcDbEntity
  8
0
  6
CONTINUOUS
 62
     7
100
AcDbVertex
100
AcDb2dVertex
 10
8.3733859915
 20
6.4366186373
 30
0.0
  0
VERTEX
  5
26F
330
1E6
100
AcDbEntity
  8
0
  6
CONTINUOUS
 62
     7
100
AcDbVertex
100
AcDb2dVertex
 10
8.370849207
 20
6.4151123235
 30
0.0
  0
VERTEX
  5
270
330
1E6
100
AcDbEntity
  8
0
  6
CONTINUOUS
 62
     7
100
AcDbVertex
100
AcDb2dVertex
 10
8.3692674318
 20
6.3940269002
 30
0.0
  0
VERTEX
  5
271
330
1E6
100
AcDbEntity
  8
0
  6
CONTINUOUS
 62
     7
100
AcDbVertex
100
AcDb2dVertex
 10
8.3686454206
 20
6.3734257483
 30
0.0
  0
VERTEX
  5
272
330
1E6
100
AcDbEntity
  8
0
  6
CONTINUOUS
 62
     7
100
AcDbVertex
100
AcDb2dVertex
 10
8.3689850431
 20
6.3533707932
 30
0.0
  0
VERTEX
  5
273
330
1E6
100
AcDbEntity
  8
0
  6
CONTINUOUS
 62
     7
100
AcDbVertex
100
AcDb2dVertex
 10
8.3702852784
 20
6.3339223183
 30
0.0
  0
VERTEX
  5
274
330
1E6
100
AcDbEntity
  8
0
  6
CONTINUOUS
 62
     7
100
AcDbVertex
100
AcDb2dVertex
 10
8.3725422181
 20
6.3151387842
 30
0.0
  0
VERTEX
  5
275
330
1E6
100
AcDbEntity
  8
0
  6
CONTINUOUS
 62
     7
100
AcDbVertex
100
AcDb2dVertex
 10
8.375749078
 20
6.2970766525
 30
0.0
  0
VERTEX
  5
276
330
1E6
100
AcDbEntity
  8
0
  6
CONTINUOUS
 62
     7
100
AcDbVertex
100
AcDb2dVertex
 10
8.3798962186
 20
6.2797902166
 30
0.0
  0
VERTEX
  5
277
330
1E6
100
AcDbEntity
  8
0
  6
CONTINUOUS
 62
     7
100
AcDbVertex
100
AcDb2dVertex
 10
8.384971174
 20
6.2633314379
 30
0.0
  0
VERTEX
  5
278
330
1E6
100
AcDbEntity
  8
0
  6
CONTINUOUS
 62
     7
100
AcDbVertex
100
AcDb2dVertex
 10
8.3909586892
 20
6.2477497903
 30
0.0
  0
VERTEX
  5
279
330
1E6
100
AcDbEntity
  8
0
  6
CONTINUOUS
 62
     7
100
AcDbVertex
100
AcDb2dVertex
 10
8.3978407663
 20
6.2330921108
 30
0.0
  0
VERTEX
  5
27A
330
1E6
100
AcDbEntity
  8
0
  6
CONTINUOUS
 62
     7
100
AcDbVertex
100
AcDb2dVertex
 10
8.4055967183
 20
6.2194024591
 30
0.0
  0
VERTEX
  5
27B
330
1E6
100
AcDbEntity
  8
0
  6
CONTINUOUS
 62
     7
100
AcDbVertex
100
AcDb2dVertex
 10
8.4142032315
 20
6.2067219853
 30
0.0
  0
VERTEX
  5
27C
330
1E6
100
AcDbEntity
  8
0
  6
CONTINUOUS
 62
     7
100
AcDbVertex
100
AcDb2dVertex
 10
8.4236344354
 20
6.1950888058
 30
0.0
  0
VERTEX
  5
27D
330
1E6
100
AcDbEntity
  8
0
  6
CONTINUOUS
 62
     7
100
AcDbVertex
100
AcDb2dVertex
 10
8.4338619807
 20
6.1845378889
 30
0.0
  0
VERTEX
  5
27E
330
1E6
100
AcDbEntity
  8
0
  6
CONTINUOUS
 62
     7
100
AcDbVertex
100
AcDb2dVertex
 10
8.4448551241
 20
6.1751009498
 30
0.0
  0
VERTEX
  5
27F
330
1E6
100
AcDbEntity
  8
0
  6
CONTINUOUS
 62
     7
100
AcDbVertex
100
AcDb2dVertex
 10
8.4565808212
 20
6.1668063551
 30
0.0
  0
VERTEX
  5
280
330
1E6
100
AcDbEntity
  8
0
  6
CONTINUOUS
 62
     7
100
AcDbVertex
100
AcDb2dVertex
 10
8.4690038257
 20
6.1596790378
 30
0.0
  0
VERTEX
  5
281
330
1E6
100
AcDbEntity
  8
0
  6
CONTINUOUS
 62
     7
100
AcDbVertex
100
AcDb2dVertex
 10
8.4820867948
 20
6.1537404218
 30
0.0
  0
VERTEX
  5
282
330
1E6
100
AcDbEntity
  8
0
  6
CONTINUOUS
 62
     7
100
AcDbVertex
100
AcDb2dVertex
 10
8.4957904024
 20
6.1490083583
 30
0.0
  0
VERTEX
  5
283
330
1E6
100
AcDbEntity
  8
0
  6
CONTINUOUS
 62
     7
100
AcDbVertex
100
AcDb2dVertex
 10
8.5100734565
 20
6.1454970713
 30
0.0
  0
VERTEX
  5
284
330
1E6
100
AcDbEntity
  8
0
  6
CONTINUOUS
 62
     7
100
AcDbVertex
100
AcDb2dVertex
 10
8.5248930236
 20
6.1432171156
 30
0.0
  0
VERTEX
  5
285
330
1E6
100
AcDbEntity
  8
0
  6
CONTINUOUS
 62
     7
100
AcDbVertex
100
AcDb2dVertex
 10
8.5402045571
 20
6.1421753444
 30
0.0
  0
VERTEX
  5
286
330
1E6
100
AcDbEntity
  8
0
  6
CONTINUOUS
 62
     7
100
AcDbVertex
100
AcDb2dVertex
 10
8.555962032
 20
6.1423748893
 30
0.0
  0
VERTEX
  5
287
330
1E6
100
AcDbEntity
  8
0
  6
CONTINUOUS
 62
     7
100
AcDbVertex
100
AcDb2dVertex
 10
8.5721180825
 20
6.1438151504
 30
0.0
  0
VERTEX
  5
288
330
1E6
100
AcDbEntity
  8
0
  6
CONTINUOUS
 62
     7
100
AcDbVertex
100
AcDb2dVertex
 10
8.588624145
 20
6.1464917985
 30
0.0
  0
VERTEX
  5
289
330
1E6
100
AcDbEntity
  8
0
  6
CONTINUOUS
 62
     7
100
AcDbVertex
100
AcDb2dVertex
 10
8.6054306036
 20
6.1503967877
 30
0.0
  0
VERTEX
  5
28A
330
1E6
100
AcDbEntity
  8
0
  6
CONTINUOUS
 62
     7
100
AcDbVertex
100
AcDb2dVertex
 10
8.6224869395
 20
6.15551838
 30
0.0
  0
VERTEX
  5
28B
330
1E6
100
AcDbEntity
  8
0
  6
CONTINUOUS
 62
     7
100
AcDbVertex
100
AcDb2dVertex
 10
8.6397418827
 20
6.1618411803
 30
0.0
  0
VERTEX
  5
28C
330
1E6
100
AcDbEntity
  8
0
  6
CONTINUOUS
 62
     7
100
AcDbVertex
100
AcDb2dVertex
 10
8.6571435665
 20
6.1693461827
 30
0.0
  0
VERTEX
  5
28D
330
1E6
100
AcDbEntity
  8
0
  6
CONTINUOUS
 62
     7
100
AcDbVertex
100
AcDb2dVertex
 10
8.6746396828
 20
6.178010828
 30
0.0
  0
SEQEND
  5
28E
330
1E6
100
AcDbEntity
  8
0
  6
CONTINUOUS
 62
     7
  0
LINE
  5
1E7
330
1F
100
AcDbEntity
  8
0
  6
CONTINUOUS
 62
     7
100
AcDbLine
 10
8.6604975471
 20
6.16982927
 30
0.0
 11
8.6746396828
 21
6.178010828
 31
0.0
  0
POLYLINE
  5
1E8
330
1F
100
AcDbEntity
  8
0
  6
CONTINUOUS
 62
     7
100
AcDb2dPolyline
 66
     1
 10
0.0
 20
0.0
 30
0.0
  0
VERTEX
  5
28F
330
1E8
100
AcDbEntity
  8
0
  6
CONTINUOUS
 62
     7
100
AcDbVertex
100
AcDb2dVertex
 10
8.6604975471
 20
6.16982927
 30
0.0
  0
VERTEX
  5
290
330
1E8
100
AcDbEntity
  8
0
  6
CONTINUOUS
 62
     7
100
AcDbVertex
100
AcDb2dVertex
 10
8.6426866544
 20
6.1609563101
 30
0.0
  0
VERTEX
  5
291
330
1E8
100
AcDbEntity
  8
0
  6
CONTINUOUS
 62
     7
100
AcDbVertex
100
AcDb2dVertex
 10
8.6249663797
 20
6.153232387
 30
0.0
  0
VERTEX
  5
292
330
1E8
100
AcDbEntity
  8
0
  6
CONTINUOUS
 62
     7
100
AcDbVertex
100
AcDb2dVertex
 10
8.6073873299
 20
6.1466795593
 30
0.0
  0
VERTEX
  5
293
330
1E8
100
AcDbEntity
  8
0
  6
CONTINUOUS
 62
     7
100
AcDbVertex
100
AcDb2dVertex
 10
8.5899997087
 20
6.1413165411
 30
0.0
  0
VERTEX
  5
294
330
1E8
100
AcDbEntity
  8
0
  6
CONTINUOUS
 62
     7
100
AcDbVertex
100
AcDb2dVertex
 10
8.5728531731
 20
6.1371586485
 30
0.0
  0
VERTEX
  5
295
330
1E8
100
AcDbEntity
  8
0
  6
CONTINUOUS
 62
     7
100
AcDbVertex
100
AcDb2dVertex
 10
8.5559966914
 20
6.1342177559
 30
0.0
  0
VERTEX
  5
296
330
1E8
100
AcDbEntity
  8
0
  6
CONTINUOUS
 62
     7
100
AcDbVertex
100
AcDb2dVertex
 10
8.5394784038
 20
6.1325022623
 30
0.0
  0
VERTEX
  5
297
330
1E8
100
AcDbEntity
  8
0
  6
CONTINUOUS
 62
     7
100
AcDbVertex
100
AcDb2dVertex
 10
8.5233454845
 20
6.1320170669
 30
0.0
  0
VERTEX
  5
298
330
1E8
100
AcDbEntity
  8
0
  6
CONTINUOUS
 62
     7
100
AcDbVertex
100
AcDb2dVertex
 10
8.5076440071
 20
6.1327635552
 30
0.0
  0
VERTEX
  5
299
330
1E8
100
AcDbEntity
  8
0
  6
CONTINUOUS
 62
     7
100
AcDbVertex
100
AcDb2dVertex
 10
8.4924188133
 20
6.1347395955
 30
0.0
  0
VERTEX
  5
29A
330
1E8
100
AcDbEntity
  8
0
  6
CONTINUOUS
 62
     7
100
AcDbVertex
100
AcDb2dVertex
 10
8.4777133843
 20
6.1379395443
 30
0.0
  0
VERTEX
  5
29B
330
1E8
100
AcDbEntity
  8
0
  6
CONTINUOUS
 62
     7
100
AcDbVertex
100
AcDb2dVertex
 10
8.4635697171
 20
6.1423542631
 30
0.0
  0
VERTEX
  5
29C
330
1E8
100
AcDbEntity
  8
0
  6
CONTINUOUS
 62
     7
100
AcDbVertex
100
AcDb2dVertex
 10
8.4500282043
 20
6.1479711439
 30
0.0
  0
VERTEX
  5
29D
330
1E8
100
AcDbEntity
  8
0
  6
CONTINUOUS
 62
     7
100
AcDbVertex
100
AcDb2dVertex
 10
8.4371275188
 20
6.1547741456
 30
0.0
  0
VERTEX
  5
29E
330
1E8
100
AcDbEntity
  8
0
  6
CONTINUOUS
 62
     7
100
AcDbVertex
100
AcDb2dVertex
 10
8.4249045034
 20
6.1627438396
 30
0.0
  0
VERTEX
  5
29F
330
1E8
100
AcDbEntity
  8
0
  6
CONTINUOUS
 62
     7
100
AcDbVertex
100
AcDb2dVertex
 10
8.4133940655
 20
6.1718574654
 30
0.0
  0
VERTEX
  5
2A0
330
1E8
100
AcDbEntity
  8
0
  6
CONTINUOUS
 62
     7
100
AcDbVertex
100
AcDb2dVertex
 10
8.4026290777
 20
6.1820889957
 30
0.0
  0
VERTEX
  5
2A1
330
1E8
100
AcDbEntity
  8
0
  6
CONTINUOUS
 62
     7
100
AcDbVertex
100
AcDb2dVertex
 10
8.3926402833
 20
6.1934092104
 30
0.0
  0
VERTEX
  5
2A2
330
1E8
100
AcDbEntity
  8
0
  6
CONTINUOUS
 62
     7
100
AcDbVertex
100
AcDb2dVertex
 10
8.3834562093
 20
6.2057857803
 30
0.0
  0
VERTEX
  5
2A3
330
1E8
100
AcDbEntity
  8
0
  6
CONTINUOUS
 62
     7
100
AcDbVertex
100
AcDb2dVertex
 10
8.3751030842
 20
6.2191833595
 30
0.0
  0
VERTEX
  5
2A4
330
1E8
100
AcDbEntity
  8
0
  6
CONTINUOUS
 62
     7
100
AcDbVertex
100
AcDb2dVertex
 10
8.3676047635
 20
6.233563686
 30
0.0
  0
VERTEX
  5
2A5
330
1E8
100
AcDbEntity
  8
0
  6
CONTINUOUS
 62
     7
100
AcDbVertex
100
AcDb2dVertex
 10
8.3609826615
 20
6.2488856914
 30
0.0
  0
VERTEX
  5
2A6
330
1E8
100
AcDbEntity
  8
0
  6
CONTINUOUS
 62
     7
100
AcDbVertex
100
AcDb2dVertex
 10
8.3552556902
 20
6.2651056179
 30
0.0
  0
VERTEX
  5
2A7
330
1E8
100
AcDbEntity
  8
0
  6
CONTINUOUS
 62
     7
100
AcDbVertex
100
AcDb2dVertex
 10
8.3504402051
 20
6.2821771434
 30
0.0
  0
VERTEX
  5
2A8
330
1E8
100
AcDbEntity
  8
0
  6
CONTINUOUS
 62
     7
100
AcDbVertex
100
AcDb2dVertex
 10
8.3465499587
 20
6.3000515135
 30
0.0
  0
VERTEX
  5
2A9
330
1E8
100
AcDbEntity
  8
0
  6
CONTINUOUS
 62
     7
100
AcDbVertex
100
AcDb2dVertex
 10
8.3435960609
 20
6.3186776813
 30
0.0
  0
VERTEX
  5
2AA
330
1E8
100
AcDbEntity
  8
0
  6
CONTINUOUS
 62
     7
100
AcDbVertex
100
AcDb2dVertex
 10
8.3415869479
 20
6.3380024526
 30
0.0
  0
VERTEX
  5
2AB
330
1E8
100
AcDbEntity
  8
0
  6
CONTINUOUS
 62
     7
100
AcDbVertex
100
AcDb2dVertex
 10
8.3405283574
 20
6.3579706383
 30
0.0
  0
VERTEX
  5
2AC
330
1E8
100
AcDbEntity
  8
0
  6
CONTINUOUS
 62
     7
100
AcDbVertex
100
AcDb2dVertex
 10
8.3404233125
 20
6.3785252116
 30
0.0
  0
VERTEX
  5
2AD
330
1E8
100
AcDbEntity
  8
0
  6
CONTINUOUS
 62
     7
100
AcDbVertex
100
AcDb2dVertex
 10
8.3412721133
 20
6.3996074712
 30
0.0
  0
VERTEX
  5
2AE
330
1E8
100
AcDbEntity
  8
0
  6
CONTINUOUS
 62
     7
100
AcDbVertex
100
AcDb2dVertex
 10
8.3430723357
 20
6.4211572085
 30
0.0
  0
VERTEX
  5
2AF
330
1E8
100
AcDbEntity
  8
0
  6
CONTINUOUS
 62
     7
100
AcDbVertex
100
AcDb2dVertex
 10
8.3458188386
 20
6.4431128802
 30
0.0
  0
VERTEX
  5
2B0
330
1E8
100
AcDbEntity
  8
0
  6
CONTINUOUS
 62
     7
100
AcDbVertex
100
AcDb2dVertex
 10
8.3495037781
 20
6.4654117836
 30
0.0
  0
VERTEX
  5
2B1
330
1E8
100
AcDbEntity
  8
0
  6
CONTINUOUS
 62
     7
100
AcDbVertex
100
AcDb2dVertex
 10
8.3541166306
 20
6.4879902355
 30
0.0
  0
VERTEX
  5
2B2
330
1E8
100
AcDbEntity
  8
0
  6
CONTINUOUS
 62
     7
100
AcDbVertex
100
AcDb2dVertex
 10
8.3596442223
 20
6.5107837548
 30
0.0
  0
VERTEX
  5
2B3
330
1E8
100
AcDbEntity
  8
0
  6
CONTINUOUS
 62
     7
100
AcDbVertex
100
AcDb2dVertex
 10
8.3660707671
 20
6.5337272458
 30
0.0
  0
VERTEX
  5
2B4
330
1E8
100
AcDbEntity
  8
0
  6
CONTINUOUS
 62
     7
100
AcDbVertex
100
AcDb2dVertex
 10
8.3733779116
 20
6.5567551847
 30
0.0
  0
VERTEX
  5
2B5
330
1E8
100
AcDbEntity
  8
0
  6
CONTINUOUS
 62
     7
100
AcDbVertex
100
AcDb2dVertex
 10
8.3815447873
 20
6.5798018064
 30
0.0
  0
VERTEX
  5
2B6
330
1E8
100
AcDbEntity
  8
0
  6
CONTINUOUS
 62
     7
100
AcDbVertex
100
AcDb2dVertex
 10
8.3905480708
 20
6.6028012927
 30
0.0
  0
VERTEX
  5
2B7
330
1E8
100
AcDbEntity
  8
0
  6
CONTINUOUS
 62
     7
100
AcDbVertex
100
AcDb2dVertex
 10
8.4003620497
 20
6.6256879597
 30
0.0
  0
VERTEX
  5
2B8
330
1E8
100
AcDbEntity
  8
0
  6
CONTINUOUS
 62
     7
100
AcDbVertex
100
AcDb2dVertex
 10
8.4109586964
 20
6.6483964458
 30
0.0
  0
VERTEX
  5
2B9
330
1E8
100
AcDbEntity
  8
0
  6
CONTINUOUS
 62
     7
100
AcDbVertex
100
AcDb2dVertex
 10
8.4223077483
 20
6.6708618985
 30
0.0
  0
VERTEX
  5
2BA
330
1E8
100
AcDbEntity
  8
0
  6
CONTINUOUS
 62
     7
100
AcDbVertex
100
AcDb2dVertex
 10
8.4343767937
 20
6.6930201589
 30
0.0
  0
VERTEX
  5
2BB
330
1E8
100
AcDbEntity
  8
0
  6
CONTINUOUS
 62
     7
100
AcDbVertex
100
AcDb2dVertex
 10
8.447131365
 20
6.7148079459
 30
0.0
  0
VERTEX
  5
2BC
330
1E8
100
AcDbEntity
  8
0
  6
CONTINUOUS
 62
     7
100
AcDbVertex
100
AcDb2dVertex
 10
8.4605350366
 20
6.7361630361
 30
0.0
  0
VERTEX
  5
2BD
330
1E8
100
AcDbEntity
  8
0
  6
CONTINUOUS
 62
     7
100
AcDbVertex
100
AcDb2dVertex
 10
8.4745495293
 20
6.7570244419
 30
0.0
  0
VERTEX
  5
2BE
330
1E8
100
AcDbEntity
  8
0
  6
CONTINUOUS
 62
     7
100
AcDbVertex
100
AcDb2dVertex
 10
8.4891348194
 20
6.7773325857
 30
0.0
  0
VERTEX
  5
2BF
330
1E8
100
AcDbEntity
  8
0
  6
CONTINUOUS
 62
     7
100
AcDbVertex
100
AcDb2dVertex
 10
8.504249253
 20
6.7970294699
 30
0.0
  0
VERTEX
  5
2C0
330
1E8
100
AcDbEntity
  8
0
  6
CONTINUOUS
 62
     7
100
AcDbVertex
100
AcDb2dVertex
 10
8.5198496651
 20
6.8160588425
 30
0.0
  0
VERTEX
  5
2C1
330
1E8
100
AcDbEntity
  8
0
  6
CONTINUOUS
 62
     7
100
AcDbVertex
100
AcDb2dVertex
 10
8.5358915028
 20
6.834366358
 30
0.0
  0
VERTEX
  5
2C2
330
1E8
100
AcDbEntity
  8
0
  6
CONTINUOUS
 62
     7
100
AcDbVertex
100
AcDb2dVertex
 10
8.5523289526
 20
6.8518997322
 30
0.0
  0
VERTEX
  5
2C3
330
1E8
100
AcDbEntity
  8
0
  6
CONTINUOUS
 62
     7
100
AcDbVertex
100
AcDb2dVertex
 10
8.569115071
 20
6.868608892
 30
0.0
  0
VERTEX
  5
2C4
330
1E8
100
AcDbEntity
  8
0
  6
CONTINUOUS
 62
     7
100
AcDbVertex
100
AcDb2dVertex
 10
8.586201919
 20
6.8844461181
 30
0.0
  0
VERTEX
  5
2C5
330
1E8
100
AcDbEntity
  8
0
  6
CONTINUOUS
 62
     7
100
AcDbVertex
100
AcDb2dVertex
 10
8.6035406986
 20
6.8993661812
 30
0.0
  0
VERTEX
  5
2C6
330
1E8
100
AcDbEntity
  8
0
  6
CONTINUOUS
 62
     7
100
AcDbVertex
100
AcDb2dVertex
 10
8.6210818923
 20
6.9133264713
 30
0.0
  0
VERTEX
  5
2C7
330
1E8
100
AcDbEntity
  8
0
  6
CONTINUOUS
 62
     7
100
AcDbVertex
100
AcDb2dVertex
 10
8.6387754046
 20
6.9262871197
 30
0.0
  0
VERTEX
  5
2C8
330
1E8
100
AcDbEntity
  8
0
  6
CONTINUOUS
 62
     7
100
AcDbVertex
100
AcDb2dVertex
 10
8.6565707049
 20
6.9382111122
 30
0.0
  0
VERTEX
  5
2C9
330
1E8
100
AcDbEntity
  8
0
  6
CONTINUOUS
 62
     7
100
AcDbVertex
100
AcDb2dVertex
 10
8.674416972
 20
6.9490643954
 30
0.0
  0
VERTEX
  5
2CA
330
1E8
100
AcDbEntity
  8
0
  6
CONTINUOUS
 62
     7
100
AcDbVertex
100
AcDb2dVertex
 10
8.692263239
 20
6.9588159736
 30
0.0
  0
VERTEX
  5
2CB
330
1E8
100
AcDbEntity
  8
0
  6
CONTINUOUS
 62
     7
100
AcDbVertex
100
AcDb2dVertex
 10
8.7100585393
 20
6.9674379975
 30
0.0
  0
VERTEX
  5
2CC
330
1E8
100
AcDbEntity
  8
0
  6
CONTINUOUS
 62
     7
100
AcDbVertex
100
AcDb2dVertex
 10
8.7277520516
 20
6.9749058435
 30
0.0
  0
VERTEX
  5
2CD
330
1E8
100
AcDbEntity
  8
0
  6
CONTINUOUS
 62
     7
100
AcDbVertex
100
AcDb2dVertex
 10
8.7452932453
 20
6.9811981845
 30
0.0
  0
VERTEX
  5
2CE
330
1E8
100
AcDbEntity
  8
0
  6
CONTINUOUS
 62
     7
100
AcDbVertex
100
AcDb2dVertex
 10
8.7626320249
 20
6.9862970502
 30
0.0
  0
VERTEX
  5
2CF
330
1E8
100
AcDbEntity
  8
0
  6
CONTINUOUS
 62
     7
100
AcDbVertex
100
AcDb2dVertex
 10
8.7797188729
 20
6.990187879
 30
0.0
  0
VERTEX
  5
2D0
330
1E8
100
AcDbEntity
  8
0
  6
CONTINUOUS
 62
     7
100
AcDbVertex
100
AcDb2dVertex
 10
8.7965049914
 20
6.992859559
 30
0.0
  0
VERTEX
  5
2D1
330
1E8
100
AcDbEntity
  8
0
  6
CONTINUOUS
 62
     7
100
AcDbVertex
100
AcDb2dVertex
 10
8.8129424411
 20
6.9943044603
 30
0.0
  0
VERTEX
  5
2D2
330
1E8
100
AcDbEntity
  8
0
  6
CONTINUOUS
 62
     7
100
AcDbVertex
100
AcDb2dVertex
 10
8.8289842788
 20
6.9945184564
 30
0.0
  0
VERTEX
  5
2D3
330
1E8
100
AcDbEntity
  8
0
  6
CONTINUOUS
 62
     7
100
AcDbVertex
100
AcDb2dVertex
 10
8.8445846909
 20
6.9935009362
 30
0.0
  0
VERTEX
  5
2D4
330
1E8
100
AcDbEntity
  8
0
  6
CONTINUOUS
 62
     7
100
AcDbVertex
100
AcDb2dVertex
 10
8.8596991245
 20
6.9912548056
 30
0.0
  0
VERTEX
  5
2D5
330
1E8
100
AcDbEntity
  8
0
  6
CONTINUOUS
 62
     7
100
AcDbVertex
100
AcDb2dVertex
 10
8.8742844146
 20
6.9877864792
 30
0.0
  0
VERTEX
  5
2D6
330
1E8
100
AcDbEntity
  8
0
  6
CONTINUOUS
 62
     7
100
AcDbVertex
100
AcDb2dVertex
 10
8.8882989073
 20
6.9831058623
 30
0.0
  0
VERTEX
  5
2D7
330
1E8
100
AcDbEntity
  8
0
  6
CONTINUOUS
 62
     7
100
AcDbVertex
100
AcDb2dVertex
 10
8.9017025789
 20
6.9772263219
 30
0.0
  0
VERTEX
  5
2D8
330
1E8
100
AcDbEntity
  8
0
  6
CONTINUOUS
 62
     7
100
AcDbVertex
100
AcDb2dVertex
 10
8.9144571502
 20
6.9701646495
 30
0.0
  0
VERTEX
  5
2D9
330
1E8
100
AcDbEntity
  8
0
  6
CONTINUOUS
 62
     7
100
AcDbVertex
100
AcDb2dVertex
 10
8.9265261957
 20
6.9619410124
 30
0.0
  0
VERTEX
  5
2DA
330
1E8
100
AcDbEntity
  8
0
  6
CONTINUOUS
 62
     7
100
AcDbVertex
100
AcDb2dVertex
 10
8.9378752475
 20
6.9525788961
 30
0.0
  0
VERTEX
  5
2DB
330
1E8
100
AcDbEntity
  8
0
  6
CONTINUOUS
 62
     7
100
AcDbVertex
100
AcDb2dVertex
 10
8.9484718942
 20
6.9421050378
 30
0.0
  0
VERTEX
  5
2DC
330
1E8
100
AcDbEntity
  8
0
  6
CONTINUOUS
 62
     7
100
AcDbVertex
100
AcDb2dVertex
 10
8.9582858731
 20
6.9305493497
 30
0.0
  0
VERTEX
  5
2DD
330
1E8
100
AcDbEntity
  8
0
  6
CONTINUOUS
 62
     7
100
AcDbVertex
100
AcDb2dVertex
 10
8.9672891566
 20
6.9179448332
 30
0.0
  0
VERTEX
  5
2DE
330
1E8
100
AcDbEntity
  8
0
  6
CONTINUOUS
 62
     7
100
AcDbVertex
100
AcDb2dVertex
 10
8.9754560323
 20
6.9043274855
 30
0.0
  0
VERTEX
  5
2DF
330
1E8
100
AcDbEntity
  8
0
  6
CONTINUOUS
 62
     7
100
AcDbVertex
100
AcDb2dVertex
 10
8.9827631768
 20
6.889736196
 30
0.0
  0
VERTEX
  5
2E0
330
1E8
100
AcDbEntity
  8
0
  6
CONTINUOUS
 62
     7
100
AcDbVertex
100
AcDb2dVertex
 10
8.9891897216
 20
6.8742126357
 30
0.0
  0
VERTEX
  5
2E1
330
1E8
100
AcDbEntity
  8
0
  6
CONTINUOUS
 62
     7
100
AcDbVertex
100
AcDb2dVertex
 10
8.9947173133
 20
6.857801138
 30
0.0
  0
VERTEX
  5
2E2
330
1E8
100
AcDbEntity
  8
0
  6
CONTINUOUS
 62
     7
100
AcDbVertex
100
AcDb2dVertex
 10
8.9993301658
 20
6.8405485722
 30
0.0
  0
VERTEX
  5
2E3
330
1E8
100
AcDbEntity
  8
0
  6
CONTINUOUS
 62
     7
100
AcDbVertex
100
AcDb2dVertex
 10
9.0030151053
 20
6.8225042095
 30
0.0
  0
VERTEX
  5
2E4
330
1E8
100
AcDbEntity
  8
0
  6
CONTINUOUS
 62
     7
100
AcDbVertex
100
AcDb2dVertex
 10
9.0057616082
 20
6.8037195824
 30
0.0
  0
VERTEX
  5
2E5
330
1E8
100
AcDbEntity
  8
0
  6
CONTINUOUS
 62
     7
100
AcDbVertex
100
AcDb2dVertex
 10
9.0075618306
 20
6.7842483376
 30
0.0
  0
VERTEX
  5
2E6
330
1E8
100
AcDbEntity
  8
0
  6
CONTINUOUS
 62
     7
100
AcDbVertex
100
AcDb2dVertex
 10
9.0084106314
 20
6.7641460827
 30
0.0
  0
VERTEX
  5
2E7
330
1E8
100
AcDbEntity
  8
0
  6
CONTINUOUS
 62
     7
100
AcDbVertex
100
AcDb2dVertex
 10
9.0084831678
 20
6.7561493926
 30
0.0
  0
SEQEND
  5
2E8
330
1E8
100
AcDbEntity
  8
0
  6
CONTINUOUS
 62
     7
  0
LINE
  5
1E9
330
1F
100
AcDbEntity
  8
0
  6
CONTINUOUS
 62
     7
100
AcDbLine
 10
8.6883363968
 20
6.1859002959
 30
0.0
 11
8.7024785324
 21
6.1940818539
 31
0.0
  0
POLYLINE
  5
1EA
330
1F
100
AcDbEntity
  8
0
  6
CONTINUOUS
 62
     7
100
AcDb2dPolyline
 66
     1
 10
0.0
 20
0.0
 30
0.0
  0
VERTEX
  5
2E9
330
1EA
100
AcDbEntity
  8
0
  6
CONTINUOUS
 62
     7
100
AcDbVertex
100
AcDb2dVertex
 10
7.9088650815
 20
7.5507538188
 30
0.0
  0
VERTEX
  5
2EA
330
1EA
100
AcDbEntity
  8
0
  6
CONTINUOUS
 62
     7
100
AcDbVertex
100
AcDb2dVertex
 10
7.9078104382
 20
7.5513572395
 30
0.0
  0
VERTEX
  5
2EB
330
1EA
100
AcDbEntity
  8
0
  6
CONTINUOUS
 62
     7
100
AcDbVertex
100
AcDb2dVertex
 10
7.8947983401
 20
7.5579602022
 30
0.0
  0
VERTEX
  5
2EC
330
1EA
100
AcDbEntity
  8
0
  6
CONTINUOUS
 62
     7
100
AcDbVertex
100
AcDb2dVertex
 10
7.8811518525
 20
7.5633740814
 30
0.0
  0
VERTEX
  5
2ED
330
1EA
100
AcDbEntity
  8
0
  6
CONTINUOUS
 62
     7
100
AcDbVertex
100
AcDb2dVertex
 10
7.8669099481
 20
7.5675834156
 30
0.0
  0
VERTEX
  5
2EE
330
1EA
100
AcDbEntity
  8
0
  6
CONTINUOUS
 62
     7
100
AcDbVertex
100
AcDb2dVertex
 10
7.8521133002
 20
7.5705761836
 30
0.0
  0
VERTEX
  5
2EF
330
1EA
100
AcDbEntity
  8
0
  6
CONTINUOUS
 62
     7
100
AcDbVertex
100
AcDb2dVertex
 10
7.8368041661
 20
7.5723438383
 30
0.0
  0
VERTEX
  5
2F0
330
1EA
100
AcDbEntity
  8
0
  6
CONTINUOUS
 62
     7
100
AcDbVertex
100
AcDb2dVertex
 10
7.8210262669
 20
7.5728813316
 30
0.0
  0
VERTEX
  5
2F1
330
1EA
100
AcDbEntity
  8
0
  6
CONTINUOUS
 62
     7
100
AcDbVertex
100
AcDb2dVertex
 10
7.8048246623
 20
7.5721871283
 30
0.0
  0
VERTEX
  5
2F2
330
1EA
100
AcDbEntity
  8
0
  6
CONTINUOUS
 62
     7
100
AcDbVertex
100
AcDb2dVertex
 10
7.7882456223
 20
7.5702632112
 30
0.0
  0
VERTEX
  5
2F3
330
1EA
100
AcDbEntity
  8
0
  6
CONTINUOUS
 62
     7
100
AcDbVertex
100
AcDb2dVertex
 10
7.7713364945
 20
7.5671150745
 30
0.0
  0
VERTEX
  5
2F4
330
1EA
100
AcDbEntity
  8
0
  6
CONTINUOUS
 62
     7
100
AcDbVertex
100
AcDb2dVertex
 10
7.7541455694
 20
7.5627517092
 30
0.0
  0
VERTEX
  5
2F5
330
1EA
100
AcDbEntity
  8
0
  6
CONTINUOUS
 62
     7
100
AcDbVertex
100
AcDb2dVertex
 10
7.7367219422
 20
7.5571855763
 30
0.0
  0
VERTEX
  5
2F6
330
1EA
100
AcDbEntity
  8
0
  6
CONTINUOUS
 62
     7
100
AcDbVertex
100
AcDb2dVertex
 10
7.7191153726
 20
7.5504325721
 30
0.0
  0
VERTEX
  5
2F7
330
1EA
100
AcDbEntity
  8
0
  6
CONTINUOUS
 62
     7
100
AcDbVertex
100
AcDb2dVertex
 10
7.701376143
 20
7.5425119824
 30
0.0
  0
VERTEX
  5
2F8
330
1EA
100
AcDbEntity
  8
0
  6
CONTINUOUS
 62
     7
100
AcDbVertex
100
AcDb2dVertex
 10
7.6835549144
 20
7.5334464274
 30
0.0
  0
VERTEX
  5
2F9
330
1EA
100
AcDbEntity
  8
0
  6
CONTINUOUS
 62
     7
100
AcDbVertex
100
AcDb2dVertex
 10
7.6657025821
 20
7.5232617973
 30
0.0
  0
VERTEX
  5
2FA
330
1EA
100
AcDbEntity
  8
0
  6
CONTINUOUS
 62
     7
100
AcDbVertex
100
AcDb2dVertex
 10
7.6478701302
 20
7.5119871781
 30
0.0
  0
VERTEX
  5
2FB
330
1EA
100
AcDbEntity
  8
0
  6
CONTINUOUS
 62
     7
100
AcDbVertex
100
AcDb2dVertex
 10
7.6301084861
 20
7.4996547688
 30
0.0
  0
VERTEX
  5
2FC
330
1EA
100
AcDbEntity
  8
0
  6
CONTINUOUS
 62
     7
100
AcDbVertex
100
AcDb2dVertex
 10
7.6124683749
 20
7.4862997892
 30
0.0
  0
VERTEX
  5
2FD
330
1EA
100
AcDbEntity
  8
0
  6
CONTINUOUS
 62
     7
100
AcDbVertex
100
AcDb2dVertex
 10
7.5950001745
 20
7.4719603796
 30
0.0
  0
VERTEX
  5
2FE
330
1EA
100
AcDbEntity
  8
0
  6
CONTINUOUS
 62
     7
100
AcDbVertex
100
AcDb2dVertex
 10
7.5777537722
 20
7.4566774917
 30
0.0
  0
VERTEX
  5
2FF
330
1EA
100
AcDbEntity
  8
0
  6
CONTINUOUS
 62
     7
100
AcDbVertex
100
AcDb2dVertex
 10
7.5607784214
 20
7.4404947714
 30
0.0
  0
VERTEX
  5
300
330
1EA
100
AcDbEntity
  8
0
  6
CONTINUOUS
 62
     7
100
AcDbVertex
100
AcDb2dVertex
 10
7.5441226019
 20
7.4234584347
 30
0.0
  0
VERTEX
  5
301
330
1EA
100
AcDbEntity
  8
0
  6
CONTINUOUS
 62
     7
100
AcDbVertex
100
AcDb2dVertex
 10
7.5278338805
 20
7.4056171353
 30
0.0
  0
VERTEX
  5
302
330
1EA
100
AcDbEntity
  8
0
  6
CONTINUOUS
 62
     7
100
AcDbVertex
100
AcDb2dVertex
 10
7.511958776
 20
7.3870218259
 30
0.0
  0
VERTEX
  5
303
330
1EA
100
AcDbEntity
  8
0
  6
CONTINUOUS
 62
     7
100
AcDbVertex
100
AcDb2dVertex
 10
7.4965426257
 20
7.3677256123
 30
0.0
  0
VERTEX
  5
304
330
1EA
100
AcDbEntity
  8
0
  6
CONTINUOUS
 62
     7
100
AcDbVertex
100
AcDb2dVertex
 10
7.4816294563
 20
7.3477836023
 30
0.0
  0
VERTEX
  5
305
330
1EA
100
AcDbEntity
  8
0
  6
CONTINUOUS
 62
     7
100
AcDbVertex
100
AcDb2dVertex
 10
7.467261858
 20
7.3272527478
 30
0.0
  0
VERTEX
  5
306
330
1EA
100
AcDbEntity
  8
0
  6
CONTINUOUS
 62
     7
100
AcDbVertex
100
AcDb2dVertex
 10
7.453480863
 20
7.3061916825
 30
0.0
  0
VERTEX
  5
307
330
1EA
100
AcDbEntity
  8
0
  6
CONTINUOUS
 62
     7
100
AcDbVertex
100
AcDb2dVertex
 10
7.440325828
 20
7.2846605542
 30
0.0
  0
VERTEX
  5
308
330
1EA
100
AcDbEntity
  8
0
  6
CONTINUOUS
 62
     7
100
AcDbVertex
100
AcDb2dVertex
 10
7.4278343224
 20
7.2627208533
 30
0.0
  0
VERTEX
  5
309
330
1EA
100
AcDbEntity
  8
0
  6
CONTINUOUS
 62
     7
100
AcDbVertex
100
AcDb2dVertex
 10
7.4160420202
 20
7.2404352369
 30
0.0
  0
VERTEX
  5
30A
330
1EA
100
AcDbEntity
  8
0
  6
CONTINUOUS
 62
     7
100
AcDbVertex
100
AcDb2dVertex
 10
7.404982599
 20
7.2178673501
 30
0.0
  0
VERTEX
  5
30B
330
1EA
100
AcDbEntity
  8
0
  6
CONTINUOUS
 62
     7
100
AcDbVertex
100
AcDb2dVertex
 10
7.3946876431
 20
7.1950816439
 30
0.0
  0
VERTEX
  5
30C
330
1EA
100
AcDbEntity
  8
0
  6
CONTINUOUS
 62
     7
100
AcDbVertex
100
AcDb2dVertex
 10
7.3851865537
 20
7.1721431917
 30
0.0
  0
VERTEX
  5
30D
330
1EA
100
AcDbEntity
  8
0
  6
CONTINUOUS
 62
     7
100
AcDbVertex
100
AcDb2dVertex
 10
7.3765064647
 20
7.1491175029
 30
0.0
  0
VERTEX
  5
30E
330
1EA
100
AcDbEntity
  8
0
  6
CONTINUOUS
 62
     7
100
AcDbVertex
100
AcDb2dVertex
 10
7.3686721654
 20
7.1260703361
 30
0.0
  0
VERTEX
  5
30F
330
1EA
100
AcDbEntity
  8
0
  6
CONTINUOUS
 62
     7
100
AcDbVertex
100
AcDb2dVertex
 10
7.3617060296
 20
7.1030675112
 30
0.0
  0
VERTEX
  5
310
330
1EA
100
AcDbEntity
  8
0
  6
CONTINUOUS
 62
     7
100
AcDbVertex
100
AcDb2dVertex
 10
7.3556279518
 20
7.0801747216
 30
0.0
  0
VERTEX
  5
311
330
1EA
100
AcDbEntity
  8
0
  6
CONTINUOUS
 62
     7
100
AcDbVertex
100
AcDb2dVertex
 10
7.3504552903
 20
7.0574573462
 30
0.0
  0
VERTEX
  5
312
330
1EA
100
AcDbEntity
  8
0
  6
CONTINUOUS
 62
     7
100
AcDbVertex
100
AcDb2dVertex
 10
7.3462028174
 20
7.0349802632
 30
0.0
  0
VERTEX
  5
313
330
1EA
100
AcDbEntity
  8
0
  6
CONTINUOUS
 62
     7
100
AcDbVertex
100
AcDb2dVertex
 10
7.3428826779
 20
7.0128076644
 30
0.0
  0
VERTEX
  5
314
330
1EA
100
AcDbEntity
  8
0
  6
CONTINUOUS
 62
     7
100
AcDbVertex
100
AcDb2dVertex
 10
7.3405043536
 20
6.9910028721
 30
0.0
  0
VERTEX
  5
315
330
1EA
100
AcDbEntity
  8
0
  6
CONTINUOUS
 62
     7
100
AcDbVertex
100
AcDb2dVertex
 10
7.3390746366
 20
6.9696281581
 30
0.0
  0
VERTEX
  5
316
330
1EA
100
AcDbEntity
  8
0
  6
CONTINUOUS
 62
     7
100
AcDbVertex
100
AcDb2dVertex
 10
7.3385976102
 20
6.9487445661
 30
0.0
  0
VERTEX
  5
317
330
1EA
100
AcDbEntity
  8
0
  6
CONTINUOUS
 62
     7
100
AcDbVertex
100
AcDb2dVertex
 10
7.3390746366
 20
6.928411737
 30
0.0
  0
VERTEX
  5
318
330
1EA
100
AcDbEntity
  8
0
  6
CONTINUOUS
 62
     7
100
AcDbVertex
100
AcDb2dVertex
 10
7.3405043536
 20
6.9086877391
 30
0.0
  0
VERTEX
  5
319
330
1EA
100
AcDbEntity
  8
0
  6
CONTINUOUS
 62
     7
100
AcDbVertex
100
AcDb2dVertex
 10
7.3428826779
 20
6.8896289016
 30
0.0
  0
VERTEX
  5
31A
330
1EA
100
AcDbEntity
  8
0
  6
CONTINUOUS
 62
     7
100
AcDbVertex
100
AcDb2dVertex
 10
7.3462028174
 20
6.8712896543
 30
0.0
  0
VERTEX
  5
31B
330
1EA
100
AcDbEntity
  8
0
  6
CONTINUOUS
 62
     7
100
AcDbVertex
100
AcDb2dVertex
 10
7.3504552903
 20
6.8537223719
 30
0.0
  0
VERTEX
  5
31C
330
1EA
100
AcDbEntity
  8
0
  6
CONTINUOUS
 62
     7
100
AcDbVertex
100
AcDb2dVertex
 10
7.3556279518
 20
6.8369772245
 30
0.0
  0
VERTEX
  5
31D
330
1EA
100
AcDbEntity
  8
0
  6
CONTINUOUS
 62
     7
100
AcDbVertex
100
AcDb2dVertex
 10
7.3617060296
 20
6.8211020341
 30
0.0
  0
VERTEX
  5
31E
330
1EA
100
AcDbEntity
  8
0
  6
CONTINUOUS
 62
     7
100
AcDbVertex
100
AcDb2dVertex
 10
7.3686721654
 20
6.8061421383
 30
0.0
  0
VERTEX
  5
31F
330
1EA
100
AcDbEntity
  8
0
  6
CONTINUOUS
 62
     7
100
AcDbVertex
100
AcDb2dVertex
 10
7.3765064647
 20
6.792140261
 30
0.0
  0
VERTEX
  5
320
330
1EA
100
AcDbEntity
  8
0
  6
CONTINUOUS
 62
     7
100
AcDbVertex
100
AcDb2dVertex
 10
7.3851865537
 20
6.7791363896
 30
0.0
  0
VERTEX
  5
321
330
1EA
100
AcDbEntity
  8
0
  6
CONTINUOUS
 62
     7
100
AcDbVertex
100
AcDb2dVertex
 10
7.3946876431
 20
6.7671676618
 30
0.0
  0
VERTEX
  5
322
330
1EA
100
AcDbEntity
  8
0
  6
CONTINUOUS
 62
     7
100
AcDbVertex
100
AcDb2dVertex
 10
7.404982599
 20
6.7562682587
 30
0.0
  0
VERTEX
  5
323
330
1EA
100
AcDbEntity
  8
0
  6
CONTINUOUS
 62
     7
100
AcDbVertex
100
AcDb2dVertex
 10
7.4160420202
 20
6.7464693078
 30
0.0
  0
VERTEX
  5
324
330
1EA
100
AcDbEntity
  8
0
  6
CONTINUOUS
 62
     7
100
AcDbVertex
100
AcDb2dVertex
 10
7.4278343224
 20
6.7377987936
 30
0.0
  0
VERTEX
  5
325
330
1EA
100
AcDbEntity
  8
0
  6
CONTINUOUS
 62
     7
100
AcDbVertex
100
AcDb2dVertex
 10
7.4364625306
 20
6.7324399331
 30
0.0
  0
SEQEND
  5
326
330
1EA
100
AcDbEntity
  8
0
  6
CONTINUOUS
 62
     7
  0
POLYLINE
  5
1EB
330
1F
100
AcDbEntity
  8
0
  6
CONTINUOUS
 62
     7
100
AcDb2dPolyline
 66
     1
 10
0.0
 20
0.0
 30
0.0
  0
VERTEX
  5
327
330
1EB
100
AcDbEntity
  8
0
  6
CONTINUOUS
 62
     7
100
AcDbVertex
100
AcDb2dVertex
 10
7.7281187946
 20
7.1696575171
 30
0.0
  0
VERTEX
  5
328
330
1EB
100
AcDbEntity
  8
0
  6
CONTINUOUS
 62
     7
100
AcDbVertex
100
AcDb2dVertex
 10
7.7424338293
 20
7.1904423755
 30
0.0
  0
VERTEX
  5
329
330
1EB
100
AcDbEntity
  8
0
  6
CONTINUOUS
 62
     7
100
AcDbVertex
100
AcDb2dVertex
 10
7.7573108374
 20
7.2106452773
 30
0.0
  0
VERTEX
  5
32A
330
1EB
100
AcDbEntity
  8
0
  6
CONTINUOUS
 62
     7
100
AcDbVertex
100
AcDb2dVertex
 10
7.7727068293
 20
7.2302078428
 30
0.0
  0
VERTEX
  5
32B
330
1EB
100
AcDbEntity
  8
0
  6
CONTINUOUS
 62
     7
100
AcDbVertex
100
AcDb2dVertex
 10
7.7885773155
 20
7.2490735424
 30
0.0
  0
VERTEX
  5
32C
330
1EB
100
AcDbEntity
  8
0
  6
CONTINUOUS
 62
     7
100
AcDbVertex
100
AcDb2dVertex
 10
7.8048764355
 20
7.2671878605
 30
0.0
  0
VERTEX
  5
32D
330
1EB
100
AcDbEntity
  8
0
  6
CONTINUOUS
 62
     7
100
AcDbVertex
100
AcDb2dVertex
 10
7.8215570901
 20
7.2844984525
 30
0.0
  0
VERTEX
  5
32E
330
1EB
100
AcDbEntity
  8
0
  6
CONTINUOUS
 62
     7
100
AcDbVertex
100
AcDb2dVertex
 10
7.8385710776
 20
7.3009552965
 30
0.0
  0
VERTEX
  5
32F
330
1EB
100
AcDbEntity
  8
0
  6
CONTINUOUS
 62
     7
100
AcDbVertex
100
AcDb2dVertex
 10
7.8558692331
 20
7.3165108375
 30
0.0
  0
VERTEX
  5
330
330
1EB
100
AcDbEntity
  8
0
  6
CONTINUOUS
 62
     7
100
AcDbVertex
100
AcDb2dVertex
 10
7.8734015706
 20
7.331120125
 30
0.0
  0
VERTEX
  5
331
330
1EB
100
AcDbEntity
  8
0
  6
CONTINUOUS
 62
     7
100
AcDbVertex
100
AcDb2dVertex
 10
7.8911174274
 20
7.344740943
 30
0.0
  0
VERTEX
  5
332
330
1EB
100
AcDbEntity
  8
0
  6
CONTINUOUS
 62
     7
100
AcDbVertex
100
AcDb2dVertex
 10
7.9089656103
 20
7.3573339317
 30
0.0
  0
VERTEX
  5
333
330
1EB
100
AcDbEntity
  8
0
  6
CONTINUOUS
 62
     7
100
AcDbVertex
100
AcDb2dVertex
 10
7.9268945438
 20
7.3688627015
 30
0.0
  0
VERTEX
  5
334
330
1EB
100
AcDbEntity
  8
0
  6
CONTINUOUS
 62
     7
100
AcDbVertex
100
AcDb2dVertex
 10
7.9448524193
 20
7.3792939379
 30
0.0
  0
VERTEX
  5
335
330
1EB
100
AcDbEntity
  8
0
  6
CONTINUOUS
 62
     7
100
AcDbVertex
100
AcDb2dVertex
 10
7.9627873442
 20
7.3885974981
 30
0.0
  0
VERTEX
  5
336
330
1EB
100
AcDbEntity
  8
0
  6
CONTINUOUS
 62
     7
100
AcDbVertex
100
AcDb2dVertex
 10
7.9806474925
 20
7.3967464979
 30
0.0
  0
VERTEX
  5
337
330
1EB
100
AcDbEntity
  8
0
  6
CONTINUOUS
 62
     7
100
AcDbVertex
100
AcDb2dVertex
 10
7.9983812541
 20
7.4037173892
 30
0.0
  0
VERTEX
  5
338
330
1EB
100
AcDbEntity
  8
0
  6
CONTINUOUS
 62
     7
100
AcDbVertex
100
AcDb2dVertex
 10
8.0159373843
 20
7.4094900284
 30
0.0
  0
VERTEX
  5
339
330
1EB
100
AcDbEntity
  8
0
  6
CONTINUOUS
 62
     7
100
AcDbVertex
100
AcDb2dVertex
 10
8.0332651515
 20
7.4140477346
 30
0.0
  0
VERTEX
  5
33A
330
1EB
100
AcDbEntity
  8
0
  6
CONTINUOUS
 62
     7
100
AcDbVertex
100
AcDb2dVertex
 10
8.050314484
 20
7.4173773373
 30
0.0
  0
VERTEX
  5
33B
330
1EB
100
AcDbEntity
  8
0
  6
CONTINUOUS
 62
     7
100
AcDbVertex
100
AcDb2dVertex
 10
8.0670361149
 20
7.4194692151
 30
0.0
  0
VERTEX
  5
33C
330
1EB
100
AcDbEntity
  8
0
  6
CONTINUOUS
 62
     7
100
AcDbVertex
100
AcDb2dVertex
 10
8.0833817241
 20
7.4203173233
 30
0.0
  0
VERTEX
  5
33D
330
1EB
100
AcDbEntity
  8
0
  6
CONTINUOUS
 62
     7
100
AcDbVertex
100
AcDb2dVertex
 10
8.0993040781
 20
7.419919211
 30
0.0
  0
VERTEX
  5
33E
330
1EB
100
AcDbEntity
  8
0
  6
CONTINUOUS
 62
     7
100
AcDbVertex
100
AcDb2dVertex
 10
8.1147571664
 20
7.4182760286
 30
0.0
  0
VERTEX
  5
33F
330
1EB
100
AcDbEntity
  8
0
  6
CONTINUOUS
 62
     7
100
AcDbVertex
100
AcDb2dVertex
 10
8.1296963346
 20
7.4153925244
 30
0.0
  0
VERTEX
  5
340
330
1EB
100
AcDbEntity
  8
0
  6
CONTINUOUS
 62
     7
100
AcDbVertex
100
AcDb2dVertex
 10
8.1440784134
 20
7.4112770308
 30
0.0
  0
VERTEX
  5
341
330
1EB
100
AcDbEntity
  8
0
  6
CONTINUOUS
 62
     7
100
AcDbVertex
100
AcDb2dVertex
 10
8.1578618433
 20
7.4059414402
 30
0.0
  0
VERTEX
  5
342
330
1EB
100
AcDbEntity
  8
0
  6
CONTINUOUS
 62
     7
100
AcDbVertex
100
AcDb2dVertex
 10
8.1710067945
 20
7.3994011708
 30
0.0
  0
VERTEX
  5
343
330
1EB
100
AcDbEntity
  8
0
  6
CONTINUOUS
 62
     7
100
AcDbVertex
100
AcDb2dVertex
 10
8.1834752826
 20
7.3916751218
 30
0.0
  0
VERTEX
  5
344
330
1EB
100
AcDbEntity
  8
0
  6
CONTINUOUS
 62
     7
100
AcDbVertex
100
AcDb2dVertex
 10
8.1866205057
 20
7.3894612848
 30
0.0
  0
SEQEND
  5
345
330
1EB
100
AcDbEntity
  8
0
  6
CONTINUOUS
 62
     7
  0
LINE
  5
1EC
330
1F
100
AcDbEntity
  8
0
  6
CONTINUOUS
 62
     7
100
AcDbLine
 10
7.7559576442
 20
7.1535864913
 30
0.0
 11
7.7281187946
 21
7.1696575171
 31
0.0
  0
POLYLINE
  5
1ED
330
1F
100
AcDbEntity
  8
0
  6
CONTINUOUS
 62
     7
100
AcDb2dPolyline
 66
     1
 10
0.0
 20
0.0
 30
0.0
  0
VERTEX
  5
346
330
1ED
100
AcDbEntity
  8
0
  6
CONTINUOUS
 62
     7
100
AcDbVertex
100
AcDb2dVertex
 10
8.200950292
 20
7.3821366159
 30
0.0
  0
VERTEX
  5
347
330
1ED
100
AcDbEntity
  8
0
  6
CONTINUOUS
 62
     7
100
AcDbVertex
100
AcDb2dVertex
 10
8.1969873059
 20
7.3843488985
 30
0.0
  0
VERTEX
  5
348
330
1ED
100
AcDbEntity
  8
0
  6
CONTINUOUS
 62
     7
100
AcDbVertex
100
AcDb2dVertex
 10
8.1838202796
 20
7.3906853183
 30
0.0
  0
VERTEX
  5
349
330
1ED
100
AcDbEntity
  8
0
  6
CONTINUOUS
 62
     7
100
AcDbVertex
100
AcDb2dVertex
 10
8.170026964
 20
7.3958275852
 30
0.0
  0
VERTEX
  5
34A
330
1ED
100
AcDbEntity
  8
0
  6
CONTINUOUS
 62
     7
100
AcDbVertex
100
AcDb2dVertex
 10
8.155646792
 20
7.3997609986
 30
0.0
  0
VERTEX
  5
34B
330
1ED
100
AcDbEntity
  8
0
  6
CONTINUOUS
 62
     7
100
AcDbVertex
100
AcDb2dVertex
 10
8.1407208743
 20
7.4024743133
 30
0.0
  0
VERTEX
  5
34C
330
1ED
100
AcDbEntity
  8
0
  6
CONTINUOUS
 62
     7
100
AcDbVertex
100
AcDb2dVertex
 10
8.1252918815
 20
7.4039597725
 30
0.0
  0
VERTEX
  5
34D
330
1ED
100
AcDbEntity
  8
0
  6
CONTINUOUS
 62
     7
100
AcDbVertex
100
AcDb2dVertex
 10
8.1094039227
 20
7.4042131294
 30
0.0
  0
VERTEX
  5
34E
330
1ED
100
AcDbEntity
  8
0
  6
CONTINUOUS
 62
     7
100
AcDbVertex
100
AcDb2dVertex
 10
8.0931024189
 20
7.4032336597
 30
0.0
  0
VERTEX
  5
34F
330
1ED
100
AcDbEntity
  8
0
  6
CONTINUOUS
 62
     7
100
AcDbVertex
100
AcDb2dVertex
 10
8.0764339736
 20
7.4010241637
 30
0.0
  0
VERTEX
  5
350
330
1ED
100
AcDbEntity
  8
0
  6
CONTINUOUS
 62
     7
100
AcDbVertex
100
AcDb2dVertex
 10
8.0594462391
 20
7.3975909578
 30
0.0
  0
VERTEX
  5
351
330
1ED
100
AcDbEntity
  8
0
  6
CONTINUOUS
 62
     7
100
AcDbVertex
100
AcDb2dVertex
 10
8.0421877806
 20
7.3929438571
 30
0.0
  0
VERTEX
  5
352
330
1ED
100
AcDbEntity
  8
0
  6
CONTINUOUS
 62
     7
100
AcDbVertex
100
AcDb2dVertex
 10
8.0247079372
 20
7.3870961469
 30
0.0
  0
VERTEX
  5
353
330
1ED
100
AcDbEntity
  8
0
  6
CONTINUOUS
 62
     7
100
AcDbVertex
100
AcDb2dVertex
 10
8.007056681
 20
7.3800645448
 30
0.0
  0
VERTEX
  5
354
330
1ED
100
AcDbEntity
  8
0
  6
CONTINUOUS
 62
     7
100
AcDbVertex
100
AcDb2dVertex
 10
7.9892844741
 20
7.371869153
 30
0.0
  0
VERTEX
  5
355
330
1ED
100
AcDbEntity
  8
0
  6
CONTINUOUS
 62
     7
100
AcDbVertex
100
AcDb2dVertex
 10
7.9714421242
 20
7.3625334009
 30
0.0
  0
VERTEX
  5
356
330
1ED
100
AcDbEntity
  8
0
  6
CONTINUOUS
 62
     7
100
AcDbVertex
100
AcDb2dVertex
 10
7.9535806398
 20
7.3520839778
 30
0.0
  0
VERTEX
  5
357
330
1ED
100
AcDbEntity
  8
0
  6
CONTINUOUS
 62
     7
100
AcDbVertex
100
AcDb2dVertex
 10
7.935751084
 20
7.3405507569
 30
0.0
  0
VERTEX
  5
358
330
1ED
100
AcDbEntity
  8
0
  6
CONTINUOUS
 62
     7
100
AcDbVertex
100
AcDb2dVertex
 10
7.9180044286
 20
7.3279667099
 30
0.0
  0
VERTEX
  5
359
330
1ED
100
AcDbEntity
  8
0
  6
CONTINUOUS
 62
     7
100
AcDbVertex
100
AcDb2dVertex
 10
7.9003914084
 20
7.3143678125
 30
0.0
  0
VERTEX
  5
35A
330
1ED
100
AcDbEntity
  8
0
  6
CONTINUOUS
 62
     7
100
AcDbVertex
100
AcDb2dVertex
 10
7.8829623762
 20
7.2997929417
 30
0.0
  0
VERTEX
  5
35B
330
1ED
100
AcDbEntity
  8
0
  6
CONTINUOUS
 62
     7
100
AcDbVertex
100
AcDb2dVertex
 10
7.8657671587
 20
7.2842837648
 30
0.0
  0
VERTEX
  5
35C
330
1ED
100
AcDbEntity
  8
0
  6
CONTINUOUS
 62
     7
100
AcDbVertex
100
AcDb2dVertex
 10
7.8488549143
 20
7.26788462
 30
0.0
  0
VERTEX
  5
35D
330
1ED
100
AcDbEntity
  8
0
  6
CONTINUOUS
 62
     7
100
AcDbVertex
100
AcDb2dVertex
 10
7.8322739923
 20
7.2506423897
 30
0.0
  0
VERTEX
  5
35E
330
1ED
100
AcDbEntity
  8
0
  6
CONTINUOUS
 62
     7
100
AcDbVertex
100
AcDb2dVertex
 10
7.816071795
 20
7.2326063667
 30
0.0
  0
VERTEX
  5
35F
330
1ED
100
AcDbEntity
  8
0
  6
CONTINUOUS
 62
     7
100
AcDbVertex
100
AcDb2dVertex
 10
7.8002946418
 20
7.213828113
 30
0.0
  0
VERTEX
  5
360
330
1ED
100
AcDbEntity
  8
0
  6
CONTINUOUS
 62
     7
100
AcDbVertex
100
AcDb2dVertex
 10
7.7849876369
 20
7.1943613128
 30
0.0
  0
VERTEX
  5
361
330
1ED
100
AcDbEntity
  8
0
  6
CONTINUOUS
 62
     7
100
AcDbVertex
100
AcDb2dVertex
 10
7.7701945407
 20
7.1742616183
 30
0.0
  0
VERTEX
  5
362
330
1ED
100
AcDbEntity
  8
0
  6
CONTINUOUS
 62
     7
100
AcDbVertex
100
AcDb2dVertex
 10
7.7559576442
 20
7.1535864913
 30
0.0
  0
SEQEND
  5
363
330
1ED
100
AcDbEntity
  8
0
  6
CONTINUOUS
 62
     7
  0
POLYLINE
  5
1EE
330
1F
100
AcDbEntity
  8
0
  6
CONTINUOUS
 62
     7
100
AcDb2dPolyline
 66
     1
 10
0.0
 20
0.0
 30
0.0
  0
VERTEX
  5
364
330
1EE
100
AcDbEntity
  8
0
  6
CONTINUOUS
 62
     7
100
AcDbVertex
100
AcDb2dVertex
 10
8.100482959
 20
6.681727126
 30
0.0
  0
VERTEX
  5
365
330
1EE
100
AcDbEntity
  8
0
  6
CONTINUOUS
 62
     7
100
AcDbVertex
100
AcDb2dVertex
 10
8.09410008
 20
6.6582844442
 30
0.0
  0
VERTEX
  5
366
330
1EE
100
AcDbEntity
  8
0
  6
CONTINUOUS
 62
     7
100
AcDbVertex
100
AcDb2dVertex
 10
8.0886617036
 20
6.6350137634
 30
0.0
  0
VERTEX
  5
367
330
1EE
100
AcDbEntity
  8
0
  6
CONTINUOUS
 62
     7
100
AcDbVertex
100
AcDb2dVertex
 10
8.0841840812
 20
6.6119846226
 30
0.0
  0
VERTEX
  5
368
330
1EE
100
AcDbEntity
  8
0
  6
CONTINUOUS
 62
     7
100
AcDbVertex
100
AcDb2dVertex
 10
8.0806805931
 20
6.589265839
 30
0.0
  0
VERTEX
  5
369
330
1EE
100
AcDbEntity
  8
0
  6
CONTINUOUS
 62
     7
100
AcDbVertex
100
AcDb2dVertex
 10
8.0781617087
 20
6.5669253023
 30
0.0
  0
VERTEX
  5
36A
330
1EE
100
AcDbEntity
  8
0
  6
CONTINUOUS
 62
     7
100
AcDbVertex
100
AcDb2dVertex
 10
8.076634955
 20
6.5450297721
 30
0.0
  0
VERTEX
  5
36B
330
1EE
100
AcDbEntity
  8
0
  6
CONTINUOUS
 62
     7
100
AcDbVertex
100
AcDb2dVertex
 10
8.0761048945
 20
6.5236446779
 30
0.0
  0
VERTEX
  5
36C
330
1EE
100
AcDbEntity
  8
0
  6
CONTINUOUS
 62
     7
100
AcDbVertex
100
AcDb2dVertex
 10
8.076573111
 20
6.5028339241
 30
0.0
  0
VERTEX
  5
36D
330
1EE
100
AcDbEntity
  8
0
  6
CONTINUOUS
 62
     7
100
AcDbVertex
100
AcDb2dVertex
 10
8.0780382055
 20
6.4826596987
 30
0.0
  0
VERTEX
  5
36E
330
1EE
100
AcDbEntity
  8
0
  6
CONTINUOUS
 62
     7
100
AcDbVertex
100
AcDb2dVertex
 10
8.0804957997
 20
6.4631822878
 30
0.0
  0
VERTEX
  5
36F
330
1EE
100
AcDbEntity
  8
0
  6
CONTINUOUS
 62
     7
100
AcDbVertex
100
AcDb2dVertex
 10
8.0839385499
 20
6.4444598949
 30
0.0
  0
VERTEX
  5
370
330
1EE
100
AcDbEntity
  8
0
  6
CONTINUOUS
 62
     7
100
AcDbVertex
100
AcDb2dVertex
 10
8.0883561681
 20
6.4265484676
 30
0.0
  0
VERTEX
  5
371
330
1EE
100
AcDbEntity
  8
0
  6
CONTINUOUS
 62
     7
100
AcDbVertex
100
AcDb2dVertex
 10
8.0937354533
 20
6.40950153
 30
0.0
  0
VERTEX
  5
372
330
1EE
100
AcDbEntity
  8
0
  6
CONTINUOUS
 62
     7
100
AcDbVertex
100
AcDb2dVertex
 10
8.1000603308
 20
6.3933700228
 30
0.0
  0
VERTEX
  5
373
330
1EE
100
AcDbEntity
  8
0
  6
CONTINUOUS
 62
     7
100
AcDbVertex
100
AcDb2dVertex
 10
8.1073119001
 20
6.3782021513
 30
0.0
  0
VERTEX
  5
374
330
1EE
100
AcDbEntity
  8
0
  6
CONTINUOUS
 62
     7
100
AcDbVertex
100
AcDb2dVertex
 10
8.1154684917
 20
6.364043241
 30
0.0
  0
VERTEX
  5
375
330
1EE
100
AcDbEntity
  8
0
  6
CONTINUOUS
 62
     7
100
AcDbVertex
100
AcDb2dVertex
 10
8.1245057315
 20
6.3509356027
 30
0.0
  0
VERTEX
  5
376
330
1EE
100
AcDbEntity
  8
0
  6
CONTINUOUS
 62
     7
100
AcDbVertex
100
AcDb2dVertex
 10
8.1343966139
 20
6.3389184053
 30
0.0
  0
VERTEX
  5
377
330
1EE
100
AcDbEntity
  8
0
  6
CONTINUOUS
 62
     7
100
AcDbVertex
100
AcDb2dVertex
 10
8.1451115821
 20
6.3280275595
 30
0.0
  0
VERTEX
  5
378
330
1EE
100
AcDbEntity
  8
0
  6
CONTINUOUS
 62
     7
100
AcDbVertex
100
AcDb2dVertex
 10
8.1566186171
 20
6.3182956099
 30
0.0
  0
VERTEX
  5
379
330
1EE
100
AcDbEntity
  8
0
  6
CONTINUOUS
 62
     7
100
AcDbVertex
100
AcDb2dVertex
 10
8.1688833328
 20
6.3097516384
 30
0.0
  0
VERTEX
  5
37A
330
1EE
100
AcDbEntity
  8
0
  6
CONTINUOUS
 62
     7
100
AcDbVertex
100
AcDb2dVertex
 10
8.1739693356
 20
6.306686317
 30
0.0
  0
SEQEND
  5
37B
330
1EE
100
AcDbEntity
  8
0
  6
CONTINUOUS
 62
     7
  0
LINE
  5
1EF
330
1F
100
AcDbEntity
  8
0
  6
CONTINUOUS
 62
     7
100
AcDbLine
 10
8.0726441094
 20
6.6977981518
 30
0.0
 11
8.100482959
 21
6.681727126
 31
0.0
  0
POLYLINE
  5
1F0
330
1F
100
AcDbEntity
  8
0
  6
CONTINUOUS
 62
     7
100
AcDb2dPolyline
 66
     1
 10
0.0
 20
0.0
 30
0.0
  0
VERTEX
  5
37C
330
1F0
100
AcDbEntity
  8
0
  6
CONTINUOUS
 62
     7
100
AcDbVertex
100
AcDb2dVertex
 10
8.1604602723
 20
6.3154326739
 30
0.0
  0
VERTEX
  5
37D
330
1F0
100
AcDbEntity
  8
0
  6
CONTINUOUS
 62
     7
100
AcDbVertex
100
AcDb2dVertex
 10
8.1481699876
 20
6.3216001194
 30
0.0
  0
VERTEX
  5
37E
330
1F0
100
AcDbEntity
  8
0
  6
CONTINUOUS
 62
     7
100
AcDbVertex
100
AcDb2dVertex
 10
8.1357490321
 20
6.3293019457
 30
0.0
  0
VERTEX
  5
37F
330
1F0
100
AcDbEntity
  8
0
  6
CONTINUOUS
 62
     7
100
AcDbVertex
100
AcDb2dVertex
 10
8.1240354559
 20
6.3381587582
 30
0.0
  0
VERTEX
  5
380
330
1F0
100
AcDbEntity
  8
0
  6
CONTINUOUS
 62
     7
100
AcDbVertex
100
AcDb2dVertex
 10
8.1130628621
 20
6.3481451491
 30
0.0
  0
VERTEX
  5
381
330
1F0
100
AcDbEntity
  8
0
  6
CONTINUOUS
 62
     7
100
AcDbVertex
100
AcDb2dVertex
 10
8.1028627283
 20
6.3592324702
 30
0.0
  0
VERTEX
  5
382
330
1F0
100
AcDbEntity
  8
0
  6
CONTINUOUS
 62
     7
100
AcDbVertex
100
AcDb2dVertex
 10
8.0934643157
 20
6.371388915
 30
0.0
  0
VERTEX
  5
383
330
1F0
100
AcDbEntity
  8
0
  6
CONTINUOUS
 62
     7
100
AcDbVertex
100
AcDb2dVertex
 10
8.084894586
 20
6.3845796099
 30
0.0
  0
VERTEX
  5
384
330
1F0
100
AcDbEntity
  8
0
  6
CONTINUOUS
 62
     7
100
AcDbVertex
100
AcDb2dVertex
 10
8.0771781233
 20
6.3987667143
 30
0.0
  0
VERTEX
  5
385
330
1F0
100
AcDbEntity
  8
0
  6
CONTINUOUS
 62
     7
100
AcDbVertex
100
AcDb2dVertex
 10
8.0703370642
 20
6.4139095293
 30
0.0
  0
VERTEX
  5
386
330
1F0
100
AcDbEntity
  8
0
  6
CONTINUOUS
 62
     7
100
AcDbVertex
100
AcDb2dVertex
 10
8.0643910337
 20
6.4299646141
 30
0.0
  0
VERTEX
  5
387
330
1F0
100
AcDbEntity
  8
0
  6
CONTINUOUS
 62
     7
100
AcDbVertex
100
AcDb2dVertex
 10
8.0593570894
 20
6.4468859112
 30
0.0
  0
VERTEX
  5
388
330
1F0
100
AcDbEntity
  8
0
  6
CONTINUOUS
 62
     7
100
AcDbVertex
100
AcDb2dVertex
 10
8.0552496724
 20
6.4646248778
 30
0.0
  0
VERTEX
  5
389
330
1F0
100
AcDbEntity
  8
0
  6
CONTINUOUS
 62
     7
100
AcDbVertex
100
AcDb2dVertex
 10
8.0520805657
 20
6.4831306257
 30
0.0
  0
VERTEX
  5
38A
330
1F0
100
AcDbEntity
  8
0
  6
CONTINUOUS
 62
     7
100
AcDbVertex
100
AcDb2dVertex
 10
8.0498588607
 20
6.5023500668
 30
0.0
  0
VERTEX
  5
38B
330
1F0
100
AcDbEntity
  8
0
  6
CONTINUOUS
 62
     7
100
AcDbVertex
100
AcDb2dVertex
 10
8.0485909308
 20
6.5222280658
 30
0.0
  0
VERTEX
  5
38C
330
1F0
100
AcDbEntity
  8
0
  6
CONTINUOUS
 62
     7
100
AcDbVertex
100
AcDb2dVertex
 10
8.0482804133
 20
6.542707598
 30
0.0
  0
VERTEX
  5
38D
330
1F0
100
AcDbEntity
  8
0
  6
CONTINUOUS
 62
     7
100
AcDbVertex
100
AcDb2dVertex
 10
8.0489281991
 20
6.5637299132
 30
0.0
  0
VERTEX
  5
38E
330
1F0
100
AcDbEntity
  8
0
  6
CONTINUOUS
 62
     7
100
AcDbVertex
100
AcDb2dVertex
 10
8.0505324298
 20
6.585234704
 30
0.0
  0
VERTEX
  5
38F
330
1F0
100
AcDbEntity
  8
0
  6
CONTINUOUS
 62
     7
100
AcDbVertex
100
AcDb2dVertex
 10
8.0530885033
 20
6.6071602789
 30
0.0
  0
VERTEX
  5
390
330
1F0
100
AcDbEntity
  8
0
  6
CONTINUOUS
 62
     7
100
AcDbVertex
100
AcDb2dVertex
 10
8.056589087
 20
6.6294437395
 30
0.0
  0
VERTEX
  5
391
330
1F0
100
AcDbEntity
  8
0
  6
CONTINUOUS
 62
     7
100
AcDbVertex
100
AcDb2dVertex
 10
8.0610241386
 20
6.6520211605
 30
0.0
  0
VERTEX
  5
392
330
1F0
100
AcDbEntity
  8
0
  6
CONTINUOUS
 62
     7
100
AcDbVertex
100
AcDb2dVertex
 10
8.0663809351
 20
6.6748277732
 30
0.0
  0
VERTEX
  5
393
330
1F0
100
AcDbEntity
  8
0
  6
CONTINUOUS
 62
     7
100
AcDbVertex
100
AcDb2dVertex
 10
8.0726441094
 20
6.6977981518
 30
0.0
  0
SEQEND
  5
394
330
1F0
100
AcDbEntity
  8
0
  6
CONTINUOUS
 62
     7
  0
LINE
  5
1F1
330
1F
100
AcDbEntity
  8
0
  6
CONTINUOUS
 62
     7
100
AcDbLine
 10
8.6883363968
 20
6.1859002959
 30
0.0
 11
8.6746396828
 21
6.1938072406
 31
0.0
  0
SPLINE
  5
1F2
330
1F
100
AcDbEntity
  8
0
  6
CONTINUOUS
 62
     7
100
AcDbSpline
210
0.0
220
0.0
230
1.0
 70
     8
 71
     3
 72
    33
 73
    29
 74
     0
 42
0.00000001
 43
0.00000001
 40
0.0
 40
0.0
 40
0.0
 40
0.0
 40
0.0184112482805338
 40
0.0810819512261559
 40
0.1134365277625674
 40
0.1457850575700604
 40
0.1920040968148626
 40
0.239431734354446
 40
0.2785596061454378
 40
0.3187619160946895
 40
0.3579300361184382
 40
0.3985178847571607
 40
0.4335305736664657
 40
0.4696983243598663
 40
0.5025651202934541
 40
0.53641520224027
 40
0.568820714791453
 40
0.6021304351578868
 40
0.6352472606230137
 40
0.6692205296478165
 40
0.7044320705825398
 40
0.7404728379500192
 40
0.7797733129606519
 40
0.8199152631231185
 40
0.8659630299476191
 40
0.9129424145617625
 40
0.9683770660160888
 40
1.0
 40
1.0
 40
1.0
 40
1.0
 10
8.094110230635936
 20
7.443640715246534
 30
0.0
 10
8.093555654981328
 20
7.44401214834517
 30
0.0
 10
8.091113339528684
 20
7.445647915780843
 30
0.0
 10
8.084272602371673
 20
7.448526181270558
 30
0.0
 10
8.075265228786332
 20
7.451872943818847
 30
0.0
 10
8.066018688836511
 20
7.454984326318005
 30
0.0
 10
8.053794056747549
 20
7.458768111455713
 30
0.0
 10
8.038800346792316
 20
7.463162697334977
 30
0.0
 10
8.02291145666593
 20
7.467814740457773
 30
0.0
 10
8.00701669284762
 20
7.472642716658085
 30
0.0
 10
7.990370284969347
 20
7.478084259023148
 30
0.0
 10
7.974482192472293
 20
7.483859277150432
 30
0.0
 10
7.959695468210065
 20
7.489968400797392
 30
0.0
 10
7.946996115148616
 20
7.496006213694134
 30
0.0
 10
7.935913271069198
 20
7.502167647602188
 30
0.0
 10
7.926913294118911
 20
7.508122759736294
 30
0.0
 10
7.919797177197487
 20
7.513916463456084
 30
0.0
 10
7.914767861220467
 20
7.519274443764229
 30
0.0
 10
7.911803733649566
 20
7.524091902462418
 30
0.0
 10
7.910945391086136
 20
7.528156807364366
 30
0.0
 10
7.91221423140798
 20
7.531271961548956
 30
0.0
 10
7.915637874944426
 20
7.533268837282611
 30
0.0
 10
7.921208712299605
 20
7.533888439778225
 30
0.0
 10
7.929147236108633
 20
7.532890908026343
 30
0.0
 10
7.939301106794256
 20
7.530022130741369
 30
0.0
 10
7.95225490212408
 20
7.524737570844771
 30
0.0
 10
7.965001165318156
 20
7.518451078582155
 30
0.0
 10
7.974069525084565
 20
7.512994425600789
 30
0.0
 10
7.977363530320202
 20
7.511012342406841
 30
0.0
  0
SPLINE
  5
1F3
330
1F
100
AcDbEntity
  8
0
  6
CONTINUOUS
 62
     7
100
AcDbSpline
210
0.0
220
0.0
230
1.0
 70
     8
 71
     3
 72
    40
 73
    36
 74
     0
 42
0.00000001
 43
0.00000001
 40
0.0
 40
0.0
 40
0.0
 40
0.0
 40
0.0050576022652023
 40
0.0356618469602602
 40
0.0662624029405728
 40
0.0975302742035918
 40
0.1287920045774793
 40
0.1532338769528307
 40
0.1776725901585805
 40
0.2027511349567127
 40
0.2278255019593224
 40
0.268260209344077
 40
0.2890548762564822
 40
0.309847890158008
 40
0.3301045238912585
 40
0.3503602125920003
 40
0.3713168803179495
 40
0.3922731011362577
 40
0.4294675416981518
 40
0.4677852240410904
 40
0.5042798564762372
 40
0.5418230278139318
 40
0.578488440059429
 40
0.6162156323150901
 40
0.6528924056310909
 40
0.6906432937121892
 40
0.7271424208441163
 40
0.7646802891455182
 40
0.8016212060523639
 40
0.8395005727851761
 40
0.8792158861552605
 40
0.9197839287276064
 40
0.9493661930626659
 40
0.9789547531839939
 40
1.0
 40
1.0
 40
1.0
 40
1.0
 10
8.240045401211173
 20
6.273813007799679
 30
0.0
 10
8.23904068901698
 20
6.274150879836987
 30
0.0
 10
8.231956325591453
 20
6.276533261893709
 30
0.0
 10
8.220113445758125
 20
6.28182060921819
 30
0.0
 10
8.204117108872591
 20
6.289356417833234
 30
0.0
 10
8.189490243824405
 20
6.297572689425856
 30
0.0
 10
8.177231943517786
 20
6.305627265058761
 30
0.0
 10
8.167325417694945
 20
6.313311268441242
 30
0.0
 10
8.15941222063138
 20
6.320527659350744
 30
0.0
 10
8.152835239874854
 20
6.327847258085401
 30
0.0
 10
8.146720024445496
 20
6.33662652982541
 30
0.0
 10
8.143429959267557
 20
6.34465723295033
 30
0.0
 10
8.142768354499301
 20
6.351584228974064
 30
0.0
 10
8.14353974790683
 20
6.356345630189634
 30
0.0
 10
8.1455707938729
 20
6.36049651376966
 30
0.0
 10
8.148820589941264
 20
6.363999985961203
 30
0.0
 10
8.153333379009513
 20
6.366754754880614
 30
0.0
 10
8.160548340440993
 20
6.369134375147904
 30
0.0
 10
8.171697237132507
 20
6.369935960317287
 30
0.0
 10
8.187535396257546
 20
6.367368691821985
 30
0.0
 10
8.205598602042198
 20
6.361180858053566
 30
0.0
 10
8.2248830869175
 20
6.35160954375242
 30
0.0
 10
8.24526931207449
 20
6.338644771276888
 30
0.0
 10
8.265865020923886
 20
6.32289802314292
 30
0.0
 10
8.286563011704784
 20
6.304667480879641
 30
0.0
 10
8.306574363146934
 20
6.285025291133834
 30
0.0
 10
8.32595711780589
 20
6.264463941055157
 30
0.0
 10
8.344198347843001
 20
6.244148279627743
 30
0.0
 10
8.361473045002388
 20
6.224549108752827
 30
0.0
 10
8.37778060648983
 20
6.206283486904151
 30
0.0
 10
8.39320461952134
 20
6.189846076283644
 30
0.0
 10
8.406280395288377
 20
6.177158194410202
 30
0.0
 10
8.417207774612217
 20
6.167864458820517
 30
0.0
 10
8.425496548262084
 20
6.161630940745236
 30
0.0
 10
8.430315907522674
 20
6.15884005514484
 30
0.0
 10
8.432319008045209
 20
6.15768006185482
 30
0.0
  0
POLYLINE
  5
1F4
330
1F
100
AcDbEntity
  8
0
  6
CONTINUOUS
 62
     7
100
AcDb2dPolyline
 66
     1
 10
0.0
 20
0.0
 30
0.0
  0
VERTEX
  5
395
330
1F4
100
AcDbEntity
  8
0
  6
CONTINUOUS
 62
     7
100
AcDbVertex
100
AcDb2dVertex
 10
8.6746396828
 20
6.4354762206
 30
0.0
  0
VERTEX
  5
396
330
1F4
100
AcDbEntity
  8
0
  6
CONTINUOUS
 62
     7
100
AcDbVertex
100
AcDb2dVertex
 10
8.6650636673
 20
6.4321091426
 30
0.0
  0
VERTEX
  5
397
330
1F4
100
AcDbEntity
  8
0
  6
CONTINUOUS
 62
     7
100
AcDbVertex
100
AcDb2dVertex
 10
8.6557221876
 20
6.4299701112
 30
0.0
  0
VERTEX
  5
398
330
1F4
100
AcDbEntity
  8
0
  6
CONTINUOUS
 62
     7
100
AcDbVertex
100
AcDb2dVertex
 10
8.646708492
 20
6.4290804786
 30
0.0
  0
VERTEX
  5
399
330
1F4
100
AcDbEntity
  8
0
  6
CONTINUOUS
 62
     7
100
AcDbVertex
100
AcDb2dVertex
 10
8.6381125569
 20
6.4294491253
 30
0.0
  0
VERTEX
  5
39A
330
1F4
100
AcDbEntity
  8
0
  6
CONTINUOUS
 62
     7
100
AcDbVertex
100
AcDb2dVertex
 10
8.6300201885
 20
6.4310723713
 30
0.0
  0
VERTEX
  5
39B
330
1F4
100
AcDbEntity
  8
0
  6
CONTINUOUS
 62
     7
100
AcDbVertex
100
AcDb2dVertex
 10
8.6225121663
 20
6.4339340132
 30
0.0
  0
VERTEX
  5
39C
330
1F4
100
AcDbEntity
  8
0
  6
CONTINUOUS
 62
     7
100
AcDbVertex
100
AcDb2dVertex
 10
8.6156634366
 20
6.4380054856
 30
0.0
  0
VERTEX
  5
39D
330
1F4
100
AcDbEntity
  8
0
  6
CONTINUOUS
 62
     7
100
AcDbVertex
100
AcDb2dVertex
 10
8.6095423649
 20
6.4432461461
 30
0.0
  0
VERTEX
  5
39E
330
1F4
100
AcDbEntity
  8
0
  6
CONTINUOUS
 62
     7
100
AcDbVertex
100
AcDb2dVertex
 10
8.6042100527
 20
6.4496036817
 30
0.0
  0
VERTEX
  5
39F
330
1F4
100
AcDbEntity
  8
0
  6
CONTINUOUS
 62
     7
100
AcDbVertex
100
AcDb2dVertex
 10
8.5997197281
 20
6.4570146302
 30
0.0
  0
VERTEX
  5
3A0
330
1F4
100
AcDbEntity
  8
0
  6
CONTINUOUS
 62
     7
100
AcDbVertex
100
AcDb2dVertex
 10
8.5961162145
 20
6.4654050142
 30
0.0
  0
VERTEX
  5
3A1
330
1F4
100
AcDbEntity
  8
0
  6
CONTINUOUS
 62
     7
100
AcDbVertex
100
AcDb2dVertex
 10
8.5934354827
 20
6.4746910793
 30
0.0
  0
VERTEX
  5
3A2
330
1F4
100
AcDbEntity
  8
0
  6
CONTINUOUS
 62
     7
100
AcDbVertex
100
AcDb2dVertex
 10
8.5917042922
 20
6.4847801303
 30
0.0
  0
VERTEX
  5
3A3
330
1F4
100
AcDbEntity
  8
0
  6
CONTINUOUS
 62
     7
100
AcDbVertex
100
AcDb2dVertex
 10
8.5909399242
 20
6.4955714566
 30
0.0
  0
VERTEX
  5
3A4
330
1F4
100
AcDbEntity
  8
0
  6
CONTINUOUS
 62
     7
100
AcDbVertex
100
AcDb2dVertex
 10
8.5911500087
 20
6.5069573371
 30
0.0
  0
VERTEX
  5
3A5
330
1F4
100
AcDbEntity
  8
0
  6
CONTINUOUS
 62
     7
100
AcDbVertex
100
AcDb2dVertex
 10
8.5923324486
 20
6.5188241158
 30
0.0
  0
VERTEX
  5
3A6
330
1F4
100
AcDbEntity
  8
0
  6
CONTINUOUS
 62
     7
100
AcDbVertex
100
AcDb2dVertex
 10
8.5944754406
 20
6.5310533365
 30
0.0
  0
VERTEX
  5
3A7
330
1F4
100
AcDbEntity
  8
0
  6
CONTINUOUS
 62
     7
100
AcDbVertex
100
AcDb2dVertex
 10
8.5975575928
 20
6.5435229248
 30
0.0
  0
VERTEX
  5
3A8
330
1F4
100
AcDbEntity
  8
0
  6
CONTINUOUS
 62
     7
100
AcDbVertex
100
AcDb2dVertex
 10
8.6015481389
 20
6.5561084069
 30
0.0
  0
VERTEX
  5
3A9
330
1F4
100
AcDbEntity
  8
0
  6
CONTINUOUS
 62
     7
100
AcDbVertex
100
AcDb2dVertex
 10
8.6064072442
 20
6.5686841525
 30
0.0
  0
VERTEX
  5
3AA
330
1F4
100
AcDbEntity
  8
0
  6
CONTINUOUS
 62
     7
100
AcDbVertex
100
AcDb2dVertex
 10
8.6120864045
 20
6.5811246279
 30
0.0
  0
VERTEX
  5
3AB
330
1F4
100
AcDbEntity
  8
0
  6
CONTINUOUS
 62
     7
100
AcDbVertex
100
AcDb2dVertex
 10
8.6185289292
 20
6.5933056502
 30
0.0
  0
VERTEX
  5
3AC
330
1F4
100
AcDbEntity
  8
0
  6
CONTINUOUS
 62
     7
100
AcDbVertex
100
AcDb2dVertex
 10
8.625670508
 20
6.6051056261
 30
0.0
  0
VERTEX
  5
3AD
330
1F4
100
AcDbEntity
  8
0
  6
CONTINUOUS
 62
     7
100
AcDbVertex
100
AcDb2dVertex
 10
8.6334398522
 20
6.6164067662
 30
0.0
  0
VERTEX
  5
3AE
330
1F4
100
AcDbEntity
  8
0
  6
CONTINUOUS
 62
     7
100
AcDbVertex
100
AcDb2dVertex
 10
8.6417594069
 20
6.6270962604
 30
0.0
  0
VERTEX
  5
3AF
330
1F4
100
AcDbEntity
  8
0
  6
CONTINUOUS
 62
     7
100
AcDbVertex
100
AcDb2dVertex
 10
8.6505461248
 20
6.6370674043
 30
0.0
  0
VERTEX
  5
3B0
330
1F4
100
AcDbEntity
  8
0
  6
CONTINUOUS
 62
     7
100
AcDbVertex
100
AcDb2dVertex
 10
8.6597122951
 20
6.6462206639
 30
0.0
  0
VERTEX
  5
3B1
330
1F4
100
AcDbEntity
  8
0
  6
CONTINUOUS
 62
     7
100
AcDbVertex
100
AcDb2dVertex
 10
8.6691664197
 20
6.6544646699
 30
0.0
  0
VERTEX
  5
3B2
330
1F4
100
AcDbEntity
  8
0
  6
CONTINUOUS
 62
     7
100
AcDbVertex
100
AcDb2dVertex
 10
8.6788141255
 20
6.6617171291
 30
0.0
  0
VERTEX
  5
3B3
330
1F4
100
AcDbEntity
  8
0
  6
CONTINUOUS
 62
     7
100
AcDbVertex
100
AcDb2dVertex
 10
8.6885591076
 20
6.667905646
 30
0.0
  0
VERTEX
  5
3B4
330
1F4
100
AcDbEntity
  8
0
  6
CONTINUOUS
 62
     7
100
AcDbVertex
100
AcDb2dVertex
 10
8.6983040896
 20
6.6729684459
 30
0.0
  0
VERTEX
  5
3B5
330
1F4
100
AcDbEntity
  8
0
  6
CONTINUOUS
 62
     7
100
AcDbVertex
100
AcDb2dVertex
 10
8.7079517955
 20
6.6768549908
 30
0.0
  0
VERTEX
  5
3B6
330
1F4
100
AcDbEntity
  8
0
  6
CONTINUOUS
 62
     7
100
AcDbVertex
100
AcDb2dVertex
 10
8.71740592
 20
6.6795264846
 30
0.0
  0
VERTEX
  5
3B7
330
1F4
100
AcDbEntity
  8
0
  6
CONTINUOUS
 62
     7
100
AcDbVertex
100
AcDb2dVertex
 10
8.7265720904
 20
6.68095626
 30
0.0
  0
VERTEX
  5
3B8
330
1F4
100
AcDbEntity
  8
0
  6
CONTINUOUS
 62
     7
100
AcDbVertex
100
AcDb2dVertex
 10
8.7353588082
 20
6.6811300447
 30
0.0
  0
VERTEX
  5
3B9
330
1F4
100
AcDbEntity
  8
0
  6
CONTINUOUS
 62
     7
100
AcDbVertex
100
AcDb2dVertex
 10
8.7436783629
 20
6.6800461039
 30
0.0
  0
VERTEX
  5
3BA
330
1F4
100
AcDbEntity
  8
0
  6
CONTINUOUS
 62
     7
100
AcDbVertex
100
AcDb2dVertex
 10
8.7514477072
 20
6.6777152577
 30
0.0
  0
VERTEX
  5
3BB
330
1F4
100
AcDbEntity
  8
0
  6
CONTINUOUS
 62
     7
100
AcDbVertex
100
AcDb2dVertex
 10
8.7585892859
 20
6.6741607731
 30
0.0
  0
VERTEX
  5
3BC
330
1F4
100
AcDbEntity
  8
0
  6
CONTINUOUS
 62
     7
100
AcDbVertex
100
AcDb2dVertex
 10
8.7650318107
 20
6.6694181315
 30
0.0
  0
VERTEX
  5
3BD
330
1F4
100
AcDbEntity
  8
0
  6
CONTINUOUS
 62
     7
100
AcDbVertex
100
AcDb2dVertex
 10
8.7707109709
 20
6.6635346749
 30
0.0
  0
VERTEX
  5
3BE
330
1F4
100
AcDbEntity
  8
0
  6
CONTINUOUS
 62
     7
100
AcDbVertex
100
AcDb2dVertex
 10
8.7755700763
 20
6.6565691331
 30
0.0
  0
VERTEX
  5
3BF
330
1F4
100
AcDbEntity
  8
0
  6
CONTINUOUS
 62
     7
100
AcDbVertex
100
AcDb2dVertex
 10
8.7795606223
 20
6.6485910372
 30
0.0
  0
VERTEX
  5
3C0
330
1F4
100
AcDbEntity
  8
0
  6
CONTINUOUS
 62
     7
100
AcDbVertex
100
AcDb2dVertex
 10
8.7826427746
 20
6.6396800262
 30
0.0
  0
VERTEX
  5
3C1
330
1F4
100
AcDbEntity
  8
0
  6
CONTINUOUS
 62
     7
100
AcDbVertex
100
AcDb2dVertex
 10
8.7847857666
 20
6.6299250514
 30
0.0
  0
VERTEX
  5
3C2
330
1F4
100
AcDbEntity
  8
0
  6
CONTINUOUS
 62
     7
100
AcDbVertex
100
AcDb2dVertex
 10
8.7859682064
 20
6.6194234887
 30
0.0
  0
VERTEX
  5
3C3
330
1F4
100
AcDbEntity
  8
0
  6
CONTINUOUS
 62
     7
100
AcDbVertex
100
AcDb2dVertex
 10
8.7861782909
 20
6.6082801666
 30
0.0
  0
VERTEX
  5
3C4
330
1F4
100
AcDbEntity
  8
0
  6
CONTINUOUS
 62
     7
100
AcDbVertex
100
AcDb2dVertex
 10
8.7854139229
 20
6.5966063199
 30
0.0
  0
VERTEX
  5
3C5
330
1F4
100
AcDbEntity
  8
0
  6
CONTINUOUS
 62
     7
100
AcDbVertex
100
AcDb2dVertex
 10
8.7836827325
 20
6.5845184789
 30
0.0
  0
VERTEX
  5
3C6
330
1F4
100
AcDbEntity
  8
0
  6
CONTINUOUS
 62
     7
100
AcDbVertex
100
AcDb2dVertex
 10
8.7810020007
 20
6.5721373067
 30
0.0
  0
VERTEX
  5
3C7
330
1F4
100
AcDbEntity
  8
0
  6
CONTINUOUS
 62
     7
100
AcDbVertex
100
AcDb2dVertex
 10
8.777398487
 20
6.5595863944
 30
0.0
  0
VERTEX
  5
3C8
330
1F4
100
AcDbEntity
  8
0
  6
CONTINUOUS
 62
     7
100
AcDbVertex
100
AcDb2dVertex
 10
8.7729081625
 20
6.5469910275
 30
0.0
  0
VERTEX
  5
3C9
330
1F4
100
AcDbEntity
  8
0
  6
CONTINUOUS
 62
     7
100
AcDbVertex
100
AcDb2dVertex
 10
8.7675758503
 20
6.5344769353
 30
0.0
  0
VERTEX
  5
3CA
330
1F4
100
AcDbEntity
  8
0
  6
CONTINUOUS
 62
     7
100
AcDbVertex
100
AcDb2dVertex
 10
8.7614547785
 20
6.5221690358
 30
0.0
  0
VERTEX
  5
3CB
330
1F4
100
AcDbEntity
  8
0
  6
CONTINUOUS
 62
     7
100
AcDbVertex
100
AcDb2dVertex
 10
8.7546060489
 20
6.5101901885
 30
0.0
  0
VERTEX
  5
3CC
330
1F4
100
AcDbEntity
  8
0
  6
CONTINUOUS
 62
     7
100
AcDbVertex
100
AcDb2dVertex
 10
8.7470980267
 20
6.4986599686
 30
0.0
  0
VERTEX
  5
3CD
330
1F4
100
AcDbEntity
  8
0
  6
CONTINUOUS
 62
     7
100
AcDbVertex
100
AcDb2dVertex
 10
8.7390056582
 20
6.4876934729
 30
0.0
  0
VERTEX
  5
3CE
330
1F4
100
AcDbEntity
  8
0
  6
CONTINUOUS
 62
     7
100
AcDbVertex
100
AcDb2dVertex
 10
8.7304097231
 20
6.4774001708
 30
0.0
  0
VERTEX
  5
3CF
330
1F4
100
AcDbEntity
  8
0
  6
CONTINUOUS
 62
     7
100
AcDbVertex
100
AcDb2dVertex
 10
8.7213960276
 20
6.467882812
 30
0.0
  0
VERTEX
  5
3D0
330
1F4
100
AcDbEntity
  8
0
  6
CONTINUOUS
 62
     7
100
AcDbVertex
100
AcDb2dVertex
 10
8.7120545479
 20
6.4592364005
 30
0.0
  0
VERTEX
  5
3D1
330
1F4
100
AcDbEntity
  8
0
  6
CONTINUOUS
 62
     7
100
AcDbVertex
100
AcDb2dVertex
 10
8.7024785324
 20
6.4515472464
 30
0.0
  0
SEQEND
  5
3D2
330
1F4
100
AcDbEntity
  8
0
  6
CONTINUOUS
 62
     7
  0
LINE
  5
1F5
330
1F
100
AcDbEntity
  8
0
  6
CONTINUOUS
 62
     7
100
AcDbLine
 10
8.6746396828
 20
6.178010828
 30
0.0
 11
8.6746396828
 21
6.4354762206
 31
0.0
  0
LINE
  5
1F6
330
1F
100
AcDbEntity
  8
0
  6
CONTINUOUS
 62
     7
100
AcDbLine
 10
8.7024785324
 20
6.1940818539
 30
0.0
 11
8.7024785324
 21
6.4515472464
 31
0.0
  0
POLYLINE
  5
1F7
330
1F
100
AcDbEntity
  8
0
  6
CONTINUOUS
 62
     7
100
AcDb2dPolyline
 66
     1
 10
0.0
 20
0.0
 30
0.0
  0
VERTEX
  5
3D3
330
1F7
100
AcDbEntity
  8
0
  6
CONTINUOUS
 62
     7
100
AcDbVertex
100
AcDb2dVertex
 10
8.6883363968
 20
6.4762396707
 30
0.0
  0
VERTEX
  5
3D4
330
1F7
100
AcDbEntity
  8
0
  6
CONTINUOUS
 62
     7
100
AcDbVertex
100
AcDb2dVertex
 10
8.6971437608
 20
6.4836146312
 30
0.0
  0
VERTEX
  5
3D5
330
1F7
100
AcDbEntity
  8
0
  6
CONTINUOUS
 62
     7
100
AcDbVertex
100
AcDb2dVertex
 10
8.7056855582
 20
6.4919206955
 30
0.0
  0
VERTEX
  5
3D6
330
1F7
100
AcDbEntity
  8
0
  6
CONTINUOUS
 62
     7
100
AcDbVertex
100
AcDb2dVertex
 10
8.7138619766
 20
6.5010608058
 30
0.0
  0
VERTEX
  5
3D7
330
1F7
100
AcDbEntity
  8
0
  6
CONTINUOUS
 62
     7
100
AcDbVertex
100
AcDb2dVertex
 10
8.721577473
 20
6.5109281582
 30
0.0
  0
VERTEX
  5
3D8
330
1F7
100
AcDbEntity
  8
0
  6
CONTINUOUS
 62
     7
100
AcDbVertex
100
AcDb2dVertex
 10
8.7287418904
 20
6.5214074509
 30
0.0
  0
VERTEX
  5
3D9
330
1F7
100
AcDbEntity
  8
0
  6
CONTINUOUS
 62
     7
100
AcDbVertex
100
AcDb2dVertex
 10
8.7352715114
 20
6.5323762315
 30
0.0
  0
VERTEX
  5
3DA
330
1F7
100
AcDbEntity
  8
0
  6
CONTINUOUS
 62
     7
100
AcDbVertex
100
AcDb2dVertex
 10
8.7410900361
 20
6.5437063278
 30
0.0
  0
VERTEX
  5
3DB
330
1F7
100
AcDbEntity
  8
0
  6
CONTINUOUS
 62
     7
100
AcDbVertex
100
AcDb2dVertex
 10
8.7461294741
 20
6.5552653456
 30
0.0
  0
VERTEX
  5
3DC
330
1F7
100
AcDbEntity
  8
0
  6
CONTINUOUS
 62
     7
100
AcDbVertex
100
AcDb2dVertex
 10
8.7503309385
 20
6.5669182157
 30
0.0
  0
VERTEX
  5
3DD
330
1F7
100
AcDbEntity
  8
0
  6
CONTINUOUS
 62
     7
100
AcDbVertex
100
AcDb2dVertex
 10
8.7536453346
 20
6.5785287722
 30
0.0
  0
VERTEX
  5
3DE
330
1F7
100
AcDbEntity
  8
0
  6
CONTINUOUS
 62
     7
100
AcDbVertex
100
AcDb2dVertex
 10
8.756033933
 20
6.5899613437
 30
0.0
  0
VERTEX
  5
3DF
330
1F7
100
AcDbEntity
  8
0
  6
CONTINUOUS
 62
     7
100
AcDbVertex
100
AcDb2dVertex
 10
8.7574688225
 20
6.6010823385
 30
0.0
  0
VERTEX
  5
3E0
330
1F7
100
AcDbEntity
  8
0
  6
CONTINUOUS
 62
     7
100
AcDbVertex
100
AcDb2dVertex
 10
8.7579332362
 20
6.6117618057
 30
0.0
  0
VERTEX
  5
3E1
330
1F7
100
AcDbEntity
  8
0
  6
CONTINUOUS
 62
     7
100
AcDbVertex
100
AcDb2dVertex
 10
8.7574217473
 20
6.621874954
 30
0.0
  0
VERTEX
  5
3E2
330
1F7
100
AcDbEntity
  8
0
  6
CONTINUOUS
 62
     7
100
AcDbVertex
100
AcDb2dVertex
 10
8.7559403327
 20
6.6313036093
 30
0.0
  0
VERTEX
  5
3E3
330
1F7
100
AcDbEntity
  8
0
  6
CONTINUOUS
 62
     7
100
AcDbVertex
100
AcDb2dVertex
 10
8.7535063029
 20
6.639937596
 30
0.0
  0
VERTEX
  5
3E4
330
1F7
100
AcDbEntity
  8
0
  6
CONTINUOUS
 62
     7
100
AcDbVertex
100
AcDb2dVertex
 10
8.7501481
 20
6.6476760246
 30
0.0
  0
VERTEX
  5
3E5
330
1F7
100
AcDbEntity
  8
0
  6
CONTINUOUS
 62
     7
100
AcDbVertex
100
AcDb2dVertex
 10
8.7459049653
 20
6.65442847
 30
0.0
  0
VERTEX
  5
3E6
330
1F7
100
AcDbEntity
  8
0
  6
CONTINUOUS
 62
     7
100
AcDbVertex
100
AcDb2dVertex
 10
8.7408264805
 20
6.6601160288
 30
0.0
  0
VERTEX
  5
3E7
330
1F7
100
AcDbEntity
  8
0
  6
CONTINUOUS
 62
     7
100
AcDbVertex
100
AcDb2dVertex
 10
8.7349719886
 20
6.6646722407
 30
0.0
  0
VERTEX
  5
3E8
330
1F7
100
AcDbEntity
  8
0
  6
CONTINUOUS
 62
     7
100
AcDbVertex
100
AcDb2dVertex
 10
8.7284099004
 20
6.6680438657
 30
0.0
  0
VERTEX
  5
3E9
330
1F7
100
AcDbEntity
  8
0
  6
CONTINUOUS
 62
     7
100
AcDbVertex
100
AcDb2dVertex
 10
8.7212168952
 20
6.6701915056
 30
0.0
  0
VERTEX
  5
3EA
330
1F7
100
AcDbEntity
  8
0
  6
CONTINUOUS
 62
     7
100
AcDbVertex
100
AcDb2dVertex
 10
8.7134770244
 20
6.671090065
 30
0.0
  0
VERTEX
  5
3EB
330
1F7
100
AcDbEntity
  8
0
  6
CONTINUOUS
 62
     7
100
AcDbVertex
100
AcDb2dVertex
 10
8.7052807299
 20
6.670729044
 30
0.0
  0
VERTEX
  5
3EC
330
1F7
100
AcDbEntity
  8
0
  6
CONTINUOUS
 62
     7
100
AcDbVertex
100
AcDb2dVertex
 10
8.6967237868
 20
6.6691126611
 30
0.0
  0
VERTEX
  5
3ED
330
1F7
100
AcDbEntity
  8
0
  6
CONTINUOUS
 62
     7
100
AcDbVertex
100
AcDb2dVertex
 10
8.6879061845
 20
6.6662598041
 30
0.0
  0
VERTEX
  5
3EE
330
1F7
100
AcDbEntity
  8
0
  6
CONTINUOUS
 62
     7
100
AcDbVertex
100
AcDb2dVertex
 10
8.681196585
 20
6.6633344123
 30
0.0
  0
SEQEND
  5
3EF
330
1F7
100
AcDbEntity
  8
0
  6
CONTINUOUS
 62
     7
  0
ARC
  5
1F8
330
1F
100
AcDbEntity
  8
0
  6
CONTINUOUS
 62
     7
100
AcDbCircle
 10
8.6398755477
 20
6.5043878213
 30
0.0
 40
0.0487914175094166
100
AcDbArc
 50
176.4613825715
 51
295.0024039814
  0
SPLINE
  5
1F9
330
1F
100
AcDbEntity
  8
0
  6
CONTINUOUS
 62
     7
100
AcDbSpline
210
0.0
220
0.0
230
1.0
 70
     8
 71
     3
 72
     8
 73
     4
 74
     0
 42
0.00000001
 43
0.00000001
 40
0.0
 40
0.0
 40
0.0
 40
0.0
 40
1.0
 40
1.0
 40
1.0
 40
1.0
 10
8.674639682754579
 20
6.435476220612967
 30
0.0
 10
8.669921426691012
 20
6.443704680905129
 30
0.0
 10
8.665206580045117
 20
6.451935224575912
 30
0.0
 10
8.660497547130847
 20
6.460168644828475
 30
0.0
  0
SPLINE
  5
1FA
330
1F
100
AcDbEntity
  8
0
  6
CONTINUOUS
 62
     7
100
AcDbSpline
210
0.0
220
0.0
230
1.0
 70
     8
 71
     3
 72
     8
 73
     4
 74
     0
 42
0.00000001
 43
0.00000001
 40
0.0
 40
0.0
 40
0.0
 40
0.0
 40
1.0
 40
1.0
 40
1.0
 40
1.0
 10
8.702478532407591
 20
6.451547246436248
 30
0.0
 10
8.697760276344026
 20
6.459775706728411
 30
0.0
 10
8.693045429698131
 20
6.468006250399195
 30
0.0
 10
8.68833639678386
 20
6.476239670651756
 30
0.0
  0
LINE
  5
1FB
330
1F
100
AcDbEntity
  8
0
  6
CONTINUOUS
 62
     7
100
AcDbLine
 10
8.5920708075
 20
6.4996705608
 30
0.0
 11
8.6604975471
 21
6.4601686448
 31
0.0
  0
LINE
  5
1FC
330
1F
100
AcDbEntity
  8
0
  6
CONTINUOUS
 62
     7
100
AcDbLine
 10
8.5943576915
 20
6.5304924224
 30
0.0
 11
8.6883363968
 21
6.4762396707
 31
0.0
  0
ARC
  5
1FD
330
1F
100
AcDbEntity
  8
0
  6
CONTINUOUS
 62
     7
100
AcDbCircle
 10
8.0303977487
 20
6.9350814666
 30
0.0
 40
0.6924499313467947
100
AcDbArc
 50
122.487737126
 51
177.5176394067
  0
POLYLINE
  5
1FE
330
1F
100
AcDbEntity
  8
0
  6
CONTINUOUS
 62
     7
100
AcDb2dPolyline
 66
     1
 10
0.0
 20
0.0
 30
0.0
  0
VERTEX
  5
3F0
330
1FE
100
AcDbEntity
  8
0
  6
CONTINUOUS
 62
     7
100
AcDbVertex
100
AcDb2dVertex
 10
8.2345715732
 20
6.3451105955
 30
0.0
  0
VERTEX
  5
3F1
330
1FE
100
AcDbEntity
  8
0
  6
CONTINUOUS
 62
     7
100
AcDbVertex
100
AcDb2dVertex
 10
8.2339395071
 20
6.342182362
 30
0.0
  0
VERTEX
  5
3F2
330
1FE
100
AcDbEntity
  8
0
  6
CONTINUOUS
 62
     7
100
AcDbVertex
100
AcDb2dVertex
 10
8.2324876025
 20
6.3320762241
 30
0.0
  0
VERTEX
  5
3F3
330
1FE
100
AcDbEntity
  8
0
  6
CONTINUOUS
 62
     7
100
AcDbVertex
100
AcDb2dVertex
 10
8.2320019733
 20
6.3212987996
 30
0.0
  0
VERTEX
  5
3F4
330
1FE
100
AcDbEntity
  8
0
  6
CONTINUOUS
 62
     7
100
AcDbVertex
100
AcDb2dVertex
 10
8.2324876025
 20
6.3099606794
 30
0.0
  0
VERTEX
  5
3F5
330
1FE
100
AcDbEntity
  8
0
  6
CONTINUOUS
 62
     7
100
AcDbVertex
100
AcDb2dVertex
 10
8.2339395071
 20
6.2981782082
 30
0.0
  0
VERTEX
  5
3F6
330
1FE
100
AcDbEntity
  8
0
  6
CONTINUOUS
 62
     7
100
AcDbVertex
100
AcDb2dVertex
 10
8.2363427884
 20
6.2860722898
 30
0.0
  0
VERTEX
  5
3F7
330
1FE
100
AcDbEntity
  8
0
  6
CONTINUOUS
 62
     7
100
AcDbVertex
100
AcDb2dVertex
 10
8.2396727857
 20
6.2737671476
 30
0.0
  0
VERTEX
  5
3F8
330
1FE
100
AcDbEntity
  8
0
  6
CONTINUOUS
 62
     7
100
AcDbVertex
100
AcDb2dVertex
 10
8.2438953285
 20
6.2613890488
 30
0.0
  0
VERTEX
  5
3F9
330
1FE
100
AcDbEntity
  8
0
  6
CONTINUOUS
 62
     7
100
AcDbVertex
100
AcDb2dVertex
 10
8.248967088
 20
6.2490650095
 30
0.0
  0
VERTEX
  5
3FA
330
1FE
100
AcDbEntity
  8
0
  6
CONTINUOUS
 62
     7
100
AcDbVertex
100
AcDb2dVertex
 10
8.2548360209
 20
6.236921491
 30
0.0
  0
VERTEX
  5
3FB
330
1FE
100
AcDbEntity
  8
0
  6
CONTINUOUS
 62
     7
100
AcDbVertex
100
AcDb2dVertex
 10
8.2614419041
 20
6.2250831023
 30
0.0
  0
VERTEX
  5
3FC
330
1FE
100
AcDbEntity
  8
0
  6
CONTINUOUS
 62
     7
100
AcDbVertex
100
AcDb2dVertex
 10
8.2687169523
 20
6.2136713212
 30
0.0
  0
VERTEX
  5
3FD
330
1FE
100
AcDbEntity
  8
0
  6
CONTINUOUS
 62
     7
100
AcDbVertex
100
AcDb2dVertex
 10
8.2765865136
 20
6.2028032481
 30
0.0
  0
VERTEX
  5
3FE
330
1FE
100
AcDbEntity
  8
0
  6
CONTINUOUS
 62
     7
100
AcDbVertex
100
AcDb2dVertex
 10
8.2849698357
 20
6.1925904041
 30
0.0
  0
VERTEX
  5
3FF
330
1FE
100
AcDbEntity
  8
0
  6
CONTINUOUS
 62
     7
100
AcDbVertex
100
AcDb2dVertex
 10
8.2937808945
 20
6.1831375868
 30
0.0
  0
VERTEX
  5
400
330
1FE
100
AcDbEntity
  8
0
  6
CONTINUOUS
 62
     7
100
AcDbVertex
100
AcDb2dVertex
 10
8.3029292763
 20
6.1745417949
 30
0.0
  0
VERTEX
  5
401
330
1FE
100
AcDbEntity
  8
0
  6
CONTINUOUS
 62
     7
100
AcDbVertex
100
AcDb2dVertex
 10
8.3123211066
 20
6.1668912329
 30
0.0
  0
VERTEX
  5
402
330
1FE
100
AcDbEntity
  8
0
  6
CONTINUOUS
 62
     7
100
AcDbVertex
100
AcDb2dVertex
 10
8.3218600125
 20
6.1602644058
 30
0.0
  0
VERTEX
  5
403
330
1FE
100
AcDbEntity
  8
0
  6
CONTINUOUS
 62
     7
100
AcDbVertex
100
AcDb2dVertex
 10
8.3314481117
 20
6.1547293139
 30
0.0
  0
VERTEX
  5
404
330
1FE
100
AcDbEntity
  8
0
  6
CONTINUOUS
 62
     7
100
AcDbVertex
100
AcDb2dVertex
 10
8.3409870175
 20
6.1503427548
 30
0.0
  0
VERTEX
  5
405
330
1FE
100
AcDbEntity
  8
0
  6
CONTINUOUS
 62
     7
100
AcDbVertex
100
AcDb2dVertex
 10
8.3503788478
 20
6.1471497404
 30
0.0
  0
VERTEX
  5
406
330
1FE
100
AcDbEntity
  8
0
  6
CONTINUOUS
 62
     7
100
AcDbVertex
100
AcDb2dVertex
 10
8.3595272297
 20
6.1451830354
 30
0.0
  0
VERTEX
  5
407
330
1FE
100
AcDbEntity
  8
0
  6
CONTINUOUS
 62
     7
100
AcDbVertex
100
AcDb2dVertex
 10
8.3683382884
 20
6.1444628208
 30
0.0
  0
VERTEX
  5
408
330
1FE
100
AcDbEntity
  8
0
  6
CONTINUOUS
 62
     7
100
AcDbVertex
100
AcDb2dVertex
 10
8.3767216106
 20
6.1449964871
 30
0.0
  0
VERTEX
  5
409
330
1FE
100
AcDbEntity
  8
0
  6
CONTINUOUS
 62
     7
100
AcDbVertex
100
AcDb2dVertex
 10
8.3845911719
 20
6.1467785581
 30
0.0
  0
VERTEX
  5
40A
330
1FE
100
AcDbEntity
  8
0
  6
CONTINUOUS
 62
     7
100
AcDbVertex
100
AcDb2dVertex
 10
8.3918662201
 20
6.1497907473
 30
0.0
  0
VERTEX
  5
40B
330
1FE
100
AcDbEntity
  8
0
  6
CONTINUOUS
 62
     7
100
AcDbVertex
100
AcDb2dVertex
 10
8.3984721033
 20
6.1540021456
 30
0.0
  0
VERTEX
  5
40C
330
1FE
100
AcDbEntity
  8
0
  6
CONTINUOUS
 62
     7
100
AcDbVertex
100
AcDb2dVertex
 10
8.4043410362
 20
6.1593695384
 30
0.0
  0
VERTEX
  5
40D
330
1FE
100
AcDbEntity
  8
0
  6
CONTINUOUS
 62
     7
100
AcDbVertex
100
AcDb2dVertex
 10
8.4094127957
 20
6.1658378489
 30
0.0
  0
VERTEX
  5
40E
330
1FE
100
AcDbEntity
  8
0
  6
CONTINUOUS
 62
     7
100
AcDbVertex
100
AcDb2dVertex
 10
8.4128323869
 20
6.1717046701
 30
0.0
  0
SEQEND
  5
40F
330
1FE
100
AcDbEntity
  8
0
  6
CONTINUOUS
 62
     7
  0
ARC
  5
1FF
330
1F
100
AcDbEntity
  8
0
  6
CONTINUOUS
 62
     7
100
AcDbCircle
 10
8.3793814643
 20
6.202049809
 30
0.0
 40
0.0659085348749397
100
AcDbArc
 50
230.8527821971
 51
319.4650758847
  0
POLYLINE
  5
200
330
1F
100
AcDbEntity
  8
0
  6
CONTINUOUS
 62
     7
100
AcDb2dPolyline
 66
     1
 10
0.0
 20
0.0
 30
0.0
  0
VERTEX
  5
410
330
200
100
AcDbEntity
  8
0
  6
CONTINUOUS
 62
     7
100
AcDbVertex
100
AcDb2dVertex
 10
8.2320019733
 20
6.3341556202
 30
0.0
  0
VERTEX
  5
411
330
200
100
AcDbEntity
  8
0
  6
CONTINUOUS
 62
     7
100
AcDbVertex
100
AcDb2dVertex
 10
8.2324809878
 20
6.3454911039
 30
0.0
  0
VERTEX
  5
412
330
200
100
AcDbEntity
  8
0
  6
CONTINUOUS
 62
     7
100
AcDbVertex
100
AcDb2dVertex
 10
8.2325548451
 20
6.3463094097
 30
0.0
  0
SEQEND
  5
413
330
200
100
AcDbEntity
  8
0
  6
CONTINUOUS
 62
     7
  0
LINE
  5
201
330
1F
100
AcDbEntity
  8
0
  6
CONTINUOUS
 62
     7
100
AcDbLine
 10
8.3266540621
 20
6.2109765963
 30
0.0
 11
8.3684123366
 21
6.2147104153
 31
0.0
  0
LINE
  5
202
330
1F
100
AcDbEntity
  8
0
  6
CONTINUOUS
 62
     7
100
AcDbLine
 10
8.3684123366
 20
6.2147104153
 30
0.0
 11
8.3684123366
 21
6.2168592182
 31
0.0
  0
LINE
  5
203
330
1F
100
AcDbEntity
  8
0
  6
CONTINUOUS
 62
     7
100
AcDbLine
 10
8.2848957876
 20
6.3058032004
 30
0.0
 11
8.2848957876
 21
6.2629234928
 31
0.0
  0
LINE
  5
204
330
1F
100
AcDbEntity
  8
0
  6
CONTINUOUS
 62
     7
100
AcDbLine
 10
8.2848957876
 20
6.2629234928
 30
0.0
 11
8.3266540621
 21
6.2109765963
 31
0.0
  0
LINE
  5
205
330
1F
100
AcDbEntity
  8
0
  6
CONTINUOUS
 62
     7
100
AcDbLine
 10
8.3576696774
 20
6.2288815299
 30
0.0
 11
8.3266540621
 21
6.2109765963
 31
0.0
  0
LINE
  5
206
330
1F
100
AcDbEntity
  8
0
  6
CONTINUOUS
 62
     7
100
AcDbLine
 10
8.3122884296
 20
6.2787369284
 30
0.0
 11
8.2848957876
 21
6.2629234928
 31
0.0
  0
POLYLINE
  5
207
330
1F
100
AcDbEntity
  8
0
  6
CONTINUOUS
 62
     7
100
AcDb2dPolyline
 66
     1
 10
0.0
 20
0.0
 30
0.0
  0
VERTEX
  5
414
330
207
100
AcDbEntity
  8
0
  6
CONTINUOUS
 62
     7
100
AcDbVertex
100
AcDb2dVertex
 10
7.9493031758
 20
7.494951208
 30
0.0
  0
VERTEX
  5
415
330
207
100
AcDbEntity
  8
0
  6
CONTINUOUS
 62
     7
100
AcDbVertex
100
AcDb2dVertex
 10
7.9500858653
 20
7.4958351231
 30
0.0
  0
VERTEX
  5
416
330
207
100
AcDbEntity
  8
0
  6
CONTINUOUS
 62
     7
100
AcDbVertex
100
AcDb2dVertex
 10
7.9550948488
 20
7.5004371174
 30
0.0
  0
VERTEX
  5
417
330
207
100
AcDbEntity
  8
0
  6
CONTINUOUS
 62
     7
100
AcDbVertex
100
AcDb2dVertex
 10
7.9612360141
 20
7.5045567369
 30
0.0
  0
VERTEX
  5
418
330
207
100
AcDbEntity
  8
0
  6
CONTINUOUS
 62
     7
100
AcDbVertex
100
AcDb2dVertex
 10
7.9683721776
 20
7.5081019561
 30
0.0
  0
VERTEX
  5
419
330
207
100
AcDbEntity
  8
0
  6
CONTINUOUS
 62
     7
100
AcDbVertex
100
AcDb2dVertex
 10
7.9763439292
 20
7.5109935808
 30
0.0
  0
VERTEX
  5
41A
330
207
100
AcDbEntity
  8
0
  6
CONTINUOUS
 62
     7
100
AcDbVertex
100
AcDb2dVertex
 10
7.9849731932
 20
7.5131670167
 30
0.0
  0
VERTEX
  5
41B
330
207
100
AcDbEntity
  8
0
  6
CONTINUOUS
 62
     7
100
AcDbVertex
100
AcDb2dVertex
 10
7.9940672061
 20
7.5145737129
 30
0.0
  0
VERTEX
  5
41C
330
207
100
AcDbEntity
  8
0
  6
CONTINUOUS
 62
     7
100
AcDbVertex
100
AcDb2dVertex
 10
8.0034228227
 20
7.5151822463
 30
0.0
  0
VERTEX
  5
41D
330
207
100
AcDbEntity
  8
0
  6
CONTINUOUS
 62
     7
100
AcDbVertex
100
AcDb2dVertex
 10
8.0128310539
 20
7.514979023
 30
0.0
  0
VERTEX
  5
41E
330
207
100
AcDbEntity
  8
0
  6
CONTINUOUS
 62
     7
100
AcDbVertex
100
AcDb2dVertex
 10
8.0220817354
 20
7.5139685828
 30
0.0
  0
VERTEX
  5
41F
330
207
100
AcDbEntity
  8
0
  6
CONTINUOUS
 62
     7
100
AcDbVertex
100
AcDb2dVertex
 10
8.0309682223
 20
7.5121734973
 30
0.0
  0
VERTEX
  5
420
330
207
100
AcDbEntity
  8
0
  6
CONTINUOUS
 62
     7
100
AcDbVertex
100
AcDb2dVertex
 10
8.0392920051
 20
7.5096338657
 30
0.0
  0
VERTEX
  5
421
330
207
100
AcDbEntity
  8
0
  6
CONTINUOUS
 62
     7
100
AcDbVertex
100
AcDb2dVertex
 10
8.0468671443
 20
7.5064064191
 30
0.0
  0
VERTEX
  5
422
330
207
100
AcDbEntity
  8
0
  6
CONTINUOUS
 62
     7
100
AcDbVertex
100
AcDb2dVertex
 10
8.0535244238
 20
7.5025632535
 30
0.0
  0
VERTEX
  5
423
330
207
100
AcDbEntity
  8
0
  6
CONTINUOUS
 62
     7
100
AcDbVertex
100
AcDb2dVertex
 10
8.0591151309
 20
7.4981902187
 30
0.0
  0
VERTEX
  5
424
330
207
100
AcDbEntity
  8
0
  6
CONTINUOUS
 62
     7
100
AcDbVertex
100
AcDb2dVertex
 10
8.0635143786
 20
7.4933850012
 30
0.0
  0
VERTEX
  5
425
330
207
100
AcDbEntity
  8
0
  6
CONTINUOUS
 62
     7
100
AcDbVertex
100
AcDb2dVertex
 10
8.0666238949
 20
7.4882549415
 30
0.0
  0
VERTEX
  5
426
330
207
100
AcDbEntity
  8
0
  6
CONTINUOUS
 62
     7
100
AcDbVertex
100
AcDb2dVertex
 10
8.0683742182
 20
7.4829146367
 30
0.0
  0
VERTEX
  5
427
330
207
100
AcDbEntity
  8
0
  6
CONTINUOUS
 62
     7
100
AcDbVertex
100
AcDb2dVertex
 10
8.0687262494
 20
7.4774833805
 30
0.0
  0
VERTEX
  5
428
330
207
100
AcDbEntity
  8
0
  6
CONTINUOUS
 62
     7
100
AcDbVertex
100
AcDb2dVertex
 10
8.0676721246
 20
7.472082498
 30
0.0
  0
VERTEX
  5
429
330
207
100
AcDbEntity
  8
0
  6
CONTINUOUS
 62
     7
100
AcDbVertex
100
AcDb2dVertex
 10
8.0652353912
 20
7.4668326361
 30
0.0
  0
VERTEX
  5
42A
330
207
100
AcDbEntity
  8
0
  6
CONTINUOUS
 62
     7
100
AcDbVertex
100
AcDb2dVertex
 10
8.0614704818
 20
7.461851068
 30
0.0
  0
VERTEX
  5
42B
330
207
100
AcDbEntity
  8
0
  6
CONTINUOUS
 62
     7
100
AcDbVertex
100
AcDb2dVertex
 10
8.0570380781
 20
7.4577075042
 30
0.0
  0
SEQEND
  5
42C
330
207
100
AcDbEntity
  8
0
  6
CONTINUOUS
 62
     7
  0
ARC
  5
208
330
1F
100
AcDbEntity
  8
0
  6
CONTINUOUS
 62
     7
100
AcDbCircle
 10
8.0495286665
 20
7.4661947202
 30
0.0
 40
0.03408463481344
100
AcDbArc
 50
332.1626766937
 51
69.5007848761
  0
LINE
  5
209
330
1F
100
AcDbEntity
  8
0
  6
CONTINUOUS
 62
     7
100
AcDbLine
 10
7.9500914272
 20
7.4981210132
 30
0.0
 11
7.946940913
 21
7.4961923288
 31
0.0
  0
ENDSEC
  0
SECTION
  2
OBJECTS
  0
DICTIONARY
  5
C
330
0
100
AcDbDictionary
  3
ACAD_GROUP
350
D
  3
ACAD_LAYOUT
350
1A
  3
ACAD_MLEADERSTYLE
350
20C
  3
ACAD_MLINESTYLE
350
17
  3
ACAD_PLOTSETTINGS
350
19
  3
ACAD_SCALELIST
350
6F
  3
ACAD_VISUALSTYLE
350
2A
  3
ACDBVARIABLEDICTIONARY
350
20A
1001
ACAD
1000
TREAT_AS_HARD
1070
     0
  0
DICTIONARY
  5
D
102
{ACAD_REACTORS
330
C
102
}
330
C
100
AcDbDictionary
1001
ACAD
1000
TREAT_AS_HARD
1070
     0
  0
DICTIONARY
  5
1A
102
{ACAD_REACTORS
330
C
102
}
330
C
100
AcDbDictionary
1001
ACAD
1000
TREAT_AS_HARD
1070
     0
  0
DICTIONARY
  5
20C
102
{ACAD_REACTORS
330
C
102
}
330
C
100
AcDbDictionary
1001
ACAD
1000
TREAT_AS_HARD
1070
     0
  0
DICTIONARY
  5
17
102
{ACAD_REACTORS
330
C
102
}
330
C
100
AcDbDictionary
  3
STANDARD
350
18
1001
ACAD
1000
TREAT_AS_HARD
1070
     0
  0
DICTIONARY
  5
19
102
{ACAD_REACTORS
330
C
102
}
330
C
100
AcDbDictionary
1001
ACAD
1000
TREAT_AS_HARD
1070
     0
  0
DICTIONARY
  5
6F
102
{ACAD_REACTORS
330
C
102
}
330
C
100
AcDbDictionary
  3
A0
350
70
  3
A1
350
71
  3
A2
350
72
  3
A3
350
73
  3
A4
350
74
  3
A5
350
75
  3
A6
350
76
  3
A7
350
77
  3
A8
350
78
  3
A9
350
79
  3
B0
350
7A
  3
B1
350
7B
  3
B2
350
7C
  3
B3
350
7D
  3
B4
350
7E
  3
B5
350
7F
  3
B6
350
80
  3
B7
350
81
  3
B8
350
82
  3
B9
350
83
  3
C0
350
84
  3
C1
350
85
  3
C2
350
86
  3
C3
350
87
  3
C4
350
88
  3
C5
350
89
  3
C6
350
8A
  3
C7
350
8B
  3
C8
350
8C
  3
C9
350
8D
  3
D0
350
8E
  3
D1
350
8F
  3
D2
350
90
1001
ACAD
1000
TREAT_AS_HARD
1070
     0
  0
DICTIONARY
  5
2A
102
{ACAD_REACTORS
330
C
102
}
330
C
100
AcDbDictionary
  3
2DWIREFRAME
350
2F
  3
3D_HIDDEN
350
31
  3
3DWIREFRAME
350
30
  3
BASIC
350
32
  3
BRIGHTEN
350
36
  3
COLORCHANGE
350
3A
  3
CONCEPTUAL
350
34
  3
DIM
350
35
  3
FACEPATTERN
350
39
  3
FLAT
350
2B
  3
FLATWITHEDGES
350
2C
  3
GOURAUD
350
2D
  3
GOURAUDWITHEDGES
350
2E
  3
LINEPATTERN
350
38
  3
REALISTIC
350
33
  3
THICKEN
350
37
1001
ACAD
1000
TREAT_AS_HARD
1070
     0
  0
DICTIONARY
  5
20A
102
{ACAD_REACTORS
330
C
102
}
330
C
100
AcDbDictionary
  3
CANNOSCALE
350
20D
  3
DIMASSOC
350
20E
  3
HIDETEXT
350
20F
1001
ACAD
1000
TREAT_AS_HARD
1070
     0
  0
MLINESTYLE
  5
18
102
{ACAD_REACTORS
330
17
102
}
330
17
100
AcDbMlineStyle
  2
Standard
 70
     0
  3

 62
   256
 51
90.0
 52
90.0
 71
     2
 49
0.5
 62
   256
  6
BYLAYER
 49
-0.5
 62
   256
  6
BYLAYER
  0
ACAD_PROXY_OBJECT
  5
70
102
{ACAD_REACTORS
330
6F
102
}
330
6F
100
AcDbZombieObject
 90
      499
 91
      502
 93
       41
310
903313A31580
  0
ACAD_PROXY_OBJECT
  5
71
102
{ACAD_REACTORS
330
6F
102
}
330
6F
100
AcDbZombieObject
 90
      499
 91
      502
 93
      105
310
903313A324000000000000004000
  0
ACAD_PROXY_OBJECT
  5
72
102
{ACAD_REACTORS
330
6F
102
}
330
6F
100
AcDbZombieObject
 90
      499
 91
      502
 93
      105
310
903313A344000000000000104000
  0
ACAD_PROXY_OBJECT
  5
73
102
{ACAD_REACTORS
330
6F
102
}
330
6F
100
AcDbZombieObject
 90
      499
 91
      502
 93
      105
310
903313A354000000000000144000
  0
ACAD_PROXY_OBJECT
  5
74
102
{ACAD_REACTORS
330
6F
102
}
330
6F
100
AcDbZombieObject
 90
      499
 91
      502
 93
      105
310
903313A384000000000000204000
  0
ACAD_PROXY_OBJECT
  5
75
102
{ACAD_REACTORS
330
6F
102
}
330
6F
100
AcDbZombieObject
 90
      499
 91
      502
 93
      113
310
904313A31304000000000000244000
  0
ACAD_PROXY_OBJECT
  5
76
102
{ACAD_REACTORS
330
6F
102
}
330
6F
100
AcDbZombieObject
 90
      499
 91
      502
 93
      113
310
904313A31364000000000000304000
  0
ACAD_PROXY_OBJECT
  5
77
102
{ACAD_REACTORS
330
6F
102
}
330
6F
100
AcDbZombieObject
 90
      499
 91
      502
 93
      113
310
904313A32304000000000000344000
  0
ACAD_PROXY_OBJECT
  5
78
102
{ACAD_REACTORS
330
6F
102
}
330
6F
100
AcDbZombieObject
 90
      499
 91
      502
 93
      113
310
904313A333040000000000003E4000
  0
ACAD_PROXY_OBJECT
  5
79
102
{ACAD_REACTORS
330
6F
102
}
330
6F
100
AcDbZombieObject
 90
      499
 91
      502
 93
      113
310
904313A34304000000000000444000
  0
ACAD_PROXY_OBJECT
  5
7A
102
{ACAD_REACTORS
330
6F
102
}
330
6F
100
AcDbZombieObject
 90
      499
 91
      502
 93
      113
310
904313A35304000000000000494000
  0
ACAD_PROXY_OBJECT
  5
7B
102
{ACAD_REACTORS
330
6F
102
}
330
6F
100
AcDbZombieObject
 90
      499
 91
      502
 93
      121
310
905313A3130304000000000000594000
  0
ACAD_PROXY_OBJECT
  5
7C
102
{ACAD_REACTORS
330
6F
102
}
330
6F
100
AcDbZombieObject
 90
      499
 91
      502
 93
      105
310
903323A310000000000000010100
  0
ACAD_PROXY_OBJECT
  5
7D
102
{ACAD_REACTORS
330
6F
102
}
330
6F
100
AcDbZombieObject
 90
      499
 91
      502
 93
      105
310
903343A310000000000000410100
  0
ACAD_PROXY_OBJECT
  5
7E
102
{ACAD_REACTORS
330
6F
102
}
330
6F
100
AcDbZombieObject
 90
      499
 91
      502
 93
      105
310
903383A310000000000000810100
  0
ACAD_PROXY_OBJECT
  5
7F
102
{ACAD_REACTORS
330
6F
102
}
330
6F
100
AcDbZombieObject
 90
      499
 91
      502
 93
      113
310
90431303A310000000000000910100
  0
ACAD_PROXY_OBJECT
  5
80
102
{ACAD_REACTORS
330
6F
102
}
330
6F
100
AcDbZombieObject
 90
      499
 91
      502
 93
      121
310
9053130303A310000000000001650100
  0
ACAD_PROXY_OBJECT
  5
81
102
{ACAD_REACTORS
330
6F
102
}
330
6F
100
AcDbZombieObject
 90
      499
 91
      502
 93
      257
310
90E312F31323822203D2031272D3022000000000000200FC000000000000284000
  0
ACAD_PROXY_OBJECT
  5
82
102
{ACAD_REACTORS
330
6F
102
}
330
6F
100
AcDbZombieObject
 90
      499
 91
      502
 93
      249
310
90D312F363422203D2031272D3022000000000000240FC000000000000284000
  0
ACAD_PROXY_OBJECT
  5
83
102
{ACAD_REACTORS
330
6F
102
}
330
6F
100
AcDbZombieObject
 90
      499
 91
      502
 93
      249
310
90D312F333222203D2031272D3022000000000000280FC000000000000284000
  0
ACAD_PROXY_OBJECT
  5
84
102
{ACAD_REACTORS
330
6F
102
}
330
6F
100
AcDbZombieObject
 90
      499
 91
      502
 93
      249
310
90D312F313622203D2031272D30220000000000002C0FC000000000000284000
  0
ACAD_PROXY_OBJECT
  5
85
102
{ACAD_REACTORS
330
6F
102
}
330
6F
100
AcDbZombieObject
 90
      499
 91
      502
 93
      249
310
90D332F333222203D2031272D30220000000000002E0FC000000000000284000
  0
ACAD_PROXY_OBJECT
  5
86
102
{ACAD_REACTORS
330
6F
102
}
330
6F
100
AcDbZombieObject
 90
      499
 91
      502
 93
      241
310
90C312F3822203D2031272D3022000000000000300FC000000000000284000
  0
ACAD_PROXY_OBJECT
  5
87
102
{ACAD_REACTORS
330
6F
102
}
330
6F
100
AcDbZombieObject
 90
      499
 91
      502
 93
      249
310
90D332F313622203D2031272D3022000000000000320FC000000000000284000
  0
ACAD_PROXY_OBJECT
  5
88
102
{ACAD_REACTORS
330
6F
102
}
330
6F
100
AcDbZombieObject
 90
      499
 91
      502
 93
      241
310
90C312F3422203D2031272D3022000000000000340FC000000000000284000
  0
ACAD_PROXY_OBJECT
  5
89
102
{ACAD_REACTORS
330
6F
102
}
330
6F
100
AcDbZombieObject
 90
      499
 91
      502
 93
      241
310
90C332F3822203D2031272D3022000000000000360FC000000000000284000
  0
ACAD_PROXY_OBJECT
  5
8A
102
{ACAD_REACTORS
330
6F
102
}
330
6F
100
AcDbZombieObject
 90
      499
 91
      502
 93
      241
310
90C312F3222203D2031272D3022000000000000380FC000000000000284000
  0
ACAD_PROXY_OBJECT
  5
8B
102
{ACAD_REACTORS
330
6F
102
}
330
6F
100
AcDbZombieObject
 90
      499
 91
      502
 93
      241
310
90C332F3422203D2031272D30220000000000003A0FC000000000000284000
  0
ACAD_PROXY_OBJECT
  5
8C
102
{ACAD_REACTORS
330
6F
102
}
330
6F
100
AcDbZombieObject
 90
      499
 91
      502
 93
      161
310
90A3122203D2031272D30224000000000000284000
  0
ACAD_PROXY_OBJECT
  5
8D
102
{ACAD_REACTORS
330
6F
102
}
330
6F
100
AcDbZombieObject
 90
      499
 91
      502
 93
      257
310
90E312D312F3222203D2031272D30220000000000003E0FC000000000000284000
  0
ACAD_PROXY_OBJECT
  5
8E
102
{ACAD_REACTORS
330
6F
102
}
330
6F
100
AcDbZombieObject
 90
      499
 91
      502
 93
      225
310
90A3322203D2031272D302200000000000002100000000000000284000
  0
ACAD_PROXY_OBJECT
  5
8F
102
{ACAD_REACTORS
330
6F
102
}
330
6F
100
AcDbZombieObject
 90
      499
 91
      502
 93
      225
310
90A3622203D2031272D302200000000000006100000000000000284000
  0
ACAD_PROXY_OBJECT
  5
90
102
{ACAD_REACTORS
330
6F
102
}
330
6F
100
AcDbZombieObject
 90
      499
 91
      502
 93
      249
310
90D31272D3022203D2031272D30220000000000000A100000000000000284000
  0
ACAD_PROXY_OBJECT
  5
2F
102
{ACAD_REACTORS
330
2A
102
}
330
2A
100
AcDbZombieObject
 90
      499
 91
      501
 93
      436
310
42CC9915DA5C99599C985B595049028333333333333E3BF0000000000000FB0107901411070040501600405405064090741402480A0340
1001
ACAD
1000
AcDbSavedByObjectVersion
1070
     0
  0
ACAD_PROXY_OBJECT
  5
31
102
{ACAD_REACTORS
330
2A
102
}
330
2A
100
AcDbZombieObject
 90
      499
 91
      501
 93
      500
310
424CD108121A5919195B90640502408333333333333E3BF0000000000000FB01079024090700405020000000000001110200405405064090740C02480A0340
1001
ACAD
1000
AcDbSavedByObjectVersion
1070
     0
  0
ACAD_PROXY_OBJECT
  5
30
102
{ACAD_REACTORS
330
2A
102
}
330
2A
100
AcDbZombieObject
 90
      499
 91
      501
 93
      436
310
42CCD915DA5C99599C985B595059028333333333333E3BF0000000000000FB0107901411070040501600405405064090741402480A0340
1001
ACAD
1000
AcDbSavedByObjectVersion
1070
     0
  0
ACAD_PROXY_OBJECT
  5
32
102
{ACAD_REACTORS
330
2A
102
}
330
2A
100
AcDbZombieObject
 90
      499
 91
      501
 93
      388
310
4150985CDA58D07406404333333333333E3BF0000000000000FB0107A41107004050150841D405064090741402480A0350
1001
ACAD
1000
AcDbSavedByObjectVersion
1070
     0
  0
ACAD_PROXY_OBJECT
  5
36
102
{ACAD_REACTORS
330
2A
102
}
330
2A
100
AcDbZombieObject
 90
      499
 91
      501
 93
      428
310
42109C9A59DA1D195B90C409028333333333333E3BF0000000000000FB010790141107004050150841D405064090741402480A029950
1001
ACAD
1000
AcDbSavedByObjectVersion
1070
     0
  0
ACAD_PROXY_OBJECT
  5
3A
102
{ACAD_REACTORS
330
2A
102
}
330
2A
100
AcDbZombieObject
 90
      499
 91
      501
 93
      452
310
42D0DBDB1BDC90DA185B99D95104090240C333333333333E3BF0000000000000FB0108901411070040501508421405064090741402480A0350
1001
ACAD
1000
AcDbSavedByObjectVersion
1070
     0
  0
ACAD_PROXY_OBJECT
  5
34
102
{ACAD_REACTORS
330
2A
102
}
330
2A
100
AcDbZombieObject
 90
      499
 91
      501
 93
      500
310
4290DBDB98D95C1D1D585B10940D028333333333333E3BF0000000000000FB0107902409070040501000000000000111010841D405064090740C02480A0340
1001
ACAD
1000
AcDbSavedByObjectVersion
1070
     0
  0
ACAD_PROXY_OBJECT
  5
35
102
{ACAD_REACTORS
330
2A
102
}
330
2A
100
AcDbZombieObject
 90
      499
 91
      501
 93
      412
310
40D11A5B50B409028333333333333E3BF0000000000000FB010790141107004050150841D405064090741402480A02677FFFFFD0
1001
ACAD
1000
AcDbSavedByObjectVersion
1070
     0
  0
ACAD_PROXY_OBJECT
  5
39
102
{ACAD_REACTORS
330
2A
102
}
330
2A
100
AcDbZombieObject
 90
      499
 91
      501
 93
      444
310
42D19858D95C185D1D195C9B90F409028333333333333E3BF0000000000000FB010790141107004050150841D405064090741402480A0350
1001
ACAD
1000
AcDbSavedByObjectVersion
1070
     0
  0
ACAD_PROXY_OBJECT
  5
2B
102
{ACAD_REACTORS
330
2A
102
}
330
2A
100
AcDbZombieObject
 90
      499
 91
      501
 93
      388
310
41119B185D240901404333333333333E3BF0000000000000F9010740A41107004050150841D405064090741402480A1B50
1001
ACAD
1000
AcDbSavedByObjectVersion
1070
     0
  0
ACAD_PROXY_OBJECT
  5
2C
102
{ACAD_REACTORS
330
2A
102
}
330
2A
100
AcDbZombieObject
 90
      499
 91
      501
 93
      476
310
43519B185D15DA5D1A115919D95CD0140901404333333333333E3BF0000000000000F9010740901411070040501600405405064090741402480A1B50
1001
ACAD
1000
AcDbSavedByObjectVersion
1070
     0
  0
ACAD_PROXY_OBJECT
  5
2D
102
{ACAD_REACTORS
330
2A
102
}
330
2A
100
AcDbZombieObject
 90
      499
 91
      501
 93
      412
310
41D1DBDD5C985D5910240902404333333333333E3BF0000000000000F9010740A411070040501641D405064090741402480A1B50
1001
ACAD
1000
AcDbSavedByObjectVersion
1070
     0
  0
ACAD_PROXY_OBJECT
  5
2E
102
{ACAD_REACTORS
330
2A
102
}
330
2A
100
AcDbZombieObject
 90
      499
 91
      501
 93
      500
310
4411DBDD5C985D5915DA5D1A115919D95CD0340902404333333333333E3BF0000000000000F9010740901411070040501600405405064090741402480A1B50
1001
ACAD
1000
AcDbSavedByObjectVersion
1070
     0
  0
ACAD_PROXY_OBJECT
  5
38
102
{ACAD_REACTORS
330
2A
102
}
330
2A
100
AcDbZombieObject
 90
      499
 91
      501
 93
      444
310
42D31A5B995C185D1D195C9B90E409028333333333333E3BF0000000000000FB010790141107004050750841D405064090741402483A0350
1001
ACAD
1000
AcDbSavedByObjectVersion
1070
     0
  0
ACAD_PROXY_OBJECT
  5
33
102
{ACAD_REACTORS
330
2A
102
}
330
2A
100
AcDbZombieObject
 90
      499
 91
      501
 93
      420
310
425499585B1A5CDD1A58D08409028333333333333E3BF0000000000000FB01079019070040501508421405064090741402480A1B40
1001
ACAD
1000
AcDbSavedByObjectVersion
1070
     0
  0
ACAD_PROXY_OBJECT
  5
37
102
{ACAD_REACTORS
330
2A
102
}
330
2A
100
AcDbZombieObject
 90
      499
 91
      501
 93
      412
310
41D51A1A58DAD95B90D409028333333333333E3BF0000000000000FB010790141107004050150C41D405064090741402480A0350
1001
ACAD
1000
AcDbSavedByObjectVersion
1070
     0
  0
DICTIONARYVAR
  5
20D
102
{ACAD_REACTORS
330
20A
102
}
330
20A
100
DictionaryVariables
280
     0
  1
1:1
  0
DICTIONARYVAR
  5
20E
102
{ACAD_REACTORS
330
20A
102
}
330
20A
100
DictionaryVariables
280
     0
  1
2
  0
DICTIONARYVAR
  5
20F
102
{ACAD_REACTORS
330
20A
102
}
330
20A
100
DictionaryVariables
280
     0
  1
1
  0
ENDSEC
  0
EOF
