  0
SECTION
  2
HEADER
  9
$ACADVER
  1
AC1012
  9
$DWGCODEPAGE
  3
ansi_1252
  9
$INSBASE
 10
0.0
 20
0.0
 30
0.0
  9
$EXTMIN
 10
0.0
 20
0.0
 30
0.0
  9
$EXTMAX
 10
11.0
 20
8.5
 30
0.0
  9
$LIMMIN
 10
0.0
 20
0.0
  9
$LIMMAX
 10
11.0
 20
8.5
  9
$ORTHOMODE
 70
     0
  9
$REGENMODE
 70
     1
  9
$FILLMODE
 70
     1
  9
$QTEXTMODE
 70
     0
  9
$MIRRTEXT
 70
     1
  9
$DRAGMODE
 70
     2
  9
$LTSCALE
 40
1.0
  9
$OSMODE
 70
    37
  9
$ATTMODE
 70
     1
  9
$TEXTSIZE
 40
0.125
  9
$TRACEWID
 40
0.05
  9
$TEXTSTYLE
  7
STANDARD
  9
$CLAYER
  8
0
  9
$CELTYPE
  6
BYLAYER
  9
$CECOLOR
 62
   256
  9
$CELTSCALE
 40
1.0
  9
$DELOBJ
 70
     1
  9
$DISPSILH
 70
     0
  9
$DIMSCALE
 40
1.0
  9
$DIMASZ
 40
0.13
  9
$DIMEXO
 40
0.05
  9
$DIMDLI
 40
0.38
  9
$DIMRND
 40
0.0
  9
$DIMDLE
 40
0.0
  9
$DIMEXE
 40
0.125
  9
$DIMTP
 40
0.0
  9
$DIMTM
 40
0.0
  9
$DIMTXT
 40
0.125
  9
$DIMCEN
 40
0.09
  9
$DIMTSZ
 40
0.0
  9
$DIMTOL
 70
     0
  9
$DIMLIM
 70
     0
  9
$DIMTIH
 70
     1
  9
$DIMTOH
 70
     1
  9
$DIMSE1
 70
     0
  9
$DIMSE2
 70
     0
  9
$DIMTAD
 70
     0
  9
$DIMZIN
 70
     0
  9
$DIMBLK
  1

  9
$DIMASO
 70
     1
  9
$DIMSHO
 70
     1
  9
$DIMPOST
  1

  9
$DIMAPOST
  1

  9
$DIMALT
 70
     0
  9
$DIMALTD
 70
     2
  9
$DIMALTF
 40
25.4
  9
$DIMLFAC
 40
2.0
  9
$DIMTOFL
 70
     0
  9
$DIMTVP
 40
0.0
  9
$DIMTIX
 70
     0
  9
$DIMSOXD
 70
     0
  9
$DIMSAH
 70
     0
  9
$DIMBLK1
  1

  9
$DIMBLK2
  1

  9
$DIMSTYLE
  2
STANDARD
  9
$DIMCLRD
 70
     0
  9
$DIMCLRE
 70
     0
  9
$DIMCLRT
 70
     0
  9
$DIMTFAC
 40
1.0
  9
$DIMGAP
 40
0.06
  9
$DIMJUST
 70
     0
  9
$DIMSD1
 70
     0
  9
$DIMSD2
 70
     0
  9
$DIMTOLJ
 70
     1
  9
$DIMTZIN
 70
     0
  9
$DIMALTZ
 70
     0
  9
$DIMALTTZ
 70
     0
  9
$DIMFIT
 70
     3
  9
$DIMUPT
 70
     0
  9
$DIMUNIT
 70
     2
  9
$DIMDEC
 70
     3
  9
$DIMTDEC
 70
     3
  9
$DIMALTU
 70
     2
  9
$DIMALTTD
 70
     2
  9
$DIMTXSTY
  7
STANDARD
  9
$DIMAUNIT
 70
     0
  9
$LUNITS
 70
     2
  9
$LUPREC
 70
     2
  9
$SKETCHINC
 40
0.1
  9
$FILLETRAD
 40
0.5
  9
$AUNITS
 70
     0
  9
$AUPREC
 70
     2
  9
$MENU
  1
.
  9
$ELEVATION
 40
0.0
  9
$PELEVATION
 40
0.0
  9
$THICKNESS
 40
0.0
  9
$LIMCHECK
 70
     0
  9
$CHAMFERA
 40
0.5
  9
$CHAMFERB
 40
0.5
  9
$CHAMFERC
 40
1.0
  9
$CHAMFERD
 40
0.0
  9
$SKPOLY
 70
     0
  9
$TDCREATE
 40
2455784.023478021
  9
$TDUPDATE
 40
2455784.023478033
  9
$TDINDWG
 40
0.0000000116
  9
$TDUSRTIMER
 40
0.0000000116
  9
$USRTIMER
 70
     1
  9
$ANGBASE
 50
0.0
  9
$ANGDIR
 70
     0
  9
$PDMODE
 70
     0
  9
$PDSIZE
 40
-1.0
  9
$PLINEWID
 40
0.0
  9
$COORDS
 70
     1
  9
$SPLFRAME
 70
     0
  9
$SPLINETYPE
 70
     6
  9
$SPLINESEGS
 70
     8
  9
$ATTDIA
 70
     0
  9
$ATTREQ
 70
     1
  9
$HANDLING
 70
     1
  9
$HANDSEED
  5
6A0
  9
$SURFTAB1
 70
     6
  9
$SURFTAB2
 70
     6
  9
$SURFTYPE
 70
     6
  9
$SURFU
 70
     6
  9
$SURFV
 70
     6
  9
$UCSNAME
  2

  9
$UCSORG
 10
0.0
 20
0.0
 30
0.0
  9
$UCSXDIR
 10
1.0
 20
0.0
 30
0.0
  9
$UCSYDIR
 10
0.0
 20
1.0
 30
0.0
  9
$PUCSNAME
  2

  9
$PUCSORG
 10
0.0
 20
0.0
 30
0.0
  9
$PUCSXDIR
 10
1.0
 20
0.0
 30
0.0
  9
$PUCSYDIR
 10
0.0
 20
1.0
 30
0.0
  9
$USERI1
 70
     0
  9
$USERI2
 70
     0
  9
$USERI3
 70
     0
  9
$USERI4
 70
     0
  9
$USERI5
 70
     0
  9
$USERR1
 40
0.0
  9
$USERR2
 40
0.0
  9
$USERR3
 40
0.0
  9
$USERR4
 40
0.0
  9
$USERR5
 40
0.0
  9
$WORLDVIEW
 70
     1
  9
$SHADEDGE
 70
     3
  9
$SHADEDIF
 70
    70
  9
$TILEMODE
 70
     1
  9
$MAXACTVP
 70
    64
  9
$PINSBASE
 10
0.0
 20
0.0
 30
0.0
  9
$PLIMCHECK
 70
     0
  9
$PEXTMIN
 10
1.0000000000E+20
 20
1.0000000000E+20
 30
1.0000000000E+20
  9
$PEXTMAX
 10
-1.0000000000E+20
 20
-1.0000000000E+20
 30
-1.0000000000E+20
  9
$PLIMMIN
 10
0.0
 20
0.0
  9
$PLIMMAX
 10
12.0
 20
9.0
  9
$UNITMODE
 70
     0
  9
$VISRETAIN
 70
     1
  9
$PLINEGEN
 70
     0
  9
$PSLTSCALE
 70
     1
  9
$TREEDEPTH
 70
  3020
  9
$PICKSTYLE
 70
     1
  9
$CMLSTYLE
  2
STANDARD
  9
$CMLJUST
 70
     0
  9
$CMLSCALE
 40
1.0
  9
$SAVEIMAGES
 70
     1
  0
ENDSEC
  0
SECTION
  2
CLASSES
  0
CLASS
  1
ACDBDICTIONARYWDFLT
  2
AcDbDictionaryWithDefault
  3
ObjectDBX Classes
 90
    32768
280
     0
281
     0
  0
CLASS
  1
VISUALSTYLE
  2
AcDbVisualStyle
  3
ObjectDBX Classes
 90
     4095
280
     0
281
     0
  0
CLASS
  1
SCALE
  2
AcDbScale
  3
ObjectDBX Classes
 90
     1153
280
     0
281
     0
  0
CLASS
  1
DICTIONARYVAR
  2
AcDbDictionaryVar
  3
ObjectDBX Classes
 90
        0
280
     0
281
     0
  0
CLASS
  1
XRECORD
  2
AcDbXrecord
  3
AutoCAD 2000
 90
    32768
280
     0
281
     0
  0
CLASS
  1
LWPOLYLINE
  2
AcDbPolyline
  3
AutoCAD 2000
 90
    32768
280
     0
281
     1
  0
CLASS
  1
HATCH
  2
AcDbHatch
  3
AutoCAD 2000
 90
    32768
280
     0
281
     1
  0
CLASS
  1
ACDBPLACEHOLDER
  2
AcDbPlaceHolder
  3
ObjectDBX Classes
 90
        0
280
     0
281
     0
  0
CLASS
  1
LAYOUT
  2
AcDbLayout
  3
ObjectDBX Classes
 90
        0
280
     0
281
     0
  0
ENDSEC
  0
SECTION
  2
TABLES
  0
TABLE
  2
VPORT
  5
8
330
0
100
AcDbSymbolTable
 70
     1
  0
VPORT
  5
29
330
8
100
AcDbSymbolTableRecord
100
AcDbViewportTableRecord
  2
*ACTIVE
 70
     0
 10
0.0
 20
0.0
 11
1.0
 21
1.0
 12
5.5
 22
4.25
 13
0.0
 23
0.0
 14
0.5
 24
0.5
 15
0.5
 25
0.5
 16
0.0
 26
0.0
 36
1.0
 17
0.0
 27
0.0
 37
0.0
 40
8.5
 41
1.2941176471
 42
50.0
 43
0.0
 44
0.0
 50
0.0
 51
0.0
 71
     0
 72
  2000
 73
     1
 74
     3
 75
     0
 76
     0
 77
     0
 78
     0
  0
ENDTAB
  0
TABLE
  2
LTYPE
  5
5
330
0
100
AcDbSymbolTable
 70
     6
  0
LTYPE
  5
14
330
5
100
AcDbSymbolTableRecord
100
AcDbLinetypeTableRecord
  2
BYBLOCK
 70
     0
  3

 72
    65
 73
     0
 40
0.0
  0
LTYPE
  5
15
330
5
100
AcDbSymbolTableRecord
100
AcDbLinetypeTableRecord
  2
BYLAYER
 70
     0
  3

 72
    65
 73
     0
 40
0.0
  0
LTYPE
  5
16
330
5
100
AcDbSymbolTableRecord
100
AcDbLinetypeTableRecord
  2
CONTINUOUS
 70
     0
  3
Solid line
 72
    65
 73
     0
 40
0.0
  0
LTYPE
  5
3B
330
5
100
AcDbSymbolTableRecord
100
AcDbLinetypeTableRecord
  2
HIDDEN
 70
     0
  3
Hidden __ __ __ __ __ __ __ __ __ __ __ __ __ __
 72
    65
 73
     2
 40
0.075
 49
0.05
 74
     0
 49
-0.025
 74
     0
  0
LTYPE
  5
3C
330
5
100
AcDbSymbolTableRecord
100
AcDbLinetypeTableRecord
  2
PHANTOM
 70
     0
  3
Phantom ______  __  __  ______  __  __  ______
 72
    65
 73
     6
 40
0.5
 49
0.25
 74
     0
 49
-0.05
 74
     0
 49
0.05
 74
     0
 49
-0.05
 74
     0
 49
0.05
 74
     0
 49
-0.05
 74
     0
  0
LTYPE
  5
3D
330
5
100
AcDbSymbolTableRecord
100
AcDbLinetypeTableRecord
  2
CENTER
 70
     0
  3
Center ____ _ ____ _ ____ _ ____ _ ____ _ ____
 72
    65
 73
     4
 40
0.4
 49
0.25
 74
     0
 49
-0.05
 74
     0
 49
0.05
 74
     0
 49
-0.05
 74
     0
  0
LTYPE
  5
3E
330
5
100
AcDbSymbolTableRecord
100
AcDbLinetypeTableRecord
  2
CENTERX2
 70
     0
  3
Center (2x) ________  __  ________  __  _____
 72
    65
 73
     4
 40
0.8
 49
0.5
 74
     0
 49
-0.1
 74
     0
 49
0.1
 74
     0
 49
-0.1
 74
     0
  0
LTYPE
  5
3F
330
5
100
AcDbSymbolTableRecord
100
AcDbLinetypeTableRecord
  2
DOT2
 70
     0
  3
Dot (.5x) ........................................
 72
    65
 73
     2
 40
0.025
 49
0.0
 74
     0
 49
-0.025
 74
     0
  0
ENDTAB
  0
TABLE
  2
LAYER
  5
2
330
0
100
AcDbSymbolTable
 70
     2
  0
LAYER
  5
10
330
2
100
AcDbSymbolTableRecord
100
AcDbLayerTableRecord
  2
0
 70
     0
 62
     7
  6
CONTINUOUS
  0
LAYER
  5
40
330
2
100
AcDbSymbolTableRecord
100
AcDbLayerTableRecord
  2
FORMAT
 70
     0
 62
     7
  6
CONTINUOUS
  0
ENDTAB
  0
TABLE
  2
STYLE
  5
3
330
0
100
AcDbSymbolTable
 70
     4
  0
STYLE
  5
11
330
3
100
AcDbSymbolTableRecord
100
AcDbTextStyleTableRecord
  2
STANDARD
 70
     0
 40
0.0
 41
1.0
 50
0.0
 71
     0
 42
0.2
  3
txt
  4

  0
STYLE
  5
6E
330
3
100
AcDbSymbolTableRecord
100
AcDbTextStyleTableRecord
  2
SLDTEXTSTYLE0
 70
     0
 40
0.0
 41
0.75
 50
0.0
 71
     0
 42
0.2
  3
TXT
  4

  0
STYLE
  5
93
330
3
100
AcDbSymbolTableRecord
100
AcDbTextStyleTableRecord
  2
SLDTEXTSTYLE1
 70
     0
 40
0.0
 41
0.6875
 50
0.0
 71
     0
 42
0.2
  3
TXT
  4

  0
STYLE
  5
99
330
3
100
AcDbSymbolTableRecord
100
AcDbTextStyleTableRecord
  2
SLDTEXTSTYLE2
 70
     0
 40
0.0
 41
0.6944444444
 50
0.0
 71
     0
 42
0.2
  3
TXT
  4

  0
ENDTAB
  0
TABLE
  2
VIEW
  5
6
330
0
100
AcDbSymbolTable
 70
     0
  0
ENDTAB
  0
TABLE
  2
UCS
  5
7
330
0
100
AcDbSymbolTable
 70
     0
  0
ENDTAB
  0
TABLE
  2
APPID
  5
9
330
0
100
AcDbSymbolTable
 70
     1
  0
APPID
  5
12
330
9
100
AcDbSymbolTableRecord
100
AcDbRegAppTableRecord
  2
ACAD
 70
     0
  0
ENDTAB
  0
TABLE
  2
DIMSTYLE
  5
A
330
0
100
AcDbSymbolTable
 70
     1
  0
DIMSTYLE
105
27
330
A
100
AcDbSymbolTableRecord
100
AcDbDimStyleTableRecord
  2
STANDARD
 70
     0
  3

  4

  5

  6

  7

 40
1.0
 41
0.18
 42
0.0625
 43
0.38
 44
0.18
 45
0.0
 46
0.0
 47
0.0
 48
0.0
140
0.18
141
0.09
142
0.0
143
25.4
144
1.0
145
0.0
146
1.0
147
0.09
 71
     0
 72
     0
 73
     1
 74
     1
 75
     0
 76
     0
 77
     0
 78
     0
170
     0
171
     2
172
     0
173
     0
174
     0
175
     0
176
     0
177
     0
178
     0
270
     2
271
     4
272
     4
273
     2
274
     2
340
11
275
     0
280
     0
281
     0
282
     0
283
     1
284
     0
285
     0
286
     0
287
     3
288
     0
  0
ENDTAB
  0
TABLE
  2
BLOCK_RECORD
  5
1
330
0
100
AcDbSymbolTable
 70
     4
  0
BLOCK_RECORD
  5
1F
330
1
100
AcDbSymbolTableRecord
100
AcDbBlockTableRecord
  2
*MODEL_SPACE
  0
BLOCK_RECORD
  5
1B
330
1
100
AcDbSymbolTableRecord
100
AcDbBlockTableRecord
  2
*PAPER_SPACE
  0
BLOCK_RECORD
  5
A8
330
1
100
AcDbSymbolTableRecord
100
AcDbBlockTableRecord
  2
SW_NOTE_0
  0
BLOCK_RECORD
  5
AE
330
1
100
AcDbSymbolTableRecord
100
AcDbBlockTableRecord
  2
SW_NOTE_1
  0
BLOCK_RECORD
  5
C2
330
1
100
AcDbSymbolTableRecord
100
AcDbBlockTableRecord
  2
SW_NOTE_2
  0
ENDTAB
  0
ENDSEC
  0
SECTION
  2
BLOCKS
  0
BLOCK
  5
20
330
1F
100
AcDbEntity
  8
0
100
AcDbBlockBegin
  2
*MODEL_SPACE
 70
     0
 10
0.0
 20
0.0
 30
0.0
  3
*MODEL_SPACE
  1

  0
ENDBLK
  5
21
330
1F
100
AcDbEntity
  8
0
100
AcDbBlockEnd
  0
BLOCK
  5
1C
330
1B
100
AcDbEntity
 67
     1
  8
0
100
AcDbBlockBegin
  2
*PAPER_SPACE
 70
     0
 10
0.0
 20
0.0
 30
0.0
  3
*PAPER_SPACE
  1

  0
ENDBLK
  5
1D
330
1B
100
AcDbEntity
 67
     1
  8
0
100
AcDbBlockEnd
  0
BLOCK
  5
A9
330
A8
100
AcDbEntity
  8
0
100
AcDbBlockBegin
  2
SW_NOTE_0
 70
     0
 10
0.0
 20
0.0
 30
0.0
  3
SW_NOTE_0
  1

  0
MTEXT
  5
AB
330
A8
100
AcDbEntity
  8
0
  6
CONTINUOUS
 62
     0
100
AcDbMText
 10
0.0
 20
0.0773440644
 30
0.0
 40
0.06
 41
0.0
 71
     1
 72
     1
  1
INTERPRET GEOMETRIC
  7
SLDTEXTSTYLE0
  0
MTEXT
  5
AC
330
A8
100
AcDbEntity
  8
0
  6
CONTINUOUS
 62
     0
100
AcDbMText
 10
0.0
 20
-0.0220260102
 30
0.0
 40
0.06
 41
0.0
 71
     1
 72
     1
  1
TOLERANCING PER:
  7
SLDTEXTSTYLE0
  0
ENDBLK
  5
AA
330
A8
100
AcDbEntity
  8
0
100
AcDbBlockEnd
  0
BLOCK
  5
AF
330
AE
100
AcDbEntity
  8
0
100
AcDbBlockBegin
  2
SW_NOTE_1
 70
     0
 10
0.0
 20
0.0
 30
0.0
  3
SW_NOTE_1
  1

  0
MTEXT
  5
B1
330
AE
100
AcDbEntity
  8
0
  6
CONTINUOUS
 62
     0
100
AcDbMText
 10
0.0
 20
0.0837894031
 30
0.0
 40
0.065
 41
0.0
 71
     1
 72
     1
  1
DIMENSIONS ARE IN INCHES
  7
SLDTEXTSTYLE0
  0
MTEXT
  5
B2
330
AE
100
AcDbEntity
  8
0
  6
CONTINUOUS
 62
     0
100
AcDbMText
 10
0.0
 20
-0.0205806729
 30
0.0
 40
0.065
 41
0.0
 71
     1
 72
     1
  1
TOLERANCES:
  7
SLDTEXTSTYLE0
  0
MTEXT
  5
B3
330
AE
100
AcDbEntity
  8
0
  6
CONTINUOUS
 62
     0
100
AcDbMText
 10
0.0
 20
-0.1249507489
 30
0.0
 40
0.065
 41
0.0
 71
     1
 72
     1
  1
FRACTIONAL
  7
SLDTEXTSTYLE0
  0
MTEXT
  5
B4
330
AE
100
AcDbEntity
  8
0
  6
CONTINUOUS
 62
     0
100
AcDbMText
 10
0.5175850875
 20
-0.1249507489
 30
0.0
 40
0.065
 41
0.0
 71
     1
 72
     1
  1
%%p
  7
SLDTEXTSTYLE0
  0
MTEXT
  5
B5
330
AE
100
AcDbEntity
  8
0
  6
CONTINUOUS
 62
     0
100
AcDbMText
 10
0.0
 20
-0.2293208248
 30
0.0
 40
0.065
 41
0.0
 71
     1
 72
     1
  1
ANGULAR: MACH
  7
SLDTEXTSTYLE0
  0
MTEXT
  5
B6
330
AE
100
AcDbEntity
  8
0
  6
CONTINUOUS
 62
     0
100
AcDbMText
 10
0.7233732769
 20
-0.2293208248
 30
0.0
 40
0.065
 41
0.0
 71
     1
 72
     1
  1
%%p
  7
SLDTEXTSTYLE0
  0
MTEXT
  5
B7
330
AE
100
AcDbEntity
  8
0
  6
CONTINUOUS
 62
     0
100
AcDbMText
 10
0.7852857683
 20
-0.2293208248
 30
0.0
 40
0.065
 41
0.0
 71
     1
 72
     1
  1
     BEND 
  7
SLDTEXTSTYLE0
  0
MTEXT
  5
B8
330
AE
100
AcDbEntity
  8
0
  6
CONTINUOUS
 62
     0
100
AcDbMText
 10
1.14784136
 20
-0.2293208248
 30
0.0
 40
0.065
 41
0.0
 71
     1
 72
     1
  1
%%p
  7
SLDTEXTSTYLE0
  0
MTEXT
  5
B9
330
AE
100
AcDbEntity
  8
0
  6
CONTINUOUS
 62
     0
100
AcDbMText
 10
0.0
 20
-0.3336909008
 30
0.0
 40
0.065
 41
0.0
 71
     1
 72
     1
  1
TWO PLACE DECIMAL    
  7
SLDTEXTSTYLE0
  0
MTEXT
  5
BA
330
AE
100
AcDbEntity
  8
0
  6
CONTINUOUS
 62
     0
100
AcDbMText
 10
0.9794349188
 20
-0.3336909008
 30
0.0
 40
0.065
 41
0.0
 71
     1
 72
     1
  1
%%p
  7
SLDTEXTSTYLE0
  0
MTEXT
  5
BB
330
AE
100
AcDbEntity
  8
0
  6
CONTINUOUS
 62
     0
100
AcDbMText
 10
0.0
 20
-0.4380609768
 30
0.0
 40
0.065
 41
0.0
 71
     1
 72
     1
  1
THREE PLACE DECIMAL  
  7
SLDTEXTSTYLE0
  0
MTEXT
  5
BC
330
AE
100
AcDbEntity
  8
0
  6
CONTINUOUS
 62
     0
100
AcDbMText
 10
0.9738038639
 20
-0.4380609768
 30
0.0
 40
0.065
 41
0.0
 71
     1
 72
     1
  1
%%p
  7
SLDTEXTSTYLE0
  0
ENDBLK
  5
B0
330
AE
100
AcDbEntity
  8
0
100
AcDbBlockEnd
  0
BLOCK
  5
C3
330
C2
100
AcDbEntity
  8
0
100
AcDbBlockBegin
  2
SW_NOTE_2
 70
     0
 10
0.0
 20
0.0
 30
0.0
  3
SW_NOTE_2
  1

  0
MTEXT
  5
C5
330
C2
100
AcDbEntity
  8
0
  6
CONTINUOUS
 62
     0
100
AcDbMText
 10
0.0
 20
0.0773440644
 30
0.0
 40
0.06
 41
0.0
 71
     1
 72
     1
  1
THE INFORMATION CONTAINED IN THIS
  7
SLDTEXTSTYLE0
  0
MTEXT
  5
C6
330
C2
100
AcDbEntity
  8
0
  6
CONTINUOUS
 62
     0
100
AcDbMText
 10
0.0
 20
-0.0220260102
 30
0.0
 40
0.06
 41
0.0
 71
     1
 72
     1
  1
DRAWING IS THE SOLE PROPERTY OF
  7
SLDTEXTSTYLE0
  0
MTEXT
  5
C7
330
C2
100
AcDbEntity
  8
0
  6
CONTINUOUS
 62
     0
100
AcDbMText
 10
0.0
 20
-0.1213960848
 30
0.0
 40
0.06
 41
0.0
 71
     1
 72
     1
  1
Candy Controls.  ANY 
  7
SLDTEXTSTYLE0
  0
MTEXT
  5
C8
330
C2
100
AcDbEntity
  8
0
  6
CONTINUOUS
 62
     0
100
AcDbMText
 10
0.0
 20
-0.2207661593
 30
0.0
 40
0.06
 41
0.0
 71
     1
 72
     1
  1
REPRODUCTION IN PART OR AS A WHOLE
  7
SLDTEXTSTYLE0
  0
MTEXT
  5
C9
330
C2
100
AcDbEntity
  8
0
  6
CONTINUOUS
 62
     0
100
AcDbMText
 10
0.0
 20
-0.3201362339
 30
0.0
 40
0.06
 41
0.0
 71
     1
 72
     1
  1
WITHOUT THE WRITTEN PERMISSION OF
  7
SLDTEXTSTYLE0
  0
MTEXT
  5
CA
330
C2
100
AcDbEntity
  8
0
  6
CONTINUOUS
 62
     0
100
AcDbMText
 10
0.0
 20
-0.4195063085
 30
0.0
 40
0.06
 41
0.0
 71
     1
 72
     1
  1
Candy Controls IS 
  7
SLDTEXTSTYLE0
  0
MTEXT
  5
CB
330
C2
100
AcDbEntity
  8
0
  6
CONTINUOUS
 62
     0
100
AcDbMText
 10
0.0
 20
-0.518876383
 30
0.0
 40
0.06
 41
0.0
 71
     1
 72
     1
  1
PROHIBITED.
  7
SLDTEXTSTYLE0
  0
ENDBLK
  5
C4
330
C2
100
AcDbEntity
  8
0
100
AcDbBlockEnd
  0
ENDSEC
  0
SECTION
  2
ENTITIES
  0
LINE
  5
41
330
1F
100
AcDbEntity
  8
0
  6
CONTINUOUS
 62
     7
100
AcDbLine
 10
0.329927
 20
8.1920731707
 30
0.0
 11
10.629927
 21
8.1920731707
 31
0.0
  0
LINE
  5
42
330
1F
100
AcDbEntity
  8
0
  6
CONTINUOUS
 62
     7
100
AcDbLine
 10
0.329927
 20
8.1920731707
 30
0.0
 11
0.329927
 21
0.3920731707
 31
0.0
  0
LINE
  5
43
330
1F
100
AcDbEntity
  8
0
  6
CONTINUOUS
 62
     7
100
AcDbLine
 10
10.629927
 20
0.3920731707
 30
0.0
 11
0.329927
 21
0.3920731707
 31
0.0
  0
LINE
  5
44
330
1F
100
AcDbEntity
  8
0
  6
CONTINUOUS
 62
     7
100
AcDbLine
 10
10.629927
 20
0.3920731707
 30
0.0
 11
10.629927
 21
8.1920731707
 31
0.0
  0
LINE
  5
45
330
1F
100
AcDbEntity
  8
0
  6
CONTINUOUS
 62
     7
100
AcDbLine
 10
4.7981841288
 20
0.3920731707
 30
0.0
 11
4.7981841288
 21
2.3564211366
 31
0.0
  0
LINE
  5
46
330
1F
100
AcDbEntity
  8
0
  6
CONTINUOUS
 62
     7
100
AcDbLine
 10
2.8210345579
 20
2.3564211366
 30
0.0
 11
10.629927
 21
2.3564211366
 31
0.0
  0
LINE
  5
47
330
1F
100
AcDbEntity
  8
0
  6
CONTINUOUS
 62
     7
100
AcDbLine
 10
6.1796352514
 20
2.3564211366
 30
0.0
 11
6.1796352514
 21
0.3920731707
 31
0.0
  0
LINE
  5
48
330
1F
100
AcDbEntity
  8
0
  6
CONTINUOUS
 62
     7
100
AcDbLine
 10
7.8712070044
 20
2.3564211366
 30
0.0
 11
7.8712070044
 21
0.3920731707
 31
0.0
  0
LINE
  5
49
330
1F
100
AcDbEntity
  8
0
  6
CONTINUOUS
 62
     7
100
AcDbLine
 10
7.8712070044
 20
0.6049590101
 30
0.0
 11
10.629927
 21
0.6049590101
 31
0.0
  0
LINE
  5
4A
330
1F
100
AcDbEntity
  8
0
  6
CONTINUOUS
 62
     7
100
AcDbLine
 10
7.8712070044
 20
1.1119362457
 30
0.0
 11
10.629927
 21
1.1119362457
 31
0.0
  0
LINE
  5
4B
330
1F
100
AcDbEntity
  8
0
  6
CONTINUOUS
 62
     7
100
AcDbLine
 10
7.8712070044
 20
1.9892703708
 30
0.0
 11
10.629927
 21
1.9892703708
 31
0.0
  0
LINE
  5
4C
330
1F
100
AcDbEntity
  8
0
  6
CONTINUOUS
 62
     7
100
AcDbLine
 10
8.266751752
 20
1.1119362457
 30
0.0
 11
8.266751752
 21
0.6049590101
 31
0.0
  0
LINE
  5
4D
330
1F
100
AcDbEntity
  8
0
  6
CONTINUOUS
 62
     7
100
AcDbLine
 10
8.6943435176
 20
0.6049590101
 30
0.0
 11
8.6943435176
 21
0.3920731707
 31
0.0
  0
LINE
  5
4E
330
1F
100
AcDbEntity
  8
0
  6
CONTINUOUS
 62
     7
100
AcDbLine
 10
10.0579917045
 20
1.1119362457
 30
0.0
 11
10.0579917045
 21
0.6049590101
 31
0.0
  0
LINE
  5
4F
330
1F
100
AcDbEntity
  8
0
  6
CONTINUOUS
 62
     7
100
AcDbLine
 10
9.6662556631
 20
0.6049590101
 30
0.0
 11
9.6662556631
 21
0.3920731707
 31
0.0
  0
LINE
  5
50
330
1F
100
AcDbEntity
  8
0
  6
CONTINUOUS
 62
     7
100
AcDbLine
 10
2.8210345579
 20
0.5883479999
 30
0.0
 11
6.1796352514
 21
0.5883479999
 31
0.0
  0
LINE
  5
51
330
1F
100
AcDbEntity
  8
0
  6
CONTINUOUS
 62
     7
100
AcDbLine
 10
6.1796352514
 20
1.7939211366
 30
0.0
 11
7.8712070044
 21
1.7939211366
 31
0.0
  0
LINE
  5
52
330
1F
100
AcDbEntity
  8
0
  6
CONTINUOUS
 62
     7
100
AcDbLine
 10
6.1796352514
 20
1.9814211366
 30
0.0
 11
7.8712070044
 21
1.9814211366
 31
0.0
  0
LINE
  5
53
330
1F
100
AcDbEntity
  8
0
  6
CONTINUOUS
 62
     7
100
AcDbLine
 10
6.1796352514
 20
2.1689211366
 30
0.0
 11
7.8712070044
 21
2.1689211366
 31
0.0
  0
LINE
  5
54
330
1F
100
AcDbEntity
  8
0
  6
CONTINUOUS
 62
     7
100
AcDbLine
 10
7.8712070044
 20
1.2314211366
 30
0.0
 11
6.1796352514
 21
1.2314211366
 31
0.0
  0
LINE
  5
55
330
1F
100
AcDbEntity
  8
0
  6
CONTINUOUS
 62
     7
100
AcDbLine
 10
7.3921580388
 20
2.3564211366
 30
0.0
 11
7.3921580388
 21
1.2314211366
 31
0.0
  0
LINE
  5
56
330
1F
100
AcDbEntity
  8
0
  6
CONTINUOUS
 62
     7
100
AcDbLine
 10
6.9236308342
 20
2.3564211366
 30
0.0
 11
6.9236308342
 21
1.2314211366
 31
0.0
  0
LINE
  5
57
330
1F
100
AcDbEntity
  8
0
  6
CONTINUOUS
 62
     7
100
AcDbLine
 10
4.7981841288
 20
0.8557965305
 30
0.0
 11
6.1796352514
 21
0.8557965305
 31
0.0
  0
LINE
  5
58
330
1F
100
AcDbEntity
  8
0
  6
CONTINUOUS
 62
     7
100
AcDbLine
 10
4.7981841288
 20
1.1257965305
 30
0.0
 11
6.1796352514
 21
1.1257965305
 31
0.0
  0
LINE
  5
59
330
1F
100
AcDbEntity
  8
0
  6
CONTINUOUS
 62
     7
100
AcDbLine
 10
2.8210345579
 20
0.3920731707
 30
0.0
 11
2.8210345579
 21
2.3564211366
 31
0.0
  0
LINE
  5
5A
330
1F
100
AcDbEntity
  8
0
  6
CONTINUOUS
 62
     7
100
AcDbLine
 10
2.8210345579
 20
1.1064211366
 30
0.0
 11
4.7981841288
 21
1.1064211366
 31
0.0
  0
LINE
  5
5B
330
1F
100
AcDbEntity
  8
0
  6
CONTINUOUS
 62
     7
100
AcDbLine
 10
2.8210345579
 20
1.3564211366
 30
0.0
 11
4.7981841288
 21
1.3564211366
 31
0.0
  0
LINE
  5
5C
330
1F
100
AcDbEntity
  8
0
  6
CONTINUOUS
 62
     7
100
AcDbLine
 10
2.8210345579
 20
1.6064211366
 30
0.0
 11
4.7981841288
 21
1.6064211366
 31
0.0
  0
LINE
  5
5D
330
1F
100
AcDbEntity
  8
0
  6
CONTINUOUS
 62
     7
100
AcDbLine
 10
2.8210345579
 20
1.8564211366
 30
0.0
 11
4.7981841288
 21
1.8564211366
 31
0.0
  0
LINE
  5
5E
330
1F
100
AcDbEntity
  8
0
  6
CONTINUOUS
 62
     7
100
AcDbLine
 10
3.8190146875
 20
2.3564211366
 30
0.0
 11
3.8190146875
 21
0.5883479999
 31
0.0
  0
LINE
  5
5F
330
1F
100
AcDbEntity
  8
0
  6
CONTINUOUS
 62
     7
100
AcDbLine
 10
6.1796352514
 20
2.2020813496
 30
0.0
 11
4.7981841288
 21
2.2020813496
 31
0.0
  0
LINE
  5
60
330
1F
100
AcDbEntity
  8
0
  6
CONTINUOUS
 62
     7
100
AcDbLine
 10
7.8712070044
 20
1.6064211366
 30
0.0
 11
6.1796352514
 21
1.6064211366
 31
0.0
  0
LINE
  5
61
330
1F
100
AcDbEntity
  8
0
  6
CONTINUOUS
 62
     7
100
AcDbLine
 10
7.8712070044
 20
1.4189211366
 30
0.0
 11
6.1796352514
 21
1.4189211366
 31
0.0
  0
LINE
  5
62
330
1F
100
AcDbEntity
  8
0
  6
CONTINUOUS
 62
     7
100
AcDbLine
 10
2.8210345579
 20
2.1064211366
 30
0.0
 11
4.7981841288
 21
2.1064211366
 31
0.0
  0
LINE
  5
63
330
1F
100
AcDbEntity
  8
0
  6
CONTINUOUS
 62
     7
100
AcDbLine
 10
4.7981841288
 20
1.3957965305
 30
0.0
 11
6.1796352514
 21
1.3957965305
 31
0.0
  0
LINE
  5
64
330
1F
100
AcDbEntity
  8
0
  6
CONTINUOUS
 62
     7
100
AcDbLine
 10
2.8210345579
 20
0.8564211366
 30
0.0
 11
4.7981841288
 21
0.8564211366
 31
0.0
  0
LINE
  5
65
330
1F
100
AcDbEntity
  8
0
  6
CONTINUOUS
 62
     7
100
AcDbLine
 10
1.1838252943
 20
0.3920731707
 30
0.0
 11
1.1838252943
 21
1.3064211366
 31
0.0
  0
LINE
  5
66
330
1F
100
AcDbEntity
  8
0
  6
CONTINUOUS
 62
     7
100
AcDbLine
 10
2.8210345579
 20
1.3064211366
 30
0.0
 11
1.1838252943
 21
1.3064211366
 31
0.0
  0
LINE
  5
67
330
1F
100
AcDbEntity
  8
0
  6
CONTINUOUS
 62
     7
100
AcDbLine
 10
8.660927
 20
0.3920731707
 30
0.0
 11
8.660927
 21
0.3072739649
 31
0.0
  0
LINE
  5
68
330
1F
100
AcDbEntity
  8
0
  6
CONTINUOUS
 62
     7
100
AcDbLine
 10
6.692177
 20
0.3920731707
 30
0.0
 11
6.692177
 21
0.3072739649
 31
0.0
  0
LINE
  5
69
330
1F
100
AcDbEntity
  8
0
  6
CONTINUOUS
 62
     7
100
AcDbLine
 10
4.723427
 20
0.3920731707
 30
0.0
 11
4.723427
 21
0.3072739649
 31
0.0
  0
LINE
  5
6A
330
1F
100
AcDbEntity
  8
0
  6
CONTINUOUS
 62
     7
100
AcDbLine
 10
2.754677
 20
0.3920731707
 30
0.0
 11
2.754677
 21
0.3072739649
 31
0.0
  0
LINE
  5
6B
330
1F
100
AcDbEntity
  8
0
  6
CONTINUOUS
 62
     7
100
AcDbLine
 10
2.754677
 20
0.3920731707
 30
0.0
 11
2.7672319738
 21
0.3575
 31
0.0
  0
LINE
  5
6C
330
1F
100
AcDbEntity
  8
0
  6
CONTINUOUS
 62
     7
100
AcDbLine
 10
2.7672319738
 20
0.3575
 30
0.0
 11
2.7414258825
 21
0.3575
 31
0.0
  0
LINE
  5
6D
330
1F
100
AcDbEntity
  8
0
  6
CONTINUOUS
 62
     7
100
AcDbLine
 10
2.7414258825
 20
0.3575
 30
0.0
 11
2.754677
 21
0.3920731707
 31
0.0
  0
MTEXT
  5
91
330
1F
100
AcDbEntity
  8
0
  6
CONTINUOUS
 62
     7
100
AcDbMText
 10
4.9775846961
 20
0.5178452352
 30
0.0
 40
0.0625
 41
0.0
 71
     1
 72
     1
  1
DO NOT SCALE DRAWING
  7
SLDTEXTSTYLE0
  0
MTEXT
  5
92
330
1F
100
AcDbEntity
  8
0
  6
CONTINUOUS
 62
     7
100
AcDbMText
 10
8.8363394143
 20
0.9417064595
 30
0.0
 40
0.125
 41
0.0
 71
     1
 72
     1
  1
CL5-C94
  7
SLDTEXTSTYLE0
  0
MTEXT
  5
94
330
1F
100
AcDbEntity
  8
0
  6
CONTINUOUS
 62
     7
100
AcDbMText
 10
9.7571278483
 20
0.5524239532
 30
0.0
 40
0.1
 41
0.0
 71
     1
 72
     1
  1
SHEET 1 OF 1
  7
SLDTEXTSTYLE1
  0
MTEXT
  5
95
330
1F
100
AcDbEntity
  8
0
  6
CONTINUOUS
 62
     7
100
AcDbMText
 10
4.8448077858
 20
2.3132954224
 30
0.0
 40
0.07
 41
0.0
 71
     1
 72
     1
  1
UNLESS OTHERWISE SPECIFIED:
  7
SLDTEXTSTYLE0
  0
MTEXT
  5
96
330
1F
100
AcDbEntity
  8
0
  6
CONTINUOUS
 62
     7
100
AcDbMText
 10
7.9586139647
 20
0.5520987879
 30
0.0
 40
0.1
 41
0.0
 71
     1
 72
     1
  1
SCALE: 1:2
  7
SLDTEXTSTYLE0
  0
MTEXT
  5
97
330
1F
100
AcDbEntity
  8
0
  6
CONTINUOUS
 62
     7
100
AcDbMText
 10
8.7023691647
 20
0.5486763345
 30
0.0
 40
0.1
 41
0.0
 71
     1
 72
     1
  1
WEIGHT: 
  7
SLDTEXTSTYLE0
  0
MTEXT
  5
98
330
1F
100
AcDbEntity
  8
0
  6
CONTINUOUS
 62
     7
100
AcDbMText
 10
10.2277580983
 20
1.081966299
 30
0.0
 40
0.1
 41
0.0
 71
     1
 72
     1
  1
REV
  7
SLDTEXTSTYLE0
  0
MTEXT
  5
9A
330
1F
100
AcDbEntity
  8
0
  6
CONTINUOUS
 62
     7
100
AcDbMText
 10
8.2984570898
 20
1.0858725293
 30
0.0
 40
0.1
 41
0.0
 71
     1
 72
     1
  1
DWG.  NO.
  7
SLDTEXTSTYLE2
  0
MTEXT
  5
9B
330
1F
100
AcDbEntity
  8
0
  6
CONTINUOUS
 62
     7
100
AcDbMText
 10
7.9598482632
 20
0.9442140768
 30
0.0
 40
0.25
 41
0.0
 71
     1
 72
     1
  1
A
  7
SLDTEXTSTYLE0
  0
MTEXT
  5
9C
330
1F
100
AcDbEntity
  8
0
  6
CONTINUOUS
 62
     7
100
AcDbMText
 10
7.9519581822
 20
1.0872713483
 30
0.0
 40
0.1
 41
0.0
 71
     1
 72
     1
  1
SIZE
  7
SLDTEXTSTYLE0
  0
MTEXT
  5
9D
330
1F
100
AcDbEntity
  8
0
  6
CONTINUOUS
 62
     7
100
AcDbMText
 10
7.9170704177
 20
1.9547881128
 30
0.0
 40
0.1
 41
0.0
 71
     1
 72
     1
  1
TITLE:
  7
SLDTEXTSTYLE0
  0
MTEXT
  5
9E
330
1F
100
AcDbEntity
  8
0
  6
CONTINUOUS
 62
     7
100
AcDbMText
 10
7.0363774929
 20
2.2906161274
 30
0.0
 40
0.065
 41
0.0
 71
     1
 72
     1
  1
NAME
  7
SLDTEXTSTYLE0
  0
MTEXT
  5
9F
330
1F
100
AcDbEntity
  8
0
  6
CONTINUOUS
 62
     7
100
AcDbMText
 10
7.5281510634
 20
2.2888799118
 30
0.0
 40
0.065
 41
0.0
 71
     1
 72
     1
  1
DATE
  7
SLDTEXTSTYLE0
  0
MTEXT
  5
A0
330
1F
100
AcDbEntity
  8
0
  6
CONTINUOUS
 62
     7
100
AcDbMText
 10
6.2277147029
 20
1.1876913145
 30
0.0
 40
0.065
 41
0.0
 71
     1
 72
     1
  1
COMMENTS:
  7
SLDTEXTSTYLE0
  0
MTEXT
  5
A1
330
1F
100
AcDbEntity
  8
0
  6
CONTINUOUS
 62
     7
100
AcDbMText
 10
6.2268411461
 20
1.3536101679
 30
0.0
 40
0.065
 41
0.0
 71
     1
 72
     1
  1
Q.A.
  7
SLDTEXTSTYLE0
  0
MTEXT
  5
A2
330
1F
100
AcDbEntity
  8
0
  6
CONTINUOUS
 62
     7
100
AcDbMText
 10
6.2284654509
 20
1.5395328424
 30
0.0
 40
0.065
 41
0.0
 71
     1
 72
     1
  1
MFG APPR.
  7
SLDTEXTSTYLE0
  0
MTEXT
  5
A3
330
1F
100
AcDbEntity
  8
0
  6
CONTINUOUS
 62
     7
100
AcDbMText
 10
6.2235171344
 20
1.7267501785
 30
0.0
 40
0.065
 41
0.0
 71
     1
 72
     1
  1
ENG APPR.
  7
SLDTEXTSTYLE0
  0
MTEXT
  5
A4
330
1F
100
AcDbEntity
  8
0
  6
CONTINUOUS
 62
     7
100
AcDbMText
 10
6.2264103951
 20
1.9092699088
 30
0.0
 40
0.065
 41
0.0
 71
     1
 72
     1
  1
CHECKED
  7
SLDTEXTSTYLE0
  0
MTEXT
  5
A5
330
1F
100
AcDbEntity
  8
0
  6
CONTINUOUS
 62
     7
100
AcDbMText
 10
6.2242794356
 20
2.1016301232
 30
0.0
 40
0.065
 41
0.0
 71
     1
 72
     1
  1
DRAWN
  7
SLDTEXTSTYLE0
  0
MTEXT
  5
A6
330
1F
100
AcDbEntity
  8
0
  6
CONTINUOUS
 62
     7
100
AcDbMText
 10
4.8208600979
 20
0.834523235
 30
0.0
 40
0.06
 41
0.0
 71
     1
 72
     1
  1
FINISH
  7
SLDTEXTSTYLE0
  0
MTEXT
  5
A7
330
1F
100
AcDbEntity
  8
0
  6
CONTINUOUS
 62
     7
100
AcDbMText
 10
4.8181240648
 20
1.1028217587
 30
0.0
 40
0.06
 41
0.0
 71
     1
 72
     1
  1
MATERIAL
  7
SLDTEXTSTYLE0
  0
INSERT
  5
AD
330
1F
100
AcDbEntity
  8
0
  6
CONTINUOUS
 62
     7
100
AcDbBlockReference
  2
SW_NOTE_0
 10
4.8231926633
 20
1.2646542947
 30
0.0
  0
INSERT
  5
BD
330
1F
100
AcDbEntity
  8
0
  6
CONTINUOUS
 62
     7
100
AcDbBlockReference
  2
SW_NOTE_1
 10
4.8353339353
 20
2.0049168724
 30
0.0
  0
MTEXT
  5
BE
330
1F
100
AcDbEntity
  8
0
  6
CONTINUOUS
 62
     7
100
AcDbMText
 10
3.5531400086
 20
0.5200091997
 30
0.0
 40
0.0625
 41
0.0
 71
     1
 72
     1
  1
APPLICATION
  7
SLDTEXTSTYLE0
  0
MTEXT
  5
BF
330
1F
100
AcDbEntity
  8
0
  6
CONTINUOUS
 62
     7
100
AcDbMText
 10
4.1005607758
 20
0.7502454275
 30
0.0
 40
0.0625
 41
0.0
 71
     1
 72
     1
  1
USED ON
  7
SLDTEXTSTYLE0
  0
MTEXT
  5
C0
330
1F
100
AcDbEntity
  8
0
  6
CONTINUOUS
 62
     7
100
AcDbMText
 10
3.1040019536
 20
0.7492094783
 30
0.0
 40
0.0625
 41
0.0
 71
     1
 72
     1
  1
NEXT ASSY
  7
SLDTEXTSTYLE0
  0
MTEXT
  5
C1
330
1F
100
AcDbEntity
  8
0
  6
CONTINUOUS
 62
     7
100
AcDbMText
 10
1.3712489489
 20
1.2496672684
 30
0.0
 40
0.06
 41
0.0
 71
     1
 72
     1
  1
PROPRIETARY AND CONFIDENTIAL
  7
SLDTEXTSTYLE0
  0
INSERT
  5
CC
330
1F
100
AcDbEntity
  8
0
  6
CONTINUOUS
 62
     7
100
AcDbBlockReference
  2
SW_NOTE_2
 10
1.2226209074
 20
1.0313492921
 30
0.0
  0
MTEXT
  5
CD
330
1F
100
AcDbEntity
  8
0
  6
CONTINUOUS
 62
     7
100
AcDbMText
 10
1.7387909509
 20
0.3105864247
 30
0.0
 40
0.09375
 41
0.0
 71
     1
 72
     1
  1
5
  7
SLDTEXTSTYLE0
  0
MTEXT
  5
CE
330
1F
100
AcDbEntity
  8
0
  6
CONTINUOUS
 62
     7
100
AcDbMText
 10
3.723800327
 20
0.3137237518
 30
0.0
 40
0.09375
 41
0.0
 71
     1
 72
     1
  1
4
  7
SLDTEXTSTYLE0
  0
MTEXT
  5
CF
330
1F
100
AcDbEntity
  8
0
  6
CONTINUOUS
 62
     7
100
AcDbMText
 10
5.6324457277
 20
0.3116191842
 30
0.0
 40
0.09375
 41
0.0
 71
     1
 72
     1
  1
3
  7
SLDTEXTSTYLE0
  0
MTEXT
  5
D0
330
1F
100
AcDbEntity
  8
0
  6
CONTINUOUS
 62
     7
100
AcDbMText
 10
7.6059721724
 20
0.3124391351
 30
0.0
 40
0.09375
 41
0.0
 71
     1
 72
     1
  1
2
  7
SLDTEXTSTYLE0
  0
MTEXT
  5
D1
330
1F
100
AcDbEntity
  8
0
  6
CONTINUOUS
 62
     7
100
AcDbMText
 10
9.6619921328
 20
0.301372012
 30
0.0
 40
0.09375
 41
0.0
 71
     1
 72
     1
  1
1
  7
SLDTEXTSTYLE0
  0
LINE
  5
D2
330
1F
100
AcDbEntity
  8
0
  6
CONTINUOUS
 62
     7
100
AcDbLine
 10
3.6767476519
 20
2.833481436
 30
0.0
 11
3.988427442
 21
2.833481436
 31
0.0
  0
LINE
  5
D3
330
1F
100
AcDbEntity
  8
0
  6
CONTINUOUS
 62
     7
100
AcDbLine
 10
3.4053762609
 20
2.833481436
 30
0.0
 11
3.6505009328
 21
2.833481436
 31
0.0
  0
LINE
  5
D4
330
1F
100
AcDbEntity
  8
0
  6
CONTINUOUS
 62
     7
100
AcDbLine
 10
3.6505009328
 20
4.6838751368
 30
0.0
 11
3.4053762609
 21
4.6838751368
 31
0.0
  0
LINE
  5
D5
330
1F
100
AcDbEntity
  8
0
  6
CONTINUOUS
 62
     7
100
AcDbLine
 10
3.988427442
 20
4.6838751368
 30
0.0
 11
3.6767476519
 21
4.6838751368
 31
0.0
  0
LINE
  5
D6
330
1F
100
AcDbEntity
  8
0
  6
CONTINUOUS
 62
     7
100
AcDbLine
 10
3.988427442
 20
2.833481436
 30
0.0
 11
3.995927442
 21
2.840981436
 31
0.0
  0
LINE
  5
D7
330
1F
100
AcDbEntity
  8
0
  6
CONTINUOUS
 62
     7
100
AcDbLine
 10
3.995927442
 20
4.6763751368
 30
0.0
 11
3.988427442
 21
4.6838751368
 31
0.0
  0
LINE
  5
D8
330
1F
100
AcDbEntity
  8
0
  6
CONTINUOUS
 62
     7
100
AcDbLine
 10
3.7522069695
 20
3.7685208061
 30
0.0
 11
3.7522069695
 21
3.7488357667
 31
0.0
  0
LINE
  5
D9
330
1F
100
AcDbEntity
  8
0
  6
CONTINUOUS
 62
     7
100
AcDbLine
 10
3.9096872845
 20
3.7488357667
 30
0.0
 11
3.9096872845
 21
3.7685208061
 31
0.0
  0
LINE
  5
DA
330
1F
100
AcDbEntity
  8
0
  6
CONTINUOUS
 62
     7
100
AcDbLine
 10
2.6573447648
 20
2.840981436
 30
0.0
 11
2.6648447648
 21
2.833481436
 31
0.0
  0
LINE
  5
DB
330
1F
100
AcDbEntity
  8
0
  6
CONTINUOUS
 62
     7
100
AcDbLine
 10
3.2478959459
 20
4.6838751368
 30
0.0
 11
3.002771274
 21
4.6838751368
 31
0.0
  0
LINE
  5
DC
330
1F
100
AcDbEntity
  8
0
  6
CONTINUOUS
 62
     7
100
AcDbLine
 10
2.6648447648
 20
2.833481436
 30
0.0
 11
3.2478959459
 21
2.833481436
 31
0.0
  0
LINE
  5
DD
330
1F
100
AcDbEntity
  8
0
  6
CONTINUOUS
 62
     7
100
AcDbLine
 10
3.2478959459
 20
3.6307255305
 30
0.0
 11
3.3020298042
 21
3.6307255305
 31
0.0
  0
LINE
  5
DE
330
1F
100
AcDbEntity
  8
0
  6
CONTINUOUS
 62
     7
100
AcDbLine
 10
3.3020298042
 20
3.8866310423
 30
0.0
 11
3.2478959459
 21
3.8866310423
 31
0.0
  0
LINE
  5
DF
330
1F
100
AcDbEntity
  8
0
  6
CONTINUOUS
 62
     7
100
AcDbLine
 10
3.3512424026
 20
3.6307255305
 30
0.0
 11
3.4053762609
 21
3.6307255305
 31
0.0
  0
LINE
  5
E0
330
1F
100
AcDbEntity
  8
0
  6
CONTINUOUS
 62
     7
100
AcDbLine
 10
3.4053762609
 20
3.8866310423
 30
0.0
 11
3.3512424026
 21
3.8866310423
 31
0.0
  0
LINE
  5
E1
330
1F
100
AcDbEntity
  8
0
  6
CONTINUOUS
 62
     7
100
AcDbLine
 10
3.2478959459
 20
4.363993247
 30
0.0
 11
3.3020298042
 21
4.363993247
 31
0.0
  0
LINE
  5
E2
330
1F
100
AcDbEntity
  8
0
  6
CONTINUOUS
 62
     7
100
AcDbLine
 10
3.3020298042
 20
4.6198987588
 30
0.0
 11
3.2478959459
 21
4.6198987588
 31
0.0
  0
LINE
  5
E3
330
1F
100
AcDbEntity
  8
0
  6
CONTINUOUS
 62
     7
100
AcDbLine
 10
3.3512424026
 20
4.363993247
 30
0.0
 11
3.4053762609
 21
4.363993247
 31
0.0
  0
LINE
  5
E4
330
1F
100
AcDbEntity
  8
0
  6
CONTINUOUS
 62
     7
100
AcDbLine
 10
3.4053762609
 20
4.6198987588
 30
0.0
 11
3.3512424026
 21
4.6198987588
 31
0.0
  0
LINE
  5
E5
330
1F
100
AcDbEntity
  8
0
  6
CONTINUOUS
 62
     7
100
AcDbLine
 10
3.2478959459
 20
2.897457814
 30
0.0
 11
3.3020298042
 21
2.897457814
 31
0.0
  0
LINE
  5
E6
330
1F
100
AcDbEntity
  8
0
  6
CONTINUOUS
 62
     7
100
AcDbLine
 10
3.3020298042
 20
3.1533633258
 30
0.0
 11
3.2478959459
 21
3.1533633258
 31
0.0
  0
LINE
  5
E7
330
1F
100
AcDbEntity
  8
0
  6
CONTINUOUS
 62
     7
100
AcDbLine
 10
3.3512424026
 20
2.897457814
 30
0.0
 11
3.4053762609
 21
2.897457814
 31
0.0
  0
LINE
  5
E8
330
1F
100
AcDbEntity
  8
0
  6
CONTINUOUS
 62
     7
100
AcDbLine
 10
3.4053762609
 20
3.1533633258
 30
0.0
 11
3.3512424026
 21
3.1533633258
 31
0.0
  0
LINE
  5
E9
330
1F
100
AcDbEntity
  8
0
  6
CONTINUOUS
 62
     7
100
AcDbLine
 10
3.3020298042
 20
2.865469625
 30
0.0
 11
3.3512424026
 21
2.865469625
 31
0.0
  0
LINE
  5
EA
330
1F
100
AcDbEntity
  8
0
  6
CONTINUOUS
 62
     7
100
AcDbLine
 10
3.3512424026
 20
4.6518869478
 30
0.0
 11
3.3020298042
 21
4.6518869478
 31
0.0
  0
LINE
  5
EB
330
1F
100
AcDbEntity
  8
0
  6
CONTINUOUS
 62
     7
100
AcDbLine
 10
3.4053762609
 20
4.6838751368
 30
0.0
 11
3.4053762609
 21
2.833481436
 31
0.0
  0
SPLINE
  5
EC
330
1F
100
AcDbEntity
  8
0
  6
CONTINUOUS
 62
     7
100
AcDbSpline
210
0.0
220
0.0
230
1.0
 70
     8
 71
     3
 72
    86
 73
    82
 74
     0
 42
0.00000001
 43
0.00000001
 40
-0.0312499999999998
 40
-0.0312499999999998
 40
0.0
 40
0.0
 40
0.0312499999999999
 40
0.0312499999999999
 40
0.046875
 40
0.046875
 40
0.0625000000000001
 40
0.0625000000000001
 40
0.0781250000000002
 40
0.0781250000000002
 40
0.0937500000000002
 40
0.0937500000000002
 40
0.1250000000000007
 40
0.1250000000000007
 40
0.1562500000000011
 40
0.1562500000000011
 40
0.1875000000000016
 40
0.1875000000000016
 40
0.2187500000000021
 40
0.2187500000000021
 40
0.2500000000000025
 40
0.2500000000000025
 40
0.2812500000000029
 40
0.2812500000000029
 40
0.3125000000000032
 40
0.3125000000000032
 40
0.3437500000000035
 40
0.3437500000000035
 40
0.3750000000000038
 40
0.3750000000000038
 40
0.4062500000000041
 40
0.4062500000000041
 40
0.4218750000000039
 40
0.4218750000000039
 40
0.4375000000000038
 40
0.4375000000000038
 40
0.4531250000000036
 40
0.4531250000000036
 40
0.4687500000000034
 40
0.4687500000000034
 40
0.4843750000000033
 40
0.4843750000000033
 40
0.5000000000000031
 40
0.5000000000000031
 40
0.515625000000003
 40
0.515625000000003
 40
0.5312500000000028
 40
0.5312500000000028
 40
0.5468750000000027
 40
0.5468750000000027
 40
0.5625000000000024
 40
0.5625000000000024
 40
0.593750000000002
 40
0.593750000000002
 40
0.6093750000000019
 40
0.6093750000000019
 40
0.6250000000000017
 40
0.6250000000000017
 40
0.6562500000000013
 40
0.6562500000000013
 40
0.6875000000000011
 40
0.6875000000000011
 40
0.7187500000000009
 40
0.7187500000000009
 40
0.7500000000000007
 40
0.7500000000000007
 40
0.8125000000000008
 40
0.8125000000000008
 40
0.8437500000000008
 40
0.8437500000000008
 40
0.8750000000000008
 40
0.8750000000000008
 40
0.8906250000000006
 40
0.8906250000000006
 40
0.9062500000000004
 40
0.9062500000000004
 40
0.9375000000000003
 40
0.9375000000000003
 40
0.9687500000000002
 40
0.9687500000000002
 40
1.0
 40
1.0
 40
1.03125
 40
1.03125
 10
3.840771118360456
 20
4.562814407071999
 30
0.0
 10
3.821123135652743
 20
4.562814407071999
 30
0.0
 10
3.811523512588934
 20
4.562182005176351
 30
0.0
 10
3.79744368220456
 20
4.560312933316832
 30
0.0
 10
3.792772026048281
 20
4.559526946621916
 30
0.0
 10
3.783740369291794
 20
4.557669231368766
 30
0.0
 10
3.779375261605415
 20
4.556599781820477
 30
0.0
 10
3.770931173033123
 20
4.554184259381567
 30
0.0
 10
3.766852269191194
 20
4.552838129782346
 30
0.0
 10
3.758976412207058
 20
4.549861882629086
 30
0.0
 10
3.755187605186182
 20
4.548231845201212
 30
0.0
 10
3.744495594550862
 20
4.543030098567213
 30
0.0
 10
3.738161659247397
 20
4.539114534635078
 30
0.0
 10
3.726954507153786
 20
4.530365523309061
 30
0.0
 10
3.722235645843978
 20
4.525649800372201
 30
0.0
 10
3.71436503221241
 20
4.515586511800138
 30
0.0
 10
3.711197824287388
 20
4.510189322756665
 30
0.0
 10
3.706449287272922
 20
4.499044808390097
 30
0.0
 10
3.704838745799197
 20
4.49327689611798
 30
0.0
 10
3.702996977107935
 20
4.481346477425181
 30
0.0
 10
3.702778019539282
 20
4.475176340382332
 30
0.0
 10
3.703632618026385
 20
4.462769735975425
 30
0.0
 10
3.70469719796326
 20
4.456491964955537
 30
0.0
 10
3.708045914430585
 20
4.443792703123988
 30
0.0
 10
3.710350532968435
 20
4.437337591971326
 30
0.0
 10
3.716075790354421
 20
4.424619126941116
 30
0.0
 10
3.719498370028802
 20
4.418323660866588
 30
0.0
 10
3.727510861776405
 20
4.405904545548256
 30
0.0
 10
3.732097976976472
 20
4.399779833850493
 30
0.0
 10
3.742648196588102
 20
4.387796457923963
 30
0.0
 10
3.748494062120778
 20
4.382071261345948
 30
0.0
 10
3.758257425095029
 20
4.374050354624135
 30
0.0
 10
3.761680343913682
 20
4.371470792402874
 30
0.0
 10
3.768917824064644
 20
4.366542177601628
 30
0.0
 10
3.772735593833651
 20
4.364195047336382
 30
0.0
 10
3.780640016480135
 20
4.359892587968323
 30
0.0
 10
3.78474617951712
 20
4.357922621049569
 30
0.0
 10
3.793312476588424
 20
4.354410945629263
 30
0.0
 10
3.797811729184367
 20
4.352858985724694
 30
0.0
 10
3.807027876822893
 20
4.350334104851342
 30
0.0
 10
3.811722083047551
 20
4.349362231390292
 30
0.0
 10
3.821295454150687
 20
4.348049081442176
 30
0.0
 10
3.826226201767716
 20
4.34770952090052
 30
0.0
 10
3.836005780156157
 20
4.34772515353241
 30
0.0
 10
3.840840587139219
 20
4.348071636704844
 30
0.0
 10
3.850405789415257
 20
4.34940542680943
 30
0.0
 10
3.855175625171058
 20
4.350405415954474
 30
0.0
 10
3.864382220672153
 20
4.352955419762519
 30
0.0
 10
3.868819460555364
 20
4.354497591389135
 30
0.0
 10
3.877404331011546
 20
4.358039100418302
 30
0.0
 10
3.881574971415103
 20
4.360053206184181
 30
0.0
 10
3.893438662294623
 20
4.366554400991395
 30
0.0
 10
3.900555592142108
 20
4.371501736886635
 30
0.0
 10
3.91033261844013
 20
4.379560164716235
 30
0.0
 10
3.913451994341759
 20
4.382368350002627
 30
0.0
 10
3.919329577687941
 20
4.388097260293454
 30
0.0
 10
3.922090098086346
 20
4.391017251482755
 30
0.0
 10
3.92989540940491
 20
4.399912577894525
 30
0.0
 10
3.934468808706046
 20
4.406021285821899
 30
0.0
 10
3.942499619081117
 20
4.418500472378675
 30
0.0
 10
3.945968892566359
 20
4.424911876851524
 30
0.0
 10
3.951667790959607
 20
4.437656669649525
 30
0.0
 10
3.95391827040018
 20
4.444011775595875
 30
0.0
 10
3.957231225452893
 20
4.456669136144491
 30
0.0
 10
3.958295534406687
 20
4.46300205162453
 30
0.0
 10
3.959529397398893
 20
4.481710959253481
 30
0.0
 10
3.957807056866606
 20
4.49349255888342
 30
0.0
 10
3.95071397777395
 20
4.510152415331188
 30
0.0
 10
3.947540023353513
 20
4.515569978617028
 30
0.0
 10
3.939671982143801
 20
4.525635414615192
 30
0.0
 10
3.934970580319891
 20
4.53033471428625
 30
0.0
 10
3.926600565093428
 20
4.536878935941242
 30
0.0
 10
3.92357868495727
 20
4.538979210475747
 30
0.0
 10
3.91721816540976
 20
4.542906507773532
 30
0.0
 10
3.913863729925917
 20
4.544747511366355
 30
0.0
 10
3.903263941139181
 20
4.549911406031738
 30
0.0
 10
3.895449032143532
 20
4.552891941784504
 30
0.0
 10
3.878344822165205
 20
4.557802747485048
 30
0.0
 10
3.869388389314889
 20
4.559645045966566
 30
0.0
 10
3.850653976891831
 20
4.56215646285408
 30
0.0
 10
3.840771118360456
 20
4.562814407071999
 30
0.0
 10
3.821123135652743
 20
4.562814407071999
 30
0.0
  0
SPLINE
  5
ED
330
1F
100
AcDbEntity
  8
0
  6
CONTINUOUS
 62
     7
100
AcDbSpline
210
0.0
220
0.0
230
1.0
 70
     8
 71
     3
 72
    72
 73
    68
 74
     0
 42
0.00000001
 43
0.00000001
 40
-0.0312499999999997
 40
-0.0312499999999997
 40
0.0
 40
0.0
 40
0.0312499999999994
 40
0.0312499999999994
 40
0.0468749999999994
 40
0.0468749999999994
 40
0.0624999999999994
 40
0.0624999999999994
 40
0.0937499999999993
 40
0.0937499999999993
 40
0.1249999999999992
 40
0.1249999999999992
 40
0.1874999999999988
 40
0.1874999999999988
 40
0.2187499999999988
 40
0.2187499999999988
 40
0.2499999999999989
 40
0.2499999999999989
 40
0.2812499999999991
 40
0.2812499999999991
 40
0.3124999999999991
 40
0.3124999999999991
 40
0.3437499999999992
 40
0.3437499999999992
 40
0.3749999999999993
 40
0.3749999999999993
 40
0.4062499999999994
 40
0.4062499999999994
 40
0.4374999999999995
 40
0.4374999999999995
 40
0.4687499999999996
 40
0.4687499999999996
 40
0.4999999999999998
 40
0.4999999999999998
 40
0.5312499999999999
 40
0.5312499999999999
 40
0.5468749999999999
 40
0.5468749999999999
 40
0.5625
 40
0.5625
 40
0.5937500000000001
 40
0.5937500000000001
 40
0.6250000000000001
 40
0.6250000000000001
 40
0.6562500000000002
 40
0.6562500000000002
 40
0.6875000000000003
 40
0.6875000000000003
 40
0.7187500000000004
 40
0.7187500000000004
 40
0.7500000000000006
 40
0.7500000000000006
 40
0.7812500000000007
 40
0.7812500000000007
 40
0.8125000000000008
 40
0.8125000000000008
 40
0.8750000000000007
 40
0.8750000000000007
 40
0.9062500000000007
 40
0.9062500000000007
 40
0.9375000000000007
 40
0.9375000000000007
 40
0.9531250000000006
 40
0.9531250000000006
 40
0.9687500000000003
 40
0.9687500000000003
 40
1.0
 40
1.0
 40
1.031249999999999
 40
1.031249999999999
 10
3.82492368840626
 20
3.114654053862977
 30
0.0
 10
3.836970565606941
 20
3.114654053862977
 30
0.0
 10
3.842806820063025
 20
3.113949392458434
 30
0.0
 10
3.851310907928553
 20
3.111958752106754
 30
0.0
 10
3.854105364741827
 20
3.111134189572306
 30
0.0
 10
3.859440998847143
 20
3.109249095837159
 30
0.0
 10
3.862006789047086
 20
3.108183670753439
 30
0.0
 10
3.86942970842122
 20
3.104662453287725
 30
0.0
 10
3.874006293153485
 20
3.101874532016172
 30
0.0
 10
3.882177944369422
 20
3.095869858053669
 30
0.0
 10
3.885836590781374
 20
3.092622574564764
 30
0.0
 10
3.895712862692886
 20
3.082292632165435
 30
0.0
 10
3.900564747636599
 20
3.074960230182991
 30
0.0
 10
3.905696476811892
 20
3.063626024971981
 30
0.0
 10
3.907035405102104
 20
3.059778833547051
 30
0.0
 10
3.908916432271725
 20
3.05217833394746
 30
0.0
 10
3.909472527532913
 20
3.048397744648657
 30
0.0
 10
3.9098004696185
 20
3.040878073613456
 30
0.0
 10
3.909565356227169
 20
3.037108498625646
 30
0.0
 10
3.908258128769819
 20
3.029785244291766
 30
0.0
 10
3.907195326222075
 20
3.026234299025085
 30
0.0
 10
3.904206368982979
 20
3.019351135440028
 30
0.0
 10
3.902281534202678
 20
3.016018764603636
 30
0.0
 10
3.897433959874303
 20
3.009583436333146
 30
0.0
 10
3.894521241134641
 20
3.006511725301201
 30
0.0
 10
3.887811954977457
 20
3.000870526715477
 30
0.0
 10
3.883961722209582
 20
2.99825133693355
 30
0.0
 10
3.875312094049392
 20
2.993579320643601
 30
0.0
 10
3.870617943323471
 20
2.991575101091423
 30
0.0
 10
3.860436817545414
 20
2.988242613337727
 30
0.0
 10
3.854851654078762
 20
2.986904920561547
 30
0.0
 10
3.843442399839225
 20
2.985119704091521
 30
0.0
 10
3.83758409045527
 20
2.984644447423321
 30
0.0
 10
3.825535875840295
 20
2.984583052889899
 30
0.0
 10
3.819643970071012
 20
2.984998601841495
 30
0.0
 10
3.810996375137923
 20
2.986262343256603
 30
0.0
 10
3.808129314748176
 20
2.986796436585953
 30
0.0
 10
3.802604332133625
 20
2.988053955783866
 30
0.0
 10
3.799932135422184
 20
2.988778128077066
 30
0.0
 10
3.792171769041712
 20
2.991226847290974
 30
0.0
 10
3.787302005855867
 20
2.993251728702152
 30
0.0
 10
3.778592023791073
 20
2.997842916582307
 30
0.0
 10
3.774680320253476
 20
3.000435313854117
 30
0.0
 10
3.767797199423628
 20
3.006096861535135
 30
0.0
 10
3.764873240775322
 20
3.009119208117902
 30
0.0
 10
3.759928696542528
 20
3.015526943921576
 30
0.0
 10
3.757910611756186
 20
3.018927608501111
 30
0.0
 10
3.754816500343052
 20
3.025883571489097
 30
0.0
 10
3.753718970848913
 20
3.029462303769772
 30
0.0
 10
3.752357029827901
 20
3.036820963830807
 30
0.0
 10
3.752101304061573
 20
3.040591743544617
 30
0.0
 10
3.752391629421999
 20
3.048134116736367
 30
0.0
 10
3.752932293801531
 20
3.051930494840575
 30
0.0
 10
3.754792679146148
 20
3.059571651795203
 30
0.0
 10
3.756125209842092
 20
3.063435511036788
 30
0.0
 10
3.76121767528149
 20
3.074771485404542
 30
0.0
 10
3.766034318397546
 20
3.082104495210466
 30
0.0
 10
3.775918421109508
 20
3.092493543106184
 30
0.0
 10
3.77958299361562
 20
3.095760274049661
 30
0.0
 10
3.787774726404685
 20
3.101802602000506
 30
0.0
 10
3.792365172274505
 20
3.104607282502659
 30
0.0
 10
3.799792071614936
 20
3.108142317909135
 30
0.0
 10
3.802359576187159
 20
3.109212281456285
 30
0.0
 10
3.807699551582841
 20
3.111106218440232
 30
0.0
 10
3.810496763096916
 20
3.111935569854676
 30
0.0
 10
3.819042343698868
 20
3.113944557203518
 30
0.0
 10
3.82492368840626
 20
3.114654053862977
 30
0.0
 10
3.836970565606941
 20
3.114654053862977
 30
0.0
  0
LINE
  5
EE
330
1F
100
AcDbEntity
  8
0
  6
CONTINUOUS
 62
     7
100
AcDbLine
 10
3.6767476519
 20
3.7488357667
 30
0.0
 11
3.6767476519
 21
2.833481436
 31
0.0
  0
LINE
  5
EF
330
1F
100
AcDbEntity
  8
0
  6
CONTINUOUS
 62
     7
100
AcDbLine
 10
3.988427442
 20
3.7488357667
 30
0.0
 11
3.6767476519
 21
3.7488357667
 31
0.0
  0
LINE
  5
F0
330
1F
100
AcDbEntity
  8
0
  6
CONTINUOUS
 62
     7
100
AcDbLine
 10
3.988427442
 20
3.7685208061
 30
0.0
 11
3.988427442
 21
4.6838751368
 31
0.0
  0
LINE
  5
F1
330
1F
100
AcDbEntity
  8
0
  6
CONTINUOUS
 62
     7
100
AcDbLine
 10
3.988427442
 20
2.833481436
 30
0.0
 11
3.988427442
 21
3.7488357667
 31
0.0
  0
LINE
  5
F2
330
1F
100
AcDbEntity
  8
0
  6
CONTINUOUS
 62
     7
100
AcDbLine
 10
3.988427442
 20
3.7685208061
 30
0.0
 11
3.6767476519
 21
3.7685208061
 31
0.0
  0
LINE
  5
F3
330
1F
100
AcDbEntity
  8
0
  6
CONTINUOUS
 62
     7
100
AcDbLine
 10
3.6767476519
 20
4.6838751368
 30
0.0
 11
3.6767476519
 21
3.7685208061
 31
0.0
  0
LINE
  5
F4
330
1F
100
AcDbEntity
  8
0
  6
CONTINUOUS
 62
     7
100
AcDbLine
 10
3.6505009328
 20
4.5851532929
 30
0.0
 11
3.6767476519
 21
4.5851532929
 31
0.0
  0
LINE
  5
F5
330
1F
100
AcDbEntity
  8
0
  6
CONTINUOUS
 62
     7
100
AcDbLine
 10
3.6505009328
 20
2.833481436
 30
0.0
 11
3.6505009328
 21
4.6838751368
 31
0.0
  0
LINE
  5
F6
330
1F
100
AcDbEntity
  8
0
  6
CONTINUOUS
 62
     7
100
AcDbLine
 10
3.6767476519
 20
2.9322032799
 30
0.0
 11
3.6505009328
 21
2.9322032799
 31
0.0
  0
LINE
  5
F7
330
1F
100
AcDbEntity
  8
0
  6
CONTINUOUS
 62
     7
100
AcDbLine
 10
3.995927442
 20
3.7488357667
 30
0.0
 11
3.995927442
 21
2.840981436
 31
0.0
  0
LINE
  5
F8
330
1F
100
AcDbEntity
  8
0
  6
CONTINUOUS
 62
     7
100
AcDbLine
 10
3.995927442
 20
4.6763751368
 30
0.0
 11
3.995927442
 21
3.7685208061
 31
0.0
  0
LINE
  5
F9
330
1F
100
AcDbEntity
  8
0
  6
CONTINUOUS
 62
     7
100
AcDbLine
 10
3.988427442
 20
3.7685208061
 30
0.0
 11
3.995927442
 21
3.7685208061
 31
0.0
  0
LINE
  5
FA
330
1F
100
AcDbEntity
  8
0
  6
CONTINUOUS
 62
     7
100
AcDbLine
 10
3.988427442
 20
3.7488357667
 30
0.0
 11
3.995927442
 21
3.7488357667
 31
0.0
  0
LINE
  5
FB
330
1F
100
AcDbEntity
  8
0
  6
CONTINUOUS
 62
     7
100
AcDbLine
 10
3.6767476519
 20
3.7685208061
 30
0.0
 11
3.6767476519
 21
3.7488357667
 31
0.0
  0
LINE
  5
FC
330
1F
100
AcDbEntity
  8
0
  6
CONTINUOUS
 62
     7
100
AcDbLine
 10
3.995927442
 20
3.7685208061
 30
0.0
 11
3.995927442
 21
3.7488357667
 31
0.0
  0
LINE
  5
FD
330
1F
100
AcDbEntity
  8
0
  6
CONTINUOUS
 62
     7
100
AcDbLine
 10
3.830947127
 20
4.3836782864
 30
0.0
 11
3.9146317862
 21
4.3836782864
 31
0.0
  0
LINE
  5
FE
330
1F
100
AcDbEntity
  8
0
  6
CONTINUOUS
 62
     7
100
AcDbLine
 10
3.7473516564
 20
4.3836782864
 30
0.0
 11
3.830947127
 21
4.3836782864
 31
0.0
  0
CIRCLE
  5
FF
330
1F
100
AcDbEntity
  8
0
  6
CONTINUOUS
 62
     7
100
AcDbCircle
 10
2.8223250798
 20
4.3441835654
 30
0.0
 40
0.0688976377952759
  0
LINE
  5
100
330
1F
100
AcDbEntity
  8
0
  6
CONTINUOUS
 62
     7
100
AcDbLine
 10
2.6648447648
 20
2.833481436
 30
0.0
 11
2.6648447648
 21
4.6838227815
 31
0.0
  0
LINE
  5
101
330
1F
100
AcDbEntity
  8
0
  6
CONTINUOUS
 62
     7
100
AcDbLine
 10
2.6573447648
 20
4.6763223536
 30
0.0
 11
2.6573447648
 21
2.840981436
 31
0.0
  0
LINE
  5
102
330
1F
100
AcDbEntity
  8
0
  6
CONTINUOUS
 62
     7
100
AcDbLine
 10
2.6648447648
 20
4.6838227815
 30
0.0
 11
2.6573447648
 21
4.6763223536
 31
0.0
  0
LINE
  5
103
330
1F
100
AcDbEntity
  8
0
  6
CONTINUOUS
 62
     7
100
AcDbLine
 10
3.2478959459
 20
4.6838751368
 30
0.0
 11
3.2478959459
 21
2.833481436
 31
0.0
  0
SPLINE
  5
104
330
1F
100
AcDbEntity
  8
0
  6
CONTINUOUS
 62
     7
100
AcDbSpline
210
0.0
220
0.0
230
1.0
 70
     8
 71
     3
 72
    72
 73
    68
 74
     0
 42
0.00000001
 43
0.00000001
 40
-0.0312499999999993
 40
-0.0312499999999993
 40
0.0
 40
0.0
 40
0.0312500000000011
 40
0.0312500000000011
 40
0.0468750000000014
 40
0.0468750000000014
 40
0.0625000000000017
 40
0.0625000000000017
 40
0.093750000000002
 40
0.093750000000002
 40
0.1250000000000024
 40
0.1250000000000024
 40
0.1875000000000034
 40
0.1875000000000034
 40
0.2187500000000036
 40
0.2187500000000036
 40
0.2500000000000037
 40
0.2500000000000037
 40
0.2812500000000038
 40
0.2812500000000038
 40
0.3125000000000039
 40
0.3125000000000039
 40
0.343750000000004
 40
0.343750000000004
 40
0.3750000000000041
 40
0.3750000000000041
 40
0.4062500000000043
 40
0.4062500000000043
 40
0.4375000000000044
 40
0.4375000000000044
 40
0.4687500000000045
 40
0.4687500000000045
 40
0.5000000000000046
 40
0.5000000000000046
 40
0.5312500000000048
 40
0.5312500000000048
 40
0.5468750000000048
 40
0.5468750000000048
 40
0.5625000000000048
 40
0.5625000000000048
 40
0.5937500000000047
 40
0.5937500000000047
 40
0.6250000000000046
 40
0.6250000000000046
 40
0.6562500000000044
 40
0.6562500000000044
 40
0.6875000000000043
 40
0.6875000000000043
 40
0.7187500000000042
 40
0.7187500000000042
 40
0.7500000000000041
 40
0.7500000000000041
 40
0.7812500000000038
 40
0.7812500000000038
 40
0.8125000000000033
 40
0.8125000000000033
 40
0.8750000000000022
 40
0.8750000000000022
 40
0.9062500000000018
 40
0.9062500000000018
 40
0.9375000000000013
 40
0.9375000000000013
 40
0.953125000000001
 40
0.953125000000001
 40
0.9687500000000007
 40
0.9687500000000007
 40
1.0
 40
1.0
 40
1.031250000000001
 40
1.031250000000001
 10
2.828348518362846
 20
4.42292372287902
 30
0.0
 10
2.816301641162164
 20
4.42292372287902
 30
0.0
 10
2.81046538670608
 20
4.422242377104085
 30
0.0
 10
2.801961298840552
 20
4.420300471061267
 30
0.0
 10
2.799166842027278
 20
4.419494146525348
 30
0.0
 10
2.793831207921961
 20
4.417641627394436
 30
0.0
 10
2.791265417722018
 20
4.416590667414927
 30
0.0
 10
2.783842498347886
 20
4.413096683463554
 30
0.0
 10
2.77926591361562
 20
4.410304239877139
 30
0.0
 10
2.771094262399683
 20
4.404195553660095
 30
0.0
 10
2.76743561598773
 20
4.400849517645544
 30
0.0
 10
2.757559344076219
 20
4.390019095187647
 30
0.0
 10
2.752707459132507
 20
4.38209474490338
 30
0.0
 10
2.747575729957213
 20
4.369353222967103
 30
0.0
 10
2.746236801667001
 20
4.364947943547637
 30
0.0
 10
2.74435577449738
 20
4.356073599037187
 30
0.0
 10
2.743799679236192
 20
4.351574333824885
 30
0.0
 10
2.743471737150605
 20
4.342447954648094
 30
0.0
 10
2.743706850541936
 20
4.33778192839908
 30
0.0
 10
2.745014077999287
 20
4.328536970611965
 30
0.0
 10
2.74607688054703
 20
4.323963399379063
 30
0.0
 10
2.749065837786126
 20
4.31493076275501
 30
0.0
 10
2.750990672566427
 20
4.310471383274623
 30
0.0
 10
2.755838246894802
 20
4.301702864735871
 30
0.0
 10
2.758750965634464
 20
4.297434714777737
 30
0.0
 10
2.765460251791648
 20
4.289470547191047
 30
0.0
 10
2.769310484559524
 20
4.285704948840855
 30
0.0
 10
2.777960112719714
 20
4.278899221193159
 30
0.0
 10
2.782654263445635
 20
4.275931496864973
 30
0.0
 10
2.792835389223692
 20
4.270954632057401
 30
0.0
 10
2.798420552690343
 20
4.268930887807417
 30
0.0
 10
2.80982980692988
 20
4.2662203685938
 30
0.0
 10
2.815688116313835
 20
4.265492681659816
 30
0.0
 10
2.827736330928809
 20
4.265398904275861
 30
0.0
 10
2.833628236698094
 20
4.26603546448904
 30
0.0
 10
2.842275831631182
 20
4.26795562722629
 30
0.0
 10
2.845142892020929
 20
4.268765453166226
 30
0.0
 10
2.850667874635481
 20
4.270663294807798
 30
0.0
 10
2.85334007134692
 20
4.271752466562531
 30
0.0
 10
2.861100437727393
 20
4.275414316885954
 30
0.0
 10
2.865970200913238
 20
4.278416569148035
 30
0.0
 10
2.874680182978032
 20
4.28511464325356
 30
0.0
 10
2.878591886515629
 20
4.288848867823723
 30
0.0
 10
2.885475007345477
 20
4.296855255222094
 30
0.0
 10
2.888398965993783
 20
4.3010617228482
 30
0.0
 10
2.893343510226578
 20
4.309808657674114
 30
0.0
 10
2.89536159501292
 20
4.3143680681484
 30
0.0
 10
2.898455706426053
 20
4.323509327322718
 30
0.0
 10
2.899553235920191
 20
4.328124000865158
 30
0.0
 10
2.900915176941203
 20
4.33742380638186
 30
0.0
 10
2.901170902707531
 20
4.342095923578492
 30
0.0
 10
2.900880577347106
 20
4.351258580839227
 30
0.0
 10
2.900339912967574
 20
4.355780704843292
 30
0.0
 10
2.898479527622957
 20
4.364709351970275
 30
0.0
 10
2.897146996927013
 20
4.369136344029386
 30
0.0
 10
2.892054531487615
 20
4.381887784795189
 30
0.0
 10
2.88723788837156
 20
4.389818418968439
 30
0.0
 10
2.877353785659597
 20
4.400715892192953
 30
0.0
 10
2.873689213153485
 20
4.404083198049338
 30
0.0
 10
2.86549748036442
 20
4.410231911456384
 30
0.0
 10
2.860907034494599
 20
4.413041608851702
 30
0.0
 10
2.853480135154169
 20
4.416549794873109
 30
0.0
 10
2.850912630581946
 20
4.417605356222912
 30
0.0
 10
2.845572655186264
 20
4.419466748558056
 30
0.0
 10
2.84277544367219
 20
4.420277822240672
 30
0.0
 10
2.834229863070237
 20
4.422237727157071
 30
0.0
 10
2.828348518362846
 20
4.42292372287902
 30
0.0
 10
2.816301641162164
 20
4.42292372287902
 30
0.0
  0
LINE
  5
105
330
1F
100
AcDbEntity
  8
0
  6
CONTINUOUS
 62
     7
100
AcDbLine
 10
2.6648447648
 20
4.6838227815
 30
0.0
 11
2.9765245548
 21
4.6838227815
 31
0.0
  0
LINE
  5
106
330
1F
100
AcDbEntity
  8
0
  6
CONTINUOUS
 62
     7
100
AcDbLine
 10
2.9765245548
 20
3.3428318297
 30
0.0
 11
3.002771274
 21
3.3428318297
 31
0.0
  0
LINE
  5
107
330
1F
100
AcDbEntity
  8
0
  6
CONTINUOUS
 62
     7
100
AcDbLine
 10
2.9765245548
 20
4.6838227815
 30
0.0
 11
2.9765245548
 21
3.3428318297
 31
0.0
  0
LINE
  5
108
330
1F
100
AcDbEntity
  8
0
  6
CONTINUOUS
 62
     7
100
AcDbLine
 10
3.002771274
 20
3.3428318297
 30
0.0
 11
3.002771274
 21
4.6838751368
 31
0.0
  0
LINE
  5
109
330
1F
100
AcDbEntity
  8
0
  6
CONTINUOUS
 62
     7
100
AcDbLine
 10
3.3512424026
 20
3.8717736131
 30
0.0
 11
3.3020298042
 21
3.8717736131
 31
0.0
  0
LINE
  5
10A
330
1F
100
AcDbEntity
  8
0
  6
CONTINUOUS
 62
     7
100
AcDbLine
 10
3.3512424026
 20
3.6455829597
 30
0.0
 11
3.3020298042
 21
3.6455829597
 31
0.0
  0
LINE
  5
10B
330
1F
100
AcDbEntity
  8
0
  6
CONTINUOUS
 62
     7
100
AcDbLine
 10
3.3020298042
 20
3.8717736131
 30
0.0
 11
3.3020298042
 21
3.6455829597
 31
0.0
  0
LINE
  5
10C
330
1F
100
AcDbEntity
  8
0
  6
CONTINUOUS
 62
     7
100
AcDbLine
 10
3.3512424026
 20
3.8717736131
 30
0.0
 11
3.3512424026
 21
3.6455829597
 31
0.0
  0
LINE
  5
10D
330
1F
100
AcDbEntity
  8
0
  6
CONTINUOUS
 62
     7
100
AcDbLine
 10
3.3512424026
 20
4.6050413296
 30
0.0
 11
3.3020298042
 21
4.6050413296
 31
0.0
  0
LINE
  5
10E
330
1F
100
AcDbEntity
  8
0
  6
CONTINUOUS
 62
     7
100
AcDbLine
 10
3.3020298042
 20
4.6050413296
 30
0.0
 11
3.3020298042
 21
3.8717736131
 31
0.0
  0
LINE
  5
10F
330
1F
100
AcDbEntity
  8
0
  6
CONTINUOUS
 62
     7
100
AcDbLine
 10
3.3512424026
 20
4.6050413296
 30
0.0
 11
3.3512424026
 21
3.8717736131
 31
0.0
  0
LINE
  5
110
330
1F
100
AcDbEntity
  8
0
  6
CONTINUOUS
 62
     7
100
AcDbLine
 10
3.3512424026
 20
2.9123152431
 30
0.0
 11
3.3020298042
 21
2.9123152431
 31
0.0
  0
LINE
  5
111
330
1F
100
AcDbEntity
  8
0
  6
CONTINUOUS
 62
     7
100
AcDbLine
 10
3.3020298042
 20
3.6455829597
 30
0.0
 11
3.3020298042
 21
2.9123152431
 31
0.0
  0
LINE
  5
112
330
1F
100
AcDbEntity
  8
0
  6
CONTINUOUS
 62
     7
100
AcDbLine
 10
3.3512424026
 20
3.6455829597
 30
0.0
 11
3.3512424026
 21
2.9123152431
 31
0.0
  0
LINE
  5
113
330
1F
100
AcDbEntity
  8
0
  6
CONTINUOUS
 62
     7
100
AcDbLine
 10
3.3020298042
 20
2.9123152431
 30
0.0
 11
3.3020298042
 21
2.865469625
 31
0.0
  0
LINE
  5
114
330
1F
100
AcDbEntity
  8
0
  6
CONTINUOUS
 62
     7
100
AcDbLine
 10
3.3512424026
 20
2.9123152431
 30
0.0
 11
3.3512424026
 21
2.865469625
 31
0.0
  0
LINE
  5
115
330
1F
100
AcDbEntity
  8
0
  6
CONTINUOUS
 62
     7
100
AcDbLine
 10
3.3020298042
 20
4.6518869478
 30
0.0
 11
3.3020298042
 21
4.6050413296
 31
0.0
  0
LINE
  5
116
330
1F
100
AcDbEntity
  8
0
  6
CONTINUOUS
 62
     7
100
AcDbLine
 10
3.3512424026
 20
4.6518869478
 30
0.0
 11
3.3512424026
 21
4.6050413296
 31
0.0
  0
LINE
  5
117
330
1F
100
AcDbEntity
  8
0
  6
CONTINUOUS
 62
     8
100
AcDbLine
 10
3.830947127
 20
4.3738357667
 30
0.0
 11
3.7587058854
 21
4.3738357667
 31
0.0
  0
LINE
  5
118
330
1F
100
AcDbEntity
  8
0
  6
CONTINUOUS
 62
     8
100
AcDbLine
 10
3.9033264063
 20
4.3738357667
 30
0.0
 11
3.830947127
 21
4.3738357667
 31
0.0
  0
LINE
  5
119
330
1F
100
AcDbEntity
  8
0
  6
HIDDEN
 62
     7
100
AcDbLine
 10
3.988427442
 20
3.7685208061
 30
0.0
 11
3.988427442
 21
3.7488357667
 31
0.0
  0
LINE
  5
11A
330
1F
100
AcDbEntity
  8
0
  6
HIDDEN
 62
     7
100
AcDbLine
 10
3.830947127
 20
4.2261979714
 30
0.0
 11
3.9588998829
 21
4.2261979714
 31
0.0
  0
LINE
  5
11B
330
1F
100
AcDbEntity
  8
0
  6
HIDDEN
 62
     7
100
AcDbLine
 10
3.7029943711
 20
4.2261979714
 30
0.0
 11
3.830947127
 21
4.2261979714
 31
0.0
  0
SPLINE
  5
11C
330
1F
100
AcDbEntity
  8
0
  6
HIDDEN
 62
     7
100
AcDbSpline
210
0.0
220
0.0
230
1.0
 70
     8
 71
     3
 72
     8
 73
     4
 74
     0
 42
0.00000001
 43
0.00000001
 40
0.0
 40
0.0
 40
0.0
 40
0.0
 40
1.0
 40
1.0
 40
1.0
 40
1.0
 10
3.792279232288371
 20
3.768520806077087
 30
0.0
 10
3.792596241525973
 20
3.76195912628706
 30
0.0
 10
3.792596241525973
 20
3.755397446497034
 30
0.0
 10
3.792279232288371
 20
3.748835766707008
 30
0.0
  0
LINE
  5
11D
330
1F
100
AcDbEntity
  8
0
  6
HIDDEN
 62
     7
100
AcDbLine
 10
3.9146317862
 20
4.3836782864
 30
0.0
 11
3.9490573632
 21
4.3836782864
 31
0.0
  0
LINE
  5
11E
330
1F
100
AcDbEntity
  8
0
  6
HIDDEN
 62
     7
100
AcDbLine
 10
3.7128368908
 20
4.3836782864
 30
0.0
 11
3.7473516564
 21
4.3836782864
 31
0.0
  0
LINE
  5
11F
330
1F
100
AcDbEntity
  8
0
  6
HIDDEN
 62
     7
100
AcDbLine
 10
3.9096234261
 20
3.1828908848
 30
0.0
 11
3.7522708279
 21
3.1828908848
 31
0.0
  0
LINE
  5
120
330
1F
100
AcDbEntity
  8
0
  6
HIDDEN
 62
     7
100
AcDbLine
 10
3.8998447648
 20
3.1730483651
 30
0.0
 11
3.7620494892
 21
3.1730483651
 31
0.0
  0
LINE
  5
121
330
1F
100
AcDbEntity
  8
0
  6
HIDDEN
 62
     7
100
AcDbLine
 10
3.830947127
 20
4.3049381289
 30
0.0
 11
3.8900022451
 21
4.3049381289
 31
0.0
  0
LINE
  5
122
330
1F
100
AcDbEntity
  8
0
  6
HIDDEN
 62
     7
100
AcDbLine
 10
3.830947127
 20
4.3049381289
 30
0.0
 11
3.830947127
 21
4.3836782864
 31
0.0
  0
LINE
  5
123
330
1F
100
AcDbEntity
  8
0
  6
HIDDEN
 62
     7
100
AcDbLine
 10
3.7718920089
 20
4.3049381289
 30
0.0
 11
3.830947127
 21
4.3049381289
 31
0.0
  0
LINE
  5
124
330
1F
100
AcDbEntity
  8
0
  6
HIDDEN
 62
     7
100
AcDbLine
 10
3.7718920089
 20
4.3049381289
 30
0.0
 11
3.7718920089
 21
4.3836782864
 31
0.0
  0
LINE
  5
125
330
1F
100
AcDbEntity
  8
0
  6
HIDDEN
 62
     7
100
AcDbLine
 10
3.8900022451
 20
4.3049381289
 30
0.0
 11
3.8900022451
 21
4.3836782864
 31
0.0
  0
POLYLINE
  5
126
330
1F
100
AcDbEntity
  8
0
  6
HIDDEN
 62
     7
100
AcDb2dPolyline
 66
     1
 10
0.0
 20
0.0
 30
0.0
  0
VERTEX
  5
2B0
330
126
100
AcDbEntity
  8
0
  6
HIDDEN
 62
     7
100
AcDbVertex
100
AcDb2dVertex
 10
2.9010652372
 20
4.3441835654
 30
0.0
  0
VERTEX
  5
2B1
330
126
100
AcDbEntity
  8
0
  6
HIDDEN
 62
     7
100
AcDbVertex
100
AcDb2dVertex
 10
2.9010013788
 20
4.3473541119
 30
0.0
  0
VERTEX
  5
2B2
330
126
100
AcDbEntity
  8
0
  6
HIDDEN
 62
     7
100
AcDbVertex
100
AcDb2dVertex
 10
2.900964476
 20
4.3481657447
 30
0.0
  0
SEQEND
  5
2B3
330
126
100
AcDbEntity
  8
0
  6
HIDDEN
 62
     7
  0
ARC
  5
127
330
1F
100
AcDbEntity
  8
0
  6
HIDDEN
 62
     7
100
AcDbCircle
 10
2.8223250798
 20
4.3441835654
 30
0.0
 40
0.0787401574803149
100
AcDbArc
 50
74.9319156539
 51
92.3699132272
  0
CIRCLE
  5
128
330
1F
100
AcDbEntity
  8
0
  6
HIDDEN
 62
     7
100
AcDbCircle
 10
2.8223250798
 20
4.3441835654
 30
0.0
 40
0.127952755905512
  0
LINE
  5
129
330
1F
100
AcDbEntity
  8
0
  6
HIDDEN
 62
     7
100
AcDbLine
 10
2.7632699617
 20
4.3100880771
 30
0.0
 11
2.8223250798
 21
4.2759925887
 31
0.0
  0
LINE
  5
12A
330
1F
100
AcDbEntity
  8
0
  6
HIDDEN
 62
     7
100
AcDbLine
 10
2.8223250798
 20
4.2759925887
 30
0.0
 11
2.8813801979
 21
4.3100880771
 31
0.0
  0
LINE
  5
12B
330
1F
100
AcDbEntity
  8
0
  6
HIDDEN
 62
     7
100
AcDbLine
 10
2.8813801979
 20
4.3100880771
 30
0.0
 11
2.8813801979
 21
4.3782790537
 31
0.0
  0
LINE
  5
12C
330
1F
100
AcDbEntity
  8
0
  6
HIDDEN
 62
     7
100
AcDbLine
 10
2.7632699617
 20
4.3782790537
 30
0.0
 11
2.7632699617
 21
4.3100880771
 31
0.0
  0
LINE
  5
12D
330
1F
100
AcDbEntity
  8
0
  6
HIDDEN
 62
     7
100
AcDbLine
 10
2.8223250798
 20
4.4123745421
 30
0.0
 11
2.7632699617
 21
4.3782790537
 31
0.0
  0
LINE
  5
12E
330
1F
100
AcDbEntity
  8
0
  6
HIDDEN
 62
     7
100
AcDbLine
 10
2.8813801979
 20
4.3782790537
 30
0.0
 11
2.8223250798
 21
4.4123745421
 31
0.0
  0
CIRCLE
  5
12F
330
1F
100
AcDbEntity
  8
0
  6
HIDDEN
 62
     7
100
AcDbCircle
 10
2.8223250798
 20
4.3441835654
 30
0.0
 40
0.1181102362204722
  0
LINE
  5
130
330
1F
100
AcDbEntity
  8
0
  6
HIDDEN
 62
     7
100
AcDbLine
 10
2.6648447648
 20
3.5128122235
 30
0.0
 11
2.8609929745
 21
3.5128122235
 31
0.0
  0
POLYLINE
  5
131
330
1F
100
AcDbEntity
  8
0
  6
HIDDEN
 62
     7
100
AcDb2dPolyline
 66
     1
 10
0.0
 20
0.0
 30
0.0
  0
VERTEX
  5
2B4
330
131
100
AcDbEntity
  8
0
  6
HIDDEN
 62
     7
100
AcDbVertex
100
AcDb2dVertex
 10
2.8609929745
 20
3.5128122235
 30
0.0
  0
VERTEX
  5
2B5
330
131
100
AcDbEntity
  8
0
  6
HIDDEN
 62
     7
100
AcDbVertex
100
AcDb2dVertex
 10
2.8609929745
 20
3.5128122235
 30
0.0
  0
SEQEND
  5
2B6
330
131
100
AcDbEntity
  8
0
  6
HIDDEN
 62
     7
  0
LINE
  5
132
330
1F
100
AcDbEntity
  8
0
  6
HIDDEN
 62
     7
100
AcDbLine
 10
2.9765245548
 20
4.0045443493
 30
0.0
 11
2.6648447648
 21
4.0045443493
 31
0.0
  0
LINE
  5
133
330
1F
100
AcDbEntity
  8
0
  6
HIDDEN
 62
     7
100
AcDbLine
 10
3.3512424026
 20
2.9123152431
 30
0.0
 11
3.3020298042
 21
2.9123152431
 31
0.0
  0
LINE
  5
134
330
1F
100
AcDbEntity
  8
0
  6
HIDDEN
 62
     7
100
AcDbLine
 10
3.3512424026
 20
4.6050413296
 30
0.0
 11
3.3020298042
 21
4.6050413296
 31
0.0
  0
ARC
  5
135
330
1F
100
AcDbEntity
  8
0
  6
HIDDEN
 62
     7
100
AcDbCircle
 10
2.6573447648
 20
3.7585827365
 30
0.0
 40
0.3191797900262463
100
AcDbArc
 50
270.0
 51
309.6455274485
  0
LINE
  5
136
330
1F
100
AcDbEntity
  8
0
  6
HIDDEN
 62
     7
100
AcDbLine
 10
2.6648447648
 20
3.5128122235
 30
0.0
 11
2.6573447648
 21
3.5053063941
 31
0.0
  0
LINE
  5
137
330
1F
100
AcDbEntity
  8
0
  6
HIDDEN
 62
     7
100
AcDbLine
 10
2.6573447648
 20
4.0120501786
 30
0.0
 11
2.6648447648
 21
4.0045443493
 31
0.0
  0
LINE
  5
138
330
1F
100
AcDbEntity
  8
0
  6
HIDDEN
 62
     7
100
AcDbLine
 10
3.3512424026
 20
3.6455829597
 30
0.0
 11
3.3020298042
 21
3.6455829597
 31
0.0
  0
LINE
  5
139
330
1F
100
AcDbEntity
  8
0
  6
HIDDEN
 62
     7
100
AcDbLine
 10
3.3512424026
 20
3.8717736131
 30
0.0
 11
3.3020298042
 21
3.8717736131
 31
0.0
  0
LINE
  5
13A
330
1F
100
AcDbEntity
  8
0
  6
HIDDEN
 62
     7
100
AcDbLine
 10
3.9588998829
 20
4.2261979714
 30
0.0
 11
3.9588998829
 21
4.4749218537
 31
0.0
  0
LINE
  5
13B
330
1F
100
AcDbEntity
  8
0
  6
HIDDEN
 62
     7
100
AcDbLine
 10
3.7029943711
 20
4.4749100903
 30
0.0
 11
3.7029943711
 21
4.2261979714
 31
0.0
  0
LINE
  5
13C
330
1F
100
AcDbEntity
  8
0
  6
HIDDEN
 62
     7
100
AcDbLine
 10
3.7522069695
 20
4.2261979714
 30
0.0
 11
3.7522069695
 21
3.7685208061
 31
0.0
  0
LINE
  5
13D
330
1F
100
AcDbEntity
  8
0
  6
HIDDEN
 62
     7
100
AcDbLine
 10
3.9096872845
 20
3.7685208061
 30
0.0
 11
3.9096872845
 21
4.2261979714
 31
0.0
  0
LINE
  5
13E
330
1F
100
AcDbEntity
  8
0
  6
HIDDEN
 62
     7
100
AcDbLine
 10
3.7522069695
 20
3.7488357667
 30
0.0
 11
3.7522069695
 21
3.0423861658
 31
0.0
  0
LINE
  5
13F
330
1F
100
AcDbEntity
  8
0
  6
HIDDEN
 62
     7
100
AcDbLine
 10
3.9096872845
 20
3.0423860935
 30
0.0
 11
3.9096872845
 21
3.7488357667
 31
0.0
  0
LINE
  5
140
330
1F
100
AcDbEntity
  8
0
  6
HIDDEN
 62
     7
100
AcDbLine
 10
3.995927442
 20
4.0122412785
 30
0.0
 11
3.988427442
 21
4.0047412785
 31
0.0
  0
LINE
  5
141
330
1F
100
AcDbEntity
  8
0
  6
HIDDEN
 62
     7
100
AcDbLine
 10
3.988427442
 20
3.5126152943
 30
0.0
 11
3.995927442
 21
3.5051152943
 31
0.0
  0
LINE
  5
142
330
1F
100
AcDbEntity
  8
0
  6
HIDDEN
 62
     7
100
AcDbLine
 10
3.6505009328
 20
4.0047412785
 30
0.0
 11
3.4053762609
 21
4.0047412785
 31
0.0
  0
LINE
  5
143
330
1F
100
AcDbEntity
  8
0
  6
HIDDEN
 62
     7
100
AcDbLine
 10
3.4053762609
 20
3.5126152943
 30
0.0
 11
3.6505009328
 21
3.5126152943
 31
0.0
  0
LINE
  5
144
330
1F
100
AcDbEntity
  8
0
  6
HIDDEN
 62
     7
100
AcDbLine
 10
3.988427442
 20
4.0047412785
 30
0.0
 11
3.6767476519
 21
4.0047412785
 31
0.0
  0
LINE
  5
145
330
1F
100
AcDbEntity
  8
0
  6
HIDDEN
 62
     7
100
AcDbLine
 10
3.6767476519
 20
3.5126152943
 30
0.0
 11
3.988427442
 21
3.5126152943
 31
0.0
  0
ARC
  5
146
330
1F
100
AcDbEntity
  8
0
  6
HIDDEN
 62
     7
100
AcDbCircle
 10
3.7128368908
 20
4.3738357667
 30
0.0
 40
0.0098425196850394
100
AcDbArc
 50
90.0
 51
180.0
  0
ARC
  5
147
330
1F
100
AcDbEntity
  8
0
  6
HIDDEN
 62
     7
100
AcDbCircle
 10
3.9490573632
 20
4.3738357667
 30
0.0
 40
0.0098425196850394
100
AcDbArc
 50
0.0
 51
90.0
  0
LINE
  5
148
330
1F
100
AcDbEntity
  8
0
  6
HIDDEN
 62
     7
100
AcDbLine
 10
3.9588998829
 20
4.2261979714
 30
0.0
 11
3.9588998829
 21
4.3738357667
 31
0.0
  0
LINE
  5
149
330
1F
100
AcDbEntity
  8
0
  6
HIDDEN
 62
     7
100
AcDbLine
 10
3.7029943711
 20
4.3738357667
 30
0.0
 11
3.7029943711
 21
4.2261979714
 31
0.0
  0
LINE
  5
14A
330
1F
100
AcDbEntity
  8
0
  6
HIDDEN
 62
     7
100
AcDbLine
 10
3.7522069695
 20
4.2261979714
 30
0.0
 11
3.7522069695
 21
3.7685208061
 31
0.0
  0
LINE
  5
14B
330
1F
100
AcDbEntity
  8
0
  6
HIDDEN
 62
     7
100
AcDbLine
 10
3.7522069695
 20
3.7488357667
 30
0.0
 11
3.7522069695
 21
3.1828908848
 31
0.0
  0
LINE
  5
14C
330
1F
100
AcDbEntity
  8
0
  6
HIDDEN
 62
     7
100
AcDbLine
 10
3.9096872845
 20
3.1828908848
 30
0.0
 11
3.9096872845
 21
3.7488357667
 31
0.0
  0
LINE
  5
14D
330
1F
100
AcDbEntity
  8
0
  6
HIDDEN
 62
     7
100
AcDbLine
 10
3.9096872845
 20
3.7685208061
 30
0.0
 11
3.9096872845
 21
4.2261979714
 31
0.0
  0
ARC
  5
14E
330
1F
100
AcDbEntity
  8
0
  6
HIDDEN
 62
     7
100
AcDbCircle
 10
3.8998447648
 20
3.1828908848
 30
0.0
 40
0.0098425196850394
100
AcDbArc
 50
270.0
 51
0.0
  0
ARC
  5
14F
330
1F
100
AcDbEntity
  8
0
  6
HIDDEN
 62
     7
100
AcDbCircle
 10
3.7620494892
 20
3.1828908848
 30
0.0
 40
0.0098425196850394
100
AcDbArc
 50
180.0
 51
270.0
  0
LINE
  5
150
330
1F
100
AcDbEntity
  8
0
  6
HIDDEN
 62
     7
100
AcDbLine
 10
3.3512424026
 20
4.0441113573
 30
0.0
 11
3.3020298042
 21
4.0441113573
 31
0.0
  0
LINE
  5
151
330
1F
100
AcDbEntity
  8
0
  6
HIDDEN
 62
     7
100
AcDbLine
 10
3.3020298042
 20
3.4732452155
 30
0.0
 11
3.3512424026
 21
3.4732452155
 31
0.0
  0
LINE
  5
152
330
1F
100
AcDbEntity
  8
0
  6
HIDDEN
 62
     7
100
AcDbLine
 10
3.002771274
 20
3.5126152943
 30
0.0
 11
3.2478959459
 21
3.5126152943
 31
0.0
  0
LINE
  5
153
330
1F
100
AcDbEntity
  8
0
  6
HIDDEN
 62
     7
100
AcDbLine
 10
3.2478959459
 20
4.0047412785
 30
0.0
 11
3.002771274
 21
4.0047412785
 31
0.0
  0
LINE
  5
154
330
1F
100
AcDbEntity
  8
0
  6
HIDDEN
 62
     7
100
AcDbLine
 10
2.8609929745
 20
3.5126152943
 30
0.0
 11
2.9765245548
 21
3.5126152943
 31
0.0
  0
LINE
  5
155
330
1F
100
AcDbEntity
  8
0
  6
HIDDEN
 62
     7
100
AcDbLine
 10
3.9586473974
 20
4.3738357667
 30
0.0
 11
3.7032468566
 21
4.3738357667
 31
0.0
  0
ARC
  5
156
330
1F
100
AcDbEntity
  8
0
  6
CONTINUOUS
 62
     7
100
AcDbCircle
 10
7.5472690911
 20
4.3738357667
 30
0.0
 40
0.0098425196850407
100
AcDbArc
 50
90.0
 51
180.0
  0
LINE
  5
157
330
1F
100
AcDbEntity
  8
0
  6
CONTINUOUS
 62
     7
100
AcDbLine
 10
7.5374265714
 20
4.3738357667
 30
0.0
 11
7.5374265714
 21
4.3477172023
 31
0.0
  0
LINE
  5
158
330
1F
100
AcDbEntity
  8
0
  6
CONTINUOUS
 62
     7
100
AcDbLine
 10
7.5866391698
 20
3.7685208061
 30
0.0
 11
7.5866391698
 21
3.7488357667
 31
0.0
  0
LINE
  5
159
330
1F
100
AcDbEntity
  8
0
  6
CONTINUOUS
 62
     7
100
AcDbLine
 10
7.7441194848
 20
3.7488357667
 30
0.0
 11
7.7441194848
 21
3.7685208061
 31
0.0
  0
ARC
  5
15A
330
1F
100
AcDbEntity
  8
0
  6
CONTINUOUS
 62
     7
100
AcDbCircle
 10
8.8660420866
 20
4.4622938016
 30
0.0
 40
0.0098425196850407
100
AcDbArc
 50
0.0
 51
90.0
  0
LINE
  5
15B
330
1F
100
AcDbEntity
  8
0
  6
CONTINUOUS
 62
     7
100
AcDbLine
 10
8.8660420866
 20
4.4721363213
 30
0.0
 11
8.8399235222
 21
4.4721363213
 31
0.0
  0
ARC
  5
15C
330
1F
100
AcDbEntity
  8
0
  6
CONTINUOUS
 62
     7
100
AcDbCircle
 10
8.2508846063
 20
3.7586782864
 30
0.0
 40
0.9176968503937002
100
AcDbArc
 50
180.6145228129
 51
179.3854771871
  0
LINE
  5
15D
330
1F
100
AcDbEntity
  8
0
  6
CONTINUOUS
 62
     7
100
AcDbLine
 10
7.3257401112
 20
3.7685208061
 30
0.0
 11
7.3332405391
 21
3.7685208061
 31
0.0
  0
ARC
  5
15E
330
1F
100
AcDbEntity
  8
0
  6
CONTINUOUS
 62
     7
100
AcDbCircle
 10
8.2508846063
 20
3.7586782864
 30
0.0
 40
0.9251968503937005
100
AcDbArc
 50
180.609541067
 51
179.390458933
  0
LINE
  5
15F
330
1F
100
AcDbEntity
  8
0
  6
CONTINUOUS
 62
     7
100
AcDbLine
 10
7.3257401112
 20
3.7488357667
 30
0.0
 11
7.3332405391
 21
3.7488357667
 31
0.0
  0
LINE
  5
160
330
1F
100
AcDbEntity
  8
0
  6
CONTINUOUS
 62
     7
100
AcDbLine
 10
8.5701599463
 20
3.7685208061
 30
0.0
 11
8.5701599463
 21
3.7488357667
 31
0.0
  0
LINE
  5
161
330
1F
100
AcDbEntity
  8
0
  6
CONTINUOUS
 62
     7
100
AcDbLine
 10
8.5701599463
 20
3.7685208061
 30
0.0
 11
8.5042564986
 21
3.7685208061
 31
0.0
  0
ARC
  5
162
330
1F
100
AcDbEntity
  8
0
  6
CONTINUOUS
 62
     7
100
AcDbCircle
 10
8.2508846063
 20
3.7586782864
 30
0.0
 40
0.2535629921259853
100
AcDbArc
 50
2.2246012603
 51
177.7753987397
  0
LINE
  5
163
330
1F
100
AcDbEntity
  8
0
  6
CONTINUOUS
 62
     7
100
AcDbLine
 10
7.3332405391
 20
3.7685208061
 30
0.0
 11
7.9975127141
 21
3.7685208061
 31
0.0
  0
LINE
  5
164
330
1F
100
AcDbEntity
  8
0
  6
CONTINUOUS
 62
     7
100
AcDbLine
 10
7.3332405391
 20
3.7488357667
 30
0.0
 11
7.9975127141
 21
3.7488357667
 31
0.0
  0
ARC
  5
165
330
1F
100
AcDbEntity
  8
0
  6
CONTINUOUS
 62
     7
100
AcDbCircle
 10
8.2508846063
 20
3.7586782864
 30
0.0
 40
0.2535629921259853
100
AcDbArc
 50
182.2246012603
 51
357.7753987397
  0
LINE
  5
166
330
1F
100
AcDbEntity
  8
0
  6
CONTINUOUS
 62
     7
100
AcDbLine
 10
8.5042564986
 20
3.7488357667
 30
0.0
 11
8.5701599463
 21
3.7488357667
 31
0.0
  0
SPLINE
  5
167
330
1F
100
AcDbEntity
  8
0
  6
CONTINUOUS
 62
     7
100
AcDbSpline
210
0.0
220
0.0
230
1.0
 70
     8
 71
     3
 72
     8
 73
     4
 74
     0
 42
0.00000001
 43
0.00000001
 40
0.0
 40
0.0
 40
0.0
 40
0.0
 40
1.0
 40
1.0
 40
1.0
 40
1.0
 10
8.49675066925306
 20
3.768520806077087
 30
0.0
 10
8.49701334667072
 20
3.76195912628706
 30
0.0
 10
8.49701334667072
 20
3.755397446497034
 30
0.0
 10
8.49675066925306
 20
3.748835766707008
 30
0.0
  0
LINE
  5
168
330
1F
100
AcDbEntity
  8
0
  6
CONTINUOUS
 62
     7
100
AcDbLine
 10
7.9975127141
 20
3.7685208061
 30
0.0
 11
8.0050185434
 21
3.7685208061
 31
0.0
  0
ARC
  5
169
330
1F
100
AcDbEntity
  8
0
  6
CONTINUOUS
 62
     7
100
AcDbCircle
 10
8.2508846063
 20
3.7586782864
 30
0.0
 40
0.2460629921259846
100
AcDbArc
 50
2.292442776
 51
177.707557224
  0
LINE
  5
16A
330
1F
100
AcDbEntity
  8
0
  6
CONTINUOUS
 62
     7
100
AcDbLine
 10
8.4967506693
 20
3.7685208061
 30
0.0
 11
8.5042564986
 21
3.7685208061
 31
0.0
  0
LINE
  5
16B
330
1F
100
AcDbEntity
  8
0
  6
CONTINUOUS
 62
     7
100
AcDbLine
 10
7.9975127141
 20
3.7488357667
 30
0.0
 11
8.0050185434
 21
3.7488357667
 31
0.0
  0
ARC
  5
16C
330
1F
100
AcDbEntity
  8
0
  6
CONTINUOUS
 62
     7
100
AcDbCircle
 10
8.2508846063
 20
3.7586782864
 30
0.0
 40
0.2460629921259846
100
AcDbArc
 50
182.292442776
 51
357.707557224
  0
LINE
  5
16D
330
1F
100
AcDbEntity
  8
0
  6
CONTINUOUS
 62
     7
100
AcDbLine
 10
8.4967506693
 20
3.7488357667
 30
0.0
 11
8.5042564986
 21
3.7488357667
 31
0.0
  0
LINE
  5
16E
330
1F
100
AcDbEntity
  8
0
  6
CONTINUOUS
 62
     7
100
AcDbLine
 10
8.0048216142
 20
3.7586782864
 30
0.0
 11
8.0050185434
 21
3.7488357667
 31
0.0
  0
LINE
  5
16F
330
1F
100
AcDbEntity
  8
0
  6
CONTINUOUS
 62
     7
100
AcDbLine
 10
8.4967506693
 20
3.7488357667
 30
0.0
 11
8.4967506693
 21
3.7685208061
 31
0.0
  0
LINE
  5
170
330
1F
100
AcDbEntity
  8
0
  6
CONTINUOUS
 62
     7
100
AcDbLine
 10
8.0050185434
 20
3.7685208061
 30
0.0
 11
8.0048216142
 21
3.7586782864
 31
0.0
  0
LINE
  5
171
330
1F
100
AcDbEntity
  8
0
  6
CONTINUOUS
 62
     7
100
AcDbLine
 10
7.3257401112
 20
3.7488357667
 30
0.0
 11
7.3257401112
 21
3.7685208061
 31
0.0
  0
LINE
  5
172
330
1F
100
AcDbEntity
  8
0
  6
CONTINUOUS
 62
     7
100
AcDbLine
 10
7.5472690911
 20
4.3836782864
 30
0.0
 11
7.5687085206
 21
4.3836782864
 31
0.0
  0
LINE
  5
173
330
1F
100
AcDbEntity
  8
0
  6
CONTINUOUS
 62
     7
100
AcDbLine
 10
8.8758846063
 20
4.4408543721
 30
0.0
 11
8.8758846063
 21
4.4622938016
 31
0.0
  0
LINE
  5
174
330
1F
100
AcDbEntity
  8
0
  6
CONTINUOUS
 62
     8
100
AcDbLine
 10
7.559819858
 20
4.3738357667
 30
0.0
 11
7.5374265714
 21
4.3738357667
 31
0.0
  0
LINE
  5
175
330
1F
100
AcDbEntity
  8
0
  6
CONTINUOUS
 62
     8
100
AcDbLine
 10
8.8660420866
 20
4.4721363213
 30
0.0
 11
8.8660420866
 21
4.4497430347
 31
0.0
  0
LINE
  5
176
330
1F
100
AcDbEntity
  8
0
  6
HIDDEN
 62
     7
100
AcDbLine
 10
7.5374265714
 20
4.2261979714
 30
0.0
 11
7.7933320832
 21
4.2261979714
 31
0.0
  0
LINE
  5
177
330
1F
100
AcDbEntity
  8
0
  6
HIDDEN
 62
     7
100
AcDbLine
 10
8.666731063
 20
2.9322032799
 30
0.0
 11
8.666731063
 21
4.5851532929
 31
0.0
  0
LINE
  5
178
330
1F
100
AcDbEntity
  8
0
  6
HIDDEN
 62
     7
100
AcDbLine
 10
7.5687085206
 20
4.3836782864
 30
0.0
 11
7.7834895633
 21
4.3836782864
 31
0.0
  0
LINE
  5
179
330
1F
100
AcDbEntity
  8
0
  6
HIDDEN
 62
     7
100
AcDbLine
 10
7.7441194848
 20
3.1828908848
 30
0.0
 11
7.5868944999
 21
3.1828908848
 31
0.0
  0
LINE
  5
17A
330
1F
100
AcDbEntity
  8
0
  6
HIDDEN
 62
     7
100
AcDbLine
 10
7.7342769651
 20
3.1730483651
 30
0.0
 11
7.596481693
 21
3.1730483651
 31
0.0
  0
LINE
  5
17B
330
1F
100
AcDbEntity
  8
0
  6
HIDDEN
 62
     7
100
AcDbLine
 10
7.6994748157
 20
4.3049381289
 30
0.0
 11
7.733570304
 21
4.3049381289
 31
0.0
  0
LINE
  5
17C
330
1F
100
AcDbEntity
  8
0
  6
HIDDEN
 62
     7
100
AcDbLine
 10
7.631283839
 20
4.3049381289
 30
0.0
 11
7.6994748157
 21
4.3049381289
 31
0.0
  0
LINE
  5
17D
330
1F
100
AcDbEntity
  8
0
  6
HIDDEN
 62
     7
100
AcDbLine
 10
7.6994748157
 20
4.3049381289
 30
0.0
 11
7.6994748157
 21
4.3836782864
 31
0.0
  0
LINE
  5
17E
330
1F
100
AcDbEntity
  8
0
  6
HIDDEN
 62
     7
100
AcDbLine
 10
7.631283839
 20
4.3049381289
 30
0.0
 11
7.631283839
 21
4.3836782864
 31
0.0
  0
LINE
  5
17F
330
1F
100
AcDbEntity
  8
0
  6
HIDDEN
 62
     7
100
AcDbLine
 10
7.5971883506
 20
4.3049381289
 30
0.0
 11
7.631283839
 21
4.3049381289
 31
0.0
  0
LINE
  5
180
330
1F
100
AcDbEntity
  8
0
  6
HIDDEN
 62
     7
100
AcDbLine
 10
7.733570304
 20
4.3049381289
 30
0.0
 11
7.733570304
 21
4.3836782864
 31
0.0
  0
LINE
  5
181
330
1F
100
AcDbEntity
  8
0
  6
HIDDEN
 62
     7
100
AcDbLine
 10
7.5971883506
 20
4.3049381289
 30
0.0
 11
7.5971883506
 21
4.3836782864
 31
0.0
  0
LINE
  5
182
330
1F
100
AcDbEntity
  8
0
  6
HIDDEN
 62
     7
100
AcDbLine
 10
8.8758846063
 20
4.4408543721
 30
0.0
 11
8.8758846063
 21
4.2260733292
 31
0.0
  0
LINE
  5
183
330
1F
100
AcDbEntity
  8
0
  6
HIDDEN
 62
     7
100
AcDbLine
 10
8.7184042914
 20
4.2162308095
 30
0.0
 11
8.7184042914
 21
4.4721363213
 31
0.0
  0
LINE
  5
184
330
1F
100
AcDbEntity
  8
0
  6
HIDDEN
 62
     7
100
AcDbLine
 10
7.6750972047
 20
4.2654434079
 30
0.0
 11
7.6750972047
 21
4.4226683928
 31
0.0
  0
LINE
  5
185
330
1F
100
AcDbEntity
  8
0
  6
HIDDEN
 62
     7
100
AcDbLine
 10
7.6652546851
 20
4.2752859276
 30
0.0
 11
7.6652546851
 21
4.4130812032
 31
0.0
  0
LINE
  5
186
330
1F
100
AcDbEntity
  8
0
  6
HIDDEN
 62
     7
100
AcDbLine
 10
8.7971444488
 20
4.3782790537
 30
0.0
 11
8.8758846063
 21
4.3782790537
 31
0.0
  0
LINE
  5
187
330
1F
100
AcDbEntity
  8
0
  6
HIDDEN
 62
     7
100
AcDbLine
 10
8.7971444488
 20
4.3100880771
 30
0.0
 11
8.8758846063
 21
4.3100880771
 31
0.0
  0
LINE
  5
188
330
1F
100
AcDbEntity
  8
0
  6
HIDDEN
 62
     7
100
AcDbLine
 10
8.7971444488
 20
4.3100880771
 30
0.0
 11
8.7971444488
 21
4.3782790537
 31
0.0
  0
LINE
  5
189
330
1F
100
AcDbEntity
  8
0
  6
HIDDEN
 62
     7
100
AcDbLine
 10
8.7971444488
 20
4.3782790537
 30
0.0
 11
8.7971444488
 21
4.4123745421
 31
0.0
  0
LINE
  5
18A
330
1F
100
AcDbEntity
  8
0
  6
HIDDEN
 62
     7
100
AcDbLine
 10
8.7971444488
 20
4.2759925887
 30
0.0
 11
8.7971444488
 21
4.3100880771
 31
0.0
  0
LINE
  5
18B
330
1F
100
AcDbEntity
  8
0
  6
HIDDEN
 62
     7
100
AcDbLine
 10
8.7971444488
 20
4.4123745421
 30
0.0
 11
8.8758846063
 21
4.4123745421
 31
0.0
  0
LINE
  5
18C
330
1F
100
AcDbEntity
  8
0
  6
HIDDEN
 62
     7
100
AcDbLine
 10
8.7971444488
 20
4.2759925887
 30
0.0
 11
8.8758846063
 21
4.2759925887
 31
0.0
  0
CIRCLE
  5
18D
330
1F
100
AcDbEntity
  8
0
  6
HIDDEN
 62
     7
100
AcDbCircle
 10
8.9841523229
 20
3.7586782864
 30
0.0
 40
0.1279527559055129
  0
CIRCLE
  5
18E
330
1F
100
AcDbEntity
  8
0
  6
HIDDEN
 62
     7
100
AcDbCircle
 10
8.2508846063
 20
3.0254105699
 30
0.0
 40
0.1279527559055129
  0
CIRCLE
  5
18F
330
1F
100
AcDbEntity
  8
0
  6
HIDDEN
 62
     7
100
AcDbCircle
 10
8.2508846063
 20
4.4919460029
 30
0.0
 40
0.1279527559055129
  0
CIRCLE
  5
190
330
1F
100
AcDbEntity
  8
0
  6
HIDDEN
 62
     7
100
AcDbCircle
 10
7.5176168898
 20
3.7586782864
 30
0.0
 40
0.127952755905512
  0
LINE
  5
191
330
1F
100
AcDbEntity
  8
0
  6
HIDDEN
 62
     7
100
AcDbLine
 10
8.1377892796
 20
4.6050413296
 30
0.0
 11
7.4045215631
 21
3.8717736131
 31
0.0
  0
ARC
  5
192
330
1F
100
AcDbEntity
  8
0
  6
HIDDEN
 62
     7
100
AcDbCircle
 10
8.2508846063
 20
4.4919460029
 30
0.0
 40
0.1599409448818903
100
AcDbArc
 50
45.0
 51
135.0
  0
LINE
  5
193
330
1F
100
AcDbEntity
  8
0
  6
HIDDEN
 62
     7
100
AcDbLine
 10
9.0972476496
 20
3.8717736131
 30
0.0
 11
8.363979933
 21
4.6050413296
 31
0.0
  0
ARC
  5
194
330
1F
100
AcDbEntity
  8
0
  6
HIDDEN
 62
     7
100
AcDbCircle
 10
8.9841523229
 20
3.7586782864
 30
0.0
 40
0.1599409448818888
100
AcDbArc
 50
315.0
 51
45.0
  0
LINE
  5
195
330
1F
100
AcDbEntity
  8
0
  6
HIDDEN
 62
     7
100
AcDbLine
 10
8.363979933
 20
2.9123152431
 30
0.0
 11
9.0972476496
 21
3.6455829597
 31
0.0
  0
ARC
  5
196
330
1F
100
AcDbEntity
  8
0
  6
HIDDEN
 62
     7
100
AcDbCircle
 10
8.2508846063
 20
3.0254105699
 30
0.0
 40
0.1599409448818897
100
AcDbArc
 50
225.0
 51
315.0
  0
LINE
  5
197
330
1F
100
AcDbEntity
  8
0
  6
HIDDEN
 62
     7
100
AcDbLine
 10
7.4045215631
 20
3.6455829597
 30
0.0
 11
8.1377892796
 21
2.9123152431
 31
0.0
  0
ARC
  5
198
330
1F
100
AcDbEntity
  8
0
  6
HIDDEN
 62
     7
100
AcDbCircle
 10
7.5176168898
 20
3.7586782864
 30
0.0
 40
0.1599409448818888
100
AcDbArc
 50
135.0
 51
225.0
  0
CIRCLE
  5
199
330
1F
100
AcDbEntity
  8
0
  6
HIDDEN
 62
     7
100
AcDbCircle
 10
8.2508846063
 20
3.7586782864
 30
0.0
 40
0.2854330708661426
  0
CIRCLE
  5
19A
330
1F
100
AcDbEntity
  8
0
  6
HIDDEN
 62
     7
100
AcDbCircle
 10
8.2508846063
 20
3.7586782864
 30
0.0
 40
0.9251968503937014
  0
LINE
  5
19B
330
1F
100
AcDbEntity
  8
0
  6
HIDDEN
 62
     7
100
AcDbLine
 10
7.4244095998
 20
3.3428318297
 30
0.0
 11
9.0773596129
 21
3.3428318297
 31
0.0
  0
LINE
  5
19C
330
1F
100
AcDbEntity
  8
0
  6
HIDDEN
 62
     7
100
AcDbLine
 10
8.2410420866
 20
4.0045443493
 30
0.0
 11
8.2410420866
 21
4.6838227815
 31
0.0
  0
LINE
  5
19D
330
1F
100
AcDbEntity
  8
0
  6
HIDDEN
 62
     7
100
AcDbLine
 10
8.260727126
 20
4.0045443493
 30
0.0
 11
8.260727126
 21
4.6838227815
 31
0.0
  0
LINE
  5
19E
330
1F
100
AcDbEntity
  8
0
  6
HIDDEN
 62
     7
100
AcDbLine
 10
8.2410420866
 20
3.4394029464
 30
0.0
 11
8.2410420866
 21
3.5128122235
 31
0.0
  0
LINE
  5
19F
330
1F
100
AcDbEntity
  8
0
  6
HIDDEN
 62
     7
100
AcDbLine
 10
8.260727126
 20
3.4394029464
 30
0.0
 11
8.2410420866
 21
3.4394029464
 31
0.0
  0
LINE
  5
1A0
330
1F
100
AcDbEntity
  8
0
  6
HIDDEN
 62
     7
100
AcDbLine
 10
8.260727126
 20
3.5128122235
 30
0.0
 11
8.260727126
 21
3.4394029464
 31
0.0
  0
POLYLINE
  5
1A1
330
1F
100
AcDbEntity
  8
0
  6
HIDDEN
 62
     7
100
AcDb2dPolyline
 66
     1
 10
0.0
 20
0.0
 30
0.0
  0
VERTEX
  5
2B7
330
1A1
100
AcDbEntity
  8
0
  6
HIDDEN
 62
     7
100
AcDbVertex
100
AcDb2dVertex
 10
7.9975127141
 20
3.7488357667
 30
0.0
  0
VERTEX
  5
2B8
330
1A1
100
AcDbEntity
  8
0
  6
HIDDEN
 62
     7
100
AcDbVertex
100
AcDb2dVertex
 10
7.9973216142
 20
3.7586782864
 30
0.0
  0
VERTEX
  5
2B9
330
1A1
100
AcDbEntity
  8
0
  6
HIDDEN
 62
     7
100
AcDbVertex
100
AcDb2dVertex
 10
7.9975127141
 20
3.7685208061
 30
0.0
  0
SEQEND
  5
2BA
330
1A1
100
AcDbEntity
  8
0
  6
HIDDEN
 62
     7
  0
POLYLINE
  5
1A2
330
1F
100
AcDbEntity
  8
0
  6
HIDDEN
 62
     7
100
AcDb2dPolyline
 66
     1
 10
0.0
 20
0.0
 30
0.0
  0
VERTEX
  5
2BB
330
1A2
100
AcDbEntity
  8
0
  6
HIDDEN
 62
     7
100
AcDbVertex
100
AcDb2dVertex
 10
8.5042564986
 20
3.7685208061
 30
0.0
  0
VERTEX
  5
2BC
330
1A2
100
AcDbEntity
  8
0
  6
HIDDEN
 62
     7
100
AcDbVertex
100
AcDb2dVertex
 10
8.5044475984
 20
3.7586782864
 30
0.0
  0
VERTEX
  5
2BD
330
1A2
100
AcDbEntity
  8
0
  6
HIDDEN
 62
     7
100
AcDbVertex
100
AcDb2dVertex
 10
8.5042564986
 20
3.7488357667
 30
0.0
  0
SEQEND
  5
2BE
330
1A2
100
AcDbEntity
  8
0
  6
HIDDEN
 62
     7
  0
POLYLINE
  5
1A3
330
1F
100
AcDbEntity
  8
0
  6
HIDDEN
 62
     7
100
AcDb2dPolyline
 66
     1
 10
0.0
 20
0.0
 30
0.0
  0
VERTEX
  5
2BF
330
1A3
100
AcDbEntity
  8
0
  6
HIDDEN
 62
     7
100
AcDbVertex
100
AcDb2dVertex
 10
7.3332405391
 20
3.7685208061
 30
0.0
  0
VERTEX
  5
2C0
330
1A3
100
AcDbEntity
  8
0
  6
HIDDEN
 62
     7
100
AcDbVertex
100
AcDb2dVertex
 10
7.3332065941
 20
3.7645583468
 30
0.0
  0
VERTEX
  5
2C1
330
1A3
100
AcDbEntity
  8
0
  6
HIDDEN
 62
     7
100
AcDbVertex
100
AcDb2dVertex
 10
7.3332405391
 20
3.7488357667
 30
0.0
  0
SEQEND
  5
2C2
330
1A3
100
AcDbEntity
  8
0
  6
HIDDEN
 62
     7
  0
LINE
  5
1A4
330
1F
100
AcDbEntity
  8
0
  6
HIDDEN
 62
     7
100
AcDbLine
 10
7.7933320832
 20
4.2261979714
 30
0.0
 11
7.7933320832
 21
4.5628144071
 31
0.0
  0
LINE
  5
1A5
330
1F
100
AcDbEntity
  8
0
  6
HIDDEN
 62
     7
100
AcDbLine
 10
7.5374265714
 20
4.3479224237
 30
0.0
 11
7.5374265714
 21
4.2261979714
 31
0.0
  0
LINE
  5
1A6
330
1F
100
AcDbEntity
  8
0
  6
HIDDEN
 62
     7
100
AcDbLine
 10
7.5866391698
 20
4.2261979714
 30
0.0
 11
7.5866391698
 21
3.7685208061
 31
0.0
  0
LINE
  5
1A7
330
1F
100
AcDbEntity
  8
0
  6
HIDDEN
 62
     7
100
AcDbLine
 10
7.7441194848
 20
3.7685208061
 30
0.0
 11
7.7441194848
 21
4.2261979714
 31
0.0
  0
LINE
  5
1A8
330
1F
100
AcDbEntity
  8
0
  6
HIDDEN
 62
     7
100
AcDbLine
 10
7.5866391698
 20
3.7488357667
 30
0.0
 11
7.5866391698
 21
3.1146540539
 31
0.0
  0
LINE
  5
1A9
330
1F
100
AcDbEntity
  8
0
  6
HIDDEN
 62
     7
100
AcDbLine
 10
7.7441194848
 20
2.9846389018
 30
0.0
 11
7.7441194848
 21
3.7488357667
 31
0.0
  0
ARC
  5
1AA
330
1F
100
AcDbEntity
  8
0
  6
HIDDEN
 62
     7
100
AcDbCircle
 10
7.7834895635
 20
4.3738357667
 30
0.0
 40
0.0098425196850398
100
AcDbArc
 50
0.0
 51
90.0
  0
LINE
  5
1AB
330
1F
100
AcDbEntity
  8
0
  6
HIDDEN
 62
     7
100
AcDbLine
 10
7.7933320832
 20
4.2261979714
 30
0.0
 11
7.7933320832
 21
4.3738357667
 31
0.0
  0
LINE
  5
1AC
330
1F
100
AcDbEntity
  8
0
  6
HIDDEN
 62
     7
100
AcDbLine
 10
7.5374265714
 20
4.3477172023
 30
0.0
 11
7.5374265714
 21
4.2261979714
 31
0.0
  0
LINE
  5
1AD
330
1F
100
AcDbEntity
  8
0
  6
HIDDEN
 62
     7
100
AcDbLine
 10
7.5866391698
 20
4.2261979714
 30
0.0
 11
7.5866391698
 21
3.7685208061
 31
0.0
  0
LINE
  5
1AE
330
1F
100
AcDbEntity
  8
0
  6
HIDDEN
 62
     7
100
AcDbLine
 10
7.5866391698
 20
3.7488357667
 30
0.0
 11
7.5866391698
 21
3.1828908848
 31
0.0
  0
LINE
  5
1AF
330
1F
100
AcDbEntity
  8
0
  6
HIDDEN
 62
     7
100
AcDbLine
 10
7.7441194848
 20
3.1828908848
 30
0.0
 11
7.7441194848
 21
3.7488357667
 31
0.0
  0
LINE
  5
1B0
330
1F
100
AcDbEntity
  8
0
  6
HIDDEN
 62
     7
100
AcDbLine
 10
7.7441194848
 20
3.7685208061
 30
0.0
 11
7.7441194848
 21
4.2261979714
 31
0.0
  0
ARC
  5
1B1
330
1F
100
AcDbEntity
  8
0
  6
HIDDEN
 62
     7
100
AcDbCircle
 10
7.7342769651
 20
3.1828908848
 30
0.0
 40
0.0098425196850394
100
AcDbArc
 50
270.0
 51
0.0
  0
ARC
  5
1B2
330
1F
100
AcDbEntity
  8
0
  6
HIDDEN
 62
     7
100
AcDbCircle
 10
7.5964816895
 20
3.1828908848
 30
0.0
 40
0.0098425196850394
100
AcDbArc
 50
180.0
 51
270.0
  0
ARC
  5
1B3
330
1F
100
AcDbEntity
  8
0
  6
HIDDEN
 62
     7
100
AcDbCircle
 10
8.8660420866
 20
4.2260733292
 30
0.0
 40
0.0098425196850407
100
AcDbArc
 50
270.0
 51
0.0
  0
LINE
  5
1B4
330
1F
100
AcDbEntity
  8
0
  6
HIDDEN
 62
     7
100
AcDbLine
 10
8.7184042914
 20
4.2162308095
 30
0.0
 11
8.8660420866
 21
4.2162308095
 31
0.0
  0
LINE
  5
1B5
330
1F
100
AcDbEntity
  8
0
  6
HIDDEN
 62
     7
100
AcDbLine
 10
8.8399235222
 20
4.4721363213
 30
0.0
 11
8.7184042914
 21
4.4721363213
 31
0.0
  0
LINE
  5
1B6
330
1F
100
AcDbEntity
  8
0
  6
HIDDEN
 62
     7
100
AcDbLine
 10
8.7184042914
 20
4.4229237229
 30
0.0
 11
7.6750972047
 21
4.4229237229
 31
0.0
  0
LINE
  5
1B7
330
1F
100
AcDbEntity
  8
0
  6
HIDDEN
 62
     7
100
AcDbLine
 10
7.6750972047
 20
4.2654434079
 30
0.0
 11
8.7184042914
 21
4.2654434079
 31
0.0
  0
ARC
  5
1B8
330
1F
100
AcDbEntity
  8
0
  6
HIDDEN
 62
     7
100
AcDbCircle
 10
7.6750972047
 20
4.2752859276
 30
0.0
 40
0.0098425196850389
100
AcDbArc
 50
180.0
 51
270.0
  0
ARC
  5
1B9
330
1F
100
AcDbEntity
  8
0
  6
HIDDEN
 62
     7
100
AcDbCircle
 10
7.6750972047
 20
4.4130812032
 30
0.0
 40
0.0098425196850398
100
AcDbArc
 50
90.0
 51
180.0
  0
LINE
  5
1BA
330
1F
100
AcDbEntity
  8
0
  6
HIDDEN
 62
     7
100
AcDbLine
 10
8.7184042914
 20
4.2162308095
 30
0.0
 11
9.055020727
 21
4.2162308095
 31
0.0
  0
LINE
  5
1BB
330
1F
100
AcDbEntity
  8
0
  6
HIDDEN
 62
     7
100
AcDbLine
 10
8.8401287437
 20
4.4721363213
 30
0.0
 11
8.7184042914
 21
4.4721363213
 31
0.0
  0
LINE
  5
1BC
330
1F
100
AcDbEntity
  8
0
  6
HIDDEN
 62
     7
100
AcDbLine
 10
8.7184042914
 20
4.4229237229
 30
0.0
 11
8.260727126
 21
4.4229237229
 31
0.0
  0
LINE
  5
1BD
330
1F
100
AcDbEntity
  8
0
  6
HIDDEN
 62
     7
100
AcDbLine
 10
8.260727126
 20
4.2654434079
 30
0.0
 11
8.7184042914
 21
4.2654434079
 31
0.0
  0
LINE
  5
1BE
330
1F
100
AcDbEntity
  8
0
  6
HIDDEN
 62
     7
100
AcDbLine
 10
8.2410420866
 20
4.4229237229
 30
0.0
 11
7.6068603738
 21
4.4229237229
 31
0.0
  0
LINE
  5
1BF
330
1F
100
AcDbEntity
  8
0
  6
HIDDEN
 62
     7
100
AcDbLine
 10
7.4768452217
 20
4.2654434079
 30
0.0
 11
8.2410420866
 21
4.2654434079
 31
0.0
  0
LINE
  5
1C0
330
1F
100
AcDbEntity
  8
0
  6
HIDDEN
 62
     7
100
AcDbLine
 10
7.5374265714
 20
4.3738357667
 30
0.0
 11
7.7933320832
 21
4.3738357667
 31
0.0
  0
LINE
  5
1C1
330
1F
100
AcDbEntity
  8
0
  6
HIDDEN
 62
     7
100
AcDbLine
 10
8.8660420866
 20
4.4721363213
 30
0.0
 11
8.8660420866
 21
4.2162308095
 31
0.0
  0
LINE
  5
1C2
330
1F
100
AcDbEntity
  8
0
  6
CONTINUOUS
 62
     7
100
AcDbLine
 10
3.995927442
 20
7.5896739893
 30
0.0
 11
3.988427442
 21
7.5971739893
 31
0.0
  0
LINE
  5
1C3
330
1F
100
AcDbEntity
  8
0
  6
CONTINUOUS
 62
     7
100
AcDbLine
 10
3.4053762609
 20
5.7467802885
 30
0.0
 11
3.6505009328
 21
5.7467802885
 31
0.0
  0
LINE
  5
1C4
330
1F
100
AcDbEntity
  8
0
  6
CONTINUOUS
 62
     7
100
AcDbLine
 10
3.988427442
 20
7.5971739893
 30
0.0
 11
3.4053762609
 21
7.5971739893
 31
0.0
  0
LINE
  5
1C5
330
1F
100
AcDbEntity
  8
0
  6
CONTINUOUS
 62
     7
100
AcDbLine
 10
2.7435849223
 20
6.6818196586
 30
0.0
 11
2.7435849223
 21
6.6621346192
 31
0.0
  0
LINE
  5
1C6
330
1F
100
AcDbEntity
  8
0
  6
CONTINUOUS
 62
     7
100
AcDbLine
 10
2.9010652372
 20
6.6621346192
 30
0.0
 11
2.9010652372
 21
6.6818196586
 31
0.0
  0
LINE
  5
1C7
330
1F
100
AcDbEntity
  8
0
  6
CONTINUOUS
 62
     7
100
AcDbLine
 10
2.9765245548
 20
7.5971739893
 30
0.0
 11
2.6648447648
 21
7.5971739893
 31
0.0
  0
LINE
  5
1C8
330
1F
100
AcDbEntity
  8
0
  6
CONTINUOUS
 62
     7
100
AcDbLine
 10
3.2478959459
 20
7.5971739893
 30
0.0
 11
3.002771274
 21
7.5971739893
 31
0.0
  0
LINE
  5
1C9
330
1F
100
AcDbEntity
  8
0
  6
CONTINUOUS
 62
     7
100
AcDbLine
 10
3.002771274
 20
5.7467802885
 30
0.0
 11
3.2478959459
 21
5.7467802885
 31
0.0
  0
LINE
  5
1CA
330
1F
100
AcDbEntity
  8
0
  6
CONTINUOUS
 62
     7
100
AcDbLine
 10
2.6648447648
 20
5.7467802885
 30
0.0
 11
2.9765245548
 21
5.7467802885
 31
0.0
  0
LINE
  5
1CB
330
1F
100
AcDbEntity
  8
0
  6
CONTINUOUS
 62
     7
100
AcDbLine
 10
2.6648447648
 20
7.5971739893
 30
0.0
 11
2.6573447648
 21
7.5896739893
 31
0.0
  0
LINE
  5
1CC
330
1F
100
AcDbEntity
  8
0
  6
CONTINUOUS
 62
     7
100
AcDbLine
 10
2.6573447648
 20
5.7542802885
 30
0.0
 11
2.6648447648
 21
5.7467802885
 31
0.0
  0
LINE
  5
1CD
330
1F
100
AcDbEntity
  8
0
  6
CONTINUOUS
 62
     7
100
AcDbLine
 10
3.2478959459
 20
6.544024383
 30
0.0
 11
3.3020298042
 21
6.544024383
 31
0.0
  0
LINE
  5
1CE
330
1F
100
AcDbEntity
  8
0
  6
CONTINUOUS
 62
     7
100
AcDbLine
 10
3.3020298042
 20
6.7999298948
 30
0.0
 11
3.2478959459
 21
6.7999298948
 31
0.0
  0
LINE
  5
1CF
330
1F
100
AcDbEntity
  8
0
  6
CONTINUOUS
 62
     7
100
AcDbLine
 10
3.3512424026
 20
6.544024383
 30
0.0
 11
3.4053762609
 21
6.544024383
 31
0.0
  0
LINE
  5
1D0
330
1F
100
AcDbEntity
  8
0
  6
CONTINUOUS
 62
     7
100
AcDbLine
 10
3.4053762609
 20
6.7999298948
 30
0.0
 11
3.3512424026
 21
6.7999298948
 31
0.0
  0
LINE
  5
1D1
330
1F
100
AcDbEntity
  8
0
  6
CONTINUOUS
 62
     7
100
AcDbLine
 10
3.2478959459
 20
7.2772920995
 30
0.0
 11
3.3020298042
 21
7.2772920995
 31
0.0
  0
LINE
  5
1D2
330
1F
100
AcDbEntity
  8
0
  6
CONTINUOUS
 62
     7
100
AcDbLine
 10
3.3020298042
 20
7.5331976114
 30
0.0
 11
3.2478959459
 21
7.5331976114
 31
0.0
  0
LINE
  5
1D3
330
1F
100
AcDbEntity
  8
0
  6
CONTINUOUS
 62
     7
100
AcDbLine
 10
3.3512424026
 20
7.2772920995
 30
0.0
 11
3.4053762609
 21
7.2772920995
 31
0.0
  0
LINE
  5
1D4
330
1F
100
AcDbEntity
  8
0
  6
CONTINUOUS
 62
     7
100
AcDbLine
 10
3.4053762609
 20
7.5331976114
 30
0.0
 11
3.3512424026
 21
7.5331976114
 31
0.0
  0
LINE
  5
1D5
330
1F
100
AcDbEntity
  8
0
  6
CONTINUOUS
 62
     7
100
AcDbLine
 10
3.2478959459
 20
5.8107566665
 30
0.0
 11
3.3020298042
 21
5.8107566665
 31
0.0
  0
LINE
  5
1D6
330
1F
100
AcDbEntity
  8
0
  6
CONTINUOUS
 62
     7
100
AcDbLine
 10
3.3020298042
 20
6.0666621783
 30
0.0
 11
3.2478959459
 21
6.0666621783
 31
0.0
  0
LINE
  5
1D7
330
1F
100
AcDbEntity
  8
0
  6
CONTINUOUS
 62
     7
100
AcDbLine
 10
3.3512424026
 20
5.8107566665
 30
0.0
 11
3.4053762609
 21
5.8107566665
 31
0.0
  0
LINE
  5
1D8
330
1F
100
AcDbEntity
  8
0
  6
CONTINUOUS
 62
     7
100
AcDbLine
 10
3.4053762609
 20
6.0666621783
 30
0.0
 11
3.3512424026
 21
6.0666621783
 31
0.0
  0
LINE
  5
1D9
330
1F
100
AcDbEntity
  8
0
  6
CONTINUOUS
 62
     7
100
AcDbLine
 10
3.3512424026
 20
7.5651858003
 30
0.0
 11
3.3020298042
 21
7.5651858003
 31
0.0
  0
LINE
  5
1DA
330
1F
100
AcDbEntity
  8
0
  6
CONTINUOUS
 62
     7
100
AcDbLine
 10
3.3020298042
 20
5.7787684775
 30
0.0
 11
3.3512424026
 21
5.7787684775
 31
0.0
  0
LINE
  5
1DB
330
1F
100
AcDbEntity
  8
0
  6
CONTINUOUS
 62
     7
100
AcDbLine
 10
3.995927442
 20
7.5896739893
 30
0.0
 11
3.995927442
 21
5.7543330717
 31
0.0
  0
LINE
  5
1DC
330
1F
100
AcDbEntity
  8
0
  6
CONTINUOUS
 62
     7
100
AcDbLine
 10
3.988427442
 20
5.7468326438
 30
0.0
 11
3.995927442
 21
5.7543330717
 31
0.0
  0
LINE
  5
1DD
330
1F
100
AcDbEntity
  8
0
  6
CONTINUOUS
 62
     7
100
AcDbLine
 10
3.988427442
 20
5.7468326438
 30
0.0
 11
3.988427442
 21
7.5971739893
 31
0.0
  0
LINE
  5
1DE
330
1F
100
AcDbEntity
  8
0
  6
CONTINUOUS
 62
     7
100
AcDbLine
 10
3.4053762609
 20
7.5971739893
 30
0.0
 11
3.4053762609
 21
5.7467802885
 31
0.0
  0
SPLINE
  5
1DF
330
1F
100
AcDbEntity
  8
0
  6
CONTINUOUS
 62
     7
100
AcDbSpline
210
0.0
220
0.0
230
1.0
 70
     8
 71
     3
 72
    86
 73
    82
 74
     0
 42
0.00000001
 43
0.00000001
 40
-0.0312499999999998
 40
-0.0312499999999998
 40
0.0
 40
0.0
 40
0.0312499999999999
 40
0.0312499999999999
 40
0.046875
 40
0.046875
 40
0.0625000000000001
 40
0.0625000000000001
 40
0.0781250000000002
 40
0.0781250000000002
 40
0.0937500000000002
 40
0.0937500000000002
 40
0.1250000000000007
 40
0.1250000000000007
 40
0.1562500000000011
 40
0.1562500000000011
 40
0.1875000000000016
 40
0.1875000000000016
 40
0.2187500000000021
 40
0.2187500000000021
 40
0.2500000000000025
 40
0.2500000000000025
 40
0.2812500000000029
 40
0.2812500000000029
 40
0.3125000000000032
 40
0.3125000000000032
 40
0.3437500000000035
 40
0.3437500000000035
 40
0.3750000000000038
 40
0.3750000000000038
 40
0.4062500000000041
 40
0.4062500000000041
 40
0.4218750000000039
 40
0.4218750000000039
 40
0.4375000000000038
 40
0.4375000000000038
 40
0.4531250000000036
 40
0.4531250000000036
 40
0.4687500000000034
 40
0.4687500000000034
 40
0.4843750000000033
 40
0.4843750000000033
 40
0.5000000000000031
 40
0.5000000000000031
 40
0.515625000000003
 40
0.515625000000003
 40
0.5312500000000028
 40
0.5312500000000028
 40
0.5468750000000027
 40
0.5468750000000027
 40
0.5625000000000024
 40
0.5625000000000024
 40
0.593750000000002
 40
0.593750000000002
 40
0.6093750000000019
 40
0.6093750000000019
 40
0.6250000000000017
 40
0.6250000000000017
 40
0.6562500000000013
 40
0.6562500000000013
 40
0.6875000000000011
 40
0.6875000000000011
 40
0.7187500000000009
 40
0.7187500000000009
 40
0.7500000000000007
 40
0.7500000000000007
 40
0.8125000000000008
 40
0.8125000000000008
 40
0.8437500000000008
 40
0.8437500000000008
 40
0.8750000000000008
 40
0.8750000000000008
 40
0.8906250000000006
 40
0.8906250000000006
 40
0.9062500000000004
 40
0.9062500000000004
 40
0.9375000000000003
 40
0.9375000000000003
 40
0.9687500000000002
 40
0.9687500000000002
 40
1.0
 40
1.0
 40
1.03125
 40
1.03125
 10
3.840771118360456
 20
6.214424615815282
 30
0.0
 10
3.821123135652743
 20
6.214424615815282
 30
0.0
 10
3.811523512588934
 20
6.213308147208582
 30
0.0
 10
3.79744368220456
 20
6.210054343043329
 30
0.0
 10
3.792772026048281
 20
6.208690993391467
 30
0.0
 10
3.783740369291794
 20
6.205494449985142
 30
0.0
 10
3.779375261605415
 20
6.203665124400446
 30
0.0
 10
3.770931173033123
 20
6.199573600884846
 30
0.0
 10
3.766852269191194
 20
6.197311275870812
 30
0.0
 10
3.758976412207058
 20
6.192366822680456
 30
0.0
 10
3.755187605186182
 20
6.189685395793699
 30
0.0
 10
3.744495594550862
 20
6.181237707392357
 30
0.0
 10
3.738161659247397
 20
6.175013321051708
 30
0.0
 10
3.726954507153786
 20
6.161533623708602
 30
0.0
 10
3.722235645843978
 20
6.154461352644216
 30
0.0
 10
3.71436503221241
 20
6.139851373135884
 30
0.0
 10
3.711197824287388
 20
6.132246559821874
 30
0.0
 10
3.706449287272922
 20
6.117057911557999
 30
0.0
 10
3.704838745799197
 20
6.10944021423583
 30
0.0
 10
3.702996977107935
 20
6.094193793094417
 30
0.0
 10
3.702778019539282
 20
6.086559792848258
 30
0.0
 10
3.703632618026385
 20
6.071695404167698
 30
0.0
 10
3.70469719796326
 20
6.06441099867878
 30
0.0
 10
3.708045914430585
 20
6.050126046821514
 30
0.0
 10
3.710350532968435
 20
6.043092060486328
 30
0.0
 10
3.716075790354421
 20
6.029639461514439
 30
0.0
 10
3.719498370028802
 20
6.023182775153573
 30
0.0
 10
3.727510861776405
 20
6.010793113115164
 30
0.0
 10
3.732097976976472
 20
6.004859524576658
 30
0.0
 10
3.742648196588102
 20
5.993547015938138
 30
0.0
 10
3.748494062120778
 20
5.9882944303321
 30
0.0
 10
3.758257425095029
 20
5.981094125350925
 30
0.0
 10
3.761680343913682
 20
5.97880666340455
 30
0.0
 10
3.768917824064644
 20
5.974480577413837
 30
0.0
 10
3.772735593833651
 20
5.972443925489502
 30
0.0
 10
3.780640016480135
 20
5.968742734146532
 30
0.0
 10
3.78474617951712
 20
5.967065280637208
 30
0.0
 10
3.793312476588424
 20
5.96409501646951
 30
0.0
 10
3.797811729184367
 20
5.962793655610235
 30
0.0
 10
3.807027876822893
 20
5.960685842092825
 30
0.0
 10
3.811722083047551
 20
5.959879943513977
 30
0.0
 10
3.821295454150687
 20
5.958792727616865
 30
0.0
 10
3.826226201767716
 20
5.958512762192131
 30
0.0
 10
3.836005780156157
 20
5.958525668672454
 30
0.0
 10
3.840840587139219
 20
5.958811351554161
 30
0.0
 10
3.850405789415257
 20
5.959915760079401
 30
0.0
 10
3.855175625171058
 20
5.960745126683284
 30
0.0
 10
3.864382220672153
 20
5.962874424326807
 30
0.0
 10
3.868819460555364
 20
5.964167879367096
 30
0.0
 10
3.877404331011546
 20
5.967164251179001
 30
0.0
 10
3.881574971415103
 20
5.968879995669894
 30
0.0
 10
3.893438662294623
 20
5.974475496373524
 30
0.0
 10
3.900555592142108
 20
5.978804165997417
 30
0.0
 10
3.91033261844013
 20
5.986041325506881
 30
0.0
 10
3.913451994341759
 20
5.988592128595812
 30
0.0
 10
3.919329577687941
 20
5.993864963041094
 30
0.0
 10
3.922090098086346
 20
5.996585932890822
 30
0.0
 10
3.92989540940491
 20
6.004988129066287
 30
0.0
 10
3.934468808706046
 20
6.010906818586338
 30
0.0
 10
3.942499619081117
 20
6.023361990918795
 30
0.0
 10
3.945968892566359
 20
6.029942762364012
 30
0.0
 10
3.951667790959607
 20
6.043436215188596
 30
0.0
 10
3.95391827040018
 20
6.050367922878559
 30
0.0
 10
3.957231225452893
 20
6.064614987848905
 30
0.0
 10
3.958295534406687
 20
6.071967084285284
 30
0.0
 10
3.959529397398893
 20
6.094402688513281
 30
0.0
 10
3.957807056866606
 20
6.109491896276685
 30
0.0
 10
3.95071397777395
 20
6.132195740264983
 30
0.0
 10
3.947540023353513
 20
6.139827831494133
 30
0.0
 10
3.939671982143801
 20
6.154440007285347
 30
0.0
 10
3.934970580319891
 20
6.161487403658393
 30
0.0
 10
3.926600565093428
 20
6.171568294916249
 30
0.0
 10
3.92357868495727
 20
6.174852200749188
 30
0.0
 10
3.91721816540976
 20
6.181071004240469
 30
0.0
 10
3.913863729925917
 20
6.184027181866261
 30
0.0
 10
3.903263941139181
 20
6.192412270939386
 30
0.0
 10
3.895449032143532
 20
6.197385523978304
 30
0.0
 10
3.878344822165205
 20
6.205701869291021
 30
0.0
 10
3.869388389314889
 20
6.20889203244624
 30
0.0
 10
3.850653976891831
 20
6.213263300312168
 30
0.0
 10
3.840771118360456
 20
6.214424615815282
 30
0.0
 10
3.821123135652743
 20
6.214424615815282
 30
0.0
  0
LINE
  5
1E0
330
1F
100
AcDbEntity
  8
0
  6
CONTINUOUS
 62
     7
100
AcDbLine
 10
3.988427442
 20
5.7468326438
 30
0.0
 11
3.6767476519
 21
5.7468326438
 31
0.0
  0
LINE
  5
1E1
330
1F
100
AcDbEntity
  8
0
  6
CONTINUOUS
 62
     7
100
AcDbLine
 10
3.6767476519
 20
7.0878235956
 30
0.0
 11
3.6767476519
 21
5.7468326438
 31
0.0
  0
LINE
  5
1E2
330
1F
100
AcDbEntity
  8
0
  6
CONTINUOUS
 62
     7
100
AcDbLine
 10
3.6505009328
 20
7.0878235956
 30
0.0
 11
3.6767476519
 21
7.0878235956
 31
0.0
  0
LINE
  5
1E3
330
1F
100
AcDbEntity
  8
0
  6
CONTINUOUS
 62
     7
100
AcDbLine
 10
3.6505009328
 20
5.7467802885
 30
0.0
 11
3.6505009328
 21
7.0878235956
 31
0.0
  0
LINE
  5
1E4
330
1F
100
AcDbEntity
  8
0
  6
CONTINUOUS
 62
     7
100
AcDbLine
 10
3.8900022451
 20
6.0523763716
 30
0.0
 11
3.8900022451
 21
6.1205673482
 31
0.0
  0
LINE
  5
1E5
330
1F
100
AcDbEntity
  8
0
  6
CONTINUOUS
 62
     7
100
AcDbLine
 10
3.8900022451
 20
6.1205673482
 30
0.0
 11
3.830947127
 21
6.1546628366
 31
0.0
  0
LINE
  5
1E6
330
1F
100
AcDbEntity
  8
0
  6
CONTINUOUS
 62
     7
100
AcDbLine
 10
3.830947127
 20
6.1546628366
 30
0.0
 11
3.7718920089
 21
6.1205673482
 31
0.0
  0
LINE
  5
1E7
330
1F
100
AcDbEntity
  8
0
  6
CONTINUOUS
 62
     7
100
AcDbLine
 10
3.7718920089
 20
6.1205673482
 30
0.0
 11
3.7718920089
 21
6.0523763716
 31
0.0
  0
LINE
  5
1E8
330
1F
100
AcDbEntity
  8
0
  6
CONTINUOUS
 62
     7
100
AcDbLine
 10
3.7718920089
 20
6.0523763716
 30
0.0
 11
3.830947127
 21
6.0182808832
 31
0.0
  0
LINE
  5
1E9
330
1F
100
AcDbEntity
  8
0
  6
CONTINUOUS
 62
     7
100
AcDbLine
 10
3.830947127
 20
6.0182808832
 30
0.0
 11
3.8900022451
 21
6.0523763716
 31
0.0
  0
CIRCLE
  5
1EA
330
1F
100
AcDbEntity
  8
0
  6
CONTINUOUS
 62
     7
100
AcDbCircle
 10
3.830947127
 20
6.0864718599
 30
0.0
 40
0.1181102362204731
  0
CIRCLE
  5
1EB
330
1F
100
AcDbEntity
  8
0
  6
CONTINUOUS
 62
     7
100
AcDbCircle
 10
3.830947127
 20
6.0864718599
 30
0.0
 40
0.1279527559055111
  0
LINE
  5
1EC
330
1F
100
AcDbEntity
  8
0
  6
CONTINUOUS
 62
     7
100
AcDbLine
 10
2.8223250798
 20
7.2969771389
 30
0.0
 11
2.7386404206
 21
7.2969771389
 31
0.0
  0
LINE
  5
1ED
330
1F
100
AcDbEntity
  8
0
  6
CONTINUOUS
 62
     7
100
AcDbLine
 10
2.9059205504
 20
7.2969771389
 30
0.0
 11
2.8223250798
 21
7.2969771389
 31
0.0
  0
LINE
  5
1EE
330
1F
100
AcDbEntity
  8
0
  6
CONTINUOUS
 62
     7
100
AcDbLine
 10
3.2478959459
 20
7.5971739893
 30
0.0
 11
3.2478959459
 21
5.7467802885
 31
0.0
  0
SPLINE
  5
1EF
330
1F
100
AcDbEntity
  8
0
  6
CONTINUOUS
 62
     7
100
AcDbSpline
210
0.0
220
0.0
230
1.0
 70
     8
 71
     3
 72
    86
 73
    82
 74
     0
 42
0.00000001
 43
0.00000001
 40
-0.0312499999999992
 40
-0.0312499999999992
 40
0.0
 40
0.0
 40
0.0312500000000007
 40
0.0312500000000007
 40
0.0468750000000011
 40
0.0468750000000011
 40
0.0625000000000015
 40
0.0625000000000015
 40
0.0781250000000019
 40
0.0781250000000019
 40
0.0937500000000024
 40
0.0937500000000024
 40
0.1250000000000029
 40
0.1250000000000029
 40
0.1562500000000035
 40
0.1562500000000035
 40
0.1875000000000041
 40
0.1875000000000041
 40
0.2187500000000046
 40
0.2187500000000046
 40
0.2500000000000052
 40
0.2500000000000052
 40
0.2812500000000057
 40
0.2812500000000057
 40
0.3125000000000061
 40
0.3125000000000061
 40
0.3437500000000065
 40
0.3437500000000065
 40
0.3750000000000069
 40
0.3750000000000069
 40
0.4062500000000073
 40
0.4062500000000073
 40
0.4218750000000072
 40
0.4218750000000072
 40
0.4375000000000071
 40
0.4375000000000071
 40
0.453125000000007
 40
0.453125000000007
 40
0.4687500000000069
 40
0.4687500000000069
 40
0.4843750000000068
 40
0.4843750000000068
 40
0.5000000000000067
 40
0.5000000000000067
 40
0.5156250000000066
 40
0.5156250000000066
 40
0.5312500000000064
 40
0.5312500000000064
 40
0.5468750000000063
 40
0.5468750000000063
 40
0.5625000000000062
 40
0.5625000000000062
 40
0.5937500000000059
 40
0.5937500000000059
 40
0.6093750000000057
 40
0.6093750000000057
 40
0.6250000000000054
 40
0.6250000000000054
 40
0.656250000000005
 40
0.656250000000005
 40
0.6875000000000046
 40
0.6875000000000046
 40
0.7187500000000041
 40
0.7187500000000041
 40
0.7500000000000037
 40
0.7500000000000037
 40
0.8125000000000031
 40
0.8125000000000031
 40
0.8437500000000029
 40
0.8437500000000029
 40
0.8750000000000026
 40
0.8750000000000026
 40
0.8906250000000023
 40
0.8906250000000023
 40
0.9062500000000021
 40
0.9062500000000021
 40
0.9375000000000014
 40
0.9375000000000014
 40
0.9687500000000008
 40
0.9687500000000008
 40
1.0
 40
1.0
 40
1.031250000000001
 40
1.031250000000001
 10
2.812501088408649
 20
7.476113259596379
 30
0.0
 10
2.832149071116361
 20
7.47611325959638
 30
0.0
 10
2.84174869418017
 20
7.475480857700732
 30
0.0
 10
2.855828524564545
 20
7.473611785841213
 30
0.0
 10
2.860500180720824
 20
7.472825799146297
 30
0.0
 10
2.869531837477311
 20
7.470968083893148
 30
0.0
 10
2.87389694516369
 20
7.469898634344857
 30
0.0
 10
2.882341033735981
 20
7.467483111905947
 30
0.0
 10
2.886419937577911
 20
7.466136982306726
 30
0.0
 10
2.894295794562047
 20
7.463160735153467
 30
0.0
 10
2.898084601582923
 20
7.461530697725594
 30
0.0
 10
2.908776612218243
 20
7.456328951091594
 30
0.0
 10
2.915110547521707
 20
7.452413387159459
 30
0.0
 10
2.926317699615319
 20
7.443664375833441
 30
0.0
 10
2.931036560925126
 20
7.438948652896583
 30
0.0
 10
2.938907174556695
 20
7.428885364324519
 30
0.0
 10
2.942074382481718
 20
7.423488175281046
 30
0.0
 10
2.946822919496183
 20
7.412343660914477
 30
0.0
 10
2.948433460969908
 20
7.406575748642362
 30
0.0
 10
2.95027522966117
 20
7.394645329949562
 30
0.0
 10
2.950494187229824
 20
7.388475192906714
 30
0.0
 10
2.94963958874272
 20
7.376068588499806
 30
0.0
 10
2.948575008805844
 20
7.369790817479918
 30
0.0
 10
2.94522629233852
 20
7.35709155564837
 30
0.0
 10
2.94292167380067
 20
7.350636444495708
 30
0.0
 10
2.937196416414685
 20
7.337917979465498
 30
0.0
 10
2.933773836740302
 20
7.331622513390969
 30
0.0
 10
2.9257613449927
 20
7.319203398072637
 30
0.0
 10
2.921174229792633
 20
7.313078686374874
 30
0.0
 10
2.910624010181003
 20
7.301095310448345
 30
0.0
 10
2.904778144648327
 20
7.295370113870328
 30
0.0
 10
2.895014781674075
 20
7.287349207148516
 30
0.0
 10
2.891591862855424
 20
7.284769644927255
 30
0.0
 10
2.884354382704462
 20
7.279841030126009
 30
0.0
 10
2.880536612935454
 20
7.277493899860763
 30
0.0
 10
2.87263219028897
 20
7.273191440492704
 30
0.0
 10
2.868526027251986
 20
7.27122147357395
 30
0.0
 10
2.859959730180682
 20
7.267709798153644
 30
0.0
 10
2.855460477584738
 20
7.266157838249076
 30
0.0
 10
2.846244329946212
 20
7.263632957375724
 30
0.0
 10
2.841550123721554
 20
7.262661083914673
 30
0.0
 10
2.831976752618417
 20
7.261347933966558
 30
0.0
 10
2.827046005001389
 20
7.261008373424902
 30
0.0
 10
2.817266426612949
 20
7.261024006056792
 30
0.0
 10
2.812431619629885
 20
7.261370489229225
 30
0.0
 10
2.802866417353848
 20
7.26270427933381
 30
0.0
 10
2.798096581598047
 20
7.263704268478855
 30
0.0
 10
2.788889986096952
 20
7.2662542722869
 30
0.0
 10
2.784452746213741
 20
7.267796443913518
 30
0.0
 10
2.77586787575756
 20
7.271337952942684
 30
0.0
 10
2.771697235354003
 20
7.273352058708562
 30
0.0
 10
2.759833544474482
 20
7.279853253515775
 30
0.0
 10
2.752716614626996
 20
7.284800589411016
 30
0.0
 10
2.742939588328975
 20
7.292859017240616
 30
0.0
 10
2.739820212427345
 20
7.295667202527008
 30
0.0
 10
2.733942629081164
 20
7.301396112817836
 30
0.0
 10
2.73118210868276
 20
7.304316104007137
 30
0.0
 10
2.723376797364195
 20
7.313211430418906
 30
0.0
 10
2.71880339806306
 20
7.31932013834628
 30
0.0
 10
2.710772587687988
 20
7.331799324903056
 30
0.0
 10
2.707303314202747
 20
7.338210729375905
 30
0.0
 10
2.701604415809497
 20
7.350955522173907
 30
0.0
 10
2.699353936368925
 20
7.357310628120257
 30
0.0
 10
2.696040981316212
 20
7.369967988668872
 30
0.0
 10
2.694976672362418
 20
7.376300904148911
 30
0.0
 10
2.693742809370212
 20
7.395009811777861
 30
0.0
 10
2.695465149902499
 20
7.406791411407802
 30
0.0
 10
2.702558228995155
 20
7.423451267855568
 30
0.0
 10
2.705732183415592
 20
7.428868831141408
 30
0.0
 10
2.713600224625305
 20
7.438934267139573
 30
0.0
 10
2.718301626449214
 20
7.443633566810631
 30
0.0
 10
2.726671641675677
 20
7.450177788465623
 30
0.0
 10
2.729693521811835
 20
7.452278063000128
 30
0.0
 10
2.736054041359345
 20
7.456205360297912
 30
0.0
 10
2.739408476843188
 20
7.458046363890735
 30
0.0
 10
2.750008265629925
 20
7.463210258556118
 30
0.0
 10
2.757823174625572
 20
7.466190794308884
 30
0.0
 10
2.774927384603899
 20
7.471101600009428
 30
0.0
 10
2.783883817454216
 20
7.472943898490946
 30
0.0
 10
2.802618229877274
 20
7.475455315378462
 30
0.0
 10
2.812501088408649
 20
7.476113259596379
 30
0.0
 10
2.832149071116361
 20
7.47611325959638
 30
0.0
  0
SPLINE
  5
1F0
330
1F
100
AcDbEntity
  8
0
  6
CONTINUOUS
 62
     7
100
AcDbSpline
210
0.0
220
0.0
230
1.0
 70
     8
 71
     3
 72
    72
 73
    68
 74
     0
 42
0.00000001
 43
0.00000001
 40
-0.0312499999999993
 40
-0.0312499999999993
 40
0.0
 40
0.0
 40
0.0312500000000011
 40
0.0312500000000011
 40
0.0468750000000014
 40
0.0468750000000014
 40
0.0625000000000017
 40
0.0625000000000017
 40
0.093750000000002
 40
0.093750000000002
 40
0.1250000000000024
 40
0.1250000000000024
 40
0.1875000000000034
 40
0.1875000000000034
 40
0.2187500000000036
 40
0.2187500000000036
 40
0.2500000000000037
 40
0.2500000000000037
 40
0.2812500000000038
 40
0.2812500000000038
 40
0.3125000000000039
 40
0.3125000000000039
 40
0.343750000000004
 40
0.343750000000004
 40
0.3750000000000041
 40
0.3750000000000041
 40
0.4062500000000043
 40
0.4062500000000043
 40
0.4375000000000044
 40
0.4375000000000044
 40
0.4687500000000045
 40
0.4687500000000045
 40
0.5000000000000046
 40
0.5000000000000046
 40
0.5312500000000048
 40
0.5312500000000048
 40
0.5468750000000048
 40
0.5468750000000048
 40
0.5625000000000048
 40
0.5625000000000048
 40
0.5937500000000047
 40
0.5937500000000047
 40
0.6250000000000046
 40
0.6250000000000046
 40
0.6562500000000044
 40
0.6562500000000044
 40
0.6875000000000043
 40
0.6875000000000043
 40
0.7187500000000042
 40
0.7187500000000042
 40
0.7500000000000041
 40
0.7500000000000041
 40
0.7812500000000038
 40
0.7812500000000038
 40
0.8125000000000033
 40
0.8125000000000033
 40
0.8750000000000022
 40
0.8750000000000022
 40
0.9062500000000018
 40
0.9062500000000018
 40
0.9375000000000013
 40
0.9375000000000013
 40
0.953125000000001
 40
0.953125000000001
 40
0.9687500000000007
 40
0.9687500000000007
 40
1.0
 40
1.0
 40
1.031250000000001
 40
1.031250000000001
 10
2.828348518362846
 20
6.027952906387358
 30
0.0
 10
2.816301641162164
 20
6.027952906387359
 30
0.0
 10
2.81046538670608
 20
6.027248244982815
 30
0.0
 10
2.801961298840552
 20
6.025257604631135
 30
0.0
 10
2.799166842027278
 20
6.024433042096687
 30
0.0
 10
2.793831207921961
 20
6.02254794836154
 30
0.0
 10
2.791265417722018
 20
6.02148252327782
 30
0.0
 10
2.783842498347886
 20
6.017961305812106
 30
0.0
 10
2.77926591361562
 20
6.015173384540554
 30
0.0
 10
2.771094262399683
 20
6.00916871057805
 30
0.0
 10
2.76743561598773
 20
6.005921427089145
 30
0.0
 10
2.757559344076219
 20
5.995591484689816
 30
0.0
 10
2.752707459132507
 20
5.988259082707372
 30
0.0
 10
2.747575729957213
 20
5.976924877496362
 30
0.0
 10
2.746236801667001
 20
5.973077686071433
 30
0.0
 10
2.74435577449738
 20
5.96547718647184
 30
0.0
 10
2.743799679236192
 20
5.961696597173038
 30
0.0
 10
2.743471737150605
 20
5.954176926137837
 30
0.0
 10
2.743706850541936
 20
5.950407351150028
 30
0.0
 10
2.745014077999287
 20
5.943084096816148
 30
0.0
 10
2.74607688054703
 20
5.939533151549466
 30
0.0
 10
2.749065837786126
 20
5.932649987964409
 30
0.0
 10
2.750990672566427
 20
5.929317617128017
 30
0.0
 10
2.755838246894802
 20
5.922882288857528
 30
0.0
 10
2.758750965634464
 20
5.919810577825581
 30
0.0
 10
2.765460251791648
 20
5.914169379239858
 30
0.0
 10
2.769310484559524
 20
5.911550189457931
 30
0.0
 10
2.777960112719714
 20
5.906878173167982
 30
0.0
 10
2.782654263445635
 20
5.904873953615804
 30
0.0
 10
2.792835389223692
 20
5.901541465862108
 30
0.0
 10
2.798420552690343
 20
5.900203773085928
 30
0.0
 10
2.80982980692988
 20
5.898418556615902
 30
0.0
 10
2.815688116313835
 20
5.897943299947702
 30
0.0
 10
2.827736330928809
 20
5.89788190541428
 30
0.0
 10
2.833628236698094
 20
5.898297454365878
 30
0.0
 10
2.842275831631182
 20
5.899561195780984
 30
0.0
 10
2.845142892020929
 20
5.900095289110335
 30
0.0
 10
2.850667874635481
 20
5.901352808308246
 30
0.0
 10
2.85334007134692
 20
5.902076980601446
 30
0.0
 10
2.861100437727393
 20
5.904525699815355
 30
0.0
 10
2.865970200913238
 20
5.906550581226533
 30
0.0
 10
2.874680182978032
 20
5.911141769106688
 30
0.0
 10
2.878591886515629
 20
5.913734166378498
 30
0.0
 10
2.885475007345477
 20
5.919395714059516
 30
0.0
 10
2.888398965993783
 20
5.922418060642282
 30
0.0
 10
2.893343510226578
 20
5.928825796445958
 30
0.0
 10
2.89536159501292
 20
5.932226461025491
 30
0.0
 10
2.898455706426053
 20
5.939182424013477
 30
0.0
 10
2.899553235920191
 20
5.942761156294153
 30
0.0
 10
2.900915176941203
 20
5.950119816355187
 30
0.0
 10
2.901170902707531
 20
5.953890596068998
 30
0.0
 10
2.900880577347106
 20
5.961432969260748
 30
0.0
 10
2.900339912967574
 20
5.965229347364957
 30
0.0
 10
2.898479527622957
 20
5.972870504319585
 30
0.0
 10
2.897146996927013
 20
5.976734363561169
 30
0.0
 10
2.892054531487615
 20
5.988070337928924
 30
0.0
 10
2.88723788837156
 20
5.995403347734847
 30
0.0
 10
2.877353785659597
 20
6.005792395630565
 30
0.0
 10
2.873689213153485
 20
6.009059126574043
 30
0.0
 10
2.86549748036442
 20
6.015101454524888
 30
0.0
 10
2.860907034494599
 20
6.01790613502704
 30
0.0
 10
2.853480135154169
 20
6.021441170433516
 30
0.0
 10
2.850912630581946
 20
6.022511133980666
 30
0.0
 10
2.845572655186264
 20
6.024405070964614
 30
0.0
 10
2.84277544367219
 20
6.025234422379058
 30
0.0
 10
2.834229863070237
 20
6.0272434097279
 30
0.0
 10
2.828348518362846
 20
6.027952906387358
 30
0.0
 10
2.816301641162164
 20
6.027952906387359
 30
0.0
  0
LINE
  5
1F1
330
1F
100
AcDbEntity
  8
0
  6
CONTINUOUS
 62
     7
100
AcDbLine
 10
3.002771274
 20
7.4984521455
 30
0.0
 11
2.9765245548
 21
7.4984521455
 31
0.0
  0
LINE
  5
1F2
330
1F
100
AcDbEntity
  8
0
  6
CONTINUOUS
 62
     7
100
AcDbLine
 10
2.9765245548
 20
7.5971739893
 30
0.0
 11
2.9765245548
 21
6.6818196586
 31
0.0
  0
LINE
  5
1F3
330
1F
100
AcDbEntity
  8
0
  6
CONTINUOUS
 62
     7
100
AcDbLine
 10
2.6648447648
 20
6.6818196586
 30
0.0
 11
2.9765245548
 21
6.6818196586
 31
0.0
  0
LINE
  5
1F4
330
1F
100
AcDbEntity
  8
0
  6
CONTINUOUS
 62
     7
100
AcDbLine
 10
2.6648447648
 20
6.6818196586
 30
0.0
 11
2.6648447648
 21
7.5971739893
 31
0.0
  0
LINE
  5
1F5
330
1F
100
AcDbEntity
  8
0
  6
CONTINUOUS
 62
     7
100
AcDbLine
 10
2.6648447648
 20
5.7467802885
 30
0.0
 11
2.6648447648
 21
6.6621346192
 31
0.0
  0
LINE
  5
1F6
330
1F
100
AcDbEntity
  8
0
  6
CONTINUOUS
 62
     7
100
AcDbLine
 10
2.6648447648
 20
6.6621346192
 30
0.0
 11
2.9765245548
 21
6.6621346192
 31
0.0
  0
LINE
  5
1F7
330
1F
100
AcDbEntity
  8
0
  6
CONTINUOUS
 62
     7
100
AcDbLine
 10
2.9765245548
 20
6.6621346192
 30
0.0
 11
2.9765245548
 21
5.7467802885
 31
0.0
  0
LINE
  5
1F8
330
1F
100
AcDbEntity
  8
0
  6
CONTINUOUS
 62
     7
100
AcDbLine
 10
2.9765245548
 20
5.8455021324
 30
0.0
 11
3.002771274
 21
5.8455021324
 31
0.0
  0
LINE
  5
1F9
330
1F
100
AcDbEntity
  8
0
  6
CONTINUOUS
 62
     7
100
AcDbLine
 10
3.002771274
 20
5.7467802885
 30
0.0
 11
3.002771274
 21
7.5971739893
 31
0.0
  0
LINE
  5
1FA
330
1F
100
AcDbEntity
  8
0
  6
CONTINUOUS
 62
     7
100
AcDbLine
 10
2.6648447648
 20
6.6818196586
 30
0.0
 11
2.6573447648
 21
6.6818196586
 31
0.0
  0
LINE
  5
1FB
330
1F
100
AcDbEntity
  8
0
  6
CONTINUOUS
 62
     7
100
AcDbLine
 10
2.6573447648
 20
6.6621346192
 30
0.0
 11
2.6573447648
 21
5.7542802885
 31
0.0
  0
LINE
  5
1FC
330
1F
100
AcDbEntity
  8
0
  6
CONTINUOUS
 62
     7
100
AcDbLine
 10
2.6573447648
 20
7.5896739893
 30
0.0
 11
2.6573447648
 21
6.6818196586
 31
0.0
  0
LINE
  5
1FD
330
1F
100
AcDbEntity
  8
0
  6
CONTINUOUS
 62
     7
100
AcDbLine
 10
2.6648447648
 20
6.6621346192
 30
0.0
 11
2.6573447648
 21
6.6621346192
 31
0.0
  0
LINE
  5
1FE
330
1F
100
AcDbEntity
  8
0
  6
CONTINUOUS
 62
     7
100
AcDbLine
 10
3.3512424026
 20
6.7850724656
 30
0.0
 11
3.3020298042
 21
6.7850724656
 31
0.0
  0
LINE
  5
1FF
330
1F
100
AcDbEntity
  8
0
  6
CONTINUOUS
 62
     7
100
AcDbLine
 10
3.3512424026
 20
6.5588818122
 30
0.0
 11
3.3020298042
 21
6.5588818122
 31
0.0
  0
LINE
  5
200
330
1F
100
AcDbEntity
  8
0
  6
CONTINUOUS
 62
     7
100
AcDbLine
 10
3.3512424026
 20
6.7850724656
 30
0.0
 11
3.3512424026
 21
6.5588818122
 31
0.0
  0
LINE
  5
201
330
1F
100
AcDbEntity
  8
0
  6
CONTINUOUS
 62
     7
100
AcDbLine
 10
3.3020298042
 20
6.7850724656
 30
0.0
 11
3.3020298042
 21
6.5588818122
 31
0.0
  0
LINE
  5
202
330
1F
100
AcDbEntity
  8
0
  6
CONTINUOUS
 62
     7
100
AcDbLine
 10
3.3512424026
 20
7.5183401822
 30
0.0
 11
3.3020298042
 21
7.5183401822
 31
0.0
  0
LINE
  5
203
330
1F
100
AcDbEntity
  8
0
  6
CONTINUOUS
 62
     7
100
AcDbLine
 10
3.3512424026
 20
7.5183401822
 30
0.0
 11
3.3512424026
 21
6.7850724656
 31
0.0
  0
LINE
  5
204
330
1F
100
AcDbEntity
  8
0
  6
CONTINUOUS
 62
     7
100
AcDbLine
 10
3.3020298042
 20
7.5183401822
 30
0.0
 11
3.3020298042
 21
6.7850724656
 31
0.0
  0
LINE
  5
205
330
1F
100
AcDbEntity
  8
0
  6
CONTINUOUS
 62
     7
100
AcDbLine
 10
3.3512424026
 20
5.8256140957
 30
0.0
 11
3.3020298042
 21
5.8256140957
 31
0.0
  0
LINE
  5
206
330
1F
100
AcDbEntity
  8
0
  6
CONTINUOUS
 62
     7
100
AcDbLine
 10
3.3512424026
 20
6.5588818122
 30
0.0
 11
3.3512424026
 21
5.8256140957
 31
0.0
  0
LINE
  5
207
330
1F
100
AcDbEntity
  8
0
  6
CONTINUOUS
 62
     7
100
AcDbLine
 10
3.3020298042
 20
6.5588818122
 30
0.0
 11
3.3020298042
 21
5.8256140957
 31
0.0
  0
LINE
  5
208
330
1F
100
AcDbEntity
  8
0
  6
CONTINUOUS
 62
     7
100
AcDbLine
 10
2.9765245548
 20
6.6818196586
 30
0.0
 11
2.9765245548
 21
6.6621346192
 31
0.0
  0
LINE
  5
209
330
1F
100
AcDbEntity
  8
0
  6
CONTINUOUS
 62
     7
100
AcDbLine
 10
3.3512424026
 20
7.5651858003
 30
0.0
 11
3.3512424026
 21
7.5183401822
 31
0.0
  0
LINE
  5
20A
330
1F
100
AcDbEntity
  8
0
  6
CONTINUOUS
 62
     7
100
AcDbLine
 10
3.3020298042
 20
7.5651858003
 30
0.0
 11
3.3020298042
 21
7.5183401822
 31
0.0
  0
LINE
  5
20B
330
1F
100
AcDbEntity
  8
0
  6
CONTINUOUS
 62
     7
100
AcDbLine
 10
3.3512424026
 20
5.8256140957
 30
0.0
 11
3.3512424026
 21
5.7787684775
 31
0.0
  0
LINE
  5
20C
330
1F
100
AcDbEntity
  8
0
  6
CONTINUOUS
 62
     7
100
AcDbLine
 10
3.3020298042
 20
5.8256140957
 30
0.0
 11
3.3020298042
 21
5.7787684775
 31
0.0
  0
LINE
  5
20D
330
1F
100
AcDbEntity
  8
0
  6
CONTINUOUS
 62
     7
100
AcDbLine
 10
2.6573447648
 20
6.6818196586
 30
0.0
 11
2.6573447648
 21
6.6621346192
 31
0.0
  0
LINE
  5
20E
330
1F
100
AcDbEntity
  8
0
  6
CONTINUOUS
 62
     8
100
AcDbLine
 10
2.8223250798
 20
7.2871346192
 30
0.0
 11
2.8945663214
 21
7.2871346192
 31
0.0
  0
LINE
  5
20F
330
1F
100
AcDbEntity
  8
0
  6
CONTINUOUS
 62
     8
100
AcDbLine
 10
2.7499458005
 20
7.2871346192
 30
0.0
 11
2.8223250798
 21
7.2871346192
 31
0.0
  0
CIRCLE
  5
210
330
1F
100
AcDbEntity
  8
0
  6
HIDDEN
 62
     7
100
AcDbCircle
 10
3.830947127
 20
6.0864718599
 30
0.0
 40
0.0787401574803157
  0
LINE
  5
211
330
1F
100
AcDbEntity
  8
0
  6
HIDDEN
 62
     7
100
AcDbLine
 10
3.6767476519
 20
6.426111076
 30
0.0
 11
3.988427442
 21
6.426111076
 31
0.0
  0
LINE
  5
212
330
1F
100
AcDbEntity
  8
0
  6
HIDDEN
 62
     7
100
AcDbLine
 10
3.988427442
 20
6.9178432018
 30
0.0
 11
3.7922792323
 21
6.9178432018
 31
0.0
  0
POLYLINE
  5
213
330
1F
100
AcDbEntity
  8
0
  6
HIDDEN
 62
     7
100
AcDb2dPolyline
 66
     1
 10
0.0
 20
0.0
 30
0.0
  0
VERTEX
  5
2C3
330
213
100
AcDbEntity
  8
0
  6
HIDDEN
 62
     7
100
AcDbVertex
100
AcDb2dVertex
 10
3.7922792323
 20
6.9178432018
 30
0.0
  0
VERTEX
  5
2C4
330
213
100
AcDbEntity
  8
0
  6
HIDDEN
 62
     7
100
AcDbVertex
100
AcDb2dVertex
 10
3.7922792323
 20
6.9178432018
 30
0.0
  0
SEQEND
  5
2C5
330
213
100
AcDbEntity
  8
0
  6
HIDDEN
 62
     7
  0
ARC
  5
214
330
1F
100
AcDbEntity
  8
0
  6
HIDDEN
 62
     7
100
AcDbCircle
 10
3.995927442
 20
6.6720726889
 30
0.0
 40
0.3191797900262472
100
AcDbArc
 50
90.0
 51
129.6455274485
  0
LINE
  5
215
330
1F
100
AcDbEntity
  8
0
  6
HIDDEN
 62
     7
100
AcDbLine
 10
3.988427442
 20
6.9178432018
 30
0.0
 11
3.995927442
 21
6.9253490312
 31
0.0
  0
LINE
  5
216
330
1F
100
AcDbEntity
  8
0
  6
HIDDEN
 62
     7
100
AcDbLine
 10
3.995927442
 20
6.4186052467
 30
0.0
 11
3.988427442
 21
6.426111076
 31
0.0
  0
CIRCLE
  5
217
330
1F
100
AcDbEntity
  8
0
  6
HIDDEN
 62
     7
100
AcDbCircle
 10
3.830947127
 20
6.0864718599
 30
0.0
 40
0.068897637795275
  0
LINE
  5
218
330
1F
100
AcDbEntity
  8
0
  6
HIDDEN
 62
     7
100
AcDbLine
 10
2.8223250798
 20
7.139496824
 30
0.0
 11
2.6943723239
 21
7.139496824
 31
0.0
  0
LINE
  5
219
330
1F
100
AcDbEntity
  8
0
  6
HIDDEN
 62
     7
100
AcDbLine
 10
2.9502778357
 20
7.139496824
 30
0.0
 11
2.8223250798
 21
7.139496824
 31
0.0
  0
LINE
  5
21A
330
1F
100
AcDbEntity
  8
0
  6
HIDDEN
 62
     7
100
AcDbLine
 10
2.7386404206
 20
7.2969771389
 30
0.0
 11
2.7042148435
 21
7.2969771389
 31
0.0
  0
LINE
  5
21B
330
1F
100
AcDbEntity
  8
0
  6
HIDDEN
 62
     7
100
AcDbLine
 10
2.940435316
 20
7.2969771389
 30
0.0
 11
2.9059205504
 21
7.2969771389
 31
0.0
  0
LINE
  5
21C
330
1F
100
AcDbEntity
  8
0
  6
HIDDEN
 62
     7
100
AcDbLine
 10
2.7436487807
 20
6.0961897373
 30
0.0
 11
2.9010013788
 21
6.0961897373
 31
0.0
  0
LINE
  5
21D
330
1F
100
AcDbEntity
  8
0
  6
HIDDEN
 62
     7
100
AcDbLine
 10
2.753427442
 20
6.0863472177
 30
0.0
 11
2.8912227176
 21
6.0863472177
 31
0.0
  0
LINE
  5
21E
330
1F
100
AcDbEntity
  8
0
  6
HIDDEN
 62
     7
100
AcDbLine
 10
2.8223250798
 20
7.2182369814
 30
0.0
 11
2.8223250798
 21
7.2969771389
 31
0.0
  0
LINE
  5
21F
330
1F
100
AcDbEntity
  8
0
  6
HIDDEN
 62
     7
100
AcDbLine
 10
2.8223250798
 20
7.2182369814
 30
0.0
 11
2.7632699617
 21
7.2182369814
 31
0.0
  0
LINE
  5
220
330
1F
100
AcDbEntity
  8
0
  6
HIDDEN
 62
     7
100
AcDbLine
 10
2.8813801979
 20
7.2182369814
 30
0.0
 11
2.8223250798
 21
7.2182369814
 31
0.0
  0
LINE
  5
221
330
1F
100
AcDbEntity
  8
0
  6
HIDDEN
 62
     7
100
AcDbLine
 10
2.8813801979
 20
7.2182369814
 30
0.0
 11
2.8813801979
 21
7.2969771389
 31
0.0
  0
LINE
  5
222
330
1F
100
AcDbEntity
  8
0
  6
HIDDEN
 62
     7
100
AcDbLine
 10
2.7632699617
 20
7.2182369814
 30
0.0
 11
2.7632699617
 21
7.2969771389
 31
0.0
  0
LINE
  5
223
330
1F
100
AcDbEntity
  8
0
  6
HIDDEN
 62
     7
100
AcDbLine
 10
2.6648447648
 20
6.6818196586
 30
0.0
 11
2.6648447648
 21
6.6621346192
 31
0.0
  0
SPLINE
  5
224
330
1F
100
AcDbEntity
  8
0
  6
HIDDEN
 62
     7
100
AcDbSpline
210
0.0
220
0.0
230
1.0
 70
     8
 71
     3
 72
     8
 73
     4
 74
     0
 42
0.00000001
 43
0.00000001
 40
0.0
 40
0.0
 40
0.0
 40
0.0
 40
1.0
 40
1.0
 40
1.0
 40
1.0
 10
2.860992974480734
 20
6.681819658601465
 30
0.0
 10
2.860675965243133
 20
6.675257978811439
 30
0.0
 10
2.860675965243133
 20
6.668696299021413
 30
0.0
 10
2.860992974480734
 20
6.662134619231386
 30
0.0
  0
LINE
  5
225
330
1F
100
AcDbEntity
  8
0
  6
HIDDEN
 62
     7
100
AcDbLine
 10
3.3512424026
 20
7.5183401822
 30
0.0
 11
3.3020298042
 21
7.5183401822
 31
0.0
  0
LINE
  5
226
330
1F
100
AcDbEntity
  8
0
  6
HIDDEN
 62
     7
100
AcDbLine
 10
3.3512424026
 20
5.8256140957
 30
0.0
 11
3.3020298042
 21
5.8256140957
 31
0.0
  0
LINE
  5
227
330
1F
100
AcDbEntity
  8
0
  6
HIDDEN
 62
     7
100
AcDbLine
 10
3.3512424026
 20
6.5588818122
 30
0.0
 11
3.3020298042
 21
6.5588818122
 31
0.0
  0
LINE
  5
228
330
1F
100
AcDbEntity
  8
0
  6
HIDDEN
 62
     7
100
AcDbLine
 10
3.3512424026
 20
6.7850724656
 30
0.0
 11
3.3020298042
 21
6.7850724656
 31
0.0
  0
LINE
  5
229
330
1F
100
AcDbEntity
  8
0
  6
HIDDEN
 62
     7
100
AcDbLine
 10
3.7922792323
 20
6.918040131
 30
0.0
 11
3.6767476519
 21
6.918040131
 31
0.0
  0
LINE
  5
22A
330
1F
100
AcDbEntity
  8
0
  6
HIDDEN
 62
     7
100
AcDbLine
 10
3.6505009328
 20
6.918040131
 30
0.0
 11
3.4053762609
 21
6.918040131
 31
0.0
  0
LINE
  5
22B
330
1F
100
AcDbEntity
  8
0
  6
HIDDEN
 62
     7
100
AcDbLine
 10
3.4053762609
 20
6.4259141468
 30
0.0
 11
3.6505009328
 21
6.4259141468
 31
0.0
  0
LINE
  5
22C
330
1F
100
AcDbEntity
  8
0
  6
HIDDEN
 62
     7
100
AcDbLine
 10
2.9502778357
 20
7.139496824
 30
0.0
 11
2.9502778357
 21
7.2871346192
 31
0.0
  0
LINE
  5
22D
330
1F
100
AcDbEntity
  8
0
  6
HIDDEN
 62
     7
100
AcDbLine
 10
2.6943723239
 20
7.2871346192
 30
0.0
 11
2.6943723239
 21
7.139496824
 31
0.0
  0
ARC
  5
22E
330
1F
100
AcDbEntity
  8
0
  6
HIDDEN
 62
     7
100
AcDbCircle
 10
2.7042148435
 20
7.2871346192
 30
0.0
 40
0.0098425196850398
100
AcDbArc
 50
90.0
 51
180.0
  0
ARC
  5
22F
330
1F
100
AcDbEntity
  8
0
  6
HIDDEN
 62
     7
100
AcDbCircle
 10
2.940435316
 20
7.2871346192
 30
0.0
 40
0.0098425196850398
100
AcDbArc
 50
0.0
 51
90.0
  0
LINE
  5
230
330
1F
100
AcDbEntity
  8
0
  6
HIDDEN
 62
     7
100
AcDbLine
 10
2.7435849223
 20
7.139496824
 30
0.0
 11
2.7435849223
 21
6.6818196586
 31
0.0
  0
LINE
  5
231
330
1F
100
AcDbEntity
  8
0
  6
HIDDEN
 62
     7
100
AcDbLine
 10
2.7435849223
 20
6.6621346192
 30
0.0
 11
2.7435849223
 21
6.0961897373
 31
0.0
  0
LINE
  5
232
330
1F
100
AcDbEntity
  8
0
  6
HIDDEN
 62
     7
100
AcDbLine
 10
2.9010652372
 20
6.0961897373
 30
0.0
 11
2.9010652372
 21
6.6621346192
 31
0.0
  0
LINE
  5
233
330
1F
100
AcDbEntity
  8
0
  6
HIDDEN
 62
     7
100
AcDbLine
 10
2.9010652372
 20
6.6818196586
 30
0.0
 11
2.9010652372
 21
7.139496824
 31
0.0
  0
ARC
  5
234
330
1F
100
AcDbEntity
  8
0
  6
HIDDEN
 62
     7
100
AcDbCircle
 10
2.8912227176
 20
6.0961897373
 30
0.0
 40
0.0098425196850394
100
AcDbArc
 50
270.0
 51
0.0
  0
ARC
  5
235
330
1F
100
AcDbEntity
  8
0
  6
HIDDEN
 62
     7
100
AcDbCircle
 10
2.753427442
 20
6.0961897373
 30
0.0
 40
0.0098425196850394
100
AcDbArc
 50
180.0
 51
270.0
  0
LINE
  5
236
330
1F
100
AcDbEntity
  8
0
  6
HIDDEN
 62
     7
100
AcDbLine
 10
2.9502778357
 20
7.139496824
 30
0.0
 11
2.9502778357
 21
7.3882089428
 31
0.0
  0
LINE
  5
237
330
1F
100
AcDbEntity
  8
0
  6
HIDDEN
 62
     7
100
AcDbLine
 10
2.6943723239
 20
7.3882207062
 30
0.0
 11
2.6943723239
 21
7.139496824
 31
0.0
  0
LINE
  5
238
330
1F
100
AcDbEntity
  8
0
  6
HIDDEN
 62
     7
100
AcDbLine
 10
2.7435849223
 20
6.6621346192
 30
0.0
 11
2.7435849223
 21
5.955684946
 31
0.0
  0
LINE
  5
239
330
1F
100
AcDbEntity
  8
0
  6
HIDDEN
 62
     7
100
AcDbLine
 10
2.9010652372
 20
5.9556850183
 30
0.0
 11
2.9010652372
 21
6.6621346192
 31
0.0
  0
LINE
  5
23A
330
1F
100
AcDbEntity
  8
0
  6
HIDDEN
 62
     7
100
AcDbLine
 10
2.7435849223
 20
7.139496824
 30
0.0
 11
2.7435849223
 21
6.6818196586
 31
0.0
  0
LINE
  5
23B
330
1F
100
AcDbEntity
  8
0
  6
HIDDEN
 62
     7
100
AcDbLine
 10
2.9010652372
 20
6.6818196586
 30
0.0
 11
2.9010652372
 21
7.139496824
 31
0.0
  0
LINE
  5
23C
330
1F
100
AcDbEntity
  8
0
  6
HIDDEN
 62
     7
100
AcDbLine
 10
3.3512424026
 20
6.9574102098
 30
0.0
 11
3.3020298042
 21
6.9574102098
 31
0.0
  0
LINE
  5
23D
330
1F
100
AcDbEntity
  8
0
  6
HIDDEN
 62
     7
100
AcDbLine
 10
3.3020298042
 20
6.3865440681
 30
0.0
 11
3.3512424026
 21
6.3865440681
 31
0.0
  0
LINE
  5
23E
330
1F
100
AcDbEntity
  8
0
  6
HIDDEN
 62
     7
100
AcDbLine
 10
2.6648447648
 20
6.918040131
 30
0.0
 11
2.6573447648
 21
6.925540131
 31
0.0
  0
LINE
  5
23F
330
1F
100
AcDbEntity
  8
0
  6
HIDDEN
 62
     7
100
AcDbLine
 10
2.6573447648
 20
6.4184141468
 30
0.0
 11
2.6648447648
 21
6.4259141468
 31
0.0
  0
LINE
  5
240
330
1F
100
AcDbEntity
  8
0
  6
HIDDEN
 62
     7
100
AcDbLine
 10
3.002771274
 20
6.4259141468
 30
0.0
 11
3.2478959459
 21
6.4259141468
 31
0.0
  0
LINE
  5
241
330
1F
100
AcDbEntity
  8
0
  6
HIDDEN
 62
     7
100
AcDbLine
 10
3.2478959459
 20
6.918040131
 30
0.0
 11
3.002771274
 21
6.918040131
 31
0.0
  0
LINE
  5
242
330
1F
100
AcDbEntity
  8
0
  6
HIDDEN
 62
     7
100
AcDbLine
 10
2.6648447648
 20
6.4259141468
 30
0.0
 11
2.9765245548
 21
6.4259141468
 31
0.0
  0
LINE
  5
243
330
1F
100
AcDbEntity
  8
0
  6
HIDDEN
 62
     7
100
AcDbLine
 10
2.9765245548
 20
6.918040131
 30
0.0
 11
2.6648447648
 21
6.918040131
 31
0.0
  0
LINE
  5
244
330
1F
100
AcDbEntity
  8
0
  6
HIDDEN
 62
     7
100
AcDbLine
 10
2.6946248094
 20
7.2871346192
 30
0.0
 11
2.9500253501
 21
7.2871346192
 31
0.0
  0
LINE
  5
245
330
1F
100
AcDbEntity
  8
0
  6
CONTINUOUS
 62
     7
100
AcDbLine
 10
8.6416038602
 20
5.8269014752
 30
0.0
 11
8.6469062992
 21
5.8299635032
 31
0.0
  0
LINE
  5
246
330
1F
100
AcDbEntity
  8
0
  6
CONTINUOUS
 62
     7
100
AcDbLine
 10
9.2957104991
 20
6.9538471168
 30
0.0
 11
9.2957104991
 21
6.9599701776
 31
0.0
  0
LINE
  5
247
330
1F
100
AcDbEntity
  8
0
  6
CONTINUOUS
 62
     7
100
AcDbLine
 10
8.09482095
 20
5.8295943806
 30
0.0
 11
8.1789367012
 21
5.781035391
 31
0.0
  0
LINE
  5
248
330
1F
100
AcDbEntity
  8
0
  6
CONTINUOUS
 62
     7
100
AcDbLine
 10
7.9585458081
 20
5.9082643454
 30
0.0
 11
8.040401026
 21
5.861010334
 31
0.0
  0
LINE
  5
249
330
1F
100
AcDbEntity
  8
0
  6
CONTINUOUS
 62
     7
100
AcDbLine
 10
7.7666572573
 20
6.0190392479
 30
0.0
 11
7.939986575
 21
5.9189783627
 31
0.0
  0
LINE
  5
24A
330
1F
100
AcDbEntity
  8
0
  6
CONTINUOUS
 62
     7
100
AcDbLine
 10
9.1040583633
 20
7.3835667505
 30
0.0
 11
8.6917789193
 21
7.6215706075
 31
0.0
  0
SPLINE
  5
24B
330
1F
100
AcDbEntity
  8
0
  6
CONTINUOUS
 62
     7
100
AcDbSpline
210
0.0
220
0.0
230
1.0
 70
     8
 71
     3
 72
    28
 73
    24
 74
     0
 42
0.00000001
 43
0.00000001
 40
0.0
 40
0.0
 40
0.0
 40
0.0
 40
0.0283775619627206
 40
0.0783629557521015
 40
0.1284899277096918
 40
0.178579469761637
 40
0.2285865882834204
 40
0.2785090445250468
 40
0.3283655996778788
 40
0.3781843330452503
 40
0.4279972458787939
 40
0.4778331192335024
 40
0.5277203025711432
 40
0.577693669441557
 40
0.6277863584882365
 40
0.6780247130941278
 40
0.7284167778742056
 40
0.7789293460208051
 40
0.829396825185571
 40
0.8795339365304261
 40
0.9289663215820831
 40
0.9773911381320084
 40
1.0
 40
1.0
 40
1.0
 40
1.0
 10
8.217096756654941
 20
6.95799442032058
 30
0.0
 10
8.215328761271225
 20
6.959408581584311
 30
0.0
 10
8.21044654678761
 20
6.963313704113218
 30
0.0
 10
8.200945965778017
 20
6.968833498090919
 30
0.0
 10
8.188898046297309
 20
6.974547369039519
 30
0.0
 10
8.175761528118167
 20
6.979294329042465
 30
0.0
 10
8.161818971122452
 20
6.98306277360126
 30
0.0
 10
8.147247158752577
 20
6.985799699117903
 30
0.0
 10
8.132253968980542
 20
6.987479805788691
 30
0.0
 10
8.1170426951637
 20
6.988084977688365
 30
0.0
 10
8.101820632715679
 20
6.987609431962125
 30
0.0
 10
8.086794569430749
 20
6.986058415770159
 30
0.0
 10
8.072168253004108
 20
6.983448311053087
 30
0.0
 10
8.058139263874748
 20
6.979805507938049
 30
0.0
 10
8.044897343306124
 20
6.975164963955588
 30
0.0
 10
8.032624121585156
 20
6.969569043220543
 30
0.0
 10
8.021495456247438
 20
6.963067036045452
 30
0.0
 10
8.011683680304891
 20
6.955720300190102
 30
0.0
 10
8.00337438322696
 20
6.94761012717842
 30
0.0
 10
7.996699491195876
 20
6.938855908861211
 30
0.0
 10
7.991937701966816
 20
6.929607619529208
 30
0.0
 10
7.989234706891454
 20
6.921723621342859
 30
0.0
 10
7.98884447385987
 20
6.916943985078242
 30
0.0
 10
7.988720269047394
 20
6.915422704771593
 30
0.0
  0
SPLINE
  5
24C
330
1F
100
AcDbEntity
  8
0
  6
CONTINUOUS
 62
     7
100
AcDbSpline
210
0.0
220
0.0
230
1.0
 70
     8
 71
     3
 72
    16
 73
    12
 74
     0
 42
0.00000001
 43
0.00000001
 40
0.0
 40
0.0
 40
0.0
 40
0.0
 40
0.0765184419605827
 40
0.197056548367419
 40
0.3187047904644003
 40
0.4402545608064433
 40
0.5614509030976886
 40
0.6823494696909188
 40
0.803123481422075
 40
0.9239886755093625
 40
1.0
 40
1.0
 40
1.0
 40
1.0
 10
7.352452765777478
 20
7.341418212461802
 30
0.0
 10
7.35207998147591
 20
7.339449892463937
 30
0.0
 10
7.351119956861314
 20
7.334380913863171
 30
0.0
 10
7.35115539112097
 20
7.325384342413851
 30
0.0
 10
7.352352478833926
 20
7.31473488456223
 30
0.0
 10
7.354933035668601
 20
7.303741649380857
 30
0.0
 10
7.358741299547111
 20
7.292721499805168
 30
0.0
 10
7.363684975655811
 20
7.281893339689106
 30
0.0
 10
7.369676553742208
 20
7.271545366721843
 30
0.0
 10
7.375616979577419
 20
7.262924403734771
 30
0.0
 10
7.379789822292204
 20
7.258236649419701
 30
0.0
 10
7.381400899651418
 20
7.256426771751461
 30
0.0
  0
SPLINE
  5
24D
330
1F
100
AcDbEntity
  8
0
  6
CONTINUOUS
 62
     7
100
AcDbSpline
210
0.0
220
0.0
230
1.0
 70
     8
 71
     3
 72
    19
 73
    15
 74
     0
 42
0.00000001
 43
0.00000001
 40
0.0
 40
0.0
 40
0.0
 40
0.0
 40
0.0429157906353954
 40
0.1373460821985511
 40
0.2319119195157402
 40
0.3266781311299218
 40
0.4217017296821431
 40
0.5046273887798254
 40
0.5551723588931153
 40
0.6507255496330767
 40
0.7463089644508218
 40
0.8412812788887906
 40
0.9349351483097168
 40
1.0
 40
1.0
 40
1.0
 40
1.0
 10
8.310792586496044
 20
7.840124822546354
 30
0.0
 10
8.309520353532477
 20
7.842039542571545
 30
0.0
 10
8.305448747007167
 20
7.848167340523616
 30
0.0
 10
8.297736245343303
 20
7.857683861364449
 30
0.0
 10
8.287838814420544
 20
7.868497599829803
 30
0.0
 10
8.277371219694782
 20
7.878149445857391
 30
0.0
 10
8.266990631328705
 20
7.886186864032672
 30
0.0
 10
8.258113970262977
 20
7.891860292544806
 30
0.0
 10
8.249152286877205
 20
7.89669854027948
 30
0.0
 10
8.239651586957667
 20
7.900790905947124
 30
0.0
 10
8.228465714725765
 20
7.903988150775467
 30
0.0
 10
8.217566918100106
 20
7.905357129620539
 30
0.0
 10
8.208056903599402
 20
7.905184369626963
 30
0.0
 10
8.202512842568696
 20
7.903751992167763
 30
0.0
 10
8.200240120698213
 20
7.903164806067126
 30
0.0
  0
LINE
  5
24E
330
1F
100
AcDbEntity
  8
0
  6
CONTINUOUS
 62
     7
100
AcDbLine
 10
8.2036804882
 20
7.9033438341
 30
0.0
 11
8.1681440768
 21
7.9238585677
 31
0.0
  0
LINE
  5
24F
330
1F
100
AcDbEntity
  8
0
  6
CONTINUOUS
 62
     7
100
AcDbLine
 10
8.3885349699
 20
7.7966296132
 30
0.0
 11
8.3554413292
 21
7.8157341653
 31
0.0
  0
LINE
  5
250
330
1F
100
AcDbEntity
  8
0
  6
CONTINUOUS
 62
     7
100
AcDbLine
 10
8.5804235207
 20
7.6858547107
 30
0.0
 11
8.407094203
 21
7.785915596
 31
0.0
  0
LINE
  5
251
330
1F
100
AcDbEntity
  8
0
  6
CONTINUOUS
 62
     7
100
AcDbLine
 10
7.2430224147
 20
6.3213272082
 30
0.0
 11
7.6553018587
 21
6.0833233512
 31
0.0
  0
LINE
  5
252
330
1F
100
AcDbEntity
  8
0
  6
CONTINUOUS
 62
     7
100
AcDbLine
 10
7.0513702789
 20
6.7510468419
 30
0.0
 11
7.0513702789
 21
6.7449237811
 31
0.0
  0
POLYLINE
  5
253
330
1F
100
AcDbEntity
  8
0
  6
CONTINUOUS
 62
     7
100
AcDb2dPolyline
 66
     1
 10
0.0
 20
0.0
 30
0.0
  0
VERTEX
  5
2C6
330
253
100
AcDbEntity
  8
0
  6
CONTINUOUS
 62
     7
100
AcDbVertex
100
AcDb2dVertex
 10
7.9979284905
 20
6.1966166912
 30
0.0
  0
VERTEX
  5
2C7
330
253
100
AcDbEntity
  8
0
  6
CONTINUOUS
 62
     7
100
AcDbVertex
100
AcDb2dVertex
 10
7.9989750478
 20
6.1619655071
 30
0.0
  0
VERTEX
  5
2C8
330
253
100
AcDbEntity
  8
0
  6
CONTINUOUS
 62
     7
100
AcDbVertex
100
AcDb2dVertex
 10
8.0014573062
 20
6.1282390789
 30
0.0
  0
VERTEX
  5
2C9
330
253
100
AcDbEntity
  8
0
  6
CONTINUOUS
 62
     7
100
AcDbVertex
100
AcDb2dVertex
 10
8.0053697645
 20
6.0955121507
 30
0.0
  0
VERTEX
  5
2CA
330
253
100
AcDbEntity
  8
0
  6
CONTINUOUS
 62
     7
100
AcDbVertex
100
AcDb2dVertex
 10
8.010703752
 20
6.0638572512
 30
0.0
  0
VERTEX
  5
2CB
330
253
100
AcDbEntity
  8
0
  6
CONTINUOUS
 62
     7
100
AcDbVertex
100
AcDb2dVertex
 10
8.0174474475
 20
6.0333445337
 30
0.0
  0
VERTEX
  5
2CC
330
253
100
AcDbEntity
  8
0
  6
CONTINUOUS
 62
     7
100
AcDbVertex
100
AcDb2dVertex
 10
8.0255859058
 20
6.0040416199
 30
0.0
  0
VERTEX
  5
2CD
330
253
100
AcDbEntity
  8
0
  6
CONTINUOUS
 62
     7
100
AcDbVertex
100
AcDb2dVertex
 10
8.0351010906
 20
5.9760134503
 30
0.0
  0
VERTEX
  5
2CE
330
253
100
AcDbEntity
  8
0
  6
CONTINUOUS
 62
     7
100
AcDbVertex
100
AcDb2dVertex
 10
8.0459719145
 20
5.9493221407
 30
0.0
  0
VERTEX
  5
2CF
330
253
100
AcDbEntity
  8
0
  6
CONTINUOUS
 62
     7
100
AcDbVertex
100
AcDb2dVertex
 10
8.0581742857
 20
5.9240268439
 30
0.0
  0
VERTEX
  5
2D0
330
253
100
AcDbEntity
  8
0
  6
CONTINUOUS
 62
     7
100
AcDbVertex
100
AcDb2dVertex
 10
8.0716811615
 20
5.9001836188
 30
0.0
  0
VERTEX
  5
2D1
330
253
100
AcDbEntity
  8
0
  6
CONTINUOUS
 62
     7
100
AcDbVertex
100
AcDb2dVertex
 10
8.0864626083
 20
5.8778453065
 30
0.0
  0
VERTEX
  5
2D2
330
253
100
AcDbEntity
  8
0
  6
CONTINUOUS
 62
     7
100
AcDbVertex
100
AcDb2dVertex
 10
8.1024858676
 20
5.8570614128
 30
0.0
  0
VERTEX
  5
2D3
330
253
100
AcDbEntity
  8
0
  6
CONTINUOUS
 62
     7
100
AcDbVertex
100
AcDb2dVertex
 10
8.1197154289
 20
5.8378779985
 30
0.0
  0
VERTEX
  5
2D4
330
253
100
AcDbEntity
  8
0
  6
CONTINUOUS
 62
     7
100
AcDbVertex
100
AcDb2dVertex
 10
8.1381131083
 20
5.8203375778
 30
0.0
  0
VERTEX
  5
2D5
330
253
100
AcDbEntity
  8
0
  6
CONTINUOUS
 62
     7
100
AcDbVertex
100
AcDb2dVertex
 10
8.1576381333
 20
5.8044790232
 30
0.0
  0
VERTEX
  5
2D6
330
253
100
AcDbEntity
  8
0
  6
CONTINUOUS
 62
     7
100
AcDbVertex
100
AcDb2dVertex
 10
8.1782472327
 20
5.7903374804
 30
0.0
  0
VERTEX
  5
2D7
330
253
100
AcDbEntity
  8
0
  6
CONTINUOUS
 62
     7
100
AcDbVertex
100
AcDb2dVertex
 10
8.1998947331
 20
5.7779442896
 30
0.0
  0
VERTEX
  5
2D8
330
253
100
AcDbEntity
  8
0
  6
CONTINUOUS
 62
     7
100
AcDbVertex
100
AcDb2dVertex
 10
8.2225326595
 20
5.7673269164
 30
0.0
  0
VERTEX
  5
2D9
330
253
100
AcDbEntity
  8
0
  6
CONTINUOUS
 62
     7
100
AcDbVertex
100
AcDb2dVertex
 10
8.2461108422
 20
5.7585088908
 30
0.0
  0
VERTEX
  5
2DA
330
253
100
AcDbEntity
  8
0
  6
CONTINUOUS
 62
     7
100
AcDbVertex
100
AcDb2dVertex
 10
8.2705770275
 20
5.7515097552
 30
0.0
  0
VERTEX
  5
2DB
330
253
100
AcDbEntity
  8
0
  6
CONTINUOUS
 62
     7
100
AcDbVertex
100
AcDb2dVertex
 10
8.295876994
 20
5.746345021
 30
0.0
  0
VERTEX
  5
2DC
330
253
100
AcDbEntity
  8
0
  6
CONTINUOUS
 62
     7
100
AcDbVertex
100
AcDb2dVertex
 10
8.3219546723
 20
5.7430261341
 30
0.0
  0
VERTEX
  5
2DD
330
253
100
AcDbEntity
  8
0
  6
CONTINUOUS
 62
     7
100
AcDbVertex
100
AcDb2dVertex
 10
8.3487522693
 20
5.7415604499
 30
0.0
  0
VERTEX
  5
2DE
330
253
100
AcDbEntity
  8
0
  6
CONTINUOUS
 62
     7
100
AcDbVertex
100
AcDb2dVertex
 10
8.3762103967
 20
5.7419512165
 30
0.0
  0
VERTEX
  5
2DF
330
253
100
AcDbEntity
  8
0
  6
CONTINUOUS
 62
     7
100
AcDbVertex
100
AcDb2dVertex
 10
8.4042682023
 20
5.744197568
 30
0.0
  0
VERTEX
  5
2E0
330
253
100
AcDbEntity
  8
0
  6
CONTINUOUS
 62
     7
100
AcDbVertex
100
AcDb2dVertex
 10
8.4328635048
 20
5.748294526
 30
0.0
  0
VERTEX
  5
2E1
330
253
100
AcDbEntity
  8
0
  6
CONTINUOUS
 62
     7
100
AcDbVertex
100
AcDb2dVertex
 10
8.4619329317
 20
5.7542330109
 30
0.0
  0
VERTEX
  5
2E2
330
253
100
AcDbEntity
  8
0
  6
CONTINUOUS
 62
     7
100
AcDbVertex
100
AcDb2dVertex
 10
8.4914120599
 20
5.7619998619
 30
0.0
  0
VERTEX
  5
2E3
330
253
100
AcDbEntity
  8
0
  6
CONTINUOUS
 62
     7
100
AcDbVertex
100
AcDb2dVertex
 10
8.5212355582
 20
5.7715778663
 30
0.0
  0
VERTEX
  5
2E4
330
253
100
AcDbEntity
  8
0
  6
CONTINUOUS
 62
     7
100
AcDbVertex
100
AcDb2dVertex
 10
8.5513373322
 20
5.7829457974
 30
0.0
  0
VERTEX
  5
2E5
330
253
100
AcDbEntity
  8
0
  6
CONTINUOUS
 62
     7
100
AcDbVertex
100
AcDb2dVertex
 10
8.5816506709
 20
5.7960784619
 30
0.0
  0
VERTEX
  5
2E6
330
253
100
AcDbEntity
  8
0
  6
CONTINUOUS
 62
     7
100
AcDbVertex
100
AcDb2dVertex
 10
8.6121083943
 20
5.8109467553
 30
0.0
  0
VERTEX
  5
2E7
330
253
100
AcDbEntity
  8
0
  6
CONTINUOUS
 62
     7
100
AcDbVertex
100
AcDb2dVertex
 10
8.6426430025
 20
5.8275177267
 30
0.0
  0
VERTEX
  5
2E8
330
253
100
AcDbEntity
  8
0
  6
CONTINUOUS
 62
     7
100
AcDbVertex
100
AcDb2dVertex
 10
8.6731868253
 20
5.8457546519
 30
0.0
  0
VERTEX
  5
2E9
330
253
100
AcDbEntity
  8
0
  6
CONTINUOUS
 62
     7
100
AcDbVertex
100
AcDb2dVertex
 10
8.7036721718
 20
5.8656171144
 30
0.0
  0
VERTEX
  5
2EA
330
253
100
AcDbEntity
  8
0
  6
CONTINUOUS
 62
     7
100
AcDbVertex
100
AcDb2dVertex
 10
8.734031481
 20
5.8870610954
 30
0.0
  0
VERTEX
  5
2EB
330
253
100
AcDbEntity
  8
0
  6
CONTINUOUS
 62
     7
100
AcDbVertex
100
AcDb2dVertex
 10
8.7641974711
 20
5.910039071
 30
0.0
  0
VERTEX
  5
2EC
330
253
100
AcDbEntity
  8
0
  6
CONTINUOUS
 62
     7
100
AcDbVertex
100
AcDb2dVertex
 10
8.7941032886
 20
5.934500118
 30
0.0
  0
VERTEX
  5
2ED
330
253
100
AcDbEntity
  8
0
  6
CONTINUOUS
 62
     7
100
AcDbVertex
100
AcDb2dVertex
 10
8.8236826568
 20
5.960390026
 30
0.0
  0
VERTEX
  5
2EE
330
253
100
AcDbEntity
  8
0
  6
CONTINUOUS
 62
     7
100
AcDbVertex
100
AcDb2dVertex
 10
8.8528700224
 20
5.9876514183
 30
0.0
  0
VERTEX
  5
2EF
330
253
100
AcDbEntity
  8
0
  6
CONTINUOUS
 62
     7
100
AcDbVertex
100
AcDb2dVertex
 10
8.8816007007
 20
6.0162238786
 30
0.0
  0
VERTEX
  5
2F0
330
253
100
AcDbEntity
  8
0
  6
CONTINUOUS
 62
     7
100
AcDbVertex
100
AcDb2dVertex
 10
8.9098110194
 20
6.0460440852
 30
0.0
  0
VERTEX
  5
2F1
330
253
100
AcDbEntity
  8
0
  6
CONTINUOUS
 62
     7
100
AcDbVertex
100
AcDb2dVertex
 10
8.9374384592
 20
6.0770459509
 30
0.0
  0
VERTEX
  5
2F2
330
253
100
AcDbEntity
  8
0
  6
CONTINUOUS
 62
     7
100
AcDbVertex
100
AcDb2dVertex
 10
8.9644217925
 20
6.1091607699
 30
0.0
  0
VERTEX
  5
2F3
330
253
100
AcDbEntity
  8
0
  6
CONTINUOUS
 62
     7
100
AcDbVertex
100
AcDb2dVertex
 10
8.9907012194
 20
6.1423173698
 30
0.0
  0
VERTEX
  5
2F4
330
253
100
AcDbEntity
  8
0
  6
CONTINUOUS
 62
     7
100
AcDbVertex
100
AcDb2dVertex
 10
9.0162184999
 20
6.1764422697
 30
0.0
  0
VERTEX
  5
2F5
330
253
100
AcDbEntity
  8
0
  6
CONTINUOUS
 62
     7
100
AcDbVertex
100
AcDb2dVertex
 10
9.0409170828
 20
6.2114598423
 30
0.0
  0
VERTEX
  5
2F6
330
253
100
AcDbEntity
  8
0
  6
CONTINUOUS
 62
     7
100
AcDbVertex
100
AcDb2dVertex
 10
9.0647422318
 20
6.2472924824
 30
0.0
  0
VERTEX
  5
2F7
330
253
100
AcDbEntity
  8
0
  6
CONTINUOUS
 62
     7
100
AcDbVertex
100
AcDb2dVertex
 10
9.0876411457
 20
6.2838607781
 30
0.0
  0
VERTEX
  5
2F8
330
253
100
AcDbEntity
  8
0
  6
CONTINUOUS
 62
     7
100
AcDbVertex
100
AcDb2dVertex
 10
9.1095630765
 20
6.3210836875
 30
0.0
  0
VERTEX
  5
2F9
330
253
100
AcDbEntity
  8
0
  6
CONTINUOUS
 62
     7
100
AcDbVertex
100
AcDb2dVertex
 10
9.1304594411
 20
6.3588787177
 30
0.0
  0
VERTEX
  5
2FA
330
253
100
AcDbEntity
  8
0
  6
CONTINUOUS
 62
     7
100
AcDbVertex
100
AcDb2dVertex
 10
9.1502839292
 20
6.397162108
 30
0.0
  0
VERTEX
  5
2FB
330
253
100
AcDbEntity
  8
0
  6
CONTINUOUS
 62
     7
100
AcDbVertex
100
AcDb2dVertex
 10
9.1689926063
 20
6.4358490154
 30
0.0
  0
VERTEX
  5
2FC
330
253
100
AcDbEntity
  8
0
  6
CONTINUOUS
 62
     7
100
AcDbVertex
100
AcDb2dVertex
 10
9.1865440105
 20
6.4748537025
 30
0.0
  0
VERTEX
  5
2FD
330
253
100
AcDbEntity
  8
0
  6
CONTINUOUS
 62
     7
100
AcDbVertex
100
AcDb2dVertex
 10
9.2028992445
 20
6.5140897279
 30
0.0
  0
VERTEX
  5
2FE
330
253
100
AcDbEntity
  8
0
  6
CONTINUOUS
 62
     7
100
AcDbVertex
100
AcDb2dVertex
 10
9.2180220622
 20
6.5534701372
 30
0.0
  0
VERTEX
  5
2FF
330
253
100
AcDbEntity
  8
0
  6
CONTINUOUS
 62
     7
100
AcDbVertex
100
AcDb2dVertex
 10
9.2318789486
 20
6.5929076562
 30
0.0
  0
VERTEX
  5
300
330
253
100
AcDbEntity
  8
0
  6
CONTINUOUS
 62
     7
100
AcDbVertex
100
AcDb2dVertex
 10
9.2444391944
 20
6.6323148842
 30
0.0
  0
VERTEX
  5
301
330
253
100
AcDbEntity
  8
0
  6
CONTINUOUS
 62
     7
100
AcDbVertex
100
AcDb2dVertex
 10
9.2556749638
 20
6.6716044874
 30
0.0
  0
VERTEX
  5
302
330
253
100
AcDbEntity
  8
0
  6
CONTINUOUS
 62
     7
100
AcDbVertex
100
AcDb2dVertex
 10
9.2655613561
 20
6.710689393
 30
0.0
  0
VERTEX
  5
303
330
253
100
AcDbEntity
  8
0
  6
CONTINUOUS
 62
     7
100
AcDbVertex
100
AcDb2dVertex
 10
9.2740764613
 20
6.7494829815
 30
0.0
  0
VERTEX
  5
304
330
253
100
AcDbEntity
  8
0
  6
CONTINUOUS
 62
     7
100
AcDbVertex
100
AcDb2dVertex
 10
9.2812014085
 20
6.7878992793
 30
0.0
  0
VERTEX
  5
305
330
253
100
AcDbEntity
  8
0
  6
CONTINUOUS
 62
     7
100
AcDbVertex
100
AcDb2dVertex
 10
9.2869204073
 20
6.8258531487
 30
0.0
  0
VERTEX
  5
306
330
253
100
AcDbEntity
  8
0
  6
CONTINUOUS
 62
     7
100
AcDbVertex
100
AcDb2dVertex
 10
9.2912207835
 20
6.863260477
 30
0.0
  0
VERTEX
  5
307
330
253
100
AcDbEntity
  8
0
  6
CONTINUOUS
 62
     7
100
AcDbVertex
100
AcDb2dVertex
 10
9.2940930066
 20
6.9000383627
 30
0.0
  0
VERTEX
  5
308
330
253
100
AcDbEntity
  8
0
  6
CONTINUOUS
 62
     7
100
AcDbVertex
100
AcDb2dVertex
 10
9.2955307113
 20
6.9361052993
 30
0.0
  0
VERTEX
  5
309
330
253
100
AcDbEntity
  8
0
  6
CONTINUOUS
 62
     7
100
AcDbVertex
100
AcDb2dVertex
 10
9.2955307113
 20
6.9713813557
 30
0.0
  0
VERTEX
  5
30A
330
253
100
AcDbEntity
  8
0
  6
CONTINUOUS
 62
     7
100
AcDbVertex
100
AcDb2dVertex
 10
9.2940930066
 20
7.0057883538
 30
0.0
  0
VERTEX
  5
30B
330
253
100
AcDbEntity
  8
0
  6
CONTINUOUS
 62
     7
100
AcDbVertex
100
AcDb2dVertex
 10
9.2912207835
 20
7.0392500413
 30
0.0
  0
VERTEX
  5
30C
330
253
100
AcDbEntity
  8
0
  6
CONTINUOUS
 62
     7
100
AcDbVertex
100
AcDb2dVertex
 10
9.2869204073
 20
7.0716922609
 30
0.0
  0
VERTEX
  5
30D
330
253
100
AcDbEntity
  8
0
  6
CONTINUOUS
 62
     7
100
AcDbVertex
100
AcDb2dVertex
 10
9.2812014085
 20
7.1030431148
 30
0.0
  0
VERTEX
  5
30E
330
253
100
AcDbEntity
  8
0
  6
CONTINUOUS
 62
     7
100
AcDbVertex
100
AcDb2dVertex
 10
9.2740764613
 20
7.1332331237
 30
0.0
  0
VERTEX
  5
30F
330
253
100
AcDbEntity
  8
0
  6
CONTINUOUS
 62
     7
100
AcDbVertex
100
AcDb2dVertex
 10
9.2655613561
 20
7.162195381
 30
0.0
  0
VERTEX
  5
310
330
253
100
AcDbEntity
  8
0
  6
CONTINUOUS
 62
     7
100
AcDbVertex
100
AcDb2dVertex
 10
9.2556749638
 20
7.1898657009
 30
0.0
  0
VERTEX
  5
311
330
253
100
AcDbEntity
  8
0
  6
CONTINUOUS
 62
     7
100
AcDbVertex
100
AcDb2dVertex
 10
9.2444391944
 20
7.2161827611
 30
0.0
  0
VERTEX
  5
312
330
253
100
AcDbEntity
  8
0
  6
CONTINUOUS
 62
     7
100
AcDbVertex
100
AcDb2dVertex
 10
9.2318789486
 20
7.2410882379
 30
0.0
  0
VERTEX
  5
313
330
253
100
AcDbEntity
  8
0
  6
CONTINUOUS
 62
     7
100
AcDbVertex
100
AcDb2dVertex
 10
9.2180220622
 20
7.2645269364
 30
0.0
  0
VERTEX
  5
314
330
253
100
AcDbEntity
  8
0
  6
CONTINUOUS
 62
     7
100
AcDbVertex
100
AcDb2dVertex
 10
9.2028992445
 20
7.286446912
 30
0.0
  0
VERTEX
  5
315
330
253
100
AcDbEntity
  8
0
  6
CONTINUOUS
 62
     7
100
AcDbVertex
100
AcDb2dVertex
 10
9.1865440105
 20
7.3067995861
 30
0.0
  0
VERTEX
  5
316
330
253
100
AcDbEntity
  8
0
  6
CONTINUOUS
 62
     7
100
AcDbVertex
100
AcDb2dVertex
 10
9.1689926063
 20
7.3255398534
 30
0.0
  0
VERTEX
  5
317
330
253
100
AcDbEntity
  8
0
  6
CONTINUOUS
 62
     7
100
AcDbVertex
100
AcDb2dVertex
 10
9.1502839292
 20
7.342626182
 30
0.0
  0
VERTEX
  5
318
330
253
100
AcDbEntity
  8
0
  6
CONTINUOUS
 62
     7
100
AcDbVertex
100
AcDb2dVertex
 10
9.1304594411
 20
7.3580207054
 30
0.0
  0
VERTEX
  5
319
330
253
100
AcDbEntity
  8
0
  6
CONTINUOUS
 62
     7
100
AcDbVertex
100
AcDb2dVertex
 10
9.1095630765
 20
7.3716893066
 30
0.0
  0
VERTEX
  5
31A
330
253
100
AcDbEntity
  8
0
  6
CONTINUOUS
 62
     7
100
AcDbVertex
100
AcDb2dVertex
 10
9.0876411457
 20
7.3836016935
 30
0.0
  0
VERTEX
  5
31B
330
253
100
AcDbEntity
  8
0
  6
CONTINUOUS
 62
     7
100
AcDbVertex
100
AcDb2dVertex
 10
9.0647422318
 20
7.393731466
 30
0.0
  0
VERTEX
  5
31C
330
253
100
AcDbEntity
  8
0
  6
CONTINUOUS
 62
     7
100
AcDbVertex
100
AcDb2dVertex
 10
9.0409170828
 20
7.4020561746
 30
0.0
  0
VERTEX
  5
31D
330
253
100
AcDbEntity
  8
0
  6
CONTINUOUS
 62
     7
100
AcDbVertex
100
AcDb2dVertex
 10
9.0162184999
 20
7.4085573703
 30
0.0
  0
VERTEX
  5
31E
330
253
100
AcDbEntity
  8
0
  6
CONTINUOUS
 62
     7
100
AcDbVertex
100
AcDb2dVertex
 10
8.9907012194
 20
7.4132206453
 30
0.0
  0
VERTEX
  5
31F
330
253
100
AcDbEntity
  8
0
  6
CONTINUOUS
 62
     7
100
AcDbVertex
100
AcDb2dVertex
 10
8.9644217925
 20
7.4160356647
 30
0.0
  0
VERTEX
  5
320
330
253
100
AcDbEntity
  8
0
  6
CONTINUOUS
 62
     7
100
AcDbVertex
100
AcDb2dVertex
 10
8.9374384592
 20
7.4169961902
 30
0.0
  0
VERTEX
  5
321
330
253
100
AcDbEntity
  8
0
  6
CONTINUOUS
 62
     7
100
AcDbVertex
100
AcDb2dVertex
 10
8.9098110194
 20
7.4161000929
 30
0.0
  0
VERTEX
  5
322
330
253
100
AcDbEntity
  8
0
  6
CONTINUOUS
 62
     7
100
AcDbVertex
100
AcDb2dVertex
 10
8.8816007007
 20
7.4133493588
 30
0.0
  0
VERTEX
  5
323
330
253
100
AcDbEntity
  8
0
  6
CONTINUOUS
 62
     7
100
AcDbVertex
100
AcDb2dVertex
 10
8.8528700224
 20
7.408750084
 30
0.0
  0
VERTEX
  5
324
330
253
100
AcDbEntity
  8
0
  6
CONTINUOUS
 62
     7
100
AcDbVertex
100
AcDb2dVertex
 10
8.8236826568
 20
7.4023124613
 30
0.0
  0
VERTEX
  5
325
330
253
100
AcDbEntity
  8
0
  6
CONTINUOUS
 62
     7
100
AcDbVertex
100
AcDb2dVertex
 10
8.7941032886
 20
7.3940507578
 30
0.0
  0
VERTEX
  5
326
330
253
100
AcDbEntity
  8
0
  6
CONTINUOUS
 62
     7
100
AcDbVertex
100
AcDb2dVertex
 10
8.7641974711
 20
7.3839832827
 30
0.0
  0
VERTEX
  5
327
330
253
100
AcDbEntity
  8
0
  6
CONTINUOUS
 62
     7
100
AcDbVertex
100
AcDb2dVertex
 10
8.734031481
 20
7.3721323477
 30
0.0
  0
VERTEX
  5
328
330
253
100
AcDbEntity
  8
0
  6
CONTINUOUS
 62
     7
100
AcDbVertex
100
AcDb2dVertex
 10
8.7036721718
 20
7.3585242164
 30
0.0
  0
VERTEX
  5
329
330
253
100
AcDbEntity
  8
0
  6
CONTINUOUS
 62
     7
100
AcDbVertex
100
AcDb2dVertex
 10
8.6731868253
 20
7.343189047
 30
0.0
  0
VERTEX
  5
32A
330
253
100
AcDbEntity
  8
0
  6
CONTINUOUS
 62
     7
100
AcDbVertex
100
AcDb2dVertex
 10
8.6426430025
 20
7.326160825
 30
0.0
  0
VERTEX
  5
32B
330
253
100
AcDbEntity
  8
0
  6
CONTINUOUS
 62
     7
100
AcDbVertex
100
AcDb2dVertex
 10
8.6121083943
 20
7.3074772882
 30
0.0
  0
VERTEX
  5
32C
330
253
100
AcDbEntity
  8
0
  6
CONTINUOUS
 62
     7
100
AcDbVertex
100
AcDb2dVertex
 10
8.5816506709
 20
7.2871798426
 30
0.0
  0
VERTEX
  5
32D
330
253
100
AcDbEntity
  8
0
  6
CONTINUOUS
 62
     7
100
AcDbVertex
100
AcDb2dVertex
 10
8.5513373322
 20
7.2653134712
 30
0.0
  0
VERTEX
  5
32E
330
253
100
AcDbEntity
  8
0
  6
CONTINUOUS
 62
     7
100
AcDbVertex
100
AcDb2dVertex
 10
8.5212355582
 20
7.2419266339
 30
0.0
  0
VERTEX
  5
32F
330
253
100
AcDbEntity
  8
0
  6
CONTINUOUS
 62
     7
100
AcDbVertex
100
AcDb2dVertex
 10
8.4914120599
 20
7.2170711601
 30
0.0
  0
VERTEX
  5
330
330
253
100
AcDbEntity
  8
0
  6
CONTINUOUS
 62
     7
100
AcDbVertex
100
AcDb2dVertex
 10
8.4619329317
 20
7.1908021342
 30
0.0
  0
VERTEX
  5
331
330
253
100
AcDbEntity
  8
0
  6
CONTINUOUS
 62
     7
100
AcDbVertex
100
AcDb2dVertex
 10
8.4328635048
 20
7.1631777732
 30
0.0
  0
VERTEX
  5
332
330
253
100
AcDbEntity
  8
0
  6
CONTINUOUS
 62
     7
100
AcDbVertex
100
AcDb2dVertex
 10
8.4042682023
 20
7.1342592976
 30
0.0
  0
VERTEX
  5
333
330
253
100
AcDbEntity
  8
0
  6
CONTINUOUS
 62
     7
100
AcDbVertex
100
AcDb2dVertex
 10
8.3762103967
 20
7.1041107963
 30
0.0
  0
VERTEX
  5
334
330
253
100
AcDbEntity
  8
0
  6
CONTINUOUS
 62
     7
100
AcDbVertex
100
AcDb2dVertex
 10
8.3487522693
 20
7.0727990838
 30
0.0
  0
VERTEX
  5
335
330
253
100
AcDbEntity
  8
0
  6
CONTINUOUS
 62
     7
100
AcDbVertex
100
AcDb2dVertex
 10
8.3219546723
 20
7.0403935526
 30
0.0
  0
VERTEX
  5
336
330
253
100
AcDbEntity
  8
0
  6
CONTINUOUS
 62
     7
100
AcDbVertex
100
AcDb2dVertex
 10
8.295876994
 20
7.0069660194
 30
0.0
  0
VERTEX
  5
337
330
253
100
AcDbEntity
  8
0
  6
CONTINUOUS
 62
     7
100
AcDbVertex
100
AcDb2dVertex
 10
8.2705770275
 20
6.9725905656
 30
0.0
  0
VERTEX
  5
338
330
253
100
AcDbEntity
  8
0
  6
CONTINUOUS
 62
     7
100
AcDbVertex
100
AcDb2dVertex
 10
8.2461108422
 20
6.9373433736
 30
0.0
  0
VERTEX
  5
339
330
253
100
AcDbEntity
  8
0
  6
CONTINUOUS
 62
     7
100
AcDbVertex
100
AcDb2dVertex
 10
8.2225326595
 20
6.9013025578
 30
0.0
  0
VERTEX
  5
33A
330
253
100
AcDbEntity
  8
0
  6
CONTINUOUS
 62
     7
100
AcDbVertex
100
AcDb2dVertex
 10
8.1998947331
 20
6.864547991
 30
0.0
  0
VERTEX
  5
33B
330
253
100
AcDbEntity
  8
0
  6
CONTINUOUS
 62
     7
100
AcDbVertex
100
AcDb2dVertex
 10
8.1782472327
 20
6.8271611283
 30
0.0
  0
VERTEX
  5
33C
330
253
100
AcDbEntity
  8
0
  6
CONTINUOUS
 62
     7
100
AcDbVertex
100
AcDb2dVertex
 10
8.1576381333
 20
6.7892248258
 30
0.0
  0
VERTEX
  5
33D
330
253
100
AcDbEntity
  8
0
  6
CONTINUOUS
 62
     7
100
AcDbVertex
100
AcDb2dVertex
 10
8.1381131083
 20
6.7508231573
 30
0.0
  0
VERTEX
  5
33E
330
253
100
AcDbEntity
  8
0
  6
CONTINUOUS
 62
     7
100
AcDbVertex
100
AcDb2dVertex
 10
8.1197154289
 20
6.712041228
 30
0.0
  0
VERTEX
  5
33F
330
253
100
AcDbEntity
  8
0
  6
CONTINUOUS
 62
     7
100
AcDbVertex
100
AcDb2dVertex
 10
8.1024858676
 20
6.6729649857
 30
0.0
  0
VERTEX
  5
340
330
253
100
AcDbEntity
  8
0
  6
CONTINUOUS
 62
     7
100
AcDbVertex
100
AcDb2dVertex
 10
8.0864626083
 20
6.6336810305
 30
0.0
  0
VERTEX
  5
341
330
253
100
AcDbEntity
  8
0
  6
CONTINUOUS
 62
     7
100
AcDbVertex
100
AcDb2dVertex
 10
8.0716811615
 20
6.5942764231
 30
0.0
  0
VERTEX
  5
342
330
253
100
AcDbEntity
  8
0
  6
CONTINUOUS
 62
     7
100
AcDbVertex
100
AcDb2dVertex
 10
8.0581742857
 20
6.5548384911
 30
0.0
  0
VERTEX
  5
343
330
253
100
AcDbEntity
  8
0
  6
CONTINUOUS
 62
     7
100
AcDbVertex
100
AcDb2dVertex
 10
8.0459719145
 20
6.5154546363
 30
0.0
  0
VERTEX
  5
344
330
253
100
AcDbEntity
  8
0
  6
CONTINUOUS
 62
     7
100
AcDbVertex
100
AcDb2dVertex
 10
8.0351010906
 20
6.4762121407
 30
0.0
  0
VERTEX
  5
345
330
253
100
AcDbEntity
  8
0
  6
CONTINUOUS
 62
     7
100
AcDbVertex
100
AcDb2dVertex
 10
8.0255859058
 20
6.4371979726
 30
0.0
  0
VERTEX
  5
346
330
253
100
AcDbEntity
  8
0
  6
CONTINUOUS
 62
     7
100
AcDbVertex
100
AcDb2dVertex
 10
8.0174474475
 20
6.3984985948
 30
0.0
  0
VERTEX
  5
347
330
253
100
AcDbEntity
  8
0
  6
CONTINUOUS
 62
     7
100
AcDbVertex
100
AcDb2dVertex
 10
8.010703752
 20
6.3601997722
 30
0.0
  0
VERTEX
  5
348
330
253
100
AcDbEntity
  8
0
  6
CONTINUOUS
 62
     7
100
AcDbVertex
100
AcDb2dVertex
 10
8.0053697645
 20
6.3223863819
 30
0.0
  0
VERTEX
  5
349
330
253
100
AcDbEntity
  8
0
  6
CONTINUOUS
 62
     7
100
AcDbVertex
100
AcDb2dVertex
 10
8.0014573062
 20
6.2851422255
 30
0.0
  0
VERTEX
  5
34A
330
253
100
AcDbEntity
  8
0
  6
CONTINUOUS
 62
     7
100
AcDbVertex
100
AcDb2dVertex
 10
7.9989750478
 20
6.2485498428
 30
0.0
  0
VERTEX
  5
34B
330
253
100
AcDbEntity
  8
0
  6
CONTINUOUS
 62
     7
100
AcDbVertex
100
AcDb2dVertex
 10
7.9979284905
 20
6.2126903293
 30
0.0
  0
SEQEND
  5
34C
330
253
100
AcDbEntity
  8
0
  6
CONTINUOUS
 62
     7
  0
LINE
  5
254
330
1F
100
AcDbEntity
  8
0
  6
CONTINUOUS
 62
     7
100
AcDbLine
 10
7.9873215862
 20
6.2126901546
 30
0.0
 11
7.9979284905
 21
6.2126903293
 31
0.0
  0
POLYLINE
  5
255
330
1F
100
AcDbEntity
  8
0
  6
CONTINUOUS
 62
     7
100
AcDb2dPolyline
 66
     1
 10
0.0
 20
0.0
 30
0.0
  0
VERTEX
  5
34D
330
255
100
AcDbEntity
  8
0
  6
CONTINUOUS
 62
     7
100
AcDbVertex
100
AcDb2dVertex
 10
7.9873215862
 20
6.2126901546
 30
0.0
  0
VERTEX
  5
34E
330
255
100
AcDbEntity
  8
0
  6
CONTINUOUS
 62
     7
100
AcDbVertex
100
AcDb2dVertex
 10
7.9883608496
 20
6.2485696803
 30
0.0
  0
VERTEX
  5
34F
330
255
100
AcDbEntity
  8
0
  6
CONTINUOUS
 62
     7
100
AcDbVertex
100
AcDb2dVertex
 10
7.9908261437
 20
6.2851778607
 30
0.0
  0
VERTEX
  5
350
330
255
100
AcDbEntity
  8
0
  6
CONTINUOUS
 62
     7
100
AcDbVertex
100
AcDb2dVertex
 10
7.9947120858
 20
6.3224347673
 30
0.0
  0
VERTEX
  5
351
330
255
100
AcDbEntity
  8
0
  6
CONTINUOUS
 62
     7
100
AcDbVertex
100
AcDb2dVertex
 10
8.0000101915
 20
6.3602590548
 30
0.0
  0
VERTEX
  5
352
330
255
100
AcDbEntity
  8
0
  6
CONTINUOUS
 62
     7
100
AcDbVertex
100
AcDb2dVertex
 10
8.0067088931
 20
6.3985681393
 30
0.0
  0
VERTEX
  5
353
330
255
100
AcDbEntity
  8
0
  6
CONTINUOUS
 62
     7
100
AcDbVertex
100
AcDb2dVertex
 10
8.0147935651
 20
6.4372783784
 30
0.0
  0
VERTEX
  5
354
330
255
100
AcDbEntity
  8
0
  6
CONTINUOUS
 62
     7
100
AcDbVertex
100
AcDb2dVertex
 10
8.0242465556
 20
6.4763052539
 30
0.0
  0
VERTEX
  5
355
330
255
100
AcDbEntity
  8
0
  6
CONTINUOUS
 62
     7
100
AcDbVertex
100
AcDb2dVertex
 10
8.0350472255
 20
6.5155635561
 30
0.0
  0
VERTEX
  5
356
330
255
100
AcDbEntity
  8
0
  6
CONTINUOUS
 62
     7
100
AcDbVertex
100
AcDb2dVertex
 10
8.0471719929
 20
6.5549675701
 30
0.0
  0
VERTEX
  5
357
330
255
100
AcDbEntity
  8
0
  6
CONTINUOUS
 62
     7
100
AcDbVertex
100
AcDb2dVertex
 10
8.0605943852
 20
6.5944312629
 30
0.0
  0
VERTEX
  5
358
330
255
100
AcDbEntity
  8
0
  6
CONTINUOUS
 62
     7
100
AcDbVertex
100
AcDb2dVertex
 10
8.0752850966
 20
6.6338684711
 30
0.0
  0
VERTEX
  5
359
330
255
100
AcDbEntity
  8
0
  6
CONTINUOUS
 62
     7
100
AcDbVertex
100
AcDb2dVertex
 10
8.0912120519
 20
6.6731930893
 30
0.0
  0
VERTEX
  5
35A
330
255
100
AcDbEntity
  8
0
  6
CONTINUOUS
 62
     7
100
AcDbVertex
100
AcDb2dVertex
 10
8.1083404769
 20
6.7123192578
 30
0.0
  0
VERTEX
  5
35B
330
255
100
AcDbEntity
  8
0
  6
CONTINUOUS
 62
     7
100
AcDbVertex
100
AcDb2dVertex
 10
8.1266329742
 20
6.7511615501
 30
0.0
  0
VERTEX
  5
35C
330
255
100
AcDbEntity
  8
0
  6
CONTINUOUS
 62
     7
100
AcDbVertex
100
AcDb2dVertex
 10
8.1460496047
 20
6.7896351597
 30
0.0
  0
VERTEX
  5
35D
330
255
100
AcDbEntity
  8
0
  6
CONTINUOUS
 62
     7
100
AcDbVertex
100
AcDb2dVertex
 10
8.166547975
 20
6.827656085
 30
0.0
  0
VERTEX
  5
35E
330
255
100
AcDbEntity
  8
0
  6
CONTINUOUS
 62
     7
100
AcDbVertex
100
AcDb2dVertex
 10
8.1880833297
 20
6.8651413126
 30
0.0
  0
VERTEX
  5
35F
330
255
100
AcDbEntity
  8
0
  6
CONTINUOUS
 62
     7
100
AcDbVertex
100
AcDb2dVertex
 10
8.2106086496
 20
6.902008999
 30
0.0
  0
VERTEX
  5
360
330
255
100
AcDbEntity
  8
0
  6
CONTINUOUS
 62
     7
100
AcDbVertex
100
AcDb2dVertex
 10
8.2340747538
 20
6.9381786487
 30
0.0
  0
VERTEX
  5
361
330
255
100
AcDbEntity
  8
0
  6
CONTINUOUS
 62
     7
100
AcDbVertex
100
AcDb2dVertex
 10
8.2584304074
 20
6.9735712907
 30
0.0
  0
VERTEX
  5
362
330
255
100
AcDbEntity
  8
0
  6
CONTINUOUS
 62
     7
100
AcDbVertex
100
AcDb2dVertex
 10
8.2836224334
 20
7.00810965
 30
0.0
  0
VERTEX
  5
363
330
255
100
AcDbEntity
  8
0
  6
CONTINUOUS
 62
     7
100
AcDbVertex
100
AcDb2dVertex
 10
8.3095958285
 20
7.0417183171
 30
0.0
  0
VERTEX
  5
364
330
255
100
AcDbEntity
  8
0
  6
CONTINUOUS
 62
     7
100
AcDbVertex
100
AcDb2dVertex
 10
8.3362938836
 20
7.0743239123
 30
0.0
  0
VERTEX
  5
365
330
255
100
AcDbEntity
  8
0
  6
CONTINUOUS
 62
     7
100
AcDbVertex
100
AcDb2dVertex
 10
8.3636583072
 20
7.105855246
 30
0.0
  0
VERTEX
  5
366
330
255
100
AcDbEntity
  8
0
  6
CONTINUOUS
 62
     7
100
AcDbVertex
100
AcDb2dVertex
 10
8.391629353
 20
7.1362434739
 30
0.0
  0
VERTEX
  5
367
330
255
100
AcDbEntity
  8
0
  6
CONTINUOUS
 62
     7
100
AcDbVertex
100
AcDb2dVertex
 10
8.4201459504
 20
7.1654222477
 30
0.0
  0
VERTEX
  5
368
330
255
100
AcDbEntity
  8
0
  6
CONTINUOUS
 62
     7
100
AcDbVertex
100
AcDb2dVertex
 10
8.4491458372
 20
7.1933278597
 30
0.0
  0
VERTEX
  5
369
330
255
100
AcDbEntity
  8
0
  6
CONTINUOUS
 62
     7
100
AcDbVertex
100
AcDb2dVertex
 10
8.4785656966
 20
7.219899382
 30
0.0
  0
VERTEX
  5
36A
330
255
100
AcDbEntity
  8
0
  6
CONTINUOUS
 62
     7
100
AcDbVertex
100
AcDb2dVertex
 10
8.5083412943
 20
7.2450787995
 30
0.0
  0
VERTEX
  5
36B
330
255
100
AcDbEntity
  8
0
  6
CONTINUOUS
 62
     7
100
AcDbVertex
100
AcDb2dVertex
 10
8.5384076196
 20
7.2688111366
 30
0.0
  0
VERTEX
  5
36C
330
255
100
AcDbEntity
  8
0
  6
CONTINUOUS
 62
     7
100
AcDbVertex
100
AcDb2dVertex
 10
8.5686990271
 20
7.291044577
 30
0.0
  0
VERTEX
  5
36D
330
255
100
AcDbEntity
  8
0
  6
CONTINUOUS
 62
     7
100
AcDbVertex
100
AcDb2dVertex
 10
8.5991493796
 20
7.3117305772
 30
0.0
  0
VERTEX
  5
36E
330
255
100
AcDbEntity
  8
0
  6
CONTINUOUS
 62
     7
100
AcDbVertex
100
AcDb2dVertex
 10
8.6296921933
 20
7.3308239723
 30
0.0
  0
VERTEX
  5
36F
330
255
100
AcDbEntity
  8
0
  6
CONTINUOUS
 62
     7
100
AcDbVertex
100
AcDb2dVertex
 10
8.6602607823
 20
7.3482830746
 30
0.0
  0
VERTEX
  5
370
330
255
100
AcDbEntity
  8
0
  6
CONTINUOUS
 62
     7
100
AcDbVertex
100
AcDb2dVertex
 10
8.6907884044
 20
7.3640697646
 30
0.0
  0
VERTEX
  5
371
330
255
100
AcDbEntity
  8
0
  6
CONTINUOUS
 62
     7
100
AcDbVertex
100
AcDb2dVertex
 10
8.7212084069
 20
7.3781495744
 30
0.0
  0
VERTEX
  5
372
330
255
100
AcDbEntity
  8
0
  6
CONTINUOUS
 62
     7
100
AcDbVertex
100
AcDb2dVertex
 10
8.7514543721
 20
7.3904917627
 30
0.0
  0
VERTEX
  5
373
330
255
100
AcDbEntity
  8
0
  6
CONTINUOUS
 62
     7
100
AcDbVertex
100
AcDb2dVertex
 10
8.7814602623
 20
7.4010693821
 30
0.0
  0
VERTEX
  5
374
330
255
100
AcDbEntity
  8
0
  6
CONTINUOUS
 62
     7
100
AcDbVertex
100
AcDb2dVertex
 10
8.8111605639
 20
7.4098593378
 30
0.0
  0
VERTEX
  5
375
330
255
100
AcDbEntity
  8
0
  6
CONTINUOUS
 62
     7
100
AcDbVertex
100
AcDb2dVertex
 10
8.8404904304
 20
7.4168424383
 30
0.0
  0
VERTEX
  5
376
330
255
100
AcDbEntity
  8
0
  6
CONTINUOUS
 62
     7
100
AcDbVertex
100
AcDb2dVertex
 10
8.8693858244
 20
7.422003437
 30
0.0
  0
VERTEX
  5
377
330
255
100
AcDbEntity
  8
0
  6
CONTINUOUS
 62
     7
100
AcDbVertex
100
AcDb2dVertex
 10
8.8977836569
 20
7.4253310656
 30
0.0
  0
VERTEX
  5
378
330
255
100
AcDbEntity
  8
0
  6
CONTINUOUS
 62
     7
100
AcDbVertex
100
AcDb2dVertex
 10
8.9256219252
 20
7.4268180585
 30
0.0
  0
VERTEX
  5
379
330
255
100
AcDbEntity
  8
0
  6
CONTINUOUS
 62
     7
100
AcDbVertex
100
AcDb2dVertex
 10
8.9528398485
 20
7.4264611694
 30
0.0
  0
VERTEX
  5
37A
330
255
100
AcDbEntity
  8
0
  6
CONTINUOUS
 62
     7
100
AcDbVertex
100
AcDb2dVertex
 10
8.9793780004
 20
7.4242611772
 30
0.0
  0
VERTEX
  5
37B
330
255
100
AcDbEntity
  8
0
  6
CONTINUOUS
 62
     7
100
AcDbVertex
100
AcDb2dVertex
 10
9.0051784385
 20
7.4202228854
 30
0.0
  0
VERTEX
  5
37C
330
255
100
AcDbEntity
  8
0
  6
CONTINUOUS
 62
     7
100
AcDbVertex
100
AcDb2dVertex
 10
9.0301848313
 20
7.4143551111
 30
0.0
  0
VERTEX
  5
37D
330
255
100
AcDbEntity
  8
0
  6
CONTINUOUS
 62
     7
100
AcDbVertex
100
AcDb2dVertex
 10
9.054342581
 20
7.4066706657
 30
0.0
  0
VERTEX
  5
37E
330
255
100
AcDbEntity
  8
0
  6
CONTINUOUS
 62
     7
100
AcDbVertex
100
AcDb2dVertex
 10
9.0775989424
 20
7.397186327
 30
0.0
  0
VERTEX
  5
37F
330
255
100
AcDbEntity
  8
0
  6
CONTINUOUS
 62
     7
100
AcDbVertex
100
AcDb2dVertex
 10
9.0999031388
 20
7.3859228029
 30
0.0
  0
VERTEX
  5
380
330
255
100
AcDbEntity
  8
0
  6
CONTINUOUS
 62
     7
100
AcDbVertex
100
AcDb2dVertex
 10
9.121206472
 20
7.3729046854
 30
0.0
  0
VERTEX
  5
381
330
255
100
AcDbEntity
  8
0
  6
CONTINUOUS
 62
     7
100
AcDbVertex
100
AcDb2dVertex
 10
9.1414624292
 20
7.358160398
 30
0.0
  0
VERTEX
  5
382
330
255
100
AcDbEntity
  8
0
  6
CONTINUOUS
 62
     7
100
AcDbVertex
100
AcDb2dVertex
 10
9.1606267846
 20
7.3417221325
 30
0.0
  0
VERTEX
  5
383
330
255
100
AcDbEntity
  8
0
  6
CONTINUOUS
 62
     7
100
AcDbVertex
100
AcDb2dVertex
 10
9.1786576954
 20
7.3236257797
 30
0.0
  0
VERTEX
  5
384
330
255
100
AcDbEntity
  8
0
  6
CONTINUOUS
 62
     7
100
AcDbVertex
100
AcDb2dVertex
 10
9.1955157937
 20
7.3039108503
 30
0.0
  0
VERTEX
  5
385
330
255
100
AcDbEntity
  8
0
  6
CONTINUOUS
 62
     7
100
AcDbVertex
100
AcDb2dVertex
 10
9.2111642723
 20
7.282620389
 30
0.0
  0
VERTEX
  5
386
330
255
100
AcDbEntity
  8
0
  6
CONTINUOUS
 62
     7
100
AcDbVertex
100
AcDb2dVertex
 10
9.225568965
 20
7.2598008806
 30
0.0
  0
VERTEX
  5
387
330
255
100
AcDbEntity
  8
0
  6
CONTINUOUS
 62
     7
100
AcDbVertex
100
AcDb2dVertex
 10
9.2386984211
 20
7.2355021481
 30
0.0
  0
VERTEX
  5
388
330
255
100
AcDbEntity
  8
0
  6
CONTINUOUS
 62
     7
100
AcDbVertex
100
AcDb2dVertex
 10
9.2505239745
 20
7.2097772444
 30
0.0
  0
VERTEX
  5
389
330
255
100
AcDbEntity
  8
0
  6
CONTINUOUS
 62
     7
100
AcDbVertex
100
AcDb2dVertex
 10
9.2610198056
 20
7.1826823361
 30
0.0
  0
VERTEX
  5
38A
330
255
100
AcDbEntity
  8
0
  6
CONTINUOUS
 62
     7
100
AcDbVertex
100
AcDb2dVertex
 10
9.2701629983
 20
7.1542765811
 30
0.0
  0
VERTEX
  5
38B
330
255
100
AcDbEntity
  8
0
  6
CONTINUOUS
 62
     7
100
AcDbVertex
100
AcDb2dVertex
 10
9.2779335899
 20
7.1246219993
 30
0.0
  0
VERTEX
  5
38C
330
255
100
AcDbEntity
  8
0
  6
CONTINUOUS
 62
     7
100
AcDbVertex
100
AcDb2dVertex
 10
9.2843146142
 20
7.0937833373
 30
0.0
  0
VERTEX
  5
38D
330
255
100
AcDbEntity
  8
0
  6
CONTINUOUS
 62
     7
100
AcDbVertex
100
AcDb2dVertex
 10
9.2892921392
 20
7.0618279268
 30
0.0
  0
VERTEX
  5
38E
330
255
100
AcDbEntity
  8
0
  6
CONTINUOUS
 62
     7
100
AcDbVertex
100
AcDb2dVertex
 10
9.2928552973
 20
7.0288255379
 30
0.0
  0
VERTEX
  5
38F
330
255
100
AcDbEntity
  8
0
  6
CONTINUOUS
 62
     7
100
AcDbVertex
100
AcDb2dVertex
 10
9.2949963088
 20
6.9948482266
 30
0.0
  0
VERTEX
  5
390
330
255
100
AcDbEntity
  8
0
  6
CONTINUOUS
 62
     7
100
AcDbVertex
100
AcDb2dVertex
 10
9.2957104991
 20
6.9599701776
 30
0.0
  0
SEQEND
  5
391
330
255
100
AcDbEntity
  8
0
  6
CONTINUOUS
 62
     7
  0
POLYLINE
  5
256
330
1F
100
AcDbEntity
  8
0
  6
CONTINUOUS
 62
     7
100
AcDb2dPolyline
 66
     1
 10
0.0
 20
0.0
 30
0.0
  0
VERTEX
  5
392
330
256
100
AcDbEntity
  8
0
  6
CONTINUOUS
 62
     7
100
AcDbVertex
100
AcDb2dVertex
 10
8.6416038602
 20
5.8269014752
 30
0.0
  0
VERTEX
  5
393
330
256
100
AcDbEntity
  8
0
  6
CONTINUOUS
 62
     7
100
AcDbVertex
100
AcDb2dVertex
 10
8.6296921933
 20
5.8201480151
 30
0.0
  0
VERTEX
  5
394
330
256
100
AcDbEntity
  8
0
  6
CONTINUOUS
 62
     7
100
AcDbVertex
100
AcDb2dVertex
 10
8.5991493796
 20
5.8039774281
 30
0.0
  0
VERTEX
  5
395
330
256
100
AcDbEntity
  8
0
  6
CONTINUOUS
 62
     7
100
AcDbVertex
100
AcDb2dVertex
 10
8.5686990271
 20
5.7895061996
 30
0.0
  0
VERTEX
  5
396
330
256
100
AcDbEntity
  8
0
  6
CONTINUOUS
 62
     7
100
AcDbVertex
100
AcDb2dVertex
 10
8.5384076196
 20
5.7767659254
 30
0.0
  0
VERTEX
  5
397
330
256
100
AcDbEntity
  8
0
  6
CONTINUOUS
 62
     7
100
AcDbVertex
100
AcDb2dVertex
 10
8.5083412943
 20
5.7657844221
 30
0.0
  0
VERTEX
  5
398
330
256
100
AcDbEntity
  8
0
  6
CONTINUOUS
 62
     7
100
AcDbVertex
100
AcDb2dVertex
 10
8.4785656966
 20
5.7565856662
 30
0.0
  0
VERTEX
  5
399
330
256
100
AcDbEntity
  8
0
  6
CONTINUOUS
 62
     7
100
AcDbVertex
100
AcDb2dVertex
 10
8.4491458372
 20
5.749189742
 30
0.0
  0
VERTEX
  5
39A
330
256
100
AcDbEntity
  8
0
  6
CONTINUOUS
 62
     7
100
AcDbVertex
100
AcDb2dVertex
 10
8.4201459504
 20
5.7436127973
 30
0.0
  0
VERTEX
  5
39B
330
256
100
AcDbEntity
  8
0
  6
CONTINUOUS
 62
     7
100
AcDbVertex
100
AcDb2dVertex
 10
8.391629353
 20
5.7398670087
 30
0.0
  0
VERTEX
  5
39C
330
256
100
AcDbEntity
  8
0
  6
CONTINUOUS
 62
     7
100
AcDbVertex
100
AcDb2dVertex
 10
8.3636583072
 20
5.7379605544
 30
0.0
  0
VERTEX
  5
39D
330
256
100
AcDbEntity
  8
0
  6
CONTINUOUS
 62
     7
100
AcDbVertex
100
AcDb2dVertex
 10
8.3362938836
 20
5.737897597
 30
0.0
  0
VERTEX
  5
39E
330
256
100
AcDbEntity
  8
0
  6
CONTINUOUS
 62
     7
100
AcDbVertex
100
AcDb2dVertex
 10
8.3095958285
 20
5.739678274
 30
0.0
  0
VERTEX
  5
39F
330
256
100
AcDbEntity
  8
0
  6
CONTINUOUS
 62
     7
100
AcDbVertex
100
AcDb2dVertex
 10
8.2836224334
 20
5.7432986975
 30
0.0
  0
VERTEX
  5
3A0
330
256
100
AcDbEntity
  8
0
  6
CONTINUOUS
 62
     7
100
AcDbVertex
100
AcDb2dVertex
 10
8.2584304074
 20
5.7487509627
 30
0.0
  0
VERTEX
  5
3A1
330
256
100
AcDbEntity
  8
0
  6
CONTINUOUS
 62
     7
100
AcDbVertex
100
AcDb2dVertex
 10
8.2340747538
 20
5.7560231656
 30
0.0
  0
VERTEX
  5
3A2
330
256
100
AcDbEntity
  8
0
  6
CONTINUOUS
 62
     7
100
AcDbVertex
100
AcDb2dVertex
 10
8.2106086496
 20
5.7650994281
 30
0.0
  0
VERTEX
  5
3A3
330
256
100
AcDbEntity
  8
0
  6
CONTINUOUS
 62
     7
100
AcDbVertex
100
AcDb2dVertex
 10
8.1880833297
 20
5.7759599337
 30
0.0
  0
VERTEX
  5
3A4
330
256
100
AcDbEntity
  8
0
  6
CONTINUOUS
 62
     7
100
AcDbVertex
100
AcDb2dVertex
 10
8.166547975
 20
5.78858097
 30
0.0
  0
VERTEX
  5
3A5
330
256
100
AcDbEntity
  8
0
  6
CONTINUOUS
 62
     7
100
AcDbVertex
100
AcDb2dVertex
 10
8.1460496047
 20
5.8029349807
 30
0.0
  0
VERTEX
  5
3A6
330
256
100
AcDbEntity
  8
0
  6
CONTINUOUS
 62
     7
100
AcDbVertex
100
AcDb2dVertex
 10
8.1266329742
 20
5.8189906259
 30
0.0
  0
VERTEX
  5
3A7
330
256
100
AcDbEntity
  8
0
  6
CONTINUOUS
 62
     7
100
AcDbVertex
100
AcDb2dVertex
 10
8.1083404769
 20
5.8367128505
 30
0.0
  0
VERTEX
  5
3A8
330
256
100
AcDbEntity
  8
0
  6
CONTINUOUS
 62
     7
100
AcDbVertex
100
AcDb2dVertex
 10
8.0912120519
 20
5.8560629603
 30
0.0
  0
VERTEX
  5
3A9
330
256
100
AcDbEntity
  8
0
  6
CONTINUOUS
 62
     7
100
AcDbVertex
100
AcDb2dVertex
 10
8.0752850966
 20
5.8769987073
 30
0.0
  0
VERTEX
  5
3AA
330
256
100
AcDbEntity
  8
0
  6
CONTINUOUS
 62
     7
100
AcDbVertex
100
AcDb2dVertex
 10
8.0605943852
 20
5.8994743813
 30
0.0
  0
VERTEX
  5
3AB
330
256
100
AcDbEntity
  8
0
  6
CONTINUOUS
 62
     7
100
AcDbVertex
100
AcDb2dVertex
 10
8.0471719929
 20
5.9234409098
 30
0.0
  0
VERTEX
  5
3AC
330
256
100
AcDbEntity
  8
0
  6
CONTINUOUS
 62
     7
100
AcDbVertex
100
AcDb2dVertex
 10
8.0350472255
 20
5.9488459653
 30
0.0
  0
VERTEX
  5
3AD
330
256
100
AcDbEntity
  8
0
  6
CONTINUOUS
 62
     7
100
AcDbVertex
100
AcDb2dVertex
 10
8.0242465556
 20
5.9756340795
 30
0.0
  0
VERTEX
  5
3AE
330
256
100
AcDbEntity
  8
0
  6
CONTINUOUS
 62
     7
100
AcDbVertex
100
AcDb2dVertex
 10
8.0147935651
 20
6.0037467644
 30
0.0
  0
VERTEX
  5
3AF
330
256
100
AcDbEntity
  8
0
  6
CONTINUOUS
 62
     7
100
AcDbVertex
100
AcDb2dVertex
 10
8.0067088931
 20
6.03312264
 30
0.0
  0
VERTEX
  5
3B0
330
256
100
AcDbEntity
  8
0
  6
CONTINUOUS
 62
     7
100
AcDbVertex
100
AcDb2dVertex
 10
8.0000101915
 20
6.0636975682
 30
0.0
  0
VERTEX
  5
3B1
330
256
100
AcDbEntity
  8
0
  6
CONTINUOUS
 62
     7
100
AcDbVertex
100
AcDb2dVertex
 10
7.9947120858
 20
6.0954047931
 30
0.0
  0
VERTEX
  5
3B2
330
256
100
AcDbEntity
  8
0
  6
CONTINUOUS
 62
     7
100
AcDbVertex
100
AcDb2dVertex
 10
7.9908261437
 20
6.1281750864
 30
0.0
  0
VERTEX
  5
3B3
330
256
100
AcDbEntity
  8
0
  6
CONTINUOUS
 62
     7
100
AcDbVertex
100
AcDb2dVertex
 10
7.9883608496
 20
6.1619368989
 30
0.0
  0
VERTEX
  5
3B4
330
256
100
AcDbEntity
  8
0
  6
CONTINUOUS
 62
     7
100
AcDbVertex
100
AcDb2dVertex
 10
7.9873215862
 20
6.1966165165
 30
0.0
  0
SEQEND
  5
3B5
330
256
100
AcDbEntity
  8
0
  6
CONTINUOUS
 62
     7
  0
LINE
  5
257
330
1F
100
AcDbEntity
  8
0
  6
CONTINUOUS
 62
     7
100
AcDbLine
 10
7.9873215862
 20
6.1966165165
 30
0.0
 11
7.9979284905
 21
6.1966166912
 31
0.0
  0
POLYLINE
  5
258
330
1F
100
AcDbEntity
  8
0
  6
CONTINUOUS
 62
     7
100
AcDb2dPolyline
 66
     1
 10
0.0
 20
0.0
 30
0.0
  0
VERTEX
  5
3B6
330
258
100
AcDbEntity
  8
0
  6
CONTINUOUS
 62
     7
100
AcDbVertex
100
AcDb2dVertex
 10
8.6917789193
 20
7.6215706075
 30
0.0
  0
VERTEX
  5
3B7
330
258
100
AcDbEntity
  8
0
  6
CONTINUOUS
 62
     7
100
AcDbVertex
100
AcDb2dVertex
 10
8.6863621088
 20
7.6246252813
 30
0.0
  0
VERTEX
  5
3B8
330
258
100
AcDbEntity
  8
0
  6
CONTINUOUS
 62
     7
100
AcDbVertex
100
AcDb2dVertex
 10
8.6639239423
 20
7.6358215681
 30
0.0
  0
VERTEX
  5
3B9
330
258
100
AcDbEntity
  8
0
  6
CONTINUOUS
 62
     7
100
AcDbVertex
100
AcDb2dVertex
 10
8.6405301981
 20
7.6452251723
 30
0.0
  0
VERTEX
  5
3BA
330
258
100
AcDbEntity
  8
0
  6
CONTINUOUS
 62
     7
100
AcDbVertex
100
AcDb2dVertex
 10
8.6162323005
 20
7.6528154228
 30
0.0
  0
VERTEX
  5
3BB
330
258
100
AcDbEntity
  8
0
  6
CONTINUOUS
 62
     7
100
AcDbVertex
100
AcDb2dVertex
 10
8.5910836617
 20
7.6585756346
 30
0.0
  0
VERTEX
  5
3BC
330
258
100
AcDbEntity
  8
0
  6
CONTINUOUS
 62
     7
100
AcDbVertex
100
AcDb2dVertex
 10
8.5651395638
 20
7.6624931454
 30
0.0
  0
VERTEX
  5
3BD
330
258
100
AcDbEntity
  8
0
  6
CONTINUOUS
 62
     7
100
AcDbVertex
100
AcDb2dVertex
 10
8.5384570377
 20
7.6645593438
 30
0.0
  0
VERTEX
  5
3BE
330
258
100
AcDbEntity
  8
0
  6
CONTINUOUS
 62
     7
100
AcDbVertex
100
AcDb2dVertex
 10
8.5110947372
 20
7.6647696877
 30
0.0
  0
VERTEX
  5
3BF
330
258
100
AcDbEntity
  8
0
  6
CONTINUOUS
 62
     7
100
AcDbVertex
100
AcDb2dVertex
 10
8.4831128107
 20
7.6631237148
 30
0.0
  0
VERTEX
  5
3C0
330
258
100
AcDbEntity
  8
0
  6
CONTINUOUS
 62
     7
100
AcDbVertex
100
AcDb2dVertex
 10
8.4545727684
 20
7.6596250432
 30
0.0
  0
VERTEX
  5
3C1
330
258
100
AcDbEntity
  8
0
  6
CONTINUOUS
 62
     7
100
AcDbVertex
100
AcDb2dVertex
 10
8.4255373477
 20
7.6542813639
 30
0.0
  0
VERTEX
  5
3C2
330
258
100
AcDbEntity
  8
0
  6
CONTINUOUS
 62
     7
100
AcDbVertex
100
AcDb2dVertex
 10
8.3960703746
 20
7.6471044234
 30
0.0
  0
VERTEX
  5
3C3
330
258
100
AcDbEntity
  8
0
  6
CONTINUOUS
 62
     7
100
AcDbVertex
100
AcDb2dVertex
 10
8.366236624
 20
7.6381099982
 30
0.0
  0
VERTEX
  5
3C4
330
258
100
AcDbEntity
  8
0
  6
CONTINUOUS
 62
     7
100
AcDbVertex
100
AcDb2dVertex
 10
8.3361016769
 20
7.62731786
 30
0.0
  0
VERTEX
  5
3C5
330
258
100
AcDbEntity
  8
0
  6
CONTINUOUS
 62
     7
100
AcDbVertex
100
AcDb2dVertex
 10
8.3057317765
 20
7.6147517321
 30
0.0
  0
VERTEX
  5
3C6
330
258
100
AcDbEntity
  8
0
  6
CONTINUOUS
 62
     7
100
AcDbVertex
100
AcDb2dVertex
 10
8.2751936824
 20
7.6004392378
 30
0.0
  0
VERTEX
  5
3C7
330
258
100
AcDbEntity
  8
0
  6
CONTINUOUS
 62
     7
100
AcDbVertex
100
AcDb2dVertex
 10
8.2445545239
 20
7.584411839
 30
0.0
  0
VERTEX
  5
3C8
330
258
100
AcDbEntity
  8
0
  6
CONTINUOUS
 62
     7
100
AcDbVertex
100
AcDb2dVertex
 10
8.2138816527
 20
7.5667047673
 30
0.0
  0
VERTEX
  5
3C9
330
258
100
AcDbEntity
  8
0
  6
CONTINUOUS
 62
     7
100
AcDbVertex
100
AcDb2dVertex
 10
8.1832424942
 20
7.5473569468
 30
0.0
  0
VERTEX
  5
3CA
330
258
100
AcDbEntity
  8
0
  6
CONTINUOUS
 62
     7
100
AcDbVertex
100
AcDb2dVertex
 10
8.1527044001
 20
7.5264109082
 30
0.0
  0
VERTEX
  5
3CB
330
258
100
AcDbEntity
  8
0
  6
CONTINUOUS
 62
     7
100
AcDbVertex
100
AcDb2dVertex
 10
8.1223344997
 20
7.5039126953
 30
0.0
  0
VERTEX
  5
3CC
330
258
100
AcDbEntity
  8
0
  6
CONTINUOUS
 62
     7
100
AcDbVertex
100
AcDb2dVertex
 10
8.0921995526
 20
7.4799117643
 30
0.0
  0
VERTEX
  5
3CD
330
258
100
AcDbEntity
  8
0
  6
CONTINUOUS
 62
     7
100
AcDbVertex
100
AcDb2dVertex
 10
8.062365802
 20
7.4544608742
 30
0.0
  0
VERTEX
  5
3CE
330
258
100
AcDbEntity
  8
0
  6
CONTINUOUS
 62
     7
100
AcDbVertex
100
AcDb2dVertex
 10
8.0328988289
 20
7.4276159718
 30
0.0
  0
VERTEX
  5
3CF
330
258
100
AcDbEntity
  8
0
  6
CONTINUOUS
 62
     7
100
AcDbVertex
100
AcDb2dVertex
 10
8.0038634082
 20
7.3994360679
 30
0.0
  0
VERTEX
  5
3D0
330
258
100
AcDbEntity
  8
0
  6
CONTINUOUS
 62
     7
100
AcDbVertex
100
AcDb2dVertex
 10
7.975323366
 20
7.369983108
 30
0.0
  0
VERTEX
  5
3D1
330
258
100
AcDbEntity
  8
0
  6
CONTINUOUS
 62
     7
100
AcDbVertex
100
AcDb2dVertex
 10
7.9473414394
 20
7.3393218362
 30
0.0
  0
VERTEX
  5
3D2
330
258
100
AcDbEntity
  8
0
  6
CONTINUOUS
 62
     7
100
AcDbVertex
100
AcDb2dVertex
 10
7.9199791389
 20
7.3075196526
 30
0.0
  0
VERTEX
  5
3D3
330
258
100
AcDbEntity
  8
0
  6
CONTINUOUS
 62
     7
100
AcDbVertex
100
AcDb2dVertex
 10
7.8932966128
 20
7.2746464653
 30
0.0
  0
VERTEX
  5
3D4
330
258
100
AcDbEntity
  8
0
  6
CONTINUOUS
 62
     7
100
AcDbVertex
100
AcDb2dVertex
 10
7.8673525149
 20
7.2407745367
 30
0.0
  0
VERTEX
  5
3D5
330
258
100
AcDbEntity
  8
0
  6
CONTINUOUS
 62
     7
100
AcDbVertex
100
AcDb2dVertex
 10
7.8422038761
 20
7.2059783246
 30
0.0
  0
VERTEX
  5
3D6
330
258
100
AcDbEntity
  8
0
  6
CONTINUOUS
 62
     7
100
AcDbVertex
100
AcDb2dVertex
 10
7.8179059786
 20
7.1703343187
 30
0.0
  0
VERTEX
  5
3D7
330
258
100
AcDbEntity
  8
0
  6
CONTINUOUS
 62
     7
100
AcDbVertex
100
AcDb2dVertex
 10
7.7945122343
 20
7.1339208723
 30
0.0
  0
VERTEX
  5
3D8
330
258
100
AcDbEntity
  8
0
  6
CONTINUOUS
 62
     7
100
AcDbVertex
100
AcDb2dVertex
 10
7.7720740678
 20
7.0968180299
 30
0.0
  0
VERTEX
  5
3D9
330
258
100
AcDbEntity
  8
0
  6
CONTINUOUS
 62
     7
100
AcDbVertex
100
AcDb2dVertex
 10
7.7506408031
 20
7.0591073517
 30
0.0
  0
VERTEX
  5
3DA
330
258
100
AcDbEntity
  8
0
  6
CONTINUOUS
 62
     7
100
AcDbVertex
100
AcDb2dVertex
 10
7.7302595552
 20
7.020871734
 30
0.0
  0
VERTEX
  5
3DB
330
258
100
AcDbEntity
  8
0
  6
CONTINUOUS
 62
     7
100
AcDbVertex
100
AcDb2dVertex
 10
7.7109751264
 20
6.9821952269
 30
0.0
  0
VERTEX
  5
3DC
330
258
100
AcDbEntity
  8
0
  6
CONTINUOUS
 62
     7
100
AcDbVertex
100
AcDb2dVertex
 10
7.692829908
 20
6.9431628498
 30
0.0
  0
VERTEX
  5
3DD
330
258
100
AcDbEntity
  8
0
  6
CONTINUOUS
 62
     7
100
AcDbVertex
100
AcDb2dVertex
 10
7.6758637874
 20
6.9038604043
 30
0.0
  0
VERTEX
  5
3DE
330
258
100
AcDbEntity
  8
0
  6
CONTINUOUS
 62
     7
100
AcDbVertex
100
AcDb2dVertex
 10
7.6601140595
 20
6.8643742857
 30
0.0
  0
VERTEX
  5
3DF
330
258
100
AcDbEntity
  8
0
  6
CONTINUOUS
 62
     7
100
AcDbVertex
100
AcDb2dVertex
 10
7.6456153459
 20
6.8247912932
 30
0.0
  0
VERTEX
  5
3E0
330
258
100
AcDbEntity
  8
0
  6
CONTINUOUS
 62
     7
100
AcDbVertex
100
AcDb2dVertex
 10
7.6323995177
 20
6.7851984386
 30
0.0
  0
VERTEX
  5
3E1
330
258
100
AcDbEntity
  8
0
  6
CONTINUOUS
 62
     7
100
AcDbVertex
100
AcDb2dVertex
 10
7.6204956263
 20
6.7456827557
 30
0.0
  0
VERTEX
  5
3E2
330
258
100
AcDbEntity
  8
0
  6
CONTINUOUS
 62
     7
100
AcDbVertex
100
AcDb2dVertex
 10
7.6099298389
 20
6.7063311085
 30
0.0
  0
VERTEX
  5
3E3
330
258
100
AcDbEntity
  8
0
  6
CONTINUOUS
 62
     7
100
AcDbVertex
100
AcDb2dVertex
 10
7.6007253815
 20
6.6672300005
 30
0.0
  0
VERTEX
  5
3E4
330
258
100
AcDbEntity
  8
0
  6
CONTINUOUS
 62
     7
100
AcDbVertex
100
AcDb2dVertex
 10
7.5929024875
 20
6.6284653845
 30
0.0
  0
VERTEX
  5
3E5
330
258
100
AcDbEntity
  8
0
  6
CONTINUOUS
 62
     7
100
AcDbVertex
100
AcDb2dVertex
 10
7.5864783533
 20
6.5901224733
 30
0.0
  0
VERTEX
  5
3E6
330
258
100
AcDbEntity
  8
0
  6
CONTINUOUS
 62
     7
100
AcDbVertex
100
AcDb2dVertex
 10
7.5814671005
 20
6.5522855532
 30
0.0
  0
VERTEX
  5
3E7
330
258
100
AcDbEntity
  8
0
  6
CONTINUOUS
 62
     7
100
AcDbVertex
100
AcDb2dVertex
 10
7.577879745
 20
6.5150377978
 30
0.0
  0
VERTEX
  5
3E8
330
258
100
AcDbEntity
  8
0
  6
CONTINUOUS
 62
     7
100
AcDbVertex
100
AcDb2dVertex
 10
7.5757241725
 20
6.4784610859
 30
0.0
  0
VERTEX
  5
3E9
330
258
100
AcDbEntity
  8
0
  6
CONTINUOUS
 62
     7
100
AcDbVertex
100
AcDb2dVertex
 10
7.5750051215
 20
6.4426358208
 30
0.0
  0
VERTEX
  5
3EA
330
258
100
AcDbEntity
  8
0
  6
CONTINUOUS
 62
     7
100
AcDbVertex
100
AcDb2dVertex
 10
7.5757241725
 20
6.4076407545
 30
0.0
  0
VERTEX
  5
3EB
330
258
100
AcDbEntity
  8
0
  6
CONTINUOUS
 62
     7
100
AcDbVertex
100
AcDb2dVertex
 10
7.577879745
 20
6.3735528135
 30
0.0
  0
VERTEX
  5
3EC
330
258
100
AcDbEntity
  8
0
  6
CONTINUOUS
 62
     7
100
AcDbVertex
100
AcDb2dVertex
 10
7.5814671005
 20
6.3404469307
 30
0.0
  0
VERTEX
  5
3ED
330
258
100
AcDbEntity
  8
0
  6
CONTINUOUS
 62
     7
100
AcDbVertex
100
AcDb2dVertex
 10
7.5864783533
 20
6.3083958799
 30
0.0
  0
VERTEX
  5
3EE
330
258
100
AcDbEntity
  8
0
  6
CONTINUOUS
 62
     7
100
AcDbVertex
100
AcDb2dVertex
 10
7.5929024875
 20
6.2774701163
 30
0.0
  0
VERTEX
  5
3EF
330
258
100
AcDbEntity
  8
0
  6
CONTINUOUS
 62
     7
100
AcDbVertex
100
AcDb2dVertex
 10
7.6007253815
 20
6.2477376214
 30
0.0
  0
VERTEX
  5
3F0
330
258
100
AcDbEntity
  8
0
  6
CONTINUOUS
 62
     7
100
AcDbVertex
100
AcDb2dVertex
 10
7.6099298389
 20
6.2192637537
 30
0.0
  0
VERTEX
  5
3F1
330
258
100
AcDbEntity
  8
0
  6
CONTINUOUS
 62
     7
100
AcDbVertex
100
AcDb2dVertex
 10
7.6204956263
 20
6.1921111049
 30
0.0
  0
VERTEX
  5
3F2
330
258
100
AcDbEntity
  8
0
  6
CONTINUOUS
 62
     7
100
AcDbVertex
100
AcDb2dVertex
 10
7.6323995177
 20
6.1663393625
 30
0.0
  0
VERTEX
  5
3F3
330
258
100
AcDbEntity
  8
0
  6
CONTINUOUS
 62
     7
100
AcDbVertex
100
AcDb2dVertex
 10
7.6456153459
 20
6.1420051783
 30
0.0
  0
VERTEX
  5
3F4
330
258
100
AcDbEntity
  8
0
  6
CONTINUOUS
 62
     7
100
AcDbVertex
100
AcDb2dVertex
 10
7.6601140595
 20
6.1191620442
 30
0.0
  0
VERTEX
  5
3F5
330
258
100
AcDbEntity
  8
0
  6
CONTINUOUS
 62
     7
100
AcDbVertex
100
AcDb2dVertex
 10
7.6758637874
 20
6.0978601744
 30
0.0
  0
VERTEX
  5
3F6
330
258
100
AcDbEntity
  8
0
  6
CONTINUOUS
 62
     7
100
AcDbVertex
100
AcDb2dVertex
 10
7.692829908
 20
6.0781463948
 30
0.0
  0
VERTEX
  5
3F7
330
258
100
AcDbEntity
  8
0
  6
CONTINUOUS
 62
     7
100
AcDbVertex
100
AcDb2dVertex
 10
7.7109751264
 20
6.0600640409
 30
0.0
  0
VERTEX
  5
3F8
330
258
100
AcDbEntity
  8
0
  6
CONTINUOUS
 62
     7
100
AcDbVertex
100
AcDb2dVertex
 10
7.7302595552
 20
6.0436528613
 30
0.0
  0
VERTEX
  5
3F9
330
258
100
AcDbEntity
  8
0
  6
CONTINUOUS
 62
     7
100
AcDbVertex
100
AcDb2dVertex
 10
7.7506408031
 20
6.0289489316
 30
0.0
  0
VERTEX
  5
3FA
330
258
100
AcDbEntity
  8
0
  6
CONTINUOUS
 62
     7
100
AcDbVertex
100
AcDb2dVertex
 10
7.7666572573
 20
6.0190392479
 30
0.0
  0
SEQEND
  5
3FB
330
258
100
AcDbEntity
  8
0
  6
CONTINUOUS
 62
     7
  0
SPLINE
  5
259
330
1F
100
AcDbEntity
  8
0
  6
CONTINUOUS
 62
     7
100
AcDbSpline
210
0.0
220
0.0
230
1.0
 70
     8
 71
     3
 72
    86
 73
    82
 74
     0
 42
0.00000001
 43
0.00000001
 40
-0.0312499999999998
 40
-0.0312499999999998
 40
0.0
 40
0.0
 40
0.0312499999999999
 40
0.0312499999999999
 40
0.046875
 40
0.046875
 40
0.0625000000000001
 40
0.0625000000000001
 40
0.0781250000000002
 40
0.0781250000000002
 40
0.0937500000000002
 40
0.0937500000000002
 40
0.1250000000000007
 40
0.1250000000000007
 40
0.1562500000000011
 40
0.1562500000000011
 40
0.1875000000000016
 40
0.1875000000000016
 40
0.2187500000000021
 40
0.2187500000000021
 40
0.2500000000000025
 40
0.2500000000000025
 40
0.2812500000000029
 40
0.2812500000000029
 40
0.3125000000000032
 40
0.3125000000000032
 40
0.3437500000000035
 40
0.3437500000000035
 40
0.3750000000000038
 40
0.3750000000000038
 40
0.4062500000000041
 40
0.4062500000000041
 40
0.4218750000000039
 40
0.4218750000000039
 40
0.4375000000000038
 40
0.4375000000000038
 40
0.4531250000000036
 40
0.4531250000000036
 40
0.4687500000000034
 40
0.4687500000000034
 40
0.4843750000000033
 40
0.4843750000000033
 40
0.5000000000000031
 40
0.5000000000000031
 40
0.515625000000003
 40
0.515625000000003
 40
0.5312500000000028
 40
0.5312500000000028
 40
0.5468750000000027
 40
0.5468750000000027
 40
0.5625000000000024
 40
0.5625000000000024
 40
0.593750000000002
 40
0.593750000000002
 40
0.6093750000000019
 40
0.6093750000000019
 40
0.6250000000000017
 40
0.6250000000000017
 40
0.6562500000000013
 40
0.6562500000000013
 40
0.6875000000000011
 40
0.6875000000000011
 40
0.7187500000000009
 40
0.7187500000000009
 40
0.7500000000000007
 40
0.7500000000000007
 40
0.8125000000000008
 40
0.8125000000000008
 40
0.8437500000000008
 40
0.8437500000000008
 40
0.8750000000000008
 40
0.8750000000000008
 40
0.8906250000000006
 40
0.8906250000000006
 40
0.9062500000000004
 40
0.9062500000000004
 40
0.9375000000000003
 40
0.9375000000000003
 40
0.9687500000000002
 40
0.9687500000000002
 40
1.0
 40
1.0
 40
1.03125
 40
1.03125
 10
8.213550252701408
 20
7.112410146063384
 30
0.0
 10
8.199657030892148
 20
7.120430532295148
 30
0.0
 10
8.192079609804113
 20
7.123377008394152
 30
0.0
 10
8.179822879271462
 20
7.126270062752556
 30
0.0
 10
8.175555485740025
 20
7.126978736671859
 30
0.0
 10
8.166908842483194
 20
7.127843753287038
 30
0.0
 10
8.162528716711611
 20
7.128005620623421
 30
0.0
 10
8.153664700397938
 20
7.127809982679785
 30
0.0
 10
8.14918077447283
 20
7.127452347769364
 30
0.0
 10
8.140115446211531
 20
7.126218731420603
 30
0.0
 10
8.135540299939581
 20
7.125339776398025
 30
0.0
 10
8.122006488960889
 20
7.122008479416959
 30
0.0
 10
8.113126414566015
 20
7.118855979995764
 30
0.0
 10
8.095670175923178
 20
7.110784392996334
 30
0.0
 10
8.08733258626352
 20
7.105973141353804
 30
0.0
 10
8.0714364064092
 20
7.095005019047764
 30
0.0
 10
8.063819437143994
 20
7.088786545405988
 30
0.0
 10
8.049721718235908
 20
7.075424898840863
 30
0.0
 10
8.043196368004923
 20
7.068263017689477
 30
0.0
 10
8.031113193096035
 20
7.053049510425686
 30
0.0
 10
8.025560313372809
 20
7.04498449121956
 30
0.0
 10
8.015653895724014
 20
7.02843743806774
 30
0.0
 10
8.011255814898368
 20
7.019903292108773
 30
0.0
 10
8.003522728693488
 20
7.002335691611798
 30
0.0
 10
8.000178560653266
 20
6.993252773524662
 30
0.0
 10
7.994714505017329
 20
6.975039149013986
 30
0.0
 10
7.992569067604473
 20
6.965865887569276
 30
0.0
 10
7.989473940809436
 20
6.947396931139564
 30
0.0
 10
7.988521840381138
 20
6.93810126014018
 30
0.0
 10
7.987982820641001
 20
6.919391890287001
 30
0.0
 10
7.988402332900268
 20
6.910186600855825
 30
0.0
 10
7.990214688587746
 20
6.896712565106598
 30
0.0
 10
7.991017577841879
 20
6.892275246687056
 30
0.0
 10
7.993076244395297
 20
6.883530536955944
 30
0.0
 10
7.994335684901357
 20
6.879224210623321
 30
0.0
 10
7.997307818258968
 20
6.870973618255984
 30
0.0
 10
7.999025175235509
 20
6.867004164136716
 30
0.0
 10
8.002982168049392
 20
6.859427466748911
 30
0.0
 10
8.005243418981891
 20
6.855792394209226
 30
0.0
 10
8.010269770241873
 20
6.849108239058149
 30
0.0
 10
8.013019218945564
 20
6.846069499624484
 30
0.0
 10
8.019019836837945
 20
6.840645564247825
 30
0.0
 10
8.022308436463938
 20
6.838241265009619
 30
0.0
 10
8.029232768919307
 20
6.834267234605904
 30
0.0
 10
8.032853502025683
 20
6.83269318134781
 30
0.0
 10
8.040398056175889
 20
6.830328545077389
 30
0.0
 10
8.044357290133656
 20
6.829536561535754
 30
0.0
 10
8.052372977047021
 20
6.828729762025134
 30
0.0
 10
8.056425190288339
 20
6.828705702373405
 30
0.0
 10
8.064614365230668
 20
6.829316241218332
 30
0.0
 10
8.068776667906208
 20
6.829958742307238
 30
0.0
 10
8.081122180668688
 20
6.832708532540324
 30
0.0
 10
8.089215441669646
 20
6.835610055076689
 30
0.0
 10
8.101246287830486
 20
6.841153306354631
 30
0.0
 10
8.105255709845252
 20
6.843214210520082
 30
0.0
 10
8.11314024587866
 20
6.84764523862602
 30
0.0
 10
8.117016244804123
 20
6.850013385908047
 30
0.0
 10
8.128476683259281
 20
6.8575204337778
 30
0.0
 10
8.135895710413555
 20
6.863057596032132
 30
0.0
 10
8.15038148770532
 20
6.875053403650699
 30
0.0
 10
8.157487942626876
 20
6.881558703151509
 30
0.0
 10
8.171058984319918
 20
6.895147115342998
 30
0.0
 10
8.177551771106044
 20
6.902247215070099
 30
0.0
 10
8.18996858034212
 20
6.917045814544954
 30
0.0
 10
8.195919877666727
 20
6.924783598845728
 30
0.0
 10
8.212656718445206
 20
6.948714822235401
 30
0.0
 10
8.222108520907549
 20
6.965197521362995
 30
0.0
 10
8.233146998624767
 20
6.990964198928078
 30
0.0
 10
8.236299377393664
 20
6.999798932114465
 30
0.0
 10
8.241068200689478
 20
7.017194287153937
 30
0.0
 10
8.2427270693438
 20
7.025827364198718
 30
0.0
 10
8.243936841387368
 20
7.038702723124185
 30
0.0
 10
8.244122121534406
 20
7.042991730406068
 30
0.0
 10
8.244021913150045
 20
7.05133345961517
 30
0.0
 10
8.243740302317955
 20
7.055412732050179
 30
0.0
 10
8.24217427313217
 20
7.067378966936121
 30
0.0
 10
8.240164918935365
 20
7.075032875629701
 30
0.0
 10
8.233950960238165
 20
7.089419522676759
 30
0.0
 10
8.22987359183461
 20
7.095882124329571
 30
0.0
 10
8.2197173149191
 20
7.10736463112244
 30
0.0
 10
8.213550252701408
 20
7.112410146063384
 30
0.0
 10
8.199657030892148
 20
7.120430532295148
 30
0.0
  0
SPLINE
  5
25A
330
1F
100
AcDbEntity
  8
0
  6
CONTINUOUS
 62
     7
100
AcDbSpline
210
0.0
220
0.0
230
1.0
 70
     8
 71
     3
 72
    10
 73
     6
 74
     0
 42
0.00000001
 43
0.00000001
 40
0.0
 40
0.0
 40
0.0
 40
0.0
 40
0.2476414290047681
 40
0.5041780579077721
 40
1.0
 40
1.0
 40
1.0
 40
1.0
 10
8.060449681118454
 20
5.849565423056989
 30
0.0
 10
8.062987395991362
 20
5.848097139770791
 30
0.0
 10
8.068153979633234
 20
5.845107832938453
 30
0.0
 10
8.079668546526715
 20
5.838389898057499
 30
0.0
 10
8.088801997801934
 20
5.833088488650156
 30
0.0
 10
8.094821156383848
 20
5.829594735525634
 30
0.0
  0
SPLINE
  5
25B
330
1F
100
AcDbEntity
  8
0
  6
CONTINUOUS
 62
     7
100
AcDbSpline
210
0.0
220
0.0
230
1.0
 70
     8
 71
     3
 72
    10
 73
     6
 74
     0
 42
0.00000001
 43
0.00000001
 40
0.0
 40
0.0
 40
0.0
 40
0.0
 40
0.2392195901658451
 40
0.5117709072389554
 40
1.0
 40
1.0
 40
1.0
 40
1.0
 10
8.040402012142973
 20
5.861012035936945
 30
0.0
 10
8.041298350133724
 20
5.860498282433947
 30
0.0
 10
8.043215917613885
 20
5.859399191443349
 30
0.0
 10
8.049062063360436
 20
5.856103315314397
 30
0.0
 10
8.055998340856307
 20
5.852121039486464
 30
0.0
 10
8.060449681118454
 20
5.849565423056989
 30
0.0
  0
POLYLINE
  5
25C
330
1F
100
AcDbEntity
  8
0
  6
CONTINUOUS
 62
     7
100
AcDb2dPolyline
 66
     1
 10
0.0
 20
0.0
 30
0.0
  0
VERTEX
  5
3FC
330
25C
100
AcDbEntity
  8
0
  6
CONTINUOUS
 62
     7
100
AcDbVertex
100
AcDb2dVertex
 10
7.7669306931
 20
6.323845471
 30
0.0
  0
VERTEX
  5
3FD
330
25C
100
AcDbEntity
  8
0
  6
CONTINUOUS
 62
     7
100
AcDbVertex
100
AcDb2dVertex
 10
7.7679847579
 20
6.2888778131
 30
0.0
  0
VERTEX
  5
3FE
330
25C
100
AcDbEntity
  8
0
  6
CONTINUOUS
 62
     7
100
AcDbVertex
100
AcDb2dVertex
 10
7.7704889171
 20
6.2548441088
 30
0.0
  0
VERTEX
  5
3FF
330
25C
100
AcDbEntity
  8
0
  6
CONTINUOUS
 62
     7
100
AcDbVertex
100
AcDb2dVertex
 10
7.7744376108
 20
6.2218199212
 30
0.0
  0
VERTEX
  5
400
330
25C
100
AcDbEntity
  8
0
  6
CONTINUOUS
 62
     7
100
AcDbVertex
100
AcDb2dVertex
 10
7.7798220721
 20
6.1898785724
 30
0.0
  0
VERTEX
  5
401
330
25C
100
AcDbEntity
  8
0
  6
CONTINUOUS
 62
     7
100
AcDbVertex
100
AcDb2dVertex
 10
7.7866303459
 20
6.1590909801
 30
0.0
  0
VERTEX
  5
402
330
25C
100
AcDbEntity
  8
0
  6
CONTINUOUS
 62
     7
100
AcDbVertex
100
AcDb2dVertex
 10
7.7948473163
 20
6.1295255007
 30
0.0
  0
VERTEX
  5
403
330
25C
100
AcDbEntity
  8
0
  6
CONTINUOUS
 62
     7
100
AcDbVertex
100
AcDb2dVertex
 10
7.8044547395
 20
6.1012477768
 30
0.0
  0
VERTEX
  5
404
330
25C
100
AcDbEntity
  8
0
  6
CONTINUOUS
 62
     7
100
AcDbVertex
100
AcDb2dVertex
 10
7.8154312847
 20
6.0743205921
 30
0.0
  0
VERTEX
  5
405
330
25C
100
AcDbEntity
  8
0
  6
CONTINUOUS
 62
     7
100
AcDbVertex
100
AcDb2dVertex
 10
7.8277525811
 20
6.0488037317
 30
0.0
  0
VERTEX
  5
406
330
25C
100
AcDbEntity
  8
0
  6
CONTINUOUS
 62
     7
100
AcDbVertex
100
AcDb2dVertex
 10
7.8413912723
 20
6.0247538495
 30
0.0
  0
VERTEX
  5
407
330
25C
100
AcDbEntity
  8
0
  6
CONTINUOUS
 62
     7
100
AcDbVertex
100
AcDb2dVertex
 10
7.8563170771
 20
6.0022243421
 30
0.0
  0
VERTEX
  5
408
330
25C
100
AcDbEntity
  8
0
  6
CONTINUOUS
 62
     7
100
AcDbVertex
100
AcDb2dVertex
 10
7.8724968564
 20
5.9812652308
 30
0.0
  0
VERTEX
  5
409
330
25C
100
AcDbEntity
  8
0
  6
CONTINUOUS
 62
     7
100
AcDbVertex
100
AcDb2dVertex
 10
7.889894687
 20
5.96192305
 30
0.0
  0
VERTEX
  5
40A
330
25C
100
AcDbEntity
  8
0
  6
CONTINUOUS
 62
     7
100
AcDbVertex
100
AcDb2dVertex
 10
7.9084719415
 20
5.9442407443
 30
0.0
  0
VERTEX
  5
40B
330
25C
100
AcDbEntity
  8
0
  6
CONTINUOUS
 62
     7
100
AcDbVertex
100
AcDb2dVertex
 10
7.9281873736
 20
5.9282575728
 30
0.0
  0
VERTEX
  5
40C
330
25C
100
AcDbEntity
  8
0
  6
CONTINUOUS
 62
     7
100
AcDbVertex
100
AcDb2dVertex
 10
7.9489972101
 20
5.9140090222
 30
0.0
  0
VERTEX
  5
40D
330
25C
100
AcDbEntity
  8
0
  6
CONTINUOUS
 62
     7
100
AcDbVertex
100
AcDb2dVertex
 10
7.9585458081
 20
5.9082643454
 30
0.0
  0
SEQEND
  5
40E
330
25C
100
AcDbEntity
  8
0
  6
CONTINUOUS
 62
     7
  0
LINE
  5
25D
330
1F
100
AcDbEntity
  8
0
  6
CONTINUOUS
 62
     7
100
AcDbLine
 10
7.9873215862
 20
6.1966165165
 30
0.0
 11
7.7669306931
 21
6.323845471
 31
0.0
  0
LINE
  5
25E
330
1F
100
AcDbEntity
  8
0
  6
CONTINUOUS
 62
     7
100
AcDbLine
 10
7.9873215862
 20
6.2126901546
 30
0.0
 11
7.7669306931
 21
6.339919109
 31
0.0
  0
POLYLINE
  5
25F
330
1F
100
AcDbEntity
  8
0
  6
CONTINUOUS
 62
     7
100
AcDb2dPolyline
 66
     1
 10
0.0
 20
0.0
 30
0.0
  0
VERTEX
  5
40F
330
25F
100
AcDbEntity
  8
0
  6
CONTINUOUS
 62
     7
100
AcDbVertex
100
AcDb2dVertex
 10
8.7151544886
 20
7.5541308083
 30
0.0
  0
VERTEX
  5
410
330
25F
100
AcDbEntity
  8
0
  6
CONTINUOUS
 62
     7
100
AcDbVertex
100
AcDb2dVertex
 10
8.6872987574
 20
7.5532961303
 30
0.0
  0
VERTEX
  5
411
330
25F
100
AcDbEntity
  8
0
  6
CONTINUOUS
 62
     7
100
AcDbVertex
100
AcDb2dVertex
 10
8.6588520129
 20
7.5505880799
 30
0.0
  0
VERTEX
  5
412
330
25F
100
AcDbEntity
  8
0
  6
CONTINUOUS
 62
     7
100
AcDbVertex
100
AcDb2dVertex
 10
8.629877414
 20
7.5460126697
 30
0.0
  0
VERTEX
  5
413
330
25F
100
AcDbEntity
  8
0
  6
CONTINUOUS
 62
     7
100
AcDbVertex
100
AcDb2dVertex
 10
8.6004392916
 20
7.539580058
 30
0.0
  0
VERTEX
  5
414
330
25F
100
AcDbEntity
  8
0
  6
CONTINUOUS
 62
     7
100
AcDbVertex
100
AcDb2dVertex
 10
8.5706030058
 20
7.5313045271
 30
0.0
  0
VERTEX
  5
415
330
25F
100
AcDbEntity
  8
0
  6
CONTINUOUS
 62
     7
100
AcDbVertex
100
AcDb2dVertex
 10
8.5404348005
 20
7.5212044507
 30
0.0
  0
VERTEX
  5
416
330
25F
100
AcDbEntity
  8
0
  6
CONTINUOUS
 62
     7
100
AcDbVertex
100
AcDb2dVertex
 10
8.5100016567
 20
7.5093022533
 30
0.0
  0
VERTEX
  5
417
330
25F
100
AcDbEntity
  8
0
  6
CONTINUOUS
 62
     7
100
AcDbVertex
100
AcDb2dVertex
 10
8.4793711437
 20
7.495624361
 30
0.0
  0
VERTEX
  5
418
330
25F
100
AcDbEntity
  8
0
  6
CONTINUOUS
 62
     7
100
AcDbVertex
100
AcDb2dVertex
 10
8.4486112689
 20
7.4802011421
 30
0.0
  0
VERTEX
  5
419
330
25F
100
AcDbEntity
  8
0
  6
CONTINUOUS
 62
     7
100
AcDbVertex
100
AcDb2dVertex
 10
8.4177903269
 20
7.4630668399
 30
0.0
  0
VERTEX
  5
41A
330
25F
100
AcDbEntity
  8
0
  6
CONTINUOUS
 62
     7
100
AcDbVertex
100
AcDb2dVertex
 10
8.386976748
 20
7.4442594969
 30
0.0
  0
VERTEX
  5
41B
330
25F
100
AcDbEntity
  8
0
  6
CONTINUOUS
 62
     7
100
AcDbVertex
100
AcDb2dVertex
 10
8.356238946
 20
7.4238208702
 30
0.0
  0
VERTEX
  5
41C
330
25F
100
AcDbEntity
  8
0
  6
CONTINUOUS
 62
     7
100
AcDbVertex
100
AcDb2dVertex
 10
8.3256451665
 20
7.4017963387
 30
0.0
  0
VERTEX
  5
41D
330
25F
100
AcDbEntity
  8
0
  6
CONTINUOUS
 62
     7
100
AcDbVertex
100
AcDb2dVertex
 10
8.2952633354
 20
7.3782348022
 30
0.0
  0
VERTEX
  5
41E
330
25F
100
AcDbEntity
  8
0
  6
CONTINUOUS
 62
     7
100
AcDbVertex
100
AcDb2dVertex
 10
8.2651609081
 20
7.3531885734
 30
0.0
  0
VERTEX
  5
41F
330
25F
100
AcDbEntity
  8
0
  6
CONTINUOUS
 62
     7
100
AcDbVertex
100
AcDb2dVertex
 10
8.2354047194
 20
7.3267132611
 30
0.0
  0
VERTEX
  5
420
330
25F
100
AcDbEntity
  8
0
  6
CONTINUOUS
 62
     7
100
AcDbVertex
100
AcDb2dVertex
 10
8.2060608355
 20
7.2988676472
 30
0.0
  0
VERTEX
  5
421
330
25F
100
AcDbEntity
  8
0
  6
CONTINUOUS
 62
     7
100
AcDbVertex
100
AcDb2dVertex
 10
8.1771944073
 20
7.2697135559
 30
0.0
  0
VERTEX
  5
422
330
25F
100
AcDbEntity
  8
0
  6
CONTINUOUS
 62
     7
100
AcDbVertex
100
AcDb2dVertex
 10
8.1488695255
 20
7.2393157167
 30
0.0
  0
VERTEX
  5
423
330
25F
100
AcDbEntity
  8
0
  6
CONTINUOUS
 62
     7
100
AcDbVertex
100
AcDb2dVertex
 10
8.1211490783
 20
7.2077416203
 30
0.0
  0
VERTEX
  5
424
330
25F
100
AcDbEntity
  8
0
  6
CONTINUOUS
 62
     7
100
AcDbVertex
100
AcDb2dVertex
 10
8.0940946121
 20
7.1750613691
 30
0.0
  0
VERTEX
  5
425
330
25F
100
AcDbEntity
  8
0
  6
CONTINUOUS
 62
     7
100
AcDbVertex
100
AcDb2dVertex
 10
8.0677661947
 20
7.1413475216
 30
0.0
  0
VERTEX
  5
426
330
25F
100
AcDbEntity
  8
0
  6
CONTINUOUS
 62
     7
100
AcDbVertex
100
AcDb2dVertex
 10
8.0422222818
 20
7.106674931
 30
0.0
  0
VERTEX
  5
427
330
25F
100
AcDbEntity
  8
0
  6
CONTINUOUS
 62
     7
100
AcDbVertex
100
AcDb2dVertex
 10
8.0175195871
 20
7.071120579
 30
0.0
  0
VERTEX
  5
428
330
25F
100
AcDbEntity
  8
0
  6
CONTINUOUS
 62
     7
100
AcDbVertex
100
AcDb2dVertex
 10
7.993712957
 20
7.0347634052
 30
0.0
  0
VERTEX
  5
429
330
25F
100
AcDbEntity
  8
0
  6
CONTINUOUS
 62
     7
100
AcDbVertex
100
AcDb2dVertex
 10
7.970855248
 20
6.9976841318
 30
0.0
  0
VERTEX
  5
42A
330
25F
100
AcDbEntity
  8
0
  6
CONTINUOUS
 62
     7
100
AcDbVertex
100
AcDb2dVertex
 10
7.9489972101
 20
6.959965084
 30
0.0
  0
VERTEX
  5
42B
330
25F
100
AcDbEntity
  8
0
  6
CONTINUOUS
 62
     7
100
AcDbVertex
100
AcDb2dVertex
 10
7.9281873736
 20
6.9216900075
 30
0.0
  0
VERTEX
  5
42C
330
25F
100
AcDbEntity
  8
0
  6
CONTINUOUS
 62
     7
100
AcDbVertex
100
AcDb2dVertex
 10
7.9084719415
 20
6.8829438826
 30
0.0
  0
VERTEX
  5
42D
330
25F
100
AcDbEntity
  8
0
  6
CONTINUOUS
 62
     7
100
AcDbVertex
100
AcDb2dVertex
 10
7.889894687
 20
6.8438127354
 30
0.0
  0
VERTEX
  5
42E
330
25F
100
AcDbEntity
  8
0
  6
CONTINUOUS
 62
     7
100
AcDbVertex
100
AcDb2dVertex
 10
7.8724968564
 20
6.8043834469
 30
0.0
  0
VERTEX
  5
42F
330
25F
100
AcDbEntity
  8
0
  6
CONTINUOUS
 62
     7
100
AcDbVertex
100
AcDb2dVertex
 10
7.8563170771
 20
6.7647435601
 30
0.0
  0
VERTEX
  5
430
330
25F
100
AcDbEntity
  8
0
  6
CONTINUOUS
 62
     7
100
AcDbVertex
100
AcDb2dVertex
 10
7.8413912723
 20
6.7249810853
 30
0.0
  0
VERTEX
  5
431
330
25F
100
AcDbEntity
  8
0
  6
CONTINUOUS
 62
     7
100
AcDbVertex
100
AcDb2dVertex
 10
7.8277525811
 20
6.6851843054
 30
0.0
  0
VERTEX
  5
432
330
25F
100
AcDbEntity
  8
0
  6
CONTINUOUS
 62
     7
100
AcDbVertex
100
AcDb2dVertex
 10
7.8154312847
 20
6.645441579
 30
0.0
  0
VERTEX
  5
433
330
25F
100
AcDbEntity
  8
0
  6
CONTINUOUS
 62
     7
100
AcDbVertex
100
AcDb2dVertex
 10
7.8044547395
 20
6.605841145
 30
0.0
  0
VERTEX
  5
434
330
25F
100
AcDbEntity
  8
0
  6
CONTINUOUS
 62
     7
100
AcDbVertex
100
AcDb2dVertex
 10
7.7948473163
 20
6.5664709264
 30
0.0
  0
VERTEX
  5
435
330
25F
100
AcDbEntity
  8
0
  6
CONTINUOUS
 62
     7
100
AcDbVertex
100
AcDb2dVertex
 10
7.7866303459
 20
6.5274183349
 30
0.0
  0
VERTEX
  5
436
330
25F
100
AcDbEntity
  8
0
  6
CONTINUOUS
 62
     7
100
AcDbVertex
100
AcDb2dVertex
 10
7.7798220721
 20
6.488770077
 30
0.0
  0
VERTEX
  5
437
330
25F
100
AcDbEntity
  8
0
  6
CONTINUOUS
 62
     7
100
AcDbVertex
100
AcDb2dVertex
 10
7.7744376108
 20
6.4506119616
 30
0.0
  0
VERTEX
  5
438
330
25F
100
AcDbEntity
  8
0
  6
CONTINUOUS
 62
     7
100
AcDbVertex
100
AcDb2dVertex
 10
7.7704889171
 20
6.4130287092
 30
0.0
  0
VERTEX
  5
439
330
25F
100
AcDbEntity
  8
0
  6
CONTINUOUS
 62
     7
100
AcDbVertex
100
AcDb2dVertex
 10
7.7679847579
 20
6.3761037641
 30
0.0
  0
VERTEX
  5
43A
330
25F
100
AcDbEntity
  8
0
  6
CONTINUOUS
 62
     7
100
AcDbVertex
100
AcDb2dVertex
 10
7.7669306931
 20
6.339919109
 30
0.0
  0
SEQEND
  5
43B
330
25F
100
AcDbEntity
  8
0
  6
CONTINUOUS
 62
     7
  0
LINE
  5
260
330
1F
100
AcDbEntity
  8
0
  6
CONTINUOUS
 62
     7
100
AcDbLine
 10
8.6965952555
 20
7.5648448255
 30
0.0
 11
8.7151544886
 21
7.5541308083
 31
0.0
  0
POLYLINE
  5
261
330
1F
100
AcDbEntity
  8
0
  6
CONTINUOUS
 62
     7
100
AcDb2dPolyline
 66
     1
 10
0.0
 20
0.0
 30
0.0
  0
VERTEX
  5
43C
330
261
100
AcDbEntity
  8
0
  6
CONTINUOUS
 62
     7
100
AcDbVertex
100
AcDb2dVertex
 10
7.9493592517
 20
5.9137825564
 30
0.0
  0
VERTEX
  5
43D
330
261
100
AcDbEntity
  8
0
  6
CONTINUOUS
 62
     7
100
AcDbVertex
100
AcDb2dVertex
 10
7.9340859438
 20
5.9224727463
 30
0.0
  0
VERTEX
  5
43E
330
261
100
AcDbEntity
  8
0
  6
CONTINUOUS
 62
     7
100
AcDbVertex
100
AcDb2dVertex
 10
7.913223338
 20
5.9363293378
 30
0.0
  0
VERTEX
  5
43F
330
261
100
AcDbEntity
  8
0
  6
CONTINUOUS
 62
     7
100
AcDbVertex
100
AcDb2dVertex
 10
7.8934335014
 20
5.9519045441
 30
0.0
  0
VERTEX
  5
440
330
261
100
AcDbEntity
  8
0
  6
CONTINUOUS
 62
     7
100
AcDbVertex
100
AcDb2dVertex
 10
7.8747598203
 20
5.969164219
 30
0.0
  0
VERTEX
  5
441
330
261
100
AcDbEntity
  8
0
  6
CONTINUOUS
 62
     7
100
AcDbVertex
100
AcDb2dVertex
 10
7.857243234
 20
5.9880705232
 30
0.0
  0
VERTEX
  5
442
330
261
100
AcDbEntity
  8
0
  6
CONTINUOUS
 62
     7
100
AcDbVertex
100
AcDb2dVertex
 10
7.8409221448
 20
6.0085820074
 30
0.0
  0
VERTEX
  5
443
330
261
100
AcDbEntity
  8
0
  6
CONTINUOUS
 62
     7
100
AcDbVertex
100
AcDb2dVertex
 10
7.8258323343
 20
6.0306537033
 30
0.0
  0
VERTEX
  5
444
330
261
100
AcDbEntity
  8
0
  6
CONTINUOUS
 62
     7
100
AcDbVertex
100
AcDb2dVertex
 10
7.8120068847
 20
6.0542372221
 30
0.0
  0
VERTEX
  5
445
330
261
100
AcDbEntity
  8
0
  6
CONTINUOUS
 62
     7
100
AcDbVertex
100
AcDb2dVertex
 10
7.7994761062
 20
6.0792808605
 30
0.0
  0
VERTEX
  5
446
330
261
100
AcDbEntity
  8
0
  6
CONTINUOUS
 62
     7
100
AcDbVertex
100
AcDb2dVertex
 10
7.7882674705
 20
6.105729714
 30
0.0
  0
VERTEX
  5
447
330
261
100
AcDbEntity
  8
0
  6
CONTINUOUS
 62
     7
100
AcDbVertex
100
AcDb2dVertex
 10
7.778405551
 20
6.1335257975
 30
0.0
  0
VERTEX
  5
448
330
261
100
AcDbEntity
  8
0
  6
CONTINUOUS
 62
     7
100
AcDbVertex
100
AcDb2dVertex
 10
7.7699119685
 20
6.1626081723
 30
0.0
  0
VERTEX
  5
449
330
261
100
AcDbEntity
  8
0
  6
CONTINUOUS
 62
     7
100
AcDbVertex
100
AcDb2dVertex
 10
7.7628053438
 20
6.1929130797
 30
0.0
  0
VERTEX
  5
44A
330
261
100
AcDbEntity
  8
0
  6
CONTINUOUS
 62
     7
100
AcDbVertex
100
AcDb2dVertex
 10
7.7571012571
 20
6.2243740808
 30
0.0
  0
VERTEX
  5
44B
330
261
100
AcDbEntity
  8
0
  6
CONTINUOUS
 62
     7
100
AcDbVertex
100
AcDb2dVertex
 10
7.7528122138
 20
6.256922202
 30
0.0
  0
VERTEX
  5
44C
330
261
100
AcDbEntity
  8
0
  6
CONTINUOUS
 62
     7
100
AcDbVertex
100
AcDb2dVertex
 10
7.7499476169
 20
6.2904860865
 30
0.0
  0
VERTEX
  5
44D
330
261
100
AcDbEntity
  8
0
  6
CONTINUOUS
 62
     7
100
AcDbVertex
100
AcDb2dVertex
 10
7.7485137467
 20
6.3249921505
 30
0.0
  0
VERTEX
  5
44E
330
261
100
AcDbEntity
  8
0
  6
CONTINUOUS
 62
     7
100
AcDbVertex
100
AcDb2dVertex
 10
7.7485137467
 20
6.3603647447
 30
0.0
  0
VERTEX
  5
44F
330
261
100
AcDbEntity
  8
0
  6
CONTINUOUS
 62
     7
100
AcDbVertex
100
AcDb2dVertex
 10
7.7499476169
 20
6.39652632
 30
0.0
  0
VERTEX
  5
450
330
261
100
AcDbEntity
  8
0
  6
CONTINUOUS
 62
     7
100
AcDbVertex
100
AcDb2dVertex
 10
7.7528122138
 20
6.4333975976
 30
0.0
  0
VERTEX
  5
451
330
261
100
AcDbEntity
  8
0
  6
CONTINUOUS
 62
     7
100
AcDbVertex
100
AcDb2dVertex
 10
7.7571012571
 20
6.4708977428
 30
0.0
  0
VERTEX
  5
452
330
261
100
AcDbEntity
  8
0
  6
CONTINUOUS
 62
     7
100
AcDbVertex
100
AcDb2dVertex
 10
7.7628053438
 20
6.5089445421
 30
0.0
  0
VERTEX
  5
453
330
261
100
AcDbEntity
  8
0
  6
CONTINUOUS
 62
     7
100
AcDbVertex
100
AcDb2dVertex
 10
7.7699119685
 20
6.5474545838
 30
0.0
  0
VERTEX
  5
454
330
261
100
AcDbEntity
  8
0
  6
CONTINUOUS
 62
     7
100
AcDbVertex
100
AcDb2dVertex
 10
7.778405551
 20
6.5863434403
 30
0.0
  0
VERTEX
  5
455
330
261
100
AcDbEntity
  8
0
  6
CONTINUOUS
 62
     7
100
AcDbVertex
100
AcDb2dVertex
 10
7.7882674705
 20
6.6255258537
 30
0.0
  0
VERTEX
  5
456
330
261
100
AcDbEntity
  8
0
  6
CONTINUOUS
 62
     7
100
AcDbVertex
100
AcDb2dVertex
 10
7.7994761062
 20
6.6649159225
 30
0.0
  0
VERTEX
  5
457
330
261
100
AcDbEntity
  8
0
  6
CONTINUOUS
 62
     7
100
AcDbVertex
100
AcDb2dVertex
 10
7.8120068847
 20
6.7044272898
 30
0.0
  0
VERTEX
  5
458
330
261
100
AcDbEntity
  8
0
  6
CONTINUOUS
 62
     7
100
AcDbVertex
100
AcDb2dVertex
 10
7.8258323343
 20
6.7439733329
 30
0.0
  0
VERTEX
  5
459
330
261
100
AcDbEntity
  8
0
  6
CONTINUOUS
 62
     7
100
AcDbVertex
100
AcDb2dVertex
 10
7.8409221448
 20
6.7834673532
 30
0.0
  0
VERTEX
  5
45A
330
261
100
AcDbEntity
  8
0
  6
CONTINUOUS
 62
     7
100
AcDbVertex
100
AcDb2dVertex
 10
7.857243234
 20
6.8228227659
 30
0.0
  0
VERTEX
  5
45B
330
261
100
AcDbEntity
  8
0
  6
CONTINUOUS
 62
     7
100
AcDbVertex
100
AcDb2dVertex
 10
7.8747598203
 20
6.8619532901
 30
0.0
  0
VERTEX
  5
45C
330
261
100
AcDbEntity
  8
0
  6
CONTINUOUS
 62
     7
100
AcDbVertex
100
AcDb2dVertex
 10
7.8934335014
 20
6.9007731383
 30
0.0
  0
VERTEX
  5
45D
330
261
100
AcDbEntity
  8
0
  6
CONTINUOUS
 62
     7
100
AcDbVertex
100
AcDb2dVertex
 10
7.913223338
 20
6.9391972036
 30
0.0
  0
VERTEX
  5
45E
330
261
100
AcDbEntity
  8
0
  6
CONTINUOUS
 62
     7
100
AcDbVertex
100
AcDb2dVertex
 10
7.9340859438
 20
6.9771412471
 30
0.0
  0
VERTEX
  5
45F
330
261
100
AcDbEntity
  8
0
  6
CONTINUOUS
 62
     7
100
AcDbVertex
100
AcDb2dVertex
 10
7.9559755808
 20
7.0145220822
 30
0.0
  0
VERTEX
  5
460
330
261
100
AcDbEntity
  8
0
  6
CONTINUOUS
 62
     7
100
AcDbVertex
100
AcDb2dVertex
 10
7.9788442591
 20
7.0512577571
 30
0.0
  0
VERTEX
  5
461
330
261
100
AcDbEntity
  8
0
  6
CONTINUOUS
 62
     7
100
AcDbVertex
100
AcDb2dVertex
 10
8.0026418428
 20
7.0872677343
 30
0.0
  0
VERTEX
  5
462
330
261
100
AcDbEntity
  8
0
  6
CONTINUOUS
 62
     7
100
AcDbVertex
100
AcDb2dVertex
 10
8.0273161591
 20
7.1224730674
 30
0.0
  0
VERTEX
  5
463
330
261
100
AcDbEntity
  8
0
  6
CONTINUOUS
 62
     7
100
AcDbVertex
100
AcDb2dVertex
 10
8.0528131133
 20
7.156796574
 30
0.0
  0
VERTEX
  5
464
330
261
100
AcDbEntity
  8
0
  6
CONTINUOUS
 62
     7
100
AcDbVertex
100
AcDb2dVertex
 10
8.0790768073
 20
7.1901630049
 30
0.0
  0
VERTEX
  5
465
330
261
100
AcDbEntity
  8
0
  6
CONTINUOUS
 62
     7
100
AcDbVertex
100
AcDb2dVertex
 10
8.1060496618
 20
7.2224992094
 30
0.0
  0
VERTEX
  5
466
330
261
100
AcDbEntity
  8
0
  6
CONTINUOUS
 62
     7
100
AcDbVertex
100
AcDb2dVertex
 10
8.1336725429
 20
7.2537342952
 30
0.0
  0
VERTEX
  5
467
330
261
100
AcDbEntity
  8
0
  6
CONTINUOUS
 62
     7
100
AcDbVertex
100
AcDb2dVertex
 10
8.1618848916
 20
7.283799784
 30
0.0
  0
VERTEX
  5
468
330
261
100
AcDbEntity
  8
0
  6
CONTINUOUS
 62
     7
100
AcDbVertex
100
AcDb2dVertex
 10
8.1906248565
 20
7.3126297618
 30
0.0
  0
VERTEX
  5
469
330
261
100
AcDbEntity
  8
0
  6
CONTINUOUS
 62
     7
100
AcDbVertex
100
AcDb2dVertex
 10
8.2198294298
 20
7.3401610232
 30
0.0
  0
VERTEX
  5
46A
330
261
100
AcDbEntity
  8
0
  6
CONTINUOUS
 62
     7
100
AcDbVertex
100
AcDb2dVertex
 10
8.2494345846
 20
7.3663332101
 30
0.0
  0
VERTEX
  5
46B
330
261
100
AcDbEntity
  8
0
  6
CONTINUOUS
 62
     7
100
AcDbVertex
100
AcDb2dVertex
 10
8.2793754162
 20
7.3910889438
 30
0.0
  0
VERTEX
  5
46C
330
261
100
AcDbEntity
  8
0
  6
CONTINUOUS
 62
     7
100
AcDbVertex
100
AcDb2dVertex
 10
8.3095862838
 20
7.4143739513
 30
0.0
  0
VERTEX
  5
46D
330
261
100
AcDbEntity
  8
0
  6
CONTINUOUS
 62
     7
100
AcDbVertex
100
AcDb2dVertex
 10
8.3400009547
 20
7.4361371836
 30
0.0
  0
VERTEX
  5
46E
330
261
100
AcDbEntity
  8
0
  6
CONTINUOUS
 62
     7
100
AcDbVertex
100
AcDb2dVertex
 10
8.3705527493
 20
7.4563309281
 30
0.0
  0
VERTEX
  5
46F
330
261
100
AcDbEntity
  8
0
  6
CONTINUOUS
 62
     7
100
AcDbVertex
100
AcDb2dVertex
 10
8.4011746873
 20
7.474910913
 30
0.0
  0
VERTEX
  5
470
330
261
100
AcDbEntity
  8
0
  6
CONTINUOUS
 62
     7
100
AcDbVertex
100
AcDb2dVertex
 10
8.4317996348
 20
7.4918364047
 30
0.0
  0
VERTEX
  5
471
330
261
100
AcDbEntity
  8
0
  6
CONTINUOUS
 62
     7
100
AcDbVertex
100
AcDb2dVertex
 10
8.4623604512
 20
7.5070702963
 30
0.0
  0
VERTEX
  5
472
330
261
100
AcDbEntity
  8
0
  6
CONTINUOUS
 62
     7
100
AcDbVertex
100
AcDb2dVertex
 10
8.4927901365
 20
7.5205791901
 30
0.0
  0
VERTEX
  5
473
330
261
100
AcDbEntity
  8
0
  6
CONTINUOUS
 62
     7
100
AcDbVertex
100
AcDb2dVertex
 10
8.5230219782
 20
7.5323334697
 30
0.0
  0
VERTEX
  5
474
330
261
100
AcDbEntity
  8
0
  6
CONTINUOUS
 62
     7
100
AcDbVertex
100
AcDb2dVertex
 10
8.5529896976
 20
7.5423073656
 30
0.0
  0
VERTEX
  5
475
330
261
100
AcDbEntity
  8
0
  6
CONTINUOUS
 62
     7
100
AcDbVertex
100
AcDb2dVertex
 10
8.5826275949
 20
7.5504790116
 30
0.0
  0
VERTEX
  5
476
330
261
100
AcDbEntity
  8
0
  6
CONTINUOUS
 62
     7
100
AcDbVertex
100
AcDb2dVertex
 10
8.6118706936
 20
7.5568304926
 30
0.0
  0
VERTEX
  5
477
330
261
100
AcDbEntity
  8
0
  6
CONTINUOUS
 62
     7
100
AcDbVertex
100
AcDb2dVertex
 10
8.6406548825
 20
7.561347884
 30
0.0
  0
VERTEX
  5
478
330
261
100
AcDbEntity
  8
0
  6
CONTINUOUS
 62
     7
100
AcDbVertex
100
AcDb2dVertex
 10
8.6689170566
 20
7.5640212819
 30
0.0
  0
VERTEX
  5
479
330
261
100
AcDbEntity
  8
0
  6
CONTINUOUS
 62
     7
100
AcDbVertex
100
AcDb2dVertex
 10
8.6965952555
 20
7.5648448255
 30
0.0
  0
SEQEND
  5
47A
330
261
100
AcDbEntity
  8
0
  6
CONTINUOUS
 62
     7
  0
LINE
  5
262
330
1F
100
AcDbEntity
  8
0
  6
CONTINUOUS
 62
     7
100
AcDbLine
 10
8.8725625911
 20
6.7176058481
 30
0.0
 11
8.8725625911
 21
6.7015322101
 31
0.0
  0
LINE
  5
263
330
1F
100
AcDbEntity
  8
0
  6
CONTINUOUS
 62
     7
100
AcDbLine
 10
8.8725625911
 20
6.7176058481
 30
0.0
 11
8.8259618163
 21
6.6907037934
 31
0.0
  0
POLYLINE
  5
264
330
1F
100
AcDbEntity
  8
0
  6
CONTINUOUS
 62
     7
100
AcDb2dPolyline
 66
     1
 10
0.0
 20
0.0
 30
0.0
  0
VERTEX
  5
47B
330
264
100
AcDbEntity
  8
0
  6
CONTINUOUS
 62
     7
100
AcDbVertex
100
AcDb2dVertex
 10
8.4676398499
 20
6.4838489253
 30
0.0
  0
VERTEX
  5
47C
330
264
100
AcDbEntity
  8
0
  6
CONTINUOUS
 62
     7
100
AcDbVertex
100
AcDb2dVertex
 10
8.4689931612
 20
6.5032162758
 30
0.0
  0
VERTEX
  5
47D
330
264
100
AcDbEntity
  8
0
  6
CONTINUOUS
 62
     7
100
AcDbVertex
100
AcDb2dVertex
 10
8.4717894484
 20
6.5232005836
 30
0.0
  0
VERTEX
  5
47E
330
264
100
AcDbEntity
  8
0
  6
CONTINUOUS
 62
     7
100
AcDbVertex
100
AcDb2dVertex
 10
8.4760060186
 20
6.5436396685
 30
0.0
  0
VERTEX
  5
47F
330
264
100
AcDbEntity
  8
0
  6
CONTINUOUS
 62
     7
100
AcDbVertex
100
AcDb2dVertex
 10
8.4816086527
 20
6.5643676598
 30
0.0
  0
VERTEX
  5
480
330
264
100
AcDbEntity
  8
0
  6
CONTINUOUS
 62
     7
100
AcDbVertex
100
AcDb2dVertex
 10
8.4885518833
 20
6.5852163419
 30
0.0
  0
VERTEX
  5
481
330
264
100
AcDbEntity
  8
0
  6
CONTINUOUS
 62
     7
100
AcDbVertex
100
AcDb2dVertex
 10
8.4967793635
 20
6.60601652
 30
0.0
  0
VERTEX
  5
482
330
264
100
AcDbEntity
  8
0
  6
CONTINUOUS
 62
     7
100
AcDbVertex
100
AcDb2dVertex
 10
8.5062243242
 20
6.626599393
 30
0.0
  0
VERTEX
  5
483
330
264
100
AcDbEntity
  8
0
  6
CONTINUOUS
 62
     7
100
AcDbVertex
100
AcDb2dVertex
 10
8.516810116
 20
6.6467979229
 30
0.0
  0
VERTEX
  5
484
330
264
100
AcDbEntity
  8
0
  6
CONTINUOUS
 62
     7
100
AcDbVertex
100
AcDb2dVertex
 10
8.5284508311
 20
6.6664481913
 30
0.0
  0
VERTEX
  5
485
330
264
100
AcDbEntity
  8
0
  6
CONTINUOUS
 62
     7
100
AcDbVertex
100
AcDb2dVertex
 10
8.541052001
 20
6.6853907287
 30
0.0
  0
VERTEX
  5
486
330
264
100
AcDbEntity
  8
0
  6
CONTINUOUS
 62
     7
100
AcDbVertex
100
AcDb2dVertex
 10
8.5545113622
 20
6.7034718095
 30
0.0
  0
VERTEX
  5
487
330
264
100
AcDbEntity
  8
0
  6
CONTINUOUS
 62
     7
100
AcDbVertex
100
AcDb2dVertex
 10
8.5687196871
 20
6.7205446988
 30
0.0
  0
VERTEX
  5
488
330
264
100
AcDbEntity
  8
0
  6
CONTINUOUS
 62
     7
100
AcDbVertex
100
AcDb2dVertex
 10
8.5835616698
 20
6.7364708437
 30
0.0
  0
VERTEX
  5
489
330
264
100
AcDbEntity
  8
0
  6
CONTINUOUS
 62
     7
100
AcDbVertex
100
AcDb2dVertex
 10
8.598916862
 20
6.7511209977
 30
0.0
  0
VERTEX
  5
48A
330
264
100
AcDbEntity
  8
0
  6
CONTINUOUS
 62
     7
100
AcDbVertex
100
AcDb2dVertex
 10
8.6146606505
 20
6.7643762692
 30
0.0
  0
VERTEX
  5
48B
330
264
100
AcDbEntity
  8
0
  6
CONTINUOUS
 62
     7
100
AcDbVertex
100
AcDb2dVertex
 10
8.6306652687
 20
6.7761290868
 30
0.0
  0
VERTEX
  5
48C
330
264
100
AcDbEntity
  8
0
  6
CONTINUOUS
 62
     7
100
AcDbVertex
100
AcDb2dVertex
 10
8.6468008331
 20
6.7862840718
 30
0.0
  0
VERTEX
  5
48D
330
264
100
AcDbEntity
  8
0
  6
CONTINUOUS
 62
     7
100
AcDbVertex
100
AcDb2dVertex
 10
8.6629363975
 20
6.7947588128
 30
0.0
  0
VERTEX
  5
48E
330
264
100
AcDbEntity
  8
0
  6
CONTINUOUS
 62
     7
100
AcDbVertex
100
AcDb2dVertex
 10
8.6789410157
 20
6.8014845342
 30
0.0
  0
VERTEX
  5
48F
330
264
100
AcDbEntity
  8
0
  6
CONTINUOUS
 62
     7
100
AcDbVertex
100
AcDb2dVertex
 10
8.6946848042
 20
6.806406654
 30
0.0
  0
VERTEX
  5
490
330
264
100
AcDbEntity
  8
0
  6
CONTINUOUS
 62
     7
100
AcDbVertex
100
AcDb2dVertex
 10
8.7100399964
 20
6.8094852276
 30
0.0
  0
VERTEX
  5
491
330
264
100
AcDbEntity
  8
0
  6
CONTINUOUS
 62
     7
100
AcDbVertex
100
AcDb2dVertex
 10
8.7248819791
 20
6.8106952711
 30
0.0
  0
VERTEX
  5
492
330
264
100
AcDbEntity
  8
0
  6
CONTINUOUS
 62
     7
100
AcDbVertex
100
AcDb2dVertex
 10
8.739090304
 20
6.8100269645
 30
0.0
  0
VERTEX
  5
493
330
264
100
AcDbEntity
  8
0
  6
CONTINUOUS
 62
     7
100
AcDbVertex
100
AcDb2dVertex
 10
8.7525496652
 20
6.8074857314
 30
0.0
  0
VERTEX
  5
494
330
264
100
AcDbEntity
  8
0
  6
CONTINUOUS
 62
     7
100
AcDbVertex
100
AcDb2dVertex
 10
8.7651508351
 20
6.803092195
 30
0.0
  0
VERTEX
  5
495
330
264
100
AcDbEntity
  8
0
  6
CONTINUOUS
 62
     7
100
AcDbVertex
100
AcDb2dVertex
 10
8.7767915502
 20
6.7968820103
 30
0.0
  0
VERTEX
  5
496
330
264
100
AcDbEntity
  8
0
  6
CONTINUOUS
 62
     7
100
AcDbVertex
100
AcDb2dVertex
 10
8.787377342
 20
6.7889055753
 30
0.0
  0
VERTEX
  5
497
330
264
100
AcDbEntity
  8
0
  6
CONTINUOUS
 62
     7
100
AcDbVertex
100
AcDb2dVertex
 10
8.7968223027
 20
6.7792276219
 30
0.0
  0
VERTEX
  5
498
330
264
100
AcDbEntity
  8
0
  6
CONTINUOUS
 62
     7
100
AcDbVertex
100
AcDb2dVertex
 10
8.8050497829
 20
6.7679266902
 30
0.0
  0
VERTEX
  5
499
330
264
100
AcDbEntity
  8
0
  6
CONTINUOUS
 62
     7
100
AcDbVertex
100
AcDb2dVertex
 10
8.8119930135
 20
6.7550944915
 30
0.0
  0
VERTEX
  5
49A
330
264
100
AcDbEntity
  8
0
  6
CONTINUOUS
 62
     7
100
AcDbVertex
100
AcDb2dVertex
 10
8.8175956476
 20
6.740835164
 30
0.0
  0
VERTEX
  5
49B
330
264
100
AcDbEntity
  8
0
  6
CONTINUOUS
 62
     7
100
AcDbVertex
100
AcDb2dVertex
 10
8.8218122178
 20
6.7252644273
 30
0.0
  0
VERTEX
  5
49C
330
264
100
AcDbEntity
  8
0
  6
CONTINUOUS
 62
     7
100
AcDbVertex
100
AcDb2dVertex
 10
8.824608505
 20
6.708508644
 30
0.0
  0
VERTEX
  5
49D
330
264
100
AcDbEntity
  8
0
  6
CONTINUOUS
 62
     7
100
AcDbVertex
100
AcDb2dVertex
 10
8.8259618163
 20
6.6907037934
 30
0.0
  0
SEQEND
  5
49E
330
264
100
AcDbEntity
  8
0
  6
CONTINUOUS
 62
     7
  0
LINE
  5
265
330
1F
100
AcDbEntity
  8
0
  6
CONTINUOUS
 62
     7
100
AcDbLine
 10
7.9979284905
 20
6.2126903293
 30
0.0
 11
8.4676398499
 21
6.4838489253
 31
0.0
  0
LINE
  5
266
330
1F
100
AcDbEntity
  8
0
  6
CONTINUOUS
 62
     7
100
AcDbLine
 10
7.9979284905
 20
6.1966166912
 30
0.0
 11
8.4676398499
 21
6.4677752873
 31
0.0
  0
POLYLINE
  5
267
330
1F
100
AcDbEntity
  8
0
  6
CONTINUOUS
 62
     7
100
AcDb2dPolyline
 66
     1
 10
0.0
 20
0.0
 30
0.0
  0
VERTEX
  5
49F
330
267
100
AcDbEntity
  8
0
  6
CONTINUOUS
 62
     7
100
AcDbVertex
100
AcDb2dVertex
 10
8.8259618163
 20
6.6746301554
 30
0.0
  0
VERTEX
  5
4A0
330
267
100
AcDbEntity
  8
0
  6
CONTINUOUS
 62
     7
100
AcDbVertex
100
AcDb2dVertex
 10
8.824608505
 20
6.6552628049
 30
0.0
  0
VERTEX
  5
4A1
330
267
100
AcDbEntity
  8
0
  6
CONTINUOUS
 62
     7
100
AcDbVertex
100
AcDb2dVertex
 10
8.8218122178
 20
6.6352784971
 30
0.0
  0
VERTEX
  5
4A2
330
267
100
AcDbEntity
  8
0
  6
CONTINUOUS
 62
     7
100
AcDbVertex
100
AcDb2dVertex
 10
8.8175956476
 20
6.6148394122
 30
0.0
  0
VERTEX
  5
4A3
330
267
100
AcDbEntity
  8
0
  6
CONTINUOUS
 62
     7
100
AcDbVertex
100
AcDb2dVertex
 10
8.8119930135
 20
6.5941114209
 30
0.0
  0
VERTEX
  5
4A4
330
267
100
AcDbEntity
  8
0
  6
CONTINUOUS
 62
     7
100
AcDbVertex
100
AcDb2dVertex
 10
8.8050497829
 20
6.5732627388
 30
0.0
  0
VERTEX
  5
4A5
330
267
100
AcDbEntity
  8
0
  6
CONTINUOUS
 62
     7
100
AcDbVertex
100
AcDb2dVertex
 10
8.7968223027
 20
6.5524625606
 30
0.0
  0
VERTEX
  5
4A6
330
267
100
AcDbEntity
  8
0
  6
CONTINUOUS
 62
     7
100
AcDbVertex
100
AcDb2dVertex
 10
8.787377342
 20
6.5318796877
 30
0.0
  0
VERTEX
  5
4A7
330
267
100
AcDbEntity
  8
0
  6
CONTINUOUS
 62
     7
100
AcDbVertex
100
AcDb2dVertex
 10
8.7767915502
 20
6.5116811578
 30
0.0
  0
VERTEX
  5
4A8
330
267
100
AcDbEntity
  8
0
  6
CONTINUOUS
 62
     7
100
AcDbVertex
100
AcDb2dVertex
 10
8.7651508351
 20
6.4920308894
 30
0.0
  0
VERTEX
  5
4A9
330
267
100
AcDbEntity
  8
0
  6
CONTINUOUS
 62
     7
100
AcDbVertex
100
AcDb2dVertex
 10
8.7525496652
 20
6.473088352
 30
0.0
  0
VERTEX
  5
4AA
330
267
100
AcDbEntity
  8
0
  6
CONTINUOUS
 62
     7
100
AcDbVertex
100
AcDb2dVertex
 10
8.739090304
 20
6.4550072712
 30
0.0
  0
VERTEX
  5
4AB
330
267
100
AcDbEntity
  8
0
  6
CONTINUOUS
 62
     7
100
AcDbVertex
100
AcDb2dVertex
 10
8.7248819791
 20
6.4379343819
 30
0.0
  0
VERTEX
  5
4AC
330
267
100
AcDbEntity
  8
0
  6
CONTINUOUS
 62
     7
100
AcDbVertex
100
AcDb2dVertex
 10
8.7100399964
 20
6.4220082369
 30
0.0
  0
VERTEX
  5
4AD
330
267
100
AcDbEntity
  8
0
  6
CONTINUOUS
 62
     7
100
AcDbVertex
100
AcDb2dVertex
 10
8.6946848042
 20
6.407358083
 30
0.0
  0
VERTEX
  5
4AE
330
267
100
AcDbEntity
  8
0
  6
CONTINUOUS
 62
     7
100
AcDbVertex
100
AcDb2dVertex
 10
8.6789410157
 20
6.3941028115
 30
0.0
  0
VERTEX
  5
4AF
330
267
100
AcDbEntity
  8
0
  6
CONTINUOUS
 62
     7
100
AcDbVertex
100
AcDb2dVertex
 10
8.6629363975
 20
6.3823499939
 30
0.0
  0
VERTEX
  5
4B0
330
267
100
AcDbEntity
  8
0
  6
CONTINUOUS
 62
     7
100
AcDbVertex
100
AcDb2dVertex
 10
8.6468008331
 20
6.3721950089
 30
0.0
  0
VERTEX
  5
4B1
330
267
100
AcDbEntity
  8
0
  6
CONTINUOUS
 62
     7
100
AcDbVertex
100
AcDb2dVertex
 10
8.6306652687
 20
6.3637202679
 30
0.0
  0
VERTEX
  5
4B2
330
267
100
AcDbEntity
  8
0
  6
CONTINUOUS
 62
     7
100
AcDbVertex
100
AcDb2dVertex
 10
8.6146606505
 20
6.3569945465
 30
0.0
  0
VERTEX
  5
4B3
330
267
100
AcDbEntity
  8
0
  6
CONTINUOUS
 62
     7
100
AcDbVertex
100
AcDb2dVertex
 10
8.598916862
 20
6.3520724267
 30
0.0
  0
VERTEX
  5
4B4
330
267
100
AcDbEntity
  8
0
  6
CONTINUOUS
 62
     7
100
AcDbVertex
100
AcDb2dVertex
 10
8.5835616698
 20
6.3489938531
 30
0.0
  0
VERTEX
  5
4B5
330
267
100
AcDbEntity
  8
0
  6
CONTINUOUS
 62
     7
100
AcDbVertex
100
AcDb2dVertex
 10
8.5687196871
 20
6.3477838096
 30
0.0
  0
VERTEX
  5
4B6
330
267
100
AcDbEntity
  8
0
  6
CONTINUOUS
 62
     7
100
AcDbVertex
100
AcDb2dVertex
 10
8.5545113622
 20
6.3484521162
 30
0.0
  0
VERTEX
  5
4B7
330
267
100
AcDbEntity
  8
0
  6
CONTINUOUS
 62
     7
100
AcDbVertex
100
AcDb2dVertex
 10
8.541052001
 20
6.3509933492
 30
0.0
  0
VERTEX
  5
4B8
330
267
100
AcDbEntity
  8
0
  6
CONTINUOUS
 62
     7
100
AcDbVertex
100
AcDb2dVertex
 10
8.5284508311
 20
6.3553868857
 30
0.0
  0
VERTEX
  5
4B9
330
267
100
AcDbEntity
  8
0
  6
CONTINUOUS
 62
     7
100
AcDbVertex
100
AcDb2dVertex
 10
8.516810116
 20
6.3615970704
 30
0.0
  0
VERTEX
  5
4BA
330
267
100
AcDbEntity
  8
0
  6
CONTINUOUS
 62
     7
100
AcDbVertex
100
AcDb2dVertex
 10
8.5062243242
 20
6.3695735054
 30
0.0
  0
VERTEX
  5
4BB
330
267
100
AcDbEntity
  8
0
  6
CONTINUOUS
 62
     7
100
AcDbVertex
100
AcDb2dVertex
 10
8.4967793635
 20
6.3792514588
 30
0.0
  0
VERTEX
  5
4BC
330
267
100
AcDbEntity
  8
0
  6
CONTINUOUS
 62
     7
100
AcDbVertex
100
AcDb2dVertex
 10
8.4885518833
 20
6.3905523905
 30
0.0
  0
VERTEX
  5
4BD
330
267
100
AcDbEntity
  8
0
  6
CONTINUOUS
 62
     7
100
AcDbVertex
100
AcDb2dVertex
 10
8.4816086527
 20
6.4033845892
 30
0.0
  0
VERTEX
  5
4BE
330
267
100
AcDbEntity
  8
0
  6
CONTINUOUS
 62
     7
100
AcDbVertex
100
AcDb2dVertex
 10
8.4760060186
 20
6.4176439167
 30
0.0
  0
VERTEX
  5
4BF
330
267
100
AcDbEntity
  8
0
  6
CONTINUOUS
 62
     7
100
AcDbVertex
100
AcDb2dVertex
 10
8.4717894484
 20
6.4332146533
 30
0.0
  0
VERTEX
  5
4C0
330
267
100
AcDbEntity
  8
0
  6
CONTINUOUS
 62
     7
100
AcDbVertex
100
AcDb2dVertex
 10
8.4689931612
 20
6.4499704367
 30
0.0
  0
VERTEX
  5
4C1
330
267
100
AcDbEntity
  8
0
  6
CONTINUOUS
 62
     7
100
AcDbVertex
100
AcDb2dVertex
 10
8.4676398499
 20
6.4677752873
 30
0.0
  0
SEQEND
  5
4C2
330
267
100
AcDbEntity
  8
0
  6
CONTINUOUS
 62
     7
  0
LINE
  5
268
330
1F
100
AcDbEntity
  8
0
  6
CONTINUOUS
 62
     7
100
AcDbLine
 10
8.8259618163
 20
6.6746301554
 30
0.0
 11
8.8725625911
 21
6.7015322101
 31
0.0
  0
LINE
  5
269
330
1F
100
AcDbEntity
  8
0
  6
CONTINUOUS
 62
     7
100
AcDbLine
 10
8.6965952555
 20
7.553780323
 30
0.0
 11
8.6965952555
 21
7.5648448255
 31
0.0
  0
ARC
  5
26A
330
1F
100
AcDbEntity
  8
0
  6
CONTINUOUS
 62
     7
100
AcDbCircle
 10
8.1607008638
 20
6.8598590795
 30
0.0
 40
0.4213372271264621
100
AcDbArc
 50
322.8453780404
 51
337.1599984923
  0
LINE
  5
26B
330
1F
100
AcDbEntity
  8
0
  6
CONTINUOUS
 62
     7
100
AcDbLine
 10
8.4676398499
 20
6.4677752873
 30
0.0
 11
8.4676439719
 21
6.4739007276
 31
0.0
  0
LINE
  5
26C
330
1F
100
AcDbEntity
  8
0
  6
CONTINUOUS
 62
     7
100
AcDbLine
 10
8.4590255854
 20
6.4788760162
 30
0.0
 11
8.4676439719
 21
6.4739007276
 31
0.0
  0
LINE
  5
26D
330
1F
100
AcDbEntity
  8
0
  6
CONTINUOUS
 62
     7
100
AcDbLine
 10
7.7808523804
 20
6.33188229
 30
0.0
 11
7.7669306931
 21
6.323845471
 31
0.0
  0
LINE
  5
26E
330
1F
100
AcDbEntity
  8
0
  6
CONTINUOUS
 62
     7
100
AcDbLine
 10
8.8153510926
 20
6.6907014139
 30
0.0
 11
8.8259618163
 21
6.6907037934
 31
0.0
  0
POLYLINE
  5
26F
330
1F
100
AcDbEntity
  8
0
  6
CONTINUOUS
 62
     7
100
AcDb2dPolyline
 66
     1
 10
0.0
 20
0.0
 30
0.0
  0
VERTEX
  5
4C3
330
26F
100
AcDbEntity
  8
0
  6
CONTINUOUS
 62
     7
100
AcDbVertex
100
AcDb2dVertex
 10
8.8153510926
 20
6.6907014139
 30
0.0
  0
VERTEX
  5
4C4
330
26F
100
AcDbEntity
  8
0
  6
CONTINUOUS
 62
     7
100
AcDbVertex
100
AcDb2dVertex
 10
8.813958674
 20
6.7084617744
 30
0.0
  0
VERTEX
  5
4C5
330
26F
100
AcDbEntity
  8
0
  6
CONTINUOUS
 62
     7
100
AcDbVertex
100
AcDb2dVertex
 10
8.8110829157
 20
6.7251370257
 30
0.0
  0
VERTEX
  5
4C6
330
26F
100
AcDbEntity
  8
0
  6
CONTINUOUS
 62
     7
100
AcDbVertex
100
AcDb2dVertex
 10
8.8067485522
 20
6.7405837438
 30
0.0
  0
VERTEX
  5
4C7
330
26F
100
AcDbEntity
  8
0
  6
CONTINUOUS
 62
     7
100
AcDbVertex
100
AcDb2dVertex
 10
8.8009928634
 20
6.7546690714
 30
0.0
  0
VERTEX
  5
4C8
330
26F
100
AcDbEntity
  8
0
  6
CONTINUOUS
 62
     7
100
AcDbVertex
100
AcDb2dVertex
 10
8.7938653539
 20
6.7672718604
 30
0.0
  0
VERTEX
  5
4C9
330
26F
100
AcDbEntity
  8
0
  6
CONTINUOUS
 62
     7
100
AcDbVertex
100
AcDb2dVertex
 10
8.7854273276
 20
6.7782837142
 30
0.0
  0
VERTEX
  5
4CA
330
26F
100
AcDbEntity
  8
0
  6
CONTINUOUS
 62
     7
100
AcDbVertex
100
AcDb2dVertex
 10
8.7757513599
 20
6.7876099197
 30
0.0
  0
VERTEX
  5
4CB
330
26F
100
AcDbEntity
  8
0
  6
CONTINUOUS
 62
     7
100
AcDbVertex
100
AcDb2dVertex
 10
8.764920674
 20
6.7951702622
 30
0.0
  0
VERTEX
  5
4CC
330
26F
100
AcDbEntity
  8
0
  6
CONTINUOUS
 62
     7
100
AcDbVertex
100
AcDb2dVertex
 10
8.7530284247
 20
6.800899715
 30
0.0
  0
VERTEX
  5
4CD
330
26F
100
AcDbEntity
  8
0
  6
CONTINUOUS
 62
     7
100
AcDbVertex
100
AcDb2dVertex
 10
8.7401768973
 20
6.8047489992
 30
0.0
  0
VERTEX
  5
4CE
330
26F
100
AcDbEntity
  8
0
  6
CONTINUOUS
 62
     7
100
AcDbVertex
100
AcDb2dVertex
 10
8.7264766279
 20
6.8066850069
 30
0.0
  0
VERTEX
  5
4CF
330
26F
100
AcDbEntity
  8
0
  6
CONTINUOUS
 62
     7
100
AcDbVertex
100
AcDb2dVertex
 10
8.7120454526
 20
6.8066910867
 30
0.0
  0
VERTEX
  5
4D0
330
26F
100
AcDbEntity
  8
0
  6
CONTINUOUS
 62
     7
100
AcDbVertex
100
AcDb2dVertex
 10
8.6970074941
 20
6.8047671861
 30
0.0
  0
VERTEX
  5
4D1
330
26F
100
AcDbEntity
  8
0
  6
CONTINUOUS
 62
     7
100
AcDbVertex
100
AcDb2dVertex
 10
8.6814920939
 20
6.8009298526
 30
0.0
  0
VERTEX
  5
4D2
330
26F
100
AcDbEntity
  8
0
  6
CONTINUOUS
 62
     7
100
AcDbVertex
100
AcDb2dVertex
 10
8.6656327002
 20
6.7952120913
 30
0.0
  0
VERTEX
  5
4D3
330
26F
100
AcDbEntity
  8
0
  6
CONTINUOUS
 62
     7
100
AcDbVertex
100
AcDb2dVertex
 10
8.6495657197
 20
6.7876630806
 30
0.0
  0
VERTEX
  5
4D4
330
26F
100
AcDbEntity
  8
0
  6
CONTINUOUS
 62
     7
100
AcDbVertex
100
AcDb2dVertex
 10
8.6441005749
 20
6.7847017644
 30
0.0
  0
SEQEND
  5
4D5
330
26F
100
AcDbEntity
  8
0
  6
CONTINUOUS
 62
     7
  0
LINE
  5
270
330
1F
100
AcDbEntity
  8
0
  6
CONTINUOUS
 62
     7
100
AcDbLine
 10
8.8153510926
 20
6.6907014139
 30
0.0
 11
8.6766533634
 21
6.7707699086
 31
0.0
  0
SPLINE
  5
271
330
1F
100
AcDbEntity
  8
0
  6
CONTINUOUS
 62
     7
100
AcDbSpline
210
0.0
220
0.0
230
1.0
 70
     8
 71
     3
 72
     8
 73
     4
 74
     0
 42
0.00000001
 43
0.00000001
 40
0.0
 40
0.0
 40
0.0
 40
0.0
 40
1.0
 40
1.0
 40
1.0
 40
1.0
 10
8.676653363421929
 20
6.770769908625723
 30
0.0
 10
8.677063263786826
 20
6.765389850813374
 30
0.0
 10
8.677063263786826
 20
6.760031971470291
 30
0.0
 10
8.676653363421929
 20
6.754696270596475
 30
0.0
  0
LINE
  5
272
330
1F
100
AcDbEntity
  8
0
  6
CONTINUOUS
 62
     7
100
AcDbLine
 10
8.8153510926
 20
6.6746277758
 30
0.0
 11
8.6766533634
 21
6.7546962706
 31
0.0
  0
POLYLINE
  5
273
330
1F
100
AcDbEntity
  8
0
  6
CONTINUOUS
 62
     7
100
AcDb2dPolyline
 66
     1
 10
0.0
 20
0.0
 30
0.0
  0
VERTEX
  5
4D6
330
273
100
AcDbEntity
  8
0
  6
CONTINUOUS
 62
     7
100
AcDbVertex
100
AcDb2dVertex
 10
8.4676439719
 20
6.4739007276
 30
0.0
  0
VERTEX
  5
4D7
330
273
100
AcDbEntity
  8
0
  6
CONTINUOUS
 62
     7
100
AcDbVertex
100
AcDb2dVertex
 10
8.4690363905
 20
6.4561403671
 30
0.0
  0
VERTEX
  5
4D8
330
273
100
AcDbEntity
  8
0
  6
CONTINUOUS
 62
     7
100
AcDbVertex
100
AcDb2dVertex
 10
8.4719121488
 20
6.4394651158
 30
0.0
  0
VERTEX
  5
4D9
330
273
100
AcDbEntity
  8
0
  6
CONTINUOUS
 62
     7
100
AcDbVertex
100
AcDb2dVertex
 10
8.4762465123
 20
6.4240183977
 30
0.0
  0
VERTEX
  5
4DA
330
273
100
AcDbEntity
  8
0
  6
CONTINUOUS
 62
     7
100
AcDbVertex
100
AcDb2dVertex
 10
8.4820022011
 20
6.4099330701
 30
0.0
  0
VERTEX
  5
4DB
330
273
100
AcDbEntity
  8
0
  6
CONTINUOUS
 62
     7
100
AcDbVertex
100
AcDb2dVertex
 10
8.4891297106
 20
6.3973302811
 30
0.0
  0
VERTEX
  5
4DC
330
273
100
AcDbEntity
  8
0
  6
CONTINUOUS
 62
     7
100
AcDbVertex
100
AcDb2dVertex
 10
8.4975677369
 20
6.3863184273
 30
0.0
  0
VERTEX
  5
4DD
330
273
100
AcDbEntity
  8
0
  6
CONTINUOUS
 62
     7
100
AcDbVertex
100
AcDb2dVertex
 10
8.5072437046
 20
6.3769922218
 30
0.0
  0
VERTEX
  5
4DE
330
273
100
AcDbEntity
  8
0
  6
CONTINUOUS
 62
     7
100
AcDbVertex
100
AcDb2dVertex
 10
8.5180743904
 20
6.3694318793
 30
0.0
  0
VERTEX
  5
4DF
330
273
100
AcDbEntity
  8
0
  6
CONTINUOUS
 62
     7
100
AcDbVertex
100
AcDb2dVertex
 10
8.5299666398
 20
6.3637024265
 30
0.0
  0
VERTEX
  5
4E0
330
273
100
AcDbEntity
  8
0
  6
CONTINUOUS
 62
     7
100
AcDbVertex
100
AcDb2dVertex
 10
8.5428181672
 20
6.3598531423
 30
0.0
  0
VERTEX
  5
4E1
330
273
100
AcDbEntity
  8
0
  6
CONTINUOUS
 62
     7
100
AcDbVertex
100
AcDb2dVertex
 10
8.5565184366
 20
6.3579171346
 30
0.0
  0
VERTEX
  5
4E2
330
273
100
AcDbEntity
  8
0
  6
CONTINUOUS
 62
     7
100
AcDbVertex
100
AcDb2dVertex
 10
8.5709496119
 20
6.3579110549
 30
0.0
  0
VERTEX
  5
4E3
330
273
100
AcDbEntity
  8
0
  6
CONTINUOUS
 62
     7
100
AcDbVertex
100
AcDb2dVertex
 10
8.5859875704
 20
6.3598349555
 30
0.0
  0
VERTEX
  5
4E4
330
273
100
AcDbEntity
  8
0
  6
CONTINUOUS
 62
     7
100
AcDbVertex
100
AcDb2dVertex
 10
8.6015029706
 20
6.3636722889
 30
0.0
  0
VERTEX
  5
4E5
330
273
100
AcDbEntity
  8
0
  6
CONTINUOUS
 62
     7
100
AcDbVertex
100
AcDb2dVertex
 10
8.6173623643
 20
6.3693900502
 30
0.0
  0
VERTEX
  5
4E6
330
273
100
AcDbEntity
  8
0
  6
CONTINUOUS
 62
     7
100
AcDbVertex
100
AcDb2dVertex
 10
8.6334293447
 20
6.376939061
 30
0.0
  0
VERTEX
  5
4E7
330
273
100
AcDbEntity
  8
0
  6
CONTINUOUS
 62
     7
100
AcDbVertex
100
AcDb2dVertex
 10
8.6495657197
 20
6.386254392
 30
0.0
  0
VERTEX
  5
4E8
330
273
100
AcDbEntity
  8
0
  6
CONTINUOUS
 62
     7
100
AcDbVertex
100
AcDb2dVertex
 10
8.6656327002
 20
6.397255922
 30
0.0
  0
VERTEX
  5
4E9
330
273
100
AcDbEntity
  8
0
  6
CONTINUOUS
 62
     7
100
AcDbVertex
100
AcDb2dVertex
 10
8.6814920939
 20
6.4098490269
 30
0.0
  0
VERTEX
  5
4EA
330
273
100
AcDbEntity
  8
0
  6
CONTINUOUS
 62
     7
100
AcDbVertex
100
AcDb2dVertex
 10
8.6970074941
 20
6.4239253932
 30
0.0
  0
VERTEX
  5
4EB
330
273
100
AcDbEntity
  8
0
  6
CONTINUOUS
 62
     7
100
AcDbVertex
100
AcDb2dVertex
 10
8.7120454526
 20
6.4393639499
 30
0.0
  0
VERTEX
  5
4EC
330
273
100
AcDbEntity
  8
0
  6
CONTINUOUS
 62
     7
100
AcDbVertex
100
AcDb2dVertex
 10
8.7264766279
 20
6.45603191
 30
0.0
  0
VERTEX
  5
4ED
330
273
100
AcDbEntity
  8
0
  6
CONTINUOUS
 62
     7
100
AcDbVertex
100
AcDb2dVertex
 10
8.7401768973
 20
6.4737859121
 30
0.0
  0
VERTEX
  5
4EE
330
273
100
AcDbEntity
  8
0
  6
CONTINUOUS
 62
     7
100
AcDbVertex
100
AcDb2dVertex
 10
8.7530284247
 20
6.492473254
 30
0.0
  0
VERTEX
  5
4EF
330
273
100
AcDbEntity
  8
0
  6
CONTINUOUS
 62
     7
100
AcDbVertex
100
AcDb2dVertex
 10
8.764920674
 20
6.5119332056
 30
0.0
  0
VERTEX
  5
4F0
330
273
100
AcDbEntity
  8
0
  6
CONTINUOUS
 62
     7
100
AcDbVertex
100
AcDb2dVertex
 10
8.7757513599
 20
6.5319983918
 30
0.0
  0
VERTEX
  5
4F1
330
273
100
AcDbEntity
  8
0
  6
CONTINUOUS
 62
     7
100
AcDbVertex
100
AcDb2dVertex
 10
8.7854273276
 20
6.5524962318
 30
0.0
  0
VERTEX
  5
4F2
330
273
100
AcDbEntity
  8
0
  6
CONTINUOUS
 62
     7
100
AcDbVertex
100
AcDb2dVertex
 10
8.7938653539
 20
6.5732504234
 30
0.0
  0
VERTEX
  5
4F3
330
273
100
AcDbEntity
  8
0
  6
CONTINUOUS
 62
     7
100
AcDbVertex
100
AcDb2dVertex
 10
8.8009928634
 20
6.5940824597
 30
0.0
  0
VERTEX
  5
4F4
330
273
100
AcDbEntity
  8
0
  6
CONTINUOUS
 62
     7
100
AcDbVertex
100
AcDb2dVertex
 10
8.8067485522
 20
6.6148131642
 30
0.0
  0
VERTEX
  5
4F5
330
273
100
AcDbEntity
  8
0
  6
CONTINUOUS
 62
     7
100
AcDbVertex
100
AcDb2dVertex
 10
8.8110829157
 20
6.6352642319
 30
0.0
  0
VERTEX
  5
4F6
330
273
100
AcDbEntity
  8
0
  6
CONTINUOUS
 62
     7
100
AcDbVertex
100
AcDb2dVertex
 10
8.813958674
 20
6.655259763
 30
0.0
  0
VERTEX
  5
4F7
330
273
100
AcDbEntity
  8
0
  6
CONTINUOUS
 62
     7
100
AcDbVertex
100
AcDb2dVertex
 10
8.8153510926
 20
6.6746277758
 30
0.0
  0
SEQEND
  5
4F8
330
273
100
AcDbEntity
  8
0
  6
CONTINUOUS
 62
     7
  0
ARC
  5
274
330
1F
100
AcDbEntity
  8
0
  6
CONTINUOUS
 62
     7
100
AcDbCircle
 10
8.1904602518
 20
6.8426793504
 30
0.0
 40
0.4085178254389102
100
AcDbArc
 50
314.8017095987
 51
345.203666934
  0
LINE
  5
275
330
1F
100
AcDbEntity
  8
0
  6
CONTINUOUS
 62
     7
100
AcDbLine
 10
8.8153510926
 20
6.6746277758
 30
0.0
 11
8.8259618163
 21
6.6746301554
 31
0.0
  0
LINE
  5
276
330
1F
100
AcDbEntity
  8
0
  6
CONTINUOUS
 62
     7
100
AcDbLine
 10
8.8725625911
 20
6.7015322101
 30
0.0
 11
8.8582111229
 21
6.7093209219
 31
0.0
  0
POLYLINE
  5
277
330
1F
100
AcDbEntity
  8
0
  6
CONTINUOUS
 62
     7
100
AcDb2dPolyline
 66
     1
 10
0.0
 20
0.0
 30
0.0
  0
VERTEX
  5
4F9
330
277
100
AcDbEntity
  8
0
  6
CONTINUOUS
 62
     7
100
AcDbVertex
100
AcDb2dVertex
 10
8.7092616974
 20
6.7519455181
 30
0.0
  0
VERTEX
  5
4FA
330
277
100
AcDbEntity
  8
0
  6
CONTINUOUS
 62
     7
100
AcDbVertex
100
AcDb2dVertex
 10
8.7039941554
 20
6.7525251291
 30
0.0
  0
VERTEX
  5
4FB
330
277
100
AcDbEntity
  8
0
  6
CONTINUOUS
 62
     7
100
AcDbVertex
100
AcDb2dVertex
 10
8.6766533634
 20
6.7546962706
 30
0.0
  0
SEQEND
  5
4FC
330
277
100
AcDbEntity
  8
0
  6
CONTINUOUS
 62
     7
  0
LINE
  5
278
330
1F
100
AcDbEntity
  8
0
  6
CONTINUOUS
 62
     7
100
AcDbLine
 10
8.1337765039
 20
6.8798930965
 30
0.0
 11
8.1819948059
 21
6.9077289297
 31
0.0
  0
LINE
  5
279
330
1F
100
AcDbEntity
  8
0
  6
CONTINUOUS
 62
     7
100
AcDbLine
 10
8.1819948059
 20
6.9077289297
 30
0.0
 11
8.1643456824
 21
6.9457533851
 31
0.0
  0
LINE
  5
27A
330
1F
100
AcDbEntity
  8
0
  6
CONTINUOUS
 62
     7
100
AcDbLine
 10
8.1643456824
 20
6.9457533851
 30
0.0
 11
8.098478257
 21
6.9559420072
 31
0.0
  0
LINE
  5
27B
330
1F
100
AcDbEntity
  8
0
  6
CONTINUOUS
 62
     7
100
AcDbLine
 10
8.098478257
 20
6.9559420072
 30
0.0
 11
8.0502599549
 21
6.9281061739
 31
0.0
  0
LINE
  5
27C
330
1F
100
AcDbEntity
  8
0
  6
CONTINUOUS
 62
     7
100
AcDbLine
 10
8.0502599549
 20
6.9281061739
 30
0.0
 11
8.0679090784
 21
6.8900817186
 31
0.0
  0
LINE
  5
27D
330
1F
100
AcDbEntity
  8
0
  6
CONTINUOUS
 62
     7
100
AcDbLine
 10
8.0679090784
 20
6.8900817186
 30
0.0
 11
8.1337765039
 21
6.8798930965
 31
0.0
  0
LINE
  5
27E
330
1F
100
AcDbEntity
  8
0
  6
CONTINUOUS
 62
     7
100
AcDbLine
 10
8.098478257
 20
6.8916474551
 30
0.0
 11
8.0898791618
 21
6.8866833031
 31
0.0
  0
LINE
  5
27F
330
1F
100
AcDbEntity
  8
0
  6
CONTINUOUS
 62
     7
100
AcDbLine
 10
8.142375599
 20
6.8848572484
 30
0.0
 11
8.098478257
 21
6.8916474551
 31
0.0
  0
LINE
  5
280
330
1F
100
AcDbEntity
  8
0
  6
CONTINUOUS
 62
     7
100
AcDbLine
 10
8.1643456824
 20
6.8975403076
 30
0.0
 11
8.1643456824
 21
6.9457533851
 31
0.0
  0
LINE
  5
281
330
1F
100
AcDbEntity
  8
0
  6
CONTINUOUS
 62
     7
100
AcDbLine
 10
8.098478257
 20
6.8916474551
 30
0.0
 11
8.098478257
 21
6.9559420072
 31
0.0
  0
POLYLINE
  5
282
330
1F
100
AcDbEntity
  8
0
  6
CONTINUOUS
 62
     7
100
AcDb2dPolyline
 66
     1
 10
0.0
 20
0.0
 30
0.0
  0
VERTEX
  5
4FD
330
282
100
AcDbEntity
  8
0
  6
CONTINUOUS
 62
     7
100
AcDbVertex
100
AcDb2dVertex
 10
8.248843607
 20
7.5867554821
 30
0.0
  0
VERTEX
  5
4FE
330
282
100
AcDbEntity
  8
0
  6
CONTINUOUS
 62
     7
100
AcDbVertex
100
AcDb2dVertex
 10
8.2400098933
 20
7.5871382523
 30
0.0
  0
VERTEX
  5
4FF
330
282
100
AcDbEntity
  8
0
  6
CONTINUOUS
 62
     7
100
AcDbVertex
100
AcDb2dVertex
 10
8.2282926885
 20
7.5859786102
 30
0.0
  0
VERTEX
  5
500
330
282
100
AcDbEntity
  8
0
  6
CONTINUOUS
 62
     7
100
AcDbVertex
100
AcDb2dVertex
 10
8.2161057478
 20
7.5829976089
 30
0.0
  0
VERTEX
  5
501
330
282
100
AcDbEntity
  8
0
  6
CONTINUOUS
 62
     7
100
AcDbVertex
100
AcDb2dVertex
 10
8.203602329
 20
7.5782327365
 30
0.0
  0
VERTEX
  5
502
330
282
100
AcDbEntity
  8
0
  6
CONTINUOUS
 62
     7
100
AcDbVertex
100
AcDb2dVertex
 10
8.19093967
 20
7.5717439138
 30
0.0
  0
VERTEX
  5
503
330
282
100
AcDbEntity
  8
0
  6
CONTINUOUS
 62
     7
100
AcDbVertex
100
AcDb2dVertex
 10
8.178277011
 20
7.5636127416
 30
0.0
  0
VERTEX
  5
504
330
282
100
AcDbEntity
  8
0
  6
CONTINUOUS
 62
     7
100
AcDbVertex
100
AcDb2dVertex
 10
8.1657735923
 20
7.5539414741
 30
0.0
  0
VERTEX
  5
505
330
282
100
AcDbEntity
  8
0
  6
CONTINUOUS
 62
     7
100
AcDbVertex
100
AcDb2dVertex
 10
8.1535866516
 20
7.5428517331
 30
0.0
  0
VERTEX
  5
506
330
282
100
AcDbEntity
  8
0
  6
CONTINUOUS
 62
     7
100
AcDbVertex
100
AcDb2dVertex
 10
8.1418694468
 20
7.5304829785
 30
0.0
  0
VERTEX
  5
507
330
282
100
AcDbEntity
  8
0
  6
CONTINUOUS
 62
     7
100
AcDbVertex
100
AcDb2dVertex
 10
8.1307693285
 20
7.5169907546
 30
0.0
  0
VERTEX
  5
508
330
282
100
AcDbEntity
  8
0
  6
CONTINUOUS
 62
     7
100
AcDbVertex
100
AcDb2dVertex
 10
8.1204258872
 20
7.5025447339
 30
0.0
  0
VERTEX
  5
509
330
282
100
AcDbEntity
  8
0
  6
CONTINUOUS
 62
     7
100
AcDbVertex
100
AcDb2dVertex
 10
8.1202854189
 20
7.502334076
 30
0.0
  0
SEQEND
  5
50A
330
282
100
AcDbEntity
  8
0
  6
CONTINUOUS
 62
     7
  0
POLYLINE
  5
283
330
1F
100
AcDbEntity
  8
0
  6
CONTINUOUS
 62
     7
100
AcDb2dPolyline
 66
     1
 10
0.0
 20
0.0
 30
0.0
  0
VERTEX
  5
50B
330
283
100
AcDbEntity
  8
0
  6
CONTINUOUS
 62
     7
100
AcDbVertex
100
AcDb2dVertex
 10
7.5841383642
 20
6.5737020298
 30
0.0
  0
VERTEX
  5
50C
330
283
100
AcDbEntity
  8
0
  6
CONTINUOUS
 62
     7
100
AcDbVertex
100
AcDb2dVertex
 10
7.5840196083
 20
6.5734618081
 30
0.0
  0
VERTEX
  5
50D
330
283
100
AcDbEntity
  8
0
  6
CONTINUOUS
 62
     7
100
AcDbVertex
100
AcDb2dVertex
 10
7.5766805453
 20
6.557280833
 30
0.0
  0
VERTEX
  5
50E
330
283
100
AcDbEntity
  8
0
  6
CONTINUOUS
 62
     7
100
AcDbVertex
100
AcDb2dVertex
 10
7.5705457268
 20
6.5409212707
 30
0.0
  0
VERTEX
  5
50F
330
283
100
AcDbEntity
  8
0
  6
CONTINUOUS
 62
     7
100
AcDbVertex
100
AcDb2dVertex
 10
7.5656923016
 20
6.5245888524
 30
0.0
  0
VERTEX
  5
510
330
283
100
AcDbEntity
  8
0
  6
CONTINUOUS
 62
     7
100
AcDbVertex
100
AcDb2dVertex
 10
7.5621813045
 20
6.5084889676
 30
0.0
  0
VERTEX
  5
511
330
283
100
AcDbEntity
  8
0
  6
CONTINUOUS
 62
     7
100
AcDbVertex
100
AcDb2dVertex
 10
7.5600568882
 20
6.4928240817
 30
0.0
  0
VERTEX
  5
512
330
283
100
AcDbEntity
  8
0
  6
CONTINUOUS
 62
     7
100
AcDbVertex
100
AcDb2dVertex
 10
7.5593457685
 20
6.4777911898
 30
0.0
  0
VERTEX
  5
513
330
283
100
AcDbEntity
  8
0
  6
CONTINUOUS
 62
     7
100
AcDbVertex
100
AcDb2dVertex
 10
7.5600568882
 20
6.4635793392
 30
0.0
  0
VERTEX
  5
514
330
283
100
AcDbEntity
  8
0
  6
CONTINUOUS
 62
     7
100
AcDbVertex
100
AcDb2dVertex
 10
7.5621813045
 20
6.4503672522
 30
0.0
  0
VERTEX
  5
515
330
283
100
AcDbEntity
  8
0
  6
CONTINUOUS
 62
     7
100
AcDbVertex
100
AcDb2dVertex
 10
7.5656923016
 20
6.4383210784
 30
0.0
  0
VERTEX
  5
516
330
283
100
AcDbEntity
  8
0
  6
CONTINUOUS
 62
     7
100
AcDbVertex
100
AcDb2dVertex
 10
7.5705457268
 20
6.4275923055
 30
0.0
  0
VERTEX
  5
517
330
283
100
AcDbEntity
  8
0
  6
CONTINUOUS
 62
     7
100
AcDbVertex
100
AcDb2dVertex
 10
7.5753000841
 20
6.4201230202
 30
0.0
  0
SEQEND
  5
518
330
283
100
AcDbEntity
  8
0
  6
CONTINUOUS
 62
     7
  0
ARC
  5
284
330
1F
100
AcDbEntity
  8
0
  6
CONTINUOUS
 62
     7
100
AcDbCircle
 10
7.5807873927
 20
6.528466689
 30
0.0
 40
0.0720445440026471
100
AcDbArc
 50
176.3641903778
 51
219.7493962565
  0
ARC
  5
285
330
1F
100
AcDbEntity
  8
0
  6
CONTINUOUS
 62
     7
100
AcDbCircle
 10
7.7005634839
 20
6.5263740165
 30
0.0
 40
0.1917913462780411
100
AcDbArc
 50
119.2631734884
 51
178.0095944374
  0
POLYLINE
  5
286
330
1F
100
AcDbEntity
  8
0
  6
CONTINUOUS
 62
     7
100
AcDb2dPolyline
 66
     1
 10
0.0
 20
0.0
 30
0.0
  0
VERTEX
  5
519
330
286
100
AcDbEntity
  8
0
  6
CONTINUOUS
 62
     7
100
AcDbVertex
100
AcDb2dVertex
 10
8.6327391735
 20
7.6478887927
 30
0.0
  0
VERTEX
  5
51A
330
286
100
AcDbEntity
  8
0
  6
CONTINUOUS
 62
     7
100
AcDbVertex
100
AcDb2dVertex
 10
8.6266032467
 20
7.6532467462
 30
0.0
  0
VERTEX
  5
51B
330
286
100
AcDbEntity
  8
0
  6
CONTINUOUS
 62
     7
100
AcDbVertex
100
AcDb2dVertex
 10
8.6067649565
 20
7.6688085774
 30
0.0
  0
VERTEX
  5
51C
330
286
100
AcDbEntity
  8
0
  6
CONTINUOUS
 62
     7
100
AcDbVertex
100
AcDb2dVertex
 10
8.5858519529
 20
7.6826465239
 30
0.0
  0
VERTEX
  5
51D
330
286
100
AcDbEntity
  8
0
  6
CONTINUOUS
 62
     7
100
AcDbVertex
100
AcDb2dVertex
 10
8.5639102074
 20
7.6947301668
 30
0.0
  0
VERTEX
  5
51E
330
286
100
AcDbEntity
  8
0
  6
CONTINUOUS
 62
     7
100
AcDbVertex
100
AcDb2dVertex
 10
8.5409879527
 20
7.7050329437
 30
0.0
  0
VERTEX
  5
51F
330
286
100
AcDbEntity
  8
0
  6
CONTINUOUS
 62
     7
100
AcDbVertex
100
AcDb2dVertex
 10
8.5171355768
 20
7.7135322068
 30
0.0
  0
VERTEX
  5
520
330
286
100
AcDbEntity
  8
0
  6
CONTINUOUS
 62
     7
100
AcDbVertex
100
AcDb2dVertex
 10
8.4924055124
 20
7.7202092729
 30
0.0
  0
VERTEX
  5
521
330
286
100
AcDbEntity
  8
0
  6
CONTINUOUS
 62
     7
100
AcDbVertex
100
AcDb2dVertex
 10
8.4668521217
 20
7.7250494643
 30
0.0
  0
VERTEX
  5
522
330
286
100
AcDbEntity
  8
0
  6
CONTINUOUS
 62
     7
100
AcDbVertex
100
AcDb2dVertex
 10
8.4405315764
 20
7.7280421414
 30
0.0
  0
VERTEX
  5
523
330
286
100
AcDbEntity
  8
0
  6
CONTINUOUS
 62
     7
100
AcDbVertex
100
AcDb2dVertex
 10
8.4135017348
 20
7.7291807254
 30
0.0
  0
VERTEX
  5
524
330
286
100
AcDbEntity
  8
0
  6
CONTINUOUS
 62
     7
100
AcDbVertex
100
AcDb2dVertex
 10
8.3858220145
 20
7.7284627136
 30
0.0
  0
VERTEX
  5
525
330
286
100
AcDbEntity
  8
0
  6
CONTINUOUS
 62
     7
100
AcDbVertex
100
AcDb2dVertex
 10
8.3575532615
 20
7.7258896842
 30
0.0
  0
VERTEX
  5
526
330
286
100
AcDbEntity
  8
0
  6
CONTINUOUS
 62
     7
100
AcDbVertex
100
AcDb2dVertex
 10
8.3287576165
 20
7.7214672935
 30
0.0
  0
VERTEX
  5
527
330
286
100
AcDbEntity
  8
0
  6
CONTINUOUS
 62
     7
100
AcDbVertex
100
AcDb2dVertex
 10
8.2994983787
 20
7.7152052627
 30
0.0
  0
VERTEX
  5
528
330
286
100
AcDbEntity
  8
0
  6
CONTINUOUS
 62
     7
100
AcDbVertex
100
AcDb2dVertex
 10
8.2698398663
 20
7.7071173572
 30
0.0
  0
VERTEX
  5
529
330
286
100
AcDbEntity
  8
0
  6
CONTINUOUS
 62
     7
100
AcDbVertex
100
AcDb2dVertex
 10
8.239847275
 20
7.6972213559
 30
0.0
  0
VERTEX
  5
52A
330
286
100
AcDbEntity
  8
0
  6
CONTINUOUS
 62
     7
100
AcDbVertex
100
AcDb2dVertex
 10
8.2095865352
 20
7.6855390123
 30
0.0
  0
VERTEX
  5
52B
330
286
100
AcDbEntity
  8
0
  6
CONTINUOUS
 62
     7
100
AcDbVertex
100
AcDb2dVertex
 10
8.1791241664
 20
7.6720960069
 30
0.0
  0
VERTEX
  5
52C
330
286
100
AcDbEntity
  8
0
  6
CONTINUOUS
 62
     7
100
AcDbVertex
100
AcDb2dVertex
 10
8.1485271316
 20
7.6569218903
 30
0.0
  0
VERTEX
  5
52D
330
286
100
AcDbEntity
  8
0
  6
CONTINUOUS
 62
     7
100
AcDbVertex
100
AcDb2dVertex
 10
8.1178626897
 20
7.6400500184
 30
0.0
  0
VERTEX
  5
52E
330
286
100
AcDbEntity
  8
0
  6
CONTINUOUS
 62
     7
100
AcDbVertex
100
AcDb2dVertex
 10
8.0871982478
 20
7.6215174793
 30
0.0
  0
VERTEX
  5
52F
330
286
100
AcDbEntity
  8
0
  6
CONTINUOUS
 62
     7
100
AcDbVertex
100
AcDb2dVertex
 10
8.056601213
 20
7.6013650115
 30
0.0
  0
VERTEX
  5
530
330
286
100
AcDbEntity
  8
0
  6
CONTINUOUS
 62
     7
100
AcDbVertex
100
AcDb2dVertex
 10
8.0261388442
 20
7.5796369145
 30
0.0
  0
VERTEX
  5
531
330
286
100
AcDbEntity
  8
0
  6
CONTINUOUS
 62
     7
100
AcDbVertex
100
AcDb2dVertex
 10
7.9958781044
 20
7.5563809515
 30
0.0
  0
VERTEX
  5
532
330
286
100
AcDbEntity
  8
0
  6
CONTINUOUS
 62
     7
100
AcDbVertex
100
AcDb2dVertex
 10
7.9658855131
 20
7.531648244
 30
0.0
  0
VERTEX
  5
533
330
286
100
AcDbEntity
  8
0
  6
CONTINUOUS
 62
     7
100
AcDbVertex
100
AcDb2dVertex
 10
7.9362270007
 20
7.50549316
 30
0.0
  0
VERTEX
  5
534
330
286
100
AcDbEntity
  8
0
  6
CONTINUOUS
 62
     7
100
AcDbVertex
100
AcDb2dVertex
 10
7.9069677629
 20
7.4779731939
 30
0.0
  0
VERTEX
  5
535
330
286
100
AcDbEntity
  8
0
  6
CONTINUOUS
 62
     7
100
AcDbVertex
100
AcDb2dVertex
 10
7.8781721179
 20
7.4491488407
 30
0.0
  0
VERTEX
  5
536
330
286
100
AcDbEntity
  8
0
  6
CONTINUOUS
 62
     7
100
AcDbVertex
100
AcDb2dVertex
 10
7.8499033649
 20
7.4190834624
 30
0.0
  0
VERTEX
  5
537
330
286
100
AcDbEntity
  8
0
  6
CONTINUOUS
 62
     7
100
AcDbVertex
100
AcDb2dVertex
 10
7.8222236446
 20
7.3878431494
 30
0.0
  0
VERTEX
  5
538
330
286
100
AcDbEntity
  8
0
  6
CONTINUOUS
 62
     7
100
AcDbVertex
100
AcDb2dVertex
 10
7.795193803
 20
7.3554965747
 30
0.0
  0
VERTEX
  5
539
330
286
100
AcDbEntity
  8
0
  6
CONTINUOUS
 62
     7
100
AcDbVertex
100
AcDb2dVertex
 10
7.7688732577
 20
7.3221148429
 30
0.0
  0
VERTEX
  5
53A
330
286
100
AcDbEntity
  8
0
  6
CONTINUOUS
 62
     7
100
AcDbVertex
100
AcDb2dVertex
 10
7.743319867
 20
7.2877713345
 30
0.0
  0
VERTEX
  5
53B
330
286
100
AcDbEntity
  8
0
  6
CONTINUOUS
 62
     7
100
AcDbVertex
100
AcDb2dVertex
 10
7.7185898026
 20
7.2525415438
 30
0.0
  0
VERTEX
  5
53C
330
286
100
AcDbEntity
  8
0
  6
CONTINUOUS
 62
     7
100
AcDbVertex
100
AcDb2dVertex
 10
7.6947374267
 20
7.2165029137
 30
0.0
  0
VERTEX
  5
53D
330
286
100
AcDbEntity
  8
0
  6
CONTINUOUS
 62
     7
100
AcDbVertex
100
AcDb2dVertex
 10
7.6718151719
 20
7.1797346648
 30
0.0
  0
VERTEX
  5
53E
330
286
100
AcDbEntity
  8
0
  6
CONTINUOUS
 62
     7
100
AcDbVertex
100
AcDb2dVertex
 10
7.6498734264
 20
7.1423176218
 30
0.0
  0
VERTEX
  5
53F
330
286
100
AcDbEntity
  8
0
  6
CONTINUOUS
 62
     7
100
AcDbVertex
100
AcDb2dVertex
 10
7.6289604229
 20
7.1043340354
 30
0.0
  0
VERTEX
  5
540
330
286
100
AcDbEntity
  8
0
  6
CONTINUOUS
 62
     7
100
AcDbVertex
100
AcDb2dVertex
 10
7.6091221327
 20
7.0658674017
 30
0.0
  0
VERTEX
  5
541
330
286
100
AcDbEntity
  8
0
  6
CONTINUOUS
 62
     7
100
AcDbVertex
100
AcDb2dVertex
 10
7.5904021646
 20
7.0270022789
 30
0.0
  0
VERTEX
  5
542
330
286
100
AcDbEntity
  8
0
  6
CONTINUOUS
 62
     7
100
AcDbVertex
100
AcDb2dVertex
 10
7.5728416692
 20
6.9878241009
 30
0.0
  0
VERTEX
  5
543
330
286
100
AcDbEntity
  8
0
  6
CONTINUOUS
 62
     7
100
AcDbVertex
100
AcDb2dVertex
 10
7.5564792483
 20
6.9484189897
 30
0.0
  0
VERTEX
  5
544
330
286
100
AcDbEntity
  8
0
  6
CONTINUOUS
 62
     7
100
AcDbVertex
100
AcDb2dVertex
 10
7.5413508701
 20
6.9088735665
 30
0.0
  0
VERTEX
  5
545
330
286
100
AcDbEntity
  8
0
  6
CONTINUOUS
 62
     7
100
AcDbVertex
100
AcDb2dVertex
 10
7.5274897899
 20
6.8692747606
 30
0.0
  0
VERTEX
  5
546
330
286
100
AcDbEntity
  8
0
  6
CONTINUOUS
 62
     7
100
AcDbVertex
100
AcDb2dVertex
 10
7.5149264775
 20
6.8297096187
 30
0.0
  0
VERTEX
  5
547
330
286
100
AcDbEntity
  8
0
  6
CONTINUOUS
 62
     7
100
AcDbVertex
100
AcDb2dVertex
 10
7.5036885498
 20
6.7902651138
 30
0.0
  0
VERTEX
  5
548
330
286
100
AcDbEntity
  8
0
  6
CONTINUOUS
 62
     7
100
AcDbVertex
100
AcDb2dVertex
 10
7.4938007101
 20
6.7510279532
 30
0.0
  0
VERTEX
  5
549
330
286
100
AcDbEntity
  8
0
  6
CONTINUOUS
 62
     7
100
AcDbVertex
100
AcDb2dVertex
 10
7.4852846941
 20
6.7120843889
 30
0.0
  0
VERTEX
  5
54A
330
286
100
AcDbEntity
  8
0
  6
CONTINUOUS
 62
     7
100
AcDbVertex
100
AcDb2dVertex
 10
7.4781592218
 20
6.6735200273
 30
0.0
  0
VERTEX
  5
54B
330
286
100
AcDbEntity
  8
0
  6
CONTINUOUS
 62
     7
100
AcDbVertex
100
AcDb2dVertex
 10
7.4724399565
 20
6.6354196411
 30
0.0
  0
VERTEX
  5
54C
330
286
100
AcDbEntity
  8
0
  6
CONTINUOUS
 62
     7
100
AcDbVertex
100
AcDb2dVertex
 10
7.4681394705
 20
6.5978669833
 30
0.0
  0
VERTEX
  5
54D
330
286
100
AcDbEntity
  8
0
  6
CONTINUOUS
 62
     7
100
AcDbVertex
100
AcDb2dVertex
 10
7.4652672172
 20
6.5609446028
 30
0.0
  0
VERTEX
  5
54E
330
286
100
AcDbEntity
  8
0
  6
CONTINUOUS
 62
     7
100
AcDbVertex
100
AcDb2dVertex
 10
7.4638295103
 20
6.524733663
 30
0.0
  0
VERTEX
  5
54F
330
286
100
AcDbEntity
  8
0
  6
CONTINUOUS
 62
     7
100
AcDbVertex
100
AcDb2dVertex
 10
7.4638295103
 20
6.4893137634
 30
0.0
  0
VERTEX
  5
550
330
286
100
AcDbEntity
  8
0
  6
CONTINUOUS
 62
     7
100
AcDbVertex
100
AcDb2dVertex
 10
7.4652672172
 20
6.4547627647
 30
0.0
  0
VERTEX
  5
551
330
286
100
AcDbEntity
  8
0
  6
CONTINUOUS
 62
     7
100
AcDbVertex
100
AcDb2dVertex
 10
7.4681394705
 20
6.4211566173
 30
0.0
  0
VERTEX
  5
552
330
286
100
AcDbEntity
  8
0
  6
CONTINUOUS
 62
     7
100
AcDbVertex
100
AcDb2dVertex
 10
7.4724399565
 20
6.388569195
 30
0.0
  0
VERTEX
  5
553
330
286
100
AcDbEntity
  8
0
  6
CONTINUOUS
 62
     7
100
AcDbVertex
100
AcDb2dVertex
 10
7.4781592218
 20
6.3570721319
 30
0.0
  0
VERTEX
  5
554
330
286
100
AcDbEntity
  8
0
  6
CONTINUOUS
 62
     7
100
AcDbVertex
100
AcDb2dVertex
 10
7.4852846941
 20
6.3267346654
 30
0.0
  0
VERTEX
  5
555
330
286
100
AcDbEntity
  8
0
  6
CONTINUOUS
 62
     7
100
AcDbVertex
100
AcDb2dVertex
 10
7.4938007101
 20
6.2976234839
 30
0.0
  0
VERTEX
  5
556
330
286
100
AcDbEntity
  8
0
  6
CONTINUOUS
 62
     7
100
AcDbVertex
100
AcDb2dVertex
 10
7.5036885498
 20
6.2698025801
 30
0.0
  0
VERTEX
  5
557
330
286
100
AcDbEntity
  8
0
  6
CONTINUOUS
 62
     7
100
AcDbVertex
100
AcDb2dVertex
 10
7.5149264775
 20
6.2433331103
 30
0.0
  0
VERTEX
  5
558
330
286
100
AcDbEntity
  8
0
  6
CONTINUOUS
 62
     7
100
AcDbVertex
100
AcDb2dVertex
 10
7.5274897899
 20
6.2182732602
 30
0.0
  0
VERTEX
  5
559
330
286
100
AcDbEntity
  8
0
  6
CONTINUOUS
 62
     7
100
AcDbVertex
100
AcDb2dVertex
 10
7.5413508701
 20
6.1946781168
 30
0.0
  0
VERTEX
  5
55A
330
286
100
AcDbEntity
  8
0
  6
CONTINUOUS
 62
     7
100
AcDbVertex
100
AcDb2dVertex
 10
7.5564792483
 20
6.1725995473
 30
0.0
  0
VERTEX
  5
55B
330
286
100
AcDbEntity
  8
0
  6
CONTINUOUS
 62
     7
100
AcDbVertex
100
AcDb2dVertex
 10
7.5728416692
 20
6.1520860852
 30
0.0
  0
VERTEX
  5
55C
330
286
100
AcDbEntity
  8
0
  6
CONTINUOUS
 62
     7
100
AcDbVertex
100
AcDb2dVertex
 10
7.5904021646
 20
6.1331828235
 30
0.0
  0
VERTEX
  5
55D
330
286
100
AcDbEntity
  8
0
  6
CONTINUOUS
 62
     7
100
AcDbVertex
100
AcDb2dVertex
 10
7.6091221327
 20
6.1159313158
 30
0.0
  0
VERTEX
  5
55E
330
286
100
AcDbEntity
  8
0
  6
CONTINUOUS
 62
     7
100
AcDbVertex
100
AcDb2dVertex
 10
7.6289604229
 20
6.1003694846
 30
0.0
  0
VERTEX
  5
55F
330
286
100
AcDbEntity
  8
0
  6
CONTINUOUS
 62
     7
100
AcDbVertex
100
AcDb2dVertex
 10
7.6498734264
 20
6.0865315381
 30
0.0
  0
VERTEX
  5
560
330
286
100
AcDbEntity
  8
0
  6
CONTINUOUS
 62
     7
100
AcDbVertex
100
AcDb2dVertex
 10
7.6718151719
 20
6.0744478951
 30
0.0
  0
VERTEX
  5
561
330
286
100
AcDbEntity
  8
0
  6
CONTINUOUS
 62
     7
100
AcDbVertex
100
AcDb2dVertex
 10
7.6947374267
 20
6.0641451183
 30
0.0
  0
VERTEX
  5
562
330
286
100
AcDbEntity
  8
0
  6
CONTINUOUS
 62
     7
100
AcDbVertex
100
AcDb2dVertex
 10
7.7143416045
 20
6.057005166
 30
0.0
  0
SEQEND
  5
563
330
286
100
AcDbEntity
  8
0
  6
CONTINUOUS
 62
     7
  0
LINE
  5
287
330
1F
100
AcDbEntity
  8
0
  6
CONTINUOUS
 62
     7
100
AcDbLine
 10
8.0273864283
 20
7.4311012136
 30
0.0
 11
8.0276444359
 21
7.4233655229
 31
0.0
  0
POLYLINE
  5
288
330
1F
100
AcDbEntity
  8
0
  6
CONTINUOUS
 62
     7
100
AcDb2dPolyline
 66
     1
 10
0.0
 20
0.0
 30
0.0
  0
VERTEX
  5
564
330
288
100
AcDbEntity
  8
0
  6
CONTINUOUS
 62
     7
100
AcDbVertex
100
AcDb2dVertex
 10
8.1699532483
 20
7.5988286579
 30
0.0
  0
VERTEX
  5
565
330
288
100
AcDbEntity
  8
0
  6
CONTINUOUS
 62
     7
100
AcDbVertex
100
AcDb2dVertex
 10
8.1663422948
 20
7.5995329674
 30
0.0
  0
VERTEX
  5
566
330
288
100
AcDbEntity
  8
0
  6
CONTINUOUS
 62
     7
100
AcDbVertex
100
AcDb2dVertex
 10
8.1563856082
 20
7.6001059614
 30
0.0
  0
VERTEX
  5
567
330
288
100
AcDbEntity
  8
0
  6
CONTINUOUS
 62
     7
100
AcDbVertex
100
AcDb2dVertex
 10
8.145821392
 20
7.5988373611
 30
0.0
  0
VERTEX
  5
568
330
288
100
AcDbEntity
  8
0
  6
CONTINUOUS
 62
     7
100
AcDbVertex
100
AcDb2dVertex
 10
8.1348162505
 20
7.595747173
 30
0.0
  0
VERTEX
  5
569
330
288
100
AcDbEntity
  8
0
  6
CONTINUOUS
 62
     7
100
AcDbVertex
100
AcDb2dVertex
 10
8.1235437412
 20
7.5908841312
 30
0.0
  0
VERTEX
  5
56A
330
288
100
AcDbEntity
  8
0
  6
CONTINUOUS
 62
     7
100
AcDbVertex
100
AcDb2dVertex
 10
8.1121816382
 20
7.5843249288
 30
0.0
  0
VERTEX
  5
56B
330
288
100
AcDbEntity
  8
0
  6
CONTINUOUS
 62
     7
100
AcDbVertex
100
AcDb2dVertex
 10
8.1009091289
 20
7.5761730084
 30
0.0
  0
VERTEX
  5
56C
330
288
100
AcDbEntity
  8
0
  6
CONTINUOUS
 62
     7
100
AcDbVertex
100
AcDb2dVertex
 10
8.0899039873
 20
7.5665569305
 30
0.0
  0
VERTEX
  5
56D
330
288
100
AcDbEntity
  8
0
  6
CONTINUOUS
 62
     7
100
AcDbVertex
100
AcDb2dVertex
 10
8.0793397712
 20
7.5556283465
 30
0.0
  0
VERTEX
  5
56E
330
288
100
AcDbEntity
  8
0
  6
CONTINUOUS
 62
     7
100
AcDbVertex
100
AcDb2dVertex
 10
8.0693830845
 20
7.5435596067
 30
0.0
  0
VERTEX
  5
56F
330
288
100
AcDbEntity
  8
0
  6
CONTINUOUS
 62
     7
100
AcDbVertex
100
AcDb2dVertex
 10
8.0601909502
 20
7.5305410423
 30
0.0
  0
VERTEX
  5
570
330
288
100
AcDbEntity
  8
0
  6
CONTINUOUS
 62
     7
100
AcDbVertex
100
AcDb2dVertex
 10
8.0519083336
 20
7.5167779638
 30
0.0
  0
VERTEX
  5
571
330
288
100
AcDbEntity
  8
0
  6
CONTINUOUS
 62
     7
100
AcDbVertex
100
AcDb2dVertex
 10
8.0446658567
 20
7.5024874233
 30
0.0
  0
VERTEX
  5
572
330
288
100
AcDbEntity
  8
0
  6
CONTINUOUS
 62
     7
100
AcDbVertex
100
AcDb2dVertex
 10
8.0385777375
 20
7.487894791
 30
0.0
  0
VERTEX
  5
573
330
288
100
AcDbEntity
  8
0
  6
CONTINUOUS
 62
     7
100
AcDbVertex
100
AcDb2dVertex
 10
8.0337399893
 20
7.4732302016
 30
0.0
  0
VERTEX
  5
574
330
288
100
AcDbEntity
  8
0
  6
CONTINUOUS
 62
     7
100
AcDbVertex
100
AcDb2dVertex
 10
8.0302289064
 20
7.4587249243
 30
0.0
  0
VERTEX
  5
575
330
288
100
AcDbEntity
  8
0
  6
CONTINUOUS
 62
     7
100
AcDbVertex
100
AcDb2dVertex
 10
8.0280998607
 20
7.4446077161
 30
0.0
  0
VERTEX
  5
576
330
288
100
AcDbEntity
  8
0
  6
CONTINUOUS
 62
     7
100
AcDbVertex
100
AcDb2dVertex
 10
8.0273864283
 20
7.4311012136
 30
0.0
  0
SEQEND
  5
577
330
288
100
AcDbEntity
  8
0
  6
CONTINUOUS
 62
     7
  0
SPLINE
  5
289
330
1F
100
AcDbEntity
  8
0
  6
CONTINUOUS
 62
     7
100
AcDbSpline
210
0.0
220
0.0
230
1.0
 70
     8
 71
     3
 72
    21
 73
    17
 74
     0
 42
0.00000001
 43
0.00000001
 40
0.0
 40
0.0
 40
0.0
 40
0.0
 40
0.1183311565964058
 40
0.210303230995026
 40
0.3042156987837031
 40
0.371695877987465
 40
0.4407952930542881
 40
0.4959106284531355
 40
0.5525507971051011
 40
0.6077096002971432
 40
0.664584670689282
 40
0.7184067958999723
 40
0.7733500665587048
 40
0.8591032406615527
 40
0.9472557732414585
 40
0.9999999999999999
 40
0.9999999999999999
 40
0.9999999999999999
 40
0.9999999999999999
 10
8.355400035627222
 20
7.815661523154378
 30
0.0
 10
8.347675646563093
 20
7.820067766847707
 30
0.0
 10
8.333947529435079
 20
7.827898733026962
 30
0.0
 10
8.311837491366932
 20
7.839608908241915
 30
0.0
 10
8.292761740631073
 20
7.849548060053015
 30
0.0
 10
8.27512467108268
 20
7.858706419647428
 30
0.0
 10
8.260607507168595
 20
7.866337928980111
 30
0.0
 10
8.247513938245069
 20
7.873394321054088
 30
0.0
 10
8.23631434557449
 20
7.879637288945217
 30
0.0
 10
8.22631223852001
 20
7.885470726764003
 30
0.0
 10
8.21805437575131
 20
7.890565958645341
 30
0.0
 10
8.211476878037688
 20
7.894899538908396
 30
0.0
 10
8.205578293518121
 20
7.899095745218086
 30
0.0
 10
8.201342935919012
 20
7.902550614321457
 30
0.0
 10
8.199202581695607
 20
7.904785861644189
 30
0.0
 10
8.19991496119113
 20
7.904698795560268
 30
0.0
 10
8.200181638053154
 20
7.904666202665337
 30
0.0
  0
SPLINE
  5
28A
330
1F
100
AcDbEntity
  8
0
  6
CONTINUOUS
 62
     7
100
AcDbSpline
210
0.0
220
0.0
230
1.0
 70
     8
 71
     3
 72
    72
 73
    68
 74
     0
 42
0.00000001
 43
0.00000001
 40
-0.0312499999999993
 40
-0.0312499999999993
 40
0.0
 40
0.0
 40
0.0312500000000011
 40
0.0312500000000011
 40
0.0468750000000014
 40
0.0468750000000014
 40
0.0625000000000017
 40
0.0625000000000017
 40
0.093750000000002
 40
0.093750000000002
 40
0.1250000000000024
 40
0.1250000000000024
 40
0.1875000000000034
 40
0.1875000000000034
 40
0.2187500000000036
 40
0.2187500000000036
 40
0.2500000000000037
 40
0.2500000000000037
 40
0.2812500000000038
 40
0.2812500000000038
 40
0.3125000000000039
 40
0.3125000000000039
 40
0.343750000000004
 40
0.343750000000004
 40
0.3750000000000041
 40
0.3750000000000041
 40
0.4062500000000043
 40
0.4062500000000043
 40
0.4375000000000044
 40
0.4375000000000044
 40
0.4687500000000045
 40
0.4687500000000045
 40
0.5000000000000046
 40
0.5000000000000046
 40
0.5312500000000048
 40
0.5312500000000048
 40
0.5468750000000048
 40
0.5468750000000048
 40
0.5625000000000048
 40
0.5625000000000048
 40
0.5937500000000047
 40
0.5937500000000047
 40
0.6250000000000046
 40
0.6250000000000046
 40
0.6562500000000044
 40
0.6562500000000044
 40
0.6875000000000043
 40
0.6875000000000043
 40
0.7187500000000042
 40
0.7187500000000042
 40
0.7500000000000041
 40
0.7500000000000041
 40
0.7812500000000038
 40
0.7812500000000038
 40
0.8125000000000033
 40
0.8125000000000033
 40
0.8750000000000022
 40
0.8750000000000022
 40
0.9062500000000018
 40
0.9062500000000018
 40
0.9375000000000013
 40
0.9375000000000013
 40
0.953125000000001
 40
0.953125000000001
 40
0.9687500000000007
 40
0.9687500000000007
 40
1.0
 40
1.0
 40
1.031250000000001
 40
1.031250000000001
 10
7.365803956580649
 20
7.335340196731338
 30
0.0
 10
7.357285528019927
 20
7.340257780865723
 30
0.0
 10
7.352660402059707
 20
7.341796171330407
 30
0.0
 10
7.345239508570609
 20
7.342869341486718
 30
0.0
 10
7.342680475448589
 20
7.343015063429848
 30
0.0
 10
7.337574649827494
 20
7.342910930528848
 30
0.0
 10
7.335006992876468
 20
7.34266523393971
 30
0.0
 10
7.327268319502779
 20
7.341404943991313
 30
0.0
 10
7.322060827367389
 20
7.339854939517442
 30
0.0
 10
7.312036651701409
 20
7.335751516818141
 30
0.0
 10
7.307153421838114
 20
7.33318726186786
 30
0.0
 10
7.29286547067681
 20
7.324158589787849
 30
0.0
 10
7.284249878767402
 20
7.316675477257099
 30
0.0
 10
7.272606704904274
 20
7.303739628716119
 30
0.0
 10
7.268939564485652
 20
7.299118655097479
 30
0.0
 10
7.26223511261114
 20
7.289537678782376
 30
0.0
 10
7.259168613550904
 20
7.284547593568617
 30
0.0
 10
7.253619513097066
 20
7.274159839579776
 30
0.0
 10
7.251120271334353
 20
7.2687151086791
 30
0.0
 10
7.246866297934158
 20
7.257643225670109
 30
0.0
 10
7.245106915345037
 20
7.252025367531577
 30
0.0
 10
7.242353295630468
 20
7.240620011328239
 30
0.0
 10
7.241358017340442
 20
7.234832733331324
 30
0.0
 10
7.240235305761116
 20
7.223067153481345
 30
0.0
 10
7.240122881233086
 20
7.217139166344193
 30
0.0
 10
7.240878133197767
 20
7.205594580512437
 30
0.0
 10
7.241748612041063
 20
7.199878971254102
 30
0.0
 10
7.244561208367439
 20
7.188883867579223
 30
0.0
 10
7.246463276941318
 20
7.183726297631317
 30
0.0
 10
7.251305995330235
 20
7.174146172547016
 30
0.0
 10
7.25430941065836
 20
7.16966776477727
 30
0.0
 10
7.261114633027574
 20
7.162068478758704
 30
0.0
 10
7.264921026106371
 20
7.158888905327959
 30
0.0
 10
7.2733969878709
 20
7.153869140696851
 30
0.0
 10
7.277857031876062
 20
7.152153447025537
 30
0.0
 10
7.284865405018491
 20
7.150707219311668
 30
0.0
 10
7.287270383877124
 20
7.150416148625788
 30
0.0
 10
7.292066336902126
 20
7.150223817905503
 30
0.0
 10
7.294467932456719
 20
7.150317979625855
 30
0.0
 10
7.301686846110219
 20
7.151139793944985
 30
0.0
 10
7.306562096058645
 20
7.152429963165543
 30
0.0
 10
7.315967443524434
 20
7.156217905542105
 30
0.0
 10
7.320566537312286
 20
7.158728506135708
 30
0.0
 10
7.329436957484057
 20
7.164767397088301
 30
0.0
 10
7.333641630235953
 20
7.168242311932791
 30
0.0
 10
7.341668904431669
 20
7.175981821930863
 30
0.0
 10
7.345500538853831
 20
7.180269141340459
 30
0.0
 10
7.352607014614292
 20
7.189309776004499
 30
0.0
 10
7.355913631025865
 20
7.194090682326432
 30
0.0
 10
7.362080027187004
 20
7.204132238107718
 30
0.0
 10
7.364927196516494
 20
7.20938207175479
 30
0.0
 10
7.370055168715513
 20
7.22006109467123
 30
0.0
 10
7.372357305967834
 20
7.225523991809482
 30
0.0
 10
7.376444928773763
 20
7.236693164687554
 30
0.0
 10
7.378234848353798
 20
7.242429171826307
 30
0.0
 10
7.382649675855437
 20
7.259547399383505
 30
0.0
 10
7.384429015805795
 20
7.270982623450768
 30
0.0
 10
7.384786065969356
 20
7.288156437389173
 30
0.0
 10
7.384504749502579
 20
7.293735366227887
 30
0.0
 10
7.382984890765958
 20
7.304566442991448
 30
0.0
 10
7.381722163964874
 20
7.309879396162791
 30
0.0
 10
7.378970200585718
 20
7.31721867944928
 30
0.0
 10
7.377911279171784
 20
7.31956541761042
 30
0.0
 10
7.375474562042617
 20
7.324038232792469
 30
0.0
 10
7.374083074821742
 20
7.32618088525221
 30
0.0
 10
7.369461005406608
 20
7.332089645049771
 30
0.0
 10
7.365803956580649
 20
7.335340196731338
 30
0.0
 10
7.357285528019927
 20
7.340257780865723
 30
0.0
  0
POLYLINE
  5
28B
330
1F
100
AcDbEntity
  8
0
  6
CONTINUOUS
 62
     7
100
AcDb2dPolyline
 66
     1
 10
0.0
 20
0.0
 30
0.0
  0
VERTEX
  5
578
330
28B
100
AcDbEntity
  8
0
  6
CONTINUOUS
 62
     7
100
AcDbVertex
100
AcDb2dVertex
 10
7.3601272903
 20
6.3077238631
 30
0.0
  0
VERTEX
  5
579
330
28B
100
AcDbEntity
  8
0
  6
CONTINUOUS
 62
     7
100
AcDbVertex
100
AcDb2dVertex
 10
7.347003611
 20
6.3321094868
 30
0.0
  0
VERTEX
  5
57A
330
28B
100
AcDbEntity
  8
0
  6
CONTINUOUS
 62
     7
100
AcDbVertex
100
AcDb2dVertex
 10
7.3351899256
 20
6.3579257069
 30
0.0
  0
VERTEX
  5
57B
330
28B
100
AcDbEntity
  8
0
  6
CONTINUOUS
 62
     7
100
AcDbVertex
100
AcDb2dVertex
 10
7.3247121338
 20
6.3851159254
 30
0.0
  0
VERTEX
  5
57C
330
28B
100
AcDbEntity
  8
0
  6
CONTINUOUS
 62
     7
100
AcDbVertex
100
AcDb2dVertex
 10
7.3155932066
 20
6.4136205318
 30
0.0
  0
VERTEX
  5
57D
330
28B
100
AcDbEntity
  8
0
  6
CONTINUOUS
 62
     7
100
AcDbVertex
100
AcDb2dVertex
 10
7.3078531359
 20
6.443377034
 30
0.0
  0
VERTEX
  5
57E
330
28B
100
AcDbEntity
  8
0
  6
CONTINUOUS
 62
     7
100
AcDbVertex
100
AcDb2dVertex
 10
7.3015088907
 20
6.4743201955
 30
0.0
  0
VERTEX
  5
57F
330
28B
100
AcDbEntity
  8
0
  6
CONTINUOUS
 62
     7
100
AcDbVertex
100
AcDb2dVertex
 10
7.2965743797
 20
6.5063821779
 30
0.0
  0
VERTEX
  5
580
330
28B
100
AcDbEntity
  8
0
  6
CONTINUOUS
 62
     7
100
AcDbVertex
100
AcDb2dVertex
 10
7.2930604211
 20
6.5394926902
 30
0.0
  0
VERTEX
  5
581
330
28B
100
AcDbEntity
  8
0
  6
CONTINUOUS
 62
     7
100
AcDbVertex
100
AcDb2dVertex
 10
7.2909747188
 20
6.5735791426
 30
0.0
  0
VERTEX
  5
582
330
28B
100
AcDbEntity
  8
0
  6
CONTINUOUS
 62
     7
100
AcDbVertex
100
AcDb2dVertex
 10
7.2903218453
 20
6.6085668058
 30
0.0
  0
VERTEX
  5
583
330
28B
100
AcDbEntity
  8
0
  6
CONTINUOUS
 62
     7
100
AcDbVertex
100
AcDb2dVertex
 10
7.2911032319
 20
6.6443789744
 30
0.0
  0
VERTEX
  5
584
330
28B
100
AcDbEntity
  8
0
  6
CONTINUOUS
 62
     7
100
AcDbVertex
100
AcDb2dVertex
 10
7.2933171656
 20
6.6809371359
 30
0.0
  0
VERTEX
  5
585
330
28B
100
AcDbEntity
  8
0
  6
CONTINUOUS
 62
     7
100
AcDbVertex
100
AcDb2dVertex
 10
7.2969587927
 20
6.7181611417
 30
0.0
  0
VERTEX
  5
586
330
28B
100
AcDbEntity
  8
0
  6
CONTINUOUS
 62
     7
100
AcDbVertex
100
AcDb2dVertex
 10
7.3020201294
 20
6.7559693841
 30
0.0
  0
VERTEX
  5
587
330
28B
100
AcDbEntity
  8
0
  6
CONTINUOUS
 62
     7
100
AcDbVertex
100
AcDb2dVertex
 10
7.3084900795
 20
6.7942789741
 30
0.0
  0
VERTEX
  5
588
330
28B
100
AcDbEntity
  8
0
  6
CONTINUOUS
 62
     7
100
AcDbVertex
100
AcDb2dVertex
 10
7.3163544586
 20
6.8330059236
 30
0.0
  0
VERTEX
  5
589
330
28B
100
AcDbEntity
  8
0
  6
CONTINUOUS
 62
     7
100
AcDbVertex
100
AcDb2dVertex
 10
7.3255960254
 20
6.8720653297
 30
0.0
  0
VERTEX
  5
58A
330
28B
100
AcDbEntity
  8
0
  6
CONTINUOUS
 62
     7
100
AcDbVertex
100
AcDb2dVertex
 10
7.3361945189
 20
6.9113715606
 30
0.0
  0
VERTEX
  5
58B
330
28B
100
AcDbEntity
  8
0
  6
CONTINUOUS
 62
     7
100
AcDbVertex
100
AcDb2dVertex
 10
7.3481267037
 20
6.9508384432
 30
0.0
  0
VERTEX
  5
58C
330
28B
100
AcDbEntity
  8
0
  6
CONTINUOUS
 62
     7
100
AcDbVertex
100
AcDb2dVertex
 10
7.3613664202
 20
6.9903794524
 30
0.0
  0
VERTEX
  5
58D
330
28B
100
AcDbEntity
  8
0
  6
CONTINUOUS
 62
     7
100
AcDbVertex
100
AcDb2dVertex
 10
7.3758846423
 20
7.0299079004
 30
0.0
  0
VERTEX
  5
58E
330
28B
100
AcDbEntity
  8
0
  6
CONTINUOUS
 62
     7
100
AcDbVertex
100
AcDb2dVertex
 10
7.391649541
 20
7.0693371271
 30
0.0
  0
VERTEX
  5
58F
330
28B
100
AcDbEntity
  8
0
  6
CONTINUOUS
 62
     7
100
AcDbVertex
100
AcDb2dVertex
 10
7.4086265542
 20
7.1085806899
 30
0.0
  0
VERTEX
  5
590
330
28B
100
AcDbEntity
  8
0
  6
CONTINUOUS
 62
     7
100
AcDbVertex
100
AcDb2dVertex
 10
7.4267784623
 20
7.1475525532
 30
0.0
  0
VERTEX
  5
591
330
28B
100
AcDbEntity
  8
0
  6
CONTINUOUS
 62
     7
100
AcDbVertex
100
AcDb2dVertex
 10
7.44606547
 20
7.1861672769
 30
0.0
  0
VERTEX
  5
592
330
28B
100
AcDbEntity
  8
0
  6
CONTINUOUS
 62
     7
100
AcDbVertex
100
AcDb2dVertex
 10
7.4664452934
 20
7.2243402043
 30
0.0
  0
VERTEX
  5
593
330
28B
100
AcDbEntity
  8
0
  6
CONTINUOUS
 62
     7
100
AcDbVertex
100
AcDb2dVertex
 10
7.4878732528
 20
7.2619876468
 30
0.0
  0
VERTEX
  5
594
330
28B
100
AcDbEntity
  8
0
  6
CONTINUOUS
 62
     7
100
AcDbVertex
100
AcDb2dVertex
 10
7.5103023707
 20
7.2990270681
 30
0.0
  0
VERTEX
  5
595
330
28B
100
AcDbEntity
  8
0
  6
CONTINUOUS
 62
     7
100
AcDbVertex
100
AcDb2dVertex
 10
7.5336834747
 20
7.3353772649
 30
0.0
  0
VERTEX
  5
596
330
28B
100
AcDbEntity
  8
0
  6
CONTINUOUS
 62
     7
100
AcDbVertex
100
AcDb2dVertex
 10
7.5579653051
 20
7.3709585449
 30
0.0
  0
VERTEX
  5
597
330
28B
100
AcDbEntity
  8
0
  6
CONTINUOUS
 62
     7
100
AcDbVertex
100
AcDb2dVertex
 10
7.5830946277
 20
7.4056929015
 30
0.0
  0
VERTEX
  5
598
330
28B
100
AcDbEntity
  8
0
  6
CONTINUOUS
 62
     7
100
AcDbVertex
100
AcDb2dVertex
 10
7.6090163502
 20
7.4395041848
 30
0.0
  0
VERTEX
  5
599
330
28B
100
AcDbEntity
  8
0
  6
CONTINUOUS
 62
     7
100
AcDbVertex
100
AcDb2dVertex
 10
7.6356736433
 20
7.4723182687
 30
0.0
  0
VERTEX
  5
59A
330
28B
100
AcDbEntity
  8
0
  6
CONTINUOUS
 62
     7
100
AcDbVertex
100
AcDb2dVertex
 10
7.6630080647
 20
7.5040632132
 30
0.0
  0
VERTEX
  5
59B
330
28B
100
AcDbEntity
  8
0
  6
CONTINUOUS
 62
     7
100
AcDbVertex
100
AcDb2dVertex
 10
7.6909596879
 20
7.5346694224
 30
0.0
  0
VERTEX
  5
59C
330
28B
100
AcDbEntity
  8
0
  6
CONTINUOUS
 62
     7
100
AcDbVertex
100
AcDb2dVertex
 10
7.7194672332
 20
7.5640697967
 30
0.0
  0
VERTEX
  5
59D
330
28B
100
AcDbEntity
  8
0
  6
CONTINUOUS
 62
     7
100
AcDbVertex
100
AcDb2dVertex
 10
7.7484682021
 20
7.5921998803
 30
0.0
  0
VERTEX
  5
59E
330
28B
100
AcDbEntity
  8
0
  6
CONTINUOUS
 62
     7
100
AcDbVertex
100
AcDb2dVertex
 10
7.7778990144
 20
7.6189980022
 30
0.0
  0
VERTEX
  5
59F
330
28B
100
AcDbEntity
  8
0
  6
CONTINUOUS
 62
     7
100
AcDbVertex
100
AcDb2dVertex
 10
7.8076951473
 20
7.6444054115
 30
0.0
  0
VERTEX
  5
5A0
330
28B
100
AcDbEntity
  8
0
  6
CONTINUOUS
 62
     7
100
AcDbVertex
100
AcDb2dVertex
 10
7.8377912774
 20
7.6683664064
 30
0.0
  0
VERTEX
  5
5A1
330
28B
100
AcDbEntity
  8
0
  6
CONTINUOUS
 62
     7
100
AcDbVertex
100
AcDb2dVertex
 10
7.8681214234
 20
7.6908284559
 30
0.0
  0
VERTEX
  5
5A2
330
28B
100
AcDbEntity
  8
0
  6
CONTINUOUS
 62
     7
100
AcDbVertex
100
AcDb2dVertex
 10
7.8986190912
 20
7.7117423155
 30
0.0
  0
VERTEX
  5
5A3
330
28B
100
AcDbEntity
  8
0
  6
CONTINUOUS
 62
     7
100
AcDbVertex
100
AcDb2dVertex
 10
7.9292174191
 20
7.7310621346
 30
0.0
  0
VERTEX
  5
5A4
330
28B
100
AcDbEntity
  8
0
  6
CONTINUOUS
 62
     7
100
AcDbVertex
100
AcDb2dVertex
 10
7.9598493248
 20
7.7487455574
 30
0.0
  0
VERTEX
  5
5A5
330
28B
100
AcDbEntity
  8
0
  6
CONTINUOUS
 62
     7
100
AcDbVertex
100
AcDb2dVertex
 10
7.9904476527
 20
7.7647538157
 30
0.0
  0
VERTEX
  5
5A6
330
28B
100
AcDbEntity
  8
0
  6
CONTINUOUS
 62
     7
100
AcDbVertex
100
AcDb2dVertex
 10
8.0209453204
 20
7.7790518138
 30
0.0
  0
VERTEX
  5
5A7
330
28B
100
AcDbEntity
  8
0
  6
CONTINUOUS
 62
     7
100
AcDbVertex
100
AcDb2dVertex
 10
8.0512754665
 20
7.7916082055
 30
0.0
  0
VERTEX
  5
5A8
330
28B
100
AcDbEntity
  8
0
  6
CONTINUOUS
 62
     7
100
AcDbVertex
100
AcDb2dVertex
 10
8.0813715966
 20
7.8023954628
 30
0.0
  0
VERTEX
  5
5A9
330
28B
100
AcDbEntity
  8
0
  6
CONTINUOUS
 62
     7
100
AcDbVertex
100
AcDb2dVertex
 10
8.1111677295
 20
7.8113899363
 30
0.0
  0
VERTEX
  5
5AA
330
28B
100
AcDbEntity
  8
0
  6
CONTINUOUS
 62
     7
100
AcDbVertex
100
AcDb2dVertex
 10
8.1405985418
 20
7.8185719069
 30
0.0
  0
VERTEX
  5
5AB
330
28B
100
AcDbEntity
  8
0
  6
CONTINUOUS
 62
     7
100
AcDbVertex
100
AcDb2dVertex
 10
8.1695995106
 20
7.8239256293
 30
0.0
  0
VERTEX
  5
5AC
330
28B
100
AcDbEntity
  8
0
  6
CONTINUOUS
 62
     7
100
AcDbVertex
100
AcDb2dVertex
 10
8.198107056
 20
7.8274393662
 30
0.0
  0
VERTEX
  5
5AD
330
28B
100
AcDbEntity
  8
0
  6
CONTINUOUS
 62
     7
100
AcDbVertex
100
AcDb2dVertex
 10
8.2260586792
 20
7.8291054142
 30
0.0
  0
VERTEX
  5
5AE
330
28B
100
AcDbEntity
  8
0
  6
CONTINUOUS
 62
     7
100
AcDbVertex
100
AcDb2dVertex
 10
8.2533931006
 20
7.8289201209
 30
0.0
  0
VERTEX
  5
5AF
330
28B
100
AcDbEntity
  8
0
  6
CONTINUOUS
 62
     7
100
AcDbVertex
100
AcDb2dVertex
 10
8.2800503937
 20
7.8268838925
 30
0.0
  0
VERTEX
  5
5B0
330
28B
100
AcDbEntity
  8
0
  6
CONTINUOUS
 62
     7
100
AcDbVertex
100
AcDb2dVertex
 10
8.3059721162
 20
7.823001193
 30
0.0
  0
VERTEX
  5
5B1
330
28B
100
AcDbEntity
  8
0
  6
CONTINUOUS
 62
     7
100
AcDbVertex
100
AcDb2dVertex
 10
8.3311014388
 20
7.8172805347
 30
0.0
  0
VERTEX
  5
5B2
330
28B
100
AcDbEntity
  8
0
  6
CONTINUOUS
 62
     7
100
AcDbVertex
100
AcDb2dVertex
 10
8.3553832692
 20
7.8097344594
 30
0.0
  0
VERTEX
  5
5B3
330
28B
100
AcDbEntity
  8
0
  6
CONTINUOUS
 62
     7
100
AcDbVertex
100
AcDb2dVertex
 10
8.3787643731
 20
7.8003795105
 30
0.0
  0
VERTEX
  5
5B4
330
28B
100
AcDbEntity
  8
0
  6
CONTINUOUS
 62
     7
100
AcDbVertex
100
AcDb2dVertex
 10
8.4011934911
 20
7.7892361975
 30
0.0
  0
VERTEX
  5
5B5
330
28B
100
AcDbEntity
  8
0
  6
CONTINUOUS
 62
     7
100
AcDbVertex
100
AcDb2dVertex
 10
8.407094203
 20
7.785915596
 30
0.0
  0
SEQEND
  5
5B6
330
28B
100
AcDbEntity
  8
0
  6
CONTINUOUS
 62
     7
  0
POLYLINE
  5
28C
330
1F
100
AcDbEntity
  8
0
  6
CONTINUOUS
 62
     7
100
AcDb2dPolyline
 66
     1
 10
0.0
 20
0.0
 30
0.0
  0
VERTEX
  5
5B7
330
28C
100
AcDbEntity
  8
0
  6
CONTINUOUS
 62
     7
100
AcDbVertex
100
AcDb2dVertex
 10
8.3977215263
 20
7.7911114023
 30
0.0
  0
VERTEX
  5
5B8
330
28C
100
AcDbEntity
  8
0
  6
CONTINUOUS
 62
     7
100
AcDbVertex
100
AcDb2dVertex
 10
8.3788618656
 20
7.8019849963
 30
0.0
  0
VERTEX
  5
5B9
330
28C
100
AcDbEntity
  8
0
  6
CONTINUOUS
 62
     7
100
AcDbVertex
100
AcDb2dVertex
 10
8.3561196998
 20
7.8128866547
 30
0.0
  0
VERTEX
  5
5BA
330
28C
100
AcDbEntity
  8
0
  6
CONTINUOUS
 62
     7
100
AcDbVertex
100
AcDb2dVertex
 10
8.332422503
 20
7.8219732074
 30
0.0
  0
VERTEX
  5
5BB
330
28C
100
AcDbEntity
  8
0
  6
CONTINUOUS
 62
     7
100
AcDbVertex
100
AcDb2dVertex
 10
8.3078228889
 20
7.8292244802
 30
0.0
  0
VERTEX
  5
5BC
330
28C
100
AcDbEntity
  8
0
  6
CONTINUOUS
 62
     7
100
AcDbVertex
100
AcDb2dVertex
 10
8.2823754748
 20
7.8346243734
 30
0.0
  0
VERTEX
  5
5BD
330
28C
100
AcDbEntity
  8
0
  6
CONTINUOUS
 62
     7
100
AcDbVertex
100
AcDb2dVertex
 10
8.2561367602
 20
7.8381608979
 30
0.0
  0
VERTEX
  5
5BE
330
28C
100
AcDbEntity
  8
0
  6
CONTINUOUS
 62
     7
100
AcDbVertex
100
AcDb2dVertex
 10
8.2291650018
 20
7.8398262017
 30
0.0
  0
VERTEX
  5
5BF
330
28C
100
AcDbEntity
  8
0
  6
CONTINUOUS
 62
     7
100
AcDbVertex
100
AcDb2dVertex
 10
8.2015200837
 20
7.8396165874
 30
0.0
  0
VERTEX
  5
5C0
330
28C
100
AcDbEntity
  8
0
  6
CONTINUOUS
 62
     7
100
AcDbVertex
100
AcDb2dVertex
 10
8.1732633844
 20
7.8375325204
 30
0.0
  0
VERTEX
  5
5C1
330
28C
100
AcDbEntity
  8
0
  6
CONTINUOUS
 62
     7
100
AcDbVertex
100
AcDb2dVertex
 10
8.144457641
 20
7.8335786278
 30
0.0
  0
VERTEX
  5
5C2
330
28C
100
AcDbEntity
  8
0
  6
CONTINUOUS
 62
     7
100
AcDbVertex
100
AcDb2dVertex
 10
8.1151668093
 20
7.8277636884
 30
0.0
  0
VERTEX
  5
5C3
330
28C
100
AcDbEntity
  8
0
  6
CONTINUOUS
 62
     7
100
AcDbVertex
100
AcDb2dVertex
 10
8.0854559225
 20
7.8201006126
 30
0.0
  0
VERTEX
  5
5C4
330
28C
100
AcDbEntity
  8
0
  6
CONTINUOUS
 62
     7
100
AcDbVertex
100
AcDb2dVertex
 10
8.0553909461
 20
7.8106064146
 30
0.0
  0
VERTEX
  5
5C5
330
28C
100
AcDbEntity
  8
0
  6
CONTINUOUS
 62
     7
100
AcDbVertex
100
AcDb2dVertex
 10
8.0250386319
 20
7.7993021737
 30
0.0
  0
VERTEX
  5
5C6
330
28C
100
AcDbEntity
  8
0
  6
CONTINUOUS
 62
     7
100
AcDbVertex
100
AcDb2dVertex
 10
7.9944663697
 20
7.7862129882
 30
0.0
  0
VERTEX
  5
5C7
330
28C
100
AcDbEntity
  8
0
  6
CONTINUOUS
 62
     7
100
AcDbVertex
100
AcDb2dVertex
 10
7.9637420376
 20
7.7713679194
 30
0.0
  0
VERTEX
  5
5C8
330
28C
100
AcDbEntity
  8
0
  6
CONTINUOUS
 62
     7
100
AcDbVertex
100
AcDb2dVertex
 10
7.9329338513
 20
7.7547999271
 30
0.0
  0
SEQEND
  5
5C9
330
28C
100
AcDbEntity
  8
0
  6
CONTINUOUS
 62
     7
  0
LINE
  5
28D
330
1F
100
AcDbEntity
  8
0
  6
CONTINUOUS
 62
     7
100
AcDbLine
 10
7.7125429582
 20
7.8820288815
 30
0.0
 11
7.9329338513
 21
7.7547999271
 31
0.0
  0
POLYLINE
  5
28E
330
1F
100
AcDbEntity
  8
0
  6
CONTINUOUS
 62
     7
100
AcDb2dPolyline
 66
     1
 10
0.0
 20
0.0
 30
0.0
  0
VERTEX
  5
5CA
330
28E
100
AcDbEntity
  8
0
  6
CONTINUOUS
 62
     7
100
AcDbVertex
100
AcDb2dVertex
 10
7.7125429582
 20
7.8820288815
 30
0.0
  0
VERTEX
  5
5CB
330
28E
100
AcDbEntity
  8
0
  6
CONTINUOUS
 62
     7
100
AcDbVertex
100
AcDb2dVertex
 10
7.7430943084
 20
7.8984656975
 30
0.0
  0
VERTEX
  5
5CC
330
28E
100
AcDbEntity
  8
0
  6
CONTINUOUS
 62
     7
100
AcDbVertex
100
AcDb2dVertex
 10
7.7735637587
 20
7.9132085061
 30
0.0
  0
VERTEX
  5
5CD
330
28E
100
AcDbEntity
  8
0
  6
CONTINUOUS
 62
     7
100
AcDbVertex
100
AcDb2dVertex
 10
7.8038847832
 20
7.9262251185
 30
0.0
  0
VERTEX
  5
5CE
330
28E
100
AcDbEntity
  8
0
  6
CONTINUOUS
 62
     7
100
AcDbVertex
100
AcDb2dVertex
 10
7.8339911803
 20
7.9374871147
 30
0.0
  0
VERTEX
  5
5CF
330
28E
100
AcDbEntity
  8
0
  6
CONTINUOUS
 62
     7
100
AcDbVertex
100
AcDb2dVertex
 10
7.863817217
 20
7.9469699058
 30
0.0
  0
VERTEX
  5
5D0
330
28E
100
AcDbEntity
  8
0
  6
CONTINUOUS
 62
     7
100
AcDbVertex
100
AcDb2dVertex
 10
7.8932977725
 20
7.9546527875
 30
0.0
  0
VERTEX
  5
5D1
330
28E
100
AcDbEntity
  8
0
  6
CONTINUOUS
 62
     7
100
AcDbVertex
100
AcDb2dVertex
 10
7.9223684801
 20
7.9605189852
 30
0.0
  0
VERTEX
  5
5D2
330
28E
100
AcDbEntity
  8
0
  6
CONTINUOUS
 62
     7
100
AcDbVertex
100
AcDb2dVertex
 10
7.9509658682
 20
7.964555691
 30
0.0
  0
VERTEX
  5
5D3
330
28E
100
AcDbEntity
  8
0
  6
CONTINUOUS
 62
     7
100
AcDbVertex
100
AcDb2dVertex
 10
7.9790274983
 20
7.9667540914
 30
0.0
  0
VERTEX
  5
5D4
330
28E
100
AcDbEntity
  8
0
  6
CONTINUOUS
 62
     7
100
AcDbVertex
100
AcDb2dVertex
 10
8.006492102
 20
7.9671093864
 30
0.0
  0
VERTEX
  5
5D5
330
28E
100
AcDbEntity
  8
0
  6
CONTINUOUS
 62
     7
100
AcDbVertex
100
AcDb2dVertex
 10
8.0332997142
 20
7.9656208002
 30
0.0
  0
VERTEX
  5
5D6
330
28E
100
AcDbEntity
  8
0
  6
CONTINUOUS
 62
     7
100
AcDbVertex
100
AcDb2dVertex
 10
8.0593918043
 20
7.9622915831
 30
0.0
  0
VERTEX
  5
5D7
330
28E
100
AcDbEntity
  8
0
  6
CONTINUOUS
 62
     7
100
AcDbVertex
100
AcDb2dVertex
 10
8.084711404
 20
7.9571290038
 30
0.0
  0
VERTEX
  5
5D8
330
28E
100
AcDbEntity
  8
0
  6
CONTINUOUS
 62
     7
100
AcDbVertex
100
AcDb2dVertex
 10
8.1092032315
 20
7.9501443342
 30
0.0
  0
VERTEX
  5
5D9
330
28E
100
AcDbEntity
  8
0
  6
CONTINUOUS
 62
     7
100
AcDbVertex
100
AcDb2dVertex
 10
8.1328138124
 20
7.9413528242
 30
0.0
  0
VERTEX
  5
5DA
330
28E
100
AcDbEntity
  8
0
  6
CONTINUOUS
 62
     7
100
AcDbVertex
100
AcDb2dVertex
 10
8.1554915965
 20
7.9307736689
 30
0.0
  0
VERTEX
  5
5DB
330
28E
100
AcDbEntity
  8
0
  6
CONTINUOUS
 62
     7
100
AcDbVertex
100
AcDb2dVertex
 10
8.1681440768
 20
7.9238585677
 30
0.0
  0
SEQEND
  5
5DC
330
28E
100
AcDbEntity
  8
0
  6
CONTINUOUS
 62
     7
  0
POLYLINE
  5
28F
330
1F
100
AcDbEntity
  8
0
  6
CONTINUOUS
 62
     7
100
AcDb2dPolyline
 66
     1
 10
0.0
 20
0.0
 30
0.0
  0
VERTEX
  5
5DD
330
28F
100
AcDbEntity
  8
0
  6
CONTINUOUS
 62
     7
100
AcDbVertex
100
AcDb2dVertex
 10
7.2430224147
 20
6.3213272082
 30
0.0
  0
VERTEX
  5
5DE
330
28F
100
AcDbEntity
  8
0
  6
CONTINUOUS
 62
     7
100
AcDbVertex
100
AcDb2dVertex
 10
7.2388296642
 20
6.3237919059
 30
0.0
  0
VERTEX
  5
5DF
330
28F
100
AcDbEntity
  8
0
  6
CONTINUOUS
 62
     7
100
AcDbVertex
100
AcDb2dVertex
 10
7.2179254087
 20
6.3374801987
 30
0.0
  0
VERTEX
  5
5E0
330
28F
100
AcDbEntity
  8
0
  6
CONTINUOUS
 62
     7
100
AcDbVertex
100
AcDb2dVertex
 10
7.1980858844
 20
6.352882673
 30
0.0
  0
VERTEX
  5
5E1
330
28F
100
AcDbEntity
  8
0
  6
CONTINUOUS
 62
     7
100
AcDbVertex
100
AcDb2dVertex
 10
7.1793544082
 20
6.3699656995
 30
0.0
  0
VERTEX
  5
5E2
330
28F
100
AcDbEntity
  8
0
  6
CONTINUOUS
 62
     7
100
AcDbVertex
100
AcDb2dVertex
 10
7.1617718773
 20
6.38869198
 30
0.0
  0
VERTEX
  5
5E3
330
28F
100
AcDbEntity
  8
0
  6
CONTINUOUS
 62
     7
100
AcDbVertex
100
AcDb2dVertex
 10
7.145376681
 20
6.4090206283
 30
0.0
  0
VERTEX
  5
5E4
330
28F
100
AcDbEntity
  8
0
  6
CONTINUOUS
 62
     7
100
AcDbVertex
100
AcDb2dVertex
 10
7.1302046156
 20
6.4309072596
 30
0.0
  0
VERTEX
  5
5E5
330
28F
100
AcDbEntity
  8
0
  6
CONTINUOUS
 62
     7
100
AcDbVertex
100
AcDb2dVertex
 10
7.1162888072
 20
6.4543040877
 30
0.0
  0
VERTEX
  5
5E6
330
28F
100
AcDbEntity
  8
0
  6
CONTINUOUS
 62
     7
100
AcDbVertex
100
AcDb2dVertex
 10
7.1036596391
 20
6.4791600288
 30
0.0
  0
VERTEX
  5
5E7
330
28F
100
AcDbEntity
  8
0
  6
CONTINUOUS
 62
     7
100
AcDbVertex
100
AcDb2dVertex
 10
7.0923446851
 20
6.5054208137
 30
0.0
  0
VERTEX
  5
5E8
330
28F
100
AcDbEntity
  8
0
  6
CONTINUOUS
 62
     7
100
AcDbVertex
100
AcDb2dVertex
 10
7.0823686499
 20
6.5330291057
 30
0.0
  0
VERTEX
  5
5E9
330
28F
100
AcDbEntity
  8
0
  6
CONTINUOUS
 62
     7
100
AcDbVertex
100
AcDb2dVertex
 10
7.0737533148
 20
6.5619246259
 30
0.0
  0
VERTEX
  5
5EA
330
28F
100
AcDbEntity
  8
0
  6
CONTINUOUS
 62
     7
100
AcDbVertex
100
AcDb2dVertex
 10
7.06651749
 20
6.5920442852
 30
0.0
  0
VERTEX
  5
5EB
330
28F
100
AcDbEntity
  8
0
  6
CONTINUOUS
 62
     7
100
AcDbVertex
100
AcDb2dVertex
 10
7.060676974
 20
6.6233223215
 30
0.0
  0
VERTEX
  5
5EC
330
28F
100
AcDbEntity
  8
0
  6
CONTINUOUS
 62
     7
100
AcDbVertex
100
AcDb2dVertex
 10
7.0562445187
 20
6.6556904438
 30
0.0
  0
VERTEX
  5
5ED
330
28F
100
AcDbEntity
  8
0
  6
CONTINUOUS
 62
     7
100
AcDbVertex
100
AcDb2dVertex
 10
7.0532298017
 20
6.6890779809
 30
0.0
  0
VERTEX
  5
5EE
330
28F
100
AcDbEntity
  8
0
  6
CONTINUOUS
 62
     7
100
AcDbVertex
100
AcDb2dVertex
 10
7.0516394053
 20
6.7234120358
 30
0.0
  0
VERTEX
  5
5EF
330
28F
100
AcDbEntity
  8
0
  6
CONTINUOUS
 62
     7
100
AcDbVertex
100
AcDb2dVertex
 10
7.0514768018
 20
6.7586176451
 30
0.0
  0
VERTEX
  5
5F0
330
28F
100
AcDbEntity
  8
0
  6
CONTINUOUS
 62
     7
100
AcDbVertex
100
AcDb2dVertex
 10
7.0527423463
 20
6.7946179423
 30
0.0
  0
VERTEX
  5
5F1
330
28F
100
AcDbEntity
  8
0
  6
CONTINUOUS
 62
     7
100
AcDbVertex
100
AcDb2dVertex
 10
7.0554332756
 20
6.831334326
 30
0.0
  0
VERTEX
  5
5F2
330
28F
100
AcDbEntity
  8
0
  6
CONTINUOUS
 62
     7
100
AcDbVertex
100
AcDb2dVertex
 10
7.0595437145
 20
6.8686866311
 30
0.0
  0
VERTEX
  5
5F3
330
28F
100
AcDbEntity
  8
0
  6
CONTINUOUS
 62
     7
100
AcDbVertex
100
AcDb2dVertex
 10
7.0650646884
 20
6.9065933042
 30
0.0
  0
VERTEX
  5
5F4
330
28F
100
AcDbEntity
  8
0
  6
CONTINUOUS
 62
     7
100
AcDbVertex
100
AcDb2dVertex
 10
7.0719841431
 20
6.9449715816
 30
0.0
  0
VERTEX
  5
5F5
330
28F
100
AcDbEntity
  8
0
  6
CONTINUOUS
 62
     7
100
AcDbVertex
100
AcDb2dVertex
 10
7.0802869708
 20
6.9837376697
 30
0.0
  0
VERTEX
  5
5F6
330
28F
100
AcDbEntity
  8
0
  6
CONTINUOUS
 62
     7
100
AcDbVertex
100
AcDb2dVertex
 10
7.0899550437
 20
7.0228069284
 30
0.0
  0
VERTEX
  5
5F7
330
28F
100
AcDbEntity
  8
0
  6
CONTINUOUS
 62
     7
100
AcDbVertex
100
AcDb2dVertex
 10
7.1009672527
 20
7.0620940554
 30
0.0
  0
VERTEX
  5
5F8
330
28F
100
AcDbEntity
  8
0
  6
CONTINUOUS
 62
     7
100
AcDbVertex
100
AcDb2dVertex
 10
7.1132995544
 20
7.101513273
 30
0.0
  0
VERTEX
  5
5F9
330
28F
100
AcDbEntity
  8
0
  6
CONTINUOUS
 62
     7
100
AcDbVertex
100
AcDb2dVertex
 10
7.126925023
 20
7.140978515
 30
0.0
  0
VERTEX
  5
5FA
330
28F
100
AcDbEntity
  8
0
  6
CONTINUOUS
 62
     7
100
AcDbVertex
100
AcDb2dVertex
 10
7.141813909
 20
7.1804036145
 30
0.0
  0
VERTEX
  5
5FB
330
28F
100
AcDbEntity
  8
0
  6
CONTINUOUS
 62
     7
100
AcDbVertex
100
AcDb2dVertex
 10
7.1579337049
 20
7.2197024926
 30
0.0
  0
VERTEX
  5
5FC
330
28F
100
AcDbEntity
  8
0
  6
CONTINUOUS
 62
     7
100
AcDbVertex
100
AcDb2dVertex
 10
7.1752492153
 20
7.2587893457
 30
0.0
  0
VERTEX
  5
5FD
330
28F
100
AcDbEntity
  8
0
  6
CONTINUOUS
 62
     7
100
AcDbVertex
100
AcDb2dVertex
 10
7.1937226343
 20
7.2975788333
 30
0.0
  0
VERTEX
  5
5FE
330
28F
100
AcDbEntity
  8
0
  6
CONTINUOUS
 62
     7
100
AcDbVertex
100
AcDb2dVertex
 10
7.2133136277
 20
7.3359862641
 30
0.0
  0
VERTEX
  5
5FF
330
28F
100
AcDbEntity
  8
0
  6
CONTINUOUS
 62
     7
100
AcDbVertex
100
AcDb2dVertex
 10
7.2339794216
 20
7.373927781
 30
0.0
  0
VERTEX
  5
600
330
28F
100
AcDbEntity
  8
0
  6
CONTINUOUS
 62
     7
100
AcDbVertex
100
AcDb2dVertex
 10
7.255674895
 20
7.411320544
 30
0.0
  0
VERTEX
  5
601
330
28F
100
AcDbEntity
  8
0
  6
CONTINUOUS
 62
     7
100
AcDbVertex
100
AcDb2dVertex
 10
7.2783526791
 20
7.4480829114
 30
0.0
  0
VERTEX
  5
602
330
28F
100
AcDbEntity
  8
0
  6
CONTINUOUS
 62
     7
100
AcDbVertex
100
AcDb2dVertex
 10
7.30196326
 20
7.4841346179
 30
0.0
  0
VERTEX
  5
603
330
28F
100
AcDbEntity
  8
0
  6
CONTINUOUS
 62
     7
100
AcDbVertex
100
AcDb2dVertex
 10
7.3264550875
 20
7.5193969497
 30
0.0
  0
VERTEX
  5
604
330
28F
100
AcDbEntity
  8
0
  6
CONTINUOUS
 62
     7
100
AcDbVertex
100
AcDb2dVertex
 10
7.3517746872
 20
7.5537929165
 30
0.0
  0
VERTEX
  5
605
330
28F
100
AcDbEntity
  8
0
  6
CONTINUOUS
 62
     7
100
AcDbVertex
100
AcDb2dVertex
 10
7.3778667773
 20
7.5872474196
 30
0.0
  0
VERTEX
  5
606
330
28F
100
AcDbEntity
  8
0
  6
CONTINUOUS
 62
     7
100
AcDbVertex
100
AcDb2dVertex
 10
7.4046743895
 20
7.619687416
 30
0.0
  0
VERTEX
  5
607
330
28F
100
AcDbEntity
  8
0
  6
CONTINUOUS
 62
     7
100
AcDbVertex
100
AcDb2dVertex
 10
7.4321389932
 20
7.6510420775
 30
0.0
  0
VERTEX
  5
608
330
28F
100
AcDbEntity
  8
0
  6
CONTINUOUS
 62
     7
100
AcDbVertex
100
AcDb2dVertex
 10
7.4602006233
 20
7.6812429457
 30
0.0
  0
VERTEX
  5
609
330
28F
100
AcDbEntity
  8
0
  6
CONTINUOUS
 62
     7
100
AcDbVertex
100
AcDb2dVertex
 10
7.4887980114
 20
7.7102240813
 30
0.0
  0
VERTEX
  5
60A
330
28F
100
AcDbEntity
  8
0
  6
CONTINUOUS
 62
     7
100
AcDbVertex
100
AcDb2dVertex
 10
7.517868719
 20
7.7379222081
 30
0.0
  0
VERTEX
  5
60B
330
28F
100
AcDbEntity
  8
0
  6
CONTINUOUS
 62
     7
100
AcDbVertex
100
AcDb2dVertex
 10
7.5473492745
 20
7.7642768513
 30
0.0
  0
VERTEX
  5
60C
330
28F
100
AcDbEntity
  8
0
  6
CONTINUOUS
 62
     7
100
AcDbVertex
100
AcDb2dVertex
 10
7.5771753112
 20
7.7892304692
 30
0.0
  0
VERTEX
  5
60D
330
28F
100
AcDbEntity
  8
0
  6
CONTINUOUS
 62
     7
100
AcDbVertex
100
AcDb2dVertex
 10
7.6072817084
 20
7.8127285793
 30
0.0
  0
VERTEX
  5
60E
330
28F
100
AcDbEntity
  8
0
  6
CONTINUOUS
 62
     7
100
AcDbVertex
100
AcDb2dVertex
 10
7.6376027328
 20
7.8347198766
 30
0.0
  0
VERTEX
  5
60F
330
28F
100
AcDbEntity
  8
0
  6
CONTINUOUS
 62
     7
100
AcDbVertex
100
AcDb2dVertex
 10
7.6680721831
 20
7.8551563464
 30
0.0
  0
VERTEX
  5
610
330
28F
100
AcDbEntity
  8
0
  6
CONTINUOUS
 62
     7
100
AcDbVertex
100
AcDb2dVertex
 10
7.6986235333
 20
7.8739933686
 30
0.0
  0
SEQEND
  5
611
330
28F
100
AcDbEntity
  8
0
  6
CONTINUOUS
 62
     7
  0
LINE
  5
290
330
1F
100
AcDbEntity
  8
0
  6
CONTINUOUS
 62
     7
100
AcDbLine
 10
7.6986235333
 20
7.8739933686
 30
0.0
 11
7.9190144264
 21
7.7467644142
 31
0.0
  0
POLYLINE
  5
291
330
1F
100
AcDbEntity
  8
0
  6
CONTINUOUS
 62
     7
100
AcDb2dPolyline
 66
     1
 10
0.0
 20
0.0
 30
0.0
  0
VERTEX
  5
612
330
291
100
AcDbEntity
  8
0
  6
CONTINUOUS
 62
     7
100
AcDbVertex
100
AcDb2dVertex
 10
7.9190144264
 20
7.7467644142
 30
0.0
  0
VERTEX
  5
613
330
291
100
AcDbEntity
  8
0
  6
CONTINUOUS
 62
     7
100
AcDbVertex
100
AcDb2dVertex
 10
7.8882062401
 20
7.7277620317
 30
0.0
  0
VERTEX
  5
614
330
291
100
AcDbEntity
  8
0
  6
CONTINUOUS
 62
     7
100
AcDbVertex
100
AcDb2dVertex
 10
7.8574819079
 20
7.7071335416
 30
0.0
  0
VERTEX
  5
615
330
291
100
AcDbEntity
  8
0
  6
CONTINUOUS
 62
     7
100
AcDbVertex
100
AcDb2dVertex
 10
7.8269096457
 20
7.6849247445
 30
0.0
  0
VERTEX
  5
616
330
291
100
AcDbEntity
  8
0
  6
CONTINUOUS
 62
     7
100
AcDbVertex
100
AcDb2dVertex
 10
7.7965573316
 20
7.6611849494
 30
0.0
  0
VERTEX
  5
617
330
291
100
AcDbEntity
  8
0
  6
CONTINUOUS
 62
     7
100
AcDbVertex
100
AcDb2dVertex
 10
7.7664923552
 20
7.6359668646
 30
0.0
  0
VERTEX
  5
618
330
291
100
AcDbEntity
  8
0
  6
CONTINUOUS
 62
     7
100
AcDbVertex
100
AcDb2dVertex
 10
7.7367814684
 20
7.6093264806
 30
0.0
  0
VERTEX
  5
619
330
291
100
AcDbEntity
  8
0
  6
CONTINUOUS
 62
     7
100
AcDbVertex
100
AcDb2dVertex
 10
7.7074906367
 20
7.5813229457
 30
0.0
  0
VERTEX
  5
61A
330
291
100
AcDbEntity
  8
0
  6
CONTINUOUS
 62
     7
100
AcDbVertex
100
AcDb2dVertex
 10
7.6786848933
 20
7.5520184348
 30
0.0
  0
VERTEX
  5
61B
330
291
100
AcDbEntity
  8
0
  6
CONTINUOUS
 62
     7
100
AcDbVertex
100
AcDb2dVertex
 10
7.650428194
 20
7.5214780112
 30
0.0
  0
VERTEX
  5
61C
330
291
100
AcDbEntity
  8
0
  6
CONTINUOUS
 62
     7
100
AcDbVertex
100
AcDb2dVertex
 10
7.6227832758
 20
7.4897694824
 30
0.0
  0
VERTEX
  5
61D
330
291
100
AcDbEntity
  8
0
  6
CONTINUOUS
 62
     7
100
AcDbVertex
100
AcDb2dVertex
 10
7.5958115175
 20
7.4569632493
 30
0.0
  0
VERTEX
  5
61E
330
291
100
AcDbEntity
  8
0
  6
CONTINUOUS
 62
     7
100
AcDbVertex
100
AcDb2dVertex
 10
7.5695728029
 20
7.4231321499
 30
0.0
  0
VERTEX
  5
61F
330
291
100
AcDbEntity
  8
0
  6
CONTINUOUS
 62
     7
100
AcDbVertex
100
AcDb2dVertex
 10
7.5441253888
 20
7.3883512977
 30
0.0
  0
VERTEX
  5
620
330
291
100
AcDbEntity
  8
0
  6
CONTINUOUS
 62
     7
100
AcDbVertex
100
AcDb2dVertex
 10
7.5195257747
 20
7.3526979149
 30
0.0
  0
VERTEX
  5
621
330
291
100
AcDbEntity
  8
0
  6
CONTINUOUS
 62
     7
100
AcDbVertex
100
AcDb2dVertex
 10
7.4958285779
 20
7.3162511611
 30
0.0
  0
VERTEX
  5
622
330
291
100
AcDbEntity
  8
0
  6
CONTINUOUS
 62
     7
100
AcDbVertex
100
AcDb2dVertex
 10
7.4730864121
 20
7.2790919572
 30
0.0
  0
VERTEX
  5
623
330
291
100
AcDbEntity
  8
0
  6
CONTINUOUS
 62
     7
100
AcDbVertex
100
AcDb2dVertex
 10
7.4513497708
 20
7.2413028058
 30
0.0
  0
VERTEX
  5
624
330
291
100
AcDbEntity
  8
0
  6
CONTINUOUS
 62
     7
100
AcDbVertex
100
AcDb2dVertex
 10
7.4306669146
 20
7.2029676085
 30
0.0
  0
VERTEX
  5
625
330
291
100
AcDbEntity
  8
0
  6
CONTINUOUS
 62
     7
100
AcDbVertex
100
AcDb2dVertex
 10
7.4110837647
 20
7.1641714789
 30
0.0
  0
VERTEX
  5
626
330
291
100
AcDbEntity
  8
0
  6
CONTINUOUS
 62
     7
100
AcDbVertex
100
AcDb2dVertex
 10
7.3926438006
 20
7.1250005542
 30
0.0
  0
VERTEX
  5
627
330
291
100
AcDbEntity
  8
0
  6
CONTINUOUS
 62
     7
100
AcDbVertex
100
AcDb2dVertex
 10
7.3753879636
 20
7.0855418037
 30
0.0
  0
VERTEX
  5
628
330
291
100
AcDbEntity
  8
0
  6
CONTINUOUS
 62
     7
100
AcDbVertex
100
AcDb2dVertex
 10
7.3593545661
 20
7.0458828357
 30
0.0
  0
VERTEX
  5
629
330
291
100
AcDbEntity
  8
0
  6
CONTINUOUS
 62
     7
100
AcDbVertex
100
AcDb2dVertex
 10
7.3445792062
 20
7.006111703
 30
0.0
  0
VERTEX
  5
62A
330
291
100
AcDbEntity
  8
0
  6
CONTINUOUS
 62
     7
100
AcDbVertex
100
AcDb2dVertex
 10
7.3310946889
 20
6.9663167076
 30
0.0
  0
VERTEX
  5
62B
330
291
100
AcDbEntity
  8
0
  6
CONTINUOUS
 62
     7
100
AcDbVertex
100
AcDb2dVertex
 10
7.3189309533
 20
6.9265862044
 30
0.0
  0
VERTEX
  5
62C
330
291
100
AcDbEntity
  8
0
  6
CONTINUOUS
 62
     7
100
AcDbVertex
100
AcDb2dVertex
 10
7.3081150058
 20
6.8870084049
 30
0.0
  0
VERTEX
  5
62D
330
291
100
AcDbEntity
  8
0
  6
CONTINUOUS
 62
     7
100
AcDbVertex
100
AcDb2dVertex
 10
7.2986708605
 20
6.8476711819
 30
0.0
  0
VERTEX
  5
62E
330
291
100
AcDbEntity
  8
0
  6
CONTINUOUS
 62
     7
100
AcDbVertex
100
AcDb2dVertex
 10
7.290619486
 20
6.8086618739
 30
0.0
  0
VERTEX
  5
62F
330
291
100
AcDbEntity
  8
0
  6
CONTINUOUS
 62
     7
100
AcDbVertex
100
AcDb2dVertex
 10
7.2839787581
 20
6.7700670913
 30
0.0
  0
VERTEX
  5
630
330
291
100
AcDbEntity
  8
0
  6
CONTINUOUS
 62
     7
100
AcDbVertex
100
AcDb2dVertex
 10
7.2787634211
 20
6.7319725242
 30
0.0
  0
VERTEX
  5
631
330
291
100
AcDbEntity
  8
0
  6
CONTINUOUS
 62
     7
100
AcDbVertex
100
AcDb2dVertex
 10
7.2749850542
 20
6.6944627521
 30
0.0
  0
VERTEX
  5
632
330
291
100
AcDbEntity
  8
0
  6
CONTINUOUS
 62
     7
100
AcDbVertex
100
AcDb2dVertex
 10
7.2726520464
 20
6.6576210561
 30
0.0
  0
VERTEX
  5
633
330
291
100
AcDbEntity
  8
0
  6
CONTINUOUS
 62
     7
100
AcDbVertex
100
AcDb2dVertex
 10
7.2717695775
 20
6.621529234
 30
0.0
  0
VERTEX
  5
634
330
291
100
AcDbEntity
  8
0
  6
CONTINUOUS
 62
     7
100
AcDbVertex
100
AcDb2dVertex
 10
7.2723396069
 20
6.5862674188
 30
0.0
  0
VERTEX
  5
635
330
291
100
AcDbEntity
  8
0
  6
CONTINUOUS
 62
     7
100
AcDbVertex
100
AcDb2dVertex
 10
7.274360869
 20
6.5519139004
 30
0.0
  0
VERTEX
  5
636
330
291
100
AcDbEntity
  8
0
  6
CONTINUOUS
 62
     7
100
AcDbVertex
100
AcDb2dVertex
 10
7.2778288759
 20
6.5185449524
 30
0.0
  0
VERTEX
  5
637
330
291
100
AcDbEntity
  8
0
  6
CONTINUOUS
 62
     7
100
AcDbVertex
100
AcDb2dVertex
 10
7.282735928
 20
6.4862346621
 30
0.0
  0
VERTEX
  5
638
330
291
100
AcDbEntity
  8
0
  6
CONTINUOUS
 62
     7
100
AcDbVertex
100
AcDb2dVertex
 10
7.2890711302
 20
6.4550547665
 30
0.0
  0
VERTEX
  5
639
330
291
100
AcDbEntity
  8
0
  6
CONTINUOUS
 62
     7
100
AcDbVertex
100
AcDb2dVertex
 10
7.296820417
 20
6.4250744929
 30
0.0
  0
VERTEX
  5
63A
330
291
100
AcDbEntity
  8
0
  6
CONTINUOUS
 62
     7
100
AcDbVertex
100
AcDb2dVertex
 10
7.3059665828
 20
6.3963604048
 30
0.0
  0
VERTEX
  5
63B
330
291
100
AcDbEntity
  8
0
  6
CONTINUOUS
 62
     7
100
AcDbVertex
100
AcDb2dVertex
 10
7.3164893209
 20
6.3689762549
 30
0.0
  0
VERTEX
  5
63C
330
291
100
AcDbEntity
  8
0
  6
CONTINUOUS
 62
     7
100
AcDbVertex
100
AcDb2dVertex
 10
7.3283652683
 20
6.3429828428
 30
0.0
  0
VERTEX
  5
63D
330
291
100
AcDbEntity
  8
0
  6
CONTINUOUS
 62
     7
100
AcDbVertex
100
AcDb2dVertex
 10
7.3415680572
 20
6.3184378803
 30
0.0
  0
SEQEND
  5
63E
330
291
100
AcDbEntity
  8
0
  6
CONTINUOUS
 62
     7
  0
LINE
  5
292
330
1F
100
AcDbEntity
  8
0
  6
CONTINUOUS
 62
     7
100
AcDbLine
 10
7.3415680572
 20
6.3184378803
 30
0.0
 11
7.3601272903
 21
6.3077238631
 31
0.0
  0
LINE
  5
293
330
1F
100
AcDbEntity
  8
0
  6
CONTINUOUS
 62
     7
100
AcDbLine
 10
8.0761706355
 20
7.5074153659
 30
0.0
 11
8.026721465
 21
7.4217668905
 31
0.0
  0
LINE
  5
294
330
1F
100
AcDbEntity
  8
0
  6
CONTINUOUS
 62
     7
100
AcDbLine
 10
7.6071331073
 20
6.6950185388
 30
0.0
 11
7.5576720607
 21
6.6093494933
 31
0.0
  0
LINE
  5
295
330
1F
100
AcDbEntity
  8
0
  6
CONTINUOUS
 62
     7
100
AcDbLine
 10
7.9190144264
 20
7.7248041741
 30
0.0
 11
7.9190144264
 21
7.7467644142
 31
0.0
  0
LINE
  5
296
330
1F
100
AcDbEntity
  8
0
  6
CONTINUOUS
 62
     7
100
AcDbLine
 10
7.9329338513
 20
7.7332958862
 30
0.0
 11
7.9329338513
 21
7.7547999271
 31
0.0
  0
LINE
  5
297
330
1F
100
AcDbEntity
  8
0
  6
CONTINUOUS
 62
     7
100
AcDbLine
 10
7.3415680572
 20
6.3184378803
 30
0.0
 11
7.3511540949
 21
6.3239717821
 31
0.0
  0
LINE
  5
298
330
1F
100
AcDbEntity
  8
0
  6
CONTINUOUS
 62
     7
100
AcDbLine
 10
7.7125429582
 20
7.8820288815
 30
0.0
 11
7.7072396573
 21
7.8789660064
 31
0.0
  0
POLYLINE
  5
299
330
1F
100
AcDbEntity
  8
0
  6
CONTINUOUS
 62
     7
100
AcDb2dPolyline
 66
     1
 10
0.0
 20
0.0
 30
0.0
  0
VERTEX
  5
63F
330
299
100
AcDbEntity
  8
0
  6
CONTINUOUS
 62
     7
100
AcDbVertex
100
AcDb2dVertex
 10
7.6933202325
 20
7.8709304935
 30
0.0
  0
VERTEX
  5
640
330
299
100
AcDbEntity
  8
0
  6
CONTINUOUS
 62
     7
100
AcDbVertex
100
AcDb2dVertex
 10
7.6627898586
 20
7.852097158
 30
0.0
  0
VERTEX
  5
641
330
299
100
AcDbEntity
  8
0
  6
CONTINUOUS
 62
     7
100
AcDbVertex
100
AcDb2dVertex
 10
7.6323425697
 20
7.8316538919
 30
0.0
  0
VERTEX
  5
642
330
299
100
AcDbEntity
  8
0
  6
CONTINUOUS
 62
     7
100
AcDbVertex
100
AcDb2dVertex
 10
7.6020458425
 20
7.8096460012
 30
0.0
  0
VERTEX
  5
643
330
299
100
AcDbEntity
  8
0
  6
CONTINUOUS
 62
     7
100
AcDbVertex
100
AcDb2dVertex
 10
7.5719668201
 20
7.7861222593
 30
0.0
  0
VERTEX
  5
644
330
299
100
AcDbEntity
  8
0
  6
CONTINUOUS
 62
     7
100
AcDbVertex
100
AcDb2dVertex
 10
7.5421721632
 20
7.7611347993
 30
0.0
  0
VERTEX
  5
645
330
299
100
AcDbEntity
  8
0
  6
CONTINUOUS
 62
     7
100
AcDbVertex
100
AcDb2dVertex
 10
7.5127279022
 20
7.734738998
 30
0.0
  0
VERTEX
  5
646
330
299
100
AcDbEntity
  8
0
  6
CONTINUOUS
 62
     7
100
AcDbVertex
100
AcDb2dVertex
 10
7.4836992911
 20
7.7069933533
 30
0.0
  0
VERTEX
  5
647
330
299
100
AcDbEntity
  8
0
  6
CONTINUOUS
 62
     7
100
AcDbVertex
100
AcDb2dVertex
 10
7.4551506624
 20
7.6779593546
 30
0.0
  0
VERTEX
  5
648
330
299
100
AcDbEntity
  8
0
  6
CONTINUOUS
 62
     7
100
AcDbVertex
100
AcDb2dVertex
 10
7.4271452853
 20
7.6477013466
 30
0.0
  0
VERTEX
  5
649
330
299
100
AcDbEntity
  8
0
  6
CONTINUOUS
 62
     7
100
AcDbVertex
100
AcDb2dVertex
 10
7.3997452248
 20
7.6162863867
 30
0.0
  0
VERTEX
  5
64A
330
299
100
AcDbEntity
  8
0
  6
CONTINUOUS
 62
     7
100
AcDbVertex
100
AcDb2dVertex
 10
7.3730112045
 20
7.5837840961
 30
0.0
  0
VERTEX
  5
64B
330
299
100
AcDbEntity
  8
0
  6
CONTINUOUS
 62
     7
100
AcDbVertex
100
AcDb2dVertex
 10
7.347002472
 20
7.550266506
 30
0.0
  0
VERTEX
  5
64C
330
299
100
AcDbEntity
  8
0
  6
CONTINUOUS
 62
     7
100
AcDbVertex
100
AcDb2dVertex
 10
7.3217766672
 20
7.5158078974
 30
0.0
  0
VERTEX
  5
64D
330
299
100
AcDbEntity
  8
0
  6
CONTINUOUS
 62
     7
100
AcDbVertex
100
AcDb2dVertex
 10
7.2973896952
 20
7.480484637
 30
0.0
  0
VERTEX
  5
64E
330
299
100
AcDbEntity
  8
0
  6
CONTINUOUS
 62
     7
100
AcDbVertex
100
AcDb2dVertex
 10
7.2738956022
 20
7.4443750076
 30
0.0
  0
VERTEX
  5
64F
330
299
100
AcDbEntity
  8
0
  6
CONTINUOUS
 62
     7
100
AcDbVertex
100
AcDb2dVertex
 10
7.2513464552
 20
7.4075590348
 30
0.0
  0
VERTEX
  5
650
330
299
100
AcDbEntity
  8
0
  6
CONTINUOUS
 62
     7
100
AcDbVertex
100
AcDb2dVertex
 10
7.2297922274
 20
7.3701183095
 30
0.0
  0
VERTEX
  5
651
330
299
100
AcDbEntity
  8
0
  6
CONTINUOUS
 62
     7
100
AcDbVertex
100
AcDb2dVertex
 10
7.2092806868
 20
7.3321358073
 30
0.0
  0
VERTEX
  5
652
330
299
100
AcDbEntity
  8
0
  6
CONTINUOUS
 62
     7
100
AcDbVertex
100
AcDb2dVertex
 10
7.1898572908
 20
7.2936957044
 30
0.0
  0
VERTEX
  5
653
330
299
100
AcDbEntity
  8
0
  6
CONTINUOUS
 62
     7
100
AcDbVertex
100
AcDb2dVertex
 10
7.1715650853
 20
7.2548831911
 30
0.0
  0
VERTEX
  5
654
330
299
100
AcDbEntity
  8
0
  6
CONTINUOUS
 62
     7
100
AcDbVertex
100
AcDb2dVertex
 10
7.1544446091
 20
7.2157842831
 30
0.0
  0
VERTEX
  5
655
330
299
100
AcDbEntity
  8
0
  6
CONTINUOUS
 62
     7
100
AcDbVertex
100
AcDb2dVertex
 10
7.1385338044
 20
7.1764856307
 30
0.0
  0
VERTEX
  5
656
330
299
100
AcDbEntity
  8
0
  6
CONTINUOUS
 62
     7
100
AcDbVertex
100
AcDb2dVertex
 10
7.1238679323
 20
7.137074327
 30
0.0
  0
VERTEX
  5
657
330
299
100
AcDbEntity
  8
0
  6
CONTINUOUS
 62
     7
100
AcDbVertex
100
AcDb2dVertex
 10
7.1104794953
 20
7.0976377147
 30
0.0
  0
VERTEX
  5
658
330
299
100
AcDbEntity
  8
0
  6
CONTINUOUS
 62
     7
100
AcDbVertex
100
AcDb2dVertex
 10
7.0983981645
 20
7.0582631926
 30
0.0
  0
VERTEX
  5
659
330
299
100
AcDbEntity
  8
0
  6
CONTINUOUS
 62
     7
100
AcDbVertex
100
AcDb2dVertex
 10
7.0876507143
 20
7.0190380218
 30
0.0
  0
VERTEX
  5
65A
330
299
100
AcDbEntity
  8
0
  6
CONTINUOUS
 62
     7
100
AcDbVertex
100
AcDb2dVertex
 10
7.0782609631
 20
6.9800491326
 30
0.0
  0
VERTEX
  5
65B
330
299
100
AcDbEntity
  8
0
  6
CONTINUOUS
 62
     7
100
AcDbVertex
100
AcDb2dVertex
 10
7.0702497204
 20
6.9413829314
 30
0.0
  0
VERTEX
  5
65C
330
299
100
AcDbEntity
  8
0
  6
CONTINUOUS
 62
     7
100
AcDbVertex
100
AcDb2dVertex
 10
7.0636347404
 20
6.9031251097
 30
0.0
  0
VERTEX
  5
65D
330
299
100
AcDbEntity
  8
0
  6
CONTINUOUS
 62
     7
100
AcDbVertex
100
AcDb2dVertex
 10
7.0584306833
 20
6.8653604539
 30
0.0
  0
VERTEX
  5
65E
330
299
100
AcDbEntity
  8
0
  6
CONTINUOUS
 62
     7
100
AcDbVertex
100
AcDb2dVertex
 10
7.0546490821
 20
6.8281726574
 30
0.0
  0
VERTEX
  5
65F
330
299
100
AcDbEntity
  8
0
  6
CONTINUOUS
 62
     7
100
AcDbVertex
100
AcDb2dVertex
 10
7.0522983176
 20
6.7916441351
 30
0.0
  0
VERTEX
  5
660
330
299
100
AcDbEntity
  8
0
  6
CONTINUOUS
 62
     7
100
AcDbVertex
100
AcDb2dVertex
 10
7.0513835995
 20
6.755855841
 30
0.0
  0
VERTEX
  5
661
330
299
100
AcDbEntity
  8
0
  6
CONTINUOUS
 62
     7
100
AcDbVertex
100
AcDb2dVertex
 10
7.0513702789
 20
6.7510468419
 30
0.0
  0
SEQEND
  5
662
330
299
100
AcDbEntity
  8
0
  6
CONTINUOUS
 62
     7
  0
LINE
  5
29A
330
1F
100
AcDbEntity
  8
0
  6
CONTINUOUS
 62
     7
100
AcDbLine
 10
7.6986235333
 20
7.8739933686
 30
0.0
 11
7.6933202325
 21
7.8709304935
 31
0.0
  0
POLYLINE
  5
29B
330
1F
100
AcDbEntity
  8
0
  6
CONTINUOUS
 62
     7
100
AcDb2dPolyline
 66
     1
 10
0.0
 20
0.0
 30
0.0
  0
VERTEX
  5
663
330
29B
100
AcDbEntity
  8
0
  6
CONTINUOUS
 62
     7
100
AcDbVertex
100
AcDb2dVertex
 10
7.5576720607
 20
6.6093494933
 30
0.0
  0
VERTEX
  5
664
330
29B
100
AcDbEntity
  8
0
  6
CONTINUOUS
 62
     7
100
AcDbVertex
100
AcDb2dVertex
 10
7.5492210462
 20
6.5935505904
 30
0.0
  0
VERTEX
  5
665
330
29B
100
AcDbEntity
  8
0
  6
CONTINUOUS
 62
     7
100
AcDbVertex
100
AcDb2dVertex
 10
7.5418819832
 20
6.5773696153
 30
0.0
  0
VERTEX
  5
666
330
29B
100
AcDbEntity
  8
0
  6
CONTINUOUS
 62
     7
100
AcDbVertex
100
AcDb2dVertex
 10
7.5357471647
 20
6.561010053
 30
0.0
  0
VERTEX
  5
667
330
29B
100
AcDbEntity
  8
0
  6
CONTINUOUS
 62
     7
100
AcDbVertex
100
AcDb2dVertex
 10
7.5308937396
 20
6.5446776347
 30
0.0
  0
VERTEX
  5
668
330
29B
100
AcDbEntity
  8
0
  6
CONTINUOUS
 62
     7
100
AcDbVertex
100
AcDb2dVertex
 10
7.5273827424
 20
6.5285777499
 30
0.0
  0
VERTEX
  5
669
330
29B
100
AcDbEntity
  8
0
  6
CONTINUOUS
 62
     7
100
AcDbVertex
100
AcDb2dVertex
 10
7.5252583261
 20
6.512912864
 30
0.0
  0
VERTEX
  5
66A
330
29B
100
AcDbEntity
  8
0
  6
CONTINUOUS
 62
     7
100
AcDbVertex
100
AcDb2dVertex
 10
7.5245472065
 20
6.4978799721
 30
0.0
  0
VERTEX
  5
66B
330
29B
100
AcDbEntity
  8
0
  6
CONTINUOUS
 62
     7
100
AcDbVertex
100
AcDb2dVertex
 10
7.5252583261
 20
6.4836681215
 30
0.0
  0
VERTEX
  5
66C
330
29B
100
AcDbEntity
  8
0
  6
CONTINUOUS
 62
     7
100
AcDbVertex
100
AcDb2dVertex
 10
7.5273827424
 20
6.4704560345
 30
0.0
  0
VERTEX
  5
66D
330
29B
100
AcDbEntity
  8
0
  6
CONTINUOUS
 62
     7
100
AcDbVertex
100
AcDb2dVertex
 10
7.5308937396
 20
6.4584098607
 30
0.0
  0
VERTEX
  5
66E
330
29B
100
AcDbEntity
  8
0
  6
CONTINUOUS
 62
     7
100
AcDbVertex
100
AcDb2dVertex
 10
7.5357471647
 20
6.4476810878
 30
0.0
  0
VERTEX
  5
66F
330
29B
100
AcDbEntity
  8
0
  6
CONTINUOUS
 62
     7
100
AcDbVertex
100
AcDb2dVertex
 10
7.5418819832
 20
6.4384046362
 30
0.0
  0
VERTEX
  5
670
330
29B
100
AcDbEntity
  8
0
  6
CONTINUOUS
 62
     7
100
AcDbVertex
100
AcDb2dVertex
 10
7.5492210462
 20
6.4306971628
 30
0.0
  0
VERTEX
  5
671
330
29B
100
AcDbEntity
  8
0
  6
CONTINUOUS
 62
     7
100
AcDbVertex
100
AcDb2dVertex
 10
7.5576720607
 20
6.4246555936
 30
0.0
  0
SEQEND
  5
672
330
29B
100
AcDbEntity
  8
0
  6
CONTINUOUS
 62
     7
  0
LINE
  5
29C
330
1F
100
AcDbEntity
  8
0
  6
CONTINUOUS
 62
     7
100
AcDbLine
 10
8.2539014727
 20
7.5894774218
 30
0.0
 11
8.2361115804
 21
7.599747308
 31
0.0
  0
POLYLINE
  5
29D
330
1F
100
AcDbEntity
  8
0
  6
CONTINUOUS
 62
     7
100
AcDb2dPolyline
 66
     1
 10
0.0
 20
0.0
 30
0.0
  0
VERTEX
  5
673
330
29D
100
AcDbEntity
  8
0
  6
CONTINUOUS
 62
     7
100
AcDbVertex
100
AcDb2dVertex
 10
8.2361115804
 20
7.599747308
 30
0.0
  0
VERTEX
  5
674
330
29D
100
AcDbEntity
  8
0
  6
CONTINUOUS
 62
     7
100
AcDbVertex
100
AcDb2dVertex
 10
8.2266548908
 20
7.604046997
 30
0.0
  0
VERTEX
  5
675
330
29D
100
AcDbEntity
  8
0
  6
CONTINUOUS
 62
     7
100
AcDbVertex
100
AcDb2dVertex
 10
8.2163114495
 20
7.6065507345
 30
0.0
  0
VERTEX
  5
676
330
29D
100
AcDbEntity
  8
0
  6
CONTINUOUS
 62
     7
100
AcDbVertex
100
AcDb2dVertex
 10
8.2052113312
 20
7.6072270346
 30
0.0
  0
VERTEX
  5
677
330
29D
100
AcDbEntity
  8
0
  6
CONTINUOUS
 62
     7
100
AcDbVertex
100
AcDb2dVertex
 10
8.1934941264
 20
7.6060673924
 30
0.0
  0
VERTEX
  5
678
330
29D
100
AcDbEntity
  8
0
  6
CONTINUOUS
 62
     7
100
AcDbVertex
100
AcDb2dVertex
 10
8.1813071857
 20
7.6030863912
 30
0.0
  0
VERTEX
  5
679
330
29D
100
AcDbEntity
  8
0
  6
CONTINUOUS
 62
     7
100
AcDbVertex
100
AcDb2dVertex
 10
8.168803767
 20
7.5983215187
 30
0.0
  0
VERTEX
  5
67A
330
29D
100
AcDbEntity
  8
0
  6
CONTINUOUS
 62
     7
100
AcDbVertex
100
AcDb2dVertex
 10
8.156141108
 20
7.5918326961
 30
0.0
  0
VERTEX
  5
67B
330
29D
100
AcDbEntity
  8
0
  6
CONTINUOUS
 62
     7
100
AcDbVertex
100
AcDb2dVertex
 10
8.143478449
 20
7.5837015239
 30
0.0
  0
VERTEX
  5
67C
330
29D
100
AcDbEntity
  8
0
  6
CONTINUOUS
 62
     7
100
AcDbVertex
100
AcDb2dVertex
 10
8.1309750302
 20
7.5740302564
 30
0.0
  0
VERTEX
  5
67D
330
29D
100
AcDbEntity
  8
0
  6
CONTINUOUS
 62
     7
100
AcDbVertex
100
AcDb2dVertex
 10
8.1187880895
 20
7.5629405153
 30
0.0
  0
VERTEX
  5
67E
330
29D
100
AcDbEntity
  8
0
  6
CONTINUOUS
 62
     7
100
AcDbVertex
100
AcDb2dVertex
 10
8.1070708847
 20
7.5505717608
 30
0.0
  0
VERTEX
  5
67F
330
29D
100
AcDbEntity
  8
0
  6
CONTINUOUS
 62
     7
100
AcDbVertex
100
AcDb2dVertex
 10
8.0959707665
 20
7.5370795369
 30
0.0
  0
VERTEX
  5
680
330
29D
100
AcDbEntity
  8
0
  6
CONTINUOUS
 62
     7
100
AcDbVertex
100
AcDb2dVertex
 10
8.0856273251
 20
7.5226335162
 30
0.0
  0
VERTEX
  5
681
330
29D
100
AcDbEntity
  8
0
  6
CONTINUOUS
 62
     7
100
AcDbVertex
100
AcDb2dVertex
 10
8.0761706355
 20
7.5074153659
 30
0.0
  0
SEQEND
  5
682
330
29D
100
AcDbEntity
  8
0
  6
CONTINUOUS
 62
     7
  0
LINE
  5
29E
330
1F
100
AcDbEntity
  8
0
  6
CONTINUOUS
 62
     7
100
AcDbLine
 10
7.5576720607
 20
6.4246555936
 30
0.0
 11
7.5754717569
 21
6.4143767073
 31
0.0
  0
LINE
  5
29F
330
1F
100
AcDbEntity
  8
0
  6
CONTINUOUS
 62
     7
100
AcDbLine
 10
7.7072396573
 20
7.8789660064
 30
0.0
 11
7.7072396573
 21
7.8690193861
 31
0.0
  0
ARC
  5
2A0
330
1F
100
AcDbEntity
  8
0
  6
CONTINUOUS
 62
     8
100
AcDbCircle
 10
8.1125525077
 20
7.019513936
 30
0.0
 40
0.1698044357917533
100
AcDbArc
 50
241.9146225295
 51
270.9919886978
  0
POLYLINE
  5
2A1
330
1F
100
AcDbEntity
  8
0
  6
CONTINUOUS
 62
     8
100
AcDb2dPolyline
 66
     1
 10
0.0
 20
0.0
 30
0.0
  0
VERTEX
  5
683
330
2A1
100
AcDbEntity
  8
0
  6
CONTINUOUS
 62
     8
100
AcDbVertex
100
AcDb2dVertex
 10
8.2156816656
 20
6.9546058651
 30
0.0
  0
VERTEX
  5
684
330
2A1
100
AcDbEntity
  8
0
  6
CONTINUOUS
 62
     8
100
AcDbVertex
100
AcDb2dVertex
 10
8.2098305309
 20
6.9594250903
 30
0.0
  0
VERTEX
  5
685
330
2A1
100
AcDbEntity
  8
0
  6
CONTINUOUS
 62
     8
100
AcDbVertex
100
AcDb2dVertex
 10
8.1996439294
 20
6.9661306293
 30
0.0
  0
VERTEX
  5
686
330
2A1
100
AcDbEntity
  8
0
  6
CONTINUOUS
 62
     8
100
AcDbVertex
100
AcDb2dVertex
 10
8.1880283366
 20
6.9720112292
 30
0.0
  0
VERTEX
  5
687
330
2A1
100
AcDbEntity
  8
0
  6
CONTINUOUS
 62
     8
100
AcDbVertex
100
AcDb2dVertex
 10
8.1751824985
 20
6.9769662712
 30
0.0
  0
VERTEX
  5
688
330
2A1
100
AcDbEntity
  8
0
  6
CONTINUOUS
 62
     8
100
AcDbVertex
100
AcDb2dVertex
 10
8.161326211
 20
6.9809109733
 30
0.0
  0
VERTEX
  5
689
330
2A1
100
AcDbEntity
  8
0
  6
CONTINUOUS
 62
     8
100
AcDbVertex
100
AcDb2dVertex
 10
8.146696559
 20
6.9837778405
 30
0.0
  0
VERTEX
  5
68A
330
2A1
100
AcDbEntity
  8
0
  6
CONTINUOUS
 62
     8
100
AcDbVertex
100
AcDb2dVertex
 10
8.1315438598
 20
6.9855178198
 30
0.0
  0
VERTEX
  5
68B
330
2A1
100
AcDbEntity
  8
0
  6
CONTINUOUS
 62
     8
100
AcDbVertex
100
AcDb2dVertex
 10
8.1161273804
 20
6.9861011399
 30
0.0
  0
VERTEX
  5
68C
330
2A1
100
AcDbEntity
  8
0
  6
CONTINUOUS
 62
     8
100
AcDbVertex
100
AcDb2dVertex
 10
8.100710901
 20
6.9855178198
 30
0.0
  0
VERTEX
  5
68D
330
2A1
100
AcDbEntity
  8
0
  6
CONTINUOUS
 62
     8
100
AcDbVertex
100
AcDb2dVertex
 10
8.0855582019
 20
6.9837778405
 30
0.0
  0
VERTEX
  5
68E
330
2A1
100
AcDbEntity
  8
0
  6
CONTINUOUS
 62
     8
100
AcDbVertex
100
AcDb2dVertex
 10
8.0709285498
 20
6.9809109733
 30
0.0
  0
VERTEX
  5
68F
330
2A1
100
AcDbEntity
  8
0
  6
CONTINUOUS
 62
     8
100
AcDbVertex
100
AcDb2dVertex
 10
8.0570722623
 20
6.9769662712
 30
0.0
  0
VERTEX
  5
690
330
2A1
100
AcDbEntity
  8
0
  6
CONTINUOUS
 62
     8
100
AcDbVertex
100
AcDb2dVertex
 10
8.0442264242
 20
6.9720112292
 30
0.0
  0
VERTEX
  5
691
330
2A1
100
AcDbEntity
  8
0
  6
CONTINUOUS
 62
     8
100
AcDbVertex
100
AcDb2dVertex
 10
8.0326108315
 20
6.9661306293
 30
0.0
  0
VERTEX
  5
692
330
2A1
100
AcDbEntity
  8
0
  6
CONTINUOUS
 62
     8
100
AcDbVertex
100
AcDb2dVertex
 10
8.02242423
 20
6.9594250903
 30
0.0
  0
VERTEX
  5
693
330
2A1
100
AcDbEntity
  8
0
  6
CONTINUOUS
 62
     8
100
AcDbVertex
100
AcDb2dVertex
 10
8.0138409154
 20
6.9520093459
 30
0.0
  0
VERTEX
  5
694
330
2A1
100
AcDbEntity
  8
0
  6
CONTINUOUS
 62
     8
100
AcDbVertex
100
AcDb2dVertex
 10
8.0070077506
 20
6.9440102813
 30
0.0
  0
VERTEX
  5
695
330
2A1
100
AcDbEntity
  8
0
  6
CONTINUOUS
 62
     8
100
AcDbVertex
100
AcDb2dVertex
 10
8.0020416529
 20
6.935564763
 30
0.0
  0
VERTEX
  5
696
330
2A1
100
AcDbEntity
  8
0
  6
CONTINUOUS
 62
     8
100
AcDbVertex
100
AcDb2dVertex
 10
7.9990275936
 20
6.926817296
 30
0.0
  0
VERTEX
  5
697
330
2A1
100
AcDbEntity
  8
0
  6
CONTINUOUS
 62
     8
100
AcDbVertex
100
AcDb2dVertex
 10
7.9980171442
 20
6.9179175518
 30
0.0
  0
VERTEX
  5
698
330
2A1
100
AcDbEntity
  8
0
  6
CONTINUOUS
 62
     8
100
AcDbVertex
100
AcDb2dVertex
 10
7.9990275936
 20
6.9090178077
 30
0.0
  0
VERTEX
  5
699
330
2A1
100
AcDbEntity
  8
0
  6
CONTINUOUS
 62
     8
100
AcDbVertex
100
AcDb2dVertex
 10
8.0020416529
 20
6.9002703407
 30
0.0
  0
VERTEX
  5
69A
330
2A1
100
AcDbEntity
  8
0
  6
CONTINUOUS
 62
     8
100
AcDbVertex
100
AcDb2dVertex
 10
8.0070077506
 20
6.8918248223
 30
0.0
  0
VERTEX
  5
69B
330
2A1
100
AcDbEntity
  8
0
  6
CONTINUOUS
 62
     8
100
AcDbVertex
100
AcDb2dVertex
 10
8.0138409154
 20
6.8838257578
 30
0.0
  0
VERTEX
  5
69C
330
2A1
100
AcDbEntity
  8
0
  6
CONTINUOUS
 62
     8
100
AcDbVertex
100
AcDb2dVertex
 10
8.02242423
 20
6.8764100133
 30
0.0
  0
VERTEX
  5
69D
330
2A1
100
AcDbEntity
  8
0
  6
CONTINUOUS
 62
     8
100
AcDbVertex
100
AcDb2dVertex
 10
8.0326108315
 20
6.8697044744
 30
0.0
  0
VERTEX
  5
69E
330
2A1
100
AcDbEntity
  8
0
  6
CONTINUOUS
 62
     8
100
AcDbVertex
100
AcDb2dVertex
 10
8.0326108315
 20
6.8697044744
 30
0.0
  0
SEQEND
  5
69F
330
2A1
100
AcDbEntity
  8
0
  6
CONTINUOUS
 62
     8
  0
ARC
  5
2A2
330
1F
100
AcDbEntity
  8
0
  6
CONTINUOUS
 62
     8
100
AcDbCircle
 10
8.0551050572
 20
6.9194519374
 30
0.0
 40
0.0684618611767683
100
AcDbArc
 50
194.768593241
 51
244.518221223
  0
ARC
  5
2A3
330
1F
100
AcDbEntity
  8
0
  6
CONTINUOUS
 62
     8
100
AcDbCircle
 10
8.1081414004
 20
7.0084860774
 30
0.0
 40
0.1719191649406391
100
AcDbArc
 50
241.326342921
 51
264.8867332209
  0
ARC
  5
2A4
330
1F
100
AcDbEntity
  8
0
  6
CONTINUOUS
 62
     8
100
AcDbCircle
 10
7.4489839636
 20
7.3246862111
 30
0.0
 40
0.0941399962779605
100
AcDbArc
 50
170.3637865071
 51
224.465755056
  0
ARC
  5
2A5
330
1F
100
AcDbEntity
  8
0
  6
CONTINUOUS
 62
     8
100
AcDbCircle
 10
8.1501110385
 20
7.7312980628
 30
0.0
 40
0.1902258333877058
100
AcDbArc
 50
27.9593865274
 51
57.6422510518
  0
ARC
  5
2A6
330
1F
100
AcDbEntity
  8
0
  6
CONTINUOUS
 62
     8
100
AcDbCircle
 10
8.2113826036
 20
7.8296315096
 30
0.0
 40
0.0743736380709324
100
AcDbArc
 50
56.9712623107
 51
97.8783091232
  0
LINE
  5
2A7
330
1F
100
AcDbEntity
  8
0
  6
CONTINUOUS
 62
     8
100
AcDbLine
 10
8.1053333333
 20
7.4905800988
 30
0.0
 11
8.0761706355
 21
7.5074153659
 31
0.0
  0
LINE
  5
2A8
330
1F
100
AcDbEntity
  8
0
  6
CONTINUOUS
 62
     8
100
AcDbLine
 10
7.5868395878
 20
6.5925114384
 30
0.0
 11
7.5576720607
 21
6.6093494933
 31
0.0
  0
LINE
  5
2A9
330
1F
100
AcDbEntity
  8
0
  6
CONTINUOUS
 62
     8
100
AcDbLine
 10
7.5754716433
 20
6.4143801132
 30
0.0
 11
7.5576720607
 21
6.4246555936
 31
0.0
  0
ENDSEC
  0
SECTION
  2
OBJECTS
  0
DICTIONARY
  5
C
330
0
100
AcDbDictionary
  3
ACAD_GROUP
350
D
  3
ACAD_LAYOUT
350
1A
  3
ACAD_MLEADERSTYLE
350
2AC
  3
ACAD_MLINESTYLE
350
17
  3
ACAD_PLOTSETTINGS
350
19
  3
ACAD_SCALELIST
350
6F
  3
ACAD_VISUALSTYLE
350
2A
  3
ACDBVARIABLEDICTIONARY
350
2AA
1001
ACAD
1000
TREAT_AS_HARD
1070
     0
  0
DICTIONARY
  5
D
102
{ACAD_REACTORS
330
C
102
}
330
C
100
AcDbDictionary
1001
ACAD
1000
TREAT_AS_HARD
1070
     0
  0
DICTIONARY
  5
1A
102
{ACAD_REACTORS
330
C
102
}
330
C
100
AcDbDictionary
1001
ACAD
1000
TREAT_AS_HARD
1070
     0
  0
DICTIONARY
  5
2AC
102
{ACAD_REACTORS
330
C
102
}
330
C
100
AcDbDictionary
1001
ACAD
1000
TREAT_AS_HARD
1070
     0
  0
DICTIONARY
  5
17
102
{ACAD_REACTORS
330
C
102
}
330
C
100
AcDbDictionary
  3
STANDARD
350
18
1001
ACAD
1000
TREAT_AS_HARD
1070
     0
  0
DICTIONARY
  5
19
102
{ACAD_REACTORS
330
C
102
}
330
C
100
AcDbDictionary
1001
ACAD
1000
TREAT_AS_HARD
1070
     0
  0
DICTIONARY
  5
6F
102
{ACAD_REACTORS
330
C
102
}
330
C
100
AcDbDictionary
  3
A0
350
70
  3
A1
350
71
  3
A2
350
72
  3
A3
350
73
  3
A4
350
74
  3
A5
350
75
  3
A6
350
76
  3
A7
350
77
  3
A8
350
78
  3
A9
350
79
  3
B0
350
7A
  3
B1
350
7B
  3
B2
350
7C
  3
B3
350
7D
  3
B4
350
7E
  3
B5
350
7F
  3
B6
350
80
  3
B7
350
81
  3
B8
350
82
  3
B9
350
83
  3
C0
350
84
  3
C1
350
85
  3
C2
350
86
  3
C3
350
87
  3
C4
350
88
  3
C5
350
89
  3
C6
350
8A
  3
C7
350
8B
  3
C8
350
8C
  3
C9
350
8D
  3
D0
350
8E
  3
D1
350
8F
  3
D2
350
90
1001
ACAD
1000
TREAT_AS_HARD
1070
     0
  0
DICTIONARY
  5
2A
102
{ACAD_REACTORS
330
C
102
}
330
C
100
AcDbDictionary
  3
2DWIREFRAME
350
2F
  3
3D_HIDDEN
350
31
  3
3DWIREFRAME
350
30
  3
BASIC
350
32
  3
BRIGHTEN
350
36
  3
COLORCHANGE
350
3A
  3
CONCEPTUAL
350
34
  3
DIM
350
35
  3
FACEPATTERN
350
39
  3
FLAT
350
2B
  3
FLATWITHEDGES
350
2C
  3
GOURAUD
350
2D
  3
GOURAUDWITHEDGES
350
2E
  3
LINEPATTERN
350
38
  3
REALISTIC
350
33
  3
THICKEN
350
37
1001
ACAD
1000
TREAT_AS_HARD
1070
     0
  0
DICTIONARY
  5
2AA
102
{ACAD_REACTORS
330
C
102
}
330
C
100
AcDbDictionary
  3
CANNOSCALE
350
2AD
  3
DIMASSOC
350
2AE
  3
HIDETEXT
350
2AF
1001
ACAD
1000
TREAT_AS_HARD
1070
     0
  0
MLINESTYLE
  5
18
102
{ACAD_REACTORS
330
17
102
}
330
17
100
AcDbMlineStyle
  2
Standard
 70
     0
  3

 62
   256
 51
90.0
 52
90.0
 71
     2
 49
0.5
 62
   256
  6
BYLAYER
 49
-0.5
 62
   256
  6
BYLAYER
  0
ACAD_PROXY_OBJECT
  5
70
102
{ACAD_REACTORS
330
6F
102
}
330
6F
100
AcDbZombieObject
 90
      499
 91
      502
 93
       41
310
903313A31580
  0
ACAD_PROXY_OBJECT
  5
71
102
{ACAD_REACTORS
330
6F
102
}
330
6F
100
AcDbZombieObject
 90
      499
 91
      502
 93
      105
310
903313A324000000000000004000
  0
ACAD_PROXY_OBJECT
  5
72
102
{ACAD_REACTORS
330
6F
102
}
330
6F
100
AcDbZombieObject
 90
      499
 91
      502
 93
      105
310
903313A344000000000000104000
  0
ACAD_PROXY_OBJECT
  5
73
102
{ACAD_REACTORS
330
6F
102
}
330
6F
100
AcDbZombieObject
 90
      499
 91
      502
 93
      105
310
903313A354000000000000144000
  0
ACAD_PROXY_OBJECT
  5
74
102
{ACAD_REACTORS
330
6F
102
}
330
6F
100
AcDbZombieObject
 90
      499
 91
      502
 93
      105
310
903313A384000000000000204000
  0
ACAD_PROXY_OBJECT
  5
75
102
{ACAD_REACTORS
330
6F
102
}
330
6F
100
AcDbZombieObject
 90
      499
 91
      502
 93
      113
310
904313A31304000000000000244000
  0
ACAD_PROXY_OBJECT
  5
76
102
{ACAD_REACTORS
330
6F
102
}
330
6F
100
AcDbZombieObject
 90
      499
 91
      502
 93
      113
310
904313A31364000000000000304000
  0
ACAD_PROXY_OBJECT
  5
77
102
{ACAD_REACTORS
330
6F
102
}
330
6F
100
AcDbZombieObject
 90
      499
 91
      502
 93
      113
310
904313A32304000000000000344000
  0
ACAD_PROXY_OBJECT
  5
78
102
{ACAD_REACTORS
330
6F
102
}
330
6F
100
AcDbZombieObject
 90
      499
 91
      502
 93
      113
310
904313A333040000000000003E4000
  0
ACAD_PROXY_OBJECT
  5
79
102
{ACAD_REACTORS
330
6F
102
}
330
6F
100
AcDbZombieObject
 90
      499
 91
      502
 93
      113
310
904313A34304000000000000444000
  0
ACAD_PROXY_OBJECT
  5
7A
102
{ACAD_REACTORS
330
6F
102
}
330
6F
100
AcDbZombieObject
 90
      499
 91
      502
 93
      113
310
904313A35304000000000000494000
  0
ACAD_PROXY_OBJECT
  5
7B
102
{ACAD_REACTORS
330
6F
102
}
330
6F
100
AcDbZombieObject
 90
      499
 91
      502
 93
      121
310
905313A3130304000000000000594000
  0
ACAD_PROXY_OBJECT
  5
7C
102
{ACAD_REACTORS
330
6F
102
}
330
6F
100
AcDbZombieObject
 90
      499
 91
      502
 93
      105
310
903323A310000000000000010100
  0
ACAD_PROXY_OBJECT
  5
7D
102
{ACAD_REACTORS
330
6F
102
}
330
6F
100
AcDbZombieObject
 90
      499
 91
      502
 93
      105
310
903343A310000000000000410100
  0
ACAD_PROXY_OBJECT
  5
7E
102
{ACAD_REACTORS
330
6F
102
}
330
6F
100
AcDbZombieObject
 90
      499
 91
      502
 93
      105
310
903383A310000000000000810100
  0
ACAD_PROXY_OBJECT
  5
7F
102
{ACAD_REACTORS
330
6F
102
}
330
6F
100
AcDbZombieObject
 90
      499
 91
      502
 93
      113
310
90431303A310000000000000910100
  0
ACAD_PROXY_OBJECT
  5
80
102
{ACAD_REACTORS
330
6F
102
}
330
6F
100
AcDbZombieObject
 90
      499
 91
      502
 93
      121
310
9053130303A310000000000001650100
  0
ACAD_PROXY_OBJECT
  5
81
102
{ACAD_REACTORS
330
6F
102
}
330
6F
100
AcDbZombieObject
 90
      499
 91
      502
 93
      257
310
90E312F31323822203D2031272D3022000000000000200FC000000000000284000
  0
ACAD_PROXY_OBJECT
  5
82
102
{ACAD_REACTORS
330
6F
102
}
330
6F
100
AcDbZombieObject
 90
      499
 91
      502
 93
      249
310
90D312F363422203D2031272D3022000000000000240FC000000000000284000
  0
ACAD_PROXY_OBJECT
  5
83
102
{ACAD_REACTORS
330
6F
102
}
330
6F
100
AcDbZombieObject
 90
      499
 91
      502
 93
      249
310
90D312F333222203D2031272D3022000000000000280FC000000000000284000
  0
ACAD_PROXY_OBJECT
  5
84
102
{ACAD_REACTORS
330
6F
102
}
330
6F
100
AcDbZombieObject
 90
      499
 91
      502
 93
      249
310
90D312F313622203D2031272D30220000000000002C0FC000000000000284000
  0
ACAD_PROXY_OBJECT
  5
85
102
{ACAD_REACTORS
330
6F
102
}
330
6F
100
AcDbZombieObject
 90
      499
 91
      502
 93
      249
310
90D332F333222203D2031272D30220000000000002E0FC000000000000284000
  0
ACAD_PROXY_OBJECT
  5
86
102
{ACAD_REACTORS
330
6F
102
}
330
6F
100
AcDbZombieObject
 90
      499
 91
      502
 93
      241
310
90C312F3822203D2031272D3022000000000000300FC000000000000284000
  0
ACAD_PROXY_OBJECT
  5
87
102
{ACAD_REACTORS
330
6F
102
}
330
6F
100
AcDbZombieObject
 90
      499
 91
      502
 93
      249
310
90D332F313622203D2031272D3022000000000000320FC000000000000284000
  0
ACAD_PROXY_OBJECT
  5
88
102
{ACAD_REACTORS
330
6F
102
}
330
6F
100
AcDbZombieObject
 90
      499
 91
      502
 93
      241
310
90C312F3422203D2031272D3022000000000000340FC000000000000284000
  0
ACAD_PROXY_OBJECT
  5
89
102
{ACAD_REACTORS
330
6F
102
}
330
6F
100
AcDbZombieObject
 90
      499
 91
      502
 93
      241
310
90C332F3822203D2031272D3022000000000000360FC000000000000284000
  0
ACAD_PROXY_OBJECT
  5
8A
102
{ACAD_REACTORS
330
6F
102
}
330
6F
100
AcDbZombieObject
 90
      499
 91
      502
 93
      241
310
90C312F3222203D2031272D3022000000000000380FC000000000000284000
  0
ACAD_PROXY_OBJECT
  5
8B
102
{ACAD_REACTORS
330
6F
102
}
330
6F
100
AcDbZombieObject
 90
      499
 91
      502
 93
      241
310
90C332F3422203D2031272D30220000000000003A0FC000000000000284000
  0
ACAD_PROXY_OBJECT
  5
8C
102
{ACAD_REACTORS
330
6F
102
}
330
6F
100
AcDbZombieObject
 90
      499
 91
      502
 93
      161
310
90A3122203D2031272D30224000000000000284000
  0
ACAD_PROXY_OBJECT
  5
8D
102
{ACAD_REACTORS
330
6F
102
}
330
6F
100
AcDbZombieObject
 90
      499
 91
      502
 93
      257
310
90E312D312F3222203D2031272D30220000000000003E0FC000000000000284000
  0
ACAD_PROXY_OBJECT
  5
8E
102
{ACAD_REACTORS
330
6F
102
}
330
6F
100
AcDbZombieObject
 90
      499
 91
      502
 93
      225
310
90A3322203D2031272D302200000000000002100000000000000284000
  0
ACAD_PROXY_OBJECT
  5
8F
102
{ACAD_REACTORS
330
6F
102
}
330
6F
100
AcDbZombieObject
 90
      499
 91
      502
 93
      225
310
90A3622203D2031272D302200000000000006100000000000000284000
  0
ACAD_PROXY_OBJECT
  5
90
102
{ACAD_REACTORS
330
6F
102
}
330
6F
100
AcDbZombieObject
 90
      499
 91
      502
 93
      249
310
90D31272D3022203D2031272D30220000000000000A100000000000000284000
  0
ACAD_PROXY_OBJECT
  5
2F
102
{ACAD_REACTORS
330
2A
102
}
330
2A
100
AcDbZombieObject
 90
      499
 91
      501
 93
      436
310
42CC9915DA5C99599C985B595049028333333333333E3BF0000000000000FB0107901411070040501600405405064090741402480A0340
1001
ACAD
1000
AcDbSavedByObjectVersion
1070
     0
  0
ACAD_PROXY_OBJECT
  5
31
102
{ACAD_REACTORS
330
2A
102
}
330
2A
100
AcDbZombieObject
 90
      499
 91
      501
 93
      500
310
424CD108121A5919195B90640502408333333333333E3BF0000000000000FB01079024090700405020000000000001110200405405064090740C02480A0340
1001
ACAD
1000
AcDbSavedByObjectVersion
1070
     0
  0
ACAD_PROXY_OBJECT
  5
30
102
{ACAD_REACTORS
330
2A
102
}
330
2A
100
AcDbZombieObject
 90
      499
 91
      501
 93
      436
310
42CCD915DA5C99599C985B595059028333333333333E3BF0000000000000FB0107901411070040501600405405064090741402480A0340
1001
ACAD
1000
AcDbSavedByObjectVersion
1070
     0
  0
ACAD_PROXY_OBJECT
  5
32
102
{ACAD_REACTORS
330
2A
102
}
330
2A
100
AcDbZombieObject
 90
      499
 91
      501
 93
      388
310
4150985CDA58D07406404333333333333E3BF0000000000000FB0107A41107004050150841D405064090741402480A0350
1001
ACAD
1000
AcDbSavedByObjectVersion
1070
     0
  0
ACAD_PROXY_OBJECT
  5
36
102
{ACAD_REACTORS
330
2A
102
}
330
2A
100
AcDbZombieObject
 90
      499
 91
      501
 93
      428
310
42109C9A59DA1D195B90C409028333333333333E3BF0000000000000FB010790141107004050150841D405064090741402480A029950
1001
ACAD
1000
AcDbSavedByObjectVersion
1070
     0
  0
ACAD_PROXY_OBJECT
  5
3A
102
{ACAD_REACTORS
330
2A
102
}
330
2A
100
AcDbZombieObject
 90
      499
 91
      501
 93
      452
310
42D0DBDB1BDC90DA185B99D95104090240C333333333333E3BF0000000000000FB0108901411070040501508421405064090741402480A0350
1001
ACAD
1000
AcDbSavedByObjectVersion
1070
     0
  0
ACAD_PROXY_OBJECT
  5
34
102
{ACAD_REACTORS
330
2A
102
}
330
2A
100
AcDbZombieObject
 90
      499
 91
      501
 93
      500
310
4290DBDB98D95C1D1D585B10940D028333333333333E3BF0000000000000FB0107902409070040501000000000000111010841D405064090740C02480A0340
1001
ACAD
1000
AcDbSavedByObjectVersion
1070
     0
  0
ACAD_PROXY_OBJECT
  5
35
102
{ACAD_REACTORS
330
2A
102
}
330
2A
100
AcDbZombieObject
 90
      499
 91
      501
 93
      412
310
40D11A5B50B409028333333333333E3BF0000000000000FB010790141107004050150841D405064090741402480A02677FFFFFD0
1001
ACAD
1000
AcDbSavedByObjectVersion
1070
     0
  0
ACAD_PROXY_OBJECT
  5
39
102
{ACAD_REACTORS
330
2A
102
}
330
2A
100
AcDbZombieObject
 90
      499
 91
      501
 93
      444
310
42D19858D95C185D1D195C9B90F409028333333333333E3BF0000000000000FB010790141107004050150841D405064090741402480A0350
1001
ACAD
1000
AcDbSavedByObjectVersion
1070
     0
  0
ACAD_PROXY_OBJECT
  5
2B
102
{ACAD_REACTORS
330
2A
102
}
330
2A
100
AcDbZombieObject
 90
      499
 91
      501
 93
      388
310
41119B185D240901404333333333333E3BF0000000000000F9010740A41107004050150841D405064090741402480A1B50
1001
ACAD
1000
AcDbSavedByObjectVersion
1070
     0
  0
ACAD_PROXY_OBJECT
  5
2C
102
{ACAD_REACTORS
330
2A
102
}
330
2A
100
AcDbZombieObject
 90
      499
 91
      501
 93
      476
310
43519B185D15DA5D1A115919D95CD0140901404333333333333E3BF0000000000000F9010740901411070040501600405405064090741402480A1B50
1001
ACAD
1000
AcDbSavedByObjectVersion
1070
     0
  0
ACAD_PROXY_OBJECT
  5
2D
102
{ACAD_REACTORS
330
2A
102
}
330
2A
100
AcDbZombieObject
 90
      499
 91
      501
 93
      412
310
41D1DBDD5C985D5910240902404333333333333E3BF0000000000000F9010740A411070040501641D405064090741402480A1B50
1001
ACAD
1000
AcDbSavedByObjectVersion
1070
     0
  0
ACAD_PROXY_OBJECT
  5
2E
102
{ACAD_REACTORS
330
2A
102
}
330
2A
100
AcDbZombieObject
 90
      499
 91
      501
 93
      500
310
4411DBDD5C985D5915DA5D1A115919D95CD0340902404333333333333E3BF0000000000000F9010740901411070040501600405405064090741402480A1B50
1001
ACAD
1000
AcDbSavedByObjectVersion
1070
     0
  0
ACAD_PROXY_OBJECT
  5
38
102
{ACAD_REACTORS
330
2A
102
}
330
2A
100
AcDbZombieObject
 90
      499
 91
      501
 93
      444
310
42D31A5B995C185D1D195C9B90E409028333333333333E3BF0000000000000FB010790141107004050750841D405064090741402483A0350
1001
ACAD
1000
AcDbSavedByObjectVersion
1070
     0
  0
ACAD_PROXY_OBJECT
  5
33
102
{ACAD_REACTORS
330
2A
102
}
330
2A
100
AcDbZombieObject
 90
      499
 91
      501
 93
      420
310
425499585B1A5CDD1A58D08409028333333333333E3BF0000000000000FB01079019070040501508421405064090741402480A1B40
1001
ACAD
1000
AcDbSavedByObjectVersion
1070
     0
  0
ACAD_PROXY_OBJECT
  5
37
102
{ACAD_REACTORS
330
2A
102
}
330
2A
100
AcDbZombieObject
 90
      499
 91
      501
 93
      412
310
41D51A1A58DAD95B90D409028333333333333E3BF0000000000000FB010790141107004050150C41D405064090741402480A0350
1001
ACAD
1000
AcDbSavedByObjectVersion
1070
     0
  0
DICTIONARYVAR
  5
2AD
102
{ACAD_REACTORS
330
2AA
102
}
330
2AA
100
DictionaryVariables
280
     0
  1
1:1
  0
DICTIONARYVAR
  5
2AE
102
{ACAD_REACTORS
330
2AA
102
}
330
2AA
100
DictionaryVariables
280
     0
  1
2
  0
DICTIONARYVAR
  5
2AF
102
{ACAD_REACTORS
330
2AA
102
}
330
2AA
100
DictionaryVariables
280
     0
  1
1
  0
ENDSEC
  0
EOF
