  0
SECTION
  2
HEADER
  9
$ACADVER
  1
AC1012
  9
$DWGCODEPAGE
  3
ansi_1252
  9
$INSBASE
 10
0.0
 20
0.0
 30
0.0
  9
$EXTMIN
 10
0.0
 20
0.0
 30
0.0
  9
$EXTMAX
 10
11.0
 20
8.5
 30
0.0
  9
$LIMMIN
 10
0.0
 20
0.0
  9
$LIMMAX
 10
11.0
 20
8.5
  9
$ORTHOMODE
 70
     0
  9
$REGENMODE
 70
     1
  9
$FILLMODE
 70
     1
  9
$QTEXTMODE
 70
     0
  9
$MIRRTEXT
 70
     1
  9
$DRAGMODE
 70
     2
  9
$LTSCALE
 40
1.0
  9
$OSMODE
 70
    37
  9
$ATTMODE
 70
     1
  9
$TEXTSIZE
 40
0.125
  9
$TRACEWID
 40
0.05
  9
$TEXTSTYLE
  7
STANDARD
  9
$CLAYER
  8
0
  9
$CELTYPE
  6
BYLAYER
  9
$CECOLOR
 62
   256
  9
$CELTSCALE
 40
1.0
  9
$DELOBJ
 70
     1
  9
$DISPSILH
 70
     0
  9
$DIMSCALE
 40
1.0
  9
$DIMASZ
 40
0.13
  9
$DIMEXO
 40
0.05
  9
$DIMDLI
 40
0.38
  9
$DIMRND
 40
0.0
  9
$DIMDLE
 40
0.0
  9
$DIMEXE
 40
0.125
  9
$DIMTP
 40
0.0
  9
$DIMTM
 40
0.0
  9
$DIMTXT
 40
0.125
  9
$DIMCEN
 40
0.09
  9
$DIMTSZ
 40
0.0
  9
$DIMTOL
 70
     0
  9
$DIMLIM
 70
     0
  9
$DIMTIH
 70
     1
  9
$DIMTOH
 70
     1
  9
$DIMSE1
 70
     0
  9
$DIMSE2
 70
     0
  9
$DIMTAD
 70
     0
  9
$DIMZIN
 70
     0
  9
$DIMBLK
  1

  9
$DIMASO
 70
     1
  9
$DIMSHO
 70
     1
  9
$DIMPOST
  1

  9
$DIMAPOST
  1

  9
$DIMALT
 70
     0
  9
$DIMALTD
 70
     2
  9
$DIMALTF
 40
25.4
  9
$DIMLFAC
 40
1.0
  9
$DIMTOFL
 70
     0
  9
$DIMTVP
 40
0.0
  9
$DIMTIX
 70
     0
  9
$DIMSOXD
 70
     0
  9
$DIMSAH
 70
     0
  9
$DIMBLK1
  1

  9
$DIMBLK2
  1

  9
$DIMSTYLE
  2
STANDARD
  9
$DIMCLRD
 70
     0
  9
$DIMCLRE
 70
     0
  9
$DIMCLRT
 70
     0
  9
$DIMTFAC
 40
1.0
  9
$DIMGAP
 40
0.06
  9
$DIMJUST
 70
     0
  9
$DIMSD1
 70
     0
  9
$DIMSD2
 70
     0
  9
$DIMTOLJ
 70
     1
  9
$DIMTZIN
 70
     0
  9
$DIMALTZ
 70
     0
  9
$DIMALTTZ
 70
     0
  9
$DIMFIT
 70
     3
  9
$DIMUPT
 70
     0
  9
$DIMUNIT
 70
     2
  9
$DIMDEC
 70
     3
  9
$DIMTDEC
 70
     3
  9
$DIMALTU
 70
     2
  9
$DIMALTTD
 70
     2
  9
$DIMTXSTY
  7
STANDARD
  9
$DIMAUNIT
 70
     0
  9
$LUNITS
 70
     2
  9
$LUPREC
 70
     2
  9
$SKETCHINC
 40
0.1
  9
$FILLETRAD
 40
0.5
  9
$AUNITS
 70
     0
  9
$AUPREC
 70
     2
  9
$MENU
  1
.
  9
$ELEVATION
 40
0.0
  9
$PELEVATION
 40
0.0
  9
$THICKNESS
 40
0.0
  9
$LIMCHECK
 70
     0
  9
$CHAMFERA
 40
0.5
  9
$CHAMFERB
 40
0.5
  9
$CHAMFERC
 40
1.0
  9
$CHAMFERD
 40
0.0
  9
$SKPOLY
 70
     0
  9
$TDCREATE
 40
2455784.022597442
  9
$TDUPDATE
 40
2455784.022597454
  9
$TDINDWG
 40
0.0000000116
  9
$TDUSRTIMER
 40
0.0000000116
  9
$USRTIMER
 70
     1
  9
$ANGBASE
 50
0.0
  9
$ANGDIR
 70
     0
  9
$PDMODE
 70
     0
  9
$PDSIZE
 40
-1.0
  9
$PLINEWID
 40
0.0
  9
$COORDS
 70
     1
  9
$SPLFRAME
 70
     0
  9
$SPLINETYPE
 70
     6
  9
$SPLINESEGS
 70
     8
  9
$ATTDIA
 70
     0
  9
$ATTREQ
 70
     1
  9
$HANDLING
 70
     1
  9
$HANDSEED
  5
638
  9
$SURFTAB1
 70
     6
  9
$SURFTAB2
 70
     6
  9
$SURFTYPE
 70
     6
  9
$SURFU
 70
     6
  9
$SURFV
 70
     6
  9
$UCSNAME
  2

  9
$UCSORG
 10
0.0
 20
0.0
 30
0.0
  9
$UCSXDIR
 10
1.0
 20
0.0
 30
0.0
  9
$UCSYDIR
 10
0.0
 20
1.0
 30
0.0
  9
$PUCSNAME
  2

  9
$PUCSORG
 10
0.0
 20
0.0
 30
0.0
  9
$PUCSXDIR
 10
1.0
 20
0.0
 30
0.0
  9
$PUCSYDIR
 10
0.0
 20
1.0
 30
0.0
  9
$USERI1
 70
     0
  9
$USERI2
 70
     0
  9
$USERI3
 70
     0
  9
$USERI4
 70
     0
  9
$USERI5
 70
     0
  9
$USERR1
 40
0.0
  9
$USERR2
 40
0.0
  9
$USERR3
 40
0.0
  9
$USERR4
 40
0.0
  9
$USERR5
 40
0.0
  9
$WORLDVIEW
 70
     1
  9
$SHADEDGE
 70
     3
  9
$SHADEDIF
 70
    70
  9
$TILEMODE
 70
     1
  9
$MAXACTVP
 70
    64
  9
$PINSBASE
 10
0.0
 20
0.0
 30
0.0
  9
$PLIMCHECK
 70
     0
  9
$PEXTMIN
 10
1.0000000000E+20
 20
1.0000000000E+20
 30
1.0000000000E+20
  9
$PEXTMAX
 10
-1.0000000000E+20
 20
-1.0000000000E+20
 30
-1.0000000000E+20
  9
$PLIMMIN
 10
0.0
 20
0.0
  9
$PLIMMAX
 10
12.0
 20
9.0
  9
$UNITMODE
 70
     0
  9
$VISRETAIN
 70
     1
  9
$PLINEGEN
 70
     0
  9
$PSLTSCALE
 70
     1
  9
$TREEDEPTH
 70
  3020
  9
$PICKSTYLE
 70
     1
  9
$CMLSTYLE
  2
STANDARD
  9
$CMLJUST
 70
     0
  9
$CMLSCALE
 40
1.0
  9
$SAVEIMAGES
 70
     1
  0
ENDSEC
  0
SECTION
  2
CLASSES
  0
CLASS
  1
ACDBDICTIONARYWDFLT
  2
AcDbDictionaryWithDefault
  3
ObjectDBX Classes
 90
    32768
280
     0
281
     0
  0
CLASS
  1
VISUALSTYLE
  2
AcDbVisualStyle
  3
ObjectDBX Classes
 90
     4095
280
     0
281
     0
  0
CLASS
  1
SCALE
  2
AcDbScale
  3
ObjectDBX Classes
 90
     1153
280
     0
281
     0
  0
CLASS
  1
DICTIONARYVAR
  2
AcDbDictionaryVar
  3
ObjectDBX Classes
 90
        0
280
     0
281
     0
  0
CLASS
  1
XRECORD
  2
AcDbXrecord
  3
AutoCAD 2000
 90
    32768
280
     0
281
     0
  0
CLASS
  1
LWPOLYLINE
  2
AcDbPolyline
  3
AutoCAD 2000
 90
    32768
280
     0
281
     1
  0
CLASS
  1
HATCH
  2
AcDbHatch
  3
AutoCAD 2000
 90
    32768
280
     0
281
     1
  0
CLASS
  1
ACDBPLACEHOLDER
  2
AcDbPlaceHolder
  3
ObjectDBX Classes
 90
        0
280
     0
281
     0
  0
CLASS
  1
LAYOUT
  2
AcDbLayout
  3
ObjectDBX Classes
 90
        0
280
     0
281
     0
  0
ENDSEC
  0
SECTION
  2
TABLES
  0
TABLE
  2
VPORT
  5
8
330
0
100
AcDbSymbolTable
 70
     1
  0
VPORT
  5
29
330
8
100
AcDbSymbolTableRecord
100
AcDbViewportTableRecord
  2
*ACTIVE
 70
     0
 10
0.0
 20
0.0
 11
1.0
 21
1.0
 12
5.5
 22
4.25
 13
0.0
 23
0.0
 14
0.5
 24
0.5
 15
0.5
 25
0.5
 16
0.0
 26
0.0
 36
1.0
 17
0.0
 27
0.0
 37
0.0
 40
8.5
 41
1.2941176471
 42
50.0
 43
0.0
 44
0.0
 50
0.0
 51
0.0
 71
     0
 72
  2000
 73
     1
 74
     3
 75
     0
 76
     0
 77
     0
 78
     0
  0
ENDTAB
  0
TABLE
  2
LTYPE
  5
5
330
0
100
AcDbSymbolTable
 70
     6
  0
LTYPE
  5
14
330
5
100
AcDbSymbolTableRecord
100
AcDbLinetypeTableRecord
  2
BYBLOCK
 70
     0
  3

 72
    65
 73
     0
 40
0.0
  0
LTYPE
  5
15
330
5
100
AcDbSymbolTableRecord
100
AcDbLinetypeTableRecord
  2
BYLAYER
 70
     0
  3

 72
    65
 73
     0
 40
0.0
  0
LTYPE
  5
16
330
5
100
AcDbSymbolTableRecord
100
AcDbLinetypeTableRecord
  2
CONTINUOUS
 70
     0
  3
Solid line
 72
    65
 73
     0
 40
0.0
  0
LTYPE
  5
3B
330
5
100
AcDbSymbolTableRecord
100
AcDbLinetypeTableRecord
  2
HIDDEN
 70
     0
  3
Hidden __ __ __ __ __ __ __ __ __ __ __ __ __ __
 72
    65
 73
     2
 40
0.075
 49
0.05
 74
     0
 49
-0.025
 74
     0
  0
LTYPE
  5
3C
330
5
100
AcDbSymbolTableRecord
100
AcDbLinetypeTableRecord
  2
PHANTOM
 70
     0
  3
Phantom ______  __  __  ______  __  __  ______
 72
    65
 73
     6
 40
0.5
 49
0.25
 74
     0
 49
-0.05
 74
     0
 49
0.05
 74
     0
 49
-0.05
 74
     0
 49
0.05
 74
     0
 49
-0.05
 74
     0
  0
LTYPE
  5
3D
330
5
100
AcDbSymbolTableRecord
100
AcDbLinetypeTableRecord
  2
CENTER
 70
     0
  3
Center ____ _ ____ _ ____ _ ____ _ ____ _ ____
 72
    65
 73
     4
 40
0.4
 49
0.25
 74
     0
 49
-0.05
 74
     0
 49
0.05
 74
     0
 49
-0.05
 74
     0
  0
LTYPE
  5
3E
330
5
100
AcDbSymbolTableRecord
100
AcDbLinetypeTableRecord
  2
CENTERX2
 70
     0
  3
Center (2x) ________  __  ________  __  _____
 72
    65
 73
     4
 40
0.8
 49
0.5
 74
     0
 49
-0.1
 74
     0
 49
0.1
 74
     0
 49
-0.1
 74
     0
  0
LTYPE
  5
3F
330
5
100
AcDbSymbolTableRecord
100
AcDbLinetypeTableRecord
  2
DOT2
 70
     0
  3
Dot (.5x) ........................................
 72
    65
 73
     2
 40
0.025
 49
0.0
 74
     0
 49
-0.025
 74
     0
  0
ENDTAB
  0
TABLE
  2
LAYER
  5
2
330
0
100
AcDbSymbolTable
 70
     2
  0
LAYER
  5
10
330
2
100
AcDbSymbolTableRecord
100
AcDbLayerTableRecord
  2
0
 70
     0
 62
     7
  6
CONTINUOUS
  0
LAYER
  5
40
330
2
100
AcDbSymbolTableRecord
100
AcDbLayerTableRecord
  2
FORMAT
 70
     0
 62
     7
  6
CONTINUOUS
  0
ENDTAB
  0
TABLE
  2
STYLE
  5
3
330
0
100
AcDbSymbolTable
 70
     4
  0
STYLE
  5
11
330
3
100
AcDbSymbolTableRecord
100
AcDbTextStyleTableRecord
  2
STANDARD
 70
     0
 40
0.0
 41
1.0
 50
0.0
 71
     0
 42
0.2
  3
txt
  4

  0
STYLE
  5
6E
330
3
100
AcDbSymbolTableRecord
100
AcDbTextStyleTableRecord
  2
SLDTEXTSTYLE0
 70
     0
 40
0.0
 41
0.75
 50
0.0
 71
     0
 42
0.2
  3
TXT
  4

  0
STYLE
  5
93
330
3
100
AcDbSymbolTableRecord
100
AcDbTextStyleTableRecord
  2
SLDTEXTSTYLE1
 70
     0
 40
0.0
 41
0.6875
 50
0.0
 71
     0
 42
0.2
  3
TXT
  4

  0
STYLE
  5
99
330
3
100
AcDbSymbolTableRecord
100
AcDbTextStyleTableRecord
  2
SLDTEXTSTYLE2
 70
     0
 40
0.0
 41
0.6944444444
 50
0.0
 71
     0
 42
0.2
  3
TXT
  4

  0
ENDTAB
  0
TABLE
  2
VIEW
  5
6
330
0
100
AcDbSymbolTable
 70
     0
  0
ENDTAB
  0
TABLE
  2
UCS
  5
7
330
0
100
AcDbSymbolTable
 70
     0
  0
ENDTAB
  0
TABLE
  2
APPID
  5
9
330
0
100
AcDbSymbolTable
 70
     1
  0
APPID
  5
12
330
9
100
AcDbSymbolTableRecord
100
AcDbRegAppTableRecord
  2
ACAD
 70
     0
  0
ENDTAB
  0
TABLE
  2
DIMSTYLE
  5
A
330
0
100
AcDbSymbolTable
 70
     1
  0
DIMSTYLE
105
27
330
A
100
AcDbSymbolTableRecord
100
AcDbDimStyleTableRecord
  2
STANDARD
 70
     0
  3

  4

  5

  6

  7

 40
1.0
 41
0.18
 42
0.0625
 43
0.38
 44
0.18
 45
0.0
 46
0.0
 47
0.0
 48
0.0
140
0.18
141
0.09
142
0.0
143
25.4
144
1.0
145
0.0
146
1.0
147
0.09
 71
     0
 72
     0
 73
     1
 74
     1
 75
     0
 76
     0
 77
     0
 78
     0
170
     0
171
     2
172
     0
173
     0
174
     0
175
     0
176
     0
177
     0
178
     0
270
     2
271
     4
272
     4
273
     2
274
     2
340
11
275
     0
280
     0
281
     0
282
     0
283
     1
284
     0
285
     0
286
     0
287
     3
288
     0
  0
ENDTAB
  0
TABLE
  2
BLOCK_RECORD
  5
1
330
0
100
AcDbSymbolTable
 70
     4
  0
BLOCK_RECORD
  5
1F
330
1
100
AcDbSymbolTableRecord
100
AcDbBlockTableRecord
  2
*MODEL_SPACE
  0
BLOCK_RECORD
  5
1B
330
1
100
AcDbSymbolTableRecord
100
AcDbBlockTableRecord
  2
*PAPER_SPACE
  0
BLOCK_RECORD
  5
A8
330
1
100
AcDbSymbolTableRecord
100
AcDbBlockTableRecord
  2
SW_NOTE_0
  0
BLOCK_RECORD
  5
AE
330
1
100
AcDbSymbolTableRecord
100
AcDbBlockTableRecord
  2
SW_NOTE_1
  0
BLOCK_RECORD
  5
C2
330
1
100
AcDbSymbolTableRecord
100
AcDbBlockTableRecord
  2
SW_NOTE_2
  0
ENDTAB
  0
ENDSEC
  0
SECTION
  2
BLOCKS
  0
BLOCK
  5
20
330
1F
100
AcDbEntity
  8
0
100
AcDbBlockBegin
  2
*MODEL_SPACE
 70
     0
 10
0.0
 20
0.0
 30
0.0
  3
*MODEL_SPACE
  1

  0
ENDBLK
  5
21
330
1F
100
AcDbEntity
  8
0
100
AcDbBlockEnd
  0
BLOCK
  5
1C
330
1B
100
AcDbEntity
 67
     1
  8
0
100
AcDbBlockBegin
  2
*PAPER_SPACE
 70
     0
 10
0.0
 20
0.0
 30
0.0
  3
*PAPER_SPACE
  1

  0
ENDBLK
  5
1D
330
1B
100
AcDbEntity
 67
     1
  8
0
100
AcDbBlockEnd
  0
BLOCK
  5
A9
330
A8
100
AcDbEntity
  8
0
100
AcDbBlockBegin
  2
SW_NOTE_0
 70
     0
 10
0.0
 20
0.0
 30
0.0
  3
SW_NOTE_0
  1

  0
MTEXT
  5
AB
330
A8
100
AcDbEntity
  8
0
  6
CONTINUOUS
 62
     0
100
AcDbMText
 10
0.0
 20
0.0773440644
 30
0.0
 40
0.06
 41
0.0
 71
     1
 72
     1
  1
INTERPRET GEOMETRIC
  7
SLDTEXTSTYLE0
  0
MTEXT
  5
AC
330
A8
100
AcDbEntity
  8
0
  6
CONTINUOUS
 62
     0
100
AcDbMText
 10
0.0
 20
-0.0220260102
 30
0.0
 40
0.06
 41
0.0
 71
     1
 72
     1
  1
TOLERANCING PER:
  7
SLDTEXTSTYLE0
  0
ENDBLK
  5
AA
330
A8
100
AcDbEntity
  8
0
100
AcDbBlockEnd
  0
BLOCK
  5
AF
330
AE
100
AcDbEntity
  8
0
100
AcDbBlockBegin
  2
SW_NOTE_1
 70
     0
 10
0.0
 20
0.0
 30
0.0
  3
SW_NOTE_1
  1

  0
MTEXT
  5
B1
330
AE
100
AcDbEntity
  8
0
  6
CONTINUOUS
 62
     0
100
AcDbMText
 10
0.0
 20
0.0837894031
 30
0.0
 40
0.065
 41
0.0
 71
     1
 72
     1
  1
DIMENSIONS ARE IN INCHES
  7
SLDTEXTSTYLE0
  0
MTEXT
  5
B2
330
AE
100
AcDbEntity
  8
0
  6
CONTINUOUS
 62
     0
100
AcDbMText
 10
0.0
 20
-0.0205806729
 30
0.0
 40
0.065
 41
0.0
 71
     1
 72
     1
  1
TOLERANCES:
  7
SLDTEXTSTYLE0
  0
MTEXT
  5
B3
330
AE
100
AcDbEntity
  8
0
  6
CONTINUOUS
 62
     0
100
AcDbMText
 10
0.0
 20
-0.1249507489
 30
0.0
 40
0.065
 41
0.0
 71
     1
 72
     1
  1
FRACTIONAL
  7
SLDTEXTSTYLE0
  0
MTEXT
  5
B4
330
AE
100
AcDbEntity
  8
0
  6
CONTINUOUS
 62
     0
100
AcDbMText
 10
0.5175850875
 20
-0.1249507489
 30
0.0
 40
0.065
 41
0.0
 71
     1
 72
     1
  1
%%p
  7
SLDTEXTSTYLE0
  0
MTEXT
  5
B5
330
AE
100
AcDbEntity
  8
0
  6
CONTINUOUS
 62
     0
100
AcDbMText
 10
0.0
 20
-0.2293208248
 30
0.0
 40
0.065
 41
0.0
 71
     1
 72
     1
  1
ANGULAR: MACH
  7
SLDTEXTSTYLE0
  0
MTEXT
  5
B6
330
AE
100
AcDbEntity
  8
0
  6
CONTINUOUS
 62
     0
100
AcDbMText
 10
0.7233732769
 20
-0.2293208248
 30
0.0
 40
0.065
 41
0.0
 71
     1
 72
     1
  1
%%p
  7
SLDTEXTSTYLE0
  0
MTEXT
  5
B7
330
AE
100
AcDbEntity
  8
0
  6
CONTINUOUS
 62
     0
100
AcDbMText
 10
0.7852857683
 20
-0.2293208248
 30
0.0
 40
0.065
 41
0.0
 71
     1
 72
     1
  1
     BEND 
  7
SLDTEXTSTYLE0
  0
MTEXT
  5
B8
330
AE
100
AcDbEntity
  8
0
  6
CONTINUOUS
 62
     0
100
AcDbMText
 10
1.14784136
 20
-0.2293208248
 30
0.0
 40
0.065
 41
0.0
 71
     1
 72
     1
  1
%%p
  7
SLDTEXTSTYLE0
  0
MTEXT
  5
B9
330
AE
100
AcDbEntity
  8
0
  6
CONTINUOUS
 62
     0
100
AcDbMText
 10
0.0
 20
-0.3336909008
 30
0.0
 40
0.065
 41
0.0
 71
     1
 72
     1
  1
TWO PLACE DECIMAL    
  7
SLDTEXTSTYLE0
  0
MTEXT
  5
BA
330
AE
100
AcDbEntity
  8
0
  6
CONTINUOUS
 62
     0
100
AcDbMText
 10
0.9794349188
 20
-0.3336909008
 30
0.0
 40
0.065
 41
0.0
 71
     1
 72
     1
  1
%%p
  7
SLDTEXTSTYLE0
  0
MTEXT
  5
BB
330
AE
100
AcDbEntity
  8
0
  6
CONTINUOUS
 62
     0
100
AcDbMText
 10
0.0
 20
-0.4380609768
 30
0.0
 40
0.065
 41
0.0
 71
     1
 72
     1
  1
THREE PLACE DECIMAL  
  7
SLDTEXTSTYLE0
  0
MTEXT
  5
BC
330
AE
100
AcDbEntity
  8
0
  6
CONTINUOUS
 62
     0
100
AcDbMText
 10
0.9738038639
 20
-0.4380609768
 30
0.0
 40
0.065
 41
0.0
 71
     1
 72
     1
  1
%%p
  7
SLDTEXTSTYLE0
  0
ENDBLK
  5
B0
330
AE
100
AcDbEntity
  8
0
100
AcDbBlockEnd
  0
BLOCK
  5
C3
330
C2
100
AcDbEntity
  8
0
100
AcDbBlockBegin
  2
SW_NOTE_2
 70
     0
 10
0.0
 20
0.0
 30
0.0
  3
SW_NOTE_2
  1

  0
MTEXT
  5
C5
330
C2
100
AcDbEntity
  8
0
  6
CONTINUOUS
 62
     0
100
AcDbMText
 10
0.0
 20
0.0773440644
 30
0.0
 40
0.06
 41
0.0
 71
     1
 72
     1
  1
THE INFORMATION CONTAINED IN THIS
  7
SLDTEXTSTYLE0
  0
MTEXT
  5
C6
330
C2
100
AcDbEntity
  8
0
  6
CONTINUOUS
 62
     0
100
AcDbMText
 10
0.0
 20
-0.0220260102
 30
0.0
 40
0.06
 41
0.0
 71
     1
 72
     1
  1
DRAWING IS THE SOLE PROPERTY OF
  7
SLDTEXTSTYLE0
  0
MTEXT
  5
C7
330
C2
100
AcDbEntity
  8
0
  6
CONTINUOUS
 62
     0
100
AcDbMText
 10
0.0
 20
-0.1213960848
 30
0.0
 40
0.06
 41
0.0
 71
     1
 72
     1
  1
Candy Controls.  ANY 
  7
SLDTEXTSTYLE0
  0
MTEXT
  5
C8
330
C2
100
AcDbEntity
  8
0
  6
CONTINUOUS
 62
     0
100
AcDbMText
 10
0.0
 20
-0.2207661593
 30
0.0
 40
0.06
 41
0.0
 71
     1
 72
     1
  1
REPRODUCTION IN PART OR AS A WHOLE
  7
SLDTEXTSTYLE0
  0
MTEXT
  5
C9
330
C2
100
AcDbEntity
  8
0
  6
CONTINUOUS
 62
     0
100
AcDbMText
 10
0.0
 20
-0.3201362339
 30
0.0
 40
0.06
 41
0.0
 71
     1
 72
     1
  1
WITHOUT THE WRITTEN PERMISSION OF
  7
SLDTEXTSTYLE0
  0
MTEXT
  5
CA
330
C2
100
AcDbEntity
  8
0
  6
CONTINUOUS
 62
     0
100
AcDbMText
 10
0.0
 20
-0.4195063085
 30
0.0
 40
0.06
 41
0.0
 71
     1
 72
     1
  1
Candy Controls IS 
  7
SLDTEXTSTYLE0
  0
MTEXT
  5
CB
330
C2
100
AcDbEntity
  8
0
  6
CONTINUOUS
 62
     0
100
AcDbMText
 10
0.0
 20
-0.518876383
 30
0.0
 40
0.06
 41
0.0
 71
     1
 72
     1
  1
PROHIBITED.
  7
SLDTEXTSTYLE0
  0
ENDBLK
  5
C4
330
C2
100
AcDbEntity
  8
0
100
AcDbBlockEnd
  0
ENDSEC
  0
SECTION
  2
ENTITIES
  0
LINE
  5
41
330
1F
100
AcDbEntity
  8
0
  6
CONTINUOUS
 62
     7
100
AcDbLine
 10
0.329927
 20
8.1920731707
 30
0.0
 11
10.629927
 21
8.1920731707
 31
0.0
  0
LINE
  5
42
330
1F
100
AcDbEntity
  8
0
  6
CONTINUOUS
 62
     7
100
AcDbLine
 10
0.329927
 20
8.1920731707
 30
0.0
 11
0.329927
 21
0.3920731707
 31
0.0
  0
LINE
  5
43
330
1F
100
AcDbEntity
  8
0
  6
CONTINUOUS
 62
     7
100
AcDbLine
 10
10.629927
 20
0.3920731707
 30
0.0
 11
0.329927
 21
0.3920731707
 31
0.0
  0
LINE
  5
44
330
1F
100
AcDbEntity
  8
0
  6
CONTINUOUS
 62
     7
100
AcDbLine
 10
10.629927
 20
0.3920731707
 30
0.0
 11
10.629927
 21
8.1920731707
 31
0.0
  0
LINE
  5
45
330
1F
100
AcDbEntity
  8
0
  6
CONTINUOUS
 62
     7
100
AcDbLine
 10
4.7981841288
 20
0.3920731707
 30
0.0
 11
4.7981841288
 21
2.3564211366
 31
0.0
  0
LINE
  5
46
330
1F
100
AcDbEntity
  8
0
  6
CONTINUOUS
 62
     7
100
AcDbLine
 10
2.8210345579
 20
2.3564211366
 30
0.0
 11
10.629927
 21
2.3564211366
 31
0.0
  0
LINE
  5
47
330
1F
100
AcDbEntity
  8
0
  6
CONTINUOUS
 62
     7
100
AcDbLine
 10
6.1796352514
 20
2.3564211366
 30
0.0
 11
6.1796352514
 21
0.3920731707
 31
0.0
  0
LINE
  5
48
330
1F
100
AcDbEntity
  8
0
  6
CONTINUOUS
 62
     7
100
AcDbLine
 10
7.8712070044
 20
2.3564211366
 30
0.0
 11
7.8712070044
 21
0.3920731707
 31
0.0
  0
LINE
  5
49
330
1F
100
AcDbEntity
  8
0
  6
CONTINUOUS
 62
     7
100
AcDbLine
 10
7.8712070044
 20
0.6049590101
 30
0.0
 11
10.629927
 21
0.6049590101
 31
0.0
  0
LINE
  5
4A
330
1F
100
AcDbEntity
  8
0
  6
CONTINUOUS
 62
     7
100
AcDbLine
 10
7.8712070044
 20
1.1119362457
 30
0.0
 11
10.629927
 21
1.1119362457
 31
0.0
  0
LINE
  5
4B
330
1F
100
AcDbEntity
  8
0
  6
CONTINUOUS
 62
     7
100
AcDbLine
 10
7.8712070044
 20
1.9892703708
 30
0.0
 11
10.629927
 21
1.9892703708
 31
0.0
  0
LINE
  5
4C
330
1F
100
AcDbEntity
  8
0
  6
CONTINUOUS
 62
     7
100
AcDbLine
 10
8.266751752
 20
1.1119362457
 30
0.0
 11
8.266751752
 21
0.6049590101
 31
0.0
  0
LINE
  5
4D
330
1F
100
AcDbEntity
  8
0
  6
CONTINUOUS
 62
     7
100
AcDbLine
 10
8.6943435176
 20
0.6049590101
 30
0.0
 11
8.6943435176
 21
0.3920731707
 31
0.0
  0
LINE
  5
4E
330
1F
100
AcDbEntity
  8
0
  6
CONTINUOUS
 62
     7
100
AcDbLine
 10
10.0579917045
 20
1.1119362457
 30
0.0
 11
10.0579917045
 21
0.6049590101
 31
0.0
  0
LINE
  5
4F
330
1F
100
AcDbEntity
  8
0
  6
CONTINUOUS
 62
     7
100
AcDbLine
 10
9.6662556631
 20
0.6049590101
 30
0.0
 11
9.6662556631
 21
0.3920731707
 31
0.0
  0
LINE
  5
50
330
1F
100
AcDbEntity
  8
0
  6
CONTINUOUS
 62
     7
100
AcDbLine
 10
2.8210345579
 20
0.5883479999
 30
0.0
 11
6.1796352514
 21
0.5883479999
 31
0.0
  0
LINE
  5
51
330
1F
100
AcDbEntity
  8
0
  6
CONTINUOUS
 62
     7
100
AcDbLine
 10
6.1796352514
 20
1.7939211366
 30
0.0
 11
7.8712070044
 21
1.7939211366
 31
0.0
  0
LINE
  5
52
330
1F
100
AcDbEntity
  8
0
  6
CONTINUOUS
 62
     7
100
AcDbLine
 10
6.1796352514
 20
1.9814211366
 30
0.0
 11
7.8712070044
 21
1.9814211366
 31
0.0
  0
LINE
  5
53
330
1F
100
AcDbEntity
  8
0
  6
CONTINUOUS
 62
     7
100
AcDbLine
 10
6.1796352514
 20
2.1689211366
 30
0.0
 11
7.8712070044
 21
2.1689211366
 31
0.0
  0
LINE
  5
54
330
1F
100
AcDbEntity
  8
0
  6
CONTINUOUS
 62
     7
100
AcDbLine
 10
7.8712070044
 20
1.2314211366
 30
0.0
 11
6.1796352514
 21
1.2314211366
 31
0.0
  0
LINE
  5
55
330
1F
100
AcDbEntity
  8
0
  6
CONTINUOUS
 62
     7
100
AcDbLine
 10
7.3921580388
 20
2.3564211366
 30
0.0
 11
7.3921580388
 21
1.2314211366
 31
0.0
  0
LINE
  5
56
330
1F
100
AcDbEntity
  8
0
  6
CONTINUOUS
 62
     7
100
AcDbLine
 10
6.9236308342
 20
2.3564211366
 30
0.0
 11
6.9236308342
 21
1.2314211366
 31
0.0
  0
LINE
  5
57
330
1F
100
AcDbEntity
  8
0
  6
CONTINUOUS
 62
     7
100
AcDbLine
 10
4.7981841288
 20
0.8557965305
 30
0.0
 11
6.1796352514
 21
0.8557965305
 31
0.0
  0
LINE
  5
58
330
1F
100
AcDbEntity
  8
0
  6
CONTINUOUS
 62
     7
100
AcDbLine
 10
4.7981841288
 20
1.1257965305
 30
0.0
 11
6.1796352514
 21
1.1257965305
 31
0.0
  0
LINE
  5
59
330
1F
100
AcDbEntity
  8
0
  6
CONTINUOUS
 62
     7
100
AcDbLine
 10
2.8210345579
 20
0.3920731707
 30
0.0
 11
2.8210345579
 21
2.3564211366
 31
0.0
  0
LINE
  5
5A
330
1F
100
AcDbEntity
  8
0
  6
CONTINUOUS
 62
     7
100
AcDbLine
 10
2.8210345579
 20
1.1064211366
 30
0.0
 11
4.7981841288
 21
1.1064211366
 31
0.0
  0
LINE
  5
5B
330
1F
100
AcDbEntity
  8
0
  6
CONTINUOUS
 62
     7
100
AcDbLine
 10
2.8210345579
 20
1.3564211366
 30
0.0
 11
4.7981841288
 21
1.3564211366
 31
0.0
  0
LINE
  5
5C
330
1F
100
AcDbEntity
  8
0
  6
CONTINUOUS
 62
     7
100
AcDbLine
 10
2.8210345579
 20
1.6064211366
 30
0.0
 11
4.7981841288
 21
1.6064211366
 31
0.0
  0
LINE
  5
5D
330
1F
100
AcDbEntity
  8
0
  6
CONTINUOUS
 62
     7
100
AcDbLine
 10
2.8210345579
 20
1.8564211366
 30
0.0
 11
4.7981841288
 21
1.8564211366
 31
0.0
  0
LINE
  5
5E
330
1F
100
AcDbEntity
  8
0
  6
CONTINUOUS
 62
     7
100
AcDbLine
 10
3.8190146875
 20
2.3564211366
 30
0.0
 11
3.8190146875
 21
0.5883479999
 31
0.0
  0
LINE
  5
5F
330
1F
100
AcDbEntity
  8
0
  6
CONTINUOUS
 62
     7
100
AcDbLine
 10
6.1796352514
 20
2.2020813496
 30
0.0
 11
4.7981841288
 21
2.2020813496
 31
0.0
  0
LINE
  5
60
330
1F
100
AcDbEntity
  8
0
  6
CONTINUOUS
 62
     7
100
AcDbLine
 10
7.8712070044
 20
1.6064211366
 30
0.0
 11
6.1796352514
 21
1.6064211366
 31
0.0
  0
LINE
  5
61
330
1F
100
AcDbEntity
  8
0
  6
CONTINUOUS
 62
     7
100
AcDbLine
 10
7.8712070044
 20
1.4189211366
 30
0.0
 11
6.1796352514
 21
1.4189211366
 31
0.0
  0
LINE
  5
62
330
1F
100
AcDbEntity
  8
0
  6
CONTINUOUS
 62
     7
100
AcDbLine
 10
2.8210345579
 20
2.1064211366
 30
0.0
 11
4.7981841288
 21
2.1064211366
 31
0.0
  0
LINE
  5
63
330
1F
100
AcDbEntity
  8
0
  6
CONTINUOUS
 62
     7
100
AcDbLine
 10
4.7981841288
 20
1.3957965305
 30
0.0
 11
6.1796352514
 21
1.3957965305
 31
0.0
  0
LINE
  5
64
330
1F
100
AcDbEntity
  8
0
  6
CONTINUOUS
 62
     7
100
AcDbLine
 10
2.8210345579
 20
0.8564211366
 30
0.0
 11
4.7981841288
 21
0.8564211366
 31
0.0
  0
LINE
  5
65
330
1F
100
AcDbEntity
  8
0
  6
CONTINUOUS
 62
     7
100
AcDbLine
 10
1.1838252943
 20
0.3920731707
 30
0.0
 11
1.1838252943
 21
1.3064211366
 31
0.0
  0
LINE
  5
66
330
1F
100
AcDbEntity
  8
0
  6
CONTINUOUS
 62
     7
100
AcDbLine
 10
2.8210345579
 20
1.3064211366
 30
0.0
 11
1.1838252943
 21
1.3064211366
 31
0.0
  0
LINE
  5
67
330
1F
100
AcDbEntity
  8
0
  6
CONTINUOUS
 62
     7
100
AcDbLine
 10
8.660927
 20
0.3920731707
 30
0.0
 11
8.660927
 21
0.3072739649
 31
0.0
  0
LINE
  5
68
330
1F
100
AcDbEntity
  8
0
  6
CONTINUOUS
 62
     7
100
AcDbLine
 10
6.692177
 20
0.3920731707
 30
0.0
 11
6.692177
 21
0.3072739649
 31
0.0
  0
LINE
  5
69
330
1F
100
AcDbEntity
  8
0
  6
CONTINUOUS
 62
     7
100
AcDbLine
 10
4.723427
 20
0.3920731707
 30
0.0
 11
4.723427
 21
0.3072739649
 31
0.0
  0
LINE
  5
6A
330
1F
100
AcDbEntity
  8
0
  6
CONTINUOUS
 62
     7
100
AcDbLine
 10
2.754677
 20
0.3920731707
 30
0.0
 11
2.754677
 21
0.3072739649
 31
0.0
  0
LINE
  5
6B
330
1F
100
AcDbEntity
  8
0
  6
CONTINUOUS
 62
     7
100
AcDbLine
 10
2.754677
 20
0.3920731707
 30
0.0
 11
2.7672319738
 21
0.3575
 31
0.0
  0
LINE
  5
6C
330
1F
100
AcDbEntity
  8
0
  6
CONTINUOUS
 62
     7
100
AcDbLine
 10
2.7672319738
 20
0.3575
 30
0.0
 11
2.7414258825
 21
0.3575
 31
0.0
  0
LINE
  5
6D
330
1F
100
AcDbEntity
  8
0
  6
CONTINUOUS
 62
     7
100
AcDbLine
 10
2.7414258825
 20
0.3575
 30
0.0
 11
2.754677
 21
0.3920731707
 31
0.0
  0
MTEXT
  5
91
330
1F
100
AcDbEntity
  8
0
  6
CONTINUOUS
 62
     7
100
AcDbMText
 10
4.9775846961
 20
0.5178452352
 30
0.0
 40
0.0625
 41
0.0
 71
     1
 72
     1
  1
DO NOT SCALE DRAWING
  7
SLDTEXTSTYLE0
  0
MTEXT
  5
92
330
1F
100
AcDbEntity
  8
0
  6
CONTINUOUS
 62
     7
100
AcDbMText
 10
8.8366721605
 20
0.9417064595
 30
0.0
 40
0.125
 41
0.0
 71
     1
 72
     1
  1
CL5-C56
  7
SLDTEXTSTYLE0
  0
MTEXT
  5
94
330
1F
100
AcDbEntity
  8
0
  6
CONTINUOUS
 62
     7
100
AcDbMText
 10
9.7571278483
 20
0.5524239532
 30
0.0
 40
0.1
 41
0.0
 71
     1
 72
     1
  1
SHEET 1 OF 1
  7
SLDTEXTSTYLE1
  0
MTEXT
  5
95
330
1F
100
AcDbEntity
  8
0
  6
CONTINUOUS
 62
     7
100
AcDbMText
 10
4.8448077858
 20
2.3132954224
 30
0.0
 40
0.07
 41
0.0
 71
     1
 72
     1
  1
UNLESS OTHERWISE SPECIFIED:
  7
SLDTEXTSTYLE0
  0
MTEXT
  5
96
330
1F
100
AcDbEntity
  8
0
  6
CONTINUOUS
 62
     7
100
AcDbMText
 10
7.9586139647
 20
0.5520987879
 30
0.0
 40
0.1
 41
0.0
 71
     1
 72
     1
  1
SCALE: 1:1
  7
SLDTEXTSTYLE0
  0
MTEXT
  5
97
330
1F
100
AcDbEntity
  8
0
  6
CONTINUOUS
 62
     7
100
AcDbMText
 10
8.7023691647
 20
0.5486763345
 30
0.0
 40
0.1
 41
0.0
 71
     1
 72
     1
  1
WEIGHT: 
  7
SLDTEXTSTYLE0
  0
MTEXT
  5
98
330
1F
100
AcDbEntity
  8
0
  6
CONTINUOUS
 62
     7
100
AcDbMText
 10
10.2277580983
 20
1.081966299
 30
0.0
 40
0.1
 41
0.0
 71
     1
 72
     1
  1
REV
  7
SLDTEXTSTYLE0
  0
MTEXT
  5
9A
330
1F
100
AcDbEntity
  8
0
  6
CONTINUOUS
 62
     7
100
AcDbMText
 10
8.2984570898
 20
1.0858725293
 30
0.0
 40
0.1
 41
0.0
 71
     1
 72
     1
  1
DWG.  NO.
  7
SLDTEXTSTYLE2
  0
MTEXT
  5
9B
330
1F
100
AcDbEntity
  8
0
  6
CONTINUOUS
 62
     7
100
AcDbMText
 10
7.9598482632
 20
0.9442140768
 30
0.0
 40
0.25
 41
0.0
 71
     1
 72
     1
  1
A
  7
SLDTEXTSTYLE0
  0
MTEXT
  5
9C
330
1F
100
AcDbEntity
  8
0
  6
CONTINUOUS
 62
     7
100
AcDbMText
 10
7.9519581822
 20
1.0872713483
 30
0.0
 40
0.1
 41
0.0
 71
     1
 72
     1
  1
SIZE
  7
SLDTEXTSTYLE0
  0
MTEXT
  5
9D
330
1F
100
AcDbEntity
  8
0
  6
CONTINUOUS
 62
     7
100
AcDbMText
 10
7.9170704177
 20
1.9547881128
 30
0.0
 40
0.1
 41
0.0
 71
     1
 72
     1
  1
TITLE:
  7
SLDTEXTSTYLE0
  0
MTEXT
  5
9E
330
1F
100
AcDbEntity
  8
0
  6
CONTINUOUS
 62
     7
100
AcDbMText
 10
7.0363774929
 20
2.2906161274
 30
0.0
 40
0.065
 41
0.0
 71
     1
 72
     1
  1
NAME
  7
SLDTEXTSTYLE0
  0
MTEXT
  5
9F
330
1F
100
AcDbEntity
  8
0
  6
CONTINUOUS
 62
     7
100
AcDbMText
 10
7.5281510634
 20
2.2888799118
 30
0.0
 40
0.065
 41
0.0
 71
     1
 72
     1
  1
DATE
  7
SLDTEXTSTYLE0
  0
MTEXT
  5
A0
330
1F
100
AcDbEntity
  8
0
  6
CONTINUOUS
 62
     7
100
AcDbMText
 10
6.2277147029
 20
1.1876913145
 30
0.0
 40
0.065
 41
0.0
 71
     1
 72
     1
  1
COMMENTS:
  7
SLDTEXTSTYLE0
  0
MTEXT
  5
A1
330
1F
100
AcDbEntity
  8
0
  6
CONTINUOUS
 62
     7
100
AcDbMText
 10
6.2268411461
 20
1.3536101679
 30
0.0
 40
0.065
 41
0.0
 71
     1
 72
     1
  1
Q.A.
  7
SLDTEXTSTYLE0
  0
MTEXT
  5
A2
330
1F
100
AcDbEntity
  8
0
  6
CONTINUOUS
 62
     7
100
AcDbMText
 10
6.2284654509
 20
1.5395328424
 30
0.0
 40
0.065
 41
0.0
 71
     1
 72
     1
  1
MFG APPR.
  7
SLDTEXTSTYLE0
  0
MTEXT
  5
A3
330
1F
100
AcDbEntity
  8
0
  6
CONTINUOUS
 62
     7
100
AcDbMText
 10
6.2235171344
 20
1.7267501785
 30
0.0
 40
0.065
 41
0.0
 71
     1
 72
     1
  1
ENG APPR.
  7
SLDTEXTSTYLE0
  0
MTEXT
  5
A4
330
1F
100
AcDbEntity
  8
0
  6
CONTINUOUS
 62
     7
100
AcDbMText
 10
6.2264103951
 20
1.9092699088
 30
0.0
 40
0.065
 41
0.0
 71
     1
 72
     1
  1
CHECKED
  7
SLDTEXTSTYLE0
  0
MTEXT
  5
A5
330
1F
100
AcDbEntity
  8
0
  6
CONTINUOUS
 62
     7
100
AcDbMText
 10
6.2242794356
 20
2.1016301232
 30
0.0
 40
0.065
 41
0.0
 71
     1
 72
     1
  1
DRAWN
  7
SLDTEXTSTYLE0
  0
MTEXT
  5
A6
330
1F
100
AcDbEntity
  8
0
  6
CONTINUOUS
 62
     7
100
AcDbMText
 10
4.8208600979
 20
0.834523235
 30
0.0
 40
0.06
 41
0.0
 71
     1
 72
     1
  1
FINISH
  7
SLDTEXTSTYLE0
  0
MTEXT
  5
A7
330
1F
100
AcDbEntity
  8
0
  6
CONTINUOUS
 62
     7
100
AcDbMText
 10
4.8181240648
 20
1.1028217587
 30
0.0
 40
0.06
 41
0.0
 71
     1
 72
     1
  1
MATERIAL
  7
SLDTEXTSTYLE0
  0
INSERT
  5
AD
330
1F
100
AcDbEntity
  8
0
  6
CONTINUOUS
 62
     7
100
AcDbBlockReference
  2
SW_NOTE_0
 10
4.8231926633
 20
1.2646542947
 30
0.0
  0
INSERT
  5
BD
330
1F
100
AcDbEntity
  8
0
  6
CONTINUOUS
 62
     7
100
AcDbBlockReference
  2
SW_NOTE_1
 10
4.8353339353
 20
2.0049168724
 30
0.0
  0
MTEXT
  5
BE
330
1F
100
AcDbEntity
  8
0
  6
CONTINUOUS
 62
     7
100
AcDbMText
 10
3.5531400086
 20
0.5200091997
 30
0.0
 40
0.0625
 41
0.0
 71
     1
 72
     1
  1
APPLICATION
  7
SLDTEXTSTYLE0
  0
MTEXT
  5
BF
330
1F
100
AcDbEntity
  8
0
  6
CONTINUOUS
 62
     7
100
AcDbMText
 10
4.1005607758
 20
0.7502454275
 30
0.0
 40
0.0625
 41
0.0
 71
     1
 72
     1
  1
USED ON
  7
SLDTEXTSTYLE0
  0
MTEXT
  5
C0
330
1F
100
AcDbEntity
  8
0
  6
CONTINUOUS
 62
     7
100
AcDbMText
 10
3.1040019536
 20
0.7492094783
 30
0.0
 40
0.0625
 41
0.0
 71
     1
 72
     1
  1
NEXT ASSY
  7
SLDTEXTSTYLE0
  0
MTEXT
  5
C1
330
1F
100
AcDbEntity
  8
0
  6
CONTINUOUS
 62
     7
100
AcDbMText
 10
1.3712489489
 20
1.2496672684
 30
0.0
 40
0.06
 41
0.0
 71
     1
 72
     1
  1
PROPRIETARY AND CONFIDENTIAL
  7
SLDTEXTSTYLE0
  0
INSERT
  5
CC
330
1F
100
AcDbEntity
  8
0
  6
CONTINUOUS
 62
     7
100
AcDbBlockReference
  2
SW_NOTE_2
 10
1.2226209074
 20
1.0313492921
 30
0.0
  0
MTEXT
  5
CD
330
1F
100
AcDbEntity
  8
0
  6
CONTINUOUS
 62
     7
100
AcDbMText
 10
1.7387909509
 20
0.3105864247
 30
0.0
 40
0.09375
 41
0.0
 71
     1
 72
     1
  1
5
  7
SLDTEXTSTYLE0
  0
MTEXT
  5
CE
330
1F
100
AcDbEntity
  8
0
  6
CONTINUOUS
 62
     7
100
AcDbMText
 10
3.723800327
 20
0.3137237518
 30
0.0
 40
0.09375
 41
0.0
 71
     1
 72
     1
  1
4
  7
SLDTEXTSTYLE0
  0
MTEXT
  5
CF
330
1F
100
AcDbEntity
  8
0
  6
CONTINUOUS
 62
     7
100
AcDbMText
 10
5.6324457277
 20
0.3116191842
 30
0.0
 40
0.09375
 41
0.0
 71
     1
 72
     1
  1
3
  7
SLDTEXTSTYLE0
  0
MTEXT
  5
D0
330
1F
100
AcDbEntity
  8
0
  6
CONTINUOUS
 62
     7
100
AcDbMText
 10
7.6059721724
 20
0.3124391351
 30
0.0
 40
0.09375
 41
0.0
 71
     1
 72
     1
  1
2
  7
SLDTEXTSTYLE0
  0
MTEXT
  5
D1
330
1F
100
AcDbEntity
  8
0
  6
CONTINUOUS
 62
     7
100
AcDbMText
 10
9.6619921328
 20
0.301372012
 30
0.0
 40
0.09375
 41
0.0
 71
     1
 72
     1
  1
1
  7
SLDTEXTSTYLE0
  0
LINE
  5
D2
330
1F
100
AcDbEntity
  8
0
  6
CONTINUOUS
 62
     7
100
AcDbLine
 10
3.7807962084
 20
2.6563160817
 30
0.0
 11
4.197462875
 21
2.6563160817
 31
0.0
  0
LINE
  5
D3
330
1F
100
AcDbEntity
  8
0
  6
CONTINUOUS
 62
     7
100
AcDbLine
 10
3.4250613002
 20
2.6563160817
 30
0.0
 11
3.7283027701
 21
2.6563160817
 31
0.0
  0
LINE
  5
D4
330
1F
100
AcDbEntity
  8
0
  6
CONTINUOUS
 62
     7
100
AcDbLine
 10
3.7283027701
 20
4.8610404911
 30
0.0
 11
3.4250613002
 21
4.8610404911
 31
0.0
  0
LINE
  5
D5
330
1F
100
AcDbEntity
  8
0
  6
CONTINUOUS
 62
     7
100
AcDbLine
 10
4.197462875
 20
4.8610404911
 30
0.0
 11
3.7807962084
 21
4.8610404911
 31
0.0
  0
LINE
  5
D6
330
1F
100
AcDbEntity
  8
0
  6
CONTINUOUS
 62
     7
100
AcDbLine
 10
4.197462875
 20
2.6563160817
 30
0.0
 11
4.212462875
 21
2.6713160817
 31
0.0
  0
LINE
  5
D7
330
1F
100
AcDbEntity
  8
0
  6
CONTINUOUS
 62
     7
100
AcDbLine
 10
4.212462875
 20
4.8460404911
 30
0.0
 11
4.197462875
 21
4.8610404911
 31
0.0
  0
LINE
  5
D8
330
1F
100
AcDbEntity
  8
0
  6
CONTINUOUS
 62
     7
100
AcDbLine
 10
3.9021872845
 20
3.7783633258
 30
0.0
 11
3.9021872845
 21
3.738993247
 31
0.0
  0
LINE
  5
D9
330
1F
100
AcDbEntity
  8
0
  6
CONTINUOUS
 62
     7
100
AcDbLine
 10
4.0990376782
 20
3.738993247
 30
0.0
 11
4.0990376782
 21
3.7783633258
 31
0.0
  0
LINE
  5
DA
330
1F
100
AcDbEntity
  8
0
  6
CONTINUOUS
 62
     7
100
AcDbLine
 10
2.4408093317
 20
2.6713160817
 30
0.0
 11
2.4558093317
 21
2.6563160817
 31
0.0
  0
LINE
  5
DB
330
1F
100
AcDbEntity
  8
0
  6
CONTINUOUS
 62
     7
100
AcDbLine
 10
3.2282109065
 20
4.8610404911
 30
0.0
 11
2.9249694367
 21
4.8610404911
 31
0.0
  0
LINE
  5
DC
330
1F
100
AcDbEntity
  8
0
  6
CONTINUOUS
 62
     7
100
AcDbLine
 10
2.4558093317
 20
2.6563160817
 30
0.0
 11
3.2282109065
 21
2.6563160817
 31
0.0
  0
LINE
  5
DD
330
1F
100
AcDbEntity
  8
0
  6
CONTINUOUS
 62
     7
100
AcDbLine
 10
3.2282109065
 20
3.5913554517
 30
0.0
 11
3.2872660246
 21
3.5913554517
 31
0.0
  0
LINE
  5
DE
330
1F
100
AcDbEntity
  8
0
  6
CONTINUOUS
 62
     7
100
AcDbLine
 10
3.2872660246
 20
3.926001121
 30
0.0
 11
3.2282109065
 21
3.926001121
 31
0.0
  0
LINE
  5
DF
330
1F
100
AcDbEntity
  8
0
  6
CONTINUOUS
 62
     7
100
AcDbLine
 10
3.3660061821
 20
3.5913554517
 30
0.0
 11
3.4250613002
 21
3.5913554517
 31
0.0
  0
LINE
  5
E0
330
1F
100
AcDbEntity
  8
0
  6
CONTINUOUS
 62
     7
100
AcDbLine
 10
3.4250613002
 20
3.926001121
 30
0.0
 11
3.3660061821
 21
3.926001121
 31
0.0
  0
LINE
  5
E1
330
1F
100
AcDbEntity
  8
0
  6
CONTINUOUS
 62
     7
100
AcDbLine
 10
3.2282109065
 20
4.4427334045
 30
0.0
 11
3.2872660246
 21
4.4427334045
 31
0.0
  0
LINE
  5
E2
330
1F
100
AcDbEntity
  8
0
  6
CONTINUOUS
 62
     7
100
AcDbLine
 10
3.2872660246
 20
4.7773790738
 30
0.0
 11
3.2282109065
 21
4.7773790738
 31
0.0
  0
LINE
  5
E3
330
1F
100
AcDbEntity
  8
0
  6
CONTINUOUS
 62
     7
100
AcDbLine
 10
3.3660061821
 20
4.4427334045
 30
0.0
 11
3.4250613002
 21
4.4427334045
 31
0.0
  0
LINE
  5
E4
330
1F
100
AcDbEntity
  8
0
  6
CONTINUOUS
 62
     7
100
AcDbLine
 10
3.4250613002
 20
4.7773790738
 30
0.0
 11
3.3660061821
 21
4.7773790738
 31
0.0
  0
LINE
  5
E5
330
1F
100
AcDbEntity
  8
0
  6
CONTINUOUS
 62
     7
100
AcDbLine
 10
3.2282109065
 20
2.739977499
 30
0.0
 11
3.2872660246
 21
2.739977499
 31
0.0
  0
LINE
  5
E6
330
1F
100
AcDbEntity
  8
0
  6
CONTINUOUS
 62
     7
100
AcDbLine
 10
3.2872660246
 20
3.0746231683
 30
0.0
 11
3.2282109065
 21
3.0746231683
 31
0.0
  0
LINE
  5
E7
330
1F
100
AcDbEntity
  8
0
  6
CONTINUOUS
 62
     7
100
AcDbLine
 10
3.3660061821
 20
2.739977499
 30
0.0
 11
3.4250613002
 21
2.739977499
 31
0.0
  0
LINE
  5
E8
330
1F
100
AcDbEntity
  8
0
  6
CONTINUOUS
 62
     7
100
AcDbLine
 10
3.4250613002
 20
3.0746231683
 30
0.0
 11
3.3660061821
 21
3.0746231683
 31
0.0
  0
LINE
  5
E9
330
1F
100
AcDbEntity
  8
0
  6
CONTINUOUS
 62
     7
100
AcDbLine
 10
3.2872660246
 20
2.6981467903
 30
0.0
 11
3.3660061821
 21
2.6981467903
 31
0.0
  0
LINE
  5
EA
330
1F
100
AcDbEntity
  8
0
  6
CONTINUOUS
 62
     7
100
AcDbLine
 10
3.3660061821
 20
4.8192097825
 30
0.0
 11
3.2872660246
 21
4.8192097825
 31
0.0
  0
LINE
  5
EB
330
1F
100
AcDbEntity
  8
0
  6
CONTINUOUS
 62
     7
100
AcDbLine
 10
3.4250613002
 20
4.8610404911
 30
0.0
 11
3.4250613002
 21
2.6563160817
 31
0.0
  0
SPLINE
  5
EC
330
1F
100
AcDbEntity
  8
0
  6
CONTINUOUS
 62
     7
100
AcDbSpline
210
0.0
220
0.0
230
1.0
 70
     8
 71
     3
 72
    82
 73
    78
 74
     0
 42
0.00000001
 43
0.00000001
 40
-0.0312499999999999
 40
-0.0312499999999999
 40
0.0
 40
0.0
 40
0.0312500000000002
 40
0.0312500000000002
 40
0.0468750000000003
 40
0.0468750000000003
 40
0.0625000000000005
 40
0.0625000000000005
 40
0.0781250000000008
 40
0.0781250000000008
 40
0.093750000000001
 40
0.093750000000001
 40
0.1250000000000014
 40
0.1250000000000014
 40
0.1562500000000017
 40
0.1562500000000017
 40
0.1875000000000019
 40
0.1875000000000019
 40
0.2187500000000021
 40
0.2187500000000021
 40
0.2500000000000024
 40
0.2500000000000024
 40
0.2812500000000026
 40
0.2812500000000026
 40
0.3125000000000029
 40
0.3125000000000029
 40
0.3750000000000034
 40
0.3750000000000034
 40
0.4062500000000035
 40
0.4062500000000035
 40
0.4375000000000036
 40
0.4375000000000036
 40
0.4531250000000037
 40
0.4531250000000037
 40
0.4687500000000037
 40
0.4687500000000037
 40
0.4843750000000037
 40
0.4843750000000037
 40
0.5000000000000038
 40
0.5000000000000038
 40
0.5156250000000038
 40
0.5156250000000038
 40
0.5312500000000038
 40
0.5312500000000038
 40
0.5468750000000038
 40
0.5468750000000038
 40
0.5625000000000037
 40
0.5625000000000037
 40
0.5937500000000033
 40
0.5937500000000033
 40
0.625000000000003
 40
0.625000000000003
 40
0.6562500000000026
 40
0.6562500000000026
 40
0.6875000000000022
 40
0.6875000000000022
 40
0.7187500000000019
 40
0.7187500000000019
 40
0.7500000000000014
 40
0.7500000000000014
 40
0.812500000000001
 40
0.812500000000001
 40
0.843750000000001
 40
0.843750000000001
 40
0.8750000000000008
 40
0.8750000000000008
 40
0.8906250000000007
 40
0.8906250000000007
 40
0.9062500000000006
 40
0.9062500000000006
 40
0.9218750000000004
 40
0.9218750000000004
 40
0.9375000000000003
 40
0.9375000000000003
 40
0.9687500000000001
 40
0.9687500000000001
 40
1.0
 40
1.0
 40
1.03125
 40
1.03125
 10
4.013410162762107
 20
4.730037499677389
 30
0.0
 10
3.987814799912511
 20
4.730037499677389
 30
0.0
 10
3.975303221027219
 20
4.729263872467528
 30
0.0
 10
3.956944361154099
 20
4.726971363512045
 30
0.0
 10
3.9508519412305
 20
4.726007035167317
 30
0.0
 10
3.939050806883778
 20
4.723720328283913
 30
0.0
 10
3.933344573514127
 20
4.722402263445014
 30
0.0
 10
3.922301854070181
 20
4.719420005760783
 30
0.0
 10
3.916965462806631
 20
4.717755749538084
 30
0.0
 10
3.906657791550075
 20
4.714069323016564
 30
0.0
 10
3.901684233906936
 20
4.712042110363084
 30
0.0
 10
3.887649336147737
 20
4.705559625520454
 30
0.0
 10
3.879333618083822
 20
4.70066461025147
 30
0.0
 10
3.864621586452652
 20
4.689682225453145
 30
0.0
 10
3.858398463271698
 20
4.683713575450169
 30
0.0
 10
3.848065636913817
 20
4.6709636695191
 30
0.0
 10
3.84391306008558
 20
4.664100607823631
 30
0.0
 10
3.837703913327137
 20
4.649870024345354
 30
0.0
 10
3.835613686501842
 20
4.642487862277564
 30
0.0
 10
3.833256351370253
 20
4.627183653790563
 30
0.0
 10
3.83300520271954
 20
4.61924413913886
 30
0.0
 10
3.834204751088348
 20
4.603251923668232
 30
0.0
 10
3.835643127921026
 20
4.595146330127672
 30
0.0
 10
3.840115011601927
 20
4.578723945544481
 30
0.0
 10
3.843175089052457
 20
4.570364923102692
 30
0.0
 10
3.854527020580538
 20
4.545626939034992
 30
0.0
 10
3.864911381405713
 20
4.529369811721143
 30
0.0
 10
3.885615452318886
 20
4.50594898051885
 30
0.0
 10
3.893239450409286
 20
4.498488633122731
 30
0.0
 10
3.910213927679169
 20
4.484513859273211
 30
0.0
 10
3.919686574415968
 20
4.477927399825782
 30
0.0
 10
3.935120162719792
 20
4.469464922293288
 30
0.0
 10
3.940465225548786
 20
4.466878334591646
 30
0.0
 10
3.951618691563344
 20
4.462262719415698
 30
0.0
 10
3.95747921943247
 20
4.460220081772869
 30
0.0
 10
3.96947407335279
 20
4.456897640442924
 30
0.0
 10
3.975586318319652
 20
4.455616839379793
 30
0.0
 10
3.988058652943825
 20
4.453885886647317
 30
0.0
 10
3.994487504939136
 20
4.453438529940449
 30
0.0
 10
4.007219340912713
 20
4.453461114329121
 30
0.0
 10
4.013515878239949
 20
4.45391890482753
 30
0.0
 10
4.025977029451142
 20
4.455680177463139
 30
0.0
 10
4.032193063145523
 20
4.457000877641186
 30
0.0
 10
4.044173175269483
 20
4.46035916466994
 30
0.0
 10
4.049948788264138
 20
4.462388953389592
 30
0.0
 10
4.061126581030005
 20
4.467046670251496
 30
0.0
 10
4.066555520021135
 20
4.469692717397191
 30
0.0
 10
4.081987804408583
 20
4.478215159829057
 30
0.0
 10
4.091257748725563
 20
4.484692626287624
 30
0.0
 10
4.108260301014494
 20
4.498739967490991
 30
0.0
 10
4.115954346689619
 20
4.506311496310244
 30
0.0
 10
4.129563601460511
 20
4.521762701012089
 30
0.0
 10
4.135558964331524
 20
4.529712461785418
 30
0.0
 10
4.146110975159979
 20
4.545934030462928
 30
0.0
 10
4.150682834296033
 20
4.554258057580378
 30
0.0
 10
4.158213797153767
 20
4.570777459103899
 30
0.0
 10
4.161201611552727
 20
4.579003947603888
 30
0.0
 10
4.165625567509348
 20
4.595365294179473
 30
0.0
 10
4.167064496531816
 20
4.603540974361921
 30
0.0
 10
4.168803498191784
 20
4.627648022049901
 30
0.0
 10
4.166613398087356
 20
4.642759810935739
 30
0.0
 10
4.157348739383234
 20
4.664027595105528
 30
0.0
 10
4.15318814551396
 20
4.670921015574199
 30
0.0
 10
4.14286163550907
 20
4.683677269053083
 30
0.0
 10
4.136683506040373
 20
4.689610659756869
 30
0.0
 10
4.125675137282609
 20
4.697845805644592
 30
0.0
 10
4.121708487957068
 20
4.700477338705792
 30
0.0
 10
4.11336284259078
 20
4.705388733892648
 30
0.0
 10
4.10896154304668
 20
4.707686724400958
 30
0.0
 10
4.099690327653802
 20
4.711976989603679
 30
0.0
 10
4.094820539709113
 20
4.713969315423748
 30
0.0
 10
4.084585254723661
 20
4.717648123479675
 30
0.0
 10
4.079180960379372
 20
4.71934483417695
 30
0.0
 10
4.062439854113455
 20
4.723882343225679
 30
0.0
 10
4.05074833776542
 20
4.726147962517622
 30
0.0
 10
4.026283860512704
 20
4.72923396440094
 30
0.0
 10
4.013410162762107
 20
4.730037499677389
 30
0.0
 10
3.987814799912511
 20
4.730037499677389
 30
0.0
  0
SPLINE
  5
ED
330
1F
100
AcDbEntity
  8
0
  6
CONTINUOUS
 62
     7
100
AcDbSpline
210
0.0
220
0.0
230
1.0
 70
     8
 71
     3
 72
    66
 73
    62
 74
     0
 42
0.00000001
 43
0.00000001
 40
-0.0312500000000004
 40
-0.0312500000000004
 40
0.0
 40
0.0
 40
0.0312499999999996
 40
0.0312499999999996
 40
0.0624999999999992
 40
0.0624999999999992
 40
0.0937499999999988
 40
0.0937499999999988
 40
0.1249999999999984
 40
0.1249999999999984
 40
0.1874999999999979
 40
0.1874999999999979
 40
0.2187499999999979
 40
0.2187499999999979
 40
0.2499999999999979
 40
0.2499999999999979
 40
0.2812499999999979
 40
0.2812499999999979
 40
0.3124999999999979
 40
0.3124999999999979
 40
0.343749999999998
 40
0.343749999999998
 40
0.374999999999998
 40
0.374999999999998
 40
0.4062499999999981
 40
0.4062499999999981
 40
0.4374999999999981
 40
0.4374999999999981
 40
0.4687499999999981
 40
0.4687499999999981
 40
0.4999999999999981
 40
0.4999999999999981
 40
0.5312499999999981
 40
0.5312499999999981
 40
0.5624999999999982
 40
0.5624999999999982
 40
0.5937499999999982
 40
0.5937499999999982
 40
0.6249999999999982
 40
0.6249999999999982
 40
0.6562499999999983
 40
0.6562499999999983
 40
0.6874999999999983
 40
0.6874999999999983
 40
0.7187499999999983
 40
0.7187499999999983
 40
0.7499999999999983
 40
0.7499999999999983
 40
0.7812499999999984
 40
0.7812499999999984
 40
0.8124999999999984
 40
0.8124999999999984
 40
0.8749999999999983
 40
0.8749999999999983
 40
0.9062499999999986
 40
0.9062499999999986
 40
0.937499999999999
 40
0.937499999999999
 40
0.9687499999999996
 40
0.9687499999999996
 40
1.0
 40
1.0
 40
1.03125
 40
1.03125
 10
3.993120422075272
 20
2.986736785027694
 30
0.0
 10
4.008104540599346
 20
2.986736785027693
 30
0.0
 10
4.015366729452298
 20
2.98587452868794
 30
0.0
 10
4.029480724117575
 20
2.982625315576725
 30
0.0
 10
4.036199905140395
 20
2.980249249154165
 30
0.0
 10
4.048548118714946
 20
2.974490296263078
 30
0.0
 10
4.054270322706723
 20
2.971065079425219
 30
0.0
 10
4.064493936164768
 20
2.963684067815651
 30
0.0
 10
4.069074366036628
 20
2.959691816149364
 30
0.0
 10
4.081446607326366
 20
2.946992866095629
 30
0.0
 10
4.087552909471672
 20
2.937954907690476
 30
0.0
 10
4.09400549556565
 20
2.924013800353614
 30
0.0
 10
4.09569223218439
 20
2.919279223091432
 30
0.0
 10
4.098062637853809
 20
2.909932457390789
 30
0.0
 10
4.098764325954969
 20
2.905286645386759
 30
0.0
 10
4.09918084187466
 20
2.896053069370057
 30
0.0
 10
4.098887009804185
 20
2.891427463801345
 30
0.0
 10
4.097243830217703
 20
2.882446093855364
 30
0.0
 10
4.095906706436072
 20
2.878096756841769
 30
0.0
 10
4.092145816793183
 20
2.869676455978555
 30
0.0
 10
4.089723702985738
 20
2.865605307797348
 30
0.0
 10
4.083624274157394
 20
2.857753731501456
 30
0.0
 10
4.079965694734162
 20
2.854018310651755
 30
0.0
 10
4.071543250449216
 20
2.84716665999475
 30
0.0
 10
4.066707506866438
 20
2.843989030405479
 30
0.0
 10
4.055882423559214
 20
2.838343653675428
 30
0.0
 10
4.050012477889698
 20
2.835926630586985
 30
0.0
 10
4.037293777018835
 20
2.831913903108525
 30
0.0
 10
4.030329306371305
 20
2.830308893932292
 30
0.0
 10
4.016125299759485
 20
2.828170330679091
 30
0.0
 10
4.00882486199885
 20
2.827602093673618
 30
0.0
 10
3.993848591616826
 20
2.82753224963781
 30
0.0
 10
3.986520794884402
 20
2.82803117397295
 30
0.0
 10
3.972169753524798
 20
2.830055122044553
 30
0.0
 10
3.965197026069263
 20
2.831591431483221
 30
0.0
 10
3.952289424548675
 20
2.835522798555044
 30
0.0
 10
3.9462039007691
 20
2.837965082912379
 30
0.0
 10
3.935303163935838
 20
2.843518605056196
 30
0.0
 10
3.930409244678931
 20
2.846654103170663
 30
0.0
 10
3.921767086846186
 20
2.853536547640265
 30
0.0
 10
3.91809561661464
 20
2.857215116897722
 30
0.0
 10
3.911886476713621
 20
2.865024081778499
 30
0.0
 10
3.90934848717567
 20
2.869178340262237
 30
0.0
 10
3.905458779085022
 20
2.87768782273423
 30
0.0
 10
3.904080503914066
 20
2.882069319040129
 30
0.0
 10
3.902372330850942
 20
2.891085920452402
 30
0.0
 10
3.902052887961687
 20
2.89571626104987
 30
0.0
 10
3.902424436653652
 20
2.904979642078892
 30
0.0
 10
3.903108029844582
 20
2.909644299409195
 30
0.0
 10
3.905453510637222
 20
2.919036849050755
 30
0.0
 10
3.907131943391068
 20
2.923789535714549
 30
0.0
 10
3.913539832772298
 20
2.937737108797978
 30
0.0
 10
3.919601062882518
 20
2.946771015512581
 30
0.0
 10
3.931985967809624
 20
2.959542173596239
 30
0.0
 10
3.936574031956211
 20
2.963557272728685
 30
0.0
 10
3.946820154831033
 20
2.970981061560694
 30
0.0
 10
3.9525568167813
 20
2.974424816147896
 30
0.0
 10
3.964911914314964
 20
2.980205805786897
 30
0.0
 10
3.971616929844792
 20
2.982588888544785
 30
0.0
 10
3.985803689889988
 20
2.985869000502895
 30
0.0
 10
3.993120422075272
 20
2.986736785027694
 30
0.0
 10
4.008104540599346
 20
2.986736785027693
 30
0.0
  0
LINE
  5
EE
330
1F
100
AcDbEntity
  8
0
  6
CONTINUOUS
 62
     7
100
AcDbLine
 10
3.7807962084
 20
3.738993247
 30
0.0
 11
3.7807962084
 21
2.6563160817
 31
0.0
  0
LINE
  5
EF
330
1F
100
AcDbEntity
  8
0
  6
CONTINUOUS
 62
     7
100
AcDbLine
 10
4.197462875
 20
3.738993247
 30
0.0
 11
3.7807962084
 21
3.738993247
 31
0.0
  0
LINE
  5
F0
330
1F
100
AcDbEntity
  8
0
  6
CONTINUOUS
 62
     7
100
AcDbLine
 10
4.197462875
 20
3.7783633258
 30
0.0
 11
4.197462875
 21
4.8610404911
 31
0.0
  0
LINE
  5
F1
330
1F
100
AcDbEntity
  8
0
  6
CONTINUOUS
 62
     7
100
AcDbLine
 10
4.197462875
 20
2.6563160817
 30
0.0
 11
4.197462875
 21
3.738993247
 31
0.0
  0
LINE
  5
F2
330
1F
100
AcDbEntity
  8
0
  6
CONTINUOUS
 62
     7
100
AcDbLine
 10
4.197462875
 20
3.7783633258
 30
0.0
 11
3.7807962084
 21
3.7783633258
 31
0.0
  0
LINE
  5
F3
330
1F
100
AcDbEntity
  8
0
  6
CONTINUOUS
 62
     7
100
AcDbLine
 10
3.7807962084
 20
4.8610404911
 30
0.0
 11
3.7807962084
 21
3.7783633258
 31
0.0
  0
LINE
  5
F4
330
1F
100
AcDbEntity
  8
0
  6
CONTINUOUS
 62
     7
100
AcDbLine
 10
3.7283027701
 20
4.7499426761
 30
0.0
 11
3.7807962084
 21
4.7499426761
 31
0.0
  0
LINE
  5
F5
330
1F
100
AcDbEntity
  8
0
  6
CONTINUOUS
 62
     7
100
AcDbLine
 10
3.7283027701
 20
2.6563160817
 30
0.0
 11
3.7283027701
 21
4.8610404911
 31
0.0
  0
LINE
  5
F6
330
1F
100
AcDbEntity
  8
0
  6
CONTINUOUS
 62
     7
100
AcDbLine
 10
3.7807962084
 20
2.7674138967
 30
0.0
 11
3.7283027701
 21
2.7674138967
 31
0.0
  0
LINE
  5
F7
330
1F
100
AcDbEntity
  8
0
  6
CONTINUOUS
 62
     7
100
AcDbLine
 10
4.212462875
 20
3.738993247
 30
0.0
 11
4.212462875
 21
2.6713160817
 31
0.0
  0
LINE
  5
F8
330
1F
100
AcDbEntity
  8
0
  6
CONTINUOUS
 62
     7
100
AcDbLine
 10
4.212462875
 20
4.8460404911
 30
0.0
 11
4.212462875
 21
3.7783633258
 31
0.0
  0
LINE
  5
F9
330
1F
100
AcDbEntity
  8
0
  6
CONTINUOUS
 62
     7
100
AcDbLine
 10
4.197462875
 20
3.7783633258
 30
0.0
 11
4.212462875
 21
3.7783633258
 31
0.0
  0
LINE
  5
FA
330
1F
100
AcDbEntity
  8
0
  6
CONTINUOUS
 62
     7
100
AcDbLine
 10
4.197462875
 20
3.738993247
 30
0.0
 11
4.212462875
 21
3.738993247
 31
0.0
  0
SPLINE
  5
FB
330
1F
100
AcDbEntity
  8
0
  6
CONTINUOUS
 62
     7
100
AcDbSpline
210
0.0
220
0.0
230
1.0
 70
     8
 71
     3
 72
     8
 73
     4
 74
     0
 42
0.00000001
 43
0.00000001
 40
0.0
 40
0.0
 40
0.0
 40
0.0
 40
1.0
 40
1.0
 40
1.0
 40
1.0
 10
3.879361029990096
 20
3.778363325762126
 30
0.0
 10
3.880135628494193
 20
3.765239966182073
 30
0.0
 10
3.880135628494193
 20
3.752116606602021
 30
0.0
 10
3.879361029990096
 20
3.738993247021968
 30
0.0
  0
LINE
  5
FC
330
1F
100
AcDbEntity
  8
0
  6
CONTINUOUS
 62
     7
100
AcDbLine
 10
3.7807962084
 20
3.7783633258
 30
0.0
 11
3.7807962084
 21
3.738993247
 31
0.0
  0
LINE
  5
FD
330
1F
100
AcDbEntity
  8
0
  6
CONTINUOUS
 62
     7
100
AcDbLine
 10
4.212462875
 20
3.7783633258
 30
0.0
 11
4.212462875
 21
3.738993247
 31
0.0
  0
LINE
  5
FE
330
1F
100
AcDbEntity
  8
0
  6
CONTINUOUS
 62
     7
100
AcDbLine
 10
4.0006124813
 20
4.5165523021
 30
0.0
 11
4.1245845788
 21
4.5165523021
 31
0.0
  0
LINE
  5
FF
330
1F
100
AcDbEntity
  8
0
  6
CONTINUOUS
 62
     7
100
AcDbLine
 10
3.8755743447
 20
4.5165523021
 30
0.0
 11
4.0006124813
 21
4.5165523021
 31
0.0
  0
CIRCLE
  5
100
330
1F
100
AcDbEntity
  8
0
  6
CONTINUOUS
 62
     7
100
AcDbCircle
 10
2.6526597254
 20
4.4472148096
 30
0.0
 40
0.0787401574803148
  0
LINE
  5
101
330
1F
100
AcDbEntity
  8
0
  6
CONTINUOUS
 62
     7
100
AcDbLine
 10
2.4558093317
 20
2.6563160817
 30
0.0
 11
2.4558093317
 21
4.8608647178
 31
0.0
  0
LINE
  5
102
330
1F
100
AcDbEntity
  8
0
  6
CONTINUOUS
 62
     7
100
AcDbLine
 10
2.4408093317
 20
4.8458622927
 30
0.0
 11
2.4408093317
 21
2.6713160817
 31
0.0
  0
LINE
  5
103
330
1F
100
AcDbEntity
  8
0
  6
CONTINUOUS
 62
     7
100
AcDbLine
 10
2.4558093317
 20
4.8608647178
 30
0.0
 11
2.4408093317
 21
4.8458622927
 31
0.0
  0
LINE
  5
104
330
1F
100
AcDbEntity
  8
0
  6
CONTINUOUS
 62
     7
100
AcDbLine
 10
3.2282109065
 20
4.8610404911
 30
0.0
 11
3.2282109065
 21
2.6563160817
 31
0.0
  0
SPLINE
  5
105
330
1F
100
AcDbEntity
  8
0
  6
CONTINUOUS
 62
     7
100
AcDbSpline
210
0.0
220
0.0
230
1.0
 70
     8
 71
     3
 72
    66
 73
    62
 74
     0
 42
0.00000001
 43
0.00000001
 40
-0.0312499999999996
 40
-0.0312499999999996
 40
0.0
 40
0.0
 40
0.0312500000000002
 40
0.0312500000000002
 40
0.0625000000000004
 40
0.0625000000000004
 40
0.0937500000000007
 40
0.0937500000000007
 40
0.1250000000000009
 40
0.1250000000000009
 40
0.1875000000000017
 40
0.1875000000000017
 40
0.2187500000000018
 40
0.2187500000000018
 40
0.2500000000000019
 40
0.2500000000000019
 40
0.281250000000002
 40
0.281250000000002
 40
0.3125000000000021
 40
0.3125000000000021
 40
0.3437500000000022
 40
0.3437500000000022
 40
0.3750000000000023
 40
0.3750000000000023
 40
0.4062500000000024
 40
0.4062500000000024
 40
0.4375000000000024
 40
0.4375000000000024
 40
0.4687500000000023
 40
0.4687500000000023
 40
0.5000000000000022
 40
0.5000000000000022
 40
0.5312500000000022
 40
0.5312500000000022
 40
0.5625000000000022
 40
0.5625000000000022
 40
0.5937500000000022
 40
0.5937500000000022
 40
0.6250000000000022
 40
0.6250000000000022
 40
0.6562500000000022
 40
0.6562500000000022
 40
0.6875000000000022
 40
0.6875000000000022
 40
0.7187500000000022
 40
0.7187500000000022
 40
0.7500000000000022
 40
0.7500000000000022
 40
0.7812500000000022
 40
0.7812500000000022
 40
0.8125000000000022
 40
0.8125000000000022
 40
0.8750000000000018
 40
0.8750000000000018
 40
0.9062500000000013
 40
0.9062500000000013
 40
0.9375000000000009
 40
0.9375000000000009
 40
0.9687500000000004
 40
0.9687500000000004
 40
1.0
 40
1.0
 40
1.03125
 40
1.03125
 10
2.660151784693833
 20
4.545640006475186
 30
0.0
 10
2.645167666169759
 20
4.545640006475186
 30
0.0
 10
2.637905477316807
 20
4.544796594120721
 30
0.0
 10
2.62379148265153
 20
4.541589154982141
 30
0.0
 10
2.61707230162871
 20
4.539234066001538
 30
0.0
 10
2.604724088054159
 20
4.533448114943963
 30
0.0
 10
2.599001884062382
 20
4.529973278330439
 30
0.0
 10
2.588778270604337
 20
4.522363248145203
 30
0.0
 10
2.584197840732476
 20
4.518192110058956
 30
0.0
 10
2.571825599442739
 20
4.504682307260295
 30
0.0
 10
2.565719297297433
 20
4.494759139974958
 30
0.0
 10
2.559266711203454
 20
4.47880847628101
 30
0.0
 10
2.557579974584716
 20
4.473286175010411
 30
0.0
 10
2.555209568915297
 20
4.462159444418695
 30
0.0
 10
2.554507880814136
 20
4.45651724297178
 30
0.0
 10
2.554091364894445
 20
4.445070475461644
 30
0.0
 10
2.55438519696492
 20
4.439216506324176
 30
0.0
 10
2.556028376551402
 20
4.427612814455143
 30
0.0
 10
2.557365500333033
 20
4.42187389946815
 30
0.0
 10
2.561126389975922
 20
4.410543300723969
 30
0.0
 10
2.563548503783367
 20
4.404951214993593
 30
0.0
 10
2.569647932611712
 20
4.393960105535659
 30
0.0
 10
2.573306512034943
 20
4.388622151562478
 30
0.0
 10
2.581728956319889
 20
4.378666592664707
 30
0.0
 10
2.586564699902667
 20
4.373960276243546
 30
0.0
 10
2.597389783209891
 20
4.365483465897996
 30
0.0
 10
2.603259728879407
 20
4.361791376516684
 30
0.0
 10
2.61597842975027
 20
4.355606921697627
 30
0.0
 10
2.6229429003978
 20
4.353099564698595
 30
0.0
 10
2.637146907009619
 20
4.349746242988056
 30
0.0
 10
2.644447344770255
 20
4.348847379121887
 30
0.0
 10
2.65942361515228
 20
4.348737175739108
 30
0.0
 10
2.666751411884703
 20
4.349526768040228
 30
0.0
 10
2.681102453244307
 20
4.35270269225195
 30
0.0
 10
2.688075180699842
 20
4.355105532759227
 30
0.0
 10
2.70098278222043
 20
4.361172636598172
 30
0.0
 10
2.707068306000005
 20
4.364908254701874
 30
0.0
 10
2.717969042833266
 20
4.373259717283016
 30
0.0
 10
2.722862962090174
 20
4.377912691558934
 30
0.0
 10
2.731505119922919
 20
4.387930058016426
 30
0.0
 10
2.735176590154464
 20
4.393195279325301
 30
0.0
 10
2.741385730055484
 20
4.404146971033168
 30
0.0
 10
2.743923719593435
 20
4.409864321866356
 30
0.0
 10
2.747813427684084
 20
4.4213314459753
 30
0.0
 10
2.749191702855039
 20
4.427119364047857
 30
0.0
 10
2.750899875918163
 20
4.438781398061672
 30
0.0
 10
2.751219318807418
 20
4.44464727807948
 30
0.0
 10
2.750847770115453
 20
4.456141933786824
 30
0.0
 10
2.750164176924522
 20
4.461812041007716
 30
0.0
 10
2.747818696131883
 20
4.473001773778101
 30
0.0
 10
2.746140263378037
 20
4.478548517680982
 30
0.0
 10
2.739732373996808
 20
4.494516444774132
 30
0.0
 10
2.733671143886587
 20
4.504442070961836
 30
0.0
 10
2.721286238959482
 20
4.518034958681133
 30
0.0
 10
2.716698174812894
 20
4.522231451989033
 30
0.0
 10
2.706452051938071
 20
4.529887690545817
 30
0.0
 10
2.700715389987804
 20
4.533381917220435
 30
0.0
 10
2.68836029245414
 20
4.539190821941058
 30
0.0
 10
2.681655276924313
 20
4.541553109133839
 30
0.0
 10
2.667468516879116
 20
4.544791223047728
 30
0.0
 10
2.660151784693833
 20
4.545640006475186
 30
0.0
 10
2.645167666169759
 20
4.545640006475186
 30
0.0
  0
LINE
  5
106
330
1F
100
AcDbEntity
  8
0
  6
CONTINUOUS
 62
     7
100
AcDbLine
 10
2.4558093317
 20
4.8608647178
 30
0.0
 11
2.8724759984
 21
4.8608647178
 31
0.0
  0
LINE
  5
107
330
1F
100
AcDbEntity
  8
0
  6
CONTINUOUS
 62
     7
100
AcDbLine
 10
2.8724759984
 20
3.2763948218
 30
0.0
 11
2.9249694367
 21
3.2763948218
 31
0.0
  0
LINE
  5
108
330
1F
100
AcDbEntity
  8
0
  6
CONTINUOUS
 62
     7
100
AcDbLine
 10
2.8724759984
 20
4.8608647178
 30
0.0
 11
2.8724759984
 21
3.2763948218
 31
0.0
  0
LINE
  5
109
330
1F
100
AcDbEntity
  8
0
  6
CONTINUOUS
 62
     7
100
AcDbLine
 10
2.9249694367
 20
3.2763948218
 30
0.0
 11
2.9249694367
 21
4.8610404911
 31
0.0
  0
LINE
  5
10A
330
1F
100
AcDbEntity
  8
0
  6
CONTINUOUS
 62
     7
100
AcDbLine
 10
3.3660061821
 20
3.9065721752
 30
0.0
 11
3.2872660246
 21
3.9065721752
 31
0.0
  0
LINE
  5
10B
330
1F
100
AcDbEntity
  8
0
  6
CONTINUOUS
 62
     7
100
AcDbLine
 10
3.3660061821
 20
3.6107843976
 30
0.0
 11
3.2872660246
 21
3.6107843976
 31
0.0
  0
LINE
  5
10C
330
1F
100
AcDbEntity
  8
0
  6
CONTINUOUS
 62
     7
100
AcDbLine
 10
3.2872660246
 20
3.9065721752
 30
0.0
 11
3.2872660246
 21
3.6107843976
 31
0.0
  0
LINE
  5
10D
330
1F
100
AcDbEntity
  8
0
  6
CONTINUOUS
 62
     7
100
AcDbLine
 10
3.3660061821
 20
3.9065721752
 30
0.0
 11
3.3660061821
 21
3.6107843976
 31
0.0
  0
LINE
  5
10E
330
1F
100
AcDbEntity
  8
0
  6
CONTINUOUS
 62
     7
100
AcDbLine
 10
3.3660061821
 20
2.7594064449
 30
0.0
 11
3.2872660246
 21
2.7594064449
 31
0.0
  0
LINE
  5
10F
330
1F
100
AcDbEntity
  8
0
  6
CONTINUOUS
 62
     7
100
AcDbLine
 10
3.2872660246
 20
3.6107843976
 30
0.0
 11
3.2872660246
 21
2.7594064449
 31
0.0
  0
LINE
  5
110
330
1F
100
AcDbEntity
  8
0
  6
CONTINUOUS
 62
     7
100
AcDbLine
 10
3.3660061821
 20
3.6107843976
 30
0.0
 11
3.3660061821
 21
2.7594064449
 31
0.0
  0
LINE
  5
111
330
1F
100
AcDbEntity
  8
0
  6
CONTINUOUS
 62
     7
100
AcDbLine
 10
3.3660061821
 20
4.7579501279
 30
0.0
 11
3.2872660246
 21
4.7579501279
 31
0.0
  0
LINE
  5
112
330
1F
100
AcDbEntity
  8
0
  6
CONTINUOUS
 62
     7
100
AcDbLine
 10
3.2872660246
 20
4.7579501279
 30
0.0
 11
3.2872660246
 21
3.9065721752
 31
0.0
  0
LINE
  5
113
330
1F
100
AcDbEntity
  8
0
  6
CONTINUOUS
 62
     7
100
AcDbLine
 10
3.3660061821
 20
4.7579501279
 30
0.0
 11
3.3660061821
 21
3.9065721752
 31
0.0
  0
LINE
  5
114
330
1F
100
AcDbEntity
  8
0
  6
CONTINUOUS
 62
     7
100
AcDbLine
 10
3.2872660246
 20
2.7594064449
 30
0.0
 11
3.2872660246
 21
2.6981467903
 31
0.0
  0
LINE
  5
115
330
1F
100
AcDbEntity
  8
0
  6
CONTINUOUS
 62
     7
100
AcDbLine
 10
3.3660061821
 20
2.7594064449
 30
0.0
 11
3.3660061821
 21
2.6981467903
 31
0.0
  0
LINE
  5
116
330
1F
100
AcDbEntity
  8
0
  6
CONTINUOUS
 62
     7
100
AcDbLine
 10
3.2872660246
 20
4.8192097825
 30
0.0
 11
3.2872660246
 21
4.7579501279
 31
0.0
  0
LINE
  5
117
330
1F
100
AcDbEntity
  8
0
  6
CONTINUOUS
 62
     7
100
AcDbLine
 10
3.3660061821
 20
4.8192097825
 30
0.0
 11
3.3660061821
 21
4.7579501279
 31
0.0
  0
LINE
  5
118
330
1F
100
AcDbEntity
  8
0
  6
CONTINUOUS
 62
     8
100
AcDbLine
 10
4.0006124813
 20
4.4968672628
 30
0.0
 11
3.8952271313
 21
4.4968672628
 31
0.0
  0
LINE
  5
119
330
1F
100
AcDbEntity
  8
0
  6
CONTINUOUS
 62
     8
100
AcDbLine
 10
4.1058780765
 20
4.4968672628
 30
0.0
 11
4.0006124813
 21
4.4968672628
 31
0.0
  0
LINE
  5
11A
330
1F
100
AcDbEntity
  8
0
  6
HIDDEN
 62
     7
100
AcDbLine
 10
4.197462875
 20
3.7783633258
 30
0.0
 11
4.197462875
 21
3.738993247
 31
0.0
  0
LINE
  5
11B
330
1F
100
AcDbEntity
  8
0
  6
HIDDEN
 62
     7
100
AcDbLine
 10
4.0006124813
 20
4.3197019084
 30
0.0
 11
4.167935316
 21
4.3197019084
 31
0.0
  0
LINE
  5
11C
330
1F
100
AcDbEntity
  8
0
  6
HIDDEN
 62
     7
100
AcDbLine
 10
3.8332896467
 20
4.3197019084
 30
0.0
 11
4.0006124813
 21
4.3197019084
 31
0.0
  0
LINE
  5
11D
330
1F
100
AcDbEntity
  8
0
  6
HIDDEN
 62
     7
100
AcDbLine
 10
4.1245845788
 20
4.5165523021
 30
0.0
 11
4.1482502766
 21
4.5165523021
 31
0.0
  0
LINE
  5
11E
330
1F
100
AcDbEntity
  8
0
  6
HIDDEN
 62
     7
100
AcDbLine
 10
3.8529746861
 20
4.5165523021
 30
0.0
 11
3.8755743447
 21
4.5165523021
 31
0.0
  0
LINE
  5
11F
330
1F
100
AcDbEntity
  8
0
  6
HIDDEN
 62
     7
100
AcDbLine
 10
4.0989578552
 20
3.0893869478
 30
0.0
 11
3.9022671075
 21
3.0893869478
 31
0.0
  0
LINE
  5
120
330
1F
100
AcDbEntity
  8
0
  6
HIDDEN
 62
     7
100
AcDbLine
 10
4.0793526388
 20
3.0697019084
 30
0.0
 11
3.9218723239
 21
3.0697019084
 31
0.0
  0
LINE
  5
121
330
1F
100
AcDbEntity
  8
0
  6
HIDDEN
 62
     7
100
AcDbLine
 10
4.0006124813
 20
4.3590719872
 30
0.0
 11
4.0793526388
 21
4.3590719872
 31
0.0
  0
LINE
  5
122
330
1F
100
AcDbEntity
  8
0
  6
HIDDEN
 62
     7
100
AcDbLine
 10
4.0006124813
 20
4.3590719872
 30
0.0
 11
4.0006124813
 21
4.5165523021
 31
0.0
  0
LINE
  5
123
330
1F
100
AcDbEntity
  8
0
  6
HIDDEN
 62
     7
100
AcDbLine
 10
3.9218723239
 20
4.3590719872
 30
0.0
 11
4.0006124813
 21
4.3590719872
 31
0.0
  0
LINE
  5
124
330
1F
100
AcDbEntity
  8
0
  6
HIDDEN
 62
     7
100
AcDbLine
 10
3.9218723239
 20
4.3590719872
 30
0.0
 11
3.9218723239
 21
4.5165523021
 31
0.0
  0
LINE
  5
125
330
1F
100
AcDbEntity
  8
0
  6
HIDDEN
 62
     7
100
AcDbLine
 10
4.0793526388
 20
4.3590719872
 30
0.0
 11
4.0793526388
 21
4.5165523021
 31
0.0
  0
LINE
  5
126
330
1F
100
AcDbEntity
  8
0
  6
HIDDEN
 62
     7
100
AcDbLine
 10
2.7510849223
 20
4.4472148096
 30
0.0
 11
2.7510177658
 21
4.4508500901
 31
0.0
  0
ARC
  5
127
330
1F
100
AcDbEntity
  8
0
  6
HIDDEN
 62
     7
100
AcDbCircle
 10
2.6526597254
 20
4.4472148096
 30
0.0
 40
0.098425196850394
100
AcDbArc
 50
73.4546695322
 51
90.6330060746
  0
CIRCLE
  5
128
330
1F
100
AcDbEntity
  8
0
  6
HIDDEN
 62
     7
100
AcDbCircle
 10
2.6526597254
 20
4.4472148096
 30
0.0
 40
0.1673228346456694
  0
LINE
  5
129
330
1F
100
AcDbEntity
  8
0
  6
HIDDEN
 62
     7
100
AcDbLine
 10
2.573919568
 20
4.4017541585
 30
0.0
 11
2.6526597254
 21
4.3562935074
 31
0.0
  0
LINE
  5
12A
330
1F
100
AcDbEntity
  8
0
  6
HIDDEN
 62
     7
100
AcDbLine
 10
2.6526597254
 20
4.3562935074
 30
0.0
 11
2.7313998829
 21
4.4017541585
 31
0.0
  0
LINE
  5
12B
330
1F
100
AcDbEntity
  8
0
  6
HIDDEN
 62
     7
100
AcDbLine
 10
2.7313998829
 20
4.4017541585
 30
0.0
 11
2.7313998829
 21
4.4926754607
 31
0.0
  0
LINE
  5
12C
330
1F
100
AcDbEntity
  8
0
  6
HIDDEN
 62
     7
100
AcDbLine
 10
2.573919568
 20
4.4926754607
 30
0.0
 11
2.573919568
 21
4.4017541585
 31
0.0
  0
LINE
  5
12D
330
1F
100
AcDbEntity
  8
0
  6
HIDDEN
 62
     7
100
AcDbLine
 10
2.6526597254
 20
4.5381361119
 30
0.0
 11
2.573919568
 21
4.4926754607
 31
0.0
  0
LINE
  5
12E
330
1F
100
AcDbEntity
  8
0
  6
HIDDEN
 62
     7
100
AcDbLine
 10
2.7313998829
 20
4.4926754607
 30
0.0
 11
2.6526597254
 21
4.5381361119
 31
0.0
  0
CIRCLE
  5
12F
330
1F
100
AcDbEntity
  8
0
  6
HIDDEN
 62
     7
100
AcDbCircle
 10
2.6526597254
 20
4.4472148096
 30
0.0
 40
0.1476377952755907
  0
LINE
  5
130
330
1F
100
AcDbEntity
  8
0
  6
HIDDEN
 62
     7
100
AcDbLine
 10
2.4558093317
 20
3.4837916714
 30
0.0
 11
2.7739111768
 21
3.4837916714
 31
0.0
  0
POLYLINE
  5
131
330
1F
100
AcDbEntity
  8
0
  6
HIDDEN
 62
     7
100
AcDb2dPolyline
 66
     1
 10
0.0
 20
0.0
 30
0.0
  0
VERTEX
  5
2AB
330
131
100
AcDbEntity
  8
0
  6
HIDDEN
 62
     7
100
AcDbVertex
100
AcDb2dVertex
 10
2.7739111768
 20
3.4837916714
 30
0.0
  0
VERTEX
  5
2AC
330
131
100
AcDbEntity
  8
0
  6
HIDDEN
 62
     7
100
AcDbVertex
100
AcDb2dVertex
 10
2.7739111768
 20
3.4837916714
 30
0.0
  0
SEQEND
  5
2AD
330
131
100
AcDbEntity
  8
0
  6
HIDDEN
 62
     7
  0
LINE
  5
132
330
1F
100
AcDbEntity
  8
0
  6
HIDDEN
 62
     7
100
AcDbLine
 10
2.8724759984
 20
4.0335649014
 30
0.0
 11
2.4558093317
 21
4.0335649014
 31
0.0
  0
LINE
  5
133
330
1F
100
AcDbEntity
  8
0
  6
HIDDEN
 62
     7
100
AcDbLine
 10
3.3660061821
 20
2.7594064449
 30
0.0
 11
3.2872660246
 21
2.7594064449
 31
0.0
  0
LINE
  5
134
330
1F
100
AcDbEntity
  8
0
  6
HIDDEN
 62
     7
100
AcDbLine
 10
3.3660061821
 20
4.7579501279
 30
0.0
 11
3.2872660246
 21
4.7579501279
 31
0.0
  0
ARC
  5
135
330
1F
100
AcDbEntity
  8
0
  6
HIDDEN
 62
     7
100
AcDbCircle
 10
2.4408093317
 20
3.7583445295
 30
0.0
 40
0.4316666666666658
100
AcDbArc
 50
270.0
 51
320.5035962223
  0
LINE
  5
136
330
1F
100
AcDbEntity
  8
0
  6
HIDDEN
 62
     7
100
AcDbLine
 10
2.4558093317
 20
3.4837916714
 30
0.0
 11
2.4408093317
 21
3.4687552489
 31
0.0
  0
LINE
  5
137
330
1F
100
AcDbEntity
  8
0
  6
HIDDEN
 62
     7
100
AcDbLine
 10
2.4408093317
 20
4.0486013239
 30
0.0
 11
2.4558093317
 21
4.0335649014
 31
0.0
  0
LINE
  5
138
330
1F
100
AcDbEntity
  8
0
  6
HIDDEN
 62
     7
100
AcDbLine
 10
3.3660061821
 20
3.9065721752
 30
0.0
 11
3.2872660246
 21
3.9065721752
 31
0.0
  0
LINE
  5
139
330
1F
100
AcDbEntity
  8
0
  6
HIDDEN
 62
     7
100
AcDbLine
 10
3.3660061821
 20
3.6107843976
 30
0.0
 11
3.2872660246
 21
3.6107843976
 31
0.0
  0
LINE
  5
13A
330
1F
100
AcDbEntity
  8
0
  6
HIDDEN
 62
     7
100
AcDbLine
 10
4.167935316
 20
4.3197019084
 30
0.0
 11
4.167935316
 21
4.6193999976
 31
0.0
  0
LINE
  5
13B
330
1F
100
AcDbEntity
  8
0
  6
HIDDEN
 62
     7
100
AcDbLine
 10
3.8332896467
 20
4.6194013528
 30
0.0
 11
3.8332896467
 21
4.3197019084
 31
0.0
  0
LINE
  5
13C
330
1F
100
AcDbEntity
  8
0
  6
HIDDEN
 62
     7
100
AcDbLine
 10
3.9021872845
 20
4.3197019084
 30
0.0
 11
3.9021872845
 21
3.7783633258
 31
0.0
  0
LINE
  5
13D
330
1F
100
AcDbEntity
  8
0
  6
HIDDEN
 62
     7
100
AcDbLine
 10
4.0990376782
 20
3.7783633258
 30
0.0
 11
4.0990376782
 21
4.3197019084
 31
0.0
  0
LINE
  5
13E
330
1F
100
AcDbEntity
  8
0
  6
HIDDEN
 62
     7
100
AcDbLine
 10
3.9021872845
 20
3.738993247
 30
0.0
 11
3.9021872845
 21
2.8978796787
 31
0.0
  0
LINE
  5
13F
330
1F
100
AcDbEntity
  8
0
  6
HIDDEN
 62
     7
100
AcDbLine
 10
4.0990376782
 20
2.8978845272
 30
0.0
 11
4.0990376782
 21
3.738993247
 31
0.0
  0
LINE
  5
140
330
1F
100
AcDbEntity
  8
0
  6
HIDDEN
 62
     7
100
AcDbLine
 10
4.212462875
 20
4.0492688376
 30
0.0
 11
4.197462875
 21
4.0342688376
 31
0.0
  0
LINE
  5
141
330
1F
100
AcDbEntity
  8
0
  6
HIDDEN
 62
     7
100
AcDbLine
 10
4.197462875
 20
3.4830877352
 30
0.0
 11
4.212462875
 21
3.4680877352
 31
0.0
  0
LINE
  5
142
330
1F
100
AcDbEntity
  8
0
  6
HIDDEN
 62
     7
100
AcDbLine
 10
3.7283027701
 20
4.0342688376
 30
0.0
 11
3.4250613002
 21
4.0342688376
 31
0.0
  0
LINE
  5
143
330
1F
100
AcDbEntity
  8
0
  6
HIDDEN
 62
     7
100
AcDbLine
 10
3.4250613002
 20
3.4830877352
 30
0.0
 11
3.7283027701
 21
3.4830877352
 31
0.0
  0
LINE
  5
144
330
1F
100
AcDbEntity
  8
0
  6
HIDDEN
 62
     7
100
AcDbLine
 10
4.197462875
 20
4.0342688376
 30
0.0
 11
3.7807962084
 21
4.0342688376
 31
0.0
  0
LINE
  5
145
330
1F
100
AcDbEntity
  8
0
  6
HIDDEN
 62
     7
100
AcDbLine
 10
3.7807962084
 20
3.4830877352
 30
0.0
 11
4.197462875
 21
3.4830877352
 31
0.0
  0
ARC
  5
146
330
1F
100
AcDbEntity
  8
0
  6
HIDDEN
 62
     7
100
AcDbCircle
 10
3.8529746861
 20
4.4968672628
 30
0.0
 40
0.0196850393700787
100
AcDbArc
 50
90.0
 51
180.0
  0
ARC
  5
147
330
1F
100
AcDbEntity
  8
0
  6
HIDDEN
 62
     7
100
AcDbCircle
 10
4.1482502766
 20
4.4968672628
 30
0.0
 40
0.0196850393700787
100
AcDbArc
 50
0.0
 51
90.0
  0
LINE
  5
148
330
1F
100
AcDbEntity
  8
0
  6
HIDDEN
 62
     7
100
AcDbLine
 10
4.167935316
 20
4.3197019084
 30
0.0
 11
4.167935316
 21
4.4968672628
 31
0.0
  0
LINE
  5
149
330
1F
100
AcDbEntity
  8
0
  6
HIDDEN
 62
     7
100
AcDbLine
 10
3.8332896467
 20
4.4968672628
 30
0.0
 11
3.8332896467
 21
4.3197019084
 31
0.0
  0
LINE
  5
14A
330
1F
100
AcDbEntity
  8
0
  6
HIDDEN
 62
     7
100
AcDbLine
 10
3.9021872845
 20
4.3197019084
 30
0.0
 11
3.9021872845
 21
3.7783633258
 31
0.0
  0
LINE
  5
14B
330
1F
100
AcDbEntity
  8
0
  6
HIDDEN
 62
     7
100
AcDbLine
 10
3.9021872845
 20
3.738993247
 30
0.0
 11
3.9021872845
 21
3.0893869478
 31
0.0
  0
LINE
  5
14C
330
1F
100
AcDbEntity
  8
0
  6
HIDDEN
 62
     7
100
AcDbLine
 10
4.0990376782
 20
3.0893869478
 30
0.0
 11
4.0990376782
 21
3.738993247
 31
0.0
  0
LINE
  5
14D
330
1F
100
AcDbEntity
  8
0
  6
HIDDEN
 62
     7
100
AcDbLine
 10
4.0990376782
 20
3.7783633258
 30
0.0
 11
4.0990376782
 21
4.3197019084
 31
0.0
  0
ARC
  5
14E
330
1F
100
AcDbEntity
  8
0
  6
HIDDEN
 62
     7
100
AcDbCircle
 10
4.0793526388
 20
3.0893869478
 30
0.0
 40
0.0196850393700787
100
AcDbArc
 50
270.0
 51
0.0
  0
ARC
  5
14F
330
1F
100
AcDbEntity
  8
0
  6
HIDDEN
 62
     7
100
AcDbCircle
 10
3.9218723239
 20
3.0893869478
 30
0.0
 40
0.0196850393700787
100
AcDbArc
 50
180.0
 51
270.0
  0
LINE
  5
150
330
1F
100
AcDbEntity
  8
0
  6
HIDDEN
 62
     7
100
AcDbLine
 10
3.3660061821
 20
4.1130089951
 30
0.0
 11
3.2872660246
 21
4.1130089951
 31
0.0
  0
LINE
  5
151
330
1F
100
AcDbEntity
  8
0
  6
HIDDEN
 62
     7
100
AcDbLine
 10
3.2872660246
 20
3.4043475777
 30
0.0
 11
3.3660061821
 21
3.4043475777
 31
0.0
  0
LINE
  5
152
330
1F
100
AcDbEntity
  8
0
  6
HIDDEN
 62
     7
100
AcDbLine
 10
2.9249694367
 20
3.4830877352
 30
0.0
 11
3.2282109065
 21
3.4830877352
 31
0.0
  0
LINE
  5
153
330
1F
100
AcDbEntity
  8
0
  6
HIDDEN
 62
     7
100
AcDbLine
 10
3.2282109065
 20
4.0342688376
 30
0.0
 11
2.9249694367
 21
4.0342688376
 31
0.0
  0
LINE
  5
154
330
1F
100
AcDbEntity
  8
0
  6
HIDDEN
 62
     7
100
AcDbLine
 10
2.7739111768
 20
3.4830877352
 30
0.0
 11
2.8724759984
 21
3.4830877352
 31
0.0
  0
LINE
  5
155
330
1F
100
AcDbEntity
  8
0
  6
HIDDEN
 62
     7
100
AcDbLine
 10
4.1678559581
 20
4.4968672628
 30
0.0
 11
3.8333690046
 21
4.4968672628
 31
0.0
  0
ARC
  5
156
330
1F
100
AcDbEntity
  8
0
  6
CONTINUOUS
 62
     7
100
AcDbCircle
 10
7.4147102878
 20
4.4968672628
 30
0.0
 40
0.0196850393700787
100
AcDbArc
 50
90.0
 51
180.0
  0
LINE
  5
157
330
1F
100
AcDbEntity
  8
0
  6
CONTINUOUS
 62
     7
100
AcDbLine
 10
7.3950252484
 20
4.4968672628
 30
0.0
 11
7.3950252484
 21
4.4534496084
 31
0.0
  0
LINE
  5
158
330
1F
100
AcDbEntity
  8
0
  6
CONTINUOUS
 62
     7
100
AcDbLine
 10
7.4639228862
 20
3.7783633258
 30
0.0
 11
7.4639228862
 21
3.738993247
 31
0.0
  0
LINE
  5
159
330
1F
100
AcDbEntity
  8
0
  6
CONTINUOUS
 62
     7
100
AcDbLine
 10
7.6607732799
 20
3.738993247
 30
0.0
 11
7.6607732799
 21
3.7783633258
 31
0.0
  0
ARC
  5
15A
330
1F
100
AcDbEntity
  8
0
  6
CONTINUOUS
 62
     7
100
AcDbCircle
 10
8.9890735827
 20
4.5948526049
 30
0.0
 40
0.0196850393700796
100
AcDbArc
 50
0.0
 51
90.0
  0
LINE
  5
15B
330
1F
100
AcDbEntity
  8
0
  6
CONTINUOUS
 62
     7
100
AcDbLine
 10
8.9890735827
 20
4.6145376443
 30
0.0
 11
8.9456559284
 21
4.6145376443
 31
0.0
  0
LINE
  5
15C
330
1F
100
AcDbEntity
  8
0
  6
CONTINUOUS
 62
     7
100
AcDbLine
 10
8.6828850298
 20
3.7783633258
 30
0.0
 11
8.6828850298
 21
3.738993247
 31
0.0
  0
LINE
  5
15D
330
1F
100
AcDbEntity
  8
0
  6
CONTINUOUS
 62
     7
100
AcDbLine
 10
8.6828850298
 20
3.7783633258
 30
0.0
 11
8.5408076438
 21
3.7783633258
 31
0.0
  0
ARC
  5
15E
330
1F
100
AcDbEntity
  8
0
  6
CONTINUOUS
 62
     7
100
AcDbCircle
 10
8.2508846063
 20
3.7586782864
 30
0.0
 40
0.2905905511811056
100
AcDbArc
 50
3.8842765967
 51
176.1157234033
  0
LINE
  5
15F
330
1F
100
AcDbEntity
  8
0
  6
CONTINUOUS
 62
     7
100
AcDbLine
 10
7.1637006001
 20
3.7783633258
 30
0.0
 11
7.9609615688
 21
3.7783633258
 31
0.0
  0
ARC
  5
160
330
1F
100
AcDbEntity
  8
0
  6
CONTINUOUS
 62
     7
100
AcDbCircle
 10
8.2508846063
 20
3.7586782864
 30
0.0
 40
1.087362204724409
100
AcDbArc
 50
181.0373096351
 51
178.9626903649
  0
LINE
  5
161
330
1F
100
AcDbEntity
  8
0
  6
CONTINUOUS
 62
     7
100
AcDbLine
 10
7.1637006001
 20
3.738993247
 30
0.0
 11
7.9609615688
 21
3.738993247
 31
0.0
  0
ARC
  5
162
330
1F
100
AcDbEntity
  8
0
  6
CONTINUOUS
 62
     7
100
AcDbCircle
 10
8.2508846063
 20
3.7586782864
 30
0.0
 40
0.2905905511811056
100
AcDbArc
 50
183.8842765967
 51
356.1157234033
  0
LINE
  5
163
330
1F
100
AcDbEntity
  8
0
  6
CONTINUOUS
 62
     7
100
AcDbLine
 10
8.5408076438
 20
3.738993247
 30
0.0
 11
8.6828850298
 21
3.738993247
 31
0.0
  0
LINE
  5
164
330
1F
100
AcDbEntity
  8
0
  6
CONTINUOUS
 62
     7
100
AcDbLine
 10
7.1486981749
 20
3.7783633258
 30
0.0
 11
7.1637006001
 21
3.7783633258
 31
0.0
  0
ARC
  5
165
330
1F
100
AcDbEntity
  8
0
  6
CONTINUOUS
 62
     7
100
AcDbCircle
 10
8.2508846063
 20
3.7586782864
 30
0.0
 40
1.102362204724409
100
AcDbArc
 50
181.0231933037
 51
178.9768066963
  0
LINE
  5
166
330
1F
100
AcDbEntity
  8
0
  6
CONTINUOUS
 62
     7
100
AcDbLine
 10
7.1486981749
 20
3.738993247
 30
0.0
 11
7.1637006001
 21
3.738993247
 31
0.0
  0
SPLINE
  5
167
330
1F
100
AcDbEntity
  8
0
  6
CONTINUOUS
 62
     7
100
AcDbSpline
210
0.0
220
0.0
230
1.0
 70
     8
 71
     3
 72
     8
 73
     4
 74
     0
 42
0.00000001
 43
0.00000001
 40
0.0
 40
0.0
 40
0.0
 40
0.0
 40
1.0
 40
1.0
 40
1.0
 40
1.0
 10
8.525771221358811
 20
3.778363325762126
 30
0.0
 10
8.526711004658075
 20
3.765239966182073
 30
0.0
 10
8.526711004658075
 20
3.752116606602021
 30
0.0
 10
8.525771221358811
 20
3.738993247021968
 30
0.0
  0
LINE
  5
168
330
1F
100
AcDbEntity
  8
0
  6
CONTINUOUS
 62
     7
100
AcDbLine
 10
7.9609615688
 20
3.738993247
 30
0.0
 11
7.9759979913
 21
3.738993247
 31
0.0
  0
ARC
  5
169
330
1F
100
AcDbEntity
  8
0
  6
CONTINUOUS
 62
     7
100
AcDbCircle
 10
8.2508846063
 20
3.7586782864
 30
0.0
 40
0.2755905511811024
100
AcDbArc
 50
184.0960437582
 51
355.9039562418
  0
LINE
  5
16A
330
1F
100
AcDbEntity
  8
0
  6
CONTINUOUS
 62
     7
100
AcDbLine
 10
8.5257712214
 20
3.738993247
 30
0.0
 11
8.5408076438
 21
3.738993247
 31
0.0
  0
LINE
  5
16B
330
1F
100
AcDbEntity
  8
0
  6
CONTINUOUS
 62
     7
100
AcDbLine
 10
7.9609615688
 20
3.7783633258
 30
0.0
 11
7.9759979913
 21
3.7783633258
 31
0.0
  0
ARC
  5
16C
330
1F
100
AcDbEntity
  8
0
  6
CONTINUOUS
 62
     7
100
AcDbCircle
 10
8.2508846063
 20
3.7586782864
 30
0.0
 40
0.2755905511811024
100
AcDbArc
 50
4.0960437582
 51
175.9039562418
  0
LINE
  5
16D
330
1F
100
AcDbEntity
  8
0
  6
CONTINUOUS
 62
     7
100
AcDbLine
 10
8.5257712214
 20
3.7783633258
 30
0.0
 11
8.5408076438
 21
3.7783633258
 31
0.0
  0
LINE
  5
16E
330
1F
100
AcDbEntity
  8
0
  6
CONTINUOUS
 62
     7
100
AcDbLine
 10
7.9752940551
 20
3.7586782864
 30
0.0
 11
7.9759979913
 21
3.738993247
 31
0.0
  0
POLYLINE
  5
16F
330
1F
100
AcDbEntity
  8
0
  6
CONTINUOUS
 62
     7
100
AcDb2dPolyline
 66
     1
 10
0.0
 20
0.0
 30
0.0
  0
VERTEX
  5
2AE
330
16F
100
AcDbEntity
  8
0
  6
CONTINUOUS
 62
     7
100
AcDbVertex
100
AcDb2dVertex
 10
8.5257712214
 20
3.738993247
 30
0.0
  0
VERTEX
  5
2AF
330
16F
100
AcDbEntity
  8
0
  6
CONTINUOUS
 62
     7
100
AcDbVertex
100
AcDb2dVertex
 10
8.5264751575
 20
3.7586782864
 30
0.0
  0
VERTEX
  5
2B0
330
16F
100
AcDbEntity
  8
0
  6
CONTINUOUS
 62
     7
100
AcDbVertex
100
AcDb2dVertex
 10
8.5261766176
 20
3.7715024982
 30
0.0
  0
SEQEND
  5
2B1
330
16F
100
AcDbEntity
  8
0
  6
CONTINUOUS
 62
     7
  0
LINE
  5
170
330
1F
100
AcDbEntity
  8
0
  6
CONTINUOUS
 62
     7
100
AcDbLine
 10
7.9759979913
 20
3.7783633258
 30
0.0
 11
7.9752940551
 21
3.7586782864
 31
0.0
  0
LINE
  5
171
330
1F
100
AcDbEntity
  8
0
  6
CONTINUOUS
 62
     7
100
AcDbLine
 10
7.1486981749
 20
3.738993247
 30
0.0
 11
7.1486981749
 21
3.7783633258
 31
0.0
  0
LINE
  5
172
330
1F
100
AcDbEntity
  8
0
  6
CONTINUOUS
 62
     7
100
AcDbLine
 10
7.4147102878
 20
4.5165523021
 30
0.0
 11
7.450366395
 21
4.5165523021
 31
0.0
  0
LINE
  5
173
330
1F
100
AcDbEntity
  8
0
  6
CONTINUOUS
 62
     7
100
AcDbLine
 10
9.0087586221
 20
4.5591964977
 30
0.0
 11
9.0087586221
 21
4.5948526049
 31
0.0
  0
LINE
  5
174
330
1F
100
AcDbEntity
  8
0
  6
CONTINUOUS
 62
     8
100
AcDbLine
 10
7.4321786362
 20
4.4968672628
 30
0.0
 11
7.3950252484
 21
4.4968672628
 31
0.0
  0
LINE
  5
175
330
1F
100
AcDbEntity
  8
0
  6
CONTINUOUS
 62
     8
100
AcDbLine
 10
8.9890735827
 20
4.6145376443
 30
0.0
 11
8.9890735827
 21
4.5773842565
 31
0.0
  0
LINE
  5
176
330
1F
100
AcDbEntity
  8
0
  6
HIDDEN
 62
     7
100
AcDbLine
 10
7.3950252484
 20
4.3197019084
 30
0.0
 11
7.7296709177
 21
4.3197019084
 31
0.0
  0
LINE
  5
177
330
1F
100
AcDbEntity
  8
0
  6
HIDDEN
 62
     7
100
AcDbLine
 10
8.7331680709
 20
2.7674138967
 30
0.0
 11
8.7331680709
 21
4.7499426761
 31
0.0
  0
LINE
  5
178
330
1F
100
AcDbEntity
  8
0
  6
HIDDEN
 62
     7
100
AcDbLine
 10
7.450366395
 20
4.5165523021
 30
0.0
 11
7.709985877
 21
4.5165523021
 31
0.0
  0
LINE
  5
179
330
1F
100
AcDbEntity
  8
0
  6
HIDDEN
 62
     7
100
AcDbLine
 10
7.6607732799
 20
3.0893869478
 30
0.0
 11
7.4642420488
 21
3.0893869478
 31
0.0
  0
LINE
  5
17A
330
1F
100
AcDbEntity
  8
0
  6
HIDDEN
 62
     7
100
AcDbLine
 10
7.6410882406
 20
3.0697019084
 30
0.0
 11
7.4836079284
 21
3.0697019084
 31
0.0
  0
LINE
  5
17B
330
1F
100
AcDbEntity
  8
0
  6
HIDDEN
 62
     7
100
AcDbLine
 10
7.6078087342
 20
4.3590719872
 30
0.0
 11
7.6532693853
 21
4.3590719872
 31
0.0
  0
LINE
  5
17C
330
1F
100
AcDbEntity
  8
0
  6
HIDDEN
 62
     7
100
AcDbLine
 10
7.6078087342
 20
4.3590719872
 30
0.0
 11
7.6078087342
 21
4.5165523021
 31
0.0
  0
LINE
  5
17D
330
1F
100
AcDbEntity
  8
0
  6
HIDDEN
 62
     7
100
AcDbLine
 10
7.516887432
 20
4.3590719872
 30
0.0
 11
7.6078087342
 21
4.3590719872
 31
0.0
  0
LINE
  5
17E
330
1F
100
AcDbEntity
  8
0
  6
HIDDEN
 62
     7
100
AcDbLine
 10
7.516887432
 20
4.3590719872
 30
0.0
 11
7.516887432
 21
4.5165523021
 31
0.0
  0
LINE
  5
17F
330
1F
100
AcDbEntity
  8
0
  6
HIDDEN
 62
     7
100
AcDbLine
 10
7.4714267809
 20
4.3590719872
 30
0.0
 11
7.516887432
 21
4.3590719872
 31
0.0
  0
LINE
  5
180
330
1F
100
AcDbEntity
  8
0
  6
HIDDEN
 62
     7
100
AcDbLine
 10
7.6532693853
 20
4.3590719872
 30
0.0
 11
7.6532693853
 21
4.5165523021
 31
0.0
  0
LINE
  5
181
330
1F
100
AcDbEntity
  8
0
  6
HIDDEN
 62
     7
100
AcDbLine
 10
7.4714267809
 20
4.3590719872
 30
0.0
 11
7.4714267809
 21
4.5165523021
 31
0.0
  0
LINE
  5
182
330
1F
100
AcDbEntity
  8
0
  6
HIDDEN
 62
     7
100
AcDbLine
 10
9.0087586221
 20
4.5591964977
 30
0.0
 11
9.0087586221
 21
4.2995770143
 31
0.0
  0
LINE
  5
183
330
1F
100
AcDbEntity
  8
0
  6
HIDDEN
 62
     7
100
AcDbLine
 10
8.8119082284
 20
4.279891975
 30
0.0
 11
8.8119082284
 21
4.6145376443
 31
0.0
  0
LINE
  5
184
330
1F
100
AcDbEntity
  8
0
  6
HIDDEN
 62
     7
100
AcDbLine
 10
7.5815932677
 20
4.3487896128
 30
0.0
 11
7.5815932677
 21
4.5453208439
 31
0.0
  0
LINE
  5
185
330
1F
100
AcDbEntity
  8
0
  6
HIDDEN
 62
     7
100
AcDbLine
 10
7.5619082284
 20
4.5259549643
 30
0.0
 11
7.5619082284
 21
4.3684746521
 31
0.0
  0
LINE
  5
186
330
1F
100
AcDbEntity
  8
0
  6
HIDDEN
 62
     7
100
AcDbLine
 10
8.8512783071
 20
4.4017541585
 30
0.0
 11
9.0087586221
 21
4.4017541585
 31
0.0
  0
LINE
  5
187
330
1F
100
AcDbEntity
  8
0
  6
HIDDEN
 62
     7
100
AcDbLine
 10
8.8512783071
 20
4.4926754607
 30
0.0
 11
9.0087586221
 21
4.4926754607
 31
0.0
  0
LINE
  5
188
330
1F
100
AcDbEntity
  8
0
  6
HIDDEN
 62
     7
100
AcDbLine
 10
8.8512783071
 20
4.4926754607
 30
0.0
 11
8.8512783071
 21
4.5381361119
 31
0.0
  0
LINE
  5
189
330
1F
100
AcDbEntity
  8
0
  6
HIDDEN
 62
     7
100
AcDbLine
 10
8.8512783071
 20
4.4017541585
 30
0.0
 11
8.8512783071
 21
4.4926754607
 31
0.0
  0
LINE
  5
18A
330
1F
100
AcDbEntity
  8
0
  6
HIDDEN
 62
     7
100
AcDbLine
 10
8.8512783071
 20
4.3562935074
 30
0.0
 11
8.8512783071
 21
4.4017541585
 31
0.0
  0
LINE
  5
18B
330
1F
100
AcDbEntity
  8
0
  6
HIDDEN
 62
     7
100
AcDbLine
 10
8.8512783071
 20
4.5381361119
 30
0.0
 11
9.0087586221
 21
4.5381361119
 31
0.0
  0
LINE
  5
18C
330
1F
100
AcDbEntity
  8
0
  6
HIDDEN
 62
     7
100
AcDbLine
 10
8.8512783071
 20
4.3562935074
 30
0.0
 11
9.0087586221
 21
4.3562935074
 31
0.0
  0
CIRCLE
  5
18D
330
1F
100
AcDbEntity
  8
0
  6
HIDDEN
 62
     7
100
AcDbCircle
 10
9.1022625591
 20
3.7586782864
 30
0.0
 40
0.1673228346456686
  0
CIRCLE
  5
18E
330
1F
100
AcDbEntity
  8
0
  6
HIDDEN
 62
     7
100
AcDbCircle
 10
8.2508846063
 20
2.9073003336
 30
0.0
 40
0.1673228346456703
  0
CIRCLE
  5
18F
330
1F
100
AcDbEntity
  8
0
  6
HIDDEN
 62
     7
100
AcDbCircle
 10
8.2508846063
 20
4.6100562391
 30
0.0
 40
0.1673228346456703
  0
CIRCLE
  5
190
330
1F
100
AcDbEntity
  8
0
  6
HIDDEN
 62
     7
100
AcDbCircle
 10
7.3995066536
 20
3.7586782864
 30
0.0
 40
0.1673228346456694
  0
LINE
  5
191
330
1F
100
AcDbEntity
  8
0
  6
HIDDEN
 62
     7
100
AcDbLine
 10
8.1029907175
 20
4.7579501279
 30
0.0
 11
7.2516127648
 21
3.9065721752
 31
0.0
  0
ARC
  5
192
330
1F
100
AcDbEntity
  8
0
  6
HIDDEN
 62
     7
100
AcDbCircle
 10
8.2508846063
 20
4.6100562391
 30
0.0
 40
0.2091535433070873
100
AcDbArc
 50
45.0
 51
135.0
  0
LINE
  5
193
330
1F
100
AcDbEntity
  8
0
  6
HIDDEN
 62
     7
100
AcDbLine
 10
9.2501564479
 20
3.9065721752
 30
0.0
 11
8.3987784951
 21
4.7579501279
 31
0.0
  0
ARC
  5
194
330
1F
100
AcDbEntity
  8
0
  6
HIDDEN
 62
     7
100
AcDbCircle
 10
9.1022625591
 20
3.7586782864
 30
0.0
 40
0.2091535433070864
100
AcDbArc
 50
315.0
 51
45.0
  0
LINE
  5
195
330
1F
100
AcDbEntity
  8
0
  6
HIDDEN
 62
     7
100
AcDbLine
 10
8.3987784951
 20
2.7594064449
 30
0.0
 11
9.2501564479
 21
3.6107843976
 31
0.0
  0
ARC
  5
196
330
1F
100
AcDbEntity
  8
0
  6
HIDDEN
 62
     7
100
AcDbCircle
 10
8.2508846063
 20
2.9073003336
 30
0.0
 40
0.209153543307086
100
AcDbArc
 50
225.0
 51
315.0
  0
LINE
  5
197
330
1F
100
AcDbEntity
  8
0
  6
HIDDEN
 62
     7
100
AcDbLine
 10
7.2516127648
 20
3.6107843976
 30
0.0
 11
8.1029907175
 21
2.7594064449
 31
0.0
  0
ARC
  5
198
330
1F
100
AcDbEntity
  8
0
  6
HIDDEN
 62
     7
100
AcDbCircle
 10
7.3995066536
 20
3.7586782864
 30
0.0
 40
0.2091535433070857
100
AcDbArc
 50
135.0
 51
225.0
  0
CIRCLE
  5
199
330
1F
100
AcDbEntity
  8
0
  6
HIDDEN
 62
     7
100
AcDbCircle
 10
8.2508846063
 20
3.7586782864
 30
0.0
 40
0.3543307086614185
  0
CIRCLE
  5
19A
330
1F
100
AcDbEntity
  8
0
  6
HIDDEN
 62
     7
100
AcDbCircle
 10
8.2508846063
 20
3.7586782864
 30
0.0
 40
1.102362204724409
  0
LINE
  5
19B
330
1F
100
AcDbEntity
  8
0
  6
HIDDEN
 62
     7
100
AcDbLine
 10
7.2596202167
 20
3.2763948218
 30
0.0
 11
9.242148996
 21
3.2763948218
 31
0.0
  0
LINE
  5
19C
330
1F
100
AcDbEntity
  8
0
  6
HIDDEN
 62
     7
100
AcDbLine
 10
8.231199567
 20
4.0335649014
 30
0.0
 11
8.231199567
 21
4.8608647178
 31
0.0
  0
LINE
  5
19D
330
1F
100
AcDbEntity
  8
0
  6
HIDDEN
 62
     7
100
AcDbLine
 10
8.2705696457
 20
4.0335649014
 30
0.0
 11
8.2705696457
 21
4.8608647178
 31
0.0
  0
LINE
  5
19E
330
1F
100
AcDbEntity
  8
0
  6
HIDDEN
 62
     7
100
AcDbLine
 10
8.231199567
 20
3.3266778629
 30
0.0
 11
8.231199567
 21
3.4837916714
 31
0.0
  0
LINE
  5
19F
330
1F
100
AcDbEntity
  8
0
  6
HIDDEN
 62
     7
100
AcDbLine
 10
8.2705696457
 20
3.3266778629
 30
0.0
 11
8.231199567
 21
3.3266778629
 31
0.0
  0
LINE
  5
1A0
330
1F
100
AcDbEntity
  8
0
  6
HIDDEN
 62
     7
100
AcDbLine
 10
8.2705696457
 20
3.4837916714
 30
0.0
 11
8.2705696457
 21
3.3266778629
 31
0.0
  0
POLYLINE
  5
1A1
330
1F
100
AcDbEntity
  8
0
  6
HIDDEN
 62
     7
100
AcDb2dPolyline
 66
     1
 10
0.0
 20
0.0
 30
0.0
  0
VERTEX
  5
2B2
330
1A1
100
AcDbEntity
  8
0
  6
HIDDEN
 62
     7
100
AcDbVertex
100
AcDb2dVertex
 10
7.9609615688
 20
3.738993247
 30
0.0
  0
VERTEX
  5
2B3
330
1A1
100
AcDbEntity
  8
0
  6
HIDDEN
 62
     7
100
AcDbVertex
100
AcDb2dVertex
 10
7.9602940551
 20
3.7586782864
 30
0.0
  0
VERTEX
  5
2B4
330
1A1
100
AcDbEntity
  8
0
  6
HIDDEN
 62
     7
100
AcDbVertex
100
AcDb2dVertex
 10
7.9609615688
 20
3.7783633258
 30
0.0
  0
SEQEND
  5
2B5
330
1A1
100
AcDbEntity
  8
0
  6
HIDDEN
 62
     7
  0
POLYLINE
  5
1A2
330
1F
100
AcDbEntity
  8
0
  6
HIDDEN
 62
     7
100
AcDb2dPolyline
 66
     1
 10
0.0
 20
0.0
 30
0.0
  0
VERTEX
  5
2B6
330
1A2
100
AcDbEntity
  8
0
  6
HIDDEN
 62
     7
100
AcDbVertex
100
AcDb2dVertex
 10
8.5408076438
 20
3.7783633258
 30
0.0
  0
VERTEX
  5
2B7
330
1A2
100
AcDbEntity
  8
0
  6
HIDDEN
 62
     7
100
AcDbVertex
100
AcDb2dVertex
 10
8.5414751575
 20
3.7586782864
 30
0.0
  0
VERTEX
  5
2B8
330
1A2
100
AcDbEntity
  8
0
  6
HIDDEN
 62
     7
100
AcDbVertex
100
AcDb2dVertex
 10
8.5408076438
 20
3.738993247
 30
0.0
  0
SEQEND
  5
2B9
330
1A2
100
AcDbEntity
  8
0
  6
HIDDEN
 62
     7
  0
LINE
  5
1A3
330
1F
100
AcDbEntity
  8
0
  6
HIDDEN
 62
     7
100
AcDbLine
 10
7.1637006001
 20
3.7783633258
 30
0.0
 11
7.1637006001
 21
3.738993247
 31
0.0
  0
LINE
  5
1A4
330
1F
100
AcDbEntity
  8
0
  6
HIDDEN
 62
     7
100
AcDbLine
 10
7.7296709177
 20
4.3197019084
 30
0.0
 11
7.7296709177
 21
4.7300374997
 31
0.0
  0
LINE
  5
1A5
330
1F
100
AcDbEntity
  8
0
  6
HIDDEN
 62
     7
100
AcDbLine
 10
7.3950252484
 20
4.4537337512
 30
0.0
 11
7.3950252484
 21
4.3197019084
 31
0.0
  0
LINE
  5
1A6
330
1F
100
AcDbEntity
  8
0
  6
HIDDEN
 62
     7
100
AcDbLine
 10
7.4639228862
 20
4.3197019084
 30
0.0
 11
7.4639228862
 21
3.7783633258
 31
0.0
  0
LINE
  5
1A7
330
1F
100
AcDbEntity
  8
0
  6
HIDDEN
 62
     7
100
AcDbLine
 10
7.6607732799
 20
3.7783633258
 30
0.0
 11
7.6607732799
 21
4.3197019084
 31
0.0
  0
LINE
  5
1A8
330
1F
100
AcDbEntity
  8
0
  6
HIDDEN
 62
     7
100
AcDbLine
 10
7.4639228862
 20
3.738993247
 30
0.0
 11
7.4639228862
 21
2.986736785
 31
0.0
  0
LINE
  5
1A9
330
1F
100
AcDbEntity
  8
0
  6
HIDDEN
 62
     7
100
AcDbLine
 10
7.6607732799
 20
2.8276080195
 30
0.0
 11
7.6607732799
 21
3.738993247
 31
0.0
  0
ARC
  5
1AA
330
1F
100
AcDbEntity
  8
0
  6
HIDDEN
 62
     7
100
AcDbCircle
 10
7.7099858784
 20
4.4968672628
 30
0.0
 40
0.0196850393700787
100
AcDbArc
 50
0.0
 51
90.0
  0
LINE
  5
1AB
330
1F
100
AcDbEntity
  8
0
  6
HIDDEN
 62
     7
100
AcDbLine
 10
7.7296709177
 20
4.3197019084
 30
0.0
 11
7.7296709177
 21
4.4968672628
 31
0.0
  0
LINE
  5
1AC
330
1F
100
AcDbEntity
  8
0
  6
HIDDEN
 62
     7
100
AcDbLine
 10
7.3950252484
 20
4.4534496084
 30
0.0
 11
7.3950252484
 21
4.3197019084
 31
0.0
  0
LINE
  5
1AD
330
1F
100
AcDbEntity
  8
0
  6
HIDDEN
 62
     7
100
AcDbLine
 10
7.4639228862
 20
4.3197019084
 30
0.0
 11
7.4639228862
 21
3.7783633258
 31
0.0
  0
LINE
  5
1AE
330
1F
100
AcDbEntity
  8
0
  6
HIDDEN
 62
     7
100
AcDbLine
 10
7.4639228862
 20
3.738993247
 30
0.0
 11
7.4639228862
 21
3.0893869478
 31
0.0
  0
LINE
  5
1AF
330
1F
100
AcDbEntity
  8
0
  6
HIDDEN
 62
     7
100
AcDbLine
 10
7.6607732799
 20
3.0893869478
 30
0.0
 11
7.6607732799
 21
3.738993247
 31
0.0
  0
LINE
  5
1B0
330
1F
100
AcDbEntity
  8
0
  6
HIDDEN
 62
     7
100
AcDbLine
 10
7.6607732799
 20
3.7783633258
 30
0.0
 11
7.6607732799
 21
4.3197019084
 31
0.0
  0
ARC
  5
1B1
330
1F
100
AcDbEntity
  8
0
  6
HIDDEN
 62
     7
100
AcDbCircle
 10
7.6410882406
 20
3.0893869478
 30
0.0
 40
0.0196850393700787
100
AcDbArc
 50
270.0
 51
0.0
  0
ARC
  5
1B2
330
1F
100
AcDbEntity
  8
0
  6
HIDDEN
 62
     7
100
AcDbCircle
 10
7.4836079256
 20
3.0893869478
 30
0.0
 40
0.0196850393700787
100
AcDbArc
 50
180.0
 51
270.0
  0
ARC
  5
1B3
330
1F
100
AcDbEntity
  8
0
  6
HIDDEN
 62
     7
100
AcDbCircle
 10
8.9890735827
 20
4.2995770143
 30
0.0
 40
0.0196850393700787
100
AcDbArc
 50
270.0
 51
0.0
  0
LINE
  5
1B4
330
1F
100
AcDbEntity
  8
0
  6
HIDDEN
 62
     7
100
AcDbLine
 10
8.8119082284
 20
4.279891975
 30
0.0
 11
8.9890735827
 21
4.279891975
 31
0.0
  0
LINE
  5
1B5
330
1F
100
AcDbEntity
  8
0
  6
HIDDEN
 62
     7
100
AcDbLine
 10
8.9456559284
 20
4.6145376443
 30
0.0
 11
8.8119082284
 21
4.6145376443
 31
0.0
  0
LINE
  5
1B6
330
1F
100
AcDbEntity
  8
0
  6
HIDDEN
 62
     7
100
AcDbLine
 10
8.8119082284
 20
4.5456400065
 30
0.0
 11
7.5815932677
 21
4.5456400065
 31
0.0
  0
LINE
  5
1B7
330
1F
100
AcDbEntity
  8
0
  6
HIDDEN
 62
     7
100
AcDbLine
 10
7.5815932677
 20
4.3487896128
 30
0.0
 11
8.8119082284
 21
4.3487896128
 31
0.0
  0
ARC
  5
1B8
330
1F
100
AcDbEntity
  8
0
  6
HIDDEN
 62
     7
100
AcDbCircle
 10
7.5815932677
 20
4.3684746521
 30
0.0
 40
0.0196850393700787
100
AcDbArc
 50
180.0
 51
270.0
  0
ARC
  5
1B9
330
1F
100
AcDbEntity
  8
0
  6
HIDDEN
 62
     7
100
AcDbCircle
 10
7.5815932677
 20
4.5259549671
 30
0.0
 40
0.0196850393700787
100
AcDbArc
 50
90.0
 51
180.0
  0
LINE
  5
1BA
330
1F
100
AcDbEntity
  8
0
  6
HIDDEN
 62
     7
100
AcDbLine
 10
8.8119082284
 20
4.279891975
 30
0.0
 11
9.2222438196
 21
4.279891975
 31
0.0
  0
LINE
  5
1BB
330
1F
100
AcDbEntity
  8
0
  6
HIDDEN
 62
     7
100
AcDbLine
 10
8.9459400711
 20
4.6145376443
 30
0.0
 11
8.8119082284
 21
4.6145376443
 31
0.0
  0
LINE
  5
1BC
330
1F
100
AcDbEntity
  8
0
  6
HIDDEN
 62
     7
100
AcDbLine
 10
8.8119082284
 20
4.5456400065
 30
0.0
 11
8.2705696457
 21
4.5456400065
 31
0.0
  0
LINE
  5
1BD
330
1F
100
AcDbEntity
  8
0
  6
HIDDEN
 62
     7
100
AcDbLine
 10
8.2705696457
 20
4.3487896128
 30
0.0
 11
8.8119082284
 21
4.3487896128
 31
0.0
  0
LINE
  5
1BE
330
1F
100
AcDbEntity
  8
0
  6
HIDDEN
 62
     7
100
AcDbLine
 10
8.231199567
 20
4.5456400065
 30
0.0
 11
7.478943105
 21
4.5456400065
 31
0.0
  0
LINE
  5
1BF
330
1F
100
AcDbEntity
  8
0
  6
HIDDEN
 62
     7
100
AcDbLine
 10
7.3198143394
 20
4.3487896128
 30
0.0
 11
8.231199567
 21
4.3487896128
 31
0.0
  0
LINE
  5
1C0
330
1F
100
AcDbEntity
  8
0
  6
HIDDEN
 62
     7
100
AcDbLine
 10
7.3950252484
 20
4.4968672628
 30
0.0
 11
7.7293535613
 21
4.4968672628
 31
0.0
  0
LINE
  5
1C1
330
1F
100
AcDbEntity
  8
0
  6
HIDDEN
 62
     7
100
AcDbLine
 10
8.9890735827
 20
4.6145376443
 30
0.0
 11
8.9890735827
 21
4.2802093314
 31
0.0
  0
LINE
  5
1C2
330
1F
100
AcDbEntity
  8
0
  6
CONTINUOUS
 62
     7
100
AcDbLine
 10
4.212462875
 20
7.7593393436
 30
0.0
 11
4.197462875
 21
7.7743393436
 31
0.0
  0
LINE
  5
1C3
330
1F
100
AcDbEntity
  8
0
  6
CONTINUOUS
 62
     7
100
AcDbLine
 10
3.4250613002
 20
5.5696149342
 30
0.0
 11
3.7283027701
 21
5.5696149342
 31
0.0
  0
LINE
  5
1C4
330
1F
100
AcDbEntity
  8
0
  6
CONTINUOUS
 62
     7
100
AcDbLine
 10
4.197462875
 20
7.7743393436
 30
0.0
 11
3.4250613002
 21
7.7743393436
 31
0.0
  0
LINE
  5
1C5
330
1F
100
AcDbEntity
  8
0
  6
CONTINUOUS
 62
     7
100
AcDbLine
 10
2.5542345286
 20
6.6916621783
 30
0.0
 11
2.5542345286
 21
6.6522920995
 31
0.0
  0
LINE
  5
1C6
330
1F
100
AcDbEntity
  8
0
  6
CONTINUOUS
 62
     7
100
AcDbLine
 10
2.7510849223
 20
6.6522920995
 30
0.0
 11
2.7510849223
 21
6.6916621783
 31
0.0
  0
LINE
  5
1C7
330
1F
100
AcDbEntity
  8
0
  6
CONTINUOUS
 62
     7
100
AcDbLine
 10
2.8724759984
 20
7.7743393436
 30
0.0
 11
2.4558093317
 21
7.7743393436
 31
0.0
  0
LINE
  5
1C8
330
1F
100
AcDbEntity
  8
0
  6
CONTINUOUS
 62
     7
100
AcDbLine
 10
3.2282109065
 20
7.7743393436
 30
0.0
 11
2.9249694367
 21
7.7743393436
 31
0.0
  0
LINE
  5
1C9
330
1F
100
AcDbEntity
  8
0
  6
CONTINUOUS
 62
     7
100
AcDbLine
 10
2.9249694367
 20
5.5696149342
 30
0.0
 11
3.2282109065
 21
5.5696149342
 31
0.0
  0
LINE
  5
1CA
330
1F
100
AcDbEntity
  8
0
  6
CONTINUOUS
 62
     7
100
AcDbLine
 10
2.4558093317
 20
5.5696149342
 30
0.0
 11
2.8724759984
 21
5.5696149342
 31
0.0
  0
LINE
  5
1CB
330
1F
100
AcDbEntity
  8
0
  6
CONTINUOUS
 62
     7
100
AcDbLine
 10
2.4558093317
 20
7.7743393436
 30
0.0
 11
2.4408093317
 21
7.7593393436
 31
0.0
  0
LINE
  5
1CC
330
1F
100
AcDbEntity
  8
0
  6
CONTINUOUS
 62
     7
100
AcDbLine
 10
2.4408093317
 20
5.5846149342
 30
0.0
 11
2.4558093317
 21
5.5696149342
 31
0.0
  0
LINE
  5
1CD
330
1F
100
AcDbEntity
  8
0
  6
CONTINUOUS
 62
     7
100
AcDbLine
 10
3.2282109065
 20
6.5046543043
 30
0.0
 11
3.2872660246
 21
6.5046543043
 31
0.0
  0
LINE
  5
1CE
330
1F
100
AcDbEntity
  8
0
  6
CONTINUOUS
 62
     7
100
AcDbLine
 10
3.2872660246
 20
6.8392999736
 30
0.0
 11
3.2282109065
 21
6.8392999736
 31
0.0
  0
LINE
  5
1CF
330
1F
100
AcDbEntity
  8
0
  6
CONTINUOUS
 62
     7
100
AcDbLine
 10
3.3660061821
 20
6.5046543043
 30
0.0
 11
3.4250613002
 21
6.5046543043
 31
0.0
  0
LINE
  5
1D0
330
1F
100
AcDbEntity
  8
0
  6
CONTINUOUS
 62
     7
100
AcDbLine
 10
3.4250613002
 20
6.8392999736
 30
0.0
 11
3.3660061821
 21
6.8392999736
 31
0.0
  0
LINE
  5
1D1
330
1F
100
AcDbEntity
  8
0
  6
CONTINUOUS
 62
     7
100
AcDbLine
 10
3.2282109065
 20
7.356032257
 30
0.0
 11
3.2872660246
 21
7.356032257
 31
0.0
  0
LINE
  5
1D2
330
1F
100
AcDbEntity
  8
0
  6
CONTINUOUS
 62
     7
100
AcDbLine
 10
3.2872660246
 20
7.6906779263
 30
0.0
 11
3.2282109065
 21
7.6906779263
 31
0.0
  0
LINE
  5
1D3
330
1F
100
AcDbEntity
  8
0
  6
CONTINUOUS
 62
     7
100
AcDbLine
 10
3.3660061821
 20
7.356032257
 30
0.0
 11
3.4250613002
 21
7.356032257
 31
0.0
  0
LINE
  5
1D4
330
1F
100
AcDbEntity
  8
0
  6
CONTINUOUS
 62
     7
100
AcDbLine
 10
3.4250613002
 20
7.6906779263
 30
0.0
 11
3.3660061821
 21
7.6906779263
 31
0.0
  0
LINE
  5
1D5
330
1F
100
AcDbEntity
  8
0
  6
CONTINUOUS
 62
     7
100
AcDbLine
 10
3.2282109065
 20
5.6532763515
 30
0.0
 11
3.2872660246
 21
5.6532763515
 31
0.0
  0
LINE
  5
1D6
330
1F
100
AcDbEntity
  8
0
  6
CONTINUOUS
 62
     7
100
AcDbLine
 10
3.2872660246
 20
5.9879220208
 30
0.0
 11
3.2282109065
 21
5.9879220208
 31
0.0
  0
LINE
  5
1D7
330
1F
100
AcDbEntity
  8
0
  6
CONTINUOUS
 62
     7
100
AcDbLine
 10
3.3660061821
 20
5.6532763515
 30
0.0
 11
3.4250613002
 21
5.6532763515
 31
0.0
  0
LINE
  5
1D8
330
1F
100
AcDbEntity
  8
0
  6
CONTINUOUS
 62
     7
100
AcDbLine
 10
3.4250613002
 20
5.9879220208
 30
0.0
 11
3.3660061821
 21
5.9879220208
 31
0.0
  0
LINE
  5
1D9
330
1F
100
AcDbEntity
  8
0
  6
CONTINUOUS
 62
     7
100
AcDbLine
 10
3.3660061821
 20
7.732508635
 30
0.0
 11
3.2872660246
 21
7.732508635
 31
0.0
  0
LINE
  5
1DA
330
1F
100
AcDbEntity
  8
0
  6
CONTINUOUS
 62
     7
100
AcDbLine
 10
3.2872660246
 20
5.6114456429
 30
0.0
 11
3.3660061821
 21
5.6114456429
 31
0.0
  0
LINE
  5
1DB
330
1F
100
AcDbEntity
  8
0
  6
CONTINUOUS
 62
     7
100
AcDbLine
 10
4.212462875
 20
7.7593393436
 30
0.0
 11
4.212462875
 21
5.5847931326
 31
0.0
  0
LINE
  5
1DC
330
1F
100
AcDbEntity
  8
0
  6
CONTINUOUS
 62
     7
100
AcDbLine
 10
4.197462875
 20
5.5697907075
 30
0.0
 11
4.212462875
 21
5.5847931326
 31
0.0
  0
LINE
  5
1DD
330
1F
100
AcDbEntity
  8
0
  6
CONTINUOUS
 62
     7
100
AcDbLine
 10
4.197462875
 20
5.5697907075
 30
0.0
 11
4.197462875
 21
7.7743393436
 31
0.0
  0
LINE
  5
1DE
330
1F
100
AcDbEntity
  8
0
  6
CONTINUOUS
 62
     7
100
AcDbLine
 10
3.4250613002
 20
7.7743393436
 30
0.0
 11
3.4250613002
 21
5.5696149342
 31
0.0
  0
SPLINE
  5
1DF
330
1F
100
AcDbEntity
  8
0
  6
CONTINUOUS
 62
     7
100
AcDbSpline
210
0.0
220
0.0
230
1.0
 70
     8
 71
     3
 72
    82
 73
    78
 74
     0
 42
0.00000001
 43
0.00000001
 40
-0.0312499999999999
 40
-0.0312499999999999
 40
0.0
 40
0.0
 40
0.0312500000000002
 40
0.0312500000000002
 40
0.0468750000000003
 40
0.0468750000000003
 40
0.0625000000000005
 40
0.0625000000000005
 40
0.0781250000000008
 40
0.0781250000000008
 40
0.093750000000001
 40
0.093750000000001
 40
0.1250000000000014
 40
0.1250000000000014
 40
0.1562500000000017
 40
0.1562500000000017
 40
0.1875000000000019
 40
0.1875000000000019
 40
0.2187500000000021
 40
0.2187500000000021
 40
0.2500000000000024
 40
0.2500000000000024
 40
0.2812500000000026
 40
0.2812500000000026
 40
0.3125000000000029
 40
0.3125000000000029
 40
0.3750000000000034
 40
0.3750000000000034
 40
0.4062500000000035
 40
0.4062500000000035
 40
0.4375000000000036
 40
0.4375000000000036
 40
0.4531250000000037
 40
0.4531250000000037
 40
0.4687500000000037
 40
0.4687500000000037
 40
0.4843750000000037
 40
0.4843750000000037
 40
0.5000000000000038
 40
0.5000000000000038
 40
0.5156250000000038
 40
0.5156250000000038
 40
0.5312500000000038
 40
0.5312500000000038
 40
0.5468750000000038
 40
0.5468750000000038
 40
0.5625000000000037
 40
0.5625000000000037
 40
0.5937500000000033
 40
0.5937500000000033
 40
0.625000000000003
 40
0.625000000000003
 40
0.6562500000000026
 40
0.6562500000000026
 40
0.6875000000000022
 40
0.6875000000000022
 40
0.7187500000000019
 40
0.7187500000000019
 40
0.7500000000000014
 40
0.7500000000000014
 40
0.812500000000001
 40
0.812500000000001
 40
0.843750000000001
 40
0.843750000000001
 40
0.8750000000000008
 40
0.8750000000000008
 40
0.8906250000000007
 40
0.8906250000000007
 40
0.9062500000000006
 40
0.9062500000000006
 40
0.9218750000000004
 40
0.9218750000000004
 40
0.9375000000000003
 40
0.9375000000000003
 40
0.9687500000000001
 40
0.9687500000000001
 40
1.0
 40
1.0
 40
1.03125
 40
1.03125
 10
4.013410162762107
 20
6.150763450329353
 30
0.0
 10
3.987814799912511
 20
6.150763450329353
 30
0.0
 10
3.975303221027219
 20
6.149314408227542
 30
0.0
 10
3.956944361154099
 20
6.145086716634628
 30
0.0
 10
3.9508519412305
 20
6.143315468561529
 30
0.0
 10
3.939050806883778
 20
6.139152658162458
 30
0.0
 10
3.933344573514127
 20
6.136768893677512
 30
0.0
 10
3.922301854070181
 20
6.131433784149293
 30
0.0
 10
3.916965462806631
 20
6.128482279318893
 30
0.0
 10
3.906657791550075
 20
6.122027859563218
 30
0.0
 10
3.901684233906936
 20
6.118516997371596
 30
0.0
 10
3.887649336147737
 20
6.10744965956948
 30
0.0
 10
3.879333618083822
 20
6.099288263900127
 30
0.0
 10
3.864621586452652
 20
6.081602302597718
 30
0.0
 10
3.858398463271698
 20
6.072272907911546
 30
0.0
 10
3.848065636913817
 20
6.053049978080254
 30
0.0
 10
3.84391306008558
 20
6.043038708283309
 30
0.0
 10
3.837703913327137
 20
6.023031520333813
 30
0.0
 10
3.835613686501842
 20
6.013006689325596
 30
0.0
 10
3.833256351370253
 20
5.992963260810208
 30
0.0
 10
3.83300520271954
 20
5.982928553866031
 30
0.0
 10
3.834204751088348
 20
5.963417395004964
 30
0.0
 10
3.835643127921026
 20
5.953869577815575
 30
0.0
 10
3.840115011601927
 20
5.93517161884592
 30
0.0
 10
3.843175089052457
 20
5.925979633487695
 30
0.0
 10
3.854527020580538
 20
5.899646624064798
 30
0.0
 10
3.864911381405713
 20
5.883499951085633
 30
0.0
 10
3.885615452318886
 20
5.861481143714227
 30
0.0
 10
3.893239450409286
 20
5.854682475338153
 30
0.0
 10
3.910213927679169
 20
5.842246678234422
 30
0.0
 10
3.919686574415968
 20
5.836550343710138
 30
0.0
 10
3.935120162719792
 20
5.829363060373464
 30
0.0
 10
3.940465225548786
 20
5.827190686697246
 30
0.0
 10
3.951618691563344
 20
5.823342704233404
 30
0.0
 10
3.95747921943247
 20
5.821655927284069
 30
0.0
 10
3.96947407335279
 20
5.81892568252775
 30
0.0
 10
3.975586318319652
 20
5.817880932679164
 30
0.0
 10
3.988058652943825
 20
5.816471400363583
 30
0.0
 10
3.994487504939136
 20
5.816108787707567
 30
0.0
 10
4.007219340912713
 20
5.816127121319787
 30
0.0
 10
4.013515878239949
 20
5.816498207107285
 30
0.0
 10
4.025977029451142
 20
5.817932594331553
 30
0.0
 10
4.032193063145523
 20
5.819010132771758
 30
0.0
 10
4.044173175269483
 20
5.821770634542651
 30
0.0
 10
4.049948788264138
 20
5.82344727887056
 30
0.0
 10
4.061126581030005
 20
5.827331734628959
 30
0.0
 10
4.066555520021135
 20
5.829555149769948
 30
0.0
 10
4.081987804408583
 20
5.836797689857598
 30
0.0
 10
4.091257748725563
 20
5.842402521079638
 30
0.0
 10
4.108260301014494
 20
5.854909469465438
 30
0.0
 10
4.115954346689619
 20
5.861816953581196
 30
0.0
 10
4.129563601460511
 20
5.876353409607788
 30
0.0
 10
4.135558964331524
 20
5.884043014246113
 30
0.0
 10
4.146110975159979
 20
5.900250323345067
 30
0.0
 10
4.150682834296033
 20
5.908825156345011
 30
0.0
 10
4.158213797153767
 20
5.926428311201244
 30
0.0
 10
4.161201611552727
 20
5.935484071457773
 30
0.0
 10
4.165625567509348
 20
5.954125427309479
 30
0.0
 10
4.167064496531816
 20
5.963760829143734
 30
0.0
 10
4.168803498191784
 20
5.993200652064486
 30
0.0
 10
4.166613398087356
 20
6.013038174134828
 30
0.0
 10
4.157348739383234
 20
6.042934511304908
 30
0.0
 10
4.15318814551396
 20
6.052987025736888
 30
0.0
 10
4.14286163550907
 20
6.072216820759443
 30
0.0
 10
4.136683506040373
 20
6.081489534181332
 30
0.0
 10
4.125675137282609
 20
6.094747663433945
 30
0.0
 10
4.121708487957068
 20
6.099055135146806
 30
0.0
 10
4.11336284259078
 20
6.10720780021639
 30
0.0
 10
4.10896154304668
 20
6.111081940426211
 30
0.0
 10
4.099690327653802
 20
6.118405082580026
 30
0.0
 10
4.094820539709113
 20
6.121854219557076
 30
0.0
 10
4.084585254723661
 20
6.128292461820384
 30
0.0
 10
4.079180960379372
 20
6.131299952500346
 30
0.0
 10
4.062439854113455
 20
6.139415423025759
 30
0.0
 10
4.05074833776542
 20
6.143568839755065
 30
0.0
 10
4.026283860512704
 20
6.149258686276933
 30
0.0
 10
4.013410162762107
 20
6.150763450329353
 30
0.0
 10
3.987814799912511
 20
6.150763450329353
 30
0.0
  0
LINE
  5
1E0
330
1F
100
AcDbEntity
  8
0
  6
CONTINUOUS
 62
     7
100
AcDbLine
 10
4.197462875
 20
5.5697907075
 30
0.0
 11
3.7807962084
 21
5.5697907075
 31
0.0
  0
LINE
  5
1E1
330
1F
100
AcDbEntity
  8
0
  6
CONTINUOUS
 62
     7
100
AcDbLine
 10
3.7807962084
 20
7.1542606035
 30
0.0
 11
3.7807962084
 21
5.5697907075
 31
0.0
  0
LINE
  5
1E2
330
1F
100
AcDbEntity
  8
0
  6
CONTINUOUS
 62
     7
100
AcDbLine
 10
3.7283027701
 20
7.1542606035
 30
0.0
 11
3.7807962084
 21
7.1542606035
 31
0.0
  0
LINE
  5
1E3
330
1F
100
AcDbEntity
  8
0
  6
CONTINUOUS
 62
     7
100
AcDbLine
 10
3.7283027701
 20
5.5696149342
 30
0.0
 11
3.7283027701
 21
7.1542606035
 31
0.0
  0
CIRCLE
  5
1E4
330
1F
100
AcDbEntity
  8
0
  6
CONTINUOUS
 62
     7
100
AcDbCircle
 10
4.0006124813
 20
5.9834406157
 30
0.0
 40
0.1476377952755907
  0
CIRCLE
  5
1E5
330
1F
100
AcDbEntity
  8
0
  6
CONTINUOUS
 62
     7
100
AcDbCircle
 10
4.0006124813
 20
5.9834406157
 30
0.0
 40
0.1673228346456694
  0
LINE
  5
1E6
330
1F
100
AcDbEntity
  8
0
  6
CONTINUOUS
 62
     7
100
AcDbLine
 10
4.0793526388
 20
5.9379799646
 30
0.0
 11
4.0793526388
 21
6.0289012668
 31
0.0
  0
LINE
  5
1E7
330
1F
100
AcDbEntity
  8
0
  6
CONTINUOUS
 62
     7
100
AcDbLine
 10
4.0793526388
 20
6.0289012668
 30
0.0
 11
4.0006124813
 21
6.0743619179
 31
0.0
  0
LINE
  5
1E8
330
1F
100
AcDbEntity
  8
0
  6
CONTINUOUS
 62
     7
100
AcDbLine
 10
4.0006124813
 20
6.0743619179
 30
0.0
 11
3.9218723239
 21
6.0289012668
 31
0.0
  0
LINE
  5
1E9
330
1F
100
AcDbEntity
  8
0
  6
CONTINUOUS
 62
     7
100
AcDbLine
 10
3.9218723239
 20
6.0289012668
 30
0.0
 11
3.9218723239
 21
5.9379799646
 31
0.0
  0
LINE
  5
1EA
330
1F
100
AcDbEntity
  8
0
  6
CONTINUOUS
 62
     7
100
AcDbLine
 10
3.9218723239
 20
5.9379799646
 30
0.0
 11
4.0006124813
 21
5.8925193134
 31
0.0
  0
LINE
  5
1EB
330
1F
100
AcDbEntity
  8
0
  6
CONTINUOUS
 62
     7
100
AcDbLine
 10
4.0006124813
 20
5.8925193134
 30
0.0
 11
4.0793526388
 21
5.9379799646
 31
0.0
  0
LINE
  5
1EC
330
1F
100
AcDbEntity
  8
0
  6
CONTINUOUS
 62
     7
100
AcDbLine
 10
2.6526597254
 20
7.4298511547
 30
0.0
 11
2.5286876279
 21
7.4298511547
 31
0.0
  0
LINE
  5
1ED
330
1F
100
AcDbEntity
  8
0
  6
CONTINUOUS
 62
     7
100
AcDbLine
 10
2.7776978621
 20
7.4298511547
 30
0.0
 11
2.6526597254
 21
7.4298511547
 31
0.0
  0
LINE
  5
1EE
330
1F
100
AcDbEntity
  8
0
  6
CONTINUOUS
 62
     7
100
AcDbLine
 10
3.2282109065
 20
7.7743393436
 30
0.0
 11
3.2282109065
 21
5.5696149342
 31
0.0
  0
SPLINE
  5
1EF
330
1F
100
AcDbEntity
  8
0
  6
CONTINUOUS
 62
     7
100
AcDbSpline
210
0.0
220
0.0
230
1.0
 70
     8
 71
     3
 72
    82
 73
    78
 74
     0
 42
0.00000001
 43
0.00000001
 40
-0.0312499999999999
 40
-0.0312499999999999
 40
0.0
 40
0.0
 40
0.0312499999999998
 40
0.0312499999999998
 40
0.0468749999999996
 40
0.0468749999999996
 40
0.0624999999999997
 40
0.0624999999999997
 40
0.0781249999999997
 40
0.0781249999999997
 40
0.0937499999999997
 40
0.0937499999999997
 40
0.1249999999999998
 40
0.1249999999999998
 40
0.1562499999999999
 40
0.1562499999999999
 40
0.1874999999999999
 40
0.1874999999999999
 40
0.21875
 40
0.21875
 40
0.2500000000000001
 40
0.2500000000000001
 40
0.2812500000000002
 40
0.2812500000000002
 40
0.3125000000000003
 40
0.3125000000000003
 40
0.3750000000000002
 40
0.3750000000000002
 40
0.4062500000000001
 40
0.4062500000000001
 40
0.4374999999999999
 40
0.4374999999999999
 40
0.4531249999999999
 40
0.4531249999999999
 40
0.4687499999999998
 40
0.4687499999999998
 40
0.4843749999999997
 40
0.4843749999999997
 40
0.4999999999999997
 40
0.4999999999999997
 40
0.5156249999999997
 40
0.5156249999999997
 40
0.5312499999999997
 40
0.5312499999999997
 40
0.5468749999999997
 40
0.5468749999999997
 40
0.5624999999999996
 40
0.5624999999999996
 40
0.5937499999999996
 40
0.5937499999999996
 40
0.6249999999999996
 40
0.6249999999999996
 40
0.6562499999999996
 40
0.6562499999999996
 40
0.6874999999999994
 40
0.6874999999999994
 40
0.7187499999999994
 40
0.7187499999999994
 40
0.7499999999999994
 40
0.7499999999999994
 40
0.8124999999999997
 40
0.8124999999999997
 40
0.8437499999999999
 40
0.8437499999999999
 40
0.8749999999999999
 40
0.8749999999999999
 40
0.890625
 40
0.890625
 40
0.9062500000000001
 40
0.9062500000000001
 40
0.9218750000000002
 40
0.9218750000000002
 40
0.9375000000000002
 40
0.9375000000000002
 40
0.9687500000000001
 40
0.9687500000000001
 40
1.0
 40
1.0
 40
1.03125
 40
1.03125
 10
2.639862044006998
 20
7.643336352201771
 30
0.0
 10
2.665457406856594
 20
7.643336352201771
 30
0.0
 10
2.677968985741886
 20
7.642562724991909
 30
0.0
 10
2.696327845615006
 20
7.640270216036427
 30
0.0
 10
2.702420265538605
 20
7.639305887691697
 30
0.0
 10
2.714221399885326
 20
7.637019180808294
 30
0.0
 10
2.719927633254978
 20
7.635701115969394
 30
0.0
 10
2.730970352698924
 20
7.632718858285165
 30
0.0
 10
2.736306743962474
 20
7.631054602062466
 30
0.0
 10
2.746614415219029
 20
7.627368175540945
 30
0.0
 10
2.75158797286217
 20
7.625340962887465
 30
0.0
 10
2.765622870621367
 20
7.618858478044834
 30
0.0
 10
2.773938588685283
 20
7.613963462775851
 30
0.0
 10
2.788650620316453
 20
7.602981077977527
 30
0.0
 10
2.794873743497406
 20
7.59701242797455
 30
0.0
 10
2.805206569855288
 20
7.584262522043481
 30
0.0
 10
2.809359146683525
 20
7.577399460348012
 30
0.0
 10
2.815568293441967
 20
7.563168876869735
 30
0.0
 10
2.817658520267263
 20
7.555786714801945
 30
0.0
 10
2.820015855398851
 20
7.540482506314945
 30
0.0
 10
2.820267004049565
 20
7.532542991663242
 30
0.0
 10
2.819067455680757
 20
7.516550776192614
 30
0.0
 10
2.817629078848079
 20
7.508445182652054
 30
0.0
 10
2.813157195167177
 20
7.492022798068862
 30
0.0
 10
2.810097117716649
 20
7.483663775627073
 30
0.0
 10
2.798745186188567
 20
7.458925791559373
 30
0.0
 10
2.788360825363391
 20
7.442668664245526
 30
0.0
 10
2.767656754450218
 20
7.419247833043231
 30
0.0
 10
2.760032756359819
 20
7.411787485647114
 30
0.0
 10
2.743058279089936
 20
7.397812711797592
 30
0.0
 10
2.733585632353137
 20
7.391226252350164
 30
0.0
 10
2.718152044049313
 20
7.382763774817671
 30
0.0
 10
2.712806981220319
 20
7.380177187116029
 30
0.0
 10
2.701653515205761
 20
7.37556157194008
 30
0.0
 10
2.695792987336635
 20
7.373518934297251
 30
0.0
 10
2.683798133416315
 20
7.370196492967306
 30
0.0
 10
2.677685888449453
 20
7.368915691904176
 30
0.0
 10
2.665213553825279
 20
7.367184739171699
 30
0.0
 10
2.658784701829969
 20
7.36673738246483
 30
0.0
 10
2.646052865856392
 20
7.366759966853502
 30
0.0
 10
2.639756328529156
 20
7.367217757351912
 30
0.0
 10
2.627295177317962
 20
7.368979029987521
 30
0.0
 10
2.621079143623581
 20
7.370299730165568
 30
0.0
 10
2.609099031499622
 20
7.373658017194322
 30
0.0
 10
2.603323418504967
 20
7.375687805913975
 30
0.0
 10
2.5921456257391
 20
7.380345522775878
 30
0.0
 10
2.586716686747969
 20
7.382991569921573
 30
0.0
 10
2.571284402360521
 20
7.39151401235344
 30
0.0
 10
2.562014458043542
 20
7.397991478812006
 30
0.0
 10
2.545011905754611
 20
7.412038820015373
 30
0.0
 10
2.537317860079486
 20
7.419610348834626
 30
0.0
 10
2.523708605308594
 20
7.435061553536472
 30
0.0
 10
2.51771324243758
 20
7.4430113143098
 30
0.0
 10
2.507161231609126
 20
7.45923288298731
 30
0.0
 10
2.502589372473071
 20
7.46755691010476
 30
0.0
 10
2.495058409615339
 20
7.484076311628281
 30
0.0
 10
2.492070595216379
 20
7.492302800128269
 30
0.0
 10
2.487646639259756
 20
7.508664146703854
 30
0.0
 10
2.486207710237288
 20
7.516839826886303
 30
0.0
 10
2.48446870857732
 20
7.540946874574282
 30
0.0
 10
2.486658808681749
 20
7.55605866346012
 30
0.0
 10
2.495923467385871
 20
7.577326447629909
 30
0.0
 10
2.500084061255145
 20
7.58421986809858
 30
0.0
 10
2.510410571260035
 20
7.596976121577464
 30
0.0
 10
2.516588700728732
 20
7.60290951228125
 30
0.0
 10
2.527597069486496
 20
7.611144658168973
 30
0.0
 10
2.531563718812037
 20
7.613776191230173
 30
0.0
 10
2.539909364178324
 20
7.61868758641703
 30
0.0
 10
2.544310663722424
 20
7.620985576925339
 30
0.0
 10
2.553581879115303
 20
7.625275842128061
 30
0.0
 10
2.558451667059992
 20
7.627268167948129
 30
0.0
 10
2.568686952045445
 20
7.630946976004055
 30
0.0
 10
2.574091246389733
 20
7.632643686701331
 30
0.0
 10
2.59083235265565
 20
7.63718119575006
 30
0.0
 10
2.602523869003684
 20
7.639446815042003
 30
0.0
 10
2.626988346256401
 20
7.642532816925321
 30
0.0
 10
2.639862044006998
 20
7.643336352201771
 30
0.0
 10
2.665457406856594
 20
7.643336352201771
 30
0.0
  0
SPLINE
  5
1F0
330
1F
100
AcDbEntity
  8
0
  6
CONTINUOUS
 62
     7
100
AcDbSpline
210
0.0
220
0.0
230
1.0
 70
     8
 71
     3
 72
    66
 73
    62
 74
     0
 42
0.00000001
 43
0.00000001
 40
-0.0312499999999996
 40
-0.0312499999999996
 40
0.0
 40
0.0
 40
0.0312500000000002
 40
0.0312500000000002
 40
0.0625000000000004
 40
0.0625000000000004
 40
0.0937500000000007
 40
0.0937500000000007
 40
0.1250000000000009
 40
0.1250000000000009
 40
0.1875000000000017
 40
0.1875000000000017
 40
0.2187500000000018
 40
0.2187500000000018
 40
0.2500000000000019
 40
0.2500000000000019
 40
0.281250000000002
 40
0.281250000000002
 40
0.3125000000000021
 40
0.3125000000000021
 40
0.3437500000000022
 40
0.3437500000000022
 40
0.3750000000000023
 40
0.3750000000000023
 40
0.4062500000000024
 40
0.4062500000000024
 40
0.4375000000000024
 40
0.4375000000000024
 40
0.4687500000000023
 40
0.4687500000000023
 40
0.5000000000000022
 40
0.5000000000000022
 40
0.5312500000000022
 40
0.5312500000000022
 40
0.5625000000000022
 40
0.5625000000000022
 40
0.5937500000000022
 40
0.5937500000000022
 40
0.6250000000000022
 40
0.6250000000000022
 40
0.6562500000000022
 40
0.6562500000000022
 40
0.6875000000000022
 40
0.6875000000000022
 40
0.7187500000000022
 40
0.7187500000000022
 40
0.7500000000000022
 40
0.7500000000000022
 40
0.7812500000000022
 40
0.7812500000000022
 40
0.8125000000000022
 40
0.8125000000000022
 40
0.8750000000000018
 40
0.8750000000000018
 40
0.9062500000000013
 40
0.9062500000000013
 40
0.9375000000000009
 40
0.9375000000000009
 40
0.9687500000000004
 40
0.9687500000000004
 40
1.0
 40
1.0
 40
1.03125
 40
1.03125
 10
2.660151784693833
 20
5.900035637552075
 30
0.0
 10
2.645167666169759
 20
5.900035637552076
 30
0.0
 10
2.637905477316807
 20
5.899173381212322
 30
0.0
 10
2.62379148265153
 20
5.895924168101107
 30
0.0
 10
2.61707230162871
 20
5.893548101678546
 30
0.0
 10
2.604724088054159
 20
5.88778914878746
 30
0.0
 10
2.599001884062382
 20
5.884363931949602
 30
0.0
 10
2.588778270604337
 20
5.876982920340032
 30
0.0
 10
2.584197840732476
 20
5.872990668673745
 30
0.0
 10
2.571825599442739
 20
5.860291718620011
 30
0.0
 10
2.565719297297433
 20
5.851253760214858
 30
0.0
 10
2.559266711203454
 20
5.837312652877996
 30
0.0
 10
2.557579974584716
 20
5.832578075615814
 30
0.0
 10
2.555209568915297
 20
5.823231309915172
 30
0.0
 10
2.554507880814136
 20
5.818585497911141
 30
0.0
 10
2.554091364894445
 20
5.809351921894438
 30
0.0
 10
2.55438519696492
 20
5.804726316325727
 30
0.0
 10
2.556028376551402
 20
5.795744946379745
 30
0.0
 10
2.557365500333033
 20
5.791395609366149
 30
0.0
 10
2.561126389975922
 20
5.782975308502937
 30
0.0
 10
2.563548503783367
 20
5.778904160321729
 30
0.0
 10
2.569647932611712
 20
5.771052584025838
 30
0.0
 10
2.573306512034943
 20
5.767317163176136
 30
0.0
 10
2.581728956319889
 20
5.76046551251913
 30
0.0
 10
2.586564699902667
 20
5.75728788292986
 30
0.0
 10
2.597389783209891
 20
5.751642506199809
 30
0.0
 10
2.603259728879407
 20
5.749225483111367
 30
0.0
 10
2.61597842975027
 20
5.745212755632906
 30
0.0
 10
2.6229429003978
 20
5.743607746456673
 30
0.0
 10
2.637146907009619
 20
5.741469183203471
 30
0.0
 10
2.644447344770255
 20
5.740900946197999
 30
0.0
 10
2.65942361515228
 20
5.740831102162191
 30
0.0
 10
2.666751411884703
 20
5.741330026497332
 30
0.0
 10
2.681102453244307
 20
5.743353974568934
 30
0.0
 10
2.688075180699842
 20
5.744890284007601
 30
0.0
 10
2.70098278222043
 20
5.748821651079425
 30
0.0
 10
2.707068306000005
 20
5.75126393543676
 30
0.0
 10
2.717969042833266
 20
5.756817457580577
 30
0.0
 10
2.722862962090174
 20
5.759952955695044
 30
0.0
 10
2.731505119922919
 20
5.766835400164646
 30
0.0
 10
2.735176590154464
 20
5.770513969422103
 30
0.0
 10
2.741385730055484
 20
5.77832293430288
 30
0.0
 10
2.743923719593435
 20
5.782477192786618
 30
0.0
 10
2.747813427684084
 20
5.790986675258613
 30
0.0
 10
2.749191702855039
 20
5.79536817156451
 30
0.0
 10
2.750899875918163
 20
5.804384772976784
 30
0.0
 10
2.751219318807418
 20
5.809015113574252
 30
0.0
 10
2.750847770115453
 20
5.818278494603273
 30
0.0
 10
2.750164176924522
 20
5.822943151933577
 30
0.0
 10
2.747818696131883
 20
5.832335701575136
 30
0.0
 10
2.746140263378037
 20
5.83708838823893
 30
0.0
 10
2.739732373996808
 20
5.851035961322361
 30
0.0
 10
2.733671143886587
 20
5.860069868036963
 30
0.0
 10
2.721286238959482
 20
5.872841026120621
 30
0.0
 10
2.716698174812894
 20
5.876856125253066
 30
0.0
 10
2.706452051938071
 20
5.884279914085075
 30
0.0
 10
2.700715389987804
 20
5.887723668672278
 30
0.0
 10
2.68836029245414
 20
5.893504658311279
 30
0.0
 10
2.681655276924313
 20
5.895887741069166
 30
0.0
 10
2.667468516879116
 20
5.899167853027278
 30
0.0
 10
2.660151784693833
 20
5.900035637552075
 30
0.0
 10
2.645167666169759
 20
5.900035637552076
 30
0.0
  0
LINE
  5
1F1
330
1F
100
AcDbEntity
  8
0
  6
CONTINUOUS
 62
     7
100
AcDbLine
 10
2.9249694367
 20
7.6632415286
 30
0.0
 11
2.8724759984
 21
7.6632415286
 31
0.0
  0
LINE
  5
1F2
330
1F
100
AcDbEntity
  8
0
  6
CONTINUOUS
 62
     7
100
AcDbLine
 10
2.8724759984
 20
7.7743393436
 30
0.0
 11
2.8724759984
 21
6.6916621783
 31
0.0
  0
LINE
  5
1F3
330
1F
100
AcDbEntity
  8
0
  6
CONTINUOUS
 62
     7
100
AcDbLine
 10
2.4558093317
 20
6.6916621783
 30
0.0
 11
2.8724759984
 21
6.6916621783
 31
0.0
  0
LINE
  5
1F4
330
1F
100
AcDbEntity
  8
0
  6
CONTINUOUS
 62
     7
100
AcDbLine
 10
2.4558093317
 20
6.6916621783
 30
0.0
 11
2.4558093317
 21
7.7743393436
 31
0.0
  0
LINE
  5
1F5
330
1F
100
AcDbEntity
  8
0
  6
CONTINUOUS
 62
     7
100
AcDbLine
 10
2.4558093317
 20
5.5696149342
 30
0.0
 11
2.4558093317
 21
6.6522920995
 31
0.0
  0
LINE
  5
1F6
330
1F
100
AcDbEntity
  8
0
  6
CONTINUOUS
 62
     7
100
AcDbLine
 10
2.4558093317
 20
6.6522920995
 30
0.0
 11
2.8724759984
 21
6.6522920995
 31
0.0
  0
LINE
  5
1F7
330
1F
100
AcDbEntity
  8
0
  6
CONTINUOUS
 62
     7
100
AcDbLine
 10
2.8724759984
 20
6.6522920995
 30
0.0
 11
2.8724759984
 21
5.5696149342
 31
0.0
  0
LINE
  5
1F8
330
1F
100
AcDbEntity
  8
0
  6
CONTINUOUS
 62
     7
100
AcDbLine
 10
2.8724759984
 20
5.6807127493
 30
0.0
 11
2.9249694367
 21
5.6807127493
 31
0.0
  0
LINE
  5
1F9
330
1F
100
AcDbEntity
  8
0
  6
CONTINUOUS
 62
     7
100
AcDbLine
 10
2.9249694367
 20
5.5696149342
 30
0.0
 11
2.9249694367
 21
7.7743393436
 31
0.0
  0
LINE
  5
1FA
330
1F
100
AcDbEntity
  8
0
  6
CONTINUOUS
 62
     7
100
AcDbLine
 10
2.4558093317
 20
6.6916621783
 30
0.0
 11
2.4408093317
 21
6.6916621783
 31
0.0
  0
LINE
  5
1FB
330
1F
100
AcDbEntity
  8
0
  6
CONTINUOUS
 62
     7
100
AcDbLine
 10
2.4408093317
 20
6.6522920995
 30
0.0
 11
2.4408093317
 21
5.5846149342
 31
0.0
  0
LINE
  5
1FC
330
1F
100
AcDbEntity
  8
0
  6
CONTINUOUS
 62
     7
100
AcDbLine
 10
2.4408093317
 20
7.7593393436
 30
0.0
 11
2.4408093317
 21
6.6916621783
 31
0.0
  0
LINE
  5
1FD
330
1F
100
AcDbEntity
  8
0
  6
CONTINUOUS
 62
     7
100
AcDbLine
 10
2.4558093317
 20
6.6522920995
 30
0.0
 11
2.4408093317
 21
6.6522920995
 31
0.0
  0
LINE
  5
1FE
330
1F
100
AcDbEntity
  8
0
  6
CONTINUOUS
 62
     7
100
AcDbLine
 10
3.3660061821
 20
6.8198710277
 30
0.0
 11
3.2872660246
 21
6.8198710277
 31
0.0
  0
LINE
  5
1FF
330
1F
100
AcDbEntity
  8
0
  6
CONTINUOUS
 62
     7
100
AcDbLine
 10
3.3660061821
 20
6.5240832501
 30
0.0
 11
3.2872660246
 21
6.5240832501
 31
0.0
  0
LINE
  5
200
330
1F
100
AcDbEntity
  8
0
  6
CONTINUOUS
 62
     7
100
AcDbLine
 10
3.3660061821
 20
6.8198710277
 30
0.0
 11
3.3660061821
 21
6.5240832501
 31
0.0
  0
LINE
  5
201
330
1F
100
AcDbEntity
  8
0
  6
CONTINUOUS
 62
     7
100
AcDbLine
 10
3.2872660246
 20
6.8198710277
 30
0.0
 11
3.2872660246
 21
6.5240832501
 31
0.0
  0
LINE
  5
202
330
1F
100
AcDbEntity
  8
0
  6
CONTINUOUS
 62
     7
100
AcDbLine
 10
3.3660061821
 20
7.6712489805
 30
0.0
 11
3.2872660246
 21
7.6712489805
 31
0.0
  0
LINE
  5
203
330
1F
100
AcDbEntity
  8
0
  6
CONTINUOUS
 62
     7
100
AcDbLine
 10
3.3660061821
 20
7.6712489805
 30
0.0
 11
3.3660061821
 21
6.8198710277
 31
0.0
  0
LINE
  5
204
330
1F
100
AcDbEntity
  8
0
  6
CONTINUOUS
 62
     7
100
AcDbLine
 10
3.2872660246
 20
7.6712489805
 30
0.0
 11
3.2872660246
 21
6.8198710277
 31
0.0
  0
LINE
  5
205
330
1F
100
AcDbEntity
  8
0
  6
CONTINUOUS
 62
     7
100
AcDbLine
 10
3.3660061821
 20
5.6727052974
 30
0.0
 11
3.2872660246
 21
5.6727052974
 31
0.0
  0
LINE
  5
206
330
1F
100
AcDbEntity
  8
0
  6
CONTINUOUS
 62
     7
100
AcDbLine
 10
3.3660061821
 20
6.5240832501
 30
0.0
 11
3.3660061821
 21
5.6727052974
 31
0.0
  0
LINE
  5
207
330
1F
100
AcDbEntity
  8
0
  6
CONTINUOUS
 62
     7
100
AcDbLine
 10
3.2872660246
 20
6.5240832501
 30
0.0
 11
3.2872660246
 21
5.6727052974
 31
0.0
  0
SPLINE
  5
208
330
1F
100
AcDbEntity
  8
0
  6
CONTINUOUS
 62
     7
100
AcDbSpline
210
0.0
220
0.0
230
1.0
 70
     8
 71
     3
 72
     8
 73
     4
 74
     0
 42
0.00000001
 43
0.00000001
 40
0.0
 40
0.0
 40
0.0
 40
0.0
 40
1.0
 40
1.0
 40
1.0
 40
1.0
 10
2.773911176779009
 20
6.691662178286504
 30
0.0
 10
2.773136578274912
 20
6.678538818706452
 30
0.0
 10
2.773136578274912
 20
6.665415459126399
 30
0.0
 10
2.773911176779009
 20
6.652292099546346
 30
0.0
  0
LINE
  5
209
330
1F
100
AcDbEntity
  8
0
  6
CONTINUOUS
 62
     7
100
AcDbLine
 10
2.8724759984
 20
6.6916621783
 30
0.0
 11
2.8724759984
 21
6.6522920995
 31
0.0
  0
LINE
  5
20A
330
1F
100
AcDbEntity
  8
0
  6
CONTINUOUS
 62
     7
100
AcDbLine
 10
3.3660061821
 20
7.732508635
 30
0.0
 11
3.3660061821
 21
7.6712489805
 31
0.0
  0
LINE
  5
20B
330
1F
100
AcDbEntity
  8
0
  6
CONTINUOUS
 62
     7
100
AcDbLine
 10
3.2872660246
 20
7.732508635
 30
0.0
 11
3.2872660246
 21
7.6712489805
 31
0.0
  0
LINE
  5
20C
330
1F
100
AcDbEntity
  8
0
  6
CONTINUOUS
 62
     7
100
AcDbLine
 10
3.3660061821
 20
5.6727052974
 30
0.0
 11
3.3660061821
 21
5.6114456429
 31
0.0
  0
LINE
  5
20D
330
1F
100
AcDbEntity
  8
0
  6
CONTINUOUS
 62
     7
100
AcDbLine
 10
3.2872660246
 20
5.6727052974
 30
0.0
 11
3.2872660246
 21
5.6114456429
 31
0.0
  0
LINE
  5
20E
330
1F
100
AcDbEntity
  8
0
  6
CONTINUOUS
 62
     7
100
AcDbLine
 10
2.4408093317
 20
6.6916621783
 30
0.0
 11
2.4408093317
 21
6.6522920995
 31
0.0
  0
LINE
  5
20F
330
1F
100
AcDbEntity
  8
0
  6
CONTINUOUS
 62
     8
100
AcDbLine
 10
2.6526597254
 20
7.4101661153
 30
0.0
 11
2.7580450755
 21
7.4101661153
 31
0.0
  0
LINE
  5
210
330
1F
100
AcDbEntity
  8
0
  6
CONTINUOUS
 62
     8
100
AcDbLine
 10
2.5473941302
 20
7.4101661153
 30
0.0
 11
2.6526597254
 21
7.4101661153
 31
0.0
  0
CIRCLE
  5
211
330
1F
100
AcDbEntity
  8
0
  6
HIDDEN
 62
     7
100
AcDbCircle
 10
4.0006124813
 20
5.9834406157
 30
0.0
 40
0.0984251968503935
  0
LINE
  5
212
330
1F
100
AcDbEntity
  8
0
  6
HIDDEN
 62
     7
100
AcDbLine
 10
3.7807962084
 20
6.3970905239
 30
0.0
 11
4.197462875
 21
6.3970905239
 31
0.0
  0
LINE
  5
213
330
1F
100
AcDbEntity
  8
0
  6
HIDDEN
 62
     7
100
AcDbLine
 10
4.197462875
 20
6.946863754
 30
0.0
 11
3.87936103
 21
6.946863754
 31
0.0
  0
POLYLINE
  5
214
330
1F
100
AcDbEntity
  8
0
  6
HIDDEN
 62
     7
100
AcDb2dPolyline
 66
     1
 10
0.0
 20
0.0
 30
0.0
  0
VERTEX
  5
2BA
330
214
100
AcDbEntity
  8
0
  6
HIDDEN
 62
     7
100
AcDbVertex
100
AcDb2dVertex
 10
3.87936103
 20
6.946863754
 30
0.0
  0
VERTEX
  5
2BB
330
214
100
AcDbEntity
  8
0
  6
HIDDEN
 62
     7
100
AcDbVertex
100
AcDb2dVertex
 10
3.87936103
 20
6.946863754
 30
0.0
  0
SEQEND
  5
2BC
330
214
100
AcDbEntity
  8
0
  6
HIDDEN
 62
     7
  0
ARC
  5
215
330
1F
100
AcDbEntity
  8
0
  6
HIDDEN
 62
     7
100
AcDbCircle
 10
4.212462875
 20
6.6723108958
 30
0.0
 40
0.4316666666666658
100
AcDbArc
 50
90.0
 51
140.5035962223
  0
LINE
  5
216
330
1F
100
AcDbEntity
  8
0
  6
HIDDEN
 62
     7
100
AcDbLine
 10
4.197462875
 20
6.946863754
 30
0.0
 11
4.212462875
 21
6.9619001764
 31
0.0
  0
LINE
  5
217
330
1F
100
AcDbEntity
  8
0
  6
HIDDEN
 62
     7
100
AcDbLine
 10
4.212462875
 20
6.3820541014
 30
0.0
 11
4.197462875
 21
6.3970905239
 31
0.0
  0
CIRCLE
  5
218
330
1F
100
AcDbEntity
  8
0
  6
HIDDEN
 62
     7
100
AcDbCircle
 10
4.0006124813
 20
5.9834406157
 30
0.0
 40
0.0787401574803139
  0
LINE
  5
219
330
1F
100
AcDbEntity
  8
0
  6
HIDDEN
 62
     7
100
AcDbLine
 10
2.6526597254
 20
7.233000761
 30
0.0
 11
2.4853368908
 21
7.233000761
 31
0.0
  0
LINE
  5
21A
330
1F
100
AcDbEntity
  8
0
  6
HIDDEN
 62
     7
100
AcDbLine
 10
2.8199825601
 20
7.233000761
 30
0.0
 11
2.6526597254
 21
7.233000761
 31
0.0
  0
LINE
  5
21B
330
1F
100
AcDbEntity
  8
0
  6
HIDDEN
 62
     7
100
AcDbLine
 10
2.5286876279
 20
7.4298511547
 30
0.0
 11
2.5050219302
 21
7.4298511547
 31
0.0
  0
LINE
  5
21C
330
1F
100
AcDbEntity
  8
0
  6
HIDDEN
 62
     7
100
AcDbLine
 10
2.8002975207
 20
7.4298511547
 30
0.0
 11
2.7776978621
 21
7.4298511547
 31
0.0
  0
LINE
  5
21D
330
1F
100
AcDbEntity
  8
0
  6
HIDDEN
 62
     7
100
AcDbLine
 10
2.5543143516
 20
6.0026858003
 30
0.0
 11
2.7510050993
 21
6.0026858003
 31
0.0
  0
LINE
  5
21E
330
1F
100
AcDbEntity
  8
0
  6
HIDDEN
 62
     7
100
AcDbLine
 10
2.573919568
 20
5.983000761
 30
0.0
 11
2.7313998829
 21
5.983000761
 31
0.0
  0
LINE
  5
21F
330
1F
100
AcDbEntity
  8
0
  6
HIDDEN
 62
     7
100
AcDbLine
 10
2.6526597254
 20
7.2723708397
 30
0.0
 11
2.6526597254
 21
7.4298511547
 31
0.0
  0
LINE
  5
220
330
1F
100
AcDbEntity
  8
0
  6
HIDDEN
 62
     7
100
AcDbLine
 10
2.7313998829
 20
7.2723708397
 30
0.0
 11
2.6526597254
 21
7.2723708397
 31
0.0
  0
LINE
  5
221
330
1F
100
AcDbEntity
  8
0
  6
HIDDEN
 62
     7
100
AcDbLine
 10
2.6526597254
 20
7.2723708397
 30
0.0
 11
2.573919568
 21
7.2723708397
 31
0.0
  0
LINE
  5
222
330
1F
100
AcDbEntity
  8
0
  6
HIDDEN
 62
     7
100
AcDbLine
 10
2.7313998829
 20
7.2723708397
 30
0.0
 11
2.7313998829
 21
7.4298511547
 31
0.0
  0
LINE
  5
223
330
1F
100
AcDbEntity
  8
0
  6
HIDDEN
 62
     7
100
AcDbLine
 10
2.573919568
 20
7.2723708397
 30
0.0
 11
2.573919568
 21
7.4298511547
 31
0.0
  0
LINE
  5
224
330
1F
100
AcDbEntity
  8
0
  6
HIDDEN
 62
     7
100
AcDbLine
 10
2.4558093317
 20
6.6916621783
 30
0.0
 11
2.4558093317
 21
6.6522920995
 31
0.0
  0
LINE
  5
225
330
1F
100
AcDbEntity
  8
0
  6
HIDDEN
 62
     7
100
AcDbLine
 10
3.3660061821
 20
7.6712489805
 30
0.0
 11
3.2872660246
 21
7.6712489805
 31
0.0
  0
LINE
  5
226
330
1F
100
AcDbEntity
  8
0
  6
HIDDEN
 62
     7
100
AcDbLine
 10
3.3660061821
 20
5.6727052974
 30
0.0
 11
3.2872660246
 21
5.6727052974
 31
0.0
  0
LINE
  5
227
330
1F
100
AcDbEntity
  8
0
  6
HIDDEN
 62
     7
100
AcDbLine
 10
3.3660061821
 20
6.5240832501
 30
0.0
 11
3.2872660246
 21
6.5240832501
 31
0.0
  0
LINE
  5
228
330
1F
100
AcDbEntity
  8
0
  6
HIDDEN
 62
     7
100
AcDbLine
 10
3.3660061821
 20
6.8198710277
 30
0.0
 11
3.2872660246
 21
6.8198710277
 31
0.0
  0
LINE
  5
229
330
1F
100
AcDbEntity
  8
0
  6
HIDDEN
 62
     7
100
AcDbLine
 10
3.87936103
 20
6.9475676901
 30
0.0
 11
3.7807962084
 21
6.9475676901
 31
0.0
  0
LINE
  5
22A
330
1F
100
AcDbEntity
  8
0
  6
HIDDEN
 62
     7
100
AcDbLine
 10
3.7283027701
 20
6.9475676901
 30
0.0
 11
3.4250613002
 21
6.9475676901
 31
0.0
  0
LINE
  5
22B
330
1F
100
AcDbEntity
  8
0
  6
HIDDEN
 62
     7
100
AcDbLine
 10
3.4250613002
 20
6.3963865877
 30
0.0
 11
3.7283027701
 21
6.3963865877
 31
0.0
  0
LINE
  5
22C
330
1F
100
AcDbEntity
  8
0
  6
HIDDEN
 62
     7
100
AcDbLine
 10
2.8199825601
 20
7.233000761
 30
0.0
 11
2.8199825601
 21
7.4101661153
 31
0.0
  0
LINE
  5
22D
330
1F
100
AcDbEntity
  8
0
  6
HIDDEN
 62
     7
100
AcDbLine
 10
2.4853368908
 20
7.4101661153
 30
0.0
 11
2.4853368908
 21
7.233000761
 31
0.0
  0
ARC
  5
22E
330
1F
100
AcDbEntity
  8
0
  6
HIDDEN
 62
     7
100
AcDbCircle
 10
2.5050219302
 20
7.4101661153
 30
0.0
 40
0.0196850393700796
100
AcDbArc
 50
90.0
 51
180.0
  0
ARC
  5
22F
330
1F
100
AcDbEntity
  8
0
  6
HIDDEN
 62
     7
100
AcDbCircle
 10
2.8002975207
 20
7.4101661153
 30
0.0
 40
0.0196850393700796
100
AcDbArc
 50
0.0
 51
90.0
  0
LINE
  5
230
330
1F
100
AcDbEntity
  8
0
  6
HIDDEN
 62
     7
100
AcDbLine
 10
2.5542345286
 20
7.233000761
 30
0.0
 11
2.5542345286
 21
6.6916621783
 31
0.0
  0
LINE
  5
231
330
1F
100
AcDbEntity
  8
0
  6
HIDDEN
 62
     7
100
AcDbLine
 10
2.5542345286
 20
6.6522920995
 30
0.0
 11
2.5542345286
 21
6.0026858003
 31
0.0
  0
LINE
  5
232
330
1F
100
AcDbEntity
  8
0
  6
HIDDEN
 62
     7
100
AcDbLine
 10
2.7510849223
 20
6.0026858003
 30
0.0
 11
2.7510849223
 21
6.6522920995
 31
0.0
  0
LINE
  5
233
330
1F
100
AcDbEntity
  8
0
  6
HIDDEN
 62
     7
100
AcDbLine
 10
2.7510849223
 20
6.6916621783
 30
0.0
 11
2.7510849223
 21
7.233000761
 31
0.0
  0
ARC
  5
234
330
1F
100
AcDbEntity
  8
0
  6
HIDDEN
 62
     7
100
AcDbCircle
 10
2.7313998829
 20
6.0026858003
 30
0.0
 40
0.0196850393700787
100
AcDbArc
 50
270.0
 51
0.0
  0
ARC
  5
235
330
1F
100
AcDbEntity
  8
0
  6
HIDDEN
 62
     7
100
AcDbCircle
 10
2.573919568
 20
6.0026858003
 30
0.0
 40
0.0196850393700787
100
AcDbArc
 50
180.0
 51
270.0
  0
LINE
  5
236
330
1F
100
AcDbEntity
  8
0
  6
HIDDEN
 62
     7
100
AcDbLine
 10
2.8199825601
 20
7.233000761
 30
0.0
 11
2.8199825601
 21
7.5327002054
 31
0.0
  0
LINE
  5
237
330
1F
100
AcDbEntity
  8
0
  6
HIDDEN
 62
     7
100
AcDbLine
 10
2.4853368908
 20
7.5326988501
 30
0.0
 11
2.4853368908
 21
7.233000761
 31
0.0
  0
LINE
  5
238
330
1F
100
AcDbEntity
  8
0
  6
HIDDEN
 62
     7
100
AcDbLine
 10
2.5542345286
 20
6.6522920995
 30
0.0
 11
2.5542345286
 21
5.8111833798
 31
0.0
  0
LINE
  5
239
330
1F
100
AcDbEntity
  8
0
  6
HIDDEN
 62
     7
100
AcDbLine
 10
2.7510849223
 20
5.8111785312
 30
0.0
 11
2.7510849223
 21
6.6522920995
 31
0.0
  0
LINE
  5
23A
330
1F
100
AcDbEntity
  8
0
  6
HIDDEN
 62
     7
100
AcDbLine
 10
2.5542345286
 20
7.233000761
 30
0.0
 11
2.5542345286
 21
6.6916621783
 31
0.0
  0
LINE
  5
23B
330
1F
100
AcDbEntity
  8
0
  6
HIDDEN
 62
     7
100
AcDbLine
 10
2.7510849223
 20
6.6916621783
 30
0.0
 11
2.7510849223
 21
7.233000761
 31
0.0
  0
LINE
  5
23C
330
1F
100
AcDbEntity
  8
0
  6
HIDDEN
 62
     7
100
AcDbLine
 10
3.3660061821
 20
7.0263078476
 30
0.0
 11
3.2872660246
 21
7.0263078476
 31
0.0
  0
LINE
  5
23D
330
1F
100
AcDbEntity
  8
0
  6
HIDDEN
 62
     7
100
AcDbLine
 10
3.2872660246
 20
6.3176464303
 30
0.0
 11
3.3660061821
 21
6.3176464303
 31
0.0
  0
LINE
  5
23E
330
1F
100
AcDbEntity
  8
0
  6
HIDDEN
 62
     7
100
AcDbLine
 10
2.4558093317
 20
6.9475676901
 30
0.0
 11
2.4408093317
 21
6.9625676901
 31
0.0
  0
LINE
  5
23F
330
1F
100
AcDbEntity
  8
0
  6
HIDDEN
 62
     7
100
AcDbLine
 10
2.4408093317
 20
6.3813865877
 30
0.0
 11
2.4558093317
 21
6.3963865877
 31
0.0
  0
LINE
  5
240
330
1F
100
AcDbEntity
  8
0
  6
HIDDEN
 62
     7
100
AcDbLine
 10
2.9249694367
 20
6.3963865877
 30
0.0
 11
3.2282109065
 21
6.3963865877
 31
0.0
  0
LINE
  5
241
330
1F
100
AcDbEntity
  8
0
  6
HIDDEN
 62
     7
100
AcDbLine
 10
3.2282109065
 20
6.9475676901
 30
0.0
 11
2.9249694367
 21
6.9475676901
 31
0.0
  0
LINE
  5
242
330
1F
100
AcDbEntity
  8
0
  6
HIDDEN
 62
     7
100
AcDbLine
 10
2.4558093317
 20
6.3963865877
 30
0.0
 11
2.8724759984
 21
6.3963865877
 31
0.0
  0
LINE
  5
243
330
1F
100
AcDbEntity
  8
0
  6
HIDDEN
 62
     7
100
AcDbLine
 10
2.8724759984
 20
6.9475676901
 30
0.0
 11
2.4558093317
 21
6.9475676901
 31
0.0
  0
LINE
  5
244
330
1F
100
AcDbEntity
  8
0
  6
HIDDEN
 62
     7
100
AcDbLine
 10
2.4854162487
 20
7.4101661153
 30
0.0
 11
2.8199032022
 21
7.4101661153
 31
0.0
  0
LINE
  5
245
330
1F
100
AcDbEntity
  8
0
  6
CONTINUOUS
 62
     7
100
AcDbLine
 10
8.7894345932
 20
5.5969213772
 30
0.0
 11
8.800039471
 21
5.6030454332
 31
0.0
  0
LINE
  5
246
330
1F
100
AcDbEntity
  8
0
  6
CONTINUOUS
 62
     7
100
AcDbLine
 10
9.5687956948
 20
6.9347145605
 30
0.0
 11
9.5687956948
 21
6.9469606822
 31
0.0
  0
LINE
  5
247
330
1F
100
AcDbEntity
  8
0
  6
CONTINUOUS
 62
     7
100
AcDbLine
 10
8.1242931976
 20
5.6080130254
 30
0.0
 11
8.2381715951
 21
5.5422724258
 31
0.0
  0
LINE
  5
248
330
1F
100
AcDbEntity
  8
0
  6
CONTINUOUS
 62
     7
100
AcDbLine
 10
7.9435437697
 20
5.7123574491
 30
0.0
 11
8.072270084
 21
5.6380453296
 31
0.0
  0
LINE
  5
249
330
1F
100
AcDbEntity
  8
0
  6
CONTINUOUS
 62
     7
100
AcDbLine
 10
7.6920012038
 20
5.8575698814
 30
0.0
 11
7.9064253034
 21
5.7337854835
 31
0.0
  0
LINE
  5
24A
330
1F
100
AcDbEntity
  8
0
  6
CONTINUOUS
 62
     7
100
AcDbLine
 10
9.3404442138
 20
7.4516714925
 30
0.0
 11
8.7942738225
 21
7.7669689481
 31
0.0
  0
SPLINE
  5
24B
330
1F
100
AcDbEntity
  8
0
  6
CONTINUOUS
 62
     7
100
AcDbSpline
210
0.0
220
0.0
230
1.0
 70
     8
 71
     3
 72
    30
 73
    26
 74
     0
 42
0.00000001
 43
0.00000001
 40
0.0
 40
0.0
 40
0.0
 40
0.0
 40
0.0094927499942476
 40
0.0554194439350432
 40
0.1018412579737399
 40
0.1484434784672388
 40
0.1949982756464697
 40
0.2414452224589793
 40
0.2877805458683134
 40
0.3340292696021641
 40
0.3802295901131117
 40
0.4264254478929631
 40
0.4726557903586596
 40
0.5189606043154241
 40
0.5653880009177861
 40
0.6119832865983127
 40
0.6587814961609262
 40
0.7057908741754061
 40
0.7529610072998387
 40
0.8000552543874927
 40
0.8467051386877658
 40
0.8924583290707511
 40
0.9369829837224873
 40
0.9802805430074369
 40
0.9999999999999999
 40
0.9999999999999999
 40
0.9999999999999999
 40
0.9999999999999999
 10
8.29918559264784
 20
6.960795963461067
 30
0.0
 10
8.298446546551823
 20
6.961503718509094
 30
0.0
 10
8.294131935537266
 20
6.965635649849077
 30
0.0
 10
8.284531853332629
 20
6.972246272951475
 30
0.0
 10
8.270451000027446
 20
6.980507197549418
 30
0.0
 10
8.254772011156328
 20
6.98757816832826
 30
0.0
 10
8.237936387074217
 20
6.99347716282989
 30
0.0
 10
8.220141308168547
 20
6.998113968658016
 30
0.0
 10
8.201637961089814
 20
7.001457198733399
 30
0.0
 10
8.182659068545787
 20
7.003478481664215
 30
0.0
 10
8.163442379547151
 20
7.004163110553596
 30
0.0
 10
8.144225573453864
 20
7.003506074144601
 30
0.0
 10
8.125246279782422
 20
7.001513001825906
 30
0.0
 10
8.10673814657571
 20
6.998199425743446
 30
0.0
 10
8.08892780351962
 20
6.993589165832641
 30
0.0
 10
8.072033974625995
 20
6.98771216766672
 30
0.0
 10
8.056269841779963
 20
6.980603157409449
 30
0.0
 10
8.04184688365809
 20
6.972302140831591
 30
0.0
 10
8.028990863201065
 20
6.962865421792388
 30
0.0
 10
8.017935812854363
 20
6.952382535142543
 30
0.0
 10
8.008932151479677
 20
6.941000429389387
 30
0.0
 10
8.002131485704522
 20
6.928931959645002
 30
0.0
 10
7.997824882604094
 20
6.916449939881924
 30
0.0
 10
7.99583373935119
 20
6.90602909293058
 30
0.0
 10
7.99611884963711
 20
6.899887311388886
 30
0.0
 10
7.996208067127137
 20
6.897965408320105
 30
0.0
  0
SPLINE
  5
24C
330
1F
100
AcDbEntity
  8
0
  6
CONTINUOUS
 62
     7
100
AcDbSpline
210
0.0
220
0.0
230
1.0
 70
     8
 71
     3
 72
    15
 73
    11
 74
     0
 42
0.00000001
 43
0.00000001
 40
0.0
 40
0.0
 40
0.0
 40
0.0
 40
0.0932162909762298
 40
0.2442133260151517
 40
0.3958345275696624
 40
0.5469562519789614
 40
0.6975173670266838
 40
0.8478127018700061
 40
0.9982740074451621
 40
1.0
 40
1.0
 40
1.0
 40
1.0
 10
7.148702998642769
 20
7.453994461674924
 30
0.0
 10
7.148535742826852
 20
7.451392264332402
 30
0.0
 10
7.148097556554128
 20
7.444574880146551
 30
0.0
 10
7.149367320692457
 20
7.432878251068812
 30
0.0
 10
7.152218197293987
 20
7.419249238696669
 30
0.0
 10
7.156731164551418
 20
7.405554999542787
 30
0.0
 10
7.162638024510935
 20
7.392091219571739
 30
0.0
 10
7.169962417643629
 20
7.379300683452544
 30
0.0
 10
7.175362568197567
 20
7.370912167307456
 30
0.0
 10
7.178506397021926
 20
7.367212716924135
 30
0.0
 10
7.1785420519367
 20
7.367170760572343
 30
0.0
  0
SPLINE
  5
24D
330
1F
100
AcDbEntity
  8
0
  6
CONTINUOUS
 62
     7
100
AcDbSpline
210
0.0
220
0.0
230
1.0
 70
     8
 71
     3
 72
    21
 73
    17
 74
     0
 42
0.00000001
 43
0.00000001
 40
0.0
 40
0.0
 40
0.0
 40
0.0
 40
0.0610176176508784
 40
0.1419360435819343
 40
0.2229815329281306
 40
0.3042383129974018
 40
0.3857859980237697
 40
0.4676869384998598
 40
0.5128336969807843
 40
0.5566946972449814
 40
0.6391196595698326
 40
0.7215336205850311
 40
0.8031396828165818
 40
0.8831458481929927
 40
0.960989775276324
 40
1.0
 40
1.0
 40
1.0
 40
1.0
 10
8.307805679650434
 20
8.046763979680573
 30
0.0
 10
8.305311970768477
 20
8.05090316726157
 30
0.0
 10
8.299511233437574
 20
8.060531532502765
 30
0.0
 10
8.289146592508104
 20
8.07467930511284
 30
0.0
 10
8.277085061766162
 20
8.089115254342685
 30
0.0
 10
8.264206554038886
 20
8.102281276199015
 30
0.0
 10
8.250694642683808
 20
8.114032747440401
 30
0.0
 10
8.238788386180024
 20
8.122660636527783
 30
0.0
 10
8.228873635812773
 20
8.128765164621049
 30
0.0
 10
8.21884034307482
 20
8.134186028477181
 30
0.0
 10
8.206510599496227
 20
8.139532609695019
 30
0.0
 10
8.191921985990374
 20
8.14376489595731
 30
0.0
 10
8.177562605030984
 20
8.14581080507966
 30
0.0
 10
8.16379210256715
 20
8.145455968864624
 30
0.0
 10
8.152733373983692
 20
8.143616217681673
 30
0.0
 10
8.146718878812301
 20
8.141088007751442
 30
0.0
 10
8.144711018547113
 20
8.140243998052156
 30
0.0
  0
LINE
  5
24E
330
1F
100
AcDbEntity
  8
0
  6
CONTINUOUS
 62
     7
100
AcDbLine
 10
8.1464787457
 20
8.1409330859
 30
0.0
 11
8.1089091829
 21
8.1626215329
 31
0.0
  0
LINE
  5
24F
330
1F
100
AcDbEntity
  8
0
  6
CONTINUOUS
 62
     7
100
AcDbLine
 10
8.4035370083
 20
7.9925365096
 30
0.0
 11
8.3468610084
 21
8.0252548679
 31
0.0
  0
LINE
  5
250
330
1F
100
AcDbEntity
  8
0
  6
CONTINUOUS
 62
     7
100
AcDbLine
 10
8.6550795742
 20
7.8473240772
 30
0.0
 11
8.4406554746
 21
7.9711084751
 31
0.0
  0
LINE
  5
251
330
1F
100
AcDbEntity
  8
0
  6
CONTINUOUS
 62
     7
100
AcDbLine
 10
7.0066365642
 20
6.2532224662
 30
0.0
 11
7.5528069555
 21
5.9379250106
 31
0.0
  0
LINE
  5
252
330
1F
100
AcDbEntity
  8
0
  6
CONTINUOUS
 62
     7
100
AcDbLine
 10
6.7782850832
 20
6.7701793981
 30
0.0
 11
6.7782850832
 21
6.7579332765
 31
0.0
  0
POLYLINE
  5
253
330
1F
100
AcDbEntity
  8
0
  6
CONTINUOUS
 62
     7
100
AcDb2dPolyline
 66
     1
 10
0.0
 20
0.0
 30
0.0
  0
VERTEX
  5
2BD
330
253
100
AcDbEntity
  8
0
  6
CONTINUOUS
 62
     7
100
AcDbVertex
100
AcDb2dVertex
 10
8.031159323
 20
6.0309823394
 30
0.0
  0
VERTEX
  5
2BE
330
253
100
AcDbEntity
  8
0
  6
CONTINUOUS
 62
     7
100
AcDbVertex
100
AcDb2dVertex
 10
8.0326967673
 20
5.9895711563
 30
0.0
  0
VERTEX
  5
2BF
330
253
100
AcDbEntity
  8
0
  6
CONTINUOUS
 62
     7
100
AcDbVertex
100
AcDb2dVertex
 10
8.035978561
 20
5.9492996803
 30
0.0
  0
VERTEX
  5
2C0
330
253
100
AcDbEntity
  8
0
  6
CONTINUOUS
 62
     7
100
AcDbVertex
100
AcDb2dVertex
 10
8.0409972425
 20
5.9102594728
 30
0.0
  0
VERTEX
  5
2C1
330
253
100
AcDbEntity
  8
0
  6
CONTINUOUS
 62
     7
100
AcDbVertex
100
AcDb2dVertex
 10
8.0477414014
 20
5.8725392957
 30
0.0
  0
VERTEX
  5
2C2
330
253
100
AcDbEntity
  8
0
  6
CONTINUOUS
 62
     7
100
AcDbVertex
100
AcDb2dVertex
 10
8.0561957041
 20
5.8362249099
 30
0.0
  0
VERTEX
  5
2C3
330
253
100
AcDbEntity
  8
0
  6
CONTINUOUS
 62
     7
100
AcDbVertex
100
AcDb2dVertex
 10
8.0663409289
 20
5.8013988798
 30
0.0
  0
VERTEX
  5
2C4
330
253
100
AcDbEntity
  8
0
  6
CONTINUOUS
 62
     7
100
AcDbVertex
100
AcDb2dVertex
 10
8.0781540095
 20
5.7681403861
 30
0.0
  0
VERTEX
  5
2C5
330
253
100
AcDbEntity
  8
0
  6
CONTINUOUS
 62
     7
100
AcDbVertex
100
AcDb2dVertex
 10
8.0916080877
 20
5.7365250454
 30
0.0
  0
VERTEX
  5
2C6
330
253
100
AcDbEntity
  8
0
  6
CONTINUOUS
 62
     7
100
AcDbVertex
100
AcDb2dVertex
 10
8.1066725743
 20
5.7066247384
 30
0.0
  0
VERTEX
  5
2C7
330
253
100
AcDbEntity
  8
0
  6
CONTINUOUS
 62
     7
100
AcDbVertex
100
AcDb2dVertex
 10
8.1233132185
 20
5.6785074467
 30
0.0
  0
VERTEX
  5
2C8
330
253
100
AcDbEntity
  8
0
  6
CONTINUOUS
 62
     7
100
AcDbVertex
100
AcDb2dVertex
 10
8.1414921862
 20
5.6522370977
 30
0.0
  0
VERTEX
  5
2C9
330
253
100
AcDbEntity
  8
0
  6
CONTINUOUS
 62
     7
100
AcDbVertex
100
AcDb2dVertex
 10
8.1611681455
 20
5.62787342
 30
0.0
  0
VERTEX
  5
2CA
330
253
100
AcDbEntity
  8
0
  6
CONTINUOUS
 62
     7
100
AcDbVertex
100
AcDb2dVertex
 10
8.1822963611
 20
5.6054718068
 30
0.0
  0
VERTEX
  5
2CB
330
253
100
AcDbEntity
  8
0
  6
CONTINUOUS
 62
     7
100
AcDbVertex
100
AcDb2dVertex
 10
8.2048287958
 20
5.5850831905
 30
0.0
  0
VERTEX
  5
2CC
330
253
100
AcDbEntity
  8
0
  6
CONTINUOUS
 62
     7
100
AcDbVertex
100
AcDb2dVertex
 10
8.2287142198
 20
5.5667539268
 30
0.0
  0
VERTEX
  5
2CD
330
253
100
AcDbEntity
  8
0
  6
CONTINUOUS
 62
     7
100
AcDbVertex
100
AcDb2dVertex
 10
8.2538983271
 20
5.5505256892
 30
0.0
  0
VERTEX
  5
2CE
330
253
100
AcDbEntity
  8
0
  6
CONTINUOUS
 62
     7
100
AcDbVertex
100
AcDb2dVertex
 10
8.280323859
 20
5.5364353742
 30
0.0
  0
VERTEX
  5
2CF
330
253
100
AcDbEntity
  8
0
  6
CONTINUOUS
 62
     7
100
AcDbVertex
100
AcDb2dVertex
 10
8.3079307343
 20
5.5245150177
 30
0.0
  0
VERTEX
  5
2D0
330
253
100
AcDbEntity
  8
0
  6
CONTINUOUS
 62
     7
100
AcDbVertex
100
AcDb2dVertex
 10
8.3366561858
 20
5.5147917218
 30
0.0
  0
VERTEX
  5
2D1
330
253
100
AcDbEntity
  8
0
  6
CONTINUOUS
 62
     7
100
AcDbVertex
100
AcDb2dVertex
 10
8.3664349034
 20
5.5072875934
 30
0.0
  0
VERTEX
  5
2D2
330
253
100
AcDbEntity
  8
0
  6
CONTINUOUS
 62
     7
100
AcDbVertex
100
AcDb2dVertex
 10
8.3971991819
 20
5.502019694
 30
0.0
  0
VERTEX
  5
2D3
330
253
100
AcDbEntity
  8
0
  6
CONTINUOUS
 62
     7
100
AcDbVertex
100
AcDb2dVertex
 10
8.4288790757
 20
5.4990000007
 30
0.0
  0
VERTEX
  5
2D4
330
253
100
AcDbEntity
  8
0
  6
CONTINUOUS
 62
     7
100
AcDbVertex
100
AcDb2dVertex
 10
8.4614025571
 20
5.498235379
 30
0.0
  0
VERTEX
  5
2D5
330
253
100
AcDbEntity
  8
0
  6
CONTINUOUS
 62
     7
100
AcDbVertex
100
AcDb2dVertex
 10
8.4946956806
 20
5.4997275675
 30
0.0
  0
VERTEX
  5
2D6
330
253
100
AcDbEntity
  8
0
  6
CONTINUOUS
 62
     7
100
AcDbVertex
100
AcDb2dVertex
 10
8.5286827509
 20
5.5034731734
 30
0.0
  0
VERTEX
  5
2D7
330
253
100
AcDbEntity
  8
0
  6
CONTINUOUS
 62
     7
100
AcDbVertex
100
AcDb2dVertex
 10
8.5632864948
 20
5.5094636808
 30
0.0
  0
VERTEX
  5
2D8
330
253
100
AcDbEntity
  8
0
  6
CONTINUOUS
 62
     7
100
AcDbVertex
100
AcDb2dVertex
 10
8.5984282371
 20
5.5176854696
 30
0.0
  0
VERTEX
  5
2D9
330
253
100
AcDbEntity
  8
0
  6
CONTINUOUS
 62
     7
100
AcDbVertex
100
AcDb2dVertex
 10
8.6340280794
 20
5.5281198467
 30
0.0
  0
VERTEX
  5
2DA
330
253
100
AcDbEntity
  8
0
  6
CONTINUOUS
 62
     7
100
AcDbVertex
100
AcDb2dVertex
 10
8.6700050817
 20
5.5407430884
 30
0.0
  0
VERTEX
  5
2DB
330
253
100
AcDbEntity
  8
0
  6
CONTINUOUS
 62
     7
100
AcDbVertex
100
AcDb2dVertex
 10
8.7062774467
 20
5.5555264946
 30
0.0
  0
VERTEX
  5
2DC
330
253
100
AcDbEntity
  8
0
  6
CONTINUOUS
 62
     7
100
AcDbVertex
100
AcDb2dVertex
 10
8.7427627052
 20
5.5724364535
 30
0.0
  0
VERTEX
  5
2DD
330
253
100
AcDbEntity
  8
0
  6
CONTINUOUS
 62
     7
100
AcDbVertex
100
AcDb2dVertex
 10
8.7793779043
 20
5.5914345188
 30
0.0
  0
VERTEX
  5
2DE
330
253
100
AcDbEntity
  8
0
  6
CONTINUOUS
 62
     7
100
AcDbVertex
100
AcDb2dVertex
 10
8.8160397955
 20
5.6124774962
 30
0.0
  0
VERTEX
  5
2DF
330
253
100
AcDbEntity
  8
0
  6
CONTINUOUS
 62
     7
100
AcDbVertex
100
AcDb2dVertex
 10
8.8526650242
 20
5.6355175423
 30
0.0
  0
VERTEX
  5
2E0
330
253
100
AcDbEntity
  8
0
  6
CONTINUOUS
 62
     7
100
AcDbVertex
100
AcDb2dVertex
 10
8.8891703191
 20
5.6605022733
 30
0.0
  0
VERTEX
  5
2E1
330
253
100
AcDbEntity
  8
0
  6
CONTINUOUS
 62
     7
100
AcDbVertex
100
AcDb2dVertex
 10
8.9254726816
 20
5.6873748837
 30
0.0
  0
VERTEX
  5
2E2
330
253
100
AcDbEntity
  8
0
  6
CONTINUOUS
 62
     7
100
AcDbVertex
100
AcDb2dVertex
 10
8.9614895746
 20
5.716074276
 30
0.0
  0
VERTEX
  5
2E3
330
253
100
AcDbEntity
  8
0
  6
CONTINUOUS
 62
     7
100
AcDbVertex
100
AcDb2dVertex
 10
8.9971391098
 20
5.7465351989
 30
0.0
  0
VERTEX
  5
2E4
330
253
100
AcDbEntity
  8
0
  6
CONTINUOUS
 62
     7
100
AcDbVertex
100
AcDb2dVertex
 10
9.0323402343
 20
5.7786883964
 30
0.0
  0
VERTEX
  5
2E5
330
253
100
AcDbEntity
  8
0
  6
CONTINUOUS
 62
     7
100
AcDbVertex
100
AcDb2dVertex
 10
9.0670129148
 20
5.812460765
 30
0.0
  0
VERTEX
  5
2E6
330
253
100
AcDbEntity
  8
0
  6
CONTINUOUS
 62
     7
100
AcDbVertex
100
AcDb2dVertex
 10
9.1010783193
 20
5.8477755196
 30
0.0
  0
VERTEX
  5
2E7
330
253
100
AcDbEntity
  8
0
  6
CONTINUOUS
 62
     7
100
AcDbVertex
100
AcDb2dVertex
 10
9.1344589965
 20
5.8845523684
 30
0.0
  0
VERTEX
  5
2E8
330
253
100
AcDbEntity
  8
0
  6
CONTINUOUS
 62
     7
100
AcDbVertex
100
AcDb2dVertex
 10
9.1670790519
 20
5.9227076954
 30
0.0
  0
VERTEX
  5
2E9
330
253
100
AcDbEntity
  8
0
  6
CONTINUOUS
 62
     7
100
AcDbVertex
100
AcDb2dVertex
 10
9.1988643206
 20
5.9621547506
 30
0.0
  0
VERTEX
  5
2EA
330
253
100
AcDbEntity
  8
0
  6
CONTINUOUS
 62
     7
100
AcDbVertex
100
AcDb2dVertex
 10
9.2297425354
 20
6.002803847
 30
0.0
  0
VERTEX
  5
2EB
330
253
100
AcDbEntity
  8
0
  6
CONTINUOUS
 62
     7
100
AcDbVertex
100
AcDb2dVertex
 10
9.2596434914
 20
6.0445625645
 30
0.0
  0
VERTEX
  5
2EC
330
253
100
AcDbEntity
  8
0
  6
CONTINUOUS
 62
     7
100
AcDbVertex
100
AcDb2dVertex
 10
9.2884992058
 20
6.0873359605
 30
0.0
  0
VERTEX
  5
2ED
330
253
100
AcDbEntity
  8
0
  6
CONTINUOUS
 62
     7
100
AcDbVertex
100
AcDb2dVertex
 10
9.316244072
 20
6.1310267851
 30
0.0
  0
VERTEX
  5
2EE
330
253
100
AcDbEntity
  8
0
  6
CONTINUOUS
 62
     7
100
AcDbVertex
100
AcDb2dVertex
 10
9.3428150092
 20
6.1755357027
 30
0.0
  0
VERTEX
  5
2EF
330
253
100
AcDbEntity
  8
0
  6
CONTINUOUS
 62
     7
100
AcDbVertex
100
AcDb2dVertex
 10
9.3681516056
 20
6.2207615176
 30
0.0
  0
VERTEX
  5
2F0
330
253
100
AcDbEntity
  8
0
  6
CONTINUOUS
 62
     7
100
AcDbVertex
100
AcDb2dVertex
 10
9.3921962559
 20
6.2666014044
 30
0.0
  0
VERTEX
  5
2F1
330
253
100
AcDbEntity
  8
0
  6
CONTINUOUS
 62
     7
100
AcDbVertex
100
AcDb2dVertex
 10
9.414894292
 20
6.3129511411
 30
0.0
  0
VERTEX
  5
2F2
330
253
100
AcDbEntity
  8
0
  6
CONTINUOUS
 62
     7
100
AcDbVertex
100
AcDb2dVertex
 10
9.4361941075
 20
6.3597053469
 30
0.0
  0
VERTEX
  5
2F3
330
253
100
AcDbEntity
  8
0
  6
CONTINUOUS
 62
     7
100
AcDbVertex
100
AcDb2dVertex
 10
9.4560472752
 20
6.4067577212
 30
0.0
  0
VERTEX
  5
2F4
330
253
100
AcDbEntity
  8
0
  6
CONTINUOUS
 62
     7
100
AcDbVertex
100
AcDb2dVertex
 10
9.4744086568
 20
6.4540012856
 30
0.0
  0
VERTEX
  5
2F5
330
253
100
AcDbEntity
  8
0
  6
CONTINUOUS
 62
     7
100
AcDbVertex
100
AcDb2dVertex
 10
9.4912365057
 20
6.5013286268
 30
0.0
  0
VERTEX
  5
2F6
330
253
100
AcDbEntity
  8
0
  6
CONTINUOUS
 62
     7
100
AcDbVertex
100
AcDb2dVertex
 10
9.5064925621
 20
6.5486321413
 30
0.0
  0
VERTEX
  5
2F7
330
253
100
AcDbEntity
  8
0
  6
CONTINUOUS
 62
     7
100
AcDbVertex
100
AcDb2dVertex
 10
9.5201421398
 20
6.5958042796
 30
0.0
  0
VERTEX
  5
2F8
330
253
100
AcDbEntity
  8
0
  6
CONTINUOUS
 62
     7
100
AcDbVertex
100
AcDb2dVertex
 10
9.5321542051
 20
6.6427377909
 30
0.0
  0
VERTEX
  5
2F9
330
253
100
AcDbEntity
  8
0
  6
CONTINUOUS
 62
     7
100
AcDbVertex
100
AcDb2dVertex
 10
9.5425014472
 20
6.689325967
 30
0.0
  0
VERTEX
  5
2FA
330
253
100
AcDbEntity
  8
0
  6
CONTINUOUS
 62
     7
100
AcDbVertex
100
AcDb2dVertex
 10
9.5511603406
 20
6.7354628848
 30
0.0
  0
VERTEX
  5
2FB
330
253
100
AcDbEntity
  8
0
  6
CONTINUOUS
 62
     7
100
AcDbVertex
100
AcDb2dVertex
 10
9.5581111984
 20
6.7810436473
 30
0.0
  0
VERTEX
  5
2FC
330
253
100
AcDbEntity
  8
0
  6
CONTINUOUS
 62
     7
100
AcDbVertex
100
AcDb2dVertex
 10
9.5633382172
 20
6.8259646218
 30
0.0
  0
VERTEX
  5
2FD
330
253
100
AcDbEntity
  8
0
  6
CONTINUOUS
 62
     7
100
AcDbVertex
100
AcDb2dVertex
 10
9.5668295128
 20
6.8701236758
 30
0.0
  0
VERTEX
  5
2FE
330
253
100
AcDbEntity
  8
0
  6
CONTINUOUS
 62
     7
100
AcDbVertex
100
AcDb2dVertex
 10
9.5685771473
 20
6.9134204092
 30
0.0
  0
VERTEX
  5
2FF
330
253
100
AcDbEntity
  8
0
  6
CONTINUOUS
 62
     7
100
AcDbVertex
100
AcDb2dVertex
 10
9.5685771473
 20
6.9557563823
 30
0.0
  0
VERTEX
  5
300
330
253
100
AcDbEntity
  8
0
  6
CONTINUOUS
 62
     7
100
AcDbVertex
100
AcDb2dVertex
 10
9.5668295128
 20
6.9970353398
 30
0.0
  0
VERTEX
  5
301
330
253
100
AcDbEntity
  8
0
  6
CONTINUOUS
 62
     7
100
AcDbVertex
100
AcDb2dVertex
 10
9.5633382172
 20
7.0371634299
 30
0.0
  0
VERTEX
  5
302
330
253
100
AcDbEntity
  8
0
  6
CONTINUOUS
 62
     7
100
AcDbVertex
100
AcDb2dVertex
 10
9.5581111984
 20
7.0760494169
 30
0.0
  0
VERTEX
  5
303
330
253
100
AcDbEntity
  8
0
  6
CONTINUOUS
 62
     7
100
AcDbVertex
100
AcDb2dVertex
 10
9.5511603406
 20
7.1136048897
 30
0.0
  0
VERTEX
  5
304
330
253
100
AcDbEntity
  8
0
  6
CONTINUOUS
 62
     7
100
AcDbVertex
100
AcDb2dVertex
 10
9.5425014472
 20
7.149744462
 30
0.0
  0
VERTEX
  5
305
330
253
100
AcDbEntity
  8
0
  6
CONTINUOUS
 62
     7
100
AcDbVertex
100
AcDb2dVertex
 10
9.5321542051
 20
7.1843859667
 30
0.0
  0
VERTEX
  5
306
330
253
100
AcDbEntity
  8
0
  6
CONTINUOUS
 62
     7
100
AcDbVertex
100
AcDb2dVertex
 10
9.5201421398
 20
7.2174506426
 30
0.0
  0
VERTEX
  5
307
330
253
100
AcDbEntity
  8
0
  6
CONTINUOUS
 62
     7
100
AcDbVertex
100
AcDb2dVertex
 10
9.5064925621
 20
7.2488633139
 30
0.0
  0
VERTEX
  5
308
330
253
100
AcDbEntity
  8
0
  6
CONTINUOUS
 62
     7
100
AcDbVertex
100
AcDb2dVertex
 10
9.4912365057
 20
7.2785525606
 30
0.0
  0
VERTEX
  5
309
330
253
100
AcDbEntity
  8
0
  6
CONTINUOUS
 62
     7
100
AcDbVertex
100
AcDb2dVertex
 10
9.4744086568
 20
7.306450881
 30
0.0
  0
VERTEX
  5
30A
330
253
100
AcDbEntity
  8
0
  6
CONTINUOUS
 62
     7
100
AcDbVertex
100
AcDb2dVertex
 10
9.4560472752
 20
7.3324948455
 30
0.0
  0
VERTEX
  5
30B
330
253
100
AcDbEntity
  8
0
  6
CONTINUOUS
 62
     7
100
AcDbVertex
100
AcDb2dVertex
 10
9.4361941075
 20
7.3566252403
 30
0.0
  0
VERTEX
  5
30C
330
253
100
AcDbEntity
  8
0
  6
CONTINUOUS
 62
     7
100
AcDbVertex
100
AcDb2dVertex
 10
9.414894292
 20
7.3787872025
 30
0.0
  0
VERTEX
  5
30D
330
253
100
AcDbEntity
  8
0
  6
CONTINUOUS
 62
     7
100
AcDbVertex
100
AcDb2dVertex
 10
9.3921962559
 20
7.3989303446
 30
0.0
  0
VERTEX
  5
30E
330
253
100
AcDbEntity
  8
0
  6
CONTINUOUS
 62
     7
100
AcDbVertex
100
AcDb2dVertex
 10
9.3681516056
 20
7.4170088691
 30
0.0
  0
VERTEX
  5
30F
330
253
100
AcDbEntity
  8
0
  6
CONTINUOUS
 62
     7
100
AcDbVertex
100
AcDb2dVertex
 10
9.3428150092
 20
7.4329816725
 30
0.0
  0
VERTEX
  5
310
330
253
100
AcDbEntity
  8
0
  6
CONTINUOUS
 62
     7
100
AcDbVertex
100
AcDb2dVertex
 10
9.316244072
 20
7.446812439
 30
0.0
  0
VERTEX
  5
311
330
253
100
AcDbEntity
  8
0
  6
CONTINUOUS
 62
     7
100
AcDbVertex
100
AcDb2dVertex
 10
9.2884992058
 20
7.458469723
 30
0.0
  0
VERTEX
  5
312
330
253
100
AcDbEntity
  8
0
  6
CONTINUOUS
 62
     7
100
AcDbVertex
100
AcDb2dVertex
 10
9.2596434914
 20
7.4679270203
 30
0.0
  0
VERTEX
  5
313
330
253
100
AcDbEntity
  8
0
  6
CONTINUOUS
 62
     7
100
AcDbVertex
100
AcDb2dVertex
 10
9.2297425354
 20
7.4751628288
 30
0.0
  0
VERTEX
  5
314
330
253
100
AcDbEntity
  8
0
  6
CONTINUOUS
 62
     7
100
AcDbVertex
100
AcDb2dVertex
 10
9.1988643206
 20
7.4801606972
 30
0.0
  0
VERTEX
  5
315
330
253
100
AcDbEntity
  8
0
  6
CONTINUOUS
 62
     7
100
AcDbVertex
100
AcDb2dVertex
 10
9.1670790519
 20
7.4829092624
 30
0.0
  0
VERTEX
  5
316
330
253
100
AcDbEntity
  8
0
  6
CONTINUOUS
 62
     7
100
AcDbVertex
100
AcDb2dVertex
 10
9.1344589965
 20
7.483402275
 30
0.0
  0
VERTEX
  5
317
330
253
100
AcDbEntity
  8
0
  6
CONTINUOUS
 62
     7
100
AcDbVertex
100
AcDb2dVertex
 10
9.1010783193
 20
7.4816386143
 30
0.0
  0
VERTEX
  5
318
330
253
100
AcDbEntity
  8
0
  6
CONTINUOUS
 62
     7
100
AcDbVertex
100
AcDb2dVertex
 10
9.0670129148
 20
7.47762229
 30
0.0
  0
VERTEX
  5
319
330
253
100
AcDbEntity
  8
0
  6
CONTINUOUS
 62
     7
100
AcDbVertex
100
AcDb2dVertex
 10
9.0323402343
 20
7.4713624338
 30
0.0
  0
VERTEX
  5
31A
330
253
100
AcDbEntity
  8
0
  6
CONTINUOUS
 62
     7
100
AcDbVertex
100
AcDb2dVertex
 10
8.9971391098
 20
7.4628732781
 30
0.0
  0
VERTEX
  5
31B
330
253
100
AcDbEntity
  8
0
  6
CONTINUOUS
 62
     7
100
AcDbVertex
100
AcDb2dVertex
 10
8.9614895746
 20
7.4521741238
 30
0.0
  0
VERTEX
  5
31C
330
253
100
AcDbEntity
  8
0
  6
CONTINUOUS
 62
     7
100
AcDbVertex
100
AcDb2dVertex
 10
8.9254726816
 20
7.4392892965
 30
0.0
  0
VERTEX
  5
31D
330
253
100
AcDbEntity
  8
0
  6
CONTINUOUS
 62
     7
100
AcDbVertex
100
AcDb2dVertex
 10
8.8891703191
 20
7.4242480914
 30
0.0
  0
VERTEX
  5
31E
330
253
100
AcDbEntity
  8
0
  6
CONTINUOUS
 62
     7
100
AcDbVertex
100
AcDb2dVertex
 10
8.8526650242
 20
7.407084706
 30
0.0
  0
VERTEX
  5
31F
330
253
100
AcDbEntity
  8
0
  6
CONTINUOUS
 62
     7
100
AcDbVertex
100
AcDb2dVertex
 10
8.8160397955
 20
7.3878381633
 30
0.0
  0
VERTEX
  5
320
330
253
100
AcDbEntity
  8
0
  6
CONTINUOUS
 62
     7
100
AcDbVertex
100
AcDb2dVertex
 10
8.7793779043
 20
7.366552222
 30
0.0
  0
VERTEX
  5
321
330
253
100
AcDbEntity
  8
0
  6
CONTINUOUS
 62
     7
100
AcDbVertex
100
AcDb2dVertex
 10
8.7427627052
 20
7.3432752782
 30
0.0
  0
VERTEX
  5
322
330
253
100
AcDbEntity
  8
0
  6
CONTINUOUS
 62
     7
100
AcDbVertex
100
AcDb2dVertex
 10
8.7062774467
 20
7.3180602543
 30
0.0
  0
VERTEX
  5
323
330
253
100
AcDbEntity
  8
0
  6
CONTINUOUS
 62
     7
100
AcDbVertex
100
AcDb2dVertex
 10
8.6700050817
 20
7.2909644794
 30
0.0
  0
VERTEX
  5
324
330
253
100
AcDbEntity
  8
0
  6
CONTINUOUS
 62
     7
100
AcDbVertex
100
AcDb2dVertex
 10
8.6340280794
 20
7.2620495584
 30
0.0
  0
VERTEX
  5
325
330
253
100
AcDbEntity
  8
0
  6
CONTINUOUS
 62
     7
100
AcDbVertex
100
AcDb2dVertex
 10
8.5984282371
 20
7.2313812324
 30
0.0
  0
VERTEX
  5
326
330
253
100
AcDbEntity
  8
0
  6
CONTINUOUS
 62
     7
100
AcDbVertex
100
AcDb2dVertex
 10
8.5632864948
 20
7.1990292292
 30
0.0
  0
VERTEX
  5
327
330
253
100
AcDbEntity
  8
0
  6
CONTINUOUS
 62
     7
100
AcDbVertex
100
AcDb2dVertex
 10
8.5286827509
 20
7.1650671043
 30
0.0
  0
VERTEX
  5
328
330
253
100
AcDbEntity
  8
0
  6
CONTINUOUS
 62
     7
100
AcDbVertex
100
AcDb2dVertex
 10
8.4946956806
 20
7.1295720741
 30
0.0
  0
VERTEX
  5
329
330
253
100
AcDbEntity
  8
0
  6
CONTINUOUS
 62
     7
100
AcDbVertex
100
AcDb2dVertex
 10
8.4614025571
 20
7.0926248403
 30
0.0
  0
VERTEX
  5
32A
330
253
100
AcDbEntity
  8
0
  6
CONTINUOUS
 62
     7
100
AcDbVertex
100
AcDb2dVertex
 10
8.4288790757
 20
7.0543094064
 30
0.0
  0
VERTEX
  5
32B
330
253
100
AcDbEntity
  8
0
  6
CONTINUOUS
 62
     7
100
AcDbVertex
100
AcDb2dVertex
 10
8.3971991819
 20
7.0147128863
 30
0.0
  0
VERTEX
  5
32C
330
253
100
AcDbEntity
  8
0
  6
CONTINUOUS
 62
     7
100
AcDbVertex
100
AcDb2dVertex
 10
8.3664349034
 20
6.973925307
 30
0.0
  0
VERTEX
  5
32D
330
253
100
AcDbEntity
  8
0
  6
CONTINUOUS
 62
     7
100
AcDbVertex
100
AcDb2dVertex
 10
8.3366561858
 20
6.9320394031
 30
0.0
  0
VERTEX
  5
32E
330
253
100
AcDbEntity
  8
0
  6
CONTINUOUS
 62
     7
100
AcDbVertex
100
AcDb2dVertex
 10
8.3079307343
 20
6.8891504068
 30
0.0
  0
VERTEX
  5
32F
330
253
100
AcDbEntity
  8
0
  6
CONTINUOUS
 62
     7
100
AcDbVertex
100
AcDb2dVertex
 10
8.280323859
 20
6.8453558305
 30
0.0
  0
VERTEX
  5
330
330
253
100
AcDbEntity
  8
0
  6
CONTINUOUS
 62
     7
100
AcDbVertex
100
AcDb2dVertex
 10
8.2538983271
 20
6.8007552459
 30
0.0
  0
VERTEX
  5
331
330
253
100
AcDbEntity
  8
0
  6
CONTINUOUS
 62
     7
100
AcDbVertex
100
AcDb2dVertex
 10
8.2287142198
 20
6.7554500569
 30
0.0
  0
VERTEX
  5
332
330
253
100
AcDbEntity
  8
0
  6
CONTINUOUS
 62
     7
100
AcDbVertex
100
AcDb2dVertex
 10
8.2048287958
 20
6.7095432697
 30
0.0
  0
VERTEX
  5
333
330
253
100
AcDbEntity
  8
0
  6
CONTINUOUS
 62
     7
100
AcDbVertex
100
AcDb2dVertex
 10
8.1822963611
 20
6.663139258
 30
0.0
  0
VERTEX
  5
334
330
253
100
AcDbEntity
  8
0
  6
CONTINUOUS
 62
     7
100
AcDbVertex
100
AcDb2dVertex
 10
8.1611681455
 20
6.6163435263
 30
0.0
  0
VERTEX
  5
335
330
253
100
AcDbEntity
  8
0
  6
CONTINUOUS
 62
     7
100
AcDbVertex
100
AcDb2dVertex
 10
8.1414921862
 20
6.5692624695
 30
0.0
  0
VERTEX
  5
336
330
253
100
AcDbEntity
  8
0
  6
CONTINUOUS
 62
     7
100
AcDbVertex
100
AcDb2dVertex
 10
8.1233132185
 20
6.5220031313
 30
0.0
  0
VERTEX
  5
337
330
253
100
AcDbEntity
  8
0
  6
CONTINUOUS
 62
     7
100
AcDbVertex
100
AcDb2dVertex
 10
8.1066725743
 20
6.4746729607
 30
0.0
  0
VERTEX
  5
338
330
253
100
AcDbEntity
  8
0
  6
CONTINUOUS
 62
     7
100
AcDbVertex
100
AcDb2dVertex
 10
8.0916080877
 20
6.4273795677
 30
0.0
  0
VERTEX
  5
339
330
253
100
AcDbEntity
  8
0
  6
CONTINUOUS
 62
     7
100
AcDbVertex
100
AcDb2dVertex
 10
8.0781540095
 20
6.3802304789
 30
0.0
  0
VERTEX
  5
33A
330
253
100
AcDbEntity
  8
0
  6
CONTINUOUS
 62
     7
100
AcDbVertex
100
AcDb2dVertex
 10
8.0663409289
 20
6.3333328926
 30
0.0
  0
VERTEX
  5
33B
330
253
100
AcDbEntity
  8
0
  6
CONTINUOUS
 62
     7
100
AcDbVertex
100
AcDb2dVertex
 10
8.0561957041
 20
6.2867934353
 30
0.0
  0
VERTEX
  5
33C
330
253
100
AcDbEntity
  8
0
  6
CONTINUOUS
 62
     7
100
AcDbVertex
100
AcDb2dVertex
 10
8.0477414014
 20
6.2407179194
 30
0.0
  0
VERTEX
  5
33D
330
253
100
AcDbEntity
  8
0
  6
CONTINUOUS
 62
     7
100
AcDbVertex
100
AcDb2dVertex
 10
8.0409972425
 20
6.1952111022
 30
0.0
  0
VERTEX
  5
33E
330
253
100
AcDbEntity
  8
0
  6
CONTINUOUS
 62
     7
100
AcDbVertex
100
AcDb2dVertex
 10
8.035978561
 20
6.1503764483
 30
0.0
  0
VERTEX
  5
33F
330
253
100
AcDbEntity
  8
0
  6
CONTINUOUS
 62
     7
100
AcDbVertex
100
AcDb2dVertex
 10
8.0326967673
 20
6.106315894
 30
0.0
  0
VERTEX
  5
340
330
253
100
AcDbEntity
  8
0
  6
CONTINUOUS
 62
     7
100
AcDbVertex
100
AcDb2dVertex
 10
8.031159323
 20
6.0631296155
 30
0.0
  0
SEQEND
  5
341
330
253
100
AcDbEntity
  8
0
  6
CONTINUOUS
 62
     7
  0
LINE
  5
254
330
1F
100
AcDbEntity
  8
0
  6
CONTINUOUS
 62
     7
100
AcDbLine
 10
8.0099444047
 20
6.0631286255
 30
0.0
 11
8.031159323
 21
6.0631296155
 31
0.0
  0
POLYLINE
  5
255
330
1F
100
AcDbEntity
  8
0
  6
CONTINUOUS
 62
     7
100
AcDb2dPolyline
 66
     1
 10
0.0
 20
0.0
 30
0.0
  0
VERTEX
  5
342
330
255
100
AcDbEntity
  8
0
  6
CONTINUOUS
 62
     7
100
AcDbVertex
100
AcDb2dVertex
 10
8.0099444047
 20
6.0631286255
 30
0.0
  0
VERTEX
  5
343
330
255
100
AcDbEntity
  8
0
  6
CONTINUOUS
 62
     7
100
AcDbVertex
100
AcDb2dVertex
 10
8.0114757046
 20
6.1065741689
 30
0.0
  0
VERTEX
  5
344
330
255
100
AcDbEntity
  8
0
  6
CONTINUOUS
 62
     7
100
AcDbVertex
100
AcDb2dVertex
 10
8.0147490729
 20
6.1508940651
 30
0.0
  0
VERTEX
  5
345
330
255
100
AcDbEntity
  8
0
  6
CONTINUOUS
 62
     7
100
AcDbVertex
100
AcDb2dVertex
 10
8.0197571785
 20
6.1959890531
 30
0.0
  0
VERTEX
  5
346
330
255
100
AcDbEntity
  8
0
  6
CONTINUOUS
 62
     7
100
AcDbVertex
100
AcDb2dVertex
 10
8.0264888051
 20
6.2417581361
 30
0.0
  0
VERTEX
  5
347
330
255
100
AcDbEntity
  8
0
  6
CONTINUOUS
 62
     7
100
AcDbVertex
100
AcDb2dVertex
 10
8.0349288761
 20
6.2880988076
 30
0.0
  0
VERTEX
  5
348
330
255
100
AcDbEntity
  8
0
  6
CONTINUOUS
 62
     7
100
AcDbVertex
100
AcDb2dVertex
 10
8.0450584887
 20
6.334907281
 30
0.0
  0
VERTEX
  5
349
330
255
100
AcDbEntity
  8
0
  6
CONTINUOUS
 62
     7
100
AcDbVertex
100
AcDb2dVertex
 10
8.0568549563
 20
6.3820787218
 30
0.0
  0
VERTEX
  5
34A
330
255
100
AcDbEntity
  8
0
  6
CONTINUOUS
 62
     7
100
AcDbVertex
100
AcDb2dVertex
 10
8.0702918589
 20
6.4295074827
 30
0.0
  0
VERTEX
  5
34B
330
255
100
AcDbEntity
  8
0
  6
CONTINUOUS
 62
     7
100
AcDbVertex
100
AcDb2dVertex
 10
8.0853391026
 20
6.4770873402
 30
0.0
  0
VERTEX
  5
34C
330
255
100
AcDbEntity
  8
0
  6
CONTINUOUS
 62
     7
100
AcDbVertex
100
AcDb2dVertex
 10
8.101962987
 20
6.5247117322
 30
0.0
  0
VERTEX
  5
34D
330
255
100
AcDbEntity
  8
0
  6
CONTINUOUS
 62
     7
100
AcDbVertex
100
AcDb2dVertex
 10
8.1201262804
 20
6.5722739969
 30
0.0
  0
VERTEX
  5
34E
330
255
100
AcDbEntity
  8
0
  6
CONTINUOUS
 62
     7
100
AcDbVertex
100
AcDb2dVertex
 10
8.1397883035
 20
6.6196676117
 30
0.0
  0
VERTEX
  5
34F
330
255
100
AcDbEntity
  8
0
  6
CONTINUOUS
 62
     7
100
AcDbVertex
100
AcDb2dVertex
 10
8.1609050203
 20
6.6667864317
 30
0.0
  0
VERTEX
  5
350
330
255
100
AcDbEntity
  8
0
  6
CONTINUOUS
 62
     7
100
AcDbVertex
100
AcDb2dVertex
 10
8.1834291368
 20
6.7135249275
 30
0.0
  0
VERTEX
  5
351
330
255
100
AcDbEntity
  8
0
  6
CONTINUOUS
 62
     7
100
AcDbVertex
100
AcDb2dVertex
 10
8.2073102071
 20
6.7597784214
 30
0.0
  0
VERTEX
  5
352
330
255
100
AcDbEntity
  8
0
  6
CONTINUOUS
 62
     7
100
AcDbVertex
100
AcDb2dVertex
 10
8.232494746
 20
6.805443322
 30
0.0
  0
VERTEX
  5
353
330
255
100
AcDbEntity
  8
0
  6
CONTINUOUS
 62
     7
100
AcDbVertex
100
AcDb2dVertex
 10
8.258926349
 20
6.850417356
 30
0.0
  0
VERTEX
  5
354
330
255
100
AcDbEntity
  8
0
  6
CONTINUOUS
 62
     7
100
AcDbVertex
100
AcDb2dVertex
 10
8.2865458187
 20
6.8945997976
 30
0.0
  0
VERTEX
  5
355
330
255
100
AcDbEntity
  8
0
  6
CONTINUOUS
 62
     7
100
AcDbVertex
100
AcDb2dVertex
 10
8.3152912973
 20
6.9378916938
 30
0.0
  0
VERTEX
  5
356
330
255
100
AcDbEntity
  8
0
  6
CONTINUOUS
 62
     7
100
AcDbVertex
100
AcDb2dVertex
 10
8.3450984051
 20
6.980196086
 30
0.0
  0
VERTEX
  5
357
330
255
100
AcDbEntity
  8
0
  6
CONTINUOUS
 62
     7
100
AcDbVertex
100
AcDb2dVertex
 10
8.3759003848
 20
7.0214182275
 30
0.0
  0
VERTEX
  5
358
330
255
100
AcDbEntity
  8
0
  6
CONTINUOUS
 62
     7
100
AcDbVertex
100
AcDb2dVertex
 10
8.4076282508
 20
7.0614657951
 30
0.0
  0
VERTEX
  5
359
330
255
100
AcDbEntity
  8
0
  6
CONTINUOUS
 62
     7
100
AcDbVertex
100
AcDb2dVertex
 10
8.440210944
 20
7.1002490966
 30
0.0
  0
VERTEX
  5
35A
330
255
100
AcDbEntity
  8
0
  6
CONTINUOUS
 62
     7
100
AcDbVertex
100
AcDb2dVertex
 10
8.4735754907
 20
7.1376812711
 30
0.0
  0
VERTEX
  5
35B
330
255
100
AcDbEntity
  8
0
  6
CONTINUOUS
 62
     7
100
AcDbVertex
100
AcDb2dVertex
 10
8.507647166
 20
7.1736784839
 30
0.0
  0
VERTEX
  5
35C
330
255
100
AcDbEntity
  8
0
  6
CONTINUOUS
 62
     7
100
AcDbVertex
100
AcDb2dVertex
 10
8.5423496616
 20
7.2081601138
 30
0.0
  0
VERTEX
  5
35D
330
255
100
AcDbEntity
  8
0
  6
CONTINUOUS
 62
     7
100
AcDbVertex
100
AcDb2dVertex
 10
8.5776052561
 20
7.2410489343
 30
0.0
  0
VERTEX
  5
35E
330
255
100
AcDbEntity
  8
0
  6
CONTINUOUS
 62
     7
100
AcDbVertex
100
AcDb2dVertex
 10
8.6133349896
 20
7.2722712861
 30
0.0
  0
VERTEX
  5
35F
330
255
100
AcDbEntity
  8
0
  6
CONTINUOUS
 62
     7
100
AcDbVertex
100
AcDb2dVertex
 10
8.64945884
 20
7.3017572421
 30
0.0
  0
VERTEX
  5
360
330
255
100
AcDbEntity
  8
0
  6
CONTINUOUS
 62
     7
100
AcDbVertex
100
AcDb2dVertex
 10
8.6858959028
 20
7.3294407643
 30
0.0
  0
VERTEX
  5
361
330
255
100
AcDbEntity
  8
0
  6
CONTINUOUS
 62
     7
100
AcDbVertex
100
AcDb2dVertex
 10
8.7225645717
 20
7.3552598515
 30
0.0
  0
VERTEX
  5
362
330
255
100
AcDbEntity
  8
0
  6
CONTINUOUS
 62
     7
100
AcDbVertex
100
AcDb2dVertex
 10
8.7593827221
 20
7.3791566779
 30
0.0
  0
VERTEX
  5
363
330
255
100
AcDbEntity
  8
0
  6
CONTINUOUS
 62
     7
100
AcDbVertex
100
AcDb2dVertex
 10
8.7962678943
 20
7.4010777232
 30
0.0
  0
VERTEX
  5
364
330
255
100
AcDbEntity
  8
0
  6
CONTINUOUS
 62
     7
100
AcDbVertex
100
AcDb2dVertex
 10
8.8331374786
 20
7.420973892
 30
0.0
  0
VERTEX
  5
365
330
255
100
AcDbEntity
  8
0
  6
CONTINUOUS
 62
     7
100
AcDbVertex
100
AcDb2dVertex
 10
8.8699089002
 20
7.4388006239
 30
0.0
  0
VERTEX
  5
366
330
255
100
AcDbEntity
  8
0
  6
CONTINUOUS
 62
     7
100
AcDbVertex
100
AcDb2dVertex
 10
8.9064998041
 20
7.4545179934
 30
0.0
  0
VERTEX
  5
367
330
255
100
AcDbEntity
  8
0
  6
CONTINUOUS
 62
     7
100
AcDbVertex
100
AcDb2dVertex
 10
8.9428282397
 20
7.4680907991
 30
0.0
  0
VERTEX
  5
368
330
255
100
AcDbEntity
  8
0
  6
CONTINUOUS
 62
     7
100
AcDbVertex
100
AcDb2dVertex
 10
8.9788128442
 20
7.4794886428
 30
0.0
  0
VERTEX
  5
369
330
255
100
AcDbEntity
  8
0
  6
CONTINUOUS
 62
     7
100
AcDbVertex
100
AcDb2dVertex
 10
9.0143730247
 20
7.4886859973
 30
0.0
  0
VERTEX
  5
36A
330
255
100
AcDbEntity
  8
0
  6
CONTINUOUS
 62
     7
100
AcDbVertex
100
AcDb2dVertex
 10
9.0494291391
 20
7.4956622638
 30
0.0
  0
VERTEX
  5
36B
330
255
100
AcDbEntity
  8
0
  6
CONTINUOUS
 62
     7
100
AcDbVertex
100
AcDb2dVertex
 10
9.0839026742
 20
7.500401818
 30
0.0
  0
VERTEX
  5
36C
330
255
100
AcDbEntity
  8
0
  6
CONTINUOUS
 62
     7
100
AcDbVertex
100
AcDb2dVertex
 10
9.1177164214
 20
7.5028940449
 30
0.0
  0
VERTEX
  5
36D
330
255
100
AcDbEntity
  8
0
  6
CONTINUOUS
 62
     7
100
AcDbVertex
100
AcDb2dVertex
 10
9.1507946498
 20
7.5031333629
 30
0.0
  0
VERTEX
  5
36E
330
255
100
AcDbEntity
  8
0
  6
CONTINUOUS
 62
     7
100
AcDbVertex
100
AcDb2dVertex
 10
9.1830632761
 20
7.5011192358
 30
0.0
  0
VERTEX
  5
36F
330
255
100
AcDbEntity
  8
0
  6
CONTINUOUS
 62
     7
100
AcDbVertex
100
AcDb2dVertex
 10
9.2144500299
 20
7.4968561747
 30
0.0
  0
VERTEX
  5
370
330
255
100
AcDbEntity
  8
0
  6
CONTINUOUS
 62
     7
100
AcDbVertex
100
AcDb2dVertex
 10
9.244884616
 20
7.4903537274
 30
0.0
  0
VERTEX
  5
371
330
255
100
AcDbEntity
  8
0
  6
CONTINUOUS
 62
     7
100
AcDbVertex
100
AcDb2dVertex
 10
9.2742988717
 20
7.4816264569
 30
0.0
  0
VERTEX
  5
372
330
255
100
AcDbEntity
  8
0
  6
CONTINUOUS
 62
     7
100
AcDbVertex
100
AcDb2dVertex
 10
9.3026269196
 20
7.4706939093
 30
0.0
  0
VERTEX
  5
373
330
255
100
AcDbEntity
  8
0
  6
CONTINUOUS
 62
     7
100
AcDbVertex
100
AcDb2dVertex
 10
9.3298053147
 20
7.4575805696
 30
0.0
  0
VERTEX
  5
374
330
255
100
AcDbEntity
  8
0
  6
CONTINUOUS
 62
     7
100
AcDbVertex
100
AcDb2dVertex
 10
9.3557731872
 20
7.4423158071
 30
0.0
  0
VERTEX
  5
375
330
255
100
AcDbEntity
  8
0
  6
CONTINUOUS
 62
     7
100
AcDbVertex
100
AcDb2dVertex
 10
9.3804723782
 20
7.4249338094
 30
0.0
  0
VERTEX
  5
376
330
255
100
AcDbEntity
  8
0
  6
CONTINUOUS
 62
     7
100
AcDbVertex
100
AcDb2dVertex
 10
9.4038475704
 20
7.405473506
 30
0.0
  0
VERTEX
  5
377
330
255
100
AcDbEntity
  8
0
  6
CONTINUOUS
 62
     7
100
AcDbVertex
100
AcDb2dVertex
 10
9.4258464114
 20
7.383978481
 30
0.0
  0
VERTEX
  5
378
330
255
100
AcDbEntity
  8
0
  6
CONTINUOUS
 62
     7
100
AcDbVertex
100
AcDb2dVertex
 10
9.4464196318
 20
7.3604968759
 30
0.0
  0
VERTEX
  5
379
330
255
100
AcDbEntity
  8
0
  6
CONTINUOUS
 62
     7
100
AcDbVertex
100
AcDb2dVertex
 10
9.4655211548
 20
7.3350812809
 30
0.0
  0
VERTEX
  5
37A
330
255
100
AcDbEntity
  8
0
  6
CONTINUOUS
 62
     7
100
AcDbVertex
100
AcDb2dVertex
 10
9.4831081997
 20
7.3077886181
 30
0.0
  0
VERTEX
  5
37B
330
255
100
AcDbEntity
  8
0
  6
CONTINUOUS
 62
     7
100
AcDbVertex
100
AcDb2dVertex
 10
9.4991413779
 20
7.2786800134
 30
0.0
  0
VERTEX
  5
37C
330
255
100
AcDbEntity
  8
0
  6
CONTINUOUS
 62
     7
100
AcDbVertex
100
AcDb2dVertex
 10
9.5135847806
 20
7.2478206596
 30
0.0
  0
VERTEX
  5
37D
330
255
100
AcDbEntity
  8
0
  6
CONTINUOUS
 62
     7
100
AcDbVertex
100
AcDb2dVertex
 10
9.5264060599
 20
7.2152796708
 30
0.0
  0
VERTEX
  5
37E
330
255
100
AcDbEntity
  8
0
  6
CONTINUOUS
 62
     7
100
AcDbVertex
100
AcDb2dVertex
 10
9.5375765005
 20
7.1811299273
 30
0.0
  0
VERTEX
  5
37F
330
255
100
AcDbEntity
  8
0
  6
CONTINUOUS
 62
     7
100
AcDbVertex
100
AcDb2dVertex
 10
9.5470710846
 20
7.1454479125
 30
0.0
  0
VERTEX
  5
380
330
255
100
AcDbEntity
  8
0
  6
CONTINUOUS
 62
     7
100
AcDbVertex
100
AcDb2dVertex
 10
9.5548685477
 20
7.1083135413
 30
0.0
  0
VERTEX
  5
381
330
255
100
AcDbEntity
  8
0
  6
CONTINUOUS
 62
     7
100
AcDbVertex
100
AcDb2dVertex
 10
9.5609514263
 20
7.0698099816
 30
0.0
  0
VERTEX
  5
382
330
255
100
AcDbEntity
  8
0
  6
CONTINUOUS
 62
     7
100
AcDbVertex
100
AcDb2dVertex
 10
9.5653060969
 20
7.0300234678
 30
0.0
  0
VERTEX
  5
383
330
255
100
AcDbEntity
  8
0
  6
CONTINUOUS
 62
     7
100
AcDbVertex
100
AcDb2dVertex
 10
9.5679228066
 20
6.9890431075
 30
0.0
  0
VERTEX
  5
384
330
255
100
AcDbEntity
  8
0
  6
CONTINUOUS
 62
     7
100
AcDbVertex
100
AcDb2dVertex
 10
9.5687956948
 20
6.9469606822
 30
0.0
  0
SEQEND
  5
385
330
255
100
AcDbEntity
  8
0
  6
CONTINUOUS
 62
     7
  0
POLYLINE
  5
256
330
1F
100
AcDbEntity
  8
0
  6
CONTINUOUS
 62
     7
100
AcDb2dPolyline
 66
     1
 10
0.0
 20
0.0
 30
0.0
  0
VERTEX
  5
386
330
256
100
AcDbEntity
  8
0
  6
CONTINUOUS
 62
     7
100
AcDbVertex
100
AcDb2dVertex
 10
8.7894345932
 20
5.5969213772
 30
0.0
  0
VERTEX
  5
387
330
256
100
AcDbEntity
  8
0
  6
CONTINUOUS
 62
     7
100
AcDbVertex
100
AcDb2dVertex
 10
8.7593827221
 20
5.5802363603
 30
0.0
  0
VERTEX
  5
388
330
256
100
AcDbEntity
  8
0
  6
CONTINUOUS
 62
     7
100
AcDbVertex
100
AcDb2dVertex
 10
8.7225645717
 20
5.5616238551
 30
0.0
  0
VERTEX
  5
389
330
256
100
AcDbEntity
  8
0
  6
CONTINUOUS
 62
     7
100
AcDbVertex
100
AcDb2dVertex
 10
8.6858959028
 20
5.5451061982
 30
0.0
  0
VERTEX
  5
38A
330
256
100
AcDbEntity
  8
0
  6
CONTINUOUS
 62
     7
100
AcDbVertex
100
AcDb2dVertex
 10
8.64945884
 20
5.5307203833
 30
0.0
  0
VERTEX
  5
38B
330
256
100
AcDbEntity
  8
0
  6
CONTINUOUS
 62
     7
100
AcDbVertex
100
AcDb2dVertex
 10
8.6133349896
 20
5.5184986294
 30
0.0
  0
VERTEX
  5
38C
330
256
100
AcDbEntity
  8
0
  6
CONTINUOUS
 62
     7
100
AcDbVertex
100
AcDb2dVertex
 10
8.5776052561
 20
5.508468309
 30
0.0
  0
VERTEX
  5
38D
330
256
100
AcDbEntity
  8
0
  6
CONTINUOUS
 62
     7
100
AcDbVertex
100
AcDb2dVertex
 10
8.5423496616
 20
5.5006518865
 30
0.0
  0
VERTEX
  5
38E
330
256
100
AcDbEntity
  8
0
  6
CONTINUOUS
 62
     7
100
AcDbVertex
100
AcDb2dVertex
 10
8.507647166
 20
5.4950668679
 30
0.0
  0
VERTEX
  5
38F
330
256
100
AcDbEntity
  8
0
  6
CONTINUOUS
 62
     7
100
AcDbVertex
100
AcDb2dVertex
 10
8.4735754907
 20
5.4917257616
 30
0.0
  0
VERTEX
  5
390
330
256
100
AcDbEntity
  8
0
  6
CONTINUOUS
 62
     7
100
AcDbVertex
100
AcDb2dVertex
 10
8.440210944
 20
5.4906360505
 30
0.0
  0
VERTEX
  5
391
330
256
100
AcDbEntity
  8
0
  6
CONTINUOUS
 62
     7
100
AcDbVertex
100
AcDb2dVertex
 10
8.4076282508
 20
5.4918001752
 30
0.0
  0
VERTEX
  5
392
330
256
100
AcDbEntity
  8
0
  6
CONTINUOUS
 62
     7
100
AcDbVertex
100
AcDb2dVertex
 10
8.3759003848
 20
5.4952155285
 30
0.0
  0
VERTEX
  5
393
330
256
100
AcDbEntity
  8
0
  6
CONTINUOUS
 62
     7
100
AcDbVertex
100
AcDb2dVertex
 10
8.3450984051
 20
5.5008744612
 30
0.0
  0
VERTEX
  5
394
330
256
100
AcDbEntity
  8
0
  6
CONTINUOUS
 62
     7
100
AcDbVertex
100
AcDb2dVertex
 10
8.3152912973
 20
5.5087642992
 30
0.0
  0
VERTEX
  5
395
330
256
100
AcDbEntity
  8
0
  6
CONTINUOUS
 62
     7
100
AcDbVertex
100
AcDb2dVertex
 10
8.2865458187
 20
5.5188673722
 30
0.0
  0
VERTEX
  5
396
330
256
100
AcDbEntity
  8
0
  6
CONTINUOUS
 62
     7
100
AcDbVertex
100
AcDb2dVertex
 10
8.258926349
 20
5.5311610528
 30
0.0
  0
VERTEX
  5
397
330
256
100
AcDbEntity
  8
0
  6
CONTINUOUS
 62
     7
100
AcDbVertex
100
AcDb2dVertex
 10
8.232494746
 20
5.5456178076
 30
0.0
  0
VERTEX
  5
398
330
256
100
AcDbEntity
  8
0
  6
CONTINUOUS
 62
     7
100
AcDbVertex
100
AcDb2dVertex
 10
8.2073102071
 20
5.5622052586
 30
0.0
  0
VERTEX
  5
399
330
256
100
AcDbEntity
  8
0
  6
CONTINUOUS
 62
     7
100
AcDbVertex
100
AcDb2dVertex
 10
8.1834291368
 20
5.5808862556
 30
0.0
  0
VERTEX
  5
39A
330
256
100
AcDbEntity
  8
0
  6
CONTINUOUS
 62
     7
100
AcDbVertex
100
AcDb2dVertex
 10
8.1609050203
 20
5.60161896
 30
0.0
  0
VERTEX
  5
39B
330
256
100
AcDbEntity
  8
0
  6
CONTINUOUS
 62
     7
100
AcDbVertex
100
AcDb2dVertex
 10
8.1397883035
 20
5.6243569378
 30
0.0
  0
VERTEX
  5
39C
330
256
100
AcDbEntity
  8
0
  6
CONTINUOUS
 62
     7
100
AcDbVertex
100
AcDb2dVertex
 10
8.1201262804
 20
5.649049264
 30
0.0
  0
VERTEX
  5
39D
330
256
100
AcDbEntity
  8
0
  6
CONTINUOUS
 62
     7
100
AcDbVertex
100
AcDb2dVertex
 10
8.101962987
 20
5.6756406365
 30
0.0
  0
VERTEX
  5
39E
330
256
100
AcDbEntity
  8
0
  6
CONTINUOUS
 62
     7
100
AcDbVertex
100
AcDb2dVertex
 10
8.0853391026
 20
5.7040715001
 30
0.0
  0
VERTEX
  5
39F
330
256
100
AcDbEntity
  8
0
  6
CONTINUOUS
 62
     7
100
AcDbVertex
100
AcDb2dVertex
 10
8.0702918589
 20
5.7342781798
 30
0.0
  0
VERTEX
  5
3A0
330
256
100
AcDbEntity
  8
0
  6
CONTINUOUS
 62
     7
100
AcDbVertex
100
AcDb2dVertex
 10
8.0568549563
 20
5.7661930232
 30
0.0
  0
VERTEX
  5
3A1
330
256
100
AcDbEntity
  8
0
  6
CONTINUOUS
 62
     7
100
AcDbVertex
100
AcDb2dVertex
 10
8.0450584887
 20
5.7997445524
 30
0.0
  0
VERTEX
  5
3A2
330
256
100
AcDbEntity
  8
0
  6
CONTINUOUS
 62
     7
100
AcDbVertex
100
AcDb2dVertex
 10
8.0349288761
 20
5.834857624
 30
0.0
  0
VERTEX
  5
3A3
330
256
100
AcDbEntity
  8
0
  6
CONTINUOUS
 62
     7
100
AcDbVertex
100
AcDb2dVertex
 10
8.0264888051
 20
5.871453597
 30
0.0
  0
VERTEX
  5
3A4
330
256
100
AcDbEntity
  8
0
  6
CONTINUOUS
 62
     7
100
AcDbVertex
100
AcDb2dVertex
 10
8.0197571785
 20
5.9094505094
 30
0.0
  0
VERTEX
  5
3A5
330
256
100
AcDbEntity
  8
0
  6
CONTINUOUS
 62
     7
100
AcDbVertex
100
AcDb2dVertex
 10
8.0147490729
 20
5.9487632617
 30
0.0
  0
VERTEX
  5
3A6
330
256
100
AcDbEntity
  8
0
  6
CONTINUOUS
 62
     7
100
AcDbVertex
100
AcDb2dVertex
 10
8.0114757046
 20
5.9893038072
 30
0.0
  0
VERTEX
  5
3A7
330
256
100
AcDbEntity
  8
0
  6
CONTINUOUS
 62
     7
100
AcDbVertex
100
AcDb2dVertex
 10
8.0099444047
 20
6.0309813494
 30
0.0
  0
SEQEND
  5
3A8
330
256
100
AcDbEntity
  8
0
  6
CONTINUOUS
 62
     7
  0
LINE
  5
257
330
1F
100
AcDbEntity
  8
0
  6
CONTINUOUS
 62
     7
100
AcDbLine
 10
8.0099444047
 20
6.0309813494
 30
0.0
 11
8.031159323
 21
6.0309823394
 31
0.0
  0
POLYLINE
  5
258
330
1F
100
AcDbEntity
  8
0
  6
CONTINUOUS
 62
     7
100
AcDb2dPolyline
 66
     1
 10
0.0
 20
0.0
 30
0.0
  0
VERTEX
  5
3A9
330
258
100
AcDbEntity
  8
0
  6
CONTINUOUS
 62
     7
100
AcDbVertex
100
AcDb2dVertex
 10
8.7942738225
 20
7.7669689481
 30
0.0
  0
VERTEX
  5
3AA
330
258
100
AcDbEntity
  8
0
  6
CONTINUOUS
 62
     7
100
AcDbVertex
100
AcDb2dVertex
 10
8.7844680495
 20
7.7724317911
 30
0.0
  0
VERTEX
  5
3AB
330
258
100
AcDbEntity
  8
0
  6
CONTINUOUS
 62
     7
100
AcDbVertex
100
AcDb2dVertex
 10
8.7573778609
 20
7.785590758
 30
0.0
  0
VERTEX
  5
3AC
330
258
100
AcDbEntity
  8
0
  6
CONTINUOUS
 62
     7
100
AcDbVertex
100
AcDb2dVertex
 10
8.729140201
 20
7.7965778645
 30
0.0
  0
VERTEX
  5
3AD
330
258
100
AcDbEntity
  8
0
  6
CONTINUOUS
 62
     7
100
AcDbVertex
100
AcDb2dVertex
 10
8.6998180791
 20
7.8053685939
 30
0.0
  0
VERTEX
  5
3AE
330
258
100
AcDbEntity
  8
0
  6
CONTINUOUS
 62
     7
100
AcDbVertex
100
AcDb2dVertex
 10
8.6694769243
 20
7.8119433308
 30
0.0
  0
VERTEX
  5
3AF
330
258
100
AcDbEntity
  8
0
  6
CONTINUOUS
 62
     7
100
AcDbVertex
100
AcDb2dVertex
 10
8.6381844395
 20
7.8162874042
 30
0.0
  0
VERTEX
  5
3B0
330
258
100
AcDbEntity
  8
0
  6
CONTINUOUS
 62
     7
100
AcDbVertex
100
AcDb2dVertex
 10
8.6060104506
 20
7.8183911209
 30
0.0
  0
VERTEX
  5
3B1
330
258
100
AcDbEntity
  8
0
  6
CONTINUOUS
 62
     7
100
AcDbVertex
100
AcDb2dVertex
 10
8.5730267503
 20
7.8182497867
 30
0.0
  0
VERTEX
  5
3B2
330
258
100
AcDbEntity
  8
0
  6
CONTINUOUS
 62
     7
100
AcDbVertex
100
AcDb2dVertex
 10
8.539306938
 20
7.8158637169
 30
0.0
  0
VERTEX
  5
3B3
330
258
100
AcDbEntity
  8
0
  6
CONTINUOUS
 62
     7
100
AcDbVertex
100
AcDb2dVertex
 10
8.504926256
 20
7.8112382357
 30
0.0
  0
VERTEX
  5
3B4
330
258
100
AcDbEntity
  8
0
  6
CONTINUOUS
 62
     7
100
AcDbVertex
100
AcDb2dVertex
 10
8.469961421
 20
7.8043836646
 30
0.0
  0
VERTEX
  5
3B5
330
258
100
AcDbEntity
  8
0
  6
CONTINUOUS
 62
     7
100
AcDbVertex
100
AcDb2dVertex
 10
8.4344904531
 20
7.7953152986
 30
0.0
  0
VERTEX
  5
3B6
330
258
100
AcDbEntity
  8
0
  6
CONTINUOUS
 62
     7
100
AcDbVertex
100
AcDb2dVertex
 10
8.3985925019
 20
7.7840533728
 30
0.0
  0
VERTEX
  5
3B7
330
258
100
AcDbEntity
  8
0
  6
CONTINUOUS
 62
     7
100
AcDbVertex
100
AcDb2dVertex
 10
8.3623476699
 20
7.770623017
 30
0.0
  0
VERTEX
  5
3B8
330
258
100
AcDbEntity
  8
0
  6
CONTINUOUS
 62
     7
100
AcDbVertex
100
AcDb2dVertex
 10
8.3258368334
 20
7.7550541996
 30
0.0
  0
VERTEX
  5
3B9
330
258
100
AcDbEntity
  8
0
  6
CONTINUOUS
 62
     7
100
AcDbVertex
100
AcDb2dVertex
 10
8.2891414624
 20
7.7373816607
 30
0.0
  0
VERTEX
  5
3BA
330
258
100
AcDbEntity
  8
0
  6
CONTINUOUS
 62
     7
100
AcDbVertex
100
AcDb2dVertex
 10
8.2523434386
 20
7.7176448346
 30
0.0
  0
VERTEX
  5
3BB
330
258
100
AcDbEntity
  8
0
  6
CONTINUOUS
 62
     7
100
AcDbVertex
100
AcDb2dVertex
 10
8.2155248728
 20
7.695887762
 30
0.0
  0
VERTEX
  5
3BC
330
258
100
AcDbEntity
  8
0
  6
CONTINUOUS
 62
     7
100
AcDbVertex
100
AcDb2dVertex
 10
8.1787679216
 20
7.6721589913
 30
0.0
  0
VERTEX
  5
3BD
330
258
100
AcDbEntity
  8
0
  6
CONTINUOUS
 62
     7
100
AcDbVertex
100
AcDb2dVertex
 10
8.1421546041
 20
7.6465114707
 30
0.0
  0
VERTEX
  5
3BE
330
258
100
AcDbEntity
  8
0
  6
CONTINUOUS
 62
     7
100
AcDbVertex
100
AcDb2dVertex
 10
8.105766619
 20
7.6190024299
 30
0.0
  0
VERTEX
  5
3BF
330
258
100
AcDbEntity
  8
0
  6
CONTINUOUS
 62
     7
100
AcDbVertex
100
AcDb2dVertex
 10
8.069685162
 20
7.5896932523
 30
0.0
  0
VERTEX
  5
3C0
330
258
100
AcDbEntity
  8
0
  6
CONTINUOUS
 62
     7
100
AcDbVertex
100
AcDb2dVertex
 10
8.0339907451
 20
7.5586493381
 30
0.0
  0
VERTEX
  5
3C1
330
258
100
AcDbEntity
  8
0
  6
CONTINUOUS
 62
     7
100
AcDbVertex
100
AcDb2dVertex
 10
7.9987630164
 20
7.5259399585
 30
0.0
  0
VERTEX
  5
3C2
330
258
100
AcDbEntity
  8
0
  6
CONTINUOUS
 62
     7
100
AcDbVertex
100
AcDb2dVertex
 10
7.9640805827
 20
7.4916381008
 30
0.0
  0
VERTEX
  5
3C3
330
258
100
AcDbEntity
  8
0
  6
CONTINUOUS
 62
     7
100
AcDbVertex
100
AcDb2dVertex
 10
7.9300208342
 20
7.4558203059
 30
0.0
  0
VERTEX
  5
3C4
330
258
100
AcDbEntity
  8
0
  6
CONTINUOUS
 62
     7
100
AcDbVertex
100
AcDb2dVertex
 10
7.8966597714
 20
7.4185664973
 30
0.0
  0
VERTEX
  5
3C5
330
258
100
AcDbEntity
  8
0
  6
CONTINUOUS
 62
     7
100
AcDbVertex
100
AcDb2dVertex
 10
7.864071836
 20
7.3799598029
 30
0.0
  0
VERTEX
  5
3C6
330
258
100
AcDbEntity
  8
0
  6
CONTINUOUS
 62
     7
100
AcDbVertex
100
AcDb2dVertex
 10
7.8323297443
 20
7.3400863692
 30
0.0
  0
VERTEX
  5
3C7
330
258
100
AcDbEntity
  8
0
  6
CONTINUOUS
 62
     7
100
AcDbVertex
100
AcDb2dVertex
 10
7.8015043253
 20
7.2990351695
 30
0.0
  0
VERTEX
  5
3C8
330
258
100
AcDbEntity
  8
0
  6
CONTINUOUS
 62
     7
100
AcDbVertex
100
AcDb2dVertex
 10
7.7716643627
 20
7.2568978051
 30
0.0
  0
VERTEX
  5
3C9
330
258
100
AcDbEntity
  8
0
  6
CONTINUOUS
 62
     7
100
AcDbVertex
100
AcDb2dVertex
 10
7.7428764411
 20
7.2137683009
 30
0.0
  0
VERTEX
  5
3CA
330
258
100
AcDbEntity
  8
0
  6
CONTINUOUS
 62
     7
100
AcDbVertex
100
AcDb2dVertex
 10
7.7152047975
 20
7.1697428957
 30
0.0
  0
VERTEX
  5
3CB
330
258
100
AcDbEntity
  8
0
  6
CONTINUOUS
 62
     7
100
AcDbVertex
100
AcDb2dVertex
 10
7.6887111782
 20
7.1249198273
 30
0.0
  0
VERTEX
  5
3CC
330
258
100
AcDbEntity
  8
0
  6
CONTINUOUS
 62
     7
100
AcDbVertex
100
AcDb2dVertex
 10
7.6634547009
 20
7.0793991137
 30
0.0
  0
VERTEX
  5
3CD
330
258
100
AcDbEntity
  8
0
  6
CONTINUOUS
 62
     7
100
AcDbVertex
100
AcDb2dVertex
 10
7.6394917226
 20
7.0332823292
 30
0.0
  0
VERTEX
  5
3CE
330
258
100
AcDbEntity
  8
0
  6
CONTINUOUS
 62
     7
100
AcDbVertex
100
AcDb2dVertex
 10
7.6168757141
 20
6.9866723785
 30
0.0
  0
VERTEX
  5
3CF
330
258
100
AcDbEntity
  8
0
  6
CONTINUOUS
 62
     7
100
AcDbVertex
100
AcDb2dVertex
 10
7.5956571405
 20
6.9396732666
 30
0.0
  0
VERTEX
  5
3D0
330
258
100
AcDbEntity
  8
0
  6
CONTINUOUS
 62
     7
100
AcDbVertex
100
AcDb2dVertex
 10
7.5758833489
 20
6.8923898668
 30
0.0
  0
VERTEX
  5
3D1
330
258
100
AcDbEntity
  8
0
  6
CONTINUOUS
 62
     7
100
AcDbVertex
100
AcDb2dVertex
 10
7.5575984622
 20
6.844927687
 30
0.0
  0
VERTEX
  5
3D2
330
258
100
AcDbEntity
  8
0
  6
CONTINUOUS
 62
     7
100
AcDbVertex
100
AcDb2dVertex
 10
7.5408432812
 20
6.7973926339
 30
0.0
  0
VERTEX
  5
3D3
330
258
100
AcDbEntity
  8
0
  6
CONTINUOUS
 62
     7
100
AcDbVertex
100
AcDb2dVertex
 10
7.5256551932
 20
6.7498907766
 30
0.0
  0
VERTEX
  5
3D4
330
258
100
AcDbEntity
  8
0
  6
CONTINUOUS
 62
     7
100
AcDbVertex
100
AcDb2dVertex
 10
7.5120680888
 20
6.7025281105
 30
0.0
  0
VERTEX
  5
3D5
330
258
100
AcDbEntity
  8
0
  6
CONTINUOUS
 62
     7
100
AcDbVertex
100
AcDb2dVertex
 10
7.5001122862
 20
6.6554103202
 30
0.0
  0
VERTEX
  5
3D6
330
258
100
AcDbEntity
  8
0
  6
CONTINUOUS
 62
     7
100
AcDbVertex
100
AcDb2dVertex
 10
7.4898144634
 20
6.6086425438
 30
0.0
  0
VERTEX
  5
3D7
330
258
100
AcDbEntity
  8
0
  6
CONTINUOUS
 62
     7
100
AcDbVertex
100
AcDb2dVertex
 10
7.4811975989
 20
6.5623291386
 30
0.0
  0
VERTEX
  5
3D8
330
258
100
AcDbEntity
  8
0
  6
CONTINUOUS
 62
     7
100
AcDbVertex
100
AcDb2dVertex
 10
7.4742809203
 20
6.5165734479
 30
0.0
  0
VERTEX
  5
3D9
330
258
100
AcDbEntity
  8
0
  6
CONTINUOUS
 62
     7
100
AcDbVertex
100
AcDb2dVertex
 10
7.4690798614
 20
6.4714775705
 30
0.0
  0
VERTEX
  5
3DA
330
258
100
AcDbEntity
  8
0
  6
CONTINUOUS
 62
     7
100
AcDbVertex
100
AcDb2dVertex
 10
7.4656060278
 20
6.427142133
 30
0.0
  0
VERTEX
  5
3DB
330
258
100
AcDbEntity
  8
0
  6
CONTINUOUS
 62
     7
100
AcDbVertex
100
AcDb2dVertex
 10
7.4638671709
 20
6.383666065
 30
0.0
  0
VERTEX
  5
3DC
330
258
100
AcDbEntity
  8
0
  6
CONTINUOUS
 62
     7
100
AcDbVertex
100
AcDb2dVertex
 10
7.4638671709
 20
6.3411463787
 30
0.0
  0
VERTEX
  5
3DD
330
258
100
AcDbEntity
  8
0
  6
CONTINUOUS
 62
     7
100
AcDbVertex
100
AcDb2dVertex
 10
7.4656060278
 20
6.2996779521
 30
0.0
  0
VERTEX
  5
3DE
330
258
100
AcDbEntity
  8
0
  6
CONTINUOUS
 62
     7
100
AcDbVertex
100
AcDb2dVertex
 10
7.4690798614
 20
6.2593533175
 30
0.0
  0
VERTEX
  5
3DF
330
258
100
AcDbEntity
  8
0
  6
CONTINUOUS
 62
     7
100
AcDbVertex
100
AcDb2dVertex
 10
7.4742809203
 20
6.2202624549
 30
0.0
  0
VERTEX
  5
3E0
330
258
100
AcDbEntity
  8
0
  6
CONTINUOUS
 62
     7
100
AcDbVertex
100
AcDb2dVertex
 10
7.4811975989
 20
6.1824925913
 30
0.0
  0
VERTEX
  5
3E1
330
258
100
AcDbEntity
  8
0
  6
CONTINUOUS
 62
     7
100
AcDbVertex
100
AcDb2dVertex
 10
7.4898144634
 20
6.1461280061
 30
0.0
  0
VERTEX
  5
3E2
330
258
100
AcDbEntity
  8
0
  6
CONTINUOUS
 62
     7
100
AcDbVertex
100
AcDb2dVertex
 10
7.5001122862
 20
6.1112498429
 30
0.0
  0
VERTEX
  5
3E3
330
258
100
AcDbEntity
  8
0
  6
CONTINUOUS
 62
     7
100
AcDbVertex
100
AcDb2dVertex
 10
7.5120680888
 20
6.0779359284
 30
0.0
  0
VERTEX
  5
3E4
330
258
100
AcDbEntity
  8
0
  6
CONTINUOUS
 62
     7
100
AcDbVertex
100
AcDb2dVertex
 10
7.5256551932
 20
6.0462605991
 30
0.0
  0
VERTEX
  5
3E5
330
258
100
AcDbEntity
  8
0
  6
CONTINUOUS
 62
     7
100
AcDbVertex
100
AcDb2dVertex
 10
7.5408432812
 20
6.0162945349
 30
0.0
  0
VERTEX
  5
3E6
330
258
100
AcDbEntity
  8
0
  6
CONTINUOUS
 62
     7
100
AcDbVertex
100
AcDb2dVertex
 10
7.5575984622
 20
5.988104602
 30
0.0
  0
VERTEX
  5
3E7
330
258
100
AcDbEntity
  8
0
  6
CONTINUOUS
 62
     7
100
AcDbVertex
100
AcDb2dVertex
 10
7.5758833489
 20
5.961753703
 30
0.0
  0
VERTEX
  5
3E8
330
258
100
AcDbEntity
  8
0
  6
CONTINUOUS
 62
     7
100
AcDbVertex
100
AcDb2dVertex
 10
7.5956571405
 20
5.9373006372
 30
0.0
  0
VERTEX
  5
3E9
330
258
100
AcDbEntity
  8
0
  6
CONTINUOUS
 62
     7
100
AcDbVertex
100
AcDb2dVertex
 10
7.6168757141
 20
5.9147999688
 30
0.0
  0
VERTEX
  5
3EA
330
258
100
AcDbEntity
  8
0
  6
CONTINUOUS
 62
     7
100
AcDbVertex
100
AcDb2dVertex
 10
7.6394917226
 20
5.8943019057
 30
0.0
  0
VERTEX
  5
3EB
330
258
100
AcDbEntity
  8
0
  6
CONTINUOUS
 62
     7
100
AcDbVertex
100
AcDb2dVertex
 10
7.6634547009
 20
5.875852187
 30
0.0
  0
VERTEX
  5
3EC
330
258
100
AcDbEntity
  8
0
  6
CONTINUOUS
 62
     7
100
AcDbVertex
100
AcDb2dVertex
 10
7.6887111782
 20
5.8594919814
 30
0.0
  0
VERTEX
  5
3ED
330
258
100
AcDbEntity
  8
0
  6
CONTINUOUS
 62
     7
100
AcDbVertex
100
AcDb2dVertex
 10
7.6920012038
 20
5.8575698814
 30
0.0
  0
SEQEND
  5
3EE
330
258
100
AcDbEntity
  8
0
  6
CONTINUOUS
 62
     7
  0
SPLINE
  5
259
330
1F
100
AcDbEntity
  8
0
  6
CONTINUOUS
 62
     7
100
AcDbSpline
210
0.0
220
0.0
230
1.0
 70
     8
 71
     3
 72
    82
 73
    78
 74
     0
 42
0.00000001
 43
0.00000001
 40
-0.0312499999999999
 40
-0.0312499999999999
 40
0.0
 40
0.0
 40
0.0312500000000002
 40
0.0312500000000002
 40
0.0468750000000003
 40
0.0468750000000003
 40
0.0625000000000005
 40
0.0625000000000005
 40
0.0781250000000008
 40
0.0781250000000008
 40
0.093750000000001
 40
0.093750000000001
 40
0.1250000000000014
 40
0.1250000000000014
 40
0.1562500000000017
 40
0.1562500000000017
 40
0.1875000000000019
 40
0.1875000000000019
 40
0.2187500000000021
 40
0.2187500000000021
 40
0.2500000000000024
 40
0.2500000000000024
 40
0.2812500000000026
 40
0.2812500000000026
 40
0.3125000000000029
 40
0.3125000000000029
 40
0.3750000000000034
 40
0.3750000000000034
 40
0.4062500000000035
 40
0.4062500000000035
 40
0.4375000000000036
 40
0.4375000000000036
 40
0.4531250000000037
 40
0.4531250000000037
 40
0.4687500000000037
 40
0.4687500000000037
 40
0.4843750000000037
 40
0.4843750000000037
 40
0.5000000000000038
 40
0.5000000000000038
 40
0.5156250000000038
 40
0.5156250000000038
 40
0.5312500000000038
 40
0.5312500000000038
 40
0.5468750000000038
 40
0.5468750000000038
 40
0.5625000000000037
 40
0.5625000000000037
 40
0.5937500000000033
 40
0.5937500000000033
 40
0.625000000000003
 40
0.625000000000003
 40
0.6562500000000026
 40
0.6562500000000026
 40
0.6875000000000022
 40
0.6875000000000022
 40
0.7187500000000019
 40
0.7187500000000019
 40
0.7500000000000014
 40
0.7500000000000014
 40
0.812500000000001
 40
0.812500000000001
 40
0.843750000000001
 40
0.843750000000001
 40
0.8750000000000008
 40
0.8750000000000008
 40
0.8906250000000007
 40
0.8906250000000007
 40
0.9062500000000006
 40
0.9062500000000006
 40
0.9218750000000004
 40
0.9218750000000004
 40
0.9375000000000003
 40
0.9375000000000003
 40
0.9687500000000001
 40
0.9687500000000001
 40
1.0
 40
1.0
 40
1.03125
 40
1.03125
 10
8.29060924988204
 20
7.15249592177662
 30
0.0
 10
8.27251059524416
 20
7.162944052704349
 30
0.0
 10
8.262638945474604
 20
7.166828126897998
 30
0.0
 10
8.246667841769353
 20
7.170724599980979
 30
0.0
 10
8.241107388803888
 20
7.171701106407113
 30
0.0
 10
8.229819175219651
 20
7.17295191172779
 30
0.0
 10
8.22409868287688
 20
7.173231903268493
 30
0.0
 10
8.21251780894955
 20
7.173126637674918
 30
0.0
 10
8.206657381419747
 20
7.17274122486255
 30
0.0
 10
8.194804793198134
 20
7.171304020048816
 30
0.0
 10
8.18880540239854
 20
7.170245796398752
 30
0.0
 10
8.171055441410191
 20
7.166163952972954
 30
0.0
 10
8.159404362555017
 20
7.162229968258403
 30
0.0
 10
8.13649552205485
 20
7.152048432704943
 30
0.0
 10
8.125498231206478
 20
7.145906793758459
 30
0.0
 10
8.104599155582019
 20
7.131866998922718
 30
0.0
 10
8.094583803585666
 20
7.123871486721713
 30
0.0
 10
8.076046055535826
 20
7.106619218156933
 30
0.0
 10
8.067479415987282
 20
7.097352443939107
 30
0.0
 10
8.051639684108748
 20
7.077636398063368
 30
0.0
 10
8.044366485867295
 20
7.067159772147051
 30
0.0
 10
8.031418221913773
 20
7.045647280850785
 30
0.0
 10
8.025683981645914
 20
7.034544123961525
 30
0.0
 10
8.015624627339568
 20
7.01167655297608
 30
0.0
 10
8.011288713676423
 20
6.999849728273075
 30
0.0
 10
8.000695491907514
 20
6.96426700893505
 30
0.0
 10
7.996620921908115
 20
6.940162325392817
 30
0.0
 10
7.995691262843025
 20
6.903598608671884
 30
0.0
 10
7.996274859080739
 20
6.891619539603437
 30
0.0
 10
7.999484190603863
 20
6.868203173133655
 30
0.0
 10
8.00215444657721
 20
6.856633020514182
 30
0.0
 10
8.007985464739214
 20
6.840489130687333
 30
0.0
 10
8.010228894753737
 20
6.835308428193937
 30
0.0
 10
8.015394651712297
 20
6.825415937917389
 30
0.0
 10
8.018345939290665
 20
6.820667200480028
 30
0.0
 10
8.024897007255573
 20
6.811943446535534
 30
0.0
 10
8.028480267417335
 20
6.807976105883779
 30
0.0
 10
8.036302849948667
 20
6.800896077945837
 30
0.0
 10
8.040592328921782
 20
6.797758489520958
 30
0.0
 10
8.049608060297178
 20
6.792587227367276
 30
0.0
 10
8.054322781816003
 20
6.790542238640894
 30
0.0
 10
8.064148411271955
 20
6.787479219845685
 30
0.0
 10
8.069305745587394
 20
6.786460070837289
 30
0.0
 10
8.079728933631298
 20
6.78543876691425
 30
0.0
 10
8.08499847531923
 20
6.785422956608532
 30
0.0
 10
8.095649093390655
 20
6.786249002768908
 30
0.0
 10
8.101060124889518
 20
6.787101100416593
 30
0.0
 10
8.117093647038075
 20
6.790716935639106
 30
0.0
 10
8.127611701690343
 20
6.794509937329417
 30
0.0
 10
8.148478069726874
 20
6.804145040973421
 30
0.0
 10
8.158802910457705
 20
6.810006425643953
 30
0.0
 10
8.178704933423921
 20
6.823001452189033
 30
0.0
 10
8.188381666750091
 20
6.830184352666295
 30
0.0
 10
8.207303363330702
 20
6.845738441215697
 30
0.0
 10
8.21659947849024
 20
6.854169379243285
 30
0.0
 10
8.234371983564927
 20
6.871769654400874
 30
0.0
 10
8.242888076873548
 20
6.880963878109734
 30
0.0
 10
8.259197715263399
 20
6.900127185627792
 30
0.0
 10
8.267028449709292
 20
6.910148795607626
 30
0.0
 10
8.289075207999744
 20
6.941140771489665
 30
0.0
 10
8.301553819742303
 20
6.962471928569377
 30
0.0
 10
8.316142619492842
 20
6.995823619671765
 30
0.0
 10
8.320308836476944
 20
7.007254227273601
 30
0.0
 10
8.326604409687771
 20
7.029735232435827
 30
0.0
 10
8.328792610986024
 20
7.040887184833517
 30
0.0
 10
8.330383431887977
 20
7.057517200453277
 30
0.0
 10
8.330624429709232
 20
7.06304348436255
 30
0.0
 10
8.330487972032797
 20
7.073788516211526
 30
0.0
 10
8.330115214092762
 20
7.079042987318887
 30
0.0
 10
8.328737718295173
 20
7.089320048006526
 30
0.0
 10
8.327733166362258
 20
7.094342682243062
 30
0.0
 10
8.325048251704972
 20
7.104152780609112
 30
0.0
 10
8.323353455580754
 20
7.108971938903753
 30
0.0
 10
8.3172542100566
 20
7.122823555688635
 30
0.0
 10
8.311923968698938
 20
7.131141492252517
 30
0.0
 10
8.298648299994882
 20
7.145970456003853
 30
0.0
 10
8.29060924988204
 20
7.15249592177662
 30
0.0
 10
8.27251059524416
 20
7.162944052704349
 30
0.0
  0
SPLINE
  5
25A
330
1F
100
AcDbEntity
  8
0
  6
CONTINUOUS
 62
     7
100
AcDbSpline
210
0.0
220
0.0
230
1.0
 70
     8
 71
     3
 72
    10
 73
     6
 74
     0
 42
0.00000001
 43
0.00000001
 40
0.0
 40
0.0
 40
0.0
 40
0.0
 40
0.3424076903197501
 40
0.6970666200367073
 40
0.9999999999999999
 40
0.9999999999999999
 40
0.9999999999999999
 40
0.9999999999999999
 10
8.093647687405257
 20
5.625764382032264
 30
0.0
 10
8.096836065549345
 20
5.623921670919945
 30
0.0
 10
8.10332690100407
 20
5.620170317071648
 30
0.0
 10
8.113733139859473
 20
5.614117608004889
 30
0.0
 10
8.12096936572986
 20
5.609949802018853
 30
0.0
 10
8.124302881540224
 20
5.60802981673953
 30
0.0
  0
SPLINE
  5
25B
330
1F
100
AcDbEntity
  8
0
  6
CONTINUOUS
 62
     7
100
AcDbSpline
210
0.0
220
0.0
230
1.0
 70
     8
 71
     3
 72
    10
 73
     6
 74
     0
 42
0.00000001
 43
0.00000001
 40
0.0
 40
0.0
 40
0.0
 40
0.0
 40
0.0007781441568424
 40
0.3605011251001735
 40
1.0
 40
1.0
 40
1.0
 40
1.0
 10
8.07227011542841
 20
5.638045384238167
 30
0.0
 10
8.072273135338444
 20
5.638043616636968
 30
0.0
 10
8.07367220896161
 20
5.637224716674814
 30
0.0
 10
8.079644807010572
 20
5.633826366338322
 30
0.0
 10
8.088183164933696
 20
5.628910512911347
 30
0.0
 10
8.093647687405257
 20
5.625764382032262
 30
0.0
  0
POLYLINE
  5
25C
330
1F
100
AcDbEntity
  8
0
  6
CONTINUOUS
 62
     7
100
AcDb2dPolyline
 66
     1
 10
0.0
 20
0.0
 30
0.0
  0
VERTEX
  5
3EF
330
25C
100
AcDbEntity
  8
0
  6
CONTINUOUS
 62
     7
100
AcDbVertex
100
AcDb2dVertex
 10
7.7153165792
 20
6.2010663727
 30
0.0
  0
VERTEX
  5
3F0
330
25C
100
AcDbEntity
  8
0
  6
CONTINUOUS
 62
     7
100
AcDbVertex
100
AcDb2dVertex
 10
7.7168696192
 20
6.159018069
 30
0.0
  0
VERTEX
  5
3F1
330
25C
100
AcDbEntity
  8
0
  6
CONTINUOUS
 62
     7
100
AcDbVertex
100
AcDb2dVertex
 10
7.7201962293
 20
6.1181281999
 30
0.0
  0
VERTEX
  5
3F2
330
25C
100
AcDbEntity
  8
0
  6
CONTINUOUS
 62
     7
100
AcDbVertex
100
AcDb2dVertex
 10
7.7252888241
 20
6.078490003
 30
0.0
  0
VERTEX
  5
3F3
330
25C
100
AcDbEntity
  8
0
  6
CONTINUOUS
 62
     7
100
AcDbVertex
100
AcDb2dVertex
 10
7.7321357914
 20
6.0401938615
 30
0.0
  0
VERTEX
  5
3F4
330
25C
100
AcDbEntity
  8
0
  6
CONTINUOUS
 62
     7
100
AcDbVertex
100
AcDb2dVertex
 10
7.7407215187
 20
6.0033270986
 30
0.0
  0
VERTEX
  5
3F5
330
25C
100
AcDbEntity
  8
0
  6
CONTINUOUS
 62
     7
100
AcDbVertex
100
AcDb2dVertex
 10
7.7510264288
 20
5.9679737784
 30
0.0
  0
VERTEX
  5
3F6
330
25C
100
AcDbEntity
  8
0
  6
CONTINUOUS
 62
     7
100
AcDbVertex
100
AcDb2dVertex
 10
7.7630270243
 20
5.9342145136
 30
0.0
  0
VERTEX
  5
3F7
330
25C
100
AcDbEntity
  8
0
  6
CONTINUOUS
 62
     7
100
AcDbVertex
100
AcDb2dVertex
 10
7.7766959413
 20
5.9021262825
 30
0.0
  0
VERTEX
  5
3F8
330
25C
100
AcDbEntity
  8
0
  6
CONTINUOUS
 62
     7
100
AcDbVertex
100
AcDb2dVertex
 10
7.7920020119
 20
5.8717822529
 30
0.0
  0
VERTEX
  5
3F9
330
25C
100
AcDbEntity
  8
0
  6
CONTINUOUS
 62
     7
100
AcDbVertex
100
AcDb2dVertex
 10
7.8089103351
 20
5.8432516156
 30
0.0
  0
VERTEX
  5
3FA
330
25C
100
AcDbEntity
  8
0
  6
CONTINUOUS
 62
     7
100
AcDbVertex
100
AcDb2dVertex
 10
7.8273823563
 20
5.8165994263
 30
0.0
  0
VERTEX
  5
3FB
330
25C
100
AcDbEntity
  8
0
  6
CONTINUOUS
 62
     7
100
AcDbVertex
100
AcDb2dVertex
 10
7.8473759555
 20
5.7918864577
 30
0.0
  0
VERTEX
  5
3FC
330
25C
100
AcDbEntity
  8
0
  6
CONTINUOUS
 62
     7
100
AcDbVertex
100
AcDb2dVertex
 10
7.8688455431
 20
5.7691690603
 30
0.0
  0
VERTEX
  5
3FD
330
25C
100
AcDbEntity
  8
0
  6
CONTINUOUS
 62
     7
100
AcDbVertex
100
AcDb2dVertex
 10
7.891742164
 20
5.7484990347
 30
0.0
  0
VERTEX
  5
3FE
330
25C
100
AcDbEntity
  8
0
  6
CONTINUOUS
 62
     7
100
AcDbVertex
100
AcDb2dVertex
 10
7.916013609
 20
5.7299235127
 30
0.0
  0
VERTEX
  5
3FF
330
25C
100
AcDbEntity
  8
0
  6
CONTINUOUS
 62
     7
100
AcDbVertex
100
AcDb2dVertex
 10
7.9416045343
 20
5.7134848506
 30
0.0
  0
VERTEX
  5
400
330
25C
100
AcDbEntity
  8
0
  6
CONTINUOUS
 62
     7
100
AcDbVertex
100
AcDb2dVertex
 10
7.9435437697
 20
5.7123574491
 30
0.0
  0
SEQEND
  5
401
330
25C
100
AcDbEntity
  8
0
  6
CONTINUOUS
 62
     7
  0
LINE
  5
25D
330
1F
100
AcDbEntity
  8
0
  6
CONTINUOUS
 62
     7
100
AcDbLine
 10
8.0099444047
 20
6.0309813494
 30
0.0
 11
7.7153165792
 21
6.2010663727
 31
0.0
  0
LINE
  5
25E
330
1F
100
AcDbEntity
  8
0
  6
CONTINUOUS
 62
     7
100
AcDbLine
 10
8.0099444047
 20
6.0631286255
 30
0.0
 11
7.7153165792
 21
6.2332136488
 31
0.0
  0
POLYLINE
  5
25F
330
1F
100
AcDbEntity
  8
0
  6
CONTINUOUS
 62
     7
100
AcDb2dPolyline
 66
     1
 10
0.0
 20
0.0
 30
0.0
  0
VERTEX
  5
402
330
25F
100
AcDbEntity
  8
0
  6
CONTINUOUS
 62
     7
100
AcDbVertex
100
AcDb2dVertex
 10
8.8357059872
 20
7.6733348783
 30
0.0
  0
VERTEX
  5
403
330
25F
100
AcDbEntity
  8
0
  6
CONTINUOUS
 62
     7
100
AcDbVertex
100
AcDb2dVertex
 10
8.8018562548
 20
7.6716704234
 30
0.0
  0
VERTEX
  5
404
330
25F
100
AcDbEntity
  8
0
  6
CONTINUOUS
 62
     7
100
AcDbVertex
100
AcDb2dVertex
 10
8.7673060967
 20
7.6677152403
 30
0.0
  0
VERTEX
  5
405
330
25F
100
AcDbEntity
  8
0
  6
CONTINUOUS
 62
     7
100
AcDbVertex
100
AcDb2dVertex
 10
8.7321342944
 20
7.6614783477
 30
0.0
  0
VERTEX
  5
406
330
25F
100
AcDbEntity
  8
0
  6
CONTINUOUS
 62
     7
100
AcDbVertex
100
AcDb2dVertex
 10
8.696421047
 20
7.6529739669
 30
0.0
  0
VERTEX
  5
407
330
25F
100
AcDbEntity
  8
0
  6
CONTINUOUS
 62
     7
100
AcDbVertex
100
AcDb2dVertex
 10
8.660247788
 20
7.6422214898
 30
0.0
  0
VERTEX
  5
408
330
25F
100
AcDbEntity
  8
0
  6
CONTINUOUS
 62
     7
100
AcDbVertex
100
AcDb2dVertex
 10
8.6236970002
 20
7.6292454343
 30
0.0
  0
VERTEX
  5
409
330
25F
100
AcDbEntity
  8
0
  6
CONTINUOUS
 62
     7
100
AcDbVertex
100
AcDb2dVertex
 10
8.5868520269
 20
7.6140753884
 30
0.0
  0
VERTEX
  5
40A
330
25F
100
AcDbEntity
  8
0
  6
CONTINUOUS
 62
     7
100
AcDbVertex
100
AcDb2dVertex
 10
8.5497968823
 20
7.5967459431
 30
0.0
  0
VERTEX
  5
40B
330
25F
100
AcDbEntity
  8
0
  6
CONTINUOUS
 62
     7
100
AcDbVertex
100
AcDb2dVertex
 10
8.5126160599
 20
7.577296613
 30
0.0
  0
VERTEX
  5
40C
330
25F
100
AcDbEntity
  8
0
  6
CONTINUOUS
 62
     7
100
AcDbVertex
100
AcDb2dVertex
 10
8.4753943397
 20
7.5557717467
 30
0.0
  0
VERTEX
  5
40D
330
25F
100
AcDbEntity
  8
0
  6
CONTINUOUS
 62
     7
100
AcDbVertex
100
AcDb2dVertex
 10
8.438216595
 20
7.5322204254
 30
0.0
  0
VERTEX
  5
40E
330
25F
100
AcDbEntity
  8
0
  6
CONTINUOUS
 62
     7
100
AcDbVertex
100
AcDb2dVertex
 10
8.4011675989
 20
7.5066963511
 30
0.0
  0
VERTEX
  5
40F
330
25F
100
AcDbEntity
  8
0
  6
CONTINUOUS
 62
     7
100
AcDbVertex
100
AcDb2dVertex
 10
8.3643318307
 20
7.4792577238
 30
0.0
  0
VERTEX
  5
410
330
25F
100
AcDbEntity
  8
0
  6
CONTINUOUS
 62
     7
100
AcDbVertex
100
AcDb2dVertex
 10
8.3277932837
 20
7.4499671095
 30
0.0
  0
VERTEX
  5
411
330
25F
100
AcDbEntity
  8
0
  6
CONTINUOUS
 62
     7
100
AcDbVertex
100
AcDb2dVertex
 10
8.2916352734
 20
7.4188912968
 30
0.0
  0
VERTEX
  5
412
330
25F
100
AcDbEntity
  8
0
  6
CONTINUOUS
 62
     7
100
AcDbVertex
100
AcDb2dVertex
 10
8.2559402476
 20
7.386101145
 30
0.0
  0
VERTEX
  5
413
330
25F
100
AcDbEntity
  8
0
  6
CONTINUOUS
 62
     7
100
AcDbVertex
100
AcDb2dVertex
 10
8.2207895984
 20
7.3516714226
 30
0.0
  0
VERTEX
  5
414
330
25F
100
AcDbEntity
  8
0
  6
CONTINUOUS
 62
     7
100
AcDbVertex
100
AcDb2dVertex
 10
8.1862634767
 20
7.3156806365
 30
0.0
  0
VERTEX
  5
415
330
25F
100
AcDbEntity
  8
0
  6
CONTINUOUS
 62
     7
100
AcDbVertex
100
AcDb2dVertex
 10
8.1524406091
 20
7.2782108532
 30
0.0
  0
VERTEX
  5
416
330
25F
100
AcDbEntity
  8
0
  6
CONTINUOUS
 62
     7
100
AcDbVertex
100
AcDb2dVertex
 10
8.1193981189
 20
7.2393475116
 30
0.0
  0
VERTEX
  5
417
330
25F
100
AcDbEntity
  8
0
  6
CONTINUOUS
 62
     7
100
AcDbVertex
100
AcDb2dVertex
 10
8.0872113498
 20
7.1991792282
 30
0.0
  0
VERTEX
  5
418
330
25F
100
AcDbEntity
  8
0
  6
CONTINUOUS
 62
     7
100
AcDbVertex
100
AcDb2dVertex
 10
8.0559536944
 20
7.1577975951
 30
0.0
  0
VERTEX
  5
419
330
25F
100
AcDbEntity
  8
0
  6
CONTINUOUS
 62
     7
100
AcDbVertex
100
AcDb2dVertex
 10
8.0256964266
 20
7.1152969711
 30
0.0
  0
VERTEX
  5
41A
330
25F
100
AcDbEntity
  8
0
  6
CONTINUOUS
 62
     7
100
AcDbVertex
100
AcDb2dVertex
 10
7.9965085394
 20
7.0717742665
 30
0.0
  0
VERTEX
  5
41B
330
25F
100
AcDbEntity
  8
0
  6
CONTINUOUS
 62
     7
100
AcDbVertex
100
AcDb2dVertex
 10
7.9684565872
 20
7.027328722
 30
0.0
  0
VERTEX
  5
41C
330
25F
100
AcDbEntity
  8
0
  6
CONTINUOUS
 62
     7
100
AcDbVertex
100
AcDb2dVertex
 10
7.9416045343
 20
6.9820616828
 30
0.0
  0
VERTEX
  5
41D
330
25F
100
AcDbEntity
  8
0
  6
CONTINUOUS
 62
     7
100
AcDbVertex
100
AcDb2dVertex
 10
7.916013609
 20
6.9360763672
 30
0.0
  0
VERTEX
  5
41E
330
25F
100
AcDbEntity
  8
0
  6
CONTINUOUS
 62
     7
100
AcDbVertex
100
AcDb2dVertex
 10
7.891742164
 20
6.8894776313
 30
0.0
  0
VERTEX
  5
41F
330
25F
100
AcDbEntity
  8
0
  6
CONTINUOUS
 62
     7
100
AcDbVertex
100
AcDb2dVertex
 10
7.8688455431
 20
6.8423717299
 30
0.0
  0
VERTEX
  5
420
330
25F
100
AcDbEntity
  8
0
  6
CONTINUOUS
 62
     7
100
AcDbVertex
100
AcDb2dVertex
 10
7.8473759555
 20
6.7948660743
 30
0.0
  0
VERTEX
  5
421
330
25F
100
AcDbEntity
  8
0
  6
CONTINUOUS
 62
     7
100
AcDbVertex
100
AcDb2dVertex
 10
7.8273823563
 20
6.7470689874
 30
0.0
  0
VERTEX
  5
422
330
25F
100
AcDbEntity
  8
0
  6
CONTINUOUS
 62
     7
100
AcDbVertex
100
AcDb2dVertex
 10
7.8089103351
 20
6.6990894564
 30
0.0
  0
VERTEX
  5
423
330
25F
100
AcDbEntity
  8
0
  6
CONTINUOUS
 62
     7
100
AcDbVertex
100
AcDb2dVertex
 10
7.7920020119
 20
6.6510368847
 30
0.0
  0
VERTEX
  5
424
330
25F
100
AcDbEntity
  8
0
  6
CONTINUOUS
 62
     7
100
AcDbVertex
100
AcDb2dVertex
 10
7.7766959413
 20
6.6030208421
 30
0.0
  0
VERTEX
  5
425
330
25F
100
AcDbEntity
  8
0
  6
CONTINUOUS
 62
     7
100
AcDbVertex
100
AcDb2dVertex
 10
7.7630270243
 20
6.5551508153
 30
0.0
  0
VERTEX
  5
426
330
25F
100
AcDbEntity
  8
0
  6
CONTINUOUS
 62
     7
100
AcDbVertex
100
AcDb2dVertex
 10
7.7510264288
 20
6.5075359579
 30
0.0
  0
VERTEX
  5
427
330
25F
100
AcDbEntity
  8
0
  6
CONTINUOUS
 62
     7
100
AcDbVertex
100
AcDb2dVertex
 10
7.7407215187
 20
6.4602848417
 30
0.0
  0
VERTEX
  5
428
330
25F
100
AcDbEntity
  8
0
  6
CONTINUOUS
 62
     7
100
AcDbVertex
100
AcDb2dVertex
 10
7.7321357914
 20
6.4135052091
 30
0.0
  0
VERTEX
  5
429
330
25F
100
AcDbEntity
  8
0
  6
CONTINUOUS
 62
     7
100
AcDbVertex
100
AcDb2dVertex
 10
7.7252888241
 20
6.3673037274
 30
0.0
  0
VERTEX
  5
42A
330
25F
100
AcDbEntity
  8
0
  6
CONTINUOUS
 62
     7
100
AcDbVertex
100
AcDb2dVertex
 10
7.7201962293
 20
6.3217857457
 30
0.0
  0
VERTEX
  5
42B
330
25F
100
AcDbEntity
  8
0
  6
CONTINUOUS
 62
     7
100
AcDbVertex
100
AcDb2dVertex
 10
7.7168696192
 20
6.2770550544
 30
0.0
  0
VERTEX
  5
42C
330
25F
100
AcDbEntity
  8
0
  6
CONTINUOUS
 62
     7
100
AcDbVertex
100
AcDb2dVertex
 10
7.7153165792
 20
6.2332136488
 30
0.0
  0
SEQEND
  5
42D
330
25F
100
AcDbEntity
  8
0
  6
CONTINUOUS
 62
     7
  0
LINE
  5
260
330
1F
100
AcDbEntity
  8
0
  6
CONTINUOUS
 62
     7
100
AcDbLine
 10
8.798587521
 20
7.6947629127
 30
0.0
 11
8.8357059872
 21
7.6733348783
 31
0.0
  0
POLYLINE
  5
261
330
1F
100
AcDbEntity
  8
0
  6
CONTINUOUS
 62
     7
100
AcDb2dPolyline
 66
     1
 10
0.0
 20
0.0
 30
0.0
  0
VERTEX
  5
42E
330
261
100
AcDbEntity
  8
0
  6
CONTINUOUS
 62
     7
100
AcDbVertex
100
AcDb2dVertex
 10
7.9252970099
 20
5.7236127447
 30
0.0
  0
VERTEX
  5
42F
330
261
100
AcDbEntity
  8
0
  6
CONTINUOUS
 62
     7
100
AcDbVertex
100
AcDb2dVertex
 10
7.9065126964
 20
5.7337350487
 30
0.0
  0
VERTEX
  5
430
330
261
100
AcDbEntity
  8
0
  6
CONTINUOUS
 62
     7
100
AcDbVertex
100
AcDb2dVertex
 10
7.8808966849
 20
5.7499558562
 30
0.0
  0
VERTEX
  5
431
330
261
100
AcDbEntity
  8
0
  6
CONTINUOUS
 62
     7
100
AcDbVertex
100
AcDb2dVertex
 10
7.8565878026
 20
5.7683040323
 30
0.0
  0
VERTEX
  5
432
330
261
100
AcDbEntity
  8
0
  6
CONTINUOUS
 62
     7
100
AcDbVertex
100
AcDb2dVertex
 10
7.8336411505
 20
5.7887379871
 30
0.0
  0
VERTEX
  5
433
330
261
100
AcDbEntity
  8
0
  6
CONTINUOUS
 62
     7
100
AcDbVertex
100
AcDb2dVertex
 10
7.812108742
 20
5.8112114029
 30
0.0
  0
VERTEX
  5
434
330
261
100
AcDbEntity
  8
0
  6
CONTINUOUS
 62
     7
100
AcDbVertex
100
AcDb2dVertex
 10
7.7920393847
 20
5.8356733391
 30
0.0
  0
VERTEX
  5
435
330
261
100
AcDbEntity
  8
0
  6
CONTINUOUS
 62
     7
100
AcDbVertex
100
AcDb2dVertex
 10
7.7734785698
 20
5.8620683476
 30
0.0
  0
VERTEX
  5
436
330
261
100
AcDbEntity
  8
0
  6
CONTINUOUS
 62
     7
100
AcDbVertex
100
AcDb2dVertex
 10
7.7564683693
 20
5.8903365989
 30
0.0
  0
VERTEX
  5
437
330
261
100
AcDbEntity
  8
0
  6
CONTINUOUS
 62
     7
100
AcDbVertex
100
AcDb2dVertex
 10
7.7410473403
 20
5.920414017
 30
0.0
  0
VERTEX
  5
438
330
261
100
AcDbEntity
  8
0
  6
CONTINUOUS
 62
     7
100
AcDbVertex
100
AcDb2dVertex
 10
7.7272504376
 20
5.9522324254
 30
0.0
  0
VERTEX
  5
439
330
261
100
AcDbEntity
  8
0
  6
CONTINUOUS
 62
     7
100
AcDbVertex
100
AcDb2dVertex
 10
7.7151089348
 20
5.9857197011
 30
0.0
  0
VERTEX
  5
43A
330
261
100
AcDbEntity
  8
0
  6
CONTINUOUS
 62
     7
100
AcDbVertex
100
AcDb2dVertex
 10
7.7046503531
 20
6.0207999383
 30
0.0
  0
VERTEX
  5
43B
330
261
100
AcDbEntity
  8
0
  6
CONTINUOUS
 62
     7
100
AcDbVertex
100
AcDb2dVertex
 10
7.6958983991
 20
6.0573936206
 30
0.0
  0
VERTEX
  5
43C
330
261
100
AcDbEntity
  8
0
  6
CONTINUOUS
 62
     7
100
AcDbVertex
100
AcDb2dVertex
 10
7.6888729107
 20
6.0954178008
 30
0.0
  0
VERTEX
  5
43D
330
261
100
AcDbEntity
  8
0
  6
CONTINUOUS
 62
     7
100
AcDbVertex
100
AcDb2dVertex
 10
7.6835898128
 20
6.1347862894
 30
0.0
  0
VERTEX
  5
43E
330
261
100
AcDbEntity
  8
0
  6
CONTINUOUS
 62
     7
100
AcDbVertex
100
AcDb2dVertex
 10
7.6800610805
 20
6.1754098496
 30
0.0
  0
VERTEX
  5
43F
330
261
100
AcDbEntity
  8
0
  6
CONTINUOUS
 62
     7
100
AcDbVertex
100
AcDb2dVertex
 10
7.6782947124
 20
6.2171963997
 30
0.0
  0
VERTEX
  5
440
330
261
100
AcDbEntity
  8
0
  6
CONTINUOUS
 62
     7
100
AcDbVertex
100
AcDb2dVertex
 10
7.6782947124
 20
6.260051222
 30
0.0
  0
VERTEX
  5
441
330
261
100
AcDbEntity
  8
0
  6
CONTINUOUS
 62
     7
100
AcDbVertex
100
AcDb2dVertex
 10
7.6800610805
 20
6.3038771773
 30
0.0
  0
VERTEX
  5
442
330
261
100
AcDbEntity
  8
0
  6
CONTINUOUS
 62
     7
100
AcDbVertex
100
AcDb2dVertex
 10
7.6835898128
 20
6.3485749251
 30
0.0
  0
VERTEX
  5
443
330
261
100
AcDbEntity
  8
0
  6
CONTINUOUS
 62
     7
100
AcDbVertex
100
AcDb2dVertex
 10
7.6888729107
 20
6.3940431487
 30
0.0
  0
VERTEX
  5
444
330
261
100
AcDbEntity
  8
0
  6
CONTINUOUS
 62
     7
100
AcDbVertex
100
AcDb2dVertex
 10
7.6958983991
 20
6.4401787851
 30
0.0
  0
VERTEX
  5
445
330
261
100
AcDbEntity
  8
0
  6
CONTINUOUS
 62
     7
100
AcDbVertex
100
AcDb2dVertex
 10
7.7046503531
 20
6.4868772585
 30
0.0
  0
VERTEX
  5
446
330
261
100
AcDbEntity
  8
0
  6
CONTINUOUS
 62
     7
100
AcDbVertex
100
AcDb2dVertex
 10
7.7151089348
 20
6.5340327171
 30
0.0
  0
VERTEX
  5
447
330
261
100
AcDbEntity
  8
0
  6
CONTINUOUS
 62
     7
100
AcDbVertex
100
AcDb2dVertex
 10
7.7272504376
 20
6.5815382736
 30
0.0
  0
VERTEX
  5
448
330
261
100
AcDbEntity
  8
0
  6
CONTINUOUS
 62
     7
100
AcDbVertex
100
AcDb2dVertex
 10
7.7410473403
 20
6.6292862467
 30
0.0
  0
VERTEX
  5
449
330
261
100
AcDbEntity
  8
0
  6
CONTINUOUS
 62
     7
100
AcDbVertex
100
AcDb2dVertex
 10
7.7564683693
 20
6.677168406
 30
0.0
  0
VERTEX
  5
44A
330
261
100
AcDbEntity
  8
0
  6
CONTINUOUS
 62
     7
100
AcDbVertex
100
AcDb2dVertex
 10
7.7734785698
 20
6.7250762167
 30
0.0
  0
VERTEX
  5
44B
330
261
100
AcDbEntity
  8
0
  6
CONTINUOUS
 62
     7
100
AcDbVertex
100
AcDb2dVertex
 10
7.7920393847
 20
6.7729010859
 30
0.0
  0
VERTEX
  5
44C
330
261
100
AcDbEntity
  8
0
  6
CONTINUOUS
 62
     7
100
AcDbVertex
100
AcDb2dVertex
 10
7.812108742
 20
6.8205346088
 30
0.0
  0
VERTEX
  5
44D
330
261
100
AcDbEntity
  8
0
  6
CONTINUOUS
 62
     7
100
AcDbVertex
100
AcDb2dVertex
 10
7.8336411505
 20
6.8678688143
 30
0.0
  0
VERTEX
  5
44E
330
261
100
AcDbEntity
  8
0
  6
CONTINUOUS
 62
     7
100
AcDbVertex
100
AcDb2dVertex
 10
7.8565878026
 20
6.9147964096
 30
0.0
  0
VERTEX
  5
44F
330
261
100
AcDbEntity
  8
0
  6
CONTINUOUS
 62
     7
100
AcDbVertex
100
AcDb2dVertex
 10
7.8808966849
 20
6.9612110239
 30
0.0
  0
VERTEX
  5
450
330
261
100
AcDbEntity
  8
0
  6
CONTINUOUS
 62
     7
100
AcDbVertex
100
AcDb2dVertex
 10
7.9065126964
 20
7.0070074487
 30
0.0
  0
VERTEX
  5
451
330
261
100
AcDbEntity
  8
0
  6
CONTINUOUS
 62
     7
100
AcDbVertex
100
AcDb2dVertex
 10
7.9333777731
 20
7.0520818772
 30
0.0
  0
VERTEX
  5
452
330
261
100
AcDbEntity
  8
0
  6
CONTINUOUS
 62
     7
100
AcDbVertex
100
AcDb2dVertex
 10
7.96143102
 20
7.096332139
 30
0.0
  0
VERTEX
  5
453
330
261
100
AcDbEntity
  8
0
  6
CONTINUOUS
 62
     7
100
AcDbVertex
100
AcDb2dVertex
 10
7.9906088484
 20
7.1396579316
 30
0.0
  0
VERTEX
  5
454
330
261
100
AcDbEntity
  8
0
  6
CONTINUOUS
 62
     7
100
AcDbVertex
100
AcDb2dVertex
 10
8.0208451209
 20
7.1819610485
 30
0.0
  0
VERTEX
  5
455
330
261
100
AcDbEntity
  8
0
  6
CONTINUOUS
 62
     7
100
AcDbVertex
100
AcDb2dVertex
 10
8.0520713009
 20
7.2231456008
 30
0.0
  0
VERTEX
  5
456
330
261
100
AcDbEntity
  8
0
  6
CONTINUOUS
 62
     7
100
AcDbVertex
100
AcDb2dVertex
 10
8.0842166076
 20
7.2631182354
 30
0.0
  0
VERTEX
  5
457
330
261
100
AcDbEntity
  8
0
  6
CONTINUOUS
 62
     7
100
AcDbVertex
100
AcDb2dVertex
 10
8.1172081774
 20
7.3017883461
 30
0.0
  0
VERTEX
  5
458
330
261
100
AcDbEntity
  8
0
  6
CONTINUOUS
 62
     7
100
AcDbVertex
100
AcDb2dVertex
 10
8.1509712279
 20
7.3390682791
 30
0.0
  0
VERTEX
  5
459
330
261
100
AcDbEntity
  8
0
  6
CONTINUOUS
 62
     7
100
AcDbVertex
100
AcDb2dVertex
 10
8.1854292283
 20
7.3748735319
 30
0.0
  0
VERTEX
  5
45A
330
261
100
AcDbEntity
  8
0
  6
CONTINUOUS
 62
     7
100
AcDbVertex
100
AcDb2dVertex
 10
8.2205040725
 20
7.4091229445
 30
0.0
  0
VERTEX
  5
45B
330
261
100
AcDbEntity
  8
0
  6
CONTINUOUS
 62
     7
100
AcDbVertex
100
AcDb2dVertex
 10
8.2561162563
 20
7.4417388836
 30
0.0
  0
VERTEX
  5
45C
330
261
100
AcDbEntity
  8
0
  6
CONTINUOUS
 62
     7
100
AcDbVertex
100
AcDb2dVertex
 10
8.2921850571
 20
7.4726474185
 30
0.0
  0
VERTEX
  5
45D
330
261
100
AcDbEntity
  8
0
  6
CONTINUOUS
 62
     7
100
AcDbVertex
100
AcDb2dVertex
 10
8.3286287178
 20
7.5017784887
 30
0.0
  0
VERTEX
  5
45E
330
261
100
AcDbEntity
  8
0
  6
CONTINUOUS
 62
     7
100
AcDbVertex
100
AcDb2dVertex
 10
8.3653646314
 20
7.5290660626
 30
0.0
  0
VERTEX
  5
45F
330
261
100
AcDbEntity
  8
0
  6
CONTINUOUS
 62
     7
100
AcDbVertex
100
AcDb2dVertex
 10
8.4023095283
 20
7.5544482874
 30
0.0
  0
VERTEX
  5
460
330
261
100
AcDbEntity
  8
0
  6
CONTINUOUS
 62
     7
100
AcDbVertex
100
AcDb2dVertex
 10
8.4393796653
 20
7.577867629
 30
0.0
  0
VERTEX
  5
461
330
261
100
AcDbEntity
  8
0
  6
CONTINUOUS
 62
     7
100
AcDbVertex
100
AcDb2dVertex
 10
8.4764910155
 20
7.5992710028
 30
0.0
  0
VERTEX
  5
462
330
261
100
AcDbEntity
  8
0
  6
CONTINUOUS
 62
     7
100
AcDbVertex
100
AcDb2dVertex
 10
8.5135594583
 20
7.6186098935
 30
0.0
  0
VERTEX
  5
463
330
261
100
AcDbEntity
  8
0
  6
CONTINUOUS
 62
     7
100
AcDbVertex
100
AcDb2dVertex
 10
8.5505009705
 20
7.6358404656
 30
0.0
  0
VERTEX
  5
464
330
261
100
AcDbEntity
  8
0
  6
CONTINUOUS
 62
     7
100
AcDbVertex
100
AcDb2dVertex
 10
8.5872318166
 20
7.6509236626
 30
0.0
  0
VERTEX
  5
465
330
261
100
AcDbEntity
  8
0
  6
CONTINUOUS
 62
     7
100
AcDbVertex
100
AcDb2dVertex
 10
8.6236687386
 20
7.6638252951
 30
0.0
  0
VERTEX
  5
466
330
261
100
AcDbEntity
  8
0
  6
CONTINUOUS
 62
     7
100
AcDbVertex
100
AcDb2dVertex
 10
8.6597291448
 20
7.6745161192
 30
0.0
  0
VERTEX
  5
467
330
261
100
AcDbEntity
  8
0
  6
CONTINUOUS
 62
     7
100
AcDbVertex
100
AcDb2dVertex
 10
8.6953312969
 20
7.6829719017
 30
0.0
  0
VERTEX
  5
468
330
261
100
AcDbEntity
  8
0
  6
CONTINUOUS
 62
     7
100
AcDbVertex
100
AcDb2dVertex
 10
8.7303944953
 20
7.689173476
 30
0.0
  0
VERTEX
  5
469
330
261
100
AcDbEntity
  8
0
  6
CONTINUOUS
 62
     7
100
AcDbVertex
100
AcDb2dVertex
 10
8.764839262
 20
7.6931067849
 30
0.0
  0
VERTEX
  5
46A
330
261
100
AcDbEntity
  8
0
  6
CONTINUOUS
 62
     7
100
AcDbVertex
100
AcDb2dVertex
 10
8.798587521
 20
7.6947629127
 30
0.0
  0
SEQEND
  5
46B
330
261
100
AcDbEntity
  8
0
  6
CONTINUOUS
 62
     7
  0
LINE
  5
262
330
1F
100
AcDbEntity
  8
0
  6
CONTINUOUS
 62
     7
100
AcDbLine
 10
9.1053849351
 20
6.6832668614
 30
0.0
 11
9.1053849351
 21
6.6511195853
 31
0.0
  0
LINE
  5
263
330
1F
100
AcDbEntity
  8
0
  6
CONTINUOUS
 62
     7
100
AcDbLine
 10
9.1053849351
 20
6.6832668614
 30
0.0
 11
9.004921052
 21
6.6252702961
 31
0.0
  0
POLYLINE
  5
264
330
1F
100
AcDbEntity
  8
0
  6
CONTINUOUS
 62
     7
100
AcDb2dPolyline
 66
     1
 10
0.0
 20
0.0
 30
0.0
  0
VERTEX
  5
46C
330
264
100
AcDbEntity
  8
0
  6
CONTINUOUS
 62
     7
100
AcDbVertex
100
AcDb2dVertex
 10
8.5949079604
 20
6.3885747765
 30
0.0
  0
VERTEX
  5
46D
330
264
100
AcDbEntity
  8
0
  6
CONTINUOUS
 62
     7
100
AcDbVertex
100
AcDb2dVertex
 10
8.5971174501
 20
6.4119849716
 30
0.0
  0
VERTEX
  5
46E
330
264
100
AcDbEntity
  8
0
  6
CONTINUOUS
 62
     7
100
AcDbVertex
100
AcDb2dVertex
 10
8.601115164
 20
6.436090573
 30
0.0
  0
VERTEX
  5
46F
330
264
100
AcDbEntity
  8
0
  6
CONTINUOUS
 62
     7
100
AcDbVertex
100
AcDb2dVertex
 10
8.6068658509
 20
6.4606790225
 30
0.0
  0
VERTEX
  5
470
330
264
100
AcDbEntity
  8
0
  6
CONTINUOUS
 62
     7
100
AcDbVertex
100
AcDb2dVertex
 10
8.6143188024
 20
6.4855335039
 30
0.0
  0
VERTEX
  5
471
330
264
100
AcDbEntity
  8
0
  6
CONTINUOUS
 62
     7
100
AcDbVertex
100
AcDb2dVertex
 10
8.6234082999
 20
6.5104348554
 30
0.0
  0
VERTEX
  5
472
330
264
100
AcDbEntity
  8
0
  6
CONTINUOUS
 62
     7
100
AcDbVertex
100
AcDb2dVertex
 10
8.634054194
 20
6.5351635018
 30
0.0
  0
VERTEX
  5
473
330
264
100
AcDbEntity
  8
0
  6
CONTINUOUS
 62
     7
100
AcDbVertex
100
AcDb2dVertex
 10
8.6461626113
 20
6.5595013909
 30
0.0
  0
VERTEX
  5
474
330
264
100
AcDbEntity
  8
0
  6
CONTINUOUS
 62
     7
100
AcDbVertex
100
AcDb2dVertex
 10
8.6596267822
 20
6.5832339159
 30
0.0
  0
VERTEX
  5
475
330
264
100
AcDbEntity
  8
0
  6
CONTINUOUS
 62
     7
100
AcDbVertex
100
AcDb2dVertex
 10
8.6743279824
 20
6.6061518083
 30
0.0
  0
VERTEX
  5
476
330
264
100
AcDbEntity
  8
0
  6
CONTINUOUS
 62
     7
100
AcDbVertex
100
AcDb2dVertex
 10
8.6901365795
 20
6.6280529825
 30
0.0
  0
VERTEX
  5
477
330
264
100
AcDbEntity
  8
0
  6
CONTINUOUS
 62
     7
100
AcDbVertex
100
AcDb2dVertex
 10
8.7069131766
 20
6.6487443185
 30
0.0
  0
VERTEX
  5
478
330
264
100
AcDbEntity
  8
0
  6
CONTINUOUS
 62
     7
100
AcDbVertex
100
AcDb2dVertex
 10
8.7245098408
 20
6.668043364
 30
0.0
  0
VERTEX
  5
479
330
264
100
AcDbEntity
  8
0
  6
CONTINUOUS
 62
     7
100
AcDbVertex
100
AcDb2dVertex
 10
8.7427714084
 20
6.685779944
 30
0.0
  0
VERTEX
  5
47A
330
264
100
AcDbEntity
  8
0
  6
CONTINUOUS
 62
     7
100
AcDbVertex
100
AcDb2dVertex
 10
8.7615368525
 20
6.7017976609
 30
0.0
  0
VERTEX
  5
47B
330
264
100
AcDbEntity
  8
0
  6
CONTINUOUS
 62
     7
100
AcDbVertex
100
AcDb2dVertex
 10
8.7806407031
 20
6.7159552735
 30
0.0
  0
VERTEX
  5
47C
330
264
100
AcDbEntity
  8
0
  6
CONTINUOUS
 62
     7
100
AcDbVertex
100
AcDb2dVertex
 10
8.7999145062
 20
6.7281279429
 30
0.0
  0
VERTEX
  5
47D
330
264
100
AcDbEntity
  8
0
  6
CONTINUOUS
 62
     7
100
AcDbVertex
100
AcDb2dVertex
 10
8.8191883093
 20
6.7382083329
 30
0.0
  0
VERTEX
  5
47E
330
264
100
AcDbEntity
  8
0
  6
CONTINUOUS
 62
     7
100
AcDbVertex
100
AcDb2dVertex
 10
8.8382921599
 20
6.7461075567
 30
0.0
  0
VERTEX
  5
47F
330
264
100
AcDbEntity
  8
0
  6
CONTINUOUS
 62
     7
100
AcDbVertex
100
AcDb2dVertex
 10
8.857057604
 20
6.7517559604
 30
0.0
  0
VERTEX
  5
480
330
264
100
AcDbEntity
  8
0
  6
CONTINUOUS
 62
     7
100
AcDbVertex
100
AcDb2dVertex
 10
8.8753191716
 20
6.7551037375
 30
0.0
  0
VERTEX
  5
481
330
264
100
AcDbEntity
  8
0
  6
CONTINUOUS
 62
     7
100
AcDbVertex
100
AcDb2dVertex
 10
8.8929158358
 20
6.7561213681
 30
0.0
  0
VERTEX
  5
482
330
264
100
AcDbEntity
  8
0
  6
CONTINUOUS
 62
     7
100
AcDbVertex
100
AcDb2dVertex
 10
8.9096924329
 20
6.7547998788
 30
0.0
  0
VERTEX
  5
483
330
264
100
AcDbEntity
  8
0
  6
CONTINUOUS
 62
     7
100
AcDbVertex
100
AcDb2dVertex
 10
8.92550103
 20
6.7511509223
 30
0.0
  0
VERTEX
  5
484
330
264
100
AcDbEntity
  8
0
  6
CONTINUOUS
 62
     7
100
AcDbVertex
100
AcDb2dVertex
 10
8.9402022302
 20
6.7452066743
 30
0.0
  0
VERTEX
  5
485
330
264
100
AcDbEntity
  8
0
  6
CONTINUOUS
 62
     7
100
AcDbVertex
100
AcDb2dVertex
 10
8.9536664011
 20
6.7370195502
 30
0.0
  0
VERTEX
  5
486
330
264
100
AcDbEntity
  8
0
  6
CONTINUOUS
 62
     7
100
AcDbVertex
100
AcDb2dVertex
 10
8.9657748184
 20
6.7266617421
 30
0.0
  0
VERTEX
  5
487
330
264
100
AcDbEntity
  8
0
  6
CONTINUOUS
 62
     7
100
AcDbVertex
100
AcDb2dVertex
 10
8.9764207125
 20
6.7142245834
 30
0.0
  0
VERTEX
  5
488
330
264
100
AcDbEntity
  8
0
  6
CONTINUOUS
 62
     7
100
AcDbVertex
100
AcDb2dVertex
 10
8.98551021
 20
6.6998177423
 30
0.0
  0
VERTEX
  5
489
330
264
100
AcDbEntity
  8
0
  6
CONTINUOUS
 62
     7
100
AcDbVertex
100
AcDb2dVertex
 10
8.9929631615
 20
6.6835682556
 30
0.0
  0
VERTEX
  5
48A
330
264
100
AcDbEntity
  8
0
  6
CONTINUOUS
 62
     7
100
AcDbVertex
100
AcDb2dVertex
 10
8.9987138484
 20
6.6656194079
 30
0.0
  0
VERTEX
  5
48B
330
264
100
AcDbEntity
  8
0
  6
CONTINUOUS
 62
     7
100
AcDbVertex
100
AcDb2dVertex
 10
9.0027115622
 20
6.6461294686
 30
0.0
  0
VERTEX
  5
48C
330
264
100
AcDbEntity
  8
0
  6
CONTINUOUS
 62
     7
100
AcDbVertex
100
AcDb2dVertex
 10
9.004921052
 20
6.6252702961
 30
0.0
  0
SEQEND
  5
48D
330
264
100
AcDbEntity
  8
0
  6
CONTINUOUS
 62
     7
  0
LINE
  5
265
330
1F
100
AcDbEntity
  8
0
  6
CONTINUOUS
 62
     7
100
AcDbLine
 10
8.031159323
 20
6.0631296155
 30
0.0
 11
8.5949079604
 21
6.3885747765
 31
0.0
  0
LINE
  5
266
330
1F
100
AcDbEntity
  8
0
  6
CONTINUOUS
 62
     7
100
AcDbLine
 10
8.031159323
 20
6.0309823394
 30
0.0
 11
8.5949079604
 21
6.3564275005
 31
0.0
  0
POLYLINE
  5
267
330
1F
100
AcDbEntity
  8
0
  6
CONTINUOUS
 62
     7
100
AcDb2dPolyline
 66
     1
 10
0.0
 20
0.0
 30
0.0
  0
VERTEX
  5
48E
330
267
100
AcDbEntity
  8
0
  6
CONTINUOUS
 62
     7
100
AcDbVertex
100
AcDb2dVertex
 10
9.004921052
 20
6.5931230201
 30
0.0
  0
VERTEX
  5
48F
330
267
100
AcDbEntity
  8
0
  6
CONTINUOUS
 62
     7
100
AcDbVertex
100
AcDb2dVertex
 10
9.0027115622
 20
6.5697128251
 30
0.0
  0
VERTEX
  5
490
330
267
100
AcDbEntity
  8
0
  6
CONTINUOUS
 62
     7
100
AcDbVertex
100
AcDb2dVertex
 10
8.9987138484
 20
6.5456072236
 30
0.0
  0
VERTEX
  5
491
330
267
100
AcDbEntity
  8
0
  6
CONTINUOUS
 62
     7
100
AcDbVertex
100
AcDb2dVertex
 10
8.9929631615
 20
6.5210187742
 30
0.0
  0
VERTEX
  5
492
330
267
100
AcDbEntity
  8
0
  6
CONTINUOUS
 62
     7
100
AcDbVertex
100
AcDb2dVertex
 10
8.98551021
 20
6.4961642928
 30
0.0
  0
VERTEX
  5
493
330
267
100
AcDbEntity
  8
0
  6
CONTINUOUS
 62
     7
100
AcDbVertex
100
AcDb2dVertex
 10
8.9764207125
 20
6.4712629413
 30
0.0
  0
VERTEX
  5
494
330
267
100
AcDbEntity
  8
0
  6
CONTINUOUS
 62
     7
100
AcDbVertex
100
AcDb2dVertex
 10
8.9657748184
 20
6.4465342948
 30
0.0
  0
VERTEX
  5
495
330
267
100
AcDbEntity
  8
0
  6
CONTINUOUS
 62
     7
100
AcDbVertex
100
AcDb2dVertex
 10
8.9536664011
 20
6.4221964058
 30
0.0
  0
VERTEX
  5
496
330
267
100
AcDbEntity
  8
0
  6
CONTINUOUS
 62
     7
100
AcDbVertex
100
AcDb2dVertex
 10
8.9402022302
 20
6.3984638807
 30
0.0
  0
VERTEX
  5
497
330
267
100
AcDbEntity
  8
0
  6
CONTINUOUS
 62
     7
100
AcDbVertex
100
AcDb2dVertex
 10
8.92550103
 20
6.3755459883
 30
0.0
  0
VERTEX
  5
498
330
267
100
AcDbEntity
  8
0
  6
CONTINUOUS
 62
     7
100
AcDbVertex
100
AcDb2dVertex
 10
8.9096924329
 20
6.3536448141
 30
0.0
  0
VERTEX
  5
499
330
267
100
AcDbEntity
  8
0
  6
CONTINUOUS
 62
     7
100
AcDbVertex
100
AcDb2dVertex
 10
8.8929158358
 20
6.3329534782
 30
0.0
  0
VERTEX
  5
49A
330
267
100
AcDbEntity
  8
0
  6
CONTINUOUS
 62
     7
100
AcDbVertex
100
AcDb2dVertex
 10
8.8753191716
 20
6.3136544326
 30
0.0
  0
VERTEX
  5
49B
330
267
100
AcDbEntity
  8
0
  6
CONTINUOUS
 62
     7
100
AcDbVertex
100
AcDb2dVertex
 10
8.857057604
 20
6.2959178526
 30
0.0
  0
VERTEX
  5
49C
330
267
100
AcDbEntity
  8
0
  6
CONTINUOUS
 62
     7
100
AcDbVertex
100
AcDb2dVertex
 10
8.8382921599
 20
6.2799001358
 30
0.0
  0
VERTEX
  5
49D
330
267
100
AcDbEntity
  8
0
  6
CONTINUOUS
 62
     7
100
AcDbVertex
100
AcDb2dVertex
 10
8.8191883093
 20
6.2657425231
 30
0.0
  0
VERTEX
  5
49E
330
267
100
AcDbEntity
  8
0
  6
CONTINUOUS
 62
     7
100
AcDbVertex
100
AcDb2dVertex
 10
8.7999145062
 20
6.2535698537
 30
0.0
  0
VERTEX
  5
49F
330
267
100
AcDbEntity
  8
0
  6
CONTINUOUS
 62
     7
100
AcDbVertex
100
AcDb2dVertex
 10
8.7806407031
 20
6.2434894637
 30
0.0
  0
VERTEX
  5
4A0
330
267
100
AcDbEntity
  8
0
  6
CONTINUOUS
 62
     7
100
AcDbVertex
100
AcDb2dVertex
 10
8.7615368525
 20
6.23559024
 30
0.0
  0
VERTEX
  5
4A1
330
267
100
AcDbEntity
  8
0
  6
CONTINUOUS
 62
     7
100
AcDbVertex
100
AcDb2dVertex
 10
8.7427714084
 20
6.2299418363
 30
0.0
  0
VERTEX
  5
4A2
330
267
100
AcDbEntity
  8
0
  6
CONTINUOUS
 62
     7
100
AcDbVertex
100
AcDb2dVertex
 10
8.7245098408
 20
6.2265940591
 30
0.0
  0
VERTEX
  5
4A3
330
267
100
AcDbEntity
  8
0
  6
CONTINUOUS
 62
     7
100
AcDbVertex
100
AcDb2dVertex
 10
8.7069131766
 20
6.2255764285
 30
0.0
  0
VERTEX
  5
4A4
330
267
100
AcDbEntity
  8
0
  6
CONTINUOUS
 62
     7
100
AcDbVertex
100
AcDb2dVertex
 10
8.6901365795
 20
6.2268979178
 30
0.0
  0
VERTEX
  5
4A5
330
267
100
AcDbEntity
  8
0
  6
CONTINUOUS
 62
     7
100
AcDbVertex
100
AcDb2dVertex
 10
8.6743279824
 20
6.2305468743
 30
0.0
  0
VERTEX
  5
4A6
330
267
100
AcDbEntity
  8
0
  6
CONTINUOUS
 62
     7
100
AcDbVertex
100
AcDb2dVertex
 10
8.6596267822
 20
6.2364911223
 30
0.0
  0
VERTEX
  5
4A7
330
267
100
AcDbEntity
  8
0
  6
CONTINUOUS
 62
     7
100
AcDbVertex
100
AcDb2dVertex
 10
8.6461626113
 20
6.2446782465
 30
0.0
  0
VERTEX
  5
4A8
330
267
100
AcDbEntity
  8
0
  6
CONTINUOUS
 62
     7
100
AcDbVertex
100
AcDb2dVertex
 10
8.634054194
 20
6.2550360545
 30
0.0
  0
VERTEX
  5
4A9
330
267
100
AcDbEntity
  8
0
  6
CONTINUOUS
 62
     7
100
AcDbVertex
100
AcDb2dVertex
 10
8.6234082999
 20
6.2674732132
 30
0.0
  0
VERTEX
  5
4AA
330
267
100
AcDbEntity
  8
0
  6
CONTINUOUS
 62
     7
100
AcDbVertex
100
AcDb2dVertex
 10
8.6143188024
 20
6.2818800543
 30
0.0
  0
VERTEX
  5
4AB
330
267
100
AcDbEntity
  8
0
  6
CONTINUOUS
 62
     7
100
AcDbVertex
100
AcDb2dVertex
 10
8.6068658509
 20
6.2981295411
 30
0.0
  0
VERTEX
  5
4AC
330
267
100
AcDbEntity
  8
0
  6
CONTINUOUS
 62
     7
100
AcDbVertex
100
AcDb2dVertex
 10
8.601115164
 20
6.3160783888
 30
0.0
  0
VERTEX
  5
4AD
330
267
100
AcDbEntity
  8
0
  6
CONTINUOUS
 62
     7
100
AcDbVertex
100
AcDb2dVertex
 10
8.5971174501
 20
6.335568328
 30
0.0
  0
VERTEX
  5
4AE
330
267
100
AcDbEntity
  8
0
  6
CONTINUOUS
 62
     7
100
AcDbVertex
100
AcDb2dVertex
 10
8.5949079604
 20
6.3564275005
 30
0.0
  0
SEQEND
  5
4AF
330
267
100
AcDbEntity
  8
0
  6
CONTINUOUS
 62
     7
  0
LINE
  5
268
330
1F
100
AcDbEntity
  8
0
  6
CONTINUOUS
 62
     7
100
AcDbLine
 10
9.004921052
 20
6.5931230201
 30
0.0
 11
9.1053849351
 21
6.6511195853
 31
0.0
  0
LINE
  5
269
330
1F
100
AcDbEntity
  8
0
  6
CONTINUOUS
 62
     7
100
AcDbLine
 10
8.798587521
 20
7.6713916944
 30
0.0
 11
8.798587521
 21
7.6947629127
 31
0.0
  0
LINE
  5
26A
330
1F
100
AcDbEntity
  8
0
  6
CONTINUOUS
 62
     7
100
AcDbLine
 10
8.5949079604
 20
6.3564275005
 30
0.0
 11
8.5949337149
 21
6.36868849
 31
0.0
  0
LINE
  5
26B
330
1F
100
AcDbEntity
  8
0
  6
CONTINUOUS
 62
     7
100
AcDbLine
 10
8.577696942
 20
6.3786390671
 30
0.0
 11
8.5949337149
 21
6.36868849
 31
0.0
  0
LINE
  5
26C
330
1F
100
AcDbEntity
  8
0
  6
CONTINUOUS
 62
     7
100
AcDbLine
 10
7.7431599538
 20
6.2171400108
 30
0.0
 11
7.7153165792
 21
6.2010663727
 31
0.0
  0
LINE
  5
26D
330
1F
100
AcDbEntity
  8
0
  6
CONTINUOUS
 62
     7
100
AcDbLine
 10
8.983682094
 20
6.6252554284
 30
0.0
 11
9.004921052
 21
6.6252702961
 31
0.0
  0
ARC
  5
26E
330
1F
100
AcDbEntity
  8
0
  6
CONTINUOUS
 62
     7
100
AcDbCircle
 10
8.8661970249
 20
6.6316291229
 30
0.0
 40
0.1176578320328401
100
AcDbArc
 50
356.8946849187
 51
127.5387148696
  0
LINE
  5
26F
330
1F
100
AcDbEntity
  8
0
  6
CONTINUOUS
 62
     7
100
AcDbLine
 10
8.983682094
 20
6.6252554284
 30
0.0
 11
8.8031957378
 21
6.729447984
 31
0.0
  0
LINE
  5
270
330
1F
100
AcDbEntity
  8
0
  6
CONTINUOUS
 62
     7
100
AcDbLine
 10
8.983682094
 20
6.5931081523
 30
0.0
 11
8.7762253818
 21
6.7128703631
 31
0.0
  0
POLYLINE
  5
271
330
1F
100
AcDbEntity
  8
0
  6
CONTINUOUS
 62
     7
100
AcDb2dPolyline
 66
     1
 10
0.0
 20
0.0
 30
0.0
  0
VERTEX
  5
4B0
330
271
100
AcDbEntity
  8
0
  6
CONTINUOUS
 62
     7
100
AcDbVertex
100
AcDb2dVertex
 10
8.5949337149
 20
6.36868849
 30
0.0
  0
VERTEX
  5
4B1
330
271
100
AcDbEntity
  8
0
  6
CONTINUOUS
 62
     7
100
AcDbVertex
100
AcDb2dVertex
 10
8.5971866661
 20
6.3483865466
 30
0.0
  0
VERTEX
  5
4B2
330
271
100
AcDbEntity
  8
0
  6
CONTINUOUS
 62
     7
100
AcDbVertex
100
AcDb2dVertex
 10
8.601235816
 20
6.3294737726
 30
0.0
  0
VERTEX
  5
4B3
330
271
100
AcDbEntity
  8
0
  6
CONTINUOUS
 62
     7
100
AcDbVertex
100
AcDb2dVertex
 10
8.607043308
 20
6.3121269891
 30
0.0
  0
VERTEX
  5
4B4
330
271
100
AcDbEntity
  8
0
  6
CONTINUOUS
 62
     7
100
AcDbVertex
100
AcDb2dVertex
 10
8.614554846
 20
6.2965083764
 30
0.0
  0
VERTEX
  5
4B5
330
271
100
AcDbEntity
  8
0
  6
CONTINUOUS
 62
     7
100
AcDbVertex
100
AcDb2dVertex
 10
8.6237002025
 20
6.2827639576
 30
0.0
  0
VERTEX
  5
4B6
330
271
100
AcDbEntity
  8
0
  6
CONTINUOUS
 62
     7
100
AcDbVertex
100
AcDb2dVertex
 10
8.6343938749
 20
6.2710222332
 30
0.0
  0
VERTEX
  5
4B7
330
271
100
AcDbEntity
  8
0
  6
CONTINUOUS
 62
     7
100
AcDbVertex
100
AcDb2dVertex
 10
8.6465358847
 20
6.2613929802
 30
0.0
  0
VERTEX
  5
4B8
330
271
100
AcDbEntity
  8
0
  6
CONTINUOUS
 62
     7
100
AcDbVertex
100
AcDb2dVertex
 10
8.6600127127
 20
6.2539662254
 30
0.0
  0
VERTEX
  5
4B9
330
271
100
AcDbEntity
  8
0
  6
CONTINUOUS
 62
     7
100
AcDbVertex
100
AcDb2dVertex
 10
8.67469836
 20
6.2488114036
 30
0.0
  0
VERTEX
  5
4BA
330
271
100
AcDbEntity
  8
0
  6
CONTINUOUS
 62
     7
100
AcDbVertex
100
AcDb2dVertex
 10
8.6904555262
 20
6.2459767089
 30
0.0
  0
VERTEX
  5
4BB
330
271
100
AcDbEntity
  8
0
  6
CONTINUOUS
 62
     7
100
AcDbVertex
100
AcDb2dVertex
 10
8.7071368927
 20
6.2454886437
 30
0.0
  0
VERTEX
  5
4BC
330
271
100
AcDbEntity
  8
0
  6
CONTINUOUS
 62
     7
100
AcDbVertex
100
AcDb2dVertex
 10
8.7245865005
 20
6.2473517711
 30
0.0
  0
VERTEX
  5
4BD
330
271
100
AcDbEntity
  8
0
  6
CONTINUOUS
 62
     7
100
AcDbVertex
100
AcDb2dVertex
 10
8.742641208
 20
6.251548672
 30
0.0
  0
VERTEX
  5
4BE
330
271
100
AcDbEntity
  8
0
  6
CONTINUOUS
 62
     7
100
AcDbVertex
100
AcDb2dVertex
 10
8.7611322164
 20
6.2580401084
 30
0.0
  0
VERTEX
  5
4BF
330
271
100
AcDbEntity
  8
0
  6
CONTINUOUS
 62
     7
100
AcDbVertex
100
AcDb2dVertex
 10
8.7798866477
 20
6.26676539
 30
0.0
  0
VERTEX
  5
4C0
330
271
100
AcDbEntity
  8
0
  6
CONTINUOUS
 62
     7
100
AcDbVertex
100
AcDb2dVertex
 10
8.7987291612
 20
6.2776429415
 30
0.0
  0
VERTEX
  5
4C1
330
271
100
AcDbEntity
  8
0
  6
CONTINUOUS
 62
     7
100
AcDbVertex
100
AcDb2dVertex
 10
8.8174835925
 20
6.2905710654
 30
0.0
  0
VERTEX
  5
4C2
330
271
100
AcDbEntity
  8
0
  6
CONTINUOUS
 62
     7
100
AcDbVertex
100
AcDb2dVertex
 10
8.8359746009
 20
6.3054288928
 30
0.0
  0
VERTEX
  5
4C3
330
271
100
AcDbEntity
  8
0
  6
CONTINUOUS
 62
     7
100
AcDbVertex
100
AcDb2dVertex
 10
8.8540293084
 20
6.3220775135
 30
0.0
  0
VERTEX
  5
4C4
330
271
100
AcDbEntity
  8
0
  6
CONTINUOUS
 62
     7
100
AcDbVertex
100
AcDb2dVertex
 10
8.8714789163
 20
6.3403612745
 30
0.0
  0
VERTEX
  5
4C5
330
271
100
AcDbEntity
  8
0
  6
CONTINUOUS
 62
     7
100
AcDbVertex
100
AcDb2dVertex
 10
8.8881602828
 20
6.3601092356
 30
0.0
  0
VERTEX
  5
4C6
330
271
100
AcDbEntity
  8
0
  6
CONTINUOUS
 62
     7
100
AcDbVertex
100
AcDb2dVertex
 10
8.9039174489
 20
6.381136767
 30
0.0
  0
VERTEX
  5
4C7
330
271
100
AcDbEntity
  8
0
  6
CONTINUOUS
 62
     7
100
AcDbVertex
100
AcDb2dVertex
 10
8.9186030963
 20
6.4032472763
 30
0.0
  0
VERTEX
  5
4C8
330
271
100
AcDbEntity
  8
0
  6
CONTINUOUS
 62
     7
100
AcDbVertex
100
AcDb2dVertex
 10
8.9320799243
 20
6.4262340455
 30
0.0
  0
VERTEX
  5
4C9
330
271
100
AcDbEntity
  8
0
  6
CONTINUOUS
 62
     7
100
AcDbVertex
100
AcDb2dVertex
 10
8.9442219341
 20
6.4498821646
 30
0.0
  0
VERTEX
  5
4CA
330
271
100
AcDbEntity
  8
0
  6
CONTINUOUS
 62
     7
100
AcDbVertex
100
AcDb2dVertex
 10
8.9549156064
 20
6.4739705403
 30
0.0
  0
VERTEX
  5
4CB
330
271
100
AcDbEntity
  8
0
  6
CONTINUOUS
 62
     7
100
AcDbVertex
100
AcDb2dVertex
 10
8.9640609629
 20
6.498273963
 30
0.0
  0
VERTEX
  5
4CC
330
271
100
AcDbEntity
  8
0
  6
CONTINUOUS
 62
     7
100
AcDbVertex
100
AcDb2dVertex
 10
8.971572501
 20
6.522565213
 30
0.0
  0
VERTEX
  5
4CD
330
271
100
AcDbEntity
  8
0
  6
CONTINUOUS
 62
     7
100
AcDbVertex
100
AcDb2dVertex
 10
8.977379993
 20
6.546617184
 30
0.0
  0
VERTEX
  5
4CE
330
271
100
AcDbEntity
  8
0
  6
CONTINUOUS
 62
     7
100
AcDbVertex
100
AcDb2dVertex
 10
8.9814291429
 20
6.5702050069
 30
0.0
  0
VERTEX
  5
4CF
330
271
100
AcDbEntity
  8
0
  6
CONTINUOUS
 62
     7
100
AcDbVertex
100
AcDb2dVertex
 10
8.983682094
 20
6.5931081523
 30
0.0
  0
SEQEND
  5
4D0
330
271
100
AcDbEntity
  8
0
  6
CONTINUOUS
 62
     7
  0
LINE
  5
272
330
1F
100
AcDbEntity
  8
0
  6
CONTINUOUS
 62
     7
100
AcDbLine
 10
8.983682094
 20
6.5931081523
 30
0.0
 11
9.004921052
 21
6.5931230201
 31
0.0
  0
POLYLINE
  5
273
330
1F
100
AcDbEntity
  8
0
  6
CONTINUOUS
 62
     7
100
AcDb2dPolyline
 66
     1
 10
0.0
 20
0.0
 30
0.0
  0
VERTEX
  5
4D1
330
273
100
AcDbEntity
  8
0
  6
CONTINUOUS
 62
     7
100
AcDbVertex
100
AcDb2dVertex
 10
9.1053849351
 20
6.6511195853
 30
0.0
  0
VERTEX
  5
4D2
330
273
100
AcDbEntity
  8
0
  6
CONTINUOUS
 62
     7
100
AcDbVertex
100
AcDb2dVertex
 10
9.0799725447
 20
6.6646589898
 30
0.0
  0
VERTEX
  5
4D3
330
273
100
AcDbEntity
  8
0
  6
CONTINUOUS
 62
     7
100
AcDbVertex
100
AcDb2dVertex
 10
9.0762689764
 20
6.6664585762
 30
0.0
  0
SEQEND
  5
4D4
330
273
100
AcDbEntity
  8
0
  6
CONTINUOUS
 62
     7
  0
POLYLINE
  5
274
330
1F
100
AcDbEntity
  8
0
  6
CONTINUOUS
 62
     7
100
AcDb2dPolyline
 66
     1
 10
0.0
 20
0.0
 30
0.0
  0
VERTEX
  5
4D5
330
274
100
AcDbEntity
  8
0
  6
CONTINUOUS
 62
     7
100
AcDbVertex
100
AcDb2dVertex
 10
8.8126273174
 20
6.724003249
 30
0.0
  0
VERTEX
  5
4D6
330
274
100
AcDbEntity
  8
0
  6
CONTINUOUS
 62
     7
100
AcDbVertex
100
AcDb2dVertex
 10
8.7932770724
 20
6.7240757707
 30
0.0
  0
VERTEX
  5
4D7
330
274
100
AcDbEntity
  8
0
  6
CONTINUOUS
 62
     7
100
AcDbVertex
100
AcDb2dVertex
 10
8.7929620307
 20
6.724072808
 30
0.0
  0
SEQEND
  5
4D8
330
274
100
AcDbEntity
  8
0
  6
CONTINUOUS
 62
     7
  0
LINE
  5
275
330
1F
100
AcDbEntity
  8
0
  6
CONTINUOUS
 62
     7
100
AcDbLine
 10
7.9959286135
 20
6.8981648026
 30
0.0
 11
7.9959219769
 21
6.8990251129
 31
0.0
  0
LINE
  5
276
330
1F
100
AcDbEntity
  8
0
  6
CONTINUOUS
 62
     7
100
AcDbLine
 10
8.1867769762
 20
6.8643994772
 30
0.0
 11
8.2510680455
 21
6.9015139215
 31
0.0
  0
LINE
  5
277
330
1F
100
AcDbEntity
  8
0
  6
CONTINUOUS
 62
     7
100
AcDbLine
 10
8.2510680455
 20
6.9015139215
 30
0.0
 11
8.2275358809
 21
6.9522131953
 31
0.0
  0
LINE
  5
278
330
1F
100
AcDbEntity
  8
0
  6
CONTINUOUS
 62
     7
100
AcDbLine
 10
8.2275358809
 20
6.9522131953
 30
0.0
 11
8.1397126469
 21
6.9657980248
 31
0.0
  0
LINE
  5
279
330
1F
100
AcDbEntity
  8
0
  6
CONTINUOUS
 62
     7
100
AcDbLine
 10
8.1397126469
 20
6.9657980248
 30
0.0
 11
8.0754215775
 21
6.9286835804
 31
0.0
  0
LINE
  5
27A
330
1F
100
AcDbEntity
  8
0
  6
CONTINUOUS
 62
     7
100
AcDbLine
 10
8.0754215775
 20
6.9286835804
 30
0.0
 11
8.0989537422
 21
6.8779843066
 31
0.0
  0
LINE
  5
27B
330
1F
100
AcDbEntity
  8
0
  6
CONTINUOUS
 62
     7
100
AcDbLine
 10
8.0989537422
 20
6.8779843066
 30
0.0
 11
8.1867769762
 21
6.8643994772
 31
0.0
  0
LINE
  5
27C
330
1F
100
AcDbEntity
  8
0
  6
CONTINUOUS
 62
     7
100
AcDbLine
 10
8.2275358809
 20
6.887929092
 30
0.0
 11
8.2275358809
 21
6.9522131953
 31
0.0
  0
LINE
  5
27D
330
1F
100
AcDbEntity
  8
0
  6
CONTINUOUS
 62
     7
100
AcDbLine
 10
8.1397126469
 20
6.8716795653
 30
0.0
 11
8.1397126469
 21
6.9657980248
 31
0.0
  0
ARC
  5
27E
330
1F
100
AcDbEntity
  8
0
  6
CONTINUOUS
 62
     7
100
AcDbCircle
 10
8.2991698291
 20
7.5150950614
 30
0.0
 40
0.2107077861424917
100
AcDbArc
 50
100.5515152697
 51
145.6726270675
  0
ARC
  5
27F
330
1F
100
AcDbEntity
  8
0
  6
CONTINUOUS
 62
     7
100
AcDbCircle
 10
7.6587988011
 20
6.4125964255
 30
0.0
 40
0.2072674478342937
100
AcDbArc
 50
153.9230274495
 51
199.8494742366
  0
POLYLINE
  5
280
330
1F
100
AcDbEntity
  8
0
  6
CONTINUOUS
 62
     7
100
AcDb2dPolyline
 66
     1
 10
0.0
 20
0.0
 30
0.0
  0
VERTEX
  5
4D9
330
280
100
AcDbEntity
  8
0
  6
CONTINUOUS
 62
     7
100
AcDbVertex
100
AcDb2dVertex
 10
8.7202661393
 20
7.7995063725
 30
0.0
  0
VERTEX
  5
4DA
330
280
100
AcDbEntity
  8
0
  6
CONTINUOUS
 62
     7
100
AcDbVertex
100
AcDb2dVertex
 10
8.701722551
 20
7.8153982019
 30
0.0
  0
VERTEX
  5
4DB
330
280
100
AcDbEntity
  8
0
  6
CONTINUOUS
 62
     7
100
AcDbVertex
100
AcDb2dVertex
 10
8.6774310703
 20
7.8333292212
 30
0.0
  0
VERTEX
  5
4DC
330
280
100
AcDbEntity
  8
0
  6
CONTINUOUS
 62
     7
100
AcDbVertex
100
AcDb2dVertex
 10
8.6518599139
 20
7.8491611606
 30
0.0
  0
VERTEX
  5
4DD
330
280
100
AcDbEntity
  8
0
  6
CONTINUOUS
 62
     7
100
AcDbVertex
100
AcDb2dVertex
 10
8.6250661413
 20
7.8628586927
 30
0.0
  0
VERTEX
  5
4DE
330
280
100
AcDbEntity
  8
0
  6
CONTINUOUS
 62
     7
100
AcDbVertex
100
AcDb2dVertex
 10
8.5971095398
 20
7.874391253
 30
0.0
  0
VERTEX
  5
4DF
330
280
100
AcDbEntity
  8
0
  6
CONTINUOUS
 62
     7
100
AcDbVertex
100
AcDb2dVertex
 10
8.5680524915
 20
7.883733108
 30
0.0
  0
VERTEX
  5
4E0
330
280
100
AcDbEntity
  8
0
  6
CONTINUOUS
 62
     7
100
AcDbVertex
100
AcDb2dVertex
 10
8.537959834
 20
7.8908634121
 30
0.0
  0
VERTEX
  5
4E1
330
280
100
AcDbEntity
  8
0
  6
CONTINUOUS
 62
     7
100
AcDbVertex
100
AcDb2dVertex
 10
8.5068987159
 20
7.8957662551
 30
0.0
  0
VERTEX
  5
4E2
330
280
100
AcDbEntity
  8
0
  6
CONTINUOUS
 62
     7
100
AcDbVertex
100
AcDb2dVertex
 10
8.4749384466
 20
7.8984306966
 30
0.0
  0
VERTEX
  5
4E3
330
280
100
AcDbEntity
  8
0
  6
CONTINUOUS
 62
     7
100
AcDbVertex
100
AcDb2dVertex
 10
8.4421503419
 20
7.8988507913
 30
0.0
  0
VERTEX
  5
4E4
330
280
100
AcDbEntity
  8
0
  6
CONTINUOUS
 62
     7
100
AcDbVertex
100
AcDb2dVertex
 10
8.408607565
 20
7.8970256018
 30
0.0
  0
VERTEX
  5
4E5
330
280
100
AcDbEntity
  8
0
  6
CONTINUOUS
 62
     7
100
AcDbVertex
100
AcDb2dVertex
 10
8.374384963
 20
7.8929592007
 30
0.0
  0
VERTEX
  5
4E6
330
280
100
AcDbEntity
  8
0
  6
CONTINUOUS
 62
     7
100
AcDbVertex
100
AcDb2dVertex
 10
8.3395588997
 20
7.8866606619
 30
0.0
  0
VERTEX
  5
4E7
330
280
100
AcDbEntity
  8
0
  6
CONTINUOUS
 62
     7
100
AcDbVertex
100
AcDb2dVertex
 10
8.3042070859
 20
7.8781440399
 30
0.0
  0
VERTEX
  5
4E8
330
280
100
AcDbEntity
  8
0
  6
CONTINUOUS
 62
     7
100
AcDbVertex
100
AcDb2dVertex
 10
8.2684084051
 20
7.8674283384
 30
0.0
  0
VERTEX
  5
4E9
330
280
100
AcDbEntity
  8
0
  6
CONTINUOUS
 62
     7
100
AcDbVertex
100
AcDb2dVertex
 10
8.2322427383
 20
7.8545374686
 30
0.0
  0
VERTEX
  5
4EA
330
280
100
AcDbEntity
  8
0
  6
CONTINUOUS
 62
     7
100
AcDbVertex
100
AcDb2dVertex
 10
8.1957907853
 20
7.8395001949
 30
0.0
  0
VERTEX
  5
4EB
330
280
100
AcDbEntity
  8
0
  6
CONTINUOUS
 62
     7
100
AcDbVertex
100
AcDb2dVertex
 10
8.1591338845
 20
7.8223500713
 30
0.0
  0
VERTEX
  5
4EC
330
280
100
AcDbEntity
  8
0
  6
CONTINUOUS
 62
     7
100
AcDbVertex
100
AcDb2dVertex
 10
8.1223538318
 20
7.8031253666
 30
0.0
  0
VERTEX
  5
4ED
330
280
100
AcDbEntity
  8
0
  6
CONTINUOUS
 62
     7
100
AcDbVertex
100
AcDb2dVertex
 10
8.0855326979
 20
7.7818689785
 30
0.0
  0
VERTEX
  5
4EE
330
280
100
AcDbEntity
  8
0
  6
CONTINUOUS
 62
     7
100
AcDbVertex
100
AcDb2dVertex
 10
8.0487526453
 20
7.7586283383
 30
0.0
  0
VERTEX
  5
4EF
330
280
100
AcDbEntity
  8
0
  6
CONTINUOUS
 62
     7
100
AcDbVertex
100
AcDb2dVertex
 10
8.0120957445
 20
7.733455305
 30
0.0
  0
VERTEX
  5
4F0
330
280
100
AcDbEntity
  8
0
  6
CONTINUOUS
 62
     7
100
AcDbVertex
100
AcDb2dVertex
 10
7.9756437914
 20
7.7064060496
 30
0.0
  0
VERTEX
  5
4F1
330
280
100
AcDbEntity
  8
0
  6
CONTINUOUS
 62
     7
100
AcDbVertex
100
AcDb2dVertex
 10
7.9394781246
 20
7.6775409294
 30
0.0
  0
VERTEX
  5
4F2
330
280
100
AcDbEntity
  8
0
  6
CONTINUOUS
 62
     7
100
AcDbVertex
100
AcDb2dVertex
 10
7.9036794439
 20
7.6469243538
 30
0.0
  0
VERTEX
  5
4F3
330
280
100
AcDbEntity
  8
0
  6
CONTINUOUS
 62
     7
100
AcDbVertex
100
AcDb2dVertex
 10
7.86832763
 20
7.6146246404
 30
0.0
  0
VERTEX
  5
4F4
330
280
100
AcDbEntity
  8
0
  6
CONTINUOUS
 62
     7
100
AcDbVertex
100
AcDb2dVertex
 10
7.8335015668
 20
7.5807138624
 30
0.0
  0
VERTEX
  5
4F5
330
280
100
AcDbEntity
  8
0
  6
CONTINUOUS
 62
     7
100
AcDbVertex
100
AcDb2dVertex
 10
7.7992789647
 20
7.5452676882
 30
0.0
  0
VERTEX
  5
4F6
330
280
100
AcDbEntity
  8
0
  6
CONTINUOUS
 62
     7
100
AcDbVertex
100
AcDb2dVertex
 10
7.7657361878
 20
7.5083652118
 30
0.0
  0
VERTEX
  5
4F7
330
280
100
AcDbEntity
  8
0
  6
CONTINUOUS
 62
     7
100
AcDbVertex
100
AcDb2dVertex
 10
7.7329480832
 20
7.4700887773
 30
0.0
  0
VERTEX
  5
4F8
330
280
100
AcDbEntity
  8
0
  6
CONTINUOUS
 62
     7
100
AcDbVertex
100
AcDb2dVertex
 10
7.7009878139
 20
7.4305237943
 30
0.0
  0
VERTEX
  5
4F9
330
280
100
AcDbEntity
  8
0
  6
CONTINUOUS
 62
     7
100
AcDbVertex
100
AcDb2dVertex
 10
7.6699266957
 20
7.3897585477
 30
0.0
  0
VERTEX
  5
4FA
330
280
100
AcDbEntity
  8
0
  6
CONTINUOUS
 62
     7
100
AcDbVertex
100
AcDb2dVertex
 10
7.6398340382
 20
7.3478840008
 30
0.0
  0
VERTEX
  5
4FB
330
280
100
AcDbEntity
  8
0
  6
CONTINUOUS
 62
     7
100
AcDbVertex
100
AcDb2dVertex
 10
7.6107769899
 20
7.304993592
 30
0.0
  0
VERTEX
  5
4FC
330
280
100
AcDbEntity
  8
0
  6
CONTINUOUS
 62
     7
100
AcDbVertex
100
AcDb2dVertex
 10
7.5828203884
 20
7.2611830266
 30
0.0
  0
VERTEX
  5
4FD
330
280
100
AcDbEntity
  8
0
  6
CONTINUOUS
 62
     7
100
AcDbVertex
100
AcDb2dVertex
 10
7.5560266158
 20
7.2165500631
 30
0.0
  0
VERTEX
  5
4FE
330
280
100
AcDbEntity
  8
0
  6
CONTINUOUS
 62
     7
100
AcDbVertex
100
AcDb2dVertex
 10
7.5304554595
 20
7.1711942951
 30
0.0
  0
VERTEX
  5
4FF
330
280
100
AcDbEntity
  8
0
  6
CONTINUOUS
 62
     7
100
AcDbVertex
100
AcDb2dVertex
 10
7.5061639787
 20
7.1252169291
 30
0.0
  0
VERTEX
  5
500
330
280
100
AcDbEntity
  8
0
  6
CONTINUOUS
 62
     7
100
AcDbVertex
100
AcDb2dVertex
 10
7.4832063773
 20
7.0787205585
 30
0.0
  0
VERTEX
  5
501
330
280
100
AcDbEntity
  8
0
  6
CONTINUOUS
 62
     7
100
AcDbVertex
100
AcDb2dVertex
 10
7.4616338825
 20
7.0318089349
 30
0.0
  0
VERTEX
  5
502
330
280
100
AcDbEntity
  8
0
  6
CONTINUOUS
 62
     7
100
AcDbVertex
100
AcDb2dVertex
 10
7.4414946312
 20
6.9845867365
 30
0.0
  0
VERTEX
  5
503
330
280
100
AcDbEntity
  8
0
  6
CONTINUOUS
 62
     7
100
AcDbVertex
100
AcDb2dVertex
 10
7.4228335618
 20
6.9371593346
 30
0.0
  0
VERTEX
  5
504
330
280
100
AcDbEntity
  8
0
  6
CONTINUOUS
 62
     7
100
AcDbVertex
100
AcDb2dVertex
 10
7.4056923145
 20
6.8896325581
 30
0.0
  0
VERTEX
  5
505
330
280
100
AcDbEntity
  8
0
  6
CONTINUOUS
 62
     7
100
AcDbVertex
100
AcDb2dVertex
 10
7.3901091381
 20
6.8421124578
 30
0.0
  0
VERTEX
  5
506
330
280
100
AcDbEntity
  8
0
  6
CONTINUOUS
 62
     7
100
AcDbVertex
100
AcDb2dVertex
 10
7.3761188047
 20
6.7947050698
 30
0.0
  0
VERTEX
  5
507
330
280
100
AcDbEntity
  8
0
  6
CONTINUOUS
 62
     7
100
AcDbVertex
100
AcDb2dVertex
 10
7.3637525323
 20
6.7475161785
 30
0.0
  0
VERTEX
  5
508
330
280
100
AcDbEntity
  8
0
  6
CONTINUOUS
 62
     7
100
AcDbVertex
100
AcDb2dVertex
 10
7.3530379149
 20
6.7006510806
 30
0.0
  0
VERTEX
  5
509
330
280
100
AcDbEntity
  8
0
  6
CONTINUOUS
 62
     7
100
AcDbVertex
100
AcDb2dVertex
 10
7.3439988609
 20
6.6542143506
 30
0.0
  0
VERTEX
  5
50A
330
280
100
AcDbEntity
  8
0
  6
CONTINUOUS
 62
     7
100
AcDbVertex
100
AcDb2dVertex
 10
7.3366555401
 20
6.608309607
 30
0.0
  0
VERTEX
  5
50B
330
280
100
AcDbEntity
  8
0
  6
CONTINUOUS
 62
     7
100
AcDbVertex
100
AcDb2dVertex
 10
7.3310243381
 20
6.5630392812
 30
0.0
  0
VERTEX
  5
50C
330
280
100
AcDbEntity
  8
0
  6
CONTINUOUS
 62
     7
100
AcDbVertex
100
AcDb2dVertex
 10
7.3271178206
 20
6.5185043889
 30
0.0
  0
VERTEX
  5
50D
330
280
100
AcDbEntity
  8
0
  6
CONTINUOUS
 62
     7
100
AcDbVertex
100
AcDb2dVertex
 10
7.3249447043
 20
6.474804305
 30
0.0
  0
VERTEX
  5
50E
330
280
100
AcDbEntity
  8
0
  6
CONTINUOUS
 62
     7
100
AcDbVertex
100
AcDb2dVertex
 10
7.3245098385
 20
6.4320365415
 30
0.0
  0
VERTEX
  5
50F
330
280
100
AcDbEntity
  8
0
  6
CONTINUOUS
 62
     7
100
AcDbVertex
100
AcDb2dVertex
 10
7.3258141934
 20
6.3902965299
 30
0.0
  0
VERTEX
  5
510
330
280
100
AcDbEntity
  8
0
  6
CONTINUOUS
 62
     7
100
AcDbVertex
100
AcDb2dVertex
 10
7.3288548585
 20
6.3496774085
 30
0.0
  0
VERTEX
  5
511
330
280
100
AcDbEntity
  8
0
  6
CONTINUOUS
 62
     7
100
AcDbVertex
100
AcDb2dVertex
 10
7.333625049
 20
6.3102698144
 30
0.0
  0
VERTEX
  5
512
330
280
100
AcDbEntity
  8
0
  6
CONTINUOUS
 62
     7
100
AcDbVertex
100
AcDb2dVertex
 10
7.3401141206
 20
6.2721616815
 30
0.0
  0
VERTEX
  5
513
330
280
100
AcDbEntity
  8
0
  6
CONTINUOUS
 62
     7
100
AcDbVertex
100
AcDb2dVertex
 10
7.3483075937
 20
6.2354380438
 30
0.0
  0
VERTEX
  5
514
330
280
100
AcDbEntity
  8
0
  6
CONTINUOUS
 62
     7
100
AcDbVertex
100
AcDb2dVertex
 10
7.3581871854
 20
6.2001808462
 30
0.0
  0
VERTEX
  5
515
330
280
100
AcDbEntity
  8
0
  6
CONTINUOUS
 62
     7
100
AcDbVertex
100
AcDb2dVertex
 10
7.3697308506
 20
6.1664687613
 30
0.0
  0
VERTEX
  5
516
330
280
100
AcDbEntity
  8
0
  6
CONTINUOUS
 62
     7
100
AcDbVertex
100
AcDb2dVertex
 10
7.3829128307
 20
6.1343770138
 30
0.0
  0
VERTEX
  5
517
330
280
100
AcDbEntity
  8
0
  6
CONTINUOUS
 62
     7
100
AcDbVertex
100
AcDb2dVertex
 10
7.3977037117
 20
6.1039772131
 30
0.0
  0
VERTEX
  5
518
330
280
100
AcDbEntity
  8
0
  6
CONTINUOUS
 62
     7
100
AcDbVertex
100
AcDb2dVertex
 10
7.4140704893
 20
6.075337193
 30
0.0
  0
VERTEX
  5
519
330
280
100
AcDbEntity
  8
0
  6
CONTINUOUS
 62
     7
100
AcDbVertex
100
AcDb2dVertex
 10
7.4319766428
 20
6.0485208605
 30
0.0
  0
VERTEX
  5
51A
330
280
100
AcDbEntity
  8
0
  6
CONTINUOUS
 62
     7
100
AcDbVertex
100
AcDb2dVertex
 10
7.4513822166
 20
6.0235880534
 30
0.0
  0
VERTEX
  5
51B
330
280
100
AcDbEntity
  8
0
  6
CONTINUOUS
 62
     7
100
AcDbVertex
100
AcDb2dVertex
 10
7.4722439093
 20
6.0005944065
 30
0.0
  0
VERTEX
  5
51C
330
280
100
AcDbEntity
  8
0
  6
CONTINUOUS
 62
     7
100
AcDbVertex
100
AcDb2dVertex
 10
7.4945151702
 20
5.9795912276
 30
0.0
  0
VERTEX
  5
51D
330
280
100
AcDbEntity
  8
0
  6
CONTINUOUS
 62
     7
100
AcDbVertex
100
AcDb2dVertex
 10
7.5181463035
 20
5.9606253831
 30
0.0
  0
VERTEX
  5
51E
330
280
100
AcDbEntity
  8
0
  6
CONTINUOUS
 62
     7
100
AcDbVertex
100
AcDb2dVertex
 10
7.5430845789
 20
5.9437391932
 30
0.0
  0
VERTEX
  5
51F
330
280
100
AcDbEntity
  8
0
  6
CONTINUOUS
 62
     7
100
AcDbVertex
100
AcDb2dVertex
 10
7.5692743494
 20
5.9289703375
 30
0.0
  0
VERTEX
  5
520
330
280
100
AcDbEntity
  8
0
  6
CONTINUOUS
 62
     7
100
AcDbVertex
100
AcDb2dVertex
 10
7.5966571752
 20
5.9163517711
 30
0.0
  0
VERTEX
  5
521
330
280
100
AcDbEntity
  8
0
  6
CONTINUOUS
 62
     7
100
AcDbVertex
100
AcDb2dVertex
 10
7.6251719547
 20
5.9059116511
 30
0.0
  0
VERTEX
  5
522
330
280
100
AcDbEntity
  8
0
  6
CONTINUOUS
 62
     7
100
AcDbVertex
100
AcDb2dVertex
 10
7.6268146387
 20
5.9053875862
 30
0.0
  0
SEQEND
  5
523
330
280
100
AcDbEntity
  8
0
  6
CONTINUOUS
 62
     7
  0
SPLINE
  5
281
330
1F
100
AcDbEntity
  8
0
  6
CONTINUOUS
 62
     7
100
AcDbSpline
210
0.0
220
0.0
230
1.0
 70
     8
 71
     3
 72
    22
 73
    18
 74
     0
 42
0.00000001
 43
0.00000001
 40
0.0
 40
0.0
 40
0.0
 40
0.0
 40
0.0987613584027465
 40
0.1812516159325714
 40
0.2654855902829822
 40
0.3251403734984146
 40
0.3862076976372584
 40
0.4347120474864317
 40
0.4845537021135895
 40
0.5330985432408516
 40
0.5831650806464264
 40
0.630369833166514
 40
0.678553794681742
 40
0.7543152715267207
 40
0.8321917869100377
 40
0.9424130803379855
 40
1.0
 40
1.0
 40
1.0
 40
1.0
 10
8.346794834372016
 20
8.0251385246819
 30
0.0
 10
8.337283361422703
 20
8.030575031527942
 30
0.0
 10
8.31982744678318
 20
8.040552371520121
 30
0.0
 10
8.291339081535645
 20
8.055552778378997
 30
0.0
 10
8.266163360359101
 20
8.068562836320773
 30
0.0
 10
8.242979639571116
 20
8.08048786975779
 30
0.0
 10
8.224023670116878
 20
8.090364494848265
 30
0.0
 10
8.206941814872591
 20
8.099505437564188
 30
0.0
 10
8.192345753010326
 20
8.107606140961298
 30
0.0
 10
8.179305915611506
 20
8.115206666141454
 30
0.0
 10
8.168557300851859
 20
8.121865372029278
 30
0.0
 10
8.159997401708846
 20
8.127557278755352
 30
0.0
 10
8.152330956210248
 20
8.133086972534214
 30
0.0
 10
8.146591711021781
 20
8.137862818124596
 30
0.0
 10
8.1436864105589
 20
8.141227842206694
 30
0.0
 10
8.144370957307167
 20
8.142088437908189
 30
0.0
 10
8.148092075626243
 20
8.139836826193722
 30
0.0
 10
8.149369055684296
 20
8.1390641382512
 30
0.0
  0
SPLINE
  5
282
330
1F
100
AcDbEntity
  8
0
  6
CONTINUOUS
 62
     7
100
AcDbSpline
210
0.0
220
0.0
230
1.0
 70
     8
 71
     3
 72
    66
 73
    62
 74
     0
 42
0.00000001
 43
0.00000001
 40
-0.0312499999999996
 40
-0.0312499999999996
 40
0.0
 40
0.0
 40
0.0312500000000002
 40
0.0312500000000002
 40
0.0625000000000004
 40
0.0625000000000004
 40
0.0937500000000007
 40
0.0937500000000007
 40
0.1250000000000009
 40
0.1250000000000009
 40
0.1875000000000017
 40
0.1875000000000017
 40
0.2187500000000018
 40
0.2187500000000018
 40
0.2500000000000019
 40
0.2500000000000019
 40
0.281250000000002
 40
0.281250000000002
 40
0.3125000000000021
 40
0.3125000000000021
 40
0.3437500000000022
 40
0.3437500000000022
 40
0.3750000000000023
 40
0.3750000000000023
 40
0.4062500000000024
 40
0.4062500000000024
 40
0.4375000000000024
 40
0.4375000000000024
 40
0.4687500000000023
 40
0.4687500000000023
 40
0.5000000000000022
 40
0.5000000000000022
 40
0.5312500000000022
 40
0.5312500000000022
 40
0.5625000000000022
 40
0.5625000000000022
 40
0.5937500000000022
 40
0.5937500000000022
 40
0.6250000000000022
 40
0.6250000000000022
 40
0.6562500000000022
 40
0.6562500000000022
 40
0.6875000000000022
 40
0.6875000000000022
 40
0.7187500000000022
 40
0.7187500000000022
 40
0.7500000000000022
 40
0.7500000000000022
 40
0.7812500000000022
 40
0.7812500000000022
 40
0.8125000000000022
 40
0.8125000000000022
 40
0.8750000000000018
 40
0.8750000000000018
 40
0.9062500000000013
 40
0.9062500000000013
 40
0.9375000000000009
 40
0.9375000000000009
 40
0.9687500000000004
 40
0.9687500000000004
 40
1.0
 40
1.0
 40
1.03125
 40
1.03125
 10
7.156419737405572
 20
7.451985291485621
 30
0.0
 10
7.145824365587096
 20
7.458101869441405
 30
0.0
 10
7.140079515297955
 20
7.460025667242182
 30
0.0
 10
7.127801873336047
 20
7.46184171018085
 30
0.0
 10
7.121370562190849
 20
7.461691560907679
 30
0.0
 10
7.108566861994923
 20
7.459656858670043
 30
0.0
 10
7.102098658695921
 20
7.457757152233071
 30
0.0
 10
7.089650308930364
 20
7.452703613611034
 30
0.0
 10
7.083588507681787
 20
7.449537805860716
 30
0.0
 10
7.065860498270394
 20
7.438373136672515
 30
0.0
 10
7.055151888939108
 20
7.429073751625061
 30
0.0
 10
7.040731370020721
 20
7.412992538998165
 30
0.0
 10
7.036190815431394
 20
7.407239213722767
 30
0.0
 10
7.027905524099299
 20
7.39530600563153
 30
0.0
 10
7.024124270512522
 20
7.389088910507075
 30
0.0
 10
7.017300625065225
 20
7.376142997978066
 30
0.0
 10
7.014237598650057
 20
7.369354858868685
 30
0.0
 10
7.009048714485218
 20
7.35554298667769
 30
0.0
 10
7.006918758082515
 20
7.348535692014476
 30
0.0
 10
7.003624056812288
 20
7.33431138434633
 30
0.0
 10
7.00245801342419
 20
7.327094642244051
 30
0.0
 10
7.001219058068249
 20
7.312425095927991
 30
0.0
 10
7.001164722974516
 20
7.305048177756101
 30
0.0
 10
7.002275441800677
 20
7.290684110105258
 30
0.0
 10
7.003447905449467
 20
7.283570119243371
 30
0.0
 10
7.007110511094742
 20
7.269925149051673
 30
0.0
 10
7.009552096066732
 20
7.263527633132491
 30
0.0
 10
7.015708148889329
 20
7.251647936460086
 30
0.0
 10
7.019497860439191
 20
7.246102480719296
 30
0.0
 10
7.028029417256092
 20
7.236693253384343
 30
0.0
 10
7.032789802062377
 20
7.232747269399114
 30
0.0
 10
7.043330237215044
 20
7.226515398908401
 30
0.0
 10
7.048864564756375
 20
7.224372559837144
 30
0.0
 10
7.060443430825039
 20
7.221933862093712
 30
0.0
 10
7.066460228514297
 20
7.22167671154824
 30
0.0
 10
7.078367177394178
 20
7.222966614133892
 30
0.0
 10
7.084397248356444
 20
7.224529713664369
 30
0.0
 10
7.096032166458537
 20
7.229166268976749
 30
0.0
 10
7.101709821930813
 20
7.232247817727345
 30
0.0
 10
7.112687373494025
 20
7.239709084135426
 30
0.0
 10
7.117884636258689
 20
7.244011250068903
 30
0.0
 10
7.127796933209281
 20
7.253606808353052
 30
0.0
 10
7.132529067166799
 20
7.258935026183333
 30
0.0
 10
7.141296618894867
 20
7.270184211653106
 30
0.0
 10
7.145369392364236
 20
7.276136210023282
 30
0.0
 10
7.152952953122485
 20
7.288642066839622
 30
0.0
 10
7.156452978591353
 20
7.295191523200899
 30
0.0
 10
7.162740453534059
 20
7.308510396095049
 30
0.0
 10
7.165555490983348
 20
7.315323447603472
 30
0.0
 10
7.170538521153908
 20
7.329251832716239
 30
0.0
 10
7.172712346940722
 20
7.336406184516349
 30
0.0
 10
7.178043708414551
 20
7.357753831007148
 30
0.0
 10
7.180145708199782
 20
7.372020405949359
 30
0.0
 10
7.180418830426036
 20
7.393388360475302
 30
0.0
 10
7.180013682979153
 20
7.400326814672176
 30
0.0
 10
7.178017991438706
 20
7.413791375545649
 30
0.0
 10
7.176396661093651
 20
7.420392037497004
 30
0.0
 10
7.171748064821083
 20
7.432538469615992
 30
0.0
 10
7.168691996850212
 20
7.43817717209986
 30
0.0
 10
7.160979832027818
 20
7.44795127225992
 30
0.0
 10
7.156419737405572
 20
7.451985291485621
 30
0.0
 10
7.145824365587096
 20
7.458101869441405
 30
0.0
  0
POLYLINE
  5
283
330
1F
100
AcDbEntity
  8
0
  6
CONTINUOUS
 62
     7
100
AcDb2dPolyline
 66
     1
 10
0.0
 20
0.0
 30
0.0
  0
VERTEX
  5
524
330
283
100
AcDbEntity
  8
0
  6
CONTINUOUS
 62
     7
100
AcDbVertex
100
AcDb2dVertex
 10
7.1885893933
 20
6.2179666657
 30
0.0
  0
VERTEX
  5
525
330
283
100
AcDbEntity
  8
0
  6
CONTINUOUS
 62
     7
100
AcDbVertex
100
AcDb2dVertex
 10
7.1731521772
 20
6.2480261944
 30
0.0
  0
VERTEX
  5
526
330
283
100
AcDbEntity
  8
0
  6
CONTINUOUS
 62
     7
100
AcDbVertex
100
AcDb2dVertex
 10
7.1593387537
 20
6.2798274201
 30
0.0
  0
VERTEX
  5
527
330
283
100
AcDbEntity
  8
0
  6
CONTINUOUS
 62
     7
100
AcDbVertex
100
AcDb2dVertex
 10
7.1471804336
 20
6.3132982586
 30
0.0
  0
VERTEX
  5
528
330
283
100
AcDbEntity
  8
0
  6
CONTINUOUS
 62
     7
100
AcDbVertex
100
AcDb2dVertex
 10
7.1367047763
 20
6.3483628415
 30
0.0
  0
VERTEX
  5
529
330
283
100
AcDbEntity
  8
0
  6
CONTINUOUS
 62
     7
100
AcDbVertex
100
AcDb2dVertex
 10
7.127935527
 20
6.3849416878
 30
0.0
  0
VERTEX
  5
52A
330
283
100
AcDbEntity
  8
0
  6
CONTINUOUS
 62
     7
100
AcDbVertex
100
AcDb2dVertex
 10
7.1208925631
 20
6.4229518839
 30
0.0
  0
VERTEX
  5
52B
330
283
100
AcDbEntity
  8
0
  6
CONTINUOUS
 62
     7
100
AcDbVertex
100
AcDb2dVertex
 10
7.1155918489
 20
6.4623072721
 30
0.0
  0
VERTEX
  5
52C
330
283
100
AcDbEntity
  8
0
  6
CONTINUOUS
 62
     7
100
AcDbVertex
100
AcDb2dVertex
 10
7.1120453994
 20
6.5029186452
 30
0.0
  0
VERTEX
  5
52D
330
283
100
AcDbEntity
  8
0
  6
CONTINUOUS
 62
     7
100
AcDbVertex
100
AcDb2dVertex
 10
7.1102612535
 20
6.5446939493
 30
0.0
  0
VERTEX
  5
52E
330
283
100
AcDbEntity
  8
0
  6
CONTINUOUS
 62
     7
100
AcDbVertex
100
AcDb2dVertex
 10
7.1102434554
 20
6.587538492
 30
0.0
  0
VERTEX
  5
52F
330
283
100
AcDbEntity
  8
0
  6
CONTINUOUS
 62
     7
100
AcDbVertex
100
AcDb2dVertex
 10
7.1119920452
 20
6.6313551575
 30
0.0
  0
VERTEX
  5
530
330
283
100
AcDbEntity
  8
0
  6
CONTINUOUS
 62
     7
100
AcDbVertex
100
AcDb2dVertex
 10
7.1155030596
 20
6.6760446262
 30
0.0
  0
VERTEX
  5
531
330
283
100
AcDbEntity
  8
0
  6
CONTINUOUS
 62
     7
100
AcDbVertex
100
AcDb2dVertex
 10
7.12076854
 20
6.7215056004
 30
0.0
  0
VERTEX
  5
532
330
283
100
AcDbEntity
  8
0
  6
CONTINUOUS
 62
     7
100
AcDbVertex
100
AcDb2dVertex
 10
7.1277765512
 20
6.7676350334
 30
0.0
  0
VERTEX
  5
533
330
283
100
AcDbEntity
  8
0
  6
CONTINUOUS
 62
     7
100
AcDbVertex
100
AcDb2dVertex
 10
7.1365112081
 20
6.8143283635
 30
0.0
  0
VERTEX
  5
534
330
283
100
AcDbEntity
  8
0
  6
CONTINUOUS
 62
     7
100
AcDbVertex
100
AcDb2dVertex
 10
7.1469527118
 20
6.8614797506
 30
0.0
  0
VERTEX
  5
535
330
283
100
AcDbEntity
  8
0
  6
CONTINUOUS
 62
     7
100
AcDbVertex
100
AcDb2dVertex
 10
7.1590773944
 20
6.9089823164
 30
0.0
  0
VERTEX
  5
536
330
283
100
AcDbEntity
  8
0
  6
CONTINUOUS
 62
     7
100
AcDbVertex
100
AcDb2dVertex
 10
7.172857773
 20
6.9567283867
 30
0.0
  0
VERTEX
  5
537
330
283
100
AcDbEntity
  8
0
  6
CONTINUOUS
 62
     7
100
AcDbVertex
100
AcDb2dVertex
 10
7.1882626115
 20
7.0046097352
 30
0.0
  0
VERTEX
  5
538
330
283
100
AcDbEntity
  8
0
  6
CONTINUOUS
 62
     7
100
AcDbVertex
100
AcDb2dVertex
 10
7.2052569915
 20
7.052517829
 30
0.0
  0
VERTEX
  5
539
330
283
100
AcDbEntity
  8
0
  6
CONTINUOUS
 62
     7
100
AcDbVertex
100
AcDb2dVertex
 10
7.223802392
 20
7.1003440746
 30
0.0
  0
VERTEX
  5
53A
330
283
100
AcDbEntity
  8
0
  6
CONTINUOUS
 62
     7
100
AcDbVertex
100
AcDb2dVertex
 10
7.2438567759
 20
7.1479800641
 30
0.0
  0
VERTEX
  5
53B
330
283
100
AcDbEntity
  8
0
  6
CONTINUOUS
 62
     7
100
AcDbVertex
100
AcDb2dVertex
 10
7.2653746859
 20
7.1953178206
 30
0.0
  0
VERTEX
  5
53C
330
283
100
AcDbEntity
  8
0
  6
CONTINUOUS
 62
     7
100
AcDbVertex
100
AcDb2dVertex
 10
7.2883073473
 20
7.2422500435
 30
0.0
  0
VERTEX
  5
53D
330
283
100
AcDbEntity
  8
0
  6
CONTINUOUS
 62
     7
100
AcDbVertex
100
AcDb2dVertex
 10
7.3126027783
 20
7.2886703513
 30
0.0
  0
VERTEX
  5
53E
330
283
100
AcDbEntity
  8
0
  6
CONTINUOUS
 62
     7
100
AcDbVertex
100
AcDb2dVertex
 10
7.3382059086
 20
7.3344735229
 30
0.0
  0
VERTEX
  5
53F
330
283
100
AcDbEntity
  8
0
  6
CONTINUOUS
 62
     7
100
AcDbVertex
100
AcDb2dVertex
 10
7.3650587033
 20
7.3795557359
 30
0.0
  0
VERTEX
  5
540
330
283
100
AcDbEntity
  8
0
  6
CONTINUOUS
 62
     7
100
AcDbVertex
100
AcDb2dVertex
 10
7.393100295
 20
7.4238148023
 30
0.0
  0
VERTEX
  5
541
330
283
100
AcDbEntity
  8
0
  6
CONTINUOUS
 62
     7
100
AcDbVertex
100
AcDb2dVertex
 10
7.4222671219
 20
7.4671503998
 30
0.0
  0
VERTEX
  5
542
330
283
100
AcDbEntity
  8
0
  6
CONTINUOUS
 62
     7
100
AcDbVertex
100
AcDb2dVertex
 10
7.4524930712
 20
7.5094642996
 30
0.0
  0
VERTEX
  5
543
330
283
100
AcDbEntity
  8
0
  6
CONTINUOUS
 62
     7
100
AcDbVertex
100
AcDb2dVertex
 10
7.4837096297
 20
7.5506605883
 30
0.0
  0
VERTEX
  5
544
330
283
100
AcDbEntity
  8
0
  6
CONTINUOUS
 62
     7
100
AcDbVertex
100
AcDb2dVertex
 10
7.5158460386
 20
7.5906458862
 30
0.0
  0
VERTEX
  5
545
330
283
100
AcDbEntity
  8
0
  6
CONTINUOUS
 62
     7
100
AcDbVertex
100
AcDb2dVertex
 10
7.5488294542
 20
7.6293295585
 30
0.0
  0
VERTEX
  5
546
330
283
100
AcDbEntity
  8
0
  6
CONTINUOUS
 62
     7
100
AcDbVertex
100
AcDb2dVertex
 10
7.5825851129
 20
7.6666239206
 30
0.0
  0
VERTEX
  5
547
330
283
100
AcDbEntity
  8
0
  6
CONTINUOUS
 62
     7
100
AcDbVertex
100
AcDb2dVertex
 10
7.6170365004
 20
7.7024444372
 30
0.0
  0
VERTEX
  5
548
330
283
100
AcDbEntity
  8
0
  6
CONTINUOUS
 62
     7
100
AcDbVertex
100
AcDb2dVertex
 10
7.6521055257
 20
7.7367099139
 30
0.0
  0
VERTEX
  5
549
330
283
100
AcDbEntity
  8
0
  6
CONTINUOUS
 62
     7
100
AcDbVertex
100
AcDb2dVertex
 10
7.6877126977
 20
7.7693426809
 30
0.0
  0
VERTEX
  5
54A
330
283
100
AcDbEntity
  8
0
  6
CONTINUOUS
 62
     7
100
AcDbVertex
100
AcDb2dVertex
 10
7.7237773054
 20
7.8002687693
 30
0.0
  0
VERTEX
  5
54B
330
283
100
AcDbEntity
  8
0
  6
CONTINUOUS
 62
     7
100
AcDbVertex
100
AcDb2dVertex
 10
7.760217601
 20
7.8294180788
 30
0.0
  0
VERTEX
  5
54C
330
283
100
AcDbEntity
  8
0
  6
CONTINUOUS
 62
     7
100
AcDbVertex
100
AcDb2dVertex
 10
7.796950985
 20
7.8567245365
 30
0.0
  0
VERTEX
  5
54D
330
283
100
AcDbEntity
  8
0
  6
CONTINUOUS
 62
     7
100
AcDbVertex
100
AcDb2dVertex
 10
7.8338941938
 20
7.8821262468
 30
0.0
  0
VERTEX
  5
54E
330
283
100
AcDbEntity
  8
0
  6
CONTINUOUS
 62
     7
100
AcDbVertex
100
AcDb2dVertex
 10
7.870963488
 20
7.9055656315
 30
0.0
  0
VERTEX
  5
54F
330
283
100
AcDbEntity
  8
0
  6
CONTINUOUS
 62
     7
100
AcDbVertex
100
AcDb2dVertex
 10
7.9080748424
 20
7.9269895604
 30
0.0
  0
VERTEX
  5
550
330
283
100
AcDbEntity
  8
0
  6
CONTINUOUS
 62
     7
100
AcDbVertex
100
AcDb2dVertex
 10
7.9451441366
 20
7.9463494718
 30
0.0
  0
VERTEX
  5
551
330
283
100
AcDbEntity
  8
0
  6
CONTINUOUS
 62
     7
100
AcDbVertex
100
AcDb2dVertex
 10
7.9820873454
 20
7.9636014824
 30
0.0
  0
VERTEX
  5
552
330
283
100
AcDbEntity
  8
0
  6
CONTINUOUS
 62
     7
100
AcDbVertex
100
AcDb2dVertex
 10
8.0188207295
 20
7.9787064871
 30
0.0
  0
VERTEX
  5
553
330
283
100
AcDbEntity
  8
0
  6
CONTINUOUS
 62
     7
100
AcDbVertex
100
AcDb2dVertex
 10
8.055261025
 20
7.9916302473
 30
0.0
  0
VERTEX
  5
554
330
283
100
AcDbEntity
  8
0
  6
CONTINUOUS
 62
     7
100
AcDbVertex
100
AcDb2dVertex
 10
8.0913256327
 20
8.0023434687
 30
0.0
  0
VERTEX
  5
555
330
283
100
AcDbEntity
  8
0
  6
CONTINUOUS
 62
     7
100
AcDbVertex
100
AcDb2dVertex
 10
8.1269328047
 20
8.0108218674
 30
0.0
  0
VERTEX
  5
556
330
283
100
AcDbEntity
  8
0
  6
CONTINUOUS
 62
     7
100
AcDbVertex
100
AcDb2dVertex
 10
8.16200183
 20
8.0170462255
 30
0.0
  0
VERTEX
  5
557
330
283
100
AcDbEntity
  8
0
  6
CONTINUOUS
 62
     7
100
AcDbVertex
100
AcDb2dVertex
 10
8.1964532176
 20
8.0210024343
 30
0.0
  0
VERTEX
  5
558
330
283
100
AcDbEntity
  8
0
  6
CONTINUOUS
 62
     7
100
AcDbVertex
100
AcDb2dVertex
 10
8.2302088762
 20
8.0226815261
 30
0.0
  0
VERTEX
  5
559
330
283
100
AcDbEntity
  8
0
  6
CONTINUOUS
 62
     7
100
AcDbVertex
100
AcDb2dVertex
 10
8.2631922919
 20
8.0220796949
 30
0.0
  0
VERTEX
  5
55A
330
283
100
AcDbEntity
  8
0
  6
CONTINUOUS
 62
     7
100
AcDbVertex
100
AcDb2dVertex
 10
8.2953287008
 20
8.0191983049
 30
0.0
  0
VERTEX
  5
55B
330
283
100
AcDbEntity
  8
0
  6
CONTINUOUS
 62
     7
100
AcDbVertex
100
AcDb2dVertex
 10
8.3265452593
 20
8.0140438875
 30
0.0
  0
VERTEX
  5
55C
330
283
100
AcDbEntity
  8
0
  6
CONTINUOUS
 62
     7
100
AcDbVertex
100
AcDb2dVertex
 10
8.3567712086
 20
8.006628126
 30
0.0
  0
VERTEX
  5
55D
330
283
100
AcDbEntity
  8
0
  6
CONTINUOUS
 62
     7
100
AcDbVertex
100
AcDb2dVertex
 10
8.3859380354
 20
7.9969678299
 30
0.0
  0
VERTEX
  5
55E
330
283
100
AcDbEntity
  8
0
  6
CONTINUOUS
 62
     7
100
AcDbVertex
100
AcDb2dVertex
 10
8.4139796272
 20
7.9850848962
 30
0.0
  0
VERTEX
  5
55F
330
283
100
AcDbEntity
  8
0
  6
CONTINUOUS
 62
     7
100
AcDbVertex
100
AcDb2dVertex
 10
8.4406554746
 20
7.9711084751
 30
0.0
  0
SEQEND
  5
560
330
283
100
AcDbEntity
  8
0
  6
CONTINUOUS
 62
     7
  0
POLYLINE
  5
284
330
1F
100
AcDbEntity
  8
0
  6
CONTINUOUS
 62
     7
100
AcDb2dPolyline
 66
     1
 10
0.0
 20
0.0
 30
0.0
  0
VERTEX
  5
561
330
284
100
AcDbEntity
  8
0
  6
CONTINUOUS
 62
     7
100
AcDbVertex
100
AcDb2dVertex
 10
8.4217837681
 20
7.981281214
 30
0.0
  0
VERTEX
  5
562
330
284
100
AcDbEntity
  8
0
  6
CONTINUOUS
 62
     7
100
AcDbVertex
100
AcDb2dVertex
 10
8.4016808253
 20
7.9936008688
 30
0.0
  0
VERTEX
  5
563
330
284
100
AcDbEntity
  8
0
  6
CONTINUOUS
 62
     7
100
AcDbVertex
100
AcDb2dVertex
 10
8.3746519142
 20
8.0075488665
 30
0.0
  0
VERTEX
  5
564
330
284
100
AcDbEntity
  8
0
  6
CONTINUOUS
 62
     7
100
AcDbVertex
100
AcDb2dVertex
 10
8.3464321614
 20
8.0192857189
 30
0.0
  0
VERTEX
  5
565
330
284
100
AcDbEntity
  8
0
  6
CONTINUOUS
 62
     7
100
AcDbVertex
100
AcDb2dVertex
 10
8.3170859139
 20
8.0287846635
 30
0.0
  0
VERTEX
  5
566
330
284
100
AcDbEntity
  8
0
  6
CONTINUOUS
 62
     7
100
AcDbVertex
100
AcDb2dVertex
 10
8.2866800872
 20
8.0360240406
 30
0.0
  0
VERTEX
  5
567
330
284
100
AcDbEntity
  8
0
  6
CONTINUOUS
 62
     7
100
AcDbVertex
100
AcDb2dVertex
 10
8.2552840128
 20
8.0409873431
 30
0.0
  0
VERTEX
  5
568
330
284
100
AcDbEntity
  8
0
  6
CONTINUOUS
 62
     7
100
AcDbVertex
100
AcDb2dVertex
 10
8.2229692805
 20
8.0436632535
 30
0.0
  0
VERTEX
  5
569
330
284
100
AcDbEntity
  8
0
  6
CONTINUOUS
 62
     7
100
AcDbVertex
100
AcDb2dVertex
 10
8.1898095746
 20
8.0440456703
 30
0.0
  0
VERTEX
  5
56A
330
284
100
AcDbEntity
  8
0
  6
CONTINUOUS
 62
     7
100
AcDbVertex
100
AcDb2dVertex
 10
8.155880506
 20
8.0421337213
 30
0.0
  0
VERTEX
  5
56B
330
284
100
AcDbEntity
  8
0
  6
CONTINUOUS
 62
     7
100
AcDbVertex
100
AcDb2dVertex
 10
8.1212594402
 20
8.0379317664
 30
0.0
  0
VERTEX
  5
56C
330
284
100
AcDbEntity
  8
0
  6
CONTINUOUS
 62
     7
100
AcDbVertex
100
AcDb2dVertex
 10
8.0860253204
 20
8.0314493867
 30
0.0
  0
VERTEX
  5
56D
330
284
100
AcDbEntity
  8
0
  6
CONTINUOUS
 62
     7
100
AcDbVertex
100
AcDb2dVertex
 10
8.0502584877
 20
8.0227013635
 30
0.0
  0
VERTEX
  5
56E
330
284
100
AcDbEntity
  8
0
  6
CONTINUOUS
 62
     7
100
AcDbVertex
100
AcDb2dVertex
 10
8.014040498
 20
8.0117076441
 30
0.0
  0
VERTEX
  5
56F
330
284
100
AcDbEntity
  8
0
  6
CONTINUOUS
 62
     7
100
AcDbVertex
100
AcDb2dVertex
 10
7.9774539358
 20
7.9984932965
 30
0.0
  0
VERTEX
  5
570
330
284
100
AcDbEntity
  8
0
  6
CONTINUOUS
 62
     7
100
AcDbVertex
100
AcDb2dVertex
 10
7.9405822262
 20
7.9830884521
 30
0.0
  0
VERTEX
  5
571
330
284
100
AcDbEntity
  8
0
  6
CONTINUOUS
 62
     7
100
AcDbVertex
100
AcDb2dVertex
 10
7.9035094443
 20
7.9655282372
 30
0.0
  0
VERTEX
  5
572
330
284
100
AcDbEntity
  8
0
  6
CONTINUOUS
 62
     7
100
AcDbVertex
100
AcDb2dVertex
 10
7.8663201238
 20
7.9458526927
 30
0.0
  0
SEQEND
  5
573
330
284
100
AcDbEntity
  8
0
  6
CONTINUOUS
 62
     7
  0
LINE
  5
285
330
1F
100
AcDbEntity
  8
0
  6
CONTINUOUS
 62
     7
100
AcDbLine
 10
7.5716922984
 20
8.115937716
 30
0.0
 11
7.8663201238
 21
7.9458526927
 31
0.0
  0
POLYLINE
  5
286
330
1F
100
AcDbEntity
  8
0
  6
CONTINUOUS
 62
     7
100
AcDb2dPolyline
 66
     1
 10
0.0
 20
0.0
 30
0.0
  0
VERTEX
  5
574
330
286
100
AcDbEntity
  8
0
  6
CONTINUOUS
 62
     7
100
AcDbVertex
100
AcDb2dVertex
 10
7.5716922984
 20
8.115937716
 30
0.0
  0
VERTEX
  5
575
330
286
100
AcDbEntity
  8
0
  6
CONTINUOUS
 62
     7
100
AcDbVertex
100
AcDb2dVertex
 10
7.608549679
 20
8.1354467404
 30
0.0
  0
VERTEX
  5
576
330
286
100
AcDbEntity
  8
0
  6
CONTINUOUS
 62
     7
100
AcDbVertex
100
AcDb2dVertex
 10
7.6452933377
 20
8.1528784381
 30
0.0
  0
VERTEX
  5
577
330
286
100
AcDbEntity
  8
0
  6
CONTINUOUS
 62
     7
100
AcDbVertex
100
AcDb2dVertex
 10
7.6818409815
 20
8.1681937682
 30
0.0
  0
VERTEX
  5
578
330
286
100
AcDbEntity
  8
0
  6
CONTINUOUS
 62
     7
100
AcDbVertex
100
AcDb2dVertex
 10
7.7181107568
 20
8.1813584299
 30
0.0
  0
VERTEX
  5
579
330
286
100
AcDbEntity
  8
0
  6
CONTINUOUS
 62
     7
100
AcDbVertex
100
AcDb2dVertex
 10
7.7540214319
 20
8.192342939
 30
0.0
  0
VERTEX
  5
57A
330
286
100
AcDbEntity
  8
0
  6
CONTINUOUS
 62
     7
100
AcDbVertex
100
AcDb2dVertex
 10
7.7894925799
 20
8.2011226941
 30
0.0
  0
VERTEX
  5
57B
330
286
100
AcDbEntity
  8
0
  6
CONTINUOUS
 62
     7
100
AcDbVertex
100
AcDb2dVertex
 10
7.8244447579
 20
8.2076780315
 30
0.0
  0
VERTEX
  5
57C
330
286
100
AcDbEntity
  8
0
  6
CONTINUOUS
 62
     7
100
AcDbVertex
100
AcDb2dVertex
 10
7.8587996853
 20
8.2119942698
 30
0.0
  0
VERTEX
  5
57D
330
286
100
AcDbEntity
  8
0
  6
CONTINUOUS
 62
     7
100
AcDbVertex
100
AcDb2dVertex
 10
7.8924804194
 20
8.214061742
 30
0.0
  0
VERTEX
  5
57E
330
286
100
AcDbEntity
  8
0
  6
CONTINUOUS
 62
     7
100
AcDbVertex
100
AcDb2dVertex
 10
7.9254115272
 20
8.2138758178
 30
0.0
  0
VERTEX
  5
57F
330
286
100
AcDbEntity
  8
0
  6
CONTINUOUS
 62
     7
100
AcDbVertex
100
AcDb2dVertex
 10
7.9575192546
 20
8.2114369135
 30
0.0
  0
VERTEX
  5
580
330
286
100
AcDbEntity
  8
0
  6
CONTINUOUS
 62
     7
100
AcDbVertex
100
AcDb2dVertex
 10
7.9887316919
 20
8.2067504915
 30
0.0
  0
VERTEX
  5
581
330
286
100
AcDbEntity
  8
0
  6
CONTINUOUS
 62
     7
100
AcDbVertex
100
AcDb2dVertex
 10
8.0189789341
 20
8.1998270476
 30
0.0
  0
VERTEX
  5
582
330
286
100
AcDbEntity
  8
0
  6
CONTINUOUS
 62
     7
100
AcDbVertex
100
AcDb2dVertex
 10
8.0481932382
 20
8.190682088
 30
0.0
  0
VERTEX
  5
583
330
286
100
AcDbEntity
  8
0
  6
CONTINUOUS
 62
     7
100
AcDbVertex
100
AcDb2dVertex
 10
8.0763091745
 20
8.179336094
 30
0.0
  0
VERTEX
  5
584
330
286
100
AcDbEntity
  8
0
  6
CONTINUOUS
 62
     7
100
AcDbVertex
100
AcDb2dVertex
 10
8.1032637733
 20
8.1658144767
 30
0.0
  0
VERTEX
  5
585
330
286
100
AcDbEntity
  8
0
  6
CONTINUOUS
 62
     7
100
AcDbVertex
100
AcDb2dVertex
 10
8.1089091829
 20
8.1626215329
 30
0.0
  0
SEQEND
  5
586
330
286
100
AcDbEntity
  8
0
  6
CONTINUOUS
 62
     7
  0
POLYLINE
  5
287
330
1F
100
AcDbEntity
  8
0
  6
CONTINUOUS
 62
     7
100
AcDb2dPolyline
 66
     1
 10
0.0
 20
0.0
 30
0.0
  0
VERTEX
  5
587
330
287
100
AcDbEntity
  8
0
  6
CONTINUOUS
 62
     7
100
AcDbVertex
100
AcDb2dVertex
 10
7.0066365642
 20
6.2532224662
 30
0.0
  0
VERTEX
  5
588
330
287
100
AcDbEntity
  8
0
  6
CONTINUOUS
 62
     7
100
AcDbVertex
100
AcDb2dVertex
 10
6.996111263
 20
6.2595351936
 30
0.0
  0
VERTEX
  5
589
330
287
100
AcDbEntity
  8
0
  6
CONTINUOUS
 62
     7
100
AcDbVertex
100
AcDb2dVertex
 10
6.9711684038
 20
6.2765205951
 30
0.0
  0
VERTEX
  5
58A
330
287
100
AcDbEntity
  8
0
  6
CONTINUOUS
 62
     7
100
AcDbVertex
100
AcDb2dVertex
 10
6.9475393306
 20
6.2955920055
 30
0.0
  0
VERTEX
  5
58B
330
287
100
AcDbEntity
  8
0
  6
CONTINUOUS
 62
     7
100
AcDbVertex
100
AcDb2dVertex
 10
6.9252769644
 20
6.3167067119
 30
0.0
  0
VERTEX
  5
58C
330
287
100
AcDbEntity
  8
0
  6
CONTINUOUS
 62
     7
100
AcDbVertex
100
AcDb2dVertex
 10
6.9044311648
 20
6.3398174247
 30
0.0
  0
VERTEX
  5
58D
330
287
100
AcDbEntity
  8
0
  6
CONTINUOUS
 62
     7
100
AcDbVertex
100
AcDb2dVertex
 10
6.8850486191
 20
6.364872384
 30
0.0
  0
VERTEX
  5
58E
330
287
100
AcDbEntity
  8
0
  6
CONTINUOUS
 62
     7
100
AcDbVertex
100
AcDb2dVertex
 10
6.8671727373
 20
6.3918154757
 30
0.0
  0
VERTEX
  5
58F
330
287
100
AcDbEntity
  8
0
  6
CONTINUOUS
 62
     7
100
AcDbVertex
100
AcDb2dVertex
 10
6.8508435551
 20
6.4205863568
 30
0.0
  0
VERTEX
  5
590
330
287
100
AcDbEntity
  8
0
  6
CONTINUOUS
 62
     7
100
AcDbVertex
100
AcDb2dVertex
 10
6.836097644
 20
6.4511205907
 30
0.0
  0
VERTEX
  5
591
330
287
100
AcDbEntity
  8
0
  6
CONTINUOUS
 62
     7
100
AcDbVertex
100
AcDb2dVertex
 10
6.8229680297
 20
6.4833497916
 30
0.0
  0
VERTEX
  5
592
330
287
100
AcDbEntity
  8
0
  6
CONTINUOUS
 62
     7
100
AcDbVertex
100
AcDb2dVertex
 10
6.8114841178
 20
6.5172017774
 30
0.0
  0
VERTEX
  5
593
330
287
100
AcDbEntity
  8
0
  6
CONTINUOUS
 62
     7
100
AcDbVertex
100
AcDb2dVertex
 10
6.8016716283
 20
6.5526007318
 30
0.0
  0
VERTEX
  5
594
330
287
100
AcDbEntity
  8
0
  6
CONTINUOUS
 62
     7
100
AcDbVertex
100
AcDb2dVertex
 10
6.7935525376
 20
6.5894673735
 30
0.0
  0
VERTEX
  5
595
330
287
100
AcDbEntity
  8
0
  6
CONTINUOUS
 62
     7
100
AcDbVertex
100
AcDb2dVertex
 10
6.7871450296
 20
6.6277191344
 30
0.0
  0
VERTEX
  5
596
330
287
100
AcDbEntity
  8
0
  6
CONTINUOUS
 62
     7
100
AcDbVertex
100
AcDb2dVertex
 10
6.7824634548
 20
6.6672703441
 30
0.0
  0
VERTEX
  5
597
330
287
100
AcDbEntity
  8
0
  6
CONTINUOUS
 62
     7
100
AcDbVertex
100
AcDb2dVertex
 10
6.7795182984
 20
6.708032422
 30
0.0
  0
VERTEX
  5
598
330
287
100
AcDbEntity
  8
0
  6
CONTINUOUS
 62
     7
100
AcDbVertex
100
AcDb2dVertex
 10
6.7783161565
 20
6.7499140753
 30
0.0
  0
VERTEX
  5
599
330
287
100
AcDbEntity
  8
0
  6
CONTINUOUS
 62
     7
100
AcDbVertex
100
AcDb2dVertex
 10
6.7788597213
 20
6.792821504
 30
0.0
  0
VERTEX
  5
59A
330
287
100
AcDbEntity
  8
0
  6
CONTINUOUS
 62
     7
100
AcDbVertex
100
AcDb2dVertex
 10
6.7811477756
 20
6.8366586108
 30
0.0
  0
VERTEX
  5
59B
330
287
100
AcDbEntity
  8
0
  6
CONTINUOUS
 62
     7
100
AcDbVertex
100
AcDb2dVertex
 10
6.7851751948
 20
6.8813272159
 30
0.0
  0
VERTEX
  5
59C
330
287
100
AcDbEntity
  8
0
  6
CONTINUOUS
 62
     7
100
AcDbVertex
100
AcDb2dVertex
 10
6.7909329591
 20
6.9267272777
 30
0.0
  0
VERTEX
  5
59D
330
287
100
AcDbEntity
  8
0
  6
CONTINUOUS
 62
     7
100
AcDbVertex
100
AcDb2dVertex
 10
6.798408173
 20
6.9727571159
 30
0.0
  0
VERTEX
  5
59E
330
287
100
AcDbEntity
  8
0
  6
CONTINUOUS
 62
     7
100
AcDbVertex
100
AcDb2dVertex
 10
6.8075840947
 20
7.0193136402
 30
0.0
  0
VERTEX
  5
59F
330
287
100
AcDbEntity
  8
0
  6
CONTINUOUS
 62
     7
100
AcDbVertex
100
AcDb2dVertex
 10
6.8184401734
 20
7.0662925803
 30
0.0
  0
VERTEX
  5
5A0
330
287
100
AcDbEntity
  8
0
  6
CONTINUOUS
 62
     7
100
AcDbVertex
100
AcDb2dVertex
 10
6.8309520953
 20
7.1135887202
 30
0.0
  0
VERTEX
  5
5A1
330
287
100
AcDbEntity
  8
0
  6
CONTINUOUS
 62
     7
100
AcDbVertex
100
AcDb2dVertex
 10
6.8450918382
 20
7.1610961331
 30
0.0
  0
VERTEX
  5
5A2
330
287
100
AcDbEntity
  8
0
  6
CONTINUOUS
 62
     7
100
AcDbVertex
100
AcDb2dVertex
 10
6.8608277341
 20
7.2087084194
 30
0.0
  0
VERTEX
  5
5A3
330
287
100
AcDbEntity
  8
0
  6
CONTINUOUS
 62
     7
100
AcDbVertex
100
AcDb2dVertex
 10
6.87812454
 20
7.2563189445
 30
0.0
  0
VERTEX
  5
5A4
330
287
100
AcDbEntity
  8
0
  6
CONTINUOUS
 62
     7
100
AcDbVertex
100
AcDb2dVertex
 10
6.8969435174
 20
7.3038210775
 30
0.0
  0
VERTEX
  5
5A5
330
287
100
AcDbEntity
  8
0
  6
CONTINUOUS
 62
     7
100
AcDbVertex
100
AcDb2dVertex
 10
6.9172425184
 20
7.3511084305
 30
0.0
  0
VERTEX
  5
5A6
330
287
100
AcDbEntity
  8
0
  6
CONTINUOUS
 62
     7
100
AcDbVertex
100
AcDb2dVertex
 10
6.9389760803
 20
7.3980750967
 30
0.0
  0
VERTEX
  5
5A7
330
287
100
AcDbEntity
  8
0
  6
CONTINUOUS
 62
     7
100
AcDbVertex
100
AcDb2dVertex
 10
6.9620955277
 20
7.4446158873
 30
0.0
  0
VERTEX
  5
5A8
330
287
100
AcDbEntity
  8
0
  6
CONTINUOUS
 62
     7
100
AcDbVertex
100
AcDb2dVertex
 10
6.9865490813
 20
7.4906265676
 30
0.0
  0
VERTEX
  5
5A9
330
287
100
AcDbEntity
  8
0
  6
CONTINUOUS
 62
     7
100
AcDbVertex
100
AcDb2dVertex
 10
7.0122819738
 20
7.5360040897
 30
0.0
  0
VERTEX
  5
5AA
330
287
100
AcDbEntity
  8
0
  6
CONTINUOUS
 62
     7
100
AcDbVertex
100
AcDb2dVertex
 10
7.0392365725
 20
7.5806468243
 30
0.0
  0
VERTEX
  5
5AB
330
287
100
AcDbEntity
  8
0
  6
CONTINUOUS
 62
     7
100
AcDbVertex
100
AcDb2dVertex
 10
7.0673525088
 20
7.6244547873
 30
0.0
  0
VERTEX
  5
5AC
330
287
100
AcDbEntity
  8
0
  6
CONTINUOUS
 62
     7
100
AcDbVertex
100
AcDb2dVertex
 10
7.0965668129
 20
7.6673298646
 30
0.0
  0
VERTEX
  5
5AD
330
287
100
AcDbEntity
  8
0
  6
CONTINUOUS
 62
     7
100
AcDbVertex
100
AcDb2dVertex
 10
7.1268140552
 20
7.709176031
 30
0.0
  0
VERTEX
  5
5AE
330
287
100
AcDbEntity
  8
0
  6
CONTINUOUS
 62
     7
100
AcDbVertex
100
AcDb2dVertex
 10
7.1580264924
 20
7.749899566
 30
0.0
  0
VERTEX
  5
5AF
330
287
100
AcDbEntity
  8
0
  6
CONTINUOUS
 62
     7
100
AcDbVertex
100
AcDb2dVertex
 10
7.1901342199
 20
7.7894092634
 30
0.0
  0
VERTEX
  5
5B0
330
287
100
AcDbEntity
  8
0
  6
CONTINUOUS
 62
     7
100
AcDbVertex
100
AcDb2dVertex
 10
7.2230653277
 20
7.8276166353
 30
0.0
  0
VERTEX
  5
5B1
330
287
100
AcDbEntity
  8
0
  6
CONTINUOUS
 62
     7
100
AcDbVertex
100
AcDb2dVertex
 10
7.2567460617
 20
7.8644361109
 30
0.0
  0
VERTEX
  5
5B2
330
287
100
AcDbEntity
  8
0
  6
CONTINUOUS
 62
     7
100
AcDbVertex
100
AcDb2dVertex
 10
7.2911009892
 20
7.8997852275
 30
0.0
  0
VERTEX
  5
5B3
330
287
100
AcDbEntity
  8
0
  6
CONTINUOUS
 62
     7
100
AcDbVertex
100
AcDb2dVertex
 10
7.3260531671
 20
7.9335848158
 30
0.0
  0
VERTEX
  5
5B4
330
287
100
AcDbEntity
  8
0
  6
CONTINUOUS
 62
     7
100
AcDbVertex
100
AcDb2dVertex
 10
7.3615243151
 20
7.9657591764
 30
0.0
  0
VERTEX
  5
5B5
330
287
100
AcDbEntity
  8
0
  6
CONTINUOUS
 62
     7
100
AcDbVertex
100
AcDb2dVertex
 10
7.3974349903
 20
7.9962362504
 30
0.0
  0
VERTEX
  5
5B6
330
287
100
AcDbEntity
  8
0
  6
CONTINUOUS
 62
     7
100
AcDbVertex
100
AcDb2dVertex
 10
7.4337047655
 20
8.0249477798
 30
0.0
  0
VERTEX
  5
5B7
330
287
100
AcDbEntity
  8
0
  6
CONTINUOUS
 62
     7
100
AcDbVertex
100
AcDb2dVertex
 10
7.4702524094
 20
8.051829461
 30
0.0
  0
VERTEX
  5
5B8
330
287
100
AcDbEntity
  8
0
  6
CONTINUOUS
 62
     7
100
AcDbVertex
100
AcDb2dVertex
 10
7.506996068
 20
8.0768210886
 30
0.0
  0
VERTEX
  5
5B9
330
287
100
AcDbEntity
  8
0
  6
CONTINUOUS
 62
     7
100
AcDbVertex
100
AcDb2dVertex
 10
7.5438534487
 20
8.0998666902
 30
0.0
  0
SEQEND
  5
5BA
330
287
100
AcDbEntity
  8
0
  6
CONTINUOUS
 62
     7
  0
LINE
  5
288
330
1F
100
AcDbEntity
  8
0
  6
CONTINUOUS
 62
     7
100
AcDbLine
 10
7.5438534487
 20
8.0998666902
 30
0.0
 11
7.8384812742
 21
7.9297816669
 31
0.0
  0
POLYLINE
  5
289
330
1F
100
AcDbEntity
  8
0
  6
CONTINUOUS
 62
     7
100
AcDb2dPolyline
 66
     1
 10
0.0
 20
0.0
 30
0.0
  0
VERTEX
  5
5BB
330
289
100
AcDbEntity
  8
0
  6
CONTINUOUS
 62
     7
100
AcDbVertex
100
AcDb2dVertex
 10
7.8384812742
 20
7.9297816669
 30
0.0
  0
VERTEX
  5
5BC
330
289
100
AcDbEntity
  8
0
  6
CONTINUOUS
 62
     7
100
AcDbVertex
100
AcDb2dVertex
 10
7.8012919537
 20
7.9065193359
 30
0.0
  0
VERTEX
  5
5BD
330
289
100
AcDbEntity
  8
0
  6
CONTINUOUS
 62
     7
100
AcDbVertex
100
AcDb2dVertex
 10
7.7642191718
 20
7.8812762279
 30
0.0
  0
VERTEX
  5
5BE
330
289
100
AcDbEntity
  8
0
  6
CONTINUOUS
 62
     7
100
AcDbVertex
100
AcDb2dVertex
 10
7.7273474622
 20
7.8541099025
 30
0.0
  0
VERTEX
  5
5BF
330
289
100
AcDbEntity
  8
0
  6
CONTINUOUS
 62
     7
100
AcDbVertex
100
AcDb2dVertex
 10
7.6907609
 20
7.8250823046
 30
0.0
  0
VERTEX
  5
5C0
330
289
100
AcDbEntity
  8
0
  6
CONTINUOUS
 62
     7
100
AcDbVertex
100
AcDb2dVertex
 10
7.6545429103
 20
7.7942596232
 30
0.0
  0
VERTEX
  5
5C1
330
289
100
AcDbEntity
  8
0
  6
CONTINUOUS
 62
     7
100
AcDbVertex
100
AcDb2dVertex
 10
7.6187760777
 20
7.7617121404
 30
0.0
  0
VERTEX
  5
5C2
330
289
100
AcDbEntity
  8
0
  6
CONTINUOUS
 62
     7
100
AcDbVertex
100
AcDb2dVertex
 10
7.5835419578
 20
7.7275140712
 30
0.0
  0
VERTEX
  5
5C3
330
289
100
AcDbEntity
  8
0
  6
CONTINUOUS
 62
     7
100
AcDbVertex
100
AcDb2dVertex
 10
7.548920892
 20
7.6917433945
 30
0.0
  0
VERTEX
  5
5C4
330
289
100
AcDbEntity
  8
0
  6
CONTINUOUS
 62
     7
100
AcDbVertex
100
AcDb2dVertex
 10
7.5149918235
 20
7.6544816747
 30
0.0
  0
VERTEX
  5
5C5
330
289
100
AcDbEntity
  8
0
  6
CONTINUOUS
 62
     7
100
AcDbVertex
100
AcDb2dVertex
 10
7.4818321175
 20
7.6158138764
 30
0.0
  0
VERTEX
  5
5C6
330
289
100
AcDbEntity
  8
0
  6
CONTINUOUS
 62
     7
100
AcDbVertex
100
AcDb2dVertex
 10
7.4495173852
 20
7.5758281702
 30
0.0
  0
VERTEX
  5
5C7
330
289
100
AcDbEntity
  8
0
  6
CONTINUOUS
 62
     7
100
AcDbVertex
100
AcDb2dVertex
 10
7.4181213109
 20
7.5346157319
 30
0.0
  0
VERTEX
  5
5C8
330
289
100
AcDbEntity
  8
0
  6
CONTINUOUS
 62
     7
100
AcDbVertex
100
AcDb2dVertex
 10
7.3877154841
 20
7.4922705344
 30
0.0
  0
VERTEX
  5
5C9
330
289
100
AcDbEntity
  8
0
  6
CONTINUOUS
 62
     7
100
AcDbVertex
100
AcDb2dVertex
 10
7.3583692366
 20
7.4488891336
 30
0.0
  0
VERTEX
  5
5CA
330
289
100
AcDbEntity
  8
0
  6
CONTINUOUS
 62
     7
100
AcDbVertex
100
AcDb2dVertex
 10
7.3301494838
 20
7.4045704482
 30
0.0
  0
VERTEX
  5
5CB
330
289
100
AcDbEntity
  8
0
  6
CONTINUOUS
 62
     7
100
AcDbVertex
100
AcDb2dVertex
 10
7.3031205727
 20
7.359415534
 30
0.0
  0
VERTEX
  5
5CC
330
289
100
AcDbEntity
  8
0
  6
CONTINUOUS
 62
     7
100
AcDbVertex
100
AcDb2dVertex
 10
7.2773441349
 20
7.3135273536
 30
0.0
  0
VERTEX
  5
5CD
330
289
100
AcDbEntity
  8
0
  6
CONTINUOUS
 62
     7
100
AcDbVertex
100
AcDb2dVertex
 10
7.252878946
 20
7.2670105416
 30
0.0
  0
VERTEX
  5
5CE
330
289
100
AcDbEntity
  8
0
  6
CONTINUOUS
 62
     7
100
AcDbVertex
100
AcDb2dVertex
 10
7.2297807917
 20
7.2199711661
 30
0.0
  0
VERTEX
  5
5CF
330
289
100
AcDbEntity
  8
0
  6
CONTINUOUS
 62
     7
100
AcDbVertex
100
AcDb2dVertex
 10
7.2081023406
 20
7.1725164867
 30
0.0
  0
VERTEX
  5
5D0
330
289
100
AcDbEntity
  8
0
  6
CONTINUOUS
 62
     7
100
AcDbVertex
100
AcDb2dVertex
 10
7.1878930242
 20
7.1247547099
 30
0.0
  0
VERTEX
  5
5D1
330
289
100
AcDbEntity
  8
0
  6
CONTINUOUS
 62
     7
100
AcDbVertex
100
AcDb2dVertex
 10
7.1691989238
 20
7.0767947426
 30
0.0
  0
VERTEX
  5
5D2
330
289
100
AcDbEntity
  8
0
  6
CONTINUOUS
 62
     7
100
AcDbVertex
100
AcDb2dVertex
 10
7.152062666
 20
7.0287459434
 30
0.0
  0
VERTEX
  5
5D3
330
289
100
AcDbEntity
  8
0
  6
CONTINUOUS
 62
     7
100
AcDbVertex
100
AcDb2dVertex
 10
7.136523325
 20
6.9807178737
 30
0.0
  0
VERTEX
  5
5D4
330
289
100
AcDbEntity
  8
0
  6
CONTINUOUS
 62
     7
100
AcDbVertex
100
AcDb2dVertex
 10
7.1226163337
 20
6.9328200474
 30
0.0
  0
VERTEX
  5
5D5
330
289
100
AcDbEntity
  8
0
  6
CONTINUOUS
 62
     7
100
AcDbVertex
100
AcDb2dVertex
 10
7.1103734029
 20
6.8851616816
 30
0.0
  0
VERTEX
  5
5D6
330
289
100
AcDbEntity
  8
0
  6
CONTINUOUS
 62
     7
100
AcDbVertex
100
AcDb2dVertex
 10
7.0998224492
 20
6.8378514474
 30
0.0
  0
VERTEX
  5
5D7
330
289
100
AcDbEntity
  8
0
  6
CONTINUOUS
 62
     7
100
AcDbVertex
100
AcDb2dVertex
 10
7.0909875308
 20
6.7909972218
 30
0.0
  0
VERTEX
  5
5D8
330
289
100
AcDbEntity
  8
0
  6
CONTINUOUS
 62
     7
100
AcDbVertex
100
AcDb2dVertex
 10
7.0838887932
 20
6.7447058424
 30
0.0
  0
VERTEX
  5
5D9
330
289
100
AcDbEntity
  8
0
  6
CONTINUOUS
 62
     7
100
AcDbVertex
100
AcDb2dVertex
 10
7.0785424231
 20
6.6990828631
 30
0.0
  0
VERTEX
  5
5DA
330
289
100
AcDbEntity
  8
0
  6
CONTINUOUS
 62
     7
100
AcDbVertex
100
AcDb2dVertex
 10
7.0749606112
 20
6.6542323138
 30
0.0
  0
VERTEX
  5
5DB
330
289
100
AcDbEntity
  8
0
  6
CONTINUOUS
 62
     7
100
AcDbVertex
100
AcDb2dVertex
 10
7.0731515248
 20
6.6102564632
 30
0.0
  0
VERTEX
  5
5DC
330
289
100
AcDbEntity
  8
0
  6
CONTINUOUS
 62
     7
100
AcDbVertex
100
AcDb2dVertex
 10
7.0731192891
 20
6.5672555853
 30
0.0
  0
VERTEX
  5
5DD
330
289
100
AcDbEntity
  8
0
  6
CONTINUOUS
 62
     7
100
AcDbVertex
100
AcDb2dVertex
 10
7.0748639776
 20
6.5253277311
 30
0.0
  0
VERTEX
  5
5DE
330
289
100
AcDbEntity
  8
0
  6
CONTINUOUS
 62
     7
100
AcDbVertex
100
AcDb2dVertex
 10
7.0783816119
 20
6.4845685049
 30
0.0
  0
VERTEX
  5
5DF
330
289
100
AcDbEntity
  8
0
  6
CONTINUOUS
 62
     7
100
AcDbVertex
100
AcDb2dVertex
 10
7.0836641712
 20
6.4450708462
 30
0.0
  0
VERTEX
  5
5E0
330
289
100
AcDbEntity
  8
0
  6
CONTINUOUS
 62
     7
100
AcDbVertex
100
AcDb2dVertex
 10
7.0906996101
 20
6.4069248179
 30
0.0
  0
VERTEX
  5
5E1
330
289
100
AcDbEntity
  8
0
  6
CONTINUOUS
 62
     7
100
AcDbVertex
100
AcDb2dVertex
 10
7.0994718863
 20
6.3702174009
 30
0.0
  0
VERTEX
  5
5E2
330
289
100
AcDbEntity
  8
0
  6
CONTINUOUS
 62
     7
100
AcDbVertex
100
AcDb2dVertex
 10
7.1099609972
 20
6.3350322958
 30
0.0
  0
VERTEX
  5
5E3
330
289
100
AcDbEntity
  8
0
  6
CONTINUOUS
 62
     7
100
AcDbVertex
100
AcDb2dVertex
 10
7.1221430256
 20
6.3014497319
 30
0.0
  0
VERTEX
  5
5E4
330
289
100
AcDbEntity
  8
0
  6
CONTINUOUS
 62
     7
100
AcDbVertex
100
AcDb2dVertex
 10
7.1359901937
 20
6.2695462845
 30
0.0
  0
VERTEX
  5
5E5
330
289
100
AcDbEntity
  8
0
  6
CONTINUOUS
 62
     7
100
AcDbVertex
100
AcDb2dVertex
 10
7.1514709271
 20
6.2393947002
 30
0.0
  0
SEQEND
  5
5E6
330
289
100
AcDbEntity
  8
0
  6
CONTINUOUS
 62
     7
  0
LINE
  5
28A
330
1F
100
AcDbEntity
  8
0
  6
CONTINUOUS
 62
     7
100
AcDbLine
 10
7.1514709271
 20
6.2393947002
 30
0.0
 11
7.1885893933
 21
6.2179666657
 31
0.0
  0
ARC
  5
28B
330
1F
100
AcDbEntity
  8
0
  6
CONTINUOUS
 62
     7
100
AcDbCircle
 10
7.4905138264
 20
6.4731897998
 30
0.0
 40
0.1069612935026976
100
AcDbArc
 50
178.0728638841
 51
208.1837320068
  0
ARC
  5
28C
330
1F
100
AcDbEntity
  8
0
  6
CONTINUOUS
 62
     7
100
AcDbCircle
 10
7.6415166848
 20
6.4649345905
 30
0.0
 40
0.2581758485742668
100
AcDbArc
 50
124.7500834702
 51
177.368779789
  0
POLYLINE
  5
28D
330
1F
100
AcDbEntity
  8
0
  6
CONTINUOUS
 62
     7
100
AcDb2dPolyline
 66
     1
 10
0.0
 20
0.0
 30
0.0
  0
VERTEX
  5
5E7
330
28D
100
AcDbEntity
  8
0
  6
CONTINUOUS
 62
     7
100
AcDbVertex
100
AcDb2dVertex
 10
8.157097881
 20
7.7405564254
 30
0.0
  0
VERTEX
  5
5E8
330
28D
100
AcDbEntity
  8
0
  6
CONTINUOUS
 62
     7
100
AcDbVertex
100
AcDb2dVertex
 10
8.1500608237
 20
7.7402520553
 30
0.0
  0
VERTEX
  5
5E9
330
28D
100
AcDbEntity
  8
0
  6
CONTINUOUS
 62
     7
100
AcDbVertex
100
AcDb2dVertex
 10
8.1363217319
 20
7.7379113963
 30
0.0
  0
VERTEX
  5
5EA
330
28D
100
AcDbEntity
  8
0
  6
CONTINUOUS
 62
     7
100
AcDbVertex
100
AcDb2dVertex
 10
8.1220918155
 20
7.7332953439
 30
0.0
  0
VERTEX
  5
5EB
330
28D
100
AcDbEntity
  8
0
  6
CONTINUOUS
 62
     7
100
AcDbVertex
100
AcDb2dVertex
 10
8.1075867856
 20
7.7264738727
 30
0.0
  0
VERTEX
  5
5EC
330
28D
100
AcDbEntity
  8
0
  6
CONTINUOUS
 62
     7
100
AcDbVertex
100
AcDb2dVertex
 10
8.0930265237
 20
7.7175503893
 30
0.0
  0
VERTEX
  5
5ED
330
28D
100
AcDbEntity
  8
0
  6
CONTINUOUS
 62
     7
100
AcDbVertex
100
AcDb2dVertex
 10
8.0786317484
 20
7.7066601645
 30
0.0
  0
VERTEX
  5
5EE
330
28D
100
AcDbEntity
  8
0
  6
CONTINUOUS
 62
     7
100
AcDbVertex
100
AcDb2dVertex
 10
8.0646206699
 20
7.6939682831
 30
0.0
  0
VERTEX
  5
5EF
330
28D
100
AcDbEntity
  8
0
  6
CONTINUOUS
 62
     7
100
AcDbVertex
100
AcDb2dVertex
 10
8.0512056818
 20
7.6796671411
 30
0.0
  0
VERTEX
  5
5F0
330
28D
100
AcDbEntity
  8
0
  6
CONTINUOUS
 62
     7
100
AcDbVertex
100
AcDb2dVertex
 10
8.0385901418
 20
7.6639735293
 30
0.0
  0
VERTEX
  5
5F1
330
28D
100
AcDbEntity
  8
0
  6
CONTINUOUS
 62
     7
100
AcDbVertex
100
AcDb2dVertex
 10
8.0269652884
 20
7.6471253466
 30
0.0
  0
VERTEX
  5
5F2
330
28D
100
AcDbEntity
  8
0
  6
CONTINUOUS
 62
     7
100
AcDbVertex
100
AcDb2dVertex
 10
8.0165073428
 20
7.6293779945
 30
0.0
  0
VERTEX
  5
5F3
330
28D
100
AcDbEntity
  8
0
  6
CONTINUOUS
 62
     7
100
AcDbVertex
100
AcDb2dVertex
 10
8.0073748366
 20
7.6110005048
 30
0.0
  0
VERTEX
  5
5F4
330
28D
100
AcDbEntity
  8
0
  6
CONTINUOUS
 62
     7
100
AcDbVertex
100
AcDb2dVertex
 10
7.9997062093
 20
7.5922714613
 30
0.0
  0
VERTEX
  5
5F5
330
28D
100
AcDbEntity
  8
0
  6
CONTINUOUS
 62
     7
100
AcDbVertex
100
AcDb2dVertex
 10
7.9936177095
 20
7.5734747774
 30
0.0
  0
VERTEX
  5
5F6
330
28D
100
AcDbEntity
  8
0
  6
CONTINUOUS
 62
     7
100
AcDbVertex
100
AcDb2dVertex
 10
7.9892016327
 20
7.5548953916
 30
0.0
  0
VERTEX
  5
5F7
330
28D
100
AcDbEntity
  8
0
  6
CONTINUOUS
 62
     7
100
AcDbVertex
100
AcDb2dVertex
 10
7.9865249221
 20
7.5368149484
 30
0.0
  0
VERTEX
  5
5F8
330
28D
100
AcDbEntity
  8
0
  6
CONTINUOUS
 62
     7
100
AcDbVertex
100
AcDb2dVertex
 10
7.9858706475
 20
7.5283904174
 30
0.0
  0
SEQEND
  5
5F9
330
28D
100
AcDbEntity
  8
0
  6
CONTINUOUS
 62
     7
  0
LINE
  5
28E
330
1F
100
AcDbEntity
  8
0
  6
CONTINUOUS
 62
     7
100
AcDbLine
 10
8.0411247677
 20
7.6240933607
 30
0.0
 11
7.9654674033
 21
7.493050962
 31
0.0
  0
LINE
  5
28F
330
1F
100
AcDbEntity
  8
0
  6
CONTINUOUS
 62
     7
100
AcDbLine
 10
7.5147828431
 20
6.7124424079
 30
0.0
 11
7.4391096439
 21
6.5813725825
 31
0.0
  0
LINE
  5
290
330
1F
100
AcDbEntity
  8
0
  6
CONTINUOUS
 62
     7
100
AcDbLine
 10
7.8384812742
 20
7.8851375773
 30
0.0
 11
7.8384812742
 21
7.9297816669
 31
0.0
  0
LINE
  5
291
330
1F
100
AcDbEntity
  8
0
  6
CONTINUOUS
 62
     7
100
AcDbLine
 10
7.8663201238
 20
7.9027414099
 30
0.0
 11
7.8663201238
 21
7.9458526927
 31
0.0
  0
LINE
  5
292
330
1F
100
AcDbEntity
  8
0
  6
CONTINUOUS
 62
     7
100
AcDbLine
 10
7.1514709271
 20
6.2393947002
 30
0.0
 11
7.1717184858
 21
6.251083367
 31
0.0
  0
LINE
  5
293
330
1F
100
AcDbEntity
  8
0
  6
CONTINUOUS
 62
     7
100
AcDbLine
 10
7.5716922984
 20
8.115937716
 30
0.0
 11
7.5610856966
 21
8.1098106844
 31
0.0
  0
ARC
  5
294
330
1F
100
AcDbEntity
  8
0
  6
CONTINUOUS
 62
     7
100
AcDbCircle
 10
8.4492673447
 20
6.6941434182
 30
0.0
 40
1.672711328468144
100
AcDbArc
 50
123.2043102191
 51
177.3946236898
  0
LINE
  5
295
330
1F
100
AcDbEntity
  8
0
  6
CONTINUOUS
 62
     7
100
AcDbLine
 10
7.5438534487
 20
8.0998666902
 30
0.0
 11
7.533246847
 21
8.0937396586
 31
0.0
  0
POLYLINE
  5
296
330
1F
100
AcDbEntity
  8
0
  6
CONTINUOUS
 62
     7
100
AcDb2dPolyline
 66
     1
 10
0.0
 20
0.0
 30
0.0
  0
VERTEX
  5
5FA
330
296
100
AcDbEntity
  8
0
  6
CONTINUOUS
 62
     7
100
AcDbVertex
100
AcDb2dVertex
 10
7.4391096439
 20
6.5813725825
 30
0.0
  0
VERTEX
  5
5FB
330
296
100
AcDbEntity
  8
0
  6
CONTINUOUS
 62
     7
100
AcDbVertex
100
AcDb2dVertex
 10
7.4280583173
 20
6.5607124787
 30
0.0
  0
VERTEX
  5
5FC
330
296
100
AcDbEntity
  8
0
  6
CONTINUOUS
 62
     7
100
AcDbVertex
100
AcDb2dVertex
 10
7.4184610811
 20
6.5395527419
 30
0.0
  0
VERTEX
  5
5FD
330
296
100
AcDbEntity
  8
0
  6
CONTINUOUS
 62
     7
100
AcDbVertex
100
AcDb2dVertex
 10
7.4104386261
 20
6.5181594682
 30
0.0
  0
VERTEX
  5
5FE
330
296
100
AcDbEntity
  8
0
  6
CONTINUOUS
 62
     7
100
AcDbVertex
100
AcDb2dVertex
 10
7.4040918393
 20
6.4968016904
 30
0.0
  0
VERTEX
  5
5FF
330
296
100
AcDbEntity
  8
0
  6
CONTINUOUS
 62
     7
100
AcDbVertex
100
AcDb2dVertex
 10
7.3995005354
 20
6.4757479949
 30
0.0
  0
VERTEX
  5
600
330
296
100
AcDbEntity
  8
0
  6
CONTINUOUS
 62
     7
100
AcDbVertex
100
AcDb2dVertex
 10
7.3967224525
 20
6.4552631441
 30
0.0
  0
VERTEX
  5
601
330
296
100
AcDbEntity
  8
0
  6
CONTINUOUS
 62
     7
100
AcDbVertex
100
AcDb2dVertex
 10
7.3957925268
 20
6.435604747
 30
0.0
  0
VERTEX
  5
602
330
296
100
AcDbEntity
  8
0
  6
CONTINUOUS
 62
     7
100
AcDbVertex
100
AcDb2dVertex
 10
7.3967224525
 20
6.4170200193
 30
0.0
  0
VERTEX
  5
603
330
296
100
AcDbEntity
  8
0
  6
CONTINUOUS
 62
     7
100
AcDbVertex
100
AcDb2dVertex
 10
7.3995005354
 20
6.3997426748
 30
0.0
  0
VERTEX
  5
604
330
296
100
AcDbEntity
  8
0
  6
CONTINUOUS
 62
     7
100
AcDbVertex
100
AcDb2dVertex
 10
7.4040918393
 20
6.383989986
 30
0.0
  0
VERTEX
  5
605
330
296
100
AcDbEntity
  8
0
  6
CONTINUOUS
 62
     7
100
AcDbVertex
100
AcDb2dVertex
 10
7.4104386261
 20
6.3699600521
 30
0.0
  0
VERTEX
  5
606
330
296
100
AcDbEntity
  8
0
  6
CONTINUOUS
 62
     7
100
AcDbVertex
100
AcDb2dVertex
 10
7.4184610811
 20
6.3578293078
 30
0.0
  0
VERTEX
  5
607
330
296
100
AcDbEntity
  8
0
  6
CONTINUOUS
 62
     7
100
AcDbVertex
100
AcDb2dVertex
 10
7.4280583173
 20
6.3477503041
 30
0.0
  0
VERTEX
  5
608
330
296
100
AcDbEntity
  8
0
  6
CONTINUOUS
 62
     7
100
AcDbVertex
100
AcDb2dVertex
 10
7.4391096439
 20
6.3398497905
 30
0.0
  0
SEQEND
  5
609
330
296
100
AcDbEntity
  8
0
  6
CONTINUOUS
 62
     7
  0
LINE
  5
297
330
1F
100
AcDbEntity
  8
0
  6
CONTINUOUS
 62
     7
100
AcDbLine
 10
8.275477826
 20
7.7302877609
 30
0.0
 11
8.250278311
 21
7.7448351312
 31
0.0
  0
POLYLINE
  5
298
330
1F
100
AcDbEntity
  8
0
  6
CONTINUOUS
 62
     7
100
AcDb2dPolyline
 66
     1
 10
0.0
 20
0.0
 30
0.0
  0
VERTEX
  5
60A
330
298
100
AcDbEntity
  8
0
  6
CONTINUOUS
 62
     7
100
AcDbVertex
100
AcDb2dVertex
 10
8.250278311
 20
7.7448351312
 30
0.0
  0
VERTEX
  5
60B
330
298
100
AcDbEntity
  8
0
  6
CONTINUOUS
 62
     7
100
AcDbVertex
100
AcDb2dVertex
 10
8.2379118708
 20
7.7504578013
 30
0.0
  0
VERTEX
  5
60C
330
298
100
AcDbEntity
  8
0
  6
CONTINUOUS
 62
     7
100
AcDbVertex
100
AcDb2dVertex
 10
8.2243858321
 20
7.7537319196
 30
0.0
  0
VERTEX
  5
60D
330
298
100
AcDbEntity
  8
0
  6
CONTINUOUS
 62
     7
100
AcDbVertex
100
AcDb2dVertex
 10
8.2098702928
 20
7.754616312
 30
0.0
  0
VERTEX
  5
60E
330
298
100
AcDbEntity
  8
0
  6
CONTINUOUS
 62
     7
100
AcDbVertex
100
AcDb2dVertex
 10
8.1945477942
 20
7.7530998569
 30
0.0
  0
VERTEX
  5
60F
330
298
100
AcDbEntity
  8
0
  6
CONTINUOUS
 62
     7
100
AcDbVertex
100
AcDb2dVertex
 10
8.1786110256
 20
7.7492016246
 30
0.0
  0
VERTEX
  5
610
330
298
100
AcDbEntity
  8
0
  6
CONTINUOUS
 62
     7
100
AcDbVertex
100
AcDb2dVertex
 10
8.1622604011
 20
7.7429706375
 30
0.0
  0
VERTEX
  5
611
330
298
100
AcDbEntity
  8
0
  6
CONTINUOUS
 62
     7
100
AcDbVertex
100
AcDb2dVertex
 10
8.1457015393
 20
7.734485254
 30
0.0
  0
VERTEX
  5
612
330
298
100
AcDbEntity
  8
0
  6
CONTINUOUS
 62
     7
100
AcDbVertex
100
AcDb2dVertex
 10
8.1291426776
 20
7.7238521826
 30
0.0
  0
VERTEX
  5
613
330
298
100
AcDbEntity
  8
0
  6
CONTINUOUS
 62
     7
100
AcDbVertex
100
AcDb2dVertex
 10
8.1127920531
 20
7.7112051405
 30
0.0
  0
VERTEX
  5
614
330
298
100
AcDbEntity
  8
0
  6
CONTINUOUS
 62
     7
100
AcDbVertex
100
AcDb2dVertex
 10
8.0968552845
 20
7.6967031715
 30
0.0
  0
VERTEX
  5
615
330
298
100
AcDbEntity
  8
0
  6
CONTINUOUS
 62
     7
100
AcDbVertex
100
AcDb2dVertex
 10
8.0815327859
 20
7.6805286463
 30
0.0
  0
VERTEX
  5
616
330
298
100
AcDbEntity
  8
0
  6
CONTINUOUS
 62
     7
100
AcDbVertex
100
AcDb2dVertex
 10
8.0670172466
 20
7.6628849689
 30
0.0
  0
VERTEX
  5
617
330
298
100
AcDbEntity
  8
0
  6
CONTINUOUS
 62
     7
100
AcDbVertex
100
AcDb2dVertex
 10
8.0534912079
 20
7.6439940188
 30
0.0
  0
VERTEX
  5
618
330
298
100
AcDbEntity
  8
0
  6
CONTINUOUS
 62
     7
100
AcDbVertex
100
AcDb2dVertex
 10
8.0411247677
 20
7.6240933607
 30
0.0
  0
SEQEND
  5
619
330
298
100
AcDbEntity
  8
0
  6
CONTINUOUS
 62
     7
  0
LINE
  5
299
330
1F
100
AcDbEntity
  8
0
  6
CONTINUOUS
 62
     7
100
AcDbLine
 10
7.4391096439
 20
6.3398497905
 30
0.0
 11
7.4643220936
 21
6.3252902216
 31
0.0
  0
LINE
  5
29A
330
1F
100
AcDbEntity
  8
0
  6
CONTINUOUS
 62
     7
100
AcDbLine
 10
7.5610856966
 20
8.1098106844
 30
0.0
 11
7.5610856966
 21
8.0899187252
 31
0.0
  0
ARC
  5
29B
330
1F
100
AcDbEntity
  8
0
  6
CONTINUOUS
 62
     8
100
AcDbCircle
 10
8.1623548517
 20
7.0543514047
 30
0.0
 40
0.2247693639941624
100
AcDbArc
 50
242.5807861775
 51
276.9452537989
  0
POLYLINE
  5
29C
330
1F
100
AcDbEntity
  8
0
  6
CONTINUOUS
 62
     8
100
AcDb2dPolyline
 66
     1
 10
0.0
 20
0.0
 30
0.0
  0
VERTEX
  5
61A
330
29C
100
AcDbEntity
  8
0
  6
CONTINUOUS
 62
     8
100
AcDbVertex
100
AcDb2dVertex
 10
8.2952241708
 20
6.9532974357
 30
0.0
  0
VERTEX
  5
61B
330
29C
100
AcDbEntity
  8
0
  6
CONTINUOUS
 62
     8
100
AcDbVertex
100
AcDb2dVertex
 10
8.2911028928
 20
6.9577134935
 30
0.0
  0
VERTEX
  5
61C
330
29C
100
AcDbEntity
  8
0
  6
CONTINUOUS
 62
     8
100
AcDbVertex
100
AcDb2dVertex
 10
8.2803737496
 20
6.9669831741
 30
0.0
  0
VERTEX
  5
61D
330
29C
100
AcDbEntity
  8
0
  6
CONTINUOUS
 62
     8
100
AcDbVertex
100
AcDb2dVertex
 10
8.2676404977
 20
6.9753650978
 30
0.0
  0
VERTEX
  5
61E
330
29C
100
AcDbEntity
  8
0
  6
CONTINUOUS
 62
     8
100
AcDbVertex
100
AcDb2dVertex
 10
8.2531210068
 20
6.9827158476
 30
0.0
  0
VERTEX
  5
61F
330
29C
100
AcDbEntity
  8
0
  6
CONTINUOUS
 62
     8
100
AcDbVertex
100
AcDb2dVertex
 10
8.2370637092
 20
6.9889096502
 30
0.0
  0
VERTEX
  5
620
330
29C
100
AcDbEntity
  8
0
  6
CONTINUOUS
 62
     8
100
AcDbVertex
100
AcDb2dVertex
 10
8.2197433498
 20
6.9938405278
 30
0.0
  0
VERTEX
  5
621
330
29C
100
AcDbEntity
  8
0
  6
CONTINUOUS
 62
     8
100
AcDbVertex
100
AcDb2dVertex
 10
8.2014562847
 20
6.9974241117
 30
0.0
  0
VERTEX
  5
622
330
29C
100
AcDbEntity
  8
0
  6
CONTINUOUS
 62
     8
100
AcDbVertex
100
AcDb2dVertex
 10
8.1825154108
 20
6.999599086
 30
0.0
  0
VERTEX
  5
623
330
29C
100
AcDbEntity
  8
0
  6
CONTINUOUS
 62
     8
100
AcDbVertex
100
AcDb2dVertex
 10
8.1632448115
 20
7.000328236
 30
0.0
  0
VERTEX
  5
624
330
29C
100
AcDbEntity
  8
0
  6
CONTINUOUS
 62
     8
100
AcDbVertex
100
AcDb2dVertex
 10
8.1439742123
 20
6.999599086
 30
0.0
  0
VERTEX
  5
625
330
29C
100
AcDbEntity
  8
0
  6
CONTINUOUS
 62
     8
100
AcDbVertex
100
AcDb2dVertex
 10
8.1250333383
 20
6.9974241117
 30
0.0
  0
VERTEX
  5
626
330
29C
100
AcDbEntity
  8
0
  6
CONTINUOUS
 62
     8
100
AcDbVertex
100
AcDb2dVertex
 10
8.1067462733
 20
6.9938405278
 30
0.0
  0
VERTEX
  5
627
330
29C
100
AcDbEntity
  8
0
  6
CONTINUOUS
 62
     8
100
AcDbVertex
100
AcDb2dVertex
 10
8.0894259139
 20
6.9889096502
 30
0.0
  0
VERTEX
  5
628
330
29C
100
AcDbEntity
  8
0
  6
CONTINUOUS
 62
     8
100
AcDbVertex
100
AcDb2dVertex
 10
8.0733686163
 20
6.9827158476
 30
0.0
  0
VERTEX
  5
629
330
29C
100
AcDbEntity
  8
0
  6
CONTINUOUS
 62
     8
100
AcDbVertex
100
AcDb2dVertex
 10
8.0588491253
 20
6.9753650978
 30
0.0
  0
VERTEX
  5
62A
330
29C
100
AcDbEntity
  8
0
  6
CONTINUOUS
 62
     8
100
AcDbVertex
100
AcDb2dVertex
 10
8.0461158735
 20
6.9669831741
 30
0.0
  0
VERTEX
  5
62B
330
29C
100
AcDbEntity
  8
0
  6
CONTINUOUS
 62
     8
100
AcDbVertex
100
AcDb2dVertex
 10
8.0353867303
 20
6.9577134935
 30
0.0
  0
VERTEX
  5
62C
330
29C
100
AcDbEntity
  8
0
  6
CONTINUOUS
 62
     8
100
AcDbVertex
100
AcDb2dVertex
 10
8.0268452743
 20
6.9477146628
 30
0.0
  0
VERTEX
  5
62D
330
29C
100
AcDbEntity
  8
0
  6
CONTINUOUS
 62
     8
100
AcDbVertex
100
AcDb2dVertex
 10
8.0206376521
 20
6.9371577649
 30
0.0
  0
VERTEX
  5
62E
330
29C
100
AcDbEntity
  8
0
  6
CONTINUOUS
 62
     8
100
AcDbVertex
100
AcDb2dVertex
 10
8.0168700781
 20
6.9262234311
 30
0.0
  0
VERTEX
  5
62F
330
29C
100
AcDbEntity
  8
0
  6
CONTINUOUS
 62
     8
100
AcDbVertex
100
AcDb2dVertex
 10
8.0156070163
 20
6.915098751
 30
0.0
  0
VERTEX
  5
630
330
29C
100
AcDbEntity
  8
0
  6
CONTINUOUS
 62
     8
100
AcDbVertex
100
AcDb2dVertex
 10
8.0168700781
 20
6.9039740708
 30
0.0
  0
VERTEX
  5
631
330
29C
100
AcDbEntity
  8
0
  6
CONTINUOUS
 62
     8
100
AcDbVertex
100
AcDb2dVertex
 10
8.0206376521
 20
6.893039737
 30
0.0
  0
VERTEX
  5
632
330
29C
100
AcDbEntity
  8
0
  6
CONTINUOUS
 62
     8
100
AcDbVertex
100
AcDb2dVertex
 10
8.0268452743
 20
6.8824828391
 30
0.0
  0
VERTEX
  5
633
330
29C
100
AcDbEntity
  8
0
  6
CONTINUOUS
 62
     8
100
AcDbVertex
100
AcDb2dVertex
 10
8.0353867303
 20
6.8724840084
 30
0.0
  0
VERTEX
  5
634
330
29C
100
AcDbEntity
  8
0
  6
CONTINUOUS
 62
     8
100
AcDbVertex
100
AcDb2dVertex
 10
8.0461158735
 20
6.8632143279
 30
0.0
  0
VERTEX
  5
635
330
29C
100
AcDbEntity
  8
0
  6
CONTINUOUS
 62
     8
100
AcDbVertex
100
AcDb2dVertex
 10
8.0588491253
 20
6.8548324041
 30
0.0
  0
VERTEX
  5
636
330
29C
100
AcDbEntity
  8
0
  6
CONTINUOUS
 62
     8
100
AcDbVertex
100
AcDb2dVertex
 10
8.0588491253
 20
6.8548324041
 30
0.0
  0
SEQEND
  5
637
330
29C
100
AcDbEntity
  8
0
  6
CONTINUOUS
 62
     8
  0
ARC
  5
29D
330
1F
100
AcDbEntity
  8
0
  6
CONTINUOUS
 62
     8
100
AcDbCircle
 10
8.076753368
 20
6.905367577
 30
0.0
 40
0.0811450607980268
100
AcDbArc
 50
185.092514972
 51
246.9096348206
  0
ARC
  5
29E
330
1F
100
AcDbEntity
  8
0
  6
CONTINUOUS
 62
     8
100
AcDbCircle
 10
8.1559519291
 20
7.0369510016
 30
0.0
 40
0.2342131922662491
100
AcDbArc
 50
241.7043020549
 51
267.5182857289
  0
ARC
  5
29F
330
1F
100
AcDbEntity
  8
0
  6
CONTINUOUS
 62
     8
100
AcDbCircle
 10
7.2622884509
 20
7.4412193078
 30
0.0
 40
0.1078043096753661
100
AcDbArc
 50
174.5529734819
 51
219.2181926542
  0
ARC
  5
2A0
330
1F
100
AcDbEntity
  8
0
  6
CONTINUOUS
 62
     8
100
AcDbCircle
 10
8.0961495554
 20
7.9288287669
 30
0.0
 40
0.2337640040067725
100
AcDbArc
 50
32.7505357759
 51
58.3116260706
  0
ARC
  5
2A1
330
1F
100
AcDbEntity
  8
0
  6
CONTINUOUS
 62
     8
100
AcDbCircle
 10
8.168137809
 20
8.0535731556
 30
0.0
 40
0.0899029925648702
100
AcDbArc
 50
55.5880120857
 51
105.0090718956
  0
LINE
  5
2A2
330
1F
100
AcDbEntity
  8
0
  6
CONTINUOUS
 62
     8
100
AcDbLine
 10
8.0824070368
 20
7.600261614
 30
0.0
 11
8.0411247677
 21
7.6240933607
 31
0.0
  0
LINE
  5
2A3
330
1F
100
AcDbEntity
  8
0
  6
CONTINUOUS
 62
     8
100
AcDbLine
 10
7.4803978624
 20
6.5575374013
 30
0.0
 11
7.4391096439
 21
6.5813725825
 31
0.0
  0
LINE
  5
2A4
330
1F
100
AcDbEntity
  8
0
  6
CONTINUOUS
 62
     8
100
AcDbLine
 10
7.4643219159
 20
6.3252950557
 30
0.0
 11
7.4391096439
 21
6.3398497905
 31
0.0
  0
ENDSEC
  0
SECTION
  2
OBJECTS
  0
DICTIONARY
  5
C
330
0
100
AcDbDictionary
  3
ACAD_GROUP
350
D
  3
ACAD_LAYOUT
350
1A
  3
ACAD_MLEADERSTYLE
350
2A7
  3
ACAD_MLINESTYLE
350
17
  3
ACAD_PLOTSETTINGS
350
19
  3
ACAD_SCALELIST
350
6F
  3
ACAD_VISUALSTYLE
350
2A
  3
ACDBVARIABLEDICTIONARY
350
2A5
1001
ACAD
1000
TREAT_AS_HARD
1070
     0
  0
DICTIONARY
  5
D
102
{ACAD_REACTORS
330
C
102
}
330
C
100
AcDbDictionary
1001
ACAD
1000
TREAT_AS_HARD
1070
     0
  0
DICTIONARY
  5
1A
102
{ACAD_REACTORS
330
C
102
}
330
C
100
AcDbDictionary
1001
ACAD
1000
TREAT_AS_HARD
1070
     0
  0
DICTIONARY
  5
2A7
102
{ACAD_REACTORS
330
C
102
}
330
C
100
AcDbDictionary
1001
ACAD
1000
TREAT_AS_HARD
1070
     0
  0
DICTIONARY
  5
17
102
{ACAD_REACTORS
330
C
102
}
330
C
100
AcDbDictionary
  3
STANDARD
350
18
1001
ACAD
1000
TREAT_AS_HARD
1070
     0
  0
DICTIONARY
  5
19
102
{ACAD_REACTORS
330
C
102
}
330
C
100
AcDbDictionary
1001
ACAD
1000
TREAT_AS_HARD
1070
     0
  0
DICTIONARY
  5
6F
102
{ACAD_REACTORS
330
C
102
}
330
C
100
AcDbDictionary
  3
A0
350
70
  3
A1
350
71
  3
A2
350
72
  3
A3
350
73
  3
A4
350
74
  3
A5
350
75
  3
A6
350
76
  3
A7
350
77
  3
A8
350
78
  3
A9
350
79
  3
B0
350
7A
  3
B1
350
7B
  3
B2
350
7C
  3
B3
350
7D
  3
B4
350
7E
  3
B5
350
7F
  3
B6
350
80
  3
B7
350
81
  3
B8
350
82
  3
B9
350
83
  3
C0
350
84
  3
C1
350
85
  3
C2
350
86
  3
C3
350
87
  3
C4
350
88
  3
C5
350
89
  3
C6
350
8A
  3
C7
350
8B
  3
C8
350
8C
  3
C9
350
8D
  3
D0
350
8E
  3
D1
350
8F
  3
D2
350
90
1001
ACAD
1000
TREAT_AS_HARD
1070
     0
  0
DICTIONARY
  5
2A
102
{ACAD_REACTORS
330
C
102
}
330
C
100
AcDbDictionary
  3
2DWIREFRAME
350
2F
  3
3D_HIDDEN
350
31
  3
3DWIREFRAME
350
30
  3
BASIC
350
32
  3
BRIGHTEN
350
36
  3
COLORCHANGE
350
3A
  3
CONCEPTUAL
350
34
  3
DIM
350
35
  3
FACEPATTERN
350
39
  3
FLAT
350
2B
  3
FLATWITHEDGES
350
2C
  3
GOURAUD
350
2D
  3
GOURAUDWITHEDGES
350
2E
  3
LINEPATTERN
350
38
  3
REALISTIC
350
33
  3
THICKEN
350
37
1001
ACAD
1000
TREAT_AS_HARD
1070
     0
  0
DICTIONARY
  5
2A5
102
{ACAD_REACTORS
330
C
102
}
330
C
100
AcDbDictionary
  3
CANNOSCALE
350
2A8
  3
DIMASSOC
350
2A9
  3
HIDETEXT
350
2AA
1001
ACAD
1000
TREAT_AS_HARD
1070
     0
  0
MLINESTYLE
  5
18
102
{ACAD_REACTORS
330
17
102
}
330
17
100
AcDbMlineStyle
  2
Standard
 70
     0
  3

 62
   256
 51
90.0
 52
90.0
 71
     2
 49
0.5
 62
   256
  6
BYLAYER
 49
-0.5
 62
   256
  6
BYLAYER
  0
ACAD_PROXY_OBJECT
  5
70
102
{ACAD_REACTORS
330
6F
102
}
330
6F
100
AcDbZombieObject
 90
      499
 91
      502
 93
       41
310
903313A31580
  0
ACAD_PROXY_OBJECT
  5
71
102
{ACAD_REACTORS
330
6F
102
}
330
6F
100
AcDbZombieObject
 90
      499
 91
      502
 93
      105
310
903313A324000000000000004000
  0
ACAD_PROXY_OBJECT
  5
72
102
{ACAD_REACTORS
330
6F
102
}
330
6F
100
AcDbZombieObject
 90
      499
 91
      502
 93
      105
310
903313A344000000000000104000
  0
ACAD_PROXY_OBJECT
  5
73
102
{ACAD_REACTORS
330
6F
102
}
330
6F
100
AcDbZombieObject
 90
      499
 91
      502
 93
      105
310
903313A354000000000000144000
  0
ACAD_PROXY_OBJECT
  5
74
102
{ACAD_REACTORS
330
6F
102
}
330
6F
100
AcDbZombieObject
 90
      499
 91
      502
 93
      105
310
903313A384000000000000204000
  0
ACAD_PROXY_OBJECT
  5
75
102
{ACAD_REACTORS
330
6F
102
}
330
6F
100
AcDbZombieObject
 90
      499
 91
      502
 93
      113
310
904313A31304000000000000244000
  0
ACAD_PROXY_OBJECT
  5
76
102
{ACAD_REACTORS
330
6F
102
}
330
6F
100
AcDbZombieObject
 90
      499
 91
      502
 93
      113
310
904313A31364000000000000304000
  0
ACAD_PROXY_OBJECT
  5
77
102
{ACAD_REACTORS
330
6F
102
}
330
6F
100
AcDbZombieObject
 90
      499
 91
      502
 93
      113
310
904313A32304000000000000344000
  0
ACAD_PROXY_OBJECT
  5
78
102
{ACAD_REACTORS
330
6F
102
}
330
6F
100
AcDbZombieObject
 90
      499
 91
      502
 93
      113
310
904313A333040000000000003E4000
  0
ACAD_PROXY_OBJECT
  5
79
102
{ACAD_REACTORS
330
6F
102
}
330
6F
100
AcDbZombieObject
 90
      499
 91
      502
 93
      113
310
904313A34304000000000000444000
  0
ACAD_PROXY_OBJECT
  5
7A
102
{ACAD_REACTORS
330
6F
102
}
330
6F
100
AcDbZombieObject
 90
      499
 91
      502
 93
      113
310
904313A35304000000000000494000
  0
ACAD_PROXY_OBJECT
  5
7B
102
{ACAD_REACTORS
330
6F
102
}
330
6F
100
AcDbZombieObject
 90
      499
 91
      502
 93
      121
310
905313A3130304000000000000594000
  0
ACAD_PROXY_OBJECT
  5
7C
102
{ACAD_REACTORS
330
6F
102
}
330
6F
100
AcDbZombieObject
 90
      499
 91
      502
 93
      105
310
903323A310000000000000010100
  0
ACAD_PROXY_OBJECT
  5
7D
102
{ACAD_REACTORS
330
6F
102
}
330
6F
100
AcDbZombieObject
 90
      499
 91
      502
 93
      105
310
903343A310000000000000410100
  0
ACAD_PROXY_OBJECT
  5
7E
102
{ACAD_REACTORS
330
6F
102
}
330
6F
100
AcDbZombieObject
 90
      499
 91
      502
 93
      105
310
903383A310000000000000810100
  0
ACAD_PROXY_OBJECT
  5
7F
102
{ACAD_REACTORS
330
6F
102
}
330
6F
100
AcDbZombieObject
 90
      499
 91
      502
 93
      113
310
90431303A310000000000000910100
  0
ACAD_PROXY_OBJECT
  5
80
102
{ACAD_REACTORS
330
6F
102
}
330
6F
100
AcDbZombieObject
 90
      499
 91
      502
 93
      121
310
9053130303A310000000000001650100
  0
ACAD_PROXY_OBJECT
  5
81
102
{ACAD_REACTORS
330
6F
102
}
330
6F
100
AcDbZombieObject
 90
      499
 91
      502
 93
      257
310
90E312F31323822203D2031272D3022000000000000200FC000000000000284000
  0
ACAD_PROXY_OBJECT
  5
82
102
{ACAD_REACTORS
330
6F
102
}
330
6F
100
AcDbZombieObject
 90
      499
 91
      502
 93
      249
310
90D312F363422203D2031272D3022000000000000240FC000000000000284000
  0
ACAD_PROXY_OBJECT
  5
83
102
{ACAD_REACTORS
330
6F
102
}
330
6F
100
AcDbZombieObject
 90
      499
 91
      502
 93
      249
310
90D312F333222203D2031272D3022000000000000280FC000000000000284000
  0
ACAD_PROXY_OBJECT
  5
84
102
{ACAD_REACTORS
330
6F
102
}
330
6F
100
AcDbZombieObject
 90
      499
 91
      502
 93
      249
310
90D312F313622203D2031272D30220000000000002C0FC000000000000284000
  0
ACAD_PROXY_OBJECT
  5
85
102
{ACAD_REACTORS
330
6F
102
}
330
6F
100
AcDbZombieObject
 90
      499
 91
      502
 93
      249
310
90D332F333222203D2031272D30220000000000002E0FC000000000000284000
  0
ACAD_PROXY_OBJECT
  5
86
102
{ACAD_REACTORS
330
6F
102
}
330
6F
100
AcDbZombieObject
 90
      499
 91
      502
 93
      241
310
90C312F3822203D2031272D3022000000000000300FC000000000000284000
  0
ACAD_PROXY_OBJECT
  5
87
102
{ACAD_REACTORS
330
6F
102
}
330
6F
100
AcDbZombieObject
 90
      499
 91
      502
 93
      249
310
90D332F313622203D2031272D3022000000000000320FC000000000000284000
  0
ACAD_PROXY_OBJECT
  5
88
102
{ACAD_REACTORS
330
6F
102
}
330
6F
100
AcDbZombieObject
 90
      499
 91
      502
 93
      241
310
90C312F3422203D2031272D3022000000000000340FC000000000000284000
  0
ACAD_PROXY_OBJECT
  5
89
102
{ACAD_REACTORS
330
6F
102
}
330
6F
100
AcDbZombieObject
 90
      499
 91
      502
 93
      241
310
90C332F3822203D2031272D3022000000000000360FC000000000000284000
  0
ACAD_PROXY_OBJECT
  5
8A
102
{ACAD_REACTORS
330
6F
102
}
330
6F
100
AcDbZombieObject
 90
      499
 91
      502
 93
      241
310
90C312F3222203D2031272D3022000000000000380FC000000000000284000
  0
ACAD_PROXY_OBJECT
  5
8B
102
{ACAD_REACTORS
330
6F
102
}
330
6F
100
AcDbZombieObject
 90
      499
 91
      502
 93
      241
310
90C332F3422203D2031272D30220000000000003A0FC000000000000284000
  0
ACAD_PROXY_OBJECT
  5
8C
102
{ACAD_REACTORS
330
6F
102
}
330
6F
100
AcDbZombieObject
 90
      499
 91
      502
 93
      161
310
90A3122203D2031272D30224000000000000284000
  0
ACAD_PROXY_OBJECT
  5
8D
102
{ACAD_REACTORS
330
6F
102
}
330
6F
100
AcDbZombieObject
 90
      499
 91
      502
 93
      257
310
90E312D312F3222203D2031272D30220000000000003E0FC000000000000284000
  0
ACAD_PROXY_OBJECT
  5
8E
102
{ACAD_REACTORS
330
6F
102
}
330
6F
100
AcDbZombieObject
 90
      499
 91
      502
 93
      225
310
90A3322203D2031272D302200000000000002100000000000000284000
  0
ACAD_PROXY_OBJECT
  5
8F
102
{ACAD_REACTORS
330
6F
102
}
330
6F
100
AcDbZombieObject
 90
      499
 91
      502
 93
      225
310
90A3622203D2031272D302200000000000006100000000000000284000
  0
ACAD_PROXY_OBJECT
  5
90
102
{ACAD_REACTORS
330
6F
102
}
330
6F
100
AcDbZombieObject
 90
      499
 91
      502
 93
      249
310
90D31272D3022203D2031272D30220000000000000A100000000000000284000
  0
ACAD_PROXY_OBJECT
  5
2F
102
{ACAD_REACTORS
330
2A
102
}
330
2A
100
AcDbZombieObject
 90
      499
 91
      501
 93
      436
310
42CC9915DA5C99599C985B595049028333333333333E3BF0000000000000FB0107901411070040501600405405064090741402480A0340
1001
ACAD
1000
AcDbSavedByObjectVersion
1070
     0
  0
ACAD_PROXY_OBJECT
  5
31
102
{ACAD_REACTORS
330
2A
102
}
330
2A
100
AcDbZombieObject
 90
      499
 91
      501
 93
      500
310
424CD108121A5919195B90640502408333333333333E3BF0000000000000FB01079024090700405020000000000001110200405405064090740C02480A0340
1001
ACAD
1000
AcDbSavedByObjectVersion
1070
     0
  0
ACAD_PROXY_OBJECT
  5
30
102
{ACAD_REACTORS
330
2A
102
}
330
2A
100
AcDbZombieObject
 90
      499
 91
      501
 93
      436
310
42CCD915DA5C99599C985B595059028333333333333E3BF0000000000000FB0107901411070040501600405405064090741402480A0340
1001
ACAD
1000
AcDbSavedByObjectVersion
1070
     0
  0
ACAD_PROXY_OBJECT
  5
32
102
{ACAD_REACTORS
330
2A
102
}
330
2A
100
AcDbZombieObject
 90
      499
 91
      501
 93
      388
310
4150985CDA58D07406404333333333333E3BF0000000000000FB0107A41107004050150841D405064090741402480A0350
1001
ACAD
1000
AcDbSavedByObjectVersion
1070
     0
  0
ACAD_PROXY_OBJECT
  5
36
102
{ACAD_REACTORS
330
2A
102
}
330
2A
100
AcDbZombieObject
 90
      499
 91
      501
 93
      428
310
42109C9A59DA1D195B90C409028333333333333E3BF0000000000000FB010790141107004050150841D405064090741402480A029950
1001
ACAD
1000
AcDbSavedByObjectVersion
1070
     0
  0
ACAD_PROXY_OBJECT
  5
3A
102
{ACAD_REACTORS
330
2A
102
}
330
2A
100
AcDbZombieObject
 90
      499
 91
      501
 93
      452
310
42D0DBDB1BDC90DA185B99D95104090240C333333333333E3BF0000000000000FB0108901411070040501508421405064090741402480A0350
1001
ACAD
1000
AcDbSavedByObjectVersion
1070
     0
  0
ACAD_PROXY_OBJECT
  5
34
102
{ACAD_REACTORS
330
2A
102
}
330
2A
100
AcDbZombieObject
 90
      499
 91
      501
 93
      500
310
4290DBDB98D95C1D1D585B10940D028333333333333E3BF0000000000000FB0107902409070040501000000000000111010841D405064090740C02480A0340
1001
ACAD
1000
AcDbSavedByObjectVersion
1070
     0
  0
ACAD_PROXY_OBJECT
  5
35
102
{ACAD_REACTORS
330
2A
102
}
330
2A
100
AcDbZombieObject
 90
      499
 91
      501
 93
      412
310
40D11A5B50B409028333333333333E3BF0000000000000FB010790141107004050150841D405064090741402480A02677FFFFFD0
1001
ACAD
1000
AcDbSavedByObjectVersion
1070
     0
  0
ACAD_PROXY_OBJECT
  5
39
102
{ACAD_REACTORS
330
2A
102
}
330
2A
100
AcDbZombieObject
 90
      499
 91
      501
 93
      444
310
42D19858D95C185D1D195C9B90F409028333333333333E3BF0000000000000FB010790141107004050150841D405064090741402480A0350
1001
ACAD
1000
AcDbSavedByObjectVersion
1070
     0
  0
ACAD_PROXY_OBJECT
  5
2B
102
{ACAD_REACTORS
330
2A
102
}
330
2A
100
AcDbZombieObject
 90
      499
 91
      501
 93
      388
310
41119B185D240901404333333333333E3BF0000000000000F9010740A41107004050150841D405064090741402480A1B50
1001
ACAD
1000
AcDbSavedByObjectVersion
1070
     0
  0
ACAD_PROXY_OBJECT
  5
2C
102
{ACAD_REACTORS
330
2A
102
}
330
2A
100
AcDbZombieObject
 90
      499
 91
      501
 93
      476
310
43519B185D15DA5D1A115919D95CD0140901404333333333333E3BF0000000000000F9010740901411070040501600405405064090741402480A1B50
1001
ACAD
1000
AcDbSavedByObjectVersion
1070
     0
  0
ACAD_PROXY_OBJECT
  5
2D
102
{ACAD_REACTORS
330
2A
102
}
330
2A
100
AcDbZombieObject
 90
      499
 91
      501
 93
      412
310
41D1DBDD5C985D5910240902404333333333333E3BF0000000000000F9010740A411070040501641D405064090741402480A1B50
1001
ACAD
1000
AcDbSavedByObjectVersion
1070
     0
  0
ACAD_PROXY_OBJECT
  5
2E
102
{ACAD_REACTORS
330
2A
102
}
330
2A
100
AcDbZombieObject
 90
      499
 91
      501
 93
      500
310
4411DBDD5C985D5915DA5D1A115919D95CD0340902404333333333333E3BF0000000000000F9010740901411070040501600405405064090741402480A1B50
1001
ACAD
1000
AcDbSavedByObjectVersion
1070
     0
  0
ACAD_PROXY_OBJECT
  5
38
102
{ACAD_REACTORS
330
2A
102
}
330
2A
100
AcDbZombieObject
 90
      499
 91
      501
 93
      444
310
42D31A5B995C185D1D195C9B90E409028333333333333E3BF0000000000000FB010790141107004050750841D405064090741402483A0350
1001
ACAD
1000
AcDbSavedByObjectVersion
1070
     0
  0
ACAD_PROXY_OBJECT
  5
33
102
{ACAD_REACTORS
330
2A
102
}
330
2A
100
AcDbZombieObject
 90
      499
 91
      501
 93
      420
310
425499585B1A5CDD1A58D08409028333333333333E3BF0000000000000FB01079019070040501508421405064090741402480A1B40
1001
ACAD
1000
AcDbSavedByObjectVersion
1070
     0
  0
ACAD_PROXY_OBJECT
  5
37
102
{ACAD_REACTORS
330
2A
102
}
330
2A
100
AcDbZombieObject
 90
      499
 91
      501
 93
      412
310
41D51A1A58DAD95B90D409028333333333333E3BF0000000000000FB010790141107004050150C41D405064090741402480A0350
1001
ACAD
1000
AcDbSavedByObjectVersion
1070
     0
  0
DICTIONARYVAR
  5
2A8
102
{ACAD_REACTORS
330
2A5
102
}
330
2A5
100
DictionaryVariables
280
     0
  1
1:1
  0
DICTIONARYVAR
  5
2A9
102
{ACAD_REACTORS
330
2A5
102
}
330
2A5
100
DictionaryVariables
280
     0
  1
2
  0
DICTIONARYVAR
  5
2AA
102
{ACAD_REACTORS
330
2A5
102
}
330
2A5
100
DictionaryVariables
280
     0
  1
1
  0
ENDSEC
  0
EOF
