  0
SECTION
  2
HEADER
  9
$ACADVER
  1
AC1012
  9
$DWGCODEPAGE
  3
ansi_1252
  9
$INSBASE
 10
0.0
 20
0.0
 30
0.0
  9
$EXTMIN
 10
0.0
 20
0.0
 30
0.0
  9
$EXTMAX
 10
11.0
 20
8.5
 30
0.0
  9
$LIMMIN
 10
0.0
 20
0.0
  9
$LIMMAX
 10
11.0
 20
8.5
  9
$ORTHOMODE
 70
     0
  9
$REGENMODE
 70
     1
  9
$FILLMODE
 70
     1
  9
$QTEXTMODE
 70
     0
  9
$MIRRTEXT
 70
     1
  9
$DRAGMODE
 70
     2
  9
$LTSCALE
 40
1.0
  9
$OSMODE
 70
    37
  9
$ATTMODE
 70
     1
  9
$TEXTSIZE
 40
0.125
  9
$TRACEWID
 40
0.05
  9
$TEXTSTYLE
  7
STANDARD
  9
$CLAYER
  8
0
  9
$CELTYPE
  6
BYLAYER
  9
$CECOLOR
 62
   256
  9
$CELTSCALE
 40
1.0
  9
$DELOBJ
 70
     1
  9
$DISPSILH
 70
     0
  9
$DIMSCALE
 40
1.0
  9
$DIMASZ
 40
0.13
  9
$DIMEXO
 40
0.05
  9
$DIMDLI
 40
0.38
  9
$DIMRND
 40
0.0
  9
$DIMDLE
 40
0.0
  9
$DIMEXE
 40
0.125
  9
$DIMTP
 40
0.0
  9
$DIMTM
 40
0.0
  9
$DIMTXT
 40
0.125
  9
$DIMCEN
 40
0.09
  9
$DIMTSZ
 40
0.0
  9
$DIMTOL
 70
     0
  9
$DIMLIM
 70
     0
  9
$DIMTIH
 70
     1
  9
$DIMTOH
 70
     1
  9
$DIMSE1
 70
     0
  9
$DIMSE2
 70
     0
  9
$DIMTAD
 70
     0
  9
$DIMZIN
 70
     0
  9
$DIMBLK
  1

  9
$DIMASO
 70
     1
  9
$DIMSHO
 70
     1
  9
$DIMPOST
  1

  9
$DIMAPOST
  1

  9
$DIMALT
 70
     0
  9
$DIMALTD
 70
     2
  9
$DIMALTF
 40
25.4
  9
$DIMLFAC
 40
1.0
  9
$DIMTOFL
 70
     0
  9
$DIMTVP
 40
0.0
  9
$DIMTIX
 70
     0
  9
$DIMSOXD
 70
     0
  9
$DIMSAH
 70
     0
  9
$DIMBLK1
  1

  9
$DIMBLK2
  1

  9
$DIMSTYLE
  2
STANDARD
  9
$DIMCLRD
 70
     0
  9
$DIMCLRE
 70
     0
  9
$DIMCLRT
 70
     0
  9
$DIMTFAC
 40
1.0
  9
$DIMGAP
 40
0.06
  9
$DIMJUST
 70
     0
  9
$DIMSD1
 70
     0
  9
$DIMSD2
 70
     0
  9
$DIMTOLJ
 70
     1
  9
$DIMTZIN
 70
     0
  9
$DIMALTZ
 70
     0
  9
$DIMALTTZ
 70
     0
  9
$DIMFIT
 70
     3
  9
$DIMUPT
 70
     0
  9
$DIMUNIT
 70
     2
  9
$DIMDEC
 70
     3
  9
$DIMTDEC
 70
     3
  9
$DIMALTU
 70
     2
  9
$DIMALTTD
 70
     2
  9
$DIMTXSTY
  7
STANDARD
  9
$DIMAUNIT
 70
     0
  9
$LUNITS
 70
     2
  9
$LUPREC
 70
     2
  9
$SKETCHINC
 40
0.1
  9
$FILLETRAD
 40
0.5
  9
$AUNITS
 70
     0
  9
$AUPREC
 70
     2
  9
$MENU
  1
.
  9
$ELEVATION
 40
0.0
  9
$PELEVATION
 40
0.0
  9
$THICKNESS
 40
0.0
  9
$LIMCHECK
 70
     0
  9
$CHAMFERA
 40
0.5
  9
$CHAMFERB
 40
0.5
  9
$CHAMFERC
 40
1.0
  9
$CHAMFERD
 40
0.0
  9
$SKPOLY
 70
     0
  9
$TDCREATE
 40
2455784.022320474
  9
$TDUPDATE
 40
2455784.022320486
  9
$TDINDWG
 40
0.0000000116
  9
$TDUSRTIMER
 40
0.0000000116
  9
$USRTIMER
 70
     1
  9
$ANGBASE
 50
0.0
  9
$ANGDIR
 70
     0
  9
$PDMODE
 70
     0
  9
$PDSIZE
 40
-1.0
  9
$PLINEWID
 40
0.0
  9
$COORDS
 70
     1
  9
$SPLFRAME
 70
     0
  9
$SPLINETYPE
 70
     6
  9
$SPLINESEGS
 70
     8
  9
$ATTDIA
 70
     0
  9
$ATTREQ
 70
     1
  9
$HANDLING
 70
     1
  9
$HANDSEED
  5
62C
  9
$SURFTAB1
 70
     6
  9
$SURFTAB2
 70
     6
  9
$SURFTYPE
 70
     6
  9
$SURFU
 70
     6
  9
$SURFV
 70
     6
  9
$UCSNAME
  2

  9
$UCSORG
 10
0.0
 20
0.0
 30
0.0
  9
$UCSXDIR
 10
1.0
 20
0.0
 30
0.0
  9
$UCSYDIR
 10
0.0
 20
1.0
 30
0.0
  9
$PUCSNAME
  2

  9
$PUCSORG
 10
0.0
 20
0.0
 30
0.0
  9
$PUCSXDIR
 10
1.0
 20
0.0
 30
0.0
  9
$PUCSYDIR
 10
0.0
 20
1.0
 30
0.0
  9
$USERI1
 70
     0
  9
$USERI2
 70
     0
  9
$USERI3
 70
     0
  9
$USERI4
 70
     0
  9
$USERI5
 70
     0
  9
$USERR1
 40
0.0
  9
$USERR2
 40
0.0
  9
$USERR3
 40
0.0
  9
$USERR4
 40
0.0
  9
$USERR5
 40
0.0
  9
$WORLDVIEW
 70
     1
  9
$SHADEDGE
 70
     3
  9
$SHADEDIF
 70
    70
  9
$TILEMODE
 70
     1
  9
$MAXACTVP
 70
    64
  9
$PINSBASE
 10
0.0
 20
0.0
 30
0.0
  9
$PLIMCHECK
 70
     0
  9
$PEXTMIN
 10
1.0000000000E+20
 20
1.0000000000E+20
 30
1.0000000000E+20
  9
$PEXTMAX
 10
-1.0000000000E+20
 20
-1.0000000000E+20
 30
-1.0000000000E+20
  9
$PLIMMIN
 10
0.0
 20
0.0
  9
$PLIMMAX
 10
12.0
 20
9.0
  9
$UNITMODE
 70
     0
  9
$VISRETAIN
 70
     1
  9
$PLINEGEN
 70
     0
  9
$PSLTSCALE
 70
     1
  9
$TREEDEPTH
 70
  3020
  9
$PICKSTYLE
 70
     1
  9
$CMLSTYLE
  2
STANDARD
  9
$CMLJUST
 70
     0
  9
$CMLSCALE
 40
1.0
  9
$SAVEIMAGES
 70
     1
  0
ENDSEC
  0
SECTION
  2
CLASSES
  0
CLASS
  1
ACDBDICTIONARYWDFLT
  2
AcDbDictionaryWithDefault
  3
ObjectDBX Classes
 90
    32768
280
     0
281
     0
  0
CLASS
  1
VISUALSTYLE
  2
AcDbVisualStyle
  3
ObjectDBX Classes
 90
     4095
280
     0
281
     0
  0
CLASS
  1
SCALE
  2
AcDbScale
  3
ObjectDBX Classes
 90
     1153
280
     0
281
     0
  0
CLASS
  1
DICTIONARYVAR
  2
AcDbDictionaryVar
  3
ObjectDBX Classes
 90
        0
280
     0
281
     0
  0
CLASS
  1
XRECORD
  2
AcDbXrecord
  3
AutoCAD 2000
 90
    32768
280
     0
281
     0
  0
CLASS
  1
LWPOLYLINE
  2
AcDbPolyline
  3
AutoCAD 2000
 90
    32768
280
     0
281
     1
  0
CLASS
  1
HATCH
  2
AcDbHatch
  3
AutoCAD 2000
 90
    32768
280
     0
281
     1
  0
CLASS
  1
ACDBPLACEHOLDER
  2
AcDbPlaceHolder
  3
ObjectDBX Classes
 90
        0
280
     0
281
     0
  0
CLASS
  1
LAYOUT
  2
AcDbLayout
  3
ObjectDBX Classes
 90
        0
280
     0
281
     0
  0
ENDSEC
  0
SECTION
  2
TABLES
  0
TABLE
  2
VPORT
  5
8
330
0
100
AcDbSymbolTable
 70
     1
  0
VPORT
  5
29
330
8
100
AcDbSymbolTableRecord
100
AcDbViewportTableRecord
  2
*ACTIVE
 70
     0
 10
0.0
 20
0.0
 11
1.0
 21
1.0
 12
5.5
 22
4.25
 13
0.0
 23
0.0
 14
0.5
 24
0.5
 15
0.5
 25
0.5
 16
0.0
 26
0.0
 36
1.0
 17
0.0
 27
0.0
 37
0.0
 40
8.5
 41
1.2941176471
 42
50.0
 43
0.0
 44
0.0
 50
0.0
 51
0.0
 71
     0
 72
  2000
 73
     1
 74
     3
 75
     0
 76
     0
 77
     0
 78
     0
  0
ENDTAB
  0
TABLE
  2
LTYPE
  5
5
330
0
100
AcDbSymbolTable
 70
     6
  0
LTYPE
  5
14
330
5
100
AcDbSymbolTableRecord
100
AcDbLinetypeTableRecord
  2
BYBLOCK
 70
     0
  3

 72
    65
 73
     0
 40
0.0
  0
LTYPE
  5
15
330
5
100
AcDbSymbolTableRecord
100
AcDbLinetypeTableRecord
  2
BYLAYER
 70
     0
  3

 72
    65
 73
     0
 40
0.0
  0
LTYPE
  5
16
330
5
100
AcDbSymbolTableRecord
100
AcDbLinetypeTableRecord
  2
CONTINUOUS
 70
     0
  3
Solid line
 72
    65
 73
     0
 40
0.0
  0
LTYPE
  5
3B
330
5
100
AcDbSymbolTableRecord
100
AcDbLinetypeTableRecord
  2
HIDDEN
 70
     0
  3
Hidden __ __ __ __ __ __ __ __ __ __ __ __ __ __
 72
    65
 73
     2
 40
0.075
 49
0.05
 74
     0
 49
-0.025
 74
     0
  0
LTYPE
  5
3C
330
5
100
AcDbSymbolTableRecord
100
AcDbLinetypeTableRecord
  2
PHANTOM
 70
     0
  3
Phantom ______  __  __  ______  __  __  ______
 72
    65
 73
     6
 40
0.5
 49
0.25
 74
     0
 49
-0.05
 74
     0
 49
0.05
 74
     0
 49
-0.05
 74
     0
 49
0.05
 74
     0
 49
-0.05
 74
     0
  0
LTYPE
  5
3D
330
5
100
AcDbSymbolTableRecord
100
AcDbLinetypeTableRecord
  2
CENTER
 70
     0
  3
Center ____ _ ____ _ ____ _ ____ _ ____ _ ____
 72
    65
 73
     4
 40
0.4
 49
0.25
 74
     0
 49
-0.05
 74
     0
 49
0.05
 74
     0
 49
-0.05
 74
     0
  0
LTYPE
  5
3E
330
5
100
AcDbSymbolTableRecord
100
AcDbLinetypeTableRecord
  2
CENTERX2
 70
     0
  3
Center (2x) ________  __  ________  __  _____
 72
    65
 73
     4
 40
0.8
 49
0.5
 74
     0
 49
-0.1
 74
     0
 49
0.1
 74
     0
 49
-0.1
 74
     0
  0
LTYPE
  5
3F
330
5
100
AcDbSymbolTableRecord
100
AcDbLinetypeTableRecord
  2
DOT2
 70
     0
  3
Dot (.5x) ........................................
 72
    65
 73
     2
 40
0.025
 49
0.0
 74
     0
 49
-0.025
 74
     0
  0
ENDTAB
  0
TABLE
  2
LAYER
  5
2
330
0
100
AcDbSymbolTable
 70
     2
  0
LAYER
  5
10
330
2
100
AcDbSymbolTableRecord
100
AcDbLayerTableRecord
  2
0
 70
     0
 62
     7
  6
CONTINUOUS
  0
LAYER
  5
40
330
2
100
AcDbSymbolTableRecord
100
AcDbLayerTableRecord
  2
FORMAT
 70
     0
 62
     7
  6
CONTINUOUS
  0
ENDTAB
  0
TABLE
  2
STYLE
  5
3
330
0
100
AcDbSymbolTable
 70
     4
  0
STYLE
  5
11
330
3
100
AcDbSymbolTableRecord
100
AcDbTextStyleTableRecord
  2
STANDARD
 70
     0
 40
0.0
 41
1.0
 50
0.0
 71
     0
 42
0.2
  3
txt
  4

  0
STYLE
  5
6E
330
3
100
AcDbSymbolTableRecord
100
AcDbTextStyleTableRecord
  2
SLDTEXTSTYLE0
 70
     0
 40
0.0
 41
0.75
 50
0.0
 71
     0
 42
0.2
  3
TXT
  4

  0
STYLE
  5
93
330
3
100
AcDbSymbolTableRecord
100
AcDbTextStyleTableRecord
  2
SLDTEXTSTYLE1
 70
     0
 40
0.0
 41
0.6875
 50
0.0
 71
     0
 42
0.2
  3
TXT
  4

  0
STYLE
  5
99
330
3
100
AcDbSymbolTableRecord
100
AcDbTextStyleTableRecord
  2
SLDTEXTSTYLE2
 70
     0
 40
0.0
 41
0.6944444444
 50
0.0
 71
     0
 42
0.2
  3
TXT
  4

  0
ENDTAB
  0
TABLE
  2
VIEW
  5
6
330
0
100
AcDbSymbolTable
 70
     0
  0
ENDTAB
  0
TABLE
  2
UCS
  5
7
330
0
100
AcDbSymbolTable
 70
     0
  0
ENDTAB
  0
TABLE
  2
APPID
  5
9
330
0
100
AcDbSymbolTable
 70
     1
  0
APPID
  5
12
330
9
100
AcDbSymbolTableRecord
100
AcDbRegAppTableRecord
  2
ACAD
 70
     0
  0
ENDTAB
  0
TABLE
  2
DIMSTYLE
  5
A
330
0
100
AcDbSymbolTable
 70
     1
  0
DIMSTYLE
105
27
330
A
100
AcDbSymbolTableRecord
100
AcDbDimStyleTableRecord
  2
STANDARD
 70
     0
  3

  4

  5

  6

  7

 40
1.0
 41
0.18
 42
0.0625
 43
0.38
 44
0.18
 45
0.0
 46
0.0
 47
0.0
 48
0.0
140
0.18
141
0.09
142
0.0
143
25.4
144
1.0
145
0.0
146
1.0
147
0.09
 71
     0
 72
     0
 73
     1
 74
     1
 75
     0
 76
     0
 77
     0
 78
     0
170
     0
171
     2
172
     0
173
     0
174
     0
175
     0
176
     0
177
     0
178
     0
270
     2
271
     4
272
     4
273
     2
274
     2
340
11
275
     0
280
     0
281
     0
282
     0
283
     1
284
     0
285
     0
286
     0
287
     3
288
     0
  0
ENDTAB
  0
TABLE
  2
BLOCK_RECORD
  5
1
330
0
100
AcDbSymbolTable
 70
     4
  0
BLOCK_RECORD
  5
1F
330
1
100
AcDbSymbolTableRecord
100
AcDbBlockTableRecord
  2
*MODEL_SPACE
  0
BLOCK_RECORD
  5
1B
330
1
100
AcDbSymbolTableRecord
100
AcDbBlockTableRecord
  2
*PAPER_SPACE
  0
BLOCK_RECORD
  5
A8
330
1
100
AcDbSymbolTableRecord
100
AcDbBlockTableRecord
  2
SW_NOTE_0
  0
BLOCK_RECORD
  5
AE
330
1
100
AcDbSymbolTableRecord
100
AcDbBlockTableRecord
  2
SW_NOTE_1
  0
BLOCK_RECORD
  5
C2
330
1
100
AcDbSymbolTableRecord
100
AcDbBlockTableRecord
  2
SW_NOTE_2
  0
ENDTAB
  0
ENDSEC
  0
SECTION
  2
BLOCKS
  0
BLOCK
  5
20
330
1F
100
AcDbEntity
  8
0
100
AcDbBlockBegin
  2
*MODEL_SPACE
 70
     0
 10
0.0
 20
0.0
 30
0.0
  3
*MODEL_SPACE
  1

  0
ENDBLK
  5
21
330
1F
100
AcDbEntity
  8
0
100
AcDbBlockEnd
  0
BLOCK
  5
1C
330
1B
100
AcDbEntity
 67
     1
  8
0
100
AcDbBlockBegin
  2
*PAPER_SPACE
 70
     0
 10
0.0
 20
0.0
 30
0.0
  3
*PAPER_SPACE
  1

  0
ENDBLK
  5
1D
330
1B
100
AcDbEntity
 67
     1
  8
0
100
AcDbBlockEnd
  0
BLOCK
  5
A9
330
A8
100
AcDbEntity
  8
0
100
AcDbBlockBegin
  2
SW_NOTE_0
 70
     0
 10
0.0
 20
0.0
 30
0.0
  3
SW_NOTE_0
  1

  0
MTEXT
  5
AB
330
A8
100
AcDbEntity
  8
0
  6
CONTINUOUS
 62
     0
100
AcDbMText
 10
0.0
 20
0.0773440644
 30
0.0
 40
0.06
 41
0.0
 71
     1
 72
     1
  1
INTERPRET GEOMETRIC
  7
SLDTEXTSTYLE0
  0
MTEXT
  5
AC
330
A8
100
AcDbEntity
  8
0
  6
CONTINUOUS
 62
     0
100
AcDbMText
 10
0.0
 20
-0.0220260102
 30
0.0
 40
0.06
 41
0.0
 71
     1
 72
     1
  1
TOLERANCING PER:
  7
SLDTEXTSTYLE0
  0
ENDBLK
  5
AA
330
A8
100
AcDbEntity
  8
0
100
AcDbBlockEnd
  0
BLOCK
  5
AF
330
AE
100
AcDbEntity
  8
0
100
AcDbBlockBegin
  2
SW_NOTE_1
 70
     0
 10
0.0
 20
0.0
 30
0.0
  3
SW_NOTE_1
  1

  0
MTEXT
  5
B1
330
AE
100
AcDbEntity
  8
0
  6
CONTINUOUS
 62
     0
100
AcDbMText
 10
0.0
 20
0.0837894031
 30
0.0
 40
0.065
 41
0.0
 71
     1
 72
     1
  1
DIMENSIONS ARE IN INCHES
  7
SLDTEXTSTYLE0
  0
MTEXT
  5
B2
330
AE
100
AcDbEntity
  8
0
  6
CONTINUOUS
 62
     0
100
AcDbMText
 10
0.0
 20
-0.0205806729
 30
0.0
 40
0.065
 41
0.0
 71
     1
 72
     1
  1
TOLERANCES:
  7
SLDTEXTSTYLE0
  0
MTEXT
  5
B3
330
AE
100
AcDbEntity
  8
0
  6
CONTINUOUS
 62
     0
100
AcDbMText
 10
0.0
 20
-0.1249507489
 30
0.0
 40
0.065
 41
0.0
 71
     1
 72
     1
  1
FRACTIONAL
  7
SLDTEXTSTYLE0
  0
MTEXT
  5
B4
330
AE
100
AcDbEntity
  8
0
  6
CONTINUOUS
 62
     0
100
AcDbMText
 10
0.5175850875
 20
-0.1249507489
 30
0.0
 40
0.065
 41
0.0
 71
     1
 72
     1
  1
%%p
  7
SLDTEXTSTYLE0
  0
MTEXT
  5
B5
330
AE
100
AcDbEntity
  8
0
  6
CONTINUOUS
 62
     0
100
AcDbMText
 10
0.0
 20
-0.2293208248
 30
0.0
 40
0.065
 41
0.0
 71
     1
 72
     1
  1
ANGULAR: MACH
  7
SLDTEXTSTYLE0
  0
MTEXT
  5
B6
330
AE
100
AcDbEntity
  8
0
  6
CONTINUOUS
 62
     0
100
AcDbMText
 10
0.7233732769
 20
-0.2293208248
 30
0.0
 40
0.065
 41
0.0
 71
     1
 72
     1
  1
%%p
  7
SLDTEXTSTYLE0
  0
MTEXT
  5
B7
330
AE
100
AcDbEntity
  8
0
  6
CONTINUOUS
 62
     0
100
AcDbMText
 10
0.7852857683
 20
-0.2293208248
 30
0.0
 40
0.065
 41
0.0
 71
     1
 72
     1
  1
     BEND 
  7
SLDTEXTSTYLE0
  0
MTEXT
  5
B8
330
AE
100
AcDbEntity
  8
0
  6
CONTINUOUS
 62
     0
100
AcDbMText
 10
1.14784136
 20
-0.2293208248
 30
0.0
 40
0.065
 41
0.0
 71
     1
 72
     1
  1
%%p
  7
SLDTEXTSTYLE0
  0
MTEXT
  5
B9
330
AE
100
AcDbEntity
  8
0
  6
CONTINUOUS
 62
     0
100
AcDbMText
 10
0.0
 20
-0.3336909008
 30
0.0
 40
0.065
 41
0.0
 71
     1
 72
     1
  1
TWO PLACE DECIMAL    
  7
SLDTEXTSTYLE0
  0
MTEXT
  5
BA
330
AE
100
AcDbEntity
  8
0
  6
CONTINUOUS
 62
     0
100
AcDbMText
 10
0.9794349188
 20
-0.3336909008
 30
0.0
 40
0.065
 41
0.0
 71
     1
 72
     1
  1
%%p
  7
SLDTEXTSTYLE0
  0
MTEXT
  5
BB
330
AE
100
AcDbEntity
  8
0
  6
CONTINUOUS
 62
     0
100
AcDbMText
 10
0.0
 20
-0.4380609768
 30
0.0
 40
0.065
 41
0.0
 71
     1
 72
     1
  1
THREE PLACE DECIMAL  
  7
SLDTEXTSTYLE0
  0
MTEXT
  5
BC
330
AE
100
AcDbEntity
  8
0
  6
CONTINUOUS
 62
     0
100
AcDbMText
 10
0.9738038639
 20
-0.4380609768
 30
0.0
 40
0.065
 41
0.0
 71
     1
 72
     1
  1
%%p
  7
SLDTEXTSTYLE0
  0
ENDBLK
  5
B0
330
AE
100
AcDbEntity
  8
0
100
AcDbBlockEnd
  0
BLOCK
  5
C3
330
C2
100
AcDbEntity
  8
0
100
AcDbBlockBegin
  2
SW_NOTE_2
 70
     0
 10
0.0
 20
0.0
 30
0.0
  3
SW_NOTE_2
  1

  0
MTEXT
  5
C5
330
C2
100
AcDbEntity
  8
0
  6
CONTINUOUS
 62
     0
100
AcDbMText
 10
0.0
 20
0.0773440644
 30
0.0
 40
0.06
 41
0.0
 71
     1
 72
     1
  1
THE INFORMATION CONTAINED IN THIS
  7
SLDTEXTSTYLE0
  0
MTEXT
  5
C6
330
C2
100
AcDbEntity
  8
0
  6
CONTINUOUS
 62
     0
100
AcDbMText
 10
0.0
 20
-0.0220260102
 30
0.0
 40
0.06
 41
0.0
 71
     1
 72
     1
  1
DRAWING IS THE SOLE PROPERTY OF
  7
SLDTEXTSTYLE0
  0
MTEXT
  5
C7
330
C2
100
AcDbEntity
  8
0
  6
CONTINUOUS
 62
     0
100
AcDbMText
 10
0.0
 20
-0.1213960848
 30
0.0
 40
0.06
 41
0.0
 71
     1
 72
     1
  1
Candy Controls.  ANY 
  7
SLDTEXTSTYLE0
  0
MTEXT
  5
C8
330
C2
100
AcDbEntity
  8
0
  6
CONTINUOUS
 62
     0
100
AcDbMText
 10
0.0
 20
-0.2207661593
 30
0.0
 40
0.06
 41
0.0
 71
     1
 72
     1
  1
REPRODUCTION IN PART OR AS A WHOLE
  7
SLDTEXTSTYLE0
  0
MTEXT
  5
C9
330
C2
100
AcDbEntity
  8
0
  6
CONTINUOUS
 62
     0
100
AcDbMText
 10
0.0
 20
-0.3201362339
 30
0.0
 40
0.06
 41
0.0
 71
     1
 72
     1
  1
WITHOUT THE WRITTEN PERMISSION OF
  7
SLDTEXTSTYLE0
  0
MTEXT
  5
CA
330
C2
100
AcDbEntity
  8
0
  6
CONTINUOUS
 62
     0
100
AcDbMText
 10
0.0
 20
-0.4195063085
 30
0.0
 40
0.06
 41
0.0
 71
     1
 72
     1
  1
Candy Controls IS 
  7
SLDTEXTSTYLE0
  0
MTEXT
  5
CB
330
C2
100
AcDbEntity
  8
0
  6
CONTINUOUS
 62
     0
100
AcDbMText
 10
0.0
 20
-0.518876383
 30
0.0
 40
0.06
 41
0.0
 71
     1
 72
     1
  1
PROHIBITED.
  7
SLDTEXTSTYLE0
  0
ENDBLK
  5
C4
330
C2
100
AcDbEntity
  8
0
100
AcDbBlockEnd
  0
ENDSEC
  0
SECTION
  2
ENTITIES
  0
LINE
  5
41
330
1F
100
AcDbEntity
  8
0
  6
CONTINUOUS
 62
     7
100
AcDbLine
 10
0.329927
 20
8.1920731707
 30
0.0
 11
10.629927
 21
8.1920731707
 31
0.0
  0
LINE
  5
42
330
1F
100
AcDbEntity
  8
0
  6
CONTINUOUS
 62
     7
100
AcDbLine
 10
0.329927
 20
8.1920731707
 30
0.0
 11
0.329927
 21
0.3920731707
 31
0.0
  0
LINE
  5
43
330
1F
100
AcDbEntity
  8
0
  6
CONTINUOUS
 62
     7
100
AcDbLine
 10
10.629927
 20
0.3920731707
 30
0.0
 11
0.329927
 21
0.3920731707
 31
0.0
  0
LINE
  5
44
330
1F
100
AcDbEntity
  8
0
  6
CONTINUOUS
 62
     7
100
AcDbLine
 10
10.629927
 20
0.3920731707
 30
0.0
 11
10.629927
 21
8.1920731707
 31
0.0
  0
LINE
  5
45
330
1F
100
AcDbEntity
  8
0
  6
CONTINUOUS
 62
     7
100
AcDbLine
 10
4.7981841288
 20
0.3920731707
 30
0.0
 11
4.7981841288
 21
2.3564211366
 31
0.0
  0
LINE
  5
46
330
1F
100
AcDbEntity
  8
0
  6
CONTINUOUS
 62
     7
100
AcDbLine
 10
2.8210345579
 20
2.3564211366
 30
0.0
 11
10.629927
 21
2.3564211366
 31
0.0
  0
LINE
  5
47
330
1F
100
AcDbEntity
  8
0
  6
CONTINUOUS
 62
     7
100
AcDbLine
 10
6.1796352514
 20
2.3564211366
 30
0.0
 11
6.1796352514
 21
0.3920731707
 31
0.0
  0
LINE
  5
48
330
1F
100
AcDbEntity
  8
0
  6
CONTINUOUS
 62
     7
100
AcDbLine
 10
7.8712070044
 20
2.3564211366
 30
0.0
 11
7.8712070044
 21
0.3920731707
 31
0.0
  0
LINE
  5
49
330
1F
100
AcDbEntity
  8
0
  6
CONTINUOUS
 62
     7
100
AcDbLine
 10
7.8712070044
 20
0.6049590101
 30
0.0
 11
10.629927
 21
0.6049590101
 31
0.0
  0
LINE
  5
4A
330
1F
100
AcDbEntity
  8
0
  6
CONTINUOUS
 62
     7
100
AcDbLine
 10
7.8712070044
 20
1.1119362457
 30
0.0
 11
10.629927
 21
1.1119362457
 31
0.0
  0
LINE
  5
4B
330
1F
100
AcDbEntity
  8
0
  6
CONTINUOUS
 62
     7
100
AcDbLine
 10
7.8712070044
 20
1.9892703708
 30
0.0
 11
10.629927
 21
1.9892703708
 31
0.0
  0
LINE
  5
4C
330
1F
100
AcDbEntity
  8
0
  6
CONTINUOUS
 62
     7
100
AcDbLine
 10
8.266751752
 20
1.1119362457
 30
0.0
 11
8.266751752
 21
0.6049590101
 31
0.0
  0
LINE
  5
4D
330
1F
100
AcDbEntity
  8
0
  6
CONTINUOUS
 62
     7
100
AcDbLine
 10
8.6943435176
 20
0.6049590101
 30
0.0
 11
8.6943435176
 21
0.3920731707
 31
0.0
  0
LINE
  5
4E
330
1F
100
AcDbEntity
  8
0
  6
CONTINUOUS
 62
     7
100
AcDbLine
 10
10.0579917045
 20
1.1119362457
 30
0.0
 11
10.0579917045
 21
0.6049590101
 31
0.0
  0
LINE
  5
4F
330
1F
100
AcDbEntity
  8
0
  6
CONTINUOUS
 62
     7
100
AcDbLine
 10
9.6662556631
 20
0.6049590101
 30
0.0
 11
9.6662556631
 21
0.3920731707
 31
0.0
  0
LINE
  5
50
330
1F
100
AcDbEntity
  8
0
  6
CONTINUOUS
 62
     7
100
AcDbLine
 10
2.8210345579
 20
0.5883479999
 30
0.0
 11
6.1796352514
 21
0.5883479999
 31
0.0
  0
LINE
  5
51
330
1F
100
AcDbEntity
  8
0
  6
CONTINUOUS
 62
     7
100
AcDbLine
 10
6.1796352514
 20
1.7939211366
 30
0.0
 11
7.8712070044
 21
1.7939211366
 31
0.0
  0
LINE
  5
52
330
1F
100
AcDbEntity
  8
0
  6
CONTINUOUS
 62
     7
100
AcDbLine
 10
6.1796352514
 20
1.9814211366
 30
0.0
 11
7.8712070044
 21
1.9814211366
 31
0.0
  0
LINE
  5
53
330
1F
100
AcDbEntity
  8
0
  6
CONTINUOUS
 62
     7
100
AcDbLine
 10
6.1796352514
 20
2.1689211366
 30
0.0
 11
7.8712070044
 21
2.1689211366
 31
0.0
  0
LINE
  5
54
330
1F
100
AcDbEntity
  8
0
  6
CONTINUOUS
 62
     7
100
AcDbLine
 10
7.8712070044
 20
1.2314211366
 30
0.0
 11
6.1796352514
 21
1.2314211366
 31
0.0
  0
LINE
  5
55
330
1F
100
AcDbEntity
  8
0
  6
CONTINUOUS
 62
     7
100
AcDbLine
 10
7.3921580388
 20
2.3564211366
 30
0.0
 11
7.3921580388
 21
1.2314211366
 31
0.0
  0
LINE
  5
56
330
1F
100
AcDbEntity
  8
0
  6
CONTINUOUS
 62
     7
100
AcDbLine
 10
6.9236308342
 20
2.3564211366
 30
0.0
 11
6.9236308342
 21
1.2314211366
 31
0.0
  0
LINE
  5
57
330
1F
100
AcDbEntity
  8
0
  6
CONTINUOUS
 62
     7
100
AcDbLine
 10
4.7981841288
 20
0.8557965305
 30
0.0
 11
6.1796352514
 21
0.8557965305
 31
0.0
  0
LINE
  5
58
330
1F
100
AcDbEntity
  8
0
  6
CONTINUOUS
 62
     7
100
AcDbLine
 10
4.7981841288
 20
1.1257965305
 30
0.0
 11
6.1796352514
 21
1.1257965305
 31
0.0
  0
LINE
  5
59
330
1F
100
AcDbEntity
  8
0
  6
CONTINUOUS
 62
     7
100
AcDbLine
 10
2.8210345579
 20
0.3920731707
 30
0.0
 11
2.8210345579
 21
2.3564211366
 31
0.0
  0
LINE
  5
5A
330
1F
100
AcDbEntity
  8
0
  6
CONTINUOUS
 62
     7
100
AcDbLine
 10
2.8210345579
 20
1.1064211366
 30
0.0
 11
4.7981841288
 21
1.1064211366
 31
0.0
  0
LINE
  5
5B
330
1F
100
AcDbEntity
  8
0
  6
CONTINUOUS
 62
     7
100
AcDbLine
 10
2.8210345579
 20
1.3564211366
 30
0.0
 11
4.7981841288
 21
1.3564211366
 31
0.0
  0
LINE
  5
5C
330
1F
100
AcDbEntity
  8
0
  6
CONTINUOUS
 62
     7
100
AcDbLine
 10
2.8210345579
 20
1.6064211366
 30
0.0
 11
4.7981841288
 21
1.6064211366
 31
0.0
  0
LINE
  5
5D
330
1F
100
AcDbEntity
  8
0
  6
CONTINUOUS
 62
     7
100
AcDbLine
 10
2.8210345579
 20
1.8564211366
 30
0.0
 11
4.7981841288
 21
1.8564211366
 31
0.0
  0
LINE
  5
5E
330
1F
100
AcDbEntity
  8
0
  6
CONTINUOUS
 62
     7
100
AcDbLine
 10
3.8190146875
 20
2.3564211366
 30
0.0
 11
3.8190146875
 21
0.5883479999
 31
0.0
  0
LINE
  5
5F
330
1F
100
AcDbEntity
  8
0
  6
CONTINUOUS
 62
     7
100
AcDbLine
 10
6.1796352514
 20
2.2020813496
 30
0.0
 11
4.7981841288
 21
2.2020813496
 31
0.0
  0
LINE
  5
60
330
1F
100
AcDbEntity
  8
0
  6
CONTINUOUS
 62
     7
100
AcDbLine
 10
7.8712070044
 20
1.6064211366
 30
0.0
 11
6.1796352514
 21
1.6064211366
 31
0.0
  0
LINE
  5
61
330
1F
100
AcDbEntity
  8
0
  6
CONTINUOUS
 62
     7
100
AcDbLine
 10
7.8712070044
 20
1.4189211366
 30
0.0
 11
6.1796352514
 21
1.4189211366
 31
0.0
  0
LINE
  5
62
330
1F
100
AcDbEntity
  8
0
  6
CONTINUOUS
 62
     7
100
AcDbLine
 10
2.8210345579
 20
2.1064211366
 30
0.0
 11
4.7981841288
 21
2.1064211366
 31
0.0
  0
LINE
  5
63
330
1F
100
AcDbEntity
  8
0
  6
CONTINUOUS
 62
     7
100
AcDbLine
 10
4.7981841288
 20
1.3957965305
 30
0.0
 11
6.1796352514
 21
1.3957965305
 31
0.0
  0
LINE
  5
64
330
1F
100
AcDbEntity
  8
0
  6
CONTINUOUS
 62
     7
100
AcDbLine
 10
2.8210345579
 20
0.8564211366
 30
0.0
 11
4.7981841288
 21
0.8564211366
 31
0.0
  0
LINE
  5
65
330
1F
100
AcDbEntity
  8
0
  6
CONTINUOUS
 62
     7
100
AcDbLine
 10
1.1838252943
 20
0.3920731707
 30
0.0
 11
1.1838252943
 21
1.3064211366
 31
0.0
  0
LINE
  5
66
330
1F
100
AcDbEntity
  8
0
  6
CONTINUOUS
 62
     7
100
AcDbLine
 10
2.8210345579
 20
1.3064211366
 30
0.0
 11
1.1838252943
 21
1.3064211366
 31
0.0
  0
LINE
  5
67
330
1F
100
AcDbEntity
  8
0
  6
CONTINUOUS
 62
     7
100
AcDbLine
 10
8.660927
 20
0.3920731707
 30
0.0
 11
8.660927
 21
0.3072739649
 31
0.0
  0
LINE
  5
68
330
1F
100
AcDbEntity
  8
0
  6
CONTINUOUS
 62
     7
100
AcDbLine
 10
6.692177
 20
0.3920731707
 30
0.0
 11
6.692177
 21
0.3072739649
 31
0.0
  0
LINE
  5
69
330
1F
100
AcDbEntity
  8
0
  6
CONTINUOUS
 62
     7
100
AcDbLine
 10
4.723427
 20
0.3920731707
 30
0.0
 11
4.723427
 21
0.3072739649
 31
0.0
  0
LINE
  5
6A
330
1F
100
AcDbEntity
  8
0
  6
CONTINUOUS
 62
     7
100
AcDbLine
 10
2.754677
 20
0.3920731707
 30
0.0
 11
2.754677
 21
0.3072739649
 31
0.0
  0
LINE
  5
6B
330
1F
100
AcDbEntity
  8
0
  6
CONTINUOUS
 62
     7
100
AcDbLine
 10
2.754677
 20
0.3920731707
 30
0.0
 11
2.7672319738
 21
0.3575
 31
0.0
  0
LINE
  5
6C
330
1F
100
AcDbEntity
  8
0
  6
CONTINUOUS
 62
     7
100
AcDbLine
 10
2.7672319738
 20
0.3575
 30
0.0
 11
2.7414258825
 21
0.3575
 31
0.0
  0
LINE
  5
6D
330
1F
100
AcDbEntity
  8
0
  6
CONTINUOUS
 62
     7
100
AcDbLine
 10
2.7414258825
 20
0.3575
 30
0.0
 11
2.754677
 21
0.3920731707
 31
0.0
  0
MTEXT
  5
91
330
1F
100
AcDbEntity
  8
0
  6
CONTINUOUS
 62
     7
100
AcDbMText
 10
4.9775846961
 20
0.5178452352
 30
0.0
 40
0.0625
 41
0.0
 71
     1
 72
     1
  1
DO NOT SCALE DRAWING
  7
SLDTEXTSTYLE0
  0
MTEXT
  5
92
330
1F
100
AcDbEntity
  8
0
  6
CONTINUOUS
 62
     7
100
AcDbMText
 10
8.835702815
 20
0.9417064595
 30
0.0
 40
0.125
 41
0.0
 71
     1
 72
     1
  1
CL5-C44
  7
SLDTEXTSTYLE0
  0
MTEXT
  5
94
330
1F
100
AcDbEntity
  8
0
  6
CONTINUOUS
 62
     7
100
AcDbMText
 10
9.7571278483
 20
0.5524239532
 30
0.0
 40
0.1
 41
0.0
 71
     1
 72
     1
  1
SHEET 1 OF 1
  7
SLDTEXTSTYLE1
  0
MTEXT
  5
95
330
1F
100
AcDbEntity
  8
0
  6
CONTINUOUS
 62
     7
100
AcDbMText
 10
4.8448077858
 20
2.3132954224
 30
0.0
 40
0.07
 41
0.0
 71
     1
 72
     1
  1
UNLESS OTHERWISE SPECIFIED:
  7
SLDTEXTSTYLE0
  0
MTEXT
  5
96
330
1F
100
AcDbEntity
  8
0
  6
CONTINUOUS
 62
     7
100
AcDbMText
 10
7.9586139647
 20
0.5520987879
 30
0.0
 40
0.1
 41
0.0
 71
     1
 72
     1
  1
SCALE: 1:1
  7
SLDTEXTSTYLE0
  0
MTEXT
  5
97
330
1F
100
AcDbEntity
  8
0
  6
CONTINUOUS
 62
     7
100
AcDbMText
 10
8.7023691647
 20
0.5486763345
 30
0.0
 40
0.1
 41
0.0
 71
     1
 72
     1
  1
WEIGHT: 
  7
SLDTEXTSTYLE0
  0
MTEXT
  5
98
330
1F
100
AcDbEntity
  8
0
  6
CONTINUOUS
 62
     7
100
AcDbMText
 10
10.2277580983
 20
1.081966299
 30
0.0
 40
0.1
 41
0.0
 71
     1
 72
     1
  1
REV
  7
SLDTEXTSTYLE0
  0
MTEXT
  5
9A
330
1F
100
AcDbEntity
  8
0
  6
CONTINUOUS
 62
     7
100
AcDbMText
 10
8.2984570898
 20
1.0858725293
 30
0.0
 40
0.1
 41
0.0
 71
     1
 72
     1
  1
DWG.  NO.
  7
SLDTEXTSTYLE2
  0
MTEXT
  5
9B
330
1F
100
AcDbEntity
  8
0
  6
CONTINUOUS
 62
     7
100
AcDbMText
 10
7.9598482632
 20
0.9442140768
 30
0.0
 40
0.25
 41
0.0
 71
     1
 72
     1
  1
A
  7
SLDTEXTSTYLE0
  0
MTEXT
  5
9C
330
1F
100
AcDbEntity
  8
0
  6
CONTINUOUS
 62
     7
100
AcDbMText
 10
7.9519581822
 20
1.0872713483
 30
0.0
 40
0.1
 41
0.0
 71
     1
 72
     1
  1
SIZE
  7
SLDTEXTSTYLE0
  0
MTEXT
  5
9D
330
1F
100
AcDbEntity
  8
0
  6
CONTINUOUS
 62
     7
100
AcDbMText
 10
7.9170704177
 20
1.9547881128
 30
0.0
 40
0.1
 41
0.0
 71
     1
 72
     1
  1
TITLE:
  7
SLDTEXTSTYLE0
  0
MTEXT
  5
9E
330
1F
100
AcDbEntity
  8
0
  6
CONTINUOUS
 62
     7
100
AcDbMText
 10
7.0363774929
 20
2.2906161274
 30
0.0
 40
0.065
 41
0.0
 71
     1
 72
     1
  1
NAME
  7
SLDTEXTSTYLE0
  0
MTEXT
  5
9F
330
1F
100
AcDbEntity
  8
0
  6
CONTINUOUS
 62
     7
100
AcDbMText
 10
7.5281510634
 20
2.2888799118
 30
0.0
 40
0.065
 41
0.0
 71
     1
 72
     1
  1
DATE
  7
SLDTEXTSTYLE0
  0
MTEXT
  5
A0
330
1F
100
AcDbEntity
  8
0
  6
CONTINUOUS
 62
     7
100
AcDbMText
 10
6.2277147029
 20
1.1876913145
 30
0.0
 40
0.065
 41
0.0
 71
     1
 72
     1
  1
COMMENTS:
  7
SLDTEXTSTYLE0
  0
MTEXT
  5
A1
330
1F
100
AcDbEntity
  8
0
  6
CONTINUOUS
 62
     7
100
AcDbMText
 10
6.2268411461
 20
1.3536101679
 30
0.0
 40
0.065
 41
0.0
 71
     1
 72
     1
  1
Q.A.
  7
SLDTEXTSTYLE0
  0
MTEXT
  5
A2
330
1F
100
AcDbEntity
  8
0
  6
CONTINUOUS
 62
     7
100
AcDbMText
 10
6.2284654509
 20
1.5395328424
 30
0.0
 40
0.065
 41
0.0
 71
     1
 72
     1
  1
MFG APPR.
  7
SLDTEXTSTYLE0
  0
MTEXT
  5
A3
330
1F
100
AcDbEntity
  8
0
  6
CONTINUOUS
 62
     7
100
AcDbMText
 10
6.2235171344
 20
1.7267501785
 30
0.0
 40
0.065
 41
0.0
 71
     1
 72
     1
  1
ENG APPR.
  7
SLDTEXTSTYLE0
  0
MTEXT
  5
A4
330
1F
100
AcDbEntity
  8
0
  6
CONTINUOUS
 62
     7
100
AcDbMText
 10
6.2264103951
 20
1.9092699088
 30
0.0
 40
0.065
 41
0.0
 71
     1
 72
     1
  1
CHECKED
  7
SLDTEXTSTYLE0
  0
MTEXT
  5
A5
330
1F
100
AcDbEntity
  8
0
  6
CONTINUOUS
 62
     7
100
AcDbMText
 10
6.2242794356
 20
2.1016301232
 30
0.0
 40
0.065
 41
0.0
 71
     1
 72
     1
  1
DRAWN
  7
SLDTEXTSTYLE0
  0
MTEXT
  5
A6
330
1F
100
AcDbEntity
  8
0
  6
CONTINUOUS
 62
     7
100
AcDbMText
 10
4.8208600979
 20
0.834523235
 30
0.0
 40
0.06
 41
0.0
 71
     1
 72
     1
  1
FINISH
  7
SLDTEXTSTYLE0
  0
MTEXT
  5
A7
330
1F
100
AcDbEntity
  8
0
  6
CONTINUOUS
 62
     7
100
AcDbMText
 10
4.8181240648
 20
1.1028217587
 30
0.0
 40
0.06
 41
0.0
 71
     1
 72
     1
  1
MATERIAL
  7
SLDTEXTSTYLE0
  0
INSERT
  5
AD
330
1F
100
AcDbEntity
  8
0
  6
CONTINUOUS
 62
     7
100
AcDbBlockReference
  2
SW_NOTE_0
 10
4.8231926633
 20
1.2646542947
 30
0.0
  0
INSERT
  5
BD
330
1F
100
AcDbEntity
  8
0
  6
CONTINUOUS
 62
     7
100
AcDbBlockReference
  2
SW_NOTE_1
 10
4.8353339353
 20
2.0049168724
 30
0.0
  0
MTEXT
  5
BE
330
1F
100
AcDbEntity
  8
0
  6
CONTINUOUS
 62
     7
100
AcDbMText
 10
3.5531400086
 20
0.5200091997
 30
0.0
 40
0.0625
 41
0.0
 71
     1
 72
     1
  1
APPLICATION
  7
SLDTEXTSTYLE0
  0
MTEXT
  5
BF
330
1F
100
AcDbEntity
  8
0
  6
CONTINUOUS
 62
     7
100
AcDbMText
 10
4.1005607758
 20
0.7502454275
 30
0.0
 40
0.0625
 41
0.0
 71
     1
 72
     1
  1
USED ON
  7
SLDTEXTSTYLE0
  0
MTEXT
  5
C0
330
1F
100
AcDbEntity
  8
0
  6
CONTINUOUS
 62
     7
100
AcDbMText
 10
3.1040019536
 20
0.7492094783
 30
0.0
 40
0.0625
 41
0.0
 71
     1
 72
     1
  1
NEXT ASSY
  7
SLDTEXTSTYLE0
  0
MTEXT
  5
C1
330
1F
100
AcDbEntity
  8
0
  6
CONTINUOUS
 62
     7
100
AcDbMText
 10
1.3712489489
 20
1.2496672684
 30
0.0
 40
0.06
 41
0.0
 71
     1
 72
     1
  1
PROPRIETARY AND CONFIDENTIAL
  7
SLDTEXTSTYLE0
  0
INSERT
  5
CC
330
1F
100
AcDbEntity
  8
0
  6
CONTINUOUS
 62
     7
100
AcDbBlockReference
  2
SW_NOTE_2
 10
1.2226209074
 20
1.0313492921
 30
0.0
  0
MTEXT
  5
CD
330
1F
100
AcDbEntity
  8
0
  6
CONTINUOUS
 62
     7
100
AcDbMText
 10
1.7387909509
 20
0.3105864247
 30
0.0
 40
0.09375
 41
0.0
 71
     1
 72
     1
  1
5
  7
SLDTEXTSTYLE0
  0
MTEXT
  5
CE
330
1F
100
AcDbEntity
  8
0
  6
CONTINUOUS
 62
     7
100
AcDbMText
 10
3.723800327
 20
0.3137237518
 30
0.0
 40
0.09375
 41
0.0
 71
     1
 72
     1
  1
4
  7
SLDTEXTSTYLE0
  0
MTEXT
  5
CF
330
1F
100
AcDbEntity
  8
0
  6
CONTINUOUS
 62
     7
100
AcDbMText
 10
5.6324457277
 20
0.3116191842
 30
0.0
 40
0.09375
 41
0.0
 71
     1
 72
     1
  1
3
  7
SLDTEXTSTYLE0
  0
MTEXT
  5
D0
330
1F
100
AcDbEntity
  8
0
  6
CONTINUOUS
 62
     7
100
AcDbMText
 10
7.6059721724
 20
0.3124391351
 30
0.0
 40
0.09375
 41
0.0
 71
     1
 72
     1
  1
2
  7
SLDTEXTSTYLE0
  0
MTEXT
  5
D1
330
1F
100
AcDbEntity
  8
0
  6
CONTINUOUS
 62
     7
100
AcDbMText
 10
9.6619921328
 20
0.301372012
 30
0.0
 40
0.09375
 41
0.0
 71
     1
 72
     1
  1
1
  7
SLDTEXTSTYLE0
  0
LINE
  5
D2
330
1F
100
AcDbEntity
  8
0
  6
CONTINUOUS
 62
     7
100
AcDbLine
 10
3.6430009328
 20
2.8925365541
 30
0.0
 11
3.9907699617
 21
2.8925365541
 31
0.0
  0
LINE
  5
D3
330
1F
100
AcDbEntity
  8
0
  6
CONTINUOUS
 62
     7
100
AcDbLine
 10
3.4152187805
 20
2.8925365541
 30
0.0
 11
3.5905074945
 21
2.8925365541
 31
0.0
  0
LINE
  5
D4
330
1F
100
AcDbEntity
  8
0
  6
CONTINUOUS
 62
     7
100
AcDbLine
 10
3.5905074945
 20
4.6248200187
 30
0.0
 11
3.4152187805
 21
4.6248200187
 31
0.0
  0
LINE
  5
D5
330
1F
100
AcDbEntity
  8
0
  6
CONTINUOUS
 62
     7
100
AcDbLine
 10
3.9907699617
 20
4.6248200187
 30
0.0
 11
3.6430009328
 21
4.6248200187
 31
0.0
  0
LINE
  5
D6
330
1F
100
AcDbEntity
  8
0
  6
CONTINUOUS
 62
     7
100
AcDbLine
 10
3.9907699617
 20
2.8925365541
 30
0.0
 11
4.0057699617
 21
2.9075365541
 31
0.0
  0
LINE
  5
D7
330
1F
100
AcDbEntity
  8
0
  6
CONTINUOUS
 62
     7
100
AcDbLine
 10
4.0057699617
 20
4.6098200187
 30
0.0
 11
3.9907699617
 21
4.6248200187
 31
0.0
  0
LINE
  5
D8
330
1F
100
AcDbEntity
  8
0
  6
CONTINUOUS
 62
     7
100
AcDbLine
 10
3.7545494892
 20
3.7783633258
 30
0.0
 11
3.7545494892
 21
3.738993247
 31
0.0
  0
LINE
  5
D9
330
1F
100
AcDbEntity
  8
0
  6
CONTINUOUS
 62
     7
100
AcDbLine
 10
3.9120298042
 20
3.738993247
 30
0.0
 11
3.9120298042
 21
3.7783633258
 31
0.0
  0
LINE
  5
DA
330
1F
100
AcDbEntity
  8
0
  6
CONTINUOUS
 62
     7
100
AcDbLine
 10
2.6475022451
 20
2.9075365541
 30
0.0
 11
2.6625022451
 21
2.8925365541
 31
0.0
  0
LINE
  5
DB
330
1F
100
AcDbEntity
  8
0
  6
CONTINUOUS
 62
     7
100
AcDbLine
 10
3.2380534262
 20
4.6248200187
 30
0.0
 11
3.0627647123
 21
4.6248200187
 31
0.0
  0
LINE
  5
DC
330
1F
100
AcDbEntity
  8
0
  6
CONTINUOUS
 62
     7
100
AcDbLine
 10
2.6625022451
 20
2.8925365541
 30
0.0
 11
3.2380534262
 21
2.8925365541
 31
0.0
  0
LINE
  5
DD
330
1F
100
AcDbEntity
  8
0
  6
CONTINUOUS
 62
     7
100
AcDbLine
 10
3.2380534262
 20
3.6208830108
 30
0.0
 11
3.2971085443
 21
3.6208830108
 31
0.0
  0
LINE
  5
DE
330
1F
100
AcDbEntity
  8
0
  6
CONTINUOUS
 62
     7
100
AcDbLine
 10
3.2971085443
 20
3.896473562
 30
0.0
 11
3.2380534262
 21
3.896473562
 31
0.0
  0
LINE
  5
DF
330
1F
100
AcDbEntity
  8
0
  6
CONTINUOUS
 62
     7
100
AcDbLine
 10
3.3561636624
 20
3.6208830108
 30
0.0
 11
3.4152187805
 21
3.6208830108
 31
0.0
  0
LINE
  5
E0
330
1F
100
AcDbEntity
  8
0
  6
CONTINUOUS
 62
     7
100
AcDbLine
 10
3.4152187805
 20
3.896473562
 30
0.0
 11
3.3561636624
 21
3.896473562
 31
0.0
  0
LINE
  5
E1
330
1F
100
AcDbEntity
  8
0
  6
CONTINUOUS
 62
     7
100
AcDbLine
 10
3.2380534262
 20
4.2803318297
 30
0.0
 11
3.2971085443
 21
4.2803318297
 31
0.0
  0
LINE
  5
E2
330
1F
100
AcDbEntity
  8
0
  6
CONTINUOUS
 62
     7
100
AcDbLine
 10
3.2971085443
 20
4.5559223809
 30
0.0
 11
3.2380534262
 21
4.5559223809
 31
0.0
  0
LINE
  5
E3
330
1F
100
AcDbEntity
  8
0
  6
CONTINUOUS
 62
     7
100
AcDbLine
 10
3.3561636624
 20
4.2803318297
 30
0.0
 11
3.4152187805
 21
4.2803318297
 31
0.0
  0
LINE
  5
E4
330
1F
100
AcDbEntity
  8
0
  6
CONTINUOUS
 62
     7
100
AcDbLine
 10
3.4152187805
 20
4.5559223809
 30
0.0
 11
3.3561636624
 21
4.5559223809
 31
0.0
  0
LINE
  5
E5
330
1F
100
AcDbEntity
  8
0
  6
CONTINUOUS
 62
     7
100
AcDbLine
 10
3.2380534262
 20
2.9614341919
 30
0.0
 11
3.2971085443
 21
2.9614341919
 31
0.0
  0
LINE
  5
E6
330
1F
100
AcDbEntity
  8
0
  6
CONTINUOUS
 62
     7
100
AcDbLine
 10
3.2971085443
 20
3.2370247431
 30
0.0
 11
3.2380534262
 21
3.2370247431
 31
0.0
  0
LINE
  5
E7
330
1F
100
AcDbEntity
  8
0
  6
CONTINUOUS
 62
     7
100
AcDbLine
 10
3.3561636624
 20
2.9614341919
 30
0.0
 11
3.4152187805
 21
2.9614341919
 31
0.0
  0
LINE
  5
E8
330
1F
100
AcDbEntity
  8
0
  6
CONTINUOUS
 62
     7
100
AcDbLine
 10
3.4152187805
 20
3.2370247431
 30
0.0
 11
3.3561636624
 21
3.2370247431
 31
0.0
  0
LINE
  5
E9
330
1F
100
AcDbEntity
  8
0
  6
CONTINUOUS
 62
     7
100
AcDbLine
 10
3.3561636624
 20
4.5903711998
 30
0.0
 11
3.2971085443
 21
4.5903711998
 31
0.0
  0
LINE
  5
EA
330
1F
100
AcDbEntity
  8
0
  6
CONTINUOUS
 62
     7
100
AcDbLine
 10
3.2971085443
 20
2.926985373
 30
0.0
 11
3.3561636624
 21
2.926985373
 31
0.0
  0
LINE
  5
EB
330
1F
100
AcDbEntity
  8
0
  6
CONTINUOUS
 62
     7
100
AcDbLine
 10
3.4152187805
 20
4.6248200187
 30
0.0
 11
3.4152187805
 21
2.8925365541
 31
0.0
  0
SPLINE
  5
EC
330
1F
100
AcDbEntity
  8
0
  6
CONTINUOUS
 62
     7
100
AcDbSpline
210
0.0
220
0.0
230
1.0
 70
     8
 71
     3
 72
    74
 73
    70
 74
     0
 42
0.00000001
 43
0.00000001
 40
-0.0312500000000001
 40
-0.0312500000000001
 40
0.0
 40
0.0
 40
0.0312499999999999
 40
0.0312499999999999
 40
0.0624999999999998
 40
0.0624999999999998
 40
0.0937499999999996
 40
0.0937499999999996
 40
0.1249999999999995
 40
0.1249999999999995
 40
0.1562499999999994
 40
0.1562499999999994
 40
0.1874999999999993
 40
0.1874999999999993
 40
0.2187499999999992
 40
0.2187499999999992
 40
0.2499999999999991
 40
0.2499999999999991
 40
0.2812499999999989
 40
0.2812499999999989
 40
0.3124999999999988
 40
0.3124999999999988
 40
0.3749999999999988
 40
0.3749999999999988
 40
0.4062499999999987
 40
0.4062499999999987
 40
0.4374999999999985
 40
0.4374999999999985
 40
0.4531249999999984
 40
0.4531249999999984
 40
0.4687499999999984
 40
0.4687499999999984
 40
0.4843749999999983
 40
0.4843749999999983
 40
0.4999999999999982
 40
0.4999999999999982
 40
0.5156249999999981
 40
0.5156249999999981
 40
0.5312499999999981
 40
0.5312499999999981
 40
0.5624999999999982
 40
0.5624999999999982
 40
0.5937499999999983
 40
0.5937499999999983
 40
0.6249999999999984
 40
0.6249999999999984
 40
0.6562499999999986
 40
0.6562499999999986
 40
0.6874999999999987
 40
0.6874999999999987
 40
0.7187499999999988
 40
0.7187499999999988
 40
0.7499999999999988
 40
0.7499999999999988
 40
0.8124999999999991
 40
0.8124999999999991
 40
0.8437499999999993
 40
0.8437499999999993
 40
0.8749999999999996
 40
0.8749999999999996
 40
0.9062499999999997
 40
0.9062499999999997
 40
0.9218749999999998
 40
0.9218749999999998
 40
0.9374999999999998
 40
0.9374999999999998
 40
0.9687499999999999
 40
0.9687499999999999
 40
1.0
 40
1.0
 40
1.03125
 40
1.03125
 10
3.843838436855734
 20
4.525363421918598
 30
0.0
 10
3.822740856527543
 20
4.525363421918598
 30
0.0
 10
3.812426698198871
 20
4.524738400011209
 30
0.0
 10
3.792245501574338
 20
4.522265703875513
 30
0.0
 10
3.782382813293517
 20
4.520392717608147
 30
0.0
 10
3.764166511859309
 20
4.515555294791725
 30
0.0
 10
3.755572481584828
 20
4.512529867888865
 30
0.0
 10
3.740133559026839
 20
4.505494485044935
 30
0.0
 10
3.733275326132909
 20
4.501504326701073
 30
0.0
 10
3.721149068608189
 20
4.492534301105079
 30
0.0
 10
3.716021679019934
 20
4.487648945586932
 30
0.0
 10
3.70752348008707
 20
4.47719945828898
 30
0.0
 10
3.704115357346586
 20
4.471566297597906
 30
0.0
 10
3.699035206655437
 20
4.459870744931664
 30
0.0
 10
3.697335251378288
 20
4.453796597658026
 30
0.0
 10
3.69544198183717
 20
4.441189698688763
 30
0.0
 10
3.695262086299024
 20
4.434644740456513
 30
0.0
 10
3.696302161335396
 20
4.421449426742324
 30
0.0
 10
3.697512349409791
 20
4.414755053732332
 30
0.0
 10
3.701241763504804
 20
4.401179508820126
 30
0.0
 10
3.703781737865649
 20
4.394267025630909
 30
0.0
 10
3.713172021235723
 20
4.373795105275207
 30
0.0
 10
3.721746759643172
 20
4.360296970990687
 30
0.0
 10
3.738753553468094
 20
4.340850169679242
 30
0.0
 10
3.745012578367264
 20
4.334644211145732
 30
0.0
 10
3.758947445878615
 20
4.322996723211402
 30
0.0
 10
3.766722275540529
 20
4.317495640301648
 30
0.0
 10
3.779395214831199
 20
4.310412907332994
 30
0.0
 10
3.783786455535894
 20
4.308244501504524
 30
0.0
 10
3.792957220958431
 20
4.304369687639862
 30
0.0
 10
3.79778073804501
 20
4.302651783539861
 30
0.0
 10
3.807647141956779
 20
4.299857975044754
 30
0.0
 10
3.812679572464574
 20
4.298778672375282
 30
0.0
 10
3.822960283006845
 20
4.297319262559693
 30
0.0
 10
3.828265877989136
 20
4.296942406553804
 30
0.0
 10
3.838748472405987
 20
4.296963267991135
 30
0.0
 10
3.843936015307029
 20
4.297349873810908
 30
0.0
 10
3.854208554493421
 20
4.298837806877287
 30
0.0
 10
3.859333411238055
 20
4.299953956664906
 30
0.0
 10
3.874107118209728
 20
4.304192454566741
 30
0.0
 10
3.883366937586853
 20
4.308244570701013
 30
0.0
 10
3.900239385458601
 20
4.317746004667826
 30
0.0
 10
3.907849096183548
 20
4.32315626816988
 30
0.0
 10
3.921820334401987
 20
4.334878997430999
 30
0.0
 10
3.92812315255489
 20
4.341166222622602
 30
0.0
 10
3.939301317470284
 20
4.353997160413406
 30
0.0
 10
3.944235904427218
 20
4.36059577706707
 30
0.0
 10
3.952936318108249
 20
4.374055017793754
 30
0.0
 10
3.95670958607547
 20
4.380950651320209
 30
0.0
 10
3.962934562955821
 20
4.394611832242111
 30
0.0
 10
3.965414647091911
 20
4.401413716358642
 30
0.0
 10
3.96910425974399
 20
4.414938856666814
 30
0.0
 10
3.97031643014437
 20
4.421706253664207
 30
0.0
 10
3.97182331956408
 20
4.441564806723067
 30
0.0
 10
3.970081109715494
 20
4.454007289328618
 30
0.0
 10
3.962495267151224
 20
4.471505453410369
 30
0.0
 10
3.959081466047835
 20
4.477160922777204
 30
0.0
 10
3.950594490329209
 20
4.487610543732555
 30
0.0
 10
3.945506753296292
 20
4.492467923618891
 30
0.0
 10
3.933388670135563
 20
4.501451309194734
 30
0.0
 10
3.926477512718433
 20
4.505472171877812
 30
0.0
 10
3.915006561327566
 20
4.510711053545854
 30
0.0
 10
3.910986934297292
 20
4.512332569785931
 30
0.0
 10
3.902531631890681
 20
4.515326016638581
 30
0.0
 10
3.898058618669981
 20
4.51670715861799
 30
0.0
 10
3.884278341819362
 20
4.520379560366021
 30
0.0
 10
3.874642040169258
 20
4.522214776716329
 30
0.0
 10
3.85444683971662
 20
4.524715120203916
 30
0.0
 10
3.843838436855734
 20
4.525363421918598
 30
0.0
 10
3.822740856527543
 20
4.525363421918598
 30
0.0
  0
SPLINE
  5
ED
330
1F
100
AcDbEntity
  8
0
  6
CONTINUOUS
 62
     7
100
AcDbSpline
210
0.0
220
0.0
230
1.0
 70
     8
 71
     3
 72
    60
 73
    56
 74
     0
 42
0.00000001
 43
0.00000001
 40
-0.0312500000000001
 40
-0.0312500000000001
 40
0.0
 40
0.0
 40
0.0312500000000004
 40
0.0312500000000004
 40
0.0625000000000007
 40
0.0625000000000007
 40
0.093750000000001
 40
0.093750000000001
 40
0.1250000000000012
 40
0.1250000000000012
 40
0.1875000000000011
 40
0.1875000000000011
 40
0.218750000000001
 40
0.218750000000001
 40
0.2500000000000009
 40
0.2500000000000009
 40
0.2812500000000008
 40
0.2812500000000008
 40
0.3125000000000007
 40
0.3125000000000007
 40
0.3437500000000007
 40
0.3437500000000007
 40
0.3750000000000006
 40
0.3750000000000006
 40
0.4062500000000006
 40
0.4062500000000006
 40
0.4375000000000004
 40
0.4375000000000004
 40
0.4687500000000004
 40
0.4687500000000004
 40
0.5000000000000003
 40
0.5000000000000003
 40
0.5312500000000002
 40
0.5312500000000002
 40
0.5625000000000002
 40
0.5625000000000002
 40
0.5937500000000001
 40
0.5937500000000001
 40
0.625
 40
0.625
 40
0.7499999999999992
 40
0.7499999999999992
 40
0.7812499999999992
 40
0.7812499999999992
 40
0.8124999999999993
 40
0.8124999999999993
 40
0.8749999999999992
 40
0.8749999999999992
 40
0.9062499999999994
 40
0.9062499999999994
 40
0.9374999999999996
 40
0.9374999999999996
 40
0.9687499999999999
 40
0.9687499999999999
 40
1.0
 40
1.0
 40
1.03125
 40
1.03125
 10
3.827296048930356
 20
3.153369893958228
 30
0.0
 10
3.839283244452921
 20
3.153369893958228
 30
0.0
 10
3.845092400404162
 20
3.152677355048717
 30
0.0
 10
3.856381672558013
 20
3.150068767806409
 30
0.0
 10
3.861754736934067
 20
3.148161811847038
 30
0.0
 10
3.871628997696356
 20
3.143541867023916
 30
0.0
 10
3.876203868413909
 20
3.140795332390137
 30
0.0
 10
3.884378295801298
 20
3.134878952490152
 30
0.0
 10
3.888040997903639
 20
3.13167978069974
 30
0.0
 10
3.89793585748211
 20
3.12150656357719
 30
0.0
 10
3.902821841353639
 20
3.114269998401648
 30
0.0
 10
3.907989015874606
 20
3.103112031818642
 30
0.0
 10
3.90934081039846
 20
3.099323087376993
 30
0.0
 10
3.911242335545469
 20
3.091844708241388
 30
0.0
 10
3.911806501782469
 20
3.088128415230204
 30
0.0
 10
3.912145387323525
 20
3.080743978849004
 30
0.0
 10
3.911913279058585
 20
3.077045602677535
 30
0.0
 10
3.910603504475181
 20
3.06986446384105
 30
0.0
 10
3.909535760313322
 20
3.066388076238854
 30
0.0
 10
3.906530049400019
 20
3.059659985368219
 30
0.0
 10
3.904593401837925
 20
3.056408135992078
 30
0.0
 10
3.899715020803012
 20
3.050138781747868
 30
0.0
 10
3.896786859125046
 20
3.047155822456562
 30
0.0
 10
3.890046466444485
 20
3.041687777446871
 30
0.0
 10
3.886176975346477
 20
3.039153408863319
 30
0.0
 10
3.877512253253566
 20
3.034651164260131
 30
0.0
 10
3.872814083186429
 20
3.032724655467539
 30
0.0
 10
3.862635842354356
 20
3.029527391952609
 30
0.0
 10
3.857063384201743
 20
3.028249248863909
 30
0.0
 10
3.845698889611873
 20
3.026546405537711
 30
0.0
 10
3.839858189455917
 20
3.026094134873838
 30
0.0
 10
3.827877726091208
 20
3.026038639533192
 30
0.0
 10
3.822015537183957
 20
3.026435818479554
 30
0.0
 10
3.810534434552166
 20
3.028047356439983
 30
0.0
 10
3.804955126364579
 20
3.029270865995302
 30
0.0
 10
3.794626751379488
 20
3.032402975587108
 30
0.0
 10
3.789756588685401
 20
3.034349350206277
 30
0.0
 10
3.781032294126856
 20
3.038777565083667
 30
0.0
 10
3.777116281073227
 20
3.041278000704145
 30
0.0
 10
3.759823999668149
 20
3.055009746901956
 30
0.0
 10
3.753986318589474
 20
3.069360727297008
 30
0.0
 10
3.754743629372225
 20
3.087882941234299
 30
0.0
 10
3.755293402004547
 20
3.091614486297458
 30
0.0
 10
3.757175120881235
 20
3.099129587911156
 30
0.0
 10
3.758520241734523
 20
3.102932797457811
 30
0.0
 10
3.76365194727876
 20
3.114096214724913
 30
0.0
 10
3.768503396591985
 20
3.121331042739369
 30
0.0
 10
3.778407743125349
 20
3.131560853045424
 30
0.0
 10
3.782076417670522
 20
3.134778123407325
 30
0.0
 10
3.790269045942831
 20
3.140728704810312
 30
0.0
 10
3.794855722217911
 20
3.143490101172402
 30
0.0
 10
3.804735011638131
 20
3.148127294124094
 30
0.0
 10
3.810097617607219
 20
3.15004003928397
 30
0.0
 10
3.82144376218256
 20
3.152672939449779
 30
0.0
 10
3.827296048930356
 20
3.153369893958228
 30
0.0
 10
3.839283244452921
 20
3.153369893958228
 30
0.0
  0
LINE
  5
EE
330
1F
100
AcDbEntity
  8
0
  6
CONTINUOUS
 62
     7
100
AcDbLine
 10
3.6430009328
 20
3.738993247
 30
0.0
 11
3.6430009328
 21
2.8925365541
 31
0.0
  0
LINE
  5
EF
330
1F
100
AcDbEntity
  8
0
  6
CONTINUOUS
 62
     7
100
AcDbLine
 10
3.9907699617
 20
3.738993247
 30
0.0
 11
3.6430009328
 21
3.738993247
 31
0.0
  0
LINE
  5
F0
330
1F
100
AcDbEntity
  8
0
  6
CONTINUOUS
 62
     7
100
AcDbLine
 10
3.9907699617
 20
3.7783633258
 30
0.0
 11
3.9907699617
 21
4.6248200187
 31
0.0
  0
LINE
  5
F1
330
1F
100
AcDbEntity
  8
0
  6
CONTINUOUS
 62
     7
100
AcDbLine
 10
3.9907699617
 20
2.8925365541
 30
0.0
 11
3.9907699617
 21
3.738993247
 31
0.0
  0
LINE
  5
F2
330
1F
100
AcDbEntity
  8
0
  6
CONTINUOUS
 62
     7
100
AcDbLine
 10
3.9907699617
 20
3.7783633258
 30
0.0
 11
3.6430009328
 21
3.7783633258
 31
0.0
  0
LINE
  5
F3
330
1F
100
AcDbEntity
  8
0
  6
CONTINUOUS
 62
     7
100
AcDbLine
 10
3.6430009328
 20
4.6248200187
 30
0.0
 11
3.6430009328
 21
3.7783633258
 31
0.0
  0
LINE
  5
F4
330
1F
100
AcDbEntity
  8
0
  6
CONTINUOUS
 62
     7
100
AcDbLine
 10
3.5905074945
 20
4.5375288783
 30
0.0
 11
3.6430009328
 21
4.5375288783
 31
0.0
  0
LINE
  5
F5
330
1F
100
AcDbEntity
  8
0
  6
CONTINUOUS
 62
     7
100
AcDbLine
 10
3.5905074945
 20
2.8925365541
 30
0.0
 11
3.5905074945
 21
4.6248200187
 31
0.0
  0
LINE
  5
F6
330
1F
100
AcDbEntity
  8
0
  6
CONTINUOUS
 62
     7
100
AcDbLine
 10
3.6430009328
 20
2.9798276945
 30
0.0
 11
3.5905074945
 21
2.9798276945
 31
0.0
  0
LINE
  5
F7
330
1F
100
AcDbEntity
  8
0
  6
CONTINUOUS
 62
     7
100
AcDbLine
 10
4.0057699617
 20
3.738993247
 30
0.0
 11
4.0057699617
 21
2.9075365541
 31
0.0
  0
LINE
  5
F8
330
1F
100
AcDbEntity
  8
0
  6
CONTINUOUS
 62
     7
100
AcDbLine
 10
4.0057699617
 20
4.6098200187
 30
0.0
 11
4.0057699617
 21
3.7783633258
 31
0.0
  0
LINE
  5
F9
330
1F
100
AcDbEntity
  8
0
  6
CONTINUOUS
 62
     7
100
AcDbLine
 10
3.9907699617
 20
3.7783633258
 30
0.0
 11
4.0057699617
 21
3.7783633258
 31
0.0
  0
LINE
  5
FA
330
1F
100
AcDbEntity
  8
0
  6
CONTINUOUS
 62
     7
100
AcDbLine
 10
3.9907699617
 20
3.738993247
 30
0.0
 11
4.0057699617
 21
3.738993247
 31
0.0
  0
SPLINE
  5
FB
330
1F
100
AcDbEntity
  8
0
  6
CONTINUOUS
 62
     7
100
AcDbSpline
210
0.0
220
0.0
230
1.0
 70
     8
 71
     3
 72
     8
 73
     4
 74
     0
 42
0.00000001
 43
0.00000001
 40
0.0
 40
0.0
 40
0.0
 40
0.0
 40
1.0
 40
1.0
 40
1.0
 40
1.0
 10
3.713739355618513
 20
3.778363325762126
 30
0.0
 10
3.714622248340042
 20
3.765239966182073
 30
0.0
 10
3.714622248340042
 20
3.752116606602021
 30
0.0
 10
3.713739355618513
 20
3.738993247021968
 30
0.0
  0
LINE
  5
FC
330
1F
100
AcDbEntity
  8
0
  6
CONTINUOUS
 62
     7
100
AcDbLine
 10
3.6430009328
 20
3.7783633258
 30
0.0
 11
3.6430009328
 21
3.738993247
 31
0.0
  0
LINE
  5
FD
330
1F
100
AcDbEntity
  8
0
  6
CONTINUOUS
 62
     7
100
AcDbLine
 10
4.0057699617
 20
3.7783633258
 30
0.0
 11
4.0057699617
 21
3.738993247
 31
0.0
  0
LINE
  5
FE
330
1F
100
AcDbEntity
  8
0
  6
CONTINUOUS
 62
     7
100
AcDbLine
 10
3.8332896467
 20
4.3590719872
 30
0.0
 11
3.9432371165
 21
4.3590719872
 31
0.0
  0
LINE
  5
FF
330
1F
100
AcDbEntity
  8
0
  6
CONTINUOUS
 62
     7
100
AcDbLine
 10
3.7242977023
 20
4.3590719872
 30
0.0
 11
3.8332896467
 21
4.3590719872
 31
0.0
  0
CIRCLE
  5
100
330
1F
100
AcDbEntity
  8
0
  6
CONTINUOUS
 62
     7
100
AcDbCircle
 10
2.8199825601
 20
4.2994566924
 30
0.0
 40
0.0590551181102361
  0
LINE
  5
101
330
1F
100
AcDbEntity
  8
0
  6
CONTINUOUS
 62
     7
100
AcDbLine
 10
2.6625022451
 20
2.8925365541
 30
0.0
 11
2.6625022451
 21
4.6245962962
 31
0.0
  0
LINE
  5
102
330
1F
100
AcDbEntity
  8
0
  6
CONTINUOUS
 62
     7
100
AcDbLine
 10
2.6475022451
 20
4.6095923524
 30
0.0
 11
2.6475022451
 21
2.9075365541
 31
0.0
  0
LINE
  5
103
330
1F
100
AcDbEntity
  8
0
  6
CONTINUOUS
 62
     7
100
AcDbLine
 10
2.6625022451
 20
4.6245962962
 30
0.0
 11
2.6475022451
 21
4.6095923524
 31
0.0
  0
LINE
  5
104
330
1F
100
AcDbEntity
  8
0
  6
CONTINUOUS
 62
     7
100
AcDbLine
 10
3.2380534262
 20
4.6248200187
 30
0.0
 11
3.2380534262
 21
2.8925365541
 31
0.0
  0
SPLINE
  5
105
330
1F
100
AcDbEntity
  8
0
  6
CONTINUOUS
 62
     7
100
AcDbSpline
210
0.0
220
0.0
230
1.0
 70
     8
 71
     3
 72
    60
 73
    56
 74
     0
 42
0.00000001
 43
0.00000001
 40
-0.0312499999999999
 40
-0.0312499999999999
 40
0.0
 40
0.0
 40
0.0312500000000001
 40
0.0312500000000001
 40
0.0625000000000003
 40
0.0625000000000003
 40
0.0937500000000004
 40
0.0937500000000004
 40
0.1250000000000005
 40
0.1250000000000005
 40
0.1875000000000006
 40
0.1875000000000006
 40
0.2187500000000006
 40
0.2187500000000006
 40
0.2500000000000007
 40
0.2500000000000007
 40
0.2812500000000007
 40
0.2812500000000007
 40
0.3125000000000007
 40
0.3125000000000007
 40
0.3437500000000007
 40
0.3437500000000007
 40
0.3750000000000007
 40
0.3750000000000007
 40
0.4062500000000008
 40
0.4062500000000008
 40
0.4375000000000008
 40
0.4375000000000008
 40
0.4687500000000008
 40
0.4687500000000008
 40
0.5000000000000008
 40
0.5000000000000008
 40
0.5312500000000009
 40
0.5312500000000009
 40
0.5625000000000009
 40
0.5625000000000009
 40
0.593750000000001
 40
0.593750000000001
 40
0.625000000000001
 40
0.625000000000001
 40
0.7500000000000007
 40
0.7500000000000007
 40
0.7812500000000007
 40
0.7812500000000007
 40
0.8125000000000006
 40
0.8125000000000006
 40
0.8750000000000001
 40
0.8750000000000001
 40
0.9062500000000001
 40
0.9062500000000001
 40
0.9375000000000002
 40
0.9375000000000002
 40
0.9687500000000001
 40
0.9687500000000001
 40
1.0
 40
1.0
 40
1.03125
 40
1.03125
 10
2.825976157838749
 20
4.378196849836428
 30
0.0
 10
2.813988962316184
 20
4.378196849836428
 30
0.0
 10
2.808179806364943
 20
4.37752214225795
 30
0.0
 10
2.796890534211092
 20
4.374956876494705
 30
0.0
 10
2.791517469835038
 20
4.373073777612859
 30
0.0
 10
2.781643209072749
 20
4.368448219145609
 30
0.0
 10
2.777068338355196
 20
4.365670999369885
 30
0.0
 10
2.768893910967807
 20
4.359589169533529
 30
0.0
 10
2.765231208865467
 20
4.356255750866427
 30
0.0
 10
2.755336349286995
 20
4.345458912510698
 30
0.0
 10
2.750450365415467
 20
4.337528067392492
 30
0.0
 10
2.745283190894499
 20
4.32477570629042
 30
0.0
 10
2.743931396370645
 20
4.320359692567237
 30
0.0
 10
2.742029871223636
 20
4.311460575871284
 30
0.0
 10
2.741465704986636
 20
4.306947352244801
 30
0.0
 10
2.741126819445581
 20
4.297789752549418
 30
0.0
 10
2.74135892771052
 20
4.293105872031005
 30
0.0
 10
2.742668702293924
 20
4.283817770398362
 30
0.0
 10
2.743736446455784
 20
4.279223817746946
 30
0.0
 10
2.746742157369086
 20
4.270153408095212
 30
0.0
 10
2.74867880493118
 20
4.265676628243272
 30
0.0
 10
2.753557185966093
 20
4.256877496689763
 30
0.0
 10
2.756485347644059
 20
4.25260201044066
 30
0.0
 10
2.763225740324619
 20
4.244630415665511
 30
0.0
 10
2.767095231422628
 20
4.240862934445063
 30
0.0
 10
2.775759953515538
 20
4.234075815432868
 30
0.0
 10
2.780458123582676
 20
4.231120353262049
 30
0.0
 10
2.790636364414749
 20
4.226170696960436
 30
0.0
 10
2.796208822567362
 20
4.224164533182856
 30
0.0
 10
2.807573317157232
 20
4.221481628917108
 30
0.0
 10
2.813414017313188
 20
4.220762655369181
 30
0.0
 10
2.825394480677898
 20
4.220674661874781
 30
0.0
 10
2.831256669585148
 20
4.221306357249331
 30
0.0
 10
2.842737772216939
 20
4.223847296491702
 30
0.0
 10
2.848317080404526
 20
4.225769992159122
 30
0.0
 10
2.858645455389616
 20
4.230625337915222
 30
0.0
 10
2.863515618083704
 20
4.233615303089768
 30
0.0
 10
2.87223991264225
 20
4.240301094287825
 30
0.0
 10
2.876155925695878
 20
4.244025542481457
 30
0.0
 10
2.893448207100956
 20
4.264079258754067
 30
0.0
 10
2.899285888179632
 20
4.283655140089097
 30
0.0
 10
2.898528577396881
 20
4.306647239599857
 30
0.0
 10
2.897978804764558
 20
4.311183065179349
 30
0.0
 10
2.896097085887869
 20
4.320132788833343
 30
0.0
 10
2.894751965034581
 20
4.324568126020919
 30
0.0
 10
2.889620259490346
 20
4.337334729445659
 30
0.0
 10
2.88476881017712
 20
4.345269232878227
 30
0.0
 10
2.874864463643755
 20
4.356131181579443
 30
0.0
 10
2.871195789098583
 20
4.359484660327452
 30
0.0
 10
2.863003160826274
 20
4.365603345156909
 30
0.0
 10
2.858416484551194
 20
4.368396060071237
 30
0.0
 10
2.848537195130973
 20
4.373039542181152
 30
0.0
 10
2.843174589161886
 20
4.374928555144651
 30
0.0
 10
2.831828444586545
 20
4.377517869044798
 30
0.0
 10
2.825976157838749
 20
4.378196849836428
 30
0.0
 10
2.813988962316184
 20
4.378196849836428
 30
0.0
  0
LINE
  5
106
330
1F
100
AcDbEntity
  8
0
  6
CONTINUOUS
 62
     7
100
AcDbLine
 10
2.6625022451
 20
4.6245962962
 30
0.0
 11
3.010271274
 21
4.6245962962
 31
0.0
  0
LINE
  5
107
330
1F
100
AcDbEntity
  8
0
  6
CONTINUOUS
 62
     7
100
AcDbLine
 10
3.010271274
 20
3.3797412785
 30
0.0
 11
3.0627647123
 21
3.3797412785
 31
0.0
  0
LINE
  5
108
330
1F
100
AcDbEntity
  8
0
  6
CONTINUOUS
 62
     7
100
AcDbLine
 10
3.010271274
 20
4.6245962962
 30
0.0
 11
3.010271274
 21
3.3797412785
 31
0.0
  0
LINE
  5
109
330
1F
100
AcDbEntity
  8
0
  6
CONTINUOUS
 62
     7
100
AcDbLine
 10
3.0627647123
 20
3.3797412785
 30
0.0
 11
3.0627647123
 21
4.6248200187
 31
0.0
  0
LINE
  5
10A
330
1F
100
AcDbEntity
  8
0
  6
CONTINUOUS
 62
     7
100
AcDbLine
 10
3.3561636624
 20
3.8804732536
 30
0.0
 11
3.2971085443
 21
3.8804732536
 31
0.0
  0
LINE
  5
10B
330
1F
100
AcDbEntity
  8
0
  6
CONTINUOUS
 62
     7
100
AcDbLine
 10
3.3561636624
 20
3.6368833192
 30
0.0
 11
3.2971085443
 21
3.6368833192
 31
0.0
  0
LINE
  5
10C
330
1F
100
AcDbEntity
  8
0
  6
CONTINUOUS
 62
     7
100
AcDbLine
 10
3.2971085443
 20
3.8804732536
 30
0.0
 11
3.2971085443
 21
3.6368833192
 31
0.0
  0
LINE
  5
10D
330
1F
100
AcDbEntity
  8
0
  6
CONTINUOUS
 62
     7
100
AcDbLine
 10
3.3561636624
 20
3.8804732536
 30
0.0
 11
3.3561636624
 21
3.6368833192
 31
0.0
  0
LINE
  5
10E
330
1F
100
AcDbEntity
  8
0
  6
CONTINUOUS
 62
     7
100
AcDbLine
 10
3.3561636624
 20
2.9774345003
 30
0.0
 11
3.2971085443
 21
2.9774345003
 31
0.0
  0
LINE
  5
10F
330
1F
100
AcDbEntity
  8
0
  6
CONTINUOUS
 62
     7
100
AcDbLine
 10
3.2971085443
 20
3.6368833192
 30
0.0
 11
3.2971085443
 21
2.9774345003
 31
0.0
  0
LINE
  5
110
330
1F
100
AcDbEntity
  8
0
  6
CONTINUOUS
 62
     7
100
AcDbLine
 10
3.3561636624
 20
3.6368833192
 30
0.0
 11
3.3561636624
 21
2.9774345003
 31
0.0
  0
LINE
  5
111
330
1F
100
AcDbEntity
  8
0
  6
CONTINUOUS
 62
     7
100
AcDbLine
 10
3.3561636624
 20
4.5399220725
 30
0.0
 11
3.2971085443
 21
4.5399220725
 31
0.0
  0
LINE
  5
112
330
1F
100
AcDbEntity
  8
0
  6
CONTINUOUS
 62
     7
100
AcDbLine
 10
3.2971085443
 20
4.5399220725
 30
0.0
 11
3.2971085443
 21
3.8804732536
 31
0.0
  0
LINE
  5
113
330
1F
100
AcDbEntity
  8
0
  6
CONTINUOUS
 62
     7
100
AcDbLine
 10
3.3561636624
 20
4.5399220725
 30
0.0
 11
3.3561636624
 21
3.8804732536
 31
0.0
  0
LINE
  5
114
330
1F
100
AcDbEntity
  8
0
  6
CONTINUOUS
 62
     7
100
AcDbLine
 10
3.2971085443
 20
4.5903711998
 30
0.0
 11
3.2971085443
 21
4.5399220725
 31
0.0
  0
LINE
  5
115
330
1F
100
AcDbEntity
  8
0
  6
CONTINUOUS
 62
     7
100
AcDbLine
 10
3.3561636624
 20
4.5903711998
 30
0.0
 11
3.3561636624
 21
4.5399220725
 31
0.0
  0
LINE
  5
116
330
1F
100
AcDbEntity
  8
0
  6
CONTINUOUS
 62
     7
100
AcDbLine
 10
3.2971085443
 20
2.9774345003
 30
0.0
 11
3.2971085443
 21
2.926985373
 31
0.0
  0
LINE
  5
117
330
1F
100
AcDbEntity
  8
0
  6
CONTINUOUS
 62
     7
100
AcDbLine
 10
3.3561636624
 20
2.9774345003
 30
0.0
 11
3.3561636624
 21
2.926985373
 31
0.0
  0
LINE
  5
118
330
1F
100
AcDbEntity
  8
0
  6
CONTINUOUS
 62
     8
100
AcDbLine
 10
3.8332896467
 20
4.3393869478
 30
0.0
 11
3.7406759508
 21
4.3393869478
 31
0.0
  0
LINE
  5
119
330
1F
100
AcDbEntity
  8
0
  6
CONTINUOUS
 62
     8
100
AcDbLine
 10
3.9260496479
 20
4.3393869478
 30
0.0
 11
3.8332896467
 21
4.3393869478
 31
0.0
  0
LINE
  5
11A
330
1F
100
AcDbEntity
  8
0
  6
HIDDEN
 62
     7
100
AcDbLine
 10
3.9907699617
 20
3.7783633258
 30
0.0
 11
3.9907699617
 21
3.738993247
 31
0.0
  0
LINE
  5
11B
330
1F
100
AcDbEntity
  8
0
  6
HIDDEN
 62
     7
100
AcDbLine
 10
3.8332896467
 20
4.2015916722
 30
0.0
 11
3.9710849223
 21
4.2015916722
 31
0.0
  0
LINE
  5
11C
330
1F
100
AcDbEntity
  8
0
  6
HIDDEN
 62
     7
100
AcDbLine
 10
3.6954943711
 20
4.2015916722
 30
0.0
 11
3.8332896467
 21
4.2015916722
 31
0.0
  0
LINE
  5
11D
330
1F
100
AcDbEntity
  8
0
  6
HIDDEN
 62
     7
100
AcDbLine
 10
3.9432371165
 20
4.3590719872
 30
0.0
 11
3.9513998829
 21
4.3590719872
 31
0.0
  0
LINE
  5
11E
330
1F
100
AcDbEntity
  8
0
  6
HIDDEN
 62
     7
100
AcDbLine
 10
3.7151794105
 20
4.3590719872
 30
0.0
 11
3.7242977023
 21
4.3590719872
 31
0.0
  0
LINE
  5
11F
330
1F
100
AcDbEntity
  8
0
  6
HIDDEN
 62
     7
100
AcDbLine
 10
3.9120298042
 20
3.2370247431
 30
0.0
 11
3.7545494892
 21
3.2370247431
 31
0.0
  0
LINE
  5
120
330
1F
100
AcDbEntity
  8
0
  6
HIDDEN
 62
     7
100
AcDbLine
 10
3.8923447648
 20
3.2173397037
 30
0.0
 11
3.7742345286
 21
3.2173397037
 31
0.0
  0
LINE
  5
121
330
1F
100
AcDbEntity
  8
0
  6
HIDDEN
 62
     7
100
AcDbLine
 10
3.8332896467
 20
4.2015916722
 30
0.0
 11
3.8332896467
 21
4.3590719872
 31
0.0
  0
LINE
  5
122
330
1F
100
AcDbEntity
  8
0
  6
HIDDEN
 62
     7
100
AcDbLine
 10
3.7742345286
 20
4.2015916722
 30
0.0
 11
3.7742345286
 21
4.3590719872
 31
0.0
  0
LINE
  5
123
330
1F
100
AcDbEntity
  8
0
  6
HIDDEN
 62
     7
100
AcDbLine
 10
3.8923447648
 20
4.2015916722
 30
0.0
 11
3.8923447648
 21
4.3590719872
 31
0.0
  0
LINE
  5
124
330
1F
100
AcDbEntity
  8
0
  6
HIDDEN
 62
     7
100
AcDbLine
 10
2.8987227176
 20
4.2994566924
 30
0.0
 11
2.8987044402
 21
4.3011531579
 31
0.0
  0
ARC
  5
125
330
1F
100
AcDbEntity
  8
0
  6
HIDDEN
 62
     7
100
AcDbCircle
 10
2.8199825601
 20
4.2994566924
 30
0.0
 40
0.0787401574803158
100
AcDbArc
 50
89.0844447943
 51
105.9939262989
  0
LINE
  5
126
330
1F
100
AcDbEntity
  8
0
  6
HIDDEN
 62
     7
100
AcDbLine
 10
2.8199825601
 20
4.2312657157
 30
0.0
 11
2.8790376782
 21
4.265361204
 31
0.0
  0
LINE
  5
127
330
1F
100
AcDbEntity
  8
0
  6
HIDDEN
 62
     7
100
AcDbLine
 10
2.760927442
 20
4.265361204
 30
0.0
 11
2.8199825601
 21
4.2312657157
 31
0.0
  0
LINE
  5
128
330
1F
100
AcDbEntity
  8
0
  6
HIDDEN
 62
     7
100
AcDbLine
 10
2.760927442
 20
4.3335521807
 30
0.0
 11
2.760927442
 21
4.265361204
 31
0.0
  0
LINE
  5
129
330
1F
100
AcDbEntity
  8
0
  6
HIDDEN
 62
     7
100
AcDbLine
 10
2.8790376782
 20
4.265361204
 30
0.0
 11
2.8790376782
 21
4.3335521807
 31
0.0
  0
LINE
  5
12A
330
1F
100
AcDbEntity
  8
0
  6
HIDDEN
 62
     7
100
AcDbLine
 10
2.8790376782
 20
4.3335521807
 30
0.0
 11
2.8199825601
 21
4.367647669
 31
0.0
  0
LINE
  5
12B
330
1F
100
AcDbEntity
  8
0
  6
HIDDEN
 62
     7
100
AcDbLine
 10
2.8199825601
 20
4.367647669
 30
0.0
 11
2.760927442
 21
4.3335521807
 31
0.0
  0
CIRCLE
  5
12C
330
1F
100
AcDbEntity
  8
0
  6
HIDDEN
 62
     7
100
AcDbCircle
 10
2.8199825601
 20
4.2994566924
 30
0.0
 40
0.1377952755905509
  0
CIRCLE
  5
12D
330
1F
100
AcDbEntity
  8
0
  6
HIDDEN
 62
     7
100
AcDbCircle
 10
2.8199825601
 20
4.2994566924
 30
0.0
 40
0.1181102362204731
  0
LINE
  5
12E
330
1F
100
AcDbEntity
  8
0
  6
HIDDEN
 62
     7
100
AcDbLine
 10
2.6625022451
 20
3.5430394842
 30
0.0
 11
2.9395328512
 21
3.5430394842
 31
0.0
  0
LINE
  5
12F
330
1F
100
AcDbEntity
  8
0
  6
HIDDEN
 62
     7
100
AcDbLine
 10
3.010271274
 20
3.9743170886
 30
0.0
 11
2.6625022451
 21
3.9743170886
 31
0.0
  0
LINE
  5
130
330
1F
100
AcDbEntity
  8
0
  6
HIDDEN
 62
     7
100
AcDbLine
 10
3.3561636624
 20
4.5399220725
 30
0.0
 11
3.2971085443
 21
4.5399220725
 31
0.0
  0
LINE
  5
131
330
1F
100
AcDbEntity
  8
0
  6
HIDDEN
 62
     7
100
AcDbLine
 10
3.3561636624
 20
2.9774345003
 30
0.0
 11
3.2971085443
 21
2.9774345003
 31
0.0
  0
ARC
  5
132
330
1F
100
AcDbEntity
  8
0
  6
HIDDEN
 62
     7
100
AcDbCircle
 10
2.6475022451
 20
3.7582591242
 30
0.0
 40
0.3627690288713921
100
AcDbArc
 50
270.0
 51
323.6106647116
  0
LINE
  5
133
330
1F
100
AcDbEntity
  8
0
  6
HIDDEN
 62
     7
100
AcDbLine
 10
2.6625022451
 20
3.5430394842
 30
0.0
 11
2.6475022451
 21
3.5279811776
 31
0.0
  0
LINE
  5
134
330
1F
100
AcDbEntity
  8
0
  6
HIDDEN
 62
     7
100
AcDbLine
 10
2.6475022451
 20
3.9893753952
 30
0.0
 11
2.6625022451
 21
3.9743170886
 31
0.0
  0
LINE
  5
135
330
1F
100
AcDbEntity
  8
0
  6
HIDDEN
 62
     7
100
AcDbLine
 10
3.3561636624
 20
3.6368833192
 30
0.0
 11
3.2971085443
 21
3.6368833192
 31
0.0
  0
LINE
  5
136
330
1F
100
AcDbEntity
  8
0
  6
HIDDEN
 62
     7
100
AcDbLine
 10
3.3561636624
 20
3.8804732536
 30
0.0
 11
3.2971085443
 21
3.8804732536
 31
0.0
  0
LINE
  5
137
330
1F
100
AcDbEntity
  8
0
  6
HIDDEN
 62
     7
100
AcDbLine
 10
3.9710849223
 20
4.2015916722
 30
0.0
 11
3.9710849223
 21
4.4351281956
 31
0.0
  0
LINE
  5
138
330
1F
100
AcDbEntity
  8
0
  6
HIDDEN
 62
     7
100
AcDbLine
 10
3.6954943711
 20
4.4351230737
 30
0.0
 11
3.6954943711
 21
4.2015916722
 31
0.0
  0
LINE
  5
139
330
1F
100
AcDbEntity
  8
0
  6
HIDDEN
 62
     7
100
AcDbLine
 10
3.7545494892
 20
4.2015916722
 30
0.0
 11
3.7545494892
 21
3.7783633258
 31
0.0
  0
LINE
  5
13A
330
1F
100
AcDbEntity
  8
0
  6
HIDDEN
 62
     7
100
AcDbLine
 10
3.9120298042
 20
3.7783633258
 30
0.0
 11
3.9120298042
 21
4.2015916722
 31
0.0
  0
LINE
  5
13B
330
1F
100
AcDbEntity
  8
0
  6
HIDDEN
 62
     7
100
AcDbLine
 10
3.7545494892
 20
3.738993247
 30
0.0
 11
3.7545494892
 21
3.0821669674
 31
0.0
  0
LINE
  5
13C
330
1F
100
AcDbEntity
  8
0
  6
HIDDEN
 62
     7
100
AcDbLine
 10
3.9120298042
 20
3.0821717971
 30
0.0
 11
3.9120298042
 21
3.738993247
 31
0.0
  0
LINE
  5
13D
330
1F
100
AcDbEntity
  8
0
  6
HIDDEN
 62
     7
100
AcDbLine
 10
4.0057699617
 20
3.9902137195
 30
0.0
 11
3.9907699617
 21
3.9752137195
 31
0.0
  0
LINE
  5
13E
330
1F
100
AcDbEntity
  8
0
  6
HIDDEN
 62
     7
100
AcDbLine
 10
3.9907699617
 20
3.5421428533
 30
0.0
 11
4.0057699617
 21
3.5271428533
 31
0.0
  0
LINE
  5
13F
330
1F
100
AcDbEntity
  8
0
  6
HIDDEN
 62
     7
100
AcDbLine
 10
3.5905074945
 20
3.9752137195
 30
0.0
 11
3.4152187805
 21
3.9752137195
 31
0.0
  0
LINE
  5
140
330
1F
100
AcDbEntity
  8
0
  6
HIDDEN
 62
     7
100
AcDbLine
 10
3.4152187805
 20
3.5421428533
 30
0.0
 11
3.5905074945
 21
3.5421428533
 31
0.0
  0
LINE
  5
141
330
1F
100
AcDbEntity
  8
0
  6
HIDDEN
 62
     7
100
AcDbLine
 10
3.9907699617
 20
3.9752137195
 30
0.0
 11
3.6430009328
 21
3.9752137195
 31
0.0
  0
LINE
  5
142
330
1F
100
AcDbEntity
  8
0
  6
HIDDEN
 62
     7
100
AcDbLine
 10
3.6430009328
 20
3.5421428533
 30
0.0
 11
3.9907699617
 21
3.5421428533
 31
0.0
  0
ARC
  5
143
330
1F
100
AcDbEntity
  8
0
  6
HIDDEN
 62
     7
100
AcDbCircle
 10
3.7151794105
 20
4.3393869478
 30
0.0
 40
0.0196850393700787
100
AcDbArc
 50
90.0
 51
180.0
  0
ARC
  5
144
330
1F
100
AcDbEntity
  8
0
  6
HIDDEN
 62
     7
100
AcDbCircle
 10
3.9513998829
 20
4.3393869478
 30
0.0
 40
0.0196850393700787
100
AcDbArc
 50
0.0
 51
90.0
  0
LINE
  5
145
330
1F
100
AcDbEntity
  8
0
  6
HIDDEN
 62
     7
100
AcDbLine
 10
3.9710849223
 20
4.2015916722
 30
0.0
 11
3.9710849223
 21
4.3393869478
 31
0.0
  0
LINE
  5
146
330
1F
100
AcDbEntity
  8
0
  6
HIDDEN
 62
     7
100
AcDbLine
 10
3.6954943711
 20
4.3393869478
 30
0.0
 11
3.6954943711
 21
4.2015916722
 31
0.0
  0
LINE
  5
147
330
1F
100
AcDbEntity
  8
0
  6
HIDDEN
 62
     7
100
AcDbLine
 10
3.7545494892
 20
4.2015916722
 30
0.0
 11
3.7545494892
 21
3.7783633258
 31
0.0
  0
LINE
  5
148
330
1F
100
AcDbEntity
  8
0
  6
HIDDEN
 62
     7
100
AcDbLine
 10
3.7545494892
 20
3.738993247
 30
0.0
 11
3.7545494892
 21
3.2370247431
 31
0.0
  0
LINE
  5
149
330
1F
100
AcDbEntity
  8
0
  6
HIDDEN
 62
     7
100
AcDbLine
 10
3.9120298042
 20
3.2370247431
 30
0.0
 11
3.9120298042
 21
3.738993247
 31
0.0
  0
LINE
  5
14A
330
1F
100
AcDbEntity
  8
0
  6
HIDDEN
 62
     7
100
AcDbLine
 10
3.9120298042
 20
3.7783633258
 30
0.0
 11
3.9120298042
 21
4.2015916722
 31
0.0
  0
ARC
  5
14B
330
1F
100
AcDbEntity
  8
0
  6
HIDDEN
 62
     7
100
AcDbCircle
 10
3.8923447648
 20
3.2370247431
 30
0.0
 40
0.0196850393700791
100
AcDbArc
 50
270.0
 51
0.0
  0
ARC
  5
14C
330
1F
100
AcDbEntity
  8
0
  6
HIDDEN
 62
     7
100
AcDbCircle
 10
3.7742345286
 20
3.2370247431
 30
0.0
 40
0.0196850393700787
100
AcDbArc
 50
180.0
 51
270.0
  0
LINE
  5
14D
330
1F
100
AcDbEntity
  8
0
  6
HIDDEN
 62
     7
100
AcDbLine
 10
3.3561636624
 20
4.0539538769
 30
0.0
 11
3.2971085443
 21
4.0539538769
 31
0.0
  0
LINE
  5
14E
330
1F
100
AcDbEntity
  8
0
  6
HIDDEN
 62
     7
100
AcDbLine
 10
3.2971085443
 20
3.4634026958
 30
0.0
 11
3.3561636624
 21
3.4634026958
 31
0.0
  0
LINE
  5
14F
330
1F
100
AcDbEntity
  8
0
  6
HIDDEN
 62
     7
100
AcDbLine
 10
3.0627647123
 20
3.5421428533
 30
0.0
 11
3.2380534262
 21
3.5421428533
 31
0.0
  0
LINE
  5
150
330
1F
100
AcDbEntity
  8
0
  6
HIDDEN
 62
     7
100
AcDbLine
 10
3.2380534262
 20
3.9752137195
 30
0.0
 11
3.0627647123
 21
3.9752137195
 31
0.0
  0
LINE
  5
151
330
1F
100
AcDbEntity
  8
0
  6
HIDDEN
 62
     7
100
AcDbLine
 10
2.9388741761
 20
3.5421428533
 30
0.0
 11
3.010271274
 21
3.5421428533
 31
0.0
  0
LINE
  5
152
330
1F
100
AcDbEntity
  8
0
  6
HIDDEN
 62
     7
100
AcDbLine
 10
3.9710244076
 20
4.3393869478
 30
0.0
 11
3.6955548858
 21
4.3393869478
 31
0.0
  0
ARC
  5
153
330
1F
100
AcDbEntity
  8
0
  6
CONTINUOUS
 62
     7
100
AcDbCircle
 10
7.5919959641
 20
4.3393869478
 30
0.0
 40
0.0196850393700787
100
AcDbArc
 50
90.0
 51
180.0
  0
LINE
  5
154
330
1F
100
AcDbEntity
  8
0
  6
CONTINUOUS
 62
     7
100
AcDbLine
 10
7.5723109248
 20
4.3393869478
 30
0.0
 11
7.5723109248
 21
4.2969526208
 31
0.0
  0
LINE
  5
155
330
1F
100
AcDbEntity
  8
0
  6
CONTINUOUS
 62
     7
100
AcDbLine
 10
7.6313660429
 20
3.7783633258
 30
0.0
 11
7.6313660429
 21
3.738993247
 31
0.0
  0
LINE
  5
156
330
1F
100
AcDbEntity
  8
0
  6
CONTINUOUS
 62
     7
100
AcDbLine
 10
7.7888463578
 20
3.738993247
 30
0.0
 11
7.7888463578
 21
3.7783633258
 31
0.0
  0
ARC
  5
157
330
1F
100
AcDbEntity
  8
0
  6
CONTINUOUS
 62
     7
100
AcDbCircle
 10
8.8315932677
 20
4.4175669286
 30
0.0
 40
0.0196850393700796
100
AcDbArc
 50
0.0
 51
90.0
  0
LINE
  5
158
330
1F
100
AcDbEntity
  8
0
  6
CONTINUOUS
 62
     7
100
AcDbLine
 10
8.8315932677
 20
4.4372519679
 30
0.0
 11
8.7891589408
 21
4.4372519679
 31
0.0
  0
LINE
  5
159
330
1F
100
AcDbEntity
  8
0
  6
CONTINUOUS
 62
     7
100
AcDbLine
 10
8.6140727973
 20
3.7783633258
 30
0.0
 11
8.6140727973
 21
3.738993247
 31
0.0
  0
LINE
  5
15A
330
1F
100
AcDbEntity
  8
0
  6
CONTINUOUS
 62
     7
100
AcDbLine
 10
8.6140727973
 20
3.7783633258
 30
0.0
 11
8.4815817151
 21
3.7783633258
 31
0.0
  0
ARC
  5
15B
330
1F
100
AcDbEntity
  8
0
  6
CONTINUOUS
 62
     7
100
AcDbCircle
 10
8.2508846063
 20
3.7586782864
 30
0.0
 40
0.2315354330708665
100
AcDbArc
 50
4.8771493302
 51
175.1228506698
  0
LINE
  5
15C
330
1F
100
AcDbEntity
  8
0
  6
CONTINUOUS
 62
     7
100
AcDbLine
 10
7.3999705404
 20
3.7783633258
 30
0.0
 11
8.0201874976
 21
3.7783633258
 31
0.0
  0
ARC
  5
15D
330
1F
100
AcDbEntity
  8
0
  6
CONTINUOUS
 62
     7
100
AcDbCircle
 10
8.2508846063
 20
3.7586782864
 30
0.0
 40
0.8511417322834635
100
AcDbArc
 50
181.3252437351
 51
178.6747562649
  0
LINE
  5
15E
330
1F
100
AcDbEntity
  8
0
  6
CONTINUOUS
 62
     7
100
AcDbLine
 10
7.3999705404
 20
3.738993247
 30
0.0
 11
8.0201874976
 21
3.738993247
 31
0.0
  0
ARC
  5
15F
330
1F
100
AcDbEntity
  8
0
  6
CONTINUOUS
 62
     7
100
AcDbCircle
 10
8.2508846063
 20
3.7586782864
 30
0.0
 40
0.2315354330708665
100
AcDbArc
 50
184.8771493302
 51
355.1228506698
  0
LINE
  5
160
330
1F
100
AcDbEntity
  8
0
  6
CONTINUOUS
 62
     7
100
AcDbLine
 10
8.4815817151
 20
3.738993247
 30
0.0
 11
8.6140727973
 21
3.738993247
 31
0.0
  0
LINE
  5
161
330
1F
100
AcDbEntity
  8
0
  6
CONTINUOUS
 62
     7
100
AcDbLine
 10
7.3849665966
 20
3.7783633258
 30
0.0
 11
7.3999705404
 21
3.7783633258
 31
0.0
  0
ARC
  5
162
330
1F
100
AcDbEntity
  8
0
  6
CONTINUOUS
 62
     7
100
AcDbCircle
 10
8.2508846063
 20
3.7586782864
 30
0.0
 40
0.8661417322834642
100
AcDbArc
 50
181.3022889352
 51
178.6977110648
  0
LINE
  5
163
330
1F
100
AcDbEntity
  8
0
  6
CONTINUOUS
 62
     7
100
AcDbLine
 10
7.3849665966
 20
3.738993247
 30
0.0
 11
7.3999705404
 21
3.738993247
 31
0.0
  0
SPLINE
  5
164
330
1F
100
AcDbEntity
  8
0
  6
CONTINUOUS
 62
     7
100
AcDbSpline
210
0.0
220
0.0
230
1.0
 70
     8
 71
     3
 72
     8
 73
     4
 74
     0
 42
0.00000001
 43
0.00000001
 40
0.0
 40
0.0
 40
0.0
 40
0.0
 40
1.0
 40
1.0
 40
1.0
 40
1.0
 10
8.466523408491378
 20
3.778363325762126
 30
0.0
 10
8.467721401836753
 20
3.765239966182073
 30
0.0
 10
8.467721401836753
 20
3.752116606602021
 30
0.0
 10
8.466523408491378
 20
3.738993247021968
 30
0.0
  0
LINE
  5
165
330
1F
100
AcDbEntity
  8
0
  6
CONTINUOUS
 62
     7
100
AcDbLine
 10
8.0201874976
 20
3.7783633258
 30
0.0
 11
8.0352458042
 21
3.7783633258
 31
0.0
  0
ARC
  5
166
330
1F
100
AcDbEntity
  8
0
  6
CONTINUOUS
 62
     7
100
AcDbCircle
 10
8.2508846063
 20
3.7586782864
 30
0.0
 40
0.2165354330708666
100
AcDbArc
 50
5.2159085705
 51
174.7840914295
  0
LINE
  5
167
330
1F
100
AcDbEntity
  8
0
  6
CONTINUOUS
 62
     7
100
AcDbLine
 10
8.4665234085
 20
3.7783633258
 30
0.0
 11
8.4815817151
 21
3.7783633258
 31
0.0
  0
LINE
  5
168
330
1F
100
AcDbEntity
  8
0
  6
CONTINUOUS
 62
     7
100
AcDbLine
 10
8.0201874976
 20
3.738993247
 30
0.0
 11
8.0352458042
 21
3.738993247
 31
0.0
  0
ARC
  5
169
330
1F
100
AcDbEntity
  8
0
  6
CONTINUOUS
 62
     7
100
AcDbCircle
 10
8.2508846063
 20
3.7586782864
 30
0.0
 40
0.2165354330708666
100
AcDbArc
 50
185.2159085705
 51
354.7840914295
  0
LINE
  5
16A
330
1F
100
AcDbEntity
  8
0
  6
CONTINUOUS
 62
     7
100
AcDbLine
 10
8.4665234085
 20
3.738993247
 30
0.0
 11
8.4815817151
 21
3.738993247
 31
0.0
  0
LINE
  5
16B
330
1F
100
AcDbEntity
  8
0
  6
CONTINUOUS
 62
     7
100
AcDbLine
 10
8.0343491733
 20
3.7586782864
 30
0.0
 11
8.0352458042
 21
3.738993247
 31
0.0
  0
POLYLINE
  5
16C
330
1F
100
AcDbEntity
  8
0
  6
CONTINUOUS
 62
     7
100
AcDb2dPolyline
 66
     1
 10
0.0
 20
0.0
 30
0.0
  0
VERTEX
  5
29F
330
16C
100
AcDbEntity
  8
0
  6
CONTINUOUS
 62
     7
100
AcDbVertex
100
AcDb2dVertex
 10
8.4665234085
 20
3.738993247
 30
0.0
  0
VERTEX
  5
2A0
330
16C
100
AcDbEntity
  8
0
  6
CONTINUOUS
 62
     7
100
AcDbVertex
100
AcDb2dVertex
 10
8.4674200394
 20
3.7586782864
 30
0.0
  0
VERTEX
  5
2A1
330
16C
100
AcDbEntity
  8
0
  6
CONTINUOUS
 62
     7
100
AcDbVertex
100
AcDb2dVertex
 10
8.4672222016
 20
3.7679324018
 30
0.0
  0
SEQEND
  5
2A2
330
16C
100
AcDbEntity
  8
0
  6
CONTINUOUS
 62
     7
  0
LINE
  5
16D
330
1F
100
AcDbEntity
  8
0
  6
CONTINUOUS
 62
     7
100
AcDbLine
 10
8.4669771235
 20
3.7725208946
 30
0.0
 11
8.4665234085
 21
3.7783633258
 31
0.0
  0
LINE
  5
16E
330
1F
100
AcDbEntity
  8
0
  6
CONTINUOUS
 62
     7
100
AcDbLine
 10
8.0352458042
 20
3.7783633258
 30
0.0
 11
8.0343491733
 21
3.7586782864
 31
0.0
  0
POLYLINE
  5
16F
330
1F
100
AcDbEntity
  8
0
  6
CONTINUOUS
 62
     7
100
AcDb2dPolyline
 66
     1
 10
0.0
 20
0.0
 30
0.0
  0
VERTEX
  5
2A3
330
16F
100
AcDbEntity
  8
0
  6
CONTINUOUS
 62
     7
100
AcDbVertex
100
AcDb2dVertex
 10
7.3849665966
 20
3.738993247
 30
0.0
  0
VERTEX
  5
2A4
330
16F
100
AcDbEntity
  8
0
  6
CONTINUOUS
 62
     7
100
AcDbVertex
100
AcDb2dVertex
 10
7.384742874
 20
3.7586782864
 30
0.0
  0
VERTEX
  5
2A5
330
16F
100
AcDbEntity
  8
0
  6
CONTINUOUS
 62
     7
100
AcDbVertex
100
AcDb2dVertex
 10
7.3849665966
 20
3.7783633258
 30
0.0
  0
SEQEND
  5
2A6
330
16F
100
AcDbEntity
  8
0
  6
CONTINUOUS
 62
     7
  0
LINE
  5
170
330
1F
100
AcDbEntity
  8
0
  6
CONTINUOUS
 62
     7
100
AcDbLine
 10
7.5919959641
 20
4.3590719872
 30
0.0
 11
7.6266018944
 21
4.3590719872
 31
0.0
  0
LINE
  5
171
330
1F
100
AcDbEntity
  8
0
  6
CONTINUOUS
 62
     7
100
AcDbLine
 10
8.8512783071
 20
4.3829609984
 30
0.0
 11
8.8512783071
 21
4.4175669286
 31
0.0
  0
LINE
  5
172
330
1F
100
AcDbEntity
  8
0
  6
CONTINUOUS
 62
     8
100
AcDbLine
 10
7.6082502227
 20
4.3393869478
 30
0.0
 11
7.5723109248
 21
4.3393869478
 31
0.0
  0
LINE
  5
173
330
1F
100
AcDbEntity
  8
0
  6
CONTINUOUS
 62
     8
100
AcDbLine
 10
8.8315932677
 20
4.4372519679
 30
0.0
 11
8.8315932677
 21
4.40131267
 31
0.0
  0
LINE
  5
174
330
1F
100
AcDbEntity
  8
0
  6
HIDDEN
 62
     7
100
AcDbLine
 10
7.5723109248
 20
4.2015916722
 30
0.0
 11
7.847901476
 21
4.2015916722
 31
0.0
  0
LINE
  5
175
330
1F
100
AcDbEntity
  8
0
  6
HIDDEN
 62
     7
100
AcDbLine
 10
8.6298216142
 20
2.9798276945
 30
0.0
 11
8.6298216142
 21
4.5375288783
 31
0.0
  0
LINE
  5
176
330
1F
100
AcDbEntity
  8
0
  6
HIDDEN
 62
     7
100
AcDbLine
 10
7.6266018944
 20
4.3590719872
 30
0.0
 11
7.828216436
 21
4.3590719872
 31
0.0
  0
LINE
  5
177
330
1F
100
AcDbEntity
  8
0
  6
HIDDEN
 62
     7
100
AcDbLine
 10
7.7888463578
 20
3.2370247431
 30
0.0
 11
7.6313660429
 21
3.2370247431
 31
0.0
  0
LINE
  5
178
330
1F
100
AcDbEntity
  8
0
  6
HIDDEN
 62
     7
100
AcDbLine
 10
7.7691613185
 20
3.2173397037
 30
0.0
 11
7.6510510822
 21
3.2173397037
 31
0.0
  0
LINE
  5
179
330
1F
100
AcDbEntity
  8
0
  6
HIDDEN
 62
     7
100
AcDbLine
 10
7.7442016887
 20
4.2015916722
 30
0.0
 11
7.7442016887
 21
4.3590719872
 31
0.0
  0
LINE
  5
17A
330
1F
100
AcDbEntity
  8
0
  6
HIDDEN
 62
     7
100
AcDbLine
 10
7.676010712
 20
4.2015916722
 30
0.0
 11
7.676010712
 21
4.3590719872
 31
0.0
  0
LINE
  5
17B
330
1F
100
AcDbEntity
  8
0
  6
HIDDEN
 62
     7
100
AcDbLine
 10
7.778297177
 20
4.2015916722
 30
0.0
 11
7.778297177
 21
4.3590719872
 31
0.0
  0
LINE
  5
17C
330
1F
100
AcDbEntity
  8
0
  6
HIDDEN
 62
     7
100
AcDbLine
 10
7.6419152237
 20
4.2015916722
 30
0.0
 11
7.6419152237
 21
4.3590719872
 31
0.0
  0
LINE
  5
17D
330
1F
100
AcDbEntity
  8
0
  6
HIDDEN
 62
     7
100
AcDbLine
 10
8.8512783071
 20
4.1813464567
 30
0.0
 11
8.8512783071
 21
4.3829609984
 31
0.0
  0
LINE
  5
17E
330
1F
100
AcDbEntity
  8
0
  6
HIDDEN
 62
     7
100
AcDbLine
 10
8.6937979922
 20
4.1616614168
 30
0.0
 11
8.6937979922
 21
4.4372519679
 31
0.0
  0
LINE
  5
17F
330
1F
100
AcDbEntity
  8
0
  6
HIDDEN
 62
     7
100
AcDbLine
 10
7.729231063
 20
4.2207165349
 30
0.0
 11
7.729231063
 21
4.3781968498
 31
0.0
  0
LINE
  5
180
330
1F
100
AcDbEntity
  8
0
  6
HIDDEN
 62
     7
100
AcDbLine
 10
7.7095460236
 20
4.3585118069
 30
0.0
 11
7.7095460236
 21
4.2404015742
 31
0.0
  0
LINE
  5
181
330
1F
100
AcDbEntity
  8
0
  6
HIDDEN
 62
     7
100
AcDbLine
 10
8.6937979922
 20
4.265361204
 30
0.0
 11
8.8512783071
 21
4.265361204
 31
0.0
  0
LINE
  5
182
330
1F
100
AcDbEntity
  8
0
  6
HIDDEN
 62
     7
100
AcDbLine
 10
8.6937979922
 20
4.3335521807
 30
0.0
 11
8.8512783071
 21
4.3335521807
 31
0.0
  0
LINE
  5
183
330
1F
100
AcDbEntity
  8
0
  6
HIDDEN
 62
     7
100
AcDbLine
 10
8.6937979922
 20
4.367647669
 30
0.0
 11
8.8512783071
 21
4.367647669
 31
0.0
  0
LINE
  5
184
330
1F
100
AcDbEntity
  8
0
  6
HIDDEN
 62
     7
100
AcDbLine
 10
8.6937979922
 20
4.2312657157
 30
0.0
 11
8.8512783071
 21
4.2312657157
 31
0.0
  0
CIRCLE
  5
185
330
1F
100
AcDbEntity
  8
0
  6
HIDDEN
 62
     7
100
AcDbCircle
 10
8.9103334252
 20
3.7586782864
 30
0.0
 40
0.13779527559055
  0
CIRCLE
  5
186
330
1F
100
AcDbEntity
  8
0
  6
HIDDEN
 62
     7
100
AcDbCircle
 10
8.2508846063
 20
3.0992294675
 30
0.0
 40
0.1377952755905518
  0
CIRCLE
  5
187
330
1F
100
AcDbEntity
  8
0
  6
HIDDEN
 62
     7
100
AcDbCircle
 10
8.2508846063
 20
4.4181271053
 30
0.0
 40
0.1377952755905518
  0
CIRCLE
  5
188
330
1F
100
AcDbEntity
  8
0
  6
HIDDEN
 62
     7
100
AcDbCircle
 10
7.5914357874
 20
3.7586782864
 30
0.0
 40
0.1377952755905518
  0
LINE
  5
189
330
1F
100
AcDbEntity
  8
0
  6
HIDDEN
 62
     7
100
AcDbLine
 10
8.1290896391
 20
4.5399220725
 30
0.0
 11
7.4696408202
 21
3.8804732536
 31
0.0
  0
ARC
  5
18A
330
1F
100
AcDbEntity
  8
0
  6
HIDDEN
 62
     7
100
AcDbCircle
 10
8.2508846063
 20
4.4181271053
 30
0.0
 40
0.1722440944881891
100
AcDbArc
 50
45.0
 51
135.0
  0
LINE
  5
18B
330
1F
100
AcDbEntity
  8
0
  6
HIDDEN
 62
     7
100
AcDbLine
 10
9.0321283925
 20
3.8804732536
 30
0.0
 11
8.3726795736
 21
4.5399220725
 31
0.0
  0
ARC
  5
18C
330
1F
100
AcDbEntity
  8
0
  6
HIDDEN
 62
     7
100
AcDbCircle
 10
8.9103334252
 20
3.7586782864
 30
0.0
 40
0.1722440944881891
100
AcDbArc
 50
315.0
 51
45.0
  0
LINE
  5
18D
330
1F
100
AcDbEntity
  8
0
  6
HIDDEN
 62
     7
100
AcDbLine
 10
8.3726795736
 20
2.9774345003
 30
0.0
 11
9.0321283925
 21
3.6368833192
 31
0.0
  0
ARC
  5
18E
330
1F
100
AcDbEntity
  8
0
  6
HIDDEN
 62
     7
100
AcDbCircle
 10
8.2508846063
 20
3.0992294675
 30
0.0
 40
0.1722440944881891
100
AcDbArc
 50
225.0
 51
315.0
  0
LINE
  5
18F
330
1F
100
AcDbEntity
  8
0
  6
HIDDEN
 62
     7
100
AcDbLine
 10
7.4696408202
 20
3.6368833192
 30
0.0
 11
8.1290896391
 21
2.9774345003
 31
0.0
  0
ARC
  5
190
330
1F
100
AcDbEntity
  8
0
  6
HIDDEN
 62
     7
100
AcDbCircle
 10
7.5914357874
 20
3.7586782864
 30
0.0
 40
0.1722440944881878
100
AcDbArc
 50
135.0
 51
225.0
  0
CIRCLE
  5
191
330
1F
100
AcDbEntity
  8
0
  6
HIDDEN
 62
     7
100
AcDbCircle
 10
8.2508846063
 20
3.7586782864
 30
0.0
 40
0.2952755905511815
  0
CIRCLE
  5
192
330
1F
100
AcDbEntity
  8
0
  6
HIDDEN
 62
     7
100
AcDbCircle
 10
8.2508846063
 20
3.7586782864
 30
0.0
 40
0.8661417322834644
  0
LINE
  5
193
330
1F
100
AcDbEntity
  8
0
  6
HIDDEN
 62
     7
100
AcDbLine
 10
7.4720340144
 20
3.3797412785
 30
0.0
 11
9.0297351982
 21
3.3797412785
 31
0.0
  0
LINE
  5
194
330
1F
100
AcDbEntity
  8
0
  6
HIDDEN
 62
     7
100
AcDbLine
 10
8.231199567
 20
3.9743170886
 30
0.0
 11
8.231199567
 21
4.6245962962
 31
0.0
  0
LINE
  5
195
330
1F
100
AcDbEntity
  8
0
  6
HIDDEN
 62
     7
100
AcDbLine
 10
8.2705696457
 20
3.9743170886
 30
0.0
 11
8.2705696457
 21
4.6245962962
 31
0.0
  0
LINE
  5
196
330
1F
100
AcDbEntity
  8
0
  6
HIDDEN
 62
     7
100
AcDbLine
 10
8.231199567
 20
3.3954900954
 30
0.0
 11
8.231199567
 21
3.5430394842
 31
0.0
  0
LINE
  5
197
330
1F
100
AcDbEntity
  8
0
  6
HIDDEN
 62
     7
100
AcDbLine
 10
8.2705696457
 20
3.3954900954
 30
0.0
 11
8.231199567
 21
3.3954900954
 31
0.0
  0
LINE
  5
198
330
1F
100
AcDbEntity
  8
0
  6
HIDDEN
 62
     7
100
AcDbLine
 10
8.2705696457
 20
3.5430394842
 30
0.0
 11
8.2705696457
 21
3.3954900954
 31
0.0
  0
POLYLINE
  5
199
330
1F
100
AcDbEntity
  8
0
  6
HIDDEN
 62
     7
100
AcDb2dPolyline
 66
     1
 10
0.0
 20
0.0
 30
0.0
  0
VERTEX
  5
2A7
330
199
100
AcDbEntity
  8
0
  6
HIDDEN
 62
     7
100
AcDbVertex
100
AcDb2dVertex
 10
8.0201874976
 20
3.738993247
 30
0.0
  0
VERTEX
  5
2A8
330
199
100
AcDbEntity
  8
0
  6
HIDDEN
 62
     7
100
AcDbVertex
100
AcDb2dVertex
 10
8.0193491733
 20
3.7586782864
 30
0.0
  0
VERTEX
  5
2A9
330
199
100
AcDbEntity
  8
0
  6
HIDDEN
 62
     7
100
AcDbVertex
100
AcDb2dVertex
 10
8.0201874976
 20
3.7783633258
 30
0.0
  0
SEQEND
  5
2AA
330
199
100
AcDbEntity
  8
0
  6
HIDDEN
 62
     7
  0
POLYLINE
  5
19A
330
1F
100
AcDbEntity
  8
0
  6
HIDDEN
 62
     7
100
AcDb2dPolyline
 66
     1
 10
0.0
 20
0.0
 30
0.0
  0
VERTEX
  5
2AB
330
19A
100
AcDbEntity
  8
0
  6
HIDDEN
 62
     7
100
AcDbVertex
100
AcDb2dVertex
 10
8.4815817151
 20
3.7783633258
 30
0.0
  0
VERTEX
  5
2AC
330
19A
100
AcDbEntity
  8
0
  6
HIDDEN
 62
     7
100
AcDbVertex
100
AcDb2dVertex
 10
8.4824200394
 20
3.7586782864
 30
0.0
  0
VERTEX
  5
2AD
330
19A
100
AcDbEntity
  8
0
  6
HIDDEN
 62
     7
100
AcDbVertex
100
AcDb2dVertex
 10
8.4815817151
 20
3.738993247
 30
0.0
  0
SEQEND
  5
2AE
330
19A
100
AcDbEntity
  8
0
  6
HIDDEN
 62
     7
  0
LINE
  5
19B
330
1F
100
AcDbEntity
  8
0
  6
HIDDEN
 62
     7
100
AcDbLine
 10
7.3999705404
 20
3.7783633258
 30
0.0
 11
7.3999705404
 21
3.738993247
 31
0.0
  0
LINE
  5
19C
330
1F
100
AcDbEntity
  8
0
  6
HIDDEN
 62
     7
100
AcDbLine
 10
7.847901476
 20
4.2015916722
 30
0.0
 11
7.847901476
 21
4.5253634219
 31
0.0
  0
LINE
  5
19D
330
1F
100
AcDbEntity
  8
0
  6
HIDDEN
 62
     7
100
AcDbLine
 10
7.5723109248
 20
4.2972065705
 30
0.0
 11
7.5723109248
 21
4.2015916722
 31
0.0
  0
LINE
  5
19E
330
1F
100
AcDbEntity
  8
0
  6
HIDDEN
 62
     7
100
AcDbLine
 10
7.6313660429
 20
4.2015916722
 30
0.0
 11
7.6313660429
 21
3.7783633258
 31
0.0
  0
LINE
  5
19F
330
1F
100
AcDbEntity
  8
0
  6
HIDDEN
 62
     7
100
AcDbLine
 10
7.7888463578
 20
3.7783633258
 30
0.0
 11
7.7888463578
 21
4.2015916722
 31
0.0
  0
LINE
  5
1A0
330
1F
100
AcDbEntity
  8
0
  6
HIDDEN
 62
     7
100
AcDbLine
 10
7.6313660429
 20
3.738993247
 30
0.0
 11
7.6313660429
 21
3.153369894
 31
0.0
  0
LINE
  5
1A1
330
1F
100
AcDbEntity
  8
0
  6
HIDDEN
 62
     7
100
AcDbLine
 10
7.7888463578
 20
3.0260990195
 30
0.0
 11
7.7888463578
 21
3.738993247
 31
0.0
  0
ARC
  5
1A2
330
1F
100
AcDbEntity
  8
0
  6
HIDDEN
 62
     7
100
AcDbCircle
 10
7.8282164366
 20
4.3393869478
 30
0.0
 40
0.0196850393700787
100
AcDbArc
 50
0.0
 51
90.0
  0
LINE
  5
1A3
330
1F
100
AcDbEntity
  8
0
  6
HIDDEN
 62
     7
100
AcDbLine
 10
7.847901476
 20
4.2015916722
 30
0.0
 11
7.847901476
 21
4.3393869478
 31
0.0
  0
LINE
  5
1A4
330
1F
100
AcDbEntity
  8
0
  6
HIDDEN
 62
     7
100
AcDbLine
 10
7.5723109248
 20
4.2969526208
 30
0.0
 11
7.5723109248
 21
4.2015916722
 31
0.0
  0
LINE
  5
1A5
330
1F
100
AcDbEntity
  8
0
  6
HIDDEN
 62
     7
100
AcDbLine
 10
7.6313660429
 20
4.2015916722
 30
0.0
 11
7.6313660429
 21
3.7783633258
 31
0.0
  0
LINE
  5
1A6
330
1F
100
AcDbEntity
  8
0
  6
HIDDEN
 62
     7
100
AcDbLine
 10
7.6313660429
 20
3.738993247
 30
0.0
 11
7.6313660429
 21
3.2370247431
 31
0.0
  0
LINE
  5
1A7
330
1F
100
AcDbEntity
  8
0
  6
HIDDEN
 62
     7
100
AcDbLine
 10
7.7888463578
 20
3.2370247431
 30
0.0
 11
7.7888463578
 21
3.738993247
 31
0.0
  0
LINE
  5
1A8
330
1F
100
AcDbEntity
  8
0
  6
HIDDEN
 62
     7
100
AcDbLine
 10
7.7888463578
 20
3.7783633258
 30
0.0
 11
7.7888463578
 21
4.2015916722
 31
0.0
  0
ARC
  5
1A9
330
1F
100
AcDbEntity
  8
0
  6
HIDDEN
 62
     7
100
AcDbCircle
 10
7.7691613185
 20
3.2370247431
 30
0.0
 40
0.0196850393700787
100
AcDbArc
 50
270.0
 51
0.0
  0
ARC
  5
1AA
330
1F
100
AcDbEntity
  8
0
  6
HIDDEN
 62
     7
100
AcDbCircle
 10
7.6510510822
 20
3.2370247431
 30
0.0
 40
0.0196850393700787
100
AcDbArc
 50
180.0
 51
270.0
  0
ARC
  5
1AB
330
1F
100
AcDbEntity
  8
0
  6
HIDDEN
 62
     7
100
AcDbCircle
 10
8.8315932677
 20
4.1813464561
 30
0.0
 40
0.0196850393700787
100
AcDbArc
 50
270.0
 51
0.0
  0
LINE
  5
1AC
330
1F
100
AcDbEntity
  8
0
  6
HIDDEN
 62
     7
100
AcDbLine
 10
8.6937979922
 20
4.1616614168
 30
0.0
 11
8.8315932677
 21
4.1616614168
 31
0.0
  0
LINE
  5
1AD
330
1F
100
AcDbEntity
  8
0
  6
HIDDEN
 62
     7
100
AcDbLine
 10
8.7891589408
 20
4.4372519679
 30
0.0
 11
8.6937979922
 21
4.4372519679
 31
0.0
  0
LINE
  5
1AE
330
1F
100
AcDbEntity
  8
0
  6
HIDDEN
 62
     7
100
AcDbLine
 10
8.6937979922
 20
4.3781968498
 30
0.0
 11
7.729231063
 21
4.3781968498
 31
0.0
  0
LINE
  5
1AF
330
1F
100
AcDbEntity
  8
0
  6
HIDDEN
 62
     7
100
AcDbLine
 10
7.729231063
 20
4.2207165349
 30
0.0
 11
8.6937979922
 21
4.2207165349
 31
0.0
  0
ARC
  5
1B0
330
1F
100
AcDbEntity
  8
0
  6
HIDDEN
 62
     7
100
AcDbCircle
 10
7.729231063
 20
4.2404015742
 30
0.0
 40
0.0196850393700787
100
AcDbArc
 50
180.0
 51
270.0
  0
ARC
  5
1B1
330
1F
100
AcDbEntity
  8
0
  6
HIDDEN
 62
     7
100
AcDbCircle
 10
7.729231063
 20
4.3585118105
 30
0.0
 40
0.0196850393700787
100
AcDbArc
 50
90.0
 51
180.0
  0
LINE
  5
1B2
330
1F
100
AcDbEntity
  8
0
  6
HIDDEN
 62
     7
100
AcDbLine
 10
8.6937979922
 20
4.1616614168
 30
0.0
 11
9.0175697419
 21
4.1616614168
 31
0.0
  0
LINE
  5
1B3
330
1F
100
AcDbEntity
  8
0
  6
HIDDEN
 62
     7
100
AcDbLine
 10
8.7894128904
 20
4.4372519679
 30
0.0
 11
8.6937979922
 21
4.4372519679
 31
0.0
  0
LINE
  5
1B4
330
1F
100
AcDbEntity
  8
0
  6
HIDDEN
 62
     7
100
AcDbLine
 10
8.6937979922
 20
4.3781968498
 30
0.0
 11
8.2705696457
 21
4.3781968498
 31
0.0
  0
LINE
  5
1B5
330
1F
100
AcDbEntity
  8
0
  6
HIDDEN
 62
     7
100
AcDbLine
 10
8.2705696457
 20
4.2207165349
 30
0.0
 11
8.6937979922
 21
4.2207165349
 31
0.0
  0
LINE
  5
1B6
330
1F
100
AcDbEntity
  8
0
  6
HIDDEN
 62
     7
100
AcDbLine
 10
8.231199567
 20
4.3781968498
 30
0.0
 11
7.6455762139
 21
4.3781968498
 31
0.0
  0
LINE
  5
1B7
330
1F
100
AcDbEntity
  8
0
  6
HIDDEN
 62
     7
100
AcDbLine
 10
7.5183053395
 20
4.2207165349
 30
0.0
 11
8.231199567
 21
4.2207165349
 31
0.0
  0
LINE
  5
1B8
330
1F
100
AcDbEntity
  8
0
  6
HIDDEN
 62
     7
100
AcDbLine
 10
7.5723109248
 20
4.3393869478
 30
0.0
 11
7.8476594705
 21
4.3393869478
 31
0.0
  0
LINE
  5
1B9
330
1F
100
AcDbEntity
  8
0
  6
HIDDEN
 62
     7
100
AcDbLine
 10
8.8315932677
 20
4.4372519679
 30
0.0
 11
8.8315932677
 21
4.1619034222
 31
0.0
  0
LINE
  5
1BA
330
1F
100
AcDbEntity
  8
0
  6
CONTINUOUS
 62
     7
100
AcDbLine
 10
4.0057699617
 20
7.5231188712
 30
0.0
 11
3.9907699617
 21
7.5381188712
 31
0.0
  0
LINE
  5
1BB
330
1F
100
AcDbEntity
  8
0
  6
CONTINUOUS
 62
     7
100
AcDbLine
 10
3.4152187805
 20
5.8058354066
 30
0.0
 11
3.5905074945
 21
5.8058354066
 31
0.0
  0
LINE
  5
1BC
330
1F
100
AcDbEntity
  8
0
  6
CONTINUOUS
 62
     7
100
AcDbLine
 10
3.9907699617
 20
7.5381188712
 30
0.0
 11
3.4152187805
 21
7.5381188712
 31
0.0
  0
LINE
  5
1BD
330
1F
100
AcDbEntity
  8
0
  6
CONTINUOUS
 62
     7
100
AcDbLine
 10
2.7412424026
 20
6.6916621783
 30
0.0
 11
2.7412424026
 21
6.6522920995
 31
0.0
  0
LINE
  5
1BE
330
1F
100
AcDbEntity
  8
0
  6
CONTINUOUS
 62
     7
100
AcDbLine
 10
2.8987227176
 20
6.6522920995
 30
0.0
 11
2.8987227176
 21
6.6916621783
 31
0.0
  0
LINE
  5
1BF
330
1F
100
AcDbEntity
  8
0
  6
CONTINUOUS
 62
     7
100
AcDbLine
 10
3.010271274
 20
7.5381188712
 30
0.0
 11
2.6625022451
 21
7.5381188712
 31
0.0
  0
LINE
  5
1C0
330
1F
100
AcDbEntity
  8
0
  6
CONTINUOUS
 62
     7
100
AcDbLine
 10
3.2380534262
 20
7.5381188712
 30
0.0
 11
3.0627647123
 21
7.5381188712
 31
0.0
  0
LINE
  5
1C1
330
1F
100
AcDbEntity
  8
0
  6
CONTINUOUS
 62
     7
100
AcDbLine
 10
3.0627647123
 20
5.8058354066
 30
0.0
 11
3.2380534262
 21
5.8058354066
 31
0.0
  0
LINE
  5
1C2
330
1F
100
AcDbEntity
  8
0
  6
CONTINUOUS
 62
     7
100
AcDbLine
 10
2.6625022451
 20
5.8058354066
 30
0.0
 11
3.010271274
 21
5.8058354066
 31
0.0
  0
LINE
  5
1C3
330
1F
100
AcDbEntity
  8
0
  6
CONTINUOUS
 62
     7
100
AcDbLine
 10
2.6625022451
 20
7.5381188712
 30
0.0
 11
2.6475022451
 21
7.5231188712
 31
0.0
  0
LINE
  5
1C4
330
1F
100
AcDbEntity
  8
0
  6
CONTINUOUS
 62
     7
100
AcDbLine
 10
2.6475022451
 20
5.8208354066
 30
0.0
 11
2.6625022451
 21
5.8058354066
 31
0.0
  0
LINE
  5
1C5
330
1F
100
AcDbEntity
  8
0
  6
CONTINUOUS
 62
     7
100
AcDbLine
 10
3.2380534262
 20
6.5341818633
 30
0.0
 11
3.2971085443
 21
6.5341818633
 31
0.0
  0
LINE
  5
1C6
330
1F
100
AcDbEntity
  8
0
  6
CONTINUOUS
 62
     7
100
AcDbLine
 10
3.2971085443
 20
6.8097724145
 30
0.0
 11
3.2380534262
 21
6.8097724145
 31
0.0
  0
LINE
  5
1C7
330
1F
100
AcDbEntity
  8
0
  6
CONTINUOUS
 62
     7
100
AcDbLine
 10
3.3561636624
 20
6.5341818633
 30
0.0
 11
3.4152187805
 21
6.5341818633
 31
0.0
  0
LINE
  5
1C8
330
1F
100
AcDbEntity
  8
0
  6
CONTINUOUS
 62
     7
100
AcDbLine
 10
3.4152187805
 20
6.8097724145
 30
0.0
 11
3.3561636624
 21
6.8097724145
 31
0.0
  0
LINE
  5
1C9
330
1F
100
AcDbEntity
  8
0
  6
CONTINUOUS
 62
     7
100
AcDbLine
 10
3.2380534262
 20
7.1936306822
 30
0.0
 11
3.2971085443
 21
7.1936306822
 31
0.0
  0
LINE
  5
1CA
330
1F
100
AcDbEntity
  8
0
  6
CONTINUOUS
 62
     7
100
AcDbLine
 10
3.2971085443
 20
7.4692212334
 30
0.0
 11
3.2380534262
 21
7.4692212334
 31
0.0
  0
LINE
  5
1CB
330
1F
100
AcDbEntity
  8
0
  6
CONTINUOUS
 62
     7
100
AcDbLine
 10
3.3561636624
 20
7.1936306822
 30
0.0
 11
3.4152187805
 21
7.1936306822
 31
0.0
  0
LINE
  5
1CC
330
1F
100
AcDbEntity
  8
0
  6
CONTINUOUS
 62
     7
100
AcDbLine
 10
3.4152187805
 20
7.4692212334
 30
0.0
 11
3.3561636624
 21
7.4692212334
 31
0.0
  0
LINE
  5
1CD
330
1F
100
AcDbEntity
  8
0
  6
CONTINUOUS
 62
     7
100
AcDbLine
 10
3.2380534262
 20
5.8747330444
 30
0.0
 11
3.2971085443
 21
5.8747330444
 31
0.0
  0
LINE
  5
1CE
330
1F
100
AcDbEntity
  8
0
  6
CONTINUOUS
 62
     7
100
AcDbLine
 10
3.2971085443
 20
6.1503235956
 30
0.0
 11
3.2380534262
 21
6.1503235956
 31
0.0
  0
LINE
  5
1CF
330
1F
100
AcDbEntity
  8
0
  6
CONTINUOUS
 62
     7
100
AcDbLine
 10
3.3561636624
 20
5.8747330444
 30
0.0
 11
3.4152187805
 21
5.8747330444
 31
0.0
  0
LINE
  5
1D0
330
1F
100
AcDbEntity
  8
0
  6
CONTINUOUS
 62
     7
100
AcDbLine
 10
3.4152187805
 20
6.1503235956
 30
0.0
 11
3.3561636624
 21
6.1503235956
 31
0.0
  0
LINE
  5
1D1
330
1F
100
AcDbEntity
  8
0
  6
CONTINUOUS
 62
     7
100
AcDbLine
 10
3.3561636624
 20
7.5036700523
 30
0.0
 11
3.2971085443
 21
7.5036700523
 31
0.0
  0
LINE
  5
1D2
330
1F
100
AcDbEntity
  8
0
  6
CONTINUOUS
 62
     7
100
AcDbLine
 10
3.2971085443
 20
5.8402842255
 30
0.0
 11
3.3561636624
 21
5.8402842255
 31
0.0
  0
LINE
  5
1D3
330
1F
100
AcDbEntity
  8
0
  6
CONTINUOUS
 62
     7
100
AcDbLine
 10
4.0057699617
 20
7.5231188712
 30
0.0
 11
4.0057699617
 21
5.821063073
 31
0.0
  0
LINE
  5
1D4
330
1F
100
AcDbEntity
  8
0
  6
CONTINUOUS
 62
     7
100
AcDbLine
 10
3.9907699617
 20
5.8060591292
 30
0.0
 11
4.0057699617
 21
5.821063073
 31
0.0
  0
LINE
  5
1D5
330
1F
100
AcDbEntity
  8
0
  6
CONTINUOUS
 62
     7
100
AcDbLine
 10
3.9907699617
 20
5.8060591292
 30
0.0
 11
3.9907699617
 21
7.5381188712
 31
0.0
  0
LINE
  5
1D6
330
1F
100
AcDbEntity
  8
0
  6
CONTINUOUS
 62
     7
100
AcDbLine
 10
3.4152187805
 20
7.5381188712
 30
0.0
 11
3.4152187805
 21
5.8058354066
 31
0.0
  0
SPLINE
  5
1D7
330
1F
100
AcDbEntity
  8
0
  6
CONTINUOUS
 62
     7
100
AcDbSpline
210
0.0
220
0.0
230
1.0
 70
     8
 71
     3
 72
    74
 73
    70
 74
     0
 42
0.00000001
 43
0.00000001
 40
-0.0312500000000001
 40
-0.0312500000000001
 40
0.0
 40
0.0
 40
0.0312499999999999
 40
0.0312499999999999
 40
0.0624999999999998
 40
0.0624999999999998
 40
0.0937499999999996
 40
0.0937499999999996
 40
0.1249999999999995
 40
0.1249999999999995
 40
0.1562499999999994
 40
0.1562499999999994
 40
0.1874999999999993
 40
0.1874999999999993
 40
0.2187499999999992
 40
0.2187499999999992
 40
0.2499999999999991
 40
0.2499999999999991
 40
0.2812499999999989
 40
0.2812499999999989
 40
0.3124999999999988
 40
0.3124999999999988
 40
0.3749999999999988
 40
0.3749999999999988
 40
0.4062499999999987
 40
0.4062499999999987
 40
0.4374999999999985
 40
0.4374999999999985
 40
0.4531249999999984
 40
0.4531249999999984
 40
0.4687499999999984
 40
0.4687499999999984
 40
0.4843749999999983
 40
0.4843749999999983
 40
0.4999999999999982
 40
0.4999999999999982
 40
0.5156249999999981
 40
0.5156249999999981
 40
0.5312499999999981
 40
0.5312499999999981
 40
0.5624999999999982
 40
0.5624999999999982
 40
0.5937499999999983
 40
0.5937499999999983
 40
0.6249999999999984
 40
0.6249999999999984
 40
0.6562499999999986
 40
0.6562499999999986
 40
0.6874999999999987
 40
0.6874999999999987
 40
0.7187499999999988
 40
0.7187499999999988
 40
0.7499999999999988
 40
0.7499999999999988
 40
0.8124999999999991
 40
0.8124999999999991
 40
0.8437499999999993
 40
0.8437499999999993
 40
0.8749999999999996
 40
0.8749999999999996
 40
0.9062499999999997
 40
0.9062499999999997
 40
0.9218749999999998
 40
0.9218749999999998
 40
0.9374999999999998
 40
0.9374999999999998
 40
0.9687499999999999
 40
0.9687499999999999
 40
1.0
 40
1.0
 40
1.03125
 40
1.03125
 10
3.843838436855734
 20
6.268994008542914
 30
0.0
 10
3.822740856527543
 20
6.268994008542914
 30
0.0
 10
3.812426698198871
 20
6.267798537027261
 30
0.0
 10
3.792245501574338
 20
6.26314624996084
 30
0.0
 10
3.782382813293517
 20
6.259644874364295
 30
0.0
 10
3.764166511859309
 20
6.250831124724783
 30
0.0
 10
3.755572481584828
 20
6.24541075183966
 30
0.0
 10
3.740133559026839
 20
6.233209939893266
 30
0.0
 10
3.733275326132909
 20
6.226461070379081
 30
0.0
 10
3.721149068608189
 20
6.211835374722318
 30
0.0
 10
3.716021679019934
 20
6.204116330700893
 30
0.0
 10
3.70752348008707
 20
6.18822174270159
 30
0.0
 10
3.704115357346586
 20
6.179945961332425
 30
0.0
 10
3.699035206655437
 20
6.16341727781558
 30
0.0
 10
3.697335251378288
 20
6.155140474465854
 30
0.0
 10
3.69544198183717
 20
6.138603183363289
 30
0.0
 10
3.695262086299024
 20
6.130332484314295
 30
0.0
 10
3.696302161335396
 20
6.114263956000384
 30
0.0
 10
3.697512349409791
 20
6.106406669963904
 30
0.0
 10
3.701241763504804
 20
6.091030618853452
 30
0.0
 10
3.703781737865649
 20
6.083481683209515
 30
0.0
 10
3.713172021235723
 20
6.061873389331337
 30
0.0
 10
3.721746759643172
 20
6.048624259657145
 30
0.0
 10
3.738753553468094
 20
6.030607131006133
 30
0.0
 10
3.745012578367264
 20
6.025042364669274
 30
0.0
 10
3.758947445878615
 20
6.014857628877848
 30
0.0
 10
3.766722275540529
 20
6.010189856842329
 30
0.0
 10
3.779395214831199
 20
6.004294696587899
 30
0.0
 10
3.783786455535894
 20
6.00251113606568
 30
0.0
 10
3.792957220958431
 20
5.999348973902348
 30
0.0
 10
3.79778073804501
 20
5.997961155105681
 30
0.0
 10
3.807647141956779
 20
5.995715904908925
 30
0.0
 10
3.812679572464574
 20
5.994855330662335
 30
0.0
 10
3.822960283006845
 20
5.993693813936595
 30
0.0
 10
3.828265877989136
 20
5.993395354953173
 30
0.0
 10
3.838748472405987
 20
5.993411903168873
 30
0.0
 10
3.843936015307029
 20
5.993718098810714
 30
0.0
 10
3.854208554493421
 20
5.994902477592704
 30
0.0
 10
3.859333411238055
 20
5.995792670492697
 30
0.0
 10
3.874107118209728
 20
5.999200104989939
 30
0.0
 10
3.883366937586853
 20
6.002487314201719
 30
0.0
 10
3.900239385458601
 20
6.010400981072442
 30
0.0
 10
3.907849096183548
 20
6.014994061128985
 30
0.0
 10
3.921820334401987
 20
6.025250846726878
 30
0.0
 10
3.92812315255489
 20
6.030895359839573
 30
0.0
 10
3.939301317470284
 20
6.042792363550386
 30
0.0
 10
3.944235904427218
 20
6.049091674768085
 30
0.0
 10
3.952936318108249
 20
6.062385106917024
 30
0.0
 10
3.95670958607547
 20
6.069418129289255
 30
0.0
 10
3.962934562955821
 20
6.083854038282954
 30
0.0
 10
3.965414647091911
 20
6.091290344011536
 30
0.0
 10
3.96910425974399
 20
6.106620569472066
 30
0.0
 10
3.97031643014437
 20
6.114568540637428
 30
0.0
 10
3.97182331956408
 20
6.138776217665505
 30
0.0
 10
3.970081109715494
 20
6.15513398315571
 30
0.0
 10
3.962495267151224
 20
6.179858380121105
 30
0.0
 10
3.959081466047835
 20
6.188164531479377
 30
0.0
 10
3.950594490329209
 20
6.204056523736378
 30
0.0
 10
3.945506753296292
 20
6.211729325831149
 30
0.0
 10
3.933388670135563
 20
6.226372473604401
 30
0.0
 10
3.926477512718433
 20
6.233172788109822
 30
0.0
 10
3.915006561327566
 20
6.242255794495799
 30
0.0
 10
3.910986934297292
 20
6.245109406715148
 30
0.0
 10
3.902531631890681
 20
6.250438229697624
 30
0.0
 10
3.898058618669981
 20
6.252930363625052
 30
0.0
 10
3.884278341819362
 20
6.259619827767029
 30
0.0
 10
3.874642040169258
 20
6.26305095797438
 30
0.0
 10
3.85444683971662
 20
6.267754226700832
 30
0.0
 10
3.843838436855734
 20
6.268994008542914
 30
0.0
 10
3.822740856527543
 20
6.268994008542914
 30
0.0
  0
LINE
  5
1D8
330
1F
100
AcDbEntity
  8
0
  6
CONTINUOUS
 62
     7
100
AcDbLine
 10
3.9907699617
 20
5.8060591292
 30
0.0
 11
3.6430009328
 21
5.8060591292
 31
0.0
  0
LINE
  5
1D9
330
1F
100
AcDbEntity
  8
0
  6
CONTINUOUS
 62
     7
100
AcDbLine
 10
3.6430009328
 20
7.0509141468
 30
0.0
 11
3.6430009328
 21
5.8060591292
 31
0.0
  0
LINE
  5
1DA
330
1F
100
AcDbEntity
  8
0
  6
CONTINUOUS
 62
     7
100
AcDbLine
 10
3.5905074945
 20
7.0509141468
 30
0.0
 11
3.6430009328
 21
7.0509141468
 31
0.0
  0
LINE
  5
1DB
330
1F
100
AcDbEntity
  8
0
  6
CONTINUOUS
 62
     7
100
AcDbLine
 10
3.5905074945
 20
5.8058354066
 30
0.0
 11
3.5905074945
 21
7.0509141468
 31
0.0
  0
CIRCLE
  5
1DC
330
1F
100
AcDbEntity
  8
0
  6
CONTINUOUS
 62
     7
100
AcDbCircle
 10
3.8332896467
 20
6.131198733
 30
0.0
 40
0.1181102362204722
  0
CIRCLE
  5
1DD
330
1F
100
AcDbEntity
  8
0
  6
CONTINUOUS
 62
     7
100
AcDbCircle
 10
3.8332896467
 20
6.131198733
 30
0.0
 40
0.1377952755905509
  0
LINE
  5
1DE
330
1F
100
AcDbEntity
  8
0
  6
CONTINUOUS
 62
     7
100
AcDbLine
 10
3.8923447648
 20
6.0971032446
 30
0.0
 11
3.8923447648
 21
6.1652942213
 31
0.0
  0
LINE
  5
1DF
330
1F
100
AcDbEntity
  8
0
  6
CONTINUOUS
 62
     7
100
AcDbLine
 10
3.8923447648
 20
6.1652942213
 30
0.0
 11
3.8332896467
 21
6.1993897096
 31
0.0
  0
LINE
  5
1E0
330
1F
100
AcDbEntity
  8
0
  6
CONTINUOUS
 62
     7
100
AcDbLine
 10
3.8332896467
 20
6.1993897096
 30
0.0
 11
3.7742345286
 21
6.1652942213
 31
0.0
  0
LINE
  5
1E1
330
1F
100
AcDbEntity
  8
0
  6
CONTINUOUS
 62
     7
100
AcDbLine
 10
3.7742345286
 20
6.1652942213
 30
0.0
 11
3.7742345286
 21
6.0971032446
 31
0.0
  0
LINE
  5
1E2
330
1F
100
AcDbEntity
  8
0
  6
CONTINUOUS
 62
     7
100
AcDbLine
 10
3.7742345286
 20
6.0971032446
 30
0.0
 11
3.8332896467
 21
6.0630077563
 31
0.0
  0
LINE
  5
1E3
330
1F
100
AcDbEntity
  8
0
  6
CONTINUOUS
 62
     7
100
AcDbLine
 10
3.8332896467
 20
6.0630077563
 30
0.0
 11
3.8923447648
 21
6.0971032446
 31
0.0
  0
LINE
  5
1E4
330
1F
100
AcDbEntity
  8
0
  6
CONTINUOUS
 62
     7
100
AcDbLine
 10
2.8199825601
 20
7.2723708397
 30
0.0
 11
2.7100350903
 21
7.2723708397
 31
0.0
  0
LINE
  5
1E5
330
1F
100
AcDbEntity
  8
0
  6
CONTINUOUS
 62
     7
100
AcDbLine
 10
2.9289745045
 20
7.2723708397
 30
0.0
 11
2.8199825601
 21
7.2723708397
 31
0.0
  0
LINE
  5
1E6
330
1F
100
AcDbEntity
  8
0
  6
CONTINUOUS
 62
     7
100
AcDbLine
 10
3.2380534262
 20
7.5381188712
 30
0.0
 11
3.2380534262
 21
5.8058354066
 31
0.0
  0
SPLINE
  5
1E7
330
1F
100
AcDbEntity
  8
0
  6
CONTINUOUS
 62
     7
100
AcDbSpline
210
0.0
220
0.0
230
1.0
 70
     8
 71
     3
 72
    74
 73
    70
 74
     0
 42
0.00000001
 43
0.00000001
 40
-0.03125
 40
-0.03125
 40
0.0
 40
0.0
 40
0.0312500000000002
 40
0.0312500000000002
 40
0.0625000000000005
 40
0.0625000000000005
 40
0.0937500000000007
 40
0.0937500000000007
 40
0.125000000000001
 40
0.125000000000001
 40
0.1562500000000012
 40
0.1562500000000012
 40
0.1875000000000015
 40
0.1875000000000015
 40
0.2187500000000017
 40
0.2187500000000017
 40
0.250000000000002
 40
0.250000000000002
 40
0.2812500000000022
 40
0.2812500000000022
 40
0.3125000000000025
 40
0.3125000000000025
 40
0.375000000000003
 40
0.375000000000003
 40
0.4062500000000031
 40
0.4062500000000031
 40
0.4375000000000032
 40
0.4375000000000032
 40
0.4531250000000031
 40
0.4531250000000031
 40
0.4687500000000031
 40
0.4687500000000031
 40
0.4843750000000031
 40
0.4843750000000031
 40
0.500000000000003
 40
0.500000000000003
 40
0.5156250000000029
 40
0.5156250000000029
 40
0.5312500000000028
 40
0.5312500000000028
 40
0.5625000000000026
 40
0.5625000000000026
 40
0.5937500000000024
 40
0.5937500000000024
 40
0.6250000000000022
 40
0.6250000000000022
 40
0.656250000000002
 40
0.656250000000002
 40
0.6875000000000018
 40
0.6875000000000018
 40
0.7187500000000017
 40
0.7187500000000017
 40
0.7500000000000014
 40
0.7500000000000014
 40
0.812500000000001
 40
0.812500000000001
 40
0.8437500000000008
 40
0.8437500000000008
 40
0.8750000000000004
 40
0.8750000000000004
 40
0.9062500000000001
 40
0.9062500000000001
 40
0.921875
 40
0.921875
 40
0.9374999999999999
 40
0.9374999999999999
 40
0.96875
 40
0.96875
 40
1.0
 40
1.0
 40
1.03125
 40
1.03125
 10
2.809433769913371
 20
7.438662274442978
 30
0.0
 10
2.830531350241562
 20
7.438662274442978
 30
0.0
 10
2.840845508570235
 20
7.438037252535589
 30
0.0
 10
2.861026705194766
 20
7.435564556399894
 30
0.0
 10
2.870889393475588
 20
7.433691570132527
 30
0.0
 10
2.889105694909797
 20
7.428854147316106
 30
0.0
 10
2.897699725184277
 20
7.425828720413245
 30
0.0
 10
2.913138647742266
 20
7.418793337569316
 30
0.0
 10
2.919996880636196
 20
7.414803179225453
 30
0.0
 10
2.932123138160915
 20
7.40583315362946
 30
0.0
 10
2.937250527749171
 20
7.400947798111313
 30
0.0
 10
2.945748726682035
 20
7.39049831081336
 30
0.0
 10
2.949156849422518
 20
7.384865150122287
 30
0.0
 10
2.954237000113668
 20
7.373169597456044
 30
0.0
 10
2.955936955390817
 20
7.367095450182406
 30
0.0
 10
2.957830224931935
 20
7.354488551213144
 30
0.0
 10
2.958010120470081
 20
7.347943592980894
 30
0.0
 10
2.956970045433709
 20
7.334748279266705
 30
0.0
 10
2.955759857359314
 20
7.328053906256712
 30
0.0
 10
2.952030443264301
 20
7.314478361344507
 30
0.0
 10
2.949490468903456
 20
7.30756587815529
 30
0.0
 10
2.940100185533382
 20
7.287093957799588
 30
0.0
 10
2.931525447125933
 20
7.273595823515069
 30
0.0
 10
2.91451865330101
 20
7.254149022203623
 30
0.0
 10
2.908259628401841
 20
7.247943063670115
 30
0.0
 10
2.894324760890491
 20
7.236295575735784
 30
0.0
 10
2.886549931228576
 20
7.23079449282603
 30
0.0
 10
2.873876991937907
 20
7.223711759857376
 30
0.0
 10
2.869485751233211
 20
7.221543354028906
 30
0.0
 10
2.860314985810674
 20
7.217668540164243
 30
0.0
 10
2.855491468724095
 20
7.215950636064242
 30
0.0
 10
2.845625064812327
 20
7.213156827569136
 30
0.0
 10
2.840592634304532
 20
7.212077524899663
 30
0.0
 10
2.83031192376226
 20
7.210618115084074
 30
0.0
 10
2.82500632877997
 20
7.210241259078185
 30
0.0
 10
2.814523734363119
 20
7.210262120515516
 30
0.0
 10
2.809336191462076
 20
7.21064872633529
 30
0.0
 10
2.799063652275685
 20
7.212136659401669
 30
0.0
 10
2.79393879553105
 20
7.213252809189287
 30
0.0
 10
2.779165088559377
 20
7.217491307091123
 30
0.0
 10
2.769905269182253
 20
7.221543423225395
 30
0.0
 10
2.753032821310503
 20
7.231044857192207
 30
0.0
 10
2.745423110585558
 20
7.236455120694262
 30
0.0
 10
2.731451872367119
 20
7.248177849955381
 30
0.0
 10
2.725149054214215
 20
7.254465075146983
 30
0.0
 10
2.713970889298821
 20
7.267296012937787
 30
0.0
 10
2.709036302341887
 20
7.273894629591451
 30
0.0
 10
2.700335888660856
 20
7.287353870318136
 30
0.0
 10
2.696562620693635
 20
7.29424950384459
 30
0.0
 10
2.690337643813283
 20
7.307910684766492
 30
0.0
 10
2.687857559677194
 20
7.314712568883023
 30
0.0
 10
2.684167947025115
 20
7.328237709191194
 30
0.0
 10
2.682955776624735
 20
7.335005106188588
 30
0.0
 10
2.681448887205025
 20
7.354863659247448
 30
0.0
 10
2.683191097053611
 20
7.367306141852998
 30
0.0
 10
2.690776939617881
 20
7.384804305934749
 30
0.0
 10
2.69419074072127
 20
7.390459775301585
 30
0.0
 10
2.702677716439896
 20
7.400909396256935
 30
0.0
 10
2.707765453472814
 20
7.405766776143271
 30
0.0
 10
2.719883536633541
 20
7.414750161719114
 30
0.0
 10
2.726794694050672
 20
7.418771024402192
 30
0.0
 10
2.73826564544154
 20
7.424009906070234
 30
0.0
 10
2.742285272471813
 20
7.425631422310311
 30
0.0
 10
2.750740574878424
 20
7.428624869162962
 30
0.0
 10
2.755213588099124
 20
7.43000601114237
 30
0.0
 10
2.768993864949743
 20
7.433678412890402
 30
0.0
 10
2.778630166599847
 20
7.43551362924071
 30
0.0
 10
2.798825367052485
 20
7.438013972728297
 30
0.0
 10
2.809433769913371
 20
7.438662274442978
 30
0.0
 10
2.830531350241562
 20
7.438662274442978
 30
0.0
  0
SPLINE
  5
1E8
330
1F
100
AcDbEntity
  8
0
  6
CONTINUOUS
 62
     7
100
AcDbSpline
210
0.0
220
0.0
230
1.0
 70
     8
 71
     3
 72
    60
 73
    56
 74
     0
 42
0.00000001
 43
0.00000001
 40
-0.0312499999999999
 40
-0.0312499999999999
 40
0.0
 40
0.0
 40
0.0312500000000001
 40
0.0312500000000001
 40
0.0625000000000003
 40
0.0625000000000003
 40
0.0937500000000004
 40
0.0937500000000004
 40
0.1250000000000005
 40
0.1250000000000005
 40
0.1875000000000006
 40
0.1875000000000006
 40
0.2187500000000006
 40
0.2187500000000006
 40
0.2500000000000007
 40
0.2500000000000007
 40
0.2812500000000007
 40
0.2812500000000007
 40
0.3125000000000007
 40
0.3125000000000007
 40
0.3437500000000007
 40
0.3437500000000007
 40
0.3750000000000007
 40
0.3750000000000007
 40
0.4062500000000008
 40
0.4062500000000008
 40
0.4375000000000008
 40
0.4375000000000008
 40
0.4687500000000008
 40
0.4687500000000008
 40
0.5000000000000008
 40
0.5000000000000008
 40
0.5312500000000009
 40
0.5312500000000009
 40
0.5625000000000009
 40
0.5625000000000009
 40
0.593750000000001
 40
0.593750000000001
 40
0.625000000000001
 40
0.625000000000001
 40
0.7500000000000007
 40
0.7500000000000007
 40
0.7812500000000007
 40
0.7812500000000007
 40
0.8125000000000006
 40
0.8125000000000006
 40
0.8750000000000001
 40
0.8750000000000001
 40
0.9062500000000001
 40
0.9062500000000001
 40
0.9375000000000002
 40
0.9375000000000002
 40
0.9687500000000001
 40
0.9687500000000001
 40
1.0
 40
1.0
 40
1.03125
 40
1.03125
 10
2.825976157838749
 20
6.066668746482609
 30
0.0
 10
2.813988962316184
 20
6.066668746482609
 30
0.0
 10
2.808179806364943
 20
6.065976207573098
 30
0.0
 10
2.796890534211092
 20
6.06336762033079
 30
0.0
 10
2.791517469835038
 20
6.06146066437142
 30
0.0
 10
2.781643209072749
 20
6.056840719548298
 30
0.0
 10
2.777068338355196
 20
6.054094184914518
 30
0.0
 10
2.768893910967807
 20
6.048177805014533
 30
0.0
 10
2.765231208865467
 20
6.044978633224122
 30
0.0
 10
2.755336349286995
 20
6.034805416101571
 30
0.0
 10
2.750450365415467
 20
6.027568850926031
 30
0.0
 10
2.745283190894499
 20
6.016410884343023
 30
0.0
 10
2.743931396370645
 20
6.012621939901375
 30
0.0
 10
2.742029871223636
 20
6.005143560765768
 30
0.0
 10
2.741465704986636
 20
6.001427267754585
 30
0.0
 10
2.741126819445581
 20
5.994042831373384
 30
0.0
 10
2.74135892771052
 20
5.990344455201916
 30
0.0
 10
2.742668702293924
 20
5.983163316365431
 30
0.0
 10
2.743736446455784
 20
5.979686928763233
 30
0.0
 10
2.746742157369086
 20
5.9729588378926
 30
0.0
 10
2.74867880493118
 20
5.969706988516459
 30
0.0
 10
2.753557185966093
 20
5.963437634272248
 30
0.0
 10
2.756485347644059
 20
5.960454674980942
 30
0.0
 10
2.763225740324619
 20
5.954986629971253
 30
0.0
 10
2.767095231422628
 20
5.952452261387699
 30
0.0
 10
2.775759953515538
 20
5.947950016784511
 30
0.0
 10
2.780458123582676
 20
5.946023507991921
 30
0.0
 10
2.790636364414749
 20
5.942826244476989
 30
0.0
 10
2.796208822567362
 20
5.941548101388289
 30
0.0
 10
2.807573317157232
 20
5.939845258062093
 30
0.0
 10
2.813414017313188
 20
5.939392987398218
 30
0.0
 10
2.825394480677898
 20
5.939337492057574
 30
0.0
 10
2.831256669585148
 20
5.939734671003934
 30
0.0
 10
2.842737772216939
 20
5.941346208964364
 30
0.0
 10
2.848317080404526
 20
5.942569718519683
 30
0.0
 10
2.858645455389616
 20
5.945701828111488
 30
0.0
 10
2.863515618083704
 20
5.947648202730658
 30
0.0
 10
2.87223991264225
 20
5.952076417608048
 30
0.0
 10
2.876155925695878
 20
5.954576853228525
 30
0.0
 10
2.893448207100956
 20
5.968308599426337
 30
0.0
 10
2.899285888179632
 20
5.98265957982139
 30
0.0
 10
2.898528577396881
 20
6.001181793758679
 30
0.0
 10
2.897978804764558
 20
6.004913338821838
 30
0.0
 10
2.896097085887869
 20
6.012428440435538
 30
0.0
 10
2.894751965034581
 20
6.016231649982192
 30
0.0
 10
2.889620259490346
 20
6.027395067249294
 30
0.0
 10
2.88476881017712
 20
6.034629895263749
 30
0.0
 10
2.874864463643755
 20
6.044859705569806
 30
0.0
 10
2.871195789098583
 20
6.048076975931707
 30
0.0
 10
2.863003160826274
 20
6.054027557334694
 30
0.0
 10
2.858416484551194
 20
6.056788953696783
 30
0.0
 10
2.848537195130973
 20
6.061426146648476
 30
0.0
 10
2.843174589161886
 20
6.063338891808352
 30
0.0
 10
2.831828444586545
 20
6.06597179197416
 30
0.0
 10
2.825976157838749
 20
6.066668746482609
 30
0.0
 10
2.813988962316184
 20
6.066668746482609
 30
0.0
  0
LINE
  5
1E9
330
1F
100
AcDbEntity
  8
0
  6
CONTINUOUS
 62
     7
100
AcDbLine
 10
3.0627647123
 20
7.4508277308
 30
0.0
 11
3.010271274
 21
7.4508277308
 31
0.0
  0
LINE
  5
1EA
330
1F
100
AcDbEntity
  8
0
  6
CONTINUOUS
 62
     7
100
AcDbLine
 10
3.010271274
 20
7.5381188712
 30
0.0
 11
3.010271274
 21
6.6916621783
 31
0.0
  0
LINE
  5
1EB
330
1F
100
AcDbEntity
  8
0
  6
CONTINUOUS
 62
     7
100
AcDbLine
 10
2.6625022451
 20
6.6916621783
 30
0.0
 11
3.010271274
 21
6.6916621783
 31
0.0
  0
LINE
  5
1EC
330
1F
100
AcDbEntity
  8
0
  6
CONTINUOUS
 62
     7
100
AcDbLine
 10
2.6625022451
 20
6.6916621783
 30
0.0
 11
2.6625022451
 21
7.5381188712
 31
0.0
  0
LINE
  5
1ED
330
1F
100
AcDbEntity
  8
0
  6
CONTINUOUS
 62
     7
100
AcDbLine
 10
2.6625022451
 20
5.8058354066
 30
0.0
 11
2.6625022451
 21
6.6522920995
 31
0.0
  0
LINE
  5
1EE
330
1F
100
AcDbEntity
  8
0
  6
CONTINUOUS
 62
     7
100
AcDbLine
 10
2.6625022451
 20
6.6522920995
 30
0.0
 11
3.010271274
 21
6.6522920995
 31
0.0
  0
LINE
  5
1EF
330
1F
100
AcDbEntity
  8
0
  6
CONTINUOUS
 62
     7
100
AcDbLine
 10
3.010271274
 20
6.6522920995
 30
0.0
 11
3.010271274
 21
5.8058354066
 31
0.0
  0
LINE
  5
1F0
330
1F
100
AcDbEntity
  8
0
  6
CONTINUOUS
 62
     7
100
AcDbLine
 10
3.010271274
 20
5.893126547
 30
0.0
 11
3.0627647123
 21
5.893126547
 31
0.0
  0
LINE
  5
1F1
330
1F
100
AcDbEntity
  8
0
  6
CONTINUOUS
 62
     7
100
AcDbLine
 10
3.0627647123
 20
5.8058354066
 30
0.0
 11
3.0627647123
 21
7.5381188712
 31
0.0
  0
LINE
  5
1F2
330
1F
100
AcDbEntity
  8
0
  6
CONTINUOUS
 62
     7
100
AcDbLine
 10
2.6625022451
 20
6.6916621783
 30
0.0
 11
2.6475022451
 21
6.6916621783
 31
0.0
  0
LINE
  5
1F3
330
1F
100
AcDbEntity
  8
0
  6
CONTINUOUS
 62
     7
100
AcDbLine
 10
2.6475022451
 20
6.6522920995
 30
0.0
 11
2.6475022451
 21
5.8208354066
 31
0.0
  0
LINE
  5
1F4
330
1F
100
AcDbEntity
  8
0
  6
CONTINUOUS
 62
     7
100
AcDbLine
 10
2.6475022451
 20
7.5231188712
 30
0.0
 11
2.6475022451
 21
6.6916621783
 31
0.0
  0
LINE
  5
1F5
330
1F
100
AcDbEntity
  8
0
  6
CONTINUOUS
 62
     7
100
AcDbLine
 10
2.6625022451
 20
6.6522920995
 30
0.0
 11
2.6475022451
 21
6.6522920995
 31
0.0
  0
LINE
  5
1F6
330
1F
100
AcDbEntity
  8
0
  6
CONTINUOUS
 62
     7
100
AcDbLine
 10
3.3561636624
 20
6.7937721061
 30
0.0
 11
3.2971085443
 21
6.7937721061
 31
0.0
  0
LINE
  5
1F7
330
1F
100
AcDbEntity
  8
0
  6
CONTINUOUS
 62
     7
100
AcDbLine
 10
3.3561636624
 20
6.5501821717
 30
0.0
 11
3.2971085443
 21
6.5501821717
 31
0.0
  0
LINE
  5
1F8
330
1F
100
AcDbEntity
  8
0
  6
CONTINUOUS
 62
     7
100
AcDbLine
 10
3.3561636624
 20
6.7937721061
 30
0.0
 11
3.3561636624
 21
6.5501821717
 31
0.0
  0
LINE
  5
1F9
330
1F
100
AcDbEntity
  8
0
  6
CONTINUOUS
 62
     7
100
AcDbLine
 10
3.2971085443
 20
6.7937721061
 30
0.0
 11
3.2971085443
 21
6.5501821717
 31
0.0
  0
LINE
  5
1FA
330
1F
100
AcDbEntity
  8
0
  6
CONTINUOUS
 62
     7
100
AcDbLine
 10
3.3561636624
 20
7.453220925
 30
0.0
 11
3.2971085443
 21
7.453220925
 31
0.0
  0
LINE
  5
1FB
330
1F
100
AcDbEntity
  8
0
  6
CONTINUOUS
 62
     7
100
AcDbLine
 10
3.3561636624
 20
7.453220925
 30
0.0
 11
3.3561636624
 21
6.7937721061
 31
0.0
  0
LINE
  5
1FC
330
1F
100
AcDbEntity
  8
0
  6
CONTINUOUS
 62
     7
100
AcDbLine
 10
3.2971085443
 20
7.453220925
 30
0.0
 11
3.2971085443
 21
6.7937721061
 31
0.0
  0
LINE
  5
1FD
330
1F
100
AcDbEntity
  8
0
  6
CONTINUOUS
 62
     7
100
AcDbLine
 10
3.3561636624
 20
5.8907333528
 30
0.0
 11
3.2971085443
 21
5.8907333528
 31
0.0
  0
LINE
  5
1FE
330
1F
100
AcDbEntity
  8
0
  6
CONTINUOUS
 62
     7
100
AcDbLine
 10
3.3561636624
 20
6.5501821717
 30
0.0
 11
3.3561636624
 21
5.8907333528
 31
0.0
  0
LINE
  5
1FF
330
1F
100
AcDbEntity
  8
0
  6
CONTINUOUS
 62
     7
100
AcDbLine
 10
3.2971085443
 20
6.5501821717
 30
0.0
 11
3.2971085443
 21
5.8907333528
 31
0.0
  0
SPLINE
  5
200
330
1F
100
AcDbEntity
  8
0
  6
CONTINUOUS
 62
     7
100
AcDbSpline
210
0.0
220
0.0
230
1.0
 70
     8
 71
     3
 72
     8
 73
     4
 74
     0
 42
0.00000001
 43
0.00000001
 40
0.0
 40
0.0
 40
0.0
 40
0.0
 40
1.0
 40
1.0
 40
1.0
 40
1.0
 10
2.939532851150592
 20
6.691662178286504
 30
0.0
 10
2.938649958429063
 20
6.678538818706452
 30
0.0
 10
2.938649958429063
 20
6.665415459126399
 30
0.0
 10
2.939532851150592
 20
6.652292099546346
 30
0.0
  0
LINE
  5
201
330
1F
100
AcDbEntity
  8
0
  6
CONTINUOUS
 62
     7
100
AcDbLine
 10
3.010271274
 20
6.6916621783
 30
0.0
 11
3.010271274
 21
6.6522920995
 31
0.0
  0
LINE
  5
202
330
1F
100
AcDbEntity
  8
0
  6
CONTINUOUS
 62
     7
100
AcDbLine
 10
3.3561636624
 20
7.5036700523
 30
0.0
 11
3.3561636624
 21
7.453220925
 31
0.0
  0
LINE
  5
203
330
1F
100
AcDbEntity
  8
0
  6
CONTINUOUS
 62
     7
100
AcDbLine
 10
3.2971085443
 20
7.5036700523
 30
0.0
 11
3.2971085443
 21
7.453220925
 31
0.0
  0
LINE
  5
204
330
1F
100
AcDbEntity
  8
0
  6
CONTINUOUS
 62
     7
100
AcDbLine
 10
3.3561636624
 20
5.8907333528
 30
0.0
 11
3.3561636624
 21
5.8402842255
 31
0.0
  0
LINE
  5
205
330
1F
100
AcDbEntity
  8
0
  6
CONTINUOUS
 62
     7
100
AcDbLine
 10
3.2971085443
 20
5.8907333528
 30
0.0
 11
3.2971085443
 21
5.8402842255
 31
0.0
  0
LINE
  5
206
330
1F
100
AcDbEntity
  8
0
  6
CONTINUOUS
 62
     7
100
AcDbLine
 10
2.6475022451
 20
6.6916621783
 30
0.0
 11
2.6475022451
 21
6.6522920995
 31
0.0
  0
LINE
  5
207
330
1F
100
AcDbEntity
  8
0
  6
CONTINUOUS
 62
     8
100
AcDbLine
 10
2.8199825601
 20
7.2526858003
 30
0.0
 11
2.9125962559
 21
7.2526858003
 31
0.0
  0
LINE
  5
208
330
1F
100
AcDbEntity
  8
0
  6
CONTINUOUS
 62
     8
100
AcDbLine
 10
2.7272225589
 20
7.2526858003
 30
0.0
 11
2.8199825601
 21
7.2526858003
 31
0.0
  0
CIRCLE
  5
209
330
1F
100
AcDbEntity
  8
0
  6
HIDDEN
 62
     7
100
AcDbCircle
 10
3.8332896467
 20
6.131198733
 30
0.0
 40
0.0787401574803148
  0
LINE
  5
20A
330
1F
100
AcDbEntity
  8
0
  6
HIDDEN
 62
     7
100
AcDbLine
 10
3.6430009328
 20
6.4563383367
 30
0.0
 11
3.9907699617
 21
6.4563383367
 31
0.0
  0
LINE
  5
20B
330
1F
100
AcDbEntity
  8
0
  6
HIDDEN
 62
     7
100
AcDbLine
 10
3.9907699617
 20
6.8876159411
 30
0.0
 11
3.7137393556
 21
6.8876159411
 31
0.0
  0
ARC
  5
20C
330
1F
100
AcDbEntity
  8
0
  6
HIDDEN
 62
     7
100
AcDbCircle
 10
4.0057699617
 20
6.6723963011
 30
0.0
 40
0.3627690288713925
100
AcDbArc
 50
90.0
 51
143.6106647116
  0
LINE
  5
20D
330
1F
100
AcDbEntity
  8
0
  6
HIDDEN
 62
     7
100
AcDbLine
 10
3.9907699617
 20
6.8876159411
 30
0.0
 11
4.0057699617
 21
6.9026742477
 31
0.0
  0
LINE
  5
20E
330
1F
100
AcDbEntity
  8
0
  6
HIDDEN
 62
     7
100
AcDbLine
 10
4.0057699617
 20
6.4412800302
 30
0.0
 11
3.9907699617
 21
6.4563383367
 31
0.0
  0
CIRCLE
  5
20F
330
1F
100
AcDbEntity
  8
0
  6
HIDDEN
 62
     7
100
AcDbCircle
 10
3.8332896467
 20
6.131198733
 30
0.0
 40
0.0590551181102361
  0
LINE
  5
210
330
1F
100
AcDbEntity
  8
0
  6
HIDDEN
 62
     7
100
AcDbLine
 10
2.8199825601
 20
7.1148905247
 30
0.0
 11
2.6821872845
 21
7.1148905247
 31
0.0
  0
LINE
  5
211
330
1F
100
AcDbEntity
  8
0
  6
HIDDEN
 62
     7
100
AcDbLine
 10
2.9577778357
 20
7.1148905247
 30
0.0
 11
2.8199825601
 21
7.1148905247
 31
0.0
  0
LINE
  5
212
330
1F
100
AcDbEntity
  8
0
  6
HIDDEN
 62
     7
100
AcDbLine
 10
2.7100350903
 20
7.2723708397
 30
0.0
 11
2.7018723239
 21
7.2723708397
 31
0.0
  0
LINE
  5
213
330
1F
100
AcDbEntity
  8
0
  6
HIDDEN
 62
     7
100
AcDbLine
 10
2.9380927963
 20
7.2723708397
 30
0.0
 11
2.9289745045
 21
7.2723708397
 31
0.0
  0
LINE
  5
214
330
1F
100
AcDbEntity
  8
0
  6
HIDDEN
 62
     7
100
AcDbLine
 10
2.7412424026
 20
6.1503235956
 30
0.0
 11
2.8987227176
 21
6.1503235956
 31
0.0
  0
LINE
  5
215
330
1F
100
AcDbEntity
  8
0
  6
HIDDEN
 62
     7
100
AcDbLine
 10
2.760927442
 20
6.1306385562
 30
0.0
 11
2.8790376782
 21
6.1306385562
 31
0.0
  0
LINE
  5
216
330
1F
100
AcDbEntity
  8
0
  6
HIDDEN
 62
     7
100
AcDbLine
 10
2.8199825601
 20
7.1148905247
 30
0.0
 11
2.8199825601
 21
7.2723708397
 31
0.0
  0
LINE
  5
217
330
1F
100
AcDbEntity
  8
0
  6
HIDDEN
 62
     7
100
AcDbLine
 10
2.8790376782
 20
7.1148905247
 30
0.0
 11
2.8790376782
 21
7.2723708397
 31
0.0
  0
LINE
  5
218
330
1F
100
AcDbEntity
  8
0
  6
HIDDEN
 62
     7
100
AcDbLine
 10
2.760927442
 20
7.1148905247
 30
0.0
 11
2.760927442
 21
7.2723708397
 31
0.0
  0
LINE
  5
219
330
1F
100
AcDbEntity
  8
0
  6
HIDDEN
 62
     7
100
AcDbLine
 10
2.6625022451
 20
6.6916621783
 30
0.0
 11
2.6625022451
 21
6.6522920995
 31
0.0
  0
LINE
  5
21A
330
1F
100
AcDbEntity
  8
0
  6
HIDDEN
 62
     7
100
AcDbLine
 10
3.3561636624
 20
7.453220925
 30
0.0
 11
3.2971085443
 21
7.453220925
 31
0.0
  0
LINE
  5
21B
330
1F
100
AcDbEntity
  8
0
  6
HIDDEN
 62
     7
100
AcDbLine
 10
3.3561636624
 20
5.8907333528
 30
0.0
 11
3.2971085443
 21
5.8907333528
 31
0.0
  0
LINE
  5
21C
330
1F
100
AcDbEntity
  8
0
  6
HIDDEN
 62
     7
100
AcDbLine
 10
3.3561636624
 20
6.5501821717
 30
0.0
 11
3.2971085443
 21
6.5501821717
 31
0.0
  0
LINE
  5
21D
330
1F
100
AcDbEntity
  8
0
  6
HIDDEN
 62
     7
100
AcDbLine
 10
3.3561636624
 20
6.7937721061
 30
0.0
 11
3.2971085443
 21
6.7937721061
 31
0.0
  0
LINE
  5
21E
330
1F
100
AcDbEntity
  8
0
  6
HIDDEN
 62
     7
100
AcDbLine
 10
3.7143980307
 20
6.888512572
 30
0.0
 11
3.6430009328
 21
6.888512572
 31
0.0
  0
LINE
  5
21F
330
1F
100
AcDbEntity
  8
0
  6
HIDDEN
 62
     7
100
AcDbLine
 10
3.5905074945
 20
6.888512572
 30
0.0
 11
3.4152187805
 21
6.888512572
 31
0.0
  0
LINE
  5
220
330
1F
100
AcDbEntity
  8
0
  6
HIDDEN
 62
     7
100
AcDbLine
 10
3.4152187805
 20
6.4554417058
 30
0.0
 11
3.5905074945
 21
6.4554417058
 31
0.0
  0
LINE
  5
221
330
1F
100
AcDbEntity
  8
0
  6
HIDDEN
 62
     7
100
AcDbLine
 10
2.9577778357
 20
7.1148905247
 30
0.0
 11
2.9577778357
 21
7.2526858003
 31
0.0
  0
LINE
  5
222
330
1F
100
AcDbEntity
  8
0
  6
HIDDEN
 62
     7
100
AcDbLine
 10
2.6821872845
 20
7.2526858003
 30
0.0
 11
2.6821872845
 21
7.1148905247
 31
0.0
  0
ARC
  5
223
330
1F
100
AcDbEntity
  8
0
  6
HIDDEN
 62
     7
100
AcDbCircle
 10
2.7018723239
 20
7.2526858003
 30
0.0
 40
0.0196850393700791
100
AcDbArc
 50
90.0
 51
180.0
  0
ARC
  5
224
330
1F
100
AcDbEntity
  8
0
  6
HIDDEN
 62
     7
100
AcDbCircle
 10
2.9380927963
 20
7.2526858003
 30
0.0
 40
0.0196850393700787
100
AcDbArc
 50
0.0
 51
90.0
  0
LINE
  5
225
330
1F
100
AcDbEntity
  8
0
  6
HIDDEN
 62
     7
100
AcDbLine
 10
2.7412424026
 20
7.1148905247
 30
0.0
 11
2.7412424026
 21
6.6916621783
 31
0.0
  0
LINE
  5
226
330
1F
100
AcDbEntity
  8
0
  6
HIDDEN
 62
     7
100
AcDbLine
 10
2.7412424026
 20
6.6522920995
 30
0.0
 11
2.7412424026
 21
6.1503235956
 31
0.0
  0
LINE
  5
227
330
1F
100
AcDbEntity
  8
0
  6
HIDDEN
 62
     7
100
AcDbLine
 10
2.8987227176
 20
6.1503235956
 30
0.0
 11
2.8987227176
 21
6.6522920995
 31
0.0
  0
LINE
  5
228
330
1F
100
AcDbEntity
  8
0
  6
HIDDEN
 62
     7
100
AcDbLine
 10
2.8987227176
 20
6.6916621783
 30
0.0
 11
2.8987227176
 21
7.1148905247
 31
0.0
  0
ARC
  5
229
330
1F
100
AcDbEntity
  8
0
  6
HIDDEN
 62
     7
100
AcDbCircle
 10
2.8790376782
 20
6.1503235956
 30
0.0
 40
0.0196850393700787
100
AcDbArc
 50
270.0
 51
0.0
  0
ARC
  5
22A
330
1F
100
AcDbEntity
  8
0
  6
HIDDEN
 62
     7
100
AcDbCircle
 10
2.760927442
 20
6.1503235956
 30
0.0
 40
0.0196850393700787
100
AcDbArc
 50
180.0
 51
270.0
  0
LINE
  5
22B
330
1F
100
AcDbEntity
  8
0
  6
HIDDEN
 62
     7
100
AcDbLine
 10
2.9577778357
 20
7.1148905247
 30
0.0
 11
2.9577778357
 21
7.3484219262
 31
0.0
  0
LINE
  5
22C
330
1F
100
AcDbEntity
  8
0
  6
HIDDEN
 62
     7
100
AcDbLine
 10
2.6821872845
 20
7.3484270481
 30
0.0
 11
2.6821872845
 21
7.1148905247
 31
0.0
  0
LINE
  5
22D
330
1F
100
AcDbEntity
  8
0
  6
HIDDEN
 62
     7
100
AcDbLine
 10
2.7412424026
 20
6.6522920995
 30
0.0
 11
2.7412424026
 21
5.9954706496
 31
0.0
  0
LINE
  5
22E
330
1F
100
AcDbEntity
  8
0
  6
HIDDEN
 62
     7
100
AcDbLine
 10
2.8987227176
 20
5.99546582
 30
0.0
 11
2.8987227176
 21
6.6522920995
 31
0.0
  0
LINE
  5
22F
330
1F
100
AcDbEntity
  8
0
  6
HIDDEN
 62
     7
100
AcDbLine
 10
2.7412424026
 20
7.1148905247
 30
0.0
 11
2.7412424026
 21
6.6916621783
 31
0.0
  0
LINE
  5
230
330
1F
100
AcDbEntity
  8
0
  6
HIDDEN
 62
     7
100
AcDbLine
 10
2.8987227176
 20
6.6916621783
 30
0.0
 11
2.8987227176
 21
7.1148905247
 31
0.0
  0
LINE
  5
231
330
1F
100
AcDbEntity
  8
0
  6
HIDDEN
 62
     7
100
AcDbLine
 10
3.3561636624
 20
6.9672527295
 30
0.0
 11
3.2971085443
 21
6.9672527295
 31
0.0
  0
LINE
  5
232
330
1F
100
AcDbEntity
  8
0
  6
HIDDEN
 62
     7
100
AcDbLine
 10
3.2971085443
 20
6.3767015484
 30
0.0
 11
3.3561636624
 21
6.3767015484
 31
0.0
  0
LINE
  5
233
330
1F
100
AcDbEntity
  8
0
  6
HIDDEN
 62
     7
100
AcDbLine
 10
2.6625022451
 20
6.888512572
 30
0.0
 11
2.6475022451
 21
6.903512572
 31
0.0
  0
LINE
  5
234
330
1F
100
AcDbEntity
  8
0
  6
HIDDEN
 62
     7
100
AcDbLine
 10
2.6475022451
 20
6.4404417058
 30
0.0
 11
2.6625022451
 21
6.4554417058
 31
0.0
  0
LINE
  5
235
330
1F
100
AcDbEntity
  8
0
  6
HIDDEN
 62
     7
100
AcDbLine
 10
3.0627647123
 20
6.4554417058
 30
0.0
 11
3.2380534262
 21
6.4554417058
 31
0.0
  0
LINE
  5
236
330
1F
100
AcDbEntity
  8
0
  6
HIDDEN
 62
     7
100
AcDbLine
 10
3.2380534262
 20
6.888512572
 30
0.0
 11
3.0627647123
 21
6.888512572
 31
0.0
  0
LINE
  5
237
330
1F
100
AcDbEntity
  8
0
  6
HIDDEN
 62
     7
100
AcDbLine
 10
2.6625022451
 20
6.4554417058
 30
0.0
 11
3.010271274
 21
6.4554417058
 31
0.0
  0
LINE
  5
238
330
1F
100
AcDbEntity
  8
0
  6
HIDDEN
 62
     7
100
AcDbLine
 10
3.010271274
 20
6.888512572
 30
0.0
 11
2.6625022451
 21
6.888512572
 31
0.0
  0
LINE
  5
239
330
1F
100
AcDbEntity
  8
0
  6
HIDDEN
 62
     7
100
AcDbLine
 10
2.6822477991
 20
7.2526858003
 30
0.0
 11
2.957717321
 21
7.2526858003
 31
0.0
  0
LINE
  5
23A
330
1F
100
AcDbEntity
  8
0
  6
CONTINUOUS
 62
     7
100
AcDbLine
 10
8.6432534849
 20
5.8741622446
 30
0.0
 11
8.6538583628
 21
5.8802863006
 31
0.0
  0
LINE
  5
23B
330
1F
100
AcDbEntity
  8
0
  6
CONTINUOUS
 62
     7
100
AcDbLine
 10
9.2556086362
 20
6.9226612912
 30
0.0
 11
9.2556086362
 21
6.9349074128
 31
0.0
  0
LINE
  5
23C
330
1F
100
AcDbEntity
  8
0
  6
CONTINUOUS
 62
     7
100
AcDbLine
 10
8.1208809317
 20
5.8827394029
 30
0.0
 11
8.2101182722
 21
5.8312237828
 31
0.0
  0
LINE
  5
23D
330
1F
100
AcDbEntity
  8
0
  6
CONTINUOUS
 62
     7
100
AcDbLine
 10
7.9642084336
 20
5.9731845109
 30
0.0
 11
8.075838082
 21
5.9087420866
 31
0.0
  0
LINE
  5
23E
330
1F
100
AcDbEntity
  8
0
  6
CONTINUOUS
 62
     7
100
AcDbLine
 10
7.8031421291
 20
6.0661661093
 30
0.0
 11
7.9270899674
 21
5.9946125454
 31
0.0
  0
LINE
  5
23F
330
1F
100
AcDbEntity
  8
0
  6
CONTINUOUS
 62
     7
100
AcDbLine
 10
9.0761896154
 20
7.3314659066
 30
0.0
 11
8.6692134723
 21
7.5664082331
 31
0.0
  0
SPLINE
  5
240
330
1F
100
AcDbEntity
  8
0
  6
CONTINUOUS
 62
     7
100
AcDbSpline
210
0.0
220
0.0
230
1.0
 70
     8
 71
     3
 72
    30
 73
    26
 74
     0
 42
0.00000001
 43
0.00000001
 40
0.0
 40
0.0
 40
0.0
 40
0.0
 40
0.0379467133364802
 40
0.0825909721728936
 40
0.1276875807695378
 40
0.1729110395887659
 40
0.2180607763877238
 40
0.2630854371846585
 40
0.3079891255498939
 40
0.3528040627311965
 40
0.397575434639381
 40
0.4423542214823512
 40
0.4871814999392332
 40
0.5321071972813222
 40
0.5771860670659743
 40
0.6224682129487992
 40
0.6679888550585735
 40
0.7137466828786163
 40
0.7596560885039637
 40
0.8054129664407175
 40
0.8505965367494124
 40
0.8947377485841246
 40
0.937547709911238
 40
0.979082374560726
 40
1.0
 40
1.0
 40
1.0
 40
1.0
 10
8.263359448802602
 20
6.949129003729414
 30
0.0
 10
8.260775723410315
 20
6.951449869218717
 30
0.0
 10
8.255152248457835
 20
6.956501229934583
 30
0.0
 10
8.244911118373212
 20
6.96328639306919
 30
0.0
 10
8.233073175824268
 20
6.969647301781861
 30
0.0
 10
8.220132163362974
 20
6.975075943266837
 30
0.0
 10
8.20633325872574
 20
6.979538061236155
 30
0.0
 10
8.19185561369777
 20
6.982987522781631
 30
0.0
 10
8.176883650083777
 20
6.985402629748134
 30
0.0
 10
8.161595027633627
 20
6.98676779250291
 30
0.0
 10
8.146167560543484
 20
6.987075115387648
 30
0.0
 10
8.130779440135777
 20
6.986323013062004
 30
0.0
 10
8.115607802557124
 20
6.98451646442015
 30
0.0
 10
8.100826474258952
 20
6.981666313229283
 30
0.0
 10
8.086603566812755
 20
6.977787568370969
 30
0.0
 10
8.073102554663855
 20
6.972897818876321
 30
0.0
 10
8.06048518277865
 20
6.967016493020367
 30
0.0
 10
8.048916990646653
 20
6.96016689924696
 30
0.0
 10
8.038582011609428
 20
6.952388772555503
 30
0.0
 10
8.02967487989052
 20
6.94375474460086
 30
0.0
 10
8.0224005927638
 20
6.934390544678693
 30
0.0
 10
8.01688169464998
 20
6.924477352888569
 30
0.0
 10
8.01332922375461
 20
6.914238993024331
 30
0.0
 10
8.01162196028899
 20
6.905529366782767
 30
0.0
 10
8.011782178417395
 20
6.900317486558635
 30
0.0
 10
8.01183584150635
 20
6.898571831464036
 30
0.0
  0
SPLINE
  5
241
330
1F
100
AcDbEntity
  8
0
  6
CONTINUOUS
 62
     7
100
AcDbSpline
210
0.0
220
0.0
230
1.0
 70
     8
 71
     3
 72
    15
 73
    11
 74
     0
 42
0.00000001
 43
0.00000001
 40
0.0
 40
0.0
 40
0.0
 40
0.0
 40
0.0465409287163366
 40
0.1897237870637865
 40
0.335559372792026
 40
0.481554664962332
 40
0.6269565996413551
 40
0.7718681698670782
 40
0.9167250367630404
 40
1.0
 40
1.0
 40
1.0
 40
1.0
 10
7.385452277831638
 20
7.318815339594707
 30
0.0
 10
7.38530615554285
 20
7.31775476562046
 30
0.0
 10
7.384710489002283
 20
7.313431342852473
 30
0.0
 10
7.385098685828477
 20
7.305320913524459
 30
0.0
 10
7.386589800631606
 20
7.294639077046914
 30
0.0
 10
7.389496328844283
 20
7.283747974779871
 30
0.0
 10
7.39357531672077
 20
7.272957533959961
 30
0.0
 10
7.398795018777056
 20
7.262530733453116
 30
0.0
 10
7.403999298373438
 20
7.25391564394746
 30
0.0
 10
7.407742422434525
 20
7.249180722018635
 30
0.0
 10
7.409108775031603
 20
7.247452333440317
 30
0.0
  0
SPLINE
  5
242
330
1F
100
AcDbEntity
  8
0
  6
CONTINUOUS
 62
     7
100
AcDbSpline
210
0.0
220
0.0
230
1.0
 70
     8
 71
     3
 72
    23
 73
    19
 74
     0
 42
0.00000001
 43
0.00000001
 40
0.0
 40
0.0
 40
0.0
 40
0.0
 40
0.0098340069961362
 40
0.0826751178448393
 40
0.1555647024099482
 40
0.2285681549687791
 40
0.3017753201219329
 40
0.3752728655410564
 40
0.4491334540690064
 40
0.5163154270232008
 40
0.5561576137372456
 40
0.6306828092166372
 40
0.7051698809211975
 40
0.7787849397584463
 40
0.8507581325082122
 40
0.9205842587779562
 40
0.9883089458109404
 40
1.0
 40
1.0
 40
1.0
 40
1.0
 10
8.305248166569699
 20
7.775885826587601
 30
0.0
 10
8.304938593976756
 20
7.776503633629996
 30
0.0
 10
8.302335997638023
 20
7.781697576450599
 30
0.0
 10
8.296517104087384
 20
7.79104851748601
 30
0.0
 10
8.287844798260833
 20
7.803702801810665
 30
0.0
 10
8.278317812746096
 20
7.815530288431862
 30
0.0
 10
8.268155071111147
 20
7.826440827497247
 30
0.0
 10
8.257420714325113
 20
7.836285436311718
 30
0.0
 10
8.246578438912515
 20
7.844660430027409
 30
0.0
 10
8.23719456840455
 20
7.850663689634574
 30
0.0
 10
8.227650254633012
 20
7.85582483926058
 30
0.0
 10
8.217601983932605
 20
7.860202534330835
 30
0.0
 10
8.205674786651489
 20
7.863729970737342
 30
0.0
 10
8.193907317469728
 20
7.865482536697608
 30
0.0
 10
8.182514086892935
 20
7.865459981785935
 30
0.0
 10
8.171838559341023
 20
7.86349852691786
 30
0.0
 10
8.164415128837769
 20
7.861226160370045
 30
0.0
 10
8.1608961494757
 20
7.859177325652555
 30
0.0
 10
8.160378108873434
 20
7.858875709910663
 30
0.0
  0
LINE
  5
243
330
1F
100
AcDbEntity
  8
0
  6
CONTINUOUS
 62
     7
100
AcDbLine
 10
8.1614939196
 20
7.8595084921
 30
0.0
 11
8.1369625058
 21
7.8736701759
 31
0.0
  0
LINE
  5
244
330
1F
100
AcDbEntity
  8
0
  6
CONTINUOUS
 62
     7
100
AcDbLine
 10
8.3828723444
 20
7.7317094478
 30
0.0
 11
8.3313146464
 21
7.7614730733
 31
0.0
  0
LINE
  5
245
330
1F
100
AcDbEntity
  8
0
  6
CONTINUOUS
 62
     7
100
AcDbLine
 10
8.5439386489
 20
7.6387278493
 30
0.0
 11
8.4199908106
 21
7.7102814133
 31
0.0
  0
LINE
  5
246
330
1F
100
AcDbEntity
  8
0
  6
CONTINUOUS
 62
     7
100
AcDbLine
 10
7.2708911626
 20
6.373428052
 30
0.0
 11
7.6778673057
 21
6.1384857255
 31
0.0
  0
LINE
  5
247
330
1F
100
AcDbEntity
  8
0
  6
CONTINUOUS
 62
     7
100
AcDbLine
 10
7.0914721418
 20
6.7822326675
 30
0.0
 11
7.0914721418
 21
6.7699865458
 31
0.0
  0
POLYLINE
  5
248
330
1F
100
AcDbEntity
  8
0
  6
CONTINUOUS
 62
     7
100
AcDb2dPolyline
 66
     1
 10
0.0
 20
0.0
 30
0.0
  0
VERTEX
  5
2AF
330
248
100
AcDbEntity
  8
0
  6
CONTINUOUS
 62
     7
100
AcDbVertex
100
AcDb2dVertex
 10
8.0520734393
 20
6.2118015729
 30
0.0
  0
VERTEX
  5
2B0
330
248
100
AcDbEntity
  8
0
  6
CONTINUOUS
 62
     7
100
AcDbVertex
100
AcDb2dVertex
 10
8.0534176947
 20
6.1795285053
 30
0.0
  0
VERTEX
  5
2B1
330
248
100
AcDbEntity
  8
0
  6
CONTINUOUS
 62
     7
100
AcDbVertex
100
AcDb2dVertex
 10
8.0561225044
 20
6.1481521956
 30
0.0
  0
VERTEX
  5
2B2
330
248
100
AcDbEntity
  8
0
  6
CONTINUOUS
 62
     7
100
AcDbVertex
100
AcDb2dVertex
 10
8.0601817383
 20
6.1177437517
 30
0.0
  0
VERTEX
  5
2B3
330
248
100
AcDbEntity
  8
0
  6
CONTINUOUS
 62
     7
100
AcDbVertex
100
AcDb2dVertex
 10
8.065586197
 20
6.088372088
 30
0.0
  0
VERTEX
  5
2B4
330
248
100
AcDbEntity
  8
0
  6
CONTINUOUS
 62
     7
100
AcDbVertex
100
AcDb2dVertex
 10
8.0723236325
 20
6.0601037695
 30
0.0
  0
VERTEX
  5
2B5
330
248
100
AcDbEntity
  8
0
  6
CONTINUOUS
 62
     7
100
AcDbVertex
100
AcDb2dVertex
 10
8.0803787758
 20
6.0330028606
 30
0.0
  0
VERTEX
  5
2B6
330
248
100
AcDbEntity
  8
0
  6
CONTINUOUS
 62
     7
100
AcDbVertex
100
AcDb2dVertex
 10
8.0897333714
 20
6.0071307798
 30
0.0
  0
VERTEX
  5
2B7
330
248
100
AcDbEntity
  8
0
  6
CONTINUOUS
 62
     7
100
AcDbVertex
100
AcDb2dVertex
 10
8.1003662192
 20
5.982546161
 30
0.0
  0
VERTEX
  5
2B8
330
248
100
AcDbEntity
  8
0
  6
CONTINUOUS
 62
     7
100
AcDbVertex
100
AcDb2dVertex
 10
8.1122532219
 20
5.9593047202
 30
0.0
  0
VERTEX
  5
2B9
330
248
100
AcDbEntity
  8
0
  6
CONTINUOUS
 62
     7
100
AcDbVertex
100
AcDb2dVertex
 10
8.1253674401
 20
5.9374591293
 30
0.0
  0
VERTEX
  5
2BA
330
248
100
AcDbEntity
  8
0
  6
CONTINUOUS
 62
     7
100
AcDbVertex
100
AcDb2dVertex
 10
8.1396791531
 20
5.9170588969
 30
0.0
  0
VERTEX
  5
2BB
330
248
100
AcDbEntity
  8
0
  6
CONTINUOUS
 62
     7
100
AcDbVertex
100
AcDb2dVertex
 10
8.1551559264
 20
5.898150256
 30
0.0
  0
VERTEX
  5
2BC
330
248
100
AcDbEntity
  8
0
  6
CONTINUOUS
 62
     7
100
AcDbVertex
100
AcDb2dVertex
 10
8.1717626849
 20
5.880776059
 30
0.0
  0
VERTEX
  5
2BD
330
248
100
AcDbEntity
  8
0
  6
CONTINUOUS
 62
     7
100
AcDbVertex
100
AcDb2dVertex
 10
8.189461793
 20
5.8649756812
 30
0.0
  0
VERTEX
  5
2BE
330
248
100
AcDbEntity
  8
0
  6
CONTINUOUS
 62
     7
100
AcDbVertex
100
AcDb2dVertex
 10
8.2082131391
 20
5.8507849307
 30
0.0
  0
VERTEX
  5
2BF
330
248
100
AcDbEntity
  8
0
  6
CONTINUOUS
 62
     7
100
AcDbVertex
100
AcDb2dVertex
 10
8.2279742271
 20
5.8382359681
 30
0.0
  0
VERTEX
  5
2C0
330
248
100
AcDbEntity
  8
0
  6
CONTINUOUS
 62
     7
100
AcDbVertex
100
AcDb2dVertex
 10
8.2487002727
 20
5.8273572329
 30
0.0
  0
VERTEX
  5
2C1
330
248
100
AcDbEntity
  8
0
  6
CONTINUOUS
 62
     7
100
AcDbVertex
100
AcDb2dVertex
 10
8.2703443045
 20
5.8181733796
 30
0.0
  0
VERTEX
  5
2C2
330
248
100
AcDbEntity
  8
0
  6
CONTINUOUS
 62
     7
100
AcDbVertex
100
AcDb2dVertex
 10
8.2928572707
 20
5.8107052216
 30
0.0
  0
VERTEX
  5
2C3
330
248
100
AcDbEntity
  8
0
  6
CONTINUOUS
 62
     7
100
AcDbVertex
100
AcDb2dVertex
 10
8.3161881503
 20
5.8049696838
 30
0.0
  0
VERTEX
  5
2C4
330
248
100
AcDbEntity
  8
0
  6
CONTINUOUS
 62
     7
100
AcDbVertex
100
AcDb2dVertex
 10
8.3402840687
 20
5.8009797647
 30
0.0
  0
VERTEX
  5
2C5
330
248
100
AcDbEntity
  8
0
  6
CONTINUOUS
 62
     7
100
AcDbVertex
100
AcDb2dVertex
 10
8.3650904173
 20
5.7987445067
 30
0.0
  0
VERTEX
  5
2C6
330
248
100
AcDbEntity
  8
0
  6
CONTINUOUS
 62
     7
100
AcDbVertex
100
AcDb2dVertex
 10
8.3905509776
 20
5.7982689755
 30
0.0
  0
VERTEX
  5
2C7
330
248
100
AcDbEntity
  8
0
  6
CONTINUOUS
 62
     7
100
AcDbVertex
100
AcDb2dVertex
 10
8.4166080485
 20
5.7995542487
 30
0.0
  0
VERTEX
  5
2C8
330
248
100
AcDbEntity
  8
0
  6
CONTINUOUS
 62
     7
100
AcDbVertex
100
AcDb2dVertex
 10
8.4432025771
 20
5.8025974137
 30
0.0
  0
VERTEX
  5
2C9
330
248
100
AcDbEntity
  8
0
  6
CONTINUOUS
 62
     7
100
AcDbVertex
100
AcDb2dVertex
 10
8.4702742921
 20
5.8073915736
 30
0.0
  0
VERTEX
  5
2CA
330
248
100
AcDbEntity
  8
0
  6
CONTINUOUS
 62
     7
100
AcDbVertex
100
AcDb2dVertex
 10
8.4977618412
 20
5.8139258634
 30
0.0
  0
VERTEX
  5
2CB
330
248
100
AcDbEntity
  8
0
  6
CONTINUOUS
 62
     7
100
AcDbVertex
100
AcDb2dVertex
 10
8.5256029294
 20
5.8221854747
 30
0.0
  0
VERTEX
  5
2CC
330
248
100
AcDbEntity
  8
0
  6
CONTINUOUS
 62
     7
100
AcDbVertex
100
AcDb2dVertex
 10
8.5537344606
 20
5.8321516885
 30
0.0
  0
VERTEX
  5
2CD
330
248
100
AcDbEntity
  8
0
  6
CONTINUOUS
 62
     7
100
AcDbVertex
100
AcDb2dVertex
 10
8.5820926805
 20
5.8438019186
 30
0.0
  0
VERTEX
  5
2CE
330
248
100
AcDbEntity
  8
0
  6
CONTINUOUS
 62
     7
100
AcDbVertex
100
AcDb2dVertex
 10
8.6106133209
 20
5.8571097621
 30
0.0
  0
VERTEX
  5
2CF
330
248
100
AcDbEntity
  8
0
  6
CONTINUOUS
 62
     7
100
AcDbVertex
100
AcDb2dVertex
 10
8.6392317457
 20
5.8720450595
 30
0.0
  0
VERTEX
  5
2D0
330
248
100
AcDbEntity
  8
0
  6
CONTINUOUS
 62
     7
100
AcDbVertex
100
AcDb2dVertex
 10
8.667883097
 20
5.888573963
 30
0.0
  0
VERTEX
  5
2D1
330
248
100
AcDbEntity
  8
0
  6
CONTINUOUS
 62
     7
100
AcDbVertex
100
AcDb2dVertex
 10
8.6965024424
 20
5.9066590132
 30
0.0
  0
VERTEX
  5
2D2
330
248
100
AcDbEntity
  8
0
  6
CONTINUOUS
 62
     7
100
AcDbVertex
100
AcDb2dVertex
 10
8.7250249221
 20
5.9262592241
 30
0.0
  0
VERTEX
  5
2D3
330
248
100
AcDbEntity
  8
0
  6
CONTINUOUS
 62
     7
100
AcDbVertex
100
AcDb2dVertex
 10
8.7533858956
 20
5.9473301757
 30
0.0
  0
VERTEX
  5
2D4
330
248
100
AcDbEntity
  8
0
  6
CONTINUOUS
 62
     7
100
AcDbVertex
100
AcDb2dVertex
 10
8.7815210887
 20
5.9698241152
 30
0.0
  0
VERTEX
  5
2D5
330
248
100
AcDbEntity
  8
0
  6
CONTINUOUS
 62
     7
100
AcDbVertex
100
AcDb2dVertex
 10
8.8093667387
 20
5.9936900645
 30
0.0
  0
VERTEX
  5
2D6
330
248
100
AcDbEntity
  8
0
  6
CONTINUOUS
 62
     7
100
AcDbVertex
100
AcDb2dVertex
 10
8.8368597391
 20
6.0188739364
 30
0.0
  0
VERTEX
  5
2D7
330
248
100
AcDbEntity
  8
0
  6
CONTINUOUS
 62
     7
100
AcDbVertex
100
AcDb2dVertex
 10
8.8639377827
 20
6.0453186568
 30
0.0
  0
VERTEX
  5
2D8
330
248
100
AcDbEntity
  8
0
  6
CONTINUOUS
 62
     7
100
AcDbVertex
100
AcDb2dVertex
 10
8.8905395025
 20
6.0729642942
 30
0.0
  0
VERTEX
  5
2D9
330
248
100
AcDbEntity
  8
0
  6
CONTINUOUS
 62
     7
100
AcDbVertex
100
AcDb2dVertex
 10
8.9166046114
 20
6.1017481953
 30
0.0
  0
VERTEX
  5
2DA
330
248
100
AcDbEntity
  8
0
  6
CONTINUOUS
 62
     7
100
AcDbVertex
100
AcDb2dVertex
 10
8.942074038
 20
6.1316051275
 30
0.0
  0
VERTEX
  5
2DB
330
248
100
AcDbEntity
  8
0
  6
CONTINUOUS
 62
     7
100
AcDbVertex
100
AcDb2dVertex
 10
8.966890061
 20
6.1624674259
 30
0.0
  0
VERTEX
  5
2DC
330
248
100
AcDbEntity
  8
0
  6
CONTINUOUS
 62
     7
100
AcDbVertex
100
AcDb2dVertex
 10
8.9909964401
 20
6.1942651476
 30
0.0
  0
VERTEX
  5
2DD
330
248
100
AcDbEntity
  8
0
  6
CONTINUOUS
 62
     7
100
AcDbVertex
100
AcDb2dVertex
 10
9.0143385431
 20
6.2269262295
 30
0.0
  0
VERTEX
  5
2DE
330
248
100
AcDbEntity
  8
0
  6
CONTINUOUS
 62
     7
100
AcDbVertex
100
AcDb2dVertex
 10
9.0368634699
 20
6.260376652
 30
0.0
  0
VERTEX
  5
2DF
330
248
100
AcDbEntity
  8
0
  6
CONTINUOUS
 62
     7
100
AcDbVertex
100
AcDb2dVertex
 10
9.0585201724
 20
6.2945406066
 30
0.0
  0
VERTEX
  5
2E0
330
248
100
AcDbEntity
  8
0
  6
CONTINUOUS
 62
     7
100
AcDbVertex
100
AcDb2dVertex
 10
9.07925957
 20
6.3293406675
 30
0.0
  0
VERTEX
  5
2E1
330
248
100
AcDbEntity
  8
0
  6
CONTINUOUS
 62
     7
100
AcDbVertex
100
AcDb2dVertex
 10
9.0990346612
 20
6.3646979677
 30
0.0
  0
VERTEX
  5
2E2
330
248
100
AcDbEntity
  8
0
  6
CONTINUOUS
 62
     7
100
AcDbVertex
100
AcDb2dVertex
 10
9.1178006297
 20
6.400532377
 30
0.0
  0
VERTEX
  5
2E3
330
248
100
AcDbEntity
  8
0
  6
CONTINUOUS
 62
     7
100
AcDbVertex
100
AcDb2dVertex
 10
9.1355149464
 20
6.4367626841
 30
0.0
  0
VERTEX
  5
2E4
330
248
100
AcDbEntity
  8
0
  6
CONTINUOUS
 62
     7
100
AcDbVertex
100
AcDb2dVertex
 10
9.1521374654
 20
6.4733067804
 30
0.0
  0
VERTEX
  5
2E5
330
248
100
AcDbEntity
  8
0
  6
CONTINUOUS
 62
     7
100
AcDbVertex
100
AcDb2dVertex
 10
9.1676305151
 20
6.5100818462
 30
0.0
  0
VERTEX
  5
2E6
330
248
100
AcDbEntity
  8
0
  6
CONTINUOUS
 62
     7
100
AcDbVertex
100
AcDb2dVertex
 10
9.1819589837
 20
6.5470045383
 30
0.0
  0
VERTEX
  5
2E7
330
248
100
AcDbEntity
  8
0
  6
CONTINUOUS
 62
     7
100
AcDbVertex
100
AcDb2dVertex
 10
9.1950903987
 20
6.5839911791
 30
0.0
  0
VERTEX
  5
2E8
330
248
100
AcDbEntity
  8
0
  6
CONTINUOUS
 62
     7
100
AcDbVertex
100
AcDb2dVertex
 10
9.2069950004
 20
6.6209579458
 30
0.0
  0
VERTEX
  5
2E9
330
248
100
AcDbEntity
  8
0
  6
CONTINUOUS
 62
     7
100
AcDbVertex
100
AcDb2dVertex
 10
9.2176458094
 20
6.6578210608
 30
0.0
  0
VERTEX
  5
2EA
330
248
100
AcDbEntity
  8
0
  6
CONTINUOUS
 62
     7
100
AcDbVertex
100
AcDb2dVertex
 10
9.227018688
 20
6.6944969815
 30
0.0
  0
VERTEX
  5
2EB
330
248
100
AcDbEntity
  8
0
  6
CONTINUOUS
 62
     7
100
AcDbVertex
100
AcDb2dVertex
 10
9.2350923943
 20
6.7309025894
 30
0.0
  0
VERTEX
  5
2EC
330
248
100
AcDbEntity
  8
0
  6
CONTINUOUS
 62
     7
100
AcDbVertex
100
AcDb2dVertex
 10
9.241848631
 20
6.7669553786
 30
0.0
  0
VERTEX
  5
2ED
330
248
100
AcDbEntity
  8
0
  6
CONTINUOUS
 62
     7
100
AcDbVertex
100
AcDb2dVertex
 10
9.2472720864
 20
6.8025736428
 30
0.0
  0
VERTEX
  5
2EE
330
248
100
AcDbEntity
  8
0
  6
CONTINUOUS
 62
     7
100
AcDbVertex
100
AcDb2dVertex
 10
9.2513504695
 20
6.8376766606
 30
0.0
  0
VERTEX
  5
2EF
330
248
100
AcDbEntity
  8
0
  6
CONTINUOUS
 62
     7
100
AcDbVertex
100
AcDb2dVertex
 10
9.2540745373
 20
6.8721848782
 30
0.0
  0
VERTEX
  5
2F0
330
248
100
AcDbEntity
  8
0
  6
CONTINUOUS
 62
     7
100
AcDbVertex
100
AcDb2dVertex
 10
9.2554381163
 20
6.9060200897
 30
0.0
  0
VERTEX
  5
2F1
330
248
100
AcDbEntity
  8
0
  6
CONTINUOUS
 62
     7
100
AcDbVertex
100
AcDb2dVertex
 10
9.2554381163
 20
6.9391056146
 30
0.0
  0
VERTEX
  5
2F2
330
248
100
AcDbEntity
  8
0
  6
CONTINUOUS
 62
     7
100
AcDbVertex
100
AcDb2dVertex
 10
9.2540745373
 20
6.9713664712
 30
0.0
  0
VERTEX
  5
2F3
330
248
100
AcDbEntity
  8
0
  6
CONTINUOUS
 62
     7
100
AcDbVertex
100
AcDb2dVertex
 10
9.2513504695
 20
7.0027295471
 30
0.0
  0
VERTEX
  5
2F4
330
248
100
AcDbEntity
  8
0
  6
CONTINUOUS
 62
     7
100
AcDbVertex
100
AcDb2dVertex
 10
9.2472720864
 20
7.033123764
 30
0.0
  0
VERTEX
  5
2F5
330
248
100
AcDbEntity
  8
0
  6
CONTINUOUS
 62
     7
100
AcDbVertex
100
AcDb2dVertex
 10
9.241848631
 20
7.0624802399
 30
0.0
  0
VERTEX
  5
2F6
330
248
100
AcDbEntity
  8
0
  6
CONTINUOUS
 62
     7
100
AcDbVertex
100
AcDb2dVertex
 10
9.2350923943
 20
7.0907324443
 30
0.0
  0
VERTEX
  5
2F7
330
248
100
AcDbEntity
  8
0
  6
CONTINUOUS
 62
     7
100
AcDbVertex
100
AcDb2dVertex
 10
9.227018688
 20
7.1178163493
 30
0.0
  0
VERTEX
  5
2F8
330
248
100
AcDbEntity
  8
0
  6
CONTINUOUS
 62
     7
100
AcDbVertex
100
AcDb2dVertex
 10
9.2176458094
 20
7.1436705747
 30
0.0
  0
VERTEX
  5
2F9
330
248
100
AcDbEntity
  8
0
  6
CONTINUOUS
 62
     7
100
AcDbVertex
100
AcDb2dVertex
 10
9.2069950004
 20
7.1682365274
 30
0.0
  0
VERTEX
  5
2FA
330
248
100
AcDbEntity
  8
0
  6
CONTINUOUS
 62
     7
100
AcDbVertex
100
AcDb2dVertex
 10
9.1950903987
 20
7.1914585335
 30
0.0
  0
VERTEX
  5
2FB
330
248
100
AcDbEntity
  8
0
  6
CONTINUOUS
 62
     7
100
AcDbVertex
100
AcDb2dVertex
 10
9.1819589837
 20
7.2132839652
 30
0.0
  0
VERTEX
  5
2FC
330
248
100
AcDbEntity
  8
0
  6
CONTINUOUS
 62
     7
100
AcDbVertex
100
AcDb2dVertex
 10
9.1676305151
 20
7.2336633596
 30
0.0
  0
VERTEX
  5
2FD
330
248
100
AcDbEntity
  8
0
  6
CONTINUOUS
 62
     7
100
AcDbVertex
100
AcDb2dVertex
 10
9.1521374654
 20
7.252550531
 30
0.0
  0
VERTEX
  5
2FE
330
248
100
AcDbEntity
  8
0
  6
CONTINUOUS
 62
     7
100
AcDbVertex
100
AcDb2dVertex
 10
9.1355149464
 20
7.2699026754
 30
0.0
  0
VERTEX
  5
2FF
330
248
100
AcDbEntity
  8
0
  6
CONTINUOUS
 62
     7
100
AcDbVertex
100
AcDb2dVertex
 10
9.1178006297
 20
7.2856804678
 30
0.0
  0
VERTEX
  5
300
330
248
100
AcDbEntity
  8
0
  6
CONTINUOUS
 62
     7
100
AcDbVertex
100
AcDb2dVertex
 10
9.0990346612
 20
7.299848151
 30
0.0
  0
VERTEX
  5
301
330
248
100
AcDbEntity
  8
0
  6
CONTINUOUS
 62
     7
100
AcDbVertex
100
AcDb2dVertex
 10
9.07925957
 20
7.3123736169
 30
0.0
  0
VERTEX
  5
302
330
248
100
AcDbEntity
  8
0
  6
CONTINUOUS
 62
     7
100
AcDbVertex
100
AcDb2dVertex
 10
9.0585201724
 20
7.3232284791
 30
0.0
  0
VERTEX
  5
303
330
248
100
AcDbEntity
  8
0
  6
CONTINUOUS
 62
     7
100
AcDbVertex
100
AcDb2dVertex
 10
9.0368634699
 20
7.3323881372
 30
0.0
  0
VERTEX
  5
304
330
248
100
AcDbEntity
  8
0
  6
CONTINUOUS
 62
     7
100
AcDbVertex
100
AcDb2dVertex
 10
9.0143385431
 20
7.3398318328
 30
0.0
  0
VERTEX
  5
305
330
248
100
AcDbEntity
  8
0
  6
CONTINUOUS
 62
     7
100
AcDbVertex
100
AcDb2dVertex
 10
8.9909964401
 20
7.3455426962
 30
0.0
  0
VERTEX
  5
306
330
248
100
AcDbEntity
  8
0
  6
CONTINUOUS
 62
     7
100
AcDbVertex
100
AcDb2dVertex
 10
8.966890061
 20
7.349507785
 30
0.0
  0
VERTEX
  5
307
330
248
100
AcDbEntity
  8
0
  6
CONTINUOUS
 62
     7
100
AcDbVertex
100
AcDb2dVertex
 10
8.942074038
 20
7.3517181131
 30
0.0
  0
VERTEX
  5
308
330
248
100
AcDbEntity
  8
0
  6
CONTINUOUS
 62
     7
100
AcDbVertex
100
AcDb2dVertex
 10
8.9166046114
 20
7.3521686713
 30
0.0
  0
VERTEX
  5
309
330
248
100
AcDbEntity
  8
0
  6
CONTINUOUS
 62
     7
100
AcDbVertex
100
AcDb2dVertex
 10
8.8905395025
 20
7.3508584383
 30
0.0
  0
VERTEX
  5
30A
330
248
100
AcDbEntity
  8
0
  6
CONTINUOUS
 62
     7
100
AcDbVertex
100
AcDb2dVertex
 10
8.8639377827
 20
7.3477903837
 30
0.0
  0
VERTEX
  5
30B
330
248
100
AcDbEntity
  8
0
  6
CONTINUOUS
 62
     7
100
AcDbVertex
100
AcDb2dVertex
 10
8.8368597391
 20
7.3429714605
 30
0.0
  0
VERTEX
  5
30C
330
248
100
AcDbEntity
  8
0
  6
CONTINUOUS
 62
     7
100
AcDbVertex
100
AcDb2dVertex
 10
8.8093667387
 20
7.3364125898
 30
0.0
  0
VERTEX
  5
30D
330
248
100
AcDbEntity
  8
0
  6
CONTINUOUS
 62
     7
100
AcDbVertex
100
AcDb2dVertex
 10
8.7815210887
 20
7.328128636
 30
0.0
  0
VERTEX
  5
30E
330
248
100
AcDbEntity
  8
0
  6
CONTINUOUS
 62
     7
100
AcDbVertex
100
AcDb2dVertex
 10
8.7533858956
 20
7.3181383729
 30
0.0
  0
VERTEX
  5
30F
330
248
100
AcDbEntity
  8
0
  6
CONTINUOUS
 62
     7
100
AcDbVertex
100
AcDb2dVertex
 10
8.7250249221
 20
7.3064644415
 30
0.0
  0
VERTEX
  5
310
330
248
100
AcDbEntity
  8
0
  6
CONTINUOUS
 62
     7
100
AcDbVertex
100
AcDb2dVertex
 10
8.6965024424
 20
7.2931332983
 30
0.0
  0
VERTEX
  5
311
330
248
100
AcDbEntity
  8
0
  6
CONTINUOUS
 62
     7
100
AcDbVertex
100
AcDb2dVertex
 10
8.667883097
 20
7.2781751556
 30
0.0
  0
VERTEX
  5
312
330
248
100
AcDbEntity
  8
0
  6
CONTINUOUS
 62
     7
100
AcDbVertex
100
AcDb2dVertex
 10
8.6392317457
 20
7.261623913
 30
0.0
  0
VERTEX
  5
313
330
248
100
AcDbEntity
  8
0
  6
CONTINUOUS
 62
     7
100
AcDbVertex
100
AcDb2dVertex
 10
8.6106133209
 20
7.2435170805
 30
0.0
  0
VERTEX
  5
314
330
248
100
AcDbEntity
  8
0
  6
CONTINUOUS
 62
     7
100
AcDbVertex
100
AcDb2dVertex
 10
8.5820926805
 20
7.2238956935
 30
0.0
  0
VERTEX
  5
315
330
248
100
AcDbEntity
  8
0
  6
CONTINUOUS
 62
     7
100
AcDbVertex
100
AcDb2dVertex
 10
8.5537344606
 20
7.2028042199
 30
0.0
  0
VERTEX
  5
316
330
248
100
AcDbEntity
  8
0
  6
CONTINUOUS
 62
     7
100
AcDbVertex
100
AcDb2dVertex
 10
8.5256029294
 20
7.1802904592
 30
0.0
  0
VERTEX
  5
317
330
248
100
AcDbEntity
  8
0
  6
CONTINUOUS
 62
     7
100
AcDbVertex
100
AcDb2dVertex
 10
8.4977618412
 20
7.1564054342
 30
0.0
  0
VERTEX
  5
318
330
248
100
AcDbEntity
  8
0
  6
CONTINUOUS
 62
     7
100
AcDbVertex
100
AcDb2dVertex
 10
8.4702742921
 20
7.1312032754
 30
0.0
  0
VERTEX
  5
319
330
248
100
AcDbEntity
  8
0
  6
CONTINUOUS
 62
     7
100
AcDbVertex
100
AcDb2dVertex
 10
8.4432025771
 20
7.1047410984
 30
0.0
  0
VERTEX
  5
31A
330
248
100
AcDbEntity
  8
0
  6
CONTINUOUS
 62
     7
100
AcDbVertex
100
AcDb2dVertex
 10
8.4166080485
 20
7.0770788743
 30
0.0
  0
VERTEX
  5
31B
330
248
100
AcDbEntity
  8
0
  6
CONTINUOUS
 62
     7
100
AcDbVertex
100
AcDb2dVertex
 10
8.3905509776
 20
7.0482792938
 30
0.0
  0
VERTEX
  5
31C
330
248
100
AcDbEntity
  8
0
  6
CONTINUOUS
 62
     7
100
AcDbVertex
100
AcDb2dVertex
 10
8.3650904173
 20
7.0184076253
 30
0.0
  0
VERTEX
  5
31D
330
248
100
AcDbEntity
  8
0
  6
CONTINUOUS
 62
     7
100
AcDbVertex
100
AcDb2dVertex
 10
8.3402840687
 20
6.9875315668
 30
0.0
  0
VERTEX
  5
31E
330
248
100
AcDbEntity
  8
0
  6
CONTINUOUS
 62
     7
100
AcDbVertex
100
AcDb2dVertex
 10
8.3161881503
 20
6.9557210926
 30
0.0
  0
VERTEX
  5
31F
330
248
100
AcDbEntity
  8
0
  6
CONTINUOUS
 62
     7
100
AcDbVertex
100
AcDb2dVertex
 10
8.2928572707
 20
6.9230482947
 30
0.0
  0
VERTEX
  5
320
330
248
100
AcDbEntity
  8
0
  6
CONTINUOUS
 62
     7
100
AcDbVertex
100
AcDb2dVertex
 10
8.2703443045
 20
6.8895872191
 30
0.0
  0
VERTEX
  5
321
330
248
100
AcDbEntity
  8
0
  6
CONTINUOUS
 62
     7
100
AcDbVertex
100
AcDb2dVertex
 10
8.2487002727
 20
6.8554136986
 30
0.0
  0
VERTEX
  5
322
330
248
100
AcDbEntity
  8
0
  6
CONTINUOUS
 62
     7
100
AcDbVertex
100
AcDb2dVertex
 10
8.2279742271
 20
6.8206051806
 30
0.0
  0
VERTEX
  5
323
330
248
100
AcDbEntity
  8
0
  6
CONTINUOUS
 62
     7
100
AcDbVertex
100
AcDb2dVertex
 10
8.2082131391
 20
6.7852405513
 30
0.0
  0
VERTEX
  5
324
330
248
100
AcDbEntity
  8
0
  6
CONTINUOUS
 62
     7
100
AcDbVertex
100
AcDb2dVertex
 10
8.189461793
 20
6.7493999574
 30
0.0
  0
VERTEX
  5
325
330
248
100
AcDbEntity
  8
0
  6
CONTINUOUS
 62
     7
100
AcDbVertex
100
AcDb2dVertex
 10
8.1717626849
 20
6.7131646244
 30
0.0
  0
VERTEX
  5
326
330
248
100
AcDbEntity
  8
0
  6
CONTINUOUS
 62
     7
100
AcDbVertex
100
AcDb2dVertex
 10
8.1551559264
 20
6.6766166722
 30
0.0
  0
VERTEX
  5
327
330
248
100
AcDbEntity
  8
0
  6
CONTINUOUS
 62
     7
100
AcDbVertex
100
AcDb2dVertex
 10
8.1396791531
 20
6.6398389292
 30
0.0
  0
VERTEX
  5
328
330
248
100
AcDbEntity
  8
0
  6
CONTINUOUS
 62
     7
100
AcDbVertex
100
AcDb2dVertex
 10
8.1253674401
 20
6.6029147447
 30
0.0
  0
VERTEX
  5
329
330
248
100
AcDbEntity
  8
0
  6
CONTINUOUS
 62
     7
100
AcDbVertex
100
AcDb2dVertex
 10
8.1122532219
 20
6.5659277997
 30
0.0
  0
VERTEX
  5
32A
330
248
100
AcDbEntity
  8
0
  6
CONTINUOUS
 62
     7
100
AcDbVertex
100
AcDb2dVertex
 10
8.1003662192
 20
6.5289619177
 30
0.0
  0
VERTEX
  5
32B
330
248
100
AcDbEntity
  8
0
  6
CONTINUOUS
 62
     7
100
AcDbVertex
100
AcDb2dVertex
 10
8.0897333714
 20
6.4921008742
 30
0.0
  0
VERTEX
  5
32C
330
248
100
AcDbEntity
  8
0
  6
CONTINUOUS
 62
     7
100
AcDbVertex
100
AcDb2dVertex
 10
8.0803787758
 20
6.4554282072
 30
0.0
  0
VERTEX
  5
32D
330
248
100
AcDbEntity
  8
0
  6
CONTINUOUS
 62
     7
100
AcDbVertex
100
AcDb2dVertex
 10
8.0723236325
 20
6.4190270278
 30
0.0
  0
VERTEX
  5
32E
330
248
100
AcDbEntity
  8
0
  6
CONTINUOUS
 62
     7
100
AcDbVertex
100
AcDb2dVertex
 10
8.065586197
 20
6.3829798319
 30
0.0
  0
VERTEX
  5
32F
330
248
100
AcDbEntity
  8
0
  6
CONTINUOUS
 62
     7
100
AcDbVertex
100
AcDb2dVertex
 10
8.0601817383
 20
6.347368313
 30
0.0
  0
VERTEX
  5
330
330
248
100
AcDbEntity
  8
0
  6
CONTINUOUS
 62
     7
100
AcDbVertex
100
AcDb2dVertex
 10
8.0561225044
 20
6.3122731773
 30
0.0
  0
VERTEX
  5
331
330
248
100
AcDbEntity
  8
0
  6
CONTINUOUS
 62
     7
100
AcDbVertex
100
AcDb2dVertex
 10
8.0534176947
 20
6.2777739608
 30
0.0
  0
VERTEX
  5
332
330
248
100
AcDbEntity
  8
0
  6
CONTINUOUS
 62
     7
100
AcDbVertex
100
AcDb2dVertex
 10
8.0520734393
 20
6.243948849
 30
0.0
  0
SEQEND
  5
333
330
248
100
AcDbEntity
  8
0
  6
CONTINUOUS
 62
     7
  0
LINE
  5
249
330
1F
100
AcDbEntity
  8
0
  6
CONTINUOUS
 62
     7
100
AcDbLine
 10
8.0308574471
 20
6.2439472391
 30
0.0
 11
8.0520734393
 21
6.243948849
 31
0.0
  0
POLYLINE
  5
24A
330
1F
100
AcDbEntity
  8
0
  6
CONTINUOUS
 62
     7
100
AcDb2dPolyline
 66
     1
 10
0.0
 20
0.0
 30
0.0
  0
VERTEX
  5
334
330
24A
100
AcDbEntity
  8
0
  6
CONTINUOUS
 62
     7
100
AcDbVertex
100
AcDb2dVertex
 10
8.0308574471
 20
6.2439472391
 30
0.0
  0
VERTEX
  5
335
330
24A
100
AcDbEntity
  8
0
  6
CONTINUOUS
 62
     7
100
AcDbVertex
100
AcDb2dVertex
 10
8.032198499
 20
6.2781033895
 30
0.0
  0
VERTEX
  5
336
330
24A
100
AcDbEntity
  8
0
  6
CONTINUOUS
 62
     7
100
AcDbVertex
100
AcDb2dVertex
 10
8.0349036112
 20
6.3129365773
 30
0.0
  0
VERTEX
  5
337
330
24A
100
AcDbEntity
  8
0
  6
CONTINUOUS
 62
     7
100
AcDbVertex
100
AcDb2dVertex
 10
8.038966744
 20
6.3483690314
 30
0.0
  0
VERTEX
  5
338
330
24A
100
AcDbEntity
  8
0
  6
CONTINUOUS
 62
     7
100
AcDbVertex
100
AcDb2dVertex
 10
8.0443788259
 20
6.384321643
 30
0.0
  0
VERTEX
  5
339
330
24A
100
AcDbEntity
  8
0
  6
CONTINUOUS
 62
     7
100
AcDbVertex
100
AcDb2dVertex
 10
8.0511277735
 20
6.4207141419
 30
0.0
  0
VERTEX
  5
33A
330
24A
100
AcDbEntity
  8
0
  6
CONTINUOUS
 62
     7
100
AcDbVertex
100
AcDb2dVertex
 10
8.0591985185
 20
6.4574652758
 30
0.0
  0
VERTEX
  5
33B
330
24A
100
AcDbEntity
  8
0
  6
CONTINUOUS
 62
     7
100
AcDbVertex
100
AcDb2dVertex
 10
8.0685730418
 20
6.4944929915
 30
0.0
  0
VERTEX
  5
33C
330
24A
100
AcDbEntity
  8
0
  6
CONTINUOUS
 62
     7
100
AcDbVertex
100
AcDb2dVertex
 10
8.0792304131
 20
6.5317146185
 30
0.0
  0
VERTEX
  5
33D
330
24A
100
AcDbEntity
  8
0
  6
CONTINUOUS
 62
     7
100
AcDbVertex
100
AcDb2dVertex
 10
8.0911468381
 20
6.5690470532
 30
0.0
  0
VERTEX
  5
33E
330
24A
100
AcDbEntity
  8
0
  6
CONTINUOUS
 62
     7
100
AcDbVertex
100
AcDb2dVertex
 10
8.1042957113
 20
6.6064069449
 30
0.0
  0
VERTEX
  5
33F
330
24A
100
AcDbEntity
  8
0
  6
CONTINUOUS
 62
     7
100
AcDbVertex
100
AcDb2dVertex
 10
8.1186476757
 20
6.6437108812
 30
0.0
  0
VERTEX
  5
340
330
24A
100
AcDbEntity
  8
0
  6
CONTINUOUS
 62
     7
100
AcDbVertex
100
AcDb2dVertex
 10
8.1341706881
 20
6.6808755749
 30
0.0
  0
VERTEX
  5
341
330
24A
100
AcDbEntity
  8
0
  6
CONTINUOUS
 62
     7
100
AcDbVertex
100
AcDb2dVertex
 10
8.1508300908
 20
6.7178180496
 30
0.0
  0
VERTEX
  5
342
330
24A
100
AcDbEntity
  8
0
  6
CONTINUOUS
 62
     7
100
AcDbVertex
100
AcDb2dVertex
 10
8.168588689
 20
6.7544558251
 30
0.0
  0
VERTEX
  5
343
330
24A
100
AcDbEntity
  8
0
  6
CONTINUOUS
 62
     7
100
AcDbVertex
100
AcDb2dVertex
 10
8.1874068334
 20
6.7907071013
 30
0.0
  0
VERTEX
  5
344
330
24A
100
AcDbEntity
  8
0
  6
CONTINUOUS
 62
     7
100
AcDbVertex
100
AcDb2dVertex
 10
8.2072425096
 20
6.8264909412
 30
0.0
  0
VERTEX
  5
345
330
24A
100
AcDbEntity
  8
0
  6
CONTINUOUS
 62
     7
100
AcDbVertex
100
AcDb2dVertex
 10
8.228051431
 20
6.8617274514
 30
0.0
  0
VERTEX
  5
346
330
24A
100
AcDbEntity
  8
0
  6
CONTINUOUS
 62
     7
100
AcDbVertex
100
AcDb2dVertex
 10
8.2497871383
 20
6.8963379605
 30
0.0
  0
VERTEX
  5
347
330
24A
100
AcDbEntity
  8
0
  6
CONTINUOUS
 62
     7
100
AcDbVertex
100
AcDb2dVertex
 10
8.2724011028
 20
6.9302451948
 30
0.0
  0
VERTEX
  5
348
330
24A
100
AcDbEntity
  8
0
  6
CONTINUOUS
 62
     7
100
AcDbVertex
100
AcDb2dVertex
 10
8.295842835
 20
6.9633734507
 30
0.0
  0
VERTEX
  5
349
330
24A
100
AcDbEntity
  8
0
  6
CONTINUOUS
 62
     7
100
AcDbVertex
100
AcDb2dVertex
 10
8.3200599974
 20
6.9956487637
 30
0.0
  0
VERTEX
  5
34A
330
24A
100
AcDbEntity
  8
0
  6
CONTINUOUS
 62
     7
100
AcDbVertex
100
AcDb2dVertex
 10
8.3449985212
 20
7.0269990739
 30
0.0
  0
VERTEX
  5
34B
330
24A
100
AcDbEntity
  8
0
  6
CONTINUOUS
 62
     7
100
AcDbVertex
100
AcDb2dVertex
 10
8.3706027268
 20
7.0573543865
 30
0.0
  0
VERTEX
  5
34C
330
24A
100
AcDbEntity
  8
0
  6
CONTINUOUS
 62
     7
100
AcDbVertex
100
AcDb2dVertex
 10
8.3968154486
 20
7.0866469281
 30
0.0
  0
VERTEX
  5
34D
330
24A
100
AcDbEntity
  8
0
  6
CONTINUOUS
 62
     7
100
AcDbVertex
100
AcDb2dVertex
 10
8.4235781623
 20
7.1148112982
 30
0.0
  0
VERTEX
  5
34E
330
24A
100
AcDbEntity
  8
0
  6
CONTINUOUS
 62
     7
100
AcDbVertex
100
AcDb2dVertex
 10
8.4508311158
 20
7.1417846152
 30
0.0
  0
VERTEX
  5
34F
330
24A
100
AcDbEntity
  8
0
  6
CONTINUOUS
 62
     7
100
AcDbVertex
100
AcDb2dVertex
 10
8.4785134621
 20
7.1675066566
 30
0.0
  0
VERTEX
  5
350
330
24A
100
AcDbEntity
  8
0
  6
CONTINUOUS
 62
     7
100
AcDbVertex
100
AcDb2dVertex
 10
8.5065633958
 20
7.1919199937
 30
0.0
  0
VERTEX
  5
351
330
24A
100
AcDbEntity
  8
0
  6
CONTINUOUS
 62
     7
100
AcDbVertex
100
AcDb2dVertex
 10
8.5349182908
 20
7.2149701195
 30
0.0
  0
VERTEX
  5
352
330
24A
100
AcDbEntity
  8
0
  6
CONTINUOUS
 62
     7
100
AcDbVertex
100
AcDb2dVertex
 10
8.5635148401
 20
7.2366055709
 30
0.0
  0
VERTEX
  5
353
330
24A
100
AcDbEntity
  8
0
  6
CONTINUOUS
 62
     7
100
AcDbVertex
100
AcDb2dVertex
 10
8.5922891969
 20
7.256778043
 30
0.0
  0
VERTEX
  5
354
330
24A
100
AcDbEntity
  8
0
  6
CONTINUOUS
 62
     7
100
AcDbVertex
100
AcDb2dVertex
 10
8.6211771178
 20
7.2754424975
 30
0.0
  0
VERTEX
  5
355
330
24A
100
AcDbEntity
  8
0
  6
CONTINUOUS
 62
     7
100
AcDbVertex
100
AcDb2dVertex
 10
8.6501141057
 20
7.2925572628
 30
0.0
  0
VERTEX
  5
356
330
24A
100
AcDbEntity
  8
0
  6
CONTINUOUS
 62
     7
100
AcDbVertex
100
AcDb2dVertex
 10
8.6790355538
 20
7.3080841274
 30
0.0
  0
VERTEX
  5
357
330
24A
100
AcDbEntity
  8
0
  6
CONTINUOUS
 62
     7
100
AcDbVertex
100
AcDb2dVertex
 10
8.7078768902
 20
7.3219884248
 30
0.0
  0
VERTEX
  5
358
330
24A
100
AcDbEntity
  8
0
  6
CONTINUOUS
 62
     7
100
AcDbVertex
100
AcDb2dVertex
 10
8.7365737218
 20
7.3342391116
 30
0.0
  0
VERTEX
  5
359
330
24A
100
AcDbEntity
  8
0
  6
CONTINUOUS
 62
     7
100
AcDbVertex
100
AcDb2dVertex
 10
8.7650619782
 20
7.3448088358
 30
0.0
  0
VERTEX
  5
35A
330
24A
100
AcDbEntity
  8
0
  6
CONTINUOUS
 62
     7
100
AcDbVertex
100
AcDb2dVertex
 10
8.7932780544
 20
7.353673999
 30
0.0
  0
VERTEX
  5
35B
330
24A
100
AcDbEntity
  8
0
  6
CONTINUOUS
 62
     7
100
AcDbVertex
100
AcDb2dVertex
 10
8.8211589534
 20
7.360814808
 30
0.0
  0
VERTEX
  5
35C
330
24A
100
AcDbEntity
  8
0
  6
CONTINUOUS
 62
     7
100
AcDbVertex
100
AcDb2dVertex
 10
8.8486424265
 20
7.3662153199
 30
0.0
  0
VERTEX
  5
35D
330
24A
100
AcDbEntity
  8
0
  6
CONTINUOUS
 62
     7
100
AcDbVertex
100
AcDb2dVertex
 10
8.8756671121
 20
7.3698634771
 30
0.0
  0
VERTEX
  5
35E
330
24A
100
AcDbEntity
  8
0
  6
CONTINUOUS
 62
     7
100
AcDbVertex
100
AcDb2dVertex
 10
8.9021726732
 20
7.3717511344
 30
0.0
  0
VERTEX
  5
35F
330
24A
100
AcDbEntity
  8
0
  6
CONTINUOUS
 62
     7
100
AcDbVertex
100
AcDb2dVertex
 10
8.9280999316
 20
7.3718740775
 30
0.0
  0
VERTEX
  5
360
330
24A
100
AcDbEntity
  8
0
  6
CONTINUOUS
 62
     7
100
AcDbVertex
100
AcDb2dVertex
 10
8.9533910004
 20
7.3702320317
 30
0.0
  0
VERTEX
  5
361
330
24A
100
AcDbEntity
  8
0
  6
CONTINUOUS
 62
     7
100
AcDbVertex
100
AcDb2dVertex
 10
8.977989413
 20
7.3668286633
 30
0.0
  0
VERTEX
  5
362
330
24A
100
AcDbEntity
  8
0
  6
CONTINUOUS
 62
     7
100
AcDbVertex
100
AcDb2dVertex
 10
9.0018402494
 20
7.3616715707
 30
0.0
  0
VERTEX
  5
363
330
24A
100
AcDbEntity
  8
0
  6
CONTINUOUS
 62
     7
100
AcDbVertex
100
AcDb2dVertex
 10
9.0248902587
 20
7.3547722682
 30
0.0
  0
VERTEX
  5
364
330
24A
100
AcDbEntity
  8
0
  6
CONTINUOUS
 62
     7
100
AcDbVertex
100
AcDb2dVertex
 10
9.0470879777
 20
7.3461461595
 30
0.0
  0
VERTEX
  5
365
330
24A
100
AcDbEntity
  8
0
  6
CONTINUOUS
 62
     7
100
AcDbVertex
100
AcDb2dVertex
 10
9.0683838463
 20
7.3358125038
 30
0.0
  0
VERTEX
  5
366
330
24A
100
AcDbEntity
  8
0
  6
CONTINUOUS
 62
     7
100
AcDbVertex
100
AcDb2dVertex
 10
9.0887303181
 20
7.3237943729
 30
0.0
  0
VERTEX
  5
367
330
24A
100
AcDbEntity
  8
0
  6
CONTINUOUS
 62
     7
100
AcDbVertex
100
AcDb2dVertex
 10
9.108081966
 20
7.3101185991
 30
0.0
  0
VERTEX
  5
368
330
24A
100
AcDbEntity
  8
0
  6
CONTINUOUS
 62
     7
100
AcDbVertex
100
AcDb2dVertex
 10
9.1263955843
 20
7.2948157159
 30
0.0
  0
VERTEX
  5
369
330
24A
100
AcDbEntity
  8
0
  6
CONTINUOUS
 62
     7
100
AcDbVertex
100
AcDb2dVertex
 10
9.1436302847
 20
7.2779198896
 30
0.0
  0
VERTEX
  5
36A
330
24A
100
AcDbEntity
  8
0
  6
CONTINUOUS
 62
     7
100
AcDbVertex
100
AcDb2dVertex
 10
9.159747588
 20
7.2594688429
 30
0.0
  0
VERTEX
  5
36B
330
24A
100
AcDbEntity
  8
0
  6
CONTINUOUS
 62
     7
100
AcDbVertex
100
AcDb2dVertex
 10
9.1747115095
 20
7.239503771
 30
0.0
  0
VERTEX
  5
36C
330
24A
100
AcDbEntity
  8
0
  6
CONTINUOUS
 62
     7
100
AcDbVertex
100
AcDb2dVertex
 10
9.1884886397
 20
7.218069249
 30
0.0
  0
VERTEX
  5
36D
330
24A
100
AcDbEntity
  8
0
  6
CONTINUOUS
 62
     7
100
AcDbVertex
100
AcDb2dVertex
 10
9.201048219
 20
7.1952131333
 30
0.0
  0
VERTEX
  5
36E
330
24A
100
AcDbEntity
  8
0
  6
CONTINUOUS
 62
     7
100
AcDbVertex
100
AcDb2dVertex
 10
9.212362206
 20
7.1709864538
 30
0.0
  0
VERTEX
  5
36F
330
24A
100
AcDbEntity
  8
0
  6
CONTINUOUS
 62
     7
100
AcDbVertex
100
AcDb2dVertex
 10
9.2224053402
 20
7.1454433008
 30
0.0
  0
VERTEX
  5
370
330
24A
100
AcDbEntity
  8
0
  6
CONTINUOUS
 62
     7
100
AcDbVertex
100
AcDb2dVertex
 10
9.2311551987
 20
7.1186407036
 30
0.0
  0
VERTEX
  5
371
330
24A
100
AcDbEntity
  8
0
  6
CONTINUOUS
 62
     7
100
AcDbVertex
100
AcDb2dVertex
 10
9.2385922461
 20
7.0906385035
 30
0.0
  0
VERTEX
  5
372
330
24A
100
AcDbEntity
  8
0
  6
CONTINUOUS
 62
     7
100
AcDbVertex
100
AcDb2dVertex
 10
9.2446998777
 20
7.06149922
 30
0.0
  0
VERTEX
  5
373
330
24A
100
AcDbEntity
  8
0
  6
CONTINUOUS
 62
     7
100
AcDbVertex
100
AcDb2dVertex
 10
9.2494644574
 20
7.0312879115
 30
0.0
  0
VERTEX
  5
374
330
24A
100
AcDbEntity
  8
0
  6
CONTINUOUS
 62
     7
100
AcDbVertex
100
AcDb2dVertex
 10
9.2528753474
 20
7.0000720298
 30
0.0
  0
VERTEX
  5
375
330
24A
100
AcDbEntity
  8
0
  6
CONTINUOUS
 62
     7
100
AcDbVertex
100
AcDb2dVertex
 10
9.2549249324
 20
6.9679212696
 30
0.0
  0
VERTEX
  5
376
330
24A
100
AcDbEntity
  8
0
  6
CONTINUOUS
 62
     7
100
AcDbVertex
100
AcDb2dVertex
 10
9.2556086362
 20
6.9349074128
 30
0.0
  0
SEQEND
  5
377
330
24A
100
AcDbEntity
  8
0
  6
CONTINUOUS
 62
     7
  0
POLYLINE
  5
24B
330
1F
100
AcDbEntity
  8
0
  6
CONTINUOUS
 62
     7
100
AcDb2dPolyline
 66
     1
 10
0.0
 20
0.0
 30
0.0
  0
VERTEX
  5
378
330
24B
100
AcDbEntity
  8
0
  6
CONTINUOUS
 62
     7
100
AcDbVertex
100
AcDb2dVertex
 10
8.6432534849
 20
5.8741622446
 30
0.0
  0
VERTEX
  5
379
330
24B
100
AcDbEntity
  8
0
  6
CONTINUOUS
 62
     7
100
AcDbVertex
100
AcDb2dVertex
 10
8.6211771178
 20
5.8618732888
 30
0.0
  0
VERTEX
  5
37A
330
24B
100
AcDbEntity
  8
0
  6
CONTINUOUS
 62
     7
100
AcDbVertex
100
AcDb2dVertex
 10
8.5922891969
 20
5.8471844597
 30
0.0
  0
VERTEX
  5
37B
330
24B
100
AcDbEntity
  8
0
  6
CONTINUOUS
 62
     7
100
AcDbVertex
100
AcDb2dVertex
 10
8.5635148401
 20
5.8341347666
 30
0.0
  0
VERTEX
  5
37C
330
24B
100
AcDbEntity
  8
0
  6
CONTINUOUS
 62
     7
100
AcDbVertex
100
AcDb2dVertex
 10
8.5349182908
 20
5.822753345
 30
0.0
  0
VERTEX
  5
37D
330
24B
100
AcDbEntity
  8
0
  6
CONTINUOUS
 62
     7
100
AcDbVertex
100
AcDb2dVertex
 10
8.5065633958
 20
5.8130656059
 30
0.0
  0
VERTEX
  5
37E
330
24B
100
AcDbEntity
  8
0
  6
CONTINUOUS
 62
     7
100
AcDbVertex
100
AcDb2dVertex
 10
8.4785134621
 20
5.8050931788
 30
0.0
  0
VERTEX
  5
37F
330
24B
100
AcDbEntity
  8
0
  6
CONTINUOUS
 62
     7
100
AcDbVertex
100
AcDb2dVertex
 10
8.4508311158
 20
5.7988538635
 30
0.0
  0
VERTEX
  5
380
330
24B
100
AcDbEntity
  8
0
  6
CONTINUOUS
 62
     7
100
AcDbVertex
100
AcDb2dVertex
 10
8.4235781623
 20
5.7943615902
 30
0.0
  0
VERTEX
  5
381
330
24B
100
AcDbEntity
  8
0
  6
CONTINUOUS
 62
     7
100
AcDbVertex
100
AcDb2dVertex
 10
8.3968154486
 20
5.7916263888
 30
0.0
  0
VERTEX
  5
382
330
24B
100
AcDbEntity
  8
0
  6
CONTINUOUS
 62
     7
100
AcDbVertex
100
AcDb2dVertex
 10
8.3706027268
 20
5.7906543659
 30
0.0
  0
VERTEX
  5
383
330
24B
100
AcDbEntity
  8
0
  6
CONTINUOUS
 62
     7
100
AcDbVertex
100
AcDb2dVertex
 10
8.3449985212
 20
5.791447692
 30
0.0
  0
VERTEX
  5
384
330
24B
100
AcDbEntity
  8
0
  6
CONTINUOUS
 62
     7
100
AcDbVertex
100
AcDb2dVertex
 10
8.3200599974
 20
5.7940045956
 30
0.0
  0
VERTEX
  5
385
330
24B
100
AcDbEntity
  8
0
  6
CONTINUOUS
 62
     7
100
AcDbVertex
100
AcDb2dVertex
 10
8.295842835
 20
5.798319368
 30
0.0
  0
VERTEX
  5
386
330
24B
100
AcDbEntity
  8
0
  6
CONTINUOUS
 62
     7
100
AcDbVertex
100
AcDb2dVertex
 10
8.2724011028
 20
5.8043823759
 30
0.0
  0
VERTEX
  5
387
330
24B
100
AcDbEntity
  8
0
  6
CONTINUOUS
 62
     7
100
AcDbVertex
100
AcDb2dVertex
 10
8.2497871383
 20
5.8121800826
 30
0.0
  0
VERTEX
  5
388
330
24B
100
AcDbEntity
  8
0
  6
CONTINUOUS
 62
     7
100
AcDbVertex
100
AcDb2dVertex
 10
8.228051431
 20
5.8216950783
 30
0.0
  0
VERTEX
  5
389
330
24B
100
AcDbEntity
  8
0
  6
CONTINUOUS
 62
     7
100
AcDbVertex
100
AcDb2dVertex
 10
8.2072425096
 20
5.8329061193
 30
0.0
  0
VERTEX
  5
38A
330
24B
100
AcDbEntity
  8
0
  6
CONTINUOUS
 62
     7
100
AcDbVertex
100
AcDb2dVertex
 10
8.1874068334
 20
5.8457881749
 30
0.0
  0
VERTEX
  5
38B
330
24B
100
AcDbEntity
  8
0
  6
CONTINUOUS
 62
     7
100
AcDbVertex
100
AcDb2dVertex
 10
8.168588689
 20
5.860312484
 30
0.0
  0
VERTEX
  5
38C
330
24B
100
AcDbEntity
  8
0
  6
CONTINUOUS
 62
     7
100
AcDbVertex
100
AcDb2dVertex
 10
8.1508300908
 20
5.8764466184
 30
0.0
  0
VERTEX
  5
38D
330
24B
100
AcDbEntity
  8
0
  6
CONTINUOUS
 62
     7
100
AcDbVertex
100
AcDb2dVertex
 10
8.1341706881
 20
5.8941545562
 30
0.0
  0
VERTEX
  5
38E
330
24B
100
AcDbEntity
  8
0
  6
CONTINUOUS
 62
     7
100
AcDbVertex
100
AcDb2dVertex
 10
8.1186476757
 20
5.9133967612
 30
0.0
  0
VERTEX
  5
38F
330
24B
100
AcDbEntity
  8
0
  6
CONTINUOUS
 62
     7
100
AcDbVertex
100
AcDb2dVertex
 10
8.1042957113
 20
5.9341302722
 30
0.0
  0
VERTEX
  5
390
330
24B
100
AcDbEntity
  8
0
  6
CONTINUOUS
 62
     7
100
AcDbVertex
100
AcDb2dVertex
 10
8.0911468381
 20
5.9563087979
 30
0.0
  0
VERTEX
  5
391
330
24B
100
AcDbEntity
  8
0
  6
CONTINUOUS
 62
     7
100
AcDbVertex
100
AcDb2dVertex
 10
8.0792304131
 20
5.9798828213
 30
0.0
  0
VERTEX
  5
392
330
24B
100
AcDbEntity
  8
0
  6
CONTINUOUS
 62
     7
100
AcDbVertex
100
AcDb2dVertex
 10
8.0685730418
 20
6.0047997093
 30
0.0
  0
VERTEX
  5
393
330
24B
100
AcDbEntity
  8
0
  6
CONTINUOUS
 62
     7
100
AcDbVertex
100
AcDb2dVertex
 10
8.0591985185
 20
6.0310038308
 30
0.0
  0
VERTEX
  5
394
330
24B
100
AcDbEntity
  8
0
  6
CONTINUOUS
 62
     7
100
AcDbVertex
100
AcDb2dVertex
 10
8.0511277735
 20
6.0584366808
 30
0.0
  0
VERTEX
  5
395
330
24B
100
AcDbEntity
  8
0
  6
CONTINUOUS
 62
     7
100
AcDbVertex
100
AcDb2dVertex
 10
8.0443788259
 20
6.0870370107
 30
0.0
  0
VERTEX
  5
396
330
24B
100
AcDbEntity
  8
0
  6
CONTINUOUS
 62
     7
100
AcDbVertex
100
AcDb2dVertex
 10
8.038966744
 20
6.1167409656
 30
0.0
  0
VERTEX
  5
397
330
24B
100
AcDbEntity
  8
0
  6
CONTINUOUS
 62
     7
100
AcDbVertex
100
AcDb2dVertex
 10
8.0349036112
 20
6.1474822264
 30
0.0
  0
VERTEX
  5
398
330
24B
100
AcDbEntity
  8
0
  6
CONTINUOUS
 62
     7
100
AcDbVertex
100
AcDb2dVertex
 10
8.032198499
 20
6.1791921581
 30
0.0
  0
VERTEX
  5
399
330
24B
100
AcDbEntity
  8
0
  6
CONTINUOUS
 62
     7
100
AcDbVertex
100
AcDb2dVertex
 10
8.0308574471
 20
6.211799963
 30
0.0
  0
SEQEND
  5
39A
330
24B
100
AcDbEntity
  8
0
  6
CONTINUOUS
 62
     7
  0
LINE
  5
24C
330
1F
100
AcDbEntity
  8
0
  6
CONTINUOUS
 62
     7
100
AcDbLine
 10
8.0308574471
 20
6.211799963
 30
0.0
 11
8.0520734393
 21
6.2118015729
 31
0.0
  0
POLYLINE
  5
24D
330
1F
100
AcDbEntity
  8
0
  6
CONTINUOUS
 62
     7
100
AcDb2dPolyline
 66
     1
 10
0.0
 20
0.0
 30
0.0
  0
VERTEX
  5
39B
330
24D
100
AcDbEntity
  8
0
  6
CONTINUOUS
 62
     7
100
AcDbVertex
100
AcDb2dVertex
 10
8.6692134723
 20
7.5664082331
 30
0.0
  0
VERTEX
  5
39C
330
24D
100
AcDbEntity
  8
0
  6
CONTINUOUS
 62
     7
100
AcDbVertex
100
AcDb2dVertex
 10
8.6615089364
 20
7.5707004669
 30
0.0
  0
VERTEX
  5
39D
330
24D
100
AcDbEntity
  8
0
  6
CONTINUOUS
 62
     7
100
AcDbVertex
100
AcDb2dVertex
 10
8.6402237883
 20
7.5810396552
 30
0.0
  0
VERTEX
  5
39E
330
24D
100
AcDbEntity
  8
0
  6
CONTINUOUS
 62
     7
100
AcDbVertex
100
AcDb2dVertex
 10
8.6180370555
 20
7.5896723817
 30
0.0
  0
VERTEX
  5
39F
330
24D
100
AcDbEntity
  8
0
  6
CONTINUOUS
 62
     7
100
AcDbVertex
100
AcDb2dVertex
 10
8.5949982454
 20
7.5965793834
 30
0.0
  0
VERTEX
  5
3A0
330
24D
100
AcDbEntity
  8
0
  6
CONTINUOUS
 62
     7
100
AcDbVertex
100
AcDb2dVertex
 10
8.5711587666
 20
7.6017452481
 30
0.0
  0
VERTEX
  5
3A1
330
24D
100
AcDbEntity
  8
0
  6
CONTINUOUS
 62
     7
100
AcDbVertex
100
AcDb2dVertex
 10
8.5465718143
 20
7.6051584486
 30
0.0
  0
VERTEX
  5
3A2
330
24D
100
AcDbEntity
  8
0
  6
CONTINUOUS
 62
     7
100
AcDbVertex
100
AcDb2dVertex
 10
8.5212922516
 20
7.6068113689
 30
0.0
  0
VERTEX
  5
3A3
330
24D
100
AcDbEntity
  8
0
  6
CONTINUOUS
 62
     7
100
AcDbVertex
100
AcDb2dVertex
 10
8.495376487
 20
7.6067003206
 30
0.0
  0
VERTEX
  5
3A4
330
24D
100
AcDbEntity
  8
0
  6
CONTINUOUS
 62
     7
100
AcDbVertex
100
AcDb2dVertex
 10
8.4688823489
 20
7.6048255515
 30
0.0
  0
VERTEX
  5
3A5
330
24D
100
AcDbEntity
  8
0
  6
CONTINUOUS
 62
     7
100
AcDbVertex
100
AcDb2dVertex
 10
8.4418689559
 20
7.6011912449
 30
0.0
  0
VERTEX
  5
3A6
330
24D
100
AcDbEntity
  8
0
  6
CONTINUOUS
 62
     7
100
AcDbVertex
100
AcDb2dVertex
 10
8.4143965854
 20
7.5958055104
 30
0.0
  0
VERTEX
  5
3A7
330
24D
100
AcDbEntity
  8
0
  6
CONTINUOUS
 62
     7
100
AcDbVertex
100
AcDb2dVertex
 10
8.3865265392
 20
7.5886803656
 30
0.0
  0
VERTEX
  5
3A8
330
24D
100
AcDbEntity
  8
0
  6
CONTINUOUS
 62
     7
100
AcDbVertex
100
AcDb2dVertex
 10
8.3583210062
 20
7.5798317097
 30
0.0
  0
VERTEX
  5
3A9
330
24D
100
AcDbEntity
  8
0
  6
CONTINUOUS
 62
     7
100
AcDbVertex
100
AcDb2dVertex
 10
8.3298429239
 20
7.5692792873
 30
0.0
  0
VERTEX
  5
3AA
330
24D
100
AcDbEntity
  8
0
  6
CONTINUOUS
 62
     7
100
AcDbVertex
100
AcDb2dVertex
 10
8.3011558381
 20
7.557046645
 30
0.0
  0
VERTEX
  5
3AB
330
24D
100
AcDbEntity
  8
0
  6
CONTINUOUS
 62
     7
100
AcDbVertex
100
AcDb2dVertex
 10
8.2723237609
 20
7.5431610788
 30
0.0
  0
VERTEX
  5
3AC
330
24D
100
AcDbEntity
  8
0
  6
CONTINUOUS
 62
     7
100
AcDbVertex
100
AcDb2dVertex
 10
8.2434110279
 20
7.5276535726
 30
0.0
  0
VERTEX
  5
3AD
330
24D
100
AcDbEntity
  8
0
  6
CONTINUOUS
 62
     7
100
AcDbVertex
100
AcDb2dVertex
 10
8.2144821548
 20
7.5105587298
 30
0.0
  0
VERTEX
  5
3AE
330
24D
100
AcDbEntity
  8
0
  6
CONTINUOUS
 62
     7
100
AcDbVertex
100
AcDb2dVertex
 10
8.1856016931
 20
7.4919146956
 30
0.0
  0
VERTEX
  5
3AF
330
24D
100
AcDbEntity
  8
0
  6
CONTINUOUS
 62
     7
100
AcDbVertex
100
AcDb2dVertex
 10
8.1568340865
 20
7.4717630723
 30
0.0
  0
VERTEX
  5
3B0
330
24D
100
AcDbEntity
  8
0
  6
CONTINUOUS
 62
     7
100
AcDbVertex
100
AcDb2dVertex
 10
8.1282435267
 20
7.450148826
 30
0.0
  0
VERTEX
  5
3B1
330
24D
100
AcDbEntity
  8
0
  6
CONTINUOUS
 62
     7
100
AcDbVertex
100
AcDb2dVertex
 10
8.0998938106
 20
7.4271201864
 30
0.0
  0
VERTEX
  5
3B2
330
24D
100
AcDbEntity
  8
0
  6
CONTINUOUS
 62
     7
100
AcDbVertex
100
AcDb2dVertex
 10
8.0718481973
 20
7.4027285396
 30
0.0
  0
VERTEX
  5
3B3
330
24D
100
AcDbEntity
  8
0
  6
CONTINUOUS
 62
     7
100
AcDbVertex
100
AcDb2dVertex
 10
8.0441692676
 20
7.3770283127
 30
0.0
  0
VERTEX
  5
3B4
330
24D
100
AcDbEntity
  8
0
  6
CONTINUOUS
 62
     7
100
AcDbVertex
100
AcDb2dVertex
 10
8.016918784
 20
7.3500768531
 30
0.0
  0
VERTEX
  5
3B5
330
24D
100
AcDbEntity
  8
0
  6
CONTINUOUS
 62
     7
100
AcDbVertex
100
AcDb2dVertex
 10
7.990157553
 20
7.3219343
 30
0.0
  0
VERTEX
  5
3B6
330
24D
100
AcDbEntity
  8
0
  6
CONTINUOUS
 62
     7
100
AcDbVertex
100
AcDb2dVertex
 10
7.9639452894
 20
7.2926634504
 30
0.0
  0
VERTEX
  5
3B7
330
24D
100
AcDbEntity
  8
0
  6
CONTINUOUS
 62
     7
100
AcDbVertex
100
AcDb2dVertex
 10
7.9383404829
 20
7.262329619
 30
0.0
  0
VERTEX
  5
3B8
330
24D
100
AcDbEntity
  8
0
  6
CONTINUOUS
 62
     7
100
AcDbVertex
100
AcDb2dVertex
 10
7.913400268
 20
7.2310004926
 30
0.0
  0
VERTEX
  5
3B9
330
24D
100
AcDbEntity
  8
0
  6
CONTINUOUS
 62
     7
100
AcDbVertex
100
AcDb2dVertex
 10
7.889180296
 20
7.1987459785
 30
0.0
  0
VERTEX
  5
3BA
330
24D
100
AcDbEntity
  8
0
  6
CONTINUOUS
 62
     7
100
AcDbVertex
100
AcDb2dVertex
 10
7.8657346111
 20
7.1656380494
 30
0.0
  0
VERTEX
  5
3BB
330
24D
100
AcDbEntity
  8
0
  6
CONTINUOUS
 62
     7
100
AcDbVertex
100
AcDb2dVertex
 10
7.8431155298
 20
7.1317505818
 30
0.0
  0
VERTEX
  5
3BC
330
24D
100
AcDbEntity
  8
0
  6
CONTINUOUS
 62
     7
100
AcDbVertex
100
AcDb2dVertex
 10
7.8213735241
 20
7.0971591919
 30
0.0
  0
VERTEX
  5
3BD
330
24D
100
AcDbEntity
  8
0
  6
CONTINUOUS
 62
     7
100
AcDbVertex
100
AcDb2dVertex
 10
7.800557109
 20
7.0619410668
 30
0.0
  0
VERTEX
  5
3BE
330
24D
100
AcDbEntity
  8
0
  6
CONTINUOUS
 62
     7
100
AcDbVertex
100
AcDb2dVertex
 10
7.7807127339
 20
7.0261747918
 30
0.0
  0
VERTEX
  5
3BF
330
24D
100
AcDbEntity
  8
0
  6
CONTINUOUS
 62
     7
100
AcDbVertex
100
AcDb2dVertex
 10
7.7618846796
 20
6.9899401754
 30
0.0
  0
VERTEX
  5
3C0
330
24D
100
AcDbEntity
  8
0
  6
CONTINUOUS
 62
     7
100
AcDbVertex
100
AcDb2dVertex
 10
7.7441149586
 20
6.9533180713
 30
0.0
  0
VERTEX
  5
3C1
330
24D
100
AcDbEntity
  8
0
  6
CONTINUOUS
 62
     7
100
AcDbVertex
100
AcDb2dVertex
 10
7.7274432223
 20
6.9163901976
 30
0.0
  0
VERTEX
  5
3C2
330
24D
100
AcDbEntity
  8
0
  6
CONTINUOUS
 62
     7
100
AcDbVertex
100
AcDb2dVertex
 10
7.7119066717
 20
6.879238955
 30
0.0
  0
VERTEX
  5
3C3
330
24D
100
AcDbEntity
  8
0
  6
CONTINUOUS
 62
     7
100
AcDbVertex
100
AcDb2dVertex
 10
7.697539975
 20
6.8419472423
 30
0.0
  0
VERTEX
  5
3C4
330
24D
100
AcDbEntity
  8
0
  6
CONTINUOUS
 62
     7
100
AcDbVertex
100
AcDb2dVertex
 10
7.6843751899
 20
6.804598272
 30
0.0
  0
VERTEX
  5
3C5
330
24D
100
AcDbEntity
  8
0
  6
CONTINUOUS
 62
     7
100
AcDbVertex
100
AcDb2dVertex
 10
7.6724416922
 20
6.7672753841
 30
0.0
  0
VERTEX
  5
3C6
330
24D
100
AcDbEntity
  8
0
  6
CONTINUOUS
 62
     7
100
AcDbVertex
100
AcDb2dVertex
 10
7.6617661102
 20
6.7300618608
 30
0.0
  0
VERTEX
  5
3C7
330
24D
100
AcDbEntity
  8
0
  6
CONTINUOUS
 62
     7
100
AcDbVertex
100
AcDb2dVertex
 10
7.6523722653
 20
6.6930407398
 30
0.0
  0
VERTEX
  5
3C8
330
24D
100
AcDbEntity
  8
0
  6
CONTINUOUS
 62
     7
100
AcDbVertex
100
AcDb2dVertex
 10
7.6442811188
 20
6.6562946297
 30
0.0
  0
VERTEX
  5
3C9
330
24D
100
AcDbEntity
  8
0
  6
CONTINUOUS
 62
     7
100
AcDbVertex
100
AcDb2dVertex
 10
7.6375107253
 20
6.6199055257
 30
0.0
  0
VERTEX
  5
3CA
330
24D
100
AcDbEntity
  8
0
  6
CONTINUOUS
 62
     7
100
AcDbVertex
100
AcDb2dVertex
 10
7.6320761921
 20
6.5839546258
 30
0.0
  0
VERTEX
  5
3CB
330
24D
100
AcDbEntity
  8
0
  6
CONTINUOUS
 62
     7
100
AcDbVertex
100
AcDb2dVertex
 10
7.6279896458
 20
6.5485221507
 30
0.0
  0
VERTEX
  5
3CC
330
24D
100
AcDbEntity
  8
0
  6
CONTINUOUS
 62
     7
100
AcDbVertex
100
AcDb2dVertex
 10
7.6252602051
 20
6.5136871641
 30
0.0
  0
VERTEX
  5
3CD
330
24D
100
AcDbEntity
  8
0
  6
CONTINUOUS
 62
     7
100
AcDbVertex
100
AcDb2dVertex
 10
7.6238939604
 20
6.4795273964
 30
0.0
  0
VERTEX
  5
3CE
330
24D
100
AcDbEntity
  8
0
  6
CONTINUOUS
 62
     7
100
AcDbVertex
100
AcDb2dVertex
 10
7.6238939604
 20
6.4461190714
 30
0.0
  0
VERTEX
  5
3CF
330
24D
100
AcDbEntity
  8
0
  6
CONTINUOUS
 62
     7
100
AcDbVertex
100
AcDb2dVertex
 10
7.6252602051
 20
6.4135367363
 30
0.0
  0
VERTEX
  5
3D0
330
24D
100
AcDbEntity
  8
0
  6
CONTINUOUS
 62
     7
100
AcDbVertex
100
AcDb2dVertex
 10
7.6279896458
 20
6.3818530948
 30
0.0
  0
VERTEX
  5
3D1
330
24D
100
AcDbEntity
  8
0
  6
CONTINUOUS
 62
     7
100
AcDbVertex
100
AcDb2dVertex
 10
7.6320761921
 20
6.3511388456
 30
0.0
  0
VERTEX
  5
3D2
330
24D
100
AcDbEntity
  8
0
  6
CONTINUOUS
 62
     7
100
AcDbVertex
100
AcDb2dVertex
 10
7.6375107253
 20
6.3214625243
 30
0.0
  0
VERTEX
  5
3D3
330
24D
100
AcDbEntity
  8
0
  6
CONTINUOUS
 62
     7
100
AcDbVertex
100
AcDb2dVertex
 10
7.6442811188
 20
6.2928903501
 30
0.0
  0
VERTEX
  5
3D4
330
24D
100
AcDbEntity
  8
0
  6
CONTINUOUS
 62
     7
100
AcDbVertex
100
AcDb2dVertex
 10
7.6523722653
 20
6.265486079
 30
0.0
  0
VERTEX
  5
3D5
330
24D
100
AcDbEntity
  8
0
  6
CONTINUOUS
 62
     7
100
AcDbVertex
100
AcDb2dVertex
 10
7.6617661102
 20
6.2393108605
 30
0.0
  0
VERTEX
  5
3D6
330
24D
100
AcDbEntity
  8
0
  6
CONTINUOUS
 62
     7
100
AcDbVertex
100
AcDb2dVertex
 10
7.6724416922
 20
6.2144231017
 30
0.0
  0
VERTEX
  5
3D7
330
24D
100
AcDbEntity
  8
0
  6
CONTINUOUS
 62
     7
100
AcDbVertex
100
AcDb2dVertex
 10
7.6843751899
 20
6.1908783371
 30
0.0
  0
VERTEX
  5
3D8
330
24D
100
AcDbEntity
  8
0
  6
CONTINUOUS
 62
     7
100
AcDbVertex
100
AcDb2dVertex
 10
7.697539975
 20
6.168729104
 30
0.0
  0
VERTEX
  5
3D9
330
24D
100
AcDbEntity
  8
0
  6
CONTINUOUS
 62
     7
100
AcDbVertex
100
AcDb2dVertex
 10
7.7119066717
 20
6.1480248263
 30
0.0
  0
VERTEX
  5
3DA
330
24D
100
AcDbEntity
  8
0
  6
CONTINUOUS
 62
     7
100
AcDbVertex
100
AcDb2dVertex
 10
7.7274432223
 20
6.1288117031
 30
0.0
  0
VERTEX
  5
3DB
330
24D
100
AcDbEntity
  8
0
  6
CONTINUOUS
 62
     7
100
AcDbVertex
100
AcDb2dVertex
 10
7.7441149586
 20
6.1111326065
 30
0.0
  0
VERTEX
  5
3DC
330
24D
100
AcDbEntity
  8
0
  6
CONTINUOUS
 62
     7
100
AcDbVertex
100
AcDb2dVertex
 10
7.7618846796
 20
6.0950269855
 30
0.0
  0
VERTEX
  5
3DD
330
24D
100
AcDbEntity
  8
0
  6
CONTINUOUS
 62
     7
100
AcDbVertex
100
AcDb2dVertex
 10
7.7807127339
 20
6.080530778
 30
0.0
  0
VERTEX
  5
3DE
330
24D
100
AcDbEntity
  8
0
  6
CONTINUOUS
 62
     7
100
AcDbVertex
100
AcDb2dVertex
 10
7.800557109
 20
6.0676763307
 30
0.0
  0
VERTEX
  5
3DF
330
24D
100
AcDbEntity
  8
0
  6
CONTINUOUS
 62
     7
100
AcDbVertex
100
AcDb2dVertex
 10
7.8031421291
 20
6.0661661093
 30
0.0
  0
SEQEND
  5
3E0
330
24D
100
AcDbEntity
  8
0
  6
CONTINUOUS
 62
     7
  0
SPLINE
  5
24E
330
1F
100
AcDbEntity
  8
0
  6
CONTINUOUS
 62
     7
100
AcDbSpline
210
0.0
220
0.0
230
1.0
 70
     8
 71
     3
 72
    74
 73
    70
 74
     0
 42
0.00000001
 43
0.00000001
 40
-0.0312500000000001
 40
-0.0312500000000001
 40
0.0
 40
0.0
 40
0.0312499999999999
 40
0.0312499999999999
 40
0.0624999999999998
 40
0.0624999999999998
 40
0.0937499999999996
 40
0.0937499999999996
 40
0.1249999999999995
 40
0.1249999999999995
 40
0.1562499999999994
 40
0.1562499999999994
 40
0.1874999999999993
 40
0.1874999999999993
 40
0.2187499999999992
 40
0.2187499999999992
 40
0.2499999999999991
 40
0.2499999999999991
 40
0.2812499999999989
 40
0.2812499999999989
 40
0.3124999999999988
 40
0.3124999999999988
 40
0.3749999999999988
 40
0.3749999999999988
 40
0.4062499999999987
 40
0.4062499999999987
 40
0.4374999999999985
 40
0.4374999999999985
 40
0.4531249999999984
 40
0.4531249999999984
 40
0.4687499999999984
 40
0.4687499999999984
 40
0.4843749999999983
 40
0.4843749999999983
 40
0.4999999999999982
 40
0.4999999999999982
 40
0.5156249999999981
 40
0.5156249999999981
 40
0.5312499999999981
 40
0.5312499999999981
 40
0.5624999999999982
 40
0.5624999999999982
 40
0.5937499999999983
 40
0.5937499999999983
 40
0.6249999999999984
 40
0.6249999999999984
 40
0.6562499999999986
 40
0.6562499999999986
 40
0.6874999999999987
 40
0.6874999999999987
 40
0.7187499999999988
 40
0.7187499999999988
 40
0.7499999999999988
 40
0.7499999999999988
 40
0.8124999999999991
 40
0.8124999999999991
 40
0.8437499999999993
 40
0.8437499999999993
 40
0.8749999999999996
 40
0.8749999999999996
 40
0.9062499999999997
 40
0.9062499999999997
 40
0.9218749999999998
 40
0.9218749999999998
 40
0.9374999999999998
 40
0.9374999999999998
 40
0.9687499999999999
 40
0.9687499999999999
 40
1.0
 40
1.0
 40
1.03125
 40
1.03125
 10
8.254305562052417
 20
7.1028532438298
 30
0.0
 10
8.239387319935725
 20
7.111465361689683
 30
0.0
 10
8.231248782623856
 20
7.114677290735637
 30
0.0
 10
8.213688857905497
 20
7.11899719729095
 30
0.0
 10
8.204239037713602
 20
7.120064541202186
 30
0.0
 10
8.185125905303556
 20
7.119952747826742
 30
0.0
 10
8.175216225795118
 20
7.118777863105588
 30
0.0
 10
8.155671982096873
 20
7.114354995771422
 30
0.0
 10
8.146050307711793
 20
7.111141511212952
 30
0.0
 10
8.127133820207183
 20
7.102796838447162
 30
0.0
 10
8.118050019887715
 20
7.097749822434884
 30
0.0
 10
8.10080171483594
 20
7.086198153576806
 30
0.0
 10
8.092539947009275
 20
7.079611449977613
 30
0.0
 10
8.077260193807266
 20
7.065388216374386
 30
0.0
 10
8.070205560127942
 20
7.057743731169717
 30
0.0
 10
8.057173185715722
 20
7.041471934653758
 30
0.0
 10
8.051197712978098
 20
7.032825010336327
 30
0.0
 10
8.040570991754805
 20
7.015066696884492
 30
0.0
 10
8.035870783710603
 20
7.005899088402916
 30
0.0
 10
8.027635367698968
 20
6.987015173551569
 30
0.0
 10
8.024093497208993
 20
6.977252514932422
 30
0.0
 10
8.015454059126105
 20
6.947882611504099
 30
0.0
 10
8.012148765363472
 20
6.927952242509874
 30
0.0
 10
8.011434350756675
 20
6.897776228369844
 30
0.0
 10
8.011925265693982
 20
6.887882290411568
 30
0.0
 10
8.014577009263483
 20
6.868525921262073
 30
0.0
 10
8.016774030780645
 20
6.858954942077711
 30
0.0
 10
8.021566644298552
 20
6.845592028004241
 30
0.0
 10
8.023410552638747
 20
6.841300857243291
 30
0.0
 10
8.02765927674879
 20
6.83310256252252
 30
0.0
 10
8.0300886823077
 20
6.829164331213795
 30
0.0
 10
8.03547765178005
 20
6.821939046226052
 30
0.0
 10
8.038427599632483
 20
6.818652203105806
 30
0.0
 10
8.044875843419106
 20
6.812789771850649
 30
0.0
 10
8.04841642323823
 20
6.810194455983286
 30
0.0
 10
8.055840438190351
 20
6.805939207689596
 30
0.0
 10
8.05972509796809
 20
6.804262301370036
 30
0.0
 10
8.06782636235503
 20
6.80176743550624
 30
0.0
 10
8.072079644747921
 20
6.800950210403203
 30
0.0
 10
8.084935653170302
 20
6.799771358396487
 30
0.0
 10
8.09380774216926
 20
6.800642032900751
 30
0.0
 10
8.111334171982929
 20
6.80474333076545
 30
0.0
 10
8.119962848093921
 20
6.807929630843906
 30
0.0
 10
8.137094648029198
 20
6.815985463087098
 30
0.0
 10
8.145542686984184
 20
6.820850516262118
 30
0.0
 10
8.161859295196798
 20
6.831620933534913
 30
0.0
 10
8.16980286077524
 20
6.837566059313064
 30
0.0
 10
8.185354858305983
 20
6.850430967430873
 30
0.0
 10
8.19299605948448
 20
6.85739217859843
 30
0.0
 10
8.207605511991344
 20
6.871898826151199
 30
0.0
 10
8.214617458509542
 20
6.879475991886115
 30
0.0
 10
8.228066515016039
 20
6.895271566295922
 30
0.0
 10
8.234543713233803
 20
6.903547003326603
 30
0.0
 10
8.252726657544306
 20
6.929028875938278
 30
0.0
 10
8.263061416049304
 20
6.946577154132079
 30
0.0
 10
8.275180204086073
 20
6.974054290061378
 30
0.0
 10
8.27863961812724
 20
6.983456343739707
 30
0.0
 10
8.283875755536325
 20
7.001940479325071
 30
0.0
 10
8.285703672571369
 20
7.011115632068636
 30
0.0
 10
8.287489162881819
 20
7.029374976028648
 30
0.0
 10
8.287410785107303
 20
7.03825525295967
 30
0.0
 10
8.285722253001245
 20
7.050923222579806
 30
0.0
 10
8.284897756021477
 20
7.055052940905909
 30
0.0
 10
8.28268700121943
 20
7.063123948320325
 30
0.0
 10
8.281286308038446
 20
7.067094908429406
 30
0.0
 10
8.27627234628804
 20
7.078449405630947
 30
0.0
 10
8.271884627482446
 20
7.085282113364172
 30
0.0
 10
8.26093017750518
 20
7.097487401970408
 30
0.0
 10
8.254305562052417
 20
7.1028532438298
 30
0.0
 10
8.239387319935725
 20
7.111465361689683
 30
0.0
  0
SPLINE
  5
24F
330
1F
100
AcDbEntity
  8
0
  6
CONTINUOUS
 62
     7
100
AcDbSpline
210
0.0
220
0.0
230
1.0
 70
     8
 71
     3
 72
    10
 73
     6
 74
     0
 42
0.00000001
 43
0.00000001
 40
0.0
 40
0.0
 40
0.0
 40
0.0
 40
0.3107737787870348
 40
0.6326869033487074
 40
1.0
 40
1.0
 40
1.0
 40
1.0
 10
8.093732767902496
 20
5.898479951508937
 30
0.0
 10
8.096279893612397
 20
5.897007280843772
 30
0.0
 10
8.101465443963933
 20
5.894009153246157
 30
0.0
 10
8.110644027188524
 20
5.888665414283904
 30
0.0
 10
8.117327074032163
 20
5.884808394780074
 30
0.0
 10
8.120888706708996
 20
5.882752852297517
 30
0.0
  0
SPLINE
  5
250
330
1F
100
AcDbEntity
  8
0
  6
CONTINUOUS
 62
     7
100
AcDbSpline
210
0.0
220
0.0
230
1.0
 70
     8
 71
     3
 72
    11
 73
     7
 74
     0
 42
0.00000001
 43
0.00000001
 40
0.0
 40
0.0
 40
0.0
 40
0.0
 40
0.0784183723899794
 40
0.4090013527306379
 40
0.6998428519356849
 40
1.0
 40
1.0
 40
1.0
 40
1.0
 10
8.075840215222762
 20
5.908745791065031
 30
0.0
 10
8.0760950254831
 20
5.908597255516903
 30
0.0
 10
8.077424021966856
 20
5.907822548796256
 30
0.0
 10
8.081078755227702
 20
5.905744621743221
 30
0.0
 10
8.086750541389364
 20
5.902502197493607
 30
0.0
 10
8.091381029622505
 20
5.899834715614039
 30
0.0
 10
8.093732767902496
 20
5.898479951508937
 30
0.0
  0
POLYLINE
  5
251
330
1F
100
AcDbEntity
  8
0
  6
CONTINUOUS
 62
     7
100
AcDb2dPolyline
 66
     1
 10
0.0
 20
0.0
 30
0.0
  0
VERTEX
  5
3E1
330
251
100
AcDbEntity
  8
0
  6
CONTINUOUS
 62
     7
100
AcDbVertex
100
AcDb2dVertex
 10
7.7849476085
 20
6.3537606911
 30
0.0
  0
VERTEX
  5
3E2
330
251
100
AcDbEntity
  8
0
  6
CONTINUOUS
 62
     7
100
AcDbVertex
100
AcDb2dVertex
 10
7.7863051763
 20
6.3208910987
 30
0.0
  0
VERTEX
  5
3E3
330
251
100
AcDbEntity
  8
0
  6
CONTINUOUS
 62
     7
100
AcDbVertex
100
AcDb2dVertex
 10
7.7890490553
 20
6.2889346445
 30
0.0
  0
VERTEX
  5
3E4
330
251
100
AcDbEntity
  8
0
  6
CONTINUOUS
 62
     7
100
AcDbVertex
100
AcDb2dVertex
 10
7.7931730194
 20
6.2579638426
 30
0.0
  0
VERTEX
  5
3E5
330
251
100
AcDbEntity
  8
0
  6
CONTINUOUS
 62
     7
100
AcDbVertex
100
AcDb2dVertex
 10
7.7986677107
 20
6.2280489703
 30
0.0
  0
VERTEX
  5
3E6
330
251
100
AcDbEntity
  8
0
  6
CONTINUOUS
 62
     7
100
AcDbVertex
100
AcDb2dVertex
 10
7.8055206608
 20
6.1992579089
 30
0.0
  0
VERTEX
  5
3E7
330
251
100
AcDbEntity
  8
0
  6
CONTINUOUS
 62
     7
100
AcDbVertex
100
AcDb2dVertex
 10
7.8137163194
 20
6.1716559897
 30
0.0
  0
VERTEX
  5
3E8
330
251
100
AcDbEntity
  8
0
  6
CONTINUOUS
 62
     7
100
AcDbVertex
100
AcDb2dVertex
 10
7.8232360894
 20
6.1453058454
 30
0.0
  0
VERTEX
  5
3E9
330
251
100
AcDbEntity
  8
0
  6
CONTINUOUS
 62
     7
100
AcDbVertex
100
AcDb2dVertex
 10
7.834058369
 20
6.1202672684
 30
0.0
  0
VERTEX
  5
3EA
330
251
100
AcDbEntity
  8
0
  6
CONTINUOUS
 62
     7
100
AcDbVertex
100
AcDb2dVertex
 10
7.8461586008
 20
6.0965970751
 30
0.0
  0
VERTEX
  5
3EB
330
251
100
AcDbEntity
  8
0
  6
CONTINUOUS
 62
     7
100
AcDbVertex
100
AcDb2dVertex
 10
7.8595093276
 20
6.0743489766
 30
0.0
  0
VERTEX
  5
3EC
330
251
100
AcDbEntity
  8
0
  6
CONTINUOUS
 62
     7
100
AcDbVertex
100
AcDb2dVertex
 10
7.8740802545
 20
6.0535734571
 30
0.0
  0
VERTEX
  5
3ED
330
251
100
AcDbEntity
  8
0
  6
CONTINUOUS
 62
     7
100
AcDbVertex
100
AcDb2dVertex
 10
7.8898383181
 20
6.0343176594
 30
0.0
  0
VERTEX
  5
3EE
330
251
100
AcDbEntity
  8
0
  6
CONTINUOUS
 62
     7
100
AcDbVertex
100
AcDb2dVertex
 10
7.9067477609
 20
6.0166252778
 30
0.0
  0
VERTEX
  5
3EF
330
251
100
AcDbEntity
  8
0
  6
CONTINUOUS
 62
     7
100
AcDbVertex
100
AcDb2dVertex
 10
7.9247702129
 20
6.000536459
 30
0.0
  0
VERTEX
  5
3F0
330
251
100
AcDbEntity
  8
0
  6
CONTINUOUS
 62
     7
100
AcDbVertex
100
AcDb2dVertex
 10
7.9438647784
 20
5.9860877107
 30
0.0
  0
VERTEX
  5
3F1
330
251
100
AcDbEntity
  8
0
  6
CONTINUOUS
 62
     7
100
AcDbVertex
100
AcDb2dVertex
 10
7.963988129
 20
5.9733118195
 30
0.0
  0
VERTEX
  5
3F2
330
251
100
AcDbEntity
  8
0
  6
CONTINUOUS
 62
     7
100
AcDbVertex
100
AcDb2dVertex
 10
7.9642084336
 20
5.9731845109
 30
0.0
  0
SEQEND
  5
3F3
330
251
100
AcDbEntity
  8
0
  6
CONTINUOUS
 62
     7
  0
LINE
  5
252
330
1F
100
AcDbEntity
  8
0
  6
CONTINUOUS
 62
     7
100
AcDbLine
 10
8.0308574471
 20
6.211799963
 30
0.0
 11
7.7849476085
 21
6.3537606911
 31
0.0
  0
LINE
  5
253
330
1F
100
AcDbEntity
  8
0
  6
CONTINUOUS
 62
     7
100
AcDbLine
 10
8.0308574471
 20
6.2439472391
 30
0.0
 11
7.7849476085
 21
6.3859079672
 31
0.0
  0
POLYLINE
  5
254
330
1F
100
AcDbEntity
  8
0
  6
CONTINUOUS
 62
     7
100
AcDb2dPolyline
 66
     1
 10
0.0
 20
0.0
 30
0.0
  0
VERTEX
  5
3F4
330
254
100
AcDbEntity
  8
0
  6
CONTINUOUS
 62
     7
100
AcDbVertex
100
AcDb2dVertex
 10
8.6651930331
 20
7.513952491
 30
0.0
  0
VERTEX
  5
3F5
330
254
100
AcDbEntity
  8
0
  6
CONTINUOUS
 62
     7
100
AcDbVertex
100
AcDb2dVertex
 10
8.6386620973
 20
7.5126500633
 30
0.0
  0
VERTEX
  5
3F6
330
254
100
AcDbEntity
  8
0
  6
CONTINUOUS
 62
     7
100
AcDbVertex
100
AcDb2dVertex
 10
8.6115833482
 20
7.5095564956
 30
0.0
  0
VERTEX
  5
3F7
330
254
100
AcDbEntity
  8
0
  6
CONTINUOUS
 62
     7
100
AcDbVertex
100
AcDb2dVertex
 10
8.5840182315
 20
7.5046788075
 30
0.0
  0
VERTEX
  5
3F8
330
254
100
AcDbEntity
  8
0
  6
CONTINUOUS
 62
     7
100
AcDbVertex
100
AcDb2dVertex
 10
8.5560292964
 20
7.4980280674
 30
0.0
  0
VERTEX
  5
3F9
330
254
100
AcDbEntity
  8
0
  6
CONTINUOUS
 62
     7
100
AcDbVertex
100
AcDb2dVertex
 10
8.5276800542
 20
7.4896193666
 30
0.0
  0
VERTEX
  5
3FA
330
254
100
AcDbEntity
  8
0
  6
CONTINUOUS
 62
     7
100
AcDbVertex
100
AcDb2dVertex
 10
8.4990348334
 20
7.4794717859
 30
0.0
  0
VERTEX
  5
3FB
330
254
100
AcDbEntity
  8
0
  6
CONTINUOUS
 62
     7
100
AcDbVertex
100
AcDb2dVertex
 10
8.4701586342
 20
7.4676083515
 30
0.0
  0
VERTEX
  5
3FC
330
254
100
AcDbEntity
  8
0
  6
CONTINUOUS
 62
     7
100
AcDbVertex
100
AcDb2dVertex
 10
8.4411169812
 20
7.4540559835
 30
0.0
  0
VERTEX
  5
3FD
330
254
100
AcDbEntity
  8
0
  6
CONTINUOUS
 62
     7
100
AcDbVertex
100
AcDb2dVertex
 10
8.4119757741
 20
7.438845434
 30
0.0
  0
VERTEX
  5
3FE
330
254
100
AcDbEntity
  8
0
  6
CONTINUOUS
 62
     7
100
AcDbVertex
100
AcDb2dVertex
 10
8.3828011386
 20
7.4220112181
 30
0.0
  0
VERTEX
  5
3FF
330
254
100
AcDbEntity
  8
0
  6
CONTINUOUS
 62
     7
100
AcDbVertex
100
AcDb2dVertex
 10
8.3536592764
 20
7.4035915352
 30
0.0
  0
VERTEX
  5
400
330
254
100
AcDbEntity
  8
0
  6
CONTINUOUS
 62
     7
100
AcDbVertex
100
AcDb2dVertex
 10
8.3246163146
 20
7.3836281822
 30
0.0
  0
VERTEX
  5
401
330
254
100
AcDbEntity
  8
0
  6
CONTINUOUS
 62
     7
100
AcDbVertex
100
AcDb2dVertex
 10
8.2957381561
 20
7.3621664591
 30
0.0
  0
VERTEX
  5
402
330
254
100
AcDbEntity
  8
0
  6
CONTINUOUS
 62
     7
100
AcDbVertex
100
AcDb2dVertex
 10
8.2670903297
 20
7.3392550655
 30
0.0
  0
VERTEX
  5
403
330
254
100
AcDbEntity
  8
0
  6
CONTINUOUS
 62
     7
100
AcDbVertex
100
AcDb2dVertex
 10
8.2387378416
 20
7.3149459909
 30
0.0
  0
VERTEX
  5
404
330
254
100
AcDbEntity
  8
0
  6
CONTINUOUS
 62
     7
100
AcDbVertex
100
AcDb2dVertex
 10
8.2107450278
 20
7.2892943962
 30
0.0
  0
VERTEX
  5
405
330
254
100
AcDbEntity
  8
0
  6
CONTINUOUS
 62
     7
100
AcDbVertex
100
AcDb2dVertex
 10
8.1831754081
 20
7.2623584886
 30
0.0
  0
VERTEX
  5
406
330
254
100
AcDbEntity
  8
0
  6
CONTINUOUS
 62
     7
100
AcDbVertex
100
AcDb2dVertex
 10
8.1560915421
 20
7.2341993898
 30
0.0
  0
VERTEX
  5
407
330
254
100
AcDbEntity
  8
0
  6
CONTINUOUS
 62
     7
100
AcDbVertex
100
AcDb2dVertex
 10
8.1295548872
 20
7.2048809969
 30
0.0
  0
VERTEX
  5
408
330
254
100
AcDbEntity
  8
0
  6
CONTINUOUS
 62
     7
100
AcDbVertex
100
AcDb2dVertex
 10
8.1036256589
 20
7.1744698377
 30
0.0
  0
VERTEX
  5
409
330
254
100
AcDbEntity
  8
0
  6
CONTINUOUS
 62
     7
100
AcDbVertex
100
AcDb2dVertex
 10
8.0783626946
 20
7.1430349198
 30
0.0
  0
VERTEX
  5
40A
330
254
100
AcDbEntity
  8
0
  6
CONTINUOUS
 62
     7
100
AcDbVertex
100
AcDb2dVertex
 10
8.0538233196
 20
7.1106475734
 30
0.0
  0
VERTEX
  5
40B
330
254
100
AcDbEntity
  8
0
  6
CONTINUOUS
 62
     7
100
AcDbVertex
100
AcDb2dVertex
 10
8.0300632175
 20
7.0773812905
 30
0.0
  0
VERTEX
  5
40C
330
254
100
AcDbEntity
  8
0
  6
CONTINUOUS
 62
     7
100
AcDbVertex
100
AcDb2dVertex
 10
8.0071363034
 20
7.0433115571
 30
0.0
  0
VERTEX
  5
40D
330
254
100
AcDbEntity
  8
0
  6
CONTINUOUS
 62
     7
100
AcDbVertex
100
AcDb2dVertex
 10
7.9850946019
 20
7.0085156825
 30
0.0
  0
VERTEX
  5
40E
330
254
100
AcDbEntity
  8
0
  6
CONTINUOUS
 62
     7
100
AcDbVertex
100
AcDb2dVertex
 10
7.963988129
 20
6.9730726237
 30
0.0
  0
VERTEX
  5
40F
330
254
100
AcDbEntity
  8
0
  6
CONTINUOUS
 62
     7
100
AcDbVertex
100
AcDb2dVertex
 10
7.9438647784
 20
6.9370628064
 30
0.0
  0
VERTEX
  5
410
330
254
100
AcDbEntity
  8
0
  6
CONTINUOUS
 62
     7
100
AcDbVertex
100
AcDb2dVertex
 10
7.9247702129
 20
6.9005679421
 30
0.0
  0
VERTEX
  5
411
330
254
100
AcDbEntity
  8
0
  6
CONTINUOUS
 62
     7
100
AcDbVertex
100
AcDb2dVertex
 10
7.9067477609
 20
6.8636708431
 30
0.0
  0
VERTEX
  5
412
330
254
100
AcDbEntity
  8
0
  6
CONTINUOUS
 62
     7
100
AcDbVertex
100
AcDb2dVertex
 10
7.8898383181
 20
6.8264552344
 30
0.0
  0
VERTEX
  5
413
330
254
100
AcDbEntity
  8
0
  6
CONTINUOUS
 62
     7
100
AcDbVertex
100
AcDb2dVertex
 10
7.8740802545
 20
6.7890055638
 30
0.0
  0
VERTEX
  5
414
330
254
100
AcDbEntity
  8
0
  6
CONTINUOUS
 62
     7
100
AcDbVertex
100
AcDb2dVertex
 10
7.8595093276
 20
6.7514068101
 30
0.0
  0
VERTEX
  5
415
330
254
100
AcDbEntity
  8
0
  6
CONTINUOUS
 62
     7
100
AcDbVertex
100
AcDb2dVertex
 10
7.8461586008
 20
6.7137442906
 30
0.0
  0
VERTEX
  5
416
330
254
100
AcDbEntity
  8
0
  6
CONTINUOUS
 62
     7
100
AcDbVertex
100
AcDb2dVertex
 10
7.834058369
 20
6.676103467
 30
0.0
  0
VERTEX
  5
417
330
254
100
AcDbEntity
  8
0
  6
CONTINUOUS
 62
     7
100
AcDbVertex
100
AcDb2dVertex
 10
7.8232360894
 20
6.638569752
 30
0.0
  0
VERTEX
  5
418
330
254
100
AcDbEntity
  8
0
  6
CONTINUOUS
 62
     7
100
AcDbVertex
100
AcDb2dVertex
 10
7.8137163194
 20
6.6012283152
 30
0.0
  0
VERTEX
  5
419
330
254
100
AcDbEntity
  8
0
  6
CONTINUOUS
 62
     7
100
AcDbVertex
100
AcDb2dVertex
 10
7.8055206608
 20
6.5641638899
 30
0.0
  0
VERTEX
  5
41A
330
254
100
AcDbEntity
  8
0
  6
CONTINUOUS
 62
     7
100
AcDbVertex
100
AcDb2dVertex
 10
7.7986677107
 20
6.5274605807
 30
0.0
  0
VERTEX
  5
41B
330
254
100
AcDbEntity
  8
0
  6
CONTINUOUS
 62
     7
100
AcDbVertex
100
AcDb2dVertex
 10
7.7931730194
 20
6.4912016729
 30
0.0
  0
VERTEX
  5
41C
330
254
100
AcDbEntity
  8
0
  6
CONTINUOUS
 62
     7
100
AcDbVertex
100
AcDb2dVertex
 10
7.7890490553
 20
6.4554694435
 30
0.0
  0
VERTEX
  5
41D
330
254
100
AcDbEntity
  8
0
  6
CONTINUOUS
 62
     7
100
AcDbVertex
100
AcDb2dVertex
 10
7.7863051763
 20
6.420344974
 30
0.0
  0
VERTEX
  5
41E
330
254
100
AcDbEntity
  8
0
  6
CONTINUOUS
 62
     7
100
AcDbVertex
100
AcDb2dVertex
 10
7.7849476085
 20
6.3859079672
 30
0.0
  0
SEQEND
  5
41F
330
254
100
AcDbEntity
  8
0
  6
CONTINUOUS
 62
     7
  0
LINE
  5
255
330
1F
100
AcDbEntity
  8
0
  6
CONTINUOUS
 62
     7
100
AcDbLine
 10
8.6280745669
 20
7.5353805254
 30
0.0
 11
8.6651930331
 21
7.513952491
 31
0.0
  0
POLYLINE
  5
256
330
1F
100
AcDbEntity
  8
0
  6
CONTINUOUS
 62
     7
100
AcDb2dPolyline
 66
     1
 10
0.0
 20
0.0
 30
0.0
  0
VERTEX
  5
420
330
256
100
AcDbEntity
  8
0
  6
CONTINUOUS
 62
     7
100
AcDbVertex
100
AcDb2dVertex
 10
7.9460469638
 20
5.9845875491
 30
0.0
  0
VERTEX
  5
421
330
256
100
AcDbEntity
  8
0
  6
CONTINUOUS
 62
     7
100
AcDbVertex
100
AcDb2dVertex
 10
7.9334388512
 20
5.9910533257
 30
0.0
  0
VERTEX
  5
422
330
256
100
AcDbEntity
  8
0
  6
CONTINUOUS
 62
     7
100
AcDbVertex
100
AcDb2dVertex
 10
7.9132421692
 20
6.0031350775
 30
0.0
  0
VERTEX
  5
423
330
256
100
AcDbEntity
  8
0
  6
CONTINUOUS
 62
     7
100
AcDbVertex
100
AcDb2dVertex
 10
7.8940350243
 20
6.0168589561
 30
0.0
  0
VERTEX
  5
424
330
256
100
AcDbEntity
  8
0
  6
CONTINUOUS
 62
     7
100
AcDbVertex
100
AcDb2dVertex
 10
7.8758599471
 20
6.0321945726
 30
0.0
  0
VERTEX
  5
425
330
256
100
AcDbEntity
  8
0
  6
CONTINUOUS
 62
     7
100
AcDbVertex
100
AcDb2dVertex
 10
7.8587571828
 20
6.0491079693
 30
0.0
  0
VERTEX
  5
426
330
256
100
AcDbEntity
  8
0
  6
CONTINUOUS
 62
     7
100
AcDbVertex
100
AcDb2dVertex
 10
7.8427646022
 20
6.0675616946
 30
0.0
  0
VERTEX
  5
427
330
256
100
AcDbEntity
  8
0
  6
CONTINUOUS
 62
     7
100
AcDbVertex
100
AcDb2dVertex
 10
7.8279176177
 20
6.0875148864
 30
0.0
  0
VERTEX
  5
428
330
256
100
AcDbEntity
  8
0
  6
CONTINUOUS
 62
     7
100
AcDbVertex
100
AcDb2dVertex
 10
7.8142491051
 20
6.1089233621
 30
0.0
  0
VERTEX
  5
429
330
256
100
AcDbEntity
  8
0
  6
CONTINUOUS
 62
     7
100
AcDbVertex
100
AcDb2dVertex
 10
7.8017893308
 20
6.1317397169
 30
0.0
  0
VERTEX
  5
42A
330
256
100
AcDbEntity
  8
0
  6
CONTINUOUS
 62
     7
100
AcDbVertex
100
AcDb2dVertex
 10
7.7905658843
 20
6.1559134284
 30
0.0
  0
VERTEX
  5
42B
330
256
100
AcDbEntity
  8
0
  6
CONTINUOUS
 62
     7
100
AcDbVertex
100
AcDb2dVertex
 10
7.780603618
 20
6.1813909684
 30
0.0
  0
VERTEX
  5
42C
330
256
100
AcDbEntity
  8
0
  6
CONTINUOUS
 62
     7
100
AcDbVertex
100
AcDb2dVertex
 10
7.7719245914
 20
6.2081159219
 30
0.0
  0
VERTEX
  5
42D
330
256
100
AcDbEntity
  8
0
  6
CONTINUOUS
 62
     7
100
AcDbVertex
100
AcDb2dVertex
 10
7.7645480224
 20
6.2360291118
 30
0.0
  0
VERTEX
  5
42E
330
256
100
AcDbEntity
  8
0
  6
CONTINUOUS
 62
     7
100
AcDbVertex
100
AcDb2dVertex
 10
7.758490245
 20
6.2650687295
 30
0.0
  0
VERTEX
  5
42F
330
256
100
AcDbEntity
  8
0
  6
CONTINUOUS
 62
     7
100
AcDbVertex
100
AcDb2dVertex
 10
7.7537646731
 20
6.2951704725
 30
0.0
  0
VERTEX
  5
430
330
256
100
AcDbEntity
  8
0
  6
CONTINUOUS
 62
     7
100
AcDbVertex
100
AcDb2dVertex
 10
7.7503817705
 20
6.3262676862
 30
0.0
  0
VERTEX
  5
431
330
256
100
AcDbEntity
  8
0
  6
CONTINUOUS
 62
     7
100
AcDbVertex
100
AcDb2dVertex
 10
7.748349028
 20
6.358291512
 30
0.0
  0
VERTEX
  5
432
330
256
100
AcDbEntity
  8
0
  6
CONTINUOUS
 62
     7
100
AcDbVertex
100
AcDb2dVertex
 10
7.7476709466
 20
6.3911710391
 30
0.0
  0
VERTEX
  5
433
330
256
100
AcDbEntity
  8
0
  6
CONTINUOUS
 62
     7
100
AcDbVertex
100
AcDb2dVertex
 10
7.748349028
 20
6.4248334624
 30
0.0
  0
VERTEX
  5
434
330
256
100
AcDbEntity
  8
0
  6
CONTINUOUS
 62
     7
100
AcDbVertex
100
AcDb2dVertex
 10
7.7503817705
 20
6.4592042427
 30
0.0
  0
VERTEX
  5
435
330
256
100
AcDbEntity
  8
0
  6
CONTINUOUS
 62
     7
100
AcDbVertex
100
AcDb2dVertex
 10
7.7537646731
 20
6.4942072727
 30
0.0
  0
VERTEX
  5
436
330
256
100
AcDbEntity
  8
0
  6
CONTINUOUS
 62
     7
100
AcDbVertex
100
AcDb2dVertex
 10
7.758490245
 20
6.5297650449
 30
0.0
  0
VERTEX
  5
437
330
256
100
AcDbEntity
  8
0
  6
CONTINUOUS
 62
     7
100
AcDbVertex
100
AcDb2dVertex
 10
7.7645480224
 20
6.5657988234
 30
0.0
  0
VERTEX
  5
438
330
256
100
AcDbEntity
  8
0
  6
CONTINUOUS
 62
     7
100
AcDbVertex
100
AcDb2dVertex
 10
7.7719245914
 20
6.6022288185
 30
0.0
  0
VERTEX
  5
439
330
256
100
AcDbEntity
  8
0
  6
CONTINUOUS
 62
     7
100
AcDbVertex
100
AcDb2dVertex
 10
7.780603618
 20
6.638974363
 30
0.0
  0
VERTEX
  5
43A
330
256
100
AcDbEntity
  8
0
  6
CONTINUOUS
 62
     7
100
AcDbVertex
100
AcDb2dVertex
 10
7.7905658843
 20
6.6759540908
 30
0.0
  0
VERTEX
  5
43B
330
256
100
AcDbEntity
  8
0
  6
CONTINUOUS
 62
     7
100
AcDbVertex
100
AcDb2dVertex
 10
7.8017893308
 20
6.7130861177
 30
0.0
  0
VERTEX
  5
43C
330
256
100
AcDbEntity
  8
0
  6
CONTINUOUS
 62
     7
100
AcDbVertex
100
AcDb2dVertex
 10
7.8142491051
 20
6.7502882218
 30
0.0
  0
VERTEX
  5
43D
330
256
100
AcDbEntity
  8
0
  6
CONTINUOUS
 62
     7
100
AcDbVertex
100
AcDb2dVertex
 10
7.8279176177
 20
6.7874780262
 30
0.0
  0
VERTEX
  5
43E
330
256
100
AcDbEntity
  8
0
  6
CONTINUOUS
 62
     7
100
AcDbVertex
100
AcDb2dVertex
 10
7.8427646022
 20
6.8245731814
 30
0.0
  0
VERTEX
  5
43F
330
256
100
AcDbEntity
  8
0
  6
CONTINUOUS
 62
     7
100
AcDbVertex
100
AcDb2dVertex
 10
7.8587571828
 20
6.8614915473
 30
0.0
  0
VERTEX
  5
440
330
256
100
AcDbEntity
  8
0
  6
CONTINUOUS
 62
     7
100
AcDbVertex
100
AcDb2dVertex
 10
7.8758599471
 20
6.8981513753
 30
0.0
  0
VERTEX
  5
441
330
256
100
AcDbEntity
  8
0
  6
CONTINUOUS
 62
     7
100
AcDbVertex
100
AcDb2dVertex
 10
7.8940350243
 20
6.9344714892
 30
0.0
  0
VERTEX
  5
442
330
256
100
AcDbEntity
  8
0
  6
CONTINUOUS
 62
     7
100
AcDbVertex
100
AcDb2dVertex
 10
7.9132421692
 20
6.9703714652
 30
0.0
  0
VERTEX
  5
443
330
256
100
AcDbEntity
  8
0
  6
CONTINUOUS
 62
     7
100
AcDbVertex
100
AcDb2dVertex
 10
7.9334388512
 20
7.0057718098
 30
0.0
  0
VERTEX
  5
444
330
256
100
AcDbEntity
  8
0
  6
CONTINUOUS
 62
     7
100
AcDbVertex
100
AcDb2dVertex
 10
7.9545803487
 20
7.0405941356
 30
0.0
  0
VERTEX
  5
445
330
256
100
AcDbEntity
  8
0
  6
CONTINUOUS
 62
     7
100
AcDbVertex
100
AcDb2dVertex
 10
7.976619848
 20
7.0747613355
 30
0.0
  0
VERTEX
  5
446
330
256
100
AcDbEntity
  8
0
  6
CONTINUOUS
 62
     7
100
AcDbVertex
100
AcDb2dVertex
 10
7.9995085468
 20
7.1081977526
 30
0.0
  0
VERTEX
  5
447
330
256
100
AcDbEntity
  8
0
  6
CONTINUOUS
 62
     7
100
AcDbVertex
100
AcDb2dVertex
 10
8.0231957626
 20
7.1408293485
 30
0.0
  0
VERTEX
  5
448
330
256
100
AcDbEntity
  8
0
  6
CONTINUOUS
 62
     7
100
AcDbVertex
100
AcDb2dVertex
 10
8.0476290445
 20
7.1725838669
 30
0.0
  0
VERTEX
  5
449
330
256
100
AcDbEntity
  8
0
  6
CONTINUOUS
 62
     7
100
AcDbVertex
100
AcDb2dVertex
 10
8.0727542898
 20
7.2033909935
 30
0.0
  0
VERTEX
  5
44A
330
256
100
AcDbEntity
  8
0
  6
CONTINUOUS
 62
     7
100
AcDbVertex
100
AcDb2dVertex
 10
8.0985158635
 20
7.2331825119
 30
0.0
  0
VERTEX
  5
44B
330
256
100
AcDbEntity
  8
0
  6
CONTINUOUS
 62
     7
100
AcDbVertex
100
AcDb2dVertex
 10
8.1248567215
 20
7.2618924545
 30
0.0
  0
VERTEX
  5
44C
330
256
100
AcDbEntity
  8
0
  6
CONTINUOUS
 62
     7
100
AcDbVertex
100
AcDb2dVertex
 10
8.1517185371
 20
7.2894572486
 30
0.0
  0
VERTEX
  5
44D
330
256
100
AcDbEntity
  8
0
  6
CONTINUOUS
 62
     7
100
AcDbVertex
100
AcDb2dVertex
 10
8.1790418301
 20
7.3158158574
 30
0.0
  0
VERTEX
  5
44E
330
256
100
AcDbEntity
  8
0
  6
CONTINUOUS
 62
     7
100
AcDbVertex
100
AcDb2dVertex
 10
8.2067660981
 20
7.3409099148
 30
0.0
  0
VERTEX
  5
44F
330
256
100
AcDbEntity
  8
0
  6
CONTINUOUS
 62
     7
100
AcDbVertex
100
AcDb2dVertex
 10
8.2348299512
 20
7.3646838549
 30
0.0
  0
VERTEX
  5
450
330
256
100
AcDbEntity
  8
0
  6
CONTINUOUS
 62
     7
100
AcDbVertex
100
AcDb2dVertex
 10
8.2631712475
 20
7.3870850348
 30
0.0
  0
VERTEX
  5
451
330
256
100
AcDbEntity
  8
0
  6
CONTINUOUS
 62
     7
100
AcDbVertex
100
AcDb2dVertex
 10
8.2917272305
 20
7.4080638515
 30
0.0
  0
VERTEX
  5
452
330
256
100
AcDbEntity
  8
0
  6
CONTINUOUS
 62
     7
100
AcDbVertex
100
AcDb2dVertex
 10
8.3204346686
 20
7.4275738514
 30
0.0
  0
VERTEX
  5
453
330
256
100
AcDbEntity
  8
0
  6
CONTINUOUS
 62
     7
100
AcDbVertex
100
AcDb2dVertex
 10
8.3492299947
 20
7.4455718335
 30
0.0
  0
VERTEX
  5
454
330
256
100
AcDbEntity
  8
0
  6
CONTINUOUS
 62
     7
100
AcDbVertex
100
AcDb2dVertex
 10
8.3780494471
 20
7.4620179446
 30
0.0
  0
VERTEX
  5
455
330
256
100
AcDbEntity
  8
0
  6
CONTINUOUS
 62
     7
100
AcDbVertex
100
AcDb2dVertex
 10
8.4068292107
 20
7.476875768
 30
0.0
  0
VERTEX
  5
456
330
256
100
AcDbEntity
  8
0
  6
CONTINUOUS
 62
     7
100
AcDbVertex
100
AcDb2dVertex
 10
8.4355055583
 20
7.4901124039
 30
0.0
  0
VERTEX
  5
457
330
256
100
AcDbEntity
  8
0
  6
CONTINUOUS
 62
     7
100
AcDbVertex
100
AcDb2dVertex
 10
8.4640149915
 20
7.5016985424
 30
0.0
  0
VERTEX
  5
458
330
256
100
AcDbEntity
  8
0
  6
CONTINUOUS
 62
     7
100
AcDbVertex
100
AcDb2dVertex
 10
8.4922943819
 20
7.5116085282
 30
0.0
  0
VERTEX
  5
459
330
256
100
AcDbEntity
  8
0
  6
CONTINUOUS
 62
     7
100
AcDbVertex
100
AcDb2dVertex
 10
8.5202811101
 20
7.5198204175
 30
0.0
  0
VERTEX
  5
45A
330
256
100
AcDbEntity
  8
0
  6
CONTINUOUS
 62
     7
100
AcDbVertex
100
AcDb2dVertex
 10
8.5479132049
 20
7.5263160267
 30
0.0
  0
VERTEX
  5
45B
330
256
100
AcDbEntity
  8
0
  6
CONTINUOUS
 62
     7
100
AcDbVertex
100
AcDb2dVertex
 10
8.5751294804
 20
7.5310809725
 30
0.0
  0
VERTEX
  5
45C
330
256
100
AcDbEntity
  8
0
  6
CONTINUOUS
 62
     7
100
AcDbVertex
100
AcDb2dVertex
 10
8.6018696714
 20
7.5341047039
 30
0.0
  0
VERTEX
  5
45D
330
256
100
AcDbEntity
  8
0
  6
CONTINUOUS
 62
     7
100
AcDbVertex
100
AcDb2dVertex
 10
8.6280745669
 20
7.5353805254
 30
0.0
  0
SEQEND
  5
45E
330
256
100
AcDbEntity
  8
0
  6
CONTINUOUS
 62
     7
  0
LINE
  5
257
330
1F
100
AcDbEntity
  8
0
  6
CONTINUOUS
 62
     7
100
AcDbLine
 10
8.9105733782
 20
6.7395503146
 30
0.0
 11
8.9105733782
 21
6.7074030385
 31
0.0
  0
LINE
  5
258
330
1F
100
AcDbEntity
  8
0
  6
CONTINUOUS
 62
     7
100
AcDbLine
 10
8.9105733782
 20
6.7395503146
 30
0.0
 11
8.8168880355
 21
6.6854669174
 31
0.0
  0
POLYLINE
  5
259
330
1F
100
AcDbEntity
  8
0
  6
CONTINUOUS
 62
     7
100
AcDb2dPolyline
 66
     1
 10
0.0
 20
0.0
 30
0.0
  0
VERTEX
  5
45F
330
259
100
AcDbEntity
  8
0
  6
CONTINUOUS
 62
     7
100
AcDbVertex
100
AcDb2dVertex
 10
8.4906330555
 20
6.4971239264
 30
0.0
  0
VERTEX
  5
460
330
259
100
AcDbEntity
  8
0
  6
CONTINUOUS
 62
     7
100
AcDbVertex
100
AcDb2dVertex
 10
8.492626418
 20
6.5156716629
 30
0.0
  0
VERTEX
  5
461
330
259
100
AcDbEntity
  8
0
  6
CONTINUOUS
 62
     7
100
AcDbVertex
100
AcDb2dVertex
 10
8.496008078
 20
6.5347324706
 30
0.0
  0
VERTEX
  5
462
330
259
100
AcDbEntity
  8
0
  6
CONTINUOUS
 62
     7
100
AcDbVertex
100
AcDb2dVertex
 10
8.5007488999
 20
6.5541421257
 30
0.0
  0
VERTEX
  5
463
330
259
100
AcDbEntity
  8
0
  6
CONTINUOUS
 62
     7
100
AcDbVertex
100
AcDb2dVertex
 10
8.5068080377
 20
6.5737333987
 30
0.0
  0
VERTEX
  5
464
330
259
100
AcDbEntity
  8
0
  6
CONTINUOUS
 62
     7
100
AcDbVertex
100
AcDb2dVertex
 10
8.5141332873
 20
6.5933374952
 30
0.0
  0
VERTEX
  5
465
330
259
100
AcDbEntity
  8
0
  6
CONTINUOUS
 62
     7
100
AcDbVertex
100
AcDb2dVertex
 10
8.5226615358
 20
6.6127855107
 30
0.0
  0
VERTEX
  5
466
330
259
100
AcDbEntity
  8
0
  6
CONTINUOUS
 62
     7
100
AcDbVertex
100
AcDb2dVertex
 10
8.5323193057
 20
6.631909885
 30
0.0
  0
VERTEX
  5
467
330
259
100
AcDbEntity
  8
0
  6
CONTINUOUS
 62
     7
100
AcDbVertex
100
AcDb2dVertex
 10
8.5430233875
 20
6.6505458466
 30
0.0
  0
VERTEX
  5
468
330
259
100
AcDbEntity
  8
0
  6
CONTINUOUS
 62
     7
100
AcDbVertex
100
AcDb2dVertex
 10
8.5546815573
 20
6.668532832
 30
0.0
  0
VERTEX
  5
469
330
259
100
AcDbEntity
  8
0
  6
CONTINUOUS
 62
     7
100
AcDbVertex
100
AcDb2dVertex
 10
8.5671933707
 20
6.6857158692
 30
0.0
  0
VERTEX
  5
46A
330
259
100
AcDbEntity
  8
0
  6
CONTINUOUS
 62
     7
100
AcDbVertex
100
AcDb2dVertex
 10
8.5804510285
 20
6.7019469127
 30
0.0
  0
VERTEX
  5
46B
330
259
100
AcDbEntity
  8
0
  6
CONTINUOUS
 62
     7
100
AcDbVertex
100
AcDb2dVertex
 10
8.5943403057
 20
6.7170861194
 30
0.0
  0
VERTEX
  5
46C
330
259
100
AcDbEntity
  8
0
  6
CONTINUOUS
 62
     7
100
AcDbVertex
100
AcDb2dVertex
 10
8.608741535
 20
6.7310030529
 30
0.0
  0
VERTEX
  5
46D
330
259
100
AcDbEntity
  8
0
  6
CONTINUOUS
 62
     7
100
AcDbVertex
100
AcDb2dVertex
 10
8.6235306386
 20
6.743577808
 30
0.0
  0
VERTEX
  5
46E
330
259
100
AcDbEntity
  8
0
  6
CONTINUOUS
 62
     7
100
AcDbVertex
100
AcDb2dVertex
 10
8.6385801967
 20
6.7547020431
 30
0.0
  0
VERTEX
  5
46F
330
259
100
AcDbEntity
  8
0
  6
CONTINUOUS
 62
     7
100
AcDbVertex
100
AcDb2dVertex
 10
8.6537605455
 20
6.7642799144
 30
0.0
  0
VERTEX
  5
470
330
259
100
AcDbEntity
  8
0
  6
CONTINUOUS
 62
     7
100
AcDbVertex
100
AcDb2dVertex
 10
8.6689408943
 20
6.7722289008
 30
0.0
  0
VERTEX
  5
471
330
259
100
AcDbEntity
  8
0
  6
CONTINUOUS
 62
     7
100
AcDbVertex
100
AcDb2dVertex
 10
8.6839904524
 20
6.7784805155
 30
0.0
  0
VERTEX
  5
472
330
259
100
AcDbEntity
  8
0
  6
CONTINUOUS
 62
     7
100
AcDbVertex
100
AcDb2dVertex
 10
8.698779556
 20
6.782980896
 30
0.0
  0
VERTEX
  5
473
330
259
100
AcDbEntity
  8
0
  6
CONTINUOUS
 62
     7
100
AcDbVertex
100
AcDb2dVertex
 10
8.7131807854
 20
6.785691268
 30
0.0
  0
VERTEX
  5
474
330
259
100
AcDbEntity
  8
0
  6
CONTINUOUS
 62
     7
100
AcDbVertex
100
AcDb2dVertex
 10
8.7270700625
 20
6.7865882794
 30
0.0
  0
VERTEX
  5
475
330
259
100
AcDbEntity
  8
0
  6
CONTINUOUS
 62
     7
100
AcDbVertex
100
AcDb2dVertex
 10
8.7403277204
 20
6.7856642018
 30
0.0
  0
VERTEX
  5
476
330
259
100
AcDbEntity
  8
0
  6
CONTINUOUS
 62
     7
100
AcDbVertex
100
AcDb2dVertex
 10
8.7528395337
 20
6.7829269969
 30
0.0
  0
VERTEX
  5
477
330
259
100
AcDbEntity
  8
0
  6
CONTINUOUS
 62
     7
100
AcDbVertex
100
AcDb2dVertex
 10
8.7644977035
 20
6.7784002478
 30
0.0
  0
VERTEX
  5
478
330
259
100
AcDbEntity
  8
0
  6
CONTINUOUS
 62
     7
100
AcDbVertex
100
AcDb2dVertex
 10
8.7752017854
 20
6.772122956
 30
0.0
  0
VERTEX
  5
479
330
259
100
AcDbEntity
  8
0
  6
CONTINUOUS
 62
     7
100
AcDbVertex
100
AcDb2dVertex
 10
8.7848595552
 20
6.7641492054
 30
0.0
  0
VERTEX
  5
47A
330
259
100
AcDbEntity
  8
0
  6
CONTINUOUS
 62
     7
100
AcDbVertex
100
AcDb2dVertex
 10
8.7933878037
 20
6.7545476961
 30
0.0
  0
VERTEX
  5
47B
330
259
100
AcDbEntity
  8
0
  6
CONTINUOUS
 62
     7
100
AcDbVertex
100
AcDb2dVertex
 10
8.8007130533
 20
6.7434011527
 30
0.0
  0
VERTEX
  5
47C
330
259
100
AcDbEntity
  8
0
  6
CONTINUOUS
 62
     7
100
AcDbVertex
100
AcDb2dVertex
 10
8.8067721912
 20
6.7308056114
 30
0.0
  0
VERTEX
  5
47D
330
259
100
AcDbEntity
  8
0
  6
CONTINUOUS
 62
     7
100
AcDbVertex
100
AcDb2dVertex
 10
8.811513013
 20
6.7168695928
 30
0.0
  0
VERTEX
  5
47E
330
259
100
AcDbEntity
  8
0
  6
CONTINUOUS
 62
     7
100
AcDbVertex
100
AcDb2dVertex
 10
8.8148946731
 20
6.7017131666
 30
0.0
  0
VERTEX
  5
47F
330
259
100
AcDbEntity
  8
0
  6
CONTINUOUS
 62
     7
100
AcDbVertex
100
AcDb2dVertex
 10
8.8168880355
 20
6.6854669174
 30
0.0
  0
SEQEND
  5
480
330
259
100
AcDbEntity
  8
0
  6
CONTINUOUS
 62
     7
  0
LINE
  5
25A
330
1F
100
AcDbEntity
  8
0
  6
CONTINUOUS
 62
     7
100
AcDbLine
 10
8.0520734393
 20
6.243948849
 30
0.0
 11
8.4906330555
 21
6.4971239264
 31
0.0
  0
LINE
  5
25B
330
1F
100
AcDbEntity
  8
0
  6
CONTINUOUS
 62
     7
100
AcDbLine
 10
8.0520734393
 20
6.2118015729
 30
0.0
 11
8.4906330555
 21
6.4649766504
 31
0.0
  0
POLYLINE
  5
25C
330
1F
100
AcDbEntity
  8
0
  6
CONTINUOUS
 62
     7
100
AcDb2dPolyline
 66
     1
 10
0.0
 20
0.0
 30
0.0
  0
VERTEX
  5
481
330
25C
100
AcDbEntity
  8
0
  6
CONTINUOUS
 62
     7
100
AcDbVertex
100
AcDb2dVertex
 10
8.8168880355
 20
6.6533196413
 30
0.0
  0
VERTEX
  5
482
330
25C
100
AcDbEntity
  8
0
  6
CONTINUOUS
 62
     7
100
AcDbVertex
100
AcDb2dVertex
 10
8.8148946731
 20
6.6347719049
 30
0.0
  0
VERTEX
  5
483
330
25C
100
AcDbEntity
  8
0
  6
CONTINUOUS
 62
     7
100
AcDbVertex
100
AcDb2dVertex
 10
8.811513013
 20
6.6157110971
 30
0.0
  0
VERTEX
  5
484
330
25C
100
AcDbEntity
  8
0
  6
CONTINUOUS
 62
     7
100
AcDbVertex
100
AcDb2dVertex
 10
8.8067721912
 20
6.5963014421
 30
0.0
  0
VERTEX
  5
485
330
25C
100
AcDbEntity
  8
0
  6
CONTINUOUS
 62
     7
100
AcDbVertex
100
AcDb2dVertex
 10
8.8007130533
 20
6.5767101691
 30
0.0
  0
VERTEX
  5
486
330
25C
100
AcDbEntity
  8
0
  6
CONTINUOUS
 62
     7
100
AcDbVertex
100
AcDb2dVertex
 10
8.7933878037
 20
6.5571060725
 30
0.0
  0
VERTEX
  5
487
330
25C
100
AcDbEntity
  8
0
  6
CONTINUOUS
 62
     7
100
AcDbVertex
100
AcDb2dVertex
 10
8.7848595552
 20
6.5376580571
 30
0.0
  0
VERTEX
  5
488
330
25C
100
AcDbEntity
  8
0
  6
CONTINUOUS
 62
     7
100
AcDbVertex
100
AcDb2dVertex
 10
8.7752017854
 20
6.5185336828
 30
0.0
  0
VERTEX
  5
489
330
25C
100
AcDbEntity
  8
0
  6
CONTINUOUS
 62
     7
100
AcDbVertex
100
AcDb2dVertex
 10
8.7644977035
 20
6.4998977212
 30
0.0
  0
VERTEX
  5
48A
330
25C
100
AcDbEntity
  8
0
  6
CONTINUOUS
 62
     7
100
AcDbVertex
100
AcDb2dVertex
 10
8.7528395337
 20
6.4819107357
 30
0.0
  0
VERTEX
  5
48B
330
25C
100
AcDbEntity
  8
0
  6
CONTINUOUS
 62
     7
100
AcDbVertex
100
AcDb2dVertex
 10
8.7403277204
 20
6.4647276985
 30
0.0
  0
VERTEX
  5
48C
330
25C
100
AcDbEntity
  8
0
  6
CONTINUOUS
 62
     7
100
AcDbVertex
100
AcDb2dVertex
 10
8.7270700625
 20
6.448496655
 30
0.0
  0
VERTEX
  5
48D
330
25C
100
AcDbEntity
  8
0
  6
CONTINUOUS
 62
     7
100
AcDbVertex
100
AcDb2dVertex
 10
8.7131807854
 20
6.4333574484
 30
0.0
  0
VERTEX
  5
48E
330
25C
100
AcDbEntity
  8
0
  6
CONTINUOUS
 62
     7
100
AcDbVertex
100
AcDb2dVertex
 10
8.698779556
 20
6.4194405149
 30
0.0
  0
VERTEX
  5
48F
330
25C
100
AcDbEntity
  8
0
  6
CONTINUOUS
 62
     7
100
AcDbVertex
100
AcDb2dVertex
 10
8.6839904524
 20
6.4068657598
 30
0.0
  0
VERTEX
  5
490
330
25C
100
AcDbEntity
  8
0
  6
CONTINUOUS
 62
     7
100
AcDbVertex
100
AcDb2dVertex
 10
8.6689408943
 20
6.3957415246
 30
0.0
  0
VERTEX
  5
491
330
25C
100
AcDbEntity
  8
0
  6
CONTINUOUS
 62
     7
100
AcDbVertex
100
AcDb2dVertex
 10
8.6537605455
 20
6.3861636534
 30
0.0
  0
VERTEX
  5
492
330
25C
100
AcDbEntity
  8
0
  6
CONTINUOUS
 62
     7
100
AcDbVertex
100
AcDb2dVertex
 10
8.6385801967
 20
6.378214667
 30
0.0
  0
VERTEX
  5
493
330
25C
100
AcDbEntity
  8
0
  6
CONTINUOUS
 62
     7
100
AcDbVertex
100
AcDb2dVertex
 10
8.6235306386
 20
6.3719630523
 30
0.0
  0
VERTEX
  5
494
330
25C
100
AcDbEntity
  8
0
  6
CONTINUOUS
 62
     7
100
AcDbVertex
100
AcDb2dVertex
 10
8.608741535
 20
6.3674626717
 30
0.0
  0
VERTEX
  5
495
330
25C
100
AcDbEntity
  8
0
  6
CONTINUOUS
 62
     7
100
AcDbVertex
100
AcDb2dVertex
 10
8.5943403057
 20
6.3647522998
 30
0.0
  0
VERTEX
  5
496
330
25C
100
AcDbEntity
  8
0
  6
CONTINUOUS
 62
     7
100
AcDbVertex
100
AcDb2dVertex
 10
8.5804510285
 20
6.3638552884
 30
0.0
  0
VERTEX
  5
497
330
25C
100
AcDbEntity
  8
0
  6
CONTINUOUS
 62
     7
100
AcDbVertex
100
AcDb2dVertex
 10
8.5671933707
 20
6.3647793659
 30
0.0
  0
VERTEX
  5
498
330
25C
100
AcDbEntity
  8
0
  6
CONTINUOUS
 62
     7
100
AcDbVertex
100
AcDb2dVertex
 10
8.5546815573
 20
6.3675165709
 30
0.0
  0
VERTEX
  5
499
330
25C
100
AcDbEntity
  8
0
  6
CONTINUOUS
 62
     7
100
AcDbVertex
100
AcDb2dVertex
 10
8.5430233875
 20
6.37204332
 30
0.0
  0
VERTEX
  5
49A
330
25C
100
AcDbEntity
  8
0
  6
CONTINUOUS
 62
     7
100
AcDbVertex
100
AcDb2dVertex
 10
8.5323193057
 20
6.3783206118
 30
0.0
  0
VERTEX
  5
49B
330
25C
100
AcDbEntity
  8
0
  6
CONTINUOUS
 62
     7
100
AcDbVertex
100
AcDb2dVertex
 10
8.5226615358
 20
6.3862943624
 30
0.0
  0
VERTEX
  5
49C
330
25C
100
AcDbEntity
  8
0
  6
CONTINUOUS
 62
     7
100
AcDbVertex
100
AcDb2dVertex
 10
8.5141332873
 20
6.3958958717
 30
0.0
  0
VERTEX
  5
49D
330
25C
100
AcDbEntity
  8
0
  6
CONTINUOUS
 62
     7
100
AcDbVertex
100
AcDb2dVertex
 10
8.5068080377
 20
6.4070424151
 30
0.0
  0
VERTEX
  5
49E
330
25C
100
AcDbEntity
  8
0
  6
CONTINUOUS
 62
     7
100
AcDbVertex
100
AcDb2dVertex
 10
8.5007488999
 20
6.4196379564
 30
0.0
  0
VERTEX
  5
49F
330
25C
100
AcDbEntity
  8
0
  6
CONTINUOUS
 62
     7
100
AcDbVertex
100
AcDb2dVertex
 10
8.496008078
 20
6.433573975
 30
0.0
  0
VERTEX
  5
4A0
330
25C
100
AcDbEntity
  8
0
  6
CONTINUOUS
 62
     7
100
AcDbVertex
100
AcDb2dVertex
 10
8.492626418
 20
6.4487304012
 30
0.0
  0
VERTEX
  5
4A1
330
25C
100
AcDbEntity
  8
0
  6
CONTINUOUS
 62
     7
100
AcDbVertex
100
AcDb2dVertex
 10
8.4906330555
 20
6.4649766504
 30
0.0
  0
SEQEND
  5
4A2
330
25C
100
AcDbEntity
  8
0
  6
CONTINUOUS
 62
     7
  0
LINE
  5
25D
330
1F
100
AcDbEntity
  8
0
  6
CONTINUOUS
 62
     7
100
AcDbLine
 10
8.8168880355
 20
6.6533196413
 30
0.0
 11
8.9105733782
 21
6.7074030385
 31
0.0
  0
LINE
  5
25E
330
1F
100
AcDbEntity
  8
0
  6
CONTINUOUS
 62
     7
100
AcDbLine
 10
8.6280745669
 20
7.5116468214
 30
0.0
 11
8.6280745669
 21
7.5353805254
 31
0.0
  0
LINE
  5
25F
330
1F
100
AcDbEntity
  8
0
  6
CONTINUOUS
 62
     7
100
AcDbLine
 10
8.4906330555
 20
6.4649766504
 30
0.0
 11
8.4906742845
 21
6.477246573
 31
0.0
  0
LINE
  5
260
330
1F
100
AcDbEntity
  8
0
  6
CONTINUOUS
 62
     7
100
AcDbLine
 10
8.4734375116
 20
6.4871971502
 30
0.0
 11
8.4906742845
 21
6.477246573
 31
0.0
  0
LINE
  5
261
330
1F
100
AcDbEntity
  8
0
  6
CONTINUOUS
 62
     7
100
AcDbLine
 10
7.8127909832
 20
6.3698343292
 30
0.0
 11
7.7849476085
 21
6.3537606911
 31
0.0
  0
LINE
  5
262
330
1F
100
AcDbEntity
  8
0
  6
CONTINUOUS
 62
     7
100
AcDbLine
 10
8.7956336031
 20
6.6854431164
 30
0.0
 11
8.8168880355
 21
6.6854669174
 31
0.0
  0
ARC
  5
263
330
1F
100
AcDbEntity
  8
0
  6
CONTINUOUS
 62
     7
100
AcDbCircle
 10
8.7037657767
 20
6.6877460277
 30
0.0
 40
0.0918966861839106
100
AcDbArc
 50
358.5640297071
 51
127.0923817465
  0
LINE
  5
264
330
1F
100
AcDbEntity
  8
0
  6
CONTINUOUS
 62
     7
100
AcDbLine
 10
8.7956336031
 20
6.6854431164
 30
0.0
 11
8.6570485862
 21
6.7654465437
 31
0.0
  0
LINE
  5
265
330
1F
100
AcDbEntity
  8
0
  6
CONTINUOUS
 62
     7
100
AcDbLine
 10
8.7956336031
 20
6.6532958404
 30
0.0
 11
8.6302664011
 21
6.7487602941
 31
0.0
  0
POLYLINE
  5
266
330
1F
100
AcDbEntity
  8
0
  6
CONTINUOUS
 62
     7
100
AcDb2dPolyline
 66
     1
 10
0.0
 20
0.0
 30
0.0
  0
VERTEX
  5
4A3
330
266
100
AcDbEntity
  8
0
  6
CONTINUOUS
 62
     7
100
AcDbVertex
100
AcDb2dVertex
 10
8.4906742845
 20
6.477246573
 30
0.0
  0
VERTEX
  5
4A4
330
266
100
AcDbEntity
  8
0
  6
CONTINUOUS
 62
     7
100
AcDbVertex
100
AcDb2dVertex
 10
8.4926954731
 20
6.4617022084
 30
0.0
  0
VERTEX
  5
4A5
330
266
100
AcDbEntity
  8
0
  6
CONTINUOUS
 62
     7
100
AcDbVertex
100
AcDb2dVertex
 10
8.496086934
 20
6.4472474666
 30
0.0
  0
VERTEX
  5
4A6
330
266
100
AcDbEntity
  8
0
  6
CONTINUOUS
 62
     7
100
AcDbVertex
100
AcDb2dVertex
 10
8.5008177799
 20
6.4340139913
 30
0.0
  0
VERTEX
  5
4A7
330
266
100
AcDbEntity
  8
0
  6
CONTINUOUS
 62
     7
100
AcDbVertex
100
AcDb2dVertex
 10
8.5068449256
 20
6.4221223041
 30
0.0
  0
VERTEX
  5
4A8
330
266
100
AcDbEntity
  8
0
  6
CONTINUOUS
 62
     7
100
AcDbVertex
100
AcDb2dVertex
 10
8.5141134801
 20
6.4116807062
 30
0.0
  0
VERTEX
  5
4A9
330
266
100
AcDbEntity
  8
0
  6
CONTINUOUS
 62
     7
100
AcDbVertex
100
AcDb2dVertex
 10
8.5225572462
 20
6.4027842924
 30
0.0
  0
VERTEX
  5
4AA
330
266
100
AcDbEntity
  8
0
  6
CONTINUOUS
 62
     7
100
AcDbVertex
100
AcDb2dVertex
 10
8.5320993241
 20
6.3955140853
 30
0.0
  0
VERTEX
  5
4AB
330
266
100
AcDbEntity
  8
0
  6
CONTINUOUS
 62
     7
100
AcDbVertex
100
AcDb2dVertex
 10
8.542652811
 20
6.3899362968
 30
0.0
  0
VERTEX
  5
4AC
330
266
100
AcDbEntity
  8
0
  6
CONTINUOUS
 62
     7
100
AcDbVertex
100
AcDb2dVertex
 10
8.5541215931
 20
6.3861017256
 30
0.0
  0
VERTEX
  5
4AD
330
266
100
AcDbEntity
  8
0
  6
CONTINUOUS
 62
     7
100
AcDbVertex
100
AcDb2dVertex
 10
8.5664012205
 20
6.3840452944
 30
0.0
  0
VERTEX
  5
4AE
330
266
100
AcDbEntity
  8
0
  6
CONTINUOUS
 62
     7
100
AcDbVertex
100
AcDb2dVertex
 10
8.5793798589
 20
6.3837857317
 30
0.0
  0
VERTEX
  5
4AF
330
266
100
AcDbEntity
  8
0
  6
CONTINUOUS
 62
     7
100
AcDbVertex
100
AcDb2dVertex
 10
8.5929393078
 20
6.3853254013
 30
0.0
  0
VERTEX
  5
4B0
330
266
100
AcDbEntity
  8
0
  6
CONTINUOUS
 62
     7
100
AcDbVertex
100
AcDb2dVertex
 10
8.606956077
 20
6.3886502812
 30
0.0
  0
VERTEX
  5
4B1
330
266
100
AcDbEntity
  8
0
  6
CONTINUOUS
 62
     7
100
AcDbVertex
100
AcDb2dVertex
 10
8.6213025114
 20
6.3937300905
 30
0.0
  0
VERTEX
  5
4B2
330
266
100
AcDbEntity
  8
0
  6
CONTINUOUS
 62
     7
100
AcDbVertex
100
AcDb2dVertex
 10
8.6358479537
 20
6.4005185658
 30
0.0
  0
VERTEX
  5
4B3
330
266
100
AcDbEntity
  8
0
  6
CONTINUOUS
 62
     7
100
AcDbVertex
100
AcDb2dVertex
 10
8.6504599339
 20
6.4089538824
 30
0.0
  0
VERTEX
  5
4B4
330
266
100
AcDbEntity
  8
0
  6
CONTINUOUS
 62
     7
100
AcDbVertex
100
AcDb2dVertex
 10
8.6650053762
 20
6.4189592172
 30
0.0
  0
VERTEX
  5
4B5
330
266
100
AcDbEntity
  8
0
  6
CONTINUOUS
 62
     7
100
AcDbVertex
100
AcDb2dVertex
 10
8.6793518106
 20
6.4304434486
 30
0.0
  0
VERTEX
  5
4B6
330
266
100
AcDbEntity
  8
0
  6
CONTINUOUS
 62
     7
100
AcDbVertex
100
AcDb2dVertex
 10
8.6933685798
 20
6.443301986
 30
0.0
  0
VERTEX
  5
4B7
330
266
100
AcDbEntity
  8
0
  6
CONTINUOUS
 62
     7
100
AcDbVertex
100
AcDb2dVertex
 10
8.7069280287
 20
6.4574177228
 30
0.0
  0
VERTEX
  5
4B8
330
266
100
AcDbEntity
  8
0
  6
CONTINUOUS
 62
     7
100
AcDbVertex
100
AcDb2dVertex
 10
8.7199066671
 20
6.4726621024
 30
0.0
  0
VERTEX
  5
4B9
330
266
100
AcDbEntity
  8
0
  6
CONTINUOUS
 62
     7
100
AcDbVertex
100
AcDb2dVertex
 10
8.7321862945
 20
6.4888962897
 30
0.0
  0
VERTEX
  5
4BA
330
266
100
AcDbEntity
  8
0
  6
CONTINUOUS
 62
     7
100
AcDbVertex
100
AcDb2dVertex
 10
8.7436550766
 20
6.5059724348
 30
0.0
  0
VERTEX
  5
4BB
330
266
100
AcDbEntity
  8
0
  6
CONTINUOUS
 62
     7
100
AcDbVertex
100
AcDb2dVertex
 10
8.7542085635
 20
6.5237350199
 30
0.0
  0
VERTEX
  5
4BC
330
266
100
AcDbEntity
  8
0
  6
CONTINUOUS
 62
     7
100
AcDbVertex
100
AcDb2dVertex
 10
8.7637506414
 20
6.5420222757
 30
0.0
  0
VERTEX
  5
4BD
330
266
100
AcDbEntity
  8
0
  6
CONTINUOUS
 62
     7
100
AcDbVertex
100
AcDb2dVertex
 10
8.7721944075
 20
6.5606676543
 30
0.0
  0
VERTEX
  5
4BE
330
266
100
AcDbEntity
  8
0
  6
CONTINUOUS
 62
     7
100
AcDbVertex
100
AcDb2dVertex
 10
8.779462962
 20
6.5795013466
 30
0.0
  0
VERTEX
  5
4BF
330
266
100
AcDbEntity
  8
0
  6
CONTINUOUS
 62
     7
100
AcDbVertex
100
AcDb2dVertex
 10
8.7854901077
 20
6.5983518281
 30
0.0
  0
VERTEX
  5
4C0
330
266
100
AcDbEntity
  8
0
  6
CONTINUOUS
 62
     7
100
AcDbVertex
100
AcDb2dVertex
 10
8.7902209536
 20
6.6170474218
 30
0.0
  0
VERTEX
  5
4C1
330
266
100
AcDbEntity
  8
0
  6
CONTINUOUS
 62
     7
100
AcDbVertex
100
AcDb2dVertex
 10
8.7936124145
 20
6.635417861
 30
0.0
  0
VERTEX
  5
4C2
330
266
100
AcDbEntity
  8
0
  6
CONTINUOUS
 62
     7
100
AcDbVertex
100
AcDb2dVertex
 10
8.7956336031
 20
6.6532958404
 30
0.0
  0
SEQEND
  5
4C3
330
266
100
AcDbEntity
  8
0
  6
CONTINUOUS
 62
     7
  0
LINE
  5
267
330
1F
100
AcDbEntity
  8
0
  6
CONTINUOUS
 62
     7
100
AcDbLine
 10
8.7956336031
 20
6.6532958404
 30
0.0
 11
8.8168880355
 21
6.6533196413
 31
0.0
  0
POLYLINE
  5
268
330
1F
100
AcDbEntity
  8
0
  6
CONTINUOUS
 62
     7
100
AcDb2dPolyline
 66
     1
 10
0.0
 20
0.0
 30
0.0
  0
VERTEX
  5
4C4
330
268
100
AcDbEntity
  8
0
  6
CONTINUOUS
 62
     7
100
AcDbVertex
100
AcDb2dVertex
 10
8.9105733782
 20
6.7074030385
 30
0.0
  0
VERTEX
  5
4C5
330
268
100
AcDbEntity
  8
0
  6
CONTINUOUS
 62
     7
100
AcDbVertex
100
AcDb2dVertex
 10
8.8898127432
 20
6.7184880232
 30
0.0
  0
VERTEX
  5
4C6
330
268
100
AcDbEntity
  8
0
  6
CONTINUOUS
 62
     7
100
AcDbVertex
100
AcDb2dVertex
 10
8.8812144077
 20
6.7226017416
 30
0.0
  0
SEQEND
  5
4C7
330
268
100
AcDbEntity
  8
0
  6
CONTINUOUS
 62
     7
  0
LINE
  5
269
330
1F
100
AcDbEntity
  8
0
  6
CONTINUOUS
 62
     7
100
AcDbLine
 10
8.1670595907
 20
6.8771025139
 30
0.0
 11
8.2152778927
 21
6.9049383471
 31
0.0
  0
LINE
  5
26A
330
1F
100
AcDbEntity
  8
0
  6
CONTINUOUS
 62
     7
100
AcDbLine
 10
8.2152778927
 20
6.9049383471
 30
0.0
 11
8.1976287692
 21
6.9429628025
 31
0.0
  0
LINE
  5
26B
330
1F
100
AcDbEntity
  8
0
  6
CONTINUOUS
 62
     7
100
AcDbLine
 10
8.1976287692
 20
6.9429628025
 30
0.0
 11
8.1317613437
 21
6.9531514246
 31
0.0
  0
LINE
  5
26C
330
1F
100
AcDbEntity
  8
0
  6
CONTINUOUS
 62
     7
100
AcDbLine
 10
8.1317613437
 20
6.9531514246
 30
0.0
 11
8.0835430417
 21
6.9253155914
 31
0.0
  0
LINE
  5
26D
330
1F
100
AcDbEntity
  8
0
  6
CONTINUOUS
 62
     7
100
AcDbLine
 10
8.0835430417
 20
6.9253155914
 30
0.0
 11
8.1011921652
 21
6.887291136
 31
0.0
  0
LINE
  5
26E
330
1F
100
AcDbEntity
  8
0
  6
CONTINUOUS
 62
     7
100
AcDbLine
 10
8.1011921652
 20
6.887291136
 30
0.0
 11
8.1670595907
 21
6.8771025139
 31
0.0
  0
LINE
  5
26F
330
1F
100
AcDbEntity
  8
0
  6
CONTINUOUS
 62
     7
100
AcDbLine
 10
8.1976287692
 20
6.894749725
 30
0.0
 11
8.1976287692
 21
6.9429628025
 31
0.0
  0
LINE
  5
270
330
1F
100
AcDbEntity
  8
0
  6
CONTINUOUS
 62
     7
100
AcDbLine
 10
8.1317613437
 20
6.88256258
 30
0.0
 11
8.1317613437
 21
6.9531514246
 31
0.0
  0
ARC
  5
271
330
1F
100
AcDbEntity
  8
0
  6
CONTINUOUS
 62
     7
100
AcDbCircle
 10
8.2712776911
 20
7.3612056523
 30
0.0
 40
0.1748701259074939
100
AcDbArc
 50
94.4295976223
 51
153.3884709899
  0
ARC
  5
272
330
1F
100
AcDbEntity
  8
0
  6
CONTINUOUS
 62
     7
100
AcDbCircle
 10
7.7818749959
 20
6.5134767461
 30
0.0
 40
0.1749005872511161
100
AcDbArc
 50
146.6089610406
 51
205.5701284803
  0
ARC
  5
273
330
1F
100
AcDbEntity
  8
0
  6
CONTINUOUS
 62
     7
100
AcDbCircle
 10
7.6235632563
 20
6.5579790256
 30
0.0
 40
0.0765730372197749
100
AcDbArc
 50
176.1139859846
 51
220.7019755472
  0
ARC
  5
274
330
1F
100
AcDbEntity
  8
0
  6
CONTINUOUS
 62
     7
100
AcDbCircle
 10
7.7544190705
 20
6.55545935
 30
0.0
 40
0.2073961276742787
100
AcDbArc
 50
119.2927345014
 51
177.8697559458
  0
POLYLINE
  5
275
330
1F
100
AcDbEntity
  8
0
  6
CONTINUOUS
 62
     7
100
AcDb2dPolyline
 66
     1
 10
0.0
 20
0.0
 30
0.0
  0
VERTEX
  5
4C8
330
275
100
AcDbEntity
  8
0
  6
CONTINUOUS
 62
     7
100
AcDbVertex
100
AcDb2dVertex
 10
8.6020234373
 20
7.5946818119
 30
0.0
  0
VERTEX
  5
4C9
330
275
100
AcDbEntity
  8
0
  6
CONTINUOUS
 62
     7
100
AcDbVertex
100
AcDb2dVertex
 10
8.5986248175
 20
7.5979367352
 30
0.0
  0
VERTEX
  5
4CA
330
275
100
AcDbEntity
  8
0
  6
CONTINUOUS
 62
     7
100
AcDbVertex
100
AcDb2dVertex
 10
8.5805867021
 20
7.613643233
 30
0.0
  0
VERTEX
  5
4CB
330
275
100
AcDbEntity
  8
0
  6
CONTINUOUS
 62
     7
100
AcDbVertex
100
AcDb2dVertex
 10
8.5615005387
 20
7.6277318911
 30
0.0
  0
VERTEX
  5
4CC
330
275
100
AcDbEntity
  8
0
  6
CONTINUOUS
 62
     7
100
AcDbVertex
100
AcDb2dVertex
 10
8.5414089158
 20
7.640171272
 30
0.0
  0
VERTEX
  5
4CD
330
275
100
AcDbEntity
  8
0
  6
CONTINUOUS
 62
     7
100
AcDbVertex
100
AcDb2dVertex
 10
8.5203566659
 20
7.6509336186
 30
0.0
  0
VERTEX
  5
4CE
330
275
100
AcDbEntity
  8
0
  6
CONTINUOUS
 62
     7
100
AcDbVertex
100
AcDb2dVertex
 10
8.4983907647
 20
7.6599949161
 30
0.0
  0
VERTEX
  5
4CF
330
275
100
AcDbEntity
  8
0
  6
CONTINUOUS
 62
     7
100
AcDbVertex
100
AcDb2dVertex
 10
8.4755602268
 20
7.6673349449
 30
0.0
  0
VERTEX
  5
4D0
330
275
100
AcDbEntity
  8
0
  6
CONTINUOUS
 62
     7
100
AcDbVertex
100
AcDb2dVertex
 10
8.4519159959
 20
7.6729373268
 30
0.0
  0
VERTEX
  5
4D1
330
275
100
AcDbEntity
  8
0
  6
CONTINUOUS
 62
     7
100
AcDbVertex
100
AcDb2dVertex
 10
8.4275108317
 20
7.6767895605
 30
0.0
  0
VERTEX
  5
4D2
330
275
100
AcDbEntity
  8
0
  6
CONTINUOUS
 62
     7
100
AcDbVertex
100
AcDb2dVertex
 10
8.4023991915
 20
7.6788830503
 30
0.0
  0
VERTEX
  5
4D3
330
275
100
AcDbEntity
  8
0
  6
CONTINUOUS
 62
     7
100
AcDbVertex
100
AcDb2dVertex
 10
8.3766371092
 20
7.6792131247
 30
0.0
  0
VERTEX
  5
4D4
330
275
100
AcDbEntity
  8
0
  6
CONTINUOUS
 62
     7
100
AcDbVertex
100
AcDb2dVertex
 10
8.3502820703
 20
7.6777790472
 30
0.0
  0
VERTEX
  5
4D5
330
275
100
AcDbEntity
  8
0
  6
CONTINUOUS
 62
     7
100
AcDbVertex
100
AcDb2dVertex
 10
8.3233928829
 20
7.6745840178
 30
0.0
  0
VERTEX
  5
4D6
330
275
100
AcDbEntity
  8
0
  6
CONTINUOUS
 62
     7
100
AcDbVertex
100
AcDb2dVertex
 10
8.2960295475
 20
7.6696351659
 30
0.0
  0
VERTEX
  5
4D7
330
275
100
AcDbEntity
  8
0
  6
CONTINUOUS
 62
     7
100
AcDbVertex
100
AcDb2dVertex
 10
8.2682531224
 20
7.6629435343
 30
0.0
  0
VERTEX
  5
4D8
330
275
100
AcDbEntity
  8
0
  6
CONTINUOUS
 62
     7
100
AcDbVertex
100
AcDb2dVertex
 10
8.2401255875
 20
7.6545240546
 30
0.0
  0
VERTEX
  5
4D9
330
275
100
AcDbEntity
  8
0
  6
CONTINUOUS
 62
     7
100
AcDbVertex
100
AcDb2dVertex
 10
8.2117097064
 20
7.644395514
 30
0.0
  0
VERTEX
  5
4DA
330
275
100
AcDbEntity
  8
0
  6
CONTINUOUS
 62
     7
100
AcDbVertex
100
AcDb2dVertex
 10
8.1830688862
 20
7.6325805132
 30
0.0
  0
VERTEX
  5
4DB
330
275
100
AcDbEntity
  8
0
  6
CONTINUOUS
 62
     7
100
AcDbVertex
100
AcDb2dVertex
 10
8.1542670355
 20
7.6191054161
 30
0.0
  0
VERTEX
  5
4DC
330
275
100
AcDbEntity
  8
0
  6
CONTINUOUS
 62
     7
100
AcDbVertex
100
AcDb2dVertex
 10
8.1253684227
 20
7.604000291
 30
0.0
  0
VERTEX
  5
4DD
330
275
100
AcDbEntity
  8
0
  6
CONTINUOUS
 62
     7
100
AcDbVertex
100
AcDb2dVertex
 10
8.0964375318
 20
7.5872988432
 30
0.0
  0
VERTEX
  5
4DE
330
275
100
AcDbEntity
  8
0
  6
CONTINUOUS
 62
     7
100
AcDbVertex
100
AcDb2dVertex
 10
8.067538919
 20
7.5690383402
 30
0.0
  0
VERTEX
  5
4DF
330
275
100
AcDbEntity
  8
0
  6
CONTINUOUS
 62
     7
100
AcDbVertex
100
AcDb2dVertex
 10
8.0387370684
 20
7.5492595283
 30
0.0
  0
VERTEX
  5
4E0
330
275
100
AcDbEntity
  8
0
  6
CONTINUOUS
 62
     7
100
AcDbVertex
100
AcDb2dVertex
 10
8.0100962481
 20
7.5280065419
 30
0.0
  0
VERTEX
  5
4E1
330
275
100
AcDbEntity
  8
0
  6
CONTINUOUS
 62
     7
100
AcDbVertex
100
AcDb2dVertex
 10
7.9816803671
 20
7.5053268046
 30
0.0
  0
VERTEX
  5
4E2
330
275
100
AcDbEntity
  8
0
  6
CONTINUOUS
 62
     7
100
AcDbVertex
100
AcDb2dVertex
 10
7.9535528322
 20
7.4812709238
 30
0.0
  0
VERTEX
  5
4E3
330
275
100
AcDbEntity
  8
0
  6
CONTINUOUS
 62
     7
100
AcDbVertex
100
AcDb2dVertex
 10
7.925776407
 20
7.4558925775
 30
0.0
  0
VERTEX
  5
4E4
330
275
100
AcDbEntity
  8
0
  6
CONTINUOUS
 62
     7
100
AcDbVertex
100
AcDb2dVertex
 10
7.8984130716
 20
7.4292483949
 30
0.0
  0
VERTEX
  5
4E5
330
275
100
AcDbEntity
  8
0
  6
CONTINUOUS
 62
     7
100
AcDbVertex
100
AcDb2dVertex
 10
7.8715238843
 20
7.4013978294
 30
0.0
  0
VERTEX
  5
4E6
330
275
100
AcDbEntity
  8
0
  6
CONTINUOUS
 62
     7
100
AcDbVertex
100
AcDb2dVertex
 10
7.8451688453
 20
7.3724030265
 30
0.0
  0
VERTEX
  5
4E7
330
275
100
AcDbEntity
  8
0
  6
CONTINUOUS
 62
     7
100
AcDbVertex
100
AcDb2dVertex
 10
7.8194067631
 20
7.3423286851
 30
0.0
  0
VERTEX
  5
4E8
330
275
100
AcDbEntity
  8
0
  6
CONTINUOUS
 62
     7
100
AcDbVertex
100
AcDb2dVertex
 10
7.7942951229
 20
7.3112419127
 30
0.0
  0
VERTEX
  5
4E9
330
275
100
AcDbEntity
  8
0
  6
CONTINUOUS
 62
     7
100
AcDbVertex
100
AcDb2dVertex
 10
7.7698899586
 20
7.2792120761
 30
0.0
  0
VERTEX
  5
4EA
330
275
100
AcDbEntity
  8
0
  6
CONTINUOUS
 62
     7
100
AcDbVertex
100
AcDb2dVertex
 10
7.7462457278
 20
7.2463106464
 30
0.0
  0
VERTEX
  5
4EB
330
275
100
AcDbEntity
  8
0
  6
CONTINUOUS
 62
     7
100
AcDbVertex
100
AcDb2dVertex
 10
7.7234151898
 20
7.2126110395
 30
0.0
  0
VERTEX
  5
4EC
330
275
100
AcDbEntity
  8
0
  6
CONTINUOUS
 62
     7
100
AcDbVertex
100
AcDb2dVertex
 10
7.7014492886
 20
7.1781884524
 30
0.0
  0
VERTEX
  5
4ED
330
275
100
AcDbEntity
  8
0
  6
CONTINUOUS
 62
     7
100
AcDbVertex
100
AcDb2dVertex
 10
7.6803970387
 20
7.1431196954
 30
0.0
  0
VERTEX
  5
4EE
330
275
100
AcDbEntity
  8
0
  6
CONTINUOUS
 62
     7
100
AcDbVertex
100
AcDb2dVertex
 10
7.6603054159
 20
7.1074830205
 30
0.0
  0
VERTEX
  5
4EF
330
275
100
AcDbEntity
  8
0
  6
CONTINUOUS
 62
     7
100
AcDbVertex
100
AcDb2dVertex
 10
7.6412192524
 20
7.0713579472
 30
0.0
  0
VERTEX
  5
4F0
330
275
100
AcDbEntity
  8
0
  6
CONTINUOUS
 62
     7
100
AcDbVertex
100
AcDb2dVertex
 10
7.623181137
 20
7.0348250846
 30
0.0
  0
VERTEX
  5
4F1
330
275
100
AcDbEntity
  8
0
  6
CONTINUOUS
 62
     7
100
AcDbVertex
100
AcDb2dVertex
 10
7.6062313197
 20
6.9979659518
 30
0.0
  0
VERTEX
  5
4F2
330
275
100
AcDbEntity
  8
0
  6
CONTINUOUS
 62
     7
100
AcDbVertex
100
AcDb2dVertex
 10
7.5904076223
 20
6.9608627959
 30
0.0
  0
VERTEX
  5
4F3
330
275
100
AcDbEntity
  8
0
  6
CONTINUOUS
 62
     7
100
AcDbVertex
100
AcDb2dVertex
 10
7.5757453535
 20
6.9235984087
 30
0.0
  0
VERTEX
  5
4F4
330
275
100
AcDbEntity
  8
0
  6
CONTINUOUS
 62
     7
100
AcDbVertex
100
AcDb2dVertex
 10
7.5622772306
 20
6.8862559414
 30
0.0
  0
VERTEX
  5
4F5
330
275
100
AcDbEntity
  8
0
  6
CONTINUOUS
 62
     7
100
AcDbVertex
100
AcDb2dVertex
 10
7.5500333062
 20
6.8489187198
 30
0.0
  0
VERTEX
  5
4F6
330
275
100
AcDbEntity
  8
0
  6
CONTINUOUS
 62
     7
100
AcDbVertex
100
AcDb2dVertex
 10
7.5390409014
 20
6.8116700578
 30
0.0
  0
VERTEX
  5
4F7
330
275
100
AcDbEntity
  8
0
  6
CONTINUOUS
 62
     7
100
AcDbVertex
100
AcDb2dVertex
 10
7.5293245446
 20
6.7745930718
 30
0.0
  0
VERTEX
  5
4F8
330
275
100
AcDbEntity
  8
0
  6
CONTINUOUS
 62
     7
100
AcDbVertex
100
AcDb2dVertex
 10
7.5209059166
 20
6.7377704949
 30
0.0
  0
VERTEX
  5
4F9
330
275
100
AcDbEntity
  8
0
  6
CONTINUOUS
 62
     7
100
AcDbVertex
100
AcDb2dVertex
 10
7.5138038027
 20
6.7012844927
 30
0.0
  0
VERTEX
  5
4FA
330
275
100
AcDbEntity
  8
0
  6
CONTINUOUS
 62
     7
100
AcDbVertex
100
AcDb2dVertex
 10
7.5080340506
 20
6.6652164799
 30
0.0
  0
VERTEX
  5
4FB
330
275
100
AcDbEntity
  8
0
  6
CONTINUOUS
 62
     7
100
AcDbVertex
100
AcDb2dVertex
 10
7.5036095349
 20
6.6296469381
 30
0.0
  0
VERTEX
  5
4FC
330
275
100
AcDbEntity
  8
0
  6
CONTINUOUS
 62
     7
100
AcDbVertex
100
AcDb2dVertex
 10
7.5005401282
 20
6.5946552371
 30
0.0
  0
VERTEX
  5
4FD
330
275
100
AcDbEntity
  8
0
  6
CONTINUOUS
 62
     7
100
AcDbVertex
100
AcDb2dVertex
 10
7.4988326797
 20
6.5603194569
 30
0.0
  0
VERTEX
  5
4FE
330
275
100
AcDbEntity
  8
0
  6
CONTINUOUS
 62
     7
100
AcDbVertex
100
AcDb2dVertex
 10
7.4984909994
 20
6.5267162141
 30
0.0
  0
VERTEX
  5
4FF
330
275
100
AcDbEntity
  8
0
  6
CONTINUOUS
 62
     7
100
AcDbVertex
100
AcDb2dVertex
 10
7.4995158497
 20
6.4939204907
 30
0.0
  0
VERTEX
  5
500
330
275
100
AcDbEntity
  8
0
  6
CONTINUOUS
 62
     7
100
AcDbVertex
100
AcDb2dVertex
 10
7.5019049437
 20
6.4620054667
 30
0.0
  0
VERTEX
  5
501
330
275
100
AcDbEntity
  8
0
  6
CONTINUOUS
 62
     7
100
AcDbVertex
100
AcDb2dVertex
 10
7.5056529505
 20
6.4310423571
 30
0.0
  0
VERTEX
  5
502
330
275
100
AcDbEntity
  8
0
  6
CONTINUOUS
 62
     7
100
AcDbVertex
100
AcDb2dVertex
 10
7.5107515068
 20
6.4011002527
 30
0.0
  0
VERTEX
  5
503
330
275
100
AcDbEntity
  8
0
  6
CONTINUOUS
 62
     7
100
AcDbVertex
100
AcDb2dVertex
 10
7.5171892356
 20
6.372245966
 30
0.0
  0
VERTEX
  5
504
330
275
100
AcDbEntity
  8
0
  6
CONTINUOUS
 62
     7
100
AcDbVertex
100
AcDb2dVertex
 10
7.524951772
 20
6.3445438821
 30
0.0
  0
VERTEX
  5
505
330
275
100
AcDbEntity
  8
0
  6
CONTINUOUS
 62
     7
100
AcDbVertex
100
AcDb2dVertex
 10
7.5340217946
 20
6.3180558154
 30
0.0
  0
VERTEX
  5
506
330
275
100
AcDbEntity
  8
0
  6
CONTINUOUS
 62
     7
100
AcDbVertex
100
AcDb2dVertex
 10
7.5443790647
 20
6.292840871
 30
0.0
  0
VERTEX
  5
507
330
275
100
AcDbEntity
  8
0
  6
CONTINUOUS
 62
     7
100
AcDbVertex
100
AcDb2dVertex
 10
7.5560004712
 20
6.2689553133
 30
0.0
  0
VERTEX
  5
508
330
275
100
AcDbEntity
  8
0
  6
CONTINUOUS
 62
     7
100
AcDbVertex
100
AcDb2dVertex
 10
7.5688600822
 20
6.2464524403
 30
0.0
  0
VERTEX
  5
509
330
275
100
AcDbEntity
  8
0
  6
CONTINUOUS
 62
     7
100
AcDbVertex
100
AcDb2dVertex
 10
7.5829292028
 20
6.2253824647
 30
0.0
  0
VERTEX
  5
50A
330
275
100
AcDbEntity
  8
0
  6
CONTINUOUS
 62
     7
100
AcDbVertex
100
AcDb2dVertex
 10
7.5981764394
 20
6.205792402
 30
0.0
  0
VERTEX
  5
50B
330
275
100
AcDbEntity
  8
0
  6
CONTINUOUS
 62
     7
100
AcDbVertex
100
AcDb2dVertex
 10
7.6145677693
 20
6.1877259652
 30
0.0
  0
VERTEX
  5
50C
330
275
100
AcDbEntity
  8
0
  6
CONTINUOUS
 62
     7
100
AcDbVertex
100
AcDb2dVertex
 10
7.6320666172
 20
6.1712234675
 30
0.0
  0
VERTEX
  5
50D
330
275
100
AcDbEntity
  8
0
  6
CONTINUOUS
 62
     7
100
AcDbVertex
100
AcDb2dVertex
 10
7.6506339362
 20
6.1563217325
 30
0.0
  0
VERTEX
  5
50E
330
275
100
AcDbEntity
  8
0
  6
CONTINUOUS
 62
     7
100
AcDbVertex
100
AcDb2dVertex
 10
7.6702282955
 20
6.1430540119
 30
0.0
  0
VERTEX
  5
50F
330
275
100
AcDbEntity
  8
0
  6
CONTINUOUS
 62
     7
100
AcDbVertex
100
AcDb2dVertex
 10
7.6908059722
 20
6.131449911
 30
0.0
  0
VERTEX
  5
510
330
275
100
AcDbEntity
  8
0
  6
CONTINUOUS
 62
     7
100
AcDbVertex
100
AcDb2dVertex
 10
7.7123210497
 20
6.1215353231
 30
0.0
  0
VERTEX
  5
511
330
275
100
AcDbEntity
  8
0
  6
CONTINUOUS
 62
     7
100
AcDbVertex
100
AcDb2dVertex
 10
7.7347255193
 20
6.1133323717
 30
0.0
  0
VERTEX
  5
512
330
275
100
AcDbEntity
  8
0
  6
CONTINUOUS
 62
     7
100
AcDbVertex
100
AcDb2dVertex
 10
7.7450573407
 20
6.1102121468
 30
0.0
  0
SEQEND
  5
513
330
275
100
AcDbEntity
  8
0
  6
CONTINUOUS
 62
     7
  0
LINE
  5
276
330
1F
100
AcDbEntity
  8
0
  6
CONTINUOUS
 62
     7
100
AcDbLine
 10
8.0134670035
 20
7.370825071
 30
0.0
 11
8.0138249104
 21
7.361396649
 31
0.0
  0
POLYLINE
  5
277
330
1F
100
AcDbEntity
  8
0
  6
CONTINUOUS
 62
     7
100
AcDb2dPolyline
 66
     1
 10
0.0
 20
0.0
 30
0.0
  0
VERTEX
  5
514
330
277
100
AcDbEntity
  8
0
  6
CONTINUOUS
 62
     7
100
AcDbVertex
100
AcDb2dVertex
 10
8.1677984179
 20
7.5512594958
 30
0.0
  0
VERTEX
  5
515
330
277
100
AcDbEntity
  8
0
  6
CONTINUOUS
 62
     7
100
AcDbVertex
100
AcDb2dVertex
 10
8.1629165779
 20
7.5522431025
 30
0.0
  0
VERTEX
  5
516
330
277
100
AcDbEntity
  8
0
  6
CONTINUOUS
 62
     7
100
AcDbVertex
100
AcDb2dVertex
 10
8.1528067991
 20
7.5528429415
 30
0.0
  0
VERTEX
  5
517
330
277
100
AcDbEntity
  8
0
  6
CONTINUOUS
 62
     7
100
AcDbVertex
100
AcDb2dVertex
 10
8.1421087824
 20
7.5516772556
 30
0.0
  0
VERTEX
  5
518
330
277
100
AcDbEntity
  8
0
  6
CONTINUOUS
 62
     7
100
AcDbVertex
100
AcDb2dVertex
 10
8.1309727046
 20
7.5487624083
 30
0.0
  0
VERTEX
  5
519
330
277
100
AcDbEntity
  8
0
  6
CONTINUOUS
 62
     7
100
AcDbVertex
100
AcDb2dVertex
 10
8.1195548918
 20
7.5441393178
 30
0.0
  0
VERTEX
  5
51A
330
277
100
AcDbEntity
  8
0
  6
CONTINUOUS
 62
     7
100
AcDbVertex
100
AcDb2dVertex
 10
8.1080156251
 20
7.537872882
 30
0.0
  0
VERTEX
  5
51B
330
277
100
AcDbEntity
  8
0
  6
CONTINUOUS
 62
     7
100
AcDbVertex
100
AcDb2dVertex
 10
8.0965168905
 20
7.5300510681
 30
0.0
  0
VERTEX
  5
51C
330
277
100
AcDbEntity
  8
0
  6
CONTINUOUS
 62
     7
100
AcDbVertex
100
AcDb2dVertex
 10
8.0852201051
 20
7.5207836771
 30
0.0
  0
VERTEX
  5
51D
330
277
100
AcDbEntity
  8
0
  6
CONTINUOUS
 62
     7
100
AcDbVertex
100
AcDb2dVertex
 10
8.0742838508
 20
7.5102008029
 30
0.0
  0
VERTEX
  5
51E
330
277
100
AcDbEntity
  8
0
  6
CONTINUOUS
 62
     7
100
AcDbVertex
100
AcDb2dVertex
 10
8.0638616489
 20
7.4984510059
 30
0.0
  0
VERTEX
  5
51F
330
277
100
AcDbEntity
  8
0
  6
CONTINUOUS
 62
     7
100
AcDbVertex
100
AcDb2dVertex
 10
8.054099804
 20
7.4856992274
 30
0.0
  0
VERTEX
  5
520
330
277
100
AcDbEntity
  8
0
  6
CONTINUOUS
 62
     7
100
AcDbVertex
100
AcDb2dVertex
 10
8.0451353512
 20
7.4721244744
 30
0.0
  0
VERTEX
  5
521
330
277
100
AcDbEntity
  8
0
  6
CONTINUOUS
 62
     7
100
AcDbVertex
100
AcDb2dVertex
 10
8.0370941317
 20
7.4579173068
 30
0.0
  0
VERTEX
  5
522
330
277
100
AcDbEntity
  8
0
  6
CONTINUOUS
 62
     7
100
AcDbVertex
100
AcDb2dVertex
 10
8.0300890267
 20
7.4432771621
 30
0.0
  0
VERTEX
  5
523
330
277
100
AcDbEntity
  8
0
  6
CONTINUOUS
 62
     7
100
AcDbVertex
100
AcDb2dVertex
 10
8.0242183723
 20
7.4284095557
 30
0.0
  0
VERTEX
  5
524
330
277
100
AcDbEntity
  8
0
  6
CONTINUOUS
 62
     7
100
AcDbVertex
100
AcDb2dVertex
 10
8.0195645798
 20
7.4135231962
 30
0.0
  0
VERTEX
  5
525
330
277
100
AcDbEntity
  8
0
  6
CONTINUOUS
 62
     7
100
AcDbVertex
100
AcDb2dVertex
 10
8.0161929781
 20
7.3988270556
 30
0.0
  0
VERTEX
  5
526
330
277
100
AcDbEntity
  8
0
  6
CONTINUOUS
 62
     7
100
AcDbVertex
100
AcDb2dVertex
 10
8.0141508972
 20
7.3845274355
 30
0.0
  0
VERTEX
  5
527
330
277
100
AcDbEntity
  8
0
  6
CONTINUOUS
 62
     7
100
AcDbVertex
100
AcDb2dVertex
 10
8.0134670035
 20
7.370825071
 30
0.0
  0
SEQEND
  5
528
330
277
100
AcDbEntity
  8
0
  6
CONTINUOUS
 62
     7
  0
SPLINE
  5
278
330
1F
100
AcDbEntity
  8
0
  6
CONTINUOUS
 62
     7
100
AcDbSpline
210
0.0
220
0.0
230
1.0
 70
     8
 71
     3
 72
    21
 73
    17
 74
     0
 42
0.00000001
 43
0.00000001
 40
0.0
 40
0.0
 40
0.0
 40
0.0
 40
0.1264351925601737
 40
0.2187621181910082
 40
0.3130224459061491
 40
0.3789870901105721
 40
0.4464907126464117
 40
0.4997292682950719
 40
0.5544277912971554
 40
0.6077144287881932
 40
0.6626926160828709
 40
0.7141905310495107
 40
0.7667571605936309
 40
0.8498274119513252
 40
0.935210831211331
 40
1.0
 40
1.0
 40
1.0
 40
1.0
 10
8.331287522187903
 20
7.761425030027178
 30
0.0
 10
8.322238073200959
 20
7.766538273394882
 30
0.0
 10
8.306580433988653
 20
7.775385366734124
 30
0.0
 10
8.281618579414925
 20
7.788338012480391
 30
0.0
 10
8.26068553278784
 20
7.79897478924233
 30
0.0
 10
8.24148197240331
 20
7.808699786422622
 30
0.0
 10
8.22587308435923
 20
7.816721570374671
 30
0.0
 10
8.211826633197074
 20
7.824158351881999
 30
0.0
 10
8.199840134866433
 20
7.8307643245679
 30
0.0
 10
8.189119621569828
 20
7.836999779988109
 30
0.0
 10
8.180296107281995
 20
7.842488735067262
 30
0.0
 10
8.173286653503284
 20
7.847202103012364
 30
0.0
 10
8.166973295103743
 20
7.851846747458935
 30
0.0
 10
8.162359376496896
 20
7.855826041768188
 30
0.0
 10
8.15992023497964
 20
7.858630893753835
 30
0.0
 10
8.16069499327473
 20
7.858713672024698
 30
0.0
 10
8.16102924832489
 20
7.858749385169371
 30
0.0
  0
SPLINE
  5
279
330
1F
100
AcDbEntity
  8
0
  6
CONTINUOUS
 62
     7
100
AcDbSpline
210
0.0
220
0.0
230
1.0
 70
     8
 71
     3
 72
    60
 73
    56
 74
     0
 42
0.00000001
 43
0.00000001
 40
-0.0312499999999999
 40
-0.0312499999999999
 40
0.0
 40
0.0
 40
0.0312500000000001
 40
0.0312500000000001
 40
0.0625000000000003
 40
0.0625000000000003
 40
0.0937500000000004
 40
0.0937500000000004
 40
0.1250000000000005
 40
0.1250000000000005
 40
0.1875000000000006
 40
0.1875000000000006
 40
0.2187500000000006
 40
0.2187500000000006
 40
0.2500000000000007
 40
0.2500000000000007
 40
0.2812500000000007
 40
0.2812500000000007
 40
0.3125000000000007
 40
0.3125000000000007
 40
0.3437500000000007
 40
0.3437500000000007
 40
0.3750000000000007
 40
0.3750000000000007
 40
0.4062500000000008
 40
0.4062500000000008
 40
0.4375000000000008
 40
0.4375000000000008
 40
0.4687500000000008
 40
0.4687500000000008
 40
0.5000000000000008
 40
0.5000000000000008
 40
0.5312500000000009
 40
0.5312500000000009
 40
0.5625000000000009
 40
0.5625000000000009
 40
0.593750000000001
 40
0.593750000000001
 40
0.625000000000001
 40
0.625000000000001
 40
0.7500000000000007
 40
0.7500000000000007
 40
0.7812500000000007
 40
0.7812500000000007
 40
0.8125000000000006
 40
0.8125000000000006
 40
0.8750000000000001
 40
0.8750000000000001
 40
0.9062500000000001
 40
0.9062500000000001
 40
0.9375000000000002
 40
0.9375000000000002
 40
0.9687500000000001
 40
0.9687500000000001
 40
1.0
 40
1.0
 40
1.03125
 40
1.03125
 10
7.391502677437327
 20
7.315591249646946
 30
0.0
 10
7.383026450195913
 20
7.32048447147826
 30
0.0
 10
7.37842905767067
 20
7.322022169033323
 30
0.0
 10
7.368601787047668
 20
7.323471015633282
 30
0.0
 10
7.363454035301314
 20
7.323348268057356
 30
0.0
 10
7.353205084243958
 20
7.32171614386849
 30
0.0
 10
7.348028068872214
 20
7.320194764783002
 30
0.0
 10
7.33806436348692
 20
7.31615044665347
 30
0.0
 10
7.333212285925708
 20
7.313617789222047
 30
0.0
 10
7.319022012805044
 20
7.304688103386775
 30
0.0
 10
7.310450076168594
 20
7.297252727852967
 30
0.0
 10
7.298906458190146
 20
7.284394438947375
 30
0.0
 10
7.29527140680733
 20
7.27979372903524
 30
0.0
 10
7.288638812882211
 20
7.270250742645891
 30
0.0
 10
7.285612071121228
 20
7.265278800427732
 30
0.0
 10
7.280150857816714
 20
7.254925224108462
 30
0.0
 10
7.277699836274598
 20
7.249496204818543
 30
0.0
 10
7.273548154796429
 20
7.238446065474156
 30
0.0
 10
7.271844986686306
 20
7.232839982629721
 30
0.0
 10
7.269212866576322
 20
7.221460245600919
 30
0.0
 10
7.268282878454983
 20
7.21568680665171
 30
0.0
 10
7.267299311866239
 20
7.203951405873954
 30
0.0
 10
7.267260564102253
 20
7.198047353306265
 30
0.0
 10
7.268160249768353
 20
7.186554687055039
 30
0.0
 10
7.269104323952039
 20
7.180864303385031
 30
0.0
 10
7.272047640011559
 20
7.16994753450705
 30
0.0
 10
7.274007500493942
 20
7.16483005824694
 30
0.0
 10
7.278943796894203
 20
7.155328526747558
 30
0.0
 10
7.281980336196447
 20
7.150893968935703
 30
0.0
 10
7.28881215532245
 20
7.143369127771033
 30
0.0
 10
7.292622350356247
 20
7.140213240314099
 30
0.0
 10
7.301054576111496
 20
7.135228262874435
 30
0.0
 10
7.305480617566726
 20
7.133513228696803
 30
0.0
 10
7.314738512513122
 20
7.131559212959791
 30
0.0
 10
7.319548831070308
 20
7.131351117772651
 30
0.0
 10
7.329066830992688
 20
7.132378161017369
 30
0.0
 10
7.333886850751104
 20
7.133626087457697
 30
0.0
 10
7.343187079362872
 20
7.137331631680291
 30
0.0
 10
7.347724193731468
 20
7.139794951182476
 30
0.0
 10
7.369661494029191
 20
7.154716204036218
 30
0.0
 10
7.383937033460343
 20
7.174175873385034
 30
0.0
 10
7.39649871694804
 20
7.200819841173272
 30
0.0
 10
7.398748569810077
 20
7.206271179122465
 30
0.0
 10
7.402731972944436
 20
7.217414813977896
 30
0.0
 10
7.404470104128274
 20
7.223138017156455
 30
0.0
 10
7.408735168389675
 20
7.240214205105077
 30
0.0
 10
7.41042047163145
 20
7.251626718405846
 30
0.0
 10
7.410650609272151
 20
7.268714787301205
 30
0.0
 10
7.410331418313103
 20
7.274263910200595
 30
0.0
 10
7.408746051768069
 20
7.285033381631973
 30
0.0
 10
7.407455383964028
 20
7.290313260389107
 30
0.0
 10
7.403748662003498
 20
7.300030540022896
 30
0.0
 10
7.401309242031155
 20
7.304542824040796
 30
0.0
 10
7.39514804782304
 20
7.312363407276153
 30
0.0
 10
7.391502677437327
 20
7.315591249646946
 30
0.0
 10
7.383026450195913
 20
7.32048447147826
 30
0.0
  0
POLYLINE
  5
27A
330
1F
100
AcDbEntity
  8
0
  6
CONTINUOUS
 62
     7
100
AcDb2dPolyline
 66
     1
 10
0.0
 20
0.0
 30
0.0
  0
VERTEX
  5
529
330
27A
100
AcDbEntity
  8
0
  6
CONTINUOUS
 62
     7
100
AcDbVertex
100
AcDb2dVertex
 10
7.436224604
 20
6.3328128488
 30
0.0
  0
VERTEX
  5
52A
330
27A
100
AcDbEntity
  8
0
  6
CONTINUOUS
 62
     7
100
AcDbVertex
100
AcDb2dVertex
 10
7.4242291195
 20
6.3561484492
 30
0.0
  0
VERTEX
  5
52B
330
27A
100
AcDbEntity
  8
0
  6
CONTINUOUS
 62
     7
100
AcDbVertex
100
AcDb2dVertex
 10
7.4134796832
 20
6.3808215173
 30
0.0
  0
VERTEX
  5
52C
330
27A
100
AcDbEntity
  8
0
  6
CONTINUOUS
 62
     7
100
AcDbVertex
100
AcDb2dVertex
 10
7.4040000976
 20
6.4067774194
 30
0.0
  0
VERTEX
  5
52D
330
27A
100
AcDbEntity
  8
0
  6
CONTINUOUS
 62
     7
100
AcDbVertex
100
AcDb2dVertex
 10
7.3958113534
 20
6.4339586812
 30
0.0
  0
VERTEX
  5
52E
330
27A
100
AcDbEntity
  8
0
  6
CONTINUOUS
 62
     7
100
AcDbVertex
100
AcDb2dVertex
 10
7.3889315829
 20
6.462305115
 30
0.0
  0
VERTEX
  5
52F
330
27A
100
AcDbEntity
  8
0
  6
CONTINUOUS
 62
     7
100
AcDbVertex
100
AcDb2dVertex
 10
7.3833760202
 20
6.4917539531
 30
0.0
  0
VERTEX
  5
530
330
27A
100
AcDbEntity
  8
0
  6
CONTINUOUS
 62
     7
100
AcDbVertex
100
AcDb2dVertex
 10
7.3791569669
 20
6.5222399867
 30
0.0
  0
VERTEX
  5
531
330
27A
100
AcDbEntity
  8
0
  6
CONTINUOUS
 62
     7
100
AcDbVertex
100
AcDb2dVertex
 10
7.3762837654
 20
6.5536957105
 30
0.0
  0
VERTEX
  5
532
330
27A
100
AcDbEntity
  8
0
  6
CONTINUOUS
 62
     7
100
AcDbVertex
100
AcDb2dVertex
 10
7.3747627777
 20
6.5860514717
 30
0.0
  0
VERTEX
  5
533
330
27A
100
AcDbEntity
  8
0
  6
CONTINUOUS
 62
     7
100
AcDbVertex
100
AcDb2dVertex
 10
7.3745973717
 20
6.6192356248
 30
0.0
  0
VERTEX
  5
534
330
27A
100
AcDbEntity
  8
0
  6
CONTINUOUS
 62
     7
100
AcDbVertex
100
AcDb2dVertex
 10
7.3757879139
 20
6.6531746899
 30
0.0
  0
VERTEX
  5
535
330
27A
100
AcDbEntity
  8
0
  6
CONTINUOUS
 62
     7
100
AcDbVertex
100
AcDb2dVertex
 10
7.3783317678
 20
6.6877935155
 30
0.0
  0
VERTEX
  5
536
330
27A
100
AcDbEntity
  8
0
  6
CONTINUOUS
 62
     7
100
AcDbVertex
100
AcDb2dVertex
 10
7.3822233008
 20
6.7230154448
 30
0.0
  0
VERTEX
  5
537
330
27A
100
AcDbEntity
  8
0
  6
CONTINUOUS
 62
     7
100
AcDbVertex
100
AcDb2dVertex
 10
7.3874538956
 20
6.7587624858
 30
0.0
  0
VERTEX
  5
538
330
27A
100
AcDbEntity
  8
0
  6
CONTINUOUS
 62
     7
100
AcDbVertex
100
AcDb2dVertex
 10
7.3940119702
 20
6.7949554835
 30
0.0
  0
VERTEX
  5
539
330
27A
100
AcDbEntity
  8
0
  6
CONTINUOUS
 62
     7
100
AcDbVertex
100
AcDb2dVertex
 10
7.401883003
 20
6.8315142954
 30
0.0
  0
VERTEX
  5
53A
330
27A
100
AcDbEntity
  8
0
  6
CONTINUOUS
 62
     7
100
AcDbVertex
100
AcDb2dVertex
 10
7.4110495651
 20
6.8683579692
 30
0.0
  0
VERTEX
  5
53B
330
27A
100
AcDbEntity
  8
0
  6
CONTINUOUS
 62
     7
100
AcDbVertex
100
AcDb2dVertex
 10
7.4214913588
 20
6.9054049217
 30
0.0
  0
VERTEX
  5
53C
330
27A
100
AcDbEntity
  8
0
  6
CONTINUOUS
 62
     7
100
AcDbVertex
100
AcDb2dVertex
 10
7.433185263
 20
6.9425731195
 30
0.0
  0
VERTEX
  5
53D
330
27A
100
AcDbEntity
  8
0
  6
CONTINUOUS
 62
     7
100
AcDbVertex
100
AcDb2dVertex
 10
7.4461053836
 20
6.9797802608
 30
0.0
  0
VERTEX
  5
53E
330
27A
100
AcDbEntity
  8
0
  6
CONTINUOUS
 62
     7
100
AcDbVertex
100
AcDb2dVertex
 10
7.4602231116
 20
7.0169439576
 30
0.0
  0
VERTEX
  5
53F
330
27A
100
AcDbEntity
  8
0
  6
CONTINUOUS
 62
     7
100
AcDbVertex
100
AcDb2dVertex
 10
7.475507186
 20
7.0539819181
 30
0.0
  0
VERTEX
  5
540
330
27A
100
AcDbEntity
  8
0
  6
CONTINUOUS
 62
     7
100
AcDbVertex
100
AcDb2dVertex
 10
7.4919237632
 20
7.0908121288
 30
0.0
  0
VERTEX
  5
541
330
27A
100
AcDbEntity
  8
0
  6
CONTINUOUS
 62
     7
100
AcDbVertex
100
AcDb2dVertex
 10
7.5094364917
 20
7.1273530364
 30
0.0
  0
VERTEX
  5
542
330
27A
100
AcDbEntity
  8
0
  6
CONTINUOUS
 62
     7
100
AcDbVertex
100
AcDb2dVertex
 10
7.5280065932
 20
7.1635237281
 30
0.0
  0
VERTEX
  5
543
330
27A
100
AcDbEntity
  8
0
  6
CONTINUOUS
 62
     7
100
AcDbVertex
100
AcDb2dVertex
 10
7.5475929475
 20
7.1992441108
 30
0.0
  0
VERTEX
  5
544
330
27A
100
AcDbEntity
  8
0
  6
CONTINUOUS
 62
     7
100
AcDbVertex
100
AcDb2dVertex
 10
7.5681521846
 20
7.2344350888
 30
0.0
  0
VERTEX
  5
545
330
27A
100
AcDbEntity
  8
0
  6
CONTINUOUS
 62
     7
100
AcDbVertex
100
AcDb2dVertex
 10
7.5896387801
 20
7.2690187382
 30
0.0
  0
VERTEX
  5
546
330
27A
100
AcDbEntity
  8
0
  6
CONTINUOUS
 62
     7
100
AcDbVertex
100
AcDb2dVertex
 10
7.6120051558
 20
7.3029184804
 30
0.0
  0
VERTEX
  5
547
330
27A
100
AcDbEntity
  8
0
  6
CONTINUOUS
 62
     7
100
AcDbVertex
100
AcDb2dVertex
 10
7.635201786
 20
7.3360592509
 30
0.0
  0
VERTEX
  5
548
330
27A
100
AcDbEntity
  8
0
  6
CONTINUOUS
 62
     7
100
AcDbVertex
100
AcDb2dVertex
 10
7.659177306
 20
7.3683676658
 30
0.0
  0
VERTEX
  5
549
330
27A
100
AcDbEntity
  8
0
  6
CONTINUOUS
 62
     7
100
AcDbVertex
100
AcDb2dVertex
 10
7.6838786267
 20
7.3997721845
 30
0.0
  0
VERTEX
  5
54A
330
27A
100
AcDbEntity
  8
0
  6
CONTINUOUS
 62
     7
100
AcDbVertex
100
AcDb2dVertex
 10
7.7092510519
 20
7.4302032676
 30
0.0
  0
VERTEX
  5
54B
330
27A
100
AcDbEntity
  8
0
  6
CONTINUOUS
 62
     7
100
AcDbVertex
100
AcDb2dVertex
 10
7.7352383992
 20
7.4595935314
 30
0.0
  0
VERTEX
  5
54C
330
27A
100
AcDbEntity
  8
0
  6
CONTINUOUS
 62
     7
100
AcDbVertex
100
AcDb2dVertex
 10
7.7617831246
 20
7.4878778968
 30
0.0
  0
VERTEX
  5
54D
330
27A
100
AcDbEntity
  8
0
  6
CONTINUOUS
 62
     7
100
AcDbVertex
100
AcDb2dVertex
 10
7.7888264499
 20
7.5149937337
 30
0.0
  0
VERTEX
  5
54E
330
27A
100
AcDbEntity
  8
0
  6
CONTINUOUS
 62
     7
100
AcDbVertex
100
AcDb2dVertex
 10
7.816308493
 20
7.5408809991
 30
0.0
  0
VERTEX
  5
54F
330
27A
100
AcDbEntity
  8
0
  6
CONTINUOUS
 62
     7
100
AcDbVertex
100
AcDb2dVertex
 10
7.8441684002
 20
7.5654823708
 30
0.0
  0
VERTEX
  5
550
330
27A
100
AcDbEntity
  8
0
  6
CONTINUOUS
 62
     7
100
AcDbVertex
100
AcDb2dVertex
 10
7.872344481
 20
7.5887433737
 30
0.0
  0
VERTEX
  5
551
330
27A
100
AcDbEntity
  8
0
  6
CONTINUOUS
 62
     7
100
AcDbVertex
100
AcDb2dVertex
 10
7.9007743449
 20
7.6106125008
 30
0.0
  0
VERTEX
  5
552
330
27A
100
AcDbEntity
  8
0
  6
CONTINUOUS
 62
     7
100
AcDbVertex
100
AcDb2dVertex
 10
7.9293950396
 20
7.6310413273
 30
0.0
  0
VERTEX
  5
553
330
27A
100
AcDbEntity
  8
0
  6
CONTINUOUS
 62
     7
100
AcDbVertex
100
AcDb2dVertex
 10
7.9581431901
 20
7.6499846173
 30
0.0
  0
VERTEX
  5
554
330
27A
100
AcDbEntity
  8
0
  6
CONTINUOUS
 62
     7
100
AcDbVertex
100
AcDb2dVertex
 10
7.986955139
 20
7.6674004247
 30
0.0
  0
VERTEX
  5
555
330
27A
100
AcDbEntity
  8
0
  6
CONTINUOUS
 62
     7
100
AcDbVertex
100
AcDb2dVertex
 10
8.0157670879
 20
7.6832501855
 30
0.0
  0
VERTEX
  5
556
330
27A
100
AcDbEntity
  8
0
  6
CONTINUOUS
 62
     7
100
AcDbVertex
100
AcDb2dVertex
 10
8.0445152384
 20
7.6974988034
 30
0.0
  0
VERTEX
  5
557
330
27A
100
AcDbEntity
  8
0
  6
CONTINUOUS
 62
     7
100
AcDbVertex
100
AcDb2dVertex
 10
8.0731359331
 20
7.7101147277
 30
0.0
  0
VERTEX
  5
558
330
27A
100
AcDbEntity
  8
0
  6
CONTINUOUS
 62
     7
100
AcDbVertex
100
AcDb2dVertex
 10
8.1015657971
 20
7.7210700228
 30
0.0
  0
VERTEX
  5
559
330
27A
100
AcDbEntity
  8
0
  6
CONTINUOUS
 62
     7
100
AcDbVertex
100
AcDb2dVertex
 10
8.1297418779
 20
7.7303404303
 30
0.0
  0
VERTEX
  5
55A
330
27A
100
AcDbEntity
  8
0
  6
CONTINUOUS
 62
     7
100
AcDbVertex
100
AcDb2dVertex
 10
8.157601785
 20
7.7379054228
 30
0.0
  0
VERTEX
  5
55B
330
27A
100
AcDbEntity
  8
0
  6
CONTINUOUS
 62
     7
100
AcDbVertex
100
AcDb2dVertex
 10
8.1850838281
 20
7.7437482489
 30
0.0
  0
VERTEX
  5
55C
330
27A
100
AcDbEntity
  8
0
  6
CONTINUOUS
 62
     7
100
AcDbVertex
100
AcDb2dVertex
 10
8.2121271534
 20
7.7478559709
 30
0.0
  0
VERTEX
  5
55D
330
27A
100
AcDbEntity
  8
0
  6
CONTINUOUS
 62
     7
100
AcDbVertex
100
AcDb2dVertex
 10
8.2386718788
 20
7.750219493
 30
0.0
  0
VERTEX
  5
55E
330
27A
100
AcDbEntity
  8
0
  6
CONTINUOUS
 62
     7
100
AcDbVertex
100
AcDb2dVertex
 10
8.2646592261
 20
7.7508335817
 30
0.0
  0
VERTEX
  5
55F
330
27A
100
AcDbEntity
  8
0
  6
CONTINUOUS
 62
     7
100
AcDbVertex
100
AcDb2dVertex
 10
8.2900316513
 20
7.7496968772
 30
0.0
  0
VERTEX
  5
560
330
27A
100
AcDbEntity
  8
0
  6
CONTINUOUS
 62
     7
100
AcDbVertex
100
AcDb2dVertex
 10
8.314732972
 20
7.7468118964
 30
0.0
  0
VERTEX
  5
561
330
27A
100
AcDbEntity
  8
0
  6
CONTINUOUS
 62
     7
100
AcDbVertex
100
AcDb2dVertex
 10
8.3387084921
 20
7.7421850277
 30
0.0
  0
VERTEX
  5
562
330
27A
100
AcDbEntity
  8
0
  6
CONTINUOUS
 62
     7
100
AcDbVertex
100
AcDb2dVertex
 10
8.3619051222
 20
7.7358265163
 30
0.0
  0
VERTEX
  5
563
330
27A
100
AcDbEntity
  8
0
  6
CONTINUOUS
 62
     7
100
AcDbVertex
100
AcDb2dVertex
 10
8.384271498
 20
7.7277504419
 30
0.0
  0
VERTEX
  5
564
330
27A
100
AcDbEntity
  8
0
  6
CONTINUOUS
 62
     7
100
AcDbVertex
100
AcDb2dVertex
 10
8.4057580934
 20
7.7179746874
 30
0.0
  0
VERTEX
  5
565
330
27A
100
AcDbEntity
  8
0
  6
CONTINUOUS
 62
     7
100
AcDbVertex
100
AcDb2dVertex
 10
8.4199908106
 20
7.7102814133
 30
0.0
  0
SEQEND
  5
566
330
27A
100
AcDbEntity
  8
0
  6
CONTINUOUS
 62
     7
  0
POLYLINE
  5
27B
330
1F
100
AcDbEntity
  8
0
  6
CONTINUOUS
 62
     7
100
AcDb2dPolyline
 66
     1
 10
0.0
 20
0.0
 30
0.0
  0
VERTEX
  5
567
330
27B
100
AcDbEntity
  8
0
  6
CONTINUOUS
 62
     7
100
AcDbVertex
100
AcDb2dVertex
 10
8.4010338142
 20
7.7203064096
 30
0.0
  0
VERTEX
  5
568
330
27B
100
AcDbEntity
  8
0
  6
CONTINUOUS
 62
     7
100
AcDbVertex
100
AcDb2dVertex
 10
8.3827223498
 20
7.7317959779
 30
0.0
  0
VERTEX
  5
569
330
27B
100
AcDbEntity
  8
0
  6
CONTINUOUS
 62
     7
100
AcDbVertex
100
AcDb2dVertex
 10
8.3615986626
 20
7.7428392354
 30
0.0
  0
VERTEX
  5
56A
330
27B
100
AcDbEntity
  8
0
  6
CONTINUOUS
 62
     7
100
AcDbVertex
100
AcDb2dVertex
 10
8.3395406262
 20
7.7521551015
 30
0.0
  0
VERTEX
  5
56B
330
27B
100
AcDbEntity
  8
0
  6
CONTINUOUS
 62
     7
100
AcDbVertex
100
AcDb2dVertex
 10
8.3165982935
 20
7.7597224371
 30
0.0
  0
VERTEX
  5
56C
330
27B
100
AcDbEntity
  8
0
  6
CONTINUOUS
 62
     7
100
AcDbVertex
100
AcDb2dVertex
 10
8.2928237242
 20
7.7655240708
 30
0.0
  0
VERTEX
  5
56D
330
27B
100
AcDbEntity
  8
0
  6
CONTINUOUS
 62
     7
100
AcDbVertex
100
AcDb2dVertex
 10
8.2682708663
 20
7.7695468378
 30
0.0
  0
VERTEX
  5
56E
330
27B
100
AcDbEntity
  8
0
  6
CONTINUOUS
 62
     7
100
AcDbVertex
100
AcDb2dVertex
 10
8.2429954338
 20
7.7717816099
 30
0.0
  0
VERTEX
  5
56F
330
27B
100
AcDbEntity
  8
0
  6
CONTINUOUS
 62
     7
100
AcDbVertex
100
AcDb2dVertex
 10
8.2170547804
 20
7.772223316
 30
0.0
  0
VERTEX
  5
570
330
27B
100
AcDbEntity
  8
0
  6
CONTINUOUS
 62
     7
100
AcDbVertex
100
AcDb2dVertex
 10
8.1905077694
 20
7.7708709538
 30
0.0
  0
VERTEX
  5
571
330
27B
100
AcDbEntity
  8
0
  6
CONTINUOUS
 62
     7
100
AcDbVertex
100
AcDb2dVertex
 10
8.1634146399
 20
7.767727592
 30
0.0
  0
VERTEX
  5
572
330
27B
100
AcDbEntity
  8
0
  6
CONTINUOUS
 62
     7
100
AcDbVertex
100
AcDb2dVertex
 10
8.1358368702
 20
7.7628003635
 30
0.0
  0
VERTEX
  5
573
330
27B
100
AcDbEntity
  8
0
  6
CONTINUOUS
 62
     7
100
AcDbVertex
100
AcDb2dVertex
 10
8.1078370384
 20
7.7561004487
 30
0.0
  0
VERTEX
  5
574
330
27B
100
AcDbEntity
  8
0
  6
CONTINUOUS
 62
     7
100
AcDbVertex
100
AcDb2dVertex
 10
8.0794786803
 20
7.7476430509
 30
0.0
  0
VERTEX
  5
575
330
27B
100
AcDbEntity
  8
0
  6
CONTINUOUS
 62
     7
100
AcDbVertex
100
AcDb2dVertex
 10
8.0508261451
 20
7.7374473611
 30
0.0
  0
VERTEX
  5
576
330
27B
100
AcDbEntity
  8
0
  6
CONTINUOUS
 62
     7
100
AcDbVertex
100
AcDb2dVertex
 10
8.0219444499
 20
7.7255365148
 30
0.0
  0
VERTEX
  5
577
330
27B
100
AcDbEntity
  8
0
  6
CONTINUOUS
 62
     7
100
AcDbVertex
100
AcDb2dVertex
 10
7.9928991313
 20
7.7119375396
 30
0.0
  0
VERTEX
  5
578
330
27B
100
AcDbEntity
  8
0
  6
CONTINUOUS
 62
     7
100
AcDbVertex
100
AcDb2dVertex
 10
7.9637560976
 20
7.6966812935
 30
0.0
  0
SEQEND
  5
579
330
27B
100
AcDbEntity
  8
0
  6
CONTINUOUS
 62
     7
  0
LINE
  5
27C
330
1F
100
AcDbEntity
  8
0
  6
CONTINUOUS
 62
     7
100
AcDbLine
 10
7.717846259
 20
7.8386420216
 30
0.0
 11
7.9637560976
 21
7.6966812935
 31
0.0
  0
POLYLINE
  5
27D
330
1F
100
AcDbEntity
  8
0
  6
CONTINUOUS
 62
     7
100
AcDb2dPolyline
 66
     1
 10
0.0
 20
0.0
 30
0.0
  0
VERTEX
  5
57A
330
27D
100
AcDbEntity
  8
0
  6
CONTINUOUS
 62
     7
100
AcDbVertex
100
AcDb2dVertex
 10
7.717846259
 20
7.8386420216
 30
0.0
  0
VERTEX
  5
57B
330
27D
100
AcDbEntity
  8
0
  6
CONTINUOUS
 62
     7
100
AcDbVertex
100
AcDb2dVertex
 10
7.7467543337
 20
7.8537817007
 30
0.0
  0
VERTEX
  5
57C
330
27D
100
AcDbEntity
  8
0
  6
CONTINUOUS
 62
     7
100
AcDbVertex
100
AcDb2dVertex
 10
7.7755667889
 20
7.8672910133
 30
0.0
  0
VERTEX
  5
57D
330
27D
100
AcDbEntity
  8
0
  6
CONTINUOUS
 62
     7
100
AcDbVertex
100
AcDb2dVertex
 10
7.8042192958
 20
7.8791397976
 30
0.0
  0
VERTEX
  5
57E
330
27D
100
AcDbEntity
  8
0
  6
CONTINUOUS
 62
     7
100
AcDbVertex
100
AcDb2dVertex
 10
7.8326478831
 20
7.8893015993
 30
0.0
  0
VERTEX
  5
57F
330
27D
100
AcDbEntity
  8
0
  6
CONTINUOUS
 62
     7
100
AcDbVertex
100
AcDb2dVertex
 10
7.860789079
 20
7.8977537304
 30
0.0
  0
VERTEX
  5
580
330
27D
100
AcDbEntity
  8
0
  6
CONTINUOUS
 62
     7
100
AcDbVertex
100
AcDb2dVertex
 10
7.8885800538
 20
7.9044773201
 30
0.0
  0
VERTEX
  5
581
330
27D
100
AcDbEntity
  8
0
  6
CONTINUOUS
 62
     7
100
AcDbVertex
100
AcDb2dVertex
 10
7.9159587593
 20
7.909457357
 30
0.0
  0
VERTEX
  5
582
330
27D
100
AcDbEntity
  8
0
  6
CONTINUOUS
 62
     7
100
AcDbVertex
100
AcDb2dVertex
 10
7.9428640681
 20
7.9126827221
 30
0.0
  0
VERTEX
  5
583
330
27D
100
AcDbEntity
  8
0
  6
CONTINUOUS
 62
     7
100
AcDbVertex
100
AcDb2dVertex
 10
7.9692359095
 20
7.9141462143
 30
0.0
  0
VERTEX
  5
584
330
27D
100
AcDbEntity
  8
0
  6
CONTINUOUS
 62
     7
100
AcDbVertex
100
AcDb2dVertex
 10
7.9950154039
 20
7.9138445663
 30
0.0
  0
VERTEX
  5
585
330
27D
100
AcDbEntity
  8
0
  6
CONTINUOUS
 62
     7
100
AcDbVertex
100
AcDb2dVertex
 10
8.0201449945
 20
7.9117784513
 30
0.0
  0
VERTEX
  5
586
330
27D
100
AcDbEntity
  8
0
  6
CONTINUOUS
 62
     7
100
AcDbVertex
100
AcDb2dVertex
 10
8.0445685751
 20
7.9079524825
 30
0.0
  0
VERTEX
  5
587
330
27D
100
AcDbEntity
  8
0
  6
CONTINUOUS
 62
     7
100
AcDbVertex
100
AcDb2dVertex
 10
8.0682316159
 20
7.9023752018
 30
0.0
  0
VERTEX
  5
588
330
27D
100
AcDbEntity
  8
0
  6
CONTINUOUS
 62
     7
100
AcDbVertex
100
AcDb2dVertex
 10
8.0910812854
 20
7.8950590616
 30
0.0
  0
VERTEX
  5
589
330
27D
100
AcDbEntity
  8
0
  6
CONTINUOUS
 62
     7
100
AcDbVertex
100
AcDb2dVertex
 10
8.1130665678
 20
7.8860203963
 30
0.0
  0
VERTEX
  5
58A
330
27D
100
AcDbEntity
  8
0
  6
CONTINUOUS
 62
     7
100
AcDbVertex
100
AcDb2dVertex
 10
8.1341383772
 20
7.8752793862
 30
0.0
  0
VERTEX
  5
58B
330
27D
100
AcDbEntity
  8
0
  6
CONTINUOUS
 62
     7
100
AcDbVertex
100
AcDb2dVertex
 10
8.1369625058
 20
7.8736701759
 30
0.0
  0
SEQEND
  5
58C
330
27D
100
AcDbEntity
  8
0
  6
CONTINUOUS
 62
     7
  0
POLYLINE
  5
27E
330
1F
100
AcDbEntity
  8
0
  6
CONTINUOUS
 62
     7
100
AcDb2dPolyline
 66
     1
 10
0.0
 20
0.0
 30
0.0
  0
VERTEX
  5
58D
330
27E
100
AcDbEntity
  8
0
  6
CONTINUOUS
 62
     7
100
AcDbVertex
100
AcDb2dVertex
 10
7.2708911626
 20
6.373428052
 30
0.0
  0
VERTEX
  5
58E
330
27E
100
AcDbEntity
  8
0
  6
CONTINUOUS
 62
     7
100
AcDbVertex
100
AcDb2dVertex
 10
7.2631544664
 20
6.3780568458
 30
0.0
  0
VERTEX
  5
58F
330
27E
100
AcDbEntity
  8
0
  6
CONTINUOUS
 62
     7
100
AcDbVertex
100
AcDb2dVertex
 10
7.243559539
 20
6.3913366181
 30
0.0
  0
VERTEX
  5
590
330
27E
100
AcDbEntity
  8
0
  6
CONTINUOUS
 62
     7
100
AcDbVertex
100
AcDb2dVertex
 10
7.2249924586
 20
6.4062511774
 30
0.0
  0
VERTEX
  5
591
330
27E
100
AcDbEntity
  8
0
  6
CONTINUOUS
 62
     7
100
AcDbVertex
100
AcDb2dVertex
 10
7.2074946794
 20
6.4227672243
 30
0.0
  0
VERTEX
  5
592
330
27E
100
AcDbEntity
  8
0
  6
CONTINUOUS
 62
     7
100
AcDbVertex
100
AcDb2dVertex
 10
7.191105268
 20
6.4408478841
 30
0.0
  0
VERTEX
  5
593
330
27E
100
AcDbEntity
  8
0
  6
CONTINUOUS
 62
     7
100
AcDbVertex
100
AcDb2dVertex
 10
7.1758608166
 20
6.4604527886
 30
0.0
  0
VERTEX
  5
594
330
27E
100
AcDbEntity
  8
0
  6
CONTINUOUS
 62
     7
100
AcDbVertex
100
AcDb2dVertex
 10
7.161795361
 20
6.4815381667
 30
0.0
  0
VERTEX
  5
595
330
27E
100
AcDbEntity
  8
0
  6
CONTINUOUS
 62
     7
100
AcDbVertex
100
AcDb2dVertex
 10
7.1489403046
 20
6.5040569416
 30
0.0
  0
VERTEX
  5
596
330
27E
100
AcDbEntity
  8
0
  6
CONTINUOUS
 62
     7
100
AcDbVertex
100
AcDb2dVertex
 10
7.1373243485
 20
6.5279588365
 30
0.0
  0
VERTEX
  5
597
330
27E
100
AcDbEntity
  8
0
  6
CONTINUOUS
 62
     7
100
AcDbVertex
100
AcDb2dVertex
 10
7.1269734273
 20
6.5531904864
 30
0.0
  0
VERTEX
  5
598
330
27E
100
AcDbEntity
  8
0
  6
CONTINUOUS
 62
     7
100
AcDbVertex
100
AcDb2dVertex
 10
7.1179106512
 20
6.5796955574
 30
0.0
  0
VERTEX
  5
599
330
27E
100
AcDbEntity
  8
0
  6
CONTINUOUS
 62
     7
100
AcDbVertex
100
AcDb2dVertex
 10
7.1101562543
 20
6.6074148724
 30
0.0
  0
VERTEX
  5
59A
330
27E
100
AcDbEntity
  8
0
  6
CONTINUOUS
 62
     7
100
AcDbVertex
100
AcDb2dVertex
 10
7.1037275495
 20
6.6362865436
 30
0.0
  0
VERTEX
  5
59B
330
27E
100
AcDbEntity
  8
0
  6
CONTINUOUS
 62
     7
100
AcDbVertex
100
AcDb2dVertex
 10
7.0986388901
 20
6.66624611
 30
0.0
  0
VERTEX
  5
59C
330
27E
100
AcDbEntity
  8
0
  6
CONTINUOUS
 62
     7
100
AcDbVertex
100
AcDb2dVertex
 10
7.0949016373
 20
6.6972266818
 30
0.0
  0
VERTEX
  5
59D
330
27E
100
AcDbEntity
  8
0
  6
CONTINUOUS
 62
     7
100
AcDbVertex
100
AcDb2dVertex
 10
7.0925241353
 20
6.7291590899
 30
0.0
  0
VERTEX
  5
59E
330
27E
100
AcDbEntity
  8
0
  6
CONTINUOUS
 62
     7
100
AcDbVertex
100
AcDb2dVertex
 10
7.091511692
 20
6.7619720396
 30
0.0
  0
VERTEX
  5
59F
330
27E
100
AcDbEntity
  8
0
  6
CONTINUOUS
 62
     7
100
AcDbVertex
100
AcDb2dVertex
 10
7.0918665681
 20
6.7955922708
 30
0.0
  0
VERTEX
  5
5A0
330
27E
100
AcDbEntity
  8
0
  6
CONTINUOUS
 62
     7
100
AcDbVertex
100
AcDb2dVertex
 10
7.0935879712
 20
6.8299447204
 30
0.0
  0
VERTEX
  5
5A1
330
27E
100
AcDbEntity
  8
0
  6
CONTINUOUS
 62
     7
100
AcDbVertex
100
AcDb2dVertex
 10
7.0966720579
 20
6.864952691
 30
0.0
  0
VERTEX
  5
5A2
330
27E
100
AcDbEntity
  8
0
  6
CONTINUOUS
 62
     7
100
AcDbVertex
100
AcDb2dVertex
 10
7.1011119425
 20
6.9005380214
 30
0.0
  0
VERTEX
  5
5A3
330
27E
100
AcDbEntity
  8
0
  6
CONTINUOUS
 62
     7
100
AcDbVertex
100
AcDb2dVertex
 10
7.1068977123
 20
6.9366212614
 30
0.0
  0
VERTEX
  5
5A4
330
27E
100
AcDbEntity
  8
0
  6
CONTINUOUS
 62
     7
100
AcDbVertex
100
AcDb2dVertex
 10
7.1140164495
 20
6.9731218491
 30
0.0
  0
VERTEX
  5
5A5
330
27E
100
AcDbEntity
  8
0
  6
CONTINUOUS
 62
     7
100
AcDbVertex
100
AcDb2dVertex
 10
7.1224522604
 20
7.0099582908
 30
0.0
  0
VERTEX
  5
5A6
330
27E
100
AcDbEntity
  8
0
  6
CONTINUOUS
 62
     7
100
AcDbVertex
100
AcDb2dVertex
 10
7.1321863105
 20
7.0470483431
 30
0.0
  0
VERTEX
  5
5A7
330
27E
100
AcDbEntity
  8
0
  6
CONTINUOUS
 62
     7
100
AcDbVertex
100
AcDb2dVertex
 10
7.1431968671
 20
7.0843091962
 30
0.0
  0
VERTEX
  5
5A8
330
27E
100
AcDbEntity
  8
0
  6
CONTINUOUS
 62
     7
100
AcDbVertex
100
AcDb2dVertex
 10
7.1554593472
 20
7.1216576589
 30
0.0
  0
VERTEX
  5
5A9
330
27E
100
AcDbEntity
  8
0
  6
CONTINUOUS
 62
     7
100
AcDbVertex
100
AcDb2dVertex
 10
7.1689463727
 20
7.1590103446
 30
0.0
  0
VERTEX
  5
5AA
330
27E
100
AcDbEntity
  8
0
  6
CONTINUOUS
 62
     7
100
AcDbVertex
100
AcDb2dVertex
 10
7.1836278317
 20
7.1962838572
 30
0.0
  0
VERTEX
  5
5AB
330
27E
100
AcDbEntity
  8
0
  6
CONTINUOUS
 62
     7
100
AcDbVertex
100
AcDb2dVertex
 10
7.1994709452
 20
7.2333949773
 30
0.0
  0
VERTEX
  5
5AC
330
27E
100
AcDbEntity
  8
0
  6
CONTINUOUS
 62
     7
100
AcDbVertex
100
AcDb2dVertex
 10
7.216440341
 20
7.2702608481
 30
0.0
  0
VERTEX
  5
5AD
330
27E
100
AcDbEntity
  8
0
  6
CONTINUOUS
 62
     7
100
AcDbVertex
100
AcDb2dVertex
 10
7.2344981319
 20
7.3067991604
 30
0.0
  0
VERTEX
  5
5AE
330
27E
100
AcDbEntity
  8
0
  6
CONTINUOUS
 62
     7
100
AcDbVertex
100
AcDb2dVertex
 10
7.253604001
 20
7.3429283363
 30
0.0
  0
VERTEX
  5
5AF
330
27E
100
AcDbEntity
  8
0
  6
CONTINUOUS
 62
     7
100
AcDbVertex
100
AcDb2dVertex
 10
7.2737152912
 20
7.3785677114
 30
0.0
  0
VERTEX
  5
5B0
330
27E
100
AcDbEntity
  8
0
  6
CONTINUOUS
 62
     7
100
AcDbVertex
100
AcDb2dVertex
 10
7.2947871006
 20
7.4136377148
 30
0.0
  0
VERTEX
  5
5B1
330
27E
100
AcDbEntity
  8
0
  6
CONTINUOUS
 62
     7
100
AcDbVertex
100
AcDb2dVertex
 10
7.316772383
 20
7.4480600469
 30
0.0
  0
VERTEX
  5
5B2
330
27E
100
AcDbEntity
  8
0
  6
CONTINUOUS
 62
     7
100
AcDbVertex
100
AcDb2dVertex
 10
7.3396220525
 20
7.4817578539
 30
0.0
  0
VERTEX
  5
5B3
330
27E
100
AcDbEntity
  8
0
  6
CONTINUOUS
 62
     7
100
AcDbVertex
100
AcDb2dVertex
 10
7.3632850933
 20
7.5146559001
 30
0.0
  0
VERTEX
  5
5B4
330
27E
100
AcDbEntity
  8
0
  6
CONTINUOUS
 62
     7
100
AcDbVertex
100
AcDb2dVertex
 10
7.3877086739
 20
7.5466807348
 30
0.0
  0
VERTEX
  5
5B5
330
27E
100
AcDbEntity
  8
0
  6
CONTINUOUS
 62
     7
100
AcDbVertex
100
AcDb2dVertex
 10
7.4128382645
 20
7.5777608574
 30
0.0
  0
VERTEX
  5
5B6
330
27E
100
AcDbEntity
  8
0
  6
CONTINUOUS
 62
     7
100
AcDbVertex
100
AcDb2dVertex
 10
7.438617759
 20
7.6078268763
 30
0.0
  0
VERTEX
  5
5B7
330
27E
100
AcDbEntity
  8
0
  6
CONTINUOUS
 62
     7
100
AcDbVertex
100
AcDb2dVertex
 10
7.4649896004
 20
7.636811664
 30
0.0
  0
VERTEX
  5
5B8
330
27E
100
AcDbEntity
  8
0
  6
CONTINUOUS
 62
     7
100
AcDbVertex
100
AcDb2dVertex
 10
7.4918949091
 20
7.6646505071
 30
0.0
  0
VERTEX
  5
5B9
330
27E
100
AcDbEntity
  8
0
  6
CONTINUOUS
 62
     7
100
AcDbVertex
100
AcDb2dVertex
 10
7.5192736147
 20
7.6912812509
 30
0.0
  0
VERTEX
  5
5BA
330
27E
100
AcDbEntity
  8
0
  6
CONTINUOUS
 62
     7
100
AcDbVertex
100
AcDb2dVertex
 10
7.5470645894
 20
7.7166444376
 30
0.0
  0
VERTEX
  5
5BB
330
27E
100
AcDbEntity
  8
0
  6
CONTINUOUS
 62
     7
100
AcDbVertex
100
AcDb2dVertex
 10
7.5752057854
 20
7.7406834397
 30
0.0
  0
VERTEX
  5
5BC
330
27E
100
AcDbEntity
  8
0
  6
CONTINUOUS
 62
     7
100
AcDbVertex
100
AcDb2dVertex
 10
7.6036343726
 20
7.7633445862
 30
0.0
  0
VERTEX
  5
5BD
330
27E
100
AcDbEntity
  8
0
  6
CONTINUOUS
 62
     7
100
AcDbVertex
100
AcDb2dVertex
 10
7.6322868795
 20
7.7845772822
 30
0.0
  0
VERTEX
  5
5BE
330
27E
100
AcDbEntity
  8
0
  6
CONTINUOUS
 62
     7
100
AcDbVertex
100
AcDb2dVertex
 10
7.6610993347
 20
7.8043341222
 30
0.0
  0
VERTEX
  5
5BF
330
27E
100
AcDbEntity
  8
0
  6
CONTINUOUS
 62
     7
100
AcDbVertex
100
AcDb2dVertex
 10
7.6900074094
 20
7.8225709958
 30
0.0
  0
SEQEND
  5
5C0
330
27E
100
AcDbEntity
  8
0
  6
CONTINUOUS
 62
     7
  0
LINE
  5
27F
330
1F
100
AcDbEntity
  8
0
  6
CONTINUOUS
 62
     7
100
AcDbLine
 10
7.6900074094
 20
7.8225709958
 30
0.0
 11
7.935917248
 21
7.6806102677
 31
0.0
  0
POLYLINE
  5
280
330
1F
100
AcDbEntity
  8
0
  6
CONTINUOUS
 62
     7
100
AcDb2dPolyline
 66
     1
 10
0.0
 20
0.0
 30
0.0
  0
VERTEX
  5
5C1
330
280
100
AcDbEntity
  8
0
  6
CONTINUOUS
 62
     7
100
AcDbVertex
100
AcDb2dVertex
 10
7.935917248
 20
7.6806102677
 30
0.0
  0
VERTEX
  5
5C2
330
280
100
AcDbEntity
  8
0
  6
CONTINUOUS
 62
     7
100
AcDbVertex
100
AcDb2dVertex
 10
7.9067742143
 20
7.6622186833
 30
0.0
  0
VERTEX
  5
5C3
330
280
100
AcDbEntity
  8
0
  6
CONTINUOUS
 62
     7
100
AcDbVertex
100
AcDb2dVertex
 10
7.8777288958
 20
7.6422826476
 30
0.0
  0
VERTEX
  5
5C4
330
280
100
AcDbEntity
  8
0
  6
CONTINUOUS
 62
     7
100
AcDbVertex
100
AcDb2dVertex
 10
7.8488472005
 20
7.6208473983
 30
0.0
  0
VERTEX
  5
5C5
330
280
100
AcDbEntity
  8
0
  6
CONTINUOUS
 62
     7
100
AcDbVertex
100
AcDb2dVertex
 10
7.8201946653
 20
7.5979615752
 30
0.0
  0
VERTEX
  5
5C6
330
280
100
AcDbEntity
  8
0
  6
CONTINUOUS
 62
     7
100
AcDbVertex
100
AcDb2dVertex
 10
7.7918363072
 20
7.5736771096
 30
0.0
  0
VERTEX
  5
5C7
330
280
100
AcDbEntity
  8
0
  6
CONTINUOUS
 62
     7
100
AcDbVertex
100
AcDb2dVertex
 10
7.7638364754
 20
7.5480491067
 30
0.0
  0
VERTEX
  5
5C8
330
280
100
AcDbEntity
  8
0
  6
CONTINUOUS
 62
     7
100
AcDbVertex
100
AcDb2dVertex
 10
7.7362587057
 20
7.5211357201
 30
0.0
  0
VERTEX
  5
5C9
330
280
100
AcDbEntity
  8
0
  6
CONTINUOUS
 62
     7
100
AcDbVertex
100
AcDb2dVertex
 10
7.7091655762
 20
7.4929980203
 30
0.0
  0
VERTEX
  5
5CA
330
280
100
AcDbEntity
  8
0
  6
CONTINUOUS
 62
     7
100
AcDbVertex
100
AcDb2dVertex
 10
7.6826185652
 20
7.463699856
 30
0.0
  0
VERTEX
  5
5CB
330
280
100
AcDbEntity
  8
0
  6
CONTINUOUS
 62
     7
100
AcDbVertex
100
AcDb2dVertex
 10
7.6566779119
 20
7.4333077091
 30
0.0
  0
VERTEX
  5
5CC
330
280
100
AcDbEntity
  8
0
  6
CONTINUOUS
 62
     7
100
AcDbVertex
100
AcDb2dVertex
 10
7.6314024793
 20
7.4018905438
 30
0.0
  0
VERTEX
  5
5CD
330
280
100
AcDbEntity
  8
0
  6
CONTINUOUS
 62
     7
100
AcDbVertex
100
AcDb2dVertex
 10
7.6068496214
 20
7.3695196504
 30
0.0
  0
VERTEX
  5
5CE
330
280
100
AcDbEntity
  8
0
  6
CONTINUOUS
 62
     7
100
AcDbVertex
100
AcDb2dVertex
 10
7.5830750521
 20
7.3362684833
 30
0.0
  0
VERTEX
  5
5CF
330
280
100
AcDbEntity
  8
0
  6
CONTINUOUS
 62
     7
100
AcDbVertex
100
AcDb2dVertex
 10
7.5601327194
 20
7.3022124942
 30
0.0
  0
VERTEX
  5
5D0
330
280
100
AcDbEntity
  8
0
  6
CONTINUOUS
 62
     7
100
AcDbVertex
100
AcDb2dVertex
 10
7.538074683
 20
7.2674289614
 30
0.0
  0
VERTEX
  5
5D1
330
280
100
AcDbEntity
  8
0
  6
CONTINUOUS
 62
     7
100
AcDbVertex
100
AcDb2dVertex
 10
7.5169509958
 20
7.2319968138
 30
0.0
  0
VERTEX
  5
5D2
330
280
100
AcDbEntity
  8
0
  6
CONTINUOUS
 62
     7
100
AcDbVertex
100
AcDb2dVertex
 10
7.4968095906
 20
7.1959964522
 30
0.0
  0
VERTEX
  5
5D3
330
280
100
AcDbEntity
  8
0
  6
CONTINUOUS
 62
     7
100
AcDbVertex
100
AcDb2dVertex
 10
7.4776961713
 20
7.1595095668
 30
0.0
  0
VERTEX
  5
5D4
330
280
100
AcDbEntity
  8
0
  6
CONTINUOUS
 62
     7
100
AcDbVertex
100
AcDb2dVertex
 10
7.459654109
 20
7.1226189517
 30
0.0
  0
VERTEX
  5
5D5
330
280
100
AcDbEntity
  8
0
  6
CONTINUOUS
 62
     7
100
AcDbVertex
100
AcDb2dVertex
 10
7.4427243438
 20
7.0854083174
 30
0.0
  0
VERTEX
  5
5D6
330
280
100
AcDbEntity
  8
0
  6
CONTINUOUS
 62
     7
100
AcDbVertex
100
AcDb2dVertex
 10
7.426945292
 20
7.0479621001
 30
0.0
  0
VERTEX
  5
5D7
330
280
100
AcDbEntity
  8
0
  6
CONTINUOUS
 62
     7
100
AcDbVertex
100
AcDb2dVertex
 10
7.4123527584
 20
7.0103652711
 30
0.0
  0
VERTEX
  5
5D8
330
280
100
AcDbEntity
  8
0
  6
CONTINUOUS
 62
     7
100
AcDbVertex
100
AcDb2dVertex
 10
7.3989798559
 20
6.972703143
 30
0.0
  0
VERTEX
  5
5D9
330
280
100
AcDbEntity
  8
0
  6
CONTINUOUS
 62
     7
100
AcDbVertex
100
AcDb2dVertex
 10
7.3868569294
 20
6.9350611768
 30
0.0
  0
VERTEX
  5
5DA
330
280
100
AcDbEntity
  8
0
  6
CONTINUOUS
 62
     7
100
AcDbVertex
100
AcDb2dVertex
 10
7.3760114877
 20
6.8975247878
 30
0.0
  0
VERTEX
  5
5DB
330
280
100
AcDbEntity
  8
0
  6
CONTINUOUS
 62
     7
100
AcDbVertex
100
AcDb2dVertex
 10
7.3664681406
 20
6.8601791516
 30
0.0
  0
VERTEX
  5
5DC
330
280
100
AcDbEntity
  8
0
  6
CONTINUOUS
 62
     7
100
AcDbVertex
100
AcDb2dVertex
 10
7.3582485436
 20
6.823109011
 30
0.0
  0
VERTEX
  5
5DD
330
280
100
AcDbEntity
  8
0
  6
CONTINUOUS
 62
     7
100
AcDbVertex
100
AcDb2dVertex
 10
7.3513713481
 20
6.7863984837
 30
0.0
  0
VERTEX
  5
5DE
330
280
100
AcDbEntity
  8
0
  6
CONTINUOUS
 62
     7
100
AcDbVertex
100
AcDb2dVertex
 10
7.3458521593
 20
6.7501308714
 30
0.0
  0
VERTEX
  5
5DF
330
280
100
AcDbEntity
  8
0
  6
CONTINUOUS
 62
     7
100
AcDbVertex
100
AcDb2dVertex
 10
7.3417035013
 20
6.7143884705
 30
0.0
  0
VERTEX
  5
5E0
330
280
100
AcDbEntity
  8
0
  6
CONTINUOUS
 62
     7
100
AcDbVertex
100
AcDb2dVertex
 10
7.338934788
 20
6.679252386
 30
0.0
  0
VERTEX
  5
5E1
330
280
100
AcDbEntity
  8
0
  6
CONTINUOUS
 62
     7
100
AcDbVertex
100
AcDb2dVertex
 10
7.3375523018
 20
6.6448023469
 30
0.0
  0
VERTEX
  5
5E2
330
280
100
AcDbEntity
  8
0
  6
CONTINUOUS
 62
     7
100
AcDbVertex
100
AcDb2dVertex
 10
7.3375591801
 20
6.6111165254
 30
0.0
  0
VERTEX
  5
5E3
330
280
100
AcDbEntity
  8
0
  6
CONTINUOUS
 62
     7
100
AcDbVertex
100
AcDb2dVertex
 10
7.338955407
 20
6.5782713596
 30
0.0
  0
VERTEX
  5
5E4
330
280
100
AcDbEntity
  8
0
  6
CONTINUOUS
 62
     7
100
AcDbVertex
100
AcDb2dVertex
 10
7.3417378143
 20
6.5463413802
 30
0.0
  0
VERTEX
  5
5E5
330
280
100
AcDbEntity
  8
0
  6
CONTINUOUS
 62
     7
100
AcDbVertex
100
AcDb2dVertex
 10
7.3459000885
 20
6.515399041
 30
0.0
  0
VERTEX
  5
5E6
330
280
100
AcDbEntity
  8
0
  6
CONTINUOUS
 62
     7
100
AcDbVertex
100
AcDb2dVertex
 10
7.3514327846
 20
6.4855145548
 30
0.0
  0
VERTEX
  5
5E7
330
280
100
AcDbEntity
  8
0
  6
CONTINUOUS
 62
     7
100
AcDbVertex
100
AcDb2dVertex
 10
7.3583233481
 20
6.4567557338
 30
0.0
  0
VERTEX
  5
5E8
330
280
100
AcDbEntity
  8
0
  6
CONTINUOUS
 62
     7
100
AcDbVertex
100
AcDb2dVertex
 10
7.3665561434
 20
6.4291878363
 30
0.0
  0
VERTEX
  5
5E9
330
280
100
AcDbEntity
  8
0
  6
CONTINUOUS
 62
     7
100
AcDbVertex
100
AcDb2dVertex
 10
7.376112489
 20
6.4028734177
 30
0.0
  0
VERTEX
  5
5EA
330
280
100
AcDbEntity
  8
0
  6
CONTINUOUS
 62
     7
100
AcDbVertex
100
AcDb2dVertex
 10
7.3869707001
 20
6.3778721896
 30
0.0
  0
VERTEX
  5
5EB
330
280
100
AcDbEntity
  8
0
  6
CONTINUOUS
 62
     7
100
AcDbVertex
100
AcDb2dVertex
 10
7.3991061378
 20
6.3542408832
 30
0.0
  0
SEQEND
  5
5EC
330
280
100
AcDbEntity
  8
0
  6
CONTINUOUS
 62
     7
  0
LINE
  5
281
330
1F
100
AcDbEntity
  8
0
  6
CONTINUOUS
 62
     7
100
AcDbLine
 10
7.3991061378
 20
6.3542408832
 30
0.0
 11
7.436224604
 21
6.3328128488
 31
0.0
  0
LINE
  5
282
330
1F
100
AcDbEntity
  8
0
  6
CONTINUOUS
 62
     7
100
AcDbLine
 10
8.0665392045
 20
7.4527004845
 30
0.0
 11
7.9925084593
 21
7.3244754728
 31
0.0
  0
LINE
  5
283
330
1F
100
AcDbEntity
  8
0
  6
CONTINUOUS
 62
     7
100
AcDbLine
 10
7.6742827907
 20
6.7732924482
 30
0.0
 11
7.6002384728
 21
6.645043928
 31
0.0
  0
LINE
  5
284
330
1F
100
AcDbEntity
  8
0
  6
CONTINUOUS
 62
     7
100
AcDbLine
 10
7.935917248
 20
7.6354769044
 30
0.0
 11
7.935917248
 21
7.6806102677
 31
0.0
  0
LINE
  5
285
330
1F
100
AcDbEntity
  8
0
  6
CONTINUOUS
 62
     7
100
AcDbLine
 10
7.9637560976
 20
7.6535003461
 30
0.0
 11
7.9637560976
 21
7.6966812935
 31
0.0
  0
LINE
  5
286
330
1F
100
AcDbEntity
  8
0
  6
CONTINUOUS
 62
     7
100
AcDbLine
 10
7.3991061378
 20
6.3542408832
 30
0.0
 11
7.4196675019
 21
6.3661107061
 31
0.0
  0
LINE
  5
287
330
1F
100
AcDbEntity
  8
0
  6
CONTINUOUS
 62
     7
100
AcDbLine
 10
7.717846259
 20
7.8386420216
 30
0.0
 11
7.7072396573
 21
7.83251375
 31
0.0
  0
ARC
  5
288
330
1F
100
AcDbEntity
  8
0
  6
CONTINUOUS
 62
     7
100
AcDbCircle
 10
8.4002292707
 20
6.7224473719
 30
0.0
 40
1.310121942404311
100
AcDbArc
 50
123.380701909
 51
177.3844914864
  0
LINE
  5
289
330
1F
100
AcDbEntity
  8
0
  6
CONTINUOUS
 62
     7
100
AcDbLine
 10
7.6900074094
 20
7.8225709958
 30
0.0
 11
7.6794008077
 21
7.8164427241
 31
0.0
  0
POLYLINE
  5
28A
330
1F
100
AcDbEntity
  8
0
  6
CONTINUOUS
 62
     7
100
AcDb2dPolyline
 66
     1
 10
0.0
 20
0.0
 30
0.0
  0
VERTEX
  5
5ED
330
28A
100
AcDbEntity
  8
0
  6
CONTINUOUS
 62
     7
100
AcDbVertex
100
AcDb2dVertex
 10
7.6002384728
 20
6.645043928
 30
0.0
  0
VERTEX
  5
5EE
330
28A
100
AcDbEntity
  8
0
  6
CONTINUOUS
 62
     7
100
AcDbVertex
100
AcDb2dVertex
 10
7.5911373803
 20
6.6280297248
 30
0.0
  0
VERTEX
  5
5EF
330
28A
100
AcDbEntity
  8
0
  6
CONTINUOUS
 62
     7
100
AcDbVertex
100
AcDb2dVertex
 10
7.583233774
 20
6.6106040593
 30
0.0
  0
VERTEX
  5
5F0
330
28A
100
AcDbEntity
  8
0
  6
CONTINUOUS
 62
     7
100
AcDbVertex
100
AcDb2dVertex
 10
7.5766270463
 20
6.5929860692
 30
0.0
  0
VERTEX
  5
5F1
330
28A
100
AcDbEntity
  8
0
  6
CONTINUOUS
 62
     7
100
AcDbVertex
100
AcDb2dVertex
 10
7.5714002808
 20
6.5753973109
 30
0.0
  0
VERTEX
  5
5F2
330
28A
100
AcDbEntity
  8
0
  6
CONTINUOUS
 62
     7
100
AcDbVertex
100
AcDb2dVertex
 10
7.567619207
 20
6.5580589735
 30
0.0
  0
VERTEX
  5
5F3
330
28A
100
AcDbEntity
  8
0
  6
CONTINUOUS
 62
     7
100
AcDbVertex
100
AcDb2dVertex
 10
7.565331374
 20
6.5411890964
 30
0.0
  0
VERTEX
  5
5F4
330
28A
100
AcDbEntity
  8
0
  6
CONTINUOUS
 62
     7
100
AcDbVertex
100
AcDb2dVertex
 10
7.5645655528
 20
6.5249998282
 30
0.0
  0
VERTEX
  5
5F5
330
28A
100
AcDbEntity
  8
0
  6
CONTINUOUS
 62
     7
100
AcDbVertex
100
AcDb2dVertex
 10
7.565331374
 20
6.5096947583
 30
0.0
  0
VERTEX
  5
5F6
330
28A
100
AcDbEntity
  8
0
  6
CONTINUOUS
 62
     7
100
AcDbVertex
100
AcDb2dVertex
 10
7.567619207
 20
6.4954663569
 30
0.0
  0
VERTEX
  5
5F7
330
28A
100
AcDbEntity
  8
0
  6
CONTINUOUS
 62
     7
100
AcDbVertex
100
AcDb2dVertex
 10
7.5714002808
 20
6.4824935544
 30
0.0
  0
VERTEX
  5
5F8
330
28A
100
AcDbEntity
  8
0
  6
CONTINUOUS
 62
     7
100
AcDbVertex
100
AcDb2dVertex
 10
7.5766270463
 20
6.4709394912
 30
0.0
  0
VERTEX
  5
5F9
330
28A
100
AcDbEntity
  8
0
  6
CONTINUOUS
 62
     7
100
AcDbVertex
100
AcDb2dVertex
 10
7.583233774
 20
6.4609494664
 30
0.0
  0
VERTEX
  5
5FA
330
28A
100
AcDbEntity
  8
0
  6
CONTINUOUS
 62
     7
100
AcDbVertex
100
AcDb2dVertex
 10
7.5911373803
 20
6.4526491105
 30
0.0
  0
VERTEX
  5
5FB
330
28A
100
AcDbEntity
  8
0
  6
CONTINUOUS
 62
     7
100
AcDbVertex
100
AcDb2dVertex
 10
7.6002384728
 20
6.4461428051
 30
0.0
  0
SEQEND
  5
5FC
330
28A
100
AcDbEntity
  8
0
  6
CONTINUOUS
 62
     7
  0
LINE
  5
28B
330
1F
100
AcDbEntity
  8
0
  6
CONTINUOUS
 62
     7
100
AcDbLine
 10
8.2628388434
 20
7.5382479136
 30
0.0
 11
8.238783299
 21
7.5521348837
 31
0.0
  0
POLYLINE
  5
28C
330
1F
100
AcDbEntity
  8
0
  6
CONTINUOUS
 62
     7
100
AcDb2dPolyline
 66
     1
 10
0.0
 20
0.0
 30
0.0
  0
VERTEX
  5
5FD
330
28C
100
AcDbEntity
  8
0
  6
CONTINUOUS
 62
     7
100
AcDbVertex
100
AcDb2dVertex
 10
8.238783299
 20
7.5521348837
 30
0.0
  0
VERTEX
  5
5FE
330
28C
100
AcDbEntity
  8
0
  6
CONTINUOUS
 62
     7
100
AcDbVertex
100
AcDb2dVertex
 10
8.2285991717
 20
7.556765318
 30
0.0
  0
VERTEX
  5
5FF
330
28C
100
AcDbEntity
  8
0
  6
CONTINUOUS
 62
     7
100
AcDbVertex
100
AcDb2dVertex
 10
8.2174600811
 20
7.5594616506
 30
0.0
  0
VERTEX
  5
600
330
28C
100
AcDbEntity
  8
0
  6
CONTINUOUS
 62
     7
100
AcDbVertex
100
AcDb2dVertex
 10
8.2055061075
 20
7.5601899738
 30
0.0
  0
VERTEX
  5
601
330
28C
100
AcDbEntity
  8
0
  6
CONTINUOUS
 62
     7
100
AcDbVertex
100
AcDb2dVertex
 10
8.1928875793
 20
7.5589411285
 30
0.0
  0
VERTEX
  5
602
330
28C
100
AcDbEntity
  8
0
  6
CONTINUOUS
 62
     7
100
AcDbVertex
100
AcDb2dVertex
 10
8.1797631816
 20
7.5557308195
 30
0.0
  0
VERTEX
  5
603
330
28C
100
AcDbEntity
  8
0
  6
CONTINUOUS
 62
     7
100
AcDbVertex
100
AcDb2dVertex
 10
8.1662979615
 20
7.5505994183
 30
0.0
  0
VERTEX
  5
604
330
28C
100
AcDbEntity
  8
0
  6
CONTINUOUS
 62
     7
100
AcDbVertex
100
AcDb2dVertex
 10
8.1526612518
 20
7.5436114554
 30
0.0
  0
VERTEX
  5
605
330
28C
100
AcDbEntity
  8
0
  6
CONTINUOUS
 62
     7
100
AcDbVertex
100
AcDb2dVertex
 10
8.1390245421
 20
7.5348548085
 30
0.0
  0
VERTEX
  5
606
330
28C
100
AcDbEntity
  8
0
  6
CONTINUOUS
 62
     7
100
AcDbVertex
100
AcDb2dVertex
 10
8.1255593219
 20
7.5244395973
 30
0.0
  0
VERTEX
  5
607
330
28C
100
AcDbEntity
  8
0
  6
CONTINUOUS
 62
     7
100
AcDbVertex
100
AcDb2dVertex
 10
8.1124349242
 20
7.5124967993
 30
0.0
  0
VERTEX
  5
608
330
28C
100
AcDbEntity
  8
0
  6
CONTINUOUS
 62
     7
100
AcDbVertex
100
AcDb2dVertex
 10
8.099816396
 20
7.4991766021
 30
0.0
  0
VERTEX
  5
609
330
28C
100
AcDbEntity
  8
0
  6
CONTINUOUS
 62
     7
100
AcDbVertex
100
AcDb2dVertex
 10
8.0878624224
 20
7.4846465148
 30
0.0
  0
VERTEX
  5
60A
330
28C
100
AcDbEntity
  8
0
  6
CONTINUOUS
 62
     7
100
AcDbVertex
100
AcDb2dVertex
 10
8.0767233318
 20
7.4690892618
 30
0.0
  0
VERTEX
  5
60B
330
28C
100
AcDbEntity
  8
0
  6
CONTINUOUS
 62
     7
100
AcDbVertex
100
AcDb2dVertex
 10
8.0665392045
 20
7.4527004845
 30
0.0
  0
SEQEND
  5
60C
330
28C
100
AcDbEntity
  8
0
  6
CONTINUOUS
 62
     7
  0
LINE
  5
28D
330
1F
100
AcDbEntity
  8
0
  6
CONTINUOUS
 62
     7
100
AcDbLine
 10
7.6002384728
 20
6.4461428051
 30
0.0
 11
7.6243047396
 21
6.4322451286
 31
0.0
  0
LINE
  5
28E
330
1F
100
AcDbEntity
  8
0
  6
CONTINUOUS
 62
     7
100
AcDbLine
 10
7.7072396573
 20
7.83251375
 30
0.0
 11
7.7072396573
 21
7.8126230308
 31
0.0
  0
ARC
  5
28F
330
1F
100
AcDbEntity
  8
0
  6
CONTINUOUS
 62
     8
100
AcDbCircle
 10
8.1496467109
 20
7.0300371975
 30
0.0
 40
0.1833677810909068
100
AcDbArc
 50
242.8225660839
 51
281.1773669144
  0
POLYLINE
  5
290
330
1F
100
AcDbEntity
  8
0
  6
CONTINUOUS
 62
     8
100
AcDb2dPolyline
 66
     1
 10
0.0
 20
0.0
 30
0.0
  0
VERTEX
  5
60D
330
290
100
AcDbEntity
  8
0
  6
CONTINUOUS
 62
     8
100
AcDbVertex
100
AcDb2dVertex
 10
8.2590588777
 20
6.9404701889
 30
0.0
  0
VERTEX
  5
60E
330
290
100
AcDbEntity
  8
0
  6
CONTINUOUS
 62
     8
100
AcDbVertex
100
AcDb2dVertex
 10
8.2549890789
 20
6.9456915306
 30
0.0
  0
VERTEX
  5
60F
330
290
100
AcDbEntity
  8
0
  6
CONTINUOUS
 62
     8
100
AcDbVertex
100
AcDb2dVertex
 10
8.2473518096
 20
6.9532346111
 30
0.0
  0
VERTEX
  5
610
330
290
100
AcDbEntity
  8
0
  6
CONTINUOUS
 62
     8
100
AcDbVertex
100
AcDb2dVertex
 10
8.2381063461
 20
6.9601519653
 30
0.0
  0
VERTEX
  5
611
330
290
100
AcDbEntity
  8
0
  6
CONTINUOUS
 62
     8
100
AcDbVertex
100
AcDb2dVertex
 10
8.2274044988
 20
6.9663300103
 30
0.0
  0
VERTEX
  5
612
330
290
100
AcDbEntity
  8
0
  6
CONTINUOUS
 62
     8
100
AcDbVertex
100
AcDb2dVertex
 10
8.2154219916
 20
6.9716673027
 30
0.0
  0
VERTEX
  5
613
330
290
100
AcDbEntity
  8
0
  6
CONTINUOUS
 62
     8
100
AcDbVertex
100
AcDb2dVertex
 10
8.2023555771
 20
6.9760762044
 30
0.0
  0
VERTEX
  5
614
330
290
100
AcDbEntity
  8
0
  6
CONTINUOUS
 62
     8
100
AcDbVertex
100
AcDb2dVertex
 10
8.1884198052
 20
6.9794843214
 30
0.0
  0
VERTEX
  5
615
330
290
100
AcDbEntity
  8
0
  6
CONTINUOUS
 62
     8
100
AcDbVertex
100
AcDb2dVertex
 10
8.1738435012
 20
6.9818356924
 30
0.0
  0
VERTEX
  5
616
330
290
100
AcDbEntity
  8
0
  6
CONTINUOUS
 62
     8
100
AcDbVertex
100
AcDb2dVertex
 10
8.1588660074
 20
6.9830917081
 30
0.0
  0
VERTEX
  5
617
330
290
100
AcDbEntity
  8
0
  6
CONTINUOUS
 62
     8
100
AcDbVertex
100
AcDb2dVertex
 10
8.1437332538
 20
6.9832317446
 30
0.0
  0
VERTEX
  5
618
330
290
100
AcDbEntity
  8
0
  6
CONTINUOUS
 62
     8
100
AcDbVertex
100
AcDb2dVertex
 10
8.12869372
 20
6.9822535026
 30
0.0
  0
VERTEX
  5
619
330
290
100
AcDbEntity
  8
0
  6
CONTINUOUS
 62
     8
100
AcDbVertex
100
AcDb2dVertex
 10
8.1139943546
 20
6.9801730447
 30
0.0
  0
VERTEX
  5
61A
330
290
100
AcDbEntity
  8
0
  6
CONTINUOUS
 62
     8
100
AcDbVertex
100
AcDb2dVertex
 10
8.0998765208
 20
6.9770245321
 30
0.0
  0
VERTEX
  5
61B
330
290
100
AcDbEntity
  8
0
  6
CONTINUOUS
 62
     8
100
AcDbVertex
100
AcDb2dVertex
 10
8.086572033
 20
6.9728596632
 30
0.0
  0
VERTEX
  5
61C
330
290
100
AcDbEntity
  8
0
  6
CONTINUOUS
 62
     8
100
AcDbVertex
100
AcDb2dVertex
 10
8.0742993505
 20
6.9677468251
 30
0.0
  0
VERTEX
  5
61D
330
290
100
AcDbEntity
  8
0
  6
CONTINUOUS
 62
     8
100
AcDbVertex
100
AcDb2dVertex
 10
8.0632599906
 20
6.9617699704
 30
0.0
  0
VERTEX
  5
61E
330
290
100
AcDbEntity
  8
0
  6
CONTINUOUS
 62
     8
100
AcDbVertex
100
AcDb2dVertex
 10
8.053635219
 20
6.9550272389
 30
0.0
  0
VERTEX
  5
61F
330
290
100
AcDbEntity
  8
0
  6
CONTINUOUS
 62
     8
100
AcDbVertex
100
AcDb2dVertex
 10
8.0455830744
 20
6.9476293461
 30
0.0
  0
VERTEX
  5
620
330
290
100
AcDbEntity
  8
0
  6
CONTINUOUS
 62
     8
100
AcDbVertex
100
AcDb2dVertex
 10
8.0392357727
 20
6.9396977652
 30
0.0
  0
VERTEX
  5
621
330
290
100
AcDbEntity
  8
0
  6
CONTINUOUS
 62
     8
100
AcDbVertex
100
AcDb2dVertex
 10
8.0346975365
 20
6.9313627325
 30
0.0
  0
VERTEX
  5
622
330
290
100
AcDbEntity
  8
0
  6
CONTINUOUS
 62
     8
100
AcDbVertex
100
AcDb2dVertex
 10
8.0320428834
 20
6.922761109
 30
0.0
  0
VERTEX
  5
623
330
290
100
AcDbEntity
  8
0
  6
CONTINUOUS
 62
     8
100
AcDbVertex
100
AcDb2dVertex
 10
8.0313154027
 20
6.9140341331
 30
0.0
  0
VERTEX
  5
624
330
290
100
AcDbEntity
  8
0
  6
CONTINUOUS
 62
     8
100
AcDbVertex
100
AcDb2dVertex
 10
8.0325270398
 20
6.9053251016
 30
0.0
  0
VERTEX
  5
625
330
290
100
AcDbEntity
  8
0
  6
CONTINUOUS
 62
     8
100
AcDbVertex
100
AcDb2dVertex
 10
8.0356578995
 20
6.8967770164
 30
0.0
  0
VERTEX
  5
626
330
290
100
AcDbEntity
  8
0
  6
CONTINUOUS
 62
     8
100
AcDbVertex
100
AcDb2dVertex
 10
8.0406565733
 20
6.888530237
 30
0.0
  0
VERTEX
  5
627
330
290
100
AcDbEntity
  8
0
  6
CONTINUOUS
 62
     8
100
AcDbVertex
100
AcDb2dVertex
 10
8.0474409829
 20
6.8807201752
 30
0.0
  0
VERTEX
  5
628
330
290
100
AcDbEntity
  8
0
  6
CONTINUOUS
 62
     8
100
AcDbVertex
100
AcDb2dVertex
 10
8.0558997287
 20
6.873475072
 30
0.0
  0
VERTEX
  5
629
330
290
100
AcDbEntity
  8
0
  6
CONTINUOUS
 62
     8
100
AcDbVertex
100
AcDb2dVertex
 10
8.0658939182
 20
6.8669138918
 30
0.0
  0
VERTEX
  5
62A
330
290
100
AcDbEntity
  8
0
  6
CONTINUOUS
 62
     8
100
AcDbVertex
100
AcDb2dVertex
 10
8.0658939182
 20
6.8669138918
 30
0.0
  0
SEQEND
  5
62B
330
290
100
AcDbEntity
  8
0
  6
CONTINUOUS
 62
     8
  0
ARC
  5
291
330
1F
100
AcDbEntity
  8
0
  6
CONTINUOUS
 62
     8
100
AcDbCircle
 10
8.0785466417
 20
6.9045102175
 30
0.0
 40
0.0671836655078833
100
AcDbArc
 50
184.981451908
 51
246.7019021255
  0
ARC
  5
292
330
1F
100
AcDbEntity
  8
0
  6
CONTINUOUS
 62
     8
100
AcDbCircle
 10
8.1441724267
 20
7.0142807395
 30
0.0
 40
0.1946907214187557
100
AcDbArc
 50
241.7343016435
 51
269.6322305056
  0
ARC
  5
293
330
1F
100
AcDbEntity
  8
0
  6
CONTINUOUS
 62
     8
100
AcDbCircle
 10
7.4693704133
 20
7.3033345521
 30
0.0
 40
0.0782797767954674
100
AcDbArc
 50
171.7183657025
 51
219.9579902741
  0
ARC
  5
294
330
1F
100
AcDbEntity
  8
0
  6
CONTINUOUS
 62
     8
100
AcDbCircle
 10
8.1191535794
 20
7.6805637603
 30
0.0
 40
0.2005961763067649
100
AcDbArc
 50
30.8497660371
 51
57.8476681808
  0
ARC
  5
295
330
1F
100
AcDbEntity
  8
0
  6
CONTINUOUS
 62
     8
100
AcDbCircle
 10
8.1847681838
 20
7.7908735137
 30
0.0
 40
0.0723543754617912
100
AcDbArc
 50
55.3508241871
 51
109.5960118971
  0
LINE
  5
296
330
1F
100
AcDbEntity
  8
0
  6
CONTINUOUS
 62
     8
100
AcDbLine
 10
8.1043682744
 20
7.4308622273
 30
0.0
 11
8.0665392045
 21
7.4527004845
 31
0.0
  0
LINE
  5
297
330
1F
100
AcDbEntity
  8
0
  6
CONTINUOUS
 62
     8
100
AcDbLine
 10
7.6380722862
 20
6.6232029324
 30
0.0
 11
7.6002384728
 21
6.645043928
 31
0.0
  0
LINE
  5
298
330
1F
100
AcDbEntity
  8
0
  6
CONTINUOUS
 62
     8
100
AcDbLine
 10
7.6243045612
 20
6.432249748
 30
0.0
 11
7.6002384728
 21
6.4461428051
 31
0.0
  0
ENDSEC
  0
SECTION
  2
OBJECTS
  0
DICTIONARY
  5
C
330
0
100
AcDbDictionary
  3
ACAD_GROUP
350
D
  3
ACAD_LAYOUT
350
1A
  3
ACAD_MLEADERSTYLE
350
29B
  3
ACAD_MLINESTYLE
350
17
  3
ACAD_PLOTSETTINGS
350
19
  3
ACAD_SCALELIST
350
6F
  3
ACAD_VISUALSTYLE
350
2A
  3
ACDBVARIABLEDICTIONARY
350
299
1001
ACAD
1000
TREAT_AS_HARD
1070
     0
  0
DICTIONARY
  5
D
102
{ACAD_REACTORS
330
C
102
}
330
C
100
AcDbDictionary
1001
ACAD
1000
TREAT_AS_HARD
1070
     0
  0
DICTIONARY
  5
1A
102
{ACAD_REACTORS
330
C
102
}
330
C
100
AcDbDictionary
1001
ACAD
1000
TREAT_AS_HARD
1070
     0
  0
DICTIONARY
  5
29B
102
{ACAD_REACTORS
330
C
102
}
330
C
100
AcDbDictionary
1001
ACAD
1000
TREAT_AS_HARD
1070
     0
  0
DICTIONARY
  5
17
102
{ACAD_REACTORS
330
C
102
}
330
C
100
AcDbDictionary
  3
STANDARD
350
18
1001
ACAD
1000
TREAT_AS_HARD
1070
     0
  0
DICTIONARY
  5
19
102
{ACAD_REACTORS
330
C
102
}
330
C
100
AcDbDictionary
1001
ACAD
1000
TREAT_AS_HARD
1070
     0
  0
DICTIONARY
  5
6F
102
{ACAD_REACTORS
330
C
102
}
330
C
100
AcDbDictionary
  3
A0
350
70
  3
A1
350
71
  3
A2
350
72
  3
A3
350
73
  3
A4
350
74
  3
A5
350
75
  3
A6
350
76
  3
A7
350
77
  3
A8
350
78
  3
A9
350
79
  3
B0
350
7A
  3
B1
350
7B
  3
B2
350
7C
  3
B3
350
7D
  3
B4
350
7E
  3
B5
350
7F
  3
B6
350
80
  3
B7
350
81
  3
B8
350
82
  3
B9
350
83
  3
C0
350
84
  3
C1
350
85
  3
C2
350
86
  3
C3
350
87
  3
C4
350
88
  3
C5
350
89
  3
C6
350
8A
  3
C7
350
8B
  3
C8
350
8C
  3
C9
350
8D
  3
D0
350
8E
  3
D1
350
8F
  3
D2
350
90
1001
ACAD
1000
TREAT_AS_HARD
1070
     0
  0
DICTIONARY
  5
2A
102
{ACAD_REACTORS
330
C
102
}
330
C
100
AcDbDictionary
  3
2DWIREFRAME
350
2F
  3
3D_HIDDEN
350
31
  3
3DWIREFRAME
350
30
  3
BASIC
350
32
  3
BRIGHTEN
350
36
  3
COLORCHANGE
350
3A
  3
CONCEPTUAL
350
34
  3
DIM
350
35
  3
FACEPATTERN
350
39
  3
FLAT
350
2B
  3
FLATWITHEDGES
350
2C
  3
GOURAUD
350
2D
  3
GOURAUDWITHEDGES
350
2E
  3
LINEPATTERN
350
38
  3
REALISTIC
350
33
  3
THICKEN
350
37
1001
ACAD
1000
TREAT_AS_HARD
1070
     0
  0
DICTIONARY
  5
299
102
{ACAD_REACTORS
330
C
102
}
330
C
100
AcDbDictionary
  3
CANNOSCALE
350
29C
  3
DIMASSOC
350
29D
  3
HIDETEXT
350
29E
1001
ACAD
1000
TREAT_AS_HARD
1070
     0
  0
MLINESTYLE
  5
18
102
{ACAD_REACTORS
330
17
102
}
330
17
100
AcDbMlineStyle
  2
Standard
 70
     0
  3

 62
   256
 51
90.0
 52
90.0
 71
     2
 49
0.5
 62
   256
  6
BYLAYER
 49
-0.5
 62
   256
  6
BYLAYER
  0
ACAD_PROXY_OBJECT
  5
70
102
{ACAD_REACTORS
330
6F
102
}
330
6F
100
AcDbZombieObject
 90
      499
 91
      502
 93
       41
310
903313A31580
  0
ACAD_PROXY_OBJECT
  5
71
102
{ACAD_REACTORS
330
6F
102
}
330
6F
100
AcDbZombieObject
 90
      499
 91
      502
 93
      105
310
903313A324000000000000004000
  0
ACAD_PROXY_OBJECT
  5
72
102
{ACAD_REACTORS
330
6F
102
}
330
6F
100
AcDbZombieObject
 90
      499
 91
      502
 93
      105
310
903313A344000000000000104000
  0
ACAD_PROXY_OBJECT
  5
73
102
{ACAD_REACTORS
330
6F
102
}
330
6F
100
AcDbZombieObject
 90
      499
 91
      502
 93
      105
310
903313A354000000000000144000
  0
ACAD_PROXY_OBJECT
  5
74
102
{ACAD_REACTORS
330
6F
102
}
330
6F
100
AcDbZombieObject
 90
      499
 91
      502
 93
      105
310
903313A384000000000000204000
  0
ACAD_PROXY_OBJECT
  5
75
102
{ACAD_REACTORS
330
6F
102
}
330
6F
100
AcDbZombieObject
 90
      499
 91
      502
 93
      113
310
904313A31304000000000000244000
  0
ACAD_PROXY_OBJECT
  5
76
102
{ACAD_REACTORS
330
6F
102
}
330
6F
100
AcDbZombieObject
 90
      499
 91
      502
 93
      113
310
904313A31364000000000000304000
  0
ACAD_PROXY_OBJECT
  5
77
102
{ACAD_REACTORS
330
6F
102
}
330
6F
100
AcDbZombieObject
 90
      499
 91
      502
 93
      113
310
904313A32304000000000000344000
  0
ACAD_PROXY_OBJECT
  5
78
102
{ACAD_REACTORS
330
6F
102
}
330
6F
100
AcDbZombieObject
 90
      499
 91
      502
 93
      113
310
904313A333040000000000003E4000
  0
ACAD_PROXY_OBJECT
  5
79
102
{ACAD_REACTORS
330
6F
102
}
330
6F
100
AcDbZombieObject
 90
      499
 91
      502
 93
      113
310
904313A34304000000000000444000
  0
ACAD_PROXY_OBJECT
  5
7A
102
{ACAD_REACTORS
330
6F
102
}
330
6F
100
AcDbZombieObject
 90
      499
 91
      502
 93
      113
310
904313A35304000000000000494000
  0
ACAD_PROXY_OBJECT
  5
7B
102
{ACAD_REACTORS
330
6F
102
}
330
6F
100
AcDbZombieObject
 90
      499
 91
      502
 93
      121
310
905313A3130304000000000000594000
  0
ACAD_PROXY_OBJECT
  5
7C
102
{ACAD_REACTORS
330
6F
102
}
330
6F
100
AcDbZombieObject
 90
      499
 91
      502
 93
      105
310
903323A310000000000000010100
  0
ACAD_PROXY_OBJECT
  5
7D
102
{ACAD_REACTORS
330
6F
102
}
330
6F
100
AcDbZombieObject
 90
      499
 91
      502
 93
      105
310
903343A310000000000000410100
  0
ACAD_PROXY_OBJECT
  5
7E
102
{ACAD_REACTORS
330
6F
102
}
330
6F
100
AcDbZombieObject
 90
      499
 91
      502
 93
      105
310
903383A310000000000000810100
  0
ACAD_PROXY_OBJECT
  5
7F
102
{ACAD_REACTORS
330
6F
102
}
330
6F
100
AcDbZombieObject
 90
      499
 91
      502
 93
      113
310
90431303A310000000000000910100
  0
ACAD_PROXY_OBJECT
  5
80
102
{ACAD_REACTORS
330
6F
102
}
330
6F
100
AcDbZombieObject
 90
      499
 91
      502
 93
      121
310
9053130303A310000000000001650100
  0
ACAD_PROXY_OBJECT
  5
81
102
{ACAD_REACTORS
330
6F
102
}
330
6F
100
AcDbZombieObject
 90
      499
 91
      502
 93
      257
310
90E312F31323822203D2031272D3022000000000000200FC000000000000284000
  0
ACAD_PROXY_OBJECT
  5
82
102
{ACAD_REACTORS
330
6F
102
}
330
6F
100
AcDbZombieObject
 90
      499
 91
      502
 93
      249
310
90D312F363422203D2031272D3022000000000000240FC000000000000284000
  0
ACAD_PROXY_OBJECT
  5
83
102
{ACAD_REACTORS
330
6F
102
}
330
6F
100
AcDbZombieObject
 90
      499
 91
      502
 93
      249
310
90D312F333222203D2031272D3022000000000000280FC000000000000284000
  0
ACAD_PROXY_OBJECT
  5
84
102
{ACAD_REACTORS
330
6F
102
}
330
6F
100
AcDbZombieObject
 90
      499
 91
      502
 93
      249
310
90D312F313622203D2031272D30220000000000002C0FC000000000000284000
  0
ACAD_PROXY_OBJECT
  5
85
102
{ACAD_REACTORS
330
6F
102
}
330
6F
100
AcDbZombieObject
 90
      499
 91
      502
 93
      249
310
90D332F333222203D2031272D30220000000000002E0FC000000000000284000
  0
ACAD_PROXY_OBJECT
  5
86
102
{ACAD_REACTORS
330
6F
102
}
330
6F
100
AcDbZombieObject
 90
      499
 91
      502
 93
      241
310
90C312F3822203D2031272D3022000000000000300FC000000000000284000
  0
ACAD_PROXY_OBJECT
  5
87
102
{ACAD_REACTORS
330
6F
102
}
330
6F
100
AcDbZombieObject
 90
      499
 91
      502
 93
      249
310
90D332F313622203D2031272D3022000000000000320FC000000000000284000
  0
ACAD_PROXY_OBJECT
  5
88
102
{ACAD_REACTORS
330
6F
102
}
330
6F
100
AcDbZombieObject
 90
      499
 91
      502
 93
      241
310
90C312F3422203D2031272D3022000000000000340FC000000000000284000
  0
ACAD_PROXY_OBJECT
  5
89
102
{ACAD_REACTORS
330
6F
102
}
330
6F
100
AcDbZombieObject
 90
      499
 91
      502
 93
      241
310
90C332F3822203D2031272D3022000000000000360FC000000000000284000
  0
ACAD_PROXY_OBJECT
  5
8A
102
{ACAD_REACTORS
330
6F
102
}
330
6F
100
AcDbZombieObject
 90
      499
 91
      502
 93
      241
310
90C312F3222203D2031272D3022000000000000380FC000000000000284000
  0
ACAD_PROXY_OBJECT
  5
8B
102
{ACAD_REACTORS
330
6F
102
}
330
6F
100
AcDbZombieObject
 90
      499
 91
      502
 93
      241
310
90C332F3422203D2031272D30220000000000003A0FC000000000000284000
  0
ACAD_PROXY_OBJECT
  5
8C
102
{ACAD_REACTORS
330
6F
102
}
330
6F
100
AcDbZombieObject
 90
      499
 91
      502
 93
      161
310
90A3122203D2031272D30224000000000000284000
  0
ACAD_PROXY_OBJECT
  5
8D
102
{ACAD_REACTORS
330
6F
102
}
330
6F
100
AcDbZombieObject
 90
      499
 91
      502
 93
      257
310
90E312D312F3222203D2031272D30220000000000003E0FC000000000000284000
  0
ACAD_PROXY_OBJECT
  5
8E
102
{ACAD_REACTORS
330
6F
102
}
330
6F
100
AcDbZombieObject
 90
      499
 91
      502
 93
      225
310
90A3322203D2031272D302200000000000002100000000000000284000
  0
ACAD_PROXY_OBJECT
  5
8F
102
{ACAD_REACTORS
330
6F
102
}
330
6F
100
AcDbZombieObject
 90
      499
 91
      502
 93
      225
310
90A3622203D2031272D302200000000000006100000000000000284000
  0
ACAD_PROXY_OBJECT
  5
90
102
{ACAD_REACTORS
330
6F
102
}
330
6F
100
AcDbZombieObject
 90
      499
 91
      502
 93
      249
310
90D31272D3022203D2031272D30220000000000000A100000000000000284000
  0
ACAD_PROXY_OBJECT
  5
2F
102
{ACAD_REACTORS
330
2A
102
}
330
2A
100
AcDbZombieObject
 90
      499
 91
      501
 93
      436
310
42CC9915DA5C99599C985B595049028333333333333E3BF0000000000000FB0107901411070040501600405405064090741402480A0340
1001
ACAD
1000
AcDbSavedByObjectVersion
1070
     0
  0
ACAD_PROXY_OBJECT
  5
31
102
{ACAD_REACTORS
330
2A
102
}
330
2A
100
AcDbZombieObject
 90
      499
 91
      501
 93
      500
310
424CD108121A5919195B90640502408333333333333E3BF0000000000000FB01079024090700405020000000000001110200405405064090740C02480A0340
1001
ACAD
1000
AcDbSavedByObjectVersion
1070
     0
  0
ACAD_PROXY_OBJECT
  5
30
102
{ACAD_REACTORS
330
2A
102
}
330
2A
100
AcDbZombieObject
 90
      499
 91
      501
 93
      436
310
42CCD915DA5C99599C985B595059028333333333333E3BF0000000000000FB0107901411070040501600405405064090741402480A0340
1001
ACAD
1000
AcDbSavedByObjectVersion
1070
     0
  0
ACAD_PROXY_OBJECT
  5
32
102
{ACAD_REACTORS
330
2A
102
}
330
2A
100
AcDbZombieObject
 90
      499
 91
      501
 93
      388
310
4150985CDA58D07406404333333333333E3BF0000000000000FB0107A41107004050150841D405064090741402480A0350
1001
ACAD
1000
AcDbSavedByObjectVersion
1070
     0
  0
ACAD_PROXY_OBJECT
  5
36
102
{ACAD_REACTORS
330
2A
102
}
330
2A
100
AcDbZombieObject
 90
      499
 91
      501
 93
      428
310
42109C9A59DA1D195B90C409028333333333333E3BF0000000000000FB010790141107004050150841D405064090741402480A029950
1001
ACAD
1000
AcDbSavedByObjectVersion
1070
     0
  0
ACAD_PROXY_OBJECT
  5
3A
102
{ACAD_REACTORS
330
2A
102
}
330
2A
100
AcDbZombieObject
 90
      499
 91
      501
 93
      452
310
42D0DBDB1BDC90DA185B99D95104090240C333333333333E3BF0000000000000FB0108901411070040501508421405064090741402480A0350
1001
ACAD
1000
AcDbSavedByObjectVersion
1070
     0
  0
ACAD_PROXY_OBJECT
  5
34
102
{ACAD_REACTORS
330
2A
102
}
330
2A
100
AcDbZombieObject
 90
      499
 91
      501
 93
      500
310
4290DBDB98D95C1D1D585B10940D028333333333333E3BF0000000000000FB0107902409070040501000000000000111010841D405064090740C02480A0340
1001
ACAD
1000
AcDbSavedByObjectVersion
1070
     0
  0
ACAD_PROXY_OBJECT
  5
35
102
{ACAD_REACTORS
330
2A
102
}
330
2A
100
AcDbZombieObject
 90
      499
 91
      501
 93
      412
310
40D11A5B50B409028333333333333E3BF0000000000000FB010790141107004050150841D405064090741402480A02677FFFFFD0
1001
ACAD
1000
AcDbSavedByObjectVersion
1070
     0
  0
ACAD_PROXY_OBJECT
  5
39
102
{ACAD_REACTORS
330
2A
102
}
330
2A
100
AcDbZombieObject
 90
      499
 91
      501
 93
      444
310
42D19858D95C185D1D195C9B90F409028333333333333E3BF0000000000000FB010790141107004050150841D405064090741402480A0350
1001
ACAD
1000
AcDbSavedByObjectVersion
1070
     0
  0
ACAD_PROXY_OBJECT
  5
2B
102
{ACAD_REACTORS
330
2A
102
}
330
2A
100
AcDbZombieObject
 90
      499
 91
      501
 93
      388
310
41119B185D240901404333333333333E3BF0000000000000F9010740A41107004050150841D405064090741402480A1B50
1001
ACAD
1000
AcDbSavedByObjectVersion
1070
     0
  0
ACAD_PROXY_OBJECT
  5
2C
102
{ACAD_REACTORS
330
2A
102
}
330
2A
100
AcDbZombieObject
 90
      499
 91
      501
 93
      476
310
43519B185D15DA5D1A115919D95CD0140901404333333333333E3BF0000000000000F9010740901411070040501600405405064090741402480A1B50
1001
ACAD
1000
AcDbSavedByObjectVersion
1070
     0
  0
ACAD_PROXY_OBJECT
  5
2D
102
{ACAD_REACTORS
330
2A
102
}
330
2A
100
AcDbZombieObject
 90
      499
 91
      501
 93
      412
310
41D1DBDD5C985D5910240902404333333333333E3BF0000000000000F9010740A411070040501641D405064090741402480A1B50
1001
ACAD
1000
AcDbSavedByObjectVersion
1070
     0
  0
ACAD_PROXY_OBJECT
  5
2E
102
{ACAD_REACTORS
330
2A
102
}
330
2A
100
AcDbZombieObject
 90
      499
 91
      501
 93
      500
310
4411DBDD5C985D5915DA5D1A115919D95CD0340902404333333333333E3BF0000000000000F9010740901411070040501600405405064090741402480A1B50
1001
ACAD
1000
AcDbSavedByObjectVersion
1070
     0
  0
ACAD_PROXY_OBJECT
  5
38
102
{ACAD_REACTORS
330
2A
102
}
330
2A
100
AcDbZombieObject
 90
      499
 91
      501
 93
      444
310
42D31A5B995C185D1D195C9B90E409028333333333333E3BF0000000000000FB010790141107004050750841D405064090741402483A0350
1001
ACAD
1000
AcDbSavedByObjectVersion
1070
     0
  0
ACAD_PROXY_OBJECT
  5
33
102
{ACAD_REACTORS
330
2A
102
}
330
2A
100
AcDbZombieObject
 90
      499
 91
      501
 93
      420
310
425499585B1A5CDD1A58D08409028333333333333E3BF0000000000000FB01079019070040501508421405064090741402480A1B40
1001
ACAD
1000
AcDbSavedByObjectVersion
1070
     0
  0
ACAD_PROXY_OBJECT
  5
37
102
{ACAD_REACTORS
330
2A
102
}
330
2A
100
AcDbZombieObject
 90
      499
 91
      501
 93
      412
310
41D51A1A58DAD95B90D409028333333333333E3BF0000000000000FB010790141107004050150C41D405064090741402480A0350
1001
ACAD
1000
AcDbSavedByObjectVersion
1070
     0
  0
DICTIONARYVAR
  5
29C
102
{ACAD_REACTORS
330
299
102
}
330
299
100
DictionaryVariables
280
     0
  1
1:1
  0
DICTIONARYVAR
  5
29D
102
{ACAD_REACTORS
330
299
102
}
330
299
100
DictionaryVariables
280
     0
  1
2
  0
DICTIONARYVAR
  5
29E
102
{ACAD_REACTORS
330
299
102
}
330
299
100
DictionaryVariables
280
     0
  1
1
  0
ENDSEC
  0
EOF
