  0
SECTION
  2
HEADER
  9
$ACADVER
  1
AC1012
  9
$DWGCODEPAGE
  3
ansi_1252
  9
$INSBASE
 10
0.0
 20
0.0
 30
0.0
  9
$EXTMIN
 10
0.0
 20
0.0
 30
0.0
  9
$EXTMAX
 10
11.0
 20
8.5
 30
0.0
  9
$LIMMIN
 10
0.0
 20
0.0
  9
$LIMMAX
 10
11.0
 20
8.5
  9
$ORTHOMODE
 70
     0
  9
$REGENMODE
 70
     1
  9
$FILLMODE
 70
     1
  9
$QTEXTMODE
 70
     0
  9
$MIRRTEXT
 70
     1
  9
$DRAGMODE
 70
     2
  9
$LTSCALE
 40
1.0
  9
$OSMODE
 70
    37
  9
$ATTMODE
 70
     1
  9
$TEXTSIZE
 40
0.125
  9
$TRACEWID
 40
0.05
  9
$TEXTSTYLE
  7
STANDARD
  9
$CLAYER
  8
0
  9
$CELTYPE
  6
BYLAYER
  9
$CECOLOR
 62
   256
  9
$CELTSCALE
 40
1.0
  9
$DELOBJ
 70
     1
  9
$DISPSILH
 70
     0
  9
$DIMSCALE
 40
1.0
  9
$DIMASZ
 40
0.13
  9
$DIMEXO
 40
0.05
  9
$DIMDLI
 40
0.38
  9
$DIMRND
 40
0.0
  9
$DIMDLE
 40
0.0
  9
$DIMEXE
 40
0.125
  9
$DIMTP
 40
0.0
  9
$DIMTM
 40
0.0
  9
$DIMTXT
 40
0.125
  9
$DIMCEN
 40
0.09
  9
$DIMTSZ
 40
0.0
  9
$DIMTOL
 70
     0
  9
$DIMLIM
 70
     0
  9
$DIMTIH
 70
     1
  9
$DIMTOH
 70
     1
  9
$DIMSE1
 70
     0
  9
$DIMSE2
 70
     0
  9
$DIMTAD
 70
     0
  9
$DIMZIN
 70
     0
  9
$DIMBLK
  1

  9
$DIMASO
 70
     1
  9
$DIMSHO
 70
     1
  9
$DIMPOST
  1

  9
$DIMAPOST
  1

  9
$DIMALT
 70
     0
  9
$DIMALTD
 70
     2
  9
$DIMALTF
 40
25.4
  9
$DIMLFAC
 40
1.0
  9
$DIMTOFL
 70
     0
  9
$DIMTVP
 40
0.0
  9
$DIMTIX
 70
     0
  9
$DIMSOXD
 70
     0
  9
$DIMSAH
 70
     0
  9
$DIMBLK1
  1

  9
$DIMBLK2
  1

  9
$DIMSTYLE
  2
STANDARD
  9
$DIMCLRD
 70
     0
  9
$DIMCLRE
 70
     0
  9
$DIMCLRT
 70
     0
  9
$DIMTFAC
 40
1.0
  9
$DIMGAP
 40
0.06
  9
$DIMJUST
 70
     0
  9
$DIMSD1
 70
     0
  9
$DIMSD2
 70
     0
  9
$DIMTOLJ
 70
     1
  9
$DIMTZIN
 70
     0
  9
$DIMALTZ
 70
     0
  9
$DIMALTTZ
 70
     0
  9
$DIMFIT
 70
     3
  9
$DIMUPT
 70
     0
  9
$DIMUNIT
 70
     2
  9
$DIMDEC
 70
     3
  9
$DIMTDEC
 70
     3
  9
$DIMALTU
 70
     2
  9
$DIMALTTD
 70
     2
  9
$DIMTXSTY
  7
STANDARD
  9
$DIMAUNIT
 70
     0
  9
$LUNITS
 70
     2
  9
$LUPREC
 70
     2
  9
$SKETCHINC
 40
0.1
  9
$FILLETRAD
 40
0.5
  9
$AUNITS
 70
     0
  9
$AUPREC
 70
     2
  9
$MENU
  1
.
  9
$ELEVATION
 40
0.0
  9
$PELEVATION
 40
0.0
  9
$THICKNESS
 40
0.0
  9
$LIMCHECK
 70
     0
  9
$CHAMFERA
 40
0.5
  9
$CHAMFERB
 40
0.5
  9
$CHAMFERC
 40
1.0
  9
$CHAMFERD
 40
0.0
  9
$SKPOLY
 70
     0
  9
$TDCREATE
 40
2455784.020279282
  9
$TDUPDATE
 40
2455784.020279294
  9
$TDINDWG
 40
0.0000000116
  9
$TDUSRTIMER
 40
0.0000000116
  9
$USRTIMER
 70
     1
  9
$ANGBASE
 50
0.0
  9
$ANGDIR
 70
     0
  9
$PDMODE
 70
     0
  9
$PDSIZE
 40
-1.0
  9
$PLINEWID
 40
0.0
  9
$COORDS
 70
     1
  9
$SPLFRAME
 70
     0
  9
$SPLINETYPE
 70
     6
  9
$SPLINESEGS
 70
     8
  9
$ATTDIA
 70
     0
  9
$ATTREQ
 70
     1
  9
$HANDLING
 70
     1
  9
$HANDSEED
  5
605
  9
$SURFTAB1
 70
     6
  9
$SURFTAB2
 70
     6
  9
$SURFTYPE
 70
     6
  9
$SURFU
 70
     6
  9
$SURFV
 70
     6
  9
$UCSNAME
  2

  9
$UCSORG
 10
0.0
 20
0.0
 30
0.0
  9
$UCSXDIR
 10
1.0
 20
0.0
 30
0.0
  9
$UCSYDIR
 10
0.0
 20
1.0
 30
0.0
  9
$PUCSNAME
  2

  9
$PUCSORG
 10
0.0
 20
0.0
 30
0.0
  9
$PUCSXDIR
 10
1.0
 20
0.0
 30
0.0
  9
$PUCSYDIR
 10
0.0
 20
1.0
 30
0.0
  9
$USERI1
 70
     0
  9
$USERI2
 70
     0
  9
$USERI3
 70
     0
  9
$USERI4
 70
     0
  9
$USERI5
 70
     0
  9
$USERR1
 40
0.0
  9
$USERR2
 40
0.0
  9
$USERR3
 40
0.0
  9
$USERR4
 40
0.0
  9
$USERR5
 40
0.0
  9
$WORLDVIEW
 70
     1
  9
$SHADEDGE
 70
     3
  9
$SHADEDIF
 70
    70
  9
$TILEMODE
 70
     1
  9
$MAXACTVP
 70
    64
  9
$PINSBASE
 10
0.0
 20
0.0
 30
0.0
  9
$PLIMCHECK
 70
     0
  9
$PEXTMIN
 10
1.0000000000E+20
 20
1.0000000000E+20
 30
1.0000000000E+20
  9
$PEXTMAX
 10
-1.0000000000E+20
 20
-1.0000000000E+20
 30
-1.0000000000E+20
  9
$PLIMMIN
 10
0.0
 20
0.0
  9
$PLIMMAX
 10
12.0
 20
9.0
  9
$UNITMODE
 70
     0
  9
$VISRETAIN
 70
     1
  9
$PLINEGEN
 70
     0
  9
$PSLTSCALE
 70
     1
  9
$TREEDEPTH
 70
  3020
  9
$PICKSTYLE
 70
     1
  9
$CMLSTYLE
  2
STANDARD
  9
$CMLJUST
 70
     0
  9
$CMLSCALE
 40
1.0
  9
$SAVEIMAGES
 70
     1
  0
ENDSEC
  0
SECTION
  2
CLASSES
  0
CLASS
  1
ACDBDICTIONARYWDFLT
  2
AcDbDictionaryWithDefault
  3
ObjectDBX Classes
 90
    32768
280
     0
281
     0
  0
CLASS
  1
VISUALSTYLE
  2
AcDbVisualStyle
  3
ObjectDBX Classes
 90
     4095
280
     0
281
     0
  0
CLASS
  1
SCALE
  2
AcDbScale
  3
ObjectDBX Classes
 90
     1153
280
     0
281
     0
  0
CLASS
  1
DICTIONARYVAR
  2
AcDbDictionaryVar
  3
ObjectDBX Classes
 90
        0
280
     0
281
     0
  0
CLASS
  1
XRECORD
  2
AcDbXrecord
  3
AutoCAD 2000
 90
    32768
280
     0
281
     0
  0
CLASS
  1
LWPOLYLINE
  2
AcDbPolyline
  3
AutoCAD 2000
 90
    32768
280
     0
281
     1
  0
CLASS
  1
HATCH
  2
AcDbHatch
  3
AutoCAD 2000
 90
    32768
280
     0
281
     1
  0
CLASS
  1
ACDBPLACEHOLDER
  2
AcDbPlaceHolder
  3
ObjectDBX Classes
 90
        0
280
     0
281
     0
  0
CLASS
  1
LAYOUT
  2
AcDbLayout
  3
ObjectDBX Classes
 90
        0
280
     0
281
     0
  0
ENDSEC
  0
SECTION
  2
TABLES
  0
TABLE
  2
VPORT
  5
8
330
0
100
AcDbSymbolTable
 70
     1
  0
VPORT
  5
29
330
8
100
AcDbSymbolTableRecord
100
AcDbViewportTableRecord
  2
*ACTIVE
 70
     0
 10
0.0
 20
0.0
 11
1.0
 21
1.0
 12
5.5
 22
4.25
 13
0.0
 23
0.0
 14
0.5
 24
0.5
 15
0.5
 25
0.5
 16
0.0
 26
0.0
 36
1.0
 17
0.0
 27
0.0
 37
0.0
 40
8.5
 41
1.2941176471
 42
50.0
 43
0.0
 44
0.0
 50
0.0
 51
0.0
 71
     0
 72
  2000
 73
     1
 74
     3
 75
     0
 76
     0
 77
     0
 78
     0
  0
ENDTAB
  0
TABLE
  2
LTYPE
  5
5
330
0
100
AcDbSymbolTable
 70
     6
  0
LTYPE
  5
14
330
5
100
AcDbSymbolTableRecord
100
AcDbLinetypeTableRecord
  2
BYBLOCK
 70
     0
  3

 72
    65
 73
     0
 40
0.0
  0
LTYPE
  5
15
330
5
100
AcDbSymbolTableRecord
100
AcDbLinetypeTableRecord
  2
BYLAYER
 70
     0
  3

 72
    65
 73
     0
 40
0.0
  0
LTYPE
  5
16
330
5
100
AcDbSymbolTableRecord
100
AcDbLinetypeTableRecord
  2
CONTINUOUS
 70
     0
  3
Solid line
 72
    65
 73
     0
 40
0.0
  0
LTYPE
  5
3B
330
5
100
AcDbSymbolTableRecord
100
AcDbLinetypeTableRecord
  2
HIDDEN
 70
     0
  3
Hidden __ __ __ __ __ __ __ __ __ __ __ __ __ __
 72
    65
 73
     2
 40
0.075
 49
0.05
 74
     0
 49
-0.025
 74
     0
  0
LTYPE
  5
3C
330
5
100
AcDbSymbolTableRecord
100
AcDbLinetypeTableRecord
  2
PHANTOM
 70
     0
  3
Phantom ______  __  __  ______  __  __  ______
 72
    65
 73
     6
 40
0.5
 49
0.25
 74
     0
 49
-0.05
 74
     0
 49
0.05
 74
     0
 49
-0.05
 74
     0
 49
0.05
 74
     0
 49
-0.05
 74
     0
  0
LTYPE
  5
3D
330
5
100
AcDbSymbolTableRecord
100
AcDbLinetypeTableRecord
  2
CENTER
 70
     0
  3
Center ____ _ ____ _ ____ _ ____ _ ____ _ ____
 72
    65
 73
     4
 40
0.4
 49
0.25
 74
     0
 49
-0.05
 74
     0
 49
0.05
 74
     0
 49
-0.05
 74
     0
  0
LTYPE
  5
3E
330
5
100
AcDbSymbolTableRecord
100
AcDbLinetypeTableRecord
  2
CENTERX2
 70
     0
  3
Center (2x) ________  __  ________  __  _____
 72
    65
 73
     4
 40
0.8
 49
0.5
 74
     0
 49
-0.1
 74
     0
 49
0.1
 74
     0
 49
-0.1
 74
     0
  0
LTYPE
  5
3F
330
5
100
AcDbSymbolTableRecord
100
AcDbLinetypeTableRecord
  2
DOT2
 70
     0
  3
Dot (.5x) ........................................
 72
    65
 73
     2
 40
0.025
 49
0.0
 74
     0
 49
-0.025
 74
     0
  0
ENDTAB
  0
TABLE
  2
LAYER
  5
2
330
0
100
AcDbSymbolTable
 70
     2
  0
LAYER
  5
10
330
2
100
AcDbSymbolTableRecord
100
AcDbLayerTableRecord
  2
0
 70
     0
 62
     7
  6
CONTINUOUS
  0
LAYER
  5
40
330
2
100
AcDbSymbolTableRecord
100
AcDbLayerTableRecord
  2
FORMAT
 70
     0
 62
     7
  6
CONTINUOUS
  0
ENDTAB
  0
TABLE
  2
STYLE
  5
3
330
0
100
AcDbSymbolTable
 70
     4
  0
STYLE
  5
11
330
3
100
AcDbSymbolTableRecord
100
AcDbTextStyleTableRecord
  2
STANDARD
 70
     0
 40
0.0
 41
1.0
 50
0.0
 71
     0
 42
0.2
  3
txt
  4

  0
STYLE
  5
6E
330
3
100
AcDbSymbolTableRecord
100
AcDbTextStyleTableRecord
  2
SLDTEXTSTYLE0
 70
     0
 40
0.0
 41
0.75
 50
0.0
 71
     0
 42
0.2
  3
TXT
  4

  0
STYLE
  5
93
330
3
100
AcDbSymbolTableRecord
100
AcDbTextStyleTableRecord
  2
SLDTEXTSTYLE1
 70
     0
 40
0.0
 41
0.6875
 50
0.0
 71
     0
 42
0.2
  3
TXT
  4

  0
STYLE
  5
99
330
3
100
AcDbSymbolTableRecord
100
AcDbTextStyleTableRecord
  2
SLDTEXTSTYLE2
 70
     0
 40
0.0
 41
0.6944444444
 50
0.0
 71
     0
 42
0.2
  3
TXT
  4

  0
ENDTAB
  0
TABLE
  2
VIEW
  5
6
330
0
100
AcDbSymbolTable
 70
     0
  0
ENDTAB
  0
TABLE
  2
UCS
  5
7
330
0
100
AcDbSymbolTable
 70
     0
  0
ENDTAB
  0
TABLE
  2
APPID
  5
9
330
0
100
AcDbSymbolTable
 70
     1
  0
APPID
  5
12
330
9
100
AcDbSymbolTableRecord
100
AcDbRegAppTableRecord
  2
ACAD
 70
     0
  0
ENDTAB
  0
TABLE
  2
DIMSTYLE
  5
A
330
0
100
AcDbSymbolTable
 70
     1
  0
DIMSTYLE
105
27
330
A
100
AcDbSymbolTableRecord
100
AcDbDimStyleTableRecord
  2
STANDARD
 70
     0
  3

  4

  5

  6

  7

 40
1.0
 41
0.18
 42
0.0625
 43
0.38
 44
0.18
 45
0.0
 46
0.0
 47
0.0
 48
0.0
140
0.18
141
0.09
142
0.0
143
25.4
144
1.0
145
0.0
146
1.0
147
0.09
 71
     0
 72
     0
 73
     1
 74
     1
 75
     0
 76
     0
 77
     0
 78
     0
170
     0
171
     2
172
     0
173
     0
174
     0
175
     0
176
     0
177
     0
178
     0
270
     2
271
     4
272
     4
273
     2
274
     2
340
11
275
     0
280
     0
281
     0
282
     0
283
     1
284
     0
285
     0
286
     0
287
     3
288
     0
  0
ENDTAB
  0
TABLE
  2
BLOCK_RECORD
  5
1
330
0
100
AcDbSymbolTable
 70
     4
  0
BLOCK_RECORD
  5
1F
330
1
100
AcDbSymbolTableRecord
100
AcDbBlockTableRecord
  2
*MODEL_SPACE
  0
BLOCK_RECORD
  5
1B
330
1
100
AcDbSymbolTableRecord
100
AcDbBlockTableRecord
  2
*PAPER_SPACE
  0
BLOCK_RECORD
  5
A8
330
1
100
AcDbSymbolTableRecord
100
AcDbBlockTableRecord
  2
SW_NOTE_0
  0
BLOCK_RECORD
  5
AE
330
1
100
AcDbSymbolTableRecord
100
AcDbBlockTableRecord
  2
SW_NOTE_1
  0
BLOCK_RECORD
  5
C2
330
1
100
AcDbSymbolTableRecord
100
AcDbBlockTableRecord
  2
SW_NOTE_2
  0
ENDTAB
  0
ENDSEC
  0
SECTION
  2
BLOCKS
  0
BLOCK
  5
20
330
1F
100
AcDbEntity
  8
0
100
AcDbBlockBegin
  2
*MODEL_SPACE
 70
     0
 10
0.0
 20
0.0
 30
0.0
  3
*MODEL_SPACE
  1

  0
ENDBLK
  5
21
330
1F
100
AcDbEntity
  8
0
100
AcDbBlockEnd
  0
BLOCK
  5
1C
330
1B
100
AcDbEntity
 67
     1
  8
0
100
AcDbBlockBegin
  2
*PAPER_SPACE
 70
     0
 10
0.0
 20
0.0
 30
0.0
  3
*PAPER_SPACE
  1

  0
ENDBLK
  5
1D
330
1B
100
AcDbEntity
 67
     1
  8
0
100
AcDbBlockEnd
  0
BLOCK
  5
A9
330
A8
100
AcDbEntity
  8
0
100
AcDbBlockBegin
  2
SW_NOTE_0
 70
     0
 10
0.0
 20
0.0
 30
0.0
  3
SW_NOTE_0
  1

  0
MTEXT
  5
AB
330
A8
100
AcDbEntity
  8
0
  6
CONTINUOUS
 62
     0
100
AcDbMText
 10
0.0
 20
0.0773440644
 30
0.0
 40
0.06
 41
0.0
 71
     1
 72
     1
  1
INTERPRET GEOMETRIC
  7
SLDTEXTSTYLE0
  0
MTEXT
  5
AC
330
A8
100
AcDbEntity
  8
0
  6
CONTINUOUS
 62
     0
100
AcDbMText
 10
0.0
 20
-0.0220260102
 30
0.0
 40
0.06
 41
0.0
 71
     1
 72
     1
  1
TOLERANCING PER:
  7
SLDTEXTSTYLE0
  0
ENDBLK
  5
AA
330
A8
100
AcDbEntity
  8
0
100
AcDbBlockEnd
  0
BLOCK
  5
AF
330
AE
100
AcDbEntity
  8
0
100
AcDbBlockBegin
  2
SW_NOTE_1
 70
     0
 10
0.0
 20
0.0
 30
0.0
  3
SW_NOTE_1
  1

  0
MTEXT
  5
B1
330
AE
100
AcDbEntity
  8
0
  6
CONTINUOUS
 62
     0
100
AcDbMText
 10
0.0
 20
0.0837894031
 30
0.0
 40
0.065
 41
0.0
 71
     1
 72
     1
  1
DIMENSIONS ARE IN INCHES
  7
SLDTEXTSTYLE0
  0
MTEXT
  5
B2
330
AE
100
AcDbEntity
  8
0
  6
CONTINUOUS
 62
     0
100
AcDbMText
 10
0.0
 20
-0.0205806729
 30
0.0
 40
0.065
 41
0.0
 71
     1
 72
     1
  1
TOLERANCES:
  7
SLDTEXTSTYLE0
  0
MTEXT
  5
B3
330
AE
100
AcDbEntity
  8
0
  6
CONTINUOUS
 62
     0
100
AcDbMText
 10
0.0
 20
-0.1249507489
 30
0.0
 40
0.065
 41
0.0
 71
     1
 72
     1
  1
FRACTIONAL
  7
SLDTEXTSTYLE0
  0
MTEXT
  5
B4
330
AE
100
AcDbEntity
  8
0
  6
CONTINUOUS
 62
     0
100
AcDbMText
 10
0.5175850875
 20
-0.1249507489
 30
0.0
 40
0.065
 41
0.0
 71
     1
 72
     1
  1
%%p
  7
SLDTEXTSTYLE0
  0
MTEXT
  5
B5
330
AE
100
AcDbEntity
  8
0
  6
CONTINUOUS
 62
     0
100
AcDbMText
 10
0.0
 20
-0.2293208248
 30
0.0
 40
0.065
 41
0.0
 71
     1
 72
     1
  1
ANGULAR: MACH
  7
SLDTEXTSTYLE0
  0
MTEXT
  5
B6
330
AE
100
AcDbEntity
  8
0
  6
CONTINUOUS
 62
     0
100
AcDbMText
 10
0.7233732769
 20
-0.2293208248
 30
0.0
 40
0.065
 41
0.0
 71
     1
 72
     1
  1
%%p
  7
SLDTEXTSTYLE0
  0
MTEXT
  5
B7
330
AE
100
AcDbEntity
  8
0
  6
CONTINUOUS
 62
     0
100
AcDbMText
 10
0.7852857683
 20
-0.2293208248
 30
0.0
 40
0.065
 41
0.0
 71
     1
 72
     1
  1
     BEND 
  7
SLDTEXTSTYLE0
  0
MTEXT
  5
B8
330
AE
100
AcDbEntity
  8
0
  6
CONTINUOUS
 62
     0
100
AcDbMText
 10
1.14784136
 20
-0.2293208248
 30
0.0
 40
0.065
 41
0.0
 71
     1
 72
     1
  1
%%p
  7
SLDTEXTSTYLE0
  0
MTEXT
  5
B9
330
AE
100
AcDbEntity
  8
0
  6
CONTINUOUS
 62
     0
100
AcDbMText
 10
0.0
 20
-0.3336909008
 30
0.0
 40
0.065
 41
0.0
 71
     1
 72
     1
  1
TWO PLACE DECIMAL    
  7
SLDTEXTSTYLE0
  0
MTEXT
  5
BA
330
AE
100
AcDbEntity
  8
0
  6
CONTINUOUS
 62
     0
100
AcDbMText
 10
0.9794349188
 20
-0.3336909008
 30
0.0
 40
0.065
 41
0.0
 71
     1
 72
     1
  1
%%p
  7
SLDTEXTSTYLE0
  0
MTEXT
  5
BB
330
AE
100
AcDbEntity
  8
0
  6
CONTINUOUS
 62
     0
100
AcDbMText
 10
0.0
 20
-0.4380609768
 30
0.0
 40
0.065
 41
0.0
 71
     1
 72
     1
  1
THREE PLACE DECIMAL  
  7
SLDTEXTSTYLE0
  0
MTEXT
  5
BC
330
AE
100
AcDbEntity
  8
0
  6
CONTINUOUS
 62
     0
100
AcDbMText
 10
0.9738038639
 20
-0.4380609768
 30
0.0
 40
0.065
 41
0.0
 71
     1
 72
     1
  1
%%p
  7
SLDTEXTSTYLE0
  0
ENDBLK
  5
B0
330
AE
100
AcDbEntity
  8
0
100
AcDbBlockEnd
  0
BLOCK
  5
C3
330
C2
100
AcDbEntity
  8
0
100
AcDbBlockBegin
  2
SW_NOTE_2
 70
     0
 10
0.0
 20
0.0
 30
0.0
  3
SW_NOTE_2
  1

  0
MTEXT
  5
C5
330
C2
100
AcDbEntity
  8
0
  6
CONTINUOUS
 62
     0
100
AcDbMText
 10
0.0
 20
0.0773440644
 30
0.0
 40
0.06
 41
0.0
 71
     1
 72
     1
  1
THE INFORMATION CONTAINED IN THIS
  7
SLDTEXTSTYLE0
  0
MTEXT
  5
C6
330
C2
100
AcDbEntity
  8
0
  6
CONTINUOUS
 62
     0
100
AcDbMText
 10
0.0
 20
-0.0220260102
 30
0.0
 40
0.06
 41
0.0
 71
     1
 72
     1
  1
DRAWING IS THE SOLE PROPERTY OF
  7
SLDTEXTSTYLE0
  0
MTEXT
  5
C7
330
C2
100
AcDbEntity
  8
0
  6
CONTINUOUS
 62
     0
100
AcDbMText
 10
0.0
 20
-0.1213960848
 30
0.0
 40
0.06
 41
0.0
 71
     1
 72
     1
  1
Candy Controls.  ANY 
  7
SLDTEXTSTYLE0
  0
MTEXT
  5
C8
330
C2
100
AcDbEntity
  8
0
  6
CONTINUOUS
 62
     0
100
AcDbMText
 10
0.0
 20
-0.2207661593
 30
0.0
 40
0.06
 41
0.0
 71
     1
 72
     1
  1
REPRODUCTION IN PART OR AS A WHOLE
  7
SLDTEXTSTYLE0
  0
MTEXT
  5
C9
330
C2
100
AcDbEntity
  8
0
  6
CONTINUOUS
 62
     0
100
AcDbMText
 10
0.0
 20
-0.3201362339
 30
0.0
 40
0.06
 41
0.0
 71
     1
 72
     1
  1
WITHOUT THE WRITTEN PERMISSION OF
  7
SLDTEXTSTYLE0
  0
MTEXT
  5
CA
330
C2
100
AcDbEntity
  8
0
  6
CONTINUOUS
 62
     0
100
AcDbMText
 10
0.0
 20
-0.4195063085
 30
0.0
 40
0.06
 41
0.0
 71
     1
 72
     1
  1
Candy Controls IS 
  7
SLDTEXTSTYLE0
  0
MTEXT
  5
CB
330
C2
100
AcDbEntity
  8
0
  6
CONTINUOUS
 62
     0
100
AcDbMText
 10
0.0
 20
-0.518876383
 30
0.0
 40
0.06
 41
0.0
 71
     1
 72
     1
  1
PROHIBITED.
  7
SLDTEXTSTYLE0
  0
ENDBLK
  5
C4
330
C2
100
AcDbEntity
  8
0
100
AcDbBlockEnd
  0
ENDSEC
  0
SECTION
  2
ENTITIES
  0
LINE
  5
41
330
1F
100
AcDbEntity
  8
0
  6
CONTINUOUS
 62
     7
100
AcDbLine
 10
0.329927
 20
8.1920731707
 30
0.0
 11
10.629927
 21
8.1920731707
 31
0.0
  0
LINE
  5
42
330
1F
100
AcDbEntity
  8
0
  6
CONTINUOUS
 62
     7
100
AcDbLine
 10
0.329927
 20
8.1920731707
 30
0.0
 11
0.329927
 21
0.3920731707
 31
0.0
  0
LINE
  5
43
330
1F
100
AcDbEntity
  8
0
  6
CONTINUOUS
 62
     7
100
AcDbLine
 10
10.629927
 20
0.3920731707
 30
0.0
 11
0.329927
 21
0.3920731707
 31
0.0
  0
LINE
  5
44
330
1F
100
AcDbEntity
  8
0
  6
CONTINUOUS
 62
     7
100
AcDbLine
 10
10.629927
 20
0.3920731707
 30
0.0
 11
10.629927
 21
8.1920731707
 31
0.0
  0
LINE
  5
45
330
1F
100
AcDbEntity
  8
0
  6
CONTINUOUS
 62
     7
100
AcDbLine
 10
4.7981841288
 20
0.3920731707
 30
0.0
 11
4.7981841288
 21
2.3564211366
 31
0.0
  0
LINE
  5
46
330
1F
100
AcDbEntity
  8
0
  6
CONTINUOUS
 62
     7
100
AcDbLine
 10
2.8210345579
 20
2.3564211366
 30
0.0
 11
10.629927
 21
2.3564211366
 31
0.0
  0
LINE
  5
47
330
1F
100
AcDbEntity
  8
0
  6
CONTINUOUS
 62
     7
100
AcDbLine
 10
6.1796352514
 20
2.3564211366
 30
0.0
 11
6.1796352514
 21
0.3920731707
 31
0.0
  0
LINE
  5
48
330
1F
100
AcDbEntity
  8
0
  6
CONTINUOUS
 62
     7
100
AcDbLine
 10
7.8712070044
 20
2.3564211366
 30
0.0
 11
7.8712070044
 21
0.3920731707
 31
0.0
  0
LINE
  5
49
330
1F
100
AcDbEntity
  8
0
  6
CONTINUOUS
 62
     7
100
AcDbLine
 10
7.8712070044
 20
0.6049590101
 30
0.0
 11
10.629927
 21
0.6049590101
 31
0.0
  0
LINE
  5
4A
330
1F
100
AcDbEntity
  8
0
  6
CONTINUOUS
 62
     7
100
AcDbLine
 10
7.8712070044
 20
1.1119362457
 30
0.0
 11
10.629927
 21
1.1119362457
 31
0.0
  0
LINE
  5
4B
330
1F
100
AcDbEntity
  8
0
  6
CONTINUOUS
 62
     7
100
AcDbLine
 10
7.8712070044
 20
1.9892703708
 30
0.0
 11
10.629927
 21
1.9892703708
 31
0.0
  0
LINE
  5
4C
330
1F
100
AcDbEntity
  8
0
  6
CONTINUOUS
 62
     7
100
AcDbLine
 10
8.266751752
 20
1.1119362457
 30
0.0
 11
8.266751752
 21
0.6049590101
 31
0.0
  0
LINE
  5
4D
330
1F
100
AcDbEntity
  8
0
  6
CONTINUOUS
 62
     7
100
AcDbLine
 10
8.6943435176
 20
0.6049590101
 30
0.0
 11
8.6943435176
 21
0.3920731707
 31
0.0
  0
LINE
  5
4E
330
1F
100
AcDbEntity
  8
0
  6
CONTINUOUS
 62
     7
100
AcDbLine
 10
10.0579917045
 20
1.1119362457
 30
0.0
 11
10.0579917045
 21
0.6049590101
 31
0.0
  0
LINE
  5
4F
330
1F
100
AcDbEntity
  8
0
  6
CONTINUOUS
 62
     7
100
AcDbLine
 10
9.6662556631
 20
0.6049590101
 30
0.0
 11
9.6662556631
 21
0.3920731707
 31
0.0
  0
LINE
  5
50
330
1F
100
AcDbEntity
  8
0
  6
CONTINUOUS
 62
     7
100
AcDbLine
 10
2.8210345579
 20
0.5883479999
 30
0.0
 11
6.1796352514
 21
0.5883479999
 31
0.0
  0
LINE
  5
51
330
1F
100
AcDbEntity
  8
0
  6
CONTINUOUS
 62
     7
100
AcDbLine
 10
6.1796352514
 20
1.7939211366
 30
0.0
 11
7.8712070044
 21
1.7939211366
 31
0.0
  0
LINE
  5
52
330
1F
100
AcDbEntity
  8
0
  6
CONTINUOUS
 62
     7
100
AcDbLine
 10
6.1796352514
 20
1.9814211366
 30
0.0
 11
7.8712070044
 21
1.9814211366
 31
0.0
  0
LINE
  5
53
330
1F
100
AcDbEntity
  8
0
  6
CONTINUOUS
 62
     7
100
AcDbLine
 10
6.1796352514
 20
2.1689211366
 30
0.0
 11
7.8712070044
 21
2.1689211366
 31
0.0
  0
LINE
  5
54
330
1F
100
AcDbEntity
  8
0
  6
CONTINUOUS
 62
     7
100
AcDbLine
 10
7.8712070044
 20
1.2314211366
 30
0.0
 11
6.1796352514
 21
1.2314211366
 31
0.0
  0
LINE
  5
55
330
1F
100
AcDbEntity
  8
0
  6
CONTINUOUS
 62
     7
100
AcDbLine
 10
7.3921580388
 20
2.3564211366
 30
0.0
 11
7.3921580388
 21
1.2314211366
 31
0.0
  0
LINE
  5
56
330
1F
100
AcDbEntity
  8
0
  6
CONTINUOUS
 62
     7
100
AcDbLine
 10
6.9236308342
 20
2.3564211366
 30
0.0
 11
6.9236308342
 21
1.2314211366
 31
0.0
  0
LINE
  5
57
330
1F
100
AcDbEntity
  8
0
  6
CONTINUOUS
 62
     7
100
AcDbLine
 10
4.7981841288
 20
0.8557965305
 30
0.0
 11
6.1796352514
 21
0.8557965305
 31
0.0
  0
LINE
  5
58
330
1F
100
AcDbEntity
  8
0
  6
CONTINUOUS
 62
     7
100
AcDbLine
 10
4.7981841288
 20
1.1257965305
 30
0.0
 11
6.1796352514
 21
1.1257965305
 31
0.0
  0
LINE
  5
59
330
1F
100
AcDbEntity
  8
0
  6
CONTINUOUS
 62
     7
100
AcDbLine
 10
2.8210345579
 20
0.3920731707
 30
0.0
 11
2.8210345579
 21
2.3564211366
 31
0.0
  0
LINE
  5
5A
330
1F
100
AcDbEntity
  8
0
  6
CONTINUOUS
 62
     7
100
AcDbLine
 10
2.8210345579
 20
1.1064211366
 30
0.0
 11
4.7981841288
 21
1.1064211366
 31
0.0
  0
LINE
  5
5B
330
1F
100
AcDbEntity
  8
0
  6
CONTINUOUS
 62
     7
100
AcDbLine
 10
2.8210345579
 20
1.3564211366
 30
0.0
 11
4.7981841288
 21
1.3564211366
 31
0.0
  0
LINE
  5
5C
330
1F
100
AcDbEntity
  8
0
  6
CONTINUOUS
 62
     7
100
AcDbLine
 10
2.8210345579
 20
1.6064211366
 30
0.0
 11
4.7981841288
 21
1.6064211366
 31
0.0
  0
LINE
  5
5D
330
1F
100
AcDbEntity
  8
0
  6
CONTINUOUS
 62
     7
100
AcDbLine
 10
2.8210345579
 20
1.8564211366
 30
0.0
 11
4.7981841288
 21
1.8564211366
 31
0.0
  0
LINE
  5
5E
330
1F
100
AcDbEntity
  8
0
  6
CONTINUOUS
 62
     7
100
AcDbLine
 10
3.8190146875
 20
2.3564211366
 30
0.0
 11
3.8190146875
 21
0.5883479999
 31
0.0
  0
LINE
  5
5F
330
1F
100
AcDbEntity
  8
0
  6
CONTINUOUS
 62
     7
100
AcDbLine
 10
6.1796352514
 20
2.2020813496
 30
0.0
 11
4.7981841288
 21
2.2020813496
 31
0.0
  0
LINE
  5
60
330
1F
100
AcDbEntity
  8
0
  6
CONTINUOUS
 62
     7
100
AcDbLine
 10
7.8712070044
 20
1.6064211366
 30
0.0
 11
6.1796352514
 21
1.6064211366
 31
0.0
  0
LINE
  5
61
330
1F
100
AcDbEntity
  8
0
  6
CONTINUOUS
 62
     7
100
AcDbLine
 10
7.8712070044
 20
1.4189211366
 30
0.0
 11
6.1796352514
 21
1.4189211366
 31
0.0
  0
LINE
  5
62
330
1F
100
AcDbEntity
  8
0
  6
CONTINUOUS
 62
     7
100
AcDbLine
 10
2.8210345579
 20
2.1064211366
 30
0.0
 11
4.7981841288
 21
2.1064211366
 31
0.0
  0
LINE
  5
63
330
1F
100
AcDbEntity
  8
0
  6
CONTINUOUS
 62
     7
100
AcDbLine
 10
4.7981841288
 20
1.3957965305
 30
0.0
 11
6.1796352514
 21
1.3957965305
 31
0.0
  0
LINE
  5
64
330
1F
100
AcDbEntity
  8
0
  6
CONTINUOUS
 62
     7
100
AcDbLine
 10
2.8210345579
 20
0.8564211366
 30
0.0
 11
4.7981841288
 21
0.8564211366
 31
0.0
  0
LINE
  5
65
330
1F
100
AcDbEntity
  8
0
  6
CONTINUOUS
 62
     7
100
AcDbLine
 10
1.1838252943
 20
0.3920731707
 30
0.0
 11
1.1838252943
 21
1.3064211366
 31
0.0
  0
LINE
  5
66
330
1F
100
AcDbEntity
  8
0
  6
CONTINUOUS
 62
     7
100
AcDbLine
 10
2.8210345579
 20
1.3064211366
 30
0.0
 11
1.1838252943
 21
1.3064211366
 31
0.0
  0
LINE
  5
67
330
1F
100
AcDbEntity
  8
0
  6
CONTINUOUS
 62
     7
100
AcDbLine
 10
8.660927
 20
0.3920731707
 30
0.0
 11
8.660927
 21
0.3072739649
 31
0.0
  0
LINE
  5
68
330
1F
100
AcDbEntity
  8
0
  6
CONTINUOUS
 62
     7
100
AcDbLine
 10
6.692177
 20
0.3920731707
 30
0.0
 11
6.692177
 21
0.3072739649
 31
0.0
  0
LINE
  5
69
330
1F
100
AcDbEntity
  8
0
  6
CONTINUOUS
 62
     7
100
AcDbLine
 10
4.723427
 20
0.3920731707
 30
0.0
 11
4.723427
 21
0.3072739649
 31
0.0
  0
LINE
  5
6A
330
1F
100
AcDbEntity
  8
0
  6
CONTINUOUS
 62
     7
100
AcDbLine
 10
2.754677
 20
0.3920731707
 30
0.0
 11
2.754677
 21
0.3072739649
 31
0.0
  0
LINE
  5
6B
330
1F
100
AcDbEntity
  8
0
  6
CONTINUOUS
 62
     7
100
AcDbLine
 10
2.754677
 20
0.3920731707
 30
0.0
 11
2.7672319738
 21
0.3575
 31
0.0
  0
LINE
  5
6C
330
1F
100
AcDbEntity
  8
0
  6
CONTINUOUS
 62
     7
100
AcDbLine
 10
2.7672319738
 20
0.3575
 30
0.0
 11
2.7414258825
 21
0.3575
 31
0.0
  0
LINE
  5
6D
330
1F
100
AcDbEntity
  8
0
  6
CONTINUOUS
 62
     7
100
AcDbLine
 10
2.7414258825
 20
0.3575
 30
0.0
 11
2.754677
 21
0.3920731707
 31
0.0
  0
MTEXT
  5
91
330
1F
100
AcDbEntity
  8
0
  6
CONTINUOUS
 62
     7
100
AcDbMText
 10
4.9775846961
 20
0.5178452352
 30
0.0
 40
0.0625
 41
0.0
 71
     1
 72
     1
  1
DO NOT SCALE DRAWING
  7
SLDTEXTSTYLE0
  0
MTEXT
  5
92
330
1F
100
AcDbEntity
  8
0
  6
CONTINUOUS
 62
     7
100
AcDbMText
 10
8.9023405402
 20
0.9417064595
 30
0.0
 40
0.125
 41
0.0
 71
     1
 72
     1
  1
CL4-50
  7
SLDTEXTSTYLE0
  0
MTEXT
  5
94
330
1F
100
AcDbEntity
  8
0
  6
CONTINUOUS
 62
     7
100
AcDbMText
 10
9.7571278483
 20
0.5524239532
 30
0.0
 40
0.1
 41
0.0
 71
     1
 72
     1
  1
SHEET 1 OF 1
  7
SLDTEXTSTYLE1
  0
MTEXT
  5
95
330
1F
100
AcDbEntity
  8
0
  6
CONTINUOUS
 62
     7
100
AcDbMText
 10
4.8448077858
 20
2.3132954224
 30
0.0
 40
0.07
 41
0.0
 71
     1
 72
     1
  1
UNLESS OTHERWISE SPECIFIED:
  7
SLDTEXTSTYLE0
  0
MTEXT
  5
96
330
1F
100
AcDbEntity
  8
0
  6
CONTINUOUS
 62
     7
100
AcDbMText
 10
7.9586139647
 20
0.5520987879
 30
0.0
 40
0.1
 41
0.0
 71
     1
 72
     1
  1
SCALE: 1:1
  7
SLDTEXTSTYLE0
  0
MTEXT
  5
97
330
1F
100
AcDbEntity
  8
0
  6
CONTINUOUS
 62
     7
100
AcDbMText
 10
8.7023691647
 20
0.5486763345
 30
0.0
 40
0.1
 41
0.0
 71
     1
 72
     1
  1
WEIGHT: 
  7
SLDTEXTSTYLE0
  0
MTEXT
  5
98
330
1F
100
AcDbEntity
  8
0
  6
CONTINUOUS
 62
     7
100
AcDbMText
 10
10.2277580983
 20
1.081966299
 30
0.0
 40
0.1
 41
0.0
 71
     1
 72
     1
  1
REV
  7
SLDTEXTSTYLE0
  0
MTEXT
  5
9A
330
1F
100
AcDbEntity
  8
0
  6
CONTINUOUS
 62
     7
100
AcDbMText
 10
8.2984570898
 20
1.0858725293
 30
0.0
 40
0.1
 41
0.0
 71
     1
 72
     1
  1
DWG.  NO.
  7
SLDTEXTSTYLE2
  0
MTEXT
  5
9B
330
1F
100
AcDbEntity
  8
0
  6
CONTINUOUS
 62
     7
100
AcDbMText
 10
7.9598482632
 20
0.9442140768
 30
0.0
 40
0.25
 41
0.0
 71
     1
 72
     1
  1
A
  7
SLDTEXTSTYLE0
  0
MTEXT
  5
9C
330
1F
100
AcDbEntity
  8
0
  6
CONTINUOUS
 62
     7
100
AcDbMText
 10
7.9519581822
 20
1.0872713483
 30
0.0
 40
0.1
 41
0.0
 71
     1
 72
     1
  1
SIZE
  7
SLDTEXTSTYLE0
  0
MTEXT
  5
9D
330
1F
100
AcDbEntity
  8
0
  6
CONTINUOUS
 62
     7
100
AcDbMText
 10
7.9170704177
 20
1.9547881128
 30
0.0
 40
0.1
 41
0.0
 71
     1
 72
     1
  1
TITLE:
  7
SLDTEXTSTYLE0
  0
MTEXT
  5
9E
330
1F
100
AcDbEntity
  8
0
  6
CONTINUOUS
 62
     7
100
AcDbMText
 10
7.0363774929
 20
2.2906161274
 30
0.0
 40
0.065
 41
0.0
 71
     1
 72
     1
  1
NAME
  7
SLDTEXTSTYLE0
  0
MTEXT
  5
9F
330
1F
100
AcDbEntity
  8
0
  6
CONTINUOUS
 62
     7
100
AcDbMText
 10
7.5281510634
 20
2.2888799118
 30
0.0
 40
0.065
 41
0.0
 71
     1
 72
     1
  1
DATE
  7
SLDTEXTSTYLE0
  0
MTEXT
  5
A0
330
1F
100
AcDbEntity
  8
0
  6
CONTINUOUS
 62
     7
100
AcDbMText
 10
6.2277147029
 20
1.1876913145
 30
0.0
 40
0.065
 41
0.0
 71
     1
 72
     1
  1
COMMENTS:
  7
SLDTEXTSTYLE0
  0
MTEXT
  5
A1
330
1F
100
AcDbEntity
  8
0
  6
CONTINUOUS
 62
     7
100
AcDbMText
 10
6.2268411461
 20
1.3536101679
 30
0.0
 40
0.065
 41
0.0
 71
     1
 72
     1
  1
Q.A.
  7
SLDTEXTSTYLE0
  0
MTEXT
  5
A2
330
1F
100
AcDbEntity
  8
0
  6
CONTINUOUS
 62
     7
100
AcDbMText
 10
6.2284654509
 20
1.5395328424
 30
0.0
 40
0.065
 41
0.0
 71
     1
 72
     1
  1
MFG APPR.
  7
SLDTEXTSTYLE0
  0
MTEXT
  5
A3
330
1F
100
AcDbEntity
  8
0
  6
CONTINUOUS
 62
     7
100
AcDbMText
 10
6.2235171344
 20
1.7267501785
 30
0.0
 40
0.065
 41
0.0
 71
     1
 72
     1
  1
ENG APPR.
  7
SLDTEXTSTYLE0
  0
MTEXT
  5
A4
330
1F
100
AcDbEntity
  8
0
  6
CONTINUOUS
 62
     7
100
AcDbMText
 10
6.2264103951
 20
1.9092699088
 30
0.0
 40
0.065
 41
0.0
 71
     1
 72
     1
  1
CHECKED
  7
SLDTEXTSTYLE0
  0
MTEXT
  5
A5
330
1F
100
AcDbEntity
  8
0
  6
CONTINUOUS
 62
     7
100
AcDbMText
 10
6.2242794356
 20
2.1016301232
 30
0.0
 40
0.065
 41
0.0
 71
     1
 72
     1
  1
DRAWN
  7
SLDTEXTSTYLE0
  0
MTEXT
  5
A6
330
1F
100
AcDbEntity
  8
0
  6
CONTINUOUS
 62
     7
100
AcDbMText
 10
4.8208600979
 20
0.834523235
 30
0.0
 40
0.06
 41
0.0
 71
     1
 72
     1
  1
FINISH
  7
SLDTEXTSTYLE0
  0
MTEXT
  5
A7
330
1F
100
AcDbEntity
  8
0
  6
CONTINUOUS
 62
     7
100
AcDbMText
 10
4.8181240648
 20
1.1028217587
 30
0.0
 40
0.06
 41
0.0
 71
     1
 72
     1
  1
MATERIAL
  7
SLDTEXTSTYLE0
  0
INSERT
  5
AD
330
1F
100
AcDbEntity
  8
0
  6
CONTINUOUS
 62
     7
100
AcDbBlockReference
  2
SW_NOTE_0
 10
4.8231926633
 20
1.2646542947
 30
0.0
  0
INSERT
  5
BD
330
1F
100
AcDbEntity
  8
0
  6
CONTINUOUS
 62
     7
100
AcDbBlockReference
  2
SW_NOTE_1
 10
4.8353339353
 20
2.0049168724
 30
0.0
  0
MTEXT
  5
BE
330
1F
100
AcDbEntity
  8
0
  6
CONTINUOUS
 62
     7
100
AcDbMText
 10
3.5531400086
 20
0.5200091997
 30
0.0
 40
0.0625
 41
0.0
 71
     1
 72
     1
  1
APPLICATION
  7
SLDTEXTSTYLE0
  0
MTEXT
  5
BF
330
1F
100
AcDbEntity
  8
0
  6
CONTINUOUS
 62
     7
100
AcDbMText
 10
4.1005607758
 20
0.7502454275
 30
0.0
 40
0.0625
 41
0.0
 71
     1
 72
     1
  1
USED ON
  7
SLDTEXTSTYLE0
  0
MTEXT
  5
C0
330
1F
100
AcDbEntity
  8
0
  6
CONTINUOUS
 62
     7
100
AcDbMText
 10
3.1040019536
 20
0.7492094783
 30
0.0
 40
0.0625
 41
0.0
 71
     1
 72
     1
  1
NEXT ASSY
  7
SLDTEXTSTYLE0
  0
MTEXT
  5
C1
330
1F
100
AcDbEntity
  8
0
  6
CONTINUOUS
 62
     7
100
AcDbMText
 10
1.3712489489
 20
1.2496672684
 30
0.0
 40
0.06
 41
0.0
 71
     1
 72
     1
  1
PROPRIETARY AND CONFIDENTIAL
  7
SLDTEXTSTYLE0
  0
INSERT
  5
CC
330
1F
100
AcDbEntity
  8
0
  6
CONTINUOUS
 62
     7
100
AcDbBlockReference
  2
SW_NOTE_2
 10
1.2226209074
 20
1.0313492921
 30
0.0
  0
MTEXT
  5
CD
330
1F
100
AcDbEntity
  8
0
  6
CONTINUOUS
 62
     7
100
AcDbMText
 10
1.7387909509
 20
0.3105864247
 30
0.0
 40
0.09375
 41
0.0
 71
     1
 72
     1
  1
5
  7
SLDTEXTSTYLE0
  0
MTEXT
  5
CE
330
1F
100
AcDbEntity
  8
0
  6
CONTINUOUS
 62
     7
100
AcDbMText
 10
3.723800327
 20
0.3137237518
 30
0.0
 40
0.09375
 41
0.0
 71
     1
 72
     1
  1
4
  7
SLDTEXTSTYLE0
  0
MTEXT
  5
CF
330
1F
100
AcDbEntity
  8
0
  6
CONTINUOUS
 62
     7
100
AcDbMText
 10
5.6324457277
 20
0.3116191842
 30
0.0
 40
0.09375
 41
0.0
 71
     1
 72
     1
  1
3
  7
SLDTEXTSTYLE0
  0
MTEXT
  5
D0
330
1F
100
AcDbEntity
  8
0
  6
CONTINUOUS
 62
     7
100
AcDbMText
 10
7.6059721724
 20
0.3124391351
 30
0.0
 40
0.09375
 41
0.0
 71
     1
 72
     1
  1
2
  7
SLDTEXTSTYLE0
  0
MTEXT
  5
D1
330
1F
100
AcDbEntity
  8
0
  6
CONTINUOUS
 62
     7
100
AcDbMText
 10
9.6619921328
 20
0.301372012
 30
0.0
 40
0.09375
 41
0.0
 71
     1
 72
     1
  1
1
  7
SLDTEXTSTYLE0
  0
LINE
  5
D2
330
1F
100
AcDbEntity
  8
0
  6
CONTINUOUS
 62
     7
100
AcDbLine
 10
3.8889798815
 20
4.7416100988
 30
0.0
 11
3.8876597254
 21
4.7429302549
 31
0.0
  0
LINE
  5
D3
330
1F
100
AcDbEntity
  8
0
  6
CONTINUOUS
 62
     7
100
AcDbLine
 10
3.5923841349
 20
4.7429302549
 30
0.0
 11
3.5910581668
 21
4.7416042869
 31
0.0
  0
LINE
  5
D4
330
1F
100
AcDbEntity
  8
0
  6
CONTINUOUS
 62
     7
100
AcDbLine
 10
3.4447463396
 20
2.7744263179
 30
0.0
 11
4.0549825601
 21
2.7744263179
 31
0.0
  0
LINE
  5
D5
330
1F
100
AcDbEntity
  8
0
  6
CONTINUOUS
 62
     7
100
AcDbLine
 10
3.5825416152
 20
4.7429302549
 30
0.0
 11
3.4447463396
 21
4.7429302549
 31
0.0
  0
LINE
  5
D6
330
1F
100
AcDbEntity
  8
0
  6
CONTINUOUS
 62
     7
100
AcDbLine
 10
4.0549825601
 20
4.7429302549
 30
0.0
 11
3.8970626534
 21
4.7429302549
 31
0.0
  0
LINE
  5
D7
330
1F
100
AcDbEntity
  8
0
  6
CONTINUOUS
 62
     7
100
AcDbLine
 10
4.0549825601
 20
2.7744263179
 30
0.0
 11
4.0746675994
 21
2.7941113573
 31
0.0
  0
LINE
  5
D8
330
1F
100
AcDbEntity
  8
0
  6
CONTINUOUS
 62
     7
100
AcDbLine
 10
4.0746675994
 20
4.7232452155
 30
0.0
 11
4.0549825601
 21
4.7429302549
 31
0.0
  0
LINE
  5
D9
330
1F
100
AcDbEntity
  8
0
  6
CONTINUOUS
 62
     7
100
AcDbLine
 10
3.4447463396
 20
4.7429302549
 30
0.0
 11
3.4250613002
 21
4.7232452155
 31
0.0
  0
LINE
  5
DA
330
1F
100
AcDbEntity
  8
0
  6
CONTINUOUS
 62
     7
100
AcDbLine
 10
3.4250613002
 20
2.7941113573
 30
0.0
 11
3.4447463396
 21
2.7744263179
 31
0.0
  0
LINE
  5
DB
330
1F
100
AcDbEntity
  8
0
  6
CONTINUOUS
 62
     7
100
AcDbLine
 10
2.8935652372
 20
4.7429302549
 30
0.0
 11
2.5982896467
 21
4.7429302549
 31
0.0
  0
LINE
  5
DC
330
1F
100
AcDbEntity
  8
0
  6
CONTINUOUS
 62
     7
100
AcDbLine
 10
2.5982896467
 20
2.7744263179
 30
0.0
 11
2.8935652372
 21
2.7744263179
 31
0.0
  0
LINE
  5
DD
330
1F
100
AcDbEntity
  8
0
  6
CONTINUOUS
 62
     7
100
AcDbLine
 10
2.5982896467
 20
4.7429302549
 30
0.0
 11
2.5786046073
 21
4.7232452155
 31
0.0
  0
LINE
  5
DE
330
1F
100
AcDbEntity
  8
0
  6
CONTINUOUS
 62
     7
100
AcDbLine
 10
2.5786046073
 20
2.7941113573
 30
0.0
 11
2.5982896467
 21
2.7744263179
 31
0.0
  0
LINE
  5
DF
330
1F
100
AcDbEntity
  8
0
  6
CONTINUOUS
 62
     7
100
AcDbLine
 10
2.9132502766
 20
4.7232452155
 30
0.0
 11
2.8935652372
 21
4.7429302549
 31
0.0
  0
LINE
  5
E0
330
1F
100
AcDbEntity
  8
0
  6
CONTINUOUS
 62
     7
100
AcDbLine
 10
2.8935652372
 20
2.7744263179
 30
0.0
 11
2.9132502766
 21
2.7941113573
 31
0.0
  0
LINE
  5
E1
330
1F
100
AcDbEntity
  8
0
  6
CONTINUOUS
 62
     7
100
AcDbLine
 10
2.932935316
 20
2.7744263179
 30
0.0
 11
3.4053762609
 21
2.7744263179
 31
0.0
  0
LINE
  5
E2
330
1F
100
AcDbEntity
  8
0
  6
CONTINUOUS
 62
     7
100
AcDbLine
 10
3.4053762609
 20
4.7429302549
 30
0.0
 11
2.932935316
 21
4.7429302549
 31
0.0
  0
LINE
  5
E3
330
1F
100
AcDbEntity
  8
0
  6
CONTINUOUS
 62
     7
100
AcDbLine
 10
2.932935316
 20
4.7429302549
 30
0.0
 11
2.9132502766
 21
4.7232452155
 31
0.0
  0
LINE
  5
E4
330
1F
100
AcDbEntity
  8
0
  6
CONTINUOUS
 62
     7
100
AcDbLine
 10
2.9132502766
 20
2.7941113573
 30
0.0
 11
2.932935316
 21
2.7744263179
 31
0.0
  0
LINE
  5
E5
330
1F
100
AcDbEntity
  8
0
  6
CONTINUOUS
 62
     7
100
AcDbLine
 10
3.4053762609
 20
2.7744263179
 30
0.0
 11
3.4250613002
 21
2.7941113573
 31
0.0
  0
LINE
  5
E6
330
1F
100
AcDbEntity
  8
0
  6
CONTINUOUS
 62
     7
100
AcDbLine
 10
3.4250613002
 20
4.7232452155
 30
0.0
 11
3.4053762609
 21
4.7429302549
 31
0.0
  0
LINE
  5
E7
330
1F
100
AcDbEntity
  8
0
  6
CONTINUOUS
 62
     7
100
AcDbLine
 10
3.8141586586
 20
4.7330877352
 30
0.0
 11
3.665250681
 21
4.7330877352
 31
0.0
  0
LINE
  5
E8
330
1F
100
AcDbEntity
  8
0
  6
CONTINUOUS
 62
     7
100
AcDbLine
 10
3.5923841349
 20
4.7429302549
 30
0.0
 11
3.8876597254
 21
4.7429302549
 31
0.0
  0
LINE
  5
E9
330
1F
100
AcDbEntity
  8
0
  6
CONTINUOUS
 62
     7
100
AcDbLine
 10
3.7597069695
 20
4.642534362
 30
0.0
 11
3.7597069695
 21
2.8748222108
 31
0.0
  0
LINE
  5
EA
330
1F
100
AcDbEntity
  8
0
  6
CONTINUOUS
 62
     7
100
AcDbLine
 10
3.4447463396
 20
4.642534362
 30
0.0
 11
3.7597069695
 21
4.642534362
 31
0.0
  0
LINE
  5
EB
330
1F
100
AcDbEntity
  8
0
  6
CONTINUOUS
 62
     7
100
AcDbLine
 10
3.4447463396
 20
4.7429302549
 30
0.0
 11
3.4447463396
 21
4.642534362
 31
0.0
  0
LINE
  5
EC
330
1F
100
AcDbEntity
  8
0
  6
CONTINUOUS
 62
     7
100
AcDbLine
 10
3.4447463396
 20
2.8748222108
 30
0.0
 11
3.4447463396
 21
2.7744263179
 31
0.0
  0
LINE
  5
ED
330
1F
100
AcDbEntity
  8
0
  6
CONTINUOUS
 62
     7
100
AcDbLine
 10
3.7597069695
 20
2.8748222108
 30
0.0
 11
3.4447463396
 21
2.8748222108
 31
0.0
  0
SPLINE
  5
EE
330
1F
100
AcDbEntity
  8
0
  6
CONTINUOUS
 62
     7
100
AcDbSpline
210
0.0
220
0.0
230
1.0
 70
     8
 71
     3
 72
    26
 73
    22
 74
     0
 42
0.00000001
 43
0.00000001
 40
0.0
 40
0.0
 40
0.0
 40
0.0
 40
0.0524645353130425
 40
0.1064623110882147
 40
0.1589235409017653
 40
0.2128838498791815
 40
0.2657561145392889
 40
0.320143764388589
 40
0.3732932956914233
 40
0.4280091769575509
 40
0.4807014421908343
 40
0.5349512464310864
 40
0.587163731750161
 40
0.640878420513585
 40
0.693336484840955
 40
0.7472822353088909
 40
0.800325614296615
 40
0.8549037614342299
 40
0.9079662353457072
 40
0.962600320220032
 40
1.0
 40
1.0
 40
1.0
 40
1.0
 10
3.582541615195576
 20
4.742930254895985
 30
0.0
 10
3.582956331760417
 20
4.742863465600381
 30
0.0
 10
3.583797884700438
 20
4.742727935137308
 30
0.0
 10
3.590563679522653
 20
4.74166605158815
 30
0.0
 10
3.601253700979238
 20
4.740084229701183
 30
0.0
 10
3.615799469342542
 20
4.738114244942343
 30
0.0
 10
3.633983907394327
 20
4.735954393617919
 30
0.0
 10
3.655079447240606
 20
4.733870174782303
 30
0.0
 10
3.678853432500844
 20
4.732069819798062
 30
0.0
 10
3.704158047171341
 20
4.730795706876752
 30
0.0
 10
3.730668652128004
 20
4.730174020433768
 30
0.0
 10
3.757051235477063
 20
4.730280414267957
 30
0.0
 10
3.783096484698664
 20
4.731094523388164
 30
0.0
 10
3.80764852296987
 20
4.732504349460538
 30
0.0
 10
3.830547082210899
 20
4.734378819628214
 30
0.0
 10
3.850832615807917
 20
4.736489008333698
 30
0.0
 10
3.868238106895698
 20
4.738632809400619
 30
0.0
 10
3.881980366189708
 20
4.740544146886283
 30
0.0
 10
3.891642565251593
 20
4.741999991603389
 30
0.0
 10
3.896934017408719
 20
4.742838997509576
 30
0.0
 10
3.897025484146632
 20
4.742854002785903
 30
0.0
 10
3.897062653404256
 20
4.74286010046681
 30
0.0
  0
LINE
  5
EF
330
1F
100
AcDbEntity
  8
0
  6
CONTINUOUS
 62
     7
100
AcDbLine
 10
4.0549825601
 20
2.7744263179
 30
0.0
 11
4.0549825601
 21
4.7429302549
 31
0.0
  0
SPLINE
  5
F0
330
1F
100
AcDbEntity
  8
0
  6
CONTINUOUS
 62
     7
100
AcDbSpline
210
0.0
220
0.0
230
1.0
 70
     8
 71
     3
 72
     8
 73
     4
 74
     0
 42
0.00000001
 43
0.00000001
 40
0.0
 40
0.0
 40
0.0
 40
0.0
 40
0.0007493652071751
 40
0.0007493652071751
 40
0.0007493652071751
 40
0.0007493652071751
 10
3.759706969526285
 20
2.874822210776157
 30
0.0
 10
3.753136341966193
 20
2.882139186117216
 30
0.0
 10
3.746574449189831
 20
2.889464016046888
 30
0.0
 10
3.740021930156206
 20
2.896797212416079
 30
0.0
  0
LINE
  5
F1
330
1F
100
AcDbEntity
  8
0
  6
CONTINUOUS
 62
     7
100
AcDbLine
 10
3.7400219302
 20
2.8967972124
 30
0.0
 11
3.7400219302
 21
4.6205593604
 31
0.0
  0
SPLINE
  5
F2
330
1F
100
AcDbEntity
  8
0
  6
CONTINUOUS
 62
     7
100
AcDbSpline
210
0.0
220
0.0
230
1.0
 70
     8
 71
     3
 72
     8
 73
     4
 74
     0
 42
0.00000001
 43
0.00000001
 40
0.0
 40
0.0
 40
0.0
 40
0.0
 40
0.0007493652071751
 40
0.0007493652071751
 40
0.0007493652071751
 40
0.0007493652071751
 10
3.740021930156206
 20
4.620559360368016
 30
0.0
 10
3.746574449189831
 20
4.627892556737206
 30
0.0
 10
3.753136341966193
 20
4.635217386666878
 30
0.0
 10
3.759706969526285
 20
4.642534362007938
 30
0.0
  0
LINE
  5
F3
330
1F
100
AcDbEntity
  8
0
  6
CONTINUOUS
 62
     7
100
AcDbLine
 10
4.0746675994
 20
4.7232452155
 30
0.0
 11
4.0746675994
 21
2.7941113573
 31
0.0
  0
LINE
  5
F4
330
1F
100
AcDbEntity
  8
0
  6
CONTINUOUS
 62
     7
100
AcDbLine
 10
3.4447463396
 20
4.642534362
 30
0.0
 11
3.4388742554
 21
4.6359791777
 31
0.0
  0
LINE
  5
F5
330
1F
100
AcDbEntity
  8
0
  6
CONTINUOUS
 62
     7
100
AcDbLine
 10
3.4250613002
 20
4.6359791777
 30
0.0
 11
3.4250613002
 21
4.7232452155
 31
0.0
  0
LINE
  5
F6
330
1F
100
AcDbEntity
  8
0
  6
CONTINUOUS
 62
     7
100
AcDbLine
 10
3.4250613002
 20
2.7941113573
 30
0.0
 11
3.4250613002
 21
2.8835720344
 31
0.0
  0
LINE
  5
F7
330
1F
100
AcDbEntity
  8
0
  6
CONTINUOUS
 62
     7
100
AcDbLine
 10
3.4369083142
 20
2.8835720344
 30
0.0
 11
3.4447463396
 21
2.8748222108
 31
0.0
  0
CIRCLE
  5
F8
330
1F
100
AcDbEntity
  8
0
  6
CONTINUOUS
 62
     7
100
AcDbCircle
 10
2.9132502766
 20
3.7586782864
 30
0.0
 40
0.1476377952755898
  0
ARC
  5
F9
330
1F
100
AcDbEntity
  8
0
  6
CONTINUOUS
 62
     7
100
AcDbCircle
 10
2.9132502766
 20
3.7586782864
 30
0.0
 40
0.1574803149606292
100
AcDbArc
 50
90.0
 51
118.1554033719
  0
ARC
  5
FA
330
1F
100
AcDbEntity
  8
0
  6
CONTINUOUS
 62
     7
100
AcDbCircle
 10
2.9132502766
 20
3.7586782864
 30
0.0
 40
0.1574803149606292
100
AcDbArc
 50
241.8445966281
 51
90.0
  0
LINE
  5
FB
330
1F
100
AcDbEntity
  8
0
  6
CONTINUOUS
 62
     7
100
AcDbLine
 10
2.8345101191
 20
3.8041389375
 30
0.0
 11
2.9132502766
 21
3.8495995886
 31
0.0
  0
LINE
  5
FC
330
1F
100
AcDbEntity
  8
0
  6
CONTINUOUS
 62
     7
100
AcDbLine
 10
2.8345101191
 20
3.7132176353
 30
0.0
 11
2.8345101191
 21
3.8041389375
 31
0.0
  0
LINE
  5
FD
330
1F
100
AcDbEntity
  8
0
  6
CONTINUOUS
 62
     7
100
AcDbLine
 10
2.9132502766
 20
3.6677569842
 30
0.0
 11
2.8345101191
 21
3.7132176353
 31
0.0
  0
LINE
  5
FE
330
1F
100
AcDbEntity
  8
0
  6
CONTINUOUS
 62
     7
100
AcDbLine
 10
2.9919904341
 20
3.7132176353
 30
0.0
 11
2.9132502766
 21
3.6677569842
 31
0.0
  0
LINE
  5
FF
330
1F
100
AcDbEntity
  8
0
  6
CONTINUOUS
 62
     7
100
AcDbLine
 10
2.9919904341
 20
3.8041389375
 30
0.0
 11
2.9919904341
 21
3.7132176353
 31
0.0
  0
LINE
  5
100
330
1F
100
AcDbEntity
  8
0
  6
CONTINUOUS
 62
     7
100
AcDbLine
 10
2.9132502766
 20
3.8495995886
 30
0.0
 11
2.9919904341
 21
3.8041389375
 31
0.0
  0
LINE
  5
101
330
1F
100
AcDbEntity
  8
0
  6
CONTINUOUS
 62
     7
100
AcDbLine
 10
2.8935652372
 20
4.1917491525
 30
0.0
 11
2.8935652372
 21
4.7429302549
 31
0.0
  0
LINE
  5
102
330
1F
100
AcDbEntity
  8
0
  6
CONTINUOUS
 62
     7
100
AcDbLine
 10
2.8935652372
 20
4.1917491525
 30
0.0
 11
3.2282109065
 21
4.1917491525
 31
0.0
  0
LINE
  5
103
330
1F
100
AcDbEntity
  8
0
  6
CONTINUOUS
 62
     7
100
AcDbLine
 10
3.2282109065
 20
4.1917491525
 30
0.0
 11
3.2282109065
 21
3.3256074203
 31
0.0
  0
LINE
  5
104
330
1F
100
AcDbEntity
  8
0
  6
CONTINUOUS
 62
     7
100
AcDbLine
 10
3.2282109065
 20
3.3256074203
 30
0.0
 11
2.8935652372
 21
3.3256074203
 31
0.0
  0
LINE
  5
105
330
1F
100
AcDbEntity
  8
0
  6
CONTINUOUS
 62
     7
100
AcDbLine
 10
2.8935652372
 20
2.7744263179
 30
0.0
 11
2.8935652372
 21
3.3256074203
 31
0.0
  0
SPLINE
  5
106
330
1F
100
AcDbEntity
  8
0
  6
CONTINUOUS
 62
     7
100
AcDbSpline
210
0.0
220
0.0
230
1.0
 70
     8
 71
     3
 72
    14
 73
    10
 74
     0
 42
0.00000001
 43
0.00000001
 40
0.0
 40
0.0
 40
0.0
 40
0.0
 40
0.1548715807858974
 40
0.3097486550940762
 40
0.4645603680693496
 40
0.619380073209069
 40
0.7754164149780677
 40
0.9314509975542593
 40
1.0
 40
1.0
 40
1.0
 40
1.0
 10
3.070730591573529
 20
3.758678286392044
 30
0.0
 10
3.070295249068947
 20
3.749887895965393
 30
0.0
 10
3.069424548617548
 20
3.73230680330404
 30
0.0
 10
3.062640416051543
 20
3.706674920861773
 30
0.0
 10
3.051926121114922
 20
3.682571495292493
 30
0.0
 10
3.037351603159906
 20
3.660451849607435
 30
0.0
 10
3.019095502620949
 20
3.641322790814146
 30
0.0
 10
3.002199565933249
 20
3.627665876424075
 30
0.0
 10
2.990781944592423
 20
3.622045144145722
 30
0.0
 10
2.987296976832468
 20
3.62032954418031
 30
0.0
  0
SPLINE
  5
107
330
1F
100
AcDbEntity
  8
0
  6
CONTINUOUS
 62
     7
100
AcDbSpline
210
0.0
220
0.0
230
1.0
 70
     8
 71
     3
 72
    21
 73
    17
 74
     0
 42
0.00000001
 43
0.00000001
 40
0.0
 40
0.0
 40
0.0
 40
0.0
 40
0.0549532594281757
 40
0.1323495491374354
 40
0.2106314004004526
 40
0.2889104720385884
 40
0.3672472468085682
 40
0.4455798084085881
 40
0.5230601121677384
 40
0.6005412951302234
 40
0.6775916504246327
 40
0.7546463296362561
 40
0.8323346931066017
 40
0.9100242972447965
 40
0.9884552505636952
 40
1.0
 40
1.0
 40
1.0
 40
1.0
 10
2.83917261677026
 20
3.620225540589102
 30
0.0
 10
2.833699663633877
 20
3.623199435997739
 30
0.0
 10
2.820518591435651
 20
3.630361772146874
 30
0.0
 10
2.8023026314717
 20
3.645989614360536
 30
0.0
 10
2.784962659573962
 20
3.666066028619361
 30
0.0
 10
2.771195239725763
 20
3.688958773596387
 30
0.0
 10
2.761523785275795
 20
3.713874920555219
 30
0.0
 10
2.756114528942724
 20
3.739992243279968
 30
0.0
 10
2.755259156540992
 20
3.76656171745619
 30
0.0
 10
2.75873608930264
 20
3.792762494377499
 30
0.0
 10
2.766584326362418
 20
3.817930138619599
 30
0.0
 10
2.778422403555015
 20
3.841458217788016
 30
0.0
 10
2.794059519741515
 20
3.862783291673324
 30
0.0
 10
2.813250841170233
 20
3.880983615418298
 30
0.0
 10
2.82858138768399
 20
3.892538559202348
 30
0.0
 10
2.837874560396936
 20
3.896718945712995
 30
0.0
 10
2.839066963980948
 20
3.897255329573687
 30
0.0
  0
SPLINE
  5
108
330
1F
100
AcDbEntity
  8
0
  6
CONTINUOUS
 62
     7
100
AcDbSpline
210
0.0
220
0.0
230
1.0
 70
     8
 71
     3
 72
    16
 73
    12
 74
     0
 42
0.00000001
 43
0.00000001
 40
0.0
 40
0.0
 40
0.0
 40
0.0
 40
0.1058047366593898
 40
0.2252911566243715
 40
0.3447838746081219
 40
0.4655979561680029
 40
0.5864108268445252
 40
0.7079428675473609
 40
0.8294677280966668
 40
0.9147342744805562
 40
1.0
 40
1.0
 40
1.0
 40
1.0
 10
2.940928706044869
 20
3.913465837462476
 30
0.0
 10
2.948522990031193
 20
3.911870587253612
 30
0.0
 10
2.964693580092022
 20
3.908473803933625
 30
0.0
 10
2.987854634431293
 20
3.898085950632741
 30
0.0
 10
3.010049298677737
 20
3.88386681261449
 30
0.0
 10
3.02953684427714
 20
3.8659245639009
 30
0.0
 10
3.045916975292182
 20
3.844935279927111
 30
0.0
 10
3.058513047963485
 20
3.821375535177733
 30
0.0
 10
3.066151916750717
 20
3.798503302475931
 30
0.0
 10
3.070077017044202
 20
3.777417259085681
 30
0.0
 10
3.070512734096201
 20
3.76492459057859
 30
0.0
 10
3.070730591573529
 20
3.758678286392044
 30
0.0
  0
LINE
  5
109
330
1F
100
AcDbEntity
  8
0
  6
CONTINUOUS
 62
     7
100
AcDbLine
 10
2.5982896467
 20
3.7586782864
 30
0.0
 11
2.5982896467
 21
2.7744263179
 31
0.0
  0
LINE
  5
10A
330
1F
100
AcDbEntity
  8
0
  6
CONTINUOUS
 62
     7
100
AcDbLine
 10
2.5982896467
 20
4.7429302549
 30
0.0
 11
2.5982896467
 21
3.7586782864
 31
0.0
  0
LINE
  5
10B
330
1F
100
AcDbEntity
  8
0
  6
CONTINUOUS
 62
     7
100
AcDbLine
 10
2.5786046073
 20
3.7586782864
 30
0.0
 11
2.5786046073
 21
4.7232452155
 31
0.0
  0
LINE
  5
10C
330
1F
100
AcDbEntity
  8
0
  6
CONTINUOUS
 62
     7
100
AcDbLine
 10
2.5786046073
 20
2.7941113573
 30
0.0
 11
2.5786046073
 21
3.7586782864
 31
0.0
  0
LINE
  5
10D
330
1F
100
AcDbEntity
  8
0
  6
CONTINUOUS
 62
     7
100
AcDbLine
 10
2.9132502766
 20
4.7232452155
 30
0.0
 11
2.9132502766
 21
4.1917491525
 31
0.0
  0
LINE
  5
10E
330
1F
100
AcDbEntity
  8
0
  6
CONTINUOUS
 62
     7
100
AcDbLine
 10
2.9132502766
 20
3.3256074203
 30
0.0
 11
2.9132502766
 21
2.7941113573
 31
0.0
  0
SPLINE
  5
10F
330
1F
100
AcDbEntity
  8
0
  6
CONTINUOUS
 62
     7
100
AcDbSpline
210
0.0
220
0.0
230
1.0
 70
     8
 71
     3
 72
     8
 73
     4
 74
     0
 42
0.00000001
 43
0.00000001
 40
0.0
 40
0.0
 40
0.0
 40
0.0
 40
0.0006505060239605
 40
0.0006505060239605
 40
0.0006505060239605
 40
0.0006505060239605
 10
3.230257630824934
 20
4.191749152533779
 30
0.0
 10
3.236134014709899
 20
4.196127821527987
 30
0.0
 10
3.242013511982443
 20
4.200504402301368
 30
0.0
 10
3.24789594590424
 20
4.204879007600184
 30
0.0
  0
LINE
  5
110
330
1F
100
AcDbEntity
  8
0
  6
CONTINUOUS
 62
     7
100
AcDbLine
 10
3.2478959459
 20
4.2048790076
 30
0.0
 11
3.2478959459
 21
3.3081885694
 31
0.0
  0
SPLINE
  5
111
330
1F
100
AcDbEntity
  8
0
  6
CONTINUOUS
 62
     7
100
AcDbSpline
210
0.0
220
0.0
230
1.0
 70
     8
 71
     3
 72
     8
 73
     4
 74
     0
 42
0.00000001
 43
0.00000001
 40
0.0
 40
0.0
 40
0.0
 40
0.0
 40
0.0005752664977959
 40
0.0005752664977959
 40
0.0005752664977959
 40
0.0005752664977959
 10
3.234705900578636
 20
3.325607420250309
 30
0.0
 10
3.239083807754757
 20
3.319788452048344
 30
0.0
 10
3.243480861316042
 20
3.31398233980565
 30
0.0
 10
3.24789594590424
 20
3.308188569364845
 30
0.0
  0
LINE
  5
112
330
1F
100
AcDbEntity
  8
0
  6
CONTINUOUS
 62
     7
100
AcDbLine
 10
3.4053762609
 20
4.6359791777
 30
0.0
 11
3.4053762609
 21
4.7429302549
 31
0.0
  0
LINE
  5
113
330
1F
100
AcDbEntity
  8
0
  6
CONTINUOUS
 62
     7
100
AcDbLine
 10
3.7203368908
 20
4.6359791777
 30
0.0
 11
3.4053762609
 21
4.6359791777
 31
0.0
  0
LINE
  5
114
330
1F
100
AcDbEntity
  8
0
  6
CONTINUOUS
 62
     7
100
AcDbLine
 10
3.7203368908
 20
2.8835720344
 30
0.0
 11
3.7203368908
 21
4.6359791777
 31
0.0
  0
LINE
  5
115
330
1F
100
AcDbEntity
  8
0
  6
CONTINUOUS
 62
     7
100
AcDbLine
 10
3.4053762609
 20
2.8835720344
 30
0.0
 11
3.7203368908
 21
2.8835720344
 31
0.0
  0
LINE
  5
116
330
1F
100
AcDbEntity
  8
0
  6
CONTINUOUS
 62
     7
100
AcDbLine
 10
3.4053762609
 20
2.7744263179
 30
0.0
 11
3.4053762609
 21
2.8835720344
 31
0.0
  0
LINE
  5
117
330
1F
100
AcDbEntity
  8
0
  6
CONTINUOUS
 62
     7
100
AcDbLine
 10
3.2478959459
 20
3.3081885694
 30
0.0
 11
2.932935316
 21
3.3081885694
 31
0.0
  0
LINE
  5
118
330
1F
100
AcDbEntity
  8
0
  6
CONTINUOUS
 62
     7
100
AcDbLine
 10
2.932935316
 20
4.2048790076
 30
0.0
 11
3.2478959459
 21
4.2048790076
 31
0.0
  0
LINE
  5
119
330
1F
100
AcDbEntity
  8
0
  6
CONTINUOUS
 62
     7
100
AcDbLine
 10
2.932935316
 20
4.7429302549
 30
0.0
 11
2.932935316
 21
4.2048790076
 31
0.0
  0
LINE
  5
11A
330
1F
100
AcDbEntity
  8
0
  6
CONTINUOUS
 62
     7
100
AcDbLine
 10
2.932935316
 20
3.3081885694
 30
0.0
 11
2.932935316
 21
2.7744263179
 31
0.0
  0
LINE
  5
11B
330
1F
100
AcDbEntity
  8
0
  6
CONTINUOUS
 62
     7
100
AcDbLine
 10
3.7379752059
 20
4.6228493226
 30
0.0
 11
3.7400219302
 21
4.6205593604
 31
0.0
  0
SPLINE
  5
11C
330
1F
100
AcDbEntity
  8
0
  6
CONTINUOUS
 62
     7
100
AcDbSpline
210
0.0
220
0.0
230
1.0
 70
     8
 71
     3
 72
     8
 73
     4
 74
     0
 42
0.00000001
 43
0.00000001
 40
0.0
 40
0.0
 40
0.0
 40
0.0
 40
0.0002474794652934
 40
0.0002474794652934
 40
0.0002474794652934
 40
0.0002474794652934
 10
3.740021930156206
 20
2.896797212416078
 30
0.0
 10
3.737857946705628
 20
2.894375408602715
 30
0.0
 10
3.73569294077679
 20
2.89195451804564
 30
0.0
 10
3.73352693611173
 20
2.889534521790325
 30
0.0
  0
SPLINE
  5
11D
330
1F
100
AcDbEntity
  8
0
  6
CONTINUOUS
 62
     7
100
AcDbSpline
210
0.0
220
0.0
230
1.0
 70
     8
 71
     3
 72
     8
 73
     4
 74
     0
 42
0.00000001
 43
0.00000001
 40
0.0
 40
0.0
 40
0.0
 40
0.0
 40
0.0005752664977958
 40
0.0005752664977958
 40
0.0005752664977958
 40
0.0005752664977958
 10
3.720336890786128
 20
2.883572034353685
 30
0.0
 10
3.724751975374325
 20
2.885555246891138
 30
0.0
 10
3.72914902893561
 20
2.887542684037849
 30
0.0
 10
3.73352693611173
 20
2.889534521790325
 30
0.0
  0
SPLINE
  5
11E
330
1F
100
AcDbEntity
  8
0
  6
CONTINUOUS
 62
     7
100
AcDbSpline
210
0.0
220
0.0
230
1.0
 70
     8
 71
     3
 72
     8
 73
     4
 74
     0
 42
0.00000001
 43
0.00000001
 40
0.0
 40
0.0
 40
0.0
 40
0.0
 40
0.0006505060239605
 40
0.0006505060239605
 40
0.0006505060239605
 40
0.0006505060239605
 10
3.720336890786128
 20
4.635979177704264
 30
0.0
 10
3.726219324707924
 20
4.631604572405449
 30
0.0
 10
3.732098821980469
 20
4.627227991632067
 30
0.0
 10
3.737975205865435
 20
4.622849322637858
 30
0.0
  0
SPLINE
  5
11F
330
1F
100
AcDbEntity
  8
0
  6
CONTINUOUS
 62
     7
100
AcDbSpline
210
0.0
220
0.0
230
1.0
 70
     8
 71
     3
 72
     8
 73
     4
 74
     0
 42
0.00000001
 43
0.00000001
 40
0.0
 40
0.0
 40
0.0
 40
0.0
 40
0.0006505060239605
 40
0.0006505060239605
 40
0.0006505060239605
 40
0.0006505060239605
 10
2.915297000903672
 20
4.191749152533779
 30
0.0
 10
2.921173384788637
 20
4.196127821527987
 30
0.0
 10
2.92705288206118
 20
4.200504402301368
 30
0.0
 10
2.932935315982978
 20
4.204879007600184
 30
0.0
  0
LINE
  5
120
330
1F
100
AcDbEntity
  8
0
  6
CONTINUOUS
 62
     7
100
AcDbLine
 10
3.2302576308
 20
4.1917491525
 30
0.0
 11
3.2282109065
 21
4.1917491525
 31
0.0
  0
SPLINE
  5
121
330
1F
100
AcDbEntity
  8
0
  6
CONTINUOUS
 62
     7
100
AcDbSpline
210
0.0
220
0.0
230
1.0
 70
     8
 71
     3
 72
     8
 73
     4
 74
     0
 42
0.00000001
 43
0.00000001
 40
0.0
 40
0.0
 40
0.0
 40
0.0
 40
0.0005752664977959
 40
0.0005752664977959
 40
0.0005752664977959
 40
0.0005752664977959
 10
2.919745270657374
 20
3.325607420250309
 30
0.0
 10
2.924123177833494
 20
3.319788452048344
 30
0.0
 10
2.92852023139478
 20
3.31398233980565
 30
0.0
 10
2.932935315982978
 20
3.308188569364845
 30
0.0
  0
LINE
  5
122
330
1F
100
AcDbEntity
  8
0
  6
CONTINUOUS
 62
     7
100
AcDbLine
 10
3.2282109065
 20
3.3256074203
 30
0.0
 11
3.2347059006
 21
3.3256074203
 31
0.0
  0
LINE
  5
123
330
1F
100
AcDbEntity
  8
0
  6
HIDDEN
 62
     7
100
AcDbLine
 10
3.8975022451
 20
4.7330877352
 30
0.0
 11
3.8141586586
 21
4.7330877352
 31
0.0
  0
LINE
  5
124
330
1F
100
AcDbEntity
  8
0
  6
HIDDEN
 62
     7
100
AcDbLine
 10
3.665250681
 20
4.7330877352
 30
0.0
 11
3.5825416152
 21
4.7330877352
 31
0.0
  0
LINE
  5
125
330
1F
100
AcDbEntity
  8
0
  6
HIDDEN
 62
     7
100
AcDbLine
 10
3.7400219302
 20
4.0441113573
 30
0.0
 11
3.8975022451
 21
4.0441113573
 31
0.0
  0
LINE
  5
126
330
1F
100
AcDbEntity
  8
0
  6
HIDDEN
 62
     7
100
AcDbLine
 10
3.5825416152
 20
4.0441113573
 30
0.0
 11
3.7400219302
 21
4.0441113573
 31
0.0
  0
LINE
  5
127
330
1F
100
AcDbEntity
  8
0
  6
HIDDEN
 62
     7
100
AcDbLine
 10
3.8876597254
 20
4.0342688376
 30
0.0
 11
3.5923841349
 21
4.0342688376
 31
0.0
  0
LINE
  5
128
330
1F
100
AcDbEntity
  8
0
  6
HIDDEN
 62
     7
100
AcDbLine
 10
3.6612817727
 20
4.5854499399
 30
0.0
 11
3.7400219302
 21
4.5854499399
 31
0.0
  0
LINE
  5
129
330
1F
100
AcDbEntity
  8
0
  6
HIDDEN
 62
     7
100
AcDbLine
 10
3.7400219302
 20
4.6205593604
 30
0.0
 11
3.7400219302
 21
4.7429302549
 31
0.0
  0
LINE
  5
12A
330
1F
100
AcDbEntity
  8
0
  6
HIDDEN
 62
     7
100
AcDbLine
 10
3.7400219302
 20
4.5854499399
 30
0.0
 11
3.8187620876
 21
4.5854499399
 31
0.0
  0
LINE
  5
12B
330
1F
100
AcDbEntity
  8
0
  6
HIDDEN
 62
     7
100
AcDbLine
 10
3.6612817727
 20
4.5854499399
 30
0.0
 11
3.6612817727
 21
4.7429302549
 31
0.0
  0
LINE
  5
12C
330
1F
100
AcDbEntity
  8
0
  6
HIDDEN
 62
     7
100
AcDbLine
 10
3.8187620876
 20
4.5854499399
 30
0.0
 11
3.8187620876
 21
4.7429302549
 31
0.0
  0
LINE
  5
12D
330
1F
100
AcDbEntity
  8
0
  6
HIDDEN
 62
     7
100
AcDbLine
 10
3.4388742554
 20
4.6359791777
 30
0.0
 11
3.4250613002
 21
4.6205593604
 31
0.0
  0
LINE
  5
12E
330
1F
100
AcDbEntity
  8
0
  6
HIDDEN
 62
     7
100
AcDbLine
 10
3.4250613002
 20
4.6205593604
 30
0.0
 11
3.4250613002
 21
4.6359791777
 31
0.0
  0
LINE
  5
12F
330
1F
100
AcDbEntity
  8
0
  6
HIDDEN
 62
     7
100
AcDbLine
 10
3.4250613002
 20
2.8835720344
 30
0.0
 11
3.4250613002
 21
2.8967972124
 31
0.0
  0
LINE
  5
130
330
1F
100
AcDbEntity
  8
0
  6
HIDDEN
 62
     7
100
AcDbLine
 10
3.4250613002
 20
2.8967972124
 30
0.0
 11
3.4369083142
 21
2.8835720344
 31
0.0
  0
LINE
  5
131
330
1F
100
AcDbEntity
  8
0
  6
HIDDEN
 62
     7
100
AcDbLine
 10
3.4250613002
 20
2.8967972124
 30
0.0
 11
3.4250613002
 21
4.6205593604
 31
0.0
  0
SPLINE
  5
132
330
1F
100
AcDbEntity
  8
0
  6
HIDDEN
 62
     7
100
AcDbSpline
210
0.0
220
0.0
230
1.0
 70
     8
 71
     3
 72
    28
 73
    24
 74
     0
 42
0.00000001
 43
0.00000001
 40
0.0
 40
0.0
 40
0.0
 40
0.0
 40
0.0133322476240111
 40
0.0590098121828044
 40
0.1059984290005014
 40
0.1522065920801803
 40
0.1995048814502921
 40
0.2509645606249343
 40
0.3036604121417029
 40
0.359964044105216
 40
0.4181607508772167
 40
0.4616329052328037
 40
0.5063400455915487
 40
0.54982863723013
 40
0.5945615444390245
 40
0.6387740659007138
 40
0.6839386517269013
 40
0.7354734698867308
 40
0.7882393691398948
 40
0.84464026739201
 40
0.9029584782103841
 40
0.9546433745417792
 40
1.0
 40
1.0
 40
1.0
 40
1.0
 10
3.897069770426897
 20
4.034022241937843
 30
0.0
 10
3.897202035487437
 20
4.034097638944647
 30
0.0
 10
3.897787453385527
 20
4.034431353359202
 30
0.0
 10
3.895008574285534
 20
4.032843440175577
 30
0.0
 10
3.889155959284874
 20
4.029562037235991
 30
0.0
 10
3.879763566076985
 20
4.024479096109984
 30
0.0
 10
3.867225768154921
 20
4.018063647032824
 30
0.0
 10
3.851217981613507
 20
4.010529744758814
 30
0.0
 10
3.831406838035009
 20
4.00233752127046
 30
0.0
 10
3.807973754343896
 20
3.994412126094717
 30
0.0
 10
3.783425182227032
 20
3.988538208062592
 30
0.0
 10
3.759298138464429
 20
3.985302712095441
 30
0.0
 10
3.737013359706255
 20
3.984489800284822
 30
0.0
 10
3.714618580940125
 20
3.985912640991939
 30
0.0
 10
3.693036065899611
 20
3.989360942241913
 30
0.0
 10
3.672428541140855
 20
3.994471365332322
 30
0.0
 10
3.652423231019525
 20
4.000981778938669
 30
0.0
 10
3.633341941248079
 20
4.008550815457108
 30
0.0
 10
3.615621382961466
 20
4.016662634793307
 30
0.0
 10
3.60052993931801
 20
4.024320325015648
 30
0.0
 10
3.589773185747305
 20
4.030171491601896
 30
0.0
 10
3.583478074023319
 20
4.033731564971776
 30
0.0
 10
3.583047151785576
 20
4.033979635691887
 30
0.0
 10
3.582845741315311
 20
4.034095582459124
 30
0.0
  0
LINE
  5
133
330
1F
100
AcDbEntity
  8
0
  6
HIDDEN
 62
     7
100
AcDbLine
 10
3.7400219302
 20
2.8748222108
 30
0.0
 11
3.7400219302
 21
2.8967972124
 31
0.0
  0
ARC
  5
134
330
1F
100
AcDbEntity
  8
0
  6
HIDDEN
 62
     7
100
AcDbCircle
 10
2.9132502766
 20
3.7586782864
 30
0.0
 40
0.1574803149606292
100
AcDbArc
 50
118.1554033719
 51
241.8445966281
  0
LINE
  5
135
330
1F
100
AcDbEntity
  8
0
  6
HIDDEN
 62
     7
100
AcDbLine
 10
3.2085258672
 20
4.1917491525
 30
0.0
 11
3.2085258672
 21
3.3256074203
 31
0.0
  0
SPLINE
  5
136
330
1F
100
AcDbEntity
  8
0
  6
HIDDEN
 62
     7
100
AcDbSpline
210
0.0
220
0.0
230
1.0
 70
     8
 71
     3
 72
    14
 73
    10
 74
     0
 42
0.00000001
 43
0.00000001
 40
0.0
 40
0.0
 40
0.0
 40
0.0
 40
0.0971648608919829
 40
0.2696893121041543
 40
0.4407429130237741
 40
0.6117941081129303
 40
0.7812194204752368
 40
0.9506535763600538
 40
1.0
 40
1.0
 40
1.0
 40
1.0
 10
2.987296976832468
 20
3.62032954418031
 30
0.0
 10
2.982917708680824
 20
3.617902535131272
 30
0.0
 10
2.970762678513597
 20
3.611166165677369
 30
0.0
 10
2.948803050964471
 20
3.604603680449506
 30
0.0
 10
2.922493336704999
 20
3.600736516487369
 30
0.0
 10
2.895937397489913
 20
3.601351278386239
 30
0.0
 10
2.870164107594307
 20
3.606685048664361
 30
0.0
 10
2.85098720867825
 20
3.613083518846263
 30
0.0
 10
2.841346988804943
 20
3.618911114118033
 30
0.0
 10
2.83917261677026
 20
3.620225540589102
 30
0.0
  0
SPLINE
  5
137
330
1F
100
AcDbEntity
  8
0
  6
HIDDEN
 62
     7
100
AcDbSpline
210
0.0
220
0.0
230
1.0
 70
     8
 71
     3
 72
    12
 73
     8
 74
     0
 42
0.00000001
 43
0.00000001
 40
0.0
 40
0.0
 40
0.0
 40
0.0
 40
0.2162779178748706
 40
0.4688897748472817
 40
0.7214915096338382
 40
0.9711862672912641
 40
1.0
 40
1.0
 40
1.0
 40
1.0
 10
2.839066963980948
 20
3.897255329573687
 30
0.0
 10
2.845843581651646
 20
3.900657771136026
 30
0.0
 10
2.860535265227398
 20
3.908034252626933
 30
0.0
 10
2.885255527786422
 20
3.914377401254222
 30
0.0
 10
2.911611702509866
 20
3.916656821632143
 30
0.0
 10
2.93048533373633
 20
3.916112556297081
 30
0.0
 10
2.939949562606216
 20
3.913713986939896
 30
0.0
 10
2.940928706044869
 20
3.913465837462476
 30
0.0
  0
LINE
  5
138
330
1F
100
AcDbEntity
  8
0
  6
HIDDEN
 62
     7
100
AcDbLine
 10
3.4053762609
 20
4.6337845384
 30
0.0
 11
3.7203368908
 21
4.6337845384
 31
0.0
  0
LINE
  5
139
330
1F
100
AcDbEntity
  8
0
  6
HIDDEN
 62
     7
100
AcDbLine
 10
3.4053762609
 20
4.6359791777
 30
0.0
 11
3.4053762609
 21
4.6337845384
 31
0.0
  0
LINE
  5
13A
330
1F
100
AcDbEntity
  8
0
  6
HIDDEN
 62
     7
100
AcDbLine
 10
3.7203368908
 20
2.8813773951
 30
0.0
 11
3.4053762609
 21
2.8813773951
 31
0.0
  0
LINE
  5
13B
330
1F
100
AcDbEntity
  8
0
  6
HIDDEN
 62
     7
100
AcDbLine
 10
3.7203368908
 20
2.8835720344
 30
0.0
 11
3.7203368908
 21
2.8813773951
 31
0.0
  0
LINE
  5
13C
330
1F
100
AcDbEntity
  8
0
  6
HIDDEN
 62
     7
100
AcDbLine
 10
3.2478959459
 20
4.2091680034
 30
0.0
 11
2.932935316
 21
4.2091680034
 31
0.0
  0
LINE
  5
13D
330
1F
100
AcDbEntity
  8
0
  6
HIDDEN
 62
     7
100
AcDbLine
 10
3.2478959459
 20
4.2048790076
 30
0.0
 11
3.2478959459
 21
4.2091680034
 31
0.0
  0
LINE
  5
13E
330
1F
100
AcDbEntity
  8
0
  6
HIDDEN
 62
     7
100
AcDbLine
 10
2.932935316
 20
3.3124775652
 30
0.0
 11
3.2478959459
 21
3.3124775652
 31
0.0
  0
LINE
  5
13F
330
1F
100
AcDbEntity
  8
0
  6
HIDDEN
 62
     7
100
AcDbLine
 10
2.932935316
 20
3.3081885694
 30
0.0
 11
2.932935316
 21
3.3124775652
 31
0.0
  0
SPLINE
  5
140
330
1F
100
AcDbEntity
  8
0
  6
HIDDEN
 62
     7
100
AcDbSpline
210
0.0
220
0.0
230
1.0
 70
     8
 71
     3
 72
     8
 73
     4
 74
     0
 42
0.00000001
 43
0.00000001
 40
0.0
 40
0.0
 40
0.0
 40
0.0
 40
0.0005752664977959
 40
0.0005752664977959
 40
0.0005752664977959
 40
0.0005752664977959
 10
2.919745270657374
 20
4.191749152533784
 30
0.0
 10
2.924123177833495
 20
4.19756812073575
 30
0.0
 10
2.92852023139478
 20
4.203374232978444
 30
0.0
 10
2.932935315982977
 20
4.209168003419249
 30
0.0
  0
SPLINE
  5
141
330
1F
100
AcDbEntity
  8
0
  6
HIDDEN
 62
     7
100
AcDbSpline
210
0.0
220
0.0
230
1.0
 70
     8
 71
     3
 72
     8
 73
     4
 74
     0
 42
0.00000001
 43
0.00000001
 40
0.0
 40
0.0
 40
0.0
 40
0.0
 40
0.0006505060239605
 40
0.0006505060239605
 40
0.0006505060239605
 40
0.0006505060239605
 10
2.91529700090367
 20
3.325607420250316
 30
0.0
 10
2.921173384788637
 20
3.321228751256107
 30
0.0
 10
2.92705288206118
 20
3.316852170482726
 30
0.0
 10
2.932935315982977
 20
3.31247756518391
 30
0.0
  0
SPLINE
  5
142
330
1F
100
AcDbEntity
  8
0
  6
HIDDEN
 62
     7
100
AcDbSpline
210
0.0
220
0.0
230
1.0
 70
     8
 71
     3
 72
     8
 73
     4
 74
     0
 42
0.00000001
 43
0.00000001
 40
0.0
 40
0.0
 40
0.0
 40
0.0
 40
0.0002474794652934
 40
0.0002474794652934
 40
0.0002474794652934
 40
0.0002474794652934
 10
3.418566306190468
 20
2.889534521790325
 30
0.0
 10
3.420732310855528
 20
2.89195451804564
 30
0.0
 10
3.422897316784366
 20
2.894375408602715
 30
0.0
 10
3.425061300234944
 20
2.896797212416078
 30
0.0
  0
SPLINE
  5
143
330
1F
100
AcDbEntity
  8
0
  6
HIDDEN
 62
     7
100
AcDbSpline
210
0.0
220
0.0
230
1.0
 70
     8
 71
     3
 72
     8
 73
     4
 74
     0
 42
0.00000001
 43
0.00000001
 40
0.0
 40
0.0
 40
0.0
 40
0.0
 40
0.0006505060239605
 40
0.0006505060239605
 40
0.0006505060239605
 40
0.0006505060239605
 10
3.405376260864865
 20
2.88137739507983
 30
0.0
 10
3.411258694786663
 20
2.885752000378646
 30
0.0
 10
3.417138192059206
 20
2.890128581152027
 30
0.0
 10
3.423014575944172
 20
2.894507250146236
 30
0.0
  0
SPLINE
  5
144
330
1F
100
AcDbEntity
  8
0
  6
HIDDEN
 62
     7
100
AcDbSpline
210
0.0
220
0.0
230
1.0
 70
     8
 71
     3
 72
     8
 73
     4
 74
     0
 42
0.00000001
 43
0.00000001
 40
0.0
 40
0.0
 40
0.0
 40
0.0
 40
0.0005752664977958
 40
0.0005752664977958
 40
0.0005752664977958
 40
0.0005752664977958
 10
3.405376260864865
 20
2.883572034353685
 30
0.0
 10
3.409791345453063
 20
2.885555246891138
 30
0.0
 10
3.414188399014348
 20
2.887542684037849
 30
0.0
 10
3.418566306190468
 20
2.889534521790325
 30
0.0
  0
LINE
  5
145
330
1F
100
AcDbEntity
  8
0
  6
HIDDEN
 62
     7
100
AcDbLine
 10
3.4250613002
 20
4.6205593604
 30
0.0
 11
3.4230145759
 21
4.6228493226
 31
0.0
  0
SPLINE
  5
146
330
1F
100
AcDbEntity
  8
0
  6
HIDDEN
 62
     7
100
AcDbSpline
210
0.0
220
0.0
230
1.0
 70
     8
 71
     3
 72
     8
 73
     4
 74
     0
 42
0.00000001
 43
0.00000001
 40
0.0
 40
0.0
 40
0.0
 40
0.0
 40
0.0006505060239605
 40
0.0006505060239605
 40
0.0006505060239605
 40
0.0006505060239605
 10
3.405376260864865
 20
4.635979177704264
 30
0.0
 10
3.411258694786663
 20
4.631604572405448
 30
0.0
 10
3.417138192059206
 20
4.627227991632067
 30
0.0
 10
3.423014575944172
 20
4.622849322637858
 30
0.0
  0
SPLINE
  5
147
330
1F
100
AcDbEntity
  8
0
  6
HIDDEN
 62
     7
100
AcDbSpline
210
0.0
220
0.0
230
1.0
 70
     8
 71
     3
 72
     8
 73
     4
 74
     0
 42
0.00000001
 43
0.00000001
 40
0.0
 40
0.0
 40
0.0
 40
0.0
 40
0.0005752664977959
 40
0.0005752664977959
 40
0.0005752664977959
 40
0.0005752664977959
 10
3.405376260864865
 20
4.633784538430409
 30
0.0
 10
3.409791345453063
 20
4.631801325892956
 30
0.0
 10
3.414188399014348
 20
4.629813888746246
 30
0.0
 10
3.418566306190468
 20
4.627822050993768
 30
0.0
  0
SPLINE
  5
148
330
1F
100
AcDbEntity
  8
0
  6
HIDDEN
 62
     7
100
AcDbSpline
210
0.0
220
0.0
230
1.0
 70
     8
 71
     3
 72
     8
 73
     4
 74
     0
 42
0.00000001
 43
0.00000001
 40
0.0
 40
0.0
 40
0.0
 40
0.0
 40
0.0002474794652934
 40
0.0002474794652934
 40
0.0002474794652934
 40
0.0002474794652934
 10
3.418566306190468
 20
4.627822050993768
 30
0.0
 10
3.420732310855528
 20
4.625402054738454
 30
0.0
 10
3.422897316784366
 20
4.622981164181379
 30
0.0
 10
3.425061300234944
 20
4.620559360368016
 30
0.0
  0
LINE
  5
149
330
1F
100
AcDbEntity
  8
0
  6
HIDDEN
 62
     7
100
AcDbLine
 10
3.4230145759
 20
4.6228493226
 30
0.0
 11
3.7379752059
 21
4.6228493226
 31
0.0
  0
LINE
  5
14A
330
1F
100
AcDbEntity
  8
0
  6
HIDDEN
 62
     7
100
AcDbLine
 10
3.7335269361
 20
2.8895345218
 30
0.0
 11
3.4185663062
 21
2.8895345218
 31
0.0
  0
LINE
  5
14B
330
1F
100
AcDbEntity
  8
0
  6
HIDDEN
 62
     7
100
AcDbLine
 10
3.7335269361
 20
4.627822051
 30
0.0
 11
3.4185663062
 21
4.627822051
 31
0.0
  0
LINE
  5
14C
330
1F
100
AcDbEntity
  8
0
  6
HIDDEN
 62
     7
100
AcDbLine
 10
3.4230145759
 20
2.8945072501
 30
0.0
 11
3.7379752059
 21
2.8945072501
 31
0.0
  0
SPLINE
  5
14D
330
1F
100
AcDbEntity
  8
0
  6
HIDDEN
 62
     7
100
AcDbSpline
210
0.0
220
0.0
230
1.0
 70
     8
 71
     3
 72
     8
 73
     4
 74
     0
 42
0.00000001
 43
0.00000001
 40
0.0
 40
0.0
 40
0.0
 40
0.0
 40
0.0002474794652933
 40
0.0002474794652933
 40
0.0002474794652933
 40
0.0002474794652933
 10
3.740021930156206
 20
4.620559360368016
 30
0.0
 10
3.737857946705628
 20
4.62298116418138
 30
0.0
 10
3.73569294077679
 20
4.625402054738454
 30
0.0
 10
3.733526936111731
 20
4.627822050993768
 30
0.0
  0
SPLINE
  5
14E
330
1F
100
AcDbEntity
  8
0
  6
HIDDEN
 62
     7
100
AcDbSpline
210
0.0
220
0.0
230
1.0
 70
     8
 71
     3
 72
     8
 73
     4
 74
     0
 42
0.00000001
 43
0.00000001
 40
0.0
 40
0.0
 40
0.0
 40
0.0
 40
0.0006505060239605
 40
0.0006505060239605
 40
0.0006505060239605
 40
0.0006505060239605
 10
3.737975205865435
 20
2.894507250146236
 30
0.0
 10
3.732098821980469
 20
2.890128581152027
 30
0.0
 10
3.726219324707925
 20
2.885752000378646
 30
0.0
 10
3.720336890786128
 20
2.88137739507983
 30
0.0
  0
SPLINE
  5
14F
330
1F
100
AcDbEntity
  8
0
  6
HIDDEN
 62
     7
100
AcDbSpline
210
0.0
220
0.0
230
1.0
 70
     8
 71
     3
 72
     8
 73
     4
 74
     0
 42
0.00000001
 43
0.00000001
 40
0.0
 40
0.0
 40
0.0
 40
0.0
 40
0.0005752664977959
 40
0.0005752664977959
 40
0.0005752664977959
 40
0.0005752664977959
 10
3.720336890786128
 20
4.633784538430409
 30
0.0
 10
3.724751975374326
 20
4.631801325892956
 30
0.0
 10
3.72914902893561
 20
4.629813888746246
 30
0.0
 10
3.733526936111731
 20
4.627822050993768
 30
0.0
  0
LINE
  5
150
330
1F
100
AcDbEntity
  8
0
  6
HIDDEN
 62
     7
100
AcDbLine
 10
3.2347059006
 20
4.1917491525
 30
0.0
 11
3.230262107
 21
4.1917491525
 31
0.0
  0
SPLINE
  5
151
330
1F
100
AcDbEntity
  8
0
  6
HIDDEN
 62
     7
100
AcDbSpline
210
0.0
220
0.0
230
1.0
 70
     8
 71
     3
 72
     8
 73
     4
 74
     0
 42
0.00000001
 43
0.00000001
 40
0.0
 40
0.0
 40
0.0
 40
0.0
 40
0.0006505060239605
 40
0.0006505060239605
 40
0.0006505060239605
 40
0.0006505060239605
 10
3.24789594590424
 20
3.31247756518391
 30
0.0
 10
3.242013511982443
 20
3.316852170482726
 30
0.0
 10
3.236134014709899
 20
3.321228751256107
 30
0.0
 10
3.230257630824933
 20
3.325607420250316
 30
0.0
  0
SPLINE
  5
152
330
1F
100
AcDbEntity
  8
0
  6
HIDDEN
 62
     7
100
AcDbSpline
210
0.0
220
0.0
230
1.0
 70
     8
 71
     3
 72
     8
 73
     4
 74
     0
 42
0.00000001
 43
0.00000001
 40
0.0
 40
0.0
 40
0.0
 40
0.0
 40
0.0005752664977959
 40
0.0005752664977959
 40
0.0005752664977959
 40
0.0005752664977959
 10
3.234705900578637
 20
4.191749152533784
 30
0.0
 10
3.239083807754757
 20
4.19756812073575
 30
0.0
 10
3.243480861316042
 20
4.203374232978444
 30
0.0
 10
3.24789594590424
 20
4.209168003419249
 30
0.0
  0
LINE
  5
153
330
1F
100
AcDbEntity
  8
0
  6
HIDDEN
 62
     7
100
AcDbLine
 10
3.5825416152
 20
4.7330877352
 30
0.0
 11
3.5825416152
 21
4.0441113573
 31
0.0
  0
LINE
  5
154
330
1F
100
AcDbEntity
  8
0
  6
HIDDEN
 62
     7
100
AcDbLine
 10
3.8975022451
 20
4.0441113573
 30
0.0
 11
3.8975022451
 21
4.7330877352
 31
0.0
  0
LINE
  5
155
330
1F
100
AcDbEntity
  8
0
  6
HIDDEN
 62
     7
100
AcDbLine
 10
3.5825416152
 20
4.0441113573
 30
0.0
 11
3.5923841349
 21
4.0342688376
 31
0.0
  0
LINE
  5
156
330
1F
100
AcDbEntity
  8
0
  6
HIDDEN
 62
     7
100
AcDbLine
 10
3.8876597254
 20
4.0342688376
 30
0.0
 11
3.8975022451
 21
4.0441113573
 31
0.0
  0
LINE
  5
157
330
1F
100
AcDbEntity
  8
0
  6
HIDDEN
 62
     7
100
AcDbLine
 10
3.8975022451
 20
4.7330877352
 30
0.0
 11
3.8889798815
 21
4.7416100988
 31
0.0
  0
LINE
  5
158
330
1F
100
AcDbEntity
  8
0
  6
HIDDEN
 62
     7
100
AcDbLine
 10
3.5910581668
 20
4.7416042869
 30
0.0
 11
3.5825416152
 21
4.7330877352
 31
0.0
  0
LINE
  5
159
330
1F
100
AcDbEntity
  8
0
  6
HIDDEN
 62
     7
100
AcDbLine
 10
4.0746675994
 20
4.0539538769
 30
0.0
 11
4.0549825601
 21
4.0342688376
 31
0.0
  0
LINE
  5
15A
330
1F
100
AcDbEntity
  8
0
  6
HIDDEN
 62
     7
100
AcDbLine
 10
4.0549825601
 20
3.4830877352
 30
0.0
 11
4.0746675994
 21
3.4634026958
 31
0.0
  0
LINE
  5
15B
330
1F
100
AcDbEntity
  8
0
  6
HIDDEN
 62
     7
100
AcDbLine
 10
3.5828457413
 20
4.0342688376
 30
0.0
 11
3.4250613002
 21
4.0342688376
 31
0.0
  0
LINE
  5
15C
330
1F
100
AcDbEntity
  8
0
  6
HIDDEN
 62
     7
100
AcDbLine
 10
4.0549825601
 20
4.0342688376
 30
0.0
 11
3.8970697704
 21
4.0342688376
 31
0.0
  0
LINE
  5
15D
330
1F
100
AcDbEntity
  8
0
  6
HIDDEN
 62
     7
100
AcDbLine
 10
3.4250613002
 20
3.4830877352
 30
0.0
 11
4.0549825601
 21
3.4830877352
 31
0.0
  0
LINE
  5
15E
330
1F
100
AcDbEntity
  8
0
  6
HIDDEN
 62
     7
100
AcDbLine
 10
3.8975022451
 20
4.034022545
 30
0.0
 11
3.8975022451
 21
4.7429302549
 31
0.0
  0
LINE
  5
15F
330
1F
100
AcDbEntity
  8
0
  6
HIDDEN
 62
     7
100
AcDbLine
 10
3.5825416152
 20
4.7429302549
 30
0.0
 11
3.5825416152
 21
4.0340959991
 31
0.0
  0
LINE
  5
160
330
1F
100
AcDbEntity
  8
0
  6
HIDDEN
 62
     7
100
AcDbLine
 10
2.5786046073
 20
3.4634026958
 30
0.0
 11
2.5982896467
 21
3.4830877352
 31
0.0
  0
LINE
  5
161
330
1F
100
AcDbEntity
  8
0
  6
HIDDEN
 62
     7
100
AcDbLine
 10
2.5982896467
 20
4.0342688376
 30
0.0
 11
2.5786046073
 21
4.0539538769
 31
0.0
  0
LINE
  5
162
330
1F
100
AcDbEntity
  8
0
  6
HIDDEN
 62
     7
100
AcDbLine
 10
2.5982896467
 20
3.4830877352
 30
0.0
 11
3.2282109065
 21
3.4830877352
 31
0.0
  0
LINE
  5
163
330
1F
100
AcDbEntity
  8
0
  6
HIDDEN
 62
     7
100
AcDbLine
 10
3.2282109065
 20
4.0342688376
 30
0.0
 11
2.5982896467
 21
4.0342688376
 31
0.0
  0
LINE
  5
164
330
1F
100
AcDbEntity
  8
0
  6
HIDDEN
 62
     7
100
AcDbLine
 10
3.2282109065
 20
3.4830877352
 30
0.0
 11
3.4250613002
 21
3.4830877352
 31
0.0
  0
LINE
  5
165
330
1F
100
AcDbEntity
  8
0
  6
HIDDEN
 62
     7
100
AcDbLine
 10
3.4250613002
 20
4.0342688376
 30
0.0
 11
3.2282109065
 21
4.0342688376
 31
0.0
  0
LINE
  5
166
330
1F
100
AcDbEntity
  8
0
  6
CONTINUOUS
 62
     7
100
AcDbLine
 10
8.0934042914
 20
4.7330877352
 30
0.0
 11
8.0934042914
 21
4.7302501509
 31
0.0
  0
LINE
  5
167
330
1F
100
AcDbEntity
  8
0
  6
CONTINUOUS
 62
     7
100
AcDbLine
 10
8.4083649213
 20
4.7302501509
 30
0.0
 11
8.4083649213
 21
4.7330877352
 31
0.0
  0
LINE
  5
168
330
1F
100
AcDbEntity
  8
0
  6
CONTINUOUS
 62
     7
100
AcDbLine
 10
8.4083649213
 20
4.7330877352
 30
0.0
 11
8.3985224016
 21
4.7429302549
 31
0.0
  0
LINE
  5
169
330
1F
100
AcDbEntity
  8
0
  6
CONTINUOUS
 62
     7
100
AcDbLine
 10
8.103246811
 20
4.7429302549
 30
0.0
 11
8.0934042914
 21
4.7330877352
 31
0.0
  0
LINE
  5
16A
330
1F
100
AcDbEntity
  8
0
  6
CONTINUOUS
 62
     7
100
AcDbLine
 10
7.2764751575
 20
3.6011979714
 30
0.0
 11
7.2793127418
 21
3.6011979714
 31
0.0
  0
LINE
  5
16B
330
1F
100
AcDbEntity
  8
0
  6
CONTINUOUS
 62
     7
100
AcDbLine
 10
7.2793127418
 20
3.9161586014
 30
0.0
 11
7.2764751575
 21
3.9161586014
 31
0.0
  0
LINE
  5
16C
330
1F
100
AcDbEntity
  8
0
  6
CONTINUOUS
 62
     7
100
AcDbLine
 10
7.2764751575
 20
3.9161586014
 30
0.0
 11
7.2666326378
 21
3.9063160817
 31
0.0
  0
LINE
  5
16D
330
1F
100
AcDbEntity
  8
0
  6
CONTINUOUS
 62
     7
100
AcDbLine
 10
7.2666326378
 20
3.6110404911
 30
0.0
 11
7.2764751575
 21
3.6011979714
 31
0.0
  0
LINE
  5
16E
330
1F
100
AcDbEntity
  8
0
  6
CONTINUOUS
 62
     7
100
AcDbLine
 10
8.4083649213
 20
4.7330877352
 30
0.0
 11
8.3897304329
 21
4.7330877352
 31
0.0
  0
LINE
  5
16F
330
1F
100
AcDbEntity
  8
0
  6
CONTINUOUS
 62
     7
100
AcDbLine
 10
8.1120387798
 20
4.7330877352
 30
0.0
 11
8.0934042914
 21
4.7330877352
 31
0.0
  0
LINE
  5
170
330
1F
100
AcDbEntity
  8
0
  6
CONTINUOUS
 62
     7
100
AcDbLine
 10
8.2508846063
 20
4.7429302549
 30
0.0
 11
8.3985224016
 21
4.7429302549
 31
0.0
  0
LINE
  5
171
330
1F
100
AcDbEntity
  8
0
  6
CONTINUOUS
 62
     7
100
AcDbLine
 10
8.103246811
 20
4.7429302549
 30
0.0
 11
8.2508846063
 21
4.7429302549
 31
0.0
  0
CIRCLE
  5
172
330
1F
100
AcDbEntity
  8
0
  6
CONTINUOUS
 62
     7
100
AcDbCircle
 10
8.2508846063
 20
3.7586782864
 30
0.0
 40
0.9645669291338592
  0
CIRCLE
  5
173
330
1F
100
AcDbEntity
  8
0
  6
CONTINUOUS
 62
     7
100
AcDbCircle
 10
8.2508846063
 20
3.7586782864
 30
0.0
 40
0.984251968503937
  0
CIRCLE
  5
174
330
1F
100
AcDbEntity
  8
0
  6
CONTINUOUS
 62
     7
100
AcDbCircle
 10
8.2508846063
 20
3.7586782864
 30
0.0
 40
0.2952755905511815
  0
CIRCLE
  5
175
330
1F
100
AcDbEntity
  8
0
  6
CONTINUOUS
 62
     7
100
AcDbCircle
 10
8.2508846063
 20
3.7586782864
 30
0.0
 40
0.2755905511811036
  0
LINE
  5
176
330
1F
100
AcDbEntity
  8
0
  6
CONTINUOUS
 62
     7
100
AcDbLine
 10
7.2764751575
 20
3.6011979714
 30
0.0
 11
7.2764751575
 21
3.6198324598
 31
0.0
  0
LINE
  5
177
330
1F
100
AcDbEntity
  8
0
  6
CONTINUOUS
 62
     7
100
AcDbLine
 10
7.2764751575
 20
3.897524113
 30
0.0
 11
7.2764751575
 21
3.9161586014
 31
0.0
  0
LINE
  5
178
330
1F
100
AcDbEntity
  8
0
  6
CONTINUOUS
 62
     7
100
AcDbLine
 10
7.2666326378
 20
3.9063160817
 30
0.0
 11
7.2666326378
 21
3.6110404911
 31
0.0
  0
LINE
  5
179
330
1F
100
AcDbEntity
  8
0
  6
HIDDEN
 62
     7
100
AcDbLine
 10
8.3897304329
 20
4.7330877352
 30
0.0
 11
8.1120387798
 21
4.7330877352
 31
0.0
  0
LINE
  5
17A
330
1F
100
AcDbEntity
  8
0
  6
HIDDEN
 62
     7
100
AcDbLine
 10
8.0934042914
 20
4.0441113573
 30
0.0
 11
8.4083649213
 21
4.0441113573
 31
0.0
  0
LINE
  5
17B
330
1F
100
AcDbEntity
  8
0
  6
HIDDEN
 62
     7
100
AcDbLine
 10
8.3985224016
 20
4.0342688376
 30
0.0
 11
8.103246811
 21
4.0342688376
 31
0.0
  0
LINE
  5
17C
330
1F
100
AcDbEntity
  8
0
  6
HIDDEN
 62
     7
100
AcDbLine
 10
8.2963452574
 20
4.5854499399
 30
0.0
 11
8.3418059086
 21
4.5854499399
 31
0.0
  0
LINE
  5
17D
330
1F
100
AcDbEntity
  8
0
  6
HIDDEN
 62
     7
100
AcDbLine
 10
8.2963452574
 20
4.5854499399
 30
0.0
 11
8.2963452574
 21
4.7429302549
 31
0.0
  0
LINE
  5
17E
330
1F
100
AcDbEntity
  8
0
  6
HIDDEN
 62
     7
100
AcDbLine
 10
8.2054239552
 20
4.5854499399
 30
0.0
 11
8.2963452574
 21
4.5854499399
 31
0.0
  0
LINE
  5
17F
330
1F
100
AcDbEntity
  8
0
  6
HIDDEN
 62
     7
100
AcDbLine
 10
8.2054239552
 20
4.5854499399
 30
0.0
 11
8.2054239552
 21
4.7429302549
 31
0.0
  0
LINE
  5
180
330
1F
100
AcDbEntity
  8
0
  6
HIDDEN
 62
     7
100
AcDbLine
 10
8.1599633041
 20
4.5854499399
 30
0.0
 11
8.2054239552
 21
4.5854499399
 31
0.0
  0
LINE
  5
181
330
1F
100
AcDbEntity
  8
0
  6
HIDDEN
 62
     7
100
AcDbLine
 10
8.3418059086
 20
4.5854499399
 30
0.0
 11
8.3418059086
 21
4.7429302549
 31
0.0
  0
LINE
  5
182
330
1F
100
AcDbEntity
  8
0
  6
HIDDEN
 62
     7
100
AcDbLine
 10
8.1599633041
 20
4.5854499399
 30
0.0
 11
8.1599633041
 21
4.7429302549
 31
0.0
  0
SPLINE
  5
183
330
1F
100
AcDbEntity
  8
0
  6
HIDDEN
 62
     7
100
AcDbSpline
210
0.0
220
0.0
230
1.0
 70
    24
 71
     3
 72
     8
 73
     4
 74
     0
 42
0.00000001
 43
0.00000001
 40
0.0
 40
0.0
 40
0.0
 40
0.0
 40
0.0007493652071751
 40
0.0007493652071751
 40
0.0007493652071751
 40
0.0007493652071751
 10
7.817813740182255
 20
4.620559360368016
 30
0.0
 10
7.817813740182255
 20
4.627892556737206
 30
0.0
 10
7.817813740182255
 20
4.635217386666878
 30
0.0
 10
7.817813740182255
 20
4.642534362007938
 30
0.0
  0
SPLINE
  5
184
330
1F
100
AcDbEntity
  8
0
  6
HIDDEN
 62
     7
100
AcDbSpline
210
0.0
220
0.0
230
1.0
 70
    24
 71
     3
 72
     8
 73
     4
 74
     0
 42
0.00000001
 43
0.00000001
 40
0.0
 40
0.0
 40
0.0
 40
0.0
 40
0.0007493652071751
 40
0.0007493652071751
 40
0.0007493652071751
 40
0.0007493652071751
 10
7.817813740182255
 20
2.874822210776157
 30
0.0
 10
7.817813740182255
 20
2.882139186117216
 30
0.0
 10
7.817813740182255
 20
2.889464016046888
 30
0.0
 10
7.817813740182255
 20
2.896797212416079
 30
0.0
  0
LINE
  5
185
330
1F
100
AcDbEntity
  8
0
  6
HIDDEN
 62
     7
100
AcDbLine
 10
8.6839554725
 20
2.8748222108
 30
0.0
 11
8.6839554725
 21
4.642534362
 31
0.0
  0
LINE
  5
186
330
1F
100
AcDbEntity
  8
0
  6
HIDDEN
 62
     7
100
AcDbLine
 10
7.8178137402
 20
2.8967972124
 30
0.0
 11
7.8178137402
 21
4.6205593604
 31
0.0
  0
LINE
  5
187
330
1F
100
AcDbEntity
  8
0
  6
HIDDEN
 62
     7
100
AcDbLine
 10
7.2764751575
 20
3.6198324598
 30
0.0
 11
7.2764751575
 21
3.897524113
 31
0.0
  0
LINE
  5
188
330
1F
100
AcDbEntity
  8
0
  6
HIDDEN
 62
     7
100
AcDbLine
 10
7.9654515355
 20
3.9161586014
 30
0.0
 11
7.9654515355
 21
3.6011979714
 31
0.0
  0
LINE
  5
189
330
1F
100
AcDbEntity
  8
0
  6
HIDDEN
 62
     7
100
AcDbLine
 10
7.9752940551
 20
3.7586782864
 30
0.0
 11
7.9752940551
 21
3.9063160817
 31
0.0
  0
LINE
  5
18A
330
1F
100
AcDbEntity
  8
0
  6
HIDDEN
 62
     7
100
AcDbLine
 10
7.9752940551
 20
3.6110404911
 30
0.0
 11
7.9752940551
 21
3.7586782864
 31
0.0
  0
LINE
  5
18B
330
1F
100
AcDbEntity
  8
0
  6
HIDDEN
 62
     7
100
AcDbLine
 10
7.4241129528
 20
3.8041389375
 30
0.0
 11
7.4241129528
 21
3.7132176353
 31
0.0
  0
LINE
  5
18C
330
1F
100
AcDbEntity
  8
0
  6
HIDDEN
 62
     7
100
AcDbLine
 10
7.4241129528
 20
3.8495995886
 30
0.0
 11
7.4241129528
 21
3.8041389375
 31
0.0
  0
LINE
  5
18D
330
1F
100
AcDbEntity
  8
0
  6
HIDDEN
 62
     7
100
AcDbLine
 10
7.4241129528
 20
3.8041389375
 30
0.0
 11
7.2666326378
 21
3.8041389375
 31
0.0
  0
LINE
  5
18E
330
1F
100
AcDbEntity
  8
0
  6
HIDDEN
 62
     7
100
AcDbLine
 10
7.4241129528
 20
3.7132176353
 30
0.0
 11
7.4241129528
 21
3.6677569842
 31
0.0
  0
LINE
  5
18F
330
1F
100
AcDbEntity
  8
0
  6
HIDDEN
 62
     7
100
AcDbLine
 10
7.4241129528
 20
3.7132176353
 30
0.0
 11
7.2666326378
 21
3.7132176353
 31
0.0
  0
LINE
  5
190
330
1F
100
AcDbEntity
  8
0
  6
HIDDEN
 62
     7
100
AcDbLine
 10
7.4241129528
 20
3.6677569842
 30
0.0
 11
7.2666326378
 21
3.6677569842
 31
0.0
  0
LINE
  5
191
330
1F
100
AcDbEntity
  8
0
  6
HIDDEN
 62
     7
100
AcDbLine
 10
7.4241129528
 20
3.8495995886
 30
0.0
 11
7.2666326378
 21
3.8495995886
 31
0.0
  0
LINE
  5
192
330
1F
100
AcDbEntity
  8
0
  6
HIDDEN
 62
     7
100
AcDbLine
 10
9.1200693291
 20
4.1917491525
 30
0.0
 11
9.1347406819
 21
4.1917491525
 31
0.0
  0
LINE
  5
193
330
1F
100
AcDbEntity
  8
0
  6
HIDDEN
 62
     7
100
AcDbLine
 10
9.1347406819
 20
3.3256074203
 30
0.0
 11
9.115092926
 21
3.3256074203
 31
0.0
  0
LINE
  5
194
330
1F
100
AcDbEntity
  8
0
  6
HIDDEN
 62
     7
100
AcDbLine
 10
9.1127656803
 20
4.1917491525
 30
0.0
 11
7.3890043338
 21
4.1917491525
 31
0.0
  0
LINE
  5
195
330
1F
100
AcDbEntity
  8
0
  6
HIDDEN
 62
     7
100
AcDbLine
 10
7.3867127686
 20
4.1917491525
 30
0.0
 11
7.3670285307
 21
4.1917491525
 31
0.0
  0
LINE
  5
196
330
1F
100
AcDbEntity
  8
0
  6
HIDDEN
 62
     7
100
AcDbLine
 10
9.1127656803
 20
3.3256074203
 30
0.0
 11
7.3890080086
 21
3.3256074203
 31
0.0
  0
LINE
  5
197
330
1F
100
AcDbEntity
  8
0
  6
HIDDEN
 62
     7
100
AcDbLine
 10
7.3817363655
 20
3.3256074203
 30
0.0
 11
7.3670285307
 21
3.3256074203
 31
0.0
  0
SPLINE
  5
198
330
1F
100
AcDbEntity
  8
0
  6
HIDDEN
 62
     7
100
AcDbSpline
210
0.0
220
0.0
230
1.0
 70
    24
 71
     3
 72
     8
 73
     4
 74
     0
 42
0.00000001
 43
0.00000001
 40
0.0
 40
0.0
 40
0.0
 40
0.0
 40
0.0005752664977959
 40
0.0005752664977959
 40
0.0005752664977959
 40
0.0005752664977959
 10
8.701374323351189
 20
4.633784538430409
 30
0.0
 10
8.695580552910384
 20
4.631801325892956
 30
0.0
 10
8.689774440667689
 20
4.629813888746246
 30
0.0
 10
8.683955472465724
 20
4.627822050993768
 30
0.0
  0
SPLINE
  5
199
330
1F
100
AcDbEntity
  8
0
  6
HIDDEN
 62
     7
100
AcDbSpline
210
0.0
220
0.0
230
1.0
 70
    24
 71
     3
 72
     8
 73
     4
 74
     0
 42
0.00000001
 43
0.00000001
 40
0.0
 40
0.0
 40
0.0
 40
0.0
 40
0.0006505060239605
 40
0.0006505060239605
 40
0.0006505060239605
 40
0.0006505060239605
 10
8.683955472465724
 20
2.894507250146236
 30
0.0
 10
8.688334141459933
 20
2.890128581152027
 30
0.0
 10
8.692710722233315
 20
2.885752000378646
 30
0.0
 10
8.69708532753213
 20
2.88137739507983
 30
0.0
  0
LINE
  5
19A
330
1F
100
AcDbEntity
  8
0
  6
HIDDEN
 62
     7
100
AcDbLine
 10
8.6839554725
 20
2.8967972124
 30
0.0
 11
8.6839554725
 21
4.6205593604
 31
0.0
  0
SPLINE
  5
19B
330
1F
100
AcDbEntity
  8
0
  6
HIDDEN
 62
     7
100
AcDbSpline
210
0.0
220
0.0
230
1.0
 70
    24
 71
     3
 72
     8
 73
     4
 74
     0
 42
0.00000001
 43
0.00000001
 40
0.0
 40
0.0
 40
0.0
 40
0.0
 40
0.0005752664977958
 40
0.0005752664977958
 40
0.0005752664977958
 40
0.0005752664977958
 10
7.800394889296792
 20
2.883572034353685
 30
0.0
 10
7.806188659737596
 20
2.885555246891138
 30
0.0
 10
7.81199477198029
 20
2.887542684037849
 30
0.0
 10
7.817813740182255
 20
2.889534521790325
 30
0.0
  0
SPLINE
  5
19C
330
1F
100
AcDbEntity
  8
0
  6
HIDDEN
 62
     7
100
AcDbSpline
210
0.0
220
0.0
230
1.0
 70
    24
 71
     3
 72
     8
 73
     4
 74
     0
 42
0.00000001
 43
0.00000001
 40
0.0
 40
0.0
 40
0.0
 40
0.0
 40
0.0006505060239605
 40
0.0006505060239605
 40
0.0006505060239605
 40
0.0006505060239605
 10
7.80468388511585
 20
4.635979177704264
 30
0.0
 10
7.809058490414666
 20
4.631604572405449
 30
0.0
 10
7.813435071188048
 20
4.627227991632067
 30
0.0
 10
7.817813740182255
 20
4.622849322637858
 30
0.0
  0
SPLINE
  5
19D
330
1F
100
AcDbEntity
  8
0
  6
HIDDEN
 62
     7
100
AcDbSpline
210
0.0
220
0.0
230
1.0
 70
    24
 71
     3
 72
     8
 73
     4
 74
     0
 42
0.00000001
 43
0.00000001
 40
0.0
 40
0.0
 40
0.0
 40
0.0
 40
0.0006505060239605
 40
0.0006505060239605
 40
0.0006505060239605
 40
0.0006505060239605
 10
9.128185497636208
 20
3.31247756518391
 30
0.0
 10
9.123810892337392
 20
3.316852170482726
 30
0.0
 10
9.11943431156401
 20
3.321228751256107
 30
0.0
 10
9.115055642569803
 20
3.325607420250316
 30
0.0
  0
SPLINE
  5
19E
330
1F
100
AcDbEntity
  8
0
  6
HIDDEN
 62
     7
100
AcDbSpline
210
0.0
220
0.0
230
1.0
 70
    24
 71
     3
 72
     8
 73
     4
 74
     0
 42
0.00000001
 43
0.00000001
 40
0.0
 40
0.0
 40
0.0
 40
0.0
 40
0.0005752664977959
 40
0.0005752664977959
 40
0.0005752664977959
 40
0.0005752664977959
 10
9.120028370925711
 20
4.191749152533784
 30
0.0
 10
9.122020208678187
 20
4.19756812073575
 30
0.0
 10
9.124007645824898
 20
4.203374232978444
 30
0.0
 10
9.12599085836235
 20
4.209168003419249
 30
0.0
  0
SPLINE
  5
19F
330
1F
100
AcDbEntity
  8
0
  6
HIDDEN
 62
     7
100
AcDbSpline
210
0.0
220
0.0
230
1.0
 70
    24
 71
     3
 72
     8
 73
     4
 74
     0
 42
0.00000001
 43
0.00000001
 40
0.0
 40
0.0
 40
0.0
 40
0.0
 40
0.0006505060239605
 40
0.0006505060239605
 40
0.0006505060239605
 40
0.0006505060239605
 10
7.386713570078177
 20
4.191749152533779
 30
0.0
 10
7.382334901083968
 20
4.196127821527987
 30
0.0
 10
7.377958320310587
 20
4.200504402301368
 30
0.0
 10
7.373583715011772
 20
4.204879007600184
 30
0.0
  0
SPLINE
  5
1A0
330
1F
100
AcDbEntity
  8
0
  6
HIDDEN
 62
     7
100
AcDbSpline
210
0.0
220
0.0
230
1.0
 70
    24
 71
     3
 72
     8
 73
     4
 74
     0
 42
0.00000001
 43
0.00000001
 40
0.0
 40
0.0
 40
0.0
 40
0.0
 40
0.0005752664977959
 40
0.0005752664977959
 40
0.0005752664977959
 40
0.0005752664977959
 10
7.381740841722271
 20
3.325607420250309
 30
0.0
 10
7.379749003969794
 20
3.319788452048344
 30
0.0
 10
7.377761566823082
 20
3.31398233980565
 30
0.0
 10
7.37577835428563
 20
3.308188569364845
 30
0.0
  0
LINE
  5
1A1
330
1F
100
AcDbEntity
  8
0
  6
HIDDEN
 62
     7
100
AcDbLine
 10
7.3890035323
 20
4.1917491525
 30
0.0
 11
7.3867135701
 21
4.1917491525
 31
0.0
  0
SPLINE
  5
1A2
330
1F
100
AcDbEntity
  8
0
  6
HIDDEN
 62
     7
100
AcDbSpline
210
0.0
220
0.0
230
1.0
 70
    24
 71
     3
 72
     8
 73
     4
 74
     0
 42
0.00000001
 43
0.00000001
 40
0.0
 40
0.0
 40
0.0
 40
0.0
 40
0.0002474794652934
 40
0.0002474794652934
 40
0.0002474794652934
 40
0.0002474794652934
 10
9.120028370925711
 20
4.191749152533784
 30
0.0
 10
9.117608374670395
 20
4.191749152533784
 30
0.0
 10
9.11518748411332
 20
4.191749152533784
 30
0.0
 10
9.112765680299956
 20
4.191749152533784
 30
0.0
  0
SPLINE
  5
1A3
330
1F
100
AcDbEntity
  8
0
  6
HIDDEN
 62
     7
100
AcDbSpline
210
0.0
220
0.0
230
1.0
 70
    24
 71
     3
 72
     8
 73
     4
 74
     0
 42
0.00000001
 43
0.00000001
 40
0.0
 40
0.0
 40
0.0
 40
0.0
 40
0.0002474794652933
 40
0.0002474794652933
 40
0.0002474794652933
 40
0.0002474794652933
 10
7.381740841722271
 20
3.325607420250309
 30
0.0
 10
7.384160837977585
 20
3.325607420250309
 30
0.0
 10
7.38658172853466
 20
3.325607420250309
 30
0.0
 10
7.389003532348022
 20
3.325607420250309
 30
0.0
  0
LINE
  5
1A4
330
1F
100
AcDbEntity
  8
0
  6
HIDDEN
 62
     7
100
AcDbLine
 10
9.1127656803
 20
3.3256074203
 30
0.0
 11
9.1150556426
 21
3.3256074203
 31
0.0
  0
LINE
  5
1A5
330
1F
100
AcDbEntity
  8
0
  6
HIDDEN
 62
     7
100
AcDbLine
 10
9.1127656803
 20
3.3256074203
 30
0.0
 11
7.3890035323
 21
3.3256074203
 31
0.0
  0
LINE
  5
1A6
330
1F
100
AcDbEntity
  8
0
  6
HIDDEN
 62
     7
100
AcDbLine
 10
7.3890035323
 20
4.1917491525
 30
0.0
 11
9.1127656803
 21
4.1917491525
 31
0.0
  0
LINE
  5
1A7
330
1F
100
AcDbEntity
  8
0
  6
HIDDEN
 62
     7
100
AcDbLine
 10
8.0934042914
 20
4.7302501509
 30
0.0
 11
8.0934042914
 21
4.0441113573
 31
0.0
  0
LINE
  5
1A8
330
1F
100
AcDbEntity
  8
0
  6
HIDDEN
 62
     7
100
AcDbLine
 10
8.4083649213
 20
4.0441113573
 30
0.0
 11
8.4083649213
 21
4.7302501509
 31
0.0
  0
LINE
  5
1A9
330
1F
100
AcDbEntity
  8
0
  6
HIDDEN
 62
     7
100
AcDbLine
 10
8.0934042914
 20
4.0441113573
 30
0.0
 11
8.103246811
 21
4.0342688376
 31
0.0
  0
LINE
  5
1AA
330
1F
100
AcDbEntity
  8
0
  6
HIDDEN
 62
     7
100
AcDbLine
 10
8.3985224016
 20
4.0342688376
 30
0.0
 11
8.4083649213
 21
4.0441113573
 31
0.0
  0
LINE
  5
1AB
330
1F
100
AcDbEntity
  8
0
  6
HIDDEN
 62
     7
100
AcDbLine
 10
8.4083649213
 20
3.9848421701
 30
0.0
 11
8.4083649213
 21
4.7302683327
 31
0.0
  0
LINE
  5
1AC
330
1F
100
AcDbEntity
  8
0
  6
HIDDEN
 62
     7
100
AcDbLine
 10
8.0934042914
 20
4.7303351308
 30
0.0
 11
8.0934042914
 21
3.98497861
 31
0.0
  0
LINE
  5
1AD
330
1F
100
AcDbEntity
  8
0
  6
HIDDEN
 62
     7
100
AcDbLine
 10
7.2793127418
 20
3.6011979714
 30
0.0
 11
7.9654515355
 21
3.6011979714
 31
0.0
  0
LINE
  5
1AE
330
1F
100
AcDbEntity
  8
0
  6
HIDDEN
 62
     7
100
AcDbLine
 10
7.9654515355
 20
3.9161586014
 30
0.0
 11
7.2793127418
 21
3.9161586014
 31
0.0
  0
LINE
  5
1AF
330
1F
100
AcDbEntity
  8
0
  6
HIDDEN
 62
     7
100
AcDbLine
 10
7.9654515355
 20
3.6011979714
 30
0.0
 11
7.9752940551
 21
3.6110404911
 31
0.0
  0
LINE
  5
1B0
330
1F
100
AcDbEntity
  8
0
  6
HIDDEN
 62
     7
100
AcDbLine
 10
7.9752940551
 20
3.9063160817
 30
0.0
 11
7.9654515355
 21
3.9161586014
 31
0.0
  0
LINE
  5
1B1
330
1F
100
AcDbEntity
  8
0
  6
HIDDEN
 62
     7
100
AcDbLine
 10
8.0247207226
 20
3.9161586014
 30
0.0
 11
7.2792940201
 21
3.9161586014
 31
0.0
  0
LINE
  5
1B2
330
1F
100
AcDbEntity
  8
0
  6
HIDDEN
 62
     7
100
AcDbLine
 10
7.2792278044
 20
3.6011979714
 30
0.0
 11
8.024584162
 21
3.6011979714
 31
0.0
  0
LINE
  5
1B3
330
1F
100
AcDbEntity
  8
0
  6
CONTINUOUS
 62
     7
100
AcDbLine
 10
3.7597069695
 20
5.6877251704
 30
0.0
 11
4.0549825601
 21
5.6877251704
 31
0.0
  0
LINE
  5
1B4
330
1F
100
AcDbEntity
  8
0
  6
CONTINUOUS
 62
     7
100
AcDbLine
 10
4.0549825601
 20
7.6562291074
 30
0.0
 11
3.7400219302
 21
7.6562291074
 31
0.0
  0
LINE
  5
1B5
330
1F
100
AcDbEntity
  8
0
  6
CONTINUOUS
 62
     7
100
AcDbLine
 10
4.0549825601
 20
5.6877251704
 30
0.0
 11
4.0746675994
 21
5.7074102098
 31
0.0
  0
LINE
  5
1B6
330
1F
100
AcDbEntity
  8
0
  6
CONTINUOUS
 62
     7
100
AcDbLine
 10
4.0746675994
 20
7.6365440681
 30
0.0
 11
4.0549825601
 21
7.6562291074
 31
0.0
  0
LINE
  5
1B7
330
1F
100
AcDbEntity
  8
0
  6
CONTINUOUS
 62
     7
100
AcDbLine
 10
3.7400219302
 20
5.7074102098
 30
0.0
 11
3.7597069695
 21
5.6877251704
 31
0.0
  0
LINE
  5
1B8
330
1F
100
AcDbEntity
  8
0
  6
CONTINUOUS
 62
     7
100
AcDbLine
 10
2.764291703
 20
5.6890459487
 30
0.0
 11
2.7656124813
 21
5.6877251704
 31
0.0
  0
LINE
  5
1B9
330
1F
100
AcDbEntity
  8
0
  6
CONTINUOUS
 62
     7
100
AcDbLine
 10
3.0608880719
 20
5.6877251704
 30
0.0
 11
3.0622066937
 21
5.6890437922
 31
0.0
  0
LINE
  5
1BA
330
1F
100
AcDbEntity
  8
0
  6
CONTINUOUS
 62
     7
100
AcDbLine
 10
3.2085258672
 20
7.6562291074
 30
0.0
 11
2.5982896467
 21
7.6562291074
 31
0.0
  0
LINE
  5
1BB
330
1F
100
AcDbEntity
  8
0
  6
CONTINUOUS
 62
     7
100
AcDbLine
 10
3.0707305916
 20
5.6877251704
 30
0.0
 11
3.2282109065
 21
5.6877251704
 31
0.0
  0
LINE
  5
1BC
330
1F
100
AcDbEntity
  8
0
  6
CONTINUOUS
 62
     7
100
AcDbLine
 10
2.5982896467
 20
5.6877251704
 30
0.0
 11
2.7562095534
 21
5.6877251704
 31
0.0
  0
LINE
  5
1BD
330
1F
100
AcDbEntity
  8
0
  6
CONTINUOUS
 62
     7
100
AcDbLine
 10
2.5982896467
 20
7.6562291074
 30
0.0
 11
2.5786046073
 21
7.6365440681
 31
0.0
  0
LINE
  5
1BE
330
1F
100
AcDbEntity
  8
0
  6
CONTINUOUS
 62
     7
100
AcDbLine
 10
2.5786046073
 20
5.7074102098
 30
0.0
 11
2.5982896467
 21
5.6877251704
 31
0.0
  0
LINE
  5
1BF
330
1F
100
AcDbEntity
  8
0
  6
CONTINUOUS
 62
     7
100
AcDbLine
 10
3.2282109065
 20
7.6365440681
 30
0.0
 11
3.2085258672
 21
7.6562291074
 31
0.0
  0
LINE
  5
1C0
330
1F
100
AcDbEntity
  8
0
  6
CONTINUOUS
 62
     7
100
AcDbLine
 10
3.2478959459
 20
5.6877251704
 30
0.0
 11
3.7203368908
 21
5.6877251704
 31
0.0
  0
LINE
  5
1C1
330
1F
100
AcDbEntity
  8
0
  6
CONTINUOUS
 62
     7
100
AcDbLine
 10
3.7203368908
 20
7.6562291074
 30
0.0
 11
3.2478959459
 21
7.6562291074
 31
0.0
  0
LINE
  5
1C2
330
1F
100
AcDbEntity
  8
0
  6
CONTINUOUS
 62
     7
100
AcDbLine
 10
3.7203368908
 20
5.6877251704
 30
0.0
 11
3.7400219302
 21
5.7074102098
 31
0.0
  0
LINE
  5
1C3
330
1F
100
AcDbEntity
  8
0
  6
CONTINUOUS
 62
     7
100
AcDbLine
 10
3.7400219302
 20
7.6365440681
 30
0.0
 11
3.7203368908
 21
7.6562291074
 31
0.0
  0
LINE
  5
1C4
330
1F
100
AcDbEntity
  8
0
  6
CONTINUOUS
 62
     7
100
AcDbLine
 10
3.2478959459
 20
7.6562291074
 30
0.0
 11
3.2282109065
 21
7.6365440681
 31
0.0
  0
LINE
  5
1C5
330
1F
100
AcDbEntity
  8
0
  6
CONTINUOUS
 62
     7
100
AcDbLine
 10
3.2282109065
 20
5.7074102098
 30
0.0
 11
3.2478959459
 21
5.6877251704
 31
0.0
  0
CIRCLE
  5
1C6
330
1F
100
AcDbEntity
  8
0
  6
CONTINUOUS
 62
     7
100
AcDbCircle
 10
3.7400219302
 20
6.6719771389
 30
0.0
 40
0.1476377952755903
  0
LINE
  5
1C7
330
1F
100
AcDbEntity
  8
0
  6
CONTINUOUS
 62
     7
100
AcDbLine
 10
3.6612817727
 20
6.71743779
 30
0.0
 11
3.6612817727
 21
6.6265164878
 31
0.0
  0
LINE
  5
1C8
330
1F
100
AcDbEntity
  8
0
  6
CONTINUOUS
 62
     7
100
AcDbLine
 10
3.6612817727
 20
6.6265164878
 30
0.0
 11
3.7400219302
 21
6.5810558367
 31
0.0
  0
LINE
  5
1C9
330
1F
100
AcDbEntity
  8
0
  6
CONTINUOUS
 62
     7
100
AcDbLine
 10
3.7400219302
 20
6.5810558367
 30
0.0
 11
3.8187620876
 21
6.6265164878
 31
0.0
  0
LINE
  5
1CA
330
1F
100
AcDbEntity
  8
0
  6
CONTINUOUS
 62
     7
100
AcDbLine
 10
3.8187620876
 20
6.6265164878
 30
0.0
 11
3.8187620876
 21
6.71743779
 31
0.0
  0
LINE
  5
1CB
330
1F
100
AcDbEntity
  8
0
  6
CONTINUOUS
 62
     7
100
AcDbLine
 10
3.8187620876
 20
6.71743779
 30
0.0
 11
3.7400219302
 21
6.7628984412
 31
0.0
  0
LINE
  5
1CC
330
1F
100
AcDbEntity
  8
0
  6
CONTINUOUS
 62
     7
100
AcDbLine
 10
3.7400219302
 20
6.7628984412
 30
0.0
 11
3.6612817727
 21
6.71743779
 31
0.0
  0
CIRCLE
  5
1CD
330
1F
100
AcDbEntity
  8
0
  6
CONTINUOUS
 62
     7
100
AcDbCircle
 10
3.7400219302
 20
6.6719771389
 30
0.0
 40
0.1574803149606296
  0
LINE
  5
1CE
330
1F
100
AcDbEntity
  8
0
  6
CONTINUOUS
 62
     7
100
AcDbLine
 10
3.7597069695
 20
6.2389062728
 30
0.0
 11
3.7597069695
 21
5.6877251704
 31
0.0
  0
LINE
  5
1CF
330
1F
100
AcDbEntity
  8
0
  6
CONTINUOUS
 62
     7
100
AcDbLine
 10
3.4447463396
 20
6.2389062728
 30
0.0
 11
3.7597069695
 21
6.2389062728
 31
0.0
  0
LINE
  5
1D0
330
1F
100
AcDbEntity
  8
0
  6
CONTINUOUS
 62
     7
100
AcDbLine
 10
3.4447463396
 20
7.1050480051
 30
0.0
 11
3.4447463396
 21
6.2389062728
 31
0.0
  0
LINE
  5
1D1
330
1F
100
AcDbEntity
  8
0
  6
CONTINUOUS
 62
     7
100
AcDbLine
 10
3.7400219302
 20
7.1050480051
 30
0.0
 11
3.4447463396
 21
7.1050480051
 31
0.0
  0
LINE
  5
1D2
330
1F
100
AcDbEntity
  8
0
  6
CONTINUOUS
 62
     7
100
AcDbLine
 10
3.7400219302
 20
7.6562291074
 30
0.0
 11
3.7400219302
 21
7.1050480051
 31
0.0
  0
SPLINE
  5
1D3
330
1F
100
AcDbEntity
  8
0
  6
CONTINUOUS
 62
     7
100
AcDbSpline
210
0.0
220
0.0
230
1.0
 70
     8
 71
     3
 72
    14
 73
    10
 74
     0
 42
0.00000001
 43
0.00000001
 40
0.0
 40
0.0
 40
0.0
 40
0.0
 40
0.1526439618761198
 40
0.3097488400121817
 40
0.4623831846385648
 40
0.6193790542717558
 40
0.773209292220613
 40
0.9314484970585617
 40
1.0
 40
1.0
 40
1.0
 40
1.0
 10
3.582541615195576
 20
6.671977138916426
 30
0.0
 10
3.582956448144619
 20
6.663311888940639
 30
0.0
 10
3.583798237254292
 20
6.64572815293545
 30
0.0
 10
3.590562238435103
 20
6.620213999000259
 30
0.0
 10
3.601258991627018
 20
6.595966389214276
 30
0.0
 10
3.615779243775967
 20
6.573954482706361
 30
0.0
 10
3.634058527611648
 20
6.554680439582707
 30
0.0
 10
3.650969810799663
 20
6.541035894460255
 30
0.0
 10
3.662485287197901
 20
6.53533284391203
 30
0.0
 10
3.665966043627101
 20
6.533608996007238
 30
0.0
  0
SPLINE
  5
1D4
330
1F
100
AcDbEntity
  8
0
  6
CONTINUOUS
 62
     7
100
AcDbSpline
210
0.0
220
0.0
230
1.0
 70
     8
 71
     3
 72
    21
 73
    17
 74
     0
 42
0.00000001
 43
0.00000001
 40
0.0
 40
0.0
 40
0.0
 40
0.0
 40
0.0538710156438499
 40
0.1323475515179249
 40
0.2095113799549113
 40
0.2889078826383128
 40
0.3660994890458703
 40
0.445577366068558
 40
0.5219380954715229
 40
0.6005390190340032
 40
0.6765066235955697
 40
0.7546435332489871
 40
0.8312422485725599
 40
0.9100206254133765
 40
0.987320742966134
 40
1.0
 40
1.0
 40
1.0
 40
1.0
 10
3.814106946339719
 20
6.533513433614764
 30
0.0
 10
3.819476588694641
 20
6.536421273231859
 30
0.0
 10
3.832668450955029
 20
6.543565104639709
 30
0.0
 10
3.850782704725782
 20
6.559124011051146
 30
0.0
 10
3.86825834385764
 20
6.579241185630061
 30
0.0
 10
3.881950082074522
 20
6.602035280601384
 30
0.0
 10
3.891741638569219
 20
6.627036103342558
 30
0.0
 10
3.897111796994817
 20
6.653038557766084
 30
0.0
 10
3.898051458981106
 20
6.679731590417845
 30
0.0
 10
3.894575082387388
 20
6.705814812713513
 30
0.0
 10
3.886762893589845
 20
6.731123532545942
 30
0.0
 10
3.874965218436972
 20
6.754540121166261
 30
0.0
 10
3.859318168350439
 20
6.776005628288279
 30
0.0
 10
3.84020344130368
 20
6.794109827090592
 30
0.0
 10
3.824805849469534
 20
6.805775603384638
 30
0.0
 10
3.815509070414914
 20
6.809952666541764
 30
0.0
 10
3.81419903406756
 20
6.810541268737092
 30
0.0
  0
SPLINE
  5
1D5
330
1F
100
AcDbEntity
  8
0
  6
CONTINUOUS
 62
     7
100
AcDbSpline
210
0.0
220
0.0
230
1.0
 70
     8
 71
     3
 72
    16
 73
    12
 74
     0
 42
0.00000001
 43
0.00000001
 40
0.0
 40
0.0
 40
0.0
 40
0.0
 40
0.1061919154281593
 40
0.2239586059402672
 40
0.3450688573338194
 40
0.4641253951060751
 40
0.5865924029527669
 40
0.7063064696462327
 40
0.8295463834459033
 40
0.9141548631492804
 40
1.0
 40
1.0
 40
1.0
 40
1.0
 10
3.71244008742224
 20
6.826774086660659
 30
0.0
 10
3.704813570452325
 20
6.825177026934144
 30
0.0
 10
3.688729256482893
 20
6.821808830132047
 30
0.0
 10
3.665514513322309
 20
6.811466585966344
 30
0.0
 10
3.643426633974856
 20
6.797304664967494
 30
0.0
 10
3.623800271706336
 20
6.779337797244127
 30
0.0
 10
3.607506190977751
 20
6.75843762542979
 30
0.0
 10
3.594783808838628
 20
6.734809440785045
 30
0.0
 10
3.587165891626459
 20
6.711970367146285
 30
0.0
 10
3.583193379370547
 20
6.690763040531684
 30
0.0
 10
3.58275991818789
 20
6.678269320495938
 30
0.0
 10
3.582541615195576
 20
6.671977138916426
 30
0.0
  0
LINE
  5
1D6
330
1F
100
AcDbEntity
  8
0
  6
CONTINUOUS
 62
     7
100
AcDbLine
 10
4.0549825601
 20
5.6877251704
 30
0.0
 11
4.0549825601
 21
7.6562291074
 31
0.0
  0
LINE
  5
1D7
330
1F
100
AcDbEntity
  8
0
  6
CONTINUOUS
 62
     7
100
AcDbLine
 10
4.0746675994
 20
7.6365440681
 30
0.0
 11
4.0746675994
 21
5.7074102098
 31
0.0
  0
SPLINE
  5
1D8
330
1F
100
AcDbEntity
  8
0
  6
CONTINUOUS
 62
     7
100
AcDbSpline
210
0.0
220
0.0
230
1.0
 70
    24
 71
     3
 72
     8
 73
     4
 74
     0
 42
0.00000001
 43
0.00000001
 40
0.0
 40
0.0
 40
0.0
 40
0.0
 40
0.0007493652071751
 40
0.0007493652071751
 40
0.0007493652071751
 40
0.0007493652071751
 10
3.444746339605023
 20
6.238906272774692
 30
0.0
 10
3.43817571204493
 20
6.238906272774692
 30
0.0
 10
3.431613819268569
 20
6.238906272774692
 30
0.0
 10
3.425061300234944
 20
6.238906272774692
 30
0.0
  0
LINE
  5
1D9
330
1F
100
AcDbEntity
  8
0
  6
CONTINUOUS
 62
     7
100
AcDbLine
 10
3.4250613002
 20
6.2389062728
 30
0.0
 11
3.4250613002
 21
7.1050480051
 31
0.0
  0
SPLINE
  5
1DA
330
1F
100
AcDbEntity
  8
0
  6
CONTINUOUS
 62
     7
100
AcDbSpline
210
0.0
220
0.0
230
1.0
 70
    24
 71
     3
 72
     8
 73
     4
 74
     0
 42
0.00000001
 43
0.00000001
 40
0.0
 40
0.0
 40
0.0
 40
0.0
 40
0.0007493652071751
 40
0.0007493652071751
 40
0.0007493652071751
 40
0.0007493652071751
 10
3.425061300234944
 20
7.105048005058161
 30
0.0
 10
3.431613819268569
 20
7.105048005058161
 30
0.0
 10
3.43817571204493
 20
7.105048005058161
 30
0.0
 10
3.444746339605023
 20
7.105048005058161
 30
0.0
  0
LINE
  5
1DB
330
1F
100
AcDbEntity
  8
0
  6
CONTINUOUS
 62
     7
100
AcDbLine
 10
3.7400219302
 20
5.7074102098
 30
0.0
 11
3.7400219302
 21
6.2389062728
 31
0.0
  0
LINE
  5
1DC
330
1F
100
AcDbEntity
  8
0
  6
CONTINUOUS
 62
     7
100
AcDbLine
 10
2.9132502766
 20
5.6975676901
 30
0.0
 11
2.8393558856
 21
5.6975676901
 31
0.0
  0
LINE
  5
1DD
330
1F
100
AcDbEntity
  8
0
  6
CONTINUOUS
 62
     7
100
AcDbLine
 10
2.9879552355
 20
5.6975676901
 30
0.0
 11
2.9132502766
 21
5.6975676901
 31
0.0
  0
LINE
  5
1DE
330
1F
100
AcDbEntity
  8
0
  6
CONTINUOUS
 62
     7
100
AcDbLine
 10
2.7656124813
 20
5.6877251704
 30
0.0
 11
3.0608880719
 21
5.6877251704
 31
0.0
  0
LINE
  5
1DF
330
1F
100
AcDbEntity
  8
0
  6
CONTINUOUS
 62
     7
100
AcDbLine
 10
3.2085258672
 20
7.5558332145
 30
0.0
 11
3.2085258672
 21
7.6562291074
 31
0.0
  0
LINE
  5
1E0
330
1F
100
AcDbEntity
  8
0
  6
CONTINUOUS
 62
     7
100
AcDbLine
 10
3.2085258672
 20
7.5558332145
 30
0.0
 11
2.8935652372
 21
7.5558332145
 31
0.0
  0
LINE
  5
1E1
330
1F
100
AcDbEntity
  8
0
  6
CONTINUOUS
 62
     7
100
AcDbLine
 10
2.8935652372
 20
5.7881210633
 30
0.0
 11
2.8935652372
 21
7.5558332145
 31
0.0
  0
LINE
  5
1E2
330
1F
100
AcDbEntity
  8
0
  6
CONTINUOUS
 62
     7
100
AcDbLine
 10
2.8935652372
 20
5.7881210633
 30
0.0
 11
3.2282109065
 21
5.7881210633
 31
0.0
  0
LINE
  5
1E3
330
1F
100
AcDbEntity
  8
0
  6
CONTINUOUS
 62
     7
100
AcDbLine
 10
3.2282109065
 20
5.7881210633
 30
0.0
 11
3.2282109065
 21
5.6877251704
 31
0.0
  0
SPLINE
  5
1E4
330
1F
100
AcDbEntity
  8
0
  6
CONTINUOUS
 62
     7
100
AcDbSpline
210
0.0
220
0.0
230
1.0
 70
     8
 71
     3
 72
    27
 73
    23
 74
     0
 42
0.00000001
 43
0.00000001
 40
0.0
 40
0.0
 40
0.0
 40
0.0
 40
0.0150903511411993
 40
0.0691169967896545
 40
0.121333620544046
 40
0.1750413244561363
 40
0.2276917446083111
 40
0.2818403634468168
 40
0.3349728951057739
 40
0.3896569139990909
 40
0.4425659077489842
 40
0.4970444339448499
 40
0.5493593688863263
 40
0.6031956483625451
 40
0.655477940366573
 40
0.7092445996868323
 40
0.7620995168601877
 40
0.8164685055551874
 40
0.8696153314075613
 40
0.9243274501892568
 40
0.9618892193332579
 40
1.0
 40
1.0
 40
1.0
 40
1.0
 10
2.75620955336485
 20
5.687795324841663
 30
0.0
 10
2.756081975300123
 20
5.687774967475944
 30
0.0
 10
2.755497640806673
 20
5.687681726439476
 30
0.0
 10
2.758897718229846
 20
5.688226158348647
 30
0.0
 10
2.766456661821115
 20
5.689393297381176
 30
0.0
 10
2.778313083108937
 20
5.691111368561956
 30
0.0
 10
2.793981206785308
 20
5.693162108410199
 30
0.0
 10
2.812950741642973
 20
5.695313380662112
 30
0.0
 10
2.835008191243218
 20
5.69735151170056
 30
0.0
 10
2.859154172111738
 20
5.699008507734437
 30
0.0
 10
2.885066663255142
 20
5.700115000285663
 30
0.0
 10
2.911428982128877
 20
5.700524890044096
 30
0.0
 10
2.937980314731084
 20
5.700207375538129
 30
0.0
 10
2.963478736080384
 20
5.699214538737465
 30
0.0
 10
2.987771356959863
 20
5.697643388914154
 30
0.0
 10
3.009841941508184
 20
5.695689483174889
 30
0.0
 10
3.02947293262386
 20
5.693533141581934
 30
0.0
 10
3.045765752093392
 20
5.691444832759483
 30
0.0
 10
3.05848847105667
 20
5.689627913452591
 30
0.0
 10
3.066106302174155
 20
5.688458924888663
 30
0.0
 10
3.070078830169607
 20
5.687829845247022
 30
0.0
 10
3.070512289509354
 20
5.687760230378158
 30
0.0
 10
3.070730591573529
 20
5.68772517041249
 30
0.0
  0
LINE
  5
1E5
330
1F
100
AcDbEntity
  8
0
  6
CONTINUOUS
 62
     7
100
AcDbLine
 10
2.5982896467
 20
7.6562291074
 30
0.0
 11
2.5982896467
 21
5.6877251704
 31
0.0
  0
LINE
  5
1E6
330
1F
100
AcDbEntity
  8
0
  6
CONTINUOUS
 62
     7
100
AcDbLine
 10
2.5786046073
 20
5.7074102098
 30
0.0
 11
2.5786046073
 21
7.6365440681
 31
0.0
  0
LINE
  5
1E7
330
1F
100
AcDbEntity
  8
0
  6
CONTINUOUS
 62
     7
100
AcDbLine
 10
2.9132502766
 20
7.5338582129
 30
0.0
 11
2.9132502766
 21
5.8100960649
 31
0.0
  0
SPLINE
  5
1E8
330
1F
100
AcDbEntity
  8
0
  6
CONTINUOUS
 62
     7
100
AcDbSpline
210
0.0
220
0.0
230
1.0
 70
     8
 71
     3
 72
     8
 73
     4
 74
     0
 42
0.00000001
 43
0.00000001
 40
0.0
 40
0.0
 40
0.0
 40
0.0
 40
0.0007493652071752
 40
0.0007493652071752
 40
0.0007493652071752
 40
0.0007493652071752
 10
2.913250276612899
 20
5.810096064940456
 30
0.0
 10
2.906697757579274
 20
5.802762868571265
 30
0.0
 10
2.900135864802913
 20
5.795438038641594
 30
0.0
 10
2.893565237242819
 20
5.788121063300535
 30
0.0
  0
SPLINE
  5
1E9
330
1F
100
AcDbEntity
  8
0
  6
CONTINUOUS
 62
     7
100
AcDbSpline
210
0.0
220
0.0
230
1.0
 70
     8
 71
     3
 72
     8
 73
     4
 74
     0
 42
0.00000001
 43
0.00000001
 40
0.0
 40
0.0
 40
0.0
 40
0.0
 40
0.0007493652071752
 40
0.0007493652071752
 40
0.0007493652071752
 40
0.0007493652071752
 10
2.893565237242819
 20
7.555833214532316
 30
0.0
 10
2.900135864802913
 20
7.548516239191255
 30
0.0
 10
2.906697757579274
 20
7.541191409261584
 30
0.0
 10
2.913250276612899
 20
7.533858212892393
 30
0.0
  0
LINE
  5
1EA
330
1F
100
AcDbEntity
  8
0
  6
CONTINUOUS
 62
     7
100
AcDbLine
 10
3.2282109065
 20
7.6365440681
 30
0.0
 11
3.2282109065
 21
7.547083391
 31
0.0
  0
LINE
  5
1EB
330
1F
100
AcDbEntity
  8
0
  6
CONTINUOUS
 62
     7
100
AcDbLine
 10
3.2163638926
 20
7.547083391
 30
0.0
 11
3.2085258672
 21
7.5558332145
 31
0.0
  0
LINE
  5
1EC
330
1F
100
AcDbEntity
  8
0
  6
CONTINUOUS
 62
     7
100
AcDbLine
 10
3.2282109065
 20
5.7946762476
 30
0.0
 11
3.2282109065
 21
5.7881210633
 31
0.0
  0
LINE
  5
1ED
330
1F
100
AcDbEntity
  8
0
  6
CONTINUOUS
 62
     7
100
AcDbLine
 10
3.4053762609
 20
7.1224668559
 30
0.0
 11
3.7203368908
 21
7.1224668559
 31
0.0
  0
LINE
  5
1EE
330
1F
100
AcDbEntity
  8
0
  6
CONTINUOUS
 62
     7
100
AcDbLine
 10
3.4053762609
 20
6.2257764177
 30
0.0
 11
3.4053762609
 21
7.1224668559
 31
0.0
  0
LINE
  5
1EF
330
1F
100
AcDbEntity
  8
0
  6
CONTINUOUS
 62
     7
100
AcDbLine
 10
3.7203368908
 20
6.2257764177
 30
0.0
 11
3.4053762609
 21
6.2257764177
 31
0.0
  0
LINE
  5
1F0
330
1F
100
AcDbEntity
  8
0
  6
CONTINUOUS
 62
     7
100
AcDbLine
 10
3.7203368908
 20
5.6877251704
 30
0.0
 11
3.7203368908
 21
6.2257764177
 31
0.0
  0
LINE
  5
1F1
330
1F
100
AcDbEntity
  8
0
  6
CONTINUOUS
 62
     7
100
AcDbLine
 10
3.7203368908
 20
7.1224668559
 30
0.0
 11
3.7203368908
 21
7.6562291074
 31
0.0
  0
LINE
  5
1F2
330
1F
100
AcDbEntity
  8
0
  6
CONTINUOUS
 62
     7
100
AcDbLine
 10
3.2478959459
 20
5.7946762476
 30
0.0
 11
3.2478959459
 21
5.6877251704
 31
0.0
  0
LINE
  5
1F3
330
1F
100
AcDbEntity
  8
0
  6
CONTINUOUS
 62
     7
100
AcDbLine
 10
2.932935316
 20
5.7946762476
 30
0.0
 11
3.2478959459
 21
5.7946762476
 31
0.0
  0
LINE
  5
1F4
330
1F
100
AcDbEntity
  8
0
  6
CONTINUOUS
 62
     7
100
AcDbLine
 10
2.932935316
 20
7.547083391
 30
0.0
 11
2.932935316
 21
5.7946762476
 31
0.0
  0
LINE
  5
1F5
330
1F
100
AcDbEntity
  8
0
  6
CONTINUOUS
 62
     7
100
AcDbLine
 10
3.2478959459
 20
7.547083391
 30
0.0
 11
2.932935316
 21
7.547083391
 31
0.0
  0
LINE
  5
1F6
330
1F
100
AcDbEntity
  8
0
  6
CONTINUOUS
 62
     7
100
AcDbLine
 10
3.2478959459
 20
7.6562291074
 30
0.0
 11
3.2478959459
 21
7.547083391
 31
0.0
  0
LINE
  5
1F7
330
1F
100
AcDbEntity
  8
0
  6
CONTINUOUS
 62
     7
100
AcDbLine
 10
2.9152970009
 20
5.8078061027
 30
0.0
 11
2.9132502766
 21
5.8100960649
 31
0.0
  0
SPLINE
  5
1F8
330
1F
100
AcDbEntity
  8
0
  6
CONTINUOUS
 62
     7
100
AcDbSpline
210
0.0
220
0.0
230
1.0
 70
     8
 71
     3
 72
     8
 73
     4
 74
     0
 42
0.00000001
 43
0.00000001
 40
0.0
 40
0.0
 40
0.0
 40
0.0
 40
0.0002474794652934
 40
0.0002474794652934
 40
0.0002474794652934
 40
0.0002474794652934
 10
2.913250276612899
 20
7.533858212892394
 30
0.0
 10
2.915414260063477
 20
7.536280016705756
 30
0.0
 10
2.917579265992314
 20
7.538700907262831
 30
0.0
 10
2.919745270657374
 20
7.541120903518146
 30
0.0
  0
SPLINE
  5
1F9
330
1F
100
AcDbEntity
  8
0
  6
CONTINUOUS
 62
     7
100
AcDbSpline
210
0.0
220
0.0
230
1.0
 70
     8
 71
     3
 72
     8
 73
     4
 74
     0
 42
0.00000001
 43
0.00000001
 40
0.0
 40
0.0
 40
0.0
 40
0.0
 40
0.0005752664977959
 40
0.0005752664977959
 40
0.0005752664977959
 40
0.0005752664977959
 10
2.919745270657374
 20
7.541120903518146
 30
0.0
 10
2.924123177833495
 20
7.543112741270622
 30
0.0
 10
2.92852023139478
 20
7.545100178417334
 30
0.0
 10
2.932935315982977
 20
7.547083390954787
 30
0.0
  0
SPLINE
  5
1FA
330
1F
100
AcDbEntity
  8
0
  6
CONTINUOUS
 62
     7
100
AcDbSpline
210
0.0
220
0.0
230
1.0
 70
     8
 71
     3
 72
     8
 73
     4
 74
     0
 42
0.00000001
 43
0.00000001
 40
0.0
 40
0.0
 40
0.0
 40
0.0
 40
0.0006505060239605
 40
0.0006505060239605
 40
0.0006505060239605
 40
0.0006505060239605
 10
2.915297000903672
 20
5.807806102670612
 30
0.0
 10
2.921173384788637
 20
5.803427433676404
 30
0.0
 10
2.92705288206118
 20
5.799050852903024
 30
0.0
 10
2.932935315982978
 20
5.794676247604207
 30
0.0
  0
SPLINE
  5
1FB
330
1F
100
AcDbEntity
  8
0
  6
CONTINUOUS
 62
     7
100
AcDbSpline
210
0.0
220
0.0
230
1.0
 70
     8
 71
     3
 72
     8
 73
     4
 74
     0
 42
0.00000001
 43
0.00000001
 40
0.0
 40
0.0
 40
0.0
 40
0.0
 40
0.0006505060239605
 40
0.0006505060239605
 40
0.0006505060239605
 40
0.0006505060239605
 10
3.405376260864865
 20
6.225776417708285
 30
0.0
 10
3.411258694786663
 20
6.230151023007102
 30
0.0
 10
3.417138192059206
 20
6.234527603780483
 30
0.0
 10
3.423014575944172
 20
6.238906272774692
 30
0.0
  0
SPLINE
  5
1FC
330
1F
100
AcDbEntity
  8
0
  6
CONTINUOUS
 62
     7
100
AcDbSpline
210
0.0
220
0.0
230
1.0
 70
     8
 71
     3
 72
     8
 73
     4
 74
     0
 42
0.00000001
 43
0.00000001
 40
0.0
 40
0.0
 40
0.0
 40
0.0
 40
0.0005752664977959
 40
0.0005752664977959
 40
0.0005752664977959
 40
0.0005752664977959
 10
3.405376260864865
 20
7.122466855943625
 30
0.0
 10
3.409791345453063
 20
7.11667308550282
 30
0.0
 10
3.414188399014348
 20
7.110866973260126
 30
0.0
 10
3.418566306190468
 20
7.105048005058161
 30
0.0
  0
SPLINE
  5
1FD
330
1F
100
AcDbEntity
  8
0
  6
CONTINUOUS
 62
     7
100
AcDbSpline
210
0.0
220
0.0
230
1.0
 70
     8
 71
     3
 72
     8
 73
     4
 74
     0
 42
0.00000001
 43
0.00000001
 40
0.0
 40
0.0
 40
0.0
 40
0.0
 40
0.0006505060239605
 40
0.0006505060239605
 40
0.0006505060239605
 40
0.0006505060239605
 10
3.720336890786128
 20
6.225776417708285
 30
0.0
 10
3.726219324707924
 20
6.230151023007102
 30
0.0
 10
3.732098821980469
 20
6.234527603780483
 30
0.0
 10
3.737975205865435
 20
6.238906272774692
 30
0.0
  0
LINE
  5
1FE
330
1F
100
AcDbEntity
  8
0
  6
CONTINUOUS
 62
     7
100
AcDbLine
 10
3.4230145759
 20
6.2389062728
 30
0.0
 11
3.4250240308
 21
6.2389062728
 31
0.0
  0
SPLINE
  5
1FF
330
1F
100
AcDbEntity
  8
0
  6
CONTINUOUS
 62
     7
100
AcDbSpline
210
0.0
220
0.0
230
1.0
 70
     8
 71
     3
 72
     8
 73
     4
 74
     0
 42
0.00000001
 43
0.00000001
 40
0.0
 40
0.0
 40
0.0
 40
0.0
 40
0.0005752664977959
 40
0.0005752664977959
 40
0.0005752664977959
 40
0.0005752664977959
 10
3.720336890786128
 20
7.122466855943625
 30
0.0
 10
3.724751975374326
 20
7.11667308550282
 30
0.0
 10
3.72914902893561
 20
7.110866973260126
 30
0.0
 10
3.733526936111731
 20
7.105048005058161
 30
0.0
  0
LINE
  5
200
330
1F
100
AcDbEntity
  8
0
  6
CONTINUOUS
 62
     7
100
AcDbLine
 10
3.4250240308
 20
7.1050480051
 30
0.0
 11
3.4185663062
 21
7.1050480051
 31
0.0
  0
SPLINE
  5
201
330
1F
100
AcDbEntity
  8
0
  6
HIDDEN
 62
     7
100
AcDbSpline
210
0.0
220
0.0
230
1.0
 70
     8
 71
     3
 72
    14
 73
    10
 74
     0
 42
0.00000001
 43
0.00000001
 40
0.0
 40
0.0
 40
0.0
 40
0.0
 40
0.0946514905805694
 40
0.2696865243569374
 40
0.4382480500317634
 40
0.6117921125201117
 40
0.7788188316352059
 40
0.9506510701815196
 40
1.0
 40
1.0
 40
1.0
 40
1.0
 10
3.665966043627101
 20
6.533608996007238
 30
0.0
 10
3.670228745721693
 20
6.531238575366153
 30
0.0
 10
3.682374284108976
 20
6.524484635200639
 30
0.0
 10
3.704221349045105
 20
6.517974865895265
 30
0.0
 10
3.730644810715062
 20
6.514009937916637
 30
0.0
 10
3.757082605695303
 20
6.514638376145267
 30
0.0
 10
3.78299755822297
 20
6.519913665454491
 30
0.0
 10
3.802171145833456
 20
6.52633299788241
 30
0.0
 10
3.811929669262356
 20
6.53220360960109
 30
0.0
 10
3.814106946339719
 20
6.533513433614764
 30
0.0
  0
SPLINE
  5
202
330
1F
100
AcDbEntity
  8
0
  6
HIDDEN
 62
     7
100
AcDbSpline
210
0.0
220
0.0
230
1.0
 70
     8
 71
     3
 72
    12
 73
     8
 74
     0
 42
0.00000001
 43
0.00000001
 40
0.0
 40
0.0
 40
0.0
 40
0.0
 40
0.2164627689096651
 40
0.4656058093607861
 40
0.7221396175805156
 40
0.9684852958584791
 40
1.0
 40
1.0
 40
1.0
 40
1.0
 10
3.81419903406756
 20
6.810541268737092
 30
0.0
 10
3.807424648015413
 20
6.813947490054203
 30
0.0
 10
3.792853119079419
 20
6.821274183883373
 30
0.0
 10
3.768152334020124
 20
6.827680830681576
 30
0.0
 10
3.741915390862403
 20
6.82993315455675
 30
0.0
 10
3.722944150346049
 20
6.82943897318976
 30
0.0
 10
3.713510090954222
 20
6.827045547144012
 30
0.0
 10
3.71244008742224
 20
6.826774086660659
 30
0.0
  0
LINE
  5
203
330
1F
100
AcDbEntity
  8
0
  6
HIDDEN
 62
     7
100
AcDbLine
 10
2.7557699617
 20
6.3865440681
 30
0.0
 11
3.0707305916
 21
6.3865440681
 31
0.0
  0
LINE
  5
204
330
1F
100
AcDbEntity
  8
0
  6
HIDDEN
 62
     7
100
AcDbLine
 10
3.0608880719
 20
6.3963865877
 30
0.0
 11
2.7656124813
 21
6.3963865877
 31
0.0
  0
LINE
  5
205
330
1F
100
AcDbEntity
  8
0
  6
HIDDEN
 62
     7
100
AcDbLine
 10
2.8393558856
 20
5.6975676901
 30
0.0
 11
2.7557699617
 21
5.6975676901
 31
0.0
  0
LINE
  5
206
330
1F
100
AcDbEntity
  8
0
  6
HIDDEN
 62
     7
100
AcDbLine
 10
3.0707305916
 20
5.6975676901
 30
0.0
 11
2.9879552355
 21
5.6975676901
 31
0.0
  0
LINE
  5
207
330
1F
100
AcDbEntity
  8
0
  6
HIDDEN
 62
     7
100
AcDbLine
 10
2.9132502766
 20
5.8452054854
 30
0.0
 11
2.9919904341
 21
5.8452054854
 31
0.0
  0
LINE
  5
208
330
1F
100
AcDbEntity
  8
0
  6
HIDDEN
 62
     7
100
AcDbLine
 10
2.9132502766
 20
5.8100960649
 30
0.0
 11
2.9132502766
 21
5.6877251704
 31
0.0
  0
LINE
  5
209
330
1F
100
AcDbEntity
  8
0
  6
HIDDEN
 62
     7
100
AcDbLine
 10
2.8345101191
 20
5.8452054854
 30
0.0
 11
2.9132502766
 21
5.8452054854
 31
0.0
  0
LINE
  5
20A
330
1F
100
AcDbEntity
  8
0
  6
HIDDEN
 62
     7
100
AcDbLine
 10
2.8345101191
 20
5.8452054854
 30
0.0
 11
2.8345101191
 21
5.6877251704
 31
0.0
  0
LINE
  5
20B
330
1F
100
AcDbEntity
  8
0
  6
HIDDEN
 62
     7
100
AcDbLine
 10
2.9919904341
 20
5.8452054854
 30
0.0
 11
2.9919904341
 21
5.6877251704
 31
0.0
  0
LINE
  5
20C
330
1F
100
AcDbEntity
  8
0
  6
HIDDEN
 62
     7
100
AcDbLine
 10
3.2282109065
 20
7.547083391
 30
0.0
 11
3.2282109065
 21
7.5338582129
 31
0.0
  0
LINE
  5
20D
330
1F
100
AcDbEntity
  8
0
  6
HIDDEN
 62
     7
100
AcDbLine
 10
3.2282109065
 20
7.5338582129
 30
0.0
 11
3.2163638926
 21
7.547083391
 31
0.0
  0
LINE
  5
20E
330
1F
100
AcDbEntity
  8
0
  6
HIDDEN
 62
     7
100
AcDbLine
 10
3.2282109065
 20
7.5338582129
 30
0.0
 11
3.2282109065
 21
5.7946762476
 31
0.0
  0
SPLINE
  5
20F
330
1F
100
AcDbEntity
  8
0
  6
HIDDEN
 62
     7
100
AcDbSpline
210
0.0
220
0.0
230
1.0
 70
     8
 71
     3
 72
    17
 73
    13
 74
     0
 42
0.00000001
 43
0.00000001
 40
0.0
 40
0.0
 40
0.0
 40
0.0
 40
0.0933672788898234
 40
0.189857205258855
 40
0.2831298024171085
 40
0.3786261578954178
 40
0.4821755184098799
 40
0.5882191542074463
 40
0.7009994081217463
 40
0.8176730273718029
 40
0.9202805162672257
 40
1.0
 40
1.0
 40
1.0
 40
1.0
 10
2.913250276612899
 20
6.445813255194455
 30
0.0
 10
2.905365128765931
 20
6.445571295323383
 30
0.0
 10
2.889331116089557
 20
6.445079283288194
 30
0.0
 10
2.866214662629537
 20
6.441296354513313
 30
0.0
 10
2.844349829366919
 20
6.435839946953158
 30
0.0
 10
2.823766250040936
 20
6.42898882531172
 30
0.0
 10
2.804560714334979
 20
6.421235177845825
 30
0.0
 10
2.787118066138524
 20
6.413146975993015
 30
0.0
 10
2.772396212936608
 20
6.405611597057224
 30
0.0
 10
2.762141337389509
 20
6.400003308475013
 30
0.0
 10
2.756456484492788
 20
6.396780204257491
 30
0.0
 10
2.756279722590183
 20
6.396677909902563
 30
0.0
 10
2.756202436342208
 20
6.39663318337063
 30
0.0
  0
LINE
  5
210
330
1F
100
AcDbEntity
  8
0
  6
HIDDEN
 62
     7
100
AcDbLine
 10
2.9047803854
 20
6.4453739029
 30
0.0
 11
2.9148550205
 21
6.4457337748
 31
0.0
  0
SPLINE
  5
211
330
1F
100
AcDbEntity
  8
0
  6
HIDDEN
 62
     7
100
AcDbSpline
210
0.0
220
0.0
230
1.0
 70
     8
 71
     3
 72
    18
 73
    14
 74
     0
 42
0.00000001
 43
0.00000001
 40
0.0
 40
0.0
 40
0.0
 40
0.0
 40
0.0164916078151754
 40
0.1081452340939453
 40
0.2024670992801448
 40
0.2945309009416533
 40
0.3887793077816601
 40
0.4910302011362335
 40
0.5957170213245513
 40
0.7081369112560313
 40
0.8242505923488277
 40
0.9109217212103092
 40
1.0
 40
1.0
 40
1.0
 40
1.0
 10
3.070426465453794
 20
6.396559842849348
 30
0.0
 10
3.070524847473814
 20
6.396503807508376
 30
0.0
 10
3.071169996612999
 20
6.396136350609395
 30
0.0
 10
3.068656020329589
 20
6.397573435542525
 30
0.0
 10
3.063188734358259
 20
6.400647469885082
 30
0.0
 10
3.054107750191713
 20
6.40558464534127
 30
0.0
 10
3.041929418654644
 20
6.411859484881854
 30
0.0
 10
3.02630007511968
 20
6.419293733974683
 30
0.0
 10
3.006876077501542
 20
6.427454792062659
 30
0.0
 10
2.983804243641208
 20
6.435477245663555
 30
0.0
 10
2.959536448623787
 20
6.441509079393287
 30
0.0
 10
2.935618705251442
 20
6.445160404792266
 30
0.0
 10
2.920774192065736
 20
6.445593660366907
 30
0.0
 10
2.913250276612899
 20
6.445813255194455
 30
0.0
  0
LINE
  5
212
330
1F
100
AcDbEntity
  8
0
  6
HIDDEN
 62
     7
100
AcDbLine
 10
3.4053762609
 20
6.2214874219
 30
0.0
 11
3.7203368908
 21
6.2214874219
 31
0.0
  0
LINE
  5
213
330
1F
100
AcDbEntity
  8
0
  6
HIDDEN
 62
     7
100
AcDbLine
 10
3.4053762609
 20
6.2257764177
 30
0.0
 11
3.4053762609
 21
6.2214874219
 31
0.0
  0
LINE
  5
214
330
1F
100
AcDbEntity
  8
0
  6
HIDDEN
 62
     7
100
AcDbLine
 10
3.7203368908
 20
7.1181778601
 30
0.0
 11
3.4053762609
 21
7.1181778601
 31
0.0
  0
LINE
  5
215
330
1F
100
AcDbEntity
  8
0
  6
HIDDEN
 62
     7
100
AcDbLine
 10
3.7203368908
 20
7.1224668559
 30
0.0
 11
3.7203368908
 21
7.1181778601
 31
0.0
  0
LINE
  5
216
330
1F
100
AcDbEntity
  8
0
  6
HIDDEN
 62
     7
100
AcDbLine
 10
3.2478959459
 20
5.7968708869
 30
0.0
 11
2.932935316
 21
5.7968708869
 31
0.0
  0
LINE
  5
217
330
1F
100
AcDbEntity
  8
0
  6
HIDDEN
 62
     7
100
AcDbLine
 10
3.2478959459
 20
5.7946762476
 30
0.0
 11
3.2478959459
 21
5.7968708869
 31
0.0
  0
LINE
  5
218
330
1F
100
AcDbEntity
  8
0
  6
HIDDEN
 62
     7
100
AcDbLine
 10
2.932935316
 20
7.5492780302
 30
0.0
 11
3.2478959459
 21
7.5492780302
 31
0.0
  0
LINE
  5
219
330
1F
100
AcDbEntity
  8
0
  6
HIDDEN
 62
     7
100
AcDbLine
 10
2.932935316
 20
7.547083391
 30
0.0
 11
2.932935316
 21
7.5492780302
 31
0.0
  0
SPLINE
  5
21A
330
1F
100
AcDbEntity
  8
0
  6
HIDDEN
 62
     7
100
AcDbSpline
210
0.0
220
0.0
230
1.0
 70
     8
 71
     3
 72
     8
 73
     4
 74
     0
 42
0.00000001
 43
0.00000001
 40
0.0
 40
0.0
 40
0.0
 40
0.0
 40
0.0005752664977958
 40
0.0005752664977958
 40
0.0005752664977958
 40
0.0005752664977958
 10
3.720336890786128
 20
6.221487421889227
 30
0.0
 10
3.724751975374325
 20
6.227281192330032
 30
0.0
 10
3.72914902893561
 20
6.233087304572726
 30
0.0
 10
3.73352693611173
 20
6.238906272774692
 30
0.0
  0
SPLINE
  5
21B
330
1F
100
AcDbEntity
  8
0
  6
HIDDEN
 62
     7
100
AcDbSpline
210
0.0
220
0.0
230
1.0
 70
     8
 71
     3
 72
     8
 73
     4
 74
     0
 42
0.00000001
 43
0.00000001
 40
0.0
 40
0.0
 40
0.0
 40
0.0
 40
0.0006505060239605
 40
0.0006505060239605
 40
0.0006505060239605
 40
0.0006505060239605
 10
3.737975205865435
 20
7.105048005058161
 30
0.0
 10
3.732098821980469
 20
7.109426674052369
 30
0.0
 10
3.726219324707925
 20
7.113803254825751
 30
0.0
 10
3.720336890786128
 20
7.118177860124566
 30
0.0
  0
SPLINE
  5
21C
330
1F
100
AcDbEntity
  8
0
  6
HIDDEN
 62
     7
100
AcDbSpline
210
0.0
220
0.0
230
1.0
 70
     8
 71
     3
 72
     8
 73
     4
 74
     0
 42
0.00000001
 43
0.00000001
 40
0.0
 40
0.0
 40
0.0
 40
0.0
 40
0.0002474794652934
 40
0.0002474794652934
 40
0.0002474794652934
 40
0.0002474794652934
 10
3.234705900578637
 20
7.541120903518146
 30
0.0
 10
3.232539895913577
 20
7.538700907262831
 30
0.0
 10
3.230374889984739
 20
7.536280016705756
 30
0.0
 10
3.228210906534161
 20
7.533858212892393
 30
0.0
  0
SPLINE
  5
21D
330
1F
100
AcDbEntity
  8
0
  6
HIDDEN
 62
     7
100
AcDbSpline
210
0.0
220
0.0
230
1.0
 70
     8
 71
     3
 72
     8
 73
     4
 74
     0
 42
0.00000001
 43
0.00000001
 40
0.0
 40
0.0
 40
0.0
 40
0.0
 40
0.0006505060239605
 40
0.0006505060239605
 40
0.0006505060239605
 40
0.0006505060239605
 10
3.24789594590424
 20
7.549278030228645
 30
0.0
 10
3.242013511982443
 20
7.544903424929829
 30
0.0
 10
3.236134014709899
 20
7.540526844156447
 30
0.0
 10
3.230257630824933
 20
7.536148175162239
 30
0.0
  0
SPLINE
  5
21E
330
1F
100
AcDbEntity
  8
0
  6
HIDDEN
 62
     7
100
AcDbSpline
210
0.0
220
0.0
230
1.0
 70
     8
 71
     3
 72
     8
 73
     4
 74
     0
 42
0.00000001
 43
0.00000001
 40
0.0
 40
0.0
 40
0.0
 40
0.0
 40
0.0005752664977959
 40
0.0005752664977959
 40
0.0005752664977959
 40
0.0005752664977959
 10
3.234705900578637
 20
7.541120903518146
 30
0.0
 10
3.239083807754757
 20
7.543112741270622
 30
0.0
 10
3.243480861316042
 20
7.545100178417334
 30
0.0
 10
3.24789594590424
 20
7.547083390954787
 30
0.0
  0
LINE
  5
21F
330
1F
100
AcDbEntity
  8
0
  6
HIDDEN
 62
     7
100
AcDbLine
 10
3.2282109065
 20
5.8100960649
 30
0.0
 11
3.2302576308
 21
5.8078061027
 31
0.0
  0
SPLINE
  5
220
330
1F
100
AcDbEntity
  8
0
  6
HIDDEN
 62
     7
100
AcDbSpline
210
0.0
220
0.0
230
1.0
 70
     8
 71
     3
 72
     8
 73
     4
 74
     0
 42
0.00000001
 43
0.00000001
 40
0.0
 40
0.0
 40
0.0
 40
0.0
 40
0.0005752664977959
 40
0.0005752664977959
 40
0.0005752664977959
 40
0.0005752664977959
 10
3.234705900578636
 20
5.802833374314707
 30
0.0
 10
3.239083807754757
 20
5.80084153656223
 30
0.0
 10
3.243480861316042
 20
5.798854099415519
 30
0.0
 10
3.24789594590424
 20
5.796870886878065
 30
0.0
  0
SPLINE
  5
221
330
1F
100
AcDbEntity
  8
0
  6
HIDDEN
 62
     7
100
AcDbSpline
210
0.0
220
0.0
230
1.0
 70
     8
 71
     3
 72
     8
 73
     4
 74
     0
 42
0.00000001
 43
0.00000001
 40
0.0
 40
0.0
 40
0.0
 40
0.0
 40
0.0002474794652933
 40
0.0002474794652933
 40
0.0002474794652933
 40
0.0002474794652933
 10
3.234705900578636
 20
5.802833374314707
 30
0.0
 10
3.232539895913577
 20
5.805253370570021
 30
0.0
 10
3.230374889984739
 20
5.807674261127096
 30
0.0
 10
3.228210906534161
 20
5.81009606494046
 30
0.0
  0
SPLINE
  5
222
330
1F
100
AcDbEntity
  8
0
  6
HIDDEN
 62
     7
100
AcDbSpline
210
0.0
220
0.0
230
1.0
 70
     8
 71
     3
 72
     8
 73
     4
 74
     0
 42
0.00000001
 43
0.00000001
 40
0.0
 40
0.0
 40
0.0
 40
0.0
 40
0.0006505060239605
 40
0.0006505060239605
 40
0.0006505060239605
 40
0.0006505060239605
 10
3.230257630824934
 20
5.807806102670612
 30
0.0
 10
3.236134014709899
 20
5.803427433676404
 30
0.0
 10
3.242013511982443
 20
5.799050852903024
 30
0.0
 10
3.24789594590424
 20
5.794676247604207
 30
0.0
  0
LINE
  5
223
330
1F
100
AcDbEntity
  8
0
  6
HIDDEN
 62
     7
100
AcDbLine
 10
3.2282109065
 20
5.8100960649
 30
0.0
 11
3.2282109065
 21
7.5338582129
 31
0.0
  0
LINE
  5
224
330
1F
100
AcDbEntity
  8
0
  6
HIDDEN
 62
     7
100
AcDbLine
 10
3.2302576308
 20
5.8078061027
 30
0.0
 11
2.9152970009
 21
5.8078061027
 31
0.0
  0
LINE
  5
225
330
1F
100
AcDbEntity
  8
0
  6
HIDDEN
 62
     7
100
AcDbLine
 10
2.9197452707
 20
7.5411209035
 30
0.0
 11
3.2347059006
 21
7.5411209035
 31
0.0
  0
LINE
  5
226
330
1F
100
AcDbEntity
  8
0
  6
HIDDEN
 62
     7
100
AcDbLine
 10
2.9197452707
 20
5.8028333743
 30
0.0
 11
3.2347059006
 21
5.8028333743
 31
0.0
  0
LINE
  5
227
330
1F
100
AcDbEntity
  8
0
  6
HIDDEN
 62
     7
100
AcDbLine
 10
3.2302576308
 20
7.5361481752
 30
0.0
 11
2.9152970009
 21
7.5361481752
 31
0.0
  0
SPLINE
  5
228
330
1F
100
AcDbEntity
  8
0
  6
HIDDEN
 62
     7
100
AcDbSpline
210
0.0
220
0.0
230
1.0
 70
     8
 71
     3
 72
     8
 73
     4
 74
     0
 42
0.00000001
 43
0.00000001
 40
0.0
 40
0.0
 40
0.0
 40
0.0
 40
0.0002474794652933
 40
0.0002474794652933
 40
0.0002474794652933
 40
0.0002474794652933
 10
2.913250276612899
 20
5.810096064940458
 30
0.0
 10
2.915414260063477
 20
5.807674261127096
 30
0.0
 10
2.917579265992314
 20
5.805253370570021
 30
0.0
 10
2.919745270657374
 20
5.802833374314707
 30
0.0
  0
SPLINE
  5
229
330
1F
100
AcDbEntity
  8
0
  6
HIDDEN
 62
     7
100
AcDbSpline
210
0.0
220
0.0
230
1.0
 70
     8
 71
     3
 72
     8
 73
     4
 74
     0
 42
0.00000001
 43
0.00000001
 40
0.0
 40
0.0
 40
0.0
 40
0.0
 40
0.0006505060239605
 40
0.0006505060239605
 40
0.0006505060239605
 40
0.0006505060239605
 10
2.91529700090367
 20
7.536148175162239
 30
0.0
 10
2.921173384788637
 20
7.540526844156447
 30
0.0
 10
2.92705288206118
 20
7.544903424929829
 30
0.0
 10
2.932935315982977
 20
7.549278030228645
 30
0.0
  0
SPLINE
  5
22A
330
1F
100
AcDbEntity
  8
0
  6
HIDDEN
 62
     7
100
AcDbSpline
210
0.0
220
0.0
230
1.0
 70
     8
 71
     3
 72
     8
 73
     4
 74
     0
 42
0.00000001
 43
0.00000001
 40
0.0
 40
0.0
 40
0.0
 40
0.0
 40
0.0005752664977959
 40
0.0005752664977959
 40
0.0005752664977959
 40
0.0005752664977959
 10
2.919745270657374
 20
5.802833374314707
 30
0.0
 10
2.924123177833494
 20
5.80084153656223
 30
0.0
 10
2.92852023139478
 20
5.798854099415519
 30
0.0
 10
2.932935315982978
 20
5.796870886878065
 30
0.0
  0
LINE
  5
22B
330
1F
100
AcDbEntity
  8
0
  6
HIDDEN
 62
     7
100
AcDbLine
 10
3.4185663062
 20
6.2389062728
 30
0.0
 11
3.4230100997
 21
6.2389062728
 31
0.0
  0
SPLINE
  5
22C
330
1F
100
AcDbEntity
  8
0
  6
HIDDEN
 62
     7
100
AcDbSpline
210
0.0
220
0.0
230
1.0
 70
     8
 71
     3
 72
     8
 73
     4
 74
     0
 42
0.00000001
 43
0.00000001
 40
0.0
 40
0.0
 40
0.0
 40
0.0
 40
0.0006505060239605
 40
0.0006505060239605
 40
0.0006505060239605
 40
0.0006505060239605
 10
3.405376260864865
 20
7.118177860124566
 30
0.0
 10
3.411258694786663
 20
7.113803254825751
 30
0.0
 10
3.417138192059206
 20
7.109426674052369
 30
0.0
 10
3.423014575944172
 20
7.105048005058161
 30
0.0
  0
SPLINE
  5
22D
330
1F
100
AcDbEntity
  8
0
  6
HIDDEN
 62
     7
100
AcDbSpline
210
0.0
220
0.0
230
1.0
 70
     8
 71
     3
 72
     8
 73
     4
 74
     0
 42
0.00000001
 43
0.00000001
 40
0.0
 40
0.0
 40
0.0
 40
0.0
 40
0.0005752664977958
 40
0.0005752664977958
 40
0.0005752664977958
 40
0.0005752664977958
 10
3.405376260864865
 20
6.221487421889227
 30
0.0
 10
3.409791345453063
 20
6.227281192330032
 30
0.0
 10
3.414188399014348
 20
6.233087304572726
 30
0.0
 10
3.418566306190468
 20
6.238906272774692
 30
0.0
  0
LINE
  5
22E
330
1F
100
AcDbEntity
  8
0
  6
HIDDEN
 62
     7
100
AcDbLine
 10
4.0746675994
 20
6.9672527295
 30
0.0
 11
4.0549825601
 21
6.9475676901
 31
0.0
  0
LINE
  5
22F
330
1F
100
AcDbEntity
  8
0
  6
HIDDEN
 62
     7
100
AcDbLine
 10
4.0549825601
 20
6.3963865877
 30
0.0
 11
4.0746675994
 21
6.3767015484
 31
0.0
  0
LINE
  5
230
330
1F
100
AcDbEntity
  8
0
  6
HIDDEN
 62
     7
100
AcDbLine
 10
4.0549825601
 20
6.9475676901
 30
0.0
 11
3.4250613002
 21
6.9475676901
 31
0.0
  0
LINE
  5
231
330
1F
100
AcDbEntity
  8
0
  6
HIDDEN
 62
     7
100
AcDbLine
 10
3.4250613002
 20
6.3963865877
 30
0.0
 11
4.0549825601
 21
6.3963865877
 31
0.0
  0
LINE
  5
232
330
1F
100
AcDbEntity
  8
0
  6
HIDDEN
 62
     7
100
AcDbLine
 10
3.0707305916
 20
6.3865440681
 30
0.0
 11
3.0608880719
 21
6.3963865877
 31
0.0
  0
LINE
  5
233
330
1F
100
AcDbEntity
  8
0
  6
HIDDEN
 62
     7
100
AcDbLine
 10
2.7656124813
 20
6.3963865877
 30
0.0
 11
2.7557699617
 21
6.3865440681
 31
0.0
  0
LINE
  5
234
330
1F
100
AcDbEntity
  8
0
  6
HIDDEN
 62
     7
100
AcDbLine
 10
3.0707305916
 20
5.6975676901
 30
0.0
 11
3.0707305916
 21
6.3865440681
 31
0.0
  0
LINE
  5
235
330
1F
100
AcDbEntity
  8
0
  6
HIDDEN
 62
     7
100
AcDbLine
 10
2.7557699617
 20
6.3865440681
 30
0.0
 11
2.7557699617
 21
5.6975676901
 31
0.0
  0
LINE
  5
236
330
1F
100
AcDbEntity
  8
0
  6
HIDDEN
 62
     7
100
AcDbLine
 10
2.7557699617
 20
5.6975676901
 30
0.0
 11
2.764291703
 21
5.6890459487
 31
0.0
  0
LINE
  5
237
330
1F
100
AcDbEntity
  8
0
  6
HIDDEN
 62
     7
100
AcDbLine
 10
3.0622066937
 20
5.6890437922
 30
0.0
 11
3.0707305916
 21
5.6975676901
 31
0.0
  0
LINE
  5
238
330
1F
100
AcDbEntity
  8
0
  6
HIDDEN
 62
     7
100
AcDbLine
 10
2.5786046073
 20
6.3767015484
 30
0.0
 11
2.5982896467
 21
6.3963865877
 31
0.0
  0
LINE
  5
239
330
1F
100
AcDbEntity
  8
0
  6
HIDDEN
 62
     7
100
AcDbLine
 10
2.5982896467
 20
6.9475676901
 30
0.0
 11
2.5786046073
 21
6.9672527295
 31
0.0
  0
LINE
  5
23A
330
1F
100
AcDbEntity
  8
0
  6
HIDDEN
 62
     7
100
AcDbLine
 10
3.0704264655
 20
6.3963865877
 30
0.0
 11
3.2282109065
 21
6.3963865877
 31
0.0
  0
LINE
  5
23B
330
1F
100
AcDbEntity
  8
0
  6
HIDDEN
 62
     7
100
AcDbLine
 10
2.5982896467
 20
6.3963865877
 30
0.0
 11
2.7562024363
 21
6.3963865877
 31
0.0
  0
LINE
  5
23C
330
1F
100
AcDbEntity
  8
0
  6
HIDDEN
 62
     7
100
AcDbLine
 10
3.2282109065
 20
6.9475676901
 30
0.0
 11
2.5982896467
 21
6.9475676901
 31
0.0
  0
LINE
  5
23D
330
1F
100
AcDbEntity
  8
0
  6
HIDDEN
 62
     7
100
AcDbLine
 10
2.7557699617
 20
6.3966328803
 30
0.0
 11
2.7557699617
 21
5.6877251704
 31
0.0
  0
LINE
  5
23E
330
1F
100
AcDbEntity
  8
0
  6
HIDDEN
 62
     7
100
AcDbLine
 10
3.0707305916
 20
5.6877251704
 30
0.0
 11
3.0707305916
 21
6.3965594262
 31
0.0
  0
LINE
  5
23F
330
1F
100
AcDbEntity
  8
0
  6
HIDDEN
 62
     7
100
AcDbLine
 10
3.2282109065
 20
6.3963865877
 30
0.0
 11
3.4250613002
 21
6.3963865877
 31
0.0
  0
LINE
  5
240
330
1F
100
AcDbEntity
  8
0
  6
HIDDEN
 62
     7
100
AcDbLine
 10
3.4250613002
 20
6.9475676901
 30
0.0
 11
3.2282109065
 21
6.9475676901
 31
0.0
  0
LINE
  5
241
330
1F
100
AcDbEntity
  8
0
  6
CONTINUOUS
 62
     7
100
AcDbLine
 10
8.5772218029
 20
7.5436199468
 30
0.0
 11
8.5702609597
 21
7.5476396623
 31
0.0
  0
LINE
  5
242
330
1F
100
AcDbEntity
  8
0
  6
CONTINUOUS
 62
     7
100
AcDbLine
 10
8.3614356611
 20
7.5476396623
 30
0.0
 11
8.3544748178
 21
7.5436199468
 31
0.0
  0
LINE
  5
243
330
1F
100
AcDbEntity
  8
0
  6
CONTINUOUS
 62
     7
100
AcDbLine
 10
8.6886722225
 20
5.7515164106
 30
0.0
 11
8.702589385
 21
5.7595532295
 31
0.0
  0
LINE
  5
244
330
1F
100
AcDbEntity
  8
0
  6
CONTINUOUS
 62
     7
100
AcDbLine
 10
9.3845303489
 20
6.9408376214
 30
0.0
 11
9.3845303489
 21
6.9569086472
 31
0.0
  0
LINE
  5
245
330
1F
100
AcDbEntity
  8
0
  6
CONTINUOUS
 62
     7
100
AcDbLine
 10
7.9876817447
 20
5.8232553977
 30
0.0
 11
8.1964731171
 21
5.702722704
 31
0.0
  0
LINE
  5
246
330
1F
100
AcDbEntity
  8
0
  6
CONTINUOUS
 62
     7
100
AcDbLine
 10
9.1806450981
 20
7.4075432992
 30
0.0
 11
8.9579343008
 21
7.5361115058
 31
0.0
  0
LINE
  5
247
330
1F
100
AcDbEntity
  8
0
  6
CONTINUOUS
 62
     7
100
AcDbLine
 10
7.7837964939
 20
6.2899610755
 30
0.0
 11
7.7837964939
 21
6.2738900497
 31
0.0
  0
LINE
  5
248
330
1F
100
AcDbEntity
  8
0
  6
CONTINUOUS
 62
     7
100
AcDbLine
 10
8.2569438231
 20
7.6078504929
 30
0.0
 11
8.2430266605
 21
7.599813674
 31
0.0
  0
LINE
  5
249
330
1F
100
AcDbEntity
  8
0
  6
CONTINUOUS
 62
     7
100
AcDbLine
 10
7.0808655401
 20
6.6877189646
 30
0.0
 11
7.0808655401
 21
6.6796834517
 31
0.0
  0
LINE
  5
24A
330
1F
100
AcDbEntity
  8
0
  6
CONTINUOUS
 62
     7
100
AcDbLine
 10
7.1852442591
 20
6.4988746162
 30
0.0
 11
7.1922028403
 21
6.4948562068
 31
0.0
  0
LINE
  5
24B
330
1F
100
AcDbEntity
  8
0
  6
CONTINUOUS
 62
     7
100
AcDbLine
 10
8.3593990333
 20
7.881638561
 30
0.0
 11
8.1506076609
 21
8.0021712547
 31
0.0
  0
LINE
  5
24C
330
1F
100
AcDbEntity
  8
0
  6
CONTINUOUS
 62
     7
100
AcDbLine
 10
7.1664356799
 20
6.2973506595
 30
0.0
 11
7.3752270523
 21
6.1768179658
 31
0.0
  0
LINE
  5
24D
330
1F
100
AcDbEntity
  8
0
  6
CONTINUOUS
 62
     7
100
AcDbLine
 10
7.6584085555
 20
7.9533775481
 30
0.0
 11
7.644491393
 21
7.9453407292
 31
0.0
  0
LINE
  5
24E
330
1F
100
AcDbEntity
  8
0
  6
CONTINUOUS
 62
     7
100
AcDbLine
 10
6.9625504291
 20
6.7640563373
 30
0.0
 11
6.9625504291
 21
6.7479853115
 31
0.0
  0
LINE
  5
24F
330
1F
100
AcDbEntity
  8
0
  6
CONTINUOUS
 62
     7
100
AcDbLine
 10
7.403065902
 20
6.16074694
 30
0.0
 11
7.9598428951
 21
5.8393264235
 31
0.0
  0
LINE
  5
250
330
1F
100
AcDbEntity
  8
0
  6
CONTINUOUS
 62
     7
100
AcDbLine
 10
8.944014876
 20
7.5441470187
 30
0.0
 11
8.3872378829
 21
7.8655675352
 31
0.0
  0
LINE
  5
251
330
1F
100
AcDbEntity
  8
0
  6
CONTINUOUS
 62
     7
100
AcDbLine
 10
7.8950387776
 20
7.8167738286
 30
0.0
 11
7.881121615
 21
7.8087370097
 31
0.0
  0
LINE
  5
252
330
1F
100
AcDbEntity
  8
0
  6
CONTINUOUS
 62
     7
100
AcDbLine
 10
7.4218914484
 20
6.4988844112
 30
0.0
 11
7.4218914484
 21
6.4828133854
 31
0.0
  0
POLYLINE
  5
253
330
1F
100
AcDbEntity
  8
0
  6
CONTINUOUS
 62
     7
100
AcDb2dPolyline
 66
     1
 10
0.0
 20
0.0
 30
0.0
  0
VERTEX
  5
2A6
330
253
100
AcDbEntity
  8
0
  6
CONTINUOUS
 62
     7
100
AcDbVertex
100
AcDb2dVertex
 10
8.5702439966
 20
7.4271167628
 30
0.0
  0
VERTEX
  5
2A7
330
253
100
AcDbEntity
  8
0
  6
CONTINUOUS
 62
     7
100
AcDbVertex
100
AcDb2dVertex
 10
8.5822817379
 20
7.4349795794
 30
0.0
  0
VERTEX
  5
2A8
330
253
100
AcDbEntity
  8
0
  6
CONTINUOUS
 62
     7
100
AcDbVertex
100
AcDb2dVertex
 10
8.5925544672
 20
7.44363678
 30
0.0
  0
VERTEX
  5
2A9
330
253
100
AcDbEntity
  8
0
  6
CONTINUOUS
 62
     7
100
AcDbVertex
100
AcDb2dVertex
 10
8.6009064602
 20
7.4529571304
 30
0.0
  0
VERTEX
  5
2AA
330
253
100
AcDbEntity
  8
0
  6
CONTINUOUS
 62
     7
100
AcDbVertex
100
AcDb2dVertex
 10
8.6072111094
 20
7.4627993436
 30
0.0
  0
VERTEX
  5
2AB
330
253
100
AcDbEntity
  8
0
  6
CONTINUOUS
 62
     7
100
AcDbVertex
100
AcDb2dVertex
 10
8.6113728427
 20
7.4730142216
 30
0.0
  0
VERTEX
  5
2AC
330
253
100
AcDbEntity
  8
0
  6
CONTINUOUS
 62
     7
100
AcDbVertex
100
AcDb2dVertex
 10
8.6133285724
 20
7.4834469173
 30
0.0
  0
VERTEX
  5
2AD
330
253
100
AcDbEntity
  8
0
  6
CONTINUOUS
 62
     7
100
AcDbVertex
100
AcDb2dVertex
 10
8.6130486516
 20
7.4939392816
 30
0.0
  0
VERTEX
  5
2AE
330
253
100
AcDbEntity
  8
0
  6
CONTINUOUS
 62
     7
100
AcDbVertex
100
AcDb2dVertex
 10
8.6105373238
 20
7.5043322611
 30
0.0
  0
VERTEX
  5
2AF
330
253
100
AcDbEntity
  8
0
  6
CONTINUOUS
 62
     7
100
AcDbVertex
100
AcDb2dVertex
 10
8.6058326579
 20
7.5144683087
 30
0.0
  0
VERTEX
  5
2B0
330
253
100
AcDbEntity
  8
0
  6
CONTINUOUS
 62
     7
100
AcDbVertex
100
AcDb2dVertex
 10
8.5990059721
 20
7.5241937723
 30
0.0
  0
VERTEX
  5
2B1
330
253
100
AcDbEntity
  8
0
  6
CONTINUOUS
 62
     7
100
AcDbVertex
100
AcDb2dVertex
 10
8.5901607518
 20
7.5333612238
 30
0.0
  0
VERTEX
  5
2B2
330
253
100
AcDbEntity
  8
0
  6
CONTINUOUS
 62
     7
100
AcDbVertex
100
AcDb2dVertex
 10
8.5794310817
 20
7.5418316939
 30
0.0
  0
VERTEX
  5
2B3
330
253
100
AcDbEntity
  8
0
  6
CONTINUOUS
 62
     7
100
AcDbVertex
100
AcDb2dVertex
 10
8.5669796125
 20
7.549476779
 30
0.0
  0
VERTEX
  5
2B4
330
253
100
AcDbEntity
  8
0
  6
CONTINUOUS
 62
     7
100
AcDbVertex
100
AcDb2dVertex
 10
8.5529950958
 20
7.5561805874
 30
0.0
  0
VERTEX
  5
2B5
330
253
100
AcDbEntity
  8
0
  6
CONTINUOUS
 62
     7
100
AcDbVertex
100
AcDb2dVertex
 10
8.5376895227
 20
7.5618414961
 30
0.0
  0
VERTEX
  5
2B6
330
253
100
AcDbEntity
  8
0
  6
CONTINUOUS
 62
     7
100
AcDbVertex
100
AcDb2dVertex
 10
8.5212949101
 20
7.5663736916
 30
0.0
  0
VERTEX
  5
2B7
330
253
100
AcDbEntity
  8
0
  6
CONTINUOUS
 62
     7
100
AcDbVertex
100
AcDb2dVertex
 10
8.5040597836
 20
7.5697084704
 30
0.0
  0
VERTEX
  5
2B8
330
253
100
AcDbEntity
  8
0
  6
CONTINUOUS
 62
     7
100
AcDbVertex
100
AcDb2dVertex
 10
8.48624541
 20
7.5717952807
 30
0.0
  0
VERTEX
  5
2B9
330
253
100
AcDbEntity
  8
0
  6
CONTINUOUS
 62
     7
100
AcDbVertex
100
AcDb2dVertex
 10
8.4681218372
 20
7.5726024884
 30
0.0
  0
VERTEX
  5
2BA
330
253
100
AcDbEntity
  8
0
  6
CONTINUOUS
 62
     7
100
AcDbVertex
100
AcDb2dVertex
 10
8.4499638001
 20
7.5721178573
 30
0.0
  0
VERTEX
  5
2BB
330
253
100
AcDbEntity
  8
0
  6
CONTINUOUS
 62
     7
100
AcDbVertex
100
AcDb2dVertex
 10
8.4320465559
 20
7.5703487338
 30
0.0
  0
VERTEX
  5
2BC
330
253
100
AcDbEntity
  8
0
  6
CONTINUOUS
 62
     7
100
AcDbVertex
100
AcDb2dVertex
 10
8.4146417119
 20
7.5673219359
 30
0.0
  0
VERTEX
  5
2BD
330
253
100
AcDbEntity
  8
0
  6
CONTINUOUS
 62
     7
100
AcDbVertex
100
AcDb2dVertex
 10
8.3980131078
 20
7.563083347
 30
0.0
  0
VERTEX
  5
2BE
330
253
100
AcDbEntity
  8
0
  6
CONTINUOUS
 62
     7
100
AcDbVertex
100
AcDb2dVertex
 10
8.3824128161
 20
7.5576972196
 30
0.0
  0
VERTEX
  5
2BF
330
253
100
AcDbEntity
  8
0
  6
CONTINUOUS
 62
     7
100
AcDbVertex
100
AcDb2dVertex
 10
8.3680773215
 20
7.551245202
 30
0.0
  0
VERTEX
  5
2C0
330
253
100
AcDbEntity
  8
0
  6
CONTINUOUS
 62
     7
100
AcDbVertex
100
AcDb2dVertex
 10
8.3552239354
 20
7.5438251001
 30
0.0
  0
VERTEX
  5
2C1
330
253
100
AcDbEntity
  8
0
  6
CONTINUOUS
 62
     7
100
AcDbVertex
100
AcDb2dVertex
 10
8.3440475021
 20
7.5355493952
 30
0.0
  0
VERTEX
  5
2C2
330
253
100
AcDbEntity
  8
0
  6
CONTINUOUS
 62
     7
100
AcDbVertex
100
AcDb2dVertex
 10
8.3347174449
 20
7.5265435386
 30
0.0
  0
VERTEX
  5
2C3
330
253
100
AcDbEntity
  8
0
  6
CONTINUOUS
 62
     7
100
AcDbVertex
100
AcDb2dVertex
 10
8.3273751979
 20
7.5169440497
 30
0.0
  0
VERTEX
  5
2C4
330
253
100
AcDbEntity
  8
0
  6
CONTINUOUS
 62
     7
100
AcDbVertex
100
AcDb2dVertex
 10
8.3221320622
 20
7.5068964471
 30
0.0
  0
VERTEX
  5
2C5
330
253
100
AcDbEntity
  8
0
  6
CONTINUOUS
 62
     7
100
AcDbVertex
100
AcDb2dVertex
 10
8.3190675183
 20
7.4965530422
 30
0.0
  0
VERTEX
  5
2C6
330
253
100
AcDbEntity
  8
0
  6
CONTINUOUS
 62
     7
100
AcDbVertex
100
AcDb2dVertex
 10
8.3182280215
 20
7.4860706305
 30
0.0
  0
VERTEX
  5
2C7
330
253
100
AcDbEntity
  8
0
  6
CONTINUOUS
 62
     7
100
AcDbVertex
100
AcDb2dVertex
 10
8.3196262979
 20
7.4756081147
 30
0.0
  0
VERTEX
  5
2C8
330
253
100
AcDbEntity
  8
0
  6
CONTINUOUS
 62
     7
100
AcDbVertex
100
AcDb2dVertex
 10
8.323241151
 20
7.4653240957
 30
0.0
  0
VERTEX
  5
2C9
330
253
100
AcDbEntity
  8
0
  6
CONTINUOUS
 62
     7
100
AcDbVertex
100
AcDb2dVertex
 10
8.3290177832
 20
7.4553744689
 30
0.0
  0
VERTEX
  5
2CA
330
253
100
AcDbEntity
  8
0
  6
CONTINUOUS
 62
     7
100
AcDbVertex
100
AcDb2dVertex
 10
8.3368686267
 20
7.4459100605
 30
0.0
  0
VERTEX
  5
2CB
330
253
100
AcDbEntity
  8
0
  6
CONTINUOUS
 62
     7
100
AcDbVertex
100
AcDb2dVertex
 10
8.3466746708
 20
7.4370743413
 30
0.0
  0
VERTEX
  5
2CC
330
253
100
AcDbEntity
  8
0
  6
CONTINUOUS
 62
     7
100
AcDbVertex
100
AcDb2dVertex
 10
8.3582872657
 20
7.4290012516
 30
0.0
  0
VERTEX
  5
2CD
330
253
100
AcDbEntity
  8
0
  6
CONTINUOUS
 62
     7
100
AcDbVertex
100
AcDb2dVertex
 10
8.3715303765
 20
7.4218131715
 30
0.0
  0
VERTEX
  5
2CE
330
253
100
AcDbEntity
  8
0
  6
CONTINUOUS
 62
     7
100
AcDbVertex
100
AcDb2dVertex
 10
8.3862032509
 20
7.4156190647
 30
0.0
  0
VERTEX
  5
2CF
330
253
100
AcDbEntity
  8
0
  6
CONTINUOUS
 62
     7
100
AcDbVertex
100
AcDb2dVertex
 10
8.4020834633
 20
7.4105128278
 30
0.0
  0
VERTEX
  5
2D0
330
253
100
AcDbEntity
  8
0
  6
CONTINUOUS
 62
     7
100
AcDbVertex
100
AcDb2dVertex
 10
8.4189302858
 20
7.4065718659
 30
0.0
  0
VERTEX
  5
2D1
330
253
100
AcDbEntity
  8
0
  6
CONTINUOUS
 62
     7
100
AcDbVertex
100
AcDb2dVertex
 10
8.4364883377
 20
7.4038559201
 30
0.0
  0
VERTEX
  5
2D2
330
253
100
AcDbEntity
  8
0
  6
CONTINUOUS
 62
     7
100
AcDbVertex
100
AcDb2dVertex
 10
8.4544914569
 20
7.4024061614
 30
0.0
  0
VERTEX
  5
2D3
330
253
100
AcDbEntity
  8
0
  6
CONTINUOUS
 62
     7
100
AcDbVertex
100
AcDb2dVertex
 10
8.4726667344
 20
7.4022445666
 30
0.0
  0
VERTEX
  5
2D4
330
253
100
AcDbEntity
  8
0
  6
CONTINUOUS
 62
     7
100
AcDbVertex
100
AcDb2dVertex
 10
8.4907386515
 20
7.4033735853
 30
0.0
  0
VERTEX
  5
2D5
330
253
100
AcDbEntity
  8
0
  6
CONTINUOUS
 62
     7
100
AcDbVertex
100
AcDb2dVertex
 10
8.5084332564
 20
7.4057761028
 30
0.0
  0
VERTEX
  5
2D6
330
253
100
AcDbEntity
  8
0
  6
CONTINUOUS
 62
     7
100
AcDbVertex
100
AcDb2dVertex
 10
8.525482317
 20
7.4094156993
 30
0.0
  0
VERTEX
  5
2D7
330
253
100
AcDbEntity
  8
0
  6
CONTINUOUS
 62
     7
100
AcDbVertex
100
AcDb2dVertex
 10
8.5416273868
 20
7.4142372023
 30
0.0
  0
VERTEX
  5
2D8
330
253
100
AcDbEntity
  8
0
  6
CONTINUOUS
 62
     7
100
AcDbVertex
100
AcDb2dVertex
 10
8.556623723
 20
7.4201675227
 30
0.0
  0
VERTEX
  5
2D9
330
253
100
AcDbEntity
  8
0
  6
CONTINUOUS
 62
     7
100
AcDbVertex
100
AcDb2dVertex
 10
8.5702439966
 20
7.4271167628
 30
0.0
  0
SEQEND
  5
2DA
330
253
100
AcDbEntity
  8
0
  6
CONTINUOUS
 62
     7
  0
ARC
  5
254
330
1F
100
AcDbEntity
  8
0
  6
CONTINUOUS
 62
     7
100
AcDbCircle
 10
8.5332723103
 20
7.4586504746
 30
0.0
 40
0.0956637574540799
100
AcDbArc
 50
29.453740941
 51
62.6627491528
  0
POLYLINE
  5
255
330
1F
100
AcDbEntity
  8
0
  6
CONTINUOUS
 62
     7
100
AcDb2dPolyline
 66
     1
 10
0.0
 20
0.0
 30
0.0
  0
VERTEX
  5
2DB
330
255
100
AcDbEntity
  8
0
  6
CONTINUOUS
 62
     7
100
AcDbVertex
100
AcDb2dVertex
 10
8.4225864725
 20
7.391932534
 30
0.0
  0
VERTEX
  5
2DC
330
255
100
AcDbEntity
  8
0
  6
CONTINUOUS
 62
     7
100
AcDbVertex
100
AcDb2dVertex
 10
8.4088318755
 20
7.3946025471
 30
0.0
  0
VERTEX
  5
2DD
330
255
100
AcDbEntity
  8
0
  6
CONTINUOUS
 62
     7
100
AcDbVertex
100
AcDb2dVertex
 10
8.3918699956
 20
7.3990903034
 30
0.0
  0
VERTEX
  5
2DE
330
255
100
AcDbEntity
  8
0
  6
CONTINUOUS
 62
     7
100
AcDbVertex
100
AcDb2dVertex
 10
8.3759466091
 20
7.4047046778
 30
0.0
  0
VERTEX
  5
2DF
330
255
100
AcDbEntity
  8
0
  6
CONTINUOUS
 62
     7
100
AcDbVertex
100
AcDb2dVertex
 10
8.3612852454
 20
7.4113668568
 30
0.0
  0
VERTEX
  5
2E0
330
255
100
AcDbEntity
  8
0
  6
CONTINUOUS
 62
     7
100
AcDbVertex
100
AcDb2dVertex
 10
8.348091718
 20
7.4189833181
 30
0.0
  0
VERTEX
  5
2E1
330
255
100
AcDbEntity
  8
0
  6
CONTINUOUS
 62
     7
100
AcDbVertex
100
AcDb2dVertex
 10
8.3365512349
 20
7.4274471432
 30
0.0
  0
VERTEX
  5
2E2
330
255
100
AcDbEntity
  8
0
  6
CONTINUOUS
 62
     7
100
AcDbVertex
100
AcDb2dVertex
 10
8.3268257994
 20
7.4366395186
 30
0.0
  0
VERTEX
  5
2E3
330
255
100
AcDbEntity
  8
0
  6
CONTINUOUS
 62
     7
100
AcDbVertex
100
AcDb2dVertex
 10
8.3190519352
 20
7.4464314034
 30
0.0
  0
VERTEX
  5
2E4
330
255
100
AcDbEntity
  8
0
  6
CONTINUOUS
 62
     7
100
AcDbVertex
100
AcDb2dVertex
 10
8.3133387703
 20
7.4566853411
 30
0.0
  0
VERTEX
  5
2E5
330
255
100
AcDbEntity
  8
0
  6
CONTINUOUS
 62
     7
100
AcDbVertex
100
AcDb2dVertex
 10
8.3097665051
 20
7.4672573889
 30
0.0
  0
VERTEX
  5
2E6
330
255
100
AcDbEntity
  8
0
  6
CONTINUOUS
 62
     7
100
AcDbVertex
100
AcDb2dVertex
 10
8.3083852862
 20
7.4779991383
 30
0.0
  0
VERTEX
  5
2E7
330
255
100
AcDbEntity
  8
0
  6
CONTINUOUS
 62
     7
100
AcDbVertex
100
AcDb2dVertex
 10
8.308448011
 20
7.4822439844
 30
0.0
  0
SEQEND
  5
2E8
330
255
100
AcDbEntity
  8
0
  6
CONTINUOUS
 62
     7
  0
ARC
  5
256
330
1F
100
AcDbEntity
  8
0
  6
CONTINUOUS
 62
     7
100
AcDbCircle
 10
8.3914612861
 20
7.4674261973
 30
0.0
 40
0.0846964361986969
100
AcDbArc
 50
115.8931670099
 51
167.5860138234
  0
LINE
  5
257
330
1F
100
AcDbEntity
  8
0
  6
CONTINUOUS
 62
     7
100
AcDbLine
 10
8.4423161457
 20
7.5380823835
 30
0.0
 11
8.3780250764
 21
7.5009679391
 31
0.0
  0
LINE
  5
258
330
1F
100
AcDbEntity
  8
0
  6
CONTINUOUS
 62
     7
100
AcDbLine
 10
8.3780250764
 20
7.5009679391
 30
0.0
 11
8.401557241
 21
7.4502686653
 31
0.0
  0
LINE
  5
259
330
1F
100
AcDbEntity
  8
0
  6
CONTINUOUS
 62
     7
100
AcDbLine
 10
8.401557241
 20
7.4502686653
 30
0.0
 11
8.489380475
 21
7.4366838358
 31
0.0
  0
LINE
  5
25A
330
1F
100
AcDbEntity
  8
0
  6
CONTINUOUS
 62
     7
100
AcDbLine
 10
8.489380475
 20
7.4366838358
 30
0.0
 11
8.5536715443
 21
7.4737982802
 31
0.0
  0
LINE
  5
25B
330
1F
100
AcDbEntity
  8
0
  6
CONTINUOUS
 62
     7
100
AcDbLine
 10
8.5536715443
 20
7.4737982802
 30
0.0
 11
8.5301393797
 21
7.524497554
 31
0.0
  0
LINE
  5
25C
330
1F
100
AcDbEntity
  8
0
  6
CONTINUOUS
 62
     7
100
AcDbLine
 10
8.5301393797
 20
7.524497554
 30
0.0
 11
8.4423161457
 21
7.5380823835
 31
0.0
  0
LINE
  5
25D
330
1F
100
AcDbEntity
  8
0
  6
CONTINUOUS
 62
     7
100
AcDbLine
 10
8.5301393797
 20
7.4602134507
 30
0.0
 11
8.5301393797
 21
7.524497554
 31
0.0
  0
LINE
  5
25E
330
1F
100
AcDbEntity
  8
0
  6
CONTINUOUS
 62
     7
100
AcDbLine
 10
8.4423161457
 20
7.443963924
 30
0.0
 11
8.4423161457
 21
7.5380823835
 31
0.0
  0
POLYLINE
  5
25F
330
1F
100
AcDbEntity
  8
0
  6
CONTINUOUS
 62
     7
100
AcDb2dPolyline
 66
     1
 10
0.0
 20
0.0
 30
0.0
  0
VERTEX
  5
2E9
330
25F
100
AcDbEntity
  8
0
  6
CONTINUOUS
 62
     7
100
AcDbVertex
100
AcDb2dVertex
 10
9.3845303489
 20
6.9408376214
 30
0.0
  0
VERTEX
  5
2EA
330
25F
100
AcDbEntity
  8
0
  6
CONTINUOUS
 62
     7
100
AcDbVertex
100
AcDb2dVertex
 10
9.3837578155
 20
6.9778675574
 30
0.0
  0
VERTEX
  5
2EB
330
25F
100
AcDbEntity
  8
0
  6
CONTINUOUS
 62
     7
100
AcDbVertex
100
AcDb2dVertex
 10
9.3814419655
 20
7.0139216608
 30
0.0
  0
VERTEX
  5
2EC
330
25F
100
AcDbEntity
  8
0
  6
CONTINUOUS
 62
     7
100
AcDbVertex
100
AcDb2dVertex
 10
9.3775880449
 20
7.0489182572
 30
0.0
  0
VERTEX
  5
2ED
330
25F
100
AcDbEntity
  8
0
  6
CONTINUOUS
 62
     7
100
AcDbVertex
100
AcDb2dVertex
 10
9.372204784
 20
7.0827780682
 30
0.0
  0
VERTEX
  5
2EE
330
25F
100
AcDbEntity
  8
0
  6
CONTINUOUS
 62
     7
100
AcDbVertex
100
AcDb2dVertex
 10
9.3653043779
 20
7.1154243903
 30
0.0
  0
VERTEX
  5
2EF
330
25F
100
AcDbEntity
  8
0
  6
CONTINUOUS
 62
     7
100
AcDbVertex
100
AcDb2dVertex
 10
9.356902458
 20
7.1467832693
 30
0.0
  0
VERTEX
  5
2F0
330
25F
100
AcDbEntity
  8
0
  6
CONTINUOUS
 62
     7
100
AcDbVertex
100
AcDb2dVertex
 10
9.3470180574
 20
7.176783667
 30
0.0
  0
VERTEX
  5
2F1
330
25F
100
AcDbEntity
  8
0
  6
CONTINUOUS
 62
     7
100
AcDbVertex
100
AcDb2dVertex
 10
9.3356735675
 20
7.2053576231
 30
0.0
  0
VERTEX
  5
2F2
330
25F
100
AcDbEntity
  8
0
  6
CONTINUOUS
 62
     7
100
AcDbVertex
100
AcDb2dVertex
 10
9.3228946872
 20
7.2324404082
 30
0.0
  0
VERTEX
  5
2F3
330
25F
100
AcDbEntity
  8
0
  6
CONTINUOUS
 62
     7
100
AcDbVertex
100
AcDb2dVertex
 10
9.3087103647
 20
7.2579706712
 30
0.0
  0
VERTEX
  5
2F4
330
25F
100
AcDbEntity
  8
0
  6
CONTINUOUS
 62
     7
100
AcDbVertex
100
AcDb2dVertex
 10
9.2931527322
 20
7.2818905778
 30
0.0
  0
VERTEX
  5
2F5
330
25F
100
AcDbEntity
  8
0
  6
CONTINUOUS
 62
     7
100
AcDbVertex
100
AcDb2dVertex
 10
9.2762570326
 20
7.3041459417
 30
0.0
  0
VERTEX
  5
2F6
330
25F
100
AcDbEntity
  8
0
  6
CONTINUOUS
 62
     7
100
AcDbVertex
100
AcDb2dVertex
 10
9.2580615402
 20
7.3246863474
 30
0.0
  0
VERTEX
  5
2F7
330
25F
100
AcDbEntity
  8
0
  6
CONTINUOUS
 62
     7
100
AcDbVertex
100
AcDb2dVertex
 10
9.2386074735
 20
7.3434652642
 30
0.0
  0
VERTEX
  5
2F8
330
25F
100
AcDbEntity
  8
0
  6
CONTINUOUS
 62
     7
100
AcDbVertex
100
AcDb2dVertex
 10
9.2179389024
 20
7.3604401518
 30
0.0
  0
VERTEX
  5
2F9
330
25F
100
AcDbEntity
  8
0
  6
CONTINUOUS
 62
     7
100
AcDbVertex
100
AcDb2dVertex
 10
9.1961026478
 20
7.3755725567
 30
0.0
  0
VERTEX
  5
2FA
330
25F
100
AcDbEntity
  8
0
  6
CONTINUOUS
 62
     7
100
AcDbVertex
100
AcDb2dVertex
 10
9.1731481757
 20
7.3888281992
 30
0.0
  0
VERTEX
  5
2FB
330
25F
100
AcDbEntity
  8
0
  6
CONTINUOUS
 62
     7
100
AcDbVertex
100
AcDb2dVertex
 10
9.1491274855
 20
7.4001770508
 30
0.0
  0
VERTEX
  5
2FC
330
25F
100
AcDbEntity
  8
0
  6
CONTINUOUS
 62
     7
100
AcDbVertex
100
AcDb2dVertex
 10
9.1240949918
 20
7.4095934029
 30
0.0
  0
VERTEX
  5
2FD
330
25F
100
AcDbEntity
  8
0
  6
CONTINUOUS
 62
     7
100
AcDbVertex
100
AcDb2dVertex
 10
9.0981074013
 20
7.4170559243
 30
0.0
  0
VERTEX
  5
2FE
330
25F
100
AcDbEntity
  8
0
  6
CONTINUOUS
 62
     7
100
AcDbVertex
100
AcDb2dVertex
 10
9.071223584
 20
7.42254771
 30
0.0
  0
VERTEX
  5
2FF
330
25F
100
AcDbEntity
  8
0
  6
CONTINUOUS
 62
     7
100
AcDbVertex
100
AcDb2dVertex
 10
9.0435044407
 20
7.4260563194
 30
0.0
  0
VERTEX
  5
300
330
25F
100
AcDbEntity
  8
0
  6
CONTINUOUS
 62
     7
100
AcDbVertex
100
AcDb2dVertex
 10
9.0150127639
 20
7.4275738043
 30
0.0
  0
VERTEX
  5
301
330
25F
100
AcDbEntity
  8
0
  6
CONTINUOUS
 62
     7
100
AcDbVertex
100
AcDb2dVertex
 10
8.9858130966
 20
7.4270967273
 30
0.0
  0
VERTEX
  5
302
330
25F
100
AcDbEntity
  8
0
  6
CONTINUOUS
 62
     7
100
AcDbVertex
100
AcDb2dVertex
 10
8.9559715854
 20
7.4246261688
 30
0.0
  0
VERTEX
  5
303
330
25F
100
AcDbEntity
  8
0
  6
CONTINUOUS
 62
     7
100
AcDbVertex
100
AcDb2dVertex
 10
8.9255558309
 20
7.4201677257
 30
0.0
  0
VERTEX
  5
304
330
25F
100
AcDbEntity
  8
0
  6
CONTINUOUS
 62
     7
100
AcDbVertex
100
AcDb2dVertex
 10
8.8946347346
 20
7.4137314977
 30
0.0
  0
VERTEX
  5
305
330
25F
100
AcDbEntity
  8
0
  6
CONTINUOUS
 62
     7
100
AcDbVertex
100
AcDb2dVertex
 10
8.8632783426
 20
7.405332065
 30
0.0
  0
VERTEX
  5
306
330
25F
100
AcDbEntity
  8
0
  6
CONTINUOUS
 62
     7
100
AcDbVertex
100
AcDb2dVertex
 10
8.8315576874
 20
7.3949884548
 30
0.0
  0
VERTEX
  5
307
330
25F
100
AcDbEntity
  8
0
  6
CONTINUOUS
 62
     7
100
AcDbVertex
100
AcDb2dVertex
 10
8.7995446264
 20
7.3827240989
 30
0.0
  0
VERTEX
  5
308
330
25F
100
AcDbEntity
  8
0
  6
CONTINUOUS
 62
     7
100
AcDbVertex
100
AcDb2dVertex
 10
8.7673116794
 20
7.36856678
 30
0.0
  0
VERTEX
  5
309
330
25F
100
AcDbEntity
  8
0
  6
CONTINUOUS
 62
     7
100
AcDbVertex
100
AcDb2dVertex
 10
8.7349318645
 20
7.352548569
 30
0.0
  0
VERTEX
  5
30A
330
25F
100
AcDbEntity
  8
0
  6
CONTINUOUS
 62
     7
100
AcDbVertex
100
AcDb2dVertex
 10
8.7024785324
 20
7.3347057521
 30
0.0
  0
VERTEX
  5
30B
330
25F
100
AcDbEntity
  8
0
  6
CONTINUOUS
 62
     7
100
AcDbVertex
100
AcDb2dVertex
 10
8.6700252003
 20
7.3150787493
 30
0.0
  0
VERTEX
  5
30C
330
25F
100
AcDbEntity
  8
0
  6
CONTINUOUS
 62
     7
100
AcDbVertex
100
AcDb2dVertex
 10
8.6376453854
 20
7.2937120218
 30
0.0
  0
VERTEX
  5
30D
330
25F
100
AcDbEntity
  8
0
  6
CONTINUOUS
 62
     7
100
AcDbVertex
100
AcDb2dVertex
 10
8.6054124384
 20
7.2706539723
 30
0.0
  0
VERTEX
  5
30E
330
25F
100
AcDbEntity
  8
0
  6
CONTINUOUS
 62
     7
100
AcDbVertex
100
AcDb2dVertex
 10
8.5733993774
 20
7.2459568347
 30
0.0
  0
VERTEX
  5
30F
330
25F
100
AcDbEntity
  8
0
  6
CONTINUOUS
 62
     7
100
AcDbVertex
100
AcDb2dVertex
 10
8.5416787222
 20
7.2196765559
 30
0.0
  0
VERTEX
  5
310
330
25F
100
AcDbEntity
  8
0
  6
CONTINUOUS
 62
     7
100
AcDbVertex
100
AcDb2dVertex
 10
8.5103223302
 20
7.1918726691
 30
0.0
  0
VERTEX
  5
311
330
25F
100
AcDbEntity
  8
0
  6
CONTINUOUS
 62
     7
100
AcDbVertex
100
AcDb2dVertex
 10
8.4794012339
 20
7.1626081592
 30
0.0
  0
VERTEX
  5
312
330
25F
100
AcDbEntity
  8
0
  6
CONTINUOUS
 62
     7
100
AcDbVertex
100
AcDb2dVertex
 10
8.4489854794
 20
7.1319493196
 30
0.0
  0
VERTEX
  5
313
330
25F
100
AcDbEntity
  8
0
  6
CONTINUOUS
 62
     7
100
AcDbVertex
100
AcDb2dVertex
 10
8.4191439682
 20
7.0999656026
 30
0.0
  0
VERTEX
  5
314
330
25F
100
AcDbEntity
  8
0
  6
CONTINUOUS
 62
     7
100
AcDbVertex
100
AcDb2dVertex
 10
8.3899443009
 20
7.0667294614
 30
0.0
  0
VERTEX
  5
315
330
25F
100
AcDbEntity
  8
0
  6
CONTINUOUS
 62
     7
100
AcDbVertex
100
AcDb2dVertex
 10
8.3614526242
 20
7.0323161867
 30
0.0
  0
VERTEX
  5
316
330
25F
100
AcDbEntity
  8
0
  6
CONTINUOUS
 62
     7
100
AcDbVertex
100
AcDb2dVertex
 10
8.3337334808
 20
6.9968037356
 30
0.0
  0
VERTEX
  5
317
330
25F
100
AcDbEntity
  8
0
  6
CONTINUOUS
 62
     7
100
AcDbVertex
100
AcDb2dVertex
 10
8.3068496636
 20
6.9602725552
 30
0.0
  0
VERTEX
  5
318
330
25F
100
AcDbEntity
  8
0
  6
CONTINUOUS
 62
     7
100
AcDbVertex
100
AcDb2dVertex
 10
8.280862073
 20
6.9228054004
 30
0.0
  0
VERTEX
  5
319
330
25F
100
AcDbEntity
  8
0
  6
CONTINUOUS
 62
     7
100
AcDbVertex
100
AcDb2dVertex
 10
8.2558295793
 20
6.8844871463
 30
0.0
  0
VERTEX
  5
31A
330
25F
100
AcDbEntity
  8
0
  6
CONTINUOUS
 62
     7
100
AcDbVertex
100
AcDb2dVertex
 10
8.2318088891
 20
6.8454045961
 30
0.0
  0
VERTEX
  5
31B
330
25F
100
AcDbEntity
  8
0
  6
CONTINUOUS
 62
     7
100
AcDbVertex
100
AcDb2dVertex
 10
8.2088544171
 20
6.8056462844
 30
0.0
  0
VERTEX
  5
31C
330
25F
100
AcDbEntity
  8
0
  6
CONTINUOUS
 62
     7
100
AcDbVertex
100
AcDb2dVertex
 10
8.1870181624
 20
6.7653022765
 30
0.0
  0
VERTEX
  5
31D
330
25F
100
AcDbEntity
  8
0
  6
CONTINUOUS
 62
     7
100
AcDbVertex
100
AcDb2dVertex
 10
8.1663495913
 20
6.7244639645
 30
0.0
  0
VERTEX
  5
31E
330
25F
100
AcDbEntity
  8
0
  6
CONTINUOUS
 62
     7
100
AcDbVertex
100
AcDb2dVertex
 10
8.1468955246
 20
6.6832238605
 30
0.0
  0
VERTEX
  5
31F
330
25F
100
AcDbEntity
  8
0
  6
CONTINUOUS
 62
     7
100
AcDbVertex
100
AcDb2dVertex
 10
8.1287000322
 20
6.6416753864
 30
0.0
  0
VERTEX
  5
320
330
25F
100
AcDbEntity
  8
0
  6
CONTINUOUS
 62
     7
100
AcDbVertex
100
AcDb2dVertex
 10
8.1118043326
 20
6.599912663
 30
0.0
  0
VERTEX
  5
321
330
25F
100
AcDbEntity
  8
0
  6
CONTINUOUS
 62
     7
100
AcDbVertex
100
AcDb2dVertex
 10
8.0962467001
 20
6.5580302963
 30
0.0
  0
VERTEX
  5
322
330
25F
100
AcDbEntity
  8
0
  6
CONTINUOUS
 62
     7
100
AcDbVertex
100
AcDb2dVertex
 10
8.0820623776
 20
6.5161231632
 30
0.0
  0
VERTEX
  5
323
330
25F
100
AcDbEntity
  8
0
  6
CONTINUOUS
 62
     7
100
AcDbVertex
100
AcDb2dVertex
 10
8.0692834973
 20
6.4742861969
 30
0.0
  0
VERTEX
  5
324
330
25F
100
AcDbEntity
  8
0
  6
CONTINUOUS
 62
     7
100
AcDbVertex
100
AcDb2dVertex
 10
8.0579390074
 20
6.4326141716
 30
0.0
  0
VERTEX
  5
325
330
25F
100
AcDbEntity
  8
0
  6
CONTINUOUS
 62
     7
100
AcDbVertex
100
AcDb2dVertex
 10
8.0480546068
 20
6.3912014878
 30
0.0
  0
VERTEX
  5
326
330
25F
100
AcDbEntity
  8
0
  6
CONTINUOUS
 62
     7
100
AcDbVertex
100
AcDb2dVertex
 10
8.0396526869
 20
6.3501419586
 30
0.0
  0
VERTEX
  5
327
330
25F
100
AcDbEntity
  8
0
  6
CONTINUOUS
 62
     7
100
AcDbVertex
100
AcDb2dVertex
 10
8.0327522808
 20
6.3095285971
 30
0.0
  0
VERTEX
  5
328
330
25F
100
AcDbEntity
  8
0
  6
CONTINUOUS
 62
     7
100
AcDbVertex
100
AcDb2dVertex
 10
8.02736902
 20
6.2694534055
 30
0.0
  0
VERTEX
  5
329
330
25F
100
AcDbEntity
  8
0
  6
CONTINUOUS
 62
     7
100
AcDbVertex
100
AcDb2dVertex
 10
8.0235150993
 20
6.230007167
 30
0.0
  0
VERTEX
  5
32A
330
25F
100
AcDbEntity
  8
0
  6
CONTINUOUS
 62
     7
100
AcDbVertex
100
AcDb2dVertex
 10
8.0211992493
 20
6.1912792401
 30
0.0
  0
VERTEX
  5
32B
330
25F
100
AcDbEntity
  8
0
  6
CONTINUOUS
 62
     7
100
AcDbVertex
100
AcDb2dVertex
 10
8.0204267159
 20
6.153357356
 30
0.0
  0
VERTEX
  5
32C
330
25F
100
AcDbEntity
  8
0
  6
CONTINUOUS
 62
     7
100
AcDbVertex
100
AcDb2dVertex
 10
8.0211992493
 20
6.11632742
 30
0.0
  0
VERTEX
  5
32D
330
25F
100
AcDbEntity
  8
0
  6
CONTINUOUS
 62
     7
100
AcDbVertex
100
AcDb2dVertex
 10
8.0235150993
 20
6.0802733166
 30
0.0
  0
VERTEX
  5
32E
330
25F
100
AcDbEntity
  8
0
  6
CONTINUOUS
 62
     7
100
AcDbVertex
100
AcDb2dVertex
 10
8.02736902
 20
6.0452767202
 30
0.0
  0
VERTEX
  5
32F
330
25F
100
AcDbEntity
  8
0
  6
CONTINUOUS
 62
     7
100
AcDbVertex
100
AcDb2dVertex
 10
8.0327522808
 20
6.0114169092
 30
0.0
  0
VERTEX
  5
330
330
25F
100
AcDbEntity
  8
0
  6
CONTINUOUS
 62
     7
100
AcDbVertex
100
AcDb2dVertex
 10
8.0396526869
 20
5.9787705871
 30
0.0
  0
VERTEX
  5
331
330
25F
100
AcDbEntity
  8
0
  6
CONTINUOUS
 62
     7
100
AcDbVertex
100
AcDb2dVertex
 10
8.0480546068
 20
5.9474117081
 30
0.0
  0
VERTEX
  5
332
330
25F
100
AcDbEntity
  8
0
  6
CONTINUOUS
 62
     7
100
AcDbVertex
100
AcDb2dVertex
 10
8.0579390074
 20
5.9174113103
 30
0.0
  0
VERTEX
  5
333
330
25F
100
AcDbEntity
  8
0
  6
CONTINUOUS
 62
     7
100
AcDbVertex
100
AcDb2dVertex
 10
8.0692834973
 20
5.8888373543
 30
0.0
  0
VERTEX
  5
334
330
25F
100
AcDbEntity
  8
0
  6
CONTINUOUS
 62
     7
100
AcDbVertex
100
AcDb2dVertex
 10
8.0820623776
 20
5.8617545692
 30
0.0
  0
VERTEX
  5
335
330
25F
100
AcDbEntity
  8
0
  6
CONTINUOUS
 62
     7
100
AcDbVertex
100
AcDb2dVertex
 10
8.0962467001
 20
5.8362243062
 30
0.0
  0
VERTEX
  5
336
330
25F
100
AcDbEntity
  8
0
  6
CONTINUOUS
 62
     7
100
AcDbVertex
100
AcDb2dVertex
 10
8.1118043326
 20
5.8123043996
 30
0.0
  0
VERTEX
  5
337
330
25F
100
AcDbEntity
  8
0
  6
CONTINUOUS
 62
     7
100
AcDbVertex
100
AcDb2dVertex
 10
8.1287000322
 20
5.7900490357
 30
0.0
  0
VERTEX
  5
338
330
25F
100
AcDbEntity
  8
0
  6
CONTINUOUS
 62
     7
100
AcDbVertex
100
AcDb2dVertex
 10
8.1468955246
 20
5.76950863
 30
0.0
  0
VERTEX
  5
339
330
25F
100
AcDbEntity
  8
0
  6
CONTINUOUS
 62
     7
100
AcDbVertex
100
AcDb2dVertex
 10
8.1663495913
 20
5.7507297132
 30
0.0
  0
VERTEX
  5
33A
330
25F
100
AcDbEntity
  8
0
  6
CONTINUOUS
 62
     7
100
AcDbVertex
100
AcDb2dVertex
 10
8.1870181624
 20
5.7337548256
 30
0.0
  0
VERTEX
  5
33B
330
25F
100
AcDbEntity
  8
0
  6
CONTINUOUS
 62
     7
100
AcDbVertex
100
AcDb2dVertex
 10
8.2088544171
 20
5.7186224206
 30
0.0
  0
VERTEX
  5
33C
330
25F
100
AcDbEntity
  8
0
  6
CONTINUOUS
 62
     7
100
AcDbVertex
100
AcDb2dVertex
 10
8.2318088891
 20
5.7053667782
 30
0.0
  0
VERTEX
  5
33D
330
25F
100
AcDbEntity
  8
0
  6
CONTINUOUS
 62
     7
100
AcDbVertex
100
AcDb2dVertex
 10
8.2558295793
 20
5.6940179266
 30
0.0
  0
VERTEX
  5
33E
330
25F
100
AcDbEntity
  8
0
  6
CONTINUOUS
 62
     7
100
AcDbVertex
100
AcDb2dVertex
 10
8.280862073
 20
5.6846015745
 30
0.0
  0
VERTEX
  5
33F
330
25F
100
AcDbEntity
  8
0
  6
CONTINUOUS
 62
     7
100
AcDbVertex
100
AcDb2dVertex
 10
8.3068496636
 20
5.6771390531
 30
0.0
  0
VERTEX
  5
340
330
25F
100
AcDbEntity
  8
0
  6
CONTINUOUS
 62
     7
100
AcDbVertex
100
AcDb2dVertex
 10
8.3337334808
 20
5.6716472674
 30
0.0
  0
VERTEX
  5
341
330
25F
100
AcDbEntity
  8
0
  6
CONTINUOUS
 62
     7
100
AcDbVertex
100
AcDb2dVertex
 10
8.3614526242
 20
5.668138658
 30
0.0
  0
VERTEX
  5
342
330
25F
100
AcDbEntity
  8
0
  6
CONTINUOUS
 62
     7
100
AcDbVertex
100
AcDb2dVertex
 10
8.3899443009
 20
5.666621173
 30
0.0
  0
VERTEX
  5
343
330
25F
100
AcDbEntity
  8
0
  6
CONTINUOUS
 62
     7
100
AcDbVertex
100
AcDb2dVertex
 10
8.4191439682
 20
5.6670982501
 30
0.0
  0
VERTEX
  5
344
330
25F
100
AcDbEntity
  8
0
  6
CONTINUOUS
 62
     7
100
AcDbVertex
100
AcDb2dVertex
 10
8.4489854794
 20
5.6695688085
 30
0.0
  0
VERTEX
  5
345
330
25F
100
AcDbEntity
  8
0
  6
CONTINUOUS
 62
     7
100
AcDbVertex
100
AcDb2dVertex
 10
8.4794012339
 20
5.6740272517
 30
0.0
  0
VERTEX
  5
346
330
25F
100
AcDbEntity
  8
0
  6
CONTINUOUS
 62
     7
100
AcDbVertex
100
AcDb2dVertex
 10
8.5103223302
 20
5.6804634797
 30
0.0
  0
VERTEX
  5
347
330
25F
100
AcDbEntity
  8
0
  6
CONTINUOUS
 62
     7
100
AcDbVertex
100
AcDb2dVertex
 10
8.5416787222
 20
5.6888629124
 30
0.0
  0
VERTEX
  5
348
330
25F
100
AcDbEntity
  8
0
  6
CONTINUOUS
 62
     7
100
AcDbVertex
100
AcDb2dVertex
 10
8.5733993774
 20
5.6992065226
 30
0.0
  0
VERTEX
  5
349
330
25F
100
AcDbEntity
  8
0
  6
CONTINUOUS
 62
     7
100
AcDbVertex
100
AcDb2dVertex
 10
8.6054124384
 20
5.7114708784
 30
0.0
  0
VERTEX
  5
34A
330
25F
100
AcDbEntity
  8
0
  6
CONTINUOUS
 62
     7
100
AcDbVertex
100
AcDb2dVertex
 10
8.6376453854
 20
5.7256281974
 30
0.0
  0
VERTEX
  5
34B
330
25F
100
AcDbEntity
  8
0
  6
CONTINUOUS
 62
     7
100
AcDbVertex
100
AcDb2dVertex
 10
8.6700252003
 20
5.7416464084
 30
0.0
  0
VERTEX
  5
34C
330
25F
100
AcDbEntity
  8
0
  6
CONTINUOUS
 62
     7
100
AcDbVertex
100
AcDb2dVertex
 10
8.7024785324
 20
5.7594892253
 30
0.0
  0
VERTEX
  5
34D
330
25F
100
AcDbEntity
  8
0
  6
CONTINUOUS
 62
     7
100
AcDbVertex
100
AcDb2dVertex
 10
8.7349318645
 20
5.7791162281
 30
0.0
  0
VERTEX
  5
34E
330
25F
100
AcDbEntity
  8
0
  6
CONTINUOUS
 62
     7
100
AcDbVertex
100
AcDb2dVertex
 10
8.7673116794
 20
5.8004829556
 30
0.0
  0
VERTEX
  5
34F
330
25F
100
AcDbEntity
  8
0
  6
CONTINUOUS
 62
     7
100
AcDbVertex
100
AcDb2dVertex
 10
8.7995446264
 20
5.823541005
 30
0.0
  0
VERTEX
  5
350
330
25F
100
AcDbEntity
  8
0
  6
CONTINUOUS
 62
     7
100
AcDbVertex
100
AcDb2dVertex
 10
8.8315576874
 20
5.8482381427
 30
0.0
  0
VERTEX
  5
351
330
25F
100
AcDbEntity
  8
0
  6
CONTINUOUS
 62
     7
100
AcDbVertex
100
AcDb2dVertex
 10
8.8632783426
 20
5.8745184215
 30
0.0
  0
VERTEX
  5
352
330
25F
100
AcDbEntity
  8
0
  6
CONTINUOUS
 62
     7
100
AcDbVertex
100
AcDb2dVertex
 10
8.8946347346
 20
5.9023223083
 30
0.0
  0
VERTEX
  5
353
330
25F
100
AcDbEntity
  8
0
  6
CONTINUOUS
 62
     7
100
AcDbVertex
100
AcDb2dVertex
 10
8.9255558309
 20
5.9315868182
 30
0.0
  0
VERTEX
  5
354
330
25F
100
AcDbEntity
  8
0
  6
CONTINUOUS
 62
     7
100
AcDbVertex
100
AcDb2dVertex
 10
8.9559715854
 20
5.9622456577
 30
0.0
  0
VERTEX
  5
355
330
25F
100
AcDbEntity
  8
0
  6
CONTINUOUS
 62
     7
100
AcDbVertex
100
AcDb2dVertex
 10
8.9858130966
 20
5.9942293748
 30
0.0
  0
VERTEX
  5
356
330
25F
100
AcDbEntity
  8
0
  6
CONTINUOUS
 62
     7
100
AcDbVertex
100
AcDb2dVertex
 10
9.0150127639
 20
6.027465516
 30
0.0
  0
VERTEX
  5
357
330
25F
100
AcDbEntity
  8
0
  6
CONTINUOUS
 62
     7
100
AcDbVertex
100
AcDb2dVertex
 10
9.0435044407
 20
6.0618787907
 30
0.0
  0
VERTEX
  5
358
330
25F
100
AcDbEntity
  8
0
  6
CONTINUOUS
 62
     7
100
AcDbVertex
100
AcDb2dVertex
 10
9.071223584
 20
6.0973912418
 30
0.0
  0
VERTEX
  5
359
330
25F
100
AcDbEntity
  8
0
  6
CONTINUOUS
 62
     7
100
AcDbVertex
100
AcDb2dVertex
 10
9.0981074013
 20
6.1339224222
 30
0.0
  0
VERTEX
  5
35A
330
25F
100
AcDbEntity
  8
0
  6
CONTINUOUS
 62
     7
100
AcDbVertex
100
AcDb2dVertex
 10
9.1240949918
 20
6.171389577
 30
0.0
  0
VERTEX
  5
35B
330
25F
100
AcDbEntity
  8
0
  6
CONTINUOUS
 62
     7
100
AcDbVertex
100
AcDb2dVertex
 10
9.1491274855
 20
6.2097078311
 30
0.0
  0
VERTEX
  5
35C
330
25F
100
AcDbEntity
  8
0
  6
CONTINUOUS
 62
     7
100
AcDbVertex
100
AcDb2dVertex
 10
9.1731481757
 20
6.2487903813
 30
0.0
  0
VERTEX
  5
35D
330
25F
100
AcDbEntity
  8
0
  6
CONTINUOUS
 62
     7
100
AcDbVertex
100
AcDb2dVertex
 10
9.1961026478
 20
6.288548693
 30
0.0
  0
VERTEX
  5
35E
330
25F
100
AcDbEntity
  8
0
  6
CONTINUOUS
 62
     7
100
AcDbVertex
100
AcDb2dVertex
 10
9.2179389024
 20
6.3288927009
 30
0.0
  0
VERTEX
  5
35F
330
25F
100
AcDbEntity
  8
0
  6
CONTINUOUS
 62
     7
100
AcDbVertex
100
AcDb2dVertex
 10
9.2386074735
 20
6.3697310128
 30
0.0
  0
VERTEX
  5
360
330
25F
100
AcDbEntity
  8
0
  6
CONTINUOUS
 62
     7
100
AcDbVertex
100
AcDb2dVertex
 10
9.2580615402
 20
6.4109711169
 30
0.0
  0
VERTEX
  5
361
330
25F
100
AcDbEntity
  8
0
  6
CONTINUOUS
 62
     7
100
AcDbVertex
100
AcDb2dVertex
 10
9.2762570326
 20
6.4525195909
 30
0.0
  0
VERTEX
  5
362
330
25F
100
AcDbEntity
  8
0
  6
CONTINUOUS
 62
     7
100
AcDbVertex
100
AcDb2dVertex
 10
9.2931527322
 20
6.4942823144
 30
0.0
  0
VERTEX
  5
363
330
25F
100
AcDbEntity
  8
0
  6
CONTINUOUS
 62
     7
100
AcDbVertex
100
AcDb2dVertex
 10
9.3087103647
 20
6.5361646811
 30
0.0
  0
VERTEX
  5
364
330
25F
100
AcDbEntity
  8
0
  6
CONTINUOUS
 62
     7
100
AcDbVertex
100
AcDb2dVertex
 10
9.3228946872
 20
6.5780718142
 30
0.0
  0
VERTEX
  5
365
330
25F
100
AcDbEntity
  8
0
  6
CONTINUOUS
 62
     7
100
AcDbVertex
100
AcDb2dVertex
 10
9.3356735675
 20
6.6199087805
 30
0.0
  0
VERTEX
  5
366
330
25F
100
AcDbEntity
  8
0
  6
CONTINUOUS
 62
     7
100
AcDbVertex
100
AcDb2dVertex
 10
9.3470180574
 20
6.6615808058
 30
0.0
  0
VERTEX
  5
367
330
25F
100
AcDbEntity
  8
0
  6
CONTINUOUS
 62
     7
100
AcDbVertex
100
AcDb2dVertex
 10
9.356902458
 20
6.7029934896
 30
0.0
  0
VERTEX
  5
368
330
25F
100
AcDbEntity
  8
0
  6
CONTINUOUS
 62
     7
100
AcDbVertex
100
AcDb2dVertex
 10
9.3653043779
 20
6.7440530188
 30
0.0
  0
VERTEX
  5
369
330
25F
100
AcDbEntity
  8
0
  6
CONTINUOUS
 62
     7
100
AcDbVertex
100
AcDb2dVertex
 10
9.372204784
 20
6.7846663803
 30
0.0
  0
VERTEX
  5
36A
330
25F
100
AcDbEntity
  8
0
  6
CONTINUOUS
 62
     7
100
AcDbVertex
100
AcDb2dVertex
 10
9.3775880449
 20
6.8247415719
 30
0.0
  0
VERTEX
  5
36B
330
25F
100
AcDbEntity
  8
0
  6
CONTINUOUS
 62
     7
100
AcDbVertex
100
AcDb2dVertex
 10
9.3814419655
 20
6.8641878104
 30
0.0
  0
VERTEX
  5
36C
330
25F
100
AcDbEntity
  8
0
  6
CONTINUOUS
 62
     7
100
AcDbVertex
100
AcDb2dVertex
 10
9.3837578155
 20
6.9029157373
 30
0.0
  0
VERTEX
  5
36D
330
25F
100
AcDbEntity
  8
0
  6
CONTINUOUS
 62
     7
100
AcDbVertex
100
AcDb2dVertex
 10
9.3845303489
 20
6.9408376214
 30
0.0
  0
SEQEND
  5
36E
330
25F
100
AcDbEntity
  8
0
  6
CONTINUOUS
 62
     7
  0
POLYLINE
  5
260
330
1F
100
AcDbEntity
  8
0
  6
CONTINUOUS
 62
     7
100
AcDb2dPolyline
 66
     1
 10
0.0
 20
0.0
 30
0.0
  0
VERTEX
  5
36F
330
260
100
AcDbEntity
  8
0
  6
CONTINUOUS
 62
     7
100
AcDbVertex
100
AcDb2dVertex
 10
8.6886722225
 20
5.7515164106
 30
0.0
  0
VERTEX
  5
370
330
260
100
AcDbEntity
  8
0
  6
CONTINUOUS
 62
     7
100
AcDbVertex
100
AcDb2dVertex
 10
8.6722437505
 20
5.7422533088
 30
0.0
  0
VERTEX
  5
371
330
260
100
AcDbEntity
  8
0
  6
CONTINUOUS
 62
     7
100
AcDbVertex
100
AcDb2dVertex
 10
8.6396489011
 20
5.7252028845
 30
0.0
  0
VERTEX
  5
372
330
260
100
AcDbEntity
  8
0
  6
CONTINUOUS
 62
     7
100
AcDbVertex
100
AcDb2dVertex
 10
8.607161567
 20
5.7099768267
 30
0.0
  0
VERTEX
  5
373
330
260
100
AcDbEntity
  8
0
  6
CONTINUOUS
 62
     7
100
AcDbVertex
100
AcDb2dVertex
 10
8.5748531623
 20
5.6966086056
 30
0.0
  0
VERTEX
  5
374
330
260
100
AcDbEntity
  8
0
  6
CONTINUOUS
 62
     7
100
AcDbVertex
100
AcDb2dVertex
 10
8.5427947079
 20
5.6851276074
 30
0.0
  0
VERTEX
  5
375
330
260
100
AcDbEntity
  8
0
  6
CONTINUOUS
 62
     7
100
AcDbVertex
100
AcDb2dVertex
 10
8.5110566754
 20
5.67555907
 30
0.0
  0
VERTEX
  5
376
330
260
100
AcDbEntity
  8
0
  6
CONTINUOUS
 62
     7
100
AcDbVertex
100
AcDb2dVertex
 10
8.4797088317
 20
5.6679240269
 30
0.0
  0
VERTEX
  5
377
330
260
100
AcDbEntity
  8
0
  6
CONTINUOUS
 62
     7
100
AcDbVertex
100
AcDb2dVertex
 10
8.4488200862
 20
5.6622392617
 30
0.0
  0
VERTEX
  5
378
330
260
100
AcDbEntity
  8
0
  6
CONTINUOUS
 62
     7
100
AcDbVertex
100
AcDb2dVertex
 10
8.4184583391
 20
5.6585172707
 30
0.0
  0
VERTEX
  5
379
330
260
100
AcDbEntity
  8
0
  6
CONTINUOUS
 62
     7
100
AcDbVertex
100
AcDb2dVertex
 10
8.3886903322
 20
5.6567662357
 30
0.0
  0
VERTEX
  5
37A
330
260
100
AcDbEntity
  8
0
  6
CONTINUOUS
 62
     7
100
AcDbVertex
100
AcDb2dVertex
 10
8.3595815019
 20
5.6569900058
 30
0.0
  0
VERTEX
  5
37B
330
260
100
AcDbEntity
  8
0
  6
CONTINUOUS
 62
     7
100
AcDbVertex
100
AcDb2dVertex
 10
8.3311958357
 20
5.6591880891
 30
0.0
  0
VERTEX
  5
37C
330
260
100
AcDbEntity
  8
0
  6
CONTINUOUS
 62
     7
100
AcDbVertex
100
AcDb2dVertex
 10
8.3035957316
 20
5.6633556538
 30
0.0
  0
VERTEX
  5
37D
330
260
100
AcDbEntity
  8
0
  6
CONTINUOUS
 62
     7
100
AcDbVertex
100
AcDb2dVertex
 10
8.2768418606
 20
5.6694835387
 30
0.0
  0
VERTEX
  5
37E
330
260
100
AcDbEntity
  8
0
  6
CONTINUOUS
 62
     7
100
AcDbVertex
100
AcDb2dVertex
 10
8.2509930334
 20
5.6775582733
 30
0.0
  0
VERTEX
  5
37F
330
260
100
AcDbEntity
  8
0
  6
CONTINUOUS
 62
     7
100
AcDbVertex
100
AcDb2dVertex
 10
8.2261060714
 20
5.6875621076
 30
0.0
  0
VERTEX
  5
380
330
260
100
AcDbEntity
  8
0
  6
CONTINUOUS
 62
     7
100
AcDbVertex
100
AcDb2dVertex
 10
8.2022356815
 20
5.699473051
 30
0.0
  0
VERTEX
  5
381
330
260
100
AcDbEntity
  8
0
  6
CONTINUOUS
 62
     7
100
AcDbVertex
100
AcDb2dVertex
 10
8.1794343361
 20
5.7132649207
 30
0.0
  0
VERTEX
  5
382
330
260
100
AcDbEntity
  8
0
  6
CONTINUOUS
 62
     7
100
AcDbVertex
100
AcDb2dVertex
 10
8.1577521574
 20
5.7289073991
 30
0.0
  0
VERTEX
  5
383
330
260
100
AcDbEntity
  8
0
  6
CONTINUOUS
 62
     7
100
AcDbVertex
100
AcDb2dVertex
 10
8.1372368076
 20
5.7463661007
 30
0.0
  0
VERTEX
  5
384
330
260
100
AcDbEntity
  8
0
  6
CONTINUOUS
 62
     7
100
AcDbVertex
100
AcDb2dVertex
 10
8.1179333839
 20
5.7656026475
 30
0.0
  0
VERTEX
  5
385
330
260
100
AcDbEntity
  8
0
  6
CONTINUOUS
 62
     7
100
AcDbVertex
100
AcDb2dVertex
 10
8.0998843193
 20
5.7865747534
 30
0.0
  0
VERTEX
  5
386
330
260
100
AcDbEntity
  8
0
  6
CONTINUOUS
 62
     7
100
AcDbVertex
100
AcDb2dVertex
 10
8.0831292897
 20
5.8092363171
 30
0.0
  0
VERTEX
  5
387
330
260
100
AcDbEntity
  8
0
  6
CONTINUOUS
 62
     7
100
AcDbVertex
100
AcDb2dVertex
 10
8.0677051263
 20
5.8335375236
 30
0.0
  0
VERTEX
  5
388
330
260
100
AcDbEntity
  8
0
  6
CONTINUOUS
 62
     7
100
AcDbVertex
100
AcDb2dVertex
 10
8.0536457346
 20
5.8594249535
 30
0.0
  0
VERTEX
  5
389
330
260
100
AcDbEntity
  8
0
  6
CONTINUOUS
 62
     7
100
AcDbVertex
100
AcDb2dVertex
 10
8.0409820203
 20
5.8868417008
 30
0.0
  0
VERTEX
  5
38A
330
260
100
AcDbEntity
  8
0
  6
CONTINUOUS
 62
     7
100
AcDbVertex
100
AcDb2dVertex
 10
8.029741821
 20
5.9157274973
 30
0.0
  0
VERTEX
  5
38B
330
260
100
AcDbEntity
  8
0
  6
CONTINUOUS
 62
     7
100
AcDbVertex
100
AcDb2dVertex
 10
8.0199498451
 20
5.9460188459
 30
0.0
  0
VERTEX
  5
38C
330
260
100
AcDbEntity
  8
0
  6
CONTINUOUS
 62
     7
100
AcDbVertex
100
AcDb2dVertex
 10
8.0116276174
 20
5.9776491597
 30
0.0
  0
VERTEX
  5
38D
330
260
100
AcDbEntity
  8
0
  6
CONTINUOUS
 62
     7
100
AcDbVertex
100
AcDb2dVertex
 10
8.0047934321
 20
6.0105489082
 30
0.0
  0
VERTEX
  5
38E
330
260
100
AcDbEntity
  8
0
  6
CONTINUOUS
 62
     7
100
AcDbVertex
100
AcDb2dVertex
 10
7.9994623121
 20
6.0446457708
 30
0.0
  0
VERTEX
  5
38F
330
260
100
AcDbEntity
  8
0
  6
CONTINUOUS
 62
     7
100
AcDbVertex
100
AcDb2dVertex
 10
7.9956459764
 20
6.0798647951
 30
0.0
  0
VERTEX
  5
390
330
260
100
AcDbEntity
  8
0
  6
CONTINUOUS
 62
     7
100
AcDbVertex
100
AcDb2dVertex
 10
7.9933528142
 20
6.116128562
 30
0.0
  0
VERTEX
  5
391
330
260
100
AcDbEntity
  8
0
  6
CONTINUOUS
 62
     7
100
AcDbVertex
100
AcDb2dVertex
 10
7.9925878663
 20
6.153357356
 30
0.0
  0
VERTEX
  5
392
330
260
100
AcDbEntity
  8
0
  6
CONTINUOUS
 62
     7
100
AcDbVertex
100
AcDb2dVertex
 10
7.9933528142
 20
6.1914693401
 30
0.0
  0
VERTEX
  5
393
330
260
100
AcDbEntity
  8
0
  6
CONTINUOUS
 62
     7
100
AcDbVertex
100
AcDb2dVertex
 10
7.9956459764
 20
6.2303807358
 30
0.0
  0
VERTEX
  5
394
330
260
100
AcDbEntity
  8
0
  6
CONTINUOUS
 62
     7
100
AcDbVertex
100
AcDb2dVertex
 10
7.9994623121
 20
6.2700060075
 30
0.0
  0
VERTEX
  5
395
330
260
100
AcDbEntity
  8
0
  6
CONTINUOUS
 62
     7
100
AcDbVertex
100
AcDb2dVertex
 10
8.0047934321
 20
6.3102580502
 30
0.0
  0
VERTEX
  5
396
330
260
100
AcDbEntity
  8
0
  6
CONTINUOUS
 62
     7
100
AcDbVertex
100
AcDb2dVertex
 10
8.0116276174
 20
6.3510483811
 30
0.0
  0
VERTEX
  5
397
330
260
100
AcDbEntity
  8
0
  6
CONTINUOUS
 62
     7
100
AcDbVertex
100
AcDb2dVertex
 10
8.0199498451
 20
6.3922873344
 30
0.0
  0
VERTEX
  5
398
330
260
100
AcDbEntity
  8
0
  6
CONTINUOUS
 62
     7
100
AcDbVertex
100
AcDb2dVertex
 10
8.029741821
 20
6.4338842578
 30
0.0
  0
VERTEX
  5
399
330
260
100
AcDbEntity
  8
0
  6
CONTINUOUS
 62
     7
100
AcDbVertex
100
AcDb2dVertex
 10
8.0409820203
 20
6.4757477122
 30
0.0
  0
VERTEX
  5
39A
330
260
100
AcDbEntity
  8
0
  6
CONTINUOUS
 62
     7
100
AcDbVertex
100
AcDb2dVertex
 10
8.0536457346
 20
6.5177856728
 30
0.0
  0
VERTEX
  5
39B
330
260
100
AcDbEntity
  8
0
  6
CONTINUOUS
 62
     7
100
AcDbVertex
100
AcDb2dVertex
 10
8.0677051263
 20
6.5599057308
 30
0.0
  0
VERTEX
  5
39C
330
260
100
AcDbEntity
  8
0
  6
CONTINUOUS
 62
     7
100
AcDbVertex
100
AcDb2dVertex
 10
8.0831292897
 20
6.6020152974
 30
0.0
  0
VERTEX
  5
39D
330
260
100
AcDbEntity
  8
0
  6
CONTINUOUS
 62
     7
100
AcDbVertex
100
AcDb2dVertex
 10
8.0998843193
 20
6.6440218065
 30
0.0
  0
VERTEX
  5
39E
330
260
100
AcDbEntity
  8
0
  6
CONTINUOUS
 62
     7
100
AcDbVertex
100
AcDb2dVertex
 10
8.1179333839
 20
6.6858329187
 30
0.0
  0
VERTEX
  5
39F
330
260
100
AcDbEntity
  8
0
  6
CONTINUOUS
 62
     7
100
AcDbVertex
100
AcDb2dVertex
 10
8.1372368076
 20
6.7273567242
 30
0.0
  0
VERTEX
  5
3A0
330
260
100
AcDbEntity
  8
0
  6
CONTINUOUS
 62
     7
100
AcDbVertex
100
AcDb2dVertex
 10
8.1577521574
 20
6.7685019445
 30
0.0
  0
VERTEX
  5
3A1
330
260
100
AcDbEntity
  8
0
  6
CONTINUOUS
 62
     7
100
AcDbVertex
100
AcDb2dVertex
 10
8.1794343361
 20
6.8091781336
 30
0.0
  0
VERTEX
  5
3A2
330
260
100
AcDbEntity
  8
0
  6
CONTINUOUS
 62
     7
100
AcDbVertex
100
AcDb2dVertex
 10
8.2022356815
 20
6.8492958763
 30
0.0
  0
VERTEX
  5
3A3
330
260
100
AcDbEntity
  8
0
  6
CONTINUOUS
 62
     7
100
AcDbVertex
100
AcDb2dVertex
 10
8.2261060714
 20
6.8887669852
 30
0.0
  0
VERTEX
  5
3A4
330
260
100
AcDbEntity
  8
0
  6
CONTINUOUS
 62
     7
100
AcDbVertex
100
AcDb2dVertex
 10
8.2509930334
 20
6.9275046942
 30
0.0
  0
VERTEX
  5
3A5
330
260
100
AcDbEntity
  8
0
  6
CONTINUOUS
 62
     7
100
AcDbVertex
100
AcDb2dVertex
 10
8.2768418606
 20
6.9654238494
 30
0.0
  0
VERTEX
  5
3A6
330
260
100
AcDbEntity
  8
0
  6
CONTINUOUS
 62
     7
100
AcDbVertex
100
AcDb2dVertex
 10
8.3035957316
 20
7.0024410963
 30
0.0
  0
VERTEX
  5
3A7
330
260
100
AcDbEntity
  8
0
  6
CONTINUOUS
 62
     7
100
AcDbVertex
100
AcDb2dVertex
 10
8.3311958357
 20
7.0384750629
 30
0.0
  0
VERTEX
  5
3A8
330
260
100
AcDbEntity
  8
0
  6
CONTINUOUS
 62
     7
100
AcDbVertex
100
AcDb2dVertex
 10
8.3595815019
 20
7.0734465388
 30
0.0
  0
VERTEX
  5
3A9
330
260
100
AcDbEntity
  8
0
  6
CONTINUOUS
 62
     7
100
AcDbVertex
100
AcDb2dVertex
 10
8.3886903322
 20
7.107278649
 30
0.0
  0
VERTEX
  5
3AA
330
260
100
AcDbEntity
  8
0
  6
CONTINUOUS
 62
     7
100
AcDbVertex
100
AcDb2dVertex
 10
8.4184583391
 20
7.1398970232
 30
0.0
  0
VERTEX
  5
3AB
330
260
100
AcDbEntity
  8
0
  6
CONTINUOUS
 62
     7
100
AcDbVertex
100
AcDb2dVertex
 10
8.4488200862
 20
7.1712299592
 30
0.0
  0
VERTEX
  5
3AC
330
260
100
AcDbEntity
  8
0
  6
CONTINUOUS
 62
     7
100
AcDbVertex
100
AcDb2dVertex
 10
8.4797088317
 20
7.2012085804
 30
0.0
  0
VERTEX
  5
3AD
330
260
100
AcDbEntity
  8
0
  6
CONTINUOUS
 62
     7
100
AcDbVertex
100
AcDb2dVertex
 10
8.5110566754
 20
7.2297669873
 30
0.0
  0
VERTEX
  5
3AE
330
260
100
AcDbEntity
  8
0
  6
CONTINUOUS
 62
     7
100
AcDbVertex
100
AcDb2dVertex
 10
8.5427947079
 20
7.2568424022
 30
0.0
  0
VERTEX
  5
3AF
330
260
100
AcDbEntity
  8
0
  6
CONTINUOUS
 62
     7
100
AcDbVertex
100
AcDb2dVertex
 10
8.5748531623
 20
7.2823753076
 30
0.0
  0
VERTEX
  5
3B0
330
260
100
AcDbEntity
  8
0
  6
CONTINUOUS
 62
     7
100
AcDbVertex
100
AcDb2dVertex
 10
8.607161567
 20
7.3063095766
 30
0.0
  0
VERTEX
  5
3B1
330
260
100
AcDbEntity
  8
0
  6
CONTINUOUS
 62
     7
100
AcDbVertex
100
AcDb2dVertex
 10
8.6396489011
 20
7.3285925964
 30
0.0
  0
VERTEX
  5
3B2
330
260
100
AcDbEntity
  8
0
  6
CONTINUOUS
 62
     7
100
AcDbVertex
100
AcDb2dVertex
 10
8.6722437505
 20
7.3491753842
 30
0.0
  0
VERTEX
  5
3B3
330
260
100
AcDbEntity
  8
0
  6
CONTINUOUS
 62
     7
100
AcDbVertex
100
AcDb2dVertex
 10
8.7048744646
 20
7.3680126945
 30
0.0
  0
VERTEX
  5
3B4
330
260
100
AcDbEntity
  8
0
  6
CONTINUOUS
 62
     7
100
AcDbVertex
100
AcDb2dVertex
 10
8.737469314
 20
7.3850631188
 30
0.0
  0
VERTEX
  5
3B5
330
260
100
AcDbEntity
  8
0
  6
CONTINUOUS
 62
     7
100
AcDbVertex
100
AcDb2dVertex
 10
8.7699566482
 20
7.4002891766
 30
0.0
  0
VERTEX
  5
3B6
330
260
100
AcDbEntity
  8
0
  6
CONTINUOUS
 62
     7
100
AcDbVertex
100
AcDb2dVertex
 10
8.8022650529
 20
7.4136573976
 30
0.0
  0
VERTEX
  5
3B7
330
260
100
AcDbEntity
  8
0
  6
CONTINUOUS
 62
     7
100
AcDbVertex
100
AcDb2dVertex
 10
8.8343235072
 20
7.4251383958
 30
0.0
  0
VERTEX
  5
3B8
330
260
100
AcDbEntity
  8
0
  6
CONTINUOUS
 62
     7
100
AcDbVertex
100
AcDb2dVertex
 10
8.8660615398
 20
7.4347069333
 30
0.0
  0
VERTEX
  5
3B9
330
260
100
AcDbEntity
  8
0
  6
CONTINUOUS
 62
     7
100
AcDbVertex
100
AcDb2dVertex
 10
8.8974093835
 20
7.4423419763
 30
0.0
  0
VERTEX
  5
3BA
330
260
100
AcDbEntity
  8
0
  6
CONTINUOUS
 62
     7
100
AcDbVertex
100
AcDb2dVertex
 10
8.928298129
 20
7.4480267415
 30
0.0
  0
VERTEX
  5
3BB
330
260
100
AcDbEntity
  8
0
  6
CONTINUOUS
 62
     7
100
AcDbVertex
100
AcDb2dVertex
 10
8.958659876
 20
7.4517487325
 30
0.0
  0
VERTEX
  5
3BC
330
260
100
AcDbEntity
  8
0
  6
CONTINUOUS
 62
     7
100
AcDbVertex
100
AcDb2dVertex
 10
8.988427883
 20
7.4534997675
 30
0.0
  0
VERTEX
  5
3BD
330
260
100
AcDbEntity
  8
0
  6
CONTINUOUS
 62
     7
100
AcDbVertex
100
AcDb2dVertex
 10
9.0175367133
 20
7.4532759974
 30
0.0
  0
VERTEX
  5
3BE
330
260
100
AcDbEntity
  8
0
  6
CONTINUOUS
 62
     7
100
AcDbVertex
100
AcDb2dVertex
 10
9.0459223794
 20
7.4510779141
 30
0.0
  0
VERTEX
  5
3BF
330
260
100
AcDbEntity
  8
0
  6
CONTINUOUS
 62
     7
100
AcDbVertex
100
AcDb2dVertex
 10
9.0735224835
 20
7.4469103494
 30
0.0
  0
VERTEX
  5
3C0
330
260
100
AcDbEntity
  8
0
  6
CONTINUOUS
 62
     7
100
AcDbVertex
100
AcDb2dVertex
 10
9.1002763546
 20
7.4407824645
 30
0.0
  0
VERTEX
  5
3C1
330
260
100
AcDbEntity
  8
0
  6
CONTINUOUS
 62
     7
100
AcDbVertex
100
AcDb2dVertex
 10
9.1261251818
 20
7.4327077299
 30
0.0
  0
VERTEX
  5
3C2
330
260
100
AcDbEntity
  8
0
  6
CONTINUOUS
 62
     7
100
AcDbVertex
100
AcDb2dVertex
 10
9.1510121438
 20
7.4227038956
 30
0.0
  0
VERTEX
  5
3C3
330
260
100
AcDbEntity
  8
0
  6
CONTINUOUS
 62
     7
100
AcDbVertex
100
AcDb2dVertex
 10
9.1748825336
 20
7.4107929522
 30
0.0
  0
VERTEX
  5
3C4
330
260
100
AcDbEntity
  8
0
  6
CONTINUOUS
 62
     7
100
AcDbVertex
100
AcDb2dVertex
 10
9.1976838791
 20
7.3970010826
 30
0.0
  0
VERTEX
  5
3C5
330
260
100
AcDbEntity
  8
0
  6
CONTINUOUS
 62
     7
100
AcDbVertex
100
AcDb2dVertex
 10
9.2193660577
 20
7.3813586041
 30
0.0
  0
VERTEX
  5
3C6
330
260
100
AcDbEntity
  8
0
  6
CONTINUOUS
 62
     7
100
AcDbVertex
100
AcDb2dVertex
 10
9.2398814075
 20
7.3638999025
 30
0.0
  0
VERTEX
  5
3C7
330
260
100
AcDbEntity
  8
0
  6
CONTINUOUS
 62
     7
100
AcDbVertex
100
AcDb2dVertex
 10
9.2591848313
 20
7.3446633557
 30
0.0
  0
VERTEX
  5
3C8
330
260
100
AcDbEntity
  8
0
  6
CONTINUOUS
 62
     7
100
AcDbVertex
100
AcDb2dVertex
 10
9.2772338958
 20
7.3236912498
 30
0.0
  0
VERTEX
  5
3C9
330
260
100
AcDbEntity
  8
0
  6
CONTINUOUS
 62
     7
100
AcDbVertex
100
AcDb2dVertex
 10
9.2939889254
 20
7.3010296861
 30
0.0
  0
VERTEX
  5
3CA
330
260
100
AcDbEntity
  8
0
  6
CONTINUOUS
 62
     7
100
AcDbVertex
100
AcDb2dVertex
 10
9.3094130889
 20
7.2767284796
 30
0.0
  0
VERTEX
  5
3CB
330
260
100
AcDbEntity
  8
0
  6
CONTINUOUS
 62
     7
100
AcDbVertex
100
AcDb2dVertex
 10
9.3234724806
 20
7.2508410497
 30
0.0
  0
VERTEX
  5
3CC
330
260
100
AcDbEntity
  8
0
  6
CONTINUOUS
 62
     7
100
AcDbVertex
100
AcDb2dVertex
 10
9.3361361949
 20
7.2234243025
 30
0.0
  0
VERTEX
  5
3CD
330
260
100
AcDbEntity
  8
0
  6
CONTINUOUS
 62
     7
100
AcDbVertex
100
AcDb2dVertex
 10
9.3473763942
 20
7.1945385059
 30
0.0
  0
VERTEX
  5
3CE
330
260
100
AcDbEntity
  8
0
  6
CONTINUOUS
 62
     7
100
AcDbVertex
100
AcDb2dVertex
 10
9.3571683701
 20
7.1642471573
 30
0.0
  0
VERTEX
  5
3CF
330
260
100
AcDbEntity
  8
0
  6
CONTINUOUS
 62
     7
100
AcDbVertex
100
AcDb2dVertex
 10
9.3654905978
 20
7.1326168436
 30
0.0
  0
VERTEX
  5
3D0
330
260
100
AcDbEntity
  8
0
  6
CONTINUOUS
 62
     7
100
AcDbVertex
100
AcDb2dVertex
 10
9.3723247831
 20
7.099717095
 30
0.0
  0
VERTEX
  5
3D1
330
260
100
AcDbEntity
  8
0
  6
CONTINUOUS
 62
     7
100
AcDbVertex
100
AcDb2dVertex
 10
9.3776559031
 20
7.0656202324
 30
0.0
  0
VERTEX
  5
3D2
330
260
100
AcDbEntity
  8
0
  6
CONTINUOUS
 62
     7
100
AcDbVertex
100
AcDb2dVertex
 10
9.3814722388
 20
7.0304012081
 30
0.0
  0
VERTEX
  5
3D3
330
260
100
AcDbEntity
  8
0
  6
CONTINUOUS
 62
     7
100
AcDbVertex
100
AcDb2dVertex
 10
9.383765401
 20
6.9941374412
 30
0.0
  0
VERTEX
  5
3D4
330
260
100
AcDbEntity
  8
0
  6
CONTINUOUS
 62
     7
100
AcDbVertex
100
AcDb2dVertex
 10
9.3845303489
 20
6.9569086472
 30
0.0
  0
VERTEX
  5
3D5
330
260
100
AcDbEntity
  8
0
  6
CONTINUOUS
 62
     7
100
AcDbVertex
100
AcDb2dVertex
 10
9.3845303489
 20
6.9569086472
 30
0.0
  0
SEQEND
  5
3D6
330
260
100
AcDbEntity
  8
0
  6
CONTINUOUS
 62
     7
  0
POLYLINE
  5
261
330
1F
100
AcDbEntity
  8
0
  6
CONTINUOUS
 62
     7
100
AcDb2dPolyline
 66
     1
 10
0.0
 20
0.0
 30
0.0
  0
VERTEX
  5
3D7
330
261
100
AcDbEntity
  8
0
  6
CONTINUOUS
 62
     7
100
AcDbVertex
100
AcDb2dVertex
 10
8.173540389
 20
7.2205889688
 30
0.0
  0
VERTEX
  5
3D8
330
261
100
AcDbEntity
  8
0
  6
CONTINUOUS
 62
     7
100
AcDbVertex
100
AcDb2dVertex
 10
8.144237674
 20
7.1860855668
 30
0.0
  0
VERTEX
  5
3D9
330
261
100
AcDbEntity
  8
0
  6
CONTINUOUS
 62
     7
100
AcDbVertex
100
AcDb2dVertex
 10
8.1156904301
 20
7.1504329161
 30
0.0
  0
VERTEX
  5
3DA
330
261
100
AcDbEntity
  8
0
  6
CONTINUOUS
 62
     7
100
AcDbVertex
100
AcDb2dVertex
 10
8.0879629337
 20
7.1137112913
 30
0.0
  0
VERTEX
  5
3DB
330
261
100
AcDbEntity
  8
0
  6
CONTINUOUS
 62
     7
100
AcDbVertex
100
AcDb2dVertex
 10
8.0611176152
 20
7.0760033738
 30
0.0
  0
VERTEX
  5
3DC
330
261
100
AcDbEntity
  8
0
  6
CONTINUOUS
 62
     7
100
AcDbVertex
100
AcDb2dVertex
 10
8.0352149191
 20
7.0373940659
 30
0.0
  0
VERTEX
  5
3DD
330
261
100
AcDbEntity
  8
0
  6
CONTINUOUS
 62
     7
100
AcDbVertex
100
AcDb2dVertex
 10
8.010313167
 20
6.9979702994
 30
0.0
  0
VERTEX
  5
3DE
330
261
100
AcDbEntity
  8
0
  6
CONTINUOUS
 62
     7
100
AcDbVertex
100
AcDb2dVertex
 10
7.9864684272
 20
6.9578208398
 30
0.0
  0
VERTEX
  5
3DF
330
261
100
AcDbEntity
  8
0
  6
CONTINUOUS
 62
     7
100
AcDbVertex
100
AcDb2dVertex
 10
7.9637343879
 20
6.9170360867
 30
0.0
  0
VERTEX
  5
3E0
330
261
100
AcDbEntity
  8
0
  6
CONTINUOUS
 62
     7
100
AcDbVertex
100
AcDb2dVertex
 10
7.9421622366
 20
6.87570787
 30
0.0
  0
VERTEX
  5
3E1
330
261
100
AcDbEntity
  8
0
  6
CONTINUOUS
 62
     7
100
AcDbVertex
100
AcDb2dVertex
 10
7.9218005445
 20
6.8339292433
 30
0.0
  0
VERTEX
  5
3E2
330
261
100
AcDbEntity
  8
0
  6
CONTINUOUS
 62
     7
100
AcDbVertex
100
AcDb2dVertex
 10
7.9026951574
 20
6.7917942742
 30
0.0
  0
VERTEX
  5
3E3
330
261
100
AcDbEntity
  8
0
  6
CONTINUOUS
 62
     7
100
AcDbVertex
100
AcDb2dVertex
 10
7.8848890928
 20
6.749397833
 30
0.0
  0
VERTEX
  5
3E4
330
261
100
AcDbEntity
  8
0
  6
CONTINUOUS
 62
     7
100
AcDbVertex
100
AcDb2dVertex
 10
7.8684224421
 20
6.7068353783
 30
0.0
  0
VERTEX
  5
3E5
330
261
100
AcDbEntity
  8
0
  6
CONTINUOUS
 62
     7
100
AcDbVertex
100
AcDb2dVertex
 10
7.8533322814
 20
6.6642027427
 30
0.0
  0
VERTEX
  5
3E6
330
261
100
AcDbEntity
  8
0
  6
CONTINUOUS
 62
     7
100
AcDbVertex
100
AcDb2dVertex
 10
7.8396525872
 20
6.6215959168
 30
0.0
  0
VERTEX
  5
3E7
330
261
100
AcDbEntity
  8
0
  6
CONTINUOUS
 62
     7
100
AcDbVertex
100
AcDb2dVertex
 10
7.8274141605
 20
6.5791108331
 30
0.0
  0
VERTEX
  5
3E8
330
261
100
AcDbEntity
  8
0
  6
CONTINUOUS
 62
     7
100
AcDbVertex
100
AcDb2dVertex
 10
7.8166445569
 20
6.5368431499
 30
0.0
  0
VERTEX
  5
3E9
330
261
100
AcDbEntity
  8
0
  6
CONTINUOUS
 62
     7
100
AcDbVertex
100
AcDb2dVertex
 10
7.807368025
 20
6.4948880361
 30
0.0
  0
VERTEX
  5
3EA
330
261
100
AcDbEntity
  8
0
  6
CONTINUOUS
 62
     7
100
AcDbVertex
100
AcDb2dVertex
 10
7.7996054517
 20
6.4533399569
 30
0.0
  0
VERTEX
  5
3EB
330
261
100
AcDbEntity
  8
0
  6
CONTINUOUS
 62
     7
100
AcDbVertex
100
AcDb2dVertex
 10
7.793374315
 20
6.4122924607
 30
0.0
  0
VERTEX
  5
3EC
330
261
100
AcDbEntity
  8
0
  6
CONTINUOUS
 62
     7
100
AcDbVertex
100
AcDb2dVertex
 10
7.7886886446
 20
6.3718379692
 30
0.0
  0
VERTEX
  5
3ED
330
261
100
AcDbEntity
  8
0
  6
CONTINUOUS
 62
     7
100
AcDbVertex
100
AcDb2dVertex
 10
7.7855589909
 20
6.3320675687
 30
0.0
  0
VERTEX
  5
3EE
330
261
100
AcDbEntity
  8
0
  6
CONTINUOUS
 62
     7
100
AcDbVertex
100
AcDb2dVertex
 10
7.7839924004
 20
6.2930708053
 30
0.0
  0
VERTEX
  5
3EF
330
261
100
AcDbEntity
  8
0
  6
CONTINUOUS
 62
     7
100
AcDbVertex
100
AcDb2dVertex
 10
7.7839924004
 20
6.254935483
 30
0.0
  0
VERTEX
  5
3F0
330
261
100
AcDbEntity
  8
0
  6
CONTINUOUS
 62
     7
100
AcDbVertex
100
AcDb2dVertex
 10
7.7855589909
 20
6.2177474664
 30
0.0
  0
VERTEX
  5
3F1
330
261
100
AcDbEntity
  8
0
  6
CONTINUOUS
 62
     7
100
AcDbVertex
100
AcDb2dVertex
 10
7.7886886446
 20
6.1815904872
 30
0.0
  0
VERTEX
  5
3F2
330
261
100
AcDbEntity
  8
0
  6
CONTINUOUS
 62
     7
100
AcDbVertex
100
AcDb2dVertex
 10
7.793374315
 20
6.1465459555
 30
0.0
  0
VERTEX
  5
3F3
330
261
100
AcDbEntity
  8
0
  6
CONTINUOUS
 62
     7
100
AcDbVertex
100
AcDb2dVertex
 10
7.7996054517
 20
6.1126927768
 30
0.0
  0
VERTEX
  5
3F4
330
261
100
AcDbEntity
  8
0
  6
CONTINUOUS
 62
     7
100
AcDbVertex
100
AcDb2dVertex
 10
7.807368025
 20
6.0801071739
 30
0.0
  0
VERTEX
  5
3F5
330
261
100
AcDbEntity
  8
0
  6
CONTINUOUS
 62
     7
100
AcDbVertex
100
AcDb2dVertex
 10
7.8166445569
 20
6.0488625158
 30
0.0
  0
VERTEX
  5
3F6
330
261
100
AcDbEntity
  8
0
  6
CONTINUOUS
 62
     7
100
AcDbVertex
100
AcDb2dVertex
 10
7.8274141605
 20
6.0190291522
 30
0.0
  0
VERTEX
  5
3F7
330
261
100
AcDbEntity
  8
0
  6
CONTINUOUS
 62
     7
100
AcDbVertex
100
AcDb2dVertex
 10
7.8396525872
 20
5.9906742553
 30
0.0
  0
VERTEX
  5
3F8
330
261
100
AcDbEntity
  8
0
  6
CONTINUOUS
 62
     7
100
AcDbVertex
100
AcDb2dVertex
 10
7.8533322814
 20
5.9638616681
 30
0.0
  0
VERTEX
  5
3F9
330
261
100
AcDbEntity
  8
0
  6
CONTINUOUS
 62
     7
100
AcDbVertex
100
AcDb2dVertex
 10
7.8684224421
 20
5.9386517612
 30
0.0
  0
VERTEX
  5
3FA
330
261
100
AcDbEntity
  8
0
  6
CONTINUOUS
 62
     7
100
AcDbVertex
100
AcDb2dVertex
 10
7.8848890928
 20
5.9151012967
 30
0.0
  0
VERTEX
  5
3FB
330
261
100
AcDbEntity
  8
0
  6
CONTINUOUS
 62
     7
100
AcDbVertex
100
AcDb2dVertex
 10
7.9026951574
 20
5.8932633001
 30
0.0
  0
VERTEX
  5
3FC
330
261
100
AcDbEntity
  8
0
  6
CONTINUOUS
 62
     7
100
AcDbVertex
100
AcDb2dVertex
 10
7.9218005445
 20
5.8731869414
 30
0.0
  0
VERTEX
  5
3FD
330
261
100
AcDbEntity
  8
0
  6
CONTINUOUS
 62
     7
100
AcDbVertex
100
AcDb2dVertex
 10
7.9421622366
 20
5.854917424
 30
0.0
  0
VERTEX
  5
3FE
330
261
100
AcDbEntity
  8
0
  6
CONTINUOUS
 62
     7
100
AcDbVertex
100
AcDb2dVertex
 10
7.9637343879
 20
5.8384958831
 30
0.0
  0
VERTEX
  5
3FF
330
261
100
AcDbEntity
  8
0
  6
CONTINUOUS
 62
     7
100
AcDbVertex
100
AcDb2dVertex
 10
7.9864684272
 20
5.823959293
 30
0.0
  0
VERTEX
  5
400
330
261
100
AcDbEntity
  8
0
  6
CONTINUOUS
 62
     7
100
AcDbVertex
100
AcDb2dVertex
 10
7.9876817447
 20
5.8232553977
 30
0.0
  0
SEQEND
  5
401
330
261
100
AcDbEntity
  8
0
  6
CONTINUOUS
 62
     7
  0
LINE
  5
262
330
1F
100
AcDbEntity
  8
0
  6
CONTINUOUS
 62
     7
100
AcDbLine
 10
7.9508295918
 20
7.3491571754
 30
0.0
 11
8.173540389
 21
7.2205889688
 31
0.0
  0
POLYLINE
  5
263
330
1F
100
AcDbEntity
  8
0
  6
CONTINUOUS
 62
     7
100
AcDb2dPolyline
 66
     1
 10
0.0
 20
0.0
 30
0.0
  0
VERTEX
  5
402
330
263
100
AcDbEntity
  8
0
  6
CONTINUOUS
 62
     7
100
AcDbVertex
100
AcDb2dVertex
 10
8.5632842841
 20
7.7027197435
 30
0.0
  0
VERTEX
  5
403
330
263
100
AcDbEntity
  8
0
  6
CONTINUOUS
 62
     7
100
AcDbVertex
100
AcDb2dVertex
 10
8.5329710186
 20
7.7013428091
 30
0.0
  0
VERTEX
  5
404
330
263
100
AcDbEntity
  8
0
  6
CONTINUOUS
 62
     7
100
AcDbVertex
100
AcDb2dVertex
 10
8.5020232871
 20
7.6979029679
 30
0.0
  0
VERTEX
  5
405
330
263
100
AcDbEntity
  8
0
  6
CONTINUOUS
 62
     7
100
AcDbVertex
100
AcDb2dVertex
 10
8.4705122542
 20
7.6924081297
 30
0.0
  0
VERTEX
  5
406
330
263
100
AcDbEntity
  8
0
  6
CONTINUOUS
 62
     7
100
AcDbVertex
100
AcDb2dVertex
 10
8.4385103796
 20
7.68487093
 30
0.0
  0
VERTEX
  5
407
330
263
100
AcDbEntity
  8
0
  6
CONTINUOUS
 62
     7
100
AcDbVertex
100
AcDb2dVertex
 10
8.4060912518
 20
7.6753087007
 30
0.0
  0
VERTEX
  5
408
330
263
100
AcDbEntity
  8
0
  6
CONTINUOUS
 62
     7
100
AcDbVertex
100
AcDb2dVertex
 10
8.3733294187
 20
7.66374343
 30
0.0
  0
VERTEX
  5
409
330
263
100
AcDbEntity
  8
0
  6
CONTINUOUS
 62
     7
100
AcDbVertex
100
AcDb2dVertex
 10
8.3403002165
 20
7.6502017125
 30
0.0
  0
VERTEX
  5
40A
330
263
100
AcDbEntity
  8
0
  6
CONTINUOUS
 62
     7
100
AcDbVertex
100
AcDb2dVertex
 10
8.3070795959
 20
7.6347146873
 30
0.0
  0
VERTEX
  5
40B
330
263
100
AcDbEntity
  8
0
  6
CONTINUOUS
 62
     7
100
AcDbVertex
100
AcDb2dVertex
 10
8.2737439479
 20
7.617317967
 30
0.0
  0
VERTEX
  5
40C
330
263
100
AcDbEntity
  8
0
  6
CONTINUOUS
 62
     7
100
AcDbVertex
100
AcDb2dVertex
 10
8.240369928
 20
7.5980515555
 30
0.0
  0
VERTEX
  5
40D
330
263
100
AcDbEntity
  8
0
  6
CONTINUOUS
 62
     7
100
AcDbVertex
100
AcDb2dVertex
 10
8.20703428
 20
7.5769597558
 30
0.0
  0
VERTEX
  5
40E
330
263
100
AcDbEntity
  8
0
  6
CONTINUOUS
 62
     7
100
AcDbVertex
100
AcDb2dVertex
 10
8.1738136594
 20
7.5540910689
 30
0.0
  0
VERTEX
  5
40F
330
263
100
AcDbEntity
  8
0
  6
CONTINUOUS
 62
     7
100
AcDbVertex
100
AcDb2dVertex
 10
8.1407844572
 20
7.5294980812
 30
0.0
  0
VERTEX
  5
410
330
263
100
AcDbEntity
  8
0
  6
CONTINUOUS
 62
     7
100
AcDbVertex
100
AcDb2dVertex
 10
8.1080226242
 20
7.5032373446
 30
0.0
  0
VERTEX
  5
411
330
263
100
AcDbEntity
  8
0
  6
CONTINUOUS
 62
     7
100
AcDbVertex
100
AcDb2dVertex
 10
8.0756034964
 20
7.4753692457
 30
0.0
  0
VERTEX
  5
412
330
263
100
AcDbEntity
  8
0
  6
CONTINUOUS
 62
     7
100
AcDbVertex
100
AcDb2dVertex
 10
8.0436016217
 20
7.4459578675
 30
0.0
  0
VERTEX
  5
413
330
263
100
AcDbEntity
  8
0
  6
CONTINUOUS
 62
     7
100
AcDbVertex
100
AcDb2dVertex
 10
8.0120905888
 20
7.4150708414
 30
0.0
  0
VERTEX
  5
414
330
263
100
AcDbEntity
  8
0
  6
CONTINUOUS
 62
     7
100
AcDbVertex
100
AcDb2dVertex
 10
7.9811428573
 20
7.3827791924
 30
0.0
  0
VERTEX
  5
415
330
263
100
AcDbEntity
  8
0
  6
CONTINUOUS
 62
     7
100
AcDbVertex
100
AcDb2dVertex
 10
7.9508295918
 20
7.3491571754
 30
0.0
  0
SEQEND
  5
416
330
263
100
AcDbEntity
  8
0
  6
CONTINUOUS
 62
     7
  0
LINE
  5
264
330
1F
100
AcDbEntity
  8
0
  6
CONTINUOUS
 62
     7
100
AcDbLine
 10
8.7720756565
 20
7.5821870498
 30
0.0
 11
8.5632842841
 21
7.7027197435
 31
0.0
  0
ARC
  5
265
330
1F
100
AcDbEntity
  8
0
  6
CONTINUOUS
 62
     7
100
AcDbCircle
 10
8.7809484871
 20
7.220083817
 30
0.0
 40
0.3622119245879278
100
AcDbArc
 50
60.7497510025
 51
91.4036716311
  0
SPLINE
  5
266
330
1F
100
AcDbEntity
  8
0
  6
CONTINUOUS
 62
     7
100
AcDbSpline
210
0.0
220
0.0
230
1.0
 70
     8
 71
     3
 72
    34
 73
    30
 74
     0
 42
0.00000001
 43
0.00000001
 40
0.0
 40
0.0
 40
0.0
 40
0.0
 40
0.0376217930603587
 40
0.076343057507128
 40
0.1139624802268918
 40
0.1526568776080633
 40
0.1905710493015003
 40
0.2295718885438704
 40
0.2676848853711424
 40
0.3069210960766564
 40
0.3447061919830584
 40
0.3836081835191267
 40
0.4210492340520363
 40
0.4595674996366119
 40
0.4971846524179248
 40
0.5358686100376904
 40
0.5739054861024678
 40
0.6130429290432559
 40
0.651093497886701
 40
0.6902710532185016
 40
0.7279120523673253
 40
0.7666573252326365
 40
0.8041045387545266
 40
0.8426210821761482
 40
0.8803793932980903
 40
0.9192121393809972
 40
0.9573161973405895
 40
0.9965329062064301
 40
1.0
 40
1.0
 40
1.0
 40
1.0
 10
8.354492911744922
 20
7.55166721294931
 30
0.0
 10
8.348658750171413
 20
7.547906109009286
 30
0.0
 10
8.336819927609243
 20
7.540273985417442
 30
0.0
 10
8.323565200624353
 20
7.526231473371094
 30
0.0
 10
8.31396966232284
 20
7.510673044657401
 30
0.0
 10
8.30872394802549
 20
7.494160902016682
 30
0.0
 10
8.307828428637274
 20
7.477034400177875
 30
0.0
 10
8.311388825747212
 20
7.460165354129741
 30
0.0
 10
8.319404250525938
 20
7.443913222460732
 30
0.0
 10
8.33151441397171
 20
7.429205013743622
 30
0.0
 10
8.347548027848783
 20
7.416309914469856
 30
0.0
 10
8.366662409963077
 20
7.405892340723089
 30
0.0
 10
8.388661606932288
 20
7.397993376388389
 30
0.0
 10
8.412530062614385
 20
7.392879156907245
 30
0.0
 10
8.43810849329373
 20
7.390480848920134
 30
0.0
 10
8.464342043152762
 20
7.390788580737935
 30
0.0
 10
8.490958277050257
 20
7.393688188416415
 30
0.0
 10
8.516748384726183
 20
7.398941121903553
 30
0.0
 10
8.541352731147056
 20
7.406359655862323
 30
0.0
 10
8.563536003974756
 20
7.415475558010504
 30
0.0
 10
8.583074892152775
 20
7.426112283458104
 30
0.0
 10
8.599062375548685
 20
7.437723977131358
 30
0.0
 10
8.611426685055392
 20
7.450256273348443
 30
0.0
 10
8.619671307930249
 20
7.463242561560004
 30
0.0
 10
8.623678438375016
 20
7.476694573790426
 30
0.0
 10
8.623370404702957
 20
7.490209560377571
 30
0.0
 10
8.618172758074271
 20
7.503680194134113
 30
0.0
 10
8.612591417325108
 20
7.512990950425936
 30
0.0
 10
8.607648880275885
 20
7.517567509164684
 30
0.0
 10
8.60724741090202
 20
7.51793925107638
 30
0.0
  0
SPLINE
  5
267
330
1F
100
AcDbEntity
  8
0
  6
CONTINUOUS
 62
     7
100
AcDbSpline
210
0.0
220
0.0
230
1.0
 70
     8
 71
     3
 72
    13
 73
     9
 74
     0
 42
0.00000001
 43
0.00000001
 40
0.0
 40
0.0
 40
0.0
 40
0.0
 40
0.1429168101694806
 40
0.3387917644510318
 40
0.5302636371842612
 40
0.727374784958783
 40
0.8626984315892025
 40
0.9999999999999999
 40
0.9999999999999999
 40
0.9999999999999999
 40
0.9999999999999999
 10
8.479415390989011
 20
7.571677051335384
 30
0.0
 10
8.472896938467526
 20
7.572386404797892
 30
0.0
 10
8.45744460624275
 20
7.574067964237244
 30
0.0
 10
8.433275144484627
 20
7.573681362885857
 30
0.0
 10
8.407580588925399
 20
7.570778907282925
 30
0.0
 10
8.386041898525928
 20
7.565503290587404
 30
0.0
 10
8.368237492532375
 20
7.558984711040425
 30
0.0
 10
8.359096544821478
 20
7.554118148104833
 30
0.0
 10
8.354492911744922
 20
7.55166721294931
 30
0.0
  0
POLYLINE
  5
268
330
1F
100
AcDbEntity
  8
0
  6
CONTINUOUS
 62
     7
100
AcDb2dPolyline
 66
     1
 10
0.0
 20
0.0
 30
0.0
  0
VERTEX
  5
417
330
268
100
AcDbEntity
  8
0
  6
CONTINUOUS
 62
     7
100
AcDbVertex
100
AcDb2dVertex
 10
8.9112699048
 20
6.6676301824
 30
0.0
  0
VERTEX
  5
418
330
268
100
AcDbEntity
  8
0
  6
CONTINUOUS
 62
     7
100
AcDbVertex
100
AcDb2dVertex
 10
8.9104969957
 20
6.6464574856
 30
0.0
  0
VERTEX
  5
419
330
268
100
AcDbEntity
  8
0
  6
CONTINUOUS
 62
     7
100
AcDbVertex
100
AcDb2dVertex
 10
8.9081839906
 20
6.6245491621
 30
0.0
  0
VERTEX
  5
41A
330
268
100
AcDbEntity
  8
0
  6
CONTINUOUS
 62
     7
100
AcDbVertex
100
AcDb2dVertex
 10
8.9043480143
 20
6.6020674135
 30
0.0
  0
VERTEX
  5
41B
330
268
100
AcDbEntity
  8
0
  6
CONTINUOUS
 62
     7
100
AcDbVertex
100
AcDb2dVertex
 10
8.899017467
 20
6.5791786869
 30
0.0
  0
VERTEX
  5
41C
330
268
100
AcDbEntity
  8
0
  6
CONTINUOUS
 62
     7
100
AcDbVertex
100
AcDb2dVertex
 10
8.8922318142
 20
6.5560524422
 30
0.0
  0
VERTEX
  5
41D
330
268
100
AcDbEntity
  8
0
  6
CONTINUOUS
 62
     7
100
AcDbVertex
100
AcDb2dVertex
 10
8.8840412944
 20
6.5328598983
 30
0.0
  0
VERTEX
  5
41E
330
268
100
AcDbEntity
  8
0
  6
CONTINUOUS
 62
     7
100
AcDbVertex
100
AcDb2dVertex
 10
8.8745065475
 20
6.5097727644
 30
0.0
  0
VERTEX
  5
41F
330
268
100
AcDbEntity
  8
0
  6
CONTINUOUS
 62
     7
100
AcDbVertex
100
AcDb2dVertex
 10
8.8636981654
 20
6.4869619698
 30
0.0
  0
VERTEX
  5
420
330
268
100
AcDbEntity
  8
0
  6
CONTINUOUS
 62
     7
100
AcDbVertex
100
AcDb2dVertex
 10
8.8516961695
 20
6.4645963975
 30
0.0
  0
VERTEX
  5
421
330
268
100
AcDbEntity
  8
0
  6
CONTINUOUS
 62
     7
100
AcDbVertex
100
AcDb2dVertex
 10
8.8385894184
 20
6.4428416345
 30
0.0
  0
VERTEX
  5
422
330
268
100
AcDbEntity
  8
0
  6
CONTINUOUS
 62
     7
100
AcDbVertex
100
AcDb2dVertex
 10
8.82447495
 20
6.4218587453
 30
0.0
  0
VERTEX
  5
423
330
268
100
AcDbEntity
  8
0
  6
CONTINUOUS
 62
     7
100
AcDbVertex
100
AcDb2dVertex
 10
8.8094572627
 20
6.4018030799
 30
0.0
  0
VERTEX
  5
424
330
268
100
AcDbEntity
  8
0
  6
CONTINUOUS
 62
     7
100
AcDbVertex
100
AcDb2dVertex
 10
8.7936475424
 20
6.3828231235
 30
0.0
  0
VERTEX
  5
425
330
268
100
AcDbEntity
  8
0
  6
CONTINUOUS
 62
     7
100
AcDbVertex
100
AcDb2dVertex
 10
8.7771628386
 20
6.365059397
 30
0.0
  0
VERTEX
  5
426
330
268
100
AcDbEntity
  8
0
  6
CONTINUOUS
 62
     7
100
AcDbVertex
100
AcDb2dVertex
 10
8.7601251983
 20
6.3486434169
 30
0.0
  0
VERTEX
  5
427
330
268
100
AcDbEntity
  8
0
  6
CONTINUOUS
 62
     7
100
AcDbVertex
100
AcDb2dVertex
 10
8.7426607623
 20
6.3336967213
 30
0.0
  0
VERTEX
  5
428
330
268
100
AcDbEntity
  8
0
  6
CONTINUOUS
 62
     7
100
AcDbVertex
100
AcDb2dVertex
 10
8.7248988311
 20
6.3203299703
 30
0.0
  0
VERTEX
  5
429
330
268
100
AcDbEntity
  8
0
  6
CONTINUOUS
 62
     7
100
AcDbVertex
100
AcDb2dVertex
 10
8.7069709079
 20
6.3086421267
 30
0.0
  0
VERTEX
  5
42A
330
268
100
AcDbEntity
  8
0
  6
CONTINUOUS
 62
     7
100
AcDbVertex
100
AcDb2dVertex
 10
8.6890097247
 20
6.2987197231
 30
0.0
  0
VERTEX
  5
42B
330
268
100
AcDbEntity
  8
0
  6
CONTINUOUS
 62
     7
100
AcDbVertex
100
AcDb2dVertex
 10
8.6711482599
 20
6.2906362216
 30
0.0
  0
VERTEX
  5
42C
330
268
100
AcDbEntity
  8
0
  6
CONTINUOUS
 62
     7
100
AcDbVertex
100
AcDb2dVertex
 10
8.6535187534
 20
6.2844514697
 30
0.0
  0
VERTEX
  5
42D
330
268
100
AcDbEntity
  8
0
  6
CONTINUOUS
 62
     7
100
AcDbVertex
100
AcDb2dVertex
 10
8.636251728
 20
6.2802112569
 30
0.0
  0
VERTEX
  5
42E
330
268
100
AcDbEntity
  8
0
  6
CONTINUOUS
 62
     7
100
AcDbVertex
100
AcDb2dVertex
 10
8.6194750226
 20
6.2779469764
 30
0.0
  0
VERTEX
  5
42F
330
268
100
AcDbEntity
  8
0
  6
CONTINUOUS
 62
     7
100
AcDbVertex
100
AcDb2dVertex
 10
8.6033128462
 20
6.2776753922
 30
0.0
  0
VERTEX
  5
430
330
268
100
AcDbEntity
  8
0
  6
CONTINUOUS
 62
     7
100
AcDbVertex
100
AcDb2dVertex
 10
8.5878848579
 20
6.2793985149
 30
0.0
  0
VERTEX
  5
431
330
268
100
AcDbEntity
  8
0
  6
CONTINUOUS
 62
     7
100
AcDbVertex
100
AcDb2dVertex
 10
8.5733052811
 20
6.2831035871
 30
0.0
  0
VERTEX
  5
432
330
268
100
AcDbEntity
  8
0
  6
CONTINUOUS
 62
     7
100
AcDbVertex
100
AcDb2dVertex
 10
8.5596820578
 20
6.2887631779
 30
0.0
  0
VERTEX
  5
433
330
268
100
AcDbEntity
  8
0
  6
CONTINUOUS
 62
     7
100
AcDbVertex
100
AcDb2dVertex
 10
8.5471160496
 20
6.2963353854
 30
0.0
  0
VERTEX
  5
434
330
268
100
AcDbEntity
  8
0
  6
CONTINUOUS
 62
     7
100
AcDbVertex
100
AcDb2dVertex
 10
8.5357002909
 20
6.3057641479
 30
0.0
  0
VERTEX
  5
435
330
268
100
AcDbEntity
  8
0
  6
CONTINUOUS
 62
     7
100
AcDbVertex
100
AcDb2dVertex
 10
8.5255193
 20
6.316979658
 30
0.0
  0
VERTEX
  5
436
330
268
100
AcDbEntity
  8
0
  6
CONTINUOUS
 62
     7
100
AcDbVertex
100
AcDb2dVertex
 10
8.5166484533
 20
6.32989888
 30
0.0
  0
VERTEX
  5
437
330
268
100
AcDbEntity
  8
0
  6
CONTINUOUS
 62
     7
100
AcDbVertex
100
AcDb2dVertex
 10
8.5091534274
 20
6.3444261645
 30
0.0
  0
VERTEX
  5
438
330
268
100
AcDbEntity
  8
0
  6
CONTINUOUS
 62
     7
100
AcDbVertex
100
AcDb2dVertex
 10
8.5030897131
 20
6.3604539565
 30
0.0
  0
VERTEX
  5
439
330
268
100
AcDbEntity
  8
0
  6
CONTINUOUS
 62
     7
100
AcDbVertex
100
AcDb2dVertex
 10
8.4985022038
 20
6.377863592
 30
0.0
  0
VERTEX
  5
43A
330
268
100
AcDbEntity
  8
0
  6
CONTINUOUS
 62
     7
100
AcDbVertex
100
AcDb2dVertex
 10
8.4954248638
 20
6.3965261761
 30
0.0
  0
VERTEX
  5
43B
330
268
100
AcDbEntity
  8
0
  6
CONTINUOUS
 62
     7
100
AcDbVertex
100
AcDb2dVertex
 10
8.4938804768
 20
6.4163035374
 30
0.0
  0
VERTEX
  5
43C
330
268
100
AcDbEntity
  8
0
  6
CONTINUOUS
 62
     7
100
AcDbVertex
100
AcDb2dVertex
 10
8.4938804768
 20
6.4370492514
 30
0.0
  0
VERTEX
  5
43D
330
268
100
AcDbEntity
  8
0
  6
CONTINUOUS
 62
     7
100
AcDbVertex
100
AcDb2dVertex
 10
8.4954248638
 20
6.4586097241
 30
0.0
  0
VERTEX
  5
43E
330
268
100
AcDbEntity
  8
0
  6
CONTINUOUS
 62
     7
100
AcDbVertex
100
AcDb2dVertex
 10
8.4985022038
 20
6.4808253292
 30
0.0
  0
VERTEX
  5
43F
330
268
100
AcDbEntity
  8
0
  6
CONTINUOUS
 62
     7
100
AcDbVertex
100
AcDb2dVertex
 10
8.5030897131
 20
6.5035315902
 30
0.0
  0
VERTEX
  5
440
330
268
100
AcDbEntity
  8
0
  6
CONTINUOUS
 62
     7
100
AcDbVertex
100
AcDb2dVertex
 10
8.5091534274
 20
6.5265603979
 30
0.0
  0
VERTEX
  5
441
330
268
100
AcDbEntity
  8
0
  6
CONTINUOUS
 62
     7
100
AcDbVertex
100
AcDb2dVertex
 10
8.5166484533
 20
6.549741255
 30
0.0
  0
VERTEX
  5
442
330
268
100
AcDbEntity
  8
0
  6
CONTINUOUS
 62
     7
100
AcDbVertex
100
AcDb2dVertex
 10
8.5255193
 20
6.5729025385
 30
0.0
  0
VERTEX
  5
443
330
268
100
AcDbEntity
  8
0
  6
CONTINUOUS
 62
     7
100
AcDbVertex
100
AcDb2dVertex
 10
8.5357002909
 20
6.5958727706
 30
0.0
  0
VERTEX
  5
444
330
268
100
AcDbEntity
  8
0
  6
CONTINUOUS
 62
     7
100
AcDbVertex
100
AcDb2dVertex
 10
8.5471160496
 20
6.6184818875
 30
0.0
  0
VERTEX
  5
445
330
268
100
AcDbEntity
  8
0
  6
CONTINUOUS
 62
     7
100
AcDbVertex
100
AcDb2dVertex
 10
8.5596820578
 20
6.6405624992
 30
0.0
  0
VERTEX
  5
446
330
268
100
AcDbEntity
  8
0
  6
CONTINUOUS
 62
     7
100
AcDbVertex
100
AcDb2dVertex
 10
8.5733052811
 20
6.6619511288
 30
0.0
  0
VERTEX
  5
447
330
268
100
AcDbEntity
  8
0
  6
CONTINUOUS
 62
     7
100
AcDbVertex
100
AcDb2dVertex
 10
8.5878848579
 20
6.6824894222
 30
0.0
  0
VERTEX
  5
448
330
268
100
AcDbEntity
  8
0
  6
CONTINUOUS
 62
     7
100
AcDbVertex
100
AcDb2dVertex
 10
8.6033128462
 20
6.702025321
 30
0.0
  0
VERTEX
  5
449
330
268
100
AcDbEntity
  8
0
  6
CONTINUOUS
 62
     7
100
AcDbVertex
100
AcDb2dVertex
 10
8.6194750226
 20
6.7204141884
 30
0.0
  0
VERTEX
  5
44A
330
268
100
AcDbEntity
  8
0
  6
CONTINUOUS
 62
     7
100
AcDbVertex
100
AcDb2dVertex
 10
8.636251728
 20
6.7375198796
 30
0.0
  0
VERTEX
  5
44B
330
268
100
AcDbEntity
  8
0
  6
CONTINUOUS
 62
     7
100
AcDbVertex
100
AcDb2dVertex
 10
8.6535187534
 20
6.7532157501
 30
0.0
  0
VERTEX
  5
44C
330
268
100
AcDbEntity
  8
0
  6
CONTINUOUS
 62
     7
100
AcDbVertex
100
AcDb2dVertex
 10
8.6711482599
 20
6.767385593
 30
0.0
  0
VERTEX
  5
44D
330
268
100
AcDbEntity
  8
0
  6
CONTINUOUS
 62
     7
100
AcDbVertex
100
AcDb2dVertex
 10
8.6890097247
 20
6.7799244999
 30
0.0
  0
VERTEX
  5
44E
330
268
100
AcDbEntity
  8
0
  6
CONTINUOUS
 62
     7
100
AcDbVertex
100
AcDb2dVertex
 10
8.7069709079
 20
6.7907396371
 30
0.0
  0
VERTEX
  5
44F
330
268
100
AcDbEntity
  8
0
  6
CONTINUOUS
 62
     7
100
AcDbVertex
100
AcDb2dVertex
 10
8.7248988311
 20
6.799750933
 30
0.0
  0
VERTEX
  5
450
330
268
100
AcDbEntity
  8
0
  6
CONTINUOUS
 62
     7
100
AcDbVertex
100
AcDb2dVertex
 10
8.7426607623
 20
6.8068916713
 30
0.0
  0
VERTEX
  5
451
330
268
100
AcDbEntity
  8
0
  6
CONTINUOUS
 62
     7
100
AcDbVertex
100
AcDb2dVertex
 10
8.7601251983
 20
6.8121089843
 30
0.0
  0
VERTEX
  5
452
330
268
100
AcDbEntity
  8
0
  6
CONTINUOUS
 62
     7
100
AcDbVertex
100
AcDb2dVertex
 10
8.7771628386
 20
6.8153642449
 30
0.0
  0
VERTEX
  5
453
330
268
100
AcDbEntity
  8
0
  6
CONTINUOUS
 62
     7
100
AcDbVertex
100
AcDb2dVertex
 10
8.7936475424
 20
6.8166333523
 30
0.0
  0
VERTEX
  5
454
330
268
100
AcDbEntity
  8
0
  6
CONTINUOUS
 62
     7
100
AcDbVertex
100
AcDb2dVertex
 10
8.8094572627
 20
6.8159069104
 30
0.0
  0
VERTEX
  5
455
330
268
100
AcDbEntity
  8
0
  6
CONTINUOUS
 62
     7
100
AcDbVertex
100
AcDb2dVertex
 10
8.82447495
 20
6.8131902977
 30
0.0
  0
VERTEX
  5
456
330
268
100
AcDbEntity
  8
0
  6
CONTINUOUS
 62
     7
100
AcDbVertex
100
AcDb2dVertex
 10
8.8385894184
 20
6.8085036269
 30
0.0
  0
VERTEX
  5
457
330
268
100
AcDbEntity
  8
0
  6
CONTINUOUS
 62
     7
100
AcDbVertex
100
AcDb2dVertex
 10
8.8516961695
 20
6.8018815965
 30
0.0
  0
VERTEX
  5
458
330
268
100
AcDbEntity
  8
0
  6
CONTINUOUS
 62
     7
100
AcDbVertex
100
AcDb2dVertex
 10
8.8636981654
 20
6.7933732337
 30
0.0
  0
VERTEX
  5
459
330
268
100
AcDbEntity
  8
0
  6
CONTINUOUS
 62
     7
100
AcDbVertex
100
AcDb2dVertex
 10
8.8745065475
 20
6.7830415315
 30
0.0
  0
VERTEX
  5
45A
330
268
100
AcDbEntity
  8
0
  6
CONTINUOUS
 62
     7
100
AcDbVertex
100
AcDb2dVertex
 10
8.8840412944
 20
6.7709629821
 30
0.0
  0
VERTEX
  5
45B
330
268
100
AcDbEntity
  8
0
  6
CONTINUOUS
 62
     7
100
AcDbVertex
100
AcDb2dVertex
 10
8.8922318142
 20
6.7572270109
 30
0.0
  0
VERTEX
  5
45C
330
268
100
AcDbEntity
  8
0
  6
CONTINUOUS
 62
     7
100
AcDbVertex
100
AcDb2dVertex
 10
8.899017467
 20
6.7419353143
 30
0.0
  0
VERTEX
  5
45D
330
268
100
AcDbEntity
  8
0
  6
CONTINUOUS
 62
     7
100
AcDbVertex
100
AcDb2dVertex
 10
8.9043480143
 20
6.7252011066
 30
0.0
  0
VERTEX
  5
45E
330
268
100
AcDbEntity
  8
0
  6
CONTINUOUS
 62
     7
100
AcDbVertex
100
AcDb2dVertex
 10
8.9081839906
 20
6.707148282
 30
0.0
  0
VERTEX
  5
45F
330
268
100
AcDbEntity
  8
0
  6
CONTINUOUS
 62
     7
100
AcDbVertex
100
AcDb2dVertex
 10
8.9104969957
 20
6.6879104973
 30
0.0
  0
VERTEX
  5
460
330
268
100
AcDbEntity
  8
0
  6
CONTINUOUS
 62
     7
100
AcDbVertex
100
AcDb2dVertex
 10
8.9112699048
 20
6.6676301824
 30
0.0
  0
SEQEND
  5
461
330
268
100
AcDbEntity
  8
0
  6
CONTINUOUS
 62
     7
  0
ARC
  5
269
330
1F
100
AcDbEntity
  8
0
  6
CONTINUOUS
 62
     7
100
AcDbCircle
 10
9.2788827928
 20
6.2167516091
 30
0.0
 40
1.496877639328553
100
AcDbArc
 50
138.3942113587
 51
177.1966529621
  0
SPLINE
  5
26A
330
1F
100
AcDbEntity
  8
0
  6
CONTINUOUS
 62
     7
100
AcDbSpline
210
0.0
220
0.0
230
1.0
 70
     8
 71
     3
 72
     8
 73
     4
 74
     0
 42
0.00000001
 43
0.00000001
 40
0.0
 40
0.0
 40
0.0
 40
0.0
 40
0.0007493652071751
 40
0.0007493652071751
 40
0.0007493652071751
 40
0.0007493652071751
 10
8.159620964173824
 20
7.210680996031032
 30
0.0
 10
8.164254294816352
 20
7.213994085302086
 30
0.0
 10
8.168894253695937
 20
7.217296516634018
 30
0.0
 10
8.17354038900033
 20
7.220588968799643
 30
0.0
  0
LINE
  5
26B
330
1F
100
AcDbEntity
  8
0
  6
CONTINUOUS
 62
     7
100
AcDbLine
 10
7.9508295918
 20
7.3491571754
 30
0.0
 11
7.9383620285
 21
7.3402826508
 31
0.0
  0
ARC
  5
26C
330
1F
100
AcDbEntity
  8
0
  6
CONTINUOUS
 62
     7
100
AcDbCircle
 10
8.8660121077
 20
6.5579206073
 30
0.0
 40
1.213940702717818
100
AcDbArc
 50
120.8767255946
 51
139.8599408842
  0
POLYLINE
  5
26D
330
1F
100
AcDbEntity
  8
0
  6
CONTINUOUS
 62
     7
100
AcDb2dPolyline
 66
     1
 10
0.0
 20
0.0
 30
0.0
  0
VERTEX
  5
462
330
26D
100
AcDbEntity
  8
0
  6
CONTINUOUS
 62
     7
100
AcDbVertex
100
AcDb2dVertex
 10
8.8834310552
 20
6.6676301824
 30
0.0
  0
VERTEX
  5
463
330
26D
100
AcDbEntity
  8
0
  6
CONTINUOUS
 62
     7
100
AcDbVertex
100
AcDb2dVertex
 10
8.882646558
 20
6.6873489191
 30
0.0
  0
VERTEX
  5
464
330
26D
100
AcDbEntity
  8
0
  6
CONTINUOUS
 62
     7
100
AcDbVertex
100
AcDb2dVertex
 10
8.8802993828
 20
6.7060031309
 30
0.0
  0
VERTEX
  5
465
330
26D
100
AcDbEntity
  8
0
  6
CONTINUOUS
 62
     7
100
AcDbVertex
100
AcDb2dVertex
 10
8.8764084276
 20
6.7234426252
 30
0.0
  0
VERTEX
  5
466
330
26D
100
AcDbEntity
  8
0
  6
CONTINUOUS
 62
     7
100
AcDbVertex
100
AcDb2dVertex
 10
8.8710050202
 20
6.7395269894
 30
0.0
  0
VERTEX
  5
467
330
26D
100
AcDbEntity
  8
0
  6
CONTINUOUS
 62
     7
100
AcDbVertex
100
AcDb2dVertex
 10
8.8641326656
 20
6.7541267216
 30
0.0
  0
VERTEX
  5
468
330
26D
100
AcDbEntity
  8
0
  6
CONTINUOUS
 62
     7
100
AcDbVertex
100
AcDb2dVertex
 10
8.8558466959
 20
6.7671242733
 30
0.0
  0
VERTEX
  5
469
330
26D
100
AcDbEntity
  8
0
  6
CONTINUOUS
 62
     7
100
AcDbVertex
100
AcDb2dVertex
 10
8.8462138249
 20
6.778414996
 30
0.0
  0
VERTEX
  5
46A
330
26D
100
AcDbEntity
  8
0
  6
CONTINUOUS
 62
     7
100
AcDbVertex
100
AcDb2dVertex
 10
8.8353116108
 20
6.7879079834
 30
0.0
  0
VERTEX
  5
46B
330
26D
100
AcDbEntity
  8
0
  6
CONTINUOUS
 62
     7
100
AcDbVertex
100
AcDb2dVertex
 10
8.8232278319
 20
6.7955268035
 30
0.0
  0
VERTEX
  5
46C
330
26D
100
AcDbEntity
  8
0
  6
CONTINUOUS
 62
     7
100
AcDbVertex
100
AcDb2dVertex
 10
8.8100597796
 20
6.801210114
 30
0.0
  0
VERTEX
  5
46D
330
26D
100
AcDbEntity
  8
0
  6
CONTINUOUS
 62
     7
100
AcDbVertex
100
AcDb2dVertex
 10
8.7959134753
 20
6.8049121564
 30
0.0
  0
VERTEX
  5
46E
330
26D
100
AcDbEntity
  8
0
  6
CONTINUOUS
 62
     7
100
AcDbVertex
100
AcDb2dVertex
 10
8.7809028167
 20
6.8066031238
 30
0.0
  0
VERTEX
  5
46F
330
26D
100
AcDbEntity
  8
0
  6
CONTINUOUS
 62
     7
100
AcDbVertex
100
AcDb2dVertex
 10
8.7651486609
 20
6.8062694017
 30
0.0
  0
VERTEX
  5
470
330
26D
100
AcDbEntity
  8
0
  6
CONTINUOUS
 62
     7
100
AcDbVertex
100
AcDb2dVertex
 10
8.7487778511
 20
6.8039136769
 30
0.0
  0
VERTEX
  5
471
330
26D
100
AcDbEntity
  8
0
  6
CONTINUOUS
 62
     7
100
AcDbVertex
100
AcDb2dVertex
 10
8.7319221954
 20
6.7995549164
 30
0.0
  0
VERTEX
  5
472
330
26D
100
AcDbEntity
  8
0
  6
CONTINUOUS
 62
     7
100
AcDbVertex
100
AcDb2dVertex
 10
8.7147174055
 20
6.7932282144
 30
0.0
  0
VERTEX
  5
473
330
26D
100
AcDbEntity
  8
0
  6
CONTINUOUS
 62
     7
100
AcDbVertex
100
AcDb2dVertex
 10
8.6973020044
 20
6.7849845098
 30
0.0
  0
VERTEX
  5
474
330
26D
100
AcDbEntity
  8
0
  6
CONTINUOUS
 62
     7
100
AcDbVertex
100
AcDb2dVertex
 10
8.6953659892
 20
6.7839561404
 30
0.0
  0
SEQEND
  5
475
330
26D
100
AcDbEntity
  8
0
  6
CONTINUOUS
 62
     7
  0
POLYLINE
  5
26E
330
1F
100
AcDbEntity
  8
0
  6
CONTINUOUS
 62
     7
100
AcDb2dPolyline
 66
     1
 10
0.0
 20
0.0
 30
0.0
  0
VERTEX
  5
476
330
26E
100
AcDbEntity
  8
0
  6
CONTINUOUS
 62
     7
100
AcDbVertex
100
AcDb2dVertex
 10
8.4938071874
 20
6.4348082241
 30
0.0
  0
VERTEX
  5
477
330
26E
100
AcDbEntity
  8
0
  6
CONTINUOUS
 62
     7
100
AcDbVertex
100
AcDb2dVertex
 10
8.4944716572
 20
6.4229170842
 30
0.0
  0
VERTEX
  5
478
330
26E
100
AcDbEntity
  8
0
  6
CONTINUOUS
 62
     7
100
AcDbVertex
100
AcDb2dVertex
 10
8.4968188324
 20
6.4042628723
 30
0.0
  0
VERTEX
  5
479
330
26E
100
AcDbEntity
  8
0
  6
CONTINUOUS
 62
     7
100
AcDbVertex
100
AcDb2dVertex
 10
8.5007097875
 20
6.386823378
 30
0.0
  0
VERTEX
  5
47A
330
26E
100
AcDbEntity
  8
0
  6
CONTINUOUS
 62
     7
100
AcDbVertex
100
AcDb2dVertex
 10
8.506113195
 20
6.3707390138
 30
0.0
  0
VERTEX
  5
47B
330
26E
100
AcDbEntity
  8
0
  6
CONTINUOUS
 62
     7
100
AcDbVertex
100
AcDb2dVertex
 10
8.5129855496
 20
6.3561392816
 30
0.0
  0
VERTEX
  5
47C
330
26E
100
AcDbEntity
  8
0
  6
CONTINUOUS
 62
     7
100
AcDbVertex
100
AcDb2dVertex
 10
8.5212715193
 20
6.3431417299
 30
0.0
  0
VERTEX
  5
47D
330
26E
100
AcDbEntity
  8
0
  6
CONTINUOUS
 62
     7
100
AcDbVertex
100
AcDb2dVertex
 10
8.5309043903
 20
6.3318510072
 30
0.0
  0
VERTEX
  5
47E
330
26E
100
AcDbEntity
  8
0
  6
CONTINUOUS
 62
     7
100
AcDbVertex
100
AcDb2dVertex
 10
8.5418066043
 20
6.3223580198
 30
0.0
  0
VERTEX
  5
47F
330
26E
100
AcDbEntity
  8
0
  6
CONTINUOUS
 62
     7
100
AcDbVertex
100
AcDb2dVertex
 10
8.5538903833
 20
6.3147391997
 30
0.0
  0
VERTEX
  5
480
330
26E
100
AcDbEntity
  8
0
  6
CONTINUOUS
 62
     7
100
AcDbVertex
100
AcDb2dVertex
 10
8.5670584356
 20
6.3090558892
 30
0.0
  0
VERTEX
  5
481
330
26E
100
AcDbEntity
  8
0
  6
CONTINUOUS
 62
     7
100
AcDbVertex
100
AcDb2dVertex
 10
8.5812047399
 20
6.3053538469
 30
0.0
  0
VERTEX
  5
482
330
26E
100
AcDbEntity
  8
0
  6
CONTINUOUS
 62
     7
100
AcDbVertex
100
AcDb2dVertex
 10
8.5962153984
 20
6.3036628794
 30
0.0
  0
VERTEX
  5
483
330
26E
100
AcDbEntity
  8
0
  6
CONTINUOUS
 62
     7
100
AcDbVertex
100
AcDb2dVertex
 10
8.6119695542
 20
6.3039966015
 30
0.0
  0
VERTEX
  5
484
330
26E
100
AcDbEntity
  8
0
  6
CONTINUOUS
 62
     7
100
AcDbVertex
100
AcDb2dVertex
 10
8.6283403641
 20
6.3063523263
 30
0.0
  0
VERTEX
  5
485
330
26E
100
AcDbEntity
  8
0
  6
CONTINUOUS
 62
     7
100
AcDbVertex
100
AcDb2dVertex
 10
8.6451960198
 20
6.3107110868
 30
0.0
  0
VERTEX
  5
486
330
26E
100
AcDbEntity
  8
0
  6
CONTINUOUS
 62
     7
100
AcDbVertex
100
AcDb2dVertex
 10
8.6624008096
 20
6.3170377888
 30
0.0
  0
VERTEX
  5
487
330
26E
100
AcDbEntity
  8
0
  6
CONTINUOUS
 62
     7
100
AcDbVertex
100
AcDb2dVertex
 10
8.6798162107
 20
6.3252814934
 30
0.0
  0
VERTEX
  5
488
330
26E
100
AcDbEntity
  8
0
  6
CONTINUOUS
 62
     7
100
AcDbVertex
100
AcDb2dVertex
 10
8.6973020044
 20
6.3353758273
 30
0.0
  0
VERTEX
  5
489
330
26E
100
AcDbEntity
  8
0
  6
CONTINUOUS
 62
     7
100
AcDbVertex
100
AcDb2dVertex
 10
8.7147174055
 20
6.3472395167
 30
0.0
  0
VERTEX
  5
48A
330
26E
100
AcDbEntity
  8
0
  6
CONTINUOUS
 62
     7
100
AcDbVertex
100
AcDb2dVertex
 10
8.7319221954
 20
6.3607770422
 30
0.0
  0
VERTEX
  5
48B
330
26E
100
AcDbEntity
  8
0
  6
CONTINUOUS
 62
     7
100
AcDbVertex
100
AcDb2dVertex
 10
8.7487778511
 20
6.3758794076
 30
0.0
  0
VERTEX
  5
48C
330
26E
100
AcDbEntity
  8
0
  6
CONTINUOUS
 62
     7
100
AcDbVertex
100
AcDb2dVertex
 10
8.7651486609
 20
6.3924250176
 30
0.0
  0
VERTEX
  5
48D
330
26E
100
AcDbEntity
  8
0
  6
CONTINUOUS
 62
     7
100
AcDbVertex
100
AcDb2dVertex
 10
8.7809028167
 20
6.4102806566
 30
0.0
  0
VERTEX
  5
48E
330
26E
100
AcDbEntity
  8
0
  6
CONTINUOUS
 62
     7
100
AcDbVertex
100
AcDb2dVertex
 10
8.7959134753
 20
6.4293025615
 30
0.0
  0
VERTEX
  5
48F
330
26E
100
AcDbEntity
  8
0
  6
CONTINUOUS
 62
     7
100
AcDbVertex
100
AcDb2dVertex
 10
8.8100597796
 20
6.4493375791
 30
0.0
  0
VERTEX
  5
490
330
26E
100
AcDbEntity
  8
0
  6
CONTINUOUS
 62
     7
100
AcDbVertex
100
AcDb2dVertex
 10
8.8232278319
 20
6.4702243992
 30
0.0
  0
VERTEX
  5
491
330
26E
100
AcDbEntity
  8
0
  6
CONTINUOUS
 62
     7
100
AcDbVertex
100
AcDb2dVertex
 10
8.8353116108
 20
6.4917948535
 30
0.0
  0
VERTEX
  5
492
330
26E
100
AcDbEntity
  8
0
  6
CONTINUOUS
 62
     7
100
AcDbVertex
100
AcDb2dVertex
 10
8.8462138249
 20
6.5138752693
 30
0.0
  0
VERTEX
  5
493
330
26E
100
AcDbEntity
  8
0
  6
CONTINUOUS
 62
     7
100
AcDbVertex
100
AcDb2dVertex
 10
8.8558466959
 20
6.5362878681
 30
0.0
  0
VERTEX
  5
494
330
26E
100
AcDbEntity
  8
0
  6
CONTINUOUS
 62
     7
100
AcDbVertex
100
AcDb2dVertex
 10
8.8641326656
 20
6.5588521968
 30
0.0
  0
VERTEX
  5
495
330
26E
100
AcDbEntity
  8
0
  6
CONTINUOUS
 62
     7
100
AcDbVertex
100
AcDb2dVertex
 10
8.8710050202
 20
6.5813865808
 30
0.0
  0
VERTEX
  5
496
330
26E
100
AcDbEntity
  8
0
  6
CONTINUOUS
 62
     7
100
AcDbVertex
100
AcDb2dVertex
 10
8.8764084276
 20
6.6037095864
 30
0.0
  0
VERTEX
  5
497
330
26E
100
AcDbEntity
  8
0
  6
CONTINUOUS
 62
     7
100
AcDbVertex
100
AcDb2dVertex
 10
8.8802993828
 20
6.6256414819
 30
0.0
  0
VERTEX
  5
498
330
26E
100
AcDbEntity
  8
0
  6
CONTINUOUS
 62
     7
100
AcDbVertex
100
AcDb2dVertex
 10
8.882646558
 20
6.6470056845
 30
0.0
  0
VERTEX
  5
499
330
26E
100
AcDbEntity
  8
0
  6
CONTINUOUS
 62
     7
100
AcDbVertex
100
AcDb2dVertex
 10
8.8834310552
 20
6.6676301824
 30
0.0
  0
SEQEND
  5
49A
330
26E
100
AcDbEntity
  8
0
  6
CONTINUOUS
 62
     7
  0
POLYLINE
  5
26F
330
1F
100
AcDbEntity
  8
0
  6
CONTINUOUS
 62
     7
100
AcDb2dPolyline
 66
     1
 10
0.0
 20
0.0
 30
0.0
  0
VERTEX
  5
49B
330
26F
100
AcDbEntity
  8
0
  6
CONTINUOUS
 62
     7
100
AcDbVertex
100
AcDb2dVertex
 10
7.0808655401
 20
6.6796834517
 30
0.0
  0
VERTEX
  5
49C
330
26F
100
AcDbEntity
  8
0
  6
CONTINUOUS
 62
     7
100
AcDbVertex
100
AcDb2dVertex
 10
7.0816568062
 20
6.6940411278
 30
0.0
  0
VERTEX
  5
49D
330
26F
100
AcDbEntity
  8
0
  6
CONTINUOUS
 62
     7
100
AcDbVertex
100
AcDb2dVertex
 10
7.0840186097
 20
6.7072675798
 30
0.0
  0
VERTEX
  5
49E
330
26F
100
AcDbEntity
  8
0
  6
CONTINUOUS
 62
     7
100
AcDbVertex
100
AcDb2dVertex
 10
7.0879151481
 20
6.7191623081
 30
0.0
  0
VERTEX
  5
49F
330
26F
100
AcDbEntity
  8
0
  6
CONTINUOUS
 62
     7
100
AcDbVertex
100
AcDb2dVertex
 10
7.0932873537
 20
6.7295450008
 30
0.0
  0
VERTEX
  5
4A0
330
26F
100
AcDbEntity
  8
0
  6
CONTINUOUS
 62
     7
100
AcDbVertex
100
AcDb2dVertex
 10
7.1000537896
 20
6.7382582668
 30
0.0
  0
VERTEX
  5
4A1
330
26F
100
AcDbEntity
  8
0
  6
CONTINUOUS
 62
     7
100
AcDbVertex
100
AcDb2dVertex
 10
7.1081118833
 20
6.745170022
 30
0.0
  0
VERTEX
  5
4A2
330
26F
100
AcDbEntity
  8
0
  6
CONTINUOUS
 62
     7
100
AcDbVertex
100
AcDb2dVertex
 10
7.1173394824
 20
6.7501754911
 30
0.0
  0
VERTEX
  5
4A3
330
26F
100
AcDbEntity
  8
0
  6
CONTINUOUS
 62
     7
100
AcDbVertex
100
AcDb2dVertex
 10
7.1275967059
 20
6.7531987964
 30
0.0
  0
VERTEX
  5
4A4
330
26F
100
AcDbEntity
  8
0
  6
CONTINUOUS
 62
     7
100
AcDbVertex
100
AcDb2dVertex
 10
7.1387280648
 20
6.7541941077
 30
0.0
  0
VERTEX
  5
4A5
330
26F
100
AcDbEntity
  8
0
  6
CONTINUOUS
 62
     7
100
AcDbVertex
100
AcDb2dVertex
 10
7.150564819
 20
6.7531463369
 30
0.0
  0
VERTEX
  5
4A6
330
26F
100
AcDbEntity
  8
0
  6
CONTINUOUS
 62
     7
100
AcDbVertex
100
AcDb2dVertex
 10
7.1629275353
 20
6.7500713673
 30
0.0
  0
VERTEX
  5
4A7
330
26F
100
AcDbEntity
  8
0
  6
CONTINUOUS
 62
     7
100
AcDbVertex
100
AcDb2dVertex
 10
7.1756288076
 20
6.7450158123
 30
0.0
  0
VERTEX
  5
4A8
330
26F
100
AcDbEntity
  8
0
  6
CONTINUOUS
 62
     7
100
AcDbVertex
100
AcDb2dVertex
 10
7.1884760976
 20
6.7380563089
 30
0.0
  0
VERTEX
  5
4A9
330
26F
100
AcDbEntity
  8
0
  6
CONTINUOUS
 62
     7
100
AcDbVertex
100
AcDb2dVertex
 10
7.2012746534
 20
6.7292983561
 30
0.0
  0
VERTEX
  5
4AA
330
26F
100
AcDbEntity
  8
0
  6
CONTINUOUS
 62
     7
100
AcDbVertex
100
AcDb2dVertex
 10
7.213830462
 20
6.7188747155
 30
0.0
  0
VERTEX
  5
4AB
330
26F
100
AcDbEntity
  8
0
  6
CONTINUOUS
 62
     7
100
AcDbVertex
100
AcDb2dVertex
 10
7.22595319
 20
6.7069433989
 30
0.0
  0
VERTEX
  5
4AC
330
26F
100
AcDbEntity
  8
0
  6
CONTINUOUS
 62
     7
100
AcDbVertex
100
AcDb2dVertex
 10
7.2374590694
 20
6.693685273
 30
0.0
  0
VERTEX
  5
4AD
330
26F
100
AcDbEntity
  8
0
  6
CONTINUOUS
 62
     7
100
AcDbVertex
100
AcDb2dVertex
 10
7.2481736827
 20
6.6793013173
 30
0.0
  0
VERTEX
  5
4AE
330
26F
100
AcDbEntity
  8
0
  6
CONTINUOUS
 62
     7
100
AcDbVertex
100
AcDb2dVertex
 10
7.2579346073
 20
6.664009578
 30
0.0
  0
VERTEX
  5
4AF
330
26F
100
AcDbEntity
  8
0
  6
CONTINUOUS
 62
     7
100
AcDbVertex
100
AcDb2dVertex
 10
7.2665938775
 20
6.6480418622
 30
0.0
  0
VERTEX
  5
4B0
330
26F
100
AcDbEntity
  8
0
  6
CONTINUOUS
 62
     7
100
AcDbVertex
100
AcDb2dVertex
 10
7.2740202276
 20
6.6316402244
 30
0.0
  0
VERTEX
  5
4B1
330
26F
100
AcDbEntity
  8
0
  6
CONTINUOUS
 62
     7
100
AcDbVertex
100
AcDb2dVertex
 10
7.2801010818
 20
6.6150532964
 30
0.0
  0
VERTEX
  5
4B2
330
26F
100
AcDbEntity
  8
0
  6
CONTINUOUS
 62
     7
100
AcDbVertex
100
AcDb2dVertex
 10
7.2847442604
 20
6.5985325194
 30
0.0
  0
VERTEX
  5
4B3
330
26F
100
AcDbEntity
  8
0
  6
CONTINUOUS
 62
     7
100
AcDbVertex
100
AcDb2dVertex
 10
7.2878793776
 20
6.5823283314
 30
0.0
  0
VERTEX
  5
4B4
330
26F
100
AcDbEntity
  8
0
  6
CONTINUOUS
 62
     7
100
AcDbVertex
100
AcDb2dVertex
 10
7.2894589082
 20
6.5666863714
 30
0.0
  0
VERTEX
  5
4B5
330
26F
100
AcDbEntity
  8
0
  6
CONTINUOUS
 62
     7
100
AcDbVertex
100
AcDb2dVertex
 10
7.2894589082
 20
6.5518437556
 30
0.0
  0
VERTEX
  5
4B6
330
26F
100
AcDbEntity
  8
0
  6
CONTINUOUS
 62
     7
100
AcDbVertex
100
AcDb2dVertex
 10
7.2878793776
 20
6.5380254829
 30
0.0
  0
VERTEX
  5
4B7
330
26F
100
AcDbEntity
  8
0
  6
CONTINUOUS
 62
     7
100
AcDbVertex
100
AcDb2dVertex
 10
7.2847442604
 20
6.5254410242
 30
0.0
  0
VERTEX
  5
4B8
330
26F
100
AcDbEntity
  8
0
  6
CONTINUOUS
 62
     7
100
AcDbVertex
100
AcDb2dVertex
 10
7.2801010818
 20
6.514281147
 30
0.0
  0
VERTEX
  5
4B9
330
26F
100
AcDbEntity
  8
0
  6
CONTINUOUS
 62
     7
100
AcDbVertex
100
AcDb2dVertex
 10
7.2740202276
 20
6.5047150239
 30
0.0
  0
VERTEX
  5
4BA
330
26F
100
AcDbEntity
  8
0
  6
CONTINUOUS
 62
     7
100
AcDbVertex
100
AcDb2dVertex
 10
7.2665938775
 20
6.4968876673
 30
0.0
  0
VERTEX
  5
4BB
330
26F
100
AcDbEntity
  8
0
  6
CONTINUOUS
 62
     7
100
AcDbVertex
100
AcDb2dVertex
 10
7.2579346073
 20
6.4909177322
 30
0.0
  0
VERTEX
  5
4BC
330
26F
100
AcDbEntity
  8
0
  6
CONTINUOUS
 62
     7
100
AcDbVertex
100
AcDb2dVertex
 10
7.2481736827
 20
6.4868957165
 30
0.0
  0
VERTEX
  5
4BD
330
26F
100
AcDbEntity
  8
0
  6
CONTINUOUS
 62
     7
100
AcDbVertex
100
AcDb2dVertex
 10
7.2374590694
 20
6.48488259
 30
0.0
  0
VERTEX
  5
4BE
330
26F
100
AcDbEntity
  8
0
  6
CONTINUOUS
 62
     7
100
AcDbVertex
100
AcDb2dVertex
 10
7.22595319
 20
6.4849088696
 30
0.0
  0
VERTEX
  5
4BF
330
26F
100
AcDbEntity
  8
0
  6
CONTINUOUS
 62
     7
100
AcDbVertex
100
AcDb2dVertex
 10
7.213830462
 20
6.486974157
 30
0.0
  0
VERTEX
  5
4C0
330
26F
100
AcDbEntity
  8
0
  6
CONTINUOUS
 62
     7
100
AcDbVertex
100
AcDb2dVertex
 10
7.2012746534
 20
6.4910471444
 30
0.0
  0
VERTEX
  5
4C1
330
26F
100
AcDbEntity
  8
0
  6
CONTINUOUS
 62
     7
100
AcDbVertex
100
AcDb2dVertex
 10
7.1884760976
 20
6.4970660896
 30
0.0
  0
VERTEX
  5
4C2
330
26F
100
AcDbEntity
  8
0
  6
CONTINUOUS
 62
     7
100
AcDbVertex
100
AcDb2dVertex
 10
7.1756288076
 20
6.5049397514
 30
0.0
  0
VERTEX
  5
4C3
330
26F
100
AcDbEntity
  8
0
  6
CONTINUOUS
 62
     7
100
AcDbVertex
100
AcDb2dVertex
 10
7.1629275353
 20
6.5145487733
 30
0.0
  0
VERTEX
  5
4C4
330
26F
100
AcDbEntity
  8
0
  6
CONTINUOUS
 62
     7
100
AcDbVertex
100
AcDb2dVertex
 10
7.150564819
 20
6.5257474921
 30
0.0
  0
VERTEX
  5
4C5
330
26F
100
AcDbEntity
  8
0
  6
CONTINUOUS
 62
     7
100
AcDbVertex
100
AcDb2dVertex
 10
7.1387280648
 20
6.5383661468
 30
0.0
  0
VERTEX
  5
4C6
330
26F
100
AcDbEntity
  8
0
  6
CONTINUOUS
 62
     7
100
AcDbVertex
100
AcDb2dVertex
 10
7.1275967059
 20
6.5522134514
 30
0.0
  0
VERTEX
  5
4C7
330
26F
100
AcDbEntity
  8
0
  6
CONTINUOUS
 62
     7
100
AcDbVertex
100
AcDb2dVertex
 10
7.1173394824
 20
6.5670794949
 30
0.0
  0
VERTEX
  5
4C8
330
26F
100
AcDbEntity
  8
0
  6
CONTINUOUS
 62
     7
100
AcDbVertex
100
AcDb2dVertex
 10
7.1081118833
 20
6.5827389232
 30
0.0
  0
VERTEX
  5
4C9
330
26F
100
AcDbEntity
  8
0
  6
CONTINUOUS
 62
     7
100
AcDbVertex
100
AcDb2dVertex
 10
7.1000537896
 20
6.5989543554
 30
0.0
  0
VERTEX
  5
4CA
330
26F
100
AcDbEntity
  8
0
  6
CONTINUOUS
 62
     7
100
AcDbVertex
100
AcDb2dVertex
 10
7.0932873537
 20
6.615479982
 30
0.0
  0
VERTEX
  5
4CB
330
26F
100
AcDbEntity
  8
0
  6
CONTINUOUS
 62
     7
100
AcDbVertex
100
AcDb2dVertex
 10
7.0879151481
 20
6.6320652913
 30
0.0
  0
VERTEX
  5
4CC
330
26F
100
AcDbEntity
  8
0
  6
CONTINUOUS
 62
     7
100
AcDbVertex
100
AcDb2dVertex
 10
7.0840186097
 20
6.6484588671
 30
0.0
  0
VERTEX
  5
4CD
330
26F
100
AcDbEntity
  8
0
  6
CONTINUOUS
 62
     7
100
AcDbVertex
100
AcDb2dVertex
 10
7.0816568062
 20
6.6644121993
 30
0.0
  0
VERTEX
  5
4CE
330
26F
100
AcDbEntity
  8
0
  6
CONTINUOUS
 62
     7
100
AcDbVertex
100
AcDb2dVertex
 10
7.0808655401
 20
6.6796834517
 30
0.0
  0
SEQEND
  5
4CF
330
26F
100
AcDbEntity
  8
0
  6
CONTINUOUS
 62
     7
  0
POLYLINE
  5
270
330
1F
100
AcDbEntity
  8
0
  6
CONTINUOUS
 62
     7
100
AcDb2dPolyline
 66
     1
 10
0.0
 20
0.0
 30
0.0
  0
VERTEX
  5
4D0
330
270
100
AcDbEntity
  8
0
  6
CONTINUOUS
 62
     7
100
AcDbVertex
100
AcDb2dVertex
 10
7.1922209387
 20
6.7520239656
 30
0.0
  0
VERTEX
  5
4D1
330
270
100
AcDbEntity
  8
0
  6
CONTINUOUS
 62
     7
100
AcDbVertex
100
AcDb2dVertex
 10
7.1790505826
 20
6.7587244958
 30
0.0
  0
VERTEX
  5
4D2
330
270
100
AcDbEntity
  8
0
  6
CONTINUOUS
 62
     7
100
AcDbVertex
100
AcDb2dVertex
 10
7.1660651095
 20
6.763525856
 30
0.0
  0
VERTEX
  5
4D3
330
270
100
AcDbEntity
  8
0
  6
CONTINUOUS
 62
     7
100
AcDbVertex
100
AcDb2dVertex
 10
7.1534468068
 20
6.7663606458
 30
0.0
  0
VERTEX
  5
4D4
330
270
100
AcDbEntity
  8
0
  6
CONTINUOUS
 62
     7
100
AcDbVertex
100
AcDb2dVertex
 10
7.141372808
 20
6.7671890708
 30
0.0
  0
VERTEX
  5
4D5
330
270
100
AcDbEntity
  8
0
  6
CONTINUOUS
 62
     7
100
AcDbVertex
100
AcDb2dVertex
 10
7.1300126054
 20
6.7659995019
 30
0.0
  0
VERTEX
  5
4D6
330
270
100
AcDbEntity
  8
0
  6
CONTINUOUS
 62
     7
100
AcDbVertex
100
AcDb2dVertex
 10
7.1195256715
 20
6.7628086379
 30
0.0
  0
VERTEX
  5
4D7
330
270
100
AcDbEntity
  8
0
  6
CONTINUOUS
 62
     7
100
AcDbVertex
100
AcDb2dVertex
 10
7.1100592198
 20
6.7576612716
 30
0.0
  0
VERTEX
  5
4D8
330
270
100
AcDbEntity
  8
0
  6
CONTINUOUS
 62
     7
100
AcDbVertex
100
AcDb2dVertex
 10
7.1017461386
 20
6.7506296608
 30
0.0
  0
VERTEX
  5
4D9
330
270
100
AcDbEntity
  8
0
  6
CONTINUOUS
 62
     7
100
AcDbVertex
100
AcDb2dVertex
 10
7.0947031252
 20
6.7418125137
 30
0.0
  0
VERTEX
  5
4DA
330
270
100
AcDbEntity
  8
0
  6
CONTINUOUS
 62
     7
100
AcDbVertex
100
AcDb2dVertex
 10
7.0890290481
 20
6.7313336039
 30
0.0
  0
VERTEX
  5
4DB
330
270
100
AcDbEntity
  8
0
  6
CONTINUOUS
 62
     7
100
AcDbVertex
100
AcDb2dVertex
 10
7.084803559
 20
6.7193400323
 30
0.0
  0
VERTEX
  5
4DC
330
270
100
AcDbEntity
  8
0
  6
CONTINUOUS
 62
     7
100
AcDbVertex
100
AcDb2dVertex
 10
7.0820859744
 20
6.7060001623
 30
0.0
  0
VERTEX
  5
4DD
330
270
100
AcDbEntity
  8
0
  6
CONTINUOUS
 62
     7
100
AcDbVertex
100
AcDb2dVertex
 10
7.0809144433
 20
6.6915012565
 30
0.0
  0
VERTEX
  5
4DE
330
270
100
AcDbEntity
  8
0
  6
CONTINUOUS
 62
     7
100
AcDbVertex
100
AcDb2dVertex
 10
7.0808655401
 20
6.6877189646
 30
0.0
  0
SEQEND
  5
4DF
330
270
100
AcDbEntity
  8
0
  6
CONTINUOUS
 62
     7
  0
ARC
  5
271
330
1F
100
AcDbEntity
  8
0
  6
CONTINUOUS
 62
     7
100
AcDbCircle
 10
7.2417426135
 20
6.5707264429
 30
0.0
 40
0.0906117092835227
100
AcDbArc
 50
236.8573116235
 51
279.3692901223
  0
LINE
  5
272
330
1F
100
AcDbEntity
  8
0
  6
CONTINUOUS
 62
     7
100
AcDbLine
 10
7.2709546972
 20
6.4870492137
 30
0.0
 11
7.2715809549
 21
6.4874165413
 31
0.0
  0
ARC
  5
273
330
1F
100
AcDbEntity
  8
0
  6
CONTINUOUS
 62
     7
100
AcDbCircle
 10
7.0855239648
 20
6.5755535212
 30
0.0
 40
0.2062184811824135
100
AcDbArc
 50
37.7551988656
 51
58.842142337
  0
LINE
  5
274
330
1F
100
AcDbEntity
  8
0
  6
CONTINUOUS
 62
     7
100
AcDbLine
 10
7.129583527
 20
6.6886796335
 30
0.0
 11
7.1852612263
 21
6.6936580588
 31
0.0
  0
LINE
  5
275
330
1F
100
AcDbEntity
  8
0
  6
CONTINUOUS
 62
     7
100
AcDbLine
 10
7.129583527
 20
6.6144386796
 30
0.0
 11
7.129583527
 21
6.6886796335
 31
0.0
  0
LINE
  5
276
330
1F
100
AcDbEntity
  8
0
  6
CONTINUOUS
 62
     7
100
AcDbLine
 10
7.1852612263
 20
6.545176151
 30
0.0
 11
7.129583527
 21
6.6144386796
 31
0.0
  0
LINE
  5
277
330
1F
100
AcDbEntity
  8
0
  6
CONTINUOUS
 62
     7
100
AcDbLine
 10
7.2409389256
 20
6.5501545763
 30
0.0
 11
7.1852612263
 21
6.545176151
 31
0.0
  0
LINE
  5
278
330
1F
100
AcDbEntity
  8
0
  6
CONTINUOUS
 62
     7
100
AcDbLine
 10
7.2409389256
 20
6.6243955302
 30
0.0
 11
7.2409389256
 21
6.5501545763
 31
0.0
  0
LINE
  5
279
330
1F
100
AcDbEntity
  8
0
  6
CONTINUOUS
 62
     7
100
AcDbLine
 10
7.1852612263
 20
6.6936580588
 30
0.0
 11
7.2409389256
 21
6.6243955302
 31
0.0
  0
LINE
  5
27A
330
1F
100
AcDbEntity
  8
0
  6
CONTINUOUS
 62
     7
100
AcDbLine
 10
7.2409389256
 20
6.5773182026
 30
0.0
 11
7.1852612263
 21
6.545176151
 31
0.0
  0
LINE
  5
27B
330
1F
100
AcDbEntity
  8
0
  6
CONTINUOUS
 62
     7
100
AcDbLine
 10
7.2111097362
 20
6.6615027583
 30
0.0
 11
7.129583527
 21
6.6144386796
 31
0.0
  0
POLYLINE
  5
27C
330
1F
100
AcDbEntity
  8
0
  6
CONTINUOUS
 62
     7
100
AcDb2dPolyline
 66
     1
 10
0.0
 20
0.0
 30
0.0
  0
VERTEX
  5
4E0
330
27C
100
AcDbEntity
  8
0
  6
CONTINUOUS
 62
     7
100
AcDbVertex
100
AcDb2dVertex
 10
7.2423324182
 20
7.0220546651
 30
0.0
  0
VERTEX
  5
4E1
330
27C
100
AcDbEntity
  8
0
  6
CONTINUOUS
 62
     7
100
AcDbVertex
100
AcDb2dVertex
 10
7.2575626457
 20
7.0646845821
 30
0.0
  0
VERTEX
  5
4E2
330
27C
100
AcDbEntity
  8
0
  6
CONTINUOUS
 62
     7
100
AcDbVertex
100
AcDb2dVertex
 10
7.2741657722
 20
7.1072346666
 30
0.0
  0
VERTEX
  5
4E3
330
27C
100
AcDbEntity
  8
0
  6
CONTINUOUS
 62
     7
100
AcDbVertex
100
AcDb2dVertex
 10
7.2921044144
 20
7.1496091137
 30
0.0
  0
VERTEX
  5
4E4
330
27C
100
AcDbEntity
  8
0
  6
CONTINUOUS
 62
     7
100
AcDbVertex
100
AcDb2dVertex
 10
7.311338182
 20
7.1917125143
 30
0.0
  0
VERTEX
  5
4E5
330
27C
100
AcDbEntity
  8
0
  6
CONTINUOUS
 62
     7
100
AcDbVertex
100
AcDb2dVertex
 10
7.3318237689
 20
7.2334500694
 30
0.0
  0
VERTEX
  5
4E6
330
27C
100
AcDbEntity
  8
0
  6
CONTINUOUS
 62
     7
100
AcDbVertex
100
AcDb2dVertex
 10
7.3535150503
 20
7.2747278038
 30
0.0
  0
VERTEX
  5
4E7
330
27C
100
AcDbEntity
  8
0
  6
CONTINUOUS
 62
     7
100
AcDbVertex
100
AcDb2dVertex
 10
7.3763631864
 20
7.3154527774
 30
0.0
  0
VERTEX
  5
4E8
330
27C
100
AcDbEntity
  8
0
  6
CONTINUOUS
 62
     7
100
AcDbVertex
100
AcDb2dVertex
 10
7.4003167331
 20
7.355533295
 30
0.0
  0
VERTEX
  5
4E9
330
27C
100
AcDbEntity
  8
0
  6
CONTINUOUS
 62
     7
100
AcDbVertex
100
AcDb2dVertex
 10
7.4253217571
 20
7.3948791123
 30
0.0
  0
VERTEX
  5
4EA
330
27C
100
AcDbEntity
  8
0
  6
CONTINUOUS
 62
     7
100
AcDbVertex
100
AcDb2dVertex
 10
7.4513219578
 20
7.4334016392
 30
0.0
  0
VERTEX
  5
4EB
330
27C
100
AcDbEntity
  8
0
  6
CONTINUOUS
 62
     7
100
AcDbVertex
100
AcDb2dVertex
 10
7.4782587937
 20
7.4710141393
 30
0.0
  0
VERTEX
  5
4EC
330
27C
100
AcDbEntity
  8
0
  6
CONTINUOUS
 62
     7
100
AcDbVertex
100
AcDb2dVertex
 10
7.5060716145
 20
7.5076319253
 30
0.0
  0
VERTEX
  5
4ED
330
27C
100
AcDbEntity
  8
0
  6
CONTINUOUS
 62
     7
100
AcDbVertex
100
AcDb2dVertex
 10
7.5346977976
 20
7.5431725494
 30
0.0
  0
VERTEX
  5
4EE
330
27C
100
AcDbEntity
  8
0
  6
CONTINUOUS
 62
     7
100
AcDbVertex
100
AcDb2dVertex
 10
7.5640728889
 20
7.5775559893
 30
0.0
  0
VERTEX
  5
4EF
330
27C
100
AcDbEntity
  8
0
  6
CONTINUOUS
 62
     7
100
AcDbVertex
100
AcDb2dVertex
 10
7.5941307482
 20
7.610704828
 30
0.0
  0
VERTEX
  5
4F0
330
27C
100
AcDbEntity
  8
0
  6
CONTINUOUS
 62
     7
100
AcDbVertex
100
AcDb2dVertex
 10
7.624803698
 20
7.6425444286
 30
0.0
  0
VERTEX
  5
4F1
330
27C
100
AcDbEntity
  8
0
  6
CONTINUOUS
 62
     7
100
AcDbVertex
100
AcDb2dVertex
 10
7.6560226759
 20
7.6730031016
 30
0.0
  0
VERTEX
  5
4F2
330
27C
100
AcDbEntity
  8
0
  6
CONTINUOUS
 62
     7
100
AcDbVertex
100
AcDb2dVertex
 10
7.6877173899
 20
7.7020122671
 30
0.0
  0
VERTEX
  5
4F3
330
27C
100
AcDbEntity
  8
0
  6
CONTINUOUS
 62
     7
100
AcDbVertex
100
AcDb2dVertex
 10
7.7198164771
 20
7.7295066089
 30
0.0
  0
VERTEX
  5
4F4
330
27C
100
AcDbEntity
  8
0
  6
CONTINUOUS
 62
     7
100
AcDbVertex
100
AcDb2dVertex
 10
7.7522476639
 20
7.7554242212
 30
0.0
  0
VERTEX
  5
4F5
330
27C
100
AcDbEntity
  8
0
  6
CONTINUOUS
 62
     7
100
AcDbVertex
100
AcDb2dVertex
 10
7.784937929
 20
7.7797067487
 30
0.0
  0
VERTEX
  5
4F6
330
27C
100
AcDbEntity
  8
0
  6
CONTINUOUS
 62
     7
100
AcDbVertex
100
AcDb2dVertex
 10
7.8178136679
 20
7.8022995174
 30
0.0
  0
VERTEX
  5
4F7
330
27C
100
AcDbEntity
  8
0
  6
CONTINUOUS
 62
     7
100
AcDbVertex
100
AcDb2dVertex
 10
7.8508008584
 20
7.8231516581
 30
0.0
  0
VERTEX
  5
4F8
330
27C
100
AcDbEntity
  8
0
  6
CONTINUOUS
 62
     7
100
AcDbVertex
100
AcDb2dVertex
 10
7.8838252273
 20
7.8422162204
 30
0.0
  0
VERTEX
  5
4F9
330
27C
100
AcDbEntity
  8
0
  6
CONTINUOUS
 62
     7
100
AcDbVertex
100
AcDb2dVertex
 10
7.9168124177
 20
7.8594502792
 30
0.0
  0
VERTEX
  5
4FA
330
27C
100
AcDbEntity
  8
0
  6
CONTINUOUS
 62
     7
100
AcDbVertex
100
AcDb2dVertex
 10
7.9496881566
 20
7.8748150307
 30
0.0
  0
VERTEX
  5
4FB
330
27C
100
AcDbEntity
  8
0
  6
CONTINUOUS
 62
     7
100
AcDbVertex
100
AcDb2dVertex
 10
7.9823784218
 20
7.8882758799
 30
0.0
  0
VERTEX
  5
4FC
330
27C
100
AcDbEntity
  8
0
  6
CONTINUOUS
 62
     7
100
AcDbVertex
100
AcDb2dVertex
 10
8.0148096085
 20
7.8998025188
 30
0.0
  0
VERTEX
  5
4FD
330
27C
100
AcDbEntity
  8
0
  6
CONTINUOUS
 62
     7
100
AcDbVertex
100
AcDb2dVertex
 10
8.0469086957
 20
7.9093689942
 30
0.0
  0
VERTEX
  5
4FE
330
27C
100
AcDbEntity
  8
0
  6
CONTINUOUS
 62
     7
100
AcDbVertex
100
AcDb2dVertex
 10
8.0786034097
 20
7.9169537666
 30
0.0
  0
VERTEX
  5
4FF
330
27C
100
AcDbEntity
  8
0
  6
CONTINUOUS
 62
     7
100
AcDbVertex
100
AcDb2dVertex
 10
8.1098223876
 20
7.9225397582
 30
0.0
  0
VERTEX
  5
500
330
27C
100
AcDbEntity
  8
0
  6
CONTINUOUS
 62
     7
100
AcDbVertex
100
AcDb2dVertex
 10
8.1404953374
 20
7.9261143917
 30
0.0
  0
VERTEX
  5
501
330
27C
100
AcDbEntity
  8
0
  6
CONTINUOUS
 62
     7
100
AcDbVertex
100
AcDb2dVertex
 10
8.1705531968
 20
7.9276696187
 30
0.0
  0
VERTEX
  5
502
330
27C
100
AcDbEntity
  8
0
  6
CONTINUOUS
 62
     7
100
AcDbVertex
100
AcDb2dVertex
 10
8.1999282881
 20
7.9272019373
 30
0.0
  0
VERTEX
  5
503
330
27C
100
AcDbEntity
  8
0
  6
CONTINUOUS
 62
     7
100
AcDbVertex
100
AcDb2dVertex
 10
8.2285544711
 20
7.9247124006
 30
0.0
  0
VERTEX
  5
504
330
27C
100
AcDbEntity
  8
0
  6
CONTINUOUS
 62
     7
100
AcDbVertex
100
AcDb2dVertex
 10
8.256367292
 20
7.920206614
 30
0.0
  0
VERTEX
  5
505
330
27C
100
AcDbEntity
  8
0
  6
CONTINUOUS
 62
     7
100
AcDbVertex
100
AcDb2dVertex
 10
8.2833041278
 20
7.9136947226
 30
0.0
  0
VERTEX
  5
506
330
27C
100
AcDbEntity
  8
0
  6
CONTINUOUS
 62
     7
100
AcDbVertex
100
AcDb2dVertex
 10
8.3093043285
 20
7.9051913885
 30
0.0
  0
VERTEX
  5
507
330
27C
100
AcDbEntity
  8
0
  6
CONTINUOUS
 62
     7
100
AcDbVertex
100
AcDb2dVertex
 10
8.3343093525
 20
7.8947157574
 30
0.0
  0
VERTEX
  5
508
330
27C
100
AcDbEntity
  8
0
  6
CONTINUOUS
 62
     7
100
AcDbVertex
100
AcDb2dVertex
 10
8.3582628992
 20
7.8822914161
 30
0.0
  0
VERTEX
  5
509
330
27C
100
AcDbEntity
  8
0
  6
CONTINUOUS
 62
     7
100
AcDbVertex
100
AcDb2dVertex
 10
8.3731216163
 20
7.8732620712
 30
0.0
  0
SEQEND
  5
50A
330
27C
100
AcDbEntity
  8
0
  6
CONTINUOUS
 62
     7
  0
LINE
  5
27D
330
1F
100
AcDbEntity
  8
0
  6
CONTINUOUS
 62
     7
100
AcDbLine
 10
7.2423324182
 20
7.0220546651
 30
0.0
 11
7.4789626402
 21
6.8854509456
 31
0.0
  0
POLYLINE
  5
27E
330
1F
100
AcDbEntity
  8
0
  6
CONTINUOUS
 62
     7
100
AcDb2dPolyline
 66
     1
 10
0.0
 20
0.0
 30
0.0
  0
VERTEX
  5
50B
330
27E
100
AcDbEntity
  8
0
  6
CONTINUOUS
 62
     7
100
AcDbVertex
100
AcDb2dVertex
 10
7.4789626402
 20
6.8854509456
 30
0.0
  0
VERTEX
  5
50C
330
27E
100
AcDbEntity
  8
0
  6
CONTINUOUS
 62
     7
100
AcDbVertex
100
AcDb2dVertex
 10
7.4650008662
 20
6.8423863449
 30
0.0
  0
VERTEX
  5
50D
330
27E
100
AcDbEntity
  8
0
  6
CONTINUOUS
 62
     7
100
AcDbVertex
100
AcDb2dVertex
 10
7.4525083437
 20
6.7994372671
 30
0.0
  0
VERTEX
  5
50E
330
27E
100
AcDbEntity
  8
0
  6
CONTINUOUS
 62
     7
100
AcDbVertex
100
AcDb2dVertex
 10
7.4415137994
 20
6.756702474
 30
0.0
  0
VERTEX
  5
50F
330
27E
100
AcDbEntity
  8
0
  6
CONTINUOUS
 62
     7
100
AcDbVertex
100
AcDb2dVertex
 10
7.4320425153
 20
6.7142802344
 30
0.0
  0
VERTEX
  5
510
330
27E
100
AcDbEntity
  8
0
  6
CONTINUOUS
 62
     7
100
AcDbVertex
100
AcDb2dVertex
 10
7.4241162707
 20
6.6722680986
 30
0.0
  0
VERTEX
  5
511
330
27E
100
AcDbEntity
  8
0
  6
CONTINUOUS
 62
     7
100
AcDbVertex
100
AcDb2dVertex
 10
7.4177532919
 20
6.6307626736
 30
0.0
  0
VERTEX
  5
512
330
27E
100
AcDbEntity
  8
0
  6
CONTINUOUS
 62
     7
100
AcDbVertex
100
AcDb2dVertex
 10
7.4129682108
 20
6.5898594014
 30
0.0
  0
VERTEX
  5
513
330
27E
100
AcDbEntity
  8
0
  6
CONTINUOUS
 62
     7
100
AcDbVertex
100
AcDb2dVertex
 10
7.4097720306
 20
6.5496523393
 30
0.0
  0
VERTEX
  5
514
330
27E
100
AcDbEntity
  8
0
  6
CONTINUOUS
 62
     7
100
AcDbVertex
100
AcDb2dVertex
 10
7.408172101
 20
6.5102339437
 30
0.0
  0
VERTEX
  5
515
330
27E
100
AcDbEntity
  8
0
  6
CONTINUOUS
 62
     7
100
AcDbVertex
100
AcDb2dVertex
 10
7.408172101
 20
6.4716948574
 30
0.0
  0
VERTEX
  5
516
330
27E
100
AcDbEntity
  8
0
  6
CONTINUOUS
 62
     7
100
AcDbVertex
100
AcDb2dVertex
 10
7.4097720306
 20
6.4341237012
 30
0.0
  0
VERTEX
  5
517
330
27E
100
AcDbEntity
  8
0
  6
CONTINUOUS
 62
     7
100
AcDbVertex
100
AcDb2dVertex
 10
7.4129682108
 20
6.3976068703
 30
0.0
  0
VERTEX
  5
518
330
27E
100
AcDbEntity
  8
0
  6
CONTINUOUS
 62
     7
100
AcDbVertex
100
AcDb2dVertex
 10
7.4177532919
 20
6.3622283351
 30
0.0
  0
VERTEX
  5
519
330
27E
100
AcDbEntity
  8
0
  6
CONTINUOUS
 62
     7
100
AcDbVertex
100
AcDb2dVertex
 10
7.4241162707
 20
6.328069449
 30
0.0
  0
VERTEX
  5
51A
330
27E
100
AcDbEntity
  8
0
  6
CONTINUOUS
 62
     7
100
AcDbVertex
100
AcDb2dVertex
 10
7.4320425153
 20
6.2952087604
 30
0.0
  0
VERTEX
  5
51B
330
27E
100
AcDbEntity
  8
0
  6
CONTINUOUS
 62
     7
100
AcDbVertex
100
AcDb2dVertex
 10
7.4415137994
 20
6.2637218327
 30
0.0
  0
VERTEX
  5
51C
330
27E
100
AcDbEntity
  8
0
  6
CONTINUOUS
 62
     7
100
AcDbVertex
100
AcDb2dVertex
 10
7.4525083437
 20
6.2336810703
 30
0.0
  0
VERTEX
  5
51D
330
27E
100
AcDbEntity
  8
0
  6
CONTINUOUS
 62
     7
100
AcDbVertex
100
AcDb2dVertex
 10
7.4650008662
 20
6.2051555519
 30
0.0
  0
VERTEX
  5
51E
330
27E
100
AcDbEntity
  8
0
  6
CONTINUOUS
 62
     7
100
AcDbVertex
100
AcDb2dVertex
 10
7.4789626402
 20
6.1782108723
 30
0.0
  0
SEQEND
  5
51F
330
27E
100
AcDbEntity
  8
0
  6
CONTINUOUS
 62
     7
  0
LINE
  5
27F
330
1F
100
AcDbEntity
  8
0
  6
CONTINUOUS
 62
     7
100
AcDbLine
 10
7.4789626402
 20
6.1782108723
 30
0.0
 11
7.2423324182
 21
6.3148145918
 31
0.0
  0
ARC
  5
280
330
1F
100
AcDbEntity
  8
0
  6
CONTINUOUS
 62
     7
100
AcDbCircle
 10
7.5550017686
 20
6.4832993694
 30
0.0
 40
0.3551749469527158
100
AcDbArc
 50
208.3184189649
 51
242.1982493909
  0
SPLINE
  5
281
330
1F
100
AcDbEntity
  8
0
  6
CONTINUOUS
 62
     7
100
AcDbSpline
210
0.0
220
0.0
230
1.0
 70
     8
 71
     3
 72
    15
 73
    11
 74
     0
 42
0.00000001
 43
0.00000001
 40
0.0
 40
0.0
 40
0.0
 40
0.0
 40
0.1403057595108676
 40
0.2847118596855443
 40
0.4250087793083999
 40
0.5693146821310129
 40
0.7107108310901711
 40
0.8561595704068459
 40
0.9982972127703147
 40
1.0
 40
1.0
 40
1.0
 40
1.0
 10
7.296616624930401
 20
6.555133001607576
 30
0.0
 10
7.296370650336782
 20
6.548253724127933
 30
0.0
 10
7.295871512708871
 20
6.534294126949955
 30
0.0
 10
7.291837511909464
 20
6.516660690519648
 30
0.0
 10
7.285399768710445
 20
6.501853598841473
 30
0.0
 10
7.276497012292062
 20
6.490687521070234
 30
0.0
 10
7.265204332700853
 20
6.483009720966154
 30
0.0
 10
7.251615729092453
 20
6.479736681979397
 30
0.0
 10
7.241616629359747
 20
6.478988832970846
 30
0.0
 10
7.235945481479578
 20
6.480384353336986
 30
0.0
 10
7.235878346264428
 20
6.480400873548063
 30
0.0
  0
POLYLINE
  5
282
330
1F
100
AcDbEntity
  8
0
  6
CONTINUOUS
 62
     7
100
AcDb2dPolyline
 66
     1
 10
0.0
 20
0.0
 30
0.0
  0
VERTEX
  5
520
330
282
100
AcDbEntity
  8
0
  6
CONTINUOUS
 62
     7
100
AcDbVertex
100
AcDb2dVertex
 10
7.1184675474
 20
6.56640581
 30
0.0
  0
VERTEX
  5
521
330
282
100
AcDbEntity
  8
0
  6
CONTINUOUS
 62
     7
100
AcDbVertex
100
AcDb2dVertex
 10
7.1117455642
 20
6.5754014125
 30
0.0
  0
VERTEX
  5
522
330
282
100
AcDbEntity
  8
0
  6
CONTINUOUS
 62
     7
100
AcDbVertex
100
AcDb2dVertex
 10
7.0982046562
 20
6.5977197252
 30
0.0
  0
VERTEX
  5
523
330
282
100
AcDbEntity
  8
0
  6
CONTINUOUS
 62
     7
100
AcDbVertex
100
AcDb2dVertex
 10
7.0870298881
 20
6.6214652606
 30
0.0
  0
VERTEX
  5
524
330
282
100
AcDbEntity
  8
0
  6
CONTINUOUS
 62
     7
100
AcDbVertex
100
AcDb2dVertex
 10
7.0792686917
 20
6.6447267782
 30
0.0
  0
VERTEX
  5
525
330
282
100
AcDbEntity
  8
0
  6
CONTINUOUS
 62
     7
100
AcDbVertex
100
AcDb2dVertex
 10
7.0747996801
 20
6.6682223124
 30
0.0
  0
VERTEX
  5
526
330
282
100
AcDbEntity
  8
0
  6
CONTINUOUS
 62
     7
100
AcDbVertex
100
AcDb2dVertex
 10
7.0740510304
 20
6.6897360932
 30
0.0
  0
VERTEX
  5
527
330
282
100
AcDbEntity
  8
0
  6
CONTINUOUS
 62
     7
100
AcDbVertex
100
AcDb2dVertex
 10
7.0769416104
 20
6.7101632964
 30
0.0
  0
VERTEX
  5
528
330
282
100
AcDbEntity
  8
0
  6
CONTINUOUS
 62
     7
100
AcDbVertex
100
AcDb2dVertex
 10
7.0831496165
 20
6.7276730811
 30
0.0
  0
VERTEX
  5
529
330
282
100
AcDbEntity
  8
0
  6
CONTINUOUS
 62
     7
100
AcDbVertex
100
AcDb2dVertex
 10
7.0927800316
 20
6.7428572122
 30
0.0
  0
VERTEX
  5
52A
330
282
100
AcDbEntity
  8
0
  6
CONTINUOUS
 62
     7
100
AcDbVertex
100
AcDb2dVertex
 10
7.1050504955
 20
6.754503858
 30
0.0
  0
VERTEX
  5
52B
330
282
100
AcDbEntity
  8
0
  6
CONTINUOUS
 62
     7
100
AcDbVertex
100
AcDb2dVertex
 10
7.1201222102
 20
6.7627463353
 30
0.0
  0
VERTEX
  5
52C
330
282
100
AcDbEntity
  8
0
  6
CONTINUOUS
 62
     7
100
AcDbVertex
100
AcDb2dVertex
 10
7.1367972863
 20
6.7668574989
 30
0.0
  0
VERTEX
  5
52D
330
282
100
AcDbEntity
  8
0
  6
CONTINUOUS
 62
     7
100
AcDbVertex
100
AcDb2dVertex
 10
7.1553107776
 20
6.7667780499
 30
0.0
  0
VERTEX
  5
52E
330
282
100
AcDbEntity
  8
0
  6
CONTINUOUS
 62
     7
100
AcDbVertex
100
AcDb2dVertex
 10
7.1739254177
 20
6.7624727108
 30
0.0
  0
VERTEX
  5
52F
330
282
100
AcDbEntity
  8
0
  6
CONTINUOUS
 62
     7
100
AcDbVertex
100
AcDb2dVertex
 10
7.1931957294
 20
6.7537714541
 30
0.0
  0
VERTEX
  5
530
330
282
100
AcDbEntity
  8
0
  6
CONTINUOUS
 62
     7
100
AcDbVertex
100
AcDb2dVertex
 10
7.2112409707
 20
6.7415626075
 30
0.0
  0
VERTEX
  5
531
330
282
100
AcDbEntity
  8
0
  6
CONTINUOUS
 62
     7
100
AcDbVertex
100
AcDb2dVertex
 10
7.2288296541
 20
6.7254301721
 30
0.0
  0
VERTEX
  5
532
330
282
100
AcDbEntity
  8
0
  6
CONTINUOUS
 62
     7
100
AcDbVertex
100
AcDb2dVertex
 10
7.2445368996
 20
6.7067810575
 30
0.0
  0
VERTEX
  5
533
330
282
100
AcDbEntity
  8
0
  6
CONTINUOUS
 62
     7
100
AcDbVertex
100
AcDb2dVertex
 10
7.2589289924
 20
6.6851292969
 30
0.0
  0
VERTEX
  5
534
330
282
100
AcDbEntity
  8
0
  6
CONTINUOUS
 62
     7
100
AcDbVertex
100
AcDb2dVertex
 10
7.2710657615
 20
6.6620533862
 30
0.0
  0
VERTEX
  5
535
330
282
100
AcDbEntity
  8
0
  6
CONTINUOUS
 62
     7
100
AcDbVertex
100
AcDb2dVertex
 10
7.2812555416
 20
6.6371898746
 30
0.0
  0
VERTEX
  5
536
330
282
100
AcDbEntity
  8
0
  6
CONTINUOUS
 62
     7
100
AcDbVertex
100
AcDb2dVertex
 10
7.2888075101
 20
6.6125237925
 30
0.0
  0
VERTEX
  5
537
330
282
100
AcDbEntity
  8
0
  6
CONTINUOUS
 62
     7
100
AcDbVertex
100
AcDb2dVertex
 10
7.2939743619
 20
6.5875384083
 30
0.0
  0
VERTEX
  5
538
330
282
100
AcDbEntity
  8
0
  6
CONTINUOUS
 62
     7
100
AcDbVertex
100
AcDb2dVertex
 10
7.2959451407
 20
6.5710427647
 30
0.0
  0
VERTEX
  5
539
330
282
100
AcDbEntity
  8
0
  6
CONTINUOUS
 62
     7
100
AcDbVertex
100
AcDb2dVertex
 10
7.2966166249
 20
6.5551330016
 30
0.0
  0
VERTEX
  5
53A
330
282
100
AcDbEntity
  8
0
  6
CONTINUOUS
 62
     7
100
AcDbVertex
100
AcDb2dVertex
 10
7.2966166249
 20
6.5551330016
 30
0.0
  0
SEQEND
  5
53B
330
282
100
AcDbEntity
  8
0
  6
CONTINUOUS
 62
     7
  0
POLYLINE
  5
283
330
1F
100
AcDbEntity
  8
0
  6
CONTINUOUS
 62
     7
100
AcDb2dPolyline
 66
     1
 10
0.0
 20
0.0
 30
0.0
  0
VERTEX
  5
53C
330
283
100
AcDbEntity
  8
0
  6
CONTINUOUS
 62
     7
100
AcDbVertex
100
AcDb2dVertex
 10
6.9625504291
 20
6.7479853115
 30
0.0
  0
VERTEX
  5
53D
330
283
100
AcDbEntity
  8
0
  6
CONTINUOUS
 62
     7
100
AcDbVertex
100
AcDb2dVertex
 10
6.963315377
 20
6.7107565175
 30
0.0
  0
VERTEX
  5
53E
330
283
100
AcDbEntity
  8
0
  6
CONTINUOUS
 62
     7
100
AcDbVertex
100
AcDb2dVertex
 10
6.9656085392
 20
6.6744927505
 30
0.0
  0
VERTEX
  5
53F
330
283
100
AcDbEntity
  8
0
  6
CONTINUOUS
 62
     7
100
AcDbVertex
100
AcDb2dVertex
 10
6.9694248749
 20
6.6392737262
 30
0.0
  0
VERTEX
  5
540
330
283
100
AcDbEntity
  8
0
  6
CONTINUOUS
 62
     7
100
AcDbVertex
100
AcDb2dVertex
 10
6.9747559949
 20
6.6051768637
 30
0.0
  0
VERTEX
  5
541
330
283
100
AcDbEntity
  8
0
  6
CONTINUOUS
 62
     7
100
AcDbVertex
100
AcDb2dVertex
 10
6.9815901802
 20
6.5722771151
 30
0.0
  0
VERTEX
  5
542
330
283
100
AcDbEntity
  8
0
  6
CONTINUOUS
 62
     7
100
AcDbVertex
100
AcDb2dVertex
 10
6.9899124079
 20
6.5406468014
 30
0.0
  0
VERTEX
  5
543
330
283
100
AcDbEntity
  8
0
  6
CONTINUOUS
 62
     7
100
AcDbVertex
100
AcDb2dVertex
 10
6.9997043838
 20
6.5103554528
 30
0.0
  0
VERTEX
  5
544
330
283
100
AcDbEntity
  8
0
  6
CONTINUOUS
 62
     7
100
AcDbVertex
100
AcDb2dVertex
 10
7.0109445831
 20
6.4814696562
 30
0.0
  0
VERTEX
  5
545
330
283
100
AcDbEntity
  8
0
  6
CONTINUOUS
 62
     7
100
AcDbVertex
100
AcDb2dVertex
 10
7.0236082974
 20
6.454052909
 30
0.0
  0
VERTEX
  5
546
330
283
100
AcDbEntity
  8
0
  6
CONTINUOUS
 62
     7
100
AcDbVertex
100
AcDb2dVertex
 10
7.0376676891
 20
6.428165479
 30
0.0
  0
VERTEX
  5
547
330
283
100
AcDbEntity
  8
0
  6
CONTINUOUS
 62
     7
100
AcDbVertex
100
AcDb2dVertex
 10
7.0530918526
 20
6.4038642725
 30
0.0
  0
VERTEX
  5
548
330
283
100
AcDbEntity
  8
0
  6
CONTINUOUS
 62
     7
100
AcDbVertex
100
AcDb2dVertex
 10
7.0698468822
 20
6.3812027088
 30
0.0
  0
VERTEX
  5
549
330
283
100
AcDbEntity
  8
0
  6
CONTINUOUS
 62
     7
100
AcDbVertex
100
AcDb2dVertex
 10
7.0878959467
 20
6.360230603
 30
0.0
  0
VERTEX
  5
54A
330
283
100
AcDbEntity
  8
0
  6
CONTINUOUS
 62
     7
100
AcDbVertex
100
AcDb2dVertex
 10
7.1071993705
 20
6.3409940562
 30
0.0
  0
VERTEX
  5
54B
330
283
100
AcDbEntity
  8
0
  6
CONTINUOUS
 62
     7
100
AcDbVertex
100
AcDb2dVertex
 10
7.1277147203
 20
6.3235353546
 30
0.0
  0
VERTEX
  5
54C
330
283
100
AcDbEntity
  8
0
  6
CONTINUOUS
 62
     7
100
AcDbVertex
100
AcDb2dVertex
 10
7.1493968989
 20
6.3078928761
 30
0.0
  0
VERTEX
  5
54D
330
283
100
AcDbEntity
  8
0
  6
CONTINUOUS
 62
     7
100
AcDbVertex
100
AcDb2dVertex
 10
7.1664356799
 20
6.2973506595
 30
0.0
  0
SEQEND
  5
54E
330
283
100
AcDbEntity
  8
0
  6
CONTINUOUS
 62
     7
  0
POLYLINE
  5
284
330
1F
100
AcDbEntity
  8
0
  6
CONTINUOUS
 62
     7
100
AcDb2dPolyline
 66
     1
 10
0.0
 20
0.0
 30
0.0
  0
VERTEX
  5
54F
330
284
100
AcDbEntity
  8
0
  6
CONTINUOUS
 62
     7
100
AcDbVertex
100
AcDb2dVertex
 10
8.1506076609
 20
8.0021712547
 30
0.0
  0
VERTEX
  5
550
330
284
100
AcDbEntity
  8
0
  6
CONTINUOUS
 62
     7
100
AcDbVertex
100
AcDb2dVertex
 10
8.1448450965
 20
8.0054209077
 30
0.0
  0
VERTEX
  5
551
330
284
100
AcDbEntity
  8
0
  6
CONTINUOUS
 62
     7
100
AcDbVertex
100
AcDb2dVertex
 10
8.1209747066
 20
8.0173318511
 30
0.0
  0
VERTEX
  5
552
330
284
100
AcDbEntity
  8
0
  6
CONTINUOUS
 62
     7
100
AcDbVertex
100
AcDb2dVertex
 10
8.0960877446
 20
8.0273356854
 30
0.0
  0
VERTEX
  5
553
330
284
100
AcDbEntity
  8
0
  6
CONTINUOUS
 62
     7
100
AcDbVertex
100
AcDb2dVertex
 10
8.0702389174
 20
8.03541042
 30
0.0
  0
VERTEX
  5
554
330
284
100
AcDbEntity
  8
0
  6
CONTINUOUS
 62
     7
100
AcDbVertex
100
AcDb2dVertex
 10
8.0434850464
 20
8.0415383048
 30
0.0
  0
VERTEX
  5
555
330
284
100
AcDbEntity
  8
0
  6
CONTINUOUS
 62
     7
100
AcDbVertex
100
AcDb2dVertex
 10
8.0158849423
 20
8.0457058695
 30
0.0
  0
VERTEX
  5
556
330
284
100
AcDbEntity
  8
0
  6
CONTINUOUS
 62
     7
100
AcDbVertex
100
AcDb2dVertex
 10
7.9874992761
 20
8.0479039529
 30
0.0
  0
VERTEX
  5
557
330
284
100
AcDbEntity
  8
0
  6
CONTINUOUS
 62
     7
100
AcDbVertex
100
AcDb2dVertex
 10
7.9583904458
 20
8.048127723
 30
0.0
  0
VERTEX
  5
558
330
284
100
AcDbEntity
  8
0
  6
CONTINUOUS
 62
     7
100
AcDbVertex
100
AcDb2dVertex
 10
7.9286224389
 20
8.046376688
 30
0.0
  0
VERTEX
  5
559
330
284
100
AcDbEntity
  8
0
  6
CONTINUOUS
 62
     7
100
AcDbVertex
100
AcDb2dVertex
 10
7.8982606918
 20
8.042654697
 30
0.0
  0
VERTEX
  5
55A
330
284
100
AcDbEntity
  8
0
  6
CONTINUOUS
 62
     7
100
AcDbVertex
100
AcDb2dVertex
 10
7.8673719463
 20
8.0369699318
 30
0.0
  0
VERTEX
  5
55B
330
284
100
AcDbEntity
  8
0
  6
CONTINUOUS
 62
     7
100
AcDbVertex
100
AcDb2dVertex
 10
7.8360241026
 20
8.0293348887
 30
0.0
  0
VERTEX
  5
55C
330
284
100
AcDbEntity
  8
0
  6
CONTINUOUS
 62
     7
100
AcDbVertex
100
AcDb2dVertex
 10
7.8042860701
 20
8.0197663513
 30
0.0
  0
VERTEX
  5
55D
330
284
100
AcDbEntity
  8
0
  6
CONTINUOUS
 62
     7
100
AcDbVertex
100
AcDb2dVertex
 10
7.7722276157
 20
8.0082853531
 30
0.0
  0
VERTEX
  5
55E
330
284
100
AcDbEntity
  8
0
  6
CONTINUOUS
 62
     7
100
AcDbVertex
100
AcDb2dVertex
 10
7.739919211
 20
7.994917132
 30
0.0
  0
VERTEX
  5
55F
330
284
100
AcDbEntity
  8
0
  6
CONTINUOUS
 62
     7
100
AcDbVertex
100
AcDb2dVertex
 10
7.7074318769
 20
7.9796910742
 30
0.0
  0
VERTEX
  5
560
330
284
100
AcDbEntity
  8
0
  6
CONTINUOUS
 62
     7
100
AcDbVertex
100
AcDb2dVertex
 10
7.6748370275
 20
7.9626406499
 30
0.0
  0
VERTEX
  5
561
330
284
100
AcDbEntity
  8
0
  6
CONTINUOUS
 62
     7
100
AcDbVertex
100
AcDb2dVertex
 10
7.6422063134
 20
7.9438033396
 30
0.0
  0
VERTEX
  5
562
330
284
100
AcDbEntity
  8
0
  6
CONTINUOUS
 62
     7
100
AcDbVertex
100
AcDb2dVertex
 10
7.609611464
 20
7.9232205519
 30
0.0
  0
VERTEX
  5
563
330
284
100
AcDbEntity
  8
0
  6
CONTINUOUS
 62
     7
100
AcDbVertex
100
AcDb2dVertex
 10
7.5771241298
 20
7.900937532
 30
0.0
  0
VERTEX
  5
564
330
284
100
AcDbEntity
  8
0
  6
CONTINUOUS
 62
     7
100
AcDbVertex
100
AcDb2dVertex
 10
7.5448157251
 20
7.8770032631
 30
0.0
  0
VERTEX
  5
565
330
284
100
AcDbEntity
  8
0
  6
CONTINUOUS
 62
     7
100
AcDbVertex
100
AcDb2dVertex
 10
7.5127572708
 20
7.8514703577
 30
0.0
  0
VERTEX
  5
566
330
284
100
AcDbEntity
  8
0
  6
CONTINUOUS
 62
     7
100
AcDbVertex
100
AcDb2dVertex
 10
7.4810192382
 20
7.8243949427
 30
0.0
  0
VERTEX
  5
567
330
284
100
AcDbEntity
  8
0
  6
CONTINUOUS
 62
     7
100
AcDbVertex
100
AcDb2dVertex
 10
7.4496713945
 20
7.7958365359
 30
0.0
  0
VERTEX
  5
568
330
284
100
AcDbEntity
  8
0
  6
CONTINUOUS
 62
     7
100
AcDbVertex
100
AcDb2dVertex
 10
7.418782649
 20
7.7658579147
 30
0.0
  0
VERTEX
  5
569
330
284
100
AcDbEntity
  8
0
  6
CONTINUOUS
 62
     7
100
AcDbVertex
100
AcDb2dVertex
 10
7.388420902
 20
7.7345249787
 30
0.0
  0
VERTEX
  5
56A
330
284
100
AcDbEntity
  8
0
  6
CONTINUOUS
 62
     7
100
AcDbVertex
100
AcDb2dVertex
 10
7.358652895
 20
7.7019066044
 30
0.0
  0
VERTEX
  5
56B
330
284
100
AcDbEntity
  8
0
  6
CONTINUOUS
 62
     7
100
AcDbVertex
100
AcDb2dVertex
 10
7.3295440647
 20
7.6680744942
 30
0.0
  0
VERTEX
  5
56C
330
284
100
AcDbEntity
  8
0
  6
CONTINUOUS
 62
     7
100
AcDbVertex
100
AcDb2dVertex
 10
7.3011583986
 20
7.6331030184
 30
0.0
  0
VERTEX
  5
56D
330
284
100
AcDbEntity
  8
0
  6
CONTINUOUS
 62
     7
100
AcDbVertex
100
AcDb2dVertex
 10
7.2735582945
 20
7.5970690518
 30
0.0
  0
VERTEX
  5
56E
330
284
100
AcDbEntity
  8
0
  6
CONTINUOUS
 62
     7
100
AcDbVertex
100
AcDb2dVertex
 10
7.2468044234
 20
7.5600518049
 30
0.0
  0
VERTEX
  5
56F
330
284
100
AcDbEntity
  8
0
  6
CONTINUOUS
 62
     7
100
AcDbVertex
100
AcDb2dVertex
 10
7.2209555962
 20
7.5221326497
 30
0.0
  0
VERTEX
  5
570
330
284
100
AcDbEntity
  8
0
  6
CONTINUOUS
 62
     7
100
AcDbVertex
100
AcDb2dVertex
 10
7.1960686342
 20
7.4833949407
 30
0.0
  0
VERTEX
  5
571
330
284
100
AcDbEntity
  8
0
  6
CONTINUOUS
 62
     7
100
AcDbVertex
100
AcDb2dVertex
 10
7.1721982444
 20
7.4439238318
 30
0.0
  0
VERTEX
  5
572
330
284
100
AcDbEntity
  8
0
  6
CONTINUOUS
 62
     7
100
AcDbVertex
100
AcDb2dVertex
 10
7.1493968989
 20
7.403806089
 30
0.0
  0
VERTEX
  5
573
330
284
100
AcDbEntity
  8
0
  6
CONTINUOUS
 62
     7
100
AcDbVertex
100
AcDb2dVertex
 10
7.1277147203
 20
7.3631299
 30
0.0
  0
VERTEX
  5
574
330
284
100
AcDbEntity
  8
0
  6
CONTINUOUS
 62
     7
100
AcDbVertex
100
AcDb2dVertex
 10
7.1071993705
 20
7.3219846796
 30
0.0
  0
VERTEX
  5
575
330
284
100
AcDbEntity
  8
0
  6
CONTINUOUS
 62
     7
100
AcDbVertex
100
AcDb2dVertex
 10
7.0878959467
 20
7.2804608742
 30
0.0
  0
VERTEX
  5
576
330
284
100
AcDbEntity
  8
0
  6
CONTINUOUS
 62
     7
100
AcDbVertex
100
AcDb2dVertex
 10
7.0698468822
 20
7.238649762
 30
0.0
  0
VERTEX
  5
577
330
284
100
AcDbEntity
  8
0
  6
CONTINUOUS
 62
     7
100
AcDbVertex
100
AcDb2dVertex
 10
7.0530918526
 20
7.1966432529
 30
0.0
  0
VERTEX
  5
578
330
284
100
AcDbEntity
  8
0
  6
CONTINUOUS
 62
     7
100
AcDbVertex
100
AcDb2dVertex
 10
7.0376676891
 20
7.1545336863
 30
0.0
  0
VERTEX
  5
579
330
284
100
AcDbEntity
  8
0
  6
CONTINUOUS
 62
     7
100
AcDbVertex
100
AcDb2dVertex
 10
7.0236082974
 20
7.1124136282
 30
0.0
  0
VERTEX
  5
57A
330
284
100
AcDbEntity
  8
0
  6
CONTINUOUS
 62
     7
100
AcDbVertex
100
AcDb2dVertex
 10
7.0109445831
 20
7.0703756677
 30
0.0
  0
VERTEX
  5
57B
330
284
100
AcDbEntity
  8
0
  6
CONTINUOUS
 62
     7
100
AcDbVertex
100
AcDb2dVertex
 10
6.9997043838
 20
7.0285122132
 30
0.0
  0
VERTEX
  5
57C
330
284
100
AcDbEntity
  8
0
  6
CONTINUOUS
 62
     7
100
AcDbVertex
100
AcDb2dVertex
 10
6.9899124079
 20
6.9869152899
 30
0.0
  0
VERTEX
  5
57D
330
284
100
AcDbEntity
  8
0
  6
CONTINUOUS
 62
     7
100
AcDbVertex
100
AcDb2dVertex
 10
6.9815901802
 20
6.9456763366
 30
0.0
  0
VERTEX
  5
57E
330
284
100
AcDbEntity
  8
0
  6
CONTINUOUS
 62
     7
100
AcDbVertex
100
AcDb2dVertex
 10
6.9747559949
 20
6.9048860056
 30
0.0
  0
VERTEX
  5
57F
330
284
100
AcDbEntity
  8
0
  6
CONTINUOUS
 62
     7
100
AcDbVertex
100
AcDb2dVertex
 10
6.9694248749
 20
6.8646339629
 30
0.0
  0
VERTEX
  5
580
330
284
100
AcDbEntity
  8
0
  6
CONTINUOUS
 62
     7
100
AcDbVertex
100
AcDb2dVertex
 10
6.9656085392
 20
6.8250086913
 30
0.0
  0
VERTEX
  5
581
330
284
100
AcDbEntity
  8
0
  6
CONTINUOUS
 62
     7
100
AcDbVertex
100
AcDb2dVertex
 10
6.963315377
 20
6.7860972955
 30
0.0
  0
VERTEX
  5
582
330
284
100
AcDbEntity
  8
0
  6
CONTINUOUS
 62
     7
100
AcDbVertex
100
AcDb2dVertex
 10
6.9625504291
 20
6.7479853115
 30
0.0
  0
SEQEND
  5
583
330
284
100
AcDbEntity
  8
0
  6
CONTINUOUS
 62
     7
  0
ARC
  5
285
330
1F
100
AcDbEntity
  8
0
  6
CONTINUOUS
 62
     7
100
AcDbCircle
 10
8.692145895
 20
6.5506686823
 30
0.0
 40
1.496828747397716
100
AcDbArc
 50
122.8081908407
 51
161.6061234905
  0
SPLINE
  5
286
330
1F
100
AcDbEntity
  8
0
  6
CONTINUOUS
 62
     7
100
AcDbSpline
210
0.0
220
0.0
230
1.0
 70
     8
 71
     3
 72
     8
 73
     4
 74
     0
 42
0.00000001
 43
0.00000001
 40
0.0
 40
0.0
 40
0.0
 40
0.0
 40
0.0007493652071752
 40
0.0007493652071752
 40
0.0007493652071752
 40
0.0007493652071752
 10
7.271790515658935
 20
7.022989437015956
 30
0.0
 10
7.261971832135978
 20
7.02267076136122
 30
0.0
 10
7.252152436342085
 20
7.022359327320834
 30
0.0
 10
7.242332418156254
 20
7.022054665129522
 30
0.0
  0
LINE
  5
287
330
1F
100
AcDbEntity
  8
0
  6
CONTINUOUS
 62
     7
100
AcDbLine
 10
7.492882065
 20
6.8934864585
 30
0.0
 11
7.4789626402
 21
6.8854509456
 31
0.0
  0
LINE
  5
288
330
1F
100
AcDbEntity
  8
0
  6
CONTINUOUS
 62
     7
100
AcDbLine
 10
7.4862530592
 20
6.1824195416
 30
0.0
 11
7.4789626402
 21
6.1782108723
 31
0.0
  0
ARC
  5
289
330
1F
100
AcDbEntity
  8
0
  6
CONTINUOUS
 62
     7
100
AcDbCircle
 10
8.4418690894
 20
6.6975441178
 30
0.0
 40
1.480813146271488
100
AcDbArc
 50
122.5797404971
 51
177.4256360356
  0
LINE
  5
28A
330
1F
100
AcDbEntity
  8
0
  6
CONTINUOUS
 62
     7
100
AcDbLine
 10
8.5477624221
 20
7.7187566269
 30
0.0
 11
8.7704732193
 21
7.5901884203
 31
0.0
  0
POLYLINE
  5
28B
330
1F
100
AcDbEntity
  8
0
  6
CONTINUOUS
 62
     7
100
AcDb2dPolyline
 66
     1
 10
0.0
 20
0.0
 30
0.0
  0
VERTEX
  5
584
330
28B
100
AcDbEntity
  8
0
  6
CONTINUOUS
 62
     7
100
AcDbVertex
100
AcDb2dVertex
 10
7.9137065326
 20
7.3545159656
 30
0.0
  0
VERTEX
  5
585
330
28B
100
AcDbEntity
  8
0
  6
CONTINUOUS
 62
     7
100
AcDbVertex
100
AcDb2dVertex
 10
7.9433880414
 20
7.3880750103
 30
0.0
  0
VERTEX
  5
586
330
28B
100
AcDbEntity
  8
0
  6
CONTINUOUS
 62
     7
100
AcDbVertex
100
AcDb2dVertex
 10
7.9737087977
 20
7.4203642598
 30
0.0
  0
VERTEX
  5
587
330
28B
100
AcDbEntity
  8
0
  6
CONTINUOUS
 62
     7
100
AcDbVertex
100
AcDb2dVertex
 10
8.0046009904
 20
7.4513115004
 30
0.0
  0
VERTEX
  5
588
330
28B
100
AcDbEntity
  8
0
  6
CONTINUOUS
 62
     7
100
AcDbVertex
100
AcDb2dVertex
 10
8.0359955304
 20
7.4808475198
 30
0.0
  0
VERTEX
  5
589
330
28B
100
AcDbEntity
  8
0
  6
CONTINUOUS
 62
     7
100
AcDbVertex
100
AcDb2dVertex
 10
8.067822205
 20
7.5089062619
 30
0.0
  0
VERTEX
  5
58A
330
28B
100
AcDbEntity
  8
0
  6
CONTINUOUS
 62
     7
100
AcDbVertex
100
AcDb2dVertex
 10
8.100009835
 20
7.5354249744
 30
0.0
  0
VERTEX
  5
58B
330
28B
100
AcDbEntity
  8
0
  6
CONTINUOUS
 62
     7
100
AcDbVertex
100
AcDb2dVertex
 10
8.1324864342
 20
7.5603443493
 30
0.0
  0
VERTEX
  5
58C
330
28B
100
AcDbEntity
  8
0
  6
CONTINUOUS
 62
     7
100
AcDbVertex
100
AcDb2dVertex
 10
8.1651793698
 20
7.5836086554
 30
0.0
  0
VERTEX
  5
58D
330
28B
100
AcDbEntity
  8
0
  6
CONTINUOUS
 62
     7
100
AcDbVertex
100
AcDb2dVertex
 10
8.1980155256
 20
7.605165863
 30
0.0
  0
VERTEX
  5
58E
330
28B
100
AcDbEntity
  8
0
  6
CONTINUOUS
 62
     7
100
AcDbVertex
100
AcDb2dVertex
 10
8.2309214646
 20
7.6249677603
 30
0.0
  0
VERTEX
  5
58F
330
28B
100
AcDbEntity
  8
0
  6
CONTINUOUS
 62
     7
100
AcDbVertex
100
AcDb2dVertex
 10
8.2638235941
 20
7.642970061
 30
0.0
  0
VERTEX
  5
590
330
28B
100
AcDbEntity
  8
0
  6
CONTINUOUS
 62
     7
100
AcDbVertex
100
AcDb2dVertex
 10
8.2966483298
 20
7.6591325038
 30
0.0
  0
VERTEX
  5
591
330
28B
100
AcDbEntity
  8
0
  6
CONTINUOUS
 62
     7
100
AcDbVertex
100
AcDb2dVertex
 10
8.3293222604
 20
7.6734189421
 30
0.0
  0
VERTEX
  5
592
330
28B
100
AcDbEntity
  8
0
  6
CONTINUOUS
 62
     7
100
AcDbVertex
100
AcDb2dVertex
 10
8.3617723119
 20
7.6857974246
 30
0.0
  0
VERTEX
  5
593
330
28B
100
AcDbEntity
  8
0
  6
CONTINUOUS
 62
     7
100
AcDbVertex
100
AcDb2dVertex
 10
8.3939259113
 20
7.6962402676
 30
0.0
  0
VERTEX
  5
594
330
28B
100
AcDbEntity
  8
0
  6
CONTINUOUS
 62
     7
100
AcDbVertex
100
AcDb2dVertex
 10
8.4257111481
 20
7.7047241159
 30
0.0
  0
VERTEX
  5
595
330
28B
100
AcDbEntity
  8
0
  6
CONTINUOUS
 62
     7
100
AcDbVertex
100
AcDb2dVertex
 10
8.4570569359
 20
7.7112299957
 30
0.0
  0
VERTEX
  5
596
330
28B
100
AcDbEntity
  8
0
  6
CONTINUOUS
 62
     7
100
AcDbVertex
100
AcDb2dVertex
 10
8.4878931713
 20
7.715743357
 30
0.0
  0
VERTEX
  5
597
330
28B
100
AcDbEntity
  8
0
  6
CONTINUOUS
 62
     7
100
AcDbVertex
100
AcDb2dVertex
 10
8.51815089
 20
7.7182541058
 30
0.0
  0
VERTEX
  5
598
330
28B
100
AcDbEntity
  8
0
  6
CONTINUOUS
 62
     7
100
AcDbVertex
100
AcDb2dVertex
 10
8.5477624221
 20
7.7187566269
 30
0.0
  0
SEQEND
  5
599
330
28B
100
AcDbEntity
  8
0
  6
CONTINUOUS
 62
     7
  0
LINE
  5
28C
330
1F
100
AcDbEntity
  8
0
  6
CONTINUOUS
 62
     7
100
AcDbLine
 10
8.1364173298
 20
7.225947759
 30
0.0
 11
7.9137065326
 21
7.3545159656
 31
0.0
  0
POLYLINE
  5
28D
330
1F
100
AcDbEntity
  8
0
  6
CONTINUOUS
 62
     7
100
AcDb2dPolyline
 66
     1
 10
0.0
 20
0.0
 30
0.0
  0
VERTEX
  5
59A
330
28D
100
AcDbEntity
  8
0
  6
CONTINUOUS
 62
     7
100
AcDbVertex
100
AcDb2dVertex
 10
7.9739591617
 20
5.8316318875
 30
0.0
  0
VERTEX
  5
59B
330
28D
100
AcDbEntity
  8
0
  6
CONTINUOUS
 62
     7
100
AcDbVertex
100
AcDb2dVertex
 10
7.9715536814
 20
5.8328802628
 30
0.0
  0
VERTEX
  5
59C
330
28D
100
AcDbEntity
  8
0
  6
CONTINUOUS
 62
     7
100
AcDbVertex
100
AcDb2dVertex
 10
7.9480718897
 20
5.8464547841
 30
0.0
  0
VERTEX
  5
59D
330
28D
100
AcDbEntity
  8
0
  6
CONTINUOUS
 62
     7
100
AcDbVertex
100
AcDb2dVertex
 10
7.9257378479
 20
5.8619547965
 30
0.0
  0
VERTEX
  5
59E
330
28D
100
AcDbEntity
  8
0
  6
CONTINUOUS
 62
     7
100
AcDbVertex
100
AcDb2dVertex
 10
7.9046024312
 20
5.8793449922
 30
0.0
  0
VERTEX
  5
59F
330
28D
100
AcDbEntity
  8
0
  6
CONTINUOUS
 62
     7
100
AcDbVertex
100
AcDb2dVertex
 10
7.8847137846
 20
5.8985857575
 30
0.0
  0
VERTEX
  5
5A0
330
28D
100
AcDbEntity
  8
0
  6
CONTINUOUS
 62
     7
100
AcDbVertex
100
AcDb2dVertex
 10
7.866117213
 20
5.9196332634
 30
0.0
  0
VERTEX
  5
5A1
330
28D
100
AcDbEntity
  8
0
  6
CONTINUOUS
 62
     7
100
AcDbVertex
100
AcDb2dVertex
 10
7.848855078
 20
5.9424395651
 30
0.0
  0
VERTEX
  5
5A2
330
28D
100
AcDbEntity
  8
0
  6
CONTINUOUS
 62
     7
100
AcDbVertex
100
AcDb2dVertex
 10
7.8329667016
 20
5.9669527116
 30
0.0
  0
VERTEX
  5
5A3
330
28D
100
AcDbEntity
  8
0
  6
CONTINUOUS
 62
     7
100
AcDbVertex
100
AcDb2dVertex
 10
7.8184882763
 20
5.9931168636
 30
0.0
  0
VERTEX
  5
5A4
330
28D
100
AcDbEntity
  8
0
  6
CONTINUOUS
 62
     7
100
AcDbVertex
100
AcDb2dVertex
 10
7.8054527829
 20
6.0208724212
 30
0.0
  0
VERTEX
  5
5A5
330
28D
100
AcDbEntity
  8
0
  6
CONTINUOUS
 62
     7
100
AcDbVertex
100
AcDb2dVertex
 10
7.7938899153
 20
6.0501561592
 30
0.0
  0
VERTEX
  5
5A6
330
28D
100
AcDbEntity
  8
0
  6
CONTINUOUS
 62
     7
100
AcDbVertex
100
AcDb2dVertex
 10
7.7838260129
 20
6.0809013713
 30
0.0
  0
VERTEX
  5
5A7
330
28D
100
AcDbEntity
  8
0
  6
CONTINUOUS
 62
     7
100
AcDbVertex
100
AcDb2dVertex
 10
7.7752840006
 20
6.1130380222
 30
0.0
  0
VERTEX
  5
5A8
330
28D
100
AcDbEntity
  8
0
  6
CONTINUOUS
 62
     7
100
AcDbVertex
100
AcDb2dVertex
 10
7.7682833364
 20
6.1464929068
 30
0.0
  0
VERTEX
  5
5A9
330
28D
100
AcDbEntity
  8
0
  6
CONTINUOUS
 62
     7
100
AcDbVertex
100
AcDb2dVertex
 10
7.7628399674
 20
6.1811898175
 30
0.0
  0
VERTEX
  5
5AA
330
28D
100
AcDbEntity
  8
0
  6
CONTINUOUS
 62
     7
100
AcDbVertex
100
AcDb2dVertex
 10
7.7589662931
 20
6.2170497171
 30
0.0
  0
VERTEX
  5
5AB
330
28D
100
AcDbEntity
  8
0
  6
CONTINUOUS
 62
     7
100
AcDbVertex
100
AcDb2dVertex
 10
7.7566711374
 20
6.2539909194
 30
0.0
  0
VERTEX
  5
5AC
330
28D
100
AcDbEntity
  8
0
  6
CONTINUOUS
 62
     7
100
AcDbVertex
100
AcDb2dVertex
 10
7.7559597287
 20
6.291929275
 30
0.0
  0
VERTEX
  5
5AD
330
28D
100
AcDbEntity
  8
0
  6
CONTINUOUS
 62
     7
100
AcDbVertex
100
AcDb2dVertex
 10
7.7568336874
 20
6.330778363
 30
0.0
  0
VERTEX
  5
5AE
330
28D
100
AcDbEntity
  8
0
  6
CONTINUOUS
 62
     7
100
AcDbVertex
100
AcDb2dVertex
 10
7.7592910227
 20
6.3704496881
 30
0.0
  0
VERTEX
  5
5AF
330
28D
100
AcDbEntity
  8
0
  6
CONTINUOUS
 62
     7
100
AcDbVertex
100
AcDb2dVertex
 10
7.763326137
 20
6.4108528818
 30
0.0
  0
VERTEX
  5
5B0
330
28D
100
AcDbEntity
  8
0
  6
CONTINUOUS
 62
     7
100
AcDbVertex
100
AcDb2dVertex
 10
7.7689298385
 20
6.4518959086
 30
0.0
  0
VERTEX
  5
5B1
330
28D
100
AcDbEntity
  8
0
  6
CONTINUOUS
 62
     7
100
AcDbVertex
100
AcDb2dVertex
 10
7.7760893626
 20
6.4934852754
 30
0.0
  0
VERTEX
  5
5B2
330
28D
100
AcDbEntity
  8
0
  6
CONTINUOUS
 62
     7
100
AcDbVertex
100
AcDb2dVertex
 10
7.7847884002
 20
6.5355262447
 30
0.0
  0
VERTEX
  5
5B3
330
28D
100
AcDbEntity
  8
0
  6
CONTINUOUS
 62
     7
100
AcDbVertex
100
AcDb2dVertex
 10
7.7950071356
 20
6.5779230502
 30
0.0
  0
VERTEX
  5
5B4
330
28D
100
AcDbEntity
  8
0
  6
CONTINUOUS
 62
     7
100
AcDbVertex
100
AcDb2dVertex
 10
7.8067222912
 20
6.6205791149
 30
0.0
  0
VERTEX
  5
5B5
330
28D
100
AcDbEntity
  8
0
  6
CONTINUOUS
 62
     7
100
AcDbVertex
100
AcDb2dVertex
 10
7.8199071808
 20
6.6633972716
 30
0.0
  0
VERTEX
  5
5B6
330
28D
100
AcDbEntity
  8
0
  6
CONTINUOUS
 62
     7
100
AcDbVertex
100
AcDb2dVertex
 10
7.8345317702
 20
6.7062799835
 30
0.0
  0
VERTEX
  5
5B7
330
28D
100
AcDbEntity
  8
0
  6
CONTINUOUS
 62
     7
100
AcDbVertex
100
AcDb2dVertex
 10
7.8505627456
 20
6.7491295668
 30
0.0
  0
VERTEX
  5
5B8
330
28D
100
AcDbEntity
  8
0
  6
CONTINUOUS
 62
     7
100
AcDbVertex
100
AcDb2dVertex
 10
7.8679635896
 20
6.7918484135
 30
0.0
  0
VERTEX
  5
5B9
330
28D
100
AcDbEntity
  8
0
  6
CONTINUOUS
 62
     7
100
AcDbVertex
100
AcDb2dVertex
 10
7.8866946643
 20
6.8343392129
 30
0.0
  0
VERTEX
  5
5BA
330
28D
100
AcDbEntity
  8
0
  6
CONTINUOUS
 62
     7
100
AcDbVertex
100
AcDb2dVertex
 10
7.9067133017
 20
6.8765051741
 30
0.0
  0
VERTEX
  5
5BB
330
28D
100
AcDbEntity
  8
0
  6
CONTINUOUS
 62
     7
100
AcDbVertex
100
AcDb2dVertex
 10
7.9279739007
 20
6.9182502462
 30
0.0
  0
VERTEX
  5
5BC
330
28D
100
AcDbEntity
  8
0
  6
CONTINUOUS
 62
     7
100
AcDbVertex
100
AcDb2dVertex
 10
7.9504280314
 20
6.9594793369
 30
0.0
  0
VERTEX
  5
5BD
330
28D
100
AcDbEntity
  8
0
  6
CONTINUOUS
 62
     7
100
AcDbVertex
100
AcDb2dVertex
 10
7.9740245447
 20
7.0000985292
 30
0.0
  0
VERTEX
  5
5BE
330
28D
100
AcDbEntity
  8
0
  6
CONTINUOUS
 62
     7
100
AcDbVertex
100
AcDb2dVertex
 10
7.9987096896
 20
7.0400152956
 30
0.0
  0
VERTEX
  5
5BF
330
28D
100
AcDbEntity
  8
0
  6
CONTINUOUS
 62
     7
100
AcDbVertex
100
AcDb2dVertex
 10
8.0244272351
 20
7.0791387086
 30
0.0
  0
VERTEX
  5
5C0
330
28D
100
AcDbEntity
  8
0
  6
CONTINUOUS
 62
     7
100
AcDbVertex
100
AcDb2dVertex
 10
8.0511185984
 20
7.1173796479
 30
0.0
  0
VERTEX
  5
5C1
330
28D
100
AcDbEntity
  8
0
  6
CONTINUOUS
 62
     7
100
AcDbVertex
100
AcDb2dVertex
 10
8.0787229786
 20
7.1546510033
 30
0.0
  0
VERTEX
  5
5C2
330
28D
100
AcDbEntity
  8
0
  6
CONTINUOUS
 62
     7
100
AcDbVertex
100
AcDb2dVertex
 10
8.1071774948
 20
7.1908678735
 30
0.0
  0
VERTEX
  5
5C3
330
28D
100
AcDbEntity
  8
0
  6
CONTINUOUS
 62
     7
100
AcDbVertex
100
AcDb2dVertex
 10
8.1364173298
 20
7.225947759
 30
0.0
  0
SEQEND
  5
5C4
330
28D
100
AcDbEntity
  8
0
  6
CONTINUOUS
 62
     7
  0
ARC
  5
28E
330
1F
100
AcDbEntity
  8
0
  6
CONTINUOUS
 62
     7
100
AcDbCircle
 10
8.7698745299
 20
7.2382695515
 30
0.0
 40
0.351919377990617
100
AcDbArc
 50
59.0381745479
 51
89.9025277032
  0
LINE
  5
28F
330
1F
100
AcDbEntity
  8
0
  6
CONTINUOUS
 62
     7
100
AcDbLine
 10
7.4990691246
 20
6.1595238703
 30
0.0
 11
7.2763583274
 21
6.2880920768
 31
0.0
  0
POLYLINE
  5
290
330
1F
100
AcDbEntity
  8
0
  6
CONTINUOUS
 62
     7
100
AcDb2dPolyline
 66
     1
 10
0.0
 20
0.0
 30
0.0
  0
VERTEX
  5
5C5
330
290
100
AcDbEntity
  8
0
  6
CONTINUOUS
 62
     7
100
AcDbVertex
100
AcDb2dVertex
 10
7.4975172803
 20
6.8908123481
 30
0.0
  0
VERTEX
  5
5C6
330
290
100
AcDbEntity
  8
0
  6
CONTINUOUS
 62
     7
100
AcDbVertex
100
AcDb2dVertex
 10
7.4832942119
 20
6.8483264346
 30
0.0
  0
VERTEX
  5
5C7
330
290
100
AcDbEntity
  8
0
  6
CONTINUOUS
 62
     7
100
AcDbVertex
100
AcDb2dVertex
 10
7.4704903307
 20
6.8059216211
 30
0.0
  0
VERTEX
  5
5C8
330
290
100
AcDbEntity
  8
0
  6
CONTINUOUS
 62
     7
100
AcDbVertex
100
AcDb2dVertex
 10
7.4591342721
 20
6.763692744
 30
0.0
  0
VERTEX
  5
5C9
330
290
100
AcDbEntity
  8
0
  6
CONTINUOUS
 62
     7
100
AcDbVertex
100
AcDb2dVertex
 10
7.4492514335
 20
6.7217342467
 30
0.0
  0
VERTEX
  5
5CA
330
290
100
AcDbEntity
  8
0
  6
CONTINUOUS
 62
     7
100
AcDbVertex
100
AcDb2dVertex
 10
7.4408639175
 20
6.6801399677
 30
0.0
  0
VERTEX
  5
5CB
330
290
100
AcDbEntity
  8
0
  6
CONTINUOUS
 62
     7
100
AcDbVertex
100
AcDb2dVertex
 10
7.4339904823
 20
6.6390029309
 30
0.0
  0
VERTEX
  5
5CC
330
290
100
AcDbEntity
  8
0
  6
CONTINUOUS
 62
     7
100
AcDbVertex
100
AcDb2dVertex
 10
7.4286465002
 20
6.5984151377
 30
0.0
  0
VERTEX
  5
5CD
330
290
100
AcDbEntity
  8
0
  6
CONTINUOUS
 62
     7
100
AcDbVertex
100
AcDb2dVertex
 10
7.4248439228
 20
6.558467361
 30
0.0
  0
VERTEX
  5
5CE
330
290
100
AcDbEntity
  8
0
  6
CONTINUOUS
 62
     7
100
AcDbVertex
100
AcDb2dVertex
 10
7.4225912543
 20
6.5192489425
 30
0.0
  0
VERTEX
  5
5CF
330
290
100
AcDbEntity
  8
0
  6
CONTINUOUS
 62
     7
100
AcDbVertex
100
AcDb2dVertex
 10
7.4218935329
 20
6.4808475927
 30
0.0
  0
VERTEX
  5
5D0
330
290
100
AcDbEntity
  8
0
  6
CONTINUOUS
 62
     7
100
AcDbVertex
100
AcDb2dVertex
 10
7.4227523188
 20
6.4433491945
 30
0.0
  0
VERTEX
  5
5D1
330
290
100
AcDbEntity
  8
0
  6
CONTINUOUS
 62
     7
100
AcDbVertex
100
AcDb2dVertex
 10
7.4251656915
 20
6.4068376117
 30
0.0
  0
VERTEX
  5
5D2
330
290
100
AcDbEntity
  8
0
  6
CONTINUOUS
 62
     7
100
AcDbVertex
100
AcDb2dVertex
 10
7.4291282536
 20
6.3713945011
 30
0.0
  0
VERTEX
  5
5D3
330
290
100
AcDbEntity
  8
0
  6
CONTINUOUS
 62
     7
100
AcDbVertex
100
AcDb2dVertex
 10
7.4346311429
 20
6.3370991296
 30
0.0
  0
VERTEX
  5
5D4
330
290
100
AcDbEntity
  8
0
  6
CONTINUOUS
 62
     7
100
AcDbVertex
100
AcDb2dVertex
 10
7.4416620524
 20
6.3040281976
 30
0.0
  0
VERTEX
  5
5D5
330
290
100
AcDbEntity
  8
0
  6
CONTINUOUS
 62
     7
100
AcDbVertex
100
AcDb2dVertex
 10
7.4502052579
 20
6.2722556668
 30
0.0
  0
VERTEX
  5
5D6
330
290
100
AcDbEntity
  8
0
  6
CONTINUOUS
 62
     7
100
AcDbVertex
100
AcDb2dVertex
 10
7.4602416527
 20
6.2418525953
 30
0.0
  0
VERTEX
  5
5D7
330
290
100
AcDbEntity
  8
0
  6
CONTINUOUS
 62
     7
100
AcDbVertex
100
AcDb2dVertex
 10
7.4717487909
 20
6.2128869784
 30
0.0
  0
VERTEX
  5
5D8
330
290
100
AcDbEntity
  8
0
  6
CONTINUOUS
 62
     7
100
AcDbVertex
100
AcDb2dVertex
 10
7.4847009372
 20
6.1854235964
 30
0.0
  0
VERTEX
  5
5D9
330
290
100
AcDbEntity
  8
0
  6
CONTINUOUS
 62
     7
100
AcDbVertex
100
AcDb2dVertex
 10
7.4990691246
 20
6.1595238703
 30
0.0
  0
SEQEND
  5
5DA
330
290
100
AcDbEntity
  8
0
  6
CONTINUOUS
 62
     7
  0
LINE
  5
291
330
1F
100
AcDbEntity
  8
0
  6
CONTINUOUS
 62
     7
100
AcDbLine
 10
7.2748064831
 20
7.0193805546
 30
0.0
 11
7.4975172803
 21
6.8908123481
 31
0.0
  0
POLYLINE
  5
292
330
1F
100
AcDbEntity
  8
0
  6
CONTINUOUS
 62
     7
100
AcDb2dPolyline
 66
     1
 10
0.0
 20
0.0
 30
0.0
  0
VERTEX
  5
5DB
330
292
100
AcDbEntity
  8
0
  6
CONTINUOUS
 62
     7
100
AcDbVertex
100
AcDb2dVertex
 10
8.3872378829
 20
7.8655675352
 30
0.0
  0
VERTEX
  5
5DC
330
292
100
AcDbEntity
  8
0
  6
CONTINUOUS
 62
     7
100
AcDbVertex
100
AcDb2dVertex
 10
8.3752603141
 20
7.8721533915
 30
0.0
  0
VERTEX
  5
5DD
330
292
100
AcDbEntity
  8
0
  6
CONTINUOUS
 62
     7
100
AcDbVertex
100
AcDb2dVertex
 10
8.3506724306
 20
7.8837496356
 30
0.0
  0
VERTEX
  5
5DE
330
292
100
AcDbEntity
  8
0
  6
CONTINUOUS
 62
     7
100
AcDbVertex
100
AcDb2dVertex
 10
8.3250469042
 20
7.8933627332
 30
0.0
  0
VERTEX
  5
5DF
330
292
100
AcDbEntity
  8
0
  6
CONTINUOUS
 62
     7
100
AcDbVertex
100
AcDb2dVertex
 10
8.2984421081
 20
7.9009707863
 30
0.0
  0
VERTEX
  5
5E0
330
292
100
AcDbEntity
  8
0
  6
CONTINUOUS
 62
     7
100
AcDbVertex
100
AcDb2dVertex
 10
8.270918646
 20
7.9065564644
 30
0.0
  0
VERTEX
  5
5E1
330
292
100
AcDbEntity
  8
0
  6
CONTINUOUS
 62
     7
100
AcDbVertex
100
AcDb2dVertex
 10
8.2425392144
 20
7.9101070436
 30
0.0
  0
VERTEX
  5
5E2
330
292
100
AcDbEntity
  8
0
  6
CONTINUOUS
 62
     7
100
AcDbVertex
100
AcDb2dVertex
 10
8.2133684596
 20
7.9116144359
 30
0.0
  0
VERTEX
  5
5E3
330
292
100
AcDbEntity
  8
0
  6
CONTINUOUS
 62
     7
100
AcDbVertex
100
AcDb2dVertex
 10
8.1834728305
 20
7.9110752078
 30
0.0
  0
VERTEX
  5
5E4
330
292
100
AcDbEntity
  8
0
  6
CONTINUOUS
 62
     7
100
AcDbVertex
100
AcDb2dVertex
 10
8.1529204271
 20
7.9084905873
 30
0.0
  0
VERTEX
  5
5E5
330
292
100
AcDbEntity
  8
0
  6
CONTINUOUS
 62
     7
100
AcDbVertex
100
AcDb2dVertex
 10
8.1217808456
 20
7.9038664623
 30
0.0
  0
VERTEX
  5
5E6
330
292
100
AcDbEntity
  8
0
  6
CONTINUOUS
 62
     7
100
AcDbVertex
100
AcDb2dVertex
 10
8.0901250198
 20
7.897213366
 30
0.0
  0
VERTEX
  5
5E7
330
292
100
AcDbEntity
  8
0
  6
CONTINUOUS
 62
     7
100
AcDbVertex
100
AcDb2dVertex
 10
8.0580250593
 20
7.8885464538
 30
0.0
  0
VERTEX
  5
5E8
330
292
100
AcDbEntity
  8
0
  6
CONTINUOUS
 62
     7
100
AcDbVertex
100
AcDb2dVertex
 10
8.0255540854
 20
7.8778854682
 30
0.0
  0
VERTEX
  5
5E9
330
292
100
AcDbEntity
  8
0
  6
CONTINUOUS
 62
     7
100
AcDbVertex
100
AcDb2dVertex
 10
7.9927860648
 20
7.8652546943
 30
0.0
  0
VERTEX
  5
5EA
330
292
100
AcDbEntity
  8
0
  6
CONTINUOUS
 62
     7
100
AcDbVertex
100
AcDb2dVertex
 10
7.9597956407
 20
7.8506829039
 30
0.0
  0
VERTEX
  5
5EB
330
292
100
AcDbEntity
  8
0
  6
CONTINUOUS
 62
     7
100
AcDbVertex
100
AcDb2dVertex
 10
7.9266579627
 20
7.8342032906
 30
0.0
  0
VERTEX
  5
5EC
330
292
100
AcDbEntity
  8
0
  6
CONTINUOUS
 62
     7
100
AcDbVertex
100
AcDb2dVertex
 10
7.8934485162
 20
7.8158533937
 30
0.0
  0
VERTEX
  5
5ED
330
292
100
AcDbEntity
  8
0
  6
CONTINUOUS
 62
     7
100
AcDbVertex
100
AcDb2dVertex
 10
7.8602429498
 20
7.7956750131
 30
0.0
  0
VERTEX
  5
5EE
330
292
100
AcDbEntity
  8
0
  6
CONTINUOUS
 62
     7
100
AcDbVertex
100
AcDb2dVertex
 10
7.8271169035
 20
7.7737141135
 30
0.0
  0
VERTEX
  5
5EF
330
292
100
AcDbEntity
  8
0
  6
CONTINUOUS
 62
     7
100
AcDbVertex
100
AcDb2dVertex
 10
7.794145836
 20
7.7500207203
 30
0.0
  0
VERTEX
  5
5F0
330
292
100
AcDbEntity
  8
0
  6
CONTINUOUS
 62
     7
100
AcDbVertex
100
AcDb2dVertex
 10
7.761404853
 20
7.7246488054
 30
0.0
  0
VERTEX
  5
5F1
330
292
100
AcDbEntity
  8
0
  6
CONTINUOUS
 62
     7
100
AcDbVertex
100
AcDb2dVertex
 10
7.728968536
 20
7.6976561641
 30
0.0
  0
VERTEX
  5
5F2
330
292
100
AcDbEntity
  8
0
  6
CONTINUOUS
 62
     7
100
AcDbVertex
100
AcDb2dVertex
 10
7.6969107728
 20
7.6691042838
 30
0.0
  0
VERTEX
  5
5F3
330
292
100
AcDbEntity
  8
0
  6
CONTINUOUS
 62
     7
100
AcDbVertex
100
AcDb2dVertex
 10
7.6653045884
 20
7.6390582035
 30
0.0
  0
VERTEX
  5
5F4
330
292
100
AcDbEntity
  8
0
  6
CONTINUOUS
 62
     7
100
AcDbVertex
100
AcDb2dVertex
 10
7.6342219797
 20
7.607586366
 30
0.0
  0
VERTEX
  5
5F5
330
292
100
AcDbEntity
  8
0
  6
CONTINUOUS
 62
     7
100
AcDbVertex
100
AcDb2dVertex
 10
7.6037337504
 20
7.574760462
 30
0.0
  0
VERTEX
  5
5F6
330
292
100
AcDbEntity
  8
0
  6
CONTINUOUS
 62
     7
100
AcDbVertex
100
AcDb2dVertex
 10
7.5739093505
 20
7.5406552664
 30
0.0
  0
VERTEX
  5
5F7
330
292
100
AcDbEntity
  8
0
  6
CONTINUOUS
 62
     7
100
AcDbVertex
100
AcDb2dVertex
 10
7.544816718
 20
7.5053484684
 30
0.0
  0
VERTEX
  5
5F8
330
292
100
AcDbEntity
  8
0
  6
CONTINUOUS
 62
     7
100
AcDbVertex
100
AcDb2dVertex
 10
7.5165221236
 20
7.4689204944
 30
0.0
  0
VERTEX
  5
5F9
330
292
100
AcDbEntity
  8
0
  6
CONTINUOUS
 62
     7
100
AcDbVertex
100
AcDb2dVertex
 10
7.4890900205
 20
7.4314543247
 30
0.0
  0
VERTEX
  5
5FA
330
292
100
AcDbEntity
  8
0
  6
CONTINUOUS
 62
     7
100
AcDbVertex
100
AcDb2dVertex
 10
7.462582897
 20
7.3930353044
 30
0.0
  0
VERTEX
  5
5FB
330
292
100
AcDbEntity
  8
0
  6
CONTINUOUS
 62
     7
100
AcDbVertex
100
AcDb2dVertex
 10
7.4370611344
 20
7.3537509494
 30
0.0
  0
VERTEX
  5
5FC
330
292
100
AcDbEntity
  8
0
  6
CONTINUOUS
 62
     7
100
AcDbVertex
100
AcDb2dVertex
 10
7.4125828694
 20
7.3136907465
 30
0.0
  0
VERTEX
  5
5FD
330
292
100
AcDbEntity
  8
0
  6
CONTINUOUS
 62
     7
100
AcDbVertex
100
AcDb2dVertex
 10
7.3892038617
 20
7.2729459499
 30
0.0
  0
VERTEX
  5
5FE
330
292
100
AcDbEntity
  8
0
  6
CONTINUOUS
 62
     7
100
AcDbVertex
100
AcDb2dVertex
 10
7.3669773671
 20
7.2316093735
 30
0.0
  0
VERTEX
  5
5FF
330
292
100
AcDbEntity
  8
0
  6
CONTINUOUS
 62
     7
100
AcDbVertex
100
AcDb2dVertex
 10
7.3459540159
 20
7.1897751789
 30
0.0
  0
VERTEX
  5
600
330
292
100
AcDbEntity
  8
0
  6
CONTINUOUS
 62
     7
100
AcDbVertex
100
AcDb2dVertex
 10
7.3261816978
 20
7.1475386615
 30
0.0
  0
VERTEX
  5
601
330
292
100
AcDbEntity
  8
0
  6
CONTINUOUS
 62
     7
100
AcDbVertex
100
AcDb2dVertex
 10
7.3077054526
 20
7.1049960328
 30
0.0
  0
VERTEX
  5
602
330
292
100
AcDbEntity
  8
0
  6
CONTINUOUS
 62
     7
100
AcDbVertex
100
AcDb2dVertex
 10
7.2905673679
 20
7.062244202
 30
0.0
  0
VERTEX
  5
603
330
292
100
AcDbEntity
  8
0
  6
CONTINUOUS
 62
     7
100
AcDbVertex
100
AcDb2dVertex
 10
7.2748064831
 20
7.0193805546
 30
0.0
  0
SEQEND
  5
604
330
292
100
AcDbEntity
  8
0
  6
CONTINUOUS
 62
     7
  0
ARC
  5
293
330
1F
100
AcDbEntity
  8
0
  6
CONTINUOUS
 62
     7
100
AcDbCircle
 10
7.5816664696
 20
6.465162502
 30
0.0
 40
0.3529405009158109
100
AcDbArc
 50
210.1125679759
 51
239.5998574372
  0
LINE
  5
294
330
1F
100
AcDbEntity
  8
0
  6
CONTINUOUS
 62
     7
100
AcDbLine
 10
8.1581737115
 20
7.2133863248
 30
0.0
 11
8.1596209642
 21
7.210680996
 31
0.0
  0
ARC
  5
295
330
1F
100
AcDbEntity
  8
0
  6
CONTINUOUS
 62
     7
100
AcDbCircle
 10
9.2682645999
 20
6.2210858009
 30
0.0
 40
1.48606505961257
100
AcDbArc
 50
138.2473272456
 51
177.3435370751
  0
SPLINE
  5
296
330
1F
100
AcDbEntity
  8
0
  6
CONTINUOUS
 62
     7
100
AcDbSpline
210
0.0
220
0.0
230
1.0
 70
     8
 71
     3
 72
     8
 73
     4
 74
     0
 42
0.00000001
 43
0.00000001
 40
0.0
 40
0.0
 40
0.0
 40
0.0
 40
0.0006505060239605
 40
0.0006505060239605
 40
0.0006505060239605
 40
0.0006505060239605
 10
8.136417329793865
 20
7.225947759017908
 30
0.0
 10
8.143670151781656
 20
7.221760213496013
 30
0.0
 10
8.15092229411631
 20
7.217573060067378
 30
0.0
 10
8.1581737115486
 20
7.213386324838862
 30
0.0
  0
SPLINE
  5
297
330
1F
100
AcDbEntity
  8
0
  6
CONTINUOUS
 62
     7
100
AcDbSpline
210
0.0
220
0.0
230
1.0
 70
     8
 71
     3
 72
     8
 73
     4
 74
     0
 42
0.00000001
 43
0.00000001
 40
0.0
 40
0.0
 40
0.0
 40
0.0
 40
0.0005752664977959
 40
0.0005752664977959
 40
0.0005752664977959
 40
0.0005752664977959
 10
8.5477624220711
 20
7.718756626854286
 30
0.0
 10
8.546787543955595
 20
7.712969956849762
 30
0.0
 10
8.545791189006883
 20
7.707182159644095
 30
0.0
 10
8.544772204983403
 20
7.701393336941586
 30
0.0
  0
LINE
  5
298
330
1F
100
AcDbEntity
  8
0
  6
CONTINUOUS
 62
     7
100
AcDbLine
 10
7.2716185204
 20
7.021219184
 30
0.0
 11
7.2717905157
 21
7.022989437
 31
0.0
  0
ARC
  5
299
330
1F
100
AcDbEntity
  8
0
  6
CONTINUOUS
 62
     7
100
AcDbCircle
 10
8.6830786764
 20
6.5577001241
 30
0.0
 40
1.48601090756959
100
AcDbArc
 50
122.6612483538
 51
161.7530659774
  0
SPLINE
  5
29A
330
1F
100
AcDbEntity
  8
0
  6
CONTINUOUS
 62
     7
100
AcDbSpline
210
0.0
220
0.0
230
1.0
 70
     8
 71
     3
 72
     8
 73
     4
 74
     0
 42
0.00000001
 43
0.00000001
 40
0.0
 40
0.0
 40
0.0
 40
0.0
 40
0.0006505060239605
 40
0.0006505060239605
 40
0.0006505060239605
 40
0.0006505060239605
 10
7.271618520434493
 20
7.021219183972697
 30
0.0
 10
7.272677564790031
 20
7.020608391729342
 30
0.0
 10
7.273740287238146
 20
7.019995475891232
 30
0.0
 10
7.274806483082323
 20
7.019380554642111
 30
0.0
  0
SPLINE
  5
29B
330
1F
100
AcDbEntity
  8
0
  6
CONTINUOUS
 62
     7
100
AcDbSpline
210
0.0
220
0.0
230
1.0
 70
     8
 71
     3
 72
     8
 73
     4
 74
     0
 42
0.00000001
 43
0.00000001
 40
0.0
 40
0.0
 40
0.0
 40
0.0
 40
0.0006505060239605
 40
0.0006505060239605
 40
0.0006505060239605
 40
0.0006505060239605
 10
7.494329317658604
 20
6.892650977386443
 30
0.0
 10
7.495388362014141
 20
6.892040185143088
 30
0.0
 10
7.496451084462257
 20
6.891427269304978
 30
0.0
 10
7.497517280306434
 20
6.890812348055857
 30
0.0
  0
ARC
  5
29C
330
1F
100
AcDbEntity
  8
0
  6
CONTINUOUS
 62
     7
100
AcDbCircle
 10
8.635829173
 20
6.4804046527
 30
0.0
 40
1.21407837505324
100
AcDbArc
 50
160.139559333
 51
179.1278544444
  0
LINE
  5
29D
330
1F
100
AcDbEntity
  8
0
  6
CONTINUOUS
 62
     7
100
AcDbLine
 10
7.4943293177
 20
6.8926509774
 30
0.0
 11
7.2716185204
 21
7.021219184
 31
0.0
  0
LINE
  5
29E
330
1F
100
AcDbEntity
  8
0
  6
CONTINUOUS
 62
     7
100
AcDbLine
 10
8.7704732193
 20
7.5901884203
 30
0.0
 11
8.7693647735
 21
7.5837520093
 31
0.0
  0
LINE
  5
29F
330
1F
100
AcDbEntity
  8
0
  6
CONTINUOUS
 62
     7
100
AcDbLine
 10
7.2763583274
 20
6.2880920768
 30
0.0
 11
7.274463076
 21
6.2962659579
 31
0.0
  0
ENDSEC
  0
SECTION
  2
OBJECTS
  0
DICTIONARY
  5
C
330
0
100
AcDbDictionary
  3
ACAD_GROUP
350
D
  3
ACAD_LAYOUT
350
1A
  3
ACAD_MLEADERSTYLE
350
2A2
  3
ACAD_MLINESTYLE
350
17
  3
ACAD_PLOTSETTINGS
350
19
  3
ACAD_SCALELIST
350
6F
  3
ACAD_VISUALSTYLE
350
2A
  3
ACDBVARIABLEDICTIONARY
350
2A0
1001
ACAD
1000
TREAT_AS_HARD
1070
     0
  0
DICTIONARY
  5
D
102
{ACAD_REACTORS
330
C
102
}
330
C
100
AcDbDictionary
1001
ACAD
1000
TREAT_AS_HARD
1070
     0
  0
DICTIONARY
  5
1A
102
{ACAD_REACTORS
330
C
102
}
330
C
100
AcDbDictionary
1001
ACAD
1000
TREAT_AS_HARD
1070
     0
  0
DICTIONARY
  5
2A2
102
{ACAD_REACTORS
330
C
102
}
330
C
100
AcDbDictionary
1001
ACAD
1000
TREAT_AS_HARD
1070
     0
  0
DICTIONARY
  5
17
102
{ACAD_REACTORS
330
C
102
}
330
C
100
AcDbDictionary
  3
STANDARD
350
18
1001
ACAD
1000
TREAT_AS_HARD
1070
     0
  0
DICTIONARY
  5
19
102
{ACAD_REACTORS
330
C
102
}
330
C
100
AcDbDictionary
1001
ACAD
1000
TREAT_AS_HARD
1070
     0
  0
DICTIONARY
  5
6F
102
{ACAD_REACTORS
330
C
102
}
330
C
100
AcDbDictionary
  3
A0
350
70
  3
A1
350
71
  3
A2
350
72
  3
A3
350
73
  3
A4
350
74
  3
A5
350
75
  3
A6
350
76
  3
A7
350
77
  3
A8
350
78
  3
A9
350
79
  3
B0
350
7A
  3
B1
350
7B
  3
B2
350
7C
  3
B3
350
7D
  3
B4
350
7E
  3
B5
350
7F
  3
B6
350
80
  3
B7
350
81
  3
B8
350
82
  3
B9
350
83
  3
C0
350
84
  3
C1
350
85
  3
C2
350
86
  3
C3
350
87
  3
C4
350
88
  3
C5
350
89
  3
C6
350
8A
  3
C7
350
8B
  3
C8
350
8C
  3
C9
350
8D
  3
D0
350
8E
  3
D1
350
8F
  3
D2
350
90
1001
ACAD
1000
TREAT_AS_HARD
1070
     0
  0
DICTIONARY
  5
2A
102
{ACAD_REACTORS
330
C
102
}
330
C
100
AcDbDictionary
  3
2DWIREFRAME
350
2F
  3
3D_HIDDEN
350
31
  3
3DWIREFRAME
350
30
  3
BASIC
350
32
  3
BRIGHTEN
350
36
  3
COLORCHANGE
350
3A
  3
CONCEPTUAL
350
34
  3
DIM
350
35
  3
FACEPATTERN
350
39
  3
FLAT
350
2B
  3
FLATWITHEDGES
350
2C
  3
GOURAUD
350
2D
  3
GOURAUDWITHEDGES
350
2E
  3
LINEPATTERN
350
38
  3
REALISTIC
350
33
  3
THICKEN
350
37
1001
ACAD
1000
TREAT_AS_HARD
1070
     0
  0
DICTIONARY
  5
2A0
102
{ACAD_REACTORS
330
C
102
}
330
C
100
AcDbDictionary
  3
CANNOSCALE
350
2A3
  3
DIMASSOC
350
2A4
  3
HIDETEXT
350
2A5
1001
ACAD
1000
TREAT_AS_HARD
1070
     0
  0
MLINESTYLE
  5
18
102
{ACAD_REACTORS
330
17
102
}
330
17
100
AcDbMlineStyle
  2
Standard
 70
     0
  3

 62
   256
 51
90.0
 52
90.0
 71
     2
 49
0.5
 62
   256
  6
BYLAYER
 49
-0.5
 62
   256
  6
BYLAYER
  0
ACAD_PROXY_OBJECT
  5
70
102
{ACAD_REACTORS
330
6F
102
}
330
6F
100
AcDbZombieObject
 90
      499
 91
      502
 93
       41
310
903313A31580
  0
ACAD_PROXY_OBJECT
  5
71
102
{ACAD_REACTORS
330
6F
102
}
330
6F
100
AcDbZombieObject
 90
      499
 91
      502
 93
      105
310
903313A324000000000000004000
  0
ACAD_PROXY_OBJECT
  5
72
102
{ACAD_REACTORS
330
6F
102
}
330
6F
100
AcDbZombieObject
 90
      499
 91
      502
 93
      105
310
903313A344000000000000104000
  0
ACAD_PROXY_OBJECT
  5
73
102
{ACAD_REACTORS
330
6F
102
}
330
6F
100
AcDbZombieObject
 90
      499
 91
      502
 93
      105
310
903313A354000000000000144000
  0
ACAD_PROXY_OBJECT
  5
74
102
{ACAD_REACTORS
330
6F
102
}
330
6F
100
AcDbZombieObject
 90
      499
 91
      502
 93
      105
310
903313A384000000000000204000
  0
ACAD_PROXY_OBJECT
  5
75
102
{ACAD_REACTORS
330
6F
102
}
330
6F
100
AcDbZombieObject
 90
      499
 91
      502
 93
      113
310
904313A31304000000000000244000
  0
ACAD_PROXY_OBJECT
  5
76
102
{ACAD_REACTORS
330
6F
102
}
330
6F
100
AcDbZombieObject
 90
      499
 91
      502
 93
      113
310
904313A31364000000000000304000
  0
ACAD_PROXY_OBJECT
  5
77
102
{ACAD_REACTORS
330
6F
102
}
330
6F
100
AcDbZombieObject
 90
      499
 91
      502
 93
      113
310
904313A32304000000000000344000
  0
ACAD_PROXY_OBJECT
  5
78
102
{ACAD_REACTORS
330
6F
102
}
330
6F
100
AcDbZombieObject
 90
      499
 91
      502
 93
      113
310
904313A333040000000000003E4000
  0
ACAD_PROXY_OBJECT
  5
79
102
{ACAD_REACTORS
330
6F
102
}
330
6F
100
AcDbZombieObject
 90
      499
 91
      502
 93
      113
310
904313A34304000000000000444000
  0
ACAD_PROXY_OBJECT
  5
7A
102
{ACAD_REACTORS
330
6F
102
}
330
6F
100
AcDbZombieObject
 90
      499
 91
      502
 93
      113
310
904313A35304000000000000494000
  0
ACAD_PROXY_OBJECT
  5
7B
102
{ACAD_REACTORS
330
6F
102
}
330
6F
100
AcDbZombieObject
 90
      499
 91
      502
 93
      121
310
905313A3130304000000000000594000
  0
ACAD_PROXY_OBJECT
  5
7C
102
{ACAD_REACTORS
330
6F
102
}
330
6F
100
AcDbZombieObject
 90
      499
 91
      502
 93
      105
310
903323A310000000000000010100
  0
ACAD_PROXY_OBJECT
  5
7D
102
{ACAD_REACTORS
330
6F
102
}
330
6F
100
AcDbZombieObject
 90
      499
 91
      502
 93
      105
310
903343A310000000000000410100
  0
ACAD_PROXY_OBJECT
  5
7E
102
{ACAD_REACTORS
330
6F
102
}
330
6F
100
AcDbZombieObject
 90
      499
 91
      502
 93
      105
310
903383A310000000000000810100
  0
ACAD_PROXY_OBJECT
  5
7F
102
{ACAD_REACTORS
330
6F
102
}
330
6F
100
AcDbZombieObject
 90
      499
 91
      502
 93
      113
310
90431303A310000000000000910100
  0
ACAD_PROXY_OBJECT
  5
80
102
{ACAD_REACTORS
330
6F
102
}
330
6F
100
AcDbZombieObject
 90
      499
 91
      502
 93
      121
310
9053130303A310000000000001650100
  0
ACAD_PROXY_OBJECT
  5
81
102
{ACAD_REACTORS
330
6F
102
}
330
6F
100
AcDbZombieObject
 90
      499
 91
      502
 93
      257
310
90E312F31323822203D2031272D3022000000000000200FC000000000000284000
  0
ACAD_PROXY_OBJECT
  5
82
102
{ACAD_REACTORS
330
6F
102
}
330
6F
100
AcDbZombieObject
 90
      499
 91
      502
 93
      249
310
90D312F363422203D2031272D3022000000000000240FC000000000000284000
  0
ACAD_PROXY_OBJECT
  5
83
102
{ACAD_REACTORS
330
6F
102
}
330
6F
100
AcDbZombieObject
 90
      499
 91
      502
 93
      249
310
90D312F333222203D2031272D3022000000000000280FC000000000000284000
  0
ACAD_PROXY_OBJECT
  5
84
102
{ACAD_REACTORS
330
6F
102
}
330
6F
100
AcDbZombieObject
 90
      499
 91
      502
 93
      249
310
90D312F313622203D2031272D30220000000000002C0FC000000000000284000
  0
ACAD_PROXY_OBJECT
  5
85
102
{ACAD_REACTORS
330
6F
102
}
330
6F
100
AcDbZombieObject
 90
      499
 91
      502
 93
      249
310
90D332F333222203D2031272D30220000000000002E0FC000000000000284000
  0
ACAD_PROXY_OBJECT
  5
86
102
{ACAD_REACTORS
330
6F
102
}
330
6F
100
AcDbZombieObject
 90
      499
 91
      502
 93
      241
310
90C312F3822203D2031272D3022000000000000300FC000000000000284000
  0
ACAD_PROXY_OBJECT
  5
87
102
{ACAD_REACTORS
330
6F
102
}
330
6F
100
AcDbZombieObject
 90
      499
 91
      502
 93
      249
310
90D332F313622203D2031272D3022000000000000320FC000000000000284000
  0
ACAD_PROXY_OBJECT
  5
88
102
{ACAD_REACTORS
330
6F
102
}
330
6F
100
AcDbZombieObject
 90
      499
 91
      502
 93
      241
310
90C312F3422203D2031272D3022000000000000340FC000000000000284000
  0
ACAD_PROXY_OBJECT
  5
89
102
{ACAD_REACTORS
330
6F
102
}
330
6F
100
AcDbZombieObject
 90
      499
 91
      502
 93
      241
310
90C332F3822203D2031272D3022000000000000360FC000000000000284000
  0
ACAD_PROXY_OBJECT
  5
8A
102
{ACAD_REACTORS
330
6F
102
}
330
6F
100
AcDbZombieObject
 90
      499
 91
      502
 93
      241
310
90C312F3222203D2031272D3022000000000000380FC000000000000284000
  0
ACAD_PROXY_OBJECT
  5
8B
102
{ACAD_REACTORS
330
6F
102
}
330
6F
100
AcDbZombieObject
 90
      499
 91
      502
 93
      241
310
90C332F3422203D2031272D30220000000000003A0FC000000000000284000
  0
ACAD_PROXY_OBJECT
  5
8C
102
{ACAD_REACTORS
330
6F
102
}
330
6F
100
AcDbZombieObject
 90
      499
 91
      502
 93
      161
310
90A3122203D2031272D30224000000000000284000
  0
ACAD_PROXY_OBJECT
  5
8D
102
{ACAD_REACTORS
330
6F
102
}
330
6F
100
AcDbZombieObject
 90
      499
 91
      502
 93
      257
310
90E312D312F3222203D2031272D30220000000000003E0FC000000000000284000
  0
ACAD_PROXY_OBJECT
  5
8E
102
{ACAD_REACTORS
330
6F
102
}
330
6F
100
AcDbZombieObject
 90
      499
 91
      502
 93
      225
310
90A3322203D2031272D302200000000000002100000000000000284000
  0
ACAD_PROXY_OBJECT
  5
8F
102
{ACAD_REACTORS
330
6F
102
}
330
6F
100
AcDbZombieObject
 90
      499
 91
      502
 93
      225
310
90A3622203D2031272D302200000000000006100000000000000284000
  0
ACAD_PROXY_OBJECT
  5
90
102
{ACAD_REACTORS
330
6F
102
}
330
6F
100
AcDbZombieObject
 90
      499
 91
      502
 93
      249
310
90D31272D3022203D2031272D30220000000000000A100000000000000284000
  0
ACAD_PROXY_OBJECT
  5
2F
102
{ACAD_REACTORS
330
2A
102
}
330
2A
100
AcDbZombieObject
 90
      499
 91
      501
 93
      436
310
42CC9915DA5C99599C985B595049028333333333333E3BF0000000000000FB0107901411070040501600405405064090741402480A0340
1001
ACAD
1000
AcDbSavedByObjectVersion
1070
     0
  0
ACAD_PROXY_OBJECT
  5
31
102
{ACAD_REACTORS
330
2A
102
}
330
2A
100
AcDbZombieObject
 90
      499
 91
      501
 93
      500
310
424CD108121A5919195B90640502408333333333333E3BF0000000000000FB01079024090700405020000000000001110200405405064090740C02480A0340
1001
ACAD
1000
AcDbSavedByObjectVersion
1070
     0
  0
ACAD_PROXY_OBJECT
  5
30
102
{ACAD_REACTORS
330
2A
102
}
330
2A
100
AcDbZombieObject
 90
      499
 91
      501
 93
      436
310
42CCD915DA5C99599C985B595059028333333333333E3BF0000000000000FB0107901411070040501600405405064090741402480A0340
1001
ACAD
1000
AcDbSavedByObjectVersion
1070
     0
  0
ACAD_PROXY_OBJECT
  5
32
102
{ACAD_REACTORS
330
2A
102
}
330
2A
100
AcDbZombieObject
 90
      499
 91
      501
 93
      388
310
4150985CDA58D07406404333333333333E3BF0000000000000FB0107A41107004050150841D405064090741402480A0350
1001
ACAD
1000
AcDbSavedByObjectVersion
1070
     0
  0
ACAD_PROXY_OBJECT
  5
36
102
{ACAD_REACTORS
330
2A
102
}
330
2A
100
AcDbZombieObject
 90
      499
 91
      501
 93
      428
310
42109C9A59DA1D195B90C409028333333333333E3BF0000000000000FB010790141107004050150841D405064090741402480A029950
1001
ACAD
1000
AcDbSavedByObjectVersion
1070
     0
  0
ACAD_PROXY_OBJECT
  5
3A
102
{ACAD_REACTORS
330
2A
102
}
330
2A
100
AcDbZombieObject
 90
      499
 91
      501
 93
      452
310
42D0DBDB1BDC90DA185B99D95104090240C333333333333E3BF0000000000000FB0108901411070040501508421405064090741402480A0350
1001
ACAD
1000
AcDbSavedByObjectVersion
1070
     0
  0
ACAD_PROXY_OBJECT
  5
34
102
{ACAD_REACTORS
330
2A
102
}
330
2A
100
AcDbZombieObject
 90
      499
 91
      501
 93
      500
310
4290DBDB98D95C1D1D585B10940D028333333333333E3BF0000000000000FB0107902409070040501000000000000111010841D405064090740C02480A0340
1001
ACAD
1000
AcDbSavedByObjectVersion
1070
     0
  0
ACAD_PROXY_OBJECT
  5
35
102
{ACAD_REACTORS
330
2A
102
}
330
2A
100
AcDbZombieObject
 90
      499
 91
      501
 93
      412
310
40D11A5B50B409028333333333333E3BF0000000000000FB010790141107004050150841D405064090741402480A02677FFFFFD0
1001
ACAD
1000
AcDbSavedByObjectVersion
1070
     0
  0
ACAD_PROXY_OBJECT
  5
39
102
{ACAD_REACTORS
330
2A
102
}
330
2A
100
AcDbZombieObject
 90
      499
 91
      501
 93
      444
310
42D19858D95C185D1D195C9B90F409028333333333333E3BF0000000000000FB010790141107004050150841D405064090741402480A0350
1001
ACAD
1000
AcDbSavedByObjectVersion
1070
     0
  0
ACAD_PROXY_OBJECT
  5
2B
102
{ACAD_REACTORS
330
2A
102
}
330
2A
100
AcDbZombieObject
 90
      499
 91
      501
 93
      388
310
41119B185D240901404333333333333E3BF0000000000000F9010740A41107004050150841D405064090741402480A1B50
1001
ACAD
1000
AcDbSavedByObjectVersion
1070
     0
  0
ACAD_PROXY_OBJECT
  5
2C
102
{ACAD_REACTORS
330
2A
102
}
330
2A
100
AcDbZombieObject
 90
      499
 91
      501
 93
      476
310
43519B185D15DA5D1A115919D95CD0140901404333333333333E3BF0000000000000F9010740901411070040501600405405064090741402480A1B50
1001
ACAD
1000
AcDbSavedByObjectVersion
1070
     0
  0
ACAD_PROXY_OBJECT
  5
2D
102
{ACAD_REACTORS
330
2A
102
}
330
2A
100
AcDbZombieObject
 90
      499
 91
      501
 93
      412
310
41D1DBDD5C985D5910240902404333333333333E3BF0000000000000F9010740A411070040501641D405064090741402480A1B50
1001
ACAD
1000
AcDbSavedByObjectVersion
1070
     0
  0
ACAD_PROXY_OBJECT
  5
2E
102
{ACAD_REACTORS
330
2A
102
}
330
2A
100
AcDbZombieObject
 90
      499
 91
      501
 93
      500
310
4411DBDD5C985D5915DA5D1A115919D95CD0340902404333333333333E3BF0000000000000F9010740901411070040501600405405064090741402480A1B50
1001
ACAD
1000
AcDbSavedByObjectVersion
1070
     0
  0
ACAD_PROXY_OBJECT
  5
38
102
{ACAD_REACTORS
330
2A
102
}
330
2A
100
AcDbZombieObject
 90
      499
 91
      501
 93
      444
310
42D31A5B995C185D1D195C9B90E409028333333333333E3BF0000000000000FB010790141107004050750841D405064090741402483A0350
1001
ACAD
1000
AcDbSavedByObjectVersion
1070
     0
  0
ACAD_PROXY_OBJECT
  5
33
102
{ACAD_REACTORS
330
2A
102
}
330
2A
100
AcDbZombieObject
 90
      499
 91
      501
 93
      420
310
425499585B1A5CDD1A58D08409028333333333333E3BF0000000000000FB01079019070040501508421405064090741402480A1B40
1001
ACAD
1000
AcDbSavedByObjectVersion
1070
     0
  0
ACAD_PROXY_OBJECT
  5
37
102
{ACAD_REACTORS
330
2A
102
}
330
2A
100
AcDbZombieObject
 90
      499
 91
      501
 93
      412
310
41D51A1A58DAD95B90D409028333333333333E3BF0000000000000FB010790141107004050150C41D405064090741402480A0350
1001
ACAD
1000
AcDbSavedByObjectVersion
1070
     0
  0
DICTIONARYVAR
  5
2A3
102
{ACAD_REACTORS
330
2A0
102
}
330
2A0
100
DictionaryVariables
280
     0
  1
1:1
  0
DICTIONARYVAR
  5
2A4
102
{ACAD_REACTORS
330
2A0
102
}
330
2A0
100
DictionaryVariables
280
     0
  1
2
  0
DICTIONARYVAR
  5
2A5
102
{ACAD_REACTORS
330
2A0
102
}
330
2A0
100
DictionaryVariables
280
     0
  1
1
  0
ENDSEC
  0
EOF
