  0
SECTION
  2
HEADER
  9
$ACADVER
  1
AC1012
  9
$DWGCODEPAGE
  3
ansi_1252
  9
$INSBASE
 10
0.0
 20
0.0
 30
0.0
  9
$EXTMIN
 10
0.0
 20
0.0
 30
0.0
  9
$EXTMAX
 10
11.0
 20
8.5
 30
0.0
  9
$LIMMIN
 10
0.0
 20
0.0
  9
$LIMMAX
 10
11.0
 20
8.5
  9
$ORTHOMODE
 70
     0
  9
$REGENMODE
 70
     1
  9
$FILLMODE
 70
     1
  9
$QTEXTMODE
 70
     0
  9
$MIRRTEXT
 70
     1
  9
$DRAGMODE
 70
     2
  9
$LTSCALE
 40
1.0
  9
$OSMODE
 70
    37
  9
$ATTMODE
 70
     1
  9
$TEXTSIZE
 40
0.125
  9
$TRACEWID
 40
0.05
  9
$TEXTSTYLE
  7
STANDARD
  9
$CLAYER
  8
0
  9
$CELTYPE
  6
BYLAYER
  9
$CECOLOR
 62
   256
  9
$CELTSCALE
 40
1.0
  9
$DELOBJ
 70
     1
  9
$DISPSILH
 70
     0
  9
$DIMSCALE
 40
1.0
  9
$DIMASZ
 40
0.13
  9
$DIMEXO
 40
0.05
  9
$DIMDLI
 40
0.38
  9
$DIMRND
 40
0.0
  9
$DIMDLE
 40
0.0
  9
$DIMEXE
 40
0.125
  9
$DIMTP
 40
0.0
  9
$DIMTM
 40
0.0
  9
$DIMTXT
 40
0.125
  9
$DIMCEN
 40
0.09
  9
$DIMTSZ
 40
0.0
  9
$DIMTOL
 70
     0
  9
$DIMLIM
 70
     0
  9
$DIMTIH
 70
     1
  9
$DIMTOH
 70
     1
  9
$DIMSE1
 70
     0
  9
$DIMSE2
 70
     0
  9
$DIMTAD
 70
     0
  9
$DIMZIN
 70
     0
  9
$DIMBLK
  1

  9
$DIMASO
 70
     1
  9
$DIMSHO
 70
     1
  9
$DIMPOST
  1

  9
$DIMAPOST
  1

  9
$DIMALT
 70
     0
  9
$DIMALTD
 70
     2
  9
$DIMALTF
 40
25.4
  9
$DIMLFAC
 40
1.0
  9
$DIMTOFL
 70
     0
  9
$DIMTVP
 40
0.0
  9
$DIMTIX
 70
     0
  9
$DIMSOXD
 70
     0
  9
$DIMSAH
 70
     0
  9
$DIMBLK1
  1

  9
$DIMBLK2
  1

  9
$DIMSTYLE
  2
STANDARD
  9
$DIMCLRD
 70
     0
  9
$DIMCLRE
 70
     0
  9
$DIMCLRT
 70
     0
  9
$DIMTFAC
 40
1.0
  9
$DIMGAP
 40
0.06
  9
$DIMJUST
 70
     0
  9
$DIMSD1
 70
     0
  9
$DIMSD2
 70
     0
  9
$DIMTOLJ
 70
     1
  9
$DIMTZIN
 70
     0
  9
$DIMALTZ
 70
     0
  9
$DIMALTTZ
 70
     0
  9
$DIMFIT
 70
     3
  9
$DIMUPT
 70
     0
  9
$DIMUNIT
 70
     2
  9
$DIMDEC
 70
     3
  9
$DIMTDEC
 70
     3
  9
$DIMALTU
 70
     2
  9
$DIMALTTD
 70
     2
  9
$DIMTXSTY
  7
STANDARD
  9
$DIMAUNIT
 70
     0
  9
$LUNITS
 70
     2
  9
$LUPREC
 70
     2
  9
$SKETCHINC
 40
0.1
  9
$FILLETRAD
 40
0.5
  9
$AUNITS
 70
     0
  9
$AUPREC
 70
     2
  9
$MENU
  1
.
  9
$ELEVATION
 40
0.0
  9
$PELEVATION
 40
0.0
  9
$THICKNESS
 40
0.0
  9
$LIMCHECK
 70
     0
  9
$CHAMFERA
 40
0.5
  9
$CHAMFERB
 40
0.5
  9
$CHAMFERC
 40
1.0
  9
$CHAMFERD
 40
0.0
  9
$SKPOLY
 70
     0
  9
$TDCREATE
 40
2455784.020425718
  9
$TDUPDATE
 40
2455784.020425729
  9
$TDINDWG
 40
0.0000000116
  9
$TDUSRTIMER
 40
0.0000000116
  9
$USRTIMER
 70
     1
  9
$ANGBASE
 50
0.0
  9
$ANGDIR
 70
     0
  9
$PDMODE
 70
     0
  9
$PDSIZE
 40
-1.0
  9
$PLINEWID
 40
0.0
  9
$COORDS
 70
     1
  9
$SPLFRAME
 70
     0
  9
$SPLINETYPE
 70
     6
  9
$SPLINESEGS
 70
     8
  9
$ATTDIA
 70
     0
  9
$ATTREQ
 70
     1
  9
$HANDLING
 70
     1
  9
$HANDSEED
  5
699
  9
$SURFTAB1
 70
     6
  9
$SURFTAB2
 70
     6
  9
$SURFTYPE
 70
     6
  9
$SURFU
 70
     6
  9
$SURFV
 70
     6
  9
$UCSNAME
  2

  9
$UCSORG
 10
0.0
 20
0.0
 30
0.0
  9
$UCSXDIR
 10
1.0
 20
0.0
 30
0.0
  9
$UCSYDIR
 10
0.0
 20
1.0
 30
0.0
  9
$PUCSNAME
  2

  9
$PUCSORG
 10
0.0
 20
0.0
 30
0.0
  9
$PUCSXDIR
 10
1.0
 20
0.0
 30
0.0
  9
$PUCSYDIR
 10
0.0
 20
1.0
 30
0.0
  9
$USERI1
 70
     0
  9
$USERI2
 70
     0
  9
$USERI3
 70
     0
  9
$USERI4
 70
     0
  9
$USERI5
 70
     0
  9
$USERR1
 40
0.0
  9
$USERR2
 40
0.0
  9
$USERR3
 40
0.0
  9
$USERR4
 40
0.0
  9
$USERR5
 40
0.0
  9
$WORLDVIEW
 70
     1
  9
$SHADEDGE
 70
     3
  9
$SHADEDIF
 70
    70
  9
$TILEMODE
 70
     1
  9
$MAXACTVP
 70
    64
  9
$PINSBASE
 10
0.0
 20
0.0
 30
0.0
  9
$PLIMCHECK
 70
     0
  9
$PEXTMIN
 10
1.0000000000E+20
 20
1.0000000000E+20
 30
1.0000000000E+20
  9
$PEXTMAX
 10
-1.0000000000E+20
 20
-1.0000000000E+20
 30
-1.0000000000E+20
  9
$PLIMMIN
 10
0.0
 20
0.0
  9
$PLIMMAX
 10
12.0
 20
9.0
  9
$UNITMODE
 70
     0
  9
$VISRETAIN
 70
     1
  9
$PLINEGEN
 70
     0
  9
$PSLTSCALE
 70
     1
  9
$TREEDEPTH
 70
  3020
  9
$PICKSTYLE
 70
     1
  9
$CMLSTYLE
  2
STANDARD
  9
$CMLJUST
 70
     0
  9
$CMLSCALE
 40
1.0
  9
$SAVEIMAGES
 70
     1
  0
ENDSEC
  0
SECTION
  2
CLASSES
  0
CLASS
  1
ACDBDICTIONARYWDFLT
  2
AcDbDictionaryWithDefault
  3
ObjectDBX Classes
 90
    32768
280
     0
281
     0
  0
CLASS
  1
VISUALSTYLE
  2
AcDbVisualStyle
  3
ObjectDBX Classes
 90
     4095
280
     0
281
     0
  0
CLASS
  1
SCALE
  2
AcDbScale
  3
ObjectDBX Classes
 90
     1153
280
     0
281
     0
  0
CLASS
  1
DICTIONARYVAR
  2
AcDbDictionaryVar
  3
ObjectDBX Classes
 90
        0
280
     0
281
     0
  0
CLASS
  1
XRECORD
  2
AcDbXrecord
  3
AutoCAD 2000
 90
    32768
280
     0
281
     0
  0
CLASS
  1
LWPOLYLINE
  2
AcDbPolyline
  3
AutoCAD 2000
 90
    32768
280
     0
281
     1
  0
CLASS
  1
HATCH
  2
AcDbHatch
  3
AutoCAD 2000
 90
    32768
280
     0
281
     1
  0
CLASS
  1
ACDBPLACEHOLDER
  2
AcDbPlaceHolder
  3
ObjectDBX Classes
 90
        0
280
     0
281
     0
  0
CLASS
  1
LAYOUT
  2
AcDbLayout
  3
ObjectDBX Classes
 90
        0
280
     0
281
     0
  0
ENDSEC
  0
SECTION
  2
TABLES
  0
TABLE
  2
VPORT
  5
8
330
0
100
AcDbSymbolTable
 70
     1
  0
VPORT
  5
29
330
8
100
AcDbSymbolTableRecord
100
AcDbViewportTableRecord
  2
*ACTIVE
 70
     0
 10
0.0
 20
0.0
 11
1.0
 21
1.0
 12
5.5
 22
4.25
 13
0.0
 23
0.0
 14
0.5
 24
0.5
 15
0.5
 25
0.5
 16
0.0
 26
0.0
 36
1.0
 17
0.0
 27
0.0
 37
0.0
 40
8.5
 41
1.2941176471
 42
50.0
 43
0.0
 44
0.0
 50
0.0
 51
0.0
 71
     0
 72
  2000
 73
     1
 74
     3
 75
     0
 76
     0
 77
     0
 78
     0
  0
ENDTAB
  0
TABLE
  2
LTYPE
  5
5
330
0
100
AcDbSymbolTable
 70
     6
  0
LTYPE
  5
14
330
5
100
AcDbSymbolTableRecord
100
AcDbLinetypeTableRecord
  2
BYBLOCK
 70
     0
  3

 72
    65
 73
     0
 40
0.0
  0
LTYPE
  5
15
330
5
100
AcDbSymbolTableRecord
100
AcDbLinetypeTableRecord
  2
BYLAYER
 70
     0
  3

 72
    65
 73
     0
 40
0.0
  0
LTYPE
  5
16
330
5
100
AcDbSymbolTableRecord
100
AcDbLinetypeTableRecord
  2
CONTINUOUS
 70
     0
  3
Solid line
 72
    65
 73
     0
 40
0.0
  0
LTYPE
  5
3B
330
5
100
AcDbSymbolTableRecord
100
AcDbLinetypeTableRecord
  2
HIDDEN
 70
     0
  3
Hidden __ __ __ __ __ __ __ __ __ __ __ __ __ __
 72
    65
 73
     2
 40
0.075
 49
0.05
 74
     0
 49
-0.025
 74
     0
  0
LTYPE
  5
3C
330
5
100
AcDbSymbolTableRecord
100
AcDbLinetypeTableRecord
  2
PHANTOM
 70
     0
  3
Phantom ______  __  __  ______  __  __  ______
 72
    65
 73
     6
 40
0.5
 49
0.25
 74
     0
 49
-0.05
 74
     0
 49
0.05
 74
     0
 49
-0.05
 74
     0
 49
0.05
 74
     0
 49
-0.05
 74
     0
  0
LTYPE
  5
3D
330
5
100
AcDbSymbolTableRecord
100
AcDbLinetypeTableRecord
  2
CENTER
 70
     0
  3
Center ____ _ ____ _ ____ _ ____ _ ____ _ ____
 72
    65
 73
     4
 40
0.4
 49
0.25
 74
     0
 49
-0.05
 74
     0
 49
0.05
 74
     0
 49
-0.05
 74
     0
  0
LTYPE
  5
3E
330
5
100
AcDbSymbolTableRecord
100
AcDbLinetypeTableRecord
  2
CENTERX2
 70
     0
  3
Center (2x) ________  __  ________  __  _____
 72
    65
 73
     4
 40
0.8
 49
0.5
 74
     0
 49
-0.1
 74
     0
 49
0.1
 74
     0
 49
-0.1
 74
     0
  0
LTYPE
  5
3F
330
5
100
AcDbSymbolTableRecord
100
AcDbLinetypeTableRecord
  2
DOT2
 70
     0
  3
Dot (.5x) ........................................
 72
    65
 73
     2
 40
0.025
 49
0.0
 74
     0
 49
-0.025
 74
     0
  0
ENDTAB
  0
TABLE
  2
LAYER
  5
2
330
0
100
AcDbSymbolTable
 70
     2
  0
LAYER
  5
10
330
2
100
AcDbSymbolTableRecord
100
AcDbLayerTableRecord
  2
0
 70
     0
 62
     7
  6
CONTINUOUS
  0
LAYER
  5
40
330
2
100
AcDbSymbolTableRecord
100
AcDbLayerTableRecord
  2
FORMAT
 70
     0
 62
     7
  6
CONTINUOUS
  0
ENDTAB
  0
TABLE
  2
STYLE
  5
3
330
0
100
AcDbSymbolTable
 70
     4
  0
STYLE
  5
11
330
3
100
AcDbSymbolTableRecord
100
AcDbTextStyleTableRecord
  2
STANDARD
 70
     0
 40
0.0
 41
1.0
 50
0.0
 71
     0
 42
0.2
  3
txt
  4

  0
STYLE
  5
6E
330
3
100
AcDbSymbolTableRecord
100
AcDbTextStyleTableRecord
  2
SLDTEXTSTYLE0
 70
     0
 40
0.0
 41
0.75
 50
0.0
 71
     0
 42
0.2
  3
TXT
  4

  0
STYLE
  5
93
330
3
100
AcDbSymbolTableRecord
100
AcDbTextStyleTableRecord
  2
SLDTEXTSTYLE1
 70
     0
 40
0.0
 41
0.6875
 50
0.0
 71
     0
 42
0.2
  3
TXT
  4

  0
STYLE
  5
99
330
3
100
AcDbSymbolTableRecord
100
AcDbTextStyleTableRecord
  2
SLDTEXTSTYLE2
 70
     0
 40
0.0
 41
0.6944444444
 50
0.0
 71
     0
 42
0.2
  3
TXT
  4

  0
ENDTAB
  0
TABLE
  2
VIEW
  5
6
330
0
100
AcDbSymbolTable
 70
     0
  0
ENDTAB
  0
TABLE
  2
UCS
  5
7
330
0
100
AcDbSymbolTable
 70
     0
  0
ENDTAB
  0
TABLE
  2
APPID
  5
9
330
0
100
AcDbSymbolTable
 70
     1
  0
APPID
  5
12
330
9
100
AcDbSymbolTableRecord
100
AcDbRegAppTableRecord
  2
ACAD
 70
     0
  0
ENDTAB
  0
TABLE
  2
DIMSTYLE
  5
A
330
0
100
AcDbSymbolTable
 70
     1
  0
DIMSTYLE
105
27
330
A
100
AcDbSymbolTableRecord
100
AcDbDimStyleTableRecord
  2
STANDARD
 70
     0
  3

  4

  5

  6

  7

 40
1.0
 41
0.18
 42
0.0625
 43
0.38
 44
0.18
 45
0.0
 46
0.0
 47
0.0
 48
0.0
140
0.18
141
0.09
142
0.0
143
25.4
144
1.0
145
0.0
146
1.0
147
0.09
 71
     0
 72
     0
 73
     1
 74
     1
 75
     0
 76
     0
 77
     0
 78
     0
170
     0
171
     2
172
     0
173
     0
174
     0
175
     0
176
     0
177
     0
178
     0
270
     2
271
     4
272
     4
273
     2
274
     2
340
11
275
     0
280
     0
281
     0
282
     0
283
     1
284
     0
285
     0
286
     0
287
     3
288
     0
  0
ENDTAB
  0
TABLE
  2
BLOCK_RECORD
  5
1
330
0
100
AcDbSymbolTable
 70
     4
  0
BLOCK_RECORD
  5
1F
330
1
100
AcDbSymbolTableRecord
100
AcDbBlockTableRecord
  2
*MODEL_SPACE
  0
BLOCK_RECORD
  5
1B
330
1
100
AcDbSymbolTableRecord
100
AcDbBlockTableRecord
  2
*PAPER_SPACE
  0
BLOCK_RECORD
  5
A8
330
1
100
AcDbSymbolTableRecord
100
AcDbBlockTableRecord
  2
SW_NOTE_0
  0
BLOCK_RECORD
  5
AE
330
1
100
AcDbSymbolTableRecord
100
AcDbBlockTableRecord
  2
SW_NOTE_1
  0
BLOCK_RECORD
  5
C2
330
1
100
AcDbSymbolTableRecord
100
AcDbBlockTableRecord
  2
SW_NOTE_2
  0
ENDTAB
  0
ENDSEC
  0
SECTION
  2
BLOCKS
  0
BLOCK
  5
20
330
1F
100
AcDbEntity
  8
0
100
AcDbBlockBegin
  2
*MODEL_SPACE
 70
     0
 10
0.0
 20
0.0
 30
0.0
  3
*MODEL_SPACE
  1

  0
ENDBLK
  5
21
330
1F
100
AcDbEntity
  8
0
100
AcDbBlockEnd
  0
BLOCK
  5
1C
330
1B
100
AcDbEntity
 67
     1
  8
0
100
AcDbBlockBegin
  2
*PAPER_SPACE
 70
     0
 10
0.0
 20
0.0
 30
0.0
  3
*PAPER_SPACE
  1

  0
ENDBLK
  5
1D
330
1B
100
AcDbEntity
 67
     1
  8
0
100
AcDbBlockEnd
  0
BLOCK
  5
A9
330
A8
100
AcDbEntity
  8
0
100
AcDbBlockBegin
  2
SW_NOTE_0
 70
     0
 10
0.0
 20
0.0
 30
0.0
  3
SW_NOTE_0
  1

  0
MTEXT
  5
AB
330
A8
100
AcDbEntity
  8
0
  6
CONTINUOUS
 62
     0
100
AcDbMText
 10
0.0
 20
0.0773440644
 30
0.0
 40
0.06
 41
0.0
 71
     1
 72
     1
  1
INTERPRET GEOMETRIC
  7
SLDTEXTSTYLE0
  0
MTEXT
  5
AC
330
A8
100
AcDbEntity
  8
0
  6
CONTINUOUS
 62
     0
100
AcDbMText
 10
0.0
 20
-0.0220260102
 30
0.0
 40
0.06
 41
0.0
 71
     1
 72
     1
  1
TOLERANCING PER:
  7
SLDTEXTSTYLE0
  0
ENDBLK
  5
AA
330
A8
100
AcDbEntity
  8
0
100
AcDbBlockEnd
  0
BLOCK
  5
AF
330
AE
100
AcDbEntity
  8
0
100
AcDbBlockBegin
  2
SW_NOTE_1
 70
     0
 10
0.0
 20
0.0
 30
0.0
  3
SW_NOTE_1
  1

  0
MTEXT
  5
B1
330
AE
100
AcDbEntity
  8
0
  6
CONTINUOUS
 62
     0
100
AcDbMText
 10
0.0
 20
0.0837894031
 30
0.0
 40
0.065
 41
0.0
 71
     1
 72
     1
  1
DIMENSIONS ARE IN INCHES
  7
SLDTEXTSTYLE0
  0
MTEXT
  5
B2
330
AE
100
AcDbEntity
  8
0
  6
CONTINUOUS
 62
     0
100
AcDbMText
 10
0.0
 20
-0.0205806729
 30
0.0
 40
0.065
 41
0.0
 71
     1
 72
     1
  1
TOLERANCES:
  7
SLDTEXTSTYLE0
  0
MTEXT
  5
B3
330
AE
100
AcDbEntity
  8
0
  6
CONTINUOUS
 62
     0
100
AcDbMText
 10
0.0
 20
-0.1249507489
 30
0.0
 40
0.065
 41
0.0
 71
     1
 72
     1
  1
FRACTIONAL
  7
SLDTEXTSTYLE0
  0
MTEXT
  5
B4
330
AE
100
AcDbEntity
  8
0
  6
CONTINUOUS
 62
     0
100
AcDbMText
 10
0.5175850875
 20
-0.1249507489
 30
0.0
 40
0.065
 41
0.0
 71
     1
 72
     1
  1
%%p
  7
SLDTEXTSTYLE0
  0
MTEXT
  5
B5
330
AE
100
AcDbEntity
  8
0
  6
CONTINUOUS
 62
     0
100
AcDbMText
 10
0.0
 20
-0.2293208248
 30
0.0
 40
0.065
 41
0.0
 71
     1
 72
     1
  1
ANGULAR: MACH
  7
SLDTEXTSTYLE0
  0
MTEXT
  5
B6
330
AE
100
AcDbEntity
  8
0
  6
CONTINUOUS
 62
     0
100
AcDbMText
 10
0.7233732769
 20
-0.2293208248
 30
0.0
 40
0.065
 41
0.0
 71
     1
 72
     1
  1
%%p
  7
SLDTEXTSTYLE0
  0
MTEXT
  5
B7
330
AE
100
AcDbEntity
  8
0
  6
CONTINUOUS
 62
     0
100
AcDbMText
 10
0.7852857683
 20
-0.2293208248
 30
0.0
 40
0.065
 41
0.0
 71
     1
 72
     1
  1
     BEND 
  7
SLDTEXTSTYLE0
  0
MTEXT
  5
B8
330
AE
100
AcDbEntity
  8
0
  6
CONTINUOUS
 62
     0
100
AcDbMText
 10
1.14784136
 20
-0.2293208248
 30
0.0
 40
0.065
 41
0.0
 71
     1
 72
     1
  1
%%p
  7
SLDTEXTSTYLE0
  0
MTEXT
  5
B9
330
AE
100
AcDbEntity
  8
0
  6
CONTINUOUS
 62
     0
100
AcDbMText
 10
0.0
 20
-0.3336909008
 30
0.0
 40
0.065
 41
0.0
 71
     1
 72
     1
  1
TWO PLACE DECIMAL    
  7
SLDTEXTSTYLE0
  0
MTEXT
  5
BA
330
AE
100
AcDbEntity
  8
0
  6
CONTINUOUS
 62
     0
100
AcDbMText
 10
0.9794349188
 20
-0.3336909008
 30
0.0
 40
0.065
 41
0.0
 71
     1
 72
     1
  1
%%p
  7
SLDTEXTSTYLE0
  0
MTEXT
  5
BB
330
AE
100
AcDbEntity
  8
0
  6
CONTINUOUS
 62
     0
100
AcDbMText
 10
0.0
 20
-0.4380609768
 30
0.0
 40
0.065
 41
0.0
 71
     1
 72
     1
  1
THREE PLACE DECIMAL  
  7
SLDTEXTSTYLE0
  0
MTEXT
  5
BC
330
AE
100
AcDbEntity
  8
0
  6
CONTINUOUS
 62
     0
100
AcDbMText
 10
0.9738038639
 20
-0.4380609768
 30
0.0
 40
0.065
 41
0.0
 71
     1
 72
     1
  1
%%p
  7
SLDTEXTSTYLE0
  0
ENDBLK
  5
B0
330
AE
100
AcDbEntity
  8
0
100
AcDbBlockEnd
  0
BLOCK
  5
C3
330
C2
100
AcDbEntity
  8
0
100
AcDbBlockBegin
  2
SW_NOTE_2
 70
     0
 10
0.0
 20
0.0
 30
0.0
  3
SW_NOTE_2
  1

  0
MTEXT
  5
C5
330
C2
100
AcDbEntity
  8
0
  6
CONTINUOUS
 62
     0
100
AcDbMText
 10
0.0
 20
0.0773440644
 30
0.0
 40
0.06
 41
0.0
 71
     1
 72
     1
  1
THE INFORMATION CONTAINED IN THIS
  7
SLDTEXTSTYLE0
  0
MTEXT
  5
C6
330
C2
100
AcDbEntity
  8
0
  6
CONTINUOUS
 62
     0
100
AcDbMText
 10
0.0
 20
-0.0220260102
 30
0.0
 40
0.06
 41
0.0
 71
     1
 72
     1
  1
DRAWING IS THE SOLE PROPERTY OF
  7
SLDTEXTSTYLE0
  0
MTEXT
  5
C7
330
C2
100
AcDbEntity
  8
0
  6
CONTINUOUS
 62
     0
100
AcDbMText
 10
0.0
 20
-0.1213960848
 30
0.0
 40
0.06
 41
0.0
 71
     1
 72
     1
  1
Candy Controls.  ANY 
  7
SLDTEXTSTYLE0
  0
MTEXT
  5
C8
330
C2
100
AcDbEntity
  8
0
  6
CONTINUOUS
 62
     0
100
AcDbMText
 10
0.0
 20
-0.2207661593
 30
0.0
 40
0.06
 41
0.0
 71
     1
 72
     1
  1
REPRODUCTION IN PART OR AS A WHOLE
  7
SLDTEXTSTYLE0
  0
MTEXT
  5
C9
330
C2
100
AcDbEntity
  8
0
  6
CONTINUOUS
 62
     0
100
AcDbMText
 10
0.0
 20
-0.3201362339
 30
0.0
 40
0.06
 41
0.0
 71
     1
 72
     1
  1
WITHOUT THE WRITTEN PERMISSION OF
  7
SLDTEXTSTYLE0
  0
MTEXT
  5
CA
330
C2
100
AcDbEntity
  8
0
  6
CONTINUOUS
 62
     0
100
AcDbMText
 10
0.0
 20
-0.4195063085
 30
0.0
 40
0.06
 41
0.0
 71
     1
 72
     1
  1
Candy Controls IS 
  7
SLDTEXTSTYLE0
  0
MTEXT
  5
CB
330
C2
100
AcDbEntity
  8
0
  6
CONTINUOUS
 62
     0
100
AcDbMText
 10
0.0
 20
-0.518876383
 30
0.0
 40
0.06
 41
0.0
 71
     1
 72
     1
  1
PROHIBITED.
  7
SLDTEXTSTYLE0
  0
ENDBLK
  5
C4
330
C2
100
AcDbEntity
  8
0
100
AcDbBlockEnd
  0
ENDSEC
  0
SECTION
  2
ENTITIES
  0
LINE
  5
41
330
1F
100
AcDbEntity
  8
0
  6
CONTINUOUS
 62
     7
100
AcDbLine
 10
0.329927
 20
8.1920731707
 30
0.0
 11
10.629927
 21
8.1920731707
 31
0.0
  0
LINE
  5
42
330
1F
100
AcDbEntity
  8
0
  6
CONTINUOUS
 62
     7
100
AcDbLine
 10
0.329927
 20
8.1920731707
 30
0.0
 11
0.329927
 21
0.3920731707
 31
0.0
  0
LINE
  5
43
330
1F
100
AcDbEntity
  8
0
  6
CONTINUOUS
 62
     7
100
AcDbLine
 10
10.629927
 20
0.3920731707
 30
0.0
 11
0.329927
 21
0.3920731707
 31
0.0
  0
LINE
  5
44
330
1F
100
AcDbEntity
  8
0
  6
CONTINUOUS
 62
     7
100
AcDbLine
 10
10.629927
 20
0.3920731707
 30
0.0
 11
10.629927
 21
8.1920731707
 31
0.0
  0
LINE
  5
45
330
1F
100
AcDbEntity
  8
0
  6
CONTINUOUS
 62
     7
100
AcDbLine
 10
4.7981841288
 20
0.3920731707
 30
0.0
 11
4.7981841288
 21
2.3564211366
 31
0.0
  0
LINE
  5
46
330
1F
100
AcDbEntity
  8
0
  6
CONTINUOUS
 62
     7
100
AcDbLine
 10
2.8210345579
 20
2.3564211366
 30
0.0
 11
10.629927
 21
2.3564211366
 31
0.0
  0
LINE
  5
47
330
1F
100
AcDbEntity
  8
0
  6
CONTINUOUS
 62
     7
100
AcDbLine
 10
6.1796352514
 20
2.3564211366
 30
0.0
 11
6.1796352514
 21
0.3920731707
 31
0.0
  0
LINE
  5
48
330
1F
100
AcDbEntity
  8
0
  6
CONTINUOUS
 62
     7
100
AcDbLine
 10
7.8712070044
 20
2.3564211366
 30
0.0
 11
7.8712070044
 21
0.3920731707
 31
0.0
  0
LINE
  5
49
330
1F
100
AcDbEntity
  8
0
  6
CONTINUOUS
 62
     7
100
AcDbLine
 10
7.8712070044
 20
0.6049590101
 30
0.0
 11
10.629927
 21
0.6049590101
 31
0.0
  0
LINE
  5
4A
330
1F
100
AcDbEntity
  8
0
  6
CONTINUOUS
 62
     7
100
AcDbLine
 10
7.8712070044
 20
1.1119362457
 30
0.0
 11
10.629927
 21
1.1119362457
 31
0.0
  0
LINE
  5
4B
330
1F
100
AcDbEntity
  8
0
  6
CONTINUOUS
 62
     7
100
AcDbLine
 10
7.8712070044
 20
1.9892703708
 30
0.0
 11
10.629927
 21
1.9892703708
 31
0.0
  0
LINE
  5
4C
330
1F
100
AcDbEntity
  8
0
  6
CONTINUOUS
 62
     7
100
AcDbLine
 10
8.266751752
 20
1.1119362457
 30
0.0
 11
8.266751752
 21
0.6049590101
 31
0.0
  0
LINE
  5
4D
330
1F
100
AcDbEntity
  8
0
  6
CONTINUOUS
 62
     7
100
AcDbLine
 10
8.6943435176
 20
0.6049590101
 30
0.0
 11
8.6943435176
 21
0.3920731707
 31
0.0
  0
LINE
  5
4E
330
1F
100
AcDbEntity
  8
0
  6
CONTINUOUS
 62
     7
100
AcDbLine
 10
10.0579917045
 20
1.1119362457
 30
0.0
 11
10.0579917045
 21
0.6049590101
 31
0.0
  0
LINE
  5
4F
330
1F
100
AcDbEntity
  8
0
  6
CONTINUOUS
 62
     7
100
AcDbLine
 10
9.6662556631
 20
0.6049590101
 30
0.0
 11
9.6662556631
 21
0.3920731707
 31
0.0
  0
LINE
  5
50
330
1F
100
AcDbEntity
  8
0
  6
CONTINUOUS
 62
     7
100
AcDbLine
 10
2.8210345579
 20
0.5883479999
 30
0.0
 11
6.1796352514
 21
0.5883479999
 31
0.0
  0
LINE
  5
51
330
1F
100
AcDbEntity
  8
0
  6
CONTINUOUS
 62
     7
100
AcDbLine
 10
6.1796352514
 20
1.7939211366
 30
0.0
 11
7.8712070044
 21
1.7939211366
 31
0.0
  0
LINE
  5
52
330
1F
100
AcDbEntity
  8
0
  6
CONTINUOUS
 62
     7
100
AcDbLine
 10
6.1796352514
 20
1.9814211366
 30
0.0
 11
7.8712070044
 21
1.9814211366
 31
0.0
  0
LINE
  5
53
330
1F
100
AcDbEntity
  8
0
  6
CONTINUOUS
 62
     7
100
AcDbLine
 10
6.1796352514
 20
2.1689211366
 30
0.0
 11
7.8712070044
 21
2.1689211366
 31
0.0
  0
LINE
  5
54
330
1F
100
AcDbEntity
  8
0
  6
CONTINUOUS
 62
     7
100
AcDbLine
 10
7.8712070044
 20
1.2314211366
 30
0.0
 11
6.1796352514
 21
1.2314211366
 31
0.0
  0
LINE
  5
55
330
1F
100
AcDbEntity
  8
0
  6
CONTINUOUS
 62
     7
100
AcDbLine
 10
7.3921580388
 20
2.3564211366
 30
0.0
 11
7.3921580388
 21
1.2314211366
 31
0.0
  0
LINE
  5
56
330
1F
100
AcDbEntity
  8
0
  6
CONTINUOUS
 62
     7
100
AcDbLine
 10
6.9236308342
 20
2.3564211366
 30
0.0
 11
6.9236308342
 21
1.2314211366
 31
0.0
  0
LINE
  5
57
330
1F
100
AcDbEntity
  8
0
  6
CONTINUOUS
 62
     7
100
AcDbLine
 10
4.7981841288
 20
0.8557965305
 30
0.0
 11
6.1796352514
 21
0.8557965305
 31
0.0
  0
LINE
  5
58
330
1F
100
AcDbEntity
  8
0
  6
CONTINUOUS
 62
     7
100
AcDbLine
 10
4.7981841288
 20
1.1257965305
 30
0.0
 11
6.1796352514
 21
1.1257965305
 31
0.0
  0
LINE
  5
59
330
1F
100
AcDbEntity
  8
0
  6
CONTINUOUS
 62
     7
100
AcDbLine
 10
2.8210345579
 20
0.3920731707
 30
0.0
 11
2.8210345579
 21
2.3564211366
 31
0.0
  0
LINE
  5
5A
330
1F
100
AcDbEntity
  8
0
  6
CONTINUOUS
 62
     7
100
AcDbLine
 10
2.8210345579
 20
1.1064211366
 30
0.0
 11
4.7981841288
 21
1.1064211366
 31
0.0
  0
LINE
  5
5B
330
1F
100
AcDbEntity
  8
0
  6
CONTINUOUS
 62
     7
100
AcDbLine
 10
2.8210345579
 20
1.3564211366
 30
0.0
 11
4.7981841288
 21
1.3564211366
 31
0.0
  0
LINE
  5
5C
330
1F
100
AcDbEntity
  8
0
  6
CONTINUOUS
 62
     7
100
AcDbLine
 10
2.8210345579
 20
1.6064211366
 30
0.0
 11
4.7981841288
 21
1.6064211366
 31
0.0
  0
LINE
  5
5D
330
1F
100
AcDbEntity
  8
0
  6
CONTINUOUS
 62
     7
100
AcDbLine
 10
2.8210345579
 20
1.8564211366
 30
0.0
 11
4.7981841288
 21
1.8564211366
 31
0.0
  0
LINE
  5
5E
330
1F
100
AcDbEntity
  8
0
  6
CONTINUOUS
 62
     7
100
AcDbLine
 10
3.8190146875
 20
2.3564211366
 30
0.0
 11
3.8190146875
 21
0.5883479999
 31
0.0
  0
LINE
  5
5F
330
1F
100
AcDbEntity
  8
0
  6
CONTINUOUS
 62
     7
100
AcDbLine
 10
6.1796352514
 20
2.2020813496
 30
0.0
 11
4.7981841288
 21
2.2020813496
 31
0.0
  0
LINE
  5
60
330
1F
100
AcDbEntity
  8
0
  6
CONTINUOUS
 62
     7
100
AcDbLine
 10
7.8712070044
 20
1.6064211366
 30
0.0
 11
6.1796352514
 21
1.6064211366
 31
0.0
  0
LINE
  5
61
330
1F
100
AcDbEntity
  8
0
  6
CONTINUOUS
 62
     7
100
AcDbLine
 10
7.8712070044
 20
1.4189211366
 30
0.0
 11
6.1796352514
 21
1.4189211366
 31
0.0
  0
LINE
  5
62
330
1F
100
AcDbEntity
  8
0
  6
CONTINUOUS
 62
     7
100
AcDbLine
 10
2.8210345579
 20
2.1064211366
 30
0.0
 11
4.7981841288
 21
2.1064211366
 31
0.0
  0
LINE
  5
63
330
1F
100
AcDbEntity
  8
0
  6
CONTINUOUS
 62
     7
100
AcDbLine
 10
4.7981841288
 20
1.3957965305
 30
0.0
 11
6.1796352514
 21
1.3957965305
 31
0.0
  0
LINE
  5
64
330
1F
100
AcDbEntity
  8
0
  6
CONTINUOUS
 62
     7
100
AcDbLine
 10
2.8210345579
 20
0.8564211366
 30
0.0
 11
4.7981841288
 21
0.8564211366
 31
0.0
  0
LINE
  5
65
330
1F
100
AcDbEntity
  8
0
  6
CONTINUOUS
 62
     7
100
AcDbLine
 10
1.1838252943
 20
0.3920731707
 30
0.0
 11
1.1838252943
 21
1.3064211366
 31
0.0
  0
LINE
  5
66
330
1F
100
AcDbEntity
  8
0
  6
CONTINUOUS
 62
     7
100
AcDbLine
 10
2.8210345579
 20
1.3064211366
 30
0.0
 11
1.1838252943
 21
1.3064211366
 31
0.0
  0
LINE
  5
67
330
1F
100
AcDbEntity
  8
0
  6
CONTINUOUS
 62
     7
100
AcDbLine
 10
8.660927
 20
0.3920731707
 30
0.0
 11
8.660927
 21
0.3072739649
 31
0.0
  0
LINE
  5
68
330
1F
100
AcDbEntity
  8
0
  6
CONTINUOUS
 62
     7
100
AcDbLine
 10
6.692177
 20
0.3920731707
 30
0.0
 11
6.692177
 21
0.3072739649
 31
0.0
  0
LINE
  5
69
330
1F
100
AcDbEntity
  8
0
  6
CONTINUOUS
 62
     7
100
AcDbLine
 10
4.723427
 20
0.3920731707
 30
0.0
 11
4.723427
 21
0.3072739649
 31
0.0
  0
LINE
  5
6A
330
1F
100
AcDbEntity
  8
0
  6
CONTINUOUS
 62
     7
100
AcDbLine
 10
2.754677
 20
0.3920731707
 30
0.0
 11
2.754677
 21
0.3072739649
 31
0.0
  0
LINE
  5
6B
330
1F
100
AcDbEntity
  8
0
  6
CONTINUOUS
 62
     7
100
AcDbLine
 10
2.754677
 20
0.3920731707
 30
0.0
 11
2.7672319738
 21
0.3575
 31
0.0
  0
LINE
  5
6C
330
1F
100
AcDbEntity
  8
0
  6
CONTINUOUS
 62
     7
100
AcDbLine
 10
2.7672319738
 20
0.3575
 30
0.0
 11
2.7414258825
 21
0.3575
 31
0.0
  0
LINE
  5
6D
330
1F
100
AcDbEntity
  8
0
  6
CONTINUOUS
 62
     7
100
AcDbLine
 10
2.7414258825
 20
0.3575
 30
0.0
 11
2.754677
 21
0.3920731707
 31
0.0
  0
MTEXT
  5
91
330
1F
100
AcDbEntity
  8
0
  6
CONTINUOUS
 62
     7
100
AcDbMText
 10
4.9775846961
 20
0.5178452352
 30
0.0
 40
0.0625
 41
0.0
 71
     1
 72
     1
  1
DO NOT SCALE DRAWING
  7
SLDTEXTSTYLE0
  0
MTEXT
  5
92
330
1F
100
AcDbEntity
  8
0
  6
CONTINUOUS
 62
     7
100
AcDbMText
 10
8.5722190088
 20
0.9417064595
 30
0.0
 40
0.125
 41
0.0
 71
     1
 72
     1
  1
CL4-50_CLAMP
  7
SLDTEXTSTYLE0
  0
MTEXT
  5
94
330
1F
100
AcDbEntity
  8
0
  6
CONTINUOUS
 62
     7
100
AcDbMText
 10
9.7571278483
 20
0.5524239532
 30
0.0
 40
0.1
 41
0.0
 71
     1
 72
     1
  1
SHEET 1 OF 1
  7
SLDTEXTSTYLE1
  0
MTEXT
  5
95
330
1F
100
AcDbEntity
  8
0
  6
CONTINUOUS
 62
     7
100
AcDbMText
 10
4.8448077858
 20
2.3132954224
 30
0.0
 40
0.07
 41
0.0
 71
     1
 72
     1
  1
UNLESS OTHERWISE SPECIFIED:
  7
SLDTEXTSTYLE0
  0
MTEXT
  5
96
330
1F
100
AcDbEntity
  8
0
  6
CONTINUOUS
 62
     7
100
AcDbMText
 10
7.9586139647
 20
0.5520987879
 30
0.0
 40
0.1
 41
0.0
 71
     1
 72
     1
  1
SCALE: 1:1
  7
SLDTEXTSTYLE0
  0
MTEXT
  5
97
330
1F
100
AcDbEntity
  8
0
  6
CONTINUOUS
 62
     7
100
AcDbMText
 10
8.7023691647
 20
0.5486763345
 30
0.0
 40
0.1
 41
0.0
 71
     1
 72
     1
  1
WEIGHT: 
  7
SLDTEXTSTYLE0
  0
MTEXT
  5
98
330
1F
100
AcDbEntity
  8
0
  6
CONTINUOUS
 62
     7
100
AcDbMText
 10
10.2277580983
 20
1.081966299
 30
0.0
 40
0.1
 41
0.0
 71
     1
 72
     1
  1
REV
  7
SLDTEXTSTYLE0
  0
MTEXT
  5
9A
330
1F
100
AcDbEntity
  8
0
  6
CONTINUOUS
 62
     7
100
AcDbMText
 10
8.2984570898
 20
1.0858725293
 30
0.0
 40
0.1
 41
0.0
 71
     1
 72
     1
  1
DWG.  NO.
  7
SLDTEXTSTYLE2
  0
MTEXT
  5
9B
330
1F
100
AcDbEntity
  8
0
  6
CONTINUOUS
 62
     7
100
AcDbMText
 10
7.9598482632
 20
0.9442140768
 30
0.0
 40
0.25
 41
0.0
 71
     1
 72
     1
  1
A
  7
SLDTEXTSTYLE0
  0
MTEXT
  5
9C
330
1F
100
AcDbEntity
  8
0
  6
CONTINUOUS
 62
     7
100
AcDbMText
 10
7.9519581822
 20
1.0872713483
 30
0.0
 40
0.1
 41
0.0
 71
     1
 72
     1
  1
SIZE
  7
SLDTEXTSTYLE0
  0
MTEXT
  5
9D
330
1F
100
AcDbEntity
  8
0
  6
CONTINUOUS
 62
     7
100
AcDbMText
 10
7.9170704177
 20
1.9547881128
 30
0.0
 40
0.1
 41
0.0
 71
     1
 72
     1
  1
TITLE:
  7
SLDTEXTSTYLE0
  0
MTEXT
  5
9E
330
1F
100
AcDbEntity
  8
0
  6
CONTINUOUS
 62
     7
100
AcDbMText
 10
7.0363774929
 20
2.2906161274
 30
0.0
 40
0.065
 41
0.0
 71
     1
 72
     1
  1
NAME
  7
SLDTEXTSTYLE0
  0
MTEXT
  5
9F
330
1F
100
AcDbEntity
  8
0
  6
CONTINUOUS
 62
     7
100
AcDbMText
 10
7.5281510634
 20
2.2888799118
 30
0.0
 40
0.065
 41
0.0
 71
     1
 72
     1
  1
DATE
  7
SLDTEXTSTYLE0
  0
MTEXT
  5
A0
330
1F
100
AcDbEntity
  8
0
  6
CONTINUOUS
 62
     7
100
AcDbMText
 10
6.2277147029
 20
1.1876913145
 30
0.0
 40
0.065
 41
0.0
 71
     1
 72
     1
  1
COMMENTS:
  7
SLDTEXTSTYLE0
  0
MTEXT
  5
A1
330
1F
100
AcDbEntity
  8
0
  6
CONTINUOUS
 62
     7
100
AcDbMText
 10
6.2268411461
 20
1.3536101679
 30
0.0
 40
0.065
 41
0.0
 71
     1
 72
     1
  1
Q.A.
  7
SLDTEXTSTYLE0
  0
MTEXT
  5
A2
330
1F
100
AcDbEntity
  8
0
  6
CONTINUOUS
 62
     7
100
AcDbMText
 10
6.2284654509
 20
1.5395328424
 30
0.0
 40
0.065
 41
0.0
 71
     1
 72
     1
  1
MFG APPR.
  7
SLDTEXTSTYLE0
  0
MTEXT
  5
A3
330
1F
100
AcDbEntity
  8
0
  6
CONTINUOUS
 62
     7
100
AcDbMText
 10
6.2235171344
 20
1.7267501785
 30
0.0
 40
0.065
 41
0.0
 71
     1
 72
     1
  1
ENG APPR.
  7
SLDTEXTSTYLE0
  0
MTEXT
  5
A4
330
1F
100
AcDbEntity
  8
0
  6
CONTINUOUS
 62
     7
100
AcDbMText
 10
6.2264103951
 20
1.9092699088
 30
0.0
 40
0.065
 41
0.0
 71
     1
 72
     1
  1
CHECKED
  7
SLDTEXTSTYLE0
  0
MTEXT
  5
A5
330
1F
100
AcDbEntity
  8
0
  6
CONTINUOUS
 62
     7
100
AcDbMText
 10
6.2242794356
 20
2.1016301232
 30
0.0
 40
0.065
 41
0.0
 71
     1
 72
     1
  1
DRAWN
  7
SLDTEXTSTYLE0
  0
MTEXT
  5
A6
330
1F
100
AcDbEntity
  8
0
  6
CONTINUOUS
 62
     7
100
AcDbMText
 10
4.8208600979
 20
0.834523235
 30
0.0
 40
0.06
 41
0.0
 71
     1
 72
     1
  1
FINISH
  7
SLDTEXTSTYLE0
  0
MTEXT
  5
A7
330
1F
100
AcDbEntity
  8
0
  6
CONTINUOUS
 62
     7
100
AcDbMText
 10
4.8181240648
 20
1.1028217587
 30
0.0
 40
0.06
 41
0.0
 71
     1
 72
     1
  1
MATERIAL
  7
SLDTEXTSTYLE0
  0
INSERT
  5
AD
330
1F
100
AcDbEntity
  8
0
  6
CONTINUOUS
 62
     7
100
AcDbBlockReference
  2
SW_NOTE_0
 10
4.8231926633
 20
1.2646542947
 30
0.0
  0
INSERT
  5
BD
330
1F
100
AcDbEntity
  8
0
  6
CONTINUOUS
 62
     7
100
AcDbBlockReference
  2
SW_NOTE_1
 10
4.8353339353
 20
2.0049168724
 30
0.0
  0
MTEXT
  5
BE
330
1F
100
AcDbEntity
  8
0
  6
CONTINUOUS
 62
     7
100
AcDbMText
 10
3.5531400086
 20
0.5200091997
 30
0.0
 40
0.0625
 41
0.0
 71
     1
 72
     1
  1
APPLICATION
  7
SLDTEXTSTYLE0
  0
MTEXT
  5
BF
330
1F
100
AcDbEntity
  8
0
  6
CONTINUOUS
 62
     7
100
AcDbMText
 10
4.1005607758
 20
0.7502454275
 30
0.0
 40
0.0625
 41
0.0
 71
     1
 72
     1
  1
USED ON
  7
SLDTEXTSTYLE0
  0
MTEXT
  5
C0
330
1F
100
AcDbEntity
  8
0
  6
CONTINUOUS
 62
     7
100
AcDbMText
 10
3.1040019536
 20
0.7492094783
 30
0.0
 40
0.0625
 41
0.0
 71
     1
 72
     1
  1
NEXT ASSY
  7
SLDTEXTSTYLE0
  0
MTEXT
  5
C1
330
1F
100
AcDbEntity
  8
0
  6
CONTINUOUS
 62
     7
100
AcDbMText
 10
1.3712489489
 20
1.2496672684
 30
0.0
 40
0.06
 41
0.0
 71
     1
 72
     1
  1
PROPRIETARY AND CONFIDENTIAL
  7
SLDTEXTSTYLE0
  0
INSERT
  5
CC
330
1F
100
AcDbEntity
  8
0
  6
CONTINUOUS
 62
     7
100
AcDbBlockReference
  2
SW_NOTE_2
 10
1.2226209074
 20
1.0313492921
 30
0.0
  0
MTEXT
  5
CD
330
1F
100
AcDbEntity
  8
0
  6
CONTINUOUS
 62
     7
100
AcDbMText
 10
1.7387909509
 20
0.3105864247
 30
0.0
 40
0.09375
 41
0.0
 71
     1
 72
     1
  1
5
  7
SLDTEXTSTYLE0
  0
MTEXT
  5
CE
330
1F
100
AcDbEntity
  8
0
  6
CONTINUOUS
 62
     7
100
AcDbMText
 10
3.723800327
 20
0.3137237518
 30
0.0
 40
0.09375
 41
0.0
 71
     1
 72
     1
  1
4
  7
SLDTEXTSTYLE0
  0
MTEXT
  5
CF
330
1F
100
AcDbEntity
  8
0
  6
CONTINUOUS
 62
     7
100
AcDbMText
 10
5.6324457277
 20
0.3116191842
 30
0.0
 40
0.09375
 41
0.0
 71
     1
 72
     1
  1
3
  7
SLDTEXTSTYLE0
  0
MTEXT
  5
D0
330
1F
100
AcDbEntity
  8
0
  6
CONTINUOUS
 62
     7
100
AcDbMText
 10
7.6059721724
 20
0.3124391351
 30
0.0
 40
0.09375
 41
0.0
 71
     1
 72
     1
  1
2
  7
SLDTEXTSTYLE0
  0
MTEXT
  5
D1
330
1F
100
AcDbEntity
  8
0
  6
CONTINUOUS
 62
     7
100
AcDbMText
 10
9.6619921328
 20
0.301372012
 30
0.0
 40
0.09375
 41
0.0
 71
     1
 72
     1
  1
1
  7
SLDTEXTSTYLE0
  0
LINE
  5
D2
330
1F
100
AcDbEntity
  8
0
  6
CONTINUOUS
 62
     7
100
AcDbLine
 10
3.8679746861
 20
2.7744263179
 30
0.0
 11
4.4486833475
 21
2.7744263179
 31
0.0
  0
LINE
  5
D3
330
1F
100
AcDbEntity
  8
0
  6
CONTINUOUS
 62
     7
100
AcDbLine
 10
3.6022266546
 20
2.7744263179
 30
0.0
 11
3.8482896467
 21
2.7744263179
 31
0.0
  0
LINE
  5
D4
330
1F
100
AcDbEntity
  8
0
  6
CONTINUOUS
 62
     7
100
AcDbLine
 10
3.8482896467
 20
4.7429302549
 30
0.0
 11
3.6022266546
 21
4.7429302549
 31
0.0
  0
LINE
  5
D5
330
1F
100
AcDbEntity
  8
0
  6
CONTINUOUS
 62
     7
100
AcDbLine
 10
4.4486833475
 20
4.7429302549
 30
0.0
 11
3.8679746861
 21
4.7429302549
 31
0.0
  0
LINE
  5
D6
330
1F
100
AcDbEntity
  8
0
  6
CONTINUOUS
 62
     7
100
AcDbLine
 10
4.4486833475
 20
2.7744263179
 30
0.0
 11
4.4683683868
 21
2.7941113573
 31
0.0
  0
LINE
  5
D7
330
1F
100
AcDbEntity
  8
0
  6
CONTINUOUS
 62
     7
100
AcDbLine
 10
4.4683683868
 20
4.7232452155
 30
0.0
 11
4.4486833475
 21
4.7429302549
 31
0.0
  0
LINE
  5
D8
330
1F
100
AcDbEntity
  8
0
  6
CONTINUOUS
 62
     7
100
AcDbLine
 10
3.6022266546
 20
4.7429302549
 30
0.0
 11
3.5825416152
 21
4.7232452155
 31
0.0
  0
LINE
  5
D9
330
1F
100
AcDbEntity
  8
0
  6
CONTINUOUS
 62
     7
100
AcDbLine
 10
3.5825416152
 20
2.7941113573
 30
0.0
 11
3.6022266546
 21
2.7744263179
 31
0.0
  0
LINE
  5
DA
330
1F
100
AcDbEntity
  8
0
  6
CONTINUOUS
 62
     7
100
AcDbLine
 10
2.9132502766
 20
2.7744263179
 30
0.0
 11
3.5628565758
 21
2.7744263179
 31
0.0
  0
LINE
  5
DB
330
1F
100
AcDbEntity
  8
0
  6
CONTINUOUS
 62
     7
100
AcDbLine
 10
3.5628565758
 20
4.7429302549
 30
0.0
 11
2.9132502766
 21
4.7429302549
 31
0.0
  0
LINE
  5
DC
330
1F
100
AcDbEntity
  8
0
  6
CONTINUOUS
 62
     7
100
AcDbLine
 10
2.9132502766
 20
4.7429302549
 30
0.0
 11
2.8935652372
 21
4.7232452155
 31
0.0
  0
LINE
  5
DD
330
1F
100
AcDbEntity
  8
0
  6
CONTINUOUS
 62
     7
100
AcDbLine
 10
2.8935652372
 20
2.7941113573
 30
0.0
 11
2.9132502766
 21
2.7744263179
 31
0.0
  0
LINE
  5
DE
330
1F
100
AcDbEntity
  8
0
  6
CONTINUOUS
 62
     7
100
AcDbLine
 10
3.5628565758
 20
2.7744263179
 30
0.0
 11
3.5825416152
 21
2.7941113573
 31
0.0
  0
LINE
  5
DF
330
1F
100
AcDbEntity
  8
0
  6
CONTINUOUS
 62
     7
100
AcDbLine
 10
3.5825416152
 20
4.7232452155
 30
0.0
 11
3.5628565758
 21
4.7429302549
 31
0.0
  0
ARC
  5
E0
330
1F
100
AcDbEntity
  8
0
  6
CONTINUOUS
 62
     7
100
AcDbCircle
 10
3.9663998829
 20
4.4771822234
 30
0.0
 40
0.0098425196850398
100
AcDbArc
 50
90.0
 51
129.8487510623
  0
ARC
  5
E1
330
1F
100
AcDbEntity
  8
0
  6
CONTINUOUS
 62
     7
100
AcDbCircle
 10
4.3404156309
 20
4.4771822234
 30
0.0
 40
0.0098425196850398
100
AcDbArc
 50
50.6100054314
 51
90.0
  0
LINE
  5
E2
330
1F
100
AcDbEntity
  8
0
  6
CONTINUOUS
 62
     7
100
AcDbLine
 10
4.2715179931
 20
3.7488357667
 30
0.0
 11
4.2715179931
 21
3.7685208061
 31
0.0
  0
LINE
  5
E3
330
1F
100
AcDbEntity
  8
0
  6
CONTINUOUS
 62
     7
100
AcDbLine
 10
4.0352975207
 20
3.7685208061
 30
0.0
 11
4.0352975207
 21
3.7488357667
 31
0.0
  0
LINE
  5
E4
330
1F
100
AcDbEntity
  8
0
  6
CONTINUOUS
 62
     7
100
AcDbLine
 10
2.8935652372
 20
4.7429302549
 30
0.0
 11
2.2045888593
 21
4.7429302549
 31
0.0
  0
LINE
  5
E5
330
1F
100
AcDbEntity
  8
0
  6
CONTINUOUS
 62
     7
100
AcDbLine
 10
2.8049825601
 20
2.7744263179
 30
0.0
 11
2.8738801979
 21
2.7744263179
 31
0.0
  0
LINE
  5
E6
330
1F
100
AcDbEntity
  8
0
  6
CONTINUOUS
 62
     7
100
AcDbLine
 10
2.2045888593
 20
4.7429302549
 30
0.0
 11
2.1849038199
 21
4.7232452155
 31
0.0
  0
LINE
  5
E7
330
1F
100
AcDbEntity
  8
0
  6
CONTINUOUS
 62
     7
100
AcDbLine
 10
2.8738801979
 20
2.7744263179
 30
0.0
 11
2.8935652372
 21
2.7941113573
 31
0.0
  0
LINE
  5
E8
330
1F
100
AcDbEntity
  8
0
  6
CONTINUOUS
 62
     7
100
AcDbLine
 10
3.7793920089
 20
4.6110654948
 30
0.0
 11
3.7793920089
 21
2.9062910779
 31
0.0
  0
SPLINE
  5
E9
330
1F
100
AcDbEntity
  8
0
  6
CONTINUOUS
 62
     7
100
AcDbSpline
210
0.0
220
0.0
230
1.0
 70
     8
 71
     3
 72
     8
 73
     4
 74
     0
 42
0.00000001
 43
0.00000001
 40
0.0
 40
0.0
 40
0.0
 40
0.0
 40
0.0007652584238459
 40
0.0007652584238459
 40
0.0007652584238459
 40
0.0007652584238459
 10
3.779392008896365
 20
2.906291077942797
 30
0.0
 10
3.772817478237429
 20
2.913882692034261
 30
0.0
 10
3.766255477952758
 20
2.921485178546134
 30
0.0
 10
3.759706969526285
 20
2.929099250734353
 30
0.0
  0
LINE
  5
EA
330
1F
100
AcDbEntity
  8
0
  6
CONTINUOUS
 62
     7
100
AcDbLine
 10
3.7597069695
 20
2.9290992507
 30
0.0
 11
3.7597069695
 21
4.588257322
 31
0.0
  0
SPLINE
  5
EB
330
1F
100
AcDbEntity
  8
0
  6
CONTINUOUS
 62
     7
100
AcDbSpline
210
0.0
220
0.0
230
1.0
 70
     8
 71
     3
 72
     8
 73
     4
 74
     0
 42
0.00000001
 43
0.00000001
 40
0.0
 40
0.0
 40
0.0
 40
0.0
 40
0.0007652584238459
 40
0.0007652584238459
 40
0.0007652584238459
 40
0.0007652584238459
 10
3.759706969526285
 20
4.588257322049741
 30
0.0
 10
3.766255477952758
 20
4.59587139423796
 30
0.0
 10
3.772817478237429
 20
4.603473880749833
 30
0.0
 10
3.779392008896365
 20
4.611065494841298
 30
0.0
  0
LINE
  5
EC
330
1F
100
AcDbEntity
  8
0
  6
CONTINUOUS
 62
     7
100
AcDbLine
 10
3.6022266546
 20
4.6110654948
 30
0.0
 11
3.7793920089
 21
4.6110654948
 31
0.0
  0
LINE
  5
ED
330
1F
100
AcDbEntity
  8
0
  6
CONTINUOUS
 62
     7
100
AcDbLine
 10
3.6022266546
 20
4.7429302549
 30
0.0
 11
3.6022266546
 21
4.6110654948
 31
0.0
  0
LINE
  5
EE
330
1F
100
AcDbEntity
  8
0
  6
CONTINUOUS
 62
     7
100
AcDbLine
 10
3.6022266546
 20
2.9062910779
 30
0.0
 11
3.6022266546
 21
2.7744263179
 31
0.0
  0
LINE
  5
EF
330
1F
100
AcDbEntity
  8
0
  6
CONTINUOUS
 62
     7
100
AcDbLine
 10
3.7793920089
 20
2.9062910779
 30
0.0
 11
3.6022266546
 21
2.9062910779
 31
0.0
  0
LINE
  5
F0
330
1F
100
AcDbEntity
  8
0
  6
CONTINUOUS
 62
     7
100
AcDbLine
 10
4.4486833475
 20
3.7685208061
 30
0.0
 11
3.8679746861
 21
3.7685208061
 31
0.0
  0
LINE
  5
F1
330
1F
100
AcDbEntity
  8
0
  6
CONTINUOUS
 62
     7
100
AcDbLine
 10
3.8679746861
 20
4.7429302549
 30
0.0
 11
3.8679746861
 21
3.7685208061
 31
0.0
  0
LINE
  5
F2
330
1F
100
AcDbEntity
  8
0
  6
CONTINUOUS
 62
     7
100
AcDbLine
 10
3.8482896467
 20
4.7035601762
 30
0.0
 11
3.8679746861
 21
4.7035601762
 31
0.0
  0
LINE
  5
F3
330
1F
100
AcDbEntity
  8
0
  6
CONTINUOUS
 62
     7
100
AcDbLine
 10
3.8679746861
 20
2.8137963966
 30
0.0
 11
3.8482896467
 21
2.8137963966
 31
0.0
  0
LINE
  5
F4
330
1F
100
AcDbEntity
  8
0
  6
CONTINUOUS
 62
     7
100
AcDbLine
 10
3.8679746861
 20
3.7488357667
 30
0.0
 11
3.8679746861
 21
2.7744263179
 31
0.0
  0
LINE
  5
F5
330
1F
100
AcDbEntity
  8
0
  6
CONTINUOUS
 62
     7
100
AcDbLine
 10
4.4486833475
 20
3.7488357667
 30
0.0
 11
3.8679746861
 21
3.7488357667
 31
0.0
  0
LINE
  5
F6
330
1F
100
AcDbEntity
  8
0
  6
CONTINUOUS
 62
     7
100
AcDbLine
 10
4.4486833475
 20
3.7685208061
 30
0.0
 11
4.4486833475
 21
4.7429302549
 31
0.0
  0
LINE
  5
F7
330
1F
100
AcDbEntity
  8
0
  6
CONTINUOUS
 62
     7
100
AcDbLine
 10
4.4486833475
 20
2.7744263179
 30
0.0
 11
4.4486833475
 21
3.7488357667
 31
0.0
  0
SPLINE
  5
F8
330
1F
100
AcDbEntity
  8
0
  6
CONTINUOUS
 62
     7
100
AcDbSpline
210
0.0
220
0.0
230
1.0
 70
     8
 71
     3
 72
    62
 73
    58
 74
     0
 42
0.00000001
 43
0.00000001
 40
-0.03125
 40
-0.03125
 40
0.0
 40
0.0
 40
0.0312500000000003
 40
0.0312500000000003
 40
0.0625000000000005
 40
0.0625000000000005
 40
0.0937500000000008
 40
0.0937500000000008
 40
0.125000000000001
 40
0.125000000000001
 40
0.1875000000000016
 40
0.1875000000000016
 40
0.2187500000000018
 40
0.2187500000000018
 40
0.2500000000000021
 40
0.2500000000000021
 40
0.3125000000000015
 40
0.3125000000000015
 40
0.3750000000000009
 40
0.3750000000000009
 40
0.4062500000000008
 40
0.4062500000000008
 40
0.4375000000000006
 40
0.4375000000000006
 40
0.4687500000000004
 40
0.4687500000000004
 40
0.4843750000000006
 40
0.4843750000000006
 40
0.5000000000000007
 40
0.5000000000000007
 40
0.5312500000000004
 40
0.5312500000000004
 40
0.5625000000000003
 40
0.5625000000000003
 40
0.5937500000000001
 40
0.5937500000000001
 40
0.6249999999999999
 40
0.6249999999999999
 40
0.6562499999999998
 40
0.6562499999999998
 40
0.6874999999999996
 40
0.6874999999999996
 40
0.7499999999999993
 40
0.7499999999999993
 40
0.8124999999999992
 40
0.8124999999999992
 40
0.8437499999999993
 40
0.8437499999999993
 40
0.8749999999999996
 40
0.8749999999999996
 40
0.9062499999999997
 40
0.9062499999999997
 40
0.9374999999999998
 40
0.9374999999999998
 40
0.96875
 40
0.96875
 40
1.0
 40
1.0
 40
1.03125
 40
1.03125
 10
4.144290435723085
 20
3.118990223034884
 30
0.0
 10
4.162525078132634
 20
3.118990223034884
 30
0.0
 10
4.171326034549998
 20
3.117769328000576
 30
0.0
 10
4.188378059266149
 20
3.11323166215849
 30
0.0
 10
4.196383861984307
 20
3.109963228222833
 30
0.0
 10
4.211089593124215
 20
3.102143394798023
 30
0.0
 10
4.217820329716876
 20
3.097577162190703
 30
0.0
 10
4.229872796194166
 20
3.087832538709005
 30
0.0
 10
4.235281824005154
 20
3.082599491988913
 30
0.0
 10
4.249909923408288
 20
3.066105388344153
 30
0.0
 10
4.25715329660427
 20
3.054591241182587
 30
0.0
 10
4.264986213792871
 20
3.036915558227518
 30
0.0
 10
4.267067737242868
 20
3.030936387347026
 30
0.0
 10
4.270064758340824
 20
3.019172378879546
 30
0.0
 10
4.271001265150242
 20
3.013346926504004
 30
0.0
 10
4.272068723629865
 20
2.996046208404672
 30
0.0
 10
4.270411216960508
 20
2.984669831054342
 30
0.0
 10
4.2617120167131
 20
2.963742330162183
 30
0.0
 10
4.254524525553377
 20
2.953917171297668
 30
0.0
 10
4.239369038982107
 20
2.941417900356553
 30
0.0
 10
4.233477668711366
 20
2.937539968519118
 30
0.0
 10
4.220488021466366
 20
2.930796451945816
 30
0.0
 10
4.213393936816798
 20
2.927902927338821
 30
0.0
 10
4.19788170030768
 20
2.92309297846729
 30
0.0
 10
4.189442157172027
 20
2.921199381600467
 30
0.0
 10
4.17653166429586
 20
2.919306644299759
 30
0.0
 10
4.17215416848342
 20
2.918823774199572
 30
0.0
 10
4.163245558847199
 20
2.91816111252149
 30
0.0
 10
4.158680416489726
 20
2.917982627289388
 30
0.0
 10
4.145142098350553
 20
2.917929600068328
 30
0.0
 10
4.136242773894807
 20
2.918513960003273
 30
0.0
 10
4.118695408405826
 20
2.920937321135551
 30
0.0
 10
4.110334458032465
 20
2.92274449840292
 30
0.0
 10
4.094641692691186
 20
2.927452049547197
 30
0.0
 10
4.087283639816162
 20
2.930376605495931
 30
0.0
 10
4.074132034478668
 20
2.937060723919954
 30
0.0
 10
4.068186270839826
 20
2.94089416648195
 30
0.0
 10
4.057890357483092
 20
2.949222989550547
 30
0.0
 10
4.053517288752892
 20
2.953711207675172
 30
0.0
 10
4.046156080298252
 20
2.963330555698315
 30
0.0
 10
4.043219117548933
 20
2.968410706028493
 30
0.0
 10
4.036515985189606
 20
2.984150935781351
 30
0.0
 10
4.034781147128647
 20
2.995525349133296
 30
0.0
 10
4.03607895362141
 20
3.018670863828309
 30
0.0
 10
4.039120734506036
 20
3.030698167331916
 30
0.0
 10
4.046860101539117
 20
3.048318248752937
 30
0.0
 10
4.049973264261488
 20
3.054149607720873
 30
0.0
 10
4.057349156371782
 20
3.065688399103254
 30
0.0
 10
4.061643306130582
 20
3.071424946793378
 30
0.0
 10
4.071301937136524
 20
3.082359845167805
 30
0.0
 10
4.076680133466433
 20
3.08759709948724
 30
0.0
 10
4.088790364738378
 20
3.097433822298572
 30
0.0
 10
4.095534489643677
 20
3.10202110734602
 30
0.0
 10
4.110169098467112
 20
3.109843481750711
 30
0.0
 10
4.118259296339395
 20
3.113164959566749
 30
0.0
 10
4.135236285401461
 20
3.117720760705515
 30
0.0
 10
4.144290435723085
 20
3.118990223034884
 30
0.0
 10
4.162525078132634
 20
3.118990223034884
 30
0.0
  0
SPLINE
  5
F9
330
1F
100
AcDbEntity
  8
0
  6
CONTINUOUS
 62
     7
100
AcDbSpline
210
0.0
220
0.0
230
1.0
 70
     8
 71
     3
 72
    88
 73
    84
 74
     0
 42
0.00000001
 43
0.00000001
 40
-0.0312499999999999
 40
-0.0312499999999999
 40
0.0
 40
0.0
 40
0.0312500000000001
 40
0.0312500000000001
 40
0.0468750000000003
 40
0.0468750000000003
 40
0.0625000000000005
 40
0.0625000000000005
 40
0.0781250000000007
 40
0.0781250000000007
 40
0.0937500000000009
 40
0.0937500000000009
 40
0.125000000000001
 40
0.125000000000001
 40
0.1562500000000011
 40
0.1562500000000011
 40
0.1875000000000012
 40
0.1875000000000012
 40
0.2187500000000013
 40
0.2187500000000013
 40
0.2500000000000014
 40
0.2500000000000014
 40
0.2812500000000016
 40
0.2812500000000016
 40
0.3125000000000017
 40
0.3125000000000017
 40
0.3437500000000018
 40
0.3437500000000018
 40
0.3750000000000019
 40
0.3750000000000019
 40
0.4062500000000019
 40
0.4062500000000019
 40
0.4375000000000021
 40
0.4375000000000021
 40
0.4531250000000021
 40
0.4531250000000021
 40
0.4687500000000022
 40
0.4687500000000022
 40
0.4843750000000022
 40
0.4843750000000022
 40
0.5000000000000023
 40
0.5000000000000023
 40
0.5156250000000023
 40
0.5156250000000023
 40
0.5312500000000024
 40
0.5312500000000024
 40
0.5468750000000024
 40
0.5468750000000024
 40
0.5625000000000026
 40
0.5625000000000026
 40
0.5937500000000027
 40
0.5937500000000027
 40
0.6250000000000028
 40
0.6250000000000028
 40
0.6562500000000027
 40
0.6562500000000027
 40
0.6875000000000026
 40
0.6875000000000026
 40
0.7187500000000024
 40
0.7187500000000024
 40
0.7500000000000022
 40
0.7500000000000022
 40
0.7812500000000021
 40
0.7812500000000021
 40
0.796875000000002
 40
0.796875000000002
 40
0.8125000000000018
 40
0.8125000000000018
 40
0.8437500000000014
 40
0.8437500000000014
 40
0.8750000000000011
 40
0.8750000000000011
 40
0.9062500000000008
 40
0.9062500000000008
 40
0.9218750000000007
 40
0.9218750000000007
 40
0.9375000000000004
 40
0.9375000000000004
 40
0.9531250000000003
 40
0.9531250000000003
 40
0.9687500000000001
 40
0.9687500000000001
 40
1.0
 40
1.0
 40
1.03125
 40
1.03125
 10
4.168777950022534
 20
4.64253436200794
 30
0.0
 10
4.138037563833186
 20
4.642534362007939
 30
0.0
 10
4.123009092086329
 20
4.64167050866294
 30
0.0
 10
4.100956962152451
 20
4.639089029721898
 30
0.0
 10
4.093638308687443
 20
4.638000550121156
 30
0.0
 10
4.079481973855973
 20
4.635411544663895
 30
0.0
 10
4.072639174122677
 20
4.633914676554912
 30
0.0
 10
4.059404374315587
 20
4.630510522573276
 30
0.0
 10
4.053012479906889
 20
4.628603188041581
 30
0.0
 10
4.04067732996902
 20
4.624353081844705
 30
0.0
 10
4.034742432563956
 20
4.622008151627535
 30
0.0
 10
4.018033373273359
 20
4.614471392022651
 30
0.0
 10
4.008180789417749
 20
4.60872998371305
 30
0.0
 10
3.990871845468304
 20
4.595685233917618
 30
0.0
 10
3.983673632979496
 20
4.588571376515387
 30
0.0
 10
3.971846783227349
 20
4.573189427765023
 30
0.0
 10
3.967204002423518
 20
4.564848586728664
 30
0.0
 10
3.960483335662285
 20
4.547481186897282
 30
0.0
 10
3.958351149904261
 20
4.538407321963388
 30
0.0
 10
3.956265297680556
 20
4.519464041432919
 30
0.0
 10
3.956332420875083
 20
4.50965243499398
 30
0.0
 10
3.95840890010866
 20
4.489744981619015
 30
0.0
 10
3.960412344667893
 20
4.479592229393386
 30
0.0
 10
3.966221127548458
 20
4.458897803735173
 30
0.0
 10
3.970027305064914
 20
4.448391110620832
 30
0.0
 10
3.979201030923844
 20
4.427507940060687
 30
0.0
 10
3.984583004022383
 20
4.417071876760083
 30
0.0
 10
3.996988293299437
 20
4.396278956871345
 30
0.0
 10
4.004058950198169
 20
4.385857634321961
 30
0.0
 10
4.019862831257457
 20
4.365565521364939
 30
0.0
 10
4.028554169706696
 20
4.355721439605153
 30
0.0
 10
4.047907886535388
 20
4.336960757048136
 30
0.0
 10
4.058683153359472
 20
4.327958844352736
 30
0.0
 10
4.076378834194913
 20
4.31612179221782
 30
0.0
 10
4.082541347128682
 20
4.312445291548196
 30
0.0
 10
4.095520095765482
 20
4.305787291203447
 30
0.0
 10
4.102378005859142
 20
4.3027983174911
 30
0.0
 10
4.116440770845077
 20
4.297905902086904
 30
0.0
 10
4.12368778608175
 20
4.295974852136119
 30
0.0
 10
4.138691875672715
 20
4.293349827704848
 30
0.0
 10
4.146374154454774
 20
4.29268869574323
 30
0.0
 10
4.161531570666425
 20
4.292753675825956
 30
0.0
 10
4.169090470319015
 20
4.293463516241686
 30
0.0
 10
4.184157867082098
 20
4.296218413548652
 30
0.0
 10
4.191411069235969
 20
4.298213041027307
 30
0.0
 10
4.205450944400619
 20
4.30321269619625
 30
0.0
 10
4.21228120627039
 20
4.306245862388578
 30
0.0
 10
4.225201897182611
 20
4.312975876661659
 30
0.0
 10
4.23132674017504
 20
4.316677414809765
 30
0.0
 10
4.248894239335195
 20
4.328557299971954
 30
0.0
 10
4.259619075792116
 20
4.337585775910903
 30
0.0
 10
4.278893560099822
 20
4.356403576297431
 30
0.0
 10
4.28751108472735
 20
4.366230938566571
 30
0.0
 10
4.303141313767534
 20
4.386406424206909
 30
0.0
 10
4.310180168222749
 20
4.396817201228502
 30
0.0
 10
4.322588461122386
 20
4.417724971806877
 30
0.0
 10
4.327945315787743
 20
4.428185199283337
 30
0.0
 10
4.337042967031471
 20
4.449051922324205
 30
0.0
 10
4.340783040825332
 20
4.459458930373659
 30
0.0
 10
4.346538774538318
 20
4.480192707853742
 30
0.0
 10
4.348499009732911
 20
4.490334447135727
 30
0.0
 10
4.350493583874628
 20
4.510064786840127
 30
0.0
 10
4.350533872133847
 20
4.519670528137891
 30
0.0
 10
4.348980598146611
 20
4.53368958413531
 30
0.0
 10
4.348192456271264
 20
4.538297654722485
 30
0.0
 10
4.346023528664454
 20
4.547383570232443
 30
0.0
 10
4.344632733950779
 20
4.551884074910508
 30
0.0
 10
4.339555052432599
 20
4.564971725699191
 30
0.0
 10
4.334982461636719
 20
4.573165164888093
 30
0.0
 10
4.323178308337346
 20
4.588530376359597
 30
0.0
 10
4.315830078772102
 20
4.595773342916856
 30
0.0
 10
4.29870960172681
 20
4.608671044287989
 30
0.0
 10
4.288938271425101
 20
4.614386246022006
 30
0.0
 10
4.272274536440837
 20
4.621924461000152
 30
0.0
 10
4.266332998345323
 20
4.624279787179475
 30
0.0
 10
4.253987223537064
 20
4.628545709443853
 30
0.0
 10
4.247598914804873
 20
4.630456760122622
 30
0.0
 10
4.234393356376164
 20
4.633864156619846
 30
0.0
 10
4.227576179411203
 20
4.635360522161398
 30
0.0
 10
4.213498566112771
 20
4.637948163485277
 30
0.0
 10
4.206186758042593
 20
4.639045033796073
 30
0.0
 10
4.183935839381022
 20
4.641666219048062
 30
0.0
 10
4.168777950022534
 20
4.64253436200794
 30
0.0
 10
4.138037563833186
 20
4.642534362007939
 30
0.0
  0
LINE
  5
FA
330
1F
100
AcDbEntity
  8
0
  6
CONTINUOUS
 62
     7
100
AcDbLine
 10
3.8482896467
 20
4.7429302549
 30
0.0
 11
3.8482896467
 21
2.7744263179
 31
0.0
  0
LINE
  5
FB
330
1F
100
AcDbEntity
  8
0
  6
CONTINUOUS
 62
     7
100
AcDbLine
 10
4.4683683868
 20
3.7488357667
 30
0.0
 11
4.4683683868
 21
2.7941113573
 31
0.0
  0
LINE
  5
FC
330
1F
100
AcDbEntity
  8
0
  6
CONTINUOUS
 62
     7
100
AcDbLine
 10
4.4683683868
 20
4.7232452155
 30
0.0
 11
4.4683683868
 21
3.7685208061
 31
0.0
  0
LINE
  5
FD
330
1F
100
AcDbEntity
  8
0
  6
CONTINUOUS
 62
     7
100
AcDbLine
 10
4.4486833475
 20
3.7488357667
 30
0.0
 11
4.4683683868
 21
3.7488357667
 31
0.0
  0
LINE
  5
FE
330
1F
100
AcDbEntity
  8
0
  6
CONTINUOUS
 62
     7
100
AcDbLine
 10
4.4486833475
 20
3.7685208061
 30
0.0
 11
4.4683683868
 21
3.7685208061
 31
0.0
  0
LINE
  5
FF
330
1F
100
AcDbEntity
  8
0
  6
CONTINUOUS
 62
     7
100
AcDbLine
 10
3.6022266546
 20
4.6110654948
 30
0.0
 11
3.5959416505
 21
4.6037833424
 31
0.0
  0
LINE
  5
100
330
1F
100
AcDbEntity
  8
0
  6
CONTINUOUS
 62
     7
100
AcDbLine
 10
3.5936708971
 20
2.9162042507
 30
0.0
 11
3.6022266546
 21
2.9062910779
 31
0.0
  0
LINE
  5
101
330
1F
100
AcDbEntity
  8
0
  6
CONTINUOUS
 62
     7
100
AcDbLine
 10
3.5825416152
 20
4.6037833424
 30
0.0
 11
3.5825416152
 21
4.7232452155
 31
0.0
  0
LINE
  5
102
330
1F
100
AcDbEntity
  8
0
  6
CONTINUOUS
 62
     7
100
AcDbLine
 10
3.5825416152
 20
2.7941113573
 30
0.0
 11
3.5825416152
 21
2.9162042507
 31
0.0
  0
LINE
  5
103
330
1F
100
AcDbEntity
  8
0
  6
CONTINUOUS
 62
     7
100
AcDbLine
 10
3.8679746861
 20
3.7685208061
 30
0.0
 11
3.8679746861
 21
3.7586782864
 31
0.0
  0
LINE
  5
104
330
1F
100
AcDbEntity
  8
0
  6
CONTINUOUS
 62
     7
100
AcDbLine
 10
3.8679746861
 20
3.7586782864
 30
0.0
 11
3.8679746861
 21
3.7488357667
 31
0.0
  0
LINE
  5
105
330
1F
100
AcDbEntity
  8
0
  6
CONTINUOUS
 62
     7
100
AcDbLine
 10
4.4683683868
 20
3.7488357667
 30
0.0
 11
4.4683683868
 21
3.7685208061
 31
0.0
  0
LINE
  5
106
330
1F
100
AcDbEntity
  8
0
  6
CONTINUOUS
 62
     7
100
AcDbLine
 10
3.5628565758
 20
4.6037833424
 30
0.0
 11
3.5628565758
 21
4.7429302549
 31
0.0
  0
LINE
  5
107
330
1F
100
AcDbEntity
  8
0
  6
CONTINUOUS
 62
     7
100
AcDbLine
 10
3.7400219302
 20
4.6037833424
 30
0.0
 11
3.5628565758
 21
4.6037833424
 31
0.0
  0
LINE
  5
108
330
1F
100
AcDbEntity
  8
0
  6
CONTINUOUS
 62
     7
100
AcDbLine
 10
3.7400219302
 20
2.9162042507
 30
0.0
 11
3.7400219302
 21
4.6037833424
 31
0.0
  0
LINE
  5
109
330
1F
100
AcDbEntity
  8
0
  6
CONTINUOUS
 62
     7
100
AcDbLine
 10
3.5628565758
 20
2.9162042507
 30
0.0
 11
3.7400219302
 21
2.9162042507
 31
0.0
  0
LINE
  5
10A
330
1F
100
AcDbEntity
  8
0
  6
CONTINUOUS
 62
     7
100
AcDbLine
 10
3.5628565758
 20
2.7744263179
 30
0.0
 11
3.5628565758
 21
2.9162042507
 31
0.0
  0
LINE
  5
10B
330
1F
100
AcDbEntity
  8
0
  6
CONTINUOUS
 62
     7
100
AcDbLine
 10
3.0904156309
 20
3.2497682387
 30
0.0
 11
2.9132502766
 21
3.2497682387
 31
0.0
  0
LINE
  5
10C
330
1F
100
AcDbEntity
  8
0
  6
CONTINUOUS
 62
     7
100
AcDbLine
 10
3.0904156309
 20
4.2632071576
 30
0.0
 11
3.0904156309
 21
3.2497682387
 31
0.0
  0
LINE
  5
10D
330
1F
100
AcDbEntity
  8
0
  6
CONTINUOUS
 62
     7
100
AcDbLine
 10
2.9132502766
 20
4.2632071576
 30
0.0
 11
3.0904156309
 21
4.2632071576
 31
0.0
  0
LINE
  5
10E
330
1F
100
AcDbEntity
  8
0
  6
CONTINUOUS
 62
     7
100
AcDbLine
 10
2.9132502766
 20
4.7429302549
 30
0.0
 11
2.9132502766
 21
4.2632071576
 31
0.0
  0
LINE
  5
10F
330
1F
100
AcDbEntity
  8
0
  6
CONTINUOUS
 62
     7
100
AcDbLine
 10
2.9132502766
 20
3.2497682387
 30
0.0
 11
2.9132502766
 21
2.7744263179
 31
0.0
  0
SPLINE
  5
110
330
1F
100
AcDbEntity
  8
0
  6
CONTINUOUS
 62
     7
100
AcDbSpline
210
0.0
220
0.0
230
1.0
 70
     8
 71
     3
 72
     8
 73
     4
 74
     0
 42
0.00000001
 43
0.00000001
 40
0.0
 40
0.0
 40
0.0
 40
0.0
 40
0.0006203966708995
 40
0.0006203966708995
 40
0.0006203966708995
 40
0.0006203966708995
 10
3.073417965487802
 20
4.250804270644013
 30
0.0
 10
3.079082187795473
 20
4.254939707671631
 30
0.0
 10
3.084748106398731
 20
4.25907398331108
 30
0.0
 10
3.090415630943608
 20
4.263207157557511
 30
0.0
  0
SPLINE
  5
111
330
1F
100
AcDbEntity
  8
0
  6
CONTINUOUS
 62
     7
100
AcDbSpline
210
0.0
220
0.0
230
1.0
 70
     8
 71
     3
 72
     8
 73
     4
 74
     0
 42
0.00000001
 43
0.00000001
 40
0.0
 40
0.0
 40
0.0
 40
0.0
 40
0.0005429959629505
 40
0.0005429959629505
 40
0.0005429959629505
 40
0.0005429959629505
 10
3.077962527332427
 20
3.266552302140076
 30
0.0
 10
3.082096871356617
 20
3.26094609527327
 30
0.0
 10
3.086248217898242
 20
3.255351554437038
 30
0.0
 10
3.090415630943607
 20
3.249768238706962
 30
0.0
  0
LINE
  5
112
330
1F
100
AcDbEntity
  8
0
  6
CONTINUOUS
 62
     7
100
AcDbLine
 10
3.0707305916
 20
3.2665523021
 30
0.0
 11
3.0707305916
 21
4.2508042706
 31
0.0
  0
SPLINE
  5
113
330
1F
100
AcDbEntity
  8
0
  6
CONTINUOUS
 62
     7
100
AcDbSpline
210
0.0
220
0.0
230
1.0
 70
     8
 71
     3
 72
     8
 73
     4
 74
     0
 42
0.00000001
 43
0.00000001
 40
0.0
 40
0.0
 40
0.0
 40
0.0
 40
0.0001046527498261
 40
0.0001046527498261
 40
0.0001046527498261
 40
0.0001046527498261
 10
3.757019595612012
 20
4.591380455471219
 30
0.0
 10
3.757915637516876
 20
4.59033962668468
 30
0.0
 10
3.758811429676301
 20
4.589298582840924
 30
0.0
 10
3.759706969526285
 20
4.588257322049744
 30
0.0
  0
SPLINE
  5
114
330
1F
100
AcDbEntity
  8
0
  6
CONTINUOUS
 62
     7
100
AcDbSpline
210
0.0
220
0.0
230
1.0
 70
     8
 71
     3
 72
     8
 73
     4
 74
     0
 42
0.00000001
 43
0.00000001
 40
0.0
 40
0.0
 40
0.0
 40
0.0
 40
0.0002814964786281
 40
0.0002814964786281
 40
0.0002814964786281
 40
0.0002814964786281
 10
3.759706969526285
 20
2.92909925073435
 30
0.0
 10
3.757298133497987
 20
2.926298452412873
 30
0.0
 10
3.75488747179868
 20
2.923499223283418
 30
0.0
 10
3.752475033767388
 20
2.920701526910688
 30
0.0
  0
SPLINE
  5
115
330
1F
100
AcDbEntity
  8
0
  6
CONTINUOUS
 62
     7
100
AcDbSpline
210
0.0
220
0.0
230
1.0
 70
     8
 71
     3
 72
     8
 73
     4
 74
     0
 42
0.00000001
 43
0.00000001
 40
0.0
 40
0.0
 40
0.0
 40
0.0
 40
0.0005429959629505
 40
0.0005429959629505
 40
0.0005429959629505
 40
0.0005429959629505
 10
3.740021930156206
 20
2.916204250668072
 30
0.0
 10
3.744189343201572
 20
2.917700295609034
 30
0.0
 10
3.748340689743197
 20
2.919199348308126
 30
0.0
 10
3.752475033767388
 20
2.920701526910688
 30
0.0
  0
SPLINE
  5
116
330
1F
100
AcDbEntity
  8
0
  6
CONTINUOUS
 62
     7
100
AcDbSpline
210
0.0
220
0.0
230
1.0
 70
     8
 71
     3
 72
     8
 73
     4
 74
     0
 42
0.00000001
 43
0.00000001
 40
0.0
 40
0.0
 40
0.0
 40
0.0
 40
0.0006203966708995
 40
0.0006203966708995
 40
0.0006203966708995
 40
0.0006203966708995
 10
3.740021930156206
 20
4.603783342384718
 30
0.0
 10
3.745689454701083
 20
4.599650168138287
 30
0.0
 10
3.751355373304341
 20
4.595515892498836
 30
0.0
 10
3.757019595612012
 20
4.591380455471219
 30
0.0
  0
SPLINE
  5
117
330
1F
100
AcDbEntity
  8
0
  6
CONTINUOUS
 62
     7
100
AcDbSpline
210
0.0
220
0.0
230
1.0
 70
     8
 71
     3
 72
     8
 73
     4
 74
     0
 42
0.00000001
 43
0.00000001
 40
0.0
 40
0.0
 40
0.0
 40
0.0
 40
0.0006203966708995
 40
0.0006203966708995
 40
0.0006203966708995
 40
0.0006203966708995
 10
2.896252611157093
 20
4.250804270644013
 30
0.0
 10
2.901916833464765
 20
4.254939707671631
 30
0.0
 10
2.907582752068022
 20
4.25907398331108
 30
0.0
 10
2.913250276612899
 20
4.263207157557511
 30
0.0
  0
LINE
  5
118
330
1F
100
AcDbEntity
  8
0
  6
CONTINUOUS
 62
     7
100
AcDbLine
 10
3.0734179655
 20
4.2508042706
 30
0.0
 11
3.0707831422
 21
4.2508042706
 31
0.0
  0
SPLINE
  5
119
330
1F
100
AcDbEntity
  8
0
  6
CONTINUOUS
 62
     7
100
AcDbSpline
210
0.0
220
0.0
230
1.0
 70
     8
 71
     3
 72
     8
 73
     4
 74
     0
 42
0.00000001
 43
0.00000001
 40
0.0
 40
0.0
 40
0.0
 40
0.0
 40
0.0005429959629505
 40
0.0005429959629505
 40
0.0005429959629505
 40
0.0005429959629505
 10
2.900797173001718
 20
3.266552302140076
 30
0.0
 10
2.904931517025909
 20
3.26094609527327
 30
0.0
 10
2.909082863567533
 20
3.255351554437038
 30
0.0
 10
2.913250276612899
 20
3.249768238706962
 30
0.0
  0
LINE
  5
11A
330
1F
100
AcDbEntity
  8
0
  6
CONTINUOUS
 62
     7
100
AcDbLine
 10
3.0707831422
 20
3.2665523021
 30
0.0
 11
3.0779625273
 21
3.2665523021
 31
0.0
  0
LINE
  5
11B
330
1F
100
AcDbEntity
  8
0
  6
CONTINUOUS
 62
     7
100
AcDbLine
 10
2.8935652372
 20
2.7941113573
 30
0.0
 11
2.8935652372
 21
3.2665523021
 31
0.0
  0
LINE
  5
11C
330
1F
100
AcDbEntity
  8
0
  6
CONTINUOUS
 62
     7
100
AcDbLine
 10
4.1534077569
 20
4.4870247431
 30
0.0
 11
4.3404156309
 21
4.4870247431
 31
0.0
  0
LINE
  5
11D
330
1F
100
AcDbEntity
  8
0
  6
CONTINUOUS
 62
     7
100
AcDbLine
 10
3.9663998829
 20
4.4870247431
 30
0.0
 11
4.1534077569
 21
4.4870247431
 31
0.0
  0
LINE
  5
11E
330
1F
100
AcDbEntity
  8
0
  6
CONTINUOUS
 62
     7
100
AcDbLine
 10
2.8935652372
 20
4.7429302549
 30
0.0
 11
2.8935652372
 21
4.2508042706
 31
0.0
  0
LINE
  5
11F
330
1F
100
AcDbEntity
  8
0
  6
CONTINUOUS
 62
     7
100
AcDbLine
 10
2.8935652372
 20
4.2508042706
 30
0.0
 11
3.0510455522
 21
4.2508042706
 31
0.0
  0
LINE
  5
120
330
1F
100
AcDbEntity
  8
0
  6
CONTINUOUS
 62
     7
100
AcDbLine
 10
3.0510455522
 20
4.2508042706
 30
0.0
 11
3.0510455522
 21
3.2665523021
 31
0.0
  0
LINE
  5
121
330
1F
100
AcDbEntity
  8
0
  6
CONTINUOUS
 62
     7
100
AcDbLine
 10
3.0510455522
 20
3.2665523021
 30
0.0
 11
2.8738801979
 21
3.2665523021
 31
0.0
  0
LINE
  5
122
330
1F
100
AcDbEntity
  8
0
  6
CONTINUOUS
 62
     7
100
AcDbLine
 10
2.8738801979
 20
3.2665523021
 30
0.0
 11
2.8738801979
 21
2.7744263179
 31
0.0
  0
LINE
  5
123
330
1F
100
AcDbEntity
  8
0
  6
CONTINUOUS
 62
     7
100
AcDbLine
 10
2.8049825601
 20
4.0342688376
 30
0.0
 11
2.8049825601
 21
2.7744263179
 31
0.0
  0
LINE
  5
124
330
1F
100
AcDbEntity
  8
0
  6
CONTINUOUS
 62
     7
100
AcDbLine
 10
2.8049825601
 20
4.0342688376
 30
0.0
 11
2.7852975207
 21
4.0342688376
 31
0.0
  0
LINE
  5
125
330
1F
100
AcDbEntity
  8
0
  6
CONTINUOUS
 62
     7
100
AcDbLine
 10
2.7852975207
 20
4.0342688376
 30
0.0
 11
2.7852975207
 21
2.7744755317
 31
0.0
  0
LINE
  5
126
330
1F
100
AcDbEntity
  8
0
  6
CONTINUOUS
 62
     7
100
AcDbLine
 10
2.2045888593
 20
2.7744755317
 30
0.0
 11
2.7852975207
 21
2.7744755317
 31
0.0
  0
LINE
  5
127
330
1F
100
AcDbEntity
  8
0
  6
CONTINUOUS
 62
     7
100
AcDbLine
 10
2.2045888593
 20
2.7744755317
 30
0.0
 11
2.2045888593
 21
4.7429302549
 31
0.0
  0
SPLINE
  5
128
330
1F
100
AcDbEntity
  8
0
  6
CONTINUOUS
 62
     7
100
AcDbSpline
210
0.0
220
0.0
230
1.0
 70
     8
 71
     3
 72
    88
 73
    84
 74
     0
 42
0.00000001
 43
0.00000001
 40
-0.0312500000000003
 40
-0.0312500000000003
 40
0.0
 40
0.0
 40
0.0312500000000001
 40
0.0312500000000001
 40
0.046875
 40
0.046875
 40
0.0624999999999999
 40
0.0624999999999999
 40
0.0781249999999998
 40
0.0781249999999998
 40
0.0937499999999997
 40
0.0937499999999997
 40
0.1249999999999996
 40
0.1249999999999996
 40
0.1562499999999995
 40
0.1562499999999995
 40
0.1874999999999994
 40
0.1874999999999994
 40
0.2187499999999993
 40
0.2187499999999993
 40
0.2499999999999991
 40
0.2499999999999991
 40
0.2812499999999989
 40
0.2812499999999989
 40
0.3124999999999986
 40
0.3124999999999986
 40
0.3437499999999984
 40
0.3437499999999984
 40
0.3749999999999982
 40
0.3749999999999982
 40
0.4062499999999979
 40
0.4062499999999979
 40
0.4374999999999976
 40
0.4374999999999976
 40
0.4531249999999975
 40
0.4531249999999975
 40
0.4687499999999974
 40
0.4687499999999974
 40
0.4843749999999974
 40
0.4843749999999974
 40
0.4999999999999973
 40
0.4999999999999973
 40
0.5156249999999972
 40
0.5156249999999972
 40
0.5312499999999972
 40
0.5312499999999972
 40
0.5468749999999971
 40
0.5468749999999971
 40
0.5624999999999971
 40
0.5624999999999971
 40
0.5937499999999973
 40
0.5937499999999973
 40
0.6249999999999974
 40
0.6249999999999974
 40
0.6562499999999977
 40
0.6562499999999977
 40
0.6874999999999979
 40
0.6874999999999979
 40
0.7187499999999981
 40
0.7187499999999981
 40
0.7499999999999983
 40
0.7499999999999983
 40
0.7812499999999986
 40
0.7812499999999986
 40
0.7968749999999987
 40
0.7968749999999987
 40
0.8124999999999989
 40
0.8124999999999989
 40
0.8437499999999991
 40
0.8437499999999991
 40
0.8749999999999992
 40
0.8749999999999992
 40
0.9062499999999994
 40
0.9062499999999994
 40
0.9218749999999996
 40
0.9218749999999996
 40
0.9374999999999996
 40
0.9374999999999996
 40
0.9531249999999997
 40
0.9531249999999997
 40
0.9687499999999997
 40
0.9687499999999997
 40
1.0
 40
1.0
 40
1.03125
 40
1.03125
 10
2.484494256746571
 20
3.325607420250312
 30
0.0
 10
2.515234642935919
 20
3.325607420250312
 30
0.0
 10
2.530263114682777
 20
3.323831637447791
 30
0.0
 10
2.552315244616655
 20
3.318641248940061
 30
0.0
 10
2.559633898081662
 20
3.316465102095632
 30
0.0
 10
2.573790232913132
 20
3.311354088862683
 30
0.0
 10
2.580633032646428
 20
3.308426308760147
 30
0.0
 10
2.593867832453518
 20
3.301869645950563
 30
0.0
 10
2.600259726862216
 20
3.298240574099108
 30
0.0
 10
2.612594876800086
 20
3.290298771543774
 30
0.0
 10
2.61852977420515
 20
3.285983535017665
 30
0.0
 10
2.635238833495746
 20
3.272388779430249
 30
0.0
 10
2.645091417351356
 20
3.262367621131567
 30
0.0
 10
2.662400361300801
 20
3.240671013891416
 30
0.0
 10
2.669598573789609
 20
3.229315324374249
 30
0.0
 10
2.681425423541755
 20
3.205940294962097
 30
0.0
 10
2.686068204345586
 20
3.193823518961514
 30
0.0
 10
2.692788871106819
 20
3.169813747140139
 30
0.0
 10
2.694921056864844
 20
3.1578405014445
 30
0.0
 10
2.697006909088548
 20
3.134027625894054
 30
0.0
 10
2.696939785894021
 20
3.122267658854933
 30
0.0
 10
2.694863306660445
 20
3.099495348323638
 30
0.0
 10
2.692859862101211
 20
3.088410704790049
 30
0.0
 10
2.687051079220645
 20
3.066819795302945
 30
0.0
 10
2.68324490170419
 20
3.056356180738752
 30
0.0
 10
2.674071175845261
 20
3.036440780879898
 30
0.0
 10
2.668689202746723
 20
3.026926555413378
 30
0.0
 10
2.656283913469667
 20
3.008739555139726
 30
0.0
 10
2.649213256570935
 20
3.000016571081802
 30
0.0
 10
2.633409375511647
 20
2.983688340151303
 30
0.0
 10
2.624718037062409
 20
2.97610040157128
 30
0.0
 10
2.605364320233717
 20
2.962136977519064
 30
0.0
 10
2.594589053409634
 20
2.95570637816953
 30
0.0
 10
2.576893372574192
 20
2.947486724116393
 30
0.0
 10
2.570730859640422
 20
2.944976764266161
 30
0.0
 10
2.557752111003621
 20
2.940485277399747
 30
0.0
 10
2.550894200909961
 20
2.938499090735995
 30
0.0
 10
2.536831435924027
 20
2.935274315244055
 30
0.0
 10
2.529584420687353
 20
2.934016666792187
 30
0.0
 10
2.514580331096389
 20
2.932312308564044
 30
0.0
 10
2.50689805231433
 20
2.9318864010276
 30
0.0
 10
2.491740636102679
 20
2.931928374144738
 30
0.0
 10
2.484181736450089
 20
2.93238572718153
 30
0.0
 10
2.469114339687006
 20
2.934175255974053
 30
0.0
 10
2.461861137533135
 20
2.935475300858635
 30
0.0
 10
2.447821262368485
 20
2.938773911852163
 30
0.0
 10
2.440991000498714
 20
2.940791877996101
 30
0.0
 10
2.428070309586494
 20
2.9453378848732
 30
0.0
 10
2.421945466594065
 20
2.947868705991391
 30
0.0
 10
2.404377967433909
 20
2.956130525005075
 30
0.0
 10
2.393653130976989
 20
2.962590480388785
 30
0.0
 10
2.374378646669283
 20
2.976620645232755
 30
0.0
 10
2.365761122041754
 20
2.984210999994951
 30
0.0
 10
2.35013089300157
 20
3.000471726239033
 30
0.0
 10
2.343092038546355
 20
3.009195914229848
 30
0.0
 10
2.330683745646719
 20
3.027513074381622
 30
0.0
 10
2.325326890981362
 20
3.037068517185172
 30
0.0
 10
2.316229239737634
 20
3.057005707311292
 30
0.0
 10
2.312489165943774
 20
3.067387258904008
 30
0.0
 10
2.306733432230787
 20
3.089056202461458
 30
0.0
 10
2.304773197036194
 20
3.100152457168333
 30
0.0
 10
2.302778622894476
 20
3.122757432626934
 30
0.0
 10
2.302738334635257
 20
3.134284022241284
 30
0.0
 10
2.304291608622493
 20
3.151911618904744
 30
0.0
 10
2.305079750497841
 20
3.157843798109876
 30
0.0
 10
2.307248678104651
 20
3.169821413266249
 30
0.0
 10
2.308639472818325
 20
3.175898789657159
 30
0.0
 10
2.313717154336505
 20
3.193997370977267
 30
0.0
 10
2.318289745132386
 20
3.205904960524778
 30
0.0
 10
2.330093898431759
 20
3.2292514889884
 30
0.0
 10
2.337442127997003
 20
3.240816862938091
 30
0.0
 10
2.354562605042295
 20
3.262270289796023
 30
0.0
 10
2.364333935344003
 20
3.272238993965
 30
0.0
 10
2.380997670328268
 20
3.28583072163134
 30
0.0
 10
2.386939208423782
 20
3.290163181249455
 30
0.0
 10
2.399284983232041
 20
3.298131841149625
 30
0.0
 10
2.405673291964233
 20
3.301767031637928
 30
0.0
 10
2.418878850392941
 20
3.308328095391086
 30
0.0
 10
2.425696027357902
 20
3.311254115235154
 30
0.0
 10
2.439773640656334
 20
3.316360962872568
 30
0.0
 10
2.447085448726513
 20
3.318553104172925
 30
0.0
 10
2.469336367388083
 20
3.323822399798738
 30
0.0
 10
2.484494256746571
 20
3.325607420250312
 30
0.0
 10
2.515234642935919
 20
3.325607420250312
 30
0.0
  0
LINE
  5
129
330
1F
100
AcDbEntity
  8
0
  6
CONTINUOUS
 62
     7
100
AcDbLine
 10
2.2045888593
 20
2.7744755317
 30
0.0
 11
2.1849038199
 21
2.7941615755
 31
0.0
  0
LINE
  5
12A
330
1F
100
AcDbEntity
  8
0
  6
CONTINUOUS
 62
     7
100
AcDbLine
 10
2.1849038199
 20
4.7232452155
 30
0.0
 11
2.1849038199
 21
2.7941615755
 31
0.0
  0
SPLINE
  5
12B
330
1F
100
AcDbEntity
  8
0
  6
CONTINUOUS
 62
     7
100
AcDbSpline
210
0.0
220
0.0
230
1.0
 70
    24
 71
     3
 72
     8
 73
     4
 74
     0
 42
0.00000001
 43
0.00000001
 40
0.0
 40
0.0
 40
0.0
 40
0.0
 40
0.0007652584238459
 40
0.0007652584238459
 40
0.0007652584238459
 40
0.0007652584238459
 10
3.051045552203449
 20
3.266552302140076
 30
0.0
 10
3.057620082862385
 20
3.266552302140076
 30
0.0
 10
3.064182083147056
 20
3.266552302140076
 30
0.0
 10
3.070730591573529
 20
3.266552302140076
 30
0.0
  0
SPLINE
  5
12C
330
1F
100
AcDbEntity
  8
0
  6
CONTINUOUS
 62
     7
100
AcDbSpline
210
0.0
220
0.0
230
1.0
 70
    24
 71
     3
 72
     8
 73
     4
 74
     0
 42
0.00000001
 43
0.00000001
 40
0.0
 40
0.0
 40
0.0
 40
0.0
 40
0.0007652584238459
 40
0.0007652584238459
 40
0.0007652584238459
 40
0.0007652584238459
 10
3.070730591573529
 20
4.250804270644013
 30
0.0
 10
3.064182083147056
 20
4.250804270644013
 30
0.0
 10
3.057620082862385
 20
4.250804270644013
 30
0.0
 10
3.05104555220345
 20
4.250804270644013
 30
0.0
  0
CIRCLE
  5
12D
330
1F
100
AcDbEntity
  8
0
  6
CONTINUOUS
 62
     7
100
AcDbCircle
 10
2.4998644498
 20
3.1287570265
 30
0.0
 40
0.1870078740157481
  0
LINE
  5
12E
330
1F
100
AcDbEntity
  8
0
  6
CONTINUOUS
 62
     7
100
AcDbLine
 10
2.401439253
 20
3.0719312127
 30
0.0
 11
2.401439253
 21
3.1855828404
 31
0.0
  0
LINE
  5
12F
330
1F
100
AcDbEntity
  8
0
  6
CONTINUOUS
 62
     7
100
AcDbLine
 10
2.4998644498
 20
3.0151053988
 30
0.0
 11
2.401439253
 21
3.0719312127
 31
0.0
  0
LINE
  5
130
330
1F
100
AcDbEntity
  8
0
  6
CONTINUOUS
 62
     7
100
AcDbLine
 10
2.5982896467
 20
3.0719312127
 30
0.0
 11
2.4998644498
 21
3.0151053988
 31
0.0
  0
LINE
  5
131
330
1F
100
AcDbEntity
  8
0
  6
CONTINUOUS
 62
     7
100
AcDbLine
 10
2.5982896467
 20
3.1855828404
 30
0.0
 11
2.5982896467
 21
3.0719312127
 31
0.0
  0
LINE
  5
132
330
1F
100
AcDbEntity
  8
0
  6
CONTINUOUS
 62
     7
100
AcDbLine
 10
2.4998644498
 20
3.2424086543
 30
0.0
 11
2.5982896467
 21
3.1855828404
 31
0.0
  0
LINE
  5
133
330
1F
100
AcDbEntity
  8
0
  6
CONTINUOUS
 62
     7
100
AcDbLine
 10
2.401439253
 20
3.1855828404
 30
0.0
 11
2.4998644498
 21
3.2424086543
 31
0.0
  0
ARC
  5
134
330
1F
100
AcDbEntity
  8
0
  6
CONTINUOUS
 62
     7
100
AcDbCircle
 10
2.4998644498
 20
3.1287570265
 30
0.0
 40
0.1968503937007877
100
AcDbArc
 50
270.0
 51
357.0873579099
  0
ARC
  5
135
330
1F
100
AcDbEntity
  8
0
  6
CONTINUOUS
 62
     7
100
AcDbCircle
 10
2.4998644498
 20
3.1287570265
 30
0.0
 40
0.1968503937007875
100
AcDbArc
 50
192.5467255121
 51
270.0
  0
LINE
  5
136
330
1F
100
AcDbEntity
  8
0
  6
CONTINUOUS
 62
     8
100
AcDbLine
 10
4.1534077569
 20
4.4771822234
 30
0.0
 11
3.9565573632
 21
4.4771822234
 31
0.0
  0
LINE
  5
137
330
1F
100
AcDbEntity
  8
0
  6
CONTINUOUS
 62
     8
100
AcDbLine
 10
4.3454654038
 20
4.4771822234
 30
0.0
 11
4.1534077569
 21
4.4771822234
 31
0.0
  0
LINE
  5
138
330
1F
100
AcDbEntity
  8
0
  6
HIDDEN
 62
     7
100
AcDbLine
 10
4.4486833475
 20
3.7685208061
 30
0.0
 11
4.4486833475
 21
3.7488357667
 31
0.0
  0
LINE
  5
139
330
1F
100
AcDbEntity
  8
0
  6
HIDDEN
 62
     7
100
AcDbLine
 10
4.1534077569
 20
4.2508042706
 30
0.0
 11
4.3502581506
 21
4.2508042706
 31
0.0
  0
LINE
  5
13A
330
1F
100
AcDbEntity
  8
0
  6
HIDDEN
 62
     7
100
AcDbLine
 10
3.9565573632
 20
4.2508042706
 30
0.0
 11
4.1534077569
 21
4.2508042706
 31
0.0
  0
LINE
  5
13B
330
1F
100
AcDbEntity
  8
0
  6
HIDDEN
 62
     7
100
AcDbLine
 10
3.5959416505
 20
4.6037833424
 30
0.0
 11
3.5825416152
 21
4.588257322
 31
0.0
  0
LINE
  5
13C
330
1F
100
AcDbEntity
  8
0
  6
HIDDEN
 62
     7
100
AcDbLine
 10
3.5825416152
 20
2.9290992507
 30
0.0
 11
3.5936708971
 21
2.9162042507
 31
0.0
  0
LINE
  5
13D
330
1F
100
AcDbEntity
  8
0
  6
HIDDEN
 62
     7
100
AcDbLine
 10
3.5825416152
 20
2.9290992507
 30
0.0
 11
3.5825416152
 21
4.588257322
 31
0.0
  0
LINE
  5
13E
330
1F
100
AcDbEntity
  8
0
  6
HIDDEN
 62
     7
100
AcDbLine
 10
3.5825416152
 20
4.588257322
 30
0.0
 11
3.5825416152
 21
4.6037833424
 31
0.0
  0
LINE
  5
13F
330
1F
100
AcDbEntity
  8
0
  6
HIDDEN
 62
     7
100
AcDbLine
 10
3.5825416152
 20
2.9162042507
 30
0.0
 11
3.5825416152
 21
2.9290992507
 31
0.0
  0
SPLINE
  5
140
330
1F
100
AcDbEntity
  8
0
  6
HIDDEN
 62
     7
100
AcDbSpline
210
0.0
220
0.0
230
1.0
 70
     8
 71
     3
 72
     8
 73
     4
 74
     0
 42
0.00000001
 43
0.00000001
 40
0.0
 40
0.0
 40
0.0
 40
0.0
 40
1.0
 40
1.0
 40
1.0
 40
1.0
 10
4.154199627082286
 20
3.748835766707008
 30
0.0
 10
4.15458151118286
 20
3.755397446497034
 30
0.0
 10
4.15458151118286
 20
3.76195912628706
 30
0.0
 10
4.154199627082286
 20
3.768520806077087
 30
0.0
  0
LINE
  5
141
330
1F
100
AcDbEntity
  8
0
  6
HIDDEN
 62
     7
100
AcDbLine
 10
3.7597069695
 20
2.9062910779
 30
0.0
 11
3.7597069695
 21
2.9290992507
 31
0.0
  0
LINE
  5
142
330
1F
100
AcDbEntity
  8
0
  6
HIDDEN
 62
     7
100
AcDbLine
 10
3.7597069695
 20
4.588257322
 30
0.0
 11
3.7597069695
 21
4.6110654948
 31
0.0
  0
LINE
  5
143
330
1F
100
AcDbEntity
  8
0
  6
HIDDEN
 62
     7
100
AcDbLine
 10
3.5628565758
 20
4.6011523221
 30
0.0
 11
3.7400219302
 21
4.6011523221
 31
0.0
  0
LINE
  5
144
330
1F
100
AcDbEntity
  8
0
  6
HIDDEN
 62
     7
100
AcDbLine
 10
3.5628565758
 20
4.6037833424
 30
0.0
 11
3.5628565758
 21
4.6011523221
 31
0.0
  0
LINE
  5
145
330
1F
100
AcDbEntity
  8
0
  6
HIDDEN
 62
     7
100
AcDbLine
 10
3.7400219302
 20
2.9135732304
 30
0.0
 11
3.5628565758
 21
2.9135732304
 31
0.0
  0
LINE
  5
146
330
1F
100
AcDbEntity
  8
0
  6
HIDDEN
 62
     7
100
AcDbLine
 10
3.7400219302
 20
2.9162042507
 30
0.0
 11
3.7400219302
 21
2.9135732304
 31
0.0
  0
LINE
  5
147
330
1F
100
AcDbEntity
  8
0
  6
HIDDEN
 62
     7
100
AcDbLine
 10
3.0904156309
 20
4.2675883341
 30
0.0
 11
2.9132502766
 21
4.2675883341
 31
0.0
  0
LINE
  5
148
330
1F
100
AcDbEntity
  8
0
  6
HIDDEN
 62
     7
100
AcDbLine
 10
3.0904156309
 20
4.2632071576
 30
0.0
 11
3.0904156309
 21
4.2675883341
 31
0.0
  0
LINE
  5
149
330
1F
100
AcDbEntity
  8
0
  6
HIDDEN
 62
     7
100
AcDbLine
 10
2.9132502766
 20
3.2541494152
 30
0.0
 11
3.0904156309
 21
3.2541494152
 31
0.0
  0
LINE
  5
14A
330
1F
100
AcDbEntity
  8
0
  6
HIDDEN
 62
     7
100
AcDbLine
 10
2.9132502766
 20
3.2497682387
 30
0.0
 11
2.9132502766
 21
3.2541494152
 31
0.0
  0
SPLINE
  5
14B
330
1F
100
AcDbEntity
  8
0
  6
HIDDEN
 62
     7
100
AcDbSpline
210
0.0
220
0.0
230
1.0
 70
     8
 71
     3
 72
     8
 73
     4
 74
     0
 42
0.00000001
 43
0.00000001
 40
0.0
 40
0.0
 40
0.0
 40
0.0
 40
0.0005429959629505
 40
0.0005429959629505
 40
0.0005429959629505
 40
0.0005429959629505
 10
2.900797173001718
 20
4.250804270644019
 30
0.0
 10
2.904931517025908
 20
4.256410477510824
 30
0.0
 10
2.909082863567533
 20
4.262005018347057
 30
0.0
 10
2.913250276612898
 20
4.267588334077133
 30
0.0
  0
SPLINE
  5
14C
330
1F
100
AcDbEntity
  8
0
  6
HIDDEN
 62
     7
100
AcDbSpline
210
0.0
220
0.0
230
1.0
 70
     8
 71
     3
 72
     8
 73
     4
 74
     0
 42
0.00000001
 43
0.00000001
 40
0.0
 40
0.0
 40
0.0
 40
0.0
 40
0.0006203966708995
 40
0.0006203966708995
 40
0.0006203966708995
 40
0.0006203966708995
 10
2.896252611157093
 20
3.266552302140081
 30
0.0
 10
2.901916833464764
 20
3.262416865112463
 30
0.0
 10
2.907582752068021
 20
3.258282589473014
 30
0.0
 10
2.913250276612898
 20
3.254149415226583
 30
0.0
  0
SPLINE
  5
14D
330
1F
100
AcDbEntity
  8
0
  6
HIDDEN
 62
     7
100
AcDbSpline
210
0.0
220
0.0
230
1.0
 70
     8
 71
     3
 72
     8
 73
     4
 74
     0
 42
0.00000001
 43
0.00000001
 40
0.0
 40
0.0
 40
0.0
 40
0.0
 40
0.0002814964786281
 40
0.0002814964786281
 40
0.0002814964786281
 40
0.0002814964786281
 10
3.575309679436679
 20
2.920701526910688
 30
0.0
 10
3.577722117467971
 20
2.923499223283418
 30
0.0
 10
3.580132779167278
 20
2.926298452412873
 30
0.0
 10
3.582541615195576
 20
2.929099250734351
 30
0.0
  0
SPLINE
  5
14E
330
1F
100
AcDbEntity
  8
0
  6
HIDDEN
 62
     7
100
AcDbSpline
210
0.0
220
0.0
230
1.0
 70
     8
 71
     3
 72
     8
 73
     4
 74
     0
 42
0.00000001
 43
0.00000001
 40
0.0
 40
0.0
 40
0.0
 40
0.0
 40
0.0006203966708995
 40
0.0006203966708995
 40
0.0006203966708995
 40
0.0006203966708995
 10
3.562856575825498
 20
2.913573230399377
 30
0.0
 10
3.568524100370375
 20
2.917706404645808
 30
0.0
 10
3.574190018973633
 20
2.921840680285257
 30
0.0
 10
3.579854241281303
 20
2.925976117312875
 30
0.0
  0
SPLINE
  5
14F
330
1F
100
AcDbEntity
  8
0
  6
HIDDEN
 62
     7
100
AcDbSpline
210
0.0
220
0.0
230
1.0
 70
     8
 71
     3
 72
     8
 73
     4
 74
     0
 42
0.00000001
 43
0.00000001
 40
0.0
 40
0.0
 40
0.0
 40
0.0
 40
0.0005429959629505
 40
0.0005429959629505
 40
0.0005429959629505
 40
0.0005429959629505
 10
3.562856575825498
 20
2.916204250668072
 30
0.0
 10
3.567023988870864
 20
2.917700295609034
 30
0.0
 10
3.571175335412488
 20
2.919199348308126
 30
0.0
 10
3.575309679436679
 20
2.920701526910688
 30
0.0
  0
SPLINE
  5
150
330
1F
100
AcDbEntity
  8
0
  6
HIDDEN
 62
     7
100
AcDbSpline
210
0.0
220
0.0
230
1.0
 70
     8
 71
     3
 72
     8
 73
     4
 74
     0
 42
0.00000001
 43
0.00000001
 40
0.0
 40
0.0
 40
0.0
 40
0.0
 40
0.0001046527498262
 40
0.0001046527498262
 40
0.0001046527498262
 40
0.0001046527498262
 10
3.582541615195576
 20
4.588257322049744
 30
0.0
 10
3.581646075345592
 20
4.589298582840924
 30
0.0
 10
3.580750283186168
 20
4.59033962668468
 30
0.0
 10
3.579854241281303
 20
4.591380455471219
 30
0.0
  0
SPLINE
  5
151
330
1F
100
AcDbEntity
  8
0
  6
HIDDEN
 62
     7
100
AcDbSpline
210
0.0
220
0.0
230
1.0
 70
     8
 71
     3
 72
     8
 73
     4
 74
     0
 42
0.00000001
 43
0.00000001
 40
0.0
 40
0.0
 40
0.0
 40
0.0
 40
0.0006203966708995
 40
0.0006203966708995
 40
0.0006203966708995
 40
0.0006203966708995
 10
3.562856575825498
 20
4.603783342384718
 30
0.0
 10
3.568524100370375
 20
4.599650168138287
 30
0.0
 10
3.574190018973632
 20
4.595515892498836
 30
0.0
 10
3.579854241281303
 20
4.591380455471219
 30
0.0
  0
SPLINE
  5
152
330
1F
100
AcDbEntity
  8
0
  6
HIDDEN
 62
     7
100
AcDbSpline
210
0.0
220
0.0
230
1.0
 70
     8
 71
     3
 72
     8
 73
     4
 74
     0
 42
0.00000001
 43
0.00000001
 40
0.0
 40
0.0
 40
0.0
 40
0.0
 40
0.0005429959629505
 40
0.0005429959629505
 40
0.0005429959629505
 40
0.0005429959629505
 10
3.562856575825498
 20
4.601152322116022
 30
0.0
 10
3.567023988870863
 20
4.59965627717506
 30
0.0
 10
3.571175335412488
 20
4.598157224475969
 30
0.0
 10
3.575309679436679
 20
4.596655045873407
 30
0.0
  0
SPLINE
  5
153
330
1F
100
AcDbEntity
  8
0
  6
HIDDEN
 62
     7
100
AcDbSpline
210
0.0
220
0.0
230
1.0
 70
     8
 71
     3
 72
     8
 73
     4
 74
     0
 42
0.00000001
 43
0.00000001
 40
0.0
 40
0.0
 40
0.0
 40
0.0
 40
0.0002814964786281
 40
0.0002814964786281
 40
0.0002814964786281
 40
0.0002814964786281
 10
3.575309679436679
 20
4.596655045873407
 30
0.0
 10
3.577722117467971
 20
4.593857349500676
 30
0.0
 10
3.580132779167278
 20
4.591058120371221
 30
0.0
 10
3.582541615195576
 20
4.588257322049744
 30
0.0
  0
LINE
  5
154
330
1F
100
AcDbEntity
  8
0
  6
HIDDEN
 62
     7
100
AcDbLine
 10
3.5798542413
 20
4.5913804555
 30
0.0
 11
3.7570195956
 21
4.5913804555
 31
0.0
  0
LINE
  5
155
330
1F
100
AcDbEntity
  8
0
  6
HIDDEN
 62
     7
100
AcDbLine
 10
3.7524750338
 20
2.9207015269
 30
0.0
 11
3.5753096794
 21
2.9207015269
 31
0.0
  0
SPLINE
  5
156
330
1F
100
AcDbEntity
  8
0
  6
HIDDEN
 62
     7
100
AcDbSpline
210
0.0
220
0.0
230
1.0
 70
     8
 71
     3
 72
     8
 73
     4
 74
     0
 42
0.00000001
 43
0.00000001
 40
0.0
 40
0.0
 40
0.0
 40
0.0
 40
0.0005429959629505
 40
0.0005429959629505
 40
0.0005429959629505
 40
0.0005429959629505
 10
3.740021930156206
 20
4.601152322116022
 30
0.0
 10
3.744189343201573
 20
4.59965627717506
 30
0.0
 10
3.748340689743197
 20
4.598157224475969
 30
0.0
 10
3.752475033767388
 20
4.596655045873407
 30
0.0
  0
LINE
  5
157
330
1F
100
AcDbEntity
  8
0
  6
HIDDEN
 62
     7
100
AcDbLine
 10
3.7524750338
 20
4.5966550459
 30
0.0
 11
3.5753096794
 21
4.5966550459
 31
0.0
  0
SPLINE
  5
158
330
1F
100
AcDbEntity
  8
0
  6
HIDDEN
 62
     7
100
AcDbSpline
210
0.0
220
0.0
230
1.0
 70
     8
 71
     3
 72
     8
 73
     4
 74
     0
 42
0.00000001
 43
0.00000001
 40
0.0
 40
0.0
 40
0.0
 40
0.0
 40
0.0002814964786281
 40
0.0002814964786281
 40
0.0002814964786281
 40
0.0002814964786281
 10
3.759706969526285
 20
4.588257322049744
 30
0.0
 10
3.757298133497987
 20
4.591058120371221
 30
0.0
 10
3.75488747179868
 20
4.593857349500676
 30
0.0
 10
3.752475033767388
 20
4.596655045873407
 30
0.0
  0
LINE
  5
159
330
1F
100
AcDbEntity
  8
0
  6
HIDDEN
 62
     7
100
AcDbLine
 10
3.5798542413
 20
2.9259761173
 30
0.0
 11
3.7570195956
 21
2.9259761173
 31
0.0
  0
SPLINE
  5
15A
330
1F
100
AcDbEntity
  8
0
  6
HIDDEN
 62
     7
100
AcDbSpline
210
0.0
220
0.0
230
1.0
 70
     8
 71
     3
 72
     8
 73
     4
 74
     0
 42
0.00000001
 43
0.00000001
 40
0.0
 40
0.0
 40
0.0
 40
0.0
 40
0.0006203966708995
 40
0.0006203966708995
 40
0.0006203966708995
 40
0.0006203966708995
 10
3.757019595612013
 20
2.925976117312875
 30
0.0
 10
3.751355373304341
 20
2.921840680285257
 30
0.0
 10
3.745689454701084
 20
2.917706404645808
 30
0.0
 10
3.740021930156206
 20
2.913573230399377
 30
0.0
  0
LINE
  5
15B
330
1F
100
AcDbEntity
  8
0
  6
HIDDEN
 62
     7
100
AcDbLine
 10
3.0779625273
 20
4.2508042706
 30
0.0
 11
3.0734255201
 21
4.2508042706
 31
0.0
  0
SPLINE
  5
15C
330
1F
100
AcDbEntity
  8
0
  6
HIDDEN
 62
     7
100
AcDbSpline
210
0.0
220
0.0
230
1.0
 70
     8
 71
     3
 72
     8
 73
     4
 74
     0
 42
0.00000001
 43
0.00000001
 40
0.0
 40
0.0
 40
0.0
 40
0.0
 40
0.0006203966708995
 40
0.0006203966708995
 40
0.0006203966708995
 40
0.0006203966708995
 10
3.090415630943607
 20
3.254149415226583
 30
0.0
 10
3.08474810639873
 20
3.258282589473014
 30
0.0
 10
3.079082187795473
 20
3.262416865112463
 30
0.0
 10
3.073417965487801
 20
3.266552302140081
 30
0.0
  0
SPLINE
  5
15D
330
1F
100
AcDbEntity
  8
0
  6
HIDDEN
 62
     7
100
AcDbSpline
210
0.0
220
0.0
230
1.0
 70
     8
 71
     3
 72
     8
 73
     4
 74
     0
 42
0.00000001
 43
0.00000001
 40
0.0
 40
0.0
 40
0.0
 40
0.0
 40
0.0005429959629505
 40
0.0005429959629505
 40
0.0005429959629505
 40
0.0005429959629505
 10
3.077962527332426
 20
4.250804270644019
 30
0.0
 10
3.082096871356617
 20
4.256410477510824
 30
0.0
 10
3.086248217898241
 20
4.262005018347057
 30
0.0
 10
3.090415630943607
 20
4.267588334077133
 30
0.0
  0
LINE
  5
15E
330
1F
100
AcDbEntity
  8
0
  6
HIDDEN
 62
     7
100
AcDbLine
 10
4.2714391957
 20
3.1385995462
 30
0.0
 11
4.0353763181
 21
3.1385995462
 31
0.0
  0
LINE
  5
15F
330
1F
100
AcDbEntity
  8
0
  6
HIDDEN
 62
     7
100
AcDbLine
 10
4.2616754735
 20
3.1287570265
 30
0.0
 11
4.0451400404
 21
3.1287570265
 31
0.0
  0
LINE
  5
160
330
1F
100
AcDbEntity
  8
0
  6
HIDDEN
 62
     7
100
AcDbLine
 10
4.1534077569
 20
4.2901743494
 30
0.0
 11
4.2518329538
 21
4.2901743494
 31
0.0
  0
LINE
  5
161
330
1F
100
AcDbEntity
  8
0
  6
HIDDEN
 62
     7
100
AcDbLine
 10
4.0549825601
 20
4.2901743494
 30
0.0
 11
4.1534077569
 21
4.2901743494
 31
0.0
  0
LINE
  5
162
330
1F
100
AcDbEntity
  8
0
  6
HIDDEN
 62
     7
100
AcDbLine
 10
4.1534077569
 20
4.2901743494
 30
0.0
 11
4.1534077569
 21
4.4870247431
 31
0.0
  0
LINE
  5
163
330
1F
100
AcDbEntity
  8
0
  6
HIDDEN
 62
     7
100
AcDbLine
 10
4.0549825601
 20
4.2901743494
 30
0.0
 11
4.0549825601
 21
4.4870247431
 31
0.0
  0
LINE
  5
164
330
1F
100
AcDbEntity
  8
0
  6
HIDDEN
 62
     7
100
AcDbLine
 10
4.2518329538
 20
4.2901743494
 30
0.0
 11
4.2518329538
 21
4.4870247431
 31
0.0
  0
CIRCLE
  5
165
330
1F
100
AcDbEntity
  8
0
  6
HIDDEN
 62
     7
100
AcDbCircle
 10
2.4998644498
 20
3.1287570265
 30
0.0
 40
0.1181102362204727
  0
POLYLINE
  5
166
330
1F
100
AcDbEntity
  8
0
  6
HIDDEN
 62
     7
100
AcDb2dPolyline
 66
     1
 10
0.0
 20
0.0
 30
0.0
  0
VERTEX
  5
332
330
166
100
AcDbEntity
  8
0
  6
HIDDEN
 62
     7
100
AcDbVertex
100
AcDb2dVertex
 10
2.4990725797
 20
4.0340930222
 30
0.0
  0
VERTEX
  5
333
330
166
100
AcDbEntity
  8
0
  6
HIDDEN
 62
     7
100
AcDbVertex
100
AcDb2dVertex
 10
2.4990725797
 20
4.0340930222
 30
0.0
  0
SEQEND
  5
334
330
166
100
AcDbEntity
  8
0
  6
HIDDEN
 62
     7
  0
LINE
  5
167
330
1F
100
AcDbEntity
  8
0
  6
HIDDEN
 62
     7
100
AcDbLine
 10
2.2045888593
 20
4.0340930222
 30
0.0
 11
2.4990725797
 21
4.0340930222
 31
0.0
  0
LINE
  5
168
330
1F
100
AcDbEntity
  8
0
  6
HIDDEN
 62
     7
100
AcDbLine
 10
2.7852975207
 20
3.4832635506
 30
0.0
 11
2.2045888593
 21
3.4832635506
 31
0.0
  0
LINE
  5
169
330
1F
100
AcDbEntity
  8
0
  6
HIDDEN
 62
     7
100
AcDbLine
 10
2.2045888593
 20
4.0340930222
 30
0.0
 11
2.1849038199
 21
4.0537897894
 31
0.0
  0
ARC
  5
16A
330
1F
100
AcDbEntity
  8
0
  6
HIDDEN
 62
     7
100
AcDbCircle
 10
2.1849038199
 20
3.522457814
 30
0.0
 40
0.6003937007874015
100
AcDbArc
 50
58.4480628862
 51
90.0
  0
LINE
  5
16B
330
1F
100
AcDbEntity
  8
0
  6
HIDDEN
 62
     7
100
AcDbLine
 10
2.1849038199
 20
3.4635667834
 30
0.0
 11
2.2045888593
 21
3.4832635506
 31
0.0
  0
POLYLINE
  5
16C
330
1F
100
AcDbEntity
  8
0
  6
HIDDEN
 62
     7
100
AcDb2dPolyline
 66
     1
 10
0.0
 20
0.0
 30
0.0
  0
VERTEX
  5
335
330
16C
100
AcDbEntity
  8
0
  6
HIDDEN
 62
     7
100
AcDbVertex
100
AcDb2dVertex
 10
2.6964605462
 20
3.118754408
 30
0.0
  0
VERTEX
  5
336
330
16C
100
AcDbEntity
  8
0
  6
HIDDEN
 62
     7
100
AcDbVertex
100
AcDb2dVertex
 10
2.6967148435
 20
3.1287570265
 30
0.0
  0
VERTEX
  5
337
330
16C
100
AcDbEntity
  8
0
  6
HIDDEN
 62
     7
100
AcDbVertex
100
AcDb2dVertex
 10
2.6966826697
 20
3.132315938
 30
0.0
  0
SEQEND
  5
338
330
16C
100
AcDbEntity
  8
0
  6
HIDDEN
 62
     7
  0
ARC
  5
16D
330
1F
100
AcDbEntity
  8
0
  6
HIDDEN
 62
     7
100
AcDbCircle
 10
2.4998644498
 20
3.1287570265
 30
0.0
 40
0.1968503937007874
100
AcDbArc
 50
88.2943127198
 51
192.5467255121
  0
CIRCLE
  5
16E
330
1F
100
AcDbEntity
  8
0
  6
HIDDEN
 62
     7
100
AcDbCircle
 10
2.4998644498
 20
3.1287570265
 30
0.0
 40
0.1082677165354329
  0
LINE
  5
16F
330
1F
100
AcDbEntity
  8
0
  6
HIDDEN
 62
     7
100
AcDbLine
 10
4.3502581506
 20
4.2508042706
 30
0.0
 11
4.3502581506
 21
4.5146354579
 31
0.0
  0
LINE
  5
170
330
1F
100
AcDbEntity
  8
0
  6
HIDDEN
 62
     7
100
AcDbLine
 10
3.9565573632
 20
4.5146851131
 30
0.0
 11
3.9565573632
 21
4.2508042706
 31
0.0
  0
LINE
  5
171
330
1F
100
AcDbEntity
  8
0
  6
HIDDEN
 62
     7
100
AcDbLine
 10
4.0352975207
 20
3.7488357667
 30
0.0
 11
4.0352975207
 21
3.0025107146
 31
0.0
  0
LINE
  5
172
330
1F
100
AcDbEntity
  8
0
  6
HIDDEN
 62
     7
100
AcDbLine
 10
4.2715179931
 20
3.0025777609
 30
0.0
 11
4.2715179931
 21
3.7488357667
 31
0.0
  0
LINE
  5
173
330
1F
100
AcDbEntity
  8
0
  6
HIDDEN
 62
     7
100
AcDbLine
 10
4.0352975207
 20
4.2508042706
 30
0.0
 11
4.0352975207
 21
3.7685208061
 31
0.0
  0
LINE
  5
174
330
1F
100
AcDbEntity
  8
0
  6
HIDDEN
 62
     7
100
AcDbLine
 10
4.2715179931
 20
3.7685208061
 30
0.0
 11
4.2715179931
 21
4.2508042706
 31
0.0
  0
LINE
  5
175
330
1F
100
AcDbEntity
  8
0
  6
HIDDEN
 62
     7
100
AcDbLine
 10
4.4683683868
 20
4.0539538769
 30
0.0
 11
4.4486833475
 21
4.0342688376
 31
0.0
  0
LINE
  5
176
330
1F
100
AcDbEntity
  8
0
  6
HIDDEN
 62
     7
100
AcDbLine
 10
4.4486833475
 20
3.4830877352
 30
0.0
 11
4.4683683868
 21
3.4634026958
 31
0.0
  0
LINE
  5
177
330
1F
100
AcDbEntity
  8
0
  6
HIDDEN
 62
     7
100
AcDbLine
 10
3.8482896467
 20
4.0342688376
 30
0.0
 11
3.5825416152
 21
4.0342688376
 31
0.0
  0
LINE
  5
178
330
1F
100
AcDbEntity
  8
0
  6
HIDDEN
 62
     7
100
AcDbLine
 10
3.5825416152
 20
3.4830877352
 30
0.0
 11
3.8482896467
 21
3.4830877352
 31
0.0
  0
LINE
  5
179
330
1F
100
AcDbEntity
  8
0
  6
HIDDEN
 62
     7
100
AcDbLine
 10
4.4486833475
 20
4.0342688376
 30
0.0
 11
3.8679746861
 21
4.0342688376
 31
0.0
  0
LINE
  5
17A
330
1F
100
AcDbEntity
  8
0
  6
HIDDEN
 62
     7
100
AcDbLine
 10
3.8679746861
 20
3.4830877352
 30
0.0
 11
4.4486833475
 21
3.4830877352
 31
0.0
  0
LINE
  5
17B
330
1F
100
AcDbEntity
  8
0
  6
HIDDEN
 62
     7
100
AcDbLine
 10
3.0707305916
 20
3.4830877352
 30
0.0
 11
3.5825416152
 21
3.4830877352
 31
0.0
  0
LINE
  5
17C
330
1F
100
AcDbEntity
  8
0
  6
HIDDEN
 62
     7
100
AcDbLine
 10
3.5825416152
 20
4.0342688376
 30
0.0
 11
3.0707305916
 21
4.0342688376
 31
0.0
  0
ARC
  5
17D
330
1F
100
AcDbEntity
  8
0
  6
HIDDEN
 62
     7
100
AcDbCircle
 10
3.9663998829
 20
4.4771822234
 30
0.0
 40
0.0098425196850394
100
AcDbArc
 50
129.8487510623
 51
180.0
  0
ARC
  5
17E
330
1F
100
AcDbEntity
  8
0
  6
HIDDEN
 62
     7
100
AcDbCircle
 10
4.3404156309
 20
4.4771822234
 30
0.0
 40
0.0098425196850398
100
AcDbArc
 50
0.0
 51
50.6100054314
  0
LINE
  5
17F
330
1F
100
AcDbEntity
  8
0
  6
HIDDEN
 62
     7
100
AcDbLine
 10
4.3502581506
 20
4.2508042706
 30
0.0
 11
4.3502581506
 21
4.4771822234
 31
0.0
  0
LINE
  5
180
330
1F
100
AcDbEntity
  8
0
  6
HIDDEN
 62
     7
100
AcDbLine
 10
3.9565573632
 20
4.4771822234
 30
0.0
 11
3.9565573632
 21
4.2508042706
 31
0.0
  0
LINE
  5
181
330
1F
100
AcDbEntity
  8
0
  6
HIDDEN
 62
     7
100
AcDbLine
 10
4.2715179931
 20
3.1385995462
 30
0.0
 11
4.2715179931
 21
3.7488357667
 31
0.0
  0
LINE
  5
182
330
1F
100
AcDbEntity
  8
0
  6
HIDDEN
 62
     7
100
AcDbLine
 10
4.2715179931
 20
3.7685208061
 30
0.0
 11
4.2715179931
 21
4.2508042706
 31
0.0
  0
LINE
  5
183
330
1F
100
AcDbEntity
  8
0
  6
HIDDEN
 62
     7
100
AcDbLine
 10
4.0352975207
 20
4.2508042706
 30
0.0
 11
4.0352975207
 21
3.7685208061
 31
0.0
  0
LINE
  5
184
330
1F
100
AcDbEntity
  8
0
  6
HIDDEN
 62
     7
100
AcDbLine
 10
4.0352975207
 20
3.7488357667
 30
0.0
 11
4.0352975207
 21
3.1385995462
 31
0.0
  0
ARC
  5
185
330
1F
100
AcDbEntity
  8
0
  6
HIDDEN
 62
     7
100
AcDbCircle
 10
4.2616754735
 20
3.1385995462
 30
0.0
 40
0.0098425196850398
100
AcDbArc
 50
270.0
 51
0.0
  0
ARC
  5
186
330
1F
100
AcDbEntity
  8
0
  6
HIDDEN
 62
     7
100
AcDbCircle
 10
4.0451400404
 20
3.1385995462
 30
0.0
 40
0.0098425196850394
100
AcDbArc
 50
180.0
 51
270.0
  0
LINE
  5
187
330
1F
100
AcDbEntity
  8
0
  6
HIDDEN
 62
     7
100
AcDbLine
 10
2.7852975207
 20
4.0342688376
 30
0.0
 11
2.4990725797
 21
4.0342688376
 31
0.0
  0
LINE
  5
188
330
1F
100
AcDbEntity
  8
0
  6
HIDDEN
 62
     7
100
AcDbLine
 10
2.8049825601
 20
3.4830877352
 30
0.0
 11
3.0707305916
 21
3.4830877352
 31
0.0
  0
LINE
  5
189
330
1F
100
AcDbEntity
  8
0
  6
HIDDEN
 62
     7
100
AcDbLine
 10
3.0707305916
 20
4.0342688376
 30
0.0
 11
2.8049825601
 21
4.0342688376
 31
0.0
  0
LINE
  5
18A
330
1F
100
AcDbEntity
  8
0
  6
HIDDEN
 62
     7
100
AcDbLine
 10
3.9565573632
 20
4.4771822234
 30
0.0
 11
4.3502581506
 21
4.4771822234
 31
0.0
  0
LINE
  5
18B
330
1F
100
AcDbEntity
  8
0
  6
CONTINUOUS
 62
     7
100
AcDbLine
 10
7.4241129528
 20
4.4771822234
 30
0.0
 11
7.4241129528
 21
4.2927200173
 31
0.0
  0
ARC
  5
18C
330
1F
100
AcDbEntity
  8
0
  6
CONTINUOUS
 62
     7
100
AcDbCircle
 10
7.4339554725
 20
4.4771822234
 30
0.0
 40
0.0098425196850398
100
AcDbArc
 50
90.0
 51
180.0
  0
LINE
  5
18D
330
1F
100
AcDbEntity
  8
0
  6
CONTINUOUS
 62
     7
100
AcDbLine
 10
7.7390735827
 20
3.7488357667
 30
0.0
 11
7.7390735827
 21
3.7685208061
 31
0.0
  0
LINE
  5
18E
330
1F
100
AcDbEntity
  8
0
  6
CONTINUOUS
 62
     7
100
AcDbLine
 10
7.5028531103
 20
3.7685208061
 30
0.0
 11
7.5028531103
 21
3.7488357667
 31
0.0
  0
LINE
  5
18F
330
1F
100
AcDbEntity
  8
0
  6
CONTINUOUS
 62
     7
100
AcDbLine
 10
7.5323806693
 20
2.9319066328
 30
0.0
 11
7.7168428754
 21
2.9319066328
 31
0.0
  0
ARC
  5
190
330
1F
100
AcDbEntity
  8
0
  6
CONTINUOUS
 62
     7
100
AcDbCircle
 10
7.5323806693
 20
2.9417491525
 30
0.0
 40
0.0098425196850398
100
AcDbArc
 50
180.0
 51
270.0
  0
ARC
  5
191
330
1F
100
AcDbEntity
  8
0
  6
CONTINUOUS
 62
     7
100
AcDbCircle
 10
8.2508846063
 20
3.7586782864
 30
0.0
 40
0.295275590551183
100
AcDbArc
 50
181.9102131717
 51
358.0897868283
  0
LINE
  5
192
330
1F
100
AcDbEntity
  8
0
  6
CONTINUOUS
 62
     7
100
AcDbLine
 10
8.5459961093
 20
3.7488357667
 30
0.0
 11
8.6150578347
 21
3.7488357667
 31
0.0
  0
LINE
  5
193
330
1F
100
AcDbEntity
  8
0
  6
CONTINUOUS
 62
     7
100
AcDbLine
 10
8.6150578347
 20
3.7488357667
 30
0.0
 11
8.6150578347
 21
3.7685208061
 31
0.0
  0
LINE
  5
194
330
1F
100
AcDbEntity
  8
0
  6
CONTINUOUS
 62
     7
100
AcDbLine
 10
8.5459961093
 20
3.7685208061
 30
0.0
 11
8.6150578347
 21
3.7685208061
 31
0.0
  0
ARC
  5
195
330
1F
100
AcDbEntity
  8
0
  6
CONTINUOUS
 62
     7
100
AcDbCircle
 10
8.2508846063
 20
3.7586782864
 30
0.0
 40
0.295275590551183
100
AcDbArc
 50
1.9102131717
 51
178.0897868283
  0
LINE
  5
196
330
1F
100
AcDbEntity
  8
0
  6
CONTINUOUS
 62
     7
100
AcDbLine
 10
7.2863678954
 20
3.7685208061
 30
0.0
 11
7.9557731034
 21
3.7685208061
 31
0.0
  0
ARC
  5
197
330
1F
100
AcDbEntity
  8
0
  6
CONTINUOUS
 62
     7
100
AcDbCircle
 10
8.2508846063
 20
3.7586782864
 30
0.0
 40
0.9645669291338588
100
AcDbArc
 50
180.5846609578
 51
179.4153390422
  0
LINE
  5
198
330
1F
100
AcDbEntity
  8
0
  6
CONTINUOUS
 62
     7
100
AcDbLine
 10
7.2863678954
 20
3.7488357667
 30
0.0
 11
7.9557731034
 21
3.7488357667
 31
0.0
  0
LINE
  5
199
330
1F
100
AcDbEntity
  8
0
  6
CONTINUOUS
 62
     7
100
AcDbLine
 10
7.2666818516
 20
3.7685208061
 30
0.0
 11
7.2863678954
 21
3.7685208061
 31
0.0
  0
ARC
  5
19A
330
1F
100
AcDbEntity
  8
0
  6
CONTINUOUS
 62
     7
100
AcDbCircle
 10
8.2508846063
 20
3.7586782864
 30
0.0
 40
0.9842519685039363
100
AcDbArc
 50
180.5729673449
 51
179.4270326551
  0
LINE
  5
19B
330
1F
100
AcDbEntity
  8
0
  6
CONTINUOUS
 62
     7
100
AcDbLine
 10
7.2666818516
 20
3.7488357667
 30
0.0
 11
7.2863678954
 21
3.7488357667
 31
0.0
  0
SPLINE
  5
19C
330
1F
100
AcDbEntity
  8
0
  6
CONTINUOUS
 62
     7
100
AcDbSpline
210
0.0
220
0.0
230
1.0
 70
     8
 71
     3
 72
     8
 73
     4
 74
     0
 42
0.00000001
 43
0.00000001
 40
0.0
 40
0.0
 40
0.0
 40
0.0
 40
1.0
 40
1.0
 40
1.0
 40
1.0
 10
8.526299342143542
 20
3.748835766707008
 30
0.0
 10
8.526533837448623
 20
3.755397446497034
 30
0.0
 10
8.526533837448623
 20
3.76195912628706
 30
0.0
 10
8.526299342143542
 20
3.768520806077087
 30
0.0
  0
ARC
  5
19D
330
1F
100
AcDbEntity
  8
0
  6
CONTINUOUS
 62
     7
100
AcDbCircle
 10
8.2508846063
 20
3.7586782864
 30
0.0
 40
0.2755905511811032
100
AcDbArc
 50
2.0467130977
 51
177.9532869023
  0
LINE
  5
19E
330
1F
100
AcDbEntity
  8
0
  6
CONTINUOUS
 62
     7
100
AcDbLine
 10
7.9557731034
 20
3.7685208061
 30
0.0
 11
7.9754698705
 21
3.7685208061
 31
0.0
  0
LINE
  5
19F
330
1F
100
AcDbEntity
  8
0
  6
CONTINUOUS
 62
     7
100
AcDbLine
 10
8.5262993421
 20
3.7685208061
 30
0.0
 11
8.5459961093
 21
3.7685208061
 31
0.0
  0
ARC
  5
1A0
330
1F
100
AcDbEntity
  8
0
  6
CONTINUOUS
 62
     7
100
AcDbCircle
 10
8.2508846063
 20
3.7586782864
 30
0.0
 40
0.2755905511811032
100
AcDbArc
 50
182.0467130977
 51
357.9532869023
  0
LINE
  5
1A1
330
1F
100
AcDbEntity
  8
0
  6
CONTINUOUS
 62
     7
100
AcDbLine
 10
7.9557731034
 20
3.7488357667
 30
0.0
 11
7.9754698705
 21
3.7488357667
 31
0.0
  0
LINE
  5
1A2
330
1F
100
AcDbEntity
  8
0
  6
CONTINUOUS
 62
     7
100
AcDbLine
 10
8.5262993421
 20
3.7488357667
 30
0.0
 11
8.5459961093
 21
3.7488357667
 31
0.0
  0
POLYLINE
  5
1A3
330
1F
100
AcDbEntity
  8
0
  6
CONTINUOUS
 62
     7
100
AcDb2dPolyline
 66
     1
 10
0.0
 20
0.0
 30
0.0
  0
VERTEX
  5
339
330
1A3
100
AcDbEntity
  8
0
  6
CONTINUOUS
 62
     7
100
AcDbVertex
100
AcDb2dVertex
 10
7.9754698705
 20
3.7488357667
 30
0.0
  0
VERTEX
  5
33A
330
1A3
100
AcDbEntity
  8
0
  6
CONTINUOUS
 62
     7
100
AcDbVertex
100
AcDb2dVertex
 10
7.9752940551
 20
3.7586782864
 30
0.0
  0
VERTEX
  5
33B
330
1A3
100
AcDbEntity
  8
0
  6
CONTINUOUS
 62
     7
100
AcDbVertex
100
AcDb2dVertex
 10
7.9754698705
 20
3.7685208061
 30
0.0
  0
SEQEND
  5
33C
330
1A3
100
AcDbEntity
  8
0
  6
CONTINUOUS
 62
     7
  0
POLYLINE
  5
1A4
330
1F
100
AcDbEntity
  8
0
  6
CONTINUOUS
 62
     7
100
AcDb2dPolyline
 66
     1
 10
0.0
 20
0.0
 30
0.0
  0
VERTEX
  5
33D
330
1A4
100
AcDbEntity
  8
0
  6
CONTINUOUS
 62
     7
100
AcDbVertex
100
AcDb2dVertex
 10
7.2666818516
 20
3.7685208061
 30
0.0
  0
VERTEX
  5
33E
330
1A4
100
AcDbEntity
  8
0
  6
CONTINUOUS
 62
     7
100
AcDbVertex
100
AcDb2dVertex
 10
7.2666326378
 20
3.7586782864
 30
0.0
  0
VERTEX
  5
33F
330
1A4
100
AcDbEntity
  8
0
  6
CONTINUOUS
 62
     7
100
AcDbVertex
100
AcDb2dVertex
 10
7.2666818516
 20
3.7488357667
 30
0.0
  0
SEQEND
  5
340
330
1A4
100
AcDbEntity
  8
0
  6
CONTINUOUS
 62
     7
  0
LINE
  5
1A5
330
1F
100
AcDbEntity
  8
0
  6
CONTINUOUS
 62
     7
100
AcDbLine
 10
7.4339554725
 20
4.4870247431
 30
0.0
 11
7.5888699716
 21
4.4870247431
 31
0.0
  0
LINE
  5
1A6
330
1F
100
AcDbEntity
  8
0
  6
CONTINUOUS
 62
     7
100
AcDbLine
 10
7.5225381496
 20
3.0966636517
 30
0.0
 11
7.5225381496
 21
2.9417491525
 31
0.0
  0
LINE
  5
1A7
330
1F
100
AcDbEntity
  8
0
  6
CONTINUOUS
 62
     8
100
AcDbLine
 10
7.5782004085
 20
4.4771822234
 30
0.0
 11
7.4241129528
 21
4.4771822234
 31
0.0
  0
LINE
  5
1A8
330
1F
100
AcDbEntity
  8
0
  6
CONTINUOUS
 62
     8
100
AcDbLine
 10
7.5323806693
 20
2.9319066328
 30
0.0
 11
7.5323806693
 21
3.0859940886
 31
0.0
  0
LINE
  5
1A9
330
1F
100
AcDbEntity
  8
0
  6
HIDDEN
 62
     7
100
AcDbLine
 10
7.4241129528
 20
4.2508042706
 30
0.0
 11
7.8178137402
 21
4.2508042706
 31
0.0
  0
LINE
  5
1AA
330
1F
100
AcDbEntity
  8
0
  6
HIDDEN
 62
     7
100
AcDbLine
 10
8.5264751575
 20
2.8137963966
 30
0.0
 11
8.5264751575
 21
3.7476193124
 31
0.0
  0
LINE
  5
1AB
330
1F
100
AcDbEntity
  8
0
  6
HIDDEN
 62
     7
100
AcDbLine
 10
8.5264751575
 20
3.7697372603
 30
0.0
 11
8.5264751575
 21
4.7035601762
 31
0.0
  0
POLYLINE
  5
1AC
330
1F
100
AcDbEntity
  8
0
  6
HIDDEN
 62
     7
100
AcDb2dPolyline
 66
     1
 10
0.0
 20
0.0
 30
0.0
  0
VERTEX
  5
341
330
1AC
100
AcDbEntity
  8
0
  6
HIDDEN
 62
     7
100
AcDbVertex
100
AcDb2dVertex
 10
8.5262993421
 20
3.7685208061
 30
0.0
  0
VERTEX
  5
342
330
1AC
100
AcDbEntity
  8
0
  6
HIDDEN
 62
     7
100
AcDbVertex
100
AcDb2dVertex
 10
8.5264751575
 20
3.7586782864
 30
0.0
  0
VERTEX
  5
343
330
1AC
100
AcDbEntity
  8
0
  6
HIDDEN
 62
     7
100
AcDbVertex
100
AcDb2dVertex
 10
8.5262993421
 20
3.7488357667
 30
0.0
  0
SEQEND
  5
344
330
1AC
100
AcDbEntity
  8
0
  6
HIDDEN
 62
     7
  0
SPLINE
  5
1AD
330
1F
100
AcDbEntity
  8
0
  6
HIDDEN
 62
     7
100
AcDbSpline
210
0.0
220
0.0
230
1.0
 70
    24
 71
     3
 72
     8
 73
     4
 74
     0
 42
0.00000001
 43
0.00000001
 40
0.0
 40
0.0
 40
0.0
 40
0.0
 40
0.0007652584238459
 40
0.0007652584238459
 40
0.0007652584238459
 40
0.0007652584238459
 10
7.758758622072021
 20
4.588257322049741
 30
0.0
 10
7.758758622072021
 20
4.59587139423796
 30
0.0
 10
7.758758622072021
 20
4.603473880749833
 30
0.0
 10
7.758758622072021
 20
4.611065494841298
 30
0.0
  0
SPLINE
  5
1AE
330
1F
100
AcDbEntity
  8
0
  6
HIDDEN
 62
     7
100
AcDbSpline
210
0.0
220
0.0
230
1.0
 70
    24
 71
     3
 72
     8
 73
     4
 74
     0
 42
0.00000001
 43
0.00000001
 40
0.0
 40
0.0
 40
0.0
 40
0.0
 40
0.0007652584238459
 40
0.0007652584238459
 40
0.0007652584238459
 40
0.0007652584238459
 10
7.758758622072021
 20
2.906291077942797
 30
0.0
 10
7.758758622072021
 20
2.913882692034261
 30
0.0
 10
7.758758622072021
 20
2.921485178546134
 30
0.0
 10
7.758758622072021
 20
2.929099250734353
 30
0.0
  0
LINE
  5
1AF
330
1F
100
AcDbEntity
  8
0
  6
HIDDEN
 62
     7
100
AcDbLine
 10
8.7430105906
 20
2.9062910779
 30
0.0
 11
8.7430105906
 21
4.6110654948
 31
0.0
  0
LINE
  5
1B0
330
1F
100
AcDbEntity
  8
0
  6
HIDDEN
 62
     7
100
AcDbLine
 10
7.2863678954
 20
3.7488357667
 30
0.0
 11
7.2863678954
 21
3.7685208061
 31
0.0
  0
LINE
  5
1B1
330
1F
100
AcDbEntity
  8
0
  6
HIDDEN
 62
     7
100
AcDbLine
 10
7.7587586221
 20
2.9290992507
 30
0.0
 11
7.7587586221
 21
4.588257322
 31
0.0
  0
SPLINE
  5
1B2
330
1F
100
AcDbEntity
  8
0
  6
HIDDEN
 62
     7
100
AcDbSpline
210
0.0
220
0.0
230
1.0
 70
    24
 71
     3
 72
     8
 73
     4
 74
     0
 42
0.00000001
 43
0.00000001
 40
0.0
 40
0.0
 40
0.0
 40
0.0
 40
0.0005429959629505
 40
0.0005429959629505
 40
0.0005429959629505
 40
0.0005429959629505
 10
8.759794654009072
 20
4.601152322116022
 30
0.0
 10
8.754211338278997
 20
4.59965627717506
 30
0.0
 10
8.748616797442764
 20
4.598157224475969
 30
0.0
 10
8.74301059057596
 20
4.596655045873407
 30
0.0
  0
SPLINE
  5
1B3
330
1F
100
AcDbEntity
  8
0
  6
HIDDEN
 62
     7
100
AcDbSpline
210
0.0
220
0.0
230
1.0
 70
    24
 71
     3
 72
     8
 73
     4
 74
     0
 42
0.00000001
 43
0.00000001
 40
0.0
 40
0.0
 40
0.0
 40
0.0
 40
0.0006203966708995
 40
0.0006203966708995
 40
0.0006203966708995
 40
0.0006203966708995
 10
8.74301059057596
 20
2.925976117312875
 30
0.0
 10
8.747146027603577
 20
2.921840680285257
 30
0.0
 10
8.751280303243027
 20
2.917706404645808
 30
0.0
 10
8.755413477489457
 20
2.913573230399377
 30
0.0
  0
LINE
  5
1B4
330
1F
100
AcDbEntity
  8
0
  6
HIDDEN
 62
     7
100
AcDbLine
 10
8.7430105906
 20
2.9290992507
 30
0.0
 11
8.7430105906
 21
4.588257322
 31
0.0
  0
SPLINE
  5
1B5
330
1F
100
AcDbEntity
  8
0
  6
HIDDEN
 62
     7
100
AcDbSpline
210
0.0
220
0.0
230
1.0
 70
    24
 71
     3
 72
     8
 73
     4
 74
     0
 42
0.00000001
 43
0.00000001
 40
0.0
 40
0.0
 40
0.0
 40
0.0
 40
0.0005429959629505
 40
0.0005429959629505
 40
0.0005429959629505
 40
0.0005429959629505
 10
7.741974558638906
 20
2.916204250668072
 30
0.0
 10
7.747557874368983
 20
2.917700295609034
 30
0.0
 10
7.753152415205215
 20
2.919199348308126
 30
0.0
 10
7.758758622072021
 20
2.920701526910688
 30
0.0
  0
SPLINE
  5
1B6
330
1F
100
AcDbEntity
  8
0
  6
HIDDEN
 62
     7
100
AcDbSpline
210
0.0
220
0.0
230
1.0
 70
    24
 71
     3
 72
     8
 73
     4
 74
     0
 42
0.00000001
 43
0.00000001
 40
0.0
 40
0.0
 40
0.0
 40
0.0
 40
0.0006203966708995
 40
0.0006203966708995
 40
0.0006203966708995
 40
0.0006203966708995
 10
7.746355735158523
 20
4.603783342384718
 30
0.0
 10
7.750488909404955
 20
4.599650168138287
 30
0.0
 10
7.754623185044404
 20
4.595515892498836
 30
0.0
 10
7.758758622072021
 20
4.591380455471219
 30
0.0
  0
SPLINE
  5
1B7
330
1F
100
AcDbEntity
  8
0
  6
HIDDEN
 62
     7
100
AcDbSpline
210
0.0
220
0.0
230
1.0
 70
    24
 71
     3
 72
     8
 73
     4
 74
     0
 42
0.00000001
 43
0.00000001
 40
0.0
 40
0.0
 40
0.0
 40
0.0
 40
0.0005429959629505
 40
0.0005429959629505
 40
0.0005429959629505
 40
0.0005429959629505
 10
9.088861365805348
 20
4.250804270644019
 30
0.0
 10
9.09036354440791
 20
4.256410477510824
 30
0.0
 10
9.091862597107001
 20
4.262005018347057
 30
0.0
 10
9.093358642047964
 20
4.267588334077133
 30
0.0
  0
SPLINE
  5
1B8
330
1F
100
AcDbEntity
  8
0
  6
HIDDEN
 62
     7
100
AcDbSpline
210
0.0
220
0.0
230
1.0
 70
    24
 71
     3
 72
     8
 73
     4
 74
     0
 42
0.00000001
 43
0.00000001
 40
0.0
 40
0.0
 40
0.0
 40
0.0
 40
0.0006203966708995
 40
0.0006203966708995
 40
0.0006203966708995
 40
0.0006203966708995
 10
9.095989662316661
 20
3.254149415226583
 30
0.0
 10
9.091856488070231
 20
3.258282589473014
 30
0.0
 10
9.08772221243078
 20
3.262416865112463
 30
0.0
 10
9.083586775403163
 20
3.266552302140081
 30
0.0
  0
SPLINE
  5
1B9
330
1F
100
AcDbEntity
  8
0
  6
HIDDEN
 62
     7
100
AcDbSpline
210
0.0
220
0.0
230
1.0
 70
    24
 71
     3
 72
     8
 73
     4
 74
     0
 42
0.00000001
 43
0.00000001
 40
0.0
 40
0.0
 40
0.0
 40
0.0
 40
0.0006203966708995
 40
0.0006203966708995
 40
0.0006203966708995
 40
0.0006203966708995
 10
7.418182437244816
 20
4.250804270644013
 30
0.0
 10
7.414047000217198
 20
4.254939707671631
 30
0.0
 10
7.409912724577749
 20
4.25907398331108
 30
0.0
 10
7.405779550331318
 20
4.263207157557511
 30
0.0
  0
SPLINE
  5
1BA
330
1F
100
AcDbEntity
  8
0
  6
HIDDEN
 62
     7
100
AcDbSpline
210
0.0
220
0.0
230
1.0
 70
    24
 71
     3
 72
     8
 73
     4
 74
     0
 42
0.00000001
 43
0.00000001
 40
0.0
 40
0.0
 40
0.0
 40
0.0
 40
0.0005429959629505
 40
0.0005429959629505
 40
0.0005429959629505
 40
0.0005429959629505
 10
7.412907846842631
 20
3.266552302140076
 30
0.0
 10
7.411405668240069
 20
3.26094609527327
 30
0.0
 10
7.409906615540979
 20
3.255351554437038
 30
0.0
 10
7.408410570600016
 20
3.249768238706962
 30
0.0
  0
SPLINE
  5
1BB
330
1F
100
AcDbEntity
  8
0
  6
HIDDEN
 62
     7
100
AcDbSpline
210
0.0
220
0.0
230
1.0
 70
    24
 71
     3
 72
     8
 73
     4
 74
     0
 42
0.00000001
 43
0.00000001
 40
0.0
 40
0.0
 40
0.0
 40
0.0
 40
0.0002814964786281
 40
0.0002814964786281
 40
0.0002814964786281
 40
0.0002814964786281
 10
7.412907846842631
 20
3.266552302140076
 30
0.0
 10
7.415705543215363
 20
3.266552302140076
 30
0.0
 10
7.418504772344819
 20
3.266552302140076
 30
0.0
 10
7.421305570666296
 20
3.266552302140076
 30
0.0
  0
SPLINE
  5
1BC
330
1F
100
AcDbEntity
  8
0
  6
HIDDEN
 62
     7
100
AcDbSpline
210
0.0
220
0.0
230
1.0
 70
    24
 71
     3
 72
     8
 73
     4
 74
     0
 42
0.00000001
 43
0.00000001
 40
0.0
 40
0.0
 40
0.0
 40
0.0
 40
0.0001046527498261
 40
0.0001046527498261
 40
0.0001046527498261
 40
0.0001046527498261
 10
9.080463641981687
 20
3.266552302140081
 30
0.0
 10
9.081504902772869
 20
3.266552302140081
 30
0.0
 10
9.082545946616625
 20
3.266552302140081
 30
0.0
 10
9.083586775403163
 20
3.266552302140081
 30
0.0
  0
SPLINE
  5
1BD
330
1F
100
AcDbEntity
  8
0
  6
HIDDEN
 62
     7
100
AcDbSpline
210
0.0
220
0.0
230
1.0
 70
    24
 71
     3
 72
     8
 73
     4
 74
     0
 42
0.00000001
 43
0.00000001
 40
0.0
 40
0.0
 40
0.0
 40
0.0
 40
0.0001046527498262
 40
0.0001046527498262
 40
0.0001046527498262
 40
0.0001046527498262
 10
7.421305570666292
 20
4.250804270644013
 30
0.0
 10
7.420264309875111
 20
4.250804270644013
 30
0.0
 10
7.419223266031356
 20
4.250804270644013
 30
0.0
 10
7.418182437244816
 20
4.250804270644013
 30
0.0
  0
SPLINE
  5
1BE
330
1F
100
AcDbEntity
  8
0
  6
HIDDEN
 62
     7
100
AcDbSpline
210
0.0
220
0.0
230
1.0
 70
    24
 71
     3
 72
     8
 73
     4
 74
     0
 42
0.00000001
 43
0.00000001
 40
0.0
 40
0.0
 40
0.0
 40
0.0
 40
0.0002814964786281
 40
0.0002814964786281
 40
0.0002814964786281
 40
0.0002814964786281
 10
9.088861365805348
 20
4.250804270644019
 30
0.0
 10
9.086063669432617
 20
4.250804270644019
 30
0.0
 10
9.08326444030316
 20
4.250804270644019
 30
0.0
 10
9.080463641981684
 20
4.250804270644019
 30
0.0
  0
LINE
  5
1BF
330
1F
100
AcDbEntity
  8
0
  6
HIDDEN
 62
     7
100
AcDbLine
 10
7.4213055707
 20
4.2508042706
 30
0.0
 11
7.4241129528
 21
4.2508042706
 31
0.0
  0
LINE
  5
1C0
330
1F
100
AcDbEntity
  8
0
  6
HIDDEN
 62
     7
100
AcDbLine
 10
7.8178137402
 20
4.2508042706
 30
0.0
 11
9.080463642
 21
4.2508042706
 31
0.0
  0
LINE
  5
1C1
330
1F
100
AcDbEntity
  8
0
  6
HIDDEN
 62
     7
100
AcDbLine
 10
9.080463642
 20
3.2665523021
 30
0.0
 11
7.4213055707
 21
3.2665523021
 31
0.0
  0
LINE
  5
1C2
330
1F
100
AcDbEntity
  8
0
  6
HIDDEN
 62
     7
100
AcDbLine
 10
7.5888699716
 20
4.4870247431
 30
0.0
 11
7.8079712205
 21
4.4870247431
 31
0.0
  0
LINE
  5
1C3
330
1F
100
AcDbEntity
  8
0
  6
HIDDEN
 62
     7
100
AcDbLine
 10
7.7390735827
 20
3.1385995462
 30
0.0
 11
7.5031681949
 21
3.1385995462
 31
0.0
  0
LINE
  5
1C4
330
1F
100
AcDbEntity
  8
0
  6
HIDDEN
 62
     7
100
AcDbLine
 10
7.729231063
 20
3.1287570265
 30
0.0
 11
7.5126956304
 21
3.1287570265
 31
0.0
  0
LINE
  5
1C5
330
1F
100
AcDbEntity
  8
0
  6
HIDDEN
 62
     7
100
AcDbLine
 10
7.6777891604
 20
4.2901743494
 30
0.0
 11
7.7346149743
 21
4.2901743494
 31
0.0
  0
LINE
  5
1C6
330
1F
100
AcDbEntity
  8
0
  6
HIDDEN
 62
     7
100
AcDbLine
 10
7.5641375326
 20
4.2901743494
 30
0.0
 11
7.6777891604
 21
4.2901743494
 31
0.0
  0
LINE
  5
1C7
330
1F
100
AcDbEntity
  8
0
  6
HIDDEN
 62
     7
100
AcDbLine
 10
7.6777891604
 20
4.2901743494
 30
0.0
 11
7.6777891604
 21
4.4870247431
 31
0.0
  0
LINE
  5
1C8
330
1F
100
AcDbEntity
  8
0
  6
HIDDEN
 62
     7
100
AcDbLine
 10
7.5641375326
 20
4.2901743494
 30
0.0
 11
7.5641375326
 21
4.4870247431
 31
0.0
  0
LINE
  5
1C9
330
1F
100
AcDbEntity
  8
0
  6
HIDDEN
 62
     7
100
AcDbLine
 10
7.5073117187
 20
4.2901743494
 30
0.0
 11
7.5641375326
 21
4.2901743494
 31
0.0
  0
LINE
  5
1CA
330
1F
100
AcDbEntity
  8
0
  6
HIDDEN
 62
     7
100
AcDbLine
 10
7.7346149743
 20
4.2901743494
 30
0.0
 11
7.7346149743
 21
4.4870247431
 31
0.0
  0
LINE
  5
1CB
330
1F
100
AcDbEntity
  8
0
  6
HIDDEN
 62
     7
100
AcDbLine
 10
7.5073117187
 20
4.2901743494
 30
0.0
 11
7.5073117187
 21
4.4870247431
 31
0.0
  0
LINE
  5
1CC
330
1F
100
AcDbEntity
  8
0
  6
HIDDEN
 62
     7
100
AcDbLine
 10
9.1032718148
 20
4.2508042706
 30
0.0
 11
9.0889206836
 21
4.2508042706
 31
0.0
  0
LINE
  5
1CD
330
1F
100
AcDbEntity
  8
0
  6
HIDDEN
 62
     7
100
AcDbLine
 10
9.0836399274
 20
3.2665523021
 30
0.0
 11
9.1032718148
 21
3.2665523021
 31
0.0
  0
LINE
  5
1CE
330
1F
100
AcDbEntity
  8
0
  6
HIDDEN
 62
     7
100
AcDbLine
 10
7.3984973979
 20
3.2665523021
 30
0.0
 11
7.412848529
 21
3.2665523021
 31
0.0
  0
LINE
  5
1CF
330
1F
100
AcDbEntity
  8
0
  6
HIDDEN
 62
     7
100
AcDbLine
 10
7.4181292853
 20
4.2508042706
 30
0.0
 11
7.3984973979
 21
4.2508042706
 31
0.0
  0
LINE
  5
1D0
330
1F
100
AcDbEntity
  8
0
  6
HIDDEN
 62
     7
100
AcDbLine
 10
9.1957664961
 20
4.0342688376
 30
0.0
 11
8.2508846063
 21
4.0342688376
 31
0.0
  0
LINE
  5
1D1
330
1F
100
AcDbEntity
  8
0
  6
HIDDEN
 62
     7
100
AcDbLine
 10
8.2508846063
 20
4.0342688376
 30
0.0
 11
7.3060027166
 21
4.0342688376
 31
0.0
  0
LINE
  5
1D2
330
1F
100
AcDbEntity
  8
0
  6
HIDDEN
 62
     7
100
AcDbLine
 10
8.260727126
 20
2.7744755317
 30
0.0
 11
8.260727126
 21
3.4832635506
 31
0.0
  0
LINE
  5
1D3
330
1F
100
AcDbEntity
  8
0
  6
HIDDEN
 62
     7
100
AcDbLine
 10
8.2410420866
 20
2.7744755317
 30
0.0
 11
8.2410420866
 21
3.4832635506
 31
0.0
  0
LINE
  5
1D4
330
1F
100
AcDbEntity
  8
0
  6
HIDDEN
 62
     7
100
AcDbLine
 10
8.260727126
 20
4.1228515147
 30
0.0
 11
8.2410420866
 21
4.1228515147
 31
0.0
  0
LINE
  5
1D5
330
1F
100
AcDbEntity
  8
0
  6
HIDDEN
 62
     7
100
AcDbLine
 10
8.2410420866
 20
4.1228515147
 30
0.0
 11
8.2410420866
 21
4.0340930222
 31
0.0
  0
LINE
  5
1D6
330
1F
100
AcDbEntity
  8
0
  6
HIDDEN
 62
     7
100
AcDbLine
 10
8.260727126
 20
4.1228515147
 30
0.0
 11
8.260727126
 21
4.0340930222
 31
0.0
  0
LINE
  5
1D7
330
1F
100
AcDbEntity
  8
0
  6
HIDDEN
 62
     7
100
AcDbLine
 10
7.9557731034
 20
3.7488357667
 30
0.0
 11
7.9557731034
 21
3.7685208061
 31
0.0
  0
LINE
  5
1D8
330
1F
100
AcDbEntity
  8
0
  6
HIDDEN
 62
     7
100
AcDbLine
 10
8.5459961093
 20
3.7685208061
 30
0.0
 11
8.5459961093
 21
3.7488357667
 31
0.0
  0
LINE
  5
1D9
330
1F
100
AcDbEntity
  8
0
  6
HIDDEN
 62
     7
100
AcDbLine
 10
7.5225381496
 20
3.3157648999
 30
0.0
 11
7.5225381496
 21
3.0966636517
 31
0.0
  0
LINE
  5
1DA
330
1F
100
AcDbEntity
  8
0
  6
HIDDEN
 62
     7
100
AcDbLine
 10
8.8709633465
 20
3.2468672628
 30
0.0
 11
8.8709633465
 21
3.0109618749
 31
0.0
  0
LINE
  5
1DB
330
1F
100
AcDbEntity
  8
0
  6
HIDDEN
 62
     7
100
AcDbLine
 10
8.8808058662
 20
3.0204893105
 30
0.0
 11
8.8808058662
 21
3.2370247431
 31
0.0
  0
LINE
  5
1DC
330
1F
100
AcDbEntity
  8
0
  6
HIDDEN
 62
     7
100
AcDbLine
 10
7.7193885433
 20
3.1855828404
 30
0.0
 11
7.7193885433
 21
3.0719312127
 31
0.0
  0
LINE
  5
1DD
330
1F
100
AcDbEntity
  8
0
  6
HIDDEN
 62
     7
100
AcDbLine
 10
7.7193885433
 20
3.1855828404
 30
0.0
 11
7.5225381496
 21
3.1855828404
 31
0.0
  0
LINE
  5
1DE
330
1F
100
AcDbEntity
  8
0
  6
HIDDEN
 62
     7
100
AcDbLine
 10
7.7193885433
 20
3.2424086543
 30
0.0
 11
7.7193885433
 21
3.1855828404
 31
0.0
  0
LINE
  5
1DF
330
1F
100
AcDbEntity
  8
0
  6
HIDDEN
 62
     7
100
AcDbLine
 10
7.7193885433
 20
3.0719312127
 30
0.0
 11
7.5225381496
 21
3.0719312127
 31
0.0
  0
LINE
  5
1E0
330
1F
100
AcDbEntity
  8
0
  6
HIDDEN
 62
     7
100
AcDbLine
 10
7.7193885433
 20
3.0719312127
 30
0.0
 11
7.7193885433
 21
3.0151053988
 31
0.0
  0
LINE
  5
1E1
330
1F
100
AcDbEntity
  8
0
  6
HIDDEN
 62
     7
100
AcDbLine
 10
7.7193885433
 20
3.2424086543
 30
0.0
 11
7.5225381496
 21
3.2424086543
 31
0.0
  0
LINE
  5
1E2
330
1F
100
AcDbEntity
  8
0
  6
HIDDEN
 62
     7
100
AcDbLine
 10
7.7193885433
 20
3.0151053988
 30
0.0
 11
7.5225381496
 21
3.0151053988
 31
0.0
  0
LINE
  5
1E3
330
1F
100
AcDbEntity
  8
0
  6
HIDDEN
 62
     7
100
AcDbLine
 10
7.8178137402
 20
4.2508042706
 30
0.0
 11
7.8178137402
 21
4.642534362
 31
0.0
  0
LINE
  5
1E4
330
1F
100
AcDbEntity
  8
0
  6
HIDDEN
 62
     7
100
AcDbLine
 10
7.4241129528
 20
4.2929429204
 30
0.0
 11
7.4241129528
 21
4.2508042706
 31
0.0
  0
LINE
  5
1E5
330
1F
100
AcDbEntity
  8
0
  6
HIDDEN
 62
     7
100
AcDbLine
 10
7.5028531103
 20
4.2508042706
 30
0.0
 11
7.5028531103
 21
3.7685208061
 31
0.0
  0
LINE
  5
1E6
330
1F
100
AcDbEntity
  8
0
  6
HIDDEN
 62
     7
100
AcDbLine
 10
7.7390735827
 20
3.7685208061
 30
0.0
 11
7.7390735827
 21
4.2508042706
 31
0.0
  0
LINE
  5
1E7
330
1F
100
AcDbEntity
  8
0
  6
HIDDEN
 62
     7
100
AcDbLine
 10
7.5028531103
 20
3.7488357667
 30
0.0
 11
7.5028531103
 21
3.118990223
 31
0.0
  0
LINE
  5
1E8
330
1F
100
AcDbEntity
  8
0
  6
HIDDEN
 62
     7
100
AcDbLine
 10
7.7390735827
 20
2.9181525023
 30
0.0
 11
7.7390735827
 21
3.7488357667
 31
0.0
  0
LINE
  5
1E9
330
1F
100
AcDbEntity
  8
0
  6
HIDDEN
 62
     7
100
AcDbLine
 10
7.8178137402
 20
4.2508042706
 30
0.0
 11
7.8178137402
 21
4.4771822234
 31
0.0
  0
LINE
  5
1EA
330
1F
100
AcDbEntity
  8
0
  6
HIDDEN
 62
     7
100
AcDbLine
 10
7.4241129528
 20
4.2927200173
 30
0.0
 11
7.4241129528
 21
4.2508042706
 31
0.0
  0
ARC
  5
1EB
330
1F
100
AcDbEntity
  8
0
  6
HIDDEN
 62
     7
100
AcDbCircle
 10
7.8079712205
 20
4.4771822234
 30
0.0
 40
0.0098425196850407
100
AcDbArc
 50
0.0
 51
90.0
  0
LINE
  5
1EC
330
1F
100
AcDbEntity
  8
0
  6
HIDDEN
 62
     7
100
AcDbLine
 10
7.7390735827
 20
3.1385995462
 30
0.0
 11
7.7390735827
 21
3.7488357667
 31
0.0
  0
LINE
  5
1ED
330
1F
100
AcDbEntity
  8
0
  6
HIDDEN
 62
     7
100
AcDbLine
 10
7.7390735827
 20
3.7685208061
 30
0.0
 11
7.7390735827
 21
4.2508042706
 31
0.0
  0
LINE
  5
1EE
330
1F
100
AcDbEntity
  8
0
  6
HIDDEN
 62
     7
100
AcDbLine
 10
7.5028531103
 20
4.2508042706
 30
0.0
 11
7.5028531103
 21
3.7685208061
 31
0.0
  0
LINE
  5
1EF
330
1F
100
AcDbEntity
  8
0
  6
HIDDEN
 62
     7
100
AcDbLine
 10
7.5028531103
 20
3.7488357667
 30
0.0
 11
7.5028531103
 21
3.1385995462
 31
0.0
  0
ARC
  5
1F0
330
1F
100
AcDbEntity
  8
0
  6
HIDDEN
 62
     7
100
AcDbCircle
 10
7.729231063
 20
3.1385995462
 30
0.0
 40
0.0098425196850394
100
AcDbArc
 50
270.0
 51
0.0
  0
ARC
  5
1F1
330
1F
100
AcDbEntity
  8
0
  6
HIDDEN
 62
     7
100
AcDbCircle
 10
7.5126956299
 20
3.1385995462
 30
0.0
 40
0.0098425196850394
100
AcDbArc
 50
180.0
 51
270.0
  0
LINE
  5
1F2
330
1F
100
AcDbEntity
  8
0
  6
HIDDEN
 62
     7
100
AcDbLine
 10
7.7587586221
 20
3.3256074203
 30
0.0
 11
7.3670285307
 21
3.3256074203
 31
0.0
  0
LINE
  5
1F3
330
1F
100
AcDbEntity
  8
0
  6
HIDDEN
 62
     7
100
AcDbLine
 10
7.7166199723
 20
2.9319066328
 30
0.0
 11
7.7587586221
 21
2.9319066328
 31
0.0
  0
LINE
  5
1F4
330
1F
100
AcDbEntity
  8
0
  6
HIDDEN
 62
     7
100
AcDbLine
 10
8.260727126
 20
3.0106467903
 30
0.0
 11
8.8905726697
 21
3.0106467903
 31
0.0
  0
LINE
  5
1F5
330
1F
100
AcDbEntity
  8
0
  6
HIDDEN
 62
     7
100
AcDbLine
 10
9.0914103904
 20
3.2468672628
 30
0.0
 11
8.260727126
 21
3.2468672628
 31
0.0
  0
LINE
  5
1F6
330
1F
100
AcDbEntity
  8
0
  6
HIDDEN
 62
     7
100
AcDbLine
 10
7.7587586221
 20
3.0106467903
 30
0.0
 11
8.2410420866
 21
3.0106467903
 31
0.0
  0
LINE
  5
1F7
330
1F
100
AcDbEntity
  8
0
  6
HIDDEN
 62
     7
100
AcDbLine
 10
8.2410420866
 20
3.2468672628
 30
0.0
 11
7.7587586221
 21
3.2468672628
 31
0.0
  0
LINE
  5
1F8
330
1F
100
AcDbEntity
  8
0
  6
HIDDEN
 62
     7
100
AcDbLine
 10
7.7587586221
 20
3.3256074203
 30
0.0
 11
7.5323806693
 21
3.3256074203
 31
0.0
  0
LINE
  5
1F9
330
1F
100
AcDbEntity
  8
0
  6
HIDDEN
 62
     7
100
AcDbLine
 10
7.7168428754
 20
2.9319066328
 30
0.0
 11
7.7587586221
 21
2.9319066328
 31
0.0
  0
ARC
  5
1FA
330
1F
100
AcDbEntity
  8
0
  6
HIDDEN
 62
     7
100
AcDbCircle
 10
7.5323806693
 20
3.3157649006
 30
0.0
 40
0.0098425196850398
100
AcDbArc
 50
90.0
 51
180.0
  0
LINE
  5
1FB
330
1F
100
AcDbEntity
  8
0
  6
HIDDEN
 62
     7
100
AcDbLine
 10
8.8709633465
 20
3.2468672628
 30
0.0
 11
7.7587586221
 21
3.2468672628
 31
0.0
  0
LINE
  5
1FC
330
1F
100
AcDbEntity
  8
0
  6
HIDDEN
 62
     7
100
AcDbLine
 10
7.7587586221
 20
3.0106467903
 30
0.0
 11
8.8709633465
 21
3.0106467903
 31
0.0
  0
ARC
  5
1FD
330
1F
100
AcDbEntity
  8
0
  6
HIDDEN
 62
     7
100
AcDbCircle
 10
8.8709633465
 20
3.2370247431
 30
0.0
 40
0.0098425196850394
100
AcDbArc
 50
0.0
 51
90.0
  0
ARC
  5
1FE
330
1F
100
AcDbEntity
  8
0
  6
HIDDEN
 62
     7
100
AcDbCircle
 10
8.8709633465
 20
3.02048931
 30
0.0
 40
0.0098425196850407
100
AcDbArc
 50
270.0
 51
0.0
  0
LINE
  5
1FF
330
1F
100
AcDbEntity
  8
0
  6
HIDDEN
 62
     7
100
AcDbLine
 10
7.4241129528
 20
4.4771822234
 30
0.0
 11
7.8178137402
 21
4.4771822234
 31
0.0
  0
LINE
  5
200
330
1F
100
AcDbEntity
  8
0
  6
HIDDEN
 62
     7
100
AcDbLine
 10
7.5323806693
 20
2.9319066328
 30
0.0
 11
7.5323806693
 21
3.3256074203
 31
0.0
  0
LINE
  5
201
330
1F
100
AcDbEntity
  8
0
  6
CONTINUOUS
 62
     7
100
AcDbLine
 10
3.7793920089
 20
5.6877251704
 30
0.0
 11
3.8482896467
 21
5.6877251704
 31
0.0
  0
LINE
  5
202
330
1F
100
AcDbEntity
  8
0
  6
CONTINUOUS
 62
     7
100
AcDbLine
 10
4.4486833475
 20
7.6562291074
 30
0.0
 11
3.7597069695
 21
7.6562291074
 31
0.0
  0
LINE
  5
203
330
1F
100
AcDbEntity
  8
0
  6
CONTINUOUS
 62
     7
100
AcDbLine
 10
4.4683683868
 20
7.6365440681
 30
0.0
 11
4.4486833475
 21
7.6562291074
 31
0.0
  0
LINE
  5
204
330
1F
100
AcDbEntity
  8
0
  6
CONTINUOUS
 62
     7
100
AcDbLine
 10
3.7597069695
 20
5.7074102098
 30
0.0
 11
3.7793920089
 21
5.6877251704
 31
0.0
  0
LINE
  5
205
330
1F
100
AcDbEntity
  8
0
  6
CONTINUOUS
 62
     7
100
AcDbLine
 10
3.0904156309
 20
5.6877251704
 30
0.0
 11
3.7400219302
 21
5.6877251704
 31
0.0
  0
LINE
  5
206
330
1F
100
AcDbEntity
  8
0
  6
CONTINUOUS
 62
     7
100
AcDbLine
 10
3.7400219302
 20
7.6562291074
 30
0.0
 11
3.0904156309
 21
7.6562291074
 31
0.0
  0
LINE
  5
207
330
1F
100
AcDbEntity
  8
0
  6
CONTINUOUS
 62
     7
100
AcDbLine
 10
3.7400219302
 20
5.6877251704
 30
0.0
 11
3.7597069695
 21
5.7074102098
 31
0.0
  0
LINE
  5
208
330
1F
100
AcDbEntity
  8
0
  6
CONTINUOUS
 62
     7
100
AcDbLine
 10
3.7597069695
 20
7.6365440681
 30
0.0
 11
3.7400219302
 21
7.6562291074
 31
0.0
  0
LINE
  5
209
330
1F
100
AcDbEntity
  8
0
  6
CONTINUOUS
 62
     7
100
AcDbLine
 10
3.0904156309
 20
7.6562291074
 30
0.0
 11
3.0707305916
 21
7.6365440681
 31
0.0
  0
LINE
  5
20A
330
1F
100
AcDbEntity
  8
0
  6
CONTINUOUS
 62
     7
100
AcDbLine
 10
3.0707305916
 20
5.7074102098
 30
0.0
 11
3.0904156309
 21
5.6877251704
 31
0.0
  0
LINE
  5
20B
330
1F
100
AcDbEntity
  8
0
  6
CONTINUOUS
 62
     7
100
AcDbLine
 10
2.7852975207
 20
7.6562291074
 30
0.0
 11
2.2045888593
 21
7.6562291074
 31
0.0
  0
LINE
  5
20C
330
1F
100
AcDbEntity
  8
0
  6
CONTINUOUS
 62
     7
100
AcDbLine
 10
3.0510455522
 20
7.6562291074
 30
0.0
 11
2.8049825601
 21
7.6562291074
 31
0.0
  0
LINE
  5
20D
330
1F
100
AcDbEntity
  8
0
  6
CONTINUOUS
 62
     7
100
AcDbLine
 10
2.8049825601
 20
5.6877251704
 30
0.0
 11
3.0510455522
 21
5.6877251704
 31
0.0
  0
LINE
  5
20E
330
1F
100
AcDbEntity
  8
0
  6
CONTINUOUS
 62
     7
100
AcDbLine
 10
2.2045888593
 20
5.6877251704
 30
0.0
 11
2.7852975207
 21
5.6877251704
 31
0.0
  0
LINE
  5
20F
330
1F
100
AcDbEntity
  8
0
  6
CONTINUOUS
 62
     7
100
AcDbLine
 10
2.2045888593
 20
7.6562291074
 30
0.0
 11
2.1849038199
 21
7.6365440681
 31
0.0
  0
LINE
  5
210
330
1F
100
AcDbEntity
  8
0
  6
CONTINUOUS
 62
     7
100
AcDbLine
 10
2.1849038199
 20
5.7074102098
 30
0.0
 11
2.2045888593
 21
5.6877251704
 31
0.0
  0
LINE
  5
211
330
1F
100
AcDbEntity
  8
0
  6
CONTINUOUS
 62
     7
100
AcDbLine
 10
3.0707305916
 20
7.6365440681
 30
0.0
 11
3.0510455522
 21
7.6562291074
 31
0.0
  0
LINE
  5
212
330
1F
100
AcDbEntity
  8
0
  6
CONTINUOUS
 62
     7
100
AcDbLine
 10
3.0510455522
 20
5.6877251704
 30
0.0
 11
3.0707305916
 21
5.7074102098
 31
0.0
  0
LINE
  5
213
330
1F
100
AcDbEntity
  8
0
  6
CONTINUOUS
 62
     7
100
AcDbLine
 10
3.7793920089
 20
6.1798511547
 30
0.0
 11
3.7793920089
 21
5.6877251704
 31
0.0
  0
LINE
  5
214
330
1F
100
AcDbEntity
  8
0
  6
CONTINUOUS
 62
     7
100
AcDbLine
 10
3.6022266546
 20
6.1798511547
 30
0.0
 11
3.7793920089
 21
6.1798511547
 31
0.0
  0
LINE
  5
215
330
1F
100
AcDbEntity
  8
0
  6
CONTINUOUS
 62
     7
100
AcDbLine
 10
3.6022266546
 20
7.1641031232
 30
0.0
 11
3.6022266546
 21
6.1798511547
 31
0.0
  0
LINE
  5
216
330
1F
100
AcDbEntity
  8
0
  6
CONTINUOUS
 62
     7
100
AcDbLine
 10
3.7597069695
 20
7.1641031232
 30
0.0
 11
3.6022266546
 21
7.1641031232
 31
0.0
  0
LINE
  5
217
330
1F
100
AcDbEntity
  8
0
  6
CONTINUOUS
 62
     7
100
AcDbLine
 10
3.7597069695
 20
7.6562291074
 30
0.0
 11
3.7597069695
 21
7.1641031232
 31
0.0
  0
LINE
  5
218
330
1F
100
AcDbEntity
  8
0
  6
CONTINUOUS
 62
     7
100
AcDbLine
 10
4.4486833475
 20
5.6877743842
 30
0.0
 11
3.8679746861
 21
5.6877743842
 31
0.0
  0
LINE
  5
219
330
1F
100
AcDbEntity
  8
0
  6
CONTINUOUS
 62
     7
100
AcDbLine
 10
3.8679746861
 20
6.9475676901
 30
0.0
 11
3.8679746861
 21
5.6877743842
 31
0.0
  0
LINE
  5
21A
330
1F
100
AcDbEntity
  8
0
  6
CONTINUOUS
 62
     7
100
AcDbLine
 10
3.8482896467
 20
6.9475676901
 30
0.0
 11
3.8679746861
 21
6.9475676901
 31
0.0
  0
LINE
  5
21B
330
1F
100
AcDbEntity
  8
0
  6
CONTINUOUS
 62
     7
100
AcDbLine
 10
3.8482896467
 20
6.9475676901
 30
0.0
 11
3.8482896467
 21
5.6877251704
 31
0.0
  0
LINE
  5
21C
330
1F
100
AcDbEntity
  8
0
  6
CONTINUOUS
 62
     7
100
AcDbLine
 10
4.4486833475
 20
5.6877743842
 30
0.0
 11
4.4486833475
 21
7.6562291074
 31
0.0
  0
SPLINE
  5
21D
330
1F
100
AcDbEntity
  8
0
  6
CONTINUOUS
 62
     7
100
AcDbSpline
210
0.0
220
0.0
230
1.0
 70
     8
 71
     3
 72
    88
 73
    84
 74
     0
 42
0.00000001
 43
0.00000001
 40
-0.0312499999999999
 40
-0.0312499999999999
 40
0.0
 40
0.0
 40
0.0312500000000001
 40
0.0312500000000001
 40
0.0468750000000003
 40
0.0468750000000003
 40
0.0625000000000005
 40
0.0625000000000005
 40
0.0781250000000007
 40
0.0781250000000007
 40
0.0937500000000009
 40
0.0937500000000009
 40
0.125000000000001
 40
0.125000000000001
 40
0.1562500000000011
 40
0.1562500000000011
 40
0.1875000000000012
 40
0.1875000000000012
 40
0.2187500000000013
 40
0.2187500000000013
 40
0.2500000000000014
 40
0.2500000000000014
 40
0.2812500000000016
 40
0.2812500000000016
 40
0.3125000000000017
 40
0.3125000000000017
 40
0.3437500000000018
 40
0.3437500000000018
 40
0.3750000000000019
 40
0.3750000000000019
 40
0.4062500000000019
 40
0.4062500000000019
 40
0.4375000000000021
 40
0.4375000000000021
 40
0.4531250000000021
 40
0.4531250000000021
 40
0.4687500000000022
 40
0.4687500000000022
 40
0.4843750000000022
 40
0.4843750000000022
 40
0.5000000000000023
 40
0.5000000000000023
 40
0.5156250000000023
 40
0.5156250000000023
 40
0.5312500000000024
 40
0.5312500000000024
 40
0.5468750000000024
 40
0.5468750000000024
 40
0.5625000000000026
 40
0.5625000000000026
 40
0.5937500000000027
 40
0.5937500000000027
 40
0.6250000000000028
 40
0.6250000000000028
 40
0.6562500000000027
 40
0.6562500000000027
 40
0.6875000000000026
 40
0.6875000000000026
 40
0.7187500000000024
 40
0.7187500000000024
 40
0.7500000000000022
 40
0.7500000000000022
 40
0.7812500000000021
 40
0.7812500000000021
 40
0.796875000000002
 40
0.796875000000002
 40
0.8125000000000018
 40
0.8125000000000018
 40
0.8437500000000014
 40
0.8437500000000014
 40
0.8750000000000011
 40
0.8750000000000011
 40
0.9062500000000008
 40
0.9062500000000008
 40
0.9218750000000007
 40
0.9218750000000007
 40
0.9375000000000004
 40
0.9375000000000004
 40
0.9531250000000003
 40
0.9531250000000003
 40
0.9687500000000001
 40
0.9687500000000001
 40
1.0
 40
1.0
 40
1.03125
 40
1.03125
 10
4.168777950022534
 20
6.238906272774694
 30
0.0
 10
4.138037563833186
 20
6.238906272774694
 30
0.0
 10
4.123009092086329
 20
6.237130489972174
 30
0.0
 10
4.100956962152451
 20
6.231940101464443
 30
0.0
 10
4.093638308687443
 20
6.229763954620013
 30
0.0
 10
4.079481973855973
 20
6.224652941387065
 30
0.0
 10
4.072639174122677
 20
6.22172516128453
 30
0.0
 10
4.059404374315587
 20
6.215168498474946
 30
0.0
 10
4.053012479906889
 20
6.21153942662349
 30
0.0
 10
4.04067732996902
 20
6.203597624068157
 30
0.0
 10
4.034742432563956
 20
6.199282387542047
 30
0.0
 10
4.018033373273359
 20
6.185687631954631
 30
0.0
 10
4.008180789417749
 20
6.17566647365595
 30
0.0
 10
3.990871845468304
 20
6.153969866415798
 30
0.0
 10
3.983673632979496
 20
6.142614176898632
 30
0.0
 10
3.971846783227349
 20
6.119239147486479
 30
0.0
 10
3.967204002423518
 20
6.107122371485898
 30
0.0
 10
3.960483335662285
 20
6.083112599664522
 30
0.0
 10
3.958351149904261
 20
6.071139353968882
 30
0.0
 10
3.956265297680556
 20
6.047326478418435
 30
0.0
 10
3.956332420875083
 20
6.035566511379315
 30
0.0
 10
3.95840890010866
 20
6.012794200848021
 30
0.0
 10
3.960412344667893
 20
6.001709557314431
 30
0.0
 10
3.966221127548458
 20
5.980118647827326
 30
0.0
 10
3.970027305064914
 20
5.969655033263134
 30
0.0
 10
3.979201030923844
 20
5.949739633404279
 30
0.0
 10
3.984583004022383
 20
5.94022540793776
 30
0.0
 10
3.996988293299437
 20
5.922038407664107
 30
0.0
 10
4.004058950198169
 20
5.913315423606185
 30
0.0
 10
4.019862831257457
 20
5.896987192675684
 30
0.0
 10
4.028554169706696
 20
5.889399254095661
 30
0.0
 10
4.047907886535388
 20
5.875435830043445
 30
0.0
 10
4.058683153359472
 20
5.869005230693911
 30
0.0
 10
4.076378834194913
 20
5.860785576640774
 30
0.0
 10
4.082541347128682
 20
5.858275616790542
 30
0.0
 10
4.095520095765482
 20
5.853784129924128
 30
0.0
 10
4.102378005859142
 20
5.851797943260376
 30
0.0
 10
4.116440770845077
 20
5.848573167768436
 30
0.0
 10
4.12368778608175
 20
5.847315519316568
 30
0.0
 10
4.138691875672715
 20
5.845611161088424
 30
0.0
 10
4.146374154454774
 20
5.84518525355198
 30
0.0
 10
4.161531570666425
 20
5.845227226669119
 30
0.0
 10
4.169090470319015
 20
5.845684579705911
 30
0.0
 10
4.184157867082098
 20
5.847474108498433
 30
0.0
 10
4.191411069235969
 20
5.848774153383016
 30
0.0
 10
4.205450944400619
 20
5.852072764376543
 30
0.0
 10
4.21228120627039
 20
5.854090730520481
 30
0.0
 10
4.225201897182611
 20
5.858636737397581
 30
0.0
 10
4.23132674017504
 20
5.861167558515771
 30
0.0
 10
4.248894239335195
 20
5.869429377529456
 30
0.0
 10
4.259619075792116
 20
5.875889332913166
 30
0.0
 10
4.278893560099822
 20
5.889919497757136
 30
0.0
 10
4.28751108472735
 20
5.897509852519332
 30
0.0
 10
4.303141313767534
 20
5.913770578763414
 30
0.0
 10
4.310180168222749
 20
5.922494766754229
 30
0.0
 10
4.322588461122386
 20
5.940811926906003
 30
0.0
 10
4.327945315787743
 20
5.950367369709553
 30
0.0
 10
4.337042967031471
 20
5.970304559835673
 30
0.0
 10
4.340783040825332
 20
5.980686111428389
 30
0.0
 10
4.346538774538318
 20
6.002355054985839
 30
0.0
 10
4.348499009732911
 20
6.013451309692714
 30
0.0
 10
4.350493583874628
 20
6.036056285151315
 30
0.0
 10
4.350533872133847
 20
6.047582874765665
 30
0.0
 10
4.348980598146611
 20
6.065210471429126
 30
0.0
 10
4.348192456271264
 20
6.071142650634257
 30
0.0
 10
4.346023528664454
 20
6.08312026579063
 30
0.0
 10
4.344632733950779
 20
6.089197642181541
 30
0.0
 10
4.339555052432599
 20
6.107296223501648
 30
0.0
 10
4.334982461636719
 20
6.119203813049158
 30
0.0
 10
4.323178308337346
 20
6.142550341512781
 30
0.0
 10
4.315830078772102
 20
6.154115715462473
 30
0.0
 10
4.29870960172681
 20
6.175569142320405
 30
0.0
 10
4.288938271425101
 20
6.185537846489382
 30
0.0
 10
4.272274536440837
 20
6.199129574155721
 30
0.0
 10
4.266332998345323
 20
6.203462033773837
 30
0.0
 10
4.253987223537064
 20
6.211430693674007
 30
0.0
 10
4.247598914804873
 20
6.215065884162311
 30
0.0
 10
4.234393356376164
 20
6.221626947915468
 30
0.0
 10
4.227576179411203
 20
6.224552967759536
 30
0.0
 10
4.213498566112771
 20
6.22965981539695
 30
0.0
 10
4.206186758042593
 20
6.231851956697307
 30
0.0
 10
4.183935839381022
 20
6.23712125232312
 30
0.0
 10
4.168777950022534
 20
6.238906272774694
 30
0.0
 10
4.138037563833186
 20
6.238906272774694
 30
0.0
  0
LINE
  5
21E
330
1F
100
AcDbEntity
  8
0
  6
CONTINUOUS
 62
     7
100
AcDbLine
 10
4.4683683868
 20
7.6365440681
 30
0.0
 11
4.4683683868
 21
5.707460428
 31
0.0
  0
LINE
  5
21F
330
1F
100
AcDbEntity
  8
0
  6
CONTINUOUS
 62
     7
100
AcDbLine
 10
4.4486833475
 20
5.6877743842
 30
0.0
 11
4.4683683868
 21
5.707460428
 31
0.0
  0
SPLINE
  5
220
330
1F
100
AcDbEntity
  8
0
  6
CONTINUOUS
 62
     7
100
AcDbSpline
210
0.0
220
0.0
230
1.0
 70
    24
 71
     3
 72
     8
 73
     4
 74
     0
 42
0.00000001
 43
0.00000001
 40
0.0
 40
0.0
 40
0.0
 40
0.0
 40
0.0007652584238459
 40
0.0007652584238459
 40
0.0007652584238459
 40
0.0007652584238459
 10
3.602226654565656
 20
6.179851154664457
 30
0.0
 10
3.595652123906719
 20
6.179851154664457
 30
0.0
 10
3.589090123622049
 20
6.179851154664457
 30
0.0
 10
3.582541615195576
 20
6.179851154664457
 30
0.0
  0
LINE
  5
221
330
1F
100
AcDbEntity
  8
0
  6
CONTINUOUS
 62
     7
100
AcDbLine
 10
3.5825416152
 20
6.1798511547
 30
0.0
 11
3.5825416152
 21
7.1641031232
 31
0.0
  0
SPLINE
  5
222
330
1F
100
AcDbEntity
  8
0
  6
CONTINUOUS
 62
     7
100
AcDbSpline
210
0.0
220
0.0
230
1.0
 70
    24
 71
     3
 72
     8
 73
     4
 74
     0
 42
0.00000001
 43
0.00000001
 40
0.0
 40
0.0
 40
0.0
 40
0.0
 40
0.0007652584238459
 40
0.0007652584238459
 40
0.0007652584238459
 40
0.0007652584238459
 10
3.582541615195576
 20
7.164103123168395
 30
0.0
 10
3.58909012362205
 20
7.164103123168395
 30
0.0
 10
3.595652123906719
 20
7.164103123168395
 30
0.0
 10
3.602226654565656
 20
7.164103123168395
 30
0.0
  0
LINE
  5
223
330
1F
100
AcDbEntity
  8
0
  6
CONTINUOUS
 62
     7
100
AcDbLine
 10
3.7597069695
 20
5.7074102098
 30
0.0
 11
3.7597069695
 21
6.1798511547
 31
0.0
  0
LINE
  5
224
330
1F
100
AcDbEntity
  8
0
  6
CONTINUOUS
 62
     7
100
AcDbLine
 10
3.5628565758
 20
7.1808871866
 30
0.0
 11
3.7400219302
 21
7.1808871866
 31
0.0
  0
LINE
  5
225
330
1F
100
AcDbEntity
  8
0
  6
CONTINUOUS
 62
     7
100
AcDbLine
 10
3.5628565758
 20
6.1674482678
 30
0.0
 11
3.5628565758
 21
7.1808871866
 31
0.0
  0
LINE
  5
226
330
1F
100
AcDbEntity
  8
0
  6
CONTINUOUS
 62
     7
100
AcDbLine
 10
3.7400219302
 20
6.1674482678
 30
0.0
 11
3.5628565758
 21
6.1674482678
 31
0.0
  0
LINE
  5
227
330
1F
100
AcDbEntity
  8
0
  6
CONTINUOUS
 62
     7
100
AcDbLine
 10
3.7400219302
 20
5.6877251704
 30
0.0
 11
3.7400219302
 21
6.1674482678
 31
0.0
  0
LINE
  5
228
330
1F
100
AcDbEntity
  8
0
  6
CONTINUOUS
 62
     7
100
AcDbLine
 10
3.7400219302
 20
7.1808871866
 30
0.0
 11
3.7400219302
 21
7.6562291074
 31
0.0
  0
LINE
  5
229
330
1F
100
AcDbEntity
  8
0
  6
CONTINUOUS
 62
     7
100
AcDbLine
 10
3.0904156309
 20
5.8268720829
 30
0.0
 11
3.0904156309
 21
5.6877251704
 31
0.0
  0
LINE
  5
22A
330
1F
100
AcDbEntity
  8
0
  6
CONTINUOUS
 62
     7
100
AcDbLine
 10
2.9132502766
 20
5.8268720829
 30
0.0
 11
3.0904156309
 21
5.8268720829
 31
0.0
  0
LINE
  5
22B
330
1F
100
AcDbEntity
  8
0
  6
CONTINUOUS
 62
     7
100
AcDbLine
 10
2.9132502766
 20
7.5144511746
 30
0.0
 11
2.9132502766
 21
5.8268720829
 31
0.0
  0
LINE
  5
22C
330
1F
100
AcDbEntity
  8
0
  6
CONTINUOUS
 62
     7
100
AcDbLine
 10
3.0904156309
 20
7.5144511746
 30
0.0
 11
2.9132502766
 21
7.5144511746
 31
0.0
  0
LINE
  5
22D
330
1F
100
AcDbEntity
  8
0
  6
CONTINUOUS
 62
     7
100
AcDbLine
 10
3.0904156309
 20
7.6562291074
 30
0.0
 11
3.0904156309
 21
7.5144511746
 31
0.0
  0
SPLINE
  5
22E
330
1F
100
AcDbEntity
  8
0
  6
CONTINUOUS
 62
     7
100
AcDbSpline
210
0.0
220
0.0
230
1.0
 70
     8
 71
     3
 72
     8
 73
     4
 74
     0
 42
0.00000001
 43
0.00000001
 40
0.0
 40
0.0
 40
0.0
 40
0.0
 40
0.0001046527498262
 40
0.0001046527498262
 40
0.0001046527498262
 40
0.0001046527498262
 10
2.896252611157093
 20
5.839274969837253
 30
0.0
 10
2.895356569252229
 20
5.840315798623792
 30
0.0
 10
2.894460777092805
 20
5.841356842467547
 30
0.0
 10
2.89356523724282
 20
5.842398103258729
 30
0.0
  0
SPLINE
  5
22F
330
1F
100
AcDbEntity
  8
0
  6
CONTINUOUS
 62
     7
100
AcDbSpline
210
0.0
220
0.0
230
1.0
 70
     8
 71
     3
 72
     8
 73
     4
 74
     0
 42
0.00000001
 43
0.00000001
 40
0.0
 40
0.0
 40
0.0
 40
0.0
 40
0.0002814964786281
 40
0.0002814964786281
 40
0.0002814964786281
 40
0.0002814964786281
 10
2.89356523724282
 20
7.50155617457412
 30
0.0
 10
2.895974073271118
 20
7.504356972895597
 30
0.0
 10
2.898384734970426
 20
7.507156202025053
 30
0.0
 10
2.900797173001718
 20
7.509953898397784
 30
0.0
  0
SPLINE
  5
230
330
1F
100
AcDbEntity
  8
0
  6
CONTINUOUS
 62
     7
100
AcDbSpline
210
0.0
220
0.0
230
1.0
 70
     8
 71
     3
 72
     8
 73
     4
 74
     0
 42
0.00000001
 43
0.00000001
 40
0.0
 40
0.0
 40
0.0
 40
0.0
 40
0.0005429959629505
 40
0.0005429959629505
 40
0.0005429959629505
 40
0.0005429959629505
 10
2.900797173001718
 20
7.509953898397784
 30
0.0
 10
2.904931517025908
 20
7.511456077000346
 30
0.0
 10
2.909082863567533
 20
7.512955129699438
 30
0.0
 10
2.913250276612898
 20
7.5144511746404
 30
0.0
  0
SPLINE
  5
231
330
1F
100
AcDbEntity
  8
0
  6
CONTINUOUS
 62
     7
100
AcDbSpline
210
0.0
220
0.0
230
1.0
 70
     8
 71
     3
 72
     8
 73
     4
 74
     0
 42
0.00000001
 43
0.00000001
 40
0.0
 40
0.0
 40
0.0
 40
0.0
 40
0.0006203966708995
 40
0.0006203966708995
 40
0.0006203966708995
 40
0.0006203966708995
 10
2.896252611157093
 20
5.839274969837253
 30
0.0
 10
2.901916833464765
 20
5.835139532809634
 30
0.0
 10
2.907582752068022
 20
5.831005257170185
 30
0.0
 10
2.913250276612899
 20
5.826872082923754
 30
0.0
  0
SPLINE
  5
232
330
1F
100
AcDbEntity
  8
0
  6
CONTINUOUS
 62
     7
100
AcDbSpline
210
0.0
220
0.0
230
1.0
 70
     8
 71
     3
 72
     8
 73
     4
 74
     0
 42
0.00000001
 43
0.00000001
 40
0.0
 40
0.0
 40
0.0
 40
0.0
 40
0.0006203966708995
 40
0.0006203966708995
 40
0.0006203966708995
 40
0.0006203966708995
 10
3.562856575825498
 20
6.167448267750959
 30
0.0
 10
3.568524100370375
 20
6.17158144199739
 30
0.0
 10
3.574190018973632
 20
6.17571571763684
 30
0.0
 10
3.579854241281303
 20
6.179851154664457
 30
0.0
  0
SPLINE
  5
233
330
1F
100
AcDbEntity
  8
0
  6
CONTINUOUS
 62
     7
100
AcDbSpline
210
0.0
220
0.0
230
1.0
 70
     8
 71
     3
 72
     8
 73
     4
 74
     0
 42
0.00000001
 43
0.00000001
 40
0.0
 40
0.0
 40
0.0
 40
0.0
 40
0.0005429959629505
 40
0.0005429959629505
 40
0.0005429959629505
 40
0.0005429959629505
 10
3.562856575825498
 20
7.180887186601509
 30
0.0
 10
3.567023988870863
 20
7.175303870871433
 30
0.0
 10
3.571175335412488
 20
7.169709330035201
 30
0.0
 10
3.575309679436679
 20
7.164103123168395
 30
0.0
  0
SPLINE
  5
234
330
1F
100
AcDbEntity
  8
0
  6
CONTINUOUS
 62
     7
100
AcDbSpline
210
0.0
220
0.0
230
1.0
 70
     8
 71
     3
 72
     8
 73
     4
 74
     0
 42
0.00000001
 43
0.00000001
 40
0.0
 40
0.0
 40
0.0
 40
0.0
 40
0.0006203966708995
 40
0.0006203966708995
 40
0.0006203966708995
 40
0.0006203966708995
 10
3.740021930156206
 20
6.167448267750959
 30
0.0
 10
3.745689454701083
 20
6.17158144199739
 30
0.0
 10
3.751355373304341
 20
6.17571571763684
 30
0.0
 10
3.757019595612012
 20
6.179851154664457
 30
0.0
  0
LINE
  5
235
330
1F
100
AcDbEntity
  8
0
  6
CONTINUOUS
 62
     7
100
AcDbLine
 10
3.5798542413
 20
6.1798511547
 30
0.0
 11
3.5824890646
 21
6.1798511547
 31
0.0
  0
SPLINE
  5
236
330
1F
100
AcDbEntity
  8
0
  6
CONTINUOUS
 62
     7
100
AcDbSpline
210
0.0
220
0.0
230
1.0
 70
     8
 71
     3
 72
     8
 73
     4
 74
     0
 42
0.00000001
 43
0.00000001
 40
0.0
 40
0.0
 40
0.0
 40
0.0
 40
0.0005429959629505
 40
0.0005429959629505
 40
0.0005429959629505
 40
0.0005429959629505
 10
3.740021930156206
 20
7.180887186601509
 30
0.0
 10
3.744189343201573
 20
7.175303870871433
 30
0.0
 10
3.748340689743197
 20
7.169709330035201
 30
0.0
 10
3.752475033767388
 20
7.164103123168395
 30
0.0
  0
LINE
  5
237
330
1F
100
AcDbEntity
  8
0
  6
CONTINUOUS
 62
     7
100
AcDbLine
 10
3.5824890646
 20
7.1641031232
 30
0.0
 11
3.5753096794
 21
7.1641031232
 31
0.0
  0
LINE
  5
238
330
1F
100
AcDbEntity
  8
0
  6
CONTINUOUS
 62
     7
100
AcDbLine
 10
3.0707305916
 20
7.5144511746
 30
0.0
 11
3.0707305916
 21
7.6365440681
 31
0.0
  0
LINE
  5
239
330
1F
100
AcDbEntity
  8
0
  6
CONTINUOUS
 62
     7
100
AcDbLine
 10
3.0707305916
 20
5.7074102098
 30
0.0
 11
3.0707305916
 21
5.8268720829
 31
0.0
  0
CIRCLE
  5
23A
330
1F
100
AcDbEntity
  8
0
  6
CONTINUOUS
 62
     7
100
AcDbCircle
 10
4.1534077569
 20
6.0420558791
 30
0.0
 40
0.1870078740157481
  0
LINE
  5
23B
330
1F
100
AcDbEntity
  8
0
  6
CONTINUOUS
 62
     7
100
AcDbLine
 10
4.1534077569
 20
6.1557075069
 30
0.0
 11
4.0549825601
 21
6.098881693
 31
0.0
  0
LINE
  5
23C
330
1F
100
AcDbEntity
  8
0
  6
CONTINUOUS
 62
     7
100
AcDbLine
 10
4.0549825601
 20
6.098881693
 30
0.0
 11
4.0549825601
 21
5.9852300652
 31
0.0
  0
LINE
  5
23D
330
1F
100
AcDbEntity
  8
0
  6
CONTINUOUS
 62
     7
100
AcDbLine
 10
4.0549825601
 20
5.9852300652
 30
0.0
 11
4.1534077569
 21
5.9284042513
 31
0.0
  0
LINE
  5
23E
330
1F
100
AcDbEntity
  8
0
  6
CONTINUOUS
 62
     7
100
AcDbLine
 10
4.1534077569
 20
5.9284042513
 30
0.0
 11
4.2518329538
 21
5.9852300652
 31
0.0
  0
LINE
  5
23F
330
1F
100
AcDbEntity
  8
0
  6
CONTINUOUS
 62
     7
100
AcDbLine
 10
4.2518329538
 20
5.9852300652
 30
0.0
 11
4.2518329538
 21
6.098881693
 31
0.0
  0
LINE
  5
240
330
1F
100
AcDbEntity
  8
0
  6
CONTINUOUS
 62
     7
100
AcDbLine
 10
4.2518329538
 20
6.098881693
 30
0.0
 11
4.1534077569
 21
6.1557075069
 31
0.0
  0
CIRCLE
  5
241
330
1F
100
AcDbEntity
  8
0
  6
CONTINUOUS
 62
     7
100
AcDbCircle
 10
4.1534077569
 20
6.0420558791
 30
0.0
 40
0.1968503937007879
  0
LINE
  5
242
330
1F
100
AcDbEntity
  8
0
  6
CONTINUOUS
 62
     7
100
AcDbLine
 10
3.0510455522
 20
7.6562291074
 30
0.0
 11
3.0510455522
 21
7.5243643474
 31
0.0
  0
LINE
  5
243
330
1F
100
AcDbEntity
  8
0
  6
CONTINUOUS
 62
     7
100
AcDbLine
 10
3.0510455522
 20
7.5243643474
 30
0.0
 11
2.8935652372
 21
7.5243643474
 31
0.0
  0
LINE
  5
244
330
1F
100
AcDbEntity
  8
0
  6
CONTINUOUS
 62
     7
100
AcDbLine
 10
2.8935652372
 20
7.5243643474
 30
0.0
 11
2.8935652372
 21
5.8195899305
 31
0.0
  0
LINE
  5
245
330
1F
100
AcDbEntity
  8
0
  6
CONTINUOUS
 62
     7
100
AcDbLine
 10
2.8935652372
 20
5.8195899305
 30
0.0
 11
3.0510455522
 21
5.8195899305
 31
0.0
  0
LINE
  5
246
330
1F
100
AcDbEntity
  8
0
  6
CONTINUOUS
 62
     7
100
AcDbLine
 10
3.0510455522
 20
5.8195899305
 30
0.0
 11
3.0510455522
 21
5.6877251704
 31
0.0
  0
LINE
  5
247
330
1F
100
AcDbEntity
  8
0
  6
CONTINUOUS
 62
     7
100
AcDbLine
 10
2.7852975207
 20
7.6562291074
 30
0.0
 11
2.7852975207
 21
7.6168590287
 31
0.0
  0
LINE
  5
248
330
1F
100
AcDbEntity
  8
0
  6
CONTINUOUS
 62
     7
100
AcDbLine
 10
2.7852975207
 20
7.6168590287
 30
0.0
 11
2.8049825601
 21
7.6168590287
 31
0.0
  0
LINE
  5
249
330
1F
100
AcDbEntity
  8
0
  6
CONTINUOUS
 62
     7
100
AcDbLine
 10
2.8049825601
 20
5.7270952492
 30
0.0
 11
2.8049825601
 21
5.6877251704
 31
0.0
  0
LINE
  5
24A
330
1F
100
AcDbEntity
  8
0
  6
CONTINUOUS
 62
     7
100
AcDbLine
 10
2.8049825601
 20
7.6562291074
 30
0.0
 11
2.8049825601
 21
7.6168590287
 31
0.0
  0
LINE
  5
24B
330
1F
100
AcDbEntity
  8
0
  6
CONTINUOUS
 62
     7
100
AcDbLine
 10
2.8049825601
 20
5.7270952492
 30
0.0
 11
2.7852975207
 21
5.7270952492
 31
0.0
  0
LINE
  5
24C
330
1F
100
AcDbEntity
  8
0
  6
CONTINUOUS
 62
     7
100
AcDbLine
 10
2.7852975207
 20
5.7270952492
 30
0.0
 11
2.7852975207
 21
5.6877251704
 31
0.0
  0
LINE
  5
24D
330
1F
100
AcDbEntity
  8
0
  6
CONTINUOUS
 62
     7
100
AcDbLine
 10
2.2045888593
 20
5.6877251704
 30
0.0
 11
2.2045888593
 21
7.6562291074
 31
0.0
  0
LINE
  5
24E
330
1F
100
AcDbEntity
  8
0
  6
CONTINUOUS
 62
     7
100
AcDbLine
 10
2.1849038199
 20
7.6365440681
 30
0.0
 11
2.1849038199
 21
5.7074102098
 31
0.0
  0
LINE
  5
24F
330
1F
100
AcDbEntity
  8
0
  6
CONTINUOUS
 62
     7
100
AcDbLine
 10
3.0510455522
 20
7.5243643474
 30
0.0
 11
3.0596013097
 21
7.5144511746
 31
0.0
  0
LINE
  5
250
330
1F
100
AcDbEntity
  8
0
  6
CONTINUOUS
 62
     7
100
AcDbLine
 10
3.0573305562
 20
5.8268720829
 30
0.0
 11
3.0510455522
 21
5.8195899305
 31
0.0
  0
CIRCLE
  5
251
330
1F
100
AcDbEntity
  8
0
  6
HIDDEN
 62
     7
100
AcDbCircle
 10
4.1534077569
 20
6.0420558791
 30
0.0
 40
0.1181102362204731
  0
LINE
  5
252
330
1F
100
AcDbEntity
  8
0
  6
HIDDEN
 62
     7
100
AcDbLine
 10
3.8679746861
 20
6.3965624031
 30
0.0
 11
4.4486833475
 21
6.3965624031
 31
0.0
  0
LINE
  5
253
330
1F
100
AcDbEntity
  8
0
  6
HIDDEN
 62
     7
100
AcDbLine
 10
4.4486833475
 20
6.9473918747
 30
0.0
 11
4.1541996271
 21
6.9473918747
 31
0.0
  0
POLYLINE
  5
254
330
1F
100
AcDbEntity
  8
0
  6
HIDDEN
 62
     7
100
AcDb2dPolyline
 66
     1
 10
0.0
 20
0.0
 30
0.0
  0
VERTEX
  5
345
330
254
100
AcDbEntity
  8
0
  6
HIDDEN
 62
     7
100
AcDbVertex
100
AcDb2dVertex
 10
4.1541996271
 20
6.9473918747
 30
0.0
  0
VERTEX
  5
346
330
254
100
AcDbEntity
  8
0
  6
HIDDEN
 62
     7
100
AcDbVertex
100
AcDb2dVertex
 10
4.1541996271
 20
6.9473918747
 30
0.0
  0
SEQEND
  5
347
330
254
100
AcDbEntity
  8
0
  6
HIDDEN
 62
     7
  0
ARC
  5
255
330
1F
100
AcDbEntity
  8
0
  6
HIDDEN
 62
     7
100
AcDbCircle
 10
4.4683683868
 20
6.4357566665
 30
0.0
 40
0.6003937007874018
100
AcDbArc
 50
90.0
 51
121.5519371138
  0
LINE
  5
256
330
1F
100
AcDbEntity
  8
0
  6
HIDDEN
 62
     7
100
AcDbLine
 10
4.4486833475
 20
6.9473918747
 30
0.0
 11
4.4683683868
 21
6.9670886419
 31
0.0
  0
LINE
  5
257
330
1F
100
AcDbEntity
  8
0
  6
HIDDEN
 62
     7
100
AcDbLine
 10
4.4683683868
 20
6.376865636
 30
0.0
 11
4.4486833475
 21
6.3965624031
 31
0.0
  0
LINE
  5
258
330
1F
100
AcDbEntity
  8
0
  6
HIDDEN
 62
     7
100
AcDbLine
 10
3.5628565758
 20
6.1630670912
 30
0.0
 11
3.7400219302
 21
6.1630670912
 31
0.0
  0
LINE
  5
259
330
1F
100
AcDbEntity
  8
0
  6
HIDDEN
 62
     7
100
AcDbLine
 10
3.5628565758
 20
6.1674482678
 30
0.0
 11
3.5628565758
 21
6.1630670912
 31
0.0
  0
LINE
  5
25A
330
1F
100
AcDbEntity
  8
0
  6
HIDDEN
 62
     7
100
AcDbLine
 10
3.7400219302
 20
7.1765060101
 30
0.0
 11
3.5628565758
 21
7.1765060101
 31
0.0
  0
LINE
  5
25B
330
1F
100
AcDbEntity
  8
0
  6
HIDDEN
 62
     7
100
AcDbLine
 10
3.7400219302
 20
7.1808871866
 30
0.0
 11
3.7400219302
 21
7.1765060101
 31
0.0
  0
LINE
  5
25C
330
1F
100
AcDbEntity
  8
0
  6
HIDDEN
 62
     7
100
AcDbLine
 10
3.0904156309
 20
5.8295031032
 30
0.0
 11
2.9132502766
 21
5.8295031032
 31
0.0
  0
LINE
  5
25D
330
1F
100
AcDbEntity
  8
0
  6
HIDDEN
 62
     7
100
AcDbLine
 10
3.0904156309
 20
5.8268720829
 30
0.0
 11
3.0904156309
 21
5.8295031032
 31
0.0
  0
LINE
  5
25E
330
1F
100
AcDbEntity
  8
0
  6
HIDDEN
 62
     7
100
AcDbLine
 10
2.9132502766
 20
7.5170821949
 30
0.0
 11
3.0904156309
 21
7.5170821949
 31
0.0
  0
LINE
  5
25F
330
1F
100
AcDbEntity
  8
0
  6
HIDDEN
 62
     7
100
AcDbLine
 10
2.9132502766
 20
7.5144511746
 30
0.0
 11
2.9132502766
 21
7.5170821949
 31
0.0
  0
SPLINE
  5
260
330
1F
100
AcDbEntity
  8
0
  6
HIDDEN
 62
     7
100
AcDbSpline
210
0.0
220
0.0
230
1.0
 70
     8
 71
     3
 72
     8
 73
     4
 74
     0
 42
0.00000001
 43
0.00000001
 40
0.0
 40
0.0
 40
0.0
 40
0.0
 40
0.0005429959629505
 40
0.0005429959629505
 40
0.0005429959629505
 40
0.0005429959629505
 10
3.740021930156206
 20
6.163067091231342
 30
0.0
 10
3.744189343201572
 20
6.168650406961419
 30
0.0
 10
3.748340689743197
 20
6.174244947797652
 30
0.0
 10
3.752475033767388
 20
6.179851154664457
 30
0.0
  0
SPLINE
  5
261
330
1F
100
AcDbEntity
  8
0
  6
HIDDEN
 62
     7
100
AcDbSpline
210
0.0
220
0.0
230
1.0
 70
     8
 71
     3
 72
     8
 73
     4
 74
     0
 42
0.00000001
 43
0.00000001
 40
0.0
 40
0.0
 40
0.0
 40
0.0
 40
0.0006203966708995
 40
0.0006203966708995
 40
0.0006203966708995
 40
0.0006203966708995
 10
3.757019595612013
 20
7.164103123168395
 30
0.0
 10
3.751355373304341
 20
7.168238560196013
 30
0.0
 10
3.745689454701084
 20
7.172372835835462
 30
0.0
 10
3.740021930156206
 20
7.176506010081893
 30
0.0
  0
SPLINE
  5
262
330
1F
100
AcDbEntity
  8
0
  6
HIDDEN
 62
     7
100
AcDbSpline
210
0.0
220
0.0
230
1.0
 70
     8
 71
     3
 72
     8
 73
     4
 74
     0
 42
0.00000001
 43
0.00000001
 40
0.0
 40
0.0
 40
0.0
 40
0.0
 40
0.0002814964786281
 40
0.0002814964786281
 40
0.0002814964786281
 40
0.0002814964786281
 10
3.077962527332426
 20
7.509953898397784
 30
0.0
 10
3.075550089301134
 20
7.507156202025053
 30
0.0
 10
3.073139427601827
 20
7.504356972895597
 30
0.0
 10
3.070730591573529
 20
7.50155617457412
 30
0.0
  0
LINE
  5
263
330
1F
100
AcDbEntity
  8
0
  6
HIDDEN
 62
     7
100
AcDbLine
 10
3.0707305916
 20
7.5015561746
 30
0.0
 11
3.0707305916
 21
7.5144511746
 31
0.0
  0
SPLINE
  5
264
330
1F
100
AcDbEntity
  8
0
  6
HIDDEN
 62
     7
100
AcDbSpline
210
0.0
220
0.0
230
1.0
 70
     8
 71
     3
 72
     8
 73
     4
 74
     0
 42
0.00000001
 43
0.00000001
 40
0.0
 40
0.0
 40
0.0
 40
0.0
 40
0.0006203966708995
 40
0.0006203966708995
 40
0.0006203966708995
 40
0.0006203966708995
 10
3.090415630943607
 20
7.517082194909098
 30
0.0
 10
3.08474810639873
 20
7.512949020662668
 30
0.0
 10
3.079082187795473
 20
7.508814745023217
 30
0.0
 10
3.073417965487801
 20
7.504679307995599
 30
0.0
  0
SPLINE
  5
265
330
1F
100
AcDbEntity
  8
0
  6
HIDDEN
 62
     7
100
AcDbSpline
210
0.0
220
0.0
230
1.0
 70
     8
 71
     3
 72
     8
 73
     4
 74
     0
 42
0.00000001
 43
0.00000001
 40
0.0
 40
0.0
 40
0.0
 40
0.0
 40
0.0005429959629505
 40
0.0005429959629505
 40
0.0005429959629505
 40
0.0005429959629505
 10
3.077962527332426
 20
7.509953898397784
 30
0.0
 10
3.082096871356617
 20
7.511456077000346
 30
0.0
 10
3.086248217898241
 20
7.512955129699438
 30
0.0
 10
3.090415630943607
 20
7.5144511746404
 30
0.0
  0
SPLINE
  5
266
330
1F
100
AcDbEntity
  8
0
  6
HIDDEN
 62
     7
100
AcDbSpline
210
0.0
220
0.0
230
1.0
 70
     8
 71
     3
 72
     8
 73
     4
 74
     0
 42
0.00000001
 43
0.00000001
 40
0.0
 40
0.0
 40
0.0
 40
0.0
 40
0.0001046527498262
 40
0.0001046527498262
 40
0.0001046527498262
 40
0.0001046527498262
 10
3.070730591573529
 20
5.842398103258729
 30
0.0
 10
3.071626131423514
 20
5.841356842467547
 30
0.0
 10
3.072521923582938
 20
5.840315798623792
 30
0.0
 10
3.073417965487803
 20
5.839274969837253
 30
0.0
  0
SPLINE
  5
267
330
1F
100
AcDbEntity
  8
0
  6
HIDDEN
 62
     7
100
AcDbSpline
210
0.0
220
0.0
230
1.0
 70
     8
 71
     3
 72
     8
 73
     4
 74
     0
 42
0.00000001
 43
0.00000001
 40
0.0
 40
0.0
 40
0.0
 40
0.0
 40
0.0006203966708995
 40
0.0006203966708995
 40
0.0006203966708995
 40
0.0006203966708995
 10
3.073417965487802
 20
5.839274969837253
 30
0.0
 10
3.079082187795473
 20
5.835139532809634
 30
0.0
 10
3.084748106398731
 20
5.831005257170185
 30
0.0
 10
3.090415630943608
 20
5.826872082923754
 30
0.0
  0
SPLINE
  5
268
330
1F
100
AcDbEntity
  8
0
  6
HIDDEN
 62
     7
100
AcDbSpline
210
0.0
220
0.0
230
1.0
 70
     8
 71
     3
 72
     8
 73
     4
 74
     0
 42
0.00000001
 43
0.00000001
 40
0.0
 40
0.0
 40
0.0
 40
0.0
 40
0.0005429959629505
 40
0.0005429959629505
 40
0.0005429959629505
 40
0.0005429959629505
 10
3.077962527332427
 20
5.834000379435067
 30
0.0
 10
3.082096871356617
 20
5.832498200832505
 30
0.0
 10
3.086248217898242
 20
5.830999148133414
 30
0.0
 10
3.090415630943607
 20
5.829503103192452
 30
0.0
  0
SPLINE
  5
269
330
1F
100
AcDbEntity
  8
0
  6
HIDDEN
 62
     7
100
AcDbSpline
210
0.0
220
0.0
230
1.0
 70
     8
 71
     3
 72
     8
 73
     4
 74
     0
 42
0.00000001
 43
0.00000001
 40
0.0
 40
0.0
 40
0.0
 40
0.0
 40
0.0002814964786281
 40
0.0002814964786281
 40
0.0002814964786281
 40
0.0002814964786281
 10
3.077962527332427
 20
5.834000379435067
 30
0.0
 10
3.075550089301135
 20
5.836798075807799
 30
0.0
 10
3.073139427601827
 20
5.839597304937254
 30
0.0
 10
3.070730591573529
 20
5.842398103258732
 30
0.0
  0
LINE
  5
26A
330
1F
100
AcDbEntity
  8
0
  6
HIDDEN
 62
     7
100
AcDbLine
 10
3.0707305916
 20
5.8268720829
 30
0.0
 11
3.0707305916
 21
5.8423981033
 31
0.0
  0
LINE
  5
26B
330
1F
100
AcDbEntity
  8
0
  6
HIDDEN
 62
     7
100
AcDbLine
 10
3.0707305916
 20
5.8423981033
 30
0.0
 11
3.0707305916
 21
7.5015561746
 31
0.0
  0
LINE
  5
26C
330
1F
100
AcDbEntity
  8
0
  6
HIDDEN
 62
     7
100
AcDbLine
 10
3.0734179655
 20
5.8392749698
 30
0.0
 11
2.8962526112
 21
5.8392749698
 31
0.0
  0
LINE
  5
26D
330
1F
100
AcDbEntity
  8
0
  6
HIDDEN
 62
     7
100
AcDbLine
 10
2.900797173
 20
7.5099538984
 30
0.0
 11
3.0779625273
 21
7.5099538984
 31
0.0
  0
LINE
  5
26E
330
1F
100
AcDbEntity
  8
0
  6
HIDDEN
 62
     7
100
AcDbLine
 10
2.900797173
 20
5.8340003794
 30
0.0
 11
3.0779625273
 21
5.8340003794
 31
0.0
  0
LINE
  5
26F
330
1F
100
AcDbEntity
  8
0
  6
HIDDEN
 62
     7
100
AcDbLine
 10
3.0734179655
 20
7.504679308
 30
0.0
 11
2.8962526112
 21
7.504679308
 31
0.0
  0
SPLINE
  5
270
330
1F
100
AcDbEntity
  8
0
  6
HIDDEN
 62
     7
100
AcDbSpline
210
0.0
220
0.0
230
1.0
 70
     8
 71
     3
 72
     8
 73
     4
 74
     0
 42
0.00000001
 43
0.00000001
 40
0.0
 40
0.0
 40
0.0
 40
0.0
 40
0.0002814964786281
 40
0.0002814964786281
 40
0.0002814964786281
 40
0.0002814964786281
 10
2.89356523724282
 20
5.842398103258732
 30
0.0
 10
2.895974073271118
 20
5.839597304937254
 30
0.0
 10
2.898384734970426
 20
5.836798075807799
 30
0.0
 10
2.900797173001718
 20
5.834000379435067
 30
0.0
  0
SPLINE
  5
271
330
1F
100
AcDbEntity
  8
0
  6
HIDDEN
 62
     7
100
AcDbSpline
210
0.0
220
0.0
230
1.0
 70
     8
 71
     3
 72
     8
 73
     4
 74
     0
 42
0.00000001
 43
0.00000001
 40
0.0
 40
0.0
 40
0.0
 40
0.0
 40
0.0006203966708995
 40
0.0006203966708995
 40
0.0006203966708995
 40
0.0006203966708995
 10
2.896252611157093
 20
7.504679307995599
 30
0.0
 10
2.901916833464764
 20
7.508814745023217
 30
0.0
 10
2.907582752068021
 20
7.512949020662668
 30
0.0
 10
2.913250276612898
 20
7.517082194909098
 30
0.0
  0
SPLINE
  5
272
330
1F
100
AcDbEntity
  8
0
  6
HIDDEN
 62
     7
100
AcDbSpline
210
0.0
220
0.0
230
1.0
 70
     8
 71
     3
 72
     8
 73
     4
 74
     0
 42
0.00000001
 43
0.00000001
 40
0.0
 40
0.0
 40
0.0
 40
0.0
 40
0.0005429959629505
 40
0.0005429959629505
 40
0.0005429959629505
 40
0.0005429959629505
 10
2.900797173001718
 20
5.834000379435067
 30
0.0
 10
2.904931517025909
 20
5.832498200832505
 30
0.0
 10
2.909082863567533
 20
5.830999148133414
 30
0.0
 10
2.913250276612899
 20
5.829503103192452
 30
0.0
  0
LINE
  5
273
330
1F
100
AcDbEntity
  8
0
  6
HIDDEN
 62
     7
100
AcDbLine
 10
3.5753096794
 20
6.1798511547
 30
0.0
 11
3.5798466866
 21
6.1798511547
 31
0.0
  0
SPLINE
  5
274
330
1F
100
AcDbEntity
  8
0
  6
HIDDEN
 62
     7
100
AcDbSpline
210
0.0
220
0.0
230
1.0
 70
     8
 71
     3
 72
     8
 73
     4
 74
     0
 42
0.00000001
 43
0.00000001
 40
0.0
 40
0.0
 40
0.0
 40
0.0
 40
0.0006203966708995
 40
0.0006203966708995
 40
0.0006203966708995
 40
0.0006203966708995
 10
3.562856575825498
 20
7.176506010081893
 30
0.0
 10
3.568524100370375
 20
7.172372835835462
 30
0.0
 10
3.574190018973633
 20
7.168238560196013
 30
0.0
 10
3.579854241281303
 20
7.164103123168395
 30
0.0
  0
SPLINE
  5
275
330
1F
100
AcDbEntity
  8
0
  6
HIDDEN
 62
     7
100
AcDbSpline
210
0.0
220
0.0
230
1.0
 70
     8
 71
     3
 72
     8
 73
     4
 74
     0
 42
0.00000001
 43
0.00000001
 40
0.0
 40
0.0
 40
0.0
 40
0.0
 40
0.0005429959629505
 40
0.0005429959629505
 40
0.0005429959629505
 40
0.0005429959629505
 10
3.562856575825498
 20
6.163067091231342
 30
0.0
 10
3.567023988870864
 20
6.168650406961419
 30
0.0
 10
3.571175335412488
 20
6.174244947797652
 30
0.0
 10
3.575309679436679
 20
6.179851154664457
 30
0.0
  0
CIRCLE
  5
276
330
1F
100
AcDbEntity
  8
0
  6
HIDDEN
 62
     7
100
AcDbCircle
 10
4.1534077569
 20
6.0420558791
 30
0.0
 40
0.1082677165354315
  0
LINE
  5
277
330
1F
100
AcDbEntity
  8
0
  6
HIDDEN
 62
     7
100
AcDbLine
 10
2.8935652372
 20
5.8195899305
 30
0.0
 11
2.8738801979
 21
5.8195899305
 31
0.0
  0
LINE
  5
278
330
1F
100
AcDbEntity
  8
0
  6
HIDDEN
 62
     7
100
AcDbLine
 10
2.8738801979
 20
5.8195899305
 30
0.0
 11
2.8738801979
 21
7.5243643474
 31
0.0
  0
LINE
  5
279
330
1F
100
AcDbEntity
  8
0
  6
HIDDEN
 62
     7
100
AcDbLine
 10
2.8738801979
 20
7.5243643474
 30
0.0
 11
2.8935652372
 21
7.5243643474
 31
0.0
  0
SPLINE
  5
27A
330
1F
100
AcDbEntity
  8
0
  6
HIDDEN
 62
     7
100
AcDbSpline
210
0.0
220
0.0
230
1.0
 70
     8
 71
     3
 72
    62
 73
    58
 74
     0
 42
0.00000001
 43
0.00000001
 40
-0.0312499999999998
 40
-0.0312499999999998
 40
0.0
 40
0.0
 40
0.0312500000000005
 40
0.0312500000000005
 40
0.0625000000000009
 40
0.0625000000000009
 40
0.0937500000000014
 40
0.0937500000000014
 40
0.1250000000000019
 40
0.1250000000000019
 40
0.1875000000000023
 40
0.1875000000000023
 40
0.2187500000000023
 40
0.2187500000000023
 40
0.2500000000000023
 40
0.2500000000000023
 40
0.3125000000000017
 40
0.3125000000000017
 40
0.375000000000001
 40
0.375000000000001
 40
0.4062500000000007
 40
0.4062500000000007
 40
0.4375000000000004
 40
0.4375000000000004
 40
0.4687500000000001
 40
0.4687500000000001
 40
0.4843750000000002
 40
0.4843750000000002
 40
0.5000000000000002
 40
0.5000000000000002
 40
0.5312500000000003
 40
0.5312500000000003
 40
0.5625000000000004
 40
0.5625000000000004
 40
0.5937500000000007
 40
0.5937500000000007
 40
0.6250000000000008
 40
0.6250000000000008
 40
0.6562500000000009
 40
0.6562500000000009
 40
0.687500000000001
 40
0.687500000000001
 40
0.7500000000000011
 40
0.7500000000000011
 40
0.8125000000000011
 40
0.8125000000000011
 40
0.843750000000001
 40
0.843750000000001
 40
0.8750000000000008
 40
0.8750000000000008
 40
0.9062500000000006
 40
0.9062500000000006
 40
0.9375000000000003
 40
0.9375000000000003
 40
0.9687500000000002
 40
0.9687500000000002
 40
1.0
 40
1.0
 40
1.03125
 40
1.03125
 10
2.50898177104602
 20
7.311665202273591
 30
0.0
 10
2.49074712863647
 20
7.311665202273591
 30
0.0
 10
2.481946172219106
 20
7.312886097307899
 30
0.0
 10
2.464894147502956
 20
7.317423763149986
 30
0.0
 10
2.456888344784798
 20
7.320692197085643
 30
0.0
 10
2.442182613644889
 20
7.328512030510452
 30
0.0
 10
2.43545187705223
 20
7.333078263117772
 30
0.0
 10
2.423399410574939
 20
7.342822886599472
 30
0.0
 10
2.417990382763951
 20
7.348055933319563
 30
0.0
 10
2.403362283360816
 20
7.364550036964324
 30
0.0
 10
2.396118910164835
 20
7.376064184125888
 30
0.0
 10
2.388285992976235
 20
7.393739867080957
 30
0.0
 10
2.386204469526236
 20
7.399719037961449
 30
0.0
 10
2.383207448428281
 20
7.41148304642893
 30
0.0
 10
2.382270941618862
 20
7.417308498804473
 30
0.0
 10
2.38120348313924
 20
7.434609216903803
 30
0.0
 10
2.382860989808596
 20
7.445985594254132
 30
0.0
 10
2.391560190056006
 20
7.466913095146293
 30
0.0
 10
2.398747681215728
 20
7.476738254010807
 30
0.0
 10
2.413903167786997
 20
7.489237524951921
 30
0.0
 10
2.419794538057738
 20
7.493115456789357
 30
0.0
 10
2.432784185302739
 20
7.499858973362659
 30
0.0
 10
2.439878269952306
 20
7.502752497969654
 30
0.0
 10
2.455390506461424
 20
7.507562446841185
 30
0.0
 10
2.463830049597076
 20
7.509456043708009
 30
0.0
 10
2.476740542473245
 20
7.511348781008716
 30
0.0
 10
2.481118038285686
 20
7.511831651108903
 30
0.0
 10
2.490026647921905
 20
7.512494312786985
 30
0.0
 10
2.494591790279379
 20
7.512672798019087
 30
0.0
 10
2.508130108418551
 20
7.512725825240146
 30
0.0
 10
2.517029432874297
 20
7.512141465305202
 30
0.0
 10
2.534576798363279
 20
7.509718104172923
 30
0.0
 10
2.542937748736639
 20
7.507910926905556
 30
0.0
 10
2.558630514077918
 20
7.503203375761278
 30
0.0
 10
2.565988566952944
 20
7.500278819812544
 30
0.0
 10
2.579140172290437
 20
7.493594701388521
 30
0.0
 10
2.585085935929279
 20
7.489761258826525
 30
0.0
 10
2.595381849286013
 20
7.481432435757927
 30
0.0
 10
2.599754918016213
 20
7.476944217633303
 30
0.0
 10
2.607116126470853
 20
7.46732486961016
 30
0.0
 10
2.610053089220172
 20
7.462244719279983
 30
0.0
 10
2.616756221579499
 20
7.446504489527125
 30
0.0
 10
2.618491059640458
 20
7.435130076175178
 30
0.0
 10
2.617193253147695
 20
7.411984561480166
 30
0.0
 10
2.614151472263069
 20
7.399957257976559
 30
0.0
 10
2.606412105229987
 20
7.382337176555539
 30
0.0
 10
2.603298942507616
 20
7.376505817587602
 30
0.0
 10
2.595923050397323
 20
7.364967026205221
 30
0.0
 10
2.591628900638522
 20
7.359230478515098
 30
0.0
 10
2.581970269632581
 20
7.34829558014067
 30
0.0
 10
2.576592073302671
 20
7.343058325821236
 30
0.0
 10
2.564481842030728
 20
7.333221603009904
 30
0.0
 10
2.557737717125428
 20
7.328634317962456
 30
0.0
 10
2.543103108301993
 20
7.320811943557763
 30
0.0
 10
2.53501291042971
 20
7.317490465741726
 30
0.0
 10
2.518035921367643
 20
7.31293466460296
 30
0.0
 10
2.50898177104602
 20
7.311665202273591
 30
0.0
 10
2.49074712863647
 20
7.311665202273591
 30
0.0
  0
SPLINE
  5
27B
330
1F
100
AcDbEntity
  8
0
  6
HIDDEN
 62
     7
100
AcDbSpline
210
0.0
220
0.0
230
1.0
 70
     8
 71
     3
 72
    88
 73
    84
 74
     0
 42
0.00000001
 43
0.00000001
 40
-0.0312500000000003
 40
-0.0312500000000003
 40
0.0
 40
0.0
 40
0.0312500000000001
 40
0.0312500000000001
 40
0.046875
 40
0.046875
 40
0.0624999999999999
 40
0.0624999999999999
 40
0.0781249999999998
 40
0.0781249999999998
 40
0.0937499999999997
 40
0.0937499999999997
 40
0.1249999999999996
 40
0.1249999999999996
 40
0.1562499999999995
 40
0.1562499999999995
 40
0.1874999999999994
 40
0.1874999999999994
 40
0.2187499999999993
 40
0.2187499999999993
 40
0.2499999999999991
 40
0.2499999999999991
 40
0.2812499999999989
 40
0.2812499999999989
 40
0.3124999999999986
 40
0.3124999999999986
 40
0.3437499999999984
 40
0.3437499999999984
 40
0.3749999999999982
 40
0.3749999999999982
 40
0.4062499999999979
 40
0.4062499999999979
 40
0.4374999999999976
 40
0.4374999999999976
 40
0.4531249999999975
 40
0.4531249999999975
 40
0.4687499999999974
 40
0.4687499999999974
 40
0.4843749999999974
 40
0.4843749999999974
 40
0.4999999999999973
 40
0.4999999999999973
 40
0.5156249999999972
 40
0.5156249999999972
 40
0.5312499999999972
 40
0.5312499999999972
 40
0.5468749999999971
 40
0.5468749999999971
 40
0.5624999999999971
 40
0.5624999999999971
 40
0.5937499999999973
 40
0.5937499999999973
 40
0.6249999999999974
 40
0.6249999999999974
 40
0.6562499999999977
 40
0.6562499999999977
 40
0.6874999999999979
 40
0.6874999999999979
 40
0.7187499999999981
 40
0.7187499999999981
 40
0.7499999999999983
 40
0.7499999999999983
 40
0.7812499999999986
 40
0.7812499999999986
 40
0.7968749999999987
 40
0.7968749999999987
 40
0.8124999999999989
 40
0.8124999999999989
 40
0.8437499999999991
 40
0.8437499999999991
 40
0.8749999999999992
 40
0.8749999999999992
 40
0.9062499999999994
 40
0.9062499999999994
 40
0.9218749999999996
 40
0.9218749999999996
 40
0.9374999999999996
 40
0.9374999999999996
 40
0.9531249999999997
 40
0.9531249999999997
 40
0.9687499999999997
 40
0.9687499999999997
 40
1.0
 40
1.0
 40
1.03125
 40
1.03125
 10
2.484494256746571
 20
5.788121063300536
 30
0.0
 10
2.515234642935919
 20
5.788121063300536
 30
0.0
 10
2.530263114682777
 20
5.788984916645535
 30
0.0
 10
2.552315244616655
 20
5.791566395586575
 30
0.0
 10
2.559633898081662
 20
5.79265487518732
 30
0.0
 10
2.573790232913132
 20
5.79524388064458
 30
0.0
 10
2.580633032646428
 20
5.796740748753562
 30
0.0
 10
2.593867832453518
 20
5.800144902735198
 30
0.0
 10
2.600259726862216
 20
5.802052237266894
 30
0.0
 10
2.612594876800086
 20
5.806302343463769
 30
0.0
 10
2.61852977420515
 20
5.808647273680941
 30
0.0
 10
2.635238833495746
 20
5.816184033285825
 30
0.0
 10
2.645091417351356
 20
5.821925441595425
 30
0.0
 10
2.662400361300801
 20
5.834970191390856
 30
0.0
 10
2.669598573789609
 20
5.842084048793088
 30
0.0
 10
2.681425423541755
 20
5.857465997543453
 30
0.0
 10
2.686068204345586
 20
5.86580683857981
 30
0.0
 10
2.692788871106819
 20
5.883174238411193
 30
0.0
 10
2.694921056864844
 20
5.892248103345088
 30
0.0
 10
2.697006909088548
 20
5.911191383875558
 30
0.0
 10
2.696939785894021
 20
5.921002990314495
 30
0.0
 10
2.694863306660445
 20
5.94091044368946
 30
0.0
 10
2.692859862101211
 20
5.951063195915089
 30
0.0
 10
2.687051079220645
 20
5.971757621573302
 30
0.0
 10
2.68324490170419
 20
5.982264314687643
 30
0.0
 10
2.674071175845261
 20
6.003147485247789
 30
0.0
 10
2.668689202746723
 20
6.013583548548393
 30
0.0
 10
2.656283913469667
 20
6.034376468437131
 30
0.0
 10
2.649213256570935
 20
6.044797790986516
 30
0.0
 10
2.633409375511647
 20
6.065089903943537
 30
0.0
 10
2.624718037062409
 20
6.074933985703323
 30
0.0
 10
2.605364320233717
 20
6.093694668260341
 30
0.0
 10
2.594589053409634
 20
6.10269658095574
 30
0.0
 10
2.576893372574192
 20
6.114533633090656
 30
0.0
 10
2.570730859640422
 20
6.118210133760281
 30
0.0
 10
2.557752111003621
 20
6.12486813410503
 30
0.0
 10
2.550894200909961
 20
6.127857107817376
 30
0.0
 10
2.536831435924027
 20
6.132749523221572
 30
0.0
 10
2.529584420687353
 20
6.134680573172356
 30
0.0
 10
2.514580331096389
 20
6.137305597603628
 30
0.0
 10
2.50689805231433
 20
6.137966729565246
 30
0.0
 10
2.491740636102679
 20
6.13790174948252
 30
0.0
 10
2.484181736450089
 20
6.13719190906679
 30
0.0
 10
2.469114339687006
 20
6.134437011759823
 30
0.0
 10
2.461861137533135
 20
6.132442384281171
 30
0.0
 10
2.447821262368485
 20
6.127442729112225
 30
0.0
 10
2.440991000498714
 20
6.124409562919898
 30
0.0
 10
2.428070309586494
 20
6.117679548646816
 30
0.0
 10
2.421945466594065
 20
6.113978010498711
 30
0.0
 10
2.404377967433909
 20
6.102098125336521
 30
0.0
 10
2.393653130976989
 20
6.093069649397572
 30
0.0
 10
2.374378646669283
 20
6.074251849011044
 30
0.0
 10
2.365761122041754
 20
6.064424486741904
 30
0.0
 10
2.35013089300157
 20
6.044249001101567
 30
0.0
 10
2.343092038546355
 20
6.033838224079974
 30
0.0
 10
2.330683745646719
 20
6.012930453501598
 30
0.0
 10
2.325326890981362
 20
6.002470226025138
 30
0.0
 10
2.316229239737634
 20
5.98160350298427
 30
0.0
 10
2.312489165943774
 20
5.971196494934818
 30
0.0
 10
2.306733432230787
 20
5.950462717454733
 30
0.0
 10
2.304773197036194
 20
5.940320978172748
 30
0.0
 10
2.302778622894476
 20
5.920590638468348
 30
0.0
 10
2.302738334635257
 20
5.910984897170583
 30
0.0
 10
2.304291608622493
 20
5.896965841173165
 30
0.0
 10
2.305079750497841
 20
5.89235777058599
 30
0.0
 10
2.307248678104651
 20
5.883271855076033
 30
0.0
 10
2.308639472818325
 20
5.878771350397966
 30
0.0
 10
2.313717154336505
 20
5.865683699609283
 30
0.0
 10
2.318289745132386
 20
5.857490260420382
 30
0.0
 10
2.330093898431759
 20
5.842125048948877
 30
0.0
 10
2.337442127997003
 20
5.834882082391618
 30
0.0
 10
2.354562605042295
 20
5.821984381020485
 30
0.0
 10
2.364333935344003
 20
5.816269179286468
 30
0.0
 10
2.380997670328268
 20
5.808730964308323
 30
0.0
 10
2.386939208423782
 20
5.806375638129
 30
0.0
 10
2.399284983232041
 20
5.802109715864622
 30
0.0
 10
2.405673291964233
 20
5.800198665185853
 30
0.0
 10
2.418878850392941
 20
5.796791268688628
 30
0.0
 10
2.425696027357902
 20
5.795294903147077
 30
0.0
 10
2.439773640656334
 20
5.792707261823197
 30
0.0
 10
2.447085448726513
 20
5.791610391512403
 30
0.0
 10
2.469336367388083
 20
5.788989206260412
 30
0.0
 10
2.484494256746571
 20
5.788121063300536
 30
0.0
 10
2.515234642935919
 20
5.788121063300536
 30
0.0
  0
LINE
  5
27C
330
1F
100
AcDbEntity
  8
0
  6
HIDDEN
 62
     7
100
AcDbLine
 10
3.0596013097
 20
7.5144511746
 30
0.0
 11
3.0707305916
 21
7.5015561746
 31
0.0
  0
LINE
  5
27D
330
1F
100
AcDbEntity
  8
0
  6
HIDDEN
 62
     7
100
AcDbLine
 10
3.0707305916
 20
5.8423981033
 30
0.0
 11
3.0573305562
 21
5.8268720829
 31
0.0
  0
LINE
  5
27E
330
1F
100
AcDbEntity
  8
0
  6
HIDDEN
 62
     7
100
AcDbLine
 10
2.1849038199
 20
6.6818196586
 30
0.0
 11
2.4990725797
 21
6.6818196586
 31
0.0
  0
LINE
  5
27F
330
1F
100
AcDbEntity
  8
0
  6
HIDDEN
 62
     7
100
AcDbLine
 10
2.1849038199
 20
6.6621346192
 30
0.0
 11
2.4990725797
 21
6.6621346192
 31
0.0
  0
LINE
  5
280
330
1F
100
AcDbEntity
  8
0
  6
HIDDEN
 62
     7
100
AcDbLine
 10
2.8049825601
 20
7.6168590287
 30
0.0
 11
2.8049825601
 21
6.6719771389
 31
0.0
  0
LINE
  5
281
330
1F
100
AcDbEntity
  8
0
  6
HIDDEN
 62
     7
100
AcDbLine
 10
2.8049825601
 20
6.6719771389
 30
0.0
 11
2.8049825601
 21
5.7270952492
 31
0.0
  0
LINE
  5
282
330
1F
100
AcDbEntity
  8
0
  6
HIDDEN
 62
     7
100
AcDbLine
 10
2.7852975207
 20
7.6168590287
 30
0.0
 11
2.7852975207
 21
6.6719771389
 31
0.0
  0
LINE
  5
283
330
1F
100
AcDbEntity
  8
0
  6
HIDDEN
 62
     7
100
AcDbLine
 10
2.7852975207
 20
6.6818196586
 30
0.0
 11
2.4990725797
 21
6.6818196586
 31
0.0
  0
LINE
  5
284
330
1F
100
AcDbEntity
  8
0
  6
HIDDEN
 62
     7
100
AcDbLine
 10
2.7852975207
 20
6.6621346192
 30
0.0
 11
2.4990725797
 21
6.6621346192
 31
0.0
  0
SPLINE
  5
285
330
1F
100
AcDbEntity
  8
0
  6
HIDDEN
 62
     7
100
AcDbSpline
210
0.0
220
0.0
230
1.0
 70
     8
 71
     3
 72
     8
 73
     4
 74
     0
 42
0.00000001
 43
0.00000001
 40
0.0
 40
0.0
 40
0.0
 40
0.0
 40
1.0
 40
1.0
 40
1.0
 40
1.0
 10
2.499072579686819
 20
6.681819658601465
 30
0.0
 10
2.498690695586245
 20
6.675257978811437
 30
0.0
 10
2.498690695586245
 20
6.668696299021413
 30
0.0
 10
2.499072579686819
 20
6.662134619231386
 30
0.0
  0
LINE
  5
286
330
1F
100
AcDbEntity
  8
0
  6
HIDDEN
 62
     7
100
AcDbLine
 10
2.7852975207
 20
6.6719771389
 30
0.0
 11
2.7852975207
 21
5.7270952492
 31
0.0
  0
LINE
  5
287
330
1F
100
AcDbEntity
  8
0
  6
HIDDEN
 62
     7
100
AcDbLine
 10
2.3030140561
 20
6.1798511547
 30
0.0
 11
2.6967148435
 21
6.1798511547
 31
0.0
  0
SPLINE
  5
288
330
1F
100
AcDbEntity
  8
0
  6
HIDDEN
 62
     7
100
AcDbSpline
210
0.0
220
0.0
230
1.0
 70
     8
 71
     3
 72
     8
 73
     4
 74
     0
 42
0.00000001
 43
0.00000001
 40
0.0
 40
0.0
 40
0.0
 40
0.0
 40
0.0007652584238459
 40
0.0007652584238459
 40
0.0007652584238459
 40
0.0007652584238459
 10
2.87388019787274
 20
7.524364347365679
 30
0.0
 10
2.880454728531676
 20
7.516772733274214
 30
0.0
 10
2.887016728816346
 20
7.509170246762342
 30
0.0
 10
2.89356523724282
 20
7.501556174574123
 30
0.0
  0
SPLINE
  5
289
330
1F
100
AcDbEntity
  8
0
  6
HIDDEN
 62
     7
100
AcDbSpline
210
0.0
220
0.0
230
1.0
 70
     8
 71
     3
 72
     8
 73
     4
 74
     0
 42
0.00000001
 43
0.00000001
 40
0.0
 40
0.0
 40
0.0
 40
0.0
 40
0.0007652584238459
 40
0.0007652584238459
 40
0.0007652584238459
 40
0.0007652584238459
 10
2.89356523724282
 20
5.842398103258733
 30
0.0
 10
2.887016728816347
 20
5.834784031070514
 30
0.0
 10
2.880454728531676
 20
5.827181544558641
 30
0.0
 10
2.873880197872741
 20
5.819589930467177
 30
0.0
  0
LINE
  5
28A
330
1F
100
AcDbEntity
  8
0
  6
HIDDEN
 62
     7
100
AcDbLine
 10
2.3030140561
 20
5.9534732019
 30
0.0
 11
2.6967148435
 21
5.9534732019
 31
0.0
  0
LINE
  5
28B
330
1F
100
AcDbEntity
  8
0
  6
HIDDEN
 62
     7
100
AcDbLine
 10
2.3128565758
 20
5.9436306822
 30
0.0
 11
2.6868723239
 21
5.9436306822
 31
0.0
  0
LINE
  5
28C
330
1F
100
AcDbEntity
  8
0
  6
HIDDEN
 62
     7
100
AcDbLine
 10
2.4998644498
 20
7.3018983988
 30
0.0
 11
2.3915967333
 21
7.3018983988
 31
0.0
  0
LINE
  5
28D
330
1F
100
AcDbEntity
  8
0
  6
HIDDEN
 62
     7
100
AcDbLine
 10
2.6081321664
 20
7.3018983988
 30
0.0
 11
2.4998644498
 21
7.3018983988
 31
0.0
  0
LINE
  5
28E
330
1F
100
AcDbEntity
  8
0
  6
HIDDEN
 62
     7
100
AcDbLine
 10
2.3818330111
 20
7.2920558791
 30
0.0
 11
2.6178958886
 21
7.2920558791
 31
0.0
  0
LINE
  5
28F
330
1F
100
AcDbEntity
  8
0
  6
HIDDEN
 62
     7
100
AcDbLine
 10
2.4998644498
 20
6.1404810759
 30
0.0
 11
2.4998644498
 21
5.9436306822
 31
0.0
  0
LINE
  5
290
330
1F
100
AcDbEntity
  8
0
  6
HIDDEN
 62
     7
100
AcDbLine
 10
2.4998644498
 20
6.1404810759
 30
0.0
 11
2.5982896467
 21
6.1404810759
 31
0.0
  0
LINE
  5
291
330
1F
100
AcDbEntity
  8
0
  6
HIDDEN
 62
     7
100
AcDbLine
 10
2.401439253
 20
6.1404810759
 30
0.0
 11
2.4998644498
 21
6.1404810759
 31
0.0
  0
LINE
  5
292
330
1F
100
AcDbEntity
  8
0
  6
HIDDEN
 62
     7
100
AcDbLine
 10
2.5982896467
 20
6.1404810759
 30
0.0
 11
2.5982896467
 21
5.9436306822
 31
0.0
  0
LINE
  5
293
330
1F
100
AcDbEntity
  8
0
  6
HIDDEN
 62
     7
100
AcDbLine
 10
2.401439253
 20
6.1404810759
 30
0.0
 11
2.401439253
 21
5.9436306822
 31
0.0
  0
LINE
  5
294
330
1F
100
AcDbEntity
  8
0
  6
HIDDEN
 62
     7
100
AcDbLine
 10
3.8482896467
 20
6.9475676901
 30
0.0
 11
3.5825416152
 21
6.9475676901
 31
0.0
  0
LINE
  5
295
330
1F
100
AcDbEntity
  8
0
  6
HIDDEN
 62
     7
100
AcDbLine
 10
3.5825416152
 20
6.3963865877
 30
0.0
 11
3.8482896467
 21
6.3963865877
 31
0.0
  0
LINE
  5
296
330
1F
100
AcDbEntity
  8
0
  6
HIDDEN
 62
     7
100
AcDbLine
 10
4.1541996271
 20
6.9475676901
 30
0.0
 11
3.8679746861
 21
6.9475676901
 31
0.0
  0
LINE
  5
297
330
1F
100
AcDbEntity
  8
0
  6
HIDDEN
 62
     7
100
AcDbLine
 10
3.0707305916
 20
6.3963865877
 30
0.0
 11
3.5825416152
 21
6.3963865877
 31
0.0
  0
LINE
  5
298
330
1F
100
AcDbEntity
  8
0
  6
HIDDEN
 62
     7
100
AcDbLine
 10
3.5825416152
 20
6.9475676901
 30
0.0
 11
3.0707305916
 21
6.9475676901
 31
0.0
  0
LINE
  5
299
330
1F
100
AcDbEntity
  8
0
  6
HIDDEN
 62
     7
100
AcDbLine
 10
2.2045888593
 20
6.9475676901
 30
0.0
 11
2.1849038199
 21
6.9672527295
 31
0.0
  0
LINE
  5
29A
330
1F
100
AcDbEntity
  8
0
  6
HIDDEN
 62
     7
100
AcDbLine
 10
2.1849038199
 20
6.3767015484
 30
0.0
 11
2.2045888593
 21
6.3963865877
 31
0.0
  0
LINE
  5
29B
330
1F
100
AcDbEntity
  8
0
  6
HIDDEN
 62
     7
100
AcDbLine
 10
2.8049825601
 20
6.3963865877
 30
0.0
 11
3.0707305916
 21
6.3963865877
 31
0.0
  0
LINE
  5
29C
330
1F
100
AcDbEntity
  8
0
  6
HIDDEN
 62
     7
100
AcDbLine
 10
3.0707305916
 20
6.9475676901
 30
0.0
 11
2.8049825601
 21
6.9475676901
 31
0.0
  0
LINE
  5
29D
330
1F
100
AcDbEntity
  8
0
  6
HIDDEN
 62
     7
100
AcDbLine
 10
2.2045888593
 20
6.3963865877
 30
0.0
 11
2.7852975207
 21
6.3963865877
 31
0.0
  0
LINE
  5
29E
330
1F
100
AcDbEntity
  8
0
  6
HIDDEN
 62
     7
100
AcDbLine
 10
2.7852975207
 20
6.9475676901
 30
0.0
 11
2.2045888593
 21
6.9475676901
 31
0.0
  0
LINE
  5
29F
330
1F
100
AcDbEntity
  8
0
  6
HIDDEN
 62
     7
100
AcDbLine
 10
2.3030140561
 20
6.1798511547
 30
0.0
 11
2.3030140561
 21
5.9160199674
 31
0.0
  0
LINE
  5
2A0
330
1F
100
AcDbEntity
  8
0
  6
HIDDEN
 62
     7
100
AcDbLine
 10
2.6967148435
 20
5.9159703122
 30
0.0
 11
2.6967148435
 21
6.1798511547
 31
0.0
  0
LINE
  5
2A1
330
1F
100
AcDbEntity
  8
0
  6
HIDDEN
 62
     7
100
AcDbLine
 10
2.6179746861
 20
6.6818196586
 30
0.0
 11
2.6179746861
 21
7.4281447107
 31
0.0
  0
LINE
  5
2A2
330
1F
100
AcDbEntity
  8
0
  6
HIDDEN
 62
     7
100
AcDbLine
 10
2.3817542136
 20
7.4280776644
 30
0.0
 11
2.3817542136
 21
6.6818196586
 31
0.0
  0
LINE
  5
2A3
330
1F
100
AcDbEntity
  8
0
  6
HIDDEN
 62
     7
100
AcDbLine
 10
2.6179746861
 20
6.1798511547
 30
0.0
 11
2.6179746861
 21
6.6621346192
 31
0.0
  0
LINE
  5
2A4
330
1F
100
AcDbEntity
  8
0
  6
HIDDEN
 62
     7
100
AcDbLine
 10
2.3817542136
 20
6.6621346192
 30
0.0
 11
2.3817542136
 21
6.1798511547
 31
0.0
  0
LINE
  5
2A5
330
1F
100
AcDbEntity
  8
0
  6
HIDDEN
 62
     7
100
AcDbLine
 10
2.3030140561
 20
6.1798511547
 30
0.0
 11
2.3030140561
 21
5.9534732019
 31
0.0
  0
LINE
  5
2A6
330
1F
100
AcDbEntity
  8
0
  6
HIDDEN
 62
     7
100
AcDbLine
 10
2.6967148435
 20
5.9534732019
 30
0.0
 11
2.6967148435
 21
6.1798511547
 31
0.0
  0
ARC
  5
2A7
330
1F
100
AcDbEntity
  8
0
  6
HIDDEN
 62
     7
100
AcDbCircle
 10
2.6868723239
 20
5.9534732019
 30
0.0
 40
0.0098425196850398
100
AcDbArc
 50
270.0
 51
0.0
  0
ARC
  5
2A8
330
1F
100
AcDbEntity
  8
0
  6
HIDDEN
 62
     7
100
AcDbCircle
 10
2.3128565758
 20
5.9534732019
 30
0.0
 40
0.0098425196850398
100
AcDbArc
 50
180.0
 51
270.0
  0
ARC
  5
2A9
330
1F
100
AcDbEntity
  8
0
  6
HIDDEN
 62
     7
100
AcDbCircle
 10
2.3915967333
 20
7.2920558791
 30
0.0
 40
0.0098425196850394
100
AcDbArc
 50
90.0
 51
180.0
  0
ARC
  5
2AA
330
1F
100
AcDbEntity
  8
0
  6
HIDDEN
 62
     7
100
AcDbCircle
 10
2.6081321664
 20
7.2920558791
 30
0.0
 40
0.0098425196850394
100
AcDbArc
 50
0.0
 51
90.0
  0
LINE
  5
2AB
330
1F
100
AcDbEntity
  8
0
  6
HIDDEN
 62
     7
100
AcDbLine
 10
2.3817542136
 20
7.2920558791
 30
0.0
 11
2.3817542136
 21
6.1798511547
 31
0.0
  0
LINE
  5
2AC
330
1F
100
AcDbEntity
  8
0
  6
HIDDEN
 62
     7
100
AcDbLine
 10
2.6179746861
 20
6.1798511547
 30
0.0
 11
2.6179746861
 21
7.2920558791
 31
0.0
  0
LINE
  5
2AD
330
1F
100
AcDbEntity
  8
0
  6
CONTINUOUS
 62
     7
100
AcDbLine
 10
8.967060719
 20
5.5908061524
 30
0.0
 11
8.9809778815
 21
5.5988429713
 31
0.0
  0
LINE
  5
2AE
330
1F
100
AcDbEntity
  8
0
  6
CONTINUOUS
 62
     7
100
AcDbLine
 10
9.6629188454
 20
6.7801273631
 30
0.0
 11
9.6629188454
 21
6.796198389
 31
0.0
  0
LINE
  5
2AF
330
1F
100
AcDbEntity
  8
0
  6
CONTINUOUS
 62
     7
100
AcDbLine
 10
8.3349237752
 20
5.6227968404
 30
0.0
 11
8.4748616136
 21
5.5420124458
 31
0.0
  0
LINE
  5
2B0
330
1F
100
AcDbEntity
  8
0
  6
CONTINUOUS
 62
     7
100
AcDbLine
 10
8.0642385813
 20
5.7790600766
 30
0.0
 11
8.1972183919
 21
5.702292466
 31
0.0
  0
LINE
  5
2B1
330
1F
100
AcDbEntity
  8
0
  6
CONTINUOUS
 62
     7
100
AcDbLine
 10
8.0016011695
 20
5.8152198848
 30
0.0
 11
8.0503191564
 21
5.7870955896
 31
0.0
  0
LINE
  5
2B2
330
1F
100
AcDbEntity
  8
0
  6
CONTINUOUS
 62
     7
100
AcDbLine
 10
9.4590335946
 20
7.246833041
 30
0.0
 11
8.9718537257
 21
7.5280759929
 31
0.0
  0
LINE
  5
2B3
330
1F
100
AcDbEntity
  8
0
  6
CONTINUOUS
 62
     7
100
AcDbLine
 10
7.7977159187
 20
6.2819255626
 30
0.0
 11
7.7977159187
 21
6.2658545368
 31
0.0
  0
LINE
  5
2B4
330
1F
100
AcDbEntity
  8
0
  6
CONTINUOUS
 62
     7
100
AcDbLine
 10
8.3682992217
 20
7.5435663896
 30
0.0
 11
8.3543820591
 21
7.5355295707
 31
0.0
  0
LINE
  5
2B5
330
1F
100
AcDbEntity
  8
0
  6
CONTINUOUS
 62
     7
100
AcDbLine
 10
7.3891464772
 20
6.1687824529
 30
0.0
 11
7.9737623199
 21
5.8312909106
 31
0.0
  0
LINE
  5
2B6
330
1F
100
AcDbEntity
  8
0
  6
CONTINUOUS
 62
     7
100
AcDbLine
 10
8.9579343008
 20
7.5361115058
 30
0.0
 11
8.3733184581
 21
7.8736030481
 31
0.0
  0
LINE
  5
2B7
330
1F
100
AcDbEntity
  8
0
  6
CONTINUOUS
 62
     7
100
AcDbLine
 10
7.8811193527
 20
7.8248093415
 30
0.0
 11
7.8672021902
 21
7.8167725226
 31
0.0
  0
LINE
  5
2B8
330
1F
100
AcDbEntity
  8
0
  6
CONTINUOUS
 62
     7
100
AcDbLine
 10
7.3105360498
 20
6.5631685145
 30
0.0
 11
7.3105360498
 21
6.5470974887
 31
0.0
  0
SPLINE
  5
2B9
330
1F
100
AcDbEntity
  8
0
  6
CONTINUOUS
 62
     7
100
AcDbSpline
210
0.0
220
0.0
230
1.0
 70
     8
 71
     3
 72
    34
 73
    30
 74
     0
 42
0.00000001
 43
0.00000001
 40
0.0
 40
0.0
 40
0.0
 40
0.0
 40
0.0098548509359775
 40
0.0479321889219168
 40
0.086439679765678
 40
0.125256500561291
 40
0.1642455265653104
 40
0.2032996337378439
 40
0.2423403111793389
 40
0.2813438067726346
 40
0.3203049652814411
 40
0.3592284140600063
 40
0.3981236477721337
 40
0.4370024223579175
 40
0.4758775082014406
 40
0.514760592889295
 40
0.5536623275580544
 40
0.5925963336373689
 40
0.6315759233197376
 40
0.6706130811793828
 40
0.709716233415822
 40
0.7488858275614644
 40
0.7881064005084272
 40
0.8273159730225074
 40
0.866407009929746
 40
0.9052294667351856
 40
0.9436233838470626
 40
0.9815002185385243
 40
1.0
 40
1.0
 40
1.0
 40
1.0
 10
8.496995292182264
 20
6.885986157120924
 30
0.0
 10
8.496420729991707
 20
6.88702333631675
 30
0.0
 10
8.493626164792898
 20
6.892067985848553
 30
0.0
 10
8.486570917688653
 20
6.900556950215826
 30
0.0
 10
8.47585618759493
 20
6.9113216930856
 30
0.0
 10
8.463097537115564
 20
6.921287191465026
 30
0.0
 10
8.4486547710793
 20
6.930387547089121
 30
0.0
 10
8.432654864680336
 20
6.938496510953094
 30
0.0
 10
8.415311848404952
 20
6.945528638558222
 30
0.0
 10
8.396828999073477
 20
6.951411218080082
 30
0.0
 10
8.377418240001775
 20
6.956088489757841
 30
0.0
 10
8.357296378264133
 20
6.959516663993028
 30
0.0
 10
8.336686085105164
 20
6.961663969500474
 30
0.0
 10
8.315814029214577
 20
6.962510569492574
 30
0.0
 10
8.294909392299129
 20
6.962048758046652
 30
0.0
 10
8.274201845991621
 20
6.960283107377522
 30
0.0
 10
8.253918617281007
 20
6.957230381114562
 30
0.0
 10
8.234281818251885
 20
6.952918974516813
 30
0.0
 10
8.215506178852472
 20
6.94738799863275
 30
0.0
 10
8.19779790736437
 20
6.940686413395455
 30
0.0
 10
8.1813538745492
 20
6.93287216219402
 30
0.0
 10
8.166361313704854
 20
6.924011856469752
 30
0.0
 10
8.15300228433126
 20
6.914183360764344
 30
0.0
 10
8.141448726832516
 20
6.903480746286818
 30
0.0
 10
8.131877500504315
 20
6.892021116706506
 30
0.0
 10
8.124390825839996
 20
6.879952672674061
 30
0.0
 10
8.1192544201877
 20
6.867448356322361
 30
0.0
 10
8.11649796907462
 20
6.856840156048985
 30
0.0
 10
8.116324243239067
 20
6.850444002091689
 30
0.0
 10
8.11626723573824
 20
6.848345127443324
 30
0.0
  0
LINE
  5
2BA
330
1F
100
AcDbEntity
  8
0
  6
CONTINUOUS
 62
     7
100
AcDbLine
 10
8.1158842436
 20
6.8445068119
 30
0.0
 11
8.1158842436
 21
6.74710007
 31
0.0
  0
LINE
  5
2BB
330
1F
100
AcDbEntity
  8
0
  6
CONTINUOUS
 62
     7
100
AcDbLine
 10
8.3593990333
 20
7.881638561
 30
0.0
 11
7.8722191644
 21
8.1628815129
 31
0.0
  0
LINE
  5
2BC
330
1F
100
AcDbEntity
  8
0
  6
CONTINUOUS
 62
     7
100
AcDbLine
 10
7.3125896406
 20
6.2129777739
 30
0.0
 11
7.3613076275
 21
6.1848534787
 31
0.0
  0
LINE
  5
2BD
330
1F
100
AcDbEntity
  8
0
  6
CONTINUOUS
 62
     7
100
AcDbLine
 10
7.2279492024
 20
6.2618396588
 30
0.0
 11
7.2986702158
 21
6.2210132868
 31
0.0
  0
LINE
  5
2BE
330
1F
100
AcDbEntity
  8
0
  6
CONTINUOUS
 62
     7
100
AcDbLine
 10
6.8880471834
 20
6.4580609177
 30
0.0
 11
6.9414150009
 21
6.4272523324
 31
0.0
  0
LINE
  5
2BF
330
1F
100
AcDbEntity
  8
0
  6
CONTINUOUS
 62
     7
100
AcDbLine
 10
7.380020059
 20
8.1140878063
 30
0.0
 11
7.3661028965
 21
8.1060509874
 31
0.0
  0
LINE
  5
2C0
330
1F
100
AcDbEntity
  8
0
  6
CONTINUOUS
 62
     7
100
AcDbLine
 10
6.6841619326
 20
6.9247665955
 30
0.0
 11
6.6841619326
 21
6.9086955697
 31
0.0
  0
SPLINE
  5
2C1
330
1F
100
AcDbEntity
  8
0
  6
CONTINUOUS
 62
     7
100
AcDbSpline
210
0.0
220
0.0
230
1.0
 70
     8
 71
     3
 72
    24
 73
    20
 74
     0
 42
0.00000001
 43
0.00000001
 40
0.0
 40
0.0
 40
0.0
 40
0.0
 40
0.0542809117677102
 40
0.1159887115842147
 40
0.1777913721281172
 40
0.2395689080922482
 40
0.3012866280440246
 40
0.3629375029455821
 40
0.4245294282329997
 40
0.4860776963524132
 40
0.5476010268579696
 40
0.6091196776231553
 40
0.6706517769145048
 40
0.732214581061456
 40
0.7938296324467434
 40
0.8555179237790079
 40
0.9172982085280945
 40
0.9791833235769298
 40
1.0
 40
1.0
 40
1.0
 40
1.0
 10
6.941311584231147
 20
6.487248396345715
 30
0.0
 10
6.940570471525617
 20
6.482577256787271
 30
0.0
 10
6.938986844702601
 20
6.472595857408191
 30
0.0
 10
6.93856205157874
 20
6.456061662075854
 30
0.0
 10
6.939592902906331
 20
6.438133655178033
 30
0.0
 10
6.942270151802646
 20
6.419562483843943
 30
0.0
 10
6.946498416205179
 20
6.400598925531361
 30
0.0
 10
6.95223419973611
 20
6.381443944744496
 30
0.0
 10
6.959402297712976
 20
6.362309929616403
 30
0.0
 10
6.967919266044755
 20
6.343404776096897
 30
0.0
 10
6.97768800731124
 20
6.324934737055979
 30
0.0
 10
6.988600051226739
 20
6.307101815167505
 30
0.0
 10
7.000536030628096
 20
6.290102366068329
 30
0.0
 10
7.013367355239246
 20
6.27412381918477
 30
0.0
 10
7.026958019629743
 20
6.259345427326009
 30
0.0
 10
7.041166551656252
 20
6.245926498356057
 30
0.0
 10
7.055847081539362
 20
6.234044523380535
 30
0.0
 10
7.067523902934585
 20
6.226033208637405
 30
0.0
 10
7.074251334095658
 20
6.222061842529183
 30
0.0
 10
7.075944680214842
 20
6.221062219162373
 30
0.0
  0
SPLINE
  5
2C2
330
1F
100
AcDbEntity
  8
0
  6
CONTINUOUS
 62
     7
100
AcDbSpline
210
0.0
220
0.0
230
1.0
 70
     8
 71
     3
 72
    15
 73
    11
 74
     0
 42
0.00000001
 43
0.00000001
 40
0.0
 40
0.0
 40
0.0
 40
0.0
 40
0.0755803734166588
 40
0.2187966991669647
 40
0.3620943533981669
 40
0.504996677360104
 40
0.6469667567747678
 40
0.7874141066353463
 40
0.925981511866249
 40
1.0
 40
1.0
 40
1.0
 40
1.0
 10
7.075944680214842
 20
6.221062219162373
 30
0.0
 10
7.078611857759226
 20
6.219575626220085
 30
0.0
 10
7.086333037430915
 20
6.215272106482436
 30
0.0
 10
7.099143096380671
 20
6.209592230524513
 30
0.0
 10
7.11420320033551
 20
6.204753108576298
 30
0.0
 10
7.128949389432959
 20
6.202026308471033
 30
0.0
 10
7.143195477924739
 20
6.201402166952868
 30
0.0
 10
7.156666131358177
 20
6.203026736191115
 30
0.0
 10
7.167485145908107
 20
6.205874616209949
 30
0.0
 10
7.173333102736785
 20
6.208945081627313
 30
0.0
 10
7.175369253472279
 20
6.210014161068396
 30
0.0
  0
LINE
  5
2C3
330
1F
100
AcDbEntity
  8
0
  6
CONTINUOUS
 62
     7
100
AcDbLine
 10
7.1792827382
 20
6.2118038239
 30
0.0
 11
7.2469529701
 21
6.2508690172
 31
0.0
  0
POLYLINE
  5
2C4
330
1F
100
AcDbEntity
  8
0
  6
CONTINUOUS
 62
     7
100
AcDb2dPolyline
 66
     1
 10
0.0
 20
0.0
 30
0.0
  0
VERTEX
  5
348
330
2C4
100
AcDbEntity
  8
0
  6
CONTINUOUS
 62
     7
100
AcDbVertex
100
AcDb2dVertex
 10
8.2988507221
 20
5.9846307781
 30
0.0
  0
VERTEX
  5
349
330
2C4
100
AcDbEntity
  8
0
  6
CONTINUOUS
 62
     7
100
AcDbVertex
100
AcDb2dVertex
 10
8.3000717687
 20
5.9455857503
 30
0.0
  0
VERTEX
  5
34A
330
2C4
100
AcDbEntity
  8
0
  6
CONTINUOUS
 62
     7
100
AcDbVertex
100
AcDb2dVertex
 10
8.303029075
 20
5.9076649164
 30
0.0
  0
VERTEX
  5
34B
330
2C4
100
AcDbEntity
  8
0
  6
CONTINUOUS
 62
     7
100
AcDbVertex
100
AcDb2dVertex
 10
8.3077150989
 20
5.8709649875
 30
0.0
  0
VERTEX
  5
34C
330
2C4
100
AcDbEntity
  8
0
  6
CONTINUOUS
 62
     7
100
AcDbVertex
100
AcDb2dVertex
 10
8.3141178895
 20
5.8355795608
 30
0.0
  0
VERTEX
  5
34D
330
2C4
100
AcDbEntity
  8
0
  6
CONTINUOUS
 62
     7
100
AcDbVertex
100
AcDb2dVertex
 10
8.3222211175
 20
5.8015988812
 30
0.0
  0
VERTEX
  5
34E
330
2C4
100
AcDbEntity
  8
0
  6
CONTINUOUS
 62
     7
100
AcDbVertex
100
AcDb2dVertex
 10
8.3320041168
 20
5.7691096111
 30
0.0
  0
VERTEX
  5
34F
330
2C4
100
AcDbEntity
  8
0
  6
CONTINUOUS
 62
     7
100
AcDbVertex
100
AcDb2dVertex
 10
8.3434419375
 20
5.7381946091
 30
0.0
  0
VERTEX
  5
350
330
2C4
100
AcDbEntity
  8
0
  6
CONTINUOUS
 62
     7
100
AcDbVertex
100
AcDb2dVertex
 10
8.3565054093
 20
5.7089327191
 30
0.0
  0
VERTEX
  5
351
330
2C4
100
AcDbEntity
  8
0
  6
CONTINUOUS
 62
     7
100
AcDbVertex
100
AcDb2dVertex
 10
8.3711612159
 20
5.6813985687
 30
0.0
  0
VERTEX
  5
352
330
2C4
100
AcDbEntity
  8
0
  6
CONTINUOUS
 62
     7
100
AcDbVertex
100
AcDb2dVertex
 10
8.3873719798
 20
5.6556623795
 30
0.0
  0
VERTEX
  5
353
330
2C4
100
AcDbEntity
  8
0
  6
CONTINUOUS
 62
     7
100
AcDbVertex
100
AcDb2dVertex
 10
8.4050963583
 20
5.6317897875
 30
0.0
  0
VERTEX
  5
354
330
2C4
100
AcDbEntity
  8
0
  6
CONTINUOUS
 62
     7
100
AcDbVertex
100
AcDb2dVertex
 10
8.4242891481
 20
5.609841676
 30
0.0
  0
VERTEX
  5
355
330
2C4
100
AcDbEntity
  8
0
  6
CONTINUOUS
 62
     7
100
AcDbVertex
100
AcDb2dVertex
 10
8.4449014009
 20
5.5898740201
 30
0.0
  0
VERTEX
  5
356
330
2C4
100
AcDbEntity
  8
0
  6
CONTINUOUS
 62
     7
100
AcDbVertex
100
AcDb2dVertex
 10
8.4668805487
 20
5.5719377441
 30
0.0
  0
VERTEX
  5
357
330
2C4
100
AcDbEntity
  8
0
  6
CONTINUOUS
 62
     7
100
AcDbVertex
100
AcDb2dVertex
 10
8.490170537
 20
5.5560785916
 30
0.0
  0
VERTEX
  5
358
330
2C4
100
AcDbEntity
  8
0
  6
CONTINUOUS
 62
     7
100
AcDbVertex
100
AcDb2dVertex
 10
8.5147119685
 20
5.542337009
 30
0.0
  0
VERTEX
  5
359
330
2C4
100
AcDbEntity
  8
0
  6
CONTINUOUS
 62
     7
100
AcDbVertex
100
AcDb2dVertex
 10
8.5404422541
 20
5.5307480418
 30
0.0
  0
VERTEX
  5
35A
330
2C4
100
AcDbEntity
  8
0
  6
CONTINUOUS
 62
     7
100
AcDbVertex
100
AcDb2dVertex
 10
8.5672957729
 20
5.521341246
 30
0.0
  0
VERTEX
  5
35B
330
2C4
100
AcDbEntity
  8
0
  6
CONTINUOUS
 62
     7
100
AcDbVertex
100
AcDb2dVertex
 10
8.5952040392
 20
5.514140612
 30
0.0
  0
VERTEX
  5
35C
330
2C4
100
AcDbEntity
  8
0
  6
CONTINUOUS
 62
     7
100
AcDbVertex
100
AcDb2dVertex
 10
8.6240958775
 20
5.5091645039
 30
0.0
  0
VERTEX
  5
35D
330
2C4
100
AcDbEntity
  8
0
  6
CONTINUOUS
 62
     7
100
AcDbVertex
100
AcDb2dVertex
 10
8.6538976037
 20
5.5064256125
 30
0.0
  0
VERTEX
  5
35E
330
2C4
100
AcDbEntity
  8
0
  6
CONTINUOUS
 62
     7
100
AcDbVertex
100
AcDb2dVertex
 10
8.6845332133
 20
5.5059309229
 30
0.0
  0
VERTEX
  5
35F
330
2C4
100
AcDbEntity
  8
0
  6
CONTINUOUS
 62
     7
100
AcDbVertex
100
AcDb2dVertex
 10
8.7159245751
 20
5.5076816967
 30
0.0
  0
VERTEX
  5
360
330
2C4
100
AcDbEntity
  8
0
  6
CONTINUOUS
 62
     7
100
AcDbVertex
100
AcDb2dVertex
 10
8.7479916303
 20
5.5116734688
 30
0.0
  0
VERTEX
  5
361
330
2C4
100
AcDbEntity
  8
0
  6
CONTINUOUS
 62
     7
100
AcDbVertex
100
AcDb2dVertex
 10
8.7806525971
 20
5.517896059
 30
0.0
  0
VERTEX
  5
362
330
2C4
100
AcDbEntity
  8
0
  6
CONTINUOUS
 62
     7
100
AcDbVertex
100
AcDb2dVertex
 10
8.8138241789
 20
5.5263335973
 30
0.0
  0
VERTEX
  5
363
330
2C4
100
AcDbEntity
  8
0
  6
CONTINUOUS
 62
     7
100
AcDbVertex
100
AcDb2dVertex
 10
8.8474217768
 20
5.5369645654
 30
0.0
  0
VERTEX
  5
364
330
2C4
100
AcDbEntity
  8
0
  6
CONTINUOUS
 62
     7
100
AcDbVertex
100
AcDb2dVertex
 10
8.8813597056
 20
5.5497618505
 30
0.0
  0
VERTEX
  5
365
330
2C4
100
AcDbEntity
  8
0
  6
CONTINUOUS
 62
     7
100
AcDbVertex
100
AcDb2dVertex
 10
8.9155514119
 20
5.5646928152
 30
0.0
  0
VERTEX
  5
366
330
2C4
100
AcDbEntity
  8
0
  6
CONTINUOUS
 62
     7
100
AcDbVertex
100
AcDb2dVertex
 10
8.9499096953
 20
5.5817193805
 30
0.0
  0
VERTEX
  5
367
330
2C4
100
AcDbEntity
  8
0
  6
CONTINUOUS
 62
     7
100
AcDbVertex
100
AcDb2dVertex
 10
8.9843469304
 20
5.6007981228
 30
0.0
  0
VERTEX
  5
368
330
2C4
100
AcDbEntity
  8
0
  6
CONTINUOUS
 62
     7
100
AcDbVertex
100
AcDb2dVertex
 10
9.0187752906
 20
5.6218803849
 30
0.0
  0
VERTEX
  5
369
330
2C4
100
AcDbEntity
  8
0
  6
CONTINUOUS
 62
     7
100
AcDbVertex
100
AcDb2dVertex
 10
9.0531069719
 20
5.6449123998
 30
0.0
  0
VERTEX
  5
36A
330
2C4
100
AcDbEntity
  8
0
  6
CONTINUOUS
 62
     7
100
AcDbVertex
100
AcDb2dVertex
 10
9.0872544166
 20
5.669835428
 30
0.0
  0
VERTEX
  5
36B
330
2C4
100
AcDbEntity
  8
0
  6
CONTINUOUS
 62
     7
100
AcDbVertex
100
AcDb2dVertex
 10
9.1211305373
 20
5.6965859073
 30
0.0
  0
VERTEX
  5
36C
330
2C4
100
AcDbEntity
  8
0
  6
CONTINUOUS
 62
     7
100
AcDbVertex
100
AcDb2dVertex
 10
9.1546489383
 20
5.7250956149
 30
0.0
  0
VERTEX
  5
36D
330
2C4
100
AcDbEntity
  8
0
  6
CONTINUOUS
 62
     7
100
AcDbVertex
100
AcDb2dVertex
 10
9.1877241363
 20
5.7552918413
 30
0.0
  0
VERTEX
  5
36E
330
2C4
100
AcDbEntity
  8
0
  6
CONTINUOUS
 62
     7
100
AcDbVertex
100
AcDb2dVertex
 10
9.2202717782
 20
5.7870975759
 30
0.0
  0
VERTEX
  5
36F
330
2C4
100
AcDbEntity
  8
0
  6
CONTINUOUS
 62
     7
100
AcDbVertex
100
AcDb2dVertex
 10
9.2522088564
 20
5.8204317032
 30
0.0
  0
VERTEX
  5
370
330
2C4
100
AcDbEntity
  8
0
  6
CONTINUOUS
 62
     7
100
AcDbVertex
100
AcDb2dVertex
 10
9.2834539206
 20
5.8552092098
 30
0.0
  0
VERTEX
  5
371
330
2C4
100
AcDbEntity
  8
0
  6
CONTINUOUS
 62
     7
100
AcDbVertex
100
AcDb2dVertex
 10
9.3139272851
 20
5.8913414012
 30
0.0
  0
VERTEX
  5
372
330
2C4
100
AcDbEntity
  8
0
  6
CONTINUOUS
 62
     7
100
AcDbVertex
100
AcDb2dVertex
 10
9.3435512326
 20
5.9287361281
 30
0.0
  0
VERTEX
  5
373
330
2C4
100
AcDbEntity
  8
0
  6
CONTINUOUS
 62
     7
100
AcDbVertex
100
AcDb2dVertex
 10
9.3722502119
 20
5.9672980212
 30
0.0
  0
VERTEX
  5
374
330
2C4
100
AcDbEntity
  8
0
  6
CONTINUOUS
 62
     7
100
AcDbVertex
100
AcDb2dVertex
 10
9.3999510307
 20
6.0069287344
 30
0.0
  0
VERTEX
  5
375
330
2C4
100
AcDbEntity
  8
0
  6
CONTINUOUS
 62
     7
100
AcDbVertex
100
AcDb2dVertex
 10
9.4265830426
 20
6.0475271961
 30
0.0
  0
VERTEX
  5
376
330
2C4
100
AcDbEntity
  8
0
  6
CONTINUOUS
 62
     7
100
AcDbVertex
100
AcDb2dVertex
 10
9.4520783269
 20
6.0889898662
 30
0.0
  0
VERTEX
  5
377
330
2C4
100
AcDbEntity
  8
0
  6
CONTINUOUS
 62
     7
100
AcDbVertex
100
AcDb2dVertex
 10
9.476371862
 20
6.1312110009
 30
0.0
  0
VERTEX
  5
378
330
2C4
100
AcDbEntity
  8
0
  6
CONTINUOUS
 62
     7
100
AcDbVertex
100
AcDb2dVertex
 10
9.499401691
 20
6.1740829219
 30
0.0
  0
VERTEX
  5
379
330
2C4
100
AcDbEntity
  8
0
  6
CONTINUOUS
 62
     7
100
AcDbVertex
100
AcDb2dVertex
 10
9.52110908
 20
6.2174962911
 30
0.0
  0
VERTEX
  5
37A
330
2C4
100
AcDbEntity
  8
0
  6
CONTINUOUS
 62
     7
100
AcDbVertex
100
AcDb2dVertex
 10
9.5414386677
 20
6.2613403898
 30
0.0
  0
VERTEX
  5
37B
330
2C4
100
AcDbEntity
  8
0
  6
CONTINUOUS
 62
     7
100
AcDbVertex
100
AcDb2dVertex
 10
9.560338607
 20
6.3055034005
 30
0.0
  0
VERTEX
  5
37C
330
2C4
100
AcDbEntity
  8
0
  6
CONTINUOUS
 62
     7
100
AcDbVertex
100
AcDb2dVertex
 10
9.5777606963
 20
6.3498726925
 30
0.0
  0
VERTEX
  5
37D
330
2C4
100
AcDbEntity
  8
0
  6
CONTINUOUS
 62
     7
100
AcDbVertex
100
AcDb2dVertex
 10
9.5936605036
 20
6.394335109
 30
0.0
  0
VERTEX
  5
37E
330
2C4
100
AcDbEntity
  8
0
  6
CONTINUOUS
 62
     7
100
AcDbVertex
100
AcDb2dVertex
 10
9.6079974787
 20
6.4387772557
 30
0.0
  0
VERTEX
  5
37F
330
2C4
100
AcDbEntity
  8
0
  6
CONTINUOUS
 62
     7
100
AcDbVertex
100
AcDb2dVertex
 10
9.6207350577
 20
6.48308579
 30
0.0
  0
VERTEX
  5
380
330
2C4
100
AcDbEntity
  8
0
  6
CONTINUOUS
 62
     7
100
AcDbVertex
100
AcDb2dVertex
 10
9.6318407553
 20
6.5271477101
 30
0.0
  0
VERTEX
  5
381
330
2C4
100
AcDbEntity
  8
0
  6
CONTINUOUS
 62
     7
100
AcDbVertex
100
AcDb2dVertex
 10
9.6412862483
 20
6.570850643
 30
0.0
  0
VERTEX
  5
382
330
2C4
100
AcDbEntity
  8
0
  6
CONTINUOUS
 62
     7
100
AcDbVertex
100
AcDb2dVertex
 10
9.6490474473
 20
6.6140831313
 30
0.0
  0
VERTEX
  5
383
330
2C4
100
AcDbEntity
  8
0
  6
CONTINUOUS
 62
     7
100
AcDbVertex
100
AcDb2dVertex
 10
9.6551045587
 20
6.6567349176
 30
0.0
  0
VERTEX
  5
384
330
2C4
100
AcDbEntity
  8
0
  6
CONTINUOUS
 62
     7
100
AcDbVertex
100
AcDb2dVertex
 10
9.6594421347
 20
6.6986972253
 30
0.0
  0
VERTEX
  5
385
330
2C4
100
AcDbEntity
  8
0
  6
CONTINUOUS
 62
     7
100
AcDbVertex
100
AcDb2dVertex
 10
9.6620491132
 20
6.739863036
 30
0.0
  0
VERTEX
  5
386
330
2C4
100
AcDbEntity
  8
0
  6
CONTINUOUS
 62
     7
100
AcDbVertex
100
AcDb2dVertex
 10
9.6629188454
 20
6.7801273631
 30
0.0
  0
VERTEX
  5
387
330
2C4
100
AcDbEntity
  8
0
  6
CONTINUOUS
 62
     7
100
AcDbVertex
100
AcDb2dVertex
 10
9.6620491132
 20
6.8193875188
 30
0.0
  0
VERTEX
  5
388
330
2C4
100
AcDbEntity
  8
0
  6
CONTINUOUS
 62
     7
100
AcDbVertex
100
AcDb2dVertex
 10
9.6594421347
 20
6.8575433763
 30
0.0
  0
VERTEX
  5
389
330
2C4
100
AcDbEntity
  8
0
  6
CONTINUOUS
 62
     7
100
AcDbVertex
100
AcDb2dVertex
 10
9.6551045587
 20
6.8944976252
 30
0.0
  0
VERTEX
  5
38A
330
2C4
100
AcDbEntity
  8
0
  6
CONTINUOUS
 62
     7
100
AcDbVertex
100
AcDb2dVertex
 10
9.6490474473
 20
6.9301560195
 30
0.0
  0
VERTEX
  5
38B
330
2C4
100
AcDbEntity
  8
0
  6
CONTINUOUS
 62
     7
100
AcDbVertex
100
AcDb2dVertex
 10
9.6412862483
 20
6.9644276182
 30
0.0
  0
VERTEX
  5
38C
330
2C4
100
AcDbEntity
  8
0
  6
CONTINUOUS
 62
     7
100
AcDbVertex
100
AcDb2dVertex
 10
9.6318407553
 20
6.9972250171
 30
0.0
  0
VERTEX
  5
38D
330
2C4
100
AcDbEntity
  8
0
  6
CONTINUOUS
 62
     7
100
AcDbVertex
100
AcDb2dVertex
 10
9.6207350577
 20
7.0284645716
 30
0.0
  0
VERTEX
  5
38E
330
2C4
100
AcDbEntity
  8
0
  6
CONTINUOUS
 62
     7
100
AcDbVertex
100
AcDb2dVertex
 10
9.6079974787
 20
7.0580666103
 30
0.0
  0
VERTEX
  5
38F
330
2C4
100
AcDbEntity
  8
0
  6
CONTINUOUS
 62
     7
100
AcDbVertex
100
AcDb2dVertex
 10
9.5936605036
 20
7.0859556378
 30
0.0
  0
VERTEX
  5
390
330
2C4
100
AcDbEntity
  8
0
  6
CONTINUOUS
 62
     7
100
AcDbVertex
100
AcDb2dVertex
 10
9.5777606963
 20
7.1120605276
 30
0.0
  0
VERTEX
  5
391
330
2C4
100
AcDbEntity
  8
0
  6
CONTINUOUS
 62
     7
100
AcDbVertex
100
AcDb2dVertex
 10
9.560338607
 20
7.1363147034
 30
0.0
  0
VERTEX
  5
392
330
2C4
100
AcDbEntity
  8
0
  6
CONTINUOUS
 62
     7
100
AcDbVertex
100
AcDb2dVertex
 10
9.5414386677
 20
7.1586563088
 30
0.0
  0
VERTEX
  5
393
330
2C4
100
AcDbEntity
  8
0
  6
CONTINUOUS
 62
     7
100
AcDbVertex
100
AcDb2dVertex
 10
9.52110908
 20
7.179028365
 30
0.0
  0
VERTEX
  5
394
330
2C4
100
AcDbEntity
  8
0
  6
CONTINUOUS
 62
     7
100
AcDbVertex
100
AcDb2dVertex
 10
9.499401691
 20
7.1973789164
 30
0.0
  0
VERTEX
  5
395
330
2C4
100
AcDbEntity
  8
0
  6
CONTINUOUS
 62
     7
100
AcDbVertex
100
AcDb2dVertex
 10
9.476371862
 20
7.2136611628
 30
0.0
  0
VERTEX
  5
396
330
2C4
100
AcDbEntity
  8
0
  6
CONTINUOUS
 62
     7
100
AcDbVertex
100
AcDb2dVertex
 10
9.4520783269
 20
7.227833579
 30
0.0
  0
VERTEX
  5
397
330
2C4
100
AcDbEntity
  8
0
  6
CONTINUOUS
 62
     7
100
AcDbVertex
100
AcDb2dVertex
 10
9.4265830426
 20
7.2398600204
 30
0.0
  0
VERTEX
  5
398
330
2C4
100
AcDbEntity
  8
0
  6
CONTINUOUS
 62
     7
100
AcDbVertex
100
AcDb2dVertex
 10
9.3999510307
 20
7.2497098156
 30
0.0
  0
VERTEX
  5
399
330
2C4
100
AcDbEntity
  8
0
  6
CONTINUOUS
 62
     7
100
AcDbVertex
100
AcDb2dVertex
 10
9.3722502119
 20
7.2573578442
 30
0.0
  0
VERTEX
  5
39A
330
2C4
100
AcDbEntity
  8
0
  6
CONTINUOUS
 62
     7
100
AcDbVertex
100
AcDb2dVertex
 10
9.3435512326
 20
7.2627846011
 30
0.0
  0
VERTEX
  5
39B
330
2C4
100
AcDbEntity
  8
0
  6
CONTINUOUS
 62
     7
100
AcDbVertex
100
AcDb2dVertex
 10
9.3139272851
 20
7.2659762463
 30
0.0
  0
VERTEX
  5
39C
330
2C4
100
AcDbEntity
  8
0
  6
CONTINUOUS
 62
     7
100
AcDbVertex
100
AcDb2dVertex
 10
9.2834539206
 20
7.2669246399
 30
0.0
  0
VERTEX
  5
39D
330
2C4
100
AcDbEntity
  8
0
  6
CONTINUOUS
 62
     7
100
AcDbVertex
100
AcDb2dVertex
 10
9.2522088564
 20
7.2656273633
 30
0.0
  0
VERTEX
  5
39E
330
2C4
100
AcDbEntity
  8
0
  6
CONTINUOUS
 62
     7
100
AcDbVertex
100
AcDb2dVertex
 10
9.2202717782
 20
7.2620877249
 30
0.0
  0
VERTEX
  5
39F
330
2C4
100
AcDbEntity
  8
0
  6
CONTINUOUS
 62
     7
100
AcDbVertex
100
AcDb2dVertex
 10
9.1877241363
 20
7.2563147521
 30
0.0
  0
VERTEX
  5
3A0
330
2C4
100
AcDbEntity
  8
0
  6
CONTINUOUS
 62
     7
100
AcDbVertex
100
AcDb2dVertex
 10
9.1546489383
 20
7.2483231678
 30
0.0
  0
VERTEX
  5
3A1
330
2C4
100
AcDbEntity
  8
0
  6
CONTINUOUS
 62
     7
100
AcDbVertex
100
AcDb2dVertex
 10
9.1211305373
 20
7.2381333534
 30
0.0
  0
VERTEX
  5
3A2
330
2C4
100
AcDbEntity
  8
0
  6
CONTINUOUS
 62
     7
100
AcDbVertex
100
AcDb2dVertex
 10
9.0872544166
 20
7.2257712962
 30
0.0
  0
VERTEX
  5
3A3
330
2C4
100
AcDbEntity
  8
0
  6
CONTINUOUS
 62
     7
100
AcDbVertex
100
AcDb2dVertex
 10
9.0531069719
 20
7.2112685239
 30
0.0
  0
VERTEX
  5
3A4
330
2C4
100
AcDbEntity
  8
0
  6
CONTINUOUS
 62
     7
100
AcDbVertex
100
AcDb2dVertex
 10
9.0187752906
 20
7.1946620234
 30
0.0
  0
VERTEX
  5
3A5
330
2C4
100
AcDbEntity
  8
0
  6
CONTINUOUS
 62
     7
100
AcDbVertex
100
AcDb2dVertex
 10
8.9843469304
 20
7.1759941469
 30
0.0
  0
VERTEX
  5
3A6
330
2C4
100
AcDbEntity
  8
0
  6
CONTINUOUS
 62
     7
100
AcDbVertex
100
AcDb2dVertex
 10
8.9499096953
 20
7.1553125039
 30
0.0
  0
VERTEX
  5
3A7
330
2C4
100
AcDbEntity
  8
0
  6
CONTINUOUS
 62
     7
100
AcDbVertex
100
AcDb2dVertex
 10
8.9155514119
 20
7.1326698395
 30
0.0
  0
VERTEX
  5
3A8
330
2C4
100
AcDbEntity
  8
0
  6
CONTINUOUS
 62
     7
100
AcDbVertex
100
AcDb2dVertex
 10
8.8813597056
 20
7.1081239004
 30
0.0
  0
VERTEX
  5
3A9
330
2C4
100
AcDbEntity
  8
0
  6
CONTINUOUS
 62
     7
100
AcDbVertex
100
AcDb2dVertex
 10
8.8474217768
 20
7.081737287
 30
0.0
  0
VERTEX
  5
3AA
330
2C4
100
AcDbEntity
  8
0
  6
CONTINUOUS
 62
     7
100
AcDbVertex
100
AcDb2dVertex
 10
8.8138241789
 20
7.0535772941
 30
0.0
  0
VERTEX
  5
3AB
330
2C4
100
AcDbEntity
  8
0
  6
CONTINUOUS
 62
     7
100
AcDbVertex
100
AcDb2dVertex
 10
8.7806525971
 20
7.0237157394
 30
0.0
  0
VERTEX
  5
3AC
330
2C4
100
AcDbEntity
  8
0
  6
CONTINUOUS
 62
     7
100
AcDbVertex
100
AcDb2dVertex
 10
8.7479916303
 20
6.9922287799
 30
0.0
  0
VERTEX
  5
3AD
330
2C4
100
AcDbEntity
  8
0
  6
CONTINUOUS
 62
     7
100
AcDbVertex
100
AcDb2dVertex
 10
8.7159245751
 20
6.9591967182
 30
0.0
  0
VERTEX
  5
3AE
330
2C4
100
AcDbEntity
  8
0
  6
CONTINUOUS
 62
     7
100
AcDbVertex
100
AcDb2dVertex
 10
8.6845332133
 20
6.9247037972
 30
0.0
  0
VERTEX
  5
3AF
330
2C4
100
AcDbEntity
  8
0
  6
CONTINUOUS
 62
     7
100
AcDbVertex
100
AcDb2dVertex
 10
8.6538976037
 20
6.8888379856
 30
0.0
  0
VERTEX
  5
3B0
330
2C4
100
AcDbEntity
  8
0
  6
CONTINUOUS
 62
     7
100
AcDbVertex
100
AcDb2dVertex
 10
8.6240958775
 20
6.8516907536
 30
0.0
  0
VERTEX
  5
3B1
330
2C4
100
AcDbEntity
  8
0
  6
CONTINUOUS
 62
     7
100
AcDbVertex
100
AcDb2dVertex
 10
8.5952040392
 20
6.813356839
 30
0.0
  0
VERTEX
  5
3B2
330
2C4
100
AcDbEntity
  8
0
  6
CONTINUOUS
 62
     7
100
AcDbVertex
100
AcDb2dVertex
 10
8.5672957729
 20
6.7739340066
 30
0.0
  0
VERTEX
  5
3B3
330
2C4
100
AcDbEntity
  8
0
  6
CONTINUOUS
 62
     7
100
AcDbVertex
100
AcDb2dVertex
 10
8.5404422541
 20
6.7335227979
 30
0.0
  0
VERTEX
  5
3B4
330
2C4
100
AcDbEntity
  8
0
  6
CONTINUOUS
 62
     7
100
AcDbVertex
100
AcDb2dVertex
 10
8.5147119685
 20
6.6922262753
 30
0.0
  0
VERTEX
  5
3B5
330
2C4
100
AcDbEntity
  8
0
  6
CONTINUOUS
 62
     7
100
AcDbVertex
100
AcDb2dVertex
 10
8.490170537
 20
6.650149759
 30
0.0
  0
VERTEX
  5
3B6
330
2C4
100
AcDbEntity
  8
0
  6
CONTINUOUS
 62
     7
100
AcDbVertex
100
AcDb2dVertex
 10
8.4668805487
 20
6.6074005584
 30
0.0
  0
VERTEX
  5
3B7
330
2C4
100
AcDbEntity
  8
0
  6
CONTINUOUS
 62
     7
100
AcDbVertex
100
AcDb2dVertex
 10
8.4449014009
 20
6.5640876986
 30
0.0
  0
VERTEX
  5
3B8
330
2C4
100
AcDbEntity
  8
0
  6
CONTINUOUS
 62
     7
100
AcDbVertex
100
AcDb2dVertex
 10
8.4242891481
 20
6.520321642
 30
0.0
  0
VERTEX
  5
3B9
330
2C4
100
AcDbEntity
  8
0
  6
CONTINUOUS
 62
     7
100
AcDbVertex
100
AcDb2dVertex
 10
8.4050963583
 20
6.4762140071
 30
0.0
  0
VERTEX
  5
3BA
330
2C4
100
AcDbEntity
  8
0
  6
CONTINUOUS
 62
     7
100
AcDbVertex
100
AcDb2dVertex
 10
8.3873719798
 20
6.4318772834
 30
0.0
  0
VERTEX
  5
3BB
330
2C4
100
AcDbEntity
  8
0
  6
CONTINUOUS
 62
     7
100
AcDbVertex
100
AcDb2dVertex
 10
8.3711612159
 20
6.3874245445
 30
0.0
  0
VERTEX
  5
3BC
330
2C4
100
AcDbEntity
  8
0
  6
CONTINUOUS
 62
     7
100
AcDbVertex
100
AcDb2dVertex
 10
8.3565054093
 20
6.3429691601
 30
0.0
  0
VERTEX
  5
3BD
330
2C4
100
AcDbEntity
  8
0
  6
CONTINUOUS
 62
     7
100
AcDbVertex
100
AcDb2dVertex
 10
8.3434419375
 20
6.2986245065
 30
0.0
  0
VERTEX
  5
3BE
330
2C4
100
AcDbEntity
  8
0
  6
CONTINUOUS
 62
     7
100
AcDbVertex
100
AcDb2dVertex
 10
8.3320041168
 20
6.2545036778
 30
0.0
  0
VERTEX
  5
3BF
330
2C4
100
AcDbEntity
  8
0
  6
CONTINUOUS
 62
     7
100
AcDbVertex
100
AcDb2dVertex
 10
8.3222211175
 20
6.2107191971
 30
0.0
  0
VERTEX
  5
3C0
330
2C4
100
AcDbEntity
  8
0
  6
CONTINUOUS
 62
     7
100
AcDbVertex
100
AcDb2dVertex
 10
8.3141178895
 20
6.1673827297
 30
0.0
  0
VERTEX
  5
3C1
330
2C4
100
AcDbEntity
  8
0
  6
CONTINUOUS
 62
     7
100
AcDbVertex
100
AcDb2dVertex
 10
8.3077150989
 20
6.1246047983
 30
0.0
  0
VERTEX
  5
3C2
330
2C4
100
AcDbEntity
  8
0
  6
CONTINUOUS
 62
     7
100
AcDbVertex
100
AcDb2dVertex
 10
8.303029075
 20
6.0824945013
 30
0.0
  0
VERTEX
  5
3C3
330
2C4
100
AcDbEntity
  8
0
  6
CONTINUOUS
 62
     7
100
AcDbVertex
100
AcDb2dVertex
 10
8.3000717687
 20
6.0411592342
 30
0.0
  0
VERTEX
  5
3C4
330
2C4
100
AcDbEntity
  8
0
  6
CONTINUOUS
 62
     7
100
AcDbVertex
100
AcDb2dVertex
 10
8.2988507221
 20
6.0007044161
 30
0.0
  0
SEQEND
  5
3C5
330
2C4
100
AcDbEntity
  8
0
  6
CONTINUOUS
 62
     7
  0
LINE
  5
2C5
330
1F
100
AcDbEntity
  8
0
  6
CONTINUOUS
 62
     7
100
AcDbLine
 10
8.2710111622
 20
6.0007040061
 30
0.0
 11
8.2988507221
 21
6.0007044161
 31
0.0
  0
POLYLINE
  5
2C6
330
1F
100
AcDbEntity
  8
0
  6
CONTINUOUS
 62
     7
100
AcDb2dPolyline
 66
     1
 10
0.0
 20
0.0
 30
0.0
  0
VERTEX
  5
3C6
330
2C6
100
AcDbEntity
  8
0
  6
CONTINUOUS
 62
     7
100
AcDbVertex
100
AcDb2dVertex
 10
8.2710111622
 20
6.0007040061
 30
0.0
  0
VERTEX
  5
3C7
330
2C6
100
AcDbEntity
  8
0
  6
CONTINUOUS
 62
     7
100
AcDbVertex
100
AcDb2dVertex
 10
8.2722331481
 20
6.0416493643
 30
0.0
  0
VERTEX
  5
3C8
330
2C6
100
AcDbEntity
  8
0
  6
CONTINUOUS
 62
     7
100
AcDbVertex
100
AcDb2dVertex
 10
8.2751988908
 20
6.0834801957
 30
0.0
  0
VERTEX
  5
3C9
330
2C6
100
AcDbEntity
  8
0
  6
CONTINUOUS
 62
     7
100
AcDbVertex
100
AcDb2dVertex
 10
8.2799009462
 20
6.1260915035
 30
0.0
  0
VERTEX
  5
3CA
330
2C6
100
AcDbEntity
  8
0
  6
CONTINUOUS
 62
     7
100
AcDbVertex
100
AcDb2dVertex
 10
8.2863275121
 20
6.1693763317
 30
0.0
  0
VERTEX
  5
3CB
330
2C6
100
AcDbEntity
  8
0
  6
CONTINUOUS
 62
     7
100
AcDbVertex
100
AcDb2dVertex
 10
8.2944624574
 20
6.2132260341
 30
0.0
  0
VERTEX
  5
3CC
330
2C6
100
AcDbEntity
  8
0
  6
CONTINUOUS
 62
     7
100
AcDbVertex
100
AcDb2dVertex
 10
8.3042853633
 20
6.2575305463
 30
0.0
  0
VERTEX
  5
3CD
330
2C6
100
AcDbEntity
  8
0
  6
CONTINUOUS
 62
     7
100
AcDbVertex
100
AcDb2dVertex
 10
8.3157715738
 20
6.3021786627
 30
0.0
  0
VERTEX
  5
3CE
330
2C6
100
AcDbEntity
  8
0
  6
CONTINUOUS
 62
     7
100
AcDbVertex
100
AcDb2dVertex
 10
8.3288922583
 20
6.3470583147
 30
0.0
  0
VERTEX
  5
3CF
330
2C6
100
AcDbEntity
  8
0
  6
CONTINUOUS
 62
     7
100
AcDbVertex
100
AcDb2dVertex
 10
8.3436144834
 20
6.3920568531
 30
0.0
  0
VERTEX
  5
3D0
330
2C6
100
AcDbEntity
  8
0
  6
CONTINUOUS
 62
     7
100
AcDbVertex
100
AcDb2dVertex
 10
8.3599012956
 20
6.43706133
 30
0.0
  0
VERTEX
  5
3D1
330
2C6
100
AcDbEntity
  8
0
  6
CONTINUOUS
 62
     7
100
AcDbVertex
100
AcDb2dVertex
 10
8.3777118148
 20
6.4819587826
 30
0.0
  0
VERTEX
  5
3D2
330
2C6
100
AcDbEntity
  8
0
  6
CONTINUOUS
 62
     7
100
AcDbVertex
100
AcDb2dVertex
 10
8.3970013357
 20
6.5266365167
 30
0.0
  0
VERTEX
  5
3D3
330
2C6
100
AcDbEntity
  8
0
  6
CONTINUOUS
 62
     7
100
AcDbVertex
100
AcDb2dVertex
 10
8.4177214411
 20
6.5709823898
 30
0.0
  0
VERTEX
  5
3D4
330
2C6
100
AcDbEntity
  8
0
  6
CONTINUOUS
 62
     7
100
AcDbVertex
100
AcDb2dVertex
 10
8.4398201227
 20
6.6148850922
 30
0.0
  0
VERTEX
  5
3D5
330
2C6
100
AcDbEntity
  8
0
  6
CONTINUOUS
 62
     7
100
AcDbVertex
100
AcDb2dVertex
 10
8.4632419123
 20
6.6582344266
 30
0.0
  0
VERTEX
  5
3D6
330
2C6
100
AcDbEntity
  8
0
  6
CONTINUOUS
 62
     7
100
AcDbVertex
100
AcDb2dVertex
 10
8.4879280202
 20
6.7009215848
 30
0.0
  0
VERTEX
  5
3D7
330
2C6
100
AcDbEntity
  8
0
  6
CONTINUOUS
 62
     7
100
AcDbVertex
100
AcDb2dVertex
 10
8.5138164835
 20
6.7428394204
 30
0.0
  0
VERTEX
  5
3D8
330
2C6
100
AcDbEntity
  8
0
  6
CONTINUOUS
 62
     7
100
AcDbVertex
100
AcDb2dVertex
 10
8.5408423212
 20
6.7838827184
 30
0.0
  0
VERTEX
  5
3D9
330
2C6
100
AcDbEntity
  8
0
  6
CONTINUOUS
 62
     7
100
AcDbVertex
100
AcDb2dVertex
 10
8.5689376977
 20
6.8239484587
 30
0.0
  0
VERTEX
  5
3DA
330
2C6
100
AcDbEntity
  8
0
  6
CONTINUOUS
 62
     7
100
AcDbVertex
100
AcDb2dVertex
 10
8.5980320925
 20
6.8629360748
 30
0.0
  0
VERTEX
  5
3DB
330
2C6
100
AcDbEntity
  8
0
  6
CONTINUOUS
 62
     7
100
AcDbVertex
100
AcDb2dVertex
 10
8.6280524778
 20
6.9007477066
 30
0.0
  0
VERTEX
  5
3DC
330
2C6
100
AcDbEntity
  8
0
  6
CONTINUOUS
 62
     7
100
AcDbVertex
100
AcDb2dVertex
 10
8.6589235013
 20
6.9372884456
 30
0.0
  0
VERTEX
  5
3DD
330
2C6
100
AcDbEntity
  8
0
  6
CONTINUOUS
 62
     7
100
AcDbVertex
100
AcDb2dVertex
 10
8.6905676758
 20
6.9724665732
 30
0.0
  0
VERTEX
  5
3DE
330
2C6
100
AcDbEntity
  8
0
  6
CONTINUOUS
 62
     7
100
AcDbVertex
100
AcDb2dVertex
 10
8.7229055733
 20
7.0061937912
 30
0.0
  0
VERTEX
  5
3DF
330
2C6
100
AcDbEntity
  8
0
  6
CONTINUOUS
 62
     7
100
AcDbVertex
100
AcDb2dVertex
 10
8.7558560245
 20
7.0383854432
 30
0.0
  0
VERTEX
  5
3E0
330
2C6
100
AcDbEntity
  8
0
  6
CONTINUOUS
 62
     7
100
AcDbVertex
100
AcDb2dVertex
 10
8.7893363228
 20
7.068960727
 30
0.0
  0
VERTEX
  5
3E1
330
2C6
100
AcDbEntity
  8
0
  6
CONTINUOUS
 62
     7
100
AcDbVertex
100
AcDb2dVertex
 10
8.8232624314
 20
7.0978428975
 30
0.0
  0
VERTEX
  5
3E2
330
2C6
100
AcDbEntity
  8
0
  6
CONTINUOUS
 62
     7
100
AcDbVertex
100
AcDb2dVertex
 10
8.8575491947
 20
7.1249594596
 30
0.0
  0
VERTEX
  5
3E3
330
2C6
100
AcDbEntity
  8
0
  6
CONTINUOUS
 62
     7
100
AcDbVertex
100
AcDb2dVertex
 10
8.8921105516
 20
7.1502423498
 30
0.0
  0
VERTEX
  5
3E4
330
2C6
100
AcDbEntity
  8
0
  6
CONTINUOUS
 62
     7
100
AcDbVertex
100
AcDb2dVertex
 10
8.9268597521
 20
7.1736281071
 30
0.0
  0
VERTEX
  5
3E5
330
2C6
100
AcDbEntity
  8
0
  6
CONTINUOUS
 62
     7
100
AcDbVertex
100
AcDb2dVertex
 10
8.9617095745
 20
7.1950580326
 30
0.0
  0
VERTEX
  5
3E6
330
2C6
100
AcDbEntity
  8
0
  6
CONTINUOUS
 62
     7
100
AcDbVertex
100
AcDb2dVertex
 10
8.9965725445
 20
7.2144783363
 30
0.0
  0
VERTEX
  5
3E7
330
2C6
100
AcDbEntity
  8
0
  6
CONTINUOUS
 62
     7
100
AcDbVertex
100
AcDb2dVertex
 10
9.0313611549
 20
7.2318402727
 30
0.0
  0
VERTEX
  5
3E8
330
2C6
100
AcDbEntity
  8
0
  6
CONTINUOUS
 62
     7
100
AcDbVertex
100
AcDb2dVertex
 10
9.0659880852
 20
7.2471002627
 30
0.0
  0
VERTEX
  5
3E9
330
2C6
100
AcDbEntity
  8
0
  6
CONTINUOUS
 62
     7
100
AcDbVertex
100
AcDb2dVertex
 10
9.1003664204
 20
7.2602200032
 30
0.0
  0
VERTEX
  5
3EA
330
2C6
100
AcDbEntity
  8
0
  6
CONTINUOUS
 62
     7
100
AcDbVertex
100
AcDb2dVertex
 10
9.1344098699
 20
7.2711665632
 30
0.0
  0
VERTEX
  5
3EB
330
2C6
100
AcDbEntity
  8
0
  6
CONTINUOUS
 62
     7
100
AcDbVertex
100
AcDb2dVertex
 10
9.1680329834
 20
7.2799124665
 30
0.0
  0
VERTEX
  5
3EC
330
2C6
100
AcDbEntity
  8
0
  6
CONTINUOUS
 62
     7
100
AcDbVertex
100
AcDb2dVertex
 10
9.2011513658
 20
7.2864357606
 30
0.0
  0
VERTEX
  5
3ED
330
2C6
100
AcDbEntity
  8
0
  6
CONTINUOUS
 62
     7
100
AcDbVertex
100
AcDb2dVertex
 10
9.2336818889
 20
7.2907200718
 30
0.0
  0
VERTEX
  5
3EE
330
2C6
100
AcDbEntity
  8
0
  6
CONTINUOUS
 62
     7
100
AcDbVertex
100
AcDb2dVertex
 10
9.2655428998
 20
7.2927546462
 30
0.0
  0
VERTEX
  5
3EF
330
2C6
100
AcDbEntity
  8
0
  6
CONTINUOUS
 62
     7
100
AcDbVertex
100
AcDb2dVertex
 10
9.2966544264
 20
7.2925343772
 30
0.0
  0
VERTEX
  5
3F0
330
2C6
100
AcDbEntity
  8
0
  6
CONTINUOUS
 62
     7
100
AcDbVertex
100
AcDb2dVertex
 10
9.3269383777
 20
7.2900598175
 30
0.0
  0
VERTEX
  5
3F1
330
2C6
100
AcDbEntity
  8
0
  6
CONTINUOUS
 62
     7
100
AcDbVertex
100
AcDb2dVertex
 10
9.35631874
 20
7.2853371783
 30
0.0
  0
VERTEX
  5
3F2
330
2C6
100
AcDbEntity
  8
0
  6
CONTINUOUS
 62
     7
100
AcDbVertex
100
AcDb2dVertex
 10
9.3847217675
 20
7.2783783138
 30
0.0
  0
VERTEX
  5
3F3
330
2C6
100
AcDbEntity
  8
0
  6
CONTINUOUS
 62
     7
100
AcDbVertex
100
AcDb2dVertex
 10
9.4120761677
 20
7.2692006908
 30
0.0
  0
VERTEX
  5
3F4
330
2C6
100
AcDbEntity
  8
0
  6
CONTINUOUS
 62
     7
100
AcDbVertex
100
AcDb2dVertex
 10
9.4383132801
 20
7.2578273454
 30
0.0
  0
VERTEX
  5
3F5
330
2C6
100
AcDbEntity
  8
0
  6
CONTINUOUS
 62
     7
100
AcDbVertex
100
AcDb2dVertex
 10
9.4633672486
 20
7.2442868253
 30
0.0
  0
VERTEX
  5
3F6
330
2C6
100
AcDbEntity
  8
0
  6
CONTINUOUS
 62
     7
100
AcDbVertex
100
AcDb2dVertex
 10
9.4871751871
 20
7.2286131174
 30
0.0
  0
VERTEX
  5
3F7
330
2C6
100
AcDbEntity
  8
0
  6
CONTINUOUS
 62
     7
100
AcDbVertex
100
AcDb2dVertex
 10
9.5096773366
 20
7.2108455635
 30
0.0
  0
VERTEX
  5
3F8
330
2C6
100
AcDbEntity
  8
0
  6
CONTINUOUS
 62
     7
100
AcDbVertex
100
AcDb2dVertex
 10
9.5308172162
 20
7.1910287606
 30
0.0
  0
VERTEX
  5
3F9
330
2C6
100
AcDbEntity
  8
0
  6
CONTINUOUS
 62
     7
100
AcDbVertex
100
AcDb2dVertex
 10
9.5505417638
 20
7.1692124496
 30
0.0
  0
VERTEX
  5
3FA
330
2C6
100
AcDbEntity
  8
0
  6
CONTINUOUS
 62
     7
100
AcDbVertex
100
AcDb2dVertex
 10
9.5688014704
 20
7.1454513901
 30
0.0
  0
VERTEX
  5
3FB
330
2C6
100
AcDbEntity
  8
0
  6
CONTINUOUS
 62
     7
100
AcDbVertex
100
AcDb2dVertex
 10
9.5855505033
 20
7.1198052233
 30
0.0
  0
VERTEX
  5
3FC
330
2C6
100
AcDbEntity
  8
0
  6
CONTINUOUS
 62
     7
100
AcDbVertex
100
AcDb2dVertex
 10
9.600746822
 20
7.0923383218
 30
0.0
  0
VERTEX
  5
3FD
330
2C6
100
AcDbEntity
  8
0
  6
CONTINUOUS
 62
     7
100
AcDbVertex
100
AcDb2dVertex
 10
9.6143522832
 20
7.0631196286
 30
0.0
  0
VERTEX
  5
3FE
330
2C6
100
AcDbEntity
  8
0
  6
CONTINUOUS
 62
     7
100
AcDbVertex
100
AcDb2dVertex
 10
9.6263327367
 20
7.0322224836
 30
0.0
  0
VERTEX
  5
3FF
330
2C6
100
AcDbEntity
  8
0
  6
CONTINUOUS
 62
     7
100
AcDbVertex
100
AcDb2dVertex
 10
9.6366581111
 20
6.9997244395
 30
0.0
  0
VERTEX
  5
400
330
2C6
100
AcDbEntity
  8
0
  6
CONTINUOUS
 62
     7
100
AcDbVertex
100
AcDb2dVertex
 10
9.6453024894
 20
6.9657070677
 30
0.0
  0
VERTEX
  5
401
330
2C6
100
AcDbEntity
  8
0
  6
CONTINUOUS
 62
     7
100
AcDbVertex
100
AcDb2dVertex
 10
9.652244174
 20
6.9302557529
 30
0.0
  0
VERTEX
  5
402
330
2C6
100
AcDbEntity
  8
0
  6
CONTINUOUS
 62
     7
100
AcDbVertex
100
AcDb2dVertex
 10
9.657465741
 20
6.893459479
 30
0.0
  0
VERTEX
  5
403
330
2C6
100
AcDbEntity
  8
0
  6
CONTINUOUS
 62
     7
100
AcDbVertex
100
AcDb2dVertex
 10
9.660954084
 20
6.855410606
 30
0.0
  0
VERTEX
  5
404
330
2C6
100
AcDbEntity
  8
0
  6
CONTINUOUS
 62
     7
100
AcDbVertex
100
AcDb2dVertex
 10
9.6627004472
 20
6.8162046379
 30
0.0
  0
VERTEX
  5
405
330
2C6
100
AcDbEntity
  8
0
  6
CONTINUOUS
 62
     7
100
AcDbVertex
100
AcDb2dVertex
 10
9.6629188454
 20
6.796198389
 30
0.0
  0
SEQEND
  5
406
330
2C6
100
AcDbEntity
  8
0
  6
CONTINUOUS
 62
     7
  0
POLYLINE
  5
2C7
330
1F
100
AcDbEntity
  8
0
  6
CONTINUOUS
 62
     7
100
AcDb2dPolyline
 66
     1
 10
0.0
 20
0.0
 30
0.0
  0
VERTEX
  5
407
330
2C7
100
AcDbEntity
  8
0
  6
CONTINUOUS
 62
     7
100
AcDbVertex
100
AcDb2dVertex
 10
8.967060719
 20
5.5908061524
 30
0.0
  0
VERTEX
  5
408
330
2C7
100
AcDbEntity
  8
0
  6
CONTINUOUS
 62
     7
100
AcDbVertex
100
AcDb2dVertex
 10
8.9617095745
 20
5.587739754
 30
0.0
  0
VERTEX
  5
409
330
2C7
100
AcDbEntity
  8
0
  6
CONTINUOUS
 62
     7
100
AcDbVertex
100
AcDb2dVertex
 10
8.9268597521
 20
5.568932931
 30
0.0
  0
VERTEX
  5
40A
330
2C7
100
AcDbEntity
  8
0
  6
CONTINUOUS
 62
     7
100
AcDbVertex
100
AcDb2dVertex
 10
8.8921105516
 20
5.5521981154
 30
0.0
  0
VERTEX
  5
40B
330
2C7
100
AcDbEntity
  8
0
  6
CONTINUOUS
 62
     7
100
AcDbVertex
100
AcDb2dVertex
 10
8.8575491947
 20
5.5375773122
 30
0.0
  0
VERTEX
  5
40C
330
2C7
100
AcDbEntity
  8
0
  6
CONTINUOUS
 62
     7
100
AcDbVertex
100
AcDb2dVertex
 10
8.8232624314
 20
5.52510722
 30
0.0
  0
VERTEX
  5
40D
330
2C7
100
AcDbEntity
  8
0
  6
CONTINUOUS
 62
     7
100
AcDbVertex
100
AcDb2dVertex
 10
8.7893363228
 20
5.5148191393
 30
0.0
  0
VERTEX
  5
40E
330
2C7
100
AcDbEntity
  8
0
  6
CONTINUOUS
 62
     7
100
AcDbVertex
100
AcDb2dVertex
 10
8.7558560245
 20
5.5067388935
 30
0.0
  0
VERTEX
  5
40F
330
2C7
100
AcDbEntity
  8
0
  6
CONTINUOUS
 62
     7
100
AcDbVertex
100
AcDb2dVertex
 10
8.7229055733
 20
5.5008867643
 30
0.0
  0
VERTEX
  5
410
330
2C7
100
AcDbEntity
  8
0
  6
CONTINUOUS
 62
     7
100
AcDbVertex
100
AcDb2dVertex
 10
8.6905676758
 20
5.4972774406
 30
0.0
  0
VERTEX
  5
411
330
2C7
100
AcDbEntity
  8
0
  6
CONTINUOUS
 62
     7
100
AcDbVertex
100
AcDb2dVertex
 10
8.6589235013
 20
5.4959199821
 30
0.0
  0
VERTEX
  5
412
330
2C7
100
AcDbEntity
  8
0
  6
CONTINUOUS
 62
     7
100
AcDbVertex
100
AcDb2dVertex
 10
8.6280524778
 20
5.496817796
 30
0.0
  0
VERTEX
  5
413
330
2C7
100
AcDbEntity
  8
0
  6
CONTINUOUS
 62
     7
100
AcDbVertex
100
AcDb2dVertex
 10
8.5980320925
 20
5.4999686287
 30
0.0
  0
VERTEX
  5
414
330
2C7
100
AcDbEntity
  8
0
  6
CONTINUOUS
 62
     7
100
AcDbVertex
100
AcDb2dVertex
 10
8.5689376977
 20
5.5053645716
 30
0.0
  0
VERTEX
  5
415
330
2C7
100
AcDbEntity
  8
0
  6
CONTINUOUS
 62
     7
100
AcDbVertex
100
AcDb2dVertex
 10
8.5408423212
 20
5.5129920806
 30
0.0
  0
VERTEX
  5
416
330
2C7
100
AcDbEntity
  8
0
  6
CONTINUOUS
 62
     7
100
AcDbVertex
100
AcDb2dVertex
 10
8.5138164835
 20
5.5228320105
 30
0.0
  0
VERTEX
  5
417
330
2C7
100
AcDbEntity
  8
0
  6
CONTINUOUS
 62
     7
100
AcDbVertex
100
AcDb2dVertex
 10
8.4879280202
 20
5.5348596627
 30
0.0
  0
VERTEX
  5
418
330
2C7
100
AcDbEntity
  8
0
  6
CONTINUOUS
 62
     7
100
AcDbVertex
100
AcDb2dVertex
 10
8.4632419123
 20
5.5490448473
 30
0.0
  0
VERTEX
  5
419
330
2C7
100
AcDbEntity
  8
0
  6
CONTINUOUS
 62
     7
100
AcDbVertex
100
AcDb2dVertex
 10
8.4398201227
 20
5.5653519592
 30
0.0
  0
VERTEX
  5
41A
330
2C7
100
AcDbEntity
  8
0
  6
CONTINUOUS
 62
     7
100
AcDbVertex
100
AcDb2dVertex
 10
8.4177214411
 20
5.5837400668
 30
0.0
  0
VERTEX
  5
41B
330
2C7
100
AcDbEntity
  8
0
  6
CONTINUOUS
 62
     7
100
AcDbVertex
100
AcDb2dVertex
 10
8.3970013357
 20
5.6041630154
 30
0.0
  0
VERTEX
  5
41C
330
2C7
100
AcDbEntity
  8
0
  6
CONTINUOUS
 62
     7
100
AcDbVertex
100
AcDb2dVertex
 10
8.3777118148
 20
5.6265695427
 30
0.0
  0
VERTEX
  5
41D
330
2C7
100
AcDbEntity
  8
0
  6
CONTINUOUS
 62
     7
100
AcDbVertex
100
AcDb2dVertex
 10
8.3599012956
 20
5.6509034077
 30
0.0
  0
VERTEX
  5
41E
330
2C7
100
AcDbEntity
  8
0
  6
CONTINUOUS
 62
     7
100
AcDbVertex
100
AcDb2dVertex
 10
8.3436144834
 20
5.6771035313
 30
0.0
  0
VERTEX
  5
41F
330
2C7
100
AcDbEntity
  8
0
  6
CONTINUOUS
 62
     7
100
AcDbVertex
100
AcDb2dVertex
 10
8.3288922583
 20
5.7051041505
 30
0.0
  0
VERTEX
  5
420
330
2C7
100
AcDbEntity
  8
0
  6
CONTINUOUS
 62
     7
100
AcDbVertex
100
AcDb2dVertex
 10
8.3157715738
 20
5.7348349827
 30
0.0
  0
VERTEX
  5
421
330
2C7
100
AcDbEntity
  8
0
  6
CONTINUOUS
 62
     7
100
AcDbVertex
100
AcDb2dVertex
 10
8.3042853633
 20
5.7662214026
 30
0.0
  0
VERTEX
  5
422
330
2C7
100
AcDbEntity
  8
0
  6
CONTINUOUS
 62
     7
100
AcDbVertex
100
AcDb2dVertex
 10
8.2944624574
 20
5.7991846292
 30
0.0
  0
VERTEX
  5
423
330
2C7
100
AcDbEntity
  8
0
  6
CONTINUOUS
 62
     7
100
AcDbVertex
100
AcDb2dVertex
 10
8.2863275121
 20
5.8336419236
 30
0.0
  0
VERTEX
  5
424
330
2C7
100
AcDbEntity
  8
0
  6
CONTINUOUS
 62
     7
100
AcDbVertex
100
AcDb2dVertex
 10
8.2799009462
 20
5.8695067968
 30
0.0
  0
VERTEX
  5
425
330
2C7
100
AcDbEntity
  8
0
  6
CONTINUOUS
 62
     7
100
AcDbVertex
100
AcDb2dVertex
 10
8.2751988908
 20
5.9066892269
 30
0.0
  0
VERTEX
  5
426
330
2C7
100
AcDbEntity
  8
0
  6
CONTINUOUS
 62
     7
100
AcDbVertex
100
AcDb2dVertex
 10
8.2722331481
 20
5.9450958847
 30
0.0
  0
VERTEX
  5
427
330
2C7
100
AcDbEntity
  8
0
  6
CONTINUOUS
 62
     7
100
AcDbVertex
100
AcDb2dVertex
 10
8.2710111622
 20
5.9846303681
 30
0.0
  0
SEQEND
  5
428
330
2C7
100
AcDbEntity
  8
0
  6
CONTINUOUS
 62
     7
  0
LINE
  5
2C8
330
1F
100
AcDbEntity
  8
0
  6
CONTINUOUS
 62
     7
100
AcDbLine
 10
8.2710111622
 20
5.9846303681
 30
0.0
 11
8.2988507221
 21
5.9846307781
 31
0.0
  0
POLYLINE
  5
2C9
330
1F
100
AcDbEntity
  8
0
  6
CONTINUOUS
 62
     7
100
AcDb2dPolyline
 66
     1
 10
0.0
 20
0.0
 30
0.0
  0
VERTEX
  5
429
330
2C9
100
AcDbEntity
  8
0
  6
CONTINUOUS
 62
     7
100
AcDbVertex
100
AcDb2dVertex
 10
8.1457015393
 20
7.1627513028
 30
0.0
  0
VERTEX
  5
42A
330
2C9
100
AcDbEntity
  8
0
  6
CONTINUOUS
 62
     7
100
AcDbVertex
100
AcDb2dVertex
 10
8.1153797775
 20
7.1238207807
 30
0.0
  0
VERTEX
  5
42B
330
2C9
100
AcDbEntity
  8
0
  6
CONTINUOUS
 62
     7
100
AcDbVertex
100
AcDb2dVertex
 10
8.0860449764
 20
7.0837001095
 30
0.0
  0
VERTEX
  5
42C
330
2C9
100
AcDbEntity
  8
0
  6
CONTINUOUS
 62
     7
100
AcDbVertex
100
AcDb2dVertex
 10
8.0577736672
 20
7.0424939593
 30
0.0
  0
VERTEX
  5
42D
330
2C9
100
AcDbEntity
  8
0
  6
CONTINUOUS
 62
     7
100
AcDbVertex
100
AcDb2dVertex
 10
8.0306396066
 20
7.0003098324
 30
0.0
  0
VERTEX
  5
42E
330
2C9
100
AcDbEntity
  8
0
  6
CONTINUOUS
 62
     7
100
AcDbVertex
100
AcDb2dVertex
 10
8.0047135841
 20
6.9572577822
 30
0.0
  0
VERTEX
  5
42F
330
2C9
100
AcDbEntity
  8
0
  6
CONTINUOUS
 62
     7
100
AcDbVertex
100
AcDb2dVertex
 10
7.9800632379
 20
6.9134501266
 30
0.0
  0
VERTEX
  5
430
330
2C9
100
AcDbEntity
  8
0
  6
CONTINUOUS
 62
     7
100
AcDbVertex
100
AcDb2dVertex
 10
7.9567528779
 20
6.8690011549
 30
0.0
  0
VERTEX
  5
431
330
2C9
100
AcDbEntity
  8
0
  6
CONTINUOUS
 62
     7
100
AcDbVertex
100
AcDb2dVertex
 10
7.934843318
 20
6.8240268294
 30
0.0
  0
VERTEX
  5
432
330
2C9
100
AcDbEntity
  8
0
  6
CONTINUOUS
 62
     7
100
AcDbVertex
100
AcDb2dVertex
 10
7.914391718
 20
6.7786444828
 30
0.0
  0
VERTEX
  5
433
330
2C9
100
AcDbEntity
  8
0
  6
CONTINUOUS
 62
     7
100
AcDbVertex
100
AcDb2dVertex
 10
7.8954514336
 20
6.7329725126
 30
0.0
  0
VERTEX
  5
434
330
2C9
100
AcDbEntity
  8
0
  6
CONTINUOUS
 62
     7
100
AcDbVertex
100
AcDb2dVertex
 10
7.878071878
 20
6.6871300717
 30
0.0
  0
VERTEX
  5
435
330
2C9
100
AcDbEntity
  8
0
  6
CONTINUOUS
 62
     7
100
AcDbVertex
100
AcDb2dVertex
 10
7.8622983923
 20
6.6412367578
 30
0.0
  0
VERTEX
  5
436
330
2C9
100
AcDbEntity
  8
0
  6
CONTINUOUS
 62
     7
100
AcDbVertex
100
AcDb2dVertex
 10
7.8481721278
 20
6.5954123014
 30
0.0
  0
VERTEX
  5
437
330
2C9
100
AcDbEntity
  8
0
  6
CONTINUOUS
 62
     7
100
AcDbVertex
100
AcDb2dVertex
 10
7.8357299383
 20
6.5497762532
 30
0.0
  0
VERTEX
  5
438
330
2C9
100
AcDbEntity
  8
0
  6
CONTINUOUS
 62
     7
100
AcDbVertex
100
AcDb2dVertex
 10
7.8250042841
 20
6.5044476724
 30
0.0
  0
VERTEX
  5
439
330
2C9
100
AcDbEntity
  8
0
  6
CONTINUOUS
 62
     7
100
AcDbVertex
100
AcDb2dVertex
 10
7.8160231472
 20
6.4595448161
 30
0.0
  0
VERTEX
  5
43A
330
2C9
100
AcDbEntity
  8
0
  6
CONTINUOUS
 62
     7
100
AcDbVertex
100
AcDb2dVertex
 10
7.8088099583
 20
6.4151848308
 30
0.0
  0
VERTEX
  5
43B
330
2C9
100
AcDbEntity
  8
0
  6
CONTINUOUS
 62
     7
100
AcDbVertex
100
AcDb2dVertex
 10
7.8033835358
 20
6.3714834467
 30
0.0
  0
VERTEX
  5
43C
330
2C9
100
AcDbEntity
  8
0
  6
CONTINUOUS
 62
     7
100
AcDbVertex
100
AcDb2dVertex
 10
7.7997580367
 20
6.3285546755
 30
0.0
  0
VERTEX
  5
43D
330
2C9
100
AcDbEntity
  8
0
  6
CONTINUOUS
 62
     7
100
AcDbVertex
100
AcDb2dVertex
 10
7.7979429194
 20
6.2865105136
 30
0.0
  0
VERTEX
  5
43E
330
2C9
100
AcDbEntity
  8
0
  6
CONTINUOUS
 62
     7
100
AcDbVertex
100
AcDb2dVertex
 10
7.7979429194
 20
6.2454606494
 30
0.0
  0
VERTEX
  5
43F
330
2C9
100
AcDbEntity
  8
0
  6
CONTINUOUS
 62
     7
100
AcDbVertex
100
AcDb2dVertex
 10
7.7997580367
 20
6.2055121773
 30
0.0
  0
VERTEX
  5
440
330
2C9
100
AcDbEntity
  8
0
  6
CONTINUOUS
 62
     7
100
AcDbVertex
100
AcDb2dVertex
 10
7.8033835358
 20
6.1667693184
 30
0.0
  0
VERTEX
  5
441
330
2C9
100
AcDbEntity
  8
0
  6
CONTINUOUS
 62
     7
100
AcDbVertex
100
AcDb2dVertex
 10
7.8088099583
 20
6.1293331482
 30
0.0
  0
VERTEX
  5
442
330
2C9
100
AcDbEntity
  8
0
  6
CONTINUOUS
 62
     7
100
AcDbVertex
100
AcDb2dVertex
 10
7.8160231472
 20
6.0933013336
 30
0.0
  0
VERTEX
  5
443
330
2C9
100
AcDbEntity
  8
0
  6
CONTINUOUS
 62
     7
100
AcDbVertex
100
AcDb2dVertex
 10
7.8250042841
 20
6.0587678773
 30
0.0
  0
VERTEX
  5
444
330
2C9
100
AcDbEntity
  8
0
  6
CONTINUOUS
 62
     7
100
AcDbVertex
100
AcDb2dVertex
 10
7.8357299383
 20
6.0258228732
 30
0.0
  0
VERTEX
  5
445
330
2C9
100
AcDbEntity
  8
0
  6
CONTINUOUS
 62
     7
100
AcDbVertex
100
AcDb2dVertex
 10
7.8481721278
 20
5.9945522712
 30
0.0
  0
VERTEX
  5
446
330
2C9
100
AcDbEntity
  8
0
  6
CONTINUOUS
 62
     7
100
AcDbVertex
100
AcDb2dVertex
 10
7.8622983923
 20
5.9650376526
 30
0.0
  0
VERTEX
  5
447
330
2C9
100
AcDbEntity
  8
0
  6
CONTINUOUS
 62
     7
100
AcDbVertex
100
AcDb2dVertex
 10
7.878071878
 20
5.9373560176
 30
0.0
  0
VERTEX
  5
448
330
2C9
100
AcDbEntity
  8
0
  6
CONTINUOUS
 62
     7
100
AcDbVertex
100
AcDb2dVertex
 10
7.8954514336
 20
5.9115795846
 30
0.0
  0
VERTEX
  5
449
330
2C9
100
AcDbEntity
  8
0
  6
CONTINUOUS
 62
     7
100
AcDbVertex
100
AcDb2dVertex
 10
7.914391718
 20
5.8877756013
 30
0.0
  0
VERTEX
  5
44A
330
2C9
100
AcDbEntity
  8
0
  6
CONTINUOUS
 62
     7
100
AcDbVertex
100
AcDb2dVertex
 10
7.934843318
 20
5.8660061695
 30
0.0
  0
VERTEX
  5
44B
330
2C9
100
AcDbEntity
  8
0
  6
CONTINUOUS
 62
     7
100
AcDbVertex
100
AcDb2dVertex
 10
7.9567528779
 20
5.8463280832
 30
0.0
  0
VERTEX
  5
44C
330
2C9
100
AcDbEntity
  8
0
  6
CONTINUOUS
 62
     7
100
AcDbVertex
100
AcDb2dVertex
 10
7.9800632379
 20
5.8287926804
 30
0.0
  0
VERTEX
  5
44D
330
2C9
100
AcDbEntity
  8
0
  6
CONTINUOUS
 62
     7
100
AcDbVertex
100
AcDb2dVertex
 10
8.0016011695
 20
5.8152198848
 30
0.0
  0
SEQEND
  5
44E
330
2C9
100
AcDbEntity
  8
0
  6
CONTINUOUS
 62
     7
  0
LINE
  5
2CA
330
1F
100
AcDbEntity
  8
0
  6
CONTINUOUS
 62
     7
100
AcDbLine
 10
8.0204267159
 20
7.235070919
 30
0.0
 11
8.1457015393
 21
7.1627513028
 31
0.0
  0
POLYLINE
  5
2CB
330
1F
100
AcDbEntity
  8
0
  6
CONTINUOUS
 62
     7
100
AcDb2dPolyline
 66
     1
 10
0.0
 20
0.0
 30
0.0
  0
VERTEX
  5
44F
330
2CB
100
AcDbEntity
  8
0
  6
CONTINUOUS
 62
     7
100
AcDbVertex
100
AcDb2dVertex
 10
8.7163979572
 20
7.6368465646
 30
0.0
  0
VERTEX
  5
450
330
2CB
100
AcDbEntity
  8
0
  6
CONTINUOUS
 62
     7
100
AcDbVertex
100
AcDb2dVertex
 10
8.6843766682
 20
7.6384379423
 30
0.0
  0
VERTEX
  5
451
330
2CB
100
AcDbEntity
  8
0
  6
CONTINUOUS
 62
     7
100
AcDbVertex
100
AcDb2dVertex
 10
8.6514893429
 20
7.6375666264
 30
0.0
  0
VERTEX
  5
452
330
2CB
100
AcDbEntity
  8
0
  6
CONTINUOUS
 62
     7
100
AcDbVertex
100
AcDb2dVertex
 10
8.6178261233
 20
7.6342350052
 30
0.0
  0
VERTEX
  5
453
330
2CB
100
AcDbEntity
  8
0
  6
CONTINUOUS
 62
     7
100
AcDbVertex
100
AcDb2dVertex
 10
8.5834792777
 20
7.6284522104
 30
0.0
  0
VERTEX
  5
454
330
2CB
100
AcDbEntity
  8
0
  6
CONTINUOUS
 62
     7
100
AcDbVertex
100
AcDb2dVertex
 10
8.5485429487
 20
7.6202340923
 30
0.0
  0
VERTEX
  5
455
330
2CB
100
AcDbEntity
  8
0
  6
CONTINUOUS
 62
     7
100
AcDbVertex
100
AcDb2dVertex
 10
8.5131128941
 20
7.609603176
 30
0.0
  0
VERTEX
  5
456
330
2CB
100
AcDbEntity
  8
0
  6
CONTINUOUS
 62
     7
100
AcDbVertex
100
AcDb2dVertex
 10
8.4772862254
 20
7.5965886004
 30
0.0
  0
VERTEX
  5
457
330
2CB
100
AcDbEntity
  8
0
  6
CONTINUOUS
 62
     7
100
AcDbVertex
100
AcDb2dVertex
 10
8.4411611409
 20
7.5812260373
 30
0.0
  0
VERTEX
  5
458
330
2CB
100
AcDbEntity
  8
0
  6
CONTINUOUS
 62
     7
100
AcDbVertex
100
AcDb2dVertex
 10
8.404836657
 20
7.5635575945
 30
0.0
  0
VERTEX
  5
459
330
2CB
100
AcDbEntity
  8
0
  6
CONTINUOUS
 62
     7
100
AcDbVertex
100
AcDb2dVertex
 10
8.3684123366
 20
7.5436317
 30
0.0
  0
VERTEX
  5
45A
330
2CB
100
AcDbEntity
  8
0
  6
CONTINUOUS
 62
     7
100
AcDbVertex
100
AcDb2dVertex
 10
8.3319880161
 20
7.5215029693
 30
0.0
  0
VERTEX
  5
45B
330
2CB
100
AcDbEntity
  8
0
  6
CONTINUOUS
 62
     7
100
AcDbVertex
100
AcDb2dVertex
 10
8.2956635322
 20
7.4972320557
 30
0.0
  0
VERTEX
  5
45C
330
2CB
100
AcDbEntity
  8
0
  6
CONTINUOUS
 62
     7
100
AcDbVertex
100
AcDb2dVertex
 10
8.2595384478
 20
7.470885484
 30
0.0
  0
VERTEX
  5
45D
330
2CB
100
AcDbEntity
  8
0
  6
CONTINUOUS
 62
     7
100
AcDbVertex
100
AcDb2dVertex
 10
8.223711779
 20
7.4425354684
 30
0.0
  0
VERTEX
  5
45E
330
2CB
100
AcDbEntity
  8
0
  6
CONTINUOUS
 62
     7
100
AcDbVertex
100
AcDb2dVertex
 10
8.1882817245
 20
7.4122597144
 30
0.0
  0
VERTEX
  5
45F
330
2CB
100
AcDbEntity
  8
0
  6
CONTINUOUS
 62
     7
100
AcDbVertex
100
AcDb2dVertex
 10
8.1533453954
 20
7.3801412056
 30
0.0
  0
VERTEX
  5
460
330
2CB
100
AcDbEntity
  8
0
  6
CONTINUOUS
 62
     7
100
AcDbVertex
100
AcDb2dVertex
 10
8.1189985499
 20
7.3462679766
 30
0.0
  0
VERTEX
  5
461
330
2CB
100
AcDbEntity
  8
0
  6
CONTINUOUS
 62
     7
100
AcDbVertex
100
AcDb2dVertex
 10
8.0853353302
 20
7.3107328717
 30
0.0
  0
VERTEX
  5
462
330
2CB
100
AcDbEntity
  8
0
  6
CONTINUOUS
 62
     7
100
AcDbVertex
100
AcDb2dVertex
 10
8.0524480049
 20
7.27363329
 30
0.0
  0
VERTEX
  5
463
330
2CB
100
AcDbEntity
  8
0
  6
CONTINUOUS
 62
     7
100
AcDbVertex
100
AcDb2dVertex
 10
8.0204267159
 20
7.235070919
 30
0.0
  0
SEQEND
  5
464
330
2CB
100
AcDbEntity
  8
0
  6
CONTINUOUS
 62
     7
  0
LINE
  5
2CC
330
1F
100
AcDbEntity
  8
0
  6
CONTINUOUS
 62
     7
100
AcDbLine
 10
8.8277533558
 20
7.5725624613
 30
0.0
 11
8.7163979572
 21
7.6368465646
 31
0.0
  0
ARC
  5
2CD
330
1F
100
AcDbEntity
  8
0
  6
CONTINUOUS
 62
     7
100
AcDbCircle
 10
8.7999260607
 20
7.2267965398
 30
0.0
 40
0.346883886624439
100
AcDbArc
 50
60.2883930932
 51
85.3987438563
  0
LINE
  5
2CE
330
1F
100
AcDbEntity
  8
0
  6
CONTINUOUS
 62
     7
100
AcDbLine
 10
8.2710111622
 20
6.0007040061
 30
0.0
 11
7.8603881298
 21
6.237751637
 31
0.0
  0
POLYLINE
  5
2CF
330
1F
100
AcDbEntity
  8
0
  6
CONTINUOUS
 62
     7
100
AcDb2dPolyline
 66
     1
 10
0.0
 20
0.0
 30
0.0
  0
VERTEX
  5
465
330
2CF
100
AcDbEntity
  8
0
  6
CONTINUOUS
 62
     7
100
AcDbVertex
100
AcDb2dVertex
 10
8.7511965193
 20
7.5155021804
 30
0.0
  0
VERTEX
  5
466
330
2CF
100
AcDbEntity
  8
0
  6
CONTINUOUS
 62
     7
100
AcDbVertex
100
AcDb2dVertex
 10
8.7167215642
 20
7.5061128716
 30
0.0
  0
VERTEX
  5
467
330
2CF
100
AcDbEntity
  8
0
  6
CONTINUOUS
 62
     7
100
AcDbVertex
100
AcDb2dVertex
 10
8.6818255956
 20
7.4944277822
 30
0.0
  0
VERTEX
  5
468
330
2CF
100
AcDbEntity
  8
0
  6
CONTINUOUS
 62
     7
100
AcDbVertex
100
AcDb2dVertex
 10
8.6466002092
 20
7.4804775834
 30
0.0
  0
VERTEX
  5
469
330
2CF
100
AcDbEntity
  8
0
  6
CONTINUOUS
 62
     7
100
AcDbVertex
100
AcDb2dVertex
 10
8.6111378653
 20
7.4642988921
 30
0.0
  0
VERTEX
  5
46A
330
2CF
100
AcDbEntity
  8
0
  6
CONTINUOUS
 62
     7
100
AcDbVertex
100
AcDb2dVertex
 10
8.5755316463
 20
7.4459341744
 30
0.0
  0
VERTEX
  5
46B
330
2CF
100
AcDbEntity
  8
0
  6
CONTINUOUS
 62
     7
100
AcDbVertex
100
AcDb2dVertex
 10
8.5398750122
 20
7.4254316345
 30
0.0
  0
VERTEX
  5
46C
330
2CF
100
AcDbEntity
  8
0
  6
CONTINUOUS
 62
     7
100
AcDbVertex
100
AcDb2dVertex
 10
8.5042615552
 20
7.4028450878
 30
0.0
  0
VERTEX
  5
46D
330
2CF
100
AcDbEntity
  8
0
  6
CONTINUOUS
 62
     7
100
AcDbVertex
100
AcDb2dVertex
 10
8.4687847544
 20
7.3782338201
 30
0.0
  0
VERTEX
  5
46E
330
2CF
100
AcDbEntity
  8
0
  6
CONTINUOUS
 62
     7
100
AcDbVertex
100
AcDb2dVertex
 10
8.43353773
 20
7.3516624315
 30
0.0
  0
VERTEX
  5
46F
330
2CF
100
AcDbEntity
  8
0
  6
CONTINUOUS
 62
     7
100
AcDbVertex
100
AcDb2dVertex
 10
8.3986129991
 20
7.3232006671
 30
0.0
  0
VERTEX
  5
470
330
2CF
100
AcDbEntity
  8
0
  6
CONTINUOUS
 62
     7
100
AcDbVertex
100
AcDb2dVertex
 10
8.364102233
 20
7.2929232341
 30
0.0
  0
VERTEX
  5
471
330
2CF
100
AcDbEntity
  8
0
  6
CONTINUOUS
 62
     7
100
AcDbVertex
100
AcDb2dVertex
 10
8.3300960163
 20
7.2609096052
 30
0.0
  0
VERTEX
  5
472
330
2CF
100
AcDbEntity
  8
0
  6
CONTINUOUS
 62
     7
100
AcDbVertex
100
AcDb2dVertex
 10
8.2966836092
 20
7.2272438106
 30
0.0
  0
VERTEX
  5
473
330
2CF
100
AcDbEntity
  8
0
  6
CONTINUOUS
 62
     7
100
AcDbVertex
100
AcDb2dVertex
 10
8.2639527133
 20
7.1920142169
 30
0.0
  0
VERTEX
  5
474
330
2CF
100
AcDbEntity
  8
0
  6
CONTINUOUS
 62
     7
100
AcDbVertex
100
AcDb2dVertex
 10
8.2319892414
 20
7.1553132957
 30
0.0
  0
VERTEX
  5
475
330
2CF
100
AcDbEntity
  8
0
  6
CONTINUOUS
 62
     7
100
AcDbVertex
100
AcDb2dVertex
 10
8.2008770919
 20
7.1172373801
 30
0.0
  0
VERTEX
  5
476
330
2CF
100
AcDbEntity
  8
0
  6
CONTINUOUS
 62
     7
100
AcDbVertex
100
AcDb2dVertex
 10
8.1706979287
 20
7.0778864128
 30
0.0
  0
VERTEX
  5
477
330
2CF
100
AcDbEntity
  8
0
  6
CONTINUOUS
 62
     7
100
AcDbVertex
100
AcDb2dVertex
 10
8.1415309666
 20
7.0373636829
 30
0.0
  0
VERTEX
  5
478
330
2CF
100
AcDbEntity
  8
0
  6
CONTINUOUS
 62
     7
100
AcDbVertex
100
AcDb2dVertex
 10
8.1134527639
 20
6.9957755556
 30
0.0
  0
VERTEX
  5
479
330
2CF
100
AcDbEntity
  8
0
  6
CONTINUOUS
 62
     7
100
AcDbVertex
100
AcDb2dVertex
 10
8.0865370206
 20
6.953231192
 30
0.0
  0
VERTEX
  5
47A
330
2CF
100
AcDbEntity
  8
0
  6
CONTINUOUS
 62
     7
100
AcDbVertex
100
AcDb2dVertex
 10
8.0608543859
 20
6.9098422637
 30
0.0
  0
VERTEX
  5
47B
330
2CF
100
AcDbEntity
  8
0
  6
CONTINUOUS
 62
     7
100
AcDbVertex
100
AcDb2dVertex
 10
8.0364722721
 20
6.8657226588
 30
0.0
  0
VERTEX
  5
47C
330
2CF
100
AcDbEntity
  8
0
  6
CONTINUOUS
 62
     7
100
AcDbVertex
100
AcDb2dVertex
 10
8.0134546779
 20
6.8209881835
 30
0.0
  0
VERTEX
  5
47D
330
2CF
100
AcDbEntity
  8
0
  6
CONTINUOUS
 62
     7
100
AcDbVertex
100
AcDb2dVertex
 10
7.9918620203
 20
6.7757562577
 30
0.0
  0
VERTEX
  5
47E
330
2CF
100
AcDbEntity
  8
0
  6
CONTINUOUS
 62
     7
100
AcDbVertex
100
AcDb2dVertex
 10
7.9717509763
 20
6.7301456071
 30
0.0
  0
VERTEX
  5
47F
330
2CF
100
AcDbEntity
  8
0
  6
CONTINUOUS
 62
     7
100
AcDbVertex
100
AcDb2dVertex
 10
7.9531743338
 20
6.6842759517
 30
0.0
  0
VERTEX
  5
480
330
2CF
100
AcDbEntity
  8
0
  6
CONTINUOUS
 62
     7
100
AcDbVertex
100
AcDb2dVertex
 10
7.9361808531
 20
6.638267691
 30
0.0
  0
VERTEX
  5
481
330
2CF
100
AcDbEntity
  8
0
  6
CONTINUOUS
 62
     7
100
AcDbVertex
100
AcDb2dVertex
 10
7.920815139
 20
6.5922415886
 30
0.0
  0
VERTEX
  5
482
330
2CF
100
AcDbEntity
  8
0
  6
CONTINUOUS
 62
     7
100
AcDbVertex
100
AcDb2dVertex
 10
7.9071175239
 20
6.5463184548
 30
0.0
  0
VERTEX
  5
483
330
2CF
100
AcDbEntity
  8
0
  6
CONTINUOUS
 62
     7
100
AcDbVertex
100
AcDb2dVertex
 10
7.8951239616
 20
6.5006188296
 30
0.0
  0
VERTEX
  5
484
330
2CF
100
AcDbEntity
  8
0
  6
CONTINUOUS
 62
     7
100
AcDbVertex
100
AcDb2dVertex
 10
7.884865933
 20
6.4552626663
 30
0.0
  0
VERTEX
  5
485
330
2CF
100
AcDbEntity
  8
0
  6
CONTINUOUS
 62
     7
100
AcDbVertex
100
AcDb2dVertex
 10
7.8763703635
 20
6.4103690169
 30
0.0
  0
VERTEX
  5
486
330
2CF
100
AcDbEntity
  8
0
  6
CONTINUOUS
 62
     7
100
AcDbVertex
100
AcDb2dVertex
 10
7.8696595527
 20
6.3660557191
 30
0.0
  0
VERTEX
  5
487
330
2CF
100
AcDbEntity
  8
0
  6
CONTINUOUS
 62
     7
100
AcDbVertex
100
AcDb2dVertex
 10
7.864751115
 20
6.3224390875
 30
0.0
  0
VERTEX
  5
488
330
2CF
100
AcDbEntity
  8
0
  6
CONTINUOUS
 62
     7
100
AcDbVertex
100
AcDb2dVertex
 10
7.8616579344
 20
6.2796336078
 30
0.0
  0
VERTEX
  5
489
330
2CF
100
AcDbEntity
  8
0
  6
CONTINUOUS
 62
     7
100
AcDbVertex
100
AcDb2dVertex
 10
7.8603881298
 20
6.237751637
 30
0.0
  0
SEQEND
  5
48A
330
2CF
100
AcDbEntity
  8
0
  6
CONTINUOUS
 62
     7
  0
LINE
  5
2D0
330
1F
100
AcDbEntity
  8
0
  6
CONTINUOUS
 62
     7
100
AcDbLine
 10
8.7372770945
 20
7.5235376933
 30
0.0
 11
8.7511965193
 21
7.5155021804
 31
0.0
  0
POLYLINE
  5
2D1
330
1F
100
AcDbEntity
  8
0
  6
CONTINUOUS
 62
     7
100
AcDb2dPolyline
 66
     1
 10
0.0
 20
0.0
 30
0.0
  0
VERTEX
  5
48B
330
2D1
100
AcDbEntity
  8
0
  6
CONTINUOUS
 62
     7
100
AcDbVertex
100
AcDb2dVertex
 10
8.7372770945
 20
7.5235376933
 30
0.0
  0
VERTEX
  5
48C
330
2D1
100
AcDbEntity
  8
0
  6
CONTINUOUS
 62
     7
100
AcDbVertex
100
AcDb2dVertex
 10
8.703556855
 20
7.5143771488
 30
0.0
  0
VERTEX
  5
48D
330
2D1
100
AcDbEntity
  8
0
  6
CONTINUOUS
 62
     7
100
AcDbVertex
100
AcDb2dVertex
 10
8.6694318192
 20
7.5030190187
 30
0.0
  0
VERTEX
  5
48E
330
2D1
100
AcDbEntity
  8
0
  6
CONTINUOUS
 62
     7
100
AcDbVertex
100
AcDb2dVertex
 10
8.6349877056
 20
7.4894918333
 30
0.0
  0
VERTEX
  5
48F
330
2D1
100
AcDbEntity
  8
0
  6
CONTINUOUS
 62
     7
100
AcDbVertex
100
AcDb2dVertex
 10
8.6003110342
 20
7.4738295717
 30
0.0
  0
VERTEX
  5
490
330
2D1
100
AcDbEntity
  8
0
  6
CONTINUOUS
 62
     7
100
AcDbVertex
100
AcDb2dVertex
 10
8.5654889093
 20
7.4560715757
 30
0.0
  0
VERTEX
  5
491
330
2D1
100
AcDbEntity
  8
0
  6
CONTINUOUS
 62
     7
100
AcDbVertex
100
AcDb2dVertex
 10
8.5306088003
 20
7.4362624517
 30
0.0
  0
VERTEX
  5
492
330
2D1
100
AcDbEntity
  8
0
  6
CONTINUOUS
 62
     7
100
AcDbVertex
100
AcDb2dVertex
 10
8.4957583226
 20
7.414451958
 30
0.0
  0
VERTEX
  5
493
330
2D1
100
AcDbEntity
  8
0
  6
CONTINUOUS
 62
     7
100
AcDbVertex
100
AcDb2dVertex
 10
8.4610250168
 20
7.3906948804
 30
0.0
  0
VERTEX
  5
494
330
2D1
100
AcDbEntity
  8
0
  6
CONTINUOUS
 62
     7
100
AcDbVertex
100
AcDb2dVertex
 10
8.4264961295
 20
7.3650508942
 30
0.0
  0
VERTEX
  5
495
330
2D1
100
AcDbEntity
  8
0
  6
CONTINUOUS
 62
     7
100
AcDbVertex
100
AcDb2dVertex
 10
8.3922583935
 20
7.3375844143
 30
0.0
  0
VERTEX
  5
496
330
2D1
100
AcDbEntity
  8
0
  6
CONTINUOUS
 62
     7
100
AcDbVertex
100
AcDb2dVertex
 10
8.3583978106
 20
7.3083644339
 30
0.0
  0
VERTEX
  5
497
330
2D1
100
AcDbEntity
  8
0
  6
CONTINUOUS
 62
     7
100
AcDbVertex
100
AcDb2dVertex
 10
8.3249994349
 20
7.2774643503
 30
0.0
  0
VERTEX
  5
498
330
2D1
100
AcDbEntity
  8
0
  6
CONTINUOUS
 62
     7
100
AcDbVertex
100
AcDb2dVertex
 10
8.2921471599
 20
7.2449617814
 30
0.0
  0
VERTEX
  5
499
330
2D1
100
AcDbEntity
  8
0
  6
CONTINUOUS
 62
     7
100
AcDbVertex
100
AcDb2dVertex
 10
8.2599235068
 20
7.2109383702
 30
0.0
  0
VERTEX
  5
49A
330
2D1
100
AcDbEntity
  8
0
  6
CONTINUOUS
 62
     7
100
AcDbVertex
100
AcDb2dVertex
 10
8.2284094182
 20
7.1754795801
 30
0.0
  0
VERTEX
  5
49B
330
2D1
100
AcDbEntity
  8
0
  6
CONTINUOUS
 62
     7
100
AcDbVertex
100
AcDb2dVertex
 10
8.1976840543
 20
7.1386744798
 30
0.0
  0
VERTEX
  5
49C
330
2D1
100
AcDbEntity
  8
0
  6
CONTINUOUS
 62
     7
100
AcDbVertex
100
AcDb2dVertex
 10
8.1678245939
 20
7.10061552
 30
0.0
  0
VERTEX
  5
49D
330
2D1
100
AcDbEntity
  8
0
  6
CONTINUOUS
 62
     7
100
AcDbVertex
100
AcDb2dVertex
 10
8.1389060409
 20
7.0613983006
 30
0.0
  0
VERTEX
  5
49E
330
2D1
100
AcDbEntity
  8
0
  6
CONTINUOUS
 62
     7
100
AcDbVertex
100
AcDb2dVertex
 10
8.1110010356
 20
7.0211213315
 30
0.0
  0
VERTEX
  5
49F
330
2D1
100
AcDbEntity
  8
0
  6
CONTINUOUS
 62
     7
100
AcDbVertex
100
AcDb2dVertex
 10
8.0841796727
 20
6.979885784
 30
0.0
  0
VERTEX
  5
4A0
330
2D1
100
AcDbEntity
  8
0
  6
CONTINUOUS
 62
     7
100
AcDbVertex
100
AcDb2dVertex
 10
8.0585093244
 20
6.9377952376
 30
0.0
  0
VERTEX
  5
4A1
330
2D1
100
AcDbEntity
  8
0
  6
CONTINUOUS
 62
     7
100
AcDbVertex
100
AcDb2dVertex
 10
8.0340544722
 20
6.8949554194
 30
0.0
  0
VERTEX
  5
4A2
330
2D1
100
AcDbEntity
  8
0
  6
CONTINUOUS
 62
     7
100
AcDbVertex
100
AcDb2dVertex
 10
8.010876544
 20
6.8514739385
 30
0.0
  0
VERTEX
  5
4A3
330
2D1
100
AcDbEntity
  8
0
  6
CONTINUOUS
 62
     7
100
AcDbVertex
100
AcDb2dVertex
 10
7.9890337603
 20
6.8074600159
 30
0.0
  0
VERTEX
  5
4A4
330
2D1
100
AcDbEntity
  8
0
  6
CONTINUOUS
 62
     7
100
AcDbVertex
100
AcDb2dVertex
 10
7.968580988
 20
6.76302421
 30
0.0
  0
VERTEX
  5
4A5
330
2D1
100
AcDbEntity
  8
0
  6
CONTINUOUS
 62
     7
100
AcDbVertex
100
AcDb2dVertex
 10
7.9495696023
 20
6.718278139
 30
0.0
  0
VERTEX
  5
4A6
330
2D1
100
AcDbEntity
  8
0
  6
CONTINUOUS
 62
     7
100
AcDbVertex
100
AcDb2dVertex
 10
7.9320473579
 20
6.6733342002
 30
0.0
  0
VERTEX
  5
4A7
330
2D1
100
AcDbEntity
  8
0
  6
CONTINUOUS
 62
     7
100
AcDbVertex
100
AcDb2dVertex
 10
7.9160582687
 20
6.6283052883
 30
0.0
  0
VERTEX
  5
4A8
330
2D1
100
AcDbEntity
  8
0
  6
CONTINUOUS
 62
     7
100
AcDbVertex
100
AcDb2dVertex
 10
7.9016424978
 20
6.583304511
 30
0.0
  0
VERTEX
  5
4A9
330
2D1
100
AcDbEntity
  8
0
  6
CONTINUOUS
 62
     7
100
AcDbVertex
100
AcDb2dVertex
 10
7.888836256
 20
6.5384449058
 30
0.0
  0
VERTEX
  5
4AA
330
2D1
100
AcDbEntity
  8
0
  6
CONTINUOUS
 62
     7
100
AcDbVertex
100
AcDb2dVertex
 10
7.8776717113
 20
6.4938391553
 30
0.0
  0
VERTEX
  5
4AB
330
2D1
100
AcDbEntity
  8
0
  6
CONTINUOUS
 62
     7
100
AcDbVertex
100
AcDb2dVertex
 10
7.8681769078
 20
6.4495993044
 30
0.0
  0
VERTEX
  5
4AC
330
2D1
100
AcDbEntity
  8
0
  6
CONTINUOUS
 62
     7
100
AcDbVertex
100
AcDb2dVertex
 10
7.8603756955
 20
6.4058364792
 30
0.0
  0
VERTEX
  5
4AD
330
2D1
100
AcDbEntity
  8
0
  6
CONTINUOUS
 62
     7
100
AcDbVertex
100
AcDb2dVertex
 10
7.8542876703
 20
6.3626606071
 30
0.0
  0
VERTEX
  5
4AE
330
2D1
100
AcDbEntity
  8
0
  6
CONTINUOUS
 62
     7
100
AcDbVertex
100
AcDb2dVertex
 10
7.8499281247
 20
6.3201801417
 30
0.0
  0
VERTEX
  5
4AF
330
2D1
100
AcDbEntity
  8
0
  6
CONTINUOUS
 62
     7
100
AcDbVertex
100
AcDb2dVertex
 10
7.8473080093
 20
6.2785017893
 30
0.0
  0
VERTEX
  5
4B0
330
2D1
100
AcDbEntity
  8
0
  6
CONTINUOUS
 62
     7
100
AcDbVertex
100
AcDb2dVertex
 10
7.8464339056
 20
6.2377302416
 30
0.0
  0
VERTEX
  5
4B1
330
2D1
100
AcDbEntity
  8
0
  6
CONTINUOUS
 62
     7
100
AcDbVertex
100
AcDb2dVertex
 10
7.8473080093
 20
6.1979679126
 30
0.0
  0
VERTEX
  5
4B2
330
2D1
100
AcDbEntity
  8
0
  6
CONTINUOUS
 62
     7
100
AcDbVertex
100
AcDb2dVertex
 10
7.8499281247
 20
6.159314681
 30
0.0
  0
VERTEX
  5
4B3
330
2D1
100
AcDbEntity
  8
0
  6
CONTINUOUS
 62
     7
100
AcDbVertex
100
AcDb2dVertex
 10
7.8542876703
 20
6.1218676398
 30
0.0
  0
VERTEX
  5
4B4
330
2D1
100
AcDbEntity
  8
0
  6
CONTINUOUS
 62
     7
100
AcDbVertex
100
AcDb2dVertex
 10
7.8603756955
 20
6.0857208521
 30
0.0
  0
VERTEX
  5
4B5
330
2D1
100
AcDbEntity
  8
0
  6
CONTINUOUS
 62
     7
100
AcDbVertex
100
AcDb2dVertex
 10
7.8681769078
 20
6.0509651148
 30
0.0
  0
VERTEX
  5
4B6
330
2D1
100
AcDbEntity
  8
0
  6
CONTINUOUS
 62
     7
100
AcDbVertex
100
AcDb2dVertex
 10
7.8776717113
 20
6.0176877307
 30
0.0
  0
VERTEX
  5
4B7
330
2D1
100
AcDbEntity
  8
0
  6
CONTINUOUS
 62
     7
100
AcDbVertex
100
AcDb2dVertex
 10
7.888836256
 20
5.9859722891
 30
0.0
  0
VERTEX
  5
4B8
330
2D1
100
AcDbEntity
  8
0
  6
CONTINUOUS
 62
     7
100
AcDbVertex
100
AcDb2dVertex
 10
7.9016424978
 20
5.9558984559
 30
0.0
  0
VERTEX
  5
4B9
330
2D1
100
AcDbEntity
  8
0
  6
CONTINUOUS
 62
     7
100
AcDbVertex
100
AcDb2dVertex
 10
7.9160582687
 20
5.9275417736
 30
0.0
  0
VERTEX
  5
4BA
330
2D1
100
AcDbEntity
  8
0
  6
CONTINUOUS
 62
     7
100
AcDbVertex
100
AcDb2dVertex
 10
7.9320473579
 20
5.900973471
 30
0.0
  0
VERTEX
  5
4BB
330
2D1
100
AcDbEntity
  8
0
  6
CONTINUOUS
 62
     7
100
AcDbVertex
100
AcDb2dVertex
 10
7.9495696023
 20
5.876260285
 30
0.0
  0
VERTEX
  5
4BC
330
2D1
100
AcDbEntity
  8
0
  6
CONTINUOUS
 62
     7
100
AcDbVertex
100
AcDb2dVertex
 10
7.968580988
 20
5.8534642927
 30
0.0
  0
VERTEX
  5
4BD
330
2D1
100
AcDbEntity
  8
0
  6
CONTINUOUS
 62
     7
100
AcDbVertex
100
AcDb2dVertex
 10
7.9890337603
 20
5.832642755
 30
0.0
  0
VERTEX
  5
4BE
330
2D1
100
AcDbEntity
  8
0
  6
CONTINUOUS
 62
     7
100
AcDbVertex
100
AcDb2dVertex
 10
8.010876544
 20
5.8138479737
 30
0.0
  0
VERTEX
  5
4BF
330
2D1
100
AcDbEntity
  8
0
  6
CONTINUOUS
 62
     7
100
AcDbVertex
100
AcDb2dVertex
 10
8.0340544722
 20
5.7971271591
 30
0.0
  0
VERTEX
  5
4C0
330
2D1
100
AcDbEntity
  8
0
  6
CONTINUOUS
 62
     7
100
AcDbVertex
100
AcDb2dVertex
 10
8.0573280719
 20
5.7831630645
 30
0.0
  0
SEQEND
  5
4C1
330
2D1
100
AcDbEntity
  8
0
  6
CONTINUOUS
 62
     7
  0
POLYLINE
  5
2D2
330
1F
100
AcDbEntity
  8
0
  6
CONTINUOUS
 62
     7
100
AcDb2dPolyline
 66
     1
 10
0.0
 20
0.0
 30
0.0
  0
VERTEX
  5
4C2
330
2D2
100
AcDbEntity
  8
0
  6
CONTINUOUS
 62
     7
100
AcDbVertex
100
AcDb2dVertex
 10
7.8603881298
 20
6.221677999
 30
0.0
  0
VERTEX
  5
4C3
330
2D2
100
AcDbEntity
  8
0
  6
CONTINUOUS
 62
     7
100
AcDbVertex
100
AcDb2dVertex
 10
7.8616579344
 20
6.1812621133
 30
0.0
  0
VERTEX
  5
4C4
330
2D2
100
AcDbEntity
  8
0
  6
CONTINUOUS
 62
     7
100
AcDbVertex
100
AcDb2dVertex
 10
7.864751115
 20
6.142027944
 30
0.0
  0
VERTEX
  5
4C5
330
2D2
100
AcDbEntity
  8
0
  6
CONTINUOUS
 62
     7
100
AcDbVertex
100
AcDb2dVertex
 10
7.8696595527
 20
6.1040784738
 30
0.0
  0
VERTEX
  5
4C6
330
2D2
100
AcDbEntity
  8
0
  6
CONTINUOUS
 62
     7
100
AcDbVertex
100
AcDb2dVertex
 10
7.8763703635
 20
6.0675133133
 30
0.0
  0
VERTEX
  5
4C7
330
2D2
100
AcDbEntity
  8
0
  6
CONTINUOUS
 62
     7
100
AcDbVertex
100
AcDb2dVertex
 10
7.884865933
 20
6.0324284395
 30
0.0
  0
VERTEX
  5
4C8
330
2D2
100
AcDbEntity
  8
0
  6
CONTINUOUS
 62
     7
100
AcDbVertex
100
AcDb2dVertex
 10
7.8951239616
 20
5.9989159441
 30
0.0
  0
VERTEX
  5
4C9
330
2D2
100
AcDbEntity
  8
0
  6
CONTINUOUS
 62
     7
100
AcDbVertex
100
AcDb2dVertex
 10
7.9071175239
 20
5.9670637912
 30
0.0
  0
VERTEX
  5
4CA
330
2D2
100
AcDbEntity
  8
0
  6
CONTINUOUS
 62
     7
100
AcDbVertex
100
AcDb2dVertex
 10
7.920815139
 20
5.9369555871
 30
0.0
  0
VERTEX
  5
4CB
330
2D2
100
AcDbEntity
  8
0
  6
CONTINUOUS
 62
     7
100
AcDbVertex
100
AcDb2dVertex
 10
7.9361808531
 20
5.9086703605
 30
0.0
  0
VERTEX
  5
4CC
330
2D2
100
AcDbEntity
  8
0
  6
CONTINUOUS
 62
     7
100
AcDbVertex
100
AcDb2dVertex
 10
7.9531743338
 20
5.882282355
 30
0.0
  0
VERTEX
  5
4CD
330
2D2
100
AcDbEntity
  8
0
  6
CONTINUOUS
 62
     7
100
AcDbVertex
100
AcDb2dVertex
 10
7.9717509763
 20
5.8578608345
 30
0.0
  0
VERTEX
  5
4CE
330
2D2
100
AcDbEntity
  8
0
  6
CONTINUOUS
 62
     7
100
AcDbVertex
100
AcDb2dVertex
 10
7.9918620203
 20
5.8354699011
 30
0.0
  0
VERTEX
  5
4CF
330
2D2
100
AcDbEntity
  8
0
  6
CONTINUOUS
 62
     7
100
AcDbVertex
100
AcDb2dVertex
 10
8.0134546779
 20
5.8151683271
 30
0.0
  0
VERTEX
  5
4D0
330
2D2
100
AcDbEntity
  8
0
  6
CONTINUOUS
 62
     7
100
AcDbVertex
100
AcDb2dVertex
 10
8.0364722721
 20
5.7970094003
 30
0.0
  0
VERTEX
  5
4D1
330
2D2
100
AcDbEntity
  8
0
  6
CONTINUOUS
 62
     7
100
AcDbVertex
100
AcDb2dVertex
 10
8.0608543859
 20
5.7810407848
 30
0.0
  0
VERTEX
  5
4D2
330
2D2
100
AcDbEntity
  8
0
  6
CONTINUOUS
 62
     7
100
AcDbVertex
100
AcDb2dVertex
 10
8.0642385813
 20
5.7790600766
 30
0.0
  0
SEQEND
  5
4D3
330
2D2
100
AcDbEntity
  8
0
  6
CONTINUOUS
 62
     7
  0
LINE
  5
2D3
330
1F
100
AcDbEntity
  8
0
  6
CONTINUOUS
 62
     7
100
AcDbLine
 10
8.2710111622
 20
5.9846303681
 30
0.0
 11
7.8603881298
 21
6.221677999
 31
0.0
  0
SPLINE
  5
2D4
330
1F
100
AcDbEntity
  8
0
  6
CONTINUOUS
 62
     7
100
AcDbSpline
210
0.0
220
0.0
230
1.0
 70
     8
 71
     3
 72
    14
 73
    10
 74
     0
 42
0.00000001
 43
0.00000001
 40
0.0
 40
0.0
 40
0.0
 40
0.0
 40
0.1148907173709452
 40
0.2341698570289912
 40
0.3488934914956265
 40
0.4663406014441758
 40
0.6417819686475583
 40
0.8221130505873265
 40
1.0
 40
1.0
 40
1.0
 40
1.0
 10
8.229218088306359
 20
5.687274535799741
 30
0.0
 10
8.232895548209695
 20
5.685125512870384
 30
0.0
 10
8.240390934081594
 20
5.680745381876034
 30
0.0
 10
8.252857950246483
 20
5.673147808337048
 30
0.0
 10
8.265756497384695
 20
5.665151581753517
 30
0.0
 10
8.280873284791303
 20
5.655690340362499
 30
0.0
 10
8.298204073747874
 20
5.644870220699992
 30
0.0
 10
8.317219861018414
 20
5.633149105210498
 30
0.0
 10
8.329076119285483
 20
5.626277786702823
 30
0.0
 10
8.334963800613568
 20
5.622865569056607
 30
0.0
  0
SPLINE
  5
2D5
330
1F
100
AcDbEntity
  8
0
  6
CONTINUOUS
 62
     7
100
AcDbSpline
210
0.0
220
0.0
230
1.0
 70
     8
 71
     3
 72
    17
 73
    13
 74
     0
 42
0.00000001
 43
0.00000001
 40
0.0
 40
0.0
 40
0.0
 40
0.0
 40
0.0946224046324702
 40
0.2516549096898018
 40
0.4128874134946427
 40
0.530101070162199
 40
0.6499705204011387
 40
0.7325426845165094
 40
0.8170304444510157
 40
0.8827965503591856
 40
0.9503146391719081
 40
1.0
 40
1.0
 40
1.0
 40
1.0
 10
8.222090421695418
 20
5.691322371882235
 30
0.0
 10
8.218912353626237
 20
5.692585302832994
 30
0.0
 10
8.210460059097853
 20
5.695944156115072
 30
0.0
 10
8.20121107075885
 20
5.700125582311509
 30
0.0
 10
8.19536473997891
 20
5.703242741777199
 30
0.0
 10
8.194108587567264
 20
5.704497428222585
 30
0.0
 10
8.196137588170407
 20
5.704109105593047
 30
0.0
 10
8.200709050870016
 20
5.702295111533388
 30
0.0
 10
8.206474911368845
 20
5.699616865626397
 30
0.0
 10
8.213757989690471
 20
5.695893705705052
 30
0.0
 10
8.221214850668895
 20
5.691852714850909
 30
0.0
 10
8.226835401602
 20
5.688637529984035
 30
0.0
 10
8.229218088306359
 20
5.687274535799741
 30
0.0
  0
SPLINE
  5
2D6
330
1F
100
AcDbEntity
  8
0
  6
CONTINUOUS
 62
     7
100
AcDbSpline
210
0.0
220
0.0
230
1.0
 70
     8
 71
     3
 72
    19
 73
    15
 74
     0
 42
0.00000001
 43
0.00000001
 40
0.0
 40
0.0
 40
0.0
 40
0.0
 40
0.0772784144544837
 40
0.1545639473208013
 40
0.2317380479863185
 40
0.3089331987704982
 40
0.3881230930277186
 40
0.4673476202488769
 40
0.5535124806466089
 40
0.6397270013467192
 40
0.7384665669608454
 40
0.8372691391970029
 40
0.9557339141083561
 40
0.9999999999999999
 40
0.9999999999999999
 40
0.9999999999999999
 40
0.9999999999999999
 10
8.451928885530469
 20
7.059878710566827
 30
0.0
 10
8.444440379110242
 20
7.063638906273608
 30
0.0
 10
8.429462676474678
 20
7.071159644053251
 30
0.0
 10
8.403540377693197
 20
7.077371929660936
 30
0.0
 10
8.376024093021508
 20
7.079474027382589
 30
0.0
 10
8.347291657398495
 20
7.077241807136761
 30
0.0
 10
8.318208265514116
 20
7.07056644723824
 30
0.0
 10
8.28872487922689
 20
7.059423210565843
 30
0.0
 10
8.259922687290493
 20
7.043697911210322
 30
0.0
 10
8.23122546190666
 20
7.022753654148666
 30
0.0
 10
8.204277649287205
 20
6.996955559901981
 30
0.0
 10
8.178564487450181
 20
6.964547619131657
 30
0.0
 10
8.160099176909688
 20
6.935548043231098
 30
0.0
 10
8.151944144463558
 20
6.916029879639725
 30
0.0
 10
8.149725810676541
 20
6.910720544325454
 30
0.0
  0
SPLINE
  5
2D7
330
1F
100
AcDbEntity
  8
0
  6
CONTINUOUS
 62
     7
100
AcDbSpline
210
0.0
220
0.0
230
1.0
 70
     8
 71
     3
 72
    34
 73
    30
 74
     0
 42
0.00000001
 43
0.00000001
 40
0.0
 40
0.0
 40
0.0
 40
0.0
 40
0.028245340641865
 40
0.0741548364189863
 40
0.103314172158301
 40
0.1324272330922171
 40
0.1547379983158367
 40
0.1770215708605965
 40
0.1994714642982847
 40
0.2219247525330244
 40
0.2419949845564839
 40
0.2620833807602902
 40
0.2950096681273559
 40
0.3280042395338306
 40
0.3819947550564848
 40
0.4360756351590541
 40
0.493344664285243
 40
0.5506093058105077
 40
0.5967940997228677
 40
0.643143652413216
 40
0.6892414822278653
 40
0.7333992359810111
 40
0.7775179276367379
 40
0.8220104626878426
 40
0.8664598770834955
 40
0.904805150914093
 40
0.9431354237086671
 40
0.9715683942811115
 40
1.0
 40
1.0
 40
1.0
 40
1.0
 10
8.116472602053914
 20
6.759560393952259
 30
0.0
 10
8.116410111999961
 20
6.751232327875431
 30
0.0
 10
8.116246051676264
 20
6.729367964990093
 30
0.0
 10
8.121120380194483
 20
6.699617118157065
 30
0.0
 10
8.129366712311338
 20
6.671111172157616
 30
0.0
 10
8.138593999567734
 20
6.650636940471278
 30
0.0
 10
8.149537789272662
 20
6.634092927856434
 30
0.0
 10
8.161489356978933
 20
6.62135698962943
 30
0.0
 10
8.175399299736327
 20
6.611826758813376
 30
0.0
 10
8.190179795503838
 20
6.605959189674532
 30
0.0
 10
8.205176326357948
 20
6.603576031757669
 30
0.0
 10
8.223028138551735
 20
6.603875486909029
 30
0.0
 10
8.244157599480454
 20
6.608426339099582
 30
0.0
 10
8.273038263845434
 20
6.620071844476053
 30
0.0
 10
8.306038908994939
 20
6.639736462973536
 30
0.0
 10
8.342931561639734
 20
6.668707927051679
 30
0.0
 10
8.37886849551793
 20
6.702685295877464
 30
0.0
 10
8.410993734285217
 20
6.738666645447272
 30
0.0
 10
8.438660143130862
 20
6.774622960505324
 30
0.0
 10
8.461774406027697
 20
6.809625937926566
 30
0.0
 10
8.48135798918626
 20
6.845453894821301
 30
0.0
 10
8.496540236710745
 20
6.881456727938637
 30
0.0
 10
8.506698284804873
 20
6.917170262255393
 30
0.0
 10
8.510674965081959
 20
6.952172031577119
 30
0.0
 10
8.507904640906261
 20
6.983931489839113
 30
0.0
 10
8.498597951287744
 20
7.011402062375881
 30
0.0
 10
8.485321790691309
 20
7.032327164022422
 30
0.0
 10
8.469472309244443
 20
7.048536998733533
 30
0.0
 10
8.45777659986234
 20
7.056098200449941
 30
0.0
 10
8.451928885530469
 20
7.059878710566827
 30
0.0
  0
POLYLINE
  5
2D8
330
1F
100
AcDbEntity
  8
0
  6
CONTINUOUS
 62
     7
100
AcDb2dPolyline
 66
     1
 10
0.0
 20
0.0
 30
0.0
  0
VERTEX
  5
4D4
330
2D8
100
AcDbEntity
  8
0
  6
CONTINUOUS
 62
     7
100
AcDbVertex
100
AcDb2dVertex
 10
9.1895423739
 20
6.4988161239
 30
0.0
  0
VERTEX
  5
4D5
330
2D8
100
AcDbEntity
  8
0
  6
CONTINUOUS
 62
     7
100
AcDbVertex
100
AcDb2dVertex
 10
9.1879895691
 20
6.4755336035
 30
0.0
  0
VERTEX
  5
4D6
330
2D8
100
AcDbEntity
  8
0
  6
CONTINUOUS
 62
     7
100
AcDbVertex
100
AcDb2dVertex
 10
9.1846397519
 20
6.4514776418
 30
0.0
  0
VERTEX
  5
4D7
330
2D8
100
AcDbEntity
  8
0
  6
CONTINUOUS
 62
     7
100
AcDbVertex
100
AcDb2dVertex
 10
9.1795219856
 20
6.4268569502
 30
0.0
  0
VERTEX
  5
4D8
330
2D8
100
AcDbEntity
  8
0
  6
CONTINUOUS
 62
     7
100
AcDbVertex
100
AcDb2dVertex
 10
9.1726806723
 20
6.40188514
 30
0.0
  0
VERTEX
  5
4D9
330
2D8
100
AcDbEntity
  8
0
  6
CONTINUOUS
 62
     7
100
AcDbVertex
100
AcDb2dVertex
 10
9.1641751678
 20
6.3767788686
 30
0.0
  0
VERTEX
  5
4DA
330
2D8
100
AcDbEntity
  8
0
  6
CONTINUOUS
 62
     7
100
AcDbVertex
100
AcDb2dVertex
 10
9.1540792666
 20
6.3517559602
 30
0.0
  0
VERTEX
  5
4DB
330
2D8
100
AcDbEntity
  8
0
  6
CONTINUOUS
 62
     7
100
AcDbVertex
100
AcDb2dVertex
 10
9.1424805617
 20
6.3270335155
 30
0.0
  0
VERTEX
  5
4DC
330
2D8
100
AcDbEntity
  8
0
  6
CONTINUOUS
 62
     7
100
AcDbVertex
100
AcDb2dVertex
 10
9.1294796842
 20
6.3028260286
 30
0.0
  0
VERTEX
  5
4DD
330
2D8
100
AcDbEntity
  8
0
  6
CONTINUOUS
 62
     7
100
AcDbVertex
100
AcDb2dVertex
 10
9.1151894309
 20
6.2793435257
 30
0.0
  0
VERTEX
  5
4DE
330
2D8
100
AcDbEntity
  8
0
  6
CONTINUOUS
 62
     7
100
AcDbVertex
100
AcDb2dVertex
 10
9.0997337853
 20
6.2567897429
 30
0.0
  0
VERTEX
  5
4DF
330
2D8
100
AcDbEntity
  8
0
  6
CONTINUOUS
 62
     7
100
AcDbVertex
100
AcDb2dVertex
 10
9.0832468418
 20
6.2353603587
 30
0.0
  0
VERTEX
  5
4E0
330
2D8
100
AcDbEntity
  8
0
  6
CONTINUOUS
 62
     7
100
AcDbVertex
100
AcDb2dVertex
 10
9.0658716425
 20
6.2152412962
 30
0.0
  0
VERTEX
  5
4E1
330
2D8
100
AcDbEntity
  8
0
  6
CONTINUOUS
 62
     7
100
AcDbVertex
100
AcDb2dVertex
 10
9.0477589361
 20
6.1966071102
 30
0.0
  0
VERTEX
  5
4E2
330
2D8
100
AcDbEntity
  8
0
  6
CONTINUOUS
 62
     7
100
AcDbVertex
100
AcDb2dVertex
 10
9.02906587
 20
6.1796194722
 30
0.0
  0
VERTEX
  5
4E3
330
2D8
100
AcDbEntity
  8
0
  6
CONTINUOUS
 62
     7
100
AcDbVertex
100
AcDb2dVertex
 10
9.0099546266
 20
6.1644257686
 30
0.0
  0
VERTEX
  5
4E4
330
2D8
100
AcDbEntity
  8
0
  6
CONTINUOUS
 62
     7
100
AcDbVertex
100
AcDb2dVertex
 10
8.9905910169
 20
6.1511578211
 30
0.0
  0
VERTEX
  5
4E5
330
2D8
100
AcDbEntity
  8
0
  6
CONTINUOUS
 62
     7
100
AcDbVertex
100
AcDb2dVertex
 10
8.971143041
 20
6.1399307436
 30
0.0
  0
VERTEX
  5
4E6
330
2D8
100
AcDbEntity
  8
0
  6
CONTINUOUS
 62
     7
100
AcDbVertex
100
AcDb2dVertex
 10
8.9517794312
 20
6.1308419432
 30
0.0
  0
VERTEX
  5
4E7
330
2D8
100
AcDbEntity
  8
0
  6
CONTINUOUS
 62
     7
100
AcDbVertex
100
AcDb2dVertex
 10
8.9326681879
 20
6.1239702749
 30
0.0
  0
VERTEX
  5
4E8
330
2D8
100
AcDbEntity
  8
0
  6
CONTINUOUS
 62
     7
100
AcDbVertex
100
AcDb2dVertex
 10
8.9139751217
 20
6.119375358
 30
0.0
  0
VERTEX
  5
4E9
330
2D8
100
AcDbEntity
  8
0
  6
CONTINUOUS
 62
     7
100
AcDbVertex
100
AcDb2dVertex
 10
8.8958624153
 20
6.1170970584
 30
0.0
  0
VERTEX
  5
4EA
330
2D8
100
AcDbEntity
  8
0
  6
CONTINUOUS
 62
     7
100
AcDbVertex
100
AcDb2dVertex
 10
8.878487216
 20
6.1171551428
 30
0.0
  0
VERTEX
  5
4EB
330
2D8
100
AcDbEntity
  8
0
  6
CONTINUOUS
 62
     7
100
AcDbVertex
100
AcDb2dVertex
 10
8.8620002725
 20
6.1195491072
 30
0.0
  0
VERTEX
  5
4EC
330
2D8
100
AcDbEntity
  8
0
  6
CONTINUOUS
 62
     7
100
AcDbVertex
100
AcDb2dVertex
 10
8.8465446269
 20
6.1242581815
 30
0.0
  0
VERTEX
  5
4ED
330
2D8
100
AcDbEntity
  8
0
  6
CONTINUOUS
 62
     7
100
AcDbVertex
100
AcDb2dVertex
 10
8.8322543737
 20
6.1312415092
 30
0.0
  0
VERTEX
  5
4EE
330
2D8
100
AcDbEntity
  8
0
  6
CONTINUOUS
 62
     7
100
AcDbVertex
100
AcDb2dVertex
 10
8.8192534962
 20
6.1404385024
 30
0.0
  0
VERTEX
  5
4EF
330
2D8
100
AcDbEntity
  8
0
  6
CONTINUOUS
 62
     7
100
AcDbVertex
100
AcDb2dVertex
 10
8.8076547912
 20
6.1517693674
 30
0.0
  0
VERTEX
  5
4F0
330
2D8
100
AcDbEntity
  8
0
  6
CONTINUOUS
 62
     7
100
AcDbVertex
100
AcDb2dVertex
 10
8.7975588901
 20
6.1651357964
 30
0.0
  0
VERTEX
  5
4F1
330
2D8
100
AcDbEntity
  8
0
  6
CONTINUOUS
 62
     7
100
AcDbVertex
100
AcDb2dVertex
 10
8.7890533856
 20
6.1804218214
 30
0.0
  0
VERTEX
  5
4F2
330
2D8
100
AcDbEntity
  8
0
  6
CONTINUOUS
 62
     7
100
AcDbVertex
100
AcDb2dVertex
 10
8.7822120723
 20
6.1974948194
 30
0.0
  0
VERTEX
  5
4F3
330
2D8
100
AcDbEntity
  8
0
  6
CONTINUOUS
 62
     7
100
AcDbVertex
100
AcDb2dVertex
 10
8.777094306
 20
6.2162066637
 30
0.0
  0
VERTEX
  5
4F4
330
2D8
100
AcDbEntity
  8
0
  6
CONTINUOUS
 62
     7
100
AcDbVertex
100
AcDb2dVertex
 10
8.7737444888
 20
6.2363950089
 30
0.0
  0
VERTEX
  5
4F5
330
2D8
100
AcDbEntity
  8
0
  6
CONTINUOUS
 62
     7
100
AcDbVertex
100
AcDb2dVertex
 10
8.772191684
 20
6.257884699
 30
0.0
  0
SEQEND
  5
4F6
330
2D8
100
AcDbEntity
  8
0
  6
CONTINUOUS
 62
     7
  0
LINE
  5
2D9
330
1F
100
AcDbEntity
  8
0
  6
CONTINUOUS
 62
     7
100
AcDbLine
 10
9.1895423739
 20
6.4988161239
 30
0.0
 11
9.2383763882
 21
6.5270074003
 31
0.0
  0
LINE
  5
2DA
330
1F
100
AcDbEntity
  8
0
  6
CONTINUOUS
 62
     7
100
AcDbLine
 10
9.2383763882
 20
6.5270074003
 30
0.0
 11
9.2383763882
 21
6.5430810383
 31
0.0
  0
LINE
  5
2DB
330
1F
100
AcDbEntity
  8
0
  6
CONTINUOUS
 62
     7
100
AcDbLine
 10
9.1895423739
 20
6.5148897619
 30
0.0
 11
9.2383763882
 21
6.5430810383
 31
0.0
  0
POLYLINE
  5
2DC
330
1F
100
AcDbEntity
  8
0
  6
CONTINUOUS
 62
     7
100
AcDb2dPolyline
 66
     1
 10
0.0
 20
0.0
 30
0.0
  0
VERTEX
  5
4F7
330
2DC
100
AcDbEntity
  8
0
  6
CONTINUOUS
 62
     7
100
AcDbVertex
100
AcDb2dVertex
 10
8.772191684
 20
6.273958337
 30
0.0
  0
VERTEX
  5
4F8
330
2DC
100
AcDbEntity
  8
0
  6
CONTINUOUS
 62
     7
100
AcDbVertex
100
AcDb2dVertex
 10
8.7737444888
 20
6.2972408574
 30
0.0
  0
VERTEX
  5
4F9
330
2DC
100
AcDbEntity
  8
0
  6
CONTINUOUS
 62
     7
100
AcDbVertex
100
AcDb2dVertex
 10
8.777094306
 20
6.3212968191
 30
0.0
  0
VERTEX
  5
4FA
330
2DC
100
AcDbEntity
  8
0
  6
CONTINUOUS
 62
     7
100
AcDbVertex
100
AcDb2dVertex
 10
8.7822120723
 20
6.3459175107
 30
0.0
  0
VERTEX
  5
4FB
330
2DC
100
AcDbEntity
  8
0
  6
CONTINUOUS
 62
     7
100
AcDbVertex
100
AcDb2dVertex
 10
8.7890533856
 20
6.3708893209
 30
0.0
  0
VERTEX
  5
4FC
330
2DC
100
AcDbEntity
  8
0
  6
CONTINUOUS
 62
     7
100
AcDbVertex
100
AcDb2dVertex
 10
8.7975588901
 20
6.3959955923
 30
0.0
  0
VERTEX
  5
4FD
330
2DC
100
AcDbEntity
  8
0
  6
CONTINUOUS
 62
     7
100
AcDbVertex
100
AcDb2dVertex
 10
8.8076547912
 20
6.4210185008
 30
0.0
  0
VERTEX
  5
4FE
330
2DC
100
AcDbEntity
  8
0
  6
CONTINUOUS
 62
     7
100
AcDbVertex
100
AcDb2dVertex
 10
8.8192534962
 20
6.4457409454
 30
0.0
  0
VERTEX
  5
4FF
330
2DC
100
AcDbEntity
  8
0
  6
CONTINUOUS
 62
     7
100
AcDbVertex
100
AcDb2dVertex
 10
8.8322543737
 20
6.4699484323
 30
0.0
  0
VERTEX
  5
500
330
2DC
100
AcDbEntity
  8
0
  6
CONTINUOUS
 62
     7
100
AcDbVertex
100
AcDb2dVertex
 10
8.8465446269
 20
6.4934309352
 30
0.0
  0
VERTEX
  5
501
330
2DC
100
AcDbEntity
  8
0
  6
CONTINUOUS
 62
     7
100
AcDbVertex
100
AcDb2dVertex
 10
8.8620002725
 20
6.515984718
 30
0.0
  0
VERTEX
  5
502
330
2DC
100
AcDbEntity
  8
0
  6
CONTINUOUS
 62
     7
100
AcDbVertex
100
AcDb2dVertex
 10
8.878487216
 20
6.5374141022
 30
0.0
  0
VERTEX
  5
503
330
2DC
100
AcDbEntity
  8
0
  6
CONTINUOUS
 62
     7
100
AcDbVertex
100
AcDb2dVertex
 10
8.8958624153
 20
6.5575331647
 30
0.0
  0
VERTEX
  5
504
330
2DC
100
AcDbEntity
  8
0
  6
CONTINUOUS
 62
     7
100
AcDbVertex
100
AcDb2dVertex
 10
8.9139751217
 20
6.5761673508
 30
0.0
  0
VERTEX
  5
505
330
2DC
100
AcDbEntity
  8
0
  6
CONTINUOUS
 62
     7
100
AcDbVertex
100
AcDb2dVertex
 10
8.9326681879
 20
6.5931549887
 30
0.0
  0
VERTEX
  5
506
330
2DC
100
AcDbEntity
  8
0
  6
CONTINUOUS
 62
     7
100
AcDbVertex
100
AcDb2dVertex
 10
8.9517794312
 20
6.6083486923
 30
0.0
  0
VERTEX
  5
507
330
2DC
100
AcDbEntity
  8
0
  6
CONTINUOUS
 62
     7
100
AcDbVertex
100
AcDb2dVertex
 10
8.971143041
 20
6.6216166398
 30
0.0
  0
VERTEX
  5
508
330
2DC
100
AcDbEntity
  8
0
  6
CONTINUOUS
 62
     7
100
AcDbVertex
100
AcDb2dVertex
 10
8.9905910169
 20
6.6328437173
 30
0.0
  0
VERTEX
  5
509
330
2DC
100
AcDbEntity
  8
0
  6
CONTINUOUS
 62
     7
100
AcDbVertex
100
AcDb2dVertex
 10
9.0099546266
 20
6.6419325178
 30
0.0
  0
VERTEX
  5
50A
330
2DC
100
AcDbEntity
  8
0
  6
CONTINUOUS
 62
     7
100
AcDbVertex
100
AcDb2dVertex
 10
9.02906587
 20
6.648804186
 30
0.0
  0
VERTEX
  5
50B
330
2DC
100
AcDbEntity
  8
0
  6
CONTINUOUS
 62
     7
100
AcDbVertex
100
AcDb2dVertex
 10
9.0477589361
 20
6.6533991029
 30
0.0
  0
VERTEX
  5
50C
330
2DC
100
AcDbEntity
  8
0
  6
CONTINUOUS
 62
     7
100
AcDbVertex
100
AcDb2dVertex
 10
9.0658716425
 20
6.6556774025
 30
0.0
  0
VERTEX
  5
50D
330
2DC
100
AcDbEntity
  8
0
  6
CONTINUOUS
 62
     7
100
AcDbVertex
100
AcDb2dVertex
 10
9.0832468418
 20
6.6556193181
 30
0.0
  0
VERTEX
  5
50E
330
2DC
100
AcDbEntity
  8
0
  6
CONTINUOUS
 62
     7
100
AcDbVertex
100
AcDb2dVertex
 10
9.0997337853
 20
6.6532253537
 30
0.0
  0
VERTEX
  5
50F
330
2DC
100
AcDbEntity
  8
0
  6
CONTINUOUS
 62
     7
100
AcDbVertex
100
AcDb2dVertex
 10
9.1151894309
 20
6.6485162795
 30
0.0
  0
VERTEX
  5
510
330
2DC
100
AcDbEntity
  8
0
  6
CONTINUOUS
 62
     7
100
AcDbVertex
100
AcDb2dVertex
 10
9.1294796842
 20
6.6415329518
 30
0.0
  0
VERTEX
  5
511
330
2DC
100
AcDbEntity
  8
0
  6
CONTINUOUS
 62
     7
100
AcDbVertex
100
AcDb2dVertex
 10
9.1424805617
 20
6.6323359585
 30
0.0
  0
VERTEX
  5
512
330
2DC
100
AcDbEntity
  8
0
  6
CONTINUOUS
 62
     7
100
AcDbVertex
100
AcDb2dVertex
 10
9.1540792666
 20
6.6210050936
 30
0.0
  0
VERTEX
  5
513
330
2DC
100
AcDbEntity
  8
0
  6
CONTINUOUS
 62
     7
100
AcDbVertex
100
AcDb2dVertex
 10
9.1641751678
 20
6.6076386645
 30
0.0
  0
VERTEX
  5
514
330
2DC
100
AcDbEntity
  8
0
  6
CONTINUOUS
 62
     7
100
AcDbVertex
100
AcDb2dVertex
 10
9.1726806723
 20
6.5923526395
 30
0.0
  0
VERTEX
  5
515
330
2DC
100
AcDbEntity
  8
0
  6
CONTINUOUS
 62
     7
100
AcDbVertex
100
AcDb2dVertex
 10
9.1795219856
 20
6.5752796415
 30
0.0
  0
VERTEX
  5
516
330
2DC
100
AcDbEntity
  8
0
  6
CONTINUOUS
 62
     7
100
AcDbVertex
100
AcDb2dVertex
 10
9.1846397519
 20
6.5565677972
 30
0.0
  0
VERTEX
  5
517
330
2DC
100
AcDbEntity
  8
0
  6
CONTINUOUS
 62
     7
100
AcDbVertex
100
AcDb2dVertex
 10
9.1879895691
 20
6.5363794521
 30
0.0
  0
VERTEX
  5
518
330
2DC
100
AcDbEntity
  8
0
  6
CONTINUOUS
 62
     7
100
AcDbVertex
100
AcDb2dVertex
 10
9.1895423739
 20
6.5148897619
 30
0.0
  0
SEQEND
  5
519
330
2DC
100
AcDbEntity
  8
0
  6
CONTINUOUS
 62
     7
  0
LINE
  5
2DD
330
1F
100
AcDbEntity
  8
0
  6
CONTINUOUS
 62
     7
100
AcDbLine
 10
8.2988507221
 20
6.0007044161
 30
0.0
 11
8.772191684
 21
6.273958337
 31
0.0
  0
LINE
  5
2DE
330
1F
100
AcDbEntity
  8
0
  6
CONTINUOUS
 62
     7
100
AcDbLine
 10
8.2988507221
 20
5.9846307781
 30
0.0
 11
8.772191684
 21
6.257884699
 31
0.0
  0
LINE
  5
2DF
330
1F
100
AcDbEntity
  8
0
  6
CONTINUOUS
 62
     7
100
AcDbLine
 10
8.7372770945
 20
7.511974211
 30
0.0
 11
8.7372770945
 21
7.5235376933
 31
0.0
  0
ARC
  5
2E0
330
1F
100
AcDbEntity
  8
0
  6
CONTINUOUS
 62
     7
100
AcDbCircle
 10
9.2713597803
 20
6.2154633823
 30
0.0
 40
1.4751418414091
100
AcDbArc
 50
140.5807918194
 51
177.4176775185
  0
SPLINE
  5
2E1
330
1F
100
AcDbEntity
  8
0
  6
CONTINUOUS
 62
     7
100
AcDbSpline
210
0.0
220
0.0
230
1.0
 70
     8
 71
     3
 72
     8
 73
     4
 74
     0
 42
0.00000001
 43
0.00000001
 40
0.0
 40
0.0
 40
0.0
 40
0.0
 40
0.0007652584238459
 40
0.0007652584238459
 40
0.0007652584238459
 40
0.0007652584238459
 10
8.13178211452081
 20
7.152163011790501
 30
0.0
 10
8.136412609235828
 20
7.155707084776969
 30
0.0
 10
8.141052644135266
 20
7.15923619015463
 30
0.0
 10
8.145701539347318
 20
7.162751302807707
 30
0.0
  0
LINE
  5
2E2
330
1F
100
AcDbEntity
  8
0
  6
CONTINUOUS
 62
     7
100
AcDbLine
 10
8.7721918787
 20
6.2739651871
 30
0.0
 11
8.7721999768
 21
6.2739605121
 31
0.0
  0
LINE
  5
2E3
330
1F
100
AcDbEntity
  8
0
  6
CONTINUOUS
 62
     7
100
AcDbLine
 10
8.772191684
 20
6.257884699
 30
0.0
 11
8.7721999768
 21
6.2739605121
 31
0.0
  0
LINE
  5
2E4
330
1F
100
AcDbEntity
  8
0
  6
CONTINUOUS
 62
     7
100
AcDbLine
 10
7.8603881298
 20
6.221677999
 30
0.0
 11
7.8743098171
 21
6.229714818
 31
0.0
  0
LINE
  5
2E5
330
1F
100
AcDbEntity
  8
0
  6
CONTINUOUS
 62
     7
100
AcDbLine
 10
8.0204267159
 20
7.235070919
 30
0.0
 11
8.0084145143
 21
7.2259334232
 31
0.0
  0
ARC
  5
2E6
330
1F
100
AcDbEntity
  8
0
  6
CONTINUOUS
 62
     7
100
AcDbCircle
 10
8.9954656834
 20
6.4686406982
 30
0.0
 40
1.244684730921652
100
AcDbArc
 50
121.0012672118
 51
142.5071887775
  0
LINE
  5
2E7
330
1F
100
AcDbEntity
  8
0
  6
CONTINUOUS
 62
     7
100
AcDbLine
 10
9.1616952314
 20
6.5148849746
 30
0.0
 11
9.1895423739
 21
6.5148897619
 31
0.0
  0
ARC
  5
2E8
330
1F
100
AcDbEntity
  8
0
  6
CONTINUOUS
 62
     7
100
AcDbCircle
 10
9.0442499522
 20
6.5283288468
 30
0.0
 40
0.1182122299859259
100
AcDbArc
 50
353.4698186216
 51
126.5355579111
  0
LINE
  5
2E9
330
1F
100
AcDbEntity
  8
0
  6
CONTINUOUS
 62
     7
100
AcDbLine
 10
9.1616952314
 20
6.5148849746
 30
0.0
 11
8.9738756645
 21
6.6233109027
 31
0.0
  0
LINE
  5
2EA
330
1F
100
AcDbEntity
  8
0
  6
CONTINUOUS
 62
     7
100
AcDbLine
 10
9.1616952314
 20
6.4988113366
 30
0.0
 11
8.9607956435
 21
6.6147882
 31
0.0
  0
POLYLINE
  5
2EB
330
1F
100
AcDbEntity
  8
0
  6
CONTINUOUS
 62
     7
100
AcDb2dPolyline
 66
     1
 10
0.0
 20
0.0
 30
0.0
  0
VERTEX
  5
51A
330
2EB
100
AcDbEntity
  8
0
  6
CONTINUOUS
 62
     7
100
AcDbVertex
100
AcDb2dVertex
 10
8.7721999768
 20
6.2739605121
 30
0.0
  0
VERTEX
  5
51B
330
2EB
100
AcDbEntity
  8
0
  6
CONTINUOUS
 62
     7
100
AcDbVertex
100
AcDb2dVertex
 10
8.7737623112
 20
6.2533562965
 30
0.0
  0
VERTEX
  5
51C
330
2EB
100
AcDbEntity
  8
0
  6
CONTINUOUS
 62
     7
100
AcDbVertex
100
AcDb2dVertex
 10
8.7771015327
 20
6.2340495873
 30
0.0
  0
VERTEX
  5
51D
330
2EB
100
AcDbEntity
  8
0
  6
CONTINUOUS
 62
     7
100
AcDbVertex
100
AcDb2dVertex
 10
8.7821869275
 20
6.2162179643
 30
0.0
  0
VERTEX
  5
51E
330
2EB
100
AcDbEntity
  8
0
  6
CONTINUOUS
 62
     7
100
AcDbVertex
100
AcDb2dVertex
 10
8.7889717212
 20
6.20002544
 30
0.0
  0
VERTEX
  5
51F
330
2EB
100
AcDbEntity
  8
0
  6
CONTINUOUS
 62
     7
100
AcDbVertex
100
AcDb2dVertex
 10
8.7973935082
 20
6.1856209506
 30
0.0
  0
VERTEX
  5
520
330
2EB
100
AcDbEntity
  8
0
  6
CONTINUOUS
 62
     7
100
AcDbVertex
100
AcDb2dVertex
 10
8.8073748262
 20
6.1731369863
 30
0.0
  0
VERTEX
  5
521
330
2EB
100
AcDbEntity
  8
0
  6
CONTINUOUS
 62
     7
100
AcDbVertex
100
AcDb2dVertex
 10
8.8188238689
 20
6.1626883726
 30
0.0
  0
VERTEX
  5
522
330
2EB
100
AcDbEntity
  8
0
  6
CONTINUOUS
 62
     7
100
AcDbVertex
100
AcDb2dVertex
 10
8.8316353297
 20
6.154371214
 30
0.0
  0
VERTEX
  5
523
330
2EB
100
AcDbEntity
  8
0
  6
CONTINUOUS
 62
     7
100
AcDbVertex
100
AcDb2dVertex
 10
8.8456913708
 20
6.1482620105
 30
0.0
  0
VERTEX
  5
524
330
2EB
100
AcDbEntity
  8
0
  6
CONTINUOUS
 62
     7
100
AcDbVertex
100
AcDb2dVertex
 10
8.8608627071
 20
6.1444169536
 30
0.0
  0
VERTEX
  5
525
330
2EB
100
AcDbEntity
  8
0
  6
CONTINUOUS
 62
     7
100
AcDbVertex
100
AcDb2dVertex
 10
8.8770097952
 20
6.1428714094
 30
0.0
  0
VERTEX
  5
526
330
2EB
100
AcDbEntity
  8
0
  6
CONTINUOUS
 62
     7
100
AcDbVertex
100
AcDb2dVertex
 10
8.8939841166
 20
6.1436395936
 30
0.0
  0
VERTEX
  5
527
330
2EB
100
AcDbEntity
  8
0
  6
CONTINUOUS
 62
     7
100
AcDbVertex
100
AcDb2dVertex
 10
8.9116295444
 20
6.1467144407
 30
0.0
  0
VERTEX
  5
528
330
2EB
100
AcDbEntity
  8
0
  6
CONTINUOUS
 62
     7
100
AcDbVertex
100
AcDb2dVertex
 10
8.9297837787
 20
6.1520676685
 30
0.0
  0
VERTEX
  5
529
330
2EB
100
AcDbEntity
  8
0
  6
CONTINUOUS
 62
     7
100
AcDbVertex
100
AcDb2dVertex
 10
8.9482798399
 20
6.1596500391
 30
0.0
  0
VERTEX
  5
52A
330
2EB
100
AcDbEntity
  8
0
  6
CONTINUOUS
 62
     7
100
AcDbVertex
100
AcDb2dVertex
 10
8.9669476041
 20
6.169391811
 30
0.0
  0
VERTEX
  5
52B
330
2EB
100
AcDbEntity
  8
0
  6
CONTINUOUS
 62
     7
100
AcDbVertex
100
AcDb2dVertex
 10
8.9856153684
 20
6.1812033809
 30
0.0
  0
VERTEX
  5
52C
330
2EB
100
AcDbEntity
  8
0
  6
CONTINUOUS
 62
     7
100
AcDbVertex
100
AcDb2dVertex
 10
9.0041114295
 20
6.194976108
 30
0.0
  0
VERTEX
  5
52D
330
2EB
100
AcDbEntity
  8
0
  6
CONTINUOUS
 62
     7
100
AcDbVertex
100
AcDb2dVertex
 10
9.0222656638
 20
6.2105833129
 30
0.0
  0
VERTEX
  5
52E
330
2EB
100
AcDbEntity
  8
0
  6
CONTINUOUS
 62
     7
100
AcDbVertex
100
AcDb2dVertex
 10
9.0399110916
 20
6.2278814432
 30
0.0
  0
VERTEX
  5
52F
330
2EB
100
AcDbEntity
  8
0
  6
CONTINUOUS
 62
     7
100
AcDbVertex
100
AcDb2dVertex
 10
9.056885413
 20
6.2467113933
 30
0.0
  0
VERTEX
  5
530
330
2EB
100
AcDbEntity
  8
0
  6
CONTINUOUS
 62
     7
100
AcDbVertex
100
AcDb2dVertex
 10
9.0730325011
 20
6.2668999685
 30
0.0
  0
VERTEX
  5
531
330
2EB
100
AcDbEntity
  8
0
  6
CONTINUOUS
 62
     7
100
AcDbVertex
100
AcDb2dVertex
 10
9.0882038374
 20
6.2882614775
 30
0.0
  0
VERTEX
  5
532
330
2EB
100
AcDbEntity
  8
0
  6
CONTINUOUS
 62
     7
100
AcDbVertex
100
AcDb2dVertex
 10
9.1022598786
 20
6.3105994407
 30
0.0
  0
VERTEX
  5
533
330
2EB
100
AcDbEntity
  8
0
  6
CONTINUOUS
 62
     7
100
AcDbVertex
100
AcDb2dVertex
 10
9.1150713393
 20
6.333708397
 30
0.0
  0
VERTEX
  5
534
330
2EB
100
AcDbEntity
  8
0
  6
CONTINUOUS
 62
     7
100
AcDbVertex
100
AcDb2dVertex
 10
9.126520382
 20
6.357375794
 30
0.0
  0
VERTEX
  5
535
330
2EB
100
AcDbEntity
  8
0
  6
CONTINUOUS
 62
     7
100
AcDbVertex
100
AcDb2dVertex
 10
9.1365017001
 20
6.3813839429
 30
0.0
  0
VERTEX
  5
536
330
2EB
100
AcDbEntity
  8
0
  6
CONTINUOUS
 62
     7
100
AcDbVertex
100
AcDb2dVertex
 10
9.1449234871
 20
6.4055120206
 30
0.0
  0
VERTEX
  5
537
330
2EB
100
AcDbEntity
  8
0
  6
CONTINUOUS
 62
     7
100
AcDbVertex
100
AcDb2dVertex
 10
9.1517082807
 20
6.4295381008
 30
0.0
  0
VERTEX
  5
538
330
2EB
100
AcDbEntity
  8
0
  6
CONTINUOUS
 62
     7
100
AcDbVertex
100
AcDb2dVertex
 10
9.1567936756
 20
6.4532411957
 30
0.0
  0
VERTEX
  5
539
330
2EB
100
AcDbEntity
  8
0
  6
CONTINUOUS
 62
     7
100
AcDbVertex
100
AcDb2dVertex
 10
9.160132897
 20
6.476403288
 30
0.0
  0
VERTEX
  5
53A
330
2EB
100
AcDbEntity
  8
0
  6
CONTINUOUS
 62
     7
100
AcDbVertex
100
AcDb2dVertex
 10
9.1616952314
 20
6.4988113366
 30
0.0
  0
SEQEND
  5
53B
330
2EB
100
AcDbEntity
  8
0
  6
CONTINUOUS
 62
     7
  0
LINE
  5
2EC
330
1F
100
AcDbEntity
  8
0
  6
CONTINUOUS
 62
     7
100
AcDbLine
 10
9.1616952314
 20
6.4988113366
 30
0.0
 11
9.1895423739
 21
6.4988161239
 31
0.0
  0
LINE
  5
2ED
330
1F
100
AcDbEntity
  8
0
  6
CONTINUOUS
 62
     7
100
AcDbLine
 10
9.2383763882
 20
6.5270074003
 30
0.0
 11
9.224226378
 21
6.5349124113
 31
0.0
  0
LINE
  5
2EE
330
1F
100
AcDbEntity
  8
0
  6
CONTINUOUS
 62
     7
100
AcDbLine
 10
8.9918396184
 20
6.6129405329
 30
0.0
 11
8.9646614894
 21
6.6174092097
 31
0.0
  0
LINE
  5
2EF
330
1F
100
AcDbEntity
  8
0
  6
CONTINUOUS
 62
     7
100
AcDbLine
 10
8.7004272327
 20
7.6516744031
 30
0.0
 11
8.8257020561
 21
7.5793547869
 31
0.0
  0
POLYLINE
  5
2F0
330
1F
100
AcDbEntity
  8
0
  6
CONTINUOUS
 62
     7
100
AcDb2dPolyline
 66
     1
 10
0.0
 20
0.0
 30
0.0
  0
VERTEX
  5
53C
330
2F0
100
AcDbEntity
  8
0
  6
CONTINUOUS
 62
     7
100
AcDbVertex
100
AcDb2dVertex
 10
7.9838177008
 20
7.2401328614
 30
0.0
  0
VERTEX
  5
53D
330
2F0
100
AcDbEntity
  8
0
  6
CONTINUOUS
 62
     7
100
AcDbVertex
100
AcDb2dVertex
 10
8.0150558299
 20
7.2784604085
 30
0.0
  0
VERTEX
  5
53E
330
2F0
100
AcDbEntity
  8
0
  6
CONTINUOUS
 62
     7
100
AcDbVertex
100
AcDb2dVertex
 10
8.0471573069
 20
7.3154023252
 30
0.0
  0
VERTEX
  5
53F
330
2F0
100
AcDbEntity
  8
0
  6
CONTINUOUS
 62
     7
100
AcDbVertex
100
AcDb2dVertex
 10
8.0800369914
 20
7.3508606331
 30
0.0
  0
VERTEX
  5
540
330
2F0
100
AcDbEntity
  8
0
  6
CONTINUOUS
 62
     7
100
AcDbVertex
100
AcDb2dVertex
 10
8.1136076789
 20
7.3847412883
 30
0.0
  0
VERTEX
  5
541
330
2F0
100
AcDbEntity
  8
0
  6
CONTINUOUS
 62
     7
100
AcDbVertex
100
AcDb2dVertex
 10
8.1477803321
 20
7.4169544318
 30
0.0
  0
VERTEX
  5
542
330
2F0
100
AcDbEntity
  8
0
  6
CONTINUOUS
 62
     7
100
AcDbVertex
100
AcDb2dVertex
 10
8.1824643172
 20
7.4474146267
 30
0.0
  0
VERTEX
  5
543
330
2F0
100
AcDbEntity
  8
0
  6
CONTINUOUS
 62
     7
100
AcDbVertex
100
AcDb2dVertex
 10
8.2175676444
 20
7.4760410856
 30
0.0
  0
VERTEX
  5
544
330
2F0
100
AcDbEntity
  8
0
  6
CONTINUOUS
 62
     7
100
AcDbVertex
100
AcDb2dVertex
 10
8.2529972115
 20
7.5027578845
 30
0.0
  0
VERTEX
  5
545
330
2F0
100
AcDbEntity
  8
0
  6
CONTINUOUS
 62
     7
100
AcDbVertex
100
AcDb2dVertex
 10
8.2886590511
 20
7.5274941643
 30
0.0
  0
VERTEX
  5
546
330
2F0
100
AcDbEntity
  8
0
  6
CONTINUOUS
 62
     7
100
AcDbVertex
100
AcDb2dVertex
 10
8.3244585797
 20
7.5501843186
 30
0.0
  0
VERTEX
  5
547
330
2F0
100
AcDbEntity
  8
0
  6
CONTINUOUS
 62
     7
100
AcDbVertex
100
AcDb2dVertex
 10
8.3603008488
 20
7.570768168
 30
0.0
  0
VERTEX
  5
548
330
2F0
100
AcDbEntity
  8
0
  6
CONTINUOUS
 62
     7
100
AcDbVertex
100
AcDb2dVertex
 10
8.3960907964
 20
7.5891911194
 30
0.0
  0
VERTEX
  5
549
330
2F0
100
AcDbEntity
  8
0
  6
CONTINUOUS
 62
     7
100
AcDbVertex
100
AcDb2dVertex
 10
8.4317334993
 20
7.6054043107
 30
0.0
  0
VERTEX
  5
54A
330
2F0
100
AcDbEntity
  8
0
  6
CONTINUOUS
 62
     7
100
AcDbVertex
100
AcDb2dVertex
 10
8.4671344247
 20
7.6193647409
 30
0.0
  0
VERTEX
  5
54B
330
2F0
100
AcDbEntity
  8
0
  6
CONTINUOUS
 62
     7
100
AcDbVertex
100
AcDb2dVertex
 10
8.5021996814
 20
7.6310353836
 30
0.0
  0
VERTEX
  5
54C
330
2F0
100
AcDbEntity
  8
0
  6
CONTINUOUS
 62
     7
100
AcDbVertex
100
AcDb2dVertex
 10
8.536836268
 20
7.6403852857
 30
0.0
  0
VERTEX
  5
54D
330
2F0
100
AcDbEntity
  8
0
  6
CONTINUOUS
 62
     7
100
AcDbVertex
100
AcDb2dVertex
 10
8.5709523204
 20
7.6473896491
 30
0.0
  0
VERTEX
  5
54E
330
2F0
100
AcDbEntity
  8
0
  6
CONTINUOUS
 62
     7
100
AcDbVertex
100
AcDb2dVertex
 10
8.604457355
 20
7.6520298965
 30
0.0
  0
VERTEX
  5
54F
330
2F0
100
AcDbEntity
  8
0
  6
CONTINUOUS
 62
     7
100
AcDbVertex
100
AcDb2dVertex
 10
8.6372625086
 20
7.654293721
 30
0.0
  0
VERTEX
  5
550
330
2F0
100
AcDbEntity
  8
0
  6
CONTINUOUS
 62
     7
100
AcDbVertex
100
AcDb2dVertex
 10
8.6692807745
 20
7.6541751183
 30
0.0
  0
VERTEX
  5
551
330
2F0
100
AcDbEntity
  8
0
  6
CONTINUOUS
 62
     7
100
AcDbVertex
100
AcDb2dVertex
 10
8.7004272327
 20
7.6516744031
 30
0.0
  0
SEQEND
  5
552
330
2F0
100
AcDbEntity
  8
0
  6
CONTINUOUS
 62
     7
  0
LINE
  5
2F1
330
1F
100
AcDbEntity
  8
0
  6
CONTINUOUS
 62
     7
100
AcDbLine
 10
8.1090925243
 20
7.1678132452
 30
0.0
 11
7.9838177008
 21
7.2401328614
 31
0.0
  0
POLYLINE
  5
2F2
330
1F
100
AcDbEntity
  8
0
  6
CONTINUOUS
 62
     7
100
AcDb2dPolyline
 66
     1
 10
0.0
 20
0.0
 30
0.0
  0
VERTEX
  5
553
330
2F2
100
AcDbEntity
  8
0
  6
CONTINUOUS
 62
     7
100
AcDbVertex
100
AcDb2dVertex
 10
7.9878785865
 20
5.8235963746
 30
0.0
  0
VERTEX
  5
554
330
2F2
100
AcDbEntity
  8
0
  6
CONTINUOUS
 62
     7
100
AcDbVertex
100
AcDb2dVertex
 10
7.9692046884
 20
5.833971162
 30
0.0
  0
VERTEX
  5
555
330
2F2
100
AcDbEntity
  8
0
  6
CONTINUOUS
 62
     7
100
AcDbVertex
100
AcDb2dVertex
 10
7.9453447542
 20
5.8497103345
 30
0.0
  0
VERTEX
  5
556
330
2F2
100
AcDbEntity
  8
0
  6
CONTINUOUS
 62
     7
100
AcDbVertex
100
AcDb2dVertex
 10
7.9227984994
 20
5.8675543852
 30
0.0
  0
VERTEX
  5
557
330
2F2
100
AcDbEntity
  8
0
  6
CONTINUOUS
 62
     7
100
AcDbVertex
100
AcDb2dVertex
 10
7.9016228276
 20
5.8874582782
 30
0.0
  0
VERTEX
  5
558
330
2F2
100
AcDbEntity
  8
0
  6
CONTINUOUS
 62
     7
100
AcDbVertex
100
AcDb2dVertex
 10
7.8818711832
 20
5.9093717786
 30
0.0
  0
VERTEX
  5
559
330
2F2
100
AcDbEntity
  8
0
  6
CONTINUOUS
 62
     7
100
AcDbVertex
100
AcDb2dVertex
 10
7.8635934167
 20
5.93323958
 30
0.0
  0
VERTEX
  5
55A
330
2F2
100
AcDbEntity
  8
0
  6
CONTINUOUS
 62
     7
100
AcDbVertex
100
AcDb2dVertex
 10
7.8468356587
 20
5.9590014433
 30
0.0
  0
VERTEX
  5
55B
330
2F2
100
AcDbEntity
  8
0
  6
CONTINUOUS
 62
     7
100
AcDbVertex
100
AcDb2dVertex
 10
7.8316402034
 20
5.9865923489
 30
0.0
  0
VERTEX
  5
55C
330
2F2
100
AcDbEntity
  8
0
  6
CONTINUOUS
 62
     7
100
AcDbVertex
100
AcDb2dVertex
 10
7.818045402
 20
6.0159426614
 30
0.0
  0
VERTEX
  5
55D
330
2F2
100
AcDbEntity
  8
0
  6
CONTINUOUS
 62
     7
100
AcDbVertex
100
AcDb2dVertex
 10
7.8060855661
 20
6.0469783046
 30
0.0
  0
VERTEX
  5
55E
330
2F2
100
AcDbEntity
  8
0
  6
CONTINUOUS
 62
     7
100
AcDbVertex
100
AcDb2dVertex
 10
7.7957908804
 20
6.0796209487
 30
0.0
  0
VERTEX
  5
55F
330
2F2
100
AcDbEntity
  8
0
  6
CONTINUOUS
 62
     7
100
AcDbVertex
100
AcDb2dVertex
 10
7.7871873275
 20
6.1137882082
 30
0.0
  0
VERTEX
  5
560
330
2F2
100
AcDbEntity
  8
0
  6
CONTINUOUS
 62
     7
100
AcDbVertex
100
AcDb2dVertex
 10
7.7802966215
 20
6.1493938497
 30
0.0
  0
VERTEX
  5
561
330
2F2
100
AcDbEntity
  8
0
  6
CONTINUOUS
 62
     7
100
AcDbVertex
100
AcDb2dVertex
 10
7.7751361536
 20
6.1863480094
 30
0.0
  0
VERTEX
  5
562
330
2F2
100
AcDbEntity
  8
0
  6
CONTINUOUS
 62
     7
100
AcDbVertex
100
AcDb2dVertex
 10
7.7717189481
 20
6.2245574201
 30
0.0
  0
VERTEX
  5
563
330
2F2
100
AcDbEntity
  8
0
  6
CONTINUOUS
 62
     7
100
AcDbVertex
100
AcDb2dVertex
 10
7.7700536295
 20
6.2639256465
 30
0.0
  0
VERTEX
  5
564
330
2F2
100
AcDbEntity
  8
0
  6
CONTINUOUS
 62
     7
100
AcDbVertex
100
AcDb2dVertex
 10
7.770144401
 20
6.3043533287
 30
0.0
  0
VERTEX
  5
565
330
2F2
100
AcDbEntity
  8
0
  6
CONTINUOUS
 62
     7
100
AcDbVertex
100
AcDb2dVertex
 10
7.7719910333
 20
6.3457384327
 30
0.0
  0
VERTEX
  5
566
330
2F2
100
AcDbEntity
  8
0
  6
CONTINUOUS
 62
     7
100
AcDbVertex
100
AcDb2dVertex
 10
7.775588866
 20
6.3879765083
 30
0.0
  0
VERTEX
  5
567
330
2F2
100
AcDbEntity
  8
0
  6
CONTINUOUS
 62
     7
100
AcDbVertex
100
AcDb2dVertex
 10
7.7809288184
 20
6.4309609522
 30
0.0
  0
VERTEX
  5
568
330
2F2
100
AcDbEntity
  8
0
  6
CONTINUOUS
 62
     7
100
AcDbVertex
100
AcDb2dVertex
 10
7.7879974133
 20
6.4745832778
 30
0.0
  0
VERTEX
  5
569
330
2F2
100
AcDbEntity
  8
0
  6
CONTINUOUS
 62
     7
100
AcDbVertex
100
AcDb2dVertex
 10
7.7967768106
 20
6.5187333883
 30
0.0
  0
VERTEX
  5
56A
330
2F2
100
AcDbEntity
  8
0
  6
CONTINUOUS
 62
     7
100
AcDbVertex
100
AcDb2dVertex
 10
7.8072448523
 20
6.5632998548
 30
0.0
  0
VERTEX
  5
56B
330
2F2
100
AcDbEntity
  8
0
  6
CONTINUOUS
 62
     7
100
AcDbVertex
100
AcDb2dVertex
 10
7.8193751185
 20
6.6081701978
 30
0.0
  0
VERTEX
  5
56C
330
2F2
100
AcDbEntity
  8
0
  6
CONTINUOUS
 62
     7
100
AcDbVertex
100
AcDb2dVertex
 10
7.833136994
 20
6.6532311706
 30
0.0
  0
VERTEX
  5
56D
330
2F2
100
AcDbEntity
  8
0
  6
CONTINUOUS
 62
     7
100
AcDbVertex
100
AcDb2dVertex
 10
7.8484957457
 20
6.6983690456
 30
0.0
  0
VERTEX
  5
56E
330
2F2
100
AcDbEntity
  8
0
  6
CONTINUOUS
 62
     7
100
AcDbVertex
100
AcDb2dVertex
 10
7.8654126104
 20
6.743469901
 30
0.0
  0
VERTEX
  5
56F
330
2F2
100
AcDbEntity
  8
0
  6
CONTINUOUS
 62
     7
100
AcDbVertex
100
AcDb2dVertex
 10
7.8838448921
 20
6.7884199085
 30
0.0
  0
VERTEX
  5
570
330
2F2
100
AcDbEntity
  8
0
  6
CONTINUOUS
 62
     7
100
AcDbVertex
100
AcDb2dVertex
 10
7.9037460703
 20
6.8331056204
 30
0.0
  0
VERTEX
  5
571
330
2F2
100
AcDbEntity
  8
0
  6
CONTINUOUS
 62
     7
100
AcDbVertex
100
AcDb2dVertex
 10
7.9250659172
 20
6.8774142561
 30
0.0
  0
VERTEX
  5
572
330
2F2
100
AcDbEntity
  8
0
  6
CONTINUOUS
 62
     7
100
AcDbVertex
100
AcDb2dVertex
 10
7.9477506245
 20
6.9212339867
 30
0.0
  0
VERTEX
  5
573
330
2F2
100
AcDbEntity
  8
0
  6
CONTINUOUS
 62
     7
100
AcDbVertex
100
AcDb2dVertex
 10
7.9717429389
 20
6.9644542173
 30
0.0
  0
VERTEX
  5
574
330
2F2
100
AcDbEntity
  8
0
  6
CONTINUOUS
 62
     7
100
AcDbVertex
100
AcDb2dVertex
 10
7.9969823073
 20
7.006965866
 30
0.0
  0
VERTEX
  5
575
330
2F2
100
AcDbEntity
  8
0
  6
CONTINUOUS
 62
     7
100
AcDbVertex
100
AcDb2dVertex
 10
8.023405029
 20
7.0486616391
 30
0.0
  0
VERTEX
  5
576
330
2F2
100
AcDbEntity
  8
0
  6
CONTINUOUS
 62
     7
100
AcDbVertex
100
AcDb2dVertex
 10
8.0509444166
 20
7.0894363024
 30
0.0
  0
VERTEX
  5
577
330
2F2
100
AcDbEntity
  8
0
  6
CONTINUOUS
 62
     7
100
AcDbVertex
100
AcDb2dVertex
 10
8.0795309645
 20
7.1291869462
 30
0.0
  0
VERTEX
  5
578
330
2F2
100
AcDbEntity
  8
0
  6
CONTINUOUS
 62
     7
100
AcDbVertex
100
AcDb2dVertex
 10
8.1090925243
 20
7.1678132452
 30
0.0
  0
SEQEND
  5
579
330
2F2
100
AcDbEntity
  8
0
  6
CONTINUOUS
 62
     7
  0
ARC
  5
2F3
330
1F
100
AcDbEntity
  8
0
  6
CONTINUOUS
 62
     7
100
AcDbCircle
 10
8.7873763078
 20
7.2385900735
 30
0.0
 40
0.3429131855851811
100
AcDbArc
 50
58.8331606015
 51
83.5829204656
  0
LINE
  5
2F4
330
1F
100
AcDbEntity
  8
0
  6
CONTINUOUS
 62
     7
100
AcDbLine
 10
7.4107881874
 20
6.1894259924
 30
0.0
 11
7.285513364
 21
6.2617456086
 31
0.0
  0
POLYLINE
  5
2F5
330
1F
100
AcDbEntity
  8
0
  6
CONTINUOUS
 62
     7
100
AcDb2dPolyline
 66
     1
 10
0.0
 20
0.0
 30
0.0
  0
VERTEX
  5
57A
330
2F5
100
AcDbEntity
  8
0
  6
CONTINUOUS
 62
     7
100
AcDbVertex
100
AcDb2dVertex
 10
7.4089277752
 20
7.0158662368
 30
0.0
  0
VERTEX
  5
57B
330
2F5
100
AcDbEntity
  8
0
  6
CONTINUOUS
 62
     7
100
AcDbVertex
100
AcDb2dVertex
 10
7.3913534699
 20
6.9696481679
 30
0.0
  0
VERTEX
  5
57C
330
2F5
100
AcDbEntity
  8
0
  6
CONTINUOUS
 62
     7
100
AcDbVertex
100
AcDb2dVertex
 10
7.3754106946
 20
6.9233749988
 30
0.0
  0
VERTEX
  5
57D
330
2F5
100
AcDbEntity
  8
0
  6
CONTINUOUS
 62
     7
100
AcDbVertex
100
AcDb2dVertex
 10
7.3611417332
 20
6.8771694566
 30
0.0
  0
VERTEX
  5
57E
330
2F5
100
AcDbEntity
  8
0
  6
CONTINUOUS
 62
     7
100
AcDbVertex
100
AcDb2dVertex
 10
7.3485844303
 20
6.8311540891
 30
0.0
  0
VERTEX
  5
57F
330
2F5
100
AcDbEntity
  8
0
  6
CONTINUOUS
 62
     7
100
AcDbVertex
100
AcDb2dVertex
 10
7.3377720907
 20
6.7854509397
 30
0.0
  0
VERTEX
  5
580
330
2F5
100
AcDbEntity
  8
0
  6
CONTINUOUS
 62
     7
100
AcDbVertex
100
AcDb2dVertex
 10
7.3287333913
 20
6.7401812238
 30
0.0
  0
VERTEX
  5
581
330
2F5
100
AcDbEntity
  8
0
  6
CONTINUOUS
 62
     7
100
AcDbVertex
100
AcDb2dVertex
 10
7.3214923048
 20
6.6954650069
 30
0.0
  0
VERTEX
  5
582
330
2F5
100
AcDbEntity
  8
0
  6
CONTINUOUS
 62
     7
100
AcDbVertex
100
AcDb2dVertex
 10
7.3160680362
 20
6.6514208869
 30
0.0
  0
VERTEX
  5
583
330
2F5
100
AcDbEntity
  8
0
  6
CONTINUOUS
 62
     7
100
AcDbVertex
100
AcDb2dVertex
 10
7.3124749719
 20
6.608165679
 30
0.0
  0
VERTEX
  5
584
330
2F5
100
AcDbEntity
  8
0
  6
CONTINUOUS
 62
     7
100
AcDbVertex
100
AcDb2dVertex
 10
7.3107226416
 20
6.5658141059
 30
0.0
  0
VERTEX
  5
585
330
2F5
100
AcDbEntity
  8
0
  6
CONTINUOUS
 62
     7
100
AcDbVertex
100
AcDb2dVertex
 10
7.3108156928
 20
6.5244784938
 30
0.0
  0
VERTEX
  5
586
330
2F5
100
AcDbEntity
  8
0
  6
CONTINUOUS
 62
     7
100
AcDbVertex
100
AcDb2dVertex
 10
7.3127538788
 20
6.4842684742
 30
0.0
  0
VERTEX
  5
587
330
2F5
100
AcDbEntity
  8
0
  6
CONTINUOUS
 62
     7
100
AcDbVertex
100
AcDb2dVertex
 10
7.316532059
 20
6.4452906936
 30
0.0
  0
VERTEX
  5
588
330
2F5
100
AcDbEntity
  8
0
  6
CONTINUOUS
 62
     7
100
AcDbVertex
100
AcDb2dVertex
 10
7.3221402128
 20
6.4076485298
 30
0.0
  0
VERTEX
  5
589
330
2F5
100
AcDbEntity
  8
0
  6
CONTINUOUS
 62
     7
100
AcDbVertex
100
AcDb2dVertex
 10
7.3295634662
 20
6.3714418186
 30
0.0
  0
VERTEX
  5
58A
330
2F5
100
AcDbEntity
  8
0
  6
CONTINUOUS
 62
     7
100
AcDbVertex
100
AcDb2dVertex
 10
7.3387821309
 20
6.3367665886
 30
0.0
  0
VERTEX
  5
58B
330
2F5
100
AcDbEntity
  8
0
  6
CONTINUOUS
 62
     7
100
AcDbVertex
100
AcDb2dVertex
 10
7.3497717569
 20
6.3037148066
 30
0.0
  0
VERTEX
  5
58C
330
2F5
100
AcDbEntity
  8
0
  6
CONTINUOUS
 62
     7
100
AcDbVertex
100
AcDb2dVertex
 10
7.3625031972
 20
6.2723741333
 30
0.0
  0
VERTEX
  5
58D
330
2F5
100
AcDbEntity
  8
0
  6
CONTINUOUS
 62
     7
100
AcDbVertex
100
AcDb2dVertex
 10
7.3769426851
 20
6.2428276917
 30
0.0
  0
VERTEX
  5
58E
330
2F5
100
AcDbEntity
  8
0
  6
CONTINUOUS
 62
     7
100
AcDbVertex
100
AcDb2dVertex
 10
7.3930519236
 20
6.2151538455
 30
0.0
  0
VERTEX
  5
58F
330
2F5
100
AcDbEntity
  8
0
  6
CONTINUOUS
 62
     7
100
AcDbVertex
100
AcDb2dVertex
 10
7.4107881874
 20
6.1894259924
 30
0.0
  0
SEQEND
  5
590
330
2F5
100
AcDbEntity
  8
0
  6
CONTINUOUS
 62
     7
  0
LINE
  5
2F6
330
1F
100
AcDbEntity
  8
0
  6
CONTINUOUS
 62
     7
100
AcDbLine
 10
7.2836529517
 20
7.088185853
 30
0.0
 11
7.4089277752
 21
7.0158662368
 31
0.0
  0
POLYLINE
  5
2F7
330
1F
100
AcDbEntity
  8
0
  6
CONTINUOUS
 62
     7
100
AcDb2dPolyline
 66
     1
 10
0.0
 20
0.0
 30
0.0
  0
VERTEX
  5
591
330
2F7
100
AcDbEntity
  8
0
  6
CONTINUOUS
 62
     7
100
AcDbVertex
100
AcDb2dVertex
 10
8.3733184581
 20
7.8736030481
 30
0.0
  0
VERTEX
  5
592
330
2F7
100
AcDbEntity
  8
0
  6
CONTINUOUS
 62
     7
100
AcDbVertex
100
AcDb2dVertex
 10
8.3687989569
 20
7.8761646173
 30
0.0
  0
VERTEX
  5
593
330
2F7
100
AcDbEntity
  8
0
  6
CONTINUOUS
 62
     7
100
AcDbVertex
100
AcDb2dVertex
 10
8.3432411438
 20
7.8889629771
 30
0.0
  0
VERTEX
  5
594
330
2F7
100
AcDbEntity
  8
0
  6
CONTINUOUS
 62
     7
100
AcDbVertex
100
AcDb2dVertex
 10
8.3165172843
 20
7.8995712043
 30
0.0
  0
VERTEX
  5
595
330
2F7
100
AcDbEntity
  8
0
  6
CONTINUOUS
 62
     7
100
AcDbVertex
100
AcDb2dVertex
 10
8.2886948259
 20
7.9079625252
 30
0.0
  0
VERTEX
  5
596
330
2F7
100
AcDbEntity
  8
0
  6
CONTINUOUS
 62
     7
100
AcDbVertex
100
AcDb2dVertex
 10
8.2598439885
 20
7.9141157612
 30
0.0
  0
VERTEX
  5
597
330
2F7
100
AcDbEntity
  8
0
  6
CONTINUOUS
 62
     7
100
AcDbVertex
100
AcDb2dVertex
 10
8.2300375878
 20
7.9180153824
 30
0.0
  0
VERTEX
  5
598
330
2F7
100
AcDbEntity
  8
0
  6
CONTINUOUS
 62
     7
100
AcDbVertex
100
AcDb2dVertex
 10
8.199350851
 20
7.9196515468
 30
0.0
  0
VERTEX
  5
599
330
2F7
100
AcDbEntity
  8
0
  6
CONTINUOUS
 62
     7
100
AcDbVertex
100
AcDb2dVertex
 10
8.1678612272
 20
7.9190201249
 30
0.0
  0
VERTEX
  5
59A
330
2F7
100
AcDbEntity
  8
0
  6
CONTINUOUS
 62
     7
100
AcDbVertex
100
AcDb2dVertex
 10
8.1356481919
 20
7.9161227102
 30
0.0
  0
VERTEX
  5
59B
330
2F7
100
AcDbEntity
  8
0
  6
CONTINUOUS
 62
     7
100
AcDbVertex
100
AcDb2dVertex
 10
8.1027930463
 20
7.9109666155
 30
0.0
  0
VERTEX
  5
59C
330
2F7
100
AcDbEntity
  8
0
  6
CONTINUOUS
 62
     7
100
AcDbVertex
100
AcDb2dVertex
 10
8.0693787122
 20
7.9035648541
 30
0.0
  0
VERTEX
  5
59D
330
2F7
100
AcDbEntity
  8
0
  6
CONTINUOUS
 62
     7
100
AcDbVertex
100
AcDb2dVertex
 10
8.035489523
 20
7.8939361069
 30
0.0
  0
VERTEX
  5
59E
330
2F7
100
AcDbEntity
  8
0
  6
CONTINUOUS
 62
     7
100
AcDbVertex
100
AcDb2dVertex
 10
8.0012110102
 20
7.8821046756
 30
0.0
  0
VERTEX
  5
59F
330
2F7
100
AcDbEntity
  8
0
  6
CONTINUOUS
 62
     7
100
AcDbVertex
100
AcDb2dVertex
 10
7.966629688
 20
7.8681004212
 30
0.0
  0
VERTEX
  5
5A0
330
2F7
100
AcDbEntity
  8
0
  6
CONTINUOUS
 62
     7
100
AcDbVertex
100
AcDb2dVertex
 10
7.9318328351
 20
7.8519586883
 30
0.0
  0
VERTEX
  5
5A1
330
2F7
100
AcDbEntity
  8
0
  6
CONTINUOUS
 62
     7
100
AcDbVertex
100
AcDb2dVertex
 10
7.8969082737
 20
7.8337202166
 30
0.0
  0
VERTEX
  5
5A2
330
2F7
100
AcDbEntity
  8
0
  6
CONTINUOUS
 62
     7
100
AcDbVertex
100
AcDb2dVertex
 10
7.8619441488
 20
7.8134310374
 30
0.0
  0
VERTEX
  5
5A3
330
2F7
100
AcDbEntity
  8
0
  6
CONTINUOUS
 62
     7
100
AcDbVertex
100
AcDb2dVertex
 10
7.827028705
 20
7.7911423578
 30
0.0
  0
VERTEX
  5
5A4
330
2F7
100
AcDbEntity
  8
0
  6
CONTINUOUS
 62
     7
100
AcDbVertex
100
AcDb2dVertex
 10
7.792250064
 20
7.7669104314
 30
0.0
  0
VERTEX
  5
5A5
330
2F7
100
AcDbEntity
  8
0
  6
CONTINUOUS
 62
     7
100
AcDbVertex
100
AcDb2dVertex
 10
7.7576960023
 20
7.7407964163
 30
0.0
  0
VERTEX
  5
5A6
330
2F7
100
AcDbEntity
  8
0
  6
CONTINUOUS
 62
     7
100
AcDbVertex
100
AcDb2dVertex
 10
7.7234537296
 20
7.7128662205
 30
0.0
  0
VERTEX
  5
5A7
330
2F7
100
AcDbEntity
  8
0
  6
CONTINUOUS
 62
     7
100
AcDbVertex
100
AcDb2dVertex
 10
7.6896096688
 20
7.6831903361
 30
0.0
  0
VERTEX
  5
5A8
330
2F7
100
AcDbEntity
  8
0
  6
CONTINUOUS
 62
     7
100
AcDbVertex
100
AcDb2dVertex
 10
7.6562492376
 20
7.6518436609
 30
0.0
  0
VERTEX
  5
5A9
330
2F7
100
AcDbEntity
  8
0
  6
CONTINUOUS
 62
     7
100
AcDbVertex
100
AcDb2dVertex
 10
7.623456633
 20
7.6189053096
 30
0.0
  0
VERTEX
  5
5AA
330
2F7
100
AcDbEntity
  8
0
  6
CONTINUOUS
 62
     7
100
AcDbVertex
100
AcDb2dVertex
 10
7.5913146192
 20
7.5844584141
 30
0.0
  0
VERTEX
  5
5AB
330
2F7
100
AcDbEntity
  8
0
  6
CONTINUOUS
 62
     7
100
AcDbVertex
100
AcDb2dVertex
 10
7.5599043181
 20
7.5485899136
 30
0.0
  0
VERTEX
  5
5AC
330
2F7
100
AcDbEntity
  8
0
  6
CONTINUOUS
 62
     7
100
AcDbVertex
100
AcDb2dVertex
 10
7.529305005
 20
7.5113903353
 30
0.0
  0
VERTEX
  5
5AD
330
2F7
100
AcDbEntity
  8
0
  6
CONTINUOUS
 62
     7
100
AcDbVertex
100
AcDb2dVertex
 10
7.4995939084
 20
7.4729535657
 30
0.0
  0
VERTEX
  5
5AE
330
2F7
100
AcDbEntity
  8
0
  6
CONTINUOUS
 62
     7
100
AcDbVertex
100
AcDb2dVertex
 10
7.470846015
 20
7.433376614
 30
0.0
  0
VERTEX
  5
5AF
330
2F7
100
AcDbEntity
  8
0
  6
CONTINUOUS
 62
     7
100
AcDbVertex
100
AcDb2dVertex
 10
7.4431338805
 20
7.392759367
 30
0.0
  0
VERTEX
  5
5B0
330
2F7
100
AcDbEntity
  8
0
  6
CONTINUOUS
 62
     7
100
AcDbVertex
100
AcDb2dVertex
 10
7.4165274466
 20
7.351204337
 30
0.0
  0
VERTEX
  5
5B1
330
2F7
100
AcDbEntity
  8
0
  6
CONTINUOUS
 62
     7
100
AcDbVertex
100
AcDb2dVertex
 10
7.3910938641
 20
7.3088164031
 30
0.0
  0
VERTEX
  5
5B2
330
2F7
100
AcDbEntity
  8
0
  6
CONTINUOUS
 62
     7
100
AcDbVertex
100
AcDb2dVertex
 10
7.366897324
 20
7.2657025468
 30
0.0
  0
VERTEX
  5
5B3
330
2F7
100
AcDbEntity
  8
0
  6
CONTINUOUS
 62
     7
100
AcDbVertex
100
AcDb2dVertex
 10
7.343998895
 20
7.2219715814
 30
0.0
  0
VERTEX
  5
5B4
330
2F7
100
AcDbEntity
  8
0
  6
CONTINUOUS
 62
     7
100
AcDbVertex
100
AcDb2dVertex
 10
7.3224563696
 20
7.1777338779
 30
0.0
  0
VERTEX
  5
5B5
330
2F7
100
AcDbEntity
  8
0
  6
CONTINUOUS
 62
     7
100
AcDbVertex
100
AcDb2dVertex
 10
7.3023241182
 20
7.1331010861
 30
0.0
  0
VERTEX
  5
5B6
330
2F7
100
AcDbEntity
  8
0
  6
CONTINUOUS
 62
     7
100
AcDbVertex
100
AcDb2dVertex
 10
7.2836529517
 20
7.088185853
 30
0.0
  0
SEQEND
  5
5B7
330
2F7
100
AcDbEntity
  8
0
  6
CONTINUOUS
 62
     7
  0
ARC
  5
2F8
330
1F
100
AcDbEntity
  8
0
  6
CONTINUOUS
 62
     7
100
AcDbCircle
 10
7.5625816609
 20
6.466369309
 30
0.0
 40
0.3444382381662255
100
AcDbArc
 50
216.4470403818
 51
239.7661429279
  0
SPLINE
  5
2F9
330
1F
100
AcDbEntity
  8
0
  6
CONTINUOUS
 62
     7
100
AcDbSpline
210
0.0
220
0.0
230
1.0
 70
     8
 71
     3
 72
     8
 73
     4
 74
     0
 42
0.00000001
 43
0.00000001
 40
0.0
 40
0.0
 40
0.0
 40
0.0
 40
0.0001046527498261
 40
0.0001046527498261
 40
0.0001046527498261
 40
0.0001046527498261
 10
8.129881854202445
 20
7.155810174621658
 30
0.0
 10
8.130515451509602
 20
7.154594527499431
 30
0.0
 10
8.131148872220065
 20
7.153378806721312
 30
0.0
 10
8.131782114520812
 20
7.152163011790502
 30
0.0
  0
ARC
  5
2FA
330
1F
100
AcDbEntity
  8
0
  6
CONTINUOUS
 62
     7
100
AcDbCircle
 10
9.2669091194
 20
6.2171718991
 30
0.0
 40
1.470619494618358
100
AcDbArc
 50
140.522107528
 51
177.4763618099
  0
SPLINE
  5
2FB
330
1F
100
AcDbEntity
  8
0
  6
CONTINUOUS
 62
     7
100
AcDbSpline
210
0.0
220
0.0
230
1.0
 70
     8
 71
     3
 72
     8
 73
     4
 74
     0
 42
0.00000001
 43
0.00000001
 40
0.0
 40
0.0
 40
0.0
 40
0.0
 40
0.0006203966708995
 40
0.0006203966708995
 40
0.0006203966708995
 40
0.0006203966708995
 10
8.10909252425148
 20
7.167813245208718
 30
0.0
 10
8.116022664827181
 20
7.163812011738857
 30
0.0
 10
8.122952448633145
 20
7.159810984081627
 30
0.0
 10
8.129881854202445
 20
7.155810174621658
 30
0.0
  0
SPLINE
  5
2FC
330
1F
100
AcDbEntity
  8
0
  6
CONTINUOUS
 62
     7
100
AcDbSpline
210
0.0
220
0.0
230
1.0
 70
     8
 71
     3
 72
     8
 73
     4
 74
     0
 42
0.00000001
 43
0.00000001
 40
0.0
 40
0.0
 40
0.0
 40
0.0
 40
0.0005429959629505
 40
0.0005429959629505
 40
0.0005429959629505
 40
0.0005429959629505
 10
8.700427232650506
 20
7.651674403080408
 30
0.0
 10
8.699426038260649
 20
7.64647253429547
 30
0.0
 10
8.698405545788361
 20
7.641270185831399
 30
0.0
 10
8.697364781591371
 20
7.63606746331515
 30
0.0
  0
ARC
  5
2FD
330
1F
100
AcDbEntity
  8
0
  6
CONTINUOUS
 62
     7
100
AcDbCircle
 10
9.0103394583
 20
6.4519785166
 30
0.0
 40
1.266634515648477
100
AcDbArc
 50
121.1897680713
 51
142.3186879181
  0
SPLINE
  5
2FE
330
1F
100
AcDbEntity
  8
0
  6
CONTINUOUS
 62
     7
100
AcDbSpline
210
0.0
220
0.0
230
1.0
 70
     8
 71
     3
 72
     8
 73
     4
 74
     0
 42
0.00000001
 43
0.00000001
 40
0.0
 40
0.0
 40
0.0
 40
0.0
 40
0.0001046527498262
 40
0.0001046527498262
 40
0.0001046527498262
 40
0.0001046527498262
 10
7.280403952670917
 20
7.090059814409703
 30
0.0
 10
7.280506332456777
 20
7.09085045288171
 30
0.0
 10
7.280609040907746
 20
7.091641077193843
 30
0.0
 10
7.280712081173426
 20
7.09243168707106
 30
0.0
  0
ARC
  5
2FF
330
1F
100
AcDbEntity
  8
0
  6
CONTINUOUS
 62
     7
100
AcDbCircle
 10
8.6579437842
 20
6.5769110835
 30
0.0
 40
1.470553860484874
100
AcDbArc
 50
122.5283499751
 51
159.4782940819
  0
SPLINE
  5
300
330
1F
100
AcDbEntity
  8
0
  6
CONTINUOUS
 62
     7
100
AcDbSpline
210
0.0
220
0.0
230
1.0
 70
     8
 71
     3
 72
     8
 73
     4
 74
     0
 42
0.00000001
 43
0.00000001
 40
0.0
 40
0.0
 40
0.0
 40
0.0
 40
0.0006203966708995
 40
0.0006203966708995
 40
0.0006203966708995
 40
0.0006203966708995
 10
7.280403952670917
 20
7.090059814409703
 30
0.0
 10
7.281484967109421
 20
7.089436306830522
 30
0.0
 10
7.282568002235486
 20
7.088811632579126
 30
0.0
 10
7.283652951736233
 20
7.088185853036595
 30
0.0
  0
SPLINE
  5
301
330
1F
100
AcDbEntity
  8
0
  6
CONTINUOUS
 62
     7
100
AcDbSpline
210
0.0
220
0.0
230
1.0
 70
     8
 71
     3
 72
     8
 73
     4
 74
     0
 42
0.00000001
 43
0.00000001
 40
0.0
 40
0.0
 40
0.0
 40
0.0
 40
0.0006203966708995
 40
0.0006203966708995
 40
0.0006203966708995
 40
0.0006203966708995
 10
7.405678776109479
 20
7.017740198204936
 30
0.0
 10
7.406759790547983
 20
7.017116690625754
 30
0.0
 10
7.407842825674048
 20
7.016492016374358
 30
0.0
 10
7.408927775174795
 20
7.015866236831826
 30
0.0
  0
ARC
  5
302
330
1F
100
AcDbEntity
  8
0
  6
CONTINUOUS
 62
     7
100
AcDbCircle
 10
8.5770302969
 20
6.5369659287
 30
0.0
 40
1.266765271640752
100
AcDbArc
 50
157.6810140358
 51
178.8147727981
  0
LINE
  5
303
330
1F
100
AcDbEntity
  8
0
  6
CONTINUOUS
 62
     7
100
AcDbLine
 10
7.4056787761
 20
7.0177401982
 30
0.0
 11
7.2804039527
 21
7.0900598144
 31
0.0
  0
LINE
  5
304
330
1F
100
AcDbEntity
  8
0
  6
CONTINUOUS
 62
     7
100
AcDbLine
 10
8.8257020561
 20
7.5793547869
 30
0.0
 11
8.8247135793
 21
7.5743172869
 31
0.0
  0
LINE
  5
305
330
1F
100
AcDbEntity
  8
0
  6
CONTINUOUS
 62
     7
100
AcDbLine
 10
7.285513364
 20
6.2617456086
 30
0.0
 11
7.2836965889
 21
6.2684060887
 31
0.0
  0
LINE
  5
306
330
1F
100
AcDbEntity
  8
0
  6
CONTINUOUS
 62
     7
100
AcDbLine
 10
8.1158842436
 20
6.8445068119
 30
0.0
 11
8.1159775569
 21
6.8480054236
 31
0.0
  0
LINE
  5
307
330
1F
100
AcDbEntity
  8
0
  6
CONTINUOUS
 62
     7
100
AcDbLine
 10
8.393098474
 20
6.8989366864
 30
0.0
 11
8.2833194315
 21
6.9159177232
 31
0.0
  0
LINE
  5
308
330
1F
100
AcDbEntity
  8
0
  6
CONTINUOUS
 62
     7
100
AcDbLine
 10
8.2833194315
 20
6.9159177232
 30
0.0
 11
8.2029555948
 21
6.8695246678
 31
0.0
  0
LINE
  5
309
330
1F
100
AcDbEntity
  8
0
  6
CONTINUOUS
 62
     7
100
AcDbLine
 10
8.2029555948
 20
6.8695246678
 30
0.0
 11
8.2323708006
 21
6.8061505755
 31
0.0
  0
LINE
  5
30A
330
1F
100
AcDbEntity
  8
0
  6
CONTINUOUS
 62
     7
100
AcDbLine
 10
8.2323708006
 20
6.8061505755
 30
0.0
 11
8.342149843
 21
6.7891695387
 31
0.0
  0
LINE
  5
30B
330
1F
100
AcDbEntity
  8
0
  6
CONTINUOUS
 62
     7
100
AcDbLine
 10
8.342149843
 20
6.7891695387
 30
0.0
 11
8.4225136798
 21
6.8355625941
 31
0.0
  0
LINE
  5
30C
330
1F
100
AcDbEntity
  8
0
  6
CONTINUOUS
 62
     7
100
AcDbLine
 10
8.4225136798
 20
6.8355625941
 30
0.0
 11
8.393098474
 21
6.8989366864
 31
0.0
  0
LINE
  5
30D
330
1F
100
AcDbEntity
  8
0
  6
CONTINUOUS
 62
     7
100
AcDbLine
 10
8.393098474
 20
6.8185815573
 30
0.0
 11
8.393098474
 21
6.8989366864
 31
0.0
  0
LINE
  5
30E
330
1F
100
AcDbEntity
  8
0
  6
CONTINUOUS
 62
     7
100
AcDbLine
 10
8.2833194315
 20
6.7982696489
 30
0.0
 11
8.2833194315
 21
6.9159177232
 31
0.0
  0
POLYLINE
  5
30F
330
1F
100
AcDbEntity
  8
0
  6
CONTINUOUS
 62
     7
100
AcDb2dPolyline
 66
     1
 10
0.0
 20
0.0
 30
0.0
  0
VERTEX
  5
5B8
330
30F
100
AcDbEntity
  8
0
  6
CONTINUOUS
 62
     7
100
AcDbVertex
100
AcDb2dVertex
 10
8.3663095426
 20
7.8775355731
 30
0.0
  0
VERTEX
  5
5B9
330
30F
100
AcDbEntity
  8
0
  6
CONTINUOUS
 62
     7
100
AcDbVertex
100
AcDb2dVertex
 10
8.3625713702
 20
7.8797834477
 30
0.0
  0
VERTEX
  5
5BA
330
30F
100
AcDbEntity
  8
0
  6
CONTINUOUS
 62
     7
100
AcDbVertex
100
AcDb2dVertex
 10
8.3369580528
 20
7.8934625043
 30
0.0
  0
VERTEX
  5
5BB
330
30F
100
AcDbEntity
  8
0
  6
CONTINUOUS
 62
     7
100
AcDbVertex
100
AcDb2dVertex
 10
8.3101194852
 20
7.9048868724
 30
0.0
  0
VERTEX
  5
5BC
330
30F
100
AcDbEntity
  8
0
  6
CONTINUOUS
 62
     7
100
AcDbVertex
100
AcDb2dVertex
 10
8.2821256861
 20
7.9140267472
 30
0.0
  0
VERTEX
  5
5BD
330
30F
100
AcDbEntity
  8
0
  6
CONTINUOUS
 62
     7
100
AcDbVertex
100
AcDb2dVertex
 10
8.2530496882
 20
7.9208582838
 30
0.0
  0
VERTEX
  5
5BE
330
30F
100
AcDbEntity
  8
0
  6
CONTINUOUS
 62
     7
100
AcDbVertex
100
AcDb2dVertex
 10
8.2229673475
 20
7.9253636594
 30
0.0
  0
VERTEX
  5
5BF
330
30F
100
AcDbEntity
  8
0
  6
CONTINUOUS
 62
     7
100
AcDbVertex
100
AcDb2dVertex
 10
8.1919571453
 20
7.9275311201
 30
0.0
  0
VERTEX
  5
5C0
330
30F
100
AcDbEntity
  8
0
  6
CONTINUOUS
 62
     7
100
AcDbVertex
100
AcDb2dVertex
 10
8.1600999837
 20
7.9273550113
 30
0.0
  0
VERTEX
  5
5C1
330
30F
100
AcDbEntity
  8
0
  6
CONTINUOUS
 62
     7
100
AcDbVertex
100
AcDb2dVertex
 10
8.1274789743
 20
7.9248357923
 30
0.0
  0
VERTEX
  5
5C2
330
30F
100
AcDbEntity
  8
0
  6
CONTINUOUS
 62
     7
100
AcDbVertex
100
AcDb2dVertex
 10
8.0941792218
 20
7.9199800355
 30
0.0
  0
VERTEX
  5
5C3
330
30F
100
AcDbEntity
  8
0
  6
CONTINUOUS
 62
     7
100
AcDbVertex
100
AcDb2dVertex
 10
8.0602876013
 20
7.912800409
 30
0.0
  0
VERTEX
  5
5C4
330
30F
100
AcDbEntity
  8
0
  6
CONTINUOUS
 62
     7
100
AcDbVertex
100
AcDb2dVertex
 10
8.0258925322
 20
7.9033156437
 30
0.0
  0
VERTEX
  5
5C5
330
30F
100
AcDbEntity
  8
0
  6
CONTINUOUS
 62
     7
100
AcDbVertex
100
AcDb2dVertex
 10
7.9910837474
 20
7.8915504843
 30
0.0
  0
VERTEX
  5
5C6
330
30F
100
AcDbEntity
  8
0
  6
CONTINUOUS
 62
     7
100
AcDbVertex
100
AcDb2dVertex
 10
7.9559520589
 20
7.8775356246
 30
0.0
  0
VERTEX
  5
5C7
330
30F
100
AcDbEntity
  8
0
  6
CONTINUOUS
 62
     7
100
AcDbVertex
100
AcDb2dVertex
 10
7.9205891213
 20
7.8613076279
 30
0.0
  0
VERTEX
  5
5C8
330
30F
100
AcDbEntity
  8
0
  6
CONTINUOUS
 62
     7
100
AcDbVertex
100
AcDb2dVertex
 10
7.8850871926
 20
7.8429088311
 30
0.0
  0
VERTEX
  5
5C9
330
30F
100
AcDbEntity
  8
0
  6
CONTINUOUS
 62
     7
100
AcDbVertex
100
AcDb2dVertex
 10
7.8495388931
 20
7.8223872346
 30
0.0
  0
VERTEX
  5
5CA
330
30F
100
AcDbEntity
  8
0
  6
CONTINUOUS
 62
     7
100
AcDbVertex
100
AcDb2dVertex
 10
7.8140369643
 20
7.7997963769
 30
0.0
  0
VERTEX
  5
5CB
330
30F
100
AcDbEntity
  8
0
  6
CONTINUOUS
 62
     7
100
AcDbVertex
100
AcDb2dVertex
 10
7.7786740267
 20
7.775195195
 30
0.0
  0
VERTEX
  5
5CC
330
30F
100
AcDbEntity
  8
0
  6
CONTINUOUS
 62
     7
100
AcDbVertex
100
AcDb2dVertex
 10
7.7435423382
 20
7.7486478705
 30
0.0
  0
VERTEX
  5
5CD
330
30F
100
AcDbEntity
  8
0
  6
CONTINUOUS
 62
     7
100
AcDbVertex
100
AcDb2dVertex
 10
7.7087335534
 20
7.7202236625
 30
0.0
  0
VERTEX
  5
5CE
330
30F
100
AcDbEntity
  8
0
  6
CONTINUOUS
 62
     7
100
AcDbVertex
100
AcDb2dVertex
 10
7.6743384843
 20
7.6899967263
 30
0.0
  0
VERTEX
  5
5CF
330
30F
100
AcDbEntity
  8
0
  6
CONTINUOUS
 62
     7
100
AcDbVertex
100
AcDb2dVertex
 10
7.6404468638
 20
7.6580459207
 30
0.0
  0
VERTEX
  5
5D0
330
30F
100
AcDbEntity
  8
0
  6
CONTINUOUS
 62
     7
100
AcDbVertex
100
AcDb2dVertex
 10
7.6071471113
 20
7.6244546015
 30
0.0
  0
VERTEX
  5
5D1
330
30F
100
AcDbEntity
  8
0
  6
CONTINUOUS
 62
     7
100
AcDbVertex
100
AcDb2dVertex
 10
7.574526102
 20
7.5893104049
 30
0.0
  0
VERTEX
  5
5D2
330
30F
100
AcDbEntity
  8
0
  6
CONTINUOUS
 62
     7
100
AcDbVertex
100
AcDb2dVertex
 10
7.5426689404
 20
7.5527050178
 30
0.0
  0
VERTEX
  5
5D3
330
30F
100
AcDbEntity
  8
0
  6
CONTINUOUS
 62
     7
100
AcDbVertex
100
AcDb2dVertex
 10
7.5116587381
 20
7.5147339397
 30
0.0
  0
VERTEX
  5
5D4
330
30F
100
AcDbEntity
  8
0
  6
CONTINUOUS
 62
     7
100
AcDbVertex
100
AcDb2dVertex
 10
7.4815763974
 20
7.4754962328
 30
0.0
  0
VERTEX
  5
5D5
330
30F
100
AcDbEntity
  8
0
  6
CONTINUOUS
 62
     7
100
AcDbVertex
100
AcDb2dVertex
 10
7.4525003995
 20
7.4350942636
 30
0.0
  0
VERTEX
  5
5D6
330
30F
100
AcDbEntity
  8
0
  6
CONTINUOUS
 62
     7
100
AcDbVertex
100
AcDb2dVertex
 10
7.4245066004
 20
7.3936334364
 30
0.0
  0
VERTEX
  5
5D7
330
30F
100
AcDbEntity
  8
0
  6
CONTINUOUS
 62
     7
100
AcDbVertex
100
AcDb2dVertex
 10
7.3976680328
 20
7.3512219177
 30
0.0
  0
VERTEX
  5
5D8
330
30F
100
AcDbEntity
  8
0
  6
CONTINUOUS
 62
     7
100
AcDbVertex
100
AcDb2dVertex
 10
7.3720547154
 20
7.3079703543
 30
0.0
  0
VERTEX
  5
5D9
330
30F
100
AcDbEntity
  8
0
  6
CONTINUOUS
 62
     7
100
AcDbVertex
100
AcDb2dVertex
 10
7.3477334705
 20
7.2639915846
 30
0.0
  0
VERTEX
  5
5DA
330
30F
100
AcDbEntity
  8
0
  6
CONTINUOUS
 62
     7
100
AcDbVertex
100
AcDb2dVertex
 10
7.3247677493
 20
7.2194003442
 30
0.0
  0
VERTEX
  5
5DB
330
30F
100
AcDbEntity
  8
0
  6
CONTINUOUS
 62
     7
100
AcDbVertex
100
AcDb2dVertex
 10
7.3032174668
 20
7.1743129666
 30
0.0
  0
VERTEX
  5
5DC
330
30F
100
AcDbEntity
  8
0
  6
CONTINUOUS
 62
     7
100
AcDbVertex
100
AcDb2dVertex
 10
7.2831388453
 20
7.1288470796
 30
0.0
  0
VERTEX
  5
5DD
330
30F
100
AcDbEntity
  8
0
  6
CONTINUOUS
 62
     7
100
AcDbVertex
100
AcDb2dVertex
 10
7.2645842675
 20
7.0831212984
 30
0.0
  0
SEQEND
  5
5DE
330
30F
100
AcDbEntity
  8
0
  6
CONTINUOUS
 62
     7
  0
LINE
  5
310
330
1F
100
AcDbEntity
  8
0
  6
CONTINUOUS
 62
     7
100
AcDbLine
 10
7.2645842675
 20
7.0831212984
 30
0.0
 11
7.3759396661
 21
7.0188371951
 31
0.0
  0
POLYLINE
  5
311
330
1F
100
AcDbEntity
  8
0
  6
CONTINUOUS
 62
     7
100
AcDb2dPolyline
 66
     1
 10
0.0
 20
0.0
 30
0.0
  0
VERTEX
  5
5DF
330
311
100
AcDbEntity
  8
0
  6
CONTINUOUS
 62
     7
100
AcDbVertex
100
AcDb2dVertex
 10
7.3759396661
 20
7.0188371951
 30
0.0
  0
VERTEX
  5
5E0
330
311
100
AcDbEntity
  8
0
  6
CONTINUOUS
 62
     7
100
AcDbVertex
100
AcDb2dVertex
 10
7.3585535248
 20
6.9718233867
 30
0.0
  0
VERTEX
  5
5E1
330
311
100
AcDbEntity
  8
0
  6
CONTINUOUS
 62
     7
100
AcDbVertex
100
AcDb2dVertex
 10
7.3428670753
 20
6.9247907228
 30
0.0
  0
VERTEX
  5
5E2
330
311
100
AcDbEntity
  8
0
  6
CONTINUOUS
 62
     7
100
AcDbVertex
100
AcDb2dVertex
 10
7.3289233131
 20
6.8778681167
 30
0.0
  0
VERTEX
  5
5E3
330
311
100
AcDbEntity
  8
0
  6
CONTINUOUS
 62
     7
100
AcDbVertex
100
AcDb2dVertex
 10
7.3167604572
 20
6.8311841799
 30
0.0
  0
VERTEX
  5
5E4
330
311
100
AcDbEntity
  8
0
  6
CONTINUOUS
 62
     7
100
AcDbVertex
100
AcDb2dVertex
 10
7.3064118451
 20
6.78486687
 30
0.0
  0
VERTEX
  5
5E5
330
311
100
AcDbEntity
  8
0
  6
CONTINUOUS
 62
     7
100
AcDbVertex
100
AcDb2dVertex
 10
7.2979058415
 20
6.7390431394
 30
0.0
  0
VERTEX
  5
5E6
330
311
100
AcDbEntity
  8
0
  6
CONTINUOUS
 62
     7
100
AcDbVertex
100
AcDb2dVertex
 10
7.291265761
 20
6.6938385877
 30
0.0
  0
VERTEX
  5
5E7
330
311
100
AcDbEntity
  8
0
  6
CONTINUOUS
 62
     7
100
AcDbVertex
100
AcDb2dVertex
 10
7.2865098034
 20
6.6493771177
 30
0.0
  0
VERTEX
  5
5E8
330
311
100
AcDbEntity
  8
0
  6
CONTINUOUS
 62
     7
100
AcDbVertex
100
AcDb2dVertex
 10
7.2836510045
 20
6.6057805949
 30
0.0
  0
VERTEX
  5
5E9
330
311
100
AcDbEntity
  8
0
  6
CONTINUOUS
 62
     7
100
AcDbVertex
100
AcDb2dVertex
 10
7.2826972001
 20
6.5631685145
 30
0.0
  0
VERTEX
  5
5EA
330
311
100
AcDbEntity
  8
0
  6
CONTINUOUS
 62
     7
100
AcDbVertex
100
AcDb2dVertex
 10
7.2836510045
 20
6.5216576732
 30
0.0
  0
VERTEX
  5
5EB
330
311
100
AcDbEntity
  8
0
  6
CONTINUOUS
 62
     7
100
AcDbVertex
100
AcDb2dVertex
 10
7.2865098034
 20
6.4813618494
 30
0.0
  0
VERTEX
  5
5EC
330
311
100
AcDbEntity
  8
0
  6
CONTINUOUS
 62
     7
100
AcDbVertex
100
AcDb2dVertex
 10
7.291265761
 20
6.4423914911
 30
0.0
  0
VERTEX
  5
5ED
330
311
100
AcDbEntity
  8
0
  6
CONTINUOUS
 62
     7
100
AcDbVertex
100
AcDb2dVertex
 10
7.2979058415
 20
6.4048534133
 30
0.0
  0
VERTEX
  5
5EE
330
311
100
AcDbEntity
  8
0
  6
CONTINUOUS
 62
     7
100
AcDbVertex
100
AcDb2dVertex
 10
7.3064118451
 20
6.3688505054
 30
0.0
  0
VERTEX
  5
5EF
330
311
100
AcDbEntity
  8
0
  6
CONTINUOUS
 62
     7
100
AcDbVertex
100
AcDb2dVertex
 10
7.3167604572
 20
6.3344814487
 30
0.0
  0
VERTEX
  5
5F0
330
311
100
AcDbEntity
  8
0
  6
CONTINUOUS
 62
     7
100
AcDbVertex
100
AcDb2dVertex
 10
7.3289233131
 20
6.3018404464
 30
0.0
  0
VERTEX
  5
5F1
330
311
100
AcDbEntity
  8
0
  6
CONTINUOUS
 62
     7
100
AcDbVertex
100
AcDb2dVertex
 10
7.3428670753
 20
6.2710169654
 30
0.0
  0
VERTEX
  5
5F2
330
311
100
AcDbEntity
  8
0
  6
CONTINUOUS
 62
     7
100
AcDbVertex
100
AcDb2dVertex
 10
7.3585535248
 20
6.2420954906
 30
0.0
  0
VERTEX
  5
5F3
330
311
100
AcDbEntity
  8
0
  6
CONTINUOUS
 62
     7
100
AcDbVertex
100
AcDb2dVertex
 10
7.3759396661
 20
6.2151552937
 30
0.0
  0
SEQEND
  5
5F4
330
311
100
AcDbEntity
  8
0
  6
CONTINUOUS
 62
     7
  0
LINE
  5
312
330
1F
100
AcDbEntity
  8
0
  6
CONTINUOUS
 62
     7
100
AcDbLine
 10
7.3759396661
 20
6.2151552937
 30
0.0
 11
7.2506648427
 21
6.2874749099
 31
0.0
  0
ARC
  5
313
330
1F
100
AcDbEntity
  8
0
  6
CONTINUOUS
 62
     7
100
AcDbCircle
 10
7.5350169214
 20
6.4833511678
 30
0.0
 40
0.3452877250038682
100
AcDbArc
 50
214.5610584464
 51
242.4706444114
  0
POLYLINE
  5
314
330
1F
100
AcDbEntity
  8
0
  6
CONTINUOUS
 62
     7
100
AcDb2dPolyline
 66
     1
 10
0.0
 20
0.0
 30
0.0
  0
VERTEX
  5
5F5
330
314
100
AcDbEntity
  8
0
  6
CONTINUOUS
 62
     7
100
AcDbVertex
100
AcDb2dVertex
 10
7.1365432394
 20
6.9047143841
 30
0.0
  0
VERTEX
  5
5F6
330
314
100
AcDbEntity
  8
0
  6
CONTINUOUS
 62
     7
100
AcDbVertex
100
AcDb2dVertex
 10
7.1276186943
 20
6.8606234659
 30
0.0
  0
VERTEX
  5
5F7
330
314
100
AcDbEntity
  8
0
  6
CONTINUOUS
 62
     7
100
AcDbVertex
100
AcDb2dVertex
 10
7.1203948457
 20
6.8170468951
 30
0.0
  0
VERTEX
  5
5F8
330
314
100
AcDbEntity
  8
0
  6
CONTINUOUS
 62
     7
100
AcDbVertex
100
AcDb2dVertex
 10
7.1148898393
 20
6.7740941315
 30
0.0
  0
VERTEX
  5
5F9
330
314
100
AcDbEntity
  8
0
  6
CONTINUOUS
 62
     7
100
AcDbVertex
100
AcDb2dVertex
 10
7.1111175031
 20
6.7318730679
 30
0.0
  0
VERTEX
  5
5FA
330
314
100
AcDbEntity
  8
0
  6
CONTINUOUS
 62
     7
100
AcDbVertex
100
AcDb2dVertex
 10
7.1090873127
 20
6.6904897594
 30
0.0
  0
VERTEX
  5
5FB
330
314
100
AcDbEntity
  8
0
  6
CONTINUOUS
 62
     7
100
AcDbVertex
100
AcDb2dVertex
 10
7.1088043679
 20
6.6500481564
 30
0.0
  0
VERTEX
  5
5FC
330
314
100
AcDbEntity
  8
0
  6
CONTINUOUS
 62
     7
100
AcDbVertex
100
AcDb2dVertex
 10
7.1102693793
 20
6.6106498441
 30
0.0
  0
VERTEX
  5
5FD
330
314
100
AcDbEntity
  8
0
  6
CONTINUOUS
 62
     7
100
AcDbVertex
100
AcDb2dVertex
 10
7.113478667
 20
6.572393787
 30
0.0
  0
VERTEX
  5
5FE
330
314
100
AcDbEntity
  8
0
  6
CONTINUOUS
 62
     7
100
AcDbVertex
100
AcDb2dVertex
 10
7.1184241696
 20
6.5353760802
 30
0.0
  0
VERTEX
  5
5FF
330
314
100
AcDbEntity
  8
0
  6
CONTINUOUS
 62
     7
100
AcDbVertex
100
AcDb2dVertex
 10
7.1250934645
 20
6.4996897084
 30
0.0
  0
VERTEX
  5
600
330
314
100
AcDbEntity
  8
0
  6
CONTINUOUS
 62
     7
100
AcDbVertex
100
AcDb2dVertex
 10
7.1334697991
 20
6.465424312
 30
0.0
  0
VERTEX
  5
601
330
314
100
AcDbEntity
  8
0
  6
CONTINUOUS
 62
     7
100
AcDbVertex
100
AcDb2dVertex
 10
7.1435321329
 20
6.4326659623
 30
0.0
  0
VERTEX
  5
602
330
314
100
AcDbEntity
  8
0
  6
CONTINUOUS
 62
     7
100
AcDbVertex
100
AcDb2dVertex
 10
7.1552551905
 20
6.4014969446
 30
0.0
  0
VERTEX
  5
603
330
314
100
AcDbEntity
  8
0
  6
CONTINUOUS
 62
     7
100
AcDbVertex
100
AcDb2dVertex
 10
7.1686095247
 20
6.3719955525
 30
0.0
  0
VERTEX
  5
604
330
314
100
AcDbEntity
  8
0
  6
CONTINUOUS
 62
     7
100
AcDbVertex
100
AcDb2dVertex
 10
7.1835615907
 20
6.3442358902
 30
0.0
  0
VERTEX
  5
605
330
314
100
AcDbEntity
  8
0
  6
CONTINUOUS
 62
     7
100
AcDbVertex
100
AcDb2dVertex
 10
7.2000738307
 20
6.3182876872
 30
0.0
  0
VERTEX
  5
606
330
314
100
AcDbEntity
  8
0
  6
CONTINUOUS
 62
     7
100
AcDbVertex
100
AcDb2dVertex
 10
7.2181047675
 20
6.2942161227
 30
0.0
  0
VERTEX
  5
607
330
314
100
AcDbEntity
  8
0
  6
CONTINUOUS
 62
     7
100
AcDbVertex
100
AcDb2dVertex
 10
7.2376091093
 20
6.2720816618
 30
0.0
  0
VERTEX
  5
608
330
314
100
AcDbEntity
  8
0
  6
CONTINUOUS
 62
     7
100
AcDbVertex
100
AcDb2dVertex
 10
7.2585378632
 20
6.2519399042
 30
0.0
  0
VERTEX
  5
609
330
314
100
AcDbEntity
  8
0
  6
CONTINUOUS
 62
     7
100
AcDbVertex
100
AcDb2dVertex
 10
7.2808384584
 20
6.2338414438
 30
0.0
  0
VERTEX
  5
60A
330
314
100
AcDbEntity
  8
0
  6
CONTINUOUS
 62
     7
100
AcDbVertex
100
AcDb2dVertex
 10
7.3044548781
 20
6.2178317421
 30
0.0
  0
VERTEX
  5
60B
330
314
100
AcDbEntity
  8
0
  6
CONTINUOUS
 62
     7
100
AcDbVertex
100
AcDb2dVertex
 10
7.3125896406
 20
6.2129777739
 30
0.0
  0
SEQEND
  5
60C
330
314
100
AcDbEntity
  8
0
  6
CONTINUOUS
 62
     7
  0
LINE
  5
315
330
1F
100
AcDbEntity
  8
0
  6
CONTINUOUS
 62
     7
100
AcDbLine
 10
7.1365432394
 20
6.9047143841
 30
0.0
 11
7.1226238146
 21
6.9127498971
 31
0.0
  0
POLYLINE
  5
316
330
1F
100
AcDbEntity
  8
0
  6
CONTINUOUS
 62
     7
100
AcDb2dPolyline
 66
     1
 10
0.0
 20
0.0
 30
0.0
  0
VERTEX
  5
60D
330
316
100
AcDbEntity
  8
0
  6
CONTINUOUS
 62
     7
100
AcDbVertex
100
AcDb2dVertex
 10
7.1226238146
 20
6.9127498971
 30
0.0
  0
VERTEX
  5
60E
330
316
100
AcDbEntity
  8
0
  6
CONTINUOUS
 62
     7
100
AcDbVertex
100
AcDb2dVertex
 10
7.1135200779
 20
6.867684016
 30
0.0
  0
VERTEX
  5
60F
330
316
100
AcDbEntity
  8
0
  6
CONTINUOUS
 62
     7
100
AcDbVertex
100
AcDb2dVertex
 10
7.1061939653
 20
6.8231581647
 30
0.0
  0
VERTEX
  5
610
330
316
100
AcDbEntity
  8
0
  6
CONTINUOUS
 62
     7
100
AcDbVertex
100
AcDb2dVertex
 10
7.1006647065
 20
6.7792892155
 30
0.0
  0
VERTEX
  5
611
330
316
100
AcDbEntity
  8
0
  6
CONTINUOUS
 62
     7
100
AcDbVertex
100
AcDb2dVertex
 10
7.0969468149
 20
6.7361923165
 30
0.0
  0
VERTEX
  5
612
330
316
100
AcDbEntity
  8
0
  6
CONTINUOUS
 62
     7
100
AcDbVertex
100
AcDb2dVertex
 10
7.0950500492
 20
6.6939805895
 30
0.0
  0
VERTEX
  5
613
330
316
100
AcDbEntity
  8
0
  6
CONTINUOUS
 62
     7
100
AcDbVertex
100
AcDb2dVertex
 10
7.0949793881
 20
6.6527648327
 30
0.0
  0
VERTEX
  5
614
330
316
100
AcDbEntity
  8
0
  6
CONTINUOUS
 62
     7
100
AcDbVertex
100
AcDb2dVertex
 10
7.0967350171
 20
6.6126532301
 30
0.0
  0
VERTEX
  5
615
330
316
100
AcDbEntity
  8
0
  6
CONTINUOUS
 62
     7
100
AcDbVertex
100
AcDb2dVertex
 10
7.1003123279
 20
6.5737510676
 30
0.0
  0
VERTEX
  5
616
330
316
100
AcDbEntity
  8
0
  6
CONTINUOUS
 62
     7
100
AcDbVertex
100
AcDb2dVertex
 10
7.1057019309
 20
6.5361604563
 30
0.0
  0
VERTEX
  5
617
330
316
100
AcDbEntity
  8
0
  6
CONTINUOUS
 62
     7
100
AcDbVertex
100
AcDb2dVertex
 10
7.1128896791
 20
6.4999800649
 30
0.0
  0
VERTEX
  5
618
330
316
100
AcDbEntity
  8
0
  6
CONTINUOUS
 62
     7
100
AcDbVertex
100
AcDb2dVertex
 10
7.1218567062
 20
6.4653048605
 30
0.0
  0
VERTEX
  5
619
330
316
100
AcDbEntity
  8
0
  6
CONTINUOUS
 62
     7
100
AcDbVertex
100
AcDb2dVertex
 10
7.1325794751
 20
6.4322258593
 30
0.0
  0
VERTEX
  5
61A
330
316
100
AcDbEntity
  8
0
  6
CONTINUOUS
 62
     7
100
AcDbVertex
100
AcDb2dVertex
 10
7.1450298406
 20
6.4008298878
 30
0.0
  0
VERTEX
  5
61B
330
316
100
AcDbEntity
  8
0
  6
CONTINUOUS
 62
     7
100
AcDbVertex
100
AcDb2dVertex
 10
7.1591751227
 20
6.3711993549
 30
0.0
  0
VERTEX
  5
61C
330
316
100
AcDbEntity
  8
0
  6
CONTINUOUS
 62
     7
100
AcDbVertex
100
AcDb2dVertex
 10
7.1749781925
 20
6.3434120353
 30
0.0
  0
VERTEX
  5
61D
330
316
100
AcDbEntity
  8
0
  6
CONTINUOUS
 62
     7
100
AcDbVertex
100
AcDb2dVertex
 10
7.1923975698
 20
6.3175408659
 30
0.0
  0
VERTEX
  5
61E
330
316
100
AcDbEntity
  8
0
  6
CONTINUOUS
 62
     7
100
AcDbVertex
100
AcDb2dVertex
 10
7.2113875318
 20
6.2936537538
 30
0.0
  0
VERTEX
  5
61F
330
316
100
AcDbEntity
  8
0
  6
CONTINUOUS
 62
     7
100
AcDbVertex
100
AcDb2dVertex
 10
7.2318982333
 20
6.2718133985
 30
0.0
  0
VERTEX
  5
620
330
316
100
AcDbEntity
  8
0
  6
CONTINUOUS
 62
     7
100
AcDbVertex
100
AcDb2dVertex
 10
7.2538758373
 20
6.2520771271
 30
0.0
  0
VERTEX
  5
621
330
316
100
AcDbEntity
  8
0
  6
CONTINUOUS
 62
     7
100
AcDbVertex
100
AcDb2dVertex
 10
7.2772626566
 20
6.2344967436
 30
0.0
  0
VERTEX
  5
622
330
316
100
AcDbEntity
  8
0
  6
CONTINUOUS
 62
     7
100
AcDbVertex
100
AcDb2dVertex
 10
7.3019973049
 20
6.2191183935
 30
0.0
  0
VERTEX
  5
623
330
316
100
AcDbEntity
  8
0
  6
CONTINUOUS
 62
     7
100
AcDbVertex
100
AcDb2dVertex
 10
7.3056791313
 20
6.2170807618
 30
0.0
  0
SEQEND
  5
624
330
316
100
AcDbEntity
  8
0
  6
CONTINUOUS
 62
     7
  0
POLYLINE
  5
317
330
1F
100
AcDbEntity
  8
0
  6
CONTINUOUS
 62
     7
100
AcDb2dPolyline
 66
     1
 10
0.0
 20
0.0
 30
0.0
  0
VERTEX
  5
625
330
317
100
AcDbEntity
  8
0
  6
CONTINUOUS
 62
     7
100
AcDbVertex
100
AcDb2dVertex
 10
6.8880471834
 20
6.4580609177
 30
0.0
  0
VERTEX
  5
626
330
317
100
AcDbEntity
  8
0
  6
CONTINUOUS
 62
     7
100
AcDbVertex
100
AcDb2dVertex
 10
6.8752409013
 20
6.4658489753
 30
0.0
  0
VERTEX
  5
627
330
317
100
AcDbEntity
  8
0
  6
CONTINUOUS
 62
     7
100
AcDbVertex
100
AcDb2dVertex
 10
6.8518830852
 20
6.4822598369
 30
0.0
  0
VERTEX
  5
628
330
317
100
AcDbEntity
  8
0
  6
CONTINUOUS
 62
     7
100
AcDbVertex
100
AcDb2dVertex
 10
6.8298511947
 20
6.5007495372
 30
0.0
  0
VERTEX
  5
629
330
317
100
AcDbEntity
  8
0
  6
CONTINUOUS
 62
     7
100
AcDbVertex
100
AcDb2dVertex
 10
6.8092005306
 20
6.5212716664
 30
0.0
  0
VERTEX
  5
62A
330
317
100
AcDbEntity
  8
0
  6
CONTINUOUS
 62
     7
100
AcDbVertex
100
AcDb2dVertex
 10
6.7899829269
 20
6.5437747132
 30
0.0
  0
VERTEX
  5
62B
330
317
100
AcDbEntity
  8
0
  6
CONTINUOUS
 62
     7
100
AcDbVertex
100
AcDb2dVertex
 10
6.7722466202
 20
6.5682021942
 30
0.0
  0
VERTEX
  5
62C
330
317
100
AcDbEntity
  8
0
  6
CONTINUOUS
 62
     7
100
AcDbVertex
100
AcDb2dVertex
 10
6.7560361295
 20
6.5944927956
 30
0.0
  0
VERTEX
  5
62D
330
317
100
AcDbEntity
  8
0
  6
CONTINUOUS
 62
     7
100
AcDbVertex
100
AcDb2dVertex
 10
6.7413921434
 20
6.6225805271
 30
0.0
  0
VERTEX
  5
62E
330
317
100
AcDbEntity
  8
0
  6
CONTINUOUS
 62
     7
100
AcDbVertex
100
AcDb2dVertex
 10
6.728351419
 20
6.6523948876
 30
0.0
  0
VERTEX
  5
62F
330
317
100
AcDbEntity
  8
0
  6
CONTINUOUS
 62
     7
100
AcDbVertex
100
AcDb2dVertex
 10
6.716946689
 20
6.6838610419
 30
0.0
  0
VERTEX
  5
630
330
317
100
AcDbEntity
  8
0
  6
CONTINUOUS
 62
     7
100
AcDbVertex
100
AcDb2dVertex
 10
6.7072065795
 20
6.7169000091
 30
0.0
  0
VERTEX
  5
631
330
317
100
AcDbEntity
  8
0
  6
CONTINUOUS
 62
     7
100
AcDbVertex
100
AcDb2dVertex
 10
6.6991555385
 20
6.7514288601
 30
0.0
  0
VERTEX
  5
632
330
317
100
AcDbEntity
  8
0
  6
CONTINUOUS
 62
     7
100
AcDbVertex
100
AcDb2dVertex
 10
6.6928137745
 20
6.7873609264
 30
0.0
  0
VERTEX
  5
633
330
317
100
AcDbEntity
  8
0
  6
CONTINUOUS
 62
     7
100
AcDbVertex
100
AcDb2dVertex
 10
6.6881972055
 20
6.8246060172
 30
0.0
  0
VERTEX
  5
634
330
317
100
AcDbEntity
  8
0
  6
CONTINUOUS
 62
     7
100
AcDbVertex
100
AcDb2dVertex
 10
6.6853174193
 20
6.8630706462
 30
0.0
  0
VERTEX
  5
635
330
317
100
AcDbEntity
  8
0
  6
CONTINUOUS
 62
     7
100
AcDbVertex
100
AcDb2dVertex
 10
6.6841816441
 20
6.9026582657
 30
0.0
  0
VERTEX
  5
636
330
317
100
AcDbEntity
  8
0
  6
CONTINUOUS
 62
     7
100
AcDbVertex
100
AcDb2dVertex
 10
6.6847927309
 20
6.9432695096
 30
0.0
  0
VERTEX
  5
637
330
317
100
AcDbEntity
  8
0
  6
CONTINUOUS
 62
     7
100
AcDbVertex
100
AcDb2dVertex
 10
6.6871491458
 20
6.9848024422
 30
0.0
  0
VERTEX
  5
638
330
317
100
AcDbEntity
  8
0
  6
CONTINUOUS
 62
     7
100
AcDbVertex
100
AcDb2dVertex
 10
6.6912449741
 20
7.0271528145
 30
0.0
  0
VERTEX
  5
639
330
317
100
AcDbEntity
  8
0
  6
CONTINUOUS
 62
     7
100
AcDbVertex
100
AcDb2dVertex
 10
6.6970699351
 20
7.0702143256
 30
0.0
  0
VERTEX
  5
63A
330
317
100
AcDbEntity
  8
0
  6
CONTINUOUS
 62
     7
100
AcDbVertex
100
AcDb2dVertex
 10
6.704609408
 20
7.1138788896
 30
0.0
  0
VERTEX
  5
63B
330
317
100
AcDbEntity
  8
0
  6
CONTINUOUS
 62
     7
100
AcDbVertex
100
AcDb2dVertex
 10
6.7138444685
 20
7.158036907
 30
0.0
  0
VERTEX
  5
63C
330
317
100
AcDbEntity
  8
0
  6
CONTINUOUS
 62
     7
100
AcDbVertex
100
AcDb2dVertex
 10
6.7247519362
 20
7.2025775397
 30
0.0
  0
VERTEX
  5
63D
330
317
100
AcDbEntity
  8
0
  6
CONTINUOUS
 62
     7
100
AcDbVertex
100
AcDb2dVertex
 10
6.737304433
 20
7.2473889892
 30
0.0
  0
VERTEX
  5
63E
330
317
100
AcDbEntity
  8
0
  6
CONTINUOUS
 62
     7
100
AcDbVertex
100
AcDb2dVertex
 10
6.7514704518
 20
7.2923587772
 30
0.0
  0
VERTEX
  5
63F
330
317
100
AcDbEntity
  8
0
  6
CONTINUOUS
 62
     7
100
AcDbVertex
100
AcDb2dVertex
 10
6.7672144353
 20
7.337374028
 30
0.0
  0
VERTEX
  5
640
330
317
100
AcDbEntity
  8
0
  6
CONTINUOUS
 62
     7
100
AcDbVertex
100
AcDb2dVertex
 10
6.7844968657
 20
7.3823217519
 30
0.0
  0
VERTEX
  5
641
330
317
100
AcDbEntity
  8
0
  6
CONTINUOUS
 62
     7
100
AcDbVertex
100
AcDb2dVertex
 10
6.8032743633
 20
7.4270891285
 30
0.0
  0
VERTEX
  5
642
330
317
100
AcDbEntity
  8
0
  6
CONTINUOUS
 62
     7
100
AcDbVertex
100
AcDb2dVertex
 10
6.8234997962
 20
7.4715637902
 30
0.0
  0
VERTEX
  5
643
330
317
100
AcDbEntity
  8
0
  6
CONTINUOUS
 62
     7
100
AcDbVertex
100
AcDb2dVertex
 10
6.8451223977
 20
7.515634104
 30
0.0
  0
VERTEX
  5
644
330
317
100
AcDbEntity
  8
0
  6
CONTINUOUS
 62
     7
100
AcDbVertex
100
AcDb2dVertex
 10
6.8680878944
 20
7.5591894521
 30
0.0
  0
VERTEX
  5
645
330
317
100
AcDbEntity
  8
0
  6
CONTINUOUS
 62
     7
100
AcDbVertex
100
AcDb2dVertex
 10
6.8923386421
 20
7.6021205089
 30
0.0
  0
VERTEX
  5
646
330
317
100
AcDbEntity
  8
0
  6
CONTINUOUS
 62
     7
100
AcDbVertex
100
AcDb2dVertex
 10
6.9178137706
 20
7.6443195161
 30
0.0
  0
VERTEX
  5
647
330
317
100
AcDbEntity
  8
0
  6
CONTINUOUS
 62
     7
100
AcDbVertex
100
AcDb2dVertex
 10
6.9444493365
 20
7.6856805528
 30
0.0
  0
VERTEX
  5
648
330
317
100
AcDbEntity
  8
0
  6
CONTINUOUS
 62
     7
100
AcDbVertex
100
AcDb2dVertex
 10
6.9721784836
 20
7.7260998013
 30
0.0
  0
VERTEX
  5
649
330
317
100
AcDbEntity
  8
0
  6
CONTINUOUS
 62
     7
100
AcDbVertex
100
AcDb2dVertex
 10
7.0009316108
 20
7.7654758079
 30
0.0
  0
VERTEX
  5
64A
330
317
100
AcDbEntity
  8
0
  6
CONTINUOUS
 62
     7
100
AcDbVertex
100
AcDb2dVertex
 10
7.0306365467
 20
7.8037097376
 30
0.0
  0
VERTEX
  5
64B
330
317
100
AcDbEntity
  8
0
  6
CONTINUOUS
 62
     7
100
AcDbVertex
100
AcDb2dVertex
 10
7.0612187311
 20
7.8407056219
 30
0.0
  0
VERTEX
  5
64C
330
317
100
AcDbEntity
  8
0
  6
CONTINUOUS
 62
     7
100
AcDbVertex
100
AcDb2dVertex
 10
7.0926014015
 20
7.8763705999
 30
0.0
  0
VERTEX
  5
64D
330
317
100
AcDbEntity
  8
0
  6
CONTINUOUS
 62
     7
100
AcDbVertex
100
AcDb2dVertex
 10
7.1247057865
 20
7.9106151512
 30
0.0
  0
VERTEX
  5
64E
330
317
100
AcDbEntity
  8
0
  6
CONTINUOUS
 62
     7
100
AcDbVertex
100
AcDb2dVertex
 10
7.1574513028
 20
7.9433533208
 30
0.0
  0
VERTEX
  5
64F
330
317
100
AcDbEntity
  8
0
  6
CONTINUOUS
 62
     7
100
AcDbVertex
100
AcDb2dVertex
 10
7.1907557582
 20
7.974502935
 30
0.0
  0
VERTEX
  5
650
330
317
100
AcDbEntity
  8
0
  6
CONTINUOUS
 62
     7
100
AcDbVertex
100
AcDb2dVertex
 10
7.2245355573
 20
8.003985807
 30
0.0
  0
VERTEX
  5
651
330
317
100
AcDbEntity
  8
0
  6
CONTINUOUS
 62
     7
100
AcDbVertex
100
AcDb2dVertex
 10
7.2587059117
 20
8.0317279338
 30
0.0
  0
VERTEX
  5
652
330
317
100
AcDbEntity
  8
0
  6
CONTINUOUS
 62
     7
100
AcDbVertex
100
AcDb2dVertex
 10
7.2931810526
 20
8.0576596819
 30
0.0
  0
VERTEX
  5
653
330
317
100
AcDbEntity
  8
0
  6
CONTINUOUS
 62
     7
100
AcDbVertex
100
AcDb2dVertex
 10
7.3278744464
 20
8.0817159615
 30
0.0
  0
VERTEX
  5
654
330
317
100
AcDbEntity
  8
0
  6
CONTINUOUS
 62
     7
100
AcDbVertex
100
AcDb2dVertex
 10
7.3626990113
 20
8.1038363907
 30
0.0
  0
VERTEX
  5
655
330
317
100
AcDbEntity
  8
0
  6
CONTINUOUS
 62
     7
100
AcDbVertex
100
AcDb2dVertex
 10
7.3975673365
 20
8.1239654464
 30
0.0
  0
VERTEX
  5
656
330
317
100
AcDbEntity
  8
0
  6
CONTINUOUS
 62
     7
100
AcDbVertex
100
AcDb2dVertex
 10
7.4323919014
 20
8.142052604
 30
0.0
  0
VERTEX
  5
657
330
317
100
AcDbEntity
  8
0
  6
CONTINUOUS
 62
     7
100
AcDbVertex
100
AcDb2dVertex
 10
7.4670852951
 20
8.1580524642
 30
0.0
  0
VERTEX
  5
658
330
317
100
AcDbEntity
  8
0
  6
CONTINUOUS
 62
     7
100
AcDbVertex
100
AcDb2dVertex
 10
7.5015604361
 20
8.1719248666
 30
0.0
  0
VERTEX
  5
659
330
317
100
AcDbEntity
  8
0
  6
CONTINUOUS
 62
     7
100
AcDbVertex
100
AcDb2dVertex
 10
7.5357307905
 20
8.1836349912
 30
0.0
  0
VERTEX
  5
65A
330
317
100
AcDbEntity
  8
0
  6
CONTINUOUS
 62
     7
100
AcDbVertex
100
AcDb2dVertex
 10
7.5695105896
 20
8.1931534451
 30
0.0
  0
VERTEX
  5
65B
330
317
100
AcDbEntity
  8
0
  6
CONTINUOUS
 62
     7
100
AcDbVertex
100
AcDb2dVertex
 10
7.602815045
 20
8.2004563366
 30
0.0
  0
VERTEX
  5
65C
330
317
100
AcDbEntity
  8
0
  6
CONTINUOUS
 62
     7
100
AcDbVertex
100
AcDb2dVertex
 10
7.6355605613
 20
8.2055253354
 30
0.0
  0
VERTEX
  5
65D
330
317
100
AcDbEntity
  8
0
  6
CONTINUOUS
 62
     7
100
AcDbVertex
100
AcDb2dVertex
 10
7.6676649462
 20
8.2083477179
 30
0.0
  0
VERTEX
  5
65E
330
317
100
AcDbEntity
  8
0
  6
CONTINUOUS
 62
     7
100
AcDbVertex
100
AcDb2dVertex
 10
7.6990476167
 20
8.2089164
 30
0.0
  0
VERTEX
  5
65F
330
317
100
AcDbEntity
  8
0
  6
CONTINUOUS
 62
     7
100
AcDbVertex
100
AcDb2dVertex
 10
7.729629801
 20
8.2072299542
 30
0.0
  0
VERTEX
  5
660
330
317
100
AcDbEntity
  8
0
  6
CONTINUOUS
 62
     7
100
AcDbVertex
100
AcDb2dVertex
 10
7.759334737
 20
8.2032926135
 30
0.0
  0
VERTEX
  5
661
330
317
100
AcDbEntity
  8
0
  6
CONTINUOUS
 62
     7
100
AcDbVertex
100
AcDb2dVertex
 10
7.7880878642
 20
8.1971142609
 30
0.0
  0
VERTEX
  5
662
330
317
100
AcDbEntity
  8
0
  6
CONTINUOUS
 62
     7
100
AcDbVertex
100
AcDb2dVertex
 10
7.8158170113
 20
8.1887104042
 30
0.0
  0
VERTEX
  5
663
330
317
100
AcDbEntity
  8
0
  6
CONTINUOUS
 62
     7
100
AcDbVertex
100
AcDb2dVertex
 10
7.8424525772
 20
8.1781021373
 30
0.0
  0
VERTEX
  5
664
330
317
100
AcDbEntity
  8
0
  6
CONTINUOUS
 62
     7
100
AcDbVertex
100
AcDb2dVertex
 10
7.8679277057
 20
8.1653160874
 30
0.0
  0
VERTEX
  5
665
330
317
100
AcDbEntity
  8
0
  6
CONTINUOUS
 62
     7
100
AcDbVertex
100
AcDb2dVertex
 10
7.8722191644
 20
8.1628815129
 30
0.0
  0
SEQEND
  5
666
330
317
100
AcDbEntity
  8
0
  6
CONTINUOUS
 62
     7
  0
SPLINE
  5
318
330
1F
100
AcDbEntity
  8
0
  6
CONTINUOUS
 62
     7
100
AcDbSpline
210
0.0
220
0.0
230
1.0
 70
     8
 71
     3
 72
    20
 73
    16
 74
     0
 42
0.00000001
 43
0.00000001
 40
0.0
 40
0.0
 40
0.0
 40
0.0
 40
0.069206167011115
 40
0.1404797315926422
 40
0.2096733136128171
 40
0.2807816049339774
 40
0.3518925293496412
 40
0.4247585621011732
 40
0.5022272410821301
 40
0.5814261424667949
 40
0.6702861102049164
 40
0.7609610100810702
 40
0.8675975492829596
 40
0.9763505559058504
 40
1.0
 40
1.0
 40
1.0
 40
1.0
 10
6.963943921626119
 20
6.475524850075468
 30
0.0
 10
6.971152390738916
 20
6.4711794187458
 30
0.0
 10
6.985784667743897
 20
6.46235874490689
 30
0.0
 10
7.009048674982464
 20
6.445975585469377
 30
0.0
 10
7.032784414825933
 20
6.427784316330317
 30
0.0
 10
7.056377266480548
 20
6.408350881129679
 30
0.0
 10
7.079723556132041
 20
6.388097093372901
 30
0.0
 10
7.102700518147698
 20
6.367443919194931
 30
0.0
 10
7.125065855156802
 20
6.346948724885711
 30
0.0
 10
7.147162515674804
 20
6.326669687155601
 30
0.0
 10
7.168261611433736
 20
6.307678303334132
 30
0.0
 10
7.189090370391669
 20
6.289740897168087
 30
0.0
 10
7.208059180834391
 20
6.274876142118589
 30
0.0
 10
7.221403033299
 20
6.265337806628918
 30
0.0
 10
7.22668356510644
 20
6.262740969070734
 30
0.0
 10
7.227626762464881
 20
6.26227712747021
 30
0.0
  0
SPLINE
  5
319
330
1F
100
AcDbEntity
  8
0
  6
CONTINUOUS
 62
     7
100
AcDbSpline
210
0.0
220
0.0
230
1.0
 70
     8
 71
     3
 72
    19
 73
    15
 74
     0
 42
0.00000001
 43
0.00000001
 40
0.0
 40
0.0
 40
0.0
 40
0.0
 40
0.0382734093979766
 40
0.1169856470592663
 40
0.1987979290558364
 40
0.2805849763425411
 40
0.3814476430985163
 40
0.484941944629283
 40
0.5859429536740351
 40
0.6908520027549153
 40
0.7780310564707651
 40
0.8683616976319531
 40
0.9334842816747996
 40
1.0
 40
1.0
 40
1.0
 40
1.0
 10
6.941251381081362
 20
6.428391361350841
 30
0.0
 10
6.938321311132175
 20
6.430283457055112
 30
0.0
 10
6.929365324865828
 20
6.436066794462047
 30
0.0
 10
6.916517281452091
 20
6.445739239637252
 30
0.0
 10
6.90305118829681
 20
6.457222445764458
 30
0.0
 10
6.891736550677663
 20
6.469097186362857
 30
0.0
 10
6.883877382428333
 20
6.480760659865582
 30
0.0
 10
6.881421735733873
 20
6.490983476146353
 30
0.0
 10
6.885441647725516
 20
6.498101957823839
 30
0.0
 10
6.895642590832388
 20
6.500774637429481
 30
0.0
 10
6.910908974933656
 20
6.498937810703101
 30
0.0
 10
6.927947769921081
 20
6.493456644109078
 30
0.0
 10
6.945968853246954
 20
6.485486244563939
 30
0.0
 10
6.957910107217499
 20
6.478868659641397
 30
0.0
 10
6.963943921626119
 20
6.475524850075468
 30
0.0
  0
LINE
  5
31A
330
1F
100
AcDbEntity
  8
0
  6
CONTINUOUS
 62
     7
100
AcDbLine
 10
7.2807120812
 20
7.0924316871
 30
0.0
 11
7.2645842675
 21
7.0831212984
 31
0.0
  0
LINE
  5
31B
330
1F
100
AcDbEntity
  8
0
  6
CONTINUOUS
 62
     7
100
AcDbLine
 10
7.3759396661
 20
6.2151552937
 30
0.0
 11
7.3934286326
 21
6.2158973339
 31
0.0
  0
LINE
  5
31C
330
1F
100
AcDbEntity
  8
0
  6
CONTINUOUS
 62
     7
100
AcDbLine
 10
7.4018725227
 20
7.0199375016
 30
0.0
 11
7.3759396661
 21
7.0188371951
 31
0.0
  0
ARC
  5
31D
330
1F
100
AcDbEntity
  8
0
  6
CONTINUOUS
 62
     7
100
AcDbCircle
 10
8.1634791036
 20
6.8582552358
 30
0.0
 40
1.48081161981035
100
AcDbArc
 50
122.5797098522
 51
177.4256666805
  0
LINE
  5
31E
330
1F
100
AcDbEntity
  8
0
  6
CONTINUOUS
 62
     7
100
AcDbLine
 10
7.1758425858
 20
6.2099520708
 30
0.0
 11
7.1792827382
 21
6.2118038239
 31
0.0
  0
LINE
  5
31F
330
1F
100
AcDbEntity
  8
0
  6
CONTINUOUS
 62
     7
100
AcDbLine
 10
7.0043087036
 20
6.3720450953
 30
0.0
 11
7.0043087036
 21
6.4490336832
 31
0.0
  0
LINE
  5
320
330
1F
100
AcDbEntity
  8
0
  6
CONTINUOUS
 62
     7
100
AcDbLine
 10
7.0739058277
 20
6.2854669345
 30
0.0
 11
7.0043087036
 21
6.3720450953
 31
0.0
  0
LINE
  5
321
330
1F
100
AcDbEntity
  8
0
  6
CONTINUOUS
 62
     7
100
AcDbLine
 10
7.1435029518
 20
6.2916899662
 30
0.0
 11
7.0739058277
 21
6.2854669345
 31
0.0
  0
LINE
  5
322
330
1F
100
AcDbEntity
  8
0
  6
CONTINUOUS
 62
     7
100
AcDbLine
 10
7.1435029518
 20
6.3300750738
 30
0.0
 11
7.1435029518
 21
6.2916899662
 31
0.0
  0
LINE
  5
323
330
1F
100
AcDbEntity
  8
0
  6
CONTINUOUS
 62
     7
100
AcDbLine
 10
7.1435029518
 20
6.3256444991
 30
0.0
 11
7.0739058277
 21
6.2854669345
 31
0.0
  0
LINE
  5
324
330
1F
100
AcDbEntity
  8
0
  6
CONTINUOUS
 62
     7
100
AcDbLine
 10
7.0605884892
 20
6.404534724
 30
0.0
 11
7.0043087036
 21
6.3720450953
 31
0.0
  0
ARC
  5
325
330
1F
100
AcDbEntity
  8
0
  6
CONTINUOUS
 62
     8
100
AcDbCircle
 10
8.3130972454
 20
7.0313342229
 30
0.0
 40
0.2875278785232814
100
AcDbArc
 50
242.5378375994
 51
295.5558696627
  0
POLYLINE
  5
326
330
1F
100
AcDbEntity
  8
0
  6
CONTINUOUS
 62
     8
100
AcDb2dPolyline
 66
     1
 10
0.0
 20
0.0
 30
0.0
  0
VERTEX
  5
667
330
326
100
AcDbEntity
  8
0
  6
CONTINUOUS
 62
     8
100
AcDbVertex
100
AcDb2dVertex
 10
8.4948126881
 20
6.877168375
 30
0.0
  0
VERTEX
  5
668
330
326
100
AcDbEntity
  8
0
  6
CONTINUOUS
 62
     8
100
AcDbVertex
100
AcDb2dVertex
 10
8.490250486
 20
6.8865010486
 30
0.0
  0
VERTEX
  5
669
330
326
100
AcDbEntity
  8
0
  6
CONTINUOUS
 62
     8
100
AcDbVertex
100
AcDb2dVertex
 10
8.4822213297
 20
6.8981683776
 30
0.0
  0
VERTEX
  5
66A
330
326
100
AcDbEntity
  8
0
  6
CONTINUOUS
 62
     8
100
AcDbVertex
100
AcDb2dVertex
 10
8.4719001567
 20
6.9092187102
 30
0.0
  0
VERTEX
  5
66B
330
326
100
AcDbEntity
  8
0
  6
CONTINUOUS
 62
     8
100
AcDbVertex
100
AcDb2dVertex
 10
8.4594265431
 20
6.9195026096
 30
0.0
  0
VERTEX
  5
66C
330
326
100
AcDbEntity
  8
0
  6
CONTINUOUS
 62
     8
100
AcDbVertex
100
AcDb2dVertex
 10
8.4449691731
 20
6.9288810036
 30
0.0
  0
VERTEX
  5
66D
330
326
100
AcDbEntity
  8
0
  6
CONTINUOUS
 62
     8
100
AcDbVertex
100
AcDb2dVertex
 10
8.4287235579
 20
6.9372270657
 30
0.0
  0
VERTEX
  5
66E
330
326
100
AcDbEntity
  8
0
  6
CONTINUOUS
 62
     8
100
AcDbVertex
100
AcDb2dVertex
 10
8.4109093915
 20
6.9444279295
 30
0.0
  0
VERTEX
  5
66F
330
326
100
AcDbEntity
  8
0
  6
CONTINUOUS
 62
     8
100
AcDbVertex
100
AcDb2dVertex
 10
8.3917675799
 20
6.9503862159
 30
0.0
  0
VERTEX
  5
670
330
326
100
AcDbEntity
  8
0
  6
CONTINUOUS
 62
     8
100
AcDbVertex
100
AcDb2dVertex
 10
8.3715569834
 20
6.9550213491
 30
0.0
  0
VERTEX
  5
671
330
326
100
AcDbEntity
  8
0
  6
CONTINUOUS
 62
     8
100
AcDbVertex
100
AcDb2dVertex
 10
8.3505509156
 20
6.958270647
 30
0.0
  0
VERTEX
  5
672
330
326
100
AcDbEntity
  8
0
  6
CONTINUOUS
 62
     8
100
AcDbVertex
100
AcDb2dVertex
 10
8.3290334474
 20
6.9600901684
 30
0.0
  0
VERTEX
  5
673
330
326
100
AcDbEntity
  8
0
  6
CONTINUOUS
 62
     8
100
AcDbVertex
100
AcDb2dVertex
 10
8.3072955658
 20
6.9604553073
 30
0.0
  0
VERTEX
  5
674
330
326
100
AcDbEntity
  8
0
  6
CONTINUOUS
 62
     8
100
AcDbVertex
100
AcDb2dVertex
 10
8.2856312384
 20
6.959361126
 30
0.0
  0
VERTEX
  5
675
330
326
100
AcDbEntity
  8
0
  6
CONTINUOUS
 62
     8
100
AcDbVertex
100
AcDb2dVertex
 10
8.2643334379
 20
6.9568224213
 30
0.0
  0
VERTEX
  5
676
330
326
100
AcDbEntity
  8
0
  6
CONTINUOUS
 62
     8
100
AcDbVertex
100
AcDb2dVertex
 10
8.2436901806
 20
6.9528735248
 30
0.0
  0
VERTEX
  5
677
330
326
100
AcDbEntity
  8
0
  6
CONTINUOUS
 62
     8
100
AcDbVertex
100
AcDb2dVertex
 10
8.2239806311
 20
6.9475678386
 30
0.0
  0
VERTEX
  5
678
330
326
100
AcDbEntity
  8
0
  6
CONTINUOUS
 62
     8
100
AcDbVertex
100
AcDb2dVertex
 10
8.2054713273
 20
6.9409771131
 30
0.0
  0
VERTEX
  5
679
330
326
100
AcDbEntity
  8
0
  6
CONTINUOUS
 62
     8
100
AcDbVertex
100
AcDb2dVertex
 10
8.1884125758
 20
6.9331904763
 30
0.0
  0
VERTEX
  5
67A
330
326
100
AcDbEntity
  8
0
  6
CONTINUOUS
 62
     8
100
AcDbVertex
100
AcDb2dVertex
 10
8.1730350669
 20
6.9243132294
 30
0.0
  0
VERTEX
  5
67B
330
326
100
AcDbEntity
  8
0
  6
CONTINUOUS
 62
     8
100
AcDbVertex
100
AcDb2dVertex
 10
8.159546755
 20
6.9144654217
 30
0.0
  0
VERTEX
  5
67C
330
326
100
AcDbEntity
  8
0
  6
CONTINUOUS
 62
     8
100
AcDbVertex
100
AcDb2dVertex
 10
8.1481300464
 20
6.9037802281
 30
0.0
  0
VERTEX
  5
67D
330
326
100
AcDbEntity
  8
0
  6
CONTINUOUS
 62
     8
100
AcDbVertex
100
AcDb2dVertex
 10
8.1389393325
 20
6.8924021474
 30
0.0
  0
VERTEX
  5
67E
330
326
100
AcDbEntity
  8
0
  6
CONTINUOUS
 62
     8
100
AcDbVertex
100
AcDb2dVertex
 10
8.132098902
 20
6.8804850486
 30
0.0
  0
VERTEX
  5
67F
330
326
100
AcDbEntity
  8
0
  6
CONTINUOUS
 62
     8
100
AcDbVertex
100
AcDb2dVertex
 10
8.12770126
 20
6.8681900901
 30
0.0
  0
VERTEX
  5
680
330
326
100
AcDbEntity
  8
0
  6
CONTINUOUS
 62
     8
100
AcDbVertex
100
AcDb2dVertex
 10
8.1258058769
 20
6.8556835401
 30
0.0
  0
VERTEX
  5
681
330
326
100
AcDbEntity
  8
0
  6
CONTINUOUS
 62
     8
100
AcDbVertex
100
AcDb2dVertex
 10
8.1264383847
 20
6.8431345281
 30
0.0
  0
VERTEX
  5
682
330
326
100
AcDbEntity
  8
0
  6
CONTINUOUS
 62
     8
100
AcDbVertex
100
AcDb2dVertex
 10
8.1295902297
 20
6.8307127582
 30
0.0
  0
VERTEX
  5
683
330
326
100
AcDbEntity
  8
0
  6
CONTINUOUS
 62
     8
100
AcDbVertex
100
AcDb2dVertex
 10
8.1352187886
 20
6.8185862133
 30
0.0
  0
VERTEX
  5
684
330
326
100
AcDbEntity
  8
0
  6
CONTINUOUS
 62
     8
100
AcDbVertex
100
AcDb2dVertex
 10
8.1432479448
 20
6.8069188843
 30
0.0
  0
VERTEX
  5
685
330
326
100
AcDbEntity
  8
0
  6
CONTINUOUS
 62
     8
100
AcDbVertex
100
AcDb2dVertex
 10
8.1535691178
 20
6.7958685517
 30
0.0
  0
VERTEX
  5
686
330
326
100
AcDbEntity
  8
0
  6
CONTINUOUS
 62
     8
100
AcDbVertex
100
AcDb2dVertex
 10
8.1660427314
 20
6.7855846524
 30
0.0
  0
VERTEX
  5
687
330
326
100
AcDbEntity
  8
0
  6
CONTINUOUS
 62
     8
100
AcDbVertex
100
AcDb2dVertex
 10
8.1805001014
 20
6.7762062583
 30
0.0
  0
VERTEX
  5
688
330
326
100
AcDbEntity
  8
0
  6
CONTINUOUS
 62
     8
100
AcDbVertex
100
AcDb2dVertex
 10
8.1805001014
 20
6.7762062583
 30
0.0
  0
SEQEND
  5
689
330
326
100
AcDbEntity
  8
0
  6
CONTINUOUS
 62
     8
  0
ARC
  5
327
330
1F
100
AcDbEntity
  8
0
  6
CONTINUOUS
 62
     8
100
AcDbCircle
 10
8.212269526
 20
6.8528026722
 30
0.0
 40
0.0967416351089227
100
AcDbArc
 50
184.9193117152
 51
246.4008292424
  0
ARC
  5
328
330
1F
100
AcDbEntity
  8
0
  6
CONTINUOUS
 62
     8
100
AcDbCircle
 10
8.3138295471
 20
7.0380547065
 30
0.0
 40
0.307740010763494
100
AcDbArc
 50
242.8791331641
 51
289.8404554919
  0
ARC
  5
329
330
1F
100
AcDbEntity
  8
0
  6
CONTINUOUS
 62
     8
100
AcDbCircle
 10
7.2165730542
 20
6.4584871467
 30
0.0
 40
0.2731391639495359
100
AcDbArc
 50
174.2480461634
 51
238.5117085641
  0
POLYLINE
  5
32A
330
1F
100
AcDbEntity
  8
0
  6
CONTINUOUS
 62
     8
100
AcDb2dPolyline
 66
     1
 10
0.0
 20
0.0
 30
0.0
  0
VERTEX
  5
68A
330
32A
100
AcDbEntity
  8
0
  6
CONTINUOUS
 62
     8
100
AcDbVertex
100
AcDb2dVertex
 10
7.2043595594
 20
6.2779828813
 30
0.0
  0
VERTEX
  5
68B
330
32A
100
AcDbEntity
  8
0
  6
CONTINUOUS
 62
     8
100
AcDbVertex
100
AcDb2dVertex
 10
7.2041314238
 20
6.27657449
 30
0.0
  0
VERTEX
  5
68C
330
32A
100
AcDbEntity
  8
0
  6
CONTINUOUS
 62
     8
100
AcDbVertex
100
AcDb2dVertex
 10
7.2005851262
 20
6.2613429967
 30
0.0
  0
VERTEX
  5
68D
330
32A
100
AcDbEntity
  8
0
  6
CONTINUOUS
 62
     8
100
AcDbVertex
100
AcDb2dVertex
 10
7.1953257084
 20
6.2476927153
 30
0.0
  0
VERTEX
  5
68E
330
32A
100
AcDbEntity
  8
0
  6
CONTINUOUS
 62
     8
100
AcDbVertex
100
AcDb2dVertex
 10
7.188424295
 20
6.2358082423
 30
0.0
  0
VERTEX
  5
68F
330
32A
100
AcDbEntity
  8
0
  6
CONTINUOUS
 62
     8
100
AcDbVertex
100
AcDb2dVertex
 10
7.1799742158
 20
6.2258502949
 30
0.0
  0
VERTEX
  5
690
330
32A
100
AcDbEntity
  8
0
  6
CONTINUOUS
 62
     8
100
AcDbVertex
100
AcDb2dVertex
 10
7.1700897436
 20
6.2179535372
 30
0.0
  0
VERTEX
  5
691
330
32A
100
AcDbEntity
  8
0
  6
CONTINUOUS
 62
     8
100
AcDbVertex
100
AcDb2dVertex
 10
7.1589045489
 20
6.2122247593
 30
0.0
  0
VERTEX
  5
692
330
32A
100
AcDbEntity
  8
0
  6
CONTINUOUS
 62
     8
100
AcDbVertex
100
AcDb2dVertex
 10
7.1465698924
 20
6.2087414331
 30
0.0
  0
VERTEX
  5
693
330
32A
100
AcDbEntity
  8
0
  6
CONTINUOUS
 62
     8
100
AcDbVertex
100
AcDb2dVertex
 10
7.133252579
 20
6.2075506646
 30
0.0
  0
VERTEX
  5
694
330
32A
100
AcDbEntity
  8
0
  6
CONTINUOUS
 62
     8
100
AcDbVertex
100
AcDb2dVertex
 10
7.1191327026
 20
6.2086685569
 30
0.0
  0
VERTEX
  5
695
330
32A
100
AcDbEntity
  8
0
  6
CONTINUOUS
 62
     8
100
AcDbVertex
100
AcDb2dVertex
 10
7.1044012103
 20
6.2120799925
 30
0.0
  0
VERTEX
  5
696
330
32A
100
AcDbEntity
  8
0
  6
CONTINUOUS
 62
     8
100
AcDbVertex
100
AcDb2dVertex
 10
7.0892573203
 20
6.2177388374
 30
0.0
  0
VERTEX
  5
697
330
32A
100
AcDbEntity
  8
0
  6
CONTINUOUS
 62
     8
100
AcDbVertex
100
AcDb2dVertex
 10
7.0739058277
 20
6.2255685657
 30
0.0
  0
SEQEND
  5
698
330
32A
100
AcDbEntity
  8
0
  6
CONTINUOUS
 62
     8
  0
ARC
  5
32B
330
1F
100
AcDbEntity
  8
0
  6
CONTINUOUS
 62
     8
100
AcDbCircle
 10
7.1318639946
 20
6.2837469745
 30
0.0
 40
0.0861646920682012
100
AcDbArc
 50
303.389439142
 51
350.254056511
  0
ENDSEC
  0
SECTION
  2
OBJECTS
  0
DICTIONARY
  5
C
330
0
100
AcDbDictionary
  3
ACAD_GROUP
350
D
  3
ACAD_LAYOUT
350
1A
  3
ACAD_MLEADERSTYLE
350
32E
  3
ACAD_MLINESTYLE
350
17
  3
ACAD_PLOTSETTINGS
350
19
  3
ACAD_SCALELIST
350
6F
  3
ACAD_VISUALSTYLE
350
2A
  3
ACDBVARIABLEDICTIONARY
350
32C
1001
ACAD
1000
TREAT_AS_HARD
1070
     0
  0
DICTIONARY
  5
D
102
{ACAD_REACTORS
330
C
102
}
330
C
100
AcDbDictionary
1001
ACAD
1000
TREAT_AS_HARD
1070
     0
  0
DICTIONARY
  5
1A
102
{ACAD_REACTORS
330
C
102
}
330
C
100
AcDbDictionary
1001
ACAD
1000
TREAT_AS_HARD
1070
     0
  0
DICTIONARY
  5
32E
102
{ACAD_REACTORS
330
C
102
}
330
C
100
AcDbDictionary
1001
ACAD
1000
TREAT_AS_HARD
1070
     0
  0
DICTIONARY
  5
17
102
{ACAD_REACTORS
330
C
102
}
330
C
100
AcDbDictionary
  3
STANDARD
350
18
1001
ACAD
1000
TREAT_AS_HARD
1070
     0
  0
DICTIONARY
  5
19
102
{ACAD_REACTORS
330
C
102
}
330
C
100
AcDbDictionary
1001
ACAD
1000
TREAT_AS_HARD
1070
     0
  0
DICTIONARY
  5
6F
102
{ACAD_REACTORS
330
C
102
}
330
C
100
AcDbDictionary
  3
A0
350
70
  3
A1
350
71
  3
A2
350
72
  3
A3
350
73
  3
A4
350
74
  3
A5
350
75
  3
A6
350
76
  3
A7
350
77
  3
A8
350
78
  3
A9
350
79
  3
B0
350
7A
  3
B1
350
7B
  3
B2
350
7C
  3
B3
350
7D
  3
B4
350
7E
  3
B5
350
7F
  3
B6
350
80
  3
B7
350
81
  3
B8
350
82
  3
B9
350
83
  3
C0
350
84
  3
C1
350
85
  3
C2
350
86
  3
C3
350
87
  3
C4
350
88
  3
C5
350
89
  3
C6
350
8A
  3
C7
350
8B
  3
C8
350
8C
  3
C9
350
8D
  3
D0
350
8E
  3
D1
350
8F
  3
D2
350
90
1001
ACAD
1000
TREAT_AS_HARD
1070
     0
  0
DICTIONARY
  5
2A
102
{ACAD_REACTORS
330
C
102
}
330
C
100
AcDbDictionary
  3
2DWIREFRAME
350
2F
  3
3D_HIDDEN
350
31
  3
3DWIREFRAME
350
30
  3
BASIC
350
32
  3
BRIGHTEN
350
36
  3
COLORCHANGE
350
3A
  3
CONCEPTUAL
350
34
  3
DIM
350
35
  3
FACEPATTERN
350
39
  3
FLAT
350
2B
  3
FLATWITHEDGES
350
2C
  3
GOURAUD
350
2D
  3
GOURAUDWITHEDGES
350
2E
  3
LINEPATTERN
350
38
  3
REALISTIC
350
33
  3
THICKEN
350
37
1001
ACAD
1000
TREAT_AS_HARD
1070
     0
  0
DICTIONARY
  5
32C
102
{ACAD_REACTORS
330
C
102
}
330
C
100
AcDbDictionary
  3
CANNOSCALE
350
32F
  3
DIMASSOC
350
330
  3
HIDETEXT
350
331
1001
ACAD
1000
TREAT_AS_HARD
1070
     0
  0
MLINESTYLE
  5
18
102
{ACAD_REACTORS
330
17
102
}
330
17
100
AcDbMlineStyle
  2
Standard
 70
     0
  3

 62
   256
 51
90.0
 52
90.0
 71
     2
 49
0.5
 62
   256
  6
BYLAYER
 49
-0.5
 62
   256
  6
BYLAYER
  0
ACAD_PROXY_OBJECT
  5
70
102
{ACAD_REACTORS
330
6F
102
}
330
6F
100
AcDbZombieObject
 90
      499
 91
      502
 93
       41
310
903313A31580
  0
ACAD_PROXY_OBJECT
  5
71
102
{ACAD_REACTORS
330
6F
102
}
330
6F
100
AcDbZombieObject
 90
      499
 91
      502
 93
      105
310
903313A324000000000000004000
  0
ACAD_PROXY_OBJECT
  5
72
102
{ACAD_REACTORS
330
6F
102
}
330
6F
100
AcDbZombieObject
 90
      499
 91
      502
 93
      105
310
903313A344000000000000104000
  0
ACAD_PROXY_OBJECT
  5
73
102
{ACAD_REACTORS
330
6F
102
}
330
6F
100
AcDbZombieObject
 90
      499
 91
      502
 93
      105
310
903313A354000000000000144000
  0
ACAD_PROXY_OBJECT
  5
74
102
{ACAD_REACTORS
330
6F
102
}
330
6F
100
AcDbZombieObject
 90
      499
 91
      502
 93
      105
310
903313A384000000000000204000
  0
ACAD_PROXY_OBJECT
  5
75
102
{ACAD_REACTORS
330
6F
102
}
330
6F
100
AcDbZombieObject
 90
      499
 91
      502
 93
      113
310
904313A31304000000000000244000
  0
ACAD_PROXY_OBJECT
  5
76
102
{ACAD_REACTORS
330
6F
102
}
330
6F
100
AcDbZombieObject
 90
      499
 91
      502
 93
      113
310
904313A31364000000000000304000
  0
ACAD_PROXY_OBJECT
  5
77
102
{ACAD_REACTORS
330
6F
102
}
330
6F
100
AcDbZombieObject
 90
      499
 91
      502
 93
      113
310
904313A32304000000000000344000
  0
ACAD_PROXY_OBJECT
  5
78
102
{ACAD_REACTORS
330
6F
102
}
330
6F
100
AcDbZombieObject
 90
      499
 91
      502
 93
      113
310
904313A333040000000000003E4000
  0
ACAD_PROXY_OBJECT
  5
79
102
{ACAD_REACTORS
330
6F
102
}
330
6F
100
AcDbZombieObject
 90
      499
 91
      502
 93
      113
310
904313A34304000000000000444000
  0
ACAD_PROXY_OBJECT
  5
7A
102
{ACAD_REACTORS
330
6F
102
}
330
6F
100
AcDbZombieObject
 90
      499
 91
      502
 93
      113
310
904313A35304000000000000494000
  0
ACAD_PROXY_OBJECT
  5
7B
102
{ACAD_REACTORS
330
6F
102
}
330
6F
100
AcDbZombieObject
 90
      499
 91
      502
 93
      121
310
905313A3130304000000000000594000
  0
ACAD_PROXY_OBJECT
  5
7C
102
{ACAD_REACTORS
330
6F
102
}
330
6F
100
AcDbZombieObject
 90
      499
 91
      502
 93
      105
310
903323A310000000000000010100
  0
ACAD_PROXY_OBJECT
  5
7D
102
{ACAD_REACTORS
330
6F
102
}
330
6F
100
AcDbZombieObject
 90
      499
 91
      502
 93
      105
310
903343A310000000000000410100
  0
ACAD_PROXY_OBJECT
  5
7E
102
{ACAD_REACTORS
330
6F
102
}
330
6F
100
AcDbZombieObject
 90
      499
 91
      502
 93
      105
310
903383A310000000000000810100
  0
ACAD_PROXY_OBJECT
  5
7F
102
{ACAD_REACTORS
330
6F
102
}
330
6F
100
AcDbZombieObject
 90
      499
 91
      502
 93
      113
310
90431303A310000000000000910100
  0
ACAD_PROXY_OBJECT
  5
80
102
{ACAD_REACTORS
330
6F
102
}
330
6F
100
AcDbZombieObject
 90
      499
 91
      502
 93
      121
310
9053130303A310000000000001650100
  0
ACAD_PROXY_OBJECT
  5
81
102
{ACAD_REACTORS
330
6F
102
}
330
6F
100
AcDbZombieObject
 90
      499
 91
      502
 93
      257
310
90E312F31323822203D2031272D3022000000000000200FC000000000000284000
  0
ACAD_PROXY_OBJECT
  5
82
102
{ACAD_REACTORS
330
6F
102
}
330
6F
100
AcDbZombieObject
 90
      499
 91
      502
 93
      249
310
90D312F363422203D2031272D3022000000000000240FC000000000000284000
  0
ACAD_PROXY_OBJECT
  5
83
102
{ACAD_REACTORS
330
6F
102
}
330
6F
100
AcDbZombieObject
 90
      499
 91
      502
 93
      249
310
90D312F333222203D2031272D3022000000000000280FC000000000000284000
  0
ACAD_PROXY_OBJECT
  5
84
102
{ACAD_REACTORS
330
6F
102
}
330
6F
100
AcDbZombieObject
 90
      499
 91
      502
 93
      249
310
90D312F313622203D2031272D30220000000000002C0FC000000000000284000
  0
ACAD_PROXY_OBJECT
  5
85
102
{ACAD_REACTORS
330
6F
102
}
330
6F
100
AcDbZombieObject
 90
      499
 91
      502
 93
      249
310
90D332F333222203D2031272D30220000000000002E0FC000000000000284000
  0
ACAD_PROXY_OBJECT
  5
86
102
{ACAD_REACTORS
330
6F
102
}
330
6F
100
AcDbZombieObject
 90
      499
 91
      502
 93
      241
310
90C312F3822203D2031272D3022000000000000300FC000000000000284000
  0
ACAD_PROXY_OBJECT
  5
87
102
{ACAD_REACTORS
330
6F
102
}
330
6F
100
AcDbZombieObject
 90
      499
 91
      502
 93
      249
310
90D332F313622203D2031272D3022000000000000320FC000000000000284000
  0
ACAD_PROXY_OBJECT
  5
88
102
{ACAD_REACTORS
330
6F
102
}
330
6F
100
AcDbZombieObject
 90
      499
 91
      502
 93
      241
310
90C312F3422203D2031272D3022000000000000340FC000000000000284000
  0
ACAD_PROXY_OBJECT
  5
89
102
{ACAD_REACTORS
330
6F
102
}
330
6F
100
AcDbZombieObject
 90
      499
 91
      502
 93
      241
310
90C332F3822203D2031272D3022000000000000360FC000000000000284000
  0
ACAD_PROXY_OBJECT
  5
8A
102
{ACAD_REACTORS
330
6F
102
}
330
6F
100
AcDbZombieObject
 90
      499
 91
      502
 93
      241
310
90C312F3222203D2031272D3022000000000000380FC000000000000284000
  0
ACAD_PROXY_OBJECT
  5
8B
102
{ACAD_REACTORS
330
6F
102
}
330
6F
100
AcDbZombieObject
 90
      499
 91
      502
 93
      241
310
90C332F3422203D2031272D30220000000000003A0FC000000000000284000
  0
ACAD_PROXY_OBJECT
  5
8C
102
{ACAD_REACTORS
330
6F
102
}
330
6F
100
AcDbZombieObject
 90
      499
 91
      502
 93
      161
310
90A3122203D2031272D30224000000000000284000
  0
ACAD_PROXY_OBJECT
  5
8D
102
{ACAD_REACTORS
330
6F
102
}
330
6F
100
AcDbZombieObject
 90
      499
 91
      502
 93
      257
310
90E312D312F3222203D2031272D30220000000000003E0FC000000000000284000
  0
ACAD_PROXY_OBJECT
  5
8E
102
{ACAD_REACTORS
330
6F
102
}
330
6F
100
AcDbZombieObject
 90
      499
 91
      502
 93
      225
310
90A3322203D2031272D302200000000000002100000000000000284000
  0
ACAD_PROXY_OBJECT
  5
8F
102
{ACAD_REACTORS
330
6F
102
}
330
6F
100
AcDbZombieObject
 90
      499
 91
      502
 93
      225
310
90A3622203D2031272D302200000000000006100000000000000284000
  0
ACAD_PROXY_OBJECT
  5
90
102
{ACAD_REACTORS
330
6F
102
}
330
6F
100
AcDbZombieObject
 90
      499
 91
      502
 93
      249
310
90D31272D3022203D2031272D30220000000000000A100000000000000284000
  0
ACAD_PROXY_OBJECT
  5
2F
102
{ACAD_REACTORS
330
2A
102
}
330
2A
100
AcDbZombieObject
 90
      499
 91
      501
 93
      436
310
42CC9915DA5C99599C985B595049028333333333333E3BF0000000000000FB0107901411070040501600405405064090741402480A0340
1001
ACAD
1000
AcDbSavedByObjectVersion
1070
     0
  0
ACAD_PROXY_OBJECT
  5
31
102
{ACAD_REACTORS
330
2A
102
}
330
2A
100
AcDbZombieObject
 90
      499
 91
      501
 93
      500
310
424CD108121A5919195B90640502408333333333333E3BF0000000000000FB01079024090700405020000000000001110200405405064090740C02480A0340
1001
ACAD
1000
AcDbSavedByObjectVersion
1070
     0
  0
ACAD_PROXY_OBJECT
  5
30
102
{ACAD_REACTORS
330
2A
102
}
330
2A
100
AcDbZombieObject
 90
      499
 91
      501
 93
      436
310
42CCD915DA5C99599C985B595059028333333333333E3BF0000000000000FB0107901411070040501600405405064090741402480A0340
1001
ACAD
1000
AcDbSavedByObjectVersion
1070
     0
  0
ACAD_PROXY_OBJECT
  5
32
102
{ACAD_REACTORS
330
2A
102
}
330
2A
100
AcDbZombieObject
 90
      499
 91
      501
 93
      388
310
4150985CDA58D07406404333333333333E3BF0000000000000FB0107A41107004050150841D405064090741402480A0350
1001
ACAD
1000
AcDbSavedByObjectVersion
1070
     0
  0
ACAD_PROXY_OBJECT
  5
36
102
{ACAD_REACTORS
330
2A
102
}
330
2A
100
AcDbZombieObject
 90
      499
 91
      501
 93
      428
310
42109C9A59DA1D195B90C409028333333333333E3BF0000000000000FB010790141107004050150841D405064090741402480A029950
1001
ACAD
1000
AcDbSavedByObjectVersion
1070
     0
  0
ACAD_PROXY_OBJECT
  5
3A
102
{ACAD_REACTORS
330
2A
102
}
330
2A
100
AcDbZombieObject
 90
      499
 91
      501
 93
      452
310
42D0DBDB1BDC90DA185B99D95104090240C333333333333E3BF0000000000000FB0108901411070040501508421405064090741402480A0350
1001
ACAD
1000
AcDbSavedByObjectVersion
1070
     0
  0
ACAD_PROXY_OBJECT
  5
34
102
{ACAD_REACTORS
330
2A
102
}
330
2A
100
AcDbZombieObject
 90
      499
 91
      501
 93
      500
310
4290DBDB98D95C1D1D585B10940D028333333333333E3BF0000000000000FB0107902409070040501000000000000111010841D405064090740C02480A0340
1001
ACAD
1000
AcDbSavedByObjectVersion
1070
     0
  0
ACAD_PROXY_OBJECT
  5
35
102
{ACAD_REACTORS
330
2A
102
}
330
2A
100
AcDbZombieObject
 90
      499
 91
      501
 93
      412
310
40D11A5B50B409028333333333333E3BF0000000000000FB010790141107004050150841D405064090741402480A02677FFFFFD0
1001
ACAD
1000
AcDbSavedByObjectVersion
1070
     0
  0
ACAD_PROXY_OBJECT
  5
39
102
{ACAD_REACTORS
330
2A
102
}
330
2A
100
AcDbZombieObject
 90
      499
 91
      501
 93
      444
310
42D19858D95C185D1D195C9B90F409028333333333333E3BF0000000000000FB010790141107004050150841D405064090741402480A0350
1001
ACAD
1000
AcDbSavedByObjectVersion
1070
     0
  0
ACAD_PROXY_OBJECT
  5
2B
102
{ACAD_REACTORS
330
2A
102
}
330
2A
100
AcDbZombieObject
 90
      499
 91
      501
 93
      388
310
41119B185D240901404333333333333E3BF0000000000000F9010740A41107004050150841D405064090741402480A1B50
1001
ACAD
1000
AcDbSavedByObjectVersion
1070
     0
  0
ACAD_PROXY_OBJECT
  5
2C
102
{ACAD_REACTORS
330
2A
102
}
330
2A
100
AcDbZombieObject
 90
      499
 91
      501
 93
      476
310
43519B185D15DA5D1A115919D95CD0140901404333333333333E3BF0000000000000F9010740901411070040501600405405064090741402480A1B50
1001
ACAD
1000
AcDbSavedByObjectVersion
1070
     0
  0
ACAD_PROXY_OBJECT
  5
2D
102
{ACAD_REACTORS
330
2A
102
}
330
2A
100
AcDbZombieObject
 90
      499
 91
      501
 93
      412
310
41D1DBDD5C985D5910240902404333333333333E3BF0000000000000F9010740A411070040501641D405064090741402480A1B50
1001
ACAD
1000
AcDbSavedByObjectVersion
1070
     0
  0
ACAD_PROXY_OBJECT
  5
2E
102
{ACAD_REACTORS
330
2A
102
}
330
2A
100
AcDbZombieObject
 90
      499
 91
      501
 93
      500
310
4411DBDD5C985D5915DA5D1A115919D95CD0340902404333333333333E3BF0000000000000F9010740901411070040501600405405064090741402480A1B50
1001
ACAD
1000
AcDbSavedByObjectVersion
1070
     0
  0
ACAD_PROXY_OBJECT
  5
38
102
{ACAD_REACTORS
330
2A
102
}
330
2A
100
AcDbZombieObject
 90
      499
 91
      501
 93
      444
310
42D31A5B995C185D1D195C9B90E409028333333333333E3BF0000000000000FB010790141107004050750841D405064090741402483A0350
1001
ACAD
1000
AcDbSavedByObjectVersion
1070
     0
  0
ACAD_PROXY_OBJECT
  5
33
102
{ACAD_REACTORS
330
2A
102
}
330
2A
100
AcDbZombieObject
 90
      499
 91
      501
 93
      420
310
425499585B1A5CDD1A58D08409028333333333333E3BF0000000000000FB01079019070040501508421405064090741402480A1B40
1001
ACAD
1000
AcDbSavedByObjectVersion
1070
     0
  0
ACAD_PROXY_OBJECT
  5
37
102
{ACAD_REACTORS
330
2A
102
}
330
2A
100
AcDbZombieObject
 90
      499
 91
      501
 93
      412
310
41D51A1A58DAD95B90D409028333333333333E3BF0000000000000FB010790141107004050150C41D405064090741402480A0350
1001
ACAD
1000
AcDbSavedByObjectVersion
1070
     0
  0
DICTIONARYVAR
  5
32F
102
{ACAD_REACTORS
330
32C
102
}
330
32C
100
DictionaryVariables
280
     0
  1
1:1
  0
DICTIONARYVAR
  5
330
102
{ACAD_REACTORS
330
32C
102
}
330
32C
100
DictionaryVariables
280
     0
  1
2
  0
DICTIONARYVAR
  5
331
102
{ACAD_REACTORS
330
32C
102
}
330
32C
100
DictionaryVariables
280
     0
  1
1
  0
ENDSEC
  0
EOF
