  0
SECTION
  2
HEADER
  9
$ACADVER
  1
AC1012
  9
$DWGCODEPAGE
  3
ansi_1252
  9
$INSBASE
 10
0.0
 20
0.0
 30
0.0
  9
$EXTMIN
 10
0.0
 20
0.0
 30
0.0
  9
$EXTMAX
 10
11.0
 20
8.5
 30
0.0
  9
$LIMMIN
 10
0.0
 20
0.0
  9
$LIMMAX
 10
11.0
 20
8.5
  9
$ORTHOMODE
 70
     0
  9
$REGENMODE
 70
     1
  9
$FILLMODE
 70
     1
  9
$QTEXTMODE
 70
     0
  9
$MIRRTEXT
 70
     1
  9
$DRAGMODE
 70
     2
  9
$LTSCALE
 40
1.0
  9
$OSMODE
 70
    37
  9
$ATTMODE
 70
     1
  9
$TEXTSIZE
 40
0.125
  9
$TRACEWID
 40
0.05
  9
$TEXTSTYLE
  7
STANDARD
  9
$CLAYER
  8
0
  9
$CELTYPE
  6
BYLAYER
  9
$CECOLOR
 62
   256
  9
$CELTSCALE
 40
1.0
  9
$DELOBJ
 70
     1
  9
$DISPSILH
 70
     0
  9
$DIMSCALE
 40
1.0
  9
$DIMASZ
 40
0.13
  9
$DIMEXO
 40
0.05
  9
$DIMDLI
 40
0.38
  9
$DIMRND
 40
0.0
  9
$DIMDLE
 40
0.0
  9
$DIMEXE
 40
0.125
  9
$DIMTP
 40
0.0
  9
$DIMTM
 40
0.0
  9
$DIMTXT
 40
0.125
  9
$DIMCEN
 40
0.09
  9
$DIMTSZ
 40
0.0
  9
$DIMTOL
 70
     0
  9
$DIMLIM
 70
     0
  9
$DIMTIH
 70
     1
  9
$DIMTOH
 70
     1
  9
$DIMSE1
 70
     0
  9
$DIMSE2
 70
     0
  9
$DIMTAD
 70
     0
  9
$DIMZIN
 70
     0
  9
$DIMBLK
  1

  9
$DIMASO
 70
     1
  9
$DIMSHO
 70
     1
  9
$DIMPOST
  1

  9
$DIMAPOST
  1

  9
$DIMALT
 70
     0
  9
$DIMALTD
 70
     2
  9
$DIMALTF
 40
25.4
  9
$DIMLFAC
 40
1.0
  9
$DIMTOFL
 70
     0
  9
$DIMTVP
 40
0.0
  9
$DIMTIX
 70
     0
  9
$DIMSOXD
 70
     0
  9
$DIMSAH
 70
     0
  9
$DIMBLK1
  1

  9
$DIMBLK2
  1

  9
$DIMSTYLE
  2
STANDARD
  9
$DIMCLRD
 70
     0
  9
$DIMCLRE
 70
     0
  9
$DIMCLRT
 70
     0
  9
$DIMTFAC
 40
1.0
  9
$DIMGAP
 40
0.06
  9
$DIMJUST
 70
     0
  9
$DIMSD1
 70
     0
  9
$DIMSD2
 70
     0
  9
$DIMTOLJ
 70
     1
  9
$DIMTZIN
 70
     0
  9
$DIMALTZ
 70
     0
  9
$DIMALTTZ
 70
     0
  9
$DIMFIT
 70
     3
  9
$DIMUPT
 70
     0
  9
$DIMUNIT
 70
     2
  9
$DIMDEC
 70
     3
  9
$DIMTDEC
 70
     3
  9
$DIMALTU
 70
     2
  9
$DIMALTTD
 70
     2
  9
$DIMTXSTY
  7
STANDARD
  9
$DIMAUNIT
 70
     0
  9
$LUNITS
 70
     2
  9
$LUPREC
 70
     2
  9
$SKETCHINC
 40
0.1
  9
$FILLETRAD
 40
0.5
  9
$AUNITS
 70
     0
  9
$AUPREC
 70
     2
  9
$MENU
  1
.
  9
$ELEVATION
 40
0.0
  9
$PELEVATION
 40
0.0
  9
$THICKNESS
 40
0.0
  9
$LIMCHECK
 70
     0
  9
$CHAMFERA
 40
0.5
  9
$CHAMFERB
 40
0.5
  9
$CHAMFERC
 40
1.0
  9
$CHAMFERD
 40
0.0
  9
$SKPOLY
 70
     0
  9
$TDCREATE
 40
2455784.019986782
  9
$TDUPDATE
 40
2455784.019986794
  9
$TDINDWG
 40
0.0000000116
  9
$TDUSRTIMER
 40
0.0000000116
  9
$USRTIMER
 70
     1
  9
$ANGBASE
 50
0.0
  9
$ANGDIR
 70
     0
  9
$PDMODE
 70
     0
  9
$PDSIZE
 40
-1.0
  9
$PLINEWID
 40
0.0
  9
$COORDS
 70
     1
  9
$SPLFRAME
 70
     0
  9
$SPLINETYPE
 70
     6
  9
$SPLINESEGS
 70
     8
  9
$ATTDIA
 70
     0
  9
$ATTREQ
 70
     1
  9
$HANDLING
 70
     1
  9
$HANDSEED
  5
5C9
  9
$SURFTAB1
 70
     6
  9
$SURFTAB2
 70
     6
  9
$SURFTYPE
 70
     6
  9
$SURFU
 70
     6
  9
$SURFV
 70
     6
  9
$UCSNAME
  2

  9
$UCSORG
 10
0.0
 20
0.0
 30
0.0
  9
$UCSXDIR
 10
1.0
 20
0.0
 30
0.0
  9
$UCSYDIR
 10
0.0
 20
1.0
 30
0.0
  9
$PUCSNAME
  2

  9
$PUCSORG
 10
0.0
 20
0.0
 30
0.0
  9
$PUCSXDIR
 10
1.0
 20
0.0
 30
0.0
  9
$PUCSYDIR
 10
0.0
 20
1.0
 30
0.0
  9
$USERI1
 70
     0
  9
$USERI2
 70
     0
  9
$USERI3
 70
     0
  9
$USERI4
 70
     0
  9
$USERI5
 70
     0
  9
$USERR1
 40
0.0
  9
$USERR2
 40
0.0
  9
$USERR3
 40
0.0
  9
$USERR4
 40
0.0
  9
$USERR5
 40
0.0
  9
$WORLDVIEW
 70
     1
  9
$SHADEDGE
 70
     3
  9
$SHADEDIF
 70
    70
  9
$TILEMODE
 70
     1
  9
$MAXACTVP
 70
    64
  9
$PINSBASE
 10
0.0
 20
0.0
 30
0.0
  9
$PLIMCHECK
 70
     0
  9
$PEXTMIN
 10
1.0000000000E+20
 20
1.0000000000E+20
 30
1.0000000000E+20
  9
$PEXTMAX
 10
-1.0000000000E+20
 20
-1.0000000000E+20
 30
-1.0000000000E+20
  9
$PLIMMIN
 10
0.0
 20
0.0
  9
$PLIMMAX
 10
12.0
 20
9.0
  9
$UNITMODE
 70
     0
  9
$VISRETAIN
 70
     1
  9
$PLINEGEN
 70
     0
  9
$PSLTSCALE
 70
     1
  9
$TREEDEPTH
 70
  3020
  9
$PICKSTYLE
 70
     1
  9
$CMLSTYLE
  2
STANDARD
  9
$CMLJUST
 70
     0
  9
$CMLSCALE
 40
1.0
  9
$SAVEIMAGES
 70
     1
  0
ENDSEC
  0
SECTION
  2
CLASSES
  0
CLASS
  1
ACDBDICTIONARYWDFLT
  2
AcDbDictionaryWithDefault
  3
ObjectDBX Classes
 90
    32768
280
     0
281
     0
  0
CLASS
  1
VISUALSTYLE
  2
AcDbVisualStyle
  3
ObjectDBX Classes
 90
     4095
280
     0
281
     0
  0
CLASS
  1
SCALE
  2
AcDbScale
  3
ObjectDBX Classes
 90
     1153
280
     0
281
     0
  0
CLASS
  1
DICTIONARYVAR
  2
AcDbDictionaryVar
  3
ObjectDBX Classes
 90
        0
280
     0
281
     0
  0
CLASS
  1
XRECORD
  2
AcDbXrecord
  3
AutoCAD 2000
 90
    32768
280
     0
281
     0
  0
CLASS
  1
LWPOLYLINE
  2
AcDbPolyline
  3
AutoCAD 2000
 90
    32768
280
     0
281
     1
  0
CLASS
  1
HATCH
  2
AcDbHatch
  3
AutoCAD 2000
 90
    32768
280
     0
281
     1
  0
CLASS
  1
ACDBPLACEHOLDER
  2
AcDbPlaceHolder
  3
ObjectDBX Classes
 90
        0
280
     0
281
     0
  0
CLASS
  1
LAYOUT
  2
AcDbLayout
  3
ObjectDBX Classes
 90
        0
280
     0
281
     0
  0
ENDSEC
  0
SECTION
  2
TABLES
  0
TABLE
  2
VPORT
  5
8
330
0
100
AcDbSymbolTable
 70
     1
  0
VPORT
  5
29
330
8
100
AcDbSymbolTableRecord
100
AcDbViewportTableRecord
  2
*ACTIVE
 70
     0
 10
0.0
 20
0.0
 11
1.0
 21
1.0
 12
5.5
 22
4.25
 13
0.0
 23
0.0
 14
0.5
 24
0.5
 15
0.5
 25
0.5
 16
0.0
 26
0.0
 36
1.0
 17
0.0
 27
0.0
 37
0.0
 40
8.5
 41
1.2941176471
 42
50.0
 43
0.0
 44
0.0
 50
0.0
 51
0.0
 71
     0
 72
  2000
 73
     1
 74
     3
 75
     0
 76
     0
 77
     0
 78
     0
  0
ENDTAB
  0
TABLE
  2
LTYPE
  5
5
330
0
100
AcDbSymbolTable
 70
     6
  0
LTYPE
  5
14
330
5
100
AcDbSymbolTableRecord
100
AcDbLinetypeTableRecord
  2
BYBLOCK
 70
     0
  3

 72
    65
 73
     0
 40
0.0
  0
LTYPE
  5
15
330
5
100
AcDbSymbolTableRecord
100
AcDbLinetypeTableRecord
  2
BYLAYER
 70
     0
  3

 72
    65
 73
     0
 40
0.0
  0
LTYPE
  5
16
330
5
100
AcDbSymbolTableRecord
100
AcDbLinetypeTableRecord
  2
CONTINUOUS
 70
     0
  3
Solid line
 72
    65
 73
     0
 40
0.0
  0
LTYPE
  5
3B
330
5
100
AcDbSymbolTableRecord
100
AcDbLinetypeTableRecord
  2
HIDDEN
 70
     0
  3
Hidden __ __ __ __ __ __ __ __ __ __ __ __ __ __
 72
    65
 73
     2
 40
0.075
 49
0.05
 74
     0
 49
-0.025
 74
     0
  0
LTYPE
  5
3C
330
5
100
AcDbSymbolTableRecord
100
AcDbLinetypeTableRecord
  2
PHANTOM
 70
     0
  3
Phantom ______  __  __  ______  __  __  ______
 72
    65
 73
     6
 40
0.5
 49
0.25
 74
     0
 49
-0.05
 74
     0
 49
0.05
 74
     0
 49
-0.05
 74
     0
 49
0.05
 74
     0
 49
-0.05
 74
     0
  0
LTYPE
  5
3D
330
5
100
AcDbSymbolTableRecord
100
AcDbLinetypeTableRecord
  2
CENTER
 70
     0
  3
Center ____ _ ____ _ ____ _ ____ _ ____ _ ____
 72
    65
 73
     4
 40
0.4
 49
0.25
 74
     0
 49
-0.05
 74
     0
 49
0.05
 74
     0
 49
-0.05
 74
     0
  0
LTYPE
  5
3E
330
5
100
AcDbSymbolTableRecord
100
AcDbLinetypeTableRecord
  2
CENTERX2
 70
     0
  3
Center (2x) ________  __  ________  __  _____
 72
    65
 73
     4
 40
0.8
 49
0.5
 74
     0
 49
-0.1
 74
     0
 49
0.1
 74
     0
 49
-0.1
 74
     0
  0
LTYPE
  5
3F
330
5
100
AcDbSymbolTableRecord
100
AcDbLinetypeTableRecord
  2
DOT2
 70
     0
  3
Dot (.5x) ........................................
 72
    65
 73
     2
 40
0.025
 49
0.0
 74
     0
 49
-0.025
 74
     0
  0
ENDTAB
  0
TABLE
  2
LAYER
  5
2
330
0
100
AcDbSymbolTable
 70
     2
  0
LAYER
  5
10
330
2
100
AcDbSymbolTableRecord
100
AcDbLayerTableRecord
  2
0
 70
     0
 62
     7
  6
CONTINUOUS
  0
LAYER
  5
40
330
2
100
AcDbSymbolTableRecord
100
AcDbLayerTableRecord
  2
FORMAT
 70
     0
 62
     7
  6
CONTINUOUS
  0
ENDTAB
  0
TABLE
  2
STYLE
  5
3
330
0
100
AcDbSymbolTable
 70
     4
  0
STYLE
  5
11
330
3
100
AcDbSymbolTableRecord
100
AcDbTextStyleTableRecord
  2
STANDARD
 70
     0
 40
0.0
 41
1.0
 50
0.0
 71
     0
 42
0.2
  3
txt
  4

  0
STYLE
  5
6E
330
3
100
AcDbSymbolTableRecord
100
AcDbTextStyleTableRecord
  2
SLDTEXTSTYLE0
 70
     0
 40
0.0
 41
0.75
 50
0.0
 71
     0
 42
0.2
  3
TXT
  4

  0
STYLE
  5
93
330
3
100
AcDbSymbolTableRecord
100
AcDbTextStyleTableRecord
  2
SLDTEXTSTYLE1
 70
     0
 40
0.0
 41
0.6875
 50
0.0
 71
     0
 42
0.2
  3
TXT
  4

  0
STYLE
  5
99
330
3
100
AcDbSymbolTableRecord
100
AcDbTextStyleTableRecord
  2
SLDTEXTSTYLE2
 70
     0
 40
0.0
 41
0.6944444444
 50
0.0
 71
     0
 42
0.2
  3
TXT
  4

  0
ENDTAB
  0
TABLE
  2
VIEW
  5
6
330
0
100
AcDbSymbolTable
 70
     0
  0
ENDTAB
  0
TABLE
  2
UCS
  5
7
330
0
100
AcDbSymbolTable
 70
     0
  0
ENDTAB
  0
TABLE
  2
APPID
  5
9
330
0
100
AcDbSymbolTable
 70
     1
  0
APPID
  5
12
330
9
100
AcDbSymbolTableRecord
100
AcDbRegAppTableRecord
  2
ACAD
 70
     0
  0
ENDTAB
  0
TABLE
  2
DIMSTYLE
  5
A
330
0
100
AcDbSymbolTable
 70
     1
  0
DIMSTYLE
105
27
330
A
100
AcDbSymbolTableRecord
100
AcDbDimStyleTableRecord
  2
STANDARD
 70
     0
  3

  4

  5

  6

  7

 40
1.0
 41
0.18
 42
0.0625
 43
0.38
 44
0.18
 45
0.0
 46
0.0
 47
0.0
 48
0.0
140
0.18
141
0.09
142
0.0
143
25.4
144
1.0
145
0.0
146
1.0
147
0.09
 71
     0
 72
     0
 73
     1
 74
     1
 75
     0
 76
     0
 77
     0
 78
     0
170
     0
171
     2
172
     0
173
     0
174
     0
175
     0
176
     0
177
     0
178
     0
270
     2
271
     4
272
     4
273
     2
274
     2
340
11
275
     0
280
     0
281
     0
282
     0
283
     1
284
     0
285
     0
286
     0
287
     3
288
     0
  0
ENDTAB
  0
TABLE
  2
BLOCK_RECORD
  5
1
330
0
100
AcDbSymbolTable
 70
     4
  0
BLOCK_RECORD
  5
1F
330
1
100
AcDbSymbolTableRecord
100
AcDbBlockTableRecord
  2
*MODEL_SPACE
  0
BLOCK_RECORD
  5
1B
330
1
100
AcDbSymbolTableRecord
100
AcDbBlockTableRecord
  2
*PAPER_SPACE
  0
BLOCK_RECORD
  5
A8
330
1
100
AcDbSymbolTableRecord
100
AcDbBlockTableRecord
  2
SW_NOTE_0
  0
BLOCK_RECORD
  5
AE
330
1
100
AcDbSymbolTableRecord
100
AcDbBlockTableRecord
  2
SW_NOTE_1
  0
BLOCK_RECORD
  5
C2
330
1
100
AcDbSymbolTableRecord
100
AcDbBlockTableRecord
  2
SW_NOTE_2
  0
ENDTAB
  0
ENDSEC
  0
SECTION
  2
BLOCKS
  0
BLOCK
  5
20
330
1F
100
AcDbEntity
  8
0
100
AcDbBlockBegin
  2
*MODEL_SPACE
 70
     0
 10
0.0
 20
0.0
 30
0.0
  3
*MODEL_SPACE
  1

  0
ENDBLK
  5
21
330
1F
100
AcDbEntity
  8
0
100
AcDbBlockEnd
  0
BLOCK
  5
1C
330
1B
100
AcDbEntity
 67
     1
  8
0
100
AcDbBlockBegin
  2
*PAPER_SPACE
 70
     0
 10
0.0
 20
0.0
 30
0.0
  3
*PAPER_SPACE
  1

  0
ENDBLK
  5
1D
330
1B
100
AcDbEntity
 67
     1
  8
0
100
AcDbBlockEnd
  0
BLOCK
  5
A9
330
A8
100
AcDbEntity
  8
0
100
AcDbBlockBegin
  2
SW_NOTE_0
 70
     0
 10
0.0
 20
0.0
 30
0.0
  3
SW_NOTE_0
  1

  0
MTEXT
  5
AB
330
A8
100
AcDbEntity
  8
0
  6
CONTINUOUS
 62
     0
100
AcDbMText
 10
0.0
 20
0.0773440644
 30
0.0
 40
0.06
 41
0.0
 71
     1
 72
     1
  1
INTERPRET GEOMETRIC
  7
SLDTEXTSTYLE0
  0
MTEXT
  5
AC
330
A8
100
AcDbEntity
  8
0
  6
CONTINUOUS
 62
     0
100
AcDbMText
 10
0.0
 20
-0.0220260102
 30
0.0
 40
0.06
 41
0.0
 71
     1
 72
     1
  1
TOLERANCING PER:
  7
SLDTEXTSTYLE0
  0
ENDBLK
  5
AA
330
A8
100
AcDbEntity
  8
0
100
AcDbBlockEnd
  0
BLOCK
  5
AF
330
AE
100
AcDbEntity
  8
0
100
AcDbBlockBegin
  2
SW_NOTE_1
 70
     0
 10
0.0
 20
0.0
 30
0.0
  3
SW_NOTE_1
  1

  0
MTEXT
  5
B1
330
AE
100
AcDbEntity
  8
0
  6
CONTINUOUS
 62
     0
100
AcDbMText
 10
0.0
 20
0.0837894031
 30
0.0
 40
0.065
 41
0.0
 71
     1
 72
     1
  1
DIMENSIONS ARE IN INCHES
  7
SLDTEXTSTYLE0
  0
MTEXT
  5
B2
330
AE
100
AcDbEntity
  8
0
  6
CONTINUOUS
 62
     0
100
AcDbMText
 10
0.0
 20
-0.0205806729
 30
0.0
 40
0.065
 41
0.0
 71
     1
 72
     1
  1
TOLERANCES:
  7
SLDTEXTSTYLE0
  0
MTEXT
  5
B3
330
AE
100
AcDbEntity
  8
0
  6
CONTINUOUS
 62
     0
100
AcDbMText
 10
0.0
 20
-0.1249507489
 30
0.0
 40
0.065
 41
0.0
 71
     1
 72
     1
  1
FRACTIONAL
  7
SLDTEXTSTYLE0
  0
MTEXT
  5
B4
330
AE
100
AcDbEntity
  8
0
  6
CONTINUOUS
 62
     0
100
AcDbMText
 10
0.5175850875
 20
-0.1249507489
 30
0.0
 40
0.065
 41
0.0
 71
     1
 72
     1
  1
%%p
  7
SLDTEXTSTYLE0
  0
MTEXT
  5
B5
330
AE
100
AcDbEntity
  8
0
  6
CONTINUOUS
 62
     0
100
AcDbMText
 10
0.0
 20
-0.2293208248
 30
0.0
 40
0.065
 41
0.0
 71
     1
 72
     1
  1
ANGULAR: MACH
  7
SLDTEXTSTYLE0
  0
MTEXT
  5
B6
330
AE
100
AcDbEntity
  8
0
  6
CONTINUOUS
 62
     0
100
AcDbMText
 10
0.7233732769
 20
-0.2293208248
 30
0.0
 40
0.065
 41
0.0
 71
     1
 72
     1
  1
%%p
  7
SLDTEXTSTYLE0
  0
MTEXT
  5
B7
330
AE
100
AcDbEntity
  8
0
  6
CONTINUOUS
 62
     0
100
AcDbMText
 10
0.7852857683
 20
-0.2293208248
 30
0.0
 40
0.065
 41
0.0
 71
     1
 72
     1
  1
     BEND 
  7
SLDTEXTSTYLE0
  0
MTEXT
  5
B8
330
AE
100
AcDbEntity
  8
0
  6
CONTINUOUS
 62
     0
100
AcDbMText
 10
1.14784136
 20
-0.2293208248
 30
0.0
 40
0.065
 41
0.0
 71
     1
 72
     1
  1
%%p
  7
SLDTEXTSTYLE0
  0
MTEXT
  5
B9
330
AE
100
AcDbEntity
  8
0
  6
CONTINUOUS
 62
     0
100
AcDbMText
 10
0.0
 20
-0.3336909008
 30
0.0
 40
0.065
 41
0.0
 71
     1
 72
     1
  1
TWO PLACE DECIMAL    
  7
SLDTEXTSTYLE0
  0
MTEXT
  5
BA
330
AE
100
AcDbEntity
  8
0
  6
CONTINUOUS
 62
     0
100
AcDbMText
 10
0.9794349188
 20
-0.3336909008
 30
0.0
 40
0.065
 41
0.0
 71
     1
 72
     1
  1
%%p
  7
SLDTEXTSTYLE0
  0
MTEXT
  5
BB
330
AE
100
AcDbEntity
  8
0
  6
CONTINUOUS
 62
     0
100
AcDbMText
 10
0.0
 20
-0.4380609768
 30
0.0
 40
0.065
 41
0.0
 71
     1
 72
     1
  1
THREE PLACE DECIMAL  
  7
SLDTEXTSTYLE0
  0
MTEXT
  5
BC
330
AE
100
AcDbEntity
  8
0
  6
CONTINUOUS
 62
     0
100
AcDbMText
 10
0.9738038639
 20
-0.4380609768
 30
0.0
 40
0.065
 41
0.0
 71
     1
 72
     1
  1
%%p
  7
SLDTEXTSTYLE0
  0
ENDBLK
  5
B0
330
AE
100
AcDbEntity
  8
0
100
AcDbBlockEnd
  0
BLOCK
  5
C3
330
C2
100
AcDbEntity
  8
0
100
AcDbBlockBegin
  2
SW_NOTE_2
 70
     0
 10
0.0
 20
0.0
 30
0.0
  3
SW_NOTE_2
  1

  0
MTEXT
  5
C5
330
C2
100
AcDbEntity
  8
0
  6
CONTINUOUS
 62
     0
100
AcDbMText
 10
0.0
 20
0.0773440644
 30
0.0
 40
0.06
 41
0.0
 71
     1
 72
     1
  1
THE INFORMATION CONTAINED IN THIS
  7
SLDTEXTSTYLE0
  0
MTEXT
  5
C6
330
C2
100
AcDbEntity
  8
0
  6
CONTINUOUS
 62
     0
100
AcDbMText
 10
0.0
 20
-0.0220260102
 30
0.0
 40
0.06
 41
0.0
 71
     1
 72
     1
  1
DRAWING IS THE SOLE PROPERTY OF
  7
SLDTEXTSTYLE0
  0
MTEXT
  5
C7
330
C2
100
AcDbEntity
  8
0
  6
CONTINUOUS
 62
     0
100
AcDbMText
 10
0.0
 20
-0.1213960848
 30
0.0
 40
0.06
 41
0.0
 71
     1
 72
     1
  1
Candy Controls.  ANY 
  7
SLDTEXTSTYLE0
  0
MTEXT
  5
C8
330
C2
100
AcDbEntity
  8
0
  6
CONTINUOUS
 62
     0
100
AcDbMText
 10
0.0
 20
-0.2207661593
 30
0.0
 40
0.06
 41
0.0
 71
     1
 72
     1
  1
REPRODUCTION IN PART OR AS A WHOLE
  7
SLDTEXTSTYLE0
  0
MTEXT
  5
C9
330
C2
100
AcDbEntity
  8
0
  6
CONTINUOUS
 62
     0
100
AcDbMText
 10
0.0
 20
-0.3201362339
 30
0.0
 40
0.06
 41
0.0
 71
     1
 72
     1
  1
WITHOUT THE WRITTEN PERMISSION OF
  7
SLDTEXTSTYLE0
  0
MTEXT
  5
CA
330
C2
100
AcDbEntity
  8
0
  6
CONTINUOUS
 62
     0
100
AcDbMText
 10
0.0
 20
-0.4195063085
 30
0.0
 40
0.06
 41
0.0
 71
     1
 72
     1
  1
Candy Controls IS 
  7
SLDTEXTSTYLE0
  0
MTEXT
  5
CB
330
C2
100
AcDbEntity
  8
0
  6
CONTINUOUS
 62
     0
100
AcDbMText
 10
0.0
 20
-0.518876383
 30
0.0
 40
0.06
 41
0.0
 71
     1
 72
     1
  1
PROHIBITED.
  7
SLDTEXTSTYLE0
  0
ENDBLK
  5
C4
330
C2
100
AcDbEntity
  8
0
100
AcDbBlockEnd
  0
ENDSEC
  0
SECTION
  2
ENTITIES
  0
LINE
  5
41
330
1F
100
AcDbEntity
  8
0
  6
CONTINUOUS
 62
     7
100
AcDbLine
 10
0.329927
 20
8.1920731707
 30
0.0
 11
10.629927
 21
8.1920731707
 31
0.0
  0
LINE
  5
42
330
1F
100
AcDbEntity
  8
0
  6
CONTINUOUS
 62
     7
100
AcDbLine
 10
0.329927
 20
8.1920731707
 30
0.0
 11
0.329927
 21
0.3920731707
 31
0.0
  0
LINE
  5
43
330
1F
100
AcDbEntity
  8
0
  6
CONTINUOUS
 62
     7
100
AcDbLine
 10
10.629927
 20
0.3920731707
 30
0.0
 11
0.329927
 21
0.3920731707
 31
0.0
  0
LINE
  5
44
330
1F
100
AcDbEntity
  8
0
  6
CONTINUOUS
 62
     7
100
AcDbLine
 10
10.629927
 20
0.3920731707
 30
0.0
 11
10.629927
 21
8.1920731707
 31
0.0
  0
LINE
  5
45
330
1F
100
AcDbEntity
  8
0
  6
CONTINUOUS
 62
     7
100
AcDbLine
 10
4.7981841288
 20
0.3920731707
 30
0.0
 11
4.7981841288
 21
2.3564211366
 31
0.0
  0
LINE
  5
46
330
1F
100
AcDbEntity
  8
0
  6
CONTINUOUS
 62
     7
100
AcDbLine
 10
2.8210345579
 20
2.3564211366
 30
0.0
 11
10.629927
 21
2.3564211366
 31
0.0
  0
LINE
  5
47
330
1F
100
AcDbEntity
  8
0
  6
CONTINUOUS
 62
     7
100
AcDbLine
 10
6.1796352514
 20
2.3564211366
 30
0.0
 11
6.1796352514
 21
0.3920731707
 31
0.0
  0
LINE
  5
48
330
1F
100
AcDbEntity
  8
0
  6
CONTINUOUS
 62
     7
100
AcDbLine
 10
7.8712070044
 20
2.3564211366
 30
0.0
 11
7.8712070044
 21
0.3920731707
 31
0.0
  0
LINE
  5
49
330
1F
100
AcDbEntity
  8
0
  6
CONTINUOUS
 62
     7
100
AcDbLine
 10
7.8712070044
 20
0.6049590101
 30
0.0
 11
10.629927
 21
0.6049590101
 31
0.0
  0
LINE
  5
4A
330
1F
100
AcDbEntity
  8
0
  6
CONTINUOUS
 62
     7
100
AcDbLine
 10
7.8712070044
 20
1.1119362457
 30
0.0
 11
10.629927
 21
1.1119362457
 31
0.0
  0
LINE
  5
4B
330
1F
100
AcDbEntity
  8
0
  6
CONTINUOUS
 62
     7
100
AcDbLine
 10
7.8712070044
 20
1.9892703708
 30
0.0
 11
10.629927
 21
1.9892703708
 31
0.0
  0
LINE
  5
4C
330
1F
100
AcDbEntity
  8
0
  6
CONTINUOUS
 62
     7
100
AcDbLine
 10
8.266751752
 20
1.1119362457
 30
0.0
 11
8.266751752
 21
0.6049590101
 31
0.0
  0
LINE
  5
4D
330
1F
100
AcDbEntity
  8
0
  6
CONTINUOUS
 62
     7
100
AcDbLine
 10
8.6943435176
 20
0.6049590101
 30
0.0
 11
8.6943435176
 21
0.3920731707
 31
0.0
  0
LINE
  5
4E
330
1F
100
AcDbEntity
  8
0
  6
CONTINUOUS
 62
     7
100
AcDbLine
 10
10.0579917045
 20
1.1119362457
 30
0.0
 11
10.0579917045
 21
0.6049590101
 31
0.0
  0
LINE
  5
4F
330
1F
100
AcDbEntity
  8
0
  6
CONTINUOUS
 62
     7
100
AcDbLine
 10
9.6662556631
 20
0.6049590101
 30
0.0
 11
9.6662556631
 21
0.3920731707
 31
0.0
  0
LINE
  5
50
330
1F
100
AcDbEntity
  8
0
  6
CONTINUOUS
 62
     7
100
AcDbLine
 10
2.8210345579
 20
0.5883479999
 30
0.0
 11
6.1796352514
 21
0.5883479999
 31
0.0
  0
LINE
  5
51
330
1F
100
AcDbEntity
  8
0
  6
CONTINUOUS
 62
     7
100
AcDbLine
 10
6.1796352514
 20
1.7939211366
 30
0.0
 11
7.8712070044
 21
1.7939211366
 31
0.0
  0
LINE
  5
52
330
1F
100
AcDbEntity
  8
0
  6
CONTINUOUS
 62
     7
100
AcDbLine
 10
6.1796352514
 20
1.9814211366
 30
0.0
 11
7.8712070044
 21
1.9814211366
 31
0.0
  0
LINE
  5
53
330
1F
100
AcDbEntity
  8
0
  6
CONTINUOUS
 62
     7
100
AcDbLine
 10
6.1796352514
 20
2.1689211366
 30
0.0
 11
7.8712070044
 21
2.1689211366
 31
0.0
  0
LINE
  5
54
330
1F
100
AcDbEntity
  8
0
  6
CONTINUOUS
 62
     7
100
AcDbLine
 10
7.8712070044
 20
1.2314211366
 30
0.0
 11
6.1796352514
 21
1.2314211366
 31
0.0
  0
LINE
  5
55
330
1F
100
AcDbEntity
  8
0
  6
CONTINUOUS
 62
     7
100
AcDbLine
 10
7.3921580388
 20
2.3564211366
 30
0.0
 11
7.3921580388
 21
1.2314211366
 31
0.0
  0
LINE
  5
56
330
1F
100
AcDbEntity
  8
0
  6
CONTINUOUS
 62
     7
100
AcDbLine
 10
6.9236308342
 20
2.3564211366
 30
0.0
 11
6.9236308342
 21
1.2314211366
 31
0.0
  0
LINE
  5
57
330
1F
100
AcDbEntity
  8
0
  6
CONTINUOUS
 62
     7
100
AcDbLine
 10
4.7981841288
 20
0.8557965305
 30
0.0
 11
6.1796352514
 21
0.8557965305
 31
0.0
  0
LINE
  5
58
330
1F
100
AcDbEntity
  8
0
  6
CONTINUOUS
 62
     7
100
AcDbLine
 10
4.7981841288
 20
1.1257965305
 30
0.0
 11
6.1796352514
 21
1.1257965305
 31
0.0
  0
LINE
  5
59
330
1F
100
AcDbEntity
  8
0
  6
CONTINUOUS
 62
     7
100
AcDbLine
 10
2.8210345579
 20
0.3920731707
 30
0.0
 11
2.8210345579
 21
2.3564211366
 31
0.0
  0
LINE
  5
5A
330
1F
100
AcDbEntity
  8
0
  6
CONTINUOUS
 62
     7
100
AcDbLine
 10
2.8210345579
 20
1.1064211366
 30
0.0
 11
4.7981841288
 21
1.1064211366
 31
0.0
  0
LINE
  5
5B
330
1F
100
AcDbEntity
  8
0
  6
CONTINUOUS
 62
     7
100
AcDbLine
 10
2.8210345579
 20
1.3564211366
 30
0.0
 11
4.7981841288
 21
1.3564211366
 31
0.0
  0
LINE
  5
5C
330
1F
100
AcDbEntity
  8
0
  6
CONTINUOUS
 62
     7
100
AcDbLine
 10
2.8210345579
 20
1.6064211366
 30
0.0
 11
4.7981841288
 21
1.6064211366
 31
0.0
  0
LINE
  5
5D
330
1F
100
AcDbEntity
  8
0
  6
CONTINUOUS
 62
     7
100
AcDbLine
 10
2.8210345579
 20
1.8564211366
 30
0.0
 11
4.7981841288
 21
1.8564211366
 31
0.0
  0
LINE
  5
5E
330
1F
100
AcDbEntity
  8
0
  6
CONTINUOUS
 62
     7
100
AcDbLine
 10
3.8190146875
 20
2.3564211366
 30
0.0
 11
3.8190146875
 21
0.5883479999
 31
0.0
  0
LINE
  5
5F
330
1F
100
AcDbEntity
  8
0
  6
CONTINUOUS
 62
     7
100
AcDbLine
 10
6.1796352514
 20
2.2020813496
 30
0.0
 11
4.7981841288
 21
2.2020813496
 31
0.0
  0
LINE
  5
60
330
1F
100
AcDbEntity
  8
0
  6
CONTINUOUS
 62
     7
100
AcDbLine
 10
7.8712070044
 20
1.6064211366
 30
0.0
 11
6.1796352514
 21
1.6064211366
 31
0.0
  0
LINE
  5
61
330
1F
100
AcDbEntity
  8
0
  6
CONTINUOUS
 62
     7
100
AcDbLine
 10
7.8712070044
 20
1.4189211366
 30
0.0
 11
6.1796352514
 21
1.4189211366
 31
0.0
  0
LINE
  5
62
330
1F
100
AcDbEntity
  8
0
  6
CONTINUOUS
 62
     7
100
AcDbLine
 10
2.8210345579
 20
2.1064211366
 30
0.0
 11
4.7981841288
 21
2.1064211366
 31
0.0
  0
LINE
  5
63
330
1F
100
AcDbEntity
  8
0
  6
CONTINUOUS
 62
     7
100
AcDbLine
 10
4.7981841288
 20
1.3957965305
 30
0.0
 11
6.1796352514
 21
1.3957965305
 31
0.0
  0
LINE
  5
64
330
1F
100
AcDbEntity
  8
0
  6
CONTINUOUS
 62
     7
100
AcDbLine
 10
2.8210345579
 20
0.8564211366
 30
0.0
 11
4.7981841288
 21
0.8564211366
 31
0.0
  0
LINE
  5
65
330
1F
100
AcDbEntity
  8
0
  6
CONTINUOUS
 62
     7
100
AcDbLine
 10
1.1838252943
 20
0.3920731707
 30
0.0
 11
1.1838252943
 21
1.3064211366
 31
0.0
  0
LINE
  5
66
330
1F
100
AcDbEntity
  8
0
  6
CONTINUOUS
 62
     7
100
AcDbLine
 10
2.8210345579
 20
1.3064211366
 30
0.0
 11
1.1838252943
 21
1.3064211366
 31
0.0
  0
LINE
  5
67
330
1F
100
AcDbEntity
  8
0
  6
CONTINUOUS
 62
     7
100
AcDbLine
 10
8.660927
 20
0.3920731707
 30
0.0
 11
8.660927
 21
0.3072739649
 31
0.0
  0
LINE
  5
68
330
1F
100
AcDbEntity
  8
0
  6
CONTINUOUS
 62
     7
100
AcDbLine
 10
6.692177
 20
0.3920731707
 30
0.0
 11
6.692177
 21
0.3072739649
 31
0.0
  0
LINE
  5
69
330
1F
100
AcDbEntity
  8
0
  6
CONTINUOUS
 62
     7
100
AcDbLine
 10
4.723427
 20
0.3920731707
 30
0.0
 11
4.723427
 21
0.3072739649
 31
0.0
  0
LINE
  5
6A
330
1F
100
AcDbEntity
  8
0
  6
CONTINUOUS
 62
     7
100
AcDbLine
 10
2.754677
 20
0.3920731707
 30
0.0
 11
2.754677
 21
0.3072739649
 31
0.0
  0
LINE
  5
6B
330
1F
100
AcDbEntity
  8
0
  6
CONTINUOUS
 62
     7
100
AcDbLine
 10
2.754677
 20
0.3920731707
 30
0.0
 11
2.7672319738
 21
0.3575
 31
0.0
  0
LINE
  5
6C
330
1F
100
AcDbEntity
  8
0
  6
CONTINUOUS
 62
     7
100
AcDbLine
 10
2.7672319738
 20
0.3575
 30
0.0
 11
2.7414258825
 21
0.3575
 31
0.0
  0
LINE
  5
6D
330
1F
100
AcDbEntity
  8
0
  6
CONTINUOUS
 62
     7
100
AcDbLine
 10
2.7414258825
 20
0.3575
 30
0.0
 11
2.754677
 21
0.3920731707
 31
0.0
  0
MTEXT
  5
91
330
1F
100
AcDbEntity
  8
0
  6
CONTINUOUS
 62
     7
100
AcDbMText
 10
4.9775846961
 20
0.5178452352
 30
0.0
 40
0.0625
 41
0.0
 71
     1
 72
     1
  1
DO NOT SCALE DRAWING
  7
SLDTEXTSTYLE0
  0
MTEXT
  5
92
330
1F
100
AcDbEntity
  8
0
  6
CONTINUOUS
 62
     7
100
AcDbMText
 10
8.9019933109
 20
0.9417064595
 30
0.0
 40
0.125
 41
0.0
 71
     1
 72
     1
  1
CL4-40
  7
SLDTEXTSTYLE0
  0
MTEXT
  5
94
330
1F
100
AcDbEntity
  8
0
  6
CONTINUOUS
 62
     7
100
AcDbMText
 10
9.7571278483
 20
0.5524239532
 30
0.0
 40
0.1
 41
0.0
 71
     1
 72
     1
  1
SHEET 1 OF 1
  7
SLDTEXTSTYLE1
  0
MTEXT
  5
95
330
1F
100
AcDbEntity
  8
0
  6
CONTINUOUS
 62
     7
100
AcDbMText
 10
4.8448077858
 20
2.3132954224
 30
0.0
 40
0.07
 41
0.0
 71
     1
 72
     1
  1
UNLESS OTHERWISE SPECIFIED:
  7
SLDTEXTSTYLE0
  0
MTEXT
  5
96
330
1F
100
AcDbEntity
  8
0
  6
CONTINUOUS
 62
     7
100
AcDbMText
 10
7.9586139647
 20
0.5520987879
 30
0.0
 40
0.1
 41
0.0
 71
     1
 72
     1
  1
SCALE: 1:1
  7
SLDTEXTSTYLE0
  0
MTEXT
  5
97
330
1F
100
AcDbEntity
  8
0
  6
CONTINUOUS
 62
     7
100
AcDbMText
 10
8.7023691647
 20
0.5486763345
 30
0.0
 40
0.1
 41
0.0
 71
     1
 72
     1
  1
WEIGHT: 
  7
SLDTEXTSTYLE0
  0
MTEXT
  5
98
330
1F
100
AcDbEntity
  8
0
  6
CONTINUOUS
 62
     7
100
AcDbMText
 10
10.2277580983
 20
1.081966299
 30
0.0
 40
0.1
 41
0.0
 71
     1
 72
     1
  1
REV
  7
SLDTEXTSTYLE0
  0
MTEXT
  5
9A
330
1F
100
AcDbEntity
  8
0
  6
CONTINUOUS
 62
     7
100
AcDbMText
 10
8.2984570898
 20
1.0858725293
 30
0.0
 40
0.1
 41
0.0
 71
     1
 72
     1
  1
DWG.  NO.
  7
SLDTEXTSTYLE2
  0
MTEXT
  5
9B
330
1F
100
AcDbEntity
  8
0
  6
CONTINUOUS
 62
     7
100
AcDbMText
 10
7.9598482632
 20
0.9442140768
 30
0.0
 40
0.25
 41
0.0
 71
     1
 72
     1
  1
A
  7
SLDTEXTSTYLE0
  0
MTEXT
  5
9C
330
1F
100
AcDbEntity
  8
0
  6
CONTINUOUS
 62
     7
100
AcDbMText
 10
7.9519581822
 20
1.0872713483
 30
0.0
 40
0.1
 41
0.0
 71
     1
 72
     1
  1
SIZE
  7
SLDTEXTSTYLE0
  0
MTEXT
  5
9D
330
1F
100
AcDbEntity
  8
0
  6
CONTINUOUS
 62
     7
100
AcDbMText
 10
7.9170704177
 20
1.9547881128
 30
0.0
 40
0.1
 41
0.0
 71
     1
 72
     1
  1
TITLE:
  7
SLDTEXTSTYLE0
  0
MTEXT
  5
9E
330
1F
100
AcDbEntity
  8
0
  6
CONTINUOUS
 62
     7
100
AcDbMText
 10
7.0363774929
 20
2.2906161274
 30
0.0
 40
0.065
 41
0.0
 71
     1
 72
     1
  1
NAME
  7
SLDTEXTSTYLE0
  0
MTEXT
  5
9F
330
1F
100
AcDbEntity
  8
0
  6
CONTINUOUS
 62
     7
100
AcDbMText
 10
7.5281510634
 20
2.2888799118
 30
0.0
 40
0.065
 41
0.0
 71
     1
 72
     1
  1
DATE
  7
SLDTEXTSTYLE0
  0
MTEXT
  5
A0
330
1F
100
AcDbEntity
  8
0
  6
CONTINUOUS
 62
     7
100
AcDbMText
 10
6.2277147029
 20
1.1876913145
 30
0.0
 40
0.065
 41
0.0
 71
     1
 72
     1
  1
COMMENTS:
  7
SLDTEXTSTYLE0
  0
MTEXT
  5
A1
330
1F
100
AcDbEntity
  8
0
  6
CONTINUOUS
 62
     7
100
AcDbMText
 10
6.2268411461
 20
1.3536101679
 30
0.0
 40
0.065
 41
0.0
 71
     1
 72
     1
  1
Q.A.
  7
SLDTEXTSTYLE0
  0
MTEXT
  5
A2
330
1F
100
AcDbEntity
  8
0
  6
CONTINUOUS
 62
     7
100
AcDbMText
 10
6.2284654509
 20
1.5395328424
 30
0.0
 40
0.065
 41
0.0
 71
     1
 72
     1
  1
MFG APPR.
  7
SLDTEXTSTYLE0
  0
MTEXT
  5
A3
330
1F
100
AcDbEntity
  8
0
  6
CONTINUOUS
 62
     7
100
AcDbMText
 10
6.2235171344
 20
1.7267501785
 30
0.0
 40
0.065
 41
0.0
 71
     1
 72
     1
  1
ENG APPR.
  7
SLDTEXTSTYLE0
  0
MTEXT
  5
A4
330
1F
100
AcDbEntity
  8
0
  6
CONTINUOUS
 62
     7
100
AcDbMText
 10
6.2264103951
 20
1.9092699088
 30
0.0
 40
0.065
 41
0.0
 71
     1
 72
     1
  1
CHECKED
  7
SLDTEXTSTYLE0
  0
MTEXT
  5
A5
330
1F
100
AcDbEntity
  8
0
  6
CONTINUOUS
 62
     7
100
AcDbMText
 10
6.2242794356
 20
2.1016301232
 30
0.0
 40
0.065
 41
0.0
 71
     1
 72
     1
  1
DRAWN
  7
SLDTEXTSTYLE0
  0
MTEXT
  5
A6
330
1F
100
AcDbEntity
  8
0
  6
CONTINUOUS
 62
     7
100
AcDbMText
 10
4.8208600979
 20
0.834523235
 30
0.0
 40
0.06
 41
0.0
 71
     1
 72
     1
  1
FINISH
  7
SLDTEXTSTYLE0
  0
MTEXT
  5
A7
330
1F
100
AcDbEntity
  8
0
  6
CONTINUOUS
 62
     7
100
AcDbMText
 10
4.8181240648
 20
1.1028217587
 30
0.0
 40
0.06
 41
0.0
 71
     1
 72
     1
  1
MATERIAL
  7
SLDTEXTSTYLE0
  0
INSERT
  5
AD
330
1F
100
AcDbEntity
  8
0
  6
CONTINUOUS
 62
     7
100
AcDbBlockReference
  2
SW_NOTE_0
 10
4.8231926633
 20
1.2646542947
 30
0.0
  0
INSERT
  5
BD
330
1F
100
AcDbEntity
  8
0
  6
CONTINUOUS
 62
     7
100
AcDbBlockReference
  2
SW_NOTE_1
 10
4.8353339353
 20
2.0049168724
 30
0.0
  0
MTEXT
  5
BE
330
1F
100
AcDbEntity
  8
0
  6
CONTINUOUS
 62
     7
100
AcDbMText
 10
3.5531400086
 20
0.5200091997
 30
0.0
 40
0.0625
 41
0.0
 71
     1
 72
     1
  1
APPLICATION
  7
SLDTEXTSTYLE0
  0
MTEXT
  5
BF
330
1F
100
AcDbEntity
  8
0
  6
CONTINUOUS
 62
     7
100
AcDbMText
 10
4.1005607758
 20
0.7502454275
 30
0.0
 40
0.0625
 41
0.0
 71
     1
 72
     1
  1
USED ON
  7
SLDTEXTSTYLE0
  0
MTEXT
  5
C0
330
1F
100
AcDbEntity
  8
0
  6
CONTINUOUS
 62
     7
100
AcDbMText
 10
3.1040019536
 20
0.7492094783
 30
0.0
 40
0.0625
 41
0.0
 71
     1
 72
     1
  1
NEXT ASSY
  7
SLDTEXTSTYLE0
  0
MTEXT
  5
C1
330
1F
100
AcDbEntity
  8
0
  6
CONTINUOUS
 62
     7
100
AcDbMText
 10
1.3712489489
 20
1.2496672684
 30
0.0
 40
0.06
 41
0.0
 71
     1
 72
     1
  1
PROPRIETARY AND CONFIDENTIAL
  7
SLDTEXTSTYLE0
  0
INSERT
  5
CC
330
1F
100
AcDbEntity
  8
0
  6
CONTINUOUS
 62
     7
100
AcDbBlockReference
  2
SW_NOTE_2
 10
1.2226209074
 20
1.0313492921
 30
0.0
  0
MTEXT
  5
CD
330
1F
100
AcDbEntity
  8
0
  6
CONTINUOUS
 62
     7
100
AcDbMText
 10
1.7387909509
 20
0.3105864247
 30
0.0
 40
0.09375
 41
0.0
 71
     1
 72
     1
  1
5
  7
SLDTEXTSTYLE0
  0
MTEXT
  5
CE
330
1F
100
AcDbEntity
  8
0
  6
CONTINUOUS
 62
     7
100
AcDbMText
 10
3.723800327
 20
0.3137237518
 30
0.0
 40
0.09375
 41
0.0
 71
     1
 72
     1
  1
4
  7
SLDTEXTSTYLE0
  0
MTEXT
  5
CF
330
1F
100
AcDbEntity
  8
0
  6
CONTINUOUS
 62
     7
100
AcDbMText
 10
5.6324457277
 20
0.3116191842
 30
0.0
 40
0.09375
 41
0.0
 71
     1
 72
     1
  1
3
  7
SLDTEXTSTYLE0
  0
MTEXT
  5
D0
330
1F
100
AcDbEntity
  8
0
  6
CONTINUOUS
 62
     7
100
AcDbMText
 10
7.6059721724
 20
0.3124391351
 30
0.0
 40
0.09375
 41
0.0
 71
     1
 72
     1
  1
2
  7
SLDTEXTSTYLE0
  0
MTEXT
  5
D1
330
1F
100
AcDbEntity
  8
0
  6
CONTINUOUS
 62
     7
100
AcDbMText
 10
9.6619921328
 20
0.301372012
 30
0.0
 40
0.09375
 41
0.0
 71
     1
 72
     1
  1
1
  7
SLDTEXTSTYLE0
  0
LINE
  5
D2
330
1F
100
AcDbEntity
  8
0
  6
CONTINUOUS
 62
     7
100
AcDbLine
 10
3.8495265344
 20
4.5448429734
 30
0.0
 11
3.8482896467
 21
4.5460798612
 31
0.0
  0
LINE
  5
D3
330
1F
100
AcDbEntity
  8
0
  6
CONTINUOUS
 62
     7
100
AcDbLine
 10
3.6317542136
 20
4.5460798612
 30
0.0
 11
3.6305169061
 21
4.5448425536
 31
0.0
  0
LINE
  5
D4
330
1F
100
AcDbEntity
  8
0
  6
CONTINUOUS
 62
     7
100
AcDbLine
 10
3.5234864971
 20
2.9712767116
 30
0.0
 11
3.995927442
 21
2.9712767116
 31
0.0
  0
LINE
  5
D5
330
1F
100
AcDbEntity
  8
0
  6
CONTINUOUS
 62
     7
100
AcDbLine
 10
3.6219116939
 20
4.5460798612
 30
0.0
 11
3.5234864971
 21
4.5460798612
 31
0.0
  0
LINE
  5
D6
330
1F
100
AcDbEntity
  8
0
  6
CONTINUOUS
 62
     7
100
AcDbLine
 10
3.995927442
 20
4.5460798612
 30
0.0
 11
3.8577954941
 21
4.5460798612
 31
0.0
  0
LINE
  5
D7
330
1F
100
AcDbEntity
  8
0
  6
CONTINUOUS
 62
     7
100
AcDbLine
 10
3.995927442
 20
2.9712767116
 30
0.0
 11
4.0156124813
 21
2.990961751
 31
0.0
  0
LINE
  5
D8
330
1F
100
AcDbEntity
  8
0
  6
CONTINUOUS
 62
     7
100
AcDbLine
 10
4.0156124813
 20
4.5263948218
 30
0.0
 11
3.995927442
 21
4.5460798612
 31
0.0
  0
LINE
  5
D9
330
1F
100
AcDbEntity
  8
0
  6
CONTINUOUS
 62
     7
100
AcDbLine
 10
3.5234864971
 20
4.5460798612
 30
0.0
 11
3.5038014577
 21
4.5263948218
 31
0.0
  0
LINE
  5
DA
330
1F
100
AcDbEntity
  8
0
  6
CONTINUOUS
 62
     7
100
AcDbLine
 10
3.5038014577
 20
2.990961751
 30
0.0
 11
3.5234864971
 21
2.9712767116
 31
0.0
  0
LINE
  5
DB
330
1F
100
AcDbEntity
  8
0
  6
CONTINUOUS
 62
     7
100
AcDbLine
 10
2.8935652372
 20
4.5460798612
 30
0.0
 11
2.6573447648
 21
4.5460798612
 31
0.0
  0
LINE
  5
DC
330
1F
100
AcDbEntity
  8
0
  6
CONTINUOUS
 62
     7
100
AcDbLine
 10
2.6573447648
 20
2.9712767116
 30
0.0
 11
2.8935652372
 21
2.9712767116
 31
0.0
  0
LINE
  5
DD
330
1F
100
AcDbEntity
  8
0
  6
CONTINUOUS
 62
     7
100
AcDbLine
 10
2.6573447648
 20
4.5460798612
 30
0.0
 11
2.6376597254
 21
4.5263948218
 31
0.0
  0
LINE
  5
DE
330
1F
100
AcDbEntity
  8
0
  6
CONTINUOUS
 62
     7
100
AcDbLine
 10
2.6376597254
 20
2.990961751
 30
0.0
 11
2.6573447648
 21
2.9712767116
 31
0.0
  0
LINE
  5
DF
330
1F
100
AcDbEntity
  8
0
  6
CONTINUOUS
 62
     7
100
AcDbLine
 10
2.9132502766
 20
4.5263948218
 30
0.0
 11
2.8935652372
 21
4.5460798612
 31
0.0
  0
LINE
  5
E0
330
1F
100
AcDbEntity
  8
0
  6
CONTINUOUS
 62
     7
100
AcDbLine
 10
2.8935652372
 20
2.9712767116
 30
0.0
 11
2.9132502766
 21
2.990961751
 31
0.0
  0
LINE
  5
E1
330
1F
100
AcDbEntity
  8
0
  6
CONTINUOUS
 62
     7
100
AcDbLine
 10
2.932935316
 20
2.9712767116
 30
0.0
 11
3.4841164183
 21
2.9712767116
 31
0.0
  0
LINE
  5
E2
330
1F
100
AcDbEntity
  8
0
  6
CONTINUOUS
 62
     7
100
AcDbLine
 10
3.4841164183
 20
4.5460798612
 30
0.0
 11
2.932935316
 21
4.5460798612
 31
0.0
  0
LINE
  5
E3
330
1F
100
AcDbEntity
  8
0
  6
CONTINUOUS
 62
     7
100
AcDbLine
 10
2.932935316
 20
4.5460798612
 30
0.0
 11
2.9132502766
 21
4.5263948218
 31
0.0
  0
LINE
  5
E4
330
1F
100
AcDbEntity
  8
0
  6
CONTINUOUS
 62
     7
100
AcDbLine
 10
2.9132502766
 20
2.990961751
 30
0.0
 11
2.932935316
 21
2.9712767116
 31
0.0
  0
LINE
  5
E5
330
1F
100
AcDbEntity
  8
0
  6
CONTINUOUS
 62
     7
100
AcDbLine
 10
3.4841164183
 20
2.9712767116
 30
0.0
 11
3.5038014577
 21
2.990961751
 31
0.0
  0
LINE
  5
E6
330
1F
100
AcDbEntity
  8
0
  6
CONTINUOUS
 62
     7
100
AcDbLine
 10
3.5038014577
 20
4.5263948218
 30
0.0
 11
3.4841164183
 21
4.5460798612
 31
0.0
  0
LINE
  5
E7
330
1F
100
AcDbEntity
  8
0
  6
CONTINUOUS
 62
     7
100
AcDbLine
 10
3.6317542136
 20
4.5460798612
 30
0.0
 11
3.8482896467
 21
4.5460798612
 31
0.0
  0
LINE
  5
E8
330
1F
100
AcDbEntity
  8
0
  6
CONTINUOUS
 62
     7
100
AcDbLine
 10
3.7597069695
 20
4.4618503769
 30
0.0
 11
3.7597069695
 21
3.0555061959
 31
0.0
  0
LINE
  5
E9
330
1F
100
AcDbEntity
  8
0
  6
CONTINUOUS
 62
     7
100
AcDbLine
 10
3.5234864971
 20
4.4618503769
 30
0.0
 11
3.7597069695
 21
4.4618503769
 31
0.0
  0
LINE
  5
EA
330
1F
100
AcDbEntity
  8
0
  6
CONTINUOUS
 62
     7
100
AcDbLine
 10
3.5234864971
 20
4.5460798612
 30
0.0
 11
3.5234864971
 21
4.4618503769
 31
0.0
  0
LINE
  5
EB
330
1F
100
AcDbEntity
  8
0
  6
CONTINUOUS
 62
     7
100
AcDbLine
 10
3.5234864971
 20
3.0555061959
 30
0.0
 11
3.5234864971
 21
2.9712767116
 31
0.0
  0
LINE
  5
EC
330
1F
100
AcDbEntity
  8
0
  6
CONTINUOUS
 62
     7
100
AcDbLine
 10
3.7597069695
 20
3.0555061959
 30
0.0
 11
3.5234864971
 21
3.0555061959
 31
0.0
  0
SPLINE
  5
ED
330
1F
100
AcDbEntity
  8
0
  6
CONTINUOUS
 62
     7
100
AcDbSpline
210
0.0
220
0.0
230
1.0
 70
     8
 71
     3
 72
    26
 73
    22
 74
     0
 42
0.00000001
 43
0.00000001
 40
0.0
 40
0.0
 40
0.0
 40
0.0
 40
0.0525202210170793
 40
0.1065738948821715
 40
0.1590911974581234
 40
0.213111795960455
 40
0.2659917302354333
 40
0.3203895126831313
 40
0.3735114937136758
 40
0.428196020972852
 40
0.4809153400165703
 40
0.5351892809080236
 40
0.5874884569802631
 40
0.6412937044852882
 40
0.6938102344978567
 40
0.7478201776933433
 40
0.8008505595591267
 40
0.8554159046519185
 40
0.9084604628719762
 40
0.9630721601831067
 40
1.0
 40
1.0
 40
1.0
 40
1.0
 10
3.621911693935734
 20
4.546079861195197
 30
0.0
 10
3.622223259837428
 20
4.546032818657487
 30
0.0
 10
3.622855488548828
 20
4.54593736006322
 30
0.0
 10
3.627938866307729
 20
4.545189464857048
 30
0.0
 10
3.635972079756052
 20
4.544075491975506
 30
0.0
 10
3.646901109224463
 20
4.542688968288314
 30
0.0
 10
3.660559379002216
 20
4.541170207660282
 30
0.0
 10
3.676392526723368
 20
4.539706635737667
 30
0.0
 10
3.694226343691808
 20
4.538444016194475
 30
0.0
 10
3.713203994626427
 20
4.537551430007384
 30
0.0
 10
3.73308789087827
 20
4.537116974619924
 30
0.0
 10
3.752887426248552
 20
4.537193851468889
 30
0.0
 10
3.772439961466401
 20
4.537768421923866
 30
0.0
 10
3.790873435394723
 20
4.538762301868502
 30
0.0
 10
3.808058706938787
 20
4.540082657202208
 30
0.0
 10
3.823266704572258
 20
4.541567214336577
 30
0.0
 10
3.836300780829212
 20
4.543073415369038
 30
0.0
 10
3.846577713158654
 20
4.544414243435827
 30
0.0
 10
3.85378937540676
 20
4.545433378761452
 30
0.0
 10
3.857721728428159
 20
4.546018068095814
 30
0.0
 10
3.857774290197189
 20
4.546026204154453
 30
0.0
 10
3.857795494068741
 20
4.546029486310772
 30
0.0
  0
LINE
  5
EE
330
1F
100
AcDbEntity
  8
0
  6
CONTINUOUS
 62
     7
100
AcDbLine
 10
3.995927442
 20
2.9712767116
 30
0.0
 11
3.995927442
 21
4.5460798612
 31
0.0
  0
SPLINE
  5
EF
330
1F
100
AcDbEntity
  8
0
  6
CONTINUOUS
 62
     7
100
AcDbSpline
210
0.0
220
0.0
230
1.0
 70
     8
 71
     3
 72
     8
 73
     4
 74
     0
 42
0.00000001
 43
0.00000001
 40
0.0
 40
0.0
 40
0.0
 40
0.0
 40
0.0007520222441055
 40
0.0007520222441055
 40
0.0007520222441055
 40
0.0007520222441055
 10
3.759706969526285
 20
3.055506195860877
 30
0.0
 10
3.753133319003739
 20
3.062867271255306
 30
0.0
 10
3.746571278113393
 20
3.070238733870246
 30
0.0
 10
3.740021930156206
 20
3.077621440250073
 30
0.0
  0
LINE
  5
F0
330
1F
100
AcDbEntity
  8
0
  6
CONTINUOUS
 62
     7
100
AcDbLine
 10
3.7400219302
 20
3.0776214403
 30
0.0
 11
3.7400219302
 21
4.4397351325
 31
0.0
  0
SPLINE
  5
F1
330
1F
100
AcDbEntity
  8
0
  6
CONTINUOUS
 62
     7
100
AcDbSpline
210
0.0
220
0.0
230
1.0
 70
     8
 71
     3
 72
     8
 73
     4
 74
     0
 42
0.00000001
 43
0.00000001
 40
0.0
 40
0.0
 40
0.0
 40
0.0
 40
0.0007520222441055
 40
0.0007520222441055
 40
0.0007520222441055
 40
0.0007520222441055
 10
3.740021930156206
 20
4.439735132534022
 30
0.0
 10
3.746571278113393
 20
4.447117838913849
 30
0.0
 10
3.753133319003739
 20
4.454489301528788
 30
0.0
 10
3.759706969526285
 20
4.461850376923217
 30
0.0
  0
LINE
  5
F2
330
1F
100
AcDbEntity
  8
0
  6
CONTINUOUS
 62
     7
100
AcDbLine
 10
4.0156124813
 20
4.5263948218
 30
0.0
 11
4.0156124813
 21
2.990961751
 31
0.0
  0
LINE
  5
F3
330
1F
100
AcDbEntity
  8
0
  6
CONTINUOUS
 62
     7
100
AcDbLine
 10
3.5234864971
 20
4.4618503769
 30
0.0
 11
3.5175256803
 21
4.455153671
 31
0.0
  0
LINE
  5
F4
330
1F
100
AcDbEntity
  8
0
  6
CONTINUOUS
 62
     7
100
AcDbLine
 10
3.5038014577
 20
4.455153671
 30
0.0
 11
3.5038014577
 21
4.5263948218
 31
0.0
  0
LINE
  5
F5
330
1F
100
AcDbEntity
  8
0
  6
CONTINUOUS
 62
     7
100
AcDbLine
 10
3.5038014577
 20
2.990961751
 30
0.0
 11
3.5038014577
 21
3.0644708493
 31
0.0
  0
LINE
  5
F6
330
1F
100
AcDbEntity
  8
0
  6
CONTINUOUS
 62
     7
100
AcDbLine
 10
3.5155069535
 20
3.0644708493
 30
0.0
 11
3.5234864971
 21
3.0555061959
 31
0.0
  0
CIRCLE
  5
F7
330
1F
100
AcDbEntity
  8
0
  6
CONTINUOUS
 62
     7
100
AcDbCircle
 10
2.9132502766
 20
3.7586782864
 30
0.0
 40
0.1082677165354307
  0
LINE
  5
F8
330
1F
100
AcDbEntity
  8
0
  6
CONTINUOUS
 62
     7
100
AcDbLine
 10
2.8541951585
 20
3.7927737747
 30
0.0
 11
2.9132502766
 21
3.8268692631
 31
0.0
  0
LINE
  5
F9
330
1F
100
AcDbEntity
  8
0
  6
CONTINUOUS
 62
     7
100
AcDbLine
 10
2.8541951585
 20
3.7245827981
 30
0.0
 11
2.8541951585
 21
3.7927737747
 31
0.0
  0
LINE
  5
FA
330
1F
100
AcDbEntity
  8
0
  6
CONTINUOUS
 62
     7
100
AcDbLine
 10
2.9132502766
 20
3.6904873097
 30
0.0
 11
2.8541951585
 21
3.7245827981
 31
0.0
  0
LINE
  5
FB
330
1F
100
AcDbEntity
  8
0
  6
CONTINUOUS
 62
     7
100
AcDbLine
 10
2.9723053947
 20
3.7245827981
 30
0.0
 11
2.9132502766
 21
3.6904873097
 31
0.0
  0
LINE
  5
FC
330
1F
100
AcDbEntity
  8
0
  6
CONTINUOUS
 62
     7
100
AcDbLine
 10
2.9723053947
 20
3.7927737747
 30
0.0
 11
2.9723053947
 21
3.7245827981
 31
0.0
  0
LINE
  5
FD
330
1F
100
AcDbEntity
  8
0
  6
CONTINUOUS
 62
     7
100
AcDbLine
 10
2.9132502766
 20
3.8268692631
 30
0.0
 11
2.9723053947
 21
3.7927737747
 31
0.0
  0
CIRCLE
  5
FE
330
1F
100
AcDbEntity
  8
0
  6
CONTINUOUS
 62
     7
100
AcDbCircle
 10
2.9132502766
 20
3.7586782864
 30
0.0
 40
0.1181102362204722
  0
LINE
  5
FF
330
1F
100
AcDbEntity
  8
0
  6
CONTINUOUS
 62
     7
100
AcDbLine
 10
2.8935652372
 20
4.1130089951
 30
0.0
 11
2.8935652372
 21
4.5460798612
 31
0.0
  0
LINE
  5
100
330
1F
100
AcDbEntity
  8
0
  6
CONTINUOUS
 62
     7
100
AcDbLine
 10
2.8935652372
 20
4.1130089951
 30
0.0
 11
3.1494707491
 21
4.1130089951
 31
0.0
  0
LINE
  5
101
330
1F
100
AcDbEntity
  8
0
  6
CONTINUOUS
 62
     7
100
AcDbLine
 10
3.1494707491
 20
4.1130089951
 30
0.0
 11
3.1494707491
 21
3.4043475777
 31
0.0
  0
LINE
  5
102
330
1F
100
AcDbEntity
  8
0
  6
CONTINUOUS
 62
     7
100
AcDbLine
 10
3.1494707491
 20
3.4043475777
 30
0.0
 11
2.8935652372
 21
3.4043475777
 31
0.0
  0
LINE
  5
103
330
1F
100
AcDbEntity
  8
0
  6
CONTINUOUS
 62
     7
100
AcDbLine
 10
2.8935652372
 20
2.9712767116
 30
0.0
 11
2.8935652372
 21
3.4043475777
 31
0.0
  0
SPLINE
  5
104
330
1F
100
AcDbEntity
  8
0
  6
CONTINUOUS
 62
     7
100
AcDbSpline
210
0.0
220
0.0
230
1.0
 70
     8
 71
     3
 72
    70
 73
    66
 74
     0
 42
0.00000001
 43
0.00000001
 40
-0.03125
 40
-0.03125
 40
0.0
 40
0.0
 40
0.03125
 40
0.03125
 40
0.0625
 40
0.0625
 40
0.09375
 40
0.09375
 40
0.125
 40
0.125
 40
0.15625
 40
0.15625
 40
0.1875
 40
0.1875
 40
0.21875
 40
0.21875
 40
0.25
 40
0.25
 40
0.28125
 40
0.28125
 40
0.3125
 40
0.3125
 40
0.34375
 40
0.34375
 40
0.375
 40
0.375
 40
0.40625
 40
0.40625
 40
0.4375
 40
0.4375
 40
0.46875
 40
0.46875
 40
0.5
 40
0.5
 40
0.53125
 40
0.53125
 40
0.5625
 40
0.5625
 40
0.59375
 40
0.59375
 40
0.625
 40
0.625
 40
0.65625
 40
0.65625
 40
0.6875
 40
0.6875
 40
0.71875
 40
0.71875
 40
0.75
 40
0.75
 40
0.78125
 40
0.78125
 40
0.8125
 40
0.8125
 40
0.84375
 40
0.84375
 40
0.875
 40
0.875
 40
0.90625
 40
0.90625
 40
0.9375
 40
0.9375
 40
0.96875
 40
0.96875
 40
1.0
 40
1.0
 40
1.03125
 40
1.03125
 10
3.031360512833371
 20
3.766493016777405
 30
0.0
 10
3.031360512833371
 20
3.750863556006683
 30
0.0
 10
3.030592588043515
 20
3.743181599204048
 30
0.0
 10
3.027585759550329
 20
3.728071706917249
 30
0.0
 10
3.025309563329829
 20
3.720564641102155
 30
0.0
 10
3.019377351013394
 20
3.706266667680329
 30
0.0
 10
3.015748811876485
 20
3.699487089383397
 30
0.0
 10
3.007178058960596
 20
3.686656628276302
 30
0.0
 10
3.002196768977131
 20
3.680590370404019
 30
0.0
 10
2.991316741748682
 20
3.669712966472107
 30
0.0
 10
2.98537813476507
 20
3.66482797024209
 30
0.0
 10
2.972471778090455
 20
3.656193538620437
 30
0.0
 10
2.965614160118157
 20
3.652531248682409
 30
0.0
 10
2.951407515306624
 20
3.64663724460131
 30
0.0
 10
2.94395317005047
 20
3.644363744092761
 30
0.0
 10
2.928702416079183
 20
3.641325341680597
 30
0.0
 10
2.921031895424564
 20
3.640572441765102
 30
0.0
 10
2.905602545833883
 20
3.640563696521423
 30
0.0
 10
2.897764713263817
 20
3.641332947489235
 30
0.0
 10
2.882608621434565
 20
3.644350598571527
 30
0.0
 10
2.875240958083874
 20
3.646583205449277
 30
0.0
 10
2.860927968079111
 20
3.65250676715877
 30
0.0
 10
2.854027580425885
 20
3.656199953143507
 30
0.0
 10
2.841242271701787
 20
3.664742224319063
 30
0.0
 10
2.83526713702722
 20
3.669632059328509
 30
0.0
 10
2.824256807572909
 20
3.680634945342866
 30
0.0
 10
2.819377696317898
 20
3.686587503133123
 30
0.0
 10
2.810823778855456
 20
3.699365935913661
 30
0.0
 10
2.807119149958279
 20
3.706275472217718
 30
0.0
 10
2.801190725329557
 20
3.72056624177956
 30
0.0
 10
2.798951664143082
 20
3.727927967499467
 30
0.0
 10
2.795919205165017
 20
3.743084229914892
 30
0.0
 10
2.795143014066112
 20
3.750919598679808
 30
0.0
 10
2.795137084170638
 20
3.766346172176859
 30
0.0
 10
2.795882396000516
 20
3.774020051191253
 30
0.0
 10
2.798910003326326
 20
3.789286962471689
 30
0.0
 10
2.801173539649857
 20
3.79673133694893
 30
0.0
 10
2.807057755507462
 20
3.81095044041538
 30
0.0
 10
2.810727834952793
 20
3.81783297973891
 30
0.0
 10
2.819339675272138
 20
3.830726379668191
 30
0.0
 10
2.824217115104193
 20
3.836667976768299
 30
0.0
 10
2.835094338501798
 20
3.847565546397025
 30
0.0
 10
2.841161198872082
 20
3.852553575798197
 30
0.0
 10
2.853969447253381
 20
3.861124312967301
 30
0.0
 10
2.860744103830565
 20
3.864759102714452
 30
0.0
 10
2.875049543159949
 20
3.870708379382872
 30
0.0
 10
2.882543224961189
 20
3.872986614219265
 30
0.0
 10
2.897644207651229
 20
3.876005893728765
 30
0.0
 10
2.905343247936564
 20
3.876781861472429
 30
0.0
 10
2.920957037405287
 20
3.876795098858963
 30
0.0
 10
2.928637190370807
 20
3.876035185273894
 30
0.0
 10
2.943754095350826
 20
3.873041374285654
 30
0.0
 10
2.951270684724105
 20
3.870768866694391
 30
0.0
 10
2.965563813428168
 20
3.864853346982266
 30
0.0
 10
2.972347205332128
 20
3.861231630547438
 30
0.0
 10
2.985194616738938
 20
3.852665771225553
 30
0.0
 10
2.991260522420183
 20
3.847692667712848
 30
0.0
 10
3.002143739438513
 20
3.836826292122898
 30
0.0
 10
3.00703666516184
 20
3.830890251501817
 30
0.0
 10
3.01569197680049
 20
3.817975441844424
 30
0.0
 10
3.019350182334869
 20
3.811137693582712
 30
0.0
 10
3.025257369183685
 20
3.796935189178947
 30
0.0
 10
3.027539515569935
 20
3.789476963481981
 30
0.0
 10
3.030592485315017
 20
3.774215168601075
 30
0.0
 10
3.031360512833371
 20
3.766493016777405
 30
0.0
 10
3.031360512833371
 20
3.750863556006683
 30
0.0
  0
LINE
  5
105
330
1F
100
AcDbEntity
  8
0
  6
CONTINUOUS
 62
     7
100
AcDbLine
 10
2.6573447648
 20
3.7586782864
 30
0.0
 11
2.6573447648
 21
2.9712767116
 31
0.0
  0
LINE
  5
106
330
1F
100
AcDbEntity
  8
0
  6
CONTINUOUS
 62
     7
100
AcDbLine
 10
2.6573447648
 20
4.5460798612
 30
0.0
 11
2.6573447648
 21
3.7586782864
 31
0.0
  0
LINE
  5
107
330
1F
100
AcDbEntity
  8
0
  6
CONTINUOUS
 62
     7
100
AcDbLine
 10
2.6376597254
 20
3.7586782864
 30
0.0
 11
2.6376597254
 21
4.5263948218
 31
0.0
  0
LINE
  5
108
330
1F
100
AcDbEntity
  8
0
  6
CONTINUOUS
 62
     7
100
AcDbLine
 10
2.6376597254
 20
2.990961751
 30
0.0
 11
2.6376597254
 21
3.7586782864
 31
0.0
  0
LINE
  5
109
330
1F
100
AcDbEntity
  8
0
  6
CONTINUOUS
 62
     7
100
AcDbLine
 10
2.9132502766
 20
4.5263948218
 30
0.0
 11
2.9132502766
 21
4.1130089951
 31
0.0
  0
LINE
  5
10A
330
1F
100
AcDbEntity
  8
0
  6
CONTINUOUS
 62
     7
100
AcDbLine
 10
2.9132502766
 20
3.4043475777
 30
0.0
 11
2.9132502766
 21
2.990961751
 31
0.0
  0
SPLINE
  5
10B
330
1F
100
AcDbEntity
  8
0
  6
CONTINUOUS
 62
     7
100
AcDbSpline
210
0.0
220
0.0
230
1.0
 70
     8
 71
     3
 72
     8
 73
     4
 74
     0
 42
0.00000001
 43
0.00000001
 40
0.0
 40
0.0
 40
0.0
 40
0.0
 40
0.0006448980745266
 40
0.0006448980745266
 40
0.0006448980745266
 40
0.0006448980745266
 10
3.151627450072978
 20
4.113008995053464
 30
0.0
 10
3.157466810518065
 20
4.117340745288148
 30
0.0
 10
3.163309671354994
 20
4.121670137362623
 30
0.0
 10
3.169155788423926
 20
4.125997328473225
 30
0.0
  0
LINE
  5
10C
330
1F
100
AcDbEntity
  8
0
  6
CONTINUOUS
 62
     7
100
AcDbLine
 10
3.1691557884
 20
4.1259973285
 30
0.0
 11
3.1691557884
 21
3.3870907808
 31
0.0
  0
SPLINE
  5
10D
330
1F
100
AcDbEntity
  8
0
  6
CONTINUOUS
 62
     7
100
AcDbSpline
210
0.0
220
0.0
230
1.0
 70
     8
 71
     3
 72
     8
 73
     4
 74
     0
 42
0.00000001
 43
0.00000001
 40
0.0
 40
0.0
 40
0.0
 40
0.0
 40
0.0005684139100135
 40
0.0005684139100135
 40
0.0005684139100135
 40
0.0005684139100135
 10
3.15609458084846
 20
3.404347577730625
 30
0.0
 10
3.160425574249941
 20
3.398579849512791
 30
0.0
 10
3.164779865489122
 20
3.392827842964307
 30
0.0
 10
3.169155788423926
 20
3.387090780812529
 30
0.0
  0
LINE
  5
10E
330
1F
100
AcDbEntity
  8
0
  6
CONTINUOUS
 62
     7
100
AcDbLine
 10
3.4841164183
 20
4.455153671
 30
0.0
 11
3.4841164183
 21
4.5460798612
 31
0.0
  0
LINE
  5
10F
330
1F
100
AcDbEntity
  8
0
  6
CONTINUOUS
 62
     7
100
AcDbLine
 10
3.7203368908
 20
4.455153671
 30
0.0
 11
3.4841164183
 21
4.455153671
 31
0.0
  0
LINE
  5
110
330
1F
100
AcDbEntity
  8
0
  6
CONTINUOUS
 62
     7
100
AcDbLine
 10
3.7203368908
 20
3.0644708493
 30
0.0
 11
3.7203368908
 21
4.455153671
 31
0.0
  0
LINE
  5
111
330
1F
100
AcDbEntity
  8
0
  6
CONTINUOUS
 62
     7
100
AcDbLine
 10
3.4841164183
 20
3.0644708493
 30
0.0
 11
3.7203368908
 21
3.0644708493
 31
0.0
  0
LINE
  5
112
330
1F
100
AcDbEntity
  8
0
  6
CONTINUOUS
 62
     7
100
AcDbLine
 10
3.4841164183
 20
2.9712767116
 30
0.0
 11
3.4841164183
 21
3.0644708493
 31
0.0
  0
LINE
  5
113
330
1F
100
AcDbEntity
  8
0
  6
CONTINUOUS
 62
     7
100
AcDbLine
 10
3.1691557884
 20
3.3870907808
 30
0.0
 11
2.932935316
 21
3.3870907808
 31
0.0
  0
LINE
  5
114
330
1F
100
AcDbEntity
  8
0
  6
CONTINUOUS
 62
     7
100
AcDbLine
 10
2.932935316
 20
4.1259973285
 30
0.0
 11
3.1691557884
 21
4.1259973285
 31
0.0
  0
LINE
  5
115
330
1F
100
AcDbEntity
  8
0
  6
CONTINUOUS
 62
     7
100
AcDbLine
 10
2.932935316
 20
4.5460798612
 30
0.0
 11
2.932935316
 21
4.1259973285
 31
0.0
  0
LINE
  5
116
330
1F
100
AcDbEntity
  8
0
  6
CONTINUOUS
 62
     7
100
AcDbLine
 10
2.932935316
 20
3.3870907808
 30
0.0
 11
2.932935316
 21
2.9712767116
 31
0.0
  0
SPLINE
  5
117
330
1F
100
AcDbEntity
  8
0
  6
CONTINUOUS
 62
     7
100
AcDbSpline
210
0.0
220
0.0
230
1.0
 70
     8
 71
     3
 72
     8
 73
     4
 74
     0
 42
0.00000001
 43
0.00000001
 40
0.0
 40
0.0
 40
0.0
 40
0.0
 40
0.0000825295044264
 40
0.0000825295044264
 40
0.0000825295044264
 40
0.0000825295044264
 10
3.737865229137074
 20
4.442165337553138
 30
0.0
 10
3.738584281370363
 20
4.441355404037822
 30
0.0
 10
3.739303182212964
 20
4.440545336093329
 30
0.0
 10
3.740021930156206
 20
4.439735132534021
 30
0.0
  0
SPLINE
  5
118
330
1F
100
AcDbEntity
  8
0
  6
CONTINUOUS
 62
     7
100
AcDbSpline
210
0.0
220
0.0
230
1.0
 70
     8
 71
     3
 72
     8
 73
     4
 74
     0
 42
0.00000001
 43
0.00000001
 40
0.0
 40
0.0
 40
0.0
 40
0.0
 40
0.0002533610977256
 40
0.0002533610977256
 40
0.0002533610977256
 40
0.0002533610977256
 10
3.740021930156206
 20
3.077621440250073
 30
0.0
 10
3.737815412994213
 20
3.075134159312256
 30
0.0
 10
3.735607454707281
 20
3.072648156121756
 30
0.0
 10
3.733398098361592
 20
3.070163396779774
 30
0.0
  0
SPLINE
  5
119
330
1F
100
AcDbEntity
  8
0
  6
CONTINUOUS
 62
     7
100
AcDbSpline
210
0.0
220
0.0
230
1.0
 70
     8
 71
     3
 72
     8
 73
     4
 74
     0
 42
0.00000001
 43
0.00000001
 40
0.0
 40
0.0
 40
0.0
 40
0.0
 40
0.0005684139100135
 40
0.0005684139100135
 40
0.0005684139100135
 40
0.0005684139100135
 10
3.720336890786127
 20
3.064470849310254
 30
0.0
 10
3.724712813720932
 20
3.066363349916803
 30
0.0
 10
3.729067104960112
 20
3.068260780272948
 30
0.0
 10
3.733398098361592
 20
3.070163396779774
 30
0.0
  0
SPLINE
  5
11A
330
1F
100
AcDbEntity
  8
0
  6
CONTINUOUS
 62
     7
100
AcDbSpline
210
0.0
220
0.0
230
1.0
 70
     8
 71
     3
 72
     8
 73
     4
 74
     0
 42
0.00000001
 43
0.00000001
 40
0.0
 40
0.0
 40
0.0
 40
0.0
 40
0.0006448980745266
 40
0.0006448980745266
 40
0.0006448980745266
 40
0.0006448980745266
 10
3.720336890786127
 20
4.455153670972898
 30
0.0
 10
3.726183007855059
 20
4.450826479862296
 30
0.0
 10
3.732025868691988
 20
4.446497087787821
 30
0.0
 10
3.737865229137074
 20
4.442165337553138
 30
0.0
  0
SPLINE
  5
11B
330
1F
100
AcDbEntity
  8
0
  6
CONTINUOUS
 62
     7
100
AcDbSpline
210
0.0
220
0.0
230
1.0
 70
     8
 71
     3
 72
     8
 73
     4
 74
     0
 42
0.00000001
 43
0.00000001
 40
0.0
 40
0.0
 40
0.0
 40
0.0
 40
0.0006448980745266
 40
0.0006448980745266
 40
0.0006448980745266
 40
0.0006448980745266
 10
2.91540697763203
 20
4.113008995053464
 30
0.0
 10
2.921246338077117
 20
4.117340745288148
 30
0.0
 10
2.927089198914047
 20
4.121670137362622
 30
0.0
 10
2.932935315982978
 20
4.125997328473225
 30
0.0
  0
LINE
  5
11C
330
1F
100
AcDbEntity
  8
0
  6
CONTINUOUS
 62
     7
100
AcDbLine
 10
3.1516274501
 20
4.1130089951
 30
0.0
 11
3.1494707491
 21
4.1130089951
 31
0.0
  0
SPLINE
  5
11D
330
1F
100
AcDbEntity
  8
0
  6
CONTINUOUS
 62
     7
100
AcDbSpline
210
0.0
220
0.0
230
1.0
 70
     8
 71
     3
 72
     8
 73
     4
 74
     0
 42
0.00000001
 43
0.00000001
 40
0.0
 40
0.0
 40
0.0
 40
0.0
 40
0.0005684139100135
 40
0.0005684139100135
 40
0.0005684139100135
 40
0.0005684139100135
 10
2.919874108407512
 20
3.404347577730625
 30
0.0
 10
2.924205101808993
 20
3.398579849512791
 30
0.0
 10
2.928559393048174
 20
3.392827842964307
 30
0.0
 10
2.932935315982978
 20
3.387090780812529
 30
0.0
  0
LINE
  5
11E
330
1F
100
AcDbEntity
  8
0
  6
CONTINUOUS
 62
     7
100
AcDbLine
 10
3.1494707491
 20
3.4043475777
 30
0.0
 11
3.1560945808
 21
3.4043475777
 31
0.0
  0
LINE
  5
11F
330
1F
100
AcDbEntity
  8
0
  6
HIDDEN
 62
     7
100
AcDbLine
 10
3.8581321664
 20
4.5362373415
 30
0.0
 11
3.6219116939
 21
4.5362373415
 31
0.0
  0
LINE
  5
120
330
1F
100
AcDbEntity
  8
0
  6
HIDDEN
 62
     7
100
AcDbLine
 10
3.7400219302
 20
4.0047412785
 30
0.0
 11
3.8581321664
 21
4.0047412785
 31
0.0
  0
LINE
  5
121
330
1F
100
AcDbEntity
  8
0
  6
HIDDEN
 62
     7
100
AcDbLine
 10
3.6219116939
 20
4.0047412785
 30
0.0
 11
3.7400219302
 21
4.0047412785
 31
0.0
  0
LINE
  5
122
330
1F
100
AcDbEntity
  8
0
  6
HIDDEN
 62
     7
100
AcDbLine
 10
3.8482896467
 20
3.9948987588
 30
0.0
 11
3.6317542136
 21
3.9948987588
 31
0.0
  0
LINE
  5
123
330
1F
100
AcDbEntity
  8
0
  6
HIDDEN
 62
     7
100
AcDbLine
 10
3.680966812
 20
4.427969625
 30
0.0
 11
3.7400219302
 21
4.427969625
 31
0.0
  0
LINE
  5
124
330
1F
100
AcDbEntity
  8
0
  6
HIDDEN
 62
     7
100
AcDbLine
 10
3.7400219302
 20
4.4397351325
 30
0.0
 11
3.7400219302
 21
4.5460798612
 31
0.0
  0
LINE
  5
125
330
1F
100
AcDbEntity
  8
0
  6
HIDDEN
 62
     7
100
AcDbLine
 10
3.7400219302
 20
4.427969625
 30
0.0
 11
3.7990770483
 21
4.427969625
 31
0.0
  0
LINE
  5
126
330
1F
100
AcDbEntity
  8
0
  6
HIDDEN
 62
     7
100
AcDbLine
 10
3.680966812
 20
4.427969625
 30
0.0
 11
3.680966812
 21
4.5460798612
 31
0.0
  0
LINE
  5
127
330
1F
100
AcDbEntity
  8
0
  6
HIDDEN
 62
     7
100
AcDbLine
 10
3.7990770483
 20
4.427969625
 30
0.0
 11
3.7990770483
 21
4.5460798612
 31
0.0
  0
LINE
  5
128
330
1F
100
AcDbEntity
  8
0
  6
HIDDEN
 62
     7
100
AcDbLine
 10
3.5175256803
 20
4.455153671
 30
0.0
 11
3.5038014577
 21
4.4397351325
 31
0.0
  0
LINE
  5
129
330
1F
100
AcDbEntity
  8
0
  6
HIDDEN
 62
     7
100
AcDbLine
 10
3.5038014577
 20
4.4397351325
 30
0.0
 11
3.5038014577
 21
4.455153671
 31
0.0
  0
LINE
  5
12A
330
1F
100
AcDbEntity
  8
0
  6
HIDDEN
 62
     7
100
AcDbLine
 10
3.5038014577
 20
3.0644708493
 30
0.0
 11
3.5038014577
 21
3.0776214403
 31
0.0
  0
LINE
  5
12B
330
1F
100
AcDbEntity
  8
0
  6
HIDDEN
 62
     7
100
AcDbLine
 10
3.5038014577
 20
3.0776214403
 30
0.0
 11
3.5155069535
 21
3.0644708493
 31
0.0
  0
LINE
  5
12C
330
1F
100
AcDbEntity
  8
0
  6
HIDDEN
 62
     7
100
AcDbLine
 10
3.5038014577
 20
3.0776214403
 30
0.0
 11
3.5038014577
 21
4.4397351325
 31
0.0
  0
SPLINE
  5
12D
330
1F
100
AcDbEntity
  8
0
  6
HIDDEN
 62
     7
100
AcDbSpline
210
0.0
220
0.0
230
1.0
 70
     8
 71
     3
 72
    28
 73
    24
 74
     0
 42
0.00000001
 43
0.00000001
 40
0.0
 40
0.0
 40
0.0
 40
0.0
 40
0.018489860206578
 40
0.0655770639520408
 40
0.1140011750849514
 40
0.1618454724580074
 40
0.2108549361628237
 40
0.2632189466429488
 40
0.3169234888333591
 40
0.3723802877283464
 40
0.4297114260333137
 40
0.4806581176169131
 40
0.5334705992581449
 40
0.579056502849798
 40
0.6258620805411901
 40
0.6736684126664071
 40
0.7225731862006862
 40
0.7763123147261348
 40
0.8315213521678335
 40
0.8864587683783144
 40
0.9433141856643245
 40
0.993219633243928
 40
1.0
 40
1.0
 40
1.0
 40
1.0
 10
3.857744938180188
 20
3.994705481099269
 30
0.0
 10
3.857851921073248
 20
3.994758856392801
 30
0.0
 10
3.858231351958151
 20
3.994948159881215
 30
0.0
 10
3.855834527997104
 20
3.993750770740062
 30
0.0
 10
3.850924173781958
 20
3.991357261372885
 30
0.0
 10
3.843243779452271
 20
3.987773072649446
 30
0.0
 10
3.83308068160589
 20
3.983343044736857
 30
0.0
 10
3.820237574430282
 20
3.9782829558841
 30
0.0
 10
3.804684409301383
 20
3.973029600316134
 30
0.0
 10
3.786638507202356
 20
3.968215584200621
 30
0.0
 10
3.767222585492357
 20
3.964735950176866
 30
0.0
 10
3.747134305174451
 20
3.963059548626994
 30
0.0
 10
3.72823946598895
 20
3.963311006115124
 30
0.0
 10
3.710294748152808
 20
3.965176994889716
 30
0.0
 10
3.693777620745391
 20
3.96821494300473
 30
0.0
 10
3.678074396611389
 20
3.972260905391654
 30
0.0
 10
3.66317802785062
 20
3.977069396867803
 30
0.0
 10
3.649529710999558
 20
3.982268826281593
 30
0.0
 10
3.637878522302062
 20
3.987271380652961
 30
0.0
 10
3.628833850986908
 20
3.991486783026692
 30
0.0
 10
3.623658471529733
 20
3.994023710297806
 30
0.0
 10
3.62154091983077
 20
3.995083483247952
 30
0.0
 10
3.622035412698355
 20
3.994837102492899
 30
0.0
 10
3.622094560529957
 20
3.994807632123629
 30
0.0
  0
LINE
  5
12E
330
1F
100
AcDbEntity
  8
0
  6
HIDDEN
 62
     7
100
AcDbLine
 10
3.7400219302
 20
3.0555061959
 30
0.0
 11
3.7400219302
 21
3.0776214403
 31
0.0
  0
LINE
  5
12F
330
1F
100
AcDbEntity
  8
0
  6
HIDDEN
 62
     7
100
AcDbLine
 10
3.1297857097
 20
4.1130089951
 30
0.0
 11
3.1297857097
 21
3.4043475777
 31
0.0
  0
LINE
  5
130
330
1F
100
AcDbEntity
  8
0
  6
HIDDEN
 62
     7
100
AcDbLine
 10
3.4841164183
 20
4.4528857235
 30
0.0
 11
3.7203368908
 21
4.4528857235
 31
0.0
  0
LINE
  5
131
330
1F
100
AcDbEntity
  8
0
  6
HIDDEN
 62
     7
100
AcDbLine
 10
3.4841164183
 20
4.455153671
 30
0.0
 11
3.4841164183
 21
4.4528857235
 31
0.0
  0
LINE
  5
132
330
1F
100
AcDbEntity
  8
0
  6
HIDDEN
 62
     7
100
AcDbLine
 10
3.7203368908
 20
3.0622029018
 30
0.0
 11
3.4841164183
 21
3.0622029018
 31
0.0
  0
LINE
  5
133
330
1F
100
AcDbEntity
  8
0
  6
HIDDEN
 62
     7
100
AcDbLine
 10
3.7203368908
 20
3.0644708493
 30
0.0
 11
3.7203368908
 21
3.0622029018
 31
0.0
  0
LINE
  5
134
330
1F
100
AcDbEntity
  8
0
  6
HIDDEN
 62
     7
100
AcDbLine
 10
3.1691557884
 20
4.130265792
 30
0.0
 11
2.932935316
 21
4.130265792
 31
0.0
  0
LINE
  5
135
330
1F
100
AcDbEntity
  8
0
  6
HIDDEN
 62
     7
100
AcDbLine
 10
3.1691557884
 20
4.1259973285
 30
0.0
 11
3.1691557884
 21
4.130265792
 31
0.0
  0
LINE
  5
136
330
1F
100
AcDbEntity
  8
0
  6
HIDDEN
 62
     7
100
AcDbLine
 10
2.932935316
 20
3.3913592443
 30
0.0
 11
3.1691557884
 21
3.3913592443
 31
0.0
  0
LINE
  5
137
330
1F
100
AcDbEntity
  8
0
  6
HIDDEN
 62
     7
100
AcDbLine
 10
2.932935316
 20
3.3870907808
 30
0.0
 11
2.932935316
 21
3.3913592443
 31
0.0
  0
SPLINE
  5
138
330
1F
100
AcDbEntity
  8
0
  6
HIDDEN
 62
     7
100
AcDbSpline
210
0.0
220
0.0
230
1.0
 70
     8
 71
     3
 72
     8
 73
     4
 74
     0
 42
0.00000001
 43
0.00000001
 40
0.0
 40
0.0
 40
0.0
 40
0.0
 40
0.0005684139100135
 40
0.0005684139100135
 40
0.0005684139100135
 40
0.0005684139100135
 10
2.919874108407512
 20
4.113008995053469
 30
0.0
 10
2.924205101808993
 20
4.118776723271302
 30
0.0
 10
2.928559393048174
 20
4.124528729819787
 30
0.0
 10
2.932935315982978
 20
4.130265791971566
 30
0.0
  0
SPLINE
  5
139
330
1F
100
AcDbEntity
  8
0
  6
HIDDEN
 62
     7
100
AcDbSpline
210
0.0
220
0.0
230
1.0
 70
     8
 71
     3
 72
     8
 73
     4
 74
     0
 42
0.00000001
 43
0.00000001
 40
0.0
 40
0.0
 40
0.0
 40
0.0
 40
0.0006448980745266
 40
0.0006448980745266
 40
0.0006448980745266
 40
0.0006448980745266
 10
2.915406977632029
 20
3.40434757773063
 30
0.0
 10
2.921246338077116
 20
3.400015827495946
 30
0.0
 10
2.927089198914047
 20
3.395686435421471
 30
0.0
 10
2.932935315982979
 20
3.391359244310868
 30
0.0
  0
SPLINE
  5
13A
330
1F
100
AcDbEntity
  8
0
  6
HIDDEN
 62
     7
100
AcDbSpline
210
0.0
220
0.0
230
1.0
 70
     8
 71
     3
 72
     8
 73
     4
 74
     0
 42
0.00000001
 43
0.00000001
 40
0.0
 40
0.0
 40
0.0
 40
0.0
 40
0.0002533610977256
 40
0.0002533610977256
 40
0.0002533610977256
 40
0.0002533610977256
 10
3.497177625920646
 20
3.070163396779774
 30
0.0
 10
3.499386982266334
 20
3.072648156121755
 30
0.0
 10
3.501594940553266
 20
3.075134159312255
 30
0.0
 10
3.503801457715259
 20
3.077621440250073
 30
0.0
  0
SPLINE
  5
13B
330
1F
100
AcDbEntity
  8
0
  6
HIDDEN
 62
     7
100
AcDbSpline
210
0.0
220
0.0
230
1.0
 70
     8
 71
     3
 72
     8
 73
     4
 74
     0
 42
0.00000001
 43
0.00000001
 40
0.0
 40
0.0
 40
0.0
 40
0.0
 40
0.0006448980745266
 40
0.0006448980745266
 40
0.0006448980745266
 40
0.0006448980745266
 10
3.48411641834518
 20
3.062202901811196
 30
0.0
 10
3.489962535414112
 20
3.066530092921798
 30
0.0
 10
3.495805396251042
 20
3.070859484996273
 30
0.0
 10
3.501644756696128
 20
3.075191235230957
 30
0.0
  0
SPLINE
  5
13C
330
1F
100
AcDbEntity
  8
0
  6
HIDDEN
 62
     7
100
AcDbSpline
210
0.0
220
0.0
230
1.0
 70
     8
 71
     3
 72
     8
 73
     4
 74
     0
 42
0.00000001
 43
0.00000001
 40
0.0
 40
0.0
 40
0.0
 40
0.0
 40
0.0005684139100135
 40
0.0005684139100135
 40
0.0005684139100135
 40
0.0005684139100135
 10
3.48411641834518
 20
3.064470849310254
 30
0.0
 10
3.488492341279984
 20
3.066363349916803
 30
0.0
 10
3.492846632519165
 20
3.068260780272948
 30
0.0
 10
3.497177625920646
 20
3.070163396779774
 30
0.0
  0
SPLINE
  5
13D
330
1F
100
AcDbEntity
  8
0
  6
HIDDEN
 62
     7
100
AcDbSpline
210
0.0
220
0.0
230
1.0
 70
     8
 71
     3
 72
     8
 73
     4
 74
     0
 42
0.00000001
 43
0.00000001
 40
0.0
 40
0.0
 40
0.0
 40
0.0
 40
0.0000825295044264
 40
0.0000825295044264
 40
0.0000825295044264
 40
0.0000825295044264
 10
3.503801457715259
 20
4.439735132534021
 30
0.0
 10
3.503082709772017
 20
4.440545336093329
 30
0.0
 10
3.502363808929417
 20
4.441355404037822
 30
0.0
 10
3.501644756696128
 20
4.442165337553138
 30
0.0
  0
SPLINE
  5
13E
330
1F
100
AcDbEntity
  8
0
  6
HIDDEN
 62
     7
100
AcDbSpline
210
0.0
220
0.0
230
1.0
 70
     8
 71
     3
 72
     8
 73
     4
 74
     0
 42
0.00000001
 43
0.00000001
 40
0.0
 40
0.0
 40
0.0
 40
0.0
 40
0.0006448980745266
 40
0.0006448980745266
 40
0.0006448980745266
 40
0.0006448980745266
 10
3.48411641834518
 20
4.455153670972898
 30
0.0
 10
3.489962535414112
 20
4.450826479862296
 30
0.0
 10
3.495805396251041
 20
4.446497087787821
 30
0.0
 10
3.501644756696128
 20
4.442165337553138
 30
0.0
  0
SPLINE
  5
13F
330
1F
100
AcDbEntity
  8
0
  6
HIDDEN
 62
     7
100
AcDbSpline
210
0.0
220
0.0
230
1.0
 70
     8
 71
     3
 72
     8
 73
     4
 74
     0
 42
0.00000001
 43
0.00000001
 40
0.0
 40
0.0
 40
0.0
 40
0.0
 40
0.0005684139100135
 40
0.0005684139100135
 40
0.0005684139100135
 40
0.0005684139100135
 10
3.48411641834518
 20
4.452885723473841
 30
0.0
 10
3.488492341279984
 20
4.450993222867292
 30
0.0
 10
3.492846632519165
 20
4.449095792511146
 30
0.0
 10
3.497177625920645
 20
4.447193176004321
 30
0.0
  0
SPLINE
  5
140
330
1F
100
AcDbEntity
  8
0
  6
HIDDEN
 62
     7
100
AcDbSpline
210
0.0
220
0.0
230
1.0
 70
     8
 71
     3
 72
     8
 73
     4
 74
     0
 42
0.00000001
 43
0.00000001
 40
0.0
 40
0.0
 40
0.0
 40
0.0
 40
0.0002533610977256
 40
0.0002533610977256
 40
0.0002533610977256
 40
0.0002533610977256
 10
3.497177625920645
 20
4.447193176004321
 30
0.0
 10
3.499386982266334
 20
4.444708416662339
 30
0.0
 10
3.501594940553266
 20
4.442222413471839
 30
0.0
 10
3.503801457715259
 20
4.439735132534022
 30
0.0
  0
LINE
  5
141
330
1F
100
AcDbEntity
  8
0
  6
HIDDEN
 62
     7
100
AcDbLine
 10
3.5016447567
 20
4.4421653376
 30
0.0
 11
3.7378652291
 21
4.4421653376
 31
0.0
  0
LINE
  5
142
330
1F
100
AcDbEntity
  8
0
  6
HIDDEN
 62
     7
100
AcDbLine
 10
3.7333980984
 20
3.0701633968
 30
0.0
 11
3.4971776259
 21
3.0701633968
 31
0.0
  0
SPLINE
  5
143
330
1F
100
AcDbEntity
  8
0
  6
HIDDEN
 62
     7
100
AcDbSpline
210
0.0
220
0.0
230
1.0
 70
     8
 71
     3
 72
     8
 73
     4
 74
     0
 42
0.00000001
 43
0.00000001
 40
0.0
 40
0.0
 40
0.0
 40
0.0
 40
0.0005684139100135
 40
0.0005684139100135
 40
0.0005684139100135
 40
0.0005684139100135
 10
3.720336890786127
 20
4.452885723473841
 30
0.0
 10
3.724712813720931
 20
4.450993222867292
 30
0.0
 10
3.729067104960112
 20
4.449095792511146
 30
0.0
 10
3.733398098361592
 20
4.447193176004321
 30
0.0
  0
LINE
  5
144
330
1F
100
AcDbEntity
  8
0
  6
HIDDEN
 62
     7
100
AcDbLine
 10
3.7333980984
 20
4.447193176
 30
0.0
 11
3.4971776259
 21
4.447193176
 31
0.0
  0
LINE
  5
145
330
1F
100
AcDbEntity
  8
0
  6
HIDDEN
 62
     7
100
AcDbLine
 10
3.5016447567
 20
3.0751912352
 30
0.0
 11
3.7378652291
 21
3.0751912352
 31
0.0
  0
SPLINE
  5
146
330
1F
100
AcDbEntity
  8
0
  6
HIDDEN
 62
     7
100
AcDbSpline
210
0.0
220
0.0
230
1.0
 70
     8
 71
     3
 72
     8
 73
     4
 74
     0
 42
0.00000001
 43
0.00000001
 40
0.0
 40
0.0
 40
0.0
 40
0.0
 40
0.0006448980745266
 40
0.0006448980745266
 40
0.0006448980745266
 40
0.0006448980745266
 10
3.737865229137076
 20
3.075191235230957
 30
0.0
 10
3.732025868691988
 20
3.070859484996273
 30
0.0
 10
3.726183007855059
 20
3.066530092921798
 30
0.0
 10
3.720336890786127
 20
3.062202901811196
 30
0.0
  0
SPLINE
  5
147
330
1F
100
AcDbEntity
  8
0
  6
HIDDEN
 62
     7
100
AcDbSpline
210
0.0
220
0.0
230
1.0
 70
     8
 71
     3
 72
     8
 73
     4
 74
     0
 42
0.00000001
 43
0.00000001
 40
0.0
 40
0.0
 40
0.0
 40
0.0
 40
0.0002533610977256
 40
0.0002533610977256
 40
0.0002533610977256
 40
0.0002533610977256
 10
3.740021930156206
 20
4.439735132534021
 30
0.0
 10
3.737815412994213
 20
4.442222413471839
 30
0.0
 10
3.735607454707281
 20
4.444708416662339
 30
0.0
 10
3.733398098361592
 20
4.447193176004321
 30
0.0
  0
LINE
  5
148
330
1F
100
AcDbEntity
  8
0
  6
HIDDEN
 62
     7
100
AcDbLine
 10
3.1560945808
 20
4.1130089951
 30
0.0
 11
3.1516335671
 21
4.1130089951
 31
0.0
  0
SPLINE
  5
149
330
1F
100
AcDbEntity
  8
0
  6
HIDDEN
 62
     7
100
AcDbSpline
210
0.0
220
0.0
230
1.0
 70
     8
 71
     3
 72
     8
 73
     4
 74
     0
 42
0.00000001
 43
0.00000001
 40
0.0
 40
0.0
 40
0.0
 40
0.0
 40
0.0006448980745266
 40
0.0006448980745266
 40
0.0006448980745266
 40
0.0006448980745266
 10
3.169155788423926
 20
3.391359244310869
 30
0.0
 10
3.163309671354994
 20
3.395686435421471
 30
0.0
 10
3.157466810518064
 20
3.400015827495946
 30
0.0
 10
3.151627450072977
 20
3.40434757773063
 30
0.0
  0
SPLINE
  5
14A
330
1F
100
AcDbEntity
  8
0
  6
HIDDEN
 62
     7
100
AcDbSpline
210
0.0
220
0.0
230
1.0
 70
     8
 71
     3
 72
     8
 73
     4
 74
     0
 42
0.00000001
 43
0.00000001
 40
0.0
 40
0.0
 40
0.0
 40
0.0
 40
0.0005684139100135
 40
0.0005684139100135
 40
0.0005684139100135
 40
0.0005684139100135
 10
3.15609458084846
 20
4.113008995053469
 30
0.0
 10
3.160425574249941
 20
4.118776723271302
 30
0.0
 10
3.164779865489121
 20
4.124528729819787
 30
0.0
 10
3.169155788423926
 20
4.130265791971566
 30
0.0
  0
LINE
  5
14B
330
1F
100
AcDbEntity
  8
0
  6
HIDDEN
 62
     7
100
AcDbLine
 10
3.6219116939
 20
4.5362373415
 30
0.0
 11
3.6219116939
 21
4.0047412785
 31
0.0
  0
LINE
  5
14C
330
1F
100
AcDbEntity
  8
0
  6
HIDDEN
 62
     7
100
AcDbLine
 10
3.8581321664
 20
4.0047412785
 30
0.0
 11
3.8581321664
 21
4.5362373415
 31
0.0
  0
LINE
  5
14D
330
1F
100
AcDbEntity
  8
0
  6
HIDDEN
 62
     7
100
AcDbLine
 10
3.6219116939
 20
4.0047412785
 30
0.0
 11
3.6317542136
 21
3.9948987588
 31
0.0
  0
LINE
  5
14E
330
1F
100
AcDbEntity
  8
0
  6
HIDDEN
 62
     7
100
AcDbLine
 10
3.8482896467
 20
3.9948987588
 30
0.0
 11
3.8581321664
 21
4.0047412785
 31
0.0
  0
LINE
  5
14F
330
1F
100
AcDbEntity
  8
0
  6
HIDDEN
 62
     7
100
AcDbLine
 10
3.8581321664
 20
4.5362373415
 30
0.0
 11
3.8495265344
 21
4.5448429734
 31
0.0
  0
LINE
  5
150
330
1F
100
AcDbEntity
  8
0
  6
HIDDEN
 62
     7
100
AcDbLine
 10
3.6305169061
 20
4.5448425536
 30
0.0
 11
3.6219116939
 21
4.5362373415
 31
0.0
  0
LINE
  5
151
330
1F
100
AcDbEntity
  8
0
  6
HIDDEN
 62
     7
100
AcDbLine
 10
4.0156124813
 20
4.0145837982
 30
0.0
 11
3.995927442
 21
3.9948987588
 31
0.0
  0
LINE
  5
152
330
1F
100
AcDbEntity
  8
0
  6
HIDDEN
 62
     7
100
AcDbLine
 10
3.995927442
 20
3.522457814
 30
0.0
 11
4.0156124813
 21
3.5027727746
 31
0.0
  0
LINE
  5
153
330
1F
100
AcDbEntity
  8
0
  6
HIDDEN
 62
     7
100
AcDbLine
 10
3.6220945605
 20
3.9948987588
 30
0.0
 11
3.5038014577
 21
3.9948987588
 31
0.0
  0
LINE
  5
154
330
1F
100
AcDbEntity
  8
0
  6
HIDDEN
 62
     7
100
AcDbLine
 10
3.995927442
 20
3.9948987588
 30
0.0
 11
3.8577449382
 21
3.9948987588
 31
0.0
  0
LINE
  5
155
330
1F
100
AcDbEntity
  8
0
  6
HIDDEN
 62
     7
100
AcDbLine
 10
3.5038014577
 20
3.522457814
 30
0.0
 11
3.995927442
 21
3.522457814
 31
0.0
  0
LINE
  5
156
330
1F
100
AcDbEntity
  8
0
  6
HIDDEN
 62
     7
100
AcDbLine
 10
3.8581321664
 20
3.994705579
 30
0.0
 11
3.8581321664
 21
4.5460798612
 31
0.0
  0
LINE
  5
157
330
1F
100
AcDbEntity
  8
0
  6
HIDDEN
 62
     7
100
AcDbLine
 10
3.6219116939
 20
4.5460798612
 30
0.0
 11
3.6219116939
 21
3.9948078847
 31
0.0
  0
LINE
  5
158
330
1F
100
AcDbEntity
  8
0
  6
HIDDEN
 62
     7
100
AcDbLine
 10
2.6376597254
 20
3.5027727746
 30
0.0
 11
2.6573447648
 21
3.522457814
 31
0.0
  0
LINE
  5
159
330
1F
100
AcDbEntity
  8
0
  6
HIDDEN
 62
     7
100
AcDbLine
 10
2.6573447648
 20
3.9948987588
 30
0.0
 11
2.6376597254
 21
4.0145837982
 31
0.0
  0
LINE
  5
15A
330
1F
100
AcDbEntity
  8
0
  6
HIDDEN
 62
     7
100
AcDbLine
 10
2.6573447648
 20
3.522457814
 30
0.0
 11
3.1494707491
 21
3.522457814
 31
0.0
  0
LINE
  5
15B
330
1F
100
AcDbEntity
  8
0
  6
HIDDEN
 62
     7
100
AcDbLine
 10
3.1494707491
 20
3.9948987588
 30
0.0
 11
2.6573447648
 21
3.9948987588
 31
0.0
  0
LINE
  5
15C
330
1F
100
AcDbEntity
  8
0
  6
HIDDEN
 62
     7
100
AcDbLine
 10
3.1494707491
 20
3.522457814
 30
0.0
 11
3.5038014577
 21
3.522457814
 31
0.0
  0
LINE
  5
15D
330
1F
100
AcDbEntity
  8
0
  6
HIDDEN
 62
     7
100
AcDbLine
 10
3.5038014577
 20
3.9948987588
 30
0.0
 11
3.1494707491
 21
3.9948987588
 31
0.0
  0
LINE
  5
15E
330
1F
100
AcDbEntity
  8
0
  6
CONTINUOUS
 62
     7
100
AcDbLine
 10
8.3678949026
 20
4.5373372814
 30
0.0
 11
8.3591523229
 21
4.5460798612
 31
0.0
  0
LINE
  5
15F
330
1F
100
AcDbEntity
  8
0
  6
CONTINUOUS
 62
     7
100
AcDbLine
 10
8.1426168898
 20
4.5460798612
 30
0.0
 11
8.13387431
 21
4.5373372814
 31
0.0
  0
LINE
  5
160
330
1F
100
AcDbEntity
  8
0
  6
CONTINUOUS
 62
     7
100
AcDbLine
 10
7.4722256113
 20
3.8756885827
 30
0.0
 11
7.4634830315
 21
3.8669460029
 31
0.0
  0
LINE
  5
161
330
1F
100
AcDbEntity
  8
0
  6
CONTINUOUS
 62
     7
100
AcDbLine
 10
7.4634830315
 20
3.6504105699
 30
0.0
 11
7.4722256113
 21
3.6416679901
 31
0.0
  0
LINE
  5
162
330
1F
100
AcDbEntity
  8
0
  6
CONTINUOUS
 62
     7
100
AcDbLine
 10
8.2508846063
 20
4.5460798612
 30
0.0
 11
8.3591523229
 21
4.5460798612
 31
0.0
  0
LINE
  5
163
330
1F
100
AcDbEntity
  8
0
  6
CONTINUOUS
 62
     7
100
AcDbLine
 10
8.1426168898
 20
4.5460798612
 30
0.0
 11
8.2508846063
 21
4.5460798612
 31
0.0
  0
CIRCLE
  5
164
330
1F
100
AcDbEntity
  8
0
  6
CONTINUOUS
 62
     7
100
AcDbCircle
 10
8.2508846063
 20
3.7586782864
 30
0.0
 40
0.7677165354330704
  0
CIRCLE
  5
165
330
1F
100
AcDbEntity
  8
0
  6
CONTINUOUS
 62
     7
100
AcDbCircle
 10
8.2508846063
 20
3.7586782864
 30
0.0
 40
0.78740157480315
  0
CIRCLE
  5
166
330
1F
100
AcDbEntity
  8
0
  6
CONTINUOUS
 62
     7
100
AcDbCircle
 10
8.2508846063
 20
3.7586782864
 30
0.0
 40
0.2559055118110241
  0
CIRCLE
  5
167
330
1F
100
AcDbEntity
  8
0
  6
CONTINUOUS
 62
     7
100
AcDbCircle
 10
8.2508846063
 20
3.7586782864
 30
0.0
 40
0.2362204724409462
  0
LINE
  5
168
330
1F
100
AcDbEntity
  8
0
  6
CONTINUOUS
 62
     7
100
AcDbLine
 10
7.4634830315
 20
3.8669460029
 30
0.0
 11
7.4634830315
 21
3.6504105699
 31
0.0
  0
LINE
  5
169
330
1F
100
AcDbEntity
  8
0
  6
HIDDEN
 62
     7
100
AcDbLine
 10
8.3689948425
 20
4.5362373415
 30
0.0
 11
8.1327743701
 21
4.5362373415
 31
0.0
  0
LINE
  5
16A
330
1F
100
AcDbEntity
  8
0
  6
HIDDEN
 62
     7
100
AcDbLine
 10
8.1327743701
 20
4.0047412785
 30
0.0
 11
8.3689948425
 21
4.0047412785
 31
0.0
  0
LINE
  5
16B
330
1F
100
AcDbEntity
  8
0
  6
HIDDEN
 62
     7
100
AcDbLine
 10
8.3591523229
 20
3.9948987588
 30
0.0
 11
8.1426168898
 21
3.9948987588
 31
0.0
  0
LINE
  5
16C
330
1F
100
AcDbEntity
  8
0
  6
HIDDEN
 62
     7
100
AcDbLine
 10
8.2849800947
 20
4.427969625
 30
0.0
 11
8.319075583
 21
4.427969625
 31
0.0
  0
LINE
  5
16D
330
1F
100
AcDbEntity
  8
0
  6
HIDDEN
 62
     7
100
AcDbLine
 10
8.2849800947
 20
4.427969625
 30
0.0
 11
8.2849800947
 21
4.5460798612
 31
0.0
  0
LINE
  5
16E
330
1F
100
AcDbEntity
  8
0
  6
HIDDEN
 62
     7
100
AcDbLine
 10
8.216789118
 20
4.427969625
 30
0.0
 11
8.2849800947
 21
4.427969625
 31
0.0
  0
LINE
  5
16F
330
1F
100
AcDbEntity
  8
0
  6
HIDDEN
 62
     7
100
AcDbLine
 10
8.216789118
 20
4.427969625
 30
0.0
 11
8.216789118
 21
4.5460798612
 31
0.0
  0
LINE
  5
170
330
1F
100
AcDbEntity
  8
0
  6
HIDDEN
 62
     7
100
AcDbLine
 10
8.1826936296
 20
4.427969625
 30
0.0
 11
8.216789118
 21
4.427969625
 31
0.0
  0
LINE
  5
171
330
1F
100
AcDbEntity
  8
0
  6
HIDDEN
 62
     7
100
AcDbLine
 10
8.319075583
 20
4.427969625
 30
0.0
 11
8.319075583
 21
4.5460798612
 31
0.0
  0
LINE
  5
172
330
1F
100
AcDbEntity
  8
0
  6
HIDDEN
 62
     7
100
AcDbLine
 10
8.1826936296
 20
4.427969625
 30
0.0
 11
8.1826936296
 21
4.5460798612
 31
0.0
  0
SPLINE
  5
173
330
1F
100
AcDbEntity
  8
0
  6
HIDDEN
 62
     7
100
AcDbSpline
210
0.0
220
0.0
230
1.0
 70
    24
 71
     3
 72
     8
 73
     4
 74
     0
 42
0.00000001
 43
0.00000001
 40
0.0
 40
0.0
 40
0.0
 40
0.0
 40
0.0007520222441055
 40
0.0007520222441055
 40
0.0007520222441055
 40
0.0007520222441055
 10
7.89655389766257
 20
4.439735132534022
 30
0.0
 10
7.89655389766257
 20
4.447117838913849
 30
0.0
 10
7.89655389766257
 20
4.454489301528788
 30
0.0
 10
7.89655389766257
 20
4.461850376923217
 30
0.0
  0
SPLINE
  5
174
330
1F
100
AcDbEntity
  8
0
  6
HIDDEN
 62
     7
100
AcDbSpline
210
0.0
220
0.0
230
1.0
 70
    24
 71
     3
 72
     8
 73
     4
 74
     0
 42
0.00000001
 43
0.00000001
 40
0.0
 40
0.0
 40
0.0
 40
0.0
 40
0.0007520222441055
 40
0.0007520222441055
 40
0.0007520222441055
 40
0.0007520222441055
 10
7.89655389766257
 20
3.055506195860877
 30
0.0
 10
7.89655389766257
 20
3.062867271255306
 30
0.0
 10
7.89655389766257
 20
3.070238733870246
 30
0.0
 10
7.89655389766257
 20
3.077621440250073
 30
0.0
  0
LINE
  5
175
330
1F
100
AcDbEntity
  8
0
  6
HIDDEN
 62
     7
100
AcDbLine
 10
8.605215315
 20
3.0555061959
 30
0.0
 11
8.605215315
 21
4.4618503769
 31
0.0
  0
LINE
  5
176
330
1F
100
AcDbEntity
  8
0
  6
HIDDEN
 62
     7
100
AcDbLine
 10
7.8965538977
 20
3.0776214403
 30
0.0
 11
7.8965538977
 21
4.4397351325
 31
0.0
  0
LINE
  5
177
330
1F
100
AcDbEntity
  8
0
  6
HIDDEN
 62
     7
100
AcDbLine
 10
7.4733255512
 20
3.6405680502
 30
0.0
 11
7.4733255512
 21
3.8767885226
 31
0.0
  0
LINE
  5
178
330
1F
100
AcDbEntity
  8
0
  6
HIDDEN
 62
     7
100
AcDbLine
 10
8.0048216142
 20
3.8767885226
 30
0.0
 11
8.0048216142
 21
3.6405680502
 31
0.0
  0
LINE
  5
179
330
1F
100
AcDbEntity
  8
0
  6
HIDDEN
 62
     7
100
AcDbLine
 10
8.0146641339
 20
3.7586782864
 30
0.0
 11
8.0146641339
 21
3.8669460029
 31
0.0
  0
LINE
  5
17A
330
1F
100
AcDbEntity
  8
0
  6
HIDDEN
 62
     7
100
AcDbLine
 10
8.0146641339
 20
3.6504105699
 30
0.0
 11
8.0146641339
 21
3.7586782864
 31
0.0
  0
LINE
  5
17B
330
1F
100
AcDbEntity
  8
0
  6
HIDDEN
 62
     7
100
AcDbLine
 10
7.5815932677
 20
3.7927737747
 30
0.0
 11
7.5815932677
 21
3.7245827981
 31
0.0
  0
LINE
  5
17C
330
1F
100
AcDbEntity
  8
0
  6
HIDDEN
 62
     7
100
AcDbLine
 10
7.5815932677
 20
3.8268692631
 30
0.0
 11
7.5815932677
 21
3.7927737747
 31
0.0
  0
LINE
  5
17D
330
1F
100
AcDbEntity
  8
0
  6
HIDDEN
 62
     7
100
AcDbLine
 10
7.5815932677
 20
3.7927737747
 30
0.0
 11
7.4634830315
 21
3.7927737747
 31
0.0
  0
LINE
  5
17E
330
1F
100
AcDbEntity
  8
0
  6
HIDDEN
 62
     7
100
AcDbLine
 10
7.5815932677
 20
3.7245827981
 30
0.0
 11
7.5815932677
 21
3.6904873097
 31
0.0
  0
LINE
  5
17F
330
1F
100
AcDbEntity
  8
0
  6
HIDDEN
 62
     7
100
AcDbLine
 10
7.5815932677
 20
3.7245827981
 30
0.0
 11
7.4634830315
 21
3.7245827981
 31
0.0
  0
LINE
  5
180
330
1F
100
AcDbEntity
  8
0
  6
HIDDEN
 62
     7
100
AcDbLine
 10
7.5815932677
 20
3.8268692631
 30
0.0
 11
7.4634830315
 21
3.8268692631
 31
0.0
  0
LINE
  5
181
330
1F
100
AcDbEntity
  8
0
  6
HIDDEN
 62
     7
100
AcDbLine
 10
7.5815932677
 20
3.6904873097
 30
0.0
 11
7.4634830315
 21
3.6904873097
 31
0.0
  0
LINE
  5
182
330
1F
100
AcDbEntity
  8
0
  6
HIDDEN
 62
     7
100
AcDbLine
 10
8.9394547108
 20
4.1130089951
 30
0.0
 11
8.9540566969
 21
4.1130089951
 31
0.0
  0
LINE
  5
183
330
1F
100
AcDbEntity
  8
0
  6
HIDDEN
 62
     7
100
AcDbLine
 10
8.9540566969
 20
3.4043475777
 30
0.0
 11
8.9344217603
 21
3.4043475777
 31
0.0
  0
LINE
  5
184
330
1F
100
AcDbEntity
  8
0
  6
HIDDEN
 62
     7
100
AcDbLine
 10
8.9319414525
 20
4.1130089951
 30
0.0
 11
7.5698287651
 21
4.1130089951
 31
0.0
  0
LINE
  5
185
330
1F
100
AcDbEntity
  8
0
  6
HIDDEN
 62
     7
100
AcDbLine
 10
7.5673965502
 20
4.1130089951
 30
0.0
 11
7.5477125158
 21
4.1130089951
 31
0.0
  0
LINE
  5
186
330
1F
100
AcDbEntity
  8
0
  6
HIDDEN
 62
     7
100
AcDbLine
 10
8.9319414525
 20
3.4043475777
 30
0.0
 11
7.5698338772
 21
3.4043475777
 31
0.0
  0
LINE
  5
187
330
1F
100
AcDbEntity
  8
0
  6
HIDDEN
 62
     7
100
AcDbLine
 10
7.5623635997
 20
3.4043475777
 30
0.0
 11
7.5477125158
 21
3.4043475777
 31
0.0
  0
SPLINE
  5
188
330
1F
100
AcDbEntity
  8
0
  6
HIDDEN
 62
     7
100
AcDbSpline
210
0.0
220
0.0
230
1.0
 70
    24
 71
     3
 72
     8
 73
     4
 74
     0
 42
0.00000001
 43
0.00000001
 40
0.0
 40
0.0
 40
0.0
 40
0.0
 40
0.0005684139100135
 40
0.0005684139100135
 40
0.0005684139100135
 40
0.0005684139100135
 10
8.622472111903505
 20
4.452885723473841
 30
0.0
 10
8.616735049751727
 20
4.450993222867292
 30
0.0
 10
8.610983043203243
 20
4.449095792511146
 30
0.0
 10
8.60521531498541
 20
4.447193176004321
 30
0.0
  0
SPLINE
  5
189
330
1F
100
AcDbEntity
  8
0
  6
HIDDEN
 62
     7
100
AcDbSpline
210
0.0
220
0.0
230
1.0
 70
    24
 71
     3
 72
     8
 73
     4
 74
     0
 42
0.00000001
 43
0.00000001
 40
0.0
 40
0.0
 40
0.0
 40
0.0
 40
0.0006448980745266
 40
0.0006448980745266
 40
0.0006448980745266
 40
0.0006448980745266
 10
8.60521531498541
 20
3.075191235230957
 30
0.0
 10
8.609547065220093
 20
3.070859484996273
 30
0.0
 10
8.613876457294568
 20
3.066530092921798
 30
0.0
 10
8.618203648405169
 20
3.062202901811196
 30
0.0
  0
LINE
  5
18A
330
1F
100
AcDbEntity
  8
0
  6
HIDDEN
 62
     7
100
AcDbLine
 10
8.605215315
 20
3.0776214403
 30
0.0
 11
8.605215315
 21
4.4397351325
 31
0.0
  0
SPLINE
  5
18B
330
1F
100
AcDbEntity
  8
0
  6
HIDDEN
 62
     7
100
AcDbSpline
210
0.0
220
0.0
230
1.0
 70
    24
 71
     3
 72
     8
 73
     4
 74
     0
 42
0.00000001
 43
0.00000001
 40
0.0
 40
0.0
 40
0.0
 40
0.0
 40
0.0005684139100135
 40
0.0005684139100135
 40
0.0005684139100135
 40
0.0005684139100135
 10
7.879297100744473
 20
3.064470849310254
 30
0.0
 10
7.885034162896251
 20
3.066363349916803
 30
0.0
 10
7.890786169444737
 20
3.068260780272948
 30
0.0
 10
7.89655389766257
 20
3.070163396779774
 30
0.0
  0
SPLINE
  5
18C
330
1F
100
AcDbEntity
  8
0
  6
HIDDEN
 62
     7
100
AcDbSpline
210
0.0
220
0.0
230
1.0
 70
    24
 71
     3
 72
     8
 73
     4
 74
     0
 42
0.00000001
 43
0.00000001
 40
0.0
 40
0.0
 40
0.0
 40
0.0
 40
0.0006448980745266
 40
0.0006448980745266
 40
0.0006448980745266
 40
0.0006448980745266
 10
7.883565564242811
 20
4.455153670972898
 30
0.0
 10
7.887892755353413
 20
4.450826479862296
 30
0.0
 10
7.892222147427887
 20
4.446497087787821
 30
0.0
 10
7.89655389766257
 20
4.442165337553138
 30
0.0
  0
SPLINE
  5
18D
330
1F
100
AcDbEntity
  8
0
  6
HIDDEN
 62
     7
100
AcDbSpline
210
0.0
220
0.0
230
1.0
 70
    24
 71
     3
 72
     8
 73
     4
 74
     0
 42
0.00000001
 43
0.00000001
 40
0.0
 40
0.0
 40
0.0
 40
0.0
 40
0.0006448980745266
 40
0.0006448980745266
 40
0.0006448980745266
 40
0.0006448980745266
 10
8.947359990904841
 20
3.391359244310869
 30
0.0
 10
8.943032799794238
 20
3.395686435421471
 30
0.0
 10
8.938703407719766
 20
3.400015827495946
 30
0.0
 10
8.93437165748508
 20
3.40434757773063
 30
0.0
  0
SPLINE
  5
18E
330
1F
100
AcDbEntity
  8
0
  6
HIDDEN
 62
     7
100
AcDbSpline
210
0.0
220
0.0
230
1.0
 70
    24
 71
     3
 72
     8
 73
     4
 74
     0
 42
0.00000001
 43
0.00000001
 40
0.0
 40
0.0
 40
0.0
 40
0.0
 40
0.0005684139100135
 40
0.0005684139100135
 40
0.0005684139100135
 40
0.0005684139100135
 10
8.939399495936263
 20
4.113008995053469
 30
0.0
 10
8.941302112443088
 20
4.118776723271302
 30
0.0
 10
8.943199542799235
 20
4.124528729819787
 30
0.0
 10
8.945092043405783
 20
4.130265791971566
 30
0.0
  0
SPLINE
  5
18F
330
1F
100
AcDbEntity
  8
0
  6
HIDDEN
 62
     7
100
AcDbSpline
210
0.0
220
0.0
230
1.0
 70
    24
 71
     3
 72
     8
 73
     4
 74
     0
 42
0.00000001
 43
0.00000001
 40
0.0
 40
0.0
 40
0.0
 40
0.0
 40
0.0005684139100135
 40
0.0005684139100135
 40
0.0005684139100135
 40
0.0005684139100135
 10
7.562369716711718
 20
3.404347577730625
 30
0.0
 10
7.560467100204892
 20
3.398579849512791
 30
0.0
 10
7.558569669848746
 20
3.392827842964307
 30
0.0
 10
7.556677169242197
 20
3.387090780812529
 30
0.0
  0
SPLINE
  5
190
330
1F
100
AcDbEntity
  8
0
  6
HIDDEN
 62
     7
100
AcDbSpline
210
0.0
220
0.0
230
1.0
 70
    24
 71
     3
 72
     8
 73
     4
 74
     0
 42
0.00000001
 43
0.00000001
 40
0.0
 40
0.0
 40
0.0
 40
0.0
 40
0.0006448980745266
 40
0.0006448980745266
 40
0.0006448980745266
 40
0.0006448980745266
 10
7.567397555162898
 20
4.113008995053464
 30
0.0
 10
7.563065804928215
 20
4.117340745288148
 30
0.0
 10
7.55873641285374
 20
4.121670137362623
 30
0.0
 10
7.554409221743138
 20
4.125997328473225
 30
0.0
  0
SPLINE
  5
191
330
1F
100
AcDbEntity
  8
0
  6
HIDDEN
 62
     7
100
AcDbSpline
210
0.0
220
0.0
230
1.0
 70
    24
 71
     3
 72
     8
 73
     4
 74
     0
 42
0.00000001
 43
0.00000001
 40
0.0
 40
0.0
 40
0.0
 40
0.0
 40
0.0002533610977256
 40
0.0002533610977256
 40
0.0002533610977256
 40
0.0002533610977256
 10
7.562369716711718
 20
3.404347577730625
 30
0.0
 10
7.5648544760537
 20
3.404347577730625
 30
0.0
 10
7.5673404792442
 20
3.404347577730625
 30
0.0
 10
7.569827760182018
 20
3.404347577730625
 30
0.0
  0
SPLINE
  5
192
330
1F
100
AcDbEntity
  8
0
  6
HIDDEN
 62
     7
100
AcDbSpline
210
0.0
220
0.0
230
1.0
 70
    24
 71
     3
 72
     8
 73
     4
 74
     0
 42
0.00000001
 43
0.00000001
 40
0.0
 40
0.0
 40
0.0
 40
0.0
 40
0.0000825295044264
 40
0.0000825295044264
 40
0.0000825295044264
 40
0.0000825295044264
 10
8.931941452465963
 20
3.40434757773063
 30
0.0
 10
8.932751656025273
 20
3.40434757773063
 30
0.0
 10
8.933561723969765
 20
3.40434757773063
 30
0.0
 10
8.93437165748508
 20
3.40434757773063
 30
0.0
  0
SPLINE
  5
193
330
1F
100
AcDbEntity
  8
0
  6
HIDDEN
 62
     7
100
AcDbSpline
210
0.0
220
0.0
230
1.0
 70
    24
 71
     3
 72
     8
 73
     4
 74
     0
 42
0.00000001
 43
0.00000001
 40
0.0
 40
0.0
 40
0.0
 40
0.0
 40
0.0000825295044264
 40
0.0000825295044264
 40
0.0000825295044264
 40
0.0000825295044264
 10
7.569827760182015
 20
4.113008995053464
 30
0.0
 10
7.569017556622708
 20
4.113008995053464
 30
0.0
 10
7.568207488678214
 20
4.113008995053464
 30
0.0
 10
7.567397555162898
 20
4.113008995053464
 30
0.0
  0
SPLINE
  5
194
330
1F
100
AcDbEntity
  8
0
  6
HIDDEN
 62
     7
100
AcDbSpline
210
0.0
220
0.0
230
1.0
 70
    24
 71
     3
 72
     8
 73
     4
 74
     0
 42
0.00000001
 43
0.00000001
 40
0.0
 40
0.0
 40
0.0
 40
0.0
 40
0.0002533610977256
 40
0.0002533610977256
 40
0.0002533610977256
 40
0.0002533610977256
 10
8.939399495936263
 20
4.113008995053469
 30
0.0
 10
8.93691473659428
 20
4.113008995053469
 30
0.0
 10
8.93442873340378
 20
4.113008995053469
 30
0.0
 10
8.931941452465962
 20
4.113008995053469
 30
0.0
  0
LINE
  5
195
330
1F
100
AcDbEntity
  8
0
  6
HIDDEN
 62
     7
100
AcDbLine
 10
7.5698277602
 20
4.1130089951
 30
0.0
 11
8.9319414525
 21
4.1130089951
 31
0.0
  0
LINE
  5
196
330
1F
100
AcDbEntity
  8
0
  6
HIDDEN
 62
     7
100
AcDbLine
 10
8.9319414525
 20
3.4043475777
 30
0.0
 11
7.5698277602
 21
3.4043475777
 31
0.0
  0
LINE
  5
197
330
1F
100
AcDbEntity
  8
0
  6
HIDDEN
 62
     7
100
AcDbLine
 10
8.1327743701
 20
4.5362373415
 30
0.0
 11
8.1327743701
 21
4.0047412785
 31
0.0
  0
LINE
  5
198
330
1F
100
AcDbEntity
  8
0
  6
HIDDEN
 62
     7
100
AcDbLine
 10
8.3689948425
 20
4.0047412785
 30
0.0
 11
8.3689948425
 21
4.5362373415
 31
0.0
  0
LINE
  5
199
330
1F
100
AcDbEntity
  8
0
  6
HIDDEN
 62
     7
100
AcDbLine
 10
8.1327743701
 20
4.0047412785
 30
0.0
 11
8.1426168898
 21
3.9948987588
 31
0.0
  0
LINE
  5
19A
330
1F
100
AcDbEntity
  8
0
  6
HIDDEN
 62
     7
100
AcDbLine
 10
8.3591523229
 20
3.9948987588
 30
0.0
 11
8.3689948425
 21
4.0047412785
 31
0.0
  0
LINE
  5
19B
330
1F
100
AcDbEntity
  8
0
  6
HIDDEN
 62
     7
100
AcDbLine
 10
8.3689948425
 20
4.5362373415
 30
0.0
 11
8.3678949026
 21
4.5373372814
 31
0.0
  0
LINE
  5
19C
330
1F
100
AcDbEntity
  8
0
  6
HIDDEN
 62
     7
100
AcDbLine
 10
8.13387431
 20
4.5373372814
 30
0.0
 11
8.1327743701
 21
4.5362373415
 31
0.0
  0
LINE
  5
19D
330
1F
100
AcDbEntity
  8
0
  6
HIDDEN
 62
     7
100
AcDbLine
 10
8.3689948425
 20
3.9632512164
 30
0.0
 11
8.3689948425
 21
4.537180797
 31
0.0
  0
LINE
  5
19E
330
1F
100
AcDbEntity
  8
0
  6
HIDDEN
 62
     7
100
AcDbLine
 10
8.1327743701
 20
4.5372305689
 30
0.0
 11
8.1327743701
 21
3.9634759804
 31
0.0
  0
LINE
  5
19F
330
1F
100
AcDbEntity
  8
0
  6
HIDDEN
 62
     7
100
AcDbLine
 10
7.4733255512
 20
3.6405680502
 30
0.0
 11
8.0048216142
 21
3.6405680502
 31
0.0
  0
LINE
  5
1A0
330
1F
100
AcDbEntity
  8
0
  6
HIDDEN
 62
     7
100
AcDbLine
 10
8.0048216142
 20
3.8767885226
 30
0.0
 11
7.4733255512
 21
3.8767885226
 31
0.0
  0
LINE
  5
1A1
330
1F
100
AcDbEntity
  8
0
  6
HIDDEN
 62
     7
100
AcDbLine
 10
8.0048216142
 20
3.6405680502
 30
0.0
 11
8.0146641339
 21
3.6504105699
 31
0.0
  0
LINE
  5
1A2
330
1F
100
AcDbEntity
  8
0
  6
HIDDEN
 62
     7
100
AcDbLine
 10
8.0146641339
 20
3.8669460029
 30
0.0
 11
8.0048216142
 21
3.8767885226
 31
0.0
  0
LINE
  5
1A3
330
1F
100
AcDbEntity
  8
0
  6
HIDDEN
 62
     7
100
AcDbLine
 10
7.4733255512
 20
3.8767885226
 30
0.0
 11
7.4722256113
 21
3.8756885827
 31
0.0
  0
LINE
  5
1A4
330
1F
100
AcDbEntity
  8
0
  6
HIDDEN
 62
     7
100
AcDbLine
 10
7.4722256113
 20
3.6416679901
 30
0.0
 11
7.4733255512
 21
3.6405680502
 31
0.0
  0
LINE
  5
1A5
330
1F
100
AcDbEntity
  8
0
  6
HIDDEN
 62
     7
100
AcDbLine
 10
8.0463116763
 20
3.8767885226
 30
0.0
 11
7.4723818156
 21
3.8767885226
 31
0.0
  0
LINE
  5
1A6
330
1F
100
AcDbEntity
  8
0
  6
HIDDEN
 62
     7
100
AcDbLine
 10
7.4723323565
 20
3.6405680502
 30
0.0
 11
8.0460860988
 21
3.6405680502
 31
0.0
  0
LINE
  5
1A7
330
1F
100
AcDbEntity
  8
0
  6
CONTINUOUS
 62
     7
100
AcDbLine
 10
3.7597069695
 20
5.8845755641
 30
0.0
 11
3.995927442
 21
5.8845755641
 31
0.0
  0
LINE
  5
1A8
330
1F
100
AcDbEntity
  8
0
  6
CONTINUOUS
 62
     7
100
AcDbLine
 10
3.995927442
 20
7.4593787137
 30
0.0
 11
3.7400219302
 21
7.4593787137
 31
0.0
  0
LINE
  5
1A9
330
1F
100
AcDbEntity
  8
0
  6
CONTINUOUS
 62
     7
100
AcDbLine
 10
3.995927442
 20
5.8845755641
 30
0.0
 11
4.0156124813
 21
5.9042606035
 31
0.0
  0
LINE
  5
1AA
330
1F
100
AcDbEntity
  8
0
  6
CONTINUOUS
 62
     7
100
AcDbLine
 10
4.0156124813
 20
7.4396936743
 30
0.0
 11
3.995927442
 21
7.4593787137
 31
0.0
  0
LINE
  5
1AB
330
1F
100
AcDbEntity
  8
0
  6
CONTINUOUS
 62
     7
100
AcDbLine
 10
3.7400219302
 20
5.9042606035
 30
0.0
 11
3.7597069695
 21
5.8845755641
 31
0.0
  0
LINE
  5
1AC
330
1F
100
AcDbEntity
  8
0
  6
CONTINUOUS
 62
     7
100
AcDbLine
 10
2.8037388075
 20
5.8858193167
 30
0.0
 11
2.8049825601
 21
5.8845755641
 31
0.0
  0
LINE
  5
1AD
330
1F
100
AcDbEntity
  8
0
  6
CONTINUOUS
 62
     7
100
AcDbLine
 10
3.0215179931
 20
5.8845755641
 30
0.0
 11
3.0227588264
 21
5.8858163973
 31
0.0
  0
LINE
  5
1AE
330
1F
100
AcDbEntity
  8
0
  6
CONTINUOUS
 62
     7
100
AcDbLine
 10
3.1297857097
 20
7.4593787137
 30
0.0
 11
2.6573447648
 21
7.4593787137
 31
0.0
  0
LINE
  5
1AF
330
1F
100
AcDbEntity
  8
0
  6
CONTINUOUS
 62
     7
100
AcDbLine
 10
3.0313605128
 20
5.8845755641
 30
0.0
 11
3.1494707491
 21
5.8845755641
 31
0.0
  0
LINE
  5
1B0
330
1F
100
AcDbEntity
  8
0
  6
CONTINUOUS
 62
     7
100
AcDbLine
 10
2.6573447648
 20
5.8845755641
 30
0.0
 11
2.7954767127
 21
5.8845755641
 31
0.0
  0
LINE
  5
1B1
330
1F
100
AcDbEntity
  8
0
  6
CONTINUOUS
 62
     7
100
AcDbLine
 10
2.6573447648
 20
7.4593787137
 30
0.0
 11
2.6376597254
 21
7.4396936743
 31
0.0
  0
LINE
  5
1B2
330
1F
100
AcDbEntity
  8
0
  6
CONTINUOUS
 62
     7
100
AcDbLine
 10
2.6376597254
 20
5.9042606035
 30
0.0
 11
2.6573447648
 21
5.8845755641
 31
0.0
  0
LINE
  5
1B3
330
1F
100
AcDbEntity
  8
0
  6
CONTINUOUS
 62
     7
100
AcDbLine
 10
3.1494707491
 20
7.4396936743
 30
0.0
 11
3.1297857097
 21
7.4593787137
 31
0.0
  0
LINE
  5
1B4
330
1F
100
AcDbEntity
  8
0
  6
CONTINUOUS
 62
     7
100
AcDbLine
 10
3.1691557884
 20
5.8845755641
 30
0.0
 11
3.7203368908
 21
5.8845755641
 31
0.0
  0
LINE
  5
1B5
330
1F
100
AcDbEntity
  8
0
  6
CONTINUOUS
 62
     7
100
AcDbLine
 10
3.7203368908
 20
7.4593787137
 30
0.0
 11
3.1691557884
 21
7.4593787137
 31
0.0
  0
LINE
  5
1B6
330
1F
100
AcDbEntity
  8
0
  6
CONTINUOUS
 62
     7
100
AcDbLine
 10
3.7203368908
 20
5.8845755641
 30
0.0
 11
3.7400219302
 21
5.9042606035
 31
0.0
  0
LINE
  5
1B7
330
1F
100
AcDbEntity
  8
0
  6
CONTINUOUS
 62
     7
100
AcDbLine
 10
3.7400219302
 20
7.4396936743
 30
0.0
 11
3.7203368908
 21
7.4593787137
 31
0.0
  0
LINE
  5
1B8
330
1F
100
AcDbEntity
  8
0
  6
CONTINUOUS
 62
     7
100
AcDbLine
 10
3.1691557884
 20
7.4593787137
 30
0.0
 11
3.1494707491
 21
7.4396936743
 31
0.0
  0
LINE
  5
1B9
330
1F
100
AcDbEntity
  8
0
  6
CONTINUOUS
 62
     7
100
AcDbLine
 10
3.1494707491
 20
5.9042606035
 30
0.0
 11
3.1691557884
 21
5.8845755641
 31
0.0
  0
CIRCLE
  5
1BA
330
1F
100
AcDbEntity
  8
0
  6
CONTINUOUS
 62
     7
100
AcDbCircle
 10
3.7400219302
 20
6.6719771389
 30
0.0
 40
0.1082677165354311
  0
CIRCLE
  5
1BB
330
1F
100
AcDbEntity
  8
0
  6
CONTINUOUS
 62
     7
100
AcDbCircle
 10
3.7400219302
 20
6.6719771389
 30
0.0
 40
0.1181102362204731
  0
LINE
  5
1BC
330
1F
100
AcDbEntity
  8
0
  6
CONTINUOUS
 62
     7
100
AcDbLine
 10
3.680966812
 20
6.7060726273
 30
0.0
 11
3.680966812
 21
6.6378816506
 31
0.0
  0
LINE
  5
1BD
330
1F
100
AcDbEntity
  8
0
  6
CONTINUOUS
 62
     7
100
AcDbLine
 10
3.680966812
 20
6.6378816506
 30
0.0
 11
3.7400219302
 21
6.6037861622
 31
0.0
  0
LINE
  5
1BE
330
1F
100
AcDbEntity
  8
0
  6
CONTINUOUS
 62
     7
100
AcDbLine
 10
3.7400219302
 20
6.6037861622
 30
0.0
 11
3.7990770483
 21
6.6378816506
 31
0.0
  0
LINE
  5
1BF
330
1F
100
AcDbEntity
  8
0
  6
CONTINUOUS
 62
     7
100
AcDbLine
 10
3.7990770483
 20
6.6378816506
 30
0.0
 11
3.7990770483
 21
6.7060726273
 31
0.0
  0
LINE
  5
1C0
330
1F
100
AcDbEntity
  8
0
  6
CONTINUOUS
 62
     7
100
AcDbLine
 10
3.7990770483
 20
6.7060726273
 30
0.0
 11
3.7400219302
 21
6.7401681156
 31
0.0
  0
LINE
  5
1C1
330
1F
100
AcDbEntity
  8
0
  6
CONTINUOUS
 62
     7
100
AcDbLine
 10
3.7400219302
 20
6.7401681156
 30
0.0
 11
3.680966812
 21
6.7060726273
 31
0.0
  0
LINE
  5
1C2
330
1F
100
AcDbEntity
  8
0
  6
CONTINUOUS
 62
     7
100
AcDbLine
 10
3.7597069695
 20
6.3176464303
 30
0.0
 11
3.7597069695
 21
5.8845755641
 31
0.0
  0
LINE
  5
1C3
330
1F
100
AcDbEntity
  8
0
  6
CONTINUOUS
 62
     7
100
AcDbLine
 10
3.5234864971
 20
6.3176464303
 30
0.0
 11
3.7597069695
 21
6.3176464303
 31
0.0
  0
LINE
  5
1C4
330
1F
100
AcDbEntity
  8
0
  6
CONTINUOUS
 62
     7
100
AcDbLine
 10
3.5234864971
 20
7.0263078476
 30
0.0
 11
3.5234864971
 21
6.3176464303
 31
0.0
  0
LINE
  5
1C5
330
1F
100
AcDbEntity
  8
0
  6
CONTINUOUS
 62
     7
100
AcDbLine
 10
3.7400219302
 20
7.0263078476
 30
0.0
 11
3.5234864971
 21
7.0263078476
 31
0.0
  0
LINE
  5
1C6
330
1F
100
AcDbEntity
  8
0
  6
CONTINUOUS
 62
     7
100
AcDbLine
 10
3.7400219302
 20
7.4593787137
 30
0.0
 11
3.7400219302
 21
7.0263078476
 31
0.0
  0
SPLINE
  5
1C7
330
1F
100
AcDbEntity
  8
0
  6
CONTINUOUS
 62
     7
100
AcDbSpline
210
0.0
220
0.0
230
1.0
 70
     8
 71
     3
 72
    70
 73
    66
 74
     0
 42
0.00000001
 43
0.00000001
 40
-0.0312499999999998
 40
-0.0312499999999998
 40
0.0
 40
0.0
 40
0.03125
 40
0.03125
 40
0.0625000000000001
 40
0.0625000000000001
 40
0.0937500000000001
 40
0.0937500000000001
 40
0.1250000000000002
 40
0.1250000000000002
 40
0.1562500000000002
 40
0.1562500000000002
 40
0.1875000000000002
 40
0.1875000000000002
 40
0.2187500000000002
 40
0.2187500000000002
 40
0.2500000000000002
 40
0.2500000000000002
 40
0.2812500000000002
 40
0.2812500000000002
 40
0.3125000000000002
 40
0.3125000000000002
 40
0.3437500000000002
 40
0.3437500000000002
 40
0.3750000000000001
 40
0.3750000000000001
 40
0.4062500000000001
 40
0.4062500000000001
 40
0.4375000000000001
 40
0.4375000000000001
 40
0.4687500000000001
 40
0.4687500000000001
 40
0.5
 40
0.5
 40
0.53125
 40
0.53125
 40
0.5625000000000001
 40
0.5625000000000001
 40
0.5937500000000001
 40
0.5937500000000001
 40
0.6250000000000001
 40
0.6250000000000001
 40
0.6562500000000002
 40
0.6562500000000002
 40
0.6875000000000002
 40
0.6875000000000002
 40
0.7187500000000002
 40
0.7187500000000002
 40
0.7500000000000002
 40
0.7500000000000002
 40
0.7812500000000003
 40
0.7812500000000003
 40
0.8125000000000003
 40
0.8125000000000003
 40
0.8437500000000003
 40
0.8437500000000003
 40
0.8750000000000004
 40
0.8750000000000004
 40
0.9062500000000003
 40
0.9062500000000003
 40
0.9375000000000002
 40
0.9375000000000002
 40
0.9687500000000002
 40
0.9687500000000002
 40
1.0
 40
1.0
 40
1.03125
 40
1.03125
 10
3.621911693935734
 20
6.679791869301787
 30
0.0
 10
3.621911693935734
 20
6.664162408531066
 30
0.0
 10
3.62267961872559
 20
6.656480451728429
 30
0.0
 10
3.625686447218776
 20
6.641370559441632
 30
0.0
 10
3.627962643439277
 20
6.633863493626536
 30
0.0
 10
3.63389485575571
 20
6.619565520204711
 30
0.0
 10
3.637523394892619
 20
6.612785941907779
 30
0.0
 10
3.646094147808509
 20
6.599955480800684
 30
0.0
 10
3.651075437791974
 20
6.593889222928402
 30
0.0
 10
3.661955465020423
 20
6.583011818996489
 30
0.0
 10
3.667894072004035
 20
6.578126822766471
 30
0.0
 10
3.68080042867865
 20
6.569492391144819
 30
0.0
 10
3.687658046650948
 20
6.565830101206791
 30
0.0
 10
3.701864691462482
 20
6.559936097125691
 30
0.0
 10
3.709319036718635
 20
6.557662596617143
 30
0.0
 10
3.724569790689921
 20
6.554624194204979
 30
0.0
 10
3.732240311344541
 20
6.553871294289483
 30
0.0
 10
3.747669660935222
 20
6.553862549045804
 30
0.0
 10
3.755507493505288
 20
6.554631800013617
 30
0.0
 10
3.77066358533454
 20
6.557649451095909
 30
0.0
 10
3.778031248685232
 20
6.559882057973659
 30
0.0
 10
3.792344238689994
 20
6.565805619683152
 30
0.0
 10
3.79924462634322
 20
6.569498805667888
 30
0.0
 10
3.812029935067317
 20
6.578041076843445
 30
0.0
 10
3.818005069741885
 20
6.582930911852891
 30
0.0
 10
3.829015399196197
 20
6.593933797867248
 30
0.0
 10
3.833894510451207
 20
6.599886355657506
 30
0.0
 10
3.842448427913649
 20
6.612664788438043
 30
0.0
 10
3.846153056810826
 20
6.6195743247421
 30
0.0
 10
3.852081481439547
 20
6.633865094303942
 30
0.0
 10
3.854320542626023
 20
6.641226820023848
 30
0.0
 10
3.857353001604088
 20
6.656383082439273
 30
0.0
 10
3.858129192702993
 20
6.66421845120419
 30
0.0
 10
3.858135122598468
 20
6.67964502470124
 30
0.0
 10
3.857389810768589
 20
6.687318903715634
 30
0.0
 10
3.854362203442779
 20
6.702585814996072
 30
0.0
 10
3.852098667119248
 20
6.710030189473312
 30
0.0
 10
3.846214451261643
 20
6.724249292939761
 30
0.0
 10
3.842544371816312
 20
6.731131832263292
 30
0.0
 10
3.833932531496967
 20
6.744025232192572
 30
0.0
 10
3.829055091664913
 20
6.74996682929268
 30
0.0
 10
3.818177868267306
 20
6.760864398921408
 30
0.0
 10
3.812111007897024
 20
6.765852428322578
 30
0.0
 10
3.799302759515724
 20
6.774423165491683
 30
0.0
 10
3.79252810293854
 20
6.778057955238835
 30
0.0
 10
3.778222663609156
 20
6.784007231907253
 30
0.0
 10
3.770728981807916
 20
6.786285466743647
 30
0.0
 10
3.755627999117876
 20
6.789304746253148
 30
0.0
 10
3.747928958832541
 20
6.79008071399681
 30
0.0
 10
3.732315169363817
 20
6.790093951383344
 30
0.0
 10
3.724635016398298
 20
6.789334037798275
 30
0.0
 10
3.709518111418279
 20
6.786340226810036
 30
0.0
 10
3.702001522044999
 20
6.784067719218773
 30
0.0
 10
3.687708393340937
 20
6.778152199506647
 30
0.0
 10
3.680925001436977
 20
6.774530483071819
 30
0.0
 10
3.668077590030167
 20
6.765964623749936
 30
0.0
 10
3.662011684348922
 20
6.760991520237229
 30
0.0
 10
3.651128467330592
 20
6.750125144647281
 30
0.0
 10
3.646235541607264
 20
6.744189104026199
 30
0.0
 10
3.637580229968615
 20
6.731274294368806
 30
0.0
 10
3.633922024434236
 20
6.724436546107095
 30
0.0
 10
3.62801483758542
 20
6.710234041703329
 30
0.0
 10
3.625732691199171
 20
6.702775816006363
 30
0.0
 10
3.622679721454089
 20
6.687514021125457
 30
0.0
 10
3.621911693935734
 20
6.679791869301787
 30
0.0
 10
3.621911693935734
 20
6.664162408531066
 30
0.0
  0
LINE
  5
1C8
330
1F
100
AcDbEntity
  8
0
  6
CONTINUOUS
 62
     7
100
AcDbLine
 10
3.995927442
 20
5.8845755641
 30
0.0
 11
3.995927442
 21
7.4593787137
 31
0.0
  0
LINE
  5
1C9
330
1F
100
AcDbEntity
  8
0
  6
CONTINUOUS
 62
     7
100
AcDbLine
 10
4.0156124813
 20
7.4396936743
 30
0.0
 11
4.0156124813
 21
5.9042606035
 31
0.0
  0
SPLINE
  5
1CA
330
1F
100
AcDbEntity
  8
0
  6
CONTINUOUS
 62
     7
100
AcDbSpline
210
0.0
220
0.0
230
1.0
 70
    24
 71
     3
 72
     8
 73
     4
 74
     0
 42
0.00000001
 43
0.00000001
 40
0.0
 40
0.0
 40
0.0
 40
0.0
 40
0.0007520222441055
 40
0.0007520222441055
 40
0.0007520222441055
 40
0.0007520222441055
 10
3.523486497085338
 20
6.317646430255007
 30
0.0
 10
3.516912846562792
 20
6.317646430255007
 30
0.0
 10
3.510350805672446
 20
6.317646430255007
 30
0.0
 10
3.503801457715259
 20
6.317646430255007
 30
0.0
  0
LINE
  5
1CB
330
1F
100
AcDbEntity
  8
0
  6
CONTINUOUS
 62
     7
100
AcDbLine
 10
3.5038014577
 20
6.3176464303
 30
0.0
 11
3.5038014577
 21
7.0263078476
 31
0.0
  0
SPLINE
  5
1CC
330
1F
100
AcDbEntity
  8
0
  6
CONTINUOUS
 62
     7
100
AcDbSpline
210
0.0
220
0.0
230
1.0
 70
    24
 71
     3
 72
     8
 73
     4
 74
     0
 42
0.00000001
 43
0.00000001
 40
0.0
 40
0.0
 40
0.0
 40
0.0
 40
0.0007520222441055
 40
0.0007520222441055
 40
0.0007520222441055
 40
0.0007520222441055
 10
3.503801457715259
 20
7.026307847577846
 30
0.0
 10
3.510350805672446
 20
7.026307847577846
 30
0.0
 10
3.516912846562792
 20
7.026307847577846
 30
0.0
 10
3.523486497085338
 20
7.026307847577846
 30
0.0
  0
LINE
  5
1CD
330
1F
100
AcDbEntity
  8
0
  6
CONTINUOUS
 62
     7
100
AcDbLine
 10
3.7400219302
 20
5.9042606035
 30
0.0
 11
3.7400219302
 21
6.3176464303
 31
0.0
  0
LINE
  5
1CE
330
1F
100
AcDbEntity
  8
0
  6
CONTINUOUS
 62
     7
100
AcDbLine
 10
2.8049825601
 20
5.8845755641
 30
0.0
 11
3.0215179931
 21
5.8845755641
 31
0.0
  0
LINE
  5
1CF
330
1F
100
AcDbEntity
  8
0
  6
CONTINUOUS
 62
     7
100
AcDbLine
 10
3.1297857097
 20
7.3751492294
 30
0.0
 11
3.1297857097
 21
7.4593787137
 31
0.0
  0
LINE
  5
1D0
330
1F
100
AcDbEntity
  8
0
  6
CONTINUOUS
 62
     7
100
AcDbLine
 10
3.1297857097
 20
7.3751492294
 30
0.0
 11
2.8935652372
 21
7.3751492294
 31
0.0
  0
LINE
  5
1D1
330
1F
100
AcDbEntity
  8
0
  6
CONTINUOUS
 62
     7
100
AcDbLine
 10
2.8935652372
 20
5.9688050484
 30
0.0
 11
2.8935652372
 21
7.3751492294
 31
0.0
  0
LINE
  5
1D2
330
1F
100
AcDbEntity
  8
0
  6
CONTINUOUS
 62
     7
100
AcDbLine
 10
2.8935652372
 20
5.9688050484
 30
0.0
 11
3.1494707491
 21
5.9688050484
 31
0.0
  0
LINE
  5
1D3
330
1F
100
AcDbEntity
  8
0
  6
CONTINUOUS
 62
     7
100
AcDbLine
 10
3.1494707491
 20
5.9688050484
 30
0.0
 11
3.1494707491
 21
5.8845755641
 31
0.0
  0
SPLINE
  5
1D4
330
1F
100
AcDbEntity
  8
0
  6
CONTINUOUS
 62
     7
100
AcDbSpline
210
0.0
220
0.0
230
1.0
 70
     8
 71
     3
 72
    26
 73
    22
 74
     0
 42
0.00000001
 43
0.00000001
 40
0.0
 40
0.0
 40
0.0
 40
0.0
 40
0.01561430773076
 40
0.0696973574015868
 40
0.1220057417360286
 40
0.1758104093973903
 40
0.2285041642441518
 40
0.282700909091301
 40
0.3358160702326823
 40
0.390481239934308
 40
0.4433946798540049
 40
0.4978733807778544
 40
0.5502663443372526
 40
0.6041820941960502
 40
0.656551775142645
 40
0.7104120497407983
 40
0.7632865476449902
 40
0.817678235354023
 40
0.8708037549130464
 40
0.9254912844759956
 40
1.0
 40
1.0
 40
1.0
 40
1.0
 10
2.795476712700364
 20
5.884625938997702
 30
0.0
 10
2.795379966304643
 20
5.884611465329986
 30
0.0
 10
2.794948120830854
 20
5.88454685943076
 30
0.0
 10
2.797528289125098
 20
5.884934133496962
 30
0.0
 10
2.803243544247871
 20
5.885760908195933
 30
0.0
 10
2.812185241470974
 20
5.886974029434129
 30
0.0
 10
2.823988721761999
 20
5.888419158593049
 30
0.0
 10
2.838258488646386
 20
5.889931206361693
 30
0.0
 10
2.85483274867308
 20
5.891360046840322
 30
0.0
 10
2.872958247928289
 20
5.892518248337323
 30
0.0
 10
2.892399573258525
 20
5.89328823154464
 30
0.0
 10
2.912179583254608
 20
5.893568727178789
 30
0.0
 10
2.932102375884249
 20
5.893338118513346
 30
0.0
 10
2.951238290189446
 20
5.892632964365403
 30
0.0
 10
2.969461842911411
 20
5.891522051637748
 30
0.0
 10
2.986002973190934
 20
5.890143857679076
 30
0.0
 10
3.000689063360716
 20
5.888627517925995
 30
0.0
 10
3.012875685755162
 20
5.887159452366749
 30
0.0
 10
3.022283827168533
 20
5.885899380996365
 30
0.0
 10
3.029675160631613
 20
5.884832022606281
 30
0.0
 10
3.030744065264388
 20
5.884669368372347
 30
0.0
 10
3.031360512833371
 20
5.884575564113277
 30
0.0
  0
LINE
  5
1D5
330
1F
100
AcDbEntity
  8
0
  6
CONTINUOUS
 62
     7
100
AcDbLine
 10
2.6573447648
 20
7.4593787137
 30
0.0
 11
2.6573447648
 21
5.8845755641
 31
0.0
  0
LINE
  5
1D6
330
1F
100
AcDbEntity
  8
0
  6
CONTINUOUS
 62
     7
100
AcDbLine
 10
2.6376597254
 20
5.9042606035
 30
0.0
 11
2.6376597254
 21
7.4396936743
 31
0.0
  0
LINE
  5
1D7
330
1F
100
AcDbEntity
  8
0
  6
CONTINUOUS
 62
     7
100
AcDbLine
 10
2.9132502766
 20
7.3530339851
 30
0.0
 11
2.9132502766
 21
5.9909202928
 31
0.0
  0
SPLINE
  5
1D8
330
1F
100
AcDbEntity
  8
0
  6
CONTINUOUS
 62
     7
100
AcDbSpline
210
0.0
220
0.0
230
1.0
 70
     8
 71
     3
 72
     8
 73
     4
 74
     0
 42
0.00000001
 43
0.00000001
 40
0.0
 40
0.0
 40
0.0
 40
0.0
 40
0.0007520222441055
 40
0.0007520222441055
 40
0.0007520222441055
 40
0.0007520222441055
 10
2.913250276612899
 20
5.990920292774449
 30
0.0
 10
2.906700928655713
 20
5.983537586394623
 30
0.0
 10
2.900138887765367
 20
5.976166123779684
 30
0.0
 10
2.893565237242821
 20
5.968805048385255
 30
0.0
  0
SPLINE
  5
1D9
330
1F
100
AcDbEntity
  8
0
  6
CONTINUOUS
 62
     7
100
AcDbSpline
210
0.0
220
0.0
230
1.0
 70
     8
 71
     3
 72
     8
 73
     4
 74
     0
 42
0.00000001
 43
0.00000001
 40
0.0
 40
0.0
 40
0.0
 40
0.0
 40
0.0007520222441055
 40
0.0007520222441055
 40
0.0007520222441055
 40
0.0007520222441055
 10
2.893565237242821
 20
7.375149229447595
 30
0.0
 10
2.900138887765367
 20
7.367788154053166
 30
0.0
 10
2.906700928655713
 20
7.360416691438227
 30
0.0
 10
2.913250276612899
 20
7.3530339850584
 30
0.0
  0
LINE
  5
1DA
330
1F
100
AcDbEntity
  8
0
  6
CONTINUOUS
 62
     7
100
AcDbLine
 10
3.1494707491
 20
7.4396936743
 30
0.0
 11
3.1494707491
 21
7.366184576
 31
0.0
  0
LINE
  5
1DB
330
1F
100
AcDbEntity
  8
0
  6
CONTINUOUS
 62
     7
100
AcDbLine
 10
3.1377652533
 20
7.366184576
 30
0.0
 11
3.1297857097
 21
7.3751492294
 31
0.0
  0
LINE
  5
1DC
330
1F
100
AcDbEntity
  8
0
  6
CONTINUOUS
 62
     7
100
AcDbLine
 10
3.1494707491
 20
5.9755017543
 30
0.0
 11
3.1494707491
 21
5.9688050484
 31
0.0
  0
LINE
  5
1DD
330
1F
100
AcDbEntity
  8
0
  6
CONTINUOUS
 62
     7
100
AcDbLine
 10
3.4841164183
 20
7.0435646445
 30
0.0
 11
3.7203368908
 21
7.0435646445
 31
0.0
  0
LINE
  5
1DE
330
1F
100
AcDbEntity
  8
0
  6
CONTINUOUS
 62
     7
100
AcDbLine
 10
3.4841164183
 20
6.3046580968
 30
0.0
 11
3.4841164183
 21
7.0435646445
 31
0.0
  0
LINE
  5
1DF
330
1F
100
AcDbEntity
  8
0
  6
CONTINUOUS
 62
     7
100
AcDbLine
 10
3.7203368908
 20
6.3046580968
 30
0.0
 11
3.4841164183
 21
6.3046580968
 31
0.0
  0
LINE
  5
1E0
330
1F
100
AcDbEntity
  8
0
  6
CONTINUOUS
 62
     7
100
AcDbLine
 10
3.7203368908
 20
5.8845755641
 30
0.0
 11
3.7203368908
 21
6.3046580968
 31
0.0
  0
LINE
  5
1E1
330
1F
100
AcDbEntity
  8
0
  6
CONTINUOUS
 62
     7
100
AcDbLine
 10
3.7203368908
 20
7.0435646445
 30
0.0
 11
3.7203368908
 21
7.4593787137
 31
0.0
  0
LINE
  5
1E2
330
1F
100
AcDbEntity
  8
0
  6
CONTINUOUS
 62
     7
100
AcDbLine
 10
3.1691557884
 20
5.9755017543
 30
0.0
 11
3.1691557884
 21
5.8845755641
 31
0.0
  0
LINE
  5
1E3
330
1F
100
AcDbEntity
  8
0
  6
CONTINUOUS
 62
     7
100
AcDbLine
 10
2.932935316
 20
5.9755017543
 30
0.0
 11
3.1691557884
 21
5.9755017543
 31
0.0
  0
LINE
  5
1E4
330
1F
100
AcDbEntity
  8
0
  6
CONTINUOUS
 62
     7
100
AcDbLine
 10
2.932935316
 20
7.366184576
 30
0.0
 11
2.932935316
 21
5.9755017543
 31
0.0
  0
LINE
  5
1E5
330
1F
100
AcDbEntity
  8
0
  6
CONTINUOUS
 62
     7
100
AcDbLine
 10
3.1691557884
 20
7.366184576
 30
0.0
 11
2.932935316
 21
7.366184576
 31
0.0
  0
LINE
  5
1E6
330
1F
100
AcDbEntity
  8
0
  6
CONTINUOUS
 62
     7
100
AcDbLine
 10
3.1691557884
 20
7.4593787137
 30
0.0
 11
3.1691557884
 21
7.366184576
 31
0.0
  0
SPLINE
  5
1E7
330
1F
100
AcDbEntity
  8
0
  6
CONTINUOUS
 62
     7
100
AcDbSpline
210
0.0
220
0.0
230
1.0
 70
     8
 71
     3
 72
     8
 73
     4
 74
     0
 42
0.00000001
 43
0.00000001
 40
0.0
 40
0.0
 40
0.0
 40
0.0
 40
0.0000825295044264
 40
0.0000825295044264
 40
0.0000825295044264
 40
0.0000825295044264
 10
2.91540697763203
 20
5.988490087755334
 30
0.0
 10
2.914687925398742
 20
5.98930002127065
 30
0.0
 10
2.91396902455614
 20
5.990110089215142
 30
0.0
 10
2.913250276612898
 20
5.990920292774451
 30
0.0
  0
SPLINE
  5
1E8
330
1F
100
AcDbEntity
  8
0
  6
CONTINUOUS
 62
     7
100
AcDbSpline
210
0.0
220
0.0
230
1.0
 70
     8
 71
     3
 72
     8
 73
     4
 74
     0
 42
0.00000001
 43
0.00000001
 40
0.0
 40
0.0
 40
0.0
 40
0.0
 40
0.0002533610977256
 40
0.0002533610977256
 40
0.0002533610977256
 40
0.0002533610977256
 10
2.913250276612899
 20
7.353033985058399
 30
0.0
 10
2.915456793774892
 20
7.355521265996217
 30
0.0
 10
2.917664752061824
 20
7.358007269186716
 30
0.0
 10
2.919874108407512
 20
7.360492028528698
 30
0.0
  0
SPLINE
  5
1E9
330
1F
100
AcDbEntity
  8
0
  6
CONTINUOUS
 62
     7
100
AcDbSpline
210
0.0
220
0.0
230
1.0
 70
     8
 71
     3
 72
     8
 73
     4
 74
     0
 42
0.00000001
 43
0.00000001
 40
0.0
 40
0.0
 40
0.0
 40
0.0
 40
0.0005684139100135
 40
0.0005684139100135
 40
0.0005684139100135
 40
0.0005684139100135
 10
2.919874108407512
 20
7.360492028528698
 30
0.0
 10
2.924205101808993
 20
7.362394645035524
 30
0.0
 10
2.928559393048174
 20
7.36429207539167
 30
0.0
 10
2.932935315982978
 20
7.366184575998219
 30
0.0
  0
SPLINE
  5
1EA
330
1F
100
AcDbEntity
  8
0
  6
CONTINUOUS
 62
     7
100
AcDbSpline
210
0.0
220
0.0
230
1.0
 70
     8
 71
     3
 72
     8
 73
     4
 74
     0
 42
0.00000001
 43
0.00000001
 40
0.0
 40
0.0
 40
0.0
 40
0.0
 40
0.0006448980745266
 40
0.0006448980745266
 40
0.0006448980745266
 40
0.0006448980745266
 10
2.91540697763203
 20
5.988490087755334
 30
0.0
 10
2.921246338077117
 20
5.984158337520651
 30
0.0
 10
2.927089198914047
 20
5.979828945446176
 30
0.0
 10
2.932935315982978
 20
5.975501754335573
 30
0.0
  0
SPLINE
  5
1EB
330
1F
100
AcDbEntity
  8
0
  6
CONTINUOUS
 62
     7
100
AcDbSpline
210
0.0
220
0.0
230
1.0
 70
     8
 71
     3
 72
     8
 73
     4
 74
     0
 42
0.00000001
 43
0.00000001
 40
0.0
 40
0.0
 40
0.0
 40
0.0
 40
0.0006448980745266
 40
0.0006448980745266
 40
0.0006448980745266
 40
0.0006448980745266
 10
3.48411641834518
 20
6.304658096835246
 30
0.0
 10
3.489962535414112
 20
6.308985287945848
 30
0.0
 10
3.495805396251041
 20
6.313314680020324
 30
0.0
 10
3.501644756696128
 20
6.317646430255007
 30
0.0
  0
SPLINE
  5
1EC
330
1F
100
AcDbEntity
  8
0
  6
CONTINUOUS
 62
     7
100
AcDbSpline
210
0.0
220
0.0
230
1.0
 70
     8
 71
     3
 72
     8
 73
     4
 74
     0
 42
0.00000001
 43
0.00000001
 40
0.0
 40
0.0
 40
0.0
 40
0.0
 40
0.0005684139100135
 40
0.0005684139100135
 40
0.0005684139100135
 40
0.0005684139100135
 10
3.48411641834518
 20
7.043564644495944
 30
0.0
 10
3.488492341279984
 20
7.037827582344163
 30
0.0
 10
3.492846632519165
 20
7.032075575795679
 30
0.0
 10
3.497177625920645
 20
7.026307847577846
 30
0.0
  0
SPLINE
  5
1ED
330
1F
100
AcDbEntity
  8
0
  6
CONTINUOUS
 62
     7
100
AcDbSpline
210
0.0
220
0.0
230
1.0
 70
     8
 71
     3
 72
     8
 73
     4
 74
     0
 42
0.00000001
 43
0.00000001
 40
0.0
 40
0.0
 40
0.0
 40
0.0
 40
0.0006448980745266
 40
0.0006448980745266
 40
0.0006448980745266
 40
0.0006448980745266
 10
3.720336890786127
 20
6.304658096835246
 30
0.0
 10
3.726183007855059
 20
6.308985287945849
 30
0.0
 10
3.732025868691988
 20
6.313314680020324
 30
0.0
 10
3.737865229137074
 20
6.317646430255007
 30
0.0
  0
LINE
  5
1EE
330
1F
100
AcDbEntity
  8
0
  6
CONTINUOUS
 62
     7
100
AcDbLine
 10
3.5016447567
 20
6.3176464303
 30
0.0
 11
3.5037515725
 21
6.3176464303
 31
0.0
  0
SPLINE
  5
1EF
330
1F
100
AcDbEntity
  8
0
  6
CONTINUOUS
 62
     7
100
AcDbSpline
210
0.0
220
0.0
230
1.0
 70
     8
 71
     3
 72
     8
 73
     4
 74
     0
 42
0.00000001
 43
0.00000001
 40
0.0
 40
0.0
 40
0.0
 40
0.0
 40
0.0005684139100135
 40
0.0005684139100135
 40
0.0005684139100135
 40
0.0005684139100135
 10
3.720336890786127
 20
7.043564644495942
 30
0.0
 10
3.724712813720931
 20
7.037827582344163
 30
0.0
 10
3.729067104960112
 20
7.032075575795679
 30
0.0
 10
3.733398098361592
 20
7.026307847577846
 30
0.0
  0
LINE
  5
1F0
330
1F
100
AcDbEntity
  8
0
  6
CONTINUOUS
 62
     7
100
AcDbLine
 10
3.5037515725
 20
7.0263078476
 30
0.0
 11
3.4971776259
 21
7.0263078476
 31
0.0
  0
LINE
  5
1F1
330
1F
100
AcDbEntity
  8
0
  6
HIDDEN
 62
     7
100
AcDbLine
 10
2.7951400404
 20
6.4259141468
 30
0.0
 11
3.0313605128
 21
6.4259141468
 31
0.0
  0
LINE
  5
1F2
330
1F
100
AcDbEntity
  8
0
  6
HIDDEN
 62
     7
100
AcDbLine
 10
3.0215179931
 20
6.4357566665
 30
0.0
 11
2.8049825601
 21
6.4357566665
 31
0.0
  0
LINE
  5
1F3
330
1F
100
AcDbEntity
  8
0
  6
HIDDEN
 62
     7
100
AcDbLine
 10
2.9132502766
 20
5.8944180838
 30
0.0
 11
2.7951400404
 21
5.8944180838
 31
0.0
  0
LINE
  5
1F4
330
1F
100
AcDbEntity
  8
0
  6
HIDDEN
 62
     7
100
AcDbLine
 10
3.0313605128
 20
5.8944180838
 30
0.0
 11
2.9132502766
 21
5.8944180838
 31
0.0
  0
LINE
  5
1F5
330
1F
100
AcDbEntity
  8
0
  6
HIDDEN
 62
     7
100
AcDbLine
 10
2.9132502766
 20
6.0026858003
 30
0.0
 11
2.9723053947
 21
6.0026858003
 31
0.0
  0
LINE
  5
1F6
330
1F
100
AcDbEntity
  8
0
  6
HIDDEN
 62
     7
100
AcDbLine
 10
2.9132502766
 20
5.9909202928
 30
0.0
 11
2.9132502766
 21
5.8845755641
 31
0.0
  0
LINE
  5
1F7
330
1F
100
AcDbEntity
  8
0
  6
HIDDEN
 62
     7
100
AcDbLine
 10
2.8541951585
 20
6.0026858003
 30
0.0
 11
2.9132502766
 21
6.0026858003
 31
0.0
  0
LINE
  5
1F8
330
1F
100
AcDbEntity
  8
0
  6
HIDDEN
 62
     7
100
AcDbLine
 10
2.8541951585
 20
6.0026858003
 30
0.0
 11
2.8541951585
 21
5.8845755641
 31
0.0
  0
LINE
  5
1F9
330
1F
100
AcDbEntity
  8
0
  6
HIDDEN
 62
     7
100
AcDbLine
 10
2.9723053947
 20
6.0026858003
 30
0.0
 11
2.9723053947
 21
5.8845755641
 31
0.0
  0
LINE
  5
1FA
330
1F
100
AcDbEntity
  8
0
  6
HIDDEN
 62
     7
100
AcDbLine
 10
3.1494707491
 20
7.366184576
 30
0.0
 11
3.1494707491
 21
7.3530339851
 31
0.0
  0
LINE
  5
1FB
330
1F
100
AcDbEntity
  8
0
  6
HIDDEN
 62
     7
100
AcDbLine
 10
3.1494707491
 20
7.3530339851
 30
0.0
 11
3.1377652533
 21
7.366184576
 31
0.0
  0
LINE
  5
1FC
330
1F
100
AcDbEntity
  8
0
  6
HIDDEN
 62
     7
100
AcDbLine
 10
3.1494707491
 20
7.3530339851
 30
0.0
 11
3.1494707491
 21
5.9755017543
 31
0.0
  0
SPLINE
  5
1FD
330
1F
100
AcDbEntity
  8
0
  6
HIDDEN
 62
     7
100
AcDbSpline
210
0.0
220
0.0
230
1.0
 70
     8
 71
     3
 72
    17
 73
    13
 74
     0
 42
0.00000001
 43
0.00000001
 40
0.0
 40
0.0
 40
0.0
 40
0.0
 40
0.0964109850907606
 40
0.1959106011048461
 40
0.292251318134195
 40
0.3909988651779331
 40
0.4952947553091822
 40
0.6022354513253402
 40
0.713117378498164
 40
0.8276949099504476
 40
0.9305498307498522
 40
1.0
 40
1.0
 40
1.0
 40
1.0
 10
2.913250276612899
 20
6.467404208888605
 30
0.0
 10
2.907182386127147
 20
6.467246046720898
 30
0.0
 10
2.894852213674465
 20
6.466924655488159
 30
0.0
 10
2.877039060477352
 20
6.464440220717142
 30
0.0
 10
2.860160923140786
 20
6.460825071273969
 30
0.0
 10
2.84442949776625
 20
6.456296718864634
 30
0.0
 10
2.829939889021699
 20
6.451213321415711
 30
0.0
 10
2.817113298415941
 20
6.446024237391208
 30
0.0
 10
2.8065159962275
 20
6.441280742800819
 30
0.0
 10
2.799304580498065
 20
6.437827620429855
 30
0.0
 10
2.795483560339463
 20
6.435928963429613
 30
0.0
 10
2.795514712314728
 20
6.435943916962071
 30
0.0
 10
2.795527268588917
 20
6.435949944209204
 30
0.0
  0
LINE
  5
1FE
330
1F
100
AcDbEntity
  8
0
  6
HIDDEN
 62
     7
100
AcDbLine
 10
2.9093151653
 20
6.4672303746
 30
0.0
 11
2.922465606
 21
6.4670597944
 31
0.0
  0
SPLINE
  5
1FF
330
1F
100
AcDbEntity
  8
0
  6
HIDDEN
 62
     7
100
AcDbSpline
210
0.0
220
0.0
230
1.0
 70
     8
 71
     3
 72
    17
 73
    13
 74
     0
 42
0.00000001
 43
0.00000001
 40
0.0
 40
0.0
 40
0.0
 40
0.0
 40
0.0895789005618297
 40
0.1831043243775018
 40
0.2791413907143345
 40
0.3768293442482297
 40
0.4768711741938884
 40
0.5841906803844792
 40
0.6944244116315297
 40
0.8045052864652927
 40
0.9185720779833472
 40
1.0
 40
1.0
 40
1.0
 40
1.0
 10
3.031177646239148
 20
6.435847793184844
 30
0.0
 10
3.031019478840322
 20
6.435927448834914
 30
0.0
 10
3.030696175757575
 20
6.436090269475679
 30
0.0
 10
3.026693965568571
 20
6.438069379132192
 30
0.0
 10
3.020319899813481
 20
6.441111573214078
 30
0.0
 10
3.011313777183714
 20
6.445176407339568
 30
0.0
 10
2.999696086208885
 20
6.449994913719899
 30
0.0
 10
2.985371101815955
 20
6.455231618560734
 30
0.0
 10
2.968481364542098
 20
6.460322388308859
 30
0.0
 10
2.949400988542763
 20
6.464523308176419
 30
0.0
 10
2.93067118572364
 20
6.467014879485769
 30
0.0
 10
2.918372820769335
 20
6.467289728235229
 30
0.0
 10
2.913250276612898
 20
6.467404208888605
 30
0.0
  0
LINE
  5
200
330
1F
100
AcDbEntity
  8
0
  6
HIDDEN
 62
     7
100
AcDbLine
 10
3.4841164183
 20
6.3003896333
 30
0.0
 11
3.7203368908
 21
6.3003896333
 31
0.0
  0
LINE
  5
201
330
1F
100
AcDbEntity
  8
0
  6
HIDDEN
 62
     7
100
AcDbLine
 10
3.4841164183
 20
6.3046580968
 30
0.0
 11
3.4841164183
 21
6.3003896333
 31
0.0
  0
LINE
  5
202
330
1F
100
AcDbEntity
  8
0
  6
HIDDEN
 62
     7
100
AcDbLine
 10
3.7203368908
 20
7.039296181
 30
0.0
 11
3.4841164183
 21
7.039296181
 31
0.0
  0
LINE
  5
203
330
1F
100
AcDbEntity
  8
0
  6
HIDDEN
 62
     7
100
AcDbLine
 10
3.7203368908
 20
7.0435646445
 30
0.0
 11
3.7203368908
 21
7.039296181
 31
0.0
  0
LINE
  5
204
330
1F
100
AcDbEntity
  8
0
  6
HIDDEN
 62
     7
100
AcDbLine
 10
3.1691557884
 20
5.9777697018
 30
0.0
 11
2.932935316
 21
5.9777697018
 31
0.0
  0
LINE
  5
205
330
1F
100
AcDbEntity
  8
0
  6
HIDDEN
 62
     7
100
AcDbLine
 10
3.1691557884
 20
5.9755017543
 30
0.0
 11
3.1691557884
 21
5.9777697018
 31
0.0
  0
LINE
  5
206
330
1F
100
AcDbEntity
  8
0
  6
HIDDEN
 62
     7
100
AcDbLine
 10
2.932935316
 20
7.3684525235
 30
0.0
 11
3.1691557884
 21
7.3684525235
 31
0.0
  0
LINE
  5
207
330
1F
100
AcDbEntity
  8
0
  6
HIDDEN
 62
     7
100
AcDbLine
 10
2.932935316
 20
7.366184576
 30
0.0
 11
2.932935316
 21
7.3684525235
 31
0.0
  0
SPLINE
  5
208
330
1F
100
AcDbEntity
  8
0
  6
HIDDEN
 62
     7
100
AcDbSpline
210
0.0
220
0.0
230
1.0
 70
     8
 71
     3
 72
     8
 73
     4
 74
     0
 42
0.00000001
 43
0.00000001
 40
0.0
 40
0.0
 40
0.0
 40
0.0
 40
0.0005684139100135
 40
0.0005684139100135
 40
0.0005684139100135
 40
0.0005684139100135
 10
3.720336890786127
 20
6.300389633336909
 30
0.0
 10
3.724712813720932
 20
6.306126695488688
 30
0.0
 10
3.729067104960112
 20
6.311878702037173
 30
0.0
 10
3.733398098361592
 20
6.317646430255007
 30
0.0
  0
SPLINE
  5
209
330
1F
100
AcDbEntity
  8
0
  6
HIDDEN
 62
     7
100
AcDbSpline
210
0.0
220
0.0
230
1.0
 70
     8
 71
     3
 72
     8
 73
     4
 74
     0
 42
0.00000001
 43
0.00000001
 40
0.0
 40
0.0
 40
0.0
 40
0.0
 40
0.0006448980745266
 40
0.0006448980745266
 40
0.0006448980745266
 40
0.0006448980745266
 10
3.737865229137076
 20
7.026307847577846
 30
0.0
 10
3.732025868691988
 20
7.030639597812529
 30
0.0
 10
3.726183007855059
 20
7.034968989887004
 30
0.0
 10
3.720336890786127
 20
7.039296180997606
 30
0.0
  0
SPLINE
  5
20A
330
1F
100
AcDbEntity
  8
0
  6
HIDDEN
 62
     7
100
AcDbSpline
210
0.0
220
0.0
230
1.0
 70
     8
 71
     3
 72
     8
 73
     4
 74
     0
 42
0.00000001
 43
0.00000001
 40
0.0
 40
0.0
 40
0.0
 40
0.0
 40
0.0002533610977256
 40
0.0002533610977256
 40
0.0002533610977256
 40
0.0002533610977256
 10
3.15609458084846
 20
7.360492028528698
 30
0.0
 10
3.153885224502771
 20
7.358007269186716
 30
0.0
 10
3.151677266215839
 20
7.355521265996217
 30
0.0
 10
3.149470749053846
 20
7.353033985058398
 30
0.0
  0
SPLINE
  5
20B
330
1F
100
AcDbEntity
  8
0
  6
HIDDEN
 62
     7
100
AcDbSpline
210
0.0
220
0.0
230
1.0
 70
     8
 71
     3
 72
     8
 73
     4
 74
     0
 42
0.00000001
 43
0.00000001
 40
0.0
 40
0.0
 40
0.0
 40
0.0
 40
0.0006448980745266
 40
0.0006448980745266
 40
0.0006448980745266
 40
0.0006448980745266
 10
3.169155788423926
 20
7.368452523497278
 30
0.0
 10
3.163309671354994
 20
7.364125332386675
 30
0.0
 10
3.157466810518064
 20
7.359795940312202
 30
0.0
 10
3.151627450072977
 20
7.355464190077517
 30
0.0
  0
SPLINE
  5
20C
330
1F
100
AcDbEntity
  8
0
  6
HIDDEN
 62
     7
100
AcDbSpline
210
0.0
220
0.0
230
1.0
 70
     8
 71
     3
 72
     8
 73
     4
 74
     0
 42
0.00000001
 43
0.00000001
 40
0.0
 40
0.0
 40
0.0
 40
0.0
 40
0.0005684139100135
 40
0.0005684139100135
 40
0.0005684139100135
 40
0.0005684139100135
 10
3.15609458084846
 20
7.360492028528698
 30
0.0
 10
3.160425574249941
 20
7.362394645035524
 30
0.0
 10
3.164779865489121
 20
7.364292075391671
 30
0.0
 10
3.169155788423926
 20
7.366184575998219
 30
0.0
  0
SPLINE
  5
20D
330
1F
100
AcDbEntity
  8
0
  6
HIDDEN
 62
     7
100
AcDbSpline
210
0.0
220
0.0
230
1.0
 70
     8
 71
     3
 72
     8
 73
     4
 74
     0
 42
0.00000001
 43
0.00000001
 40
0.0
 40
0.0
 40
0.0
 40
0.0
 40
0.0000825295044264
 40
0.0000825295044264
 40
0.0000825295044264
 40
0.0000825295044264
 10
3.149470749053846
 20
5.990920292774452
 30
0.0
 10
3.150189496997088
 20
5.990110089215143
 30
0.0
 10
3.150908397839689
 20
5.989300021270651
 30
0.0
 10
3.151627450072978
 20
5.988490087755334
 30
0.0
  0
SPLINE
  5
20E
330
1F
100
AcDbEntity
  8
0
  6
HIDDEN
 62
     7
100
AcDbSpline
210
0.0
220
0.0
230
1.0
 70
     8
 71
     3
 72
     8
 73
     4
 74
     0
 42
0.00000001
 43
0.00000001
 40
0.0
 40
0.0
 40
0.0
 40
0.0
 40
0.0005684139100135
 40
0.0005684139100135
 40
0.0005684139100135
 40
0.0005684139100135
 10
3.15609458084846
 20
5.983462249304154
 30
0.0
 10
3.160425574249941
 20
5.981559632797328
 30
0.0
 10
3.164779865489122
 20
5.979662202441182
 30
0.0
 10
3.169155788423926
 20
5.977769701834633
 30
0.0
  0
SPLINE
  5
20F
330
1F
100
AcDbEntity
  8
0
  6
HIDDEN
 62
     7
100
AcDbSpline
210
0.0
220
0.0
230
1.0
 70
     8
 71
     3
 72
     8
 73
     4
 74
     0
 42
0.00000001
 43
0.00000001
 40
0.0
 40
0.0
 40
0.0
 40
0.0
 40
0.0002533610977256
 40
0.0002533610977256
 40
0.0002533610977256
 40
0.0002533610977256
 10
3.15609458084846
 20
5.983462249304154
 30
0.0
 10
3.153885224502772
 20
5.985947008646136
 30
0.0
 10
3.151677266215839
 20
5.988433011836636
 30
0.0
 10
3.149470749053846
 20
5.990920292774454
 30
0.0
  0
SPLINE
  5
210
330
1F
100
AcDbEntity
  8
0
  6
HIDDEN
 62
     7
100
AcDbSpline
210
0.0
220
0.0
230
1.0
 70
     8
 71
     3
 72
     8
 73
     4
 74
     0
 42
0.00000001
 43
0.00000001
 40
0.0
 40
0.0
 40
0.0
 40
0.0
 40
0.0006448980745266
 40
0.0006448980745266
 40
0.0006448980745266
 40
0.0006448980745266
 10
3.151627450072978
 20
5.988490087755334
 30
0.0
 10
3.157466810518065
 20
5.98415833752065
 30
0.0
 10
3.163309671354994
 20
5.979828945446176
 30
0.0
 10
3.169155788423926
 20
5.975501754335574
 30
0.0
  0
LINE
  5
211
330
1F
100
AcDbEntity
  8
0
  6
HIDDEN
 62
     7
100
AcDbLine
 10
3.1494707491
 20
5.9909202928
 30
0.0
 11
3.1494707491
 21
7.3530339851
 31
0.0
  0
LINE
  5
212
330
1F
100
AcDbEntity
  8
0
  6
HIDDEN
 62
     7
100
AcDbLine
 10
3.1516274501
 20
5.9884900878
 30
0.0
 11
2.9154069776
 21
5.9884900878
 31
0.0
  0
LINE
  5
213
330
1F
100
AcDbEntity
  8
0
  6
HIDDEN
 62
     7
100
AcDbLine
 10
2.9198741084
 20
7.3604920285
 30
0.0
 11
3.1560945808
 21
7.3604920285
 31
0.0
  0
LINE
  5
214
330
1F
100
AcDbEntity
  8
0
  6
HIDDEN
 62
     7
100
AcDbLine
 10
2.9198741084
 20
5.9834622493
 30
0.0
 11
3.1560945808
 21
5.9834622493
 31
0.0
  0
LINE
  5
215
330
1F
100
AcDbEntity
  8
0
  6
HIDDEN
 62
     7
100
AcDbLine
 10
3.1516274501
 20
7.3554641901
 30
0.0
 11
2.9154069776
 21
7.3554641901
 31
0.0
  0
SPLINE
  5
216
330
1F
100
AcDbEntity
  8
0
  6
HIDDEN
 62
     7
100
AcDbSpline
210
0.0
220
0.0
230
1.0
 70
     8
 71
     3
 72
     8
 73
     4
 74
     0
 42
0.00000001
 43
0.00000001
 40
0.0
 40
0.0
 40
0.0
 40
0.0
 40
0.0002533610977256
 40
0.0002533610977256
 40
0.0002533610977256
 40
0.0002533610977256
 10
2.913250276612899
 20
5.990920292774453
 30
0.0
 10
2.915456793774892
 20
5.988433011836636
 30
0.0
 10
2.917664752061824
 20
5.985947008646136
 30
0.0
 10
2.919874108407512
 20
5.983462249304154
 30
0.0
  0
SPLINE
  5
217
330
1F
100
AcDbEntity
  8
0
  6
HIDDEN
 62
     7
100
AcDbSpline
210
0.0
220
0.0
230
1.0
 70
     8
 71
     3
 72
     8
 73
     4
 74
     0
 42
0.00000001
 43
0.00000001
 40
0.0
 40
0.0
 40
0.0
 40
0.0
 40
0.0006448980745266
 40
0.0006448980745266
 40
0.0006448980745266
 40
0.0006448980745266
 10
2.915406977632029
 20
7.355464190077517
 30
0.0
 10
2.921246338077116
 20
7.359795940312201
 30
0.0
 10
2.927089198914047
 20
7.364125332386675
 30
0.0
 10
2.932935315982979
 20
7.368452523497278
 30
0.0
  0
SPLINE
  5
218
330
1F
100
AcDbEntity
  8
0
  6
HIDDEN
 62
     7
100
AcDbSpline
210
0.0
220
0.0
230
1.0
 70
     8
 71
     3
 72
     8
 73
     4
 74
     0
 42
0.00000001
 43
0.00000001
 40
0.0
 40
0.0
 40
0.0
 40
0.0
 40
0.0005684139100135
 40
0.0005684139100135
 40
0.0005684139100135
 40
0.0005684139100135
 10
2.919874108407512
 20
5.983462249304154
 30
0.0
 10
2.924205101808993
 20
5.981559632797328
 30
0.0
 10
2.928559393048174
 20
5.979662202441182
 30
0.0
 10
2.932935315982978
 20
5.977769701834633
 30
0.0
  0
LINE
  5
219
330
1F
100
AcDbEntity
  8
0
  6
HIDDEN
 62
     7
100
AcDbLine
 10
3.4971776259
 20
6.3176464303
 30
0.0
 11
3.5016386397
 21
6.3176464303
 31
0.0
  0
SPLINE
  5
21A
330
1F
100
AcDbEntity
  8
0
  6
HIDDEN
 62
     7
100
AcDbSpline
210
0.0
220
0.0
230
1.0
 70
     8
 71
     3
 72
     8
 73
     4
 74
     0
 42
0.00000001
 43
0.00000001
 40
0.0
 40
0.0
 40
0.0
 40
0.0
 40
0.0006448980745266
 40
0.0006448980745266
 40
0.0006448980745266
 40
0.0006448980745266
 10
3.48411641834518
 20
7.039296180997606
 30
0.0
 10
3.489962535414112
 20
7.034968989887004
 30
0.0
 10
3.495805396251042
 20
7.030639597812529
 30
0.0
 10
3.501644756696128
 20
7.026307847577846
 30
0.0
  0
SPLINE
  5
21B
330
1F
100
AcDbEntity
  8
0
  6
HIDDEN
 62
     7
100
AcDbSpline
210
0.0
220
0.0
230
1.0
 70
     8
 71
     3
 72
     8
 73
     4
 74
     0
 42
0.00000001
 43
0.00000001
 40
0.0
 40
0.0
 40
0.0
 40
0.0
 40
0.0005684139100135
 40
0.0005684139100135
 40
0.0005684139100135
 40
0.0005684139100135
 10
3.48411641834518
 20
6.300389633336909
 30
0.0
 10
3.488492341279984
 20
6.306126695488688
 30
0.0
 10
3.492846632519165
 20
6.311878702037173
 30
0.0
 10
3.497177625920646
 20
6.317646430255007
 30
0.0
  0
LINE
  5
21C
330
1F
100
AcDbEntity
  8
0
  6
HIDDEN
 62
     7
100
AcDbLine
 10
4.0156124813
 20
6.9278826507
 30
0.0
 11
3.995927442
 21
6.9081976114
 31
0.0
  0
LINE
  5
21D
330
1F
100
AcDbEntity
  8
0
  6
HIDDEN
 62
     7
100
AcDbLine
 10
3.995927442
 20
6.4357566665
 30
0.0
 11
4.0156124813
 21
6.4160716271
 31
0.0
  0
LINE
  5
21E
330
1F
100
AcDbEntity
  8
0
  6
HIDDEN
 62
     7
100
AcDbLine
 10
3.995927442
 20
6.9081976114
 30
0.0
 11
3.5038014577
 21
6.9081976114
 31
0.0
  0
LINE
  5
21F
330
1F
100
AcDbEntity
  8
0
  6
HIDDEN
 62
     7
100
AcDbLine
 10
3.5038014577
 20
6.4357566665
 30
0.0
 11
3.995927442
 21
6.4357566665
 31
0.0
  0
LINE
  5
220
330
1F
100
AcDbEntity
  8
0
  6
HIDDEN
 62
     7
100
AcDbLine
 10
3.0313605128
 20
6.4259141468
 30
0.0
 11
3.0215179931
 21
6.4357566665
 31
0.0
  0
LINE
  5
221
330
1F
100
AcDbEntity
  8
0
  6
HIDDEN
 62
     7
100
AcDbLine
 10
2.8049825601
 20
6.4357566665
 30
0.0
 11
2.7951400404
 21
6.4259141468
 31
0.0
  0
LINE
  5
222
330
1F
100
AcDbEntity
  8
0
  6
HIDDEN
 62
     7
100
AcDbLine
 10
3.0313605128
 20
5.8944180838
 30
0.0
 11
3.0313605128
 21
6.4259141468
 31
0.0
  0
LINE
  5
223
330
1F
100
AcDbEntity
  8
0
  6
HIDDEN
 62
     7
100
AcDbLine
 10
2.7951400404
 20
6.4259141468
 30
0.0
 11
2.7951400404
 21
5.8944180838
 31
0.0
  0
LINE
  5
224
330
1F
100
AcDbEntity
  8
0
  6
HIDDEN
 62
     7
100
AcDbLine
 10
2.7951400404
 20
5.8944180838
 30
0.0
 11
2.8037388075
 21
5.8858193167
 31
0.0
  0
LINE
  5
225
330
1F
100
AcDbEntity
  8
0
  6
HIDDEN
 62
     7
100
AcDbLine
 10
3.0227588264
 20
5.8858163973
 30
0.0
 11
3.0313605128
 21
5.8944180838
 31
0.0
  0
LINE
  5
226
330
1F
100
AcDbEntity
  8
0
  6
HIDDEN
 62
     7
100
AcDbLine
 10
2.6376597254
 20
6.4160716271
 30
0.0
 11
2.6573447648
 21
6.4357566665
 31
0.0
  0
LINE
  5
227
330
1F
100
AcDbEntity
  8
0
  6
HIDDEN
 62
     7
100
AcDbLine
 10
2.6573447648
 20
6.9081976114
 30
0.0
 11
2.6376597254
 21
6.9278826507
 31
0.0
  0
LINE
  5
228
330
1F
100
AcDbEntity
  8
0
  6
HIDDEN
 62
     7
100
AcDbLine
 10
3.0311776462
 20
6.4357566665
 30
0.0
 11
3.1494707491
 21
6.4357566665
 31
0.0
  0
LINE
  5
229
330
1F
100
AcDbEntity
  8
0
  6
HIDDEN
 62
     7
100
AcDbLine
 10
2.6573447648
 20
6.4357566665
 30
0.0
 11
2.7955272686
 21
6.4357566665
 31
0.0
  0
LINE
  5
22A
330
1F
100
AcDbEntity
  8
0
  6
HIDDEN
 62
     7
100
AcDbLine
 10
3.1494707491
 20
6.9081976114
 30
0.0
 11
2.6573447648
 21
6.9081976114
 31
0.0
  0
LINE
  5
22B
330
1F
100
AcDbEntity
  8
0
  6
HIDDEN
 62
     7
100
AcDbLine
 10
2.7951400404
 20
6.4359498463
 30
0.0
 11
2.7951400404
 21
5.8845755641
 31
0.0
  0
LINE
  5
22C
330
1F
100
AcDbEntity
  8
0
  6
HIDDEN
 62
     7
100
AcDbLine
 10
3.0313605128
 20
5.8845755641
 30
0.0
 11
3.0313605128
 21
6.4358475407
 31
0.0
  0
LINE
  5
22D
330
1F
100
AcDbEntity
  8
0
  6
HIDDEN
 62
     7
100
AcDbLine
 10
3.1494707491
 20
6.4357566665
 30
0.0
 11
3.5038014577
 21
6.4357566665
 31
0.0
  0
LINE
  5
22E
330
1F
100
AcDbEntity
  8
0
  6
HIDDEN
 62
     7
100
AcDbLine
 10
3.5038014577
 20
6.9081976114
 30
0.0
 11
3.1494707491
 21
6.9081976114
 31
0.0
  0
LINE
  5
22F
330
1F
100
AcDbEntity
  8
0
  6
CONTINUOUS
 62
     7
100
AcDbLine
 10
8.5493784298
 20
7.3668151525
 30
0.0
 11
8.5424175865
 21
7.370834868
 31
0.0
  0
LINE
  5
230
330
1F
100
AcDbEntity
  8
0
  6
CONTINUOUS
 62
     7
100
AcDbLine
 10
8.3892790342
 20
7.370834868
 30
0.0
 11
8.3823181909
 21
7.3668151525
 31
0.0
  0
LINE
  5
231
330
1F
100
AcDbEntity
  8
0
  6
CONTINUOUS
 62
     7
100
AcDbLine
 10
8.646891325
 20
5.9363462675
 30
0.0
 11
8.6608084875
 21
5.9443830864
 31
0.0
  0
LINE
  5
232
330
1F
100
AcDbEntity
  8
0
  6
CONTINUOUS
 62
     7
100
AcDbLine
 10
9.2035778262
 20
6.884589031
 30
0.0
 11
9.2035778262
 21
6.9006600568
 31
0.0
  0
LINE
  5
233
330
1F
100
AcDbEntity
  8
0
  6
CONTINUOUS
 62
     7
100
AcDbLine
 10
8.0860989428
 20
5.9937374572
 30
0.0
 11
8.2531320407
 21
5.8973113022
 31
0.0
  0
LINE
  5
234
330
1F
100
AcDbEntity
  8
0
  6
CONTINUOUS
 62
     7
100
AcDbLine
 10
9.0404696255
 20
7.2611677784
 30
0.0
 11
8.8595171027
 21
7.3656294463
 31
0.0
  0
LINE
  5
235
330
1F
100
AcDbEntity
  8
0
  6
CONTINUOUS
 62
     7
100
AcDbLine
 10
7.9229907421
 20
6.3703162046
 30
0.0
 11
7.9229907421
 21
6.3542451788
 31
0.0
  0
LINE
  5
236
330
1F
100
AcDbEntity
  8
0
  6
CONTINUOUS
 62
     7
100
AcDbLine
 10
8.3126441453
 20
7.414985123
 30
0.0
 11
8.2987269828
 21
7.4069483041
 31
0.0
  0
LINE
  5
237
330
1F
100
AcDbEntity
  8
0
  6
CONTINUOUS
 62
     7
100
AcDbLine
 10
7.247898638
 20
6.7520030679
 30
0.0
 11
7.247898638
 21
6.743967555
 31
0.0
  0
LINE
  5
238
330
1F
100
AcDbEntity
  8
0
  6
CONTINUOUS
 62
     7
100
AcDbLine
 10
7.3244430319
 20
6.611374409
 30
0.0
 11
7.3314016132
 21
6.6073559996
 31
0.0
  0
LINE
  5
239
330
1F
100
AcDbEntity
  8
0
  6
CONTINUOUS
 62
     7
100
AcDbLine
 10
8.2609818352
 20
7.7111565015
 30
0.0
 11
8.0939487373
 21
7.8075826564
 31
0.0
  0
LINE
  5
23A
330
1F
100
AcDbEntity
  8
0
  6
CONTINUOUS
 62
     7
100
AcDbLine
 10
7.3066111525
 20
6.4437261802
 30
0.0
 11
7.4736442504
 21
6.3473000253
 31
0.0
  0
LINE
  5
23B
330
1F
100
AcDbEntity
  8
0
  6
CONTINUOUS
 62
     7
100
AcDbLine
 10
7.700189453
 20
7.7685476911
 30
0.0
 11
7.6862722905
 21
7.7605108722
 31
0.0
  0
LINE
  5
23C
330
1F
100
AcDbEntity
  8
0
  6
CONTINUOUS
 62
     7
100
AcDbLine
 10
7.1435029518
 20
6.8203049277
 30
0.0
 11
7.1435029518
 21
6.8042339019
 31
0.0
  0
LINE
  5
23D
330
1F
100
AcDbEntity
  8
0
  6
CONTINUOUS
 62
     7
100
AcDbLine
 10
7.5014831001
 20
6.3312289995
 30
0.0
 11
8.0582600932
 21
6.009808483
 31
0.0
  0
LINE
  5
23E
330
1F
100
AcDbEntity
  8
0
  6
CONTINUOUS
 62
     7
100
AcDbLine
 10
8.8455976779
 20
7.3736649592
 30
0.0
 11
8.2888206848
 21
7.6950854757
 31
0.0
  0
LINE
  5
23F
330
1F
100
AcDbEntity
  8
0
  6
CONTINUOUS
 62
     7
100
AcDbLine
 10
7.8950614006
 20
7.6560505104
 30
0.0
 11
7.881144238
 21
7.6480136915
 31
0.0
  0
LINE
  5
240
330
1F
100
AcDbEntity
  8
0
  6
CONTINUOUS
 62
     7
100
AcDbLine
 10
7.5054079973
 20
6.611381592
 30
0.0
 11
7.5054079973
 21
6.5953105662
 31
0.0
  0
POLYLINE
  5
241
330
1F
100
AcDbEntity
  8
0
  6
CONTINUOUS
 62
     7
100
AcDb2dPolyline
 66
     1
 10
0.0
 20
0.0
 30
0.0
  0
VERTEX
  5
291
330
241
100
AcDbEntity
  8
0
  6
CONTINUOUS
 62
     7
100
AcDbVertex
100
AcDb2dVertex
 10
8.5424051469
 20
7.2824514083
 30
0.0
  0
VERTEX
  5
292
330
241
100
AcDbEntity
  8
0
  6
CONTINUOUS
 62
     7
100
AcDbVertex
100
AcDb2dVertex
 10
8.5517428649
 20
7.2885981524
 30
0.0
  0
VERTEX
  5
293
330
241
100
AcDbEntity
  8
0
  6
CONTINUOUS
 62
     7
100
AcDbVertex
100
AcDb2dVertex
 10
8.5596109033
 20
7.2953959182
 30
0.0
  0
VERTEX
  5
294
330
241
100
AcDbEntity
  8
0
  6
CONTINUOUS
 62
     7
100
AcDbVertex
100
AcDb2dVertex
 10
8.5658746377
 20
7.302728394
 30
0.0
  0
VERTEX
  5
295
330
241
100
AcDbEntity
  8
0
  6
CONTINUOUS
 62
     7
100
AcDbVertex
100
AcDb2dVertex
 10
8.5704268939
 20
7.3104701191
 30
0.0
  0
VERTEX
  5
296
330
241
100
AcDbEntity
  8
0
  6
CONTINUOUS
 62
     7
100
AcDbVertex
100
AcDb2dVertex
 10
8.5731897816
 20
7.3184886306
 30
0.0
  0
VERTEX
  5
297
330
241
100
AcDbEntity
  8
0
  6
CONTINUOUS
 62
     7
100
AcDbVertex
100
AcDb2dVertex
 10
8.5741160269
 20
7.3266467294
 30
0.0
  0
VERTEX
  5
298
330
241
100
AcDbEntity
  8
0
  6
CONTINUOUS
 62
     7
100
AcDbVertex
100
AcDb2dVertex
 10
8.5731897816
 20
7.3348048281
 30
0.0
  0
VERTEX
  5
299
330
241
100
AcDbEntity
  8
0
  6
CONTINUOUS
 62
     7
100
AcDbVertex
100
AcDb2dVertex
 10
8.5704268939
 20
7.3428233396
 30
0.0
  0
VERTEX
  5
29A
330
241
100
AcDbEntity
  8
0
  6
CONTINUOUS
 62
     7
100
AcDbVertex
100
AcDb2dVertex
 10
8.5658746377
 20
7.3505650647
 30
0.0
  0
VERTEX
  5
29B
330
241
100
AcDbEntity
  8
0
  6
CONTINUOUS
 62
     7
100
AcDbVertex
100
AcDb2dVertex
 10
8.5596109033
 20
7.3578975405
 30
0.0
  0
VERTEX
  5
29C
330
241
100
AcDbEntity
  8
0
  6
CONTINUOUS
 62
     7
100
AcDbVertex
100
AcDb2dVertex
 10
8.5517428649
 20
7.3646953063
 30
0.0
  0
VERTEX
  5
29D
330
241
100
AcDbEntity
  8
0
  6
CONTINUOUS
 62
     7
100
AcDbVertex
100
AcDb2dVertex
 10
8.5424051469
 20
7.3708420504
 30
0.0
  0
VERTEX
  5
29E
330
241
100
AcDbEntity
  8
0
  6
CONTINUOUS
 62
     7
100
AcDbVertex
100
AcDb2dVertex
 10
8.5317575202
 20
7.3762326002
 30
0.0
  0
VERTEX
  5
29F
330
241
100
AcDbEntity
  8
0
  6
CONTINUOUS
 62
     7
100
AcDbVertex
100
AcDb2dVertex
 10
8.5199821686
 20
7.3807747221
 30
0.0
  0
VERTEX
  5
2A0
330
241
100
AcDbEntity
  8
0
  6
CONTINUOUS
 62
     7
100
AcDbVertex
100
AcDb2dVertex
 10
8.5072805717
 20
7.384390699
 30
0.0
  0
VERTEX
  5
2A1
330
241
100
AcDbEntity
  8
0
  6
CONTINUOUS
 62
     7
100
AcDbVertex
100
AcDb2dVertex
 10
8.4938700574
 20
7.3870186606
 30
0.0
  0
VERTEX
  5
2A2
330
241
100
AcDbEntity
  8
0
  6
CONTINUOUS
 62
     7
100
AcDbVertex
100
AcDb2dVertex
 10
8.4799800831
 20
7.3886136417
 30
0.0
  0
VERTEX
  5
2A3
330
241
100
AcDbEntity
  8
0
  6
CONTINUOUS
 62
     7
100
AcDbVertex
100
AcDb2dVertex
 10
8.4658483104
 20
7.3891483517
 30
0.0
  0
VERTEX
  5
2A4
330
241
100
AcDbEntity
  8
0
  6
CONTINUOUS
 62
     7
100
AcDbVertex
100
AcDb2dVertex
 10
8.4517165376
 20
7.3886136417
 30
0.0
  0
VERTEX
  5
2A5
330
241
100
AcDbEntity
  8
0
  6
CONTINUOUS
 62
     7
100
AcDbVertex
100
AcDb2dVertex
 10
8.4378265633
 20
7.3870186606
 30
0.0
  0
VERTEX
  5
2A6
330
241
100
AcDbEntity
  8
0
  6
CONTINUOUS
 62
     7
100
AcDbVertex
100
AcDb2dVertex
 10
8.424416049
 20
7.384390699
 30
0.0
  0
VERTEX
  5
2A7
330
241
100
AcDbEntity
  8
0
  6
CONTINUOUS
 62
     7
100
AcDbVertex
100
AcDb2dVertex
 10
8.4117144521
 20
7.3807747221
 30
0.0
  0
VERTEX
  5
2A8
330
241
100
AcDbEntity
  8
0
  6
CONTINUOUS
 62
     7
100
AcDbVertex
100
AcDb2dVertex
 10
8.3999391005
 20
7.3762326002
 30
0.0
  0
VERTEX
  5
2A9
330
241
100
AcDbEntity
  8
0
  6
CONTINUOUS
 62
     7
100
AcDbVertex
100
AcDb2dVertex
 10
8.3892914738
 20
7.3708420504
 30
0.0
  0
VERTEX
  5
2AA
330
241
100
AcDbEntity
  8
0
  6
CONTINUOUS
 62
     7
100
AcDbVertex
100
AcDb2dVertex
 10
8.3799537558
 20
7.3646953063
 30
0.0
  0
VERTEX
  5
2AB
330
241
100
AcDbEntity
  8
0
  6
CONTINUOUS
 62
     7
100
AcDbVertex
100
AcDb2dVertex
 10
8.3720857174
 20
7.3578975405
 30
0.0
  0
VERTEX
  5
2AC
330
241
100
AcDbEntity
  8
0
  6
CONTINUOUS
 62
     7
100
AcDbVertex
100
AcDb2dVertex
 10
8.365821983
 20
7.3505650647
 30
0.0
  0
VERTEX
  5
2AD
330
241
100
AcDbEntity
  8
0
  6
CONTINUOUS
 62
     7
100
AcDbVertex
100
AcDb2dVertex
 10
8.3612697268
 20
7.3428233396
 30
0.0
  0
VERTEX
  5
2AE
330
241
100
AcDbEntity
  8
0
  6
CONTINUOUS
 62
     7
100
AcDbVertex
100
AcDb2dVertex
 10
8.3585068391
 20
7.3348048281
 30
0.0
  0
VERTEX
  5
2AF
330
241
100
AcDbEntity
  8
0
  6
CONTINUOUS
 62
     7
100
AcDbVertex
100
AcDb2dVertex
 10
8.3575805938
 20
7.3266467294
 30
0.0
  0
VERTEX
  5
2B0
330
241
100
AcDbEntity
  8
0
  6
CONTINUOUS
 62
     7
100
AcDbVertex
100
AcDb2dVertex
 10
8.3585068391
 20
7.3184886306
 30
0.0
  0
VERTEX
  5
2B1
330
241
100
AcDbEntity
  8
0
  6
CONTINUOUS
 62
     7
100
AcDbVertex
100
AcDb2dVertex
 10
8.3612697268
 20
7.3104701191
 30
0.0
  0
VERTEX
  5
2B2
330
241
100
AcDbEntity
  8
0
  6
CONTINUOUS
 62
     7
100
AcDbVertex
100
AcDb2dVertex
 10
8.365821983
 20
7.302728394
 30
0.0
  0
VERTEX
  5
2B3
330
241
100
AcDbEntity
  8
0
  6
CONTINUOUS
 62
     7
100
AcDbVertex
100
AcDb2dVertex
 10
8.3720857174
 20
7.2953959182
 30
0.0
  0
VERTEX
  5
2B4
330
241
100
AcDbEntity
  8
0
  6
CONTINUOUS
 62
     7
100
AcDbVertex
100
AcDb2dVertex
 10
8.3799537558
 20
7.2885981524
 30
0.0
  0
VERTEX
  5
2B5
330
241
100
AcDbEntity
  8
0
  6
CONTINUOUS
 62
     7
100
AcDbVertex
100
AcDb2dVertex
 10
8.3892914738
 20
7.2824514083
 30
0.0
  0
VERTEX
  5
2B6
330
241
100
AcDbEntity
  8
0
  6
CONTINUOUS
 62
     7
100
AcDbVertex
100
AcDb2dVertex
 10
8.3999391005
 20
7.2770608585
 30
0.0
  0
VERTEX
  5
2B7
330
241
100
AcDbEntity
  8
0
  6
CONTINUOUS
 62
     7
100
AcDbVertex
100
AcDb2dVertex
 10
8.4117144521
 20
7.2725187366
 30
0.0
  0
VERTEX
  5
2B8
330
241
100
AcDbEntity
  8
0
  6
CONTINUOUS
 62
     7
100
AcDbVertex
100
AcDb2dVertex
 10
8.424416049
 20
7.2689027597
 30
0.0
  0
VERTEX
  5
2B9
330
241
100
AcDbEntity
  8
0
  6
CONTINUOUS
 62
     7
100
AcDbVertex
100
AcDb2dVertex
 10
8.4378265633
 20
7.2662747981
 30
0.0
  0
VERTEX
  5
2BA
330
241
100
AcDbEntity
  8
0
  6
CONTINUOUS
 62
     7
100
AcDbVertex
100
AcDb2dVertex
 10
8.4517165376
 20
7.264679817
 30
0.0
  0
VERTEX
  5
2BB
330
241
100
AcDbEntity
  8
0
  6
CONTINUOUS
 62
     7
100
AcDbVertex
100
AcDb2dVertex
 10
8.4658483104
 20
7.264145107
 30
0.0
  0
VERTEX
  5
2BC
330
241
100
AcDbEntity
  8
0
  6
CONTINUOUS
 62
     7
100
AcDbVertex
100
AcDb2dVertex
 10
8.4799800831
 20
7.264679817
 30
0.0
  0
VERTEX
  5
2BD
330
241
100
AcDbEntity
  8
0
  6
CONTINUOUS
 62
     7
100
AcDbVertex
100
AcDb2dVertex
 10
8.4938700574
 20
7.2662747981
 30
0.0
  0
VERTEX
  5
2BE
330
241
100
AcDbEntity
  8
0
  6
CONTINUOUS
 62
     7
100
AcDbVertex
100
AcDb2dVertex
 10
8.5072805717
 20
7.2689027597
 30
0.0
  0
VERTEX
  5
2BF
330
241
100
AcDbEntity
  8
0
  6
CONTINUOUS
 62
     7
100
AcDbVertex
100
AcDb2dVertex
 10
8.5199821686
 20
7.2725187366
 30
0.0
  0
VERTEX
  5
2C0
330
241
100
AcDbEntity
  8
0
  6
CONTINUOUS
 62
     7
100
AcDbVertex
100
AcDb2dVertex
 10
8.5317575202
 20
7.2770608585
 30
0.0
  0
VERTEX
  5
2C1
330
241
100
AcDbEntity
  8
0
  6
CONTINUOUS
 62
     7
100
AcDbVertex
100
AcDb2dVertex
 10
8.5424051469
 20
7.2824514083
 30
0.0
  0
SEQEND
  5
2C2
330
241
100
AcDbEntity
  8
0
  6
CONTINUOUS
 62
     7
  0
ARC
  5
242
330
1F
100
AcDbEntity
  8
0
  6
CONTINUOUS
 62
     7
100
AcDbCircle
 10
8.5270536066
 20
7.3142969793
 30
0.0
 40
0.0570681484818351
100
AcDbArc
 50
4.3342669262
 51
66.9858740314
  0
ARC
  5
243
330
1F
100
AcDbEntity
  8
0
  6
CONTINUOUS
 62
     7
100
AcDbCircle
 10
8.4068371334
 20
7.3127207697
 30
0.0
 40
0.0593917569051381
100
AcDbArc
 50
114.3829933254
 51
174.3093399235
  0
LINE
  5
244
330
1F
100
AcDbEntity
  8
0
  6
CONTINUOUS
 62
     7
100
AcDbLine
 10
8.4481991869
 20
7.3646711847
 30
0.0
 11
8.3999808849
 21
7.3368353515
 31
0.0
  0
LINE
  5
245
330
1F
100
AcDbEntity
  8
0
  6
CONTINUOUS
 62
     7
100
AcDbLine
 10
8.3999808849
 20
7.3368353515
 30
0.0
 11
8.4176300083
 21
7.2988108961
 31
0.0
  0
LINE
  5
246
330
1F
100
AcDbEntity
  8
0
  6
CONTINUOUS
 62
     7
100
AcDbLine
 10
8.4176300083
 20
7.2988108961
 30
0.0
 11
8.4834974338
 21
7.288622274
 31
0.0
  0
LINE
  5
247
330
1F
100
AcDbEntity
  8
0
  6
CONTINUOUS
 62
     7
100
AcDbLine
 10
8.4834974338
 20
7.288622274
 30
0.0
 11
8.5317157358
 21
7.3164581073
 31
0.0
  0
LINE
  5
248
330
1F
100
AcDbEntity
  8
0
  6
CONTINUOUS
 62
     7
100
AcDbLine
 10
8.5317157358
 20
7.3164581073
 30
0.0
 11
8.5140666124
 21
7.3544825626
 31
0.0
  0
LINE
  5
249
330
1F
100
AcDbEntity
  8
0
  6
CONTINUOUS
 62
     7
100
AcDbLine
 10
8.5140666124
 20
7.3544825626
 30
0.0
 11
8.4481991869
 21
7.3646711847
 31
0.0
  0
LINE
  5
24A
330
1F
100
AcDbEntity
  8
0
  6
CONTINUOUS
 62
     7
100
AcDbLine
 10
8.5140666124
 20
7.3062694851
 30
0.0
 11
8.5140666124
 21
7.3544825626
 31
0.0
  0
LINE
  5
24B
330
1F
100
AcDbEntity
  8
0
  6
CONTINUOUS
 62
     7
100
AcDbLine
 10
8.4481991869
 20
7.2940823401
 30
0.0
 11
8.4481991869
 21
7.3646711847
 31
0.0
  0
POLYLINE
  5
24C
330
1F
100
AcDbEntity
  8
0
  6
CONTINUOUS
 62
     7
100
AcDb2dPolyline
 66
     1
 10
0.0
 20
0.0
 30
0.0
  0
VERTEX
  5
2C3
330
24C
100
AcDbEntity
  8
0
  6
CONTINUOUS
 62
     7
100
AcDbVertex
100
AcDb2dVertex
 10
9.2035778262
 20
6.884589031
 30
0.0
  0
VERTEX
  5
2C4
330
24C
100
AcDbEntity
  8
0
  6
CONTINUOUS
 62
     7
100
AcDbVertex
100
AcDb2dVertex
 10
9.2029438917
 20
6.9145093676
 30
0.0
  0
VERTEX
  5
2C5
330
24C
100
AcDbEntity
  8
0
  6
CONTINUOUS
 62
     7
100
AcDbVertex
100
AcDb2dVertex
 10
9.2010435687
 20
6.9436278987
 30
0.0
  0
VERTEX
  5
2C6
330
24C
100
AcDbEntity
  8
0
  6
CONTINUOUS
 62
     7
100
AcDbVertex
100
AcDb2dVertex
 10
9.1978812957
 20
6.9718766165
 30
0.0
  0
VERTEX
  5
2C7
330
24C
100
AcDbEntity
  8
0
  6
CONTINUOUS
 62
     7
100
AcDbVertex
100
AcDb2dVertex
 10
9.1934644581
 20
6.999189545
 30
0.0
  0
VERTEX
  5
2C8
330
24C
100
AcDbEntity
  8
0
  6
CONTINUOUS
 62
     7
100
AcDbVertex
100
AcDb2dVertex
 10
9.1878033718
 20
7.0255028935
 30
0.0
  0
VERTEX
  5
2C9
330
24C
100
AcDbEntity
  8
0
  6
CONTINUOUS
 62
     7
100
AcDbVertex
100
AcDb2dVertex
 10
9.1809112585
 20
7.0507552059
 30
0.0
  0
VERTEX
  5
2CA
330
24C
100
AcDbEntity
  8
0
  6
CONTINUOUS
 62
     7
100
AcDbVertex
100
AcDb2dVertex
 10
9.172804215
 20
7.0748875043
 30
0.0
  0
VERTEX
  5
2CB
330
24C
100
AcDbEntity
  8
0
  6
CONTINUOUS
 62
     7
100
AcDbVertex
100
AcDb2dVertex
 10
9.1635011756
 20
7.0978434266
 30
0.0
  0
VERTEX
  5
2CC
330
24C
100
AcDbEntity
  8
0
  6
CONTINUOUS
 62
     7
100
AcDbVertex
100
AcDb2dVertex
 10
9.1530238682
 20
7.1195693582
 30
0.0
  0
VERTEX
  5
2CD
330
24C
100
AcDbEntity
  8
0
  6
CONTINUOUS
 62
     7
100
AcDbVertex
100
AcDb2dVertex
 10
9.1413967628
 20
7.1400145572
 30
0.0
  0
VERTEX
  5
2CE
330
24C
100
AcDbEntity
  8
0
  6
CONTINUOUS
 62
     7
100
AcDbVertex
100
AcDb2dVertex
 10
9.1286470152
 20
7.1591312728
 30
0.0
  0
VERTEX
  5
2CF
330
24C
100
AcDbEntity
  8
0
  6
CONTINUOUS
 62
     7
100
AcDbVertex
100
AcDb2dVertex
 10
9.1148044029
 20
7.1768748571
 30
0.0
  0
VERTEX
  5
2D0
330
24C
100
AcDbEntity
  8
0
  6
CONTINUOUS
 62
     7
100
AcDbVertex
100
AcDb2dVertex
 10
9.0999012562
 20
7.1932038691
 30
0.0
  0
VERTEX
  5
2D1
330
24C
100
AcDbEntity
  8
0
  6
CONTINUOUS
 62
     7
100
AcDbVertex
100
AcDb2dVertex
 10
9.0839723818
 20
7.2080801716
 30
0.0
  0
VERTEX
  5
2D2
330
24C
100
AcDbEntity
  8
0
  6
CONTINUOUS
 62
     7
100
AcDbVertex
100
AcDb2dVertex
 10
9.0670549825
 20
7.2214690204
 30
0.0
  0
VERTEX
  5
2D3
330
24C
100
AcDbEntity
  8
0
  6
CONTINUOUS
 62
     7
100
AcDbVertex
100
AcDb2dVertex
 10
9.0491885696
 20
7.2333391452
 30
0.0
  0
VERTEX
  5
2D4
330
24C
100
AcDbEntity
  8
0
  6
CONTINUOUS
 62
     7
100
AcDbVertex
100
AcDb2dVertex
 10
9.030414871
 20
7.2436628228
 30
0.0
  0
VERTEX
  5
2D5
330
24C
100
AcDbEntity
  8
0
  6
CONTINUOUS
 62
     7
100
AcDbVertex
100
AcDb2dVertex
 10
9.0107777334
 20
7.2524159416
 30
0.0
  0
VERTEX
  5
2D6
330
24C
100
AcDbEntity
  8
0
  6
CONTINUOUS
 62
     7
100
AcDbVertex
100
AcDb2dVertex
 10
8.9903230204
 20
7.2595780585
 30
0.0
  0
VERTEX
  5
2D7
330
24C
100
AcDbEntity
  8
0
  6
CONTINUOUS
 62
     7
100
AcDbVertex
100
AcDb2dVertex
 10
8.9690985049
 20
7.2651324459
 30
0.0
  0
VERTEX
  5
2D8
330
24C
100
AcDbEntity
  8
0
  6
CONTINUOUS
 62
     7
100
AcDbVertex
100
AcDb2dVertex
 10
8.9471537577
 20
7.2690661314
 30
0.0
  0
VERTEX
  5
2D9
330
24C
100
AcDbEntity
  8
0
  6
CONTINUOUS
 62
     7
100
AcDbVertex
100
AcDb2dVertex
 10
8.9245400318
 20
7.2713699275
 30
0.0
  0
VERTEX
  5
2DA
330
24C
100
AcDbEntity
  8
0
  6
CONTINUOUS
 62
     7
100
AcDbVertex
100
AcDb2dVertex
 10
8.9013101426
 20
7.2720384538
 30
0.0
  0
VERTEX
  5
2DB
330
24C
100
AcDbEntity
  8
0
  6
CONTINUOUS
 62
     7
100
AcDbVertex
100
AcDb2dVertex
 10
8.8775183446
 20
7.2710701488
 30
0.0
  0
VERTEX
  5
2DC
330
24C
100
AcDbEntity
  8
0
  6
CONTINUOUS
 62
     7
100
AcDbVertex
100
AcDb2dVertex
 10
8.8532202046
 20
7.268467274
 30
0.0
  0
VERTEX
  5
2DD
330
24C
100
AcDbEntity
  8
0
  6
CONTINUOUS
 62
     7
100
AcDbVertex
100
AcDb2dVertex
 10
8.828472472
 20
7.2642359087
 30
0.0
  0
VERTEX
  5
2DE
330
24C
100
AcDbEntity
  8
0
  6
CONTINUOUS
 62
     7
100
AcDbVertex
100
AcDb2dVertex
 10
8.8033329464
 20
7.2583859352
 30
0.0
  0
VERTEX
  5
2DF
330
24C
100
AcDbEntity
  8
0
  6
CONTINUOUS
 62
     7
100
AcDbVertex
100
AcDb2dVertex
 10
8.7778603422
 20
7.2509310166
 30
0.0
  0
VERTEX
  5
2E0
330
24C
100
AcDbEntity
  8
0
  6
CONTINUOUS
 62
     7
100
AcDbVertex
100
AcDb2dVertex
 10
8.752114152
 20
7.241888564
 30
0.0
  0
VERTEX
  5
2E1
330
24C
100
AcDbEntity
  8
0
  6
CONTINUOUS
 62
     7
100
AcDbVertex
100
AcDb2dVertex
 10
8.7261545071
 20
7.2312796967
 30
0.0
  0
VERTEX
  5
2E2
330
24C
100
AcDbEntity
  8
0
  6
CONTINUOUS
 62
     7
100
AcDbVertex
100
AcDb2dVertex
 10
8.7000420374
 20
7.2191291921
 30
0.0
  0
VERTEX
  5
2E3
330
24C
100
AcDbEntity
  8
0
  6
CONTINUOUS
 62
     7
100
AcDbVertex
100
AcDb2dVertex
 10
8.6738377299
 20
7.2054654282
 30
0.0
  0
VERTEX
  5
2E4
330
24C
100
AcDbEntity
  8
0
  6
CONTINUOUS
 62
     7
100
AcDbVertex
100
AcDb2dVertex
 10
8.6476027859
 20
7.1903203174
 30
0.0
  0
VERTEX
  5
2E5
330
24C
100
AcDbEntity
  8
0
  6
CONTINUOUS
 62
     7
100
AcDbVertex
100
AcDb2dVertex
 10
8.6213984785
 20
7.1737292319
 30
0.0
  0
VERTEX
  5
2E6
330
24C
100
AcDbEntity
  8
0
  6
CONTINUOUS
 62
     7
100
AcDbVertex
100
AcDb2dVertex
 10
8.5952860088
 20
7.1557309208
 30
0.0
  0
VERTEX
  5
2E7
330
24C
100
AcDbEntity
  8
0
  6
CONTINUOUS
 62
     7
100
AcDbVertex
100
AcDb2dVertex
 10
8.5693263639
 20
7.13636742
 30
0.0
  0
VERTEX
  5
2E8
330
24C
100
AcDbEntity
  8
0
  6
CONTINUOUS
 62
     7
100
AcDbVertex
100
AcDb2dVertex
 10
8.5435801736
 20
7.115683954
 30
0.0
  0
VERTEX
  5
2E9
330
24C
100
AcDbEntity
  8
0
  6
CONTINUOUS
 62
     7
100
AcDbVertex
100
AcDb2dVertex
 10
8.5181075694
 20
7.0937288299
 30
0.0
  0
VERTEX
  5
2EA
330
24C
100
AcDbEntity
  8
0
  6
CONTINUOUS
 62
     7
100
AcDbVertex
100
AcDb2dVertex
 10
8.4929680438
 20
7.0705533249
 30
0.0
  0
VERTEX
  5
2EB
330
24C
100
AcDbEntity
  8
0
  6
CONTINUOUS
 62
     7
100
AcDbVertex
100
AcDb2dVertex
 10
8.4682203113
 20
7.0462115665
 30
0.0
  0
VERTEX
  5
2EC
330
24C
100
AcDbEntity
  8
0
  6
CONTINUOUS
 62
     7
100
AcDbVertex
100
AcDb2dVertex
 10
8.4439221713
 20
7.0207604059
 30
0.0
  0
VERTEX
  5
2ED
330
24C
100
AcDbEntity
  8
0
  6
CONTINUOUS
 62
     7
100
AcDbVertex
100
AcDb2dVertex
 10
8.4201303732
 20
6.9942592856
 30
0.0
  0
VERTEX
  5
2EE
330
24C
100
AcDbEntity
  8
0
  6
CONTINUOUS
 62
     7
100
AcDbVertex
100
AcDb2dVertex
 10
8.396900484
 20
6.9667701002
 30
0.0
  0
VERTEX
  5
2EF
330
24C
100
AcDbEntity
  8
0
  6
CONTINUOUS
 62
     7
100
AcDbVertex
100
AcDb2dVertex
 10
8.3742867581
 20
6.9383570518
 30
0.0
  0
VERTEX
  5
2F0
330
24C
100
AcDbEntity
  8
0
  6
CONTINUOUS
 62
     7
100
AcDbVertex
100
AcDb2dVertex
 10
8.3523420109
 20
6.9090865006
 30
0.0
  0
VERTEX
  5
2F1
330
24C
100
AcDbEntity
  8
0
  6
CONTINUOUS
 62
     7
100
AcDbVertex
100
AcDb2dVertex
 10
8.3311174954
 20
6.8790268091
 30
0.0
  0
VERTEX
  5
2F2
330
24C
100
AcDbEntity
  8
0
  6
CONTINUOUS
 62
     7
100
AcDbVertex
100
AcDb2dVertex
 10
8.3106627824
 20
6.8482481834
 30
0.0
  0
VERTEX
  5
2F3
330
24C
100
AcDbEntity
  8
0
  6
CONTINUOUS
 62
     7
100
AcDbVertex
100
AcDb2dVertex
 10
8.2910256449
 20
6.8168225081
 30
0.0
  0
VERTEX
  5
2F4
330
24C
100
AcDbEntity
  8
0
  6
CONTINUOUS
 62
     7
100
AcDbVertex
100
AcDb2dVertex
 10
8.2722519463
 20
6.7848231795
 30
0.0
  0
VERTEX
  5
2F5
330
24C
100
AcDbEntity
  8
0
  6
CONTINUOUS
 62
     7
100
AcDbVertex
100
AcDb2dVertex
 10
8.2543855334
 20
6.7523249335
 30
0.0
  0
VERTEX
  5
2F6
330
24C
100
AcDbEntity
  8
0
  6
CONTINUOUS
 62
     7
100
AcDbVertex
100
AcDb2dVertex
 10
8.2374681341
 20
6.7194036712
 30
0.0
  0
VERTEX
  5
2F7
330
24C
100
AcDbEntity
  8
0
  6
CONTINUOUS
 62
     7
100
AcDbVertex
100
AcDb2dVertex
 10
8.2215392597
 20
6.6861362818
 30
0.0
  0
VERTEX
  5
2F8
330
24C
100
AcDbEntity
  8
0
  6
CONTINUOUS
 62
     7
100
AcDbVertex
100
AcDb2dVertex
 10
8.2066361129
 20
6.6526004627
 30
0.0
  0
VERTEX
  5
2F9
330
24C
100
AcDbEntity
  8
0
  6
CONTINUOUS
 62
     7
100
AcDbVertex
100
AcDb2dVertex
 10
8.1927935007
 20
6.6188745385
 30
0.0
  0
VERTEX
  5
2FA
330
24C
100
AcDbEntity
  8
0
  6
CONTINUOUS
 62
     7
100
AcDbVertex
100
AcDb2dVertex
 10
8.1800437531
 20
6.5850372777
 30
0.0
  0
VERTEX
  5
2FB
330
24C
100
AcDbEntity
  8
0
  6
CONTINUOUS
 62
     7
100
AcDbVertex
100
AcDb2dVertex
 10
8.1684166477
 20
6.5511677086
 30
0.0
  0
VERTEX
  5
2FC
330
24C
100
AcDbEntity
  8
0
  6
CONTINUOUS
 62
     7
100
AcDbVertex
100
AcDb2dVertex
 10
8.1579393402
 20
6.5173449353
 30
0.0
  0
VERTEX
  5
2FD
330
24C
100
AcDbEntity
  8
0
  6
CONTINUOUS
 62
     7
100
AcDbVertex
100
AcDb2dVertex
 10
8.1486363009
 20
6.4836479524
 30
0.0
  0
VERTEX
  5
2FE
330
24C
100
AcDbEntity
  8
0
  6
CONTINUOUS
 62
     7
100
AcDbVertex
100
AcDb2dVertex
 10
8.1405292574
 20
6.4501554608
 30
0.0
  0
VERTEX
  5
2FF
330
24C
100
AcDbEntity
  8
0
  6
CONTINUOUS
 62
     7
100
AcDbVertex
100
AcDb2dVertex
 10
8.133637144
 20
6.4169456837
 30
0.0
  0
VERTEX
  5
300
330
24C
100
AcDbEntity
  8
0
  6
CONTINUOUS
 62
     7
100
AcDbVertex
100
AcDb2dVertex
 10
8.1279760577
 20
6.3840961841
 30
0.0
  0
VERTEX
  5
301
330
24C
100
AcDbEntity
  8
0
  6
CONTINUOUS
 62
     7
100
AcDbVertex
100
AcDb2dVertex
 10
8.1235592202
 20
6.3516836835
 30
0.0
  0
VERTEX
  5
302
330
24C
100
AcDbEntity
  8
0
  6
CONTINUOUS
 62
     7
100
AcDbVertex
100
AcDb2dVertex
 10
8.1203969471
 20
6.3197838829
 30
0.0
  0
VERTEX
  5
303
330
24C
100
AcDbEntity
  8
0
  6
CONTINUOUS
 62
     7
100
AcDbVertex
100
AcDb2dVertex
 10
8.1184966242
 20
6.2884712857
 30
0.0
  0
VERTEX
  5
304
330
24C
100
AcDbEntity
  8
0
  6
CONTINUOUS
 62
     7
100
AcDbVertex
100
AcDb2dVertex
 10
8.1178626897
 20
6.2578190239
 30
0.0
  0
VERTEX
  5
305
330
24C
100
AcDbEntity
  8
0
  6
CONTINUOUS
 62
     7
100
AcDbVertex
100
AcDb2dVertex
 10
8.1184966242
 20
6.2278986873
 30
0.0
  0
VERTEX
  5
306
330
24C
100
AcDbEntity
  8
0
  6
CONTINUOUS
 62
     7
100
AcDbVertex
100
AcDb2dVertex
 10
8.1203969471
 20
6.1987801562
 30
0.0
  0
VERTEX
  5
307
330
24C
100
AcDbEntity
  8
0
  6
CONTINUOUS
 62
     7
100
AcDbVertex
100
AcDb2dVertex
 10
8.1235592202
 20
6.1705314383
 30
0.0
  0
VERTEX
  5
308
330
24C
100
AcDbEntity
  8
0
  6
CONTINUOUS
 62
     7
100
AcDbVertex
100
AcDb2dVertex
 10
8.1279760577
 20
6.1432185099
 30
0.0
  0
VERTEX
  5
309
330
24C
100
AcDbEntity
  8
0
  6
CONTINUOUS
 62
     7
100
AcDbVertex
100
AcDb2dVertex
 10
8.133637144
 20
6.1169051614
 30
0.0
  0
VERTEX
  5
30A
330
24C
100
AcDbEntity
  8
0
  6
CONTINUOUS
 62
     7
100
AcDbVertex
100
AcDb2dVertex
 10
8.1405292574
 20
6.091652849
 30
0.0
  0
VERTEX
  5
30B
330
24C
100
AcDbEntity
  8
0
  6
CONTINUOUS
 62
     7
100
AcDbVertex
100
AcDb2dVertex
 10
8.1486363009
 20
6.0675205506
 30
0.0
  0
VERTEX
  5
30C
330
24C
100
AcDbEntity
  8
0
  6
CONTINUOUS
 62
     7
100
AcDbVertex
100
AcDb2dVertex
 10
8.1579393402
 20
6.0445646282
 30
0.0
  0
VERTEX
  5
30D
330
24C
100
AcDbEntity
  8
0
  6
CONTINUOUS
 62
     7
100
AcDbVertex
100
AcDb2dVertex
 10
8.1684166477
 20
6.0228386966
 30
0.0
  0
VERTEX
  5
30E
330
24C
100
AcDbEntity
  8
0
  6
CONTINUOUS
 62
     7
100
AcDbVertex
100
AcDb2dVertex
 10
8.1800437531
 20
6.0023934977
 30
0.0
  0
VERTEX
  5
30F
330
24C
100
AcDbEntity
  8
0
  6
CONTINUOUS
 62
     7
100
AcDbVertex
100
AcDb2dVertex
 10
8.1927935007
 20
5.9832767821
 30
0.0
  0
VERTEX
  5
310
330
24C
100
AcDbEntity
  8
0
  6
CONTINUOUS
 62
     7
100
AcDbVertex
100
AcDb2dVertex
 10
8.2066361129
 20
5.9655331978
 30
0.0
  0
VERTEX
  5
311
330
24C
100
AcDbEntity
  8
0
  6
CONTINUOUS
 62
     7
100
AcDbVertex
100
AcDb2dVertex
 10
8.2215392597
 20
5.9492041858
 30
0.0
  0
VERTEX
  5
312
330
24C
100
AcDbEntity
  8
0
  6
CONTINUOUS
 62
     7
100
AcDbVertex
100
AcDb2dVertex
 10
8.2374681341
 20
5.9343278832
 30
0.0
  0
VERTEX
  5
313
330
24C
100
AcDbEntity
  8
0
  6
CONTINUOUS
 62
     7
100
AcDbVertex
100
AcDb2dVertex
 10
8.2543855334
 20
5.9209390344
 30
0.0
  0
VERTEX
  5
314
330
24C
100
AcDbEntity
  8
0
  6
CONTINUOUS
 62
     7
100
AcDbVertex
100
AcDb2dVertex
 10
8.2722519463
 20
5.9090689096
 30
0.0
  0
VERTEX
  5
315
330
24C
100
AcDbEntity
  8
0
  6
CONTINUOUS
 62
     7
100
AcDbVertex
100
AcDb2dVertex
 10
8.2910256449
 20
5.8987452321
 30
0.0
  0
VERTEX
  5
316
330
24C
100
AcDbEntity
  8
0
  6
CONTINUOUS
 62
     7
100
AcDbVertex
100
AcDb2dVertex
 10
8.3106627824
 20
5.8899921132
 30
0.0
  0
VERTEX
  5
317
330
24C
100
AcDbEntity
  8
0
  6
CONTINUOUS
 62
     7
100
AcDbVertex
100
AcDb2dVertex
 10
8.3311174954
 20
5.8828299964
 30
0.0
  0
VERTEX
  5
318
330
24C
100
AcDbEntity
  8
0
  6
CONTINUOUS
 62
     7
100
AcDbVertex
100
AcDb2dVertex
 10
8.3523420109
 20
5.877275609
 30
0.0
  0
VERTEX
  5
319
330
24C
100
AcDbEntity
  8
0
  6
CONTINUOUS
 62
     7
100
AcDbVertex
100
AcDb2dVertex
 10
8.3742867581
 20
5.8733419235
 30
0.0
  0
VERTEX
  5
31A
330
24C
100
AcDbEntity
  8
0
  6
CONTINUOUS
 62
     7
100
AcDbVertex
100
AcDb2dVertex
 10
8.396900484
 20
5.8710381273
 30
0.0
  0
VERTEX
  5
31B
330
24C
100
AcDbEntity
  8
0
  6
CONTINUOUS
 62
     7
100
AcDbVertex
100
AcDb2dVertex
 10
8.4201303732
 20
5.8703696011
 30
0.0
  0
VERTEX
  5
31C
330
24C
100
AcDbEntity
  8
0
  6
CONTINUOUS
 62
     7
100
AcDbVertex
100
AcDb2dVertex
 10
8.4439221713
 20
5.8713379061
 30
0.0
  0
VERTEX
  5
31D
330
24C
100
AcDbEntity
  8
0
  6
CONTINUOUS
 62
     7
100
AcDbVertex
100
AcDb2dVertex
 10
8.4682203113
 20
5.8739407808
 30
0.0
  0
VERTEX
  5
31E
330
24C
100
AcDbEntity
  8
0
  6
CONTINUOUS
 62
     7
100
AcDbVertex
100
AcDb2dVertex
 10
8.4929680438
 20
5.8781721462
 30
0.0
  0
VERTEX
  5
31F
330
24C
100
AcDbEntity
  8
0
  6
CONTINUOUS
 62
     7
100
AcDbVertex
100
AcDb2dVertex
 10
8.5181075694
 20
5.8840221197
 30
0.0
  0
VERTEX
  5
320
330
24C
100
AcDbEntity
  8
0
  6
CONTINUOUS
 62
     7
100
AcDbVertex
100
AcDb2dVertex
 10
8.5435801736
 20
5.8914770383
 30
0.0
  0
VERTEX
  5
321
330
24C
100
AcDbEntity
  8
0
  6
CONTINUOUS
 62
     7
100
AcDbVertex
100
AcDb2dVertex
 10
8.5693263639
 20
5.9005194908
 30
0.0
  0
VERTEX
  5
322
330
24C
100
AcDbEntity
  8
0
  6
CONTINUOUS
 62
     7
100
AcDbVertex
100
AcDb2dVertex
 10
8.5952860088
 20
5.9111283581
 30
0.0
  0
VERTEX
  5
323
330
24C
100
AcDbEntity
  8
0
  6
CONTINUOUS
 62
     7
100
AcDbVertex
100
AcDb2dVertex
 10
8.6213984785
 20
5.9232788628
 30
0.0
  0
VERTEX
  5
324
330
24C
100
AcDbEntity
  8
0
  6
CONTINUOUS
 62
     7
100
AcDbVertex
100
AcDb2dVertex
 10
8.6476027859
 20
5.9369426267
 30
0.0
  0
VERTEX
  5
325
330
24C
100
AcDbEntity
  8
0
  6
CONTINUOUS
 62
     7
100
AcDbVertex
100
AcDb2dVertex
 10
8.6738377299
 20
5.9520877374
 30
0.0
  0
VERTEX
  5
326
330
24C
100
AcDbEntity
  8
0
  6
CONTINUOUS
 62
     7
100
AcDbVertex
100
AcDb2dVertex
 10
8.7000420374
 20
5.968678823
 30
0.0
  0
VERTEX
  5
327
330
24C
100
AcDbEntity
  8
0
  6
CONTINUOUS
 62
     7
100
AcDbVertex
100
AcDb2dVertex
 10
8.7261545071
 20
5.9866771341
 30
0.0
  0
VERTEX
  5
328
330
24C
100
AcDbEntity
  8
0
  6
CONTINUOUS
 62
     7
100
AcDbVertex
100
AcDb2dVertex
 10
8.752114152
 20
6.0060406348
 30
0.0
  0
VERTEX
  5
329
330
24C
100
AcDbEntity
  8
0
  6
CONTINUOUS
 62
     7
100
AcDbVertex
100
AcDb2dVertex
 10
8.7778603422
 20
6.0267241008
 30
0.0
  0
VERTEX
  5
32A
330
24C
100
AcDbEntity
  8
0
  6
CONTINUOUS
 62
     7
100
AcDbVertex
100
AcDb2dVertex
 10
8.8033329464
 20
6.048679225
 30
0.0
  0
VERTEX
  5
32B
330
24C
100
AcDbEntity
  8
0
  6
CONTINUOUS
 62
     7
100
AcDbVertex
100
AcDb2dVertex
 10
8.828472472
 20
6.07185473
 30
0.0
  0
VERTEX
  5
32C
330
24C
100
AcDbEntity
  8
0
  6
CONTINUOUS
 62
     7
100
AcDbVertex
100
AcDb2dVertex
 10
8.8532202046
 20
6.0961964884
 30
0.0
  0
VERTEX
  5
32D
330
24C
100
AcDbEntity
  8
0
  6
CONTINUOUS
 62
     7
100
AcDbVertex
100
AcDb2dVertex
 10
8.8775183446
 20
6.1216476489
 30
0.0
  0
VERTEX
  5
32E
330
24C
100
AcDbEntity
  8
0
  6
CONTINUOUS
 62
     7
100
AcDbVertex
100
AcDb2dVertex
 10
8.9013101426
 20
6.1481487692
 30
0.0
  0
VERTEX
  5
32F
330
24C
100
AcDbEntity
  8
0
  6
CONTINUOUS
 62
     7
100
AcDbVertex
100
AcDb2dVertex
 10
8.9245400318
 20
6.1756379547
 30
0.0
  0
VERTEX
  5
330
330
24C
100
AcDbEntity
  8
0
  6
CONTINUOUS
 62
     7
100
AcDbVertex
100
AcDb2dVertex
 10
8.9471537577
 20
6.204051003
 30
0.0
  0
VERTEX
  5
331
330
24C
100
AcDbEntity
  8
0
  6
CONTINUOUS
 62
     7
100
AcDbVertex
100
AcDb2dVertex
 10
8.9690985049
 20
6.2333215543
 30
0.0
  0
VERTEX
  5
332
330
24C
100
AcDbEntity
  8
0
  6
CONTINUOUS
 62
     7
100
AcDbVertex
100
AcDb2dVertex
 10
8.9903230204
 20
6.2633812457
 30
0.0
  0
VERTEX
  5
333
330
24C
100
AcDbEntity
  8
0
  6
CONTINUOUS
 62
     7
100
AcDbVertex
100
AcDb2dVertex
 10
9.0107777334
 20
6.2941598715
 30
0.0
  0
VERTEX
  5
334
330
24C
100
AcDbEntity
  8
0
  6
CONTINUOUS
 62
     7
100
AcDbVertex
100
AcDb2dVertex
 10
9.030414871
 20
6.3255855468
 30
0.0
  0
VERTEX
  5
335
330
24C
100
AcDbEntity
  8
0
  6
CONTINUOUS
 62
     7
100
AcDbVertex
100
AcDb2dVertex
 10
9.0491885696
 20
6.3575848754
 30
0.0
  0
VERTEX
  5
336
330
24C
100
AcDbEntity
  8
0
  6
CONTINUOUS
 62
     7
100
AcDbVertex
100
AcDb2dVertex
 10
9.0670549825
 20
6.3900831214
 30
0.0
  0
VERTEX
  5
337
330
24C
100
AcDbEntity
  8
0
  6
CONTINUOUS
 62
     7
100
AcDbVertex
100
AcDb2dVertex
 10
9.0839723818
 20
6.4230043837
 30
0.0
  0
VERTEX
  5
338
330
24C
100
AcDbEntity
  8
0
  6
CONTINUOUS
 62
     7
100
AcDbVertex
100
AcDb2dVertex
 10
9.0999012562
 20
6.4562717731
 30
0.0
  0
VERTEX
  5
339
330
24C
100
AcDbEntity
  8
0
  6
CONTINUOUS
 62
     7
100
AcDbVertex
100
AcDb2dVertex
 10
9.1148044029
 20
6.4898075921
 30
0.0
  0
VERTEX
  5
33A
330
24C
100
AcDbEntity
  8
0
  6
CONTINUOUS
 62
     7
100
AcDbVertex
100
AcDb2dVertex
 10
9.1286470152
 20
6.5235335163
 30
0.0
  0
VERTEX
  5
33B
330
24C
100
AcDbEntity
  8
0
  6
CONTINUOUS
 62
     7
100
AcDbVertex
100
AcDb2dVertex
 10
9.1413967628
 20
6.5573707772
 30
0.0
  0
VERTEX
  5
33C
330
24C
100
AcDbEntity
  8
0
  6
CONTINUOUS
 62
     7
100
AcDbVertex
100
AcDb2dVertex
 10
9.1530238682
 20
6.5912403462
 30
0.0
  0
VERTEX
  5
33D
330
24C
100
AcDbEntity
  8
0
  6
CONTINUOUS
 62
     7
100
AcDbVertex
100
AcDb2dVertex
 10
9.1635011756
 20
6.6250631196
 30
0.0
  0
VERTEX
  5
33E
330
24C
100
AcDbEntity
  8
0
  6
CONTINUOUS
 62
     7
100
AcDbVertex
100
AcDb2dVertex
 10
9.172804215
 20
6.6587601025
 30
0.0
  0
VERTEX
  5
33F
330
24C
100
AcDbEntity
  8
0
  6
CONTINUOUS
 62
     7
100
AcDbVertex
100
AcDb2dVertex
 10
9.1809112585
 20
6.6922525941
 30
0.0
  0
VERTEX
  5
340
330
24C
100
AcDbEntity
  8
0
  6
CONTINUOUS
 62
     7
100
AcDbVertex
100
AcDb2dVertex
 10
9.1878033718
 20
6.7254623712
 30
0.0
  0
VERTEX
  5
341
330
24C
100
AcDbEntity
  8
0
  6
CONTINUOUS
 62
     7
100
AcDbVertex
100
AcDb2dVertex
 10
9.1934644581
 20
6.7583118708
 30
0.0
  0
VERTEX
  5
342
330
24C
100
AcDbEntity
  8
0
  6
CONTINUOUS
 62
     7
100
AcDbVertex
100
AcDb2dVertex
 10
9.1978812957
 20
6.7907243713
 30
0.0
  0
VERTEX
  5
343
330
24C
100
AcDbEntity
  8
0
  6
CONTINUOUS
 62
     7
100
AcDbVertex
100
AcDb2dVertex
 10
9.2010435687
 20
6.822624172
 30
0.0
  0
VERTEX
  5
344
330
24C
100
AcDbEntity
  8
0
  6
CONTINUOUS
 62
     7
100
AcDbVertex
100
AcDb2dVertex
 10
9.2029438917
 20
6.8539367692
 30
0.0
  0
VERTEX
  5
345
330
24C
100
AcDbEntity
  8
0
  6
CONTINUOUS
 62
     7
100
AcDbVertex
100
AcDb2dVertex
 10
9.2035778262
 20
6.884589031
 30
0.0
  0
SEQEND
  5
346
330
24C
100
AcDbEntity
  8
0
  6
CONTINUOUS
 62
     7
  0
POLYLINE
  5
24D
330
1F
100
AcDbEntity
  8
0
  6
CONTINUOUS
 62
     7
100
AcDb2dPolyline
 66
     1
 10
0.0
 20
0.0
 30
0.0
  0
VERTEX
  5
347
330
24D
100
AcDbEntity
  8
0
  6
CONTINUOUS
 62
     7
100
AcDbVertex
100
AcDb2dVertex
 10
8.646891325
 20
5.9363462675
 30
0.0
  0
VERTEX
  5
348
330
24D
100
AcDbEntity
  8
0
  6
CONTINUOUS
 62
     7
100
AcDbVertex
100
AcDb2dVertex
 10
8.640124785
 20
5.9324862393
 30
0.0
  0
VERTEX
  5
349
330
24D
100
AcDbEntity
  8
0
  6
CONTINUOUS
 62
     7
100
AcDbVertex
100
AcDb2dVertex
 10
8.6134397872
 20
5.9181902816
 30
0.0
  0
VERTEX
  5
34A
330
24D
100
AcDbEntity
  8
0
  6
CONTINUOUS
 62
     7
100
AcDbVertex
100
AcDb2dVertex
 10
8.5868315208
 20
5.9054147583
 30
0.0
  0
VERTEX
  5
34B
330
24D
100
AcDbEntity
  8
0
  6
CONTINUOUS
 62
     7
100
AcDbVertex
100
AcDb2dVertex
 10
8.5603611858
 20
5.8941890536
 30
0.0
  0
VERTEX
  5
34C
330
24D
100
AcDbEntity
  8
0
  6
CONTINUOUS
 62
     7
100
AcDbVertex
100
AcDb2dVertex
 10
8.5340896647
 20
5.884538987
 30
0.0
  0
VERTEX
  5
34D
330
24D
100
AcDbEntity
  8
0
  6
CONTINUOUS
 62
     7
100
AcDbVertex
100
AcDb2dVertex
 10
8.5080773829
 20
5.8764867539
 30
0.0
  0
VERTEX
  5
34E
330
24D
100
AcDbEntity
  8
0
  6
CONTINUOUS
 62
     7
100
AcDbVertex
100
AcDb2dVertex
 10
8.4823841696
 20
5.8700508747
 30
0.0
  0
VERTEX
  5
34F
330
24D
100
AcDbEntity
  8
0
  6
CONTINUOUS
 62
     7
100
AcDbVertex
100
AcDb2dVertex
 10
8.4570691198
 20
5.8652461522
 30
0.0
  0
VERTEX
  5
350
330
24D
100
AcDbEntity
  8
0
  6
CONTINUOUS
 62
     7
100
AcDbVertex
100
AcDb2dVertex
 10
8.432190459
 20
5.8620836374
 30
0.0
  0
VERTEX
  5
351
330
24D
100
AcDbEntity
  8
0
  6
CONTINUOUS
 62
     7
100
AcDbVertex
100
AcDb2dVertex
 10
8.407805409
 20
5.8605706041
 30
0.0
  0
VERTEX
  5
352
330
24D
100
AcDbEntity
  8
0
  6
CONTINUOUS
 62
     7
100
AcDbVertex
100
AcDb2dVertex
 10
8.3839700561
 20
5.8607105324
 30
0.0
  0
VERTEX
  5
353
330
24D
100
AcDbEntity
  8
0
  6
CONTINUOUS
 62
     7
100
AcDbVertex
100
AcDb2dVertex
 10
8.3607392224
 20
5.8625031005
 30
0.0
  0
VERTEX
  5
354
330
24D
100
AcDbEntity
  8
0
  6
CONTINUOUS
 62
     7
100
AcDbVertex
100
AcDb2dVertex
 10
8.3381663395
 20
5.8659441853
 30
0.0
  0
VERTEX
  5
355
330
24D
100
AcDbEntity
  8
0
  6
CONTINUOUS
 62
     7
100
AcDbVertex
100
AcDb2dVertex
 10
8.316303326
 20
5.8710258723
 30
0.0
  0
VERTEX
  5
356
330
24D
100
AcDbEntity
  8
0
  6
CONTINUOUS
 62
     7
100
AcDbVertex
100
AcDb2dVertex
 10
8.2952004672
 20
5.8777364735
 30
0.0
  0
VERTEX
  5
357
330
24D
100
AcDbEntity
  8
0
  6
CONTINUOUS
 62
     7
100
AcDbVertex
100
AcDb2dVertex
 10
8.2749063006
 20
5.8860605542
 30
0.0
  0
VERTEX
  5
358
330
24D
100
AcDbEntity
  8
0
  6
CONTINUOUS
 62
     7
100
AcDbVertex
100
AcDb2dVertex
 10
8.2554675033
 20
5.8959789687
 30
0.0
  0
VERTEX
  5
359
330
24D
100
AcDbEntity
  8
0
  6
CONTINUOUS
 62
     7
100
AcDbVertex
100
AcDb2dVertex
 10
8.2369287852
 20
5.9074689045
 30
0.0
  0
VERTEX
  5
35A
330
24D
100
AcDbEntity
  8
0
  6
CONTINUOUS
 62
     7
100
AcDbVertex
100
AcDb2dVertex
 10
8.219332786
 20
5.9205039343
 30
0.0
  0
VERTEX
  5
35B
330
24D
100
AcDbEntity
  8
0
  6
CONTINUOUS
 62
     7
100
AcDbVertex
100
AcDb2dVertex
 10
8.2027199769
 20
5.935054077
 30
0.0
  0
VERTEX
  5
35C
330
24D
100
AcDbEntity
  8
0
  6
CONTINUOUS
 62
     7
100
AcDbVertex
100
AcDb2dVertex
 10
8.1871285681
 20
5.951085867
 30
0.0
  0
VERTEX
  5
35D
330
24D
100
AcDbEntity
  8
0
  6
CONTINUOUS
 62
     7
100
AcDbVertex
100
AcDb2dVertex
 10
8.1725944202
 20
5.9685624305
 30
0.0
  0
VERTEX
  5
35E
330
24D
100
AcDbEntity
  8
0
  6
CONTINUOUS
 62
     7
100
AcDbVertex
100
AcDb2dVertex
 10
8.1591509623
 20
5.987443571
 30
0.0
  0
VERTEX
  5
35F
330
24D
100
AcDbEntity
  8
0
  6
CONTINUOUS
 62
     7
100
AcDbVertex
100
AcDb2dVertex
 10
8.1468291146
 20
6.0076858612
 30
0.0
  0
VERTEX
  5
360
330
24D
100
AcDbEntity
  8
0
  6
CONTINUOUS
 62
     7
100
AcDbVertex
100
AcDb2dVertex
 10
8.135657218
 20
6.0292427431
 30
0.0
  0
VERTEX
  5
361
330
24D
100
AcDbEntity
  8
0
  6
CONTINUOUS
 62
     7
100
AcDbVertex
100
AcDb2dVertex
 10
8.125660968
 20
6.0520646353
 30
0.0
  0
VERTEX
  5
362
330
24D
100
AcDbEntity
  8
0
  6
CONTINUOUS
 62
     7
100
AcDbVertex
100
AcDb2dVertex
 10
8.1168633565
 20
6.0760990467
 30
0.0
  0
VERTEX
  5
363
330
24D
100
AcDbEntity
  8
0
  6
CONTINUOUS
 62
     7
100
AcDbVertex
100
AcDb2dVertex
 10
8.1092846181
 20
6.1012906973
 30
0.0
  0
VERTEX
  5
364
330
24D
100
AcDbEntity
  8
0
  6
CONTINUOUS
 62
     7
100
AcDbVertex
100
AcDb2dVertex
 10
8.1029421842
 20
6.1275816456
 30
0.0
  0
VERTEX
  5
365
330
24D
100
AcDbEntity
  8
0
  6
CONTINUOUS
 62
     7
100
AcDbVertex
100
AcDb2dVertex
 10
8.0978506427
 20
6.1549114216
 30
0.0
  0
VERTEX
  5
366
330
24D
100
AcDbEntity
  8
0
  6
CONTINUOUS
 62
     7
100
AcDbVertex
100
AcDb2dVertex
 10
8.0940217042
 20
6.1832171657
 30
0.0
  0
VERTEX
  5
367
330
24D
100
AcDbEntity
  8
0
  6
CONTINUOUS
 62
     7
100
AcDbVertex
100
AcDb2dVertex
 10
8.0914641754
 20
6.2124337741
 30
0.0
  0
VERTEX
  5
368
330
24D
100
AcDbEntity
  8
0
  6
CONTINUOUS
 62
     7
100
AcDbVertex
100
AcDb2dVertex
 10
8.0901839387
 20
6.2424940475
 30
0.0
  0
VERTEX
  5
369
330
24D
100
AcDbEntity
  8
0
  6
CONTINUOUS
 62
     7
100
AcDbVertex
100
AcDb2dVertex
 10
8.0901839387
 20
6.2733288462
 30
0.0
  0
VERTEX
  5
36A
330
24D
100
AcDbEntity
  8
0
  6
CONTINUOUS
 62
     7
100
AcDbVertex
100
AcDb2dVertex
 10
8.0914641754
 20
6.3048672494
 30
0.0
  0
VERTEX
  5
36B
330
24D
100
AcDbEntity
  8
0
  6
CONTINUOUS
 62
     7
100
AcDbVertex
100
AcDb2dVertex
 10
8.0940217042
 20
6.3370367177
 30
0.0
  0
VERTEX
  5
36C
330
24D
100
AcDbEntity
  8
0
  6
CONTINUOUS
 62
     7
100
AcDbVertex
100
AcDb2dVertex
 10
8.0978506427
 20
6.3697632602
 30
0.0
  0
VERTEX
  5
36D
330
24D
100
AcDbEntity
  8
0
  6
CONTINUOUS
 62
     7
100
AcDbVertex
100
AcDb2dVertex
 10
8.1029421842
 20
6.4029716048
 30
0.0
  0
VERTEX
  5
36E
330
24D
100
AcDbEntity
  8
0
  6
CONTINUOUS
 62
     7
100
AcDbVertex
100
AcDb2dVertex
 10
8.1092846181
 20
6.4365853714
 30
0.0
  0
VERTEX
  5
36F
330
24D
100
AcDbEntity
  8
0
  6
CONTINUOUS
 62
     7
100
AcDbVertex
100
AcDb2dVertex
 10
8.1168633565
 20
6.4705272471
 30
0.0
  0
VERTEX
  5
370
330
24D
100
AcDbEntity
  8
0
  6
CONTINUOUS
 62
     7
100
AcDbVertex
100
AcDb2dVertex
 10
8.125660968
 20
6.5047191646
 30
0.0
  0
VERTEX
  5
371
330
24D
100
AcDbEntity
  8
0
  6
CONTINUOUS
 62
     7
100
AcDbVertex
100
AcDb2dVertex
 10
8.135657218
 20
6.5390824813
 30
0.0
  0
VERTEX
  5
372
330
24D
100
AcDbEntity
  8
0
  6
CONTINUOUS
 62
     7
100
AcDbVertex
100
AcDb2dVertex
 10
8.1468291146
 20
6.5735381606
 30
0.0
  0
VERTEX
  5
373
330
24D
100
AcDbEntity
  8
0
  6
CONTINUOUS
 62
     7
100
AcDbVertex
100
AcDb2dVertex
 10
8.1591509623
 20
6.6080069532
 30
0.0
  0
VERTEX
  5
374
330
24D
100
AcDbEntity
  8
0
  6
CONTINUOUS
 62
     7
100
AcDbVertex
100
AcDb2dVertex
 10
8.1725944202
 20
6.6424095798
 30
0.0
  0
VERTEX
  5
375
330
24D
100
AcDbEntity
  8
0
  6
CONTINUOUS
 62
     7
100
AcDbVertex
100
AcDb2dVertex
 10
8.1871285681
 20
6.6766669133
 30
0.0
  0
VERTEX
  5
376
330
24D
100
AcDbEntity
  8
0
  6
CONTINUOUS
 62
     7
100
AcDbVertex
100
AcDb2dVertex
 10
8.2027199769
 20
6.7107001608
 30
0.0
  0
VERTEX
  5
377
330
24D
100
AcDbEntity
  8
0
  6
CONTINUOUS
 62
     7
100
AcDbVertex
100
AcDb2dVertex
 10
8.219332786
 20
6.7444310446
 30
0.0
  0
VERTEX
  5
378
330
24D
100
AcDbEntity
  8
0
  6
CONTINUOUS
 62
     7
100
AcDbVertex
100
AcDb2dVertex
 10
8.2369287852
 20
6.7777819826
 30
0.0
  0
VERTEX
  5
379
330
24D
100
AcDbEntity
  8
0
  6
CONTINUOUS
 62
     7
100
AcDbVertex
100
AcDb2dVertex
 10
8.2554675033
 20
6.8106762667
 30
0.0
  0
VERTEX
  5
37A
330
24D
100
AcDbEntity
  8
0
  6
CONTINUOUS
 62
     7
100
AcDbVertex
100
AcDb2dVertex
 10
8.2749063006
 20
6.8430382389
 30
0.0
  0
VERTEX
  5
37B
330
24D
100
AcDbEntity
  8
0
  6
CONTINUOUS
 62
     7
100
AcDbVertex
100
AcDb2dVertex
 10
8.2952004672
 20
6.8747934656
 30
0.0
  0
VERTEX
  5
37C
330
24D
100
AcDbEntity
  8
0
  6
CONTINUOUS
 62
     7
100
AcDbVertex
100
AcDb2dVertex
 10
8.316303326
 20
6.9058689088
 30
0.0
  0
VERTEX
  5
37D
330
24D
100
AcDbEntity
  8
0
  6
CONTINUOUS
 62
     7
100
AcDbVertex
100
AcDb2dVertex
 10
8.3381663395
 20
6.936193094
 30
0.0
  0
VERTEX
  5
37E
330
24D
100
AcDbEntity
  8
0
  6
CONTINUOUS
 62
     7
100
AcDbVertex
100
AcDb2dVertex
 10
8.3607392224
 20
6.9656962746
 30
0.0
  0
VERTEX
  5
37F
330
24D
100
AcDbEntity
  8
0
  6
CONTINUOUS
 62
     7
100
AcDbVertex
100
AcDb2dVertex
 10
8.3839700561
 20
6.9943105924
 30
0.0
  0
VERTEX
  5
380
330
24D
100
AcDbEntity
  8
0
  6
CONTINUOUS
 62
     7
100
AcDbVertex
100
AcDb2dVertex
 10
8.407805409
 20
7.0219702334
 30
0.0
  0
VERTEX
  5
381
330
24D
100
AcDbEntity
  8
0
  6
CONTINUOUS
 62
     7
100
AcDbVertex
100
AcDb2dVertex
 10
8.432190459
 20
7.0486115796
 30
0.0
  0
VERTEX
  5
382
330
24D
100
AcDbEntity
  8
0
  6
CONTINUOUS
 62
     7
100
AcDbVertex
100
AcDb2dVertex
 10
8.4570691198
 20
7.0741733551
 30
0.0
  0
VERTEX
  5
383
330
24D
100
AcDbEntity
  8
0
  6
CONTINUOUS
 62
     7
100
AcDbVertex
100
AcDb2dVertex
 10
8.4823841696
 20
7.0985967669
 30
0.0
  0
VERTEX
  5
384
330
24D
100
AcDbEntity
  8
0
  6
CONTINUOUS
 62
     7
100
AcDbVertex
100
AcDb2dVertex
 10
8.5080773829
 20
7.1218256405
 30
0.0
  0
VERTEX
  5
385
330
24D
100
AcDbEntity
  8
0
  6
CONTINUOUS
 62
     7
100
AcDbVertex
100
AcDb2dVertex
 10
8.5340896647
 20
7.1438065487
 30
0.0
  0
VERTEX
  5
386
330
24D
100
AcDbEntity
  8
0
  6
CONTINUOUS
 62
     7
100
AcDbVertex
100
AcDb2dVertex
 10
8.5603611858
 20
7.1644889346
 30
0.0
  0
VERTEX
  5
387
330
24D
100
AcDbEntity
  8
0
  6
CONTINUOUS
 62
     7
100
AcDbVertex
100
AcDb2dVertex
 10
8.5868315208
 20
7.1838252283
 30
0.0
  0
VERTEX
  5
388
330
24D
100
AcDbEntity
  8
0
  6
CONTINUOUS
 62
     7
100
AcDbVertex
100
AcDb2dVertex
 10
8.6134397872
 20
7.2017709554
 30
0.0
  0
VERTEX
  5
389
330
24D
100
AcDbEntity
  8
0
  6
CONTINUOUS
 62
     7
100
AcDbVertex
100
AcDb2dVertex
 10
8.640124785
 20
7.2182848403
 30
0.0
  0
VERTEX
  5
38A
330
24D
100
AcDbEntity
  8
0
  6
CONTINUOUS
 62
     7
100
AcDbVertex
100
AcDb2dVertex
 10
8.666825138
 20
7.2333289006
 30
0.0
  0
VERTEX
  5
38B
330
24D
100
AcDbEntity
  8
0
  6
CONTINUOUS
 62
     7
100
AcDbVertex
100
AcDb2dVertex
 10
8.6934794344
 20
7.2468685344
 30
0.0
  0
VERTEX
  5
38C
330
24D
100
AcDbEntity
  8
0
  6
CONTINUOUS
 62
     7
100
AcDbVertex
100
AcDb2dVertex
 10
8.7200263686
 20
7.2588726001
 30
0.0
  0
VERTEX
  5
38D
330
24D
100
AcDbEntity
  8
0
  6
CONTINUOUS
 62
     7
100
AcDbVertex
100
AcDb2dVertex
 10
8.7464048816
 20
7.269313488
 30
0.0
  0
VERTEX
  5
38E
330
24D
100
AcDbEntity
  8
0
  6
CONTINUOUS
 62
     7
100
AcDbVertex
100
AcDb2dVertex
 10
8.7725543022
 20
7.2781671837
 30
0.0
  0
VERTEX
  5
38F
330
24D
100
AcDbEntity
  8
0
  6
CONTINUOUS
 62
     7
100
AcDbVertex
100
AcDb2dVertex
 10
8.7984144857
 20
7.2854133234
 30
0.0
  0
VERTEX
  5
390
330
24D
100
AcDbEntity
  8
0
  6
CONTINUOUS
 62
     7
100
AcDbVertex
100
AcDb2dVertex
 10
8.823925953
 20
7.2910352408
 30
0.0
  0
VERTEX
  5
391
330
24D
100
AcDbEntity
  8
0
  6
CONTINUOUS
 62
     7
100
AcDbVertex
100
AcDb2dVertex
 10
8.8490300269
 20
7.2950200052
 30
0.0
  0
VERTEX
  5
392
330
24D
100
AcDbEntity
  8
0
  6
CONTINUOUS
 62
     7
100
AcDbVertex
100
AcDb2dVertex
 10
8.8736689671
 20
7.2973584517
 30
0.0
  0
VERTEX
  5
393
330
24D
100
AcDbEntity
  8
0
  6
CONTINUOUS
 62
     7
100
AcDbVertex
100
AcDb2dVertex
 10
8.8977861033
 20
7.2980452016
 30
0.0
  0
VERTEX
  5
394
330
24D
100
AcDbEntity
  8
0
  6
CONTINUOUS
 62
     7
100
AcDbVertex
100
AcDb2dVertex
 10
8.9213259654
 20
7.2970786755
 30
0.0
  0
VERTEX
  5
395
330
24D
100
AcDbEntity
  8
0
  6
CONTINUOUS
 62
     7
100
AcDbVertex
100
AcDb2dVertex
 10
8.9442344109
 20
7.2944610964
 30
0.0
  0
VERTEX
  5
396
330
24D
100
AcDbEntity
  8
0
  6
CONTINUOUS
 62
     7
100
AcDbVertex
100
AcDb2dVertex
 10
8.9664587496
 20
7.2901984848
 30
0.0
  0
VERTEX
  5
397
330
24D
100
AcDbEntity
  8
0
  6
CONTINUOUS
 62
     7
100
AcDbVertex
100
AcDb2dVertex
 10
8.9879478649
 20
7.2843006448
 30
0.0
  0
VERTEX
  5
398
330
24D
100
AcDbEntity
  8
0
  6
CONTINUOUS
 62
     7
100
AcDbVertex
100
AcDb2dVertex
 10
9.008652331
 20
7.2767811417
 30
0.0
  0
VERTEX
  5
399
330
24D
100
AcDbEntity
  8
0
  6
CONTINUOUS
 62
     7
100
AcDbVertex
100
AcDb2dVertex
 10
9.0285245271
 20
7.2676572706
 30
0.0
  0
VERTEX
  5
39A
330
24D
100
AcDbEntity
  8
0
  6
CONTINUOUS
 62
     7
100
AcDbVertex
100
AcDb2dVertex
 10
9.0475187465
 20
7.2569500166
 30
0.0
  0
VERTEX
  5
39B
330
24D
100
AcDbEntity
  8
0
  6
CONTINUOUS
 62
     7
100
AcDbVertex
100
AcDb2dVertex
 10
9.0655913019
 20
7.2446840068
 30
0.0
  0
VERTEX
  5
39C
330
24D
100
AcDbEntity
  8
0
  6
CONTINUOUS
 62
     7
100
AcDbVertex
100
AcDb2dVertex
 10
9.0827006257
 20
7.2308874534
 30
0.0
  0
VERTEX
  5
39D
330
24D
100
AcDbEntity
  8
0
  6
CONTINUOUS
 62
     7
100
AcDbVertex
100
AcDb2dVertex
 10
9.0988073661
 20
7.2155920889
 30
0.0
  0
VERTEX
  5
39E
330
24D
100
AcDbEntity
  8
0
  6
CONTINUOUS
 62
     7
100
AcDbVertex
100
AcDb2dVertex
 10
9.1138744769
 20
7.1988330932
 30
0.0
  0
VERTEX
  5
39F
330
24D
100
AcDbEntity
  8
0
  6
CONTINUOUS
 62
     7
100
AcDbVertex
100
AcDb2dVertex
 10
9.1278673034
 20
7.1806490124
 30
0.0
  0
VERTEX
  5
3A0
330
24D
100
AcDbEntity
  8
0
  6
CONTINUOUS
 62
     7
100
AcDbVertex
100
AcDb2dVertex
 10
9.1407536616
 20
7.1610816706
 30
0.0
  0
VERTEX
  5
3A1
330
24D
100
AcDbEntity
  8
0
  6
CONTINUOUS
 62
     7
100
AcDbVertex
100
AcDb2dVertex
 10
9.1525039125
 20
7.1401760732
 30
0.0
  0
VERTEX
  5
3A2
330
24D
100
AcDbEntity
  8
0
  6
CONTINUOUS
 62
     7
100
AcDbVertex
100
AcDb2dVertex
 10
9.16309103
 20
7.1179803039
 30
0.0
  0
VERTEX
  5
3A3
330
24D
100
AcDbEntity
  8
0
  6
CONTINUOUS
 62
     7
100
AcDbVertex
100
AcDb2dVertex
 10
9.1724906636
 20
7.0945454135
 30
0.0
  0
VERTEX
  5
3A4
330
24D
100
AcDbEntity
  8
0
  6
CONTINUOUS
 62
     7
100
AcDbVertex
100
AcDb2dVertex
 10
9.1806811937
 20
7.0699253031
 30
0.0
  0
VERTEX
  5
3A5
330
24D
100
AcDbEntity
  8
0
  6
CONTINUOUS
 62
     7
100
AcDbVertex
100
AcDb2dVertex
 10
9.1876437819
 20
7.0441765997
 30
0.0
  0
VERTEX
  5
3A6
330
24D
100
AcDbEntity
  8
0
  6
CONTINUOUS
 62
     7
100
AcDbVertex
100
AcDb2dVertex
 10
9.193362414
 20
7.0173585262
 30
0.0
  0
VERTEX
  5
3A7
330
24D
100
AcDbEntity
  8
0
  6
CONTINUOUS
 62
     7
100
AcDbVertex
100
AcDb2dVertex
 10
9.1978239369
 20
6.9895327649
 30
0.0
  0
VERTEX
  5
3A8
330
24D
100
AcDbEntity
  8
0
  6
CONTINUOUS
 62
     7
100
AcDbVertex
100
AcDb2dVertex
 10
9.201018089
 20
6.9607633161
 30
0.0
  0
VERTEX
  5
3A9
330
24D
100
AcDbEntity
  8
0
  6
CONTINUOUS
 62
     7
100
AcDbVertex
100
AcDb2dVertex
 10
9.2029375237
 20
6.9311163504
 30
0.0
  0
VERTEX
  5
3AA
330
24D
100
AcDbEntity
  8
0
  6
CONTINUOUS
 62
     7
100
AcDbVertex
100
AcDb2dVertex
 10
9.2035778262
 20
6.9006600568
 30
0.0
  0
VERTEX
  5
3AB
330
24D
100
AcDbEntity
  8
0
  6
CONTINUOUS
 62
     7
100
AcDbVertex
100
AcDb2dVertex
 10
9.2035778262
 20
6.9006600568
 30
0.0
  0
SEQEND
  5
3AC
330
24D
100
AcDbEntity
  8
0
  6
CONTINUOUS
 62
     7
  0
POLYLINE
  5
24E
330
1F
100
AcDbEntity
  8
0
  6
CONTINUOUS
 62
     7
100
AcDb2dPolyline
 66
     1
 10
0.0
 20
0.0
 30
0.0
  0
VERTEX
  5
3AD
330
24E
100
AcDbEntity
  8
0
  6
CONTINUOUS
 62
     7
100
AcDbVertex
100
AcDb2dVertex
 10
8.2292180883
 20
7.1051951726
 30
0.0
  0
VERTEX
  5
3AE
330
24E
100
AcDbEntity
  8
0
  6
CONTINUOUS
 62
     7
100
AcDbVertex
100
AcDb2dVertex
 10
8.2056487246
 20
7.0770448357
 30
0.0
  0
VERTEX
  5
3AF
330
24E
100
AcDbEntity
  8
0
  6
CONTINUOUS
 62
     7
100
AcDbVertex
100
AcDb2dVertex
 10
8.1827108454
 20
7.0479698469
 30
0.0
  0
VERTEX
  5
3B0
330
24E
100
AcDbEntity
  8
0
  6
CONTINUOUS
 62
     7
100
AcDbVertex
100
AcDb2dVertex
 10
8.1604572922
 20
7.0180371859
 30
0.0
  0
VERTEX
  5
3B1
330
24E
100
AcDbEntity
  8
0
  6
CONTINUOUS
 62
     7
100
AcDbVertex
100
AcDb2dVertex
 10
8.1389393303
 20
6.9873158082
 30
0.0
  0
VERTEX
  5
3B2
330
24E
100
AcDbEntity
  8
0
  6
CONTINUOUS
 62
     7
100
AcDbVertex
100
AcDb2dVertex
 10
8.1182065304
 20
6.9558764861
 30
0.0
  0
VERTEX
  5
3B3
330
24E
100
AcDbEntity
  8
0
  6
CONTINUOUS
 62
     7
100
AcDbVertex
100
AcDb2dVertex
 10
8.0983066543
 20
6.9237916462
 30
0.0
  0
VERTEX
  5
3B4
330
24E
100
AcDbEntity
  8
0
  6
CONTINUOUS
 62
     7
100
AcDbVertex
100
AcDb2dVertex
 10
8.0792855451
 20
6.8911352017
 30
0.0
  0
VERTEX
  5
3B5
330
24E
100
AcDbEntity
  8
0
  6
CONTINUOUS
 62
     7
100
AcDbVertex
100
AcDb2dVertex
 10
8.0611870215
 20
6.8579823829
 30
0.0
  0
VERTEX
  5
3B6
330
24E
100
AcDbEntity
  8
0
  6
CONTINUOUS
 62
     7
100
AcDbVertex
100
AcDb2dVertex
 10
8.0440527769
 20
6.8244095635
 30
0.0
  0
VERTEX
  5
3B7
330
24E
100
AcDbEntity
  8
0
  6
CONTINUOUS
 62
     7
100
AcDbVertex
100
AcDb2dVertex
 10
8.0279222831
 20
6.7904940848
 30
0.0
  0
VERTEX
  5
3B8
330
24E
100
AcDbEntity
  8
0
  6
CONTINUOUS
 62
     7
100
AcDbVertex
100
AcDb2dVertex
 10
8.0128326998
 20
6.7563140775
 30
0.0
  0
VERTEX
  5
3B9
330
24E
100
AcDbEntity
  8
0
  6
CONTINUOUS
 62
     7
100
AcDbVertex
100
AcDb2dVertex
 10
7.9988187886
 20
6.7219482815
 30
0.0
  0
VERTEX
  5
3BA
330
24E
100
AcDbEntity
  8
0
  6
CONTINUOUS
 62
     7
100
AcDbVertex
100
AcDb2dVertex
 10
7.9859128333
 20
6.687475865
 30
0.0
  0
VERTEX
  5
3BB
330
24E
100
AcDbEntity
  8
0
  6
CONTINUOUS
 62
     7
100
AcDbVertex
100
AcDb2dVertex
 10
7.974144565
 20
6.6529762415
 30
0.0
  0
VERTEX
  5
3BC
330
24E
100
AcDbEntity
  8
0
  6
CONTINUOUS
 62
     7
100
AcDbVertex
100
AcDb2dVertex
 10
7.9635410943
 20
6.6185288874
 30
0.0
  0
VERTEX
  5
3BD
330
24E
100
AcDbEntity
  8
0
  6
CONTINUOUS
 62
     7
100
AcDbVertex
100
AcDb2dVertex
 10
7.9541268481
 20
6.5842131586
 30
0.0
  0
VERTEX
  5
3BE
330
24E
100
AcDbEntity
  8
0
  6
CONTINUOUS
 62
     7
100
AcDbVertex
100
AcDb2dVertex
 10
7.945923514
 20
6.5501081079
 30
0.0
  0
VERTEX
  5
3BF
330
24E
100
AcDbEntity
  8
0
  6
CONTINUOUS
 62
     7
100
AcDbVertex
100
AcDb2dVertex
 10
7.9389499899
 20
6.5162923025
 30
0.0
  0
VERTEX
  5
3C0
330
24E
100
AcDbEntity
  8
0
  6
CONTINUOUS
 62
     7
100
AcDbVertex
100
AcDb2dVertex
 10
7.9332223405
 20
6.4828436435
 30
0.0
  0
VERTEX
  5
3C1
330
24E
100
AcDbEntity
  8
0
  6
CONTINUOUS
 62
     7
100
AcDbVertex
100
AcDb2dVertex
 10
7.9287537607
 20
6.4498391862
 30
0.0
  0
VERTEX
  5
3C2
330
24E
100
AcDbEntity
  8
0
  6
CONTINUOUS
 62
     7
100
AcDbVertex
100
AcDb2dVertex
 10
7.9255545445
 20
6.4173549625
 30
0.0
  0
VERTEX
  5
3C3
330
24E
100
AcDbEntity
  8
0
  6
CONTINUOUS
 62
     7
100
AcDbVertex
100
AcDb2dVertex
 10
7.9236320621
 20
6.3854658058
 30
0.0
  0
VERTEX
  5
3C4
330
24E
100
AcDbEntity
  8
0
  6
CONTINUOUS
 62
     7
100
AcDbVertex
100
AcDb2dVertex
 10
7.9229907421
 20
6.3542451788
 30
0.0
  0
VERTEX
  5
3C5
330
24E
100
AcDbEntity
  8
0
  6
CONTINUOUS
 62
     7
100
AcDbVertex
100
AcDb2dVertex
 10
7.9236320621
 20
6.3237650041
 30
0.0
  0
VERTEX
  5
3C6
330
24E
100
AcDbEntity
  8
0
  6
CONTINUOUS
 62
     7
100
AcDbVertex
100
AcDb2dVertex
 10
7.9255545445
 20
6.2940954984
 30
0.0
  0
VERTEX
  5
3C7
330
24E
100
AcDbEntity
  8
0
  6
CONTINUOUS
 62
     7
100
AcDbVertex
100
AcDb2dVertex
 10
7.9287537607
 20
6.265305011
 30
0.0
  0
VERTEX
  5
3C8
330
24E
100
AcDbEntity
  8
0
  6
CONTINUOUS
 62
     7
100
AcDbVertex
100
AcDb2dVertex
 10
7.9332223405
 20
6.2374598662
 30
0.0
  0
VERTEX
  5
3C9
330
24E
100
AcDbEntity
  8
0
  6
CONTINUOUS
 62
     7
100
AcDbVertex
100
AcDb2dVertex
 10
7.9389499899
 20
6.2106242104
 30
0.0
  0
VERTEX
  5
3CA
330
24E
100
AcDbEntity
  8
0
  6
CONTINUOUS
 62
     7
100
AcDbVertex
100
AcDb2dVertex
 10
7.945923514
 20
6.1848598646
 30
0.0
  0
VERTEX
  5
3CB
330
24E
100
AcDbEntity
  8
0
  6
CONTINUOUS
 62
     7
100
AcDbVertex
100
AcDb2dVertex
 10
7.9541268481
 20
6.1602261818
 30
0.0
  0
VERTEX
  5
3CC
330
24E
100
AcDbEntity
  8
0
  6
CONTINUOUS
 62
     7
100
AcDbVertex
100
AcDb2dVertex
 10
7.9635410943
 20
6.1367799103
 30
0.0
  0
VERTEX
  5
3CD
330
24E
100
AcDbEntity
  8
0
  6
CONTINUOUS
 62
     7
100
AcDbVertex
100
AcDb2dVertex
 10
7.974144565
 20
6.1145750629
 30
0.0
  0
VERTEX
  5
3CE
330
24E
100
AcDbEntity
  8
0
  6
CONTINUOUS
 62
     7
100
AcDbVertex
100
AcDb2dVertex
 10
7.9859128333
 20
6.0936627927
 30
0.0
  0
VERTEX
  5
3CF
330
24E
100
AcDbEntity
  8
0
  6
CONTINUOUS
 62
     7
100
AcDbVertex
100
AcDb2dVertex
 10
7.9988187886
 20
6.074091275
 30
0.0
  0
VERTEX
  5
3D0
330
24E
100
AcDbEntity
  8
0
  6
CONTINUOUS
 62
     7
100
AcDbVertex
100
AcDb2dVertex
 10
8.0128326998
 20
6.0559055965
 30
0.0
  0
VERTEX
  5
3D1
330
24E
100
AcDbEntity
  8
0
  6
CONTINUOUS
 62
     7
100
AcDbVertex
100
AcDb2dVertex
 10
8.0279222831
 20
6.0391476512
 30
0.0
  0
VERTEX
  5
3D2
330
24E
100
AcDbEntity
  8
0
  6
CONTINUOUS
 62
     7
100
AcDbVertex
100
AcDb2dVertex
 10
8.0440527769
 20
6.0238560442
 30
0.0
  0
VERTEX
  5
3D3
330
24E
100
AcDbEntity
  8
0
  6
CONTINUOUS
 62
     7
100
AcDbVertex
100
AcDb2dVertex
 10
8.0611870215
 20
6.0100660027
 30
0.0
  0
VERTEX
  5
3D4
330
24E
100
AcDbEntity
  8
0
  6
CONTINUOUS
 62
     7
100
AcDbVertex
100
AcDb2dVertex
 10
8.0792855451
 20
5.9978092944
 30
0.0
  0
VERTEX
  5
3D5
330
24E
100
AcDbEntity
  8
0
  6
CONTINUOUS
 62
     7
100
AcDbVertex
100
AcDb2dVertex
 10
8.0860989428
 20
5.9937374572
 30
0.0
  0
SEQEND
  5
3D6
330
24E
100
AcDbEntity
  8
0
  6
CONTINUOUS
 62
     7
  0
LINE
  5
24F
330
1F
100
AcDbEntity
  8
0
  6
CONTINUOUS
 62
     7
100
AcDbLine
 10
8.0621849904
 20
7.2016213275
 30
0.0
 11
8.2292180883
 21
7.1051951726
 31
0.0
  0
POLYLINE
  5
250
330
1F
100
AcDbEntity
  8
0
  6
CONTINUOUS
 62
     7
100
AcDb2dPolyline
 66
     1
 10
0.0
 20
0.0
 30
0.0
  0
VERTEX
  5
3D7
330
250
100
AcDbEntity
  8
0
  6
CONTINUOUS
 62
     7
100
AcDbVertex
100
AcDb2dVertex
 10
8.5632842841
 20
7.4908997923
 30
0.0
  0
VERTEX
  5
3D8
330
250
100
AcDbEntity
  8
0
  6
CONTINUOUS
 62
     7
100
AcDbVertex
100
AcDb2dVertex
 10
8.5385618546
 20
7.4901447012
 30
0.0
  0
VERTEX
  5
3D9
330
250
100
AcDbEntity
  8
0
  6
CONTINUOUS
 62
     7
100
AcDbVertex
100
AcDb2dVertex
 10
8.5132943719
 20
7.4876565285
 30
0.0
  0
VERTEX
  5
3DA
330
250
100
AcDbEntity
  8
0
  6
CONTINUOUS
 62
     7
100
AcDbVertex
100
AcDb2dVertex
 10
8.4875428212
 20
7.4834412794
 30
0.0
  0
VERTEX
  5
3DB
330
250
100
AcDbEntity
  8
0
  6
CONTINUOUS
 62
     7
100
AcDbVertex
100
AcDb2dVertex
 10
8.461369356
 20
7.477509128
 30
0.0
  0
VERTEX
  5
3DC
330
250
100
AcDbEntity
  8
0
  6
CONTINUOUS
 62
     7
100
AcDbVertex
100
AcDb2dVertex
 10
8.4348371483
 20
7.469874392
 30
0.0
  0
VERTEX
  5
3DD
330
250
100
AcDbEntity
  8
0
  6
CONTINUOUS
 62
     7
100
AcDbVertex
100
AcDb2dVertex
 10
8.4080102358
 20
7.4605554984
 30
0.0
  0
VERTEX
  5
3DE
330
250
100
AcDbEntity
  8
0
  6
CONTINUOUS
 62
     7
100
AcDbVertex
100
AcDb2dVertex
 10
8.3809533676
 20
7.4495749392
 30
0.0
  0
VERTEX
  5
3DF
330
250
100
AcDbEntity
  8
0
  6
CONTINUOUS
 62
     7
100
AcDbVertex
100
AcDb2dVertex
 10
8.3537318476
 20
7.4369592169
 30
0.0
  0
VERTEX
  5
3E0
330
250
100
AcDbEntity
  8
0
  6
CONTINUOUS
 62
     7
100
AcDbVertex
100
AcDb2dVertex
 10
8.3264113774
 20
7.4227387807
 30
0.0
  0
VERTEX
  5
3E1
330
250
100
AcDbEntity
  8
0
  6
CONTINUOUS
 62
     7
100
AcDbVertex
100
AcDb2dVertex
 10
8.2990578972
 20
7.4069479527
 30
0.0
  0
VERTEX
  5
3E2
330
250
100
AcDbEntity
  8
0
  6
CONTINUOUS
 62
     7
100
AcDbVertex
100
AcDb2dVertex
 10
8.2717374269
 20
7.3896248454
 30
0.0
  0
VERTEX
  5
3E3
330
250
100
AcDbEntity
  8
0
  6
CONTINUOUS
 62
     7
100
AcDbVertex
100
AcDb2dVertex
 10
8.244515907
 20
7.3708112697
 30
0.0
  0
VERTEX
  5
3E4
330
250
100
AcDbEntity
  8
0
  6
CONTINUOUS
 62
     7
100
AcDbVertex
100
AcDb2dVertex
 10
8.2174590387
 20
7.3505526338
 30
0.0
  0
VERTEX
  5
3E5
330
250
100
AcDbEntity
  8
0
  6
CONTINUOUS
 62
     7
100
AcDbVertex
100
AcDb2dVertex
 10
8.1906321262
 20
7.3288978335
 30
0.0
  0
VERTEX
  5
3E6
330
250
100
AcDbEntity
  8
0
  6
CONTINUOUS
 62
     7
100
AcDbVertex
100
AcDb2dVertex
 10
8.1640999185
 20
7.3058991346
 30
0.0
  0
VERTEX
  5
3E7
330
250
100
AcDbEntity
  8
0
  6
CONTINUOUS
 62
     7
100
AcDbVertex
100
AcDb2dVertex
 10
8.1379264534
 20
7.2816120464
 30
0.0
  0
VERTEX
  5
3E8
330
250
100
AcDbEntity
  8
0
  6
CONTINUOUS
 62
     7
100
AcDbVertex
100
AcDb2dVertex
 10
8.1121749026
 20
7.2560951878
 30
0.0
  0
VERTEX
  5
3E9
330
250
100
AcDbEntity
  8
0
  6
CONTINUOUS
 62
     7
100
AcDbVertex
100
AcDb2dVertex
 10
8.0869074199
 20
7.229410146
 30
0.0
  0
VERTEX
  5
3EA
330
250
100
AcDbEntity
  8
0
  6
CONTINUOUS
 62
     7
100
AcDbVertex
100
AcDb2dVertex
 10
8.0621849904
 20
7.2016213275
 30
0.0
  0
SEQEND
  5
3EB
330
250
100
AcDbEntity
  8
0
  6
CONTINUOUS
 62
     7
  0
LINE
  5
251
330
1F
100
AcDbEntity
  8
0
  6
CONTINUOUS
 62
     7
100
AcDbLine
 10
8.7163979572
 20
7.4025091503
 30
0.0
 11
8.5632842841
 21
7.4908997923
 31
0.0
  0
ARC
  5
252
330
1F
100
AcDbEntity
  8
0
  6
CONTINUOUS
 62
     7
100
AcDbCircle
 10
8.7186282412
 20
7.1150229806
 30
0.0
 40
0.2874948207571306
100
AcDbArc
 50
60.6556691403
 51
90.4444850233
  0
SPLINE
  5
253
330
1F
100
AcDbEntity
  8
0
  6
CONTINUOUS
 62
     7
100
AcDbSpline
210
0.0
220
0.0
230
1.0
 70
     8
 71
     3
 72
    37
 73
    33
 74
     0
 42
0.00000001
 43
0.00000001
 40
0.0
 40
0.0
 40
0.0
 40
0.0
 40
0.0333019777958363
 40
0.0675762860904128
 40
0.100876413363541
 40
0.1351297492597744
 40
0.1686598137371867
 40
0.2031523141138865
 40
0.2368358553955338
 40
0.2715101746823601
 40
0.3049383963883308
 40
0.3393523714146724
 40
0.3725141892168456
 40
0.4066309755329034
 40
0.4399306129396879
 40
0.4741771925278729
 40
0.5078026526877746
 40
0.5424014010462664
 40
0.5760358501370243
 40
0.6106639894713347
 40
0.643979413384614
 40
0.6782707652271505
 40
0.7114368907035125
 40
0.7455517344628084
 40
0.7789622040711697
 40
0.8133256443280577
 40
0.8470033065523204
 40
0.8816637515379433
 40
0.9152135124432347
 40
0.9497557269203103
 40
0.9829754798451835
 40
1.0
 40
1.0
 40
1.0
 40
1.0
 10
8.382331761397936
 20
7.374859806833557
 30
0.0
 10
8.377952548485204
 20
7.372038963948976
 30
0.0
 10
8.369066261116455
 20
7.366314916958335
 30
0.0
 10
8.359119546235371
 20
7.355812002885358
 30
0.0
 10
8.351922044501054
 20
7.344188988631455
 30
0.0
 10
8.347995304649531
 20
7.33186742847944
 30
0.0
 10
8.347337555577928
 20
7.319096865737472
 30
0.0
 10
8.350023661932573
 20
7.306526145522285
 30
0.0
 10
8.356048938576562
 20
7.294413810339708
 30
0.0
 10
8.365141441204978
 20
7.283440459639688
 30
0.0
 10
8.377176734140852
 20
7.273800159868296
 30
0.0
 10
8.391531532711198
 20
7.265985287055579
 30
0.0
 10
8.408058761477532
 20
7.260032540984885
 30
0.0
 10
8.425995459594741
 20
7.256149572969693
 30
0.0
 10
8.44521387096874
 20
7.254291718854372
 30
0.0
 10
8.464909538982257
 20
7.254459327907367
 30
0.0
 10
8.484877915161682
 20
7.256570833905054
 30
0.0
 10
8.504209502193001
 20
7.260453339520562
 30
0.0
 10
8.52264320271675
 20
7.265973173221635
 30
0.0
 10
8.53926207159302
 20
7.272788367313972
 30
0.0
 10
8.553898890011151
 20
7.280771751419933
 30
0.0
 10
8.565874332027407
 20
7.289518028793308
 30
0.0
 10
8.575128061180788
 20
7.298982504097038
 30
0.0
 10
8.581275323626123
 20
7.308805102306967
 30
0.0
 10
8.584254960022767
 20
7.318991183357619
 30
0.0
 10
8.58390846375496
 20
7.329203806576941
 30
0.0
 10
8.580201748120688
 20
7.339429554927022
 30
0.0
 10
8.573265532972417
 20
7.349276334045099
 30
0.0
 10
8.563216170204281
 20
7.358721750331359
 30
0.0
 10
8.550455777286041
 20
7.36726202123775
 30
0.0
 10
8.538071837490948
 20
7.373835700945061
 30
0.0
 10
8.52954893327837
 20
7.376950167531346
 30
0.0
 10
8.526661074709603
 20
7.378005457934008
 30
0.0
  0
SPLINE
  5
254
330
1F
100
AcDbEntity
  8
0
  6
CONTINUOUS
 62
     7
100
AcDbSpline
210
0.0
220
0.0
230
1.0
 70
     8
 71
     3
 72
    15
 73
    11
 74
     0
 42
0.00000001
 43
0.00000001
 40
0.0
 40
0.0
 40
0.0
 40
0.0
 40
0.0170211331905635
 40
0.147076617991074
 40
0.2808338606883281
 40
0.4121430138895064
 40
0.5472199741889214
 40
0.6791525175353985
 40
0.8149641749924044
 40
0.9999999999999999
 40
0.9999999999999999
 40
0.9999999999999999
 40
0.9999999999999999
 10
8.520242004080407
 20
7.380456034846815
 30
0.0
 10
8.519519856157848
 20
7.380736035686961
 30
0.0
 10
8.513279902980223
 20
7.383155473696307
 30
0.0
 10
8.499890459273471
 20
7.386494830876566
 30
0.0
 10
8.480719465073525
 20
7.390087053269876
 30
0.0
 10
8.46074020819593
 20
7.391773321781861
 30
0.0
 10
8.441013521054355
 20
7.391535503913375
 30
0.0
 10
8.421805257262083
 20
7.389156018781678
 30
0.0
 10
8.401388893199012
 20
7.384275954949945
 30
0.0
 10
8.389302246592854
 20
7.378303930625298
 30
0.0
 10
8.382331761397936
 20
7.374859806833557
 30
0.0
  0
POLYLINE
  5
255
330
1F
100
AcDbEntity
  8
0
  6
CONTINUOUS
 62
     7
100
AcDb2dPolyline
 66
     1
 10
0.0
 20
0.0
 30
0.0
  0
VERTEX
  5
3EC
330
255
100
AcDbEntity
  8
0
  6
CONTINUOUS
 62
     7
100
AcDbVertex
100
AcDb2dVertex
 10
8.8416727807
 20
6.6756656953
 30
0.0
  0
VERTEX
  5
3ED
330
255
100
AcDbEntity
  8
0
  6
CONTINUOUS
 62
     7
100
AcDbVertex
100
AcDb2dVertex
 10
8.8410381547
 20
6.6578142378
 30
0.0
  0
VERTEX
  5
3EE
330
255
100
AcDbEntity
  8
0
  6
CONTINUOUS
 62
     7
100
AcDbVertex
100
AcDb2dVertex
 10
8.8391387283
 20
6.6393552719
 30
0.0
  0
VERTEX
  5
3EF
330
255
100
AcDbEntity
  8
0
  6
CONTINUOUS
 62
     7
100
AcDbVertex
100
AcDb2dVertex
 10
8.8359878244
 20
6.6204182739
 30
0.0
  0
VERTEX
  5
3F0
330
255
100
AcDbEntity
  8
0
  6
CONTINUOUS
 62
     7
100
AcDbVertex
100
AcDb2dVertex
 10
8.8316075445
 20
6.6011360734
 30
0.0
  0
VERTEX
  5
3F1
330
255
100
AcDbEntity
  8
0
  6
CONTINUOUS
 62
     7
100
AcDbVertex
100
AcDb2dVertex
 10
8.8260286131
 20
6.5816439211
 30
0.0
  0
VERTEX
  5
3F2
330
255
100
AcDbEntity
  8
0
  6
CONTINUOUS
 62
     7
100
AcDbVertex
100
AcDb2dVertex
 10
8.8192901624
 20
6.5620785405
 30
0.0
  0
VERTEX
  5
3F3
330
255
100
AcDbEntity
  8
0
  6
CONTINUOUS
 62
     7
100
AcDbVertex
100
AcDb2dVertex
 10
8.8114394577
 20
6.5425771686
 30
0.0
  0
VERTEX
  5
3F4
330
255
100
AcDbEntity
  8
0
  6
CONTINUOUS
 62
     7
100
AcDbVertex
100
AcDb2dVertex
 10
8.8025315661
 20
6.5232765935
 30
0.0
  0
VERTEX
  5
3F5
330
255
100
AcDbEntity
  8
0
  6
CONTINUOUS
 62
     7
100
AcDbVertex
100
AcDb2dVertex
 10
8.7926289701
 20
6.5043121949
 30
0.0
  0
VERTEX
  5
3F6
330
255
100
AcDbEntity
  8
0
  6
CONTINUOUS
 62
     7
100
AcDbVertex
100
AcDb2dVertex
 10
8.7818011292
 20
6.4858169945
 30
0.0
  0
VERTEX
  5
3F7
330
255
100
AcDbEntity
  8
0
  6
CONTINUOUS
 62
     7
100
AcDbVertex
100
AcDb2dVertex
 10
8.770123993
 20
6.4679207228
 30
0.0
  0
VERTEX
  5
3F8
330
255
100
AcDbEntity
  8
0
  6
CONTINUOUS
 62
     7
100
AcDbVertex
100
AcDb2dVertex
 10
8.7576794682
 20
6.4507489092
 30
0.0
  0
VERTEX
  5
3F9
330
255
100
AcDbEntity
  8
0
  6
CONTINUOUS
 62
     7
100
AcDbVertex
100
AcDb2dVertex
 10
8.7445548443
 20
6.4344220018
 30
0.0
  0
VERTEX
  5
3FA
330
255
100
AcDbEntity
  8
0
  6
CONTINUOUS
 62
     7
100
AcDbVertex
100
AcDb2dVertex
 10
8.7308421809
 20
6.419054522
 30
0.0
  0
VERTEX
  5
3FB
330
255
100
AcDbEntity
  8
0
  6
CONTINUOUS
 62
     7
100
AcDbVertex
100
AcDb2dVertex
 10
8.7166376626
 20
6.4047542616
 30
0.0
  0
VERTEX
  5
3FC
330
255
100
AcDbEntity
  8
0
  6
CONTINUOUS
 62
     7
100
AcDbVertex
100
AcDb2dVertex
 10
8.7020409239
 20
6.3916215268
 30
0.0
  0
VERTEX
  5
3FD
330
255
100
AcDbEntity
  8
0
  6
CONTINUOUS
 62
     7
100
AcDbVertex
100
AcDb2dVertex
 10
8.6871543505
 20
6.3797484341
 30
0.0
  0
VERTEX
  5
3FE
330
255
100
AcDbEntity
  8
0
  6
CONTINUOUS
 62
     7
100
AcDbVertex
100
AcDb2dVertex
 10
8.6720823608
 20
6.3692182649
 30
0.0
  0
VERTEX
  5
3FF
330
255
100
AcDbEntity
  8
0
  6
CONTINUOUS
 62
     7
100
AcDbVertex
100
AcDb2dVertex
 10
8.6569306742
 20
6.3601048807
 30
0.0
  0
VERTEX
  5
400
330
255
100
AcDbEntity
  8
0
  6
CONTINUOUS
 62
     7
100
AcDbVertex
100
AcDb2dVertex
 10
8.6418055688
 20
6.3524722054
 30
0.0
  0
VERTEX
  5
401
330
255
100
AcDbEntity
  8
0
  6
CONTINUOUS
 62
     7
100
AcDbVertex
100
AcDb2dVertex
 10
8.6268131363
 20
6.3463737766
 30
0.0
  0
VERTEX
  5
402
330
255
100
AcDbEntity
  8
0
  6
CONTINUOUS
 62
     7
100
AcDbVertex
100
AcDb2dVertex
 10
8.612058538
 20
6.3418523704
 30
0.0
  0
VERTEX
  5
403
330
255
100
AcDbEntity
  8
0
  6
CONTINUOUS
 62
     7
100
AcDbVertex
100
AcDb2dVertex
 10
8.5976452666
 20
6.3389397014
 30
0.0
  0
VERTEX
  5
404
330
255
100
AcDbEntity
  8
0
  6
CONTINUOUS
 62
     7
100
AcDbVertex
100
AcDb2dVertex
 10
8.583674421
 20
6.3376561997
 30
0.0
  0
VERTEX
  5
405
330
255
100
AcDbEntity
  8
0
  6
CONTINUOUS
 62
     7
100
AcDbVertex
100
AcDb2dVertex
 10
8.5702439966
 20
6.3380108683
 30
0.0
  0
VERTEX
  5
406
330
255
100
AcDbEntity
  8
0
  6
CONTINUOUS
 62
     7
100
AcDbVertex
100
AcDb2dVertex
 10
8.5574481981
 20
6.3400012193
 30
0.0
  0
VERTEX
  5
407
330
255
100
AcDbEntity
  8
0
  6
CONTINUOUS
 62
     7
100
AcDbVertex
100
AcDb2dVertex
 10
8.5453767789
 20
6.3436132918
 30
0.0
  0
VERTEX
  5
408
330
255
100
AcDbEntity
  8
0
  6
CONTINUOUS
 62
     7
100
AcDbVertex
100
AcDb2dVertex
 10
8.5341144114
 20
6.3488217499
 30
0.0
  0
VERTEX
  5
409
330
255
100
AcDbEntity
  8
0
  6
CONTINUOUS
 62
     7
100
AcDbVertex
100
AcDb2dVertex
 10
8.5237400929
 20
6.3555900599
 30
0.0
  0
VERTEX
  5
40A
330
255
100
AcDbEntity
  8
0
  6
CONTINUOUS
 62
     7
100
AcDbVertex
100
AcDb2dVertex
 10
8.5143265919
 20
6.3638707469
 30
0.0
  0
VERTEX
  5
40B
330
255
100
AcDbEntity
  8
0
  6
CONTINUOUS
 62
     7
100
AcDbVertex
100
AcDb2dVertex
 10
8.5059399372
 20
6.3736057279
 30
0.0
  0
VERTEX
  5
40C
330
255
100
AcDbEntity
  8
0
  6
CONTINUOUS
 62
     7
100
AcDbVertex
100
AcDb2dVertex
 10
8.4986389553
 20
6.384726719
 30
0.0
  0
VERTEX
  5
40D
330
255
100
AcDbEntity
  8
0
  6
CONTINUOUS
 62
     7
100
AcDbVertex
100
AcDb2dVertex
 10
8.4924748572
 20
6.3971557145
 30
0.0
  0
VERTEX
  5
40E
330
255
100
AcDbEntity
  8
0
  6
CONTINUOUS
 62
     7
100
AcDbVertex
100
AcDb2dVertex
 10
8.4874908798
 20
6.4108055338
 30
0.0
  0
VERTEX
  5
40F
330
255
100
AcDbEntity
  8
0
  6
CONTINUOUS
 62
     7
100
AcDbVertex
100
AcDb2dVertex
 10
8.483721982
 20
6.4255804333
 30
0.0
  0
VERTEX
  5
410
330
255
100
AcDbEntity
  8
0
  6
CONTINUOUS
 62
     7
100
AcDbVertex
100
AcDb2dVertex
 10
8.4811945999
 20
6.4413767777
 30
0.0
  0
VERTEX
  5
411
330
255
100
AcDbEntity
  8
0
  6
CONTINUOUS
 62
     7
100
AcDbVertex
100
AcDb2dVertex
 10
8.4799264613
 20
6.4580837669
 30
0.0
  0
VERTEX
  5
412
330
255
100
AcDbEntity
  8
0
  6
CONTINUOUS
 62
     7
100
AcDbVertex
100
AcDb2dVertex
 10
8.4799264613
 20
6.4755842135
 30
0.0
  0
VERTEX
  5
413
330
255
100
AcDbEntity
  8
0
  6
CONTINUOUS
 62
     7
100
AcDbVertex
100
AcDb2dVertex
 10
8.4811945999
 20
6.4937553644
 30
0.0
  0
VERTEX
  5
414
330
255
100
AcDbEntity
  8
0
  6
CONTINUOUS
 62
     7
100
AcDbVertex
100
AcDb2dVertex
 10
8.483721982
 20
6.512469762
 30
0.0
  0
VERTEX
  5
415
330
255
100
AcDbEntity
  8
0
  6
CONTINUOUS
 62
     7
100
AcDbVertex
100
AcDb2dVertex
 10
8.4874908798
 20
6.5315961383
 30
0.0
  0
VERTEX
  5
416
330
255
100
AcDbEntity
  8
0
  6
CONTINUOUS
 62
     7
100
AcDbVertex
100
AcDb2dVertex
 10
8.4924748572
 20
6.5510003355
 30
0.0
  0
VERTEX
  5
417
330
255
100
AcDbEntity
  8
0
  6
CONTINUOUS
 62
     7
100
AcDbVertex
100
AcDb2dVertex
 10
8.4986389553
 20
6.5705462471
 30
0.0
  0
VERTEX
  5
418
330
255
100
AcDbEntity
  8
0
  6
CONTINUOUS
 62
     7
100
AcDbVertex
100
AcDb2dVertex
 10
8.5059399372
 20
6.5900967725
 30
0.0
  0
VERTEX
  5
419
330
255
100
AcDbEntity
  8
0
  6
CONTINUOUS
 62
     7
100
AcDbVertex
100
AcDb2dVertex
 10
8.5143265919
 20
6.6095147789
 30
0.0
  0
VERTEX
  5
41A
330
255
100
AcDbEntity
  8
0
  6
CONTINUOUS
 62
     7
100
AcDbVertex
100
AcDb2dVertex
 10
8.5237400929
 20
6.6286640629
 30
0.0
  0
VERTEX
  5
41B
330
255
100
AcDbEntity
  8
0
  6
CONTINUOUS
 62
     7
100
AcDbVertex
100
AcDb2dVertex
 10
8.5341144114
 20
6.647410306
 30
0.0
  0
VERTEX
  5
41C
330
255
100
AcDbEntity
  8
0
  6
CONTINUOUS
 62
     7
100
AcDbVertex
100
AcDb2dVertex
 10
8.5453767789
 20
6.6656220168
 30
0.0
  0
VERTEX
  5
41D
330
255
100
AcDbEntity
  8
0
  6
CONTINUOUS
 62
     7
100
AcDbVertex
100
AcDb2dVertex
 10
8.5574481981
 20
6.6831714533
 30
0.0
  0
VERTEX
  5
41E
330
255
100
AcDbEntity
  8
0
  6
CONTINUOUS
 62
     7
100
AcDbVertex
100
AcDb2dVertex
 10
8.5702439966
 20
6.6999355187
 30
0.0
  0
VERTEX
  5
41F
330
255
100
AcDbEntity
  8
0
  6
CONTINUOUS
 62
     7
100
AcDbVertex
100
AcDb2dVertex
 10
8.583674421
 20
6.7157966253
 30
0.0
  0
VERTEX
  5
420
330
255
100
AcDbEntity
  8
0
  6
CONTINUOUS
 62
     7
100
AcDbVertex
100
AcDb2dVertex
 10
8.5976452666
 20
6.7306435186
 30
0.0
  0
VERTEX
  5
421
330
255
100
AcDbEntity
  8
0
  6
CONTINUOUS
 62
     7
100
AcDbVertex
100
AcDb2dVertex
 10
8.612058538
 20
6.7443720585
 30
0.0
  0
VERTEX
  5
422
330
255
100
AcDbEntity
  8
0
  6
CONTINUOUS
 62
     7
100
AcDbVertex
100
AcDb2dVertex
 10
8.6268131363
 20
6.756885949
 30
0.0
  0
VERTEX
  5
423
330
255
100
AcDbEntity
  8
0
  6
CONTINUOUS
 62
     7
100
AcDbVertex
100
AcDb2dVertex
 10
8.6418055688
 20
6.7680974143
 30
0.0
  0
VERTEX
  5
424
330
255
100
AcDbEntity
  8
0
  6
CONTINUOUS
 62
     7
100
AcDbVertex
100
AcDb2dVertex
 10
8.6569306742
 20
6.7779278139
 30
0.0
  0
VERTEX
  5
425
330
255
100
AcDbEntity
  8
0
  6
CONTINUOUS
 62
     7
100
AcDbVertex
100
AcDb2dVertex
 10
8.6720823608
 20
6.7863081947
 30
0.0
  0
VERTEX
  5
426
330
255
100
AcDbEntity
  8
0
  6
CONTINUOUS
 62
     7
100
AcDbVertex
100
AcDb2dVertex
 10
8.6871543505
 20
6.7931797743
 30
0.0
  0
VERTEX
  5
427
330
255
100
AcDbEntity
  8
0
  6
CONTINUOUS
 62
     7
100
AcDbVertex
100
AcDb2dVertex
 10
8.7020409239
 20
6.7984943536
 30
0.0
  0
VERTEX
  5
428
330
255
100
AcDbEntity
  8
0
  6
CONTINUOUS
 62
     7
100
AcDbVertex
100
AcDb2dVertex
 10
8.7166376626
 20
6.8022146545
 30
0.0
  0
VERTEX
  5
429
330
255
100
AcDbEntity
  8
0
  6
CONTINUOUS
 62
     7
100
AcDbVertex
100
AcDb2dVertex
 10
8.7308421809
 20
6.8043145819
 30
0.0
  0
VERTEX
  5
42A
330
255
100
AcDbEntity
  8
0
  6
CONTINUOUS
 62
     7
100
AcDbVertex
100
AcDb2dVertex
 10
8.7445548443
 20
6.8047794062
 30
0.0
  0
VERTEX
  5
42B
330
255
100
AcDbEntity
  8
0
  6
CONTINUOUS
 62
     7
100
AcDbVertex
100
AcDb2dVertex
 10
8.7576794682
 20
6.803605867
 30
0.0
  0
VERTEX
  5
42C
330
255
100
AcDbEntity
  8
0
  6
CONTINUOUS
 62
     7
100
AcDbVertex
100
AcDb2dVertex
 10
8.770123993
 20
6.8008021959
 30
0.0
  0
VERTEX
  5
42D
330
255
100
AcDbEntity
  8
0
  6
CONTINUOUS
 62
     7
100
AcDbVertex
100
AcDb2dVertex
 10
8.7818011292
 20
6.7963880586
 30
0.0
  0
VERTEX
  5
42E
330
255
100
AcDbEntity
  8
0
  6
CONTINUOUS
 62
     7
100
AcDbVertex
100
AcDb2dVertex
 10
8.7926289701
 20
6.7903944172
 30
0.0
  0
VERTEX
  5
42F
330
255
100
AcDbEntity
  8
0
  6
CONTINUOUS
 62
     7
100
AcDbVertex
100
AcDb2dVertex
 10
8.8025315661
 20
6.7828633126
 30
0.0
  0
VERTEX
  5
430
330
255
100
AcDbEntity
  8
0
  6
CONTINUOUS
 62
     7
100
AcDbVertex
100
AcDb2dVertex
 10
8.8114394577
 20
6.7738475703
 30
0.0
  0
VERTEX
  5
431
330
255
100
AcDbEntity
  8
0
  6
CONTINUOUS
 62
     7
100
AcDbVertex
100
AcDb2dVertex
 10
8.8192901624
 20
6.7634104291
 30
0.0
  0
VERTEX
  5
432
330
255
100
AcDbEntity
  8
0
  6
CONTINUOUS
 62
     7
100
AcDbVertex
100
AcDb2dVertex
 10
8.8260286131
 20
6.7516250981
 30
0.0
  0
VERTEX
  5
433
330
255
100
AcDbEntity
  8
0
  6
CONTINUOUS
 62
     7
100
AcDbVertex
100
AcDb2dVertex
 10
8.8316075445
 20
6.7385742429
 30
0.0
  0
VERTEX
  5
434
330
255
100
AcDbEntity
  8
0
  6
CONTINUOUS
 62
     7
100
AcDbVertex
100
AcDb2dVertex
 10
8.8359878244
 20
6.7243494059
 30
0.0
  0
VERTEX
  5
435
330
255
100
AcDbEntity
  8
0
  6
CONTINUOUS
 62
     7
100
AcDbVertex
100
AcDb2dVertex
 10
8.8391387283
 20
6.7090503641
 30
0.0
  0
VERTEX
  5
436
330
255
100
AcDbEntity
  8
0
  6
CONTINUOUS
 62
     7
100
AcDbVertex
100
AcDb2dVertex
 10
8.8410381547
 20
6.6927844293
 30
0.0
  0
VERTEX
  5
437
330
255
100
AcDbEntity
  8
0
  6
CONTINUOUS
 62
     7
100
AcDbVertex
100
AcDb2dVertex
 10
8.8416727807
 20
6.6756656953
 30
0.0
  0
SEQEND
  5
438
330
255
100
AcDbEntity
  8
0
  6
CONTINUOUS
 62
     7
  0
ARC
  5
256
330
1F
100
AcDbEntity
  8
0
  6
CONTINUOUS
 62
     7
100
AcDbCircle
 10
9.1084881288
 20
6.3136155221
 30
0.0
 40
1.186852569300955
100
AcDbArc
 50
138.8134796746
 51
177.2617097142
  0
SPLINE
  5
257
330
1F
100
AcDbEntity
  8
0
  6
CONTINUOUS
 62
     7
100
AcDbSpline
210
0.0
220
0.0
230
1.0
 70
     8
 71
     3
 72
     8
 73
     4
 74
     0
 42
0.00000001
 43
0.00000001
 40
0.0
 40
0.0
 40
0.0
 40
0.0
 40
0.0007520222441055
 40
0.0007520222441055
 40
0.0007520222441055
 40
0.0007520222441055
 10
8.215298663479851
 20
7.095172685873411
 30
0.0
 10
8.219929751832728
 20
7.09852749653501
 30
0.0
 10
8.224569815444715
 20
7.101867944896904
 30
0.0
 10
8.229218088306357
 20
7.105195172570375
 30
0.0
  0
LINE
  5
258
330
1F
100
AcDbEntity
  8
0
  6
CONTINUOUS
 62
     7
100
AcDbLine
 10
8.0621849904
 20
7.2016213275
 30
0.0
 11
8.049796475
 21
7.1927011507
 31
0.0
  0
ARC
  5
259
330
1F
100
AcDbEntity
  8
0
  6
CONTINUOUS
 62
     7
100
AcDbCircle
 10
8.7985383362
 20
6.5724287994
 30
0.0
 40
0.9727456978338888
100
AcDbArc
 50
120.9182823394
 51
140.3655248154
  0
POLYLINE
  5
25A
330
1F
100
AcDbEntity
  8
0
  6
CONTINUOUS
 62
     7
100
AcDb2dPolyline
 66
     1
 10
0.0
 20
0.0
 30
0.0
  0
VERTEX
  5
439
330
25A
100
AcDbEntity
  8
0
  6
CONTINUOUS
 62
     7
100
AcDbVertex
100
AcDb2dVertex
 10
8.813833931
 20
6.6756656953
 30
0.0
  0
VERTEX
  5
43A
330
25A
100
AcDbEntity
  8
0
  6
CONTINUOUS
 62
     7
100
AcDbVertex
100
AcDb2dVertex
 10
8.8131983197
 20
6.692109683
 30
0.0
  0
VERTEX
  5
43B
330
25A
100
AcDbEntity
  8
0
  6
CONTINUOUS
 62
     7
100
AcDbVertex
100
AcDb2dVertex
 10
8.8112963229
 20
6.7076946607
 30
0.0
  0
VERTEX
  5
43C
330
25A
100
AcDbEntity
  8
0
  6
CONTINUOUS
 62
     7
100
AcDbVertex
100
AcDb2dVertex
 10
8.8081424162
 20
6.7223020175
 30
0.0
  0
VERTEX
  5
43D
330
25A
100
AcDbEntity
  8
0
  6
CONTINUOUS
 62
     7
100
AcDbVertex
100
AcDb2dVertex
 10
8.8037606026
 20
6.7358205824
 30
0.0
  0
VERTEX
  5
43E
330
25A
100
AcDbEntity
  8
0
  6
CONTINUOUS
 62
     7
100
AcDbVertex
100
AcDb2dVertex
 10
8.7981842304
 20
6.748147471
 30
0.0
  0
VERTEX
  5
43F
330
25A
100
AcDbEntity
  8
0
  6
CONTINUOUS
 62
     7
100
AcDbVertex
100
AcDb2dVertex
 10
8.7914557392
 20
6.7591888683
 30
0.0
  0
VERTEX
  5
440
330
25A
100
AcDbEntity
  8
0
  6
CONTINUOUS
 62
     7
100
AcDbVertex
100
AcDb2dVertex
 10
8.7836263367
 20
6.7688607425
 30
0.0
  0
VERTEX
  5
441
330
25A
100
AcDbEntity
  8
0
  6
CONTINUOUS
 62
     7
100
AcDbVertex
100
AcDb2dVertex
 10
8.7747556096
 20
6.7770894849
 30
0.0
  0
VERTEX
  5
442
330
25A
100
AcDbEntity
  8
0
  6
CONTINUOUS
 62
     7
100
AcDbVertex
100
AcDb2dVertex
 10
8.7649110693
 20
6.7838124698
 30
0.0
  0
VERTEX
  5
443
330
25A
100
AcDbEntity
  8
0
  6
CONTINUOUS
 62
     7
100
AcDbVertex
100
AcDb2dVertex
 10
8.7541676389
 20
6.7889785311
 30
0.0
  0
VERTEX
  5
444
330
25A
100
AcDbEntity
  8
0
  6
CONTINUOUS
 62
     7
100
AcDbVertex
100
AcDb2dVertex
 10
8.7426070822
 20
6.7925483521
 30
0.0
  0
VERTEX
  5
445
330
25A
100
AcDbEntity
  8
0
  6
CONTINUOUS
 62
     7
100
AcDbVertex
100
AcDb2dVertex
 10
8.7303173821
 20
6.7944947642
 30
0.0
  0
VERTEX
  5
446
330
25A
100
AcDbEntity
  8
0
  6
CONTINUOUS
 62
     7
100
AcDbVertex
100
AcDb2dVertex
 10
8.7173920706
 20
6.7948029541
 30
0.0
  0
VERTEX
  5
447
330
25A
100
AcDbEntity
  8
0
  6
CONTINUOUS
 62
     7
100
AcDbVertex
100
AcDb2dVertex
 10
8.7039295172
 20
6.7934705762
 30
0.0
  0
VERTEX
  5
448
330
25A
100
AcDbEntity
  8
0
  6
CONTINUOUS
 62
     7
100
AcDbVertex
100
AcDb2dVertex
 10
8.69003218
 20
6.7905077708
 30
0.0
  0
VERTEX
  5
449
330
25A
100
AcDbEntity
  8
0
  6
CONTINUOUS
 62
     7
100
AcDbVertex
100
AcDb2dVertex
 10
8.6758058262
 20
6.7859370866
 30
0.0
  0
VERTEX
  5
44A
330
25A
100
AcDbEntity
  8
0
  6
CONTINUOUS
 62
     7
100
AcDbVertex
100
AcDb2dVertex
 10
8.6613587268
 20
6.7797933093
 30
0.0
  0
VERTEX
  5
44B
330
25A
100
AcDbEntity
  8
0
  6
CONTINUOUS
 62
     7
100
AcDbVertex
100
AcDb2dVertex
 10
8.6535930063
 20
6.7758846993
 30
0.0
  0
SEQEND
  5
44C
330
25A
100
AcDbEntity
  8
0
  6
CONTINUOUS
 62
     7
  0
POLYLINE
  5
25B
330
1F
100
AcDbEntity
  8
0
  6
CONTINUOUS
 62
     7
100
AcDb2dPolyline
 66
     1
 10
0.0
 20
0.0
 30
0.0
  0
VERTEX
  5
44D
330
25B
100
AcDbEntity
  8
0
  6
CONTINUOUS
 62
     7
100
AcDbVertex
100
AcDb2dVertex
 10
8.4799069957
 20
6.4750191049
 30
0.0
  0
VERTEX
  5
44E
330
25B
100
AcDbEntity
  8
0
  6
CONTINUOUS
 62
     7
100
AcDbVertex
100
AcDb2dVertex
 10
8.4804033465
 20
6.4663693977
 30
0.0
  0
VERTEX
  5
44F
330
25B
100
AcDbEntity
  8
0
  6
CONTINUOUS
 62
     7
100
AcDbVertex
100
AcDb2dVertex
 10
8.4823053433
 20
6.4507844199
 30
0.0
  0
VERTEX
  5
450
330
25B
100
AcDbEntity
  8
0
  6
CONTINUOUS
 62
     7
100
AcDbVertex
100
AcDb2dVertex
 10
8.48545925
 20
6.4361770632
 30
0.0
  0
VERTEX
  5
451
330
25B
100
AcDbEntity
  8
0
  6
CONTINUOUS
 62
     7
100
AcDbVertex
100
AcDb2dVertex
 10
8.4898410636
 20
6.4226584983
 30
0.0
  0
VERTEX
  5
452
330
25B
100
AcDbEntity
  8
0
  6
CONTINUOUS
 62
     7
100
AcDbVertex
100
AcDb2dVertex
 10
8.4954174358
 20
6.4103316097
 30
0.0
  0
VERTEX
  5
453
330
25B
100
AcDbEntity
  8
0
  6
CONTINUOUS
 62
     7
100
AcDbVertex
100
AcDb2dVertex
 10
8.502145927
 20
6.3992902124
 30
0.0
  0
VERTEX
  5
454
330
25B
100
AcDbEntity
  8
0
  6
CONTINUOUS
 62
     7
100
AcDbVertex
100
AcDb2dVertex
 10
8.5099753295
 20
6.3896183382
 30
0.0
  0
VERTEX
  5
455
330
25B
100
AcDbEntity
  8
0
  6
CONTINUOUS
 62
     7
100
AcDbVertex
100
AcDb2dVertex
 10
8.5188460566
 20
6.3813895958
 30
0.0
  0
VERTEX
  5
456
330
25B
100
AcDbEntity
  8
0
  6
CONTINUOUS
 62
     7
100
AcDbVertex
100
AcDb2dVertex
 10
8.5286905969
 20
6.3746666109
 30
0.0
  0
VERTEX
  5
457
330
25B
100
AcDbEntity
  8
0
  6
CONTINUOUS
 62
     7
100
AcDbVertex
100
AcDb2dVertex
 10
8.5394340274
 20
6.3695005496
 30
0.0
  0
VERTEX
  5
458
330
25B
100
AcDbEntity
  8
0
  6
CONTINUOUS
 62
     7
100
AcDbVertex
100
AcDb2dVertex
 10
8.550994584
 20
6.3659307286
 30
0.0
  0
VERTEX
  5
459
330
25B
100
AcDbEntity
  8
0
  6
CONTINUOUS
 62
     7
100
AcDbVertex
100
AcDb2dVertex
 10
8.5632842841
 20
6.3639843165
 30
0.0
  0
VERTEX
  5
45A
330
25B
100
AcDbEntity
  8
0
  6
CONTINUOUS
 62
     7
100
AcDbVertex
100
AcDb2dVertex
 10
8.5762095956
 20
6.3636761266
 30
0.0
  0
VERTEX
  5
45B
330
25B
100
AcDbEntity
  8
0
  6
CONTINUOUS
 62
     7
100
AcDbVertex
100
AcDb2dVertex
 10
8.589672149
 20
6.3650085045
 30
0.0
  0
VERTEX
  5
45C
330
25B
100
AcDbEntity
  8
0
  6
CONTINUOUS
 62
     7
100
AcDbVertex
100
AcDb2dVertex
 10
8.6035694862
 20
6.3679713099
 30
0.0
  0
VERTEX
  5
45D
330
25B
100
AcDbEntity
  8
0
  6
CONTINUOUS
 62
     7
100
AcDbVertex
100
AcDb2dVertex
 10
8.61779584
 20
6.3725419941
 30
0.0
  0
VERTEX
  5
45E
330
25B
100
AcDbEntity
  8
0
  6
CONTINUOUS
 62
     7
100
AcDbVertex
100
AcDb2dVertex
 10
8.6322429394
 20
6.3786857714
 30
0.0
  0
VERTEX
  5
45F
330
25B
100
AcDbEntity
  8
0
  6
CONTINUOUS
 62
     7
100
AcDbVertex
100
AcDb2dVertex
 10
8.6468008331
 20
6.386355884
 30
0.0
  0
VERTEX
  5
460
330
25B
100
AcDbEntity
  8
0
  6
CONTINUOUS
 62
     7
100
AcDbVertex
100
AcDb2dVertex
 10
8.6613587268
 20
6.3954939577
 30
0.0
  0
VERTEX
  5
461
330
25B
100
AcDbEntity
  8
0
  6
CONTINUOUS
 62
     7
100
AcDbVertex
100
AcDb2dVertex
 10
8.6758058262
 20
6.4060304462
 30
0.0
  0
VERTEX
  5
462
330
25B
100
AcDbEntity
  8
0
  6
CONTINUOUS
 62
     7
100
AcDbVertex
100
AcDb2dVertex
 10
8.69003218
 20
6.4178851605
 30
0.0
  0
VERTEX
  5
463
330
25B
100
AcDbEntity
  8
0
  6
CONTINUOUS
 62
     7
100
AcDbVertex
100
AcDb2dVertex
 10
8.7039295172
 20
6.4309678791
 30
0.0
  0
VERTEX
  5
464
330
25B
100
AcDbEntity
  8
0
  6
CONTINUOUS
 62
     7
100
AcDbVertex
100
AcDb2dVertex
 10
8.7173920706
 20
6.4451790346
 30
0.0
  0
VERTEX
  5
465
330
25B
100
AcDbEntity
  8
0
  6
CONTINUOUS
 62
     7
100
AcDbVertex
100
AcDb2dVertex
 10
8.7303173821
 20
6.4604104714
 30
0.0
  0
VERTEX
  5
466
330
25B
100
AcDbEntity
  8
0
  6
CONTINUOUS
 62
     7
100
AcDbVertex
100
AcDb2dVertex
 10
8.7426070822
 20
6.4765462693
 30
0.0
  0
VERTEX
  5
467
330
25B
100
AcDbEntity
  8
0
  6
CONTINUOUS
 62
     7
100
AcDbVertex
100
AcDb2dVertex
 10
8.7541676389
 20
6.4934636249
 30
0.0
  0
VERTEX
  5
468
330
25B
100
AcDbEntity
  8
0
  6
CONTINUOUS
 62
     7
100
AcDbVertex
100
AcDb2dVertex
 10
8.7649110693
 20
6.511033787
 30
0.0
  0
VERTEX
  5
469
330
25B
100
AcDbEntity
  8
0
  6
CONTINUOUS
 62
     7
100
AcDbVertex
100
AcDb2dVertex
 10
8.7747556096
 20
6.5291230361
 30
0.0
  0
VERTEX
  5
46A
330
25B
100
AcDbEntity
  8
0
  6
CONTINUOUS
 62
     7
100
AcDbVertex
100
AcDb2dVertex
 10
8.7836263367
 20
6.547593702
 30
0.0
  0
VERTEX
  5
46B
330
25B
100
AcDbEntity
  8
0
  6
CONTINUOUS
 62
     7
100
AcDbVertex
100
AcDb2dVertex
 10
8.7914557392
 20
6.5663052119
 30
0.0
  0
VERTEX
  5
46C
330
25B
100
AcDbEntity
  8
0
  6
CONTINUOUS
 62
     7
100
AcDbVertex
100
AcDb2dVertex
 10
8.7981842304
 20
6.5851151599
 30
0.0
  0
VERTEX
  5
46D
330
25B
100
AcDbEntity
  8
0
  6
CONTINUOUS
 62
     7
100
AcDbVertex
100
AcDb2dVertex
 10
8.8037606026
 20
6.6038803908
 30
0.0
  0
VERTEX
  5
46E
330
25B
100
AcDbEntity
  8
0
  6
CONTINUOUS
 62
     7
100
AcDbVertex
100
AcDb2dVertex
 10
8.8081424162
 20
6.62245809
 30
0.0
  0
VERTEX
  5
46F
330
25B
100
AcDbEntity
  8
0
  6
CONTINUOUS
 62
     7
100
AcDbVertex
100
AcDb2dVertex
 10
8.8112963229
 20
6.6407068699
 30
0.0
  0
VERTEX
  5
470
330
25B
100
AcDbEntity
  8
0
  6
CONTINUOUS
 62
     7
100
AcDbVertex
100
AcDb2dVertex
 10
8.8131983197
 20
6.6584878463
 30
0.0
  0
VERTEX
  5
471
330
25B
100
AcDbEntity
  8
0
  6
CONTINUOUS
 62
     7
100
AcDbVertex
100
AcDb2dVertex
 10
8.813833931
 20
6.6756656953
 30
0.0
  0
SEQEND
  5
472
330
25B
100
AcDbEntity
  8
0
  6
CONTINUOUS
 62
     7
  0
POLYLINE
  5
25C
330
1F
100
AcDbEntity
  8
0
  6
CONTINUOUS
 62
     7
100
AcDb2dPolyline
 66
     1
 10
0.0
 20
0.0
 30
0.0
  0
VERTEX
  5
473
330
25C
100
AcDbEntity
  8
0
  6
CONTINUOUS
 62
     7
100
AcDbVertex
100
AcDb2dVertex
 10
7.247898638
 20
6.743967555
 30
0.0
  0
VERTEX
  5
474
330
25C
100
AcDbEntity
  8
0
  6
CONTINUOUS
 62
     7
100
AcDbVertex
100
AcDb2dVertex
 10
7.2485535924
 20
6.7551286272
 30
0.0
  0
VERTEX
  5
475
330
25C
100
AcDbEntity
  8
0
  6
CONTINUOUS
 62
     7
100
AcDbVertex
100
AcDb2dVertex
 10
7.250507249
 20
6.765342536
 30
0.0
  0
VERTEX
  5
476
330
25C
100
AcDbEntity
  8
0
  6
CONTINUOUS
 62
     7
100
AcDbVertex
100
AcDb2dVertex
 10
7.2537261802
 20
6.7744345189
 30
0.0
  0
VERTEX
  5
477
330
25C
100
AcDbEntity
  8
0
  6
CONTINUOUS
 62
     7
100
AcDbVertex
100
AcDb2dVertex
 10
7.2581553093
 20
6.7822490093
 30
0.0
  0
VERTEX
  5
478
330
25C
100
AcDbEntity
  8
0
  6
CONTINUOUS
 62
     7
100
AcDbVertex
100
AcDb2dVertex
 10
7.2637188526
 20
6.7886522993
 30
0.0
  0
VERTEX
  5
479
330
25C
100
AcDbEntity
  8
0
  6
CONTINUOUS
 62
     7
100
AcDbVertex
100
AcDb2dVertex
 10
7.2703216163
 20
6.7935348267
 30
0.0
  0
VERTEX
  5
47A
330
25C
100
AcDbEntity
  8
0
  6
CONTINUOUS
 62
     7
100
AcDbVertex
100
AcDb2dVertex
 10
7.2778506254
 20
6.7968130501
 30
0.0
  0
VERTEX
  5
47B
330
25C
100
AcDbEntity
  8
0
  6
CONTINUOUS
 62
     7
100
AcDbVertex
100
AcDb2dVertex
 10
7.2861770563
 20
6.7984308783
 30
0.0
  0
VERTEX
  5
47C
330
25C
100
AcDbEntity
  8
0
  6
CONTINUOUS
 62
     7
100
AcDbVertex
100
AcDb2dVertex
 10
7.2951584416
 20
6.7983606297
 30
0.0
  0
VERTEX
  5
47D
330
25C
100
AcDbEntity
  8
0
  6
CONTINUOUS
 62
     7
100
AcDbVertex
100
AcDb2dVertex
 10
7.3046411073
 20
6.7966035063
 30
0.0
  0
VERTEX
  5
47E
330
25C
100
AcDbEntity
  8
0
  6
CONTINUOUS
 62
     7
100
AcDbVertex
100
AcDb2dVertex
 10
7.3144628022
 20
6.793189573
 30
0.0
  0
VERTEX
  5
47F
330
25C
100
AcDbEntity
  8
0
  6
CONTINUOUS
 62
     7
100
AcDbVertex
100
AcDb2dVertex
 10
7.3244554746
 20
6.7881772432
 30
0.0
  0
VERTEX
  5
480
330
25C
100
AcDbEntity
  8
0
  6
CONTINUOUS
 62
     7
100
AcDbVertex
100
AcDb2dVertex
 10
7.3344481469
 20
6.7816522791
 30
0.0
  0
VERTEX
  5
481
330
25C
100
AcDbEntity
  8
0
  6
CONTINUOUS
 62
     7
100
AcDbVertex
100
AcDb2dVertex
 10
7.3442698419
 20
6.7737263248
 30
0.0
  0
VERTEX
  5
482
330
25C
100
AcDbEntity
  8
0
  6
CONTINUOUS
 62
     7
100
AcDbVertex
100
AcDb2dVertex
 10
7.3537525076
 20
6.7645349954
 30
0.0
  0
VERTEX
  5
483
330
25C
100
AcDbEntity
  8
0
  6
CONTINUOUS
 62
     7
100
AcDbVertex
100
AcDb2dVertex
 10
7.3627338929
 20
6.7542355573
 30
0.0
  0
VERTEX
  5
484
330
25C
100
AcDbEntity
  8
0
  6
CONTINUOUS
 62
     7
100
AcDbVertex
100
AcDb2dVertex
 10
7.3710603238
 20
6.7430042366
 30
0.0
  0
VERTEX
  5
485
330
25C
100
AcDbEntity
  8
0
  6
CONTINUOUS
 62
     7
100
AcDbVertex
100
AcDb2dVertex
 10
7.3785893329
 20
6.7310332043
 30
0.0
  0
VERTEX
  5
486
330
25C
100
AcDbEntity
  8
0
  6
CONTINUOUS
 62
     7
100
AcDbVertex
100
AcDb2dVertex
 10
7.3851920966
 20
6.7185272882
 30
0.0
  0
VERTEX
  5
487
330
25C
100
AcDbEntity
  8
0
  6
CONTINUOUS
 62
     7
100
AcDbVertex
100
AcDb2dVertex
 10
7.3907556399
 20
6.7057004679
 30
0.0
  0
VERTEX
  5
488
330
25C
100
AcDbEntity
  8
0
  6
CONTINUOUS
 62
     7
100
AcDbVertex
100
AcDb2dVertex
 10
7.3951847689
 20
6.6927722138
 30
0.0
  0
VERTEX
  5
489
330
25C
100
AcDbEntity
  8
0
  6
CONTINUOUS
 62
     7
100
AcDbVertex
100
AcDb2dVertex
 10
7.3984037002
 20
6.6799637321
 30
0.0
  0
VERTEX
  5
48A
330
25C
100
AcDbEntity
  8
0
  6
CONTINUOUS
 62
     7
100
AcDbVertex
100
AcDb2dVertex
 10
7.4003573568
 20
6.6674941793
 30
0.0
  0
VERTEX
  5
48B
330
25C
100
AcDbEntity
  8
0
  6
CONTINUOUS
 62
     7
100
AcDbVertex
100
AcDb2dVertex
 10
7.4010123111
 20
6.655576913
 30
0.0
  0
VERTEX
  5
48C
330
25C
100
AcDbEntity
  8
0
  6
CONTINUOUS
 62
     7
100
AcDbVertex
100
AcDb2dVertex
 10
7.4003573568
 20
6.6444158409
 30
0.0
  0
VERTEX
  5
48D
330
25C
100
AcDbEntity
  8
0
  6
CONTINUOUS
 62
     7
100
AcDbVertex
100
AcDb2dVertex
 10
7.3984037002
 20
6.634201932
 30
0.0
  0
VERTEX
  5
48E
330
25C
100
AcDbEntity
  8
0
  6
CONTINUOUS
 62
     7
100
AcDbVertex
100
AcDb2dVertex
 10
7.3951847689
 20
6.6251099492
 30
0.0
  0
VERTEX
  5
48F
330
25C
100
AcDbEntity
  8
0
  6
CONTINUOUS
 62
     7
100
AcDbVertex
100
AcDb2dVertex
 10
7.3907556399
 20
6.6172954587
 30
0.0
  0
VERTEX
  5
490
330
25C
100
AcDbEntity
  8
0
  6
CONTINUOUS
 62
     7
100
AcDbVertex
100
AcDb2dVertex
 10
7.3851920966
 20
6.6108921688
 30
0.0
  0
VERTEX
  5
491
330
25C
100
AcDbEntity
  8
0
  6
CONTINUOUS
 62
     7
100
AcDbVertex
100
AcDb2dVertex
 10
7.3785893329
 20
6.6060096414
 30
0.0
  0
VERTEX
  5
492
330
25C
100
AcDbEntity
  8
0
  6
CONTINUOUS
 62
     7
100
AcDbVertex
100
AcDb2dVertex
 10
7.3710603238
 20
6.6027314179
 30
0.0
  0
VERTEX
  5
493
330
25C
100
AcDbEntity
  8
0
  6
CONTINUOUS
 62
     7
100
AcDbVertex
100
AcDb2dVertex
 10
7.3627338929
 20
6.6011135898
 30
0.0
  0
VERTEX
  5
494
330
25C
100
AcDbEntity
  8
0
  6
CONTINUOUS
 62
     7
100
AcDbVertex
100
AcDb2dVertex
 10
7.3537525076
 20
6.6011838383
 30
0.0
  0
VERTEX
  5
495
330
25C
100
AcDbEntity
  8
0
  6
CONTINUOUS
 62
     7
100
AcDbVertex
100
AcDb2dVertex
 10
7.3442698419
 20
6.6029409617
 30
0.0
  0
VERTEX
  5
496
330
25C
100
AcDbEntity
  8
0
  6
CONTINUOUS
 62
     7
100
AcDbVertex
100
AcDb2dVertex
 10
7.3344481469
 20
6.606354895
 30
0.0
  0
VERTEX
  5
497
330
25C
100
AcDbEntity
  8
0
  6
CONTINUOUS
 62
     7
100
AcDbVertex
100
AcDb2dVertex
 10
7.3244554746
 20
6.6113672249
 30
0.0
  0
VERTEX
  5
498
330
25C
100
AcDbEntity
  8
0
  6
CONTINUOUS
 62
     7
100
AcDbVertex
100
AcDb2dVertex
 10
7.3144628022
 20
6.6178921889
 30
0.0
  0
VERTEX
  5
499
330
25C
100
AcDbEntity
  8
0
  6
CONTINUOUS
 62
     7
100
AcDbVertex
100
AcDb2dVertex
 10
7.3046411073
 20
6.6258181433
 30
0.0
  0
VERTEX
  5
49A
330
25C
100
AcDbEntity
  8
0
  6
CONTINUOUS
 62
     7
100
AcDbVertex
100
AcDb2dVertex
 10
7.2951584416
 20
6.6350094726
 30
0.0
  0
VERTEX
  5
49B
330
25C
100
AcDbEntity
  8
0
  6
CONTINUOUS
 62
     7
100
AcDbVertex
100
AcDb2dVertex
 10
7.2861770563
 20
6.6453089108
 30
0.0
  0
VERTEX
  5
49C
330
25C
100
AcDbEntity
  8
0
  6
CONTINUOUS
 62
     7
100
AcDbVertex
100
AcDb2dVertex
 10
7.2778506254
 20
6.6565402315
 30
0.0
  0
VERTEX
  5
49D
330
25C
100
AcDbEntity
  8
0
  6
CONTINUOUS
 62
     7
100
AcDbVertex
100
AcDb2dVertex
 10
7.2703216163
 20
6.6685112637
 30
0.0
  0
VERTEX
  5
49E
330
25C
100
AcDbEntity
  8
0
  6
CONTINUOUS
 62
     7
100
AcDbVertex
100
AcDb2dVertex
 10
7.2637188526
 20
6.6810171799
 30
0.0
  0
VERTEX
  5
49F
330
25C
100
AcDbEntity
  8
0
  6
CONTINUOUS
 62
     7
100
AcDbVertex
100
AcDb2dVertex
 10
7.2581553093
 20
6.6938440002
 30
0.0
  0
VERTEX
  5
4A0
330
25C
100
AcDbEntity
  8
0
  6
CONTINUOUS
 62
     7
100
AcDbVertex
100
AcDb2dVertex
 10
7.2537261802
 20
6.7067722542
 30
0.0
  0
VERTEX
  5
4A1
330
25C
100
AcDbEntity
  8
0
  6
CONTINUOUS
 62
     7
100
AcDbVertex
100
AcDb2dVertex
 10
7.250507249
 20
6.7195807359
 30
0.0
  0
VERTEX
  5
4A2
330
25C
100
AcDbEntity
  8
0
  6
CONTINUOUS
 62
     7
100
AcDbVertex
100
AcDb2dVertex
 10
7.2485535924
 20
6.7320502887
 30
0.0
  0
VERTEX
  5
4A3
330
25C
100
AcDbEntity
  8
0
  6
CONTINUOUS
 62
     7
100
AcDbVertex
100
AcDb2dVertex
 10
7.247898638
 20
6.743967555
 30
0.0
  0
SEQEND
  5
4A4
330
25C
100
AcDbEntity
  8
0
  6
CONTINUOUS
 62
     7
  0
ARC
  5
25D
330
1F
100
AcDbEntity
  8
0
  6
CONTINUOUS
 62
     7
100
AcDbCircle
 10
7.3088042347
 20
6.7570197577
 30
0.0
 40
0.0611118554824867
100
AcDbArc
 50
126.6034547114
 51
184.708725682
  0
ARC
  5
25E
330
1F
100
AcDbEntity
  8
0
  6
CONTINUOUS
 62
     7
100
AcDbCircle
 10
7.3659184133
 20
6.6547123329
 30
0.0
 40
0.058600612648843
100
AcDbArc
 50
233.9126653593
 51
294.764401182
  0
LINE
  5
25F
330
1F
100
AcDbEntity
  8
0
  6
CONTINUOUS
 62
     7
100
AcDbLine
 10
7.2826972001
 20
6.7517191305
 30
0.0
 11
7.3244554746
 21
6.7554529495
 31
0.0
  0
LINE
  5
260
330
1F
100
AcDbEntity
  8
0
  6
CONTINUOUS
 62
     7
100
AcDbLine
 10
7.2826972001
 20
6.696038415
 30
0.0
 11
7.2826972001
 21
6.7517191305
 31
0.0
  0
LINE
  5
261
330
1F
100
AcDbEntity
  8
0
  6
CONTINUOUS
 62
     7
100
AcDbLine
 10
7.3244554746
 20
6.6440915186
 30
0.0
 11
7.2826972001
 21
6.696038415
 31
0.0
  0
LINE
  5
262
330
1F
100
AcDbEntity
  8
0
  6
CONTINUOUS
 62
     7
100
AcDbLine
 10
7.3662137491
 20
6.6478253376
 30
0.0
 11
7.3244554746
 21
6.6440915186
 31
0.0
  0
LINE
  5
263
330
1F
100
AcDbEntity
  8
0
  6
CONTINUOUS
 62
     7
100
AcDbLine
 10
7.3662137491
 20
6.703506053
 30
0.0
 11
7.3662137491
 21
6.6478253376
 31
0.0
  0
LINE
  5
264
330
1F
100
AcDbEntity
  8
0
  6
CONTINUOUS
 62
     7
100
AcDbLine
 10
7.3244554746
 20
6.7554529495
 30
0.0
 11
7.3662137491
 21
6.703506053
 31
0.0
  0
LINE
  5
265
330
1F
100
AcDbEntity
  8
0
  6
CONTINUOUS
 62
     7
100
AcDbLine
 10
7.3662137491
 20
6.6681980573
 30
0.0
 11
7.3244554746
 21
6.6440915186
 31
0.0
  0
LINE
  5
266
330
1F
100
AcDbEntity
  8
0
  6
CONTINUOUS
 62
     7
100
AcDbLine
 10
7.343841857
 20
6.7313364741
 30
0.0
 11
7.2826972001
 21
6.696038415
 31
0.0
  0
POLYLINE
  5
267
330
1F
100
AcDbEntity
  8
0
  6
CONTINUOUS
 62
     7
100
AcDb2dPolyline
 66
     1
 10
0.0
 20
0.0
 30
0.0
  0
VERTEX
  5
4A5
330
267
100
AcDbEntity
  8
0
  6
CONTINUOUS
 62
     7
100
AcDbVertex
100
AcDb2dVertex
 10
7.3700952893
 20
7.0315160486
 30
0.0
  0
VERTEX
  5
4A6
330
267
100
AcDbEntity
  8
0
  6
CONTINUOUS
 62
     7
100
AcDbVertex
100
AcDb2dVertex
 10
7.3826901089
 20
7.0660039144
 30
0.0
  0
VERTEX
  5
4A7
330
267
100
AcDbEntity
  8
0
  6
CONTINUOUS
 62
     7
100
AcDbVertex
100
AcDb2dVertex
 10
7.3964013481
 20
7.1004070607
 30
0.0
  0
VERTEX
  5
4A8
330
267
100
AcDbEntity
  8
0
  6
CONTINUOUS
 62
     7
100
AcDbVertex
100
AcDb2dVertex
 10
7.4111974204
 20
7.1346462332
 30
0.0
  0
VERTEX
  5
4A9
330
267
100
AcDbEntity
  8
0
  6
CONTINUOUS
 62
     7
100
AcDbVertex
100
AcDb2dVertex
 10
7.4270442403
 20
7.1686425558
 30
0.0
  0
VERTEX
  5
4AA
330
267
100
AcDbEntity
  8
0
  6
CONTINUOUS
 62
     7
100
AcDbVertex
100
AcDb2dVertex
 10
7.4439053018
 20
7.2023177115
 30
0.0
  0
VERTEX
  5
4AB
330
267
100
AcDbEntity
  8
0
  6
CONTINUOUS
 62
     7
100
AcDbVertex
100
AcDb2dVertex
 10
7.4617417621
 20
7.2355941233
 30
0.0
  0
VERTEX
  5
4AC
330
267
100
AcDbEntity
  8
0
  6
CONTINUOUS
 62
     7
100
AcDbVertex
100
AcDb2dVertex
 10
7.4805125317
 20
7.2683951328
 30
0.0
  0
VERTEX
  5
4AD
330
267
100
AcDbEntity
  8
0
  6
CONTINUOUS
 62
     7
100
AcDbVertex
100
AcDb2dVertex
 10
7.5001743685
 20
7.3006451766
 30
0.0
  0
VERTEX
  5
4AE
330
267
100
AcDbEntity
  8
0
  6
CONTINUOUS
 62
     7
100
AcDbVertex
100
AcDb2dVertex
 10
7.520681978
 20
7.3322699609
 30
0.0
  0
VERTEX
  5
4AF
330
267
100
AcDbEntity
  8
0
  6
CONTINUOUS
 62
     7
100
AcDbVertex
100
AcDb2dVertex
 10
7.5419881169
 20
7.3631966319
 30
0.0
  0
VERTEX
  5
4B0
330
267
100
AcDbEntity
  8
0
  6
CONTINUOUS
 62
     7
100
AcDbVertex
100
AcDb2dVertex
 10
7.5640437026
 20
7.3933539444
 30
0.0
  0
VERTEX
  5
4B1
330
267
100
AcDbEntity
  8
0
  6
CONTINUOUS
 62
     7
100
AcDbVertex
100
AcDb2dVertex
 10
7.586797926
 20
7.4226724253
 30
0.0
  0
VERTEX
  5
4B2
330
267
100
AcDbEntity
  8
0
  6
CONTINUOUS
 62
     7
100
AcDbVertex
100
AcDb2dVertex
 10
7.6101983683
 20
7.451084534
 30
0.0
  0
VERTEX
  5
4B3
330
267
100
AcDbEntity
  8
0
  6
CONTINUOUS
 62
     7
100
AcDbVertex
100
AcDb2dVertex
 10
7.6341911224
 20
7.4785248179
 30
0.0
  0
VERTEX
  5
4B4
330
267
100
AcDbEntity
  8
0
  6
CONTINUOUS
 62
     7
100
AcDbVertex
100
AcDb2dVertex
 10
7.6587209164
 20
7.5049300632
 30
0.0
  0
VERTEX
  5
4B5
330
267
100
AcDbEntity
  8
0
  6
CONTINUOUS
 62
     7
100
AcDbVertex
100
AcDb2dVertex
 10
7.6837312413
 20
7.5302394404
 30
0.0
  0
VERTEX
  5
4B6
330
267
100
AcDbEntity
  8
0
  6
CONTINUOUS
 62
     7
100
AcDbVertex
100
AcDb2dVertex
 10
7.7091644813
 20
7.5543946448
 30
0.0
  0
VERTEX
  5
4B7
330
267
100
AcDbEntity
  8
0
  6
CONTINUOUS
 62
     7
100
AcDbVertex
100
AcDb2dVertex
 10
7.734962046
 20
7.5773400302
 30
0.0
  0
VERTEX
  5
4B8
330
267
100
AcDbEntity
  8
0
  6
CONTINUOUS
 62
     7
100
AcDbVertex
100
AcDb2dVertex
 10
7.761064506
 20
7.5990227377
 30
0.0
  0
VERTEX
  5
4B9
330
267
100
AcDbEntity
  8
0
  6
CONTINUOUS
 62
     7
100
AcDbVertex
100
AcDb2dVertex
 10
7.7874117294
 20
7.6193928171
 30
0.0
  0
VERTEX
  5
4BA
330
267
100
AcDbEntity
  8
0
  6
CONTINUOUS
 62
     7
100
AcDbVertex
100
AcDb2dVertex
 10
7.8139430204
 20
7.638403342
 30
0.0
  0
VERTEX
  5
4BB
330
267
100
AcDbEntity
  8
0
  6
CONTINUOUS
 62
     7
100
AcDbVertex
100
AcDb2dVertex
 10
7.8405972592
 20
7.6560105184
 30
0.0
  0
VERTEX
  5
4BC
330
267
100
AcDbEntity
  8
0
  6
CONTINUOUS
 62
     7
100
AcDbVertex
100
AcDb2dVertex
 10
7.8673130428
 20
7.6721737846
 30
0.0
  0
VERTEX
  5
4BD
330
267
100
AcDbEntity
  8
0
  6
CONTINUOUS
 62
     7
100
AcDbVertex
100
AcDb2dVertex
 10
7.8940288264
 20
7.6868559056
 30
0.0
  0
VERTEX
  5
4BE
330
267
100
AcDbEntity
  8
0
  6
CONTINUOUS
 62
     7
100
AcDbVertex
100
AcDb2dVertex
 10
7.9206830652
 20
7.7000230583
 30
0.0
  0
VERTEX
  5
4BF
330
267
100
AcDbEntity
  8
0
  6
CONTINUOUS
 62
     7
100
AcDbVertex
100
AcDb2dVertex
 10
7.9472143562
 20
7.7116449099
 30
0.0
  0
VERTEX
  5
4C0
330
267
100
AcDbEntity
  8
0
  6
CONTINUOUS
 62
     7
100
AcDbVertex
100
AcDb2dVertex
 10
7.9735615796
 20
7.7216946871
 30
0.0
  0
VERTEX
  5
4C1
330
267
100
AcDbEntity
  8
0
  6
CONTINUOUS
 62
     7
100
AcDbVertex
100
AcDb2dVertex
 10
7.9996640396
 20
7.7301492384
 30
0.0
  0
VERTEX
  5
4C2
330
267
100
AcDbEntity
  8
0
  6
CONTINUOUS
 62
     7
100
AcDbVertex
100
AcDb2dVertex
 10
8.0254616043
 20
7.7369890873
 30
0.0
  0
VERTEX
  5
4C3
330
267
100
AcDbEntity
  8
0
  6
CONTINUOUS
 62
     7
100
AcDbVertex
100
AcDb2dVertex
 10
8.0508948443
 20
7.7421984768
 30
0.0
  0
VERTEX
  5
4C4
330
267
100
AcDbEntity
  8
0
  6
CONTINUOUS
 62
     7
100
AcDbVertex
100
AcDb2dVertex
 10
8.0759051693
 20
7.745765406
 30
0.0
  0
VERTEX
  5
4C5
330
267
100
AcDbEntity
  8
0
  6
CONTINUOUS
 62
     7
100
AcDbVertex
100
AcDb2dVertex
 10
8.1004349633
 20
7.747681658
 30
0.0
  0
VERTEX
  5
4C6
330
267
100
AcDbEntity
  8
0
  6
CONTINUOUS
 62
     7
100
AcDbVertex
100
AcDb2dVertex
 10
8.1244277173
 20
7.7479428183
 30
0.0
  0
VERTEX
  5
4C7
330
267
100
AcDbEntity
  8
0
  6
CONTINUOUS
 62
     7
100
AcDbVertex
100
AcDb2dVertex
 10
8.1478281597
 20
7.7465482853
 30
0.0
  0
VERTEX
  5
4C8
330
267
100
AcDbEntity
  8
0
  6
CONTINUOUS
 62
     7
100
AcDbVertex
100
AcDb2dVertex
 10
8.170582383
 20
7.7435012715
 30
0.0
  0
VERTEX
  5
4C9
330
267
100
AcDbEntity
  8
0
  6
CONTINUOUS
 62
     7
100
AcDbVertex
100
AcDb2dVertex
 10
8.1926379687
 20
7.7388087962
 30
0.0
  0
VERTEX
  5
4CA
330
267
100
AcDbEntity
  8
0
  6
CONTINUOUS
 62
     7
100
AcDbVertex
100
AcDb2dVertex
 10
8.2139441076
 20
7.7324816695
 30
0.0
  0
VERTEX
  5
4CB
330
267
100
AcDbEntity
  8
0
  6
CONTINUOUS
 62
     7
100
AcDbVertex
100
AcDb2dVertex
 10
8.2344517171
 20
7.7245344672
 30
0.0
  0
VERTEX
  5
4CC
330
267
100
AcDbEntity
  8
0
  6
CONTINUOUS
 62
     7
100
AcDbVertex
100
AcDb2dVertex
 10
8.254113554
 20
7.714985497
 30
0.0
  0
VERTEX
  5
4CD
330
267
100
AcDbEntity
  8
0
  6
CONTINUOUS
 62
     7
100
AcDbVertex
100
AcDb2dVertex
 10
8.2728843236
 20
7.7038567568
 30
0.0
  0
VERTEX
  5
4CE
330
267
100
AcDbEntity
  8
0
  6
CONTINUOUS
 62
     7
100
AcDbVertex
100
AcDb2dVertex
 10
8.2746551801
 20
7.7026947195
 30
0.0
  0
SEQEND
  5
4CF
330
267
100
AcDbEntity
  8
0
  6
CONTINUOUS
 62
     7
  0
LINE
  5
268
330
1F
100
AcDbEntity
  8
0
  6
CONTINUOUS
 62
     7
100
AcDbLine
 10
7.3700952893
 20
7.0315160486
 30
0.0
 11
7.551047812
 21
6.9270543807
 31
0.0
  0
POLYLINE
  5
269
330
1F
100
AcDbEntity
  8
0
  6
CONTINUOUS
 62
     7
100
AcDb2dPolyline
 66
     1
 10
0.0
 20
0.0
 30
0.0
  0
VERTEX
  5
4D0
330
269
100
AcDbEntity
  8
0
  6
CONTINUOUS
 62
     7
100
AcDbVertex
100
AcDb2dVertex
 10
7.551047812
 20
6.9270543807
 30
0.0
  0
VERTEX
  5
4D1
330
269
100
AcDbEntity
  8
0
  6
CONTINUOUS
 62
     7
100
AcDbVertex
100
AcDb2dVertex
 10
7.5393424988
 20
6.8917484981
 30
0.0
  0
VERTEX
  5
4D2
330
269
100
AcDbEntity
  8
0
  6
CONTINUOUS
 62
     7
100
AcDbVertex
100
AcDb2dVertex
 10
7.5288655147
 20
6.8565223075
 30
0.0
  0
VERTEX
  5
4D3
330
269
100
AcDbEntity
  8
0
  6
CONTINUOUS
 62
     7
100
AcDbVertex
100
AcDb2dVertex
 10
7.5196421468
 20
6.8214608303
 30
0.0
  0
VERTEX
  5
4D4
330
269
100
AcDbEntity
  8
0
  6
CONTINUOUS
 62
     7
100
AcDbVertex
100
AcDb2dVertex
 10
7.5116946566
 20
6.7866486903
 30
0.0
  0
VERTEX
  5
4D5
330
269
100
AcDbEntity
  8
0
  6
CONTINUOUS
 62
     7
100
AcDbVertex
100
AcDb2dVertex
 10
7.5050422259
 20
6.7521699096
 30
0.0
  0
VERTEX
  5
4D6
330
269
100
AcDbEntity
  8
0
  6
CONTINUOUS
 62
     7
100
AcDbVertex
100
AcDb2dVertex
 10
7.4997009109
 20
6.7181077058
 30
0.0
  0
VERTEX
  5
4D7
330
269
100
AcDbEntity
  8
0
  6
CONTINUOUS
 62
     7
100
AcDbVertex
100
AcDb2dVertex
 10
7.4956836035
 20
6.6845442907
 30
0.0
  0
VERTEX
  5
4D8
330
269
100
AcDbEntity
  8
0
  6
CONTINUOUS
 62
     7
100
AcDbVertex
100
AcDb2dVertex
 10
7.4929999996
 20
6.6515606727
 30
0.0
  0
VERTEX
  5
4D9
330
269
100
AcDbEntity
  8
0
  6
CONTINUOUS
 62
     7
100
AcDbVertex
100
AcDb2dVertex
 10
7.4916565764
 20
6.6192364603
 30
0.0
  0
VERTEX
  5
4DA
330
269
100
AcDbEntity
  8
0
  6
CONTINUOUS
 62
     7
100
AcDbVertex
100
AcDb2dVertex
 10
7.4916565764
 20
6.587649671
 30
0.0
  0
VERTEX
  5
4DB
330
269
100
AcDbEntity
  8
0
  6
CONTINUOUS
 62
     7
100
AcDbVertex
100
AcDb2dVertex
 10
7.4929999996
 20
6.5568765421
 30
0.0
  0
VERTEX
  5
4DC
330
269
100
AcDbEntity
  8
0
  6
CONTINUOUS
 62
     7
100
AcDbVertex
100
AcDb2dVertex
 10
7.4956836035
 20
6.5269913471
 30
0.0
  0
VERTEX
  5
4DD
330
269
100
AcDbEntity
  8
0
  6
CONTINUOUS
 62
     7
100
AcDbVertex
100
AcDb2dVertex
 10
7.4997009109
 20
6.4980662165
 30
0.0
  0
VERTEX
  5
4DE
330
269
100
AcDbEntity
  8
0
  6
CONTINUOUS
 62
     7
100
AcDbVertex
100
AcDb2dVertex
 10
7.5050422259
 20
6.4701709636
 30
0.0
  0
VERTEX
  5
4DF
330
269
100
AcDbEntity
  8
0
  6
CONTINUOUS
 62
     7
100
AcDbVertex
100
AcDb2dVertex
 10
7.5116946566
 20
6.4433729159
 30
0.0
  0
VERTEX
  5
4E0
330
269
100
AcDbEntity
  8
0
  6
CONTINUOUS
 62
     7
100
AcDbVertex
100
AcDb2dVertex
 10
7.5196421468
 20
6.4177367529
 30
0.0
  0
VERTEX
  5
4E1
330
269
100
AcDbEntity
  8
0
  6
CONTINUOUS
 62
     7
100
AcDbVertex
100
AcDb2dVertex
 10
7.5288655147
 20
6.3933243496
 30
0.0
  0
VERTEX
  5
4E2
330
269
100
AcDbEntity
  8
0
  6
CONTINUOUS
 62
     7
100
AcDbVertex
100
AcDb2dVertex
 10
7.5393424988
 20
6.3701946273
 30
0.0
  0
VERTEX
  5
4E3
330
269
100
AcDbEntity
  8
0
  6
CONTINUOUS
 62
     7
100
AcDbVertex
100
AcDb2dVertex
 10
7.551047812
 20
6.3484034117
 30
0.0
  0
SEQEND
  5
4E4
330
269
100
AcDbEntity
  8
0
  6
CONTINUOUS
 62
     7
  0
LINE
  5
26A
330
1F
100
AcDbEntity
  8
0
  6
CONTINUOUS
 62
     7
100
AcDbLine
 10
7.551047812
 20
6.3484034117
 30
0.0
 11
7.3700952893
 21
6.4528650795
 31
0.0
  0
ARC
  5
26B
330
1F
100
AcDbEntity
  8
0
  6
CONTINUOUS
 62
     7
100
AcDbCircle
 10
7.6158618336
 20
6.5906854078
 30
0.0
 40
0.2817723144530733
100
AcDbArc
 50
209.2827240445
 51
242.9702997541
  0
SPLINE
  5
26C
330
1F
100
AcDbEntity
  8
0
  6
CONTINUOUS
 62
     7
100
AcDbSpline
210
0.0
220
0.0
230
1.0
 70
     8
 71
     3
 72
    18
 73
    14
 74
     0
 42
0.00000001
 43
0.00000001
 40
0.0
 40
0.0
 40
0.0
 40
0.0
 40
0.0929760164199889
 40
0.1886666889174866
 40
0.2816375388506455
 40
0.3772696583677564
 40
0.4708824715324131
 40
0.5671823159756307
 40
0.6612236220651856
 40
0.7580310879498989
 40
0.8513595655940694
 40
0.9474401745819918
 40
1.0
 40
1.0
 40
1.0
 40
1.0
 10
7.407972023542455
 20
6.651559156547266
 30
0.0
 10
7.407784977311738
 20
6.646394182760527
 30
0.0
 10
7.407405423590435
 20
6.635913431484975
 30
0.0
 10
7.404339773957751
 20
6.622656888363749
 30
0.0
 10
7.399447133983774
 20
6.611519980143138
 30
0.0
 10
7.392699556041475
 20
6.603088675413247
 30
0.0
 10
7.384115654263758
 20
6.59737233261071
 30
0.0
 10
7.373954725747922
 20
6.594604772537165
 30
0.0
 10
7.362237505143431
 20
6.594801510170536
 30
0.0
 10
7.34944797904808
 20
6.597894525104341
 30
0.0
 10
7.335700470748383
 20
6.603930100481871
 30
0.0
 10
7.323623406668209
 20
6.610932360490009
 30
0.0
 10
7.316209458730837
 20
6.616779122078624
 30
0.0
 10
7.313587858418622
 20
6.618846559311208
 30
0.0
  0
POLYLINE
  5
26D
330
1F
100
AcDbEntity
  8
0
  6
CONTINUOUS
 62
     7
100
AcDb2dPolyline
 66
     1
 10
0.0
 20
0.0
 30
0.0
  0
VERTEX
  5
4E5
330
26D
100
AcDbEntity
  8
0
  6
CONTINUOUS
 62
     7
100
AcDbVertex
100
AcDb2dVertex
 10
7.3094081402
 20
6.6220398182
 30
0.0
  0
VERTEX
  5
4E6
330
26D
100
AcDbEntity
  8
0
  6
CONTINUOUS
 62
     7
100
AcDbVertex
100
AcDb2dVertex
 10
7.3075982569
 20
6.6234225493
 30
0.0
  0
VERTEX
  5
4E7
330
26D
100
AcDbEntity
  8
0
  6
CONTINUOUS
 62
     7
100
AcDbVertex
100
AcDb2dVertex
 10
7.2936965662
 20
6.6363698571
 30
0.0
  0
VERTEX
  5
4E8
330
26D
100
AcDbEntity
  8
0
  6
CONTINUOUS
 62
     7
100
AcDbVertex
100
AcDb2dVertex
 10
7.2809065218
 20
6.6506952183
 30
0.0
  0
VERTEX
  5
4E9
330
26D
100
AcDbEntity
  8
0
  6
CONTINUOUS
 62
     7
100
AcDbVertex
100
AcDb2dVertex
 10
7.2689931891
 20
6.6668029602
 30
0.0
  0
VERTEX
  5
4EA
330
26D
100
AcDbEntity
  8
0
  6
CONTINUOUS
 62
     7
100
AcDbVertex
100
AcDb2dVertex
 10
7.2589258218
 20
6.683588506
 30
0.0
  0
VERTEX
  5
4EB
330
26D
100
AcDbEntity
  8
0
  6
CONTINUOUS
 62
     7
100
AcDbVertex
100
AcDb2dVertex
 10
7.250631426
 20
6.701435539
 30
0.0
  0
VERTEX
  5
4EC
330
26D
100
AcDbEntity
  8
0
  6
CONTINUOUS
 62
     7
100
AcDbVertex
100
AcDb2dVertex
 10
7.2448834131
 20
6.7189016557
 30
0.0
  0
VERTEX
  5
4ED
330
26D
100
AcDbEntity
  8
0
  6
CONTINUOUS
 62
     7
100
AcDbVertex
100
AcDb2dVertex
 10
7.2415866596
 20
6.7365244929
 30
0.0
  0
VERTEX
  5
4EE
330
26D
100
AcDbEntity
  8
0
  6
CONTINUOUS
 62
     7
100
AcDbVertex
100
AcDb2dVertex
 10
7.2410544558
 20
6.7526651124
 30
0.0
  0
VERTEX
  5
4EF
330
26D
100
AcDbEntity
  8
0
  6
CONTINUOUS
 62
     7
100
AcDbVertex
100
AcDb2dVertex
 10
7.2432328049
 20
6.7679706443
 30
0.0
  0
VERTEX
  5
4F0
330
26D
100
AcDbEntity
  8
0
  6
CONTINUOUS
 62
     7
100
AcDbVertex
100
AcDb2dVertex
 10
7.2478852332
 20
6.7810796432
 30
0.0
  0
VERTEX
  5
4F1
330
26D
100
AcDbEntity
  8
0
  6
CONTINUOUS
 62
     7
100
AcDbVertex
100
AcDb2dVertex
 10
7.2550935193
 20
6.7924245641
 30
0.0
  0
VERTEX
  5
4F2
330
26D
100
AcDbEntity
  8
0
  6
CONTINUOUS
 62
     7
100
AcDbVertex
100
AcDb2dVertex
 10
7.2642655635
 20
6.8010918191
 30
0.0
  0
VERTEX
  5
4F3
330
26D
100
AcDbEntity
  8
0
  6
CONTINUOUS
 62
     7
100
AcDbVertex
100
AcDb2dVertex
 10
7.2755329038
 20
6.8071938797
 30
0.0
  0
VERTEX
  5
4F4
330
26D
100
AcDbEntity
  8
0
  6
CONTINUOUS
 62
     7
100
AcDbVertex
100
AcDb2dVertex
 10
7.2879875103
 20
6.8101910827
 30
0.0
  0
VERTEX
  5
4F5
330
26D
100
AcDbEntity
  8
0
  6
CONTINUOUS
 62
     7
100
AcDbVertex
100
AcDb2dVertex
 10
7.3018222727
 20
6.8100506534
 30
0.0
  0
VERTEX
  5
4F6
330
26D
100
AcDbEntity
  8
0
  6
CONTINUOUS
 62
     7
100
AcDbVertex
100
AcDb2dVertex
 10
7.3157498457
 20
6.8067553515
 30
0.0
  0
VERTEX
  5
4F7
330
26D
100
AcDbEntity
  8
0
  6
CONTINUOUS
 62
     7
100
AcDbVertex
100
AcDb2dVertex
 10
7.3301823162
 20
6.8001785253
 30
0.0
  0
VERTEX
  5
4F8
330
26D
100
AcDbEntity
  8
0
  6
CONTINUOUS
 62
     7
100
AcDbVertex
100
AcDb2dVertex
 10
7.3437346826
 20
6.7909760628
 30
0.0
  0
VERTEX
  5
4F9
330
26D
100
AcDbEntity
  8
0
  6
CONTINUOUS
 62
     7
100
AcDbVertex
100
AcDb2dVertex
 10
7.356961721
 20
6.778840888
 30
0.0
  0
VERTEX
  5
4FA
330
26D
100
AcDbEntity
  8
0
  6
CONTINUOUS
 62
     7
100
AcDbVertex
100
AcDb2dVertex
 10
7.368791392
 20
6.7648263187
 30
0.0
  0
VERTEX
  5
4FB
330
26D
100
AcDbEntity
  8
0
  6
CONTINUOUS
 62
     7
100
AcDbVertex
100
AcDb2dVertex
 10
7.3796424863
 20
6.7485661571
 30
0.0
  0
VERTEX
  5
4FC
330
26D
100
AcDbEntity
  8
0
  6
CONTINUOUS
 62
     7
100
AcDbVertex
100
AcDb2dVertex
 10
7.3887867608
 20
6.7312703201
 30
0.0
  0
VERTEX
  5
4FD
330
26D
100
AcDbEntity
  8
0
  6
CONTINUOUS
 62
     7
100
AcDbVertex
100
AcDb2dVertex
 10
7.3964653243
 20
6.7126429132
 30
0.0
  0
VERTEX
  5
4FE
330
26D
100
AcDbEntity
  8
0
  6
CONTINUOUS
 62
     7
100
AcDbVertex
100
AcDb2dVertex
 10
7.4021466421
 20
6.6941857715
 30
0.0
  0
VERTEX
  5
4FF
330
26D
100
AcDbEntity
  8
0
  6
CONTINUOUS
 62
     7
100
AcDbVertex
100
AcDb2dVertex
 10
7.4060225575
 20
6.6754954617
 30
0.0
  0
VERTEX
  5
500
330
26D
100
AcDbEntity
  8
0
  6
CONTINUOUS
 62
     7
100
AcDbVertex
100
AcDb2dVertex
 10
7.4079720235
 20
6.6515591565
 30
0.0
  0
VERTEX
  5
501
330
26D
100
AcDbEntity
  8
0
  6
CONTINUOUS
 62
     7
100
AcDbVertex
100
AcDb2dVertex
 10
7.4079720235
 20
6.6515591565
 30
0.0
  0
SEQEND
  5
502
330
26D
100
AcDbEntity
  8
0
  6
CONTINUOUS
 62
     7
  0
POLYLINE
  5
26E
330
1F
100
AcDbEntity
  8
0
  6
CONTINUOUS
 62
     7
100
AcDb2dPolyline
 66
     1
 10
0.0
 20
0.0
 30
0.0
  0
VERTEX
  5
503
330
26E
100
AcDbEntity
  8
0
  6
CONTINUOUS
 62
     7
100
AcDbVertex
100
AcDb2dVertex
 10
7.1435029518
 20
6.8042339019
 30
0.0
  0
VERTEX
  5
504
330
26E
100
AcDbEntity
  8
0
  6
CONTINUOUS
 62
     7
100
AcDbVertex
100
AcDb2dVertex
 10
7.1441432543
 20
6.7737776082
 30
0.0
  0
VERTEX
  5
505
330
26E
100
AcDbEntity
  8
0
  6
CONTINUOUS
 62
     7
100
AcDbVertex
100
AcDb2dVertex
 10
7.146062689
 20
6.7441306425
 30
0.0
  0
VERTEX
  5
506
330
26E
100
AcDbEntity
  8
0
  6
CONTINUOUS
 62
     7
100
AcDbVertex
100
AcDb2dVertex
 10
7.1492568411
 20
6.7153611937
 30
0.0
  0
VERTEX
  5
507
330
26E
100
AcDbEntity
  8
0
  6
CONTINUOUS
 62
     7
100
AcDbVertex
100
AcDb2dVertex
 10
7.153718364
 20
6.6875354325
 30
0.0
  0
VERTEX
  5
508
330
26E
100
AcDbEntity
  8
0
  6
CONTINUOUS
 62
     7
100
AcDbVertex
100
AcDb2dVertex
 10
7.1594369961
 20
6.660717359
 30
0.0
  0
VERTEX
  5
509
330
26E
100
AcDbEntity
  8
0
  6
CONTINUOUS
 62
     7
100
AcDbVertex
100
AcDb2dVertex
 10
7.1663995843
 20
6.6349686556
 30
0.0
  0
VERTEX
  5
50A
330
26E
100
AcDbEntity
  8
0
  6
CONTINUOUS
 62
     7
100
AcDbVertex
100
AcDb2dVertex
 10
7.1745901144
 20
6.6103485452
 30
0.0
  0
VERTEX
  5
50B
330
26E
100
AcDbEntity
  8
0
  6
CONTINUOUS
 62
     7
100
AcDbVertex
100
AcDb2dVertex
 10
7.183989748
 20
6.5869136548
 30
0.0
  0
VERTEX
  5
50C
330
26E
100
AcDbEntity
  8
0
  6
CONTINUOUS
 62
     7
100
AcDbVertex
100
AcDb2dVertex
 10
7.1945768655
 20
6.5647178855
 30
0.0
  0
VERTEX
  5
50D
330
26E
100
AcDbEntity
  8
0
  6
CONTINUOUS
 62
     7
100
AcDbVertex
100
AcDb2dVertex
 10
7.2063271164
 20
6.5438122881
 30
0.0
  0
VERTEX
  5
50E
330
26E
100
AcDbEntity
  8
0
  6
CONTINUOUS
 62
     7
100
AcDbVertex
100
AcDb2dVertex
 10
7.2192134746
 20
6.5242449463
 30
0.0
  0
VERTEX
  5
50F
330
26E
100
AcDbEntity
  8
0
  6
CONTINUOUS
 62
     7
100
AcDbVertex
100
AcDb2dVertex
 10
7.2332063011
 20
6.5060608655
 30
0.0
  0
VERTEX
  5
510
330
26E
100
AcDbEntity
  8
0
  6
CONTINUOUS
 62
     7
100
AcDbVertex
100
AcDb2dVertex
 10
7.2482734119
 20
6.4893018698
 30
0.0
  0
VERTEX
  5
511
330
26E
100
AcDbEntity
  8
0
  6
CONTINUOUS
 62
     7
100
AcDbVertex
100
AcDb2dVertex
 10
7.2643801523
 20
6.4740065053
 30
0.0
  0
VERTEX
  5
512
330
26E
100
AcDbEntity
  8
0
  6
CONTINUOUS
 62
     7
100
AcDbVertex
100
AcDb2dVertex
 10
7.2814894761
 20
6.4602099519
 30
0.0
  0
VERTEX
  5
513
330
26E
100
AcDbEntity
  8
0
  6
CONTINUOUS
 62
     7
100
AcDbVertex
100
AcDb2dVertex
 10
7.2995620315
 20
6.4479439421
 30
0.0
  0
VERTEX
  5
514
330
26E
100
AcDbEntity
  8
0
  6
CONTINUOUS
 62
     7
100
AcDbVertex
100
AcDb2dVertex
 10
7.3066111525
 20
6.4437261802
 30
0.0
  0
SEQEND
  5
515
330
26E
100
AcDbEntity
  8
0
  6
CONTINUOUS
 62
     7
  0
POLYLINE
  5
26F
330
1F
100
AcDbEntity
  8
0
  6
CONTINUOUS
 62
     7
100
AcDb2dPolyline
 66
     1
 10
0.0
 20
0.0
 30
0.0
  0
VERTEX
  5
516
330
26F
100
AcDbEntity
  8
0
  6
CONTINUOUS
 62
     7
100
AcDbVertex
100
AcDb2dVertex
 10
8.0939487373
 20
7.8075826564
 30
0.0
  0
VERTEX
  5
517
330
26F
100
AcDbEntity
  8
0
  6
CONTINUOUS
 62
     7
100
AcDbVertex
100
AcDb2dVertex
 10
8.0916132747
 20
7.8089149899
 30
0.0
  0
VERTEX
  5
518
330
26F
100
AcDbEntity
  8
0
  6
CONTINUOUS
 62
     7
100
AcDbVertex
100
AcDb2dVertex
 10
8.0721744774
 20
7.8188334045
 30
0.0
  0
VERTEX
  5
519
330
26F
100
AcDbEntity
  8
0
  6
CONTINUOUS
 62
     7
100
AcDbVertex
100
AcDb2dVertex
 10
8.0518803108
 20
7.8271574852
 30
0.0
  0
VERTEX
  5
51A
330
26F
100
AcDbEntity
  8
0
  6
CONTINUOUS
 62
     7
100
AcDbVertex
100
AcDb2dVertex
 10
8.0307774521
 20
7.8338680863
 30
0.0
  0
VERTEX
  5
51B
330
26F
100
AcDbEntity
  8
0
  6
CONTINUOUS
 62
     7
100
AcDbVertex
100
AcDb2dVertex
 10
8.0089144385
 20
7.8389497733
 30
0.0
  0
VERTEX
  5
51C
330
26F
100
AcDbEntity
  8
0
  6
CONTINUOUS
 62
     7
100
AcDbVertex
100
AcDb2dVertex
 10
7.9863415556
 20
7.8423908582
 30
0.0
  0
VERTEX
  5
51D
330
26F
100
AcDbEntity
  8
0
  6
CONTINUOUS
 62
     7
100
AcDbVertex
100
AcDb2dVertex
 10
7.9631107219
 20
7.8441834262
 30
0.0
  0
VERTEX
  5
51E
330
26F
100
AcDbEntity
  8
0
  6
CONTINUOUS
 62
     7
100
AcDbVertex
100
AcDb2dVertex
 10
7.939275369
 20
7.8443233546
 30
0.0
  0
VERTEX
  5
51F
330
26F
100
AcDbEntity
  8
0
  6
CONTINUOUS
 62
     7
100
AcDbVertex
100
AcDb2dVertex
 10
7.914890319
 20
7.8428103213
 30
0.0
  0
VERTEX
  5
520
330
26F
100
AcDbEntity
  8
0
  6
CONTINUOUS
 62
     7
100
AcDbVertex
100
AcDb2dVertex
 10
7.8900116582
 20
7.8396478065
 30
0.0
  0
VERTEX
  5
521
330
26F
100
AcDbEntity
  8
0
  6
CONTINUOUS
 62
     7
100
AcDbVertex
100
AcDb2dVertex
 10
7.8646966084
 20
7.834843084
 30
0.0
  0
VERTEX
  5
522
330
26F
100
AcDbEntity
  8
0
  6
CONTINUOUS
 62
     7
100
AcDbVertex
100
AcDb2dVertex
 10
7.8390033951
 20
7.8284072048
 30
0.0
  0
VERTEX
  5
523
330
26F
100
AcDbEntity
  8
0
  6
CONTINUOUS
 62
     7
100
AcDbVertex
100
AcDb2dVertex
 10
7.8129911133
 20
7.8203549717
 30
0.0
  0
VERTEX
  5
524
330
26F
100
AcDbEntity
  8
0
  6
CONTINUOUS
 62
     7
100
AcDbVertex
100
AcDb2dVertex
 10
7.7867195922
 20
7.8107049051
 30
0.0
  0
VERTEX
  5
525
330
26F
100
AcDbEntity
  8
0
  6
CONTINUOUS
 62
     7
100
AcDbVertex
100
AcDb2dVertex
 10
7.7602492572
 20
7.7994792004
 30
0.0
  0
VERTEX
  5
526
330
26F
100
AcDbEntity
  8
0
  6
CONTINUOUS
 62
     7
100
AcDbVertex
100
AcDb2dVertex
 10
7.7336409908
 20
7.7867036771
 30
0.0
  0
VERTEX
  5
527
330
26F
100
AcDbEntity
  8
0
  6
CONTINUOUS
 62
     7
100
AcDbVertex
100
AcDb2dVertex
 10
7.706955993
 20
7.7724077194
 30
0.0
  0
VERTEX
  5
528
330
26F
100
AcDbEntity
  8
0
  6
CONTINUOUS
 62
     7
100
AcDbVertex
100
AcDb2dVertex
 10
7.68025564
 20
7.7566242083
 30
0.0
  0
VERTEX
  5
529
330
26F
100
AcDbEntity
  8
0
  6
CONTINUOUS
 62
     7
100
AcDbVertex
100
AcDb2dVertex
 10
7.6536013436
 20
7.7393894465
 30
0.0
  0
VERTEX
  5
52A
330
26F
100
AcDbEntity
  8
0
  6
CONTINUOUS
 62
     7
100
AcDbVertex
100
AcDb2dVertex
 10
7.6270544094
 20
7.7207430744
 30
0.0
  0
VERTEX
  5
52B
330
26F
100
AcDbEntity
  8
0
  6
CONTINUOUS
 62
     7
100
AcDbVertex
100
AcDb2dVertex
 10
7.6006758964
 20
7.7007279794
 30
0.0
  0
VERTEX
  5
52C
330
26F
100
AcDbEntity
  8
0
  6
CONTINUOUS
 62
     7
100
AcDbVertex
100
AcDb2dVertex
 10
7.5745264758
 20
7.6793901967
 30
0.0
  0
VERTEX
  5
52D
330
26F
100
AcDbEntity
  8
0
  6
CONTINUOUS
 62
     7
100
AcDbVertex
100
AcDb2dVertex
 10
7.5486662923
 20
7.6567788041
 30
0.0
  0
VERTEX
  5
52E
330
26F
100
AcDbEntity
  8
0
  6
CONTINUOUS
 62
     7
100
AcDbVertex
100
AcDb2dVertex
 10
7.523154825
 20
7.6329458083
 30
0.0
  0
VERTEX
  5
52F
330
26F
100
AcDbEntity
  8
0
  6
CONTINUOUS
 62
     7
100
AcDbVertex
100
AcDb2dVertex
 10
7.4980507511
 20
7.607946026
 30
0.0
  0
VERTEX
  5
530
330
26F
100
AcDbEntity
  8
0
  6
CONTINUOUS
 62
     7
100
AcDbVertex
100
AcDb2dVertex
 10
7.4734118109
 20
7.5818369576
 30
0.0
  0
VERTEX
  5
531
330
26F
100
AcDbEntity
  8
0
  6
CONTINUOUS
 62
     7
100
AcDbVertex
100
AcDb2dVertex
 10
7.4492946747
 20
7.5546786548
 30
0.0
  0
VERTEX
  5
532
330
26F
100
AcDbEntity
  8
0
  6
CONTINUOUS
 62
     7
100
AcDbVertex
100
AcDb2dVertex
 10
7.4257548126
 20
7.5265335824
 30
0.0
  0
VERTEX
  5
533
330
26F
100
AcDbEntity
  8
0
  6
CONTINUOUS
 62
     7
100
AcDbVertex
100
AcDb2dVertex
 10
7.4028463671
 20
7.4974664752
 30
0.0
  0
VERTEX
  5
534
330
26F
100
AcDbEntity
  8
0
  6
CONTINUOUS
 62
     7
100
AcDbVertex
100
AcDb2dVertex
 10
7.3806220284
 20
7.4675441882
 30
0.0
  0
VERTEX
  5
535
330
26F
100
AcDbEntity
  8
0
  6
CONTINUOUS
 62
     7
100
AcDbVertex
100
AcDb2dVertex
 10
7.3591329131
 20
7.4368355439
 30
0.0
  0
VERTEX
  5
536
330
26F
100
AcDbEntity
  8
0
  6
CONTINUOUS
 62
     7
100
AcDbVertex
100
AcDb2dVertex
 10
7.338428447
 20
7.405411173
 30
0.0
  0
VERTEX
  5
537
330
26F
100
AcDbEntity
  8
0
  6
CONTINUOUS
 62
     7
100
AcDbVertex
100
AcDb2dVertex
 10
7.3185562509
 20
7.3733433526
 30
0.0
  0
VERTEX
  5
538
330
26F
100
AcDbEntity
  8
0
  6
CONTINUOUS
 62
     7
100
AcDbVertex
100
AcDb2dVertex
 10
7.2995620315
 20
7.3407058397
 30
0.0
  0
VERTEX
  5
539
330
26F
100
AcDbEntity
  8
0
  6
CONTINUOUS
 62
     7
100
AcDbVertex
100
AcDb2dVertex
 10
7.2814894761
 20
7.3075737016
 30
0.0
  0
VERTEX
  5
53A
330
26F
100
AcDbEntity
  8
0
  6
CONTINUOUS
 62
     7
100
AcDbVertex
100
AcDb2dVertex
 10
7.2643801523
 20
7.2740231434
 30
0.0
  0
VERTEX
  5
53B
330
26F
100
AcDbEntity
  8
0
  6
CONTINUOUS
 62
     7
100
AcDbVertex
100
AcDb2dVertex
 10
7.2482734119
 20
7.2401313324
 30
0.0
  0
VERTEX
  5
53C
330
26F
100
AcDbEntity
  8
0
  6
CONTINUOUS
 62
     7
100
AcDbVertex
100
AcDb2dVertex
 10
7.2332063011
 20
7.2059762207
 30
0.0
  0
VERTEX
  5
53D
330
26F
100
AcDbEntity
  8
0
  6
CONTINUOUS
 62
     7
100
AcDbVertex
100
AcDb2dVertex
 10
7.2192134746
 20
7.1716363664
 30
0.0
  0
VERTEX
  5
53E
330
26F
100
AcDbEntity
  8
0
  6
CONTINUOUS
 62
     7
100
AcDbVertex
100
AcDb2dVertex
 10
7.2063271164
 20
7.1371907521
 30
0.0
  0
VERTEX
  5
53F
330
26F
100
AcDbEntity
  8
0
  6
CONTINUOUS
 62
     7
100
AcDbVertex
100
AcDb2dVertex
 10
7.1945768655
 20
7.1027186039
 30
0.0
  0
VERTEX
  5
540
330
26F
100
AcDbEntity
  8
0
  6
CONTINUOUS
 62
     7
100
AcDbVertex
100
AcDb2dVertex
 10
7.183989748
 20
7.0682992087
 30
0.0
  0
VERTEX
  5
541
330
26F
100
AcDbEntity
  8
0
  6
CONTINUOUS
 62
     7
100
AcDbVertex
100
AcDb2dVertex
 10
7.1745901144
 20
7.0340117324
 30
0.0
  0
VERTEX
  5
542
330
26F
100
AcDbEntity
  8
0
  6
CONTINUOUS
 62
     7
100
AcDbVertex
100
AcDb2dVertex
 10
7.1663995843
 20
6.9999350372
 30
0.0
  0
VERTEX
  5
543
330
26F
100
AcDbEntity
  8
0
  6
CONTINUOUS
 62
     7
100
AcDbVertex
100
AcDb2dVertex
 10
7.1594369961
 20
6.9661475006
 30
0.0
  0
VERTEX
  5
544
330
26F
100
AcDbEntity
  8
0
  6
CONTINUOUS
 62
     7
100
AcDbVertex
100
AcDb2dVertex
 10
7.153718364
 20
6.9327268351
 30
0.0
  0
VERTEX
  5
545
330
26F
100
AcDbEntity
  8
0
  6
CONTINUOUS
 62
     7
100
AcDbVertex
100
AcDb2dVertex
 10
7.1492568411
 20
6.8997499091
 30
0.0
  0
VERTEX
  5
546
330
26F
100
AcDbEntity
  8
0
  6
CONTINUOUS
 62
     7
100
AcDbVertex
100
AcDb2dVertex
 10
7.146062689
 20
6.8672925708
 30
0.0
  0
VERTEX
  5
547
330
26F
100
AcDbEntity
  8
0
  6
CONTINUOUS
 62
     7
100
AcDbVertex
100
AcDb2dVertex
 10
7.1441432543
 20
6.835429473
 30
0.0
  0
VERTEX
  5
548
330
26F
100
AcDbEntity
  8
0
  6
CONTINUOUS
 62
     7
100
AcDbVertex
100
AcDb2dVertex
 10
7.1435029518
 20
6.8042339019
 30
0.0
  0
SEQEND
  5
549
330
26F
100
AcDbEntity
  8
0
  6
CONTINUOUS
 62
     7
  0
ARC
  5
270
330
1F
100
AcDbEntity
  8
0
  6
CONTINUOUS
 62
     7
100
AcDbCircle
 10
8.5230583762
 20
6.6497823124
 30
0.0
 40
1.186810703927208
100
AcDbArc
 50
122.7431031645
 51
161.1868737023
  0
SPLINE
  5
271
330
1F
100
AcDbEntity
  8
0
  6
CONTINUOUS
 62
     7
100
AcDbSpline
210
0.0
220
0.0
230
1.0
 70
     8
 71
     3
 72
     8
 73
     4
 74
     0
 42
0.00000001
 43
0.00000001
 40
0.0
 40
0.0
 40
0.0
 40
0.0
 40
0.0007520222441055
 40
0.0007520222441055
 40
0.0007520222441055
 40
0.0007520222441055
 10
7.399652553363173
 20
7.032508068107843
 30
0.0
 10
7.389801103265612
 20
7.032167887819694
 30
0.0
 10
7.379948628451339
 20
7.031837478588772
 30
0.0
 10
7.37009528926147
 20
7.031516048562344
 30
0.0
  0
LINE
  5
272
330
1F
100
AcDbEntity
  8
0
  6
CONTINUOUS
 62
     7
100
AcDbLine
 10
7.5649672368
 20
6.9350898936
 30
0.0
 11
7.551047812
 21
6.9270543807
 31
0.0
  0
LINE
  5
273
330
1F
100
AcDbEntity
  8
0
  6
CONTINUOUS
 62
     7
100
AcDbLine
 10
7.5581952212
 20
6.3525295232
 30
0.0
 11
7.551047812
 21
6.3484034117
 31
0.0
  0
ARC
  5
274
330
1F
100
AcDbEntity
  8
0
  6
CONTINUOUS
 62
     7
100
AcDbCircle
 10
8.3202229937
 20
6.767768914
 30
0.0
 40
1.177892223320921
100
AcDbArc
 50
122.5617146186
 51
177.4436619141
  0
LINE
  5
275
330
1F
100
AcDbEntity
  8
0
  6
CONTINUOUS
 62
     7
100
AcDbLine
 10
8.5476478326
 20
7.5066951072
 30
0.0
 11
8.7146809305
 21
7.4102689523
 31
0.0
  0
POLYLINE
  5
276
330
1F
100
AcDbEntity
  8
0
  6
CONTINUOUS
 62
     7
100
AcDb2dPolyline
 66
     1
 10
0.0
 20
0.0
 30
0.0
  0
VERTEX
  5
54A
330
276
100
AcDbEntity
  8
0
  6
CONTINUOUS
 62
     7
100
AcDbVertex
100
AcDb2dVertex
 10
8.0251620021
 20
7.2069223292
 30
0.0
  0
VERTEX
  5
54B
330
276
100
AcDbEntity
  8
0
  6
CONTINUOUS
 62
     7
100
AcDbVertex
100
AcDb2dVertex
 10
8.0495146755
 20
7.234945321
 30
0.0
  0
VERTEX
  5
54C
330
276
100
AcDbEntity
  8
0
  6
CONTINUOUS
 62
     7
100
AcDbVertex
100
AcDb2dVertex
 10
8.0744286879
 20
7.2619028221
 30
0.0
  0
VERTEX
  5
54D
330
276
100
AcDbEntity
  8
0
  6
CONTINUOUS
 62
     7
100
AcDbVertex
100
AcDb2dVertex
 10
8.0998446239
 20
7.2877305441
 30
0.0
  0
VERTEX
  5
54E
330
276
100
AcDbEntity
  8
0
  6
CONTINUOUS
 62
     7
100
AcDbVertex
100
AcDb2dVertex
 10
8.1257018716
 20
7.3123668928
 30
0.0
  0
VERTEX
  5
54F
330
276
100
AcDbEntity
  8
0
  6
CONTINUOUS
 62
     7
100
AcDbVertex
100
AcDb2dVertex
 10
8.1519387663
 20
7.3357531153
 30
0.0
  0
VERTEX
  5
550
330
276
100
AcDbEntity
  8
0
  6
CONTINUOUS
 62
     7
100
AcDbVertex
100
AcDb2dVertex
 10
8.1784927381
 20
7.3578334399
 30
0.0
  0
VERTEX
  5
551
330
276
100
AcDbEntity
  8
0
  6
CONTINUOUS
 62
     7
100
AcDbVertex
100
AcDb2dVertex
 10
8.2053004608
 20
7.3785552092
 30
0.0
  0
VERTEX
  5
552
330
276
100
AcDbEntity
  8
0
  6
CONTINUOUS
 62
     7
100
AcDbVertex
100
AcDb2dVertex
 10
8.2322980031
 20
7.3978690057
 30
0.0
  0
VERTEX
  5
553
330
276
100
AcDbEntity
  8
0
  6
CONTINUOUS
 62
     7
100
AcDbVertex
100
AcDb2dVertex
 10
8.259420981
 20
7.4157287699
 30
0.0
  0
VERTEX
  5
554
330
276
100
AcDbEntity
  8
0
  6
CONTINUOUS
 62
     7
100
AcDbVertex
100
AcDb2dVertex
 10
8.2866047115
 20
7.4320919095
 30
0.0
  0
VERTEX
  5
555
330
276
100
AcDbEntity
  8
0
  6
CONTINUOUS
 62
     7
100
AcDbVertex
100
AcDb2dVertex
 10
8.3137843665
 20
7.4469194015
 30
0.0
  0
VERTEX
  5
556
330
276
100
AcDbEntity
  8
0
  6
CONTINUOUS
 62
     7
100
AcDbVertex
100
AcDb2dVertex
 10
8.3408951278
 20
7.4601758854
 30
0.0
  0
VERTEX
  5
557
330
276
100
AcDbEntity
  8
0
  6
CONTINUOUS
 62
     7
100
AcDbVertex
100
AcDb2dVertex
 10
8.3678723414
 20
7.4718297468
 30
0.0
  0
VERTEX
  5
558
330
276
100
AcDbEntity
  8
0
  6
CONTINUOUS
 62
     7
100
AcDbVertex
100
AcDb2dVertex
 10
8.3946516718
 20
7.4818531936
 30
0.0
  0
VERTEX
  5
559
330
276
100
AcDbEntity
  8
0
  6
CONTINUOUS
 62
     7
100
AcDbVertex
100
AcDb2dVertex
 10
8.4211692554
 20
7.4902223218
 30
0.0
  0
VERTEX
  5
55A
330
276
100
AcDbEntity
  8
0
  6
CONTINUOUS
 62
     7
100
AcDbVertex
100
AcDb2dVertex
 10
8.4473618528
 20
7.4969171725
 30
0.0
  0
VERTEX
  5
55B
330
276
100
AcDbEntity
  8
0
  6
CONTINUOUS
 62
     7
100
AcDbVertex
100
AcDb2dVertex
 10
8.4731669998
 20
7.5019217799
 30
0.0
  0
VERTEX
  5
55C
330
276
100
AcDbEntity
  8
0
  6
CONTINUOUS
 62
     7
100
AcDbVertex
100
AcDb2dVertex
 10
8.498523156
 20
7.5052242089
 30
0.0
  0
VERTEX
  5
55D
330
276
100
AcDbEntity
  8
0
  6
CONTINUOUS
 62
     7
100
AcDbVertex
100
AcDb2dVertex
 10
8.5233698518
 20
7.5068165838
 30
0.0
  0
VERTEX
  5
55E
330
276
100
AcDbEntity
  8
0
  6
CONTINUOUS
 62
     7
100
AcDbVertex
100
AcDb2dVertex
 10
8.5476478326
 20
7.5066951072
 30
0.0
  0
SEQEND
  5
55F
330
276
100
AcDbEntity
  8
0
  6
CONTINUOUS
 62
     7
  0
LINE
  5
277
330
1F
100
AcDbEntity
  8
0
  6
CONTINUOUS
 62
     7
100
AcDbLine
 10
8.1921951
 20
7.1104961743
 30
0.0
 11
8.0251620021
 21
7.2069223292
 31
0.0
  0
POLYLINE
  5
278
330
1F
100
AcDbEntity
  8
0
  6
CONTINUOUS
 62
     7
100
AcDb2dPolyline
 66
     1
 10
0.0
 20
0.0
 30
0.0
  0
VERTEX
  5
560
330
278
100
AcDbEntity
  8
0
  6
CONTINUOUS
 62
     7
100
AcDbVertex
100
AcDb2dVertex
 10
8.0724255979
 20
6.0021992392
 30
0.0
  0
VERTEX
  5
561
330
278
100
AcDbEntity
  8
0
  6
CONTINUOUS
 62
     7
100
AcDbVertex
100
AcDb2dVertex
 10
8.0603180731
 20
6.0086327916
 30
0.0
  0
VERTEX
  5
562
330
278
100
AcDbEntity
  8
0
  6
CONTINUOUS
 62
     7
100
AcDbVertex
100
AcDb2dVertex
 10
8.0417387819
 20
6.0201822913
 30
0.0
  0
VERTEX
  5
563
330
278
100
AcDbEntity
  8
0
  6
CONTINUOUS
 62
     7
100
AcDbVertex
100
AcDb2dVertex
 10
8.0241085955
 20
6.033285645
 30
0.0
  0
VERTEX
  5
564
330
278
100
AcDbEntity
  8
0
  6
CONTINUOUS
 62
     7
100
AcDbVertex
100
AcDb2dVertex
 10
8.0074683069
 20
6.047912534
 30
0.0
  0
VERTEX
  5
565
330
278
100
AcDbEntity
  8
0
  6
CONTINUOUS
 62
     7
100
AcDbVertex
100
AcDb2dVertex
 10
7.9918564188
 20
6.0640291143
 30
0.0
  0
VERTEX
  5
566
330
278
100
AcDbEntity
  8
0
  6
CONTINUOUS
 62
     7
100
AcDbVertex
100
AcDb2dVertex
 10
7.9773090541
 20
6.0815980951
 30
0.0
  0
VERTEX
  5
567
330
278
100
AcDbEntity
  8
0
  6
CONTINUOUS
 62
     7
100
AcDbVertex
100
AcDb2dVertex
 10
7.9638598728
 20
6.1005788249
 30
0.0
  0
VERTEX
  5
568
330
278
100
AcDbEntity
  8
0
  6
CONTINUOUS
 62
     7
100
AcDbVertex
100
AcDb2dVertex
 10
7.9515399939
 20
6.1209273859
 30
0.0
  0
VERTEX
  5
569
330
278
100
AcDbEntity
  8
0
  6
CONTINUOUS
 62
     7
100
AcDbVertex
100
AcDb2dVertex
 10
7.9403779232
 20
6.1425966951
 30
0.0
  0
VERTEX
  5
56A
330
278
100
AcDbEntity
  8
0
  6
CONTINUOUS
 62
     7
100
AcDbVertex
100
AcDb2dVertex
 10
7.9303994878
 20
6.1655366139
 30
0.0
  0
VERTEX
  5
56B
330
278
100
AcDbEntity
  8
0
  6
CONTINUOUS
 62
     7
100
AcDbVertex
100
AcDb2dVertex
 10
7.921627776
 20
6.1896940634
 30
0.0
  0
VERTEX
  5
56C
330
278
100
AcDbEntity
  8
0
  6
CONTINUOUS
 62
     7
100
AcDbVertex
100
AcDb2dVertex
 10
7.9140830838
 20
6.2150131476
 30
0.0
  0
VERTEX
  5
56D
330
278
100
AcDbEntity
  8
0
  6
CONTINUOUS
 62
     7
100
AcDbVertex
100
AcDb2dVertex
 10
7.9077828684
 20
6.241435283
 30
0.0
  0
VERTEX
  5
56E
330
278
100
AcDbEntity
  8
0
  6
CONTINUOUS
 62
     7
100
AcDbVertex
100
AcDb2dVertex
 10
7.9027417072
 20
6.2688993334
 30
0.0
  0
VERTEX
  5
56F
330
278
100
AcDbEntity
  8
0
  6
CONTINUOUS
 62
     7
100
AcDbVertex
100
AcDb2dVertex
 10
7.8989712646
 20
6.2973417521
 30
0.0
  0
VERTEX
  5
570
330
278
100
AcDbEntity
  8
0
  6
CONTINUOUS
 62
     7
100
AcDbVertex
100
AcDb2dVertex
 10
7.8964802647
 20
6.3266967286
 30
0.0
  0
VERTEX
  5
571
330
278
100
AcDbEntity
  8
0
  6
CONTINUOUS
 62
     7
100
AcDbVertex
100
AcDb2dVertex
 10
7.8952744712
 20
6.3568963408
 30
0.0
  0
VERTEX
  5
572
330
278
100
AcDbEntity
  8
0
  6
CONTINUOUS
 62
     7
100
AcDbVertex
100
AcDb2dVertex
 10
7.8953566741
 20
6.3878707123
 30
0.0
  0
VERTEX
  5
573
330
278
100
AcDbEntity
  8
0
  6
CONTINUOUS
 62
     7
100
AcDbVertex
100
AcDb2dVertex
 10
7.8967266832
 20
6.4195481742
 30
0.0
  0
VERTEX
  5
574
330
278
100
AcDbEntity
  8
0
  6
CONTINUOUS
 62
     7
100
AcDbVertex
100
AcDb2dVertex
 10
7.8993813286
 20
6.4518554305
 30
0.0
  0
VERTEX
  5
575
330
278
100
AcDbEntity
  8
0
  6
CONTINUOUS
 62
     7
100
AcDbVertex
100
AcDb2dVertex
 10
7.9033144678
 20
6.4847177282
 30
0.0
  0
VERTEX
  5
576
330
278
100
AcDbEntity
  8
0
  6
CONTINUOUS
 62
     7
100
AcDbVertex
100
AcDb2dVertex
 10
7.9085170004
 20
6.5180590299
 30
0.0
  0
VERTEX
  5
577
330
278
100
AcDbEntity
  8
0
  6
CONTINUOUS
 62
     7
100
AcDbVertex
100
AcDb2dVertex
 10
7.9149768886
 20
6.55180219
 30
0.0
  0
VERTEX
  5
578
330
278
100
AcDbEntity
  8
0
  6
CONTINUOUS
 62
     7
100
AcDbVertex
100
AcDb2dVertex
 10
7.9226791854
 20
6.585869133
 30
0.0
  0
VERTEX
  5
579
330
278
100
AcDbEntity
  8
0
  6
CONTINUOUS
 62
     7
100
AcDbVertex
100
AcDb2dVertex
 10
7.9316060691
 20
6.6201810342
 30
0.0
  0
VERTEX
  5
57A
330
278
100
AcDbEntity
  8
0
  6
CONTINUOUS
 62
     7
100
AcDbVertex
100
AcDb2dVertex
 10
7.9417368845
 20
6.6546585022
 30
0.0
  0
VERTEX
  5
57B
330
278
100
AcDbEntity
  8
0
  6
CONTINUOUS
 62
     7
100
AcDbVertex
100
AcDb2dVertex
 10
7.9530481909
 20
6.6892217624
 30
0.0
  0
VERTEX
  5
57C
330
278
100
AcDbEntity
  8
0
  6
CONTINUOUS
 62
     7
100
AcDbVertex
100
AcDb2dVertex
 10
7.9655138158
 20
6.7237908418
 30
0.0
  0
VERTEX
  5
57D
330
278
100
AcDbEntity
  8
0
  6
CONTINUOUS
 62
     7
100
AcDbVertex
100
AcDb2dVertex
 10
7.9791049161
 20
6.7582857538
 30
0.0
  0
VERTEX
  5
57E
330
278
100
AcDbEntity
  8
0
  6
CONTINUOUS
 62
     7
100
AcDbVertex
100
AcDb2dVertex
 10
7.9937900446
 20
6.7926266835
 30
0.0
  0
VERTEX
  5
57F
330
278
100
AcDbEntity
  8
0
  6
CONTINUOUS
 62
     7
100
AcDbVertex
100
AcDb2dVertex
 10
8.0095352224
 20
6.8267341723
 30
0.0
  0
VERTEX
  5
580
330
278
100
AcDbEntity
  8
0
  6
CONTINUOUS
 62
     7
100
AcDbVertex
100
AcDb2dVertex
 10
8.0263040182
 20
6.8605293017
 30
0.0
  0
VERTEX
  5
581
330
278
100
AcDbEntity
  8
0
  6
CONTINUOUS
 62
     7
100
AcDbVertex
100
AcDb2dVertex
 10
8.044057632
 20
6.893933876
 30
0.0
  0
VERTEX
  5
582
330
278
100
AcDbEntity
  8
0
  6
CONTINUOUS
 62
     7
100
AcDbVertex
100
AcDb2dVertex
 10
8.0627549853
 20
6.926870603
 30
0.0
  0
VERTEX
  5
583
330
278
100
AcDbEntity
  8
0
  6
CONTINUOUS
 62
     7
100
AcDbVertex
100
AcDb2dVertex
 10
8.0823528156
 20
6.9592632734
 30
0.0
  0
VERTEX
  5
584
330
278
100
AcDbEntity
  8
0
  6
CONTINUOUS
 62
     7
100
AcDbVertex
100
AcDb2dVertex
 10
8.1028057774
 20
6.9910369362
 30
0.0
  0
VERTEX
  5
585
330
278
100
AcDbEntity
  8
0
  6
CONTINUOUS
 62
     7
100
AcDbVertex
100
AcDb2dVertex
 10
8.1240665461
 20
7.0221180732
 30
0.0
  0
VERTEX
  5
586
330
278
100
AcDbEntity
  8
0
  6
CONTINUOUS
 62
     7
100
AcDbVertex
100
AcDb2dVertex
 10
8.1460859282
 20
7.0524347682
 30
0.0
  0
VERTEX
  5
587
330
278
100
AcDbEntity
  8
0
  6
CONTINUOUS
 62
     7
100
AcDbVertex
100
AcDb2dVertex
 10
8.1688129749
 20
7.081916874
 30
0.0
  0
VERTEX
  5
588
330
278
100
AcDbEntity
  8
0
  6
CONTINUOUS
 62
     7
100
AcDbVertex
100
AcDb2dVertex
 10
8.1921951
 20
7.1104961743
 30
0.0
  0
SEQEND
  5
589
330
278
100
AcDbEntity
  8
0
  6
CONTINUOUS
 62
     7
  0
ARC
  5
279
330
1F
100
AcDbEntity
  8
0
  6
CONTINUOUS
 62
     7
100
AcDbCircle
 10
8.7072426527
 20
7.1315687396
 30
0.0
 40
0.2787994557362511
100
AcDbArc
 50
58.6009557873
 51
88.4711860336
  0
LINE
  5
27A
330
1F
100
AcDbEntity
  8
0
  6
CONTINUOUS
 62
     7
100
AcDbLine
 10
7.5713062041
 20
6.3299364277
 30
0.0
 11
7.4042731062
 21
6.4263625826
 31
0.0
  0
POLYLINE
  5
27B
330
1F
100
AcDbEntity
  8
0
  6
CONTINUOUS
 62
     7
100
AcDb2dPolyline
 66
     1
 10
0.0
 20
0.0
 30
0.0
  0
VERTEX
  5
58A
330
27B
100
AcDbEntity
  8
0
  6
CONTINUOUS
 62
     7
100
AcDbVertex
100
AcDb2dVertex
 10
7.569702523
 20
6.9323579946
 30
0.0
  0
VERTEX
  5
58B
330
27B
100
AcDbEntity
  8
0
  6
CONTINUOUS
 62
     7
100
AcDbVertex
100
AcDb2dVertex
 10
7.5576095728
 20
6.8972553146
 30
0.0
  0
VERTEX
  5
58C
330
27B
100
AcDbEntity
  8
0
  6
CONTINUOUS
 62
     7
100
AcDbVertex
100
AcDb2dVertex
 10
7.5467199383
 20
6.8621990806
 30
0.0
  0
VERTEX
  5
58D
330
27B
100
AcDbEntity
  8
0
  6
CONTINUOUS
 62
     7
100
AcDbVertex
100
AcDb2dVertex
 10
7.5370595893
 20
6.827272895
 30
0.0
  0
VERTEX
  5
58E
330
27B
100
AcDbEntity
  8
0
  6
CONTINUOUS
 62
     7
100
AcDbVertex
100
AcDb2dVertex
 10
7.528651564
 20
6.79256005
 30
0.0
  0
VERTEX
  5
58F
330
27B
100
AcDbEntity
  8
0
  6
CONTINUOUS
 62
     7
100
AcDbVertex
100
AcDb2dVertex
 10
7.5215159137
 20
6.7581433291
 30
0.0
  0
VERTEX
  5
590
330
27B
100
AcDbEntity
  8
0
  6
CONTINUOUS
 62
     7
100
AcDbVertex
100
AcDb2dVertex
 10
7.5156696557
 20
6.7241048097
 30
0.0
  0
VERTEX
  5
591
330
27B
100
AcDbEntity
  8
0
  6
CONTINUOUS
 62
     7
100
AcDbVertex
100
AcDb2dVertex
 10
7.5111267322
 20
6.6905256671
 30
0.0
  0
VERTEX
  5
592
330
27B
100
AcDbEntity
  8
0
  6
CONTINUOUS
 62
     7
100
AcDbVertex
100
AcDb2dVertex
 10
7.5078979771
 20
6.6574859811
 30
0.0
  0
VERTEX
  5
593
330
27B
100
AcDbEntity
  8
0
  6
CONTINUOUS
 62
     7
100
AcDbVertex
100
AcDb2dVertex
 10
7.5059910905
 20
6.6250645451
 30
0.0
  0
VERTEX
  5
594
330
27B
100
AcDbEntity
  8
0
  6
CONTINUOUS
 62
     7
100
AcDbVertex
100
AcDb2dVertex
 10
7.5054106199
 20
6.593338678
 30
0.0
  0
VERTEX
  5
595
330
27B
100
AcDbEntity
  8
0
  6
CONTINUOUS
 62
     7
100
AcDbVertex
100
AcDb2dVertex
 10
7.5061579497
 20
6.5623840398
 30
0.0
  0
VERTEX
  5
596
330
27B
100
AcDbEntity
  8
0
  6
CONTINUOUS
 62
     7
100
AcDbVertex
100
AcDb2dVertex
 10
7.5082312975
 20
6.5322744515
 30
0.0
  0
VERTEX
  5
597
330
27B
100
AcDbEntity
  8
0
  6
CONTINUOUS
 62
     7
100
AcDbVertex
100
AcDb2dVertex
 10
7.5116257188
 20
6.5030817187
 30
0.0
  0
VERTEX
  5
598
330
27B
100
AcDbEntity
  8
0
  6
CONTINUOUS
 62
     7
100
AcDbVertex
100
AcDb2dVertex
 10
7.5163331186
 20
6.4748754605
 30
0.0
  0
VERTEX
  5
599
330
27B
100
AcDbEntity
  8
0
  6
CONTINUOUS
 62
     7
100
AcDbVertex
100
AcDb2dVertex
 10
7.5223422707
 20
6.4477229433
 30
0.0
  0
VERTEX
  5
59A
330
27B
100
AcDbEntity
  8
0
  6
CONTINUOUS
 62
     7
100
AcDbVertex
100
AcDb2dVertex
 10
7.5296388444
 20
6.4216889208
 30
0.0
  0
VERTEX
  5
59B
330
27B
100
AcDbEntity
  8
0
  6
CONTINUOUS
 62
     7
100
AcDbVertex
100
AcDb2dVertex
 10
7.5382054386
 20
6.3968354792
 30
0.0
  0
VERTEX
  5
59C
330
27B
100
AcDbEntity
  8
0
  6
CONTINUOUS
 62
     7
100
AcDbVertex
100
AcDb2dVertex
 10
7.5480216239
 20
6.373221889
 30
0.0
  0
VERTEX
  5
59D
330
27B
100
AcDbEntity
  8
0
  6
CONTINUOUS
 62
     7
100
AcDbVertex
100
AcDb2dVertex
 10
7.5590639903
 20
6.3509044642
 30
0.0
  0
VERTEX
  5
59E
330
27B
100
AcDbEntity
  8
0
  6
CONTINUOUS
 62
     7
100
AcDbVertex
100
AcDb2dVertex
 10
7.5713062041
 20
6.3299364277
 30
0.0
  0
SEQEND
  5
59F
330
27B
100
AcDbEntity
  8
0
  6
CONTINUOUS
 62
     7
  0
LINE
  5
27C
330
1F
100
AcDbEntity
  8
0
  6
CONTINUOUS
 62
     7
100
AcDbLine
 10
7.4026694251
 20
7.0287841496
 30
0.0
 11
7.569702523
 21
6.9323579946
 31
0.0
  0
POLYLINE
  5
27D
330
1F
100
AcDbEntity
  8
0
  6
CONTINUOUS
 62
     7
100
AcDb2dPolyline
 66
     1
 10
0.0
 20
0.0
 30
0.0
  0
VERTEX
  5
5A0
330
27D
100
AcDbEntity
  8
0
  6
CONTINUOUS
 62
     7
100
AcDbVertex
100
AcDb2dVertex
 10
8.2888206848
 20
7.6950854757
 30
0.0
  0
VERTEX
  5
5A1
330
27D
100
AcDbEntity
  8
0
  6
CONTINUOUS
 62
     7
100
AcDbVertex
100
AcDb2dVertex
 10
8.2716418643
 20
7.7041726638
 30
0.0
  0
VERTEX
  5
5A2
330
27D
100
AcDbEntity
  8
0
  6
CONTINUOUS
 62
     7
100
AcDbVertex
100
AcDb2dVertex
 10
8.2514809811
 20
7.7128927222
 30
0.0
  0
VERTEX
  5
5A3
330
27D
100
AcDbEntity
  8
0
  6
CONTINUOUS
 62
     7
100
AcDbVertex
100
AcDb2dVertex
 10
8.2304956178
 20
7.7199937208
 30
0.0
  0
VERTEX
  5
5A4
330
27D
100
AcDbEntity
  8
0
  6
CONTINUOUS
 62
     7
100
AcDbVertex
100
AcDb2dVertex
 10
8.2087343304
 20
7.7254592292
 30
0.0
  0
VERTEX
  5
5A5
330
27D
100
AcDbEntity
  8
0
  6
CONTINUOUS
 62
     7
100
AcDbVertex
100
AcDb2dVertex
 10
8.1862474706
 20
7.7292766012
 30
0.0
  0
VERTEX
  5
5A6
330
27D
100
AcDbEntity
  8
0
  6
CONTINUOUS
 62
     7
100
AcDbVertex
100
AcDb2dVertex
 10
8.163087069
 20
7.7314370041
 30
0.0
  0
VERTEX
  5
5A7
330
27D
100
AcDbEntity
  8
0
  6
CONTINUOUS
 62
     7
100
AcDbVertex
100
AcDb2dVertex
 10
8.1393067145
 20
7.7319354391
 30
0.0
  0
VERTEX
  5
5A8
330
27D
100
AcDbEntity
  8
0
  6
CONTINUOUS
 62
     7
100
AcDbVertex
100
AcDb2dVertex
 10
8.1149614304
 20
7.7307707529
 30
0.0
  0
VERTEX
  5
5A9
330
27D
100
AcDbEntity
  8
0
  6
CONTINUOUS
 62
     7
100
AcDbVertex
100
AcDb2dVertex
 10
8.0901075473
 20
7.7279456405
 30
0.0
  0
VERTEX
  5
5AA
330
27D
100
AcDbEntity
  8
0
  6
CONTINUOUS
 62
     7
100
AcDbVertex
100
AcDb2dVertex
 10
8.0648025724
 20
7.7234666386
 30
0.0
  0
VERTEX
  5
5AB
330
27D
100
AcDbEntity
  8
0
  6
CONTINUOUS
 62
     7
100
AcDbVertex
100
AcDb2dVertex
 10
8.039105057
 20
7.7173441107
 30
0.0
  0
VERTEX
  5
5AC
330
27D
100
AcDbEntity
  8
0
  6
CONTINUOUS
 62
     7
100
AcDbVertex
100
AcDb2dVertex
 10
8.0130744603
 20
7.7095922234
 30
0.0
  0
VERTEX
  5
5AD
330
27D
100
AcDbEntity
  8
0
  6
CONTINUOUS
 62
     7
100
AcDbVertex
100
AcDb2dVertex
 10
7.9867710123
 20
7.700228913
 30
0.0
  0
VERTEX
  5
5AE
330
27D
100
AcDbEntity
  8
0
  6
CONTINUOUS
 62
     7
100
AcDbVertex
100
AcDb2dVertex
 10
7.9602555745
 20
7.6892758445
 30
0.0
  0
VERTEX
  5
5AF
330
27D
100
AcDbEntity
  8
0
  6
CONTINUOUS
 62
     7
100
AcDbVertex
100
AcDb2dVertex
 10
7.9335894987
 20
7.6767583613
 30
0.0
  0
VERTEX
  5
5B0
330
27D
100
AcDbEntity
  8
0
  6
CONTINUOUS
 62
     7
100
AcDbVertex
100
AcDb2dVertex
 10
7.9068344853
 20
7.6627054267
 30
0.0
  0
VERTEX
  5
5B1
330
27D
100
AcDbEntity
  8
0
  6
CONTINUOUS
 62
     7
100
AcDbVertex
100
AcDb2dVertex
 10
7.8800524405
 20
7.6471495564
 30
0.0
  0
VERTEX
  5
5B2
330
27D
100
AcDbEntity
  8
0
  6
CONTINUOUS
 62
     7
100
AcDbVertex
100
AcDb2dVertex
 10
7.8533053331
 20
7.630126744
 30
0.0
  0
VERTEX
  5
5B3
330
27D
100
AcDbEntity
  8
0
  6
CONTINUOUS
 62
     7
100
AcDbVertex
100
AcDb2dVertex
 10
7.826655051
 20
7.6116763772
 30
0.0
  0
VERTEX
  5
5B4
330
27D
100
AcDbEntity
  8
0
  6
CONTINUOUS
 62
     7
100
AcDbVertex
100
AcDb2dVertex
 10
7.800163258
 20
7.5918411466
 30
0.0
  0
VERTEX
  5
5B5
330
27D
100
AcDbEntity
  8
0
  6
CONTINUOUS
 62
     7
100
AcDbVertex
100
AcDb2dVertex
 10
7.7738912514
 20
7.5706669473
 30
0.0
  0
VERTEX
  5
5B6
330
27D
100
AcDbEntity
  8
0
  6
CONTINUOUS
 62
     7
100
AcDbVertex
100
AcDb2dVertex
 10
7.7478998196
 20
7.5482027727
 30
0.0
  0
VERTEX
  5
5B7
330
27D
100
AcDbEntity
  8
0
  6
CONTINUOUS
 62
     7
100
AcDbVertex
100
AcDb2dVertex
 10
7.7222491022
 20
7.5245006007
 30
0.0
  0
VERTEX
  5
5B8
330
27D
100
AcDbEntity
  8
0
  6
CONTINUOUS
 62
     7
100
AcDbVertex
100
AcDb2dVertex
 10
7.6969984502
 20
7.4996152738
 30
0.0
  0
VERTEX
  5
5B9
330
27D
100
AcDbEntity
  8
0
  6
CONTINUOUS
 62
     7
100
AcDbVertex
100
AcDb2dVertex
 10
7.672206289
 20
7.473604372
 30
0.0
  0
VERTEX
  5
5BA
330
27D
100
AcDbEntity
  8
0
  6
CONTINUOUS
 62
     7
100
AcDbVertex
100
AcDb2dVertex
 10
7.647929983
 20
7.4465280798
 30
0.0
  0
VERTEX
  5
5BB
330
27D
100
AcDbEntity
  8
0
  6
CONTINUOUS
 62
     7
100
AcDbVertex
100
AcDb2dVertex
 10
7.6242257034
 20
7.4184490469
 30
0.0
  0
VERTEX
  5
5BC
330
27D
100
AcDbEntity
  8
0
  6
CONTINUOUS
 62
     7
100
AcDbVertex
100
AcDb2dVertex
 10
7.6011482973
 20
7.3894322429
 30
0.0
  0
VERTEX
  5
5BD
330
27D
100
AcDbEntity
  8
0
  6
CONTINUOUS
 62
     7
100
AcDbVertex
100
AcDb2dVertex
 10
7.5787511617
 20
7.3595448074
 30
0.0
  0
VERTEX
  5
5BE
330
27D
100
AcDbEntity
  8
0
  6
CONTINUOUS
 62
     7
100
AcDbVertex
100
AcDb2dVertex
 10
7.5570861195
 20
7.3288558945
 30
0.0
  0
VERTEX
  5
5BF
330
27D
100
AcDbEntity
  8
0
  6
CONTINUOUS
 62
     7
100
AcDbVertex
100
AcDb2dVertex
 10
7.5362032996
 20
7.2974365127
 30
0.0
  0
VERTEX
  5
5C0
330
27D
100
AcDbEntity
  8
0
  6
CONTINUOUS
 62
     7
100
AcDbVertex
100
AcDb2dVertex
 10
7.516151021
 20
7.2653593608
 30
0.0
  0
VERTEX
  5
5C1
330
27D
100
AcDbEntity
  8
0
  6
CONTINUOUS
 62
     7
100
AcDbVertex
100
AcDb2dVertex
 10
7.496975681
 20
7.2326986593
 30
0.0
  0
VERTEX
  5
5C2
330
27D
100
AcDbEntity
  8
0
  6
CONTINUOUS
 62
     7
100
AcDbVertex
100
AcDb2dVertex
 10
7.4787216479
 20
7.1995299791
 30
0.0
  0
VERTEX
  5
5C3
330
27D
100
AcDbEntity
  8
0
  6
CONTINUOUS
 62
     7
100
AcDbVertex
100
AcDb2dVertex
 10
7.4614311582
 20
7.1659300665
 30
0.0
  0
VERTEX
  5
5C4
330
27D
100
AcDbEntity
  8
0
  6
CONTINUOUS
 62
     7
100
AcDbVertex
100
AcDb2dVertex
 10
7.4451442188
 20
7.1319766656
 30
0.0
  0
VERTEX
  5
5C5
330
27D
100
AcDbEntity
  8
0
  6
CONTINUOUS
 62
     7
100
AcDbVertex
100
AcDb2dVertex
 10
7.4298985148
 20
7.0977483382
 30
0.0
  0
VERTEX
  5
5C6
330
27D
100
AcDbEntity
  8
0
  6
CONTINUOUS
 62
     7
100
AcDbVertex
100
AcDb2dVertex
 10
7.4157293219
 20
7.0633242826
 30
0.0
  0
VERTEX
  5
5C7
330
27D
100
AcDbEntity
  8
0
  6
CONTINUOUS
 62
     7
100
AcDbVertex
100
AcDb2dVertex
 10
7.4026694251
 20
7.0287841496
 30
0.0
  0
SEQEND
  5
5C8
330
27D
100
AcDbEntity
  8
0
  6
CONTINUOUS
 62
     7
  0
ARC
  5
27E
330
1F
100
AcDbEntity
  8
0
  6
CONTINUOUS
 62
     7
100
AcDbCircle
 10
7.6426521956
 20
6.5727119432
 30
0.0
 40
0.27971901191385
100
AcDbArc
 50
211.5472367714
 51
239.6897679213
  0
SPLINE
  5
27F
330
1F
100
AcDbEntity
  8
0
  6
CONTINUOUS
 62
     7
100
AcDbSpline
210
0.0
220
0.0
230
1.0
 70
     8
 71
     3
 72
     8
 73
     4
 74
     0
 42
0.00000001
 43
0.00000001
 40
0.0
 40
0.0
 40
0.0
 40
0.0
 40
0.0000825295044264
 40
0.0000825295044264
 40
0.0000825295044264
 40
0.0000825295044264
 10
8.213773645564231
 20
7.098037421556167
 30
0.0
 10
8.214282092274416
 20
7.097082557747957
 30
0.0
 10
8.21479043193522
 20
7.09612764597113
 30
0.0
 10
8.215298663479851
 20
7.095172685873411
 30
0.0
  0
ARC
  5
280
330
1F
100
AcDbEntity
  8
0
  6
CONTINUOUS
 62
     7
100
AcDbCircle
 10
9.0995162236
 20
6.317233561
 30
0.0
 40
1.177722367795432
100
AcDbArc
 50
138.6585165362
 51
177.4166728526
  0
SPLINE
  5
281
330
1F
100
AcDbEntity
  8
0
  6
CONTINUOUS
 62
     7
100
AcDbSpline
210
0.0
220
0.0
230
1.0
 70
     8
 71
     3
 72
     8
 73
     4
 74
     0
 42
0.00000001
 43
0.00000001
 40
0.0
 40
0.0
 40
0.0
 40
0.0
 40
0.0006448980745266
 40
0.0006448980745266
 40
0.0006448980745266
 40
0.0006448980745266
 10
8.192195100015919
 20
7.110496174298548
 30
0.0
 10
8.199388715216768
 20
7.106342814419094
 30
0.0
 10
8.206581584230367
 20
7.102189885012302
 30
0.0
 10
8.213773645564231
 20
7.098037421556167
 30
0.0
  0
SPLINE
  5
282
330
1F
100
AcDbEntity
  8
0
  6
CONTINUOUS
 62
     7
100
AcDbSpline
210
0.0
220
0.0
230
1.0
 70
     8
 71
     3
 72
     8
 73
     4
 74
     0
 42
0.00000001
 43
0.00000001
 40
0.0
 40
0.0
 40
0.0
 40
0.0
 40
0.0005684139100135
 40
0.0005684139100135
 40
0.0005684139100135
 40
0.0005684139100135
 10
8.547647832611856
 20
7.506695107240598
 30
0.0
 10
8.546685361841394
 20
7.501021641729118
 30
0.0
 10
8.545697027868018
 20
7.495346880658441
 30
0.0
 10
8.544681102936607
 20
7.489670977506727
 30
0.0
  0
SPLINE
  5
283
330
1F
100
AcDbEntity
  8
0
  6
CONTINUOUS
 62
     7
100
AcDbSpline
210
0.0
220
0.0
230
1.0
 70
     8
 71
     3
 72
     8
 73
     4
 74
     0
 42
0.00000001
 43
0.00000001
 40
0.0
 40
0.0
 40
0.0
 40
0.0
 40
0.0000825295044264
 40
0.0000825295044264
 40
0.0000825295044264
 40
0.0000825295044264
 10
7.399459156830104
 20
7.030635674458947
 30
0.0
 10
7.399523419600908
 20
7.031259812642958
 30
0.0
 10
7.399587884476876
 20
7.031883943903211
 30
0.0
 10
7.399652553363175
 20
7.032508068107844
 30
0.0
  0
ARC
  5
284
330
1F
100
AcDbEntity
  8
0
  6
CONTINUOUS
 62
     7
100
AcDbCircle
 10
8.515435472
 20
6.655745483
 30
0.0
 40
1.177676342273801
100
AcDbArc
 50
122.588082747
 51
161.3418941199
  0
SPLINE
  5
285
330
1F
100
AcDbEntity
  8
0
  6
CONTINUOUS
 62
     7
100
AcDbSpline
210
0.0
220
0.0
230
1.0
 70
     8
 71
     3
 72
     8
 73
     4
 74
     0
 42
0.00000001
 43
0.00000001
 40
0.0
 40
0.0
 40
0.0
 40
0.0
 40
0.0006448980745266
 40
0.0006448980745266
 40
0.0006448980745266
 40
0.0006448980745266
 10
7.399459156830104
 20
7.030635674458947
 30
0.0
 10
7.400525198233266
 20
7.030020836679856
 30
0.0
 10
7.401595382258312
 20
7.029403607103128
 30
0.0
 10
7.402669425103567
 20
7.028784149584842
 30
0.0
  0
SPLINE
  5
286
330
1F
100
AcDbEntity
  8
0
  6
CONTINUOUS
 62
     7
100
AcDbSpline
210
0.0
220
0.0
230
1.0
 70
     8
 71
     3
 72
     8
 73
     4
 74
     0
 42
0.00000001
 43
0.00000001
 40
0.0
 40
0.0
 40
0.0
 40
0.0
 40
0.0006448980745266
 40
0.0006448980745266
 40
0.0006448980745266
 40
0.0006448980745266
 10
7.566492254748187
 20
6.934209519519255
 30
0.0
 10
7.56755829615135
 20
6.933594681740164
 30
0.0
 10
7.568628480176396
 20
6.932977452163436
 30
0.0
 10
7.56970252302165
 20
6.93235799464515
 30
0.0
  0
ARC
  5
287
330
1F
100
AcDbEntity
  8
0
  6
CONTINUOUS
 62
     7
100
AcDbCircle
 10
8.4781388991
 20
6.5958678693
 30
0.0
 40
0.972854605231374
100
AcDbArc
 50
159.6339967528
 51
179.0862884299
  0
LINE
  5
288
330
1F
100
AcDbEntity
  8
0
  6
CONTINUOUS
 62
     7
100
AcDbLine
 10
7.5664922547
 20
6.9342095195
 30
0.0
 11
7.3994591568
 21
7.0306356745
 31
0.0
  0
LINE
  5
289
330
1F
100
AcDbEntity
  8
0
  6
CONTINUOUS
 62
     7
100
AcDbLine
 10
8.7146809305
 20
7.4102689523
 30
0.0
 11
8.7136092122
 21
7.4041190586
 31
0.0
  0
LINE
  5
28A
330
1F
100
AcDbEntity
  8
0
  6
CONTINUOUS
 62
     7
100
AcDbLine
 10
7.4042731062
 20
6.4263625826
 30
0.0
 11
7.4023900475
 21
6.4342217124
 31
0.0
  0
ENDSEC
  0
SECTION
  2
OBJECTS
  0
DICTIONARY
  5
C
330
0
100
AcDbDictionary
  3
ACAD_GROUP
350
D
  3
ACAD_LAYOUT
350
1A
  3
ACAD_MLEADERSTYLE
350
28D
  3
ACAD_MLINESTYLE
350
17
  3
ACAD_PLOTSETTINGS
350
19
  3
ACAD_SCALELIST
350
6F
  3
ACAD_VISUALSTYLE
350
2A
  3
ACDBVARIABLEDICTIONARY
350
28B
1001
ACAD
1000
TREAT_AS_HARD
1070
     0
  0
DICTIONARY
  5
D
102
{ACAD_REACTORS
330
C
102
}
330
C
100
AcDbDictionary
1001
ACAD
1000
TREAT_AS_HARD
1070
     0
  0
DICTIONARY
  5
1A
102
{ACAD_REACTORS
330
C
102
}
330
C
100
AcDbDictionary
1001
ACAD
1000
TREAT_AS_HARD
1070
     0
  0
DICTIONARY
  5
28D
102
{ACAD_REACTORS
330
C
102
}
330
C
100
AcDbDictionary
1001
ACAD
1000
TREAT_AS_HARD
1070
     0
  0
DICTIONARY
  5
17
102
{ACAD_REACTORS
330
C
102
}
330
C
100
AcDbDictionary
  3
STANDARD
350
18
1001
ACAD
1000
TREAT_AS_HARD
1070
     0
  0
DICTIONARY
  5
19
102
{ACAD_REACTORS
330
C
102
}
330
C
100
AcDbDictionary
1001
ACAD
1000
TREAT_AS_HARD
1070
     0
  0
DICTIONARY
  5
6F
102
{ACAD_REACTORS
330
C
102
}
330
C
100
AcDbDictionary
  3
A0
350
70
  3
A1
350
71
  3
A2
350
72
  3
A3
350
73
  3
A4
350
74
  3
A5
350
75
  3
A6
350
76
  3
A7
350
77
  3
A8
350
78
  3
A9
350
79
  3
B0
350
7A
  3
B1
350
7B
  3
B2
350
7C
  3
B3
350
7D
  3
B4
350
7E
  3
B5
350
7F
  3
B6
350
80
  3
B7
350
81
  3
B8
350
82
  3
B9
350
83
  3
C0
350
84
  3
C1
350
85
  3
C2
350
86
  3
C3
350
87
  3
C4
350
88
  3
C5
350
89
  3
C6
350
8A
  3
C7
350
8B
  3
C8
350
8C
  3
C9
350
8D
  3
D0
350
8E
  3
D1
350
8F
  3
D2
350
90
1001
ACAD
1000
TREAT_AS_HARD
1070
     0
  0
DICTIONARY
  5
2A
102
{ACAD_REACTORS
330
C
102
}
330
C
100
AcDbDictionary
  3
2DWIREFRAME
350
2F
  3
3D_HIDDEN
350
31
  3
3DWIREFRAME
350
30
  3
BASIC
350
32
  3
BRIGHTEN
350
36
  3
COLORCHANGE
350
3A
  3
CONCEPTUAL
350
34
  3
DIM
350
35
  3
FACEPATTERN
350
39
  3
FLAT
350
2B
  3
FLATWITHEDGES
350
2C
  3
GOURAUD
350
2D
  3
GOURAUDWITHEDGES
350
2E
  3
LINEPATTERN
350
38
  3
REALISTIC
350
33
  3
THICKEN
350
37
1001
ACAD
1000
TREAT_AS_HARD
1070
     0
  0
DICTIONARY
  5
28B
102
{ACAD_REACTORS
330
C
102
}
330
C
100
AcDbDictionary
  3
CANNOSCALE
350
28E
  3
DIMASSOC
350
28F
  3
HIDETEXT
350
290
1001
ACAD
1000
TREAT_AS_HARD
1070
     0
  0
MLINESTYLE
  5
18
102
{ACAD_REACTORS
330
17
102
}
330
17
100
AcDbMlineStyle
  2
Standard
 70
     0
  3

 62
   256
 51
90.0
 52
90.0
 71
     2
 49
0.5
 62
   256
  6
BYLAYER
 49
-0.5
 62
   256
  6
BYLAYER
  0
ACAD_PROXY_OBJECT
  5
70
102
{ACAD_REACTORS
330
6F
102
}
330
6F
100
AcDbZombieObject
 90
      499
 91
      502
 93
       41
310
903313A31580
  0
ACAD_PROXY_OBJECT
  5
71
102
{ACAD_REACTORS
330
6F
102
}
330
6F
100
AcDbZombieObject
 90
      499
 91
      502
 93
      105
310
903313A324000000000000004000
  0
ACAD_PROXY_OBJECT
  5
72
102
{ACAD_REACTORS
330
6F
102
}
330
6F
100
AcDbZombieObject
 90
      499
 91
      502
 93
      105
310
903313A344000000000000104000
  0
ACAD_PROXY_OBJECT
  5
73
102
{ACAD_REACTORS
330
6F
102
}
330
6F
100
AcDbZombieObject
 90
      499
 91
      502
 93
      105
310
903313A354000000000000144000
  0
ACAD_PROXY_OBJECT
  5
74
102
{ACAD_REACTORS
330
6F
102
}
330
6F
100
AcDbZombieObject
 90
      499
 91
      502
 93
      105
310
903313A384000000000000204000
  0
ACAD_PROXY_OBJECT
  5
75
102
{ACAD_REACTORS
330
6F
102
}
330
6F
100
AcDbZombieObject
 90
      499
 91
      502
 93
      113
310
904313A31304000000000000244000
  0
ACAD_PROXY_OBJECT
  5
76
102
{ACAD_REACTORS
330
6F
102
}
330
6F
100
AcDbZombieObject
 90
      499
 91
      502
 93
      113
310
904313A31364000000000000304000
  0
ACAD_PROXY_OBJECT
  5
77
102
{ACAD_REACTORS
330
6F
102
}
330
6F
100
AcDbZombieObject
 90
      499
 91
      502
 93
      113
310
904313A32304000000000000344000
  0
ACAD_PROXY_OBJECT
  5
78
102
{ACAD_REACTORS
330
6F
102
}
330
6F
100
AcDbZombieObject
 90
      499
 91
      502
 93
      113
310
904313A333040000000000003E4000
  0
ACAD_PROXY_OBJECT
  5
79
102
{ACAD_REACTORS
330
6F
102
}
330
6F
100
AcDbZombieObject
 90
      499
 91
      502
 93
      113
310
904313A34304000000000000444000
  0
ACAD_PROXY_OBJECT
  5
7A
102
{ACAD_REACTORS
330
6F
102
}
330
6F
100
AcDbZombieObject
 90
      499
 91
      502
 93
      113
310
904313A35304000000000000494000
  0
ACAD_PROXY_OBJECT
  5
7B
102
{ACAD_REACTORS
330
6F
102
}
330
6F
100
AcDbZombieObject
 90
      499
 91
      502
 93
      121
310
905313A3130304000000000000594000
  0
ACAD_PROXY_OBJECT
  5
7C
102
{ACAD_REACTORS
330
6F
102
}
330
6F
100
AcDbZombieObject
 90
      499
 91
      502
 93
      105
310
903323A310000000000000010100
  0
ACAD_PROXY_OBJECT
  5
7D
102
{ACAD_REACTORS
330
6F
102
}
330
6F
100
AcDbZombieObject
 90
      499
 91
      502
 93
      105
310
903343A310000000000000410100
  0
ACAD_PROXY_OBJECT
  5
7E
102
{ACAD_REACTORS
330
6F
102
}
330
6F
100
AcDbZombieObject
 90
      499
 91
      502
 93
      105
310
903383A310000000000000810100
  0
ACAD_PROXY_OBJECT
  5
7F
102
{ACAD_REACTORS
330
6F
102
}
330
6F
100
AcDbZombieObject
 90
      499
 91
      502
 93
      113
310
90431303A310000000000000910100
  0
ACAD_PROXY_OBJECT
  5
80
102
{ACAD_REACTORS
330
6F
102
}
330
6F
100
AcDbZombieObject
 90
      499
 91
      502
 93
      121
310
9053130303A310000000000001650100
  0
ACAD_PROXY_OBJECT
  5
81
102
{ACAD_REACTORS
330
6F
102
}
330
6F
100
AcDbZombieObject
 90
      499
 91
      502
 93
      257
310
90E312F31323822203D2031272D3022000000000000200FC000000000000284000
  0
ACAD_PROXY_OBJECT
  5
82
102
{ACAD_REACTORS
330
6F
102
}
330
6F
100
AcDbZombieObject
 90
      499
 91
      502
 93
      249
310
90D312F363422203D2031272D3022000000000000240FC000000000000284000
  0
ACAD_PROXY_OBJECT
  5
83
102
{ACAD_REACTORS
330
6F
102
}
330
6F
100
AcDbZombieObject
 90
      499
 91
      502
 93
      249
310
90D312F333222203D2031272D3022000000000000280FC000000000000284000
  0
ACAD_PROXY_OBJECT
  5
84
102
{ACAD_REACTORS
330
6F
102
}
330
6F
100
AcDbZombieObject
 90
      499
 91
      502
 93
      249
310
90D312F313622203D2031272D30220000000000002C0FC000000000000284000
  0
ACAD_PROXY_OBJECT
  5
85
102
{ACAD_REACTORS
330
6F
102
}
330
6F
100
AcDbZombieObject
 90
      499
 91
      502
 93
      249
310
90D332F333222203D2031272D30220000000000002E0FC000000000000284000
  0
ACAD_PROXY_OBJECT
  5
86
102
{ACAD_REACTORS
330
6F
102
}
330
6F
100
AcDbZombieObject
 90
      499
 91
      502
 93
      241
310
90C312F3822203D2031272D3022000000000000300FC000000000000284000
  0
ACAD_PROXY_OBJECT
  5
87
102
{ACAD_REACTORS
330
6F
102
}
330
6F
100
AcDbZombieObject
 90
      499
 91
      502
 93
      249
310
90D332F313622203D2031272D3022000000000000320FC000000000000284000
  0
ACAD_PROXY_OBJECT
  5
88
102
{ACAD_REACTORS
330
6F
102
}
330
6F
100
AcDbZombieObject
 90
      499
 91
      502
 93
      241
310
90C312F3422203D2031272D3022000000000000340FC000000000000284000
  0
ACAD_PROXY_OBJECT
  5
89
102
{ACAD_REACTORS
330
6F
102
}
330
6F
100
AcDbZombieObject
 90
      499
 91
      502
 93
      241
310
90C332F3822203D2031272D3022000000000000360FC000000000000284000
  0
ACAD_PROXY_OBJECT
  5
8A
102
{ACAD_REACTORS
330
6F
102
}
330
6F
100
AcDbZombieObject
 90
      499
 91
      502
 93
      241
310
90C312F3222203D2031272D3022000000000000380FC000000000000284000
  0
ACAD_PROXY_OBJECT
  5
8B
102
{ACAD_REACTORS
330
6F
102
}
330
6F
100
AcDbZombieObject
 90
      499
 91
      502
 93
      241
310
90C332F3422203D2031272D30220000000000003A0FC000000000000284000
  0
ACAD_PROXY_OBJECT
  5
8C
102
{ACAD_REACTORS
330
6F
102
}
330
6F
100
AcDbZombieObject
 90
      499
 91
      502
 93
      161
310
90A3122203D2031272D30224000000000000284000
  0
ACAD_PROXY_OBJECT
  5
8D
102
{ACAD_REACTORS
330
6F
102
}
330
6F
100
AcDbZombieObject
 90
      499
 91
      502
 93
      257
310
90E312D312F3222203D2031272D30220000000000003E0FC000000000000284000
  0
ACAD_PROXY_OBJECT
  5
8E
102
{ACAD_REACTORS
330
6F
102
}
330
6F
100
AcDbZombieObject
 90
      499
 91
      502
 93
      225
310
90A3322203D2031272D302200000000000002100000000000000284000
  0
ACAD_PROXY_OBJECT
  5
8F
102
{ACAD_REACTORS
330
6F
102
}
330
6F
100
AcDbZombieObject
 90
      499
 91
      502
 93
      225
310
90A3622203D2031272D302200000000000006100000000000000284000
  0
ACAD_PROXY_OBJECT
  5
90
102
{ACAD_REACTORS
330
6F
102
}
330
6F
100
AcDbZombieObject
 90
      499
 91
      502
 93
      249
310
90D31272D3022203D2031272D30220000000000000A100000000000000284000
  0
ACAD_PROXY_OBJECT
  5
2F
102
{ACAD_REACTORS
330
2A
102
}
330
2A
100
AcDbZombieObject
 90
      499
 91
      501
 93
      436
310
42CC9915DA5C99599C985B595049028333333333333E3BF0000000000000FB0107901411070040501600405405064090741402480A0340
1001
ACAD
1000
AcDbSavedByObjectVersion
1070
     0
  0
ACAD_PROXY_OBJECT
  5
31
102
{ACAD_REACTORS
330
2A
102
}
330
2A
100
AcDbZombieObject
 90
      499
 91
      501
 93
      500
310
424CD108121A5919195B90640502408333333333333E3BF0000000000000FB01079024090700405020000000000001110200405405064090740C02480A0340
1001
ACAD
1000
AcDbSavedByObjectVersion
1070
     0
  0
ACAD_PROXY_OBJECT
  5
30
102
{ACAD_REACTORS
330
2A
102
}
330
2A
100
AcDbZombieObject
 90
      499
 91
      501
 93
      436
310
42CCD915DA5C99599C985B595059028333333333333E3BF0000000000000FB0107901411070040501600405405064090741402480A0340
1001
ACAD
1000
AcDbSavedByObjectVersion
1070
     0
  0
ACAD_PROXY_OBJECT
  5
32
102
{ACAD_REACTORS
330
2A
102
}
330
2A
100
AcDbZombieObject
 90
      499
 91
      501
 93
      388
310
4150985CDA58D07406404333333333333E3BF0000000000000FB0107A41107004050150841D405064090741402480A0350
1001
ACAD
1000
AcDbSavedByObjectVersion
1070
     0
  0
ACAD_PROXY_OBJECT
  5
36
102
{ACAD_REACTORS
330
2A
102
}
330
2A
100
AcDbZombieObject
 90
      499
 91
      501
 93
      428
310
42109C9A59DA1D195B90C409028333333333333E3BF0000000000000FB010790141107004050150841D405064090741402480A029950
1001
ACAD
1000
AcDbSavedByObjectVersion
1070
     0
  0
ACAD_PROXY_OBJECT
  5
3A
102
{ACAD_REACTORS
330
2A
102
}
330
2A
100
AcDbZombieObject
 90
      499
 91
      501
 93
      452
310
42D0DBDB1BDC90DA185B99D95104090240C333333333333E3BF0000000000000FB0108901411070040501508421405064090741402480A0350
1001
ACAD
1000
AcDbSavedByObjectVersion
1070
     0
  0
ACAD_PROXY_OBJECT
  5
34
102
{ACAD_REACTORS
330
2A
102
}
330
2A
100
AcDbZombieObject
 90
      499
 91
      501
 93
      500
310
4290DBDB98D95C1D1D585B10940D028333333333333E3BF0000000000000FB0107902409070040501000000000000111010841D405064090740C02480A0340
1001
ACAD
1000
AcDbSavedByObjectVersion
1070
     0
  0
ACAD_PROXY_OBJECT
  5
35
102
{ACAD_REACTORS
330
2A
102
}
330
2A
100
AcDbZombieObject
 90
      499
 91
      501
 93
      412
310
40D11A5B50B409028333333333333E3BF0000000000000FB010790141107004050150841D405064090741402480A02677FFFFFD0
1001
ACAD
1000
AcDbSavedByObjectVersion
1070
     0
  0
ACAD_PROXY_OBJECT
  5
39
102
{ACAD_REACTORS
330
2A
102
}
330
2A
100
AcDbZombieObject
 90
      499
 91
      501
 93
      444
310
42D19858D95C185D1D195C9B90F409028333333333333E3BF0000000000000FB010790141107004050150841D405064090741402480A0350
1001
ACAD
1000
AcDbSavedByObjectVersion
1070
     0
  0
ACAD_PROXY_OBJECT
  5
2B
102
{ACAD_REACTORS
330
2A
102
}
330
2A
100
AcDbZombieObject
 90
      499
 91
      501
 93
      388
310
41119B185D240901404333333333333E3BF0000000000000F9010740A41107004050150841D405064090741402480A1B50
1001
ACAD
1000
AcDbSavedByObjectVersion
1070
     0
  0
ACAD_PROXY_OBJECT
  5
2C
102
{ACAD_REACTORS
330
2A
102
}
330
2A
100
AcDbZombieObject
 90
      499
 91
      501
 93
      476
310
43519B185D15DA5D1A115919D95CD0140901404333333333333E3BF0000000000000F9010740901411070040501600405405064090741402480A1B50
1001
ACAD
1000
AcDbSavedByObjectVersion
1070
     0
  0
ACAD_PROXY_OBJECT
  5
2D
102
{ACAD_REACTORS
330
2A
102
}
330
2A
100
AcDbZombieObject
 90
      499
 91
      501
 93
      412
310
41D1DBDD5C985D5910240902404333333333333E3BF0000000000000F9010740A411070040501641D405064090741402480A1B50
1001
ACAD
1000
AcDbSavedByObjectVersion
1070
     0
  0
ACAD_PROXY_OBJECT
  5
2E
102
{ACAD_REACTORS
330
2A
102
}
330
2A
100
AcDbZombieObject
 90
      499
 91
      501
 93
      500
310
4411DBDD5C985D5915DA5D1A115919D95CD0340902404333333333333E3BF0000000000000F9010740901411070040501600405405064090741402480A1B50
1001
ACAD
1000
AcDbSavedByObjectVersion
1070
     0
  0
ACAD_PROXY_OBJECT
  5
38
102
{ACAD_REACTORS
330
2A
102
}
330
2A
100
AcDbZombieObject
 90
      499
 91
      501
 93
      444
310
42D31A5B995C185D1D195C9B90E409028333333333333E3BF0000000000000FB010790141107004050750841D405064090741402483A0350
1001
ACAD
1000
AcDbSavedByObjectVersion
1070
     0
  0
ACAD_PROXY_OBJECT
  5
33
102
{ACAD_REACTORS
330
2A
102
}
330
2A
100
AcDbZombieObject
 90
      499
 91
      501
 93
      420
310
425499585B1A5CDD1A58D08409028333333333333E3BF0000000000000FB01079019070040501508421405064090741402480A1B40
1001
ACAD
1000
AcDbSavedByObjectVersion
1070
     0
  0
ACAD_PROXY_OBJECT
  5
37
102
{ACAD_REACTORS
330
2A
102
}
330
2A
100
AcDbZombieObject
 90
      499
 91
      501
 93
      412
310
41D51A1A58DAD95B90D409028333333333333E3BF0000000000000FB010790141107004050150C41D405064090741402480A0350
1001
ACAD
1000
AcDbSavedByObjectVersion
1070
     0
  0
DICTIONARYVAR
  5
28E
102
{ACAD_REACTORS
330
28B
102
}
330
28B
100
DictionaryVariables
280
     0
  1
1:1
  0
DICTIONARYVAR
  5
28F
102
{ACAD_REACTORS
330
28B
102
}
330
28B
100
DictionaryVariables
280
     0
  1
2
  0
DICTIONARYVAR
  5
290
102
{ACAD_REACTORS
330
28B
102
}
330
28B
100
DictionaryVariables
280
     0
  1
1
  0
ENDSEC
  0
EOF
