  0
SECTION
  2
HEADER
  9
$ACADVER
  1
AC1012
  9
$DWGCODEPAGE
  3
ansi_1252
  9
$INSBASE
 10
0.0
 20
0.0
 30
0.0
  9
$EXTMIN
 10
0.0
 20
0.0
 30
0.0
  9
$EXTMAX
 10
11.0
 20
8.5
 30
0.0
  9
$LIMMIN
 10
0.0
 20
0.0
  9
$LIMMAX
 10
11.0
 20
8.5
  9
$ORTHOMODE
 70
     0
  9
$REGENMODE
 70
     1
  9
$FILLMODE
 70
     1
  9
$QTEXTMODE
 70
     0
  9
$MIRRTEXT
 70
     1
  9
$DRAGMODE
 70
     2
  9
$LTSCALE
 40
1.0
  9
$OSMODE
 70
    37
  9
$ATTMODE
 70
     1
  9
$TEXTSIZE
 40
0.125
  9
$TRACEWID
 40
0.05
  9
$TEXTSTYLE
  7
STANDARD
  9
$CLAYER
  8
0
  9
$CELTYPE
  6
BYLAYER
  9
$CECOLOR
 62
   256
  9
$CELTSCALE
 40
1.0
  9
$DELOBJ
 70
     1
  9
$DISPSILH
 70
     0
  9
$DIMSCALE
 40
1.0
  9
$DIMASZ
 40
0.13
  9
$DIMEXO
 40
0.05
  9
$DIMDLI
 40
0.38
  9
$DIMRND
 40
0.0
  9
$DIMDLE
 40
0.0
  9
$DIMEXE
 40
0.125
  9
$DIMTP
 40
0.0
  9
$DIMTM
 40
0.0
  9
$DIMTXT
 40
0.125
  9
$DIMCEN
 40
0.09
  9
$DIMTSZ
 40
0.0
  9
$DIMTOL
 70
     0
  9
$DIMLIM
 70
     0
  9
$DIMTIH
 70
     1
  9
$DIMTOH
 70
     1
  9
$DIMSE1
 70
     0
  9
$DIMSE2
 70
     0
  9
$DIMTAD
 70
     0
  9
$DIMZIN
 70
     0
  9
$DIMBLK
  1

  9
$DIMASO
 70
     1
  9
$DIMSHO
 70
     1
  9
$DIMPOST
  1

  9
$DIMAPOST
  1

  9
$DIMALT
 70
     0
  9
$DIMALTD
 70
     2
  9
$DIMALTF
 40
25.4
  9
$DIMLFAC
 40
1.0
  9
$DIMTOFL
 70
     0
  9
$DIMTVP
 40
0.0
  9
$DIMTIX
 70
     0
  9
$DIMSOXD
 70
     0
  9
$DIMSAH
 70
     0
  9
$DIMBLK1
  1

  9
$DIMBLK2
  1

  9
$DIMSTYLE
  2
STANDARD
  9
$DIMCLRD
 70
     0
  9
$DIMCLRE
 70
     0
  9
$DIMCLRT
 70
     0
  9
$DIMTFAC
 40
1.0
  9
$DIMGAP
 40
0.06
  9
$DIMJUST
 70
     0
  9
$DIMSD1
 70
     0
  9
$DIMSD2
 70
     0
  9
$DIMTOLJ
 70
     1
  9
$DIMTZIN
 70
     0
  9
$DIMALTZ
 70
     0
  9
$DIMALTTZ
 70
     0
  9
$DIMFIT
 70
     3
  9
$DIMUPT
 70
     0
  9
$DIMUNIT
 70
     2
  9
$DIMDEC
 70
     3
  9
$DIMTDEC
 70
     3
  9
$DIMALTU
 70
     2
  9
$DIMALTTD
 70
     2
  9
$DIMTXSTY
  7
STANDARD
  9
$DIMAUNIT
 70
     0
  9
$LUNITS
 70
     2
  9
$LUPREC
 70
     2
  9
$SKETCHINC
 40
0.1
  9
$FILLETRAD
 40
0.5
  9
$AUNITS
 70
     0
  9
$AUPREC
 70
     2
  9
$MENU
  1
.
  9
$ELEVATION
 40
0.0
  9
$PELEVATION
 40
0.0
  9
$THICKNESS
 40
0.0
  9
$LIMCHECK
 70
     0
  9
$CHAMFERA
 40
0.5
  9
$CHAMFERB
 40
0.5
  9
$CHAMFERC
 40
1.0
  9
$CHAMFERD
 40
0.0
  9
$SKPOLY
 70
     0
  9
$TDCREATE
 40
2455784.019845775
  9
$TDUPDATE
 40
2455784.019845787
  9
$TDINDWG
 40
0.0000000116
  9
$TDUSRTIMER
 40
0.0000000116
  9
$USRTIMER
 70
     1
  9
$ANGBASE
 50
0.0
  9
$ANGDIR
 70
     0
  9
$PDMODE
 70
     0
  9
$PDSIZE
 40
-1.0
  9
$PLINEWID
 40
0.0
  9
$COORDS
 70
     1
  9
$SPLFRAME
 70
     0
  9
$SPLINETYPE
 70
     6
  9
$SPLINESEGS
 70
     8
  9
$ATTDIA
 70
     0
  9
$ATTREQ
 70
     1
  9
$HANDLING
 70
     1
  9
$HANDSEED
  5
667
  9
$SURFTAB1
 70
     6
  9
$SURFTAB2
 70
     6
  9
$SURFTYPE
 70
     6
  9
$SURFU
 70
     6
  9
$SURFV
 70
     6
  9
$UCSNAME
  2

  9
$UCSORG
 10
0.0
 20
0.0
 30
0.0
  9
$UCSXDIR
 10
1.0
 20
0.0
 30
0.0
  9
$UCSYDIR
 10
0.0
 20
1.0
 30
0.0
  9
$PUCSNAME
  2

  9
$PUCSORG
 10
0.0
 20
0.0
 30
0.0
  9
$PUCSXDIR
 10
1.0
 20
0.0
 30
0.0
  9
$PUCSYDIR
 10
0.0
 20
1.0
 30
0.0
  9
$USERI1
 70
     0
  9
$USERI2
 70
     0
  9
$USERI3
 70
     0
  9
$USERI4
 70
     0
  9
$USERI5
 70
     0
  9
$USERR1
 40
0.0
  9
$USERR2
 40
0.0
  9
$USERR3
 40
0.0
  9
$USERR4
 40
0.0
  9
$USERR5
 40
0.0
  9
$WORLDVIEW
 70
     1
  9
$SHADEDGE
 70
     3
  9
$SHADEDIF
 70
    70
  9
$TILEMODE
 70
     1
  9
$MAXACTVP
 70
    64
  9
$PINSBASE
 10
0.0
 20
0.0
 30
0.0
  9
$PLIMCHECK
 70
     0
  9
$PEXTMIN
 10
1.0000000000E+20
 20
1.0000000000E+20
 30
1.0000000000E+20
  9
$PEXTMAX
 10
-1.0000000000E+20
 20
-1.0000000000E+20
 30
-1.0000000000E+20
  9
$PLIMMIN
 10
0.0
 20
0.0
  9
$PLIMMAX
 10
12.0
 20
9.0
  9
$UNITMODE
 70
     0
  9
$VISRETAIN
 70
     1
  9
$PLINEGEN
 70
     0
  9
$PSLTSCALE
 70
     1
  9
$TREEDEPTH
 70
  3020
  9
$PICKSTYLE
 70
     1
  9
$CMLSTYLE
  2
STANDARD
  9
$CMLJUST
 70
     0
  9
$CMLSCALE
 40
1.0
  9
$SAVEIMAGES
 70
     1
  0
ENDSEC
  0
SECTION
  2
CLASSES
  0
CLASS
  1
ACDBDICTIONARYWDFLT
  2
AcDbDictionaryWithDefault
  3
ObjectDBX Classes
 90
    32768
280
     0
281
     0
  0
CLASS
  1
VISUALSTYLE
  2
AcDbVisualStyle
  3
ObjectDBX Classes
 90
     4095
280
     0
281
     0
  0
CLASS
  1
SCALE
  2
AcDbScale
  3
ObjectDBX Classes
 90
     1153
280
     0
281
     0
  0
CLASS
  1
DICTIONARYVAR
  2
AcDbDictionaryVar
  3
ObjectDBX Classes
 90
        0
280
     0
281
     0
  0
CLASS
  1
XRECORD
  2
AcDbXrecord
  3
AutoCAD 2000
 90
    32768
280
     0
281
     0
  0
CLASS
  1
LWPOLYLINE
  2
AcDbPolyline
  3
AutoCAD 2000
 90
    32768
280
     0
281
     1
  0
CLASS
  1
HATCH
  2
AcDbHatch
  3
AutoCAD 2000
 90
    32768
280
     0
281
     1
  0
CLASS
  1
ACDBPLACEHOLDER
  2
AcDbPlaceHolder
  3
ObjectDBX Classes
 90
        0
280
     0
281
     0
  0
CLASS
  1
LAYOUT
  2
AcDbLayout
  3
ObjectDBX Classes
 90
        0
280
     0
281
     0
  0
ENDSEC
  0
SECTION
  2
TABLES
  0
TABLE
  2
VPORT
  5
8
330
0
100
AcDbSymbolTable
 70
     1
  0
VPORT
  5
29
330
8
100
AcDbSymbolTableRecord
100
AcDbViewportTableRecord
  2
*ACTIVE
 70
     0
 10
0.0
 20
0.0
 11
1.0
 21
1.0
 12
5.5
 22
4.25
 13
0.0
 23
0.0
 14
0.5
 24
0.5
 15
0.5
 25
0.5
 16
0.0
 26
0.0
 36
1.0
 17
0.0
 27
0.0
 37
0.0
 40
8.5
 41
1.2941176471
 42
50.0
 43
0.0
 44
0.0
 50
0.0
 51
0.0
 71
     0
 72
  2000
 73
     1
 74
     3
 75
     0
 76
     0
 77
     0
 78
     0
  0
ENDTAB
  0
TABLE
  2
LTYPE
  5
5
330
0
100
AcDbSymbolTable
 70
     6
  0
LTYPE
  5
14
330
5
100
AcDbSymbolTableRecord
100
AcDbLinetypeTableRecord
  2
BYBLOCK
 70
     0
  3

 72
    65
 73
     0
 40
0.0
  0
LTYPE
  5
15
330
5
100
AcDbSymbolTableRecord
100
AcDbLinetypeTableRecord
  2
BYLAYER
 70
     0
  3

 72
    65
 73
     0
 40
0.0
  0
LTYPE
  5
16
330
5
100
AcDbSymbolTableRecord
100
AcDbLinetypeTableRecord
  2
CONTINUOUS
 70
     0
  3
Solid line
 72
    65
 73
     0
 40
0.0
  0
LTYPE
  5
3B
330
5
100
AcDbSymbolTableRecord
100
AcDbLinetypeTableRecord
  2
HIDDEN
 70
     0
  3
Hidden __ __ __ __ __ __ __ __ __ __ __ __ __ __
 72
    65
 73
     2
 40
0.075
 49
0.05
 74
     0
 49
-0.025
 74
     0
  0
LTYPE
  5
3C
330
5
100
AcDbSymbolTableRecord
100
AcDbLinetypeTableRecord
  2
PHANTOM
 70
     0
  3
Phantom ______  __  __  ______  __  __  ______
 72
    65
 73
     6
 40
0.5
 49
0.25
 74
     0
 49
-0.05
 74
     0
 49
0.05
 74
     0
 49
-0.05
 74
     0
 49
0.05
 74
     0
 49
-0.05
 74
     0
  0
LTYPE
  5
3D
330
5
100
AcDbSymbolTableRecord
100
AcDbLinetypeTableRecord
  2
CENTER
 70
     0
  3
Center ____ _ ____ _ ____ _ ____ _ ____ _ ____
 72
    65
 73
     4
 40
0.4
 49
0.25
 74
     0
 49
-0.05
 74
     0
 49
0.05
 74
     0
 49
-0.05
 74
     0
  0
LTYPE
  5
3E
330
5
100
AcDbSymbolTableRecord
100
AcDbLinetypeTableRecord
  2
CENTERX2
 70
     0
  3
Center (2x) ________  __  ________  __  _____
 72
    65
 73
     4
 40
0.8
 49
0.5
 74
     0
 49
-0.1
 74
     0
 49
0.1
 74
     0
 49
-0.1
 74
     0
  0
LTYPE
  5
3F
330
5
100
AcDbSymbolTableRecord
100
AcDbLinetypeTableRecord
  2
DOT2
 70
     0
  3
Dot (.5x) ........................................
 72
    65
 73
     2
 40
0.025
 49
0.0
 74
     0
 49
-0.025
 74
     0
  0
ENDTAB
  0
TABLE
  2
LAYER
  5
2
330
0
100
AcDbSymbolTable
 70
     2
  0
LAYER
  5
10
330
2
100
AcDbSymbolTableRecord
100
AcDbLayerTableRecord
  2
0
 70
     0
 62
     7
  6
CONTINUOUS
  0
LAYER
  5
40
330
2
100
AcDbSymbolTableRecord
100
AcDbLayerTableRecord
  2
FORMAT
 70
     0
 62
     7
  6
CONTINUOUS
  0
ENDTAB
  0
TABLE
  2
STYLE
  5
3
330
0
100
AcDbSymbolTable
 70
     4
  0
STYLE
  5
11
330
3
100
AcDbSymbolTableRecord
100
AcDbTextStyleTableRecord
  2
STANDARD
 70
     0
 40
0.0
 41
1.0
 50
0.0
 71
     0
 42
0.2
  3
txt
  4

  0
STYLE
  5
6E
330
3
100
AcDbSymbolTableRecord
100
AcDbTextStyleTableRecord
  2
SLDTEXTSTYLE0
 70
     0
 40
0.0
 41
0.75
 50
0.0
 71
     0
 42
0.2
  3
TXT
  4

  0
STYLE
  5
93
330
3
100
AcDbSymbolTableRecord
100
AcDbTextStyleTableRecord
  2
SLDTEXTSTYLE1
 70
     0
 40
0.0
 41
0.6875
 50
0.0
 71
     0
 42
0.2
  3
TXT
  4

  0
STYLE
  5
99
330
3
100
AcDbSymbolTableRecord
100
AcDbTextStyleTableRecord
  2
SLDTEXTSTYLE2
 70
     0
 40
0.0
 41
0.6944444444
 50
0.0
 71
     0
 42
0.2
  3
TXT
  4

  0
ENDTAB
  0
TABLE
  2
VIEW
  5
6
330
0
100
AcDbSymbolTable
 70
     0
  0
ENDTAB
  0
TABLE
  2
UCS
  5
7
330
0
100
AcDbSymbolTable
 70
     0
  0
ENDTAB
  0
TABLE
  2
APPID
  5
9
330
0
100
AcDbSymbolTable
 70
     1
  0
APPID
  5
12
330
9
100
AcDbSymbolTableRecord
100
AcDbRegAppTableRecord
  2
ACAD
 70
     0
  0
ENDTAB
  0
TABLE
  2
DIMSTYLE
  5
A
330
0
100
AcDbSymbolTable
 70
     1
  0
DIMSTYLE
105
27
330
A
100
AcDbSymbolTableRecord
100
AcDbDimStyleTableRecord
  2
STANDARD
 70
     0
  3

  4

  5

  6

  7

 40
1.0
 41
0.18
 42
0.0625
 43
0.38
 44
0.18
 45
0.0
 46
0.0
 47
0.0
 48
0.0
140
0.18
141
0.09
142
0.0
143
25.4
144
1.0
145
0.0
146
1.0
147
0.09
 71
     0
 72
     0
 73
     1
 74
     1
 75
     0
 76
     0
 77
     0
 78
     0
170
     0
171
     2
172
     0
173
     0
174
     0
175
     0
176
     0
177
     0
178
     0
270
     2
271
     4
272
     4
273
     2
274
     2
340
11
275
     0
280
     0
281
     0
282
     0
283
     1
284
     0
285
     0
286
     0
287
     3
288
     0
  0
ENDTAB
  0
TABLE
  2
BLOCK_RECORD
  5
1
330
0
100
AcDbSymbolTable
 70
     4
  0
BLOCK_RECORD
  5
1F
330
1
100
AcDbSymbolTableRecord
100
AcDbBlockTableRecord
  2
*MODEL_SPACE
  0
BLOCK_RECORD
  5
1B
330
1
100
AcDbSymbolTableRecord
100
AcDbBlockTableRecord
  2
*PAPER_SPACE
  0
BLOCK_RECORD
  5
A8
330
1
100
AcDbSymbolTableRecord
100
AcDbBlockTableRecord
  2
SW_NOTE_0
  0
BLOCK_RECORD
  5
AE
330
1
100
AcDbSymbolTableRecord
100
AcDbBlockTableRecord
  2
SW_NOTE_1
  0
BLOCK_RECORD
  5
C2
330
1
100
AcDbSymbolTableRecord
100
AcDbBlockTableRecord
  2
SW_NOTE_2
  0
ENDTAB
  0
ENDSEC
  0
SECTION
  2
BLOCKS
  0
BLOCK
  5
20
330
1F
100
AcDbEntity
  8
0
100
AcDbBlockBegin
  2
*MODEL_SPACE
 70
     0
 10
0.0
 20
0.0
 30
0.0
  3
*MODEL_SPACE
  1

  0
ENDBLK
  5
21
330
1F
100
AcDbEntity
  8
0
100
AcDbBlockEnd
  0
BLOCK
  5
1C
330
1B
100
AcDbEntity
 67
     1
  8
0
100
AcDbBlockBegin
  2
*PAPER_SPACE
 70
     0
 10
0.0
 20
0.0
 30
0.0
  3
*PAPER_SPACE
  1

  0
ENDBLK
  5
1D
330
1B
100
AcDbEntity
 67
     1
  8
0
100
AcDbBlockEnd
  0
BLOCK
  5
A9
330
A8
100
AcDbEntity
  8
0
100
AcDbBlockBegin
  2
SW_NOTE_0
 70
     0
 10
0.0
 20
0.0
 30
0.0
  3
SW_NOTE_0
  1

  0
MTEXT
  5
AB
330
A8
100
AcDbEntity
  8
0
  6
CONTINUOUS
 62
     0
100
AcDbMText
 10
0.0
 20
0.0773440644
 30
0.0
 40
0.06
 41
0.0
 71
     1
 72
     1
  1
INTERPRET GEOMETRIC
  7
SLDTEXTSTYLE0
  0
MTEXT
  5
AC
330
A8
100
AcDbEntity
  8
0
  6
CONTINUOUS
 62
     0
100
AcDbMText
 10
0.0
 20
-0.0220260102
 30
0.0
 40
0.06
 41
0.0
 71
     1
 72
     1
  1
TOLERANCING PER:
  7
SLDTEXTSTYLE0
  0
ENDBLK
  5
AA
330
A8
100
AcDbEntity
  8
0
100
AcDbBlockEnd
  0
BLOCK
  5
AF
330
AE
100
AcDbEntity
  8
0
100
AcDbBlockBegin
  2
SW_NOTE_1
 70
     0
 10
0.0
 20
0.0
 30
0.0
  3
SW_NOTE_1
  1

  0
MTEXT
  5
B1
330
AE
100
AcDbEntity
  8
0
  6
CONTINUOUS
 62
     0
100
AcDbMText
 10
0.0
 20
0.0837894031
 30
0.0
 40
0.065
 41
0.0
 71
     1
 72
     1
  1
DIMENSIONS ARE IN INCHES
  7
SLDTEXTSTYLE0
  0
MTEXT
  5
B2
330
AE
100
AcDbEntity
  8
0
  6
CONTINUOUS
 62
     0
100
AcDbMText
 10
0.0
 20
-0.0205806729
 30
0.0
 40
0.065
 41
0.0
 71
     1
 72
     1
  1
TOLERANCES:
  7
SLDTEXTSTYLE0
  0
MTEXT
  5
B3
330
AE
100
AcDbEntity
  8
0
  6
CONTINUOUS
 62
     0
100
AcDbMText
 10
0.0
 20
-0.1249507489
 30
0.0
 40
0.065
 41
0.0
 71
     1
 72
     1
  1
FRACTIONAL
  7
SLDTEXTSTYLE0
  0
MTEXT
  5
B4
330
AE
100
AcDbEntity
  8
0
  6
CONTINUOUS
 62
     0
100
AcDbMText
 10
0.5175850875
 20
-0.1249507489
 30
0.0
 40
0.065
 41
0.0
 71
     1
 72
     1
  1
%%p
  7
SLDTEXTSTYLE0
  0
MTEXT
  5
B5
330
AE
100
AcDbEntity
  8
0
  6
CONTINUOUS
 62
     0
100
AcDbMText
 10
0.0
 20
-0.2293208248
 30
0.0
 40
0.065
 41
0.0
 71
     1
 72
     1
  1
ANGULAR: MACH
  7
SLDTEXTSTYLE0
  0
MTEXT
  5
B6
330
AE
100
AcDbEntity
  8
0
  6
CONTINUOUS
 62
     0
100
AcDbMText
 10
0.7233732769
 20
-0.2293208248
 30
0.0
 40
0.065
 41
0.0
 71
     1
 72
     1
  1
%%p
  7
SLDTEXTSTYLE0
  0
MTEXT
  5
B7
330
AE
100
AcDbEntity
  8
0
  6
CONTINUOUS
 62
     0
100
AcDbMText
 10
0.7852857683
 20
-0.2293208248
 30
0.0
 40
0.065
 41
0.0
 71
     1
 72
     1
  1
     BEND 
  7
SLDTEXTSTYLE0
  0
MTEXT
  5
B8
330
AE
100
AcDbEntity
  8
0
  6
CONTINUOUS
 62
     0
100
AcDbMText
 10
1.14784136
 20
-0.2293208248
 30
0.0
 40
0.065
 41
0.0
 71
     1
 72
     1
  1
%%p
  7
SLDTEXTSTYLE0
  0
MTEXT
  5
B9
330
AE
100
AcDbEntity
  8
0
  6
CONTINUOUS
 62
     0
100
AcDbMText
 10
0.0
 20
-0.3336909008
 30
0.0
 40
0.065
 41
0.0
 71
     1
 72
     1
  1
TWO PLACE DECIMAL    
  7
SLDTEXTSTYLE0
  0
MTEXT
  5
BA
330
AE
100
AcDbEntity
  8
0
  6
CONTINUOUS
 62
     0
100
AcDbMText
 10
0.9794349188
 20
-0.3336909008
 30
0.0
 40
0.065
 41
0.0
 71
     1
 72
     1
  1
%%p
  7
SLDTEXTSTYLE0
  0
MTEXT
  5
BB
330
AE
100
AcDbEntity
  8
0
  6
CONTINUOUS
 62
     0
100
AcDbMText
 10
0.0
 20
-0.4380609768
 30
0.0
 40
0.065
 41
0.0
 71
     1
 72
     1
  1
THREE PLACE DECIMAL  
  7
SLDTEXTSTYLE0
  0
MTEXT
  5
BC
330
AE
100
AcDbEntity
  8
0
  6
CONTINUOUS
 62
     0
100
AcDbMText
 10
0.9738038639
 20
-0.4380609768
 30
0.0
 40
0.065
 41
0.0
 71
     1
 72
     1
  1
%%p
  7
SLDTEXTSTYLE0
  0
ENDBLK
  5
B0
330
AE
100
AcDbEntity
  8
0
100
AcDbBlockEnd
  0
BLOCK
  5
C3
330
C2
100
AcDbEntity
  8
0
100
AcDbBlockBegin
  2
SW_NOTE_2
 70
     0
 10
0.0
 20
0.0
 30
0.0
  3
SW_NOTE_2
  1

  0
MTEXT
  5
C5
330
C2
100
AcDbEntity
  8
0
  6
CONTINUOUS
 62
     0
100
AcDbMText
 10
0.0
 20
0.0773440644
 30
0.0
 40
0.06
 41
0.0
 71
     1
 72
     1
  1
THE INFORMATION CONTAINED IN THIS
  7
SLDTEXTSTYLE0
  0
MTEXT
  5
C6
330
C2
100
AcDbEntity
  8
0
  6
CONTINUOUS
 62
     0
100
AcDbMText
 10
0.0
 20
-0.0220260102
 30
0.0
 40
0.06
 41
0.0
 71
     1
 72
     1
  1
DRAWING IS THE SOLE PROPERTY OF
  7
SLDTEXTSTYLE0
  0
MTEXT
  5
C7
330
C2
100
AcDbEntity
  8
0
  6
CONTINUOUS
 62
     0
100
AcDbMText
 10
0.0
 20
-0.1213960848
 30
0.0
 40
0.06
 41
0.0
 71
     1
 72
     1
  1
Candy Controls.  ANY 
  7
SLDTEXTSTYLE0
  0
MTEXT
  5
C8
330
C2
100
AcDbEntity
  8
0
  6
CONTINUOUS
 62
     0
100
AcDbMText
 10
0.0
 20
-0.2207661593
 30
0.0
 40
0.06
 41
0.0
 71
     1
 72
     1
  1
REPRODUCTION IN PART OR AS A WHOLE
  7
SLDTEXTSTYLE0
  0
MTEXT
  5
C9
330
C2
100
AcDbEntity
  8
0
  6
CONTINUOUS
 62
     0
100
AcDbMText
 10
0.0
 20
-0.3201362339
 30
0.0
 40
0.06
 41
0.0
 71
     1
 72
     1
  1
WITHOUT THE WRITTEN PERMISSION OF
  7
SLDTEXTSTYLE0
  0
MTEXT
  5
CA
330
C2
100
AcDbEntity
  8
0
  6
CONTINUOUS
 62
     0
100
AcDbMText
 10
0.0
 20
-0.4195063085
 30
0.0
 40
0.06
 41
0.0
 71
     1
 72
     1
  1
Candy Controls IS 
  7
SLDTEXTSTYLE0
  0
MTEXT
  5
CB
330
C2
100
AcDbEntity
  8
0
  6
CONTINUOUS
 62
     0
100
AcDbMText
 10
0.0
 20
-0.518876383
 30
0.0
 40
0.06
 41
0.0
 71
     1
 72
     1
  1
PROHIBITED.
  7
SLDTEXTSTYLE0
  0
ENDBLK
  5
C4
330
C2
100
AcDbEntity
  8
0
100
AcDbBlockEnd
  0
ENDSEC
  0
SECTION
  2
ENTITIES
  0
LINE
  5
41
330
1F
100
AcDbEntity
  8
0
  6
CONTINUOUS
 62
     7
100
AcDbLine
 10
0.329927
 20
8.1920731707
 30
0.0
 11
10.629927
 21
8.1920731707
 31
0.0
  0
LINE
  5
42
330
1F
100
AcDbEntity
  8
0
  6
CONTINUOUS
 62
     7
100
AcDbLine
 10
0.329927
 20
8.1920731707
 30
0.0
 11
0.329927
 21
0.3920731707
 31
0.0
  0
LINE
  5
43
330
1F
100
AcDbEntity
  8
0
  6
CONTINUOUS
 62
     7
100
AcDbLine
 10
10.629927
 20
0.3920731707
 30
0.0
 11
0.329927
 21
0.3920731707
 31
0.0
  0
LINE
  5
44
330
1F
100
AcDbEntity
  8
0
  6
CONTINUOUS
 62
     7
100
AcDbLine
 10
10.629927
 20
0.3920731707
 30
0.0
 11
10.629927
 21
8.1920731707
 31
0.0
  0
LINE
  5
45
330
1F
100
AcDbEntity
  8
0
  6
CONTINUOUS
 62
     7
100
AcDbLine
 10
4.7981841288
 20
0.3920731707
 30
0.0
 11
4.7981841288
 21
2.3564211366
 31
0.0
  0
LINE
  5
46
330
1F
100
AcDbEntity
  8
0
  6
CONTINUOUS
 62
     7
100
AcDbLine
 10
2.8210345579
 20
2.3564211366
 30
0.0
 11
10.629927
 21
2.3564211366
 31
0.0
  0
LINE
  5
47
330
1F
100
AcDbEntity
  8
0
  6
CONTINUOUS
 62
     7
100
AcDbLine
 10
6.1796352514
 20
2.3564211366
 30
0.0
 11
6.1796352514
 21
0.3920731707
 31
0.0
  0
LINE
  5
48
330
1F
100
AcDbEntity
  8
0
  6
CONTINUOUS
 62
     7
100
AcDbLine
 10
7.8712070044
 20
2.3564211366
 30
0.0
 11
7.8712070044
 21
0.3920731707
 31
0.0
  0
LINE
  5
49
330
1F
100
AcDbEntity
  8
0
  6
CONTINUOUS
 62
     7
100
AcDbLine
 10
7.8712070044
 20
0.6049590101
 30
0.0
 11
10.629927
 21
0.6049590101
 31
0.0
  0
LINE
  5
4A
330
1F
100
AcDbEntity
  8
0
  6
CONTINUOUS
 62
     7
100
AcDbLine
 10
7.8712070044
 20
1.1119362457
 30
0.0
 11
10.629927
 21
1.1119362457
 31
0.0
  0
LINE
  5
4B
330
1F
100
AcDbEntity
  8
0
  6
CONTINUOUS
 62
     7
100
AcDbLine
 10
7.8712070044
 20
1.9892703708
 30
0.0
 11
10.629927
 21
1.9892703708
 31
0.0
  0
LINE
  5
4C
330
1F
100
AcDbEntity
  8
0
  6
CONTINUOUS
 62
     7
100
AcDbLine
 10
8.266751752
 20
1.1119362457
 30
0.0
 11
8.266751752
 21
0.6049590101
 31
0.0
  0
LINE
  5
4D
330
1F
100
AcDbEntity
  8
0
  6
CONTINUOUS
 62
     7
100
AcDbLine
 10
8.6943435176
 20
0.6049590101
 30
0.0
 11
8.6943435176
 21
0.3920731707
 31
0.0
  0
LINE
  5
4E
330
1F
100
AcDbEntity
  8
0
  6
CONTINUOUS
 62
     7
100
AcDbLine
 10
10.0579917045
 20
1.1119362457
 30
0.0
 11
10.0579917045
 21
0.6049590101
 31
0.0
  0
LINE
  5
4F
330
1F
100
AcDbEntity
  8
0
  6
CONTINUOUS
 62
     7
100
AcDbLine
 10
9.6662556631
 20
0.6049590101
 30
0.0
 11
9.6662556631
 21
0.3920731707
 31
0.0
  0
LINE
  5
50
330
1F
100
AcDbEntity
  8
0
  6
CONTINUOUS
 62
     7
100
AcDbLine
 10
2.8210345579
 20
0.5883479999
 30
0.0
 11
6.1796352514
 21
0.5883479999
 31
0.0
  0
LINE
  5
51
330
1F
100
AcDbEntity
  8
0
  6
CONTINUOUS
 62
     7
100
AcDbLine
 10
6.1796352514
 20
1.7939211366
 30
0.0
 11
7.8712070044
 21
1.7939211366
 31
0.0
  0
LINE
  5
52
330
1F
100
AcDbEntity
  8
0
  6
CONTINUOUS
 62
     7
100
AcDbLine
 10
6.1796352514
 20
1.9814211366
 30
0.0
 11
7.8712070044
 21
1.9814211366
 31
0.0
  0
LINE
  5
53
330
1F
100
AcDbEntity
  8
0
  6
CONTINUOUS
 62
     7
100
AcDbLine
 10
6.1796352514
 20
2.1689211366
 30
0.0
 11
7.8712070044
 21
2.1689211366
 31
0.0
  0
LINE
  5
54
330
1F
100
AcDbEntity
  8
0
  6
CONTINUOUS
 62
     7
100
AcDbLine
 10
7.8712070044
 20
1.2314211366
 30
0.0
 11
6.1796352514
 21
1.2314211366
 31
0.0
  0
LINE
  5
55
330
1F
100
AcDbEntity
  8
0
  6
CONTINUOUS
 62
     7
100
AcDbLine
 10
7.3921580388
 20
2.3564211366
 30
0.0
 11
7.3921580388
 21
1.2314211366
 31
0.0
  0
LINE
  5
56
330
1F
100
AcDbEntity
  8
0
  6
CONTINUOUS
 62
     7
100
AcDbLine
 10
6.9236308342
 20
2.3564211366
 30
0.0
 11
6.9236308342
 21
1.2314211366
 31
0.0
  0
LINE
  5
57
330
1F
100
AcDbEntity
  8
0
  6
CONTINUOUS
 62
     7
100
AcDbLine
 10
4.7981841288
 20
0.8557965305
 30
0.0
 11
6.1796352514
 21
0.8557965305
 31
0.0
  0
LINE
  5
58
330
1F
100
AcDbEntity
  8
0
  6
CONTINUOUS
 62
     7
100
AcDbLine
 10
4.7981841288
 20
1.1257965305
 30
0.0
 11
6.1796352514
 21
1.1257965305
 31
0.0
  0
LINE
  5
59
330
1F
100
AcDbEntity
  8
0
  6
CONTINUOUS
 62
     7
100
AcDbLine
 10
2.8210345579
 20
0.3920731707
 30
0.0
 11
2.8210345579
 21
2.3564211366
 31
0.0
  0
LINE
  5
5A
330
1F
100
AcDbEntity
  8
0
  6
CONTINUOUS
 62
     7
100
AcDbLine
 10
2.8210345579
 20
1.1064211366
 30
0.0
 11
4.7981841288
 21
1.1064211366
 31
0.0
  0
LINE
  5
5B
330
1F
100
AcDbEntity
  8
0
  6
CONTINUOUS
 62
     7
100
AcDbLine
 10
2.8210345579
 20
1.3564211366
 30
0.0
 11
4.7981841288
 21
1.3564211366
 31
0.0
  0
LINE
  5
5C
330
1F
100
AcDbEntity
  8
0
  6
CONTINUOUS
 62
     7
100
AcDbLine
 10
2.8210345579
 20
1.6064211366
 30
0.0
 11
4.7981841288
 21
1.6064211366
 31
0.0
  0
LINE
  5
5D
330
1F
100
AcDbEntity
  8
0
  6
CONTINUOUS
 62
     7
100
AcDbLine
 10
2.8210345579
 20
1.8564211366
 30
0.0
 11
4.7981841288
 21
1.8564211366
 31
0.0
  0
LINE
  5
5E
330
1F
100
AcDbEntity
  8
0
  6
CONTINUOUS
 62
     7
100
AcDbLine
 10
3.8190146875
 20
2.3564211366
 30
0.0
 11
3.8190146875
 21
0.5883479999
 31
0.0
  0
LINE
  5
5F
330
1F
100
AcDbEntity
  8
0
  6
CONTINUOUS
 62
     7
100
AcDbLine
 10
6.1796352514
 20
2.2020813496
 30
0.0
 11
4.7981841288
 21
2.2020813496
 31
0.0
  0
LINE
  5
60
330
1F
100
AcDbEntity
  8
0
  6
CONTINUOUS
 62
     7
100
AcDbLine
 10
7.8712070044
 20
1.6064211366
 30
0.0
 11
6.1796352514
 21
1.6064211366
 31
0.0
  0
LINE
  5
61
330
1F
100
AcDbEntity
  8
0
  6
CONTINUOUS
 62
     7
100
AcDbLine
 10
7.8712070044
 20
1.4189211366
 30
0.0
 11
6.1796352514
 21
1.4189211366
 31
0.0
  0
LINE
  5
62
330
1F
100
AcDbEntity
  8
0
  6
CONTINUOUS
 62
     7
100
AcDbLine
 10
2.8210345579
 20
2.1064211366
 30
0.0
 11
4.7981841288
 21
2.1064211366
 31
0.0
  0
LINE
  5
63
330
1F
100
AcDbEntity
  8
0
  6
CONTINUOUS
 62
     7
100
AcDbLine
 10
4.7981841288
 20
1.3957965305
 30
0.0
 11
6.1796352514
 21
1.3957965305
 31
0.0
  0
LINE
  5
64
330
1F
100
AcDbEntity
  8
0
  6
CONTINUOUS
 62
     7
100
AcDbLine
 10
2.8210345579
 20
0.8564211366
 30
0.0
 11
4.7981841288
 21
0.8564211366
 31
0.0
  0
LINE
  5
65
330
1F
100
AcDbEntity
  8
0
  6
CONTINUOUS
 62
     7
100
AcDbLine
 10
1.1838252943
 20
0.3920731707
 30
0.0
 11
1.1838252943
 21
1.3064211366
 31
0.0
  0
LINE
  5
66
330
1F
100
AcDbEntity
  8
0
  6
CONTINUOUS
 62
     7
100
AcDbLine
 10
2.8210345579
 20
1.3064211366
 30
0.0
 11
1.1838252943
 21
1.3064211366
 31
0.0
  0
LINE
  5
67
330
1F
100
AcDbEntity
  8
0
  6
CONTINUOUS
 62
     7
100
AcDbLine
 10
8.660927
 20
0.3920731707
 30
0.0
 11
8.660927
 21
0.3072739649
 31
0.0
  0
LINE
  5
68
330
1F
100
AcDbEntity
  8
0
  6
CONTINUOUS
 62
     7
100
AcDbLine
 10
6.692177
 20
0.3920731707
 30
0.0
 11
6.692177
 21
0.3072739649
 31
0.0
  0
LINE
  5
69
330
1F
100
AcDbEntity
  8
0
  6
CONTINUOUS
 62
     7
100
AcDbLine
 10
4.723427
 20
0.3920731707
 30
0.0
 11
4.723427
 21
0.3072739649
 31
0.0
  0
LINE
  5
6A
330
1F
100
AcDbEntity
  8
0
  6
CONTINUOUS
 62
     7
100
AcDbLine
 10
2.754677
 20
0.3920731707
 30
0.0
 11
2.754677
 21
0.3072739649
 31
0.0
  0
LINE
  5
6B
330
1F
100
AcDbEntity
  8
0
  6
CONTINUOUS
 62
     7
100
AcDbLine
 10
2.754677
 20
0.3920731707
 30
0.0
 11
2.7672319738
 21
0.3575
 31
0.0
  0
LINE
  5
6C
330
1F
100
AcDbEntity
  8
0
  6
CONTINUOUS
 62
     7
100
AcDbLine
 10
2.7672319738
 20
0.3575
 30
0.0
 11
2.7414258825
 21
0.3575
 31
0.0
  0
LINE
  5
6D
330
1F
100
AcDbEntity
  8
0
  6
CONTINUOUS
 62
     7
100
AcDbLine
 10
2.7414258825
 20
0.3575
 30
0.0
 11
2.754677
 21
0.3920731707
 31
0.0
  0
MTEXT
  5
91
330
1F
100
AcDbEntity
  8
0
  6
CONTINUOUS
 62
     7
100
AcDbMText
 10
4.9775846961
 20
0.5178452352
 30
0.0
 40
0.0625
 41
0.0
 71
     1
 72
     1
  1
DO NOT SCALE DRAWING
  7
SLDTEXTSTYLE0
  0
MTEXT
  5
92
330
1F
100
AcDbEntity
  8
0
  6
CONTINUOUS
 62
     7
100
AcDbMText
 10
8.5721466663
 20
0.9417064595
 30
0.0
 40
0.125
 41
0.0
 71
     1
 72
     1
  1
CL4-32_CLAMP
  7
SLDTEXTSTYLE0
  0
MTEXT
  5
94
330
1F
100
AcDbEntity
  8
0
  6
CONTINUOUS
 62
     7
100
AcDbMText
 10
9.7571278483
 20
0.5524239532
 30
0.0
 40
0.1
 41
0.0
 71
     1
 72
     1
  1
SHEET 1 OF 1
  7
SLDTEXTSTYLE1
  0
MTEXT
  5
95
330
1F
100
AcDbEntity
  8
0
  6
CONTINUOUS
 62
     7
100
AcDbMText
 10
4.8448077858
 20
2.3132954224
 30
0.0
 40
0.07
 41
0.0
 71
     1
 72
     1
  1
UNLESS OTHERWISE SPECIFIED:
  7
SLDTEXTSTYLE0
  0
MTEXT
  5
96
330
1F
100
AcDbEntity
  8
0
  6
CONTINUOUS
 62
     7
100
AcDbMText
 10
7.9586139647
 20
0.5520987879
 30
0.0
 40
0.1
 41
0.0
 71
     1
 72
     1
  1
SCALE: 1:1
  7
SLDTEXTSTYLE0
  0
MTEXT
  5
97
330
1F
100
AcDbEntity
  8
0
  6
CONTINUOUS
 62
     7
100
AcDbMText
 10
8.7023691647
 20
0.5486763345
 30
0.0
 40
0.1
 41
0.0
 71
     1
 72
     1
  1
WEIGHT: 
  7
SLDTEXTSTYLE0
  0
MTEXT
  5
98
330
1F
100
AcDbEntity
  8
0
  6
CONTINUOUS
 62
     7
100
AcDbMText
 10
10.2277580983
 20
1.081966299
 30
0.0
 40
0.1
 41
0.0
 71
     1
 72
     1
  1
REV
  7
SLDTEXTSTYLE0
  0
MTEXT
  5
9A
330
1F
100
AcDbEntity
  8
0
  6
CONTINUOUS
 62
     7
100
AcDbMText
 10
8.2984570898
 20
1.0858725293
 30
0.0
 40
0.1
 41
0.0
 71
     1
 72
     1
  1
DWG.  NO.
  7
SLDTEXTSTYLE2
  0
MTEXT
  5
9B
330
1F
100
AcDbEntity
  8
0
  6
CONTINUOUS
 62
     7
100
AcDbMText
 10
7.9598482632
 20
0.9442140768
 30
0.0
 40
0.25
 41
0.0
 71
     1
 72
     1
  1
A
  7
SLDTEXTSTYLE0
  0
MTEXT
  5
9C
330
1F
100
AcDbEntity
  8
0
  6
CONTINUOUS
 62
     7
100
AcDbMText
 10
7.9519581822
 20
1.0872713483
 30
0.0
 40
0.1
 41
0.0
 71
     1
 72
     1
  1
SIZE
  7
SLDTEXTSTYLE0
  0
MTEXT
  5
9D
330
1F
100
AcDbEntity
  8
0
  6
CONTINUOUS
 62
     7
100
AcDbMText
 10
7.9170704177
 20
1.9547881128
 30
0.0
 40
0.1
 41
0.0
 71
     1
 72
     1
  1
TITLE:
  7
SLDTEXTSTYLE0
  0
MTEXT
  5
9E
330
1F
100
AcDbEntity
  8
0
  6
CONTINUOUS
 62
     7
100
AcDbMText
 10
7.0363774929
 20
2.2906161274
 30
0.0
 40
0.065
 41
0.0
 71
     1
 72
     1
  1
NAME
  7
SLDTEXTSTYLE0
  0
MTEXT
  5
9F
330
1F
100
AcDbEntity
  8
0
  6
CONTINUOUS
 62
     7
100
AcDbMText
 10
7.5281510634
 20
2.2888799118
 30
0.0
 40
0.065
 41
0.0
 71
     1
 72
     1
  1
DATE
  7
SLDTEXTSTYLE0
  0
MTEXT
  5
A0
330
1F
100
AcDbEntity
  8
0
  6
CONTINUOUS
 62
     7
100
AcDbMText
 10
6.2277147029
 20
1.1876913145
 30
0.0
 40
0.065
 41
0.0
 71
     1
 72
     1
  1
COMMENTS:
  7
SLDTEXTSTYLE0
  0
MTEXT
  5
A1
330
1F
100
AcDbEntity
  8
0
  6
CONTINUOUS
 62
     7
100
AcDbMText
 10
6.2268411461
 20
1.3536101679
 30
0.0
 40
0.065
 41
0.0
 71
     1
 72
     1
  1
Q.A.
  7
SLDTEXTSTYLE0
  0
MTEXT
  5
A2
330
1F
100
AcDbEntity
  8
0
  6
CONTINUOUS
 62
     7
100
AcDbMText
 10
6.2284654509
 20
1.5395328424
 30
0.0
 40
0.065
 41
0.0
 71
     1
 72
     1
  1
MFG APPR.
  7
SLDTEXTSTYLE0
  0
MTEXT
  5
A3
330
1F
100
AcDbEntity
  8
0
  6
CONTINUOUS
 62
     7
100
AcDbMText
 10
6.2235171344
 20
1.7267501785
 30
0.0
 40
0.065
 41
0.0
 71
     1
 72
     1
  1
ENG APPR.
  7
SLDTEXTSTYLE0
  0
MTEXT
  5
A4
330
1F
100
AcDbEntity
  8
0
  6
CONTINUOUS
 62
     7
100
AcDbMText
 10
6.2264103951
 20
1.9092699088
 30
0.0
 40
0.065
 41
0.0
 71
     1
 72
     1
  1
CHECKED
  7
SLDTEXTSTYLE0
  0
MTEXT
  5
A5
330
1F
100
AcDbEntity
  8
0
  6
CONTINUOUS
 62
     7
100
AcDbMText
 10
6.2242794356
 20
2.1016301232
 30
0.0
 40
0.065
 41
0.0
 71
     1
 72
     1
  1
DRAWN
  7
SLDTEXTSTYLE0
  0
MTEXT
  5
A6
330
1F
100
AcDbEntity
  8
0
  6
CONTINUOUS
 62
     7
100
AcDbMText
 10
4.8208600979
 20
0.834523235
 30
0.0
 40
0.06
 41
0.0
 71
     1
 72
     1
  1
FINISH
  7
SLDTEXTSTYLE0
  0
MTEXT
  5
A7
330
1F
100
AcDbEntity
  8
0
  6
CONTINUOUS
 62
     7
100
AcDbMText
 10
4.8181240648
 20
1.1028217587
 30
0.0
 40
0.06
 41
0.0
 71
     1
 72
     1
  1
MATERIAL
  7
SLDTEXTSTYLE0
  0
INSERT
  5
AD
330
1F
100
AcDbEntity
  8
0
  6
CONTINUOUS
 62
     7
100
AcDbBlockReference
  2
SW_NOTE_0
 10
4.8231926633
 20
1.2646542947
 30
0.0
  0
INSERT
  5
BD
330
1F
100
AcDbEntity
  8
0
  6
CONTINUOUS
 62
     7
100
AcDbBlockReference
  2
SW_NOTE_1
 10
4.8353339353
 20
2.0049168724
 30
0.0
  0
MTEXT
  5
BE
330
1F
100
AcDbEntity
  8
0
  6
CONTINUOUS
 62
     7
100
AcDbMText
 10
3.5531400086
 20
0.5200091997
 30
0.0
 40
0.0625
 41
0.0
 71
     1
 72
     1
  1
APPLICATION
  7
SLDTEXTSTYLE0
  0
MTEXT
  5
BF
330
1F
100
AcDbEntity
  8
0
  6
CONTINUOUS
 62
     7
100
AcDbMText
 10
4.1005607758
 20
0.7502454275
 30
0.0
 40
0.0625
 41
0.0
 71
     1
 72
     1
  1
USED ON
  7
SLDTEXTSTYLE0
  0
MTEXT
  5
C0
330
1F
100
AcDbEntity
  8
0
  6
CONTINUOUS
 62
     7
100
AcDbMText
 10
3.1040019536
 20
0.7492094783
 30
0.0
 40
0.0625
 41
0.0
 71
     1
 72
     1
  1
NEXT ASSY
  7
SLDTEXTSTYLE0
  0
MTEXT
  5
C1
330
1F
100
AcDbEntity
  8
0
  6
CONTINUOUS
 62
     7
100
AcDbMText
 10
1.3712489489
 20
1.2496672684
 30
0.0
 40
0.06
 41
0.0
 71
     1
 72
     1
  1
PROPRIETARY AND CONFIDENTIAL
  7
SLDTEXTSTYLE0
  0
INSERT
  5
CC
330
1F
100
AcDbEntity
  8
0
  6
CONTINUOUS
 62
     7
100
AcDbBlockReference
  2
SW_NOTE_2
 10
1.2226209074
 20
1.0313492921
 30
0.0
  0
MTEXT
  5
CD
330
1F
100
AcDbEntity
  8
0
  6
CONTINUOUS
 62
     7
100
AcDbMText
 10
1.7387909509
 20
0.3105864247
 30
0.0
 40
0.09375
 41
0.0
 71
     1
 72
     1
  1
5
  7
SLDTEXTSTYLE0
  0
MTEXT
  5
CE
330
1F
100
AcDbEntity
  8
0
  6
CONTINUOUS
 62
     7
100
AcDbMText
 10
3.723800327
 20
0.3137237518
 30
0.0
 40
0.09375
 41
0.0
 71
     1
 72
     1
  1
4
  7
SLDTEXTSTYLE0
  0
MTEXT
  5
CF
330
1F
100
AcDbEntity
  8
0
  6
CONTINUOUS
 62
     7
100
AcDbMText
 10
5.6324457277
 20
0.3116191842
 30
0.0
 40
0.09375
 41
0.0
 71
     1
 72
     1
  1
3
  7
SLDTEXTSTYLE0
  0
MTEXT
  5
D0
330
1F
100
AcDbEntity
  8
0
  6
CONTINUOUS
 62
     7
100
AcDbMText
 10
7.6059721724
 20
0.3124391351
 30
0.0
 40
0.09375
 41
0.0
 71
     1
 72
     1
  1
2
  7
SLDTEXTSTYLE0
  0
MTEXT
  5
D1
330
1F
100
AcDbEntity
  8
0
  6
CONTINUOUS
 62
     7
100
AcDbMText
 10
9.6619921328
 20
0.301372012
 30
0.0
 40
0.09375
 41
0.0
 71
     1
 72
     1
  1
1
  7
SLDTEXTSTYLE0
  0
LINE
  5
D2
330
1F
100
AcDbEntity
  8
0
  6
CONTINUOUS
 62
     7
100
AcDbLine
 10
3.8154812477
 20
3.1287570265
 30
0.0
 11
4.1927778357
 21
3.1287570265
 31
0.0
  0
LINE
  5
D3
330
1F
100
AcDbEntity
  8
0
  6
CONTINUOUS
 62
     7
100
AcDbLine
 10
3.6087883344
 20
3.1287570265
 30
0.0
 11
3.7957962084
 21
3.1287570265
 31
0.0
  0
LINE
  5
D4
330
1F
100
AcDbEntity
  8
0
  6
CONTINUOUS
 62
     7
100
AcDbLine
 10
3.7957962084
 20
4.3885995462
 30
0.0
 11
3.6087883344
 21
4.3885995462
 31
0.0
  0
LINE
  5
D5
330
1F
100
AcDbEntity
  8
0
  6
CONTINUOUS
 62
     7
100
AcDbLine
 10
4.1927778357
 20
4.3885995462
 30
0.0
 11
3.8154812477
 21
4.3885995462
 31
0.0
  0
LINE
  5
D6
330
1F
100
AcDbEntity
  8
0
  6
CONTINUOUS
 62
     7
100
AcDbLine
 10
4.1927778357
 20
3.1287570265
 30
0.0
 11
4.212462875
 21
3.1484420659
 31
0.0
  0
LINE
  5
D7
330
1F
100
AcDbEntity
  8
0
  6
CONTINUOUS
 62
     7
100
AcDbLine
 10
4.212462875
 20
4.3689145069
 30
0.0
 11
4.1927778357
 21
4.3885995462
 31
0.0
  0
LINE
  5
D8
330
1F
100
AcDbEntity
  8
0
  6
CONTINUOUS
 62
     7
100
AcDbLine
 10
3.6087883344
 20
4.3885995462
 30
0.0
 11
3.589103295
 21
4.3689145069
 31
0.0
  0
LINE
  5
D9
330
1F
100
AcDbEntity
  8
0
  6
CONTINUOUS
 62
     7
100
AcDbLine
 10
3.589103295
 20
3.1484420659
 30
0.0
 11
3.6087883344
 21
3.1287570265
 31
0.0
  0
LINE
  5
DA
330
1F
100
AcDbEntity
  8
0
  6
CONTINUOUS
 62
     7
100
AcDbLine
 10
2.9591820351
 20
3.1287570265
 30
0.0
 11
3.5694182556
 21
3.1287570265
 31
0.0
  0
LINE
  5
DB
330
1F
100
AcDbEntity
  8
0
  6
CONTINUOUS
 62
     7
100
AcDbLine
 10
3.5694182556
 20
4.3885995462
 30
0.0
 11
2.9591820351
 21
4.3885995462
 31
0.0
  0
LINE
  5
DC
330
1F
100
AcDbEntity
  8
0
  6
CONTINUOUS
 62
     7
100
AcDbLine
 10
2.9591820351
 20
4.3885995462
 30
0.0
 11
2.9394969958
 21
4.3689145069
 31
0.0
  0
LINE
  5
DD
330
1F
100
AcDbEntity
  8
0
  6
CONTINUOUS
 62
     7
100
AcDbLine
 10
2.9394969958
 20
3.1484420659
 30
0.0
 11
2.9591820351
 21
3.1287570265
 31
0.0
  0
LINE
  5
DE
330
1F
100
AcDbEntity
  8
0
  6
CONTINUOUS
 62
     7
100
AcDbLine
 10
3.5694182556
 20
3.1287570265
 30
0.0
 11
3.589103295
 21
3.1484420659
 31
0.0
  0
LINE
  5
DF
330
1F
100
AcDbEntity
  8
0
  6
CONTINUOUS
 62
     7
100
AcDbLine
 10
3.589103295
 20
4.3689145069
 30
0.0
 11
3.5694182556
 21
4.3885995462
 31
0.0
  0
ARC
  5
E0
330
1F
100
AcDbEntity
  8
0
  6
CONTINUOUS
 62
     7
100
AcDbCircle
 10
3.9073447648
 20
4.2212767116
 30
0.0
 40
0.0098425196850397
100
AcDbArc
 50
90.0
 51
134.9829034806
  0
ARC
  5
E1
330
1F
100
AcDbEntity
  8
0
  6
CONTINUOUS
 62
     7
100
AcDbCircle
 10
4.1632502766
 20
4.2212767116
 30
0.0
 40
0.0098425196850399
100
AcDbArc
 50
45.6344353059
 51
90.0
  0
LINE
  5
E2
330
1F
100
AcDbEntity
  8
0
  6
CONTINUOUS
 62
     7
100
AcDbLine
 10
4.1140376782
 20
3.7488357667
 30
0.0
 11
4.1140376782
 21
3.7685208061
 31
0.0
  0
LINE
  5
E3
330
1F
100
AcDbEntity
  8
0
  6
CONTINUOUS
 62
     7
100
AcDbLine
 10
3.9565573632
 20
3.7685208061
 30
0.0
 11
3.9565573632
 21
3.7488357667
 31
0.0
  0
LINE
  5
E4
330
1F
100
AcDbEntity
  8
0
  6
CONTINUOUS
 62
     7
100
AcDbLine
 10
2.9394969958
 20
4.3885995462
 30
0.0
 11
2.4604943711
 21
4.3885995462
 31
0.0
  0
LINE
  5
E5
330
1F
100
AcDbEntity
  8
0
  6
CONTINUOUS
 62
     7
100
AcDbLine
 10
2.8574759984
 20
3.1287570265
 30
0.0
 11
2.9198119564
 21
3.1287570265
 31
0.0
  0
LINE
  5
E6
330
1F
100
AcDbEntity
  8
0
  6
CONTINUOUS
 62
     7
100
AcDbLine
 10
2.4604943711
 20
4.3885995462
 30
0.0
 11
2.4408093317
 21
4.3689145069
 31
0.0
  0
LINE
  5
E7
330
1F
100
AcDbEntity
  8
0
  6
CONTINUOUS
 62
     7
100
AcDbLine
 10
2.9198119564
 20
3.1287570265
 30
0.0
 11
2.9394969958
 21
3.1484420659
 31
0.0
  0
LINE
  5
E8
330
1F
100
AcDbEntity
  8
0
  6
CONTINUOUS
 62
     7
100
AcDbLine
 10
3.7334602504
 20
4.3042060998
 30
0.0
 11
3.7334602504
 21
3.213150473
 31
0.0
  0
SPLINE
  5
E9
330
1F
100
AcDbEntity
  8
0
  6
CONTINUOUS
 62
     7
100
AcDbSpline
210
0.0
220
0.0
230
1.0
 70
     8
 71
     3
 72
     8
 73
     4
 74
     0
 42
0.00000001
 43
0.00000001
 40
0.0
 40
0.0
 40
0.0
 40
0.0
 40
0.0007661375841575
 40
0.0007661375841575
 40
0.0007661375841575
 40
0.0007661375841575
 10
3.733460250366181
 20
3.213150472984527
 30
0.0
 10
3.726878166616364
 20
3.220750808634097
 30
0.0
 10
3.720315679468342
 20
3.22836817042407
 30
0.0
 10
3.713775210996101
 20
3.236004347519932
 30
0.0
  0
LINE
  5
EA
330
1F
100
AcDbEntity
  8
0
  6
CONTINUOUS
 62
     7
100
AcDbLine
 10
3.713775211
 20
3.2360043475
 30
0.0
 11
3.713775211
 21
4.2813522253
 31
0.0
  0
SPLINE
  5
EB
330
1F
100
AcDbEntity
  8
0
  6
CONTINUOUS
 62
     7
100
AcDbSpline
210
0.0
220
0.0
230
1.0
 70
     8
 71
     3
 72
     8
 73
     4
 74
     0
 42
0.00000001
 43
0.00000001
 40
0.0
 40
0.0
 40
0.0
 40
0.0
 40
0.0007661375841575
 40
0.0007661375841575
 40
0.0007661375841575
 40
0.0007661375841575
 10
3.713775210996101
 20
4.281352225264163
 30
0.0
 10
3.720315679468342
 20
4.288988402360024
 30
0.0
 10
3.726878166616364
 20
4.296605764149997
 30
0.0
 10
3.733460250366181
 20
4.304206099799567
 30
0.0
  0
LINE
  5
EC
330
1F
100
AcDbEntity
  8
0
  6
CONTINUOUS
 62
     7
100
AcDbLine
 10
3.6087883344
 20
4.3042060998
 30
0.0
 11
3.7334602504
 21
4.3042060998
 31
0.0
  0
LINE
  5
ED
330
1F
100
AcDbEntity
  8
0
  6
CONTINUOUS
 62
     7
100
AcDbLine
 10
3.6087883344
 20
4.3885995462
 30
0.0
 11
3.6087883344
 21
4.3042060998
 31
0.0
  0
LINE
  5
EE
330
1F
100
AcDbEntity
  8
0
  6
CONTINUOUS
 62
     7
100
AcDbLine
 10
3.6087883344
 20
3.213150473
 30
0.0
 11
3.6087883344
 21
3.1287570265
 31
0.0
  0
LINE
  5
EF
330
1F
100
AcDbEntity
  8
0
  6
CONTINUOUS
 62
     7
100
AcDbLine
 10
3.7334602504
 20
3.213150473
 30
0.0
 11
3.6087883344
 21
3.213150473
 31
0.0
  0
LINE
  5
F0
330
1F
100
AcDbEntity
  8
0
  6
CONTINUOUS
 62
     7
100
AcDbLine
 10
4.1927778357
 20
3.7685208061
 30
0.0
 11
3.8154812477
 21
3.7685208061
 31
0.0
  0
LINE
  5
F1
330
1F
100
AcDbEntity
  8
0
  6
CONTINUOUS
 62
     7
100
AcDbLine
 10
3.8154812477
 20
4.3885995462
 30
0.0
 11
3.8154812477
 21
3.7685208061
 31
0.0
  0
LINE
  5
F2
330
1F
100
AcDbEntity
  8
0
  6
CONTINUOUS
 62
     7
100
AcDbLine
 10
3.7957962084
 20
4.3685969236
 30
0.0
 11
3.8154812477
 21
4.3685969236
 31
0.0
  0
LINE
  5
F3
330
1F
100
AcDbEntity
  8
0
  6
CONTINUOUS
 62
     7
100
AcDbLine
 10
3.8154812477
 20
3.1487596492
 30
0.0
 11
3.7957962084
 21
3.1487596492
 31
0.0
  0
LINE
  5
F4
330
1F
100
AcDbEntity
  8
0
  6
CONTINUOUS
 62
     7
100
AcDbLine
 10
3.8154812477
 20
3.7488357667
 30
0.0
 11
3.8154812477
 21
3.1287570265
 31
0.0
  0
LINE
  5
F5
330
1F
100
AcDbEntity
  8
0
  6
CONTINUOUS
 62
     7
100
AcDbLine
 10
4.1927778357
 20
3.7488357667
 30
0.0
 11
3.8154812477
 21
3.7488357667
 31
0.0
  0
LINE
  5
F6
330
1F
100
AcDbEntity
  8
0
  6
CONTINUOUS
 62
     7
100
AcDbLine
 10
4.1927778357
 20
3.7685208061
 30
0.0
 11
4.1927778357
 21
4.3885995462
 31
0.0
  0
LINE
  5
F7
330
1F
100
AcDbEntity
  8
0
  6
CONTINUOUS
 62
     7
100
AcDbLine
 10
4.1927778357
 20
3.1287570265
 30
0.0
 11
4.1927778357
 21
3.7488357667
 31
0.0
  0
SPLINE
  5
F8
330
1F
100
AcDbEntity
  8
0
  6
CONTINUOUS
 62
     7
100
AcDbSpline
210
0.0
220
0.0
230
1.0
 70
     8
 71
     3
 72
    56
 73
    52
 74
     0
 42
0.00000001
 43
0.00000001
 40
-0.0312500000000003
 40
-0.0312500000000003
 40
0.0
 40
0.0
 40
0.0312499999999999
 40
0.0312499999999999
 40
0.0624999999999998
 40
0.0624999999999998
 40
0.0937499999999997
 40
0.0937499999999997
 40
0.1249999999999996
 40
0.1249999999999996
 40
0.1874999999999992
 40
0.1874999999999992
 40
0.2187499999999988
 40
0.2187499999999988
 40
0.2499999999999983
 40
0.2499999999999983
 40
0.3124999999999976
 40
0.3124999999999976
 40
0.3749999999999968
 40
0.3749999999999968
 40
0.4062499999999968
 40
0.4062499999999968
 40
0.4374999999999967
 40
0.4374999999999967
 40
0.4687499999999967
 40
0.4687499999999967
 40
0.4999999999999966
 40
0.4999999999999966
 40
0.5624999999999964
 40
0.5624999999999964
 40
0.5937499999999963
 40
0.5937499999999963
 40
0.6249999999999962
 40
0.6249999999999962
 40
0.6874999999999968
 40
0.6874999999999968
 40
0.7499999999999974
 40
0.7499999999999974
 40
0.812499999999998
 40
0.812499999999998
 40
0.8437499999999983
 40
0.8437499999999983
 40
0.8749999999999987
 40
0.8749999999999987
 40
0.906249999999999
 40
0.906249999999999
 40
0.9374999999999993
 40
0.9374999999999993
 40
0.9687499999999997
 40
0.9687499999999997
 40
1.0
 40
1.0
 40
1.03125
 40
1.03125
 10
4.029277689050171
 20
3.342024536618096
 30
0.0
 10
4.041317352364603
 20
3.342024536618096
 30
0.0
 10
4.047135307063907
 20
3.341250051888362
 30
0.0
 10
4.058418379742287
 20
3.338364780577036
 30
0.0
 10
4.063743737612641
 20
3.336276741013384
 30
0.0
 10
4.073527550483239
 20
3.331272409225395
 30
0.0
 10
4.078029472129598
 20
3.328335224280741
 30
0.0
 10
4.086091229606706
 20
3.322060744782519
 30
0.0
 10
4.089710283727059
 20
3.318690510917894
 30
0.0
 10
4.099518362663033
 20
3.308045582761598
 30
0.0
 10
4.104400824004324
 20
3.300580028768226
 30
0.0
 10
4.1096640175287
 20
3.289151112743756
 30
0.0
 10
4.111063943948253
 20
3.285281784553986
 30
0.0
 10
4.11307534565178
 20
3.277675862865027
 30
0.0
 10
4.113701256720322
 20
3.273913405958371
 30
0.0
 10
4.114402271810198
 20
3.262751899775031
 30
0.0
 10
4.113267411041448
 20
3.255428722273648
 30
0.0
 10
4.107371921979307
 20
3.242014918647901
 30
0.0
 10
4.102514847783169
 20
3.235753016128816
 30
0.0
 10
4.092332947734524
 20
3.227833079094366
 30
0.0
 10
4.08838259678468
 20
3.225385345486842
 30
0.0
 10
4.079709963798543
 20
3.221147409575162
 30
0.0
 10
4.074980876112633
 20
3.219334297832271
 30
0.0
 10
4.064658251679232
 20
3.216327666095138
 30
0.0
 10
4.05907470170981
 20
3.215153588381723
 30
0.0
 10
4.047684980479308
 20
3.213588136365356
 30
0.0
 10
4.041707544281898
 20
3.213171097307828
 30
0.0
 10
4.023842310246796
 20
3.213111500787592
 30
0.0
 10
4.011986446054649
 20
3.214660218565529
 30
0.0
 10
3.996370802553481
 20
3.219071880025183
 30
0.0
 10
3.991469560379599
 20
3.220905684166236
 30
0.0
 10
3.982696048221142
 20
3.22511019836725
 30
0.0
 10
3.978721787779097
 20
3.227525909627659
 30
0.0
 10
3.968354624086175
 20
3.235447020726371
 30
0.0
 10
3.963440366692942
 20
3.241675263760325
 30
0.0
 10
3.957397262072503
 20
3.25512288760242
 30
0.0
 10
3.956214384063541
 20
3.26244350394637
 30
0.0
 10
3.957071653210228
 20
3.277373576270592
 30
0.0
 10
3.959116709912619
 20
3.28514959787922
 30
0.0
 10
3.964323211924038
 20
3.296546782563027
 30
0.0
 10
3.96641726149119
 20
3.300318697452634
 30
0.0
 10
3.971376111340641
 20
3.307780844867776
 30
0.0
 10
3.97426123064242
 20
3.311488388531747
 30
0.0
 10
3.980739210571552
 20
3.318545535433062
 30
0.0
 10
3.984342743976665
 20
3.321921922112195
 30
0.0
 10
3.992443844861887
 20
3.328253487649848
 30
0.0
 10
3.996946407982986
 20
3.331198180022699
 30
0.0
 10
4.006689356786073
 20
3.336205850972988
 30
0.0
 10
4.012062281091628
 20
3.338323932392601
 30
0.0
 10
4.023304289573001
 20
3.341221626133217
 30
0.0
 10
4.029277689050171
 20
3.342024536618096
 30
0.0
 10
4.041317352364603
 20
3.342024536618096
 30
0.0
  0
SPLINE
  5
F9
330
1F
100
AcDbEntity
  8
0
  6
CONTINUOUS
 62
     7
100
AcDbSpline
210
0.0
220
0.0
230
1.0
 70
     8
 71
     3
 72
    74
 73
    70
 74
     0
 42
0.00000001
 43
0.00000001
 40
-0.0312499999999998
 40
-0.0312499999999998
 40
0.0
 40
0.0
 40
0.0312500000000001
 40
0.0312500000000001
 40
0.0625000000000003
 40
0.0625000000000003
 40
0.0937500000000004
 40
0.0937500000000004
 40
0.1250000000000005
 40
0.1250000000000005
 40
0.1562500000000007
 40
0.1562500000000007
 40
0.1875000000000008
 40
0.1875000000000008
 40
0.2187500000000009
 40
0.2187500000000009
 40
0.2500000000000011
 40
0.2500000000000011
 40
0.2812500000000012
 40
0.2812500000000012
 40
0.3125000000000013
 40
0.3125000000000013
 40
0.3437500000000014
 40
0.3437500000000014
 40
0.3750000000000016
 40
0.3750000000000016
 40
0.4062500000000017
 40
0.4062500000000017
 40
0.4375000000000018
 40
0.4375000000000018
 40
0.4531250000000018
 40
0.4531250000000018
 40
0.4687500000000018
 40
0.4687500000000018
 40
0.4843750000000017
 40
0.4843750000000017
 40
0.5000000000000017
 40
0.5000000000000017
 40
0.531250000000002
 40
0.531250000000002
 40
0.5468750000000022
 40
0.5468750000000022
 40
0.5625000000000023
 40
0.5625000000000023
 40
0.5937500000000023
 40
0.5937500000000023
 40
0.6250000000000022
 40
0.6250000000000022
 40
0.6562500000000021
 40
0.6562500000000021
 40
0.687500000000002
 40
0.687500000000002
 40
0.7500000000000017
 40
0.7500000000000017
 40
0.7812500000000014
 40
0.7812500000000014
 40
0.8125000000000011
 40
0.8125000000000011
 40
0.8437500000000008
 40
0.8437500000000008
 40
0.8750000000000004
 40
0.8750000000000004
 40
0.9062500000000003
 40
0.9062500000000003
 40
0.9375000000000003
 40
0.9375000000000003
 40
0.9687500000000002
 40
0.9687500000000002
 40
1.0
 40
1.0
 40
1.03125
 40
1.03125
 10
4.045978190304768
 20
4.334276377620923
 30
0.0
 10
4.024616851110006
 20
4.334276377620923
 30
0.0
 10
4.014166905097291
 20
4.333736068322279
 30
0.0
 10
3.993709670199789
 20
4.331574321678182
 30
0.0
 10
3.983696937840908
 20
4.329928759426025
 30
0.0
 10
3.965199369979165
 20
4.325608273197431
 30
0.0
 10
3.956468607232881
 20
4.32287793324374
 30
0.0
 10
3.94080037207862
 20
4.316402997478033
 30
0.0
 10
3.933865795956412
 20
4.31268411569336
 30
0.0
 10
3.921676249185003
 20
4.304175535711381
 30
0.0
 10
3.916562658568004
 20
4.299471307246981
 30
0.0
 10
3.908211771168444
 20
4.289278028024039
 30
0.0
 10
3.904932624424762
 20
4.283714056687534
 30
0.0
 10
3.900198876657681
 20
4.272051297286835
 30
0.0
 10
3.898710466774193
 20
4.265934520900328
 30
0.0
 10
3.897283047192866
 20
4.253117291298774
 30
0.0
 10
3.897358976667987
 20
4.246438677186903
 30
0.0
 10
3.89888877843564
 20
4.23286396918867
 30
0.0
 10
3.900337321934797
 20
4.225923947002542
 30
0.0
 10
3.904500944491551
 20
4.211746311865368
 30
0.0
 10
3.907216986491883
 20
4.204531375902629
 30
0.0
 10
3.913734997906346
 20
4.190167267295308
 30
0.0
 10
3.917547631368428
 20
4.182976396421972
 30
0.0
 10
3.926308764372906
 20
4.168626356519248
 30
0.0
 10
3.931292509339042
 20
4.161421104135035
 30
0.0
 10
3.94237586614778
 20
4.147400690728912
 30
0.0
 10
3.948458084020712
 20
4.140587621061462
 30
0.0
 10
3.961972297804157
 20
4.127583170467622
 30
0.0
 10
3.96948217287379
 20
4.12133225096481
 30
0.0
 10
3.981801031111355
 20
4.113096840560748
 30
0.0
 10
3.986088653583374
 20
4.110536416734017
 30
0.0
 10
3.995114772993286
 20
4.105896092510874
 30
0.0
 10
3.999880135180383
 20
4.103811848077979
 30
0.0
 10
4.009651917037888
 20
4.100397740335384
 30
0.0
 10
4.01468808894558
 20
4.099048684053995
 30
0.0
 10
4.02511777602674
 20
4.097215752855091
 30
0.0
 10
4.030454627172625
 20
4.096755543465403
 30
0.0
 10
4.046252621958348
 20
4.096831798492015
 30
0.0
 10
4.056869846608015
 20
4.098888790092344
 30
0.0
 10
4.071501423783354
 20
4.104135019339068
 30
0.0
 10
4.076246442644991
 20
4.106254012479136
 30
0.0
 10
4.085224299310762
 20
4.11094794450059
 30
0.0
 10
4.089482325123773
 20
4.113526948316339
 30
0.0
 10
4.101702859382335
 20
4.121794645125608
 30
0.0
 10
4.109174023693435
 20
4.128065076793001
 30
0.0
 10
4.122631687552934
 20
4.14111619344741
 30
0.0
 10
4.128662485431057
 20
4.147921686144762
 30
0.0
 10
4.139624258019294
 20
4.161870749842009
 30
0.0
 10
4.144572743425275
 20
4.169055242937963
 30
0.0
 10
4.15332915256451
 20
4.183480888639972
 30
0.0
 10
4.157119979916925
 20
4.190684648398462
 30
0.0
 10
4.16680342886824
 20
4.212197061365154
 30
0.0
 10
4.171050737985825
 20
4.22656448045695
 30
0.0
 10
4.173251025564858
 20
4.246824187763733
 30
0.0
 10
4.173301857220368
 20
4.25339174643559
 30
0.0
 10
4.171838998145606
 20
4.26615311289571
 30
0.0
 10
4.170303122473721
 20
4.272354717573467
 30
0.0
 10
4.165535029937121
 20
4.283950188497382
 30
0.0
 10
4.162304649718677
 20
4.289402791584039
 30
0.0
 10
4.153873274364981
 20
4.299635895777487
 30
0.0
 10
4.148709140033089
 20
4.304337176461122
 30
0.0
 10
4.136684945649231
 20
4.312699412297829
 30
0.0
 10
4.129790071079587
 20
4.316411023242686
 30
0.0
 10
4.113964546772067
 20
4.322938643272739
 30
0.0
 10
4.105387233945883
 20
4.325609849358992
 30
0.0
 10
4.086922692047309
 20
4.329923410526084
 30
0.0
 10
4.076875465281414
 20
4.33157529500374
 30
0.0
 10
4.056441961338151
 20
4.333734680846833
 30
0.0
 10
4.045978190304768
 20
4.334276377620923
 30
0.0
 10
4.024616851110006
 20
4.334276377620923
 30
0.0
  0
LINE
  5
FA
330
1F
100
AcDbEntity
  8
0
  6
CONTINUOUS
 62
     7
100
AcDbLine
 10
3.7957962084
 20
4.3885995462
 30
0.0
 11
3.7957962084
 21
3.1287570265
 31
0.0
  0
LINE
  5
FB
330
1F
100
AcDbEntity
  8
0
  6
CONTINUOUS
 62
     7
100
AcDbLine
 10
4.212462875
 20
3.7488357667
 30
0.0
 11
4.212462875
 21
3.1484420659
 31
0.0
  0
LINE
  5
FC
330
1F
100
AcDbEntity
  8
0
  6
CONTINUOUS
 62
     7
100
AcDbLine
 10
4.212462875
 20
4.3689145069
 30
0.0
 11
4.212462875
 21
3.7685208061
 31
0.0
  0
LINE
  5
FD
330
1F
100
AcDbEntity
  8
0
  6
CONTINUOUS
 62
     7
100
AcDbLine
 10
4.1927778357
 20
3.7488357667
 30
0.0
 11
4.212462875
 21
3.7488357667
 31
0.0
  0
LINE
  5
FE
330
1F
100
AcDbEntity
  8
0
  6
CONTINUOUS
 62
     7
100
AcDbLine
 10
4.1927778357
 20
3.7685208061
 30
0.0
 11
4.212462875
 21
3.7685208061
 31
0.0
  0
LINE
  5
FF
330
1F
100
AcDbEntity
  8
0
  6
CONTINUOUS
 62
     7
100
AcDbLine
 10
3.6087883344
 20
4.3042060998
 30
0.0
 11
3.6024788453
 21
4.2968809292
 31
0.0
  0
LINE
  5
100
330
1F
100
AcDbEntity
  8
0
  6
CONTINUOUS
 62
     7
100
AcDbLine
 10
3.589103295
 20
4.2968809292
 30
0.0
 11
3.589103295
 21
4.3689145069
 31
0.0
  0
LINE
  5
101
330
1F
100
AcDbEntity
  8
0
  6
CONTINUOUS
 62
     7
100
AcDbLine
 10
3.6002164665
 20
3.2231022129
 30
0.0
 11
3.6087883344
 21
3.213150473
 31
0.0
  0
LINE
  5
102
330
1F
100
AcDbEntity
  8
0
  6
CONTINUOUS
 62
     7
100
AcDbLine
 10
3.589103295
 20
3.1484420659
 30
0.0
 11
3.589103295
 21
3.2231022129
 31
0.0
  0
SPLINE
  5
103
330
1F
100
AcDbEntity
  8
0
  6
CONTINUOUS
 62
     7
100
AcDbSpline
210
0.0
220
0.0
230
1.0
 70
     8
 71
     3
 72
     8
 73
     4
 74
     0
 42
0.00000001
 43
0.00000001
 40
0.0
 40
0.0
 40
0.0
 40
0.0
 40
1.0
 40
1.0
 40
1.0
 40
1.0
 10
3.926431647385873
 20
3.748835766707008
 30
0.0
 10
3.926827114492918
 20
3.755397446497034
 30
0.0
 10
3.926827114492918
 20
3.76195912628706
 30
0.0
 10
3.926431647385873
 20
3.768520806077087
 30
0.0
  0
LINE
  5
104
330
1F
100
AcDbEntity
  8
0
  6
CONTINUOUS
 62
     7
100
AcDbLine
 10
3.8154812477
 20
3.7685208061
 30
0.0
 11
3.8154812477
 21
3.7586782864
 31
0.0
  0
LINE
  5
105
330
1F
100
AcDbEntity
  8
0
  6
CONTINUOUS
 62
     7
100
AcDbLine
 10
3.8154812477
 20
3.7586782864
 30
0.0
 11
3.8154812477
 21
3.7488357667
 31
0.0
  0
LINE
  5
106
330
1F
100
AcDbEntity
  8
0
  6
CONTINUOUS
 62
     7
100
AcDbLine
 10
4.212462875
 20
3.7488357667
 30
0.0
 11
4.212462875
 21
3.7685208061
 31
0.0
  0
LINE
  5
107
330
1F
100
AcDbEntity
  8
0
  6
CONTINUOUS
 62
     7
100
AcDbLine
 10
3.5694182556
 20
4.2968809292
 30
0.0
 11
3.5694182556
 21
4.3885995462
 31
0.0
  0
LINE
  5
108
330
1F
100
AcDbEntity
  8
0
  6
CONTINUOUS
 62
     7
100
AcDbLine
 10
3.6940901716
 20
4.2968809292
 30
0.0
 11
3.5694182556
 21
4.2968809292
 31
0.0
  0
LINE
  5
109
330
1F
100
AcDbEntity
  8
0
  6
CONTINUOUS
 62
     7
100
AcDbLine
 10
3.6940901716
 20
3.2231022129
 30
0.0
 11
3.6940901716
 21
4.2968809292
 31
0.0
  0
LINE
  5
10A
330
1F
100
AcDbEntity
  8
0
  6
CONTINUOUS
 62
     7
100
AcDbLine
 10
3.5694182556
 20
3.2231022129
 30
0.0
 11
3.6940901716
 21
3.2231022129
 31
0.0
  0
LINE
  5
10B
330
1F
100
AcDbEntity
  8
0
  6
CONTINUOUS
 62
     7
100
AcDbLine
 10
3.5694182556
 20
3.1287570265
 30
0.0
 11
3.5694182556
 21
3.2231022129
 31
0.0
  0
LINE
  5
10C
330
1F
100
AcDbEntity
  8
0
  6
CONTINUOUS
 62
     7
100
AcDbLine
 10
3.0838539512
 20
3.4270775278
 30
0.0
 11
2.9591820351
 21
3.4270775278
 31
0.0
  0
LINE
  5
10D
330
1F
100
AcDbEntity
  8
0
  6
CONTINUOUS
 62
     7
100
AcDbLine
 10
3.0838539512
 20
4.0859987851
 30
0.0
 11
3.0838539512
 21
3.4270775278
 31
0.0
  0
LINE
  5
10E
330
1F
100
AcDbEntity
  8
0
  6
CONTINUOUS
 62
     7
100
AcDbLine
 10
2.9591820351
 20
4.0859987851
 30
0.0
 11
3.0838539512
 21
4.0859987851
 31
0.0
  0
LINE
  5
10F
330
1F
100
AcDbEntity
  8
0
  6
CONTINUOUS
 62
     7
100
AcDbLine
 10
2.9591820351
 20
4.3885995462
 30
0.0
 11
2.9591820351
 21
4.0859987851
 31
0.0
  0
LINE
  5
110
330
1F
100
AcDbEntity
  8
0
  6
CONTINUOUS
 62
     7
100
AcDbLine
 10
2.9591820351
 20
3.4270775278
 30
0.0
 11
2.9591820351
 21
3.1287570265
 31
0.0
  0
SPLINE
  5
111
330
1F
100
AcDbEntity
  8
0
  6
CONTINUOUS
 62
     7
100
AcDbSpline
210
0.0
220
0.0
230
1.0
 70
     8
 71
     3
 72
     8
 73
     4
 74
     0
 42
0.00000001
 43
0.00000001
 40
0.0
 40
0.0
 40
0.0
 40
0.0
 40
0.0006187755009761
 40
0.0006187755009761
 40
0.0006187755009761
 40
0.0006187755009761
 10
3.066885235483765
 20
4.073638916313305
 30
0.0
 10
3.072539009435173
 20
4.077760563670317
 30
0.0
 10
3.07819531729396
 20
4.081880473749634
 30
0.0
 10
3.083853951153582
 20
4.085998785090918
 30
0.0
  0
SPLINE
  5
112
330
1F
100
AcDbEntity
  8
0
  6
CONTINUOUS
 62
     7
100
AcDbSpline
210
0.0
220
0.0
230
1.0
 70
     8
 71
     3
 72
     8
 73
     4
 74
     0
 42
0.00000001
 43
0.00000001
 40
0.0
 40
0.0
 40
0.0
 40
0.0
 40
0.0005396960495912
 40
0.0005396960495912
 40
0.0005396960495912
 40
0.0005396960495912
 10
3.071416175470513
 20
3.443717656470785
 30
0.0
 10
3.075536772618112
 20
3.438153365262437
 30
0.0
 10
3.079683430586317
 20
3.432607007243778
 30
0.0
 10
3.083853951153582
 20
3.427077527779295
 30
0.0
  0
LINE
  5
113
330
1F
100
AcDbEntity
  8
0
  6
CONTINUOUS
 62
     7
100
AcDbLine
 10
3.0641689118
 20
3.4437176565
 30
0.0
 11
3.0641689118
 21
4.0736389163
 31
0.0
  0
SPLINE
  5
114
330
1F
100
AcDbEntity
  8
0
  6
CONTINUOUS
 62
     7
100
AcDbSpline
210
0.0
220
0.0
230
1.0
 70
     8
 71
     3
 72
     8
 73
     4
 74
     0
 42
0.00000001
 43
0.00000001
 40
0.0
 40
0.0
 40
0.0
 40
0.0
 40
0.0001060124639956
 40
0.0001060124639956
 40
0.0001060124639956
 40
0.0001060124639956
 10
3.711058887295839
 20
4.284521060429489
 30
0.0
 10
3.711964745726945
 20
4.283465139805643
 30
0.0
 10
3.71287018924444
 20
4.282408863087681
 30
0.0
 10
3.713775210996101
 20
4.281352225264163
 30
0.0
  0
SPLINE
  5
115
330
1F
100
AcDbEntity
  8
0
  6
CONTINUOUS
 62
     7
100
AcDbSpline
210
0.0
220
0.0
230
1.0
 70
     8
 71
     3
 72
     8
 73
     4
 74
     0
 42
0.00000001
 43
0.00000001
 40
0.0
 40
0.0
 40
0.0
 40
0.0
 40
0.0002826305220997
 40
0.0002826305220997
 40
0.0002826305220997
 40
0.0002826305220997
 10
3.713775210996101
 20
3.236004347519931
 30
0.0
 10
3.711362411967166
 20
3.233187338194089
 30
0.0
 10
3.708946614885739
 20
3.23037289418727
 30
0.0
 10
3.706527947309091
 20
3.227560921952418
 30
0.0
  0
SPLINE
  5
116
330
1F
100
AcDbEntity
  8
0
  6
CONTINUOUS
 62
     7
100
AcDbSpline
210
0.0
220
0.0
230
1.0
 70
     8
 71
     3
 72
     8
 73
     4
 74
     0
 42
0.00000001
 43
0.00000001
 40
0.0
 40
0.0
 40
0.0
 40
0.0
 40
0.0005396960495912
 40
0.0005396960495912
 40
0.0005396960495912
 40
0.0005396960495912
 10
3.694090171626022
 20
3.223102212907583
 30
0.0
 10
3.698260692193287
 20
3.224583832464655
 30
0.0
 10
3.702407350161491
 20
3.226069974616689
 30
0.0
 10
3.706527947309091
 20
3.227560921952418
 30
0.0
  0
SPLINE
  5
117
330
1F
100
AcDbEntity
  8
0
  6
CONTINUOUS
 62
     7
100
AcDbSpline
210
0.0
220
0.0
230
1.0
 70
     8
 71
     3
 72
     8
 73
     4
 74
     0
 42
0.00000001
 43
0.00000001
 40
0.0
 40
0.0
 40
0.0
 40
0.0
 40
0.000618775500976
 40
0.000618775500976
 40
0.000618775500976
 40
0.000618775500976
 10
3.694090171626022
 20
4.296880929207101
 30
0.0
 10
3.699748805485644
 20
4.292762617865818
 30
0.0
 10
3.705405113344431
 20
4.288642707786501
 30
0.0
 10
3.711058887295839
 20
4.284521060429489
 30
0.0
  0
SPLINE
  5
118
330
1F
100
AcDbEntity
  8
0
  6
CONTINUOUS
 62
     7
100
AcDbSpline
210
0.0
220
0.0
230
1.0
 70
     8
 71
     3
 72
     8
 73
     4
 74
     0
 42
0.00000001
 43
0.00000001
 40
0.0
 40
0.0
 40
0.0
 40
0.0
 40
0.0006187755009761
 40
0.0006187755009761
 40
0.0006187755009761
 40
0.0006187755009761
 10
2.942213319473266
 20
4.073638916313305
 30
0.0
 10
2.947867093424674
 20
4.077760563670317
 30
0.0
 10
2.953523401283461
 20
4.081880473749634
 30
0.0
 10
2.959182035143083
 20
4.085998785090918
 30
0.0
  0
LINE
  5
119
330
1F
100
AcDbEntity
  8
0
  6
CONTINUOUS
 62
     7
100
AcDbLine
 10
3.0668852355
 20
4.0736389163
 30
0.0
 11
3.0642531901
 21
4.0736389163
 31
0.0
  0
SPLINE
  5
11A
330
1F
100
AcDbEntity
  8
0
  6
CONTINUOUS
 62
     7
100
AcDbSpline
210
0.0
220
0.0
230
1.0
 70
     8
 71
     3
 72
     8
 73
     4
 74
     0
 42
0.00000001
 43
0.00000001
 40
0.0
 40
0.0
 40
0.0
 40
0.0
 40
0.0005396960495912
 40
0.0005396960495912
 40
0.0005396960495912
 40
0.0005396960495912
 10
2.946744259460014
 20
3.443717656470785
 30
0.0
 10
2.950864856607613
 20
3.438153365262437
 30
0.0
 10
2.955011514575818
 20
3.432607007243778
 30
0.0
 10
2.959182035143083
 20
3.427077527779295
 30
0.0
  0
LINE
  5
11B
330
1F
100
AcDbEntity
  8
0
  6
CONTINUOUS
 62
     7
100
AcDbLine
 10
3.0642531901
 20
3.4437176565
 30
0.0
 11
3.0714161755
 21
3.4437176565
 31
0.0
  0
LINE
  5
11C
330
1F
100
AcDbEntity
  8
0
  6
CONTINUOUS
 62
     7
100
AcDbLine
 10
2.9394969958
 20
3.1484420659
 30
0.0
 11
2.9394969958
 21
3.4437176565
 31
0.0
  0
LINE
  5
11D
330
1F
100
AcDbEntity
  8
0
  6
CONTINUOUS
 62
     7
100
AcDbLine
 10
4.0352975207
 20
4.2311192313
 30
0.0
 11
4.1632502766
 21
4.2311192313
 31
0.0
  0
LINE
  5
11E
330
1F
100
AcDbEntity
  8
0
  6
CONTINUOUS
 62
     7
100
AcDbLine
 10
3.9073447648
 20
4.2311192313
 30
0.0
 11
4.0352975207
 21
4.2311192313
 31
0.0
  0
LINE
  5
11F
330
1F
100
AcDbEntity
  8
0
  6
CONTINUOUS
 62
     7
100
AcDbLine
 10
2.9394969958
 20
4.3885995462
 30
0.0
 11
2.9394969958
 21
4.0736389163
 31
0.0
  0
LINE
  5
120
330
1F
100
AcDbEntity
  8
0
  6
CONTINUOUS
 62
     7
100
AcDbLine
 10
2.9394969958
 20
4.0736389163
 30
0.0
 11
3.0444838724
 21
4.0736389163
 31
0.0
  0
LINE
  5
121
330
1F
100
AcDbEntity
  8
0
  6
CONTINUOUS
 62
     7
100
AcDbLine
 10
3.0444838724
 20
4.0736389163
 30
0.0
 11
3.0444838724
 21
3.4437176565
 31
0.0
  0
LINE
  5
122
330
1F
100
AcDbEntity
  8
0
  6
CONTINUOUS
 62
     7
100
AcDbLine
 10
3.0444838724
 20
3.4437176565
 30
0.0
 11
2.9198119564
 21
3.4437176565
 31
0.0
  0
LINE
  5
123
330
1F
100
AcDbEntity
  8
0
  6
CONTINUOUS
 62
     7
100
AcDbLine
 10
2.9198119564
 20
3.4437176565
 30
0.0
 11
2.9198119564
 21
3.1287570265
 31
0.0
  0
LINE
  5
124
330
1F
100
AcDbEntity
  8
0
  6
CONTINUOUS
 62
     7
100
AcDbLine
 10
2.8574759984
 20
3.9161586014
 30
0.0
 11
2.8574759984
 21
3.1287570265
 31
0.0
  0
LINE
  5
125
330
1F
100
AcDbEntity
  8
0
  6
CONTINUOUS
 62
     7
100
AcDbLine
 10
2.8574759984
 20
3.9161586014
 30
0.0
 11
2.837790959
 21
3.9161586014
 31
0.0
  0
LINE
  5
126
330
1F
100
AcDbEntity
  8
0
  6
CONTINUOUS
 62
     7
100
AcDbLine
 10
2.837790959
 20
3.9161586014
 30
0.0
 11
2.837790959
 21
3.1288339259
 31
0.0
  0
LINE
  5
127
330
1F
100
AcDbEntity
  8
0
  6
CONTINUOUS
 62
     7
100
AcDbLine
 10
2.4604943711
 20
3.1288339259
 30
0.0
 11
2.837790959
 21
3.1288339259
 31
0.0
  0
LINE
  5
128
330
1F
100
AcDbEntity
  8
0
  6
CONTINUOUS
 62
     7
100
AcDbLine
 10
2.4604943711
 20
3.1288339259
 30
0.0
 11
2.4604943711
 21
4.3885995462
 31
0.0
  0
SPLINE
  5
129
330
1F
100
AcDbEntity
  8
0
  6
CONTINUOUS
 62
     7
100
AcDbSpline
210
0.0
220
0.0
230
1.0
 70
     8
 71
     3
 72
    74
 73
    70
 74
     0
 42
0.00000001
 43
0.00000001
 40
-0.0312499999999998
 40
-0.0312499999999998
 40
0.0
 40
0.0
 40
0.0312500000000004
 40
0.0312500000000004
 40
0.0625000000000008
 40
0.0625000000000008
 40
0.0937500000000012
 40
0.0937500000000012
 40
0.1250000000000017
 40
0.1250000000000017
 40
0.1562500000000019
 40
0.1562500000000019
 40
0.1875000000000022
 40
0.1875000000000022
 40
0.2187500000000025
 40
0.2187500000000025
 40
0.2500000000000028
 40
0.2500000000000028
 40
0.281250000000003
 40
0.281250000000003
 40
0.3125000000000033
 40
0.3125000000000033
 40
0.3437500000000035
 40
0.3437500000000035
 40
0.3750000000000038
 40
0.3750000000000038
 40
0.4062500000000039
 40
0.4062500000000039
 40
0.4375000000000042
 40
0.4375000000000042
 40
0.4531250000000042
 40
0.4531250000000042
 40
0.4687500000000041
 40
0.4687500000000041
 40
0.4843750000000041
 40
0.4843750000000041
 40
0.5000000000000041
 40
0.5000000000000041
 40
0.5312500000000041
 40
0.5312500000000041
 40
0.5468750000000041
 40
0.5468750000000041
 40
0.562500000000004
 40
0.562500000000004
 40
0.5937500000000037
 40
0.5937500000000037
 40
0.6250000000000033
 40
0.6250000000000033
 40
0.656250000000003
 40
0.656250000000003
 40
0.6875000000000026
 40
0.6875000000000026
 40
0.750000000000002
 40
0.750000000000002
 40
0.7812500000000018
 40
0.7812500000000018
 40
0.8125000000000014
 40
0.8125000000000014
 40
0.8437500000000012
 40
0.8437500000000012
 40
0.875000000000001
 40
0.875000000000001
 40
0.9062500000000008
 40
0.9062500000000008
 40
0.9375000000000004
 40
0.9375000000000004
 40
0.9687500000000002
 40
0.9687500000000002
 40
1.0
 40
1.0
 40
1.03125
 40
1.03125
 10
2.607294016464337
 20
3.502772774581022
 30
0.0
 10
2.628655355659099
 20
3.502772774581022
 30
0.0
 10
2.639105301671814
 20
3.501547533627781
 30
0.0
 10
2.659562536569316
 20
3.496766451361508
 30
0.0
 10
2.669575268928197
 20
3.493161660347541
 30
0.0
 10
2.688072836789939
 20
3.484057508393642
 30
0.0
 10
2.696803599536224
 20
3.478445890902652
 30
0.0
 10
2.712471834690485
 20
3.465771161805849
 30
0.0
 10
2.719406410812693
 20
3.458754509514919
 30
0.0
 10
2.731595957584101
 20
3.443544216794493
 30
0.0
 10
2.736709548201102
 20
3.435510297836982
 30
0.0
 10
2.745060435600661
 20
3.419033539027694
 30
0.0
 10
2.748339582344343
 20
3.410476779827992
 30
0.0
 10
2.753073330111424
 20
3.393500246323819
 30
0.0
 10
2.754561739994912
 20
3.38504268308847
 30
0.0
 10
2.755989159576239
 20
3.368239402659402
 30
0.0
 10
2.755913230101119
 20
3.35992890376612
 30
0.0
 10
2.754383428333465
 20
3.343878084844833
 30
0.0
 10
2.752934884834308
 20
3.336079143127643
 30
0.0
 10
2.748771262277554
 20
3.320913614975026
 30
0.0
 10
2.746055220277222
 20
3.313576087657723
 30
0.0
 10
2.739537208862759
 20
3.299637760835396
 30
0.0
 10
2.735724575400677
 20
3.292992136943342
 30
0.0
 10
2.726963442396199
 20
3.280311214195066
 30
0.0
 10
2.721979697430063
 20
3.274240261655883
 30
0.0
 10
2.710896340621325
 20
3.262919404050637
 30
0.0
 10
2.704814122748393
 20
3.257667688308793
 30
0.0
 10
2.691299908964949
 20
3.248016416066328
 30
0.0
 10
2.683790033895315
 20
3.243578955429419
 30
0.0
 10
2.671471175657751
 20
3.237910210991124
 30
0.0
 10
2.667183553185732
 20
3.236180030162128
 30
0.0
 10
2.658157433775819
 20
3.233084939054887
 30
0.0
 10
2.653392071588722
 20
3.231717410514744
 30
0.0
 10
2.643620289731218
 20
3.229497074609109
 30
0.0
 10
2.638584117823525
 20
3.228631147331516
 30
0.0
 10
2.628154430742365
 20
3.22745859452098
 30
0.0
 10
2.622817579596482
 20
3.227166703490142
 30
0.0
 10
2.607019584810758
 20
3.227215211958626
 30
0.0
 10
2.596402360161091
 20
3.228513194284868
 30
0.0
 10
2.581770782985752
 20
3.231929016063158
 30
0.0
 10
2.577025764124114
 20
3.233321384044841
 30
0.0
 10
2.568047907458343
 20
3.236457214254097
 30
0.0
 10
2.563789881645333
 20
3.238203092557907
 30
0.0
 10
2.551569347386771
 20
3.24390442314732
 30
0.0
 10
2.544098183075671
 20
3.248364336066687
 30
0.0
 10
2.530640519216172
 20
3.25807047975445
 30
0.0
 10
2.524609721338048
 20
3.26332905865983
 30
0.0
 10
2.513647948749811
 20
3.274615150961238
 30
0.0
 10
2.50869946334383
 20
3.280677909398124
 30
0.0
 10
2.499943054204596
 20
3.293451077392388
 30
0.0
 10
2.496152226852179
 20
3.300124743229917
 30
0.0
 10
2.486468777900865
 20
3.321046323454727
 30
0.0
 10
2.48222146878328
 20
3.33639657554451
 30
0.0
 10
2.480021181204247
 20
3.360401990771241
 30
0.0
 10
2.479970349548737
 20
3.36858821934923
 30
0.0
 10
2.481433208623498
 20
3.385340679903226
 30
0.0
 10
2.482969084295383
 20
3.393928530442141
 30
0.0
 10
2.487737176831985
 20
3.410834515029904
 30
0.0
 10
2.490967557050429
 20
3.419227246831795
 30
0.0
 10
2.499398932404124
 20
3.435784536812082
 30
0.0
 10
2.504563066736017
 20
3.443828175493835
 30
0.0
 10
2.516587261119874
 20
3.458786958251134
 30
0.0
 10
2.523482135689518
 20
3.465784990291336
 30
0.0
 10
2.539307659997038
 20
3.478566633102655
 30
0.0
 10
2.547884972823222
 20
3.484060911680157
 30
0.0
 10
2.566349514721796
 20
3.493150307197986
 30
0.0
 10
2.576396741487691
 20
3.496768609117881
 30
0.0
 10
2.596830245430955
 20
3.501544459907188
 30
0.0
 10
2.607294016464337
 20
3.502772774581022
 30
0.0
 10
2.628655355659099
 20
3.502772774581022
 30
0.0
  0
LINE
  5
12A
330
1F
100
AcDbEntity
  8
0
  6
CONTINUOUS
 62
     7
100
AcDbLine
 10
2.4604943711
 20
3.1288339259
 30
0.0
 11
2.4408093317
 21
3.1485214462
 31
0.0
  0
LINE
  5
12B
330
1F
100
AcDbEntity
  8
0
  6
CONTINUOUS
 62
     7
100
AcDbLine
 10
2.4408093317
 20
4.3689145069
 30
0.0
 11
2.4408093317
 21
3.1485214462
 31
0.0
  0
SPLINE
  5
12C
330
1F
100
AcDbEntity
  8
0
  6
CONTINUOUS
 62
     7
100
AcDbSpline
210
0.0
220
0.0
230
1.0
 70
    24
 71
     3
 72
     8
 73
     4
 74
     0
 42
0.00000001
 43
0.00000001
 40
0.0
 40
0.0
 40
0.0
 40
0.0
 40
0.0007661375841575
 40
0.0007661375841575
 40
0.0007661375841575
 40
0.0007661375841575
 10
3.044483872413423
 20
3.443717656470785
 30
0.0
 10
3.05106595616324
 20
3.443717656470785
 30
0.0
 10
3.057628443311262
 20
3.443717656470785
 30
0.0
 10
3.064168911783502
 20
3.443717656470785
 30
0.0
  0
SPLINE
  5
12D
330
1F
100
AcDbEntity
  8
0
  6
CONTINUOUS
 62
     7
100
AcDbSpline
210
0.0
220
0.0
230
1.0
 70
    24
 71
     3
 72
     8
 73
     4
 74
     0
 42
0.00000001
 43
0.00000001
 40
0.0
 40
0.0
 40
0.0
 40
0.0
 40
0.0007661375841575
 40
0.0007661375841575
 40
0.0007661375841575
 40
0.0007661375841575
 10
3.064168911783502
 20
4.073638916313305
 30
0.0
 10
3.057628443311262
 20
4.073638916313305
 30
0.0
 10
3.05106595616324
 20
4.073638916313305
 30
0.0
 10
3.044483872413423
 20
4.073638916313305
 30
0.0
  0
CIRCLE
  5
12E
330
1F
100
AcDbEntity
  8
0
  6
CONTINUOUS
 62
     7
100
AcDbCircle
 10
2.6179746861
 20
3.364977499
 30
0.0
 40
0.127952755905512
  0
LINE
  5
12F
330
1F
100
AcDbEntity
  8
0
  6
CONTINUOUS
 62
     7
100
AcDbLine
 10
2.558919568
 20
3.3308820107
 30
0.0
 11
2.558919568
 21
3.3990729873
 31
0.0
  0
LINE
  5
130
330
1F
100
AcDbEntity
  8
0
  6
CONTINUOUS
 62
     7
100
AcDbLine
 10
2.6179746861
 20
3.2967865223
 30
0.0
 11
2.558919568
 21
3.3308820107
 31
0.0
  0
LINE
  5
131
330
1F
100
AcDbEntity
  8
0
  6
CONTINUOUS
 62
     7
100
AcDbLine
 10
2.6770298042
 20
3.3308820107
 30
0.0
 11
2.6179746861
 21
3.2967865223
 31
0.0
  0
LINE
  5
132
330
1F
100
AcDbEntity
  8
0
  6
CONTINUOUS
 62
     7
100
AcDbLine
 10
2.6770298042
 20
3.3990729873
 30
0.0
 11
2.6770298042
 21
3.3308820107
 31
0.0
  0
LINE
  5
133
330
1F
100
AcDbEntity
  8
0
  6
CONTINUOUS
 62
     7
100
AcDbLine
 10
2.6179746861
 20
3.4331684757
 30
0.0
 11
2.6770298042
 21
3.3990729873
 31
0.0
  0
LINE
  5
134
330
1F
100
AcDbEntity
  8
0
  6
CONTINUOUS
 62
     7
100
AcDbLine
 10
2.558919568
 20
3.3990729873
 30
0.0
 11
2.6179746861
 21
3.4331684757
 31
0.0
  0
ARC
  5
135
330
1F
100
AcDbEntity
  8
0
  6
CONTINUOUS
 62
     7
100
AcDbCircle
 10
2.6179746861
 20
3.364977499
 30
0.0
 40
0.1377952755905514
100
AcDbArc
 50
270.0
 51
357.005808558
  0
ARC
  5
136
330
1F
100
AcDbEntity
  8
0
  6
CONTINUOUS
 62
     7
100
AcDbCircle
 10
2.6179746861
 20
3.364977499
 30
0.0
 40
0.1377952755905514
100
AcDbArc
 50
194.2224168966
 51
270.0
  0
LINE
  5
137
330
1F
100
AcDbEntity
  8
0
  6
CONTINUOUS
 62
     8
100
AcDbLine
 10
4.0352975207
 20
4.2212767116
 30
0.0
 11
3.9018709458
 21
4.2212767116
 31
0.0
  0
LINE
  5
138
330
1F
100
AcDbEntity
  8
0
  6
CONTINUOUS
 62
     8
100
AcDbLine
 10
4.1693051953
 20
4.2212767116
 30
0.0
 11
4.0352975207
 21
4.2212767116
 31
0.0
  0
LINE
  5
139
330
1F
100
AcDbEntity
  8
0
  6
HIDDEN
 62
     7
100
AcDbLine
 10
4.1927778357
 20
3.7685208061
 30
0.0
 11
4.1927778357
 21
3.7488357667
 31
0.0
  0
LINE
  5
13A
330
1F
100
AcDbEntity
  8
0
  6
HIDDEN
 62
     7
100
AcDbLine
 10
4.0352975207
 20
4.0736389163
 30
0.0
 11
4.1730927963
 21
4.0736389163
 31
0.0
  0
LINE
  5
13B
330
1F
100
AcDbEntity
  8
0
  6
HIDDEN
 62
     7
100
AcDbLine
 10
3.8975022451
 20
4.0736389163
 30
0.0
 11
4.0352975207
 21
4.0736389163
 31
0.0
  0
LINE
  5
13C
330
1F
100
AcDbEntity
  8
0
  6
HIDDEN
 62
     7
100
AcDbLine
 10
3.6024788453
 20
4.2968809292
 30
0.0
 11
3.589103295
 21
4.2813522253
 31
0.0
  0
LINE
  5
13D
330
1F
100
AcDbEntity
  8
0
  6
HIDDEN
 62
     7
100
AcDbLine
 10
3.589103295
 20
4.2813522253
 30
0.0
 11
3.589103295
 21
4.2968809292
 31
0.0
  0
LINE
  5
13E
330
1F
100
AcDbEntity
  8
0
  6
HIDDEN
 62
     7
100
AcDbLine
 10
3.589103295
 20
3.2360043475
 30
0.0
 11
3.6002164665
 21
3.2231022129
 31
0.0
  0
LINE
  5
13F
330
1F
100
AcDbEntity
  8
0
  6
HIDDEN
 62
     7
100
AcDbLine
 10
3.589103295
 20
3.2231022129
 30
0.0
 11
3.589103295
 21
3.2360043475
 31
0.0
  0
LINE
  5
140
330
1F
100
AcDbEntity
  8
0
  6
HIDDEN
 62
     7
100
AcDbLine
 10
3.589103295
 20
3.2360043475
 30
0.0
 11
3.589103295
 21
4.2813522253
 31
0.0
  0
LINE
  5
141
330
1F
100
AcDbEntity
  8
0
  6
HIDDEN
 62
     7
100
AcDbLine
 10
3.713775211
 20
3.213150473
 30
0.0
 11
3.713775211
 21
3.2360043475
 31
0.0
  0
LINE
  5
142
330
1F
100
AcDbEntity
  8
0
  6
HIDDEN
 62
     7
100
AcDbLine
 10
3.713775211
 20
4.2813522253
 30
0.0
 11
3.713775211
 21
4.3042060998
 31
0.0
  0
LINE
  5
143
330
1F
100
AcDbEntity
  8
0
  6
HIDDEN
 62
     7
100
AcDbLine
 10
3.5694182556
 20
4.2942543599
 30
0.0
 11
3.6940901716
 21
4.2942543599
 31
0.0
  0
LINE
  5
144
330
1F
100
AcDbEntity
  8
0
  6
HIDDEN
 62
     7
100
AcDbLine
 10
3.5694182556
 20
4.2968809292
 30
0.0
 11
3.5694182556
 21
4.2942543599
 31
0.0
  0
LINE
  5
145
330
1F
100
AcDbEntity
  8
0
  6
HIDDEN
 62
     7
100
AcDbLine
 10
3.6940901716
 20
3.2204756436
 30
0.0
 11
3.5694182556
 21
3.2204756436
 31
0.0
  0
LINE
  5
146
330
1F
100
AcDbEntity
  8
0
  6
HIDDEN
 62
     7
100
AcDbLine
 10
3.6940901716
 20
3.2231022129
 30
0.0
 11
3.6940901716
 21
3.2204756436
 31
0.0
  0
LINE
  5
147
330
1F
100
AcDbEntity
  8
0
  6
HIDDEN
 62
     7
100
AcDbLine
 10
3.0838539512
 20
4.090279045
 30
0.0
 11
2.9591820351
 21
4.090279045
 31
0.0
  0
LINE
  5
148
330
1F
100
AcDbEntity
  8
0
  6
HIDDEN
 62
     7
100
AcDbLine
 10
3.0838539512
 20
4.0859987851
 30
0.0
 11
3.0838539512
 21
4.090279045
 31
0.0
  0
LINE
  5
149
330
1F
100
AcDbEntity
  8
0
  6
HIDDEN
 62
     7
100
AcDbLine
 10
2.9591820351
 20
3.4313577877
 30
0.0
 11
3.0838539512
 21
3.4313577877
 31
0.0
  0
LINE
  5
14A
330
1F
100
AcDbEntity
  8
0
  6
HIDDEN
 62
     7
100
AcDbLine
 10
2.9591820351
 20
3.4270775278
 30
0.0
 11
2.9591820351
 21
3.4313577877
 31
0.0
  0
SPLINE
  5
14B
330
1F
100
AcDbEntity
  8
0
  6
HIDDEN
 62
     7
100
AcDbSpline
210
0.0
220
0.0
230
1.0
 70
     8
 71
     3
 72
     8
 73
     4
 74
     0
 42
0.00000001
 43
0.00000001
 40
0.0
 40
0.0
 40
0.0
 40
0.0
 40
0.0005396960495912
 40
0.0005396960495912
 40
0.0005396960495912
 40
0.0005396960495912
 10
2.946744259460014
 20
4.073638916313309
 30
0.0
 10
2.950864856607613
 20
4.079203207521657
 30
0.0
 10
2.955011514575818
 20
4.084749565540316
 30
0.0
 10
2.959182035143083
 20
4.090279045004799
 30
0.0
  0
SPLINE
  5
14C
330
1F
100
AcDbEntity
  8
0
  6
HIDDEN
 62
     7
100
AcDbSpline
210
0.0
220
0.0
230
1.0
 70
     8
 71
     3
 72
     8
 73
     4
 74
     0
 42
0.00000001
 43
0.00000001
 40
0.0
 40
0.0
 40
0.0
 40
0.0
 40
0.0006187755009761
 40
0.0006187755009761
 40
0.0006187755009761
 40
0.0006187755009761
 10
2.942213319473265
 20
3.443717656470789
 30
0.0
 10
2.947867093424674
 20
3.439596009113777
 30
0.0
 10
2.953523401283461
 20
3.43547609903446
 30
0.0
 10
2.959182035143083
 20
3.431357787693177
 30
0.0
  0
SPLINE
  5
14D
330
1F
100
AcDbEntity
  8
0
  6
HIDDEN
 62
     7
100
AcDbSpline
210
0.0
220
0.0
230
1.0
 70
     8
 71
     3
 72
     8
 73
     4
 74
     0
 42
0.00000001
 43
0.00000001
 40
0.0
 40
0.0
 40
0.0
 40
0.0
 40
0.0002826305220997
 40
0.0002826305220997
 40
0.0002826305220997
 40
0.0002826305220997
 10
3.581856031298592
 20
3.227560921952418
 30
0.0
 10
3.584274698875241
 20
3.23037289418727
 30
0.0
 10
3.586690495956667
 20
3.233187338194089
 30
0.0
 10
3.589103294985602
 20
3.236004347519931
 30
0.0
  0
SPLINE
  5
14E
330
1F
100
AcDbEntity
  8
0
  6
HIDDEN
 62
     7
100
AcDbSpline
210
0.0
220
0.0
230
1.0
 70
     8
 71
     3
 72
     8
 73
     4
 74
     0
 42
0.00000001
 43
0.00000001
 40
0.0
 40
0.0
 40
0.0
 40
0.0
 40
0.0006187755009761
 40
0.0006187755009761
 40
0.0006187755009761
 40
0.0006187755009761
 10
3.569418255615523
 20
3.220475643576993
 30
0.0
 10
3.575076889475145
 20
3.224593954918277
 30
0.0
 10
3.580733197333933
 20
3.228713864997594
 30
0.0
 10
3.586386971285341
 20
3.232835512354606
 30
0.0
  0
SPLINE
  5
14F
330
1F
100
AcDbEntity
  8
0
  6
HIDDEN
 62
     7
100
AcDbSpline
210
0.0
220
0.0
230
1.0
 70
     8
 71
     3
 72
     8
 73
     4
 74
     0
 42
0.00000001
 43
0.00000001
 40
0.0
 40
0.0
 40
0.0
 40
0.0
 40
0.0005396960495912
 40
0.0005396960495912
 40
0.0005396960495912
 40
0.0005396960495912
 10
3.569418255615524
 20
3.223102212907583
 30
0.0
 10
3.573588776182788
 20
3.224583832464655
 30
0.0
 10
3.577735434150993
 20
3.226069974616689
 30
0.0
 10
3.581856031298592
 20
3.227560921952418
 30
0.0
  0
SPLINE
  5
150
330
1F
100
AcDbEntity
  8
0
  6
HIDDEN
 62
     7
100
AcDbSpline
210
0.0
220
0.0
230
1.0
 70
     8
 71
     3
 72
     8
 73
     4
 74
     0
 42
0.00000001
 43
0.00000001
 40
0.0
 40
0.0
 40
0.0
 40
0.0
 40
0.0001060124639956
 40
0.0001060124639956
 40
0.0001060124639956
 40
0.0001060124639956
 10
3.589103294985602
 20
4.281352225264163
 30
0.0
 10
3.588198273233941
 20
4.28240886308768
 30
0.0
 10
3.587292829716446
 20
4.283465139805643
 30
0.0
 10
3.586386971285341
 20
4.284521060429489
 30
0.0
  0
SPLINE
  5
151
330
1F
100
AcDbEntity
  8
0
  6
HIDDEN
 62
     7
100
AcDbSpline
210
0.0
220
0.0
230
1.0
 70
     8
 71
     3
 72
     8
 73
     4
 74
     0
 42
0.00000001
 43
0.00000001
 40
0.0
 40
0.0
 40
0.0
 40
0.0
 40
0.000618775500976
 40
0.000618775500976
 40
0.000618775500976
 40
0.000618775500976
 10
3.569418255615524
 20
4.296880929207101
 30
0.0
 10
3.575076889475145
 20
4.292762617865818
 30
0.0
 10
3.580733197333932
 20
4.288642707786501
 30
0.0
 10
3.586386971285341
 20
4.284521060429489
 30
0.0
  0
SPLINE
  5
152
330
1F
100
AcDbEntity
  8
0
  6
HIDDEN
 62
     7
100
AcDbSpline
210
0.0
220
0.0
230
1.0
 70
     8
 71
     3
 72
     8
 73
     4
 74
     0
 42
0.00000001
 43
0.00000001
 40
0.0
 40
0.0
 40
0.0
 40
0.0
 40
0.0005396960495912
 40
0.0005396960495912
 40
0.0005396960495912
 40
0.0005396960495912
 10
3.569418255615523
 20
4.29425435987651
 30
0.0
 10
3.573588776182789
 20
4.292772740319438
 30
0.0
 10
3.577735434150993
 20
4.291286598167404
 30
0.0
 10
3.581856031298593
 20
4.289795650831676
 30
0.0
  0
SPLINE
  5
153
330
1F
100
AcDbEntity
  8
0
  6
HIDDEN
 62
     7
100
AcDbSpline
210
0.0
220
0.0
230
1.0
 70
     8
 71
     3
 72
     8
 73
     4
 74
     0
 42
0.00000001
 43
0.00000001
 40
0.0
 40
0.0
 40
0.0
 40
0.0
 40
0.0002826305220997
 40
0.0002826305220997
 40
0.0002826305220997
 40
0.0002826305220997
 10
3.581856031298593
 20
4.289795650831676
 30
0.0
 10
3.584274698875241
 20
4.286983678596823
 30
0.0
 10
3.586690495956667
 20
4.284169234590005
 30
0.0
 10
3.589103294985602
 20
4.281352225264163
 30
0.0
  0
LINE
  5
154
330
1F
100
AcDbEntity
  8
0
  6
HIDDEN
 62
     7
100
AcDbLine
 10
3.5863869713
 20
4.2845210604
 30
0.0
 11
3.7110588873
 21
4.2845210604
 31
0.0
  0
LINE
  5
155
330
1F
100
AcDbEntity
  8
0
  6
HIDDEN
 62
     7
100
AcDbLine
 10
3.7065279473
 20
3.227560922
 30
0.0
 11
3.5818560313
 21
3.227560922
 31
0.0
  0
SPLINE
  5
156
330
1F
100
AcDbEntity
  8
0
  6
HIDDEN
 62
     7
100
AcDbSpline
210
0.0
220
0.0
230
1.0
 70
     8
 71
     3
 72
     8
 73
     4
 74
     0
 42
0.00000001
 43
0.00000001
 40
0.0
 40
0.0
 40
0.0
 40
0.0
 40
0.0005396960495912
 40
0.0005396960495912
 40
0.0005396960495912
 40
0.0005396960495912
 10
3.694090171626022
 20
4.29425435987651
 30
0.0
 10
3.698260692193287
 20
4.292772740319438
 30
0.0
 10
3.702407350161492
 20
4.291286598167404
 30
0.0
 10
3.706527947309091
 20
4.289795650831676
 30
0.0
  0
LINE
  5
157
330
1F
100
AcDbEntity
  8
0
  6
HIDDEN
 62
     7
100
AcDbLine
 10
3.7065279473
 20
4.2897956508
 30
0.0
 11
3.5818560313
 21
4.2897956508
 31
0.0
  0
SPLINE
  5
158
330
1F
100
AcDbEntity
  8
0
  6
HIDDEN
 62
     7
100
AcDbSpline
210
0.0
220
0.0
230
1.0
 70
     8
 71
     3
 72
     8
 73
     4
 74
     0
 42
0.00000001
 43
0.00000001
 40
0.0
 40
0.0
 40
0.0
 40
0.0
 40
0.0002826305220997
 40
0.0002826305220997
 40
0.0002826305220997
 40
0.0002826305220997
 10
3.713775210996101
 20
4.281352225264163
 30
0.0
 10
3.711362411967166
 20
4.284169234590005
 30
0.0
 10
3.70894661488574
 20
4.286983678596823
 30
0.0
 10
3.706527947309091
 20
4.289795650831676
 30
0.0
  0
LINE
  5
159
330
1F
100
AcDbEntity
  8
0
  6
HIDDEN
 62
     7
100
AcDbLine
 10
3.5863869713
 20
3.2328355124
 30
0.0
 11
3.7110588873
 21
3.2328355124
 31
0.0
  0
SPLINE
  5
15A
330
1F
100
AcDbEntity
  8
0
  6
HIDDEN
 62
     7
100
AcDbSpline
210
0.0
220
0.0
230
1.0
 70
     8
 71
     3
 72
     8
 73
     4
 74
     0
 42
0.00000001
 43
0.00000001
 40
0.0
 40
0.0
 40
0.0
 40
0.0
 40
0.0006187755009761
 40
0.0006187755009761
 40
0.0006187755009761
 40
0.0006187755009761
 10
3.71105888729584
 20
3.232835512354606
 30
0.0
 10
3.705405113344432
 20
3.228713864997594
 30
0.0
 10
3.699748805485644
 20
3.224593954918277
 30
0.0
 10
3.694090171626022
 20
3.220475643576993
 30
0.0
  0
LINE
  5
15B
330
1F
100
AcDbEntity
  8
0
  6
HIDDEN
 62
     7
100
AcDbLine
 10
3.0714161755
 20
4.0736389163
 30
0.0
 11
3.0668973088
 21
4.0736389163
 31
0.0
  0
SPLINE
  5
15C
330
1F
100
AcDbEntity
  8
0
  6
HIDDEN
 62
     7
100
AcDbSpline
210
0.0
220
0.0
230
1.0
 70
     8
 71
     3
 72
     8
 73
     4
 74
     0
 42
0.00000001
 43
0.00000001
 40
0.0
 40
0.0
 40
0.0
 40
0.0
 40
0.0006187755009761
 40
0.0006187755009761
 40
0.0006187755009761
 40
0.0006187755009761
 10
3.083853951153581
 20
3.431357787693177
 30
0.0
 10
3.07819531729396
 20
3.43547609903446
 30
0.0
 10
3.072539009435172
 20
3.439596009113777
 30
0.0
 10
3.066885235483764
 20
3.443717656470789
 30
0.0
  0
SPLINE
  5
15D
330
1F
100
AcDbEntity
  8
0
  6
HIDDEN
 62
     7
100
AcDbSpline
210
0.0
220
0.0
230
1.0
 70
     8
 71
     3
 72
     8
 73
     4
 74
     0
 42
0.00000001
 43
0.00000001
 40
0.0
 40
0.0
 40
0.0
 40
0.0
 40
0.0005396960495912
 40
0.0005396960495912
 40
0.0005396960495912
 40
0.0005396960495912
 10
3.071416175470513
 20
4.073638916313309
 30
0.0
 10
3.075536772618112
 20
4.079203207521657
 30
0.0
 10
3.079683430586317
 20
4.084749565540316
 30
0.0
 10
3.083853951153581
 20
4.090279045004799
 30
0.0
  0
LINE
  5
15E
330
1F
100
AcDbEntity
  8
0
  6
HIDDEN
 62
     7
100
AcDbLine
 10
4.1138175047
 20
3.3748200187
 30
0.0
 11
3.9567775367
 21
3.3748200187
 31
0.0
  0
LINE
  5
15F
330
1F
100
AcDbEntity
  8
0
  6
HIDDEN
 62
     7
100
AcDbLine
 10
4.1041951585
 20
3.364977499
 30
0.0
 11
3.9663998829
 21
3.364977499
 31
0.0
  0
LINE
  5
160
330
1F
100
AcDbEntity
  8
0
  6
HIDDEN
 62
     7
100
AcDbLine
 10
3.9762424026
 20
4.1130089951
 30
0.0
 11
4.0352975207
 21
4.1130089951
 31
0.0
  0
LINE
  5
161
330
1F
100
AcDbEntity
  8
0
  6
HIDDEN
 62
     7
100
AcDbLine
 10
4.0352975207
 20
4.1130089951
 30
0.0
 11
4.0943526388
 21
4.1130089951
 31
0.0
  0
LINE
  5
162
330
1F
100
AcDbEntity
  8
0
  6
HIDDEN
 62
     7
100
AcDbLine
 10
4.0352975207
 20
4.1130089951
 30
0.0
 11
4.0352975207
 21
4.2311192313
 31
0.0
  0
LINE
  5
163
330
1F
100
AcDbEntity
  8
0
  6
HIDDEN
 62
     7
100
AcDbLine
 10
4.0943526388
 20
4.1130089951
 30
0.0
 11
4.0943526388
 21
4.2311192313
 31
0.0
  0
LINE
  5
164
330
1F
100
AcDbEntity
  8
0
  6
HIDDEN
 62
     7
100
AcDbLine
 10
3.9762424026
 20
4.1130089951
 30
0.0
 11
3.9762424026
 21
4.2311192313
 31
0.0
  0
CIRCLE
  5
165
330
1F
100
AcDbEntity
  8
0
  6
HIDDEN
 62
     7
100
AcDbCircle
 10
2.6179746861
 20
3.364977499
 30
0.0
 40
0.0787401574803148
  0
POLYLINE
  5
166
330
1F
100
AcDbEntity
  8
0
  6
HIDDEN
 62
     7
100
AcDb2dPolyline
 66
     1
 10
0.0
 20
0.0
 30
0.0
  0
VERTEX
  5
32B
330
166
100
AcDbEntity
  8
0
  6
HIDDEN
 62
     7
100
AcDbVertex
100
AcDb2dVertex
 10
2.7268405594
 20
3.9158507217
 30
0.0
  0
VERTEX
  5
32C
330
166
100
AcDbEntity
  8
0
  6
HIDDEN
 62
     7
100
AcDbVertex
100
AcDb2dVertex
 10
2.7268405594
 20
3.9158507217
 30
0.0
  0
SEQEND
  5
32D
330
166
100
AcDbEntity
  8
0
  6
HIDDEN
 62
     7
  0
LINE
  5
167
330
1F
100
AcDbEntity
  8
0
  6
HIDDEN
 62
     7
100
AcDbLine
 10
2.4604943711
 20
3.9158507217
 30
0.0
 11
2.7268405594
 21
3.9158507217
 31
0.0
  0
LINE
  5
168
330
1F
100
AcDbEntity
  8
0
  6
HIDDEN
 62
     7
100
AcDbLine
 10
2.837790959
 20
3.6015058511
 30
0.0
 11
2.4604943711
 21
3.6015058511
 31
0.0
  0
LINE
  5
169
330
1F
100
AcDbEntity
  8
0
  6
HIDDEN
 62
     7
100
AcDbLine
 10
2.4604943711
 20
3.9158507217
 30
0.0
 11
2.4408093317
 21
3.9355700261
 31
0.0
  0
ARC
  5
16A
330
1F
100
AcDbEntity
  8
0
  6
HIDDEN
 62
     7
100
AcDbCircle
 10
2.4408093317
 20
3.6405680502
 30
0.0
 40
0.3969816272965883
100
AcDbArc
 50
43.9029816495
 51
90.0
  0
LINE
  5
16B
330
1F
100
AcDbEntity
  8
0
  6
HIDDEN
 62
     7
100
AcDbLine
 10
2.4408093317
 20
3.5817865467
 30
0.0
 11
2.4604943711
 21
3.6015058511
 31
0.0
  0
POLYLINE
  5
16C
330
1F
100
AcDbEntity
  8
0
  6
HIDDEN
 62
     7
100
AcDb2dPolyline
 66
     1
 10
0.0
 20
0.0
 30
0.0
  0
VERTEX
  5
32E
330
16C
100
AcDbEntity
  8
0
  6
HIDDEN
 62
     7
100
AcDbVertex
100
AcDb2dVertex
 10
2.7555818484
 20
3.3577798018
 30
0.0
  0
VERTEX
  5
32F
330
16C
100
AcDbEntity
  8
0
  6
HIDDEN
 62
     7
100
AcDbVertex
100
AcDb2dVertex
 10
2.7557699617
 20
3.364977499
 30
0.0
  0
VERTEX
  5
330
330
16C
100
AcDbEntity
  8
0
  6
HIDDEN
 62
     7
100
AcDbVertex
100
AcDb2dVertex
 10
2.7557607504
 20
3.3665707531
 30
0.0
  0
SEQEND
  5
331
330
16C
100
AcDbEntity
  8
0
  6
HIDDEN
 62
     7
  0
ARC
  5
16D
330
1F
100
AcDbEntity
  8
0
  6
HIDDEN
 62
     7
100
AcDbCircle
 10
2.6179746861
 20
3.364977499
 30
0.0
 40
0.137795275590551
100
AcDbArc
 50
89.444384685
 51
194.2224168966
  0
CIRCLE
  5
16E
330
1F
100
AcDbEntity
  8
0
  6
HIDDEN
 62
     7
100
AcDbCircle
 10
2.6179746861
 20
3.364977499
 30
0.0
 40
0.0688976377952764
  0
LINE
  5
16F
330
1F
100
AcDbEntity
  8
0
  6
HIDDEN
 62
     7
100
AcDbLine
 10
4.1730927963
 20
4.0736389163
 30
0.0
 11
4.1730927963
 21
4.2501362605
 31
0.0
  0
LINE
  5
170
330
1F
100
AcDbEntity
  8
0
  6
HIDDEN
 62
     7
100
AcDbLine
 10
3.8975022451
 20
4.2502530948
 30
0.0
 11
3.8975022451
 21
4.0736389163
 31
0.0
  0
LINE
  5
171
330
1F
100
AcDbEntity
  8
0
  6
HIDDEN
 62
     7
100
AcDbLine
 10
3.9565573632
 20
3.7488357667
 30
0.0
 11
3.9565573632
 21
3.2670227845
 31
0.0
  0
LINE
  5
172
330
1F
100
AcDbEntity
  8
0
  6
HIDDEN
 62
     7
100
AcDbLine
 10
4.1140376782
 20
3.2670615529
 30
0.0
 11
4.1140376782
 21
3.7488357667
 31
0.0
  0
LINE
  5
173
330
1F
100
AcDbEntity
  8
0
  6
HIDDEN
 62
     7
100
AcDbLine
 10
3.9565573632
 20
4.0736389163
 30
0.0
 11
3.9565573632
 21
3.7685208061
 31
0.0
  0
LINE
  5
174
330
1F
100
AcDbEntity
  8
0
  6
HIDDEN
 62
     7
100
AcDbLine
 10
4.1140376782
 20
3.7685208061
 30
0.0
 11
4.1140376782
 21
4.0736389163
 31
0.0
  0
LINE
  5
175
330
1F
100
AcDbEntity
  8
0
  6
HIDDEN
 62
     7
100
AcDbLine
 10
4.212462875
 20
3.9358436407
 30
0.0
 11
4.1927778357
 21
3.9161586014
 31
0.0
  0
LINE
  5
176
330
1F
100
AcDbEntity
  8
0
  6
HIDDEN
 62
     7
100
AcDbLine
 10
4.1927778357
 20
3.6011979714
 30
0.0
 11
4.212462875
 21
3.5815129321
 31
0.0
  0
LINE
  5
177
330
1F
100
AcDbEntity
  8
0
  6
HIDDEN
 62
     7
100
AcDbLine
 10
3.7957962084
 20
3.9161586014
 30
0.0
 11
3.589103295
 21
3.9161586014
 31
0.0
  0
LINE
  5
178
330
1F
100
AcDbEntity
  8
0
  6
HIDDEN
 62
     7
100
AcDbLine
 10
3.589103295
 20
3.6011979714
 30
0.0
 11
3.7957962084
 21
3.6011979714
 31
0.0
  0
LINE
  5
179
330
1F
100
AcDbEntity
  8
0
  6
HIDDEN
 62
     7
100
AcDbLine
 10
4.1927778357
 20
3.9161586014
 30
0.0
 11
3.8154812477
 21
3.9161586014
 31
0.0
  0
LINE
  5
17A
330
1F
100
AcDbEntity
  8
0
  6
HIDDEN
 62
     7
100
AcDbLine
 10
3.8154812477
 20
3.6011979714
 30
0.0
 11
4.1927778357
 21
3.6011979714
 31
0.0
  0
LINE
  5
17B
330
1F
100
AcDbEntity
  8
0
  6
HIDDEN
 62
     7
100
AcDbLine
 10
3.0641689118
 20
3.6011979714
 30
0.0
 11
3.589103295
 21
3.6011979714
 31
0.0
  0
LINE
  5
17C
330
1F
100
AcDbEntity
  8
0
  6
HIDDEN
 62
     7
100
AcDbLine
 10
3.589103295
 20
3.9161586014
 30
0.0
 11
3.0641689118
 21
3.9161586014
 31
0.0
  0
LINE
  5
17D
330
1F
100
AcDbEntity
  8
0
  6
HIDDEN
 62
     7
100
AcDbLine
 10
4.1730927963
 20
4.0736389163
 30
0.0
 11
4.1730927963
 21
4.2212767116
 31
0.0
  0
LINE
  5
17E
330
1F
100
AcDbEntity
  8
0
  6
HIDDEN
 62
     7
100
AcDbLine
 10
3.8975022451
 20
4.2212767116
 30
0.0
 11
3.8975022451
 21
4.0736389163
 31
0.0
  0
ARC
  5
17F
330
1F
100
AcDbEntity
  8
0
  6
HIDDEN
 62
     7
100
AcDbCircle
 10
3.9073447648
 20
4.2212767116
 30
0.0
 40
0.0098425196850397
100
AcDbArc
 50
134.9829034806
 51
180.0
  0
ARC
  5
180
330
1F
100
AcDbEntity
  8
0
  6
HIDDEN
 62
     7
100
AcDbCircle
 10
4.1632502766
 20
4.2212767116
 30
0.0
 40
0.0098425196850399
100
AcDbArc
 50
0.0
 51
45.6344353059
  0
LINE
  5
181
330
1F
100
AcDbEntity
  8
0
  6
HIDDEN
 62
     7
100
AcDbLine
 10
4.1140376782
 20
3.3748200187
 30
0.0
 11
4.1140376782
 21
3.7488357667
 31
0.0
  0
LINE
  5
182
330
1F
100
AcDbEntity
  8
0
  6
HIDDEN
 62
     7
100
AcDbLine
 10
4.1140376782
 20
3.7685208061
 30
0.0
 11
4.1140376782
 21
4.0736389163
 31
0.0
  0
LINE
  5
183
330
1F
100
AcDbEntity
  8
0
  6
HIDDEN
 62
     7
100
AcDbLine
 10
3.9565573632
 20
4.0736389163
 30
0.0
 11
3.9565573632
 21
3.7685208061
 31
0.0
  0
LINE
  5
184
330
1F
100
AcDbEntity
  8
0
  6
HIDDEN
 62
     7
100
AcDbLine
 10
3.9565573632
 20
3.7488357667
 30
0.0
 11
3.9565573632
 21
3.3748200187
 31
0.0
  0
ARC
  5
185
330
1F
100
AcDbEntity
  8
0
  6
HIDDEN
 62
     7
100
AcDbCircle
 10
4.1041951585
 20
3.3748200187
 30
0.0
 40
0.0098425196850394
100
AcDbArc
 50
270.0
 51
0.0
  0
ARC
  5
186
330
1F
100
AcDbEntity
  8
0
  6
HIDDEN
 62
     7
100
AcDbCircle
 10
3.9663998829
 20
3.3748200187
 30
0.0
 40
0.0098425196850394
100
AcDbArc
 50
180.0
 51
270.0
  0
LINE
  5
187
330
1F
100
AcDbEntity
  8
0
  6
HIDDEN
 62
     7
100
AcDbLine
 10
2.837790959
 20
3.9161586014
 30
0.0
 11
2.7268405594
 21
3.9161586014
 31
0.0
  0
LINE
  5
188
330
1F
100
AcDbEntity
  8
0
  6
HIDDEN
 62
     7
100
AcDbLine
 10
2.8574759984
 20
3.6011979714
 30
0.0
 11
3.0641689118
 21
3.6011979714
 31
0.0
  0
LINE
  5
189
330
1F
100
AcDbEntity
  8
0
  6
HIDDEN
 62
     7
100
AcDbLine
 10
3.0641689118
 20
3.9161586014
 30
0.0
 11
2.8574759984
 21
3.9161586014
 31
0.0
  0
LINE
  5
18A
330
1F
100
AcDbEntity
  8
0
  6
HIDDEN
 62
     7
100
AcDbLine
 10
4.1730927963
 20
4.2212767116
 30
0.0
 11
3.8975022451
 21
4.2212767116
 31
0.0
  0
LINE
  5
18B
330
1F
100
AcDbEntity
  8
0
  6
CONTINUOUS
 62
     7
100
AcDbLine
 10
7.7193885433
 20
4.2212767116
 30
0.0
 11
7.7193885433
 21
4.0967799407
 31
0.0
  0
ARC
  5
18C
330
1F
100
AcDbEntity
  8
0
  6
CONTINUOUS
 62
     7
100
AcDbCircle
 10
7.729231063
 20
4.2212767116
 30
0.0
 40
0.0098425196850389
100
AcDbArc
 50
90.0
 51
180.0
  0
LINE
  5
18D
330
1F
100
AcDbEntity
  8
0
  6
CONTINUOUS
 62
     7
100
AcDbLine
 10
7.9359239764
 20
3.7488357667
 30
0.0
 11
7.9359239764
 21
3.7685208061
 31
0.0
  0
LINE
  5
18E
330
1F
100
AcDbEntity
  8
0
  6
CONTINUOUS
 62
     7
100
AcDbLine
 10
7.7784436614
 20
3.7685208061
 30
0.0
 11
7.7784436614
 21
3.7488357667
 31
0.0
  0
LINE
  5
18F
330
1F
100
AcDbEntity
  8
0
  6
CONTINUOUS
 62
     7
100
AcDbLine
 10
7.7882861811
 20
3.2271822234
 30
0.0
 11
7.912782952
 21
3.2271822234
 31
0.0
  0
ARC
  5
190
330
1F
100
AcDbEntity
  8
0
  6
CONTINUOUS
 62
     7
100
AcDbCircle
 10
7.7882861811
 20
3.2370247431
 30
0.0
 40
0.0098425196850394
100
AcDbArc
 50
180.0
 51
270.0
  0
ARC
  5
191
330
1F
100
AcDbEntity
  8
0
  6
CONTINUOUS
 62
     7
100
AcDbCircle
 10
8.2508846063
 20
3.7586782864
 30
0.0
 40
0.1771653543307102
100
AcDbArc
 50
183.1847385367
 51
356.8152614633
  0
LINE
  5
192
330
1F
100
AcDbEntity
  8
0
  6
CONTINUOUS
 62
     7
100
AcDbLine
 10
8.427776346
 20
3.7488357667
 30
0.0
 11
8.5297559974
 21
3.7488357667
 31
0.0
  0
LINE
  5
193
330
1F
100
AcDbEntity
  8
0
  6
CONTINUOUS
 62
     7
100
AcDbLine
 10
8.5297559974
 20
3.7488357667
 30
0.0
 11
8.5297559974
 21
3.7685208061
 31
0.0
  0
LINE
  5
194
330
1F
100
AcDbEntity
  8
0
  6
CONTINUOUS
 62
     7
100
AcDbLine
 10
8.427776346
 20
3.7685208061
 30
0.0
 11
8.5297559974
 21
3.7685208061
 31
0.0
  0
ARC
  5
195
330
1F
100
AcDbEntity
  8
0
  6
CONTINUOUS
 62
     7
100
AcDbCircle
 10
8.2508846063
 20
3.7586782864
 30
0.0
 40
0.1771653543307102
100
AcDbArc
 50
3.1847385367
 51
176.8152614633
  0
LINE
  5
196
330
1F
100
AcDbEntity
  8
0
  6
CONTINUOUS
 62
     7
100
AcDbLine
 10
7.6407277662
 20
3.7685208061
 30
0.0
 11
8.0739928666
 21
3.7685208061
 31
0.0
  0
ARC
  5
197
330
1F
100
AcDbEntity
  8
0
  6
CONTINUOUS
 62
     7
100
AcDbCircle
 10
8.2508846063
 20
3.7586782864
 30
0.0
 40
0.6102362204724407
100
AcDbArc
 50
180.9241655486
 51
179.0758344514
  0
LINE
  5
198
330
1F
100
AcDbEntity
  8
0
  6
CONTINUOUS
 62
     7
100
AcDbLine
 10
7.6407277662
 20
3.7488357667
 30
0.0
 11
8.0739928666
 21
3.7488357667
 31
0.0
  0
LINE
  5
199
330
1F
100
AcDbEntity
  8
0
  6
CONTINUOUS
 62
     7
100
AcDbLine
 10
7.6210402459
 20
3.7685208061
 30
0.0
 11
7.6407277662
 21
3.7685208061
 31
0.0
  0
ARC
  5
19A
330
1F
100
AcDbEntity
  8
0
  6
CONTINUOUS
 62
     7
100
AcDbCircle
 10
8.2508846063
 20
3.7586782864
 30
0.0
 40
0.6299212598425187
100
AcDbArc
 50
180.8952829866
 51
179.1047170134
  0
LINE
  5
19B
330
1F
100
AcDbEntity
  8
0
  6
CONTINUOUS
 62
     7
100
AcDbLine
 10
7.6210402459
 20
3.7488357667
 30
0.0
 11
7.6407277662
 21
3.7488357667
 31
0.0
  0
SPLINE
  5
19C
330
1F
100
AcDbEntity
  8
0
  6
CONTINUOUS
 62
     7
100
AcDbSpline
210
0.0
220
0.0
230
1.0
 70
     8
 71
     3
 72
     8
 73
     4
 74
     0
 42
0.00000001
 43
0.00000001
 40
0.0
 40
0.0
 40
0.0
 40
0.0
 40
1.0
 40
1.0
 40
1.0
 40
1.0
 10
8.408057041586503
 20
3.748835766707008
 30
0.0
 10
8.408467949913987
 20
3.755397446497034
 30
0.0
 10
8.408467949913987
 20
3.76195912628706
 30
0.0
 10
8.408057041586503
 20
3.768520806077087
 30
0.0
  0
ARC
  5
19D
330
1F
100
AcDbEntity
  8
0
  6
CONTINUOUS
 62
     7
100
AcDbCircle
 10
8.2508846063
 20
3.7586782864
 30
0.0
 40
0.1574803149606303
100
AcDbArc
 50
3.5833216985
 51
176.4166783015
  0
LINE
  5
19E
330
1F
100
AcDbEntity
  8
0
  6
CONTINUOUS
 62
     7
100
AcDbLine
 10
8.0739928666
 20
3.7685208061
 30
0.0
 11
8.0937121711
 21
3.7685208061
 31
0.0
  0
LINE
  5
19F
330
1F
100
AcDbEntity
  8
0
  6
CONTINUOUS
 62
     7
100
AcDbLine
 10
8.4080570416
 20
3.7685208061
 30
0.0
 11
8.427776346
 21
3.7685208061
 31
0.0
  0
ARC
  5
1A0
330
1F
100
AcDbEntity
  8
0
  6
CONTINUOUS
 62
     7
100
AcDbCircle
 10
8.2508846063
 20
3.7586782864
 30
0.0
 40
0.1574803149606303
100
AcDbArc
 50
183.5833216985
 51
356.4166783015
  0
LINE
  5
1A1
330
1F
100
AcDbEntity
  8
0
  6
CONTINUOUS
 62
     7
100
AcDbLine
 10
8.0739928666
 20
3.7488357667
 30
0.0
 11
8.0937121711
 21
3.7488357667
 31
0.0
  0
LINE
  5
1A2
330
1F
100
AcDbEntity
  8
0
  6
CONTINUOUS
 62
     7
100
AcDbLine
 10
8.4080570416
 20
3.7488357667
 30
0.0
 11
8.427776346
 21
3.7488357667
 31
0.0
  0
POLYLINE
  5
1A3
330
1F
100
AcDbEntity
  8
0
  6
CONTINUOUS
 62
     7
100
AcDb2dPolyline
 66
     1
 10
0.0
 20
0.0
 30
0.0
  0
VERTEX
  5
332
330
1A3
100
AcDbEntity
  8
0
  6
CONTINUOUS
 62
     7
100
AcDbVertex
100
AcDb2dVertex
 10
8.0937121711
 20
3.7488357667
 30
0.0
  0
VERTEX
  5
333
330
1A3
100
AcDbEntity
  8
0
  6
CONTINUOUS
 62
     7
100
AcDbVertex
100
AcDb2dVertex
 10
8.0934042914
 20
3.7586782864
 30
0.0
  0
VERTEX
  5
334
330
1A3
100
AcDbEntity
  8
0
  6
CONTINUOUS
 62
     7
100
AcDbVertex
100
AcDb2dVertex
 10
8.0937121711
 20
3.7685208061
 30
0.0
  0
SEQEND
  5
335
330
1A3
100
AcDbEntity
  8
0
  6
CONTINUOUS
 62
     7
  0
LINE
  5
1A4
330
1F
100
AcDbEntity
  8
0
  6
CONTINUOUS
 62
     7
100
AcDbLine
 10
7.6210402459
 20
3.7685208061
 30
0.0
 11
7.6210402459
 21
3.7488357667
 31
0.0
  0
LINE
  5
1A5
330
1F
100
AcDbEntity
  8
0
  6
CONTINUOUS
 62
     7
100
AcDbLine
 10
7.729231063
 20
4.2311192313
 30
0.0
 11
7.8342308566
 21
4.2311192313
 31
0.0
  0
LINE
  5
1A6
330
1F
100
AcDbEntity
  8
0
  6
CONTINUOUS
 62
     7
100
AcDbLine
 10
7.7784436614
 20
3.3420245366
 30
0.0
 11
7.7784436614
 21
3.2370247431
 31
0.0
  0
LINE
  5
1A7
330
1F
100
AcDbEntity
  8
0
  6
CONTINUOUS
 62
     8
100
AcDbLine
 10
7.8233293577
 20
4.2212767116
 30
0.0
 11
7.7193885433
 21
4.2212767116
 31
0.0
  0
LINE
  5
1A8
330
1F
100
AcDbEntity
  8
0
  6
CONTINUOUS
 62
     8
100
AcDbLine
 10
7.7882861811
 20
3.2271822234
 30
0.0
 11
7.7882861811
 21
3.3311230378
 31
0.0
  0
LINE
  5
1A9
330
1F
100
AcDbEntity
  8
0
  6
HIDDEN
 62
     7
100
AcDbLine
 10
7.7193885433
 20
4.0736389163
 30
0.0
 11
7.9949790945
 21
4.0736389163
 31
0.0
  0
LINE
  5
1AA
330
1F
100
AcDbEntity
  8
0
  6
HIDDEN
 62
     7
100
AcDbLine
 10
8.4083649213
 20
3.1487596492
 30
0.0
 11
8.4083649213
 21
3.7480351026
 31
0.0
  0
LINE
  5
1AB
330
1F
100
AcDbEntity
  8
0
  6
HIDDEN
 62
     7
100
AcDbLine
 10
8.4083649213
 20
3.7693214702
 30
0.0
 11
8.4083649213
 21
4.3685969236
 31
0.0
  0
POLYLINE
  5
1AC
330
1F
100
AcDbEntity
  8
0
  6
HIDDEN
 62
     7
100
AcDb2dPolyline
 66
     1
 10
0.0
 20
0.0
 30
0.0
  0
VERTEX
  5
336
330
1AC
100
AcDbEntity
  8
0
  6
HIDDEN
 62
     7
100
AcDbVertex
100
AcDb2dVertex
 10
8.4080570416
 20
3.7685208061
 30
0.0
  0
VERTEX
  5
337
330
1AC
100
AcDbEntity
  8
0
  6
HIDDEN
 62
     7
100
AcDbVertex
100
AcDb2dVertex
 10
8.4083649213
 20
3.7586782864
 30
0.0
  0
VERTEX
  5
338
330
1AC
100
AcDbEntity
  8
0
  6
HIDDEN
 62
     7
100
AcDbVertex
100
AcDb2dVertex
 10
8.4080570416
 20
3.7488357667
 30
0.0
  0
SEQEND
  5
339
330
1AC
100
AcDbEntity
  8
0
  6
HIDDEN
 62
     7
  0
SPLINE
  5
1AD
330
1F
100
AcDbEntity
  8
0
  6
HIDDEN
 62
     7
100
AcDbSpline
210
0.0
220
0.0
230
1.0
 70
    24
 71
     3
 72
     8
 73
     4
 74
     0
 42
0.00000001
 43
0.00000001
 40
0.0
 40
0.0
 40
0.0
 40
0.0
 40
0.0007661375841575
 40
0.0007661375841575
 40
0.0007661375841575
 40
0.0007661375841575
 10
7.93592397640273
 20
4.281352225264163
 30
0.0
 10
7.93592397640273
 20
4.288988402360024
 30
0.0
 10
7.93592397640273
 20
4.296605764149997
 30
0.0
 10
7.93592397640273
 20
4.304206099799567
 30
0.0
  0
LINE
  5
1AE
330
1F
100
AcDbEntity
  8
0
  6
HIDDEN
 62
     7
100
AcDbLine
 10
8.5658452362
 20
3.213150473
 30
0.0
 11
8.5658452362
 21
4.3042060998
 31
0.0
  0
POLYLINE
  5
1AF
330
1F
100
AcDbEntity
  8
0
  6
HIDDEN
 62
     7
100
AcDb2dPolyline
 66
     1
 10
0.0
 20
0.0
 30
0.0
  0
VERTEX
  5
33A
330
1AF
100
AcDbEntity
  8
0
  6
HIDDEN
 62
     7
100
AcDbVertex
100
AcDb2dVertex
 10
7.6407277662
 20
3.7488357667
 30
0.0
  0
VERTEX
  5
33B
330
1AF
100
AcDbEntity
  8
0
  6
HIDDEN
 62
     7
100
AcDbVertex
100
AcDb2dVertex
 10
7.6406483859
 20
3.7586782864
 30
0.0
  0
VERTEX
  5
33C
330
1AF
100
AcDbEntity
  8
0
  6
HIDDEN
 62
     7
100
AcDbVertex
100
AcDb2dVertex
 10
7.6407277662
 20
3.7685208061
 30
0.0
  0
SEQEND
  5
33D
330
1AF
100
AcDbEntity
  8
0
  6
HIDDEN
 62
     7
  0
LINE
  5
1B0
330
1F
100
AcDbEntity
  8
0
  6
HIDDEN
 62
     7
100
AcDbLine
 10
7.9359239764
 20
3.2360043475
 30
0.0
 11
7.9359239764
 21
4.2813522253
 31
0.0
  0
SPLINE
  5
1B1
330
1F
100
AcDbEntity
  8
0
  6
HIDDEN
 62
     7
100
AcDbSpline
210
0.0
220
0.0
230
1.0
 70
    24
 71
     3
 72
     8
 73
     4
 74
     0
 42
0.00000001
 43
0.00000001
 40
0.0
 40
0.0
 40
0.0
 40
0.0
 40
0.0005396960495912
 40
0.0005396960495912
 40
0.0005396960495912
 40
0.0005396960495912
 10
8.58248536493674
 20
4.29425435987651
 30
0.0
 10
8.576955885472257
 20
4.292772740319438
 30
0.0
 10
8.571409527453598
 20
4.291286598167404
 30
0.0
 10
8.56584523624525
 20
4.289795650831676
 30
0.0
  0
SPLINE
  5
1B2
330
1F
100
AcDbEntity
  8
0
  6
HIDDEN
 62
     7
100
AcDbSpline
210
0.0
220
0.0
230
1.0
 70
    24
 71
     3
 72
     8
 73
     4
 74
     0
 42
0.00000001
 43
0.00000001
 40
0.0
 40
0.0
 40
0.0
 40
0.0
 40
0.0006187755009761
 40
0.0006187755009761
 40
0.0006187755009761
 40
0.0006187755009761
 10
8.56584523624525
 20
3.232835512354606
 30
0.0
 10
8.569966883602262
 20
3.228713864997594
 30
0.0
 10
8.574086793681579
 20
3.224593954918277
 30
0.0
 10
8.578205105022864
 20
3.220475643576993
 30
0.0
  0
LINE
  5
1B3
330
1F
100
AcDbEntity
  8
0
  6
HIDDEN
 62
     7
100
AcDbLine
 10
8.5658452362
 20
3.2360043475
 30
0.0
 11
8.5658452362
 21
4.2813522253
 31
0.0
  0
POLYLINE
  5
1B4
330
1F
100
AcDbEntity
  8
0
  6
HIDDEN
 62
     7
100
AcDb2dPolyline
 66
     1
 10
0.0
 20
0.0
 30
0.0
  0
VERTEX
  5
33E
330
1B4
100
AcDbEntity
  8
0
  6
HIDDEN
 62
     7
100
AcDbVertex
100
AcDb2dVertex
 10
7.6407277662
 20
3.7685208061
 30
0.0
  0
VERTEX
  5
33F
330
1B4
100
AcDbEntity
  8
0
  6
HIDDEN
 62
     7
100
AcDbVertex
100
AcDb2dVertex
 10
7.6406483859
 20
3.7586782864
 30
0.0
  0
VERTEX
  5
340
330
1B4
100
AcDbEntity
  8
0
  6
HIDDEN
 62
     7
100
AcDbVertex
100
AcDb2dVertex
 10
7.6407277662
 20
3.7488357667
 30
0.0
  0
SEQEND
  5
341
330
1B4
100
AcDbEntity
  8
0
  6
HIDDEN
 62
     7
  0
SPLINE
  5
1B5
330
1F
100
AcDbEntity
  8
0
  6
HIDDEN
 62
     7
100
AcDbSpline
210
0.0
220
0.0
230
1.0
 70
    24
 71
     3
 72
     8
 73
     4
 74
     0
 42
0.00000001
 43
0.00000001
 40
0.0
 40
0.0
 40
0.0
 40
0.0
 40
0.0005396960495912
 40
0.0005396960495912
 40
0.0005396960495912
 40
0.0005396960495912
 10
7.91928384771124
 20
3.223102212907583
 30
0.0
 10
7.924813327175723
 20
3.224583832464655
 30
0.0
 10
7.930359685194382
 20
3.226069974616689
 30
0.0
 10
7.93592397640273
 20
3.227560921952418
 30
0.0
  0
SPLINE
  5
1B6
330
1F
100
AcDbEntity
  8
0
  6
HIDDEN
 62
     7
100
AcDbSpline
210
0.0
220
0.0
230
1.0
 70
    24
 71
     3
 72
     8
 73
     4
 74
     0
 42
0.00000001
 43
0.00000001
 40
0.0
 40
0.0
 40
0.0
 40
0.0
 40
0.000618775500976
 40
0.000618775500976
 40
0.000618775500976
 40
0.000618775500976
 10
7.923564107625118
 20
4.296880929207101
 30
0.0
 10
7.927682418966401
 20
4.292762617865818
 30
0.0
 10
7.931802329045718
 20
4.288642707786501
 30
0.0
 10
7.93592397640273
 20
4.284521060429489
 30
0.0
  0
LINE
  5
1B7
330
1F
100
AcDbEntity
  8
0
  6
HIDDEN
 62
     7
100
AcDbLine
 10
7.9359239764
 20
4.2813522253
 30
0.0
 11
7.9359239764
 21
4.0736389163
 31
0.0
  0
SPLINE
  5
1B8
330
1F
100
AcDbEntity
  8
0
  6
HIDDEN
 62
     7
100
AcDbSpline
210
0.0
220
0.0
230
1.0
 70
    24
 71
     3
 72
     8
 73
     4
 74
     0
 42
0.00000001
 43
0.00000001
 40
0.0
 40
0.0
 40
0.0
 40
0.0
 40
0.0005396960495912
 40
0.0005396960495912
 40
0.0005396960495912
 40
0.0005396960495912
 10
8.782001970763618
 20
4.073638916313309
 30
0.0
 10
8.783492918099347
 20
4.079203207521657
 30
0.0
 10
8.78497906025138
 20
4.084749565540316
 30
0.0
 10
8.786460679808453
 20
4.090279045004799
 30
0.0
  0
SPLINE
  5
1B9
330
1F
100
AcDbEntity
  8
0
  6
HIDDEN
 62
     7
100
AcDbSpline
210
0.0
220
0.0
230
1.0
 70
    24
 71
     3
 72
     8
 73
     4
 74
     0
 42
0.00000001
 43
0.00000001
 40
0.0
 40
0.0
 40
0.0
 40
0.0
 40
0.0006187755009761
 40
0.0006187755009761
 40
0.0006187755009761
 40
0.0006187755009761
 10
8.789087249139046
 20
3.431357787693177
 30
0.0
 10
8.784968937797762
 20
3.43547609903446
 30
0.0
 10
8.780849027718444
 20
3.439596009113777
 30
0.0
 10
8.776727380361432
 20
3.443717656470789
 30
0.0
  0
SPLINE
  5
1BA
330
1F
100
AcDbEntity
  8
0
  6
HIDDEN
 62
     7
100
AcDbSpline
210
0.0
220
0.0
230
1.0
 70
    24
 71
     3
 72
     8
 73
     4
 74
     0
 42
0.00000001
 43
0.00000001
 40
0.0
 40
0.0
 40
0.0
 40
0.0
 40
0.0005396960495912
 40
0.0005396960495912
 40
0.0005396960495912
 40
0.0005396960495912
 10
7.719767241884361
 20
3.443717656470785
 30
0.0
 10
7.718276294548633
 20
3.438153365262437
 30
0.0
 10
7.7167901523966
 20
3.432607007243778
 30
0.0
 10
7.715308532839527
 20
3.427077527779295
 30
0.0
  0
SPLINE
  5
1BB
330
1F
100
AcDbEntity
  8
0
  6
HIDDEN
 62
     7
100
AcDbSpline
210
0.0
220
0.0
230
1.0
 70
    24
 71
     3
 72
     8
 73
     4
 74
     0
 42
0.00000001
 43
0.00000001
 40
0.0
 40
0.0
 40
0.0
 40
0.0
 40
0.0006187755009761
 40
0.0006187755009761
 40
0.0006187755009761
 40
0.0006187755009761
 10
7.725041832286547
 20
4.073638916313305
 30
0.0
 10
7.720920184929535
 20
4.077760563670317
 30
0.0
 10
7.716800274850218
 20
4.081880473749634
 30
0.0
 10
7.712681963508935
 20
4.085998785090918
 30
0.0
  0
SPLINE
  5
1BC
330
1F
100
AcDbEntity
  8
0
  6
HIDDEN
 62
     7
100
AcDbSpline
210
0.0
220
0.0
230
1.0
 70
    24
 71
     3
 72
     8
 73
     4
 74
     0
 42
0.00000001
 43
0.00000001
 40
0.0
 40
0.0
 40
0.0
 40
0.0
 40
0.0002826305220997
 40
0.0002826305220997
 40
0.0002826305220997
 40
0.0002826305220997
 10
7.719767241884361
 20
3.443717656470785
 30
0.0
 10
7.722579214119214
 20
3.443717656470785
 30
0.0
 10
7.725393658126033
 20
3.443717656470785
 30
0.0
 10
7.728210667451876
 20
3.443717656470785
 30
0.0
  0
SPLINE
  5
1BD
330
1F
100
AcDbEntity
  8
0
  6
HIDDEN
 62
     7
100
AcDbSpline
210
0.0
220
0.0
230
1.0
 70
    24
 71
     3
 72
     8
 73
     4
 74
     0
 42
0.00000001
 43
0.00000001
 40
0.0
 40
0.0
 40
0.0
 40
0.0
 40
0.0001060124639956
 40
0.0001060124639956
 40
0.0001060124639956
 40
0.0001060124639956
 10
8.773558545196106
 20
3.443717656470789
 30
0.0
 10
8.774615183019623
 20
3.443717656470789
 30
0.0
 10
8.775671459737586
 20
3.443717656470789
 30
0.0
 10
8.776727380361432
 20
3.443717656470789
 30
0.0
  0
SPLINE
  5
1BE
330
1F
100
AcDbEntity
  8
0
  6
HIDDEN
 62
     7
100
AcDbSpline
210
0.0
220
0.0
230
1.0
 70
    24
 71
     3
 72
     8
 73
     4
 74
     0
 42
0.00000001
 43
0.00000001
 40
0.0
 40
0.0
 40
0.0
 40
0.0
 40
0.0002826305220997
 40
0.0002826305220997
 40
0.0002826305220997
 40
0.0002826305220997
 10
8.782001970763618
 20
4.073638916313309
 30
0.0
 10
8.779189998528766
 20
4.073638916313309
 30
0.0
 10
8.776375554521946
 20
4.073638916313309
 30
0.0
 10
8.773558545196105
 20
4.073638916313309
 30
0.0
  0
LINE
  5
1BF
330
1F
100
AcDbEntity
  8
0
  6
HIDDEN
 62
     7
100
AcDbLine
 10
7.9949790945
 20
4.0736389163
 30
0.0
 11
8.7735585452
 21
4.0736389163
 31
0.0
  0
LINE
  5
1C0
330
1F
100
AcDbEntity
  8
0
  6
HIDDEN
 62
     7
100
AcDbLine
 10
8.7735585452
 20
3.4437176565
 30
0.0
 11
7.7282106675
 21
3.4437176565
 31
0.0
  0
LINE
  5
1C1
330
1F
100
AcDbEntity
  8
0
  6
HIDDEN
 62
     7
100
AcDbLine
 10
7.8342308566
 20
4.2311192313
 30
0.0
 11
7.9851365748
 21
4.2311192313
 31
0.0
  0
LINE
  5
1C2
330
1F
100
AcDbEntity
  8
0
  6
HIDDEN
 62
     7
100
AcDbLine
 10
7.9359239764
 20
3.3748200187
 30
0.0
 11
7.7784436614
 21
3.3748200187
 31
0.0
  0
LINE
  5
1C3
330
1F
100
AcDbEntity
  8
0
  6
HIDDEN
 62
     7
100
AcDbLine
 10
7.9260814567
 20
3.364977499
 30
0.0
 11
7.7882861816
 21
3.364977499
 31
0.0
  0
LINE
  5
1C4
330
1F
100
AcDbEntity
  8
0
  6
HIDDEN
 62
     7
100
AcDbLine
 10
7.8912793073
 20
4.1130089951
 30
0.0
 11
7.9253747956
 21
4.1130089951
 31
0.0
  0
LINE
  5
1C5
330
1F
100
AcDbEntity
  8
0
  6
HIDDEN
 62
     7
100
AcDbLine
 10
7.8230883306
 20
4.1130089951
 30
0.0
 11
7.8912793073
 21
4.1130089951
 31
0.0
  0
LINE
  5
1C6
330
1F
100
AcDbEntity
  8
0
  6
HIDDEN
 62
     7
100
AcDbLine
 10
7.8912793073
 20
4.1130089951
 30
0.0
 11
7.8912793073
 21
4.2311192313
 31
0.0
  0
LINE
  5
1C7
330
1F
100
AcDbEntity
  8
0
  6
HIDDEN
 62
     7
100
AcDbLine
 10
7.8230883306
 20
4.1130089951
 30
0.0
 11
7.8230883306
 21
4.2311192313
 31
0.0
  0
LINE
  5
1C8
330
1F
100
AcDbEntity
  8
0
  6
HIDDEN
 62
     7
100
AcDbLine
 10
7.7889928422
 20
4.1130089951
 30
0.0
 11
7.8230883306
 21
4.1130089951
 31
0.0
  0
LINE
  5
1C9
330
1F
100
AcDbEntity
  8
0
  6
HIDDEN
 62
     7
100
AcDbLine
 10
7.9253747956
 20
4.1130089951
 30
0.0
 11
7.9253747956
 21
4.2311192313
 31
0.0
  0
LINE
  5
1CA
330
1F
100
AcDbEntity
  8
0
  6
HIDDEN
 62
     7
100
AcDbLine
 10
7.7889928422
 20
4.1130089951
 30
0.0
 11
7.7889928422
 21
4.2311192313
 31
0.0
  0
LINE
  5
1CB
330
1F
100
AcDbEntity
  8
0
  6
HIDDEN
 62
     7
100
AcDbLine
 10
8.7964124197
 20
4.0736389163
 30
0.0
 11
8.782097535
 21
4.0736389163
 31
0.0
  0
LINE
  5
1CC
330
1F
100
AcDbEntity
  8
0
  6
HIDDEN
 62
     7
100
AcDbLine
 10
8.7768129222
 20
3.4437176565
 30
0.0
 11
8.7964124197
 21
3.4437176565
 31
0.0
  0
LINE
  5
1CD
330
1F
100
AcDbEntity
  8
0
  6
HIDDEN
 62
     7
100
AcDbLine
 10
7.7053567929
 20
3.4437176565
 30
0.0
 11
7.7196716777
 21
3.4437176565
 31
0.0
  0
LINE
  5
1CE
330
1F
100
AcDbEntity
  8
0
  6
HIDDEN
 62
     7
100
AcDbLine
 10
7.7184472337
 20
4.0736389163
 30
0.0
 11
7.7053567929
 21
4.0736389163
 31
0.0
  0
LINE
  5
1CF
330
1F
100
AcDbEntity
  8
0
  6
HIDDEN
 62
     7
100
AcDbLine
 10
8.8608032435
 20
3.9161586014
 30
0.0
 11
8.2508846063
 21
3.9161586014
 31
0.0
  0
LINE
  5
1D0
330
1F
100
AcDbEntity
  8
0
  6
HIDDEN
 62
     7
100
AcDbLine
 10
8.2508846063
 20
3.9161586014
 30
0.0
 11
7.6409659691
 21
3.9161586014
 31
0.0
  0
LINE
  5
1D1
330
1F
100
AcDbEntity
  8
0
  6
HIDDEN
 62
     7
100
AcDbLine
 10
8.260727126
 20
3.1288339259
 30
0.0
 11
8.260727126
 21
3.6015058511
 31
0.0
  0
LINE
  5
1D2
330
1F
100
AcDbEntity
  8
0
  6
HIDDEN
 62
     7
100
AcDbLine
 10
8.2410420866
 20
3.1288339259
 30
0.0
 11
8.2410420866
 21
3.6015058511
 31
0.0
  0
LINE
  5
1D3
330
1F
100
AcDbEntity
  8
0
  6
HIDDEN
 62
     7
100
AcDbLine
 10
8.260727126
 20
4.0375496775
 30
0.0
 11
8.2410420866
 21
4.0375496775
 31
0.0
  0
LINE
  5
1D4
330
1F
100
AcDbEntity
  8
0
  6
HIDDEN
 62
     7
100
AcDbLine
 10
8.2410420866
 20
4.0375496775
 30
0.0
 11
8.2410420866
 21
3.9158507217
 31
0.0
  0
LINE
  5
1D5
330
1F
100
AcDbEntity
  8
0
  6
HIDDEN
 62
     7
100
AcDbLine
 10
8.260727126
 20
4.0375496775
 30
0.0
 11
8.260727126
 21
3.9158507217
 31
0.0
  0
POLYLINE
  5
1D6
330
1F
100
AcDbEntity
  8
0
  6
HIDDEN
 62
     7
100
AcDb2dPolyline
 66
     1
 10
0.0
 20
0.0
 30
0.0
  0
VERTEX
  5
342
330
1D6
100
AcDbEntity
  8
0
  6
HIDDEN
 62
     7
100
AcDbVertex
100
AcDb2dVertex
 10
8.0739928666
 20
3.7488357667
 30
0.0
  0
VERTEX
  5
343
330
1D6
100
AcDbEntity
  8
0
  6
HIDDEN
 62
     7
100
AcDbVertex
100
AcDb2dVertex
 10
8.073719252
 20
3.7586782864
 30
0.0
  0
VERTEX
  5
344
330
1D6
100
AcDbEntity
  8
0
  6
HIDDEN
 62
     7
100
AcDbVertex
100
AcDb2dVertex
 10
8.0739928666
 20
3.7685208061
 30
0.0
  0
SEQEND
  5
345
330
1D6
100
AcDbEntity
  8
0
  6
HIDDEN
 62
     7
  0
POLYLINE
  5
1D7
330
1F
100
AcDbEntity
  8
0
  6
HIDDEN
 62
     7
100
AcDb2dPolyline
 66
     1
 10
0.0
 20
0.0
 30
0.0
  0
VERTEX
  5
346
330
1D7
100
AcDbEntity
  8
0
  6
HIDDEN
 62
     7
100
AcDbVertex
100
AcDb2dVertex
 10
8.427776346
 20
3.7685208061
 30
0.0
  0
VERTEX
  5
347
330
1D7
100
AcDbEntity
  8
0
  6
HIDDEN
 62
     7
100
AcDbVertex
100
AcDb2dVertex
 10
8.4280499607
 20
3.7586782864
 30
0.0
  0
VERTEX
  5
348
330
1D7
100
AcDbEntity
  8
0
  6
HIDDEN
 62
     7
100
AcDbVertex
100
AcDb2dVertex
 10
8.427776346
 20
3.7488357667
 30
0.0
  0
SEQEND
  5
349
330
1D7
100
AcDbEntity
  8
0
  6
HIDDEN
 62
     7
  0
LINE
  5
1D8
330
1F
100
AcDbEntity
  8
0
  6
HIDDEN
 62
     7
100
AcDbLine
 10
8.6445853937
 20
3.2960798617
 30
0.0
 11
8.6445853937
 21
3.4338751368
 31
0.0
  0
LINE
  5
1D9
330
1F
100
AcDbEntity
  8
0
  6
HIDDEN
 62
     7
100
AcDbLine
 10
8.634742874
 20
3.4437176565
 30
0.0
 11
8.634742874
 21
3.2862373415
 31
0.0
  0
LINE
  5
1DA
330
1F
100
AcDbEntity
  8
0
  6
HIDDEN
 62
     7
100
AcDbLine
 10
7.8965538977
 20
3.3308820107
 30
0.0
 11
7.8965538977
 21
3.2967865223
 31
0.0
  0
LINE
  5
1DB
330
1F
100
AcDbEntity
  8
0
  6
HIDDEN
 62
     7
100
AcDbLine
 10
7.8965538977
 20
3.3308820107
 30
0.0
 11
7.7784436614
 21
3.3308820107
 31
0.0
  0
LINE
  5
1DC
330
1F
100
AcDbEntity
  8
0
  6
HIDDEN
 62
     7
100
AcDbLine
 10
7.8965538977
 20
3.3990729873
 30
0.0
 11
7.8965538977
 21
3.3308820107
 31
0.0
  0
LINE
  5
1DD
330
1F
100
AcDbEntity
  8
0
  6
HIDDEN
 62
     7
100
AcDbLine
 10
7.8965538977
 20
3.3990729873
 30
0.0
 11
7.7784436614
 21
3.3990729873
 31
0.0
  0
LINE
  5
1DE
330
1F
100
AcDbEntity
  8
0
  6
HIDDEN
 62
     7
100
AcDbLine
 10
7.8965538977
 20
3.4331684757
 30
0.0
 11
7.8965538977
 21
3.3990729873
 31
0.0
  0
LINE
  5
1DF
330
1F
100
AcDbEntity
  8
0
  6
HIDDEN
 62
     7
100
AcDbLine
 10
7.8965538977
 20
3.2967865223
 30
0.0
 11
7.7784436614
 21
3.2967865223
 31
0.0
  0
LINE
  5
1E0
330
1F
100
AcDbEntity
  8
0
  6
HIDDEN
 62
     7
100
AcDbLine
 10
7.8965538977
 20
3.4331684757
 30
0.0
 11
7.7784436614
 21
3.4331684757
 31
0.0
  0
LINE
  5
1E1
330
1F
100
AcDbEntity
  8
0
  6
HIDDEN
 62
     7
100
AcDbLine
 10
7.9949790945
 20
4.0736389163
 30
0.0
 11
7.9949790945
 21
4.3342763776
 31
0.0
  0
LINE
  5
1E2
330
1F
100
AcDbEntity
  8
0
  6
HIDDEN
 62
     7
100
AcDbLine
 10
7.7193885433
 20
4.0969341285
 30
0.0
 11
7.7193885433
 21
4.0736389163
 31
0.0
  0
LINE
  5
1E3
330
1F
100
AcDbEntity
  8
0
  6
HIDDEN
 62
     7
100
AcDbLine
 10
7.7784436614
 20
4.0736389163
 30
0.0
 11
7.7784436614
 21
3.7685208061
 31
0.0
  0
LINE
  5
1E4
330
1F
100
AcDbEntity
  8
0
  6
HIDDEN
 62
     7
100
AcDbLine
 10
7.9359239764
 20
3.7685208061
 30
0.0
 11
7.9359239764
 21
4.0736389163
 31
0.0
  0
LINE
  5
1E5
330
1F
100
AcDbEntity
  8
0
  6
HIDDEN
 62
     7
100
AcDbLine
 10
7.7784436614
 20
3.7488357667
 30
0.0
 11
7.7784436614
 21
3.3420245366
 31
0.0
  0
LINE
  5
1E6
330
1F
100
AcDbEntity
  8
0
  6
HIDDEN
 62
     7
100
AcDbLine
 10
7.9359239764
 20
3.2132756669
 30
0.0
 11
7.9359239764
 21
3.7488357667
 31
0.0
  0
LINE
  5
1E7
330
1F
100
AcDbEntity
  8
0
  6
HIDDEN
 62
     7
100
AcDbLine
 10
7.9949790945
 20
4.0736389163
 30
0.0
 11
7.9949790945
 21
4.2212767116
 31
0.0
  0
LINE
  5
1E8
330
1F
100
AcDbEntity
  8
0
  6
HIDDEN
 62
     7
100
AcDbLine
 10
7.7193885433
 20
4.0967799407
 30
0.0
 11
7.7193885433
 21
4.0736389163
 31
0.0
  0
ARC
  5
1E9
330
1F
100
AcDbEntity
  8
0
  6
HIDDEN
 62
     7
100
AcDbCircle
 10
7.9851365748
 20
4.2212767116
 30
0.0
 40
0.0098425196850398
100
AcDbArc
 50
0.0
 51
90.0
  0
LINE
  5
1EA
330
1F
100
AcDbEntity
  8
0
  6
HIDDEN
 62
     7
100
AcDbLine
 10
7.9359239764
 20
3.3748200187
 30
0.0
 11
7.9359239764
 21
3.7488357667
 31
0.0
  0
LINE
  5
1EB
330
1F
100
AcDbEntity
  8
0
  6
HIDDEN
 62
     7
100
AcDbLine
 10
7.9359239764
 20
3.7685208061
 30
0.0
 11
7.9359239764
 21
4.0736389163
 31
0.0
  0
LINE
  5
1EC
330
1F
100
AcDbEntity
  8
0
  6
HIDDEN
 62
     7
100
AcDbLine
 10
7.7784436614
 20
4.0736389163
 30
0.0
 11
7.7784436614
 21
3.7685208061
 31
0.0
  0
LINE
  5
1ED
330
1F
100
AcDbEntity
  8
0
  6
HIDDEN
 62
     7
100
AcDbLine
 10
7.7784436614
 20
3.7488357667
 30
0.0
 11
7.7784436614
 21
3.3748200187
 31
0.0
  0
ARC
  5
1EE
330
1F
100
AcDbEntity
  8
0
  6
HIDDEN
 62
     7
100
AcDbCircle
 10
7.9260814567
 20
3.3748200187
 30
0.0
 40
0.0098425196850398
100
AcDbArc
 50
270.0
 51
0.0
  0
ARC
  5
1EF
330
1F
100
AcDbEntity
  8
0
  6
HIDDEN
 62
     7
100
AcDbCircle
 10
7.7882861811
 20
3.3748200187
 30
0.0
 40
0.0098425196850398
100
AcDbArc
 50
180.0
 51
270.0
  0
LINE
  5
1F0
330
1F
100
AcDbEntity
  8
0
  6
HIDDEN
 62
     7
100
AcDbLine
 10
7.9359239764
 20
3.5027727746
 30
0.0
 11
7.6752865151
 21
3.5027727746
 31
0.0
  0
LINE
  5
1F1
330
1F
100
AcDbEntity
  8
0
  6
HIDDEN
 62
     7
100
AcDbLine
 10
7.9126287642
 20
3.2271822234
 30
0.0
 11
7.9359239764
 21
3.2271822234
 31
0.0
  0
LINE
  5
1F2
330
1F
100
AcDbEntity
  8
0
  6
HIDDEN
 62
     7
100
AcDbLine
 10
8.260727126
 20
3.2862373415
 30
0.0
 11
8.6675383561
 21
3.2862373415
 31
0.0
  0
LINE
  5
1F3
330
1F
100
AcDbEntity
  8
0
  6
HIDDEN
 62
     7
100
AcDbLine
 10
7.9359239764
 20
3.2862373415
 30
0.0
 11
8.2410420866
 21
3.2862373415
 31
0.0
  0
LINE
  5
1F4
330
1F
100
AcDbEntity
  8
0
  6
HIDDEN
 62
     7
100
AcDbLine
 10
7.9359239764
 20
3.5027727746
 30
0.0
 11
7.7882861811
 21
3.5027727746
 31
0.0
  0
LINE
  5
1F5
330
1F
100
AcDbEntity
  8
0
  6
HIDDEN
 62
     7
100
AcDbLine
 10
7.912782952
 20
3.2271822234
 30
0.0
 11
7.9359239764
 21
3.2271822234
 31
0.0
  0
ARC
  5
1F6
330
1F
100
AcDbEntity
  8
0
  6
HIDDEN
 62
     7
100
AcDbCircle
 10
7.7882861811
 20
3.4929302549
 30
0.0
 40
0.0098425196850394
100
AcDbArc
 50
90.0
 51
180.0
  0
ARC
  5
1F7
330
1F
100
AcDbEntity
  8
0
  6
HIDDEN
 62
     7
100
AcDbCircle
 10
8.634742874
 20
3.4338751368
 30
0.0
 40
0.0098425196850407
100
AcDbArc
 50
0.0
 51
90.0
  0
ARC
  5
1F8
330
1F
100
AcDbEntity
  8
0
  6
HIDDEN
 62
     7
100
AcDbCircle
 10
8.634742874
 20
3.2960798612
 30
0.0
 40
0.0098425196850407
100
AcDbArc
 50
270.0
 51
0.0
  0
LINE
  5
1F9
330
1F
100
AcDbEntity
  8
0
  6
HIDDEN
 62
     7
100
AcDbLine
 10
7.9359239764
 20
3.2862373415
 30
0.0
 11
8.634742874
 21
3.2862373415
 31
0.0
  0
LINE
  5
1FA
330
1F
100
AcDbEntity
  8
0
  6
HIDDEN
 62
     7
100
AcDbLine
 10
7.7193885433
 20
4.2212767116
 30
0.0
 11
7.9949790945
 21
4.2212767116
 31
0.0
  0
LINE
  5
1FB
330
1F
100
AcDbEntity
  8
0
  6
HIDDEN
 62
     7
100
AcDbLine
 10
7.7882861811
 20
3.2271822234
 30
0.0
 11
7.7882861811
 21
3.5027727746
 31
0.0
  0
LINE
  5
1FC
330
1F
100
AcDbEntity
  8
0
  6
CONTINUOUS
 62
     7
100
AcDbLine
 10
3.7334602504
 20
6.0420558791
 30
0.0
 11
3.7957962084
 21
6.0420558791
 31
0.0
  0
LINE
  5
1FD
330
1F
100
AcDbEntity
  8
0
  6
CONTINUOUS
 62
     7
100
AcDbLine
 10
4.1927778357
 20
7.3018983988
 30
0.0
 11
3.713775211
 21
7.3018983988
 31
0.0
  0
LINE
  5
1FE
330
1F
100
AcDbEntity
  8
0
  6
CONTINUOUS
 62
     7
100
AcDbLine
 10
4.212462875
 20
7.2822133594
 30
0.0
 11
4.1927778357
 21
7.3018983988
 31
0.0
  0
LINE
  5
1FF
330
1F
100
AcDbEntity
  8
0
  6
CONTINUOUS
 62
     7
100
AcDbLine
 10
3.713775211
 20
6.0617409184
 30
0.0
 11
3.7334602504
 21
6.0420558791
 31
0.0
  0
LINE
  5
200
330
1F
100
AcDbEntity
  8
0
  6
CONTINUOUS
 62
     7
100
AcDbLine
 10
3.0838539512
 20
6.0420558791
 30
0.0
 11
3.6940901716
 21
6.0420558791
 31
0.0
  0
LINE
  5
201
330
1F
100
AcDbEntity
  8
0
  6
CONTINUOUS
 62
     7
100
AcDbLine
 10
3.6940901716
 20
7.3018983988
 30
0.0
 11
3.0838539512
 21
7.3018983988
 31
0.0
  0
LINE
  5
202
330
1F
100
AcDbEntity
  8
0
  6
CONTINUOUS
 62
     7
100
AcDbLine
 10
3.6940901716
 20
6.0420558791
 30
0.0
 11
3.713775211
 21
6.0617409184
 31
0.0
  0
LINE
  5
203
330
1F
100
AcDbEntity
  8
0
  6
CONTINUOUS
 62
     7
100
AcDbLine
 10
3.713775211
 20
7.2822133594
 30
0.0
 11
3.6940901716
 21
7.3018983988
 31
0.0
  0
LINE
  5
204
330
1F
100
AcDbEntity
  8
0
  6
CONTINUOUS
 62
     7
100
AcDbLine
 10
3.0838539512
 20
7.3018983988
 30
0.0
 11
3.0641689118
 21
7.2822133594
 31
0.0
  0
LINE
  5
205
330
1F
100
AcDbEntity
  8
0
  6
CONTINUOUS
 62
     7
100
AcDbLine
 10
3.0641689118
 20
6.0617409184
 30
0.0
 11
3.0838539512
 21
6.0420558791
 31
0.0
  0
LINE
  5
206
330
1F
100
AcDbEntity
  8
0
  6
CONTINUOUS
 62
     7
100
AcDbLine
 10
2.837790959
 20
7.3018983988
 30
0.0
 11
2.4604943711
 21
7.3018983988
 31
0.0
  0
LINE
  5
207
330
1F
100
AcDbEntity
  8
0
  6
CONTINUOUS
 62
     7
100
AcDbLine
 10
3.0444838724
 20
7.3018983988
 30
0.0
 11
2.8574759984
 21
7.3018983988
 31
0.0
  0
LINE
  5
208
330
1F
100
AcDbEntity
  8
0
  6
CONTINUOUS
 62
     7
100
AcDbLine
 10
2.8574759984
 20
6.0420558791
 30
0.0
 11
3.0444838724
 21
6.0420558791
 31
0.0
  0
LINE
  5
209
330
1F
100
AcDbEntity
  8
0
  6
CONTINUOUS
 62
     7
100
AcDbLine
 10
2.4604943711
 20
6.0420558791
 30
0.0
 11
2.837790959
 21
6.0420558791
 31
0.0
  0
LINE
  5
20A
330
1F
100
AcDbEntity
  8
0
  6
CONTINUOUS
 62
     7
100
AcDbLine
 10
2.4604943711
 20
7.3018983988
 30
0.0
 11
2.4408093317
 21
7.2822133594
 31
0.0
  0
LINE
  5
20B
330
1F
100
AcDbEntity
  8
0
  6
CONTINUOUS
 62
     7
100
AcDbLine
 10
2.4408093317
 20
6.0617409184
 30
0.0
 11
2.4604943711
 21
6.0420558791
 31
0.0
  0
LINE
  5
20C
330
1F
100
AcDbEntity
  8
0
  6
CONTINUOUS
 62
     7
100
AcDbLine
 10
3.0641689118
 20
7.2822133594
 30
0.0
 11
3.0444838724
 21
7.3018983988
 31
0.0
  0
LINE
  5
20D
330
1F
100
AcDbEntity
  8
0
  6
CONTINUOUS
 62
     7
100
AcDbLine
 10
3.0444838724
 20
6.0420558791
 30
0.0
 11
3.0641689118
 21
6.0617409184
 31
0.0
  0
LINE
  5
20E
330
1F
100
AcDbEntity
  8
0
  6
CONTINUOUS
 62
     7
100
AcDbLine
 10
3.7334602504
 20
6.357016509
 30
0.0
 11
3.7334602504
 21
6.0420558791
 31
0.0
  0
LINE
  5
20F
330
1F
100
AcDbEntity
  8
0
  6
CONTINUOUS
 62
     7
100
AcDbLine
 10
3.6087883344
 20
6.357016509
 30
0.0
 11
3.7334602504
 21
6.357016509
 31
0.0
  0
LINE
  5
210
330
1F
100
AcDbEntity
  8
0
  6
CONTINUOUS
 62
     7
100
AcDbLine
 10
3.6087883344
 20
6.9869377688
 30
0.0
 11
3.6087883344
 21
6.357016509
 31
0.0
  0
LINE
  5
211
330
1F
100
AcDbEntity
  8
0
  6
CONTINUOUS
 62
     7
100
AcDbLine
 10
3.713775211
 20
6.9869377688
 30
0.0
 11
3.6087883344
 21
6.9869377688
 31
0.0
  0
LINE
  5
212
330
1F
100
AcDbEntity
  8
0
  6
CONTINUOUS
 62
     7
100
AcDbLine
 10
3.713775211
 20
7.3018983988
 30
0.0
 11
3.713775211
 21
6.9869377688
 31
0.0
  0
LINE
  5
213
330
1F
100
AcDbEntity
  8
0
  6
CONTINUOUS
 62
     7
100
AcDbLine
 10
4.1927778357
 20
6.0421327785
 30
0.0
 11
3.8154812477
 21
6.0421327785
 31
0.0
  0
LINE
  5
214
330
1F
100
AcDbEntity
  8
0
  6
CONTINUOUS
 62
     7
100
AcDbLine
 10
3.8154812477
 20
6.8294574539
 30
0.0
 11
3.8154812477
 21
6.0421327785
 31
0.0
  0
LINE
  5
215
330
1F
100
AcDbEntity
  8
0
  6
CONTINUOUS
 62
     7
100
AcDbLine
 10
3.7957962084
 20
6.8294574539
 30
0.0
 11
3.8154812477
 21
6.8294574539
 31
0.0
  0
LINE
  5
216
330
1F
100
AcDbEntity
  8
0
  6
CONTINUOUS
 62
     7
100
AcDbLine
 10
3.7957962084
 20
6.8294574539
 30
0.0
 11
3.7957962084
 21
6.0420558791
 31
0.0
  0
LINE
  5
217
330
1F
100
AcDbEntity
  8
0
  6
CONTINUOUS
 62
     7
100
AcDbLine
 10
4.1927778357
 20
6.0421327785
 30
0.0
 11
4.1927778357
 21
7.3018983988
 31
0.0
  0
SPLINE
  5
218
330
1F
100
AcDbEntity
  8
0
  6
CONTINUOUS
 62
     7
100
AcDbSpline
210
0.0
220
0.0
230
1.0
 70
     8
 71
     3
 72
    74
 73
    70
 74
     0
 42
0.00000001
 43
0.00000001
 40
-0.0312499999999998
 40
-0.0312499999999998
 40
0.0
 40
0.0
 40
0.0312500000000001
 40
0.0312500000000001
 40
0.0625000000000003
 40
0.0625000000000003
 40
0.0937500000000004
 40
0.0937500000000004
 40
0.1250000000000005
 40
0.1250000000000005
 40
0.1562500000000007
 40
0.1562500000000007
 40
0.1875000000000008
 40
0.1875000000000008
 40
0.2187500000000009
 40
0.2187500000000009
 40
0.2500000000000011
 40
0.2500000000000011
 40
0.2812500000000012
 40
0.2812500000000012
 40
0.3125000000000013
 40
0.3125000000000013
 40
0.3437500000000014
 40
0.3437500000000014
 40
0.3750000000000016
 40
0.3750000000000016
 40
0.4062500000000017
 40
0.4062500000000017
 40
0.4375000000000018
 40
0.4375000000000018
 40
0.4531250000000018
 40
0.4531250000000018
 40
0.4687500000000018
 40
0.4687500000000018
 40
0.4843750000000017
 40
0.4843750000000017
 40
0.5000000000000017
 40
0.5000000000000017
 40
0.531250000000002
 40
0.531250000000002
 40
0.5468750000000022
 40
0.5468750000000022
 40
0.5625000000000023
 40
0.5625000000000023
 40
0.5937500000000023
 40
0.5937500000000023
 40
0.6250000000000022
 40
0.6250000000000022
 40
0.6562500000000021
 40
0.6562500000000021
 40
0.687500000000002
 40
0.687500000000002
 40
0.7500000000000017
 40
0.7500000000000017
 40
0.7812500000000014
 40
0.7812500000000014
 40
0.8125000000000011
 40
0.8125000000000011
 40
0.8437500000000008
 40
0.8437500000000008
 40
0.8750000000000004
 40
0.8750000000000004
 40
0.9062500000000003
 40
0.9062500000000003
 40
0.9375000000000003
 40
0.9375000000000003
 40
0.9687500000000002
 40
0.9687500000000002
 40
1.0
 40
1.0
 40
1.03125
 40
1.03125
 10
4.045978190304768
 20
6.416071627105403
 30
0.0
 10
4.024616851110006
 20
6.416071627105403
 30
0.0
 10
4.014166905097291
 20
6.414846386152163
 30
0.0
 10
3.993709670199789
 20
6.41006530388589
 30
0.0
 10
3.983696937840908
 20
6.406460512871922
 30
0.0
 10
3.965199369979165
 20
6.397356360918023
 30
0.0
 10
3.956468607232881
 20
6.391744743427033
 30
0.0
 10
3.94080037207862
 20
6.37907001433023
 30
0.0
 10
3.933865795956412
 20
6.372053362039299
 30
0.0
 10
3.921676249185003
 20
6.356843069318874
 30
0.0
 10
3.916562658568004
 20
6.348809150361362
 30
0.0
 10
3.908211771168444
 20
6.332332391552074
 30
0.0
 10
3.904932624424762
 20
6.323775632352373
 30
0.0
 10
3.900198876657681
 20
6.306799098848199
 30
0.0
 10
3.898710466774193
 20
6.298341535612851
 30
0.0
 10
3.897283047192866
 20
6.281538255183783
 30
0.0
 10
3.897358976667987
 20
6.2732277562905
 30
0.0
 10
3.89888877843564
 20
6.257176937369215
 30
0.0
 10
3.900337321934797
 20
6.249377995652024
 30
0.0
 10
3.904500944491551
 20
6.234212467499407
 30
0.0
 10
3.907216986491883
 20
6.226874940182103
 30
0.0
 10
3.913734997906346
 20
6.212936613359777
 30
0.0
 10
3.917547631368428
 20
6.206290989467723
 30
0.0
 10
3.926308764372906
 20
6.193610066719446
 30
0.0
 10
3.931292509339042
 20
6.187539114180264
 30
0.0
 10
3.94237586614778
 20
6.176218256575018
 30
0.0
 10
3.948458084020712
 20
6.170966540833173
 30
0.0
 10
3.961972297804157
 20
6.161315268590709
 30
0.0
 10
3.96948217287379
 20
6.1568778079538
 30
0.0
 10
3.981801031111355
 20
6.151209063515505
 30
0.0
 10
3.986088653583374
 20
6.149478882686508
 30
0.0
 10
3.995114772993286
 20
6.146383791579266
 30
0.0
 10
3.999880135180383
 20
6.145016263039124
 30
0.0
 10
4.009651917037888
 20
6.14279592713349
 30
0.0
 10
4.01468808894558
 20
6.141929999855896
 30
0.0
 10
4.02511777602674
 20
6.140757447045361
 30
0.0
 10
4.030454627172625
 20
6.140465556014522
 30
0.0
 10
4.046252621958348
 20
6.140514064483006
 30
0.0
 10
4.056869846608015
 20
6.141812046809249
 30
0.0
 10
4.071501423783354
 20
6.145227868587538
 30
0.0
 10
4.076246442644991
 20
6.146620236569221
 30
0.0
 10
4.085224299310762
 20
6.149756066778477
 30
0.0
 10
4.089482325123773
 20
6.151501945082288
 30
0.0
 10
4.101702859382335
 20
6.157203275671701
 30
0.0
 10
4.109174023693435
 20
6.161663188591067
 30
0.0
 10
4.122631687552934
 20
6.171369332278831
 30
0.0
 10
4.128662485431057
 20
6.176627911184212
 30
0.0
 10
4.139624258019294
 20
6.187914003485618
 30
0.0
 10
4.144572743425275
 20
6.193976761922505
 30
0.0
 10
4.15332915256451
 20
6.206749929916769
 30
0.0
 10
4.157119979916925
 20
6.213423595754298
 30
0.0
 10
4.16680342886824
 20
6.234345175979108
 30
0.0
 10
4.171050737985825
 20
6.249695428068891
 30
0.0
 10
4.173251025564858
 20
6.273700843295622
 30
0.0
 10
4.173301857220368
 20
6.28188707187361
 30
0.0
 10
4.171838998145606
 20
6.298639532427607
 30
0.0
 10
4.170303122473721
 20
6.307227382966522
 30
0.0
 10
4.165535029937121
 20
6.324133367554285
 30
0.0
 10
4.162304649718677
 20
6.332526099356176
 30
0.0
 10
4.153873274364981
 20
6.349083389336464
 30
0.0
 10
4.148709140033089
 20
6.357127028018216
 30
0.0
 10
4.136684945649231
 20
6.372085810775515
 30
0.0
 10
4.129790071079587
 20
6.379083842815717
 30
0.0
 10
4.113964546772067
 20
6.391865485627036
 30
0.0
 10
4.105387233945883
 20
6.397359764204538
 30
0.0
 10
4.086922692047309
 20
6.406449159722367
 30
0.0
 10
4.076875465281414
 20
6.410067461642263
 30
0.0
 10
4.056441961338151
 20
6.41484331243157
 30
0.0
 10
4.045978190304768
 20
6.416071627105403
 30
0.0
 10
4.024616851110006
 20
6.416071627105403
 30
0.0
  0
LINE
  5
219
330
1F
100
AcDbEntity
  8
0
  6
CONTINUOUS
 62
     7
100
AcDbLine
 10
4.212462875
 20
7.2822133594
 30
0.0
 11
4.212462875
 21
6.0618202988
 31
0.0
  0
LINE
  5
21A
330
1F
100
AcDbEntity
  8
0
  6
CONTINUOUS
 62
     7
100
AcDbLine
 10
4.1927778357
 20
6.0421327785
 30
0.0
 11
4.212462875
 21
6.0618202988
 31
0.0
  0
SPLINE
  5
21B
330
1F
100
AcDbEntity
  8
0
  6
CONTINUOUS
 62
     7
100
AcDbSpline
210
0.0
220
0.0
230
1.0
 70
    24
 71
     3
 72
     8
 73
     4
 74
     0
 42
0.00000001
 43
0.00000001
 40
0.0
 40
0.0
 40
0.0
 40
0.0
 40
0.0007661375841575
 40
0.0007661375841575
 40
0.0007661375841575
 40
0.0007661375841575
 10
3.608788334355682
 20
6.357016508995166
 30
0.0
 10
3.602206250605865
 20
6.357016508995166
 30
0.0
 10
3.595643763457843
 20
6.357016508995166
 30
0.0
 10
3.589103294985602
 20
6.357016508995166
 30
0.0
  0
LINE
  5
21C
330
1F
100
AcDbEntity
  8
0
  6
CONTINUOUS
 62
     7
100
AcDbLine
 10
3.589103295
 20
6.357016509
 30
0.0
 11
3.589103295
 21
6.9869377688
 31
0.0
  0
SPLINE
  5
21D
330
1F
100
AcDbEntity
  8
0
  6
CONTINUOUS
 62
     7
100
AcDbSpline
210
0.0
220
0.0
230
1.0
 70
    24
 71
     3
 72
     8
 73
     4
 74
     0
 42
0.00000001
 43
0.00000001
 40
0.0
 40
0.0
 40
0.0
 40
0.0
 40
0.0007661375841575
 40
0.0007661375841575
 40
0.0007661375841575
 40
0.0007661375841575
 10
3.589103294985602
 20
6.986937768837686
 30
0.0
 10
3.595643763457843
 20
6.986937768837686
 30
0.0
 10
3.602206250605865
 20
6.986937768837686
 30
0.0
 10
3.608788334355682
 20
6.986937768837686
 30
0.0
  0
LINE
  5
21E
330
1F
100
AcDbEntity
  8
0
  6
CONTINUOUS
 62
     7
100
AcDbLine
 10
3.713775211
 20
6.0617409184
 30
0.0
 11
3.713775211
 21
6.357016509
 31
0.0
  0
LINE
  5
21F
330
1F
100
AcDbEntity
  8
0
  6
CONTINUOUS
 62
     7
100
AcDbLine
 10
3.5694182556
 20
7.0035778975
 30
0.0
 11
3.6940901716
 21
7.0035778975
 31
0.0
  0
LINE
  5
220
330
1F
100
AcDbEntity
  8
0
  6
CONTINUOUS
 62
     7
100
AcDbLine
 10
3.5694182556
 20
6.3446566402
 30
0.0
 11
3.5694182556
 21
7.0035778975
 31
0.0
  0
LINE
  5
221
330
1F
100
AcDbEntity
  8
0
  6
CONTINUOUS
 62
     7
100
AcDbLine
 10
3.6940901716
 20
6.3446566402
 30
0.0
 11
3.5694182556
 21
6.3446566402
 31
0.0
  0
LINE
  5
222
330
1F
100
AcDbEntity
  8
0
  6
CONTINUOUS
 62
     7
100
AcDbLine
 10
3.6940901716
 20
6.0420558791
 30
0.0
 11
3.6940901716
 21
6.3446566402
 31
0.0
  0
LINE
  5
223
330
1F
100
AcDbEntity
  8
0
  6
CONTINUOUS
 62
     7
100
AcDbLine
 10
3.6940901716
 20
7.0035778975
 30
0.0
 11
3.6940901716
 21
7.3018983988
 31
0.0
  0
LINE
  5
224
330
1F
100
AcDbEntity
  8
0
  6
CONTINUOUS
 62
     7
100
AcDbLine
 10
3.0838539512
 20
6.1337744961
 30
0.0
 11
3.0838539512
 21
6.0420558791
 31
0.0
  0
LINE
  5
225
330
1F
100
AcDbEntity
  8
0
  6
CONTINUOUS
 62
     7
100
AcDbLine
 10
2.9591820351
 20
6.1337744961
 30
0.0
 11
3.0838539512
 21
6.1337744961
 31
0.0
  0
LINE
  5
226
330
1F
100
AcDbEntity
  8
0
  6
CONTINUOUS
 62
     7
100
AcDbLine
 10
2.9591820351
 20
7.2075532124
 30
0.0
 11
2.9591820351
 21
6.1337744961
 31
0.0
  0
LINE
  5
227
330
1F
100
AcDbEntity
  8
0
  6
CONTINUOUS
 62
     7
100
AcDbLine
 10
3.0838539512
 20
7.2075532124
 30
0.0
 11
2.9591820351
 21
7.2075532124
 31
0.0
  0
LINE
  5
228
330
1F
100
AcDbEntity
  8
0
  6
CONTINUOUS
 62
     7
100
AcDbLine
 10
3.0838539512
 20
7.3018983988
 30
0.0
 11
3.0838539512
 21
7.2075532124
 31
0.0
  0
SPLINE
  5
229
330
1F
100
AcDbEntity
  8
0
  6
CONTINUOUS
 62
     7
100
AcDbSpline
210
0.0
220
0.0
230
1.0
 70
     8
 71
     3
 72
     8
 73
     4
 74
     0
 42
0.00000001
 43
0.00000001
 40
0.0
 40
0.0
 40
0.0
 40
0.0
 40
0.0001060124639956
 40
0.0001060124639956
 40
0.0001060124639956
 40
0.0001060124639956
 10
2.942213319473266
 20
6.146134364878983
 30
0.0
 10
2.941307461042161
 20
6.147190285502829
 30
0.0
 10
2.940402017524665
 20
6.148246562220791
 30
0.0
 10
2.939496995773004
 20
6.14930320004431
 30
0.0
  0
SPLINE
  5
22A
330
1F
100
AcDbEntity
  8
0
  6
CONTINUOUS
 62
     7
100
AcDbSpline
210
0.0
220
0.0
230
1.0
 70
     8
 71
     3
 72
     8
 73
     4
 74
     0
 42
0.00000001
 43
0.00000001
 40
0.0
 40
0.0
 40
0.0
 40
0.0
 40
0.0002826305220997
 40
0.0002826305220997
 40
0.0002826305220997
 40
0.0002826305220997
 10
2.939496995773004
 20
7.19465107778854
 30
0.0
 10
2.941909794801939
 20
7.197468087114383
 30
0.0
 10
2.944325591883366
 20
7.200282531121202
 30
0.0
 10
2.946744259460014
 20
7.203094503356055
 30
0.0
  0
SPLINE
  5
22B
330
1F
100
AcDbEntity
  8
0
  6
CONTINUOUS
 62
     7
100
AcDbSpline
210
0.0
220
0.0
230
1.0
 70
     8
 71
     3
 72
     8
 73
     4
 74
     0
 42
0.00000001
 43
0.00000001
 40
0.0
 40
0.0
 40
0.0
 40
0.0
 40
0.0005396960495912
 40
0.0005396960495912
 40
0.0005396960495912
 40
0.0005396960495912
 10
2.946744259460014
 20
7.203094503356055
 30
0.0
 10
2.950864856607613
 20
7.204585450691783
 30
0.0
 10
2.955011514575818
 20
7.206071592843816
 30
0.0
 10
2.959182035143083
 20
7.207553212400889
 30
0.0
  0
SPLINE
  5
22C
330
1F
100
AcDbEntity
  8
0
  6
CONTINUOUS
 62
     7
100
AcDbSpline
210
0.0
220
0.0
230
1.0
 70
     8
 71
     3
 72
     8
 73
     4
 74
     0
 42
0.00000001
 43
0.00000001
 40
0.0
 40
0.0
 40
0.0
 40
0.0
 40
0.0006187755009761
 40
0.0006187755009761
 40
0.0006187755009761
 40
0.0006187755009761
 10
2.942213319473266
 20
6.146134364878983
 30
0.0
 10
2.947867093424674
 20
6.142012717521971
 30
0.0
 10
2.953523401283461
 20
6.137892807442654
 30
0.0
 10
2.959182035143083
 20
6.133774496101371
 30
0.0
  0
SPLINE
  5
22D
330
1F
100
AcDbEntity
  8
0
  6
CONTINUOUS
 62
     7
100
AcDbSpline
210
0.0
220
0.0
230
1.0
 70
     8
 71
     3
 72
     8
 73
     4
 74
     0
 42
0.00000001
 43
0.00000001
 40
0.0
 40
0.0
 40
0.0
 40
0.0
 40
0.000618775500976
 40
0.000618775500976
 40
0.000618775500976
 40
0.000618775500976
 10
3.569418255615524
 20
6.344656640217554
 30
0.0
 10
3.575076889475145
 20
6.348774951558838
 30
0.0
 10
3.580733197333932
 20
6.352894861638155
 30
0.0
 10
3.586386971285341
 20
6.357016508995166
 30
0.0
  0
SPLINE
  5
22E
330
1F
100
AcDbEntity
  8
0
  6
CONTINUOUS
 62
     7
100
AcDbSpline
210
0.0
220
0.0
230
1.0
 70
     8
 71
     3
 72
     8
 73
     4
 74
     0
 42
0.00000001
 43
0.00000001
 40
0.0
 40
0.0
 40
0.0
 40
0.0
 40
0.0005396960495912
 40
0.0005396960495912
 40
0.0005396960495912
 40
0.0005396960495912
 10
3.569418255615523
 20
7.003577897529177
 30
0.0
 10
3.573588776182789
 20
6.998048418064693
 30
0.0
 10
3.577735434150993
 20
6.992502060046035
 30
0.0
 10
3.581856031298593
 20
6.986937768837686
 30
0.0
  0
SPLINE
  5
22F
330
1F
100
AcDbEntity
  8
0
  6
CONTINUOUS
 62
     7
100
AcDbSpline
210
0.0
220
0.0
230
1.0
 70
     8
 71
     3
 72
     8
 73
     4
 74
     0
 42
0.00000001
 43
0.00000001
 40
0.0
 40
0.0
 40
0.0
 40
0.0
 40
0.000618775500976
 40
0.000618775500976
 40
0.000618775500976
 40
0.000618775500976
 10
3.694090171626022
 20
6.344656640217554
 30
0.0
 10
3.699748805485644
 20
6.348774951558838
 30
0.0
 10
3.705405113344431
 20
6.352894861638155
 30
0.0
 10
3.711058887295839
 20
6.357016508995166
 30
0.0
  0
LINE
  5
230
330
1F
100
AcDbEntity
  8
0
  6
CONTINUOUS
 62
     7
100
AcDbLine
 10
3.5863869713
 20
6.357016509
 30
0.0
 11
3.5890190167
 21
6.357016509
 31
0.0
  0
SPLINE
  5
231
330
1F
100
AcDbEntity
  8
0
  6
CONTINUOUS
 62
     7
100
AcDbSpline
210
0.0
220
0.0
230
1.0
 70
     8
 71
     3
 72
     8
 73
     4
 74
     0
 42
0.00000001
 43
0.00000001
 40
0.0
 40
0.0
 40
0.0
 40
0.0
 40
0.0005396960495912
 40
0.0005396960495912
 40
0.0005396960495912
 40
0.0005396960495912
 10
3.694090171626022
 20
7.003577897529177
 30
0.0
 10
3.698260692193287
 20
6.998048418064693
 30
0.0
 10
3.702407350161492
 20
6.992502060046035
 30
0.0
 10
3.706527947309091
 20
6.986937768837686
 30
0.0
  0
LINE
  5
232
330
1F
100
AcDbEntity
  8
0
  6
CONTINUOUS
 62
     7
100
AcDbLine
 10
3.5890190167
 20
6.9869377688
 30
0.0
 11
3.5818560313
 21
6.9869377688
 31
0.0
  0
LINE
  5
233
330
1F
100
AcDbEntity
  8
0
  6
CONTINUOUS
 62
     7
100
AcDbLine
 10
3.0641689118
 20
7.2075532124
 30
0.0
 11
3.0641689118
 21
7.2822133594
 31
0.0
  0
LINE
  5
234
330
1F
100
AcDbEntity
  8
0
  6
CONTINUOUS
 62
     7
100
AcDbLine
 10
3.0641689118
 20
6.0617409184
 30
0.0
 11
3.0641689118
 21
6.1337744961
 31
0.0
  0
CIRCLE
  5
235
330
1F
100
AcDbEntity
  8
0
  6
CONTINUOUS
 62
     7
100
AcDbCircle
 10
4.0352975207
 20
6.2782763515
 30
0.0
 40
0.1279527559055111
  0
CIRCLE
  5
236
330
1F
100
AcDbEntity
  8
0
  6
CONTINUOUS
 62
     7
100
AcDbCircle
 10
4.0352975207
 20
6.2782763515
 30
0.0
 40
0.1377952755905509
  0
LINE
  5
237
330
1F
100
AcDbEntity
  8
0
  6
CONTINUOUS
 62
     7
100
AcDbLine
 10
4.0352975207
 20
6.3464673282
 30
0.0
 11
3.9762424026
 21
6.3123718399
 31
0.0
  0
LINE
  5
238
330
1F
100
AcDbEntity
  8
0
  6
CONTINUOUS
 62
     7
100
AcDbLine
 10
3.9762424026
 20
6.3123718399
 30
0.0
 11
3.9762424026
 21
6.2441808632
 31
0.0
  0
LINE
  5
239
330
1F
100
AcDbEntity
  8
0
  6
CONTINUOUS
 62
     7
100
AcDbLine
 10
3.9762424026
 20
6.2441808632
 30
0.0
 11
4.0352975207
 21
6.2100853748
 31
0.0
  0
LINE
  5
23A
330
1F
100
AcDbEntity
  8
0
  6
CONTINUOUS
 62
     7
100
AcDbLine
 10
4.0352975207
 20
6.2100853748
 30
0.0
 11
4.0943526388
 21
6.2441808632
 31
0.0
  0
LINE
  5
23B
330
1F
100
AcDbEntity
  8
0
  6
CONTINUOUS
 62
     7
100
AcDbLine
 10
4.0943526388
 20
6.2441808632
 30
0.0
 11
4.0943526388
 21
6.3123718399
 31
0.0
  0
LINE
  5
23C
330
1F
100
AcDbEntity
  8
0
  6
CONTINUOUS
 62
     7
100
AcDbLine
 10
4.0943526388
 20
6.3123718399
 30
0.0
 11
4.0352975207
 21
6.3464673282
 31
0.0
  0
LINE
  5
23D
330
1F
100
AcDbEntity
  8
0
  6
CONTINUOUS
 62
     7
100
AcDbLine
 10
3.0444838724
 20
7.3018983988
 30
0.0
 11
3.0444838724
 21
7.2175049523
 31
0.0
  0
LINE
  5
23E
330
1F
100
AcDbEntity
  8
0
  6
CONTINUOUS
 62
     7
100
AcDbLine
 10
3.0444838724
 20
7.2175049523
 30
0.0
 11
2.9394969958
 21
7.2175049523
 31
0.0
  0
LINE
  5
23F
330
1F
100
AcDbEntity
  8
0
  6
CONTINUOUS
 62
     7
100
AcDbLine
 10
2.9394969958
 20
7.2175049523
 30
0.0
 11
2.9394969958
 21
6.1264493255
 31
0.0
  0
LINE
  5
240
330
1F
100
AcDbEntity
  8
0
  6
CONTINUOUS
 62
     7
100
AcDbLine
 10
2.9394969958
 20
6.1264493255
 30
0.0
 11
3.0444838724
 21
6.1264493255
 31
0.0
  0
LINE
  5
241
330
1F
100
AcDbEntity
  8
0
  6
CONTINUOUS
 62
     7
100
AcDbLine
 10
3.0444838724
 20
6.1264493255
 30
0.0
 11
3.0444838724
 21
6.0420558791
 31
0.0
  0
LINE
  5
242
330
1F
100
AcDbEntity
  8
0
  6
CONTINUOUS
 62
     7
100
AcDbLine
 10
2.837790959
 20
7.3018983988
 30
0.0
 11
2.837790959
 21
7.2818957761
 31
0.0
  0
LINE
  5
243
330
1F
100
AcDbEntity
  8
0
  6
CONTINUOUS
 62
     7
100
AcDbLine
 10
2.837790959
 20
7.2818957761
 30
0.0
 11
2.8574759984
 21
7.2818957761
 31
0.0
  0
LINE
  5
244
330
1F
100
AcDbEntity
  8
0
  6
CONTINUOUS
 62
     7
100
AcDbLine
 10
2.8574759984
 20
6.0620585017
 30
0.0
 11
2.8574759984
 21
6.0420558791
 31
0.0
  0
LINE
  5
245
330
1F
100
AcDbEntity
  8
0
  6
CONTINUOUS
 62
     7
100
AcDbLine
 10
2.8574759984
 20
7.3018983988
 30
0.0
 11
2.8574759984
 21
7.2818957761
 31
0.0
  0
LINE
  5
246
330
1F
100
AcDbEntity
  8
0
  6
CONTINUOUS
 62
     7
100
AcDbLine
 10
2.8574759984
 20
6.0620585017
 30
0.0
 11
2.837790959
 21
6.0620585017
 31
0.0
  0
LINE
  5
247
330
1F
100
AcDbEntity
  8
0
  6
CONTINUOUS
 62
     7
100
AcDbLine
 10
2.837790959
 20
6.0620585017
 30
0.0
 11
2.837790959
 21
6.0420558791
 31
0.0
  0
LINE
  5
248
330
1F
100
AcDbEntity
  8
0
  6
CONTINUOUS
 62
     7
100
AcDbLine
 10
2.4604943711
 20
6.0420558791
 30
0.0
 11
2.4604943711
 21
7.3018983988
 31
0.0
  0
LINE
  5
249
330
1F
100
AcDbEntity
  8
0
  6
CONTINUOUS
 62
     7
100
AcDbLine
 10
2.4408093317
 20
7.2822133594
 30
0.0
 11
2.4408093317
 21
6.0617409184
 31
0.0
  0
LINE
  5
24A
330
1F
100
AcDbEntity
  8
0
  6
CONTINUOUS
 62
     7
100
AcDbLine
 10
3.0444838724
 20
7.2175049523
 30
0.0
 11
3.0530557403
 21
7.2075532124
 31
0.0
  0
LINE
  5
24B
330
1F
100
AcDbEntity
  8
0
  6
CONTINUOUS
 62
     7
100
AcDbLine
 10
3.0507933615
 20
6.1337744961
 30
0.0
 11
3.0444838724
 21
6.1264493255
 31
0.0
  0
CIRCLE
  5
24C
330
1F
100
AcDbEntity
  8
0
  6
HIDDEN
 62
     7
100
AcDbCircle
 10
4.0352975207
 20
6.2782763515
 30
0.0
 40
0.0787401574803148
  0
LINE
  5
24D
330
1F
100
AcDbEntity
  8
0
  6
HIDDEN
 62
     7
100
AcDbLine
 10
3.8154812477
 20
6.5148047037
 30
0.0
 11
4.1927778357
 21
6.5148047037
 31
0.0
  0
LINE
  5
24E
330
1F
100
AcDbEntity
  8
0
  6
HIDDEN
 62
     7
100
AcDbLine
 10
4.1927778357
 20
6.8291495742
 30
0.0
 11
3.9264316474
 21
6.8291495742
 31
0.0
  0
POLYLINE
  5
24F
330
1F
100
AcDbEntity
  8
0
  6
HIDDEN
 62
     7
100
AcDb2dPolyline
 66
     1
 10
0.0
 20
0.0
 30
0.0
  0
VERTEX
  5
34A
330
24F
100
AcDbEntity
  8
0
  6
HIDDEN
 62
     7
100
AcDbVertex
100
AcDb2dVertex
 10
3.9264316474
 20
6.8291495742
 30
0.0
  0
VERTEX
  5
34B
330
24F
100
AcDbEntity
  8
0
  6
HIDDEN
 62
     7
100
AcDbVertex
100
AcDb2dVertex
 10
3.9264316474
 20
6.8291495742
 30
0.0
  0
SEQEND
  5
34C
330
24F
100
AcDbEntity
  8
0
  6
HIDDEN
 62
     7
  0
ARC
  5
250
330
1F
100
AcDbEntity
  8
0
  6
HIDDEN
 62
     7
100
AcDbCircle
 10
4.212462875
 20
6.5538669027
 30
0.0
 40
0.3969816272965883
100
AcDbArc
 50
90.0
 51
136.0970183505
  0
LINE
  5
251
330
1F
100
AcDbEntity
  8
0
  6
HIDDEN
 62
     7
100
AcDbLine
 10
4.1927778357
 20
6.8291495742
 30
0.0
 11
4.212462875
 21
6.8488688786
 31
0.0
  0
LINE
  5
252
330
1F
100
AcDbEntity
  8
0
  6
HIDDEN
 62
     7
100
AcDbLine
 10
4.212462875
 20
6.4950853992
 30
0.0
 11
4.1927778357
 21
6.5148047037
 31
0.0
  0
LINE
  5
253
330
1F
100
AcDbEntity
  8
0
  6
HIDDEN
 62
     7
100
AcDbLine
 10
3.5694182556
 20
6.3403763803
 30
0.0
 11
3.6940901716
 21
6.3403763803
 31
0.0
  0
LINE
  5
254
330
1F
100
AcDbEntity
  8
0
  6
HIDDEN
 62
     7
100
AcDbLine
 10
3.5694182556
 20
6.3446566402
 30
0.0
 11
3.5694182556
 21
6.3403763803
 31
0.0
  0
LINE
  5
255
330
1F
100
AcDbEntity
  8
0
  6
HIDDEN
 62
     7
100
AcDbLine
 10
3.6940901716
 20
6.9992976376
 30
0.0
 11
3.5694182556
 21
6.9992976376
 31
0.0
  0
LINE
  5
256
330
1F
100
AcDbEntity
  8
0
  6
HIDDEN
 62
     7
100
AcDbLine
 10
3.6940901716
 20
7.0035778975
 30
0.0
 11
3.6940901716
 21
6.9992976376
 31
0.0
  0
LINE
  5
257
330
1F
100
AcDbEntity
  8
0
  6
HIDDEN
 62
     7
100
AcDbLine
 10
3.0838539512
 20
6.1364010654
 30
0.0
 11
2.9591820351
 21
6.1364010654
 31
0.0
  0
LINE
  5
258
330
1F
100
AcDbEntity
  8
0
  6
HIDDEN
 62
     7
100
AcDbLine
 10
3.0838539512
 20
6.1337744961
 30
0.0
 11
3.0838539512
 21
6.1364010654
 31
0.0
  0
LINE
  5
259
330
1F
100
AcDbEntity
  8
0
  6
HIDDEN
 62
     7
100
AcDbLine
 10
2.9591820351
 20
7.2101797817
 30
0.0
 11
3.0838539512
 21
7.2101797817
 31
0.0
  0
LINE
  5
25A
330
1F
100
AcDbEntity
  8
0
  6
HIDDEN
 62
     7
100
AcDbLine
 10
2.9591820351
 20
7.2075532124
 30
0.0
 11
2.9591820351
 21
7.2101797817
 31
0.0
  0
SPLINE
  5
25B
330
1F
100
AcDbEntity
  8
0
  6
HIDDEN
 62
     7
100
AcDbSpline
210
0.0
220
0.0
230
1.0
 70
     8
 71
     3
 72
     8
 73
     4
 74
     0
 42
0.00000001
 43
0.00000001
 40
0.0
 40
0.0
 40
0.0
 40
0.0
 40
0.0005396960495912
 40
0.0005396960495912
 40
0.0005396960495912
 40
0.0005396960495912
 10
3.694090171626022
 20
6.340376380303677
 30
0.0
 10
3.698260692193287
 20
6.345905859768159
 30
0.0
 10
3.702407350161491
 20
6.351452217786819
 30
0.0
 10
3.706527947309091
 20
6.357016508995166
 30
0.0
  0
SPLINE
  5
25C
330
1F
100
AcDbEntity
  8
0
  6
HIDDEN
 62
     7
100
AcDbSpline
210
0.0
220
0.0
230
1.0
 70
     8
 71
     3
 72
     8
 73
     4
 74
     0
 42
0.00000001
 43
0.00000001
 40
0.0
 40
0.0
 40
0.0
 40
0.0
 40
0.0006187755009761
 40
0.0006187755009761
 40
0.0006187755009761
 40
0.0006187755009761
 10
3.71105888729584
 20
6.986937768837686
 30
0.0
 10
3.705405113344432
 20
6.991059416194698
 30
0.0
 10
3.699748805485644
 20
6.995179326274015
 30
0.0
 10
3.694090171626022
 20
6.9992976376153
 30
0.0
  0
SPLINE
  5
25D
330
1F
100
AcDbEntity
  8
0
  6
HIDDEN
 62
     7
100
AcDbSpline
210
0.0
220
0.0
230
1.0
 70
     8
 71
     3
 72
     8
 73
     4
 74
     0
 42
0.00000001
 43
0.00000001
 40
0.0
 40
0.0
 40
0.0
 40
0.0
 40
0.0002826305220997
 40
0.0002826305220997
 40
0.0002826305220997
 40
0.0002826305220997
 10
3.071416175470513
 20
7.203094503356055
 30
0.0
 10
3.068997507893865
 20
7.200282531121202
 30
0.0
 10
3.066581710812438
 20
7.197468087114383
 30
0.0
 10
3.064168911783502
 20
7.19465107778854
 30
0.0
  0
LINE
  5
25E
330
1F
100
AcDbEntity
  8
0
  6
HIDDEN
 62
     7
100
AcDbLine
 10
3.0641689118
 20
7.1946510778
 30
0.0
 11
3.0641689118
 21
7.2075532124
 31
0.0
  0
SPLINE
  5
25F
330
1F
100
AcDbEntity
  8
0
  6
HIDDEN
 62
     7
100
AcDbSpline
210
0.0
220
0.0
230
1.0
 70
     8
 71
     3
 72
     8
 73
     4
 74
     0
 42
0.00000001
 43
0.00000001
 40
0.0
 40
0.0
 40
0.0
 40
0.0
 40
0.0006187755009761
 40
0.0006187755009761
 40
0.0006187755009761
 40
0.0006187755009761
 10
3.083853951153581
 20
7.210179781731481
 30
0.0
 10
3.07819531729396
 20
7.206061470390198
 30
0.0
 10
3.072539009435172
 20
7.20194156031088
 30
0.0
 10
3.066885235483764
 20
7.197819912953868
 30
0.0
  0
SPLINE
  5
260
330
1F
100
AcDbEntity
  8
0
  6
HIDDEN
 62
     7
100
AcDbSpline
210
0.0
220
0.0
230
1.0
 70
     8
 71
     3
 72
     8
 73
     4
 74
     0
 42
0.00000001
 43
0.00000001
 40
0.0
 40
0.0
 40
0.0
 40
0.0
 40
0.0005396960495912
 40
0.0005396960495912
 40
0.0005396960495912
 40
0.0005396960495912
 10
3.071416175470513
 20
7.203094503356055
 30
0.0
 10
3.075536772618112
 20
7.204585450691783
 30
0.0
 10
3.079683430586317
 20
7.206071592843816
 30
0.0
 10
3.083853951153581
 20
7.207553212400889
 30
0.0
  0
SPLINE
  5
261
330
1F
100
AcDbEntity
  8
0
  6
HIDDEN
 62
     7
100
AcDbSpline
210
0.0
220
0.0
230
1.0
 70
     8
 71
     3
 72
     8
 73
     4
 74
     0
 42
0.00000001
 43
0.00000001
 40
0.0
 40
0.0
 40
0.0
 40
0.0
 40
0.0001060124639956
 40
0.0001060124639956
 40
0.0001060124639956
 40
0.0001060124639956
 10
3.064168911783502
 20
6.14930320004431
 30
0.0
 10
3.065073933535164
 20
6.148246562220792
 30
0.0
 10
3.065979377052659
 20
6.147190285502829
 30
0.0
 10
3.066885235483765
 20
6.146134364878983
 30
0.0
  0
SPLINE
  5
262
330
1F
100
AcDbEntity
  8
0
  6
HIDDEN
 62
     7
100
AcDbSpline
210
0.0
220
0.0
230
1.0
 70
     8
 71
     3
 72
     8
 73
     4
 74
     0
 42
0.00000001
 43
0.00000001
 40
0.0
 40
0.0
 40
0.0
 40
0.0
 40
0.0005396960495912
 40
0.0005396960495912
 40
0.0005396960495912
 40
0.0005396960495912
 10
3.071416175470513
 20
6.140859774476798
 30
0.0
 10
3.075536772618112
 20
6.13936882714107
 30
0.0
 10
3.079683430586317
 20
6.137882684989036
 30
0.0
 10
3.083853951153582
 20
6.136401065431963
 30
0.0
  0
SPLINE
  5
263
330
1F
100
AcDbEntity
  8
0
  6
HIDDEN
 62
     7
100
AcDbSpline
210
0.0
220
0.0
230
1.0
 70
     8
 71
     3
 72
     8
 73
     4
 74
     0
 42
0.00000001
 43
0.00000001
 40
0.0
 40
0.0
 40
0.0
 40
0.0
 40
0.0002826305220997
 40
0.0002826305220997
 40
0.0002826305220997
 40
0.0002826305220997
 10
3.071416175470513
 20
6.140859774476798
 30
0.0
 10
3.068997507893865
 20
6.143671746711651
 30
0.0
 10
3.066581710812438
 20
6.14648619071847
 30
0.0
 10
3.064168911783502
 20
6.149303200044312
 30
0.0
  0
LINE
  5
264
330
1F
100
AcDbEntity
  8
0
  6
HIDDEN
 62
     7
100
AcDbLine
 10
3.0641689118
 20
6.1337744961
 30
0.0
 11
3.0641689118
 21
6.1493032
 31
0.0
  0
SPLINE
  5
265
330
1F
100
AcDbEntity
  8
0
  6
HIDDEN
 62
     7
100
AcDbSpline
210
0.0
220
0.0
230
1.0
 70
     8
 71
     3
 72
     8
 73
     4
 74
     0
 42
0.00000001
 43
0.00000001
 40
0.0
 40
0.0
 40
0.0
 40
0.0
 40
0.0006187755009761
 40
0.0006187755009761
 40
0.0006187755009761
 40
0.0006187755009761
 10
3.066885235483765
 20
6.146134364878983
 30
0.0
 10
3.072539009435173
 20
6.142012717521971
 30
0.0
 10
3.07819531729396
 20
6.137892807442654
 30
0.0
 10
3.083853951153582
 20
6.133774496101371
 30
0.0
  0
LINE
  5
266
330
1F
100
AcDbEntity
  8
0
  6
HIDDEN
 62
     7
100
AcDbLine
 10
3.0641689118
 20
6.1493032
 30
0.0
 11
3.0641689118
 21
7.1946510778
 31
0.0
  0
LINE
  5
267
330
1F
100
AcDbEntity
  8
0
  6
HIDDEN
 62
     7
100
AcDbLine
 10
3.0668852355
 20
6.1461343649
 30
0.0
 11
2.9422133195
 21
6.1461343649
 31
0.0
  0
LINE
  5
268
330
1F
100
AcDbEntity
  8
0
  6
HIDDEN
 62
     7
100
AcDbLine
 10
2.9467442595
 20
7.2030945034
 30
0.0
 11
3.0714161755
 21
7.2030945034
 31
0.0
  0
LINE
  5
269
330
1F
100
AcDbEntity
  8
0
  6
HIDDEN
 62
     7
100
AcDbLine
 10
2.9467442595
 20
6.1408597745
 30
0.0
 11
3.0714161755
 21
6.1408597745
 31
0.0
  0
LINE
  5
26A
330
1F
100
AcDbEntity
  8
0
  6
HIDDEN
 62
     7
100
AcDbLine
 10
3.0668852355
 20
7.197819913
 30
0.0
 11
2.9422133195
 21
7.197819913
 31
0.0
  0
SPLINE
  5
26B
330
1F
100
AcDbEntity
  8
0
  6
HIDDEN
 62
     7
100
AcDbSpline
210
0.0
220
0.0
230
1.0
 70
     8
 71
     3
 72
     8
 73
     4
 74
     0
 42
0.00000001
 43
0.00000001
 40
0.0
 40
0.0
 40
0.0
 40
0.0
 40
0.0002826305220997
 40
0.0002826305220997
 40
0.0002826305220997
 40
0.0002826305220997
 10
2.939496995773004
 20
6.149303200044312
 30
0.0
 10
2.941909794801939
 20
6.14648619071847
 30
0.0
 10
2.944325591883366
 20
6.143671746711651
 30
0.0
 10
2.946744259460014
 20
6.140859774476798
 30
0.0
  0
SPLINE
  5
26C
330
1F
100
AcDbEntity
  8
0
  6
HIDDEN
 62
     7
100
AcDbSpline
210
0.0
220
0.0
230
1.0
 70
     8
 71
     3
 72
     8
 73
     4
 74
     0
 42
0.00000001
 43
0.00000001
 40
0.0
 40
0.0
 40
0.0
 40
0.0
 40
0.0006187755009761
 40
0.0006187755009761
 40
0.0006187755009761
 40
0.0006187755009761
 10
2.942213319473265
 20
7.197819912953868
 30
0.0
 10
2.947867093424674
 20
7.20194156031088
 30
0.0
 10
2.953523401283461
 20
7.206061470390198
 30
0.0
 10
2.959182035143083
 20
7.210179781731481
 30
0.0
  0
SPLINE
  5
26D
330
1F
100
AcDbEntity
  8
0
  6
HIDDEN
 62
     7
100
AcDbSpline
210
0.0
220
0.0
230
1.0
 70
     8
 71
     3
 72
     8
 73
     4
 74
     0
 42
0.00000001
 43
0.00000001
 40
0.0
 40
0.0
 40
0.0
 40
0.0
 40
0.0005396960495912
 40
0.0005396960495912
 40
0.0005396960495912
 40
0.0005396960495912
 10
2.946744259460014
 20
6.140859774476798
 30
0.0
 10
2.950864856607613
 20
6.13936882714107
 30
0.0
 10
2.955011514575818
 20
6.137882684989036
 30
0.0
 10
2.959182035143083
 20
6.136401065431963
 30
0.0
  0
LINE
  5
26E
330
1F
100
AcDbEntity
  8
0
  6
HIDDEN
 62
     7
100
AcDbLine
 10
3.5818560313
 20
6.357016509
 30
0.0
 11
3.586374898
 21
6.357016509
 31
0.0
  0
SPLINE
  5
26F
330
1F
100
AcDbEntity
  8
0
  6
HIDDEN
 62
     7
100
AcDbSpline
210
0.0
220
0.0
230
1.0
 70
     8
 71
     3
 72
     8
 73
     4
 74
     0
 42
0.00000001
 43
0.00000001
 40
0.0
 40
0.0
 40
0.0
 40
0.0
 40
0.0006187755009761
 40
0.0006187755009761
 40
0.0006187755009761
 40
0.0006187755009761
 10
3.569418255615523
 20
6.9992976376153
 30
0.0
 10
3.575076889475145
 20
6.995179326274015
 30
0.0
 10
3.580733197333933
 20
6.991059416194698
 30
0.0
 10
3.586386971285341
 20
6.986937768837686
 30
0.0
  0
SPLINE
  5
270
330
1F
100
AcDbEntity
  8
0
  6
HIDDEN
 62
     7
100
AcDbSpline
210
0.0
220
0.0
230
1.0
 70
     8
 71
     3
 72
     8
 73
     4
 74
     0
 42
0.00000001
 43
0.00000001
 40
0.0
 40
0.0
 40
0.0
 40
0.0
 40
0.0005396960495912
 40
0.0005396960495912
 40
0.0005396960495912
 40
0.0005396960495912
 10
3.569418255615524
 20
6.340376380303677
 30
0.0
 10
3.573588776182788
 20
6.345905859768159
 30
0.0
 10
3.577735434150993
 20
6.351452217786819
 30
0.0
 10
3.581856031298592
 20
6.357016508995166
 30
0.0
  0
CIRCLE
  5
271
330
1F
100
AcDbEntity
  8
0
  6
HIDDEN
 62
     7
100
AcDbCircle
 10
4.0352975207
 20
6.2782763515
 30
0.0
 40
0.0688976377952759
  0
LINE
  5
272
330
1F
100
AcDbEntity
  8
0
  6
HIDDEN
 62
     7
100
AcDbLine
 10
2.9394969958
 20
6.1264493255
 30
0.0
 11
2.9198119564
 21
6.1264493255
 31
0.0
  0
LINE
  5
273
330
1F
100
AcDbEntity
  8
0
  6
HIDDEN
 62
     7
100
AcDbLine
 10
2.9198119564
 20
6.1264493255
 30
0.0
 11
2.9198119564
 21
7.2175049523
 31
0.0
  0
LINE
  5
274
330
1F
100
AcDbEntity
  8
0
  6
HIDDEN
 62
     7
100
AcDbLine
 10
2.9198119564
 20
7.2175049523
 30
0.0
 11
2.9394969958
 21
7.2175049523
 31
0.0
  0
SPLINE
  5
275
330
1F
100
AcDbEntity
  8
0
  6
HIDDEN
 62
     7
100
AcDbSpline
210
0.0
220
0.0
230
1.0
 70
     8
 71
     3
 72
    56
 73
    52
 74
     0
 42
0.00000001
 43
0.00000001
 40
-0.0312499999999998
 40
-0.0312499999999998
 40
0.0
 40
0.0
 40
0.0312500000000002
 40
0.0312500000000002
 40
0.0625000000000003
 40
0.0625000000000003
 40
0.0937500000000005
 40
0.0937500000000005
 40
0.1250000000000006
 40
0.1250000000000006
 40
0.1875000000000012
 40
0.1875000000000012
 40
0.2187500000000014
 40
0.2187500000000014
 40
0.2500000000000016
 40
0.2500000000000016
 40
0.3125000000000021
 40
0.3125000000000021
 40
0.3750000000000025
 40
0.3750000000000025
 40
0.4062500000000027
 40
0.4062500000000027
 40
0.4375000000000029
 40
0.4375000000000029
 40
0.4687500000000031
 40
0.4687500000000031
 40
0.5000000000000033
 40
0.5000000000000033
 40
0.5625000000000031
 40
0.5625000000000031
 40
0.5937500000000029
 40
0.5937500000000029
 40
0.6250000000000028
 40
0.6250000000000028
 40
0.6875000000000022
 40
0.6875000000000022
 40
0.7500000000000016
 40
0.7500000000000016
 40
0.812500000000001
 40
0.812500000000001
 40
0.8437500000000009
 40
0.8437500000000009
 40
0.8750000000000007
 40
0.8750000000000007
 40
0.9062500000000006
 40
0.9062500000000006
 40
0.9375000000000003
 40
0.9375000000000003
 40
0.9687500000000002
 40
0.9687500000000002
 40
1.0
 40
1.0
 40
1.03125
 40
1.03125
 10
2.623994517718934
 20
7.088630888690379
 30
0.0
 10
2.611954854404502
 20
7.088630888690379
 30
0.0
 10
2.606136899705199
 20
7.089405373420114
 30
0.0
 10
2.594853827026818
 20
7.092290644731438
 30
0.0
 10
2.589528469156464
 20
7.09437868429509
 30
0.0
 10
2.579744656285866
 20
7.099383016083079
 30
0.0
 10
2.575242734639508
 20
7.102320201027733
 30
0.0
 10
2.567180977162399
 20
7.108594680525956
 30
0.0
 10
2.563561923042046
 20
7.111964914390581
 30
0.0
 10
2.553753844106072
 20
7.122609842546877
 30
0.0
 10
2.548871382764781
 20
7.13007539654025
 30
0.0
 10
2.543608189240404
 20
7.141504312564719
 30
0.0
 10
2.542208262820851
 20
7.14537364075449
 30
0.0
 10
2.540196861117324
 20
7.152979562443448
 30
0.0
 10
2.539570950048783
 20
7.156742019350103
 30
0.0
 10
2.538869934958907
 20
7.167903525533443
 30
0.0
 10
2.540004795727656
 20
7.175226703034826
 30
0.0
 10
2.545900284789798
 20
7.188640506660573
 30
0.0
 10
2.550757358985936
 20
7.194902409179657
 30
0.0
 10
2.56093925903458
 20
7.202822346214108
 30
0.0
 10
2.564889609984424
 20
7.205270079821632
 30
0.0
 10
2.573562242970562
 20
7.209508015733312
 30
0.0
 10
2.578291330656471
 20
7.211321127476203
 30
0.0
 10
2.588613955089873
 20
7.214327759213337
 30
0.0
 10
2.594197505059295
 20
7.215501836926751
 30
0.0
 10
2.605587226289797
 20
7.217067288943118
 30
0.0
 10
2.611564662487206
 20
7.217484328000647
 30
0.0
 10
2.629429896522308
 20
7.217543924520882
 30
0.0
 10
2.641285760714457
 20
7.215995206742945
 30
0.0
 10
2.656901404215625
 20
7.211583545283291
 30
0.0
 10
2.661802646389506
 20
7.209749741142238
 30
0.0
 10
2.670576158547963
 20
7.205545226941225
 30
0.0
 10
2.674550418990008
 20
7.203129515680815
 30
0.0
 10
2.684917582682929
 20
7.195208404582103
 30
0.0
 10
2.689831840076162
 20
7.18898016154815
 30
0.0
 10
2.695874944696602
 20
7.175532537706055
 30
0.0
 10
2.697057822705564
 20
7.168211921362104
 30
0.0
 10
2.696200553558877
 20
7.153281849037882
 30
0.0
 10
2.694155496856486
 20
7.145505827429255
 30
0.0
 10
2.688948994845068
 20
7.134108642745447
 30
0.0
 10
2.686854945277916
 20
7.130336727855841
 30
0.0
 10
2.681896095428465
 20
7.122874580440699
 30
0.0
 10
2.679010976126685
 20
7.119167036776728
 30
0.0
 10
2.672532996197552
 20
7.112109889875414
 30
0.0
 10
2.66892946279244
 20
7.10873350319628
 30
0.0
 10
2.660828361907217
 20
7.102401937658626
 30
0.0
 10
2.656325798786119
 20
7.099457245285777
 30
0.0
 10
2.646582849983031
 20
7.094449574335487
 30
0.0
 10
2.641209925677475
 20
7.092331492915874
 30
0.0
 10
2.629967917196105
 20
7.089433799175258
 30
0.0
 10
2.623994517718934
 20
7.088630888690379
 30
0.0
 10
2.611954854404502
 20
7.088630888690379
 30
0.0
  0
SPLINE
  5
276
330
1F
100
AcDbEntity
  8
0
  6
HIDDEN
 62
     7
100
AcDbSpline
210
0.0
220
0.0
230
1.0
 70
     8
 71
     3
 72
    74
 73
    70
 74
     0
 42
0.00000001
 43
0.00000001
 40
-0.0312499999999998
 40
-0.0312499999999998
 40
0.0
 40
0.0
 40
0.0312500000000004
 40
0.0312500000000004
 40
0.0625000000000008
 40
0.0625000000000008
 40
0.0937500000000012
 40
0.0937500000000012
 40
0.1250000000000017
 40
0.1250000000000017
 40
0.1562500000000019
 40
0.1562500000000019
 40
0.1875000000000022
 40
0.1875000000000022
 40
0.2187500000000025
 40
0.2187500000000025
 40
0.2500000000000028
 40
0.2500000000000028
 40
0.281250000000003
 40
0.281250000000003
 40
0.3125000000000033
 40
0.3125000000000033
 40
0.3437500000000035
 40
0.3437500000000035
 40
0.3750000000000038
 40
0.3750000000000038
 40
0.4062500000000039
 40
0.4062500000000039
 40
0.4375000000000042
 40
0.4375000000000042
 40
0.4531250000000042
 40
0.4531250000000042
 40
0.4687500000000041
 40
0.4687500000000041
 40
0.4843750000000041
 40
0.4843750000000041
 40
0.5000000000000041
 40
0.5000000000000041
 40
0.5312500000000041
 40
0.5312500000000041
 40
0.5468750000000041
 40
0.5468750000000041
 40
0.562500000000004
 40
0.562500000000004
 40
0.5937500000000037
 40
0.5937500000000037
 40
0.6250000000000033
 40
0.6250000000000033
 40
0.656250000000003
 40
0.656250000000003
 40
0.6875000000000026
 40
0.6875000000000026
 40
0.750000000000002
 40
0.750000000000002
 40
0.7812500000000018
 40
0.7812500000000018
 40
0.8125000000000014
 40
0.8125000000000014
 40
0.8437500000000012
 40
0.8437500000000012
 40
0.875000000000001
 40
0.875000000000001
 40
0.9062500000000008
 40
0.9062500000000008
 40
0.9375000000000004
 40
0.9375000000000004
 40
0.9687500000000002
 40
0.9687500000000002
 40
1.0
 40
1.0
 40
1.03125
 40
1.03125
 10
2.607294016464337
 20
6.096379047687551
 30
0.0
 10
2.628655355659099
 20
6.096379047687551
 30
0.0
 10
2.639105301671814
 20
6.096919356986196
 30
0.0
 10
2.659562536569316
 20
6.099081103630292
 30
0.0
 10
2.669575268928197
 20
6.100726665882449
 30
0.0
 10
2.688072836789939
 20
6.105047152111044
 30
0.0
 10
2.696803599536224
 20
6.107777492064733
 30
0.0
 10
2.712471834690485
 20
6.114252427830442
 30
0.0
 10
2.719406410812693
 20
6.117971309615115
 30
0.0
 10
2.731595957584101
 20
6.126479889597093
 30
0.0
 10
2.736709548201102
 20
6.131184118061493
 30
0.0
 10
2.745060435600661
 20
6.141377397284435
 30
0.0
 10
2.748339582344343
 20
6.146941368620941
 30
0.0
 10
2.753073330111424
 20
6.15860412802164
 30
0.0
 10
2.754561739994912
 20
6.164720904408147
 30
0.0
 10
2.755989159576239
 20
6.177538134009701
 30
0.0
 10
2.755913230101119
 20
6.184216748121572
 30
0.0
 10
2.754383428333465
 20
6.197791456119805
 30
0.0
 10
2.752934884834308
 20
6.204731478305932
 30
0.0
 10
2.748771262277554
 20
6.218909113443106
 30
0.0
 10
2.746055220277222
 20
6.226124049405845
 30
0.0
 10
2.739537208862759
 20
6.240488158013167
 30
0.0
 10
2.735724575400677
 20
6.247679028886503
 30
0.0
 10
2.726963442396199
 20
6.262029068789227
 30
0.0
 10
2.721979697430063
 20
6.269234321173441
 30
0.0
 10
2.710896340621325
 20
6.283254734579562
 30
0.0
 10
2.704814122748393
 20
6.290067804247014
 30
0.0
 10
2.691299908964949
 20
6.303072254840853
 30
0.0
 10
2.683790033895315
 20
6.309323174343665
 30
0.0
 10
2.671471175657751
 20
6.317558584747728
 30
0.0
 10
2.667183553185732
 20
6.320119008574459
 30
0.0
 10
2.658157433775819
 20
6.3247593327976
 30
0.0
 10
2.653392071588722
 20
6.326843577230497
 30
0.0
 10
2.643620289731218
 20
6.330257684973091
 30
0.0
 10
2.638584117823525
 20
6.331606741254479
 30
0.0
 10
2.628154430742365
 20
6.333439672453384
 30
0.0
 10
2.622817579596482
 20
6.333899881843072
 30
0.0
 10
2.607019584810758
 20
6.33382362681646
 30
0.0
 10
2.596402360161091
 20
6.33176663521613
 30
0.0
 10
2.581770782985752
 20
6.326520405969406
 30
0.0
 10
2.577025764124114
 20
6.32440141282934
 30
0.0
 10
2.568047907458343
 20
6.319707480807885
 30
0.0
 10
2.563789881645333
 20
6.317128476992136
 30
0.0
 10
2.551569347386771
 20
6.308860780182868
 30
0.0
 10
2.544098183075671
 20
6.302590348515476
 30
0.0
 10
2.530640519216172
 20
6.289539231861064
 30
0.0
 10
2.524609721338048
 20
6.282733739163713
 30
0.0
 10
2.513647948749811
 20
6.268784675466467
 30
0.0
 10
2.50869946334383
 20
6.261600182370511
 30
0.0
 10
2.499943054204596
 20
6.247174536668503
 30
0.0
 10
2.496152226852179
 20
6.239970776910012
 30
0.0
 10
2.486468777900865
 20
6.218458363943321
 30
0.0
 10
2.48222146878328
 20
6.204090944851526
 30
0.0
 10
2.480021181204247
 20
6.183831237544743
 30
0.0
 10
2.479970349548737
 20
6.177263678872884
 30
0.0
 10
2.481433208623498
 20
6.164502312412765
 30
0.0
 10
2.482969084295383
 20
6.158300707735008
 30
0.0
 10
2.487737176831985
 20
6.146705236811092
 30
0.0
 10
2.490967557050429
 20
6.141252633724436
 30
0.0
 10
2.499398932404124
 20
6.131019529530987
 30
0.0
 10
2.504563066736017
 20
6.126318248847353
 30
0.0
 10
2.516587261119874
 20
6.117956013010645
 30
0.0
 10
2.523482135689518
 20
6.11424440206579
 30
0.0
 10
2.539307659997038
 20
6.107716782035736
 30
0.0
 10
2.547884972823222
 20
6.105045575949481
 30
0.0
 10
2.566349514721796
 20
6.10073201478239
 30
0.0
 10
2.576396741487691
 20
6.099080130304735
 30
0.0
 10
2.596830245430955
 20
6.096920744461642
 30
0.0
 10
2.607294016464337
 20
6.096379047687551
 30
0.0
 10
2.628655355659099
 20
6.096379047687551
 30
0.0
  0
LINE
  5
277
330
1F
100
AcDbEntity
  8
0
  6
HIDDEN
 62
     7
100
AcDbLine
 10
3.0530557403
 20
7.2075532124
 30
0.0
 11
3.0641689118
 21
7.1946510778
 31
0.0
  0
LINE
  5
278
330
1F
100
AcDbEntity
  8
0
  6
HIDDEN
 62
     7
100
AcDbLine
 10
3.0641689118
 20
6.1493032
 30
0.0
 11
3.0507933615
 21
6.1337744961
 31
0.0
  0
LINE
  5
279
330
1F
100
AcDbEntity
  8
0
  6
HIDDEN
 62
     7
100
AcDbLine
 10
2.4408093317
 20
6.6818196586
 30
0.0
 11
2.7268405594
 21
6.6818196586
 31
0.0
  0
LINE
  5
27A
330
1F
100
AcDbEntity
  8
0
  6
HIDDEN
 62
     7
100
AcDbLine
 10
2.4408093317
 20
6.6621346192
 30
0.0
 11
2.7268405594
 21
6.6621346192
 31
0.0
  0
LINE
  5
27B
330
1F
100
AcDbEntity
  8
0
  6
HIDDEN
 62
     7
100
AcDbLine
 10
2.8574759984
 20
7.2818957761
 30
0.0
 11
2.8574759984
 21
6.6719771389
 31
0.0
  0
LINE
  5
27C
330
1F
100
AcDbEntity
  8
0
  6
HIDDEN
 62
     7
100
AcDbLine
 10
2.8574759984
 20
6.6719771389
 30
0.0
 11
2.8574759984
 21
6.0620585017
 31
0.0
  0
LINE
  5
27D
330
1F
100
AcDbEntity
  8
0
  6
HIDDEN
 62
     7
100
AcDbLine
 10
2.837790959
 20
7.2818957761
 30
0.0
 11
2.837790959
 21
6.6719771389
 31
0.0
  0
LINE
  5
27E
330
1F
100
AcDbEntity
  8
0
  6
HIDDEN
 62
     7
100
AcDbLine
 10
2.837790959
 20
6.6818196586
 30
0.0
 11
2.7268405594
 21
6.6818196586
 31
0.0
  0
LINE
  5
27F
330
1F
100
AcDbEntity
  8
0
  6
HIDDEN
 62
     7
100
AcDbLine
 10
2.837790959
 20
6.6621346192
 30
0.0
 11
2.7268405594
 21
6.6621346192
 31
0.0
  0
SPLINE
  5
280
330
1F
100
AcDbEntity
  8
0
  6
HIDDEN
 62
     7
100
AcDbSpline
210
0.0
220
0.0
230
1.0
 70
     8
 71
     3
 72
     8
 73
     4
 74
     0
 42
0.00000001
 43
0.00000001
 40
0.0
 40
0.0
 40
0.0
 40
0.0
 40
1.0
 40
1.0
 40
1.0
 40
1.0
 10
2.726840559383232
 20
6.681819658601465
 30
0.0
 10
2.726445092276187
 20
6.675257978811439
 30
0.0
 10
2.726445092276187
 20
6.668696299021413
 30
0.0
 10
2.726840559383232
 20
6.662134619231386
 30
0.0
  0
LINE
  5
281
330
1F
100
AcDbEntity
  8
0
  6
HIDDEN
 62
     7
100
AcDbLine
 10
2.837790959
 20
6.6719771389
 30
0.0
 11
2.837790959
 21
6.0620585017
 31
0.0
  0
LINE
  5
282
330
1F
100
AcDbEntity
  8
0
  6
HIDDEN
 62
     7
100
AcDbLine
 10
2.4801794105
 20
6.357016509
 30
0.0
 11
2.7557699617
 21
6.357016509
 31
0.0
  0
SPLINE
  5
283
330
1F
100
AcDbEntity
  8
0
  6
HIDDEN
 62
     7
100
AcDbSpline
210
0.0
220
0.0
230
1.0
 70
     8
 71
     3
 72
     8
 73
     4
 74
     0
 42
0.00000001
 43
0.00000001
 40
0.0
 40
0.0
 40
0.0
 40
0.0
 40
0.0007661375841575
 40
0.0007661375841575
 40
0.0007661375841575
 40
0.0007661375841575
 10
2.919811956402924
 20
7.217504952323947
 30
0.0
 10
2.92639404015274
 20
7.209904616674376
 30
0.0
 10
2.932956527300763
 20
7.202287254884405
 30
0.0
 10
2.939496995773004
 20
7.194651077788543
 30
0.0
  0
SPLINE
  5
284
330
1F
100
AcDbEntity
  8
0
  6
HIDDEN
 62
     7
100
AcDbSpline
210
0.0
220
0.0
230
1.0
 70
     8
 71
     3
 72
     8
 73
     4
 74
     0
 42
0.00000001
 43
0.00000001
 40
0.0
 40
0.0
 40
0.0
 40
0.0
 40
0.0007661375841575
 40
0.0007661375841575
 40
0.0007661375841575
 40
0.0007661375841575
 10
2.939496995773004
 20
6.149303200044312
 30
0.0
 10
2.932956527300763
 20
6.141667022948449
 30
0.0
 10
2.926394040152741
 20
6.134049661158476
 30
0.0
 10
2.919811956402924
 20
6.126449325508906
 30
0.0
  0
LINE
  5
285
330
1F
100
AcDbEntity
  8
0
  6
HIDDEN
 62
     7
100
AcDbLine
 10
2.4801794105
 20
6.2093787137
 30
0.0
 11
2.7557699617
 21
6.2093787137
 31
0.0
  0
LINE
  5
286
330
1F
100
AcDbEntity
  8
0
  6
HIDDEN
 62
     7
100
AcDbLine
 10
2.4900219302
 20
6.199536194
 30
0.0
 11
2.745927442
 21
6.199536194
 31
0.0
  0
LINE
  5
287
330
1F
100
AcDbEntity
  8
0
  6
HIDDEN
 62
     7
100
AcDbLine
 10
2.539454702
 20
7.0558354066
 30
0.0
 11
2.6964946701
 21
7.0558354066
 31
0.0
  0
LINE
  5
288
330
1F
100
AcDbEntity
  8
0
  6
HIDDEN
 62
     7
100
AcDbLine
 10
2.6179746861
 20
7.0656779263
 30
0.0
 11
2.5490770483
 21
7.0656779263
 31
0.0
  0
LINE
  5
289
330
1F
100
AcDbEntity
  8
0
  6
HIDDEN
 62
     7
100
AcDbLine
 10
2.6868723239
 20
7.0656779263
 30
0.0
 11
2.6179746861
 21
7.0656779263
 31
0.0
  0
LINE
  5
28A
330
1F
100
AcDbEntity
  8
0
  6
HIDDEN
 62
     7
100
AcDbLine
 10
2.558919568
 20
6.3176464303
 30
0.0
 11
2.6179746861
 21
6.3176464303
 31
0.0
  0
LINE
  5
28B
330
1F
100
AcDbEntity
  8
0
  6
HIDDEN
 62
     7
100
AcDbLine
 10
2.6179746861
 20
6.3176464303
 30
0.0
 11
2.6770298042
 21
6.3176464303
 31
0.0
  0
LINE
  5
28C
330
1F
100
AcDbEntity
  8
0
  6
HIDDEN
 62
     7
100
AcDbLine
 10
2.6179746861
 20
6.3176464303
 30
0.0
 11
2.6179746861
 21
6.199536194
 31
0.0
  0
LINE
  5
28D
330
1F
100
AcDbEntity
  8
0
  6
HIDDEN
 62
     7
100
AcDbLine
 10
2.558919568
 20
6.3176464303
 30
0.0
 11
2.558919568
 21
6.199536194
 31
0.0
  0
LINE
  5
28E
330
1F
100
AcDbEntity
  8
0
  6
HIDDEN
 62
     7
100
AcDbLine
 10
2.6770298042
 20
6.3176464303
 30
0.0
 11
2.6770298042
 21
6.199536194
 31
0.0
  0
LINE
  5
28F
330
1F
100
AcDbEntity
  8
0
  6
HIDDEN
 62
     7
100
AcDbLine
 10
3.7957962084
 20
6.8294574539
 30
0.0
 11
3.589103295
 21
6.8294574539
 31
0.0
  0
LINE
  5
290
330
1F
100
AcDbEntity
  8
0
  6
HIDDEN
 62
     7
100
AcDbLine
 10
3.589103295
 20
6.514496824
 30
0.0
 11
3.7957962084
 21
6.514496824
 31
0.0
  0
LINE
  5
291
330
1F
100
AcDbEntity
  8
0
  6
HIDDEN
 62
     7
100
AcDbLine
 10
3.9264316474
 20
6.8294574539
 30
0.0
 11
3.8154812477
 21
6.8294574539
 31
0.0
  0
LINE
  5
292
330
1F
100
AcDbEntity
  8
0
  6
HIDDEN
 62
     7
100
AcDbLine
 10
3.0641689118
 20
6.514496824
 30
0.0
 11
3.589103295
 21
6.514496824
 31
0.0
  0
LINE
  5
293
330
1F
100
AcDbEntity
  8
0
  6
HIDDEN
 62
     7
100
AcDbLine
 10
3.589103295
 20
6.8294574539
 30
0.0
 11
3.0641689118
 21
6.8294574539
 31
0.0
  0
LINE
  5
294
330
1F
100
AcDbEntity
  8
0
  6
HIDDEN
 62
     7
100
AcDbLine
 10
2.4604943711
 20
6.8294574539
 30
0.0
 11
2.4408093317
 21
6.8491424932
 31
0.0
  0
LINE
  5
295
330
1F
100
AcDbEntity
  8
0
  6
HIDDEN
 62
     7
100
AcDbLine
 10
2.4408093317
 20
6.4948117846
 30
0.0
 11
2.4604943711
 21
6.514496824
 31
0.0
  0
LINE
  5
296
330
1F
100
AcDbEntity
  8
0
  6
HIDDEN
 62
     7
100
AcDbLine
 10
2.8574759984
 20
6.514496824
 30
0.0
 11
3.0641689118
 21
6.514496824
 31
0.0
  0
LINE
  5
297
330
1F
100
AcDbEntity
  8
0
  6
HIDDEN
 62
     7
100
AcDbLine
 10
3.0641689118
 20
6.8294574539
 30
0.0
 11
2.8574759984
 21
6.8294574539
 31
0.0
  0
LINE
  5
298
330
1F
100
AcDbEntity
  8
0
  6
HIDDEN
 62
     7
100
AcDbLine
 10
2.4604943711
 20
6.514496824
 30
0.0
 11
2.837790959
 21
6.514496824
 31
0.0
  0
LINE
  5
299
330
1F
100
AcDbEntity
  8
0
  6
HIDDEN
 62
     7
100
AcDbLine
 10
2.837790959
 20
6.8294574539
 30
0.0
 11
2.4604943711
 21
6.8294574539
 31
0.0
  0
LINE
  5
29A
330
1F
100
AcDbEntity
  8
0
  6
HIDDEN
 62
     7
100
AcDbLine
 10
2.4801794105
 20
6.357016509
 30
0.0
 11
2.4801794105
 21
6.1805191648
 31
0.0
  0
LINE
  5
29B
330
1F
100
AcDbEntity
  8
0
  6
HIDDEN
 62
     7
100
AcDbLine
 10
2.7557699617
 20
6.1804023305
 30
0.0
 11
2.7557699617
 21
6.357016509
 31
0.0
  0
LINE
  5
29C
330
1F
100
AcDbEntity
  8
0
  6
HIDDEN
 62
     7
100
AcDbLine
 10
2.6967148435
 20
6.6818196586
 30
0.0
 11
2.6967148435
 21
7.1636326408
 31
0.0
  0
LINE
  5
29D
330
1F
100
AcDbEntity
  8
0
  6
HIDDEN
 62
     7
100
AcDbLine
 10
2.5392345286
 20
7.1635938724
 30
0.0
 11
2.5392345286
 21
6.6818196586
 31
0.0
  0
LINE
  5
29E
330
1F
100
AcDbEntity
  8
0
  6
HIDDEN
 62
     7
100
AcDbLine
 10
2.6967148435
 20
6.357016509
 30
0.0
 11
2.6967148435
 21
6.6621346192
 31
0.0
  0
LINE
  5
29F
330
1F
100
AcDbEntity
  8
0
  6
HIDDEN
 62
     7
100
AcDbLine
 10
2.5392345286
 20
6.6621346192
 30
0.0
 11
2.5392345286
 21
6.357016509
 31
0.0
  0
LINE
  5
2A0
330
1F
100
AcDbEntity
  8
0
  6
HIDDEN
 62
     7
100
AcDbLine
 10
2.4801794105
 20
6.357016509
 30
0.0
 11
2.4801794105
 21
6.2093787137
 31
0.0
  0
LINE
  5
2A1
330
1F
100
AcDbEntity
  8
0
  6
HIDDEN
 62
     7
100
AcDbLine
 10
2.7557699617
 20
6.2093787137
 30
0.0
 11
2.7557699617
 21
6.357016509
 31
0.0
  0
ARC
  5
2A2
330
1F
100
AcDbEntity
  8
0
  6
HIDDEN
 62
     7
100
AcDbCircle
 10
2.745927442
 20
6.2093787137
 30
0.0
 40
0.0098425196850398
100
AcDbArc
 50
270.0
 51
0.0
  0
ARC
  5
2A3
330
1F
100
AcDbEntity
  8
0
  6
HIDDEN
 62
     7
100
AcDbCircle
 10
2.4900219302
 20
6.2093787137
 30
0.0
 40
0.0098425196850398
100
AcDbArc
 50
180.0
 51
270.0
  0
LINE
  5
2A4
330
1F
100
AcDbEntity
  8
0
  6
HIDDEN
 62
     7
100
AcDbLine
 10
2.5392345286
 20
7.0558354066
 30
0.0
 11
2.5392345286
 21
6.357016509
 31
0.0
  0
LINE
  5
2A5
330
1F
100
AcDbEntity
  8
0
  6
HIDDEN
 62
     7
100
AcDbLine
 10
2.6967148435
 20
6.357016509
 30
0.0
 11
2.6967148435
 21
7.0558354066
 31
0.0
  0
ARC
  5
2A6
330
1F
100
AcDbEntity
  8
0
  6
HIDDEN
 62
     7
100
AcDbCircle
 10
2.5490770483
 20
7.0558354066
 30
0.0
 40
0.0098425196850398
100
AcDbArc
 50
90.0
 51
180.0
  0
ARC
  5
2A7
330
1F
100
AcDbEntity
  8
0
  6
HIDDEN
 62
     7
100
AcDbCircle
 10
2.6868723239
 20
7.0558354066
 30
0.0
 40
0.0098425196850398
100
AcDbArc
 50
0.0
 51
90.0
  0
LINE
  5
2A8
330
1F
100
AcDbEntity
  8
0
  6
CONTINUOUS
 62
     7
100
AcDbLine
 10
8.7860674749
 20
5.984569793
 30
0.0
 11
8.7999846374
 21
5.9926066119
 31
0.0
  0
LINE
  5
2A9
330
1F
100
AcDbEntity
  8
0
  6
CONTINUOUS
 62
     7
100
AcDbLine
 10
9.2314166758
 20
6.7399497986
 30
0.0
 11
9.2314166758
 21
6.7560208244
 31
0.0
  0
LINE
  5
2AA
330
1F
100
AcDbEntity
  8
0
  6
CONTINUOUS
 62
     7
100
AcDbLine
 10
8.401562039
 20
5.9934621671
 30
0.0
 11
8.4710600475
 21
5.9533418208
 31
0.0
  0
LINE
  5
2AB
330
1F
100
AcDbEntity
  8
0
  6
CONTINUOUS
 62
     7
100
AcDbLine
 10
8.2042710716
 20
6.1073558182
 30
0.0
 11
8.3179308489
 21
6.0417414255
 31
0.0
  0
LINE
  5
2AC
330
1F
100
AcDbEntity
  8
0
  6
CONTINUOUS
 62
     7
100
AcDbLine
 10
8.1462734682
 20
6.140837122
 30
0.0
 11
8.1903516468
 21
6.1153913311
 31
0.0
  0
LINE
  5
2AD
330
1F
100
AcDbEntity
  8
0
  6
CONTINUOUS
 62
     7
100
AcDbLine
 10
9.1009301153
 20
7.0444270017
 30
0.0
 11
8.7622241112
 21
7.2399578159
 31
0.0
  0
LINE
  5
2AE
330
1F
100
AcDbEntity
  8
0
  6
CONTINUOUS
 62
     7
100
AcDbLine
 10
8.0157869076
 20
6.4453143251
 30
0.0
 11
8.0157869076
 21
6.4292432993
 31
0.0
  0
LINE
  5
2AF
330
1F
100
AcDbEntity
  8
0
  6
CONTINUOUS
 62
     7
100
AcDbLine
 10
8.3729797513
 20
7.2515859125
 30
0.0
 11
8.3590625888
 21
7.2435490936
 31
0.0
  0
LINE
  5
2B0
330
1F
100
AcDbEntity
  8
0
  6
CONTINUOUS
 62
     7
100
AcDbLine
 10
7.5987760917
 20
6.4569006299
 30
0.0
 11
8.1184346185
 21
6.1569081478
 31
0.0
  0
LINE
  5
2B1
330
1F
100
AcDbEntity
  8
0
  6
CONTINUOUS
 62
     7
100
AcDbLine
 10
8.7483046863
 20
7.2479933288
 30
0.0
 11
8.2286461595
 21
7.5479858108
 31
0.0
  0
LINE
  5
2B2
330
1F
100
AcDbEntity
  8
0
  6
CONTINUOUS
 62
     7
100
AcDbLine
 10
7.913638732
 20
7.5167578386
 30
0.0
 11
7.8997215695
 21
7.5087210197
 31
0.0
  0
LINE
  5
2B3
330
1F
100
AcDbEntity
  8
0
  6
CONTINUOUS
 62
     7
100
AcDbLine
 10
7.5564458884
 20
6.7104862512
 30
0.0
 11
7.5564458884
 21
6.6944152254
 31
0.0
  0
SPLINE
  5
2B4
330
1F
100
AcDbEntity
  8
0
  6
CONTINUOUS
 62
     7
100
AcDbSpline
210
0.0
220
0.0
230
1.0
 70
     8
 71
     3
 72
    34
 73
    30
 74
     0
 42
0.00000001
 43
0.00000001
 40
0.0
 40
0.0
 40
0.0
 40
0.0
 40
0.0114732735820817
 40
0.0490738279108521
 40
0.0872524855869674
 40
0.1258648763962584
 40
0.1647297155131655
 40
0.2036962101942183
 40
0.2426507234636914
 40
0.2815549755346944
 40
0.3204003413944221
 40
0.3591929423722449
 40
0.397946274830811
 40
0.4366772761753718
 40
0.47540443992663
 40
0.5141443124429788
 40
0.5529128070169748
 40
0.5917297004000069
 40
0.6306141987771661
 40
0.6695832422398067
 40
0.7086478238936544
 40
0.7478057679169953
 40
0.7870290313347218
 40
0.8262096375294087
 40
0.865187200233206
 40
0.9037482436884968
 40
0.941694539069102
 40
0.9789540688169405
 40
1.0
 40
1.0
 40
1.0
 40
1.0
 10
8.525072164292
 20
6.810002381238431
 30
0.0
 10
8.52458796311497
 20
6.810871224736815
 30
0.0
 10
8.522516923401165
 20
6.814587468057959
 30
0.0
 10
8.51742630347174
 20
6.820715850208676
 30
0.0
 10
8.509835449301459
 20
6.828314179229432
 30
0.0
 10
8.500823318688388
 20
6.835340392698778
 30
0.0
 10
8.490630469461976
 20
6.841746063284012
 30
0.0
 10
8.479354527665024
 20
6.847439520507815
 30
0.0
 10
8.46715065309878
 20
6.852360630553606
 30
0.0
 10
8.454165744480818
 20
6.856460285949405
 30
0.0
 10
8.440549465576256
 20
6.85970248923157
 30
0.0
 10
8.426453081587146
 20
6.862059604298896
 30
0.0
 10
8.412030833348128
 20
6.86351189772742
 30
0.0
 10
8.397439073629752
 20
6.864047299805543
 30
0.0
 10
8.382835632507886
 20
6.863661476822936
 30
0.0
 10
8.368378533783558
 20
6.862357935994646
 30
0.0
 10
8.354223926884524
 20
6.860147920644042
 30
0.0
 10
8.340524204907712
 20
6.857049873951508
 30
0.0
 10
8.32742668218154
 20
6.853088638313284
 30
0.0
 10
8.31507328689748
 20
6.848294761492483
 30
0.0
 10
8.303600607504025
 20
6.842703929472381
 30
0.0
 10
8.293140641491025
 20
6.836357150832914
 30
0.0
 10
8.283826289705841
 20
6.82930478637579
 30
0.0
 10
8.275787039255803
 20
6.821611908095116
 30
0.0
 10
8.269156549768327
 20
6.813366269189238
 30
0.0
 10
8.264017235435697
 20
6.804683270341224
 30
0.0
 10
8.260542330557536
 20
6.795702492235392
 30
0.0
 10
8.258706945641265
 20
6.787859128182643
 30
0.0
 10
8.258672381854401
 20
6.783049222489232
 30
0.0
 10
8.258659905714632
 20
6.781313039589649
 30
0.0
  0
LINE
  5
2B5
330
1F
100
AcDbEntity
  8
0
  6
CONTINUOUS
 62
     7
100
AcDbLine
 10
8.2584559106
 20
6.78018875
 30
0.0
 11
8.2584559106
 21
6.715925016
 31
0.0
  0
LINE
  5
2B6
330
1F
100
AcDbEntity
  8
0
  6
CONTINUOUS
 62
     7
100
AcDbLine
 10
8.2147267346
 20
7.5560213237
 30
0.0
 11
7.8760207305
 21
7.7515521379
 31
0.0
  0
LINE
  5
2B7
330
1F
100
AcDbEntity
  8
0
  6
CONTINUOUS
 62
     7
100
AcDbLine
 10
7.5268590634
 20
6.4984174466
 30
0.0
 11
7.570937242
 21
6.4729716557
 31
0.0
  0
LINE
  5
2B8
330
1F
100
AcDbEntity
  8
0
  6
CONTINUOUS
 62
     7
100
AcDbLine
 10
7.4478076413
 20
6.5440528612
 30
0.0
 11
7.5129396386
 21
6.5064529595
 31
0.0
  0
LINE
  5
2B9
330
1F
100
AcDbEntity
  8
0
  6
CONTINUOUS
 62
     7
100
AcDbLine
 10
7.2461506627
 20
6.660466957
 30
0.0
 11
7.2470899001
 21
6.6599247468
 31
0.0
  0
LINE
  5
2BA
330
1F
100
AcDbEntity
  8
0
  6
CONTINUOUS
 62
     7
100
AcDbLine
 10
7.5610133031
 20
7.7203241657
 30
0.0
 11
7.5470961406
 21
7.7122873468
 31
0.0
  0
LINE
  5
2BB
330
1F
100
AcDbEntity
  8
0
  6
CONTINUOUS
 62
     7
100
AcDbLine
 10
7.1156641022
 20
6.9649441601
 30
0.0
 11
7.1156641022
 21
6.9488731343
 31
0.0
  0
SPLINE
  5
2BC
330
1F
100
AcDbEntity
  8
0
  6
CONTINUOUS
 62
     7
100
AcDbSpline
210
0.0
220
0.0
230
1.0
 70
     8
 71
     3
 72
    25
 73
    21
 74
     0
 42
0.00000001
 43
0.00000001
 40
0.0
 40
0.0
 40
0.0
 40
0.0
 40
0.004806879552106
 40
0.0654297795227034
 40
0.1264606655206688
 40
0.1876595895624463
 40
0.248845417997499
 40
0.3099537507141736
 40
0.3709696775413345
 40
0.4319020925250275
 40
0.4927718396990049
 40
0.5536053545050157
 40
0.6144316017487044
 40
0.6752769491795189
 40
0.7361659370748408
 40
0.7971296212814982
 40
0.8581982275943173
 40
0.9193985779484052
 40
0.9807484814265158
 40
1.0
 40
1.0
 40
1.0
 40
1.0
 10
7.247390730476805
 20
6.706916663264296
 30
0.0
 10
7.247315558088933
 20
6.706639661705133
 30
0.0
 10
7.246292334454683
 20
6.702869200900559
 30
0.0
 10
7.24540041632653
 20
6.694845938073287
 30
0.0
 10
7.244805283021952
 20
6.682907176178755
 30
0.0
 10
7.245488346116136
 20
6.670298621152365
 30
0.0
 10
7.247273265478785
 20
6.657287901208131
 30
0.0
 10
7.250170430306387
 20
6.64399928194693
 30
0.0
 10
7.254125659024059
 20
6.630588042055011
 30
0.0
 10
7.259090538211377
 20
6.617197090909732
 30
0.0
 10
7.265004601177835
 20
6.603970478616832
 30
0.0
 10
7.271800658409073
 20
6.591049615448061
 30
0.0
 10
7.27940380934176
 20
6.578573491246754
 30
0.0
 10
7.287732291149156
 20
6.566677485199473
 30
0.0
 10
7.296698507557627
 20
6.55549116148283
 30
0.0
 10
7.30621044798083
 20
6.545138746583114
 30
0.0
 10
7.316173008999256
 20
6.535731415700013
 30
0.0
 10
7.326489012409997
 20
6.527393220048136
 30
0.0
 10
7.334632565376574
 20
6.521823860258968
 30
0.0
 10
7.339299146585955
 20
6.519072530597636
 30
0.0
 10
7.340413751918472
 20
6.518415379982565
 30
0.0
  0
SPLINE
  5
2BD
330
1F
100
AcDbEntity
  8
0
  6
CONTINUOUS
 62
     7
100
AcDbSpline
210
0.0
220
0.0
230
1.0
 70
     8
 71
     3
 72
    15
 73
    11
 74
     0
 42
0.00000001
 43
0.00000001
 40
0.0
 40
0.0
 40
0.0
 40
0.0
 40
0.0745718454906865
 40
0.2155474602981142
 40
0.3565941975408571
 40
0.4970451824476431
 40
0.6361589811077545
 40
0.773181652721273
 40
0.9077330369314842
 40
1.0
 40
1.0
 40
1.0
 40
1.0
 10
7.340413751918472
 20
6.518415379982565
 30
0.0
 10
7.342303015067878
 20
6.517362730897705
 30
0.0
 10
7.347763867900602
 20
6.514320083430239
 30
0.0
 10
7.35684552637916
 20
6.510302567274159
 30
0.0
 10
7.367550508328869
 20
6.506882318412593
 30
0.0
 10
7.378065020680752
 20
6.504962430546287
 30
0.0
 10
7.388242000104253
 20
6.504547074638142
 30
0.0
 10
7.397884750157389
 20
6.505715220779493
 30
0.0
 10
7.406072566850604
 20
6.507929109384113
 30
0.0
 10
7.410675930342267
 20
6.510354222355037
 30
0.0
 10
7.412548522989079
 20
6.511340729009413
 30
0.0
  0
LINE
  5
2BE
330
1F
100
AcDbEntity
  8
0
  6
CONTINUOUS
 62
     7
100
AcDbLine
 10
7.4142266505
 20
6.5120806885
 30
0.0
 11
7.4587088601
 21
6.5377597215
 31
0.0
  0
POLYLINE
  5
2BF
330
1F
100
AcDbEntity
  8
0
  6
CONTINUOUS
 62
     7
100
AcDb2dPolyline
 66
     1
 10
0.0
 20
0.0
 30
0.0
  0
VERTEX
  5
34D
330
2BF
100
AcDbEntity
  8
0
  6
CONTINUOUS
 62
     7
100
AcDbVertex
100
AcDb2dVertex
 10
8.3684684669
 20
6.2337435824
 30
0.0
  0
VERTEX
  5
34E
330
2BF
100
AcDbEntity
  8
0
  6
CONTINUOUS
 62
     7
100
AcDbVertex
100
AcDb2dVertex
 10
8.369455741
 20
6.2077195026
 30
0.0
  0
VERTEX
  5
34F
330
2BF
100
AcDbEntity
  8
0
  6
CONTINUOUS
 62
     7
100
AcDbVertex
100
AcDb2dVertex
 10
8.3716714304
 20
6.1825033991
 30
0.0
  0
VERTEX
  5
350
330
2BF
100
AcDbEntity
  8
0
  6
CONTINUOUS
 62
     7
100
AcDbVertex
100
AcDb2dVertex
 10
8.3751092121
 20
6.1581672321
 30
0.0
  0
VERTEX
  5
351
330
2BF
100
AcDbEntity
  8
0
  6
CONTINUOUS
 62
     7
100
AcDbVertex
100
AcDb2dVertex
 10
8.3797592756
 20
6.1347804503
 30
0.0
  0
VERTEX
  5
352
330
2BF
100
AcDbEntity
  8
0
  6
CONTINUOUS
 62
     7
100
AcDbVertex
100
AcDb2dVertex
 10
8.3856083508
 20
6.1124097936
 30
0.0
  0
VERTEX
  5
353
330
2BF
100
AcDbEntity
  8
0
  6
CONTINUOUS
 62
     7
100
AcDbVertex
100
AcDb2dVertex
 10
8.3926397461
 20
6.0911191019
 30
0.0
  0
VERTEX
  5
354
330
2BF
100
AcDbEntity
  8
0
  6
CONTINUOUS
 62
     7
100
AcDbVertex
100
AcDb2dVertex
 10
8.4008333956
 20
6.0709691332
 30
0.0
  0
VERTEX
  5
355
330
2BF
100
AcDbEntity
  8
0
  6
CONTINUOUS
 62
     7
100
AcDbVertex
100
AcDb2dVertex
 10
8.410165917
 20
6.0520173901
 30
0.0
  0
VERTEX
  5
356
330
2BF
100
AcDbEntity
  8
0
  6
CONTINUOUS
 62
     7
100
AcDbVertex
100
AcDb2dVertex
 10
8.4206106776
 20
6.0343179558
 30
0.0
  0
VERTEX
  5
357
330
2BF
100
AcDbEntity
  8
0
  6
CONTINUOUS
 62
     7
100
AcDbVertex
100
AcDb2dVertex
 10
8.4321378708
 20
6.01792134
 30
0.0
  0
VERTEX
  5
358
330
2BF
100
AcDbEntity
  8
0
  6
CONTINUOUS
 62
     7
100
AcDbVertex
100
AcDb2dVertex
 10
8.4447146012
 20
6.0028743342
 30
0.0
  0
VERTEX
  5
359
330
2BF
100
AcDbEntity
  8
0
  6
CONTINUOUS
 62
     7
100
AcDbVertex
100
AcDb2dVertex
 10
8.458304978
 20
5.9892198785
 30
0.0
  0
VERTEX
  5
35A
330
2BF
100
AcDbEntity
  8
0
  6
CONTINUOUS
 62
     7
100
AcDbVertex
100
AcDb2dVertex
 10
8.472870218
 20
5.9769969392
 30
0.0
  0
VERTEX
  5
35B
330
2BF
100
AcDbEntity
  8
0
  6
CONTINUOUS
 62
     7
100
AcDbVertex
100
AcDb2dVertex
 10
8.4883687557
 20
5.9662403973
 30
0.0
  0
VERTEX
  5
35C
330
2BF
100
AcDbEntity
  8
0
  6
CONTINUOUS
 62
     7
100
AcDbVertex
100
AcDb2dVertex
 10
8.5047563624
 20
5.9569809491
 30
0.0
  0
VERTEX
  5
35D
330
2BF
100
AcDbEntity
  8
0
  6
CONTINUOUS
 62
     7
100
AcDbVertex
100
AcDb2dVertex
 10
8.5219862724
 20
5.9492450186
 30
0.0
  0
VERTEX
  5
35E
330
2BF
100
AcDbEntity
  8
0
  6
CONTINUOUS
 62
     7
100
AcDbVertex
100
AcDb2dVertex
 10
8.5400093159
 20
5.9430546821
 30
0.0
  0
VERTEX
  5
35F
330
2BF
100
AcDbEntity
  8
0
  6
CONTINUOUS
 62
     7
100
AcDbVertex
100
AcDb2dVertex
 10
8.5587740599
 20
5.9384276053
 30
0.0
  0
VERTEX
  5
360
330
2BF
100
AcDbEntity
  8
0
  6
CONTINUOUS
 62
     7
100
AcDbVertex
100
AcDb2dVertex
 10
8.578226955
 20
5.9353769925
 30
0.0
  0
VERTEX
  5
361
330
2BF
100
AcDbEntity
  8
0
  6
CONTINUOUS
 62
     7
100
AcDbVertex
100
AcDb2dVertex
 10
8.5983124876
 20
5.9339115494
 30
0.0
  0
VERTEX
  5
362
330
2BF
100
AcDbEntity
  8
0
  6
CONTINUOUS
 62
     7
100
AcDbVertex
100
AcDb2dVertex
 10
8.6189733389
 20
5.934035458
 30
0.0
  0
VERTEX
  5
363
330
2BF
100
AcDbEntity
  8
0
  6
CONTINUOUS
 62
     7
100
AcDbVertex
100
AcDb2dVertex
 10
8.6401505485
 20
5.9357483647
 30
0.0
  0
VERTEX
  5
364
330
2BF
100
AcDbEntity
  8
0
  6
CONTINUOUS
 62
     7
100
AcDbVertex
100
AcDb2dVertex
 10
8.661783682
 20
5.9390453812
 30
0.0
  0
VERTEX
  5
365
330
2BF
100
AcDbEntity
  8
0
  6
CONTINUOUS
 62
     7
100
AcDbVertex
100
AcDb2dVertex
 10
8.6838110043
 20
5.9439170989
 30
0.0
  0
VERTEX
  5
366
330
2BF
100
AcDbEntity
  8
0
  6
CONTINUOUS
 62
     7
100
AcDbVertex
100
AcDb2dVertex
 10
8.7061696553
 20
5.950349615
 30
0.0
  0
VERTEX
  5
367
330
2BF
100
AcDbEntity
  8
0
  6
CONTINUOUS
 62
     7
100
AcDbVertex
100
AcDb2dVertex
 10
8.7287958293
 20
5.958324573
 30
0.0
  0
VERTEX
  5
368
330
2BF
100
AcDbEntity
  8
0
  6
CONTINUOUS
 62
     7
100
AcDbVertex
100
AcDb2dVertex
 10
8.7516249571
 20
5.9678192143
 30
0.0
  0
VERTEX
  5
369
330
2BF
100
AcDbEntity
  8
0
  6
CONTINUOUS
 62
     7
100
AcDbVertex
100
AcDb2dVertex
 10
8.7745918905
 20
5.9788064438
 30
0.0
  0
VERTEX
  5
36A
330
2BF
100
AcDbEntity
  8
0
  6
CONTINUOUS
 62
     7
100
AcDbVertex
100
AcDb2dVertex
 10
8.7976310879
 20
5.9912549069
 30
0.0
  0
VERTEX
  5
36B
330
2BF
100
AcDbEntity
  8
0
  6
CONTINUOUS
 62
     7
100
AcDbVertex
100
AcDb2dVertex
 10
8.8206768016
 20
6.0051290788
 30
0.0
  0
VERTEX
  5
36C
330
2BF
100
AcDbEntity
  8
0
  6
CONTINUOUS
 62
     7
100
AcDbVertex
100
AcDb2dVertex
 10
8.8436632652
 20
6.0203893665
 30
0.0
  0
VERTEX
  5
36D
330
2BF
100
AcDbEntity
  8
0
  6
CONTINUOUS
 62
     7
100
AcDbVertex
100
AcDb2dVertex
 10
8.8665248815
 20
6.0369922211
 30
0.0
  0
VERTEX
  5
36E
330
2BF
100
AcDbEntity
  8
0
  6
CONTINUOUS
 62
     7
100
AcDbVertex
100
AcDb2dVertex
 10
8.8891964094
 20
6.0548902625
 30
0.0
  0
VERTEX
  5
36F
330
2BF
100
AcDbEntity
  8
0
  6
CONTINUOUS
 62
     7
100
AcDbVertex
100
AcDb2dVertex
 10
8.9116131504
 20
6.0740324143
 30
0.0
  0
VERTEX
  5
370
330
2BF
100
AcDbEntity
  8
0
  6
CONTINUOUS
 62
     7
100
AcDbVertex
100
AcDb2dVertex
 10
8.933711133
 20
6.09436405
 30
0.0
  0
VERTEX
  5
371
330
2BF
100
AcDbEntity
  8
0
  6
CONTINUOUS
 62
     7
100
AcDbVertex
100
AcDb2dVertex
 10
8.9554272955
 20
6.1158271484
 30
0.0
  0
VERTEX
  5
372
330
2BF
100
AcDbEntity
  8
0
  6
CONTINUOUS
 62
     7
100
AcDbVertex
100
AcDb2dVertex
 10
8.9766996657
 20
6.1383604596
 30
0.0
  0
VERTEX
  5
373
330
2BF
100
AcDbEntity
  8
0
  6
CONTINUOUS
 62
     7
100
AcDbVertex
100
AcDb2dVertex
 10
8.9974675378
 20
6.1618996794
 30
0.0
  0
VERTEX
  5
374
330
2BF
100
AcDbEntity
  8
0
  6
CONTINUOUS
 62
     7
100
AcDbVertex
100
AcDb2dVertex
 10
9.0176716459
 20
6.1863776331
 30
0.0
  0
VERTEX
  5
375
330
2BF
100
AcDbEntity
  8
0
  6
CONTINUOUS
 62
     7
100
AcDbVertex
100
AcDb2dVertex
 10
9.0372543329
 20
6.2117244672
 30
0.0
  0
VERTEX
  5
376
330
2BF
100
AcDbEntity
  8
0
  6
CONTINUOUS
 62
     7
100
AcDbVertex
100
AcDb2dVertex
 10
9.0561597148
 20
6.2378678485
 30
0.0
  0
VERTEX
  5
377
330
2BF
100
AcDbEntity
  8
0
  6
CONTINUOUS
 62
     7
100
AcDbVertex
100
AcDb2dVertex
 10
9.0743338408
 20
6.2647331708
 30
0.0
  0
VERTEX
  5
378
330
2BF
100
AcDbEntity
  8
0
  6
CONTINUOUS
 62
     7
100
AcDbVertex
100
AcDb2dVertex
 10
9.0917248466
 20
6.2922437674
 30
0.0
  0
VERTEX
  5
379
330
2BF
100
AcDbEntity
  8
0
  6
CONTINUOUS
 62
     7
100
AcDbVertex
100
AcDb2dVertex
 10
9.1082831031
 20
6.3203211304
 30
0.0
  0
VERTEX
  5
37A
330
2BF
100
AcDbEntity
  8
0
  6
CONTINUOUS
 62
     7
100
AcDbVertex
100
AcDb2dVertex
 10
9.1239613572
 20
6.3488851345
 30
0.0
  0
VERTEX
  5
37B
330
2BF
100
AcDbEntity
  8
0
  6
CONTINUOUS
 62
     7
100
AcDbVertex
100
AcDb2dVertex
 10
9.1387148675
 20
6.3778542657
 30
0.0
  0
VERTEX
  5
37C
330
2BF
100
AcDbEntity
  8
0
  6
CONTINUOUS
 62
     7
100
AcDbVertex
100
AcDb2dVertex
 10
9.1525015313
 20
6.4071458535
 30
0.0
  0
VERTEX
  5
37D
330
2BF
100
AcDbEntity
  8
0
  6
CONTINUOUS
 62
     7
100
AcDbVertex
100
AcDb2dVertex
 10
9.1652820051
 20
6.4366763077
 30
0.0
  0
VERTEX
  5
37E
330
2BF
100
AcDbEntity
  8
0
  6
CONTINUOUS
 62
     7
100
AcDbVertex
100
AcDb2dVertex
 10
9.1770198168
 20
6.4663613561
 30
0.0
  0
VERTEX
  5
37F
330
2BF
100
AcDbEntity
  8
0
  6
CONTINUOUS
 62
     7
100
AcDbVertex
100
AcDb2dVertex
 10
9.1876814698
 20
6.4961162855
 30
0.0
  0
VERTEX
  5
380
330
2BF
100
AcDbEntity
  8
0
  6
CONTINUOUS
 62
     7
100
AcDbVertex
100
AcDb2dVertex
 10
9.1972365386
 20
6.5258561831
 30
0.0
  0
VERTEX
  5
381
330
2BF
100
AcDbEntity
  8
0
  6
CONTINUOUS
 62
     7
100
AcDbVertex
100
AcDb2dVertex
 10
9.2056577556
 20
6.5554961793
 30
0.0
  0
VERTEX
  5
382
330
2BF
100
AcDbEntity
  8
0
  6
CONTINUOUS
 62
     7
100
AcDbVertex
100
AcDb2dVertex
 10
9.2129210888
 20
6.5849516892
 30
0.0
  0
VERTEX
  5
383
330
2BF
100
AcDbEntity
  8
0
  6
CONTINUOUS
 62
     7
100
AcDbVertex
100
AcDb2dVertex
 10
9.2190058107
 20
6.6141386546
 30
0.0
  0
VERTEX
  5
384
330
2BF
100
AcDbEntity
  8
0
  6
CONTINUOUS
 62
     7
100
AcDbVertex
100
AcDb2dVertex
 10
9.2238945569
 20
6.6429737838
 30
0.0
  0
VERTEX
  5
385
330
2BF
100
AcDbEntity
  8
0
  6
CONTINUOUS
 62
     7
100
AcDbVertex
100
AcDb2dVertex
 10
9.2275733764
 20
6.6713747888
 30
0.0
  0
VERTEX
  5
386
330
2BF
100
AcDbEntity
  8
0
  6
CONTINUOUS
 62
     7
100
AcDbVertex
100
AcDb2dVertex
 10
9.2300317707
 20
6.6992606208
 30
0.0
  0
VERTEX
  5
387
330
2BF
100
AcDbEntity
  8
0
  6
CONTINUOUS
 62
     7
100
AcDbVertex
100
AcDb2dVertex
 10
9.2312627242
 20
6.7265517009
 30
0.0
  0
VERTEX
  5
388
330
2BF
100
AcDbEntity
  8
0
  6
CONTINUOUS
 62
     7
100
AcDbVertex
100
AcDb2dVertex
 10
9.2312627242
 20
6.7531701476
 30
0.0
  0
VERTEX
  5
389
330
2BF
100
AcDbEntity
  8
0
  6
CONTINUOUS
 62
     7
100
AcDbVertex
100
AcDb2dVertex
 10
9.2300317707
 20
6.7790399989
 30
0.0
  0
VERTEX
  5
38A
330
2BF
100
AcDbEntity
  8
0
  6
CONTINUOUS
 62
     7
100
AcDbVertex
100
AcDb2dVertex
 10
9.2275733764
 20
6.8040874292
 30
0.0
  0
VERTEX
  5
38B
330
2BF
100
AcDbEntity
  8
0
  6
CONTINUOUS
 62
     7
100
AcDbVertex
100
AcDb2dVertex
 10
9.2238945569
 20
6.8282409597
 30
0.0
  0
VERTEX
  5
38C
330
2BF
100
AcDbEntity
  8
0
  6
CONTINUOUS
 62
     7
100
AcDbVertex
100
AcDb2dVertex
 10
9.2190058107
 20
6.8514316626
 30
0.0
  0
VERTEX
  5
38D
330
2BF
100
AcDbEntity
  8
0
  6
CONTINUOUS
 62
     7
100
AcDbVertex
100
AcDb2dVertex
 10
9.2129210888
 20
6.8735933578
 30
0.0
  0
VERTEX
  5
38E
330
2BF
100
AcDbEntity
  8
0
  6
CONTINUOUS
 62
     7
100
AcDbVertex
100
AcDb2dVertex
 10
9.2056577556
 20
6.8946628017
 30
0.0
  0
VERTEX
  5
38F
330
2BF
100
AcDbEntity
  8
0
  6
CONTINUOUS
 62
     7
100
AcDbVertex
100
AcDb2dVertex
 10
9.1972365386
 20
6.9145798676
 30
0.0
  0
VERTEX
  5
390
330
2BF
100
AcDbEntity
  8
0
  6
CONTINUOUS
 62
     7
100
AcDbVertex
100
AcDb2dVertex
 10
9.1876814698
 20
6.9332877176
 30
0.0
  0
VERTEX
  5
391
330
2BF
100
AcDbEntity
  8
0
  6
CONTINUOUS
 62
     7
100
AcDbVertex
100
AcDb2dVertex
 10
9.1770198168
 20
6.9507329644
 30
0.0
  0
VERTEX
  5
392
330
2BF
100
AcDbEntity
  8
0
  6
CONTINUOUS
 62
     7
100
AcDbVertex
100
AcDb2dVertex
 10
9.1652820051
 20
6.9668658239
 30
0.0
  0
VERTEX
  5
393
330
2BF
100
AcDbEntity
  8
0
  6
CONTINUOUS
 62
     7
100
AcDbVertex
100
AcDb2dVertex
 10
9.1525015313
 20
6.9816402572
 30
0.0
  0
VERTEX
  5
394
330
2BF
100
AcDbEntity
  8
0
  6
CONTINUOUS
 62
     7
100
AcDbVertex
100
AcDb2dVertex
 10
9.1387148675
 20
6.9950141019
 30
0.0
  0
VERTEX
  5
395
330
2BF
100
AcDbEntity
  8
0
  6
CONTINUOUS
 62
     7
100
AcDbVertex
100
AcDb2dVertex
 10
9.1239613572
 20
7.0069491926
 30
0.0
  0
VERTEX
  5
396
330
2BF
100
AcDbEntity
  8
0
  6
CONTINUOUS
 62
     7
100
AcDbVertex
100
AcDb2dVertex
 10
9.1082831031
 20
7.0174114698
 30
0.0
  0
VERTEX
  5
397
330
2BF
100
AcDbEntity
  8
0
  6
CONTINUOUS
 62
     7
100
AcDbVertex
100
AcDb2dVertex
 10
9.0917248466
 20
7.0263710769
 30
0.0
  0
VERTEX
  5
398
330
2BF
100
AcDbEntity
  8
0
  6
CONTINUOUS
 62
     7
100
AcDbVertex
100
AcDb2dVertex
 10
9.0743338408
 20
7.0338024455
 30
0.0
  0
VERTEX
  5
399
330
2BF
100
AcDbEntity
  8
0
  6
CONTINUOUS
 62
     7
100
AcDbVertex
100
AcDb2dVertex
 10
9.0561597148
 20
7.0396843685
 30
0.0
  0
VERTEX
  5
39A
330
2BF
100
AcDbEntity
  8
0
  6
CONTINUOUS
 62
     7
100
AcDbVertex
100
AcDb2dVertex
 10
9.0372543329
 20
7.0440000605
 30
0.0
  0
VERTEX
  5
39B
330
2BF
100
AcDbEntity
  8
0
  6
CONTINUOUS
 62
     7
100
AcDbVertex
100
AcDb2dVertex
 10
9.0176716459
 20
7.0467372055
 30
0.0
  0
VERTEX
  5
39C
330
2BF
100
AcDbEntity
  8
0
  6
CONTINUOUS
 62
     7
100
AcDbVertex
100
AcDb2dVertex
 10
8.9974675378
 20
7.0478879925
 30
0.0
  0
VERTEX
  5
39D
330
2BF
100
AcDbEntity
  8
0
  6
CONTINUOUS
 62
     7
100
AcDbVertex
100
AcDb2dVertex
 10
8.9766996657
 20
7.0474491375
 30
0.0
  0
VERTEX
  5
39E
330
2BF
100
AcDbEntity
  8
0
  6
CONTINUOUS
 62
     7
100
AcDbVertex
100
AcDb2dVertex
 10
8.9554272955
 20
7.0454218929
 30
0.0
  0
VERTEX
  5
39F
330
2BF
100
AcDbEntity
  8
0
  6
CONTINUOUS
 62
     7
100
AcDbVertex
100
AcDb2dVertex
 10
8.933711133
 20
7.0418120438
 30
0.0
  0
VERTEX
  5
3A0
330
2BF
100
AcDbEntity
  8
0
  6
CONTINUOUS
 62
     7
100
AcDbVertex
100
AcDb2dVertex
 10
8.9116131504
 20
7.0366298918
 30
0.0
  0
VERTEX
  5
3A1
330
2BF
100
AcDbEntity
  8
0
  6
CONTINUOUS
 62
     7
100
AcDbVertex
100
AcDb2dVertex
 10
8.8891964094
 20
7.0298902254
 30
0.0
  0
VERTEX
  5
3A2
330
2BF
100
AcDbEntity
  8
0
  6
CONTINUOUS
 62
     7
100
AcDbVertex
100
AcDb2dVertex
 10
8.8665248815
 20
7.0216122778
 30
0.0
  0
VERTEX
  5
3A3
330
2BF
100
AcDbEntity
  8
0
  6
CONTINUOUS
 62
     7
100
AcDbVertex
100
AcDb2dVertex
 10
8.8436632652
 20
7.0118196721
 30
0.0
  0
VERTEX
  5
3A4
330
2BF
100
AcDbEntity
  8
0
  6
CONTINUOUS
 62
     7
100
AcDbVertex
100
AcDb2dVertex
 10
8.8206768016
 20
7.0005403538
 30
0.0
  0
VERTEX
  5
3A5
330
2BF
100
AcDbEntity
  8
0
  6
CONTINUOUS
 62
     7
100
AcDbVertex
100
AcDb2dVertex
 10
8.7976310879
 20
6.9878065111
 30
0.0
  0
VERTEX
  5
3A6
330
2BF
100
AcDbEntity
  8
0
  6
CONTINUOUS
 62
     7
100
AcDbVertex
100
AcDb2dVertex
 10
8.7745918905
 20
6.973654483
 30
0.0
  0
VERTEX
  5
3A7
330
2BF
100
AcDbEntity
  8
0
  6
CONTINUOUS
 62
     7
100
AcDbVertex
100
AcDb2dVertex
 10
8.7516249571
 20
6.9581246557
 30
0.0
  0
VERTEX
  5
3A8
330
2BF
100
AcDbEntity
  8
0
  6
CONTINUOUS
 62
     7
100
AcDbVertex
100
AcDb2dVertex
 10
8.7287958293
 20
6.9412613471
 30
0.0
  0
VERTEX
  5
3A9
330
2BF
100
AcDbEntity
  8
0
  6
CONTINUOUS
 62
     7
100
AcDbVertex
100
AcDb2dVertex
 10
8.7061696553
 20
6.9231126806
 30
0.0
  0
VERTEX
  5
3AA
330
2BF
100
AcDbEntity
  8
0
  6
CONTINUOUS
 62
     7
100
AcDbVertex
100
AcDb2dVertex
 10
8.6838110043
 20
6.9037304478
 30
0.0
  0
VERTEX
  5
3AB
330
2BF
100
AcDbEntity
  8
0
  6
CONTINUOUS
 62
     7
100
AcDbVertex
100
AcDb2dVertex
 10
8.661783682
 20
6.8831699605
 30
0.0
  0
VERTEX
  5
3AC
330
2BF
100
AcDbEntity
  8
0
  6
CONTINUOUS
 62
     7
100
AcDbVertex
100
AcDb2dVertex
 10
8.6401505485
 20
6.8614898927
 30
0.0
  0
VERTEX
  5
3AD
330
2BF
100
AcDbEntity
  8
0
  6
CONTINUOUS
 62
     7
100
AcDbVertex
100
AcDb2dVertex
 10
8.6189733389
 20
6.8387521137
 30
0.0
  0
VERTEX
  5
3AE
330
2BF
100
AcDbEntity
  8
0
  6
CONTINUOUS
 62
     7
100
AcDbVertex
100
AcDb2dVertex
 10
8.5983124876
 20
6.8150215111
 30
0.0
  0
VERTEX
  5
3AF
330
2BF
100
AcDbEntity
  8
0
  6
CONTINUOUS
 62
     7
100
AcDbVertex
100
AcDb2dVertex
 10
8.578226955
 20
6.7903658056
 30
0.0
  0
VERTEX
  5
3B0
330
2BF
100
AcDbEntity
  8
0
  6
CONTINUOUS
 62
     7
100
AcDbVertex
100
AcDb2dVertex
 10
8.5587740599
 20
6.7648553583
 30
0.0
  0
VERTEX
  5
3B1
330
2BF
100
AcDbEntity
  8
0
  6
CONTINUOUS
 62
     7
100
AcDbVertex
100
AcDb2dVertex
 10
8.5400093159
 20
6.7385629691
 30
0.0
  0
VERTEX
  5
3B2
330
2BF
100
AcDbEntity
  8
0
  6
CONTINUOUS
 62
     7
100
AcDbVertex
100
AcDb2dVertex
 10
8.5219862724
 20
6.7115636696
 30
0.0
  0
VERTEX
  5
3B3
330
2BF
100
AcDbEntity
  8
0
  6
CONTINUOUS
 62
     7
100
AcDbVertex
100
AcDb2dVertex
 10
8.5047563624
 20
6.6839345085
 30
0.0
  0
VERTEX
  5
3B4
330
2BF
100
AcDbEntity
  8
0
  6
CONTINUOUS
 62
     7
100
AcDbVertex
100
AcDb2dVertex
 10
8.4883687557
 20
6.6557543323
 30
0.0
  0
VERTEX
  5
3B5
330
2BF
100
AcDbEntity
  8
0
  6
CONTINUOUS
 62
     7
100
AcDbVertex
100
AcDb2dVertex
 10
8.472870218
 20
6.6271035596
 30
0.0
  0
VERTEX
  5
3B6
330
2BF
100
AcDbEntity
  8
0
  6
CONTINUOUS
 62
     7
100
AcDbVertex
100
AcDb2dVertex
 10
8.458304978
 20
6.5980639522
 30
0.0
  0
VERTEX
  5
3B7
330
2BF
100
AcDbEntity
  8
0
  6
CONTINUOUS
 62
     7
100
AcDbVertex
100
AcDb2dVertex
 10
8.4447146012
 20
6.5687183815
 30
0.0
  0
VERTEX
  5
3B8
330
2BF
100
AcDbEntity
  8
0
  6
CONTINUOUS
 62
     7
100
AcDbVertex
100
AcDb2dVertex
 10
8.4321378708
 20
6.5391505918
 30
0.0
  0
VERTEX
  5
3B9
330
2BF
100
AcDbEntity
  8
0
  6
CONTINUOUS
 62
     7
100
AcDbVertex
100
AcDb2dVertex
 10
8.4206106776
 20
6.509444962
 30
0.0
  0
VERTEX
  5
3BA
330
2BF
100
AcDbEntity
  8
0
  6
CONTINUOUS
 62
     7
100
AcDbVertex
100
AcDb2dVertex
 10
8.410165917
 20
6.4796862639
 30
0.0
  0
VERTEX
  5
3BB
330
2BF
100
AcDbEntity
  8
0
  6
CONTINUOUS
 62
     7
100
AcDbVertex
100
AcDb2dVertex
 10
8.4008333956
 20
6.449959421
 30
0.0
  0
VERTEX
  5
3BC
330
2BF
100
AcDbEntity
  8
0
  6
CONTINUOUS
 62
     7
100
AcDbVertex
100
AcDb2dVertex
 10
8.3926397461
 20
6.4203492658
 30
0.0
  0
VERTEX
  5
3BD
330
2BF
100
AcDbEntity
  8
0
  6
CONTINUOUS
 62
     7
100
AcDbVertex
100
AcDb2dVertex
 10
8.3856083508
 20
6.3909402979
 30
0.0
  0
VERTEX
  5
3BE
330
2BF
100
AcDbEntity
  8
0
  6
CONTINUOUS
 62
     7
100
AcDbVertex
100
AcDb2dVertex
 10
8.3797592756
 20
6.3618164427
 30
0.0
  0
VERTEX
  5
3BF
330
2BF
100
AcDbEntity
  8
0
  6
CONTINUOUS
 62
     7
100
AcDbVertex
100
AcDb2dVertex
 10
8.3751092121
 20
6.3330608119
 30
0.0
  0
VERTEX
  5
3C0
330
2BF
100
AcDbEntity
  8
0
  6
CONTINUOUS
 62
     7
100
AcDbVertex
100
AcDb2dVertex
 10
8.3716714304
 20
6.3047554666
 30
0.0
  0
VERTEX
  5
3C1
330
2BF
100
AcDbEntity
  8
0
  6
CONTINUOUS
 62
     7
100
AcDbVertex
100
AcDb2dVertex
 10
8.369455741
 20
6.2769811826
 30
0.0
  0
VERTEX
  5
3C2
330
2BF
100
AcDbEntity
  8
0
  6
CONTINUOUS
 62
     7
100
AcDbVertex
100
AcDb2dVertex
 10
8.3684684669
 20
6.2498172204
 30
0.0
  0
SEQEND
  5
3C3
330
2BF
100
AcDbEntity
  8
0
  6
CONTINUOUS
 62
     7
  0
LINE
  5
2C0
330
1F
100
AcDbEntity
  8
0
  6
CONTINUOUS
 62
     7
100
AcDbLine
 10
8.340627863
 20
6.2498162077
 30
0.0
 11
8.3684684669
 21
6.2498172204
 31
0.0
  0
POLYLINE
  5
2C1
330
1F
100
AcDbEntity
  8
0
  6
CONTINUOUS
 62
     7
100
AcDb2dPolyline
 66
     1
 10
0.0
 20
0.0
 30
0.0
  0
VERTEX
  5
3C4
330
2C1
100
AcDbEntity
  8
0
  6
CONTINUOUS
 62
     7
100
AcDbVertex
100
AcDb2dVertex
 10
8.340627863
 20
6.2498162077
 30
0.0
  0
VERTEX
  5
3C5
330
2C1
100
AcDbEntity
  8
0
  6
CONTINUOUS
 62
     7
100
AcDbVertex
100
AcDb2dVertex
 10
8.3416078409
 20
6.2773779983
 30
0.0
  0
VERTEX
  5
3C6
330
2C1
100
AcDbEntity
  8
0
  6
CONTINUOUS
 62
     7
100
AcDbVertex
100
AcDb2dVertex
 10
8.3438141183
 20
6.3055510422
 30
0.0
  0
VERTEX
  5
3C7
330
2C1
100
AcDbEntity
  8
0
  6
CONTINUOUS
 62
     7
100
AcDbVertex
100
AcDb2dVertex
 10
8.3472406068
 20
6.3342575952
 30
0.0
  0
VERTEX
  5
3C8
330
2C1
100
AcDbEntity
  8
0
  6
CONTINUOUS
 62
     7
100
AcDbVertex
100
AcDb2dVertex
 10
8.351877851
 20
6.3634184407
 30
0.0
  0
VERTEX
  5
3C9
330
2C1
100
AcDbEntity
  8
0
  6
CONTINUOUS
 62
     7
100
AcDbVertex
100
AcDb2dVertex
 10
8.3577130543
 20
6.3929531084
 30
0.0
  0
VERTEX
  5
3CA
330
2C1
100
AcDbEntity
  8
0
  6
CONTINUOUS
 62
     7
100
AcDbVertex
100
AcDb2dVertex
 10
8.3647301142
 20
6.4227800966
 30
0.0
  0
VERTEX
  5
3CB
330
2C1
100
AcDbEntity
  8
0
  6
CONTINUOUS
 62
     7
100
AcDbVertex
100
AcDb2dVertex
 10
8.3729096671
 20
6.4528170969
 30
0.0
  0
VERTEX
  5
3CC
330
2C1
100
AcDbEntity
  8
0
  6
CONTINUOUS
 62
     7
100
AcDbVertex
100
AcDb2dVertex
 10
8.382229141
 20
6.4829812212
 30
0.0
  0
VERTEX
  5
3CD
330
2C1
100
AcDbEntity
  8
0
  6
CONTINUOUS
 62
     7
100
AcDbVertex
100
AcDb2dVertex
 10
8.3926628188
 20
6.5131892309
 30
0.0
  0
VERTEX
  5
3CE
330
2C1
100
AcDbEntity
  8
0
  6
CONTINUOUS
 62
     7
100
AcDbVertex
100
AcDb2dVertex
 10
8.4041819084
 20
6.543357766
 30
0.0
  0
VERTEX
  5
3CF
330
2C1
100
AcDbEntity
  8
0
  6
CONTINUOUS
 62
     7
100
AcDbVertex
100
AcDb2dVertex
 10
8.4167546224
 20
6.5734035756
 30
0.0
  0
VERTEX
  5
3D0
330
2C1
100
AcDbEntity
  8
0
  6
CONTINUOUS
 62
     7
100
AcDbVertex
100
AcDb2dVertex
 10
8.4303462662
 20
6.6032437474
 30
0.0
  0
VERTEX
  5
3D1
330
2C1
100
AcDbEntity
  8
0
  6
CONTINUOUS
 62
     7
100
AcDbVertex
100
AcDb2dVertex
 10
8.4449193332
 20
6.6327959366
 30
0.0
  0
VERTEX
  5
3D2
330
2C1
100
AcDbEntity
  8
0
  6
CONTINUOUS
 62
     7
100
AcDbVertex
100
AcDb2dVertex
 10
8.4604336086
 20
6.6619785931
 30
0.0
  0
VERTEX
  5
3D3
330
2C1
100
AcDbEntity
  8
0
  6
CONTINUOUS
 62
     7
100
AcDbVertex
100
AcDb2dVertex
 10
8.4768462803
 20
6.6907111864
 30
0.0
  0
VERTEX
  5
3D4
330
2C1
100
AcDbEntity
  8
0
  6
CONTINUOUS
 62
     7
100
AcDbVertex
100
AcDb2dVertex
 10
8.4941120571
 20
6.7189144282
 30
0.0
  0
VERTEX
  5
3D5
330
2C1
100
AcDbEntity
  8
0
  6
CONTINUOUS
 62
     7
100
AcDbVertex
100
AcDb2dVertex
 10
8.5121832935
 20
6.7465104908
 30
0.0
  0
VERTEX
  5
3D6
330
2C1
100
AcDbEntity
  8
0
  6
CONTINUOUS
 62
     7
100
AcDbVertex
100
AcDb2dVertex
 10
8.5310101215
 20
6.7734232221
 30
0.0
  0
VERTEX
  5
3D7
330
2C1
100
AcDbEntity
  8
0
  6
CONTINUOUS
 62
     7
100
AcDbVertex
100
AcDb2dVertex
 10
8.5505405879
 20
6.7995783556
 30
0.0
  0
VERTEX
  5
3D8
330
2C1
100
AcDbEntity
  8
0
  6
CONTINUOUS
 62
     7
100
AcDbVertex
100
AcDb2dVertex
 10
8.5707207977
 20
6.8249037154
 30
0.0
  0
VERTEX
  5
3D9
330
2C1
100
AcDbEntity
  8
0
  6
CONTINUOUS
 62
     7
100
AcDbVertex
100
AcDb2dVertex
 10
8.5914950632
 20
6.8493294155
 30
0.0
  0
VERTEX
  5
3DA
330
2C1
100
AcDbEntity
  8
0
  6
CONTINUOUS
 62
     7
100
AcDbVertex
100
AcDb2dVertex
 10
8.6128060571
 20
6.8727880525
 30
0.0
  0
VERTEX
  5
3DB
330
2C1
100
AcDbEntity
  8
0
  6
CONTINUOUS
 62
     7
100
AcDbVertex
100
AcDb2dVertex
 10
8.6345949712
 20
6.8952148915
 30
0.0
  0
VERTEX
  5
3DC
330
2C1
100
AcDbEntity
  8
0
  6
CONTINUOUS
 62
     7
100
AcDbVertex
100
AcDb2dVertex
 10
8.6568016782
 20
6.9165480451
 30
0.0
  0
VERTEX
  5
3DD
330
2C1
100
AcDbEntity
  8
0
  6
CONTINUOUS
 62
     7
100
AcDbVertex
100
AcDb2dVertex
 10
8.6793648982
 20
6.9367286439
 30
0.0
  0
VERTEX
  5
3DE
330
2C1
100
AcDbEntity
  8
0
  6
CONTINUOUS
 62
     7
100
AcDbVertex
100
AcDb2dVertex
 10
8.7022223672
 20
6.9557009987
 30
0.0
  0
VERTEX
  5
3DF
330
2C1
100
AcDbEntity
  8
0
  6
CONTINUOUS
 62
     7
100
AcDbVertex
100
AcDb2dVertex
 10
8.7253110095
 20
6.973412755
 30
0.0
  0
VERTEX
  5
3E0
330
2C1
100
AcDbEntity
  8
0
  6
CONTINUOUS
 62
     7
100
AcDbVertex
100
AcDb2dVertex
 10
8.7485671112
 20
6.9898150366
 30
0.0
  0
VERTEX
  5
3E1
330
2C1
100
AcDbEntity
  8
0
  6
CONTINUOUS
 62
     7
100
AcDbVertex
100
AcDb2dVertex
 10
8.7719264965
 20
7.0048625809
 30
0.0
  0
VERTEX
  5
3E2
330
2C1
100
AcDbEntity
  8
0
  6
CONTINUOUS
 62
     7
100
AcDbVertex
100
AcDb2dVertex
 10
8.7953247045
 20
7.0185138638
 30
0.0
  0
VERTEX
  5
3E3
330
2C1
100
AcDbEntity
  8
0
  6
CONTINUOUS
 62
     7
100
AcDbVertex
100
AcDb2dVertex
 10
8.8186971671
 20
7.0307312142
 30
0.0
  0
VERTEX
  5
3E4
330
2C1
100
AcDbEntity
  8
0
  6
CONTINUOUS
 62
     7
100
AcDbVertex
100
AcDb2dVertex
 10
8.8419793873
 20
7.0414809179
 30
0.0
  0
VERTEX
  5
3E5
330
2C1
100
AcDbEntity
  8
0
  6
CONTINUOUS
 62
     7
100
AcDbVertex
100
AcDb2dVertex
 10
8.8651071173
 20
7.0507333108
 30
0.0
  0
VERTEX
  5
3E6
330
2C1
100
AcDbEntity
  8
0
  6
CONTINUOUS
 62
     7
100
AcDbVertex
100
AcDb2dVertex
 10
8.8880165352
 20
7.0584628608
 30
0.0
  0
VERTEX
  5
3E7
330
2C1
100
AcDbEntity
  8
0
  6
CONTINUOUS
 62
     7
100
AcDbVertex
100
AcDb2dVertex
 10
8.9106444221
 20
7.0646482378
 30
0.0
  0
VERTEX
  5
3E8
330
2C1
100
AcDbEntity
  8
0
  6
CONTINUOUS
 62
     7
100
AcDbVertex
100
AcDb2dVertex
 10
8.9329283354
 20
7.0692723731
 30
0.0
  0
VERTEX
  5
3E9
330
2C1
100
AcDbEntity
  8
0
  6
CONTINUOUS
 62
     7
100
AcDbVertex
100
AcDb2dVertex
 10
8.9548067822
 20
7.0723225063
 30
0.0
  0
VERTEX
  5
3EA
330
2C1
100
AcDbEntity
  8
0
  6
CONTINUOUS
 62
     7
100
AcDbVertex
100
AcDb2dVertex
 10
8.9762193882
 20
7.0737902206
 30
0.0
  0
VERTEX
  5
3EB
330
2C1
100
AcDbEntity
  8
0
  6
CONTINUOUS
 62
     7
100
AcDbVertex
100
AcDb2dVertex
 10
8.9971070648
 20
7.0736714655
 30
0.0
  0
VERTEX
  5
3EC
330
2C1
100
AcDbEntity
  8
0
  6
CONTINUOUS
 62
     7
100
AcDbVertex
100
AcDb2dVertex
 10
9.0174121716
 20
7.071966569
 30
0.0
  0
VERTEX
  5
3ED
330
2C1
100
AcDbEntity
  8
0
  6
CONTINUOUS
 62
     7
100
AcDbVertex
100
AcDb2dVertex
 10
9.0370786764
 20
7.0686802357
 30
0.0
  0
VERTEX
  5
3EE
330
2C1
100
AcDbEntity
  8
0
  6
CONTINUOUS
 62
     7
100
AcDbVertex
100
AcDb2dVertex
 10
9.0560523087
 20
7.0638215342
 30
0.0
  0
VERTEX
  5
3EF
330
2C1
100
AcDbEntity
  8
0
  6
CONTINUOUS
 62
     7
100
AcDbVertex
100
AcDb2dVertex
 10
9.0742807102
 20
7.0574038725
 30
0.0
  0
VERTEX
  5
3F0
330
2C1
100
AcDbEntity
  8
0
  6
CONTINUOUS
 62
     7
100
AcDbVertex
100
AcDb2dVertex
 10
9.0917135792
 20
7.0494449601
 30
0.0
  0
VERTEX
  5
3F1
330
2C1
100
AcDbEntity
  8
0
  6
CONTINUOUS
 62
     7
100
AcDbVertex
100
AcDb2dVertex
 10
9.1083028092
 20
7.0399667599
 30
0.0
  0
VERTEX
  5
3F2
330
2C1
100
AcDbEntity
  8
0
  6
CONTINUOUS
 62
     7
100
AcDbVertex
100
AcDb2dVertex
 10
9.1240026216
 20
7.0289954273
 30
0.0
  0
VERTEX
  5
3F3
330
2C1
100
AcDbEntity
  8
0
  6
CONTINUOUS
 62
     7
100
AcDbVertex
100
AcDb2dVertex
 10
9.1387696925
 20
7.016561238
 30
0.0
  0
VERTEX
  5
3F4
330
2C1
100
AcDbEntity
  8
0
  6
CONTINUOUS
 62
     7
100
AcDbVertex
100
AcDb2dVertex
 10
9.1525632716
 20
7.0026985046
 30
0.0
  0
VERTEX
  5
3F5
330
2C1
100
AcDbEntity
  8
0
  6
CONTINUOUS
 62
     7
100
AcDbVertex
100
AcDb2dVertex
 10
9.1653452952
 20
6.9874454815
 30
0.0
  0
VERTEX
  5
3F6
330
2C1
100
AcDbEntity
  8
0
  6
CONTINUOUS
 62
     7
100
AcDbVertex
100
AcDb2dVertex
 10
9.1770804908
 20
6.97084426
 30
0.0
  0
VERTEX
  5
3F7
330
2C1
100
AcDbEntity
  8
0
  6
CONTINUOUS
 62
     7
100
AcDbVertex
100
AcDb2dVertex
 10
9.187736475
 20
6.9529406517
 30
0.0
  0
VERTEX
  5
3F8
330
2C1
100
AcDbEntity
  8
0
  6
CONTINUOUS
 62
     7
100
AcDbVertex
100
AcDb2dVertex
 10
9.1972838421
 20
6.933784062
 30
0.0
  0
VERTEX
  5
3F9
330
2C1
100
AcDbEntity
  8
0
  6
CONTINUOUS
 62
     7
100
AcDbVertex
100
AcDb2dVertex
 10
9.205696246
 20
6.9134273541
 30
0.0
  0
VERTEX
  5
3FA
330
2C1
100
AcDbEntity
  8
0
  6
CONTINUOUS
 62
     7
100
AcDbVertex
100
AcDb2dVertex
 10
9.2129504724
 20
6.891926703
 30
0.0
  0
VERTEX
  5
3FB
330
2C1
100
AcDbEntity
  8
0
  6
CONTINUOUS
 62
     7
100
AcDbVertex
100
AcDb2dVertex
 10
9.2190265031
 20
6.8693414403
 30
0.0
  0
VERTEX
  5
3FC
330
2C1
100
AcDbEntity
  8
0
  6
CONTINUOUS
 62
     7
100
AcDbVertex
100
AcDb2dVertex
 10
9.2239075709
 20
6.8457338907
 30
0.0
  0
VERTEX
  5
3FD
330
2C1
100
AcDbEntity
  8
0
  6
CONTINUOUS
 62
     7
100
AcDbVertex
100
AcDb2dVertex
 10
9.2275802066
 20
6.8211691999
 30
0.0
  0
VERTEX
  5
3FE
330
2C1
100
AcDbEntity
  8
0
  6
CONTINUOUS
 62
     7
100
AcDbVertex
100
AcDb2dVertex
 10
9.2300342754
 20
6.795715155
 30
0.0
  0
VERTEX
  5
3FF
330
2C1
100
AcDbEntity
  8
0
  6
CONTINUOUS
 62
     7
100
AcDbVertex
100
AcDb2dVertex
 10
9.2312630051
 20
6.7694419969
 30
0.0
  0
VERTEX
  5
400
330
2C1
100
AcDbEntity
  8
0
  6
CONTINUOUS
 62
     7
100
AcDbVertex
100
AcDb2dVertex
 10
9.2314166758
 20
6.7560208244
 30
0.0
  0
SEQEND
  5
401
330
2C1
100
AcDbEntity
  8
0
  6
CONTINUOUS
 62
     7
  0
POLYLINE
  5
2C2
330
1F
100
AcDbEntity
  8
0
  6
CONTINUOUS
 62
     7
100
AcDb2dPolyline
 66
     1
 10
0.0
 20
0.0
 30
0.0
  0
VERTEX
  5
402
330
2C2
100
AcDbEntity
  8
0
  6
CONTINUOUS
 62
     7
100
AcDbVertex
100
AcDb2dVertex
 10
8.7860674749
 20
5.984569793
 30
0.0
  0
VERTEX
  5
403
330
2C2
100
AcDbEntity
  8
0
  6
CONTINUOUS
 62
     7
100
AcDbVertex
100
AcDb2dVertex
 10
8.7719264965
 20
5.9766629992
 30
0.0
  0
VERTEX
  5
404
330
2C2
100
AcDbEntity
  8
0
  6
CONTINUOUS
 62
     7
100
AcDbVertex
100
AcDb2dVertex
 10
8.7485671112
 20
5.9647403713
 30
0.0
  0
VERTEX
  5
405
330
2C2
100
AcDbEntity
  8
0
  6
CONTINUOUS
 62
     7
100
AcDbVertex
100
AcDb2dVertex
 10
8.7253110095
 20
5.9542917294
 30
0.0
  0
VERTEX
  5
406
330
2C2
100
AcDbEntity
  8
0
  6
CONTINUOUS
 62
     7
100
AcDbVertex
100
AcDb2dVertex
 10
8.7022223672
 20
5.9453459067
 30
0.0
  0
VERTEX
  5
407
330
2C2
100
AcDbEntity
  8
0
  6
CONTINUOUS
 62
     7
100
AcDbVertex
100
AcDb2dVertex
 10
8.6793648982
 20
5.9379275896
 30
0.0
  0
VERTEX
  5
408
330
2C2
100
AcDbEntity
  8
0
  6
CONTINUOUS
 62
     7
100
AcDbVertex
100
AcDb2dVertex
 10
8.6568016782
 20
5.9320572491
 30
0.0
  0
VERTEX
  5
409
330
2C2
100
AcDbEntity
  8
0
  6
CONTINUOUS
 62
     7
100
AcDbVertex
100
AcDb2dVertex
 10
8.6345949712
 20
5.9277510845
 30
0.0
  0
VERTEX
  5
40A
330
2C2
100
AcDbEntity
  8
0
  6
CONTINUOUS
 62
     7
100
AcDbVertex
100
AcDb2dVertex
 10
8.6128060571
 20
5.9250209789
 30
0.0
  0
VERTEX
  5
40B
330
2C2
100
AcDbEntity
  8
0
  6
CONTINUOUS
 62
     7
100
AcDbVertex
100
AcDb2dVertex
 10
8.5914950632
 20
5.923874466
 30
0.0
  0
VERTEX
  5
40C
330
2C2
100
AcDbEntity
  8
0
  6
CONTINUOUS
 62
     7
100
AcDbVertex
100
AcDb2dVertex
 10
8.5707207977
 20
5.9243147097
 30
0.0
  0
VERTEX
  5
40D
330
2C2
100
AcDbEntity
  8
0
  6
CONTINUOUS
 62
     7
100
AcDbVertex
100
AcDb2dVertex
 10
8.5505405879
 20
5.9263404952
 30
0.0
  0
VERTEX
  5
40E
330
2C2
100
AcDbEntity
  8
0
  6
CONTINUOUS
 62
     7
100
AcDbVertex
100
AcDb2dVertex
 10
8.5310101215
 20
5.9299462322
 30
0.0
  0
VERTEX
  5
40F
330
2C2
100
AcDbEntity
  8
0
  6
CONTINUOUS
 62
     7
100
AcDbVertex
100
AcDb2dVertex
 10
8.5121832935
 20
5.9351219705
 30
0.0
  0
VERTEX
  5
410
330
2C2
100
AcDbEntity
  8
0
  6
CONTINUOUS
 62
     7
100
AcDbVertex
100
AcDb2dVertex
 10
8.4941120571
 20
5.9418534277
 30
0.0
  0
VERTEX
  5
411
330
2C2
100
AcDbEntity
  8
0
  6
CONTINUOUS
 62
     7
100
AcDbVertex
100
AcDb2dVertex
 10
8.4768462803
 20
5.9501220279
 30
0.0
  0
VERTEX
  5
412
330
2C2
100
AcDbEntity
  8
0
  6
CONTINUOUS
 62
     7
100
AcDbVertex
100
AcDb2dVertex
 10
8.4604336086
 20
5.9599049539
 30
0.0
  0
VERTEX
  5
413
330
2C2
100
AcDbEntity
  8
0
  6
CONTINUOUS
 62
     7
100
AcDbVertex
100
AcDb2dVertex
 10
8.4449193332
 20
5.9711752092
 30
0.0
  0
VERTEX
  5
414
330
2C2
100
AcDbEntity
  8
0
  6
CONTINUOUS
 62
     7
100
AcDbVertex
100
AcDb2dVertex
 10
8.4303462662
 20
5.9839016934
 30
0.0
  0
VERTEX
  5
415
330
2C2
100
AcDbEntity
  8
0
  6
CONTINUOUS
 62
     7
100
AcDbVertex
100
AcDb2dVertex
 10
8.4167546224
 20
5.9980492873
 30
0.0
  0
VERTEX
  5
416
330
2C2
100
AcDbEntity
  8
0
  6
CONTINUOUS
 62
     7
100
AcDbVertex
100
AcDb2dVertex
 10
8.4041819084
 20
6.0135789503
 30
0.0
  0
VERTEX
  5
417
330
2C2
100
AcDbEntity
  8
0
  6
CONTINUOUS
 62
     7
100
AcDbVertex
100
AcDb2dVertex
 10
8.3926628188
 20
6.0304478277
 30
0.0
  0
VERTEX
  5
418
330
2C2
100
AcDbEntity
  8
0
  6
CONTINUOUS
 62
     7
100
AcDbVertex
100
AcDb2dVertex
 10
8.382229141
 20
6.0486093694
 30
0.0
  0
VERTEX
  5
419
330
2C2
100
AcDbEntity
  8
0
  6
CONTINUOUS
 62
     7
100
AcDbVertex
100
AcDb2dVertex
 10
8.3729096671
 20
6.0680134581
 30
0.0
  0
VERTEX
  5
41A
330
2C2
100
AcDbEntity
  8
0
  6
CONTINUOUS
 62
     7
100
AcDbVertex
100
AcDb2dVertex
 10
8.3647301142
 20
6.0886065478
 30
0.0
  0
VERTEX
  5
41B
330
2C2
100
AcDbEntity
  8
0
  6
CONTINUOUS
 62
     7
100
AcDbVertex
100
AcDb2dVertex
 10
8.3577130543
 20
6.110331811
 30
0.0
  0
VERTEX
  5
41C
330
2C2
100
AcDbEntity
  8
0
  6
CONTINUOUS
 62
     7
100
AcDbVertex
100
AcDb2dVertex
 10
8.351877851
 20
6.1331292964
 30
0.0
  0
VERTEX
  5
41D
330
2C2
100
AcDbEntity
  8
0
  6
CONTINUOUS
 62
     7
100
AcDbVertex
100
AcDb2dVertex
 10
8.3472406068
 20
6.1569360937
 30
0.0
  0
VERTEX
  5
41E
330
2C2
100
AcDbEntity
  8
0
  6
CONTINUOUS
 62
     7
100
AcDbVertex
100
AcDb2dVertex
 10
8.3438141183
 20
6.1816865072
 30
0.0
  0
VERTEX
  5
41F
330
2C2
100
AcDbEntity
  8
0
  6
CONTINUOUS
 62
     7
100
AcDbVertex
100
AcDb2dVertex
 10
8.3416078409
 20
6.2073122375
 30
0.0
  0
VERTEX
  5
420
330
2C2
100
AcDbEntity
  8
0
  6
CONTINUOUS
 62
     7
100
AcDbVertex
100
AcDb2dVertex
 10
8.340627863
 20
6.2337425697
 30
0.0
  0
SEQEND
  5
421
330
2C2
100
AcDbEntity
  8
0
  6
CONTINUOUS
 62
     7
  0
LINE
  5
2C3
330
1F
100
AcDbEntity
  8
0
  6
CONTINUOUS
 62
     7
100
AcDbLine
 10
8.340627863
 20
6.2337425697
 30
0.0
 11
8.3684684669
 21
6.2337435824
 31
0.0
  0
POLYLINE
  5
2C4
330
1F
100
AcDbEntity
  8
0
  6
CONTINUOUS
 62
     7
100
AcDb2dPolyline
 66
     1
 10
0.0
 20
0.0
 30
0.0
  0
VERTEX
  5
422
330
2C4
100
AcDbEntity
  8
0
  6
CONTINUOUS
 62
     7
100
AcDbVertex
100
AcDb2dVertex
 10
8.2384977049
 20
7.0032572296
 30
0.0
  0
VERTEX
  5
423
330
2C4
100
AcDbEntity
  8
0
  6
CONTINUOUS
 62
     7
100
AcDbVertex
100
AcDb2dVertex
 10
8.2186145147
 20
6.9777087729
 30
0.0
  0
VERTEX
  5
424
330
2C4
100
AcDbEntity
  8
0
  6
CONTINUOUS
 62
     7
100
AcDbVertex
100
AcDb2dVertex
 10
8.1993962578
 20
6.9513618035
 30
0.0
  0
VERTEX
  5
425
330
2C4
100
AcDbEntity
  8
0
  6
CONTINUOUS
 62
     7
100
AcDbVertex
100
AcDb2dVertex
 10
8.1808956101
 20
6.9242885366
 30
0.0
  0
VERTEX
  5
426
330
2C4
100
AcDbEntity
  8
0
  6
CONTINUOUS
 62
     7
100
AcDbVertex
100
AcDb2dVertex
 10
8.1631632805
 20
6.8965631781
 30
0.0
  0
VERTEX
  5
427
330
2C4
100
AcDbEntity
  8
0
  6
CONTINUOUS
 62
     7
100
AcDbVertex
100
AcDb2dVertex
 10
8.1462478722
 20
6.8682617214
 30
0.0
  0
VERTEX
  5
428
330
2C4
100
AcDbEntity
  8
0
  6
CONTINUOUS
 62
     7
100
AcDbVertex
100
AcDb2dVertex
 10
8.130195749
 20
6.8394617388
 30
0.0
  0
VERTEX
  5
429
330
2C4
100
AcDbEntity
  8
0
  6
CONTINUOUS
 62
     7
100
AcDbVertex
100
AcDb2dVertex
 10
8.1150509088
 20
6.8102421689
 30
0.0
  0
VERTEX
  5
42A
330
2C4
100
AcDbEntity
  8
0
  6
CONTINUOUS
 62
     7
100
AcDbVertex
100
AcDb2dVertex
 10
8.1008548625
 20
6.7806831007
 30
0.0
  0
VERTEX
  5
42B
330
2C4
100
AcDbEntity
  8
0
  6
CONTINUOUS
 62
     7
100
AcDbVertex
100
AcDb2dVertex
 10
8.0876465205
 20
6.7508655534
 30
0.0
  0
VERTEX
  5
42C
330
2C4
100
AcDbEntity
  8
0
  6
CONTINUOUS
 62
     7
100
AcDbVertex
100
AcDb2dVertex
 10
8.0754620859
 20
6.7208712549
 30
0.0
  0
VERTEX
  5
42D
330
2C4
100
AcDbEntity
  8
0
  6
CONTINUOUS
 62
     7
100
AcDbVertex
100
AcDb2dVertex
 10
8.0643349554
 20
6.6907824175
 30
0.0
  0
VERTEX
  5
42E
330
2C4
100
AcDbEntity
  8
0
  6
CONTINUOUS
 62
     7
100
AcDbVertex
100
AcDb2dVertex
 10
8.0542956277
 20
6.6606815126
 30
0.0
  0
VERTEX
  5
42F
330
2C4
100
AcDbEntity
  8
0
  6
CONTINUOUS
 62
     7
100
AcDbVertex
100
AcDb2dVertex
 10
8.04537162
 20
6.6306510447
 30
0.0
  0
VERTEX
  5
430
330
2C4
100
AcDbEntity
  8
0
  6
CONTINUOUS
 62
     7
100
AcDbVertex
100
AcDb2dVertex
 10
8.0375873922
 20
6.6007733252
 30
0.0
  0
VERTEX
  5
431
330
2C4
100
AcDbEntity
  8
0
  6
CONTINUOUS
 62
     7
100
AcDbVertex
100
AcDb2dVertex
 10
8.0309642804
 20
6.5711302468
 30
0.0
  0
VERTEX
  5
432
330
2C4
100
AcDbEntity
  8
0
  6
CONTINUOUS
 62
     7
100
AcDbVertex
100
AcDb2dVertex
 10
8.0255204382
 20
6.5418030592
 30
0.0
  0
VERTEX
  5
433
330
2C4
100
AcDbEntity
  8
0
  6
CONTINUOUS
 62
     7
100
AcDbVertex
100
AcDb2dVertex
 10
8.0212707866
 20
6.5128721462
 30
0.0
  0
VERTEX
  5
434
330
2C4
100
AcDbEntity
  8
0
  6
CONTINUOUS
 62
     7
100
AcDbVertex
100
AcDb2dVertex
 10
8.0182269737
 20
6.4844168053
 30
0.0
  0
VERTEX
  5
435
330
2C4
100
AcDbEntity
  8
0
  6
CONTINUOUS
 62
     7
100
AcDbVertex
100
AcDb2dVertex
 10
8.0163973424
 20
6.4565150308
 30
0.0
  0
VERTEX
  5
436
330
2C4
100
AcDbEntity
  8
0
  6
CONTINUOUS
 62
     7
100
AcDbVertex
100
AcDb2dVertex
 10
8.0157869076
 20
6.4292432993
 30
0.0
  0
VERTEX
  5
437
330
2C4
100
AcDbEntity
  8
0
  6
CONTINUOUS
 62
     7
100
AcDbVertex
100
AcDb2dVertex
 10
8.0163973424
 20
6.4026763609
 30
0.0
  0
VERTEX
  5
438
330
2C4
100
AcDbEntity
  8
0
  6
CONTINUOUS
 62
     7
100
AcDbVertex
100
AcDb2dVertex
 10
8.0182269737
 20
6.3768870337
 30
0.0
  0
VERTEX
  5
439
330
2C4
100
AcDbEntity
  8
0
  6
CONTINUOUS
 62
     7
100
AcDbVertex
100
AcDb2dVertex
 10
8.0212707866
 20
6.3519460043
 30
0.0
  0
VERTEX
  5
43A
330
2C4
100
AcDbEntity
  8
0
  6
CONTINUOUS
 62
     7
100
AcDbVertex
100
AcDb2dVertex
 10
8.0255204382
 20
6.3279216346
 30
0.0
  0
VERTEX
  5
43B
330
2C4
100
AcDbEntity
  8
0
  6
CONTINUOUS
 62
     7
100
AcDbVertex
100
AcDb2dVertex
 10
8.0309642804
 20
6.3048797735
 30
0.0
  0
VERTEX
  5
43C
330
2C4
100
AcDbEntity
  8
0
  6
CONTINUOUS
 62
     7
100
AcDbVertex
100
AcDb2dVertex
 10
8.0375873922
 20
6.2828835772
 30
0.0
  0
VERTEX
  5
43D
330
2C4
100
AcDbEntity
  8
0
  6
CONTINUOUS
 62
     7
100
AcDbVertex
100
AcDb2dVertex
 10
8.04537162
 20
6.2619933357
 30
0.0
  0
VERTEX
  5
43E
330
2C4
100
AcDbEntity
  8
0
  6
CONTINUOUS
 62
     7
100
AcDbVertex
100
AcDb2dVertex
 10
8.0542956277
 20
6.2422663079
 30
0.0
  0
VERTEX
  5
43F
330
2C4
100
AcDbEntity
  8
0
  6
CONTINUOUS
 62
     7
100
AcDbVertex
100
AcDb2dVertex
 10
8.0643349554
 20
6.223756564
 30
0.0
  0
VERTEX
  5
440
330
2C4
100
AcDbEntity
  8
0
  6
CONTINUOUS
 62
     7
100
AcDbVertex
100
AcDb2dVertex
 10
8.0754620859
 20
6.206514838
 30
0.0
  0
VERTEX
  5
441
330
2C4
100
AcDbEntity
  8
0
  6
CONTINUOUS
 62
     7
100
AcDbVertex
100
AcDb2dVertex
 10
8.0876465205
 20
6.1905883882
 30
0.0
  0
VERTEX
  5
442
330
2C4
100
AcDbEntity
  8
0
  6
CONTINUOUS
 62
     7
100
AcDbVertex
100
AcDb2dVertex
 10
8.1008548625
 20
6.1760208681
 30
0.0
  0
VERTEX
  5
443
330
2C4
100
AcDbEntity
  8
0
  6
CONTINUOUS
 62
     7
100
AcDbVertex
100
AcDb2dVertex
 10
8.1150509088
 20
6.162852206
 30
0.0
  0
VERTEX
  5
444
330
2C4
100
AcDbEntity
  8
0
  6
CONTINUOUS
 62
     7
100
AcDbVertex
100
AcDb2dVertex
 10
8.130195749
 20
6.1511184965
 30
0.0
  0
VERTEX
  5
445
330
2C4
100
AcDbEntity
  8
0
  6
CONTINUOUS
 62
     7
100
AcDbVertex
100
AcDb2dVertex
 10
8.1462478722
 20
6.1408519007
 30
0.0
  0
VERTEX
  5
446
330
2C4
100
AcDbEntity
  8
0
  6
CONTINUOUS
 62
     7
100
AcDbVertex
100
AcDb2dVertex
 10
8.1462734682
 20
6.140837122
 30
0.0
  0
SEQEND
  5
447
330
2C4
100
AcDbEntity
  8
0
  6
CONTINUOUS
 62
     7
  0
LINE
  5
2C5
330
1F
100
AcDbEntity
  8
0
  6
CONTINUOUS
 62
     7
100
AcDbLine
 10
8.1503413476
 20
7.0541488114
 30
0.0
 11
8.2384977049
 21
7.0032572296
 31
0.0
  0
POLYLINE
  5
2C6
330
1F
100
AcDbEntity
  8
0
  6
CONTINUOUS
 62
     7
100
AcDb2dPolyline
 66
     1
 10
0.0
 20
0.0
 30
0.0
  0
VERTEX
  5
448
330
2C6
100
AcDbEntity
  8
0
  6
CONTINUOUS
 62
     7
100
AcDbVertex
100
AcDb2dVertex
 10
8.5957629421
 20
7.3112852245
 30
0.0
  0
VERTEX
  5
449
330
2C6
100
AcDbEntity
  8
0
  6
CONTINUOUS
 62
     7
100
AcDbVertex
100
AcDb2dVertex
 10
8.5752693171
 20
7.3123037062
 30
0.0
  0
VERTEX
  5
44A
330
2C6
100
AcDbEntity
  8
0
  6
CONTINUOUS
 62
     7
100
AcDbVertex
100
AcDb2dVertex
 10
8.5542214289
 20
7.3117460641
 30
0.0
  0
VERTEX
  5
44B
330
2C6
100
AcDbEntity
  8
0
  6
CONTINUOUS
 62
     7
100
AcDbVertex
100
AcDb2dVertex
 10
8.5326769683
 20
7.3096138265
 30
0.0
  0
VERTEX
  5
44C
330
2C6
100
AcDbEntity
  8
0
  6
CONTINUOUS
 62
     7
100
AcDbVertex
100
AcDb2dVertex
 10
8.5106949872
 20
7.3059128378
 30
0.0
  0
VERTEX
  5
44D
330
2C6
100
AcDbEntity
  8
0
  6
CONTINUOUS
 62
     7
100
AcDbVertex
100
AcDb2dVertex
 10
8.4883357366
 20
7.3006532422
 30
0.0
  0
VERTEX
  5
44E
330
2C6
100
AcDbEntity
  8
0
  6
CONTINUOUS
 62
     7
100
AcDbVertex
100
AcDb2dVertex
 10
8.4656605017
 20
7.2938494559
 30
0.0
  0
VERTEX
  5
44F
330
2C6
100
AcDbEntity
  8
0
  6
CONTINUOUS
 62
     7
100
AcDbVertex
100
AcDb2dVertex
 10
8.4427314337
 20
7.2855201274
 30
0.0
  0
VERTEX
  5
450
330
2C6
100
AcDbEntity
  8
0
  6
CONTINUOUS
 62
     7
100
AcDbVertex
100
AcDb2dVertex
 10
8.4196113796
 20
7.2756880871
 30
0.0
  0
VERTEX
  5
451
330
2C6
100
AcDbEntity
  8
0
  6
CONTINUOUS
 62
     7
100
AcDbVertex
100
AcDb2dVertex
 10
8.3963637099
 20
7.2643802837
 30
0.0
  0
VERTEX
  5
452
330
2C6
100
AcDbEntity
  8
0
  6
CONTINUOUS
 62
     7
100
AcDbVertex
100
AcDb2dVertex
 10
8.3730521448
 20
7.2516277112
 30
0.0
  0
VERTEX
  5
453
330
2C6
100
AcDbEntity
  8
0
  6
CONTINUOUS
 62
     7
100
AcDbVertex
100
AcDb2dVertex
 10
8.3497405798
 20
7.2374653235
 30
0.0
  0
VERTEX
  5
454
330
2C6
100
AcDbEntity
  8
0
  6
CONTINUOUS
 62
     7
100
AcDbVertex
100
AcDb2dVertex
 10
8.3264929101
 20
7.2219319388
 30
0.0
  0
VERTEX
  5
455
330
2C6
100
AcDbEntity
  8
0
  6
CONTINUOUS
 62
     7
100
AcDbVertex
100
AcDb2dVertex
 10
8.303372856
 20
7.205070133
 30
0.0
  0
VERTEX
  5
456
330
2C6
100
AcDbEntity
  8
0
  6
CONTINUOUS
 62
     7
100
AcDbVertex
100
AcDb2dVertex
 10
8.280443788
 20
7.186926123
 30
0.0
  0
VERTEX
  5
457
330
2C6
100
AcDbEntity
  8
0
  6
CONTINUOUS
 62
     7
100
AcDbVertex
100
AcDb2dVertex
 10
8.2577685531
 20
7.1675496404
 30
0.0
  0
VERTEX
  5
458
330
2C6
100
AcDbEntity
  8
0
  6
CONTINUOUS
 62
     7
100
AcDbVertex
100
AcDb2dVertex
 10
8.2354093025
 20
7.1469937948
 30
0.0
  0
VERTEX
  5
459
330
2C6
100
AcDbEntity
  8
0
  6
CONTINUOUS
 62
     7
100
AcDbVertex
100
AcDb2dVertex
 10
8.2134273214
 20
7.1253149282
 30
0.0
  0
VERTEX
  5
45A
330
2C6
100
AcDbEntity
  8
0
  6
CONTINUOUS
 62
     7
100
AcDbVertex
100
AcDb2dVertex
 10
8.1918828608
 20
7.1025724611
 30
0.0
  0
VERTEX
  5
45B
330
2C6
100
AcDbEntity
  8
0
  6
CONTINUOUS
 62
     7
100
AcDbVertex
100
AcDb2dVertex
 10
8.1708349726
 20
7.0788287288
 30
0.0
  0
VERTEX
  5
45C
330
2C6
100
AcDbEntity
  8
0
  6
CONTINUOUS
 62
     7
100
AcDbVertex
100
AcDb2dVertex
 10
8.1503413476
 20
7.0541488114
 30
0.0
  0
SEQEND
  5
45D
330
2C6
100
AcDbEntity
  8
0
  6
CONTINUOUS
 62
     7
  0
LINE
  5
2C7
330
1F
100
AcDbEntity
  8
0
  6
CONTINUOUS
 62
     7
100
AcDbLine
 10
8.6699998745
 20
7.2684291557
 30
0.0
 11
8.5957629421
 21
7.3112852245
 31
0.0
  0
ARC
  5
2C8
330
1F
100
AcDbEntity
  8
0
  6
CONTINUOUS
 62
     7
100
AcDbCircle
 10
8.6517800493
 20
7.0458097414
 30
0.0
 40
0.2233637518063435
100
AcDbArc
 50
60.3659633653
 51
85.3211735843
  0
LINE
  5
2C9
330
1F
100
AcDbEntity
  8
0
  6
CONTINUOUS
 62
     7
100
AcDbLine
 10
8.340627863
 20
6.2498162077
 30
0.0
 11
8.0738388871
 21
6.4038302052
 31
0.0
  0
POLYLINE
  5
2CA
330
1F
100
AcDbEntity
  8
0
  6
CONTINUOUS
 62
     7
100
AcDb2dPolyline
 66
     1
 10
0.0
 20
0.0
 30
0.0
  0
VERTEX
  5
45E
330
2CA
100
AcDbEntity
  8
0
  6
CONTINUOUS
 62
     7
100
AcDbVertex
100
AcDb2dVertex
 10
8.6305615041
 20
7.2152059712
 30
0.0
  0
VERTEX
  5
45F
330
2CA
100
AcDbEntity
  8
0
  6
CONTINUOUS
 62
     7
100
AcDbVertex
100
AcDb2dVertex
 10
8.6074829994
 20
7.2080133059
 30
0.0
  0
VERTEX
  5
460
330
2CA
100
AcDbEntity
  8
0
  6
CONTINUOUS
 62
     7
100
AcDbVertex
100
AcDb2dVertex
 10
8.5841549708
 20
7.1992515502
 30
0.0
  0
VERTEX
  5
461
330
2CA
100
AcDbEntity
  8
0
  6
CONTINUOUS
 62
     7
100
AcDbVertex
100
AcDb2dVertex
 10
8.5606433574
 20
7.1889454701
 30
0.0
  0
VERTEX
  5
462
330
2CA
100
AcDbEntity
  8
0
  6
CONTINUOUS
 62
     7
100
AcDbVertex
100
AcDb2dVertex
 10
8.5370146173
 20
7.1771241968
 30
0.0
  0
VERTEX
  5
463
330
2CA
100
AcDbEntity
  8
0
  6
CONTINUOUS
 62
     7
100
AcDbVertex
100
AcDb2dVertex
 10
8.5133355396
 20
7.1638211444
 30
0.0
  0
VERTEX
  5
464
330
2CA
100
AcDbEntity
  8
0
  6
CONTINUOUS
 62
     7
100
AcDbVertex
100
AcDb2dVertex
 10
8.4896730556
 20
7.1490739154
 30
0.0
  0
VERTEX
  5
465
330
2CA
100
AcDbEntity
  8
0
  6
CONTINUOUS
 62
     7
100
AcDbVertex
100
AcDb2dVertex
 10
8.4660940499
 20
7.1329241944
 30
0.0
  0
VERTEX
  5
466
330
2CA
100
AcDbEntity
  8
0
  6
CONTINUOUS
 62
     7
100
AcDbVertex
100
AcDb2dVertex
 10
8.4426651709
 20
7.1154176302
 30
0.0
  0
VERTEX
  5
467
330
2CA
100
AcDbEntity
  8
0
  6
CONTINUOUS
 62
     7
100
AcDbVertex
100
AcDb2dVertex
 10
8.419452643
 20
7.096603707
 30
0.0
  0
VERTEX
  5
468
330
2CA
100
AcDbEntity
  8
0
  6
CONTINUOUS
 62
     7
100
AcDbVertex
100
AcDb2dVertex
 10
8.3965220786
 20
7.0765356043
 30
0.0
  0
VERTEX
  5
469
330
2CA
100
AcDbEntity
  8
0
  6
CONTINUOUS
 62
     7
100
AcDbVertex
100
AcDb2dVertex
 10
8.3739382935
 20
7.0552700467
 30
0.0
  0
VERTEX
  5
46A
330
2CA
100
AcDbEntity
  8
0
  6
CONTINUOUS
 62
     7
100
AcDbVertex
100
AcDb2dVertex
 10
8.3517651231
 20
7.0328671435
 30
0.0
  0
VERTEX
  5
46B
330
2CA
100
AcDbEntity
  8
0
  6
CONTINUOUS
 62
     7
100
AcDbVertex
100
AcDb2dVertex
 10
8.3300652422
 20
7.0093902189
 30
0.0
  0
VERTEX
  5
46C
330
2CA
100
AcDbEntity
  8
0
  6
CONTINUOUS
 62
     7
100
AcDbVertex
100
AcDb2dVertex
 10
8.3088999877
 20
6.9849056328
 30
0.0
  0
VERTEX
  5
46D
330
2CA
100
AcDbEntity
  8
0
  6
CONTINUOUS
 62
     7
100
AcDbVertex
100
AcDb2dVertex
 10
8.2883291855
 20
6.9594825936
 30
0.0
  0
VERTEX
  5
46E
330
2CA
100
AcDbEntity
  8
0
  6
CONTINUOUS
 62
     7
100
AcDbVertex
100
AcDb2dVertex
 10
8.2684109811
 20
6.933192962
 30
0.0
  0
VERTEX
  5
46F
330
2CA
100
AcDbEntity
  8
0
  6
CONTINUOUS
 62
     7
100
AcDbVertex
100
AcDb2dVertex
 10
8.2492016754
 20
6.9061110485
 30
0.0
  0
VERTEX
  5
470
330
2CA
100
AcDbEntity
  8
0
  6
CONTINUOUS
 62
     7
100
AcDbVertex
100
AcDb2dVertex
 10
8.2307555655
 20
6.878313403
 30
0.0
  0
VERTEX
  5
471
330
2CA
100
AcDbEntity
  8
0
  6
CONTINUOUS
 62
     7
100
AcDbVertex
100
AcDb2dVertex
 10
8.2131247912
 20
6.8498785984
 30
0.0
  0
VERTEX
  5
472
330
2CA
100
AcDbEntity
  8
0
  6
CONTINUOUS
 62
     7
100
AcDbVertex
100
AcDb2dVertex
 10
8.1963591879
 20
6.8208870086
 30
0.0
  0
VERTEX
  5
473
330
2CA
100
AcDbEntity
  8
0
  6
CONTINUOUS
 62
     7
100
AcDbVertex
100
AcDb2dVertex
 10
8.1805061451
 20
6.7914205815
 30
0.0
  0
VERTEX
  5
474
330
2CA
100
AcDbEntity
  8
0
  6
CONTINUOUS
 62
     7
100
AcDbVertex
100
AcDb2dVertex
 10
8.1656104733
 20
6.7615626069
 30
0.0
  0
VERTEX
  5
475
330
2CA
100
AcDbEntity
  8
0
  6
CONTINUOUS
 62
     7
100
AcDbVertex
100
AcDb2dVertex
 10
8.1517142766
 20
6.7313974816
 30
0.0
  0
VERTEX
  5
476
330
2CA
100
AcDbEntity
  8
0
  6
CONTINUOUS
 62
     7
100
AcDbVertex
100
AcDb2dVertex
 10
8.138856834
 20
6.7010104705
 30
0.0
  0
VERTEX
  5
477
330
2CA
100
AcDbEntity
  8
0
  6
CONTINUOUS
 62
     7
100
AcDbVertex
100
AcDb2dVertex
 10
8.1270744885
 20
6.6704874656
 30
0.0
  0
VERTEX
  5
478
330
2CA
100
AcDbEntity
  8
0
  6
CONTINUOUS
 62
     7
100
AcDbVertex
100
AcDb2dVertex
 10
8.116400544
 20
6.6399147433
 30
0.0
  0
VERTEX
  5
479
330
2CA
100
AcDbEntity
  8
0
  6
CONTINUOUS
 62
     7
100
AcDbVertex
100
AcDb2dVertex
 10
8.1068651717
 20
6.6093787208
 30
0.0
  0
VERTEX
  5
47A
330
2CA
100
AcDbEntity
  8
0
  6
CONTINUOUS
 62
     7
100
AcDbVertex
100
AcDb2dVertex
 10
8.0984953242
 20
6.5789657112
 30
0.0
  0
VERTEX
  5
47B
330
2CA
100
AcDbEntity
  8
0
  6
CONTINUOUS
 62
     7
100
AcDbVertex
100
AcDb2dVertex
 10
8.0913146598
 20
6.5487616801
 30
0.0
  0
VERTEX
  5
47C
330
2CA
100
AcDbEntity
  8
0
  6
CONTINUOUS
 62
     7
100
AcDbVertex
100
AcDb2dVertex
 10
8.0853434754
 20
6.5188520024
 30
0.0
  0
VERTEX
  5
47D
330
2CA
100
AcDbEntity
  8
0
  6
CONTINUOUS
 62
     7
100
AcDbVertex
100
AcDb2dVertex
 10
8.0805986491
 20
6.4893212209
 30
0.0
  0
VERTEX
  5
47E
330
2CA
100
AcDbEntity
  8
0
  6
CONTINUOUS
 62
     7
100
AcDbVertex
100
AcDb2dVertex
 10
8.0770935928
 20
6.4602528074
 30
0.0
  0
VERTEX
  5
47F
330
2CA
100
AcDbEntity
  8
0
  6
CONTINUOUS
 62
     7
100
AcDbVertex
100
AcDb2dVertex
 10
8.0748382138
 20
6.431728927
 30
0.0
  0
VERTEX
  5
480
330
2CA
100
AcDbEntity
  8
0
  6
CONTINUOUS
 62
     7
100
AcDbVertex
100
AcDb2dVertex
 10
8.0738388871
 20
6.4038302052
 30
0.0
  0
SEQEND
  5
481
330
2CA
100
AcDbEntity
  8
0
  6
CONTINUOUS
 62
     7
  0
LINE
  5
2CB
330
1F
100
AcDbEntity
  8
0
  6
CONTINUOUS
 62
     7
100
AcDbLine
 10
8.6166420793
 20
7.2232414841
 30
0.0
 11
8.6305615041
 21
7.2152059712
 31
0.0
  0
POLYLINE
  5
2CC
330
1F
100
AcDbEntity
  8
0
  6
CONTINUOUS
 62
     7
100
AcDb2dPolyline
 66
     1
 10
0.0
 20
0.0
 30
0.0
  0
VERTEX
  5
482
330
2CC
100
AcDbEntity
  8
0
  6
CONTINUOUS
 62
     7
100
AcDbVertex
100
AcDb2dVertex
 10
8.6166420793
 20
7.2232414841
 30
0.0
  0
VERTEX
  5
483
330
2CC
100
AcDbEntity
  8
0
  6
CONTINUOUS
 62
     7
100
AcDbVertex
100
AcDb2dVertex
 10
8.5937022705
 20
7.2160964755
 30
0.0
  0
VERTEX
  5
484
330
2CC
100
AcDbEntity
  8
0
  6
CONTINUOUS
 62
     7
100
AcDbVertex
100
AcDb2dVertex
 10
8.5705155226
 20
7.2074009331
 30
0.0
  0
VERTEX
  5
485
330
2CC
100
AcDbEntity
  8
0
  6
CONTINUOUS
 62
     7
100
AcDbVertex
100
AcDb2dVertex
 10
8.5471465946
 20
7.197179143
 30
0.0
  0
VERTEX
  5
486
330
2CC
100
AcDbEntity
  8
0
  6
CONTINUOUS
 62
     7
100
AcDbVertex
100
AcDb2dVertex
 10
8.5236607546
 20
7.1854596539
 30
0.0
  0
VERTEX
  5
487
330
2CC
100
AcDbEntity
  8
0
  6
CONTINUOUS
 62
     7
100
AcDbVertex
100
AcDb2dVertex
 10
8.5001235969
 20
7.1722751976
 30
0.0
  0
VERTEX
  5
488
330
2CC
100
AcDbEntity
  8
0
  6
CONTINUOUS
 62
     7
100
AcDbVertex
100
AcDb2dVertex
 10
8.4766008594
 20
7.1576625976
 30
0.0
  0
VERTEX
  5
489
330
2CC
100
AcDbEntity
  8
0
  6
CONTINUOUS
 62
     7
100
AcDbVertex
100
AcDb2dVertex
 10
8.4531582396
 20
7.1416626659
 30
0.0
  0
VERTEX
  5
48A
330
2CC
100
AcDbEntity
  8
0
  6
CONTINUOUS
 62
     7
100
AcDbVertex
100
AcDb2dVertex
 10
8.4298612112
 20
7.1243200892
 30
0.0
  0
VERTEX
  5
48B
330
2CC
100
AcDbEntity
  8
0
  6
CONTINUOUS
 62
     7
100
AcDbVertex
100
AcDb2dVertex
 10
8.4067748414
 20
7.1056833043
 30
0.0
  0
VERTEX
  5
48C
330
2CC
100
AcDbEntity
  8
0
  6
CONTINUOUS
 62
     7
100
AcDbVertex
100
AcDb2dVertex
 10
8.3839636089
 20
7.0858043626
 30
0.0
  0
VERTEX
  5
48D
330
2CC
100
AcDbEntity
  8
0
  6
CONTINUOUS
 62
     7
100
AcDbVertex
100
AcDb2dVertex
 10
8.361491224
 20
7.0647387846
 30
0.0
  0
VERTEX
  5
48E
330
2CC
100
AcDbEntity
  8
0
  6
CONTINUOUS
 62
     7
100
AcDbVertex
100
AcDb2dVertex
 10
8.3394204508
 20
7.0425454053
 30
0.0
  0
VERTEX
  5
48F
330
2CC
100
AcDbEntity
  8
0
  6
CONTINUOUS
 62
     7
100
AcDbVertex
100
AcDb2dVertex
 10
8.3178129314
 20
7.0192862092
 30
0.0
  0
VERTEX
  5
490
330
2CC
100
AcDbEntity
  8
0
  6
CONTINUOUS
 62
     7
100
AcDbVertex
100
AcDb2dVertex
 10
8.2967290144
 20
6.9950261579
 30
0.0
  0
VERTEX
  5
491
330
2CC
100
AcDbEntity
  8
0
  6
CONTINUOUS
 62
     7
100
AcDbVertex
100
AcDb2dVertex
 10
8.2762275856
 20
6.9698330082
 30
0.0
  0
VERTEX
  5
492
330
2CC
100
AcDbEntity
  8
0
  6
CONTINUOUS
 62
     7
100
AcDbVertex
100
AcDb2dVertex
 10
8.2563659044
 20
6.9437771229
 30
0.0
  0
VERTEX
  5
493
330
2CC
100
AcDbEntity
  8
0
  6
CONTINUOUS
 62
     7
100
AcDbVertex
100
AcDb2dVertex
 10
8.2371994432
 20
6.9169312744
 30
0.0
  0
VERTEX
  5
494
330
2CC
100
AcDbEntity
  8
0
  6
CONTINUOUS
 62
     7
100
AcDbVertex
100
AcDb2dVertex
 10
8.2187817327
 20
6.8893704416
 30
0.0
  0
VERTEX
  5
495
330
2CC
100
AcDbEntity
  8
0
  6
CONTINUOUS
 62
     7
100
AcDbVertex
100
AcDb2dVertex
 10
8.2011642123
 20
6.8611716
 30
0.0
  0
VERTEX
  5
496
330
2CC
100
AcDbEntity
  8
0
  6
CONTINUOUS
 62
     7
100
AcDbVertex
100
AcDb2dVertex
 10
8.1843960867
 20
6.8324135073
 30
0.0
  0
VERTEX
  5
497
330
2CC
100
AcDbEntity
  8
0
  6
CONTINUOUS
 62
     7
100
AcDbVertex
100
AcDb2dVertex
 10
8.1685241882
 20
6.8031764829
 30
0.0
  0
VERTEX
  5
498
330
2CC
100
AcDbEntity
  8
0
  6
CONTINUOUS
 62
     7
100
AcDbVertex
100
AcDb2dVertex
 10
8.153592846
 20
6.7735421841
 30
0.0
  0
VERTEX
  5
499
330
2CC
100
AcDbEntity
  8
0
  6
CONTINUOUS
 62
     7
100
AcDbVertex
100
AcDb2dVertex
 10
8.1396437624
 20
6.7435933776
 30
0.0
  0
VERTEX
  5
49A
330
2CC
100
AcDbEntity
  8
0
  6
CONTINUOUS
 62
     7
100
AcDbVertex
100
AcDb2dVertex
 10
8.1267158963
 20
6.7134137084
 30
0.0
  0
VERTEX
  5
49B
330
2CC
100
AcDbEntity
  8
0
  6
CONTINUOUS
 62
     7
100
AcDbVertex
100
AcDb2dVertex
 10
8.1148453545
 20
6.6830874665
 30
0.0
  0
VERTEX
  5
49C
330
2CC
100
AcDbEntity
  8
0
  6
CONTINUOUS
 62
     7
100
AcDbVertex
100
AcDb2dVertex
 10
8.1040652905
 20
6.6526993511
 30
0.0
  0
VERTEX
  5
49D
330
2CC
100
AcDbEntity
  8
0
  6
CONTINUOUS
 62
     7
100
AcDbVertex
100
AcDb2dVertex
 10
8.0944058125
 20
6.6223342344
 30
0.0
  0
VERTEX
  5
49E
330
2CC
100
AcDbEntity
  8
0
  6
CONTINUOUS
 62
     7
100
AcDbVertex
100
AcDb2dVertex
 10
8.0858938986
 20
6.5920769242
 30
0.0
  0
VERTEX
  5
49F
330
2CC
100
AcDbEntity
  8
0
  6
CONTINUOUS
 62
     7
100
AcDbVertex
100
AcDb2dVertex
 10
8.0785533223
 20
6.5620119272
 30
0.0
  0
VERTEX
  5
4A0
330
2CC
100
AcDbEntity
  8
0
  6
CONTINUOUS
 62
     7
100
AcDbVertex
100
AcDb2dVertex
 10
8.0724045852
 20
6.5322232131
 30
0.0
  0
VERTEX
  5
4A1
330
2CC
100
AcDbEntity
  8
0
  6
CONTINUOUS
 62
     7
100
AcDbVertex
100
AcDb2dVertex
 10
8.0674648603
 20
6.5027939798
 30
0.0
  0
VERTEX
  5
4A2
330
2CC
100
AcDbEntity
  8
0
  6
CONTINUOUS
 62
     7
100
AcDbVertex
100
AcDb2dVertex
 10
8.0637479441
 20
6.4738064213
 30
0.0
  0
VERTEX
  5
4A3
330
2CC
100
AcDbEntity
  8
0
  6
CONTINUOUS
 62
     7
100
AcDbVertex
100
AcDb2dVertex
 10
8.0612642176
 20
6.4453414981
 30
0.0
  0
VERTEX
  5
4A4
330
2CC
100
AcDbEntity
  8
0
  6
CONTINUOUS
 62
     7
100
AcDbVertex
100
AcDb2dVertex
 10
8.0600206177
 20
6.4174787109
 30
0.0
  0
VERTEX
  5
4A5
330
2CC
100
AcDbEntity
  8
0
  6
CONTINUOUS
 62
     7
100
AcDbVertex
100
AcDb2dVertex
 10
8.0600206177
 20
6.3902958787
 30
0.0
  0
VERTEX
  5
4A6
330
2CC
100
AcDbEntity
  8
0
  6
CONTINUOUS
 62
     7
100
AcDbVertex
100
AcDb2dVertex
 10
8.0612642176
 20
6.3638689214
 30
0.0
  0
VERTEX
  5
4A7
330
2CC
100
AcDbEntity
  8
0
  6
CONTINUOUS
 62
     7
100
AcDbVertex
100
AcDb2dVertex
 10
8.0637479441
 20
6.3382716478
 30
0.0
  0
VERTEX
  5
4A8
330
2CC
100
AcDbEntity
  8
0
  6
CONTINUOUS
 62
     7
100
AcDbVertex
100
AcDb2dVertex
 10
8.0674648603
 20
6.3135755495
 30
0.0
  0
VERTEX
  5
4A9
330
2CC
100
AcDbEntity
  8
0
  6
CONTINUOUS
 62
     7
100
AcDbVertex
100
AcDb2dVertex
 10
8.0724045852
 20
6.2898496011
 30
0.0
  0
VERTEX
  5
4AA
330
2CC
100
AcDbEntity
  8
0
  6
CONTINUOUS
 62
     7
100
AcDbVertex
100
AcDb2dVertex
 10
8.0785533223
 20
6.2671600677
 30
0.0
  0
VERTEX
  5
4AB
330
2CC
100
AcDbEntity
  8
0
  6
CONTINUOUS
 62
     7
100
AcDbVertex
100
AcDb2dVertex
 10
8.0858938986
 20
6.2455703198
 30
0.0
  0
VERTEX
  5
4AC
330
2CC
100
AcDbEntity
  8
0
  6
CONTINUOUS
 62
     7
100
AcDbVertex
100
AcDb2dVertex
 10
8.0944058125
 20
6.2251406561
 30
0.0
  0
VERTEX
  5
4AD
330
2CC
100
AcDbEntity
  8
0
  6
CONTINUOUS
 62
     7
100
AcDbVertex
100
AcDb2dVertex
 10
8.1040652905
 20
6.2059281353
 30
0.0
  0
VERTEX
  5
4AE
330
2CC
100
AcDbEntity
  8
0
  6
CONTINUOUS
 62
     7
100
AcDbVertex
100
AcDb2dVertex
 10
8.1148453545
 20
6.1879864169
 30
0.0
  0
VERTEX
  5
4AF
330
2CC
100
AcDbEntity
  8
0
  6
CONTINUOUS
 62
     7
100
AcDbVertex
100
AcDb2dVertex
 10
8.1267158963
 20
6.1713656109
 30
0.0
  0
VERTEX
  5
4B0
330
2CC
100
AcDbEntity
  8
0
  6
CONTINUOUS
 62
     7
100
AcDbVertex
100
AcDb2dVertex
 10
8.1396437624
 20
6.1561121382
 30
0.0
  0
VERTEX
  5
4B1
330
2CC
100
AcDbEntity
  8
0
  6
CONTINUOUS
 62
     7
100
AcDbVertex
100
AcDb2dVertex
 10
8.153592846
 20
6.1422686008
 30
0.0
  0
VERTEX
  5
4B2
330
2CC
100
AcDbEntity
  8
0
  6
CONTINUOUS
 62
     7
100
AcDbVertex
100
AcDb2dVertex
 10
8.1685241882
 20
6.1298736627
 30
0.0
  0
VERTEX
  5
4B3
330
2CC
100
AcDbEntity
  8
0
  6
CONTINUOUS
 62
     7
100
AcDbVertex
100
AcDb2dVertex
 10
8.1843960867
 20
6.1189619423
 30
0.0
  0
VERTEX
  5
4B4
330
2CC
100
AcDbEntity
  8
0
  6
CONTINUOUS
 62
     7
100
AcDbVertex
100
AcDb2dVertex
 10
8.1973882445
 20
6.1115067584
 30
0.0
  0
SEQEND
  5
4B5
330
2CC
100
AcDbEntity
  8
0
  6
CONTINUOUS
 62
     7
  0
ARC
  5
2CD
330
1F
100
AcDbEntity
  8
0
  6
CONTINUOUS
 62
     7
100
AcDbCircle
 10
8.3803446441
 20
6.3597953296
 30
0.0
 40
0.3077785077390124
100
AcDbArc
 50
174.7875733887
 51
235.104682649
  0
LINE
  5
2CE
330
1F
100
AcDbEntity
  8
0
  6
CONTINUOUS
 62
     7
100
AcDbLine
 10
8.340627863
 20
6.2337425697
 30
0.0
 11
8.0738388871
 21
6.3877565672
 31
0.0
  0
SPLINE
  5
2CF
330
1F
100
AcDbEntity
  8
0
  6
CONTINUOUS
 62
     7
100
AcDbSpline
210
0.0
220
0.0
230
1.0
 70
     8
 71
     3
 72
    14
 73
    10
 74
     0
 42
0.00000001
 43
0.00000001
 40
0.0
 40
0.0
 40
0.0
 40
0.0
 40
0.1360333513251928
 40
0.2771909192344499
 40
0.4130346242527591
 40
0.5521071691989997
 40
0.7575496545300179
 40
0.9687435087419357
 40
1.0
 40
1.0
 40
1.0
 40
1.0
 10
8.340573486918414
 20
6.030101413524174
 30
0.0
 10
8.34305037325359
 20
6.028657501410528
 30
0.0
 10
8.348097447323283
 20
6.025715286709678
 30
0.0
 10
8.356509764900498
 20
6.02064507711771
 30
0.0
 10
8.36522739190842
 20
6.015327696642203
 30
0.0
 10
8.375423586124365
 20
6.009073598244083
 30
0.0
 10
8.387047269623809
 20
6.002027308997162
 30
0.0
 10
8.396318722197632
 20
5.996431090194548
 30
0.0
 10
8.400974937044346
 20
5.993821731795898
 30
0.0
 10
8.40157521228161
 20
5.993485335541982
 30
0.0
  0
SPLINE
  5
2D0
330
1F
100
AcDbEntity
  8
0
  6
CONTINUOUS
 62
     7
100
AcDbSpline
210
0.0
220
0.0
230
1.0
 70
     8
 71
     3
 72
    14
 73
    10
 74
     0
 42
0.00000001
 43
0.00000001
 40
0.0
 40
0.0
 40
0.0
 40
0.0
 40
0.1249724323366223
 40
0.3482907400034923
 40
0.5032405684359764
 40
0.6618354667649994
 40
0.7865629673421126
 40
0.9146469298218285
 40
1.0
 40
1.0
 40
1.0
 40
1.0
 10
8.317949109419562
 20
6.041772990565593
 30
0.0
 10
8.317747483341838
 20
6.041884708407697
 30
0.0
 10
8.317185563448774
 20
6.04219605939263
 30
0.0
 10
8.318584393430836
 20
6.041687785150887
 30
0.0
 10
8.321624512121414
 20
6.040312078326353
 30
0.0
 10
8.325553316431698
 20
6.038373529843352
 30
0.0
 10
8.330505310100712
 20
6.035762688259912
 30
0.0
 10
8.335465157031026
 20
6.033030911599658
 30
0.0
 10
8.339114229616271
 20
6.030938260703674
 30
0.0
 10
8.340573486918414
 20
6.030101413524162
 30
0.0
  0
SPLINE
  5
2D1
330
1F
100
AcDbEntity
  8
0
  6
CONTINUOUS
 62
     7
100
AcDbSpline
210
0.0
220
0.0
230
1.0
 70
     8
 71
     3
 72
    19
 73
    15
 74
     0
 42
0.00000001
 43
0.00000001
 40
0.0
 40
0.0
 40
0.0
 40
0.0
 40
0.0779343291453812
 40
0.1558738669105595
 40
0.2337278496182203
 40
0.3115988510232015
 40
0.3910247119750285
 40
0.4704816916127604
 40
0.5556896287694387
 40
0.6409445166198225
 40
0.7372940927534802
 40
0.8337045762138187
 40
0.9483050424167714
 40
1.0
 40
1.0
 40
1.0
 40
1.0
 10
8.493687160009989
 20
6.928706179399801
 30
0.0
 10
8.488377531135146
 20
6.931380335824119
 30
0.0
 10
8.477757918524667
 20
6.936728827395847
 30
0.0
 10
8.459334048237512
 20
6.941268661305286
 30
0.0
 10
8.439738174616812
 20
6.942955489845192
 30
0.0
 10
8.419276923730685
 20
6.941604053077085
 30
0.0
 10
8.398580186555645
 20
6.937116835275715
 30
0.0
 10
8.377730908454406
 20
6.92950812370092
 30
0.0
 10
8.357468220706762
 20
6.918701396007049
 30
0.0
 10
8.337481792983496
 20
6.904359400132049
 30
0.0
 10
8.318833501703729
 20
6.886702864330753
 30
0.0
 10
8.301174437614746
 20
6.86465009986379
 30
0.0
 10
8.288189722551204
 20
6.844207827071734
 30
0.0
 10
8.282363385004436
 20
6.830209189954735
 30
0.0
 10
8.280552197026509
 20
6.825857543135417
 30
0.0
  0
SPLINE
  5
2D2
330
1F
100
AcDbEntity
  8
0
  6
CONTINUOUS
 62
     7
100
AcDbSpline
210
0.0
220
0.0
230
1.0
 70
     8
 71
     3
 72
    33
 73
    29
 74
     0
 42
0.00000001
 43
0.00000001
 40
0.0
 40
0.0
 40
0.0
 40
0.0
 40
0.0285979257095689
 40
0.0758385229155304
 40
0.1047295275640539
 40
0.1335758769444964
 40
0.1558982442315355
 40
0.1781925228671528
 40
0.2006599062248174
 40
0.2231307542226655
 40
0.2431088020436683
 40
0.2631051925658002
 40
0.2962374035126038
 40
0.329439393723204
 40
0.384049340100606
 40
0.4387478220765749
 40
0.4965876656486214
 40
0.5544175246150662
 40
0.6111023824707762
 40
0.6677295713290199
 40
0.7130936835291797
 40
0.7584167612702628
 40
0.8041301863093011
 40
0.8497994205195918
 40
0.8888929803417379
 40
0.9279723372055153
 40
0.9639876764186724
 40
1.0
 40
1.0
 40
1.0
 40
1.0
 10
8.258892319638212
 20
6.724700632387301
 30
0.0
 10
8.258840976199995
 20
6.718835654834338
 30
0.0
 10
8.258704819104008
 20
6.703282385724311
 30
0.0
 10
8.262212593728334
 20
6.682297350012477
 30
0.0
 10
8.26806483577979
 20
6.662321923395981
 30
0.0
 10
8.27447028258886
 20
6.648160542519986
 30
0.0
 10
8.28206450488335
 20
6.636660915270769
 30
0.0
 10
8.290386624165716
 20
6.627767459421049
 30
0.0
 10
8.300071962051161
 20
6.621115657344382
 30
0.0
 10
8.310343381297661
 20
6.617035601280398
 30
0.0
 10
8.320737965983348
 20
6.615387984608189
 30
0.0
 10
8.333141880381948
 20
6.615596283880899
 30
0.0
 10
8.347872903336901
 20
6.61877073862469
 30
0.0
 10
8.368117013543564
 20
6.626926831901228
 30
0.0
 10
8.391333629631578
 20
6.640696081922397
 30
0.0
 10
8.41738881051784
 20
6.660983573795392
 30
0.0
 10
8.44284903984285
 20
6.684750151864714
 30
0.0
 10
8.467069348637658
 20
6.711462715567054
 30
0.0
 10
8.489135170368948
 20
6.740094936272967
 30
0.0
 10
8.506977442006056
 20
6.768233053037084
 30
0.0
 10
8.520369907041296
 20
6.795189058154587
 30
0.0
 10
8.529478243402043
 20
6.820444418419233
 30
0.0
 10
8.534286934655816
 20
6.845421069393343
 30
0.0
 10
8.534212617681918
 20
6.868272146524718
 30
0.0
 10
8.529345815318212
 20
6.888259497647446
 30
0.0
 10
8.520841417639376
 20
6.904720292714491
 30
0.0
 10
8.508989299805256
 20
6.918556314947379
 30
0.0
 10
8.498787730903038
 20
6.925322985683951
 30
0.0
 10
8.493687160009989
 20
6.928706179399801
 30
0.0
  0
POLYLINE
  5
2D3
330
1F
100
AcDbEntity
  8
0
  6
CONTINUOUS
 62
     7
100
AcDb2dPolyline
 66
     1
 10
0.0
 20
0.0
 30
0.0
  0
VERTEX
  5
4B6
330
2D3
100
AcDbEntity
  8
0
  6
CONTINUOUS
 62
     7
100
AcDbVertex
100
AcDb2dVertex
 10
8.9249958549
 20
6.5550200049
 30
0.0
  0
VERTEX
  5
4B7
330
2D3
100
AcDbEntity
  8
0
  6
CONTINUOUS
 62
     7
100
AcDbVertex
100
AcDb2dVertex
 10
8.9236564068
 20
6.5397221122
 30
0.0
  0
VERTEX
  5
4B8
330
2D3
100
AcDbEntity
  8
0
  6
CONTINUOUS
 62
     7
100
AcDbVertex
100
AcDb2dVertex
 10
8.9210553874
 20
6.523925948
 30
0.0
  0
VERTEX
  5
4B9
330
2D3
100
AcDbEntity
  8
0
  6
CONTINUOUS
 62
     7
100
AcDbVertex
100
AcDb2dVertex
 10
8.9172193144
 20
6.5077925573
 30
0.0
  0
VERTEX
  5
4BA
330
2D3
100
AcDbEntity
  8
0
  6
CONTINUOUS
 62
     7
100
AcDbVertex
100
AcDb2dVertex
 10
8.9121872974
 20
6.4914864229
 30
0.0
  0
VERTEX
  5
4BB
330
2D3
100
AcDbEntity
  8
0
  6
CONTINUOUS
 62
     7
100
AcDbVertex
100
AcDb2dVertex
 10
8.9060106386
 20
6.4751737888
 30
0.0
  0
VERTEX
  5
4BC
330
2D3
100
AcDbEntity
  8
0
  6
CONTINUOUS
 62
     7
100
AcDbVertex
100
AcDb2dVertex
 10
8.8987523103
 20
6.4590209653
 30
0.0
  0
VERTEX
  5
4BD
330
2D3
100
AcDbEntity
  8
0
  6
CONTINUOUS
 62
     7
100
AcDbVertex
100
AcDb2dVertex
 10
8.8904863125
 20
6.4431926334
 30
0.0
  0
VERTEX
  5
4BE
330
2D3
100
AcDbEntity
  8
0
  6
CONTINUOUS
 62
     7
100
AcDbVertex
100
AcDb2dVertex
 10
8.8812969184
 20
6.4278501659
 30
0.0
  0
VERTEX
  5
4BF
330
2D3
100
AcDbEntity
  8
0
  6
CONTINUOUS
 62
     7
100
AcDbVertex
100
AcDb2dVertex
 10
8.8712778157
 20
6.413149982
 30
0.0
  0
VERTEX
  5
4C0
330
2D3
100
AcDbEntity
  8
0
  6
CONTINUOUS
 62
     7
100
AcDbVertex
100
AcDb2dVertex
 10
8.860531151
 20
6.3992419529
 30
0.0
  0
VERTEX
  5
4C1
330
2D3
100
AcDbEntity
  8
0
  6
CONTINUOUS
 62
     7
100
AcDbVertex
100
AcDb2dVertex
 10
8.8491664885
 20
6.3862678734
 30
0.0
  0
VERTEX
  5
4C2
330
2D3
100
AcDbEntity
  8
0
  6
CONTINUOUS
 62
     7
100
AcDbVertex
100
AcDb2dVertex
 10
8.8372996929
 20
6.3743600166
 30
0.0
  0
VERTEX
  5
4C3
330
2D3
100
AcDbEntity
  8
0
  6
CONTINUOUS
 62
     7
100
AcDbVertex
100
AcDb2dVertex
 10
8.8250517485
 20
6.3636397853
 30
0.0
  0
VERTEX
  5
4C4
330
2D3
100
AcDbEntity
  8
0
  6
CONTINUOUS
 62
     7
100
AcDbVertex
100
AcDb2dVertex
 10
8.8125475253
 20
6.3542164744
 30
0.0
  0
VERTEX
  5
4C5
330
2D3
100
AcDbEntity
  8
0
  6
CONTINUOUS
 62
     7
100
AcDbVertex
100
AcDb2dVertex
 10
8.7999145062
 20
6.3461861561
 30
0.0
  0
VERTEX
  5
4C6
330
2D3
100
AcDbEntity
  8
0
  6
CONTINUOUS
 62
     7
100
AcDbVertex
100
AcDb2dVertex
 10
8.7872814871
 20
6.3396307009
 30
0.0
  0
VERTEX
  5
4C7
330
2D3
100
AcDbEntity
  8
0
  6
CONTINUOUS
 62
     7
100
AcDbVertex
100
AcDb2dVertex
 10
8.7747772639
 20
6.3346169431
 30
0.0
  0
VERTEX
  5
4C8
330
2D3
100
AcDbEntity
  8
0
  6
CONTINUOUS
 62
     7
100
AcDbVertex
100
AcDb2dVertex
 10
8.7625293195
 20
6.3311959988
 30
0.0
  0
VERTEX
  5
4C9
330
2D3
100
AcDbEntity
  8
0
  6
CONTINUOUS
 62
     7
100
AcDbVertex
100
AcDb2dVertex
 10
8.7506625239
 20
6.329402745
 30
0.0
  0
VERTEX
  5
4CA
330
2D3
100
AcDbEntity
  8
0
  6
CONTINUOUS
 62
     7
100
AcDbVertex
100
AcDb2dVertex
 10
8.7392978614
 20
6.3292554645
 30
0.0
  0
VERTEX
  5
4CB
330
2D3
100
AcDbEntity
  8
0
  6
CONTINUOUS
 62
     7
100
AcDbVertex
100
AcDb2dVertex
 10
8.7285511966
 20
6.3307556586
 30
0.0
  0
VERTEX
  5
4CC
330
2D3
100
AcDbEntity
  8
0
  6
CONTINUOUS
 62
     7
100
AcDbVertex
100
AcDb2dVertex
 10
8.718532094
 20
6.3338880328
 30
0.0
  0
VERTEX
  5
4CD
330
2D3
100
AcDbEntity
  8
0
  6
CONTINUOUS
 62
     7
100
AcDbVertex
100
AcDb2dVertex
 10
8.7093426999
 20
6.3386206517
 30
0.0
  0
VERTEX
  5
4CE
330
2D3
100
AcDbEntity
  8
0
  6
CONTINUOUS
 62
     7
100
AcDbVertex
100
AcDb2dVertex
 10
8.7010767021
 20
6.3449052656
 30
0.0
  0
VERTEX
  5
4CF
330
2D3
100
AcDbEntity
  8
0
  6
CONTINUOUS
 62
     7
100
AcDbVertex
100
AcDb2dVertex
 10
8.6938183738
 20
6.3526778017
 30
0.0
  0
VERTEX
  5
4D0
330
2D3
100
AcDbEntity
  8
0
  6
CONTINUOUS
 62
     7
100
AcDbVertex
100
AcDb2dVertex
 10
8.687641715
 20
6.3618590174
 30
0.0
  0
VERTEX
  5
4D1
330
2D3
100
AcDbEntity
  8
0
  6
CONTINUOUS
 62
     7
100
AcDbVertex
100
AcDb2dVertex
 10
8.682609698
 20
6.3723553086
 30
0.0
  0
VERTEX
  5
4D2
330
2D3
100
AcDbEntity
  8
0
  6
CONTINUOUS
 62
     7
100
AcDbVertex
100
AcDb2dVertex
 10
8.678773625
 20
6.3840596638
 30
0.0
  0
VERTEX
  5
4D3
330
2D3
100
AcDbEntity
  8
0
  6
CONTINUOUS
 62
     7
100
AcDbVertex
100
AcDb2dVertex
 10
8.6761726056
 20
6.3968527548
 30
0.0
  0
VERTEX
  5
4D4
330
2D3
100
AcDbEntity
  8
0
  6
CONTINUOUS
 62
     7
100
AcDbVertex
100
AcDb2dVertex
 10
8.6748331575
 20
6.4106041537
 30
0.0
  0
SEQEND
  5
4D5
330
2D3
100
AcDbEntity
  8
0
  6
CONTINUOUS
 62
     7
  0
LINE
  5
2D4
330
1F
100
AcDbEntity
  8
0
  6
CONTINUOUS
 62
     7
100
AcDbLine
 10
8.9249958549
 20
6.5550200049
 30
0.0
 11
8.9971063579
 21
6.5966485122
 31
0.0
  0
LINE
  5
2D5
330
1F
100
AcDbEntity
  8
0
  6
CONTINUOUS
 62
     7
100
AcDbLine
 10
8.9971063579
 20
6.5966485122
 30
0.0
 11
8.9971063579
 21
6.6127221502
 31
0.0
  0
LINE
  5
2D6
330
1F
100
AcDbEntity
  8
0
  6
CONTINUOUS
 62
     7
100
AcDbLine
 10
8.9249958549
 20
6.5710936429
 30
0.0
 11
8.9971063579
 21
6.6127221502
 31
0.0
  0
POLYLINE
  5
2D7
330
1F
100
AcDbEntity
  8
0
  6
CONTINUOUS
 62
     7
100
AcDb2dPolyline
 66
     1
 10
0.0
 20
0.0
 30
0.0
  0
VERTEX
  5
4D6
330
2D7
100
AcDbEntity
  8
0
  6
CONTINUOUS
 62
     7
100
AcDbVertex
100
AcDb2dVertex
 10
8.6748331575
 20
6.4266777917
 30
0.0
  0
VERTEX
  5
4D7
330
2D7
100
AcDbEntity
  8
0
  6
CONTINUOUS
 62
     7
100
AcDbVertex
100
AcDb2dVertex
 10
8.6761726056
 20
6.4419756845
 30
0.0
  0
VERTEX
  5
4D8
330
2D7
100
AcDbEntity
  8
0
  6
CONTINUOUS
 62
     7
100
AcDbVertex
100
AcDb2dVertex
 10
8.678773625
 20
6.4577718486
 30
0.0
  0
VERTEX
  5
4D9
330
2D7
100
AcDbEntity
  8
0
  6
CONTINUOUS
 62
     7
100
AcDbVertex
100
AcDb2dVertex
 10
8.682609698
 20
6.4739052393
 30
0.0
  0
VERTEX
  5
4DA
330
2D7
100
AcDbEntity
  8
0
  6
CONTINUOUS
 62
     7
100
AcDbVertex
100
AcDb2dVertex
 10
8.687641715
 20
6.4902113737
 30
0.0
  0
VERTEX
  5
4DB
330
2D7
100
AcDbEntity
  8
0
  6
CONTINUOUS
 62
     7
100
AcDbVertex
100
AcDb2dVertex
 10
8.6938183738
 20
6.5065240079
 30
0.0
  0
VERTEX
  5
4DC
330
2D7
100
AcDbEntity
  8
0
  6
CONTINUOUS
 62
     7
100
AcDbVertex
100
AcDb2dVertex
 10
8.7010767021
 20
6.5226768314
 30
0.0
  0
VERTEX
  5
4DD
330
2D7
100
AcDbEntity
  8
0
  6
CONTINUOUS
 62
     7
100
AcDbVertex
100
AcDb2dVertex
 10
8.7093426999
 20
6.5385051632
 30
0.0
  0
VERTEX
  5
4DE
330
2D7
100
AcDbEntity
  8
0
  6
CONTINUOUS
 62
     7
100
AcDbVertex
100
AcDb2dVertex
 10
8.718532094
 20
6.5538476307
 30
0.0
  0
VERTEX
  5
4DF
330
2D7
100
AcDbEntity
  8
0
  6
CONTINUOUS
 62
     7
100
AcDbVertex
100
AcDb2dVertex
 10
8.7285511966
 20
6.5685478146
 30
0.0
  0
VERTEX
  5
4E0
330
2D7
100
AcDbEntity
  8
0
  6
CONTINUOUS
 62
     7
100
AcDbVertex
100
AcDb2dVertex
 10
8.7392978614
 20
6.5824558438
 30
0.0
  0
VERTEX
  5
4E1
330
2D7
100
AcDbEntity
  8
0
  6
CONTINUOUS
 62
     7
100
AcDbVertex
100
AcDb2dVertex
 10
8.7506625239
 20
6.5954299233
 30
0.0
  0
VERTEX
  5
4E2
330
2D7
100
AcDbEntity
  8
0
  6
CONTINUOUS
 62
     7
100
AcDbVertex
100
AcDb2dVertex
 10
8.7625293195
 20
6.60733778
 30
0.0
  0
VERTEX
  5
4E3
330
2D7
100
AcDbEntity
  8
0
  6
CONTINUOUS
 62
     7
100
AcDbVertex
100
AcDb2dVertex
 10
8.7747772639
 20
6.6180580113
 30
0.0
  0
VERTEX
  5
4E4
330
2D7
100
AcDbEntity
  8
0
  6
CONTINUOUS
 62
     7
100
AcDbVertex
100
AcDb2dVertex
 10
8.7872814871
 20
6.6274813223
 30
0.0
  0
VERTEX
  5
4E5
330
2D7
100
AcDbEntity
  8
0
  6
CONTINUOUS
 62
     7
100
AcDbVertex
100
AcDb2dVertex
 10
8.7999145062
 20
6.6355116406
 30
0.0
  0
VERTEX
  5
4E6
330
2D7
100
AcDbEntity
  8
0
  6
CONTINUOUS
 62
     7
100
AcDbVertex
100
AcDb2dVertex
 10
8.8125475253
 20
6.6420670957
 30
0.0
  0
VERTEX
  5
4E7
330
2D7
100
AcDbEntity
  8
0
  6
CONTINUOUS
 62
     7
100
AcDbVertex
100
AcDb2dVertex
 10
8.8250517485
 20
6.6470808535
 30
0.0
  0
VERTEX
  5
4E8
330
2D7
100
AcDbEntity
  8
0
  6
CONTINUOUS
 62
     7
100
AcDbVertex
100
AcDb2dVertex
 10
8.8372996929
 20
6.6505017979
 30
0.0
  0
VERTEX
  5
4E9
330
2D7
100
AcDbEntity
  8
0
  6
CONTINUOUS
 62
     7
100
AcDbVertex
100
AcDb2dVertex
 10
8.8491664885
 20
6.6522950516
 30
0.0
  0
VERTEX
  5
4EA
330
2D7
100
AcDbEntity
  8
0
  6
CONTINUOUS
 62
     7
100
AcDbVertex
100
AcDb2dVertex
 10
8.860531151
 20
6.6524423322
 30
0.0
  0
VERTEX
  5
4EB
330
2D7
100
AcDbEntity
  8
0
  6
CONTINUOUS
 62
     7
100
AcDbVertex
100
AcDb2dVertex
 10
8.8712778157
 20
6.650942138
 30
0.0
  0
VERTEX
  5
4EC
330
2D7
100
AcDbEntity
  8
0
  6
CONTINUOUS
 62
     7
100
AcDbVertex
100
AcDb2dVertex
 10
8.8812969184
 20
6.6478097639
 30
0.0
  0
VERTEX
  5
4ED
330
2D7
100
AcDbEntity
  8
0
  6
CONTINUOUS
 62
     7
100
AcDbVertex
100
AcDb2dVertex
 10
8.8904863125
 20
6.6430771449
 30
0.0
  0
VERTEX
  5
4EE
330
2D7
100
AcDbEntity
  8
0
  6
CONTINUOUS
 62
     7
100
AcDbVertex
100
AcDb2dVertex
 10
8.8987523103
 20
6.636792531
 30
0.0
  0
VERTEX
  5
4EF
330
2D7
100
AcDbEntity
  8
0
  6
CONTINUOUS
 62
     7
100
AcDbVertex
100
AcDb2dVertex
 10
8.9060106386
 20
6.629019995
 30
0.0
  0
VERTEX
  5
4F0
330
2D7
100
AcDbEntity
  8
0
  6
CONTINUOUS
 62
     7
100
AcDbVertex
100
AcDb2dVertex
 10
8.9121872974
 20
6.6198387793
 30
0.0
  0
VERTEX
  5
4F1
330
2D7
100
AcDbEntity
  8
0
  6
CONTINUOUS
 62
     7
100
AcDbVertex
100
AcDb2dVertex
 10
8.9172193144
 20
6.609342488
 30
0.0
  0
VERTEX
  5
4F2
330
2D7
100
AcDbEntity
  8
0
  6
CONTINUOUS
 62
     7
100
AcDbVertex
100
AcDb2dVertex
 10
8.9210553874
 20
6.5976381329
 30
0.0
  0
VERTEX
  5
4F3
330
2D7
100
AcDbEntity
  8
0
  6
CONTINUOUS
 62
     7
100
AcDbVertex
100
AcDb2dVertex
 10
8.9236564068
 20
6.5848450419
 30
0.0
  0
VERTEX
  5
4F4
330
2D7
100
AcDbEntity
  8
0
  6
CONTINUOUS
 62
     7
100
AcDbVertex
100
AcDb2dVertex
 10
8.9249958549
 20
6.5710936429
 30
0.0
  0
SEQEND
  5
4F5
330
2D7
100
AcDbEntity
  8
0
  6
CONTINUOUS
 62
     7
  0
LINE
  5
2D8
330
1F
100
AcDbEntity
  8
0
  6
CONTINUOUS
 62
     7
100
AcDbLine
 10
8.3684684669
 20
6.2498172204
 30
0.0
 11
8.6748331575
 21
6.4266777917
 31
0.0
  0
LINE
  5
2D9
330
1F
100
AcDbEntity
  8
0
  6
CONTINUOUS
 62
     7
100
AcDbLine
 10
8.3684684669
 20
6.2337435824
 30
0.0
 11
8.6748331575
 21
6.4106041537
 31
0.0
  0
LINE
  5
2DA
330
1F
100
AcDbEntity
  8
0
  6
CONTINUOUS
 62
     7
100
AcDbLine
 10
8.6166420793
 20
7.2110461857
 30
0.0
 11
8.6166420793
 21
7.2232414841
 31
0.0
  0
ARC
  5
2DB
330
1F
100
AcDbEntity
  8
0
  6
CONTINUOUS
 62
     7
100
AcDbCircle
 10
8.9522391306
 20
6.4015588745
 30
0.0
 40
0.937473895872068
100
AcDbArc
 50
140.9133365726
 51
177.3248174861
  0
SPLINE
  5
2DC
330
1F
100
AcDbEntity
  8
0
  6
CONTINUOUS
 62
     7
100
AcDbSpline
210
0.0
220
0.0
230
1.0
 70
     8
 71
     3
 72
     8
 73
     4
 74
     0
 42
0.00000001
 43
0.00000001
 40
0.0
 40
0.0
 40
0.0
 40
0.0
 40
0.0007661375841575
 40
0.0007661375841575
 40
0.0007661375841575
 40
0.0007661375841575
 10
8.224578280030856
 20
6.992631621221259
 30
0.0
 10
8.229203089639714
 20
6.996197025708888
 30
0.0
 10
8.233843468803531
 20
6.99973807861861
 30
0.0
 10
8.238497704857364
 20
7.003257229577493
 30
0.0
  0
LINE
  5
2DD
330
1F
100
AcDbEntity
  8
0
  6
CONTINUOUS
 62
     7
100
AcDbLine
 10
8.6748343168
 20
6.4267024846
 30
0.0
 11
8.6748573866
 21
6.4266891667
 31
0.0
  0
LINE
  5
2DE
330
1F
100
AcDbEntity
  8
0
  6
CONTINUOUS
 62
     7
100
AcDbLine
 10
8.6748331575
 20
6.4106041537
 30
0.0
 11
8.6748573866
 21
6.4266891667
 31
0.0
  0
LINE
  5
2DF
330
1F
100
AcDbEntity
  8
0
  6
CONTINUOUS
 62
     7
100
AcDbLine
 10
8.0738388871
 20
6.3877565672
 30
0.0
 11
8.0877605745
 21
6.3957933862
 31
0.0
  0
LINE
  5
2E0
330
1F
100
AcDbEntity
  8
0
  6
CONTINUOUS
 62
     7
100
AcDbLine
 10
8.1503413476
 20
7.0541488114
 30
0.0
 11
8.138353163
 21
7.0449974451
 31
0.0
  0
LINE
  5
2E1
330
1F
100
AcDbEntity
  8
0
  6
CONTINUOUS
 62
     7
100
AcDbLine
 10
8.8971327762
 20
6.5710796558
 30
0.0
 11
8.9249958549
 21
6.5710936429
 31
0.0
  0
ARC
  5
2E2
330
1F
100
AcDbEntity
  8
0
  6
CONTINUOUS
 62
     7
100
AcDbCircle
 10
8.8303056097
 20
6.5756408143
 30
0.0
 40
0.0669826421019724
100
AcDbArc
 50
356.0954433575
 51
123.9099331752
  0
ARC
  5
2E3
330
1F
100
AcDbEntity
  8
0
  6
CONTINUOUS
 62
     7
100
AcDbCircle
 10
8.7730204106
 20
6.559006023
 30
0.0
 40
0.7999751832090384
100
AcDbArc
 50
121.162249953
 51
142.5628767081
  0
LINE
  5
2E4
330
1F
100
AcDbEntity
  8
0
  6
CONTINUOUS
 62
     7
100
AcDbLine
 10
8.8971327762
 20
6.5710796558
 30
0.0
 11
8.7929367307
 21
6.6312307525
 31
0.0
  0
LINE
  5
2E5
330
1F
100
AcDbEntity
  8
0
  6
CONTINUOUS
 62
     7
100
AcDbLine
 10
8.8971327762
 20
6.5550060178
 30
0.0
 11
8.7803358166
 21
6.6224314673
 31
0.0
  0
POLYLINE
  5
2E6
330
1F
100
AcDbEntity
  8
0
  6
CONTINUOUS
 62
     7
100
AcDb2dPolyline
 66
     1
 10
0.0
 20
0.0
 30
0.0
  0
VERTEX
  5
4F6
330
2E6
100
AcDbEntity
  8
0
  6
CONTINUOUS
 62
     7
100
AcDbVertex
100
AcDb2dVertex
 10
8.6748573866
 20
6.4266891667
 30
0.0
  0
VERTEX
  5
4F7
330
2E6
100
AcDbEntity
  8
0
  6
CONTINUOUS
 62
     7
100
AcDbVertex
100
AcDb2dVertex
 10
8.6762500497
 20
6.41374031
 30
0.0
  0
VERTEX
  5
4F8
330
2E6
100
AcDbEntity
  8
0
  6
CONTINUOUS
 62
     7
100
AcDbVertex
100
AcDb2dVertex
 10
8.6789152152
 20
6.401778706
 30
0.0
  0
VERTEX
  5
4F9
330
2E6
100
AcDbEntity
  8
0
  6
CONTINUOUS
 62
     7
100
AcDbVertex
100
AcDb2dVertex
 10
8.6828219802
 20
6.3909430502
 30
0.0
  0
VERTEX
  5
4FA
330
2E6
100
AcDbEntity
  8
0
  6
CONTINUOUS
 62
     7
100
AcDbVertex
100
AcDb2dVertex
 10
8.6879250454
 20
6.3813589831
 30
0.0
  0
VERTEX
  5
4FB
330
2E6
100
AcDbEntity
  8
0
  6
CONTINUOUS
 62
     7
100
AcDbVertex
100
AcDb2dVertex
 10
8.6941652405
 20
6.3731376326
 30
0.0
  0
VERTEX
  5
4FC
330
2E6
100
AcDbEntity
  8
0
  6
CONTINUOUS
 62
     7
100
AcDbVertex
100
AcDb2dVertex
 10
8.7014702098
 20
6.366374326
 30
0.0
  0
VERTEX
  5
4FD
330
2E6
100
AcDbEntity
  8
0
  6
CONTINUOUS
 62
     7
100
AcDbVertex
100
AcDb2dVertex
 10
8.7097552517
 20
6.3611474843
 30
0.0
  0
VERTEX
  5
4FE
330
2E6
100
AcDbEntity
  8
0
  6
CONTINUOUS
 62
     7
100
AcDbVertex
100
AcDb2dVertex
 10
8.7189243005
 20
6.3575177131
 30
0.0
  0
VERTEX
  5
4FF
330
2E6
100
AcDbEntity
  8
0
  6
CONTINUOUS
 62
     7
100
AcDbVertex
100
AcDb2dVertex
 10
8.7288710402
 20
6.3555271
 30
0.0
  0
VERTEX
  5
500
330
2E6
100
AcDbEntity
  8
0
  6
CONTINUOUS
 62
     7
100
AcDbVertex
100
AcDb2dVertex
 10
8.7394801378
 20
6.3551987262
 30
0.0
  0
VERTEX
  5
501
330
2E6
100
AcDbEntity
  8
0
  6
CONTINUOUS
 62
     7
100
AcDbVertex
100
AcDb2dVertex
 10
8.7506285798
 20
6.3565363994
 30
0.0
  0
VERTEX
  5
502
330
2E6
100
AcDbEntity
  8
0
  6
CONTINUOUS
 62
     7
100
AcDbVertex
100
AcDb2dVertex
 10
8.7621870991
 20
6.3595246089
 30
0.0
  0
VERTEX
  5
503
330
2E6
100
AcDbEntity
  8
0
  6
CONTINUOUS
 62
     7
100
AcDbVertex
100
AcDb2dVertex
 10
8.774021674
 20
6.3641287064
 30
0.0
  0
VERTEX
  5
504
330
2E6
100
AcDbEntity
  8
0
  6
CONTINUOUS
 62
     7
100
AcDbVertex
100
AcDb2dVertex
 10
8.7859950814
 20
6.370295307
 30
0.0
  0
VERTEX
  5
505
330
2E6
100
AcDbEntity
  8
0
  6
CONTINUOUS
 62
     7
100
AcDbVertex
100
AcDb2dVertex
 10
8.7979684888
 20
6.3779529084
 30
0.0
  0
VERTEX
  5
506
330
2E6
100
AcDbEntity
  8
0
  6
CONTINUOUS
 62
     7
100
AcDbVertex
100
AcDb2dVertex
 10
8.8098030636
 20
6.3870127201
 30
0.0
  0
VERTEX
  5
507
330
2E6
100
AcDbEntity
  8
0
  6
CONTINUOUS
 62
     7
100
AcDbVertex
100
AcDb2dVertex
 10
8.821361583
 20
6.3973696929
 30
0.0
  0
VERTEX
  5
508
330
2E6
100
AcDbEntity
  8
0
  6
CONTINUOUS
 62
     7
100
AcDbVertex
100
AcDb2dVertex
 10
8.832510025
 20
6.408903737
 30
0.0
  0
VERTEX
  5
509
330
2E6
100
AcDbEntity
  8
0
  6
CONTINUOUS
 62
     7
100
AcDbVertex
100
AcDb2dVertex
 10
8.8431191225
 20
6.421481114
 30
0.0
  0
VERTEX
  5
50A
330
2E6
100
AcDbEntity
  8
0
  6
CONTINUOUS
 62
     7
100
AcDbVertex
100
AcDb2dVertex
 10
8.8530658623
 20
6.4349559884
 30
0.0
  0
VERTEX
  5
50B
330
2E6
100
AcDbEntity
  8
0
  6
CONTINUOUS
 62
     7
100
AcDbVertex
100
AcDb2dVertex
 10
8.862234911
 20
6.4491721179
 30
0.0
  0
VERTEX
  5
50C
330
2E6
100
AcDbEntity
  8
0
  6
CONTINUOUS
 62
     7
100
AcDbVertex
100
AcDb2dVertex
 10
8.8705199529
 20
6.4639646654
 30
0.0
  0
VERTEX
  5
50D
330
2E6
100
AcDbEntity
  8
0
  6
CONTINUOUS
 62
     7
100
AcDbVertex
100
AcDb2dVertex
 10
8.8778249223
 20
6.4791621101
 30
0.0
  0
VERTEX
  5
50E
330
2E6
100
AcDbEntity
  8
0
  6
CONTINUOUS
 62
     7
100
AcDbVertex
100
AcDb2dVertex
 10
8.8840651173
 20
6.4945882365
 30
0.0
  0
VERTEX
  5
50F
330
2E6
100
AcDbEntity
  8
0
  6
CONTINUOUS
 62
     7
100
AcDbVertex
100
AcDb2dVertex
 10
8.8891681826
 20
6.5100641773
 30
0.0
  0
VERTEX
  5
510
330
2E6
100
AcDbEntity
  8
0
  6
CONTINUOUS
 62
     7
100
AcDbVertex
100
AcDb2dVertex
 10
8.8930749475
 20
6.5254104879
 30
0.0
  0
VERTEX
  5
511
330
2E6
100
AcDbEntity
  8
0
  6
CONTINUOUS
 62
     7
100
AcDbVertex
100
AcDb2dVertex
 10
8.895740113
 20
6.5404492265
 30
0.0
  0
VERTEX
  5
512
330
2E6
100
AcDbEntity
  8
0
  6
CONTINUOUS
 62
     7
100
AcDbVertex
100
AcDb2dVertex
 10
8.8971327762
 20
6.5550060178
 30
0.0
  0
SEQEND
  5
513
330
2E6
100
AcDbEntity
  8
0
  6
CONTINUOUS
 62
     7
  0
LINE
  5
2E7
330
1F
100
AcDbEntity
  8
0
  6
CONTINUOUS
 62
     7
100
AcDbLine
 10
8.8971327762
 20
6.5550060178
 30
0.0
 11
8.9249958549
 21
6.5550200049
 31
0.0
  0
LINE
  5
2E8
330
1F
100
AcDbEntity
  8
0
  6
CONTINUOUS
 62
     7
100
AcDbLine
 10
8.9971063579
 20
6.5966485122
 30
0.0
 11
8.9828392361
 21
6.6044859162
 31
0.0
  0
LINE
  5
2E9
330
1F
100
AcDbEntity
  8
0
  6
CONTINUOUS
 62
     7
100
AcDbLine
 10
8.5796904403
 20
7.3260228166
 30
0.0
 11
8.6678467975
 21
7.2751312348
 31
0.0
  0
POLYLINE
  5
2EA
330
1F
100
AcDbEntity
  8
0
  6
CONTINUOUS
 62
     7
100
AcDb2dPolyline
 66
     1
 10
0.0
 20
0.0
 30
0.0
  0
VERTEX
  5
514
330
2EA
100
AcDbEntity
  8
0
  6
CONTINUOUS
 62
     7
100
AcDbVertex
100
AcDb2dVertex
 10
8.1137627509
 20
7.0591931879
 30
0.0
  0
VERTEX
  5
515
330
2EA
100
AcDbEntity
  8
0
  6
CONTINUOUS
 62
     7
100
AcDbVertex
100
AcDb2dVertex
 10
8.1340202425
 20
7.0842874645
 30
0.0
  0
VERTEX
  5
516
330
2EA
100
AcDbEntity
  8
0
  6
CONTINUOUS
 62
     7
100
AcDbVertex
100
AcDb2dVertex
 10
8.1548578951
 20
7.1084726131
 30
0.0
  0
VERTEX
  5
517
330
2EA
100
AcDbEntity
  8
0
  6
CONTINUOUS
 62
     7
100
AcDbVertex
100
AcDb2dVertex
 10
8.1762184665
 20
7.1316821956
 30
0.0
  0
VERTEX
  5
518
330
2EA
100
AcDbEntity
  8
0
  6
CONTINUOUS
 62
     7
100
AcDbVertex
100
AcDb2dVertex
 10
8.1980432778
 20
7.1538524536
 30
0.0
  0
VERTEX
  5
519
330
2EA
100
AcDbEntity
  8
0
  6
CONTINUOUS
 62
     7
100
AcDbVertex
100
AcDb2dVertex
 10
8.2202723747
 20
7.1749224841
 30
0.0
  0
VERTEX
  5
51A
330
2EA
100
AcDbEntity
  8
0
  6
CONTINUOUS
 62
     7
100
AcDbVertex
100
AcDb2dVertex
 10
8.2428446925
 20
7.1948344064
 30
0.0
  0
VERTEX
  5
51B
330
2EA
100
AcDbEntity
  8
0
  6
CONTINUOUS
 62
     7
100
AcDbVertex
100
AcDb2dVertex
 10
8.2656982236
 20
7.2135335209
 30
0.0
  0
VERTEX
  5
51C
330
2EA
100
AcDbEntity
  8
0
  6
CONTINUOUS
 62
     7
100
AcDbVertex
100
AcDb2dVertex
 10
8.2887701878
 20
7.2309684601
 30
0.0
  0
VERTEX
  5
51D
330
2EA
100
AcDbEntity
  8
0
  6
CONTINUOUS
 62
     7
100
AcDbVertex
100
AcDb2dVertex
 10
8.3119972048
 20
7.2470913291
 30
0.0
  0
VERTEX
  5
51E
330
2EA
100
AcDbEntity
  8
0
  6
CONTINUOUS
 62
     7
100
AcDbVertex
100
AcDb2dVertex
 10
8.3353154687
 20
7.2618578372
 30
0.0
  0
VERTEX
  5
51F
330
2EA
100
AcDbEntity
  8
0
  6
CONTINUOUS
 62
     7
100
AcDbVertex
100
AcDb2dVertex
 10
8.3586609225
 20
7.2752274199
 30
0.0
  0
VERTEX
  5
520
330
2EA
100
AcDbEntity
  8
0
  6
CONTINUOUS
 62
     7
100
AcDbVertex
100
AcDb2dVertex
 10
8.3819694348
 20
7.2871633501
 30
0.0
  0
VERTEX
  5
521
330
2EA
100
AcDbEntity
  8
0
  6
CONTINUOUS
 62
     7
100
AcDbVertex
100
AcDb2dVertex
 10
8.4051769756
 20
7.297632839
 30
0.0
  0
VERTEX
  5
522
330
2EA
100
AcDbEntity
  8
0
  6
CONTINUOUS
 62
     7
100
AcDbVertex
100
AcDb2dVertex
 10
8.4282197923
 20
7.3066071262
 30
0.0
  0
VERTEX
  5
523
330
2EA
100
AcDbEntity
  8
0
  6
CONTINUOUS
 62
     7
100
AcDbVertex
100
AcDb2dVertex
 10
8.4510345846
 20
7.3140615587
 30
0.0
  0
VERTEX
  5
524
330
2EA
100
AcDbEntity
  8
0
  6
CONTINUOUS
 62
     7
100
AcDbVertex
100
AcDb2dVertex
 10
8.473558679
 20
7.3199756589
 30
0.0
  0
VERTEX
  5
525
330
2EA
100
AcDbEntity
  8
0
  6
CONTINUOUS
 62
     7
100
AcDbVertex
100
AcDb2dVertex
 10
8.4957302002
 20
7.3243331801
 30
0.0
  0
VERTEX
  5
526
330
2EA
100
AcDbEntity
  8
0
  6
CONTINUOUS
 62
     7
100
AcDbVertex
100
AcDb2dVertex
 10
8.5174882416
 20
7.3271221521
 30
0.0
  0
VERTEX
  5
527
330
2EA
100
AcDbEntity
  8
0
  6
CONTINUOUS
 62
     7
100
AcDbVertex
100
AcDb2dVertex
 10
8.5387730324
 20
7.3283349134
 30
0.0
  0
VERTEX
  5
528
330
2EA
100
AcDbEntity
  8
0
  6
CONTINUOUS
 62
     7
100
AcDbVertex
100
AcDb2dVertex
 10
8.559526102
 20
7.3279681323
 30
0.0
  0
VERTEX
  5
529
330
2EA
100
AcDbEntity
  8
0
  6
CONTINUOUS
 62
     7
100
AcDbVertex
100
AcDb2dVertex
 10
8.5796904403
 20
7.3260228166
 30
0.0
  0
SEQEND
  5
52A
330
2EA
100
AcDbEntity
  8
0
  6
CONTINUOUS
 62
     7
  0
LINE
  5
2EB
330
1F
100
AcDbEntity
  8
0
  6
CONTINUOUS
 62
     7
100
AcDbLine
 10
8.2019191082
 20
7.0083016061
 30
0.0
 11
8.1137627509
 21
7.0591931879
 31
0.0
  0
POLYLINE
  5
2EC
330
1F
100
AcDbEntity
  8
0
  6
CONTINUOUS
 62
     7
100
AcDb2dPolyline
 66
     1
 10
0.0
 20
0.0
 30
0.0
  0
VERTEX
  5
52B
330
2EC
100
AcDbEntity
  8
0
  6
CONTINUOUS
 62
     7
100
AcDbVertex
100
AcDb2dVertex
 10
8.1326616974
 20
6.1494055651
 30
0.0
  0
VERTEX
  5
52C
330
2EC
100
AcDbEntity
  8
0
  6
CONTINUOUS
 62
     7
100
AcDbVertex
100
AcDb2dVertex
 10
8.1253188576
 20
6.1531040023
 30
0.0
  0
VERTEX
  5
52D
330
2EC
100
AcDbEntity
  8
0
  6
CONTINUOUS
 62
     7
100
AcDbVertex
100
AcDb2dVertex
 10
8.1089130227
 20
6.1627476868
 30
0.0
  0
VERTEX
  5
52E
330
2EC
100
AcDbEntity
  8
0
  6
CONTINUOUS
 62
     7
100
AcDbVertex
100
AcDb2dVertex
 10
8.09339543
 20
6.1738688784
 30
0.0
  0
VERTEX
  5
52F
330
2EC
100
AcDbEntity
  8
0
  6
CONTINUOUS
 62
     7
100
AcDbVertex
100
AcDb2dVertex
 10
8.0788085609
 20
6.1864371315
 30
0.0
  0
VERTEX
  5
530
330
2EC
100
AcDbEntity
  8
0
  6
CONTINUOUS
 62
     7
100
AcDbVertex
100
AcDb2dVertex
 10
8.0651923489
 20
6.2004180389
 30
0.0
  0
VERTEX
  5
531
330
2EC
100
AcDbEntity
  8
0
  6
CONTINUOUS
 62
     7
100
AcDbVertex
100
AcDb2dVertex
 10
8.05258407
 20
6.215773326
 30
0.0
  0
VERTEX
  5
532
330
2EC
100
AcDbEntity
  8
0
  6
CONTINUOUS
 62
     7
100
AcDbVertex
100
AcDb2dVertex
 10
8.0410182412
 20
6.2324609557
 30
0.0
  0
VERTEX
  5
533
330
2EC
100
AcDbEntity
  8
0
  6
CONTINUOUS
 62
     7
100
AcDbVertex
100
AcDb2dVertex
 10
8.0305265253
 20
6.2504352435
 30
0.0
  0
VERTEX
  5
534
330
2EC
100
AcDbEntity
  8
0
  6
CONTINUOUS
 62
     7
100
AcDbVertex
100
AcDb2dVertex
 10
8.0211376447
 20
6.2696469825
 30
0.0
  0
VERTEX
  5
535
330
2EC
100
AcDbEntity
  8
0
  6
CONTINUOUS
 62
     7
100
AcDbVertex
100
AcDb2dVertex
 10
8.0128773029
 20
6.2900435779
 30
0.0
  0
VERTEX
  5
536
330
2EC
100
AcDbEntity
  8
0
  6
CONTINUOUS
 62
     7
100
AcDbVertex
100
AcDb2dVertex
 10
8.0057681135
 20
6.3115691915
 30
0.0
  0
VERTEX
  5
537
330
2EC
100
AcDbEntity
  8
0
  6
CONTINUOUS
 62
     7
100
AcDbVertex
100
AcDb2dVertex
 10
7.9998295388
 20
6.3341648942
 30
0.0
  0
VERTEX
  5
538
330
2EC
100
AcDbEntity
  8
0
  6
CONTINUOUS
 62
     7
100
AcDbVertex
100
AcDb2dVertex
 10
7.9950778365
 20
6.3577688271
 30
0.0
  0
VERTEX
  5
539
330
2EC
100
AcDbEntity
  8
0
  6
CONTINUOUS
 62
     7
100
AcDbVertex
100
AcDb2dVertex
 10
7.9915260149
 20
6.3823163716
 30
0.0
  0
VERTEX
  5
53A
330
2EC
100
AcDbEntity
  8
0
  6
CONTINUOUS
 62
     7
100
AcDbVertex
100
AcDb2dVertex
 10
7.9891837978
 20
6.4077403255
 30
0.0
  0
VERTEX
  5
53B
330
2EC
100
AcDbEntity
  8
0
  6
CONTINUOUS
 62
     7
100
AcDbVertex
100
AcDb2dVertex
 10
7.9880575971
 20
6.4339710874
 30
0.0
  0
VERTEX
  5
53C
330
2EC
100
AcDbEntity
  8
0
  6
CONTINUOUS
 62
     7
100
AcDbVertex
100
AcDb2dVertex
 10
7.988150496
 20
6.4609368472
 30
0.0
  0
VERTEX
  5
53D
330
2EC
100
AcDbEntity
  8
0
  6
CONTINUOUS
 62
     7
100
AcDbVertex
100
AcDb2dVertex
 10
7.9894622401
 20
6.4885637827
 30
0.0
  0
VERTEX
  5
53E
330
2EC
100
AcDbEntity
  8
0
  6
CONTINUOUS
 62
     7
100
AcDbVertex
100
AcDb2dVertex
 10
7.9919892385
 20
6.5167762615
 30
0.0
  0
VERTEX
  5
53F
330
2EC
100
AcDbEntity
  8
0
  6
CONTINUOUS
 62
     7
100
AcDbVertex
100
AcDb2dVertex
 10
7.9957245731
 20
6.5454970483
 30
0.0
  0
VERTEX
  5
540
330
2EC
100
AcDbEntity
  8
0
  6
CONTINUOUS
 62
     7
100
AcDbVertex
100
AcDb2dVertex
 10
8.0006580179
 20
6.5746475162
 30
0.0
  0
VERTEX
  5
541
330
2EC
100
AcDbEntity
  8
0
  6
CONTINUOUS
 62
     7
100
AcDbVertex
100
AcDb2dVertex
 10
8.006776067
 20
6.6041478621
 30
0.0
  0
VERTEX
  5
542
330
2EC
100
AcDbEntity
  8
0
  6
CONTINUOUS
 62
     7
100
AcDbVertex
100
AcDb2dVertex
 10
8.0140619715
 20
6.6339173248
 30
0.0
  0
VERTEX
  5
543
330
2EC
100
AcDbEntity
  8
0
  6
CONTINUOUS
 62
     7
100
AcDbVertex
100
AcDb2dVertex
 10
8.0224957853
 20
6.6638744066
 30
0.0
  0
VERTEX
  5
544
330
2EC
100
AcDbEntity
  8
0
  6
CONTINUOUS
 62
     7
100
AcDbVertex
100
AcDb2dVertex
 10
8.0320544196
 20
6.6939370962
 30
0.0
  0
VERTEX
  5
545
330
2EC
100
AcDbEntity
  8
0
  6
CONTINUOUS
 62
     7
100
AcDbVertex
100
AcDb2dVertex
 10
8.0427117065
 20
6.724023093
 30
0.0
  0
VERTEX
  5
546
330
2EC
100
AcDbEntity
  8
0
  6
CONTINUOUS
 62
     7
100
AcDbVertex
100
AcDb2dVertex
 10
8.0544384702
 20
6.7540500326
 30
0.0
  0
VERTEX
  5
547
330
2EC
100
AcDbEntity
  8
0
  6
CONTINUOUS
 62
     7
100
AcDbVertex
100
AcDb2dVertex
 10
8.0672026073
 20
6.7839357125
 30
0.0
  0
VERTEX
  5
548
330
2EC
100
AcDbEntity
  8
0
  6
CONTINUOUS
 62
     7
100
AcDbVertex
100
AcDb2dVertex
 10
8.0809691742
 20
6.8135983167
 30
0.0
  0
VERTEX
  5
549
330
2EC
100
AcDbEntity
  8
0
  6
CONTINUOUS
 62
     7
100
AcDbVertex
100
AcDb2dVertex
 10
8.0957004833
 20
6.8429566399
 30
0.0
  0
VERTEX
  5
54A
330
2EC
100
AcDbEntity
  8
0
  6
CONTINUOUS
 62
     7
100
AcDbVertex
100
AcDb2dVertex
 10
8.1113562055
 20
6.87193031
 30
0.0
  0
VERTEX
  5
54B
330
2EC
100
AcDbEntity
  8
0
  6
CONTINUOUS
 62
     7
100
AcDbVertex
100
AcDb2dVertex
 10
8.1278934814
 20
6.9004400077
 30
0.0
  0
VERTEX
  5
54C
330
2EC
100
AcDbEntity
  8
0
  6
CONTINUOUS
 62
     7
100
AcDbVertex
100
AcDb2dVertex
 10
8.1452670379
 20
6.9284076841
 30
0.0
  0
VERTEX
  5
54D
330
2EC
100
AcDbEntity
  8
0
  6
CONTINUOUS
 62
     7
100
AcDbVertex
100
AcDb2dVertex
 10
8.1634293128
 20
6.955756774
 30
0.0
  0
VERTEX
  5
54E
330
2EC
100
AcDbEntity
  8
0
  6
CONTINUOUS
 62
     7
100
AcDbVertex
100
AcDb2dVertex
 10
8.1823305845
 20
6.9824124058
 30
0.0
  0
VERTEX
  5
54F
330
2EC
100
AcDbEntity
  8
0
  6
CONTINUOUS
 62
     7
100
AcDbVertex
100
AcDb2dVertex
 10
8.2019191082
 20
7.0083016061
 30
0.0
  0
SEQEND
  5
550
330
2EC
100
AcDbEntity
  8
0
  6
CONTINUOUS
 62
     7
  0
ARC
  5
2ED
330
1F
100
AcDbEntity
  8
0
  6
CONTINUOUS
 62
     7
100
AcDbCircle
 10
8.6395576006
 20
7.05861654
 30
0.0
 40
0.2183549672803004
100
AcDbArc
 50
58.0249324909
 51
82.5560637965
  0
LINE
  5
2EE
330
1F
100
AcDbEntity
  8
0
  6
CONTINUOUS
 62
     7
100
AcDbLine
 10
7.6231580094
 20
6.4621617605
 30
0.0
 11
7.5350016522
 21
6.5130533423
 31
0.0
  0
POLYLINE
  5
2EF
330
1F
100
AcDbEntity
  8
0
  6
CONTINUOUS
 62
     7
100
AcDb2dPolyline
 66
     1
 10
0.0
 20
0.0
 30
0.0
  0
VERTEX
  5
551
330
2EF
100
AcDbEntity
  8
0
  6
CONTINUOUS
 62
     7
100
AcDbVertex
100
AcDb2dVertex
 10
7.6213007444
 20
6.9991256826
 30
0.0
  0
VERTEX
  5
552
330
2EF
100
AcDbEntity
  8
0
  6
CONTINUOUS
 62
     7
100
AcDbVertex
100
AcDb2dVertex
 10
7.6096967403
 20
6.9690342301
 30
0.0
  0
VERTEX
  5
553
330
2EF
100
AcDbEntity
  8
0
  6
CONTINUOUS
 62
     7
100
AcDbVertex
100
AcDb2dVertex
 10
7.5991700549
 20
6.9388947518
 30
0.0
  0
VERTEX
  5
554
330
2EF
100
AcDbEntity
  8
0
  6
CONTINUOUS
 62
     7
100
AcDbVertex
100
AcDb2dVertex
 10
7.5897496056
 20
6.9087900428
 30
0.0
  0
VERTEX
  5
555
330
2EF
100
AcDbEntity
  8
0
  6
CONTINUOUS
 62
     7
100
AcDbVertex
100
AcDb2dVertex
 10
7.5814612712
 20
6.8788028026
 30
0.0
  0
VERTEX
  5
556
330
2EF
100
AcDbEntity
  8
0
  6
CONTINUOUS
 62
     7
100
AcDbVertex
100
AcDb2dVertex
 10
7.5743278201
 20
6.8490154083
 30
0.0
  0
VERTEX
  5
557
330
2EF
100
AcDbEntity
  8
0
  6
CONTINUOUS
 62
     7
100
AcDbVertex
100
AcDb2dVertex
 10
7.5683688485
 20
6.8195096877
 30
0.0
  0
VERTEX
  5
558
330
2EF
100
AcDbEntity
  8
0
  6
CONTINUOUS
 62
     7
100
AcDbVertex
100
AcDb2dVertex
 10
7.5636007259
 20
6.790366695
 30
0.0
  0
VERTEX
  5
559
330
2EF
100
AcDbEntity
  8
0
  6
CONTINUOUS
 62
     7
100
AcDbVertex
100
AcDb2dVertex
 10
7.5600365509
 20
6.7616664879
 30
0.0
  0
VERTEX
  5
55A
330
2EF
100
AcDbEntity
  8
0
  6
CONTINUOUS
 62
     7
100
AcDbVertex
100
AcDb2dVertex
 10
7.5576861143
 20
6.7334879078
 30
0.0
  0
VERTEX
  5
55B
330
2EF
100
AcDbEntity
  8
0
  6
CONTINUOUS
 62
     7
100
AcDbVertex
100
AcDb2dVertex
 10
7.556555873
 20
6.7059083629
 30
0.0
  0
VERTEX
  5
55C
330
2EF
100
AcDbEntity
  8
0
  6
CONTINUOUS
 62
     7
100
AcDbVertex
100
AcDb2dVertex
 10
7.5566489318
 20
6.6790036162
 30
0.0
  0
VERTEX
  5
55D
330
2EF
100
AcDbEntity
  8
0
  6
CONTINUOUS
 62
     7
100
AcDbVertex
100
AcDb2dVertex
 10
7.5579650352
 20
6.6528475768
 30
0.0
  0
VERTEX
  5
55E
330
2EF
100
AcDbEntity
  8
0
  6
CONTINUOUS
 62
     7
100
AcDbVertex
100
AcDb2dVertex
 10
7.5605005676
 20
6.627512097
 30
0.0
  0
VERTEX
  5
55F
330
2EF
100
AcDbEntity
  8
0
  6
CONTINUOUS
 62
     7
100
AcDbVertex
100
AcDb2dVertex
 10
7.5642485638
 20
6.603066775
 30
0.0
  0
VERTEX
  5
560
330
2EF
100
AcDbEntity
  8
0
  6
CONTINUOUS
 62
     7
100
AcDbVertex
100
AcDb2dVertex
 10
7.5691987279
 20
6.5795787637
 30
0.0
  0
VERTEX
  5
561
330
2EF
100
AcDbEntity
  8
0
  6
CONTINUOUS
 62
     7
100
AcDbVertex
100
AcDb2dVertex
 10
7.5753374613
 20
6.5571125863
 30
0.0
  0
VERTEX
  5
562
330
2EF
100
AcDbEntity
  8
0
  6
CONTINUOUS
 62
     7
100
AcDbVertex
100
AcDb2dVertex
 10
7.5826479006
 20
6.5357299588
 30
0.0
  0
VERTEX
  5
563
330
2EF
100
AcDbEntity
  8
0
  6
CONTINUOUS
 62
     7
100
AcDbVertex
100
AcDb2dVertex
 10
7.5911099635
 20
6.5154896206
 30
0.0
  0
VERTEX
  5
564
330
2EF
100
AcDbEntity
  8
0
  6
CONTINUOUS
 62
     7
100
AcDbVertex
100
AcDb2dVertex
 10
7.6007004042
 20
6.4964471733
 30
0.0
  0
VERTEX
  5
565
330
2EF
100
AcDbEntity
  8
0
  6
CONTINUOUS
 62
     7
100
AcDbVertex
100
AcDb2dVertex
 10
7.6113928772
 20
6.4786549278
 30
0.0
  0
VERTEX
  5
566
330
2EF
100
AcDbEntity
  8
0
  6
CONTINUOUS
 62
     7
100
AcDbVertex
100
AcDb2dVertex
 10
7.6231580094
 20
6.4621617605
 30
0.0
  0
SEQEND
  5
567
330
2EF
100
AcDbEntity
  8
0
  6
CONTINUOUS
 62
     7
  0
LINE
  5
2F0
330
1F
100
AcDbEntity
  8
0
  6
CONTINUOUS
 62
     7
100
AcDbLine
 10
7.5331443872
 20
7.0500172644
 30
0.0
 11
7.6213007444
 21
6.9991256826
 31
0.0
  0
POLYLINE
  5
2F1
330
1F
100
AcDbEntity
  8
0
  6
CONTINUOUS
 62
     7
100
AcDb2dPolyline
 66
     1
 10
0.0
 20
0.0
 30
0.0
  0
VERTEX
  5
568
330
2F1
100
AcDbEntity
  8
0
  6
CONTINUOUS
 62
     7
100
AcDbVertex
100
AcDb2dVertex
 10
8.2286461595
 20
7.5479858108
 30
0.0
  0
VERTEX
  5
569
330
2F1
100
AcDbEntity
  8
0
  6
CONTINUOUS
 62
     7
100
AcDbVertex
100
AcDb2dVertex
 10
8.2188804101
 20
7.5532842389
 30
0.0
  0
VERTEX
  5
56A
330
2F1
100
AcDbEntity
  8
0
  6
CONTINUOUS
 62
     7
100
AcDbVertex
100
AcDb2dVertex
 10
8.201492162
 20
7.5611653601
 30
0.0
  0
VERTEX
  5
56B
330
2F1
100
AcDbEntity
  8
0
  6
CONTINUOUS
 62
     7
100
AcDbVertex
100
AcDb2dVertex
 10
8.1833160758
 20
7.567516907
 30
0.0
  0
VERTEX
  5
56C
330
2F1
100
AcDbEntity
  8
0
  6
CONTINUOUS
 62
     7
100
AcDbVertex
100
AcDb2dVertex
 10
8.1644019111
 20
7.5723214912
 30
0.0
  0
VERTEX
  5
56D
330
2F1
100
AcDbEntity
  8
0
  6
CONTINUOUS
 62
     7
100
AcDbVertex
100
AcDb2dVertex
 10
8.1448014478
 20
7.5755659597
 30
0.0
  0
VERTEX
  5
56E
330
2F1
100
AcDbEntity
  8
0
  6
CONTINUOUS
 62
     7
100
AcDbVertex
100
AcDb2dVertex
 10
8.1245683448
 20
7.5772414302
 30
0.0
  0
VERTEX
  5
56F
330
2F1
100
AcDbEntity
  8
0
  6
CONTINUOUS
 62
     7
100
AcDbVertex
100
AcDb2dVertex
 10
8.1037579927
 20
7.5773433159
 30
0.0
  0
VERTEX
  5
570
330
2F1
100
AcDbEntity
  8
0
  6
CONTINUOUS
 62
     7
100
AcDbVertex
100
AcDb2dVertex
 10
8.0824273626
 20
7.575871338
 30
0.0
  0
VERTEX
  5
571
330
2F1
100
AcDbEntity
  8
0
  6
CONTINUOUS
 62
     7
100
AcDbVertex
100
AcDb2dVertex
 10
8.0606348499
 20
7.5728295261
 30
0.0
  0
VERTEX
  5
572
330
2F1
100
AcDbEntity
  8
0
  6
CONTINUOUS
 62
     7
100
AcDbVertex
100
AcDb2dVertex
 10
8.0384401144
 20
7.5682262076
 30
0.0
  0
VERTEX
  5
573
330
2F1
100
AcDbEntity
  8
0
  6
CONTINUOUS
 62
     7
100
AcDbVertex
100
AcDb2dVertex
 10
8.0159039172
 20
7.5620739847
 30
0.0
  0
VERTEX
  5
574
330
2F1
100
AcDbEntity
  8
0
  6
CONTINUOUS
 62
     7
100
AcDbVertex
100
AcDb2dVertex
 10
7.9930879539
 20
7.5543896998
 30
0.0
  0
VERTEX
  5
575
330
2F1
100
AcDbEntity
  8
0
  6
CONTINUOUS
 62
     7
100
AcDbVertex
100
AcDb2dVertex
 10
7.9700546862
 20
7.5451943898
 30
0.0
  0
VERTEX
  5
576
330
2F1
100
AcDbEntity
  8
0
  6
CONTINUOUS
 62
     7
100
AcDbVertex
100
AcDb2dVertex
 10
7.9468671706
 20
7.534513228
 30
0.0
  0
VERTEX
  5
577
330
2F1
100
AcDbEntity
  8
0
  6
CONTINUOUS
 62
     7
100
AcDbVertex
100
AcDb2dVertex
 10
7.9235888861
 20
7.5223754554
 30
0.0
  0
VERTEX
  5
578
330
2F1
100
AcDbEntity
  8
0
  6
CONTINUOUS
 62
     7
100
AcDbVertex
100
AcDb2dVertex
 10
7.90028356
 20
7.5088143008
 30
0.0
  0
VERTEX
  5
579
330
2F1
100
AcDbEntity
  8
0
  6
CONTINUOUS
 62
     7
100
AcDbVertex
100
AcDb2dVertex
 10
7.8770149936
 20
7.4938668895
 30
0.0
  0
VERTEX
  5
57A
330
2F1
100
AcDbEntity
  8
0
  6
CONTINUOUS
 62
     7
100
AcDbVertex
100
AcDb2dVertex
 10
7.8538468876
 20
7.4775741422
 30
0.0
  0
VERTEX
  5
57B
330
2F1
100
AcDbEntity
  8
0
  6
CONTINUOUS
 62
     7
100
AcDbVertex
100
AcDb2dVertex
 10
7.8308426677
 20
7.4599806622
 30
0.0
  0
VERTEX
  5
57C
330
2F1
100
AcDbEntity
  8
0
  6
CONTINUOUS
 62
     7
100
AcDbVertex
100
AcDb2dVertex
 10
7.8080653109
 20
7.4411346141
 30
0.0
  0
VERTEX
  5
57D
330
2F1
100
AcDbEntity
  8
0
  6
CONTINUOUS
 62
     7
100
AcDbVertex
100
AcDb2dVertex
 10
7.7855771734
 20
7.4210875913
 30
0.0
  0
VERTEX
  5
57E
330
2F1
100
AcDbEntity
  8
0
  6
CONTINUOUS
 62
     7
100
AcDbVertex
100
AcDb2dVertex
 10
7.7634398191
 20
7.3998944751
 30
0.0
  0
VERTEX
  5
57F
330
2F1
100
AcDbEntity
  8
0
  6
CONTINUOUS
 62
     7
100
AcDbVertex
100
AcDb2dVertex
 10
7.7417138521
 20
7.3776132845
 30
0.0
  0
VERTEX
  5
580
330
2F1
100
AcDbEntity
  8
0
  6
CONTINUOUS
 62
     7
100
AcDbVertex
100
AcDb2dVertex
 10
7.72045875
 20
7.3543050171
 30
0.0
  0
VERTEX
  5
581
330
2F1
100
AcDbEntity
  8
0
  6
CONTINUOUS
 62
     7
100
AcDbVertex
100
AcDb2dVertex
 10
7.6997327013
 20
7.3300334824
 30
0.0
  0
VERTEX
  5
582
330
2F1
100
AcDbEntity
  8
0
  6
CONTINUOUS
 62
     7
100
AcDbVertex
100
AcDb2dVertex
 10
7.6795924464
 20
7.3048651267
 30
0.0
  0
VERTEX
  5
583
330
2F1
100
AcDbEntity
  8
0
  6
CONTINUOUS
 62
     7
100
AcDbVertex
100
AcDb2dVertex
 10
7.6600931217
 20
7.2788688518
 30
0.0
  0
VERTEX
  5
584
330
2F1
100
AcDbEntity
  8
0
  6
CONTINUOUS
 62
     7
100
AcDbVertex
100
AcDb2dVertex
 10
7.6412881093
 20
7.2521158258
 30
0.0
  0
VERTEX
  5
585
330
2F1
100
AcDbEntity
  8
0
  6
CONTINUOUS
 62
     7
100
AcDbVertex
100
AcDb2dVertex
 10
7.6232288903
 20
7.2246792887
 30
0.0
  0
VERTEX
  5
586
330
2F1
100
AcDbEntity
  8
0
  6
CONTINUOUS
 62
     7
100
AcDbVertex
100
AcDb2dVertex
 10
7.6059649042
 20
7.1966343514
 30
0.0
  0
VERTEX
  5
587
330
2F1
100
AcDbEntity
  8
0
  6
CONTINUOUS
 62
     7
100
AcDbVertex
100
AcDb2dVertex
 10
7.5895434132
 20
7.1680577907
 30
0.0
  0
VERTEX
  5
588
330
2F1
100
AcDbEntity
  8
0
  6
CONTINUOUS
 62
     7
100
AcDbVertex
100
AcDb2dVertex
 10
7.5740093736
 20
7.1390278386
 30
0.0
  0
VERTEX
  5
589
330
2F1
100
AcDbEntity
  8
0
  6
CONTINUOUS
 62
     7
100
AcDbVertex
100
AcDb2dVertex
 10
7.5594053115
 20
7.1096239684
 30
0.0
  0
VERTEX
  5
58A
330
2F1
100
AcDbEntity
  8
0
  6
CONTINUOUS
 62
     7
100
AcDbVertex
100
AcDb2dVertex
 10
7.5457712077
 20
7.0799266769
 30
0.0
  0
VERTEX
  5
58B
330
2F1
100
AcDbEntity
  8
0
  6
CONTINUOUS
 62
     7
100
AcDbVertex
100
AcDb2dVertex
 10
7.5331443872
 20
7.0500172644
 30
0.0
  0
SEQEND
  5
58C
330
2F1
100
AcDbEntity
  8
0
  6
CONTINUOUS
 62
     7
  0
ARC
  5
2F2
330
1F
100
AcDbEntity
  8
0
  6
CONTINUOUS
 62
     7
100
AcDbCircle
 10
7.7089156279
 20
6.6462813359
 30
0.0
 40
0.2190793674765599
100
AcDbArc
 50
217.4541677769
 51
239.8186854478
  0
SPLINE
  5
2F3
330
1F
100
AcDbEntity
  8
0
  6
CONTINUOUS
 62
     7
100
AcDbSpline
210
0.0
220
0.0
230
1.0
 70
     8
 71
     3
 72
     8
 73
     4
 74
     0
 42
0.00000001
 43
0.00000001
 40
0.0
 40
0.0
 40
0.0
 40
0.0
 40
0.0001060124639956
 40
0.0001060124639956
 40
0.0001060124639956
 40
0.0001060124639956
 10
8.222657549122504
 20
6.996327918811502
 30
0.0
 10
8.223298087761934
 20
6.995095941442361
 30
0.0
 10
8.223938333013136
 20
6.99386384267726
 30
0.0
 10
8.224578280030856
 20
6.99263162122126
 30
0.0
  0
ARC
  5
2F4
330
1F
100
AcDbEntity
  8
0
  6
CONTINUOUS
 62
     7
100
AcDbCircle
 10
8.9434871045
 20
6.4048976097
 30
0.0
 40
0.9285801883550302
100
AcDbArc
 50
140.732757146
 51
177.5053969127
  0
SPLINE
  5
2F5
330
1F
100
AcDbEntity
  8
0
  6
CONTINUOUS
 62
     7
100
AcDbSpline
210
0.0
220
0.0
230
1.0
 70
     8
 71
     3
 72
     8
 73
     4
 74
     0
 42
0.00000001
 43
0.00000001
 40
0.0
 40
0.0
 40
0.0
 40
0.0
 40
0.000618775500976
 40
0.000618775500976
 40
0.000618775500976
 40
0.000618775500976
 10
8.201919108177124
 20
7.008301606092447
 30
0.0
 10
8.208832452427973
 20
7.00431007090684
 30
0.0
 10
8.215745282426365
 20
7.000318832380704
 30
0.0
 10
8.222657549122504
 20
6.996327918811502
 30
0.0
  0
LINE
  5
2F6
330
1F
100
AcDbEntity
  8
0
  6
CONTINUOUS
 62
     7
100
AcDbLine
 10
8.5796904403
 20
7.3260228166
 30
0.0
 11
8.5769079987
 21
7.3114992751
 31
0.0
  0
SPLINE
  5
2F7
330
1F
100
AcDbEntity
  8
0
  6
CONTINUOUS
 62
     7
100
AcDbSpline
210
0.0
220
0.0
230
1.0
 70
     8
 71
     3
 72
     8
 73
     4
 74
     0
 42
0.00000001
 43
0.00000001
 40
0.0
 40
0.0
 40
0.0
 40
0.0
 40
0.0001060124639956
 40
0.0001060124639956
 40
0.0001060124639956
 40
0.0001060124639956
 10
7.52988544029423
 20
7.0518969742498
 30
0.0
 10
7.529991550288316
 20
7.052697780416834
 30
0.0
 10
7.530098205467195
 20
7.053498562573511
 30
0.0
 10
7.530205414219741
 20
7.054299319968415
 30
0.0
  0
ARC
  5
2F8
330
1F
100
AcDbEntity
  8
0
  6
CONTINUOUS
 62
     7
100
AcDbCircle
 10
8.3986148486
 20
6.7255943298
 30
0.0
 40
0.9285375147754631
100
AcDbArc
 50
122.4993002762
 51
159.2676520674
  0
SPLINE
  5
2F9
330
1F
100
AcDbEntity
  8
0
  6
CONTINUOUS
 62
     7
100
AcDbSpline
210
0.0
220
0.0
230
1.0
 70
     8
 71
     3
 72
     8
 73
     4
 74
     0
 42
0.00000001
 43
0.00000001
 40
0.0
 40
0.0
 40
0.0
 40
0.0
 40
0.0006187755009761
 40
0.0006187755009761
 40
0.0006187755009761
 40
0.0006187755009761
 10
7.52988544029423
 20
7.0518969742498
 30
0.0
 10
7.530968817398763
 20
7.051272100902661
 30
0.0
 10
7.532055214687227
 20
7.050645483809916
 30
0.0
 10
7.533144387185159
 20
7.050017264410693
 30
0.0
  0
SPLINE
  5
2FA
330
1F
100
AcDbEntity
  8
0
  6
CONTINUOUS
 62
     7
100
AcDbSpline
210
0.0
220
0.0
230
1.0
 70
     8
 71
     3
 72
     8
 73
     4
 74
     0
 42
0.00000001
 43
0.00000001
 40
0.0
 40
0.0
 40
0.0
 40
0.0
 40
0.0006187755009761
 40
0.0006187755009761
 40
0.0006187755009761
 40
0.0006187755009761
 10
7.618041797528773
 20
7.001005392476074
 30
0.0
 10
7.619125174633307
 20
7.000380519128937
 30
0.0
 10
7.620211571921771
 20
6.99975390203619
 30
0.0
 10
7.621300744419702
 20
6.999125682636968
 30
0.0
  0
ARC
  5
2FB
330
1F
100
AcDbEntity
  8
0
  6
CONTINUOUS
 62
     7
100
AcDbCircle
 10
8.3563407841
 20
6.6943214714
 30
0.0
 40
0.800058213096403
100
AcDbArc
 50
157.4367941423
 51
178.8422883853
  0
LINE
  5
2FC
330
1F
100
AcDbEntity
  8
0
  6
CONTINUOUS
 62
     7
100
AcDbLine
 10
7.6180417975
 20
7.0010053925
 30
0.0
 11
7.5298854403
 21
7.0518969742
 31
0.0
  0
LINE
  5
2FD
330
1F
100
AcDbEntity
  8
0
  6
CONTINUOUS
 62
     7
100
AcDbLine
 10
8.6678467975
 20
7.2751312348
 30
0.0
 11
8.6669050802
 21
7.2702157424
 31
0.0
  0
LINE
  5
2FE
330
1F
100
AcDbEntity
  8
0
  6
CONTINUOUS
 62
     7
100
AcDbLine
 10
7.5350016522
 20
6.5130533423
 30
0.0
 11
7.5332126124
 21
6.5195487959
 31
0.0
  0
LINE
  5
2FF
330
1F
100
AcDbEntity
  8
0
  6
CONTINUOUS
 62
     7
100
AcDbLine
 10
8.2584559106
 20
6.78018875
 30
0.0
 11
8.2584665199
 21
6.7811758464
 31
0.0
  0
LINE
  5
300
330
1F
100
AcDbEntity
  8
0
  6
CONTINUOUS
 62
     7
100
AcDbLine
 10
8.4444694882
 20
6.8160614022
 30
0.0
 11
8.3786020628
 21
6.8262500244
 31
0.0
  0
LINE
  5
301
330
1F
100
AcDbEntity
  8
0
  6
CONTINUOUS
 62
     7
100
AcDbLine
 10
8.3786020628
 20
6.8262500244
 30
0.0
 11
8.3303837607
 21
6.7984141911
 31
0.0
  0
LINE
  5
302
330
1F
100
AcDbEntity
  8
0
  6
CONTINUOUS
 62
     7
100
AcDbLine
 10
8.3303837607
 20
6.7984141911
 30
0.0
 11
8.3480328842
 21
6.7603897357
 31
0.0
  0
LINE
  5
303
330
1F
100
AcDbEntity
  8
0
  6
CONTINUOUS
 62
     7
100
AcDbLine
 10
8.3480328842
 20
6.7603897357
 30
0.0
 11
8.4139003097
 21
6.7502011136
 31
0.0
  0
LINE
  5
304
330
1F
100
AcDbEntity
  8
0
  6
CONTINUOUS
 62
     7
100
AcDbLine
 10
8.4139003097
 20
6.7502011136
 30
0.0
 11
8.4621186117
 21
6.7780369469
 31
0.0
  0
LINE
  5
305
330
1F
100
AcDbEntity
  8
0
  6
CONTINUOUS
 62
     7
100
AcDbLine
 10
8.4621186117
 20
6.7780369469
 30
0.0
 11
8.4444694882
 21
6.8160614022
 31
0.0
  0
LINE
  5
306
330
1F
100
AcDbEntity
  8
0
  6
CONTINUOUS
 62
     7
100
AcDbLine
 10
8.4444694882
 20
6.7678483248
 30
0.0
 11
8.4444694882
 21
6.8160614022
 31
0.0
  0
LINE
  5
307
330
1F
100
AcDbEntity
  8
0
  6
CONTINUOUS
 62
     7
100
AcDbLine
 10
8.3786020628
 20
6.7556611798
 30
0.0
 11
8.3786020628
 21
6.8262500244
 31
0.0
  0
POLYLINE
  5
308
330
1F
100
AcDbEntity
  8
0
  6
CONTINUOUS
 62
     7
100
AcDb2dPolyline
 66
     1
 10
0.0
 20
0.0
 30
0.0
  0
VERTEX
  5
58D
330
308
100
AcDbEntity
  8
0
  6
CONTINUOUS
 62
     7
100
AcDbVertex
100
AcDb2dVertex
 10
8.2216095617
 20
7.5518703836
 30
0.0
  0
VERTEX
  5
58E
330
308
100
AcDbEntity
  8
0
  6
CONTINUOUS
 62
     7
100
AcDbVertex
100
AcDb2dVertex
 10
8.2147523307
 20
7.5560065451
 30
0.0
  0
VERTEX
  5
58F
330
308
100
AcDbEntity
  8
0
  6
CONTINUOUS
 62
     7
100
AcDbVertex
100
AcDb2dVertex
 10
8.1978369223
 20
7.564777887
 30
0.0
  0
VERTEX
  5
590
330
308
100
AcDbEntity
  8
0
  6
CONTINUOUS
 62
     7
100
AcDbVertex
100
AcDb2dVertex
 10
8.1801045927
 20
7.5720299335
 30
0.0
  0
VERTEX
  5
591
330
308
100
AcDbEntity
  8
0
  6
CONTINUOUS
 62
     7
100
AcDbVertex
100
AcDb2dVertex
 10
8.161603945
 20
7.5777428072
 30
0.0
  0
VERTEX
  5
592
330
308
100
AcDbEntity
  8
0
  6
CONTINUOUS
 62
     7
100
AcDbVertex
100
AcDb2dVertex
 10
8.1423856881
 20
7.5819008495
 30
0.0
  0
VERTEX
  5
593
330
308
100
AcDbEntity
  8
0
  6
CONTINUOUS
 62
     7
100
AcDbVertex
100
AcDb2dVertex
 10
8.122502498
 20
7.5844926635
 30
0.0
  0
VERTEX
  5
594
330
308
100
AcDbEntity
  8
0
  6
CONTINUOUS
 62
     7
100
AcDbVertex
100
AcDb2dVertex
 10
8.102008873
 20
7.5855111452
 30
0.0
  0
VERTEX
  5
595
330
308
100
AcDbEntity
  8
0
  6
CONTINUOUS
 62
     7
100
AcDbVertex
100
AcDb2dVertex
 10
8.0809609848
 20
7.5849535031
 30
0.0
  0
VERTEX
  5
596
330
308
100
AcDbEntity
  8
0
  6
CONTINUOUS
 62
     7
100
AcDbVertex
100
AcDb2dVertex
 10
8.0594165242
 20
7.5828212655
 30
0.0
  0
VERTEX
  5
597
330
308
100
AcDbEntity
  8
0
  6
CONTINUOUS
 62
     7
100
AcDbVertex
100
AcDb2dVertex
 10
8.0374345431
 20
7.5791202768
 30
0.0
  0
VERTEX
  5
598
330
308
100
AcDbEntity
  8
0
  6
CONTINUOUS
 62
     7
100
AcDbVertex
100
AcDb2dVertex
 10
8.0150752925
 20
7.5738606812
 30
0.0
  0
VERTEX
  5
599
330
308
100
AcDbEntity
  8
0
  6
CONTINUOUS
 62
     7
100
AcDbVertex
100
AcDb2dVertex
 10
7.9924000576
 20
7.5670568948
 30
0.0
  0
VERTEX
  5
59A
330
308
100
AcDbEntity
  8
0
  6
CONTINUOUS
 62
     7
100
AcDbVertex
100
AcDb2dVertex
 10
7.9694709896
 20
7.5587275664
 30
0.0
  0
VERTEX
  5
59B
330
308
100
AcDbEntity
  8
0
  6
CONTINUOUS
 62
     7
100
AcDbVertex
100
AcDb2dVertex
 10
7.9463509355
 20
7.5488955261
 30
0.0
  0
VERTEX
  5
59C
330
308
100
AcDbEntity
  8
0
  6
CONTINUOUS
 62
     7
100
AcDbVertex
100
AcDb2dVertex
 10
7.9231032658
 20
7.5375877227
 30
0.0
  0
VERTEX
  5
59D
330
308
100
AcDbEntity
  8
0
  6
CONTINUOUS
 62
     7
100
AcDbVertex
100
AcDb2dVertex
 10
7.8997917007
 20
7.5248351502
 30
0.0
  0
VERTEX
  5
59E
330
308
100
AcDbEntity
  8
0
  6
CONTINUOUS
 62
     7
100
AcDbVertex
100
AcDb2dVertex
 10
7.8764801357
 20
7.5106727625
 30
0.0
  0
VERTEX
  5
59F
330
308
100
AcDbEntity
  8
0
  6
CONTINUOUS
 62
     7
100
AcDbVertex
100
AcDb2dVertex
 10
7.853232466
 20
7.4951393778
 30
0.0
  0
VERTEX
  5
5A0
330
308
100
AcDbEntity
  8
0
  6
CONTINUOUS
 62
     7
100
AcDbVertex
100
AcDb2dVertex
 10
7.8301124119
 20
7.4782775719
 30
0.0
  0
VERTEX
  5
5A1
330
308
100
AcDbEntity
  8
0
  6
CONTINUOUS
 62
     7
100
AcDbVertex
100
AcDb2dVertex
 10
7.8071833439
 20
7.460133562
 30
0.0
  0
VERTEX
  5
5A2
330
308
100
AcDbEntity
  8
0
  6
CONTINUOUS
 62
     7
100
AcDbVertex
100
AcDb2dVertex
 10
7.784508109
 20
7.4407570794
 30
0.0
  0
VERTEX
  5
5A3
330
308
100
AcDbEntity
  8
0
  6
CONTINUOUS
 62
     7
100
AcDbVertex
100
AcDb2dVertex
 10
7.7621488584
 20
7.4202012337
 30
0.0
  0
VERTEX
  5
5A4
330
308
100
AcDbEntity
  8
0
  6
CONTINUOUS
 62
     7
100
AcDbVertex
100
AcDb2dVertex
 10
7.7401668773
 20
7.3985223672
 30
0.0
  0
VERTEX
  5
5A5
330
308
100
AcDbEntity
  8
0
  6
CONTINUOUS
 62
     7
100
AcDbVertex
100
AcDb2dVertex
 10
7.7186224167
 20
7.3757799001
 30
0.0
  0
VERTEX
  5
5A6
330
308
100
AcDbEntity
  8
0
  6
CONTINUOUS
 62
     7
100
AcDbVertex
100
AcDb2dVertex
 10
7.6975745285
 20
7.3520361678
 30
0.0
  0
VERTEX
  5
5A7
330
308
100
AcDbEntity
  8
0
  6
CONTINUOUS
 62
     7
100
AcDbVertex
100
AcDb2dVertex
 10
7.6770809035
 20
7.3273562503
 30
0.0
  0
VERTEX
  5
5A8
330
308
100
AcDbEntity
  8
0
  6
CONTINUOUS
 62
     7
100
AcDbVertex
100
AcDb2dVertex
 10
7.6571977134
 20
7.3018077936
 30
0.0
  0
VERTEX
  5
5A9
330
308
100
AcDbEntity
  8
0
  6
CONTINUOUS
 62
     7
100
AcDbVertex
100
AcDb2dVertex
 10
7.6379794565
 20
7.2754608242
 30
0.0
  0
VERTEX
  5
5AA
330
308
100
AcDbEntity
  8
0
  6
CONTINUOUS
 62
     7
100
AcDbVertex
100
AcDb2dVertex
 10
7.6194788087
 20
7.2483875573
 30
0.0
  0
VERTEX
  5
5AB
330
308
100
AcDbEntity
  8
0
  6
CONTINUOUS
 62
     7
100
AcDbVertex
100
AcDb2dVertex
 10
7.6017464792
 20
7.2206621989
 30
0.0
  0
VERTEX
  5
5AC
330
308
100
AcDbEntity
  8
0
  6
CONTINUOUS
 62
     7
100
AcDbVertex
100
AcDb2dVertex
 10
7.5848310708
 20
7.1923607422
 30
0.0
  0
VERTEX
  5
5AD
330
308
100
AcDbEntity
  8
0
  6
CONTINUOUS
 62
     7
100
AcDbVertex
100
AcDb2dVertex
 10
7.5687789477
 20
7.1635607595
 30
0.0
  0
VERTEX
  5
5AE
330
308
100
AcDbEntity
  8
0
  6
CONTINUOUS
 62
     7
100
AcDbVertex
100
AcDb2dVertex
 10
7.5536341075
 20
7.1343411897
 30
0.0
  0
VERTEX
  5
5AF
330
308
100
AcDbEntity
  8
0
  6
CONTINUOUS
 62
     7
100
AcDbVertex
100
AcDb2dVertex
 10
7.5394380612
 20
7.1047821214
 30
0.0
  0
VERTEX
  5
5B0
330
308
100
AcDbEntity
  8
0
  6
CONTINUOUS
 62
     7
100
AcDbVertex
100
AcDb2dVertex
 10
7.5262297192
 20
7.0749645742
 30
0.0
  0
VERTEX
  5
5B1
330
308
100
AcDbEntity
  8
0
  6
CONTINUOUS
 62
     7
100
AcDbVertex
100
AcDb2dVertex
 10
7.5140452846
 20
7.0449702757
 30
0.0
  0
SEQEND
  5
5B2
330
308
100
AcDbEntity
  8
0
  6
CONTINUOUS
 62
     7
  0
LINE
  5
309
330
1F
100
AcDbEntity
  8
0
  6
CONTINUOUS
 62
     7
100
AcDbLine
 10
7.5140452846
 20
7.0449702757
 30
0.0
 11
7.588282217
 21
7.0021142068
 31
0.0
  0
POLYLINE
  5
30A
330
1F
100
AcDbEntity
  8
0
  6
CONTINUOUS
 62
     7
100
AcDb2dPolyline
 66
     1
 10
0.0
 20
0.0
 30
0.0
  0
VERTEX
  5
5B3
330
30A
100
AcDbEntity
  8
0
  6
CONTINUOUS
 62
     7
100
AcDbVertex
100
AcDb2dVertex
 10
7.588282217
 20
7.0021142068
 30
0.0
  0
VERTEX
  5
5B4
330
30A
100
AcDbEntity
  8
0
  6
CONTINUOUS
 62
     7
100
AcDbVertex
100
AcDb2dVertex
 10
7.5771550865
 20
6.9720253694
 30
0.0
  0
VERTEX
  5
5B5
330
30A
100
AcDbEntity
  8
0
  6
CONTINUOUS
 62
     7
100
AcDbVertex
100
AcDb2dVertex
 10
7.5671157588
 20
6.9419244645
 30
0.0
  0
VERTEX
  5
5B6
330
30A
100
AcDbEntity
  8
0
  6
CONTINUOUS
 62
     7
100
AcDbVertex
100
AcDb2dVertex
 10
7.558191751
 20
6.9118939966
 30
0.0
  0
VERTEX
  5
5B7
330
30A
100
AcDbEntity
  8
0
  6
CONTINUOUS
 62
     7
100
AcDbVertex
100
AcDb2dVertex
 10
7.5504075233
 20
6.8820162771
 30
0.0
  0
VERTEX
  5
5B8
330
30A
100
AcDbEntity
  8
0
  6
CONTINUOUS
 62
     7
100
AcDbVertex
100
AcDb2dVertex
 10
7.5437844115
 20
6.8523731987
 30
0.0
  0
VERTEX
  5
5B9
330
30A
100
AcDbEntity
  8
0
  6
CONTINUOUS
 62
     7
100
AcDbVertex
100
AcDb2dVertex
 10
7.5383405692
 20
6.8230460111
 30
0.0
  0
VERTEX
  5
5BA
330
30A
100
AcDbEntity
  8
0
  6
CONTINUOUS
 62
     7
100
AcDbVertex
100
AcDb2dVertex
 10
7.5340909177
 20
6.7941150981
 30
0.0
  0
VERTEX
  5
5BB
330
30A
100
AcDbEntity
  8
0
  6
CONTINUOUS
 62
     7
100
AcDbVertex
100
AcDb2dVertex
 10
7.5310471048
 20
6.7656597572
 30
0.0
  0
VERTEX
  5
5BC
330
30A
100
AcDbEntity
  8
0
  6
CONTINUOUS
 62
     7
100
AcDbVertex
100
AcDb2dVertex
 10
7.5292174735
 20
6.7377579827
 30
0.0
  0
VERTEX
  5
5BD
330
30A
100
AcDbEntity
  8
0
  6
CONTINUOUS
 62
     7
100
AcDbVertex
100
AcDb2dVertex
 10
7.5286070387
 20
6.7104862512
 30
0.0
  0
VERTEX
  5
5BE
330
30A
100
AcDbEntity
  8
0
  6
CONTINUOUS
 62
     7
100
AcDbVertex
100
AcDb2dVertex
 10
7.5292174735
 20
6.6839193128
 30
0.0
  0
VERTEX
  5
5BF
330
30A
100
AcDbEntity
  8
0
  6
CONTINUOUS
 62
     7
100
AcDbVertex
100
AcDb2dVertex
 10
7.5310471048
 20
6.6581299856
 30
0.0
  0
VERTEX
  5
5C0
330
30A
100
AcDbEntity
  8
0
  6
CONTINUOUS
 62
     7
100
AcDbVertex
100
AcDb2dVertex
 10
7.5340909177
 20
6.6331889562
 30
0.0
  0
VERTEX
  5
5C1
330
30A
100
AcDbEntity
  8
0
  6
CONTINUOUS
 62
     7
100
AcDbVertex
100
AcDb2dVertex
 10
7.5383405692
 20
6.6091645865
 30
0.0
  0
VERTEX
  5
5C2
330
30A
100
AcDbEntity
  8
0
  6
CONTINUOUS
 62
     7
100
AcDbVertex
100
AcDb2dVertex
 10
7.5437844115
 20
6.5861227254
 30
0.0
  0
VERTEX
  5
5C3
330
30A
100
AcDbEntity
  8
0
  6
CONTINUOUS
 62
     7
100
AcDbVertex
100
AcDb2dVertex
 10
7.5504075233
 20
6.5641265291
 30
0.0
  0
VERTEX
  5
5C4
330
30A
100
AcDbEntity
  8
0
  6
CONTINUOUS
 62
     7
100
AcDbVertex
100
AcDb2dVertex
 10
7.558191751
 20
6.5432362877
 30
0.0
  0
VERTEX
  5
5C5
330
30A
100
AcDbEntity
  8
0
  6
CONTINUOUS
 62
     7
100
AcDbVertex
100
AcDb2dVertex
 10
7.5671157588
 20
6.5235092598
 30
0.0
  0
VERTEX
  5
5C6
330
30A
100
AcDbEntity
  8
0
  6
CONTINUOUS
 62
     7
100
AcDbVertex
100
AcDb2dVertex
 10
7.5771550865
 20
6.5049995159
 30
0.0
  0
VERTEX
  5
5C7
330
30A
100
AcDbEntity
  8
0
  6
CONTINUOUS
 62
     7
100
AcDbVertex
100
AcDb2dVertex
 10
7.588282217
 20
6.4877577899
 30
0.0
  0
SEQEND
  5
5C8
330
30A
100
AcDbEntity
  8
0
  6
CONTINUOUS
 62
     7
  0
LINE
  5
30B
330
1F
100
AcDbEntity
  8
0
  6
CONTINUOUS
 62
     7
100
AcDbLine
 10
7.588282217
 20
6.4877577899
 30
0.0
 11
7.5001258597
 21
6.5386493717
 31
0.0
  0
ARC
  5
30C
330
1F
100
AcDbEntity
  8
0
  6
CONTINUOUS
 62
     7
100
AcDbCircle
 10
7.6816336291
 20
6.6635695149
 30
0.0
 40
0.2203409007716143
100
AcDbArc
 50
214.5371401547
 51
244.0352286814
  0
POLYLINE
  5
30D
330
1F
100
AcDbEntity
  8
0
  6
CONTINUOUS
 62
     7
100
AcDb2dPolyline
 66
     1
 10
0.0
 20
0.0
 30
0.0
  0
VERTEX
  5
5C9
330
30D
100
AcDbEntity
  8
0
  6
CONTINUOUS
 62
     7
100
AcDbVertex
100
AcDb2dVertex
 10
7.410516493
 20
6.9235778798
 30
0.0
  0
VERTEX
  5
5CA
330
30D
100
AcDbEntity
  8
0
  6
CONTINUOUS
 62
     7
100
AcDbVertex
100
AcDb2dVertex
 10
7.4052358764
 20
6.8940394002
 30
0.0
  0
VERTEX
  5
5CB
330
30D
100
AcDbEntity
  8
0
  6
CONTINUOUS
 62
     7
100
AcDbVertex
100
AcDb2dVertex
 10
7.4011745392
 20
6.8649196395
 30
0.0
  0
VERTEX
  5
5CC
330
30D
100
AcDbEntity
  8
0
  6
CONTINUOUS
 62
     7
100
AcDbVertex
100
AcDb2dVertex
 10
7.3983438245
 20
6.8362999273
 30
0.0
  0
VERTEX
  5
5CD
330
30D
100
AcDbEntity
  8
0
  6
CONTINUOUS
 62
     7
100
AcDbVertex
100
AcDb2dVertex
 10
7.3967516384
 20
6.8082601965
 30
0.0
  0
VERTEX
  5
5CE
330
30D
100
AcDbEntity
  8
0
  6
CONTINUOUS
 62
     7
100
AcDbVertex
100
AcDb2dVertex
 10
7.3964024277
 20
6.7808787606
 30
0.0
  0
VERTEX
  5
5CF
330
30D
100
AcDbEntity
  8
0
  6
CONTINUOUS
 62
     7
100
AcDbVertex
100
AcDb2dVertex
 10
7.3972971677
 20
6.7542320939
 30
0.0
  0
VERTEX
  5
5D0
330
30D
100
AcDbEntity
  8
0
  6
CONTINUOUS
 62
     7
100
AcDbVertex
100
AcDb2dVertex
 10
7.3994333594
 20
6.728394619
 30
0.0
  0
VERTEX
  5
5D1
330
30D
100
AcDbEntity
  8
0
  6
CONTINUOUS
 62
     7
100
AcDbVertex
100
AcDb2dVertex
 10
7.4028050367
 20
6.7034384984
 30
0.0
  0
VERTEX
  5
5D2
330
30D
100
AcDbEntity
  8
0
  6
CONTINUOUS
 62
     7
100
AcDbVertex
100
AcDb2dVertex
 10
7.4074027826
 20
6.6794334328
 30
0.0
  0
VERTEX
  5
5D3
330
30D
100
AcDbEntity
  8
0
  6
CONTINUOUS
 62
     7
100
AcDbVertex
100
AcDb2dVertex
 10
7.4132137559
 20
6.656446467
 30
0.0
  0
VERTEX
  5
5D4
330
30D
100
AcDbEntity
  8
0
  6
CONTINUOUS
 62
     7
100
AcDbVertex
100
AcDb2dVertex
 10
7.4202217269
 20
6.634541802
 30
0.0
  0
VERTEX
  5
5D5
330
30D
100
AcDbEntity
  8
0
  6
CONTINUOUS
 62
     7
100
AcDbVertex
100
AcDb2dVertex
 10
7.4284071229
 20
6.6137806162
 30
0.0
  0
VERTEX
  5
5D6
330
30D
100
AcDbEntity
  8
0
  6
CONTINUOUS
 62
     7
100
AcDbVertex
100
AcDb2dVertex
 10
7.4377470825
 20
6.5942208943
 30
0.0
  0
VERTEX
  5
5D7
330
30D
100
AcDbEntity
  8
0
  6
CONTINUOUS
 62
     7
100
AcDbVertex
100
AcDb2dVertex
 10
7.4482155199
 20
6.5759172653
 30
0.0
  0
VERTEX
  5
5D8
330
30D
100
AcDbEntity
  8
0
  6
CONTINUOUS
 62
     7
100
AcDbVertex
100
AcDb2dVertex
 10
7.4597831972
 20
6.5589208501
 30
0.0
  0
VERTEX
  5
5D9
330
30D
100
AcDbEntity
  8
0
  6
CONTINUOUS
 62
     7
100
AcDbVertex
100
AcDb2dVertex
 10
7.4724178068
 20
6.5432791186
 30
0.0
  0
VERTEX
  5
5DA
330
30D
100
AcDbEntity
  8
0
  6
CONTINUOUS
 62
     7
100
AcDbVertex
100
AcDb2dVertex
 10
7.486084061
 20
6.5290357572
 30
0.0
  0
VERTEX
  5
5DB
330
30D
100
AcDbEntity
  8
0
  6
CONTINUOUS
 62
     7
100
AcDbVertex
100
AcDb2dVertex
 10
7.5007437908
 20
6.5162305467
 30
0.0
  0
VERTEX
  5
5DC
330
30D
100
AcDbEntity
  8
0
  6
CONTINUOUS
 62
     7
100
AcDbVertex
100
AcDb2dVertex
 10
7.5163560525
 20
6.5048992513
 30
0.0
  0
VERTEX
  5
5DD
330
30D
100
AcDbEntity
  8
0
  6
CONTINUOUS
 62
     7
100
AcDbVertex
100
AcDb2dVertex
 10
7.5268590634
 20
6.4984174466
 30
0.0
  0
SEQEND
  5
5DE
330
30D
100
AcDbEntity
  8
0
  6
CONTINUOUS
 62
     7
  0
LINE
  5
30E
330
1F
100
AcDbEntity
  8
0
  6
CONTINUOUS
 62
     7
100
AcDbLine
 10
7.410516493
 20
6.9235778798
 30
0.0
 11
7.3965970681
 21
6.9316133927
 31
0.0
  0
POLYLINE
  5
30F
330
1F
100
AcDbEntity
  8
0
  6
CONTINUOUS
 62
     7
100
AcDb2dPolyline
 66
     1
 10
0.0
 20
0.0
 30
0.0
  0
VERTEX
  5
5DF
330
30F
100
AcDbEntity
  8
0
  6
CONTINUOUS
 62
     7
100
AcDbVertex
100
AcDb2dVertex
 10
7.3965970681
 20
6.9316133927
 30
0.0
  0
VERTEX
  5
5E0
330
30F
100
AcDbEntity
  8
0
  6
CONTINUOUS
 62
     7
100
AcDbVertex
100
AcDb2dVertex
 10
7.3912883845
 20
6.9018985495
 30
0.0
  0
VERTEX
  5
5E1
330
30F
100
AcDbEntity
  8
0
  6
CONTINUOUS
 62
     7
100
AcDbVertex
100
AcDb2dVertex
 10
7.3872137578
 20
6.8726079711
 30
0.0
  0
VERTEX
  5
5E2
330
30F
100
AcDbEntity
  8
0
  6
CONTINUOUS
 62
     7
100
AcDbVertex
100
AcDb2dVertex
 10
7.3843847053
 20
6.8438244506
 30
0.0
  0
VERTEX
  5
5E3
330
30F
100
AcDbEntity
  8
0
  6
CONTINUOUS
 62
     7
100
AcDbVertex
100
AcDb2dVertex
 10
7.3828092237
 20
6.8156293474
 30
0.0
  0
VERTEX
  5
5E4
330
30F
100
AcDbEntity
  8
0
  6
CONTINUOUS
 62
     7
100
AcDbVertex
100
AcDb2dVertex
 10
7.3824917661
 20
6.7881023581
 30
0.0
  0
VERTEX
  5
5E5
330
30F
100
AcDbEntity
  8
0
  6
CONTINUOUS
 62
     7
100
AcDbVertex
100
AcDb2dVertex
 10
7.38343323
 20
6.7613212905
 30
0.0
  0
VERTEX
  5
5E6
330
30F
100
AcDbEntity
  8
0
  6
CONTINUOUS
 62
     7
100
AcDbVertex
100
AcDb2dVertex
 10
7.3856309542
 20
6.7353618441
 30
0.0
  0
VERTEX
  5
5E7
330
30F
100
AcDbEntity
  8
0
  6
CONTINUOUS
 62
     7
100
AcDbVertex
100
AcDb2dVertex
 10
7.3890787266
 20
6.7102973961
 30
0.0
  0
VERTEX
  5
5E8
330
30F
100
AcDbEntity
  8
0
  6
CONTINUOUS
 62
     7
100
AcDbVertex
100
AcDb2dVertex
 10
7.3937668017
 20
6.6861987938
 30
0.0
  0
VERTEX
  5
5E9
330
30F
100
AcDbEntity
  8
0
  6
CONTINUOUS
 62
     7
100
AcDbVertex
100
AcDb2dVertex
 10
7.3996819281
 20
6.6631341542
 30
0.0
  0
VERTEX
  5
5EA
330
30F
100
AcDbEntity
  8
0
  6
CONTINUOUS
 62
     7
100
AcDbVertex
100
AcDb2dVertex
 10
7.4068073862
 20
6.6411686721
 30
0.0
  0
VERTEX
  5
5EB
330
30F
100
AcDbEntity
  8
0
  6
CONTINUOUS
 62
     7
100
AcDbVertex
100
AcDb2dVertex
 10
7.415123035
 20
6.6203644353
 30
0.0
  0
VERTEX
  5
5EC
330
30F
100
AcDbEntity
  8
0
  6
CONTINUOUS
 62
     7
100
AcDbVertex
100
AcDb2dVertex
 10
7.4246053696
 20
6.6007802489
 30
0.0
  0
VERTEX
  5
5ED
330
30F
100
AcDbEntity
  8
0
  6
CONTINUOUS
 62
     7
100
AcDbVertex
100
AcDb2dVertex
 10
7.4352275871
 20
6.5824714699
 30
0.0
  0
VERTEX
  5
5EE
330
30F
100
AcDbEntity
  8
0
  6
CONTINUOUS
 62
     7
100
AcDbVertex
100
AcDb2dVertex
 10
7.4469596628
 20
6.5654898499
 30
0.0
  0
VERTEX
  5
5EF
330
30F
100
AcDbEntity
  8
0
  6
CONTINUOUS
 62
     7
100
AcDbVertex
100
AcDb2dVertex
 10
7.4597684346
 20
6.5498833892
 30
0.0
  0
VERTEX
  5
5F0
330
30F
100
AcDbEntity
  8
0
  6
CONTINUOUS
 62
     7
100
AcDbVertex
100
AcDb2dVertex
 10
7.4736176972
 20
6.5356962011
 30
0.0
  0
VERTEX
  5
5F1
330
30F
100
AcDbEntity
  8
0
  6
CONTINUOUS
 62
     7
100
AcDbVertex
100
AcDb2dVertex
 10
7.4884683043
 20
6.5229683872
 30
0.0
  0
VERTEX
  5
5F2
330
30F
100
AcDbEntity
  8
0
  6
CONTINUOUS
 62
     7
100
AcDbVertex
100
AcDb2dVertex
 10
7.504278279
 20
6.511735924
 30
0.0
  0
VERTEX
  5
5F3
330
30F
100
AcDbEntity
  8
0
  6
CONTINUOUS
 62
     7
100
AcDbVertex
100
AcDb2dVertex
 10
7.5199762363
 20
6.5025683868
 30
0.0
  0
SEQEND
  5
5F4
330
30F
100
AcDbEntity
  8
0
  6
CONTINUOUS
 62
     7
  0
POLYLINE
  5
310
330
1F
100
AcDbEntity
  8
0
  6
CONTINUOUS
 62
     7
100
AcDb2dPolyline
 66
     1
 10
0.0
 20
0.0
 30
0.0
  0
VERTEX
  5
5F5
330
310
100
AcDbEntity
  8
0
  6
CONTINUOUS
 62
     7
100
AcDbVertex
100
AcDb2dVertex
 10
7.2461506627
 20
6.660466957
 30
0.0
  0
VERTEX
  5
5F6
330
310
100
AcDbEntity
  8
0
  6
CONTINUOUS
 62
     7
100
AcDbVertex
100
AcDb2dVertex
 10
7.2404185552
 20
6.6638987221
 30
0.0
  0
VERTEX
  5
5F7
330
310
100
AcDbEntity
  8
0
  6
CONTINUOUS
 62
     7
100
AcDbVertex
100
AcDb2dVertex
 10
7.2246266398
 20
6.6747201252
 30
0.0
  0
VERTEX
  5
5F8
330
310
100
AcDbEntity
  8
0
  6
CONTINUOUS
 62
     7
100
AcDbVertex
100
AcDb2dVertex
 10
7.2097631929
 20
6.6870076367
 30
0.0
  0
VERTEX
  5
5F9
330
310
100
AcDbEntity
  8
0
  6
CONTINUOUS
 62
     7
100
AcDbVertex
100
AcDb2dVertex
 10
7.1958692306
 20
6.7007273491
 30
0.0
  0
VERTEX
  5
5FA
330
310
100
AcDbEntity
  8
0
  6
CONTINUOUS
 62
     7
100
AcDbVertex
100
AcDb2dVertex
 10
7.1829830938
 20
6.7158414024
 30
0.0
  0
VERTEX
  5
5FB
330
310
100
AcDbEntity
  8
0
  6
CONTINUOUS
 62
     7
100
AcDbVertex
100
AcDb2dVertex
 10
7.171140342
 20
6.7323080888
 30
0.0
  0
VERTEX
  5
5FC
330
310
100
AcDbEntity
  8
0
  6
CONTINUOUS
 62
     7
100
AcDbVertex
100
AcDb2dVertex
 10
7.1603736557
 20
6.7500819681
 30
0.0
  0
VERTEX
  5
5FD
330
310
100
AcDbEntity
  8
0
  6
CONTINUOUS
 62
     7
100
AcDbVertex
100
AcDb2dVertex
 10
7.1507127459
 20
6.7691139928
 30
0.0
  0
VERTEX
  5
5FE
330
310
100
AcDbEntity
  8
0
  6
CONTINUOUS
 62
     7
100
AcDbVertex
100
AcDb2dVertex
 10
7.1421842721
 20
6.7893516434
 30
0.0
  0
VERTEX
  5
5FF
330
310
100
AcDbEntity
  8
0
  6
CONTINUOUS
 62
     7
100
AcDbVertex
100
AcDb2dVertex
 10
7.134811769
 20
6.8107390736
 30
0.0
  0
VERTEX
  5
600
330
310
100
AcDbEntity
  8
0
  6
CONTINUOUS
 62
     7
100
AcDbVertex
100
AcDb2dVertex
 10
7.1286155811
 20
6.833217264
 30
0.0
  0
VERTEX
  5
601
330
310
100
AcDbEntity
  8
0
  6
CONTINUOUS
 62
     7
100
AcDbVertex
100
AcDb2dVertex
 10
7.123612807
 20
6.8567241856
 30
0.0
  0
VERTEX
  5
602
330
310
100
AcDbEntity
  8
0
  6
CONTINUOUS
 62
     7
100
AcDbVertex
100
AcDb2dVertex
 10
7.119817252
 20
6.8811949703
 30
0.0
  0
VERTEX
  5
603
330
310
100
AcDbEntity
  8
0
  6
CONTINUOUS
 62
     7
100
AcDbVertex
100
AcDb2dVertex
 10
7.1172393901
 20
6.9065620902
 30
0.0
  0
VERTEX
  5
604
330
310
100
AcDbEntity
  8
0
  6
CONTINUOUS
 62
     7
100
AcDbVertex
100
AcDb2dVertex
 10
7.1158863349
 20
6.932755544
 30
0.0
  0
VERTEX
  5
605
330
310
100
AcDbEntity
  8
0
  6
CONTINUOUS
 62
     7
100
AcDbVertex
100
AcDb2dVertex
 10
7.1157618202
 20
6.9597030501
 30
0.0
  0
VERTEX
  5
606
330
310
100
AcDbEntity
  8
0
  6
CONTINUOUS
 62
     7
100
AcDbVertex
100
AcDb2dVertex
 10
7.1168661896
 20
6.9873302462
 30
0.0
  0
VERTEX
  5
607
330
310
100
AcDbEntity
  8
0
  6
CONTINUOUS
 62
     7
100
AcDbVertex
100
AcDb2dVertex
 10
7.1191963957
 20
7.0155608941
 30
0.0
  0
VERTEX
  5
608
330
310
100
AcDbEntity
  8
0
  6
CONTINUOUS
 62
     7
100
AcDbVertex
100
AcDb2dVertex
 10
7.1227460081
 20
7.0443170906
 30
0.0
  0
VERTEX
  5
609
330
310
100
AcDbEntity
  8
0
  6
CONTINUOUS
 62
     7
100
AcDbVertex
100
AcDb2dVertex
 10
7.1275052315
 20
7.0735194821
 30
0.0
  0
VERTEX
  5
60A
330
310
100
AcDbEntity
  8
0
  6
CONTINUOUS
 62
     7
100
AcDbVertex
100
AcDb2dVertex
 10
7.1334609328
 20
7.1030874838
 30
0.0
  0
VERTEX
  5
60B
330
310
100
AcDbEntity
  8
0
  6
CONTINUOUS
 62
     7
100
AcDbVertex
100
AcDb2dVertex
 10
7.140596677
 20
7.1329395019
 30
0.0
  0
VERTEX
  5
60C
330
310
100
AcDbEntity
  8
0
  6
CONTINUOUS
 62
     7
100
AcDbVertex
100
AcDb2dVertex
 10
7.1488927728
 20
7.1629931589
 30
0.0
  0
VERTEX
  5
60D
330
310
100
AcDbEntity
  8
0
  6
CONTINUOUS
 62
     7
100
AcDbVertex
100
AcDb2dVertex
 10
7.1583263269
 20
7.1931655208
 30
0.0
  0
VERTEX
  5
60E
330
310
100
AcDbEntity
  8
0
  6
CONTINUOUS
 62
     7
100
AcDbVertex
100
AcDb2dVertex
 10
7.1688713072
 20
7.2233733263
 30
0.0
  0
VERTEX
  5
60F
330
310
100
AcDbEntity
  8
0
  6
CONTINUOUS
 62
     7
100
AcDbVertex
100
AcDb2dVertex
 10
7.1804986144
 20
7.2535332159
 30
0.0
  0
VERTEX
  5
610
330
310
100
AcDbEntity
  8
0
  6
CONTINUOUS
 62
     7
100
AcDbVertex
100
AcDb2dVertex
 10
7.1931761628
 20
7.2835619625
 30
0.0
  0
VERTEX
  5
611
330
310
100
AcDbEntity
  8
0
  6
CONTINUOUS
 62
     7
100
AcDbVertex
100
AcDb2dVertex
 10
7.2068689681
 20
7.313376701
 30
0.0
  0
VERTEX
  5
612
330
310
100
AcDbEntity
  8
0
  6
CONTINUOUS
 62
     7
100
AcDbVertex
100
AcDb2dVertex
 10
7.2215392447
 20
7.3428951568
 30
0.0
  0
VERTEX
  5
613
330
310
100
AcDbEntity
  8
0
  6
CONTINUOUS
 62
     7
100
AcDbVertex
100
AcDb2dVertex
 10
7.2371465096
 20
7.3720358727
 30
0.0
  0
VERTEX
  5
614
330
310
100
AcDbEntity
  8
0
  6
CONTINUOUS
 62
     7
100
AcDbVertex
100
AcDb2dVertex
 10
7.2536476941
 20
7.4007184342
 30
0.0
  0
VERTEX
  5
615
330
310
100
AcDbEntity
  8
0
  6
CONTINUOUS
 62
     7
100
AcDbVertex
100
AcDb2dVertex
 10
7.2709972627
 20
7.4288636909
 30
0.0
  0
VERTEX
  5
616
330
310
100
AcDbEntity
  8
0
  6
CONTINUOUS
 62
     7
100
AcDbVertex
100
AcDb2dVertex
 10
7.2891473386
 20
7.4563939751
 30
0.0
  0
VERTEX
  5
617
330
310
100
AcDbEntity
  8
0
  6
CONTINUOUS
 62
     7
100
AcDbVertex
100
AcDb2dVertex
 10
7.3080478364
 20
7.4832333162
 30
0.0
  0
VERTEX
  5
618
330
310
100
AcDbEntity
  8
0
  6
CONTINUOUS
 62
     7
100
AcDbVertex
100
AcDb2dVertex
 10
7.3276465995
 20
7.5093076504
 30
0.0
  0
VERTEX
  5
619
330
310
100
AcDbEntity
  8
0
  6
CONTINUOUS
 62
     7
100
AcDbVertex
100
AcDb2dVertex
 10
7.3478895445
 20
7.5345450246
 30
0.0
  0
VERTEX
  5
61A
330
310
100
AcDbEntity
  8
0
  6
CONTINUOUS
 62
     7
100
AcDbVertex
100
AcDb2dVertex
 10
7.3687208104
 20
7.5588757956
 30
0.0
  0
VERTEX
  5
61B
330
310
100
AcDbEntity
  8
0
  6
CONTINUOUS
 62
     7
100
AcDbVertex
100
AcDb2dVertex
 10
7.3900829128
 20
7.5822328221
 30
0.0
  0
VERTEX
  5
61C
330
310
100
AcDbEntity
  8
0
  6
CONTINUOUS
 62
     7
100
AcDbVertex
100
AcDb2dVertex
 10
7.4119169024
 20
7.6045516495
 30
0.0
  0
VERTEX
  5
61D
330
310
100
AcDbEntity
  8
0
  6
CONTINUOUS
 62
     7
100
AcDbVertex
100
AcDb2dVertex
 10
7.4341625276
 20
7.6257706884
 30
0.0
  0
VERTEX
  5
61E
330
310
100
AcDbEntity
  8
0
  6
CONTINUOUS
 62
     7
100
AcDbVertex
100
AcDb2dVertex
 10
7.4567584009
 20
7.6458313843
 30
0.0
  0
VERTEX
  5
61F
330
310
100
AcDbEntity
  8
0
  6
CONTINUOUS
 62
     7
100
AcDbVertex
100
AcDb2dVertex
 10
7.4796421684
 20
7.6646783792
 30
0.0
  0
VERTEX
  5
620
330
310
100
AcDbEntity
  8
0
  6
CONTINUOUS
 62
     7
100
AcDbVertex
100
AcDb2dVertex
 10
7.5027506817
 20
7.6822596641
 30
0.0
  0
VERTEX
  5
621
330
310
100
AcDbEntity
  8
0
  6
CONTINUOUS
 62
     7
100
AcDbVertex
100
AcDb2dVertex
 10
7.5260201722
 20
7.698526723
 30
0.0
  0
VERTEX
  5
622
330
310
100
AcDbEntity
  8
0
  6
CONTINUOUS
 62
     7
100
AcDbVertex
100
AcDb2dVertex
 10
7.549386427
 20
7.7134346665
 30
0.0
  0
VERTEX
  5
623
330
310
100
AcDbEntity
  8
0
  6
CONTINUOUS
 62
     7
100
AcDbVertex
100
AcDb2dVertex
 10
7.5727849663
 20
7.7269423557
 30
0.0
  0
VERTEX
  5
624
330
310
100
AcDbEntity
  8
0
  6
CONTINUOUS
 62
     7
100
AcDbVertex
100
AcDb2dVertex
 10
7.5961512211
 20
7.7390125157
 30
0.0
  0
VERTEX
  5
625
330
310
100
AcDbEntity
  8
0
  6
CONTINUOUS
 62
     7
100
AcDbVertex
100
AcDb2dVertex
 10
7.6194207115
 20
7.7496118386
 30
0.0
  0
VERTEX
  5
626
330
310
100
AcDbEntity
  8
0
  6
CONTINUOUS
 62
     7
100
AcDbVertex
100
AcDb2dVertex
 10
7.6425292248
 20
7.7587110753
 30
0.0
  0
VERTEX
  5
627
330
310
100
AcDbEntity
  8
0
  6
CONTINUOUS
 62
     7
100
AcDbVertex
100
AcDb2dVertex
 10
7.6654129923
 20
7.7662851161
 30
0.0
  0
VERTEX
  5
628
330
310
100
AcDbEntity
  8
0
  6
CONTINUOUS
 62
     7
100
AcDbVertex
100
AcDb2dVertex
 10
7.6880088657
 20
7.7723130602
 30
0.0
  0
VERTEX
  5
629
330
310
100
AcDbEntity
  8
0
  6
CONTINUOUS
 62
     7
100
AcDbVertex
100
AcDb2dVertex
 10
7.7102544909
 20
7.7767782733
 30
0.0
  0
VERTEX
  5
62A
330
310
100
AcDbEntity
  8
0
  6
CONTINUOUS
 62
     7
100
AcDbVertex
100
AcDb2dVertex
 10
7.7320884804
 20
7.7796684337
 30
0.0
  0
VERTEX
  5
62B
330
310
100
AcDbEntity
  8
0
  6
CONTINUOUS
 62
     7
100
AcDbVertex
100
AcDb2dVertex
 10
7.7534505829
 20
7.7809755657
 30
0.0
  0
VERTEX
  5
62C
330
310
100
AcDbEntity
  8
0
  6
CONTINUOUS
 62
     7
100
AcDbVertex
100
AcDb2dVertex
 10
7.7742818488
 20
7.7806960624
 30
0.0
  0
VERTEX
  5
62D
330
310
100
AcDbEntity
  8
0
  6
CONTINUOUS
 62
     7
100
AcDbVertex
100
AcDb2dVertex
 10
7.7945247938
 20
7.778830695
 30
0.0
  0
VERTEX
  5
62E
330
310
100
AcDbEntity
  8
0
  6
CONTINUOUS
 62
     7
100
AcDbVertex
100
AcDb2dVertex
 10
7.8141235569
 20
7.775384611
 30
0.0
  0
VERTEX
  5
62F
330
310
100
AcDbEntity
  8
0
  6
CONTINUOUS
 62
     7
100
AcDbVertex
100
AcDb2dVertex
 10
7.8330240546
 20
7.7703673201
 30
0.0
  0
VERTEX
  5
630
330
310
100
AcDbEntity
  8
0
  6
CONTINUOUS
 62
     7
100
AcDbVertex
100
AcDb2dVertex
 10
7.8511741306
 20
7.7637926676
 30
0.0
  0
VERTEX
  5
631
330
310
100
AcDbEntity
  8
0
  6
CONTINUOUS
 62
     7
100
AcDbVertex
100
AcDb2dVertex
 10
7.8685236991
 20
7.7556787964
 30
0.0
  0
VERTEX
  5
632
330
310
100
AcDbEntity
  8
0
  6
CONTINUOUS
 62
     7
100
AcDbVertex
100
AcDb2dVertex
 10
7.8760207305
 20
7.7515521379
 30
0.0
  0
SEQEND
  5
633
330
310
100
AcDbEntity
  8
0
  6
CONTINUOUS
 62
     7
  0
SPLINE
  5
311
330
1F
100
AcDbEntity
  8
0
  6
CONTINUOUS
 62
     7
100
AcDbSpline
210
0.0
220
0.0
230
1.0
 70
     8
 71
     3
 72
    20
 73
    16
 74
     0
 42
0.00000001
 43
0.00000001
 40
0.0
 40
0.0
 40
0.0
 40
0.0
 40
0.0689656316626611
 40
0.1399751023430062
 40
0.2089314703121881
 40
0.2798160288904139
 40
0.3502604705259785
 40
0.4224916083547726
 40
0.498160768214119
 40
0.575564345788741
 40
0.6612211626585388
 40
0.7486575549334388
 40
0.8505802036410098
 40
0.9545303145520916
 40
1.0
 40
1.0
 40
1.0
 40
1.0
 10
7.265431781700117
 20
6.697806674362686
 30
0.0
 10
7.270531919130389
 20
6.694718634332343
 30
0.0
 10
7.280883339708363
 20
6.68845103830131
 30
0.0
 10
7.297234176643905
 20
6.676702426690692
 30
0.0
 10
7.313856700970988
 20
6.663586871553536
 30
0.0
 10
7.330289462466723
 20
6.649537227171854
 30
0.0
 10
7.346470410856263
 20
6.63487242468182
 30
0.0
 10
7.362236234473265
 20
6.619990712899159
 30
0.0
 10
7.377467072480138
 20
6.605276194869144
 30
0.0
 10
7.392330586202477
 20
6.590852967589702
 30
0.0
 10
7.40642867387583
 20
6.577404924754331
 30
0.0
 10
7.420198988047497
 20
6.564822566635723
 30
0.0
 10
7.43274561842923
 20
6.554342784154815
 30
0.0
 10
7.442217586393699
 20
6.54723014729474
 30
0.0
 10
7.44625131665854
 20
6.545155326458068
 30
0.0
 10
7.447478814291339
 20
6.544523941239356
 30
0.0
  0
SPLINE
  5
312
330
1F
100
AcDbEntity
  8
0
  6
CONTINUOUS
 62
     7
100
AcDbSpline
210
0.0
220
0.0
230
1.0
 70
     8
 71
     3
 72
    17
 73
    13
 74
     0
 42
0.00000001
 43
0.00000001
 40
0.0
 40
0.0
 40
0.0
 40
0.0
 40
0.1028990941815615
 40
0.2350234832286676
 40
0.3380477561313938
 40
0.4438028014150319
 40
0.5469712954214764
 40
0.6541967344354226
 40
0.7426000326038766
 40
0.8341738822998467
 40
0.9157412196792266
 40
1.0
 40
1.0
 40
1.0
 40
1.0
 10
7.246922034068874
 20
6.661145071001962
 30
0.0
 10
7.24159352252656
 20
6.664833526874345
 30
0.0
 10
7.229423101075723
 20
6.673258030061255
 30
0.0
 10
7.217077593283424
 20
6.68501793986422
 30
0.0
 10
7.208854519749075
 20
6.695911546304868
 30
0.0
 10
7.205693707774142
 20
6.704517642276607
 30
0.0
 10
7.207224350252962
 20
6.711113357674095
 30
0.0
 10
7.213379956428192
 20
6.714557007310488
 30
0.0
 10
7.223302654820489
 20
6.714749239681804
 30
0.0
 10
7.235401255673545
 20
6.711937565260266
 30
0.0
 10
7.249592309477866
 20
6.706443904942779
 30
0.0
 10
7.26009513554142
 20
6.700716736184839
 30
0.0
 10
7.265431781700117
 20
6.697806674362686
 30
0.0
  0
LINE
  5
313
330
1F
100
AcDbEntity
  8
0
  6
CONTINUOUS
 62
     7
100
AcDbLine
 10
7.5302054142
 20
7.05429932
 30
0.0
 11
7.5140452846
 21
7.0449702757
 31
0.0
  0
LINE
  5
314
330
1F
100
AcDbEntity
  8
0
  6
CONTINUOUS
 62
     7
100
AcDbLine
 10
7.588282217
 20
6.4877577899
 30
0.0
 11
7.6058782547
 21
6.4885144842
 31
0.0
  0
LINE
  5
315
330
1F
100
AcDbEntity
  8
0
  6
CONTINUOUS
 62
     7
100
AcDbLine
 10
7.6141910498
 20
7.0032283818
 30
0.0
 11
7.588282217
 21
7.0021142068
 31
0.0
  0
ARC
  5
316
330
1F
100
AcDbEntity
  8
0
  6
CONTINUOUS
 62
     7
100
AcDbCircle
 10
8.0496966828
 20
6.9239404292
 30
0.0
 40
0.9349321727096724
100
AcDbArc
 50
122.5190289647
 51
177.486347568
  0
LINE
  5
317
330
1F
100
AcDbEntity
  8
0
  6
CONTINUOUS
 62
     7
100
AcDbLine
 10
7.4128266825
 20
6.5113046979
 30
0.0
 11
7.4142266505
 21
6.5120806885
 31
0.0
  0
LINE
  5
318
330
1F
100
AcDbEntity
  8
0
  6
CONTINUOUS
 62
     7
100
AcDbLine
 10
7.2966166249
 20
6.6236665547
 30
0.0
 11
7.2966166249
 21
6.6769410803
 31
0.0
  0
LINE
  5
319
330
1F
100
AcDbEntity
  8
0
  6
CONTINUOUS
 62
     7
100
AcDbLine
 10
7.3383748994
 20
6.5717196582
 30
0.0
 11
7.2966166249
 21
6.6236665547
 31
0.0
  0
LINE
  5
31A
330
1F
100
AcDbEntity
  8
0
  6
CONTINUOUS
 62
     7
100
AcDbLine
 10
7.3801331739
 20
6.5754534772
 30
0.0
 11
7.3383748994
 21
6.5717196582
 31
0.0
  0
LINE
  5
31B
330
1F
100
AcDbEntity
  8
0
  6
CONTINUOUS
 62
     7
100
AcDbLine
 10
7.3801331739
 20
6.6026871271
 30
0.0
 11
7.3801331739
 21
6.5754534772
 31
0.0
  0
LINE
  5
31C
330
1F
100
AcDbEntity
  8
0
  6
CONTINUOUS
 62
     7
100
AcDbLine
 10
7.3801331739
 20
6.595826197
 30
0.0
 11
7.3383748994
 21
6.5717196582
 31
0.0
  0
LINE
  5
31D
330
1F
100
AcDbEntity
  8
0
  6
CONTINUOUS
 62
     7
100
AcDbLine
 10
7.3345382197
 20
6.6455582254
 30
0.0
 11
7.2966166249
 21
6.6236665547
 31
0.0
  0
ARC
  5
31E
330
1F
100
AcDbEntity
  8
0
  6
CONTINUOUS
 62
     8
100
AcDbCircle
 10
8.3963170276
 20
6.909474458
 30
0.0
 40
0.1956861942821121
100
AcDbArc
 50
242.4391560342
 51
297.0897161885
  0
POLYLINE
  5
31F
330
1F
100
AcDbEntity
  8
0
  6
CONTINUOUS
 62
     8
100
AcDb2dPolyline
 66
     1
 10
0.0
 20
0.0
 30
0.0
  0
VERTEX
  5
634
330
31F
100
AcDbEntity
  8
0
  6
CONTINUOUS
 62
     8
100
AcDbVertex
100
AcDb2dVertex
 10
8.5221748411
 20
6.801328104
 30
0.0
  0
VERTEX
  5
635
330
31F
100
AcDbEntity
  8
0
  6
CONTINUOUS
 62
     8
100
AcDbVertex
100
AcDb2dVertex
 10
8.5215605177
 20
6.8031624819
 30
0.0
  0
VERTEX
  5
636
330
31F
100
AcDbEntity
  8
0
  6
CONTINUOUS
 62
     8
100
AcDbVertex
100
AcDb2dVertex
 10
8.5177093985
 20
6.8114595916
 30
0.0
  0
VERTEX
  5
637
330
31F
100
AcDbEntity
  8
0
  6
CONTINUOUS
 62
     8
100
AcDbVertex
100
AcDb2dVertex
 10
8.5122157653
 20
6.8194425009
 30
0.0
  0
VERTEX
  5
638
330
31F
100
AcDbEntity
  8
0
  6
CONTINUOUS
 62
     8
100
AcDbVertex
100
AcDb2dVertex
 10
8.5051539101
 20
6.8270032548
 30
0.0
  0
VERTEX
  5
639
330
31F
100
AcDbEntity
  8
0
  6
CONTINUOUS
 62
     8
100
AcDbVertex
100
AcDb2dVertex
 10
8.4966193323
 20
6.834039607
 30
0.0
  0
VERTEX
  5
63A
330
31F
100
AcDbEntity
  8
0
  6
CONTINUOUS
 62
     8
100
AcDbVertex
100
AcDb2dVertex
 10
8.4867274476
 20
6.8404564029
 30
0.0
  0
VERTEX
  5
63B
330
31F
100
AcDbEntity
  8
0
  6
CONTINUOUS
 62
     8
100
AcDbVertex
100
AcDb2dVertex
 10
8.4756120266
 20
6.8461668664
 30
0.0
  0
VERTEX
  5
63C
330
31F
100
AcDbEntity
  8
0
  6
CONTINUOUS
 62
     8
100
AcDbVertex
100
AcDb2dVertex
 10
8.4634233865
 20
6.8510937733
 30
0.0
  0
VERTEX
  5
63D
330
31F
100
AcDbEntity
  8
0
  6
CONTINUOUS
 62
     8
100
AcDbVertex
100
AcDb2dVertex
 10
8.4503263575
 20
6.8551704955
 30
0.0
  0
VERTEX
  5
63E
330
31F
100
AcDbEntity
  8
0
  6
CONTINUOUS
 62
     8
100
AcDbVertex
100
AcDb2dVertex
 10
8.4364980546
 20
6.8583419025
 30
0.0
  0
VERTEX
  5
63F
330
31F
100
AcDbEntity
  8
0
  6
CONTINUOUS
 62
     8
100
AcDbVertex
100
AcDb2dVertex
 10
8.4221254819
 20
6.8605651063
 30
0.0
  0
VERTEX
  5
640
330
31F
100
AcDbEntity
  8
0
  6
CONTINUOUS
 62
     8
100
AcDbVertex
100
AcDb2dVertex
 10
8.4074030037
 20
6.861810042
 30
0.0
  0
VERTEX
  5
641
330
31F
100
AcDbEntity
  8
0
  6
CONTINUOUS
 62
     8
100
AcDbVertex
100
AcDb2dVertex
 10
8.3925297163
 20
6.8620598739
 30
0.0
  0
VERTEX
  5
642
330
31F
100
AcDbEntity
  8
0
  6
CONTINUOUS
 62
     8
100
AcDbVertex
100
AcDb2dVertex
 10
8.3777067554
 20
6.8613112235
 30
0.0
  0
VERTEX
  5
643
330
31F
100
AcDbEntity
  8
0
  6
CONTINUOUS
 62
     8
100
AcDbVertex
100
AcDb2dVertex
 10
8.3631345761
 20
6.859574215
 30
0.0
  0
VERTEX
  5
644
330
31F
100
AcDbEntity
  8
0
  6
CONTINUOUS
 62
     8
100
AcDbVertex
100
AcDb2dVertex
 10
8.3490102422
 20
6.8568723385
 30
0.0
  0
VERTEX
  5
645
330
31F
100
AcDbEntity
  8
0
  6
CONTINUOUS
 62
     8
100
AcDbVertex
100
AcDb2dVertex
 10
8.335524761
 20
6.8532421321
 30
0.0
  0
VERTEX
  5
646
330
31F
100
AcDbEntity
  8
0
  6
CONTINUOUS
 62
     8
100
AcDbVertex
100
AcDb2dVertex
 10
8.3228605005
 20
6.8487326883
 30
0.0
  0
VERTEX
  5
647
330
31F
100
AcDbEntity
  8
0
  6
CONTINUOUS
 62
     8
100
AcDbVertex
100
AcDb2dVertex
 10
8.3111887231
 20
6.8434049895
 30
0.0
  0
VERTEX
  5
648
330
31F
100
AcDbEntity
  8
0
  6
CONTINUOUS
 62
     8
100
AcDbVertex
100
AcDb2dVertex
 10
8.3006672696
 20
6.8373310837
 30
0.0
  0
VERTEX
  5
649
330
31F
100
AcDbEntity
  8
0
  6
CONTINUOUS
 62
     8
100
AcDbVertex
100
AcDb2dVertex
 10
8.2914384247
 20
6.8305931101
 30
0.0
  0
VERTEX
  5
64A
330
31F
100
AcDbEntity
  8
0
  6
CONTINUOUS
 62
     8
100
AcDbVertex
100
AcDb2dVertex
 10
8.2836269925
 20
6.8232821881
 30
0.0
  0
VERTEX
  5
64B
330
31F
100
AcDbEntity
  8
0
  6
CONTINUOUS
 62
     8
100
AcDbVertex
100
AcDb2dVertex
 10
8.2773386093
 20
6.8154971855
 30
0.0
  0
VERTEX
  5
64C
330
31F
100
AcDbEntity
  8
0
  6
CONTINUOUS
 62
     8
100
AcDbVertex
100
AcDb2dVertex
 10
8.2726583148
 20
6.8073433811
 30
0.0
  0
VERTEX
  5
64D
330
31F
100
AcDbEntity
  8
0
  6
CONTINUOUS
 62
     8
100
AcDbVertex
100
AcDb2dVertex
 10
8.2696494018
 20
6.798931041
 30
0.0
  0
VERTEX
  5
64E
330
31F
100
AcDbEntity
  8
0
  6
CONTINUOUS
 62
     8
100
AcDbVertex
100
AcDb2dVertex
 10
8.2683525607
 20
6.7903739278
 30
0.0
  0
VERTEX
  5
64F
330
31F
100
AcDbEntity
  8
0
  6
CONTINUOUS
 62
     8
100
AcDbVertex
100
AcDb2dVertex
 10
8.2687853292
 20
6.7817877618
 30
0.0
  0
VERTEX
  5
650
330
31F
100
AcDbEntity
  8
0
  6
CONTINUOUS
 62
     8
100
AcDbVertex
100
AcDb2dVertex
 10
8.2709418547
 20
6.773288656
 30
0.0
  0
VERTEX
  5
651
330
31F
100
AcDbEntity
  8
0
  6
CONTINUOUS
 62
     8
100
AcDbVertex
100
AcDb2dVertex
 10
8.274792974
 20
6.7649915464
 30
0.0
  0
VERTEX
  5
652
330
31F
100
AcDbEntity
  8
0
  6
CONTINUOUS
 62
     8
100
AcDbVertex
100
AcDb2dVertex
 10
8.2802866072
 20
6.7570086371
 30
0.0
  0
VERTEX
  5
653
330
31F
100
AcDbEntity
  8
0
  6
CONTINUOUS
 62
     8
100
AcDbVertex
100
AcDb2dVertex
 10
8.2873484624
 20
6.7494478832
 30
0.0
  0
VERTEX
  5
654
330
31F
100
AcDbEntity
  8
0
  6
CONTINUOUS
 62
     8
100
AcDbVertex
100
AcDb2dVertex
 10
8.2958830401
 20
6.742411531
 30
0.0
  0
VERTEX
  5
655
330
31F
100
AcDbEntity
  8
0
  6
CONTINUOUS
 62
     8
100
AcDbVertex
100
AcDb2dVertex
 10
8.3057749249
 20
6.7359947351
 30
0.0
  0
VERTEX
  5
656
330
31F
100
AcDbEntity
  8
0
  6
CONTINUOUS
 62
     8
100
AcDbVertex
100
AcDb2dVertex
 10
8.3057749249
 20
6.7359947351
 30
0.0
  0
SEQEND
  5
657
330
31F
100
AcDbEntity
  8
0
  6
CONTINUOUS
 62
     8
  0
ARC
  5
320
330
1F
100
AcDbEntity
  8
0
  6
CONTINUOUS
 62
     8
100
AcDbCircle
 10
8.3259256083
 20
6.7859958521
 30
0.0
 40
0.0677191445762433
100
AcDbArc
 50
184.9193117152
 51
246.4008292424
  0
ARC
  5
321
330
1F
100
AcDbEntity
  8
0
  6
CONTINUOUS
 62
     8
100
AcDbCircle
 10
8.3970794541
 20
6.9163610986
 30
0.0
 40
0.2160594338669604
100
AcDbArc
 50
242.9478109663
 51
288.9987623718
  0
ARC
  5
322
330
1F
100
AcDbEntity
  8
0
  6
CONTINUOUS
 62
     8
100
AcDbCircle
 10
7.4342950173
 20
6.6808991217
 30
0.0
 40
0.184817548966675
100
AcDbArc
 50
172.4056065832
 51
238.7348715746
  0
POLYLINE
  5
323
330
1F
100
AcDbEntity
  8
0
  6
CONTINUOUS
 62
     8
100
AcDb2dPolyline
 66
     1
 10
0.0
 20
0.0
 30
0.0
  0
VERTEX
  5
658
330
323
100
AcDbEntity
  8
0
  6
CONTINUOUS
 62
     8
100
AcDbVertex
100
AcDb2dVertex
 10
7.4276338399
 20
6.5587913349
 30
0.0
  0
VERTEX
  5
659
330
323
100
AcDbEntity
  8
0
  6
CONTINUOUS
 62
     8
100
AcDbVertex
100
AcDb2dVertex
 10
7.4274766231
 20
6.5578205168
 30
0.0
  0
VERTEX
  5
65A
330
323
100
AcDbEntity
  8
0
  6
CONTINUOUS
 62
     8
100
AcDbVertex
100
AcDb2dVertex
 10
7.4250502089
 20
6.5473989688
 30
0.0
  0
VERTEX
  5
65B
330
323
100
AcDbEntity
  8
0
  6
CONTINUOUS
 62
     8
100
AcDbVertex
100
AcDb2dVertex
 10
7.4214516599
 20
6.5380593026
 30
0.0
  0
VERTEX
  5
65C
330
323
100
AcDbEntity
  8
0
  6
CONTINUOUS
 62
     8
100
AcDbVertex
100
AcDb2dVertex
 10
7.4167296402
 20
6.5299278211
 30
0.0
  0
VERTEX
  5
65D
330
323
100
AcDbEntity
  8
0
  6
CONTINUOUS
 62
     8
100
AcDbVertex
100
AcDb2dVertex
 10
7.4109480071
 20
6.5231144886
 30
0.0
  0
VERTEX
  5
65E
330
323
100
AcDbEntity
  8
0
  6
CONTINUOUS
 62
     8
100
AcDbVertex
100
AcDb2dVertex
 10
7.4041849471
 20
6.5177114438
 30
0.0
  0
VERTEX
  5
65F
330
323
100
AcDbEntity
  8
0
  6
CONTINUOUS
 62
     8
100
AcDbVertex
100
AcDb2dVertex
 10
7.3965319192
 20
6.5137917537
 30
0.0
  0
VERTEX
  5
660
330
323
100
AcDbEntity
  8
0
  6
CONTINUOUS
 62
     8
100
AcDbVertex
100
AcDb2dVertex
 10
7.3880924173
 20
6.5114084252
 30
0.0
  0
VERTEX
  5
661
330
323
100
AcDbEntity
  8
0
  6
CONTINUOUS
 62
     8
100
AcDbVertex
100
AcDb2dVertex
 10
7.3789805713
 20
6.5105936889
 30
0.0
  0
VERTEX
  5
662
330
323
100
AcDbEntity
  8
0
  6
CONTINUOUS
 62
     8
100
AcDbVertex
100
AcDb2dVertex
 10
7.3693196033
 20
6.5113585626
 30
0.0
  0
VERTEX
  5
663
330
323
100
AcDbEntity
  8
0
  6
CONTINUOUS
 62
     8
100
AcDbVertex
100
AcDb2dVertex
 10
7.3592401612
 20
6.5136927027
 30
0.0
  0
VERTEX
  5
664
330
323
100
AcDbEntity
  8
0
  6
CONTINUOUS
 62
     8
100
AcDbVertex
100
AcDb2dVertex
 10
7.3488785523
 20
6.517564544
 30
0.0
  0
VERTEX
  5
665
330
323
100
AcDbEntity
  8
0
  6
CONTINUOUS
 62
     8
100
AcDbVertex
100
AcDb2dVertex
 10
7.3383748994
 20
6.5229217265
 30
0.0
  0
SEQEND
  5
666
330
323
100
AcDbEntity
  8
0
  6
CONTINUOUS
 62
     8
  0
ARC
  5
324
330
1F
100
AcDbEntity
  8
0
  6
CONTINUOUS
 62
     8
100
AcDbCircle
 10
7.3840401385
 20
6.560217973
 30
0.0
 40
0.0568192192027481
100
AcDbArc
 50
302.0915007113
 51
348.9940636141
  0
ENDSEC
  0
SECTION
  2
OBJECTS
  0
DICTIONARY
  5
C
330
0
100
AcDbDictionary
  3
ACAD_GROUP
350
D
  3
ACAD_LAYOUT
350
1A
  3
ACAD_MLEADERSTYLE
350
327
  3
ACAD_MLINESTYLE
350
17
  3
ACAD_PLOTSETTINGS
350
19
  3
ACAD_SCALELIST
350
6F
  3
ACAD_VISUALSTYLE
350
2A
  3
ACDBVARIABLEDICTIONARY
350
325
1001
ACAD
1000
TREAT_AS_HARD
1070
     0
  0
DICTIONARY
  5
D
102
{ACAD_REACTORS
330
C
102
}
330
C
100
AcDbDictionary
1001
ACAD
1000
TREAT_AS_HARD
1070
     0
  0
DICTIONARY
  5
1A
102
{ACAD_REACTORS
330
C
102
}
330
C
100
AcDbDictionary
1001
ACAD
1000
TREAT_AS_HARD
1070
     0
  0
DICTIONARY
  5
327
102
{ACAD_REACTORS
330
C
102
}
330
C
100
AcDbDictionary
1001
ACAD
1000
TREAT_AS_HARD
1070
     0
  0
DICTIONARY
  5
17
102
{ACAD_REACTORS
330
C
102
}
330
C
100
AcDbDictionary
  3
STANDARD
350
18
1001
ACAD
1000
TREAT_AS_HARD
1070
     0
  0
DICTIONARY
  5
19
102
{ACAD_REACTORS
330
C
102
}
330
C
100
AcDbDictionary
1001
ACAD
1000
TREAT_AS_HARD
1070
     0
  0
DICTIONARY
  5
6F
102
{ACAD_REACTORS
330
C
102
}
330
C
100
AcDbDictionary
  3
A0
350
70
  3
A1
350
71
  3
A2
350
72
  3
A3
350
73
  3
A4
350
74
  3
A5
350
75
  3
A6
350
76
  3
A7
350
77
  3
A8
350
78
  3
A9
350
79
  3
B0
350
7A
  3
B1
350
7B
  3
B2
350
7C
  3
B3
350
7D
  3
B4
350
7E
  3
B5
350
7F
  3
B6
350
80
  3
B7
350
81
  3
B8
350
82
  3
B9
350
83
  3
C0
350
84
  3
C1
350
85
  3
C2
350
86
  3
C3
350
87
  3
C4
350
88
  3
C5
350
89
  3
C6
350
8A
  3
C7
350
8B
  3
C8
350
8C
  3
C9
350
8D
  3
D0
350
8E
  3
D1
350
8F
  3
D2
350
90
1001
ACAD
1000
TREAT_AS_HARD
1070
     0
  0
DICTIONARY
  5
2A
102
{ACAD_REACTORS
330
C
102
}
330
C
100
AcDbDictionary
  3
2DWIREFRAME
350
2F
  3
3D_HIDDEN
350
31
  3
3DWIREFRAME
350
30
  3
BASIC
350
32
  3
BRIGHTEN
350
36
  3
COLORCHANGE
350
3A
  3
CONCEPTUAL
350
34
  3
DIM
350
35
  3
FACEPATTERN
350
39
  3
FLAT
350
2B
  3
FLATWITHEDGES
350
2C
  3
GOURAUD
350
2D
  3
GOURAUDWITHEDGES
350
2E
  3
LINEPATTERN
350
38
  3
REALISTIC
350
33
  3
THICKEN
350
37
1001
ACAD
1000
TREAT_AS_HARD
1070
     0
  0
DICTIONARY
  5
325
102
{ACAD_REACTORS
330
C
102
}
330
C
100
AcDbDictionary
  3
CANNOSCALE
350
328
  3
DIMASSOC
350
329
  3
HIDETEXT
350
32A
1001
ACAD
1000
TREAT_AS_HARD
1070
     0
  0
MLINESTYLE
  5
18
102
{ACAD_REACTORS
330
17
102
}
330
17
100
AcDbMlineStyle
  2
Standard
 70
     0
  3

 62
   256
 51
90.0
 52
90.0
 71
     2
 49
0.5
 62
   256
  6
BYLAYER
 49
-0.5
 62
   256
  6
BYLAYER
  0
ACAD_PROXY_OBJECT
  5
70
102
{ACAD_REACTORS
330
6F
102
}
330
6F
100
AcDbZombieObject
 90
      499
 91
      502
 93
       41
310
903313A31580
  0
ACAD_PROXY_OBJECT
  5
71
102
{ACAD_REACTORS
330
6F
102
}
330
6F
100
AcDbZombieObject
 90
      499
 91
      502
 93
      105
310
903313A324000000000000004000
  0
ACAD_PROXY_OBJECT
  5
72
102
{ACAD_REACTORS
330
6F
102
}
330
6F
100
AcDbZombieObject
 90
      499
 91
      502
 93
      105
310
903313A344000000000000104000
  0
ACAD_PROXY_OBJECT
  5
73
102
{ACAD_REACTORS
330
6F
102
}
330
6F
100
AcDbZombieObject
 90
      499
 91
      502
 93
      105
310
903313A354000000000000144000
  0
ACAD_PROXY_OBJECT
  5
74
102
{ACAD_REACTORS
330
6F
102
}
330
6F
100
AcDbZombieObject
 90
      499
 91
      502
 93
      105
310
903313A384000000000000204000
  0
ACAD_PROXY_OBJECT
  5
75
102
{ACAD_REACTORS
330
6F
102
}
330
6F
100
AcDbZombieObject
 90
      499
 91
      502
 93
      113
310
904313A31304000000000000244000
  0
ACAD_PROXY_OBJECT
  5
76
102
{ACAD_REACTORS
330
6F
102
}
330
6F
100
AcDbZombieObject
 90
      499
 91
      502
 93
      113
310
904313A31364000000000000304000
  0
ACAD_PROXY_OBJECT
  5
77
102
{ACAD_REACTORS
330
6F
102
}
330
6F
100
AcDbZombieObject
 90
      499
 91
      502
 93
      113
310
904313A32304000000000000344000
  0
ACAD_PROXY_OBJECT
  5
78
102
{ACAD_REACTORS
330
6F
102
}
330
6F
100
AcDbZombieObject
 90
      499
 91
      502
 93
      113
310
904313A333040000000000003E4000
  0
ACAD_PROXY_OBJECT
  5
79
102
{ACAD_REACTORS
330
6F
102
}
330
6F
100
AcDbZombieObject
 90
      499
 91
      502
 93
      113
310
904313A34304000000000000444000
  0
ACAD_PROXY_OBJECT
  5
7A
102
{ACAD_REACTORS
330
6F
102
}
330
6F
100
AcDbZombieObject
 90
      499
 91
      502
 93
      113
310
904313A35304000000000000494000
  0
ACAD_PROXY_OBJECT
  5
7B
102
{ACAD_REACTORS
330
6F
102
}
330
6F
100
AcDbZombieObject
 90
      499
 91
      502
 93
      121
310
905313A3130304000000000000594000
  0
ACAD_PROXY_OBJECT
  5
7C
102
{ACAD_REACTORS
330
6F
102
}
330
6F
100
AcDbZombieObject
 90
      499
 91
      502
 93
      105
310
903323A310000000000000010100
  0
ACAD_PROXY_OBJECT
  5
7D
102
{ACAD_REACTORS
330
6F
102
}
330
6F
100
AcDbZombieObject
 90
      499
 91
      502
 93
      105
310
903343A310000000000000410100
  0
ACAD_PROXY_OBJECT
  5
7E
102
{ACAD_REACTORS
330
6F
102
}
330
6F
100
AcDbZombieObject
 90
      499
 91
      502
 93
      105
310
903383A310000000000000810100
  0
ACAD_PROXY_OBJECT
  5
7F
102
{ACAD_REACTORS
330
6F
102
}
330
6F
100
AcDbZombieObject
 90
      499
 91
      502
 93
      113
310
90431303A310000000000000910100
  0
ACAD_PROXY_OBJECT
  5
80
102
{ACAD_REACTORS
330
6F
102
}
330
6F
100
AcDbZombieObject
 90
      499
 91
      502
 93
      121
310
9053130303A310000000000001650100
  0
ACAD_PROXY_OBJECT
  5
81
102
{ACAD_REACTORS
330
6F
102
}
330
6F
100
AcDbZombieObject
 90
      499
 91
      502
 93
      257
310
90E312F31323822203D2031272D3022000000000000200FC000000000000284000
  0
ACAD_PROXY_OBJECT
  5
82
102
{ACAD_REACTORS
330
6F
102
}
330
6F
100
AcDbZombieObject
 90
      499
 91
      502
 93
      249
310
90D312F363422203D2031272D3022000000000000240FC000000000000284000
  0
ACAD_PROXY_OBJECT
  5
83
102
{ACAD_REACTORS
330
6F
102
}
330
6F
100
AcDbZombieObject
 90
      499
 91
      502
 93
      249
310
90D312F333222203D2031272D3022000000000000280FC000000000000284000
  0
ACAD_PROXY_OBJECT
  5
84
102
{ACAD_REACTORS
330
6F
102
}
330
6F
100
AcDbZombieObject
 90
      499
 91
      502
 93
      249
310
90D312F313622203D2031272D30220000000000002C0FC000000000000284000
  0
ACAD_PROXY_OBJECT
  5
85
102
{ACAD_REACTORS
330
6F
102
}
330
6F
100
AcDbZombieObject
 90
      499
 91
      502
 93
      249
310
90D332F333222203D2031272D30220000000000002E0FC000000000000284000
  0
ACAD_PROXY_OBJECT
  5
86
102
{ACAD_REACTORS
330
6F
102
}
330
6F
100
AcDbZombieObject
 90
      499
 91
      502
 93
      241
310
90C312F3822203D2031272D3022000000000000300FC000000000000284000
  0
ACAD_PROXY_OBJECT
  5
87
102
{ACAD_REACTORS
330
6F
102
}
330
6F
100
AcDbZombieObject
 90
      499
 91
      502
 93
      249
310
90D332F313622203D2031272D3022000000000000320FC000000000000284000
  0
ACAD_PROXY_OBJECT
  5
88
102
{ACAD_REACTORS
330
6F
102
}
330
6F
100
AcDbZombieObject
 90
      499
 91
      502
 93
      241
310
90C312F3422203D2031272D3022000000000000340FC000000000000284000
  0
ACAD_PROXY_OBJECT
  5
89
102
{ACAD_REACTORS
330
6F
102
}
330
6F
100
AcDbZombieObject
 90
      499
 91
      502
 93
      241
310
90C332F3822203D2031272D3022000000000000360FC000000000000284000
  0
ACAD_PROXY_OBJECT
  5
8A
102
{ACAD_REACTORS
330
6F
102
}
330
6F
100
AcDbZombieObject
 90
      499
 91
      502
 93
      241
310
90C312F3222203D2031272D3022000000000000380FC000000000000284000
  0
ACAD_PROXY_OBJECT
  5
8B
102
{ACAD_REACTORS
330
6F
102
}
330
6F
100
AcDbZombieObject
 90
      499
 91
      502
 93
      241
310
90C332F3422203D2031272D30220000000000003A0FC000000000000284000
  0
ACAD_PROXY_OBJECT
  5
8C
102
{ACAD_REACTORS
330
6F
102
}
330
6F
100
AcDbZombieObject
 90
      499
 91
      502
 93
      161
310
90A3122203D2031272D30224000000000000284000
  0
ACAD_PROXY_OBJECT
  5
8D
102
{ACAD_REACTORS
330
6F
102
}
330
6F
100
AcDbZombieObject
 90
      499
 91
      502
 93
      257
310
90E312D312F3222203D2031272D30220000000000003E0FC000000000000284000
  0
ACAD_PROXY_OBJECT
  5
8E
102
{ACAD_REACTORS
330
6F
102
}
330
6F
100
AcDbZombieObject
 90
      499
 91
      502
 93
      225
310
90A3322203D2031272D302200000000000002100000000000000284000
  0
ACAD_PROXY_OBJECT
  5
8F
102
{ACAD_REACTORS
330
6F
102
}
330
6F
100
AcDbZombieObject
 90
      499
 91
      502
 93
      225
310
90A3622203D2031272D302200000000000006100000000000000284000
  0
ACAD_PROXY_OBJECT
  5
90
102
{ACAD_REACTORS
330
6F
102
}
330
6F
100
AcDbZombieObject
 90
      499
 91
      502
 93
      249
310
90D31272D3022203D2031272D30220000000000000A100000000000000284000
  0
ACAD_PROXY_OBJECT
  5
2F
102
{ACAD_REACTORS
330
2A
102
}
330
2A
100
AcDbZombieObject
 90
      499
 91
      501
 93
      436
310
42CC9915DA5C99599C985B595049028333333333333E3BF0000000000000FB0107901411070040501600405405064090741402480A0340
1001
ACAD
1000
AcDbSavedByObjectVersion
1070
     0
  0
ACAD_PROXY_OBJECT
  5
31
102
{ACAD_REACTORS
330
2A
102
}
330
2A
100
AcDbZombieObject
 90
      499
 91
      501
 93
      500
310
424CD108121A5919195B90640502408333333333333E3BF0000000000000FB01079024090700405020000000000001110200405405064090740C02480A0340
1001
ACAD
1000
AcDbSavedByObjectVersion
1070
     0
  0
ACAD_PROXY_OBJECT
  5
30
102
{ACAD_REACTORS
330
2A
102
}
330
2A
100
AcDbZombieObject
 90
      499
 91
      501
 93
      436
310
42CCD915DA5C99599C985B595059028333333333333E3BF0000000000000FB0107901411070040501600405405064090741402480A0340
1001
ACAD
1000
AcDbSavedByObjectVersion
1070
     0
  0
ACAD_PROXY_OBJECT
  5
32
102
{ACAD_REACTORS
330
2A
102
}
330
2A
100
AcDbZombieObject
 90
      499
 91
      501
 93
      388
310
4150985CDA58D07406404333333333333E3BF0000000000000FB0107A41107004050150841D405064090741402480A0350
1001
ACAD
1000
AcDbSavedByObjectVersion
1070
     0
  0
ACAD_PROXY_OBJECT
  5
36
102
{ACAD_REACTORS
330
2A
102
}
330
2A
100
AcDbZombieObject
 90
      499
 91
      501
 93
      428
310
42109C9A59DA1D195B90C409028333333333333E3BF0000000000000FB010790141107004050150841D405064090741402480A029950
1001
ACAD
1000
AcDbSavedByObjectVersion
1070
     0
  0
ACAD_PROXY_OBJECT
  5
3A
102
{ACAD_REACTORS
330
2A
102
}
330
2A
100
AcDbZombieObject
 90
      499
 91
      501
 93
      452
310
42D0DBDB1BDC90DA185B99D95104090240C333333333333E3BF0000000000000FB0108901411070040501508421405064090741402480A0350
1001
ACAD
1000
AcDbSavedByObjectVersion
1070
     0
  0
ACAD_PROXY_OBJECT
  5
34
102
{ACAD_REACTORS
330
2A
102
}
330
2A
100
AcDbZombieObject
 90
      499
 91
      501
 93
      500
310
4290DBDB98D95C1D1D585B10940D028333333333333E3BF0000000000000FB0107902409070040501000000000000111010841D405064090740C02480A0340
1001
ACAD
1000
AcDbSavedByObjectVersion
1070
     0
  0
ACAD_PROXY_OBJECT
  5
35
102
{ACAD_REACTORS
330
2A
102
}
330
2A
100
AcDbZombieObject
 90
      499
 91
      501
 93
      412
310
40D11A5B50B409028333333333333E3BF0000000000000FB010790141107004050150841D405064090741402480A02677FFFFFD0
1001
ACAD
1000
AcDbSavedByObjectVersion
1070
     0
  0
ACAD_PROXY_OBJECT
  5
39
102
{ACAD_REACTORS
330
2A
102
}
330
2A
100
AcDbZombieObject
 90
      499
 91
      501
 93
      444
310
42D19858D95C185D1D195C9B90F409028333333333333E3BF0000000000000FB010790141107004050150841D405064090741402480A0350
1001
ACAD
1000
AcDbSavedByObjectVersion
1070
     0
  0
ACAD_PROXY_OBJECT
  5
2B
102
{ACAD_REACTORS
330
2A
102
}
330
2A
100
AcDbZombieObject
 90
      499
 91
      501
 93
      388
310
41119B185D240901404333333333333E3BF0000000000000F9010740A41107004050150841D405064090741402480A1B50
1001
ACAD
1000
AcDbSavedByObjectVersion
1070
     0
  0
ACAD_PROXY_OBJECT
  5
2C
102
{ACAD_REACTORS
330
2A
102
}
330
2A
100
AcDbZombieObject
 90
      499
 91
      501
 93
      476
310
43519B185D15DA5D1A115919D95CD0140901404333333333333E3BF0000000000000F9010740901411070040501600405405064090741402480A1B50
1001
ACAD
1000
AcDbSavedByObjectVersion
1070
     0
  0
ACAD_PROXY_OBJECT
  5
2D
102
{ACAD_REACTORS
330
2A
102
}
330
2A
100
AcDbZombieObject
 90
      499
 91
      501
 93
      412
310
41D1DBDD5C985D5910240902404333333333333E3BF0000000000000F9010740A411070040501641D405064090741402480A1B50
1001
ACAD
1000
AcDbSavedByObjectVersion
1070
     0
  0
ACAD_PROXY_OBJECT
  5
2E
102
{ACAD_REACTORS
330
2A
102
}
330
2A
100
AcDbZombieObject
 90
      499
 91
      501
 93
      500
310
4411DBDD5C985D5915DA5D1A115919D95CD0340902404333333333333E3BF0000000000000F9010740901411070040501600405405064090741402480A1B50
1001
ACAD
1000
AcDbSavedByObjectVersion
1070
     0
  0
ACAD_PROXY_OBJECT
  5
38
102
{ACAD_REACTORS
330
2A
102
}
330
2A
100
AcDbZombieObject
 90
      499
 91
      501
 93
      444
310
42D31A5B995C185D1D195C9B90E409028333333333333E3BF0000000000000FB010790141107004050750841D405064090741402483A0350
1001
ACAD
1000
AcDbSavedByObjectVersion
1070
     0
  0
ACAD_PROXY_OBJECT
  5
33
102
{ACAD_REACTORS
330
2A
102
}
330
2A
100
AcDbZombieObject
 90
      499
 91
      501
 93
      420
310
425499585B1A5CDD1A58D08409028333333333333E3BF0000000000000FB01079019070040501508421405064090741402480A1B40
1001
ACAD
1000
AcDbSavedByObjectVersion
1070
     0
  0
ACAD_PROXY_OBJECT
  5
37
102
{ACAD_REACTORS
330
2A
102
}
330
2A
100
AcDbZombieObject
 90
      499
 91
      501
 93
      412
310
41D51A1A58DAD95B90D409028333333333333E3BF0000000000000FB010790141107004050150C41D405064090741402480A0350
1001
ACAD
1000
AcDbSavedByObjectVersion
1070
     0
  0
DICTIONARYVAR
  5
328
102
{ACAD_REACTORS
330
325
102
}
330
325
100
DictionaryVariables
280
     0
  1
1:1
  0
DICTIONARYVAR
  5
329
102
{ACAD_REACTORS
330
325
102
}
330
325
100
DictionaryVariables
280
     0
  1
2
  0
DICTIONARYVAR
  5
32A
102
{ACAD_REACTORS
330
325
102
}
330
325
100
DictionaryVariables
280
     0
  1
1
  0
ENDSEC
  0
EOF
