  0
SECTION
  2
HEADER
  9
$ACADVER
  1
AC1012
  9
$DWGCODEPAGE
  3
ansi_1252
  9
$INSBASE
 10
0.0
 20
0.0
 30
0.0
  9
$EXTMIN
 10
0.0
 20
0.0
 30
0.0
  9
$EXTMAX
 10
11.0
 20
8.5
 30
0.0
  9
$LIMMIN
 10
0.0
 20
0.0
  9
$LIMMAX
 10
11.0
 20
8.5
  9
$ORTHOMODE
 70
     0
  9
$REGENMODE
 70
     1
  9
$FILLMODE
 70
     1
  9
$QTEXTMODE
 70
     0
  9
$MIRRTEXT
 70
     1
  9
$DRAGMODE
 70
     2
  9
$LTSCALE
 40
1.0
  9
$OSMODE
 70
    37
  9
$ATTMODE
 70
     1
  9
$TEXTSIZE
 40
0.125
  9
$TRACEWID
 40
0.05
  9
$TEXTSTYLE
  7
STANDARD
  9
$CLAYER
  8
0
  9
$CELTYPE
  6
BYLAYER
  9
$CECOLOR
 62
   256
  9
$CELTSCALE
 40
1.0
  9
$DELOBJ
 70
     1
  9
$DISPSILH
 70
     0
  9
$DIMSCALE
 40
1.0
  9
$DIMASZ
 40
0.13
  9
$DIMEXO
 40
0.05
  9
$DIMDLI
 40
0.38
  9
$DIMRND
 40
0.0
  9
$DIMDLE
 40
0.0
  9
$DIMEXE
 40
0.125
  9
$DIMTP
 40
0.0
  9
$DIMTM
 40
0.0
  9
$DIMTXT
 40
0.125
  9
$DIMCEN
 40
0.09
  9
$DIMTSZ
 40
0.0
  9
$DIMTOL
 70
     0
  9
$DIMLIM
 70
     0
  9
$DIMTIH
 70
     1
  9
$DIMTOH
 70
     1
  9
$DIMSE1
 70
     0
  9
$DIMSE2
 70
     0
  9
$DIMTAD
 70
     0
  9
$DIMZIN
 70
     0
  9
$DIMBLK
  1

  9
$DIMASO
 70
     1
  9
$DIMSHO
 70
     1
  9
$DIMPOST
  1

  9
$DIMAPOST
  1

  9
$DIMALT
 70
     0
  9
$DIMALTD
 70
     2
  9
$DIMALTF
 40
25.4
  9
$DIMLFAC
 40
0.5
  9
$DIMTOFL
 70
     0
  9
$DIMTVP
 40
0.0
  9
$DIMTIX
 70
     0
  9
$DIMSOXD
 70
     0
  9
$DIMSAH
 70
     0
  9
$DIMBLK1
  1

  9
$DIMBLK2
  1

  9
$DIMSTYLE
  2
STANDARD
  9
$DIMCLRD
 70
     0
  9
$DIMCLRE
 70
     0
  9
$DIMCLRT
 70
     0
  9
$DIMTFAC
 40
1.0
  9
$DIMGAP
 40
0.06
  9
$DIMJUST
 70
     0
  9
$DIMSD1
 70
     0
  9
$DIMSD2
 70
     0
  9
$DIMTOLJ
 70
     1
  9
$DIMTZIN
 70
     0
  9
$DIMALTZ
 70
     0
  9
$DIMALTTZ
 70
     0
  9
$DIMFIT
 70
     3
  9
$DIMUPT
 70
     0
  9
$DIMUNIT
 70
     2
  9
$DIMDEC
 70
     3
  9
$DIMTDEC
 70
     3
  9
$DIMALTU
 70
     2
  9
$DIMALTTD
 70
     2
  9
$DIMTXSTY
  7
STANDARD
  9
$DIMAUNIT
 70
     0
  9
$LUNITS
 70
     2
  9
$LUPREC
 70
     2
  9
$SKETCHINC
 40
0.1
  9
$FILLETRAD
 40
0.5
  9
$AUNITS
 70
     0
  9
$AUPREC
 70
     2
  9
$MENU
  1
.
  9
$ELEVATION
 40
0.0
  9
$PELEVATION
 40
0.0
  9
$THICKNESS
 40
0.0
  9
$LIMCHECK
 70
     0
  9
$CHAMFERA
 40
0.5
  9
$CHAMFERB
 40
0.5
  9
$CHAMFERC
 40
1.0
  9
$CHAMFERD
 40
0.0
  9
$SKPOLY
 70
     0
  9
$TDCREATE
 40
2455784.019263299
  9
$TDUPDATE
 40
2455784.01926331
  9
$TDINDWG
 40
0.0000000116
  9
$TDUSRTIMER
 40
0.0000000116
  9
$USRTIMER
 70
     1
  9
$ANGBASE
 50
0.0
  9
$ANGDIR
 70
     0
  9
$PDMODE
 70
     0
  9
$PDSIZE
 40
-1.0
  9
$PLINEWID
 40
0.0
  9
$COORDS
 70
     1
  9
$SPLFRAME
 70
     0
  9
$SPLINETYPE
 70
     6
  9
$SPLINESEGS
 70
     8
  9
$ATTDIA
 70
     0
  9
$ATTREQ
 70
     1
  9
$HANDLING
 70
     1
  9
$HANDSEED
  5
651
  9
$SURFTAB1
 70
     6
  9
$SURFTAB2
 70
     6
  9
$SURFTYPE
 70
     6
  9
$SURFU
 70
     6
  9
$SURFV
 70
     6
  9
$UCSNAME
  2

  9
$UCSORG
 10
0.0
 20
0.0
 30
0.0
  9
$UCSXDIR
 10
1.0
 20
0.0
 30
0.0
  9
$UCSYDIR
 10
0.0
 20
1.0
 30
0.0
  9
$PUCSNAME
  2

  9
$PUCSORG
 10
0.0
 20
0.0
 30
0.0
  9
$PUCSXDIR
 10
1.0
 20
0.0
 30
0.0
  9
$PUCSYDIR
 10
0.0
 20
1.0
 30
0.0
  9
$USERI1
 70
     0
  9
$USERI2
 70
     0
  9
$USERI3
 70
     0
  9
$USERI4
 70
     0
  9
$USERI5
 70
     0
  9
$USERR1
 40
0.0
  9
$USERR2
 40
0.0
  9
$USERR3
 40
0.0
  9
$USERR4
 40
0.0
  9
$USERR5
 40
0.0
  9
$WORLDVIEW
 70
     1
  9
$SHADEDGE
 70
     3
  9
$SHADEDIF
 70
    70
  9
$TILEMODE
 70
     1
  9
$MAXACTVP
 70
    64
  9
$PINSBASE
 10
0.0
 20
0.0
 30
0.0
  9
$PLIMCHECK
 70
     0
  9
$PEXTMIN
 10
1.0000000000E+20
 20
1.0000000000E+20
 30
1.0000000000E+20
  9
$PEXTMAX
 10
-1.0000000000E+20
 20
-1.0000000000E+20
 30
-1.0000000000E+20
  9
$PLIMMIN
 10
0.0
 20
0.0
  9
$PLIMMAX
 10
12.0
 20
9.0
  9
$UNITMODE
 70
     0
  9
$VISRETAIN
 70
     1
  9
$PLINEGEN
 70
     0
  9
$PSLTSCALE
 70
     1
  9
$TREEDEPTH
 70
  3020
  9
$PICKSTYLE
 70
     1
  9
$CMLSTYLE
  2
STANDARD
  9
$CMLJUST
 70
     0
  9
$CMLSCALE
 40
1.0
  9
$SAVEIMAGES
 70
     1
  0
ENDSEC
  0
SECTION
  2
CLASSES
  0
CLASS
  1
ACDBDICTIONARYWDFLT
  2
AcDbDictionaryWithDefault
  3
ObjectDBX Classes
 90
    32768
280
     0
281
     0
  0
CLASS
  1
VISUALSTYLE
  2
AcDbVisualStyle
  3
ObjectDBX Classes
 90
     4095
280
     0
281
     0
  0
CLASS
  1
SCALE
  2
AcDbScale
  3
ObjectDBX Classes
 90
     1153
280
     0
281
     0
  0
CLASS
  1
DICTIONARYVAR
  2
AcDbDictionaryVar
  3
ObjectDBX Classes
 90
        0
280
     0
281
     0
  0
CLASS
  1
XRECORD
  2
AcDbXrecord
  3
AutoCAD 2000
 90
    32768
280
     0
281
     0
  0
CLASS
  1
LWPOLYLINE
  2
AcDbPolyline
  3
AutoCAD 2000
 90
    32768
280
     0
281
     1
  0
CLASS
  1
HATCH
  2
AcDbHatch
  3
AutoCAD 2000
 90
    32768
280
     0
281
     1
  0
CLASS
  1
ACDBPLACEHOLDER
  2
AcDbPlaceHolder
  3
ObjectDBX Classes
 90
        0
280
     0
281
     0
  0
CLASS
  1
LAYOUT
  2
AcDbLayout
  3
ObjectDBX Classes
 90
        0
280
     0
281
     0
  0
ENDSEC
  0
SECTION
  2
TABLES
  0
TABLE
  2
VPORT
  5
8
330
0
100
AcDbSymbolTable
 70
     1
  0
VPORT
  5
29
330
8
100
AcDbSymbolTableRecord
100
AcDbViewportTableRecord
  2
*ACTIVE
 70
     0
 10
0.0
 20
0.0
 11
1.0
 21
1.0
 12
5.5
 22
4.25
 13
0.0
 23
0.0
 14
0.5
 24
0.5
 15
0.5
 25
0.5
 16
0.0
 26
0.0
 36
1.0
 17
0.0
 27
0.0
 37
0.0
 40
8.5
 41
1.2941176471
 42
50.0
 43
0.0
 44
0.0
 50
0.0
 51
0.0
 71
     0
 72
  2000
 73
     1
 74
     3
 75
     0
 76
     0
 77
     0
 78
     0
  0
ENDTAB
  0
TABLE
  2
LTYPE
  5
5
330
0
100
AcDbSymbolTable
 70
     6
  0
LTYPE
  5
14
330
5
100
AcDbSymbolTableRecord
100
AcDbLinetypeTableRecord
  2
BYBLOCK
 70
     0
  3

 72
    65
 73
     0
 40
0.0
  0
LTYPE
  5
15
330
5
100
AcDbSymbolTableRecord
100
AcDbLinetypeTableRecord
  2
BYLAYER
 70
     0
  3

 72
    65
 73
     0
 40
0.0
  0
LTYPE
  5
16
330
5
100
AcDbSymbolTableRecord
100
AcDbLinetypeTableRecord
  2
CONTINUOUS
 70
     0
  3
Solid line
 72
    65
 73
     0
 40
0.0
  0
LTYPE
  5
3B
330
5
100
AcDbSymbolTableRecord
100
AcDbLinetypeTableRecord
  2
HIDDEN
 70
     0
  3
Hidden __ __ __ __ __ __ __ __ __ __ __ __ __ __
 72
    65
 73
     2
 40
0.075
 49
0.05
 74
     0
 49
-0.025
 74
     0
  0
LTYPE
  5
3C
330
5
100
AcDbSymbolTableRecord
100
AcDbLinetypeTableRecord
  2
PHANTOM
 70
     0
  3
Phantom ______  __  __  ______  __  __  ______
 72
    65
 73
     6
 40
0.5
 49
0.25
 74
     0
 49
-0.05
 74
     0
 49
0.05
 74
     0
 49
-0.05
 74
     0
 49
0.05
 74
     0
 49
-0.05
 74
     0
  0
LTYPE
  5
3D
330
5
100
AcDbSymbolTableRecord
100
AcDbLinetypeTableRecord
  2
CENTER
 70
     0
  3
Center ____ _ ____ _ ____ _ ____ _ ____ _ ____
 72
    65
 73
     4
 40
0.4
 49
0.25
 74
     0
 49
-0.05
 74
     0
 49
0.05
 74
     0
 49
-0.05
 74
     0
  0
LTYPE
  5
3E
330
5
100
AcDbSymbolTableRecord
100
AcDbLinetypeTableRecord
  2
CENTERX2
 70
     0
  3
Center (2x) ________  __  ________  __  _____
 72
    65
 73
     4
 40
0.8
 49
0.5
 74
     0
 49
-0.1
 74
     0
 49
0.1
 74
     0
 49
-0.1
 74
     0
  0
LTYPE
  5
3F
330
5
100
AcDbSymbolTableRecord
100
AcDbLinetypeTableRecord
  2
DOT2
 70
     0
  3
Dot (.5x) ........................................
 72
    65
 73
     2
 40
0.025
 49
0.0
 74
     0
 49
-0.025
 74
     0
  0
ENDTAB
  0
TABLE
  2
LAYER
  5
2
330
0
100
AcDbSymbolTable
 70
     2
  0
LAYER
  5
10
330
2
100
AcDbSymbolTableRecord
100
AcDbLayerTableRecord
  2
0
 70
     0
 62
     7
  6
CONTINUOUS
  0
LAYER
  5
40
330
2
100
AcDbSymbolTableRecord
100
AcDbLayerTableRecord
  2
FORMAT
 70
     0
 62
     7
  6
CONTINUOUS
  0
ENDTAB
  0
TABLE
  2
STYLE
  5
3
330
0
100
AcDbSymbolTable
 70
     4
  0
STYLE
  5
11
330
3
100
AcDbSymbolTableRecord
100
AcDbTextStyleTableRecord
  2
STANDARD
 70
     0
 40
0.0
 41
1.0
 50
0.0
 71
     0
 42
0.2
  3
txt
  4

  0
STYLE
  5
6E
330
3
100
AcDbSymbolTableRecord
100
AcDbTextStyleTableRecord
  2
SLDTEXTSTYLE0
 70
     0
 40
0.0
 41
0.75
 50
0.0
 71
     0
 42
0.2
  3
TXT
  4

  0
STYLE
  5
93
330
3
100
AcDbSymbolTableRecord
100
AcDbTextStyleTableRecord
  2
SLDTEXTSTYLE1
 70
     0
 40
0.0
 41
0.6875
 50
0.0
 71
     0
 42
0.2
  3
TXT
  4

  0
STYLE
  5
99
330
3
100
AcDbSymbolTableRecord
100
AcDbTextStyleTableRecord
  2
SLDTEXTSTYLE2
 70
     0
 40
0.0
 41
0.6944444444
 50
0.0
 71
     0
 42
0.2
  3
TXT
  4

  0
ENDTAB
  0
TABLE
  2
VIEW
  5
6
330
0
100
AcDbSymbolTable
 70
     0
  0
ENDTAB
  0
TABLE
  2
UCS
  5
7
330
0
100
AcDbSymbolTable
 70
     0
  0
ENDTAB
  0
TABLE
  2
APPID
  5
9
330
0
100
AcDbSymbolTable
 70
     1
  0
APPID
  5
12
330
9
100
AcDbSymbolTableRecord
100
AcDbRegAppTableRecord
  2
ACAD
 70
     0
  0
ENDTAB
  0
TABLE
  2
DIMSTYLE
  5
A
330
0
100
AcDbSymbolTable
 70
     1
  0
DIMSTYLE
105
27
330
A
100
AcDbSymbolTableRecord
100
AcDbDimStyleTableRecord
  2
STANDARD
 70
     0
  3

  4

  5

  6

  7

 40
1.0
 41
0.18
 42
0.0625
 43
0.38
 44
0.18
 45
0.0
 46
0.0
 47
0.0
 48
0.0
140
0.18
141
0.09
142
0.0
143
25.4
144
1.0
145
0.0
146
1.0
147
0.09
 71
     0
 72
     0
 73
     1
 74
     1
 75
     0
 76
     0
 77
     0
 78
     0
170
     0
171
     2
172
     0
173
     0
174
     0
175
     0
176
     0
177
     0
178
     0
270
     2
271
     4
272
     4
273
     2
274
     2
340
11
275
     0
280
     0
281
     0
282
     0
283
     1
284
     0
285
     0
286
     0
287
     3
288
     0
  0
ENDTAB
  0
TABLE
  2
BLOCK_RECORD
  5
1
330
0
100
AcDbSymbolTable
 70
     4
  0
BLOCK_RECORD
  5
1F
330
1
100
AcDbSymbolTableRecord
100
AcDbBlockTableRecord
  2
*MODEL_SPACE
  0
BLOCK_RECORD
  5
1B
330
1
100
AcDbSymbolTableRecord
100
AcDbBlockTableRecord
  2
*PAPER_SPACE
  0
BLOCK_RECORD
  5
A8
330
1
100
AcDbSymbolTableRecord
100
AcDbBlockTableRecord
  2
SW_NOTE_0
  0
BLOCK_RECORD
  5
AE
330
1
100
AcDbSymbolTableRecord
100
AcDbBlockTableRecord
  2
SW_NOTE_1
  0
BLOCK_RECORD
  5
C2
330
1
100
AcDbSymbolTableRecord
100
AcDbBlockTableRecord
  2
SW_NOTE_2
  0
ENDTAB
  0
ENDSEC
  0
SECTION
  2
BLOCKS
  0
BLOCK
  5
20
330
1F
100
AcDbEntity
  8
0
100
AcDbBlockBegin
  2
*MODEL_SPACE
 70
     0
 10
0.0
 20
0.0
 30
0.0
  3
*MODEL_SPACE
  1

  0
ENDBLK
  5
21
330
1F
100
AcDbEntity
  8
0
100
AcDbBlockEnd
  0
BLOCK
  5
1C
330
1B
100
AcDbEntity
 67
     1
  8
0
100
AcDbBlockBegin
  2
*PAPER_SPACE
 70
     0
 10
0.0
 20
0.0
 30
0.0
  3
*PAPER_SPACE
  1

  0
ENDBLK
  5
1D
330
1B
100
AcDbEntity
 67
     1
  8
0
100
AcDbBlockEnd
  0
BLOCK
  5
A9
330
A8
100
AcDbEntity
  8
0
100
AcDbBlockBegin
  2
SW_NOTE_0
 70
     0
 10
0.0
 20
0.0
 30
0.0
  3
SW_NOTE_0
  1

  0
MTEXT
  5
AB
330
A8
100
AcDbEntity
  8
0
  6
CONTINUOUS
 62
     0
100
AcDbMText
 10
0.0
 20
0.0773440644
 30
0.0
 40
0.06
 41
0.0
 71
     1
 72
     1
  1
INTERPRET GEOMETRIC
  7
SLDTEXTSTYLE0
  0
MTEXT
  5
AC
330
A8
100
AcDbEntity
  8
0
  6
CONTINUOUS
 62
     0
100
AcDbMText
 10
0.0
 20
-0.0220260102
 30
0.0
 40
0.06
 41
0.0
 71
     1
 72
     1
  1
TOLERANCING PER:
  7
SLDTEXTSTYLE0
  0
ENDBLK
  5
AA
330
A8
100
AcDbEntity
  8
0
100
AcDbBlockEnd
  0
BLOCK
  5
AF
330
AE
100
AcDbEntity
  8
0
100
AcDbBlockBegin
  2
SW_NOTE_1
 70
     0
 10
0.0
 20
0.0
 30
0.0
  3
SW_NOTE_1
  1

  0
MTEXT
  5
B1
330
AE
100
AcDbEntity
  8
0
  6
CONTINUOUS
 62
     0
100
AcDbMText
 10
0.0
 20
0.0837894031
 30
0.0
 40
0.065
 41
0.0
 71
     1
 72
     1
  1
DIMENSIONS ARE IN INCHES
  7
SLDTEXTSTYLE0
  0
MTEXT
  5
B2
330
AE
100
AcDbEntity
  8
0
  6
CONTINUOUS
 62
     0
100
AcDbMText
 10
0.0
 20
-0.0205806729
 30
0.0
 40
0.065
 41
0.0
 71
     1
 72
     1
  1
TOLERANCES:
  7
SLDTEXTSTYLE0
  0
MTEXT
  5
B3
330
AE
100
AcDbEntity
  8
0
  6
CONTINUOUS
 62
     0
100
AcDbMText
 10
0.0
 20
-0.1249507489
 30
0.0
 40
0.065
 41
0.0
 71
     1
 72
     1
  1
FRACTIONAL
  7
SLDTEXTSTYLE0
  0
MTEXT
  5
B4
330
AE
100
AcDbEntity
  8
0
  6
CONTINUOUS
 62
     0
100
AcDbMText
 10
0.5175850875
 20
-0.1249507489
 30
0.0
 40
0.065
 41
0.0
 71
     1
 72
     1
  1
%%p
  7
SLDTEXTSTYLE0
  0
MTEXT
  5
B5
330
AE
100
AcDbEntity
  8
0
  6
CONTINUOUS
 62
     0
100
AcDbMText
 10
0.0
 20
-0.2293208248
 30
0.0
 40
0.065
 41
0.0
 71
     1
 72
     1
  1
ANGULAR: MACH
  7
SLDTEXTSTYLE0
  0
MTEXT
  5
B6
330
AE
100
AcDbEntity
  8
0
  6
CONTINUOUS
 62
     0
100
AcDbMText
 10
0.7233732769
 20
-0.2293208248
 30
0.0
 40
0.065
 41
0.0
 71
     1
 72
     1
  1
%%p
  7
SLDTEXTSTYLE0
  0
MTEXT
  5
B7
330
AE
100
AcDbEntity
  8
0
  6
CONTINUOUS
 62
     0
100
AcDbMText
 10
0.7852857683
 20
-0.2293208248
 30
0.0
 40
0.065
 41
0.0
 71
     1
 72
     1
  1
     BEND 
  7
SLDTEXTSTYLE0
  0
MTEXT
  5
B8
330
AE
100
AcDbEntity
  8
0
  6
CONTINUOUS
 62
     0
100
AcDbMText
 10
1.14784136
 20
-0.2293208248
 30
0.0
 40
0.065
 41
0.0
 71
     1
 72
     1
  1
%%p
  7
SLDTEXTSTYLE0
  0
MTEXT
  5
B9
330
AE
100
AcDbEntity
  8
0
  6
CONTINUOUS
 62
     0
100
AcDbMText
 10
0.0
 20
-0.3336909008
 30
0.0
 40
0.065
 41
0.0
 71
     1
 72
     1
  1
TWO PLACE DECIMAL    
  7
SLDTEXTSTYLE0
  0
MTEXT
  5
BA
330
AE
100
AcDbEntity
  8
0
  6
CONTINUOUS
 62
     0
100
AcDbMText
 10
0.9794349188
 20
-0.3336909008
 30
0.0
 40
0.065
 41
0.0
 71
     1
 72
     1
  1
%%p
  7
SLDTEXTSTYLE0
  0
MTEXT
  5
BB
330
AE
100
AcDbEntity
  8
0
  6
CONTINUOUS
 62
     0
100
AcDbMText
 10
0.0
 20
-0.4380609768
 30
0.0
 40
0.065
 41
0.0
 71
     1
 72
     1
  1
THREE PLACE DECIMAL  
  7
SLDTEXTSTYLE0
  0
MTEXT
  5
BC
330
AE
100
AcDbEntity
  8
0
  6
CONTINUOUS
 62
     0
100
AcDbMText
 10
0.9738038639
 20
-0.4380609768
 30
0.0
 40
0.065
 41
0.0
 71
     1
 72
     1
  1
%%p
  7
SLDTEXTSTYLE0
  0
ENDBLK
  5
B0
330
AE
100
AcDbEntity
  8
0
100
AcDbBlockEnd
  0
BLOCK
  5
C3
330
C2
100
AcDbEntity
  8
0
100
AcDbBlockBegin
  2
SW_NOTE_2
 70
     0
 10
0.0
 20
0.0
 30
0.0
  3
SW_NOTE_2
  1

  0
MTEXT
  5
C5
330
C2
100
AcDbEntity
  8
0
  6
CONTINUOUS
 62
     0
100
AcDbMText
 10
0.0
 20
0.0773440644
 30
0.0
 40
0.06
 41
0.0
 71
     1
 72
     1
  1
THE INFORMATION CONTAINED IN THIS
  7
SLDTEXTSTYLE0
  0
MTEXT
  5
C6
330
C2
100
AcDbEntity
  8
0
  6
CONTINUOUS
 62
     0
100
AcDbMText
 10
0.0
 20
-0.0220260102
 30
0.0
 40
0.06
 41
0.0
 71
     1
 72
     1
  1
DRAWING IS THE SOLE PROPERTY OF
  7
SLDTEXTSTYLE0
  0
MTEXT
  5
C7
330
C2
100
AcDbEntity
  8
0
  6
CONTINUOUS
 62
     0
100
AcDbMText
 10
0.0
 20
-0.1213960848
 30
0.0
 40
0.06
 41
0.0
 71
     1
 72
     1
  1
Candy Controls.  ANY 
  7
SLDTEXTSTYLE0
  0
MTEXT
  5
C8
330
C2
100
AcDbEntity
  8
0
  6
CONTINUOUS
 62
     0
100
AcDbMText
 10
0.0
 20
-0.2207661593
 30
0.0
 40
0.06
 41
0.0
 71
     1
 72
     1
  1
REPRODUCTION IN PART OR AS A WHOLE
  7
SLDTEXTSTYLE0
  0
MTEXT
  5
C9
330
C2
100
AcDbEntity
  8
0
  6
CONTINUOUS
 62
     0
100
AcDbMText
 10
0.0
 20
-0.3201362339
 30
0.0
 40
0.06
 41
0.0
 71
     1
 72
     1
  1
WITHOUT THE WRITTEN PERMISSION OF
  7
SLDTEXTSTYLE0
  0
MTEXT
  5
CA
330
C2
100
AcDbEntity
  8
0
  6
CONTINUOUS
 62
     0
100
AcDbMText
 10
0.0
 20
-0.4195063085
 30
0.0
 40
0.06
 41
0.0
 71
     1
 72
     1
  1
Candy Controls IS 
  7
SLDTEXTSTYLE0
  0
MTEXT
  5
CB
330
C2
100
AcDbEntity
  8
0
  6
CONTINUOUS
 62
     0
100
AcDbMText
 10
0.0
 20
-0.518876383
 30
0.0
 40
0.06
 41
0.0
 71
     1
 72
     1
  1
PROHIBITED.
  7
SLDTEXTSTYLE0
  0
ENDBLK
  5
C4
330
C2
100
AcDbEntity
  8
0
100
AcDbBlockEnd
  0
ENDSEC
  0
SECTION
  2
ENTITIES
  0
LINE
  5
41
330
1F
100
AcDbEntity
  8
0
  6
CONTINUOUS
 62
     7
100
AcDbLine
 10
0.329927
 20
8.1920731707
 30
0.0
 11
10.629927
 21
8.1920731707
 31
0.0
  0
LINE
  5
42
330
1F
100
AcDbEntity
  8
0
  6
CONTINUOUS
 62
     7
100
AcDbLine
 10
0.329927
 20
8.1920731707
 30
0.0
 11
0.329927
 21
0.3920731707
 31
0.0
  0
LINE
  5
43
330
1F
100
AcDbEntity
  8
0
  6
CONTINUOUS
 62
     7
100
AcDbLine
 10
10.629927
 20
0.3920731707
 30
0.0
 11
0.329927
 21
0.3920731707
 31
0.0
  0
LINE
  5
44
330
1F
100
AcDbEntity
  8
0
  6
CONTINUOUS
 62
     7
100
AcDbLine
 10
10.629927
 20
0.3920731707
 30
0.0
 11
10.629927
 21
8.1920731707
 31
0.0
  0
LINE
  5
45
330
1F
100
AcDbEntity
  8
0
  6
CONTINUOUS
 62
     7
100
AcDbLine
 10
4.7981841288
 20
0.3920731707
 30
0.0
 11
4.7981841288
 21
2.3564211366
 31
0.0
  0
LINE
  5
46
330
1F
100
AcDbEntity
  8
0
  6
CONTINUOUS
 62
     7
100
AcDbLine
 10
2.8210345579
 20
2.3564211366
 30
0.0
 11
10.629927
 21
2.3564211366
 31
0.0
  0
LINE
  5
47
330
1F
100
AcDbEntity
  8
0
  6
CONTINUOUS
 62
     7
100
AcDbLine
 10
6.1796352514
 20
2.3564211366
 30
0.0
 11
6.1796352514
 21
0.3920731707
 31
0.0
  0
LINE
  5
48
330
1F
100
AcDbEntity
  8
0
  6
CONTINUOUS
 62
     7
100
AcDbLine
 10
7.8712070044
 20
2.3564211366
 30
0.0
 11
7.8712070044
 21
0.3920731707
 31
0.0
  0
LINE
  5
49
330
1F
100
AcDbEntity
  8
0
  6
CONTINUOUS
 62
     7
100
AcDbLine
 10
7.8712070044
 20
0.6049590101
 30
0.0
 11
10.629927
 21
0.6049590101
 31
0.0
  0
LINE
  5
4A
330
1F
100
AcDbEntity
  8
0
  6
CONTINUOUS
 62
     7
100
AcDbLine
 10
7.8712070044
 20
1.1119362457
 30
0.0
 11
10.629927
 21
1.1119362457
 31
0.0
  0
LINE
  5
4B
330
1F
100
AcDbEntity
  8
0
  6
CONTINUOUS
 62
     7
100
AcDbLine
 10
7.8712070044
 20
1.9892703708
 30
0.0
 11
10.629927
 21
1.9892703708
 31
0.0
  0
LINE
  5
4C
330
1F
100
AcDbEntity
  8
0
  6
CONTINUOUS
 62
     7
100
AcDbLine
 10
8.266751752
 20
1.1119362457
 30
0.0
 11
8.266751752
 21
0.6049590101
 31
0.0
  0
LINE
  5
4D
330
1F
100
AcDbEntity
  8
0
  6
CONTINUOUS
 62
     7
100
AcDbLine
 10
8.6943435176
 20
0.6049590101
 30
0.0
 11
8.6943435176
 21
0.3920731707
 31
0.0
  0
LINE
  5
4E
330
1F
100
AcDbEntity
  8
0
  6
CONTINUOUS
 62
     7
100
AcDbLine
 10
10.0579917045
 20
1.1119362457
 30
0.0
 11
10.0579917045
 21
0.6049590101
 31
0.0
  0
LINE
  5
4F
330
1F
100
AcDbEntity
  8
0
  6
CONTINUOUS
 62
     7
100
AcDbLine
 10
9.6662556631
 20
0.6049590101
 30
0.0
 11
9.6662556631
 21
0.3920731707
 31
0.0
  0
LINE
  5
50
330
1F
100
AcDbEntity
  8
0
  6
CONTINUOUS
 62
     7
100
AcDbLine
 10
2.8210345579
 20
0.5883479999
 30
0.0
 11
6.1796352514
 21
0.5883479999
 31
0.0
  0
LINE
  5
51
330
1F
100
AcDbEntity
  8
0
  6
CONTINUOUS
 62
     7
100
AcDbLine
 10
6.1796352514
 20
1.7939211366
 30
0.0
 11
7.8712070044
 21
1.7939211366
 31
0.0
  0
LINE
  5
52
330
1F
100
AcDbEntity
  8
0
  6
CONTINUOUS
 62
     7
100
AcDbLine
 10
6.1796352514
 20
1.9814211366
 30
0.0
 11
7.8712070044
 21
1.9814211366
 31
0.0
  0
LINE
  5
53
330
1F
100
AcDbEntity
  8
0
  6
CONTINUOUS
 62
     7
100
AcDbLine
 10
6.1796352514
 20
2.1689211366
 30
0.0
 11
7.8712070044
 21
2.1689211366
 31
0.0
  0
LINE
  5
54
330
1F
100
AcDbEntity
  8
0
  6
CONTINUOUS
 62
     7
100
AcDbLine
 10
7.8712070044
 20
1.2314211366
 30
0.0
 11
6.1796352514
 21
1.2314211366
 31
0.0
  0
LINE
  5
55
330
1F
100
AcDbEntity
  8
0
  6
CONTINUOUS
 62
     7
100
AcDbLine
 10
7.3921580388
 20
2.3564211366
 30
0.0
 11
7.3921580388
 21
1.2314211366
 31
0.0
  0
LINE
  5
56
330
1F
100
AcDbEntity
  8
0
  6
CONTINUOUS
 62
     7
100
AcDbLine
 10
6.9236308342
 20
2.3564211366
 30
0.0
 11
6.9236308342
 21
1.2314211366
 31
0.0
  0
LINE
  5
57
330
1F
100
AcDbEntity
  8
0
  6
CONTINUOUS
 62
     7
100
AcDbLine
 10
4.7981841288
 20
0.8557965305
 30
0.0
 11
6.1796352514
 21
0.8557965305
 31
0.0
  0
LINE
  5
58
330
1F
100
AcDbEntity
  8
0
  6
CONTINUOUS
 62
     7
100
AcDbLine
 10
4.7981841288
 20
1.1257965305
 30
0.0
 11
6.1796352514
 21
1.1257965305
 31
0.0
  0
LINE
  5
59
330
1F
100
AcDbEntity
  8
0
  6
CONTINUOUS
 62
     7
100
AcDbLine
 10
2.8210345579
 20
0.3920731707
 30
0.0
 11
2.8210345579
 21
2.3564211366
 31
0.0
  0
LINE
  5
5A
330
1F
100
AcDbEntity
  8
0
  6
CONTINUOUS
 62
     7
100
AcDbLine
 10
2.8210345579
 20
1.1064211366
 30
0.0
 11
4.7981841288
 21
1.1064211366
 31
0.0
  0
LINE
  5
5B
330
1F
100
AcDbEntity
  8
0
  6
CONTINUOUS
 62
     7
100
AcDbLine
 10
2.8210345579
 20
1.3564211366
 30
0.0
 11
4.7981841288
 21
1.3564211366
 31
0.0
  0
LINE
  5
5C
330
1F
100
AcDbEntity
  8
0
  6
CONTINUOUS
 62
     7
100
AcDbLine
 10
2.8210345579
 20
1.6064211366
 30
0.0
 11
4.7981841288
 21
1.6064211366
 31
0.0
  0
LINE
  5
5D
330
1F
100
AcDbEntity
  8
0
  6
CONTINUOUS
 62
     7
100
AcDbLine
 10
2.8210345579
 20
1.8564211366
 30
0.0
 11
4.7981841288
 21
1.8564211366
 31
0.0
  0
LINE
  5
5E
330
1F
100
AcDbEntity
  8
0
  6
CONTINUOUS
 62
     7
100
AcDbLine
 10
3.8190146875
 20
2.3564211366
 30
0.0
 11
3.8190146875
 21
0.5883479999
 31
0.0
  0
LINE
  5
5F
330
1F
100
AcDbEntity
  8
0
  6
CONTINUOUS
 62
     7
100
AcDbLine
 10
6.1796352514
 20
2.2020813496
 30
0.0
 11
4.7981841288
 21
2.2020813496
 31
0.0
  0
LINE
  5
60
330
1F
100
AcDbEntity
  8
0
  6
CONTINUOUS
 62
     7
100
AcDbLine
 10
7.8712070044
 20
1.6064211366
 30
0.0
 11
6.1796352514
 21
1.6064211366
 31
0.0
  0
LINE
  5
61
330
1F
100
AcDbEntity
  8
0
  6
CONTINUOUS
 62
     7
100
AcDbLine
 10
7.8712070044
 20
1.4189211366
 30
0.0
 11
6.1796352514
 21
1.4189211366
 31
0.0
  0
LINE
  5
62
330
1F
100
AcDbEntity
  8
0
  6
CONTINUOUS
 62
     7
100
AcDbLine
 10
2.8210345579
 20
2.1064211366
 30
0.0
 11
4.7981841288
 21
2.1064211366
 31
0.0
  0
LINE
  5
63
330
1F
100
AcDbEntity
  8
0
  6
CONTINUOUS
 62
     7
100
AcDbLine
 10
4.7981841288
 20
1.3957965305
 30
0.0
 11
6.1796352514
 21
1.3957965305
 31
0.0
  0
LINE
  5
64
330
1F
100
AcDbEntity
  8
0
  6
CONTINUOUS
 62
     7
100
AcDbLine
 10
2.8210345579
 20
0.8564211366
 30
0.0
 11
4.7981841288
 21
0.8564211366
 31
0.0
  0
LINE
  5
65
330
1F
100
AcDbEntity
  8
0
  6
CONTINUOUS
 62
     7
100
AcDbLine
 10
1.1838252943
 20
0.3920731707
 30
0.0
 11
1.1838252943
 21
1.3064211366
 31
0.0
  0
LINE
  5
66
330
1F
100
AcDbEntity
  8
0
  6
CONTINUOUS
 62
     7
100
AcDbLine
 10
2.8210345579
 20
1.3064211366
 30
0.0
 11
1.1838252943
 21
1.3064211366
 31
0.0
  0
LINE
  5
67
330
1F
100
AcDbEntity
  8
0
  6
CONTINUOUS
 62
     7
100
AcDbLine
 10
8.660927
 20
0.3920731707
 30
0.0
 11
8.660927
 21
0.3072739649
 31
0.0
  0
LINE
  5
68
330
1F
100
AcDbEntity
  8
0
  6
CONTINUOUS
 62
     7
100
AcDbLine
 10
6.692177
 20
0.3920731707
 30
0.0
 11
6.692177
 21
0.3072739649
 31
0.0
  0
LINE
  5
69
330
1F
100
AcDbEntity
  8
0
  6
CONTINUOUS
 62
     7
100
AcDbLine
 10
4.723427
 20
0.3920731707
 30
0.0
 11
4.723427
 21
0.3072739649
 31
0.0
  0
LINE
  5
6A
330
1F
100
AcDbEntity
  8
0
  6
CONTINUOUS
 62
     7
100
AcDbLine
 10
2.754677
 20
0.3920731707
 30
0.0
 11
2.754677
 21
0.3072739649
 31
0.0
  0
LINE
  5
6B
330
1F
100
AcDbEntity
  8
0
  6
CONTINUOUS
 62
     7
100
AcDbLine
 10
2.754677
 20
0.3920731707
 30
0.0
 11
2.7672319738
 21
0.3575
 31
0.0
  0
LINE
  5
6C
330
1F
100
AcDbEntity
  8
0
  6
CONTINUOUS
 62
     7
100
AcDbLine
 10
2.7672319738
 20
0.3575
 30
0.0
 11
2.7414258825
 21
0.3575
 31
0.0
  0
LINE
  5
6D
330
1F
100
AcDbEntity
  8
0
  6
CONTINUOUS
 62
     7
100
AcDbLine
 10
2.7414258825
 20
0.3575
 30
0.0
 11
2.754677
 21
0.3920731707
 31
0.0
  0
MTEXT
  5
91
330
1F
100
AcDbEntity
  8
0
  6
CONTINUOUS
 62
     7
100
AcDbMText
 10
4.9775846961
 20
0.5178452352
 30
0.0
 40
0.0625
 41
0.0
 71
     1
 72
     1
  1
DO NOT SCALE DRAWING
  7
SLDTEXTSTYLE0
  0
MTEXT
  5
92
330
1F
100
AcDbEntity
  8
0
  6
CONTINUOUS
 62
     7
100
AcDbMText
 10
8.5720309477
 20
0.9417064595
 30
0.0
 40
0.125
 41
0.0
 71
     1
 72
     1
  1
CL4-20_CLAMP
  7
SLDTEXTSTYLE0
  0
MTEXT
  5
94
330
1F
100
AcDbEntity
  8
0
  6
CONTINUOUS
 62
     7
100
AcDbMText
 10
9.7571278483
 20
0.5524239532
 30
0.0
 40
0.1
 41
0.0
 71
     1
 72
     1
  1
SHEET 1 OF 1
  7
SLDTEXTSTYLE1
  0
MTEXT
  5
95
330
1F
100
AcDbEntity
  8
0
  6
CONTINUOUS
 62
     7
100
AcDbMText
 10
4.8448077858
 20
2.3132954224
 30
0.0
 40
0.07
 41
0.0
 71
     1
 72
     1
  1
UNLESS OTHERWISE SPECIFIED:
  7
SLDTEXTSTYLE0
  0
MTEXT
  5
96
330
1F
100
AcDbEntity
  8
0
  6
CONTINUOUS
 62
     7
100
AcDbMText
 10
7.9586139647
 20
0.5520987879
 30
0.0
 40
0.1
 41
0.0
 71
     1
 72
     1
  1
SCALE: 2:1
  7
SLDTEXTSTYLE0
  0
MTEXT
  5
97
330
1F
100
AcDbEntity
  8
0
  6
CONTINUOUS
 62
     7
100
AcDbMText
 10
8.7023691647
 20
0.5486763345
 30
0.0
 40
0.1
 41
0.0
 71
     1
 72
     1
  1
WEIGHT: 
  7
SLDTEXTSTYLE0
  0
MTEXT
  5
98
330
1F
100
AcDbEntity
  8
0
  6
CONTINUOUS
 62
     7
100
AcDbMText
 10
10.2277580983
 20
1.081966299
 30
0.0
 40
0.1
 41
0.0
 71
     1
 72
     1
  1
REV
  7
SLDTEXTSTYLE0
  0
MTEXT
  5
9A
330
1F
100
AcDbEntity
  8
0
  6
CONTINUOUS
 62
     7
100
AcDbMText
 10
8.2984570898
 20
1.0858725293
 30
0.0
 40
0.1
 41
0.0
 71
     1
 72
     1
  1
DWG.  NO.
  7
SLDTEXTSTYLE2
  0
MTEXT
  5
9B
330
1F
100
AcDbEntity
  8
0
  6
CONTINUOUS
 62
     7
100
AcDbMText
 10
7.9598482632
 20
0.9442140768
 30
0.0
 40
0.25
 41
0.0
 71
     1
 72
     1
  1
A
  7
SLDTEXTSTYLE0
  0
MTEXT
  5
9C
330
1F
100
AcDbEntity
  8
0
  6
CONTINUOUS
 62
     7
100
AcDbMText
 10
7.9519581822
 20
1.0872713483
 30
0.0
 40
0.1
 41
0.0
 71
     1
 72
     1
  1
SIZE
  7
SLDTEXTSTYLE0
  0
MTEXT
  5
9D
330
1F
100
AcDbEntity
  8
0
  6
CONTINUOUS
 62
     7
100
AcDbMText
 10
7.9170704177
 20
1.9547881128
 30
0.0
 40
0.1
 41
0.0
 71
     1
 72
     1
  1
TITLE:
  7
SLDTEXTSTYLE0
  0
MTEXT
  5
9E
330
1F
100
AcDbEntity
  8
0
  6
CONTINUOUS
 62
     7
100
AcDbMText
 10
7.0363774929
 20
2.2906161274
 30
0.0
 40
0.065
 41
0.0
 71
     1
 72
     1
  1
NAME
  7
SLDTEXTSTYLE0
  0
MTEXT
  5
9F
330
1F
100
AcDbEntity
  8
0
  6
CONTINUOUS
 62
     7
100
AcDbMText
 10
7.5281510634
 20
2.2888799118
 30
0.0
 40
0.065
 41
0.0
 71
     1
 72
     1
  1
DATE
  7
SLDTEXTSTYLE0
  0
MTEXT
  5
A0
330
1F
100
AcDbEntity
  8
0
  6
CONTINUOUS
 62
     7
100
AcDbMText
 10
6.2277147029
 20
1.1876913145
 30
0.0
 40
0.065
 41
0.0
 71
     1
 72
     1
  1
COMMENTS:
  7
SLDTEXTSTYLE0
  0
MTEXT
  5
A1
330
1F
100
AcDbEntity
  8
0
  6
CONTINUOUS
 62
     7
100
AcDbMText
 10
6.2268411461
 20
1.3536101679
 30
0.0
 40
0.065
 41
0.0
 71
     1
 72
     1
  1
Q.A.
  7
SLDTEXTSTYLE0
  0
MTEXT
  5
A2
330
1F
100
AcDbEntity
  8
0
  6
CONTINUOUS
 62
     7
100
AcDbMText
 10
6.2284654509
 20
1.5395328424
 30
0.0
 40
0.065
 41
0.0
 71
     1
 72
     1
  1
MFG APPR.
  7
SLDTEXTSTYLE0
  0
MTEXT
  5
A3
330
1F
100
AcDbEntity
  8
0
  6
CONTINUOUS
 62
     7
100
AcDbMText
 10
6.2235171344
 20
1.7267501785
 30
0.0
 40
0.065
 41
0.0
 71
     1
 72
     1
  1
ENG APPR.
  7
SLDTEXTSTYLE0
  0
MTEXT
  5
A4
330
1F
100
AcDbEntity
  8
0
  6
CONTINUOUS
 62
     7
100
AcDbMText
 10
6.2264103951
 20
1.9092699088
 30
0.0
 40
0.065
 41
0.0
 71
     1
 72
     1
  1
CHECKED
  7
SLDTEXTSTYLE0
  0
MTEXT
  5
A5
330
1F
100
AcDbEntity
  8
0
  6
CONTINUOUS
 62
     7
100
AcDbMText
 10
6.2242794356
 20
2.1016301232
 30
0.0
 40
0.065
 41
0.0
 71
     1
 72
     1
  1
DRAWN
  7
SLDTEXTSTYLE0
  0
MTEXT
  5
A6
330
1F
100
AcDbEntity
  8
0
  6
CONTINUOUS
 62
     7
100
AcDbMText
 10
4.8208600979
 20
0.834523235
 30
0.0
 40
0.06
 41
0.0
 71
     1
 72
     1
  1
FINISH
  7
SLDTEXTSTYLE0
  0
MTEXT
  5
A7
330
1F
100
AcDbEntity
  8
0
  6
CONTINUOUS
 62
     7
100
AcDbMText
 10
4.8181240648
 20
1.1028217587
 30
0.0
 40
0.06
 41
0.0
 71
     1
 72
     1
  1
MATERIAL
  7
SLDTEXTSTYLE0
  0
INSERT
  5
AD
330
1F
100
AcDbEntity
  8
0
  6
CONTINUOUS
 62
     7
100
AcDbBlockReference
  2
SW_NOTE_0
 10
4.8231926633
 20
1.2646542947
 30
0.0
  0
INSERT
  5
BD
330
1F
100
AcDbEntity
  8
0
  6
CONTINUOUS
 62
     7
100
AcDbBlockReference
  2
SW_NOTE_1
 10
4.8353339353
 20
2.0049168724
 30
0.0
  0
MTEXT
  5
BE
330
1F
100
AcDbEntity
  8
0
  6
CONTINUOUS
 62
     7
100
AcDbMText
 10
3.5531400086
 20
0.5200091997
 30
0.0
 40
0.0625
 41
0.0
 71
     1
 72
     1
  1
APPLICATION
  7
SLDTEXTSTYLE0
  0
MTEXT
  5
BF
330
1F
100
AcDbEntity
  8
0
  6
CONTINUOUS
 62
     7
100
AcDbMText
 10
4.1005607758
 20
0.7502454275
 30
0.0
 40
0.0625
 41
0.0
 71
     1
 72
     1
  1
USED ON
  7
SLDTEXTSTYLE0
  0
MTEXT
  5
C0
330
1F
100
AcDbEntity
  8
0
  6
CONTINUOUS
 62
     7
100
AcDbMText
 10
3.1040019536
 20
0.7492094783
 30
0.0
 40
0.0625
 41
0.0
 71
     1
 72
     1
  1
NEXT ASSY
  7
SLDTEXTSTYLE0
  0
MTEXT
  5
C1
330
1F
100
AcDbEntity
  8
0
  6
CONTINUOUS
 62
     7
100
AcDbMText
 10
1.3712489489
 20
1.2496672684
 30
0.0
 40
0.06
 41
0.0
 71
     1
 72
     1
  1
PROPRIETARY AND CONFIDENTIAL
  7
SLDTEXTSTYLE0
  0
INSERT
  5
CC
330
1F
100
AcDbEntity
  8
0
  6
CONTINUOUS
 62
     7
100
AcDbBlockReference
  2
SW_NOTE_2
 10
1.2226209074
 20
1.0313492921
 30
0.0
  0
MTEXT
  5
CD
330
1F
100
AcDbEntity
  8
0
  6
CONTINUOUS
 62
     7
100
AcDbMText
 10
1.7387909509
 20
0.3105864247
 30
0.0
 40
0.09375
 41
0.0
 71
     1
 72
     1
  1
5
  7
SLDTEXTSTYLE0
  0
MTEXT
  5
CE
330
1F
100
AcDbEntity
  8
0
  6
CONTINUOUS
 62
     7
100
AcDbMText
 10
3.723800327
 20
0.3137237518
 30
0.0
 40
0.09375
 41
0.0
 71
     1
 72
     1
  1
4
  7
SLDTEXTSTYLE0
  0
MTEXT
  5
CF
330
1F
100
AcDbEntity
  8
0
  6
CONTINUOUS
 62
     7
100
AcDbMText
 10
5.6324457277
 20
0.3116191842
 30
0.0
 40
0.09375
 41
0.0
 71
     1
 72
     1
  1
3
  7
SLDTEXTSTYLE0
  0
MTEXT
  5
D0
330
1F
100
AcDbEntity
  8
0
  6
CONTINUOUS
 62
     7
100
AcDbMText
 10
7.6059721724
 20
0.3124391351
 30
0.0
 40
0.09375
 41
0.0
 71
     1
 72
     1
  1
2
  7
SLDTEXTSTYLE0
  0
MTEXT
  5
D1
330
1F
100
AcDbEntity
  8
0
  6
CONTINUOUS
 62
     7
100
AcDbMText
 10
9.6619921328
 20
0.301372012
 30
0.0
 40
0.09375
 41
0.0
 71
     1
 72
     1
  1
1
  7
SLDTEXTSTYLE0
  0
LINE
  5
D2
330
1F
100
AcDbEntity
  8
0
  6
CONTINUOUS
 62
     7
100
AcDbLine
 10
4.0713867596
 20
2.9712767116
 30
0.0
 11
4.5864786231
 21
2.9712767116
 31
0.0
  0
LINE
  5
D3
330
1F
100
AcDbEntity
  8
0
  6
CONTINUOUS
 62
     7
100
AcDbLine
 10
3.7465836099
 20
2.9712767116
 30
0.0
 11
4.0320166808
 21
2.9712767116
 31
0.0
  0
LINE
  5
D4
330
1F
100
AcDbEntity
  8
0
  6
CONTINUOUS
 62
     7
100
AcDbLine
 10
4.0320166808
 20
4.5460798612
 30
0.0
 11
3.7465836099
 21
4.5460798612
 31
0.0
  0
LINE
  5
D5
330
1F
100
AcDbEntity
  8
0
  6
CONTINUOUS
 62
     7
100
AcDbLine
 10
4.5864786231
 20
4.5460798612
 30
0.0
 11
4.0713867596
 21
4.5460798612
 31
0.0
  0
LINE
  5
D6
330
1F
100
AcDbEntity
  8
0
  6
CONTINUOUS
 62
     7
100
AcDbLine
 10
4.5864786231
 20
2.9712767116
 30
0.0
 11
4.6258487018
 21
3.0106467903
 31
0.0
  0
LINE
  5
D7
330
1F
100
AcDbEntity
  8
0
  6
CONTINUOUS
 62
     7
100
AcDbLine
 10
4.6258487018
 20
4.5067097825
 30
0.0
 11
4.5864786231
 21
4.5460798612
 31
0.0
  0
LINE
  5
D8
330
1F
100
AcDbEntity
  8
0
  6
CONTINUOUS
 62
     7
100
AcDbLine
 10
3.7465836099
 20
4.5460798612
 30
0.0
 11
3.7072135312
 21
4.5067097825
 31
0.0
  0
LINE
  5
D9
330
1F
100
AcDbEntity
  8
0
  6
CONTINUOUS
 62
     7
100
AcDbLine
 10
3.7072135312
 20
3.0106467903
 30
0.0
 11
3.7465836099
 21
2.9712767116
 31
0.0
  0
LINE
  5
DA
330
1F
100
AcDbEntity
  8
0
  6
CONTINUOUS
 62
     7
100
AcDbLine
 10
2.8017017202
 20
2.9712767116
 30
0.0
 11
3.6678434525
 21
2.9712767116
 31
0.0
  0
LINE
  5
DB
330
1F
100
AcDbEntity
  8
0
  6
CONTINUOUS
 62
     7
100
AcDbLine
 10
3.6678434525
 20
4.5460798612
 30
0.0
 11
2.8017017202
 21
4.5460798612
 31
0.0
  0
LINE
  5
DC
330
1F
100
AcDbEntity
  8
0
  6
CONTINUOUS
 62
     7
100
AcDbLine
 10
2.8017017202
 20
4.5460798612
 30
0.0
 11
2.7623316414
 21
4.5067097825
 31
0.0
  0
LINE
  5
DD
330
1F
100
AcDbEntity
  8
0
  6
CONTINUOUS
 62
     7
100
AcDbLine
 10
2.7623316414
 20
3.0106467903
 30
0.0
 11
2.8017017202
 21
2.9712767116
 31
0.0
  0
LINE
  5
DE
330
1F
100
AcDbEntity
  8
0
  6
CONTINUOUS
 62
     7
100
AcDbLine
 10
3.6678434525
 20
2.9712767116
 30
0.0
 11
3.7072135312
 21
3.0106467903
 31
0.0
  0
LINE
  5
DF
330
1F
100
AcDbEntity
  8
0
  6
CONTINUOUS
 62
     7
100
AcDbLine
 10
3.7072135312
 20
4.5067097825
 30
0.0
 11
3.6678434525
 21
4.5460798612
 31
0.0
  0
ARC
  5
E0
330
1F
100
AcDbEntity
  8
0
  6
CONTINUOUS
 62
     7
100
AcDbCircle
 10
4.2321479144
 20
4.3295444281
 30
0.0
 40
0.0196850393700787
100
AcDbArc
 50
90.0
 51
156.7056953256
  0
ARC
  5
E1
330
1F
100
AcDbEntity
  8
0
  6
CONTINUOUS
 62
     7
100
AcDbCircle
 10
4.5471085443
 20
4.3295444281
 30
0.0
 40
0.0196850393700787
100
AcDbArc
 50
23.0609423865
 51
90.0
  0
LINE
  5
E2
330
1F
100
AcDbEntity
  8
0
  6
CONTINUOUS
 62
     7
100
AcDbLine
 10
4.4880534262
 20
3.738993247
 30
0.0
 11
4.4880534262
 21
3.7783633258
 31
0.0
  0
LINE
  5
E3
330
1F
100
AcDbEntity
  8
0
  6
CONTINUOUS
 62
     7
100
AcDbLine
 10
4.2912030325
 20
3.7783633258
 30
0.0
 11
4.2912030325
 21
3.738993247
 31
0.0
  0
LINE
  5
E4
330
1F
100
AcDbEntity
  8
0
  6
CONTINUOUS
 62
     7
100
AcDbLine
 10
2.0667935837
 20
4.5460798612
 30
0.0
 11
2.027423505
 21
4.5067097825
 31
0.0
  0
LINE
  5
E5
330
1F
100
AcDbEntity
  8
0
  6
CONTINUOUS
 62
     7
100
AcDbLine
 10
2.7623316414
 20
4.5460798612
 30
0.0
 11
2.0667935837
 21
4.5460798612
 31
0.0
  0
LINE
  5
E6
330
1F
100
AcDbEntity
  8
0
  6
CONTINUOUS
 62
     7
100
AcDbLine
 10
2.621255526
 20
2.9712767116
 30
0.0
 11
2.7229615627
 21
2.9712767116
 31
0.0
  0
LINE
  5
E7
330
1F
100
AcDbEntity
  8
0
  6
CONTINUOUS
 62
     7
100
AcDbLine
 10
2.7229615627
 20
2.9712767116
 30
0.0
 11
2.7623316414
 21
3.0106467903
 31
0.0
  0
LINE
  5
E8
330
1F
100
AcDbEntity
  8
0
  6
CONTINUOUS
 62
     7
100
AcDbLine
 10
3.9303106441
 20
4.4405880532
 30
0.0
 11
3.9303106441
 21
3.0767685196
 31
0.0
  0
SPLINE
  5
E9
330
1F
100
AcDbEntity
  8
0
  6
CONTINUOUS
 62
     7
100
AcDbSpline
210
0.0
220
0.0
230
1.0
 70
     8
 71
     3
 72
     8
 73
     4
 74
     0
 42
0.00000001
 43
0.00000001
 40
0.0
 40
0.0
 40
0.0
 40
0.0
 40
0.0007676680295986
 40
0.0007676680295986
 40
0.0007676680295986
 40
0.0007676680295986
 10
3.930310644066967
 20
3.076768519632647
 30
0.0
 10
3.917120179671642
 20
3.0919995559714
 30
0.0
 10
3.903992459384162
 20
3.107285251689951
 30
0.0
 10
3.890940565326809
 20
3.122635198935216
 30
0.0
  0
LINE
  5
EA
330
1F
100
AcDbEntity
  8
0
  6
CONTINUOUS
 62
     7
100
AcDbLine
 10
3.8909405653
 20
3.1226351989
 30
0.0
 11
3.8909405653
 21
4.3947213738
 31
0.0
  0
SPLINE
  5
EB
330
1F
100
AcDbEntity
  8
0
  6
CONTINUOUS
 62
     7
100
AcDbSpline
210
0.0
220
0.0
230
1.0
 70
     8
 71
     3
 72
     8
 73
     4
 74
     0
 42
0.00000001
 43
0.00000001
 40
0.0
 40
0.0
 40
0.0
 40
0.0
 40
0.0007676680295986
 40
0.0007676680295986
 40
0.0007676680295986
 40
0.0007676680295986
 10
3.890940565326809
 20
4.394721373848879
 30
0.0
 10
3.903992459384162
 20
4.410071321094143
 30
0.0
 10
3.917120179671642
 20
4.425357016812694
 30
0.0
 10
3.930310644066967
 20
4.440588053151448
 30
0.0
  0
LINE
  5
EC
330
1F
100
AcDbEntity
  8
0
  6
CONTINUOUS
 62
     7
100
AcDbLine
 10
3.7465836099
 20
4.4405880532
 30
0.0
 11
3.9303106441
 21
4.4405880532
 31
0.0
  0
LINE
  5
ED
330
1F
100
AcDbEntity
  8
0
  6
CONTINUOUS
 62
     7
100
AcDbLine
 10
3.7465836099
 20
4.5460798612
 30
0.0
 11
3.7465836099
 21
4.4405880532
 31
0.0
  0
LINE
  5
EE
330
1F
100
AcDbEntity
  8
0
  6
CONTINUOUS
 62
     7
100
AcDbLine
 10
3.7465836099
 20
3.0767685196
 30
0.0
 11
3.7465836099
 21
2.9712767116
 31
0.0
  0
LINE
  5
EF
330
1F
100
AcDbEntity
  8
0
  6
CONTINUOUS
 62
     7
100
AcDbLine
 10
3.9303106441
 20
3.0767685196
 30
0.0
 11
3.7465836099
 21
3.0767685196
 31
0.0
  0
LINE
  5
F0
330
1F
100
AcDbEntity
  8
0
  6
CONTINUOUS
 62
     7
100
AcDbLine
 10
4.5864786231
 20
3.7783633258
 30
0.0
 11
4.0713867596
 21
3.7783633258
 31
0.0
  0
LINE
  5
F1
330
1F
100
AcDbEntity
  8
0
  6
CONTINUOUS
 62
     7
100
AcDbLine
 10
4.0713867596
 20
4.5460798612
 30
0.0
 11
4.0713867596
 21
3.7783633258
 31
0.0
  0
LINE
  5
F2
330
1F
100
AcDbEntity
  8
0
  6
CONTINUOUS
 62
     7
100
AcDbLine
 10
4.0320166808
 20
4.5098115159
 30
0.0
 11
4.0713867596
 21
4.5098115159
 31
0.0
  0
LINE
  5
F3
330
1F
100
AcDbEntity
  8
0
  6
CONTINUOUS
 62
     7
100
AcDbLine
 10
4.0713867596
 20
3.0075450569
 30
0.0
 11
4.0320166808
 21
3.0075450569
 31
0.0
  0
LINE
  5
F4
330
1F
100
AcDbEntity
  8
0
  6
CONTINUOUS
 62
     7
100
AcDbLine
 10
4.0713867596
 20
3.738993247
 30
0.0
 11
4.0713867596
 21
2.9712767116
 31
0.0
  0
LINE
  5
F5
330
1F
100
AcDbEntity
  8
0
  6
CONTINUOUS
 62
     7
100
AcDbLine
 10
4.5864786231
 20
3.738993247
 30
0.0
 11
4.0713867596
 21
3.738993247
 31
0.0
  0
LINE
  5
F6
330
1F
100
AcDbEntity
  8
0
  6
CONTINUOUS
 62
     7
100
AcDbLine
 10
4.5864786231
 20
3.7783633258
 30
0.0
 11
4.5864786231
 21
4.5460798612
 31
0.0
  0
LINE
  5
F7
330
1F
100
AcDbEntity
  8
0
  6
CONTINUOUS
 62
     7
100
AcDbLine
 10
4.5864786231
 20
2.9712767116
 30
0.0
 11
4.5864786231
 21
3.738993247
 31
0.0
  0
SPLINE
  5
F8
330
1F
100
AcDbEntity
  8
0
  6
CONTINUOUS
 62
     7
100
AcDbSpline
210
0.0
220
0.0
230
1.0
 70
     8
 71
     3
 72
    42
 73
    38
 74
     0
 42
0.00000001
 43
0.00000001
 40
-0.0625000000000003
 40
-0.0625000000000003
 40
0.0
 40
0.0
 40
0.0625000000000001
 40
0.0625000000000001
 40
0.1250000000000001
 40
0.1250000000000001
 40
0.1875000000000002
 40
0.1875000000000002
 40
0.2500000000000002
 40
0.2500000000000002
 40
0.3125000000000003
 40
0.3125000000000003
 40
0.3750000000000005
 40
0.3750000000000005
 40
0.4062500000000005
 40
0.4062500000000005
 40
0.4375000000000004
 40
0.4375000000000004
 40
0.5000000000000003
 40
0.5000000000000003
 40
0.5625000000000003
 40
0.5625000000000003
 40
0.6250000000000003
 40
0.6250000000000003
 40
0.6875000000000002
 40
0.6875000000000002
 40
0.7500000000000002
 40
0.7500000000000002
 40
0.8125000000000001
 40
0.8125000000000001
 40
0.8750000000000001
 40
0.8750000000000001
 40
0.9062499999999999
 40
0.9062499999999999
 40
0.9374999999999997
 40
0.9374999999999997
 40
1.0
 40
1.0
 40
1.0625
 40
1.0625
 10
4.374309851350102
 20
3.261071016322577
 30
0.0
 10
4.404946607387508
 20
3.261071016322577
 30
0.0
 10
4.419489903233455
 20
3.256527304439979
 30
0.0
 10
4.443963129174673
 20
3.242858439894955
 30
0.0
 10
4.453851631646933
 20
3.234079237967586
 30
0.0
 10
4.469970182146642
 20
3.21518324658587
 30
0.0
 10
4.475978756490881
 20
3.205315892722571
 30
0.0
 10
4.484681336880418
 20
3.185154525048144
 30
0.0
 10
4.487250208663835
 20
3.17498558689784
 30
0.0
 10
4.488537588139418
 20
3.15529821516118
 30
0.0
 10
4.487229299280195
 20
3.145584348665726
 30
0.0
 10
4.480121954489332
 20
3.127711958258992
 30
0.0
 10
4.474201219568771
 20
3.119314323478109
 30
0.0
 10
4.461627026856862
 20
3.108624084721351
 30
0.0
 10
4.456729730010589
 20
3.105306273268208
 30
0.0
 10
4.445891174722039
 20
3.099527148373399
 30
0.0
 10
4.439964462782992
 20
3.097048326331125
 30
0.0
 10
4.420503608861967
 20
3.090866083337985
 30
0.0
 10
4.405465570081737
 20
3.088584525956549
 30
0.0
 10
4.375138814953335
 20
3.088456426611777
 30
0.0
 10
4.360081246671479
 20
3.090593890568972
 30
0.0
 10
4.333785962286118
 20
3.098660303769783
 30
0.0
 10
4.322554946861101
 20
3.104590747833993
 30
0.0
 10
4.305457519140531
 20
3.118828089746975
 30
0.0
 10
4.299442600066913
 20
3.127183621079616
 30
0.0
 10
4.2921241625084
 20
3.145107425834059
 30
0.0
 10
4.290746605655196
 20
3.154813305485739
 30
0.0
 10
4.29192289082664
 20
3.17457982830544
 30
0.0
 10
4.294484993917034
 20
3.184849803878745
 30
0.0
 10
4.303078741401192
 20
3.204947719190534
 30
0.0
 10
4.309194993228199
 20
3.215036912735368
 30
0.0
 10
4.321181581217642
 20
3.229147349018299
 30
0.0
 10
4.325631272294865
 20
3.233665757466702
 30
0.0
 10
4.335661416336938
 20
3.242180891231695
 30
0.0
 10
4.341248598491201
 20
3.246165985805403
 30
0.0
 10
4.359498585260162
 20
3.25641396301034
 30
0.0
 10
4.374309851350102
 20
3.261071016322577
 30
0.0
 10
4.404946607387508
 20
3.261071016322577
 30
0.0
  0
SPLINE
  5
F9
330
1F
100
AcDbEntity
  8
0
  6
CONTINUOUS
 62
     7
100
AcDbSpline
210
0.0
220
0.0
230
1.0
 70
     8
 71
     3
 72
    66
 73
    62
 74
     0
 42
0.00000001
 43
0.00000001
 40
0.0
 40
0.0
 40
0.0
 40
0.0
 40
0.0312500000000001
 40
0.0312500000000001
 40
0.0625000000000002
 40
0.0625000000000002
 40
0.1250000000000004
 40
0.1250000000000004
 40
0.1562500000000004
 40
0.1562500000000004
 40
0.1875000000000004
 40
0.1875000000000004
 40
0.2187500000000005
 40
0.2187500000000005
 40
0.2500000000000005
 40
0.2500000000000005
 40
0.2812500000000006
 40
0.2812500000000006
 40
0.3125000000000006
 40
0.3125000000000006
 40
0.3437500000000006
 40
0.3437500000000006
 40
0.3750000000000006
 40
0.3750000000000006
 40
0.4062500000000007
 40
0.4062500000000007
 40
0.4375000000000007
 40
0.4375000000000007
 40
0.4687500000000007
 40
0.4687500000000007
 40
0.5000000000000008
 40
0.5000000000000008
 40
0.5312500000000008
 40
0.5312500000000008
 40
0.5625000000000008
 40
0.5625000000000008
 40
0.5937500000000007
 40
0.5937500000000007
 40
0.6250000000000007
 40
0.6250000000000007
 40
0.6562500000000007
 40
0.6562500000000007
 40
0.6875000000000007
 40
0.6875000000000007
 40
0.7187500000000007
 40
0.7187500000000007
 40
0.7500000000000006
 40
0.7500000000000006
 40
0.7812500000000006
 40
0.7812500000000006
 40
0.8125000000000006
 40
0.8125000000000006
 40
0.8437500000000006
 40
0.8437500000000006
 40
0.8750000000000006
 40
0.8750000000000006
 40
0.9375000000000003
 40
0.9375000000000003
 40
0.9687500000000002
 40
0.9687500000000002
 40
1.0
 40
1.0
 40
1.0
 40
1.0
 10
4.439165895424224
 20
4.152379073793622
 30
0.0
 10
4.450421038886455
 20
4.158056429418689
 30
0.0
 10
4.46037793064782
 20
4.164935257186662
 30
0.0
 10
4.478756418251064
 20
4.179979607474976
 30
0.0
 10
4.487206510754923
 20
4.188228534711368
 30
0.0
 10
4.510400662200517
 20
4.213833905879952
 30
0.0
 10
4.522951276237947
 20
4.231783280297838
 30
0.0
 10
4.53867054386706
 20
4.25913816540033
 30
0.0
 10
4.543379671391808
 20
4.268384291649568
 30
0.0
 10
4.551530884205304
 20
4.286631343245953
 30
0.0
 10
4.554996938636973
 20
4.295666521777071
 30
0.0
 10
4.560681654774037
 20
4.313538613774072
 30
0.0
 10
4.562900705305478
 20
4.322375627716449
 30
0.0
 10
4.565953856907711
 20
4.339842391952074
 30
0.0
 10
4.566777767504861
 20
4.348493258183797
 30
0.0
 10
4.566808943504569
 20
4.365123429635249
 30
0.0
 10
4.56603202965393
 20
4.373160360472777
 30
0.0
 10
4.562675242063893
 20
4.388681781282161
 30
0.0
 10
4.560058639060257
 20
4.396230182947894
 30
0.0
 10
4.552849124512425
 20
4.410376332128941
 30
0.0
 10
4.548278860980258
 20
4.416984111155791
 30
0.0
 10
4.536960417815763
 20
4.429307934615804
 30
0.0
 10
4.530123277935052
 20
4.435061918274447
 30
0.0
 10
4.514610391869875
 20
4.445220427372166
 30
0.0
 10
4.505901156556752
 20
4.449693019971007
 30
0.0
 10
4.486396132605888
 20
4.45751238636516
 30
0.0
 10
4.475559330210128
 20
4.460839653446362
 30
0.0
 10
4.452897925332556
 20
4.466080821729621
 30
0.0
 10
4.440866423146733
 20
4.46806709455841
 30
0.0
 10
4.415733942502809
 20
4.470747768618533
 30
0.0
 10
4.403032962423347
 20
4.471409085986057
 30
0.0
 10
4.377366480124804
 20
4.471447959064258
 30
0.0
 10
4.36435896902751
 20
4.470800244016177
 30
0.0
 10
4.339465365141466
 20
4.468215813279044
 30
0.0
 10
4.32726659478236
 20
4.466253344749195
 30
0.0
 10
4.304320304619433
 20
4.461018852631135
 30
0.0
 10
4.293673931835326
 20
4.457788754285568
 30
0.0
 10
4.273956953475889
 20
4.449980555632171
 30
0.0
 10
4.265024421586588
 20
4.44543344653351
 30
0.0
 10
4.249391646039845
 20
4.435264526883625
 30
0.0
 10
4.242545579844002
 20
4.42954066103989
 30
0.0
 10
4.231122925223652
 20
4.41717999863372
 30
0.0
 10
4.226516447982672
 20
4.410553906362758
 30
0.0
 10
4.219252816636559
 20
4.396373800999362
 30
0.0
 10
4.216627959524776
 20
4.388836588871065
 30
0.0
 10
4.213246209913851
 20
4.373321164517487
 30
0.0
 10
4.212457090942445
 20
4.365282670745758
 30
0.0
 10
4.212468722486157
 20
4.348639419868672
 30
0.0
 10
4.213285877919579
 20
4.339977977851955
 30
0.0
 10
4.216325963097236
 20
4.322506749521132
 30
0.0
 10
4.218539539266992
 20
4.313667227982649
 30
0.0
 10
4.224214826118259
 20
4.295789536440204
 30
0.0
 10
4.227676931137408
 20
4.286751266538972
 30
0.0
 10
4.235821393902259
 20
4.268497401926727
 30
0.0
 10
4.240531924124884
 20
4.259239517094793
 30
0.0
 10
4.256247293155315
 20
4.231869344056292
 30
0.0
 10
4.268780695862546
 20
4.213946209108927
 30
0.0
 10
4.291853524409189
 20
4.188430902876694
 30
0.0
 10
4.300356030181764
 20
4.180106621697858
 30
0.0
 10
4.318837442806593
 20
4.164959850370644
 30
0.0
 10
4.328835136549899
 20
4.158056572322418
 30
0.0
 10
4.340090563313385
 20
4.152379073793622
 30
0.0
  0
LINE
  5
FA
330
1F
100
AcDbEntity
  8
0
  6
CONTINUOUS
 62
     7
100
AcDbLine
 10
4.0320166808
 20
4.5460798612
 30
0.0
 11
4.0320166808
 21
2.9712767116
 31
0.0
  0
LINE
  5
FB
330
1F
100
AcDbEntity
  8
0
  6
CONTINUOUS
 62
     7
100
AcDbLine
 10
4.6258487018
 20
3.738993247
 30
0.0
 11
4.6258487018
 21
3.0106467903
 31
0.0
  0
LINE
  5
FC
330
1F
100
AcDbEntity
  8
0
  6
CONTINUOUS
 62
     7
100
AcDbLine
 10
4.6258487018
 20
4.5067097825
 30
0.0
 11
4.6258487018
 21
3.7783633258
 31
0.0
  0
LINE
  5
FD
330
1F
100
AcDbEntity
  8
0
  6
CONTINUOUS
 62
     7
100
AcDbLine
 10
4.5864786231
 20
3.738993247
 30
0.0
 11
4.6258487018
 21
3.738993247
 31
0.0
  0
LINE
  5
FE
330
1F
100
AcDbEntity
  8
0
  6
CONTINUOUS
 62
     7
100
AcDbLine
 10
4.5864786231
 20
3.7783633258
 30
0.0
 11
4.6258487018
 21
3.7783633258
 31
0.0
  0
LINE
  5
FF
330
1F
100
AcDbEntity
  8
0
  6
CONTINUOUS
 62
     7
100
AcDbLine
 10
3.7465836099
 20
4.4405880532
 30
0.0
 11
3.7338859388
 21
4.4257950929
 31
0.0
  0
LINE
  5
100
330
1F
100
AcDbEntity
  8
0
  6
CONTINUOUS
 62
     7
100
AcDbLine
 10
3.7293919357
 20
3.0967970548
 30
0.0
 11
3.7465836099
 21
3.0767685196
 31
0.0
  0
LINE
  5
101
330
1F
100
AcDbEntity
  8
0
  6
CONTINUOUS
 62
     7
100
AcDbLine
 10
3.7072135312
 20
4.4257950929
 30
0.0
 11
3.7072135312
 21
4.5067097825
 31
0.0
  0
LINE
  5
102
330
1F
100
AcDbEntity
  8
0
  6
CONTINUOUS
 62
     7
100
AcDbLine
 10
3.7072135312
 20
3.0106467903
 30
0.0
 11
3.7072135312
 21
3.0967970548
 31
0.0
  0
SPLINE
  5
103
330
1F
100
AcDbEntity
  8
0
  6
CONTINUOUS
 62
     7
100
AcDbSpline
210
0.0
220
0.0
230
1.0
 70
     8
 71
     3
 72
     8
 73
     4
 74
     0
 42
0.00000001
 43
0.00000001
 40
0.0
 40
0.0
 40
0.0
 40
0.0
 40
1.0
 40
1.0
 40
1.0
 40
1.0
 10
4.234601950901365
 20
3.738993247021968
 30
0.0
 10
4.235703960166316
 20
3.752116606602021
 30
0.0
 10
4.235703960166316
 20
3.765239966182073
 30
0.0
 10
4.234601950901365
 20
3.778363325762126
 30
0.0
  0
LINE
  5
104
330
1F
100
AcDbEntity
  8
0
  6
CONTINUOUS
 62
     7
100
AcDbLine
 10
4.0713867596
 20
3.7783633258
 30
0.0
 11
4.0713867596
 21
3.7586782864
 31
0.0
  0
LINE
  5
105
330
1F
100
AcDbEntity
  8
0
  6
CONTINUOUS
 62
     7
100
AcDbLine
 10
4.0713867596
 20
3.7586782864
 30
0.0
 11
4.0713867596
 21
3.738993247
 31
0.0
  0
LINE
  5
106
330
1F
100
AcDbEntity
  8
0
  6
CONTINUOUS
 62
     7
100
AcDbLine
 10
4.6258487018
 20
3.738993247
 30
0.0
 11
4.6258487018
 21
3.7783633258
 31
0.0
  0
LINE
  5
107
330
1F
100
AcDbEntity
  8
0
  6
CONTINUOUS
 62
     7
100
AcDbLine
 10
3.6678434525
 20
4.4257950929
 30
0.0
 11
3.6678434525
 21
4.5460798612
 31
0.0
  0
LINE
  5
108
330
1F
100
AcDbEntity
  8
0
  6
CONTINUOUS
 62
     7
100
AcDbLine
 10
3.8515704866
 20
4.4257950929
 30
0.0
 11
3.6678434525
 21
4.4257950929
 31
0.0
  0
LINE
  5
109
330
1F
100
AcDbEntity
  8
0
  6
CONTINUOUS
 62
     7
100
AcDbLine
 10
3.8515704866
 20
3.0967970548
 30
0.0
 11
3.8515704866
 21
4.4257950929
 31
0.0
  0
LINE
  5
10A
330
1F
100
AcDbEntity
  8
0
  6
CONTINUOUS
 62
     7
100
AcDbLine
 10
3.6678434525
 20
3.0967970548
 30
0.0
 11
3.8515704866
 21
3.0967970548
 31
0.0
  0
LINE
  5
10B
330
1F
100
AcDbEntity
  8
0
  6
CONTINUOUS
 62
     7
100
AcDbLine
 10
3.6678434525
 20
2.9712767116
 30
0.0
 11
3.6678434525
 21
3.0967970548
 31
0.0
  0
LINE
  5
10C
330
1F
100
AcDbEntity
  8
0
  6
CONTINUOUS
 62
     7
100
AcDbLine
 10
2.9854287543
 20
3.3321639545
 30
0.0
 11
2.8017017202
 21
3.3321639545
 31
0.0
  0
LINE
  5
10D
330
1F
100
AcDbEntity
  8
0
  6
CONTINUOUS
 62
     7
100
AcDbLine
 10
2.9854287543
 20
4.1769561922
 30
0.0
 11
2.9854287543
 21
3.3321639545
 31
0.0
  0
LINE
  5
10E
330
1F
100
AcDbEntity
  8
0
  6
CONTINUOUS
 62
     7
100
AcDbLine
 10
2.8017017202
 20
4.1769561922
 30
0.0
 11
2.9854287543
 21
4.1769561922
 31
0.0
  0
LINE
  5
10F
330
1F
100
AcDbEntity
  8
0
  6
CONTINUOUS
 62
     7
100
AcDbLine
 10
2.8017017202
 20
4.5460798612
 30
0.0
 11
2.8017017202
 21
4.1769561922
 31
0.0
  0
LINE
  5
110
330
1F
100
AcDbEntity
  8
0
  6
CONTINUOUS
 62
     7
100
AcDbLine
 10
2.8017017202
 20
3.3321639545
 30
0.0
 11
2.8017017202
 21
2.9712767116
 31
0.0
  0
SPLINE
  5
111
330
1F
100
AcDbEntity
  8
0
  6
CONTINUOUS
 62
     7
100
AcDbSpline
210
0.0
220
0.0
230
1.0
 70
     8
 71
     3
 72
     8
 73
     4
 74
     0
 42
0.00000001
 43
0.00000001
 40
0.0
 40
0.0
 40
0.0
 40
0.0
 40
0.0006160615699252
 40
0.0006160615699252
 40
0.0006160615699252
 40
0.0006160615699252
 10
2.951590422154884
 20
4.15237907379362
 30
0.0
 10
2.962862702031261
 20
4.160576375459825
 30
0.0
 10
2.974142466053837
 20
4.168768533839065
 30
0.0
 10
2.985428754303188
 20
4.176956192246006
 30
0.0
  0
SPLINE
  5
112
330
1F
100
AcDbEntity
  8
0
  6
CONTINUOUS
 62
     7
100
AcDbSpline
210
0.0
220
0.0
230
1.0
 70
     8
 71
     3
 72
     8
 73
     4
 74
     0
 42
0.00000001
 43
0.00000001
 40
0.0
 40
0.0
 40
0.0
 40
0.0
 40
0.000534342373819
 40
0.000534342373819
 40
0.000534342373819
 40
0.000534342373819
 10
2.960605293913199
 20
3.36497749899047
 30
0.0
 10
2.968802580741844
 20
3.353985549192744
 30
0.0
 10
2.977080585026063
 20
3.343049438871771
 30
0.0
 10
2.985428754303188
 20
3.33216395451019
 30
0.0
  0
LINE
  5
113
330
1F
100
AcDbEntity
  8
0
  6
CONTINUOUS
 62
     7
100
AcDbLine
 10
2.9460586756
 20
3.364977499
 30
0.0
 11
2.9460586756
 21
4.1523790738
 31
0.0
  0
SPLINE
  5
114
330
1F
100
AcDbEntity
  8
0
  6
CONTINUOUS
 62
     7
100
AcDbSpline
210
0.0
220
0.0
230
1.0
 70
     8
 71
     3
 72
     8
 73
     4
 74
     0
 42
0.00000001
 43
0.00000001
 40
0.0
 40
0.0
 40
0.0
 40
0.0
 40
0.0001083645978465
 40
0.0001083645978465
 40
0.0001083645978465
 40
0.0001083645978465
 10
3.885408818734955
 20
4.40121797441129
 30
0.0
 10
3.887254220955489
 20
4.39905370766289
 30
0.0
 10
3.889098150121111
 20
4.396888183975214
 30
0.0
 10
3.890940565326809
 20
4.394721373848878
 30
0.0
  0
SPLINE
  5
115
330
1F
100
AcDbEntity
  8
0
  6
CONTINUOUS
 62
     7
100
AcDbSpline
210
0.0
220
0.0
230
1.0
 70
     8
 71
     3
 72
     8
 73
     4
 74
     0
 42
0.00000001
 43
0.00000001
 40
0.0
 40
0.0
 40
0.0
 40
0.0
 40
0.0002845941545838
 40
0.0002845941545838
 40
0.0002845941545838
 40
0.0002845941545838
 10
3.890940565326809
 20
3.122635198935216
 30
0.0
 10
3.886101894688263
 20
3.116944581258385
 30
0.0
 10
3.881252781935888
 20
3.111262828000522
 30
0.0
 10
3.87639394697664
 20
3.105589417568428
 30
0.0
  0
SPLINE
  5
116
330
1F
100
AcDbEntity
  8
0
  6
CONTINUOUS
 62
     7
100
AcDbSpline
210
0.0
220
0.0
230
1.0
 70
     8
 71
     3
 72
     8
 73
     4
 74
     0
 42
0.00000001
 43
0.00000001
 40
0.0
 40
0.0
 40
0.0
 40
0.0
 40
0.000534342373819
 40
0.000534342373819
 40
0.000534342373819
 40
0.000534342373819
 10
3.851570486586652
 20
3.096797054824135
 30
0.0
 10
3.859918655863777
 20
3.099713811568042
 30
0.0
 10
3.868196660147995
 20
3.102644133496885
 30
0.0
 10
3.87639394697664
 20
3.105589417568428
 30
0.0
  0
SPLINE
  5
117
330
1F
100
AcDbEntity
  8
0
  6
CONTINUOUS
 62
     7
100
AcDbSpline
210
0.0
220
0.0
230
1.0
 70
     8
 71
     3
 72
     8
 73
     4
 74
     0
 42
0.00000001
 43
0.00000001
 40
0.0
 40
0.0
 40
0.0
 40
0.0
 40
0.0006160615699252
 40
0.0006160615699252
 40
0.0006160615699252
 40
0.0006160615699252
 10
3.851570486586652
 20
4.425795092863676
 30
0.0
 10
3.862856774836003
 20
4.417607434456736
 30
0.0
 10
3.874136538858578
 20
4.409415276077495
 30
0.0
 10
3.885408818734956
 20
4.40121797441129
 30
0.0
  0
SPLINE
  5
118
330
1F
100
AcDbEntity
  8
0
  6
CONTINUOUS
 62
     7
100
AcDbSpline
210
0.0
220
0.0
230
1.0
 70
     8
 71
     3
 72
     8
 73
     4
 74
     0
 42
0.00000001
 43
0.00000001
 40
0.0
 40
0.0
 40
0.0
 40
0.0
 40
0.0006160615699252
 40
0.0006160615699252
 40
0.0006160615699252
 40
0.0006160615699252
 10
2.767863388034149
 20
4.15237907379362
 30
0.0
 10
2.779135667910527
 20
4.160576375459825
 30
0.0
 10
2.790415431933102
 20
4.168768533839065
 30
0.0
 10
2.801701720182453
 20
4.176956192246006
 30
0.0
  0
LINE
  5
119
330
1F
100
AcDbEntity
  8
0
  6
CONTINUOUS
 62
     7
100
AcDbLine
 10
2.9515904222
 20
4.1523790738
 30
0.0
 11
2.9463414451
 21
4.1523790738
 31
0.0
  0
SPLINE
  5
11A
330
1F
100
AcDbEntity
  8
0
  6
CONTINUOUS
 62
     7
100
AcDbSpline
210
0.0
220
0.0
230
1.0
 70
     8
 71
     3
 72
     8
 73
     4
 74
     0
 42
0.00000001
 43
0.00000001
 40
0.0
 40
0.0
 40
0.0
 40
0.0
 40
0.000534342373819
 40
0.000534342373819
 40
0.000534342373819
 40
0.000534342373819
 10
2.776878259792465
 20
3.36497749899047
 30
0.0
 10
2.78507554662111
 20
3.353985549192744
 30
0.0
 10
2.793353550905329
 20
3.343049438871771
 30
0.0
 10
2.801701720182453
 20
3.33216395451019
 30
0.0
  0
LINE
  5
11B
330
1F
100
AcDbEntity
  8
0
  6
CONTINUOUS
 62
     7
100
AcDbLine
 10
2.7623316414
 20
3.0106467903
 30
0.0
 11
2.7623316414
 21
3.364977499
 31
0.0
  0
LINE
  5
11C
330
1F
100
AcDbEntity
  8
0
  6
CONTINUOUS
 62
     7
100
AcDbLine
 10
2.9463414451
 20
3.364977499
 30
0.0
 11
2.9606052939
 21
3.364977499
 31
0.0
  0
LINE
  5
11D
330
1F
100
AcDbEntity
  8
0
  6
CONTINUOUS
 62
     7
100
AcDbLine
 10
4.3896282294
 20
4.3492294675
 30
0.0
 11
4.5471085443
 21
4.3492294675
 31
0.0
  0
LINE
  5
11E
330
1F
100
AcDbEntity
  8
0
  6
CONTINUOUS
 62
     7
100
AcDbLine
 10
4.2321479144
 20
4.3492294675
 30
0.0
 11
4.3896282294
 21
4.3492294675
 31
0.0
  0
LINE
  5
11F
330
1F
100
AcDbEntity
  8
0
  6
CONTINUOUS
 62
     7
100
AcDbLine
 10
4.3896282294
 20
4.1523790738
 30
0.0
 11
4.4394380108
 21
4.1523790738
 31
0.0
  0
LINE
  5
120
330
1F
100
AcDbEntity
  8
0
  6
CONTINUOUS
 62
     7
100
AcDbLine
 10
4.3399889171
 20
4.1523790738
 30
0.0
 11
4.3896282294
 21
4.1523790738
 31
0.0
  0
LINE
  5
121
330
1F
100
AcDbEntity
  8
0
  6
CONTINUOUS
 62
     7
100
AcDbLine
 10
4.4368070184
 20
3.2468672628
 30
0.0
 11
4.3429804751
 21
3.2468672628
 31
0.0
  0
LINE
  5
122
330
1F
100
AcDbEntity
  8
0
  6
CONTINUOUS
 62
     7
100
AcDbLine
 10
2.0667935837
 20
2.971522813
 30
0.0
 11
2.0667935837
 21
4.5460798612
 31
0.0
  0
LINE
  5
123
330
1F
100
AcDbEntity
  8
0
  6
CONTINUOUS
 62
     7
100
AcDbLine
 10
2.0667935837
 20
2.971522813
 30
0.0
 11
2.027423505
 21
3.0109058489
 31
0.0
  0
LINE
  5
124
330
1F
100
AcDbEntity
  8
0
  6
CONTINUOUS
 62
     7
100
AcDbLine
 10
2.027423505
 20
4.5067097825
 30
0.0
 11
2.027423505
 21
3.0109058489
 31
0.0
  0
LINE
  5
125
330
1F
100
AcDbEntity
  8
0
  6
CONTINUOUS
 62
     7
100
AcDbLine
 10
2.7623316414
 20
4.5460798612
 30
0.0
 11
2.7623316414
 21
4.1523790738
 31
0.0
  0
LINE
  5
126
330
1F
100
AcDbEntity
  8
0
  6
CONTINUOUS
 62
     7
100
AcDbLine
 10
2.7623316414
 20
4.1523790738
 30
0.0
 11
2.9066885968
 21
4.1523790738
 31
0.0
  0
LINE
  5
127
330
1F
100
AcDbEntity
  8
0
  6
CONTINUOUS
 62
     7
100
AcDbLine
 10
2.9066885968
 20
4.1523790738
 30
0.0
 11
2.9066885968
 21
3.364977499
 31
0.0
  0
LINE
  5
128
330
1F
100
AcDbEntity
  8
0
  6
CONTINUOUS
 62
     7
100
AcDbLine
 10
2.9066885968
 20
3.364977499
 30
0.0
 11
2.7229615627
 21
3.364977499
 31
0.0
  0
LINE
  5
129
330
1F
100
AcDbEntity
  8
0
  6
CONTINUOUS
 62
     7
100
AcDbLine
 10
2.7229615627
 20
3.364977499
 30
0.0
 11
2.7229615627
 21
2.9712767116
 31
0.0
  0
LINE
  5
12A
330
1F
100
AcDbEntity
  8
0
  6
CONTINUOUS
 62
     7
100
AcDbLine
 10
2.621255526
 20
3.9948987588
 30
0.0
 11
2.5818854472
 21
3.9948987588
 31
0.0
  0
LINE
  5
12B
330
1F
100
AcDbEntity
  8
0
  6
CONTINUOUS
 62
     7
100
AcDbLine
 10
2.5818854472
 20
3.9948987588
 30
0.0
 11
2.5818854472
 21
2.971522813
 31
0.0
  0
LINE
  5
12C
330
1F
100
AcDbEntity
  8
0
  6
CONTINUOUS
 62
     7
100
AcDbLine
 10
2.0667935837
 20
2.971522813
 30
0.0
 11
2.5818854472
 21
2.971522813
 31
0.0
  0
SPLINE
  5
12D
330
1F
100
AcDbEntity
  8
0
  6
CONTINUOUS
 62
     7
100
AcDbSpline
210
0.0
220
0.0
230
1.0
 70
     8
 71
     3
 72
    66
 73
    62
 74
     0
 42
0.00000001
 43
0.00000001
 40
0.0
 40
0.0
 40
0.0
 40
0.0
 40
0.0312500000000003
 40
0.0312500000000003
 40
0.0625000000000005
 40
0.0625000000000005
 40
0.1250000000000009
 40
0.1250000000000009
 40
0.156250000000001
 40
0.156250000000001
 40
0.187500000000001
 40
0.187500000000001
 40
0.2187500000000011
 40
0.2187500000000011
 40
0.2500000000000012
 40
0.2500000000000012
 40
0.2812500000000013
 40
0.2812500000000013
 40
0.3125000000000012
 40
0.3125000000000012
 40
0.3437500000000012
 40
0.3437500000000012
 40
0.3750000000000012
 40
0.3750000000000012
 40
0.4062500000000012
 40
0.4062500000000012
 40
0.4375000000000012
 40
0.4375000000000012
 40
0.4687500000000011
 40
0.4687500000000011
 40
0.5000000000000011
 40
0.5000000000000011
 40
0.531250000000001
 40
0.531250000000001
 40
0.562500000000001
 40
0.562500000000001
 40
0.5937500000000009
 40
0.5937500000000009
 40
0.6250000000000008
 40
0.6250000000000008
 40
0.6562500000000008
 40
0.6562500000000008
 40
0.6875000000000007
 40
0.6875000000000007
 40
0.7187500000000006
 40
0.7187500000000006
 40
0.7500000000000004
 40
0.7500000000000004
 40
0.7812500000000004
 40
0.7812500000000004
 40
0.8125000000000003
 40
0.8125000000000003
 40
0.8437500000000002
 40
0.8437500000000002
 40
0.8750000000000002
 40
0.8750000000000002
 40
0.9375000000000001
 40
0.9375000000000001
 40
0.9687500000000001
 40
0.9687500000000001
 40
1.0
 40
1.0
 40
1.0
 40
1.0
 10
2.214106311344881
 20
3.076768519632645
 30
0.0
 10
2.20285116788265
 20
3.080046342431063
 30
0.0
 10
2.192894276121285
 20
3.084115699725865
 30
0.0
 10
2.174515788518042
 20
3.093407960507323
 30
0.0
 10
2.166065696014182
 20
3.098683337909224
 30
0.0
 10
2.142871544568588
 20
3.115827888976539
 30
0.0
 10
2.130320930531158
 20
3.12882310157765
 30
0.0
 10
2.114601662902045
 20
3.150667339303986
 30
0.0
 10
2.109892535377297
 20
3.158388242750726
 30
0.0
 10
2.101741322563801
 20
3.174371930060803
 30
0.0
 10
2.098275268132132
 20
3.182658629822852
 30
0.0
 10
2.092590551995069
 20
3.199853602977357
 30
0.0
 10
2.090371501463627
 20
3.208761642378284
 30
0.0
 10
2.087318349861393
 20
3.22725445329066
 30
0.0
 10
2.086494439264245
 20
3.236870846931152
 30
0.0
 10
2.086463263264536
 20
3.256294973509174
 30
0.0
 10
2.087240177115175
 20
3.266160862119614
 30
0.0
 10
2.090596964705212
 20
3.28617725040932
 30
0.0
 10
2.093213567708847
 20
3.296422378308467
 30
0.0
 10
2.100423082256681
 20
3.31658937843026
 30
0.0
 10
2.104993345788848
 20
3.326513300614824
 30
0.0
 10
2.116311788953342
 20
3.34589625096296
 30
0.0
 10
2.123148928834053
 20
3.355429958700025
 30
0.0
 10
2.13866181489923
 20
3.372979025408475
 30
0.0
 10
2.147371050212353
 20
3.381095165868695
 30
0.0
 10
2.166876074163217
 20
3.395771582620784
 30
0.0
 10
2.177712876558977
 20
3.402300408969171
 30
0.0
 10
2.20037428143655
 20
3.412820758068621
 30
0.0
 10
2.212405783622372
 20
3.4169496576197
 30
0.0
 10
2.237538264266296
 20
3.422571176446386
 30
0.0
 10
2.250239244345759
 20
3.423990298253746
 30
0.0
 10
2.275905726644301
 20
3.424073092450395
 30
0.0
 10
2.288913237741595
 20
3.422683373050645
 30
0.0
 10
2.313806841627639
 20
3.417259537257201
 30
0.0
 10
2.326005611986745
 20
3.413173879508054
 30
0.0
 10
2.348951902149672
 20
3.402653726283704
 30
0.0
 10
2.359598274933779
 20
3.396304268358179
 30
0.0
 10
2.379315253293216
 20
3.381621861161335
 30
0.0
 10
2.388247785182517
 20
3.373357926267819
 30
0.0
 10
2.403880560729261
 20
3.355769501324429
 30
0.0
 10
2.410726626925104
 20
3.346273376228004
 30
0.0
 10
2.422149281545453
 20
3.326810678645947
 30
0.0
 10
2.426755758786433
 20
3.316850259707058
 30
0.0
 10
2.434019390132546
 20
3.296619567476084
 30
0.0
 10
2.436644247244328
 20
3.286383719609822
 30
0.0
 10
2.440025996855253
 20
3.266361542450788
 30
0.0
 10
2.44081511582666
 20
3.256486891528426
 30
0.0
 10
2.440803484282947
 20
3.237035748652656
 30
0.0
 10
2.439986328849526
 20
3.227402610334479
 30
0.0
 10
2.436946243671869
 20
3.208895929975161
 30
0.0
 10
2.434732667502113
 20
3.199981189153346
 30
0.0
 10
2.429057380650846
 20
3.182773192802389
 30
0.0
 10
2.425595275631697
 20
3.174480172253283
 30
0.0
 10
2.417450812866845
 20
3.15848416915998
 30
0.0
 10
2.412740282644221
 20
3.150750623836081
 30
0.0
 10
2.39702491361379
 20
3.128887164453368
 30
0.0
 10
2.384491510906559
 20
3.115909607818557
 30
0.0
 10
2.361418682359917
 20
3.098815624522946
 30
0.0
 10
2.352916176587341
 20
3.093487601775661
 30
0.0
 10
2.334434763962512
 20
3.084129711810388
 30
0.0
 10
2.324437070219205
 20
3.080046424936569
 30
0.0
 10
2.313181643455719
 20
3.076768519632645
 30
0.0
  0
LINE
  5
12E
330
1F
100
AcDbEntity
  8
0
  6
CONTINUOUS
 62
     7
100
AcDbLine
 10
2.621255526
 20
3.9948987588
 30
0.0
 11
2.621255526
 21
2.9712767116
 31
0.0
  0
SPLINE
  5
12F
330
1F
100
AcDbEntity
  8
0
  6
CONTINUOUS
 62
     7
100
AcDbSpline
210
0.0
220
0.0
230
1.0
 70
    24
 71
     3
 72
     8
 73
     4
 74
     0
 42
0.00000001
 43
0.00000001
 40
0.0
 40
0.0
 40
0.0
 40
0.0
 40
0.0007676680295986
 40
0.0007676680295986
 40
0.0007676680295986
 40
0.0007676680295986
 10
2.906688596822872
 20
3.36497749899047
 30
0.0
 10
2.919879061218198
 20
3.36497749899047
 30
0.0
 10
2.933006781505677
 20
3.36497749899047
 30
0.0
 10
2.94605867556303
 20
3.36497749899047
 30
0.0
  0
SPLINE
  5
130
330
1F
100
AcDbEntity
  8
0
  6
CONTINUOUS
 62
     7
100
AcDbSpline
210
0.0
220
0.0
230
1.0
 70
    24
 71
     3
 72
     8
 73
     4
 74
     0
 42
0.00000001
 43
0.00000001
 40
0.0
 40
0.0
 40
0.0
 40
0.0
 40
0.0007676680295986
 40
0.0007676680295986
 40
0.0007676680295986
 40
0.0007676680295986
 10
2.94605867556303
 20
4.15237907379362
 30
0.0
 10
2.933006781505677
 20
4.15237907379362
 30
0.0
 10
2.919879061218198
 20
4.15237907379362
 30
0.0
 10
2.906688596822873
 20
4.15237907379362
 30
0.0
  0
CIRCLE
  5
131
330
1F
100
AcDbEntity
  8
0
  6
CONTINUOUS
 62
     7
100
AcDbCircle
 10
2.2636439774
 20
3.2468672628
 30
0.0
 40
0.1574803149606301
  0
LINE
  5
132
330
1F
100
AcDbEntity
  8
0
  6
CONTINUOUS
 62
     7
100
AcDbLine
 10
2.1849038199
 20
3.2014066117
 30
0.0
 11
2.1849038199
 21
3.2923279139
 31
0.0
  0
LINE
  5
133
330
1F
100
AcDbEntity
  8
0
  6
CONTINUOUS
 62
     7
100
AcDbLine
 10
2.2636439774
 20
3.1559459605
 30
0.0
 11
2.1849038199
 21
3.2014066117
 31
0.0
  0
LINE
  5
134
330
1F
100
AcDbEntity
  8
0
  6
CONTINUOUS
 62
     7
100
AcDbLine
 10
2.3423841349
 20
3.2014066117
 30
0.0
 11
2.2636439774
 21
3.1559459605
 31
0.0
  0
LINE
  5
135
330
1F
100
AcDbEntity
  8
0
  6
CONTINUOUS
 62
     7
100
AcDbLine
 10
2.3423841349
 20
3.2923279139
 30
0.0
 11
2.3423841349
 21
3.2014066117
 31
0.0
  0
LINE
  5
136
330
1F
100
AcDbEntity
  8
0
  6
CONTINUOUS
 62
     7
100
AcDbLine
 10
2.2636439774
 20
3.337788565
 30
0.0
 11
2.3423841349
 21
3.2923279139
 31
0.0
  0
LINE
  5
137
330
1F
100
AcDbEntity
  8
0
  6
CONTINUOUS
 62
     7
100
AcDbLine
 10
2.1849038199
 20
3.2923279139
 30
0.0
 11
2.2636439774
 21
3.337788565
 31
0.0
  0
ARC
  5
138
330
1F
100
AcDbEntity
  8
0
  6
CONTINUOUS
 62
     7
100
AcDbCircle
 10
2.2636439774
 20
3.2468672628
 30
0.0
 40
0.1771653543307088
100
AcDbArc
 50
270.0
 51
3.6152675073
  0
ARC
  5
139
330
1F
100
AcDbEntity
  8
0
  6
CONTINUOUS
 62
     7
100
AcDbCircle
 10
2.2636439774
 20
3.2468672628
 30
0.0
 40
0.1771653543307091
100
AcDbArc
 50
189.9167557281
 51
270.0
  0
LINE
  5
13A
330
1F
100
AcDbEntity
  8
0
  6
CONTINUOUS
 62
     8
100
AcDbLine
 10
4.3896282294
 20
4.3295444281
 30
0.0
 11
4.212462875
 21
4.3295444281
 31
0.0
  0
LINE
  5
13B
330
1F
100
AcDbEntity
  8
0
  6
CONTINUOUS
 62
     8
100
AcDbLine
 10
4.564146557
 20
4.3295444281
 30
0.0
 11
4.3896282294
 21
4.3295444281
 31
0.0
  0
LINE
  5
13C
330
1F
100
AcDbEntity
  8
0
  6
HIDDEN
 62
     7
100
AcDbLine
 10
4.5864786231
 20
3.7783633258
 30
0.0
 11
4.5864786231
 21
3.738993247
 31
0.0
  0
LINE
  5
13D
330
1F
100
AcDbEntity
  8
0
  6
HIDDEN
 62
     7
100
AcDbLine
 10
4.4391658954
 20
4.1523790738
 30
0.0
 11
4.5667935837
 21
4.1523790738
 31
0.0
  0
LINE
  5
13E
330
1F
100
AcDbEntity
  8
0
  6
HIDDEN
 62
     7
100
AcDbLine
 10
4.212462875
 20
4.1523790738
 30
0.0
 11
4.3400905633
 21
4.1523790738
 31
0.0
  0
LINE
  5
13F
330
1F
100
AcDbEntity
  8
0
  6
HIDDEN
 62
     7
100
AcDbLine
 10
3.7338859388
 20
4.4257950929
 30
0.0
 11
3.7072135312
 21
4.3947213738
 31
0.0
  0
LINE
  5
140
330
1F
100
AcDbEntity
  8
0
  6
HIDDEN
 62
     7
100
AcDbLine
 10
3.7072135312
 20
3.1226351989
 30
0.0
 11
3.7293919357
 21
3.0967970548
 31
0.0
  0
LINE
  5
141
330
1F
100
AcDbEntity
  8
0
  6
HIDDEN
 62
     7
100
AcDbLine
 10
3.7072135312
 20
3.1226351989
 30
0.0
 11
3.7072135312
 21
4.3947213738
 31
0.0
  0
LINE
  5
142
330
1F
100
AcDbEntity
  8
0
  6
HIDDEN
 62
     7
100
AcDbLine
 10
3.7072135312
 20
4.3947213738
 30
0.0
 11
3.7072135312
 21
4.4257950929
 31
0.0
  0
LINE
  5
143
330
1F
100
AcDbEntity
  8
0
  6
HIDDEN
 62
     7
100
AcDbLine
 10
3.7072135312
 20
3.0967970548
 30
0.0
 11
3.7072135312
 21
3.1226351989
 31
0.0
  0
LINE
  5
144
330
1F
100
AcDbEntity
  8
0
  6
HIDDEN
 62
     7
100
AcDbLine
 10
3.8909405653
 20
3.0767685196
 30
0.0
 11
3.8909405653
 21
3.1226351989
 31
0.0
  0
LINE
  5
145
330
1F
100
AcDbEntity
  8
0
  6
HIDDEN
 62
     7
100
AcDbLine
 10
3.8909405653
 20
4.3947213738
 30
0.0
 11
3.8909405653
 21
4.4405880532
 31
0.0
  0
LINE
  5
146
330
1F
100
AcDbEntity
  8
0
  6
HIDDEN
 62
     7
100
AcDbLine
 10
3.6678434525
 20
4.420559518
 30
0.0
 11
3.8515704866
 21
4.420559518
 31
0.0
  0
LINE
  5
147
330
1F
100
AcDbEntity
  8
0
  6
HIDDEN
 62
     7
100
AcDbLine
 10
3.6678434525
 20
4.4257950929
 30
0.0
 11
3.6678434525
 21
4.420559518
 31
0.0
  0
LINE
  5
148
330
1F
100
AcDbEntity
  8
0
  6
HIDDEN
 62
     7
100
AcDbLine
 10
3.8515704866
 20
3.0915614799
 30
0.0
 11
3.6678434525
 21
3.0915614799
 31
0.0
  0
LINE
  5
149
330
1F
100
AcDbEntity
  8
0
  6
HIDDEN
 62
     7
100
AcDbLine
 10
3.8515704866
 20
3.0967970548
 30
0.0
 11
3.8515704866
 21
3.0915614799
 31
0.0
  0
LINE
  5
14A
330
1F
100
AcDbEntity
  8
0
  6
HIDDEN
 62
     7
100
AcDbLine
 10
2.9854287543
 20
4.1851926183
 30
0.0
 11
2.8017017202
 21
4.1851926183
 31
0.0
  0
LINE
  5
14B
330
1F
100
AcDbEntity
  8
0
  6
HIDDEN
 62
     7
100
AcDbLine
 10
2.9854287543
 20
4.1769561922
 30
0.0
 11
2.9854287543
 21
4.1851926183
 31
0.0
  0
LINE
  5
14C
330
1F
100
AcDbEntity
  8
0
  6
HIDDEN
 62
     7
100
AcDbLine
 10
2.8017017202
 20
3.3404003805
 30
0.0
 11
2.9854287543
 21
3.3404003805
 31
0.0
  0
LINE
  5
14D
330
1F
100
AcDbEntity
  8
0
  6
HIDDEN
 62
     7
100
AcDbLine
 10
2.8017017202
 20
3.3321639545
 30
0.0
 11
2.8017017202
 21
3.3404003805
 31
0.0
  0
SPLINE
  5
14E
330
1F
100
AcDbEntity
  8
0
  6
HIDDEN
 62
     7
100
AcDbSpline
210
0.0
220
0.0
230
1.0
 70
     8
 71
     3
 72
     8
 73
     4
 74
     0
 42
0.00000001
 43
0.00000001
 40
0.0
 40
0.0
 40
0.0
 40
0.0
 40
0.000534342373819
 40
0.000534342373819
 40
0.000534342373819
 40
0.000534342373819
 10
2.776878259792466
 20
4.152379073793624
 30
0.0
 10
2.785075546621111
 20
4.163371023591349
 30
0.0
 10
2.793353550905329
 20
4.174307133912323
 30
0.0
 10
2.801701720182453
 20
4.185192618273903
 30
0.0
  0
SPLINE
  5
14F
330
1F
100
AcDbEntity
  8
0
  6
HIDDEN
 62
     7
100
AcDbSpline
210
0.0
220
0.0
230
1.0
 70
     8
 71
     3
 72
     8
 73
     4
 74
     0
 42
0.00000001
 43
0.00000001
 40
0.0
 40
0.0
 40
0.0
 40
0.0
 40
0.0006160615699252
 40
0.0006160615699252
 40
0.0006160615699252
 40
0.0006160615699252
 10
2.767863388034149
 20
3.364977498990475
 30
0.0
 10
2.779135667910526
 20
3.35678019732427
 30
0.0
 10
2.790415431933102
 20
3.348588038945028
 30
0.0
 10
2.801701720182453
 20
3.340400380538089
 30
0.0
  0
SPLINE
  5
150
330
1F
100
AcDbEntity
  8
0
  6
HIDDEN
 62
     7
100
AcDbSpline
210
0.0
220
0.0
230
1.0
 70
     8
 71
     3
 72
     8
 73
     4
 74
     0
 42
0.00000001
 43
0.00000001
 40
0.0
 40
0.0
 40
0.0
 40
0.0
 40
0.0002845941545838
 40
0.0002845941545838
 40
0.0002845941545838
 40
0.0002845941545838
 10
3.692666912855906
 20
3.105589417568428
 30
0.0
 10
3.697525747815154
 20
3.111262828000522
 30
0.0
 10
3.702374860567528
 20
3.116944581258384
 30
0.0
 10
3.707213531206075
 20
3.122635198935216
 30
0.0
  0
SPLINE
  5
151
330
1F
100
AcDbEntity
  8
0
  6
HIDDEN
 62
     7
100
AcDbSpline
210
0.0
220
0.0
230
1.0
 70
     8
 71
     3
 72
     8
 73
     4
 74
     0
 42
0.00000001
 43
0.00000001
 40
0.0
 40
0.0
 40
0.0
 40
0.0
 40
0.0006160615699252
 40
0.0006160615699252
 40
0.0006160615699252
 40
0.0006160615699252
 10
3.667843452465918
 20
3.091561479920418
 30
0.0
 10
3.679129740715268
 20
3.099749138327359
 30
0.0
 10
3.690409504737844
 20
3.1079412967066
 30
0.0
 10
3.701681784614222
 20
3.116138598372805
 30
0.0
  0
SPLINE
  5
152
330
1F
100
AcDbEntity
  8
0
  6
HIDDEN
 62
     7
100
AcDbSpline
210
0.0
220
0.0
230
1.0
 70
     8
 71
     3
 72
     8
 73
     4
 74
     0
 42
0.00000001
 43
0.00000001
 40
0.0
 40
0.0
 40
0.0
 40
0.0
 40
0.000534342373819
 40
0.000534342373819
 40
0.000534342373819
 40
0.000534342373819
 10
3.667843452465918
 20
3.096797054824135
 30
0.0
 10
3.676191621743042
 20
3.099713811568042
 30
0.0
 10
3.684469626027261
 20
3.102644133496885
 30
0.0
 10
3.692666912855906
 20
3.105589417568428
 30
0.0
  0
SPLINE
  5
153
330
1F
100
AcDbEntity
  8
0
  6
HIDDEN
 62
     7
100
AcDbSpline
210
0.0
220
0.0
230
1.0
 70
     8
 71
     3
 72
     8
 73
     4
 74
     0
 42
0.00000001
 43
0.00000001
 40
0.0
 40
0.0
 40
0.0
 40
0.0
 40
0.0001083645978465
 40
0.0001083645978465
 40
0.0001083645978465
 40
0.0001083645978465
 10
3.707213531206075
 20
4.394721373848879
 30
0.0
 10
3.705371116000377
 20
4.396888183975214
 30
0.0
 10
3.703527186834755
 20
4.39905370766289
 30
0.0
 10
3.701681784614221
 20
4.40121797441129
 30
0.0
  0
SPLINE
  5
154
330
1F
100
AcDbEntity
  8
0
  6
HIDDEN
 62
     7
100
AcDbSpline
210
0.0
220
0.0
230
1.0
 70
     8
 71
     3
 72
     8
 73
     4
 74
     0
 42
0.00000001
 43
0.00000001
 40
0.0
 40
0.0
 40
0.0
 40
0.0
 40
0.0006160615699252
 40
0.0006160615699252
 40
0.0006160615699252
 40
0.0006160615699252
 10
3.667843452465918
 20
4.425795092863676
 30
0.0
 10
3.679129740715268
 20
4.417607434456736
 30
0.0
 10
3.690409504737844
 20
4.409415276077495
 30
0.0
 10
3.701681784614221
 20
4.40121797441129
 30
0.0
  0
SPLINE
  5
155
330
1F
100
AcDbEntity
  8
0
  6
HIDDEN
 62
     7
100
AcDbSpline
210
0.0
220
0.0
230
1.0
 70
     8
 71
     3
 72
     8
 73
     4
 74
     0
 42
0.00000001
 43
0.00000001
 40
0.0
 40
0.0
 40
0.0
 40
0.0
 40
0.000534342373819
 40
0.000534342373819
 40
0.000534342373819
 40
0.000534342373819
 10
3.667843452465918
 20
4.420559517959958
 30
0.0
 10
3.676191621743042
 20
4.417642761216052
 30
0.0
 10
3.684469626027261
 20
4.414712439287209
 30
0.0
 10
3.692666912855905
 20
4.411767155215665
 30
0.0
  0
SPLINE
  5
156
330
1F
100
AcDbEntity
  8
0
  6
HIDDEN
 62
     7
100
AcDbSpline
210
0.0
220
0.0
230
1.0
 70
     8
 71
     3
 72
     8
 73
     4
 74
     0
 42
0.00000001
 43
0.00000001
 40
0.0
 40
0.0
 40
0.0
 40
0.0
 40
0.0002845941545838
 40
0.0002845941545838
 40
0.0002845941545838
 40
0.0002845941545838
 10
3.692666912855905
 20
4.411767155215665
 30
0.0
 10
3.697525747815153
 20
4.406093744783572
 30
0.0
 10
3.702374860567528
 20
4.40041199152571
 30
0.0
 10
3.707213531206075
 20
4.394721373848879
 30
0.0
  0
LINE
  5
157
330
1F
100
AcDbEntity
  8
0
  6
HIDDEN
 62
     7
100
AcDbLine
 10
3.7016817846
 20
4.4012179744
 30
0.0
 11
3.8854088187
 21
4.4012179744
 31
0.0
  0
LINE
  5
158
330
1F
100
AcDbEntity
  8
0
  6
HIDDEN
 62
     7
100
AcDbLine
 10
3.876393947
 20
3.1055894176
 30
0.0
 11
3.6926669129
 21
3.1055894176
 31
0.0
  0
SPLINE
  5
159
330
1F
100
AcDbEntity
  8
0
  6
HIDDEN
 62
     7
100
AcDbSpline
210
0.0
220
0.0
230
1.0
 70
     8
 71
     3
 72
     8
 73
     4
 74
     0
 42
0.00000001
 43
0.00000001
 40
0.0
 40
0.0
 40
0.0
 40
0.0
 40
0.000534342373819
 40
0.000534342373819
 40
0.000534342373819
 40
0.000534342373819
 10
3.851570486586652
 20
4.420559517959958
 30
0.0
 10
3.859918655863777
 20
4.417642761216052
 30
0.0
 10
3.868196660147996
 20
4.414712439287209
 30
0.0
 10
3.87639394697664
 20
4.411767155215665
 30
0.0
  0
LINE
  5
15A
330
1F
100
AcDbEntity
  8
0
  6
HIDDEN
 62
     7
100
AcDbLine
 10
3.876393947
 20
4.4117671552
 30
0.0
 11
3.6926669129
 21
4.4117671552
 31
0.0
  0
SPLINE
  5
15B
330
1F
100
AcDbEntity
  8
0
  6
HIDDEN
 62
     7
100
AcDbSpline
210
0.0
220
0.0
230
1.0
 70
     8
 71
     3
 72
     8
 73
     4
 74
     0
 42
0.00000001
 43
0.00000001
 40
0.0
 40
0.0
 40
0.0
 40
0.0
 40
0.0002845941545838
 40
0.0002845941545838
 40
0.0002845941545838
 40
0.0002845941545838
 10
3.890940565326809
 20
4.394721373848879
 30
0.0
 10
3.886101894688263
 20
4.40041199152571
 30
0.0
 10
3.881252781935888
 20
4.406093744783572
 30
0.0
 10
3.87639394697664
 20
4.411767155215665
 30
0.0
  0
LINE
  5
15C
330
1F
100
AcDbEntity
  8
0
  6
HIDDEN
 62
     7
100
AcDbLine
 10
3.7016817846
 20
3.1161385984
 30
0.0
 11
3.8854088187
 21
3.1161385984
 31
0.0
  0
SPLINE
  5
15D
330
1F
100
AcDbEntity
  8
0
  6
HIDDEN
 62
     7
100
AcDbSpline
210
0.0
220
0.0
230
1.0
 70
     8
 71
     3
 72
     8
 73
     4
 74
     0
 42
0.00000001
 43
0.00000001
 40
0.0
 40
0.0
 40
0.0
 40
0.0
 40
0.0006160615699252
 40
0.0006160615699252
 40
0.0006160615699252
 40
0.0006160615699252
 10
3.885408818734957
 20
3.116138598372805
 30
0.0
 10
3.874136538858579
 20
3.1079412967066
 30
0.0
 10
3.862856774836003
 20
3.099749138327359
 30
0.0
 10
3.851570486586652
 20
3.091561479920418
 30
0.0
  0
LINE
  5
15E
330
1F
100
AcDbEntity
  8
0
  6
HIDDEN
 62
     7
100
AcDbLine
 10
2.9606052939
 20
4.1523790738
 30
0.0
 11
2.9516314151
 21
4.1523790738
 31
0.0
  0
SPLINE
  5
15F
330
1F
100
AcDbEntity
  8
0
  6
HIDDEN
 62
     7
100
AcDbSpline
210
0.0
220
0.0
230
1.0
 70
     8
 71
     3
 72
     8
 73
     4
 74
     0
 42
0.00000001
 43
0.00000001
 40
0.0
 40
0.0
 40
0.0
 40
0.0
 40
0.0006160615699252
 40
0.0006160615699252
 40
0.0006160615699252
 40
0.0006160615699252
 10
2.985428754303187
 20
3.340400380538089
 30
0.0
 10
2.974142466053836
 20
3.348588038945028
 30
0.0
 10
2.96286270203126
 20
3.35678019732427
 30
0.0
 10
2.951590422154883
 20
3.364977498990475
 30
0.0
  0
SPLINE
  5
160
330
1F
100
AcDbEntity
  8
0
  6
HIDDEN
 62
     7
100
AcDbSpline
210
0.0
220
0.0
230
1.0
 70
     8
 71
     3
 72
     8
 73
     4
 74
     0
 42
0.00000001
 43
0.00000001
 40
0.0
 40
0.0
 40
0.0
 40
0.0
 40
0.000534342373819
 40
0.000534342373819
 40
0.000534342373819
 40
0.000534342373819
 10
2.9606052939132
 20
4.152379073793624
 30
0.0
 10
2.968802580741844
 20
4.163371023591349
 30
0.0
 10
2.977080585026062
 20
4.174307133912323
 30
0.0
 10
2.985428754303187
 20
4.185192618273903
 30
0.0
  0
LINE
  5
161
330
1F
100
AcDbEntity
  8
0
  6
HIDDEN
 62
     7
100
AcDbLine
 10
4.4394380108
 20
4.1523790738
 30
0.0
 11
4.5667935837
 21
4.1523790738
 31
0.0
  0
LINE
  5
162
330
1F
100
AcDbEntity
  8
0
  6
HIDDEN
 62
     7
100
AcDbLine
 10
4.212462875
 20
4.1523790738
 30
0.0
 11
4.3399889171
 21
4.1523790738
 31
0.0
  0
LINE
  5
163
330
1F
100
AcDbEntity
  8
0
  6
HIDDEN
 62
     7
100
AcDbLine
 10
4.4880534262
 20
3.2665523021
 30
0.0
 11
4.2912030325
 21
3.2665523021
 31
0.0
  0
LINE
  5
164
330
1F
100
AcDbEntity
  8
0
  6
HIDDEN
 62
     7
100
AcDbLine
 10
4.4683683868
 20
3.2468672628
 30
0.0
 11
4.4368070184
 21
3.2468672628
 31
0.0
  0
LINE
  5
165
330
1F
100
AcDbEntity
  8
0
  6
HIDDEN
 62
     7
100
AcDbLine
 10
4.3429804751
 20
3.2468672628
 30
0.0
 11
4.3108880719
 21
3.2468672628
 31
0.0
  0
LINE
  5
166
330
1F
100
AcDbEntity
  8
0
  6
HIDDEN
 62
     7
100
AcDbLine
 10
4.3896282294
 20
4.1917491525
 30
0.0
 11
4.4683683868
 21
4.1917491525
 31
0.0
  0
LINE
  5
167
330
1F
100
AcDbEntity
  8
0
  6
HIDDEN
 62
     7
100
AcDbLine
 10
4.3108880719
 20
4.1917491525
 30
0.0
 11
4.3896282294
 21
4.1917491525
 31
0.0
  0
LINE
  5
168
330
1F
100
AcDbEntity
  8
0
  6
HIDDEN
 62
     7
100
AcDbLine
 10
4.3896282294
 20
4.1917491525
 30
0.0
 11
4.3896282294
 21
4.3492294675
 31
0.0
  0
LINE
  5
169
330
1F
100
AcDbEntity
  8
0
  6
HIDDEN
 62
     7
100
AcDbLine
 10
4.4683683868
 20
4.1917491525
 30
0.0
 11
4.4683683868
 21
4.3492294675
 31
0.0
  0
LINE
  5
16A
330
1F
100
AcDbEntity
  8
0
  6
HIDDEN
 62
     7
100
AcDbLine
 10
4.3108880719
 20
4.1917491525
 30
0.0
 11
4.3108880719
 21
4.3492294675
 31
0.0
  0
LINE
  5
16B
330
1F
100
AcDbEntity
  8
0
  6
HIDDEN
 62
     7
100
AcDbLine
 10
2.3131816435
 20
3.0767685196
 30
0.0
 11
2.2141063113
 21
3.0767685196
 31
0.0
  0
CIRCLE
  5
16C
330
1F
100
AcDbEntity
  8
0
  6
HIDDEN
 62
     7
100
AcDbCircle
 10
2.2636439774
 20
3.2468672628
 30
0.0
 40
0.098425196850394
  0
LINE
  5
16D
330
1F
100
AcDbEntity
  8
0
  6
HIDDEN
 62
     7
100
AcDbLine
 10
2.0667935837
 20
3.9940771199
 30
0.0
 11
2.4186702559
 21
3.9940771199
 31
0.0
  0
LINE
  5
16E
330
1F
100
AcDbEntity
  8
0
  6
HIDDEN
 62
     7
100
AcDbLine
 10
2.5818854472
 20
3.5232794529
 30
0.0
 11
2.0667935837
 21
3.5232794529
 31
0.0
  0
SPLINE
  5
16F
330
1F
100
AcDbEntity
  8
0
  6
HIDDEN
 62
     7
100
AcDbSpline
210
0.0
220
0.0
230
1.0
 70
     8
 71
     3
 72
     8
 73
     4
 74
     0
 42
0.00000001
 43
0.00000001
 40
0.0
 40
0.0
 40
0.0
 40
0.0
 40
1.0
 40
1.0
 40
1.0
 40
1.0
 10
2.066793583699514
 20
3.994077119917665
 30
0.0
 10
2.053673508590713
 20
4.00724298949418
 30
0.0
 10
2.040549678499918
 20
4.020405114070602
 30
0.0
 10
2.027423504959355
 20
4.03356490142687
 30
0.0
  0
ARC
  5
170
330
1F
100
AcDbEntity
  8
0
  6
HIDDEN
 62
     7
100
AcDbCircle
 10
2.027423505
 20
3.6011979714
 30
0.0
 40
0.5544619422572186
100
AcDbArc
 50
45.1192784943
 51
90.0
  0
SPLINE
  5
171
330
1F
100
AcDbEntity
  8
0
  6
HIDDEN
 62
     7
100
AcDbSpline
210
0.0
220
0.0
230
1.0
 70
     8
 71
     3
 72
     8
 73
     4
 74
     0
 42
0.00000001
 43
0.00000001
 40
0.0
 40
0.0
 40
0.0
 40
0.0
 40
1.0
 40
1.0
 40
1.0
 40
1.0
 10
2.027423504959355
 20
3.483791671357224
 30
0.0
 10
2.040549679071018
 20
3.496951459286055
 30
0.0
 10
2.053673509256994
 20
3.510113583958522
 30
0.0
 10
2.066793583699514
 20
3.523279452866429
 30
0.0
  0
ARC
  5
172
330
1F
100
AcDbEntity
  8
0
  6
HIDDEN
 62
     7
100
AcDbCircle
 10
2.2636439774
 20
3.2468672628
 30
0.0
 40
0.1771653543307091
100
AcDbArc
 50
3.6152675073
 51
189.9167557281
  0
CIRCLE
  5
173
330
1F
100
AcDbEntity
  8
0
  6
HIDDEN
 62
     7
100
AcDbCircle
 10
2.2636439774
 20
3.2468672628
 30
0.0
 40
0.0787401574803148
  0
LINE
  5
174
330
1F
100
AcDbEntity
  8
0
  6
HIDDEN
 62
     7
100
AcDbLine
 10
4.5667935837
 20
4.1523790738
 30
0.0
 11
4.5667935837
 21
4.356655164
 31
0.0
  0
LINE
  5
175
330
1F
100
AcDbEntity
  8
0
  6
HIDDEN
 62
     7
100
AcDbLine
 10
4.212462875
 20
4.3566354328
 30
0.0
 11
4.212462875
 21
4.1523790738
 31
0.0
  0
LINE
  5
176
330
1F
100
AcDbEntity
  8
0
  6
HIDDEN
 62
     7
100
AcDbLine
 10
4.2912030325
 20
3.738993247
 30
0.0
 11
4.2912030325
 21
3.1603905817
 31
0.0
  0
LINE
  5
177
330
1F
100
AcDbEntity
  8
0
  6
HIDDEN
 62
     7
100
AcDbLine
 10
4.4880534262
 20
3.160466696
 30
0.0
 11
4.4880534262
 21
3.738993247
 31
0.0
  0
LINE
  5
178
330
1F
100
AcDbEntity
  8
0
  6
HIDDEN
 62
     7
100
AcDbLine
 10
4.2912030325
 20
4.1523790738
 30
0.0
 11
4.2912030325
 21
3.7783633258
 31
0.0
  0
LINE
  5
179
330
1F
100
AcDbEntity
  8
0
  6
HIDDEN
 62
     7
100
AcDbLine
 10
4.4880534262
 20
3.7783633258
 30
0.0
 11
4.4880534262
 21
4.1523790738
 31
0.0
  0
LINE
  5
17A
330
1F
100
AcDbEntity
  8
0
  6
HIDDEN
 62
     7
100
AcDbLine
 10
4.6258487018
 20
4.0342688376
 30
0.0
 11
4.5864786231
 21
3.9948987588
 31
0.0
  0
LINE
  5
17B
330
1F
100
AcDbEntity
  8
0
  6
HIDDEN
 62
     7
100
AcDbLine
 10
4.5864786231
 20
3.522457814
 30
0.0
 11
4.6258487018
 21
3.4830877352
 31
0.0
  0
LINE
  5
17C
330
1F
100
AcDbEntity
  8
0
  6
HIDDEN
 62
     7
100
AcDbLine
 10
4.0320166808
 20
3.9948987588
 30
0.0
 11
3.7072135312
 21
3.9948987588
 31
0.0
  0
LINE
  5
17D
330
1F
100
AcDbEntity
  8
0
  6
HIDDEN
 62
     7
100
AcDbLine
 10
3.7072135312
 20
3.522457814
 30
0.0
 11
4.0320166808
 21
3.522457814
 31
0.0
  0
LINE
  5
17E
330
1F
100
AcDbEntity
  8
0
  6
HIDDEN
 62
     7
100
AcDbLine
 10
4.5864786231
 20
3.9948987588
 30
0.0
 11
4.0713867596
 21
3.9948987588
 31
0.0
  0
LINE
  5
17F
330
1F
100
AcDbEntity
  8
0
  6
HIDDEN
 62
     7
100
AcDbLine
 10
4.0713867596
 20
3.522457814
 30
0.0
 11
4.5864786231
 21
3.522457814
 31
0.0
  0
LINE
  5
180
330
1F
100
AcDbEntity
  8
0
  6
HIDDEN
 62
     7
100
AcDbLine
 10
2.9460586756
 20
3.522457814
 30
0.0
 11
3.7072135312
 21
3.522457814
 31
0.0
  0
LINE
  5
181
330
1F
100
AcDbEntity
  8
0
  6
HIDDEN
 62
     7
100
AcDbLine
 10
3.7072135312
 20
3.9948987588
 30
0.0
 11
2.9460586756
 21
3.9948987588
 31
0.0
  0
ARC
  5
182
330
1F
100
AcDbEntity
  8
0
  6
HIDDEN
 62
     7
100
AcDbCircle
 10
4.2321479144
 20
4.3295444281
 30
0.0
 40
0.0196850393700787
100
AcDbArc
 50
156.7056953256
 51
180.0
  0
ARC
  5
183
330
1F
100
AcDbEntity
  8
0
  6
HIDDEN
 62
     7
100
AcDbCircle
 10
4.5471085443
 20
4.3295444281
 30
0.0
 40
0.0196850393700787
100
AcDbArc
 50
0.0
 51
23.0609423865
  0
LINE
  5
184
330
1F
100
AcDbEntity
  8
0
  6
HIDDEN
 62
     7
100
AcDbLine
 10
4.5667935837
 20
4.1523790738
 30
0.0
 11
4.5667935837
 21
4.3295444281
 31
0.0
  0
LINE
  5
185
330
1F
100
AcDbEntity
  8
0
  6
HIDDEN
 62
     7
100
AcDbLine
 10
4.212462875
 20
4.3295444281
 30
0.0
 11
4.212462875
 21
4.1523790738
 31
0.0
  0
LINE
  5
186
330
1F
100
AcDbEntity
  8
0
  6
HIDDEN
 62
     7
100
AcDbLine
 10
4.4880534262
 20
3.2665523021
 30
0.0
 11
4.4880534262
 21
3.738993247
 31
0.0
  0
LINE
  5
187
330
1F
100
AcDbEntity
  8
0
  6
HIDDEN
 62
     7
100
AcDbLine
 10
4.4880534262
 20
3.7783633258
 30
0.0
 11
4.4880534262
 21
4.1523790738
 31
0.0
  0
LINE
  5
188
330
1F
100
AcDbEntity
  8
0
  6
HIDDEN
 62
     7
100
AcDbLine
 10
4.2912030325
 20
4.1523790738
 30
0.0
 11
4.2912030325
 21
3.7783633258
 31
0.0
  0
LINE
  5
189
330
1F
100
AcDbEntity
  8
0
  6
HIDDEN
 62
     7
100
AcDbLine
 10
4.2912030325
 20
3.738993247
 30
0.0
 11
4.2912030325
 21
3.2665523021
 31
0.0
  0
ARC
  5
18A
330
1F
100
AcDbEntity
  8
0
  6
HIDDEN
 62
     7
100
AcDbCircle
 10
4.4683683868
 20
3.2665523021
 30
0.0
 40
0.0196850393700787
100
AcDbArc
 50
270.0
 51
0.0
  0
ARC
  5
18B
330
1F
100
AcDbEntity
  8
0
  6
HIDDEN
 62
     7
100
AcDbCircle
 10
4.3108880719
 20
3.2665523021
 30
0.0
 40
0.0196850393700787
100
AcDbArc
 50
180.0
 51
270.0
  0
LINE
  5
18C
330
1F
100
AcDbEntity
  8
0
  6
HIDDEN
 62
     7
100
AcDbLine
 10
2.5818854472
 20
3.9948987588
 30
0.0
 11
2.4178492443
 21
3.9948987588
 31
0.0
  0
LINE
  5
18D
330
1F
100
AcDbEntity
  8
0
  6
HIDDEN
 62
     7
100
AcDbLine
 10
2.621255526
 20
3.522457814
 30
0.0
 11
2.9460586756
 21
3.522457814
 31
0.0
  0
LINE
  5
18E
330
1F
100
AcDbEntity
  8
0
  6
HIDDEN
 62
     7
100
AcDbLine
 10
2.9460586756
 20
3.9948987588
 30
0.0
 11
2.621255526
 21
3.9948987588
 31
0.0
  0
LINE
  5
18F
330
1F
100
AcDbEntity
  8
0
  6
HIDDEN
 62
     7
100
AcDbLine
 10
4.212462875
 20
4.3295444281
 30
0.0
 11
4.566493848
 21
4.3295444281
 31
0.0
  0
LINE
  5
190
330
1F
100
AcDbEntity
  8
0
  6
CONTINUOUS
 62
     7
100
AcDbLine
 10
7.5619082284
 20
4.3295444281
 30
0.0
 11
7.5619082284
 21
4.1523790738
 31
0.0
  0
ARC
  5
191
330
1F
100
AcDbEntity
  8
0
  6
CONTINUOUS
 62
     7
100
AcDbCircle
 10
7.5815932677
 20
4.3295444281
 30
0.0
 40
0.0196850393700787
100
AcDbArc
 50
90.0
 51
180.0
  0
LINE
  5
192
330
1F
100
AcDbEntity
  8
0
  6
CONTINUOUS
 62
     7
100
AcDbLine
 10
7.8374987796
 20
3.738993247
 30
0.0
 11
7.8374987796
 21
3.7783633258
 31
0.0
  0
LINE
  5
193
330
1F
100
AcDbEntity
  8
0
  6
CONTINUOUS
 62
     7
100
AcDbLine
 10
7.6406483859
 20
3.7783633258
 30
0.0
 11
7.6406483859
 21
3.738993247
 31
0.0
  0
ARC
  5
194
330
1F
100
AcDbEntity
  8
0
  6
CONTINUOUS
 62
     7
100
AcDbCircle
 10
7.6603334252
 20
3.2665523021
 30
0.0
 40
0.0196850393700792
100
AcDbArc
 50
201.1525625145
 51
238.4585796701
  0
LINE
  5
195
330
1F
100
AcDbEntity
  8
0
  6
CONTINUOUS
 62
     7
100
AcDbLine
 10
7.6800184646
 20
3.0697019084
 30
0.0
 11
7.8571838189
 21
3.0697019084
 31
0.0
  0
ARC
  5
196
330
1F
100
AcDbEntity
  8
0
  6
CONTINUOUS
 62
     7
100
AcDbCircle
 10
7.6800184646
 20
3.0893869478
 30
0.0
 40
0.0196850393700787
100
AcDbArc
 50
180.0
 51
270.0
  0
ARC
  5
197
330
1F
100
AcDbEntity
  8
0
  6
CONTINUOUS
 62
     7
100
AcDbCircle
 10
8.7430105906
 20
3.1681271053
 30
0.0
 40
0.0196850393700793
100
AcDbArc
 50
291.1525625145
 51
328.4585796701
  0
ARC
  5
198
330
1F
100
AcDbEntity
  8
0
  6
CONTINUOUS
 62
     7
100
AcDbCircle
 10
8.2508846063
 20
3.7586782864
 30
0.0
 40
0.2755905511811041
100
AcDbArc
 50
184.0960437582
 51
355.9039562418
  0
LINE
  5
199
330
1F
100
AcDbEntity
  8
0
  6
CONTINUOUS
 62
     7
100
AcDbLine
 10
8.5257712214
 20
3.738993247
 30
0.0
 11
8.6478662336
 21
3.738993247
 31
0.0
  0
LINE
  5
19A
330
1F
100
AcDbEntity
  8
0
  6
CONTINUOUS
 62
     7
100
AcDbLine
 10
8.6478662336
 20
3.738993247
 30
0.0
 11
8.6478662336
 21
3.7783633258
 31
0.0
  0
LINE
  5
19B
330
1F
100
AcDbEntity
  8
0
  6
CONTINUOUS
 62
     7
100
AcDbLine
 10
8.5257712214
 20
3.7783633258
 30
0.0
 11
8.6478662336
 21
3.7783633258
 31
0.0
  0
ARC
  5
19C
330
1F
100
AcDbEntity
  8
0
  6
CONTINUOUS
 62
     7
100
AcDbCircle
 10
8.2508846063
 20
3.7586782864
 30
0.0
 40
0.2755905511811041
100
AcDbArc
 50
4.0960437582
 51
175.9039562418
  0
LINE
  5
19D
330
1F
100
AcDbEntity
  8
0
  6
CONTINUOUS
 62
     7
100
AcDbLine
 10
7.5031121688
 20
3.7783633258
 30
0.0
 11
7.9759979913
 21
3.7783633258
 31
0.0
  0
ARC
  5
19E
330
1F
100
AcDbEntity
  8
0
  6
CONTINUOUS
 62
     7
100
AcDbCircle
 10
8.2508846063
 20
3.7586782864
 30
0.0
 40
0.7480314960629909
100
AcDbArc
 50
181.5079577542
 51
178.4920422458
  0
LINE
  5
19F
330
1F
100
AcDbEntity
  8
0
  6
CONTINUOUS
 62
     7
100
AcDbLine
 10
7.5031121688
 20
3.738993247
 30
0.0
 11
7.9759979913
 21
3.738993247
 31
0.0
  0
LINE
  5
1A0
330
1F
100
AcDbEntity
  8
0
  6
CONTINUOUS
 62
     7
100
AcDbLine
 10
7.463729133
 20
3.7783633258
 30
0.0
 11
7.5031121688
 21
3.7783633258
 31
0.0
  0
ARC
  5
1A1
330
1F
100
AcDbEntity
  8
0
  6
CONTINUOUS
 62
     7
100
AcDbCircle
 10
8.2508846063
 20
3.7586782864
 30
0.0
 40
0.7874015748031484
100
AcDbArc
 50
181.4325437376
 51
178.5674562624
  0
LINE
  5
1A2
330
1F
100
AcDbEntity
  8
0
  6
CONTINUOUS
 62
     7
100
AcDbLine
 10
7.463729133
 20
3.738993247
 30
0.0
 11
7.5031121688
 21
3.738993247
 31
0.0
  0
SPLINE
  5
1A3
330
1F
100
AcDbEntity
  8
0
  6
CONTINUOUS
 62
     7
100
AcDbSpline
210
0.0
220
0.0
230
1.0
 70
     8
 71
     3
 72
     8
 73
     4
 74
     0
 42
0.00000001
 43
0.00000001
 40
0.0
 40
0.0
 40
0.0
 40
0.0
 40
1.0
 40
1.0
 40
1.0
 40
1.0
 10
8.486283439849608
 20
3.738993247021968
 30
0.0
 10
8.487380870308934
 20
3.752116606602021
 30
0.0
 10
8.487380870308934
 20
3.765239966182073
 30
0.0
 10
8.486283439849608
 20
3.778363325762126
 30
0.0
  0
ARC
  5
1A4
330
1F
100
AcDbEntity
  8
0
  6
CONTINUOUS
 62
     7
100
AcDbCircle
 10
8.2508846063
 20
3.7586782864
 30
0.0
 40
0.2362204724409451
100
AcDbArc
 50
4.7801918472
 51
175.2198081528
  0
SPLINE
  5
1A5
330
1F
100
AcDbEntity
  8
0
  6
CONTINUOUS
 62
     7
100
AcDbSpline
210
0.0
220
0.0
230
1.0
 70
    24
 71
     3
 72
     8
 73
     4
 74
     0
 42
0.00000001
 43
0.00000001
 40
0.0
 40
0.0
 40
0.0
 40
0.0
 40
1.0
 40
1.0
 40
1.0
 40
1.0
 10
7.975997991289167
 20
3.778363325762126
 30
0.0
 10
7.989157779217997
 20
3.778363325762126
 30
0.0
 10
8.002319903890465
 20
3.778363325762126
 30
0.0
 10
8.015485772798371
 20
3.778363325762126
 30
0.0
  0
SPLINE
  5
1A6
330
1F
100
AcDbEntity
  8
0
  6
CONTINUOUS
 62
     7
100
AcDbSpline
210
0.0
220
0.0
230
1.0
 70
    24
 71
     3
 72
     8
 73
     4
 74
     0
 42
0.00000001
 43
0.00000001
 40
0.0
 40
0.0
 40
0.0
 40
0.0
 40
1.0
 40
1.0
 40
1.0
 40
1.0
 10
8.486283439849608
 20
3.778363325762126
 30
0.0
 10
8.499449309426122
 20
3.778363325762126
 30
0.0
 10
8.512611434002546
 20
3.778363325762126
 30
0.0
 10
8.525771221358813
 20
3.778363325762126
 30
0.0
  0
ARC
  5
1A7
330
1F
100
AcDbEntity
  8
0
  6
CONTINUOUS
 62
     7
100
AcDbCircle
 10
8.2508846063
 20
3.7586782864
 30
0.0
 40
0.2362204724409451
100
AcDbArc
 50
184.7801918472
 51
355.2198081528
  0
SPLINE
  5
1A8
330
1F
100
AcDbEntity
  8
0
  6
CONTINUOUS
 62
     7
100
AcDbSpline
210
0.0
220
0.0
230
1.0
 70
    24
 71
     3
 72
     8
 73
     4
 74
     0
 42
0.00000001
 43
0.00000001
 40
0.0
 40
0.0
 40
0.0
 40
0.0
 40
1.0
 40
1.0
 40
1.0
 40
1.0
 10
7.975997991289167
 20
3.738993247021968
 30
0.0
 10
7.989157779217997
 20
3.738993247021968
 30
0.0
 10
8.002319903890465
 20
3.738993247021968
 30
0.0
 10
8.015485772798371
 20
3.738993247021968
 30
0.0
  0
SPLINE
  5
1A9
330
1F
100
AcDbEntity
  8
0
  6
CONTINUOUS
 62
     7
100
AcDbSpline
210
0.0
220
0.0
230
1.0
 70
    24
 71
     3
 72
     8
 73
     4
 74
     0
 42
0.00000001
 43
0.00000001
 40
0.0
 40
0.0
 40
0.0
 40
0.0
 40
1.0
 40
1.0
 40
1.0
 40
1.0
 10
8.486283439849608
 20
3.738993247021968
 30
0.0
 10
8.499449309426122
 20
3.738993247021968
 30
0.0
 10
8.512611434002546
 20
3.738993247021968
 30
0.0
 10
8.525771221358813
 20
3.738993247021968
 30
0.0
  0
ARC
  5
1AA
330
1F
100
AcDbEntity
  8
0
  6
CONTINUOUS
 62
     7
100
AcDbCircle
 10
8.2508846063
 20
3.7586782864
 30
0.0
 40
0.2362204724409469
100
AcDbArc
 50
175.2198081528
 51
184.7801918472
  0
POLYLINE
  5
1AB
330
1F
100
AcDbEntity
  8
0
  6
CONTINUOUS
 62
     7
100
AcDb2dPolyline
 66
     1
 10
0.0
 20
0.0
 30
0.0
  0
VERTEX
  5
336
330
1AB
100
AcDbEntity
  8
0
  6
CONTINUOUS
 62
     7
100
AcDbVertex
100
AcDb2dVertex
 10
7.463729133
 20
3.7783633258
 30
0.0
  0
VERTEX
  5
337
330
1AB
100
AcDbEntity
  8
0
  6
CONTINUOUS
 62
     7
100
AcDbVertex
100
AcDb2dVertex
 10
7.4634830315
 20
3.7586782864
 30
0.0
  0
VERTEX
  5
338
330
1AB
100
AcDbEntity
  8
0
  6
CONTINUOUS
 62
     7
100
AcDbVertex
100
AcDb2dVertex
 10
7.463729133
 20
3.738993247
 30
0.0
  0
SEQEND
  5
339
330
1AB
100
AcDbEntity
  8
0
  6
CONTINUOUS
 62
     7
  0
LINE
  5
1AC
330
1F
100
AcDbEntity
  8
0
  6
CONTINUOUS
 62
     7
100
AcDbLine
 10
7.5619082284
 20
4.1523790738
 30
0.0
 11
7.5689748396
 21
4.1523790738
 31
0.0
  0
LINE
  5
1AD
330
1F
100
AcDbEntity
  8
0
  6
CONTINUOUS
 62
     7
100
AcDbLine
 10
7.5815932677
 20
4.3492294675
 30
0.0
 11
7.7300674191
 21
4.3492294675
 31
0.0
  0
LINE
  5
1AE
330
1F
100
AcDbEntity
  8
0
  6
CONTINUOUS
 62
     7
100
AcDbLine
 10
7.8571838189
 20
3.0742711321
 30
0.0
 11
7.8571838189
 21
3.0697019084
 31
0.0
  0
LINE
  5
1AF
330
1F
100
AcDbEntity
  8
0
  6
CONTINUOUS
 62
     7
100
AcDbLine
 10
7.6603334252
 20
3.2378610992
 30
0.0
 11
7.6603334252
 21
3.0893869478
 31
0.0
  0
LINE
  5
1B0
330
1F
100
AcDbEntity
  8
0
  6
CONTINUOUS
 62
     8
100
AcDbLine
 10
7.7085626648
 20
4.3295444281
 30
0.0
 11
7.5619082284
 21
4.3295444281
 31
0.0
  0
LINE
  5
1B1
330
1F
100
AcDbEntity
  8
0
  6
CONTINUOUS
 62
     8
100
AcDbLine
 10
7.6800184646
 20
3.0697019084
 30
0.0
 11
7.6800184646
 21
3.2163563449
 31
0.0
  0
LINE
  5
1B2
330
1F
100
AcDbEntity
  8
0
  6
HIDDEN
 62
     7
100
AcDbLine
 10
7.5689748396
 20
4.1523790738
 30
0.0
 11
7.916238937
 21
4.1523790738
 31
0.0
  0
LINE
  5
1B3
330
1F
100
AcDbEntity
  8
0
  6
HIDDEN
 62
     7
100
AcDbLine
 10
8.4871050788
 20
3.0075450569
 30
0.0
 11
8.4871050788
 21
3.7586782864
 31
0.0
  0
LINE
  5
1B4
330
1F
100
AcDbEntity
  8
0
  6
HIDDEN
 62
     7
100
AcDbLine
 10
8.4871050788
 20
3.7586782864
 30
0.0
 11
8.4871050788
 21
4.5098115159
 31
0.0
  0
POLYLINE
  5
1B5
330
1F
100
AcDbEntity
  8
0
  6
HIDDEN
 62
     7
100
AcDb2dPolyline
 66
     1
 10
0.0
 20
0.0
 30
0.0
  0
VERTEX
  5
33A
330
1B5
100
AcDbEntity
  8
0
  6
HIDDEN
 62
     7
100
AcDbVertex
100
AcDb2dVertex
 10
8.4862834398
 20
3.7783633258
 30
0.0
  0
VERTEX
  5
33B
330
1B5
100
AcDbEntity
  8
0
  6
HIDDEN
 62
     7
100
AcDbVertex
100
AcDb2dVertex
 10
8.4871050788
 20
3.7586782864
 30
0.0
  0
VERTEX
  5
33C
330
1B5
100
AcDbEntity
  8
0
  6
HIDDEN
 62
     7
100
AcDbVertex
100
AcDb2dVertex
 10
8.4862834398
 20
3.738993247
 30
0.0
  0
SEQEND
  5
33D
330
1B5
100
AcDbEntity
  8
0
  6
HIDDEN
 62
     7
  0
SPLINE
  5
1B6
330
1F
100
AcDbEntity
  8
0
  6
HIDDEN
 62
     7
100
AcDbSpline
210
0.0
220
0.0
230
1.0
 70
    24
 71
     3
 72
     8
 73
     4
 74
     0
 42
0.00000001
 43
0.00000001
 40
0.0
 40
0.0
 40
0.0
 40
0.0
 40
0.0007676680295986
 40
0.0007676680295986
 40
0.0007676680295986
 40
0.0007676680295986
 10
7.857183818922415
 20
4.394721373848879
 30
0.0
 10
7.857183818922415
 20
4.410071321094143
 30
0.0
 10
7.857183818922415
 20
4.425357016812694
 30
0.0
 10
7.857183818922415
 20
4.440588053151448
 30
0.0
  0
SPLINE
  5
1B7
330
1F
100
AcDbEntity
  8
0
  6
HIDDEN
 62
     7
100
AcDbSpline
210
0.0
220
0.0
230
1.0
 70
    24
 71
     3
 72
     8
 73
     4
 74
     0
 42
0.00000001
 43
0.00000001
 40
0.0
 40
0.0
 40
0.0
 40
0.0
 40
0.0007676680295986
 40
0.0007676680295986
 40
0.0007676680295986
 40
0.0007676680295986
 10
7.857183818922415
 20
3.076768519632647
 30
0.0
 10
7.857183818922415
 20
3.0919995559714
 30
0.0
 10
7.857183818922415
 20
3.107285251689951
 30
0.0
 10
7.857183818922415
 20
3.122635198935216
 30
0.0
  0
LINE
  5
1B8
330
1F
100
AcDbEntity
  8
0
  6
HIDDEN
 62
     7
100
AcDbLine
 10
8.6445853937
 20
3.0767685196
 30
0.0
 11
8.6445853937
 21
4.4405880532
 31
0.0
  0
POLYLINE
  5
1B9
330
1F
100
AcDbEntity
  8
0
  6
HIDDEN
 62
     7
100
AcDb2dPolyline
 66
     1
 10
0.0
 20
0.0
 30
0.0
  0
VERTEX
  5
33E
330
1B9
100
AcDbEntity
  8
0
  6
HIDDEN
 62
     7
100
AcDbVertex
100
AcDb2dVertex
 10
7.5031121688
 20
3.738993247
 30
0.0
  0
VERTEX
  5
33F
330
1B9
100
AcDbEntity
  8
0
  6
HIDDEN
 62
     7
100
AcDbVertex
100
AcDb2dVertex
 10
7.5028531103
 20
3.7586782864
 30
0.0
  0
VERTEX
  5
340
330
1B9
100
AcDbEntity
  8
0
  6
HIDDEN
 62
     7
100
AcDbVertex
100
AcDb2dVertex
 10
7.5031121688
 20
3.7783633258
 30
0.0
  0
SEQEND
  5
341
330
1B9
100
AcDbEntity
  8
0
  6
HIDDEN
 62
     7
  0
LINE
  5
1BA
330
1F
100
AcDbEntity
  8
0
  6
HIDDEN
 62
     7
100
AcDbLine
 10
7.8571838189
 20
3.1226351989
 30
0.0
 11
7.8571838189
 21
4.3947213738
 31
0.0
  0
SPLINE
  5
1BB
330
1F
100
AcDbEntity
  8
0
  6
HIDDEN
 62
     7
100
AcDbSpline
210
0.0
220
0.0
230
1.0
 70
    24
 71
     3
 72
     8
 73
     4
 74
     0
 42
0.00000001
 43
0.00000001
 40
0.0
 40
0.0
 40
0.0
 40
0.0
 40
0.000534342373819
 40
0.000534342373819
 40
0.000534342373819
 40
0.000534342373819
 10
8.677398938205844
 20
4.420559517959958
 30
0.0
 10
8.666513453844264
 20
4.417642761216052
 30
0.0
 10
8.65557734352329
 20
4.414712439287209
 30
0.0
 10
8.644585393725565
 20
4.411767155215665
 30
0.0
  0
SPLINE
  5
1BC
330
1F
100
AcDbEntity
  8
0
  6
HIDDEN
 62
     7
100
AcDbSpline
210
0.0
220
0.0
230
1.0
 70
    24
 71
     3
 72
     8
 73
     4
 74
     0
 42
0.00000001
 43
0.00000001
 40
0.0
 40
0.0
 40
0.0
 40
0.0
 40
0.0006160615699252
 40
0.0006160615699252
 40
0.0006160615699252
 40
0.0006160615699252
 10
8.644585393725565
 20
3.116138598372805
 30
0.0
 10
8.652782695391771
 20
3.1079412967066
 30
0.0
 10
8.66097485377101
 20
3.099749138327359
 30
0.0
 10
8.669162512177952
 20
3.091561479920418
 30
0.0
  0
LINE
  5
1BD
330
1F
100
AcDbEntity
  8
0
  6
HIDDEN
 62
     7
100
AcDbLine
 10
8.6445853937
 20
3.1226351989
 30
0.0
 11
8.6445853937
 21
4.3947213738
 31
0.0
  0
POLYLINE
  5
1BE
330
1F
100
AcDbEntity
  8
0
  6
HIDDEN
 62
     7
100
AcDb2dPolyline
 66
     1
 10
0.0
 20
0.0
 30
0.0
  0
VERTEX
  5
342
330
1BE
100
AcDbEntity
  8
0
  6
HIDDEN
 62
     7
100
AcDbVertex
100
AcDb2dVertex
 10
7.5031121688
 20
3.7783633258
 30
0.0
  0
VERTEX
  5
343
330
1BE
100
AcDbEntity
  8
0
  6
HIDDEN
 62
     7
100
AcDbVertex
100
AcDb2dVertex
 10
7.5028531103
 20
3.7586782864
 30
0.0
  0
VERTEX
  5
344
330
1BE
100
AcDbEntity
  8
0
  6
HIDDEN
 62
     7
100
AcDbVertex
100
AcDb2dVertex
 10
7.5031121688
 20
3.738993247
 30
0.0
  0
SEQEND
  5
345
330
1BE
100
AcDbEntity
  8
0
  6
HIDDEN
 62
     7
  0
SPLINE
  5
1BF
330
1F
100
AcDbEntity
  8
0
  6
HIDDEN
 62
     7
100
AcDbSpline
210
0.0
220
0.0
230
1.0
 70
    24
 71
     3
 72
     8
 73
     4
 74
     0
 42
0.00000001
 43
0.00000001
 40
0.0
 40
0.0
 40
0.0
 40
0.0
 40
0.000534342373819
 40
0.000534342373819
 40
0.000534342373819
 40
0.000534342373819
 10
7.824370274442136
 20
3.096797054824135
 30
0.0
 10
7.835255758803717
 20
3.099713811568042
 30
0.0
 10
7.846191869124691
 20
3.102644133496885
 30
0.0
 10
7.857183818922415
 20
3.105589417568428
 30
0.0
  0
SPLINE
  5
1C0
330
1F
100
AcDbEntity
  8
0
  6
HIDDEN
 62
     7
100
AcDbSpline
210
0.0
220
0.0
230
1.0
 70
    24
 71
     3
 72
     8
 73
     4
 74
     0
 42
0.00000001
 43
0.00000001
 40
0.0
 40
0.0
 40
0.0
 40
0.0
 40
0.0006160615699252
 40
0.0006160615699252
 40
0.0006160615699252
 40
0.0006160615699252
 10
7.832606700470029
 20
4.425795092863676
 30
0.0
 10
7.84079435887697
 20
4.417607434456736
 30
0.0
 10
7.848986517256211
 20
4.409415276077495
 30
0.0
 10
7.857183818922415
 20
4.40121797441129
 30
0.0
  0
SPLINE
  5
1C1
330
1F
100
AcDbEntity
  8
0
  6
HIDDEN
 62
     7
100
AcDbSpline
210
0.0
220
0.0
230
1.0
 70
    24
 71
     3
 72
     8
 73
     4
 74
     0
 42
0.00000001
 43
0.00000001
 40
0.0
 40
0.0
 40
0.0
 40
0.0
 40
0.000534342373819
 40
0.000534342373819
 40
0.000534342373819
 40
0.000534342373819
 10
8.903973475147607
 20
4.152379073793624
 30
0.0
 10
8.90691875921915
 20
4.163371023591349
 30
0.0
 10
8.909849081147993
 20
4.174307133912323
 30
0.0
 10
8.9127658378919
 20
4.185192618273903
 30
0.0
  0
SPLINE
  5
1C2
330
1F
100
AcDbEntity
  8
0
  6
HIDDEN
 62
     7
100
AcDbSpline
210
0.0
220
0.0
230
1.0
 70
    24
 71
     3
 72
     8
 73
     4
 74
     0
 42
0.00000001
 43
0.00000001
 40
0.0
 40
0.0
 40
0.0
 40
0.0
 40
0.0006160615699252
 40
0.0006160615699252
 40
0.0006160615699252
 40
0.0006160615699252
 10
8.91800141279562
 20
3.340400380538089
 30
0.0
 10
8.909813754388681
 20
3.348588038945028
 30
0.0
 10
8.90162159600944
 20
3.35678019732427
 30
0.0
 10
8.893424294343234
 20
3.364977498990475
 30
0.0
  0
SPLINE
  5
1C3
330
1F
100
AcDbEntity
  8
0
  6
HIDDEN
 62
     7
100
AcDbSpline
210
0.0
220
0.0
230
1.0
 70
    24
 71
     3
 72
     8
 73
     4
 74
     0
 42
0.00000001
 43
0.00000001
 40
0.0
 40
0.0
 40
0.0
 40
0.0
 40
0.000534342373819
 40
0.000534342373819
 40
0.000534342373819
 40
0.000534342373819
 10
7.597795737500373
 20
3.36497749899047
 30
0.0
 10
7.59485045342883
 20
3.353985549192744
 30
0.0
 10
7.591920131499987
 20
3.343049438871771
 30
0.0
 10
7.589003374756079
 20
3.33216395451019
 30
0.0
  0
SPLINE
  5
1C4
330
1F
100
AcDbEntity
  8
0
  6
HIDDEN
 62
     7
100
AcDbSpline
210
0.0
220
0.0
230
1.0
 70
    24
 71
     3
 72
     8
 73
     4
 74
     0
 42
0.00000001
 43
0.00000001
 40
0.0
 40
0.0
 40
0.0
 40
0.0
 40
0.0006160615699252
 40
0.0006160615699252
 40
0.0006160615699252
 40
0.0006160615699252
 10
7.608344918304746
 20
4.15237907379362
 30
0.0
 10
7.600147616638541
 20
4.160576375459825
 30
0.0
 10
7.5919554582593
 20
4.168768533839065
 30
0.0
 10
7.583767799852358
 20
4.176956192246006
 30
0.0
  0
SPLINE
  5
1C5
330
1F
100
AcDbEntity
  8
0
  6
HIDDEN
 62
     7
100
AcDbSpline
210
0.0
220
0.0
230
1.0
 70
    24
 71
     3
 72
     8
 73
     4
 74
     0
 42
0.00000001
 43
0.00000001
 40
0.0
 40
0.0
 40
0.0
 40
0.0
 40
0.0002845941545838
 40
0.0002845941545838
 40
0.0002845941545838
 40
0.0002845941545838
 10
8.903973475147607
 20
4.152379073793624
 30
0.0
 10
8.898300064715514
 20
4.152379073793624
 30
0.0
 10
8.892618311457651
 20
4.152379073793624
 30
0.0
 10
8.88692769378082
 20
4.152379073793624
 30
0.0
  0
SPLINE
  5
1C6
330
1F
100
AcDbEntity
  8
0
  6
HIDDEN
 62
     7
100
AcDbSpline
210
0.0
220
0.0
230
1.0
 70
    24
 71
     3
 72
     8
 73
     4
 74
     0
 42
0.00000001
 43
0.00000001
 40
0.0
 40
0.0
 40
0.0
 40
0.0
 40
0.0002845941545838
 40
0.0002845941545838
 40
0.0002845941545838
 40
0.0002845941545838
 10
7.597795737500373
 20
3.36497749899047
 30
0.0
 10
7.603469147932468
 20
3.36497749899047
 30
0.0
 10
7.609150901190329
 20
3.36497749899047
 30
0.0
 10
7.614841518867161
 20
3.36497749899047
 30
0.0
  0
SPLINE
  5
1C7
330
1F
100
AcDbEntity
  8
0
  6
HIDDEN
 62
     7
100
AcDbSpline
210
0.0
220
0.0
230
1.0
 70
    24
 71
     3
 72
     8
 73
     4
 74
     0
 42
0.00000001
 43
0.00000001
 40
0.0
 40
0.0
 40
0.0
 40
0.0
 40
0.0001083645978465
 40
0.0001083645978465
 40
0.0001083645978465
 40
0.0001083645978465
 10
8.886927693780823
 20
3.364977498990475
 30
0.0
 10
8.889094503907158
 20
3.364977498990475
 30
0.0
 10
8.891260027594834
 20
3.364977498990475
 30
0.0
 10
8.893424294343234
 20
3.364977498990475
 30
0.0
  0
LINE
  5
1C8
330
1F
100
AcDbEntity
  8
0
  6
HIDDEN
 62
     7
100
AcDbLine
 10
8.8869276938
 20
3.364977499
 30
0.0
 11
7.6148415189
 21
3.364977499
 31
0.0
  0
LINE
  5
1C9
330
1F
100
AcDbEntity
  8
0
  6
HIDDEN
 62
     7
100
AcDbLine
 10
7.916238937
 20
4.1523790738
 30
0.0
 11
8.8869276938
 21
4.1523790738
 31
0.0
  0
LINE
  5
1CA
330
1F
100
AcDbEntity
  8
0
  6
HIDDEN
 62
     7
100
AcDbLine
 10
7.7300674191
 20
4.3492294675
 30
0.0
 11
7.896553897
 21
4.3492294675
 31
0.0
  0
LINE
  5
1CB
330
1F
100
AcDbEntity
  8
0
  6
HIDDEN
 62
     7
100
AcDbLine
 10
7.8374987796
 20
3.2665523021
 30
0.0
 11
7.6406483859
 21
3.2665523021
 31
0.0
  0
LINE
  5
1CC
330
1F
100
AcDbEntity
  8
0
  6
HIDDEN
 62
     7
100
AcDbLine
 10
7.8178137402
 20
3.2468672628
 30
0.0
 11
7.6603334279
 21
3.2468672628
 31
0.0
  0
LINE
  5
1CD
330
1F
100
AcDbEntity
  8
0
  6
HIDDEN
 62
     7
100
AcDbLine
 10
7.7845342338
 20
4.1917491525
 30
0.0
 11
7.8299948849
 21
4.1917491525
 31
0.0
  0
LINE
  5
1CE
330
1F
100
AcDbEntity
  8
0
  6
HIDDEN
 62
     7
100
AcDbLine
 10
7.6936129316
 20
4.1917491525
 30
0.0
 11
7.7845342338
 21
4.1917491525
 31
0.0
  0
LINE
  5
1CF
330
1F
100
AcDbEntity
  8
0
  6
HIDDEN
 62
     7
100
AcDbLine
 10
7.7845342338
 20
4.1917491525
 30
0.0
 11
7.7845342338
 21
4.3492294675
 31
0.0
  0
LINE
  5
1D0
330
1F
100
AcDbEntity
  8
0
  6
HIDDEN
 62
     7
100
AcDbLine
 10
7.6936129316
 20
4.1917491525
 30
0.0
 11
7.6936129316
 21
4.3492294675
 31
0.0
  0
LINE
  5
1D1
330
1F
100
AcDbEntity
  8
0
  6
HIDDEN
 62
     7
100
AcDbLine
 10
7.6481522805
 20
4.1917491525
 30
0.0
 11
7.6936129316
 21
4.1917491525
 31
0.0
  0
LINE
  5
1D2
330
1F
100
AcDbEntity
  8
0
  6
HIDDEN
 62
     7
100
AcDbLine
 10
7.8299948849
 20
4.1917491525
 30
0.0
 11
7.8299948849
 21
4.3492294675
 31
0.0
  0
LINE
  5
1D3
330
1F
100
AcDbEntity
  8
0
  6
HIDDEN
 62
     7
100
AcDbLine
 10
7.6481522805
 20
4.1917491525
 30
0.0
 11
7.6481522805
 21
4.3492294675
 31
0.0
  0
LINE
  5
1D4
330
1F
100
AcDbEntity
  8
0
  6
HIDDEN
 62
     7
100
AcDbLine
 10
8.9327943731
 20
4.1523790738
 30
0.0
 11
8.9042956628
 21
4.1523790738
 31
0.0
  0
LINE
  5
1D5
330
1F
100
AcDbEntity
  8
0
  6
HIDDEN
 62
     7
100
AcDbLine
 10
8.8937121863
 20
3.364977499
 30
0.0
 11
8.9327943731
 21
3.364977499
 31
0.0
  0
LINE
  5
1D6
330
1F
100
AcDbEntity
  8
0
  6
HIDDEN
 62
     7
100
AcDbLine
 10
7.5689748396
 20
3.364977499
 30
0.0
 11
7.5974735498
 21
3.364977499
 31
0.0
  0
LINE
  5
1D7
330
1F
100
AcDbEntity
  8
0
  6
HIDDEN
 62
     7
100
AcDbLine
 10
9.0020178358
 20
3.9948987588
 30
0.0
 11
8.2508846063
 21
3.9948987588
 31
0.0
  0
LINE
  5
1D8
330
1F
100
AcDbEntity
  8
0
  6
HIDDEN
 62
     7
100
AcDbLine
 10
8.2508846063
 20
3.9948987588
 30
0.0
 11
7.4997513769
 21
3.9948987588
 31
0.0
  0
LINE
  5
1D9
330
1F
100
AcDbEntity
  8
0
  6
HIDDEN
 62
     7
100
AcDbLine
 10
8.2705696457
 20
2.971522813
 30
0.0
 11
8.2705696457
 21
3.5232794529
 31
0.0
  0
LINE
  5
1DA
330
1F
100
AcDbEntity
  8
0
  6
HIDDEN
 62
     7
100
AcDbLine
 10
8.231199567
 20
2.971522813
 30
0.0
 11
8.231199567
 21
3.5232794529
 31
0.0
  0
LINE
  5
1DB
330
1F
100
AcDbEntity
  8
0
  6
HIDDEN
 62
     7
100
AcDbLine
 10
8.2705696457
 20
4.1556599137
 30
0.0
 11
8.231199567
 21
4.1556599137
 31
0.0
  0
LINE
  5
1DC
330
1F
100
AcDbEntity
  8
0
  6
HIDDEN
 62
     7
100
AcDbLine
 10
8.231199567
 20
4.1556599137
 30
0.0
 11
8.231199567
 21
3.9940771199
 31
0.0
  0
LINE
  5
1DD
330
1F
100
AcDbEntity
  8
0
  6
HIDDEN
 62
     7
100
AcDbLine
 10
8.2705696457
 20
4.1556599137
 30
0.0
 11
8.2705696457
 21
3.9940771199
 31
0.0
  0
POLYLINE
  5
1DE
330
1F
100
AcDbEntity
  8
0
  6
HIDDEN
 62
     7
100
AcDb2dPolyline
 66
     1
 10
0.0
 20
0.0
 30
0.0
  0
VERTEX
  5
346
330
1DE
100
AcDbEntity
  8
0
  6
HIDDEN
 62
     7
100
AcDbVertex
100
AcDb2dVertex
 10
7.9759979913
 20
3.738993247
 30
0.0
  0
VERTEX
  5
347
330
1DE
100
AcDbEntity
  8
0
  6
HIDDEN
 62
     7
100
AcDbVertex
100
AcDb2dVertex
 10
7.9752940551
 20
3.7586782864
 30
0.0
  0
VERTEX
  5
348
330
1DE
100
AcDbEntity
  8
0
  6
HIDDEN
 62
     7
100
AcDbVertex
100
AcDb2dVertex
 10
7.9759979913
 20
3.7783633258
 30
0.0
  0
SEQEND
  5
349
330
1DE
100
AcDbEntity
  8
0
  6
HIDDEN
 62
     7
  0
POLYLINE
  5
1DF
330
1F
100
AcDbEntity
  8
0
  6
HIDDEN
 62
     7
100
AcDb2dPolyline
 66
     1
 10
0.0
 20
0.0
 30
0.0
  0
VERTEX
  5
34A
330
1DF
100
AcDbEntity
  8
0
  6
HIDDEN
 62
     7
100
AcDbVertex
100
AcDb2dVertex
 10
8.5257712214
 20
3.7783633258
 30
0.0
  0
VERTEX
  5
34B
330
1DF
100
AcDbEntity
  8
0
  6
HIDDEN
 62
     7
100
AcDbVertex
100
AcDb2dVertex
 10
8.5264751575
 20
3.7586782864
 30
0.0
  0
VERTEX
  5
34C
330
1DF
100
AcDbEntity
  8
0
  6
HIDDEN
 62
     7
100
AcDbVertex
100
AcDb2dVertex
 10
8.5257712214
 20
3.738993247
 30
0.0
  0
SEQEND
  5
34D
330
1DF
100
AcDbEntity
  8
0
  6
HIDDEN
 62
     7
  0
LINE
  5
1E0
330
1F
100
AcDbEntity
  8
0
  6
HIDDEN
 62
     7
100
AcDbLine
 10
7.6603334252
 20
3.4043475771
 30
0.0
 11
7.6603334252
 21
3.2378610992
 31
0.0
  0
LINE
  5
1E1
330
1F
100
AcDbEntity
  8
0
  6
HIDDEN
 62
     7
100
AcDbLine
 10
8.7626956299
 20
3.3256074203
 30
0.0
 11
8.7626956299
 21
3.1681271053
 31
0.0
  0
LINE
  5
1E2
330
1F
100
AcDbEntity
  8
0
  6
HIDDEN
 62
     7
100
AcDbLine
 10
8.7430105906
 20
3.3452924596
 30
0.0
 11
8.7430105906
 21
3.1484420659
 31
0.0
  0
LINE
  5
1E3
330
1F
100
AcDbEntity
  8
0
  6
HIDDEN
 62
     7
100
AcDbLine
 10
7.8178137402
 20
3.2923279139
 30
0.0
 11
7.6603334252
 21
3.2923279139
 31
0.0
  0
LINE
  5
1E4
330
1F
100
AcDbEntity
  8
0
  6
HIDDEN
 62
     7
100
AcDbLine
 10
7.8178137402
 20
3.2014066117
 30
0.0
 11
7.6603334252
 21
3.2014066117
 31
0.0
  0
LINE
  5
1E5
330
1F
100
AcDbEntity
  8
0
  6
HIDDEN
 62
     7
100
AcDbLine
 10
7.8178137402
 20
3.2014066117
 30
0.0
 11
7.8178137402
 21
3.1559459605
 31
0.0
  0
LINE
  5
1E6
330
1F
100
AcDbEntity
  8
0
  6
HIDDEN
 62
     7
100
AcDbLine
 10
7.8178137402
 20
3.2923279139
 30
0.0
 11
7.8178137402
 21
3.2014066117
 31
0.0
  0
LINE
  5
1E7
330
1F
100
AcDbEntity
  8
0
  6
HIDDEN
 62
     7
100
AcDbLine
 10
7.8178137402
 20
3.337788565
 30
0.0
 11
7.8178137402
 21
3.2923279139
 31
0.0
  0
LINE
  5
1E8
330
1F
100
AcDbEntity
  8
0
  6
HIDDEN
 62
     7
100
AcDbLine
 10
7.8178137402
 20
3.337788565
 30
0.0
 11
7.6603334252
 21
3.337788565
 31
0.0
  0
LINE
  5
1E9
330
1F
100
AcDbEntity
  8
0
  6
HIDDEN
 62
     7
100
AcDbLine
 10
7.8178137402
 20
3.1559459605
 30
0.0
 11
7.6603334252
 21
3.1559459605
 31
0.0
  0
LINE
  5
1EA
330
1F
100
AcDbEntity
  8
0
  6
HIDDEN
 62
     7
100
AcDbLine
 10
7.916238937
 20
4.1523790738
 30
0.0
 11
7.916238937
 21
4.4711680242
 31
0.0
  0
LINE
  5
1EB
330
1F
100
AcDbEntity
  8
0
  6
HIDDEN
 62
     7
100
AcDbLine
 10
7.6406483859
 20
4.1523790738
 30
0.0
 11
7.6406483859
 21
3.7783633258
 31
0.0
  0
LINE
  5
1EC
330
1F
100
AcDbEntity
  8
0
  6
HIDDEN
 62
     7
100
AcDbLine
 10
7.8374987796
 20
3.7783633258
 30
0.0
 11
7.8374987796
 21
4.1523790738
 31
0.0
  0
LINE
  5
1ED
330
1F
100
AcDbEntity
  8
0
  6
HIDDEN
 62
     7
100
AcDbLine
 10
7.6406483859
 20
3.738993247
 30
0.0
 11
7.6406483859
 21
3.2610710163
 31
0.0
  0
LINE
  5
1EE
330
1F
100
AcDbEntity
  8
0
  6
HIDDEN
 62
     7
100
AcDbLine
 10
7.8374987796
 20
3.0886770327
 30
0.0
 11
7.8374987796
 21
3.738993247
 31
0.0
  0
LINE
  5
1EF
330
1F
100
AcDbEntity
  8
0
  6
HIDDEN
 62
     7
100
AcDbLine
 10
7.916238937
 20
4.1523790738
 30
0.0
 11
7.916238937
 21
4.3295444281
 31
0.0
  0
ARC
  5
1F0
330
1F
100
AcDbEntity
  8
0
  6
HIDDEN
 62
     7
100
AcDbCircle
 10
7.8965538977
 20
4.3295444281
 30
0.0
 40
0.0196850393700787
100
AcDbArc
 50
0.0
 51
90.0
  0
LINE
  5
1F1
330
1F
100
AcDbEntity
  8
0
  6
HIDDEN
 62
     7
100
AcDbLine
 10
7.8374987796
 20
3.2665523021
 30
0.0
 11
7.8374987796
 21
3.738993247
 31
0.0
  0
LINE
  5
1F2
330
1F
100
AcDbEntity
  8
0
  6
HIDDEN
 62
     7
100
AcDbLine
 10
7.8374987796
 20
3.7783633258
 30
0.0
 11
7.8374987796
 21
4.1523790738
 31
0.0
  0
LINE
  5
1F3
330
1F
100
AcDbEntity
  8
0
  6
HIDDEN
 62
     7
100
AcDbLine
 10
7.6406483859
 20
4.1523790738
 30
0.0
 11
7.6406483859
 21
3.7783633258
 31
0.0
  0
LINE
  5
1F4
330
1F
100
AcDbEntity
  8
0
  6
HIDDEN
 62
     7
100
AcDbLine
 10
7.6406483859
 20
3.738993247
 30
0.0
 11
7.6406483859
 21
3.2665523021
 31
0.0
  0
ARC
  5
1F5
330
1F
100
AcDbEntity
  8
0
  6
HIDDEN
 62
     7
100
AcDbCircle
 10
7.8178137402
 20
3.2665523021
 30
0.0
 40
0.0196850393700796
100
AcDbArc
 50
270.0
 51
0.0
  0
POLYLINE
  5
1F6
330
1F
100
AcDbEntity
  8
0
  6
HIDDEN
 62
     7
100
AcDb2dPolyline
 66
     1
 10
0.0
 20
0.0
 30
0.0
  0
VERTEX
  5
34E
330
1F6
100
AcDbEntity
  8
0
  6
HIDDEN
 62
     7
100
AcDbVertex
100
AcDb2dVertex
 10
7.6406483859
 20
3.2665523021
 30
0.0
  0
VERTEX
  5
34F
330
1F6
100
AcDbEntity
  8
0
  6
HIDDEN
 62
     7
100
AcDbVertex
100
AcDb2dVertex
 10
7.6410266284
 20
3.2627119415
 30
0.0
  0
VERTEX
  5
350
330
1F6
100
AcDbEntity
  8
0
  6
HIDDEN
 62
     7
100
AcDbVertex
100
AcDb2dVertex
 10
7.641974707
 20
3.2594489057
 30
0.0
  0
SEQEND
  5
351
330
1F6
100
AcDbEntity
  8
0
  6
HIDDEN
 62
     7
  0
ARC
  5
1F7
330
1F
100
AcDbEntity
  8
0
  6
HIDDEN
 62
     7
100
AcDbCircle
 10
7.6603334252
 20
3.2665523021
 30
0.0
 40
0.0196850393700791
100
AcDbArc
 50
238.4585796701
 51
270.0
  0
LINE
  5
1F8
330
1F
100
AcDbEntity
  8
0
  6
HIDDEN
 62
     7
100
AcDbLine
 10
7.8571838189
 20
3.4240326171
 30
0.0
 11
7.5383948685
 21
3.4240326171
 31
0.0
  0
LINE
  5
1F9
330
1F
100
AcDbEntity
  8
0
  6
HIDDEN
 62
     7
100
AcDbLine
 10
8.2705696457
 20
3.1484420659
 30
0.0
 11
8.7484918764
 21
3.1484420659
 31
0.0
  0
LINE
  5
1FA
330
1F
100
AcDbEntity
  8
0
  6
HIDDEN
 62
     7
100
AcDbLine
 10
8.92088586
 20
3.3452924596
 30
0.0
 11
8.2705696457
 21
3.3452924596
 31
0.0
  0
LINE
  5
1FB
330
1F
100
AcDbEntity
  8
0
  6
HIDDEN
 62
     7
100
AcDbLine
 10
7.8571838189
 20
3.1484420659
 30
0.0
 11
8.231199567
 21
3.1484420659
 31
0.0
  0
LINE
  5
1FC
330
1F
100
AcDbEntity
  8
0
  6
HIDDEN
 62
     7
100
AcDbLine
 10
8.231199567
 20
3.3452924596
 30
0.0
 11
7.8571838189
 21
3.3452924596
 31
0.0
  0
LINE
  5
1FD
330
1F
100
AcDbEntity
  8
0
  6
HIDDEN
 62
     7
100
AcDbLine
 10
7.8571838189
 20
3.4240326171
 30
0.0
 11
7.6800184646
 21
3.4240326171
 31
0.0
  0
ARC
  5
1FE
330
1F
100
AcDbEntity
  8
0
  6
HIDDEN
 62
     7
100
AcDbCircle
 10
7.6800184646
 20
3.4043475777
 30
0.0
 40
0.0196850393700787
100
AcDbArc
 50
90.0
 51
180.0
  0
ARC
  5
1FF
330
1F
100
AcDbEntity
  8
0
  6
HIDDEN
 62
     7
100
AcDbCircle
 10
8.7430105906
 20
3.3256074203
 30
0.0
 40
0.0196850393700796
100
AcDbArc
 50
0.0
 51
90.0
  0
POLYLINE
  5
200
330
1F
100
AcDbEntity
  8
0
  6
HIDDEN
 62
     7
100
AcDb2dPolyline
 66
     1
 10
0.0
 20
0.0
 30
0.0
  0
VERTEX
  5
352
330
200
100
AcDbEntity
  8
0
  6
HIDDEN
 62
     7
100
AcDbVertex
100
AcDb2dVertex
 10
8.7430105906
 20
3.1484420659
 30
0.0
  0
VERTEX
  5
353
330
200
100
AcDbEntity
  8
0
  6
HIDDEN
 62
     7
100
AcDbVertex
100
AcDb2dVertex
 10
8.7468509512
 20
3.1488203084
 30
0.0
  0
VERTEX
  5
354
330
200
100
AcDbEntity
  8
0
  6
HIDDEN
 62
     7
100
AcDbVertex
100
AcDb2dVertex
 10
8.750113987
 20
3.1497683871
 30
0.0
  0
SEQEND
  5
355
330
200
100
AcDbEntity
  8
0
  6
HIDDEN
 62
     7
  0
ARC
  5
201
330
1F
100
AcDbEntity
  8
0
  6
HIDDEN
 62
     7
100
AcDbCircle
 10
8.7430105906
 20
3.1681271053
 30
0.0
 40
0.0196850393700796
100
AcDbArc
 50
328.4585796701
 51
0.0
  0
LINE
  5
202
330
1F
100
AcDbEntity
  8
0
  6
HIDDEN
 62
     7
100
AcDbLine
 10
8.7430105906
 20
3.3452924596
 30
0.0
 11
7.8571838189
 21
3.3452924596
 31
0.0
  0
LINE
  5
203
330
1F
100
AcDbEntity
  8
0
  6
HIDDEN
 62
     7
100
AcDbLine
 10
7.8571838189
 20
3.1484420659
 30
0.0
 11
8.7430105906
 21
3.1484420659
 31
0.0
  0
LINE
  5
204
330
1F
100
AcDbEntity
  8
0
  6
HIDDEN
 62
     7
100
AcDbLine
 10
7.5619082284
 20
4.3295444281
 30
0.0
 11
7.916238937
 21
4.3295444281
 31
0.0
  0
LINE
  5
205
330
1F
100
AcDbEntity
  8
0
  6
HIDDEN
 62
     7
100
AcDbLine
 10
7.6800184646
 20
3.0697019084
 30
0.0
 11
7.6800184646
 21
3.4240326171
 31
0.0
  0
LINE
  5
206
330
1F
100
AcDbEntity
  8
0
  6
CONTINUOUS
 62
     7
100
AcDbLine
 10
3.9303106441
 20
5.8845755641
 30
0.0
 11
4.0320166808
 21
5.8845755641
 31
0.0
  0
LINE
  5
207
330
1F
100
AcDbEntity
  8
0
  6
CONTINUOUS
 62
     7
100
AcDbLine
 10
4.5864786231
 20
7.4593787137
 30
0.0
 11
3.8909405653
 21
7.4593787137
 31
0.0
  0
LINE
  5
208
330
1F
100
AcDbEntity
  8
0
  6
CONTINUOUS
 62
     7
100
AcDbLine
 10
4.6258487018
 20
7.420008635
 30
0.0
 11
4.5864786231
 21
7.4593787137
 31
0.0
  0
LINE
  5
209
330
1F
100
AcDbEntity
  8
0
  6
CONTINUOUS
 62
     7
100
AcDbLine
 10
3.8909405653
 20
5.9239456429
 30
0.0
 11
3.9303106441
 21
5.8845755641
 31
0.0
  0
LINE
  5
20A
330
1F
100
AcDbEntity
  8
0
  6
CONTINUOUS
 62
     7
100
AcDbLine
 10
2.9854287543
 20
5.8845755641
 30
0.0
 11
3.8515704866
 21
5.8845755641
 31
0.0
  0
LINE
  5
20B
330
1F
100
AcDbEntity
  8
0
  6
CONTINUOUS
 62
     7
100
AcDbLine
 10
3.8515704866
 20
7.4593787137
 30
0.0
 11
2.9854287543
 21
7.4593787137
 31
0.0
  0
LINE
  5
20C
330
1F
100
AcDbEntity
  8
0
  6
CONTINUOUS
 62
     7
100
AcDbLine
 10
3.8515704866
 20
5.8845755641
 30
0.0
 11
3.8909405653
 21
5.9239456429
 31
0.0
  0
LINE
  5
20D
330
1F
100
AcDbEntity
  8
0
  6
CONTINUOUS
 62
     7
100
AcDbLine
 10
3.8909405653
 20
7.420008635
 30
0.0
 11
3.8515704866
 21
7.4593787137
 31
0.0
  0
LINE
  5
20E
330
1F
100
AcDbEntity
  8
0
  6
CONTINUOUS
 62
     7
100
AcDbLine
 10
2.9854287543
 20
7.4593787137
 30
0.0
 11
2.9460586756
 21
7.420008635
 31
0.0
  0
LINE
  5
20F
330
1F
100
AcDbEntity
  8
0
  6
CONTINUOUS
 62
     7
100
AcDbLine
 10
2.9460586756
 20
5.9239456429
 30
0.0
 11
2.9854287543
 21
5.8845755641
 31
0.0
  0
LINE
  5
210
330
1F
100
AcDbEntity
  8
0
  6
CONTINUOUS
 62
     7
100
AcDbLine
 10
2.5818854472
 20
7.4593787137
 30
0.0
 11
2.0667935837
 21
7.4593787137
 31
0.0
  0
LINE
  5
211
330
1F
100
AcDbEntity
  8
0
  6
CONTINUOUS
 62
     7
100
AcDbLine
 10
2.9066885968
 20
7.4593787137
 30
0.0
 11
2.621255526
 21
7.4593787137
 31
0.0
  0
LINE
  5
212
330
1F
100
AcDbEntity
  8
0
  6
CONTINUOUS
 62
     7
100
AcDbLine
 10
2.621255526
 20
5.8845755641
 30
0.0
 11
2.9066885968
 21
5.8845755641
 31
0.0
  0
LINE
  5
213
330
1F
100
AcDbEntity
  8
0
  6
CONTINUOUS
 62
     7
100
AcDbLine
 10
2.0667935837
 20
5.8845755641
 30
0.0
 11
2.5818854472
 21
5.8845755641
 31
0.0
  0
LINE
  5
214
330
1F
100
AcDbEntity
  8
0
  6
CONTINUOUS
 62
     7
100
AcDbLine
 10
2.0667935837
 20
7.4593787137
 30
0.0
 11
2.027423505
 21
7.420008635
 31
0.0
  0
LINE
  5
215
330
1F
100
AcDbEntity
  8
0
  6
CONTINUOUS
 62
     7
100
AcDbLine
 10
2.027423505
 20
5.9239456429
 30
0.0
 11
2.0667935837
 21
5.8845755641
 31
0.0
  0
LINE
  5
216
330
1F
100
AcDbEntity
  8
0
  6
CONTINUOUS
 62
     7
100
AcDbLine
 10
2.9460586756
 20
7.420008635
 30
0.0
 11
2.9066885968
 21
7.4593787137
 31
0.0
  0
LINE
  5
217
330
1F
100
AcDbEntity
  8
0
  6
CONTINUOUS
 62
     7
100
AcDbLine
 10
2.9066885968
 20
5.8845755641
 30
0.0
 11
2.9460586756
 21
5.9239456429
 31
0.0
  0
LINE
  5
218
330
1F
100
AcDbEntity
  8
0
  6
CONTINUOUS
 62
     7
100
AcDbLine
 10
3.9303106441
 20
6.2782763515
 30
0.0
 11
3.9303106441
 21
5.8845755641
 31
0.0
  0
LINE
  5
219
330
1F
100
AcDbEntity
  8
0
  6
CONTINUOUS
 62
     7
100
AcDbLine
 10
3.7465836099
 20
6.2782763515
 30
0.0
 11
3.9303106441
 21
6.2782763515
 31
0.0
  0
LINE
  5
21A
330
1F
100
AcDbEntity
  8
0
  6
CONTINUOUS
 62
     7
100
AcDbLine
 10
3.7465836099
 20
7.0656779263
 30
0.0
 11
3.7465836099
 21
6.2782763515
 31
0.0
  0
LINE
  5
21B
330
1F
100
AcDbEntity
  8
0
  6
CONTINUOUS
 62
     7
100
AcDbLine
 10
3.8909405653
 20
7.0656779263
 30
0.0
 11
3.7465836099
 21
7.0656779263
 31
0.0
  0
LINE
  5
21C
330
1F
100
AcDbEntity
  8
0
  6
CONTINUOUS
 62
     7
100
AcDbLine
 10
3.8909405653
 20
7.4593787137
 30
0.0
 11
3.8909405653
 21
7.0656779263
 31
0.0
  0
LINE
  5
21D
330
1F
100
AcDbEntity
  8
0
  6
CONTINUOUS
 62
     7
100
AcDbLine
 10
4.5864786231
 20
5.8848216656
 30
0.0
 11
4.0713867596
 21
5.8848216656
 31
0.0
  0
LINE
  5
21E
330
1F
100
AcDbEntity
  8
0
  6
CONTINUOUS
 62
     7
100
AcDbLine
 10
4.0713867596
 20
6.9081976114
 30
0.0
 11
4.0713867596
 21
5.8848216656
 31
0.0
  0
LINE
  5
21F
330
1F
100
AcDbEntity
  8
0
  6
CONTINUOUS
 62
     7
100
AcDbLine
 10
4.0320166808
 20
6.9081976114
 30
0.0
 11
4.0713867596
 21
6.9081976114
 31
0.0
  0
LINE
  5
220
330
1F
100
AcDbEntity
  8
0
  6
CONTINUOUS
 62
     7
100
AcDbLine
 10
4.0320166808
 20
6.9081976114
 30
0.0
 11
4.0320166808
 21
5.8845755641
 31
0.0
  0
LINE
  5
221
330
1F
100
AcDbEntity
  8
0
  6
CONTINUOUS
 62
     7
100
AcDbLine
 10
4.5864786231
 20
5.8848216656
 30
0.0
 11
4.5864786231
 21
7.4593787137
 31
0.0
  0
SPLINE
  5
222
330
1F
100
AcDbEntity
  8
0
  6
CONTINUOUS
 62
     7
100
AcDbSpline
210
0.0
220
0.0
230
1.0
 70
     8
 71
     3
 72
    66
 73
    62
 74
     0
 42
0.00000001
 43
0.00000001
 40
0.0
 40
0.0
 40
0.0
 40
0.0
 40
0.0312500000000001
 40
0.0312500000000001
 40
0.0625000000000002
 40
0.0625000000000002
 40
0.1250000000000004
 40
0.1250000000000004
 40
0.1562500000000004
 40
0.1562500000000004
 40
0.1875000000000004
 40
0.1875000000000004
 40
0.2187500000000005
 40
0.2187500000000005
 40
0.2500000000000005
 40
0.2500000000000005
 40
0.2812500000000006
 40
0.2812500000000006
 40
0.3125000000000006
 40
0.3125000000000006
 40
0.3437500000000006
 40
0.3437500000000006
 40
0.3750000000000006
 40
0.3750000000000006
 40
0.4062500000000007
 40
0.4062500000000007
 40
0.4375000000000007
 40
0.4375000000000007
 40
0.4687500000000007
 40
0.4687500000000007
 40
0.5000000000000008
 40
0.5000000000000008
 40
0.5312500000000008
 40
0.5312500000000008
 40
0.5625000000000008
 40
0.5625000000000008
 40
0.5937500000000007
 40
0.5937500000000007
 40
0.6250000000000007
 40
0.6250000000000007
 40
0.6562500000000007
 40
0.6562500000000007
 40
0.6875000000000007
 40
0.6875000000000007
 40
0.7187500000000007
 40
0.7187500000000007
 40
0.7500000000000006
 40
0.7500000000000006
 40
0.7812500000000006
 40
0.7812500000000006
 40
0.8125000000000006
 40
0.8125000000000006
 40
0.8437500000000006
 40
0.8437500000000006
 40
0.8750000000000006
 40
0.8750000000000006
 40
0.9375000000000003
 40
0.9375000000000003
 40
0.9687500000000002
 40
0.9687500000000002
 40
1.0
 40
1.0
 40
1.0
 40
1.0
 10
4.439165895424224
 20
5.990067372157026
 30
0.0
 10
4.450421038886455
 20
5.993345194955443
 30
0.0
 10
4.46037793064782
 20
5.997414552250245
 30
0.0
 10
4.478756418251064
 20
6.006706813031703
 30
0.0
 10
4.487206510754923
 20
6.011982190433605
 30
0.0
 10
4.510400662200517
 20
6.029126741500919
 30
0.0
 10
4.522951276237947
 20
6.04212195410203
 30
0.0
 10
4.53867054386706
 20
6.063966191828366
 30
0.0
 10
4.543379671391808
 20
6.071687095275107
 30
0.0
 10
4.551530884205304
 20
6.087670782585184
 30
0.0
 10
4.554996938636973
 20
6.095957482347233
 30
0.0
 10
4.560681654774037
 20
6.113152455501739
 30
0.0
 10
4.562900705305478
 20
6.122060494902666
 30
0.0
 10
4.565953856907711
 20
6.140553305815041
 30
0.0
 10
4.566777767504861
 20
6.150169699455533
 30
0.0
 10
4.566808943504569
 20
6.169593826033554
 30
0.0
 10
4.56603202965393
 20
6.179459714643995
 30
0.0
 10
4.562675242063893
 20
6.1994761029337
 30
0.0
 10
4.560058639060257
 20
6.209721230832848
 30
0.0
 10
4.552849124512425
 20
6.229888230954641
 30
0.0
 10
4.548278860980258
 20
6.239812153139204
 30
0.0
 10
4.536960417815763
 20
6.259195103487341
 30
0.0
 10
4.530123277935052
 20
6.268728811224406
 30
0.0
 10
4.514610391869875
 20
6.286277877932857
 30
0.0
 10
4.505901156556752
 20
6.294394018393076
 30
0.0
 10
4.486396132605888
 20
6.309070435145166
 30
0.0
 10
4.475559330210128
 20
6.315599261493553
 30
0.0
 10
4.452897925332556
 20
6.326119610593002
 30
0.0
 10
4.440866423146733
 20
6.330248510144081
 30
0.0
 10
4.415733942502809
 20
6.335870028970767
 30
0.0
 10
4.403032962423347
 20
6.337289150778127
 30
0.0
 10
4.377366480124804
 20
6.337371944974777
 30
0.0
 10
4.36435896902751
 20
6.335982225575028
 30
0.0
 10
4.339465365141466
 20
6.330558389781583
 30
0.0
 10
4.32726659478236
 20
6.326472732032435
 30
0.0
 10
4.304320304619433
 20
6.315952578808084
 30
0.0
 10
4.293673931835326
 20
6.309603120882562
 30
0.0
 10
4.273956953475889
 20
6.294920713685717
 30
0.0
 10
4.265024421586588
 20
6.286656778792201
 30
0.0
 10
4.249391646039845
 20
6.269068353848811
 30
0.0
 10
4.242545579844002
 20
6.259572228752385
 30
0.0
 10
4.231122925223652
 20
6.240109531170328
 30
0.0
 10
4.226516447982672
 20
6.230149112231439
 30
0.0
 10
4.219252816636559
 20
6.209918420000466
 30
0.0
 10
4.216627959524776
 20
6.199682572134203
 30
0.0
 10
4.213246209913851
 20
6.179660394975169
 30
0.0
 10
4.212457090942445
 20
6.169785744052807
 30
0.0
 10
4.212468722486157
 20
6.150334601177038
 30
0.0
 10
4.213285877919579
 20
6.14070146285886
 30
0.0
 10
4.216325963097236
 20
6.122194782499542
 30
0.0
 10
4.218539539266992
 20
6.113280041677727
 30
0.0
 10
4.224214826118259
 20
6.09607204532677
 30
0.0
 10
4.227676931137408
 20
6.087779024777664
 30
0.0
 10
4.235821393902259
 20
6.071783021684362
 30
0.0
 10
4.240531924124884
 20
6.064049476360462
 30
0.0
 10
4.256247293155315
 20
6.042186016977748
 30
0.0
 10
4.268780695862546
 20
6.029208460342939
 30
0.0
 10
4.291853524409189
 20
6.012114477047326
 30
0.0
 10
4.300356030181764
 20
6.006786454300042
 30
0.0
 10
4.318837442806593
 20
5.997428564334768
 30
0.0
 10
4.328835136549899
 20
5.99334527746095
 30
0.0
 10
4.340090563313385
 20
5.990067372157026
 30
0.0
  0
LINE
  5
223
330
1F
100
AcDbEntity
  8
0
  6
CONTINUOUS
 62
     7
100
AcDbLine
 10
4.6258487018
 20
7.420008635
 30
0.0
 11
4.6258487018
 21
5.9242047014
 31
0.0
  0
LINE
  5
224
330
1F
100
AcDbEntity
  8
0
  6
CONTINUOUS
 62
     7
100
AcDbLine
 10
4.5864786231
 20
5.8848216656
 30
0.0
 11
4.6258487018
 21
5.9242047014
 31
0.0
  0
SPLINE
  5
225
330
1F
100
AcDbEntity
  8
0
  6
CONTINUOUS
 62
     7
100
AcDbSpline
210
0.0
220
0.0
230
1.0
 70
    24
 71
     3
 72
     8
 73
     4
 74
     0
 42
0.00000001
 43
0.00000001
 40
0.0
 40
0.0
 40
0.0
 40
0.0
 40
0.0007676680295986
 40
0.0007676680295986
 40
0.0007676680295986
 40
0.0007676680295986
 10
3.746583609946232
 20
6.278276351514851
 30
0.0
 10
3.733393145550907
 20
6.278276351514851
 30
0.0
 10
3.720265425263428
 20
6.278276351514851
 30
0.0
 10
3.707213531206075
 20
6.278276351514851
 30
0.0
  0
LINE
  5
226
330
1F
100
AcDbEntity
  8
0
  6
CONTINUOUS
 62
     7
100
AcDbLine
 10
3.7072135312
 20
6.2782763515
 30
0.0
 11
3.7072135312
 21
7.0656779263
 31
0.0
  0
SPLINE
  5
227
330
1F
100
AcDbEntity
  8
0
  6
CONTINUOUS
 62
     7
100
AcDbSpline
210
0.0
220
0.0
230
1.0
 70
    24
 71
     3
 72
     8
 73
     4
 74
     0
 42
0.00000001
 43
0.00000001
 40
0.0
 40
0.0
 40
0.0
 40
0.0
 40
0.0007676680295986
 40
0.0007676680295986
 40
0.0007676680295986
 40
0.0007676680295986
 10
3.707213531206075
 20
7.065677926318001
 30
0.0
 10
3.720265425263428
 20
7.065677926318001
 30
0.0
 10
3.733393145550907
 20
7.065677926318001
 30
0.0
 10
3.746583609946232
 20
7.065677926318001
 30
0.0
  0
LINE
  5
228
330
1F
100
AcDbEntity
  8
0
  6
CONTINUOUS
 62
     7
100
AcDbLine
 10
3.8909405653
 20
5.9239456429
 30
0.0
 11
3.8909405653
 21
6.2782763515
 31
0.0
  0
LINE
  5
229
330
1F
100
AcDbEntity
  8
0
  6
CONTINUOUS
 62
     7
100
AcDbLine
 10
3.6678434525
 20
7.0984914708
 30
0.0
 11
3.8515704866
 21
7.0984914708
 31
0.0
  0
LINE
  5
22A
330
1F
100
AcDbEntity
  8
0
  6
CONTINUOUS
 62
     7
100
AcDbLine
 10
3.6678434525
 20
6.2536992331
 30
0.0
 11
3.6678434525
 21
7.0984914708
 31
0.0
  0
LINE
  5
22B
330
1F
100
AcDbEntity
  8
0
  6
CONTINUOUS
 62
     7
100
AcDbLine
 10
3.8515704866
 20
6.2536992331
 30
0.0
 11
3.6678434525
 21
6.2536992331
 31
0.0
  0
LINE
  5
22C
330
1F
100
AcDbEntity
  8
0
  6
CONTINUOUS
 62
     7
100
AcDbLine
 10
3.8515704866
 20
5.8845755641
 30
0.0
 11
3.8515704866
 21
6.2536992331
 31
0.0
  0
LINE
  5
22D
330
1F
100
AcDbEntity
  8
0
  6
CONTINUOUS
 62
     7
100
AcDbLine
 10
3.8515704866
 20
7.0984914708
 30
0.0
 11
3.8515704866
 21
7.4593787137
 31
0.0
  0
LINE
  5
22E
330
1F
100
AcDbEntity
  8
0
  6
CONTINUOUS
 62
     7
100
AcDbLine
 10
2.9854287543
 20
6.0048603324
 30
0.0
 11
2.9854287543
 21
5.8845755641
 31
0.0
  0
LINE
  5
22F
330
1F
100
AcDbEntity
  8
0
  6
CONTINUOUS
 62
     7
100
AcDbLine
 10
2.8017017202
 20
6.0048603324
 30
0.0
 11
2.9854287543
 21
6.0048603324
 31
0.0
  0
LINE
  5
230
330
1F
100
AcDbEntity
  8
0
  6
CONTINUOUS
 62
     7
100
AcDbLine
 10
2.8017017202
 20
7.3338583705
 30
0.0
 11
2.8017017202
 21
6.0048603324
 31
0.0
  0
LINE
  5
231
330
1F
100
AcDbEntity
  8
0
  6
CONTINUOUS
 62
     7
100
AcDbLine
 10
2.9854287543
 20
7.3338583705
 30
0.0
 11
2.8017017202
 21
7.3338583705
 31
0.0
  0
LINE
  5
232
330
1F
100
AcDbEntity
  8
0
  6
CONTINUOUS
 62
     7
100
AcDbLine
 10
2.9854287543
 20
7.4593787137
 30
0.0
 11
2.9854287543
 21
7.3338583705
 31
0.0
  0
SPLINE
  5
233
330
1F
100
AcDbEntity
  8
0
  6
CONTINUOUS
 62
     7
100
AcDbSpline
210
0.0
220
0.0
230
1.0
 70
     8
 71
     3
 72
     8
 73
     4
 74
     0
 42
0.00000001
 43
0.00000001
 40
0.0
 40
0.0
 40
0.0
 40
0.0
 40
0.0001083645978465
 40
0.0001083645978465
 40
0.0001083645978465
 40
0.0001083645978465
 10
2.767863388034149
 20
6.029437450897182
 30
0.0
 10
2.766017985813616
 20
6.031601717645582
 30
0.0
 10
2.764174056647994
 20
6.033767241333257
 30
0.0
 10
2.762331641442296
 20
6.035934051459594
 30
0.0
  0
SPLINE
  5
234
330
1F
100
AcDbEntity
  8
0
  6
CONTINUOUS
 62
     7
100
AcDbSpline
210
0.0
220
0.0
230
1.0
 70
     8
 71
     3
 72
     8
 73
     4
 74
     0
 42
0.00000001
 43
0.00000001
 40
0.0
 40
0.0
 40
0.0
 40
0.0
 40
0.0002845941545838
 40
0.0002845941545838
 40
0.0002845941545838
 40
0.0002845941545838
 10
2.762331641442296
 20
7.308020226373255
 30
0.0
 10
2.767170312080843
 20
7.313710844050087
 30
0.0
 10
2.772019424833218
 20
7.319392597307949
 30
0.0
 10
2.776878259792466
 20
7.325066007740044
 30
0.0
  0
SPLINE
  5
235
330
1F
100
AcDbEntity
  8
0
  6
CONTINUOUS
 62
     7
100
AcDbSpline
210
0.0
220
0.0
230
1.0
 70
     8
 71
     3
 72
     8
 73
     4
 74
     0
 42
0.00000001
 43
0.00000001
 40
0.0
 40
0.0
 40
0.0
 40
0.0
 40
0.000534342373819
 40
0.000534342373819
 40
0.000534342373819
 40
0.000534342373819
 10
2.776878259792466
 20
7.325066007740044
 30
0.0
 10
2.785075546621111
 20
7.328011291811587
 30
0.0
 10
2.793353550905329
 20
7.330941613740429
 30
0.0
 10
2.801701720182453
 20
7.333858370484337
 30
0.0
  0
SPLINE
  5
236
330
1F
100
AcDbEntity
  8
0
  6
CONTINUOUS
 62
     7
100
AcDbSpline
210
0.0
220
0.0
230
1.0
 70
     8
 71
     3
 72
     8
 73
     4
 74
     0
 42
0.00000001
 43
0.00000001
 40
0.0
 40
0.0
 40
0.0
 40
0.0
 40
0.0006160615699252
 40
0.0006160615699252
 40
0.0006160615699252
 40
0.0006160615699252
 10
2.767863388034149
 20
6.029437450897182
 30
0.0
 10
2.779135667910527
 20
6.021240149230977
 30
0.0
 10
2.790415431933102
 20
6.013047990851736
 30
0.0
 10
2.801701720182453
 20
6.004860332444796
 30
0.0
  0
SPLINE
  5
237
330
1F
100
AcDbEntity
  8
0
  6
CONTINUOUS
 62
     7
100
AcDbSpline
210
0.0
220
0.0
230
1.0
 70
     8
 71
     3
 72
     8
 73
     4
 74
     0
 42
0.00000001
 43
0.00000001
 40
0.0
 40
0.0
 40
0.0
 40
0.0
 40
0.0006160615699252
 40
0.0006160615699252
 40
0.0006160615699252
 40
0.0006160615699252
 10
3.667843452465918
 20
6.253699233062465
 30
0.0
 10
3.679129740715268
 20
6.261886891469405
 30
0.0
 10
3.690409504737844
 20
6.270079049848647
 30
0.0
 10
3.701681784614221
 20
6.278276351514851
 30
0.0
  0
SPLINE
  5
238
330
1F
100
AcDbEntity
  8
0
  6
CONTINUOUS
 62
     7
100
AcDbSpline
210
0.0
220
0.0
230
1.0
 70
     8
 71
     3
 72
     8
 73
     4
 74
     0
 42
0.00000001
 43
0.00000001
 40
0.0
 40
0.0
 40
0.0
 40
0.0
 40
0.000534342373819
 40
0.000534342373819
 40
0.000534342373819
 40
0.000534342373819
 10
3.667843452465918
 20
7.09849147079828
 30
0.0
 10
3.676191621743042
 20
7.087605986436699
 30
0.0
 10
3.684469626027261
 20
7.076669876115727
 30
0.0
 10
3.692666912855905
 20
7.065677926318001
 30
0.0
  0
SPLINE
  5
239
330
1F
100
AcDbEntity
  8
0
  6
CONTINUOUS
 62
     7
100
AcDbSpline
210
0.0
220
0.0
230
1.0
 70
     8
 71
     3
 72
     8
 73
     4
 74
     0
 42
0.00000001
 43
0.00000001
 40
0.0
 40
0.0
 40
0.0
 40
0.0
 40
0.0006160615699252
 40
0.0006160615699252
 40
0.0006160615699252
 40
0.0006160615699252
 10
3.851570486586652
 20
6.253699233062465
 30
0.0
 10
3.862856774836003
 20
6.261886891469405
 30
0.0
 10
3.874136538858578
 20
6.270079049848647
 30
0.0
 10
3.885408818734956
 20
6.278276351514851
 30
0.0
  0
LINE
  5
23A
330
1F
100
AcDbEntity
  8
0
  6
CONTINUOUS
 62
     7
100
AcDbLine
 10
3.7016817846
 20
6.2782763515
 30
0.0
 11
3.7069307617
 21
6.2782763515
 31
0.0
  0
SPLINE
  5
23B
330
1F
100
AcDbEntity
  8
0
  6
CONTINUOUS
 62
     7
100
AcDbSpline
210
0.0
220
0.0
230
1.0
 70
     8
 71
     3
 72
     8
 73
     4
 74
     0
 42
0.00000001
 43
0.00000001
 40
0.0
 40
0.0
 40
0.0
 40
0.0
 40
0.000534342373819
 40
0.000534342373819
 40
0.000534342373819
 40
0.000534342373819
 10
3.851570486586652
 20
7.09849147079828
 30
0.0
 10
3.859918655863777
 20
7.087605986436699
 30
0.0
 10
3.868196660147996
 20
7.076669876115727
 30
0.0
 10
3.87639394697664
 20
7.065677926318001
 30
0.0
  0
LINE
  5
23C
330
1F
100
AcDbEntity
  8
0
  6
CONTINUOUS
 62
     7
100
AcDbLine
 10
3.7069307617
 20
7.0656779263
 30
0.0
 11
3.6926669129
 21
7.0656779263
 31
0.0
  0
LINE
  5
23D
330
1F
100
AcDbEntity
  8
0
  6
CONTINUOUS
 62
     7
100
AcDbLine
 10
2.9460586756
 20
7.3338583705
 30
0.0
 11
2.9460586756
 21
7.420008635
 31
0.0
  0
LINE
  5
23E
330
1F
100
AcDbEntity
  8
0
  6
CONTINUOUS
 62
     7
100
AcDbLine
 10
2.9460586756
 20
5.9239456429
 30
0.0
 11
2.9460586756
 21
6.0048603324
 31
0.0
  0
CIRCLE
  5
23F
330
1F
100
AcDbEntity
  8
0
  6
CONTINUOUS
 62
     7
100
AcDbCircle
 10
4.3896282294
 20
6.1601661153
 30
0.0
 40
0.1574803149606305
  0
CIRCLE
  5
240
330
1F
100
AcDbEntity
  8
0
  6
CONTINUOUS
 62
     7
100
AcDbCircle
 10
4.3896282294
 20
6.1601661153
 30
0.0
 40
0.1771653543307092
  0
LINE
  5
241
330
1F
100
AcDbEntity
  8
0
  6
CONTINUOUS
 62
     7
100
AcDbLine
 10
4.3896282294
 20
6.2510874175
 30
0.0
 11
4.3108880719
 21
6.2056267664
 31
0.0
  0
LINE
  5
242
330
1F
100
AcDbEntity
  8
0
  6
CONTINUOUS
 62
     7
100
AcDbLine
 10
4.3108880719
 20
6.2056267664
 30
0.0
 11
4.3108880719
 21
6.1147054642
 31
0.0
  0
LINE
  5
243
330
1F
100
AcDbEntity
  8
0
  6
CONTINUOUS
 62
     7
100
AcDbLine
 10
4.3108880719
 20
6.1147054642
 30
0.0
 11
4.3896282294
 21
6.0692448131
 31
0.0
  0
LINE
  5
244
330
1F
100
AcDbEntity
  8
0
  6
CONTINUOUS
 62
     7
100
AcDbLine
 10
4.3896282294
 20
6.0692448131
 30
0.0
 11
4.4683683868
 21
6.1147054642
 31
0.0
  0
LINE
  5
245
330
1F
100
AcDbEntity
  8
0
  6
CONTINUOUS
 62
     7
100
AcDbLine
 10
4.4683683868
 20
6.1147054642
 30
0.0
 11
4.4683683868
 21
6.2056267664
 31
0.0
  0
LINE
  5
246
330
1F
100
AcDbEntity
  8
0
  6
CONTINUOUS
 62
     7
100
AcDbLine
 10
4.4683683868
 20
6.2056267664
 30
0.0
 11
4.3896282294
 21
6.2510874175
 31
0.0
  0
LINE
  5
247
330
1F
100
AcDbEntity
  8
0
  6
CONTINUOUS
 62
     7
100
AcDbLine
 10
2.9066885968
 20
7.4593787137
 30
0.0
 11
2.9066885968
 21
7.3538869057
 31
0.0
  0
LINE
  5
248
330
1F
100
AcDbEntity
  8
0
  6
CONTINUOUS
 62
     7
100
AcDbLine
 10
2.9066885968
 20
7.3538869057
 30
0.0
 11
2.7623316414
 21
7.3538869057
 31
0.0
  0
LINE
  5
249
330
1F
100
AcDbEntity
  8
0
  6
CONTINUOUS
 62
     7
100
AcDbLine
 10
2.7623316414
 20
7.3538869057
 30
0.0
 11
2.7623316414
 21
5.9900673722
 31
0.0
  0
LINE
  5
24A
330
1F
100
AcDbEntity
  8
0
  6
CONTINUOUS
 62
     7
100
AcDbLine
 10
2.7623316414
 20
5.9900673722
 30
0.0
 11
2.9066885968
 21
5.9900673722
 31
0.0
  0
LINE
  5
24B
330
1F
100
AcDbEntity
  8
0
  6
CONTINUOUS
 62
     7
100
AcDbLine
 10
2.9066885968
 20
5.9900673722
 30
0.0
 11
2.9066885968
 21
5.8845755641
 31
0.0
  0
LINE
  5
24C
330
1F
100
AcDbEntity
  8
0
  6
CONTINUOUS
 62
     7
100
AcDbLine
 10
2.5818854472
 20
7.4593787137
 30
0.0
 11
2.5818854472
 21
7.4231103684
 31
0.0
  0
LINE
  5
24D
330
1F
100
AcDbEntity
  8
0
  6
CONTINUOUS
 62
     7
100
AcDbLine
 10
2.5818854472
 20
7.4231103684
 30
0.0
 11
2.621255526
 21
7.4231103684
 31
0.0
  0
LINE
  5
24E
330
1F
100
AcDbEntity
  8
0
  6
CONTINUOUS
 62
     7
100
AcDbLine
 10
2.621255526
 20
5.9208439095
 30
0.0
 11
2.621255526
 21
5.8845755641
 31
0.0
  0
LINE
  5
24F
330
1F
100
AcDbEntity
  8
0
  6
CONTINUOUS
 62
     7
100
AcDbLine
 10
2.621255526
 20
7.4593787137
 30
0.0
 11
2.621255526
 21
7.4231103684
 31
0.0
  0
LINE
  5
250
330
1F
100
AcDbEntity
  8
0
  6
CONTINUOUS
 62
     7
100
AcDbLine
 10
2.621255526
 20
5.9208439095
 30
0.0
 11
2.5818854472
 21
5.9208439095
 31
0.0
  0
LINE
  5
251
330
1F
100
AcDbEntity
  8
0
  6
CONTINUOUS
 62
     7
100
AcDbLine
 10
2.5818854472
 20
5.9208439095
 30
0.0
 11
2.5818854472
 21
5.8845755641
 31
0.0
  0
LINE
  5
252
330
1F
100
AcDbEntity
  8
0
  6
CONTINUOUS
 62
     7
100
AcDbLine
 10
2.0667935837
 20
5.8845755641
 30
0.0
 11
2.0667935837
 21
7.4593787137
 31
0.0
  0
LINE
  5
253
330
1F
100
AcDbEntity
  8
0
  6
CONTINUOUS
 62
     7
100
AcDbLine
 10
2.027423505
 20
7.420008635
 30
0.0
 11
2.027423505
 21
5.9239456429
 31
0.0
  0
LINE
  5
254
330
1F
100
AcDbEntity
  8
0
  6
CONTINUOUS
 62
     7
100
AcDbLine
 10
2.9066885968
 20
7.3538869057
 30
0.0
 11
2.923880271
 21
7.3338583705
 31
0.0
  0
LINE
  5
255
330
1F
100
AcDbEntity
  8
0
  6
CONTINUOUS
 62
     7
100
AcDbLine
 10
2.919386268
 20
6.0048603324
 30
0.0
 11
2.9066885968
 21
5.9900673722
 31
0.0
  0
LINE
  5
256
330
1F
100
AcDbEntity
  8
0
  6
HIDDEN
 62
     7
100
AcDbLine
 10
4.3400905633
 20
5.9900673722
 30
0.0
 11
4.4391658954
 21
5.9900673722
 31
0.0
  0
CIRCLE
  5
257
330
1F
100
AcDbEntity
  8
0
  6
HIDDEN
 62
     7
100
AcDbCircle
 10
4.3896282294
 20
6.1601661153
 30
0.0
 40
0.0984251968503926
  0
LINE
  5
258
330
1F
100
AcDbEntity
  8
0
  6
HIDDEN
 62
     7
100
AcDbLine
 10
4.0713867596
 20
6.4365783054
 30
0.0
 11
4.5864786231
 21
6.4365783054
 31
0.0
  0
LINE
  5
259
330
1F
100
AcDbEntity
  8
0
  6
HIDDEN
 62
     7
100
AcDbLine
 10
4.5864786231
 20
6.9073759724
 30
0.0
 11
4.2346019509
 21
6.9073759724
 31
0.0
  0
ARC
  5
25A
330
1F
100
AcDbEntity
  8
0
  6
HIDDEN
 62
     7
100
AcDbCircle
 10
4.6258487018
 20
6.514496824
 30
0.0
 40
0.5544619422572179
100
AcDbArc
 50
90.0
 51
134.8807215057
  0
SPLINE
  5
25B
330
1F
100
AcDbEntity
  8
0
  6
HIDDEN
 62
     7
100
AcDbSpline
210
0.0
220
0.0
230
1.0
 70
     8
 71
     3
 72
     8
 73
     4
 74
     0
 42
0.00000001
 43
0.00000001
 40
0.0
 40
0.0
 40
0.0
 40
0.0
 40
1.0
 40
1.0
 40
1.0
 40
1.0
 10
4.586478623069591
 20
6.907375972442044
 30
0.0
 10
4.599598698178393
 20
6.920541842018558
 30
0.0
 10
4.612722528269187
 20
6.933703966594981
 30
0.0
 10
4.625848701809749
 20
6.946863753951249
 30
0.0
  0
SPLINE
  5
25C
330
1F
100
AcDbEntity
  8
0
  6
HIDDEN
 62
     7
100
AcDbSpline
210
0.0
220
0.0
230
1.0
 70
     8
 71
     3
 72
     8
 73
     4
 74
     0
 42
0.00000001
 43
0.00000001
 40
0.0
 40
0.0
 40
0.0
 40
0.0
 40
1.0
 40
1.0
 40
1.0
 40
1.0
 10
4.625848701809749
 20
6.397090523881603
 30
0.0
 10
4.612722527698087
 20
6.410250311810433
 30
0.0
 10
4.599598697512111
 20
6.423412436482901
 30
0.0
 10
4.586478623069591
 20
6.436578305390808
 30
0.0
  0
LINE
  5
25D
330
1F
100
AcDbEntity
  8
0
  6
HIDDEN
 62
     7
100
AcDbLine
 10
3.6678434525
 20
6.245462807
 30
0.0
 11
3.8515704866
 21
6.245462807
 31
0.0
  0
LINE
  5
25E
330
1F
100
AcDbEntity
  8
0
  6
HIDDEN
 62
     7
100
AcDbLine
 10
3.6678434525
 20
6.2536992331
 30
0.0
 11
3.6678434525
 21
6.245462807
 31
0.0
  0
LINE
  5
25F
330
1F
100
AcDbEntity
  8
0
  6
HIDDEN
 62
     7
100
AcDbLine
 10
3.8515704866
 20
7.0902550448
 30
0.0
 11
3.6678434525
 21
7.0902550448
 31
0.0
  0
LINE
  5
260
330
1F
100
AcDbEntity
  8
0
  6
HIDDEN
 62
     7
100
AcDbLine
 10
3.8515704866
 20
7.0984914708
 30
0.0
 11
3.8515704866
 21
7.0902550448
 31
0.0
  0
LINE
  5
261
330
1F
100
AcDbEntity
  8
0
  6
HIDDEN
 62
     7
100
AcDbLine
 10
2.9854287543
 20
6.0100959073
 30
0.0
 11
2.8017017202
 21
6.0100959073
 31
0.0
  0
LINE
  5
262
330
1F
100
AcDbEntity
  8
0
  6
HIDDEN
 62
     7
100
AcDbLine
 10
2.9854287543
 20
6.0048603324
 30
0.0
 11
2.9854287543
 21
6.0100959073
 31
0.0
  0
LINE
  5
263
330
1F
100
AcDbEntity
  8
0
  6
HIDDEN
 62
     7
100
AcDbLine
 10
2.8017017202
 20
7.3390939454
 30
0.0
 11
2.9854287543
 21
7.3390939454
 31
0.0
  0
LINE
  5
264
330
1F
100
AcDbEntity
  8
0
  6
HIDDEN
 62
     7
100
AcDbLine
 10
2.8017017202
 20
7.3338583705
 30
0.0
 11
2.8017017202
 21
7.3390939454
 31
0.0
  0
SPLINE
  5
265
330
1F
100
AcDbEntity
  8
0
  6
HIDDEN
 62
     7
100
AcDbSpline
210
0.0
220
0.0
230
1.0
 70
     8
 71
     3
 72
     8
 73
     4
 74
     0
 42
0.00000001
 43
0.00000001
 40
0.0
 40
0.0
 40
0.0
 40
0.0
 40
0.000534342373819
 40
0.000534342373819
 40
0.000534342373819
 40
0.000534342373819
 10
3.851570486586652
 20
6.245462807034572
 30
0.0
 10
3.859918655863777
 20
6.256348291396153
 30
0.0
 10
3.868196660147995
 20
6.267284401717127
 30
0.0
 10
3.87639394697664
 20
6.278276351514851
 30
0.0
  0
SPLINE
  5
266
330
1F
100
AcDbEntity
  8
0
  6
HIDDEN
 62
     7
100
AcDbSpline
210
0.0
220
0.0
230
1.0
 70
     8
 71
     3
 72
     8
 73
     4
 74
     0
 42
0.00000001
 43
0.00000001
 40
0.0
 40
0.0
 40
0.0
 40
0.0
 40
0.0006160615699252
 40
0.0006160615699252
 40
0.0006160615699252
 40
0.0006160615699252
 10
3.885408818734957
 20
7.065677926318001
 30
0.0
 10
3.874136538858579
 20
7.073875227984207
 30
0.0
 10
3.862856774836003
 20
7.082067386363447
 30
0.0
 10
3.851570486586652
 20
7.090255044770387
 30
0.0
  0
SPLINE
  5
267
330
1F
100
AcDbEntity
  8
0
  6
HIDDEN
 62
     7
100
AcDbSpline
210
0.0
220
0.0
230
1.0
 70
     8
 71
     3
 72
     8
 73
     4
 74
     0
 42
0.00000001
 43
0.00000001
 40
0.0
 40
0.0
 40
0.0
 40
0.0
 40
0.0002845941545838
 40
0.0002845941545838
 40
0.0002845941545838
 40
0.0002845941545838
 10
2.9606052939132
 20
7.325066007740044
 30
0.0
 10
2.955746458953952
 20
7.319392597307949
 30
0.0
 10
2.950897346201577
 20
7.313710844050087
 30
0.0
 10
2.94605867556303
 20
7.308020226373256
 30
0.0
  0
LINE
  5
268
330
1F
100
AcDbEntity
  8
0
  6
HIDDEN
 62
     7
100
AcDbLine
 10
2.9460586756
 20
7.3080202264
 30
0.0
 11
2.9460586756
 21
7.3338583705
 31
0.0
  0
SPLINE
  5
269
330
1F
100
AcDbEntity
  8
0
  6
HIDDEN
 62
     7
100
AcDbSpline
210
0.0
220
0.0
230
1.0
 70
     8
 71
     3
 72
     8
 73
     4
 74
     0
 42
0.00000001
 43
0.00000001
 40
0.0
 40
0.0
 40
0.0
 40
0.0
 40
0.0006160615699252
 40
0.0006160615699252
 40
0.0006160615699252
 40
0.0006160615699252
 10
2.985428754303187
 20
7.339093945388056
 30
0.0
 10
2.974142466053836
 20
7.330906286981117
 30
0.0
 10
2.96286270203126
 20
7.322714128601874
 30
0.0
 10
2.951590422154883
 20
7.31451682693567
 30
0.0
  0
SPLINE
  5
26A
330
1F
100
AcDbEntity
  8
0
  6
HIDDEN
 62
     7
100
AcDbSpline
210
0.0
220
0.0
230
1.0
 70
     8
 71
     3
 72
     8
 73
     4
 74
     0
 42
0.00000001
 43
0.00000001
 40
0.0
 40
0.0
 40
0.0
 40
0.0
 40
0.000534342373819
 40
0.000534342373819
 40
0.000534342373819
 40
0.000534342373819
 10
2.9606052939132
 20
7.325066007740044
 30
0.0
 10
2.968802580741844
 20
7.328011291811587
 30
0.0
 10
2.977080585026062
 20
7.330941613740429
 30
0.0
 10
2.985428754303187
 20
7.333858370484337
 30
0.0
  0
SPLINE
  5
26B
330
1F
100
AcDbEntity
  8
0
  6
HIDDEN
 62
     7
100
AcDbSpline
210
0.0
220
0.0
230
1.0
 70
     8
 71
     3
 72
     8
 73
     4
 74
     0
 42
0.00000001
 43
0.00000001
 40
0.0
 40
0.0
 40
0.0
 40
0.0
 40
0.0001083645978465
 40
0.0001083645978465
 40
0.0001083645978465
 40
0.0001083645978465
 10
2.94605867556303
 20
6.035934051459594
 30
0.0
 10
2.947901090768728
 20
6.033767241333257
 30
0.0
 10
2.949745019934351
 20
6.031601717645582
 30
0.0
 10
2.951590422154884
 20
6.029437450897182
 30
0.0
  0
SPLINE
  5
26C
330
1F
100
AcDbEntity
  8
0
  6
HIDDEN
 62
     7
100
AcDbSpline
210
0.0
220
0.0
230
1.0
 70
     8
 71
     3
 72
     8
 73
     4
 74
     0
 42
0.00000001
 43
0.00000001
 40
0.0
 40
0.0
 40
0.0
 40
0.0
 40
0.000534342373819
 40
0.000534342373819
 40
0.000534342373819
 40
0.000534342373819
 10
2.960605293913199
 20
6.01888827009281
 30
0.0
 10
2.968802580741844
 20
6.015942986021265
 30
0.0
 10
2.977080585026063
 20
6.013012664092423
 30
0.0
 10
2.985428754303188
 20
6.010095907348516
 30
0.0
  0
SPLINE
  5
26D
330
1F
100
AcDbEntity
  8
0
  6
HIDDEN
 62
     7
100
AcDbSpline
210
0.0
220
0.0
230
1.0
 70
     8
 71
     3
 72
     8
 73
     4
 74
     0
 42
0.00000001
 43
0.00000001
 40
0.0
 40
0.0
 40
0.0
 40
0.0
 40
0.0002845941545838
 40
0.0002845941545838
 40
0.0002845941545838
 40
0.0002845941545838
 10
2.960605293913199
 20
6.01888827009281
 30
0.0
 10
2.955746458953951
 20
6.024561680524903
 30
0.0
 10
2.950897346201577
 20
6.030243433782765
 30
0.0
 10
2.94605867556303
 20
6.035934051459597
 30
0.0
  0
LINE
  5
26E
330
1F
100
AcDbEntity
  8
0
  6
HIDDEN
 62
     7
100
AcDbLine
 10
2.9460586756
 20
6.0048603324
 30
0.0
 11
2.9460586756
 21
6.0359340515
 31
0.0
  0
SPLINE
  5
26F
330
1F
100
AcDbEntity
  8
0
  6
HIDDEN
 62
     7
100
AcDbSpline
210
0.0
220
0.0
230
1.0
 70
     8
 71
     3
 72
     8
 73
     4
 74
     0
 42
0.00000001
 43
0.00000001
 40
0.0
 40
0.0
 40
0.0
 40
0.0
 40
0.0006160615699252
 40
0.0006160615699252
 40
0.0006160615699252
 40
0.0006160615699252
 10
2.951590422154884
 20
6.029437450897182
 30
0.0
 10
2.962862702031261
 20
6.021240149230977
 30
0.0
 10
2.974142466053837
 20
6.013047990851736
 30
0.0
 10
2.985428754303188
 20
6.004860332444796
 30
0.0
  0
LINE
  5
270
330
1F
100
AcDbEntity
  8
0
  6
HIDDEN
 62
     7
100
AcDbLine
 10
2.9460586756
 20
6.0359340515
 30
0.0
 11
2.9460586756
 21
7.3080202264
 31
0.0
  0
LINE
  5
271
330
1F
100
AcDbEntity
  8
0
  6
HIDDEN
 62
     7
100
AcDbLine
 10
2.9515904222
 20
6.0294374509
 30
0.0
 11
2.767863388
 21
6.0294374509
 31
0.0
  0
LINE
  5
272
330
1F
100
AcDbEntity
  8
0
  6
HIDDEN
 62
     7
100
AcDbLine
 10
2.7768782598
 20
7.3250660077
 30
0.0
 11
2.9606052939
 21
7.3250660077
 31
0.0
  0
LINE
  5
273
330
1F
100
AcDbEntity
  8
0
  6
HIDDEN
 62
     7
100
AcDbLine
 10
2.7768782598
 20
6.0188882701
 30
0.0
 11
2.9606052939
 21
6.0188882701
 31
0.0
  0
LINE
  5
274
330
1F
100
AcDbEntity
  8
0
  6
HIDDEN
 62
     7
100
AcDbLine
 10
2.9515904222
 20
7.3145168269
 30
0.0
 11
2.767863388
 21
7.3145168269
 31
0.0
  0
SPLINE
  5
275
330
1F
100
AcDbEntity
  8
0
  6
HIDDEN
 62
     7
100
AcDbSpline
210
0.0
220
0.0
230
1.0
 70
     8
 71
     3
 72
     8
 73
     4
 74
     0
 42
0.00000001
 43
0.00000001
 40
0.0
 40
0.0
 40
0.0
 40
0.0
 40
0.0002845941545838
 40
0.0002845941545838
 40
0.0002845941545838
 40
0.0002845941545838
 10
2.762331641442296
 20
6.035934051459597
 30
0.0
 10
2.767170312080842
 20
6.030243433782765
 30
0.0
 10
2.772019424833216
 20
6.024561680524902
 30
0.0
 10
2.776878259792464
 20
6.01888827009281
 30
0.0
  0
SPLINE
  5
276
330
1F
100
AcDbEntity
  8
0
  6
HIDDEN
 62
     7
100
AcDbSpline
210
0.0
220
0.0
230
1.0
 70
     8
 71
     3
 72
     8
 73
     4
 74
     0
 42
0.00000001
 43
0.00000001
 40
0.0
 40
0.0
 40
0.0
 40
0.0
 40
0.0006160615699252
 40
0.0006160615699252
 40
0.0006160615699252
 40
0.0006160615699252
 10
2.767863388034149
 20
7.31451682693567
 30
0.0
 10
2.779135667910526
 20
7.322714128601874
 30
0.0
 10
2.790415431933102
 20
7.330906286981117
 30
0.0
 10
2.801701720182453
 20
7.339093945388056
 30
0.0
  0
SPLINE
  5
277
330
1F
100
AcDbEntity
  8
0
  6
HIDDEN
 62
     7
100
AcDbSpline
210
0.0
220
0.0
230
1.0
 70
     8
 71
     3
 72
     8
 73
     4
 74
     0
 42
0.00000001
 43
0.00000001
 40
0.0
 40
0.0
 40
0.0
 40
0.0
 40
0.000534342373819
 40
0.000534342373819
 40
0.000534342373819
 40
0.000534342373819
 10
2.776878259792465
 20
6.01888827009281
 30
0.0
 10
2.78507554662111
 20
6.015942986021265
 30
0.0
 10
2.793353550905329
 20
6.013012664092423
 30
0.0
 10
2.801701720182453
 20
6.010095907348516
 30
0.0
  0
LINE
  5
278
330
1F
100
AcDbEntity
  8
0
  6
HIDDEN
 62
     7
100
AcDbLine
 10
3.6926669129
 20
6.2782763515
 30
0.0
 11
3.7016407917
 21
6.2782763515
 31
0.0
  0
SPLINE
  5
279
330
1F
100
AcDbEntity
  8
0
  6
HIDDEN
 62
     7
100
AcDbSpline
210
0.0
220
0.0
230
1.0
 70
     8
 71
     3
 72
     8
 73
     4
 74
     0
 42
0.00000001
 43
0.00000001
 40
0.0
 40
0.0
 40
0.0
 40
0.0
 40
0.0006160615699252
 40
0.0006160615699252
 40
0.0006160615699252
 40
0.0006160615699252
 10
3.667843452465918
 20
7.090255044770387
 30
0.0
 10
3.679129740715268
 20
7.082067386363447
 30
0.0
 10
3.690409504737844
 20
7.073875227984207
 30
0.0
 10
3.701681784614222
 20
7.065677926318001
 30
0.0
  0
SPLINE
  5
27A
330
1F
100
AcDbEntity
  8
0
  6
HIDDEN
 62
     7
100
AcDbSpline
210
0.0
220
0.0
230
1.0
 70
     8
 71
     3
 72
     8
 73
     4
 74
     0
 42
0.00000001
 43
0.00000001
 40
0.0
 40
0.0
 40
0.0
 40
0.0
 40
0.000534342373819
 40
0.000534342373819
 40
0.000534342373819
 40
0.000534342373819
 10
3.667843452465918
 20
6.245462807034572
 30
0.0
 10
3.676191621743042
 20
6.256348291396153
 30
0.0
 10
3.684469626027261
 20
6.267284401717127
 30
0.0
 10
3.692666912855906
 20
6.278276351514851
 30
0.0
  0
CIRCLE
  5
27B
330
1F
100
AcDbEntity
  8
0
  6
HIDDEN
 62
     7
100
AcDbCircle
 10
4.3896282294
 20
6.1601661153
 30
0.0
 40
0.0787401574803148
  0
LINE
  5
27C
330
1F
100
AcDbEntity
  8
0
  6
HIDDEN
 62
     7
100
AcDbLine
 10
2.7623316414
 20
5.9900673722
 30
0.0
 11
2.7229615627
 21
5.9900673722
 31
0.0
  0
LINE
  5
27D
330
1F
100
AcDbEntity
  8
0
  6
HIDDEN
 62
     7
100
AcDbLine
 10
2.7229615627
 20
5.9900673722
 30
0.0
 11
2.7229615627
 21
7.3538869057
 31
0.0
  0
LINE
  5
27E
330
1F
100
AcDbEntity
  8
0
  6
HIDDEN
 62
     7
100
AcDbLine
 10
2.7229615627
 20
7.3538869057
 30
0.0
 11
2.7623316414
 21
7.3538869057
 31
0.0
  0
SPLINE
  5
27F
330
1F
100
AcDbEntity
  8
0
  6
HIDDEN
 62
     7
100
AcDbSpline
210
0.0
220
0.0
230
1.0
 70
     8
 71
     3
 72
    42
 73
    38
 74
     0
 42
0.00000001
 43
0.00000001
 40
-0.0625000000000001
 40
-0.0625000000000001
 40
0.0
 40
0.0
 40
0.0625000000000003
 40
0.0625000000000003
 40
0.1250000000000006
 40
0.1250000000000006
 40
0.1875000000000009
 40
0.1875000000000009
 40
0.2500000000000013
 40
0.2500000000000013
 40
0.3125000000000016
 40
0.3125000000000016
 40
0.3750000000000017
 40
0.3750000000000017
 40
0.4062500000000016
 40
0.4062500000000016
 40
0.4375000000000014
 40
0.4375000000000014
 40
0.5000000000000011
 40
0.5000000000000011
 40
0.5625000000000008
 40
0.5625000000000008
 40
0.6250000000000004
 40
0.6250000000000004
 40
0.6875000000000001
 40
0.6875000000000001
 40
0.7499999999999999
 40
0.7499999999999999
 40
0.8124999999999998
 40
0.8124999999999998
 40
0.8749999999999997
 40
0.8749999999999997
 40
0.9062499999999998
 40
0.9062499999999998
 40
0.9374999999999999
 40
0.9374999999999999
 40
1.0
 40
1.0
 40
1.0625
 40
1.0625
 10
2.278962355419003
 20
7.169584408985899
 30
0.0
 10
2.248325599381597
 20
7.169584408985898
 30
0.0
 10
2.233782303535649
 20
7.174128120868496
 30
0.0
 10
2.209309077594432
 20
7.187796985413521
 30
0.0
 10
2.199420575122171
 20
7.196576187340889
 30
0.0
 10
2.183302024622463
 20
7.215472178722605
 30
0.0
 10
2.177293450278223
 20
7.225339532585904
 30
0.0
 10
2.168590869888687
 20
7.24550090026033
 30
0.0
 10
2.16602199810527
 20
7.255669838410634
 30
0.0
 10
2.164734618629686
 20
7.275357210147296
 30
0.0
 10
2.166042907488911
 20
7.285071076642749
 30
0.0
 10
2.173150252279771
 20
7.302943467049483
 30
0.0
 10
2.179070987200334
 20
7.311341101830367
 30
0.0
 10
2.191645179912243
 20
7.322031340587124
 30
0.0
 10
2.196542476758516
 20
7.325349152040267
 30
0.0
 10
2.207381032047065
 20
7.331128276935077
 30
0.0
 10
2.213307743986113
 20
7.33360709897735
 30
0.0
 10
2.232768597907138
 20
7.339789341970491
 30
0.0
 10
2.247806636687367
 20
7.342070899351926
 30
0.0
 10
2.278133391815771
 20
7.342198998696697
 30
0.0
 10
2.293190960097625
 20
7.340061534739502
 30
0.0
 10
2.319486244482987
 20
7.331995121538692
 30
0.0
 10
2.330717259908004
 20
7.326064677474482
 30
0.0
 10
2.347814687628573
 20
7.3118273355615
 30
0.0
 10
2.353829606702191
 20
7.30347180422886
 30
0.0
 10
2.361148044260704
 20
7.285547999474416
 30
0.0
 10
2.362525601113909
 20
7.275842119822736
 30
0.0
 10
2.361349315942464
 20
7.256075597003036
 30
0.0
 10
2.358787212852072
 20
7.24580562142973
 30
0.0
 10
2.350193465367913
 20
7.22570770611794
 30
0.0
 10
2.344077213540905
 20
7.215618512573108
 30
0.0
 10
2.332090625551463
 20
7.201508076290177
 30
0.0
 10
2.327640934474238
 20
7.196989667841772
 30
0.0
 10
2.317610790432167
 20
7.18847453407678
 30
0.0
 10
2.312023608277904
 20
7.184489439503072
 30
0.0
 10
2.293773621508944
 20
7.174241462298134
 30
0.0
 10
2.278962355419003
 20
7.169584408985899
 30
0.0
 10
2.248325599381597
 20
7.169584408985898
 30
0.0
  0
SPLINE
  5
280
330
1F
100
AcDbEntity
  8
0
  6
HIDDEN
 62
     7
100
AcDbSpline
210
0.0
220
0.0
230
1.0
 70
     8
 71
     3
 72
    66
 73
    62
 74
     0
 42
0.00000001
 43
0.00000001
 40
0.0
 40
0.0
 40
0.0
 40
0.0
 40
0.0312500000000003
 40
0.0312500000000003
 40
0.0625000000000005
 40
0.0625000000000005
 40
0.1250000000000009
 40
0.1250000000000009
 40
0.156250000000001
 40
0.156250000000001
 40
0.187500000000001
 40
0.187500000000001
 40
0.2187500000000011
 40
0.2187500000000011
 40
0.2500000000000012
 40
0.2500000000000012
 40
0.2812500000000013
 40
0.2812500000000013
 40
0.3125000000000012
 40
0.3125000000000012
 40
0.3437500000000012
 40
0.3437500000000012
 40
0.3750000000000012
 40
0.3750000000000012
 40
0.4062500000000012
 40
0.4062500000000012
 40
0.4375000000000012
 40
0.4375000000000012
 40
0.4687500000000011
 40
0.4687500000000011
 40
0.5000000000000011
 40
0.5000000000000011
 40
0.531250000000001
 40
0.531250000000001
 40
0.562500000000001
 40
0.562500000000001
 40
0.5937500000000009
 40
0.5937500000000009
 40
0.6250000000000008
 40
0.6250000000000008
 40
0.6562500000000008
 40
0.6562500000000008
 40
0.6875000000000007
 40
0.6875000000000007
 40
0.7187500000000006
 40
0.7187500000000006
 40
0.7500000000000004
 40
0.7500000000000004
 40
0.7812500000000004
 40
0.7812500000000004
 40
0.8125000000000003
 40
0.8125000000000003
 40
0.8437500000000002
 40
0.8437500000000002
 40
0.8750000000000002
 40
0.8750000000000002
 40
0.9375000000000001
 40
0.9375000000000001
 40
0.9687500000000001
 40
0.9687500000000001
 40
1.0
 40
1.0
 40
1.0
 40
1.0
 10
2.214106311344881
 20
6.278276351514854
 30
0.0
 10
2.20285116788265
 20
6.272598995889787
 30
0.0
 10
2.192894276121285
 20
6.265720168121812
 30
0.0
 10
2.174515788518042
 20
6.250675817833499
 30
0.0
 10
2.166065696014182
 20
6.242426890597107
 30
0.0
 10
2.142871544568588
 20
6.216821519428524
 30
0.0
 10
2.130320930531158
 20
6.198872145010636
 30
0.0
 10
2.114601662902045
 20
6.171517259908145
 30
0.0
 10
2.109892535377297
 20
6.162271133658908
 30
0.0
 10
2.101741322563801
 20
6.144024082062522
 30
0.0
 10
2.098275268132132
 20
6.134988903531405
 30
0.0
 10
2.092590551995069
 20
6.117116811534403
 30
0.0
 10
2.090371501463627
 20
6.108279797592026
 30
0.0
 10
2.087318349861393
 20
6.0908130333564
 30
0.0
 10
2.086494439264245
 20
6.082162167124679
 30
0.0
 10
2.086463263264536
 20
6.065531995673227
 30
0.0
 10
2.087240177115175
 20
6.057495064835697
 30
0.0
 10
2.090596964705212
 20
6.041973644026314
 30
0.0
 10
2.093213567708847
 20
6.034425242360581
 30
0.0
 10
2.100423082256681
 20
6.020279093179534
 30
0.0
 10
2.104993345788848
 20
6.013671314152685
 30
0.0
 10
2.116311788953342
 20
6.00134749069267
 30
0.0
 10
2.123148928834053
 20
5.995593507034028
 30
0.0
 10
2.13866181489923
 20
5.985434997936308
 30
0.0
 10
2.147371050212353
 20
5.980962405337467
 30
0.0
 10
2.166876074163217
 20
5.973143038943315
 30
0.0
 10
2.177712876558977
 20
5.969815771862113
 30
0.0
 10
2.20037428143655
 20
5.964574603578852
 30
0.0
 10
2.212405783622372
 20
5.962588330750065
 30
0.0
 10
2.237538264266296
 20
5.959907656689941
 30
0.0
 10
2.250239244345759
 20
5.959246339322418
 30
0.0
 10
2.275905726644301
 20
5.959207466244218
 30
0.0
 10
2.288913237741595
 20
5.959855181292297
 30
0.0
 10
2.313806841627639
 20
5.962439612029431
 30
0.0
 10
2.326005611986745
 20
5.96440208055928
 30
0.0
 10
2.348951902149672
 20
5.969636572677339
 30
0.0
 10
2.359598274933779
 20
5.972866671022905
 30
0.0
 10
2.379315253293216
 20
5.980674869676303
 30
0.0
 10
2.388247785182517
 20
5.985221978774965
 30
0.0
 10
2.403880560729261
 20
5.995390898424851
 30
0.0
 10
2.410726626925104
 20
6.001114764268586
 30
0.0
 10
2.422149281545453
 20
6.013475426674755
 30
0.0
 10
2.426755758786433
 20
6.020101518945717
 30
0.0
 10
2.434019390132546
 20
6.034281624309112
 30
0.0
 10
2.436644247244328
 20
6.04181883643741
 30
0.0
 10
2.440025996855253
 20
6.057334260790989
 30
0.0
 10
2.44081511582666
 20
6.065372754562717
 30
0.0
 10
2.440803484282947
 20
6.082016005439804
 30
0.0
 10
2.439986328849526
 20
6.090677447456521
 30
0.0
 10
2.436946243671869
 20
6.108148675787342
 30
0.0
 10
2.434732667502113
 20
6.116988197325825
 30
0.0
 10
2.429057380650846
 20
6.13486588886827
 30
0.0
 10
2.425595275631697
 20
6.143904158769503
 30
0.0
 10
2.417450812866845
 20
6.162158023381748
 30
0.0
 10
2.412740282644221
 20
6.171415908213682
 30
0.0
 10
2.39702491361379
 20
6.198786081252184
 30
0.0
 10
2.384491510906559
 20
6.216709216199548
 30
0.0
 10
2.361418682359917
 20
6.242224522431782
 30
0.0
 10
2.352916176587341
 20
6.250548803610618
 30
0.0
 10
2.334434763962512
 20
6.265695574937832
 30
0.0
 10
2.324437070219205
 20
6.272598852986057
 30
0.0
 10
2.313181643455719
 20
6.278276351514855
 30
0.0
  0
LINE
  5
281
330
1F
100
AcDbEntity
  8
0
  6
HIDDEN
 62
     7
100
AcDbLine
 10
2.027423505
 20
6.6916621783
 30
0.0
 11
2.4186702559
 21
6.6916621783
 31
0.0
  0
LINE
  5
282
330
1F
100
AcDbEntity
  8
0
  6
HIDDEN
 62
     7
100
AcDbLine
 10
2.027423505
 20
6.6522920995
 30
0.0
 11
2.4186702559
 21
6.6522920995
 31
0.0
  0
LINE
  5
283
330
1F
100
AcDbEntity
  8
0
  6
HIDDEN
 62
     7
100
AcDbLine
 10
2.923880271
 20
7.3338583705
 30
0.0
 11
2.9460586756
 21
7.3080202264
 31
0.0
  0
LINE
  5
284
330
1F
100
AcDbEntity
  8
0
  6
HIDDEN
 62
     7
100
AcDbLine
 10
2.9460586756
 20
6.0359340515
 30
0.0
 11
2.919386268
 21
6.0048603324
 31
0.0
  0
LINE
  5
285
330
1F
100
AcDbEntity
  8
0
  6
HIDDEN
 62
     7
100
AcDbLine
 10
2.621255526
 20
7.4231103684
 30
0.0
 11
2.621255526
 21
6.6719771389
 31
0.0
  0
LINE
  5
286
330
1F
100
AcDbEntity
  8
0
  6
HIDDEN
 62
     7
100
AcDbLine
 10
2.621255526
 20
6.6719771389
 30
0.0
 11
2.621255526
 21
5.9208439095
 31
0.0
  0
LINE
  5
287
330
1F
100
AcDbEntity
  8
0
  6
HIDDEN
 62
     7
100
AcDbLine
 10
2.5818854472
 20
7.4231103684
 30
0.0
 11
2.5818854472
 21
6.6719771389
 31
0.0
  0
LINE
  5
288
330
1F
100
AcDbEntity
  8
0
  6
HIDDEN
 62
     7
100
AcDbLine
 10
2.5818854472
 20
6.6916621783
 30
0.0
 11
2.4186702559
 21
6.6916621783
 31
0.0
  0
LINE
  5
289
330
1F
100
AcDbEntity
  8
0
  6
HIDDEN
 62
     7
100
AcDbLine
 10
2.5818854472
 20
6.6522920995
 30
0.0
 11
2.4186702559
 21
6.6522920995
 31
0.0
  0
SPLINE
  5
28A
330
1F
100
AcDbEntity
  8
0
  6
HIDDEN
 62
     7
100
AcDbSpline
210
0.0
220
0.0
230
1.0
 70
     8
 71
     3
 72
     8
 73
     4
 74
     0
 42
0.00000001
 43
0.00000001
 40
0.0
 40
0.0
 40
0.0
 40
0.0
 40
1.0
 40
1.0
 40
1.0
 40
1.0
 10
2.41867025586774
 20
6.691662178286504
 30
0.0
 10
2.417568246602789
 20
6.678538818706452
 30
0.0
 10
2.417568246602788
 20
6.665415459126399
 30
0.0
 10
2.41867025586774
 20
6.652292099546346
 30
0.0
  0
LINE
  5
28B
330
1F
100
AcDbEntity
  8
0
  6
HIDDEN
 62
     7
100
AcDbLine
 10
2.5818854472
 20
6.6719771389
 30
0.0
 11
2.5818854472
 21
5.9208439095
 31
0.0
  0
LINE
  5
28C
330
1F
100
AcDbEntity
  8
0
  6
HIDDEN
 62
     7
100
AcDbLine
 10
2.0864786231
 20
6.2782763515
 30
0.0
 11
2.4408093317
 21
6.2782763515
 31
0.0
  0
SPLINE
  5
28D
330
1F
100
AcDbEntity
  8
0
  6
HIDDEN
 62
     7
100
AcDbSpline
210
0.0
220
0.0
230
1.0
 70
     8
 71
     3
 72
     8
 73
     4
 74
     0
 42
0.00000001
 43
0.00000001
 40
0.0
 40
0.0
 40
0.0
 40
0.0
 40
0.0007676680295986
 40
0.0007676680295986
 40
0.0007676680295986
 40
0.0007676680295986
 10
2.722961562702138
 20
7.353886905675828
 30
0.0
 10
2.736152027097463
 20
7.338655869337074
 30
0.0
 10
2.749279747384942
 20
7.323370173618524
 30
0.0
 10
2.762331641442295
 20
7.308020226373259
 30
0.0
  0
SPLINE
  5
28E
330
1F
100
AcDbEntity
  8
0
  6
HIDDEN
 62
     7
100
AcDbSpline
210
0.0
220
0.0
230
1.0
 70
     8
 71
     3
 72
     8
 73
     4
 74
     0
 42
0.00000001
 43
0.00000001
 40
0.0
 40
0.0
 40
0.0
 40
0.0
 40
0.0007676680295986
 40
0.0007676680295986
 40
0.0007676680295986
 40
0.0007676680295986
 10
2.762331641442296
 20
6.035934051459596
 30
0.0
 10
2.749279747384943
 20
6.020584104214332
 30
0.0
 10
2.736152027097463
 20
6.005298408495781
 30
0.0
 10
2.722961562702138
 20
5.990067372157027
 30
0.0
  0
LINE
  5
28F
330
1F
100
AcDbEntity
  8
0
  6
HIDDEN
 62
     7
100
AcDbLine
 10
2.0867783588
 20
6.1011109972
 30
0.0
 11
2.440509596
 21
6.1011109972
 31
0.0
  0
LINE
  5
290
330
1F
100
AcDbEntity
  8
0
  6
HIDDEN
 62
     7
100
AcDbLine
 10
2.1061636624
 20
6.0814259578
 30
0.0
 11
2.4211242924
 21
6.0814259578
 31
0.0
  0
LINE
  5
291
330
1F
100
AcDbEntity
  8
0
  6
HIDDEN
 62
     7
100
AcDbLine
 10
2.2636439774
 20
7.1837881625
 30
0.0
 11
2.1849038199
 21
7.1837881625
 31
0.0
  0
LINE
  5
292
330
1F
100
AcDbEntity
  8
0
  6
HIDDEN
 62
     7
100
AcDbLine
 10
2.3423841349
 20
7.1837881625
 30
0.0
 11
2.2636439774
 21
7.1837881625
 31
0.0
  0
LINE
  5
293
330
1F
100
AcDbEntity
  8
0
  6
HIDDEN
 62
     7
100
AcDbLine
 10
2.1652187805
 20
7.1641031232
 30
0.0
 11
2.3620691743
 21
7.1641031232
 31
0.0
  0
LINE
  5
294
330
1F
100
AcDbEntity
  8
0
  6
HIDDEN
 62
     7
100
AcDbLine
 10
2.2636439774
 20
6.2389062728
 30
0.0
 11
2.2636439774
 21
6.0814259578
 31
0.0
  0
LINE
  5
295
330
1F
100
AcDbEntity
  8
0
  6
HIDDEN
 62
     7
100
AcDbLine
 10
2.2636439774
 20
6.2389062728
 30
0.0
 11
2.3423841349
 21
6.2389062728
 31
0.0
  0
LINE
  5
296
330
1F
100
AcDbEntity
  8
0
  6
HIDDEN
 62
     7
100
AcDbLine
 10
2.1849038199
 20
6.2389062728
 30
0.0
 11
2.2636439774
 21
6.2389062728
 31
0.0
  0
LINE
  5
297
330
1F
100
AcDbEntity
  8
0
  6
HIDDEN
 62
     7
100
AcDbLine
 10
2.3423841349
 20
6.2389062728
 30
0.0
 11
2.3423841349
 21
6.0814259578
 31
0.0
  0
LINE
  5
298
330
1F
100
AcDbEntity
  8
0
  6
HIDDEN
 62
     7
100
AcDbLine
 10
2.1849038199
 20
6.2389062728
 30
0.0
 11
2.1849038199
 21
6.0814259578
 31
0.0
  0
LINE
  5
299
330
1F
100
AcDbEntity
  8
0
  6
HIDDEN
 62
     7
100
AcDbLine
 10
4.0320166808
 20
6.9081976114
 30
0.0
 11
3.7072135312
 21
6.9081976114
 31
0.0
  0
LINE
  5
29A
330
1F
100
AcDbEntity
  8
0
  6
HIDDEN
 62
     7
100
AcDbLine
 10
3.7072135312
 20
6.4357566665
 30
0.0
 11
4.0320166808
 21
6.4357566665
 31
0.0
  0
LINE
  5
29B
330
1F
100
AcDbEntity
  8
0
  6
HIDDEN
 62
     7
100
AcDbLine
 10
4.2354229625
 20
6.9081976114
 30
0.0
 11
4.0713867596
 21
6.9081976114
 31
0.0
  0
LINE
  5
29C
330
1F
100
AcDbEntity
  8
0
  6
HIDDEN
 62
     7
100
AcDbLine
 10
2.9460586756
 20
6.4357566665
 30
0.0
 11
3.7072135312
 21
6.4357566665
 31
0.0
  0
LINE
  5
29D
330
1F
100
AcDbEntity
  8
0
  6
HIDDEN
 62
     7
100
AcDbLine
 10
3.7072135312
 20
6.9081976114
 30
0.0
 11
2.9460586756
 21
6.9081976114
 31
0.0
  0
LINE
  5
29E
330
1F
100
AcDbEntity
  8
0
  6
HIDDEN
 62
     7
100
AcDbLine
 10
2.0667935837
 20
6.9081976114
 30
0.0
 11
2.027423505
 21
6.9475676901
 31
0.0
  0
LINE
  5
29F
330
1F
100
AcDbEntity
  8
0
  6
HIDDEN
 62
     7
100
AcDbLine
 10
2.027423505
 20
6.3963865877
 30
0.0
 11
2.0667935837
 21
6.4357566665
 31
0.0
  0
LINE
  5
2A0
330
1F
100
AcDbEntity
  8
0
  6
HIDDEN
 62
     7
100
AcDbLine
 10
2.621255526
 20
6.4357566665
 30
0.0
 11
2.9460586756
 21
6.4357566665
 31
0.0
  0
LINE
  5
2A1
330
1F
100
AcDbEntity
  8
0
  6
HIDDEN
 62
     7
100
AcDbLine
 10
2.9460586756
 20
6.9081976114
 30
0.0
 11
2.621255526
 21
6.9081976114
 31
0.0
  0
LINE
  5
2A2
330
1F
100
AcDbEntity
  8
0
  6
HIDDEN
 62
     7
100
AcDbLine
 10
2.0667935837
 20
6.4357566665
 30
0.0
 11
2.5818854472
 21
6.4357566665
 31
0.0
  0
LINE
  5
2A3
330
1F
100
AcDbEntity
  8
0
  6
HIDDEN
 62
     7
100
AcDbLine
 10
2.5818854472
 20
6.9081976114
 30
0.0
 11
2.0667935837
 21
6.9081976114
 31
0.0
  0
LINE
  5
2A4
330
1F
100
AcDbEntity
  8
0
  6
HIDDEN
 62
     7
100
AcDbLine
 10
2.0864786231
 20
6.2782763515
 30
0.0
 11
2.0864786231
 21
6.0740002613
 31
0.0
  0
LINE
  5
2A5
330
1F
100
AcDbEntity
  8
0
  6
HIDDEN
 62
     7
100
AcDbLine
 10
2.4408093317
 20
6.0740199925
 30
0.0
 11
2.4408093317
 21
6.2782763515
 31
0.0
  0
LINE
  5
2A6
330
1F
100
AcDbEntity
  8
0
  6
HIDDEN
 62
     7
100
AcDbLine
 10
2.3620691743
 20
6.6916621783
 30
0.0
 11
2.3620691743
 21
7.2702648436
 31
0.0
  0
LINE
  5
2A7
330
1F
100
AcDbEntity
  8
0
  6
HIDDEN
 62
     7
100
AcDbLine
 10
2.1652187805
 20
7.2701887293
 30
0.0
 11
2.1652187805
 21
6.6916621783
 31
0.0
  0
LINE
  5
2A8
330
1F
100
AcDbEntity
  8
0
  6
HIDDEN
 62
     7
100
AcDbLine
 10
2.3620691743
 20
6.2782763515
 30
0.0
 11
2.3620691743
 21
6.6522920995
 31
0.0
  0
LINE
  5
2A9
330
1F
100
AcDbEntity
  8
0
  6
HIDDEN
 62
     7
100
AcDbLine
 10
2.1652187805
 20
6.6522920995
 30
0.0
 11
2.1652187805
 21
6.2782763515
 31
0.0
  0
LINE
  5
2AA
330
1F
100
AcDbEntity
  8
0
  6
HIDDEN
 62
     7
100
AcDbLine
 10
2.0864786231
 20
6.2782763515
 30
0.0
 11
2.0864786231
 21
6.1011109972
 31
0.0
  0
LINE
  5
2AB
330
1F
100
AcDbEntity
  8
0
  6
HIDDEN
 62
     7
100
AcDbLine
 10
2.4408093317
 20
6.1011109972
 30
0.0
 11
2.4408093317
 21
6.2782763515
 31
0.0
  0
ARC
  5
2AC
330
1F
100
AcDbEntity
  8
0
  6
HIDDEN
 62
     7
100
AcDbCircle
 10
2.4211242924
 20
6.1011109972
 30
0.0
 40
0.0196850393700787
100
AcDbArc
 50
270.0
 51
0.0
  0
ARC
  5
2AD
330
1F
100
AcDbEntity
  8
0
  6
HIDDEN
 62
     7
100
AcDbCircle
 10
2.1061636624
 20
6.1011109972
 30
0.0
 40
0.0196850393700787
100
AcDbArc
 50
180.0
 51
270.0
  0
ARC
  5
2AE
330
1F
100
AcDbEntity
  8
0
  6
HIDDEN
 62
     7
100
AcDbCircle
 10
2.1849038199
 20
7.1641031232
 30
0.0
 40
0.0196850393700787
100
AcDbArc
 50
90.0
 51
180.0
  0
ARC
  5
2AF
330
1F
100
AcDbEntity
  8
0
  6
HIDDEN
 62
     7
100
AcDbCircle
 10
2.3423841349
 20
7.1641031232
 30
0.0
 40
0.0196850393700787
100
AcDbArc
 50
0.0
 51
90.0
  0
LINE
  5
2B0
330
1F
100
AcDbEntity
  8
0
  6
HIDDEN
 62
     7
100
AcDbLine
 10
2.1652187805
 20
7.1641031232
 30
0.0
 11
2.1652187805
 21
6.2782763515
 31
0.0
  0
LINE
  5
2B1
330
1F
100
AcDbEntity
  8
0
  6
HIDDEN
 62
     7
100
AcDbLine
 10
2.3620691743
 20
6.2782763515
 30
0.0
 11
2.3620691743
 21
7.1641031232
 31
0.0
  0
LINE
  5
2B2
330
1F
100
AcDbEntity
  8
0
  6
CONTINUOUS
 62
     7
100
AcDbLine
 10
9.0644740698
 20
5.6952808802
 30
0.0
 11
9.0923083949
 21
5.711354518
 31
0.0
  0
LINE
  5
2B3
330
1F
100
AcDbEntity
  8
0
  6
CONTINUOUS
 62
     7
100
AcDbLine
 10
9.621160571
 20
6.6274526178
 30
0.0
 11
9.621160571
 21
6.6595946695
 31
0.0
  0
LINE
  5
2B4
330
1F
100
AcDbEntity
  8
0
  6
CONTINUOUS
 62
     7
100
AcDbLine
 10
8.5930818436
 20
5.7010624583
 30
0.0
 11
8.6707147855
 21
5.6562459149
 31
0.0
  0
LINE
  5
2B5
330
1F
100
AcDbEntity
  8
0
  6
CONTINUOUS
 62
     7
100
AcDbLine
 10
8.3064898359
 20
5.8665085028
 30
0.0
 11
8.4699085159
 21
5.7721689069
 31
0.0
  0
LINE
  5
2B6
330
1F
100
AcDbEntity
  8
0
  6
CONTINUOUS
 62
     7
100
AcDbLine
 10
8.206733958
 20
5.9240963453
 30
0.0
 11
8.2786509862
 21
5.8825795286
 31
0.0
  0
LINE
  5
2B7
330
1F
100
AcDbEntity
  8
0
  6
CONTINUOUS
 62
     7
100
AcDbLine
 10
9.4580523703
 20
7.0201023911
 30
0.0
 11
8.9662326931
 21
7.3040238473
 31
0.0
  0
LINE
  5
2B8
330
1F
100
AcDbEntity
  8
0
  6
CONTINUOUS
 62
     7
100
AcDbLine
 10
8.0436257573
 20
6.3167461186
 30
0.0
 11
8.0436257573
 21
6.2846040669
 31
0.0
  0
LINE
  5
2B9
330
1F
100
AcDbEntity
  8
0
  6
CONTINUOUS
 62
     7
100
AcDbLine
 10
8.4703976267
 20
7.3239159767
 30
0.0
 11
8.4425633017
 21
7.3078423389
 31
0.0
  0
LINE
  5
2BA
330
1F
100
AcDbEntity
  8
0
  6
CONTINUOUS
 62
     7
100
AcDbLine
 10
7.4086869346
 20
6.3847990856
 30
0.0
 11
8.1510562587
 21
5.9562383969
 31
0.0
  0
LINE
  5
2BB
330
1F
100
AcDbEntity
  8
0
  6
CONTINUOUS
 62
     7
100
AcDbLine
 10
8.9383938434
 20
7.3200948731
 30
0.0
 11
8.1960245193
 21
7.7486555617
 31
0.0
  0
LINE
  5
2BC
330
1F
100
AcDbEntity
  8
0
  6
CONTINUOUS
 62
     7
100
AcDbLine
 10
7.802265235
 20
7.7096205965
 30
0.0
 11
7.77443091
 21
7.6935469586
 31
0.0
  0
LINE
  5
2BD
330
1F
100
AcDbEntity
  8
0
  6
CONTINUOUS
 62
     7
100
AcDbLine
 10
7.3754933656
 20
6.7024507383
 30
0.0
 11
7.3754933656
 21
6.6703086867
 31
0.0
  0
SPLINE
  5
2BE
330
1F
100
AcDbEntity
  8
0
  6
CONTINUOUS
 62
     7
100
AcDbSpline
210
0.0
220
0.0
230
1.0
 70
     8
 71
     3
 72
    33
 73
    29
 74
     0
 42
0.00000001
 43
0.00000001
 40
0.0
 40
0.0
 40
0.0
 40
0.0
 40
0.0185731628646997
 40
0.0562478241960973
 40
0.0947827713203332
 40
0.1340431281604927
 40
0.1737771628482808
 40
0.2137329869880013
 40
0.2537078264205284
 40
0.2936124813000938
 40
0.3334262482484275
 40
0.3731575231421212
 40
0.4128291831977035
 40
0.4524707799866097
 40
0.4921148707290384
 40
0.5317879196949227
 40
0.5715209470596431
 40
0.6113486709195141
 40
0.6513036961332542
 40
0.691411625047778
 40
0.7316806554851488
 40
0.7720819507182349
 40
0.8124788248827918
 40
0.8526229443728115
 40
0.8921892068446284
 40
0.9308748581946241
 40
0.9685628365145014
 40
1.0
 40
1.0
 40
1.0
 40
1.0
 10
8.73060946788818
 20
6.712272505435392
 30
0.0
 10
8.729614635634507
 20
6.714198347588472
 30
0.0
 10
8.726601839692497
 20
6.720030656907302
 30
0.0
 10
8.719518135825508
 20
6.729081013496645
 30
0.0
 10
8.70953916907459
 20
6.739397031684259
 30
0.0
 10
8.697641160305395
 20
6.74893491674526
 30
0.0
 10
8.684095478242345
 20
6.757605880654093
 30
0.0
 10
8.669060295774216
 20
6.765273309122526
 30
0.0
 10
8.652765481604195
 20
6.771845043129733
 30
0.0
 10
8.63543279720345
 20
6.777253029651471
 30
0.0
 10
8.617279693179073
 20
6.781452302236367
 30
0.0
 10
8.598519510184268
 20
6.784411262116547
 30
0.0
 10
8.579366370039454
 20
6.786108659114501
 30
0.0
 10
8.560035312374119
 20
6.786532602065763
 30
0.0
 10
8.540742830844763
 20
6.785680397862857
 30
0.0
 10
8.521704606204738
 20
6.783558670423489
 30
0.0
 10
8.503132792224552
 20
6.780182877028999
 30
0.0
 10
8.485233100000599
 20
6.775575846285241
 30
0.0
 10
8.468204635438642
 20
6.769766243184565
 30
0.0
 10
8.452241217869028
 20
6.762787465292167
 30
0.0
 10
8.437534072291164
 20
6.754677799062367
 30
0.0
 10
8.424282139228268
 20
6.745487095605088
 30
0.0
 10
8.412693029983403
 20
6.735289746311635
 30
0.0
 10
8.402985267700618
 20
6.724202202381272
 30
0.0
 10
8.3953277654135
 20
6.712395933494136
 30
0.0
 10
8.389937133900933
 20
6.700092427661321
 30
0.0
 10
8.38673752396332
 20
6.688146583677838
 30
0.0
 10
8.3864103500129
 20
6.680321331431597
 30
0.0
 10
8.386261555801429
 20
6.676762514368003
 30
0.0
  0
LINE
  5
2BF
330
1F
100
AcDbEntity
  8
0
  6
CONTINUOUS
 62
     7
100
AcDbLine
 10
8.3861189298
 20
6.6757414493
 30
0.0
 11
8.3861189298
 21
6.579323181
 31
0.0
  0
SPLINE
  5
2C0
330
1F
100
AcDbEntity
  8
0
  6
CONTINUOUS
 62
     7
100
AcDbSpline
210
0.0
220
0.0
230
1.0
 70
     8
 71
     3
 72
    11
 73
     7
 74
     0
 42
0.00000001
 43
0.00000001
 40
0.0
 40
0.0
 40
0.0
 40
0.0
 40
0.161467850778724
 40
0.5425828355146068
 40
0.9320043845052107
 40
1.0
 40
1.0
 40
1.0
 40
1.0
 10
8.48487913261996
 20
5.767956315513315
 30
0.0
 10
8.486081951647122
 20
5.766840185743359
 30
0.0
 10
8.490123802425591
 20
5.763089638173275
 30
0.0
 10
8.498695408298524
 20
5.757909788701277
 30
0.0
 10
8.506829001844968
 20
5.753597596223168
 30
0.0
 10
8.511847260424533
 20
5.751917652124709
 30
0.0
 10
8.512593230640174
 20
5.751667926399833
 30
0.0
  0
LINE
  5
2C1
330
1F
100
AcDbEntity
  8
0
  6
CONTINUOUS
 62
     7
100
AcDbLine
 10
8.1681856697
 20
7.7647265876
 30
0.0
 11
7.6763659925
 21
8.0486480438
 31
0.0
  0
LINE
  5
2C2
330
1F
100
AcDbEntity
  8
0
  6
CONTINUOUS
 62
     7
100
AcDbLine
 10
7.281092207
 20
6.4584579539
 30
0.0
 11
7.3530092353
 21
6.4169411372
 31
0.0
  0
LINE
  5
2C3
330
1F
100
AcDbEntity
  8
0
  6
CONTINUOUS
 62
     7
100
AcDbLine
 10
7.1493869111
 20
6.5344898029
 30
0.0
 11
7.2532533574
 21
6.4745289797
 31
0.0
  0
LINE
  5
2C4
330
1F
100
AcDbEntity
  8
0
  6
CONTINUOUS
 62
     7
100
AcDbLine
 10
7.2826067082
 20
8.0096130785
 30
0.0
 11
7.2547723831
 21
7.9935394407
 31
0.0
  0
LINE
  5
2C5
330
1F
100
AcDbEntity
  8
0
  6
CONTINUOUS
 62
     7
100
AcDbLine
 10
6.725920207
 20
7.0774413409
 30
0.0
 11
6.725920207
 21
7.0452992892
 31
0.0
  0
SPLINE
  5
2C6
330
1F
100
AcDbEntity
  8
0
  6
CONTINUOUS
 62
     7
100
AcDbSpline
210
0.0
220
0.0
230
1.0
 70
     8
 71
     3
 72
    24
 73
    20
 74
     0
 42
0.00000001
 43
0.00000001
 40
0.0
 40
0.0
 40
0.0
 40
0.0
 40
0.0369583202481418
 40
0.0986048536403022
 40
0.1608926086432928
 40
0.223448351226396
 40
0.2859784389165324
 40
0.3483853239102538
 40
0.4106501933002047
 40
0.4727931478934221
 40
0.5348532413035763
 40
0.596878163293217
 40
0.6589195226357848
 40
0.721014867135226
 40
0.7832170616078536
 40
0.845580023444397
 40
0.9081530562861896
 40
0.970971597252659
 40
1.0
 40
1.0
 40
1.0
 40
1.0
 10
6.891723749820007
 20
6.735321386998503
 30
0.0
 10
6.890953703768257
 20
6.732475106644117
 30
0.0
 10
6.888899219751687
 20
6.724881226406073
 30
0.0
 10
6.887378255483227
 20
6.71141255572276
 30
0.0
 10
6.886971516071208
 20
6.695168022362149
 30
0.0
 10
6.888241436342932
 20
6.678153009462339
 30
0.0
 10
6.891061575424059
 20
6.660661078697882
 30
0.0
 10
6.895397862293366
 20
6.642901469117583
 30
0.0
 10
6.901171972897704
 20
6.625084820352764
 30
0.0
 10
6.908303978051685
 20
6.607409464356772
 30
0.0
 10
6.916702708310304
 20
6.590070816234655
 30
0.0
 10
6.926269086459855
 20
6.573259997650156
 30
0.0
 10
6.936895148500729
 20
6.557165156607654
 30
0.0
 10
6.948465720745781
 20
6.541967590059815
 30
0.0
 10
6.960860360484768
 20
6.527843369478062
 30
0.0
 10
6.973955477822378
 20
6.514949325928913
 30
0.0
 10
6.987628534894778
 20
6.50347018935881
 30
0.0
 10
6.999195361286902
 20
6.495258998055055
 30
0.0
 10
7.006179164263373
 20
6.491097995896608
 30
0.0
 10
7.008386408590858
 20
6.489782903182535
 30
0.0
  0
SPLINE
  5
2C7
330
1F
100
AcDbEntity
  8
0
  6
CONTINUOUS
 62
     7
100
AcDbSpline
210
0.0
220
0.0
230
1.0
 70
     8
 71
     3
 72
    15
 73
    11
 74
     0
 42
0.00000001
 43
0.00000001
 40
0.0
 40
0.0
 40
0.0
 40
0.0
 40
0.0765669675824271
 40
0.2205514497370365
 40
0.3645518059607294
 40
0.5074052395381364
 40
0.6479222007175892
 40
0.7851262196998376
 40
0.9188126339266166
 40
1.0
 40
1.0
 40
1.0
 40
1.0
 10
7.008386408590858
 20
6.489782903182535
 30
0.0
 10
7.010951261009088
 20
6.488356470845542
 30
0.0
 10
7.018339328436383
 20
6.484247626917031
 30
0.0
 10
7.030678924915817
 20
6.478867272675526
 30
0.0
 10
7.045277170788068
 20
6.47437706931776
 30
0.0
 10
7.059662068491777
 20
6.472008790273093
 30
0.0
 10
7.073588851206845
 20
6.471769379423979
 30
0.0
 10
7.086737238489272
 20
6.473763101183832
 30
0.0
 10
7.097562631938726
 20
6.477035633917234
 30
0.0
 10
7.103495712054303
 20
6.480400944674369
 30
0.0
 10
7.105737452049818
 20
6.481672485185308
 30
0.0
  0
LINE
  5
2C8
330
1F
100
AcDbEntity
  8
0
  6
CONTINUOUS
 62
     7
100
AcDbLine
 10
7.1068036067
 20
6.4819863598
 30
0.0
 11
7.1735695016
 21
6.5205294905
 31
0.0
  0
POLYLINE
  5
2C9
330
1F
100
AcDbEntity
  8
0
  6
CONTINUOUS
 62
     7
100
AcDb2dPolyline
 66
     1
 10
0.0
 20
0.0
 30
0.0
  0
VERTEX
  5
356
330
2C9
100
AcDbEntity
  8
0
  6
CONTINUOUS
 62
     7
100
AcDbVertex
100
AcDb2dVertex
 10
8.5634674662
 20
6.0007857472
 30
0.0
  0
VERTEX
  5
357
330
2C9
100
AcDbEntity
  8
0
  6
CONTINUOUS
 62
     7
100
AcDbVertex
100
AcDb2dVertex
 10
8.5650811224
 20
5.9674877211
 30
0.0
  0
VERTEX
  5
358
330
2C9
100
AcDbEntity
  8
0
  6
CONTINUOUS
 62
     7
100
AcDbVertex
100
AcDb2dVertex
 10
8.5683552045
 20
5.9353066869
 30
0.0
  0
VERTEX
  5
359
330
2C9
100
AcDbEntity
  8
0
  6
CONTINUOUS
 62
     7
100
AcDbVertex
100
AcDb2dVertex
 10
8.5732793997
 20
5.9043440107
 30
0.0
  0
VERTEX
  5
35A
330
2C9
100
AcDbEntity
  8
0
  6
CONTINUOUS
 62
     7
100
AcDbVertex
100
AcDb2dVertex
 10
8.5798381972
 20
5.874697221
 30
0.0
  0
VERTEX
  5
35B
330
2C9
100
AcDbEntity
  8
0
  6
CONTINUOUS
 62
     7
100
AcDbVertex
100
AcDb2dVertex
 10
8.5880109378
 20
5.846459701
 30
0.0
  0
VERTEX
  5
35C
330
2C9
100
AcDbEntity
  8
0
  6
CONTINUOUS
 62
     7
100
AcDbVertex
100
AcDb2dVertex
 10
8.5977718784
 20
5.8197203955
 30
0.0
  0
VERTEX
  5
35D
330
2C9
100
AcDbEntity
  8
0
  6
CONTINUOUS
 62
     7
100
AcDbVertex
100
AcDb2dVertex
 10
8.6090902733
 20
5.7945635296
 30
0.0
  0
VERTEX
  5
35E
330
2C9
100
AcDbEntity
  8
0
  6
CONTINUOUS
 62
     7
100
AcDbVertex
100
AcDb2dVertex
 10
8.6219304711
 20
5.7710683442
 30
0.0
  0
VERTEX
  5
35F
330
2C9
100
AcDbEntity
  8
0
  6
CONTINUOUS
 62
     7
100
AcDbVertex
100
AcDb2dVertex
 10
8.6362520269
 20
5.749308846
 30
0.0
  0
VERTEX
  5
360
330
2C9
100
AcDbEntity
  8
0
  6
CONTINUOUS
 62
     7
100
AcDbVertex
100
AcDb2dVertex
 10
8.6520098295
 20
5.7293535746
 30
0.0
  0
VERTEX
  5
361
330
2C9
100
AcDbEntity
  8
0
  6
CONTINUOUS
 62
     7
100
AcDbVertex
100
AcDb2dVertex
 10
8.6691542441
 20
5.7112653865
 30
0.0
  0
VERTEX
  5
362
330
2C9
100
AcDbEntity
  8
0
  6
CONTINUOUS
 62
     7
100
AcDbVertex
100
AcDb2dVertex
 10
8.6876312678
 20
5.6951012572
 30
0.0
  0
VERTEX
  5
363
330
2C9
100
AcDbEntity
  8
0
  6
CONTINUOUS
 62
     7
100
AcDbVertex
100
AcDb2dVertex
 10
8.7073827007
 20
5.6809121013
 30
0.0
  0
VERTEX
  5
364
330
2C9
100
AcDbEntity
  8
0
  6
CONTINUOUS
 62
     7
100
AcDbVertex
100
AcDb2dVertex
 10
8.7283463281
 20
5.6687426131
 30
0.0
  0
VERTEX
  5
365
330
2C9
100
AcDbEntity
  8
0
  6
CONTINUOUS
 62
     7
100
AcDbVertex
100
AcDb2dVertex
 10
8.7504561175
 20
5.6586311247
 30
0.0
  0
VERTEX
  5
366
330
2C9
100
AcDbEntity
  8
0
  6
CONTINUOUS
 62
     7
100
AcDbVertex
100
AcDb2dVertex
 10
8.7736424259
 20
5.6506094861
 30
0.0
  0
VERTEX
  5
367
330
2C9
100
AcDbEntity
  8
0
  6
CONTINUOUS
 62
     7
100
AcDbVertex
100
AcDb2dVertex
 10
8.7978322196
 20
5.6447029642
 30
0.0
  0
VERTEX
  5
368
330
2C9
100
AcDbEntity
  8
0
  6
CONTINUOUS
 62
     7
100
AcDbVertex
100
AcDb2dVertex
 10
8.8229493037
 20
5.640930164
 30
0.0
  0
VERTEX
  5
369
330
2C9
100
AcDbEntity
  8
0
  6
CONTINUOUS
 62
     7
100
AcDbVertex
100
AcDb2dVertex
 10
8.8489145628
 20
5.6393029691
 30
0.0
  0
VERTEX
  5
36A
330
2C9
100
AcDbEntity
  8
0
  6
CONTINUOUS
 62
     7
100
AcDbVertex
100
AcDb2dVertex
 10
8.8756462097
 20
5.6398265052
 30
0.0
  0
VERTEX
  5
36B
330
2C9
100
AcDbEntity
  8
0
  6
CONTINUOUS
 62
     7
100
AcDbVertex
100
AcDb2dVertex
 10
8.9030600433
 20
5.642499123
 30
0.0
  0
VERTEX
  5
36C
330
2C9
100
AcDbEntity
  8
0
  6
CONTINUOUS
 62
     7
100
AcDbVertex
100
AcDb2dVertex
 10
8.9310697136
 20
5.6473124043
 30
0.0
  0
VERTEX
  5
36D
330
2C9
100
AcDbEntity
  8
0
  6
CONTINUOUS
 62
     7
100
AcDbVertex
100
AcDb2dVertex
 10
8.9595869938
 20
5.6542511877
 30
0.0
  0
VERTEX
  5
36E
330
2C9
100
AcDbEntity
  8
0
  6
CONTINUOUS
 62
     7
100
AcDbVertex
100
AcDb2dVertex
 10
8.9885220582
 20
5.6632936171
 30
0.0
  0
VERTEX
  5
36F
330
2C9
100
AcDbEntity
  8
0
  6
CONTINUOUS
 62
     7
100
AcDbVertex
100
AcDb2dVertex
 10
9.0177837651
 20
5.67441121
 30
0.0
  0
VERTEX
  5
370
330
2C9
100
AcDbEntity
  8
0
  6
CONTINUOUS
 62
     7
100
AcDbVertex
100
AcDb2dVertex
 10
9.0472799441
 20
5.6875689474
 30
0.0
  0
VERTEX
  5
371
330
2C9
100
AcDbEntity
  8
0
  6
CONTINUOUS
 62
     7
100
AcDbVertex
100
AcDb2dVertex
 10
9.0769176859
 20
5.7027253841
 30
0.0
  0
VERTEX
  5
372
330
2C9
100
AcDbEntity
  8
0
  6
CONTINUOUS
 62
     7
100
AcDbVertex
100
AcDb2dVertex
 10
9.1066036357
 20
5.7198327795
 30
0.0
  0
VERTEX
  5
373
330
2C9
100
AcDbEntity
  8
0
  6
CONTINUOUS
 62
     7
100
AcDbVertex
100
AcDb2dVertex
 10
9.1362442866
 20
5.7388372474
 30
0.0
  0
VERTEX
  5
374
330
2C9
100
AcDbEntity
  8
0
  6
CONTINUOUS
 62
     7
100
AcDbVertex
100
AcDb2dVertex
 10
9.1657462744
 20
5.7596789262
 30
0.0
  0
VERTEX
  5
375
330
2C9
100
AcDbEntity
  8
0
  6
CONTINUOUS
 62
     7
100
AcDbVertex
100
AcDb2dVertex
 10
9.1950166718
 20
5.7822921675
 30
0.0
  0
VERTEX
  5
376
330
2C9
100
AcDbEntity
  8
0
  6
CONTINUOUS
 62
     7
100
AcDbVertex
100
AcDb2dVertex
 10
9.2239632807
 20
5.8066057424
 30
0.0
  0
VERTEX
  5
377
330
2C9
100
AcDbEntity
  8
0
  6
CONTINUOUS
 62
     7
100
AcDbVertex
100
AcDb2dVertex
 10
9.2524949233
 20
5.8325430664
 30
0.0
  0
VERTEX
  5
378
330
2C9
100
AcDbEntity
  8
0
  6
CONTINUOUS
 62
     7
100
AcDbVertex
100
AcDb2dVertex
 10
9.2805217285
 20
5.8600224403
 30
0.0
  0
VERTEX
  5
379
330
2C9
100
AcDbEntity
  8
0
  6
CONTINUOUS
 62
     7
100
AcDbVertex
100
AcDb2dVertex
 10
9.3079554157
 20
5.8889573078
 30
0.0
  0
VERTEX
  5
37A
330
2C9
100
AcDbEntity
  8
0
  6
CONTINUOUS
 62
     7
100
AcDbVertex
100
AcDb2dVertex
 10
9.3347095723
 20
5.9192565277
 30
0.0
  0
VERTEX
  5
37B
330
2C9
100
AcDbEntity
  8
0
  6
CONTINUOUS
 62
     7
100
AcDbVertex
100
AcDb2dVertex
 10
9.3606999262
 20
5.9508246615
 30
0.0
  0
VERTEX
  5
37C
330
2C9
100
AcDbEntity
  8
0
  6
CONTINUOUS
 62
     7
100
AcDbVertex
100
AcDb2dVertex
 10
9.3858446112
 20
5.9835622738
 30
0.0
  0
VERTEX
  5
37D
330
2C9
100
AcDbEntity
  8
0
  6
CONTINUOUS
 62
     7
100
AcDbVertex
100
AcDb2dVertex
 10
9.4100644249
 20
6.0173662453
 30
0.0
  0
VERTEX
  5
37E
330
2C9
100
AcDbEntity
  8
0
  6
CONTINUOUS
 62
     7
100
AcDbVertex
100
AcDb2dVertex
 10
9.433283078
 20
6.052130098
 30
0.0
  0
VERTEX
  5
37F
330
2C9
100
AcDbEntity
  8
0
  6
CONTINUOUS
 62
     7
100
AcDbVertex
100
AcDb2dVertex
 10
9.4554274348
 20
6.0877443303
 30
0.0
  0
VERTEX
  5
380
330
2C9
100
AcDbEntity
  8
0
  6
CONTINUOUS
 62
     7
100
AcDbVertex
100
AcDb2dVertex
 10
9.4764277435
 20
6.124096762
 30
0.0
  0
VERTEX
  5
381
330
2C9
100
AcDbEntity
  8
0
  6
CONTINUOUS
 62
     7
100
AcDbVertex
100
AcDb2dVertex
 10
9.496217856
 20
6.1610728878
 30
0.0
  0
VERTEX
  5
382
330
2C9
100
AcDbEntity
  8
0
  6
CONTINUOUS
 62
     7
100
AcDbVertex
100
AcDb2dVertex
 10
9.5147354358
 20
6.1985562378
 30
0.0
  0
VERTEX
  5
383
330
2C9
100
AcDbEntity
  8
0
  6
CONTINUOUS
 62
     7
100
AcDbVertex
100
AcDb2dVertex
 10
9.5319221551
 20
6.2364287442
 30
0.0
  0
VERTEX
  5
384
330
2C9
100
AcDbEntity
  8
0
  6
CONTINUOUS
 62
     7
100
AcDbVertex
100
AcDb2dVertex
 10
9.5477238781
 20
6.2745711136
 30
0.0
  0
VERTEX
  5
385
330
2C9
100
AcDbEntity
  8
0
  6
CONTINUOUS
 62
     7
100
AcDbVertex
100
AcDb2dVertex
 10
9.5620908312
 20
6.3128632027
 30
0.0
  0
VERTEX
  5
386
330
2C9
100
AcDbEntity
  8
0
  6
CONTINUOUS
 62
     7
100
AcDbVertex
100
AcDb2dVertex
 10
9.5749777605
 20
6.3511843963
 30
0.0
  0
VERTEX
  5
387
330
2C9
100
AcDbEntity
  8
0
  6
CONTINUOUS
 62
     7
100
AcDbVertex
100
AcDb2dVertex
 10
9.5863440739
 20
6.3894139877
 30
0.0
  0
VERTEX
  5
388
330
2C9
100
AcDbEntity
  8
0
  6
CONTINUOUS
 62
     7
100
AcDbVertex
100
AcDb2dVertex
 10
9.596153969
 20
6.4274315588
 30
0.0
  0
VERTEX
  5
389
330
2C9
100
AcDbEntity
  8
0
  6
CONTINUOUS
 62
     7
100
AcDbVertex
100
AcDb2dVertex
 10
9.6043765459
 20
6.4651173591
 30
0.0
  0
VERTEX
  5
38A
330
2C9
100
AcDbEntity
  8
0
  6
CONTINUOUS
 62
     7
100
AcDbVertex
100
AcDb2dVertex
 10
9.6109859045
 20
6.5023526834
 30
0.0
  0
VERTEX
  5
38B
330
2C9
100
AcDbEntity
  8
0
  6
CONTINUOUS
 62
     7
100
AcDbVertex
100
AcDb2dVertex
 10
9.6159612263
 20
6.5390202452
 30
0.0
  0
VERTEX
  5
38C
330
2C9
100
AcDbEntity
  8
0
  6
CONTINUOUS
 62
     7
100
AcDbVertex
100
AcDb2dVertex
 10
9.6192868396
 20
6.5750045466
 30
0.0
  0
VERTEX
  5
38D
330
2C9
100
AcDbEntity
  8
0
  6
CONTINUOUS
 62
     7
100
AcDbVertex
100
AcDb2dVertex
 10
9.6209522692
 20
6.6101922417
 30
0.0
  0
VERTEX
  5
38E
330
2C9
100
AcDbEntity
  8
0
  6
CONTINUOUS
 62
     7
100
AcDbVertex
100
AcDb2dVertex
 10
9.6209522692
 20
6.6444724939
 30
0.0
  0
VERTEX
  5
38F
330
2C9
100
AcDbEntity
  8
0
  6
CONTINUOUS
 62
     7
100
AcDbVertex
100
AcDb2dVertex
 10
9.6192868396
 20
6.6777373249
 30
0.0
  0
VERTEX
  5
390
330
2C9
100
AcDbEntity
  8
0
  6
CONTINUOUS
 62
     7
100
AcDbVertex
100
AcDb2dVertex
 10
9.6159612263
 20
6.7098819549
 30
0.0
  0
VERTEX
  5
391
330
2C9
100
AcDbEntity
  8
0
  6
CONTINUOUS
 62
     7
100
AcDbVertex
100
AcDb2dVertex
 10
9.6109859045
 20
6.7408051325
 30
0.0
  0
VERTEX
  5
392
330
2C9
100
AcDbEntity
  8
0
  6
CONTINUOUS
 62
     7
100
AcDbVertex
100
AcDb2dVertex
 10
9.6043765459
 20
6.7704094537
 30
0.0
  0
VERTEX
  5
393
330
2C9
100
AcDbEntity
  8
0
  6
CONTINUOUS
 62
     7
100
AcDbVertex
100
AcDb2dVertex
 10
9.596153969
 20
6.7986016688
 30
0.0
  0
VERTEX
  5
394
330
2C9
100
AcDbEntity
  8
0
  6
CONTINUOUS
 62
     7
100
AcDbVertex
100
AcDb2dVertex
 10
9.5863440739
 20
6.8252929761
 30
0.0
  0
VERTEX
  5
395
330
2C9
100
AcDbEntity
  8
0
  6
CONTINUOUS
 62
     7
100
AcDbVertex
100
AcDb2dVertex
 10
9.5749777605
 20
6.8503993014
 30
0.0
  0
VERTEX
  5
396
330
2C9
100
AcDbEntity
  8
0
  6
CONTINUOUS
 62
     7
100
AcDbVertex
100
AcDb2dVertex
 10
9.5620908312
 20
6.8738415631
 30
0.0
  0
VERTEX
  5
397
330
2C9
100
AcDbEntity
  8
0
  6
CONTINUOUS
 62
     7
100
AcDbVertex
100
AcDb2dVertex
 10
9.5477238781
 20
6.8955459211
 30
0.0
  0
VERTEX
  5
398
330
2C9
100
AcDbEntity
  8
0
  6
CONTINUOUS
 62
     7
100
AcDbVertex
100
AcDb2dVertex
 10
9.5319221551
 20
6.9154440097
 30
0.0
  0
VERTEX
  5
399
330
2C9
100
AcDbEntity
  8
0
  6
CONTINUOUS
 62
     7
100
AcDbVertex
100
AcDb2dVertex
 10
9.5147354358
 20
6.9334731523
 30
0.0
  0
VERTEX
  5
39A
330
2C9
100
AcDbEntity
  8
0
  6
CONTINUOUS
 62
     7
100
AcDbVertex
100
AcDb2dVertex
 10
9.496217856
 20
6.9495765596
 30
0.0
  0
VERTEX
  5
39B
330
2C9
100
AcDbEntity
  8
0
  6
CONTINUOUS
 62
     7
100
AcDbVertex
100
AcDb2dVertex
 10
9.4764277435
 20
6.963703508
 30
0.0
  0
VERTEX
  5
39C
330
2C9
100
AcDbEntity
  8
0
  6
CONTINUOUS
 62
     7
100
AcDbVertex
100
AcDb2dVertex
 10
9.4554274348
 20
6.9758094993
 30
0.0
  0
VERTEX
  5
39D
330
2C9
100
AcDbEntity
  8
0
  6
CONTINUOUS
 62
     7
100
AcDbVertex
100
AcDb2dVertex
 10
9.433283078
 20
6.9858564014
 30
0.0
  0
VERTEX
  5
39E
330
2C9
100
AcDbEntity
  8
0
  6
CONTINUOUS
 62
     7
100
AcDbVertex
100
AcDb2dVertex
 10
9.4100644249
 20
6.9938125679
 30
0.0
  0
VERTEX
  5
39F
330
2C9
100
AcDbEntity
  8
0
  6
CONTINUOUS
 62
     7
100
AcDbVertex
100
AcDb2dVertex
 10
9.3858446112
 20
6.9996529377
 30
0.0
  0
VERTEX
  5
3A0
330
2C9
100
AcDbEntity
  8
0
  6
CONTINUOUS
 62
     7
100
AcDbVertex
100
AcDb2dVertex
 10
9.3606999262
 20
7.0033591146
 30
0.0
  0
VERTEX
  5
3A1
330
2C9
100
AcDbEntity
  8
0
  6
CONTINUOUS
 62
     7
100
AcDbVertex
100
AcDb2dVertex
 10
9.3347095723
 20
7.0049194246
 30
0.0
  0
VERTEX
  5
3A2
330
2C9
100
AcDbEntity
  8
0
  6
CONTINUOUS
 62
     7
100
AcDbVertex
100
AcDb2dVertex
 10
9.3079554157
 20
7.0043289528
 30
0.0
  0
VERTEX
  5
3A3
330
2C9
100
AcDbEntity
  8
0
  6
CONTINUOUS
 62
     7
100
AcDbVertex
100
AcDb2dVertex
 10
9.2805217285
 20
7.0015895593
 30
0.0
  0
VERTEX
  5
3A4
330
2C9
100
AcDbEntity
  8
0
  6
CONTINUOUS
 62
     7
100
AcDbVertex
100
AcDb2dVertex
 10
9.2524949233
 20
6.9967098727
 30
0.0
  0
VERTEX
  5
3A5
330
2C9
100
AcDbEntity
  8
0
  6
CONTINUOUS
 62
     7
100
AcDbVertex
100
AcDb2dVertex
 10
9.2239632807
 20
6.9897052634
 30
0.0
  0
VERTEX
  5
3A6
330
2C9
100
AcDbEntity
  8
0
  6
CONTINUOUS
 62
     7
100
AcDbVertex
100
AcDb2dVertex
 10
9.1950166718
 20
6.980597795
 30
0.0
  0
VERTEX
  5
3A7
330
2C9
100
AcDbEntity
  8
0
  6
CONTINUOUS
 62
     7
100
AcDbVertex
100
AcDb2dVertex
 10
9.1657462744
 20
6.9694161548
 30
0.0
  0
VERTEX
  5
3A8
330
2C9
100
AcDbEntity
  8
0
  6
CONTINUOUS
 62
     7
100
AcDbVertex
100
AcDb2dVertex
 10
9.1362442866
 20
6.9561955636
 30
0.0
  0
VERTEX
  5
3A9
330
2C9
100
AcDbEntity
  8
0
  6
CONTINUOUS
 62
     7
100
AcDbVertex
100
AcDb2dVertex
 10
9.1066036357
 20
6.9409776644
 30
0.0
  0
VERTEX
  5
3AA
330
2C9
100
AcDbEntity
  8
0
  6
CONTINUOUS
 62
     7
100
AcDbVertex
100
AcDb2dVertex
 10
9.0769176859
 20
6.9238103917
 30
0.0
  0
VERTEX
  5
3AB
330
2C9
100
AcDbEntity
  8
0
  6
CONTINUOUS
 62
     7
100
AcDbVertex
100
AcDb2dVertex
 10
9.0472799441
 20
6.90474782
 30
0.0
  0
VERTEX
  5
3AC
330
2C9
100
AcDbEntity
  8
0
  6
CONTINUOUS
 62
     7
100
AcDbVertex
100
AcDb2dVertex
 10
9.0177837651
 20
6.8838499941
 30
0.0
  0
VERTEX
  5
3AD
330
2C9
100
AcDbEntity
  8
0
  6
CONTINUOUS
 62
     7
100
AcDbVertex
100
AcDb2dVertex
 10
8.9885220582
 20
6.8611827393
 30
0.0
  0
VERTEX
  5
3AE
330
2C9
100
AcDbEntity
  8
0
  6
CONTINUOUS
 62
     7
100
AcDbVertex
100
AcDb2dVertex
 10
8.9595869938
 20
6.8368174544
 30
0.0
  0
VERTEX
  5
3AF
330
2C9
100
AcDbEntity
  8
0
  6
CONTINUOUS
 62
     7
100
AcDbVertex
100
AcDb2dVertex
 10
8.9310697136
 20
6.810830887
 30
0.0
  0
VERTEX
  5
3B0
330
2C9
100
AcDbEntity
  8
0
  6
CONTINUOUS
 62
     7
100
AcDbVertex
100
AcDb2dVertex
 10
8.9030600433
 20
6.7833048913
 30
0.0
  0
VERTEX
  5
3B1
330
2C9
100
AcDbEntity
  8
0
  6
CONTINUOUS
 62
     7
100
AcDbVertex
100
AcDb2dVertex
 10
8.8756462097
 20
6.7543261706
 30
0.0
  0
VERTEX
  5
3B2
330
2C9
100
AcDbEntity
  8
0
  6
CONTINUOUS
 62
     7
100
AcDbVertex
100
AcDb2dVertex
 10
8.8489145628
 20
6.723986004
 30
0.0
  0
VERTEX
  5
3B3
330
2C9
100
AcDbEntity
  8
0
  6
CONTINUOUS
 62
     7
100
AcDbVertex
100
AcDb2dVertex
 10
8.8229493037
 20
6.6923799591
 30
0.0
  0
VERTEX
  5
3B4
330
2C9
100
AcDbEntity
  8
0
  6
CONTINUOUS
 62
     7
100
AcDbVertex
100
AcDb2dVertex
 10
8.7978322196
 20
6.6596075909
 30
0.0
  0
VERTEX
  5
3B5
330
2C9
100
AcDbEntity
  8
0
  6
CONTINUOUS
 62
     7
100
AcDbVertex
100
AcDb2dVertex
 10
8.7736424259
 20
6.6257721278
 30
0.0
  0
VERTEX
  5
3B6
330
2C9
100
AcDbEntity
  8
0
  6
CONTINUOUS
 62
     7
100
AcDbVertex
100
AcDb2dVertex
 10
8.7504561175
 20
6.5909801473
 30
0.0
  0
VERTEX
  5
3B7
330
2C9
100
AcDbEntity
  8
0
  6
CONTINUOUS
 62
     7
100
AcDbVertex
100
AcDb2dVertex
 10
8.7283463281
 20
6.5553412394
 30
0.0
  0
VERTEX
  5
3B8
330
2C9
100
AcDbEntity
  8
0
  6
CONTINUOUS
 62
     7
100
AcDbVertex
100
AcDb2dVertex
 10
8.7073827007
 20
6.5189676621
 30
0.0
  0
VERTEX
  5
3B9
330
2C9
100
AcDbEntity
  8
0
  6
CONTINUOUS
 62
     7
100
AcDbVertex
100
AcDb2dVertex
 10
8.6876312678
 20
6.4819739874
 30
0.0
  0
VERTEX
  5
3BA
330
2C9
100
AcDbEntity
  8
0
  6
CONTINUOUS
 62
     7
100
AcDbVertex
100
AcDb2dVertex
 10
8.6691542441
 20
6.4444767404
 30
0.0
  0
VERTEX
  5
3BB
330
2C9
100
AcDbEntity
  8
0
  6
CONTINUOUS
 62
     7
100
AcDbVertex
100
AcDb2dVertex
 10
8.6520098295
 20
6.4065940326
 30
0.0
  0
VERTEX
  5
3BC
330
2C9
100
AcDbEntity
  8
0
  6
CONTINUOUS
 62
     7
100
AcDbVertex
100
AcDb2dVertex
 10
8.6362520269
 20
6.3684451896
 30
0.0
  0
VERTEX
  5
3BD
330
2C9
100
AcDbEntity
  8
0
  6
CONTINUOUS
 62
     7
100
AcDbVertex
100
AcDb2dVertex
 10
8.6219304711
 20
6.3301503751
 30
0.0
  0
VERTEX
  5
3BE
330
2C9
100
AcDbEntity
  8
0
  6
CONTINUOUS
 62
     7
100
AcDbVertex
100
AcDb2dVertex
 10
8.6090902733
 20
6.2918302129
 30
0.0
  0
VERTEX
  5
3BF
330
2C9
100
AcDbEntity
  8
0
  6
CONTINUOUS
 62
     7
100
AcDbVertex
100
AcDb2dVertex
 10
8.5977718784
 20
6.2536054063
 30
0.0
  0
VERTEX
  5
3C0
330
2C9
100
AcDbEntity
  8
0
  6
CONTINUOUS
 62
     7
100
AcDbVertex
100
AcDb2dVertex
 10
8.5880109378
 20
6.2155963586
 30
0.0
  0
VERTEX
  5
3C1
330
2C9
100
AcDbEntity
  8
0
  6
CONTINUOUS
 62
     7
100
AcDbVertex
100
AcDb2dVertex
 10
8.5798381972
 20
6.1779227933
 30
0.0
  0
VERTEX
  5
3C2
330
2C9
100
AcDbEntity
  8
0
  6
CONTINUOUS
 62
     7
100
AcDbVertex
100
AcDb2dVertex
 10
8.5732793997
 20
6.140703377
 30
0.0
  0
VERTEX
  5
3C3
330
2C9
100
AcDbEntity
  8
0
  6
CONTINUOUS
 62
     7
100
AcDbVertex
100
AcDb2dVertex
 10
8.5683552045
 20
6.1040553462
 30
0.0
  0
VERTEX
  5
3C4
330
2C9
100
AcDbEntity
  8
0
  6
CONTINUOUS
 62
     7
100
AcDbVertex
100
AcDb2dVertex
 10
8.5650811224
 20
6.0680941373
 30
0.0
  0
VERTEX
  5
3C5
330
2C9
100
AcDbEntity
  8
0
  6
CONTINUOUS
 62
     7
100
AcDbVertex
100
AcDb2dVertex
 10
8.5634674662
 20
6.0329330233
 30
0.0
  0
SEQEND
  5
3C6
330
2C9
100
AcDbEntity
  8
0
  6
CONTINUOUS
 62
     7
  0
LINE
  5
2CA
330
1F
100
AcDbEntity
  8
0
  6
CONTINUOUS
 62
     7
100
AcDbLine
 10
8.5077806048
 20
6.0329277342
 30
0.0
 11
8.5634674662
 21
6.0329330233
 31
0.0
  0
POLYLINE
  5
2CB
330
1F
100
AcDbEntity
  8
0
  6
CONTINUOUS
 62
     7
100
AcDb2dPolyline
 66
     1
 10
0.0
 20
0.0
 30
0.0
  0
VERTEX
  5
3C7
330
2CB
100
AcDbEntity
  8
0
  6
CONTINUOUS
 62
     7
100
AcDbVertex
100
AcDb2dVertex
 10
8.5077806048
 20
6.0329277342
 30
0.0
  0
VERTEX
  5
3C8
330
2CB
100
AcDbEntity
  8
0
  6
CONTINUOUS
 62
     7
100
AcDbVertex
100
AcDb2dVertex
 10
8.5093730946
 20
6.0689488869
 30
0.0
  0
VERTEX
  5
3C9
330
2CB
100
AcDbEntity
  8
0
  6
CONTINUOUS
 62
     7
100
AcDbVertex
100
AcDb2dVertex
 10
8.5126244173
 20
6.1057747086
 30
0.0
  0
VERTEX
  5
3CA
330
2CB
100
AcDbEntity
  8
0
  6
CONTINUOUS
 62
     7
100
AcDbVertex
100
AcDb2dVertex
 10
8.5175248551
 20
6.1432951331
 30
0.0
  0
VERTEX
  5
3CB
330
2CB
100
AcDbEntity
  8
0
  6
CONTINUOUS
 62
     7
100
AcDbVertex
100
AcDb2dVertex
 10
8.5240597617
 20
6.1813980182
 30
0.0
  0
VERTEX
  5
3CC
330
2CB
100
AcDbEntity
  8
0
  6
CONTINUOUS
 62
     7
100
AcDbVertex
100
AcDb2dVertex
 10
8.5322096051
 20
6.2199694807
 30
0.0
  0
VERTEX
  5
3CD
330
2CB
100
AcDbEntity
  8
0
  6
CONTINUOUS
 62
     7
100
AcDbVertex
100
AcDb2dVertex
 10
8.5419500269
 20
6.2588942371
 30
0.0
  0
VERTEX
  5
3CE
330
2CB
100
AcDbEntity
  8
0
  6
CONTINUOUS
 62
     7
100
AcDbVertex
100
AcDb2dVertex
 10
8.5532519146
 20
6.2980559479
 30
0.0
  0
VERTEX
  5
3CF
330
2CB
100
AcDbEntity
  8
0
  6
CONTINUOUS
 62
     7
100
AcDbVertex
100
AcDb2dVertex
 10
8.5660814889
 20
6.3373375652
 30
0.0
  0
VERTEX
  5
3D0
330
2CB
100
AcDbEntity
  8
0
  6
CONTINUOUS
 62
     7
100
AcDbVertex
100
AcDb2dVertex
 10
8.5804004041
 20
6.3766216829
 30
0.0
  0
VERTEX
  5
3D1
330
2CB
100
AcDbEntity
  8
0
  6
CONTINUOUS
 62
     7
100
AcDbVertex
100
AcDb2dVertex
 10
8.5961658636
 20
6.4157908874
 30
0.0
  0
VERTEX
  5
3D2
330
2CB
100
AcDbEntity
  8
0
  6
CONTINUOUS
 62
     7
100
AcDbVertex
100
AcDb2dVertex
 10
8.6133307469
 20
6.4547281086
 30
0.0
  0
VERTEX
  5
3D3
330
2CB
100
AcDbEntity
  8
0
  6
CONTINUOUS
 62
     7
100
AcDbVertex
100
AcDb2dVertex
 10
8.6318437513
 20
6.4933169696
 30
0.0
  0
VERTEX
  5
3D4
330
2CB
100
AcDbEntity
  8
0
  6
CONTINUOUS
 62
     7
100
AcDbVertex
100
AcDb2dVertex
 10
8.6516495443
 20
6.5314421348
 30
0.0
  0
VERTEX
  5
3D5
330
2CB
100
AcDbEntity
  8
0
  6
CONTINUOUS
 62
     7
100
AcDbVertex
100
AcDb2dVertex
 10
8.6726889299
 20
6.5689896547
 30
0.0
  0
VERTEX
  5
3D6
330
2CB
100
AcDbEntity
  8
0
  6
CONTINUOUS
 62
     7
100
AcDbVertex
100
AcDb2dVertex
 10
8.6948990248
 20
6.6058473058
 30
0.0
  0
VERTEX
  5
3D7
330
2CB
100
AcDbEntity
  8
0
  6
CONTINUOUS
 62
     7
100
AcDbVertex
100
AcDb2dVertex
 10
8.7182134469
 20
6.641904927
 30
0.0
  0
VERTEX
  5
3D8
330
2CB
100
AcDbEntity
  8
0
  6
CONTINUOUS
 62
     7
100
AcDbVertex
100
AcDb2dVertex
 10
8.7425625131
 20
6.677054748
 30
0.0
  0
VERTEX
  5
3D9
330
2CB
100
AcDbEntity
  8
0
  6
CONTINUOUS
 62
     7
100
AcDbVertex
100
AcDb2dVertex
 10
8.7678734484
 20
6.711191712
 30
0.0
  0
VERTEX
  5
3DA
330
2CB
100
AcDbEntity
  8
0
  6
CONTINUOUS
 62
     7
100
AcDbVertex
100
AcDb2dVertex
 10
8.7940706025
 20
6.7442137893
 30
0.0
  0
VERTEX
  5
3DB
330
2CB
100
AcDbEntity
  8
0
  6
CONTINUOUS
 62
     7
100
AcDbVertex
100
AcDb2dVertex
 10
8.8210756765
 20
6.7760222825
 30
0.0
  0
VERTEX
  5
3DC
330
2CB
100
AcDbEntity
  8
0
  6
CONTINUOUS
 62
     7
100
AcDbVertex
100
AcDb2dVertex
 10
8.8488079569
 20
6.8065221214
 30
0.0
  0
VERTEX
  5
3DD
330
2CB
100
AcDbEntity
  8
0
  6
CONTINUOUS
 62
     7
100
AcDbVertex
100
AcDb2dVertex
 10
8.8771845566
 20
6.835622147
 30
0.0
  0
VERTEX
  5
3DE
330
2CB
100
AcDbEntity
  8
0
  6
CONTINUOUS
 62
     7
100
AcDbVertex
100
AcDb2dVertex
 10
8.9061206626
 20
6.8632353844
 30
0.0
  0
VERTEX
  5
3DF
330
2CB
100
AcDbEntity
  8
0
  6
CONTINUOUS
 62
     7
100
AcDbVertex
100
AcDb2dVertex
 10
8.9355297898
 20
6.8892793021
 30
0.0
  0
VERTEX
  5
3E0
330
2CB
100
AcDbEntity
  8
0
  6
CONTINUOUS
 62
     7
100
AcDbVertex
100
AcDb2dVertex
 10
8.9653240392
 20
6.9136760594
 30
0.0
  0
VERTEX
  5
3E1
330
2CB
100
AcDbEntity
  8
0
  6
CONTINUOUS
 62
     7
100
AcDbVertex
100
AcDb2dVertex
 10
8.995414361
 20
6.9363527384
 30
0.0
  0
VERTEX
  5
3E2
330
2CB
100
AcDbEntity
  8
0
  6
CONTINUOUS
 62
     7
100
AcDbVertex
100
AcDb2dVertex
 10
9.0257108201
 20
6.9572415622
 30
0.0
  0
VERTEX
  5
3E3
330
2CB
100
AcDbEntity
  8
0
  6
CONTINUOUS
 62
     7
100
AcDbVertex
100
AcDb2dVertex
 10
9.0561228656
 20
6.9762800979
 30
0.0
  0
VERTEX
  5
3E4
330
2CB
100
AcDbEntity
  8
0
  6
CONTINUOUS
 62
     7
100
AcDbVertex
100
AcDb2dVertex
 10
9.086559601
 20
6.9934114423
 30
0.0
  0
VERTEX
  5
3E5
330
2CB
100
AcDbEntity
  8
0
  6
CONTINUOUS
 62
     7
100
AcDbVertex
100
AcDb2dVertex
 10
9.116930056
 20
7.0085843928
 30
0.0
  0
VERTEX
  5
3E6
330
2CB
100
AcDbEntity
  8
0
  6
CONTINUOUS
 62
     7
100
AcDbVertex
100
AcDb2dVertex
 10
9.1471434584
 20
7.0217536
 30
0.0
  0
VERTEX
  5
3E7
330
2CB
100
AcDbEntity
  8
0
  6
CONTINUOUS
 62
     7
100
AcDbVertex
100
AcDb2dVertex
 10
9.1771095054
 20
7.0328797033
 30
0.0
  0
VERTEX
  5
3E8
330
2CB
100
AcDbEntity
  8
0
  6
CONTINUOUS
 62
     7
100
AcDbVertex
100
AcDb2dVertex
 10
9.2067386337
 20
7.0419294487
 30
0.0
  0
VERTEX
  5
3E9
330
2CB
100
AcDbEntity
  8
0
  6
CONTINUOUS
 62
     7
100
AcDbVertex
100
AcDb2dVertex
 10
9.2359422866
 20
7.048875788
 30
0.0
  0
VERTEX
  5
3EA
330
2CB
100
AcDbEntity
  8
0
  6
CONTINUOUS
 62
     7
100
AcDbVertex
100
AcDb2dVertex
 10
9.2646331795
 20
7.0536979598
 30
0.0
  0
VERTEX
  5
3EB
330
2CB
100
AcDbEntity
  8
0
  6
CONTINUOUS
 62
     7
100
AcDbVertex
100
AcDb2dVertex
 10
9.29272556
 20
7.0563815515
 30
0.0
  0
VERTEX
  5
3EC
330
2CB
100
AcDbEntity
  8
0
  6
CONTINUOUS
 62
     7
100
AcDbVertex
100
AcDb2dVertex
 10
9.3201354647
 20
7.0569185421
 30
0.0
  0
VERTEX
  5
3ED
330
2CB
100
AcDbEntity
  8
0
  6
CONTINUOUS
 62
     7
100
AcDbVertex
100
AcDb2dVertex
 10
9.3467809702
 20
7.0553073268
 30
0.0
  0
VERTEX
  5
3EE
330
2CB
100
AcDbEntity
  8
0
  6
CONTINUOUS
 62
     7
100
AcDbVertex
100
AcDb2dVertex
 10
9.3725824374
 20
7.0515527212
 30
0.0
  0
VERTEX
  5
3EF
330
2CB
100
AcDbEntity
  8
0
  6
CONTINUOUS
 62
     7
100
AcDbVertex
100
AcDb2dVertex
 10
9.3974627501
 20
7.0456659471
 30
0.0
  0
VERTEX
  5
3F0
330
2CB
100
AcDbEntity
  8
0
  6
CONTINUOUS
 62
     7
100
AcDbVertex
100
AcDb2dVertex
 10
9.4213475452
 20
7.0376645993
 30
0.0
  0
VERTEX
  5
3F1
330
2CB
100
AcDbEntity
  8
0
  6
CONTINUOUS
 62
     7
100
AcDbVertex
100
AcDb2dVertex
 10
9.4441654352
 20
7.0275725922
 30
0.0
  0
VERTEX
  5
3F2
330
2CB
100
AcDbEntity
  8
0
  6
CONTINUOUS
 62
     7
100
AcDbVertex
100
AcDb2dVertex
 10
9.4658482211
 20
7.0154200893
 30
0.0
  0
VERTEX
  5
3F3
330
2CB
100
AcDbEntity
  8
0
  6
CONTINUOUS
 62
     7
100
AcDbVertex
100
AcDb2dVertex
 10
9.4863310968
 20
7.0012434124
 30
0.0
  0
VERTEX
  5
3F4
330
2CB
100
AcDbEntity
  8
0
  6
CONTINUOUS
 62
     7
100
AcDbVertex
100
AcDb2dVertex
 10
9.5055528424
 20
6.985084933
 30
0.0
  0
VERTEX
  5
3F5
330
2CB
100
AcDbEntity
  8
0
  6
CONTINUOUS
 62
     7
100
AcDbVertex
100
AcDb2dVertex
 10
9.5234560074
 20
6.9669929463
 30
0.0
  0
VERTEX
  5
3F6
330
2CB
100
AcDbEntity
  8
0
  6
CONTINUOUS
 62
     7
100
AcDbVertex
100
AcDb2dVertex
 10
9.5399870822
 20
6.9470215261
 30
0.0
  0
VERTEX
  5
3F7
330
2CB
100
AcDbEntity
  8
0
  6
CONTINUOUS
 62
     7
100
AcDbVertex
100
AcDb2dVertex
 10
9.5550966581
 20
6.9252303636
 30
0.0
  0
VERTEX
  5
3F8
330
2CB
100
AcDbEntity
  8
0
  6
CONTINUOUS
 62
     7
100
AcDbVertex
100
AcDb2dVertex
 10
9.5687395754
 20
6.9016845889
 30
0.0
  0
VERTEX
  5
3F9
330
2CB
100
AcDbEntity
  8
0
  6
CONTINUOUS
 62
     7
100
AcDbVertex
100
AcDb2dVertex
 10
9.5808750574
 20
6.8764545765
 30
0.0
  0
VERTEX
  5
3FA
330
2CB
100
AcDbEntity
  8
0
  6
CONTINUOUS
 62
     7
100
AcDbVertex
100
AcDb2dVertex
 10
9.5914668334
 20
6.8496157345
 30
0.0
  0
VERTEX
  5
3FB
330
2CB
100
AcDbEntity
  8
0
  6
CONTINUOUS
 62
     7
100
AcDbVertex
100
AcDb2dVertex
 10
9.6004832463
 20
6.8212482797
 30
0.0
  0
VERTEX
  5
3FC
330
2CB
100
AcDbEntity
  8
0
  6
CONTINUOUS
 62
     7
100
AcDbVertex
100
AcDb2dVertex
 10
9.6078973476
 20
6.7914369977
 30
0.0
  0
VERTEX
  5
3FD
330
2CB
100
AcDbEntity
  8
0
  6
CONTINUOUS
 62
     7
100
AcDbVertex
100
AcDb2dVertex
 10
9.6136869777
 20
6.7602709893
 30
0.0
  0
VERTEX
  5
3FE
330
2CB
100
AcDbEntity
  8
0
  6
CONTINUOUS
 62
     7
100
AcDbVertex
100
AcDb2dVertex
 10
9.6178348325
 20
6.7278434046
 30
0.0
  0
VERTEX
  5
3FF
330
2CB
100
AcDbEntity
  8
0
  6
CONTINUOUS
 62
     7
100
AcDbVertex
100
AcDb2dVertex
 10
9.6203285146
 20
6.6942511642
 30
0.0
  0
VERTEX
  5
400
330
2CB
100
AcDbEntity
  8
0
  6
CONTINUOUS
 62
     7
100
AcDbVertex
100
AcDb2dVertex
 10
9.621160571
 20
6.6595946695
 30
0.0
  0
SEQEND
  5
401
330
2CB
100
AcDbEntity
  8
0
  6
CONTINUOUS
 62
     7
  0
POLYLINE
  5
2CC
330
1F
100
AcDbEntity
  8
0
  6
CONTINUOUS
 62
     7
100
AcDb2dPolyline
 66
     1
 10
0.0
 20
0.0
 30
0.0
  0
VERTEX
  5
402
330
2CC
100
AcDbEntity
  8
0
  6
CONTINUOUS
 62
     7
100
AcDbVertex
100
AcDb2dVertex
 10
9.0644740698
 20
5.6952808802
 30
0.0
  0
VERTEX
  5
403
330
2CC
100
AcDbEntity
  8
0
  6
CONTINUOUS
 62
     7
100
AcDbVertex
100
AcDb2dVertex
 10
9.0561228656
 20
5.6905305927
 30
0.0
  0
VERTEX
  5
404
330
2CC
100
AcDbEntity
  8
0
  6
CONTINUOUS
 62
     7
100
AcDbVertex
100
AcDb2dVertex
 10
9.0257108201
 20
5.674456128
 30
0.0
  0
VERTEX
  5
405
330
2CC
100
AcDbEntity
  8
0
  6
CONTINUOUS
 62
     7
100
AcDbVertex
100
AcDb2dVertex
 10
8.995414361
 20
5.6603654048
 30
0.0
  0
VERTEX
  5
406
330
2CC
100
AcDbEntity
  8
0
  6
CONTINUOUS
 62
     7
100
AcDbVertex
100
AcDb2dVertex
 10
8.9653240392
 20
5.6483005377
 30
0.0
  0
VERTEX
  5
407
330
2CC
100
AcDbEntity
  8
0
  6
CONTINUOUS
 62
     7
100
AcDbVertex
100
AcDb2dVertex
 10
8.9355297898
 20
5.6382975868
 30
0.0
  0
VERTEX
  5
408
330
2CC
100
AcDbEntity
  8
0
  6
CONTINUOUS
 62
     7
100
AcDbVertex
100
AcDb2dVertex
 10
8.9061206626
 20
5.630386449
 30
0.0
  0
VERTEX
  5
409
330
2CC
100
AcDbEntity
  8
0
  6
CONTINUOUS
 62
     7
100
AcDbVertex
100
AcDb2dVertex
 10
8.8771845566
 20
5.6245907695
 30
0.0
  0
VERTEX
  5
40A
330
2CC
100
AcDbEntity
  8
0
  6
CONTINUOUS
 62
     7
100
AcDbVertex
100
AcDb2dVertex
 10
8.8488079569
 20
5.6209278706
 30
0.0
  0
VERTEX
  5
40B
330
2CC
100
AcDbEntity
  8
0
  6
CONTINUOUS
 62
     7
100
AcDbVertex
100
AcDb2dVertex
 10
8.8210756765
 20
5.6194087001
 30
0.0
  0
VERTEX
  5
40C
330
2CC
100
AcDbEntity
  8
0
  6
CONTINUOUS
 62
     7
100
AcDbVertex
100
AcDb2dVertex
 10
8.7940706025
 20
5.6200377984
 30
0.0
  0
VERTEX
  5
40D
330
2CC
100
AcDbEntity
  8
0
  6
CONTINUOUS
 62
     7
100
AcDbVertex
100
AcDb2dVertex
 10
8.7678734484
 20
5.6228132854
 30
0.0
  0
VERTEX
  5
40E
330
2CC
100
AcDbEntity
  8
0
  6
CONTINUOUS
 62
     7
100
AcDbVertex
100
AcDb2dVertex
 10
8.7425625131
 20
5.6277268656
 30
0.0
  0
VERTEX
  5
40F
330
2CC
100
AcDbEntity
  8
0
  6
CONTINUOUS
 62
     7
100
AcDbVertex
100
AcDb2dVertex
 10
8.7182134469
 20
5.6347638531
 30
0.0
  0
VERTEX
  5
410
330
2CC
100
AcDbEntity
  8
0
  6
CONTINUOUS
 62
     7
100
AcDbVertex
100
AcDb2dVertex
 10
8.6948990248
 20
5.6439032156
 30
0.0
  0
VERTEX
  5
411
330
2CC
100
AcDbEntity
  8
0
  6
CONTINUOUS
 62
     7
100
AcDbVertex
100
AcDb2dVertex
 10
8.6726889299
 20
5.655117637
 30
0.0
  0
VERTEX
  5
412
330
2CC
100
AcDbEntity
  8
0
  6
CONTINUOUS
 62
     7
100
AcDbVertex
100
AcDb2dVertex
 10
8.6516495443
 20
5.6683735993
 30
0.0
  0
VERTEX
  5
413
330
2CC
100
AcDbEntity
  8
0
  6
CONTINUOUS
 62
     7
100
AcDbVertex
100
AcDb2dVertex
 10
8.6318437513
 20
5.6836314826
 30
0.0
  0
VERTEX
  5
414
330
2CC
100
AcDbEntity
  8
0
  6
CONTINUOUS
 62
     7
100
AcDbVertex
100
AcDb2dVertex
 10
8.6133307469
 20
5.7008456838
 30
0.0
  0
VERTEX
  5
415
330
2CC
100
AcDbEntity
  8
0
  6
CONTINUOUS
 62
     7
100
AcDbVertex
100
AcDb2dVertex
 10
8.5961658636
 20
5.7199647525
 30
0.0
  0
VERTEX
  5
416
330
2CC
100
AcDbEntity
  8
0
  6
CONTINUOUS
 62
     7
100
AcDbVertex
100
AcDb2dVertex
 10
8.5804004041
 20
5.7409315449
 30
0.0
  0
VERTEX
  5
417
330
2CC
100
AcDbEntity
  8
0
  6
CONTINUOUS
 62
     7
100
AcDbVertex
100
AcDb2dVertex
 10
8.5660814889
 20
5.763683395
 30
0.0
  0
VERTEX
  5
418
330
2CC
100
AcDbEntity
  8
0
  6
CONTINUOUS
 62
     7
100
AcDbVertex
100
AcDb2dVertex
 10
8.5532519146
 20
5.7881523012
 30
0.0
  0
VERTEX
  5
419
330
2CC
100
AcDbEntity
  8
0
  6
CONTINUOUS
 62
     7
100
AcDbVertex
100
AcDb2dVertex
 10
8.5419500269
 20
5.8142651301
 30
0.0
  0
VERTEX
  5
41A
330
2CC
100
AcDbEntity
  8
0
  6
CONTINUOUS
 62
     7
100
AcDbVertex
100
AcDb2dVertex
 10
8.5322096051
 20
5.8419438349
 30
0.0
  0
VERTEX
  5
41B
330
2CC
100
AcDbEntity
  8
0
  6
CONTINUOUS
 62
     7
100
AcDbVertex
100
AcDb2dVertex
 10
8.5240597617
 20
5.8711056885
 30
0.0
  0
VERTEX
  5
41C
330
2CC
100
AcDbEntity
  8
0
  6
CONTINUOUS
 62
     7
100
AcDbVertex
100
AcDb2dVertex
 10
8.5175248551
 20
5.9016635311
 30
0.0
  0
VERTEX
  5
41D
330
2CC
100
AcDbEntity
  8
0
  6
CONTINUOUS
 62
     7
100
AcDbVertex
100
AcDb2dVertex
 10
8.5126244173
 20
5.9335260305
 30
0.0
  0
VERTEX
  5
41E
330
2CC
100
AcDbEntity
  8
0
  6
CONTINUOUS
 62
     7
100
AcDbVertex
100
AcDb2dVertex
 10
8.5093730946
 20
5.966597955
 30
0.0
  0
VERTEX
  5
41F
330
2CC
100
AcDbEntity
  8
0
  6
CONTINUOUS
 62
     7
100
AcDbVertex
100
AcDb2dVertex
 10
8.5077806048
 20
6.0007804581
 30
0.0
  0
SEQEND
  5
420
330
2CC
100
AcDbEntity
  8
0
  6
CONTINUOUS
 62
     7
  0
LINE
  5
2CD
330
1F
100
AcDbEntity
  8
0
  6
CONTINUOUS
 62
     7
100
AcDbLine
 10
8.5077806048
 20
6.0007804581
 30
0.0
 11
8.5634674662
 21
6.0007857472
 31
0.0
  0
POLYLINE
  5
2CE
330
1F
100
AcDbEntity
  8
0
  6
CONTINUOUS
 62
     7
100
AcDb2dPolyline
 66
     1
 10
0.0
 20
0.0
 30
0.0
  0
VERTEX
  5
421
330
2CE
100
AcDbEntity
  8
0
  6
CONTINUOUS
 62
     7
100
AcDbVertex
100
AcDb2dVertex
 10
8.3220142538
 20
7.0021214797
 30
0.0
  0
VERTEX
  5
422
330
2CE
100
AcDbEntity
  8
0
  6
CONTINUOUS
 62
     7
100
AcDbVertex
100
AcDb2dVertex
 10
8.2958745995
 20
6.9684766616
 30
0.0
  0
VERTEX
  5
423
330
2CE
100
AcDbEntity
  8
0
  6
CONTINUOUS
 62
     7
100
AcDbVertex
100
AcDb2dVertex
 10
8.2706597872
 20
6.9337310884
 30
0.0
  0
VERTEX
  5
424
330
2CE
100
AcDbEntity
  8
0
  6
CONTINUOUS
 62
     7
100
AcDbVertex
100
AcDb2dVertex
 10
8.2464463934
 20
6.8979902813
 30
0.0
  0
VERTEX
  5
425
330
2CE
100
AcDbEntity
  8
0
  6
CONTINUOUS
 62
     7
100
AcDbVertex
100
AcDb2dVertex
 10
8.2233079534
 20
6.861362784
 30
0.0
  0
VERTEX
  5
426
330
2CE
100
AcDbEntity
  8
0
  6
CONTINUOUS
 62
     7
100
AcDbVertex
100
AcDb2dVertex
 10
8.201314738
 20
6.823959833
 30
0.0
  0
VERTEX
  5
427
330
2CE
100
AcDbEntity
  8
0
  6
CONTINUOUS
 62
     7
100
AcDbVertex
100
AcDb2dVertex
 10
8.1805335397
 20
6.7858950198
 30
0.0
  0
VERTEX
  5
428
330
2CE
100
AcDbEntity
  8
0
  6
CONTINUOUS
 62
     7
100
AcDbVertex
100
AcDb2dVertex
 10
8.1610274704
 20
6.747283946
 30
0.0
  0
VERTEX
  5
429
330
2CE
100
AcDbEntity
  8
0
  6
CONTINUOUS
 62
     7
100
AcDbVertex
100
AcDb2dVertex
 10
8.1428557694
 20
6.7082438721
 30
0.0
  0
VERTEX
  5
42A
330
2CE
100
AcDbEntity
  8
0
  6
CONTINUOUS
 62
     7
100
AcDbVertex
100
AcDb2dVertex
 10
8.1260736236
 20
6.6688933616
 30
0.0
  0
VERTEX
  5
42B
330
2CE
100
AcDbEntity
  8
0
  6
CONTINUOUS
 62
     7
100
AcDbVertex
100
AcDb2dVertex
 10
8.1107319997
 20
6.6293519207
 30
0.0
  0
VERTEX
  5
42C
330
2CE
100
AcDbEntity
  8
0
  6
CONTINUOUS
 62
     7
100
AcDbVertex
100
AcDb2dVertex
 10
8.0968774898
 20
6.5897396355
 30
0.0
  0
VERTEX
  5
42D
330
2CE
100
AcDbEntity
  8
0
  6
CONTINUOUS
 62
     7
100
AcDbVertex
100
AcDb2dVertex
 10
8.0845521695
 20
6.5501768071
 30
0.0
  0
VERTEX
  5
42E
330
2CE
100
AcDbEntity
  8
0
  6
CONTINUOUS
 62
     7
100
AcDbVertex
100
AcDb2dVertex
 10
8.0737934705
 20
6.5107835865
 30
0.0
  0
VERTEX
  5
42F
330
2CE
100
AcDbEntity
  8
0
  6
CONTINUOUS
 62
     7
100
AcDbVertex
100
AcDb2dVertex
 10
8.0646340666
 20
6.4716796098
 30
0.0
  0
VERTEX
  5
430
330
2CE
100
AcDbEntity
  8
0
  6
CONTINUOUS
 62
     7
100
AcDbVertex
100
AcDb2dVertex
 10
8.0571017746
 20
6.4329836343
 30
0.0
  0
VERTEX
  5
431
330
2CE
100
AcDbEntity
  8
0
  6
CONTINUOUS
 62
     7
100
AcDbVertex
100
AcDb2dVertex
 10
8.0512194698
 20
6.3948131784
 30
0.0
  0
VERTEX
  5
432
330
2CE
100
AcDbEntity
  8
0
  6
CONTINUOUS
 62
     7
100
AcDbVertex
100
AcDb2dVertex
 10
8.0470050165
 20
6.3572841647
 30
0.0
  0
VERTEX
  5
433
330
2CE
100
AcDbEntity
  8
0
  6
CONTINUOUS
 62
     7
100
AcDbVertex
100
AcDb2dVertex
 10
8.044471214
 20
6.3205105675
 30
0.0
  0
VERTEX
  5
434
330
2CE
100
AcDbEntity
  8
0
  6
CONTINUOUS
 62
     7
100
AcDbVertex
100
AcDb2dVertex
 10
8.0436257573
 20
6.2846040669
 30
0.0
  0
VERTEX
  5
435
330
2CE
100
AcDbEntity
  8
0
  6
CONTINUOUS
 62
     7
100
AcDbVertex
100
AcDb2dVertex
 10
8.044471214
 20
6.2496737099
 30
0.0
  0
VERTEX
  5
436
330
2CE
100
AcDbEntity
  8
0
  6
CONTINUOUS
 62
     7
100
AcDbVertex
100
AcDb2dVertex
 10
8.0470050165
 20
6.2158255788
 30
0.0
  0
VERTEX
  5
437
330
2CE
100
AcDbEntity
  8
0
  6
CONTINUOUS
 62
     7
100
AcDbVertex
100
AcDb2dVertex
 10
8.0512194698
 20
6.1831624692
 30
0.0
  0
VERTEX
  5
438
330
2CE
100
AcDbEntity
  8
0
  6
CONTINUOUS
 62
     7
100
AcDbVertex
100
AcDb2dVertex
 10
8.0571017746
 20
6.151783578
 30
0.0
  0
VERTEX
  5
439
330
2CE
100
AcDbEntity
  8
0
  6
CONTINUOUS
 62
     7
100
AcDbVertex
100
AcDb2dVertex
 10
8.0646340666
 20
6.1217842017
 30
0.0
  0
VERTEX
  5
43A
330
2CE
100
AcDbEntity
  8
0
  6
CONTINUOUS
 62
     7
100
AcDbVertex
100
AcDb2dVertex
 10
8.0737934705
 20
6.0932554476
 30
0.0
  0
VERTEX
  5
43B
330
2CE
100
AcDbEntity
  8
0
  6
CONTINUOUS
 62
     7
100
AcDbVertex
100
AcDb2dVertex
 10
8.0845521695
 20
6.0662839565
 30
0.0
  0
VERTEX
  5
43C
330
2CE
100
AcDbEntity
  8
0
  6
CONTINUOUS
 62
     7
100
AcDbVertex
100
AcDb2dVertex
 10
8.0968774898
 20
6.04095164
 30
0.0
  0
VERTEX
  5
43D
330
2CE
100
AcDbEntity
  8
0
  6
CONTINUOUS
 62
     7
100
AcDbVertex
100
AcDb2dVertex
 10
8.1107319997
 20
6.0173354314
 30
0.0
  0
VERTEX
  5
43E
330
2CE
100
AcDbEntity
  8
0
  6
CONTINUOUS
 62
     7
100
AcDbVertex
100
AcDb2dVertex
 10
8.1260736236
 20
5.9955070524
 30
0.0
  0
VERTEX
  5
43F
330
2CE
100
AcDbEntity
  8
0
  6
CONTINUOUS
 62
     7
100
AcDbVertex
100
AcDb2dVertex
 10
8.1428557694
 20
5.9755327951
 30
0.0
  0
VERTEX
  5
440
330
2CE
100
AcDbEntity
  8
0
  6
CONTINUOUS
 62
     7
100
AcDbVertex
100
AcDb2dVertex
 10
8.1610274704
 20
5.9574733206
 30
0.0
  0
VERTEX
  5
441
330
2CE
100
AcDbEntity
  8
0
  6
CONTINUOUS
 62
     7
100
AcDbVertex
100
AcDb2dVertex
 10
8.1805335397
 20
5.941383475
 30
0.0
  0
VERTEX
  5
442
330
2CE
100
AcDbEntity
  8
0
  6
CONTINUOUS
 62
     7
100
AcDbVertex
100
AcDb2dVertex
 10
8.201314738
 20
5.9273121226
 30
0.0
  0
VERTEX
  5
443
330
2CE
100
AcDbEntity
  8
0
  6
CONTINUOUS
 62
     7
100
AcDbVertex
100
AcDb2dVertex
 10
8.206733958
 20
5.9240963453
 30
0.0
  0
SEQEND
  5
444
330
2CE
100
AcDbEntity
  8
0
  6
CONTINUOUS
 62
     7
  0
LINE
  5
2CF
330
1F
100
AcDbEntity
  8
0
  6
CONTINUOUS
 62
     7
100
AcDbLine
 10
8.1920996221
 20
7.0771196002
 30
0.0
 11
8.3220142538
 21
7.0021214797
 31
0.0
  0
POLYLINE
  5
2D0
330
1F
100
AcDbEntity
  8
0
  6
CONTINUOUS
 62
     7
100
AcDb2dPolyline
 66
     1
 10
0.0
 20
0.0
 30
0.0
  0
VERTEX
  5
445
330
2D0
100
AcDbEntity
  8
0
  6
CONTINUOUS
 62
     7
100
AcDbVertex
100
AcDb2dVertex
 10
8.7488766152
 20
7.3985401167
 30
0.0
  0
VERTEX
  5
446
330
2D0
100
AcDbEntity
  8
0
  6
CONTINUOUS
 62
     7
100
AcDbVertex
100
AcDb2dVertex
 10
8.7218915041
 20
7.3998256556
 30
0.0
  0
VERTEX
  5
447
330
2D0
100
AcDbEntity
  8
0
  6
CONTINUOUS
 62
     7
100
AcDbVertex
100
AcDb2dVertex
 10
8.6941428893
 20
7.3989282135
 30
0.0
  0
VERTEX
  5
448
330
2D0
100
AcDbEntity
  8
0
  6
CONTINUOUS
 62
     7
100
AcDbVertex
100
AcDb2dVertex
 10
8.6657150423
 20
7.395850516
 30
0.0
  0
VERTEX
  5
449
330
2D0
100
AcDbEntity
  8
0
  6
CONTINUOUS
 62
     7
100
AcDbVertex
100
AcDb2dVertex
 10
8.6366942975
 20
7.39060191
 30
0.0
  0
VERTEX
  5
44A
330
2D0
100
AcDbEntity
  8
0
  6
CONTINUOUS
 62
     7
100
AcDbVertex
100
AcDb2dVertex
 10
8.60716879
 20
7.3831983352
 30
0.0
  0
VERTEX
  5
44B
330
2D0
100
AcDbEntity
  8
0
  6
CONTINUOUS
 62
     7
100
AcDbVertex
100
AcDb2dVertex
 10
8.5772281878
 20
7.373662276
 30
0.0
  0
VERTEX
  5
44C
330
2D0
100
AcDbEntity
  8
0
  6
CONTINUOUS
 62
     7
100
AcDbVertex
100
AcDb2dVertex
 10
8.5469634195
 20
7.3620226933
 30
0.0
  0
VERTEX
  5
44D
330
2D0
100
AcDbEntity
  8
0
  6
CONTINUOUS
 62
     7
100
AcDbVertex
100
AcDb2dVertex
 10
8.5164663983
 20
7.348314936
 30
0.0
  0
VERTEX
  5
44E
330
2D0
100
AcDbEntity
  8
0
  6
CONTINUOUS
 62
     7
100
AcDbVertex
100
AcDb2dVertex
 10
8.4858297425
 20
7.3325806341
 30
0.0
  0
VERTEX
  5
44F
330
2D0
100
AcDbEntity
  8
0
  6
CONTINUOUS
 62
     7
100
AcDbVertex
100
AcDb2dVertex
 10
8.4551464947
 20
7.3148675722
 30
0.0
  0
VERTEX
  5
450
330
2D0
100
AcDbEntity
  8
0
  6
CONTINUOUS
 62
     7
100
AcDbVertex
100
AcDb2dVertex
 10
8.424509839
 20
7.2952295443
 30
0.0
  0
VERTEX
  5
451
330
2D0
100
AcDbEntity
  8
0
  6
CONTINUOUS
 62
     7
100
AcDbVertex
100
AcDb2dVertex
 10
8.3940128177
 20
7.2737261903
 30
0.0
  0
VERTEX
  5
452
330
2D0
100
AcDbEntity
  8
0
  6
CONTINUOUS
 62
     7
100
AcDbVertex
100
AcDb2dVertex
 10
8.3637480495
 20
7.2504228154
 30
0.0
  0
VERTEX
  5
453
330
2D0
100
AcDbEntity
  8
0
  6
CONTINUOUS
 62
     7
100
AcDbVertex
100
AcDb2dVertex
 10
8.3338074473
 20
7.225390191
 30
0.0
  0
VERTEX
  5
454
330
2D0
100
AcDbEntity
  8
0
  6
CONTINUOUS
 62
     7
100
AcDbVertex
100
AcDb2dVertex
 10
8.3042819398
 20
7.1987043405
 30
0.0
  0
VERTEX
  5
455
330
2D0
100
AcDbEntity
  8
0
  6
CONTINUOUS
 62
     7
100
AcDbVertex
100
AcDb2dVertex
 10
8.275261195
 20
7.1704463079
 30
0.0
  0
VERTEX
  5
456
330
2D0
100
AcDbEntity
  8
0
  6
CONTINUOUS
 62
     7
100
AcDbVertex
100
AcDb2dVertex
 10
8.246833348
 20
7.1407019118
 30
0.0
  0
VERTEX
  5
457
330
2D0
100
AcDbEntity
  8
0
  6
CONTINUOUS
 62
     7
100
AcDbVertex
100
AcDb2dVertex
 10
8.2190847331
 20
7.1095614851
 30
0.0
  0
VERTEX
  5
458
330
2D0
100
AcDbEntity
  8
0
  6
CONTINUOUS
 62
     7
100
AcDbVertex
100
AcDb2dVertex
 10
8.1920996221
 20
7.0771196002
 30
0.0
  0
SEQEND
  5
459
330
2D0
100
AcDbEntity
  8
0
  6
CONTINUOUS
 62
     7
  0
LINE
  5
2D1
330
1F
100
AcDbEntity
  8
0
  6
CONTINUOUS
 62
     7
100
AcDbLine
 10
8.8509523972
 20
7.339613022
 30
0.0
 11
8.7488766152
 21
7.3985401167
 31
0.0
  0
ARC
  5
2D2
330
1F
100
AcDbEntity
  8
0
  6
CONTINUOUS
 62
     7
100
AcDbCircle
 10
8.8282934438
 20
7.0617139443
 30
0.0
 40
0.278821314811661
100
AcDbArc
 50
60.3485297984
 51
85.3386071512
  0
LINE
  5
2D3
330
1F
100
AcDbEntity
  8
0
  6
CONTINUOUS
 62
     7
100
AcDbLine
 10
8.5077806048
 20
6.0329277342
 30
0.0
 11
8.1435556552
 21
6.243190322
 31
0.0
  0
POLYLINE
  5
2D4
330
1F
100
AcDbEntity
  8
0
  6
CONTINUOUS
 62
     7
100
AcDb2dPolyline
 66
     1
 10
0.0
 20
0.0
 30
0.0
  0
VERTEX
  5
45A
330
2D4
100
AcDbEntity
  8
0
  6
CONTINUOUS
 62
     7
100
AcDbVertex
100
AcDb2dVertex
 10
8.8671917262
 20
7.2581938328
 30
0.0
  0
VERTEX
  5
45B
330
2D4
100
AcDbEntity
  8
0
  6
CONTINUOUS
 62
     7
100
AcDbVertex
100
AcDb2dVertex
 10
8.8371614117
 20
7.2507040115
 30
0.0
  0
VERTEX
  5
45C
330
2D4
100
AcDbEntity
  8
0
  6
CONTINUOUS
 62
     7
100
AcDbVertex
100
AcDb2dVertex
 10
8.8067004126
 20
7.2410065284
 30
0.0
  0
VERTEX
  5
45D
330
2D4
100
AcDbEntity
  8
0
  6
CONTINUOUS
 62
     7
100
AcDbVertex
100
AcDb2dVertex
 10
8.7759044864
 20
7.2291318689
 30
0.0
  0
VERTEX
  5
45E
330
2D4
100
AcDbEntity
  8
0
  6
CONTINUOUS
 62
     7
100
AcDbVertex
100
AcDb2dVertex
 10
8.7448704441
 20
7.2151173622
 30
0.0
  0
VERTEX
  5
45F
330
2D4
100
AcDbEntity
  8
0
  6
CONTINUOUS
 62
     7
100
AcDbVertex
100
AcDb2dVertex
 10
8.7136958448
 20
7.1990070647
 30
0.0
  0
VERTEX
  5
460
330
2D4
100
AcDbEntity
  8
0
  6
CONTINUOUS
 62
     7
100
AcDbVertex
100
AcDb2dVertex
 10
8.6824786896
 20
7.1808516211
 30
0.0
  0
VERTEX
  5
461
330
2D4
100
AcDbEntity
  8
0
  6
CONTINUOUS
 62
     7
100
AcDbVertex
100
AcDb2dVertex
 10
8.6513171134
 20
7.1607081051
 30
0.0
  0
VERTEX
  5
462
330
2D4
100
AcDbEntity
  8
0
  6
CONTINUOUS
 62
     7
100
AcDbVertex
100
AcDb2dVertex
 10
8.6203090764
 20
7.1386398404
 30
0.0
  0
VERTEX
  5
463
330
2D4
100
AcDbEntity
  8
0
  6
CONTINUOUS
 62
     7
100
AcDbVertex
100
AcDb2dVertex
 10
8.5895520561
 20
7.1147162012
 30
0.0
  0
VERTEX
  5
464
330
2D4
100
AcDbEntity
  8
0
  6
CONTINUOUS
 62
     7
100
AcDbVertex
100
AcDb2dVertex
 10
8.5591427409
 20
7.0890123943
 30
0.0
  0
VERTEX
  5
465
330
2D4
100
AcDbEntity
  8
0
  6
CONTINUOUS
 62
     7
100
AcDbVertex
100
AcDb2dVertex
 10
8.5291767261
 20
7.0616092227
 30
0.0
  0
VERTEX
  5
466
330
2D4
100
AcDbEntity
  8
0
  6
CONTINUOUS
 62
     7
100
AcDbVertex
100
AcDb2dVertex
 10
8.4997482135
 20
7.0325928317
 30
0.0
  0
VERTEX
  5
467
330
2D4
100
AcDbEntity
  8
0
  6
CONTINUOUS
 62
     7
100
AcDbVertex
100
AcDb2dVertex
 10
8.4709497151
 20
7.0020544377
 30
0.0
  0
VERTEX
  5
468
330
2D4
100
AcDbEntity
  8
0
  6
CONTINUOUS
 62
     7
100
AcDbVertex
100
AcDb2dVertex
 10
8.4428717626
 20
6.9700900418
 30
0.0
  0
VERTEX
  5
469
330
2D4
100
AcDbEntity
  8
0
  6
CONTINUOUS
 62
     7
100
AcDbVertex
100
AcDb2dVertex
 10
8.4156026223
 20
6.936800128
 30
0.0
  0
VERTEX
  5
46A
330
2D4
100
AcDbEntity
  8
0
  6
CONTINUOUS
 62
     7
100
AcDbVertex
100
AcDb2dVertex
 10
8.3892280181
 20
6.9022893472
 30
0.0
  0
VERTEX
  5
46B
330
2D4
100
AcDbEntity
  8
0
  6
CONTINUOUS
 62
     7
100
AcDbVertex
100
AcDb2dVertex
 10
8.3638308617
 20
6.866666188
 30
0.0
  0
VERTEX
  5
46C
330
2D4
100
AcDbEntity
  8
0
  6
CONTINUOUS
 62
     7
100
AcDbVertex
100
AcDb2dVertex
 10
8.3394909921
 20
6.8300426363
 30
0.0
  0
VERTEX
  5
46D
330
2D4
100
AcDbEntity
  8
0
  6
CONTINUOUS
 62
     7
100
AcDbVertex
100
AcDb2dVertex
 10
8.3162849247
 20
6.7925338226
 30
0.0
  0
VERTEX
  5
46E
330
2D4
100
AcDbEntity
  8
0
  6
CONTINUOUS
 62
     7
100
AcDbVertex
100
AcDb2dVertex
 10
8.2942856105
 20
6.7542576602
 30
0.0
  0
VERTEX
  5
46F
330
2D4
100
AcDbEntity
  8
0
  6
CONTINUOUS
 62
     7
100
AcDbVertex
100
AcDb2dVertex
 10
8.273562207
 20
6.7153344751
 30
0.0
  0
VERTEX
  5
470
330
2D4
100
AcDbEntity
  8
0
  6
CONTINUOUS
 62
     7
100
AcDbVertex
100
AcDb2dVertex
 10
8.2541798607
 20
6.6758866268
 30
0.0
  0
VERTEX
  5
471
330
2D4
100
AcDbEntity
  8
0
  6
CONTINUOUS
 62
     7
100
AcDbVertex
100
AcDb2dVertex
 10
8.2361995023
 20
6.6360381244
 30
0.0
  0
VERTEX
  5
472
330
2D4
100
AcDbEntity
  8
0
  6
CONTINUOUS
 62
     7
100
AcDbVertex
100
AcDb2dVertex
 10
8.2196776554
 20
6.5959142366
 30
0.0
  0
VERTEX
  5
473
330
2D4
100
AcDbEntity
  8
0
  6
CONTINUOUS
 62
     7
100
AcDbVertex
100
AcDb2dVertex
 10
8.2046662582
 20
6.5556410975
 30
0.0
  0
VERTEX
  5
474
330
2D4
100
AcDbEntity
  8
0
  6
CONTINUOUS
 62
     7
100
AcDbVertex
100
AcDb2dVertex
 10
8.191212501
 20
6.5153453106
 30
0.0
  0
VERTEX
  5
475
330
2D4
100
AcDbEntity
  8
0
  6
CONTINUOUS
 62
     7
100
AcDbVertex
100
AcDb2dVertex
 10
8.1793586772
 20
6.4751535507
 30
0.0
  0
VERTEX
  5
476
330
2D4
100
AcDbEntity
  8
0
  6
CONTINUOUS
 62
     7
100
AcDbVertex
100
AcDb2dVertex
 10
8.1691420507
 20
6.4351921653
 30
0.0
  0
VERTEX
  5
477
330
2D4
100
AcDbEntity
  8
0
  6
CONTINUOUS
 62
     7
100
AcDbVertex
100
AcDb2dVertex
 10
8.1605947388
 20
6.3955867778
 30
0.0
  0
VERTEX
  5
478
330
2D4
100
AcDbEntity
  8
0
  6
CONTINUOUS
 62
     7
100
AcDbVertex
100
AcDb2dVertex
 10
8.153743611
 20
6.3564618926
 30
0.0
  0
VERTEX
  5
479
330
2D4
100
AcDbEntity
  8
0
  6
CONTINUOUS
 62
     7
100
AcDbVertex
100
AcDb2dVertex
 10
8.1486102046
 20
6.3179405035
 30
0.0
  0
VERTEX
  5
47A
330
2D4
100
AcDbEntity
  8
0
  6
CONTINUOUS
 62
     7
100
AcDbVertex
100
AcDb2dVertex
 10
8.145210657
 20
6.280143707
 30
0.0
  0
VERTEX
  5
47B
330
2D4
100
AcDbEntity
  8
0
  6
CONTINUOUS
 62
     7
100
AcDbVertex
100
AcDb2dVertex
 10
8.1435556552
 20
6.243190322
 30
0.0
  0
SEQEND
  5
47C
330
2D4
100
AcDbEntity
  8
0
  6
CONTINUOUS
 62
     7
  0
LINE
  5
2D5
330
1F
100
AcDbEntity
  8
0
  6
CONTINUOUS
 62
     7
100
AcDbLine
 10
8.8393528765
 20
7.2742648586
 30
0.0
 11
8.8671917262
 21
7.2581938328
 31
0.0
  0
POLYLINE
  5
2D6
330
1F
100
AcDbEntity
  8
0
  6
CONTINUOUS
 62
     7
100
AcDb2dPolyline
 66
     1
 10
0.0
 20
0.0
 30
0.0
  0
VERTEX
  5
47D
330
2D6
100
AcDbEntity
  8
0
  6
CONTINUOUS
 62
     7
100
AcDbVertex
100
AcDb2dVertex
 10
8.8393528765
 20
7.2742648586
 30
0.0
  0
VERTEX
  5
47E
330
2D6
100
AcDbEntity
  8
0
  6
CONTINUOUS
 62
     7
100
AcDbVertex
100
AcDb2dVertex
 10
8.8098157006
 20
7.266914875
 30
0.0
  0
VERTEX
  5
47F
330
2D6
100
AcDbEntity
  8
0
  6
CONTINUOUS
 62
     7
100
AcDbVertex
100
AcDb2dVertex
 10
8.7798602602
 20
7.2574281597
 30
0.0
  0
VERTEX
  5
480
330
2D6
100
AcDbEntity
  8
0
  6
CONTINUOUS
 62
     7
100
AcDbVertex
100
AcDb2dVertex
 10
8.7495776803
 20
7.2458335715
 30
0.0
  0
VERTEX
  5
481
330
2D6
100
AcDbEntity
  8
0
  6
CONTINUOUS
 62
     7
100
AcDbVertex
100
AcDb2dVertex
 10
8.7190600808
 20
7.2321663814
 30
0.0
  0
VERTEX
  5
482
330
2D6
100
AcDbEntity
  8
0
  6
CONTINUOUS
 62
     7
100
AcDbVertex
100
AcDb2dVertex
 10
8.6884002967
 20
7.216468165
 30
0.0
  0
VERTEX
  5
483
330
2D6
100
AcDbEntity
  8
0
  6
CONTINUOUS
 62
     7
100
AcDbVertex
100
AcDb2dVertex
 10
8.6576915955
 20
7.1987866766
 30
0.0
  0
VERTEX
  5
484
330
2D6
100
AcDbEntity
  8
0
  6
CONTINUOUS
 62
     7
100
AcDbVertex
100
AcDb2dVertex
 10
8.6270273934
 20
7.1791757034
 30
0.0
  0
VERTEX
  5
485
330
2D6
100
AcDbEntity
  8
0
  6
CONTINUOUS
 62
     7
100
AcDbVertex
100
AcDb2dVertex
 10
8.5965009714
 20
7.1576949024
 30
0.0
  0
VERTEX
  5
486
330
2D6
100
AcDbEntity
  8
0
  6
CONTINUOUS
 62
     7
100
AcDbVertex
100
AcDb2dVertex
 10
8.5662051911
 20
7.1344096183
 30
0.0
  0
VERTEX
  5
487
330
2D6
100
AcDbEntity
  8
0
  6
CONTINUOUS
 62
     7
100
AcDbVertex
100
AcDb2dVertex
 10
8.5362322128
 20
7.1093906854
 30
0.0
  0
VERTEX
  5
488
330
2D6
100
AcDbEntity
  8
0
  6
CONTINUOUS
 62
     7
100
AcDbVertex
100
AcDb2dVertex
 10
8.5066732146
 20
7.0827142115
 30
0.0
  0
VERTEX
  5
489
330
2D6
100
AcDbEntity
  8
0
  6
CONTINUOUS
 62
     7
100
AcDbVertex
100
AcDb2dVertex
 10
8.4776181155
 20
7.0544613468
 30
0.0
  0
VERTEX
  5
48A
330
2D6
100
AcDbEntity
  8
0
  6
CONTINUOUS
 62
     7
100
AcDbVertex
100
AcDb2dVertex
 10
8.4491553014
 20
7.0247180369
 30
0.0
  0
VERTEX
  5
48B
330
2D6
100
AcDbEntity
  8
0
  6
CONTINUOUS
 62
     7
100
AcDbVertex
100
AcDb2dVertex
 10
8.4213713565
 20
6.9935747614
 30
0.0
  0
VERTEX
  5
48C
330
2D6
100
AcDbEntity
  8
0
  6
CONTINUOUS
 62
     7
100
AcDbVertex
100
AcDb2dVertex
 10
8.3943508
 20
6.9611262585
 30
0.0
  0
VERTEX
  5
48D
330
2D6
100
AcDbEntity
  8
0
  6
CONTINUOUS
 62
     7
100
AcDbVertex
100
AcDb2dVertex
 10
8.3681758288
 20
6.9274712369
 30
0.0
  0
VERTEX
  5
48E
330
2D6
100
AcDbEntity
  8
0
  6
CONTINUOUS
 62
     7
100
AcDbVertex
100
AcDb2dVertex
 10
8.3429260674
 20
6.8927120757
 30
0.0
  0
VERTEX
  5
48F
330
2D6
100
AcDbEntity
  8
0
  6
CONTINUOUS
 62
     7
100
AcDbVertex
100
AcDb2dVertex
 10
8.318678326
 20
6.8569545127
 30
0.0
  0
VERTEX
  5
490
330
2D6
100
AcDbEntity
  8
0
  6
CONTINUOUS
 62
     7
100
AcDbVertex
100
AcDb2dVertex
 10
8.2955063665
 20
6.8203073229
 30
0.0
  0
VERTEX
  5
491
330
2D6
100
AcDbEntity
  8
0
  6
CONTINUOUS
 62
     7
100
AcDbVertex
100
AcDb2dVertex
 10
8.2734806784
 20
6.7828819876
 30
0.0
  0
VERTEX
  5
492
330
2D6
100
AcDbEntity
  8
0
  6
CONTINUOUS
 62
     7
100
AcDbVertex
100
AcDb2dVertex
 10
8.252668264
 20
6.7447923549
 30
0.0
  0
VERTEX
  5
493
330
2D6
100
AcDbEntity
  8
0
  6
CONTINUOUS
 62
     7
100
AcDbVertex
100
AcDb2dVertex
 10
8.2331324349
 20
6.7061542942
 30
0.0
  0
VERTEX
  5
494
330
2D6
100
AcDbEntity
  8
0
  6
CONTINUOUS
 62
     7
100
AcDbVertex
100
AcDb2dVertex
 10
8.2149326196
 20
6.667085343
 30
0.0
  0
VERTEX
  5
495
330
2D6
100
AcDbEntity
  8
0
  6
CONTINUOUS
 62
     7
100
AcDbVertex
100
AcDb2dVertex
 10
8.1981241819
 20
6.6277043494
 30
0.0
  0
VERTEX
  5
496
330
2D6
100
AcDbEntity
  8
0
  6
CONTINUOUS
 62
     7
100
AcDbVertex
100
AcDb2dVertex
 10
8.1827582534
 20
6.5881311109
 30
0.0
  0
VERTEX
  5
497
330
2D6
100
AcDbEntity
  8
0
  6
CONTINUOUS
 62
     7
100
AcDbVertex
100
AcDb2dVertex
 10
8.1688815775
 20
6.54848601
 30
0.0
  0
VERTEX
  5
498
330
2D6
100
AcDbEntity
  8
0
  6
CONTINUOUS
 62
     7
100
AcDbVertex
100
AcDb2dVertex
 10
8.1565363672
 20
6.5088896474
 30
0.0
  0
VERTEX
  5
499
330
2D6
100
AcDbEntity
  8
0
  6
CONTINUOUS
 62
     7
100
AcDbVertex
100
AcDb2dVertex
 10
8.1457601768
 20
6.4694624759
 30
0.0
  0
VERTEX
  5
49A
330
2D6
100
AcDbEntity
  8
0
  6
CONTINUOUS
 62
     7
100
AcDbVertex
100
AcDb2dVertex
 10
8.1365857875
 20
6.4303244334
 30
0.0
  0
VERTEX
  5
49B
330
2D6
100
AcDbEntity
  8
0
  6
CONTINUOUS
 62
     7
100
AcDbVertex
100
AcDb2dVertex
 10
8.129041108
 20
6.3915945783
 30
0.0
  0
VERTEX
  5
49C
330
2D6
100
AcDbEntity
  8
0
  6
CONTINUOUS
 62
     7
100
AcDbVertex
100
AcDb2dVertex
 10
8.1231490894
 20
6.3533907274
 30
0.0
  0
VERTEX
  5
49D
330
2D6
100
AcDbEntity
  8
0
  6
CONTINUOUS
 62
     7
100
AcDbVertex
100
AcDb2dVertex
 10
8.1189276552
 20
6.3158290974
 30
0.0
  0
VERTEX
  5
49E
330
2D6
100
AcDbEntity
  8
0
  6
CONTINUOUS
 62
     7
100
AcDbVertex
100
AcDb2dVertex
 10
8.116389647
 20
6.279023951
 30
0.0
  0
VERTEX
  5
49F
330
2D6
100
AcDbEntity
  8
0
  6
CONTINUOUS
 62
     7
100
AcDbVertex
100
AcDb2dVertex
 10
8.1155427856
 20
6.2430872502
 30
0.0
  0
VERTEX
  5
4A0
330
2D6
100
AcDbEntity
  8
0
  6
CONTINUOUS
 62
     7
100
AcDbVertex
100
AcDb2dVertex
 10
8.116389647
 20
6.2081283148
 30
0.0
  0
VERTEX
  5
4A1
330
2D6
100
AcDbEntity
  8
0
  6
CONTINUOUS
 62
     7
100
AcDbVertex
100
AcDb2dVertex
 10
8.1189276552
 20
6.1742534903
 30
0.0
  0
VERTEX
  5
4A2
330
2D6
100
AcDbEntity
  8
0
  6
CONTINUOUS
 62
     7
100
AcDbVertex
100
AcDb2dVertex
 10
8.1231490894
 20
6.1415658245
 30
0.0
  0
VERTEX
  5
4A3
330
2D6
100
AcDbEntity
  8
0
  6
CONTINUOUS
 62
     7
100
AcDbVertex
100
AcDb2dVertex
 10
8.129041108
 20
6.1101647535
 30
0.0
  0
VERTEX
  5
4A4
330
2D6
100
AcDbEntity
  8
0
  6
CONTINUOUS
 62
     7
100
AcDbVertex
100
AcDb2dVertex
 10
8.1365857875
 20
6.0801458
 30
0.0
  0
VERTEX
  5
4A5
330
2D6
100
AcDbEntity
  8
0
  6
CONTINUOUS
 62
     7
100
AcDbVertex
100
AcDb2dVertex
 10
8.1457601768
 20
6.0516002818
 30
0.0
  0
VERTEX
  5
4A6
330
2D6
100
AcDbEntity
  8
0
  6
CONTINUOUS
 62
     7
100
AcDbVertex
100
AcDb2dVertex
 10
8.1565363672
 20
6.024615035
 30
0.0
  0
VERTEX
  5
4A7
330
2D6
100
AcDbEntity
  8
0
  6
CONTINUOUS
 62
     7
100
AcDbVertex
100
AcDb2dVertex
 10
8.1688815775
 20
5.9992721488
 30
0.0
  0
VERTEX
  5
4A8
330
2D6
100
AcDbEntity
  8
0
  6
CONTINUOUS
 62
     7
100
AcDbVertex
100
AcDb2dVertex
 10
8.1827582534
 20
5.9756487168
 30
0.0
  0
VERTEX
  5
4A9
330
2D6
100
AcDbEntity
  8
0
  6
CONTINUOUS
 62
     7
100
AcDbVertex
100
AcDb2dVertex
 10
8.1981241819
 20
5.9538166018
 30
0.0
  0
VERTEX
  5
4AA
330
2D6
100
AcDbEntity
  8
0
  6
CONTINUOUS
 62
     7
100
AcDbVertex
100
AcDb2dVertex
 10
8.2149326196
 20
5.9338422172
 30
0.0
  0
VERTEX
  5
4AB
330
2D6
100
AcDbEntity
  8
0
  6
CONTINUOUS
 62
     7
100
AcDbVertex
100
AcDb2dVertex
 10
8.2331324349
 20
5.9157863255
 30
0.0
  0
VERTEX
  5
4AC
330
2D6
100
AcDbEntity
  8
0
  6
CONTINUOUS
 62
     7
100
AcDbVertex
100
AcDb2dVertex
 10
8.252668264
 20
5.8997038529
 30
0.0
  0
VERTEX
  5
4AD
330
2D6
100
AcDbEntity
  8
0
  6
CONTINUOUS
 62
     7
100
AcDbVertex
100
AcDb2dVertex
 10
8.2734806784
 20
5.8856437224
 30
0.0
  0
VERTEX
  5
4AE
330
2D6
100
AcDbEntity
  8
0
  6
CONTINUOUS
 62
     7
100
AcDbVertex
100
AcDb2dVertex
 10
8.292816491
 20
5.8749702848
 30
0.0
  0
SEQEND
  5
4AF
330
2D6
100
AcDbEntity
  8
0
  6
CONTINUOUS
 62
     7
  0
ARC
  5
2D7
330
1F
100
AcDbEntity
  8
0
  6
CONTINUOUS
 62
     7
100
AcDbCircle
 10
8.529581129
 20
6.1828047887
 30
0.0
 40
0.3870569280925552
100
AcDbArc
 50
175.8161924844
 51
234.8037730746
  0
LINE
  5
2D8
330
1F
100
AcDbEntity
  8
0
  6
CONTINUOUS
 62
     7
100
AcDbLine
 10
8.5077806048
 20
6.0007804581
 30
0.0
 11
8.1435556552
 21
6.211043046
 31
0.0
  0
SPLINE
  5
2D9
330
1F
100
AcDbEntity
  8
0
  6
CONTINUOUS
 62
     7
100
AcDbSpline
210
0.0
220
0.0
230
1.0
 70
     8
 71
     3
 72
    14
 73
    10
 74
     0
 42
0.00000001
 43
0.00000001
 40
0.0
 40
0.0
 40
0.0
 40
0.0
 40
0.0983684322538533
 40
0.2005898976822374
 40
0.3987874688497403
 40
0.5519710373199345
 40
0.7093933510277808
 40
0.9264475057722333
 40
1.0
 40
1.0
 40
1.0
 40
1.0
 10
8.493687160009989
 20
5.763111737546041
 30
0.0
 10
8.496708807230721
 20
5.761339075168369
 30
0.0
 10
8.502870457802468
 20
5.757724316278598
 30
0.0
 10
8.5164896620413
 20
5.749282636064647
 30
0.0
 10
8.532648224872444
 20
5.738898535505
 30
0.0
 10
8.550369822307017
 20
5.727412049825834
 30
0.0
 10
8.568035104685299
 20
5.716164667987911
 30
0.0
 10
8.58255381758855
 20
5.707098408656479
 30
0.0
 10
8.590994688572945
 20
5.702350169511273
 30
0.0
 10
8.593131071606688
 20
5.701148390978143
 30
0.0
  0
SPLINE
  5
2DA
330
1F
100
AcDbEntity
  8
0
  6
CONTINUOUS
 62
     7
100
AcDbSpline
210
0.0
220
0.0
230
1.0
 70
     8
 71
     3
 72
    17
 73
    13
 74
     0
 42
0.00000001
 43
0.00000001
 40
0.0
 40
0.0
 40
0.0
 40
0.0
 40
0.0240710456529245
 40
0.1513123735475538
 40
0.2988785559870003
 40
0.4502933725835881
 40
0.5608118376800383
 40
0.6737807337341838
 40
0.7498905762861868
 40
0.8277128183866262
 40
0.9481062898567114
 40
1.0
 40
1.0
 40
1.0
 40
1.0
 10
8.494133673671584
 20
5.761032233452025
 30
0.0
 10
8.493253692135369
 20
5.761384162970585
 30
0.0
 10
8.48772206310509
 20
5.763596417957037
 30
0.0
 10
8.479591298401905
 20
5.767214858493582
 30
0.0
 10
8.470405466805845
 20
5.771712347151428
 30
0.0
 10
8.465577548780523
 20
5.774795843593256
 30
0.0
 10
8.464407361126648
 20
5.776354851274156
 30
0.0
 10
8.466046089405715
 20
5.776424109253989
 30
0.0
 10
8.469780118565517
 20
5.775251259131213
 30
0.0
 10
8.475776171355879
 20
5.772735996979864
 30
0.0
 10
8.48402027545862
 20
5.768613331688426
 30
0.0
 10
8.491449455890933
 20
5.764385254345416
 30
0.0
 10
8.493687160009989
 20
5.763111737546041
 30
0.0
  0
SPLINE
  5
2DB
330
1F
100
AcDbEntity
  8
0
  6
CONTINUOUS
 62
     7
100
AcDbSpline
210
0.0
220
0.0
230
1.0
 70
     8
 71
     3
 72
    36
 73
    32
 74
     0
 42
0.00000001
 43
0.00000001
 40
0.0
 40
0.0
 40
0.0
 40
0.0
 40
0.0359918772765964
 40
0.07213078591541
 40
0.108860768849997
 40
0.1457240988119932
 40
0.182505489152491
 40
0.2210170403252826
 40
0.2596268973592861
 40
0.2981073747474311
 40
0.343604129011409
 40
0.3890513631755373
 40
0.4260186586513943
 40
0.4629532782051556
 40
0.5001852515619357
 40
0.537385912124791
 40
0.5695192512116265
 40
0.6016433025735378
 40
0.63094124107629
 40
0.6602380249577078
 40
0.6886810983308861
 40
0.717127272677181
 40
0.7457543275041032
 40
0.7743892559445941
 40
0.80422299200551
 40
0.8340704673918368
 40
0.8666692728351881
 40
0.8992878986144687
 40
0.9454750650049171
 40
0.9917158510940771
 40
1.0
 40
1.0
 40
1.0
 40
1.0
 10
8.478034728990732
 20
6.441422233933666
 30
0.0
 10
8.487036439836833
 20
6.443476634539817
 30
0.0
 10
8.505076634654197
 20
6.447593828237938
 30
0.0
 10
8.531191391765415
 20
6.461950328079953
 30
0.0
 10
8.556783094574794
 20
6.47943164832079
 30
0.0
 10
8.581703897415967
 20
6.500129446734727
 30
0.0
 10
8.606245864329077
 20
6.523425969714589
 30
0.0
 10
8.630408966009016
 20
6.549015684340504
 30
0.0
 10
8.653826760275967
 20
6.576810118697161
 30
0.0
 10
8.677155180392262
 20
6.607966378636509
 30
0.0
 10
8.69950216795805
 20
6.642519407788516
 30
0.0
 10
8.718081577577681
 20
6.678037800957773
 30
0.0
 10
8.731184394676674
 20
6.711697391898544
 30
0.0
 10
8.739047657862685
 20
6.742948452089545
 30
0.0
 10
8.741386251572663
 20
6.773327346543994
 30
0.0
 10
8.737845446093521
 20
6.800686148267979
 30
0.0
 10
8.728671152644653
 20
6.82417255721175
 30
0.0
 10
8.715550085683201
 20
6.84313944809544
 30
0.0
 10
8.69855650249446
 20
6.858324895691774
 30
0.0
 10
8.678965907515144
 20
6.86968971551103
 30
0.0
 10
8.656790150974613
 20
6.877338592205874
 30
0.0
 10
8.632852305744498
 20
6.881318910444095
 30
0.0
 10
8.607573889898633
 20
6.881393405855319
 30
0.0
 10
8.581404137088622
 20
6.877638356004119
 30
0.0
 10
8.555125358801977
 20
6.869832142229026
 30
0.0
 10
8.528666614490373
 20
6.857885200229393
 30
0.0
 10
8.503184405140205
 20
6.841761352190921
 30
0.0
 10
8.475910852382372
 20
6.819093410422318
 30
0.0
 10
8.449833847511163
 20
6.789038179540131
 30
0.0
 10
8.43174161301958
 20
6.762451139429548
 30
0.0
 10
8.424593884194575
 20
6.74677410145244
 30
0.0
 10
8.42350790674351
 20
6.74439223860349
 30
0.0
  0
SPLINE
  5
2DC
330
1F
100
AcDbEntity
  8
0
  6
CONTINUOUS
 62
     7
100
AcDbSpline
210
0.0
220
0.0
230
1.0
 70
     8
 71
     3
 72
    11
 73
     7
 74
     0
 42
0.00000001
 43
0.00000001
 40
0.0
 40
0.0
 40
0.0
 40
0.0
 40
0.1480254431954989
 40
0.4841948320202815
 40
0.742464902855708
 40
1.0
 40
1.0
 40
1.0
 40
1.0
 10
8.386598601983067
 20
6.587550115073006
 30
0.0
 10
8.386472226348928
 20
6.582055434845038
 30
0.0
 10
8.386058848569935
 20
6.564082201915936
 30
0.0
 10
8.38975179720712
 20
6.536968510466167
 30
0.0
 10
8.396611120847222
 20
6.506605122541605
 30
0.0
 10
8.404192567769124
 20
6.490103994225003
 30
0.0
 10
8.40797788980685
 20
6.481865186342075
 30
0.0
  0
POLYLINE
  5
2DD
330
1F
100
AcDbEntity
  8
0
  6
CONTINUOUS
 62
     7
100
AcDb2dPolyline
 66
     1
 10
0.0
 20
0.0
 30
0.0
  0
VERTEX
  5
4B0
330
2DD
100
AcDbEntity
  8
0
  6
CONTINUOUS
 62
     7
100
AcDbVertex
100
AcDb2dVertex
 10
9.2865966171
 20
6.4182393203
 30
0.0
  0
VERTEX
  5
4B1
330
2DD
100
AcDbEntity
  8
0
  6
CONTINUOUS
 62
     7
100
AcDbVertex
100
AcDb2dVertex
 10
9.2844414121
 20
6.3960633947
 30
0.0
  0
VERTEX
  5
4B2
330
2DD
100
AcDbEntity
  8
0
  6
CONTINUOUS
 62
     7
100
AcDbVertex
100
AcDb2dVertex
 10
9.2805995782
 20
6.3732385034
 30
0.0
  0
VERTEX
  5
4B3
330
2DD
100
AcDbEntity
  8
0
  6
CONTINUOUS
 62
     7
100
AcDbVertex
100
AcDb2dVertex
 10
9.2751048254
 20
6.3499649237
 30
0.0
  0
VERTEX
  5
4B4
330
2DD
100
AcDbEntity
  8
0
  6
CONTINUOUS
 62
     7
100
AcDbVertex
100
AcDb2dVertex
 10
9.2680053677
 20
6.3264468702
 30
0.0
  0
VERTEX
  5
4B5
330
2DD
100
AcDbEntity
  8
0
  6
CONTINUOUS
 62
     7
100
AcDbVertex
100
AcDb2dVertex
 10
9.2593634994
 20
6.3028907025
 30
0.0
  0
VERTEX
  5
4B6
330
2DD
100
AcDbEntity
  8
0
  6
CONTINUOUS
 62
     7
100
AcDbVertex
100
AcDb2dVertex
 10
9.2492550487
 20
6.2795031145
 30
0.0
  0
VERTEX
  5
4B7
330
2DD
100
AcDbEntity
  8
0
  6
CONTINUOUS
 62
     7
100
AcDbVertex
100
AcDb2dVertex
 10
9.2377687124
 20
6.2564893212
 30
0.0
  0
VERTEX
  5
4B8
330
2DD
100
AcDbEntity
  8
0
  6
CONTINUOUS
 62
     7
100
AcDbVertex
100
AcDb2dVertex
 10
9.2250052776
 20
6.2340512574
 30
0.0
  0
VERTEX
  5
4B9
330
2DD
100
AcDbEntity
  8
0
  6
CONTINUOUS
 62
     7
100
AcDbVertex
100
AcDb2dVertex
 10
9.2110767372
 20
6.2123858063
 30
0.0
  0
VERTEX
  5
4BA
330
2DD
100
AcDbEntity
  8
0
  6
CONTINUOUS
 62
     7
100
AcDbVertex
100
AcDb2dVertex
 10
9.1961053075
 20
6.1916830718
 30
0.0
  0
VERTEX
  5
4BB
330
2DD
100
AcDbEntity
  8
0
  6
CONTINUOUS
 62
     7
100
AcDbVertex
100
AcDb2dVertex
 10
9.1802223555
 20
6.1721247105
 30
0.0
  0
VERTEX
  5
4BC
330
2DD
100
AcDbEntity
  8
0
  6
CONTINUOUS
 62
     7
100
AcDbVertex
100
AcDb2dVertex
 10
9.1635672466
 20
6.1538823376
 30
0.0
  0
VERTEX
  5
4BD
330
2DD
100
AcDbEntity
  8
0
  6
CONTINUOUS
 62
     7
100
AcDbVertex
100
AcDb2dVertex
 10
9.1462861212
 20
6.1371160211
 30
0.0
  0
VERTEX
  5
4BE
330
2DD
100
AcDbEntity
  8
0
  6
CONTINUOUS
 62
     7
100
AcDbVertex
100
AcDb2dVertex
 10
9.128530613
 20
6.1219728773
 30
0.0
  0
VERTEX
  5
4BF
330
2DD
100
AcDbEntity
  8
0
  6
CONTINUOUS
 62
     7
100
AcDbVertex
100
AcDb2dVertex
 10
9.110456518
 20
6.1085857801
 30
0.0
  0
VERTEX
  5
4C0
330
2DD
100
AcDbEntity
  8
0
  6
CONTINUOUS
 62
     7
100
AcDbVertex
100
AcDb2dVertex
 10
9.0922224275
 20
6.0970721948
 30
0.0
  0
VERTEX
  5
4C1
330
2DD
100
AcDbEntity
  8
0
  6
CONTINUOUS
 62
     7
100
AcDbVertex
100
AcDb2dVertex
 10
9.0739883371
 20
6.0875331474
 30
0.0
  0
VERTEX
  5
4C2
330
2DD
100
AcDbEntity
  8
0
  6
CONTINUOUS
 62
     7
100
AcDbVertex
100
AcDb2dVertex
 10
9.0559142421
 20
6.0800523387
 30
0.0
  0
VERTEX
  5
4C3
330
2DD
100
AcDbEntity
  8
0
  6
CONTINUOUS
 62
     7
100
AcDbVertex
100
AcDb2dVertex
 10
9.0381587339
 20
6.074695409
 30
0.0
  0
VERTEX
  5
4C4
330
2DD
100
AcDbEntity
  8
0
  6
CONTINUOUS
 62
     7
100
AcDbVertex
100
AcDb2dVertex
 10
9.0208776085
 20
6.0715093629
 30
0.0
  0
VERTEX
  5
4C5
330
2DD
100
AcDbEntity
  8
0
  6
CONTINUOUS
 62
     7
100
AcDbVertex
100
AcDb2dVertex
 10
9.0042224996
 20
6.0705221564
 30
0.0
  0
VERTEX
  5
4C6
330
2DD
100
AcDbEntity
  8
0
  6
CONTINUOUS
 62
     7
100
AcDbVertex
100
AcDb2dVertex
 10
8.9883395476
 20
6.0717424517
 30
0.0
  0
VERTEX
  5
4C7
330
2DD
100
AcDbEntity
  8
0
  6
CONTINUOUS
 62
     7
100
AcDbVertex
100
AcDb2dVertex
 10
8.9733681179
 20
6.0751595413
 30
0.0
  0
VERTEX
  5
4C8
330
2DD
100
AcDbEntity
  8
0
  6
CONTINUOUS
 62
     7
100
AcDbVertex
100
AcDb2dVertex
 10
8.9594395775
 20
6.080743442
 30
0.0
  0
VERTEX
  5
4C9
330
2DD
100
AcDbEntity
  8
0
  6
CONTINUOUS
 62
     7
100
AcDbVertex
100
AcDb2dVertex
 10
8.9466761427
 20
6.0884451576
 30
0.0
  0
VERTEX
  5
4CA
330
2DD
100
AcDbEntity
  8
0
  6
CONTINUOUS
 62
     7
100
AcDbVertex
100
AcDb2dVertex
 10
8.9351898064
 20
6.0981971093
 30
0.0
  0
VERTEX
  5
4CB
330
2DD
100
AcDbEntity
  8
0
  6
CONTINUOUS
 62
     7
100
AcDbVertex
100
AcDb2dVertex
 10
8.9250813557
 20
6.1099137285
 30
0.0
  0
VERTEX
  5
4CC
330
2DD
100
AcDbEntity
  8
0
  6
CONTINUOUS
 62
     7
100
AcDbVertex
100
AcDb2dVertex
 10
8.9164394874
 20
6.1234922075
 30
0.0
  0
VERTEX
  5
4CD
330
2DD
100
AcDbEntity
  8
0
  6
CONTINUOUS
 62
     7
100
AcDbVertex
100
AcDb2dVertex
 10
8.9093400297
 20
6.1388134016
 30
0.0
  0
VERTEX
  5
4CE
330
2DD
100
AcDbEntity
  8
0
  6
CONTINUOUS
 62
     7
100
AcDbVertex
100
AcDb2dVertex
 10
8.9038452769
 20
6.1557428748
 30
0.0
  0
VERTEX
  5
4CF
330
2DD
100
AcDbEntity
  8
0
  6
CONTINUOUS
 62
     7
100
AcDbVertex
100
AcDb2dVertex
 10
8.900003443
 20
6.174132079
 30
0.0
  0
VERTEX
  5
4D0
330
2DD
100
AcDbEntity
  8
0
  6
CONTINUOUS
 62
     7
100
AcDbVertex
100
AcDb2dVertex
 10
8.897848238
 20
6.193819658
 30
0.0
  0
SEQEND
  5
4D1
330
2DD
100
AcDbEntity
  8
0
  6
CONTINUOUS
 62
     7
  0
LINE
  5
2DE
330
1F
100
AcDbEntity
  8
0
  6
CONTINUOUS
 62
     7
100
AcDbLine
 10
9.2865966171
 20
6.4182393203
 30
0.0
 11
9.3729308282
 21
6.4680789995
 31
0.0
  0
LINE
  5
2DF
330
1F
100
AcDbEntity
  8
0
  6
CONTINUOUS
 62
     7
100
AcDbLine
 10
9.3729308282
 20
6.4680789995
 30
0.0
 11
9.3729308282
 21
6.5002262756
 31
0.0
  0
LINE
  5
2E0
330
1F
100
AcDbEntity
  8
0
  6
CONTINUOUS
 62
     7
100
AcDbLine
 10
9.2865966171
 20
6.4503865964
 30
0.0
 11
9.3729308282
 21
6.5002262756
 31
0.0
  0
POLYLINE
  5
2E1
330
1F
100
AcDbEntity
  8
0
  6
CONTINUOUS
 62
     7
100
AcDb2dPolyline
 66
     1
 10
0.0
 20
0.0
 30
0.0
  0
VERTEX
  5
4D2
330
2E1
100
AcDbEntity
  8
0
  6
CONTINUOUS
 62
     7
100
AcDbVertex
100
AcDb2dVertex
 10
8.897848238
 20
6.225966934
 30
0.0
  0
VERTEX
  5
4D3
330
2E1
100
AcDbEntity
  8
0
  6
CONTINUOUS
 62
     7
100
AcDbVertex
100
AcDb2dVertex
 10
8.900003443
 20
6.2481428596
 30
0.0
  0
VERTEX
  5
4D4
330
2E1
100
AcDbEntity
  8
0
  6
CONTINUOUS
 62
     7
100
AcDbVertex
100
AcDb2dVertex
 10
8.9038452769
 20
6.270967751
 30
0.0
  0
VERTEX
  5
4D5
330
2E1
100
AcDbEntity
  8
0
  6
CONTINUOUS
 62
     7
100
AcDbVertex
100
AcDb2dVertex
 10
8.9093400297
 20
6.2942413306
 30
0.0
  0
VERTEX
  5
4D6
330
2E1
100
AcDbEntity
  8
0
  6
CONTINUOUS
 62
     7
100
AcDbVertex
100
AcDb2dVertex
 10
8.9164394874
 20
6.3177593841
 30
0.0
  0
VERTEX
  5
4D7
330
2E1
100
AcDbEntity
  8
0
  6
CONTINUOUS
 62
     7
100
AcDbVertex
100
AcDb2dVertex
 10
8.9250813557
 20
6.3413155518
 30
0.0
  0
VERTEX
  5
4D8
330
2E1
100
AcDbEntity
  8
0
  6
CONTINUOUS
 62
     7
100
AcDbVertex
100
AcDb2dVertex
 10
8.9351898064
 20
6.3647031398
 30
0.0
  0
VERTEX
  5
4D9
330
2E1
100
AcDbEntity
  8
0
  6
CONTINUOUS
 62
     7
100
AcDbVertex
100
AcDb2dVertex
 10
8.9466761427
 20
6.3877169332
 30
0.0
  0
VERTEX
  5
4DA
330
2E1
100
AcDbEntity
  8
0
  6
CONTINUOUS
 62
     7
100
AcDbVertex
100
AcDb2dVertex
 10
8.9594395775
 20
6.410154997
 30
0.0
  0
VERTEX
  5
4DB
330
2E1
100
AcDbEntity
  8
0
  6
CONTINUOUS
 62
     7
100
AcDbVertex
100
AcDb2dVertex
 10
8.9733681179
 20
6.4318204481
 30
0.0
  0
VERTEX
  5
4DC
330
2E1
100
AcDbEntity
  8
0
  6
CONTINUOUS
 62
     7
100
AcDbVertex
100
AcDb2dVertex
 10
8.9883395476
 20
6.4525231825
 30
0.0
  0
VERTEX
  5
4DD
330
2E1
100
AcDbEntity
  8
0
  6
CONTINUOUS
 62
     7
100
AcDbVertex
100
AcDb2dVertex
 10
9.0042224996
 20
6.4720815438
 30
0.0
  0
VERTEX
  5
4DE
330
2E1
100
AcDbEntity
  8
0
  6
CONTINUOUS
 62
     7
100
AcDbVertex
100
AcDb2dVertex
 10
9.0208776085
 20
6.4903239167
 30
0.0
  0
VERTEX
  5
4DF
330
2E1
100
AcDbEntity
  8
0
  6
CONTINUOUS
 62
     7
100
AcDbVertex
100
AcDb2dVertex
 10
9.0381587339
 20
6.5070902332
 30
0.0
  0
VERTEX
  5
4E0
330
2E1
100
AcDbEntity
  8
0
  6
CONTINUOUS
 62
     7
100
AcDbVertex
100
AcDb2dVertex
 10
9.0559142421
 20
6.522233377
 30
0.0
  0
VERTEX
  5
4E1
330
2E1
100
AcDbEntity
  8
0
  6
CONTINUOUS
 62
     7
100
AcDbVertex
100
AcDb2dVertex
 10
9.0739883371
 20
6.5356204742
 30
0.0
  0
VERTEX
  5
4E2
330
2E1
100
AcDbEntity
  8
0
  6
CONTINUOUS
 62
     7
100
AcDbVertex
100
AcDb2dVertex
 10
9.0922224275
 20
6.5471340596
 30
0.0
  0
VERTEX
  5
4E3
330
2E1
100
AcDbEntity
  8
0
  6
CONTINUOUS
 62
     7
100
AcDbVertex
100
AcDb2dVertex
 10
9.110456518
 20
6.5566731069
 30
0.0
  0
VERTEX
  5
4E4
330
2E1
100
AcDbEntity
  8
0
  6
CONTINUOUS
 62
     7
100
AcDbVertex
100
AcDb2dVertex
 10
9.128530613
 20
6.5641539156
 30
0.0
  0
VERTEX
  5
4E5
330
2E1
100
AcDbEntity
  8
0
  6
CONTINUOUS
 62
     7
100
AcDbVertex
100
AcDb2dVertex
 10
9.1462861212
 20
6.5695108453
 30
0.0
  0
VERTEX
  5
4E6
330
2E1
100
AcDbEntity
  8
0
  6
CONTINUOUS
 62
     7
100
AcDbVertex
100
AcDb2dVertex
 10
9.1635672466
 20
6.5726968914
 30
0.0
  0
VERTEX
  5
4E7
330
2E1
100
AcDbEntity
  8
0
  6
CONTINUOUS
 62
     7
100
AcDbVertex
100
AcDb2dVertex
 10
9.1802223555
 20
6.573684098
 30
0.0
  0
VERTEX
  5
4E8
330
2E1
100
AcDbEntity
  8
0
  6
CONTINUOUS
 62
     7
100
AcDbVertex
100
AcDb2dVertex
 10
9.1961053075
 20
6.5724638027
 30
0.0
  0
VERTEX
  5
4E9
330
2E1
100
AcDbEntity
  8
0
  6
CONTINUOUS
 62
     7
100
AcDbVertex
100
AcDb2dVertex
 10
9.2110767372
 20
6.569046713
 30
0.0
  0
VERTEX
  5
4EA
330
2E1
100
AcDbEntity
  8
0
  6
CONTINUOUS
 62
     7
100
AcDbVertex
100
AcDb2dVertex
 10
9.2250052776
 20
6.5634628124
 30
0.0
  0
VERTEX
  5
4EB
330
2E1
100
AcDbEntity
  8
0
  6
CONTINUOUS
 62
     7
100
AcDbVertex
100
AcDb2dVertex
 10
9.2377687124
 20
6.5557610968
 30
0.0
  0
VERTEX
  5
4EC
330
2E1
100
AcDbEntity
  8
0
  6
CONTINUOUS
 62
     7
100
AcDbVertex
100
AcDb2dVertex
 10
9.2492550487
 20
6.546009145
 30
0.0
  0
VERTEX
  5
4ED
330
2E1
100
AcDbEntity
  8
0
  6
CONTINUOUS
 62
     7
100
AcDbVertex
100
AcDb2dVertex
 10
9.2593634994
 20
6.5342925258
 30
0.0
  0
VERTEX
  5
4EE
330
2E1
100
AcDbEntity
  8
0
  6
CONTINUOUS
 62
     7
100
AcDbVertex
100
AcDb2dVertex
 10
9.2680053677
 20
6.5207140468
 30
0.0
  0
VERTEX
  5
4EF
330
2E1
100
AcDbEntity
  8
0
  6
CONTINUOUS
 62
     7
100
AcDbVertex
100
AcDb2dVertex
 10
9.2751048254
 20
6.5053928527
 30
0.0
  0
VERTEX
  5
4F0
330
2E1
100
AcDbEntity
  8
0
  6
CONTINUOUS
 62
     7
100
AcDbVertex
100
AcDb2dVertex
 10
9.2805995782
 20
6.4884633795
 30
0.0
  0
VERTEX
  5
4F1
330
2E1
100
AcDbEntity
  8
0
  6
CONTINUOUS
 62
     7
100
AcDbVertex
100
AcDb2dVertex
 10
9.2844414121
 20
6.4700741753
 30
0.0
  0
VERTEX
  5
4F2
330
2E1
100
AcDbEntity
  8
0
  6
CONTINUOUS
 62
     7
100
AcDbVertex
100
AcDb2dVertex
 10
9.2865966171
 20
6.4503865964
 30
0.0
  0
SEQEND
  5
4F3
330
2E1
100
AcDbEntity
  8
0
  6
CONTINUOUS
 62
     7
  0
LINE
  5
2E2
330
1F
100
AcDbEntity
  8
0
  6
CONTINUOUS
 62
     7
100
AcDbLine
 10
8.5634674662
 20
6.0329330233
 30
0.0
 11
8.897848238
 21
6.225966934
 31
0.0
  0
LINE
  5
2E3
330
1F
100
AcDbEntity
  8
0
  6
CONTINUOUS
 62
     7
100
AcDbLine
 10
8.5634674662
 20
6.0007857472
 30
0.0
 11
8.897848238
 21
6.193819658
 31
0.0
  0
LINE
  5
2E4
330
1F
100
AcDbEntity
  8
0
  6
CONTINUOUS
 62
     7
100
AcDbLine
 10
8.8393528765
 20
7.251321194
 30
0.0
 11
8.8393528765
 21
7.2742648586
 31
0.0
  0
ARC
  5
2E5
330
1F
100
AcDbEntity
  8
0
  6
CONTINUOUS
 62
     7
100
AcDbCircle
 10
9.1830818437
 20
6.2660551849
 30
0.0
 40
1.140583071756497
100
AcDbArc
 50
141.2005411022
 51
177.4527646482
  0
SPLINE
  5
2E6
330
1F
100
AcDbEntity
  8
0
  6
CONTINUOUS
 62
     7
100
AcDbSpline
210
0.0
220
0.0
230
1.0
 70
     8
 71
     3
 72
     8
 73
     4
 74
     0
 42
0.00000001
 43
0.00000001
 40
0.0
 40
0.0
 40
0.0
 40
0.0
 40
0.0007676680295986
 40
0.0007676680295986
 40
0.0007676680295986
 40
0.0007676680295986
 10
8.29417540416339
 20
6.980740489998088
 30
0.0
 10
8.303404486958675
 20
6.987946512292602
 30
0.0
 10
8.31268718699547
 20
6.995069118018648
 30
0.0
 10
8.322014253816404
 20
7.00212147973103
 30
0.0
  0
LINE
  5
2E7
330
1F
100
AcDbEntity
  8
0
  6
CONTINUOUS
 62
     7
100
AcDbLine
 10
8.8978535096
 20
6.2260547599
 30
0.0
 11
8.8979314664
 21
6.2260097564
 31
0.0
  0
SPLINE
  5
2E8
330
1F
100
AcDbEntity
  8
0
  6
CONTINUOUS
 62
     7
100
AcDbSpline
210
0.0
220
0.0
230
1.0
 70
     8
 71
     3
 72
     8
 73
     4
 74
     0
 42
0.00000001
 43
0.00000001
 40
0.0
 40
0.0
 40
0.0
 40
0.0
 40
1.0
 40
1.0
 40
1.0
 40
1.0
 10
8.897848238001243
 20
6.193819657967787
 30
0.0
 10
8.897872006559304
 20
6.204549694286248
 30
0.0
 10
8.897899084850385
 20
6.215279727672969
 30
0.0
 10
8.8979314664274
 20
6.226009756362068
 30
0.0
  0
LINE
  5
2E9
330
1F
100
AcDbEntity
  8
0
  6
CONTINUOUS
 62
     7
100
AcDbLine
 10
8.1435556552
 20
6.211043046
 30
0.0
 11
8.1713990298
 21
6.227116684
 31
0.0
  0
SPLINE
  5
2EA
330
1F
100
AcDbEntity
  8
0
  6
CONTINUOUS
 62
     7
100
AcDbSpline
210
0.0
220
0.0
230
1.0
 70
     8
 71
     3
 72
     8
 73
     4
 74
     0
 42
0.00000001
 43
0.00000001
 40
0.0
 40
0.0
 40
0.0
 40
0.0
 40
1.0
 40
1.0
 40
1.0
 40
1.0
 10
9.230835689366137
 20
6.450338549624481
 30
0.0
 10
9.249422659103018
 20
6.450357243111939
 30
0.0
 10
9.268009635898169
 20
6.450372875076291
 30
0.0
 10
9.286596617098322
 20
6.450386596372197
 30
0.0
  0
ARC
  5
2EB
330
1F
100
AcDbEntity
  8
0
  6
CONTINUOUS
 62
     7
100
AcDbCircle
 10
9.1316211223
 20
6.454645616
 30
0.0
 40
0.0993080114504307
100
AcDbArc
 50
357.5142573764
 51
122.4911191563
  0
LINE
  5
2EC
330
1F
100
AcDbEntity
  8
0
  6
CONTINUOUS
 62
     7
100
AcDbLine
 10
9.2308356894
 20
6.4503385496
 30
0.0
 11
9.0782759494
 21
6.5384094129
 31
0.0
  0
LINE
  5
2ED
330
1F
100
AcDbEntity
  8
0
  6
CONTINUOUS
 62
     7
100
AcDbLine
 10
9.2308356894
 20
6.4181912736
 30
0.0
 11
9.0536961454
 21
6.5204517556
 31
0.0
  0
POLYLINE
  5
2EE
330
1F
100
AcDbEntity
  8
0
  6
CONTINUOUS
 62
     7
100
AcDb2dPolyline
 66
     1
 10
0.0
 20
0.0
 30
0.0
  0
VERTEX
  5
4F4
330
2EE
100
AcDbEntity
  8
0
  6
CONTINUOUS
 62
     7
100
AcDbVertex
100
AcDb2dVertex
 10
8.8979314664
 20
6.2260097564
 30
0.0
  0
VERTEX
  5
4F5
330
2EE
100
AcDbEntity
  8
0
  6
CONTINUOUS
 62
     7
100
AcDbVertex
100
AcDb2dVertex
 10
8.9002317165
 20
6.207740106
 30
0.0
  0
VERTEX
  5
4F6
330
2EE
100
AcDbEntity
  8
0
  6
CONTINUOUS
 62
     7
100
AcDbVertex
100
AcDb2dVertex
 10
8.9042576646
 20
6.1908416847
 30
0.0
  0
VERTEX
  5
4F7
330
2EE
100
AcDbEntity
  8
0
  6
CONTINUOUS
 62
     7
100
AcDbVertex
100
AcDb2dVertex
 10
8.9099669867
 20
6.1754921422
 30
0.0
  0
VERTEX
  5
4F8
330
2EE
100
AcDbEntity
  8
0
  6
CONTINUOUS
 62
     7
100
AcDbVertex
100
AcDb2dVertex
 10
8.9172996618
 20
6.1618528454
 30
0.0
  0
VERTEX
  5
4F9
330
2EE
100
AcDbEntity
  8
0
  6
CONTINUOUS
 62
     7
100
AcDbVertex
100
AcDb2dVertex
 10
8.9261786028
 20
6.1500671819
 30
0.0
  0
VERTEX
  5
4FA
330
2EE
100
AcDbEntity
  8
0
  6
CONTINUOUS
 62
     7
100
AcDbVertex
100
AcDb2dVertex
 10
8.936510467
 20
6.140259052
 30
0.0
  0
VERTEX
  5
4FB
330
2EE
100
AcDbEntity
  8
0
  6
CONTINUOUS
 62
     7
100
AcDbVertex
100
AcDb2dVertex
 10
8.9481866376
 20
6.1325315669
 30
0.0
  0
VERTEX
  5
4FC
330
2EE
100
AcDbEntity
  8
0
  6
CONTINUOUS
 62
     7
100
AcDbVertex
100
AcDb2dVertex
 10
8.9610843649
 20
6.1269659641
 30
0.0
  0
VERTEX
  5
4FD
330
2EE
100
AcDbEntity
  8
0
  6
CONTINUOUS
 62
     7
100
AcDbVertex
100
AcDb2dVertex
 10
8.9750680578
 20
6.1236207538
 30
0.0
  0
VERTEX
  5
4FE
330
2EE
100
AcDbEntity
  8
0
  6
CONTINUOUS
 62
     7
100
AcDbVertex
100
AcDb2dVertex
 10
8.9899907081
 20
6.1225311035
 30
0.0
  0
VERTEX
  5
4FF
330
2EE
100
AcDbEntity
  8
0
  6
CONTINUOUS
 62
     7
100
AcDbVertex
100
AcDb2dVertex
 10
9.0056954369
 20
6.1237084686
 30
0.0
  0
VERTEX
  5
500
330
2EE
100
AcDbEntity
  8
0
  6
CONTINUOUS
 62
     7
100
AcDbVertex
100
AcDb2dVertex
 10
9.0220171431
 20
6.1271404716
 30
0.0
  0
VERTEX
  5
501
330
2EE
100
AcDbEntity
  8
0
  6
CONTINUOUS
 62
     7
100
AcDbVertex
100
AcDb2dVertex
 10
9.0387842399
 20
6.1327910325
 30
0.0
  0
VERTEX
  5
502
330
2EE
100
AcDbEntity
  8
0
  6
CONTINUOUS
 62
     7
100
AcDbVertex
100
AcDb2dVertex
 10
9.0558204577
 20
6.1406007481
 30
0.0
  0
VERTEX
  5
503
330
2EE
100
AcDbEntity
  8
0
  6
CONTINUOUS
 62
     7
100
AcDbVertex
100
AcDb2dVertex
 10
9.0729466981
 20
6.1504875162
 30
0.0
  0
VERTEX
  5
504
330
2EE
100
AcDbEntity
  8
0
  6
CONTINUOUS
 62
     7
100
AcDbVertex
100
AcDb2dVertex
 10
9.0899829159
 20
6.1623473991
 30
0.0
  0
VERTEX
  5
505
330
2EE
100
AcDbEntity
  8
0
  6
CONTINUOUS
 62
     7
100
AcDbVertex
100
AcDb2dVertex
 10
9.1067500127
 20
6.176055716
 30
0.0
  0
VERTEX
  5
506
330
2EE
100
AcDbEntity
  8
0
  6
CONTINUOUS
 62
     7
100
AcDbVertex
100
AcDb2dVertex
 10
9.1230717189
 20
6.1914683539
 30
0.0
  0
VERTEX
  5
507
330
2EE
100
AcDbEntity
  8
0
  6
CONTINUOUS
 62
     7
100
AcDbVertex
100
AcDb2dVertex
 10
9.1387764477
 20
6.2084232827
 30
0.0
  0
VERTEX
  5
508
330
2EE
100
AcDbEntity
  8
0
  6
CONTINUOUS
 62
     7
100
AcDbVertex
100
AcDb2dVertex
 10
9.153699098
 20
6.2267422583
 30
0.0
  0
VERTEX
  5
509
330
2EE
100
AcDbEntity
  8
0
  6
CONTINUOUS
 62
     7
100
AcDbVertex
100
AcDb2dVertex
 10
9.1676827908
 20
6.2462326967
 30
0.0
  0
VERTEX
  5
50A
330
2EE
100
AcDbEntity
  8
0
  6
CONTINUOUS
 62
     7
100
AcDbVertex
100
AcDb2dVertex
 10
9.1805805182
 20
6.2666896986
 30
0.0
  0
VERTEX
  5
50B
330
2EE
100
AcDbEntity
  8
0
  6
CONTINUOUS
 62
     7
100
AcDbVertex
100
AcDb2dVertex
 10
9.1922566887
 20
6.2878982032
 30
0.0
  0
VERTEX
  5
50C
330
2EE
100
AcDbEntity
  8
0
  6
CONTINUOUS
 62
     7
100
AcDbVertex
100
AcDb2dVertex
 10
9.202588553
 20
6.3096352496
 30
0.0
  0
VERTEX
  5
50D
330
2EE
100
AcDbEntity
  8
0
  6
CONTINUOUS
 62
     7
100
AcDbVertex
100
AcDb2dVertex
 10
9.211467494
 20
6.3316723202
 30
0.0
  0
VERTEX
  5
50E
330
2EE
100
AcDbEntity
  8
0
  6
CONTINUOUS
 62
     7
100
AcDbVertex
100
AcDb2dVertex
 10
9.2188001691
 20
6.3537777434
 30
0.0
  0
VERTEX
  5
50F
330
2EE
100
AcDbEntity
  8
0
  6
CONTINUOUS
 62
     7
100
AcDbVertex
100
AcDb2dVertex
 10
9.2245094912
 20
6.3757191289
 30
0.0
  0
VERTEX
  5
510
330
2EE
100
AcDbEntity
  8
0
  6
CONTINUOUS
 62
     7
100
AcDbVertex
100
AcDb2dVertex
 10
9.2285354393
 20
6.3972658111
 30
0.0
  0
VERTEX
  5
511
330
2EE
100
AcDbEntity
  8
0
  6
CONTINUOUS
 62
     7
100
AcDbVertex
100
AcDb2dVertex
 10
9.2308356894
 20
6.4181912736
 30
0.0
  0
SEQEND
  5
512
330
2EE
100
AcDbEntity
  8
0
  6
CONTINUOUS
 62
     7
  0
LINE
  5
2EF
330
1F
100
AcDbEntity
  8
0
  6
CONTINUOUS
 62
     7
100
AcDbLine
 10
8.1920996221
 20
7.0771196002
 30
0.0
 11
8.1682063181
 21
7.0587688963
 31
0.0
  0
ARC
  5
2F0
330
1F
100
AcDbEntity
  8
0
  6
CONTINUOUS
 62
     7
100
AcDbCircle
 10
8.9494789493
 20
6.4688789158
 30
0.0
 40
0.9802158431524999
100
AcDbArc
 50
121.1410693431
 51
142.9549418125
  0
SPLINE
  5
2F1
330
1F
100
AcDbEntity
  8
0
  6
CONTINUOUS
 62
     7
100
AcDbSpline
210
0.0
220
0.0
230
1.0
 70
     8
 71
     3
 72
     8
 73
     4
 74
     0
 42
0.00000001
 43
0.00000001
 40
0.0
 40
0.0
 40
0.0
 40
0.0
 40
1.0
 40
1.0
 40
1.0
 40
1.0
 10
9.230835689366137
 20
6.418191273565987
 30
0.0
 10
9.249422659103018
 20
6.418209967053444
 30
0.0
 10
9.268009635898169
 20
6.418225599017797
 30
0.0
 10
9.286596617098322
 20
6.418239320313703
 30
0.0
  0
POLYLINE
  5
2F2
330
1F
100
AcDbEntity
  8
0
  6
CONTINUOUS
 62
     7
100
AcDb2dPolyline
 66
     1
 10
0.0
 20
0.0
 30
0.0
  0
VERTEX
  5
513
330
2F2
100
AcDbEntity
  8
0
  6
CONTINUOUS
 62
     7
100
AcDbVertex
100
AcDb2dVertex
 10
9.3729308282
 20
6.4680789995
 30
0.0
  0
VERTEX
  5
514
330
2F2
100
AcDbEntity
  8
0
  6
CONTINUOUS
 62
     7
100
AcDbVertex
100
AcDb2dVertex
 10
9.3465215042
 20
6.4823607118
 30
0.0
  0
VERTEX
  5
515
330
2F2
100
AcDbEntity
  8
0
  6
CONTINUOUS
 62
     7
100
AcDbVertex
100
AcDb2dVertex
 10
9.344097521
 20
6.4835811616
 30
0.0
  0
SEQEND
  5
516
330
2F2
100
AcDbEntity
  8
0
  6
CONTINUOUS
 62
     7
  0
LINE
  5
2F3
330
1F
100
AcDbEntity
  8
0
  6
CONTINUOUS
 62
     7
100
AcDbLine
 10
8.7164015957
 20
7.4277226739
 30
0.0
 11
8.8463162274
 21
7.3527245534
 31
0.0
  0
POLYLINE
  5
2F4
330
1F
100
AcDbEntity
  8
0
  6
CONTINUOUS
 62
     7
100
AcDb2dPolyline
 66
     1
 10
0.0
 20
0.0
 30
0.0
  0
VERTEX
  5
517
330
2F4
100
AcDbEntity
  8
0
  6
CONTINUOUS
 62
     7
100
AcDbVertex
100
AcDb2dVertex
 10
8.1190432757
 20
7.0871501166
 30
0.0
  0
VERTEX
  5
518
330
2F4
100
AcDbEntity
  8
0
  6
CONTINUOUS
 62
     7
100
AcDbVertex
100
AcDb2dVertex
 10
8.1462133275
 20
7.1212907533
 30
0.0
  0
VERTEX
  5
519
330
2F4
100
AcDbEntity
  8
0
  6
CONTINUOUS
 62
     7
100
AcDbVertex
100
AcDb2dVertex
 10
8.1742443124
 20
7.1541232254
 30
0.0
  0
VERTEX
  5
51A
330
2F4
100
AcDbEntity
  8
0
  6
CONTINUOUS
 62
     7
100
AcDbVertex
100
AcDb2dVertex
 10
8.2030463829
 20
7.1855422952
 30
0.0
  0
VERTEX
  5
51B
330
2F4
100
AcDbEntity
  8
0
  6
CONTINUOUS
 62
     7
100
AcDbVertex
100
AcDb2dVertex
 10
8.2325272197
 20
7.2154472553
 30
0.0
  0
VERTEX
  5
51C
330
2F4
100
AcDbEntity
  8
0
  6
CONTINUOUS
 62
     7
100
AcDbVertex
100
AcDb2dVertex
 10
8.2625923281
 20
7.2437422514
 30
0.0
  0
VERTEX
  5
51D
330
2F4
100
AcDbEntity
  8
0
  6
CONTINUOUS
 62
     7
100
AcDbVertex
100
AcDb2dVertex
 10
8.2931453405
 20
7.2703365897
 30
0.0
  0
VERTEX
  5
51E
330
2F4
100
AcDbEntity
  8
0
  6
CONTINUOUS
 62
     7
100
AcDbVertex
100
AcDb2dVertex
 10
8.3240883254
 20
7.2951450274
 30
0.0
  0
VERTEX
  5
51F
330
2F4
100
AcDbEntity
  8
0
  6
CONTINUOUS
 62
     7
100
AcDbVertex
100
AcDb2dVertex
 10
8.3553221015
 20
7.3180880463
 30
0.0
  0
VERTEX
  5
520
330
2F4
100
AcDbEntity
  8
0
  6
CONTINUOUS
 62
     7
100
AcDbVertex
100
AcDb2dVertex
 10
8.3867465553
 20
7.3390921071
 30
0.0
  0
VERTEX
  5
521
330
2F4
100
AcDbEntity
  8
0
  6
CONTINUOUS
 62
     7
100
AcDbVertex
100
AcDb2dVertex
 10
8.418260962
 20
7.3580898856
 30
0.0
  0
VERTEX
  5
522
330
2F4
100
AcDbEntity
  8
0
  6
CONTINUOUS
 62
     7
100
AcDbVertex
100
AcDb2dVertex
 10
8.4497643087
 20
7.3750204883
 30
0.0
  0
VERTEX
  5
523
330
2F4
100
AcDbEntity
  8
0
  6
CONTINUOUS
 62
     7
100
AcDbVertex
100
AcDb2dVertex
 10
8.4811556179
 20
7.3898296477
 30
0.0
  0
VERTEX
  5
524
330
2F4
100
AcDbEntity
  8
0
  6
CONTINUOUS
 62
     7
100
AcDbVertex
100
AcDb2dVertex
 10
8.5123342711
 20
7.4024698959
 30
0.0
  0
VERTEX
  5
525
330
2F4
100
AcDbEntity
  8
0
  6
CONTINUOUS
 62
     7
100
AcDbVertex
100
AcDb2dVertex
 10
8.5432003315
 20
7.4129007173
 30
0.0
  0
VERTEX
  5
526
330
2F4
100
AcDbEntity
  8
0
  6
CONTINUOUS
 62
     7
100
AcDbVertex
100
AcDb2dVertex
 10
8.5736548643
 20
7.4210886779
 30
0.0
  0
VERTEX
  5
527
330
2F4
100
AcDbEntity
  8
0
  6
CONTINUOUS
 62
     7
100
AcDbVertex
100
AcDb2dVertex
 10
8.6036002536
 20
7.427007533
 30
0.0
  0
VERTEX
  5
528
330
2F4
100
AcDbEntity
  8
0
  6
CONTINUOUS
 62
     7
100
AcDbVertex
100
AcDb2dVertex
 10
8.6329405157
 20
7.4306383109
 30
0.0
  0
VERTEX
  5
529
330
2F4
100
AcDbEntity
  8
0
  6
CONTINUOUS
 62
     7
100
AcDbVertex
100
AcDb2dVertex
 10
8.6615816063
 20
7.4319693738
 30
0.0
  0
VERTEX
  5
52A
330
2F4
100
AcDbEntity
  8
0
  6
CONTINUOUS
 62
     7
100
AcDbVertex
100
AcDb2dVertex
 10
8.6894317222
 20
7.4309964553
 30
0.0
  0
VERTEX
  5
52B
330
2F4
100
AcDbEntity
  8
0
  6
CONTINUOUS
 62
     7
100
AcDbVertex
100
AcDb2dVertex
 10
8.7164015957
 20
7.4277226739
 30
0.0
  0
SEQEND
  5
52C
330
2F4
100
AcDbEntity
  8
0
  6
CONTINUOUS
 62
     7
  0
LINE
  5
2F5
330
1F
100
AcDbEntity
  8
0
  6
CONTINUOUS
 62
     7
100
AcDbLine
 10
8.2489579074
 20
7.0121519961
 30
0.0
 11
8.1190432757
 21
7.0871501166
 31
0.0
  0
POLYLINE
  5
2F6
330
1F
100
AcDbEntity
  8
0
  6
CONTINUOUS
 62
     7
100
AcDb2dPolyline
 66
     1
 10
0.0
 20
0.0
 30
0.0
  0
VERTEX
  5
52D
330
2F6
100
AcDbEntity
  8
0
  6
CONTINUOUS
 62
     7
100
AcDbVertex
100
AcDb2dVertex
 10
8.1798803533
 20
5.9418740503
 30
0.0
  0
VERTEX
  5
52E
330
2F6
100
AcDbEntity
  8
0
  6
CONTINUOUS
 62
     7
100
AcDbVertex
100
AcDb2dVertex
 10
8.1693569896
 20
5.9466130275
 30
0.0
  0
VERTEX
  5
52F
330
2F6
100
AcDbEntity
  8
0
  6
CONTINUOUS
 62
     7
100
AcDbVertex
100
AcDb2dVertex
 10
8.1470035913
 20
5.9586266172
 30
0.0
  0
VERTEX
  5
530
330
2F6
100
AcDbEntity
  8
0
  6
CONTINUOUS
 62
     7
100
AcDbVertex
100
AcDb2dVertex
 10
8.1258886458
 20
5.9727562058
 30
0.0
  0
VERTEX
  5
531
330
2F6
100
AcDbEntity
  8
0
  6
CONTINUOUS
 62
     7
100
AcDbVertex
100
AcDb2dVertex
 10
8.1060779021
 20
5.9889577955
 30
0.0
  0
VERTEX
  5
532
330
2F6
100
AcDbEntity
  8
0
  6
CONTINUOUS
 62
     7
100
AcDbVertex
100
AcDb2dVertex
 10
8.0876330484
 20
6.0071809369
 30
0.0
  0
VERTEX
  5
533
330
2F6
100
AcDbEntity
  8
0
  6
CONTINUOUS
 62
     7
100
AcDbVertex
100
AcDb2dVertex
 10
8.0706115196
 20
6.0273688853
 30
0.0
  0
VERTEX
  5
534
330
2F6
100
AcDbEntity
  8
0
  6
CONTINUOUS
 62
     7
100
AcDbVertex
100
AcDb2dVertex
 10
8.0550663183
 20
6.0494587781
 30
0.0
  0
VERTEX
  5
535
330
2F6
100
AcDbEntity
  8
0
  6
CONTINUOUS
 62
     7
100
AcDbVertex
100
AcDb2dVertex
 10
8.0410458504
 20
6.0733818304
 30
0.0
  0
VERTEX
  5
536
330
2F6
100
AcDbEntity
  8
0
  6
CONTINUOUS
 62
     7
100
AcDbVertex
100
AcDb2dVertex
 10
8.0285937738
 20
6.0990635488
 30
0.0
  0
VERTEX
  5
537
330
2F6
100
AcDbEntity
  8
0
  6
CONTINUOUS
 62
     7
100
AcDbVertex
100
AcDb2dVertex
 10
8.0177488626
 20
6.1264239638
 30
0.0
  0
VERTEX
  5
538
330
2F6
100
AcDbEntity
  8
0
  6
CONTINUOUS
 62
     7
100
AcDbVertex
100
AcDb2dVertex
 10
8.0085448865
 20
6.1553778787
 30
0.0
  0
VERTEX
  5
539
330
2F6
100
AcDbEntity
  8
0
  6
CONTINUOUS
 62
     7
100
AcDbVertex
100
AcDb2dVertex
 10
8.0010105054
 20
6.1858351348
 30
0.0
  0
VERTEX
  5
53A
330
2F6
100
AcDbEntity
  8
0
  6
CONTINUOUS
 62
     7
100
AcDbVertex
100
AcDb2dVertex
 10
7.9951691804
 20
6.2177008921
 30
0.0
  0
VERTEX
  5
53B
330
2F6
100
AcDbEntity
  8
0
  6
CONTINUOUS
 62
     7
100
AcDbVertex
100
AcDb2dVertex
 10
7.9910391006
 20
6.2508759248
 30
0.0
  0
VERTEX
  5
53C
330
2F6
100
AcDbEntity
  8
0
  6
CONTINUOUS
 62
     7
100
AcDbVertex
100
AcDb2dVertex
 10
7.9886331266
 20
6.2852569302
 30
0.0
  0
VERTEX
  5
53D
330
2F6
100
AcDbEntity
  8
0
  6
CONTINUOUS
 62
     7
100
AcDbVertex
100
AcDb2dVertex
 10
7.9879587502
 20
6.3207368504
 30
0.0
  0
VERTEX
  5
53E
330
2F6
100
AcDbEntity
  8
0
  6
CONTINUOUS
 62
     7
100
AcDbVertex
100
AcDb2dVertex
 10
7.9890180714
 20
6.3572052054
 30
0.0
  0
VERTEX
  5
53F
330
2F6
100
AcDbEntity
  8
0
  6
CONTINUOUS
 62
     7
100
AcDbVertex
100
AcDb2dVertex
 10
7.9918077916
 20
6.3945484377
 30
0.0
  0
VERTEX
  5
540
330
2F6
100
AcDbEntity
  8
0
  6
CONTINUOUS
 62
     7
100
AcDbVertex
100
AcDb2dVertex
 10
7.9963192239
 20
6.4326502653
 30
0.0
  0
VERTEX
  5
541
330
2F6
100
AcDbEntity
  8
0
  6
CONTINUOUS
 62
     7
100
AcDbVertex
100
AcDb2dVertex
 10
8.0025383204
 20
6.471392044
 30
0.0
  0
VERTEX
  5
542
330
2F6
100
AcDbEntity
  8
0
  6
CONTINUOUS
 62
     7
100
AcDbVertex
100
AcDb2dVertex
 10
8.0104457156
 20
6.5106531369
 30
0.0
  0
VERTEX
  5
543
330
2F6
100
AcDbEntity
  8
0
  6
CONTINUOUS
 62
     7
100
AcDbVertex
100
AcDb2dVertex
 10
8.0200167868
 20
6.5503112903
 30
0.0
  0
VERTEX
  5
544
330
2F6
100
AcDbEntity
  8
0
  6
CONTINUOUS
 62
     7
100
AcDbVertex
100
AcDb2dVertex
 10
8.0312217311
 20
6.5902430138
 30
0.0
  0
VERTEX
  5
545
330
2F6
100
AcDbEntity
  8
0
  6
CONTINUOUS
 62
     7
100
AcDbVertex
100
AcDb2dVertex
 10
8.0440256577
 20
6.6303239651
 30
0.0
  0
VERTEX
  5
546
330
2F6
100
AcDbEntity
  8
0
  6
CONTINUOUS
 62
     7
100
AcDbVertex
100
AcDb2dVertex
 10
8.0583886969
 20
6.6704293375
 30
0.0
  0
VERTEX
  5
547
330
2F6
100
AcDbEntity
  8
0
  6
CONTINUOUS
 62
     7
100
AcDbVertex
100
AcDb2dVertex
 10
8.0742661239
 20
6.710434248
 30
0.0
  0
VERTEX
  5
548
330
2F6
100
AcDbEntity
  8
0
  6
CONTINUOUS
 62
     7
100
AcDbVertex
100
AcDb2dVertex
 10
8.0916084986
 20
6.7502141267
 30
0.0
  0
VERTEX
  5
549
330
2F6
100
AcDbEntity
  8
0
  6
CONTINUOUS
 62
     7
100
AcDbVertex
100
AcDb2dVertex
 10
8.1103618191
 20
6.7896451041
 30
0.0
  0
VERTEX
  5
54A
330
2F6
100
AcDbEntity
  8
0
  6
CONTINUOUS
 62
     7
100
AcDbVertex
100
AcDb2dVertex
 10
8.13046769
 20
6.8286043973
 30
0.0
  0
VERTEX
  5
54B
330
2F6
100
AcDbEntity
  8
0
  6
CONTINUOUS
 62
     7
100
AcDbVertex
100
AcDb2dVertex
 10
8.1518635043
 20
6.8669706921
 30
0.0
  0
VERTEX
  5
54C
330
2F6
100
AcDbEntity
  8
0
  6
CONTINUOUS
 62
     7
100
AcDbVertex
100
AcDb2dVertex
 10
8.1744826381
 20
6.9046245211
 30
0.0
  0
VERTEX
  5
54D
330
2F6
100
AcDbEntity
  8
0
  6
CONTINUOUS
 62
     7
100
AcDbVertex
100
AcDb2dVertex
 10
8.1982546584
 20
6.9414486349
 30
0.0
  0
VERTEX
  5
54E
330
2F6
100
AcDbEntity
  8
0
  6
CONTINUOUS
 62
     7
100
AcDbVertex
100
AcDb2dVertex
 10
8.2231055423
 20
6.9773283682
 30
0.0
  0
VERTEX
  5
54F
330
2F6
100
AcDbEntity
  8
0
  6
CONTINUOUS
 62
     7
100
AcDbVertex
100
AcDb2dVertex
 10
8.2489579074
 20
7.0121519961
 30
0.0
  0
SEQEND
  5
550
330
2F6
100
AcDbEntity
  8
0
  6
CONTINUOUS
 62
     7
  0
ARC
  5
2F7
330
1F
100
AcDbEntity
  8
0
  6
CONTINUOUS
 62
     7
100
AcDbCircle
 10
8.8035038623
 20
7.0859213019
 30
0.0
 40
0.2702163459771957
100
AcDbArc
 50
56.6471182656
 51
80.8837932315
  0
LINE
  5
2F8
330
1F
100
AcDbEntity
  8
0
  6
CONTINUOUS
 62
     7
100
AcDbLine
 10
7.4642496515
 20
6.373280241
 30
0.0
 11
7.3343350198
 21
6.4482783616
 31
0.0
  0
POLYLINE
  5
2F9
330
1F
100
AcDbEntity
  8
0
  6
CONTINUOUS
 62
     7
100
AcDb2dPolyline
 66
     1
 10
0.0
 20
0.0
 30
0.0
  0
VERTEX
  5
551
330
2F9
100
AcDbEntity
  8
0
  6
CONTINUOUS
 62
     7
100
AcDbVertex
100
AcDb2dVertex
 10
7.460547541
 20
7.0609503978
 30
0.0
  0
VERTEX
  5
552
330
2F9
100
AcDbEntity
  8
0
  6
CONTINUOUS
 62
     7
100
AcDbVertex
100
AcDb2dVertex
 10
7.4445653021
 20
7.0203490747
 30
0.0
  0
VERTEX
  5
553
330
2F9
100
AcDbEntity
  8
0
  6
CONTINUOUS
 62
     7
100
AcDbVertex
100
AcDb2dVertex
 10
7.4301463021
 20
6.9796560164
 30
0.0
  0
VERTEX
  5
554
330
2F9
100
AcDbEntity
  8
0
  6
CONTINUOUS
 62
     7
100
AcDbVertex
100
AcDb2dVertex
 10
7.4173367582
 20
6.9390016563
 30
0.0
  0
VERTEX
  5
555
330
2F9
100
AcDbEntity
  8
0
  6
CONTINUOUS
 62
     7
100
AcDbVertex
100
AcDb2dVertex
 10
7.4061777289
 20
6.8985163035
 30
0.0
  0
VERTEX
  5
556
330
2F9
100
AcDbEntity
  8
0
  6
CONTINUOUS
 62
     7
100
AcDbVertex
100
AcDb2dVertex
 10
7.396704982
 20
6.8583297256
 30
0.0
  0
VERTEX
  5
557
330
2F9
100
AcDbEntity
  8
0
  6
CONTINUOUS
 62
     7
100
AcDbVertex
100
AcDb2dVertex
 10
7.3889488806
 20
6.8185707326
 30
0.0
  0
VERTEX
  5
558
330
2F9
100
AcDbEntity
  8
0
  6
CONTINUOUS
 62
     7
100
AcDbVertex
100
AcDb2dVertex
 10
7.3829342851
 20
6.7793667636
 30
0.0
  0
VERTEX
  5
559
330
2F9
100
AcDbEntity
  8
0
  6
CONTINUOUS
 62
     7
100
AcDbVertex
100
AcDb2dVertex
 10
7.3786804743
 20
6.7408434791
 30
0.0
  0
VERTEX
  5
55A
330
2F9
100
AcDbEntity
  8
0
  6
CONTINUOUS
 62
     7
100
AcDbVertex
100
AcDb2dVertex
 10
7.3762010828
 20
6.7031243575
 30
0.0
  0
VERTEX
  5
55B
330
2F9
100
AcDbEntity
  8
0
  6
CONTINUOUS
 62
     7
100
AcDbVertex
100
AcDb2dVertex
 10
7.3755040578
 20
6.6663302998
 30
0.0
  0
VERTEX
  5
55C
330
2F9
100
AcDbEntity
  8
0
  6
CONTINUOUS
 62
     7
100
AcDbVertex
100
AcDb2dVertex
 10
7.3765916335
 20
6.6305792419
 30
0.0
  0
VERTEX
  5
55D
330
2F9
100
AcDbEntity
  8
0
  6
CONTINUOUS
 62
     7
100
AcDbVertex
100
AcDb2dVertex
 10
7.3794603238
 20
6.5959857764
 30
0.0
  0
VERTEX
  5
55E
330
2F9
100
AcDbEntity
  8
0
  6
CONTINUOUS
 62
     7
100
AcDbVertex
100
AcDb2dVertex
 10
7.3841009338
 20
6.5626607856
 30
0.0
  0
VERTEX
  5
55F
330
2F9
100
AcDbEntity
  8
0
  6
CONTINUOUS
 62
     7
100
AcDbVertex
100
AcDb2dVertex
 10
7.390498589
 20
6.530711086
 30
0.0
  0
VERTEX
  5
560
330
2F9
100
AcDbEntity
  8
0
  6
CONTINUOUS
 62
     7
100
AcDbVertex
100
AcDb2dVertex
 10
7.3986327829
 20
6.5002390858
 30
0.0
  0
VERTEX
  5
561
330
2F9
100
AcDbEntity
  8
0
  6
CONTINUOUS
 62
     7
100
AcDbVertex
100
AcDb2dVertex
 10
7.408477443
 20
6.4713424568
 30
0.0
  0
VERTEX
  5
562
330
2F9
100
AcDbEntity
  8
0
  6
CONTINUOUS
 62
     7
100
AcDbVertex
100
AcDb2dVertex
 10
7.4200010144
 20
6.4441138213
 30
0.0
  0
VERTEX
  5
563
330
2F9
100
AcDbEntity
  8
0
  6
CONTINUOUS
 62
     7
100
AcDbVertex
100
AcDb2dVertex
 10
7.4331665606
 20
6.418640455
 30
0.0
  0
VERTEX
  5
564
330
2F9
100
AcDbEntity
  8
0
  6
CONTINUOUS
 62
     7
100
AcDbVertex
100
AcDb2dVertex
 10
7.447931882
 20
6.3950040076
 30
0.0
  0
VERTEX
  5
565
330
2F9
100
AcDbEntity
  8
0
  6
CONTINUOUS
 62
     7
100
AcDbVertex
100
AcDb2dVertex
 10
7.4642496515
 20
6.373280241
 30
0.0
  0
SEQEND
  5
566
330
2F9
100
AcDbEntity
  8
0
  6
CONTINUOUS
 62
     7
  0
LINE
  5
2FA
330
1F
100
AcDbEntity
  8
0
  6
CONTINUOUS
 62
     7
100
AcDbLine
 10
7.3306329093
 20
7.1359485183
 30
0.0
 11
7.460547541
 21
7.0609503978
 31
0.0
  0
POLYLINE
  5
2FB
330
1F
100
AcDbEntity
  8
0
  6
CONTINUOUS
 62
     7
100
AcDb2dPolyline
 66
     1
 10
0.0
 20
0.0
 30
0.0
  0
VERTEX
  5
567
330
2FB
100
AcDbEntity
  8
0
  6
CONTINUOUS
 62
     7
100
AcDbVertex
100
AcDb2dVertex
 10
8.1960245193
 20
7.7486555617
 30
0.0
  0
VERTEX
  5
568
330
2FB
100
AcDbEntity
  8
0
  6
CONTINUOUS
 62
     7
100
AcDbVertex
100
AcDb2dVertex
 10
8.191994355
 20
7.7509349777
 30
0.0
  0
VERTEX
  5
569
330
2FB
100
AcDbEntity
  8
0
  6
CONTINUOUS
 62
     7
100
AcDbVertex
100
AcDb2dVertex
 10
8.1692026782
 20
7.7621603825
 30
0.0
  0
VERTEX
  5
56A
330
2FB
100
AcDbEntity
  8
0
  6
CONTINUOUS
 62
     7
100
AcDbVertex
100
AcDb2dVertex
 10
8.1452686879
 20
7.7712202996
 30
0.0
  0
VERTEX
  5
56B
330
2FB
100
AcDbEntity
  8
0
  6
CONTINUOUS
 62
     7
100
AcDbVertex
100
AcDb2dVertex
 10
8.1202669114
 20
7.7780865174
 30
0.0
  0
VERTEX
  5
56C
330
2FB
100
AcDbEntity
  8
0
  6
CONTINUOUS
 62
     7
100
AcDbVertex
100
AcDb2dVertex
 10
8.0942752009
 20
7.7827376557
 30
0.0
  0
VERTEX
  5
56D
330
2FB
100
AcDbEntity
  8
0
  6
CONTINUOUS
 62
     7
100
AcDbVertex
100
AcDb2dVertex
 10
8.0673744913
 20
7.7851592312
 30
0.0
  0
VERTEX
  5
56E
330
2FB
100
AcDbEntity
  8
0
  6
CONTINUOUS
 62
     7
100
AcDbVertex
100
AcDb2dVertex
 10
8.0396485479
 20
7.7853437036
 30
0.0
  0
VERTEX
  5
56F
330
2FB
100
AcDbEntity
  8
0
  6
CONTINUOUS
 62
     7
100
AcDbVertex
100
AcDb2dVertex
 10
8.0111837057
 20
7.7832904984
 30
0.0
  0
VERTEX
  5
570
330
2FB
100
AcDbEntity
  8
0
  6
CONTINUOUS
 62
     7
100
AcDbVertex
100
AcDb2dVertex
 10
7.9820686004
 20
7.779006009
 30
0.0
  0
VERTEX
  5
571
330
2FB
100
AcDbEntity
  8
0
  6
CONTINUOUS
 62
     7
100
AcDbVertex
100
AcDb2dVertex
 10
7.9523938926
 20
7.7725035768
 30
0.0
  0
VERTEX
  5
572
330
2FB
100
AcDbEntity
  8
0
  6
CONTINUOUS
 62
     7
100
AcDbVertex
100
AcDb2dVertex
 10
7.9222519856
 20
7.7638034495
 30
0.0
  0
VERTEX
  5
573
330
2FB
100
AcDbEntity
  8
0
  6
CONTINUOUS
 62
     7
100
AcDbVertex
100
AcDb2dVertex
 10
7.8917367373
 20
7.7529327182
 30
0.0
  0
VERTEX
  5
574
330
2FB
100
AcDbEntity
  8
0
  6
CONTINUOUS
 62
     7
100
AcDbVertex
100
AcDb2dVertex
 10
7.8609431682
 20
7.7399252328
 30
0.0
  0
VERTEX
  5
575
330
2FB
100
AcDbEntity
  8
0
  6
CONTINUOUS
 62
     7
100
AcDbVertex
100
AcDb2dVertex
 10
7.8299671654
 20
7.724821497
 30
0.0
  0
VERTEX
  5
576
330
2FB
100
AcDbEntity
  8
0
  6
CONTINUOUS
 62
     7
100
AcDbVertex
100
AcDb2dVertex
 10
7.7989051843
 20
7.707668542
 30
0.0
  0
VERTEX
  5
577
330
2FB
100
AcDbEntity
  8
0
  6
CONTINUOUS
 62
     7
100
AcDbVertex
100
AcDb2dVertex
 10
7.7678539477
 20
7.6885197796
 30
0.0
  0
VERTEX
  5
578
330
2FB
100
AcDbEntity
  8
0
  6
CONTINUOUS
 62
     7
100
AcDbVertex
100
AcDb2dVertex
 10
7.7369101451
 20
7.6674348367
 30
0.0
  0
VERTEX
  5
579
330
2FB
100
AcDbEntity
  8
0
  6
CONTINUOUS
 62
     7
100
AcDbVertex
100
AcDb2dVertex
 10
7.7061701315
 20
7.644479369
 30
0.0
  0
VERTEX
  5
57A
330
2FB
100
AcDbEntity
  8
0
  6
CONTINUOUS
 62
     7
100
AcDbVertex
100
AcDb2dVertex
 10
7.6757296273
 20
7.6197248569
 30
0.0
  0
VERTEX
  5
57B
330
2FB
100
AcDbEntity
  8
0
  6
CONTINUOUS
 62
     7
100
AcDbVertex
100
AcDb2dVertex
 10
7.6456834202
 20
7.5932483827
 30
0.0
  0
VERTEX
  5
57C
330
2FB
100
AcDbEntity
  8
0
  6
CONTINUOUS
 62
     7
100
AcDbVertex
100
AcDb2dVertex
 10
7.6161250703
 20
7.5651323907
 30
0.0
  0
VERTEX
  5
57D
330
2FB
100
AcDbEntity
  8
0
  6
CONTINUOUS
 62
     7
100
AcDbVertex
100
AcDb2dVertex
 10
7.5871466183
 20
7.5354644303
 30
0.0
  0
VERTEX
  5
57E
330
2FB
100
AcDbEntity
  8
0
  6
CONTINUOUS
 62
     7
100
AcDbVertex
100
AcDb2dVertex
 10
7.5588382994
 20
7.5043368838
 30
0.0
  0
VERTEX
  5
57F
330
2FB
100
AcDbEntity
  8
0
  6
CONTINUOUS
 62
     7
100
AcDbVertex
100
AcDb2dVertex
 10
7.5312882619
 20
7.4718466782
 30
0.0
  0
VERTEX
  5
580
330
2FB
100
AcDbEntity
  8
0
  6
CONTINUOUS
 62
     7
100
AcDbVertex
100
AcDb2dVertex
 10
7.5045822931
 20
7.4380949839
 30
0.0
  0
VERTEX
  5
581
330
2FB
100
AcDbEntity
  8
0
  6
CONTINUOUS
 62
     7
100
AcDbVertex
100
AcDb2dVertex
 10
7.478803552
 20
7.4031868992
 30
0.0
  0
VERTEX
  5
582
330
2FB
100
AcDbEntity
  8
0
  6
CONTINUOUS
 62
     7
100
AcDbVertex
100
AcDb2dVertex
 10
7.45403231
 20
7.3672311232
 30
0.0
  0
VERTEX
  5
583
330
2FB
100
AcDbEntity
  8
0
  6
CONTINUOUS
 62
     7
100
AcDbVertex
100
AcDb2dVertex
 10
7.4303457017
 20
7.3303396177
 30
0.0
  0
VERTEX
  5
584
330
2FB
100
AcDbEntity
  8
0
  6
CONTINUOUS
 62
     7
100
AcDbVertex
100
AcDb2dVertex
 10
7.4078174841
 20
7.2926272579
 30
0.0
  0
VERTEX
  5
585
330
2FB
100
AcDbEntity
  8
0
  6
CONTINUOUS
 62
     7
100
AcDbVertex
100
AcDb2dVertex
 10
7.386517807
 20
7.2542114752
 30
0.0
  0
VERTEX
  5
586
330
2FB
100
AcDbEntity
  8
0
  6
CONTINUOUS
 62
     7
100
AcDbVertex
100
AcDb2dVertex
 10
7.366512995
 20
7.2152118914
 30
0.0
  0
VERTEX
  5
587
330
2FB
100
AcDbEntity
  8
0
  6
CONTINUOUS
 62
     7
100
AcDbVertex
100
AcDb2dVertex
 10
7.3478653402
 20
7.175749946
 30
0.0
  0
VERTEX
  5
588
330
2FB
100
AcDbEntity
  8
0
  6
CONTINUOUS
 62
     7
100
AcDbVertex
100
AcDb2dVertex
 10
7.3306329093
 20
7.1359485183
 30
0.0
  0
SEQEND
  5
589
330
2FB
100
AcDbEntity
  8
0
  6
CONTINUOUS
 62
     7
  0
ARC
  5
2FC
330
1F
100
AcDbEntity
  8
0
  6
CONTINUOUS
 62
     7
100
AcDbCircle
 10
7.54580205
 20
6.6206821199
 30
0.0
 40
0.2728394413970528
100
AcDbArc
 50
219.1894964569
 51
239.8312334664
  0
SPLINE
  5
2FD
330
1F
100
AcDbEntity
  8
0
  6
CONTINUOUS
 62
     7
100
AcDbSpline
210
0.0
220
0.0
230
1.0
 70
     8
 71
     3
 72
     8
 73
     4
 74
     0
 42
0.00000001
 43
0.00000001
 40
0.0
 40
0.0
 40
0.0
 40
0.0
 40
0.0001083645978465
 40
0.0001083645978465
 40
0.0001083645978465
 40
0.0001083645978465
 10
8.290263868636485
 20
6.988303310890886
 30
0.0
 10
8.29156876506064
 20
6.9857827980918
 30
0.0
 10
8.29287261987768
 20
6.983261860257487
 30
0.0
 10
8.29417540416339
 20
6.980740489998088
 30
0.0
  0
SPLINE
  5
2FE
330
1F
100
AcDbEntity
  8
0
  6
CONTINUOUS
 62
     7
100
AcDbSpline
210
0.0
220
0.0
230
1.0
 70
     8
 71
     3
 72
     8
 73
     4
 74
     0
 42
0.00000001
 43
0.00000001
 40
0.0
 40
0.0
 40
0.0
 40
0.0
 40
0.0006160615699252
 40
0.0006160615699252
 40
0.0006160615699252
 40
0.0006160615699252
 10
8.24895790739067
 20
7.012151996139145
 30
0.0
 10
8.2627280671278
 20
7.004201565626658
 30
0.0
 10
8.276496795500861
 20
6.996251960825912
 30
0.0
 10
8.290263868636485
 20
6.988303310890886
 30
0.0
  0
LINE
  5
2FF
330
1F
100
AcDbEntity
  8
0
  6
CONTINUOUS
 62
     7
100
AcDbLine
 10
8.7164015957
 20
7.4277226739
 30
0.0
 11
8.7110880414
 21
7.3988434245
 31
0.0
  0
SPLINE
  5
300
330
1F
100
AcDbEntity
  8
0
  6
CONTINUOUS
 62
     7
100
AcDbSpline
210
0.0
220
0.0
230
1.0
 70
     8
 71
     3
 72
     8
 73
     4
 74
     0
 42
0.00000001
 43
0.00000001
 40
0.0
 40
0.0
 40
0.0
 40
0.0
 40
0.0001083645978465
 40
0.0001083645978465
 40
0.0001083645978465
 40
0.0001083645978465
 10
7.324084242254146
 20
7.139725721928392
 30
0.0
 10
7.32430971352408
 20
7.141362485064373
 30
0.0
 10
7.324537115191417
 20
7.142999159981075
 30
0.0
 10
7.324766497039582
 20
7.144635742022673
 30
0.0
  0
ARC
  5
301
330
1F
100
AcDbEntity
  8
0
  6
CONTINUOUS
 62
     7
100
AcDbCircle
 10
8.3881100065
 20
6.7321884754
 30
0.0
 40
1.140531528223476
100
AcDbArc
 50
122.5519522998
 51
158.7998360291
  0
SPLINE
  5
302
330
1F
100
AcDbEntity
  8
0
  6
CONTINUOUS
 62
     7
100
AcDbSpline
210
0.0
220
0.0
230
1.0
 70
     8
 71
     3
 72
     8
 73
     4
 74
     0
 42
0.00000001
 43
0.00000001
 40
0.0
 40
0.0
 40
0.0
 40
0.0
 40
0.0006160615699252
 40
0.0006160615699252
 40
0.0006160615699252
 40
0.0006160615699252
 10
7.324084242254146
 20
7.139725721928392
 30
0.0
 10
7.32625858019856
 20
7.138471591133608
 30
0.0
 10
7.328441847086592
 20
7.137212305086877
 30
0.0
 10
7.330632909260547
 20
7.135948518320224
 30
0.0
  0
SPLINE
  5
303
330
1F
100
AcDbEntity
  8
0
  6
CONTINUOUS
 62
     7
100
AcDbSpline
210
0.0
220
0.0
230
1.0
 70
     8
 71
     3
 72
     8
 73
     4
 74
     0
 42
0.00000001
 43
0.00000001
 40
0.0
 40
0.0
 40
0.0
 40
0.0
 40
0.0006160615699252
 40
0.0006160615699252
 40
0.0006160615699252
 40
0.0006160615699252
 10
7.453998873968209
 20
7.064727601419744
 30
0.0
 10
7.456173211912623
 20
7.06347347062496
 30
0.0
 10
7.458356478800654
 20
7.06221418457823
 30
0.0
 10
7.460547540974609
 20
7.060950397811577
 30
0.0
  0
ARC
  5
304
330
1F
100
AcDbEntity
  8
0
  6
CONTINUOUS
 62
     7
100
AcDbCircle
 10
8.3556184831
 20
6.6830061398
 30
0.0
 40
0.980317978222313
100
AcDbArc
 50
157.0446765194
 51
178.8634641833
  0
LINE
  5
305
330
1F
100
AcDbEntity
  8
0
  6
CONTINUOUS
 62
     7
100
AcDbLine
 10
8.8463162274
 20
7.3527245534
 30
0.0
 11
8.8445805984
 21
7.3432913832
 31
0.0
  0
LINE
  5
306
330
1F
100
AcDbEntity
  8
0
  6
CONTINUOUS
 62
     7
100
AcDbLine
 10
7.453998874
 20
7.0647276014
 30
0.0
 11
7.3240842423
 21
7.1397257219
 31
0.0
  0
LINE
  5
307
330
1F
100
AcDbEntity
  8
0
  6
CONTINUOUS
 62
     7
100
AcDbLine
 10
7.3343350198
 20
6.4482783616
 30
0.0
 11
7.3308506858
 21
6.4607319644
 31
0.0
  0
LINE
  5
308
330
1F
100
AcDbEntity
  8
0
  6
CONTINUOUS
 62
     7
100
AcDbLine
 10
8.3861189298
 20
6.6757414493
 30
0.0
 11
8.3861248548
 21
6.67657789
 31
0.0
  0
ARC
  5
309
330
1F
100
AcDbEntity
  8
0
  6
CONTINUOUS
 62
     7
100
AcDbCircle
 10
8.5393290134
 20
6.637770127
 30
0.0
 40
0.2056954127576373
100
AcDbArc
 50
240.4903071258
 51
252.8317908214
  0
ARC
  5
30A
330
1F
100
AcDbEntity
  8
0
  6
CONTINUOUS
 62
     7
100
AcDbCircle
 10
8.5015462167
 20
6.5723619777
 30
0.0
 40
0.1301634944247491
100
AcDbArc
 50
223.6528187925
 51
240.7822292361
  0
LINE
  5
30B
330
1F
100
AcDbEntity
  8
0
  6
CONTINUOUS
 62
     7
100
AcDbLine
 10
8.6275753535
 20
6.7289295316
 30
0.0
 11
8.5397521195
 21
6.7425143611
 31
0.0
  0
LINE
  5
30C
330
1F
100
AcDbEntity
  8
0
  6
CONTINUOUS
 62
     7
100
AcDbLine
 10
8.5397521195
 20
6.7425143611
 30
0.0
 11
8.4754610502
 21
6.7053999168
 31
0.0
  0
LINE
  5
30D
330
1F
100
AcDbEntity
  8
0
  6
CONTINUOUS
 62
     7
100
AcDbLine
 10
8.4754610502
 20
6.7053999168
 30
0.0
 11
8.4989932148
 21
6.6547006429
 31
0.0
  0
LINE
  5
30E
330
1F
100
AcDbEntity
  8
0
  6
CONTINUOUS
 62
     7
100
AcDbLine
 10
8.4989932148
 20
6.6547006429
 30
0.0
 11
8.5868164488
 21
6.6411158135
 31
0.0
  0
LINE
  5
30F
330
1F
100
AcDbEntity
  8
0
  6
CONTINUOUS
 62
     7
100
AcDbLine
 10
8.5868164488
 20
6.6411158135
 30
0.0
 11
8.6511075181
 21
6.6782302578
 31
0.0
  0
LINE
  5
310
330
1F
100
AcDbEntity
  8
0
  6
CONTINUOUS
 62
     7
100
AcDbLine
 10
8.6511075181
 20
6.6782302578
 30
0.0
 11
8.6275753535
 21
6.7289295316
 31
0.0
  0
LINE
  5
311
330
1F
100
AcDbEntity
  8
0
  6
CONTINUOUS
 62
     7
100
AcDbLine
 10
8.6275753535
 20
6.6646454283
 30
0.0
 11
8.6275753535
 21
6.7289295316
 31
0.0
  0
LINE
  5
312
330
1F
100
AcDbEntity
  8
0
  6
CONTINUOUS
 62
     7
100
AcDbLine
 10
8.5397521195
 20
6.6483959016
 30
0.0
 11
8.5397521195
 21
6.7425143611
 31
0.0
  0
POLYLINE
  5
313
330
1F
100
AcDbEntity
  8
0
  6
CONTINUOUS
 62
     7
100
AcDb2dPolyline
 66
     1
 10
0.0
 20
0.0
 30
0.0
  0
VERTEX
  5
58A
330
313
100
AcDbEntity
  8
0
  6
CONTINUOUS
 62
     7
100
AcDbVertex
100
AcDb2dVertex
 10
8.1818590146
 20
7.7562648055
 30
0.0
  0
VERTEX
  5
58B
330
313
100
AcDbEntity
  8
0
  6
CONTINUOUS
 62
     7
100
AcDbVertex
100
AcDb2dVertex
 10
8.1627556935
 20
7.7677759539
 30
0.0
  0
VERTEX
  5
58C
330
313
100
AcDbEntity
  8
0
  6
CONTINUOUS
 62
     7
100
AcDbVertex
100
AcDb2dVertex
 10
8.1401812944
 20
7.7787413915
 30
0.0
  0
VERTEX
  5
58D
330
313
100
AcDbEntity
  8
0
  6
CONTINUOUS
 62
     7
100
AcDbVertex
100
AcDb2dVertex
 10
8.1164963846
 20
7.7875932729
 30
0.0
  0
VERTEX
  5
58E
330
313
100
AcDbEntity
  8
0
  6
CONTINUOUS
 62
     7
100
AcDbVertex
100
AcDb2dVertex
 10
8.0917728942
 20
7.7943047153
 30
0.0
  0
VERTEX
  5
58F
330
313
100
AcDbEntity
  8
0
  6
CONTINUOUS
 62
     7
100
AcDbVertex
100
AcDb2dVertex
 10
8.0660859077
 20
7.7988553363
 30
0.0
  0
VERTEX
  5
590
330
313
100
AcDbEntity
  8
0
  6
CONTINUOUS
 62
     7
100
AcDbVertex
100
AcDb2dVertex
 10
8.0395134357
 20
7.8012313157
 30
0.0
  0
VERTEX
  5
591
330
313
100
AcDbEntity
  8
0
  6
CONTINUOUS
 62
     7
100
AcDbVertex
100
AcDb2dVertex
 10
8.0121361778
 20
7.8014254378
 30
0.0
  0
VERTEX
  5
592
330
313
100
AcDbEntity
  8
0
  6
CONTINUOUS
 62
     7
100
AcDbVertex
100
AcDb2dVertex
 10
7.9840372779
 20
7.7994371131
 30
0.0
  0
VERTEX
  5
593
330
313
100
AcDbEntity
  8
0
  6
CONTINUOUS
 62
     7
100
AcDbVertex
100
AcDb2dVertex
 10
7.9553020714
 20
7.79527238
 30
0.0
  0
VERTEX
  5
594
330
313
100
AcDbEntity
  8
0
  6
CONTINUOUS
 62
     7
100
AcDbVertex
100
AcDb2dVertex
 10
7.9260178263
 20
7.7889438866
 30
0.0
  0
VERTEX
  5
595
330
313
100
AcDbEntity
  8
0
  6
CONTINUOUS
 62
     7
100
AcDbVertex
100
AcDb2dVertex
 10
7.8962734777
 20
7.7804708525
 30
0.0
  0
VERTEX
  5
596
330
313
100
AcDbEntity
  8
0
  6
CONTINUOUS
 62
     7
100
AcDbVertex
100
AcDb2dVertex
 10
7.8661593584
 20
7.76987901
 30
0.0
  0
VERTEX
  5
597
330
313
100
AcDbEntity
  8
0
  6
CONTINUOUS
 62
     7
100
AcDbVertex
100
AcDb2dVertex
 10
7.8357669238
 20
7.757200526
 30
0.0
  0
VERTEX
  5
598
330
313
100
AcDbEntity
  8
0
  6
CONTINUOUS
 62
     7
100
AcDbVertex
100
AcDb2dVertex
 10
7.8051884749
 20
7.7424739048
 30
0.0
  0
VERTEX
  5
599
330
313
100
AcDbEntity
  8
0
  6
CONTINUOUS
 62
     7
100
AcDbVertex
100
AcDb2dVertex
 10
7.7745168773
 20
7.7257438706
 30
0.0
  0
VERTEX
  5
59A
330
313
100
AcDbEntity
  8
0
  6
CONTINUOUS
 62
     7
100
AcDbVertex
100
AcDb2dVertex
 10
7.7438452797
 20
7.707061232
 30
0.0
  0
VERTEX
  5
59B
330
313
100
AcDbEntity
  8
0
  6
CONTINUOUS
 62
     7
100
AcDbVertex
100
AcDb2dVertex
 10
7.7132668308
 20
7.6864827276
 30
0.0
  0
VERTEX
  5
59C
330
313
100
AcDbEntity
  8
0
  6
CONTINUOUS
 62
     7
100
AcDbVertex
100
AcDb2dVertex
 10
7.6828743963
 20
7.6640708535
 30
0.0
  0
VERTEX
  5
59D
330
313
100
AcDbEntity
  8
0
  6
CONTINUOUS
 62
     7
100
AcDbVertex
100
AcDb2dVertex
 10
7.6527602769
 20
7.639893674
 30
0.0
  0
VERTEX
  5
59E
330
313
100
AcDbEntity
  8
0
  6
CONTINUOUS
 62
     7
100
AcDbVertex
100
AcDb2dVertex
 10
7.6230159283
 20
7.6140246142
 30
0.0
  0
VERTEX
  5
59F
330
313
100
AcDbEntity
  8
0
  6
CONTINUOUS
 62
     7
100
AcDbVertex
100
AcDb2dVertex
 10
7.5937316832
 20
7.5865422378
 30
0.0
  0
VERTEX
  5
5A0
330
313
100
AcDbEntity
  8
0
  6
CONTINUOUS
 62
     7
100
AcDbVertex
100
AcDb2dVertex
 10
7.5649964767
 20
7.5575300077
 30
0.0
  0
VERTEX
  5
5A1
330
313
100
AcDbEntity
  8
0
  6
CONTINUOUS
 62
     7
100
AcDbVertex
100
AcDb2dVertex
 10
7.5368975768
 20
7.5270760332
 30
0.0
  0
VERTEX
  5
5A2
330
313
100
AcDbEntity
  8
0
  6
CONTINUOUS
 62
     7
100
AcDbVertex
100
AcDb2dVertex
 10
7.509520319
 20
7.4952728019
 30
0.0
  0
VERTEX
  5
5A3
330
313
100
AcDbEntity
  8
0
  6
CONTINUOUS
 62
     7
100
AcDbVertex
100
AcDb2dVertex
 10
7.4829478469
 20
7.4622168993
 30
0.0
  0
VERTEX
  5
5A4
330
313
100
AcDbEntity
  8
0
  6
CONTINUOUS
 62
     7
100
AcDbVertex
100
AcDb2dVertex
 10
7.4572608604
 20
7.428008715
 30
0.0
  0
VERTEX
  5
5A5
330
313
100
AcDbEntity
  8
0
  6
CONTINUOUS
 62
     7
100
AcDbVertex
100
AcDb2dVertex
 10
7.43253737
 20
7.3927521382
 30
0.0
  0
VERTEX
  5
5A6
330
313
100
AcDbEntity
  8
0
  6
CONTINUOUS
 62
     7
100
AcDbVertex
100
AcDb2dVertex
 10
7.4088524602
 20
7.356554242
 30
0.0
  0
VERTEX
  5
5A7
330
313
100
AcDbEntity
  8
0
  6
CONTINUOUS
 62
     7
100
AcDbVertex
100
AcDb2dVertex
 10
7.3862780611
 20
7.319524958
 30
0.0
  0
VERTEX
  5
5A8
330
313
100
AcDbEntity
  8
0
  6
CONTINUOUS
 62
     7
100
AcDbVertex
100
AcDb2dVertex
 10
7.3648827306
 20
7.2817767432
 30
0.0
  0
VERTEX
  5
5A9
330
313
100
AcDbEntity
  8
0
  6
CONTINUOUS
 62
     7
100
AcDbVertex
100
AcDb2dVertex
 10
7.3447314455
 20
7.2434242375
 30
0.0
  0
VERTEX
  5
5AA
330
313
100
AcDbEntity
  8
0
  6
CONTINUOUS
 62
     7
100
AcDbVertex
100
AcDb2dVertex
 10
7.3258854047
 20
7.2045839162
 30
0.0
  0
VERTEX
  5
5AB
330
313
100
AcDbEntity
  8
0
  6
CONTINUOUS
 62
     7
100
AcDbVertex
100
AcDb2dVertex
 10
7.3084018428
 20
7.1653737362
 30
0.0
  0
VERTEX
  5
5AC
330
313
100
AcDbEntity
  8
0
  6
CONTINUOUS
 62
     7
100
AcDbVertex
100
AcDb2dVertex
 10
7.2923338571
 20
7.1259127775
 30
0.0
  0
SEQEND
  5
5AD
330
313
100
AcDbEntity
  8
0
  6
CONTINUOUS
 62
     7
  0
LINE
  5
314
330
1F
100
AcDbEntity
  8
0
  6
CONTINUOUS
 62
     7
100
AcDbLine
 10
7.2923338571
 20
7.1259127775
 30
0.0
 11
7.3944096391
 21
7.0669856828
 31
0.0
  0
POLYLINE
  5
315
330
1F
100
AcDbEntity
  8
0
  6
CONTINUOUS
 62
     7
100
AcDb2dPolyline
 66
     1
 10
0.0
 20
0.0
 30
0.0
  0
VERTEX
  5
5AE
330
315
100
AcDbEntity
  8
0
  6
CONTINUOUS
 62
     7
100
AcDbVertex
100
AcDb2dVertex
 10
7.3944096391
 20
7.0669856828
 30
0.0
  0
VERTEX
  5
5AF
330
315
100
AcDbEntity
  8
0
  6
CONTINUOUS
 62
     7
100
AcDbVertex
100
AcDb2dVertex
 10
7.3798060273
 20
7.027393787
 30
0.0
  0
VERTEX
  5
5B0
330
315
100
AcDbEntity
  8
0
  6
CONTINUOUS
 62
     7
100
AcDbVertex
100
AcDb2dVertex
 10
7.3667111402
 20
6.9877911933
 30
0.0
  0
VERTEX
  5
5B1
330
315
100
AcDbEntity
  8
0
  6
CONTINUOUS
 62
     7
100
AcDbVertex
100
AcDb2dVertex
 10
7.3551647465
 20
6.9482981736
 30
0.0
  0
VERTEX
  5
5B2
330
315
100
AcDbEntity
  8
0
  6
CONTINUOUS
 62
     7
100
AcDbVertex
100
AcDb2dVertex
 10
7.3452019123
 20
6.9090346669
 30
0.0
  0
VERTEX
  5
5B3
330
315
100
AcDbEntity
  8
0
  6
CONTINUOUS
 62
     7
100
AcDbVertex
100
AcDb2dVertex
 10
7.3368528942
 20
6.8701199151
 30
0.0
  0
VERTEX
  5
5B4
330
315
100
AcDbEntity
  8
0
  6
CONTINUOUS
 62
     7
100
AcDbVertex
100
AcDb2dVertex
 10
7.3301430481
 20
6.8316721011
 30
0.0
  0
VERTEX
  5
5B5
330
315
100
AcDbEntity
  8
0
  6
CONTINUOUS
 62
     7
100
AcDbVertex
100
AcDb2dVertex
 10
7.3250927515
 20
6.7938079896
 30
0.0
  0
VERTEX
  5
5B6
330
315
100
AcDbEntity
  8
0
  6
CONTINUOUS
 62
     7
100
AcDbVertex
100
AcDb2dVertex
 10
7.321717342
 20
6.7566425727
 30
0.0
  0
VERTEX
  5
5B7
330
315
100
AcDbEntity
  8
0
  6
CONTINUOUS
 62
     7
100
AcDbVertex
100
AcDb2dVertex
 10
7.3200270706
 20
6.7202887204
 30
0.0
  0
VERTEX
  5
5B8
330
315
100
AcDbEntity
  8
0
  6
CONTINUOUS
 62
     7
100
AcDbVertex
100
AcDb2dVertex
 10
7.3200270706
 20
6.6848568384
 30
0.0
  0
VERTEX
  5
5B9
330
315
100
AcDbEntity
  8
0
  6
CONTINUOUS
 62
     7
100
AcDbVertex
100
AcDb2dVertex
 10
7.321717342
 20
6.650454532
 30
0.0
  0
VERTEX
  5
5BA
330
315
100
AcDbEntity
  8
0
  6
CONTINUOUS
 62
     7
100
AcDbVertex
100
AcDb2dVertex
 10
7.3250927515
 20
6.61718628
 30
0.0
  0
VERTEX
  5
5BB
330
315
100
AcDbEntity
  8
0
  6
CONTINUOUS
 62
     7
100
AcDbVertex
100
AcDb2dVertex
 10
7.3301430481
 20
6.5851531168
 30
0.0
  0
VERTEX
  5
5BC
330
315
100
AcDbEntity
  8
0
  6
CONTINUOUS
 62
     7
100
AcDbVertex
100
AcDb2dVertex
 10
7.3368528942
 20
6.5544523262
 30
0.0
  0
VERTEX
  5
5BD
330
315
100
AcDbEntity
  8
0
  6
CONTINUOUS
 62
     7
100
AcDbVertex
100
AcDb2dVertex
 10
7.3452019123
 20
6.5251771454
 30
0.0
  0
VERTEX
  5
5BE
330
315
100
AcDbEntity
  8
0
  6
CONTINUOUS
 62
     7
100
AcDbVertex
100
AcDb2dVertex
 10
7.3551647465
 20
6.4974164823
 30
0.0
  0
VERTEX
  5
5BF
330
315
100
AcDbEntity
  8
0
  6
CONTINUOUS
 62
     7
100
AcDbVertex
100
AcDb2dVertex
 10
7.3667111402
 20
6.471254645
 30
0.0
  0
VERTEX
  5
5C0
330
315
100
AcDbEntity
  8
0
  6
CONTINUOUS
 62
     7
100
AcDbVertex
100
AcDb2dVertex
 10
7.3798060273
 20
6.4467710862
 30
0.0
  0
VERTEX
  5
5C1
330
315
100
AcDbEntity
  8
0
  6
CONTINUOUS
 62
     7
100
AcDbVertex
100
AcDb2dVertex
 10
7.3944096391
 20
6.4240401616
 30
0.0
  0
SEQEND
  5
5C2
330
315
100
AcDbEntity
  8
0
  6
CONTINUOUS
 62
     7
  0
LINE
  5
316
330
1F
100
AcDbEntity
  8
0
  6
CONTINUOUS
 62
     7
100
AcDbLine
 10
7.3944096391
 20
6.4240401616
 30
0.0
 11
7.2644950074
 21
6.4990382822
 31
0.0
  0
ARC
  5
317
330
1F
100
AcDbEntity
  8
0
  6
CONTINUOUS
 62
     7
100
AcDbCircle
 10
7.4889771724
 20
6.6525068818
 30
0.0
 40
0.271928029921192
100
AcDbArc
 50
214.3587017831
 51
246.7954162518
  0
POLYLINE
  5
318
330
1F
100
AcDbEntity
  8
0
  6
CONTINUOUS
 62
     7
100
AcDb2dPolyline
 66
     1
 10
0.0
 20
0.0
 30
0.0
  0
VERTEX
  5
5C3
330
318
100
AcDbEntity
  8
0
  6
CONTINUOUS
 62
     7
100
AcDbVertex
100
AcDb2dVertex
 10
7.1436295993
 20
7.0266542176
 30
0.0
  0
VERTEX
  5
5C4
330
318
100
AcDbEntity
  8
0
  6
CONTINUOUS
 62
     7
100
AcDbVertex
100
AcDb2dVertex
 10
7.1352283392
 20
6.9876958327
 30
0.0
  0
VERTEX
  5
5C5
330
318
100
AcDbEntity
  8
0
  6
CONTINUOUS
 62
     7
100
AcDbVertex
100
AcDb2dVertex
 10
7.1284683445
 20
6.949201934
 30
0.0
  0
VERTEX
  5
5C6
330
318
100
AcDbEntity
  8
0
  6
CONTINUOUS
 62
     7
100
AcDbVertex
100
AcDb2dVertex
 10
7.1233701792
 20
6.9112896202
 30
0.0
  0
VERTEX
  5
5C7
330
318
100
AcDbEntity
  8
0
  6
CONTINUOUS
 62
     7
100
AcDbVertex
100
AcDb2dVertex
 10
7.1199493519
 20
6.8740742212
 30
0.0
  0
VERTEX
  5
5C8
330
318
100
AcDbEntity
  8
0
  6
CONTINUOUS
 62
     7
100
AcDbVertex
100
AcDb2dVertex
 10
7.118216269
 20
6.8376689467
 30
0.0
  0
VERTEX
  5
5C9
330
318
100
AcDbEntity
  8
0
  6
CONTINUOUS
 62
     7
100
AcDbVertex
100
AcDb2dVertex
 10
7.1181762024
 20
6.802184542
 30
0.0
  0
VERTEX
  5
5CA
330
318
100
AcDbEntity
  8
0
  6
CONTINUOUS
 62
     7
100
AcDbVertex
100
AcDb2dVertex
 10
7.119829274
 20
6.7677289512
 30
0.0
  0
VERTEX
  5
5CB
330
318
100
AcDbEntity
  8
0
  6
CONTINUOUS
 62
     7
100
AcDbVertex
100
AcDb2dVertex
 10
7.1231704552
 20
6.7344069886
 30
0.0
  0
VERTEX
  5
5CC
330
318
100
AcDbEntity
  8
0
  6
CONTINUOUS
 62
     7
100
AcDbVertex
100
AcDb2dVertex
 10
7.128189582
 20
6.7023200199
 30
0.0
  0
VERTEX
  5
5CD
330
318
100
AcDbEntity
  8
0
  6
CONTINUOUS
 62
     7
100
AcDbVertex
100
AcDb2dVertex
 10
7.1348713862
 20
6.6715656544
 30
0.0
  0
VERTEX
  5
5CE
330
318
100
AcDbEntity
  8
0
  6
CONTINUOUS
 62
     7
100
AcDbVertex
100
AcDb2dVertex
 10
7.1431955417
 20
6.642237447
 30
0.0
  0
VERTEX
  5
5CF
330
318
100
AcDbEntity
  8
0
  6
CONTINUOUS
 62
     7
100
AcDbVertex
100
AcDb2dVertex
 10
7.1531367262
 20
6.6144246146
 30
0.0
  0
VERTEX
  5
5D0
330
318
100
AcDbEntity
  8
0
  6
CONTINUOUS
 62
     7
100
AcDbVertex
100
AcDb2dVertex
 10
7.1646646986
 20
6.5882117642
 30
0.0
  0
VERTEX
  5
5D1
330
318
100
AcDbEntity
  8
0
  6
CONTINUOUS
 62
     7
100
AcDbVertex
100
AcDb2dVertex
 10
7.1777443906
 20
6.5636786356
 30
0.0
  0
VERTEX
  5
5D2
330
318
100
AcDbEntity
  8
0
  6
CONTINUOUS
 62
     7
100
AcDbVertex
100
AcDb2dVertex
 10
7.1923360136
 20
6.5408998589
 30
0.0
  0
VERTEX
  5
5D3
330
318
100
AcDbEntity
  8
0
  6
CONTINUOUS
 62
     7
100
AcDbVertex
100
AcDb2dVertex
 10
7.2083951797
 20
6.5199447275
 30
0.0
  0
VERTEX
  5
5D4
330
318
100
AcDbEntity
  8
0
  6
CONTINUOUS
 62
     7
100
AcDbVertex
100
AcDb2dVertex
 10
7.2258730367
 20
6.5008769871
 30
0.0
  0
VERTEX
  5
5D5
330
318
100
AcDbEntity
  8
0
  6
CONTINUOUS
 62
     7
100
AcDbVertex
100
AcDb2dVertex
 10
7.2447164168
 20
6.4837546421
 30
0.0
  0
VERTEX
  5
5D6
330
318
100
AcDbEntity
  8
0
  6
CONTINUOUS
 62
     7
100
AcDbVertex
100
AcDb2dVertex
 10
7.2648679982
 20
6.4686297789
 30
0.0
  0
VERTEX
  5
5D7
330
318
100
AcDbEntity
  8
0
  6
CONTINUOUS
 62
     7
100
AcDbVertex
100
AcDb2dVertex
 10
7.281092207
 20
6.4584579539
 30
0.0
  0
SEQEND
  5
5D8
330
318
100
AcDbEntity
  8
0
  6
CONTINUOUS
 62
     7
  0
LINE
  5
319
330
1F
100
AcDbEntity
  8
0
  6
CONTINUOUS
 62
     7
100
AcDbLine
 10
7.1436295993
 20
7.0266542176
 30
0.0
 11
7.1157907496
 21
7.0427252434
 31
0.0
  0
POLYLINE
  5
31A
330
1F
100
AcDbEntity
  8
0
  6
CONTINUOUS
 62
     7
100
AcDb2dPolyline
 66
     1
 10
0.0
 20
0.0
 30
0.0
  0
VERTEX
  5
5D9
330
31A
100
AcDbEntity
  8
0
  6
CONTINUOUS
 62
     7
100
AcDbVertex
100
AcDb2dVertex
 10
7.1157907496
 20
7.0427252434
 30
0.0
  0
VERTEX
  5
5DA
330
31A
100
AcDbEntity
  8
0
  6
CONTINUOUS
 62
     7
100
AcDbVertex
100
AcDb2dVertex
 10
7.1072640567
 20
7.0031249897
 30
0.0
  0
VERTEX
  5
5DB
330
31A
100
AcDbEntity
  8
0
  6
CONTINUOUS
 62
     7
100
AcDbVertex
100
AcDb2dVertex
 10
7.1004338441
 20
6.9640067543
 30
0.0
  0
VERTEX
  5
5DC
330
31A
100
AcDbEntity
  8
0
  6
CONTINUOUS
 62
     7
100
AcDbVertex
100
AcDb2dVertex
 10
7.0953215832
 20
6.9254935101
 30
0.0
  0
VERTEX
  5
5DD
330
31A
100
AcDbEntity
  8
0
  6
CONTINUOUS
 62
     7
100
AcDbVertex
100
AcDb2dVertex
 10
7.0919433452
 20
6.8877063281
 30
0.0
  0
VERTEX
  5
5DE
330
31A
100
AcDbEntity
  8
0
  6
CONTINUOUS
 62
     7
100
AcDbVertex
100
AcDb2dVertex
 10
7.0903097498
 20
6.8507639969
 30
0.0
  0
VERTEX
  5
5DF
330
31A
100
AcDbEntity
  8
0
  6
CONTINUOUS
 62
     7
100
AcDbVertex
100
AcDb2dVertex
 10
7.0904259325
 20
6.8147826492
 30
0.0
  0
VERTEX
  5
5E0
330
31A
100
AcDbEntity
  8
0
  6
CONTINUOUS
 62
     7
100
AcDbVertex
100
AcDb2dVertex
 10
7.0922915281
 20
6.7798753966
 30
0.0
  0
VERTEX
  5
5E1
330
31A
100
AcDbEntity
  8
0
  6
CONTINUOUS
 62
     7
100
AcDbVertex
100
AcDb2dVertex
 10
7.0959006719
 20
6.7461519743
 30
0.0
  0
VERTEX
  5
5E2
330
31A
100
AcDbEntity
  8
0
  6
CONTINUOUS
 62
     7
100
AcDbVertex
100
AcDb2dVertex
 10
7.101242018
 20
6.7137183959
 30
0.0
  0
VERTEX
  5
5E3
330
31A
100
AcDbEntity
  8
0
  6
CONTINUOUS
 62
     7
100
AcDbVertex
100
AcDb2dVertex
 10
7.1082987753
 20
6.6826766204
 30
0.0
  0
VERTEX
  5
5E4
330
31A
100
AcDbEntity
  8
0
  6
CONTINUOUS
 62
     7
100
AcDbVertex
100
AcDb2dVertex
 10
7.11704876
 20
6.6531242312
 30
0.0
  0
VERTEX
  5
5E5
330
31A
100
AcDbEntity
  8
0
  6
CONTINUOUS
 62
     7
100
AcDbVertex
100
AcDb2dVertex
 10
7.1274644656
 20
6.6251541298
 30
0.0
  0
VERTEX
  5
5E6
330
31A
100
AcDbEntity
  8
0
  6
CONTINUOUS
 62
     7
100
AcDbVertex
100
AcDb2dVertex
 10
7.1395131489
 20
6.5988542437
 30
0.0
  0
VERTEX
  5
5E7
330
31A
100
AcDbEntity
  8
0
  6
CONTINUOUS
 62
     7
100
AcDbVertex
100
AcDb2dVertex
 10
7.1531569335
 20
6.5743072497
 30
0.0
  0
VERTEX
  5
5E8
330
31A
100
AcDbEntity
  8
0
  6
CONTINUOUS
 62
     7
100
AcDbVertex
100
AcDb2dVertex
 10
7.1683529285
 20
6.5515903142
 30
0.0
  0
VERTEX
  5
5E9
330
31A
100
AcDbEntity
  8
0
  6
CONTINUOUS
 62
     7
100
AcDbVertex
100
AcDb2dVertex
 10
7.1850533635
 20
6.5307748507
 30
0.0
  0
VERTEX
  5
5EA
330
31A
100
AcDbEntity
  8
0
  6
CONTINUOUS
 62
     7
100
AcDbVertex
100
AcDb2dVertex
 10
7.2032057387
 20
6.511926295
 30
0.0
  0
VERTEX
  5
5EB
330
31A
100
AcDbEntity
  8
0
  6
CONTINUOUS
 62
     7
100
AcDbVertex
100
AcDb2dVertex
 10
7.2227529898
 20
6.4951038998
 30
0.0
  0
VERTEX
  5
5EC
330
31A
100
AcDbEntity
  8
0
  6
CONTINUOUS
 62
     7
100
AcDbVertex
100
AcDb2dVertex
 10
7.2436336677
 20
6.4803605485
 30
0.0
  0
VERTEX
  5
5ED
330
31A
100
AcDbEntity
  8
0
  6
CONTINUOUS
 62
     7
100
AcDbVertex
100
AcDb2dVertex
 10
7.2657821316
 20
6.4677425884
 30
0.0
  0
VERTEX
  5
5EE
330
31A
100
AcDbEntity
  8
0
  6
CONTINUOUS
 62
     7
100
AcDbVertex
100
AcDb2dVertex
 10
7.2674188621
 20
6.4669197359
 30
0.0
  0
SEQEND
  5
5EF
330
31A
100
AcDbEntity
  8
0
  6
CONTINUOUS
 62
     7
  0
POLYLINE
  5
31B
330
1F
100
AcDbEntity
  8
0
  6
CONTINUOUS
 62
     7
100
AcDb2dPolyline
 66
     1
 10
0.0
 20
0.0
 30
0.0
  0
VERTEX
  5
5F0
330
31B
100
AcDbEntity
  8
0
  6
CONTINUOUS
 62
     7
100
AcDbVertex
100
AcDb2dVertex
 10
6.8890284077
 20
6.6847915676
 30
0.0
  0
VERTEX
  5
5F1
330
31B
100
AcDbEntity
  8
0
  6
CONTINUOUS
 62
     7
100
AcDbVertex
100
AcDb2dVertex
 10
6.8870004441
 20
6.6859744085
 30
0.0
  0
VERTEX
  5
5F2
330
31B
100
AcDbEntity
  8
0
  6
CONTINUOUS
 62
     7
100
AcDbVertex
100
AcDb2dVertex
 10
6.8661857536
 20
6.6996057413
 30
0.0
  0
VERTEX
  5
5F3
330
31B
100
AcDbEntity
  8
0
  6
CONTINUOUS
 62
     7
100
AcDbVertex
100
AcDb2dVertex
 10
6.8466159458
 20
6.7152309658
 30
0.0
  0
VERTEX
  5
5F4
330
31B
100
AcDbEntity
  8
0
  6
CONTINUOUS
 62
     7
100
AcDbVertex
100
AcDb2dVertex
 10
6.8283495114
 20
6.7328033806
 30
0.0
  0
VERTEX
  5
5F5
330
31B
100
AcDbEntity
  8
0
  6
CONTINUOUS
 62
     7
100
AcDbVertex
100
AcDb2dVertex
 10
6.8114410457
 20
6.752270465
 30
0.0
  0
VERTEX
  5
5F6
330
31B
100
AcDbEntity
  8
0
  6
CONTINUOUS
 62
     7
100
AcDbVertex
100
AcDb2dVertex
 10
6.7959410853
 20
6.7735740349
 30
0.0
  0
VERTEX
  5
5F7
330
31B
100
AcDbEntity
  8
0
  6
CONTINUOUS
 62
     7
100
AcDbVertex
100
AcDb2dVertex
 10
6.781895957
 20
6.7966504177
 30
0.0
  0
VERTEX
  5
5F8
330
31B
100
AcDbEntity
  8
0
  6
CONTINUOUS
 62
     7
100
AcDbVertex
100
AcDb2dVertex
 10
6.7693476392
 20
6.8214306419
 30
0.0
  0
VERTEX
  5
5F9
330
31B
100
AcDbEntity
  8
0
  6
CONTINUOUS
 62
     7
100
AcDbVertex
100
AcDb2dVertex
 10
6.7583336369
 20
6.8478406436
 30
0.0
  0
VERTEX
  5
5FA
330
31B
100
AcDbEntity
  8
0
  6
CONTINUOUS
 62
     7
100
AcDbVertex
100
AcDb2dVertex
 10
6.748886869
 20
6.8758014877
 30
0.0
  0
VERTEX
  5
5FB
330
31B
100
AcDbEntity
  8
0
  6
CONTINUOUS
 62
     7
100
AcDbVertex
100
AcDb2dVertex
 10
6.7410355702
 20
6.9052296041
 30
0.0
  0
VERTEX
  5
5FC
330
31B
100
AcDbEntity
  8
0
  6
CONTINUOUS
 62
     7
100
AcDbVertex
100
AcDb2dVertex
 10
6.7348032069
 20
6.9360370369
 30
0.0
  0
VERTEX
  5
5FD
330
31B
100
AcDbEntity
  8
0
  6
CONTINUOUS
 62
     7
100
AcDbVertex
100
AcDb2dVertex
 10
6.7302084064
 20
6.968131708
 30
0.0
  0
VERTEX
  5
5FE
330
31B
100
AcDbEntity
  8
0
  6
CONTINUOUS
 62
     7
100
AcDbVertex
100
AcDb2dVertex
 10
6.727264902
 20
7.0014176918
 30
0.0
  0
VERTEX
  5
5FF
330
31B
100
AcDbEntity
  8
0
  6
CONTINUOUS
 62
     7
100
AcDbVertex
100
AcDb2dVertex
 10
6.7259814911
 20
7.0357955021
 30
0.0
  0
VERTEX
  5
600
330
31B
100
AcDbEntity
  8
0
  6
CONTINUOUS
 62
     7
100
AcDbVertex
100
AcDb2dVertex
 10
6.7263620098
 20
7.0711623895
 30
0.0
  0
VERTEX
  5
601
330
31B
100
AcDbEntity
  8
0
  6
CONTINUOUS
 62
     7
100
AcDbVertex
100
AcDb2dVertex
 10
6.7284053206
 20
7.1074126482
 30
0.0
  0
VERTEX
  5
602
330
31B
100
AcDbEntity
  8
0
  6
CONTINUOUS
 62
     7
100
AcDbVertex
100
AcDb2dVertex
 10
6.7321053166
 20
7.1444379323
 30
0.0
  0
VERTEX
  5
603
330
31B
100
AcDbEntity
  8
0
  6
CONTINUOUS
 62
     7
100
AcDbVertex
100
AcDb2dVertex
 10
6.737450939
 20
7.1821275795
 30
0.0
  0
VERTEX
  5
604
330
31B
100
AcDbEntity
  8
0
  6
CONTINUOUS
 62
     7
100
AcDbVertex
100
AcDb2dVertex
 10
6.7444262106
 20
7.2203689418
 30
0.0
  0
VERTEX
  5
605
330
31B
100
AcDbEntity
  8
0
  6
CONTINUOUS
 62
     7
100
AcDbVertex
100
AcDb2dVertex
 10
6.7530102836
 20
7.2590477222
 30
0.0
  0
VERTEX
  5
606
330
31B
100
AcDbEntity
  8
0
  6
CONTINUOUS
 62
     7
100
AcDbVertex
100
AcDb2dVertex
 10
6.7631775017
 20
7.2980483163
 30
0.0
  0
VERTEX
  5
607
330
31B
100
AcDbEntity
  8
0
  6
CONTINUOUS
 62
     7
100
AcDbVertex
100
AcDb2dVertex
 10
6.7748974766
 20
7.337254158
 30
0.0
  0
VERTEX
  5
608
330
31B
100
AcDbEntity
  8
0
  6
CONTINUOUS
 62
     7
100
AcDbVertex
100
AcDb2dVertex
 10
6.7881351793
 20
7.3765480675
 30
0.0
  0
VERTEX
  5
609
330
31B
100
AcDbEntity
  8
0
  6
CONTINUOUS
 62
     7
100
AcDbVertex
100
AcDb2dVertex
 10
6.8028510447
 20
7.4158126019
 30
0.0
  0
VERTEX
  5
60A
330
31B
100
AcDbEntity
  8
0
  6
CONTINUOUS
 62
     7
100
AcDbVertex
100
AcDb2dVertex
 10
6.8190010895
 20
7.4549304063
 30
0.0
  0
VERTEX
  5
60B
330
31B
100
AcDbEntity
  8
0
  6
CONTINUOUS
 62
     7
100
AcDbVertex
100
AcDb2dVertex
 10
6.8365370438
 20
7.4937845641
 30
0.0
  0
VERTEX
  5
60C
330
31B
100
AcDbEntity
  8
0
  6
CONTINUOUS
 62
     7
100
AcDbVertex
100
AcDb2dVertex
 10
6.8554064957
 20
7.5322589466
 30
0.0
  0
VERTEX
  5
60D
330
31B
100
AcDbEntity
  8
0
  6
CONTINUOUS
 62
     7
100
AcDbVertex
100
AcDb2dVertex
 10
6.8755530476
 20
7.5702385606
 30
0.0
  0
VERTEX
  5
60E
330
31B
100
AcDbEntity
  8
0
  6
CONTINUOUS
 62
     7
100
AcDbVertex
100
AcDb2dVertex
 10
6.8969164848
 20
7.6076098913
 30
0.0
  0
VERTEX
  5
60F
330
31B
100
AcDbEntity
  8
0
  6
CONTINUOUS
 62
     7
100
AcDbVertex
100
AcDb2dVertex
 10
6.9194329556
 20
7.644261242
 30
0.0
  0
VERTEX
  5
610
330
31B
100
AcDbEntity
  8
0
  6
CONTINUOUS
 62
     7
100
AcDbVertex
100
AcDb2dVertex
 10
6.9430351621
 20
7.6800830682
 30
0.0
  0
VERTEX
  5
611
330
31B
100
AcDbEntity
  8
0
  6
CONTINUOUS
 62
     7
100
AcDbVertex
100
AcDb2dVertex
 10
6.9676525612
 20
7.7149683043
 30
0.0
  0
VERTEX
  5
612
330
31B
100
AcDbEntity
  8
0
  6
CONTINUOUS
 62
     7
100
AcDbVertex
100
AcDb2dVertex
 10
6.9932115757
 20
7.7488126843
 30
0.0
  0
VERTEX
  5
613
330
31B
100
AcDbEntity
  8
0
  6
CONTINUOUS
 62
     7
100
AcDbVertex
100
AcDb2dVertex
 10
7.019635814
 20
7.781515053
 30
0.0
  0
VERTEX
  5
614
330
31B
100
AcDbEntity
  8
0
  6
CONTINUOUS
 62
     7
100
AcDbVertex
100
AcDb2dVertex
 10
7.0468462984
 20
7.8129776686
 30
0.0
  0
VERTEX
  5
615
330
31B
100
AcDbEntity
  8
0
  6
CONTINUOUS
 62
     7
100
AcDbVertex
100
AcDb2dVertex
 10
7.0747617015
 20
7.8431064945
 30
0.0
  0
VERTEX
  5
616
330
31B
100
AcDbEntity
  8
0
  6
CONTINUOUS
 62
     7
100
AcDbVertex
100
AcDb2dVertex
 10
7.1032985888
 20
7.8718114809
 30
0.0
  0
VERTEX
  5
617
330
31B
100
AcDbEntity
  8
0
  6
CONTINUOUS
 62
     7
100
AcDbVertex
100
AcDb2dVertex
 10
7.1323716683
 20
7.8990068333
 30
0.0
  0
VERTEX
  5
618
330
31B
100
AcDbEntity
  8
0
  6
CONTINUOUS
 62
     7
100
AcDbVertex
100
AcDb2dVertex
 10
7.1618940456
 20
7.9246112693
 30
0.0
  0
VERTEX
  5
619
330
31B
100
AcDbEntity
  8
0
  6
CONTINUOUS
 62
     7
100
AcDbVertex
100
AcDb2dVertex
 10
7.1917774831
 20
7.9485482618
 30
0.0
  0
VERTEX
  5
61A
330
31B
100
AcDbEntity
  8
0
  6
CONTINUOUS
 62
     7
100
AcDbVertex
100
AcDb2dVertex
 10
7.2219326643
 20
7.970746267
 30
0.0
  0
VERTEX
  5
61B
330
31B
100
AcDbEntity
  8
0
  6
CONTINUOUS
 62
     7
100
AcDbVertex
100
AcDb2dVertex
 10
7.2522694605
 20
7.9911389387
 30
0.0
  0
VERTEX
  5
61C
330
31B
100
AcDbEntity
  8
0
  6
CONTINUOUS
 62
     7
100
AcDbVertex
100
AcDb2dVertex
 10
7.2826972001
 20
8.0096653269
 30
0.0
  0
VERTEX
  5
61D
330
31B
100
AcDbEntity
  8
0
  6
CONTINUOUS
 62
     7
100
AcDbVertex
100
AcDb2dVertex
 10
7.3131249397
 20
8.0262700591
 30
0.0
  0
VERTEX
  5
61E
330
31B
100
AcDbEntity
  8
0
  6
CONTINUOUS
 62
     7
100
AcDbVertex
100
AcDb2dVertex
 10
7.3434617359
 20
8.0409035066
 30
0.0
  0
VERTEX
  5
61F
330
31B
100
AcDbEntity
  8
0
  6
CONTINUOUS
 62
     7
100
AcDbVertex
100
AcDb2dVertex
 10
7.3736169171
 20
8.0535219327
 30
0.0
  0
VERTEX
  5
620
330
31B
100
AcDbEntity
  8
0
  6
CONTINUOUS
 62
     7
100
AcDbVertex
100
AcDb2dVertex
 10
7.4035003547
 20
8.0640876228
 30
0.0
  0
VERTEX
  5
621
330
31B
100
AcDbEntity
  8
0
  6
CONTINUOUS
 62
     7
100
AcDbVertex
100
AcDb2dVertex
 10
7.4330227319
 20
8.0725689979
 30
0.0
  0
VERTEX
  5
622
330
31B
100
AcDbEntity
  8
0
  6
CONTINUOUS
 62
     7
100
AcDbVertex
100
AcDb2dVertex
 10
7.4620958114
 20
8.0789407086
 30
0.0
  0
VERTEX
  5
623
330
31B
100
AcDbEntity
  8
0
  6
CONTINUOUS
 62
     7
100
AcDbVertex
100
AcDb2dVertex
 10
7.4906326987
 20
8.083183711
 30
0.0
  0
VERTEX
  5
624
330
31B
100
AcDbEntity
  8
0
  6
CONTINUOUS
 62
     7
100
AcDbVertex
100
AcDb2dVertex
 10
7.5185481018
 20
8.0852853234
 30
0.0
  0
VERTEX
  5
625
330
31B
100
AcDbEntity
  8
0
  6
CONTINUOUS
 62
     7
100
AcDbVertex
100
AcDb2dVertex
 10
7.5457585862
 20
8.0852392645
 30
0.0
  0
VERTEX
  5
626
330
31B
100
AcDbEntity
  8
0
  6
CONTINUOUS
 62
     7
100
AcDbVertex
100
AcDb2dVertex
 10
7.5721828245
 20
8.0830456719
 30
0.0
  0
VERTEX
  5
627
330
31B
100
AcDbEntity
  8
0
  6
CONTINUOUS
 62
     7
100
AcDbVertex
100
AcDb2dVertex
 10
7.597741839
 20
8.0787111019
 30
0.0
  0
VERTEX
  5
628
330
31B
100
AcDbEntity
  8
0
  6
CONTINUOUS
 62
     7
100
AcDbVertex
100
AcDb2dVertex
 10
7.6223592381
 20
8.0722485098
 30
0.0
  0
VERTEX
  5
629
330
31B
100
AcDbEntity
  8
0
  6
CONTINUOUS
 62
     7
100
AcDbVertex
100
AcDb2dVertex
 10
7.6459614446
 20
8.0636772112
 30
0.0
  0
VERTEX
  5
62A
330
31B
100
AcDbEntity
  8
0
  6
CONTINUOUS
 62
     7
100
AcDbVertex
100
AcDb2dVertex
 10
7.6684779154
 20
8.0530228242
 30
0.0
  0
VERTEX
  5
62B
330
31B
100
AcDbEntity
  8
0
  6
CONTINUOUS
 62
     7
100
AcDbVertex
100
AcDb2dVertex
 10
7.6763659925
 20
8.0486480438
 30
0.0
  0
SEQEND
  5
62C
330
31B
100
AcDbEntity
  8
0
  6
CONTINUOUS
 62
     7
  0
SPLINE
  5
31C
330
1F
100
AcDbEntity
  8
0
  6
CONTINUOUS
 62
     7
100
AcDbSpline
210
0.0
220
0.0
230
1.0
 70
     8
 71
     3
 72
    30
 73
    26
 74
     0
 42
0.00000001
 43
0.00000001
 40
0.0
 40
0.0
 40
0.0
 40
0.0
 40
0.0071002541500645
 40
0.0677430620174466
 40
0.1299154820732683
 40
0.1791589665798722
 40
0.2297181923922164
 40
0.279027688070401
 40
0.3302434580267904
 40
0.3728910261051864
 40
0.4170245387776653
 40
0.4559909002150179
 40
0.4961564472375536
 40
0.5340275450692301
 40
0.5729845866289589
 40
0.6111386526970886
 40
0.6503157880481458
 40
0.6901272200902476
 40
0.7309135045171986
 40
0.7744724492346828
 40
0.818986717036982
 40
0.8805092122826131
 40
0.9438073098140621
 40
0.9831654542957147
 40
1.0
 40
1.0
 40
1.0
 40
1.0
 10
6.887893709167538
 20
6.686324429146217
 30
0.0
 10
6.886948615322122
 20
6.686924525763455
 30
0.0
 10
6.87793153654871
 20
6.69265000847138
 30
0.0
 10
6.864224334027265
 20
6.703574831340908
 30
0.0
 10
6.850709385620313
 20
6.717297691344487
 30
0.0
 10
6.844043827495892
 20
6.728699517559438
 30
0.0
 10
6.843163970968714
 20
6.737207028738299
 30
0.0
 10
6.848048571124171
 20
6.742905256582766
 30
0.0
 10
6.858205742848877
 20
6.744668258188498
 30
0.0
 10
6.872595374024827
 20
6.742453398553281
 30
0.0
 10
6.889109081050102
 20
6.73687577357547
 30
0.0
 10
6.907843323938249
 20
6.728045237316906
 30
0.0
 10
6.927377127887973
 20
6.716781801712029
 30
0.0
 10
6.948030679635614
 20
6.703025862961023
 30
0.0
 10
6.96890127903698
 20
6.687538498523131
 30
0.0
 10
6.990078003121789
 20
6.670462998702541
 30
0.0
 10
7.011051121729634
 20
6.652467940667633
 30
0.0
 10
7.031737751301533
 20
6.633928270804445
 30
0.0
 10
7.052077362325522
 20
6.615237984832584
 30
0.0
 10
7.071777784214732
 20
6.597026477471808
 30
0.0
 10
7.092783787277195
 20
6.577923987379419
 30
0.0
 10
7.11404602239262
 20
6.559507033865206
 30
0.0
 10
7.131694281657921
 20
6.545914878461234
 30
0.0
 10
7.143187201704835
 20
6.538067941353852
 30
0.0
 10
7.147859794807164
 20
6.53547450967828
 30
0.0
 10
7.149259638485735
 20
6.53469755374453
 30
0.0
  0
LINE
  5
31D
330
1F
100
AcDbEntity
  8
0
  6
CONTINUOUS
 62
     7
100
AcDbLine
 10
7.324766497
 20
7.144635742
 30
0.0
 11
7.2923338571
 21
7.1259127775
 31
0.0
  0
LINE
  5
31E
330
1F
100
AcDbEntity
  8
0
  6
CONTINUOUS
 62
     7
100
AcDbLine
 10
7.3944096391
 20
6.4240401616
 30
0.0
 11
7.430134069
 21
6.4256120325
 31
0.0
  0
LINE
  5
31F
330
1F
100
AcDbEntity
  8
0
  6
CONTINUOUS
 62
     7
100
AcDbLine
 10
7.446144217
 20
7.0692619984
 30
0.0
 11
7.3944096391
 21
7.0669856828
 31
0.0
  0
ARC
  5
320
330
1F
100
AcDbEntity
  8
0
  6
CONTINUOUS
 62
     7
100
AcDbCircle
 10
7.8714934044
 20
7.026814992
 30
0.0
 40
1.14669131757476
100
AcDbArc
 50
122.5358040737
 51
177.469572459
  0
LINE
  5
321
330
1F
100
AcDbEntity
  8
0
  6
CONTINUOUS
 62
     7
100
AcDbLine
 10
7.1060304538
 20
6.4815477516
 30
0.0
 11
7.1068036067
 21
6.4819863598
 31
0.0
  0
LINE
  5
322
330
1F
100
AcDbEntity
  8
0
  6
CONTINUOUS
 62
     7
100
AcDbLine
 10
6.9486310043
 20
6.6224062751
 30
0.0
 11
6.9486310043
 21
6.6966472291
 31
0.0
  0
LINE
  5
323
330
1F
100
AcDbEntity
  8
0
  6
CONTINUOUS
 62
     7
100
AcDbLine
 10
7.0043087036
 20
6.5531437465
 30
0.0
 11
6.9486310043
 21
6.6224062751
 31
0.0
  0
LINE
  5
324
330
1F
100
AcDbEntity
  8
0
  6
CONTINUOUS
 62
     7
100
AcDbLine
 10
7.0599864029
 20
6.5581221718
 30
0.0
 11
7.0043087036
 21
6.5531437465
 31
0.0
  0
LINE
  5
325
330
1F
100
AcDbEntity
  8
0
  6
CONTINUOUS
 62
     7
100
AcDbLine
 10
7.0599864029
 20
6.6079346716
 30
0.0
 11
7.0599864029
 21
6.5581221718
 31
0.0
  0
LINE
  5
326
330
1F
100
AcDbEntity
  8
0
  6
CONTINUOUS
 62
     7
100
AcDbLine
 10
6.9486310043
 20
6.6966472291
 30
0.0
 11
6.9554626838
 21
6.6972580842
 31
0.0
  0
LINE
  5
327
330
1F
100
AcDbEntity
  8
0
  6
CONTINUOUS
 62
     7
100
AcDbLine
 10
7.0599864029
 20
6.5852857982
 30
0.0
 11
7.0043087036
 21
6.5531437465
 31
0.0
  0
LINE
  5
328
330
1F
100
AcDbEntity
  8
0
  6
CONTINUOUS
 62
     7
100
AcDbLine
 10
7.0067926527
 20
6.6559822801
 30
0.0
 11
6.9486310043
 21
6.6224062751
 31
0.0
  0
ARC
  5
329
330
1F
100
AcDbEntity
  8
0
  6
CONTINUOUS
 62
     8
100
AcDbCircle
 10
8.5609715356
 20
6.8217081035
 30
0.0
 40
0.2226994685013995
100
AcDbArc
 50
240.683053136
 51
309.972200673
  0
POLYLINE
  5
32A
330
1F
100
AcDbEntity
  8
0
  6
CONTINUOUS
 62
     8
100
AcDb2dPolyline
 66
     1
 10
0.0
 20
0.0
 30
0.0
  0
VERTEX
  5
62D
330
32A
100
AcDbEntity
  8
0
  6
CONTINUOUS
 62
     8
100
AcDbVertex
100
AcDb2dVertex
 10
8.7198560042
 20
6.6820634338
 30
0.0
  0
VERTEX
  5
62E
330
32A
100
AcDbEntity
  8
0
  6
CONTINUOUS
 62
     8
100
AcDbVertex
100
AcDb2dVertex
 10
8.7207459255
 20
6.6904151096
 30
0.0
  0
VERTEX
  5
62F
330
32A
100
AcDbEntity
  8
0
  6
CONTINUOUS
 62
     8
100
AcDbVertex
100
AcDb2dVertex
 10
8.7198504624
 20
6.7015963487
 30
0.0
  0
VERTEX
  5
630
330
32A
100
AcDbEntity
  8
0
  6
CONTINUOUS
 62
     8
100
AcDbVertex
100
AcDb2dVertex
 10
8.7165816155
 20
6.7126293139
 30
0.0
  0
VERTEX
  5
631
330
32A
100
AcDbEntity
  8
0
  6
CONTINUOUS
 62
     8
100
AcDbVertex
100
AcDb2dVertex
 10
8.7109889374
 20
6.7233467567
 30
0.0
  0
VERTEX
  5
632
330
32A
100
AcDbEntity
  8
0
  6
CONTINUOUS
 62
     8
100
AcDbVertex
100
AcDb2dVertex
 10
8.7031572073
 20
6.7335862115
 30
0.0
  0
VERTEX
  5
633
330
32A
100
AcDbEntity
  8
0
  6
CONTINUOUS
 62
     8
100
AcDbVertex
100
AcDb2dVertex
 10
8.6932051463
 20
6.7431924586
 30
0.0
  0
VERTEX
  5
634
330
32A
100
AcDbEntity
  8
0
  6
CONTINUOUS
 62
     8
100
AcDbVertex
100
AcDb2dVertex
 10
8.6812836174
 20
6.7520198771
 30
0.0
  0
VERTEX
  5
635
330
32A
100
AcDbEntity
  8
0
  6
CONTINUOUS
 62
     8
100
AcDbVertex
100
AcDb2dVertex
 10
8.6675733389
 20
6.7599346524
 30
0.0
  0
VERTEX
  5
636
330
32A
100
AcDbEntity
  8
0
  6
CONTINUOUS
 62
     8
100
AcDbVertex
100
AcDb2dVertex
 10
8.6522821447
 20
6.7668168045
 30
0.0
  0
VERTEX
  5
637
330
32A
100
AcDbEntity
  8
0
  6
CONTINUOUS
 62
     8
100
AcDbVertex
100
AcDb2dVertex
 10
8.6356418336
 20
6.7725620071
 30
0.0
  0
VERTEX
  5
638
330
32A
100
AcDbEntity
  8
0
  6
CONTINUOUS
 62
     8
100
AcDbVertex
100
AcDb2dVertex
 10
8.6179046558
 20
6.7770831686
 30
0.0
  0
VERTEX
  5
639
330
32A
100
AcDbEntity
  8
0
  6
CONTINUOUS
 62
     8
100
AcDbVertex
100
AcDb2dVertex
 10
8.5993394889
 20
6.780311753
 30
0.0
  0
VERTEX
  5
63A
330
32A
100
AcDbEntity
  8
0
  6
CONTINUOUS
 62
     8
100
AcDbVertex
100
AcDb2dVertex
 10
8.5802277618
 20
6.7821988181
 30
0.0
  0
VERTEX
  5
63B
330
32A
100
AcDbEntity
  8
0
  6
CONTINUOUS
 62
     8
100
AcDbVertex
100
AcDb2dVertex
 10
8.5608591888
 20
6.782715758
 30
0.0
  0
VERTEX
  5
63C
330
32A
100
AcDbEntity
  8
0
  6
CONTINUOUS
 62
     8
100
AcDbVertex
100
AcDb2dVertex
 10
8.5415273779
 20
6.7818547364
 30
0.0
  0
VERTEX
  5
63D
330
32A
100
AcDbEntity
  8
0
  6
CONTINUOUS
 62
     8
100
AcDbVertex
100
AcDb2dVertex
 10
8.5225253794
 20
6.7796288054
 30
0.0
  0
VERTEX
  5
63E
330
32A
100
AcDbEntity
  8
0
  6
CONTINUOUS
 62
     8
100
AcDbVertex
100
AcDb2dVertex
 10
8.5041412444
 20
6.7760717081
 30
0.0
  0
VERTEX
  5
63F
330
32A
100
AcDbEntity
  8
0
  6
CONTINUOUS
 62
     8
100
AcDbVertex
100
AcDb2dVertex
 10
8.4866536576
 20
6.7712373662
 30
0.0
  0
VERTEX
  5
640
330
32A
100
AcDbEntity
  8
0
  6
CONTINUOUS
 62
     8
100
AcDbVertex
100
AcDb2dVertex
 10
8.470327713
 20
6.7651990635
 30
0.0
  0
VERTEX
  5
641
330
32A
100
AcDbEntity
  8
0
  6
CONTINUOUS
 62
     8
100
AcDbVertex
100
AcDb2dVertex
 10
8.4554108952
 20
6.7580483346
 30
0.0
  0
VERTEX
  5
642
330
32A
100
AcDbEntity
  8
0
  6
CONTINUOUS
 62
     8
100
AcDbVertex
100
AcDb2dVertex
 10
8.4421293281
 20
6.7498935772
 30
0.0
  0
VERTEX
  5
643
330
32A
100
AcDbEntity
  8
0
  6
CONTINUOUS
 62
     8
100
AcDbVertex
100
AcDb2dVertex
 10
8.4306843466
 20
6.740858409
 30
0.0
  0
VERTEX
  5
644
330
32A
100
AcDbEntity
  8
0
  6
CONTINUOUS
 62
     8
100
AcDbVertex
100
AcDb2dVertex
 10
8.421249445
 20
6.7310797941
 30
0.0
  0
VERTEX
  5
645
330
32A
100
AcDbEntity
  8
0
  6
CONTINUOUS
 62
     8
100
AcDbVertex
100
AcDb2dVertex
 10
8.4139676467
 20
6.7207059663
 30
0.0
  0
VERTEX
  5
646
330
32A
100
AcDbEntity
  8
0
  6
CONTINUOUS
 62
     8
100
AcDbVertex
100
AcDb2dVertex
 10
8.4089493365
 20
6.7098941821
 30
0.0
  0
VERTEX
  5
647
330
32A
100
AcDbEntity
  8
0
  6
CONTINUOUS
 62
     8
100
AcDbVertex
100
AcDb2dVertex
 10
8.4062705868
 20
6.6988083374
 30
0.0
  0
VERTEX
  5
648
330
32A
100
AcDbEntity
  8
0
  6
CONTINUOUS
 62
     8
100
AcDbVertex
100
AcDb2dVertex
 10
8.4059720046
 20
6.6876164821
 30
0.0
  0
VERTEX
  5
649
330
32A
100
AcDbEntity
  8
0
  6
CONTINUOUS
 62
     8
100
AcDbVertex
100
AcDb2dVertex
 10
8.4080581163
 20
6.6764882733
 30
0.0
  0
VERTEX
  5
64A
330
32A
100
AcDbEntity
  8
0
  6
CONTINUOUS
 62
     8
100
AcDbVertex
100
AcDb2dVertex
 10
8.4124972985
 20
6.6655924035
 30
0.0
  0
VERTEX
  5
64B
330
32A
100
AcDbEntity
  8
0
  6
CONTINUOUS
 62
     8
100
AcDbVertex
100
AcDb2dVertex
 10
8.4192222576
 20
6.6550940428
 30
0.0
  0
VERTEX
  5
64C
330
32A
100
AcDbEntity
  8
0
  6
CONTINUOUS
 62
     8
100
AcDbVertex
100
AcDb2dVertex
 10
8.4281310502
 20
6.6451523357
 30
0.0
  0
VERTEX
  5
64D
330
32A
100
AcDbEntity
  8
0
  6
CONTINUOUS
 62
     8
100
AcDbVertex
100
AcDb2dVertex
 10
8.4390886281
 20
6.6359179883
 30
0.0
  0
VERTEX
  5
64E
330
32A
100
AcDbEntity
  8
0
  6
CONTINUOUS
 62
     8
100
AcDbVertex
100
AcDb2dVertex
 10
8.4519288855
 20
6.627530984
 30
0.0
  0
VERTEX
  5
64F
330
32A
100
AcDbEntity
  8
0
  6
CONTINUOUS
 62
     8
100
AcDbVertex
100
AcDb2dVertex
 10
8.4519288855
 20
6.627530984
 30
0.0
  0
SEQEND
  5
650
330
32A
100
AcDbEntity
  8
0
  6
CONTINUOUS
 62
     8
  0
ARC
  5
32B
330
1F
100
AcDbEntity
  8
0
  6
CONTINUOUS
 62
     8
100
AcDbCircle
 10
8.4723287906
 20
6.6828224935
 30
0.0
 40
0.0865001808186568
100
AcDbArc
 50
184.6955792933
 51
246.6245616644
  0
ARC
  5
32C
330
1F
100
AcDbEntity
  8
0
  6
CONTINUOUS
 62
     8
100
AcDbCircle
 10
8.5641423615
 20
6.8491295929
 30
0.0
 40
0.2761916216991999
100
AcDbArc
 50
242.8265204267
 51
291.5864928597
  0
ARC
  5
32D
330
1F
100
AcDbEntity
  8
0
  6
CONTINUOUS
 62
     8
100
AcDbCircle
 10
7.1165325332
 20
6.6891948642
 30
0.0
 40
0.2210114683949908
100
AcDbArc
 50
168.9036618845
 51
239.4843439494
  0
ARC
  5
32E
330
1F
100
AcDbEntity
  8
0
  6
CONTINUOUS
 62
     8
100
AcDbCircle
 10
7.0475040857
 20
6.5518925531
 30
0.0
 40
0.0684479938678544
100
AcDbArc
 50
230.8709914097
 51
5.8041330295
  0
ARC
  5
32F
330
1F
100
AcDbEntity
  8
0
  6
CONTINUOUS
 62
     8
100
AcDbCircle
 10
7.0613209243
 20
6.5488746338
 30
0.0
 40
0.0808870545850063
100
AcDbArc
 50
304.2149149037
 51
353.243770284
  0
ENDSEC
  0
SECTION
  2
OBJECTS
  0
DICTIONARY
  5
C
330
0
100
AcDbDictionary
  3
ACAD_GROUP
350
D
  3
ACAD_LAYOUT
350
1A
  3
ACAD_MLEADERSTYLE
350
332
  3
ACAD_MLINESTYLE
350
17
  3
ACAD_PLOTSETTINGS
350
19
  3
ACAD_SCALELIST
350
6F
  3
ACAD_VISUALSTYLE
350
2A
  3
ACDBVARIABLEDICTIONARY
350
330
1001
ACAD
1000
TREAT_AS_HARD
1070
     0
  0
DICTIONARY
  5
D
102
{ACAD_REACTORS
330
C
102
}
330
C
100
AcDbDictionary
1001
ACAD
1000
TREAT_AS_HARD
1070
     0
  0
DICTIONARY
  5
1A
102
{ACAD_REACTORS
330
C
102
}
330
C
100
AcDbDictionary
1001
ACAD
1000
TREAT_AS_HARD
1070
     0
  0
DICTIONARY
  5
332
102
{ACAD_REACTORS
330
C
102
}
330
C
100
AcDbDictionary
1001
ACAD
1000
TREAT_AS_HARD
1070
     0
  0
DICTIONARY
  5
17
102
{ACAD_REACTORS
330
C
102
}
330
C
100
AcDbDictionary
  3
STANDARD
350
18
1001
ACAD
1000
TREAT_AS_HARD
1070
     0
  0
DICTIONARY
  5
19
102
{ACAD_REACTORS
330
C
102
}
330
C
100
AcDbDictionary
1001
ACAD
1000
TREAT_AS_HARD
1070
     0
  0
DICTIONARY
  5
6F
102
{ACAD_REACTORS
330
C
102
}
330
C
100
AcDbDictionary
  3
A0
350
70
  3
A1
350
71
  3
A2
350
72
  3
A3
350
73
  3
A4
350
74
  3
A5
350
75
  3
A6
350
76
  3
A7
350
77
  3
A8
350
78
  3
A9
350
79
  3
B0
350
7A
  3
B1
350
7B
  3
B2
350
7C
  3
B3
350
7D
  3
B4
350
7E
  3
B5
350
7F
  3
B6
350
80
  3
B7
350
81
  3
B8
350
82
  3
B9
350
83
  3
C0
350
84
  3
C1
350
85
  3
C2
350
86
  3
C3
350
87
  3
C4
350
88
  3
C5
350
89
  3
C6
350
8A
  3
C7
350
8B
  3
C8
350
8C
  3
C9
350
8D
  3
D0
350
8E
  3
D1
350
8F
  3
D2
350
90
1001
ACAD
1000
TREAT_AS_HARD
1070
     0
  0
DICTIONARY
  5
2A
102
{ACAD_REACTORS
330
C
102
}
330
C
100
AcDbDictionary
  3
2DWIREFRAME
350
2F
  3
3D_HIDDEN
350
31
  3
3DWIREFRAME
350
30
  3
BASIC
350
32
  3
BRIGHTEN
350
36
  3
COLORCHANGE
350
3A
  3
CONCEPTUAL
350
34
  3
DIM
350
35
  3
FACEPATTERN
350
39
  3
FLAT
350
2B
  3
FLATWITHEDGES
350
2C
  3
GOURAUD
350
2D
  3
GOURAUDWITHEDGES
350
2E
  3
LINEPATTERN
350
38
  3
REALISTIC
350
33
  3
THICKEN
350
37
1001
ACAD
1000
TREAT_AS_HARD
1070
     0
  0
DICTIONARY
  5
330
102
{ACAD_REACTORS
330
C
102
}
330
C
100
AcDbDictionary
  3
CANNOSCALE
350
333
  3
DIMASSOC
350
334
  3
HIDETEXT
350
335
1001
ACAD
1000
TREAT_AS_HARD
1070
     0
  0
MLINESTYLE
  5
18
102
{ACAD_REACTORS
330
17
102
}
330
17
100
AcDbMlineStyle
  2
Standard
 70
     0
  3

 62
   256
 51
90.0
 52
90.0
 71
     2
 49
0.5
 62
   256
  6
BYLAYER
 49
-0.5
 62
   256
  6
BYLAYER
  0
ACAD_PROXY_OBJECT
  5
70
102
{ACAD_REACTORS
330
6F
102
}
330
6F
100
AcDbZombieObject
 90
      499
 91
      502
 93
       41
310
903313A31580
  0
ACAD_PROXY_OBJECT
  5
71
102
{ACAD_REACTORS
330
6F
102
}
330
6F
100
AcDbZombieObject
 90
      499
 91
      502
 93
      105
310
903313A324000000000000004000
  0
ACAD_PROXY_OBJECT
  5
72
102
{ACAD_REACTORS
330
6F
102
}
330
6F
100
AcDbZombieObject
 90
      499
 91
      502
 93
      105
310
903313A344000000000000104000
  0
ACAD_PROXY_OBJECT
  5
73
102
{ACAD_REACTORS
330
6F
102
}
330
6F
100
AcDbZombieObject
 90
      499
 91
      502
 93
      105
310
903313A354000000000000144000
  0
ACAD_PROXY_OBJECT
  5
74
102
{ACAD_REACTORS
330
6F
102
}
330
6F
100
AcDbZombieObject
 90
      499
 91
      502
 93
      105
310
903313A384000000000000204000
  0
ACAD_PROXY_OBJECT
  5
75
102
{ACAD_REACTORS
330
6F
102
}
330
6F
100
AcDbZombieObject
 90
      499
 91
      502
 93
      113
310
904313A31304000000000000244000
  0
ACAD_PROXY_OBJECT
  5
76
102
{ACAD_REACTORS
330
6F
102
}
330
6F
100
AcDbZombieObject
 90
      499
 91
      502
 93
      113
310
904313A31364000000000000304000
  0
ACAD_PROXY_OBJECT
  5
77
102
{ACAD_REACTORS
330
6F
102
}
330
6F
100
AcDbZombieObject
 90
      499
 91
      502
 93
      113
310
904313A32304000000000000344000
  0
ACAD_PROXY_OBJECT
  5
78
102
{ACAD_REACTORS
330
6F
102
}
330
6F
100
AcDbZombieObject
 90
      499
 91
      502
 93
      113
310
904313A333040000000000003E4000
  0
ACAD_PROXY_OBJECT
  5
79
102
{ACAD_REACTORS
330
6F
102
}
330
6F
100
AcDbZombieObject
 90
      499
 91
      502
 93
      113
310
904313A34304000000000000444000
  0
ACAD_PROXY_OBJECT
  5
7A
102
{ACAD_REACTORS
330
6F
102
}
330
6F
100
AcDbZombieObject
 90
      499
 91
      502
 93
      113
310
904313A35304000000000000494000
  0
ACAD_PROXY_OBJECT
  5
7B
102
{ACAD_REACTORS
330
6F
102
}
330
6F
100
AcDbZombieObject
 90
      499
 91
      502
 93
      121
310
905313A3130304000000000000594000
  0
ACAD_PROXY_OBJECT
  5
7C
102
{ACAD_REACTORS
330
6F
102
}
330
6F
100
AcDbZombieObject
 90
      499
 91
      502
 93
      105
310
903323A310000000000000010100
  0
ACAD_PROXY_OBJECT
  5
7D
102
{ACAD_REACTORS
330
6F
102
}
330
6F
100
AcDbZombieObject
 90
      499
 91
      502
 93
      105
310
903343A310000000000000410100
  0
ACAD_PROXY_OBJECT
  5
7E
102
{ACAD_REACTORS
330
6F
102
}
330
6F
100
AcDbZombieObject
 90
      499
 91
      502
 93
      105
310
903383A310000000000000810100
  0
ACAD_PROXY_OBJECT
  5
7F
102
{ACAD_REACTORS
330
6F
102
}
330
6F
100
AcDbZombieObject
 90
      499
 91
      502
 93
      113
310
90431303A310000000000000910100
  0
ACAD_PROXY_OBJECT
  5
80
102
{ACAD_REACTORS
330
6F
102
}
330
6F
100
AcDbZombieObject
 90
      499
 91
      502
 93
      121
310
9053130303A310000000000001650100
  0
ACAD_PROXY_OBJECT
  5
81
102
{ACAD_REACTORS
330
6F
102
}
330
6F
100
AcDbZombieObject
 90
      499
 91
      502
 93
      257
310
90E312F31323822203D2031272D3022000000000000200FC000000000000284000
  0
ACAD_PROXY_OBJECT
  5
82
102
{ACAD_REACTORS
330
6F
102
}
330
6F
100
AcDbZombieObject
 90
      499
 91
      502
 93
      249
310
90D312F363422203D2031272D3022000000000000240FC000000000000284000
  0
ACAD_PROXY_OBJECT
  5
83
102
{ACAD_REACTORS
330
6F
102
}
330
6F
100
AcDbZombieObject
 90
      499
 91
      502
 93
      249
310
90D312F333222203D2031272D3022000000000000280FC000000000000284000
  0
ACAD_PROXY_OBJECT
  5
84
102
{ACAD_REACTORS
330
6F
102
}
330
6F
100
AcDbZombieObject
 90
      499
 91
      502
 93
      249
310
90D312F313622203D2031272D30220000000000002C0FC000000000000284000
  0
ACAD_PROXY_OBJECT
  5
85
102
{ACAD_REACTORS
330
6F
102
}
330
6F
100
AcDbZombieObject
 90
      499
 91
      502
 93
      249
310
90D332F333222203D2031272D30220000000000002E0FC000000000000284000
  0
ACAD_PROXY_OBJECT
  5
86
102
{ACAD_REACTORS
330
6F
102
}
330
6F
100
AcDbZombieObject
 90
      499
 91
      502
 93
      241
310
90C312F3822203D2031272D3022000000000000300FC000000000000284000
  0
ACAD_PROXY_OBJECT
  5
87
102
{ACAD_REACTORS
330
6F
102
}
330
6F
100
AcDbZombieObject
 90
      499
 91
      502
 93
      249
310
90D332F313622203D2031272D3022000000000000320FC000000000000284000
  0
ACAD_PROXY_OBJECT
  5
88
102
{ACAD_REACTORS
330
6F
102
}
330
6F
100
AcDbZombieObject
 90
      499
 91
      502
 93
      241
310
90C312F3422203D2031272D3022000000000000340FC000000000000284000
  0
ACAD_PROXY_OBJECT
  5
89
102
{ACAD_REACTORS
330
6F
102
}
330
6F
100
AcDbZombieObject
 90
      499
 91
      502
 93
      241
310
90C332F3822203D2031272D3022000000000000360FC000000000000284000
  0
ACAD_PROXY_OBJECT
  5
8A
102
{ACAD_REACTORS
330
6F
102
}
330
6F
100
AcDbZombieObject
 90
      499
 91
      502
 93
      241
310
90C312F3222203D2031272D3022000000000000380FC000000000000284000
  0
ACAD_PROXY_OBJECT
  5
8B
102
{ACAD_REACTORS
330
6F
102
}
330
6F
100
AcDbZombieObject
 90
      499
 91
      502
 93
      241
310
90C332F3422203D2031272D30220000000000003A0FC000000000000284000
  0
ACAD_PROXY_OBJECT
  5
8C
102
{ACAD_REACTORS
330
6F
102
}
330
6F
100
AcDbZombieObject
 90
      499
 91
      502
 93
      161
310
90A3122203D2031272D30224000000000000284000
  0
ACAD_PROXY_OBJECT
  5
8D
102
{ACAD_REACTORS
330
6F
102
}
330
6F
100
AcDbZombieObject
 90
      499
 91
      502
 93
      257
310
90E312D312F3222203D2031272D30220000000000003E0FC000000000000284000
  0
ACAD_PROXY_OBJECT
  5
8E
102
{ACAD_REACTORS
330
6F
102
}
330
6F
100
AcDbZombieObject
 90
      499
 91
      502
 93
      225
310
90A3322203D2031272D302200000000000002100000000000000284000
  0
ACAD_PROXY_OBJECT
  5
8F
102
{ACAD_REACTORS
330
6F
102
}
330
6F
100
AcDbZombieObject
 90
      499
 91
      502
 93
      225
310
90A3622203D2031272D302200000000000006100000000000000284000
  0
ACAD_PROXY_OBJECT
  5
90
102
{ACAD_REACTORS
330
6F
102
}
330
6F
100
AcDbZombieObject
 90
      499
 91
      502
 93
      249
310
90D31272D3022203D2031272D30220000000000000A100000000000000284000
  0
ACAD_PROXY_OBJECT
  5
2F
102
{ACAD_REACTORS
330
2A
102
}
330
2A
100
AcDbZombieObject
 90
      499
 91
      501
 93
      436
310
42CC9915DA5C99599C985B595049028333333333333E3BF0000000000000FB0107901411070040501600405405064090741402480A0340
1001
ACAD
1000
AcDbSavedByObjectVersion
1070
     0
  0
ACAD_PROXY_OBJECT
  5
31
102
{ACAD_REACTORS
330
2A
102
}
330
2A
100
AcDbZombieObject
 90
      499
 91
      501
 93
      500
310
424CD108121A5919195B90640502408333333333333E3BF0000000000000FB01079024090700405020000000000001110200405405064090740C02480A0340
1001
ACAD
1000
AcDbSavedByObjectVersion
1070
     0
  0
ACAD_PROXY_OBJECT
  5
30
102
{ACAD_REACTORS
330
2A
102
}
330
2A
100
AcDbZombieObject
 90
      499
 91
      501
 93
      436
310
42CCD915DA5C99599C985B595059028333333333333E3BF0000000000000FB0107901411070040501600405405064090741402480A0340
1001
ACAD
1000
AcDbSavedByObjectVersion
1070
     0
  0
ACAD_PROXY_OBJECT
  5
32
102
{ACAD_REACTORS
330
2A
102
}
330
2A
100
AcDbZombieObject
 90
      499
 91
      501
 93
      388
310
4150985CDA58D07406404333333333333E3BF0000000000000FB0107A41107004050150841D405064090741402480A0350
1001
ACAD
1000
AcDbSavedByObjectVersion
1070
     0
  0
ACAD_PROXY_OBJECT
  5
36
102
{ACAD_REACTORS
330
2A
102
}
330
2A
100
AcDbZombieObject
 90
      499
 91
      501
 93
      428
310
42109C9A59DA1D195B90C409028333333333333E3BF0000000000000FB010790141107004050150841D405064090741402480A029950
1001
ACAD
1000
AcDbSavedByObjectVersion
1070
     0
  0
ACAD_PROXY_OBJECT
  5
3A
102
{ACAD_REACTORS
330
2A
102
}
330
2A
100
AcDbZombieObject
 90
      499
 91
      501
 93
      452
310
42D0DBDB1BDC90DA185B99D95104090240C333333333333E3BF0000000000000FB0108901411070040501508421405064090741402480A0350
1001
ACAD
1000
AcDbSavedByObjectVersion
1070
     0
  0
ACAD_PROXY_OBJECT
  5
34
102
{ACAD_REACTORS
330
2A
102
}
330
2A
100
AcDbZombieObject
 90
      499
 91
      501
 93
      500
310
4290DBDB98D95C1D1D585B10940D028333333333333E3BF0000000000000FB0107902409070040501000000000000111010841D405064090740C02480A0340
1001
ACAD
1000
AcDbSavedByObjectVersion
1070
     0
  0
ACAD_PROXY_OBJECT
  5
35
102
{ACAD_REACTORS
330
2A
102
}
330
2A
100
AcDbZombieObject
 90
      499
 91
      501
 93
      412
310
40D11A5B50B409028333333333333E3BF0000000000000FB010790141107004050150841D405064090741402480A02677FFFFFD0
1001
ACAD
1000
AcDbSavedByObjectVersion
1070
     0
  0
ACAD_PROXY_OBJECT
  5
39
102
{ACAD_REACTORS
330
2A
102
}
330
2A
100
AcDbZombieObject
 90
      499
 91
      501
 93
      444
310
42D19858D95C185D1D195C9B90F409028333333333333E3BF0000000000000FB010790141107004050150841D405064090741402480A0350
1001
ACAD
1000
AcDbSavedByObjectVersion
1070
     0
  0
ACAD_PROXY_OBJECT
  5
2B
102
{ACAD_REACTORS
330
2A
102
}
330
2A
100
AcDbZombieObject
 90
      499
 91
      501
 93
      388
310
41119B185D240901404333333333333E3BF0000000000000F9010740A41107004050150841D405064090741402480A1B50
1001
ACAD
1000
AcDbSavedByObjectVersion
1070
     0
  0
ACAD_PROXY_OBJECT
  5
2C
102
{ACAD_REACTORS
330
2A
102
}
330
2A
100
AcDbZombieObject
 90
      499
 91
      501
 93
      476
310
43519B185D15DA5D1A115919D95CD0140901404333333333333E3BF0000000000000F9010740901411070040501600405405064090741402480A1B50
1001
ACAD
1000
AcDbSavedByObjectVersion
1070
     0
  0
ACAD_PROXY_OBJECT
  5
2D
102
{ACAD_REACTORS
330
2A
102
}
330
2A
100
AcDbZombieObject
 90
      499
 91
      501
 93
      412
310
41D1DBDD5C985D5910240902404333333333333E3BF0000000000000F9010740A411070040501641D405064090741402480A1B50
1001
ACAD
1000
AcDbSavedByObjectVersion
1070
     0
  0
ACAD_PROXY_OBJECT
  5
2E
102
{ACAD_REACTORS
330
2A
102
}
330
2A
100
AcDbZombieObject
 90
      499
 91
      501
 93
      500
310
4411DBDD5C985D5915DA5D1A115919D95CD0340902404333333333333E3BF0000000000000F9010740901411070040501600405405064090741402480A1B50
1001
ACAD
1000
AcDbSavedByObjectVersion
1070
     0
  0
ACAD_PROXY_OBJECT
  5
38
102
{ACAD_REACTORS
330
2A
102
}
330
2A
100
AcDbZombieObject
 90
      499
 91
      501
 93
      444
310
42D31A5B995C185D1D195C9B90E409028333333333333E3BF0000000000000FB010790141107004050750841D405064090741402483A0350
1001
ACAD
1000
AcDbSavedByObjectVersion
1070
     0
  0
ACAD_PROXY_OBJECT
  5
33
102
{ACAD_REACTORS
330
2A
102
}
330
2A
100
AcDbZombieObject
 90
      499
 91
      501
 93
      420
310
425499585B1A5CDD1A58D08409028333333333333E3BF0000000000000FB01079019070040501508421405064090741402480A1B40
1001
ACAD
1000
AcDbSavedByObjectVersion
1070
     0
  0
ACAD_PROXY_OBJECT
  5
37
102
{ACAD_REACTORS
330
2A
102
}
330
2A
100
AcDbZombieObject
 90
      499
 91
      501
 93
      412
310
41D51A1A58DAD95B90D409028333333333333E3BF0000000000000FB010790141107004050150C41D405064090741402480A0350
1001
ACAD
1000
AcDbSavedByObjectVersion
1070
     0
  0
DICTIONARYVAR
  5
333
102
{ACAD_REACTORS
330
330
102
}
330
330
100
DictionaryVariables
280
     0
  1
1:1
  0
DICTIONARYVAR
  5
334
102
{ACAD_REACTORS
330
330
102
}
330
330
100
DictionaryVariables
280
     0
  1
2
  0
DICTIONARYVAR
  5
335
102
{ACAD_REACTORS
330
330
102
}
330
330
100
DictionaryVariables
280
     0
  1
1
  0
ENDSEC
  0
EOF
