  0
SECTION
  2
HEADER
  9
$ACADVER
  1
AC1012
  9
$DWGCODEPAGE
  3
ansi_1252
  9
$INSBASE
 10
0.0
 20
0.0
 30
0.0
  9
$EXTMIN
 10
0.0
 20
0.0
 30
0.0
  9
$EXTMAX
 10
11.0
 20
8.5
 30
0.0
  9
$LIMMIN
 10
0.0
 20
0.0
  9
$LIMMAX
 10
11.0
 20
8.5
  9
$ORTHOMODE
 70
     0
  9
$REGENMODE
 70
     1
  9
$FILLMODE
 70
     1
  9
$QTEXTMODE
 70
     0
  9
$MIRRTEXT
 70
     1
  9
$DRAGMODE
 70
     2
  9
$LTSCALE
 40
1.0
  9
$OSMODE
 70
    37
  9
$ATTMODE
 70
     1
  9
$TEXTSIZE
 40
0.125
  9
$TRACEWID
 40
0.05
  9
$TEXTSTYLE
  7
STANDARD
  9
$CLAYER
  8
0
  9
$CELTYPE
  6
BYLAYER
  9
$CECOLOR
 62
   256
  9
$CELTSCALE
 40
1.0
  9
$DELOBJ
 70
     1
  9
$DISPSILH
 70
     0
  9
$DIMSCALE
 40
1.0
  9
$DIMASZ
 40
0.13
  9
$DIMEXO
 40
0.05
  9
$DIMDLI
 40
0.38
  9
$DIMRND
 40
0.0
  9
$DIMDLE
 40
0.0
  9
$DIMEXE
 40
0.125
  9
$DIMTP
 40
0.0
  9
$DIMTM
 40
0.0
  9
$DIMTXT
 40
0.125
  9
$DIMCEN
 40
0.09
  9
$DIMTSZ
 40
0.0
  9
$DIMTOL
 70
     0
  9
$DIMLIM
 70
     0
  9
$DIMTIH
 70
     1
  9
$DIMTOH
 70
     1
  9
$DIMSE1
 70
     0
  9
$DIMSE2
 70
     0
  9
$DIMTAD
 70
     0
  9
$DIMZIN
 70
     0
  9
$DIMBLK
  1

  9
$DIMASO
 70
     1
  9
$DIMSHO
 70
     1
  9
$DIMPOST
  1

  9
$DIMAPOST
  1

  9
$DIMALT
 70
     0
  9
$DIMALTD
 70
     2
  9
$DIMALTF
 40
25.4
  9
$DIMLFAC
 40
2.0
  9
$DIMTOFL
 70
     0
  9
$DIMTVP
 40
0.0
  9
$DIMTIX
 70
     0
  9
$DIMSOXD
 70
     0
  9
$DIMSAH
 70
     0
  9
$DIMBLK1
  1

  9
$DIMBLK2
  1

  9
$DIMSTYLE
  2
STANDARD
  9
$DIMCLRD
 70
     0
  9
$DIMCLRE
 70
     0
  9
$DIMCLRT
 70
     0
  9
$DIMTFAC
 40
1.0
  9
$DIMGAP
 40
0.06
  9
$DIMJUST
 70
     0
  9
$DIMSD1
 70
     0
  9
$DIMSD2
 70
     0
  9
$DIMTOLJ
 70
     1
  9
$DIMTZIN
 70
     0
  9
$DIMALTZ
 70
     0
  9
$DIMALTTZ
 70
     0
  9
$DIMFIT
 70
     3
  9
$DIMUPT
 70
     0
  9
$DIMUNIT
 70
     2
  9
$DIMDEC
 70
     3
  9
$DIMTDEC
 70
     3
  9
$DIMALTU
 70
     2
  9
$DIMALTTD
 70
     2
  9
$DIMTXSTY
  7
STANDARD
  9
$DIMAUNIT
 70
     0
  9
$LUNITS
 70
     2
  9
$LUPREC
 70
     2
  9
$SKETCHINC
 40
0.1
  9
$FILLETRAD
 40
0.5
  9
$AUNITS
 70
     0
  9
$AUPREC
 70
     2
  9
$MENU
  1
.
  9
$ELEVATION
 40
0.0
  9
$PELEVATION
 40
0.0
  9
$THICKNESS
 40
0.0
  9
$LIMCHECK
 70
     0
  9
$CHAMFERA
 40
0.5
  9
$CHAMFERB
 40
0.5
  9
$CHAMFERC
 40
1.0
  9
$CHAMFERD
 40
0.0
  9
$SKPOLY
 70
     0
  9
$TDCREATE
 40
2455784.018539086
  9
$TDUPDATE
 40
2455784.018539097
  9
$TDINDWG
 40
0.0000000116
  9
$TDUSRTIMER
 40
0.0000000116
  9
$USRTIMER
 70
     1
  9
$ANGBASE
 50
0.0
  9
$ANGDIR
 70
     0
  9
$PDMODE
 70
     0
  9
$PDSIZE
 40
-1.0
  9
$PLINEWID
 40
0.0
  9
$COORDS
 70
     1
  9
$SPLFRAME
 70
     0
  9
$SPLINETYPE
 70
     6
  9
$SPLINESEGS
 70
     8
  9
$ATTDIA
 70
     0
  9
$ATTREQ
 70
     1
  9
$HANDLING
 70
     1
  9
$HANDSEED
  5
771
  9
$SURFTAB1
 70
     6
  9
$SURFTAB2
 70
     6
  9
$SURFTYPE
 70
     6
  9
$SURFU
 70
     6
  9
$SURFV
 70
     6
  9
$UCSNAME
  2

  9
$UCSORG
 10
0.0
 20
0.0
 30
0.0
  9
$UCSXDIR
 10
1.0
 20
0.0
 30
0.0
  9
$UCSYDIR
 10
0.0
 20
1.0
 30
0.0
  9
$PUCSNAME
  2

  9
$PUCSORG
 10
0.0
 20
0.0
 30
0.0
  9
$PUCSXDIR
 10
1.0
 20
0.0
 30
0.0
  9
$PUCSYDIR
 10
0.0
 20
1.0
 30
0.0
  9
$USERI1
 70
     0
  9
$USERI2
 70
     0
  9
$USERI3
 70
     0
  9
$USERI4
 70
     0
  9
$USERI5
 70
     0
  9
$USERR1
 40
0.0
  9
$USERR2
 40
0.0
  9
$USERR3
 40
0.0
  9
$USERR4
 40
0.0
  9
$USERR5
 40
0.0
  9
$WORLDVIEW
 70
     1
  9
$SHADEDGE
 70
     3
  9
$SHADEDIF
 70
    70
  9
$TILEMODE
 70
     1
  9
$MAXACTVP
 70
    64
  9
$PINSBASE
 10
0.0
 20
0.0
 30
0.0
  9
$PLIMCHECK
 70
     0
  9
$PEXTMIN
 10
1.0000000000E+20
 20
1.0000000000E+20
 30
1.0000000000E+20
  9
$PEXTMAX
 10
-1.0000000000E+20
 20
-1.0000000000E+20
 30
-1.0000000000E+20
  9
$PLIMMIN
 10
0.0
 20
0.0
  9
$PLIMMAX
 10
12.0
 20
9.0
  9
$UNITMODE
 70
     0
  9
$VISRETAIN
 70
     1
  9
$PLINEGEN
 70
     0
  9
$PSLTSCALE
 70
     1
  9
$TREEDEPTH
 70
  3020
  9
$PICKSTYLE
 70
     1
  9
$CMLSTYLE
  2
STANDARD
  9
$CMLJUST
 70
     0
  9
$CMLSCALE
 40
1.0
  9
$SAVEIMAGES
 70
     1
  0
ENDSEC
  0
SECTION
  2
CLASSES
  0
CLASS
  1
ACDBDICTIONARYWDFLT
  2
AcDbDictionaryWithDefault
  3
ObjectDBX Classes
 90
    32768
280
     0
281
     0
  0
CLASS
  1
VISUALSTYLE
  2
AcDbVisualStyle
  3
ObjectDBX Classes
 90
     4095
280
     0
281
     0
  0
CLASS
  1
SCALE
  2
AcDbScale
  3
ObjectDBX Classes
 90
     1153
280
     0
281
     0
  0
CLASS
  1
DICTIONARYVAR
  2
AcDbDictionaryVar
  3
ObjectDBX Classes
 90
        0
280
     0
281
     0
  0
CLASS
  1
XRECORD
  2
AcDbXrecord
  3
AutoCAD 2000
 90
    32768
280
     0
281
     0
  0
CLASS
  1
LWPOLYLINE
  2
AcDbPolyline
  3
AutoCAD 2000
 90
    32768
280
     0
281
     1
  0
CLASS
  1
HATCH
  2
AcDbHatch
  3
AutoCAD 2000
 90
    32768
280
     0
281
     1
  0
CLASS
  1
ACDBPLACEHOLDER
  2
AcDbPlaceHolder
  3
ObjectDBX Classes
 90
        0
280
     0
281
     0
  0
CLASS
  1
LAYOUT
  2
AcDbLayout
  3
ObjectDBX Classes
 90
        0
280
     0
281
     0
  0
ENDSEC
  0
SECTION
  2
TABLES
  0
TABLE
  2
VPORT
  5
8
330
0
100
AcDbSymbolTable
 70
     1
  0
VPORT
  5
29
330
8
100
AcDbSymbolTableRecord
100
AcDbViewportTableRecord
  2
*ACTIVE
 70
     0
 10
0.0
 20
0.0
 11
1.0
 21
1.0
 12
5.5
 22
4.25
 13
0.0
 23
0.0
 14
0.5
 24
0.5
 15
0.5
 25
0.5
 16
0.0
 26
0.0
 36
1.0
 17
0.0
 27
0.0
 37
0.0
 40
8.5
 41
1.2941176471
 42
50.0
 43
0.0
 44
0.0
 50
0.0
 51
0.0
 71
     0
 72
  2000
 73
     1
 74
     3
 75
     0
 76
     0
 77
     0
 78
     0
  0
ENDTAB
  0
TABLE
  2
LTYPE
  5
5
330
0
100
AcDbSymbolTable
 70
     6
  0
LTYPE
  5
14
330
5
100
AcDbSymbolTableRecord
100
AcDbLinetypeTableRecord
  2
BYBLOCK
 70
     0
  3

 72
    65
 73
     0
 40
0.0
  0
LTYPE
  5
15
330
5
100
AcDbSymbolTableRecord
100
AcDbLinetypeTableRecord
  2
BYLAYER
 70
     0
  3

 72
    65
 73
     0
 40
0.0
  0
LTYPE
  5
16
330
5
100
AcDbSymbolTableRecord
100
AcDbLinetypeTableRecord
  2
CONTINUOUS
 70
     0
  3
Solid line
 72
    65
 73
     0
 40
0.0
  0
LTYPE
  5
3B
330
5
100
AcDbSymbolTableRecord
100
AcDbLinetypeTableRecord
  2
HIDDEN
 70
     0
  3
Hidden __ __ __ __ __ __ __ __ __ __ __ __ __ __
 72
    65
 73
     2
 40
0.075
 49
0.05
 74
     0
 49
-0.025
 74
     0
  0
LTYPE
  5
3C
330
5
100
AcDbSymbolTableRecord
100
AcDbLinetypeTableRecord
  2
PHANTOM
 70
     0
  3
Phantom ______  __  __  ______  __  __  ______
 72
    65
 73
     6
 40
0.5
 49
0.25
 74
     0
 49
-0.05
 74
     0
 49
0.05
 74
     0
 49
-0.05
 74
     0
 49
0.05
 74
     0
 49
-0.05
 74
     0
  0
LTYPE
  5
3D
330
5
100
AcDbSymbolTableRecord
100
AcDbLinetypeTableRecord
  2
CENTER
 70
     0
  3
Center ____ _ ____ _ ____ _ ____ _ ____ _ ____
 72
    65
 73
     4
 40
0.4
 49
0.25
 74
     0
 49
-0.05
 74
     0
 49
0.05
 74
     0
 49
-0.05
 74
     0
  0
LTYPE
  5
3E
330
5
100
AcDbSymbolTableRecord
100
AcDbLinetypeTableRecord
  2
CENTERX2
 70
     0
  3
Center (2x) ________  __  ________  __  _____
 72
    65
 73
     4
 40
0.8
 49
0.5
 74
     0
 49
-0.1
 74
     0
 49
0.1
 74
     0
 49
-0.1
 74
     0
  0
LTYPE
  5
3F
330
5
100
AcDbSymbolTableRecord
100
AcDbLinetypeTableRecord
  2
DOT2
 70
     0
  3
Dot (.5x) ........................................
 72
    65
 73
     2
 40
0.025
 49
0.0
 74
     0
 49
-0.025
 74
     0
  0
ENDTAB
  0
TABLE
  2
LAYER
  5
2
330
0
100
AcDbSymbolTable
 70
     2
  0
LAYER
  5
10
330
2
100
AcDbSymbolTableRecord
100
AcDbLayerTableRecord
  2
0
 70
     0
 62
     7
  6
CONTINUOUS
  0
LAYER
  5
40
330
2
100
AcDbSymbolTableRecord
100
AcDbLayerTableRecord
  2
FORMAT
 70
     0
 62
     7
  6
CONTINUOUS
  0
ENDTAB
  0
TABLE
  2
STYLE
  5
3
330
0
100
AcDbSymbolTable
 70
     4
  0
STYLE
  5
11
330
3
100
AcDbSymbolTableRecord
100
AcDbTextStyleTableRecord
  2
STANDARD
 70
     0
 40
0.0
 41
1.0
 50
0.0
 71
     0
 42
0.2
  3
txt
  4

  0
STYLE
  5
6E
330
3
100
AcDbSymbolTableRecord
100
AcDbTextStyleTableRecord
  2
SLDTEXTSTYLE0
 70
     0
 40
0.0
 41
0.75
 50
0.0
 71
     0
 42
0.2
  3
TXT
  4

  0
STYLE
  5
93
330
3
100
AcDbSymbolTableRecord
100
AcDbTextStyleTableRecord
  2
SLDTEXTSTYLE1
 70
     0
 40
0.0
 41
0.6875
 50
0.0
 71
     0
 42
0.2
  3
TXT
  4

  0
STYLE
  5
99
330
3
100
AcDbSymbolTableRecord
100
AcDbTextStyleTableRecord
  2
SLDTEXTSTYLE2
 70
     0
 40
0.0
 41
0.6944444444
 50
0.0
 71
     0
 42
0.2
  3
TXT
  4

  0
ENDTAB
  0
TABLE
  2
VIEW
  5
6
330
0
100
AcDbSymbolTable
 70
     0
  0
ENDTAB
  0
TABLE
  2
UCS
  5
7
330
0
100
AcDbSymbolTable
 70
     0
  0
ENDTAB
  0
TABLE
  2
APPID
  5
9
330
0
100
AcDbSymbolTable
 70
     1
  0
APPID
  5
12
330
9
100
AcDbSymbolTableRecord
100
AcDbRegAppTableRecord
  2
ACAD
 70
     0
  0
ENDTAB
  0
TABLE
  2
DIMSTYLE
  5
A
330
0
100
AcDbSymbolTable
 70
     1
  0
DIMSTYLE
105
27
330
A
100
AcDbSymbolTableRecord
100
AcDbDimStyleTableRecord
  2
STANDARD
 70
     0
  3

  4

  5

  6

  7

 40
1.0
 41
0.18
 42
0.0625
 43
0.38
 44
0.18
 45
0.0
 46
0.0
 47
0.0
 48
0.0
140
0.18
141
0.09
142
0.0
143
25.4
144
1.0
145
0.0
146
1.0
147
0.09
 71
     0
 72
     0
 73
     1
 74
     1
 75
     0
 76
     0
 77
     0
 78
     0
170
     0
171
     2
172
     0
173
     0
174
     0
175
     0
176
     0
177
     0
178
     0
270
     2
271
     4
272
     4
273
     2
274
     2
340
11
275
     0
280
     0
281
     0
282
     0
283
     1
284
     0
285
     0
286
     0
287
     3
288
     0
  0
ENDTAB
  0
TABLE
  2
BLOCK_RECORD
  5
1
330
0
100
AcDbSymbolTable
 70
     4
  0
BLOCK_RECORD
  5
1F
330
1
100
AcDbSymbolTableRecord
100
AcDbBlockTableRecord
  2
*MODEL_SPACE
  0
BLOCK_RECORD
  5
1B
330
1
100
AcDbSymbolTableRecord
100
AcDbBlockTableRecord
  2
*PAPER_SPACE
  0
BLOCK_RECORD
  5
A8
330
1
100
AcDbSymbolTableRecord
100
AcDbBlockTableRecord
  2
SW_NOTE_0
  0
BLOCK_RECORD
  5
AE
330
1
100
AcDbSymbolTableRecord
100
AcDbBlockTableRecord
  2
SW_NOTE_1
  0
BLOCK_RECORD
  5
C2
330
1
100
AcDbSymbolTableRecord
100
AcDbBlockTableRecord
  2
SW_NOTE_2
  0
ENDTAB
  0
ENDSEC
  0
SECTION
  2
BLOCKS
  0
BLOCK
  5
20
330
1F
100
AcDbEntity
  8
0
100
AcDbBlockBegin
  2
*MODEL_SPACE
 70
     0
 10
0.0
 20
0.0
 30
0.0
  3
*MODEL_SPACE
  1

  0
ENDBLK
  5
21
330
1F
100
AcDbEntity
  8
0
100
AcDbBlockEnd
  0
BLOCK
  5
1C
330
1B
100
AcDbEntity
 67
     1
  8
0
100
AcDbBlockBegin
  2
*PAPER_SPACE
 70
     0
 10
0.0
 20
0.0
 30
0.0
  3
*PAPER_SPACE
  1

  0
ENDBLK
  5
1D
330
1B
100
AcDbEntity
 67
     1
  8
0
100
AcDbBlockEnd
  0
BLOCK
  5
A9
330
A8
100
AcDbEntity
  8
0
100
AcDbBlockBegin
  2
SW_NOTE_0
 70
     0
 10
0.0
 20
0.0
 30
0.0
  3
SW_NOTE_0
  1

  0
MTEXT
  5
AB
330
A8
100
AcDbEntity
  8
0
  6
CONTINUOUS
 62
     0
100
AcDbMText
 10
0.0
 20
0.0773440644
 30
0.0
 40
0.06
 41
0.0
 71
     1
 72
     1
  1
INTERPRET GEOMETRIC
  7
SLDTEXTSTYLE0
  0
MTEXT
  5
AC
330
A8
100
AcDbEntity
  8
0
  6
CONTINUOUS
 62
     0
100
AcDbMText
 10
0.0
 20
-0.0220260102
 30
0.0
 40
0.06
 41
0.0
 71
     1
 72
     1
  1
TOLERANCING PER:
  7
SLDTEXTSTYLE0
  0
ENDBLK
  5
AA
330
A8
100
AcDbEntity
  8
0
100
AcDbBlockEnd
  0
BLOCK
  5
AF
330
AE
100
AcDbEntity
  8
0
100
AcDbBlockBegin
  2
SW_NOTE_1
 70
     0
 10
0.0
 20
0.0
 30
0.0
  3
SW_NOTE_1
  1

  0
MTEXT
  5
B1
330
AE
100
AcDbEntity
  8
0
  6
CONTINUOUS
 62
     0
100
AcDbMText
 10
0.0
 20
0.0837894031
 30
0.0
 40
0.065
 41
0.0
 71
     1
 72
     1
  1
DIMENSIONS ARE IN INCHES
  7
SLDTEXTSTYLE0
  0
MTEXT
  5
B2
330
AE
100
AcDbEntity
  8
0
  6
CONTINUOUS
 62
     0
100
AcDbMText
 10
0.0
 20
-0.0205806729
 30
0.0
 40
0.065
 41
0.0
 71
     1
 72
     1
  1
TOLERANCES:
  7
SLDTEXTSTYLE0
  0
MTEXT
  5
B3
330
AE
100
AcDbEntity
  8
0
  6
CONTINUOUS
 62
     0
100
AcDbMText
 10
0.0
 20
-0.1249507489
 30
0.0
 40
0.065
 41
0.0
 71
     1
 72
     1
  1
FRACTIONAL
  7
SLDTEXTSTYLE0
  0
MTEXT
  5
B4
330
AE
100
AcDbEntity
  8
0
  6
CONTINUOUS
 62
     0
100
AcDbMText
 10
0.5175850875
 20
-0.1249507489
 30
0.0
 40
0.065
 41
0.0
 71
     1
 72
     1
  1
%%p
  7
SLDTEXTSTYLE0
  0
MTEXT
  5
B5
330
AE
100
AcDbEntity
  8
0
  6
CONTINUOUS
 62
     0
100
AcDbMText
 10
0.0
 20
-0.2293208248
 30
0.0
 40
0.065
 41
0.0
 71
     1
 72
     1
  1
ANGULAR: MACH
  7
SLDTEXTSTYLE0
  0
MTEXT
  5
B6
330
AE
100
AcDbEntity
  8
0
  6
CONTINUOUS
 62
     0
100
AcDbMText
 10
0.7233732769
 20
-0.2293208248
 30
0.0
 40
0.065
 41
0.0
 71
     1
 72
     1
  1
%%p
  7
SLDTEXTSTYLE0
  0
MTEXT
  5
B7
330
AE
100
AcDbEntity
  8
0
  6
CONTINUOUS
 62
     0
100
AcDbMText
 10
0.7852857683
 20
-0.2293208248
 30
0.0
 40
0.065
 41
0.0
 71
     1
 72
     1
  1
     BEND 
  7
SLDTEXTSTYLE0
  0
MTEXT
  5
B8
330
AE
100
AcDbEntity
  8
0
  6
CONTINUOUS
 62
     0
100
AcDbMText
 10
1.14784136
 20
-0.2293208248
 30
0.0
 40
0.065
 41
0.0
 71
     1
 72
     1
  1
%%p
  7
SLDTEXTSTYLE0
  0
MTEXT
  5
B9
330
AE
100
AcDbEntity
  8
0
  6
CONTINUOUS
 62
     0
100
AcDbMText
 10
0.0
 20
-0.3336909008
 30
0.0
 40
0.065
 41
0.0
 71
     1
 72
     1
  1
TWO PLACE DECIMAL    
  7
SLDTEXTSTYLE0
  0
MTEXT
  5
BA
330
AE
100
AcDbEntity
  8
0
  6
CONTINUOUS
 62
     0
100
AcDbMText
 10
0.9794349188
 20
-0.3336909008
 30
0.0
 40
0.065
 41
0.0
 71
     1
 72
     1
  1
%%p
  7
SLDTEXTSTYLE0
  0
MTEXT
  5
BB
330
AE
100
AcDbEntity
  8
0
  6
CONTINUOUS
 62
     0
100
AcDbMText
 10
0.0
 20
-0.4380609768
 30
0.0
 40
0.065
 41
0.0
 71
     1
 72
     1
  1
THREE PLACE DECIMAL  
  7
SLDTEXTSTYLE0
  0
MTEXT
  5
BC
330
AE
100
AcDbEntity
  8
0
  6
CONTINUOUS
 62
     0
100
AcDbMText
 10
0.9738038639
 20
-0.4380609768
 30
0.0
 40
0.065
 41
0.0
 71
     1
 72
     1
  1
%%p
  7
SLDTEXTSTYLE0
  0
ENDBLK
  5
B0
330
AE
100
AcDbEntity
  8
0
100
AcDbBlockEnd
  0
BLOCK
  5
C3
330
C2
100
AcDbEntity
  8
0
100
AcDbBlockBegin
  2
SW_NOTE_2
 70
     0
 10
0.0
 20
0.0
 30
0.0
  3
SW_NOTE_2
  1

  0
MTEXT
  5
C5
330
C2
100
AcDbEntity
  8
0
  6
CONTINUOUS
 62
     0
100
AcDbMText
 10
0.0
 20
0.0773440644
 30
0.0
 40
0.06
 41
0.0
 71
     1
 72
     1
  1
THE INFORMATION CONTAINED IN THIS
  7
SLDTEXTSTYLE0
  0
MTEXT
  5
C6
330
C2
100
AcDbEntity
  8
0
  6
CONTINUOUS
 62
     0
100
AcDbMText
 10
0.0
 20
-0.0220260102
 30
0.0
 40
0.06
 41
0.0
 71
     1
 72
     1
  1
DRAWING IS THE SOLE PROPERTY OF
  7
SLDTEXTSTYLE0
  0
MTEXT
  5
C7
330
C2
100
AcDbEntity
  8
0
  6
CONTINUOUS
 62
     0
100
AcDbMText
 10
0.0
 20
-0.1213960848
 30
0.0
 40
0.06
 41
0.0
 71
     1
 72
     1
  1
Candy Controls.  ANY 
  7
SLDTEXTSTYLE0
  0
MTEXT
  5
C8
330
C2
100
AcDbEntity
  8
0
  6
CONTINUOUS
 62
     0
100
AcDbMText
 10
0.0
 20
-0.2207661593
 30
0.0
 40
0.06
 41
0.0
 71
     1
 72
     1
  1
REPRODUCTION IN PART OR AS A WHOLE
  7
SLDTEXTSTYLE0
  0
MTEXT
  5
C9
330
C2
100
AcDbEntity
  8
0
  6
CONTINUOUS
 62
     0
100
AcDbMText
 10
0.0
 20
-0.3201362339
 30
0.0
 40
0.06
 41
0.0
 71
     1
 72
     1
  1
WITHOUT THE WRITTEN PERMISSION OF
  7
SLDTEXTSTYLE0
  0
MTEXT
  5
CA
330
C2
100
AcDbEntity
  8
0
  6
CONTINUOUS
 62
     0
100
AcDbMText
 10
0.0
 20
-0.4195063085
 30
0.0
 40
0.06
 41
0.0
 71
     1
 72
     1
  1
Candy Controls IS 
  7
SLDTEXTSTYLE0
  0
MTEXT
  5
CB
330
C2
100
AcDbEntity
  8
0
  6
CONTINUOUS
 62
     0
100
AcDbMText
 10
0.0
 20
-0.518876383
 30
0.0
 40
0.06
 41
0.0
 71
     1
 72
     1
  1
PROHIBITED.
  7
SLDTEXTSTYLE0
  0
ENDBLK
  5
C4
330
C2
100
AcDbEntity
  8
0
100
AcDbBlockEnd
  0
ENDSEC
  0
SECTION
  2
ENTITIES
  0
LINE
  5
41
330
1F
100
AcDbEntity
  8
0
  6
CONTINUOUS
 62
     7
100
AcDbLine
 10
0.329927
 20
8.1920731707
 30
0.0
 11
10.629927
 21
8.1920731707
 31
0.0
  0
LINE
  5
42
330
1F
100
AcDbEntity
  8
0
  6
CONTINUOUS
 62
     7
100
AcDbLine
 10
0.329927
 20
8.1920731707
 30
0.0
 11
0.329927
 21
0.3920731707
 31
0.0
  0
LINE
  5
43
330
1F
100
AcDbEntity
  8
0
  6
CONTINUOUS
 62
     7
100
AcDbLine
 10
10.629927
 20
0.3920731707
 30
0.0
 11
0.329927
 21
0.3920731707
 31
0.0
  0
LINE
  5
44
330
1F
100
AcDbEntity
  8
0
  6
CONTINUOUS
 62
     7
100
AcDbLine
 10
10.629927
 20
0.3920731707
 30
0.0
 11
10.629927
 21
8.1920731707
 31
0.0
  0
LINE
  5
45
330
1F
100
AcDbEntity
  8
0
  6
CONTINUOUS
 62
     7
100
AcDbLine
 10
4.7981841288
 20
0.3920731707
 30
0.0
 11
4.7981841288
 21
2.3564211366
 31
0.0
  0
LINE
  5
46
330
1F
100
AcDbEntity
  8
0
  6
CONTINUOUS
 62
     7
100
AcDbLine
 10
2.8210345579
 20
2.3564211366
 30
0.0
 11
10.629927
 21
2.3564211366
 31
0.0
  0
LINE
  5
47
330
1F
100
AcDbEntity
  8
0
  6
CONTINUOUS
 62
     7
100
AcDbLine
 10
6.1796352514
 20
2.3564211366
 30
0.0
 11
6.1796352514
 21
0.3920731707
 31
0.0
  0
LINE
  5
48
330
1F
100
AcDbEntity
  8
0
  6
CONTINUOUS
 62
     7
100
AcDbLine
 10
7.8712070044
 20
2.3564211366
 30
0.0
 11
7.8712070044
 21
0.3920731707
 31
0.0
  0
LINE
  5
49
330
1F
100
AcDbEntity
  8
0
  6
CONTINUOUS
 62
     7
100
AcDbLine
 10
7.8712070044
 20
0.6049590101
 30
0.0
 11
10.629927
 21
0.6049590101
 31
0.0
  0
LINE
  5
4A
330
1F
100
AcDbEntity
  8
0
  6
CONTINUOUS
 62
     7
100
AcDbLine
 10
7.8712070044
 20
1.1119362457
 30
0.0
 11
10.629927
 21
1.1119362457
 31
0.0
  0
LINE
  5
4B
330
1F
100
AcDbEntity
  8
0
  6
CONTINUOUS
 62
     7
100
AcDbLine
 10
7.8712070044
 20
1.9892703708
 30
0.0
 11
10.629927
 21
1.9892703708
 31
0.0
  0
LINE
  5
4C
330
1F
100
AcDbEntity
  8
0
  6
CONTINUOUS
 62
     7
100
AcDbLine
 10
8.266751752
 20
1.1119362457
 30
0.0
 11
8.266751752
 21
0.6049590101
 31
0.0
  0
LINE
  5
4D
330
1F
100
AcDbEntity
  8
0
  6
CONTINUOUS
 62
     7
100
AcDbLine
 10
8.6943435176
 20
0.6049590101
 30
0.0
 11
8.6943435176
 21
0.3920731707
 31
0.0
  0
LINE
  5
4E
330
1F
100
AcDbEntity
  8
0
  6
CONTINUOUS
 62
     7
100
AcDbLine
 10
10.0579917045
 20
1.1119362457
 30
0.0
 11
10.0579917045
 21
0.6049590101
 31
0.0
  0
LINE
  5
4F
330
1F
100
AcDbEntity
  8
0
  6
CONTINUOUS
 62
     7
100
AcDbLine
 10
9.6662556631
 20
0.6049590101
 30
0.0
 11
9.6662556631
 21
0.3920731707
 31
0.0
  0
LINE
  5
50
330
1F
100
AcDbEntity
  8
0
  6
CONTINUOUS
 62
     7
100
AcDbLine
 10
2.8210345579
 20
0.5883479999
 30
0.0
 11
6.1796352514
 21
0.5883479999
 31
0.0
  0
LINE
  5
51
330
1F
100
AcDbEntity
  8
0
  6
CONTINUOUS
 62
     7
100
AcDbLine
 10
6.1796352514
 20
1.7939211366
 30
0.0
 11
7.8712070044
 21
1.7939211366
 31
0.0
  0
LINE
  5
52
330
1F
100
AcDbEntity
  8
0
  6
CONTINUOUS
 62
     7
100
AcDbLine
 10
6.1796352514
 20
1.9814211366
 30
0.0
 11
7.8712070044
 21
1.9814211366
 31
0.0
  0
LINE
  5
53
330
1F
100
AcDbEntity
  8
0
  6
CONTINUOUS
 62
     7
100
AcDbLine
 10
6.1796352514
 20
2.1689211366
 30
0.0
 11
7.8712070044
 21
2.1689211366
 31
0.0
  0
LINE
  5
54
330
1F
100
AcDbEntity
  8
0
  6
CONTINUOUS
 62
     7
100
AcDbLine
 10
7.8712070044
 20
1.2314211366
 30
0.0
 11
6.1796352514
 21
1.2314211366
 31
0.0
  0
LINE
  5
55
330
1F
100
AcDbEntity
  8
0
  6
CONTINUOUS
 62
     7
100
AcDbLine
 10
7.3921580388
 20
2.3564211366
 30
0.0
 11
7.3921580388
 21
1.2314211366
 31
0.0
  0
LINE
  5
56
330
1F
100
AcDbEntity
  8
0
  6
CONTINUOUS
 62
     7
100
AcDbLine
 10
6.9236308342
 20
2.3564211366
 30
0.0
 11
6.9236308342
 21
1.2314211366
 31
0.0
  0
LINE
  5
57
330
1F
100
AcDbEntity
  8
0
  6
CONTINUOUS
 62
     7
100
AcDbLine
 10
4.7981841288
 20
0.8557965305
 30
0.0
 11
6.1796352514
 21
0.8557965305
 31
0.0
  0
LINE
  5
58
330
1F
100
AcDbEntity
  8
0
  6
CONTINUOUS
 62
     7
100
AcDbLine
 10
4.7981841288
 20
1.1257965305
 30
0.0
 11
6.1796352514
 21
1.1257965305
 31
0.0
  0
LINE
  5
59
330
1F
100
AcDbEntity
  8
0
  6
CONTINUOUS
 62
     7
100
AcDbLine
 10
2.8210345579
 20
0.3920731707
 30
0.0
 11
2.8210345579
 21
2.3564211366
 31
0.0
  0
LINE
  5
5A
330
1F
100
AcDbEntity
  8
0
  6
CONTINUOUS
 62
     7
100
AcDbLine
 10
2.8210345579
 20
1.1064211366
 30
0.0
 11
4.7981841288
 21
1.1064211366
 31
0.0
  0
LINE
  5
5B
330
1F
100
AcDbEntity
  8
0
  6
CONTINUOUS
 62
     7
100
AcDbLine
 10
2.8210345579
 20
1.3564211366
 30
0.0
 11
4.7981841288
 21
1.3564211366
 31
0.0
  0
LINE
  5
5C
330
1F
100
AcDbEntity
  8
0
  6
CONTINUOUS
 62
     7
100
AcDbLine
 10
2.8210345579
 20
1.6064211366
 30
0.0
 11
4.7981841288
 21
1.6064211366
 31
0.0
  0
LINE
  5
5D
330
1F
100
AcDbEntity
  8
0
  6
CONTINUOUS
 62
     7
100
AcDbLine
 10
2.8210345579
 20
1.8564211366
 30
0.0
 11
4.7981841288
 21
1.8564211366
 31
0.0
  0
LINE
  5
5E
330
1F
100
AcDbEntity
  8
0
  6
CONTINUOUS
 62
     7
100
AcDbLine
 10
3.8190146875
 20
2.3564211366
 30
0.0
 11
3.8190146875
 21
0.5883479999
 31
0.0
  0
LINE
  5
5F
330
1F
100
AcDbEntity
  8
0
  6
CONTINUOUS
 62
     7
100
AcDbLine
 10
6.1796352514
 20
2.2020813496
 30
0.0
 11
4.7981841288
 21
2.2020813496
 31
0.0
  0
LINE
  5
60
330
1F
100
AcDbEntity
  8
0
  6
CONTINUOUS
 62
     7
100
AcDbLine
 10
7.8712070044
 20
1.6064211366
 30
0.0
 11
6.1796352514
 21
1.6064211366
 31
0.0
  0
LINE
  5
61
330
1F
100
AcDbEntity
  8
0
  6
CONTINUOUS
 62
     7
100
AcDbLine
 10
7.8712070044
 20
1.4189211366
 30
0.0
 11
6.1796352514
 21
1.4189211366
 31
0.0
  0
LINE
  5
62
330
1F
100
AcDbEntity
  8
0
  6
CONTINUOUS
 62
     7
100
AcDbLine
 10
2.8210345579
 20
2.1064211366
 30
0.0
 11
4.7981841288
 21
2.1064211366
 31
0.0
  0
LINE
  5
63
330
1F
100
AcDbEntity
  8
0
  6
CONTINUOUS
 62
     7
100
AcDbLine
 10
4.7981841288
 20
1.3957965305
 30
0.0
 11
6.1796352514
 21
1.3957965305
 31
0.0
  0
LINE
  5
64
330
1F
100
AcDbEntity
  8
0
  6
CONTINUOUS
 62
     7
100
AcDbLine
 10
2.8210345579
 20
0.8564211366
 30
0.0
 11
4.7981841288
 21
0.8564211366
 31
0.0
  0
LINE
  5
65
330
1F
100
AcDbEntity
  8
0
  6
CONTINUOUS
 62
     7
100
AcDbLine
 10
1.1838252943
 20
0.3920731707
 30
0.0
 11
1.1838252943
 21
1.3064211366
 31
0.0
  0
LINE
  5
66
330
1F
100
AcDbEntity
  8
0
  6
CONTINUOUS
 62
     7
100
AcDbLine
 10
2.8210345579
 20
1.3064211366
 30
0.0
 11
1.1838252943
 21
1.3064211366
 31
0.0
  0
LINE
  5
67
330
1F
100
AcDbEntity
  8
0
  6
CONTINUOUS
 62
     7
100
AcDbLine
 10
8.660927
 20
0.3920731707
 30
0.0
 11
8.660927
 21
0.3072739649
 31
0.0
  0
LINE
  5
68
330
1F
100
AcDbEntity
  8
0
  6
CONTINUOUS
 62
     7
100
AcDbLine
 10
6.692177
 20
0.3920731707
 30
0.0
 11
6.692177
 21
0.3072739649
 31
0.0
  0
LINE
  5
69
330
1F
100
AcDbEntity
  8
0
  6
CONTINUOUS
 62
     7
100
AcDbLine
 10
4.723427
 20
0.3920731707
 30
0.0
 11
4.723427
 21
0.3072739649
 31
0.0
  0
LINE
  5
6A
330
1F
100
AcDbEntity
  8
0
  6
CONTINUOUS
 62
     7
100
AcDbLine
 10
2.754677
 20
0.3920731707
 30
0.0
 11
2.754677
 21
0.3072739649
 31
0.0
  0
LINE
  5
6B
330
1F
100
AcDbEntity
  8
0
  6
CONTINUOUS
 62
     7
100
AcDbLine
 10
2.754677
 20
0.3920731707
 30
0.0
 11
2.7672319738
 21
0.3575
 31
0.0
  0
LINE
  5
6C
330
1F
100
AcDbEntity
  8
0
  6
CONTINUOUS
 62
     7
100
AcDbLine
 10
2.7672319738
 20
0.3575
 30
0.0
 11
2.7414258825
 21
0.3575
 31
0.0
  0
LINE
  5
6D
330
1F
100
AcDbEntity
  8
0
  6
CONTINUOUS
 62
     7
100
AcDbLine
 10
2.7414258825
 20
0.3575
 30
0.0
 11
2.754677
 21
0.3920731707
 31
0.0
  0
MTEXT
  5
91
330
1F
100
AcDbEntity
  8
0
  6
CONTINUOUS
 62
     7
100
AcDbMText
 10
4.9775846961
 20
0.5178452352
 30
0.0
 40
0.0625
 41
0.0
 71
     1
 72
     1
  1
DO NOT SCALE DRAWING
  7
SLDTEXTSTYLE0
  0
MTEXT
  5
92
330
1F
100
AcDbEntity
  8
0
  6
CONTINUOUS
 62
     7
100
AcDbMText
 10
8.8359198425
 20
0.9417064595
 30
0.0
 40
0.125
 41
0.0
 71
     1
 72
     1
  1
CL3-C82
  7
SLDTEXTSTYLE0
  0
MTEXT
  5
94
330
1F
100
AcDbEntity
  8
0
  6
CONTINUOUS
 62
     7
100
AcDbMText
 10
9.7571278483
 20
0.5524239532
 30
0.0
 40
0.1
 41
0.0
 71
     1
 72
     1
  1
SHEET 1 OF 1
  7
SLDTEXTSTYLE1
  0
MTEXT
  5
95
330
1F
100
AcDbEntity
  8
0
  6
CONTINUOUS
 62
     7
100
AcDbMText
 10
4.8448077858
 20
2.3132954224
 30
0.0
 40
0.07
 41
0.0
 71
     1
 72
     1
  1
UNLESS OTHERWISE SPECIFIED:
  7
SLDTEXTSTYLE0
  0
MTEXT
  5
96
330
1F
100
AcDbEntity
  8
0
  6
CONTINUOUS
 62
     7
100
AcDbMText
 10
7.9586139647
 20
0.5520987879
 30
0.0
 40
0.1
 41
0.0
 71
     1
 72
     1
  1
SCALE: 1:2
  7
SLDTEXTSTYLE0
  0
MTEXT
  5
97
330
1F
100
AcDbEntity
  8
0
  6
CONTINUOUS
 62
     7
100
AcDbMText
 10
8.7023691647
 20
0.5486763345
 30
0.0
 40
0.1
 41
0.0
 71
     1
 72
     1
  1
WEIGHT: 
  7
SLDTEXTSTYLE0
  0
MTEXT
  5
98
330
1F
100
AcDbEntity
  8
0
  6
CONTINUOUS
 62
     7
100
AcDbMText
 10
10.2277580983
 20
1.081966299
 30
0.0
 40
0.1
 41
0.0
 71
     1
 72
     1
  1
REV
  7
SLDTEXTSTYLE0
  0
MTEXT
  5
9A
330
1F
100
AcDbEntity
  8
0
  6
CONTINUOUS
 62
     7
100
AcDbMText
 10
8.2984570898
 20
1.0858725293
 30
0.0
 40
0.1
 41
0.0
 71
     1
 72
     1
  1
DWG.  NO.
  7
SLDTEXTSTYLE2
  0
MTEXT
  5
9B
330
1F
100
AcDbEntity
  8
0
  6
CONTINUOUS
 62
     7
100
AcDbMText
 10
7.9598482632
 20
0.9442140768
 30
0.0
 40
0.25
 41
0.0
 71
     1
 72
     1
  1
A
  7
SLDTEXTSTYLE0
  0
MTEXT
  5
9C
330
1F
100
AcDbEntity
  8
0
  6
CONTINUOUS
 62
     7
100
AcDbMText
 10
7.9519581822
 20
1.0872713483
 30
0.0
 40
0.1
 41
0.0
 71
     1
 72
     1
  1
SIZE
  7
SLDTEXTSTYLE0
  0
MTEXT
  5
9D
330
1F
100
AcDbEntity
  8
0
  6
CONTINUOUS
 62
     7
100
AcDbMText
 10
7.9170704177
 20
1.9547881128
 30
0.0
 40
0.1
 41
0.0
 71
     1
 72
     1
  1
TITLE:
  7
SLDTEXTSTYLE0
  0
MTEXT
  5
9E
330
1F
100
AcDbEntity
  8
0
  6
CONTINUOUS
 62
     7
100
AcDbMText
 10
7.0363774929
 20
2.2906161274
 30
0.0
 40
0.065
 41
0.0
 71
     1
 72
     1
  1
NAME
  7
SLDTEXTSTYLE0
  0
MTEXT
  5
9F
330
1F
100
AcDbEntity
  8
0
  6
CONTINUOUS
 62
     7
100
AcDbMText
 10
7.5281510634
 20
2.2888799118
 30
0.0
 40
0.065
 41
0.0
 71
     1
 72
     1
  1
DATE
  7
SLDTEXTSTYLE0
  0
MTEXT
  5
A0
330
1F
100
AcDbEntity
  8
0
  6
CONTINUOUS
 62
     7
100
AcDbMText
 10
6.2277147029
 20
1.1876913145
 30
0.0
 40
0.065
 41
0.0
 71
     1
 72
     1
  1
COMMENTS:
  7
SLDTEXTSTYLE0
  0
MTEXT
  5
A1
330
1F
100
AcDbEntity
  8
0
  6
CONTINUOUS
 62
     7
100
AcDbMText
 10
6.2268411461
 20
1.3536101679
 30
0.0
 40
0.065
 41
0.0
 71
     1
 72
     1
  1
Q.A.
  7
SLDTEXTSTYLE0
  0
MTEXT
  5
A2
330
1F
100
AcDbEntity
  8
0
  6
CONTINUOUS
 62
     7
100
AcDbMText
 10
6.2284654509
 20
1.5395328424
 30
0.0
 40
0.065
 41
0.0
 71
     1
 72
     1
  1
MFG APPR.
  7
SLDTEXTSTYLE0
  0
MTEXT
  5
A3
330
1F
100
AcDbEntity
  8
0
  6
CONTINUOUS
 62
     7
100
AcDbMText
 10
6.2235171344
 20
1.7267501785
 30
0.0
 40
0.065
 41
0.0
 71
     1
 72
     1
  1
ENG APPR.
  7
SLDTEXTSTYLE0
  0
MTEXT
  5
A4
330
1F
100
AcDbEntity
  8
0
  6
CONTINUOUS
 62
     7
100
AcDbMText
 10
6.2264103951
 20
1.9092699088
 30
0.0
 40
0.065
 41
0.0
 71
     1
 72
     1
  1
CHECKED
  7
SLDTEXTSTYLE0
  0
MTEXT
  5
A5
330
1F
100
AcDbEntity
  8
0
  6
CONTINUOUS
 62
     7
100
AcDbMText
 10
6.2242794356
 20
2.1016301232
 30
0.0
 40
0.065
 41
0.0
 71
     1
 72
     1
  1
DRAWN
  7
SLDTEXTSTYLE0
  0
MTEXT
  5
A6
330
1F
100
AcDbEntity
  8
0
  6
CONTINUOUS
 62
     7
100
AcDbMText
 10
4.8208600979
 20
0.834523235
 30
0.0
 40
0.06
 41
0.0
 71
     1
 72
     1
  1
FINISH
  7
SLDTEXTSTYLE0
  0
MTEXT
  5
A7
330
1F
100
AcDbEntity
  8
0
  6
CONTINUOUS
 62
     7
100
AcDbMText
 10
4.8181240648
 20
1.1028217587
 30
0.0
 40
0.06
 41
0.0
 71
     1
 72
     1
  1
MATERIAL
  7
SLDTEXTSTYLE0
  0
INSERT
  5
AD
330
1F
100
AcDbEntity
  8
0
  6
CONTINUOUS
 62
     7
100
AcDbBlockReference
  2
SW_NOTE_0
 10
4.8231926633
 20
1.2646542947
 30
0.0
  0
INSERT
  5
BD
330
1F
100
AcDbEntity
  8
0
  6
CONTINUOUS
 62
     7
100
AcDbBlockReference
  2
SW_NOTE_1
 10
4.8353339353
 20
2.0049168724
 30
0.0
  0
MTEXT
  5
BE
330
1F
100
AcDbEntity
  8
0
  6
CONTINUOUS
 62
     7
100
AcDbMText
 10
3.5531400086
 20
0.5200091997
 30
0.0
 40
0.0625
 41
0.0
 71
     1
 72
     1
  1
APPLICATION
  7
SLDTEXTSTYLE0
  0
MTEXT
  5
BF
330
1F
100
AcDbEntity
  8
0
  6
CONTINUOUS
 62
     7
100
AcDbMText
 10
4.1005607758
 20
0.7502454275
 30
0.0
 40
0.0625
 41
0.0
 71
     1
 72
     1
  1
USED ON
  7
SLDTEXTSTYLE0
  0
MTEXT
  5
C0
330
1F
100
AcDbEntity
  8
0
  6
CONTINUOUS
 62
     7
100
AcDbMText
 10
3.1040019536
 20
0.7492094783
 30
0.0
 40
0.0625
 41
0.0
 71
     1
 72
     1
  1
NEXT ASSY
  7
SLDTEXTSTYLE0
  0
MTEXT
  5
C1
330
1F
100
AcDbEntity
  8
0
  6
CONTINUOUS
 62
     7
100
AcDbMText
 10
1.3712489489
 20
1.2496672684
 30
0.0
 40
0.06
 41
0.0
 71
     1
 72
     1
  1
PROPRIETARY AND CONFIDENTIAL
  7
SLDTEXTSTYLE0
  0
INSERT
  5
CC
330
1F
100
AcDbEntity
  8
0
  6
CONTINUOUS
 62
     7
100
AcDbBlockReference
  2
SW_NOTE_2
 10
1.2226209074
 20
1.0313492921
 30
0.0
  0
MTEXT
  5
CD
330
1F
100
AcDbEntity
  8
0
  6
CONTINUOUS
 62
     7
100
AcDbMText
 10
1.7387909509
 20
0.3105864247
 30
0.0
 40
0.09375
 41
0.0
 71
     1
 72
     1
  1
5
  7
SLDTEXTSTYLE0
  0
MTEXT
  5
CE
330
1F
100
AcDbEntity
  8
0
  6
CONTINUOUS
 62
     7
100
AcDbMText
 10
3.723800327
 20
0.3137237518
 30
0.0
 40
0.09375
 41
0.0
 71
     1
 72
     1
  1
4
  7
SLDTEXTSTYLE0
  0
MTEXT
  5
CF
330
1F
100
AcDbEntity
  8
0
  6
CONTINUOUS
 62
     7
100
AcDbMText
 10
5.6324457277
 20
0.3116191842
 30
0.0
 40
0.09375
 41
0.0
 71
     1
 72
     1
  1
3
  7
SLDTEXTSTYLE0
  0
MTEXT
  5
D0
330
1F
100
AcDbEntity
  8
0
  6
CONTINUOUS
 62
     7
100
AcDbMText
 10
7.6059721724
 20
0.3124391351
 30
0.0
 40
0.09375
 41
0.0
 71
     1
 72
     1
  1
2
  7
SLDTEXTSTYLE0
  0
MTEXT
  5
D1
330
1F
100
AcDbEntity
  8
0
  6
CONTINUOUS
 62
     7
100
AcDbMText
 10
9.6619921328
 20
0.301372012
 30
0.0
 40
0.09375
 41
0.0
 71
     1
 72
     1
  1
1
  7
SLDTEXTSTYLE0
  0
LINE
  5
D2
330
1F
100
AcDbEntity
  8
0
  6
CONTINUOUS
 62
     7
100
AcDbLine
 10
3.6144116939
 20
2.9515916722
 30
0.0
 11
3.6242542136
 21
2.9614341919
 31
0.0
  0
LINE
  5
D3
330
1F
100
AcDbEntity
  8
0
  6
CONTINUOUS
 62
     7
100
AcDbLine
 10
3.6242542136
 20
4.5559223809
 30
0.0
 11
3.6144116939
 21
4.5657649006
 31
0.0
  0
LINE
  5
D4
330
1F
100
AcDbEntity
  8
0
  6
CONTINUOUS
 62
     7
100
AcDbLine
 10
3.4053762609
 20
2.9515916722
 30
0.0
 11
3.6144116939
 21
2.9515916722
 31
0.0
  0
LINE
  5
D5
330
1F
100
AcDbEntity
  8
0
  6
CONTINUOUS
 62
     7
100
AcDbLine
 10
3.6144116939
 20
4.5657649006
 30
0.0
 11
3.4053762609
 21
4.5657649006
 31
0.0
  0
LINE
  5
D6
330
1F
100
AcDbEntity
  8
0
  6
CONTINUOUS
 62
     7
100
AcDbLine
 10
3.6767476519
 20
3.207497184
 30
0.0
 11
3.988427442
 21
3.207497184
 31
0.0
  0
LINE
  5
D7
330
1F
100
AcDbEntity
  8
0
  6
CONTINUOUS
 62
     7
100
AcDbLine
 10
3.6242542136
 20
3.207497184
 30
0.0
 11
3.6505009328
 21
3.207497184
 31
0.0
  0
LINE
  5
D8
330
1F
100
AcDbEntity
  8
0
  6
CONTINUOUS
 62
     7
100
AcDbLine
 10
3.6505009328
 20
4.3098593888
 30
0.0
 11
3.6242542136
 21
4.3098593888
 31
0.0
  0
LINE
  5
D9
330
1F
100
AcDbEntity
  8
0
  6
CONTINUOUS
 62
     7
100
AcDbLine
 10
3.988427442
 20
4.3098593888
 30
0.0
 11
3.6767476519
 21
4.3098593888
 31
0.0
  0
LINE
  5
DA
330
1F
100
AcDbEntity
  8
0
  6
CONTINUOUS
 62
     7
100
AcDbLine
 10
3.988427442
 20
3.207497184
 30
0.0
 11
3.995927442
 21
3.214997184
 31
0.0
  0
LINE
  5
DB
330
1F
100
AcDbEntity
  8
0
  6
CONTINUOUS
 62
     7
100
AcDbLine
 10
3.995927442
 20
4.3023593888
 30
0.0
 11
3.988427442
 21
4.3098593888
 31
0.0
  0
LINE
  5
DC
330
1F
100
AcDbEntity
  8
0
  6
CONTINUOUS
 62
     7
100
AcDbLine
 10
3.9588998829
 20
4.1593222228
 30
0.0
 11
3.9588998829
 21
4.1868278927
 31
0.0
  0
LINE
  5
DD
330
1F
100
AcDbEntity
  8
0
  6
CONTINUOUS
 62
     7
100
AcDbLine
 10
3.7029943711
 20
4.1868278927
 30
0.0
 11
3.7029943711
 21
4.1615665224
 31
0.0
  0
ARC
  5
DE
330
1F
100
AcDbEntity
  8
0
  6
CONTINUOUS
 62
     7
100
AcDbCircle
 10
3.7128368908
 20
4.1868278927
 30
0.0
 40
0.0098425196850394
100
AcDbArc
 50
90.0
 51
180.0
  0
ARC
  5
DF
330
1F
100
AcDbEntity
  8
0
  6
CONTINUOUS
 62
     7
100
AcDbCircle
 10
3.9490573632
 20
4.1868278927
 30
0.0
 40
0.0098425196850394
100
AcDbArc
 50
0.0
 51
90.0
  0
POLYLINE
  5
E0
330
1F
100
AcDbEntity
  8
0
  6
CONTINUOUS
 62
     7
100
AcDb2dPolyline
 66
     1
 10
0.0
 20
0.0
 30
0.0
  0
VERTEX
  5
2ED
330
E0
100
AcDbEntity
  8
0
  6
CONTINUOUS
 62
     7
100
AcDbVertex
100
AcDb2dVertex
 10
3.8998447648
 20
3.3846625384
 30
0.0
  0
VERTEX
  5
2EE
330
E0
100
AcDbEntity
  8
0
  6
CONTINUOUS
 62
     7
100
AcDbVertex
100
AcDb2dVertex
 10
3.9017649451
 20
3.3848516596
 30
0.0
  0
VERTEX
  5
2EF
330
E0
100
AcDbEntity
  8
0
  6
CONTINUOUS
 62
     7
100
AcDbVertex
100
AcDb2dVertex
 10
3.9029327399
 20
3.3851594921
 30
0.0
  0
SEQEND
  5
2F0
330
E0
100
AcDbEntity
  8
0
  6
CONTINUOUS
 62
     7
  0
POLYLINE
  5
E1
330
1F
100
AcDbEntity
  8
0
  6
CONTINUOUS
 62
     7
100
AcDb2dPolyline
 66
     1
 10
0.0
 20
0.0
 30
0.0
  0
VERTEX
  5
2F1
330
E1
100
AcDbEntity
  8
0
  6
CONTINUOUS
 62
     7
100
AcDbVertex
100
AcDb2dVertex
 10
3.758984712
 20
3.3851518589
 30
0.0
  0
VERTEX
  5
2F2
330
E1
100
AcDbEntity
  8
0
  6
CONTINUOUS
 62
     7
100
AcDbVertex
100
AcDb2dVertex
 10
3.7601293089
 20
3.3848516596
 30
0.0
  0
VERTEX
  5
2F3
330
E1
100
AcDbEntity
  8
0
  6
CONTINUOUS
 62
     7
100
AcDbVertex
100
AcDb2dVertex
 10
3.7620494892
 20
3.3846625384
 30
0.0
  0
SEQEND
  5
2F4
330
E1
100
AcDbEntity
  8
0
  6
CONTINUOUS
 62
     7
  0
LINE
  5
E2
330
1F
100
AcDbEntity
  8
0
  6
CONTINUOUS
 62
     7
100
AcDbLine
 10
3.7522069695
 20
3.7685208061
 30
0.0
 11
3.7522069695
 21
3.7488357667
 31
0.0
  0
LINE
  5
E3
330
1F
100
AcDbEntity
  8
0
  6
CONTINUOUS
 62
     7
100
AcDbLine
 10
3.9096872845
 20
3.7488357667
 30
0.0
 11
3.9096872845
 21
3.7685208061
 31
0.0
  0
LINE
  5
E4
330
1F
100
AcDbEntity
  8
0
  6
CONTINUOUS
 62
     7
100
AcDbLine
 10
3.0388605128
 20
4.5657649006
 30
0.0
 11
3.0290179931
 21
4.5559223809
 31
0.0
  0
LINE
  5
E5
330
1F
100
AcDbEntity
  8
0
  6
CONTINUOUS
 62
     7
100
AcDbLine
 10
3.0290179931
 20
2.9614341919
 30
0.0
 11
3.0388605128
 21
2.9515916722
 31
0.0
  0
LINE
  5
E6
330
1F
100
AcDbEntity
  8
0
  6
CONTINUOUS
 62
     7
100
AcDbLine
 10
3.2478959459
 20
4.5657649006
 30
0.0
 11
3.0388605128
 21
4.5657649006
 31
0.0
  0
LINE
  5
E7
330
1F
100
AcDbEntity
  8
0
  6
CONTINUOUS
 62
     7
100
AcDbLine
 10
3.0388605128
 20
2.9515916722
 30
0.0
 11
3.2478959459
 21
2.9515916722
 31
0.0
  0
LINE
  5
E8
330
1F
100
AcDbEntity
  8
0
  6
CONTINUOUS
 62
     7
100
AcDbLine
 10
3.2478959459
 20
3.6307255305
 30
0.0
 11
3.2971085443
 21
3.6307255305
 31
0.0
  0
LINE
  5
E9
330
1F
100
AcDbEntity
  8
0
  6
CONTINUOUS
 62
     7
100
AcDbLine
 10
3.2971085443
 20
3.8866310423
 30
0.0
 11
3.2478959459
 21
3.8866310423
 31
0.0
  0
LINE
  5
EA
330
1F
100
AcDbEntity
  8
0
  6
CONTINUOUS
 62
     7
100
AcDbLine
 10
3.3561636624
 20
3.6307255305
 30
0.0
 11
3.4053762609
 21
3.6307255305
 31
0.0
  0
LINE
  5
EB
330
1F
100
AcDbEntity
  8
0
  6
CONTINUOUS
 62
     7
100
AcDbLine
 10
3.4053762609
 20
3.8866310423
 30
0.0
 11
3.3561636624
 21
3.8866310423
 31
0.0
  0
LINE
  5
EC
330
1F
100
AcDbEntity
  8
0
  6
CONTINUOUS
 62
     7
100
AcDbLine
 10
3.0290179931
 20
4.3098593888
 30
0.0
 11
3.002771274
 21
4.3098593888
 31
0.0
  0
LINE
  5
ED
330
1F
100
AcDbEntity
  8
0
  6
CONTINUOUS
 62
     7
100
AcDbLine
 10
2.6648447648
 20
3.207497184
 30
0.0
 11
3.0290179931
 21
3.207497184
 31
0.0
  0
LINE
  5
EE
330
1F
100
AcDbEntity
  8
0
  6
CONTINUOUS
 62
     7
100
AcDbLine
 10
2.6573447648
 20
3.214997184
 30
0.0
 11
2.6648447648
 21
3.207497184
 31
0.0
  0
LINE
  5
EF
330
1F
100
AcDbEntity
  8
0
  6
CONTINUOUS
 62
     7
100
AcDbLine
 10
3.3561636624
 20
4.2458830108
 30
0.0
 11
3.4053762609
 21
4.2458830108
 31
0.0
  0
LINE
  5
F0
330
1F
100
AcDbEntity
  8
0
  6
CONTINUOUS
 62
     7
100
AcDbLine
 10
3.4053762609
 20
4.5017885226
 30
0.0
 11
3.3561636624
 21
4.5017885226
 31
0.0
  0
LINE
  5
F1
330
1F
100
AcDbEntity
  8
0
  6
CONTINUOUS
 62
     7
100
AcDbLine
 10
3.2478959459
 20
4.2458830108
 30
0.0
 11
3.2971085443
 21
4.2458830108
 31
0.0
  0
LINE
  5
F2
330
1F
100
AcDbEntity
  8
0
  6
CONTINUOUS
 62
     7
100
AcDbLine
 10
3.2971085443
 20
4.5017885226
 30
0.0
 11
3.2478959459
 21
4.5017885226
 31
0.0
  0
LINE
  5
F3
330
1F
100
AcDbEntity
  8
0
  6
CONTINUOUS
 62
     7
100
AcDbLine
 10
3.2478959459
 20
3.0155680502
 30
0.0
 11
3.2971085443
 21
3.0155680502
 31
0.0
  0
LINE
  5
F4
330
1F
100
AcDbEntity
  8
0
  6
CONTINUOUS
 62
     7
100
AcDbLine
 10
3.2971085443
 20
3.271473562
 30
0.0
 11
3.2478959459
 21
3.271473562
 31
0.0
  0
LINE
  5
F5
330
1F
100
AcDbEntity
  8
0
  6
CONTINUOUS
 62
     7
100
AcDbLine
 10
3.3561636624
 20
3.0155680502
 30
0.0
 11
3.4053762609
 21
3.0155680502
 31
0.0
  0
LINE
  5
F6
330
1F
100
AcDbEntity
  8
0
  6
CONTINUOUS
 62
     7
100
AcDbLine
 10
3.4053762609
 20
3.271473562
 30
0.0
 11
3.3561636624
 21
3.271473562
 31
0.0
  0
LINE
  5
F7
330
1F
100
AcDbEntity
  8
0
  6
CONTINUOUS
 62
     7
100
AcDbLine
 10
3.3561636624
 20
4.5337767116
 30
0.0
 11
3.2971085443
 21
4.5337767116
 31
0.0
  0
LINE
  5
F8
330
1F
100
AcDbEntity
  8
0
  6
CONTINUOUS
 62
     7
100
AcDbLine
 10
3.2971085443
 20
2.9835798612
 30
0.0
 11
3.3561636624
 21
2.9835798612
 31
0.0
  0
LINE
  5
F9
330
1F
100
AcDbEntity
  8
0
  6
CONTINUOUS
 62
     7
100
AcDbLine
 10
3.6144116939
 20
2.9515916722
 30
0.0
 11
3.6144116939
 21
4.5657649006
 31
0.0
  0
LINE
  5
FA
330
1F
100
AcDbEntity
  8
0
  6
CONTINUOUS
 62
     7
100
AcDbLine
 10
3.6242542136
 20
4.5559223809
 30
0.0
 11
3.6242542136
 21
2.9614341919
 31
0.0
  0
LINE
  5
FB
330
1F
100
AcDbEntity
  8
0
  6
CONTINUOUS
 62
     7
100
AcDbLine
 10
3.4053762609
 20
3.7586782864
 30
0.0
 11
3.4053762609
 21
4.5657649006
 31
0.0
  0
LINE
  5
FC
330
1F
100
AcDbEntity
  8
0
  6
CONTINUOUS
 62
     7
100
AcDbLine
 10
3.4053762609
 20
2.9515916722
 30
0.0
 11
3.4053762609
 21
3.7586782864
 31
0.0
  0
SPLINE
  5
FD
330
1F
100
AcDbEntity
  8
0
  6
CONTINUOUS
 62
     7
100
AcDbSpline
210
0.0
220
0.0
230
1.0
 70
     8
 71
     3
 72
    13
 73
     9
 74
     0
 42
0.00000001
 43
0.00000001
 40
0.0
 40
0.0
 40
0.0
 40
0.0
 40
0.1843134394355645
 40
0.3692581382111245
 40
0.5536783852739988
 40
0.7411204516715808
 40
0.9291853424395032
 40
1.0
 40
1.0
 40
1.0
 40
1.0
 10
3.909997541057569
 20
4.03919009741567
 30
0.0
 10
3.915384623775935
 20
4.046824578054943
 30
0.0
 10
3.926177239556232
 20
4.062119686841908
 30
0.0
 10
3.938643981435455
 20
4.085749738110348
 30
0.0
 10
3.948661849451589
 20
4.109428701537204
 30
0.0
 10
3.955469777548599
 20
4.132676953268756
 30
0.0
 10
3.958989131060362
 20
4.150882191485525
 30
0.0
 10
3.958520346096285
 20
4.160686451264569
 30
0.0
 10
3.958392113306501
 20
4.163368336733583
 30
0.0
  0
SPLINE
  5
FE
330
1F
100
AcDbEntity
  8
0
  6
CONTINUOUS
 62
     7
100
AcDbSpline
210
0.0
220
0.0
230
1.0
 70
     8
 71
     3
 72
    24
 73
    20
 74
     0
 42
0.00000001
 43
0.00000001
 40
0.0
 40
0.0
 40
0.0
 40
0.0
 40
0.0718108612890335
 40
0.1395408019522928
 40
0.2072177258111969
 40
0.2753442336707127
 40
0.3434288302708161
 40
0.4035535276530756
 40
0.4636674804512125
 40
0.5198647965450985
 40
0.5760637413226756
 40
0.63146369030473
 40
0.6868743363107765
 40
0.7435390567506387
 40
0.8002253763916928
 40
0.8607262517685518
 40
0.9212610883669344
 40
0.9895897137564247
 40
1.0
 40
1.0
 40
1.0
 40
1.0
 10
3.952849646939061
 20
4.19579621426923
 30
0.0
 10
3.950605905561135
 20
4.200645098983346
 30
0.0
 10
3.946245931796316
 20
4.210067312412295
 30
0.0
 10
3.935160809174432
 20
4.221996995455349
 30
0.0
 10
3.921313145821019
 20
4.232173793885675
 30
0.0
 10
3.904054154508244
 20
4.24034834738099
 30
0.0
 10
3.884789944807484
 20
4.246276775620015
 30
0.0
 10
3.864367921460125
 20
4.250027625538168
 30
0.0
 10
3.844180483816623
 20
4.251902520218504
 30
0.0
 10
3.824039908315384
 20
4.252118974979106
 30
0.0
 10
3.804646168762044
 20
4.250861366333841
 30
0.0
 10
3.786115442684979
 20
4.24811255520985
 30
0.0
 10
3.768755974785513
 20
4.243925490956161
 30
0.0
 10
3.752993023323611
 20
4.238223987253249
 30
0.0
 10
3.738833986368447
 20
4.230921190784143
 30
0.0
 10
3.726779696892396
 20
4.222009772334652
 30
0.0
 10
3.71689779582217
 20
4.211028413214455
 30
0.0
 10
3.711059287784182
 20
4.202233661722799
 30
0.0
 10
3.709304136637548
 20
4.196644847927865
 30
0.0
 10
3.709072083317807
 20
4.195905935614237
 30
0.0
  0
SPLINE
  5
FF
330
1F
100
AcDbEntity
  8
0
  6
CONTINUOUS
 62
     7
100
AcDbSpline
210
0.0
220
0.0
230
1.0
 70
     8
 71
     3
 72
    13
 73
     9
 74
     0
 42
0.00000001
 43
0.00000001
 40
0.0
 40
0.0
 40
0.0
 40
0.0
 40
0.0335056702724175
 40
0.2471068186316393
 40
0.4321263385488505
 40
0.6177829950698033
 40
0.8029134492476415
 40
1.0
 40
1.0
 40
1.0
 40
1.0
 10
3.703381397824515
 20
4.163437609865915
 30
0.0
 10
3.703260226120034
 20
4.162189402596041
 30
0.0
 10
3.702366575757
 20
4.152983780832802
 30
0.0
 10
3.705888086458351
 20
4.135302254716709
 30
0.0
 10
3.712575520893536
 20
4.11106634167392
 30
0.0
 10
3.722459470713027
 20
4.087471821757347
 30
0.0
 10
3.735079279214426
 20
4.063255682594748
 30
0.0
 10
3.746175204817026
 20
4.047377520275854
 30
0.0
 10
3.751896712955631
 20
4.039190097415669
 30
0.0
  0
SPLINE
  5
100
330
1F
100
AcDbEntity
  8
0
  6
CONTINUOUS
 62
     7
100
AcDbSpline
210
0.0
220
0.0
230
1.0
 70
     8
 71
     3
 72
    73
 73
    69
 74
     0
 42
0.00000001
 43
0.00000001
 40
-0.0312500000000004
 40
-0.0312500000000004
 40
0.0
 40
0.0
 40
0.0156249999999995
 40
0.0156249999999995
 40
0.031249999999999
 40
0.031249999999999
 40
0.0624999999999986
 40
0.0624999999999986
 40
0.0937499999999981
 40
0.0937499999999981
 40
0.1249999999999976
 40
0.1249999999999976
 40
0.1874999999999971
 40
0.1874999999999971
 40
0.2187499999999968
 40
0.2187499999999968
 40
0.2499999999999964
 40
0.2499999999999964
 40
0.2812499999999961
 40
0.2812499999999961
 40
0.3124999999999958
 40
0.3124999999999958
 40
0.3437499999999955
 40
0.3437499999999955
 40
0.3749999999999952
 40
0.3749999999999952
 40
0.4062499999999949
 40
0.4062499999999949
 40
0.4374999999999946
 40
0.4374999999999946
 40
0.4687499999999943
 40
0.4687499999999943
 40
0.4843749999999943
 40
0.4843749999999943
 40
0.4999999999999942
 40
0.5156249999999942
 40
0.5156249999999942
 40
0.5312499999999941
 40
0.5312499999999941
 40
0.5468749999999941
 40
0.5468749999999941
 40
0.562499999999994
 40
0.562499999999994
 40
0.5937499999999946
 40
0.5937499999999946
 40
0.624999999999995
 40
0.624999999999995
 40
0.6562499999999954
 40
0.6562499999999954
 40
0.6874999999999959
 40
0.6874999999999959
 40
0.7187499999999964
 40
0.7187499999999964
 40
0.7499999999999969
 40
0.7499999999999969
 40
0.8124999999999977
 40
0.8124999999999977
 40
0.8437499999999981
 40
0.8437499999999981
 40
0.8749999999999984
 40
0.8749999999999984
 40
0.9062499999999988
 40
0.9062499999999988
 40
0.9374999999999991
 40
0.9374999999999991
 40
0.9687499999999996
 40
0.9687499999999996
 40
1.0
 40
1.0
 40
1.015625
 40
1.015625
 10
3.824649632294171
 20
3.444092944860522
 30
0.0
 10
3.834095874362814
 20
3.444092944860522
 30
0.0
 10
3.837186041752067
 20
3.443822009995853
 30
0.0
 10
3.843259841681268
 20
3.442789238550996
 30
0.0
 10
3.846271606484532
 20
3.442016684389132
 30
0.0
 10
3.854929512803622
 20
3.439097934789433
 30
0.0
 10
3.860195468030544
 20
3.436388804409364
 30
0.0
 10
3.869895396176311
 20
3.430019788406708
 30
0.0
 10
3.87418987543684
 20
3.426457348745371
 30
0.0
 10
3.882006803030207
 20
3.418857766832651
 30
0.0
 10
3.885542238646399
 20
3.414785132861074
 30
0.0
 10
3.894926875671892
 20
3.402363098251942
 30
0.0
 10
3.899685583078755
 20
3.393760538019313
 30
0.0
 10
3.904942868494922
 20
3.380612077273526
 30
0.0
 10
3.906349484112917
 20
3.376229598261554
 30
0.0
 10
3.908448924425673
 20
3.367581530704619
 30
0.0
 10
3.909148517041702
 20
3.36329905928486
 30
0.0
 10
3.909803631173189
 20
3.354819731039946
 30
0.0
 10
3.909755467917763
 20
3.350593898832289
 30
0.0
 10
3.908818811080235
 20
3.342377501264588
 30
0.0
 10
3.907938790564387
 20
3.33840246883953
 30
0.0
 10
3.905268187276655
 20
3.330716766746492
 30
0.0
 10
3.903464449464734
 20
3.326983817809504
 30
0.0
 10
3.898826191903141
 20
3.319891022025965
 30
0.0
 10
3.896032503717176
 20
3.31658209314705
 30
0.0
 10
3.889376698992325
 20
3.310438616169737
 30
0.0
 10
3.885459990159826
 20
3.307579027556076
 30
0.0
 10
3.87671950109408
 20
3.302595316254185
 30
0.0
 10
3.871865390052978
 20
3.300435718432792
 30
0.0
 10
3.861163707942068
 20
3.29685989255676
 30
0.0
 10
3.855522018541597
 20
3.295507815489703
 30
0.0
 10
3.846607290935882
 20
3.294116813910132
 30
0.0
 10
3.843534060102925
 20
3.293758943835462
 30
0.0
 10
3.837354671313357
 20
3.293281684831228
 30
0.0
 10
3.83117475194584
 20
3.293040844271245
 30
0.0
 10
3.824993796367465
 20
3.293259058118417
 30
0.0
 10
3.818812310869476
 20
3.293713271732437
 30
0.0
 10
3.815730488917774
 20
3.294059989507718
 30
0.0
 10
3.809757195087843
 20
3.294968924201296
 30
0.0
 10
3.806841140810529
 20
3.295532591107511
 30
0.0
 10
3.801146242265645
 20
3.296877852023348
 30
0.0
 10
3.798349349214048
 20
3.297665971000705
 30
0.0
 10
3.790323787717951
 20
3.300317942403985
 30
0.0
 10
3.785457957581354
 20
3.30245553273246
 30
0.0
 10
3.776601017111425
 20
3.307463327792486
 30
0.0
 10
3.772715815375877
 20
3.310281001164235
 30
0.0
 10
3.76599842138177
 20
3.316431795628239
 30
0.0
 10
3.763138738094709
 20
3.319804282594847
 30
0.0
 10
3.758510770751546
 20
3.326839356271816
 30
0.0
 10
3.756707494019309
 20
3.330527611775846
 30
0.0
 10
3.753995783653755
 20
3.338243241420016
 30
0.0
 10
3.753093142770894
 20
3.342288889829601
 30
0.0
 10
3.752145867847832
 20
3.350466859103517
 30
0.0
 10
3.752087579778253
 20
3.354628744400769
 30
0.0
 10
3.753034762853835
 20
3.36733292349897
 30
0.0
 10
3.755189412251989
 20
3.37617149104006
 30
0.0
 10
3.760383863324027
 20
3.389213270832556
 30
0.0
 10
3.76244636357012
 20
3.393546413355719
 30
0.0
 10
3.76727853470963
 20
3.402159670182217
 30
0.0
 10
3.770066208117369
 20
3.406461151926281
 30
0.0
 10
3.776323801303481
 20
3.414751485059137
 30
0.0
 10
3.77979904070479
 20
3.41876275064369
 30
0.0
 10
3.787627333992263
 20
3.426391320957986
 30
0.0
 10
3.792002707406791
 20
3.430017936248793
 30
0.0
 10
3.801611172569068
 20
3.43633561884179
 30
0.0
 10
3.806972305288782
 20
3.439096903396575
 30
0.0
 10
3.818435550024152
 20
3.442968529837082
 30
0.0
 10
3.824649632294171
 20
3.444092944860522
 30
0.0
 10
3.834095874362814
 20
3.444092944860522
 30
0.0
  0
LINE
  5
101
330
1F
100
AcDbEntity
  8
0
  6
CONTINUOUS
 62
     7
100
AcDbLine
 10
3.6767476519
 20
3.7488357667
 30
0.0
 11
3.6767476519
 21
3.207497184
 31
0.0
  0
LINE
  5
102
330
1F
100
AcDbEntity
  8
0
  6
CONTINUOUS
 62
     7
100
AcDbLine
 10
3.988427442
 20
3.7488357667
 30
0.0
 11
3.6767476519
 21
3.7488357667
 31
0.0
  0
LINE
  5
103
330
1F
100
AcDbEntity
  8
0
  6
CONTINUOUS
 62
     7
100
AcDbLine
 10
3.988427442
 20
3.7685208061
 30
0.0
 11
3.988427442
 21
4.3098593888
 31
0.0
  0
LINE
  5
104
330
1F
100
AcDbEntity
  8
0
  6
CONTINUOUS
 62
     7
100
AcDbLine
 10
3.988427442
 20
3.207497184
 30
0.0
 11
3.988427442
 21
3.7488357667
 31
0.0
  0
LINE
  5
105
330
1F
100
AcDbEntity
  8
0
  6
CONTINUOUS
 62
     7
100
AcDbLine
 10
3.988427442
 20
3.7685208061
 30
0.0
 11
3.6767476519
 21
3.7685208061
 31
0.0
  0
LINE
  5
106
330
1F
100
AcDbEntity
  8
0
  6
CONTINUOUS
 62
     7
100
AcDbLine
 10
3.6767476519
 20
4.3098593888
 30
0.0
 11
3.6767476519
 21
3.7685208061
 31
0.0
  0
LINE
  5
107
330
1F
100
AcDbEntity
  8
0
  6
CONTINUOUS
 62
     7
100
AcDbLine
 10
3.6505009328
 20
4.2301955922
 30
0.0
 11
3.6767476519
 21
4.2301955922
 31
0.0
  0
LINE
  5
108
330
1F
100
AcDbEntity
  8
0
  6
CONTINUOUS
 62
     7
100
AcDbLine
 10
3.6505009328
 20
3.207497184
 30
0.0
 11
3.6505009328
 21
4.3098593888
 31
0.0
  0
LINE
  5
109
330
1F
100
AcDbEntity
  8
0
  6
CONTINUOUS
 62
     7
100
AcDbLine
 10
3.6767476519
 20
3.2871609806
 30
0.0
 11
3.6505009328
 21
3.2871609806
 31
0.0
  0
LINE
  5
10A
330
1F
100
AcDbEntity
  8
0
  6
CONTINUOUS
 62
     7
100
AcDbLine
 10
3.995927442
 20
3.7488357667
 30
0.0
 11
3.995927442
 21
3.214997184
 31
0.0
  0
LINE
  5
10B
330
1F
100
AcDbEntity
  8
0
  6
CONTINUOUS
 62
     7
100
AcDbLine
 10
3.995927442
 20
4.3023593888
 30
0.0
 11
3.995927442
 21
3.7685208061
 31
0.0
  0
LINE
  5
10C
330
1F
100
AcDbEntity
  8
0
  6
CONTINUOUS
 62
     7
100
AcDbLine
 10
3.988427442
 20
3.7685208061
 30
0.0
 11
3.995927442
 21
3.7685208061
 31
0.0
  0
LINE
  5
10D
330
1F
100
AcDbEntity
  8
0
  6
CONTINUOUS
 62
     7
100
AcDbLine
 10
3.988427442
 20
3.7488357667
 30
0.0
 11
3.995927442
 21
3.7488357667
 31
0.0
  0
LINE
  5
10E
330
1F
100
AcDbEntity
  8
0
  6
CONTINUOUS
 62
     7
100
AcDbLine
 10
3.995927442
 20
3.7685208061
 30
0.0
 11
3.995927442
 21
3.7488357667
 31
0.0
  0
LINE
  5
10F
330
1F
100
AcDbEntity
  8
0
  6
CONTINUOUS
 62
     7
100
AcDbLine
 10
3.6767476519
 20
3.7488357667
 30
0.0
 11
3.6767476519
 21
3.7685208061
 31
0.0
  0
LINE
  5
110
330
1F
100
AcDbEntity
  8
0
  6
CONTINUOUS
 62
     7
100
AcDbLine
 10
3.830947127
 20
4.0391900974
 30
0.0
 11
3.9096872845
 21
4.0391900974
 31
0.0
  0
LINE
  5
111
330
1F
100
AcDbEntity
  8
0
  6
CONTINUOUS
 62
     7
100
AcDbLine
 10
3.7513478014
 20
4.0391900974
 30
0.0
 11
3.830947127
 21
4.0391900974
 31
0.0
  0
LINE
  5
112
330
1F
100
AcDbEntity
  8
0
  6
CONTINUOUS
 62
     7
100
AcDbLine
 10
3.830947127
 20
4.1966704124
 30
0.0
 11
3.9490573632
 21
4.1966704124
 31
0.0
  0
LINE
  5
113
330
1F
100
AcDbEntity
  8
0
  6
CONTINUOUS
 62
     7
100
AcDbLine
 10
3.7128368908
 20
4.1966704124
 30
0.0
 11
3.830947127
 21
4.1966704124
 31
0.0
  0
LINE
  5
114
330
1F
100
AcDbEntity
  8
0
  6
CONTINUOUS
 62
     7
100
AcDbLine
 10
3.8998447648
 20
3.3846625384
 30
0.0
 11
3.7620494892
 21
3.3846625384
 31
0.0
  0
CIRCLE
  5
115
330
1F
100
AcDbEntity
  8
0
  6
CONTINUOUS
 62
     7
100
AcDbCircle
 10
2.8223250798
 20
4.1325269826
 30
0.0
 40
0.0688976377952759
  0
ARC
  5
116
330
1F
100
AcDbEntity
  8
0
  6
CONTINUOUS
 62
     7
100
AcDbCircle
 10
2.8223250798
 20
4.1325269826
 30
0.0
 40
0.0787401574803149
100
AcDbArc
 50
30.4365548683
 51
149.5634451317
  0
LINE
  5
117
330
1F
100
AcDbEntity
  8
0
  6
CONTINUOUS
 62
     7
100
AcDbLine
 10
3.0388605128
 20
2.9515916722
 30
0.0
 11
3.0388605128
 21
4.5657649006
 31
0.0
  0
LINE
  5
118
330
1F
100
AcDbEntity
  8
0
  6
CONTINUOUS
 62
     7
100
AcDbLine
 10
3.0290179931
 20
4.5559223809
 30
0.0
 11
3.0290179931
 21
2.9614341919
 31
0.0
  0
LINE
  5
119
330
1F
100
AcDbEntity
  8
0
  6
CONTINUOUS
 62
     7
100
AcDbLine
 10
3.2478959459
 20
2.9515916722
 30
0.0
 11
3.2478959459
 21
4.5657649006
 31
0.0
  0
LINE
  5
11A
330
1F
100
AcDbEntity
  8
0
  6
CONTINUOUS
 62
     7
100
AcDbLine
 10
3.3561636624
 20
3.8717736131
 30
0.0
 11
3.2971085443
 21
3.8717736131
 31
0.0
  0
LINE
  5
11B
330
1F
100
AcDbEntity
  8
0
  6
CONTINUOUS
 62
     7
100
AcDbLine
 10
3.3561636624
 20
3.8717736131
 30
0.0
 11
3.3561636624
 21
3.6455829597
 31
0.0
  0
LINE
  5
11C
330
1F
100
AcDbEntity
  8
0
  6
CONTINUOUS
 62
     7
100
AcDbLine
 10
3.3561636624
 20
3.6455829597
 30
0.0
 11
3.2971085443
 21
3.6455829597
 31
0.0
  0
LINE
  5
11D
330
1F
100
AcDbEntity
  8
0
  6
CONTINUOUS
 62
     7
100
AcDbLine
 10
3.2971085443
 20
3.8717736131
 30
0.0
 11
3.2971085443
 21
3.6455829597
 31
0.0
  0
LINE
  5
11E
330
1F
100
AcDbEntity
  8
0
  6
CONTINUOUS
 62
     7
100
AcDbLine
 10
3.3561636624
 20
3.0304254794
 30
0.0
 11
3.2971085443
 21
3.0304254794
 31
0.0
  0
LINE
  5
11F
330
1F
100
AcDbEntity
  8
0
  6
CONTINUOUS
 62
     7
100
AcDbLine
 10
3.3561636624
 20
3.6455829597
 30
0.0
 11
3.3561636624
 21
3.0304254794
 31
0.0
  0
LINE
  5
120
330
1F
100
AcDbEntity
  8
0
  6
CONTINUOUS
 62
     7
100
AcDbLine
 10
3.2971085443
 20
3.6455829597
 30
0.0
 11
3.2971085443
 21
3.0304254794
 31
0.0
  0
LINE
  5
121
330
1F
100
AcDbEntity
  8
0
  6
CONTINUOUS
 62
     7
100
AcDbLine
 10
3.3561636624
 20
4.4869310934
 30
0.0
 11
3.2971085443
 21
4.4869310934
 31
0.0
  0
LINE
  5
122
330
1F
100
AcDbEntity
  8
0
  6
CONTINUOUS
 62
     7
100
AcDbLine
 10
3.3561636624
 20
4.4869310934
 30
0.0
 11
3.3561636624
 21
3.8717736131
 31
0.0
  0
LINE
  5
123
330
1F
100
AcDbEntity
  8
0
  6
CONTINUOUS
 62
     7
100
AcDbLine
 10
3.2971085443
 20
4.4869310934
 30
0.0
 11
3.2971085443
 21
3.8717736131
 31
0.0
  0
SPLINE
  5
124
330
1F
100
AcDbEntity
  8
0
  6
CONTINUOUS
 62
     7
100
AcDbSpline
210
0.0
220
0.0
230
1.0
 70
     8
 71
     3
 72
    73
 73
    69
 74
     0
 42
0.00000001
 43
0.00000001
 40
-0.0312499999999998
 40
-0.0312499999999998
 40
0.0
 40
0.0
 40
0.0156249999999999
 40
0.0156249999999999
 40
0.0312499999999998
 40
0.0312499999999998
 40
0.0625000000000001
 40
0.0625000000000001
 40
0.0937500000000003
 40
0.0937500000000003
 40
0.1250000000000006
 40
0.1250000000000006
 40
0.1875000000000013
 40
0.1875000000000013
 40
0.2187500000000017
 40
0.2187500000000017
 40
0.2500000000000021
 40
0.2500000000000021
 40
0.2812500000000025
 40
0.2812500000000025
 40
0.3125000000000029
 40
0.3125000000000029
 40
0.3437500000000033
 40
0.3437500000000033
 40
0.3750000000000037
 40
0.3750000000000037
 40
0.4062500000000041
 40
0.4062500000000041
 40
0.4375000000000045
 40
0.4375000000000045
 40
0.4687500000000049
 40
0.4687500000000049
 40
0.4843750000000049
 40
0.4843750000000049
 40
0.5000000000000049
 40
0.5156250000000049
 40
0.5156250000000049
 40
0.531250000000005
 40
0.531250000000005
 40
0.546875000000005
 40
0.546875000000005
 40
0.562500000000005
 40
0.562500000000005
 40
0.5937500000000046
 40
0.5937500000000046
 40
0.625000000000004
 40
0.625000000000004
 40
0.6562500000000036
 40
0.6562500000000036
 40
0.687500000000003
 40
0.687500000000003
 40
0.7187500000000026
 40
0.7187500000000026
 40
0.750000000000002
 40
0.750000000000002
 40
0.8125000000000017
 40
0.8125000000000017
 40
0.8437500000000013
 40
0.8437500000000013
 40
0.8750000000000011
 40
0.8750000000000011
 40
0.9062500000000008
 40
0.9062500000000008
 40
0.9375000000000006
 40
0.9375000000000006
 40
0.9687500000000002
 40
0.9687500000000002
 40
1.0
 40
1.0
 40
1.015625
 40
1.015625
 10
2.828622574474933
 20
4.211267140093406
 30
0.0
 10
2.819176332406291
 20
4.211267140093406
 30
0.0
 10
2.816086165017038
 20
4.211079136589622
 30
0.0
 10
2.810012365087836
 20
4.210358608632943
 30
0.0
 10
2.807000600284573
 20
4.209818458226378
 30
0.0
 10
2.798342693965483
 20
4.207760322738358
 30
0.0
 10
2.793076738738561
 20
4.205831132506796
 30
0.0
 10
2.783376810592794
 20
4.201170963944125
 30
0.0
 10
2.779082331332265
 20
4.198511021392342
 30
0.0
 10
2.771265403738898
 20
4.192666305437571
 30
0.0
 10
2.767729968122706
 20
4.189452729095915
 30
0.0
 10
2.758345331097213
 20
4.179337471512564
 30
0.0
 10
2.75358662369035
 20
4.171931041701319
 30
0.0
 10
2.748329338274183
 20
4.159804323861189
 30
0.0
 10
2.746922722656188
 20
4.155629723735086
 30
0.0
 10
2.744823282343432
 20
4.147112026368646
 30
0.0
 10
2.744123689727403
 20
4.142753498374806
 30
0.0
 10
2.743468575595916
 20
4.133827282067622
 30
0.0
 10
2.743516738851342
 20
4.129226573521071
 30
0.0
 10
2.74445339568887
 20
4.119971182484036
 30
0.0
 10
2.745333416204718
 20
4.115336452482502
 30
0.0
 10
2.74800401949245
 20
4.106076829798767
 30
0.0
 10
2.749807757304371
 20
4.101422947386237
 30
0.0
 10
2.754446014865964
 20
4.092294463270381
 30
0.0
 10
2.757239703051928
 20
4.087887493457029
 30
0.0
 10
2.76389550777678
 20
4.079472525955458
 30
0.0
 10
2.76781221660928
 20
4.075426300355219
 30
0.0
 10
2.776552705675025
 20
4.068207234993308
 30
0.0
 10
2.781406816716126
 20
4.064986778939877
 30
0.0
 10
2.792108498827037
 20
4.059568490307383
 30
0.0
 10
2.797750188227508
 20
4.057470316697571
 30
0.0
 10
2.806664915833222
 20
4.055299230711301
 30
0.0
 10
2.809738146666179
 20
4.054737081887897
 30
0.0
 10
2.815917535453602
 20
4.053986273961231
 30
0.0
 10
2.822097454823265
 20
4.053605877929719
 30
0.0
 10
2.828278410401639
 20
4.053950582490237
 30
0.0
 10
2.834459895899629
 20
4.054665316568213
 30
0.0
 10
2.837541717851331
 20
4.055210166621046
 30
0.0
 10
2.843515011681261
 20
4.056629532753741
 30
0.0
 10
2.846431065958575
 20
4.057506332470774
 30
0.0
 10
2.852125964503461
 20
4.059581086313727
 30
0.0
 10
2.854922857555056
 20
4.060788913148265
 30
0.0
 10
2.862948419051154
 20
4.064810145599126
 30
0.0
 10
2.867814249187751
 20
4.068001505835748
 30
0.0
 10
2.876671189657679
 20
4.075261792247531
 30
0.0
 10
2.880556391393228
 20
4.079252335154842
 30
0.0
 10
2.887273785387335
 20
4.087685714191086
 30
0.0
 10
2.890133468674396
 20
4.092179580272109
 30
0.0
 10
2.894761436017559
 20
4.101240167898548
 30
0.0
 10
2.896564712749796
 20
4.105844148965488
 30
0.0
 10
2.89927642311535
 20
4.115149195822306
 30
0.0
 10
2.900179063998211
 20
4.119868594599435
 30
0.0
 10
2.901126338921273
 20
4.129086168251555
 30
0.0
 10
2.901184626990852
 20
4.133621511726617
 30
0.0
 10
2.90023744391527
 20
4.147009076529842
 30
0.0
 10
2.898082794517116
 20
4.155703648864865
 30
0.0
 10
2.892888343445078
 20
4.167739656742288
 30
0.0
 10
2.890825843198985
 20
4.171609006027334
 30
0.0
 10
2.885993672059475
 20
4.179068034389498
 30
0.0
 10
2.883205998651736
 20
4.182673896893236
 30
0.0
 10
2.876948405465624
 20
4.189425942056549
 30
0.0
 10
2.873473166064315
 20
4.19259209920376
 30
0.0
 10
2.865644872776842
 20
4.198461347678534
 30
0.0
 10
2.861269499362315
 20
4.201169307359883
 30
0.0
 10
2.851661034200037
 20
4.205792515722795
 30
0.0
 10
2.846299901480323
 20
4.207759524147378
 30
0.0
 10
2.834836656744953
 20
4.210489716169077
 30
0.0
 10
2.828622574474933
 20
4.211267140093406
 30
0.0
 10
2.819176332406291
 20
4.211267140093406
 30
0.0
  0
LINE
  5
125
330
1F
100
AcDbEntity
  8
0
  6
CONTINUOUS
 62
     7
100
AcDbLine
 10
2.6648447648
 20
3.207497184
 30
0.0
 11
2.6648447648
 21
4.3097715021
 31
0.0
  0
LINE
  5
126
330
1F
100
AcDbEntity
  8
0
  6
CONTINUOUS
 62
     7
100
AcDbLine
 10
2.6648447648
 20
4.3097715021
 30
0.0
 11
2.9765245548
 21
4.3097715021
 31
0.0
  0
LINE
  5
127
330
1F
100
AcDbEntity
  8
0
  6
CONTINUOUS
 62
     7
100
AcDbLine
 10
2.9765245548
 20
4.3097715021
 30
0.0
 11
2.9765245548
 21
3.4732452155
 31
0.0
  0
LINE
  5
128
330
1F
100
AcDbEntity
  8
0
  6
CONTINUOUS
 62
     7
100
AcDbLine
 10
2.9765245548
 20
3.4732452155
 30
0.0
 11
3.002771274
 21
3.4732452155
 31
0.0
  0
LINE
  5
129
330
1F
100
AcDbEntity
  8
0
  6
CONTINUOUS
 62
     7
100
AcDbLine
 10
3.002771274
 20
3.4732452155
 30
0.0
 11
3.002771274
 21
4.3098593888
 31
0.0
  0
LINE
  5
12A
330
1F
100
AcDbEntity
  8
0
  6
CONTINUOUS
 62
     7
100
AcDbLine
 10
2.6573447648
 20
4.3022702895
 30
0.0
 11
2.6573447648
 21
3.214997184
 31
0.0
  0
LINE
  5
12B
330
1F
100
AcDbEntity
  8
0
  6
CONTINUOUS
 62
     7
100
AcDbLine
 10
2.6648447648
 20
4.3097715021
 30
0.0
 11
2.6573447648
 21
4.3022702895
 31
0.0
  0
LINE
  5
12C
330
1F
100
AcDbEntity
  8
0
  6
CONTINUOUS
 62
     7
100
AcDbLine
 10
3.3561636624
 20
4.5337767116
 30
0.0
 11
3.3561636624
 21
4.4869310934
 31
0.0
  0
LINE
  5
12D
330
1F
100
AcDbEntity
  8
0
  6
CONTINUOUS
 62
     7
100
AcDbLine
 10
3.2971085443
 20
4.5337767116
 30
0.0
 11
3.2971085443
 21
4.4869310934
 31
0.0
  0
LINE
  5
12E
330
1F
100
AcDbEntity
  8
0
  6
CONTINUOUS
 62
     7
100
AcDbLine
 10
3.3561636624
 20
3.0304254794
 30
0.0
 11
3.3561636624
 21
2.9835798612
 31
0.0
  0
LINE
  5
12F
330
1F
100
AcDbEntity
  8
0
  6
CONTINUOUS
 62
     7
100
AcDbLine
 10
3.2971085443
 20
3.0304254794
 30
0.0
 11
3.2971085443
 21
2.9835798612
 31
0.0
  0
LINE
  5
130
330
1F
100
AcDbEntity
  8
0
  6
CONTINUOUS
 62
     8
100
AcDbLine
 10
3.830947127
 20
4.1868278927
 30
0.0
 11
3.7029943711
 21
4.1868278927
 31
0.0
  0
LINE
  5
131
330
1F
100
AcDbEntity
  8
0
  6
CONTINUOUS
 62
     8
100
AcDbLine
 10
3.9588998829
 20
4.1868278927
 30
0.0
 11
3.830947127
 21
4.1868278927
 31
0.0
  0
LINE
  5
132
330
1F
100
AcDbEntity
  8
0
  6
CONTINUOUS
 62
     8
100
AcDbLine
 10
3.7633474113
 20
3.394505058
 30
0.0
 11
3.8989464305
 21
3.394505058
 31
0.0
  0
SPLINE
  5
133
330
1F
100
AcDbEntity
  8
0
  6
HIDDEN
 62
     7
100
AcDbSpline
210
0.0
220
0.0
230
1.0
 70
     8
 71
     3
 72
    10
 73
     6
 74
     0
 42
0.00000001
 43
0.00000001
 40
0.0
 40
0.0
 40
0.0
 40
0.0
 40
0.3896207026176013
 40
0.942370612890692
 40
1.0
 40
1.0
 40
1.0
 40
1.0
 10
3.958392113306501
 20
4.163368336733583
 30
0.0
 10
3.958397747624629
 20
4.167835212930833
 30
0.0
 10
3.958411375277863
 20
4.178639189288938
 30
0.0
 10
3.956315635383317
 20
4.189439140611039
 30
0.0
 10
3.953148659204032
 20
4.195247786880132
 30
0.0
 10
3.952849646939061
 20
4.19579621426923
 30
0.0
  0
SPLINE
  5
134
330
1F
100
AcDbEntity
  8
0
  6
HIDDEN
 62
     7
100
AcDbSpline
210
0.0
220
0.0
230
1.0
 70
     8
 71
     3
 72
     9
 73
     5
 74
     0
 42
0.00000001
 43
0.00000001
 40
0.0
 40
0.0
 40
0.0
 40
0.0
 40
0.3982838431433187
 40
1.0
 40
1.0
 40
1.0
 40
1.0
 10
3.709072083317807
 20
4.195905935614237
 30
0.0
 10
3.707535675029551
 20
4.191883224068477
 30
0.0
 10
3.703678103815687
 20
4.181783111761606
 30
0.0
 10
3.703492861262004
 20
4.170329458243062
 30
0.0
 10
3.703381397824515
 20
4.163437609865915
 30
0.0
  0
LINE
  5
135
330
1F
100
AcDbEntity
  8
0
  6
HIDDEN
 62
     7
100
AcDbLine
 10
3.988427442
 20
3.7685208061
 30
0.0
 11
3.988427442
 21
3.7488357667
 31
0.0
  0
LINE
  5
136
330
1F
100
AcDbEntity
  8
0
  6
HIDDEN
 62
     7
100
AcDbLine
 10
3.9099975411
 20
4.0391900974
 30
0.0
 11
3.9588998829
 21
4.0391900974
 31
0.0
  0
LINE
  5
137
330
1F
100
AcDbEntity
  8
0
  6
HIDDEN
 62
     7
100
AcDbLine
 10
3.7029943711
 20
4.0391900974
 30
0.0
 11
3.751896713
 21
4.0391900974
 31
0.0
  0
LINE
  5
138
330
1F
100
AcDbEntity
  8
0
  6
HIDDEN
 62
     7
100
AcDbLine
 10
3.9096872845
 20
4.0391900974
 30
0.0
 11
3.9588998829
 21
4.0391900974
 31
0.0
  0
LINE
  5
139
330
1F
100
AcDbEntity
  8
0
  6
HIDDEN
 62
     7
100
AcDbLine
 10
3.7029943711
 20
4.0391900974
 30
0.0
 11
3.7513478014
 21
4.0391900974
 31
0.0
  0
LINE
  5
13A
330
1F
100
AcDbEntity
  8
0
  6
HIDDEN
 62
     7
100
AcDbLine
 10
3.7718920089
 20
4.1179302549
 30
0.0
 11
3.830947127
 21
4.1179302549
 31
0.0
  0
LINE
  5
13B
330
1F
100
AcDbEntity
  8
0
  6
HIDDEN
 62
     7
100
AcDbLine
 10
3.830947127
 20
4.1179302549
 30
0.0
 11
3.830947127
 21
4.1966704124
 31
0.0
  0
LINE
  5
13C
330
1F
100
AcDbEntity
  8
0
  6
HIDDEN
 62
     7
100
AcDbLine
 10
3.830947127
 20
4.1179302549
 30
0.0
 11
3.8900022451
 21
4.1179302549
 31
0.0
  0
LINE
  5
13D
330
1F
100
AcDbEntity
  8
0
  6
HIDDEN
 62
     7
100
AcDbLine
 10
3.7718920089
 20
4.1179302549
 30
0.0
 11
3.7718920089
 21
4.1966704124
 31
0.0
  0
LINE
  5
13E
330
1F
100
AcDbEntity
  8
0
  6
HIDDEN
 62
     7
100
AcDbLine
 10
3.8900022451
 20
4.1179302549
 30
0.0
 11
3.8900022451
 21
4.1966704124
 31
0.0
  0
ARC
  5
13F
330
1F
100
AcDbEntity
  8
0
  6
HIDDEN
 62
     7
100
AcDbCircle
 10
2.8223250798
 20
4.1325269826
 30
0.0
 40
0.0787401574803149
100
AcDbArc
 50
0.0
 51
30.4365548683
  0
ARC
  5
140
330
1F
100
AcDbEntity
  8
0
  6
HIDDEN
 62
     7
100
AcDbCircle
 10
2.8223250798
 20
4.1325269826
 30
0.0
 40
0.0787401574803149
100
AcDbArc
 50
149.5634451317
 51
270.0
  0
CIRCLE
  5
141
330
1F
100
AcDbEntity
  8
0
  6
HIDDEN
 62
     7
100
AcDbCircle
 10
2.8223250798
 20
4.1325269826
 30
0.0
 40
0.127952755905512
  0
LINE
  5
142
330
1F
100
AcDbEntity
  8
0
  6
HIDDEN
 62
     7
100
AcDbLine
 10
2.8223250798
 20
4.0643360059
 30
0.0
 11
2.8813801979
 21
4.0984314943
 31
0.0
  0
LINE
  5
143
330
1F
100
AcDbEntity
  8
0
  6
HIDDEN
 62
     7
100
AcDbLine
 10
2.7632699617
 20
4.0984314943
 30
0.0
 11
2.8223250798
 21
4.0643360059
 31
0.0
  0
LINE
  5
144
330
1F
100
AcDbEntity
  8
0
  6
HIDDEN
 62
     7
100
AcDbLine
 10
2.8813801979
 20
4.0984314943
 30
0.0
 11
2.8813801979
 21
4.166622471
 31
0.0
  0
LINE
  5
145
330
1F
100
AcDbEntity
  8
0
  6
HIDDEN
 62
     7
100
AcDbLine
 10
2.7632699617
 20
4.166622471
 30
0.0
 11
2.7632699617
 21
4.0984314943
 31
0.0
  0
LINE
  5
146
330
1F
100
AcDbEntity
  8
0
  6
HIDDEN
 62
     7
100
AcDbLine
 10
2.8223250798
 20
4.2007179593
 30
0.0
 11
2.7632699617
 21
4.166622471
 31
0.0
  0
LINE
  5
147
330
1F
100
AcDbEntity
  8
0
  6
HIDDEN
 62
     7
100
AcDbLine
 10
2.8813801979
 20
4.166622471
 30
0.0
 11
2.8223250798
 21
4.2007179593
 31
0.0
  0
CIRCLE
  5
148
330
1F
100
AcDbEntity
  8
0
  6
HIDDEN
 62
     7
100
AcDbCircle
 10
2.8223250798
 20
4.1325269826
 30
0.0
 40
0.1181102362204722
  0
LINE
  5
149
330
1F
100
AcDbEntity
  8
0
  6
HIDDEN
 62
     7
100
AcDbLine
 10
2.9013754938
 20
4.2331398038
 30
0.0
 11
2.7432746657
 21
4.2331398038
 31
0.0
  0
LINE
  5
14A
330
1F
100
AcDbEntity
  8
0
  6
HIDDEN
 62
     7
100
AcDbLine
 10
3.3561636624
 20
4.4869310934
 30
0.0
 11
3.2971085443
 21
4.4869310934
 31
0.0
  0
LINE
  5
14B
330
1F
100
AcDbEntity
  8
0
  6
HIDDEN
 62
     7
100
AcDbLine
 10
3.3561636624
 20
3.0304254794
 30
0.0
 11
3.2971085443
 21
3.0304254794
 31
0.0
  0
ARC
  5
14C
330
1F
100
AcDbEntity
  8
0
  6
HIDDEN
 62
     7
100
AcDbCircle
 10
2.6573447648
 20
3.5618278927
 30
0.0
 40
0.3191797900262467
100
AcDbArc
 50
270.0
 51
0.0
  0
LINE
  5
14D
330
1F
100
AcDbEntity
  8
0
  6
HIDDEN
 62
     7
100
AcDbLine
 10
2.6648447648
 20
3.5620741097
 30
0.0
 11
2.9765245548
 21
3.5620741097
 31
0.0
  0
LINE
  5
14E
330
1F
100
AcDbEntity
  8
0
  6
HIDDEN
 62
     7
100
AcDbLine
 10
2.6648447648
 20
3.5620741097
 30
0.0
 11
2.6573447648
 21
3.5545650624
 31
0.0
  0
LINE
  5
14F
330
1F
100
AcDbEntity
  8
0
  6
HIDDEN
 62
     7
100
AcDbLine
 10
2.9765245548
 20
3.9552824631
 30
0.0
 11
2.6648447648
 21
3.9552824631
 31
0.0
  0
LINE
  5
150
330
1F
100
AcDbEntity
  8
0
  6
HIDDEN
 62
     7
100
AcDbLine
 10
2.6573447648
 20
3.9627915104
 30
0.0
 11
2.6648447648
 21
3.9552824631
 31
0.0
  0
ARC
  5
151
330
1F
100
AcDbEntity
  8
0
  6
HIDDEN
 62
     7
100
AcDbCircle
 10
2.8223250798
 20
4.1325269826
 30
0.0
 40
0.1279527559055122
100
AcDbArc
 50
128.1563403893
 51
51.8436596107
  0
LINE
  5
152
330
1F
100
AcDbEntity
  8
0
  6
HIDDEN
 62
     7
100
AcDbLine
 10
3.3561636624
 20
3.6455829597
 30
0.0
 11
3.2971085443
 21
3.6455829597
 31
0.0
  0
LINE
  5
153
330
1F
100
AcDbEntity
  8
0
  6
HIDDEN
 62
     7
100
AcDbLine
 10
3.3561636624
 20
3.8717736131
 30
0.0
 11
3.2971085443
 21
3.8717736131
 31
0.0
  0
LINE
  5
154
330
1F
100
AcDbEntity
  8
0
  6
HIDDEN
 62
     7
100
AcDbLine
 10
3.9588998829
 20
4.0391900974
 30
0.0
 11
3.9588998829
 21
4.1633683367
 31
0.0
  0
LINE
  5
155
330
1F
100
AcDbEntity
  8
0
  6
HIDDEN
 62
     7
100
AcDbLine
 10
3.7029943711
 20
4.1634376099
 30
0.0
 11
3.7029943711
 21
4.0391900974
 31
0.0
  0
LINE
  5
156
330
1F
100
AcDbEntity
  8
0
  6
HIDDEN
 62
     7
100
AcDbLine
 10
3.7522069695
 20
3.7488357667
 30
0.0
 11
3.7522069695
 21
3.353731487
 31
0.0
  0
LINE
  5
157
330
1F
100
AcDbEntity
  8
0
  6
HIDDEN
 62
     7
100
AcDbLine
 10
3.9096872845
 20
3.3537807853
 30
0.0
 11
3.9096872845
 21
3.7488357667
 31
0.0
  0
LINE
  5
158
330
1F
100
AcDbEntity
  8
0
  6
HIDDEN
 62
     7
100
AcDbLine
 10
3.7522069695
 20
4.0391900974
 30
0.0
 11
3.7522069695
 21
3.7685208061
 31
0.0
  0
LINE
  5
159
330
1F
100
AcDbEntity
  8
0
  6
HIDDEN
 62
     7
100
AcDbLine
 10
3.9096872845
 20
3.7685208061
 30
0.0
 11
3.9096872845
 21
4.0391900974
 31
0.0
  0
LINE
  5
15A
330
1F
100
AcDbEntity
  8
0
  6
HIDDEN
 62
     7
100
AcDbLine
 10
3.995927442
 20
3.9630286801
 30
0.0
 11
3.988427442
 21
3.9555286801
 31
0.0
  0
LINE
  5
15B
330
1F
100
AcDbEntity
  8
0
  6
HIDDEN
 62
     7
100
AcDbLine
 10
3.988427442
 20
3.5618278927
 30
0.0
 11
3.995927442
 21
3.5543278927
 31
0.0
  0
LINE
  5
15C
330
1F
100
AcDbEntity
  8
0
  6
HIDDEN
 62
     7
100
AcDbLine
 10
3.6505009328
 20
3.9555286801
 30
0.0
 11
3.4053762609
 21
3.9555286801
 31
0.0
  0
LINE
  5
15D
330
1F
100
AcDbEntity
  8
0
  6
HIDDEN
 62
     7
100
AcDbLine
 10
3.4053762609
 20
3.5618278927
 30
0.0
 11
3.6505009328
 21
3.5618278927
 31
0.0
  0
LINE
  5
15E
330
1F
100
AcDbEntity
  8
0
  6
HIDDEN
 62
     7
100
AcDbLine
 10
3.6767476519
 20
3.5618278927
 30
0.0
 11
3.988427442
 21
3.5618278927
 31
0.0
  0
LINE
  5
15F
330
1F
100
AcDbEntity
  8
0
  6
HIDDEN
 62
     7
100
AcDbLine
 10
3.988427442
 20
3.9555286801
 30
0.0
 11
3.6767476519
 21
3.9555286801
 31
0.0
  0
LINE
  5
160
330
1F
100
AcDbEntity
  8
0
  6
HIDDEN
 62
     7
100
AcDbLine
 10
3.9588998829
 20
4.0391900974
 30
0.0
 11
3.9588998829
 21
4.1593222228
 31
0.0
  0
LINE
  5
161
330
1F
100
AcDbEntity
  8
0
  6
HIDDEN
 62
     7
100
AcDbLine
 10
3.7029943711
 20
4.1615665224
 30
0.0
 11
3.7029943711
 21
4.0391900974
 31
0.0
  0
ARC
  5
162
330
1F
100
AcDbEntity
  8
0
  6
HIDDEN
 62
     7
100
AcDbCircle
 10
3.8998447648
 20
3.394505058
 30
0.0
 40
0.0098425196850394
100
AcDbArc
 50
288.2846611633
 51
0.0
  0
ARC
  5
163
330
1F
100
AcDbEntity
  8
0
  6
HIDDEN
 62
     7
100
AcDbCircle
 10
3.7620494892
 20
3.394505058
 30
0.0
 40
0.0098425196850396
100
AcDbArc
 50
180.0
 51
251.8575023538
  0
LINE
  5
164
330
1F
100
AcDbEntity
  8
0
  6
HIDDEN
 62
     7
100
AcDbLine
 10
3.7522069695
 20
4.0391900974
 30
0.0
 11
3.7522069695
 21
3.7685208061
 31
0.0
  0
LINE
  5
165
330
1F
100
AcDbEntity
  8
0
  6
HIDDEN
 62
     7
100
AcDbLine
 10
3.7522069695
 20
3.7488357667
 30
0.0
 11
3.7522069695
 21
3.394505058
 31
0.0
  0
LINE
  5
166
330
1F
100
AcDbEntity
  8
0
  6
HIDDEN
 62
     7
100
AcDbLine
 10
3.9096872845
 20
3.394505058
 30
0.0
 11
3.9096872845
 21
3.7488357667
 31
0.0
  0
LINE
  5
167
330
1F
100
AcDbEntity
  8
0
  6
HIDDEN
 62
     7
100
AcDbLine
 10
3.9096872845
 20
3.7685208061
 30
0.0
 11
3.9096872845
 21
4.0391900974
 31
0.0
  0
LINE
  5
168
330
1F
100
AcDbEntity
  8
0
  6
HIDDEN
 62
     7
100
AcDbLine
 10
3.3561636624
 20
3.9948987588
 30
0.0
 11
3.2971085443
 21
3.9948987588
 31
0.0
  0
LINE
  5
169
330
1F
100
AcDbEntity
  8
0
  6
HIDDEN
 62
     7
100
AcDbLine
 10
3.2971085443
 20
3.522457814
 30
0.0
 11
3.3561636624
 21
3.522457814
 31
0.0
  0
LINE
  5
16A
330
1F
100
AcDbEntity
  8
0
  6
HIDDEN
 62
     7
100
AcDbLine
 10
3.002771274
 20
3.5618278927
 30
0.0
 11
3.2478959459
 21
3.5618278927
 31
0.0
  0
LINE
  5
16B
330
1F
100
AcDbEntity
  8
0
  6
HIDDEN
 62
     7
100
AcDbLine
 10
3.2478959459
 20
3.9555286801
 30
0.0
 11
3.002771274
 21
3.9555286801
 31
0.0
  0
LINE
  5
16C
330
1F
100
AcDbEntity
  8
0
  6
HIDDEN
 62
     7
100
AcDbLine
 10
3.7029943711
 20
4.1868278927
 30
0.0
 11
3.9588998829
 21
4.1868278927
 31
0.0
  0
LINE
  5
16D
330
1F
100
AcDbEntity
  8
0
  6
HIDDEN
 62
     7
100
AcDbLine
 10
3.830947127
 20
3.394505058
 30
0.0
 11
3.7522647505
 21
3.394505058
 31
0.0
  0
LINE
  5
16E
330
1F
100
AcDbEntity
  8
0
  6
HIDDEN
 62
     7
100
AcDbLine
 10
3.830947127
 20
3.394505058
 30
0.0
 11
3.9096295035
 21
3.394505058
 31
0.0
  0
LINE
  5
16F
330
1F
100
AcDbEntity
  8
0
  6
CONTINUOUS
 62
     7
100
AcDbLine
 10
7.7490831542
 20
4.1868278927
 30
0.0
 11
7.7490831542
 21
4.0391900974
 31
0.0
  0
ARC
  5
170
330
1F
100
AcDbEntity
  8
0
  6
CONTINUOUS
 62
     7
100
AcDbCircle
 10
7.7589256739
 20
4.1868278927
 30
0.0
 40
0.0098425196850398
100
AcDbArc
 50
90.0
 51
180.0
  0
ARC
  5
171
330
1F
100
AcDbEntity
  8
0
  6
CONTINUOUS
 62
     7
100
AcDbCircle
 10
7.8081382723
 20
3.394505058
 30
0.0
 40
0.0098425196850394
100
AcDbArc
 50
180.0
 51
270.0
  0
LINE
  5
172
330
1F
100
AcDbEntity
  8
0
  6
CONTINUOUS
 62
     7
100
AcDbLine
 10
7.7982957526
 20
3.7685208061
 30
0.0
 11
7.7982957526
 21
3.7488357667
 31
0.0
  0
LINE
  5
173
330
1F
100
AcDbEntity
  8
0
  6
CONTINUOUS
 62
     7
100
AcDbLine
 10
7.7982957526
 20
3.4440929449
 30
0.0
 11
7.7982957526
 21
3.394505058
 31
0.0
  0
LINE
  5
174
330
1F
100
AcDbEntity
  8
0
  6
CONTINUOUS
 62
     7
100
AcDbLine
 10
7.9557760676
 20
3.7488357667
 30
0.0
 11
7.9557760676
 21
3.7685208061
 31
0.0
  0
ARC
  5
175
330
1F
100
AcDbEntity
  8
0
  6
CONTINUOUS
 62
     7
100
AcDbCircle
 10
8.2508846063
 20
3.7586782864
 30
0.0
 40
0.5436811023622035
100
AcDbArc
 50
181.0373096351
 51
178.9626903649
  0
LINE
  5
176
330
1F
100
AcDbEntity
  8
0
  6
CONTINUOUS
 62
     7
100
AcDbLine
 10
7.6997913906
 20
3.7685208061
 30
0.0
 11
7.7072926032
 21
3.7685208061
 31
0.0
  0
ARC
  5
177
330
1F
100
AcDbEntity
  8
0
  6
CONTINUOUS
 62
     7
100
AcDbCircle
 10
8.2508846063
 20
3.7586782864
 30
0.0
 40
0.5511811023622041
100
AcDbArc
 50
181.0231933037
 51
178.9768066963
  0
LINE
  5
178
330
1F
100
AcDbEntity
  8
0
  6
CONTINUOUS
 62
     7
100
AcDbLine
 10
7.6997913906
 20
3.7488357667
 30
0.0
 11
7.7072926032
 21
3.7488357667
 31
0.0
  0
LINE
  5
179
330
1F
100
AcDbEntity
  8
0
  6
CONTINUOUS
 62
     7
100
AcDbLine
 10
8.7669147901
 20
3.7685208061
 30
0.0
 11
8.7669147901
 21
3.7488357667
 31
0.0
  0
LINE
  5
17A
330
1F
100
AcDbEntity
  8
0
  6
CONTINUOUS
 62
     7
100
AcDbLine
 10
8.7669147901
 20
3.7685208061
 30
0.0
 11
8.4549978303
 21
3.7685208061
 31
0.0
  0
ARC
  5
17B
330
1F
100
AcDbEntity
  8
0
  6
CONTINUOUS
 62
     7
100
AcDbCircle
 10
8.2508846063
 20
3.7586782864
 30
0.0
 40
0.2043503937007894
100
AcDbArc
 50
2.76071456
 51
177.23928544
  0
LINE
  5
17C
330
1F
100
AcDbEntity
  8
0
  6
CONTINUOUS
 62
     7
100
AcDbLine
 10
7.7072926032
 20
3.7685208061
 30
0.0
 11
8.0467713823
 21
3.7685208061
 31
0.0
  0
LINE
  5
17D
330
1F
100
AcDbEntity
  8
0
  6
CONTINUOUS
 62
     7
100
AcDbLine
 10
7.7072926032
 20
3.7488357667
 30
0.0
 11
8.0467713823
 21
3.7488357667
 31
0.0
  0
ARC
  5
17E
330
1F
100
AcDbEntity
  8
0
  6
CONTINUOUS
 62
     7
100
AcDbCircle
 10
8.2508846063
 20
3.7586782864
 30
0.0
 40
0.2043503937007894
100
AcDbArc
 50
182.76071456
 51
357.23928544
  0
LINE
  5
17F
330
1F
100
AcDbEntity
  8
0
  6
CONTINUOUS
 62
     7
100
AcDbLine
 10
8.4549978303
 20
3.7488357667
 30
0.0
 11
8.7669147901
 21
3.7488357667
 31
0.0
  0
LINE
  5
180
330
1F
100
AcDbEntity
  8
0
  6
CONTINUOUS
 62
     7
100
AcDbLine
 10
8.447735
 20
3.7488357667
 30
0.0
 11
8.447735
 21
3.7685208061
 31
0.0
  0
LINE
  5
181
330
1F
100
AcDbEntity
  8
0
  6
CONTINUOUS
 62
     7
100
AcDbLine
 10
8.0467713823
 20
3.7685208061
 30
0.0
 11
8.0542804296
 21
3.7685208061
 31
0.0
  0
ARC
  5
182
330
1F
100
AcDbEntity
  8
0
  6
CONTINUOUS
 62
     7
100
AcDbCircle
 10
8.2508846063
 20
3.7586782864
 30
0.0
 40
0.1968503937007885
100
AcDbArc
 50
2.8659839826
 51
177.1340160174
  0
LINE
  5
183
330
1F
100
AcDbEntity
  8
0
  6
CONTINUOUS
 62
     7
100
AcDbLine
 10
8.4474887831
 20
3.7685208061
 30
0.0
 11
8.4549978303
 21
3.7685208061
 31
0.0
  0
LINE
  5
184
330
1F
100
AcDbEntity
  8
0
  6
CONTINUOUS
 62
     7
100
AcDbLine
 10
8.0467713823
 20
3.7488357667
 30
0.0
 11
8.0542804296
 21
3.7488357667
 31
0.0
  0
ARC
  5
185
330
1F
100
AcDbEntity
  8
0
  6
CONTINUOUS
 62
     7
100
AcDbCircle
 10
8.2508846063
 20
3.7586782864
 30
0.0
 40
0.1968503937007885
100
AcDbArc
 50
182.8659839826
 51
357.1340160174
  0
LINE
  5
186
330
1F
100
AcDbEntity
  8
0
  6
CONTINUOUS
 62
     7
100
AcDbLine
 10
8.4474887831
 20
3.7488357667
 30
0.0
 11
8.4549978303
 21
3.7488357667
 31
0.0
  0
LINE
  5
187
330
1F
100
AcDbEntity
  8
0
  6
CONTINUOUS
 62
     7
100
AcDbLine
 10
8.0540342126
 20
3.7586782864
 30
0.0
 11
8.0542804296
 21
3.7488357667
 31
0.0
  0
POLYLINE
  5
188
330
1F
100
AcDbEntity
  8
0
  6
CONTINUOUS
 62
     7
100
AcDb2dPolyline
 66
     1
 10
0.0
 20
0.0
 30
0.0
  0
VERTEX
  5
2F5
330
188
100
AcDbEntity
  8
0
  6
CONTINUOUS
 62
     7
100
AcDbVertex
100
AcDb2dVertex
 10
8.4474887831
 20
3.7488357667
 30
0.0
  0
VERTEX
  5
2F6
330
188
100
AcDbEntity
  8
0
  6
CONTINUOUS
 62
     7
100
AcDbVertex
100
AcDb2dVertex
 10
8.4475051234
 20
3.7491677786
 30
0.0
  0
VERTEX
  5
2F7
330
188
100
AcDbEntity
  8
0
  6
CONTINUOUS
 62
     7
100
AcDbVertex
100
AcDb2dVertex
 10
8.4475076481
 20
3.7681364543
 30
0.0
  0
SEQEND
  5
2F8
330
188
100
AcDbEntity
  8
0
  6
CONTINUOUS
 62
     7
  0
LINE
  5
189
330
1F
100
AcDbEntity
  8
0
  6
CONTINUOUS
 62
     7
100
AcDbLine
 10
8.0542804296
 20
3.7685208061
 30
0.0
 11
8.0540342126
 21
3.7586782864
 31
0.0
  0
LINE
  5
18A
330
1F
100
AcDbEntity
  8
0
  6
CONTINUOUS
 62
     7
100
AcDbLine
 10
7.6997913906
 20
3.7488357667
 30
0.0
 11
7.6997913906
 21
3.7685208061
 31
0.0
  0
CIRCLE
  5
18B
330
1F
100
AcDbEntity
  8
0
  6
CONTINUOUS
 62
     7
100
AcDbCircle
 10
8.2508846063
 20
3.7586782864
 30
0.0
 40
0.8070866141732296
  0
CIRCLE
  5
18C
330
1F
100
AcDbEntity
  8
0
  6
CONTINUOUS
 62
     7
100
AcDbCircle
 10
8.2508846063
 20
3.7586782864
 30
0.0
 40
0.7972440944881889
  0
LINE
  5
18D
330
1F
100
AcDbEntity
  8
0
  6
CONTINUOUS
 62
     7
100
AcDbLine
 10
7.7490831542
 20
4.0391900974
 30
0.0
 11
7.7764230889
 21
4.0391900974
 31
0.0
  0
LINE
  5
18E
330
1F
100
AcDbEntity
  8
0
  6
CONTINUOUS
 62
     7
100
AcDbLine
 10
7.7589256739
 20
4.1966704124
 30
0.0
 11
7.9162751247
 21
4.1966704124
 31
0.0
  0
LINE
  5
18F
330
1F
100
AcDbEntity
  8
0
  6
CONTINUOUS
 62
     7
100
AcDbLine
 10
7.8460231142
 20
3.3846625384
 30
0.0
 11
7.8081382723
 21
3.3846625384
 31
0.0
  0
LINE
  5
190
330
1F
100
AcDbEntity
  8
0
  6
CONTINUOUS
 62
     8
100
AcDbLine
 10
7.9037700399
 20
4.1868278927
 30
0.0
 11
7.7490831542
 21
4.1868278927
 31
0.0
  0
LINE
  5
191
330
1F
100
AcDbEntity
  8
0
  6
CONTINUOUS
 62
     8
100
AcDbLine
 10
7.7982957526
 20
3.394505058
 30
0.0
 11
7.8371474103
 21
3.394505058
 31
0.0
  0
LINE
  5
192
330
1F
100
AcDbEntity
  8
0
  6
HIDDEN
 62
     7
100
AcDbLine
 10
7.7764230889
 20
4.0391900974
 30
0.0
 11
8.004988666
 21
4.0391900974
 31
0.0
  0
LINE
  5
193
330
1F
100
AcDbEntity
  8
0
  6
HIDDEN
 62
     7
100
AcDbLine
 10
8.5363176772
 20
3.2871609806
 30
0.0
 11
8.5363176772
 21
4.2301955922
 31
0.0
  0
LINE
  5
194
330
1F
100
AcDbEntity
  8
0
  6
HIDDEN
 62
     7
100
AcDbLine
 10
7.9162751247
 20
4.1966704124
 30
0.0
 11
7.9951461463
 21
4.1966704124
 31
0.0
  0
LINE
  5
195
330
1F
100
AcDbEntity
  8
0
  6
HIDDEN
 62
     7
100
AcDbLine
 10
7.9459335479
 20
3.3846625384
 30
0.0
 11
7.8460231142
 21
3.3846625384
 31
0.0
  0
LINE
  5
196
330
1F
100
AcDbEntity
  8
0
  6
HIDDEN
 62
     7
100
AcDbLine
 10
7.9111313984
 20
4.1179302549
 30
0.0
 11
7.9452268868
 21
4.1179302549
 31
0.0
  0
LINE
  5
197
330
1F
100
AcDbEntity
  8
0
  6
HIDDEN
 62
     7
100
AcDbLine
 10
7.9111313984
 20
4.1179302549
 30
0.0
 11
7.9111313984
 21
4.1966704124
 31
0.0
  0
LINE
  5
198
330
1F
100
AcDbEntity
  8
0
  6
HIDDEN
 62
     7
100
AcDbLine
 10
7.8429404218
 20
4.1179302549
 30
0.0
 11
7.9111313984
 21
4.1179302549
 31
0.0
  0
LINE
  5
199
330
1F
100
AcDbEntity
  8
0
  6
HIDDEN
 62
     7
100
AcDbLine
 10
7.8429404218
 20
4.1179302549
 30
0.0
 11
7.8429404218
 21
4.1966704124
 31
0.0
  0
LINE
  5
19A
330
1F
100
AcDbEntity
  8
0
  6
HIDDEN
 62
     7
100
AcDbLine
 10
7.8088449334
 20
4.1179302549
 30
0.0
 11
7.8429404218
 21
4.1179302549
 31
0.0
  0
LINE
  5
19B
330
1F
100
AcDbEntity
  8
0
  6
HIDDEN
 62
     7
100
AcDbLine
 10
7.9452268868
 20
4.1179302549
 30
0.0
 11
7.9452268868
 21
4.1966704124
 31
0.0
  0
LINE
  5
19C
330
1F
100
AcDbEntity
  8
0
  6
HIDDEN
 62
     7
100
AcDbLine
 10
7.8088449334
 20
4.1179302549
 30
0.0
 11
7.8088449334
 21
4.1966704124
 31
0.0
  0
LINE
  5
19D
330
1F
100
AcDbEntity
  8
0
  6
HIDDEN
 62
     7
100
AcDbLine
 10
8.5313964173
 20
4.0045742267
 30
0.0
 11
8.5313964173
 21
4.2604797385
 31
0.0
  0
LINE
  5
19E
330
1F
100
AcDbEntity
  8
0
  6
HIDDEN
 62
     7
100
AcDbLine
 10
8.6790342126
 20
4.2604797385
 30
0.0
 11
8.6790342126
 21
4.0045742267
 31
0.0
  0
LINE
  5
19F
330
1F
100
AcDbEntity
  8
0
  6
HIDDEN
 62
     7
100
AcDbLine
 10
8.6888767323
 20
4.014416747
 30
0.0
 11
8.6888767323
 21
4.2506372188
 31
0.0
  0
LINE
  5
1A0
330
1F
100
AcDbEntity
  8
0
  6
HIDDEN
 62
     7
100
AcDbLine
 10
7.886711378
 20
4.0537868251
 30
0.0
 11
7.886711378
 21
4.2110361008
 31
0.0
  0
LINE
  5
1A1
330
1F
100
AcDbEntity
  8
0
  6
HIDDEN
 62
     7
100
AcDbLine
 10
7.8768688583
 20
4.2014246185
 30
0.0
 11
7.8768688583
 21
4.0636293448
 31
0.0
  0
LINE
  5
1A2
330
1F
100
AcDbEntity
  8
0
  6
HIDDEN
 62
     7
100
AcDbLine
 10
8.6101365748
 20
4.166622471
 30
0.0
 11
8.6888767323
 21
4.166622471
 31
0.0
  0
LINE
  5
1A3
330
1F
100
AcDbEntity
  8
0
  6
HIDDEN
 62
     7
100
AcDbLine
 10
8.6101365748
 20
4.0984314943
 30
0.0
 11
8.6888767323
 21
4.0984314943
 31
0.0
  0
LINE
  5
1A4
330
1F
100
AcDbEntity
  8
0
  6
HIDDEN
 62
     7
100
AcDbLine
 10
8.6101365748
 20
4.0643360059
 30
0.0
 11
8.6101365748
 21
4.0984314943
 31
0.0
  0
LINE
  5
1A5
330
1F
100
AcDbEntity
  8
0
  6
HIDDEN
 62
     7
100
AcDbLine
 10
8.6101365748
 20
4.0984314943
 30
0.0
 11
8.6101365748
 21
4.166622471
 31
0.0
  0
LINE
  5
1A6
330
1F
100
AcDbEntity
  8
0
  6
HIDDEN
 62
     7
100
AcDbLine
 10
8.6101365748
 20
4.166622471
 30
0.0
 11
8.6101365748
 21
4.2007179593
 31
0.0
  0
LINE
  5
1A7
330
1F
100
AcDbEntity
  8
0
  6
HIDDEN
 62
     7
100
AcDbLine
 10
8.6101365748
 20
4.2007179593
 30
0.0
 11
8.6888767323
 21
4.2007179593
 31
0.0
  0
LINE
  5
1A8
330
1F
100
AcDbEntity
  8
0
  6
HIDDEN
 62
     7
100
AcDbLine
 10
8.6101365748
 20
4.0643360059
 30
0.0
 11
8.6888767323
 21
4.0643360059
 31
0.0
  0
CIRCLE
  5
1A9
330
1F
100
AcDbEntity
  8
0
  6
HIDDEN
 62
     7
100
AcDbCircle
 10
8.8660420866
 20
3.7586782864
 30
0.0
 40
0.1279527559055129
  0
CIRCLE
  5
1AA
330
1F
100
AcDbEntity
  8
0
  6
HIDDEN
 62
     7
100
AcDbCircle
 10
8.2508846063
 20
4.3738357667
 30
0.0
 40
0.1279527559055129
  0
CIRCLE
  5
1AB
330
1F
100
AcDbEntity
  8
0
  6
HIDDEN
 62
     7
100
AcDbCircle
 10
8.2508846063
 20
3.1435208061
 30
0.0
 40
0.1279527559055129
  0
CIRCLE
  5
1AC
330
1F
100
AcDbEntity
  8
0
  6
HIDDEN
 62
     7
100
AcDbCircle
 10
7.635727126
 20
3.7586782864
 30
0.0
 40
0.127952755905512
  0
LINE
  5
1AD
330
1F
100
AcDbEntity
  8
0
  6
HIDDEN
 62
     7
100
AcDbLine
 10
8.1377892796
 20
4.4869310934
 30
0.0
 11
7.5226317993
 21
3.8717736131
 31
0.0
  0
ARC
  5
1AE
330
1F
100
AcDbEntity
  8
0
  6
HIDDEN
 62
     7
100
AcDbCircle
 10
8.2508846063
 20
4.3738357667
 30
0.0
 40
0.1599409448818903
100
AcDbArc
 50
45.0
 51
135.0
  0
LINE
  5
1AF
330
1F
100
AcDbEntity
  8
0
  6
HIDDEN
 62
     7
100
AcDbLine
 10
8.9791374134
 20
3.8717736131
 30
0.0
 11
8.363979933
 21
4.4869310934
 31
0.0
  0
ARC
  5
1B0
330
1F
100
AcDbEntity
  8
0
  6
HIDDEN
 62
     7
100
AcDbCircle
 10
8.8660420866
 20
3.7586782864
 30
0.0
 40
0.1599409448818906
100
AcDbArc
 50
315.0
 51
45.0
  0
LINE
  5
1B1
330
1F
100
AcDbEntity
  8
0
  6
HIDDEN
 62
     7
100
AcDbLine
 10
8.363979933
 20
3.0304254794
 30
0.0
 11
8.9791374134
 21
3.6455829597
 31
0.0
  0
ARC
  5
1B2
330
1F
100
AcDbEntity
  8
0
  6
HIDDEN
 62
     7
100
AcDbCircle
 10
8.2508846063
 20
3.1435208061
 30
0.0
 40
0.1599409448818903
100
AcDbArc
 50
225.0
 51
315.0
  0
LINE
  5
1B3
330
1F
100
AcDbEntity
  8
0
  6
HIDDEN
 62
     7
100
AcDbLine
 10
7.5226317993
 20
3.6455829597
 30
0.0
 11
8.1377892796
 21
3.0304254794
 31
0.0
  0
ARC
  5
1B4
330
1F
100
AcDbEntity
  8
0
  6
HIDDEN
 62
     7
100
AcDbCircle
 10
7.635727126
 20
3.7586782864
 30
0.0
 40
0.1599409448818906
100
AcDbArc
 50
135.0
 51
225.0
  0
CIRCLE
  5
1B5
330
1F
100
AcDbEntity
  8
0
  6
HIDDEN
 62
     7
100
AcDbCircle
 10
8.2508846063
 20
3.7586782864
 30
0.0
 40
0.2362204724409462
  0
CIRCLE
  5
1B6
330
1F
100
AcDbEntity
  8
0
  6
HIDDEN
 62
     7
100
AcDbCircle
 10
8.2508846063
 20
3.7586782864
 30
0.0
 40
0.5511811023622046
  0
LINE
  5
1B7
330
1F
100
AcDbEntity
  8
0
  6
HIDDEN
 62
     7
100
AcDbLine
 10
7.7793673005
 20
3.4732452155
 30
0.0
 11
8.7224019121
 21
3.4732452155
 31
0.0
  0
LINE
  5
1B8
330
1F
100
AcDbEntity
  8
0
  6
HIDDEN
 62
     7
100
AcDbLine
 10
8.2410420866
 20
3.5618278927
 30
0.0
 11
8.2410420866
 21
3.5620741097
 31
0.0
  0
LINE
  5
1B9
330
1F
100
AcDbEntity
  8
0
  6
HIDDEN
 62
     7
100
AcDbLine
 10
8.2410420866
 20
3.5618278927
 30
0.0
 11
8.260727126
 21
3.5618278927
 31
0.0
  0
LINE
  5
1BA
330
1F
100
AcDbEntity
  8
0
  6
HIDDEN
 62
     7
100
AcDbLine
 10
8.260727126
 20
3.5620741097
 30
0.0
 11
8.260727126
 21
3.5618278927
 31
0.0
  0
LINE
  5
1BB
330
1F
100
AcDbEntity
  8
0
  6
HIDDEN
 62
     7
100
AcDbLine
 10
8.260727126
 20
3.9552824631
 30
0.0
 11
8.260727126
 21
4.3097715021
 31
0.0
  0
LINE
  5
1BC
330
1F
100
AcDbEntity
  8
0
  6
HIDDEN
 62
     7
100
AcDbLine
 10
8.2410420866
 20
3.9552824631
 30
0.0
 11
8.2410420866
 21
4.3097715021
 31
0.0
  0
LINE
  5
1BD
330
1F
100
AcDbEntity
  8
0
  6
HIDDEN
 62
     7
100
AcDbLine
 10
8.2410420866
 20
3.2426481027
 30
0.0
 11
8.2410420866
 21
3.5618278927
 31
0.0
  0
LINE
  5
1BE
330
1F
100
AcDbEntity
  8
0
  6
HIDDEN
 62
     7
100
AcDbLine
 10
8.260727126
 20
3.2426481027
 30
0.0
 11
8.2410420866
 21
3.2426481027
 31
0.0
  0
LINE
  5
1BF
330
1F
100
AcDbEntity
  8
0
  6
HIDDEN
 62
     7
100
AcDbLine
 10
8.260727126
 20
3.5618278927
 30
0.0
 11
8.260727126
 21
3.2426481027
 31
0.0
  0
LINE
  5
1C0
330
1F
100
AcDbEntity
  8
0
  6
HIDDEN
 62
     7
100
AcDbLine
 10
8.5313964173
 20
4.0045742267
 30
0.0
 11
8.5313964173
 21
4.2331398038
 31
0.0
  0
POLYLINE
  5
1C1
330
1F
100
AcDbEntity
  8
0
  6
HIDDEN
 62
     7
100
AcDb2dPolyline
 66
     1
 10
0.0
 20
0.0
 30
0.0
  0
VERTEX
  5
2F9
330
1C1
100
AcDbEntity
  8
0
  6
HIDDEN
 62
     7
100
AcDbVertex
100
AcDb2dVertex
 10
8.0467713823
 20
3.7488357667
 30
0.0
  0
VERTEX
  5
2FA
330
1C1
100
AcDbEntity
  8
0
  6
HIDDEN
 62
     7
100
AcDbVertex
100
AcDb2dVertex
 10
8.0465342126
 20
3.7586782864
 30
0.0
  0
VERTEX
  5
2FB
330
1C1
100
AcDbEntity
  8
0
  6
HIDDEN
 62
     7
100
AcDbVertex
100
AcDb2dVertex
 10
8.0467713823
 20
3.7685208061
 30
0.0
  0
SEQEND
  5
2FC
330
1C1
100
AcDbEntity
  8
0
  6
HIDDEN
 62
     7
  0
POLYLINE
  5
1C2
330
1F
100
AcDbEntity
  8
0
  6
HIDDEN
 62
     7
100
AcDb2dPolyline
 66
     1
 10
0.0
 20
0.0
 30
0.0
  0
VERTEX
  5
2FD
330
1C2
100
AcDbEntity
  8
0
  6
HIDDEN
 62
     7
100
AcDbVertex
100
AcDb2dVertex
 10
8.4549978303
 20
3.7685208061
 30
0.0
  0
VERTEX
  5
2FE
330
1C2
100
AcDbEntity
  8
0
  6
HIDDEN
 62
     7
100
AcDbVertex
100
AcDb2dVertex
 10
8.455235
 20
3.7586782864
 30
0.0
  0
VERTEX
  5
2FF
330
1C2
100
AcDbEntity
  8
0
  6
HIDDEN
 62
     7
100
AcDbVertex
100
AcDb2dVertex
 10
8.4549978303
 20
3.7488357667
 30
0.0
  0
SEQEND
  5
300
330
1C2
100
AcDbEntity
  8
0
  6
HIDDEN
 62
     7
  0
POLYLINE
  5
1C3
330
1F
100
AcDbEntity
  8
0
  6
HIDDEN
 62
     7
100
AcDb2dPolyline
 66
     1
 10
0.0
 20
0.0
 30
0.0
  0
VERTEX
  5
301
330
1C3
100
AcDbEntity
  8
0
  6
HIDDEN
 62
     7
100
AcDbVertex
100
AcDb2dVertex
 10
7.7072926032
 20
3.7685208061
 30
0.0
  0
VERTEX
  5
302
330
1C3
100
AcDbEntity
  8
0
  6
HIDDEN
 62
     7
100
AcDbVertex
100
AcDb2dVertex
 10
7.7072257792
 20
3.7537568249
 30
0.0
  0
VERTEX
  5
303
330
1C3
100
AcDbEntity
  8
0
  6
HIDDEN
 62
     7
100
AcDbVertex
100
AcDb2dVertex
 10
7.7072926032
 20
3.7488357667
 30
0.0
  0
SEQEND
  5
304
330
1C3
100
AcDbEntity
  8
0
  6
HIDDEN
 62
     7
  0
LINE
  5
1C4
330
1F
100
AcDbEntity
  8
0
  6
HIDDEN
 62
     7
100
AcDbLine
 10
8.004988666
 20
4.0391900974
 30
0.0
 11
8.004988666
 21
4.2517959471
 31
0.0
  0
LINE
  5
1C5
330
1F
100
AcDbEntity
  8
0
  6
HIDDEN
 62
     7
100
AcDbLine
 10
7.7982957526
 20
3.7488357667
 30
0.0
 11
7.7982957526
 21
3.4440929449
 31
0.0
  0
LINE
  5
1C6
330
1F
100
AcDbEntity
  8
0
  6
HIDDEN
 62
     7
100
AcDbLine
 10
7.9557760676
 20
3.2931635562
 30
0.0
 11
7.9557760676
 21
3.7488357667
 31
0.0
  0
LINE
  5
1C7
330
1F
100
AcDbEntity
  8
0
  6
HIDDEN
 62
     7
100
AcDbLine
 10
7.7982957526
 20
4.0391900974
 30
0.0
 11
7.7982957526
 21
3.7685208061
 31
0.0
  0
LINE
  5
1C8
330
1F
100
AcDbEntity
  8
0
  6
HIDDEN
 62
     7
100
AcDbLine
 10
7.9557760676
 20
3.7685208061
 30
0.0
 11
7.9557760676
 21
4.0391900974
 31
0.0
  0
LINE
  5
1C9
330
1F
100
AcDbEntity
  8
0
  6
HIDDEN
 62
     7
100
AcDbLine
 10
8.004988666
 20
4.0391900974
 30
0.0
 11
8.004988666
 21
4.1868278927
 31
0.0
  0
ARC
  5
1CA
330
1F
100
AcDbEntity
  8
0
  6
HIDDEN
 62
     7
100
AcDbCircle
 10
7.9951461463
 20
4.1868278927
 30
0.0
 40
0.0098425196850389
100
AcDbArc
 50
0.0
 51
90.0
  0
ARC
  5
1CB
330
1F
100
AcDbEntity
  8
0
  6
HIDDEN
 62
     7
100
AcDbCircle
 10
7.9459335479
 20
3.394505058
 30
0.0
 40
0.0098425196850398
100
AcDbArc
 50
270.0
 51
0.0
  0
LINE
  5
1CC
330
1F
100
AcDbEntity
  8
0
  6
HIDDEN
 62
     7
100
AcDbLine
 10
7.7982957526
 20
4.0391900974
 30
0.0
 11
7.7982957526
 21
3.7685208061
 31
0.0
  0
LINE
  5
1CD
330
1F
100
AcDbEntity
  8
0
  6
HIDDEN
 62
     7
100
AcDbLine
 10
7.7982957526
 20
3.7488357667
 30
0.0
 11
7.7982957526
 21
3.4440929449
 31
0.0
  0
LINE
  5
1CE
330
1F
100
AcDbEntity
  8
0
  6
HIDDEN
 62
     7
100
AcDbLine
 10
7.9557760676
 20
3.394505058
 30
0.0
 11
7.9557760676
 21
3.7488357667
 31
0.0
  0
LINE
  5
1CF
330
1F
100
AcDbEntity
  8
0
  6
HIDDEN
 62
     7
100
AcDbLine
 10
7.9557760676
 20
3.7685208061
 30
0.0
 11
7.9557760676
 21
4.0391900974
 31
0.0
  0
LINE
  5
1D0
330
1F
100
AcDbEntity
  8
0
  6
HIDDEN
 62
     7
100
AcDbLine
 10
8.5313964173
 20
4.0045742267
 30
0.0
 11
8.6790342126
 21
4.0045742267
 31
0.0
  0
LINE
  5
1D1
330
1F
100
AcDbEntity
  8
0
  6
HIDDEN
 62
     7
100
AcDbLine
 10
8.6790342126
 20
4.2604797385
 30
0.0
 11
8.5313964173
 21
4.2604797385
 31
0.0
  0
ARC
  5
1D2
330
1F
100
AcDbEntity
  8
0
  6
HIDDEN
 62
     7
100
AcDbCircle
 10
8.6790342126
 20
4.2506372188
 30
0.0
 40
0.0098425196850407
100
AcDbArc
 50
0.0
 51
90.0
  0
ARC
  5
1D3
330
1F
100
AcDbEntity
  8
0
  6
HIDDEN
 62
     7
100
AcDbCircle
 10
8.6790342126
 20
4.0144167464
 30
0.0
 40
0.0098425196850389
100
AcDbArc
 50
270.0
 51
0.0
  0
LINE
  5
1D4
330
1F
100
AcDbEntity
  8
0
  6
HIDDEN
 62
     7
100
AcDbLine
 10
8.5313964173
 20
4.2112671401
 30
0.0
 11
7.886711378
 21
4.2112671401
 31
0.0
  0
LINE
  5
1D5
330
1F
100
AcDbEntity
  8
0
  6
HIDDEN
 62
     7
100
AcDbLine
 10
7.886711378
 20
4.0537868251
 30
0.0
 11
8.5313964173
 21
4.0537868251
 31
0.0
  0
ARC
  5
1D6
330
1F
100
AcDbEntity
  8
0
  6
HIDDEN
 62
     7
100
AcDbCircle
 10
7.886711378
 20
4.0636293448
 30
0.0
 40
0.0098425196850389
100
AcDbArc
 50
180.0
 51
270.0
  0
ARC
  5
1D7
330
1F
100
AcDbEntity
  8
0
  6
HIDDEN
 62
     7
100
AcDbCircle
 10
7.886711378
 20
4.2014246204
 30
0.0
 40
0.0098425196850398
100
AcDbArc
 50
90.0
 51
180.0
  0
LINE
  5
1D8
330
1F
100
AcDbEntity
  8
0
  6
HIDDEN
 62
     7
100
AcDbLine
 10
8.5313964173
 20
4.0045742267
 30
0.0
 11
8.7440022671
 21
4.0045742267
 31
0.0
  0
LINE
  5
1D9
330
1F
100
AcDbEntity
  8
0
  6
HIDDEN
 62
     7
100
AcDbLine
 10
8.5313964173
 20
4.2112671401
 30
0.0
 11
8.260727126
 21
4.2112671401
 31
0.0
  0
LINE
  5
1DA
330
1F
100
AcDbEntity
  8
0
  6
HIDDEN
 62
     7
100
AcDbLine
 10
8.260727126
 20
4.0537868251
 30
0.0
 11
8.5313964173
 21
4.0537868251
 31
0.0
  0
LINE
  5
1DB
330
1F
100
AcDbEntity
  8
0
  6
HIDDEN
 62
     7
100
AcDbLine
 10
8.2410420866
 20
4.2112671401
 30
0.0
 11
7.9362992648
 21
4.2112671401
 31
0.0
  0
LINE
  5
1DC
330
1F
100
AcDbEntity
  8
0
  6
HIDDEN
 62
     7
100
AcDbLine
 10
7.7853698761
 20
4.0537868251
 30
0.0
 11
8.2410420866
 21
4.0537868251
 31
0.0
  0
LINE
  5
1DD
330
1F
100
AcDbEntity
  8
0
  6
HIDDEN
 62
     7
100
AcDbLine
 10
7.7490831542
 20
4.1868278927
 30
0.0
 11
8.004988666
 21
4.1868278927
 31
0.0
  0
LINE
  5
1DE
330
1F
100
AcDbEntity
  8
0
  6
HIDDEN
 62
     7
100
AcDbLine
 10
7.9557760676
 20
3.394505058
 30
0.0
 11
7.7982957526
 21
3.394505058
 31
0.0
  0
LINE
  5
1DF
330
1F
100
AcDbEntity
  8
0
  6
HIDDEN
 62
     7
100
AcDbLine
 10
7.8371474103
 20
3.394505058
 30
0.0
 11
7.9557760676
 21
3.394505058
 31
0.0
  0
LINE
  5
1E0
330
1F
100
AcDbEntity
  8
0
  6
CONTINUOUS
 62
     7
100
AcDbLine
 10
3.6144116939
 20
5.8648905247
 30
0.0
 11
3.6242542136
 21
5.8747330444
 31
0.0
  0
LINE
  5
1E1
330
1F
100
AcDbEntity
  8
0
  6
CONTINUOUS
 62
     7
100
AcDbLine
 10
3.6242542136
 20
7.4692212334
 30
0.0
 11
3.6144116939
 21
7.4790637531
 31
0.0
  0
LINE
  5
1E2
330
1F
100
AcDbEntity
  8
0
  6
CONTINUOUS
 62
     7
100
AcDbLine
 10
3.4053762609
 20
5.8648905247
 30
0.0
 11
3.6144116939
 21
5.8648905247
 31
0.0
  0
LINE
  5
1E3
330
1F
100
AcDbEntity
  8
0
  6
CONTINUOUS
 62
     7
100
AcDbLine
 10
3.6144116939
 20
7.4790637531
 30
0.0
 11
3.4053762609
 21
7.4790637531
 31
0.0
  0
LINE
  5
1E4
330
1F
100
AcDbEntity
  8
0
  6
CONTINUOUS
 62
     7
100
AcDbLine
 10
3.6242542136
 20
6.1207960366
 30
0.0
 11
3.6505009328
 21
6.1207960366
 31
0.0
  0
LINE
  5
1E5
330
1F
100
AcDbEntity
  8
0
  6
CONTINUOUS
 62
     7
100
AcDbLine
 10
3.988427442
 20
7.2231582413
 30
0.0
 11
3.6242542136
 21
7.2231582413
 31
0.0
  0
LINE
  5
1E6
330
1F
100
AcDbEntity
  8
0
  6
CONTINUOUS
 62
     7
100
AcDbLine
 10
3.995927442
 20
7.2156582413
 30
0.0
 11
3.988427442
 21
7.2231582413
 31
0.0
  0
LINE
  5
1E7
330
1F
100
AcDbEntity
  8
0
  6
CONTINUOUS
 62
     7
100
AcDbLine
 10
2.9502778357
 20
7.074865375
 30
0.0
 11
2.9502778357
 21
7.1001267452
 31
0.0
  0
LINE
  5
1E8
330
1F
100
AcDbEntity
  8
0
  6
CONTINUOUS
 62
     7
100
AcDbLine
 10
2.6943723239
 20
7.1001267452
 30
0.0
 11
2.6943723239
 21
7.0726210753
 31
0.0
  0
ARC
  5
1E9
330
1F
100
AcDbEntity
  8
0
  6
CONTINUOUS
 62
     7
100
AcDbCircle
 10
2.7042148435
 20
7.1001267452
 30
0.0
 40
0.0098425196850394
100
AcDbArc
 50
90.0
 51
180.0
  0
ARC
  5
1EA
330
1F
100
AcDbEntity
  8
0
  6
CONTINUOUS
 62
     7
100
AcDbCircle
 10
2.940435316
 20
7.1001267452
 30
0.0
 40
0.0098425196850394
100
AcDbArc
 50
0.0
 51
90.0
  0
LINE
  5
1EB
330
1F
100
AcDbEntity
  8
0
  6
CONTINUOUS
 62
     7
100
AcDbLine
 10
2.7435849223
 20
6.6818196586
 30
0.0
 11
2.7435849223
 21
6.6621346192
 31
0.0
  0
LINE
  5
1EC
330
1F
100
AcDbEntity
  8
0
  6
CONTINUOUS
 62
     7
100
AcDbLine
 10
2.9010652372
 20
6.6621346192
 30
0.0
 11
2.9010652372
 21
6.6818196586
 31
0.0
  0
POLYLINE
  5
1ED
330
1F
100
AcDbEntity
  8
0
  6
CONTINUOUS
 62
     7
100
AcDb2dPolyline
 66
     1
 10
0.0
 20
0.0
 30
0.0
  0
VERTEX
  5
305
330
1ED
100
AcDbEntity
  8
0
  6
CONTINUOUS
 62
     7
100
AcDbVertex
100
AcDb2dVertex
 10
2.8912227176
 20
6.2979613909
 30
0.0
  0
VERTEX
  5
306
330
1ED
100
AcDbEntity
  8
0
  6
CONTINUOUS
 62
     7
100
AcDbVertex
100
AcDb2dVertex
 10
2.8931428979
 20
6.2981505121
 30
0.0
  0
VERTEX
  5
307
330
1ED
100
AcDbEntity
  8
0
  6
CONTINUOUS
 62
     7
100
AcDbVertex
100
AcDb2dVertex
 10
2.8942803023
 20
6.2984483577
 30
0.0
  0
SEQEND
  5
308
330
1ED
100
AcDbEntity
  8
0
  6
CONTINUOUS
 62
     7
  0
POLYLINE
  5
1EE
330
1F
100
AcDbEntity
  8
0
  6
CONTINUOUS
 62
     7
100
AcDb2dPolyline
 66
     1
 10
0.0
 20
0.0
 30
0.0
  0
VERTEX
  5
309
330
1EE
100
AcDbEntity
  8
0
  6
CONTINUOUS
 62
     7
100
AcDbVertex
100
AcDb2dVertex
 10
2.7503195527
 20
6.2984649482
 30
0.0
  0
VERTEX
  5
30A
330
1EE
100
AcDbEntity
  8
0
  6
CONTINUOUS
 62
     7
100
AcDbVertex
100
AcDb2dVertex
 10
2.7515072616
 20
6.2981505121
 30
0.0
  0
VERTEX
  5
30B
330
1EE
100
AcDbEntity
  8
0
  6
CONTINUOUS
 62
     7
100
AcDbVertex
100
AcDb2dVertex
 10
2.753427442
 20
6.2979613909
 30
0.0
  0
SEQEND
  5
30C
330
1EE
100
AcDbEntity
  8
0
  6
CONTINUOUS
 62
     7
  0
LINE
  5
1EF
330
1F
100
AcDbEntity
  8
0
  6
CONTINUOUS
 62
     7
100
AcDbLine
 10
3.0388605128
 20
7.4790637531
 30
0.0
 11
3.0290179931
 21
7.4692212334
 31
0.0
  0
LINE
  5
1F0
330
1F
100
AcDbEntity
  8
0
  6
CONTINUOUS
 62
     7
100
AcDbLine
 10
3.0290179931
 20
5.8747330444
 30
0.0
 11
3.0388605128
 21
5.8648905247
 31
0.0
  0
LINE
  5
1F1
330
1F
100
AcDbEntity
  8
0
  6
CONTINUOUS
 62
     7
100
AcDbLine
 10
3.2478959459
 20
7.4790637531
 30
0.0
 11
3.0388605128
 21
7.4790637531
 31
0.0
  0
LINE
  5
1F2
330
1F
100
AcDbEntity
  8
0
  6
CONTINUOUS
 62
     7
100
AcDbLine
 10
3.0388605128
 20
5.8648905247
 30
0.0
 11
3.2478959459
 21
5.8648905247
 31
0.0
  0
LINE
  5
1F3
330
1F
100
AcDbEntity
  8
0
  6
CONTINUOUS
 62
     7
100
AcDbLine
 10
3.3561636624
 20
6.544024383
 30
0.0
 11
3.4053762609
 21
6.544024383
 31
0.0
  0
LINE
  5
1F4
330
1F
100
AcDbEntity
  8
0
  6
CONTINUOUS
 62
     7
100
AcDbLine
 10
3.4053762609
 20
6.7999298948
 30
0.0
 11
3.3561636624
 21
6.7999298948
 31
0.0
  0
LINE
  5
1F5
330
1F
100
AcDbEntity
  8
0
  6
CONTINUOUS
 62
     7
100
AcDbLine
 10
3.2478959459
 20
6.544024383
 30
0.0
 11
3.2971085443
 21
6.544024383
 31
0.0
  0
LINE
  5
1F6
330
1F
100
AcDbEntity
  8
0
  6
CONTINUOUS
 62
     7
100
AcDbLine
 10
3.2971085443
 20
6.7999298948
 30
0.0
 11
3.2478959459
 21
6.7999298948
 31
0.0
  0
LINE
  5
1F7
330
1F
100
AcDbEntity
  8
0
  6
CONTINUOUS
 62
     7
100
AcDbLine
 10
2.9765245548
 20
7.2231582413
 30
0.0
 11
2.6648447648
 21
7.2231582413
 31
0.0
  0
LINE
  5
1F8
330
1F
100
AcDbEntity
  8
0
  6
CONTINUOUS
 62
     7
100
AcDbLine
 10
3.0290179931
 20
7.2231582413
 30
0.0
 11
3.002771274
 21
7.2231582413
 31
0.0
  0
LINE
  5
1F9
330
1F
100
AcDbEntity
  8
0
  6
CONTINUOUS
 62
     7
100
AcDbLine
 10
3.002771274
 20
6.1207960366
 30
0.0
 11
3.0290179931
 21
6.1207960366
 31
0.0
  0
LINE
  5
1FA
330
1F
100
AcDbEntity
  8
0
  6
CONTINUOUS
 62
     7
100
AcDbLine
 10
2.6648447648
 20
6.1207960366
 30
0.0
 11
2.9765245548
 21
6.1207960366
 31
0.0
  0
LINE
  5
1FB
330
1F
100
AcDbEntity
  8
0
  6
CONTINUOUS
 62
     7
100
AcDbLine
 10
2.6648447648
 20
7.2231582413
 30
0.0
 11
2.6573447648
 21
7.2156582413
 31
0.0
  0
LINE
  5
1FC
330
1F
100
AcDbEntity
  8
0
  6
CONTINUOUS
 62
     7
100
AcDbLine
 10
2.6573447648
 20
6.1282960366
 30
0.0
 11
2.6648447648
 21
6.1207960366
 31
0.0
  0
LINE
  5
1FD
330
1F
100
AcDbEntity
  8
0
  6
CONTINUOUS
 62
     7
100
AcDbLine
 10
3.3561636624
 20
7.1591818633
 30
0.0
 11
3.4053762609
 21
7.1591818633
 31
0.0
  0
LINE
  5
1FE
330
1F
100
AcDbEntity
  8
0
  6
CONTINUOUS
 62
     7
100
AcDbLine
 10
3.4053762609
 20
7.4150873751
 30
0.0
 11
3.3561636624
 21
7.4150873751
 31
0.0
  0
LINE
  5
1FF
330
1F
100
AcDbEntity
  8
0
  6
CONTINUOUS
 62
     7
100
AcDbLine
 10
3.2478959459
 20
7.1591818633
 30
0.0
 11
3.2971085443
 21
7.1591818633
 31
0.0
  0
LINE
  5
200
330
1F
100
AcDbEntity
  8
0
  6
CONTINUOUS
 62
     7
100
AcDbLine
 10
3.2971085443
 20
7.4150873751
 30
0.0
 11
3.2478959459
 21
7.4150873751
 31
0.0
  0
LINE
  5
201
330
1F
100
AcDbEntity
  8
0
  6
CONTINUOUS
 62
     7
100
AcDbLine
 10
3.2478959459
 20
5.9288669027
 30
0.0
 11
3.2971085443
 21
5.9288669027
 31
0.0
  0
LINE
  5
202
330
1F
100
AcDbEntity
  8
0
  6
CONTINUOUS
 62
     7
100
AcDbLine
 10
3.2971085443
 20
6.1847724145
 30
0.0
 11
3.2478959459
 21
6.1847724145
 31
0.0
  0
LINE
  5
203
330
1F
100
AcDbEntity
  8
0
  6
CONTINUOUS
 62
     7
100
AcDbLine
 10
3.3561636624
 20
5.9288669027
 30
0.0
 11
3.4053762609
 21
5.9288669027
 31
0.0
  0
LINE
  5
204
330
1F
100
AcDbEntity
  8
0
  6
CONTINUOUS
 62
     7
100
AcDbLine
 10
3.4053762609
 20
6.1847724145
 30
0.0
 11
3.3561636624
 21
6.1847724145
 31
0.0
  0
LINE
  5
205
330
1F
100
AcDbEntity
  8
0
  6
CONTINUOUS
 62
     7
100
AcDbLine
 10
3.3561636624
 20
7.4470755641
 30
0.0
 11
3.2971085443
 21
7.4470755641
 31
0.0
  0
LINE
  5
206
330
1F
100
AcDbEntity
  8
0
  6
CONTINUOUS
 62
     7
100
AcDbLine
 10
3.2971085443
 20
5.8968787137
 30
0.0
 11
3.3561636624
 21
5.8968787137
 31
0.0
  0
LINE
  5
207
330
1F
100
AcDbEntity
  8
0
  6
CONTINUOUS
 62
     7
100
AcDbLine
 10
3.6144116939
 20
5.8648905247
 30
0.0
 11
3.6144116939
 21
7.4790637531
 31
0.0
  0
LINE
  5
208
330
1F
100
AcDbEntity
  8
0
  6
CONTINUOUS
 62
     7
100
AcDbLine
 10
3.6242542136
 20
7.4692212334
 30
0.0
 11
3.6242542136
 21
5.8747330444
 31
0.0
  0
LINE
  5
209
330
1F
100
AcDbEntity
  8
0
  6
CONTINUOUS
 62
     7
100
AcDbLine
 10
3.4053762609
 20
5.8648905247
 30
0.0
 11
3.4053762609
 21
7.4790637531
 31
0.0
  0
SPLINE
  5
20A
330
1F
100
AcDbEntity
  8
0
  6
CONTINUOUS
 62
     7
100
AcDbSpline
210
0.0
220
0.0
230
1.0
 70
     8
 71
     3
 72
    68
 73
    64
 74
     0
 42
0.00000001
 43
0.00000001
 40
0.0
 40
0.0
 40
0.0
 40
0.0
 40
0.0624999999999998
 40
0.0624999999999998
 40
0.0937499999999996
 40
0.0937499999999996
 40
0.1249999999999994
 40
0.1249999999999994
 40
0.187499999999999
 40
0.187499999999999
 40
0.2187499999999989
 40
0.2187499999999989
 40
0.2499999999999988
 40
0.2499999999999988
 40
0.3124999999999986
 40
0.3124999999999986
 40
0.3437499999999987
 40
0.3437499999999987
 40
0.3749999999999988
 40
0.3749999999999988
 40
0.406249999999999
 40
0.406249999999999
 40
0.4218749999999991
 40
0.4218749999999991
 40
0.4374999999999991
 40
0.4374999999999991
 40
0.4687499999999992
 40
0.4687499999999992
 40
0.4999999999999993
 40
0.4999999999999993
 40
0.5312499999999994
 40
0.5312499999999994
 40
0.5468749999999997
 40
0.5468749999999997
 40
0.5624999999999998
 40
0.5624999999999998
 40
0.578125
 40
0.578125
 40
0.5937500000000001
 40
0.5937500000000001
 40
0.6250000000000004
 40
0.6250000000000004
 40
0.6406250000000006
 40
0.6406250000000006
 40
0.6562500000000006
 40
0.6562500000000006
 40
0.6875000000000007
 40
0.6875000000000007
 40
0.7187500000000008
 40
0.7187500000000008
 40
0.7500000000000009
 40
0.7500000000000009
 40
0.8125000000000009
 40
0.8125000000000009
 40
0.8437500000000008
 40
0.8437500000000008
 40
0.8750000000000007
 40
0.8750000000000007
 40
0.9375000000000003
 40
0.9375000000000003
 40
0.9687500000000001
 40
0.9687500000000001
 40
1.0
 40
1.0
 40
1.0
 40
1.0
 10
3.909997541057568
 20
6.197515621533337
 30
0.0
 10
3.918994211438305
 20
6.204584208920743
 30
0.0
 10
3.926555102914642
 20
6.212412528062964
 30
0.0
 10
3.936299833295481
 20
6.225315230603782
 30
0.0
 10
3.939271234872729
 20
6.229811586025628
 30
0.0
 10
3.94466233842216
 20
6.239220413166778
 30
0.0
 10
3.947090231299824
 20
6.244153573575412
 30
0.0
 10
3.953427517027591
 20
6.259490902473493
 30
0.0
 10
3.956366392097774
 20
6.270297158746232
 30
0.0
 10
3.958581957852402
 20
6.287431533403814
 30
0.0
 10
3.958950764024292
 20
6.293297685099863
 30
0.0
 10
3.958837768640891
 20
6.305356934313481
 30
0.0
 10
3.958348018015535
 20
6.311598009355115
 30
0.0
 10
3.95539962995528
 20
6.3304628872066
 30
0.0
 10
3.951542517091846
 20
6.34315762787926
 30
0.0
 10
3.942013852985429
 20
6.362048956579734
 30
0.0
 10
3.938283911176438
 20
6.368156579024736
 30
0.0
 10
3.929629154474837
 20
6.379902415134315
 30
0.0
 10
3.924672405026167
 20
6.385573237971317
 30
0.0
 10
3.913527044086091
 20
6.39616709454168
 30
0.0
 10
3.907465232727616
 20
6.400979494674012
 30
0.0
 10
3.897619517648311
 20
6.407408189140191
 30
0.0
 10
3.894211492062638
 20
6.409418842351197
 30
0.0
 10
3.88713087835976
 20
6.413155913437727
 30
0.0
 10
3.883432575367075
 20
6.414891999570298
 30
0.0
 10
3.872150063585564
 20
6.419538478526646
 30
0.0
 10
3.864375947002165
 20
6.421908448355563
 30
0.0
 10
3.848322952142111
 20
6.425160157272452
 30
0.0
 10
3.83995394201903
 20
6.426029777733747
 30
0.0
 10
3.823465878215111
 20
6.426128072139314
 30
0.0
 10
3.815274768292285
 20
6.425387517593308
 30
0.0
 10
3.80306912338945
 20
6.423075917520088
 30
0.0
 10
3.799038519831294
 20
6.422106101296592
 30
0.0
 10
3.791189779693439
 20
6.419816455164676
 30
0.0
 10
3.787350446604685
 20
6.418492825187789
 30
0.0
 10
3.77983820492092
 20
6.415500216125304
 30
0.0
 10
3.776165310873287
 20
6.413831199225218
 30
0.0
 10
3.768986993365652
 20
6.410151284503034
 30
0.0
 10
3.765485095612489
 20
6.408139140527482
 30
0.0
 10
3.755455577975001
 20
6.401742281348138
 30
0.0
 10
3.749318084504246
 20
6.396959968789415
 30
0.0
 10
3.740886003903975
 20
6.389099139602887
 30
0.0
 10
3.738196766252934
 20
6.386352485537826
 30
0.0
 10
3.73316493159504
 20
6.380740508496305
 30
0.0
 10
3.730811014856692
 20
6.377866301670211
 30
0.0
 10
3.724204606512888
 20
6.369063480079992
 30
0.0
 10
3.720398985329116
 20
6.362943591400541
 30
0.0
 10
3.713930923904083
 20
6.350369263338701
 30
0.0
 10
3.711327713301234
 20
6.344037215437927
 30
0.0
 10
3.707201817749722
 20
6.331347683909799
 30
0.0
 10
3.705676663176128
 20
6.324964683063845
 30
0.0
 10
3.70259753246475
 20
6.306011967995512
 30
0.0
 10
3.70253270289133
 20
6.293913245924978
 30
0.0
 10
3.704692835276918
 20
6.276546212067728
 30
0.0
 10
3.705803488489449
 20
6.270864768591345
 30
0.0
 10
3.708715089554095
 20
6.259871845784889
 30
0.0
 10
3.710503998106819
 20
6.25459008823346
 30
0.0
 10
3.716771940680482
 20
6.239333493680734
 30
0.0
 10
3.722132152850645
 20
6.229942734756108
 30
0.0
 10
3.731924883698729
 20
6.216912536124849
 30
0.0
 10
3.735499303799566
 20
6.212733543781124
 30
0.0
 10
3.74323427992882
 20
6.204806247194808
 30
0.0
 10
3.747391839748201
 20
6.201055052076895
 30
0.0
 10
3.751896712955631
 20
6.197515621533337
 30
0.0
  0
LINE
  5
20B
330
1F
100
AcDbEntity
  8
0
  6
CONTINUOUS
 62
     7
100
AcDbLine
 10
3.988427442
 20
6.1208839232
 30
0.0
 11
3.988427442
 21
7.2231582413
 31
0.0
  0
LINE
  5
20C
330
1F
100
AcDbEntity
  8
0
  6
CONTINUOUS
 62
     7
100
AcDbLine
 10
3.988427442
 20
6.1208839232
 30
0.0
 11
3.6767476519
 21
6.1208839232
 31
0.0
  0
LINE
  5
20D
330
1F
100
AcDbEntity
  8
0
  6
CONTINUOUS
 62
     7
100
AcDbLine
 10
3.6767476519
 20
6.9574102098
 30
0.0
 11
3.6767476519
 21
6.1208839232
 31
0.0
  0
LINE
  5
20E
330
1F
100
AcDbEntity
  8
0
  6
CONTINUOUS
 62
     7
100
AcDbLine
 10
3.6505009328
 20
6.9574102098
 30
0.0
 11
3.6767476519
 21
6.9574102098
 31
0.0
  0
LINE
  5
20F
330
1F
100
AcDbEntity
  8
0
  6
CONTINUOUS
 62
     7
100
AcDbLine
 10
3.6505009328
 20
6.1207960366
 30
0.0
 11
3.6505009328
 21
6.9574102098
 31
0.0
  0
LINE
  5
210
330
1F
100
AcDbEntity
  8
0
  6
CONTINUOUS
 62
     7
100
AcDbLine
 10
3.995927442
 20
7.2156582413
 30
0.0
 11
3.995927442
 21
6.1283851358
 31
0.0
  0
LINE
  5
211
330
1F
100
AcDbEntity
  8
0
  6
CONTINUOUS
 62
     7
100
AcDbLine
 10
3.988427442
 20
6.1208839232
 30
0.0
 11
3.995927442
 21
6.1283851358
 31
0.0
  0
CIRCLE
  5
212
330
1F
100
AcDbEntity
  8
0
  6
CONTINUOUS
 62
     7
100
AcDbCircle
 10
3.830947127
 20
6.2981284427
 30
0.0
 40
0.1181102362204731
  0
CIRCLE
  5
213
330
1F
100
AcDbEntity
  8
0
  6
CONTINUOUS
 62
     7
100
AcDbCircle
 10
3.830947127
 20
6.2981284427
 30
0.0
 40
0.127952755905512
  0
LINE
  5
214
330
1F
100
AcDbEntity
  8
0
  6
CONTINUOUS
 62
     7
100
AcDbLine
 10
3.8900022451
 20
6.2640329544
 30
0.0
 11
3.8900022451
 21
6.332223931
 31
0.0
  0
LINE
  5
215
330
1F
100
AcDbEntity
  8
0
  6
CONTINUOUS
 62
     7
100
AcDbLine
 10
3.8900022451
 20
6.332223931
 30
0.0
 11
3.830947127
 21
6.3663194194
 31
0.0
  0
LINE
  5
216
330
1F
100
AcDbEntity
  8
0
  6
CONTINUOUS
 62
     7
100
AcDbLine
 10
3.830947127
 20
6.3663194194
 30
0.0
 11
3.7718920089
 21
6.332223931
 31
0.0
  0
LINE
  5
217
330
1F
100
AcDbEntity
  8
0
  6
CONTINUOUS
 62
     7
100
AcDbLine
 10
3.7718920089
 20
6.332223931
 30
0.0
 11
3.7718920089
 21
6.2640329544
 31
0.0
  0
LINE
  5
218
330
1F
100
AcDbEntity
  8
0
  6
CONTINUOUS
 62
     7
100
AcDbLine
 10
3.7718920089
 20
6.2640329544
 30
0.0
 11
3.830947127
 21
6.229937466
 31
0.0
  0
LINE
  5
219
330
1F
100
AcDbEntity
  8
0
  6
CONTINUOUS
 62
     7
100
AcDbLine
 10
3.830947127
 20
6.229937466
 30
0.0
 11
3.8900022451
 21
6.2640329544
 31
0.0
  0
LINE
  5
21A
330
1F
100
AcDbEntity
  8
0
  6
CONTINUOUS
 62
     7
100
AcDbLine
 10
2.8223250798
 20
6.9524889499
 30
0.0
 11
2.7429576023
 21
6.9524889499
 31
0.0
  0
LINE
  5
21B
330
1F
100
AcDbEntity
  8
0
  6
CONTINUOUS
 62
     7
100
AcDbLine
 10
2.9019244054
 20
6.9524889499
 30
0.0
 11
2.8223250798
 21
6.9524889499
 31
0.0
  0
LINE
  5
21C
330
1F
100
AcDbEntity
  8
0
  6
CONTINUOUS
 62
     7
100
AcDbLine
 10
2.8223250798
 20
7.1099692649
 30
0.0
 11
2.7042148435
 21
7.1099692649
 31
0.0
  0
LINE
  5
21D
330
1F
100
AcDbEntity
  8
0
  6
CONTINUOUS
 62
     7
100
AcDbLine
 10
2.940435316
 20
7.1099692649
 30
0.0
 11
2.8223250798
 21
7.1099692649
 31
0.0
  0
LINE
  5
21E
330
1F
100
AcDbEntity
  8
0
  6
CONTINUOUS
 62
     7
100
AcDbLine
 10
2.753427442
 20
6.2979613909
 30
0.0
 11
2.8912227176
 21
6.2979613909
 31
0.0
  0
LINE
  5
21F
330
1F
100
AcDbEntity
  8
0
  6
CONTINUOUS
 62
     7
100
AcDbLine
 10
3.0388605128
 20
5.8648905247
 30
0.0
 11
3.0388605128
 21
7.4790637531
 31
0.0
  0
LINE
  5
220
330
1F
100
AcDbEntity
  8
0
  6
CONTINUOUS
 62
     7
100
AcDbLine
 10
3.0290179931
 20
7.4692212334
 30
0.0
 11
3.0290179931
 21
5.8747330444
 31
0.0
  0
LINE
  5
221
330
1F
100
AcDbEntity
  8
0
  6
CONTINUOUS
 62
     7
100
AcDbLine
 10
3.2478959459
 20
6.6719771389
 30
0.0
 11
3.2478959459
 21
7.4790637531
 31
0.0
  0
LINE
  5
222
330
1F
100
AcDbEntity
  8
0
  6
CONTINUOUS
 62
     7
100
AcDbLine
 10
3.2478959459
 20
5.8648905247
 30
0.0
 11
3.2478959459
 21
6.6719771389
 31
0.0
  0
LINE
  5
223
330
1F
100
AcDbEntity
  8
0
  6
CONTINUOUS
 62
     7
100
AcDbLine
 10
3.3561636624
 20
6.7850724656
 30
0.0
 11
3.2971085443
 21
6.7850724656
 31
0.0
  0
LINE
  5
224
330
1F
100
AcDbEntity
  8
0
  6
CONTINUOUS
 62
     7
100
AcDbLine
 10
3.3561636624
 20
6.5588818122
 30
0.0
 11
3.2971085443
 21
6.5588818122
 31
0.0
  0
LINE
  5
225
330
1F
100
AcDbEntity
  8
0
  6
CONTINUOUS
 62
     7
100
AcDbLine
 10
3.3561636624
 20
6.7850724656
 30
0.0
 11
3.3561636624
 21
6.5588818122
 31
0.0
  0
LINE
  5
226
330
1F
100
AcDbEntity
  8
0
  6
CONTINUOUS
 62
     7
100
AcDbLine
 10
3.2971085443
 20
6.7850724656
 30
0.0
 11
3.2971085443
 21
6.5588818122
 31
0.0
  0
LINE
  5
227
330
1F
100
AcDbEntity
  8
0
  6
CONTINUOUS
 62
     7
100
AcDbLine
 10
3.3561636624
 20
7.4002299459
 30
0.0
 11
3.2971085443
 21
7.4002299459
 31
0.0
  0
LINE
  5
228
330
1F
100
AcDbEntity
  8
0
  6
CONTINUOUS
 62
     7
100
AcDbLine
 10
3.3561636624
 20
7.4002299459
 30
0.0
 11
3.3561636624
 21
6.7850724656
 31
0.0
  0
LINE
  5
229
330
1F
100
AcDbEntity
  8
0
  6
CONTINUOUS
 62
     7
100
AcDbLine
 10
3.2971085443
 20
7.4002299459
 30
0.0
 11
3.2971085443
 21
6.7850724656
 31
0.0
  0
LINE
  5
22A
330
1F
100
AcDbEntity
  8
0
  6
CONTINUOUS
 62
     7
100
AcDbLine
 10
3.3561636624
 20
5.9437243319
 30
0.0
 11
3.2971085443
 21
5.9437243319
 31
0.0
  0
LINE
  5
22B
330
1F
100
AcDbEntity
  8
0
  6
CONTINUOUS
 62
     7
100
AcDbLine
 10
3.3561636624
 20
6.5588818122
 30
0.0
 11
3.3561636624
 21
5.9437243319
 31
0.0
  0
LINE
  5
22C
330
1F
100
AcDbEntity
  8
0
  6
CONTINUOUS
 62
     7
100
AcDbLine
 10
3.2971085443
 20
6.5588818122
 30
0.0
 11
3.2971085443
 21
5.9437243319
 31
0.0
  0
SPLINE
  5
22D
330
1F
100
AcDbEntity
  8
0
  6
CONTINUOUS
 62
     7
100
AcDbSpline
210
0.0
220
0.0
230
1.0
 70
     8
 71
     3
 72
    13
 73
     9
 74
     0
 42
0.00000001
 43
0.00000001
 40
0.0
 40
0.0
 40
0.0
 40
0.0
 40
0.1843134394355646
 40
0.3692581382111252
 40
0.5536783852739993
 40
0.7411204516715819
 40
0.9291853424395038
 40
1.0
 40
1.0
 40
1.0
 40
1.0
 10
2.743274665711537
 20
6.95248894994005
 30
0.0
 10
2.73788758299317
 20
6.960123430579323
 30
0.0
 10
2.727094967212873
 20
6.975418539366289
 30
0.0
 10
2.714628225333651
 20
6.999048590634728
 30
0.0
 10
2.704610357317515
 20
7.022727554061584
 30
0.0
 10
2.697802429220505
 20
7.045975805793136
 30
0.0
 10
2.694283075708743
 20
7.064181044009906
 30
0.0
 10
2.694751860672819
 20
7.07398530378895
 30
0.0
 10
2.694880093462605
 20
7.076667189257964
 30
0.0
  0
SPLINE
  5
22E
330
1F
100
AcDbEntity
  8
0
  6
CONTINUOUS
 62
     7
100
AcDbSpline
210
0.0
220
0.0
230
1.0
 70
     8
 71
     3
 72
    24
 73
    20
 74
     0
 42
0.00000001
 43
0.00000001
 40
0.0
 40
0.0
 40
0.0
 40
0.0
 40
0.0712225728905106
 40
0.1389554907010104
 40
0.2066353893767403
 40
0.2747648918150626
 40
0.3428524811517149
 40
0.4029798213840218
 40
0.4630964165599156
 40
0.5192962028712991
 40
0.5754976179379643
 40
0.63090000208833
 40
0.6863130837328878
 40
0.7429802949355416
 40
0.7996691062888049
 40
0.8601726410510465
 40
0.9207101385276164
 40
0.9890417673802212
 40
1.0
 40
1.0
 40
1.0
 40
1.0
 10
2.700484768680751
 20
7.109211840895282
 30
0.0
 10
2.702711042145969
 20
7.114020338987864
 30
0.0
 10
2.707054509522099
 20
7.123401735711857
 30
0.0
 10
2.718112289152986
 20
7.135295449191434
 30
0.0
 10
2.731958820292079
 20
7.145472754054196
 30
0.0
 10
2.749218117147706
 20
7.153647170880862
 30
0.0
 10
2.768482246828187
 20
7.159575634917191
 30
0.0
 10
2.788904289143732
 20
7.163326476335236
 30
0.0
 10
2.809091722047614
 20
7.165201373191543
 30
0.0
 10
2.829232298523134
 20
7.165417827320331
 30
0.0
 10
2.848626038609669
 20
7.164160219154241
 30
0.0
 10
2.867156761646298
 20
7.161411406746821
 30
0.0
 10
2.884516241236313
 20
7.157224347176125
 30
0.0
 10
2.900279148018853
 20
7.151522825642513
 30
0.0
 10
2.914438356336925
 20
7.144220097542761
 30
0.0
 10
2.926491964310702
 20
7.13530840719676
 30
0.0
 10
2.936376554559371
 20
7.12432812096694
 30
0.0
 10
2.942230002788945
 20
7.115495602827084
 30
0.0
 10
2.94399431789841
 20
7.109866717866185
 30
0.0
 10
2.944238154563338
 20
7.109088779430601
 30
0.0
  0
SPLINE
  5
22F
330
1F
100
AcDbEntity
  8
0
  6
CONTINUOUS
 62
     7
100
AcDbSpline
210
0.0
220
0.0
230
1.0
 70
     8
 71
     3
 72
    13
 73
     9
 74
     0
 42
0.00000001
 43
0.00000001
 40
0.0
 40
0.0
 40
0.0
 40
0.0
 40
0.0335056702724166
 40
0.2471068186316384
 40
0.43212633854885
 40
0.617782995069803
 40
0.8029134492476412
 40
1.0
 40
1.0
 40
1.0
 40
1.0
 10
2.949890808944589
 20
7.076736462390296
 30
0.0
 10
2.950011980649071
 20
7.075488255120421
 30
0.0
 10
2.950905631012105
 20
7.066282633357182
 30
0.0
 10
2.947384120310754
 20
7.04860110724109
 30
0.0
 10
2.940696685875569
 20
7.024365194198301
 30
0.0
 10
2.930812736056078
 20
7.000770674281728
 30
0.0
 10
2.918192927554679
 20
6.976554535119129
 30
0.0
 10
2.907097001952079
 20
6.960676372800234
 30
0.0
 10
2.901375493813473
 20
6.95248894994005
 30
0.0
  0
SPLINE
  5
230
330
1F
100
AcDbEntity
  8
0
  6
CONTINUOUS
 62
     7
100
AcDbSpline
210
0.0
220
0.0
230
1.0
 70
     8
 71
     3
 72
    73
 73
    69
 74
     0
 42
0.00000001
 43
0.00000001
 40
-0.0312499999999998
 40
-0.0312499999999998
 40
0.0
 40
0.0
 40
0.0156249999999999
 40
0.0156249999999999
 40
0.0312499999999998
 40
0.0312499999999998
 40
0.0625000000000001
 40
0.0625000000000001
 40
0.0937500000000003
 40
0.0937500000000003
 40
0.1250000000000006
 40
0.1250000000000006
 40
0.1875000000000013
 40
0.1875000000000013
 40
0.2187500000000017
 40
0.2187500000000017
 40
0.2500000000000021
 40
0.2500000000000021
 40
0.2812500000000025
 40
0.2812500000000025
 40
0.3125000000000029
 40
0.3125000000000029
 40
0.3437500000000033
 40
0.3437500000000033
 40
0.3750000000000037
 40
0.3750000000000037
 40
0.4062500000000041
 40
0.4062500000000041
 40
0.4375000000000045
 40
0.4375000000000045
 40
0.4687500000000049
 40
0.4687500000000049
 40
0.4843750000000049
 40
0.4843750000000049
 40
0.5000000000000049
 40
0.5156250000000049
 40
0.5156250000000049
 40
0.531250000000005
 40
0.531250000000005
 40
0.546875000000005
 40
0.546875000000005
 40
0.562500000000005
 40
0.562500000000005
 40
0.5937500000000046
 40
0.5937500000000046
 40
0.625000000000004
 40
0.625000000000004
 40
0.6562500000000036
 40
0.6562500000000036
 40
0.687500000000003
 40
0.687500000000003
 40
0.7187500000000026
 40
0.7187500000000026
 40
0.750000000000002
 40
0.750000000000002
 40
0.8125000000000017
 40
0.8125000000000017
 40
0.8437500000000013
 40
0.8437500000000013
 40
0.8750000000000011
 40
0.8750000000000011
 40
0.9062500000000008
 40
0.9062500000000008
 40
0.9375000000000006
 40
0.9375000000000006
 40
0.9687500000000002
 40
0.9687500000000002
 40
1.0
 40
1.0
 40
1.015625
 40
1.015625
 10
2.828622574474933
 20
6.357391797384902
 30
0.0
 10
2.819176332406291
 20
6.357391797384903
 30
0.0
 10
2.816086165017038
 20
6.357120862520235
 30
0.0
 10
2.810012365087836
 20
6.356088091075377
 30
0.0
 10
2.807000600284573
 20
6.355315536913513
 30
0.0
 10
2.798342693965483
 20
6.352396787313813
 30
0.0
 10
2.793076738738561
 20
6.349687656933744
 30
0.0
 10
2.783376810592794
 20
6.343318640931089
 30
0.0
 10
2.779082331332265
 20
6.339756201269751
 30
0.0
 10
2.771265403738898
 20
6.332156619357031
 30
0.0
 10
2.767729968122706
 20
6.328083985385454
 30
0.0
 10
2.758345331097213
 20
6.315661950776323
 30
0.0
 10
2.75358662369035
 20
6.307059390543694
 30
0.0
 10
2.748329338274183
 20
6.293910929797906
 30
0.0
 10
2.746922722656188
 20
6.289528450785934
 30
0.0
 10
2.744823282343432
 20
6.280880383228999
 30
0.0
 10
2.744123689727403
 20
6.27659791180924
 30
0.0
 10
2.743468575595916
 20
6.268118583564327
 30
0.0
 10
2.743516738851342
 20
6.26389275135667
 30
0.0
 10
2.74445339568887
 20
6.255676353788968
 30
0.0
 10
2.745333416204718
 20
6.251701321363911
 30
0.0
 10
2.74800401949245
 20
6.244015619270873
 30
0.0
 10
2.749807757304371
 20
6.240282670333884
 30
0.0
 10
2.754446014865964
 20
6.233189874550344
 30
0.0
 10
2.757239703051928
 20
6.229880945671431
 30
0.0
 10
2.76389550777678
 20
6.223737468694117
 30
0.0
 10
2.76781221660928
 20
6.220877880080456
 30
0.0
 10
2.776552705675025
 20
6.215894168778566
 30
0.0
 10
2.781406816716126
 20
6.213734570957173
 30
0.0
 10
2.792108498827037
 20
6.210158745081141
 30
0.0
 10
2.797750188227508
 20
6.208806668014083
 30
0.0
 10
2.806664915833222
 20
6.207415666434512
 30
0.0
 10
2.809738146666179
 20
6.207057796359842
 30
0.0
 10
2.815917535453602
 20
6.206580536058671
 30
0.0
 10
2.822097454823265
 20
6.206339696795625
 30
0.0
 10
2.828278410401639
 20
6.206557910642796
 30
0.0
 10
2.834459895899629
 20
6.207012124256817
 30
0.0
 10
2.837541717851331
 20
6.207358842032098
 30
0.0
 10
2.843515011681261
 20
6.208267776725676
 30
0.0
 10
2.846431065958575
 20
6.20883144363189
 30
0.0
 10
2.852125964503461
 20
6.210176704547728
 30
0.0
 10
2.854922857555056
 20
6.210964823525084
 30
0.0
 10
2.862948419051154
 20
6.213616794928365
 30
0.0
 10
2.867814249187751
 20
6.21575438525684
 30
0.0
 10
2.876671189657679
 20
6.220762180316866
 30
0.0
 10
2.880556391393228
 20
6.223579853688614
 30
0.0
 10
2.887273785387335
 20
6.22973064815262
 30
0.0
 10
2.890133468674396
 20
6.233103135119228
 30
0.0
 10
2.894761436017559
 20
6.240138208796195
 30
0.0
 10
2.896564712749796
 20
6.243826464300226
 30
0.0
 10
2.89927642311535
 20
6.251542093944396
 30
0.0
 10
2.900179063998211
 20
6.255587742353982
 30
0.0
 10
2.901126338921273
 20
6.263765711627897
 30
0.0
 10
2.901184626990852
 20
6.26792759692515
 30
0.0
 10
2.90023744391527
 20
6.28063177602335
 30
0.0
 10
2.898082794517116
 20
6.289470343564441
 30
0.0
 10
2.892888343445078
 20
6.302512123356936
 30
0.0
 10
2.890825843198985
 20
6.3068452658801
 30
0.0
 10
2.885993672059475
 20
6.315458522706598
 30
0.0
 10
2.883205998651736
 20
6.319760004450661
 30
0.0
 10
2.876948405465624
 20
6.328050337583517
 30
0.0
 10
2.873473166064315
 20
6.332061603168071
 30
0.0
 10
2.865644872776842
 20
6.339690173482367
 30
0.0
 10
2.861269499362315
 20
6.343316788773175
 30
0.0
 10
2.851661034200037
 20
6.349634471366171
 30
0.0
 10
2.846299901480323
 20
6.352395755920956
 30
0.0
 10
2.834836656744953
 20
6.356267382361463
 30
0.0
 10
2.828622574474933
 20
6.357391797384902
 30
0.0
 10
2.819176332406291
 20
6.357391797384903
 30
0.0
  0
LINE
  5
231
330
1F
100
AcDbEntity
  8
0
  6
CONTINUOUS
 62
     7
100
AcDbLine
 10
3.002771274
 20
7.1434944447
 30
0.0
 11
2.9765245548
 21
7.1434944447
 31
0.0
  0
LINE
  5
232
330
1F
100
AcDbEntity
  8
0
  6
CONTINUOUS
 62
     7
100
AcDbLine
 10
2.9765245548
 20
7.2231582413
 30
0.0
 11
2.9765245548
 21
6.6818196586
 31
0.0
  0
LINE
  5
233
330
1F
100
AcDbEntity
  8
0
  6
CONTINUOUS
 62
     7
100
AcDbLine
 10
2.6648447648
 20
6.6818196586
 30
0.0
 11
2.9765245548
 21
6.6818196586
 31
0.0
  0
LINE
  5
234
330
1F
100
AcDbEntity
  8
0
  6
CONTINUOUS
 62
     7
100
AcDbLine
 10
2.6648447648
 20
6.6818196586
 30
0.0
 11
2.6648447648
 21
7.2231582413
 31
0.0
  0
LINE
  5
235
330
1F
100
AcDbEntity
  8
0
  6
CONTINUOUS
 62
     7
100
AcDbLine
 10
2.6648447648
 20
6.1207960366
 30
0.0
 11
2.6648447648
 21
6.6621346192
 31
0.0
  0
LINE
  5
236
330
1F
100
AcDbEntity
  8
0
  6
CONTINUOUS
 62
     7
100
AcDbLine
 10
2.6648447648
 20
6.6621346192
 30
0.0
 11
2.9765245548
 21
6.6621346192
 31
0.0
  0
LINE
  5
237
330
1F
100
AcDbEntity
  8
0
  6
CONTINUOUS
 62
     7
100
AcDbLine
 10
2.9765245548
 20
6.6621346192
 30
0.0
 11
2.9765245548
 21
6.1207960366
 31
0.0
  0
LINE
  5
238
330
1F
100
AcDbEntity
  8
0
  6
CONTINUOUS
 62
     7
100
AcDbLine
 10
2.9765245548
 20
6.2004598331
 30
0.0
 11
3.002771274
 21
6.2004598331
 31
0.0
  0
LINE
  5
239
330
1F
100
AcDbEntity
  8
0
  6
CONTINUOUS
 62
     7
100
AcDbLine
 10
3.002771274
 20
6.1207960366
 30
0.0
 11
3.002771274
 21
7.2231582413
 31
0.0
  0
LINE
  5
23A
330
1F
100
AcDbEntity
  8
0
  6
CONTINUOUS
 62
     7
100
AcDbLine
 10
2.6648447648
 20
6.6818196586
 30
0.0
 11
2.6573447648
 21
6.6818196586
 31
0.0
  0
LINE
  5
23B
330
1F
100
AcDbEntity
  8
0
  6
CONTINUOUS
 62
     7
100
AcDbLine
 10
2.6573447648
 20
6.6621346192
 30
0.0
 11
2.6573447648
 21
6.1282960366
 31
0.0
  0
LINE
  5
23C
330
1F
100
AcDbEntity
  8
0
  6
CONTINUOUS
 62
     7
100
AcDbLine
 10
2.6573447648
 20
7.2156582413
 30
0.0
 11
2.6573447648
 21
6.6818196586
 31
0.0
  0
LINE
  5
23D
330
1F
100
AcDbEntity
  8
0
  6
CONTINUOUS
 62
     7
100
AcDbLine
 10
2.6648447648
 20
6.6621346192
 30
0.0
 11
2.6573447648
 21
6.6621346192
 31
0.0
  0
LINE
  5
23E
330
1F
100
AcDbEntity
  8
0
  6
CONTINUOUS
 62
     7
100
AcDbLine
 10
3.3561636624
 20
7.4470755641
 30
0.0
 11
3.3561636624
 21
7.4002299459
 31
0.0
  0
LINE
  5
23F
330
1F
100
AcDbEntity
  8
0
  6
CONTINUOUS
 62
     7
100
AcDbLine
 10
3.2971085443
 20
7.4470755641
 30
0.0
 11
3.2971085443
 21
7.4002299459
 31
0.0
  0
LINE
  5
240
330
1F
100
AcDbEntity
  8
0
  6
CONTINUOUS
 62
     7
100
AcDbLine
 10
3.3561636624
 20
5.9437243319
 30
0.0
 11
3.3561636624
 21
5.8968787137
 31
0.0
  0
LINE
  5
241
330
1F
100
AcDbEntity
  8
0
  6
CONTINUOUS
 62
     7
100
AcDbLine
 10
3.2971085443
 20
5.9437243319
 30
0.0
 11
3.2971085443
 21
5.8968787137
 31
0.0
  0
LINE
  5
242
330
1F
100
AcDbEntity
  8
0
  6
CONTINUOUS
 62
     7
100
AcDbLine
 10
2.6573447648
 20
6.6818196586
 30
0.0
 11
2.6573447648
 21
6.6621346192
 31
0.0
  0
LINE
  5
243
330
1F
100
AcDbEntity
  8
0
  6
CONTINUOUS
 62
     7
100
AcDbLine
 10
2.9765245548
 20
6.6621346192
 30
0.0
 11
2.9765245548
 21
6.6818196586
 31
0.0
  0
LINE
  5
244
330
1F
100
AcDbEntity
  8
0
  6
CONTINUOUS
 62
     8
100
AcDbLine
 10
2.8223250798
 20
7.1001267452
 30
0.0
 11
2.9502778357
 21
7.1001267452
 31
0.0
  0
LINE
  5
245
330
1F
100
AcDbEntity
  8
0
  6
CONTINUOUS
 62
     8
100
AcDbLine
 10
2.6943723239
 20
7.1001267452
 30
0.0
 11
2.8223250798
 21
7.1001267452
 31
0.0
  0
LINE
  5
246
330
1F
100
AcDbEntity
  8
0
  6
CONTINUOUS
 62
     8
100
AcDbLine
 10
2.8899247955
 20
6.3078039106
 30
0.0
 11
2.7543257763
 21
6.3078039106
 31
0.0
  0
LINE
  5
247
330
1F
100
AcDbEntity
  8
0
  6
HIDDEN
 62
     7
100
AcDbLine
 10
3.751896713
 20
6.1975156215
 30
0.0
 11
3.9099975411
 21
6.1975156215
 31
0.0
  0
CIRCLE
  5
248
330
1F
100
AcDbEntity
  8
0
  6
HIDDEN
 62
     7
100
AcDbCircle
 10
3.830947127
 20
6.2981284427
 30
0.0
 40
0.0787401574803157
  0
ARC
  5
249
330
1F
100
AcDbEntity
  8
0
  6
HIDDEN
 62
     7
100
AcDbCircle
 10
3.995927442
 20
6.8688275326
 30
0.0
 40
0.3191797900262467
100
AcDbArc
 50
90.0
 51
180.0
  0
LINE
  5
24A
330
1F
100
AcDbEntity
  8
0
  6
HIDDEN
 62
     7
100
AcDbLine
 10
3.988427442
 20
6.8685813156
 30
0.0
 11
3.6767476519
 21
6.8685813156
 31
0.0
  0
LINE
  5
24B
330
1F
100
AcDbEntity
  8
0
  6
HIDDEN
 62
     7
100
AcDbLine
 10
3.988427442
 20
6.8685813156
 30
0.0
 11
3.995927442
 21
6.8760903629
 31
0.0
  0
LINE
  5
24C
330
1F
100
AcDbEntity
  8
0
  6
HIDDEN
 62
     7
100
AcDbLine
 10
3.6767476519
 20
6.4753729622
 30
0.0
 11
3.988427442
 21
6.4753729622
 31
0.0
  0
LINE
  5
24D
330
1F
100
AcDbEntity
  8
0
  6
HIDDEN
 62
     7
100
AcDbLine
 10
3.995927442
 20
6.4678639149
 30
0.0
 11
3.988427442
 21
6.4753729622
 31
0.0
  0
CIRCLE
  5
24E
330
1F
100
AcDbEntity
  8
0
  6
HIDDEN
 62
     7
100
AcDbCircle
 10
3.830947127
 20
6.2981284427
 30
0.0
 40
0.068897637795275
  0
LINE
  5
24F
330
1F
100
AcDbEntity
  8
0
  6
HIDDEN
 62
     7
100
AcDbLine
 10
2.7429576023
 20
6.9524889499
 30
0.0
 11
2.6943723239
 21
6.9524889499
 31
0.0
  0
LINE
  5
250
330
1F
100
AcDbEntity
  8
0
  6
HIDDEN
 62
     7
100
AcDbLine
 10
2.9502778357
 20
6.9524889499
 30
0.0
 11
2.9019244054
 21
6.9524889499
 31
0.0
  0
LINE
  5
251
330
1F
100
AcDbEntity
  8
0
  6
HIDDEN
 62
     7
100
AcDbLine
 10
2.8223250798
 20
7.0312291074
 30
0.0
 11
2.8223250798
 21
7.1099692649
 31
0.0
  0
LINE
  5
252
330
1F
100
AcDbEntity
  8
0
  6
HIDDEN
 62
     7
100
AcDbLine
 10
2.8223250798
 20
7.0312291074
 30
0.0
 11
2.7632699617
 21
7.0312291074
 31
0.0
  0
LINE
  5
253
330
1F
100
AcDbEntity
  8
0
  6
HIDDEN
 62
     7
100
AcDbLine
 10
2.8813801979
 20
7.0312291074
 30
0.0
 11
2.8223250798
 21
7.0312291074
 31
0.0
  0
LINE
  5
254
330
1F
100
AcDbEntity
  8
0
  6
HIDDEN
 62
     7
100
AcDbLine
 10
2.8813801979
 20
7.0312291074
 30
0.0
 11
2.8813801979
 21
7.1099692649
 31
0.0
  0
LINE
  5
255
330
1F
100
AcDbEntity
  8
0
  6
HIDDEN
 62
     7
100
AcDbLine
 10
2.7632699617
 20
7.0312291074
 30
0.0
 11
2.7632699617
 21
7.1099692649
 31
0.0
  0
SPLINE
  5
256
330
1F
100
AcDbEntity
  8
0
  6
HIDDEN
 62
     7
100
AcDbSpline
210
0.0
220
0.0
230
1.0
 70
     8
 71
     3
 72
    10
 73
     6
 74
     0
 42
0.00000001
 43
0.00000001
 40
0.0
 40
0.0
 40
0.0
 40
0.0
 40
0.388040228580478
 40
0.9385479405403363
 40
1.0
 40
1.0
 40
1.0
 40
1.0
 10
2.694880093462605
 20
7.076667189257964
 30
0.0
 10
2.69487388496096
 20
7.081134303738866
 30
0.0
 10
2.694858868537397
 20
7.091938856430594
 30
0.0
 10
2.696972401406629
 20
7.102778953913586
 30
0.0
 10
2.700164248320585
 20
7.108624809104083
 30
0.0
 10
2.700484768680751
 20
7.109211840895282
 30
0.0
  0
SPLINE
  5
257
330
1F
100
AcDbEntity
  8
0
  6
HIDDEN
 62
     7
100
AcDbSpline
210
0.0
220
0.0
230
1.0
 70
     8
 71
     3
 72
     9
 73
     5
 74
     0
 42
0.00000001
 43
0.00000001
 40
0.0
 40
0.0
 40
0.0
 40
0.0
 40
0.3960118203723673
 40
1.0
 40
1.0
 40
1.0
 40
1.0
 10
2.944238154563338
 20
7.109088779430601
 30
0.0
 10
2.94575895457631
 20
7.105103657063039
 30
0.0
 10
2.949599244019037
 20
7.095040517119855
 30
0.0
 10
2.949781019002953
 20
7.083628927581952
 30
0.0
 10
2.949890808944589
 20
7.076736462390296
 30
0.0
  0
LINE
  5
258
330
1F
100
AcDbEntity
  8
0
  6
HIDDEN
 62
     7
100
AcDbLine
 10
2.6648447648
 20
6.6818196586
 30
0.0
 11
2.6648447648
 21
6.6621346192
 31
0.0
  0
LINE
  5
259
330
1F
100
AcDbEntity
  8
0
  6
HIDDEN
 62
     7
100
AcDbLine
 10
2.7432746657
 20
6.9524889499
 30
0.0
 11
2.6943723239
 21
6.9524889499
 31
0.0
  0
LINE
  5
25A
330
1F
100
AcDbEntity
  8
0
  6
HIDDEN
 62
     7
100
AcDbLine
 10
2.9502778357
 20
6.9524889499
 30
0.0
 11
2.9013754938
 21
6.9524889499
 31
0.0
  0
LINE
  5
25B
330
1F
100
AcDbEntity
  8
0
  6
HIDDEN
 62
     7
100
AcDbLine
 10
3.3561636624
 20
7.4002299459
 30
0.0
 11
3.2971085443
 21
7.4002299459
 31
0.0
  0
LINE
  5
25C
330
1F
100
AcDbEntity
  8
0
  6
HIDDEN
 62
     7
100
AcDbLine
 10
3.3561636624
 20
5.9437243319
 30
0.0
 11
3.2971085443
 21
5.9437243319
 31
0.0
  0
LINE
  5
25D
330
1F
100
AcDbEntity
  8
0
  6
HIDDEN
 62
     7
100
AcDbLine
 10
3.3561636624
 20
6.5588818122
 30
0.0
 11
3.2971085443
 21
6.5588818122
 31
0.0
  0
LINE
  5
25E
330
1F
100
AcDbEntity
  8
0
  6
HIDDEN
 62
     7
100
AcDbLine
 10
3.3561636624
 20
6.7850724656
 30
0.0
 11
3.2971085443
 21
6.7850724656
 31
0.0
  0
LINE
  5
25F
330
1F
100
AcDbEntity
  8
0
  6
HIDDEN
 62
     7
100
AcDbLine
 10
3.6505009328
 20
6.8688275326
 30
0.0
 11
3.4053762609
 21
6.8688275326
 31
0.0
  0
LINE
  5
260
330
1F
100
AcDbEntity
  8
0
  6
HIDDEN
 62
     7
100
AcDbLine
 10
3.4053762609
 20
6.4751267452
 30
0.0
 11
3.6505009328
 21
6.4751267452
 31
0.0
  0
LINE
  5
261
330
1F
100
AcDbEntity
  8
0
  6
HIDDEN
 62
     7
100
AcDbLine
 10
2.9502778357
 20
6.9524889499
 30
0.0
 11
2.9502778357
 21
7.074865375
 31
0.0
  0
LINE
  5
262
330
1F
100
AcDbEntity
  8
0
  6
HIDDEN
 62
     7
100
AcDbLine
 10
2.6943723239
 20
7.0726210753
 30
0.0
 11
2.6943723239
 21
6.9524889499
 31
0.0
  0
LINE
  5
263
330
1F
100
AcDbEntity
  8
0
  6
HIDDEN
 62
     7
100
AcDbLine
 10
2.7435849223
 20
6.9524889499
 30
0.0
 11
2.7435849223
 21
6.6818196586
 31
0.0
  0
LINE
  5
264
330
1F
100
AcDbEntity
  8
0
  6
HIDDEN
 62
     7
100
AcDbLine
 10
2.7435849223
 20
6.6621346192
 30
0.0
 11
2.7435849223
 21
6.3078039106
 31
0.0
  0
LINE
  5
265
330
1F
100
AcDbEntity
  8
0
  6
HIDDEN
 62
     7
100
AcDbLine
 10
2.9010652372
 20
6.3078039106
 30
0.0
 11
2.9010652372
 21
6.6621346192
 31
0.0
  0
LINE
  5
266
330
1F
100
AcDbEntity
  8
0
  6
HIDDEN
 62
     7
100
AcDbLine
 10
2.9010652372
 20
6.6818196586
 30
0.0
 11
2.9010652372
 21
6.9524889499
 31
0.0
  0
ARC
  5
267
330
1F
100
AcDbEntity
  8
0
  6
HIDDEN
 62
     7
100
AcDbCircle
 10
2.8912227176
 20
6.3078039106
 30
0.0
 40
0.0098425196850394
100
AcDbArc
 50
288.0984436342
 51
0.0
  0
ARC
  5
268
330
1F
100
AcDbEntity
  8
0
  6
HIDDEN
 62
     7
100
AcDbCircle
 10
2.753427442
 20
6.3078039106
 30
0.0
 40
0.0098425196850394
100
AcDbArc
 50
180.0
 51
251.5932062223
  0
LINE
  5
269
330
1F
100
AcDbEntity
  8
0
  6
HIDDEN
 62
     7
100
AcDbLine
 10
2.9502778357
 20
6.9524889499
 30
0.0
 11
2.9502778357
 21
7.0767364624
 31
0.0
  0
LINE
  5
26A
330
1F
100
AcDbEntity
  8
0
  6
HIDDEN
 62
     7
100
AcDbLine
 10
2.6943723239
 20
7.0766671893
 30
0.0
 11
2.6943723239
 21
6.9524889499
 31
0.0
  0
LINE
  5
26B
330
1F
100
AcDbEntity
  8
0
  6
HIDDEN
 62
     7
100
AcDbLine
 10
2.7435849223
 20
6.6621346192
 30
0.0
 11
2.7435849223
 21
6.2670796378
 31
0.0
  0
LINE
  5
26C
330
1F
100
AcDbEntity
  8
0
  6
HIDDEN
 62
     7
100
AcDbLine
 10
2.9010652372
 20
6.2670303396
 30
0.0
 11
2.9010652372
 21
6.6621346192
 31
0.0
  0
LINE
  5
26D
330
1F
100
AcDbEntity
  8
0
  6
HIDDEN
 62
     7
100
AcDbLine
 10
2.7435849223
 20
6.9524889499
 30
0.0
 11
2.7435849223
 21
6.6818196586
 31
0.0
  0
LINE
  5
26E
330
1F
100
AcDbEntity
  8
0
  6
HIDDEN
 62
     7
100
AcDbLine
 10
2.9010652372
 20
6.6818196586
 30
0.0
 11
2.9010652372
 21
6.9524889499
 31
0.0
  0
LINE
  5
26F
330
1F
100
AcDbEntity
  8
0
  6
HIDDEN
 62
     7
100
AcDbLine
 10
3.3561636624
 20
6.9081976114
 30
0.0
 11
3.2971085443
 21
6.9081976114
 31
0.0
  0
LINE
  5
270
330
1F
100
AcDbEntity
  8
0
  6
HIDDEN
 62
     7
100
AcDbLine
 10
3.2971085443
 20
6.4357566665
 30
0.0
 11
3.3561636624
 21
6.4357566665
 31
0.0
  0
LINE
  5
271
330
1F
100
AcDbEntity
  8
0
  6
HIDDEN
 62
     7
100
AcDbLine
 10
2.6648447648
 20
6.8688275326
 30
0.0
 11
2.6573447648
 21
6.8763275326
 31
0.0
  0
LINE
  5
272
330
1F
100
AcDbEntity
  8
0
  6
HIDDEN
 62
     7
100
AcDbLine
 10
2.6573447648
 20
6.4676267452
 30
0.0
 11
2.6648447648
 21
6.4751267452
 31
0.0
  0
LINE
  5
273
330
1F
100
AcDbEntity
  8
0
  6
HIDDEN
 62
     7
100
AcDbLine
 10
3.002771274
 20
6.4751267452
 30
0.0
 11
3.2478959459
 21
6.4751267452
 31
0.0
  0
LINE
  5
274
330
1F
100
AcDbEntity
  8
0
  6
HIDDEN
 62
     7
100
AcDbLine
 10
3.2478959459
 20
6.8688275326
 30
0.0
 11
3.002771274
 21
6.8688275326
 31
0.0
  0
LINE
  5
275
330
1F
100
AcDbEntity
  8
0
  6
HIDDEN
 62
     7
100
AcDbLine
 10
2.9765245548
 20
6.8688275326
 30
0.0
 11
2.6648447648
 21
6.8688275326
 31
0.0
  0
LINE
  5
276
330
1F
100
AcDbEntity
  8
0
  6
HIDDEN
 62
     7
100
AcDbLine
 10
2.6648447648
 20
6.4751267452
 30
0.0
 11
2.9765245548
 21
6.4751267452
 31
0.0
  0
LINE
  5
277
330
1F
100
AcDbEntity
  8
0
  6
HIDDEN
 62
     7
100
AcDbLine
 10
2.9502778357
 20
7.1001267452
 30
0.0
 11
2.6943723239
 21
7.1001267452
 31
0.0
  0
LINE
  5
278
330
1F
100
AcDbEntity
  8
0
  6
HIDDEN
 62
     7
100
AcDbLine
 10
2.8223250798
 20
6.3078039106
 30
0.0
 11
2.9010074562
 21
6.3078039106
 31
0.0
  0
LINE
  5
279
330
1F
100
AcDbEntity
  8
0
  6
HIDDEN
 62
     7
100
AcDbLine
 10
2.8223250798
 20
6.3078039106
 30
0.0
 11
2.7436427033
 21
6.3078039106
 31
0.0
  0
LINE
  5
27A
330
1F
100
AcDbEntity
  8
0
  6
CONTINUOUS
 62
     7
100
AcDbLine
 10
8.3771212148
 20
6.0760102115
 30
0.0
 11
8.384079796
 21
6.0800286209
 31
0.0
  0
LINE
  5
27B
330
1F
100
AcDbEntity
  8
0
  6
CONTINUOUS
 62
     7
100
AcDbLine
 10
8.9477248784
 20
7.0563963325
 30
0.0
 11
8.9477248784
 21
7.0644318455
 31
0.0
  0
LINE
  5
27C
330
1F
100
AcDbEntity
  8
0
  6
CONTINUOUS
 62
     7
100
AcDbLine
 10
7.8257075761
 20
6.1213284836
 30
0.0
 11
7.9735179484
 21
6.035999372
 31
0.0
  0
LINE
  5
27D
330
1F
100
AcDbEntity
  8
0
  6
CONTINUOUS
 62
     7
100
AcDbLine
 10
8.7805389727
 20
7.4339522601
 30
0.0
 11
8.6327286005
 21
7.5192813717
 31
0.0
  0
LINE
  5
27E
330
1F
100
AcDbEntity
  8
0
  6
CONTINUOUS
 62
     7
100
AcDbLine
 10
8.6415608766
 20
6.1322757798
 30
0.0
 11
8.6468633155
 21
6.1353378078
 31
0.0
  0
LINE
  5
27F
330
1F
100
AcDbEntity
  8
0
  6
CONTINUOUS
 62
     7
100
AcDbLine
 10
9.0312414274
 20
6.8011723714
 30
0.0
 11
9.0312414274
 21
6.8072954323
 31
0.0
  0
LINE
  5
280
330
1F
100
AcDbEntity
  8
0
  6
CONTINUOUS
 62
     7
100
AcDbLine
 10
8.3089518233
 20
6.137843746
 30
0.0
 11
8.3659293776
 21
6.1049513041
 31
0.0
  0
LINE
  5
281
330
1F
100
AcDbEntity
  8
0
  6
CONTINUOUS
 62
     7
100
AcDbLine
 10
8.1455384845
 20
6.2321802585
 30
0.0
 11
8.1870510279
 21
6.2082155773
 31
0.0
  0
LINE
  5
282
330
1F
100
AcDbEntity
  8
0
  6
CONTINUOUS
 62
     7
100
AcDbLine
 10
8.1084200183
 20
6.253608293
 30
0.0
 11
8.1269792514
 21
6.2428942757
 31
0.0
  0
LINE
  5
283
330
1F
100
AcDbEntity
  8
0
  6
CONTINUOUS
 62
     7
100
AcDbLine
 10
8.9170656869
 20
7.0596508374
 30
0.0
 11
8.6595563276
 21
7.2083078263
 31
0.0
  0
SPLINE
  5
284
330
1F
100
AcDbEntity
  8
0
  6
CONTINUOUS
 62
     7
100
AcDbSpline
210
0.0
220
0.0
230
1.0
 70
     8
 71
     3
 72
    34
 73
    30
 74
     0
 42
0.00000001
 43
0.00000001
 40
0.0
 40
0.0
 40
0.0
 40
0.0
 40
0.01789872679833
 40
0.0542542545588649
 40
0.0912069499648283
 40
0.1288369391599832
 40
0.1670326615240138
 40
0.2055871587443099
 40
0.2443034075328096
 40
0.2830310238186944
 40
0.3217069329909004
 40
0.3603176051277112
 40
0.3988697502367202
 40
0.4373798462812217
 40
0.475868736104354
 40
0.5143591673701493
 40
0.5528694401092231
 40
0.5914212106953433
 40
0.6300385978935716
 40
0.6687442770202592
 40
0.7075560339642017
 40
0.7464793095973167
 40
0.7854928622600471
 40
0.8244953103837183
 40
0.8633005087909927
 40
0.9016562847488426
 40
0.9393228876779326
 40
0.9762193864842781
 40
1.0
 40
1.0
 40
1.0
 40
1.0
 10
8.391493921509547
 20
6.857700296178079
 30
0.0
 10
8.391108495589853
 20
6.859149359716327
 30
0.0
 10
8.389940200425828
 20
6.863541731473376
 30
0.0
 10
8.386301162895155
 20
6.870564086593485
 30
0.0
 10
8.380734247993146
 20
6.878679736623795
 30
0.0
 10
8.373602050717492
 20
6.886341785042865
 30
0.0
 10
8.365077802055719
 20
6.89347316662315
 30
0.0
 10
8.355238694005315
 20
6.899964527682425
 30
0.0
 10
8.344236770630511
 20
6.905722373266161
 30
0.0
 10
8.332233227306446
 20
6.910670464596596
 30
0.0
 10
8.319398384716825
 20
6.914752378761078
 30
0.0
 10
8.305901167863798
 20
6.917926987285868
 30
0.0
 10
8.29191211279531
 20
6.920164181451993
 30
0.0
 10
8.277604445437422
 20
6.921443181730467
 30
0.0
 10
8.26315355206989
 20
6.921752266286606
 30
0.0
 10
8.248736336636501
 20
6.921088781799547
 30
0.0
 10
8.234529096564218
 20
6.919459249272719
 30
0.0
 10
8.220705180687744
 20
6.916879048491955
 30
0.0
 10
8.207432557183939
 20
6.913371488523294
 30
0.0
 10
8.194872934056287
 20
6.908966770414215
 30
0.0
 10
8.183181741028278
 20
6.903701098183102
 30
0.0
 10
8.172508848116346
 20
6.897616409625767
 30
0.0
 10
8.163004147287987
 20
6.890763807594121
 30
0.0
 10
8.154816149228632
 20
6.883210520701387
 30
0.0
 10
8.148098199683082
 20
6.875050328478567
 30
0.0
 10
8.142954619419722
 20
6.866411104477189
 30
0.0
 10
8.139563401824555
 20
6.85745536957385
 30
0.0
 10
8.13785260051751
 20
6.84938546296099
 30
0.0
 10
8.137986641922277
 20
6.844360723955545
 30
0.0
 10
8.138039175517234
 20
6.842391424960701
 30
0.0
  0
LINE
  5
285
330
1F
100
AcDbEntity
  8
0
  6
CONTINUOUS
 62
     7
100
AcDbLine
 10
8.1378384295
 20
6.8435802471
 30
0.0
 11
8.1378384295
 21
6.7230279619
 31
0.0
  0
LINE
  5
286
330
1F
100
AcDbEntity
  8
0
  6
CONTINUOUS
 62
     7
100
AcDbLine
 10
8.1870510279
 20
6.2119377131
 30
0.0
 11
8.1870510279
 21
6.1966163164
 31
0.0
  0
SPLINE
  5
287
330
1F
100
AcDbEntity
  8
0
  6
CONTINUOUS
 62
     7
100
AcDbSpline
210
0.0
220
0.0
230
1.0
 70
     8
 71
     3
 72
    21
 73
    17
 74
     0
 42
0.00000001
 43
0.00000001
 40
0.0
 40
0.0
 40
0.0
 40
0.0
 40
0.0432044685817665
 40
0.1144248003706591
 40
0.1861833859394151
 40
0.2598254920402213
 40
0.3358455767351314
 40
0.4138073180737805
 40
0.4927989472233402
 40
0.5719804888989422
 40
0.650975646189034
 40
0.7297465381465859
 40
0.8083648267827882
 40
0.8869448638045135
 40
0.965605056215883
 40
1.0
 40
1.0
 40
1.0
 40
1.0
 10
8.187261699418276
 20
6.195715388704217
 30
0.0
 10
8.18728242463797
 20
6.194239438690322
 30
0.0
 10
8.187337314310362
 20
6.190330461419202
 30
0.0
 10
8.189242293072406
 20
6.184138821417732
 30
0.0
 10
8.192675268993266
 20
6.177368867815431
 30
0.0
 10
8.197626085465709
 20
6.171040105739599
 30
0.0
 10
8.203970588676407
 20
6.165217765196833
 30
0.0
 10
8.211658509161987
 20
6.160014999035535
 30
0.0
 10
8.22052359905206
 20
6.155560759273129
 30
0.0
 10
8.230346806047462
 20
6.151962613633189
 30
0.0
 10
8.240889838249476
 20
6.149288831945571
 30
0.0
 10
8.251920760538534
 20
6.147584020841318
 30
0.0
 10
8.263228274183755
 20
6.146850429395208
 30
0.0
 10
8.274553671352903
 20
6.14716719897368
 30
0.0
 10
8.283698953839595
 20
6.148059142285363
 30
0.0
 10
8.28880721250958
 20
6.149187141368928
 30
0.0
 10
8.290361306164245
 20
6.149530314323057
 30
0.0
  0
SPLINE
  5
288
330
1F
100
AcDbEntity
  8
0
  6
CONTINUOUS
 62
     7
100
AcDbSpline
210
0.0
220
0.0
230
1.0
 70
     8
 71
     3
 72
    22
 73
    18
 74
     0
 42
0.00000001
 43
0.00000001
 40
0.0
 40
0.0
 40
0.0
 40
0.0
 40
0.0324893575021931
 40
0.0968101148497662
 40
0.1612678065722015
 40
0.2271952205681936
 40
0.2952412697842991
 40
0.3651901519378783
 40
0.4362664567793654
 40
0.5076730174319661
 40
0.5789455717061016
 40
0.6500119659844921
 40
0.7209208010691531
 40
0.7917691574966841
 40
0.8626707799501723
 40
0.9337103443453038
 40
1.0
 40
1.0
 40
1.0
 40
1.0
 10
7.520238370443864
 20
7.28296750610267
 30
0.0
 10
7.519151088670371
 20
7.282390288599697
 30
0.0
 10
7.515911262417764
 20
7.28067032560097
 30
0.0
 10
7.511480448348117
 20
7.276312508620587
 30
0.0
 10
7.50707187618812
 20
7.270215338537402
 30
0.0
 10
7.503804671335365
 20
7.262998420118078
 30
0.0
 10
7.501658402130584
 20
7.254813478442379
 30
0.0
 10
7.500707806508729
 20
7.245737749113969
 30
0.0
 10
7.500990577234123
 20
7.235963504141479
 30
0.0
 10
7.502502315704978
 20
7.225728617878141
 30
0.0
 10
7.505191839902487
 20
7.215278636319417
 30
0.0
 10
7.508982031927924
 20
7.204837161862514
 30
0.0
 10
7.513784051826603
 20
7.194611300930134
 30
0.0
 10
7.519494318746228
 20
7.18478880425915
 30
0.0
 10
7.526013618837063
 20
7.175592275909858
 30
0.0
 10
7.533010887321875
 20
7.167282760681481
 30
0.0
 10
7.538035037178134
 20
7.162631389188024
 30
0.0
 10
7.54046022508649
 20
7.160386143678646
 30
0.0
  0
LINE
  5
289
330
1F
100
AcDbEntity
  8
0
  6
CONTINUOUS
 62
     7
100
AcDbLine
 10
7.5349142802
 20
7.2916811421
 30
0.0
 11
7.5200624058
 21
7.2831073375
 31
0.0
  0
LINE
  5
28A
330
1F
100
AcDbEntity
  8
0
  6
CONTINUOUS
 62
     7
100
AcDbLine
 10
8.5213732019
 20
7.583565475
 30
0.0
 11
8.3735628296
 21
7.6688945866
 31
0.0
  0
LINE
  5
28B
330
1F
100
AcDbEntity
  8
0
  6
CONTINUOUS
 62
     7
100
AcDbLine
 10
7.5665418053
 20
6.2709416985
 30
0.0
 11
7.7143521775
 21
6.1856125869
 31
0.0
  0
LINE
  5
28C
330
1F
100
AcDbEntity
  8
0
  6
CONTINUOUS
 62
     7
100
AcDbLine
 10
7.9699595632
 20
7.6288837472
 30
0.0
 11
7.963000982
 21
7.6248653378
 31
0.0
  0
LINE
  5
28D
330
1F
100
AcDbEntity
  8
0
  6
CONTINUOUS
 62
     7
100
AcDbLine
 10
7.3993558996
 20
6.6484976261
 30
0.0
 11
7.3993558996
 21
6.6404621132
 31
0.0
  0
LINE
  5
28E
330
1F
100
AcDbEntity
  8
0
  6
CONTINUOUS
 62
     7
100
AcDbLine
 10
7.3158393506
 20
6.9037215872
 30
0.0
 11
7.3158393506
 21
6.8975985264
 31
0.0
  0
POLYLINE
  5
28F
330
1F
100
AcDbEntity
  8
0
  6
CONTINUOUS
 62
     7
100
AcDb2dPolyline
 66
     1
 10
0.0
 20
0.0
 30
0.0
  0
VERTEX
  5
30D
330
28F
100
AcDbEntity
  8
0
  6
CONTINUOUS
 62
     7
100
AcDbVertex
100
AcDb2dVertex
 10
8.3771212148
 20
6.0760102115
 30
0.0
  0
VERTEX
  5
30E
330
28F
100
AcDbEntity
  8
0
  6
CONTINUOUS
 62
     7
100
AcDbVertex
100
AcDb2dVertex
 10
8.3770284605
 20
6.0759566569
 30
0.0
  0
VERTEX
  5
30F
330
28F
100
AcDbEntity
  8
0
  6
CONTINUOUS
 62
     7
100
AcDbVertex
100
AcDb2dVertex
 10
8.3498736316
 20
6.061026953
 30
0.0
  0
VERTEX
  5
310
330
28F
100
AcDbEntity
  8
0
  6
CONTINUOUS
 62
     7
100
AcDbVertex
100
AcDb2dVertex
 10
8.3227803171
 20
6.0476239601
 30
0.0
  0
VERTEX
  5
311
330
28F
100
AcDbEntity
  8
0
  6
CONTINUOUS
 62
     7
100
AcDbVertex
100
AcDb2dVertex
 10
8.2958098921
 20
6.0357780402
 30
0.0
  0
VERTEX
  5
312
330
28F
100
AcDbEntity
  8
0
  6
CONTINUOUS
 62
     7
100
AcDbVertex
100
AcDb2dVertex
 10
8.2690234533
 20
6.0255160281
 30
0.0
  0
VERTEX
  5
313
330
28F
100
AcDbEntity
  8
0
  6
CONTINUOUS
 62
     7
100
AcDbVertex
100
AcDb2dVertex
 10
8.2424816806
 20
6.0168611706
 30
0.0
  0
VERTEX
  5
314
330
28F
100
AcDbEntity
  8
0
  6
CONTINUOUS
 62
     7
100
AcDbVertex
100
AcDb2dVertex
 10
8.2162446995
 20
6.0098330738
 30
0.0
  0
VERTEX
  5
315
330
28F
100
AcDbEntity
  8
0
  6
CONTINUOUS
 62
     7
100
AcDbVertex
100
AcDb2dVertex
 10
8.1903719455
 20
6.0044476586
 30
0.0
  0
VERTEX
  5
316
330
28F
100
AcDbEntity
  8
0
  6
CONTINUOUS
 62
     7
100
AcDbVertex
100
AcDb2dVertex
 10
8.1649220284
 20
6.0007171245
 30
0.0
  0
VERTEX
  5
317
330
28F
100
AcDbEntity
  8
0
  6
CONTINUOUS
 62
     7
100
AcDbVertex
100
AcDb2dVertex
 10
8.1399526007
 20
5.9986499226
 30
0.0
  0
VERTEX
  5
318
330
28F
100
AcDbEntity
  8
0
  6
CONTINUOUS
 62
     7
100
AcDbVertex
100
AcDb2dVertex
 10
8.115520226
 20
5.9982507356
 30
0.0
  0
VERTEX
  5
319
330
28F
100
AcDbEntity
  8
0
  6
CONTINUOUS
 62
     7
100
AcDbVertex
100
AcDb2dVertex
 10
8.0916802516
 20
5.9995204679
 30
0.0
  0
VERTEX
  5
31A
330
28F
100
AcDbEntity
  8
0
  6
CONTINUOUS
 62
     7
100
AcDbVertex
100
AcDb2dVertex
 10
8.0684866827
 20
6.0024562432
 30
0.0
  0
VERTEX
  5
31B
330
28F
100
AcDbEntity
  8
0
  6
CONTINUOUS
 62
     7
100
AcDbVertex
100
AcDb2dVertex
 10
8.0459920601
 20
6.0070514108
 30
0.0
  0
VERTEX
  5
31C
330
28F
100
AcDbEntity
  8
0
  6
CONTINUOUS
 62
     7
100
AcDbVertex
100
AcDb2dVertex
 10
8.0242473414
 20
6.0132955614
 30
0.0
  0
VERTEX
  5
31D
330
28F
100
AcDbEntity
  8
0
  6
CONTINUOUS
 62
     7
100
AcDbVertex
100
AcDb2dVertex
 10
8.0033017855
 20
6.0211745498
 30
0.0
  0
VERTEX
  5
31E
330
28F
100
AcDbEntity
  8
0
  6
CONTINUOUS
 62
     7
100
AcDbVertex
100
AcDb2dVertex
 10
7.9832028406
 20
6.0306705277
 30
0.0
  0
VERTEX
  5
31F
330
28F
100
AcDbEntity
  8
0
  6
CONTINUOUS
 62
     7
100
AcDbVertex
100
AcDb2dVertex
 10
7.9639960375
 20
6.0417619836
 30
0.0
  0
VERTEX
  5
320
330
28F
100
AcDbEntity
  8
0
  6
CONTINUOUS
 62
     7
100
AcDbVertex
100
AcDb2dVertex
 10
7.9457248856
 20
6.0544237918
 30
0.0
  0
VERTEX
  5
321
330
28F
100
AcDbEntity
  8
0
  6
CONTINUOUS
 62
     7
100
AcDbVertex
100
AcDb2dVertex
 10
7.9284307751
 20
6.0686272693
 30
0.0
  0
VERTEX
  5
322
330
28F
100
AcDbEntity
  8
0
  6
CONTINUOUS
 62
     7
100
AcDbVertex
100
AcDb2dVertex
 10
7.9121528826
 20
6.0843402405
 30
0.0
  0
VERTEX
  5
323
330
28F
100
AcDbEntity
  8
0
  6
CONTINUOUS
 62
     7
100
AcDbVertex
100
AcDb2dVertex
 10
7.8969280828
 20
6.1015271105
 30
0.0
  0
VERTEX
  5
324
330
28F
100
AcDbEntity
  8
0
  6
CONTINUOUS
 62
     7
100
AcDbVertex
100
AcDb2dVertex
 10
7.8827908648
 20
6.1201489456
 30
0.0
  0
VERTEX
  5
325
330
28F
100
AcDbEntity
  8
0
  6
CONTINUOUS
 62
     7
100
AcDbVertex
100
AcDb2dVertex
 10
7.8697732539
 20
6.1401635613
 30
0.0
  0
VERTEX
  5
326
330
28F
100
AcDbEntity
  8
0
  6
CONTINUOUS
 62
     7
100
AcDbVertex
100
AcDb2dVertex
 10
7.8579047392
 20
6.1615256181
 30
0.0
  0
VERTEX
  5
327
330
28F
100
AcDbEntity
  8
0
  6
CONTINUOUS
 62
     7
100
AcDbVertex
100
AcDb2dVertex
 10
7.8472122067
 20
6.184186724
 30
0.0
  0
VERTEX
  5
328
330
28F
100
AcDbEntity
  8
0
  6
CONTINUOUS
 62
     7
100
AcDbVertex
100
AcDb2dVertex
 10
7.8377198784
 20
6.2080955444
 30
0.0
  0
VERTEX
  5
329
330
28F
100
AcDbEntity
  8
0
  6
CONTINUOUS
 62
     7
100
AcDbVertex
100
AcDb2dVertex
 10
7.8294492575
 20
6.2331979181
 30
0.0
  0
VERTEX
  5
32A
330
28F
100
AcDbEntity
  8
0
  6
CONTINUOUS
 62
     7
100
AcDbVertex
100
AcDb2dVertex
 10
7.8224190796
 20
6.25943698
 30
0.0
  0
VERTEX
  5
32B
330
28F
100
AcDbEntity
  8
0
  6
CONTINUOUS
 62
     7
100
AcDbVertex
100
AcDb2dVertex
 10
7.8166452704
 20
6.2867532904
 30
0.0
  0
VERTEX
  5
32C
330
28F
100
AcDbEntity
  8
0
  6
CONTINUOUS
 62
     7
100
AcDbVertex
100
AcDb2dVertex
 10
7.8121409093
 20
6.315084969
 30
0.0
  0
VERTEX
  5
32D
330
28F
100
AcDbEntity
  8
0
  6
CONTINUOUS
 62
     7
100
AcDbVertex
100
AcDb2dVertex
 10
7.8089162002
 20
6.3443678354
 30
0.0
  0
VERTEX
  5
32E
330
28F
100
AcDbEntity
  8
0
  6
CONTINUOUS
 62
     7
100
AcDbVertex
100
AcDb2dVertex
 10
7.8069784481
 20
6.3745355545
 30
0.0
  0
VERTEX
  5
32F
330
28F
100
AcDbEntity
  8
0
  6
CONTINUOUS
 62
     7
100
AcDbVertex
100
AcDb2dVertex
 10
7.8063320427
 20
6.4055197867
 30
0.0
  0
VERTEX
  5
330
330
28F
100
AcDbEntity
  8
0
  6
CONTINUOUS
 62
     7
100
AcDbVertex
100
AcDb2dVertex
 10
7.8069784481
 20
6.4372503428
 30
0.0
  0
VERTEX
  5
331
330
28F
100
AcDbEntity
  8
0
  6
CONTINUOUS
 62
     7
100
AcDbVertex
100
AcDb2dVertex
 10
7.8089162002
 20
6.4696553429
 30
0.0
  0
VERTEX
  5
332
330
28F
100
AcDbEntity
  8
0
  6
CONTINUOUS
 62
     7
100
AcDbVertex
100
AcDb2dVertex
 10
7.8121409093
 20
6.5026613791
 30
0.0
  0
VERTEX
  5
333
330
28F
100
AcDbEntity
  8
0
  6
CONTINUOUS
 62
     7
100
AcDbVertex
100
AcDb2dVertex
 10
7.8166452704
 20
6.5361936823
 30
0.0
  0
VERTEX
  5
334
330
28F
100
AcDbEntity
  8
0
  6
CONTINUOUS
 62
     7
100
AcDbVertex
100
AcDb2dVertex
 10
7.8224190796
 20
6.5701762909
 30
0.0
  0
VERTEX
  5
335
330
28F
100
AcDbEntity
  8
0
  6
CONTINUOUS
 62
     7
100
AcDbVertex
100
AcDb2dVertex
 10
7.8294492575
 20
6.6045322235
 30
0.0
  0
VERTEX
  5
336
330
28F
100
AcDbEntity
  8
0
  6
CONTINUOUS
 62
     7
100
AcDbVertex
100
AcDb2dVertex
 10
7.8377198784
 20
6.6391836528
 30
0.0
  0
VERTEX
  5
337
330
28F
100
AcDbEntity
  8
0
  6
CONTINUOUS
 62
     7
100
AcDbVertex
100
AcDb2dVertex
 10
7.8472122067
 20
6.6740520821
 30
0.0
  0
VERTEX
  5
338
330
28F
100
AcDbEntity
  8
0
  6
CONTINUOUS
 62
     7
100
AcDbVertex
100
AcDb2dVertex
 10
7.8579047392
 20
6.7090585233
 30
0.0
  0
VERTEX
  5
339
330
28F
100
AcDbEntity
  8
0
  6
CONTINUOUS
 62
     7
100
AcDbVertex
100
AcDb2dVertex
 10
7.8697732539
 20
6.7441236755
 30
0.0
  0
VERTEX
  5
33A
330
28F
100
AcDbEntity
  8
0
  6
CONTINUOUS
 62
     7
100
AcDbVertex
100
AcDb2dVertex
 10
7.8827908648
 20
6.7791681048
 30
0.0
  0
VERTEX
  5
33B
330
28F
100
AcDbEntity
  8
0
  6
CONTINUOUS
 62
     7
100
AcDbVertex
100
AcDb2dVertex
 10
7.8969280828
 20
6.8141124244
 30
0.0
  0
VERTEX
  5
33C
330
28F
100
AcDbEntity
  8
0
  6
CONTINUOUS
 62
     7
100
AcDbVertex
100
AcDb2dVertex
 10
7.9121528826
 20
6.8488774741
 30
0.0
  0
VERTEX
  5
33D
330
28F
100
AcDbEntity
  8
0
  6
CONTINUOUS
 62
     7
100
AcDbVertex
100
AcDb2dVertex
 10
7.9284307751
 20
6.8833845
 30
0.0
  0
VERTEX
  5
33E
330
28F
100
AcDbEntity
  8
0
  6
CONTINUOUS
 62
     7
100
AcDbVertex
100
AcDb2dVertex
 10
7.9457248856
 20
6.9175553324
 30
0.0
  0
VERTEX
  5
33F
330
28F
100
AcDbEntity
  8
0
  6
CONTINUOUS
 62
     7
100
AcDbVertex
100
AcDb2dVertex
 10
7.9639960375
 20
6.9513125635
 30
0.0
  0
VERTEX
  5
340
330
28F
100
AcDbEntity
  8
0
  6
CONTINUOUS
 62
     7
100
AcDbVertex
100
AcDb2dVertex
 10
7.9832028406
 20
6.9845797223
 30
0.0
  0
VERTEX
  5
341
330
28F
100
AcDbEntity
  8
0
  6
CONTINUOUS
 62
     7
100
AcDbVertex
100
AcDb2dVertex
 10
8.0033017855
 20
7.0172814479
 30
0.0
  0
VERTEX
  5
342
330
28F
100
AcDbEntity
  8
0
  6
CONTINUOUS
 62
     7
100
AcDbVertex
100
AcDb2dVertex
 10
8.0242473414
 20
7.0493436605
 30
0.0
  0
VERTEX
  5
343
330
28F
100
AcDbEntity
  8
0
  6
CONTINUOUS
 62
     7
100
AcDbVertex
100
AcDb2dVertex
 10
8.0459920601
 20
7.0806937289
 30
0.0
  0
VERTEX
  5
344
330
28F
100
AcDbEntity
  8
0
  6
CONTINUOUS
 62
     7
100
AcDbVertex
100
AcDb2dVertex
 10
8.0684866827
 20
7.1112606349
 30
0.0
  0
VERTEX
  5
345
330
28F
100
AcDbEntity
  8
0
  6
CONTINUOUS
 62
     7
100
AcDbVertex
100
AcDb2dVertex
 10
8.0916802516
 20
7.1409751348
 30
0.0
  0
VERTEX
  5
346
330
28F
100
AcDbEntity
  8
0
  6
CONTINUOUS
 62
     7
100
AcDbVertex
100
AcDb2dVertex
 10
8.115520226
 20
7.1697699157
 30
0.0
  0
VERTEX
  5
347
330
28F
100
AcDbEntity
  8
0
  6
CONTINUOUS
 62
     7
100
AcDbVertex
100
AcDb2dVertex
 10
8.1399526007
 20
7.1975797481
 30
0.0
  0
VERTEX
  5
348
330
28F
100
AcDbEntity
  8
0
  6
CONTINUOUS
 62
     7
100
AcDbVertex
100
AcDb2dVertex
 10
8.1649220284
 20
7.2243416338
 30
0.0
  0
VERTEX
  5
349
330
28F
100
AcDbEntity
  8
0
  6
CONTINUOUS
 62
     7
100
AcDbVertex
100
AcDb2dVertex
 10
8.1903719455
 20
7.2499949485
 30
0.0
  0
VERTEX
  5
34A
330
28F
100
AcDbEntity
  8
0
  6
CONTINUOUS
 62
     7
100
AcDbVertex
100
AcDb2dVertex
 10
8.2162446995
 20
7.2744815793
 30
0.0
  0
VERTEX
  5
34B
330
28F
100
AcDbEntity
  8
0
  6
CONTINUOUS
 62
     7
100
AcDbVertex
100
AcDb2dVertex
 10
8.2424816806
 20
7.297746056
 30
0.0
  0
VERTEX
  5
34C
330
28F
100
AcDbEntity
  8
0
  6
CONTINUOUS
 62
     7
100
AcDbVertex
100
AcDb2dVertex
 10
8.2690234533
 20
7.319735677
 30
0.0
  0
VERTEX
  5
34D
330
28F
100
AcDbEntity
  8
0
  6
CONTINUOUS
 62
     7
100
AcDbVertex
100
AcDb2dVertex
 10
8.2958098921
 20
7.3404006289
 30
0.0
  0
VERTEX
  5
34E
330
28F
100
AcDbEntity
  8
0
  6
CONTINUOUS
 62
     7
100
AcDbVertex
100
AcDb2dVertex
 10
8.3227803171
 20
7.3596940989
 30
0.0
  0
VERTEX
  5
34F
330
28F
100
AcDbEntity
  8
0
  6
CONTINUOUS
 62
     7
100
AcDbVertex
100
AcDb2dVertex
 10
8.3498736316
 20
7.377572381
 30
0.0
  0
VERTEX
  5
350
330
28F
100
AcDbEntity
  8
0
  6
CONTINUOUS
 62
     7
100
AcDbVertex
100
AcDb2dVertex
 10
8.3770284605
 20
7.3939949753
 30
0.0
  0
VERTEX
  5
351
330
28F
100
AcDbEntity
  8
0
  6
CONTINUOUS
 62
     7
100
AcDbVertex
100
AcDb2dVertex
 10
8.4041832895
 20
7.4089246792
 30
0.0
  0
VERTEX
  5
352
330
28F
100
AcDbEntity
  8
0
  6
CONTINUOUS
 62
     7
100
AcDbVertex
100
AcDb2dVertex
 10
8.431276604
 20
7.4223276721
 30
0.0
  0
VERTEX
  5
353
330
28F
100
AcDbEntity
  8
0
  6
CONTINUOUS
 62
     7
100
AcDbVertex
100
AcDb2dVertex
 10
8.458247029
 20
7.434173592
 30
0.0
  0
VERTEX
  5
354
330
28F
100
AcDbEntity
  8
0
  6
CONTINUOUS
 62
     7
100
AcDbVertex
100
AcDb2dVertex
 10
8.4850334678
 20
7.4444356041
 30
0.0
  0
VERTEX
  5
355
330
28F
100
AcDbEntity
  8
0
  6
CONTINUOUS
 62
     7
100
AcDbVertex
100
AcDb2dVertex
 10
8.5115752405
 20
7.4530904615
 30
0.0
  0
VERTEX
  5
356
330
28F
100
AcDbEntity
  8
0
  6
CONTINUOUS
 62
     7
100
AcDbVertex
100
AcDb2dVertex
 10
8.5378122215
 20
7.4601185583
 30
0.0
  0
VERTEX
  5
357
330
28F
100
AcDbEntity
  8
0
  6
CONTINUOUS
 62
     7
100
AcDbVertex
100
AcDb2dVertex
 10
8.5636849756
 20
7.4655039736
 30
0.0
  0
VERTEX
  5
358
330
28F
100
AcDbEntity
  8
0
  6
CONTINUOUS
 62
     7
100
AcDbVertex
100
AcDb2dVertex
 10
8.5891348926
 20
7.4692345076
 30
0.0
  0
VERTEX
  5
359
330
28F
100
AcDbEntity
  8
0
  6
CONTINUOUS
 62
     7
100
AcDbVertex
100
AcDb2dVertex
 10
8.6141043204
 20
7.4713017096
 30
0.0
  0
VERTEX
  5
35A
330
28F
100
AcDbEntity
  8
0
  6
CONTINUOUS
 62
     7
100
AcDbVertex
100
AcDb2dVertex
 10
8.6385366951
 20
7.4717008965
 30
0.0
  0
VERTEX
  5
35B
330
28F
100
AcDbEntity
  8
0
  6
CONTINUOUS
 62
     7
100
AcDbVertex
100
AcDb2dVertex
 10
8.6623766695
 20
7.4704311642
 30
0.0
  0
VERTEX
  5
35C
330
28F
100
AcDbEntity
  8
0
  6
CONTINUOUS
 62
     7
100
AcDbVertex
100
AcDb2dVertex
 10
8.6855702384
 20
7.467495389
 30
0.0
  0
VERTEX
  5
35D
330
28F
100
AcDbEntity
  8
0
  6
CONTINUOUS
 62
     7
100
AcDbVertex
100
AcDb2dVertex
 10
8.708064861
 20
7.4629002213
 30
0.0
  0
VERTEX
  5
35E
330
28F
100
AcDbEntity
  8
0
  6
CONTINUOUS
 62
     7
100
AcDbVertex
100
AcDb2dVertex
 10
8.7298095797
 20
7.4566560708
 30
0.0
  0
VERTEX
  5
35F
330
28F
100
AcDbEntity
  8
0
  6
CONTINUOUS
 62
     7
100
AcDbVertex
100
AcDb2dVertex
 10
8.7507551356
 20
7.4487770823
 30
0.0
  0
VERTEX
  5
360
330
28F
100
AcDbEntity
  8
0
  6
CONTINUOUS
 62
     7
100
AcDbVertex
100
AcDb2dVertex
 10
8.7708540805
 20
7.4392811044
 30
0.0
  0
VERTEX
  5
361
330
28F
100
AcDbEntity
  8
0
  6
CONTINUOUS
 62
     7
100
AcDbVertex
100
AcDb2dVertex
 10
8.7900608836
 20
7.4281896485
 30
0.0
  0
VERTEX
  5
362
330
28F
100
AcDbEntity
  8
0
  6
CONTINUOUS
 62
     7
100
AcDbVertex
100
AcDb2dVertex
 10
8.8083320354
 20
7.4155278403
 30
0.0
  0
VERTEX
  5
363
330
28F
100
AcDbEntity
  8
0
  6
CONTINUOUS
 62
     7
100
AcDbVertex
100
AcDb2dVertex
 10
8.825626146
 20
7.4013243629
 30
0.0
  0
VERTEX
  5
364
330
28F
100
AcDbEntity
  8
0
  6
CONTINUOUS
 62
     7
100
AcDbVertex
100
AcDb2dVertex
 10
8.8419040385
 20
7.3856113917
 30
0.0
  0
VERTEX
  5
365
330
28F
100
AcDbEntity
  8
0
  6
CONTINUOUS
 62
     7
100
AcDbVertex
100
AcDb2dVertex
 10
8.8571288383
 20
7.3684245217
 30
0.0
  0
VERTEX
  5
366
330
28F
100
AcDbEntity
  8
0
  6
CONTINUOUS
 62
     7
100
AcDbVertex
100
AcDb2dVertex
 10
8.8712660563
 20
7.3498026866
 30
0.0
  0
VERTEX
  5
367
330
28F
100
AcDbEntity
  8
0
  6
CONTINUOUS
 62
     7
100
AcDbVertex
100
AcDb2dVertex
 10
8.8842836672
 20
7.3297880708
 30
0.0
  0
VERTEX
  5
368
330
28F
100
AcDbEntity
  8
0
  6
CONTINUOUS
 62
     7
100
AcDbVertex
100
AcDb2dVertex
 10
8.8961521819
 20
7.3084260141
 30
0.0
  0
VERTEX
  5
369
330
28F
100
AcDbEntity
  8
0
  6
CONTINUOUS
 62
     7
100
AcDbVertex
100
AcDb2dVertex
 10
8.9068447144
 20
7.2857649081
 30
0.0
  0
VERTEX
  5
36A
330
28F
100
AcDbEntity
  8
0
  6
CONTINUOUS
 62
     7
100
AcDbVertex
100
AcDb2dVertex
 10
8.9163370427
 20
7.2618560878
 30
0.0
  0
VERTEX
  5
36B
330
28F
100
AcDbEntity
  8
0
  6
CONTINUOUS
 62
     7
100
AcDbVertex
100
AcDb2dVertex
 10
8.9246076636
 20
7.2367537141
 30
0.0
  0
VERTEX
  5
36C
330
28F
100
AcDbEntity
  8
0
  6
CONTINUOUS
 62
     7
100
AcDbVertex
100
AcDb2dVertex
 10
8.9316378414
 20
7.2105146521
 30
0.0
  0
VERTEX
  5
36D
330
28F
100
AcDbEntity
  8
0
  6
CONTINUOUS
 62
     7
100
AcDbVertex
100
AcDb2dVertex
 10
8.9374116507
 20
7.1831983418
 30
0.0
  0
VERTEX
  5
36E
330
28F
100
AcDbEntity
  8
0
  6
CONTINUOUS
 62
     7
100
AcDbVertex
100
AcDb2dVertex
 10
8.9419160118
 20
7.1548666632
 30
0.0
  0
VERTEX
  5
36F
330
28F
100
AcDbEntity
  8
0
  6
CONTINUOUS
 62
     7
100
AcDbVertex
100
AcDb2dVertex
 10
8.9451407209
 20
7.1255837968
 30
0.0
  0
VERTEX
  5
370
330
28F
100
AcDbEntity
  8
0
  6
CONTINUOUS
 62
     7
100
AcDbVertex
100
AcDb2dVertex
 10
8.947078473
 20
7.0954160777
 30
0.0
  0
VERTEX
  5
371
330
28F
100
AcDbEntity
  8
0
  6
CONTINUOUS
 62
     7
100
AcDbVertex
100
AcDb2dVertex
 10
8.9477248784
 20
7.0644318455
 30
0.0
  0
VERTEX
  5
372
330
28F
100
AcDbEntity
  8
0
  6
CONTINUOUS
 62
     7
100
AcDbVertex
100
AcDb2dVertex
 10
8.9477248784
 20
7.0644318455
 30
0.0
  0
SEQEND
  5
373
330
28F
100
AcDbEntity
  8
0
  6
CONTINUOUS
 62
     7
  0
POLYLINE
  5
290
330
1F
100
AcDbEntity
  8
0
  6
CONTINUOUS
 62
     7
100
AcDb2dPolyline
 66
     1
 10
0.0
 20
0.0
 30
0.0
  0
VERTEX
  5
374
330
290
100
AcDbEntity
  8
0
  6
CONTINUOUS
 62
     7
100
AcDbVertex
100
AcDb2dVertex
 10
8.9474953633
 20
7.037689747
 30
0.0
  0
VERTEX
  5
375
330
290
100
AcDbEntity
  8
0
  6
CONTINUOUS
 62
     7
100
AcDbVertex
100
AcDb2dVertex
 10
8.9477248784
 20
7.0563963325
 30
0.0
  0
VERTEX
  5
376
330
290
100
AcDbEntity
  8
0
  6
CONTINUOUS
 62
     7
100
AcDbVertex
100
AcDb2dVertex
 10
8.9470765722
 20
7.0872333299
 30
0.0
  0
VERTEX
  5
377
330
290
100
AcDbEntity
  8
0
  6
CONTINUOUS
 62
     7
100
AcDbVertex
100
AcDb2dVertex
 10
8.9451331446
 20
7.1172508826
 30
0.0
  0
VERTEX
  5
378
330
290
100
AcDbEntity
  8
0
  6
CONTINUOUS
 62
     7
100
AcDbVertex
100
AcDb2dVertex
 10
8.9418990656
 20
7.1463799495
 30
0.0
  0
VERTEX
  5
379
330
290
100
AcDbEntity
  8
0
  6
CONTINUOUS
 62
     7
100
AcDbVertex
100
AcDb2dVertex
 10
8.9373817736
 20
7.1745535328
 30
0.0
  0
VERTEX
  5
37A
330
290
100
AcDbEntity
  8
0
  6
CONTINUOUS
 62
     7
100
AcDbVertex
100
AcDb2dVertex
 10
8.9315916586
 20
7.2017068322
 30
0.0
  0
VERTEX
  5
37B
330
290
100
AcDbEntity
  8
0
  6
CONTINUOUS
 62
     7
100
AcDbVertex
100
AcDb2dVertex
 10
8.9245420381
 20
7.2277773944
 30
0.0
  0
VERTEX
  5
37C
330
290
100
AcDbEntity
  8
0
  6
CONTINUOUS
 62
     7
100
AcDbVertex
100
AcDb2dVertex
 10
8.9162491263
 20
7.2527052562
 30
0.0
  0
VERTEX
  5
37D
330
290
100
AcDbEntity
  8
0
  6
CONTINUOUS
 62
     7
100
AcDbVertex
100
AcDb2dVertex
 10
8.9067319973
 20
7.2764330827
 30
0.0
  0
VERTEX
  5
37E
330
290
100
AcDbEntity
  8
0
  6
CONTINUOUS
 62
     7
100
AcDbVertex
100
AcDb2dVertex
 10
8.8960125408
 20
7.2989062992
 30
0.0
  0
VERTEX
  5
37F
330
290
100
AcDbEntity
  8
0
  6
CONTINUOUS
 62
     7
100
AcDbVertex
100
AcDb2dVertex
 10
8.8841154118
 20
7.3200732165
 30
0.0
  0
VERTEX
  5
380
330
290
100
AcDbEntity
  8
0
  6
CONTINUOUS
 62
     7
100
AcDbVertex
100
AcDb2dVertex
 10
8.8710679741
 20
7.3398851501
 30
0.0
  0
VERTEX
  5
381
330
290
100
AcDbEntity
  8
0
  6
CONTINUOUS
 62
     7
100
AcDbVertex
100
AcDb2dVertex
 10
8.8569002373
 20
7.3582965319
 30
0.0
  0
VERTEX
  5
382
330
290
100
AcDbEntity
  8
0
  6
CONTINUOUS
 62
     7
100
AcDbVertex
100
AcDb2dVertex
 10
8.8416447876
 20
7.375265015
 30
0.0
  0
VERTEX
  5
383
330
290
100
AcDbEntity
  8
0
  6
CONTINUOUS
 62
     7
100
AcDbVertex
100
AcDb2dVertex
 10
8.825336713
 20
7.3907515716
 30
0.0
  0
VERTEX
  5
384
330
290
100
AcDbEntity
  8
0
  6
CONTINUOUS
 62
     7
100
AcDbVertex
100
AcDb2dVertex
 10
8.8080135226
 20
7.4047205819
 30
0.0
  0
VERTEX
  5
385
330
290
100
AcDbEntity
  8
0
  6
CONTINUOUS
 62
     7
100
AcDbVertex
100
AcDb2dVertex
 10
8.7897150603
 20
7.4171399168
 30
0.0
  0
VERTEX
  5
386
330
290
100
AcDbEntity
  8
0
  6
CONTINUOUS
 62
     7
100
AcDbVertex
100
AcDb2dVertex
 10
8.7704834132
 20
7.4279810115
 30
0.0
  0
VERTEX
  5
387
330
290
100
AcDbEntity
  8
0
  6
CONTINUOUS
 62
     7
100
AcDbVertex
100
AcDb2dVertex
 10
8.7503628146
 20
7.437218931
 30
0.0
  0
VERTEX
  5
388
330
290
100
AcDbEntity
  8
0
  6
CONTINUOUS
 62
     7
100
AcDbVertex
100
AcDb2dVertex
 10
8.7293995426
 20
7.4448324279
 30
0.0
  0
VERTEX
  5
389
330
290
100
AcDbEntity
  8
0
  6
CONTINUOUS
 62
     7
100
AcDbVertex
100
AcDb2dVertex
 10
8.7076418134
 20
7.4508039909
 30
0.0
  0
VERTEX
  5
38A
330
290
100
AcDbEntity
  8
0
  6
CONTINUOUS
 62
     7
100
AcDbVertex
100
AcDb2dVertex
 10
8.6851396705
 20
7.4551198851
 30
0.0
  0
VERTEX
  5
38B
330
290
100
AcDbEntity
  8
0
  6
CONTINUOUS
 62
     7
100
AcDbVertex
100
AcDb2dVertex
 10
8.6619448694
 20
7.457770184
 30
0.0
  0
VERTEX
  5
38C
330
290
100
AcDbEntity
  8
0
  6
CONTINUOUS
 62
     7
100
AcDbVertex
100
AcDb2dVertex
 10
8.6381107591
 20
7.4587487917
 30
0.0
  0
VERTEX
  5
38D
330
290
100
AcDbEntity
  8
0
  6
CONTINUOUS
 62
     7
100
AcDbVertex
100
AcDb2dVertex
 10
8.6136921586
 20
7.4580534574
 30
0.0
  0
VERTEX
  5
38E
330
290
100
AcDbEntity
  8
0
  6
CONTINUOUS
 62
     7
100
AcDbVertex
100
AcDb2dVertex
 10
8.5887452317
 20
7.4556857803
 30
0.0
  0
VERTEX
  5
38F
330
290
100
AcDbEntity
  8
0
  6
CONTINUOUS
 62
     7
100
AcDbVertex
100
AcDb2dVertex
 10
8.5633273569
 20
7.4516512063
 30
0.0
  0
VERTEX
  5
390
330
290
100
AcDbEntity
  8
0
  6
CONTINUOUS
 62
     7
100
AcDbVertex
100
AcDb2dVertex
 10
8.5374969963
 20
7.445959015
 30
0.0
  0
VERTEX
  5
391
330
290
100
AcDbEntity
  8
0
  6
CONTINUOUS
 62
     7
100
AcDbVertex
100
AcDb2dVertex
 10
8.5113135604
 20
7.4386222985
 30
0.0
  0
VERTEX
  5
392
330
290
100
AcDbEntity
  8
0
  6
CONTINUOUS
 62
     7
100
AcDbVertex
100
AcDb2dVertex
 10
8.4848372721
 20
7.4296579316
 30
0.0
  0
VERTEX
  5
393
330
290
100
AcDbEntity
  8
0
  6
CONTINUOUS
 62
     7
100
AcDbVertex
100
AcDb2dVertex
 10
8.4581290276
 20
7.4190865326
 30
0.0
  0
VERTEX
  5
394
330
290
100
AcDbEntity
  8
0
  6
CONTINUOUS
 62
     7
100
AcDbVertex
100
AcDb2dVertex
 10
8.4312502568
 20
7.4069324161
 30
0.0
  0
VERTEX
  5
395
330
290
100
AcDbEntity
  8
0
  6
CONTINUOUS
 62
     7
100
AcDbVertex
100
AcDb2dVertex
 10
8.4042627817
 20
7.3932235369
 30
0.0
  0
VERTEX
  5
396
330
290
100
AcDbEntity
  8
0
  6
CONTINUOUS
 62
     7
100
AcDbVertex
100
AcDb2dVertex
 10
8.3772286743
 20
7.3779914259
 30
0.0
  0
VERTEX
  5
397
330
290
100
AcDbEntity
  8
0
  6
CONTINUOUS
 62
     7
100
AcDbVertex
100
AcDb2dVertex
 10
8.350210114
 20
7.3612711174
 30
0.0
  0
VERTEX
  5
398
330
290
100
AcDbEntity
  8
0
  6
CONTINUOUS
 62
     7
100
AcDbVertex
100
AcDb2dVertex
 10
8.3232692443
 20
7.3431010686
 30
0.0
  0
VERTEX
  5
399
330
290
100
AcDbEntity
  8
0
  6
CONTINUOUS
 62
     7
100
AcDbVertex
100
AcDb2dVertex
 10
8.29646803
 20
7.3235230714
 30
0.0
  0
VERTEX
  5
39A
330
290
100
AcDbEntity
  8
0
  6
CONTINUOUS
 62
     7
100
AcDbVertex
100
AcDb2dVertex
 10
8.269868115
 20
7.3025821556
 30
0.0
  0
VERTEX
  5
39B
330
290
100
AcDbEntity
  8
0
  6
CONTINUOUS
 62
     7
100
AcDbVertex
100
AcDb2dVertex
 10
8.2435306797
 20
7.2803264861
 30
0.0
  0
VERTEX
  5
39C
330
290
100
AcDbEntity
  8
0
  6
CONTINUOUS
 62
     7
100
AcDbVertex
100
AcDb2dVertex
 10
8.2175163011
 20
7.2568072515
 30
0.0
  0
VERTEX
  5
39D
330
290
100
AcDbEntity
  8
0
  6
CONTINUOUS
 62
     7
100
AcDbVertex
100
AcDb2dVertex
 10
8.1918848132
 20
7.232078547
 30
0.0
  0
VERTEX
  5
39E
330
290
100
AcDbEntity
  8
0
  6
CONTINUOUS
 62
     7
100
AcDbVertex
100
AcDb2dVertex
 10
8.1666951692
 20
7.2061972494
 30
0.0
  0
VERTEX
  5
39F
330
290
100
AcDbEntity
  8
0
  6
CONTINUOUS
 62
     7
100
AcDbVertex
100
AcDb2dVertex
 10
8.142005306
 20
7.1792228863
 30
0.0
  0
VERTEX
  5
3A0
330
290
100
AcDbEntity
  8
0
  6
CONTINUOUS
 62
     7
100
AcDbVertex
100
AcDb2dVertex
 10
8.1178720112
 20
7.1512174998
 30
0.0
  0
VERTEX
  5
3A1
330
290
100
AcDbEntity
  8
0
  6
CONTINUOUS
 62
     7
100
AcDbVertex
100
AcDb2dVertex
 10
8.0943507921
 20
7.1222455031
 30
0.0
  0
VERTEX
  5
3A2
330
290
100
AcDbEntity
  8
0
  6
CONTINUOUS
 62
     7
100
AcDbVertex
100
AcDb2dVertex
 10
8.0714957482
 20
7.0923735327
 30
0.0
  0
VERTEX
  5
3A3
330
290
100
AcDbEntity
  8
0
  6
CONTINUOUS
 62
     7
100
AcDbVertex
100
AcDb2dVertex
 10
8.049359447
 20
7.0616702952
 30
0.0
  0
VERTEX
  5
3A4
330
290
100
AcDbEntity
  8
0
  6
CONTINUOUS
 62
     7
100
AcDbVertex
100
AcDb2dVertex
 10
8.0279928025
 20
7.030206409
 30
0.0
  0
VERTEX
  5
3A5
330
290
100
AcDbEntity
  8
0
  6
CONTINUOUS
 62
     7
100
AcDbVertex
100
AcDb2dVertex
 10
8.0074449588
 20
6.9980542419
 30
0.0
  0
VERTEX
  5
3A6
330
290
100
AcDbEntity
  8
0
  6
CONTINUOUS
 62
     7
100
AcDbVertex
100
AcDb2dVertex
 10
7.9877631765
 20
6.9652877451
 30
0.0
  0
VERTEX
  5
3A7
330
290
100
AcDbEntity
  8
0
  6
CONTINUOUS
 62
     7
100
AcDbVertex
100
AcDb2dVertex
 10
7.9689927245
 20
6.9319822825
 30
0.0
  0
VERTEX
  5
3A8
330
290
100
AcDbEntity
  8
0
  6
CONTINUOUS
 62
     7
100
AcDbVertex
100
AcDb2dVertex
 10
7.9511767752
 20
6.8982144577
 30
0.0
  0
VERTEX
  5
3A9
330
290
100
AcDbEntity
  8
0
  6
CONTINUOUS
 62
     7
100
AcDbVertex
100
AcDb2dVertex
 10
7.9343563061
 20
6.8640619378
 30
0.0
  0
VERTEX
  5
3AA
330
290
100
AcDbEntity
  8
0
  6
CONTINUOUS
 62
     7
100
AcDbVertex
100
AcDb2dVertex
 10
7.9185700046
 20
6.8296032748
 30
0.0
  0
VERTEX
  5
3AB
330
290
100
AcDbEntity
  8
0
  6
CONTINUOUS
 62
     7
100
AcDbVertex
100
AcDb2dVertex
 10
7.9038541799
 20
6.7949177246
 30
0.0
  0
VERTEX
  5
3AC
330
290
100
AcDbEntity
  8
0
  6
CONTINUOUS
 62
     7
100
AcDbVertex
100
AcDb2dVertex
 10
7.8902426787
 20
6.7600850651
 30
0.0
  0
VERTEX
  5
3AD
330
290
100
AcDbEntity
  8
0
  6
CONTINUOUS
 62
     7
100
AcDbVertex
100
AcDb2dVertex
 10
7.877766808
 20
6.7251854126
 30
0.0
  0
VERTEX
  5
3AE
330
290
100
AcDbEntity
  8
0
  6
CONTINUOUS
 62
     7
100
AcDbVertex
100
AcDb2dVertex
 10
7.8664552626
 20
6.6902990374
 30
0.0
  0
VERTEX
  5
3AF
330
290
100
AcDbEntity
  8
0
  6
CONTINUOUS
 62
     7
100
AcDbVertex
100
AcDb2dVertex
 10
7.8563340596
 20
6.6555061792
 30
0.0
  0
VERTEX
  5
3B0
330
290
100
AcDbEntity
  8
0
  6
CONTINUOUS
 62
     7
100
AcDbVertex
100
AcDb2dVertex
 10
7.8474264779
 20
6.6208868627
 30
0.0
  0
VERTEX
  5
3B1
330
290
100
AcDbEntity
  8
0
  6
CONTINUOUS
 62
     7
100
AcDbVertex
100
AcDb2dVertex
 10
7.8397530053
 20
6.5865207136
 30
0.0
  0
VERTEX
  5
3B2
330
290
100
AcDbEntity
  8
0
  6
CONTINUOUS
 62
     7
100
AcDbVertex
100
AcDb2dVertex
 10
7.833331291
 20
6.5524867749
 30
0.0
  0
VERTEX
  5
3B3
330
290
100
AcDbEntity
  8
0
  6
CONTINUOUS
 62
     7
100
AcDbVertex
100
AcDb2dVertex
 10
7.8281761052
 20
6.518863326
 30
0.0
  0
VERTEX
  5
3B4
330
290
100
AcDbEntity
  8
0
  6
CONTINUOUS
 62
     7
100
AcDbVertex
100
AcDb2dVertex
 10
7.8242993049
 20
6.4857277017
 30
0.0
  0
VERTEX
  5
3B5
330
290
100
AcDbEntity
  8
0
  6
CONTINUOUS
 62
     7
100
AcDbVertex
100
AcDb2dVertex
 10
7.821709807
 20
6.4531561151
 30
0.0
  0
VERTEX
  5
3B6
330
290
100
AcDbEntity
  8
0
  6
CONTINUOUS
 62
     7
100
AcDbVertex
100
AcDb2dVertex
 10
7.8204135673
 20
6.4212234819
 30
0.0
  0
VERTEX
  5
3B7
330
290
100
AcDbEntity
  8
0
  6
CONTINUOUS
 62
     7
100
AcDbVertex
100
AcDb2dVertex
 10
7.8204135673
 20
6.3900032481
 30
0.0
  0
VERTEX
  5
3B8
330
290
100
AcDbEntity
  8
0
  6
CONTINUOUS
 62
     7
100
AcDbVertex
100
AcDb2dVertex
 10
7.821709807
 20
6.3595672213
 30
0.0
  0
VERTEX
  5
3B9
330
290
100
AcDbEntity
  8
0
  6
CONTINUOUS
 62
     7
100
AcDbVertex
100
AcDb2dVertex
 10
7.8242993049
 20
6.3299854054
 30
0.0
  0
VERTEX
  5
3BA
330
290
100
AcDbEntity
  8
0
  6
CONTINUOUS
 62
     7
100
AcDbVertex
100
AcDb2dVertex
 10
7.8281761052
 20
6.3013258394
 30
0.0
  0
VERTEX
  5
3BB
330
290
100
AcDbEntity
  8
0
  6
CONTINUOUS
 62
     7
100
AcDbVertex
100
AcDb2dVertex
 10
7.833331291
 20
6.2736544412
 30
0.0
  0
VERTEX
  5
3BC
330
290
100
AcDbEntity
  8
0
  6
CONTINUOUS
 62
     7
100
AcDbVertex
100
AcDb2dVertex
 10
7.8397530053
 20
6.2470348561
 30
0.0
  0
VERTEX
  5
3BD
330
290
100
AcDbEntity
  8
0
  6
CONTINUOUS
 62
     7
100
AcDbVertex
100
AcDb2dVertex
 10
7.8474264779
 20
6.2215283098
 30
0.0
  0
VERTEX
  5
3BE
330
290
100
AcDbEntity
  8
0
  6
CONTINUOUS
 62
     7
100
AcDbVertex
100
AcDb2dVertex
 10
7.8563340596
 20
6.1971934683
 30
0.0
  0
VERTEX
  5
3BF
330
290
100
AcDbEntity
  8
0
  6
CONTINUOUS
 62
     7
100
AcDbVertex
100
AcDb2dVertex
 10
7.8664552626
 20
6.1740863024
 30
0.0
  0
VERTEX
  5
3C0
330
290
100
AcDbEntity
  8
0
  6
CONTINUOUS
 62
     7
100
AcDbVertex
100
AcDb2dVertex
 10
7.877766808
 20
6.1522599595
 30
0.0
  0
VERTEX
  5
3C1
330
290
100
AcDbEntity
  8
0
  6
CONTINUOUS
 62
     7
100
AcDbVertex
100
AcDb2dVertex
 10
7.8902426787
 20
6.1317646407
 30
0.0
  0
VERTEX
  5
3C2
330
290
100
AcDbEntity
  8
0
  6
CONTINUOUS
 62
     7
100
AcDbVertex
100
AcDb2dVertex
 10
7.9038541799
 20
6.112647486
 30
0.0
  0
VERTEX
  5
3C3
330
290
100
AcDbEntity
  8
0
  6
CONTINUOUS
 62
     7
100
AcDbVertex
100
AcDb2dVertex
 10
7.9185700046
 20
6.0949524654
 30
0.0
  0
VERTEX
  5
3C4
330
290
100
AcDbEntity
  8
0
  6
CONTINUOUS
 62
     7
100
AcDbVertex
100
AcDb2dVertex
 10
7.9343563061
 20
6.078720278
 30
0.0
  0
VERTEX
  5
3C5
330
290
100
AcDbEntity
  8
0
  6
CONTINUOUS
 62
     7
100
AcDbVertex
100
AcDb2dVertex
 10
7.9511767752
 20
6.0639882585
 30
0.0
  0
VERTEX
  5
3C6
330
290
100
AcDbEntity
  8
0
  6
CONTINUOUS
 62
     7
100
AcDbVertex
100
AcDb2dVertex
 10
7.9689927245
 20
6.0507902908
 30
0.0
  0
VERTEX
  5
3C7
330
290
100
AcDbEntity
  8
0
  6
CONTINUOUS
 62
     7
100
AcDbVertex
100
AcDb2dVertex
 10
7.9877631765
 20
6.0391567309
 30
0.0
  0
VERTEX
  5
3C8
330
290
100
AcDbEntity
  8
0
  6
CONTINUOUS
 62
     7
100
AcDbVertex
100
AcDb2dVertex
 10
8.0074449588
 20
6.0291143361
 30
0.0
  0
VERTEX
  5
3C9
330
290
100
AcDbEntity
  8
0
  6
CONTINUOUS
 62
     7
100
AcDbVertex
100
AcDb2dVertex
 10
8.0279928025
 20
6.0206862044
 30
0.0
  0
VERTEX
  5
3CA
330
290
100
AcDbEntity
  8
0
  6
CONTINUOUS
 62
     7
100
AcDbVertex
100
AcDb2dVertex
 10
8.049359447
 20
6.0138917208
 30
0.0
  0
VERTEX
  5
3CB
330
290
100
AcDbEntity
  8
0
  6
CONTINUOUS
 62
     7
100
AcDbVertex
100
AcDb2dVertex
 10
8.0714957482
 20
6.0087465127
 30
0.0
  0
VERTEX
  5
3CC
330
290
100
AcDbEntity
  8
0
  6
CONTINUOUS
 62
     7
100
AcDbVertex
100
AcDb2dVertex
 10
8.0943507921
 20
6.0052624143
 30
0.0
  0
VERTEX
  5
3CD
330
290
100
AcDbEntity
  8
0
  6
CONTINUOUS
 62
     7
100
AcDbVertex
100
AcDb2dVertex
 10
8.1178720112
 20
6.0034474391
 30
0.0
  0
VERTEX
  5
3CE
330
290
100
AcDbEntity
  8
0
  6
CONTINUOUS
 62
     7
100
AcDbVertex
100
AcDb2dVertex
 10
8.142005306
 20
6.0033057617
 30
0.0
  0
VERTEX
  5
3CF
330
290
100
AcDbEntity
  8
0
  6
CONTINUOUS
 62
     7
100
AcDbVertex
100
AcDb2dVertex
 10
8.1666951692
 20
6.0048377079
 30
0.0
  0
VERTEX
  5
3D0
330
290
100
AcDbEntity
  8
0
  6
CONTINUOUS
 62
     7
100
AcDbVertex
100
AcDb2dVertex
 10
8.1918848132
 20
6.0080397541
 30
0.0
  0
VERTEX
  5
3D1
330
290
100
AcDbEntity
  8
0
  6
CONTINUOUS
 62
     7
100
AcDbVertex
100
AcDb2dVertex
 10
8.2175163011
 20
6.0129045357
 30
0.0
  0
VERTEX
  5
3D2
330
290
100
AcDbEntity
  8
0
  6
CONTINUOUS
 62
     7
100
AcDbVertex
100
AcDb2dVertex
 10
8.2435306797
 20
6.0194208633
 30
0.0
  0
VERTEX
  5
3D3
330
290
100
AcDbEntity
  8
0
  6
CONTINUOUS
 62
     7
100
AcDbVertex
100
AcDb2dVertex
 10
8.269868115
 20
6.0275737493
 30
0.0
  0
VERTEX
  5
3D4
330
290
100
AcDbEntity
  8
0
  6
CONTINUOUS
 62
     7
100
AcDbVertex
100
AcDb2dVertex
 10
8.29646803
 20
6.0373444418
 30
0.0
  0
VERTEX
  5
3D5
330
290
100
AcDbEntity
  8
0
  6
CONTINUOUS
 62
     7
100
AcDbVertex
100
AcDb2dVertex
 10
8.3232692443
 20
6.0487104678
 30
0.0
  0
VERTEX
  5
3D6
330
290
100
AcDbEntity
  8
0
  6
CONTINUOUS
 62
     7
100
AcDbVertex
100
AcDb2dVertex
 10
8.350210114
 20
6.0616456851
 30
0.0
  0
VERTEX
  5
3D7
330
290
100
AcDbEntity
  8
0
  6
CONTINUOUS
 62
     7
100
AcDbVertex
100
AcDb2dVertex
 10
8.3772286743
 20
6.0761203423
 30
0.0
  0
VERTEX
  5
3D8
330
290
100
AcDbEntity
  8
0
  6
CONTINUOUS
 62
     7
100
AcDbVertex
100
AcDb2dVertex
 10
8.4001645203
 20
6.089582189
 30
0.0
  0
SEQEND
  5
3D9
330
290
100
AcDbEntity
  8
0
  6
CONTINUOUS
 62
     7
  0
POLYLINE
  5
291
330
1F
100
AcDbEntity
  8
0
  6
CONTINUOUS
 62
     7
100
AcDb2dPolyline
 66
     1
 10
0.0
 20
0.0
 30
0.0
  0
VERTEX
  5
3DA
330
291
100
AcDbEntity
  8
0
  6
CONTINUOUS
 62
     7
100
AcDbVertex
100
AcDb2dVertex
 10
7.6585216704
 20
6.4908488983
 30
0.0
  0
VERTEX
  5
3DB
330
291
100
AcDbEntity
  8
0
  6
CONTINUOUS
 62
     7
100
AcDbVertex
100
AcDb2dVertex
 10
7.6591680759
 20
6.5225794544
 30
0.0
  0
VERTEX
  5
3DC
330
291
100
AcDbEntity
  8
0
  6
CONTINUOUS
 62
     7
100
AcDbVertex
100
AcDb2dVertex
 10
7.661105828
 20
6.5549844545
 30
0.0
  0
VERTEX
  5
3DD
330
291
100
AcDbEntity
  8
0
  6
CONTINUOUS
 62
     7
100
AcDbVertex
100
AcDb2dVertex
 10
7.6643305371
 20
6.5879904907
 30
0.0
  0
VERTEX
  5
3DE
330
291
100
AcDbEntity
  8
0
  6
CONTINUOUS
 62
     7
100
AcDbVertex
100
AcDb2dVertex
 10
7.6688348982
 20
6.6215227939
 30
0.0
  0
VERTEX
  5
3DF
330
291
100
AcDbEntity
  8
0
  6
CONTINUOUS
 62
     7
100
AcDbVertex
100
AcDb2dVertex
 10
7.6746087074
 20
6.6555054025
 30
0.0
  0
VERTEX
  5
3E0
330
291
100
AcDbEntity
  8
0
  6
CONTINUOUS
 62
     7
100
AcDbVertex
100
AcDb2dVertex
 10
7.6816388853
 20
6.6898613351
 30
0.0
  0
VERTEX
  5
3E1
330
291
100
AcDbEntity
  8
0
  6
CONTINUOUS
 62
     7
100
AcDbVertex
100
AcDb2dVertex
 10
7.6899095062
 20
6.7245127644
 30
0.0
  0
VERTEX
  5
3E2
330
291
100
AcDbEntity
  8
0
  6
CONTINUOUS
 62
     7
100
AcDbVertex
100
AcDb2dVertex
 10
7.6994018345
 20
6.7593811937
 30
0.0
  0
VERTEX
  5
3E3
330
291
100
AcDbEntity
  8
0
  6
CONTINUOUS
 62
     7
100
AcDbVertex
100
AcDb2dVertex
 10
7.710094367
 20
6.7943876349
 30
0.0
  0
VERTEX
  5
3E4
330
291
100
AcDbEntity
  8
0
  6
CONTINUOUS
 62
     7
100
AcDbVertex
100
AcDb2dVertex
 10
7.7219628817
 20
6.8294527871
 30
0.0
  0
VERTEX
  5
3E5
330
291
100
AcDbEntity
  8
0
  6
CONTINUOUS
 62
     7
100
AcDbVertex
100
AcDb2dVertex
 10
7.7349804926
 20
6.8644972164
 30
0.0
  0
VERTEX
  5
3E6
330
291
100
AcDbEntity
  8
0
  6
CONTINUOUS
 62
     7
100
AcDbVertex
100
AcDb2dVertex
 10
7.7491177106
 20
6.899441536
 30
0.0
  0
VERTEX
  5
3E7
330
291
100
AcDbEntity
  8
0
  6
CONTINUOUS
 62
     7
100
AcDbVertex
100
AcDb2dVertex
 10
7.7643425104
 20
6.9342065857
 30
0.0
  0
VERTEX
  5
3E8
330
291
100
AcDbEntity
  8
0
  6
CONTINUOUS
 62
     7
100
AcDbVertex
100
AcDb2dVertex
 10
7.7806204029
 20
6.9687136116
 30
0.0
  0
VERTEX
  5
3E9
330
291
100
AcDbEntity
  8
0
  6
CONTINUOUS
 62
     7
100
AcDbVertex
100
AcDb2dVertex
 10
7.7979145134
 20
7.002884444
 30
0.0
  0
VERTEX
  5
3EA
330
291
100
AcDbEntity
  8
0
  6
CONTINUOUS
 62
     7
100
AcDbVertex
100
AcDb2dVertex
 10
7.8161856653
 20
7.0366416751
 30
0.0
  0
VERTEX
  5
3EB
330
291
100
AcDbEntity
  8
0
  6
CONTINUOUS
 62
     7
100
AcDbVertex
100
AcDb2dVertex
 10
7.8353924684
 20
7.0699088339
 30
0.0
  0
VERTEX
  5
3EC
330
291
100
AcDbEntity
  8
0
  6
CONTINUOUS
 62
     7
100
AcDbVertex
100
AcDb2dVertex
 10
7.8554914132
 20
7.1026105595
 30
0.0
  0
VERTEX
  5
3ED
330
291
100
AcDbEntity
  8
0
  6
CONTINUOUS
 62
     7
100
AcDbVertex
100
AcDb2dVertex
 10
7.8764369692
 20
7.1346727722
 30
0.0
  0
VERTEX
  5
3EE
330
291
100
AcDbEntity
  8
0
  6
CONTINUOUS
 62
     7
100
AcDbVertex
100
AcDb2dVertex
 10
7.8981816878
 20
7.1660228405
 30
0.0
  0
VERTEX
  5
3EF
330
291
100
AcDbEntity
  8
0
  6
CONTINUOUS
 62
     7
100
AcDbVertex
100
AcDb2dVertex
 10
7.9206763104
 20
7.1965897465
 30
0.0
  0
VERTEX
  5
3F0
330
291
100
AcDbEntity
  8
0
  6
CONTINUOUS
 62
     7
100
AcDbVertex
100
AcDb2dVertex
 10
7.9438698794
 20
7.2263042465
 30
0.0
  0
VERTEX
  5
3F1
330
291
100
AcDbEntity
  8
0
  6
CONTINUOUS
 62
     7
100
AcDbVertex
100
AcDb2dVertex
 10
7.9677098538
 20
7.2550990273
 30
0.0
  0
VERTEX
  5
3F2
330
291
100
AcDbEntity
  8
0
  6
CONTINUOUS
 62
     7
100
AcDbVertex
100
AcDb2dVertex
 10
7.9921422284
 20
7.2829088597
 30
0.0
  0
VERTEX
  5
3F3
330
291
100
AcDbEntity
  8
0
  6
CONTINUOUS
 62
     7
100
AcDbVertex
100
AcDb2dVertex
 10
8.0171116562
 20
7.3096707454
 30
0.0
  0
VERTEX
  5
3F4
330
291
100
AcDbEntity
  8
0
  6
CONTINUOUS
 62
     7
100
AcDbVertex
100
AcDb2dVertex
 10
8.0425615732
 20
7.3353240602
 30
0.0
  0
VERTEX
  5
3F5
330
291
100
AcDbEntity
  8
0
  6
CONTINUOUS
 62
     7
100
AcDbVertex
100
AcDb2dVertex
 10
8.0684343273
 20
7.3598106909
 30
0.0
  0
VERTEX
  5
3F6
330
291
100
AcDbEntity
  8
0
  6
CONTINUOUS
 62
     7
100
AcDbVertex
100
AcDb2dVertex
 10
8.0946713083
 20
7.3830751676
 30
0.0
  0
VERTEX
  5
3F7
330
291
100
AcDbEntity
  8
0
  6
CONTINUOUS
 62
     7
100
AcDbVertex
100
AcDb2dVertex
 10
8.1212130811
 20
7.4050647886
 30
0.0
  0
VERTEX
  5
3F8
330
291
100
AcDbEntity
  8
0
  6
CONTINUOUS
 62
     7
100
AcDbVertex
100
AcDb2dVertex
 10
8.1479995199
 20
7.4257297405
 30
0.0
  0
VERTEX
  5
3F9
330
291
100
AcDbEntity
  8
0
  6
CONTINUOUS
 62
     7
100
AcDbVertex
100
AcDb2dVertex
 10
8.1749699449
 20
7.4450232105
 30
0.0
  0
VERTEX
  5
3FA
330
291
100
AcDbEntity
  8
0
  6
CONTINUOUS
 62
     7
100
AcDbVertex
100
AcDb2dVertex
 10
8.2020632594
 20
7.4629014927
 30
0.0
  0
VERTEX
  5
3FB
330
291
100
AcDbEntity
  8
0
  6
CONTINUOUS
 62
     7
100
AcDbVertex
100
AcDb2dVertex
 10
8.2292180883
 20
7.4793240869
 30
0.0
  0
VERTEX
  5
3FC
330
291
100
AcDbEntity
  8
0
  6
CONTINUOUS
 62
     7
100
AcDbVertex
100
AcDb2dVertex
 10
8.2563729172
 20
7.4942537908
 30
0.0
  0
VERTEX
  5
3FD
330
291
100
AcDbEntity
  8
0
  6
CONTINUOUS
 62
     7
100
AcDbVertex
100
AcDb2dVertex
 10
8.2834662317
 20
7.5076567837
 30
0.0
  0
VERTEX
  5
3FE
330
291
100
AcDbEntity
  8
0
  6
CONTINUOUS
 62
     7
100
AcDbVertex
100
AcDb2dVertex
 10
8.3104366567
 20
7.5195027036
 30
0.0
  0
VERTEX
  5
3FF
330
291
100
AcDbEntity
  8
0
  6
CONTINUOUS
 62
     7
100
AcDbVertex
100
AcDb2dVertex
 10
8.3372230955
 20
7.5297647157
 30
0.0
  0
VERTEX
  5
400
330
291
100
AcDbEntity
  8
0
  6
CONTINUOUS
 62
     7
100
AcDbVertex
100
AcDb2dVertex
 10
8.3637648683
 20
7.5384195731
 30
0.0
  0
VERTEX
  5
401
330
291
100
AcDbEntity
  8
0
  6
CONTINUOUS
 62
     7
100
AcDbVertex
100
AcDb2dVertex
 10
8.3900018493
 20
7.5454476699
 30
0.0
  0
VERTEX
  5
402
330
291
100
AcDbEntity
  8
0
  6
CONTINUOUS
 62
     7
100
AcDbVertex
100
AcDb2dVertex
 10
8.4158746034
 20
7.5508330852
 30
0.0
  0
VERTEX
  5
403
330
291
100
AcDbEntity
  8
0
  6
CONTINUOUS
 62
     7
100
AcDbVertex
100
AcDb2dVertex
 10
8.4413245204
 20
7.5545636192
 30
0.0
  0
VERTEX
  5
404
330
291
100
AcDbEntity
  8
0
  6
CONTINUOUS
 62
     7
100
AcDbVertex
100
AcDb2dVertex
 10
8.4662939482
 20
7.5566308212
 30
0.0
  0
VERTEX
  5
405
330
291
100
AcDbEntity
  8
0
  6
CONTINUOUS
 62
     7
100
AcDbVertex
100
AcDb2dVertex
 10
8.4907263228
 20
7.5570300081
 30
0.0
  0
VERTEX
  5
406
330
291
100
AcDbEntity
  8
0
  6
CONTINUOUS
 62
     7
100
AcDbVertex
100
AcDb2dVertex
 10
8.5145662972
 20
7.5557602758
 30
0.0
  0
VERTEX
  5
407
330
291
100
AcDbEntity
  8
0
  6
CONTINUOUS
 62
     7
100
AcDbVertex
100
AcDb2dVertex
 10
8.5377598662
 20
7.5528245006
 30
0.0
  0
VERTEX
  5
408
330
291
100
AcDbEntity
  8
0
  6
CONTINUOUS
 62
     7
100
AcDbVertex
100
AcDb2dVertex
 10
8.5602544888
 20
7.548229333
 30
0.0
  0
VERTEX
  5
409
330
291
100
AcDbEntity
  8
0
  6
CONTINUOUS
 62
     7
100
AcDbVertex
100
AcDb2dVertex
 10
8.5819992074
 20
7.5419851824
 30
0.0
  0
VERTEX
  5
40A
330
291
100
AcDbEntity
  8
0
  6
CONTINUOUS
 62
     7
100
AcDbVertex
100
AcDb2dVertex
 10
8.6029447634
 20
7.5341061939
 30
0.0
  0
VERTEX
  5
40B
330
291
100
AcDbEntity
  8
0
  6
CONTINUOUS
 62
     7
100
AcDbVertex
100
AcDb2dVertex
 10
8.6230437082
 20
7.524610216
 30
0.0
  0
VERTEX
  5
40C
330
291
100
AcDbEntity
  8
0
  6
CONTINUOUS
 62
     7
100
AcDbVertex
100
AcDb2dVertex
 10
8.6327286005
 20
7.5192813717
 30
0.0
  0
SEQEND
  5
40D
330
291
100
AcDbEntity
  8
0
  6
CONTINUOUS
 62
     7
  0
POLYLINE
  5
292
330
1F
100
AcDbEntity
  8
0
  6
CONTINUOUS
 62
     7
100
AcDb2dPolyline
 66
     1
 10
0.0
 20
0.0
 30
0.0
  0
VERTEX
  5
40E
330
292
100
AcDbEntity
  8
0
  6
CONTINUOUS
 62
     7
100
AcDbVertex
100
AcDb2dVertex
 10
7.8257075761
 20
6.1213284836
 30
0.0
  0
VERTEX
  5
40F
330
292
100
AcDbEntity
  8
0
  6
CONTINUOUS
 62
     7
100
AcDbVertex
100
AcDb2dVertex
 10
7.8161856653
 20
6.1270910952
 30
0.0
  0
VERTEX
  5
410
330
292
100
AcDbEntity
  8
0
  6
CONTINUOUS
 62
     7
100
AcDbVertex
100
AcDb2dVertex
 10
7.7979145134
 20
6.1397529034
 30
0.0
  0
VERTEX
  5
411
330
292
100
AcDbEntity
  8
0
  6
CONTINUOUS
 62
     7
100
AcDbVertex
100
AcDb2dVertex
 10
7.7806204029
 20
6.1539563809
 30
0.0
  0
VERTEX
  5
412
330
292
100
AcDbEntity
  8
0
  6
CONTINUOUS
 62
     7
100
AcDbVertex
100
AcDb2dVertex
 10
7.7643425104
 20
6.1696693521
 30
0.0
  0
VERTEX
  5
413
330
292
100
AcDbEntity
  8
0
  6
CONTINUOUS
 62
     7
100
AcDbVertex
100
AcDb2dVertex
 10
7.7491177106
 20
6.1868562221
 30
0.0
  0
VERTEX
  5
414
330
292
100
AcDbEntity
  8
0
  6
CONTINUOUS
 62
     7
100
AcDbVertex
100
AcDb2dVertex
 10
7.7349804926
 20
6.2054780572
 30
0.0
  0
VERTEX
  5
415
330
292
100
AcDbEntity
  8
0
  6
CONTINUOUS
 62
     7
100
AcDbVertex
100
AcDb2dVertex
 10
7.7219628817
 20
6.2254926729
 30
0.0
  0
VERTEX
  5
416
330
292
100
AcDbEntity
  8
0
  6
CONTINUOUS
 62
     7
100
AcDbVertex
100
AcDb2dVertex
 10
7.710094367
 20
6.2468547297
 30
0.0
  0
VERTEX
  5
417
330
292
100
AcDbEntity
  8
0
  6
CONTINUOUS
 62
     7
100
AcDbVertex
100
AcDb2dVertex
 10
7.6994018345
 20
6.2695158356
 30
0.0
  0
VERTEX
  5
418
330
292
100
AcDbEntity
  8
0
  6
CONTINUOUS
 62
     7
100
AcDbVertex
100
AcDb2dVertex
 10
7.6899095062
 20
6.293424656
 30
0.0
  0
VERTEX
  5
419
330
292
100
AcDbEntity
  8
0
  6
CONTINUOUS
 62
     7
100
AcDbVertex
100
AcDb2dVertex
 10
7.6816388853
 20
6.3185270297
 30
0.0
  0
VERTEX
  5
41A
330
292
100
AcDbEntity
  8
0
  6
CONTINUOUS
 62
     7
100
AcDbVertex
100
AcDb2dVertex
 10
7.6746087074
 20
6.3447660916
 30
0.0
  0
VERTEX
  5
41B
330
292
100
AcDbEntity
  8
0
  6
CONTINUOUS
 62
     7
100
AcDbVertex
100
AcDb2dVertex
 10
7.6688348982
 20
6.372082402
 30
0.0
  0
VERTEX
  5
41C
330
292
100
AcDbEntity
  8
0
  6
CONTINUOUS
 62
     7
100
AcDbVertex
100
AcDb2dVertex
 10
7.6643305371
 20
6.4004140806
 30
0.0
  0
VERTEX
  5
41D
330
292
100
AcDbEntity
  8
0
  6
CONTINUOUS
 62
     7
100
AcDbVertex
100
AcDb2dVertex
 10
7.661105828
 20
6.429696947
 30
0.0
  0
VERTEX
  5
41E
330
292
100
AcDbEntity
  8
0
  6
CONTINUOUS
 62
     7
100
AcDbVertex
100
AcDb2dVertex
 10
7.6591680759
 20
6.4598646661
 30
0.0
  0
VERTEX
  5
41F
330
292
100
AcDbEntity
  8
0
  6
CONTINUOUS
 62
     7
100
AcDbVertex
100
AcDb2dVertex
 10
7.6585216704
 20
6.4908488983
 30
0.0
  0
SEQEND
  5
420
330
292
100
AcDbEntity
  8
0
  6
CONTINUOUS
 62
     7
  0
POLYLINE
  5
293
330
1F
100
AcDbEntity
  8
0
  6
CONTINUOUS
 62
     7
100
AcDb2dPolyline
 66
     1
 10
0.0
 20
0.0
 30
0.0
  0
VERTEX
  5
421
330
293
100
AcDbEntity
  8
0
  6
CONTINUOUS
 62
     7
100
AcDbVertex
100
AcDb2dVertex
 10
8.6595563276
 20
7.2083078263
 30
0.0
  0
VERTEX
  5
422
330
293
100
AcDbEntity
  8
0
  6
CONTINUOUS
 62
     7
100
AcDbVertex
100
AcDb2dVertex
 10
8.6535575098
 20
7.2116232985
 30
0.0
  0
VERTEX
  5
423
330
293
100
AcDbEntity
  8
0
  6
CONTINUOUS
 62
     7
100
AcDbVertex
100
AcDb2dVertex
 10
8.6368929749
 20
7.2193971427
 30
0.0
  0
VERTEX
  5
424
330
293
100
AcDbEntity
  8
0
  6
CONTINUOUS
 62
     7
100
AcDbVertex
100
AcDb2dVertex
 10
8.6193883157
 20
7.2255484413
 30
0.0
  0
VERTEX
  5
425
330
293
100
AcDbEntity
  8
0
  6
CONTINUOUS
 62
     7
100
AcDbVertex
100
AcDb2dVertex
 10
8.6011016809
 20
7.2300567605
 30
0.0
  0
VERTEX
  5
426
330
293
100
AcDbEntity
  8
0
  6
CONTINUOUS
 62
     7
100
AcDbVertex
100
AcDb2dVertex
 10
8.5820938169
 20
7.2329071239
 30
0.0
  0
VERTEX
  5
427
330
293
100
AcDbEntity
  8
0
  6
CONTINUOUS
 62
     7
100
AcDbVertex
100
AcDb2dVertex
 10
8.5624278658
 20
7.2340900631
 30
0.0
  0
VERTEX
  5
428
330
293
100
AcDbEntity
  8
0
  6
CONTINUOUS
 62
     7
100
AcDbVertex
100
AcDb2dVertex
 10
8.5421691561
 20
7.2336016483
 30
0.0
  0
VERTEX
  5
429
330
293
100
AcDbEntity
  8
0
  6
CONTINUOUS
 62
     7
100
AcDbVertex
100
AcDb2dVertex
 10
8.521384985
 20
7.2314435021
 30
0.0
  0
VERTEX
  5
42A
330
293
100
AcDbEntity
  8
0
  6
CONTINUOUS
 62
     7
100
AcDbVertex
100
AcDb2dVertex
 10
8.5001443955
 20
7.2276227935
 30
0.0
  0
VERTEX
  5
42B
330
293
100
AcDbEntity
  8
0
  6
CONTINUOUS
 62
     7
100
AcDbVertex
100
AcDb2dVertex
 10
8.4785179468
 20
7.2221522147
 30
0.0
  0
VERTEX
  5
42C
330
293
100
AcDbEntity
  8
0
  6
CONTINUOUS
 62
     7
100
AcDbVertex
100
AcDb2dVertex
 10
8.4565774796
 20
7.2150499383
 30
0.0
  0
VERTEX
  5
42D
330
293
100
AcDbEntity
  8
0
  6
CONTINUOUS
 62
     7
100
AcDbVertex
100
AcDb2dVertex
 10
8.434395878
 20
7.2063395573
 30
0.0
  0
VERTEX
  5
42E
330
293
100
AcDbEntity
  8
0
  6
CONTINUOUS
 62
     7
100
AcDbVertex
100
AcDb2dVertex
 10
8.4120468272
 20
7.1960500068
 30
0.0
  0
VERTEX
  5
42F
330
293
100
AcDbEntity
  8
0
  6
CONTINUOUS
 62
     7
100
AcDbVertex
100
AcDb2dVertex
 10
8.3896045683
 20
7.1842154677
 30
0.0
  0
VERTEX
  5
430
330
293
100
AcDbEntity
  8
0
  6
CONTINUOUS
 62
     7
100
AcDbVertex
100
AcDb2dVertex
 10
8.3671436523
 20
7.170875253
 30
0.0
  0
VERTEX
  5
431
330
293
100
AcDbEntity
  8
0
  6
CONTINUOUS
 62
     7
100
AcDbVertex
100
AcDb2dVertex
 10
8.3447386921
 20
7.1560736776
 30
0.0
  0
VERTEX
  5
432
330
293
100
AcDbEntity
  8
0
  6
CONTINUOUS
 62
     7
100
AcDbVertex
100
AcDb2dVertex
 10
8.3224641147
 20
7.1398599109
 30
0.0
  0
VERTEX
  5
433
330
293
100
AcDbEntity
  8
0
  6
CONTINUOUS
 62
     7
100
AcDbVertex
100
AcDb2dVertex
 10
8.3003939141
 20
7.1222878134
 30
0.0
  0
VERTEX
  5
434
330
293
100
AcDbEntity
  8
0
  6
CONTINUOUS
 62
     7
100
AcDbVertex
100
AcDb2dVertex
 10
8.2786014051
 20
7.1034157578
 30
0.0
  0
VERTEX
  5
435
330
293
100
AcDbEntity
  8
0
  6
CONTINUOUS
 62
     7
100
AcDbVertex
100
AcDb2dVertex
 10
8.2571589805
 20
7.0833064352
 30
0.0
  0
VERTEX
  5
436
330
293
100
AcDbEntity
  8
0
  6
CONTINUOUS
 62
     7
100
AcDbVertex
100
AcDb2dVertex
 10
8.2361378696
 20
7.0620266467
 30
0.0
  0
VERTEX
  5
437
330
293
100
AcDbEntity
  8
0
  6
CONTINUOUS
 62
     7
100
AcDbVertex
100
AcDb2dVertex
 10
8.2156079026
 20
7.0396470816
 30
0.0
  0
VERTEX
  5
438
330
293
100
AcDbEntity
  8
0
  6
CONTINUOUS
 62
     7
100
AcDbVertex
100
AcDb2dVertex
 10
8.1956372779
 20
7.0162420827
 30
0.0
  0
VERTEX
  5
439
330
293
100
AcDbEntity
  8
0
  6
CONTINUOUS
 62
     7
100
AcDbVertex
100
AcDb2dVertex
 10
8.176292336
 20
6.9918893989
 30
0.0
  0
VERTEX
  5
43A
330
293
100
AcDbEntity
  8
0
  6
CONTINUOUS
 62
     7
100
AcDbVertex
100
AcDb2dVertex
 10
8.1576373387
 20
6.9666699275
 30
0.0
  0
VERTEX
  5
43B
330
293
100
AcDbEntity
  8
0
  6
CONTINUOUS
 62
     7
100
AcDbVertex
100
AcDb2dVertex
 10
8.1397342562
 20
6.9406674449
 30
0.0
  0
VERTEX
  5
43C
330
293
100
AcDbEntity
  8
0
  6
CONTINUOUS
 62
     7
100
AcDbVertex
100
AcDb2dVertex
 10
8.1226425606
 20
6.9139683289
 30
0.0
  0
VERTEX
  5
43D
330
293
100
AcDbEntity
  8
0
  6
CONTINUOUS
 62
     7
100
AcDbVertex
100
AcDb2dVertex
 10
8.1064190288
 20
6.8866612711
 30
0.0
  0
VERTEX
  5
43E
330
293
100
AcDbEntity
  8
0
  6
CONTINUOUS
 62
     7
100
AcDbVertex
100
AcDb2dVertex
 10
8.0911175538
 20
6.858836983
 30
0.0
  0
VERTEX
  5
43F
330
293
100
AcDbEntity
  8
0
  6
CONTINUOUS
 62
     7
100
AcDbVertex
100
AcDb2dVertex
 10
8.0767889656
 20
6.8305878939
 30
0.0
  0
VERTEX
  5
440
330
293
100
AcDbEntity
  8
0
  6
CONTINUOUS
 62
     7
100
AcDbVertex
100
AcDb2dVertex
 10
8.0634808622
 20
6.8020078445
 30
0.0
  0
VERTEX
  5
441
330
293
100
AcDbEntity
  8
0
  6
CONTINUOUS
 62
     7
100
AcDbVertex
100
AcDb2dVertex
 10
8.0512374519
 20
6.7731917749
 30
0.0
  0
VERTEX
  5
442
330
293
100
AcDbEntity
  8
0
  6
CONTINUOUS
 62
     7
100
AcDbVertex
100
AcDb2dVertex
 10
8.040099406
 20
6.7442354091
 30
0.0
  0
VERTEX
  5
443
330
293
100
AcDbEntity
  8
0
  6
CONTINUOUS
 62
     7
100
AcDbVertex
100
AcDb2dVertex
 10
8.030103724
 20
6.7152349373
 30
0.0
  0
VERTEX
  5
444
330
293
100
AcDbEntity
  8
0
  6
CONTINUOUS
 62
     7
100
AcDbVertex
100
AcDb2dVertex
 10
8.0212836106
 20
6.6862866961
 30
0.0
  0
VERTEX
  5
445
330
293
100
AcDbEntity
  8
0
  6
CONTINUOUS
 62
     7
100
AcDbVertex
100
AcDb2dVertex
 10
8.0136683652
 20
6.6574868487
 30
0.0
  0
VERTEX
  5
446
330
293
100
AcDbEntity
  8
0
  6
CONTINUOUS
 62
     7
100
AcDbVertex
100
AcDb2dVertex
 10
8.007283285
 20
6.6289310653
 30
0.0
  0
VERTEX
  5
447
330
293
100
AcDbEntity
  8
0
  6
CONTINUOUS
 62
     7
100
AcDbVertex
100
AcDb2dVertex
 10
8.0021495806
 20
6.6007142053
 30
0.0
  0
VERTEX
  5
448
330
293
100
AcDbEntity
  8
0
  6
CONTINUOUS
 62
     7
100
AcDbVertex
100
AcDb2dVertex
 10
7.9982843056
 20
6.5729300023
 30
0.0
  0
VERTEX
  5
449
330
293
100
AcDbEntity
  8
0
  6
CONTINUOUS
 62
     7
100
AcDbVertex
100
AcDb2dVertex
 10
7.9957003
 20
6.5456707526
 30
0.0
  0
VERTEX
  5
44A
330
293
100
AcDbEntity
  8
0
  6
CONTINUOUS
 62
     7
100
AcDbVertex
100
AcDb2dVertex
 10
7.9944061477
 20
6.5190270087
 30
0.0
  0
VERTEX
  5
44B
330
293
100
AcDbEntity
  8
0
  6
CONTINUOUS
 62
     7
100
AcDbVertex
100
AcDb2dVertex
 10
7.9944061477
 20
6.4930872785
 30
0.0
  0
VERTEX
  5
44C
330
293
100
AcDbEntity
  8
0
  6
CONTINUOUS
 62
     7
100
AcDbVertex
100
AcDb2dVertex
 10
7.9957003
 20
6.467937731
 30
0.0
  0
VERTEX
  5
44D
330
293
100
AcDbEntity
  8
0
  6
CONTINUOUS
 62
     7
100
AcDbVertex
100
AcDb2dVertex
 10
7.9982843056
 20
6.4436619106
 30
0.0
  0
VERTEX
  5
44E
330
293
100
AcDbEntity
  8
0
  6
CONTINUOUS
 62
     7
100
AcDbVertex
100
AcDb2dVertex
 10
8.0021495806
 20
6.4203404592
 30
0.0
  0
VERTEX
  5
44F
330
293
100
AcDbEntity
  8
0
  6
CONTINUOUS
 62
     7
100
AcDbVertex
100
AcDb2dVertex
 10
8.007283285
 20
6.3980508482
 30
0.0
  0
VERTEX
  5
450
330
293
100
AcDbEntity
  8
0
  6
CONTINUOUS
 62
     7
100
AcDbVertex
100
AcDb2dVertex
 10
8.0136683652
 20
6.3768671214
 30
0.0
  0
VERTEX
  5
451
330
293
100
AcDbEntity
  8
0
  6
CONTINUOUS
 62
     7
100
AcDbVertex
100
AcDb2dVertex
 10
8.0212836106
 20
6.3568596492
 30
0.0
  0
VERTEX
  5
452
330
293
100
AcDbEntity
  8
0
  6
CONTINUOUS
 62
     7
100
AcDbVertex
100
AcDb2dVertex
 10
8.030103724
 20
6.3380948942
 30
0.0
  0
VERTEX
  5
453
330
293
100
AcDbEntity
  8
0
  6
CONTINUOUS
 62
     7
100
AcDbVertex
100
AcDb2dVertex
 10
8.040099406
 20
6.3206351912
 30
0.0
  0
VERTEX
  5
454
330
293
100
AcDbEntity
  8
0
  6
CONTINUOUS
 62
     7
100
AcDbVertex
100
AcDb2dVertex
 10
8.0512374519
 20
6.3045385395
 30
0.0
  0
VERTEX
  5
455
330
293
100
AcDbEntity
  8
0
  6
CONTINUOUS
 62
     7
100
AcDbVertex
100
AcDb2dVertex
 10
8.0634808622
 20
6.2898584105
 30
0.0
  0
VERTEX
  5
456
330
293
100
AcDbEntity
  8
0
  6
CONTINUOUS
 62
     7
100
AcDbVertex
100
AcDb2dVertex
 10
8.0767889656
 20
6.2766435702
 30
0.0
  0
VERTEX
  5
457
330
293
100
AcDbEntity
  8
0
  6
CONTINUOUS
 62
     7
100
AcDbVertex
100
AcDb2dVertex
 10
8.0911175538
 20
6.264937917
 30
0.0
  0
VERTEX
  5
458
330
293
100
AcDbEntity
  8
0
  6
CONTINUOUS
 62
     7
100
AcDbVertex
100
AcDb2dVertex
 10
8.1064190288
 20
6.2547803358
 30
0.0
  0
VERTEX
  5
459
330
293
100
AcDbEntity
  8
0
  6
CONTINUOUS
 62
     7
100
AcDbVertex
100
AcDb2dVertex
 10
8.1084200183
 20
6.253608293
 30
0.0
  0
SEQEND
  5
45A
330
293
100
AcDbEntity
  8
0
  6
CONTINUOUS
 62
     7
  0
POLYLINE
  5
294
330
1F
100
AcDbEntity
  8
0
  6
CONTINUOUS
 62
     7
100
AcDb2dPolyline
 66
     1
 10
0.0
 20
0.0
 30
0.0
  0
VERTEX
  5
45B
330
294
100
AcDbEntity
  8
0
  6
CONTINUOUS
 62
     7
100
AcDbVertex
100
AcDb2dVertex
 10
8.2624232415
 20
6.3493062609
 30
0.0
  0
VERTEX
  5
45C
330
294
100
AcDbEntity
  8
0
  6
CONTINUOUS
 62
     7
100
AcDbVertex
100
AcDb2dVertex
 10
8.2634684179
 20
6.3242631748
 30
0.0
  0
VERTEX
  5
45D
330
294
100
AcDbEntity
  8
0
  6
CONTINUOUS
 62
     7
100
AcDbVertex
100
AcDb2dVertex
 10
8.2657957673
 20
6.3000729357
 30
0.0
  0
VERTEX
  5
45E
330
294
100
AcDbEntity
  8
0
  6
CONTINUOUS
 62
     7
100
AcDbVertex
100
AcDb2dVertex
 10
8.2693975054
 20
6.276816455
 30
0.0
  0
VERTEX
  5
45F
330
294
100
AcDbEntity
  8
0
  6
CONTINUOUS
 62
     7
100
AcDbVertex
100
AcDb2dVertex
 10
8.274261585
 20
6.2545715214
 30
0.0
  0
VERTEX
  5
460
330
294
100
AcDbEntity
  8
0
  6
CONTINUOUS
 62
     7
100
AcDbVertex
100
AcDb2dVertex
 10
8.2803717366
 20
6.2334125398
 30
0.0
  0
VERTEX
  5
461
330
294
100
AcDbEntity
  8
0
  6
CONTINUOUS
 62
     7
100
AcDbVertex
100
AcDb2dVertex
 10
8.287707523
 20
6.2134102829
 30
0.0
  0
VERTEX
  5
462
330
294
100
AcDbEntity
  8
0
  6
CONTINUOUS
 62
     7
100
AcDbVertex
100
AcDb2dVertex
 10
8.2962444074
 20
6.1946316544
 30
0.0
  0
VERTEX
  5
463
330
294
100
AcDbEntity
  8
0
  6
CONTINUOUS
 62
     7
100
AcDbVertex
100
AcDb2dVertex
 10
8.3059538356
 20
6.1771394653
 30
0.0
  0
VERTEX
  5
464
330
294
100
AcDbEntity
  8
0
  6
CONTINUOUS
 62
     7
100
AcDbVertex
100
AcDb2dVertex
 10
8.3168033313
 20
6.1609922236
 30
0.0
  0
VERTEX
  5
465
330
294
100
AcDbEntity
  8
0
  6
CONTINUOUS
 62
     7
100
AcDbVertex
100
AcDb2dVertex
 10
8.3287566052
 20
6.1462439385
 30
0.0
  0
VERTEX
  5
466
330
294
100
AcDbEntity
  8
0
  6
CONTINUOUS
 62
     7
100
AcDbVertex
100
AcDb2dVertex
 10
8.3417736757
 20
6.1329439404
 30
0.0
  0
VERTEX
  5
467
330
294
100
AcDbEntity
  8
0
  6
CONTINUOUS
 62
     7
100
AcDbVertex
100
AcDb2dVertex
 10
8.3558110034
 20
6.1211367152
 30
0.0
  0
VERTEX
  5
468
330
294
100
AcDbEntity
  8
0
  6
CONTINUOUS
 62
     7
100
AcDbVertex
100
AcDb2dVertex
 10
8.370821636
 20
6.1108617557
 30
0.0
  0
VERTEX
  5
469
330
294
100
AcDbEntity
  8
0
  6
CONTINUOUS
 62
     7
100
AcDbVertex
100
AcDb2dVertex
 10
8.386755366
 20
6.1021534298
 30
0.0
  0
VERTEX
  5
46A
330
294
100
AcDbEntity
  8
0
  6
CONTINUOUS
 62
     7
100
AcDbVertex
100
AcDb2dVertex
 10
8.4035588979
 20
6.095040865
 30
0.0
  0
VERTEX
  5
46B
330
294
100
AcDbEntity
  8
0
  6
CONTINUOUS
 62
     7
100
AcDbVertex
100
AcDb2dVertex
 10
8.4211760273
 20
6.0895478516
 30
0.0
  0
VERTEX
  5
46C
330
294
100
AcDbEntity
  8
0
  6
CONTINUOUS
 62
     7
100
AcDbVertex
100
AcDb2dVertex
 10
8.4395478282
 20
6.0856927626
 30
0.0
  0
VERTEX
  5
46D
330
294
100
AcDbEntity
  8
0
  6
CONTINUOUS
 62
     7
100
AcDbVertex
100
AcDb2dVertex
 10
8.4586128506
 20
6.0834884925
 30
0.0
  0
VERTEX
  5
46E
330
294
100
AcDbEntity
  8
0
  6
CONTINUOUS
 62
     7
100
AcDbVertex
100
AcDb2dVertex
 10
8.4783073255
 20
6.0829424143
 30
0.0
  0
VERTEX
  5
46F
330
294
100
AcDbEntity
  8
0
  6
CONTINUOUS
 62
     7
100
AcDbVertex
100
AcDb2dVertex
 10
8.4985653787
 20
6.0840563544
 30
0.0
  0
VERTEX
  5
470
330
294
100
AcDbEntity
  8
0
  6
CONTINUOUS
 62
     7
100
AcDbVertex
100
AcDb2dVertex
 10
8.519319251
 20
6.086826587
 30
0.0
  0
VERTEX
  5
471
330
294
100
AcDbEntity
  8
0
  6
CONTINUOUS
 62
     7
100
AcDbVertex
100
AcDb2dVertex
 10
8.5404995246
 20
6.091243846
 30
0.0
  0
VERTEX
  5
472
330
294
100
AcDbEntity
  8
0
  6
CONTINUOUS
 62
     7
100
AcDbVertex
100
AcDb2dVertex
 10
8.5620353557
 20
6.0972933567
 30
0.0
  0
VERTEX
  5
473
330
294
100
AcDbEntity
  8
0
  6
CONTINUOUS
 62
     7
100
AcDbVertex
100
AcDb2dVertex
 10
8.583854711
 20
6.1049548846
 30
0.0
  0
VERTEX
  5
474
330
294
100
AcDbEntity
  8
0
  6
CONTINUOUS
 62
     7
100
AcDbVertex
100
AcDb2dVertex
 10
8.6058846089
 20
6.1142028034
 30
0.0
  0
VERTEX
  5
475
330
294
100
AcDbEntity
  8
0
  6
CONTINUOUS
 62
     7
100
AcDbVertex
100
AcDb2dVertex
 10
8.6280513637
 20
6.1250061805
 30
0.0
  0
VERTEX
  5
476
330
294
100
AcDbEntity
  8
0
  6
CONTINUOUS
 62
     7
100
AcDbVertex
100
AcDb2dVertex
 10
8.6502808319
 20
6.1373288808
 30
0.0
  0
VERTEX
  5
477
330
294
100
AcDbEntity
  8
0
  6
CONTINUOUS
 62
     7
100
AcDbVertex
100
AcDb2dVertex
 10
8.6724986601
 20
6.1511296872
 30
0.0
  0
VERTEX
  5
478
330
294
100
AcDbEntity
  8
0
  6
CONTINUOUS
 62
     7
100
AcDbVertex
100
AcDb2dVertex
 10
8.6946305341
 20
6.1663624385
 30
0.0
  0
VERTEX
  5
479
330
294
100
AcDbEntity
  8
0
  6
CONTINUOUS
 62
     7
100
AcDbVertex
100
AcDb2dVertex
 10
8.7166024269
 20
6.1829761844
 30
0.0
  0
VERTEX
  5
47A
330
294
100
AcDbEntity
  8
0
  6
CONTINUOUS
 62
     7
100
AcDbVertex
100
AcDb2dVertex
 10
8.7383408469
 20
6.2009153548
 30
0.0
  0
VERTEX
  5
47B
330
294
100
AcDbEntity
  8
0
  6
CONTINUOUS
 62
     7
100
AcDbVertex
100
AcDb2dVertex
 10
8.7597730831
 20
6.2201199468
 30
0.0
  0
VERTEX
  5
47C
330
294
100
AcDbEntity
  8
0
  6
CONTINUOUS
 62
     7
100
AcDbVertex
100
AcDb2dVertex
 10
8.7808274489
 20
6.2405257247
 30
0.0
  0
VERTEX
  5
47D
330
294
100
AcDbEntity
  8
0
  6
CONTINUOUS
 62
     7
100
AcDbVertex
100
AcDb2dVertex
 10
8.8014335214
 20
6.2620644351
 30
0.0
  0
VERTEX
  5
47E
330
294
100
AcDbEntity
  8
0
  6
CONTINUOUS
 62
     7
100
AcDbVertex
100
AcDb2dVertex
 10
8.8215223774
 20
6.2846640352
 30
0.0
  0
VERTEX
  5
47F
330
294
100
AcDbEntity
  8
0
  6
CONTINUOUS
 62
     7
100
AcDbVertex
100
AcDb2dVertex
 10
8.8410268235
 20
6.3082489336
 30
0.0
  0
VERTEX
  5
480
330
294
100
AcDbEntity
  8
0
  6
CONTINUOUS
 62
     7
100
AcDbVertex
100
AcDb2dVertex
 10
8.859881621
 20
6.3327402435
 30
0.0
  0
VERTEX
  5
481
330
294
100
AcDbEntity
  8
0
  6
CONTINUOUS
 62
     7
100
AcDbVertex
100
AcDb2dVertex
 10
8.8780237043
 20
6.358056046
 30
0.0
  0
VERTEX
  5
482
330
294
100
AcDbEntity
  8
0
  6
CONTINUOUS
 62
     7
100
AcDbVertex
100
AcDb2dVertex
 10
8.8953923916
 20
6.3841116647
 30
0.0
  0
VERTEX
  5
483
330
294
100
AcDbEntity
  8
0
  6
CONTINUOUS
 62
     7
100
AcDbVertex
100
AcDb2dVertex
 10
8.911929588
 20
6.4108199486
 30
0.0
  0
VERTEX
  5
484
330
294
100
AcDbEntity
  8
0
  6
CONTINUOUS
 62
     7
100
AcDbVertex
100
AcDb2dVertex
 10
8.9275799798
 20
6.4380915637
 30
0.0
  0
VERTEX
  5
485
330
294
100
AcDbEntity
  8
0
  6
CONTINUOUS
 62
     7
100
AcDbVertex
100
AcDb2dVertex
 10
8.9422912194
 20
6.4658352915
 30
0.0
  0
VERTEX
  5
486
330
294
100
AcDbEntity
  8
0
  6
CONTINUOUS
 62
     7
100
AcDbVertex
100
AcDb2dVertex
 10
8.9560141005
 20
6.4939583347
 30
0.0
  0
VERTEX
  5
487
330
294
100
AcDbEntity
  8
0
  6
CONTINUOUS
 62
     7
100
AcDbVertex
100
AcDb2dVertex
 10
8.9687027228
 20
6.5223666271
 30
0.0
  0
VERTEX
  5
488
330
294
100
AcDbEntity
  8
0
  6
CONTINUOUS
 62
     7
100
AcDbVertex
100
AcDb2dVertex
 10
8.9803146452
 20
6.5509651485
 30
0.0
  0
VERTEX
  5
489
330
294
100
AcDbEntity
  8
0
  6
CONTINUOUS
 62
     7
100
AcDbVertex
100
AcDb2dVertex
 10
8.9908110281
 20
6.5796582423
 30
0.0
  0
VERTEX
  5
48A
330
294
100
AcDbEntity
  8
0
  6
CONTINUOUS
 62
     7
100
AcDbVertex
100
AcDb2dVertex
 10
9.0001567632
 20
6.6083499356
 30
0.0
  0
VERTEX
  5
48B
330
294
100
AcDbEntity
  8
0
  6
CONTINUOUS
 62
     7
100
AcDbVertex
100
AcDb2dVertex
 10
9.0083205907
 20
6.6369442602
 30
0.0
  0
VERTEX
  5
48C
330
294
100
AcDbEntity
  8
0
  6
CONTINUOUS
 62
     7
100
AcDbVertex
100
AcDb2dVertex
 10
9.0152752042
 20
6.6653455736
 30
0.0
  0
VERTEX
  5
48D
330
294
100
AcDbEntity
  8
0
  6
CONTINUOUS
 62
     7
100
AcDbVertex
100
AcDb2dVertex
 10
9.0209973419
 20
6.693458879
 30
0.0
  0
VERTEX
  5
48E
330
294
100
AcDbEntity
  8
0
  6
CONTINUOUS
 62
     7
100
AcDbVertex
100
AcDb2dVertex
 10
9.0254678643
 20
6.7211901426
 30
0.0
  0
VERTEX
  5
48F
330
294
100
AcDbEntity
  8
0
  6
CONTINUOUS
 62
     7
100
AcDbVertex
100
AcDb2dVertex
 10
9.0286718183
 20
6.7484466088
 30
0.0
  0
VERTEX
  5
490
330
294
100
AcDbEntity
  8
0
  6
CONTINUOUS
 62
     7
100
AcDbVertex
100
AcDb2dVertex
 10
9.0305984875
 20
6.77513711
 30
0.0
  0
VERTEX
  5
491
330
294
100
AcDbEntity
  8
0
  6
CONTINUOUS
 62
     7
100
AcDbVertex
100
AcDb2dVertex
 10
9.0312414274
 20
6.8011723714
 30
0.0
  0
VERTEX
  5
492
330
294
100
AcDbEntity
  8
0
  6
CONTINUOUS
 62
     7
100
AcDbVertex
100
AcDb2dVertex
 10
9.0305984875
 20
6.8264653103
 30
0.0
  0
VERTEX
  5
493
330
294
100
AcDbEntity
  8
0
  6
CONTINUOUS
 62
     7
100
AcDbVertex
100
AcDb2dVertex
 10
9.0286718183
 20
6.8509313266
 30
0.0
  0
VERTEX
  5
494
330
294
100
AcDbEntity
  8
0
  6
CONTINUOUS
 62
     7
100
AcDbVertex
100
AcDb2dVertex
 10
9.0254678643
 20
6.8744885862
 30
0.0
  0
VERTEX
  5
495
330
294
100
AcDbEntity
  8
0
  6
CONTINUOUS
 62
     7
100
AcDbVertex
100
AcDb2dVertex
 10
9.0209973419
 20
6.8970582945
 30
0.0
  0
VERTEX
  5
496
330
294
100
AcDbEntity
  8
0
  6
CONTINUOUS
 62
     7
100
AcDbVertex
100
AcDb2dVertex
 10
9.0152752042
 20
6.9185649603
 30
0.0
  0
VERTEX
  5
497
330
294
100
AcDbEntity
  8
0
  6
CONTINUOUS
 62
     7
100
AcDbVertex
100
AcDb2dVertex
 10
9.0083205907
 20
6.9389366479
 30
0.0
  0
VERTEX
  5
498
330
294
100
AcDbEntity
  8
0
  6
CONTINUOUS
 62
     7
100
AcDbVertex
100
AcDb2dVertex
 10
9.0001567632
 20
6.958105218
 30
0.0
  0
VERTEX
  5
499
330
294
100
AcDbEntity
  8
0
  6
CONTINUOUS
 62
     7
100
AcDbVertex
100
AcDb2dVertex
 10
8.9908110281
 20
6.9760065552
 30
0.0
  0
VERTEX
  5
49A
330
294
100
AcDbEntity
  8
0
  6
CONTINUOUS
 62
     7
100
AcDbVertex
100
AcDb2dVertex
 10
8.9803146452
 20
6.9925807832
 30
0.0
  0
VERTEX
  5
49B
330
294
100
AcDbEntity
  8
0
  6
CONTINUOUS
 62
     7
100
AcDbVertex
100
AcDb2dVertex
 10
8.9687027228
 20
7.0077724643
 30
0.0
  0
VERTEX
  5
49C
330
294
100
AcDbEntity
  8
0
  6
CONTINUOUS
 62
     7
100
AcDbVertex
100
AcDb2dVertex
 10
8.9560141005
 20
7.0215307853
 30
0.0
  0
VERTEX
  5
49D
330
294
100
AcDbEntity
  8
0
  6
CONTINUOUS
 62
     7
100
AcDbVertex
100
AcDb2dVertex
 10
8.9422912194
 20
7.0338097272
 30
0.0
  0
VERTEX
  5
49E
330
294
100
AcDbEntity
  8
0
  6
CONTINUOUS
 62
     7
100
AcDbVertex
100
AcDb2dVertex
 10
8.9275799798
 20
7.0445682194
 30
0.0
  0
VERTEX
  5
49F
330
294
100
AcDbEntity
  8
0
  6
CONTINUOUS
 62
     7
100
AcDbVertex
100
AcDb2dVertex
 10
8.911929588
 20
7.0537702767
 30
0.0
  0
VERTEX
  5
4A0
330
294
100
AcDbEntity
  8
0
  6
CONTINUOUS
 62
     7
100
AcDbVertex
100
AcDb2dVertex
 10
8.8953923916
 20
7.0613851201
 30
0.0
  0
VERTEX
  5
4A1
330
294
100
AcDbEntity
  8
0
  6
CONTINUOUS
 62
     7
100
AcDbVertex
100
AcDb2dVertex
 10
8.8780237043
 20
7.0673872793
 30
0.0
  0
VERTEX
  5
4A2
330
294
100
AcDbEntity
  8
0
  6
CONTINUOUS
 62
     7
100
AcDbVertex
100
AcDb2dVertex
 10
8.859881621
 20
7.0717566783
 30
0.0
  0
VERTEX
  5
4A3
330
294
100
AcDbEntity
  8
0
  6
CONTINUOUS
 62
     7
100
AcDbVertex
100
AcDb2dVertex
 10
8.8410268235
 20
7.0744787023
 30
0.0
  0
VERTEX
  5
4A4
330
294
100
AcDbEntity
  8
0
  6
CONTINUOUS
 62
     7
100
AcDbVertex
100
AcDb2dVertex
 10
8.8215223774
 20
7.0755442466
 30
0.0
  0
VERTEX
  5
4A5
330
294
100
AcDbEntity
  8
0
  6
CONTINUOUS
 62
     7
100
AcDbVertex
100
AcDb2dVertex
 10
8.8014335214
 20
7.0749497473
 30
0.0
  0
VERTEX
  5
4A6
330
294
100
AcDbEntity
  8
0
  6
CONTINUOUS
 62
     7
100
AcDbVertex
100
AcDb2dVertex
 10
8.7808274489
 20
7.0726971927
 30
0.0
  0
VERTEX
  5
4A7
330
294
100
AcDbEntity
  8
0
  6
CONTINUOUS
 62
     7
100
AcDbVertex
100
AcDb2dVertex
 10
8.7597730831
 20
7.0687941173
 30
0.0
  0
VERTEX
  5
4A8
330
294
100
AcDbEntity
  8
0
  6
CONTINUOUS
 62
     7
100
AcDbVertex
100
AcDb2dVertex
 10
8.7383408469
 20
7.0632535761
 30
0.0
  0
VERTEX
  5
4A9
330
294
100
AcDbEntity
  8
0
  6
CONTINUOUS
 62
     7
100
AcDbVertex
100
AcDb2dVertex
 10
8.7166024269
 20
7.0560941012
 30
0.0
  0
VERTEX
  5
4AA
330
294
100
AcDbEntity
  8
0
  6
CONTINUOUS
 62
     7
100
AcDbVertex
100
AcDb2dVertex
 10
8.6946305341
 20
7.0473396395
 30
0.0
  0
VERTEX
  5
4AB
330
294
100
AcDbEntity
  8
0
  6
CONTINUOUS
 62
     7
100
AcDbVertex
100
AcDb2dVertex
 10
8.6724986601
 20
7.0370194731
 30
0.0
  0
VERTEX
  5
4AC
330
294
100
AcDbEntity
  8
0
  6
CONTINUOUS
 62
     7
100
AcDbVertex
100
AcDb2dVertex
 10
8.6502808319
 20
7.0251681209
 30
0.0
  0
VERTEX
  5
4AD
330
294
100
AcDbEntity
  8
0
  6
CONTINUOUS
 62
     7
100
AcDbVertex
100
AcDb2dVertex
 10
8.6280513637
 20
7.0118252236
 30
0.0
  0
VERTEX
  5
4AE
330
294
100
AcDbEntity
  8
0
  6
CONTINUOUS
 62
     7
100
AcDbVertex
100
AcDb2dVertex
 10
8.6058846089
 20
6.9970354103
 30
0.0
  0
VERTEX
  5
4AF
330
294
100
AcDbEntity
  8
0
  6
CONTINUOUS
 62
     7
100
AcDbVertex
100
AcDb2dVertex
 10
8.583854711
 20
6.9808481504
 30
0.0
  0
VERTEX
  5
4B0
330
294
100
AcDbEntity
  8
0
  6
CONTINUOUS
 62
     7
100
AcDbVertex
100
AcDb2dVertex
 10
8.5620353557
 20
6.9633175869
 30
0.0
  0
VERTEX
  5
4B1
330
294
100
AcDbEntity
  8
0
  6
CONTINUOUS
 62
     7
100
AcDbVertex
100
AcDb2dVertex
 10
8.5404995246
 20
6.9445023564
 30
0.0
  0
VERTEX
  5
4B2
330
294
100
AcDbEntity
  8
0
  6
CONTINUOUS
 62
     7
100
AcDbVertex
100
AcDb2dVertex
 10
8.519319251
 20
6.924465392
 30
0.0
  0
VERTEX
  5
4B3
330
294
100
AcDbEntity
  8
0
  6
CONTINUOUS
 62
     7
100
AcDbVertex
100
AcDb2dVertex
 10
8.4985653787
 20
6.9032737136
 30
0.0
  0
VERTEX
  5
4B4
330
294
100
AcDbEntity
  8
0
  6
CONTINUOUS
 62
     7
100
AcDbVertex
100
AcDb2dVertex
 10
8.4783073255
 20
6.8809982033
 30
0.0
  0
VERTEX
  5
4B5
330
294
100
AcDbEntity
  8
0
  6
CONTINUOUS
 62
     7
100
AcDbVertex
100
AcDb2dVertex
 10
8.4586128506
 20
6.8577133684
 30
0.0
  0
VERTEX
  5
4B6
330
294
100
AcDbEntity
  8
0
  6
CONTINUOUS
 62
     7
100
AcDbVertex
100
AcDb2dVertex
 10
8.4395478282
 20
6.8334970921
 30
0.0
  0
VERTEX
  5
4B7
330
294
100
AcDbEntity
  8
0
  6
CONTINUOUS
 62
     7
100
AcDbVertex
100
AcDb2dVertex
 10
8.4211760273
 20
6.8084303732
 30
0.0
  0
VERTEX
  5
4B8
330
294
100
AcDbEntity
  8
0
  6
CONTINUOUS
 62
     7
100
AcDbVertex
100
AcDb2dVertex
 10
8.4035588979
 20
6.7825970552
 30
0.0
  0
VERTEX
  5
4B9
330
294
100
AcDbEntity
  8
0
  6
CONTINUOUS
 62
     7
100
AcDbVertex
100
AcDb2dVertex
 10
8.386755366
 20
6.7560835454
 30
0.0
  0
VERTEX
  5
4BA
330
294
100
AcDbEntity
  8
0
  6
CONTINUOUS
 62
     7
100
AcDbVertex
100
AcDb2dVertex
 10
8.370821636
 20
6.7289785265
 30
0.0
  0
VERTEX
  5
4BB
330
294
100
AcDbEntity
  8
0
  6
CONTINUOUS
 62
     7
100
AcDbVertex
100
AcDb2dVertex
 10
8.3558110034
 20
6.7013726594
 30
0.0
  0
VERTEX
  5
4BC
330
294
100
AcDbEntity
  8
0
  6
CONTINUOUS
 62
     7
100
AcDbVertex
100
AcDb2dVertex
 10
8.3417736757
 20
6.6733582806
 30
0.0
  0
VERTEX
  5
4BD
330
294
100
AcDbEntity
  8
0
  6
CONTINUOUS
 62
     7
100
AcDbVertex
100
AcDb2dVertex
 10
8.3287566052
 20
6.6450290928
 30
0.0
  0
VERTEX
  5
4BE
330
294
100
AcDbEntity
  8
0
  6
CONTINUOUS
 62
     7
100
AcDbVertex
100
AcDb2dVertex
 10
8.3168033313
 20
6.6164798515
 30
0.0
  0
VERTEX
  5
4BF
330
294
100
AcDbEntity
  8
0
  6
CONTINUOUS
 62
     7
100
AcDbVertex
100
AcDb2dVertex
 10
8.3059538356
 20
6.5878060486
 30
0.0
  0
VERTEX
  5
4C0
330
294
100
AcDbEntity
  8
0
  6
CONTINUOUS
 62
     7
100
AcDbVertex
100
AcDb2dVertex
 10
8.2962444074
 20
6.5591035924
 30
0.0
  0
VERTEX
  5
4C1
330
294
100
AcDbEntity
  8
0
  6
CONTINUOUS
 62
     7
100
AcDbVertex
100
AcDb2dVertex
 10
8.287707523
 20
6.530468487
 30
0.0
  0
VERTEX
  5
4C2
330
294
100
AcDbEntity
  8
0
  6
CONTINUOUS
 62
     7
100
AcDbVertex
100
AcDb2dVertex
 10
8.2803717366
 20
6.5019965114
 30
0.0
  0
VERTEX
  5
4C3
330
294
100
AcDbEntity
  8
0
  6
CONTINUOUS
 62
     7
100
AcDbVertex
100
AcDb2dVertex
 10
8.274261585
 20
6.4737828989
 30
0.0
  0
VERTEX
  5
4C4
330
294
100
AcDbEntity
  8
0
  6
CONTINUOUS
 62
     7
100
AcDbVertex
100
AcDb2dVertex
 10
8.2693975054
 20
6.4459220185
 30
0.0
  0
VERTEX
  5
4C5
330
294
100
AcDbEntity
  8
0
  6
CONTINUOUS
 62
     7
100
AcDbVertex
100
AcDb2dVertex
 10
8.2657957673
 20
6.4185070596
 30
0.0
  0
VERTEX
  5
4C6
330
294
100
AcDbEntity
  8
0
  6
CONTINUOUS
 62
     7
100
AcDbVertex
100
AcDb2dVertex
 10
8.2634684179
 20
6.3916297199
 30
0.0
  0
VERTEX
  5
4C7
330
294
100
AcDbEntity
  8
0
  6
CONTINUOUS
 62
     7
100
AcDbVertex
100
AcDb2dVertex
 10
8.2624232415
 20
6.3653798989
 30
0.0
  0
SEQEND
  5
4C8
330
294
100
AcDbEntity
  8
0
  6
CONTINUOUS
 62
     7
  0
LINE
  5
295
330
1F
100
AcDbEntity
  8
0
  6
CONTINUOUS
 62
     7
100
AcDbLine
 10
8.2518157823
 20
6.3653794039
 30
0.0
 11
8.2624232415
 21
6.3653798989
 31
0.0
  0
POLYLINE
  5
296
330
1F
100
AcDbEntity
  8
0
  6
CONTINUOUS
 62
     7
100
AcDb2dPolyline
 66
     1
 10
0.0
 20
0.0
 30
0.0
  0
VERTEX
  5
4C9
330
296
100
AcDbEntity
  8
0
  6
CONTINUOUS
 62
     7
100
AcDbVertex
100
AcDb2dVertex
 10
8.2518157823
 20
6.3653794039
 30
0.0
  0
VERTEX
  5
4CA
330
296
100
AcDbEntity
  8
0
  6
CONTINUOUS
 62
     7
100
AcDbVertex
100
AcDb2dVertex
 10
8.2528543748
 20
6.3917433902
 30
0.0
  0
VERTEX
  5
4CB
330
296
100
AcDbEntity
  8
0
  6
CONTINUOUS
 62
     7
100
AcDbVertex
100
AcDb2dVertex
 10
8.2551693689
 20
6.4187332158
 30
0.0
  0
VERTEX
  5
4CC
330
296
100
AcDbEntity
  8
0
  6
CONTINUOUS
 62
     7
100
AcDbVertex
100
AcDb2dVertex
 10
8.2587531617
 20
6.4462602392
 30
0.0
  0
VERTEX
  5
4CD
330
296
100
AcDbEntity
  8
0
  6
CONTINUOUS
 62
     7
100
AcDbVertex
100
AcDb2dVertex
 10
8.2635939831
 20
6.4742340549
 30
0.0
  0
VERTEX
  5
4CE
330
296
100
AcDbEntity
  8
0
  6
CONTINUOUS
 62
     7
100
AcDbVertex
100
AcDb2dVertex
 10
8.2696759346
 20
6.5025627898
 30
0.0
  0
VERTEX
  5
4CF
330
296
100
AcDbEntity
  8
0
  6
CONTINUOUS
 62
     7
100
AcDbVertex
100
AcDb2dVertex
 10
8.2769790416
 20
6.5311534052
 30
0.0
  0
VERTEX
  5
4D0
330
296
100
AcDbEntity
  8
0
  6
CONTINUOUS
 62
     7
100
AcDbVertex
100
AcDb2dVertex
 10
8.2854793188
 20
6.5599120024
 30
0.0
  0
VERTEX
  5
4D1
330
296
100
AcDbEntity
  8
0
  6
CONTINUOUS
 62
     7
100
AcDbVertex
100
AcDb2dVertex
 10
8.2951488492
 20
6.5887441309
 30
0.0
  0
VERTEX
  5
4D2
330
296
100
AcDbEntity
  8
0
  6
CONTINUOUS
 62
     7
100
AcDbVertex
100
AcDb2dVertex
 10
8.3059558756
 20
6.6175550987
 30
0.0
  0
VERTEX
  5
4D3
330
296
100
AcDbEntity
  8
0
  6
CONTINUOUS
 62
     7
100
AcDbVertex
100
AcDb2dVertex
 10
8.317864905
 20
6.6462502835
 30
0.0
  0
VERTEX
  5
4D4
330
296
100
AcDbEntity
  8
0
  6
CONTINUOUS
 62
     7
100
AcDbVertex
100
AcDb2dVertex
 10
8.3308368253
 20
6.6747354431
 30
0.0
  0
VERTEX
  5
4D5
330
296
100
AcDbEntity
  8
0
  6
CONTINUOUS
 62
     7
100
AcDbVertex
100
AcDb2dVertex
 10
8.3448290332
 20
6.7029170249
 30
0.0
  0
VERTEX
  5
4D6
330
296
100
AcDbEntity
  8
0
  6
CONTINUOUS
 62
     7
100
AcDbVertex
100
AcDb2dVertex
 10
8.359795575
 20
6.7307024737
 30
0.0
  0
VERTEX
  5
4D7
330
296
100
AcDbEntity
  8
0
  6
CONTINUOUS
 62
     7
100
AcDbVertex
100
AcDb2dVertex
 10
8.3756872967
 20
6.758000535
 30
0.0
  0
VERTEX
  5
4D8
330
296
100
AcDbEntity
  8
0
  6
CONTINUOUS
 62
     7
100
AcDbVertex
100
AcDb2dVertex
 10
8.392452006
 20
6.7847215552
 30
0.0
  0
VERTEX
  5
4D9
330
296
100
AcDbEntity
  8
0
  6
CONTINUOUS
 62
     7
100
AcDbVertex
100
AcDb2dVertex
 10
8.4100346433
 20
6.8107777757
 30
0.0
  0
VERTEX
  5
4DA
330
296
100
AcDbEntity
  8
0
  6
CONTINUOUS
 62
     7
100
AcDbVertex
100
AcDb2dVertex
 10
8.4283774628
 20
6.8360836214
 30
0.0
  0
VERTEX
  5
4DB
330
296
100
AcDbEntity
  8
0
  6
CONTINUOUS
 62
     7
100
AcDbVertex
100
AcDb2dVertex
 10
8.4474202221
 20
6.8605559814
 30
0.0
  0
VERTEX
  5
4DC
330
296
100
AcDbEntity
  8
0
  6
CONTINUOUS
 62
     7
100
AcDbVertex
100
AcDb2dVertex
 10
8.4671003801
 20
6.8841144825
 30
0.0
  0
VERTEX
  5
4DD
330
296
100
AcDbEntity
  8
0
  6
CONTINUOUS
 62
     7
100
AcDbVertex
100
AcDb2dVertex
 10
8.487353302
 20
6.9066817525
 30
0.0
  0
VERTEX
  5
4DE
330
296
100
AcDbEntity
  8
0
  6
CONTINUOUS
 62
     7
100
AcDbVertex
100
AcDb2dVertex
 10
8.5081124723
 20
6.928183675
 30
0.0
  0
VERTEX
  5
4DF
330
296
100
AcDbEntity
  8
0
  6
CONTINUOUS
 62
     7
100
AcDbVertex
100
AcDb2dVertex
 10
8.5293097127
 20
6.9485496322
 30
0.0
  0
VERTEX
  5
4E0
330
296
100
AcDbEntity
  8
0
  6
CONTINUOUS
 62
     7
100
AcDbVertex
100
AcDb2dVertex
 10
8.550875406
 20
6.9677127371
 30
0.0
  0
VERTEX
  5
4E1
330
296
100
AcDbEntity
  8
0
  6
CONTINUOUS
 62
     7
100
AcDbVertex
100
AcDb2dVertex
 10
8.572738725
 20
6.9856100534
 30
0.0
  0
VERTEX
  5
4E2
330
296
100
AcDbEntity
  8
0
  6
CONTINUOUS
 62
     7
100
AcDbVertex
100
AcDb2dVertex
 10
8.5948278653
 20
7.0021828018
 30
0.0
  0
VERTEX
  5
4E3
330
296
100
AcDbEntity
  8
0
  6
CONTINUOUS
 62
     7
100
AcDbVertex
100
AcDb2dVertex
 10
8.6170702805
 20
7.0173765532
 30
0.0
  0
VERTEX
  5
4E4
330
296
100
AcDbEntity
  8
0
  6
CONTINUOUS
 62
     7
100
AcDbVertex
100
AcDb2dVertex
 10
8.6393929209
 20
7.0311414074
 30
0.0
  0
VERTEX
  5
4E5
330
296
100
AcDbEntity
  8
0
  6
CONTINUOUS
 62
     7
100
AcDbVertex
100
AcDb2dVertex
 10
8.6617224734
 20
7.0434321573
 30
0.0
  0
VERTEX
  5
4E6
330
296
100
AcDbEntity
  8
0
  6
CONTINUOUS
 62
     7
100
AcDbVertex
100
AcDb2dVertex
 10
8.6839856021
 20
7.054208437
 30
0.0
  0
VERTEX
  5
4E7
330
296
100
AcDbEntity
  8
0
  6
CONTINUOUS
 62
     7
100
AcDbVertex
100
AcDb2dVertex
 10
8.7061091893
 20
7.0634348544
 30
0.0
  0
VERTEX
  5
4E8
330
296
100
AcDbEntity
  8
0
  6
CONTINUOUS
 62
     7
100
AcDbVertex
100
AcDb2dVertex
 10
8.7280205756
 20
7.0710811077
 30
0.0
  0
VERTEX
  5
4E9
330
296
100
AcDbEntity
  8
0
  6
CONTINUOUS
 62
     7
100
AcDbVertex
100
AcDb2dVertex
 10
8.7496477985
 20
7.0771220847
 30
0.0
  0
VERTEX
  5
4EA
330
296
100
AcDbEntity
  8
0
  6
CONTINUOUS
 62
     7
100
AcDbVertex
100
AcDb2dVertex
 10
8.7709198288
 20
7.0815379453
 30
0.0
  0
VERTEX
  5
4EB
330
296
100
AcDbEntity
  8
0
  6
CONTINUOUS
 62
     7
100
AcDbVertex
100
AcDb2dVertex
 10
8.7917668038
 20
7.0843141866
 30
0.0
  0
VERTEX
  5
4EC
330
296
100
AcDbEntity
  8
0
  6
CONTINUOUS
 62
     7
100
AcDbVertex
100
AcDb2dVertex
 10
8.8121202568
 20
7.0854416908
 30
0.0
  0
VERTEX
  5
4ED
330
296
100
AcDbEntity
  8
0
  6
CONTINUOUS
 62
     7
100
AcDbVertex
100
AcDb2dVertex
 10
8.8319133419
 20
7.084916755
 30
0.0
  0
VERTEX
  5
4EE
330
296
100
AcDbEntity
  8
0
  6
CONTINUOUS
 62
     7
100
AcDbVertex
100
AcDb2dVertex
 10
8.8510810537
 20
7.082741103
 30
0.0
  0
VERTEX
  5
4EF
330
296
100
AcDbEntity
  8
0
  6
CONTINUOUS
 62
     7
100
AcDbVertex
100
AcDb2dVertex
 10
8.8695604406
 20
7.0789218804
 30
0.0
  0
VERTEX
  5
4F0
330
296
100
AcDbEntity
  8
0
  6
CONTINUOUS
 62
     7
100
AcDbVertex
100
AcDb2dVertex
 10
8.8872908116
 20
7.0734716304
 30
0.0
  0
VERTEX
  5
4F1
330
296
100
AcDbEntity
  8
0
  6
CONTINUOUS
 62
     7
100
AcDbVertex
100
AcDb2dVertex
 10
8.9042139359
 20
7.0664082529
 30
0.0
  0
VERTEX
  5
4F2
330
296
100
AcDbEntity
  8
0
  6
CONTINUOUS
 62
     7
100
AcDbVertex
100
AcDb2dVertex
 10
8.9202742335
 20
7.057754946
 30
0.0
  0
VERTEX
  5
4F3
330
296
100
AcDbEntity
  8
0
  6
CONTINUOUS
 62
     7
100
AcDbVertex
100
AcDb2dVertex
 10
8.9354189584
 20
7.0475401292
 30
0.0
  0
VERTEX
  5
4F4
330
296
100
AcDbEntity
  8
0
  6
CONTINUOUS
 62
     7
100
AcDbVertex
100
AcDb2dVertex
 10
8.9495983716
 20
7.0357973505
 30
0.0
  0
VERTEX
  5
4F5
330
296
100
AcDbEntity
  8
0
  6
CONTINUOUS
 62
     7
100
AcDbVertex
100
AcDb2dVertex
 10
8.9627659043
 20
7.0225651762
 30
0.0
  0
VERTEX
  5
4F6
330
296
100
AcDbEntity
  8
0
  6
CONTINUOUS
 62
     7
100
AcDbVertex
100
AcDb2dVertex
 10
8.9748783111
 20
7.007887064
 30
0.0
  0
VERTEX
  5
4F7
330
296
100
AcDbEntity
  8
0
  6
CONTINUOUS
 62
     7
100
AcDbVertex
100
AcDb2dVertex
 10
8.9858958116
 20
6.9918112207
 30
0.0
  0
VERTEX
  5
4F8
330
296
100
AcDbEntity
  8
0
  6
CONTINUOUS
 62
     7
100
AcDbVertex
100
AcDb2dVertex
 10
8.9957822218
 20
6.9743904432
 30
0.0
  0
VERTEX
  5
4F9
330
296
100
AcDbEntity
  8
0
  6
CONTINUOUS
 62
     7
100
AcDbVertex
100
AcDb2dVertex
 10
9.0045050721
 20
6.9556819457
 30
0.0
  0
VERTEX
  5
4FA
330
296
100
AcDbEntity
  8
0
  6
CONTINUOUS
 62
     7
100
AcDbVertex
100
AcDb2dVertex
 10
9.0120357145
 20
6.9357471718
 30
0.0
  0
VERTEX
  5
4FB
330
296
100
AcDbEntity
  8
0
  6
CONTINUOUS
 62
     7
100
AcDbVertex
100
AcDb2dVertex
 10
9.0183494165
 20
6.9146515921
 30
0.0
  0
VERTEX
  5
4FC
330
296
100
AcDbEntity
  8
0
  6
CONTINUOUS
 62
     7
100
AcDbVertex
100
AcDb2dVertex
 10
9.0234254423
 20
6.8924644899
 30
0.0
  0
VERTEX
  5
4FD
330
296
100
AcDbEntity
  8
0
  6
CONTINUOUS
 62
     7
100
AcDbVertex
100
AcDb2dVertex
 10
9.027247121
 20
6.8692587332
 30
0.0
  0
VERTEX
  5
4FE
330
296
100
AcDbEntity
  8
0
  6
CONTINUOUS
 62
     7
100
AcDbVertex
100
AcDb2dVertex
 10
9.0298019012
 20
6.8451105354
 30
0.0
  0
VERTEX
  5
4FF
330
296
100
AcDbEntity
  8
0
  6
CONTINUOUS
 62
     7
100
AcDbVertex
100
AcDb2dVertex
 10
9.0310813924
 20
6.8200992055
 30
0.0
  0
VERTEX
  5
500
330
296
100
AcDbEntity
  8
0
  6
CONTINUOUS
 62
     7
100
AcDbVertex
100
AcDb2dVertex
 10
9.0312414274
 20
6.8072954323
 30
0.0
  0
SEQEND
  5
501
330
296
100
AcDbEntity
  8
0
  6
CONTINUOUS
 62
     7
  0
POLYLINE
  5
297
330
1F
100
AcDbEntity
  8
0
  6
CONTINUOUS
 62
     7
100
AcDb2dPolyline
 66
     1
 10
0.0
 20
0.0
 30
0.0
  0
VERTEX
  5
502
330
297
100
AcDbEntity
  8
0
  6
CONTINUOUS
 62
     7
100
AcDbVertex
100
AcDb2dVertex
 10
8.6415608766
 20
6.1322757798
 30
0.0
  0
VERTEX
  5
503
330
297
100
AcDbEntity
  8
0
  6
CONTINUOUS
 62
     7
100
AcDbVertex
100
AcDb2dVertex
 10
8.6393929209
 20
6.1310308016
 30
0.0
  0
VERTEX
  5
504
330
297
100
AcDbEntity
  8
0
  6
CONTINUOUS
 62
     7
100
AcDbVertex
100
AcDb2dVertex
 10
8.6170702805
 20
6.1190224838
 30
0.0
  0
VERTEX
  5
505
330
297
100
AcDbEntity
  8
0
  6
CONTINUOUS
 62
     7
100
AcDbVertex
100
AcDb2dVertex
 10
8.5948278653
 20
6.1085356893
 30
0.0
  0
VERTEX
  5
506
330
297
100
AcDbEntity
  8
0
  6
CONTINUOUS
 62
     7
100
AcDbVertex
100
AcDb2dVertex
 10
8.572738725
 20
6.0996048591
 30
0.0
  0
VERTEX
  5
507
330
297
100
AcDbEntity
  8
0
  6
CONTINUOUS
 62
     7
100
AcDbVertex
100
AcDb2dVertex
 10
8.550875406
 20
6.0922593245
 30
0.0
  0
VERTEX
  5
508
330
297
100
AcDbEntity
  8
0
  6
CONTINUOUS
 62
     7
100
AcDbVertex
100
AcDb2dVertex
 10
8.5293097127
 20
6.08652321
 30
0.0
  0
VERTEX
  5
509
330
297
100
AcDbEntity
  8
0
  6
CONTINUOUS
 62
     7
100
AcDbVertex
100
AcDb2dVertex
 10
8.5081124723
 20
6.0824153544
 30
0.0
  0
VERTEX
  5
50A
330
297
100
AcDbEntity
  8
0
  6
CONTINUOUS
 62
     7
100
AcDbVertex
100
AcDb2dVertex
 10
8.487353302
 20
6.079949249
 30
0.0
  0
VERTEX
  5
50B
330
297
100
AcDbEntity
  8
0
  6
CONTINUOUS
 62
     7
100
AcDbVertex
100
AcDb2dVertex
 10
8.4671003801
 20
6.0791329931
 30
0.0
  0
VERTEX
  5
50C
330
297
100
AcDbEntity
  8
0
  6
CONTINUOUS
 62
     7
100
AcDbVertex
100
AcDb2dVertex
 10
8.4474202221
 20
6.0799692675
 30
0.0
  0
VERTEX
  5
50D
330
297
100
AcDbEntity
  8
0
  6
CONTINUOUS
 62
     7
100
AcDbVertex
100
AcDb2dVertex
 10
8.4283774628
 20
6.0824553256
 30
0.0
  0
VERTEX
  5
50E
330
297
100
AcDbEntity
  8
0
  6
CONTINUOUS
 62
     7
100
AcDbVertex
100
AcDb2dVertex
 10
8.4100346433
 20
6.0865830026
 30
0.0
  0
VERTEX
  5
50F
330
297
100
AcDbEntity
  8
0
  6
CONTINUOUS
 62
     7
100
AcDbVertex
100
AcDb2dVertex
 10
8.392452006
 20
6.0923387422
 30
0.0
  0
VERTEX
  5
510
330
297
100
AcDbEntity
  8
0
  6
CONTINUOUS
 62
     7
100
AcDbVertex
100
AcDb2dVertex
 10
8.3756872967
 20
6.0997036411
 30
0.0
  0
VERTEX
  5
511
330
297
100
AcDbEntity
  8
0
  6
CONTINUOUS
 62
     7
100
AcDbVertex
100
AcDb2dVertex
 10
8.359795575
 20
6.108653511
 30
0.0
  0
VERTEX
  5
512
330
297
100
AcDbEntity
  8
0
  6
CONTINUOUS
 62
     7
100
AcDbVertex
100
AcDb2dVertex
 10
8.3448290332
 20
6.1191589585
 30
0.0
  0
VERTEX
  5
513
330
297
100
AcDbEntity
  8
0
  6
CONTINUOUS
 62
     7
100
AcDbVertex
100
AcDb2dVertex
 10
8.3308368253
 20
6.1311854809
 30
0.0
  0
VERTEX
  5
514
330
297
100
AcDbEntity
  8
0
  6
CONTINUOUS
 62
     7
100
AcDbVertex
100
AcDb2dVertex
 10
8.317864905
 20
6.1446935801
 30
0.0
  0
VERTEX
  5
515
330
297
100
AcDbEntity
  8
0
  6
CONTINUOUS
 62
     7
100
AcDbVertex
100
AcDb2dVertex
 10
8.3059558756
 20
6.1596388922
 30
0.0
  0
VERTEX
  5
516
330
297
100
AcDbEntity
  8
0
  6
CONTINUOUS
 62
     7
100
AcDbVertex
100
AcDb2dVertex
 10
8.2951488492
 20
6.175972333
 30
0.0
  0
VERTEX
  5
517
330
297
100
AcDbEntity
  8
0
  6
CONTINUOUS
 62
     7
100
AcDbVertex
100
AcDb2dVertex
 10
8.2854793188
 20
6.1936402594
 30
0.0
  0
VERTEX
  5
518
330
297
100
AcDbEntity
  8
0
  6
CONTINUOUS
 62
     7
100
AcDbVertex
100
AcDb2dVertex
 10
8.2769790416
 20
6.2125846454
 30
0.0
  0
VERTEX
  5
519
330
297
100
AcDbEntity
  8
0
  6
CONTINUOUS
 62
     7
100
AcDbVertex
100
AcDb2dVertex
 10
8.2696759346
 20
6.232743273
 30
0.0
  0
VERTEX
  5
51A
330
297
100
AcDbEntity
  8
0
  6
CONTINUOUS
 62
     7
100
AcDbVertex
100
AcDb2dVertex
 10
8.2635939831
 20
6.2540499361
 30
0.0
  0
VERTEX
  5
51B
330
297
100
AcDbEntity
  8
0
  6
CONTINUOUS
 62
     7
100
AcDbVertex
100
AcDb2dVertex
 10
8.2587531617
 20
6.2764346584
 30
0.0
  0
VERTEX
  5
51C
330
297
100
AcDbEntity
  8
0
  6
CONTINUOUS
 62
     7
100
AcDbVertex
100
AcDb2dVertex
 10
8.2551693689
 20
6.2998239227
 30
0.0
  0
VERTEX
  5
51D
330
297
100
AcDbEntity
  8
0
  6
CONTINUOUS
 62
     7
100
AcDbVertex
100
AcDb2dVertex
 10
8.2528543748
 20
6.3241409129
 30
0.0
  0
VERTEX
  5
51E
330
297
100
AcDbEntity
  8
0
  6
CONTINUOUS
 62
     7
100
AcDbVertex
100
AcDb2dVertex
 10
8.2518157823
 20
6.3493057659
 30
0.0
  0
SEQEND
  5
51F
330
297
100
AcDbEntity
  8
0
  6
CONTINUOUS
 62
     7
  0
LINE
  5
298
330
1F
100
AcDbEntity
  8
0
  6
CONTINUOUS
 62
     7
100
AcDbLine
 10
8.2518157823
 20
6.3493057659
 30
0.0
 11
8.2624232415
 21
6.3493062609
 31
0.0
  0
SPLINE
  5
299
330
1F
100
AcDbEntity
  8
0
  6
CONTINUOUS
 62
     7
100
AcDbSpline
210
0.0
220
0.0
230
1.0
 70
     8
 71
     3
 72
    31
 73
    27
 74
     0
 42
0.00000001
 43
0.00000001
 40
0.0
 40
0.0
 40
0.0
 40
0.0
 40
0.0543109124603539
 40
0.1088078356145522
 40
0.1631502206561497
 40
0.218383033253442
 40
0.2737993710454206
 40
0.3289028089159358
 40
0.3774740665289837
 40
0.4259947230007988
 40
0.4669817818406093
 40
0.5079367573379819
 40
0.5491638004867663
 40
0.5903654808604062
 40
0.626750194698924
 40
0.6631284064071087
 40
0.697136448918639
 40
0.7311454770349641
 40
0.764670989480625
 40
0.7982029752754056
 40
0.8324938694953959
 40
0.8667978345629536
 40
0.9034101940991923
 40
0.9400431054116652
 40
0.9813924608349401
 40
1.0
 40
1.0
 40
1.0
 40
1.0
 10
8.250544261108013
 20
6.649688700565023
 30
0.0
 10
8.25764951823343
 20
6.655626845244506
 30
0.0
 10
8.271884367442896
 20
6.667523472291831
 30
0.0
 10
8.292404048429454
 20
6.688477754621812
 30
0.0
 10
8.31241921358297
 20
6.711220576002996
 30
0.0
 10
8.331807171107988
 20
6.735716031042356
 30
0.0
 10
8.35003286530792
 20
6.761809201236545
 30
0.0
 10
8.365772920941454
 20
6.788097703257968
 30
0.0
 10
8.378514851640078
 20
6.814040978166663
 30
0.0
 10
8.387398241192482
 20
6.837965522826835
 30
0.0
 10
8.392627439385631
 20
6.860413326654109
 30
0.0
 10
8.39438276918986
 20
6.881072306515702
 30
0.0
 10
8.392283447131856
 20
6.900617390769155
 30
0.0
 10
8.386442251862194
 20
6.917815759515931
 30
0.0
 10
8.377149853702264
 20
6.932186287148586
 30
0.0
 10
8.365532382965121
 20
6.943491911706995
 30
0.0
 10
8.35158909582137
 20
6.952062256560399
 30
0.0
 10
8.336101119115423
 20
6.957927591938815
 30
0.0
 10
8.319171508569209
 20
6.961038348974158
 30
0.0
 10
8.301272380811598
 20
6.96145929161438
 30
0.0
 10
8.282807296405526
 20
6.959011639714352
 30
0.0
 10
8.263923448468873
 20
6.953712409445597
 30
0.0
 10
8.24525899108738
 20
6.945479813921798
 30
0.0
 10
8.226664236056282
 20
6.933935075583027
 30
0.0
 10
8.212022892659256
 20
6.922413416420967
 30
0.0
 10
8.204281370467278
 20
6.913879645284442
 30
0.0
 10
8.201878799780896
 20
6.911231201235783
 30
0.0
  0
LINE
  5
29A
330
1F
100
AcDbEntity
  8
0
  6
CONTINUOUS
 62
     7
100
AcDbLine
 10
8.1382770093
 20
6.7366430191
 30
0.0
 11
8.1387500934
 21
6.7142260998
 31
0.0
  0
SPLINE
  5
29B
330
1F
100
AcDbEntity
  8
0
  6
CONTINUOUS
 62
     7
100
AcDbSpline
210
0.0
220
0.0
230
1.0
 70
     8
 71
     3
 72
    15
 73
    11
 74
     0
 42
0.00000001
 43
0.00000001
 40
0.0
 40
0.0
 40
0.0
 40
0.0
 40
0.1200266549766943
 40
0.1936400375933998
 40
0.2693619683169246
 40
0.3814001427466062
 40
0.496442460892541
 40
0.6695066878595111
 40
0.8474052223829106
 40
1.0
 40
1.0
 40
1.0
 40
1.0
 10
8.210113486088934
 20
6.204964798132289
 30
0.0
 10
8.214153810021974
 20
6.20251567663449
 30
0.0
 10
8.220672099467226
 20
6.198564487800669
 30
0.0
 10
8.230592077602212
 20
6.191786771099599
 30
0.0
 10
8.240160539282904
 20
6.185040884377591
 30
0.0
 10
8.251080939338921
 20
6.17713081897611
 30
0.0
 10
8.264966009674989
 20
6.167035773197229
 30
0.0
 10
8.280279011075422
 20
6.156151408956114
 30
0.0
 10
8.295815798329956
 20
6.14567275238768
 30
0.0
 10
8.304824020147317
 20
6.14035325997536
 30
0.0
 10
8.308983280121575
 20
6.137897153507011
 30
0.0
  0
SPLINE
  5
29C
330
1F
100
AcDbEntity
  8
0
  6
CONTINUOUS
 62
     7
100
AcDbSpline
210
0.0
220
0.0
230
1.0
 70
     8
 71
     3
 72
    13
 73
     9
 74
     0
 42
0.00000001
 43
0.00000001
 40
0.0
 40
0.0
 40
0.0
 40
0.0
 40
0.0560288303661643
 40
0.3051983171535195
 40
0.4643063119768037
 40
0.626646832810804
 40
0.8704116621750478
 40
0.9999999999999999
 40
0.9999999999999999
 40
0.9999999999999999
 40
0.9999999999999999
 10
8.18723498949457
 20
6.211853292067655
 30
0.0
 10
8.187178420022033
 20
6.212016330159304
 30
0.0
 10
8.186870276737443
 20
6.212904425642974
 30
0.0
 10
8.188235819915262
 20
6.213448190806519
 30
0.0
 10
8.191125089906047
 20
6.213341823044447
 30
0.0
 10
8.195655122049
 20
6.212146709611497
 30
0.0
 10
8.202031229035033
 20
6.20948039080359
 30
0.0
 10
8.208031004832074
 20
6.206128289597468
 30
0.0
 10
8.210113486088934
 20
6.204964798132289
 30
0.0
  0
POLYLINE
  5
29D
330
1F
100
AcDbEntity
  8
0
  6
CONTINUOUS
 62
     7
100
AcDb2dPolyline
 66
     1
 10
0.0
 20
0.0
 30
0.0
  0
VERTEX
  5
520
330
29D
100
AcDbEntity
  8
0
  6
CONTINUOUS
 62
     7
100
AcDbVertex
100
AcDb2dVertex
 10
8.0314248893
 20
6.4765347203
 30
0.0
  0
VERTEX
  5
521
330
29D
100
AcDbEntity
  8
0
  6
CONTINUOUS
 62
     7
100
AcDbVertex
100
AcDb2dVertex
 10
8.0324912161
 20
6.4509633057
 30
0.0
  0
VERTEX
  5
522
330
29D
100
AcDbEntity
  8
0
  6
CONTINUOUS
 62
     7
100
AcDbVertex
100
AcDb2dVertex
 10
8.0348761215
 20
6.4262692122
 30
0.0
  0
VERTEX
  5
523
330
29D
100
AcDbEntity
  8
0
  6
CONTINUOUS
 62
     7
100
AcDbVertex
100
AcDb2dVertex
 10
8.0385715135
 20
6.4025362274
 30
0.0
  0
VERTEX
  5
524
330
29D
100
AcDbEntity
  8
0
  6
CONTINUOUS
 62
     7
100
AcDbVertex
100
AcDb2dVertex
 10
8.0435648535
 20
6.3798448776
 30
0.0
  0
VERTEX
  5
525
330
29D
100
AcDbEntity
  8
0
  6
CONTINUOUS
 62
     7
100
AcDbVertex
100
AcDb2dVertex
 10
8.049839199
 20
6.3582721549
 30
0.0
  0
VERTEX
  5
526
330
29D
100
AcDbEntity
  8
0
  6
CONTINUOUS
 62
     7
100
AcDbVertex
100
AcDb2dVertex
 10
8.0573732611
 20
6.3378912561
 30
0.0
  0
VERTEX
  5
527
330
29D
100
AcDbEntity
  8
0
  6
CONTINUOUS
 62
     7
100
AcDbVertex
100
AcDb2dVertex
 10
8.0661414765
 20
6.3187713337
 30
0.0
  0
VERTEX
  5
528
330
29D
100
AcDbEntity
  8
0
  6
CONTINUOUS
 62
     7
100
AcDbVertex
100
AcDb2dVertex
 10
8.0761140947
 20
6.3009772621
 30
0.0
  0
VERTEX
  5
529
330
29D
100
AcDbEntity
  8
0
  6
CONTINUOUS
 62
     7
100
AcDbVertex
100
AcDb2dVertex
 10
8.0872572783
 20
6.2845694167
 30
0.0
  0
VERTEX
  5
52A
330
29D
100
AcDbEntity
  8
0
  6
CONTINUOUS
 62
     7
100
AcDbVertex
100
AcDb2dVertex
 10
8.0995332183
 20
6.2696034698
 30
0.0
  0
VERTEX
  5
52B
330
29D
100
AcDbEntity
  8
0
  6
CONTINUOUS
 62
     7
100
AcDbVertex
100
AcDb2dVertex
 10
8.1129002622
 20
6.2561302009
 30
0.0
  0
VERTEX
  5
52C
330
29D
100
AcDbEntity
  8
0
  6
CONTINUOUS
 62
     7
100
AcDbVertex
100
AcDb2dVertex
 10
8.1273130555
 20
6.2441953252
 30
0.0
  0
VERTEX
  5
52D
330
29D
100
AcDbEntity
  8
0
  6
CONTINUOUS
 62
     7
100
AcDbVertex
100
AcDb2dVertex
 10
8.1427226953
 20
6.2338393378
 30
0.0
  0
VERTEX
  5
52E
330
29D
100
AcDbEntity
  8
0
  6
CONTINUOUS
 62
     7
100
AcDbVertex
100
AcDb2dVertex
 10
8.1455384845
 20
6.2321802585
 30
0.0
  0
SEQEND
  5
52F
330
29D
100
AcDbEntity
  8
0
  6
CONTINUOUS
 62
     7
  0
LINE
  5
29E
330
1F
100
AcDbEntity
  8
0
  6
CONTINUOUS
 62
     7
100
AcDbLine
 10
8.2518157823
 20
6.3493057659
 30
0.0
 11
8.0314248893
 21
6.4765347203
 31
0.0
  0
LINE
  5
29F
330
1F
100
AcDbEntity
  8
0
  6
CONTINUOUS
 62
     7
100
AcDbLine
 10
8.2518157823
 20
6.3653794039
 30
0.0
 11
8.0314248893
 21
6.4926083584
 31
0.0
  0
POLYLINE
  5
2A0
330
1F
100
AcDbEntity
  8
0
  6
CONTINUOUS
 62
     7
100
AcDb2dPolyline
 66
     1
 10
0.0
 20
0.0
 30
0.0
  0
VERTEX
  5
530
330
2A0
100
AcDbEntity
  8
0
  6
CONTINUOUS
 62
     7
100
AcDbVertex
100
AcDb2dVertex
 10
8.6229382991
 20
7.2110580861
 30
0.0
  0
VERTEX
  5
531
330
2A0
100
AcDbEntity
  8
0
  6
CONTINUOUS
 62
     7
100
AcDbVertex
100
AcDb2dVertex
 10
8.6031829481
 20
7.2125707322
 30
0.0
  0
VERTEX
  5
532
330
2A0
100
AcDbEntity
  8
0
  6
CONTINUOUS
 62
     7
100
AcDbVertex
100
AcDb2dVertex
 10
8.5828098092
 20
7.2123765528
 30
0.0
  0
VERTEX
  5
533
330
2A0
100
AcDbEntity
  8
0
  6
CONTINUOUS
 62
     7
100
AcDbVertex
100
AcDb2dVertex
 10
8.5618880087
 20
7.2104762068
 30
0.0
  0
VERTEX
  5
534
330
2A0
100
AcDbEntity
  8
0
  6
CONTINUOUS
 62
     7
100
AcDbVertex
100
AcDb2dVertex
 10
8.5404885347
 20
7.2068761422
 30
0.0
  0
VERTEX
  5
535
330
2A0
100
AcDbEntity
  8
0
  6
CONTINUOUS
 62
     7
100
AcDbVertex
100
AcDb2dVertex
 10
8.518683996
 20
7.2015885739
 30
0.0
  0
VERTEX
  5
536
330
2A0
100
AcDbEntity
  8
0
  6
CONTINUOUS
 62
     7
100
AcDbVertex
100
AcDb2dVertex
 10
8.4965483756
 20
7.1946314428
 30
0.0
  0
VERTEX
  5
537
330
2A0
100
AcDbEntity
  8
0
  6
CONTINUOUS
 62
     7
100
AcDbVertex
100
AcDb2dVertex
 10
8.4741567802
 20
7.1860283545
 30
0.0
  0
VERTEX
  5
538
330
2A0
100
AcDbEntity
  8
0
  6
CONTINUOUS
 62
     7
100
AcDbVertex
100
AcDb2dVertex
 10
8.4515851848
 20
7.1758084996
 30
0.0
  0
VERTEX
  5
539
330
2A0
100
AcDbEntity
  8
0
  6
CONTINUOUS
 62
     7
100
AcDbVertex
100
AcDb2dVertex
 10
8.4289101752
 20
7.164006554
 30
0.0
  0
VERTEX
  5
53A
330
2A0
100
AcDbEntity
  8
0
  6
CONTINUOUS
 62
     7
100
AcDbVertex
100
AcDb2dVertex
 10
8.4062086881
 20
7.150662562
 30
0.0
  0
VERTEX
  5
53B
330
2A0
100
AcDbEntity
  8
0
  6
CONTINUOUS
 62
     7
100
AcDbVertex
100
AcDb2dVertex
 10
8.3835577499
 20
7.1358218001
 30
0.0
  0
VERTEX
  5
53C
330
2A0
100
AcDbEntity
  8
0
  6
CONTINUOUS
 62
     7
100
AcDbVertex
100
AcDb2dVertex
 10
8.3610342158
 20
7.119534623
 30
0.0
  0
VERTEX
  5
53D
330
2A0
100
AcDbEntity
  8
0
  6
CONTINUOUS
 62
     7
100
AcDbVertex
100
AcDb2dVertex
 10
8.3387145083
 20
7.1018562936
 30
0.0
  0
VERTEX
  5
53E
330
2A0
100
AcDbEntity
  8
0
  6
CONTINUOUS
 62
     7
100
AcDbVertex
100
AcDb2dVertex
 10
8.3166743588
 20
7.0828467947
 30
0.0
  0
VERTEX
  5
53F
330
2A0
100
AcDbEntity
  8
0
  6
CONTINUOUS
 62
     7
100
AcDbVertex
100
AcDb2dVertex
 10
8.2949885497
 20
7.0625706257
 30
0.0
  0
VERTEX
  5
540
330
2A0
100
AcDbEntity
  8
0
  6
CONTINUOUS
 62
     7
100
AcDbVertex
100
AcDb2dVertex
 10
8.2737306614
 20
7.0410965842
 30
0.0
  0
VERTEX
  5
541
330
2A0
100
AcDbEntity
  8
0
  6
CONTINUOUS
 62
     7
100
AcDbVertex
100
AcDb2dVertex
 10
8.2529728222
 20
7.0184975318
 30
0.0
  0
VERTEX
  5
542
330
2A0
100
AcDbEntity
  8
0
  6
CONTINUOUS
 62
     7
100
AcDbVertex
100
AcDb2dVertex
 10
8.2327854638
 20
6.9948501476
 30
0.0
  0
VERTEX
  5
543
330
2A0
100
AcDbEntity
  8
0
  6
CONTINUOUS
 62
     7
100
AcDbVertex
100
AcDb2dVertex
 10
8.2132370823
 20
6.9702346674
 30
0.0
  0
VERTEX
  5
544
330
2A0
100
AcDbEntity
  8
0
  6
CONTINUOUS
 62
     7
100
AcDbVertex
100
AcDb2dVertex
 10
8.1943940057
 20
6.9447346121
 30
0.0
  0
VERTEX
  5
545
330
2A0
100
AcDbEntity
  8
0
  6
CONTINUOUS
 62
     7
100
AcDbVertex
100
AcDb2dVertex
 10
8.1763201687
 20
6.9184365037
 30
0.0
  0
VERTEX
  5
546
330
2A0
100
AcDbEntity
  8
0
  6
CONTINUOUS
 62
     7
100
AcDbVertex
100
AcDb2dVertex
 10
8.1590768964
 20
6.8914295722
 30
0.0
  0
VERTEX
  5
547
330
2A0
100
AcDbEntity
  8
0
  6
CONTINUOUS
 62
     7
100
AcDbVertex
100
AcDb2dVertex
 10
8.152917976
 20
6.8812735879
 30
0.0
  0
SEQEND
  5
548
330
2A0
100
AcDbEntity
  8
0
  6
CONTINUOUS
 62
     7
  0
ARC
  5
2A1
330
1F
100
AcDbEntity
  8
0
  6
CONTINUOUS
 62
     7
100
AcDbCircle
 10
8.8258780393
 20
6.4564692148
 30
0.0
 40
0.7952746979966749
100
AcDbArc
 50
149.57285062
 51
177.395448756
  0
LINE
  5
2A2
330
1F
100
AcDbEntity
  8
0
  6
CONTINUOUS
 62
     7
100
AcDbLine
 10
8.604379066
 20
7.2217721033
 30
0.0
 11
8.6229382991
 21
7.2110580861
 31
0.0
  0
POLYLINE
  5
2A3
330
1F
100
AcDbEntity
  8
0
  6
CONTINUOUS
 62
     7
100
AcDb2dPolyline
 66
     1
 10
0.0
 20
0.0
 30
0.0
  0
VERTEX
  5
549
330
2A3
100
AcDbEntity
  8
0
  6
CONTINUOUS
 62
     7
100
AcDbVertex
100
AcDb2dVertex
 10
8.1364151046
 20
6.2378079063
 30
0.0
  0
VERTEX
  5
54A
330
2A3
100
AcDbEntity
  8
0
  6
CONTINUOUS
 62
     7
100
AcDbVertex
100
AcDb2dVertex
 10
8.1261077146
 20
6.2434005953
 30
0.0
  0
VERTEX
  5
54B
330
2A3
100
AcDbEntity
  8
0
  6
CONTINUOUS
 62
     7
100
AcDbVertex
100
AcDb2dVertex
 10
8.1106597961
 20
6.2535035258
 30
0.0
  0
VERTEX
  5
54C
330
2A3
100
AcDbEntity
  8
0
  6
CONTINUOUS
 62
     7
100
AcDbVertex
100
AcDb2dVertex
 10
8.096191789
 20
6.2651733757
 30
0.0
  0
VERTEX
  5
54D
330
2A3
100
AcDbEntity
  8
0
  6
CONTINUOUS
 62
     7
100
AcDbVertex
100
AcDb2dVertex
 10
8.0827522647
 20
6.2783709676
 30
0.0
  0
VERTEX
  5
54E
330
2A3
100
AcDbEntity
  8
0
  6
CONTINUOUS
 62
     7
100
AcDbVertex
100
AcDb2dVertex
 10
8.0703863418
 20
6.2930519951
 30
0.0
  0
VERTEX
  5
54F
330
2A3
100
AcDbEntity
  8
0
  6
CONTINUOUS
 62
     7
100
AcDbVertex
100
AcDb2dVertex
 10
8.0591355344
 20
6.3091671717
 30
0.0
  0
VERTEX
  5
550
330
2A3
100
AcDbEntity
  8
0
  6
CONTINUOUS
 62
     7
100
AcDbVertex
100
AcDb2dVertex
 10
8.0490376132
 20
6.3266623964
 30
0.0
  0
VERTEX
  5
551
330
2A3
100
AcDbEntity
  8
0
  6
CONTINUOUS
 62
     7
100
AcDbVertex
100
AcDb2dVertex
 10
8.0401264787
 20
6.3454789351
 30
0.0
  0
VERTEX
  5
552
330
2A3
100
AcDbEntity
  8
0
  6
CONTINUOUS
 62
     7
100
AcDbVertex
100
AcDb2dVertex
 10
8.0324320467
 20
6.3655536176
 30
0.0
  0
VERTEX
  5
553
330
2A3
100
AcDbEntity
  8
0
  6
CONTINUOUS
 62
     7
100
AcDbVertex
100
AcDb2dVertex
 10
8.0259801487
 20
6.3868190502
 30
0.0
  0
VERTEX
  5
554
330
2A3
100
AcDbEntity
  8
0
  6
CONTINUOUS
 62
     7
100
AcDbVertex
100
AcDb2dVertex
 10
8.0207924447
 20
6.4092038416
 30
0.0
  0
VERTEX
  5
555
330
2A3
100
AcDbEntity
  8
0
  6
CONTINUOUS
 62
     7
100
AcDbVertex
100
AcDb2dVertex
 10
8.0168863506
 20
6.4326328427
 30
0.0
  0
VERTEX
  5
556
330
2A3
100
AcDbEntity
  8
0
  6
CONTINUOUS
 62
     7
100
AcDbVertex
100
AcDb2dVertex
 10
8.0142749798
 20
6.4570273986
 30
0.0
  0
VERTEX
  5
557
330
2A3
100
AcDbEntity
  8
0
  6
CONTINUOUS
 62
     7
100
AcDbVertex
100
AcDb2dVertex
 10
8.012967099
 20
6.4823056131
 30
0.0
  0
VERTEX
  5
558
330
2A3
100
AcDbEntity
  8
0
  6
CONTINUOUS
 62
     7
100
AcDbVertex
100
AcDb2dVertex
 10
8.012967099
 20
6.5083826234
 30
0.0
  0
VERTEX
  5
559
330
2A3
100
AcDbEntity
  8
0
  6
CONTINUOUS
 62
     7
100
AcDbVertex
100
AcDb2dVertex
 10
8.0142749798
 20
6.535170885
 30
0.0
  0
VERTEX
  5
55A
330
2A3
100
AcDbEntity
  8
0
  6
CONTINUOUS
 62
     7
100
AcDbVertex
100
AcDb2dVertex
 10
8.0168863506
 20
6.5625804655
 30
0.0
  0
VERTEX
  5
55B
330
2A3
100
AcDbEntity
  8
0
  6
CONTINUOUS
 62
     7
100
AcDbVertex
100
AcDb2dVertex
 10
8.0207924447
 20
6.5905193468
 30
0.0
  0
VERTEX
  5
55C
330
2A3
100
AcDbEntity
  8
0
  6
CONTINUOUS
 62
     7
100
AcDbVertex
100
AcDb2dVertex
 10
8.0259801487
 20
6.6188937337
 30
0.0
  0
VERTEX
  5
55D
330
2A3
100
AcDbEntity
  8
0
  6
CONTINUOUS
 62
     7
100
AcDbVertex
100
AcDb2dVertex
 10
8.0324320467
 20
6.6476083692
 30
0.0
  0
VERTEX
  5
55E
330
2A3
100
AcDbEntity
  8
0
  6
CONTINUOUS
 62
     7
100
AcDbVertex
100
AcDb2dVertex
 10
8.0401264787
 20
6.6765668538
 30
0.0
  0
VERTEX
  5
55F
330
2A3
100
AcDbEntity
  8
0
  6
CONTINUOUS
 62
     7
100
AcDbVertex
100
AcDb2dVertex
 10
8.0490376132
 20
6.7056719694
 30
0.0
  0
VERTEX
  5
560
330
2A3
100
AcDbEntity
  8
0
  6
CONTINUOUS
 62
     7
100
AcDbVertex
100
AcDb2dVertex
 10
8.0591355344
 20
6.7348260057
 30
0.0
  0
VERTEX
  5
561
330
2A3
100
AcDbEntity
  8
0
  6
CONTINUOUS
 62
     7
100
AcDbVertex
100
AcDb2dVertex
 10
8.0703863418
 20
6.7639310881
 30
0.0
  0
VERTEX
  5
562
330
2A3
100
AcDbEntity
  8
0
  6
CONTINUOUS
 62
     7
100
AcDbVertex
100
AcDb2dVertex
 10
8.0827522647
 20
6.7928895063
 30
0.0
  0
VERTEX
  5
563
330
2A3
100
AcDbEntity
  8
0
  6
CONTINUOUS
 62
     7
100
AcDbVertex
100
AcDb2dVertex
 10
8.096191789
 20
6.8216040427
 30
0.0
  0
VERTEX
  5
564
330
2A3
100
AcDbEntity
  8
0
  6
CONTINUOUS
 62
     7
100
AcDbVertex
100
AcDb2dVertex
 10
8.1106597961
 20
6.8499782979
 30
0.0
  0
VERTEX
  5
565
330
2A3
100
AcDbEntity
  8
0
  6
CONTINUOUS
 62
     7
100
AcDbVertex
100
AcDb2dVertex
 10
8.1261077146
 20
6.8779170154
 30
0.0
  0
VERTEX
  5
566
330
2A3
100
AcDbEntity
  8
0
  6
CONTINUOUS
 62
     7
100
AcDbVertex
100
AcDb2dVertex
 10
8.1424836834
 20
6.9053264006
 30
0.0
  0
VERTEX
  5
567
330
2A3
100
AcDbEntity
  8
0
  6
CONTINUOUS
 62
     7
100
AcDbVertex
100
AcDb2dVertex
 10
8.1597327261
 20
6.9321144359
 30
0.0
  0
VERTEX
  5
568
330
2A3
100
AcDbEntity
  8
0
  6
CONTINUOUS
 62
     7
100
AcDbVertex
100
AcDb2dVertex
 10
8.1777969349
 20
6.9581911899
 30
0.0
  0
VERTEX
  5
569
330
2A3
100
AcDbEntity
  8
0
  6
CONTINUOUS
 62
     7
100
AcDbVertex
100
AcDb2dVertex
 10
8.1966156654
 20
6.9834691188
 30
0.0
  0
VERTEX
  5
56A
330
2A3
100
AcDbEntity
  8
0
  6
CONTINUOUS
 62
     7
100
AcDbVertex
100
AcDb2dVertex
 10
8.2161257403
 20
7.0078633608
 30
0.0
  0
VERTEX
  5
56B
330
2A3
100
AcDbEntity
  8
0
  6
CONTINUOUS
 62
     7
100
AcDbVertex
100
AcDb2dVertex
 10
8.2362616614
 20
7.0312920206
 30
0.0
  0
VERTEX
  5
56C
330
2A3
100
AcDbEntity
  8
0
  6
CONTINUOUS
 62
     7
100
AcDbVertex
100
AcDb2dVertex
 10
8.2569558291
 20
7.0536764447
 30
0.0
  0
VERTEX
  5
56D
330
2A3
100
AcDbEntity
  8
0
  6
CONTINUOUS
 62
     7
100
AcDbVertex
100
AcDb2dVertex
 10
8.2781387701
 20
7.0749414852
 30
0.0
  0
VERTEX
  5
56E
330
2A3
100
AcDbEntity
  8
0
  6
CONTINUOUS
 62
     7
100
AcDbVertex
100
AcDb2dVertex
 10
8.29973937
 20
7.095015752
 30
0.0
  0
VERTEX
  5
56F
330
2A3
100
AcDbEntity
  8
0
  6
CONTINUOUS
 62
     7
100
AcDbVertex
100
AcDb2dVertex
 10
8.3216851122
 20
7.1138318527
 30
0.0
  0
VERTEX
  5
570
330
2A3
100
AcDbEntity
  8
0
  6
CONTINUOUS
 62
     7
100
AcDbVertex
100
AcDb2dVertex
 10
8.3439023215
 20
7.1313266188
 30
0.0
  0
VERTEX
  5
571
330
2A3
100
AcDbEntity
  8
0
  6
CONTINUOUS
 62
     7
100
AcDbVertex
100
AcDb2dVertex
 10
8.3663164113
 20
7.1474413177
 30
0.0
  0
VERTEX
  5
572
330
2A3
100
AcDbEntity
  8
0
  6
CONTINUOUS
 62
     7
100
AcDbVertex
100
AcDb2dVertex
 10
8.3888521341
 20
7.1621218499
 30
0.0
  0
VERTEX
  5
573
330
2A3
100
AcDbEntity
  8
0
  6
CONTINUOUS
 62
     7
100
AcDbVertex
100
AcDb2dVertex
 10
8.4114338341
 20
7.1753189306
 30
0.0
  0
VERTEX
  5
574
330
2A3
100
AcDbEntity
  8
0
  6
CONTINUOUS
 62
     7
100
AcDbVertex
100
AcDb2dVertex
 10
8.433985701
 20
7.1869882552
 30
0.0
  0
VERTEX
  5
575
330
2A3
100
AcDbEntity
  8
0
  6
CONTINUOUS
 62
     7
100
AcDbVertex
100
AcDb2dVertex
 10
8.4564320247
 20
7.1970906479
 30
0.0
  0
VERTEX
  5
576
330
2A3
100
AcDbEntity
  8
0
  6
CONTINUOUS
 62
     7
100
AcDbVertex
100
AcDb2dVertex
 10
8.4786974494
 20
7.2055921934
 30
0.0
  0
VERTEX
  5
577
330
2A3
100
AcDbEntity
  8
0
  6
CONTINUOUS
 62
     7
100
AcDbVertex
100
AcDb2dVertex
 10
8.5007072268
 20
7.2124643509
 30
0.0
  0
VERTEX
  5
578
330
2A3
100
AcDbEntity
  8
0
  6
CONTINUOUS
 62
     7
100
AcDbVertex
100
AcDb2dVertex
 10
8.5223874667
 20
7.2176840493
 30
0.0
  0
VERTEX
  5
579
330
2A3
100
AcDbEntity
  8
0
  6
CONTINUOUS
 62
     7
100
AcDbVertex
100
AcDb2dVertex
 10
8.5436653851
 20
7.2212337654
 30
0.0
  0
VERTEX
  5
57A
330
2A3
100
AcDbEntity
  8
0
  6
CONTINUOUS
 62
     7
100
AcDbVertex
100
AcDb2dVertex
 10
8.5644695488
 20
7.2231015822
 30
0.0
  0
VERTEX
  5
57B
330
2A3
100
AcDbEntity
  8
0
  6
CONTINUOUS
 62
     7
100
AcDbVertex
100
AcDb2dVertex
 10
8.584730115
 20
7.2232812292
 30
0.0
  0
VERTEX
  5
57C
330
2A3
100
AcDbEntity
  8
0
  6
CONTINUOUS
 62
     7
100
AcDbVertex
100
AcDb2dVertex
 10
8.604379066
 20
7.2217721033
 30
0.0
  0
SEQEND
  5
57D
330
2A3
100
AcDbEntity
  8
0
  6
CONTINUOUS
 62
     7
  0
LINE
  5
2A4
330
1F
100
AcDbEntity
  8
0
  6
CONTINUOUS
 62
     7
100
AcDbLine
 10
9.0116892753
 20
6.7979219733
 30
0.0
 11
9.0116892753
 21
6.7818483353
 31
0.0
  0
LINE
  5
2A5
330
1F
100
AcDbEntity
  8
0
  6
CONTINUOUS
 62
     7
100
AcDbLine
 10
9.0116892753
 20
6.7979219733
 30
0.0
 11
8.7911306779
 21
6.6705962053
 31
0.0
  0
POLYLINE
  5
2A6
330
1F
100
AcDbEntity
  8
0
  6
CONTINUOUS
 62
     7
100
AcDb2dPolyline
 66
     1
 10
0.0
 20
0.0
 30
0.0
  0
VERTEX
  5
57E
330
2A6
100
AcDbEntity
  8
0
  6
CONTINUOUS
 62
     7
100
AcDbVertex
100
AcDb2dVertex
 10
8.5024709883
 20
6.5039565135
 30
0.0
  0
VERTEX
  5
57F
330
2A6
100
AcDbEntity
  8
0
  6
CONTINUOUS
 62
     7
100
AcDbVertex
100
AcDb2dVertex
 10
8.5037853346
 20
6.520515538
 30
0.0
  0
VERTEX
  5
580
330
2A6
100
AcDbEntity
  8
0
  6
CONTINUOUS
 62
     7
100
AcDbVertex
100
AcDb2dVertex
 10
8.5063938598
 20
6.537605969
 30
0.0
  0
VERTEX
  5
581
330
2A6
100
AcDbEntity
  8
0
  6
CONTINUOUS
 62
     7
100
AcDbVertex
100
AcDb2dVertex
 10
8.5102729587
 20
6.5550731515
 30
0.0
  0
VERTEX
  5
582
330
2A6
100
AcDbEntity
  8
0
  6
CONTINUOUS
 62
     7
100
AcDbVertex
100
AcDb2dVertex
 10
8.5153875285
 20
6.5727590209
 30
0.0
  0
VERTEX
  5
583
330
2A6
100
AcDbEntity
  8
0
  6
CONTINUOUS
 62
     7
100
AcDbVertex
100
AcDb2dVertex
 10
8.5216912863
 20
6.5905035339
 30
0.0
  0
VERTEX
  5
584
330
2A6
100
AcDbEntity
  8
0
  6
CONTINUOUS
 62
     7
100
AcDbVertex
100
AcDb2dVertex
 10
8.5291271881
 20
6.6081461166
 30
0.0
  0
VERTEX
  5
585
330
2A6
100
AcDbEntity
  8
0
  6
CONTINUOUS
 62
     7
100
AcDbVertex
100
AcDb2dVertex
 10
8.5376279447
 20
6.6255271173
 30
0.0
  0
VERTEX
  5
586
330
2A6
100
AcDbEntity
  8
0
  6
CONTINUOUS
 62
     7
100
AcDbVertex
100
AcDb2dVertex
 10
8.547116631
 20
6.6424892515
 30
0.0
  0
VERTEX
  5
587
330
2A6
100
AcDbEntity
  8
0
  6
CONTINUOUS
 62
     7
100
AcDbVertex
100
AcDb2dVertex
 10
8.5575073815
 20
6.6588790251
 30
0.0
  0
VERTEX
  5
588
330
2A6
100
AcDbEntity
  8
0
  6
CONTINUOUS
 62
     7
100
AcDbVertex
100
AcDb2dVertex
 10
8.5687061683
 20
6.6745481234
 30
0.0
  0
VERTEX
  5
589
330
2A6
100
AcDbEntity
  8
0
  6
CONTINUOUS
 62
     7
100
AcDbVertex
100
AcDb2dVertex
 10
8.5806116509
 20
6.6893547532
 30
0.0
  0
VERTEX
  5
58A
330
2A6
100
AcDbEntity
  8
0
  6
CONTINUOUS
 62
     7
100
AcDbVertex
100
AcDb2dVertex
 10
8.5931160941
 20
6.7031649262
 30
0.0
  0
VERTEX
  5
58B
330
2A6
100
AcDbEntity
  8
0
  6
CONTINUOUS
 62
     7
100
AcDbVertex
100
AcDb2dVertex
 10
8.6061063424
 20
6.7158536709
 30
0.0
  0
VERTEX
  5
58C
330
2A6
100
AcDbEntity
  8
0
  6
CONTINUOUS
 62
     7
100
AcDbVertex
100
AcDb2dVertex
 10
8.619464844
 20
6.7273061642
 30
0.0
  0
VERTEX
  5
58D
330
2A6
100
AcDbEntity
  8
0
  6
CONTINUOUS
 62
     7
100
AcDbVertex
100
AcDb2dVertex
 10
8.6330707151
 20
6.7374187699
 30
0.0
  0
VERTEX
  5
58E
330
2A6
100
AcDbEntity
  8
0
  6
CONTINUOUS
 62
     7
100
AcDbVertex
100
AcDb2dVertex
 10
8.6468008331
 20
6.7460999767
 30
0.0
  0
VERTEX
  5
58F
330
2A6
100
AcDbEntity
  8
0
  6
CONTINUOUS
 62
     7
100
AcDbVertex
100
AcDb2dVertex
 10
8.6605309511
 20
6.7532712266
 30
0.0
  0
VERTEX
  5
590
330
2A6
100
AcDbEntity
  8
0
  6
CONTINUOUS
 62
     7
100
AcDbVertex
100
AcDb2dVertex
 10
8.6741368222
 20
6.7588676253
 30
0.0
  0
VERTEX
  5
591
330
2A6
100
AcDbEntity
  8
0
  6
CONTINUOUS
 62
     7
100
AcDbVertex
100
AcDb2dVertex
 10
8.6874953238
 20
6.7628385298
 30
0.0
  0
VERTEX
  5
592
330
2A6
100
AcDbEntity
  8
0
  6
CONTINUOUS
 62
     7
100
AcDbVertex
100
AcDb2dVertex
 10
8.7004855721
 20
6.7651480065
 30
0.0
  0
VERTEX
  5
593
330
2A6
100
AcDbEntity
  8
0
  6
CONTINUOUS
 62
     7
100
AcDbVertex
100
AcDb2dVertex
 10
8.7129900153
 20
6.7657751563
 30
0.0
  0
VERTEX
  5
594
330
2A6
100
AcDbEntity
  8
0
  6
CONTINUOUS
 62
     7
100
AcDbVertex
100
AcDb2dVertex
 10
8.7248954979
 20
6.7647143041
 30
0.0
  0
VERTEX
  5
595
330
2A6
100
AcDbEntity
  8
0
  6
CONTINUOUS
 62
     7
100
AcDbVertex
100
AcDb2dVertex
 10
8.7360942847
 20
6.7619750498
 30
0.0
  0
VERTEX
  5
596
330
2A6
100
AcDbEntity
  8
0
  6
CONTINUOUS
 62
     7
100
AcDbVertex
100
AcDb2dVertex
 10
8.7464850353
 20
6.7575821815
 30
0.0
  0
VERTEX
  5
597
330
2A6
100
AcDbEntity
  8
0
  6
CONTINUOUS
 62
     7
100
AcDbVertex
100
AcDb2dVertex
 10
8.7559737215
 20
6.7515754512
 30
0.0
  0
VERTEX
  5
598
330
2A6
100
AcDbEntity
  8
0
  6
CONTINUOUS
 62
     7
100
AcDbVertex
100
AcDb2dVertex
 10
8.7644744781
 20
6.7440092152
 30
0.0
  0
VERTEX
  5
599
330
2A6
100
AcDbEntity
  8
0
  6
CONTINUOUS
 62
     7
100
AcDbVertex
100
AcDb2dVertex
 10
8.7719103799
 20
6.734951942
 30
0.0
  0
VERTEX
  5
59A
330
2A6
100
AcDbEntity
  8
0
  6
CONTINUOUS
 62
     7
100
AcDbVertex
100
AcDb2dVertex
 10
8.7782141377
 20
6.7244855928
 30
0.0
  0
VERTEX
  5
59B
330
2A6
100
AcDbEntity
  8
0
  6
CONTINUOUS
 62
     7
100
AcDbVertex
100
AcDb2dVertex
 10
8.7833287075
 20
6.71270488
 30
0.0
  0
VERTEX
  5
59C
330
2A6
100
AcDbEntity
  8
0
  6
CONTINUOUS
 62
     7
100
AcDbVertex
100
AcDb2dVertex
 10
8.7872078064
 20
6.6997164098
 30
0.0
  0
VERTEX
  5
59D
330
2A6
100
AcDbEntity
  8
0
  6
CONTINUOUS
 62
     7
100
AcDbVertex
100
AcDb2dVertex
 10
8.7898163316
 20
6.6856377179
 30
0.0
  0
VERTEX
  5
59E
330
2A6
100
AcDbEntity
  8
0
  6
CONTINUOUS
 62
     7
100
AcDbVertex
100
AcDb2dVertex
 10
8.7911306779
 20
6.6705962053
 30
0.0
  0
SEQEND
  5
59F
330
2A6
100
AcDbEntity
  8
0
  6
CONTINUOUS
 62
     7
  0
LINE
  5
2A7
330
1F
100
AcDbEntity
  8
0
  6
CONTINUOUS
 62
     7
100
AcDbLine
 10
8.2624232415
 20
6.3653798989
 30
0.0
 11
8.5024709883
 21
6.5039565135
 31
0.0
  0
LINE
  5
2A8
330
1F
100
AcDbEntity
  8
0
  6
CONTINUOUS
 62
     7
100
AcDbLine
 10
8.2624232415
 20
6.3493062609
 30
0.0
 11
8.5024709883
 21
6.4878828754
 31
0.0
  0
POLYLINE
  5
2A9
330
1F
100
AcDbEntity
  8
0
  6
CONTINUOUS
 62
     7
100
AcDb2dPolyline
 66
     1
 10
0.0
 20
0.0
 30
0.0
  0
VERTEX
  5
5A0
330
2A9
100
AcDbEntity
  8
0
  6
CONTINUOUS
 62
     7
100
AcDbVertex
100
AcDb2dVertex
 10
8.7911306779
 20
6.6545225672
 30
0.0
  0
VERTEX
  5
5A1
330
2A9
100
AcDbEntity
  8
0
  6
CONTINUOUS
 62
     7
100
AcDbVertex
100
AcDb2dVertex
 10
8.7898163316
 20
6.6379635427
 30
0.0
  0
VERTEX
  5
5A2
330
2A9
100
AcDbEntity
  8
0
  6
CONTINUOUS
 62
     7
100
AcDbVertex
100
AcDb2dVertex
 10
8.7872078064
 20
6.6208731116
 30
0.0
  0
VERTEX
  5
5A3
330
2A9
100
AcDbEntity
  8
0
  6
CONTINUOUS
 62
     7
100
AcDbVertex
100
AcDb2dVertex
 10
8.7833287075
 20
6.6034059292
 30
0.0
  0
VERTEX
  5
5A4
330
2A9
100
AcDbEntity
  8
0
  6
CONTINUOUS
 62
     7
100
AcDbVertex
100
AcDb2dVertex
 10
8.7782141377
 20
6.5857200598
 30
0.0
  0
VERTEX
  5
5A5
330
2A9
100
AcDbEntity
  8
0
  6
CONTINUOUS
 62
     7
100
AcDbVertex
100
AcDb2dVertex
 10
8.7719103799
 20
6.5679755467
 30
0.0
  0
VERTEX
  5
5A6
330
2A9
100
AcDbEntity
  8
0
  6
CONTINUOUS
 62
     7
100
AcDbVertex
100
AcDb2dVertex
 10
8.7644744781
 20
6.550332964
 30
0.0
  0
VERTEX
  5
5A7
330
2A9
100
AcDbEntity
  8
0
  6
CONTINUOUS
 62
     7
100
AcDbVertex
100
AcDb2dVertex
 10
8.7559737215
 20
6.5329519633
 30
0.0
  0
VERTEX
  5
5A8
330
2A9
100
AcDbEntity
  8
0
  6
CONTINUOUS
 62
     7
100
AcDbVertex
100
AcDb2dVertex
 10
8.7464850353
 20
6.5159898292
 30
0.0
  0
VERTEX
  5
5A9
330
2A9
100
AcDbEntity
  8
0
  6
CONTINUOUS
 62
     7
100
AcDbVertex
100
AcDb2dVertex
 10
8.7360942847
 20
6.4996000556
 30
0.0
  0
VERTEX
  5
5AA
330
2A9
100
AcDbEntity
  8
0
  6
CONTINUOUS
 62
     7
100
AcDbVertex
100
AcDb2dVertex
 10
8.7248954979
 20
6.4839309573
 30
0.0
  0
VERTEX
  5
5AB
330
2A9
100
AcDbEntity
  8
0
  6
CONTINUOUS
 62
     7
100
AcDbVertex
100
AcDb2dVertex
 10
8.7129900153
 20
6.4691243275
 30
0.0
  0
VERTEX
  5
5AC
330
2A9
100
AcDbEntity
  8
0
  6
CONTINUOUS
 62
     7
100
AcDbVertex
100
AcDb2dVertex
 10
8.7004855721
 20
6.4553141545
 30
0.0
  0
VERTEX
  5
5AD
330
2A9
100
AcDbEntity
  8
0
  6
CONTINUOUS
 62
     7
100
AcDbVertex
100
AcDb2dVertex
 10
8.6874953238
 20
6.4426254098
 30
0.0
  0
VERTEX
  5
5AE
330
2A9
100
AcDbEntity
  8
0
  6
CONTINUOUS
 62
     7
100
AcDbVertex
100
AcDb2dVertex
 10
8.6741368222
 20
6.4311729165
 30
0.0
  0
VERTEX
  5
5AF
330
2A9
100
AcDbEntity
  8
0
  6
CONTINUOUS
 62
     7
100
AcDbVertex
100
AcDb2dVertex
 10
8.6605309511
 20
6.4210603108
 30
0.0
  0
VERTEX
  5
5B0
330
2A9
100
AcDbEntity
  8
0
  6
CONTINUOUS
 62
     7
100
AcDbVertex
100
AcDb2dVertex
 10
8.6468008331
 20
6.412379104
 30
0.0
  0
VERTEX
  5
5B1
330
2A9
100
AcDbEntity
  8
0
  6
CONTINUOUS
 62
     7
100
AcDbVertex
100
AcDb2dVertex
 10
8.6330707151
 20
6.4052078541
 30
0.0
  0
VERTEX
  5
5B2
330
2A9
100
AcDbEntity
  8
0
  6
CONTINUOUS
 62
     7
100
AcDbVertex
100
AcDb2dVertex
 10
8.619464844
 20
6.3996114553
 30
0.0
  0
VERTEX
  5
5B3
330
2A9
100
AcDbEntity
  8
0
  6
CONTINUOUS
 62
     7
100
AcDbVertex
100
AcDb2dVertex
 10
8.6061063424
 20
6.3956405509
 30
0.0
  0
VERTEX
  5
5B4
330
2A9
100
AcDbEntity
  8
0
  6
CONTINUOUS
 62
     7
100
AcDbVertex
100
AcDb2dVertex
 10
8.5931160941
 20
6.3933310742
 30
0.0
  0
VERTEX
  5
5B5
330
2A9
100
AcDbEntity
  8
0
  6
CONTINUOUS
 62
     7
100
AcDbVertex
100
AcDb2dVertex
 10
8.5806116509
 20
6.3927039244
 30
0.0
  0
VERTEX
  5
5B6
330
2A9
100
AcDbEntity
  8
0
  6
CONTINUOUS
 62
     7
100
AcDbVertex
100
AcDb2dVertex
 10
8.5687061683
 20
6.3937647766
 30
0.0
  0
VERTEX
  5
5B7
330
2A9
100
AcDbEntity
  8
0
  6
CONTINUOUS
 62
     7
100
AcDbVertex
100
AcDb2dVertex
 10
8.5575073815
 20
6.3965040309
 30
0.0
  0
VERTEX
  5
5B8
330
2A9
100
AcDbEntity
  8
0
  6
CONTINUOUS
 62
     7
100
AcDbVertex
100
AcDb2dVertex
 10
8.547116631
 20
6.4008968992
 30
0.0
  0
VERTEX
  5
5B9
330
2A9
100
AcDbEntity
  8
0
  6
CONTINUOUS
 62
     7
100
AcDbVertex
100
AcDb2dVertex
 10
8.5376279447
 20
6.4069036295
 30
0.0
  0
VERTEX
  5
5BA
330
2A9
100
AcDbEntity
  8
0
  6
CONTINUOUS
 62
     7
100
AcDbVertex
100
AcDb2dVertex
 10
8.5291271881
 20
6.4144698655
 30
0.0
  0
VERTEX
  5
5BB
330
2A9
100
AcDbEntity
  8
0
  6
CONTINUOUS
 62
     7
100
AcDbVertex
100
AcDb2dVertex
 10
8.5216912863
 20
6.4235271387
 30
0.0
  0
VERTEX
  5
5BC
330
2A9
100
AcDbEntity
  8
0
  6
CONTINUOUS
 62
     7
100
AcDbVertex
100
AcDb2dVertex
 10
8.5153875285
 20
6.4339934879
 30
0.0
  0
VERTEX
  5
5BD
330
2A9
100
AcDbEntity
  8
0
  6
CONTINUOUS
 62
     7
100
AcDbVertex
100
AcDb2dVertex
 10
8.5102729587
 20
6.4457742007
 30
0.0
  0
VERTEX
  5
5BE
330
2A9
100
AcDbEntity
  8
0
  6
CONTINUOUS
 62
     7
100
AcDbVertex
100
AcDb2dVertex
 10
8.5063938598
 20
6.4587626709
 30
0.0
  0
VERTEX
  5
5BF
330
2A9
100
AcDbEntity
  8
0
  6
CONTINUOUS
 62
     7
100
AcDbVertex
100
AcDb2dVertex
 10
8.5037853346
 20
6.4728413628
 30
0.0
  0
VERTEX
  5
5C0
330
2A9
100
AcDbEntity
  8
0
  6
CONTINUOUS
 62
     7
100
AcDbVertex
100
AcDb2dVertex
 10
8.5024709883
 20
6.4878828754
 30
0.0
  0
SEQEND
  5
5C1
330
2A9
100
AcDbEntity
  8
0
  6
CONTINUOUS
 62
     7
  0
LINE
  5
2AA
330
1F
100
AcDbEntity
  8
0
  6
CONTINUOUS
 62
     7
100
AcDbLine
 10
8.7911306779
 20
6.6545225672
 30
0.0
 11
9.0116892753
 21
6.7818483353
 31
0.0
  0
LINE
  5
2AB
330
1F
100
AcDbEntity
  8
0
  6
CONTINUOUS
 62
     7
100
AcDbLine
 10
8.604379066
 20
7.2125283603
 30
0.0
 11
8.604379066
 21
7.2217721033
 31
0.0
  0
LINE
  5
2AC
330
1F
100
AcDbEntity
  8
0
  6
CONTINUOUS
 62
     7
100
AcDbLine
 10
8.5024709883
 20
6.4878828754
 30
0.0
 11
8.5024773857
 21
6.4940096294
 31
0.0
  0
LINE
  5
2AD
330
1F
100
AcDbEntity
  8
0
  6
CONTINUOUS
 62
     7
100
AcDbLine
 10
8.4938589992
 20
6.498984918
 30
0.0
 11
8.5024773857
 21
6.4940096294
 31
0.0
  0
LINE
  5
2AE
330
1F
100
AcDbEntity
  8
0
  6
CONTINUOUS
 62
     7
100
AcDbLine
 10
8.0453465766
 20
6.4845715394
 30
0.0
 11
8.0314248893
 21
6.4765347203
 31
0.0
  0
LINE
  5
2AF
330
1F
100
AcDbEntity
  8
0
  6
CONTINUOUS
 62
     7
100
AcDbLine
 10
8.7805176788
 20
6.6705925121
 30
0.0
 11
8.7911306779
 21
6.6705962053
 31
0.0
  0
POLYLINE
  5
2B0
330
1F
100
AcDbEntity
  8
0
  6
CONTINUOUS
 62
     7
100
AcDb2dPolyline
 66
     1
 10
0.0
 20
0.0
 30
0.0
  0
VERTEX
  5
5C2
330
2B0
100
AcDbEntity
  8
0
  6
CONTINUOUS
 62
     7
100
AcDbVertex
100
AcDb2dVertex
 10
8.7805176788
 20
6.6705925121
 30
0.0
  0
VERTEX
  5
5C3
330
2B0
100
AcDbEntity
  8
0
  6
CONTINUOUS
 62
     7
100
AcDbVertex
100
AcDb2dVertex
 10
8.7791673252
 20
6.6854999103
 30
0.0
  0
VERTEX
  5
5C4
330
2B0
100
AcDbEntity
  8
0
  6
CONTINUOUS
 62
     7
100
AcDbVertex
100
AcDb2dVertex
 10
8.7764927611
 20
6.6994146653
 30
0.0
  0
VERTEX
  5
5C5
330
2B0
100
AcDbEntity
  8
0
  6
CONTINUOUS
 62
     7
100
AcDbVertex
100
AcDb2dVertex
 10
8.7725197123
 20
6.7122029346
 30
0.0
  0
VERTEX
  5
5C6
330
2B0
100
AcDbEntity
  8
0
  6
CONTINUOUS
 62
     7
100
AcDbVertex
100
AcDb2dVertex
 10
8.7672863948
 20
6.723741711
 30
0.0
  0
VERTEX
  5
5C7
330
2B0
100
AcDbEntity
  8
0
  6
CONTINUOUS
 62
     7
100
AcDbVertex
100
AcDb2dVertex
 10
8.7608431463
 20
6.7339200061
 30
0.0
  0
VERTEX
  5
5C8
330
2B0
100
AcDbEntity
  8
0
  6
CONTINUOUS
 62
     7
100
AcDbVertex
100
AcDb2dVertex
 10
8.7532519429
 20
6.7426399174
 30
0.0
  0
VERTEX
  5
5C9
330
2B0
100
AcDbEntity
  8
0
  6
CONTINUOUS
 62
     7
100
AcDbVertex
100
AcDb2dVertex
 10
8.7445858023
 20
6.7498175704
 30
0.0
  0
VERTEX
  5
5CA
330
2B0
100
AcDbEntity
  8
0
  6
CONTINUOUS
 62
     7
100
AcDbVertex
100
AcDb2dVertex
 10
8.7349280821
 20
6.7553839249
 30
0.0
  0
VERTEX
  5
5CB
330
2B0
100
AcDbEntity
  8
0
  6
CONTINUOUS
 62
     7
100
AcDbVertex
100
AcDb2dVertex
 10
8.7243716773
 20
6.7592854398
 30
0.0
  0
VERTEX
  5
5CC
330
2B0
100
AcDbEntity
  8
0
  6
CONTINUOUS
 62
     7
100
AcDbVertex
100
AcDb2dVertex
 10
8.7130181273
 20
6.7614845873
 30
0.0
  0
VERTEX
  5
5CD
330
2B0
100
AcDbEntity
  8
0
  6
CONTINUOUS
 62
     7
100
AcDbVertex
100
AcDb2dVertex
 10
8.7009766389
 20
6.7619602143
 30
0.0
  0
VERTEX
  5
5CE
330
2B0
100
AcDbEntity
  8
0
  6
CONTINUOUS
 62
     7
100
AcDbVertex
100
AcDb2dVertex
 10
8.6883630363
 20
6.760707746
 30
0.0
  0
VERTEX
  5
5CF
330
2B0
100
AcDbEntity
  8
0
  6
CONTINUOUS
 62
     7
100
AcDbVertex
100
AcDb2dVertex
 10
8.6752986463
 20
6.7577392294
 30
0.0
  0
VERTEX
  5
5D0
330
2B0
100
AcDbEntity
  8
0
  6
CONTINUOUS
 62
     7
100
AcDbVertex
100
AcDb2dVertex
 10
8.6619091321
 20
6.7530832181
 30
0.0
  0
VERTEX
  5
5D1
330
2B0
100
AcDbEntity
  8
0
  6
CONTINUOUS
 62
     7
100
AcDbVertex
100
AcDb2dVertex
 10
8.6483232839
 20
6.746784497
 30
0.0
  0
VERTEX
  5
5D2
330
2B0
100
AcDbEntity
  8
0
  6
CONTINUOUS
 62
     7
100
AcDbVertex
100
AcDb2dVertex
 10
8.6441013476
 20
6.7445124762
 30
0.0
  0
SEQEND
  5
5D3
330
2B0
100
AcDbEntity
  8
0
  6
CONTINUOUS
 62
     7
  0
LINE
  5
2B1
330
1F
100
AcDbEntity
  8
0
  6
CONTINUOUS
 62
     7
100
AcDbLine
 10
8.7805176788
 20
6.6705925121
 30
0.0
 11
8.6484346499
 21
6.7468424217
 31
0.0
  0
POLYLINE
  5
2B2
330
1F
100
AcDbEntity
  8
0
  6
CONTINUOUS
 62
     7
100
AcDb2dPolyline
 66
     1
 10
0.0
 20
0.0
 30
0.0
  0
VERTEX
  5
5D4
330
2B2
100
AcDbEntity
  8
0
  6
CONTINUOUS
 62
     7
100
AcDbVertex
100
AcDb2dVertex
 10
8.5024773857
 20
6.4940096294
 30
0.0
  0
VERTEX
  5
5D5
330
2B2
100
AcDbEntity
  8
0
  6
CONTINUOUS
 62
     7
100
AcDbVertex
100
AcDb2dVertex
 10
8.5038277393
 20
6.4791022312
 30
0.0
  0
VERTEX
  5
5D6
330
2B2
100
AcDbEntity
  8
0
  6
CONTINUOUS
 62
     7
100
AcDbVertex
100
AcDb2dVertex
 10
8.5065023034
 20
6.4651874762
 30
0.0
  0
VERTEX
  5
5D7
330
2B2
100
AcDbEntity
  8
0
  6
CONTINUOUS
 62
     7
100
AcDbVertex
100
AcDb2dVertex
 10
8.5104753521
 20
6.452399207
 30
0.0
  0
VERTEX
  5
5D8
330
2B2
100
AcDbEntity
  8
0
  6
CONTINUOUS
 62
     7
100
AcDbVertex
100
AcDb2dVertex
 10
8.5157086697
 20
6.4408604305
 30
0.0
  0
VERTEX
  5
5D9
330
2B2
100
AcDbEntity
  8
0
  6
CONTINUOUS
 62
     7
100
AcDbVertex
100
AcDb2dVertex
 10
8.5221519182
 20
6.4306821354
 30
0.0
  0
VERTEX
  5
5DA
330
2B2
100
AcDbEntity
  8
0
  6
CONTINUOUS
 62
     7
100
AcDbVertex
100
AcDb2dVertex
 10
8.5297431216
 20
6.4219622241
 30
0.0
  0
VERTEX
  5
5DB
330
2B2
100
AcDbEntity
  8
0
  6
CONTINUOUS
 62
     7
100
AcDbVertex
100
AcDb2dVertex
 10
8.5384092622
 20
6.4147845712
 30
0.0
  0
VERTEX
  5
5DC
330
2B2
100
AcDbEntity
  8
0
  6
CONTINUOUS
 62
     7
100
AcDbVertex
100
AcDb2dVertex
 10
8.5480669824
 20
6.4092182166
 30
0.0
  0
VERTEX
  5
5DD
330
2B2
100
AcDbEntity
  8
0
  6
CONTINUOUS
 62
     7
100
AcDbVertex
100
AcDb2dVertex
 10
8.5586233872
 20
6.4053167017
 30
0.0
  0
VERTEX
  5
5DE
330
2B2
100
AcDbEntity
  8
0
  6
CONTINUOUS
 62
     7
100
AcDbVertex
100
AcDb2dVertex
 10
8.5699769372
 20
6.4031175543
 30
0.0
  0
VERTEX
  5
5DF
330
2B2
100
AcDbEntity
  8
0
  6
CONTINUOUS
 62
     7
100
AcDbVertex
100
AcDb2dVertex
 10
8.5820184256
 20
6.4026419272
 30
0.0
  0
VERTEX
  5
5E0
330
2B2
100
AcDbEntity
  8
0
  6
CONTINUOUS
 62
     7
100
AcDbVertex
100
AcDb2dVertex
 10
8.5946320282
 20
6.4038943956
 30
0.0
  0
VERTEX
  5
5E1
330
2B2
100
AcDbEntity
  8
0
  6
CONTINUOUS
 62
     7
100
AcDbVertex
100
AcDb2dVertex
 10
8.6076964182
 20
6.4068629121
 30
0.0
  0
VERTEX
  5
5E2
330
2B2
100
AcDbEntity
  8
0
  6
CONTINUOUS
 62
     7
100
AcDbVertex
100
AcDb2dVertex
 10
8.6210859324
 20
6.4115189234
 30
0.0
  0
VERTEX
  5
5E3
330
2B2
100
AcDbEntity
  8
0
  6
CONTINUOUS
 62
     7
100
AcDbVertex
100
AcDb2dVertex
 10
8.6346717806
 20
6.4178176445
 30
0.0
  0
VERTEX
  5
5E4
330
2B2
100
AcDbEntity
  8
0
  6
CONTINUOUS
 62
     7
100
AcDbVertex
100
AcDb2dVertex
 10
8.6483232839
 20
6.4256984896
 30
0.0
  0
VERTEX
  5
5E5
330
2B2
100
AcDbEntity
  8
0
  6
CONTINUOUS
 62
     7
100
AcDbVertex
100
AcDb2dVertex
 10
8.6619091321
 20
6.4350856549
 30
0.0
  0
VERTEX
  5
5E6
330
2B2
100
AcDbEntity
  8
0
  6
CONTINUOUS
 62
     7
100
AcDbVertex
100
AcDb2dVertex
 10
8.6752986463
 20
6.4458888477
 30
0.0
  0
VERTEX
  5
5E7
330
2B2
100
AcDbEntity
  8
0
  6
CONTINUOUS
 62
     7
100
AcDbVertex
100
AcDb2dVertex
 10
8.6883630363
 20
6.4580041548
 30
0.0
  0
VERTEX
  5
5E8
330
2B2
100
AcDbEntity
  8
0
  6
CONTINUOUS
 62
     7
100
AcDbVertex
100
AcDb2dVertex
 10
8.7009766389
 20
6.4713150421
 30
0.0
  0
VERTEX
  5
5E9
330
2B2
100
AcDbEntity
  8
0
  6
CONTINUOUS
 62
     7
100
AcDbVertex
100
AcDb2dVertex
 10
8.7130181273
 20
6.4856934756
 30
0.0
  0
VERTEX
  5
5EA
330
2B2
100
AcDbEntity
  8
0
  6
CONTINUOUS
 62
     7
100
AcDbVertex
100
AcDb2dVertex
 10
8.7243716773
 20
6.5010011529
 30
0.0
  0
VERTEX
  5
5EB
330
2B2
100
AcDbEntity
  8
0
  6
CONTINUOUS
 62
     7
100
AcDbVertex
100
AcDb2dVertex
 10
8.7349280821
 20
6.5170908333
 30
0.0
  0
VERTEX
  5
5EC
330
2B2
100
AcDbEntity
  8
0
  6
CONTINUOUS
 62
     7
100
AcDbVertex
100
AcDb2dVertex
 10
8.7445858023
 20
6.5338077543
 30
0.0
  0
VERTEX
  5
5ED
330
2B2
100
AcDbEntity
  8
0
  6
CONTINUOUS
 62
     7
100
AcDbVertex
100
AcDb2dVertex
 10
8.7532519429
 20
6.5509911201
 30
0.0
  0
VERTEX
  5
5EE
330
2B2
100
AcDbEntity
  8
0
  6
CONTINUOUS
 62
     7
100
AcDbVertex
100
AcDb2dVertex
 10
8.7608431463
 20
6.5684756484
 30
0.0
  0
VERTEX
  5
5EF
330
2B2
100
AcDbEntity
  8
0
  6
CONTINUOUS
 62
     7
100
AcDbVertex
100
AcDb2dVertex
 10
8.7672863948
 20
6.5860931598
 30
0.0
  0
VERTEX
  5
5F0
330
2B2
100
AcDbEntity
  8
0
  6
CONTINUOUS
 62
     7
100
AcDbVertex
100
AcDb2dVertex
 10
8.7725197123
 20
6.6036741961
 30
0.0
  0
VERTEX
  5
5F1
330
2B2
100
AcDbEntity
  8
0
  6
CONTINUOUS
 62
     7
100
AcDbVertex
100
AcDb2dVertex
 10
8.7764927611
 20
6.6210496498
 30
0.0
  0
VERTEX
  5
5F2
330
2B2
100
AcDbEntity
  8
0
  6
CONTINUOUS
 62
     7
100
AcDbVertex
100
AcDb2dVertex
 10
8.7791673252
 20
6.6380523908
 30
0.0
  0
VERTEX
  5
5F3
330
2B2
100
AcDbEntity
  8
0
  6
CONTINUOUS
 62
     7
100
AcDbVertex
100
AcDb2dVertex
 10
8.7805176788
 20
6.6545188741
 30
0.0
  0
SEQEND
  5
5F4
330
2B2
100
AcDbEntity
  8
0
  6
CONTINUOUS
 62
     7
  0
LINE
  5
2B3
330
1F
100
AcDbEntity
  8
0
  6
CONTINUOUS
 62
     7
100
AcDbLine
 10
8.7805176788
 20
6.6545188741
 30
0.0
 11
8.7911306779
 21
6.6545225672
 31
0.0
  0
LINE
  5
2B4
330
1F
100
AcDbEntity
  8
0
  6
CONTINUOUS
 62
     7
100
AcDbLine
 10
8.7805176788
 20
6.6545188741
 30
0.0
 11
8.6348354413
 21
6.7386194397
 31
0.0
  0
LINE
  5
2B5
330
1F
100
AcDbEntity
  8
0
  6
CONTINUOUS
 62
     7
100
AcDbLine
 10
9.0116892753
 20
6.7818483353
 30
0.0
 11
8.9973378071
 21
6.7896370471
 31
0.0
  0
POLYLINE
  5
2B6
330
1F
100
AcDbEntity
  8
0
  6
CONTINUOUS
 62
     7
100
AcDb2dPolyline
 66
     1
 10
0.0
 20
0.0
 30
0.0
  0
VERTEX
  5
5F5
330
2B6
100
AcDbEntity
  8
0
  6
CONTINUOUS
 62
     7
100
AcDbVertex
100
AcDb2dVertex
 10
8.1822746364
 20
6.8034039886
 30
0.0
  0
VERTEX
  5
5F6
330
2B6
100
AcDbEntity
  8
0
  6
CONTINUOUS
 62
     7
100
AcDbVertex
100
AcDb2dVertex
 10
8.1934005885
 20
6.7977414623
 30
0.0
  0
VERTEX
  5
5F7
330
2B6
100
AcDbEntity
  8
0
  6
CONTINUOUS
 62
     7
100
AcDbVertex
100
AcDb2dVertex
 10
8.2056681835
 20
6.7929285863
 30
0.0
  0
VERTEX
  5
5F8
330
2B6
100
AcDbEntity
  8
0
  6
CONTINUOUS
 62
     7
100
AcDbVertex
100
AcDb2dVertex
 10
8.2188839542
 20
6.7890412628
 30
0.0
  0
VERTEX
  5
5F9
330
2B6
100
AcDbEntity
  8
0
  6
CONTINUOUS
 62
     7
100
AcDbVertex
100
AcDb2dVertex
 10
8.23283948
 20
6.786140797
 30
0.0
  0
VERTEX
  5
5FA
330
2B6
100
AcDbEntity
  8
0
  6
CONTINUOUS
 62
     7
100
AcDbVertex
100
AcDb2dVertex
 10
8.2473146738
 20
6.7842729312
 30
0.0
  0
VERTEX
  5
5FB
330
2B6
100
AcDbEntity
  8
0
  6
CONTINUOUS
 62
     7
100
AcDbVertex
100
AcDb2dVertex
 10
8.2620812532
 20
6.7834671226
 30
0.0
  0
VERTEX
  5
5FC
330
2B6
100
AcDbEntity
  8
0
  6
CONTINUOUS
 62
     7
100
AcDbVertex
100
AcDb2dVertex
 10
8.2769063405
 20
6.7837360792
 30
0.0
  0
VERTEX
  5
5FD
330
2B6
100
AcDbEntity
  8
0
  6
CONTINUOUS
 62
     7
100
AcDbVertex
100
AcDb2dVertex
 10
8.2915561352
 20
6.7850755597
 30
0.0
  0
VERTEX
  5
5FE
330
2B6
100
AcDbEntity
  8
0
  6
CONTINUOUS
 62
     7
100
AcDbVertex
100
AcDb2dVertex
 10
8.3057996012
 20
6.7874644394
 30
0.0
  0
VERTEX
  5
5FF
330
2B6
100
AcDbEntity
  8
0
  6
CONTINUOUS
 62
     7
100
AcDbVertex
100
AcDb2dVertex
 10
8.3194121106
 20
6.7908650443
 30
0.0
  0
VERTEX
  5
600
330
2B6
100
AcDbEntity
  8
0
  6
CONTINUOUS
 62
     7
100
AcDbVertex
100
AcDb2dVertex
 10
8.3321789859
 20
6.795223745
 30
0.0
  0
VERTEX
  5
601
330
2B6
100
AcDbEntity
  8
0
  6
CONTINUOUS
 62
     7
100
AcDbVertex
100
AcDb2dVertex
 10
8.343898886
 20
6.800471802
 30
0.0
  0
VERTEX
  5
602
330
2B6
100
AcDbEntity
  8
0
  6
CONTINUOUS
 62
     7
100
AcDbVertex
100
AcDb2dVertex
 10
8.354386981
 20
6.8065264503
 30
0.0
  0
VERTEX
  5
603
330
2B6
100
AcDbEntity
  8
0
  6
CONTINUOUS
 62
     7
100
AcDbVertex
100
AcDb2dVertex
 10
8.3634778674
 20
6.8132922046
 30
0.0
  0
VERTEX
  5
604
330
2B6
100
AcDbEntity
  8
0
  6
CONTINUOUS
 62
     7
100
AcDbVertex
100
AcDb2dVertex
 10
8.3710281764
 20
6.8206623649
 30
0.0
  0
VERTEX
  5
605
330
2B6
100
AcDbEntity
  8
0
  6
CONTINUOUS
 62
     7
100
AcDbVertex
100
AcDb2dVertex
 10
8.3769188353
 20
6.8285206993
 30
0.0
  0
VERTEX
  5
606
330
2B6
100
AcDbEntity
  8
0
  6
CONTINUOUS
 62
     7
100
AcDbVertex
100
AcDb2dVertex
 10
8.3810569447
 20
6.8367432772
 30
0.0
  0
VERTEX
  5
607
330
2B6
100
AcDbEntity
  8
0
  6
CONTINUOUS
 62
     7
100
AcDbVertex
100
AcDb2dVertex
 10
8.3833772442
 20
6.8452004236
 30
0.0
  0
VERTEX
  5
608
330
2B6
100
AcDbEntity
  8
0
  6
CONTINUOUS
 62
     7
100
AcDbVertex
100
AcDb2dVertex
 10
8.3838431413
 20
6.8537587644
 30
0.0
  0
VERTEX
  5
609
330
2B6
100
AcDbEntity
  8
0
  6
CONTINUOUS
 62
     7
100
AcDbVertex
100
AcDb2dVertex
 10
8.3824472886
 20
6.8622833292
 30
0.0
  0
VERTEX
  5
60A
330
2B6
100
AcDbEntity
  8
0
  6
CONTINUOUS
 62
     7
100
AcDbVertex
100
AcDb2dVertex
 10
8.3792116995
 20
6.8706396808
 30
0.0
  0
VERTEX
  5
60B
330
2B6
100
AcDbEntity
  8
0
  6
CONTINUOUS
 62
     7
100
AcDbVertex
100
AcDb2dVertex
 10
8.374187401
 20
6.8786960343
 30
0.0
  0
VERTEX
  5
60C
330
2B6
100
AcDbEntity
  8
0
  6
CONTINUOUS
 62
     7
100
AcDbVertex
100
AcDb2dVertex
 10
8.3674536295
 20
6.8863253363
 30
0.0
  0
VERTEX
  5
60D
330
2B6
100
AcDbEntity
  8
0
  6
CONTINUOUS
 62
     7
100
AcDbVertex
100
AcDb2dVertex
 10
8.3591165806
 20
6.8934072682
 30
0.0
  0
VERTEX
  5
60E
330
2B6
100
AcDbEntity
  8
0
  6
CONTINUOUS
 62
     7
100
AcDbVertex
100
AcDb2dVertex
 10
8.3493077344
 20
6.8998301436
 30
0.0
  0
VERTEX
  5
60F
330
2B6
100
AcDbEntity
  8
0
  6
CONTINUOUS
 62
     7
100
AcDbVertex
100
AcDb2dVertex
 10
8.3381817823
 20
6.90549267
 30
0.0
  0
VERTEX
  5
610
330
2B6
100
AcDbEntity
  8
0
  6
CONTINUOUS
 62
     7
100
AcDbVertex
100
AcDb2dVertex
 10
8.3259141873
 20
6.9103055459
 30
0.0
  0
VERTEX
  5
611
330
2B6
100
AcDbEntity
  8
0
  6
CONTINUOUS
 62
     7
100
AcDbVertex
100
AcDb2dVertex
 10
8.3126984166
 20
6.9141928694
 30
0.0
  0
VERTEX
  5
612
330
2B6
100
AcDbEntity
  8
0
  6
CONTINUOUS
 62
     7
100
AcDbVertex
100
AcDb2dVertex
 10
8.2987428908
 20
6.9170933352
 30
0.0
  0
VERTEX
  5
613
330
2B6
100
AcDbEntity
  8
0
  6
CONTINUOUS
 62
     7
100
AcDbVertex
100
AcDb2dVertex
 10
8.284267697
 20
6.918961201
 30
0.0
  0
VERTEX
  5
614
330
2B6
100
AcDbEntity
  8
0
  6
CONTINUOUS
 62
     7
100
AcDbVertex
100
AcDb2dVertex
 10
8.2695011176
 20
6.9197670097
 30
0.0
  0
VERTEX
  5
615
330
2B6
100
AcDbEntity
  8
0
  6
CONTINUOUS
 62
     7
100
AcDbVertex
100
AcDb2dVertex
 10
8.2546760303
 20
6.919498053
 30
0.0
  0
VERTEX
  5
616
330
2B6
100
AcDbEntity
  8
0
  6
CONTINUOUS
 62
     7
100
AcDbVertex
100
AcDb2dVertex
 10
8.2400262356
 20
6.9181585726
 30
0.0
  0
VERTEX
  5
617
330
2B6
100
AcDbEntity
  8
0
  6
CONTINUOUS
 62
     7
100
AcDbVertex
100
AcDb2dVertex
 10
8.2257827696
 20
6.9157696929
 30
0.0
  0
VERTEX
  5
618
330
2B6
100
AcDbEntity
  8
0
  6
CONTINUOUS
 62
     7
100
AcDbVertex
100
AcDb2dVertex
 10
8.2121702602
 20
6.9123690879
 30
0.0
  0
VERTEX
  5
619
330
2B6
100
AcDbEntity
  8
0
  6
CONTINUOUS
 62
     7
100
AcDbVertex
100
AcDb2dVertex
 10
8.1994033849
 20
6.9080103873
 30
0.0
  0
VERTEX
  5
61A
330
2B6
100
AcDbEntity
  8
0
  6
CONTINUOUS
 62
     7
100
AcDbVertex
100
AcDb2dVertex
 10
8.1876834848
 20
6.9027623303
 30
0.0
  0
VERTEX
  5
61B
330
2B6
100
AcDbEntity
  8
0
  6
CONTINUOUS
 62
     7
100
AcDbVertex
100
AcDb2dVertex
 10
8.1771953898
 20
6.8967076819
 30
0.0
  0
VERTEX
  5
61C
330
2B6
100
AcDbEntity
  8
0
  6
CONTINUOUS
 62
     7
100
AcDbVertex
100
AcDb2dVertex
 10
8.1681045034
 20
6.8899419276
 30
0.0
  0
VERTEX
  5
61D
330
2B6
100
AcDbEntity
  8
0
  6
CONTINUOUS
 62
     7
100
AcDbVertex
100
AcDb2dVertex
 10
8.1605541943
 20
6.8825717673
 30
0.0
  0
VERTEX
  5
61E
330
2B6
100
AcDbEntity
  8
0
  6
CONTINUOUS
 62
     7
100
AcDbVertex
100
AcDb2dVertex
 10
8.1546635355
 20
6.8747134329
 30
0.0
  0
VERTEX
  5
61F
330
2B6
100
AcDbEntity
  8
0
  6
CONTINUOUS
 62
     7
100
AcDbVertex
100
AcDb2dVertex
 10
8.1505254261
 20
6.866490855
 30
0.0
  0
VERTEX
  5
620
330
2B6
100
AcDbEntity
  8
0
  6
CONTINUOUS
 62
     7
100
AcDbVertex
100
AcDb2dVertex
 10
8.1482051266
 20
6.8580337086
 30
0.0
  0
VERTEX
  5
621
330
2B6
100
AcDbEntity
  8
0
  6
CONTINUOUS
 62
     7
100
AcDbVertex
100
AcDb2dVertex
 10
8.1477392294
 20
6.8494753679
 30
0.0
  0
VERTEX
  5
622
330
2B6
100
AcDbEntity
  8
0
  6
CONTINUOUS
 62
     7
100
AcDbVertex
100
AcDb2dVertex
 10
8.1491350822
 20
6.840950803
 30
0.0
  0
VERTEX
  5
623
330
2B6
100
AcDbEntity
  8
0
  6
CONTINUOUS
 62
     7
100
AcDbVertex
100
AcDb2dVertex
 10
8.1523706713
 20
6.8325944515
 30
0.0
  0
VERTEX
  5
624
330
2B6
100
AcDbEntity
  8
0
  6
CONTINUOUS
 62
     7
100
AcDbVertex
100
AcDb2dVertex
 10
8.1573949698
 20
6.8245380979
 30
0.0
  0
VERTEX
  5
625
330
2B6
100
AcDbEntity
  8
0
  6
CONTINUOUS
 62
     7
100
AcDbVertex
100
AcDb2dVertex
 10
8.1641287413
 20
6.8169087959
 30
0.0
  0
VERTEX
  5
626
330
2B6
100
AcDbEntity
  8
0
  6
CONTINUOUS
 62
     7
100
AcDbVertex
100
AcDb2dVertex
 10
8.1724657902
 20
6.8098268641
 30
0.0
  0
VERTEX
  5
627
330
2B6
100
AcDbEntity
  8
0
  6
CONTINUOUS
 62
     7
100
AcDbVertex
100
AcDb2dVertex
 10
8.1822746364
 20
6.8034039886
 30
0.0
  0
SEQEND
  5
628
330
2B6
100
AcDbEntity
  8
0
  6
CONTINUOUS
 62
     7
  0
LINE
  5
2B7
330
1F
100
AcDbEntity
  8
0
  6
CONTINUOUS
 62
     7
100
AcDbLine
 10
8.1378509479
 20
6.8425470207
 30
0.0
 11
8.1378384295
 21
6.8435802471
 31
0.0
  0
ARC
  5
2B8
330
1F
100
AcDbEntity
  8
0
  6
CONTINUOUS
 62
     7
100
AcDbCircle
 10
8.2598850314
 20
6.8275896556
 30
0.0
 40
0.1781460069697021
100
AcDbArc
 50
241.65864714
 51
266.994419037
  0
ARC
  5
2B9
330
1F
100
AcDbEntity
  8
0
  6
CONTINUOUS
 62
     7
100
AcDbCircle
 10
8.2028939578
 20
6.7301459666
 30
0.0
 40
0.0654437754750385
100
AcDbArc
 50
186.2441391135
 51
245.0760018441
  0
LINE
  5
2BA
330
1F
100
AcDbEntity
  8
0
  6
CONTINUOUS
 62
     7
100
AcDbLine
 10
8.2834403089
 20
6.8135926107
 30
0.0
 11
8.3316586109
 21
6.841428444
 31
0.0
  0
LINE
  5
2BB
330
1F
100
AcDbEntity
  8
0
  6
CONTINUOUS
 62
     7
100
AcDbLine
 10
8.3316586109
 20
6.841428444
 30
0.0
 11
8.3140094874
 21
6.8794528994
 31
0.0
  0
LINE
  5
2BC
330
1F
100
AcDbEntity
  8
0
  6
CONTINUOUS
 62
     7
100
AcDbLine
 10
8.3140094874
 20
6.8794528994
 30
0.0
 11
8.2481420619
 21
6.8896415215
 31
0.0
  0
LINE
  5
2BD
330
1F
100
AcDbEntity
  8
0
  6
CONTINUOUS
 62
     7
100
AcDbLine
 10
8.2481420619
 20
6.8896415215
 30
0.0
 11
8.1999237599
 21
6.8618056882
 31
0.0
  0
LINE
  5
2BE
330
1F
100
AcDbEntity
  8
0
  6
CONTINUOUS
 62
     7
100
AcDbLine
 10
8.1999237599
 20
6.8618056882
 30
0.0
 11
8.2175728834
 21
6.8237812329
 31
0.0
  0
LINE
  5
2BF
330
1F
100
AcDbEntity
  8
0
  6
CONTINUOUS
 62
     7
100
AcDbLine
 10
8.2175728834
 20
6.8237812329
 30
0.0
 11
8.2834403089
 21
6.8135926107
 31
0.0
  0
LINE
  5
2C0
330
1F
100
AcDbEntity
  8
0
  6
CONTINUOUS
 62
     7
100
AcDbLine
 10
8.2481420619
 20
6.8253469694
 30
0.0
 11
8.2395429668
 21
6.8203828174
 31
0.0
  0
LINE
  5
2C1
330
1F
100
AcDbEntity
  8
0
  6
CONTINUOUS
 62
     7
100
AcDbLine
 10
8.292039404
 20
6.8185567627
 30
0.0
 11
8.2481420619
 21
6.8253469694
 31
0.0
  0
LINE
  5
2C2
330
1F
100
AcDbEntity
  8
0
  6
CONTINUOUS
 62
     7
100
AcDbLine
 10
8.3140094874
 20
6.8312398219
 30
0.0
 11
8.3140094874
 21
6.8794528994
 31
0.0
  0
LINE
  5
2C3
330
1F
100
AcDbEntity
  8
0
  6
CONTINUOUS
 62
     7
100
AcDbLine
 10
8.1870510279
 20
6.1966163164
 30
0.0
 11
8.1870610012
 21
6.1958928617
 31
0.0
  0
LINE
  5
2C4
330
1F
100
AcDbEntity
  8
0
  6
CONTINUOUS
 62
     7
100
AcDbLine
 10
8.2481420619
 20
6.8253469694
 30
0.0
 11
8.2481420619
 21
6.8896415215
 31
0.0
  0
ARC
  5
2C5
330
1F
100
AcDbEntity
  8
0
  6
CONTINUOUS
 62
     7
100
AcDbCircle
 10
8.2686917795
 20
7.326995662
 30
0.0
 40
0.1632934486491492
100
AcDbArc
 50
98.0074868822
 51
149.0674772855
  0
POLYLINE
  5
2C6
330
1F
100
AcDbEntity
  8
0
  6
CONTINUOUS
 62
     7
100
AcDb2dPolyline
 66
     1
 10
0.0
 20
0.0
 30
0.0
  0
VERTEX
  5
629
330
2C6
100
AcDbEntity
  8
0
  6
CONTINUOUS
 62
     7
100
AcDbVertex
100
AcDb2dVertex
 10
7.6674579699
 20
6.612174647
 30
0.0
  0
VERTEX
  5
62A
330
2C6
100
AcDbEntity
  8
0
  6
CONTINUOUS
 62
     7
100
AcDbVertex
100
AcDb2dVertex
 10
7.6636769505
 20
6.6034850322
 30
0.0
  0
VERTEX
  5
62B
330
2C6
100
AcDbEntity
  8
0
  6
CONTINUOUS
 62
     7
100
AcDbVertex
100
AcDb2dVertex
 10
7.6575421319
 20
6.58712547
 30
0.0
  0
VERTEX
  5
62C
330
2C6
100
AcDbEntity
  8
0
  6
CONTINUOUS
 62
     7
100
AcDbVertex
100
AcDb2dVertex
 10
7.6526887068
 20
6.5707930516
 30
0.0
  0
VERTEX
  5
62D
330
2C6
100
AcDbEntity
  8
0
  6
CONTINUOUS
 62
     7
100
AcDbVertex
100
AcDb2dVertex
 10
7.6491777097
 20
6.5546931668
 30
0.0
  0
VERTEX
  5
62E
330
2C6
100
AcDbEntity
  8
0
  6
CONTINUOUS
 62
     7
100
AcDbVertex
100
AcDb2dVertex
 10
7.6470532934
 20
6.539028281
 30
0.0
  0
VERTEX
  5
62F
330
2C6
100
AcDbEntity
  8
0
  6
CONTINUOUS
 62
     7
100
AcDbVertex
100
AcDb2dVertex
 10
7.6463421737
 20
6.5239953891
 30
0.0
  0
VERTEX
  5
630
330
2C6
100
AcDbEntity
  8
0
  6
CONTINUOUS
 62
     7
100
AcDbVertex
100
AcDb2dVertex
 10
7.6470532934
 20
6.5097835385
 30
0.0
  0
VERTEX
  5
631
330
2C6
100
AcDbEntity
  8
0
  6
CONTINUOUS
 62
     7
100
AcDbVertex
100
AcDb2dVertex
 10
7.6491777097
 20
6.4965714515
 30
0.0
  0
VERTEX
  5
632
330
2C6
100
AcDbEntity
  8
0
  6
CONTINUOUS
 62
     7
100
AcDbVertex
100
AcDb2dVertex
 10
7.6526887068
 20
6.4845252777
 30
0.0
  0
VERTEX
  5
633
330
2C6
100
AcDbEntity
  8
0
  6
CONTINUOUS
 62
     7
100
AcDbVertex
100
AcDb2dVertex
 10
7.6575421319
 20
6.4737965047
 30
0.0
  0
VERTEX
  5
634
330
2C6
100
AcDbEntity
  8
0
  6
CONTINUOUS
 62
     7
100
AcDbVertex
100
AcDb2dVertex
 10
7.658767361
 20
6.4716551195
 30
0.0
  0
SEQEND
  5
635
330
2C6
100
AcDbEntity
  8
0
  6
CONTINUOUS
 62
     7
  0
ARC
  5
2C7
330
1F
100
AcDbEntity
  8
0
  6
CONTINUOUS
 62
     7
100
AcDbCircle
 10
7.6678416638
 20
6.5772867399
 30
0.0
 40
0.0755412158505268
100
AcDbArc
 50
176.993804752
 51
213.9460765304
  0
ARC
  5
2C8
330
1F
100
AcDbEntity
  8
0
  6
CONTINUOUS
 62
     7
100
AcDbCircle
 10
7.7870550887
 20
6.5733323523
 30
0.0
 40
0.1948115852929657
100
AcDbArc
 50
122.2824998018
 51
177.6711749754
  0
POLYLINE
  5
2C9
330
1F
100
AcDbEntity
  8
0
  6
CONTINUOUS
 62
     7
100
AcDb2dPolyline
 66
     1
 10
0.0
 20
0.0
 30
0.0
  0
VERTEX
  5
636
330
2C9
100
AcDbEntity
  8
0
  6
CONTINUOUS
 62
     7
100
AcDbVertex
100
AcDb2dVertex
 10
8.1178626897
 20
7.5436081902
 30
0.0
  0
VERTEX
  5
637
330
2C9
100
AcDbEntity
  8
0
  6
CONTINUOUS
 62
     7
100
AcDbVertex
100
AcDb2dVertex
 10
8.1450175186
 20
7.5585378941
 30
0.0
  0
VERTEX
  5
638
330
2C9
100
AcDbEntity
  8
0
  6
CONTINUOUS
 62
     7
100
AcDbVertex
100
AcDb2dVertex
 10
8.1721108331
 20
7.571940887
 30
0.0
  0
VERTEX
  5
639
330
2C9
100
AcDbEntity
  8
0
  6
CONTINUOUS
 62
     7
100
AcDbVertex
100
AcDb2dVertex
 10
8.1990812581
 20
7.5837868069
 30
0.0
  0
VERTEX
  5
63A
330
2C9
100
AcDbEntity
  8
0
  6
CONTINUOUS
 62
     7
100
AcDbVertex
100
AcDb2dVertex
 10
8.2258676969
 20
7.594048819
 30
0.0
  0
VERTEX
  5
63B
330
2C9
100
AcDbEntity
  8
0
  6
CONTINUOUS
 62
     7
100
AcDbVertex
100
AcDb2dVertex
 10
8.2524094697
 20
7.6027036764
 30
0.0
  0
VERTEX
  5
63C
330
2C9
100
AcDbEntity
  8
0
  6
CONTINUOUS
 62
     7
100
AcDbVertex
100
AcDb2dVertex
 10
8.2786464507
 20
7.6097317732
 30
0.0
  0
VERTEX
  5
63D
330
2C9
100
AcDbEntity
  8
0
  6
CONTINUOUS
 62
     7
100
AcDbVertex
100
AcDb2dVertex
 10
8.3045192048
 20
7.6151171885
 30
0.0
  0
VERTEX
  5
63E
330
2C9
100
AcDbEntity
  8
0
  6
CONTINUOUS
 62
     7
100
AcDbVertex
100
AcDb2dVertex
 10
8.3299691218
 20
7.6188477225
 30
0.0
  0
VERTEX
  5
63F
330
2C9
100
AcDbEntity
  8
0
  6
CONTINUOUS
 62
     7
100
AcDbVertex
100
AcDb2dVertex
 10
8.3549385496
 20
7.6209149245
 30
0.0
  0
VERTEX
  5
640
330
2C9
100
AcDbEntity
  8
0
  6
CONTINUOUS
 62
     7
100
AcDbVertex
100
AcDb2dVertex
 10
8.3793709242
 20
7.6213141114
 30
0.0
  0
VERTEX
  5
641
330
2C9
100
AcDbEntity
  8
0
  6
CONTINUOUS
 62
     7
100
AcDbVertex
100
AcDb2dVertex
 10
8.4032108986
 20
7.6200443791
 30
0.0
  0
VERTEX
  5
642
330
2C9
100
AcDbEntity
  8
0
  6
CONTINUOUS
 62
     7
100
AcDbVertex
100
AcDb2dVertex
 10
8.4264044676
 20
7.6171086039
 30
0.0
  0
VERTEX
  5
643
330
2C9
100
AcDbEntity
  8
0
  6
CONTINUOUS
 62
     7
100
AcDbVertex
100
AcDb2dVertex
 10
8.4488990902
 20
7.6125134362
 30
0.0
  0
VERTEX
  5
644
330
2C9
100
AcDbEntity
  8
0
  6
CONTINUOUS
 62
     7
100
AcDbVertex
100
AcDb2dVertex
 10
8.4706438088
 20
7.6062692857
 30
0.0
  0
VERTEX
  5
645
330
2C9
100
AcDbEntity
  8
0
  6
CONTINUOUS
 62
     7
100
AcDbVertex
100
AcDb2dVertex
 10
8.4915893648
 20
7.5983902972
 30
0.0
  0
VERTEX
  5
646
330
2C9
100
AcDbEntity
  8
0
  6
CONTINUOUS
 62
     7
100
AcDbVertex
100
AcDb2dVertex
 10
8.5116883096
 20
7.5888943193
 30
0.0
  0
VERTEX
  5
647
330
2C9
100
AcDbEntity
  8
0
  6
CONTINUOUS
 62
     7
100
AcDbVertex
100
AcDb2dVertex
 10
8.5308951127
 20
7.5778028634
 30
0.0
  0
VERTEX
  5
648
330
2C9
100
AcDbEntity
  8
0
  6
CONTINUOUS
 62
     7
100
AcDbVertex
100
AcDb2dVertex
 10
8.5491662646
 20
7.5651410552
 30
0.0
  0
VERTEX
  5
649
330
2C9
100
AcDbEntity
  8
0
  6
CONTINUOUS
 62
     7
100
AcDbVertex
100
AcDb2dVertex
 10
8.5664603751
 20
7.5509375778
 30
0.0
  0
VERTEX
  5
64A
330
2C9
100
AcDbEntity
  8
0
  6
CONTINUOUS
 62
     7
100
AcDbVertex
100
AcDb2dVertex
 10
8.5731924061
 20
7.5447395896
 30
0.0
  0
SEQEND
  5
64B
330
2C9
100
AcDbEntity
  8
0
  6
CONTINUOUS
 62
     7
  0
POLYLINE
  5
2CA
330
1F
100
AcDbEntity
  8
0
  6
CONTINUOUS
 62
     7
100
AcDb2dPolyline
 66
     1
 10
0.0
 20
0.0
 30
0.0
  0
VERTEX
  5
64C
330
2CA
100
AcDbEntity
  8
0
  6
CONTINUOUS
 62
     7
100
AcDbVertex
100
AcDb2dVertex
 10
7.7738883719
 20
6.1601543691
 30
0.0
  0
VERTEX
  5
64D
330
2CA
100
AcDbEntity
  8
0
  6
CONTINUOUS
 62
     7
100
AcDbVertex
100
AcDb2dVertex
 10
7.7650815706
 20
6.1629087763
 30
0.0
  0
VERTEX
  5
64E
330
2CA
100
AcDbEntity
  8
0
  6
CONTINUOUS
 62
     7
100
AcDbVertex
100
AcDb2dVertex
 10
7.7441360146
 20
6.1707877647
 30
0.0
  0
VERTEX
  5
64F
330
2CA
100
AcDbEntity
  8
0
  6
CONTINUOUS
 62
     7
100
AcDbVertex
100
AcDb2dVertex
 10
7.7240370698
 20
6.1802837426
 30
0.0
  0
VERTEX
  5
650
330
2CA
100
AcDbEntity
  8
0
  6
CONTINUOUS
 62
     7
100
AcDbVertex
100
AcDb2dVertex
 10
7.7048302666
 20
6.1913751985
 30
0.0
  0
VERTEX
  5
651
330
2CA
100
AcDbEntity
  8
0
  6
CONTINUOUS
 62
     7
100
AcDbVertex
100
AcDb2dVertex
 10
7.6865591148
 20
6.2040370067
 30
0.0
  0
VERTEX
  5
652
330
2CA
100
AcDbEntity
  8
0
  6
CONTINUOUS
 62
     7
100
AcDbVertex
100
AcDb2dVertex
 10
7.6692650043
 20
6.2182404842
 30
0.0
  0
VERTEX
  5
653
330
2CA
100
AcDbEntity
  8
0
  6
CONTINUOUS
 62
     7
100
AcDbVertex
100
AcDb2dVertex
 10
7.6529871118
 20
6.2339534554
 30
0.0
  0
VERTEX
  5
654
330
2CA
100
AcDbEntity
  8
0
  6
CONTINUOUS
 62
     7
100
AcDbVertex
100
AcDb2dVertex
 10
7.637762312
 20
6.2511403254
 30
0.0
  0
VERTEX
  5
655
330
2CA
100
AcDbEntity
  8
0
  6
CONTINUOUS
 62
     7
100
AcDbVertex
100
AcDb2dVertex
 10
7.623625094
 20
6.2697621605
 30
0.0
  0
VERTEX
  5
656
330
2CA
100
AcDbEntity
  8
0
  6
CONTINUOUS
 62
     7
100
AcDbVertex
100
AcDb2dVertex
 10
7.6106074831
 20
6.2897767762
 30
0.0
  0
VERTEX
  5
657
330
2CA
100
AcDbEntity
  8
0
  6
CONTINUOUS
 62
     7
100
AcDbVertex
100
AcDb2dVertex
 10
7.5987389684
 20
6.311138833
 30
0.0
  0
VERTEX
  5
658
330
2CA
100
AcDbEntity
  8
0
  6
CONTINUOUS
 62
     7
100
AcDbVertex
100
AcDb2dVertex
 10
7.5880464358
 20
6.3337999389
 30
0.0
  0
VERTEX
  5
659
330
2CA
100
AcDbEntity
  8
0
  6
CONTINUOUS
 62
     7
100
AcDbVertex
100
AcDb2dVertex
 10
7.5785541076
 20
6.3577087593
 30
0.0
  0
VERTEX
  5
65A
330
2CA
100
AcDbEntity
  8
0
  6
CONTINUOUS
 62
     7
100
AcDbVertex
100
AcDb2dVertex
 10
7.5702834867
 20
6.382811133
 30
0.0
  0
VERTEX
  5
65B
330
2CA
100
AcDbEntity
  8
0
  6
CONTINUOUS
 62
     7
100
AcDbVertex
100
AcDb2dVertex
 10
7.5632533088
 20
6.4090501949
 30
0.0
  0
VERTEX
  5
65C
330
2CA
100
AcDbEntity
  8
0
  6
CONTINUOUS
 62
     7
100
AcDbVertex
100
AcDb2dVertex
 10
7.5574794995
 20
6.4363665053
 30
0.0
  0
VERTEX
  5
65D
330
2CA
100
AcDbEntity
  8
0
  6
CONTINUOUS
 62
     7
100
AcDbVertex
100
AcDb2dVertex
 10
7.5529751385
 20
6.4646981839
 30
0.0
  0
VERTEX
  5
65E
330
2CA
100
AcDbEntity
  8
0
  6
CONTINUOUS
 62
     7
100
AcDbVertex
100
AcDb2dVertex
 10
7.5497504294
 20
6.4939810503
 30
0.0
  0
VERTEX
  5
65F
330
2CA
100
AcDbEntity
  8
0
  6
CONTINUOUS
 62
     7
100
AcDbVertex
100
AcDb2dVertex
 10
7.5478126773
 20
6.5241487694
 30
0.0
  0
VERTEX
  5
660
330
2CA
100
AcDbEntity
  8
0
  6
CONTINUOUS
 62
     7
100
AcDbVertex
100
AcDb2dVertex
 10
7.5471662718
 20
6.5551330016
 30
0.0
  0
VERTEX
  5
661
330
2CA
100
AcDbEntity
  8
0
  6
CONTINUOUS
 62
     7
100
AcDbVertex
100
AcDb2dVertex
 10
7.5478126773
 20
6.5868635577
 30
0.0
  0
VERTEX
  5
662
330
2CA
100
AcDbEntity
  8
0
  6
CONTINUOUS
 62
     7
100
AcDbVertex
100
AcDb2dVertex
 10
7.5497504294
 20
6.6192685578
 30
0.0
  0
VERTEX
  5
663
330
2CA
100
AcDbEntity
  8
0
  6
CONTINUOUS
 62
     7
100
AcDbVertex
100
AcDb2dVertex
 10
7.5529751385
 20
6.652274594
 30
0.0
  0
VERTEX
  5
664
330
2CA
100
AcDbEntity
  8
0
  6
CONTINUOUS
 62
     7
100
AcDbVertex
100
AcDb2dVertex
 10
7.5574794995
 20
6.6858068972
 30
0.0
  0
VERTEX
  5
665
330
2CA
100
AcDbEntity
  8
0
  6
CONTINUOUS
 62
     7
100
AcDbVertex
100
AcDb2dVertex
 10
7.5632533088
 20
6.7197895058
 30
0.0
  0
VERTEX
  5
666
330
2CA
100
AcDbEntity
  8
0
  6
CONTINUOUS
 62
     7
100
AcDbVertex
100
AcDb2dVertex
 10
7.5702834867
 20
6.7541454384
 30
0.0
  0
VERTEX
  5
667
330
2CA
100
AcDbEntity
  8
0
  6
CONTINUOUS
 62
     7
100
AcDbVertex
100
AcDb2dVertex
 10
7.5785541076
 20
6.7887968677
 30
0.0
  0
VERTEX
  5
668
330
2CA
100
AcDbEntity
  8
0
  6
CONTINUOUS
 62
     7
100
AcDbVertex
100
AcDb2dVertex
 10
7.5880464358
 20
6.823665297
 30
0.0
  0
VERTEX
  5
669
330
2CA
100
AcDbEntity
  8
0
  6
CONTINUOUS
 62
     7
100
AcDbVertex
100
AcDb2dVertex
 10
7.5987389684
 20
6.8586717382
 30
0.0
  0
VERTEX
  5
66A
330
2CA
100
AcDbEntity
  8
0
  6
CONTINUOUS
 62
     7
100
AcDbVertex
100
AcDb2dVertex
 10
7.6106074831
 20
6.8937368904
 30
0.0
  0
VERTEX
  5
66B
330
2CA
100
AcDbEntity
  8
0
  6
CONTINUOUS
 62
     7
100
AcDbVertex
100
AcDb2dVertex
 10
7.623625094
 20
6.9287813197
 30
0.0
  0
VERTEX
  5
66C
330
2CA
100
AcDbEntity
  8
0
  6
CONTINUOUS
 62
     7
100
AcDbVertex
100
AcDb2dVertex
 10
7.637762312
 20
6.9637256393
 30
0.0
  0
VERTEX
  5
66D
330
2CA
100
AcDbEntity
  8
0
  6
CONTINUOUS
 62
     7
100
AcDbVertex
100
AcDb2dVertex
 10
7.6529871118
 20
6.998490689
 30
0.0
  0
VERTEX
  5
66E
330
2CA
100
AcDbEntity
  8
0
  6
CONTINUOUS
 62
     7
100
AcDbVertex
100
AcDb2dVertex
 10
7.6692650043
 20
7.0329977149
 30
0.0
  0
VERTEX
  5
66F
330
2CA
100
AcDbEntity
  8
0
  6
CONTINUOUS
 62
     7
100
AcDbVertex
100
AcDb2dVertex
 10
7.6865591148
 20
7.0671685473
 30
0.0
  0
VERTEX
  5
670
330
2CA
100
AcDbEntity
  8
0
  6
CONTINUOUS
 62
     7
100
AcDbVertex
100
AcDb2dVertex
 10
7.7048302666
 20
7.1009257784
 30
0.0
  0
VERTEX
  5
671
330
2CA
100
AcDbEntity
  8
0
  6
CONTINUOUS
 62
     7
100
AcDbVertex
100
AcDb2dVertex
 10
7.7240370698
 20
7.1341929372
 30
0.0
  0
VERTEX
  5
672
330
2CA
100
AcDbEntity
  8
0
  6
CONTINUOUS
 62
     7
100
AcDbVertex
100
AcDb2dVertex
 10
7.7441360146
 20
7.1668946628
 30
0.0
  0
VERTEX
  5
673
330
2CA
100
AcDbEntity
  8
0
  6
CONTINUOUS
 62
     7
100
AcDbVertex
100
AcDb2dVertex
 10
7.7650815706
 20
7.1989568754
 30
0.0
  0
VERTEX
  5
674
330
2CA
100
AcDbEntity
  8
0
  6
CONTINUOUS
 62
     7
100
AcDbVertex
100
AcDb2dVertex
 10
7.7868262892
 20
7.2303069438
 30
0.0
  0
VERTEX
  5
675
330
2CA
100
AcDbEntity
  8
0
  6
CONTINUOUS
 62
     7
100
AcDbVertex
100
AcDb2dVertex
 10
7.8093209118
 20
7.2608738498
 30
0.0
  0
VERTEX
  5
676
330
2CA
100
AcDbEntity
  8
0
  6
CONTINUOUS
 62
     7
100
AcDbVertex
100
AcDb2dVertex
 10
7.8325144808
 20
7.2905883497
 30
0.0
  0
VERTEX
  5
677
330
2CA
100
AcDbEntity
  8
0
  6
CONTINUOUS
 62
     7
100
AcDbVertex
100
AcDb2dVertex
 10
7.8563544552
 20
7.3193831306
 30
0.0
  0
VERTEX
  5
678
330
2CA
100
AcDbEntity
  8
0
  6
CONTINUOUS
 62
     7
100
AcDbVertex
100
AcDb2dVertex
 10
7.8807868298
 20
7.347192963
 30
0.0
  0
VERTEX
  5
679
330
2CA
100
AcDbEntity
  8
0
  6
CONTINUOUS
 62
     7
100
AcDbVertex
100
AcDb2dVertex
 10
7.9057562576
 20
7.3739548487
 30
0.0
  0
VERTEX
  5
67A
330
2CA
100
AcDbEntity
  8
0
  6
CONTINUOUS
 62
     7
100
AcDbVertex
100
AcDb2dVertex
 10
7.9312061746
 20
7.3996081634
 30
0.0
  0
VERTEX
  5
67B
330
2CA
100
AcDbEntity
  8
0
  6
CONTINUOUS
 62
     7
100
AcDbVertex
100
AcDb2dVertex
 10
7.9570789287
 20
7.4240947942
 30
0.0
  0
VERTEX
  5
67C
330
2CA
100
AcDbEntity
  8
0
  6
CONTINUOUS
 62
     7
100
AcDbVertex
100
AcDb2dVertex
 10
7.9833159097
 20
7.4473592709
 30
0.0
  0
VERTEX
  5
67D
330
2CA
100
AcDbEntity
  8
0
  6
CONTINUOUS
 62
     7
100
AcDbVertex
100
AcDb2dVertex
 10
8.0098576825
 20
7.4693488919
 30
0.0
  0
VERTEX
  5
67E
330
2CA
100
AcDbEntity
  8
0
  6
CONTINUOUS
 62
     7
100
AcDbVertex
100
AcDb2dVertex
 10
8.0366441213
 20
7.4900138438
 30
0.0
  0
VERTEX
  5
67F
330
2CA
100
AcDbEntity
  8
0
  6
CONTINUOUS
 62
     7
100
AcDbVertex
100
AcDb2dVertex
 10
8.0636145463
 20
7.5093073138
 30
0.0
  0
VERTEX
  5
680
330
2CA
100
AcDbEntity
  8
0
  6
CONTINUOUS
 62
     7
100
AcDbVertex
100
AcDb2dVertex
 10
8.0907078608
 20
7.5271855959
 30
0.0
  0
VERTEX
  5
681
330
2CA
100
AcDbEntity
  8
0
  6
CONTINUOUS
 62
     7
100
AcDbVertex
100
AcDb2dVertex
 10
8.1178626897
 20
7.5436081902
 30
0.0
  0
SEQEND
  5
682
330
2CA
100
AcDbEntity
  8
0
  6
CONTINUOUS
 62
     7
  0
POLYLINE
  5
2CB
330
1F
100
AcDbEntity
  8
0
  6
CONTINUOUS
 62
     7
100
AcDb2dPolyline
 66
     1
 10
0.0
 20
0.0
 30
0.0
  0
VERTEX
  5
683
330
2CB
100
AcDbEntity
  8
0
  6
CONTINUOUS
 62
     7
100
AcDbVertex
100
AcDb2dVertex
 10
8.164194967
 20
7.5033771072
 30
0.0
  0
VERTEX
  5
684
330
2CB
100
AcDbEntity
  8
0
  6
CONTINUOUS
 62
     7
100
AcDbVertex
100
AcDb2dVertex
 10
8.1599091049
 20
7.5036743459
 30
0.0
  0
VERTEX
  5
685
330
2CB
100
AcDbEntity
  8
0
  6
CONTINUOUS
 62
     7
100
AcDbVertex
100
AcDb2dVertex
 10
8.1499460141
 20
7.5031007605
 30
0.0
  0
VERTEX
  5
686
330
2CB
100
AcDbEntity
  8
0
  6
CONTINUOUS
 62
     7
100
AcDbVertex
100
AcDb2dVertex
 10
8.1395150763
 20
7.5008325637
 30
0.0
  0
VERTEX
  5
687
330
2CB
100
AcDbEntity
  8
0
  6
CONTINUOUS
 62
     7
100
AcDbVertex
100
AcDb2dVertex
 10
8.1287683979
 20
7.4969028309
 30
0.0
  0
VERTEX
  5
688
330
2CB
100
AcDbEntity
  8
0
  6
CONTINUOUS
 62
     7
100
AcDbVertex
100
AcDb2dVertex
 10
8.1178626897
 20
7.4913688666
 30
0.0
  0
VERTEX
  5
689
330
2CB
100
AcDbEntity
  8
0
  6
CONTINUOUS
 62
     7
100
AcDbVertex
100
AcDb2dVertex
 10
8.1069569815
 20
7.4843113683
 30
0.0
  0
VERTEX
  5
68A
330
2CB
100
AcDbEntity
  8
0
  6
CONTINUOUS
 62
     7
100
AcDbVertex
100
AcDb2dVertex
 10
8.0962103031
 20
7.4758332503
 30
0.0
  0
VERTEX
  5
68B
330
2CB
100
AcDbEntity
  8
0
  6
CONTINUOUS
 62
     7
100
AcDbVertex
100
AcDb2dVertex
 10
8.0857793653
 20
7.4660581426
 30
0.0
  0
VERTEX
  5
68C
330
2CB
100
AcDbEntity
  8
0
  6
CONTINUOUS
 62
     7
100
AcDbVertex
100
AcDb2dVertex
 10
8.0758162745
 20
7.4551285883
 30
0.0
  0
VERTEX
  5
68D
330
2CB
100
AcDbEntity
  8
0
  6
CONTINUOUS
 62
     7
100
AcDbVertex
100
AcDb2dVertex
 10
8.0664663152
 20
7.4432039649
 30
0.0
  0
VERTEX
  5
68E
330
2CB
100
AcDbEntity
  8
0
  6
CONTINUOUS
 62
     7
100
AcDbVertex
100
AcDb2dVertex
 10
8.0578658307
 20
7.4304581603
 30
0.0
  0
VERTEX
  5
68F
330
2CB
100
AcDbEntity
  8
0
  6
CONTINUOUS
 62
     7
100
AcDbVertex
100
AcDb2dVertex
 10
8.0501402356
 20
7.4170770371
 30
0.0
  0
VERTEX
  5
690
330
2CB
100
AcDbEntity
  8
0
  6
CONTINUOUS
 62
     7
100
AcDbVertex
100
AcDb2dVertex
 10
8.0434021863
 20
7.403255722
 30
0.0
  0
VERTEX
  5
691
330
2CB
100
AcDbEntity
  8
0
  6
CONTINUOUS
 62
     7
100
AcDbVertex
100
AcDb2dVertex
 10
8.0377499389
 20
7.3891957611
 30
0.0
  0
VERTEX
  5
692
330
2CB
100
AcDbEntity
  8
0
  6
CONTINUOUS
 62
     7
100
AcDbVertex
100
AcDb2dVertex
 10
8.0332659157
 20
7.3751021802
 30
0.0
  0
VERTEX
  5
693
330
2CB
100
AcDbEntity
  8
0
  6
CONTINUOUS
 62
     7
100
AcDbVertex
100
AcDb2dVertex
 10
8.030015504
 20
7.3611804954
 30
0.0
  0
VERTEX
  5
694
330
2CB
100
AcDbEntity
  8
0
  6
CONTINUOUS
 62
     7
100
AcDbVertex
100
AcDb2dVertex
 10
8.0280461021
 20
7.3476337163
 30
0.0
  0
VERTEX
  5
695
330
2CB
100
AcDbEntity
  8
0
  6
CONTINUOUS
 62
     7
100
AcDbVertex
100
AcDb2dVertex
 10
8.0273864283
 20
7.3346593855
 30
0.0
  0
SEQEND
  5
696
330
2CB
100
AcDbEntity
  8
0
  6
CONTINUOUS
 62
     7
  0
POLYLINE
  5
2CC
330
1F
100
AcDbEntity
  8
0
  6
CONTINUOUS
 62
     7
100
AcDb2dPolyline
 66
     1
 10
0.0
 20
0.0
 30
0.0
  0
VERTEX
  5
697
330
2CC
100
AcDbEntity
  8
0
  6
CONTINUOUS
 62
     7
100
AcDbVertex
100
AcDb2dVertex
 10
7.5665418053
 20
6.2709416985
 30
0.0
  0
VERTEX
  5
698
330
2CC
100
AcDbEntity
  8
0
  6
CONTINUOUS
 62
     7
100
AcDbVertex
100
AcDb2dVertex
 10
7.5570198944
 20
6.2767043101
 30
0.0
  0
VERTEX
  5
699
330
2CC
100
AcDbEntity
  8
0
  6
CONTINUOUS
 62
     7
100
AcDbVertex
100
AcDb2dVertex
 10
7.5387487426
 20
6.2893661183
 30
0.0
  0
VERTEX
  5
69A
330
2CC
100
AcDbEntity
  8
0
  6
CONTINUOUS
 62
     7
100
AcDbVertex
100
AcDb2dVertex
 10
7.521454632
 20
6.3035695958
 30
0.0
  0
VERTEX
  5
69B
330
2CC
100
AcDbEntity
  8
0
  6
CONTINUOUS
 62
     7
100
AcDbVertex
100
AcDb2dVertex
 10
7.5051767395
 20
6.319282567
 30
0.0
  0
VERTEX
  5
69C
330
2CC
100
AcDbEntity
  8
0
  6
CONTINUOUS
 62
     7
100
AcDbVertex
100
AcDb2dVertex
 10
7.4899519397
 20
6.336469437
 30
0.0
  0
VERTEX
  5
69D
330
2CC
100
AcDbEntity
  8
0
  6
CONTINUOUS
 62
     7
100
AcDbVertex
100
AcDb2dVertex
 10
7.4758147217
 20
6.3550912721
 30
0.0
  0
VERTEX
  5
69E
330
2CC
100
AcDbEntity
  8
0
  6
CONTINUOUS
 62
     7
100
AcDbVertex
100
AcDb2dVertex
 10
7.4627971108
 20
6.3751058878
 30
0.0
  0
VERTEX
  5
69F
330
2CC
100
AcDbEntity
  8
0
  6
CONTINUOUS
 62
     7
100
AcDbVertex
100
AcDb2dVertex
 10
7.4509285961
 20
6.3964679446
 30
0.0
  0
VERTEX
  5
6A0
330
2CC
100
AcDbEntity
  8
0
  6
CONTINUOUS
 62
     7
100
AcDbVertex
100
AcDb2dVertex
 10
7.4402360636
 20
6.4191290505
 30
0.0
  0
VERTEX
  5
6A1
330
2CC
100
AcDbEntity
  8
0
  6
CONTINUOUS
 62
     7
100
AcDbVertex
100
AcDb2dVertex
 10
7.4307437353
 20
6.4430378709
 30
0.0
  0
VERTEX
  5
6A2
330
2CC
100
AcDbEntity
  8
0
  6
CONTINUOUS
 62
     7
100
AcDbVertex
100
AcDb2dVertex
 10
7.4224731144
 20
6.4681402446
 30
0.0
  0
VERTEX
  5
6A3
330
2CC
100
AcDbEntity
  8
0
  6
CONTINUOUS
 62
     7
100
AcDbVertex
100
AcDb2dVertex
 10
7.4154429366
 20
6.4943793065
 30
0.0
  0
VERTEX
  5
6A4
330
2CC
100
AcDbEntity
  8
0
  6
CONTINUOUS
 62
     7
100
AcDbVertex
100
AcDb2dVertex
 10
7.4096691273
 20
6.5216956169
 30
0.0
  0
VERTEX
  5
6A5
330
2CC
100
AcDbEntity
  8
0
  6
CONTINUOUS
 62
     7
100
AcDbVertex
100
AcDb2dVertex
 10
7.4051647662
 20
6.5500272955
 30
0.0
  0
VERTEX
  5
6A6
330
2CC
100
AcDbEntity
  8
0
  6
CONTINUOUS
 62
     7
100
AcDbVertex
100
AcDb2dVertex
 10
7.4019400571
 20
6.5793101619
 30
0.0
  0
VERTEX
  5
6A7
330
2CC
100
AcDbEntity
  8
0
  6
CONTINUOUS
 62
     7
100
AcDbVertex
100
AcDb2dVertex
 10
7.400002305
 20
6.609477881
 30
0.0
  0
VERTEX
  5
6A8
330
2CC
100
AcDbEntity
  8
0
  6
CONTINUOUS
 62
     7
100
AcDbVertex
100
AcDb2dVertex
 10
7.3993558996
 20
6.6404621132
 30
0.0
  0
VERTEX
  5
6A9
330
2CC
100
AcDbEntity
  8
0
  6
CONTINUOUS
 62
     7
100
AcDbVertex
100
AcDb2dVertex
 10
7.400002305
 20
6.6721926693
 30
0.0
  0
VERTEX
  5
6AA
330
2CC
100
AcDbEntity
  8
0
  6
CONTINUOUS
 62
     7
100
AcDbVertex
100
AcDb2dVertex
 10
7.4019400571
 20
6.7045976694
 30
0.0
  0
VERTEX
  5
6AB
330
2CC
100
AcDbEntity
  8
0
  6
CONTINUOUS
 62
     7
100
AcDbVertex
100
AcDb2dVertex
 10
7.4051647662
 20
6.7376037056
 30
0.0
  0
VERTEX
  5
6AC
330
2CC
100
AcDbEntity
  8
0
  6
CONTINUOUS
 62
     7
100
AcDbVertex
100
AcDb2dVertex
 10
7.4096691273
 20
6.7711360088
 30
0.0
  0
VERTEX
  5
6AD
330
2CC
100
AcDbEntity
  8
0
  6
CONTINUOUS
 62
     7
100
AcDbVertex
100
AcDb2dVertex
 10
7.4154429366
 20
6.8051186174
 30
0.0
  0
VERTEX
  5
6AE
330
2CC
100
AcDbEntity
  8
0
  6
CONTINUOUS
 62
     7
100
AcDbVertex
100
AcDb2dVertex
 10
7.4224731144
 20
6.83947455
 30
0.0
  0
VERTEX
  5
6AF
330
2CC
100
AcDbEntity
  8
0
  6
CONTINUOUS
 62
     7
100
AcDbVertex
100
AcDb2dVertex
 10
7.4307437353
 20
6.8741259793
 30
0.0
  0
VERTEX
  5
6B0
330
2CC
100
AcDbEntity
  8
0
  6
CONTINUOUS
 62
     7
100
AcDbVertex
100
AcDb2dVertex
 10
7.4402360636
 20
6.9089944086
 30
0.0
  0
VERTEX
  5
6B1
330
2CC
100
AcDbEntity
  8
0
  6
CONTINUOUS
 62
     7
100
AcDbVertex
100
AcDb2dVertex
 10
7.4509285961
 20
6.9440008498
 30
0.0
  0
VERTEX
  5
6B2
330
2CC
100
AcDbEntity
  8
0
  6
CONTINUOUS
 62
     7
100
AcDbVertex
100
AcDb2dVertex
 10
7.4627971108
 20
6.979066002
 30
0.0
  0
VERTEX
  5
6B3
330
2CC
100
AcDbEntity
  8
0
  6
CONTINUOUS
 62
     7
100
AcDbVertex
100
AcDb2dVertex
 10
7.4758147217
 20
7.0141104313
 30
0.0
  0
VERTEX
  5
6B4
330
2CC
100
AcDbEntity
  8
0
  6
CONTINUOUS
 62
     7
100
AcDbVertex
100
AcDb2dVertex
 10
7.4899519397
 20
7.0490547509
 30
0.0
  0
VERTEX
  5
6B5
330
2CC
100
AcDbEntity
  8
0
  6
CONTINUOUS
 62
     7
100
AcDbVertex
100
AcDb2dVertex
 10
7.5051767395
 20
7.0838198006
 30
0.0
  0
VERTEX
  5
6B6
330
2CC
100
AcDbEntity
  8
0
  6
CONTINUOUS
 62
     7
100
AcDbVertex
100
AcDb2dVertex
 10
7.521454632
 20
7.1183268265
 30
0.0
  0
VERTEX
  5
6B7
330
2CC
100
AcDbEntity
  8
0
  6
CONTINUOUS
 62
     7
100
AcDbVertex
100
AcDb2dVertex
 10
7.5387487426
 20
7.1524976589
 30
0.0
  0
VERTEX
  5
6B8
330
2CC
100
AcDbEntity
  8
0
  6
CONTINUOUS
 62
     7
100
AcDbVertex
100
AcDb2dVertex
 10
7.5570198944
 20
7.18625489
 30
0.0
  0
VERTEX
  5
6B9
330
2CC
100
AcDbEntity
  8
0
  6
CONTINUOUS
 62
     7
100
AcDbVertex
100
AcDb2dVertex
 10
7.5762266975
 20
7.2195220488
 30
0.0
  0
VERTEX
  5
6BA
330
2CC
100
AcDbEntity
  8
0
  6
CONTINUOUS
 62
     7
100
AcDbVertex
100
AcDb2dVertex
 10
7.5963256424
 20
7.2522237744
 30
0.0
  0
VERTEX
  5
6BB
330
2CC
100
AcDbEntity
  8
0
  6
CONTINUOUS
 62
     7
100
AcDbVertex
100
AcDb2dVertex
 10
7.6172711983
 20
7.2842859871
 30
0.0
  0
VERTEX
  5
6BC
330
2CC
100
AcDbEntity
  8
0
  6
CONTINUOUS
 62
     7
100
AcDbVertex
100
AcDb2dVertex
 10
7.639015917
 20
7.3156360554
 30
0.0
  0
VERTEX
  5
6BD
330
2CC
100
AcDbEntity
  8
0
  6
CONTINUOUS
 62
     7
100
AcDbVertex
100
AcDb2dVertex
 10
7.6615105396
 20
7.3462029614
 30
0.0
  0
VERTEX
  5
6BE
330
2CC
100
AcDbEntity
  8
0
  6
CONTINUOUS
 62
     7
100
AcDbVertex
100
AcDb2dVertex
 10
7.6847041085
 20
7.3759174614
 30
0.0
  0
VERTEX
  5
6BF
330
2CC
100
AcDbEntity
  8
0
  6
CONTINUOUS
 62
     7
100
AcDbVertex
100
AcDb2dVertex
 10
7.7085440829
 20
7.4047122422
 30
0.0
  0
VERTEX
  5
6C0
330
2CC
100
AcDbEntity
  8
0
  6
CONTINUOUS
 62
     7
100
AcDbVertex
100
AcDb2dVertex
 10
7.7329764576
 20
7.4325220746
 30
0.0
  0
VERTEX
  5
6C1
330
2CC
100
AcDbEntity
  8
0
  6
CONTINUOUS
 62
     7
100
AcDbVertex
100
AcDb2dVertex
 10
7.7579458854
 20
7.4592839603
 30
0.0
  0
VERTEX
  5
6C2
330
2CC
100
AcDbEntity
  8
0
  6
CONTINUOUS
 62
     7
100
AcDbVertex
100
AcDb2dVertex
 10
7.7833958024
 20
7.4849372751
 30
0.0
  0
VERTEX
  5
6C3
330
2CC
100
AcDbEntity
  8
0
  6
CONTINUOUS
 62
     7
100
AcDbVertex
100
AcDb2dVertex
 10
7.8092685565
 20
7.5094239058
 30
0.0
  0
VERTEX
  5
6C4
330
2CC
100
AcDbEntity
  8
0
  6
CONTINUOUS
 62
     7
100
AcDbVertex
100
AcDb2dVertex
 10
7.8355055375
 20
7.5326883825
 30
0.0
  0
VERTEX
  5
6C5
330
2CC
100
AcDbEntity
  8
0
  6
CONTINUOUS
 62
     7
100
AcDbVertex
100
AcDb2dVertex
 10
7.8620473102
 20
7.5546780035
 30
0.0
  0
VERTEX
  5
6C6
330
2CC
100
AcDbEntity
  8
0
  6
CONTINUOUS
 62
     7
100
AcDbVertex
100
AcDb2dVertex
 10
7.888833749
 20
7.5753429554
 30
0.0
  0
VERTEX
  5
6C7
330
2CC
100
AcDbEntity
  8
0
  6
CONTINUOUS
 62
     7
100
AcDbVertex
100
AcDb2dVertex
 10
7.915804174
 20
7.5946364254
 30
0.0
  0
VERTEX
  5
6C8
330
2CC
100
AcDbEntity
  8
0
  6
CONTINUOUS
 62
     7
100
AcDbVertex
100
AcDb2dVertex
 10
7.9428974885
 20
7.6125147076
 30
0.0
  0
VERTEX
  5
6C9
330
2CC
100
AcDbEntity
  8
0
  6
CONTINUOUS
 62
     7
100
AcDbVertex
100
AcDb2dVertex
 10
7.9700523175
 20
7.6289373018
 30
0.0
  0
VERTEX
  5
6CA
330
2CC
100
AcDbEntity
  8
0
  6
CONTINUOUS
 62
     7
100
AcDbVertex
100
AcDb2dVertex
 10
7.9972071464
 20
7.6438670057
 30
0.0
  0
VERTEX
  5
6CB
330
2CC
100
AcDbEntity
  8
0
  6
CONTINUOUS
 62
     7
100
AcDbVertex
100
AcDb2dVertex
 10
8.0243004609
 20
7.6572699986
 30
0.0
  0
VERTEX
  5
6CC
330
2CC
100
AcDbEntity
  8
0
  6
CONTINUOUS
 62
     7
100
AcDbVertex
100
AcDb2dVertex
 10
8.0512708859
 20
7.6691159185
 30
0.0
  0
VERTEX
  5
6CD
330
2CC
100
AcDbEntity
  8
0
  6
CONTINUOUS
 62
     7
100
AcDbVertex
100
AcDb2dVertex
 10
8.0780573247
 20
7.6793779306
 30
0.0
  0
VERTEX
  5
6CE
330
2CC
100
AcDbEntity
  8
0
  6
CONTINUOUS
 62
     7
100
AcDbVertex
100
AcDb2dVertex
 10
8.1045990974
 20
7.688032788
 30
0.0
  0
VERTEX
  5
6CF
330
2CC
100
AcDbEntity
  8
0
  6
CONTINUOUS
 62
     7
100
AcDbVertex
100
AcDb2dVertex
 10
8.1308360785
 20
7.6950608848
 30
0.0
  0
VERTEX
  5
6D0
330
2CC
100
AcDbEntity
  8
0
  6
CONTINUOUS
 62
     7
100
AcDbVertex
100
AcDb2dVertex
 10
8.1567088325
 20
7.7004463001
 30
0.0
  0
VERTEX
  5
6D1
330
2CC
100
AcDbEntity
  8
0
  6
CONTINUOUS
 62
     7
100
AcDbVertex
100
AcDb2dVertex
 10
8.1821587496
 20
7.7041768341
 30
0.0
  0
VERTEX
  5
6D2
330
2CC
100
AcDbEntity
  8
0
  6
CONTINUOUS
 62
     7
100
AcDbVertex
100
AcDb2dVertex
 10
8.2071281773
 20
7.7062440361
 30
0.0
  0
VERTEX
  5
6D3
330
2CC
100
AcDbEntity
  8
0
  6
CONTINUOUS
 62
     7
100
AcDbVertex
100
AcDb2dVertex
 10
8.231560552
 20
7.706643223
 30
0.0
  0
VERTEX
  5
6D4
330
2CC
100
AcDbEntity
  8
0
  6
CONTINUOUS
 62
     7
100
AcDbVertex
100
AcDb2dVertex
 10
8.2554005264
 20
7.7053734907
 30
0.0
  0
VERTEX
  5
6D5
330
2CC
100
AcDbEntity
  8
0
  6
CONTINUOUS
 62
     7
100
AcDbVertex
100
AcDb2dVertex
 10
8.2785940953
 20
7.7024377155
 30
0.0
  0
VERTEX
  5
6D6
330
2CC
100
AcDbEntity
  8
0
  6
CONTINUOUS
 62
     7
100
AcDbVertex
100
AcDb2dVertex
 10
8.3010887179
 20
7.6978425479
 30
0.0
  0
VERTEX
  5
6D7
330
2CC
100
AcDbEntity
  8
0
  6
CONTINUOUS
 62
     7
100
AcDbVertex
100
AcDb2dVertex
 10
8.3228334366
 20
7.6915983973
 30
0.0
  0
VERTEX
  5
6D8
330
2CC
100
AcDbEntity
  8
0
  6
CONTINUOUS
 62
     7
100
AcDbVertex
100
AcDb2dVertex
 10
8.3437789925
 20
7.6837194089
 30
0.0
  0
VERTEX
  5
6D9
330
2CC
100
AcDbEntity
  8
0
  6
CONTINUOUS
 62
     7
100
AcDbVertex
100
AcDb2dVertex
 10
8.3638779374
 20
7.6742234309
 30
0.0
  0
VERTEX
  5
6DA
330
2CC
100
AcDbEntity
  8
0
  6
CONTINUOUS
 62
     7
100
AcDbVertex
100
AcDb2dVertex
 10
8.3735628296
 20
7.6688945866
 30
0.0
  0
SEQEND
  5
6DB
330
2CC
100
AcDbEntity
  8
0
  6
CONTINUOUS
 62
     7
  0
LINE
  5
2CD
330
1F
100
AcDbEntity
  8
0
  6
CONTINUOUS
 62
     7
100
AcDbLine
 10
8.0726907793
 20
7.4129824159
 30
0.0
 11
8.0067386535
 21
7.2987499834
 31
0.0
  0
LINE
  5
2CE
330
1F
100
AcDbEntity
  8
0
  6
CONTINUOUS
 62
     7
100
AcDbLine
 10
7.703673321
 20
6.7738254311
 30
0.0
 11
7.6377087535
 21
6.659571449
 31
0.0
  0
POLYLINE
  5
2CF
330
1F
100
AcDbEntity
  8
0
  6
CONTINUOUS
 62
     7
100
AcDb2dPolyline
 66
     1
 10
0.0
 20
0.0
 30
0.0
  0
VERTEX
  5
6DC
330
2CF
100
AcDbEntity
  8
0
  6
CONTINUOUS
 62
     7
100
AcDbVertex
100
AcDb2dVertex
 10
7.963000982
 20
7.6248653378
 30
0.0
  0
VERTEX
  5
6DD
330
2CF
100
AcDbEntity
  8
0
  6
CONTINUOUS
 62
     7
100
AcDbVertex
100
AcDb2dVertex
 10
7.9495745796
 20
7.6169272623
 30
0.0
  0
VERTEX
  5
6DE
330
2CF
100
AcDbEntity
  8
0
  6
CONTINUOUS
 62
     7
100
AcDbVertex
100
AcDb2dVertex
 10
7.9225696205
 20
7.5998407815
 30
0.0
  0
VERTEX
  5
6DF
330
2CF
100
AcDbEntity
  8
0
  6
CONTINUOUS
 62
     7
100
AcDbVertex
100
AcDb2dVertex
 10
7.8956578656
 20
7.5813146995
 30
0.0
  0
VERTEX
  5
6E0
330
2CF
100
AcDbEntity
  8
0
  6
CONTINUOUS
 62
     7
100
AcDbVertex
100
AcDb2dVertex
 10
7.8689012127
 20
7.5613916268
 30
0.0
  0
VERTEX
  5
6E1
330
2CF
100
AcDbEntity
  8
0
  6
CONTINUOUS
 62
     7
100
AcDbVertex
100
AcDb2dVertex
 10
7.8423612031
 20
7.540117387
 30
0.0
  0
VERTEX
  5
6E2
330
2CF
100
AcDbEntity
  8
0
  6
CONTINUOUS
 62
     7
100
AcDbVertex
100
AcDb2dVertex
 10
7.8160988795
 20
7.5175409117
 30
0.0
  0
VERTEX
  5
6E3
330
2CF
100
AcDbEntity
  8
0
  6
CONTINUOUS
 62
     7
100
AcDbVertex
100
AcDb2dVertex
 10
7.7901746463
 20
7.4937141275
 30
0.0
  0
VERTEX
  5
6E4
330
2CF
100
AcDbEntity
  8
0
  6
CONTINUOUS
 62
     7
100
AcDbVertex
100
AcDb2dVertex
 10
7.7646481299
 20
7.4686918366
 30
0.0
  0
VERTEX
  5
6E5
330
2CF
100
AcDbEntity
  8
0
  6
CONTINUOUS
 62
     7
100
AcDbVertex
100
AcDb2dVertex
 10
7.7395780421
 20
7.4425315913
 30
0.0
  0
VERTEX
  5
6E6
330
2CF
100
AcDbEntity
  8
0
  6
CONTINUOUS
 62
     7
100
AcDbVertex
100
AcDb2dVertex
 10
7.715022045
 20
7.4152935608
 30
0.0
  0
VERTEX
  5
6E7
330
2CF
100
AcDbEntity
  8
0
  6
CONTINUOUS
 62
     7
100
AcDbVertex
100
AcDb2dVertex
 10
7.6910366181
 20
7.3870403936
 30
0.0
  0
VERTEX
  5
6E8
330
2CF
100
AcDbEntity
  8
0
  6
CONTINUOUS
 62
     7
100
AcDbVertex
100
AcDb2dVertex
 10
7.6676769287
 20
7.3578370728
 30
0.0
  0
VERTEX
  5
6E9
330
2CF
100
AcDbEntity
  8
0
  6
CONTINUOUS
 62
     7
100
AcDbVertex
100
AcDb2dVertex
 10
7.6449967049
 20
7.327750767
 30
0.0
  0
VERTEX
  5
6EA
330
2CF
100
AcDbEntity
  8
0
  6
CONTINUOUS
 62
     7
100
AcDbVertex
100
AcDb2dVertex
 10
7.6230481118
 20
7.2968506757
 30
0.0
  0
VERTEX
  5
6EB
330
2CF
100
AcDbEntity
  8
0
  6
CONTINUOUS
 62
     7
100
AcDbVertex
100
AcDb2dVertex
 10
7.6018816319
 20
7.26520787
 30
0.0
  0
VERTEX
  5
6EC
330
2CF
100
AcDbEntity
  8
0
  6
CONTINUOUS
 62
     7
100
AcDbVertex
100
AcDb2dVertex
 10
7.5815459489
 20
7.2328951295
 30
0.0
  0
VERTEX
  5
6ED
330
2CF
100
AcDbEntity
  8
0
  6
CONTINUOUS
 62
     7
100
AcDbVertex
100
AcDb2dVertex
 10
7.5620878354
 20
7.1999867744
 30
0.0
  0
VERTEX
  5
6EE
330
2CF
100
AcDbEntity
  8
0
  6
CONTINUOUS
 62
     7
100
AcDbVertex
100
AcDb2dVertex
 10
7.5435520457
 20
7.1665584951
 30
0.0
  0
VERTEX
  5
6EF
330
2CF
100
AcDbEntity
  8
0
  6
CONTINUOUS
 62
     7
100
AcDbVertex
100
AcDb2dVertex
 10
7.5259812127
 20
7.1326871776
 30
0.0
  0
VERTEX
  5
6F0
330
2CF
100
AcDbEntity
  8
0
  6
CONTINUOUS
 62
     7
100
AcDbVertex
100
AcDb2dVertex
 10
7.50941575
 20
7.0984507271
 30
0.0
  0
VERTEX
  5
6F1
330
2CF
100
AcDbEntity
  8
0
  6
CONTINUOUS
 62
     7
100
AcDbVertex
100
AcDb2dVertex
 10
7.4938937585
 20
7.0639278885
 30
0.0
  0
VERTEX
  5
6F2
330
2CF
100
AcDbEntity
  8
0
  6
CONTINUOUS
 62
     7
100
AcDbVertex
100
AcDb2dVertex
 10
7.4794509395
 20
7.0291980655
 30
0.0
  0
VERTEX
  5
6F3
330
2CF
100
AcDbEntity
  8
0
  6
CONTINUOUS
 62
     7
100
AcDbVertex
100
AcDb2dVertex
 10
7.4661205117
 20
6.9943411377
 30
0.0
  0
VERTEX
  5
6F4
330
2CF
100
AcDbEntity
  8
0
  6
CONTINUOUS
 62
     7
100
AcDbVertex
100
AcDb2dVertex
 10
7.4539331357
 20
6.9594372772
 30
0.0
  0
VERTEX
  5
6F5
330
2CF
100
AcDbEntity
  8
0
  6
CONTINUOUS
 62
     7
100
AcDbVertex
100
AcDb2dVertex
 10
7.4429168428
 20
6.924566764
 30
0.0
  0
VERTEX
  5
6F6
330
2CF
100
AcDbEntity
  8
0
  6
CONTINUOUS
 62
     7
100
AcDbVertex
100
AcDb2dVertex
 10
7.4330969708
 20
6.8898098013
 30
0.0
  0
VERTEX
  5
6F7
330
2CF
100
AcDbEntity
  8
0
  6
CONTINUOUS
 62
     7
100
AcDbVertex
100
AcDb2dVertex
 10
7.4244961058
 20
6.8552463315
 30
0.0
  0
VERTEX
  5
6F8
330
2CF
100
AcDbEntity
  8
0
  6
CONTINUOUS
 62
     7
100
AcDbVertex
100
AcDb2dVertex
 10
7.41713403
 20
6.8209558514
 30
0.0
  0
VERTEX
  5
6F9
330
2CF
100
AcDbEntity
  8
0
  6
CONTINUOUS
 62
     7
100
AcDbVertex
100
AcDb2dVertex
 10
7.4110276764
 20
6.7870172303
 30
0.0
  0
VERTEX
  5
6FA
330
2CF
100
AcDbEntity
  8
0
  6
CONTINUOUS
 62
     7
100
AcDbVertex
100
AcDb2dVertex
 10
7.4061910898
 20
6.7535085281
 30
0.0
  0
VERTEX
  5
6FB
330
2CF
100
AcDbEntity
  8
0
  6
CONTINUOUS
 62
     7
100
AcDbVertex
100
AcDb2dVertex
 10
7.4026353946
 20
6.720506816
 30
0.0
  0
VERTEX
  5
6FC
330
2CF
100
AcDbEntity
  8
0
  6
CONTINUOUS
 62
     7
100
AcDbVertex
100
AcDb2dVertex
 10
7.4003687688
 20
6.6880879989
 30
0.0
  0
VERTEX
  5
6FD
330
2CF
100
AcDbEntity
  8
0
  6
CONTINUOUS
 62
     7
100
AcDbVertex
100
AcDb2dVertex
 10
7.399396426
 20
6.6563266411
 30
0.0
  0
VERTEX
  5
6FE
330
2CF
100
AcDbEntity
  8
0
  6
CONTINUOUS
 62
     7
100
AcDbVertex
100
AcDb2dVertex
 10
7.3993558996
 20
6.6484976261
 30
0.0
  0
SEQEND
  5
6FF
330
2CF
100
AcDbEntity
  8
0
  6
CONTINUOUS
 62
     7
  0
POLYLINE
  5
2D0
330
1F
100
AcDbEntity
  8
0
  6
CONTINUOUS
 62
     7
100
AcDb2dPolyline
 66
     1
 10
0.0
 20
0.0
 30
0.0
  0
VERTEX
  5
700
330
2D0
100
AcDbEntity
  8
0
  6
CONTINUOUS
 62
     7
100
AcDbVertex
100
AcDb2dVertex
 10
7.6377087535
 20
6.659571449
 30
0.0
  0
VERTEX
  5
701
330
2D0
100
AcDbEntity
  8
0
  6
CONTINUOUS
 62
     7
100
AcDbVertex
100
AcDb2dVertex
 10
7.629257739
 20
6.6437725461
 30
0.0
  0
VERTEX
  5
702
330
2D0
100
AcDbEntity
  8
0
  6
CONTINUOUS
 62
     7
100
AcDbVertex
100
AcDb2dVertex
 10
7.621918676
 20
6.6275915709
 30
0.0
  0
VERTEX
  5
703
330
2D0
100
AcDbEntity
  8
0
  6
CONTINUOUS
 62
     7
100
AcDbVertex
100
AcDb2dVertex
 10
7.6157838575
 20
6.6112320087
 30
0.0
  0
VERTEX
  5
704
330
2D0
100
AcDbEntity
  8
0
  6
CONTINUOUS
 62
     7
100
AcDbVertex
100
AcDb2dVertex
 10
7.6109304323
 20
6.5948995904
 30
0.0
  0
VERTEX
  5
705
330
2D0
100
AcDbEntity
  8
0
  6
CONTINUOUS
 62
     7
100
AcDbVertex
100
AcDb2dVertex
 10
7.6074194352
 20
6.5787997056
 30
0.0
  0
VERTEX
  5
706
330
2D0
100
AcDbEntity
  8
0
  6
CONTINUOUS
 62
     7
100
AcDbVertex
100
AcDb2dVertex
 10
7.6052950189
 20
6.5631348197
 30
0.0
  0
VERTEX
  5
707
330
2D0
100
AcDbEntity
  8
0
  6
CONTINUOUS
 62
     7
100
AcDbVertex
100
AcDb2dVertex
 10
7.6045838992
 20
6.5481019278
 30
0.0
  0
VERTEX
  5
708
330
2D0
100
AcDbEntity
  8
0
  6
CONTINUOUS
 62
     7
100
AcDbVertex
100
AcDb2dVertex
 10
7.6052950189
 20
6.5338900772
 30
0.0
  0
VERTEX
  5
709
330
2D0
100
AcDbEntity
  8
0
  6
CONTINUOUS
 62
     7
100
AcDbVertex
100
AcDb2dVertex
 10
7.6074194352
 20
6.5206779902
 30
0.0
  0
VERTEX
  5
70A
330
2D0
100
AcDbEntity
  8
0
  6
CONTINUOUS
 62
     7
100
AcDbVertex
100
AcDb2dVertex
 10
7.6109304323
 20
6.5086318164
 30
0.0
  0
VERTEX
  5
70B
330
2D0
100
AcDbEntity
  8
0
  6
CONTINUOUS
 62
     7
100
AcDbVertex
100
AcDb2dVertex
 10
7.6157838575
 20
6.4979030435
 30
0.0
  0
VERTEX
  5
70C
330
2D0
100
AcDbEntity
  8
0
  6
CONTINUOUS
 62
     7
100
AcDbVertex
100
AcDb2dVertex
 10
7.621918676
 20
6.4886265919
 30
0.0
  0
VERTEX
  5
70D
330
2D0
100
AcDbEntity
  8
0
  6
CONTINUOUS
 62
     7
100
AcDbVertex
100
AcDb2dVertex
 10
7.629257739
 20
6.4809191185
 30
0.0
  0
VERTEX
  5
70E
330
2D0
100
AcDbEntity
  8
0
  6
CONTINUOUS
 62
     7
100
AcDbVertex
100
AcDb2dVertex
 10
7.6377087535
 20
6.4748775493
 30
0.0
  0
SEQEND
  5
70F
330
2D0
100
AcDbEntity
  8
0
  6
CONTINUOUS
 62
     7
  0
LINE
  5
2D1
330
1F
100
AcDbEntity
  8
0
  6
CONTINUOUS
 62
     7
100
AcDbLine
 10
8.2539728049
 20
7.4929944144
 30
0.0
 11
8.2326317242
 21
7.5053143581
 31
0.0
  0
POLYLINE
  5
2D2
330
1F
100
AcDbEntity
  8
0
  6
CONTINUOUS
 62
     7
100
AcDb2dPolyline
 66
     1
 10
0.0
 20
0.0
 30
0.0
  0
VERTEX
  5
710
330
2D2
100
AcDbEntity
  8
0
  6
CONTINUOUS
 62
     7
100
AcDbVertex
100
AcDb2dVertex
 10
8.2326317242
 20
7.5053143581
 30
0.0
  0
VERTEX
  5
711
330
2D2
100
AcDbEntity
  8
0
  6
CONTINUOUS
 62
     7
100
AcDbVertex
100
AcDb2dVertex
 10
8.2231750346
 20
7.509614047
 30
0.0
  0
VERTEX
  5
712
330
2D2
100
AcDbEntity
  8
0
  6
CONTINUOUS
 62
     7
100
AcDbVertex
100
AcDb2dVertex
 10
8.2128315933
 20
7.5121177845
 30
0.0
  0
VERTEX
  5
713
330
2D2
100
AcDbEntity
  8
0
  6
CONTINUOUS
 62
     7
100
AcDbVertex
100
AcDb2dVertex
 10
8.201731475
 20
7.5127940846
 30
0.0
  0
VERTEX
  5
714
330
2D2
100
AcDbEntity
  8
0
  6
CONTINUOUS
 62
     7
100
AcDbVertex
100
AcDb2dVertex
 10
8.1900142702
 20
7.5116344425
 30
0.0
  0
VERTEX
  5
715
330
2D2
100
AcDbEntity
  8
0
  6
CONTINUOUS
 62
     7
100
AcDbVertex
100
AcDb2dVertex
 10
8.1778273295
 20
7.5086534413
 30
0.0
  0
VERTEX
  5
716
330
2D2
100
AcDbEntity
  8
0
  6
CONTINUOUS
 62
     7
100
AcDbVertex
100
AcDb2dVertex
 10
8.1653239108
 20
7.5038885688
 30
0.0
  0
VERTEX
  5
717
330
2D2
100
AcDbEntity
  8
0
  6
CONTINUOUS
 62
     7
100
AcDbVertex
100
AcDb2dVertex
 10
8.1526612518
 20
7.4973997461
 30
0.0
  0
VERTEX
  5
718
330
2D2
100
AcDbEntity
  8
0
  6
CONTINUOUS
 62
     7
100
AcDbVertex
100
AcDb2dVertex
 10
8.1399985928
 20
7.4892685739
 30
0.0
  0
VERTEX
  5
719
330
2D2
100
AcDbEntity
  8
0
  6
CONTINUOUS
 62
     7
100
AcDbVertex
100
AcDb2dVertex
 10
8.127495174
 20
7.4795973064
 30
0.0
  0
VERTEX
  5
71A
330
2D2
100
AcDbEntity
  8
0
  6
CONTINUOUS
 62
     7
100
AcDbVertex
100
AcDb2dVertex
 10
8.1153082333
 20
7.4685075654
 30
0.0
  0
VERTEX
  5
71B
330
2D2
100
AcDbEntity
  8
0
  6
CONTINUOUS
 62
     7
100
AcDbVertex
100
AcDb2dVertex
 10
8.1035910285
 20
7.4561388108
 30
0.0
  0
VERTEX
  5
71C
330
2D2
100
AcDbEntity
  8
0
  6
CONTINUOUS
 62
     7
100
AcDbVertex
100
AcDb2dVertex
 10
8.0924909102
 20
7.4426465869
 30
0.0
  0
VERTEX
  5
71D
330
2D2
100
AcDbEntity
  8
0
  6
CONTINUOUS
 62
     7
100
AcDbVertex
100
AcDb2dVertex
 10
8.0821474689
 20
7.4282005663
 30
0.0
  0
VERTEX
  5
71E
330
2D2
100
AcDbEntity
  8
0
  6
CONTINUOUS
 62
     7
100
AcDbVertex
100
AcDb2dVertex
 10
8.0726907793
 20
7.4129824159
 30
0.0
  0
SEQEND
  5
71F
330
2D2
100
AcDbEntity
  8
0
  6
CONTINUOUS
 62
     7
  0
SPLINE
  5
2D3
330
1F
100
AcDbEntity
  8
0
  6
CONTINUOUS
 62
     7
100
AcDbSpline
210
0.0
220
0.0
230
1.0
 70
     8
 71
     3
 72
    13
 73
     9
 74
     0
 42
0.00000001
 43
0.00000001
 40
0.0
 40
0.0
 40
0.0
 40
0.0
 40
0.2282764837673199
 40
0.3701615520109863
 40
0.5122834943108194
 40
0.7280133456462645
 40
0.9441713669029608
 40
1.0
 40
1.0
 40
1.0
 40
1.0
 10
7.594493216111228
 20
7.299451042329937
 30
0.0
 10
7.590351548485772
 20
7.301203446954672
 30
0.0
 10
7.583635630617882
 20
7.30404505729025
 30
0.0
 10
7.572801063446756
 20
7.304180938682512
 30
0.0
 10
7.562108213415689
 20
7.302817460040982
 30
0.0
 10
7.549905054985239
 20
7.298966953650423
 30
0.0
 10
7.539654871679212
 20
7.294706390052849
 30
0.0
 10
7.534453351418168
 20
7.291209589352192
 30
0.0
 10
7.533385674892309
 20
7.29049182765247
 30
0.0
  0
SPLINE
  5
2D4
330
1F
100
AcDbEntity
  8
0
  6
CONTINUOUS
 62
     7
100
AcDbSpline
210
0.0
220
0.0
230
1.0
 70
     8
 71
     3
 72
    22
 73
    18
 74
     0
 42
0.00000001
 43
0.00000001
 40
0.0
 40
0.0
 40
0.0
 40
0.0
 40
0.0542018873029015
 40
0.1608299850563371
 40
0.2673931362889968
 40
0.3537758529076102
 40
0.4400657895689356
 40
0.5087230836406434
 40
0.5773132867364676
 40
0.6349370606599825
 40
0.692519723582826
 40
0.7504473912087064
 40
0.8083445765266885
 40
0.8600595026790336
 40
0.9117743573666264
 40
0.9611082618090748
 40
1.0
 40
1.0
 40
1.0
 40
1.0
 10
7.509084611059523
 20
7.272598234884402
 30
0.0
 10
7.506002938954669
 20
7.269947077356083
 30
0.0
 10
7.496858879527322
 20
7.262080457817939
 30
0.0
 10
7.484177137010349
 20
7.246160850936416
 30
0.0
 10
7.472294813539119
 20
7.226740972185069
 30
0.0
 10
7.464180355582043
 20
7.207075377374327
 30
0.0
 10
7.459694577707144
 20
7.189277413708997
 30
0.0
 10
7.458104419232654
 20
7.172500532569967
 30
0.0
 10
7.458834517846711
 20
7.158001943490406
 30
0.0
 10
7.46157515476006
 20
7.144894538511505
 30
0.0
 10
7.465883669689344
 20
7.133380971478292
 30
0.0
 10
7.47196631677533
 20
7.123179984257221
 30
0.0
 10
7.479323011207062
 20
7.114963976667306
 30
0.0
 10
7.487580463429146
 20
7.108972100679951
 30
0.0
 10
7.496167560104318
 20
7.105179537570255
 30
0.0
 10
7.504492477835757
 20
7.103323087796938
 30
0.0
 10
7.509887630691689
 20
7.103507143561507
 30
0.0
 10
7.512265928725117
 20
7.10358827925397
 30
0.0
  0
SPLINE
  5
2D5
330
1F
100
AcDbEntity
  8
0
  6
CONTINUOUS
 62
     7
100
AcDbSpline
210
0.0
220
0.0
230
1.0
 70
     8
 71
     3
 72
    10
 73
     6
 74
     0
 42
0.00000001
 43
0.00000001
 40
0.0
 40
0.0
 40
0.0
 40
0.0
 40
0.2261007072300594
 40
0.7313848339656868
 40
1.0
 40
1.0
 40
1.0
 40
1.0
 10
7.610068175160541
 20
7.277300536948168
 30
0.0
 10
7.609482995361316
 20
7.279377900004923
 30
0.0
 10
7.607590070586601
 20
7.286097701340199
 30
0.0
 10
7.602414913710442
 20
7.294016121213608
 30
0.0
 10
7.596534327481834
 20
7.298050675912266
 30
0.0
 10
7.594493216111228
 20
7.299451042329937
 30
0.0
  0
LINE
  5
2D6
330
1F
100
AcDbEntity
  8
0
  6
CONTINUOUS
 62
     7
100
AcDbLine
 10
7.7125429582
 20
7.5766007462
 30
0.0
 11
7.8156069146
 21
7.5171031906
 31
0.0
  0
ARC
  5
2D7
330
1F
100
AcDbEntity
  8
0
  6
CONTINUOUS
 62
     7
100
AcDbCircle
 10
7.8736209764
 20
7.3302189065
 30
0.0
 40
0.2943639564446745
100
AcDbArc
 50
75.5819248432
 51
123.1756118623
  0
POLYLINE
  5
2D8
330
1F
100
AcDbEntity
  8
0
  6
CONTINUOUS
 62
     7
100
AcDb2dPolyline
 66
     1
 10
0.0
 20
0.0
 30
0.0
  0
VERTEX
  5
720
330
2D8
100
AcDbEntity
  8
0
  6
CONTINUOUS
 62
     7
100
AcDbVertex
100
AcDb2dVertex
 10
7.3995854147
 20
6.6672042117
 30
0.0
  0
VERTEX
  5
721
330
2D8
100
AcDbEntity
  8
0
  6
CONTINUOUS
 62
     7
100
AcDbVertex
100
AcDb2dVertex
 10
7.3895332281
 20
6.6767824675
 30
0.0
  0
VERTEX
  5
722
330
2D8
100
AcDbEntity
  8
0
  6
CONTINUOUS
 62
     7
100
AcDbVertex
100
AcDb2dVertex
 10
7.3769876716
 20
6.6908793858
 30
0.0
  0
VERTEX
  5
723
330
2D8
100
AcDbEntity
  8
0
  6
CONTINUOUS
 62
     7
100
AcDbVertex
100
AcDb2dVertex
 10
7.3655213055
 20
6.7063941596
 30
0.0
  0
VERTEX
  5
724
330
2D8
100
AcDbEntity
  8
0
  6
CONTINUOUS
 62
     7
100
AcDbVertex
100
AcDb2dVertex
 10
7.3551717881
 20
6.7232758346
 30
0.0
  0
VERTEX
  5
725
330
2D8
100
AcDbEntity
  8
0
  6
CONTINUOUS
 62
     7
100
AcDbVertex
100
AcDb2dVertex
 10
7.3459731099
 20
6.7414689669
 30
0.0
  0
VERTEX
  5
726
330
2D8
100
AcDbEntity
  8
0
  6
CONTINUOUS
 62
     7
100
AcDbVertex
100
AcDb2dVertex
 10
7.3379554816
 20
6.7609138059
 30
0.0
  0
VERTEX
  5
727
330
2D8
100
AcDbEntity
  8
0
  6
CONTINUOUS
 62
     7
100
AcDbVertex
100
AcDb2dVertex
 10
7.3311452353
 20
6.7815464898
 30
0.0
  0
VERTEX
  5
728
330
2D8
100
AcDbEntity
  8
0
  6
CONTINUOUS
 62
     7
100
AcDbVertex
100
AcDb2dVertex
 10
7.3255647373
 20
6.8032992557
 30
0.0
  0
VERTEX
  5
729
330
2D8
100
AcDbEntity
  8
0
  6
CONTINUOUS
 62
     7
100
AcDbVertex
100
AcDb2dVertex
 10
7.3212323155
 20
6.826100662
 30
0.0
  0
VERTEX
  5
72A
330
2D8
100
AcDbEntity
  8
0
  6
CONTINUOUS
 62
     7
100
AcDbVertex
100
AcDb2dVertex
 10
7.3181621987
 20
6.8498758232
 30
0.0
  0
VERTEX
  5
72B
330
2D8
100
AcDbEntity
  8
0
  6
CONTINUOUS
 62
     7
100
AcDbVertex
100
AcDb2dVertex
 10
7.3163644698
 20
6.8745466557
 30
0.0
  0
VERTEX
  5
72C
330
2D8
100
AcDbEntity
  8
0
  6
CONTINUOUS
 62
     7
100
AcDbVertex
100
AcDb2dVertex
 10
7.3158450331
 20
6.9000321343
 30
0.0
  0
VERTEX
  5
72D
330
2D8
100
AcDbEntity
  8
0
  6
CONTINUOUS
 62
     7
100
AcDbVertex
100
AcDb2dVertex
 10
7.3166055945
 20
6.9262485583
 30
0.0
  0
VERTEX
  5
72E
330
2D8
100
AcDbEntity
  8
0
  6
CONTINUOUS
 62
     7
100
AcDbVertex
100
AcDb2dVertex
 10
7.3186436562
 20
6.9531098263
 30
0.0
  0
VERTEX
  5
72F
330
2D8
100
AcDbEntity
  8
0
  6
CONTINUOUS
 62
     7
100
AcDbVertex
100
AcDb2dVertex
 10
7.3219525246
 20
6.9805277193
 30
0.0
  0
VERTEX
  5
730
330
2D8
100
AcDbEntity
  8
0
  6
CONTINUOUS
 62
     7
100
AcDbVertex
100
AcDb2dVertex
 10
7.3265213326
 20
7.0084121899
 30
0.0
  0
VERTEX
  5
731
330
2D8
100
AcDbEntity
  8
0
  6
CONTINUOUS
 62
     7
100
AcDbVertex
100
AcDb2dVertex
 10
7.332335075
 20
7.0366716586
 30
0.0
  0
VERTEX
  5
732
330
2D8
100
AcDbEntity
  8
0
  6
CONTINUOUS
 62
     7
100
AcDbVertex
100
AcDb2dVertex
 10
7.3393746582
 20
7.0652133142
 30
0.0
  0
VERTEX
  5
733
330
2D8
100
AcDbEntity
  8
0
  6
CONTINUOUS
 62
     7
100
AcDbVertex
100
AcDb2dVertex
 10
7.3476169623
 20
7.0939434188
 30
0.0
  0
VERTEX
  5
734
330
2D8
100
AcDbEntity
  8
0
  6
CONTINUOUS
 62
     7
100
AcDbVertex
100
AcDb2dVertex
 10
7.3570349175
 20
7.1227676153
 30
0.0
  0
VERTEX
  5
735
330
2D8
100
AcDbEntity
  8
0
  6
CONTINUOUS
 62
     7
100
AcDbVertex
100
AcDb2dVertex
 10
7.3675975929
 20
7.1515912381
 30
0.0
  0
VERTEX
  5
736
330
2D8
100
AcDbEntity
  8
0
  6
CONTINUOUS
 62
     7
100
AcDbVertex
100
AcDb2dVertex
 10
7.3792702981
 20
7.1803196229
 30
0.0
  0
VERTEX
  5
737
330
2D8
100
AcDbEntity
  8
0
  6
CONTINUOUS
 62
     7
100
AcDbVertex
100
AcDb2dVertex
 10
7.3920146969
 20
7.2088584187
 30
0.0
  0
VERTEX
  5
738
330
2D8
100
AcDbEntity
  8
0
  6
CONTINUOUS
 62
     7
100
AcDbVertex
100
AcDb2dVertex
 10
7.4057889335
 20
7.2371138968
 30
0.0
  0
VERTEX
  5
739
330
2D8
100
AcDbEntity
  8
0
  6
CONTINUOUS
 62
     7
100
AcDbVertex
100
AcDb2dVertex
 10
7.4205477699
 20
7.2649932592
 30
0.0
  0
VERTEX
  5
73A
330
2D8
100
AcDbEntity
  8
0
  6
CONTINUOUS
 62
     7
100
AcDbVertex
100
AcDb2dVertex
 10
7.4362427343
 20
7.292404943
 30
0.0
  0
VERTEX
  5
73B
330
2D8
100
AcDbEntity
  8
0
  6
CONTINUOUS
 62
     7
100
AcDbVertex
100
AcDb2dVertex
 10
7.4528222806
 20
7.3192589214
 30
0.0
  0
VERTEX
  5
73C
330
2D8
100
AcDbEntity
  8
0
  6
CONTINUOUS
 62
     7
100
AcDbVertex
100
AcDb2dVertex
 10
7.4702319574
 20
7.3454669992
 30
0.0
  0
VERTEX
  5
73D
330
2D8
100
AcDbEntity
  8
0
  6
CONTINUOUS
 62
     7
100
AcDbVertex
100
AcDb2dVertex
 10
7.4884145868
 20
7.3709431024
 30
0.0
  0
VERTEX
  5
73E
330
2D8
100
AcDbEntity
  8
0
  6
CONTINUOUS
 62
     7
100
AcDbVertex
100
AcDb2dVertex
 10
7.5073104527
 20
7.3956035612
 30
0.0
  0
VERTEX
  5
73F
330
2D8
100
AcDbEntity
  8
0
  6
CONTINUOUS
 62
     7
100
AcDbVertex
100
AcDb2dVertex
 10
7.5268574962
 20
7.4193673844
 30
0.0
  0
VERTEX
  5
740
330
2D8
100
AcDbEntity
  8
0
  6
CONTINUOUS
 62
     7
100
AcDbVertex
100
AcDb2dVertex
 10
7.5469915199
 20
7.4421565257
 30
0.0
  0
VERTEX
  5
741
330
2D8
100
AcDbEntity
  8
0
  6
CONTINUOUS
 62
     7
100
AcDbVertex
100
AcDb2dVertex
 10
7.5676463986
 20
7.4638961398
 30
0.0
  0
VERTEX
  5
742
330
2D8
100
AcDbEntity
  8
0
  6
CONTINUOUS
 62
     7
100
AcDbVertex
100
AcDb2dVertex
 10
7.5887542966
 20
7.4845148283
 30
0.0
  0
VERTEX
  5
743
330
2D8
100
AcDbEntity
  8
0
  6
CONTINUOUS
 62
     7
100
AcDbVertex
100
AcDb2dVertex
 10
7.6102458902
 20
7.5039448743
 30
0.0
  0
VERTEX
  5
744
330
2D8
100
AcDbEntity
  8
0
  6
CONTINUOUS
 62
     7
100
AcDbVertex
100
AcDb2dVertex
 10
7.6320505956
 20
7.5221224646
 30
0.0
  0
VERTEX
  5
745
330
2D8
100
AcDbEntity
  8
0
  6
CONTINUOUS
 62
     7
100
AcDbVertex
100
AcDb2dVertex
 10
7.6540968006
 20
7.5389878996
 30
0.0
  0
VERTEX
  5
746
330
2D8
100
AcDbEntity
  8
0
  6
CONTINUOUS
 62
     7
100
AcDbVertex
100
AcDb2dVertex
 10
7.6763121001
 20
7.5544857888
 30
0.0
  0
VERTEX
  5
747
330
2D8
100
AcDbEntity
  8
0
  6
CONTINUOUS
 62
     7
100
AcDbVertex
100
AcDb2dVertex
 10
7.6986235333
 20
7.5685652332
 30
0.0
  0
SEQEND
  5
748
330
2D8
100
AcDbEntity
  8
0
  6
CONTINUOUS
 62
     7
  0
LINE
  5
2D9
330
1F
100
AcDbEntity
  8
0
  6
CONTINUOUS
 62
     7
100
AcDbLine
 10
7.6986235333
 20
7.5685652332
 30
0.0
 11
7.8047483076
 21
7.5073007051
 31
0.0
  0
LINE
  5
2DA
330
1F
100
AcDbEntity
  8
0
  6
CONTINUOUS
 62
     7
100
AcDbLine
 10
7.6377087535
 20
6.4748775493
 30
0.0
 11
7.65905978
 21
6.4625478571
 31
0.0
  0
LINE
  5
2DB
330
1F
100
AcDbEntity
  8
0
  6
CONTINUOUS
 62
     7
100
AcDbLine
 10
7.7125429582
 20
7.5766007462
 30
0.0
 11
7.7072396573
 21
7.5735372304
 31
0.0
  0
ARC
  5
2DC
330
1F
100
AcDbEntity
  8
0
  6
CONTINUOUS
 62
     7
100
AcDbCircle
 10
8.151213225
 20
6.8657704805
 30
0.0
 40
0.8362354910994505
100
AcDbArc
 50
123.200097559
 51
177.39883635
  0
LINE
  5
2DD
330
1F
100
AcDbEntity
  8
0
  6
CONTINUOUS
 62
     7
100
AcDbLine
 10
7.6986235333
 20
7.5685652332
 30
0.0
 11
7.6933202325
 21
7.5655017175
 31
0.0
  0
LINE
  5
2DE
330
1F
100
AcDbEntity
  8
0
  6
CONTINUOUS
 62
     7
100
AcDbLine
 10
7.7072396573
 20
7.5735372304
 30
0.0
 11
7.7072396573
 21
7.5635912508
 31
0.0
  0
ARC
  5
2DF
330
1F
100
AcDbEntity
  8
0
  6
CONTINUOUS
 62
     8
100
AcDbCircle
 10
8.199957372
 20
6.848687568
 30
0.0
 40
0.0624092480550481
100
AcDbArc
 50
185.6465605407
 51
246.7432244318
  0
ARC
  5
2E0
330
1F
100
AcDbEntity
  8
0
  6
CONTINUOUS
 62
     8
100
AcDbCircle
 10
8.2645604872
 20
6.9569147557
 30
0.0
 40
0.1880868235533634
100
AcDbArc
 50
241.6737655893
 51
305.154752059
  0
POLYLINE
  5
2E1
330
1F
100
AcDbEntity
  8
0
  6
CONTINUOUS
 62
     8
100
AcDb2dPolyline
 66
     1
 10
0.0
 20
0.0
 30
0.0
  0
VERTEX
  5
749
330
2E1
100
AcDbEntity
  8
0
  6
CONTINUOUS
 62
     8
100
AcDbVertex
100
AcDb2dVertex
 10
8.1870610012
 20
6.1958928617
 30
0.0
  0
VERTEX
  5
74A
330
2E1
100
AcDbEntity
  8
0
  6
CONTINUOUS
 62
     8
100
AcDbVertex
100
AcDb2dVertex
 10
8.1874119274
 20
6.1922692088
 30
0.0
  0
VERTEX
  5
74B
330
2E1
100
AcDbEntity
  8
0
  6
CONTINUOUS
 62
     8
100
AcDbVertex
100
AcDb2dVertex
 10
8.1894799829
 20
6.1854131745
 30
0.0
  0
VERTEX
  5
74C
330
2E1
100
AcDbEntity
  8
0
  6
CONTINUOUS
 62
     8
100
AcDbVertex
100
AcDb2dVertex
 10
8.1933367083
 20
6.1788197324
 30
0.0
  0
VERTEX
  5
74D
330
2E1
100
AcDbEntity
  8
0
  6
CONTINUOUS
 62
     8
100
AcDbVertex
100
AcDb2dVertex
 10
8.1988917052
 20
6.1726434271
 30
0.0
  0
VERTEX
  5
74E
330
2E1
100
AcDbEntity
  8
0
  6
CONTINUOUS
 62
     8
100
AcDbVertex
100
AcDb2dVertex
 10
8.2060147692
 20
6.167029026
 30
0.0
  0
VERTEX
  5
74F
330
2E1
100
AcDbEntity
  8
0
  6
CONTINUOUS
 62
     8
100
AcDbVertex
100
AcDb2dVertex
 10
8.2145389418
 20
6.1621081259
 30
0.0
  0
VERTEX
  5
750
330
2E1
100
AcDbEntity
  8
0
  6
CONTINUOUS
 62
     8
100
AcDbVertex
100
AcDb2dVertex
 10
8.2242644235
 20
6.1579960686
 30
0.0
  0
VERTEX
  5
751
330
2E1
100
AcDbEntity
  8
0
  6
CONTINUOUS
 62
     8
100
AcDbVertex
100
AcDb2dVertex
 10
8.2349632573
 20
6.1547892371
 30
0.0
  0
VERTEX
  5
752
330
2E1
100
AcDbEntity
  8
0
  6
CONTINUOUS
 62
     8
100
AcDbVertex
100
AcDb2dVertex
 10
8.2463846717
 20
6.1525627969
 30
0.0
  0
VERTEX
  5
753
330
2E1
100
AcDbEntity
  8
0
  6
CONTINUOUS
 62
     8
100
AcDbVertex
100
AcDb2dVertex
 10
8.2582609582
 20
6.1513689339
 30
0.0
  0
VERTEX
  5
754
330
2E1
100
AcDbEntity
  8
0
  6
CONTINUOUS
 62
     8
100
AcDbVertex
100
AcDb2dVertex
 10
8.2703137469
 20
6.1512356312
 30
0.0
  0
VERTEX
  5
755
330
2E1
100
AcDbEntity
  8
0
  6
CONTINUOUS
 62
     8
100
AcDbVertex
100
AcDb2dVertex
 10
8.2822605306
 20
6.1521660133
 30
0.0
  0
VERTEX
  5
756
330
2E1
100
AcDbEntity
  8
0
  6
CONTINUOUS
 62
     8
100
AcDbVertex
100
AcDb2dVertex
 10
8.2853753436
 20
6.1525890038
 30
0.0
  0
SEQEND
  5
757
330
2E1
100
AcDbEntity
  8
0
  6
CONTINUOUS
 62
     8
  0
POLYLINE
  5
2E2
330
1F
100
AcDbEntity
  8
0
  6
CONTINUOUS
 62
     8
100
AcDb2dPolyline
 66
     1
 10
0.0
 20
0.0
 30
0.0
  0
VERTEX
  5
758
330
2E2
100
AcDbEntity
  8
0
  6
CONTINUOUS
 62
     8
100
AcDbVertex
100
AcDb2dVertex
 10
7.5413888383
 20
7.1625102782
 30
0.0
  0
VERTEX
  5
759
330
2E2
100
AcDbEntity
  8
0
  6
CONTINUOUS
 62
     8
100
AcDbVertex
100
AcDb2dVertex
 10
7.5366508682
 20
7.166819167
 30
0.0
  0
VERTEX
  5
75A
330
2E2
100
AcDbEntity
  8
0
  6
CONTINUOUS
 62
     8
100
AcDbVertex
100
AcDb2dVertex
 10
7.5292823738
 20
7.1748052426
 30
0.0
  0
VERTEX
  5
75B
330
2E2
100
AcDbEntity
  8
0
  6
CONTINUOUS
 62
     8
100
AcDbVertex
100
AcDb2dVertex
 10
7.5225463658
 20
7.1837758007
 30
0.0
  0
VERTEX
  5
75C
330
2E2
100
AcDbEntity
  8
0
  6
CONTINUOUS
 62
     8
100
AcDbVertex
100
AcDb2dVertex
 10
7.5166265848
 20
7.1934861478
 30
0.0
  0
VERTEX
  5
75D
330
2E2
100
AcDbEntity
  8
0
  6
CONTINUOUS
 62
     8
100
AcDbVertex
100
AcDb2dVertex
 10
7.5116845072
 20
7.2036714109
 30
0.0
  0
VERTEX
  5
75E
330
2E2
100
AcDbEntity
  8
0
  6
CONTINUOUS
 62
     8
100
AcDbVertex
100
AcDb2dVertex
 10
7.5078549397
 20
7.2140537626
 30
0.0
  0
VERTEX
  5
75F
330
2E2
100
AcDbEntity
  8
0
  6
CONTINUOUS
 62
     8
100
AcDbVertex
100
AcDb2dVertex
 10
7.5052423432
 20
7.2243499995
 30
0.0
  0
VERTEX
  5
760
330
2E2
100
AcDbEntity
  8
0
  6
CONTINUOUS
 62
     8
100
AcDbVertex
100
AcDb2dVertex
 10
7.5039179824
 20
7.2342792669
 30
0.0
  0
VERTEX
  5
761
330
2E2
100
AcDbEntity
  8
0
  6
CONTINUOUS
 62
     8
100
AcDbVertex
100
AcDb2dVertex
 10
7.5039179824
 20
7.2435707205
 30
0.0
  0
VERTEX
  5
762
330
2E2
100
AcDbEntity
  8
0
  6
CONTINUOUS
 62
     8
100
AcDbVertex
100
AcDb2dVertex
 10
7.5052423432
 20
7.2519709135
 30
0.0
  0
VERTEX
  5
763
330
2E2
100
AcDbEntity
  8
0
  6
CONTINUOUS
 62
     8
100
AcDbVertex
100
AcDb2dVertex
 10
7.5078549397
 20
7.2592507106
 30
0.0
  0
VERTEX
  5
764
330
2E2
100
AcDbEntity
  8
0
  6
CONTINUOUS
 62
     8
100
AcDbVertex
100
AcDb2dVertex
 10
7.5116845072
 20
7.2652115379
 30
0.0
  0
VERTEX
  5
765
330
2E2
100
AcDbEntity
  8
0
  6
CONTINUOUS
 62
     8
100
AcDbVertex
100
AcDb2dVertex
 10
7.5166265848
 20
7.2696907996
 30
0.0
  0
VERTEX
  5
766
330
2E2
100
AcDbEntity
  8
0
  6
CONTINUOUS
 62
     8
100
AcDbVertex
100
AcDb2dVertex
 10
7.5225463658
 20
7.272566313
 30
0.0
  0
VERTEX
  5
767
330
2E2
100
AcDbEntity
  8
0
  6
CONTINUOUS
 62
     8
100
AcDbVertex
100
AcDb2dVertex
 10
7.5292823738
 20
7.2737596418
 30
0.0
  0
VERTEX
  5
768
330
2E2
100
AcDbEntity
  8
0
  6
CONTINUOUS
 62
     8
100
AcDbVertex
100
AcDb2dVertex
 10
7.5366508682
 20
7.2732382349
 30
0.0
  0
VERTEX
  5
769
330
2E2
100
AcDbEntity
  8
0
  6
CONTINUOUS
 62
     8
100
AcDbVertex
100
AcDb2dVertex
 10
7.5444508556
 20
7.271016315
 30
0.0
  0
VERTEX
  5
76A
330
2E2
100
AcDbEntity
  8
0
  6
CONTINUOUS
 62
     8
100
AcDbVertex
100
AcDb2dVertex
 10
7.5524695727
 20
7.2671544903
 30
0.0
  0
VERTEX
  5
76B
330
2E2
100
AcDbEntity
  8
0
  6
CONTINUOUS
 62
     8
100
AcDbVertex
100
AcDb2dVertex
 10
7.5604882898
 20
7.2617581013
 30
0.0
  0
VERTEX
  5
76C
330
2E2
100
AcDbEntity
  8
0
  6
CONTINUOUS
 62
     8
100
AcDbVertex
100
AcDb2dVertex
 10
7.5682882772
 20
7.2549743475
 30
0.0
  0
VERTEX
  5
76D
330
2E2
100
AcDbEntity
  8
0
  6
CONTINUOUS
 62
     8
100
AcDbVertex
100
AcDb2dVertex
 10
7.5756567715
 20
7.2469882718
 30
0.0
  0
VERTEX
  5
76E
330
2E2
100
AcDbEntity
  8
0
  6
CONTINUOUS
 62
     8
100
AcDbVertex
100
AcDb2dVertex
 10
7.5823927796
 20
7.2380177138
 30
0.0
  0
VERTEX
  5
76F
330
2E2
100
AcDbEntity
  8
0
  6
CONTINUOUS
 62
     8
100
AcDbVertex
100
AcDb2dVertex
 10
7.5835838324
 20
7.2362245583
 30
0.0
  0
SEQEND
  5
770
330
2E2
100
AcDbEntity
  8
0
  6
CONTINUOUS
 62
     8
  0
ARC
  5
2E3
330
1F
100
AcDbEntity
  8
0
  6
CONTINUOUS
 62
     8
100
AcDbCircle
 10
7.5346185243
 20
7.2218039011
 30
0.0
 40
0.0630301282082228
100
AcDbArc
 50
25.5201688877
 51
103.2892428779
  0
LINE
  5
2E4
330
1F
100
AcDbEntity
  8
0
  6
CONTINUOUS
 62
     8
100
AcDbLine
 10
8.106784541
 20
7.3933005063
 30
0.0
 11
8.0726907793
 21
7.4129824159
 31
0.0
  0
LINE
  5
2E5
330
1F
100
AcDbEntity
  8
0
  6
CONTINUOUS
 62
     8
100
AcDbLine
 10
7.6718069307
 20
6.6398869903
 30
0.0
 11
7.6377087535
 21
6.659571449
 31
0.0
  0
LINE
  5
2E6
330
1F
100
AcDbEntity
  8
0
  6
CONTINUOUS
 62
     8
100
AcDbLine
 10
7.6590596224
 20
6.462551955
 30
0.0
 11
7.6377087535
 21
6.4748775493
 31
0.0
  0
ENDSEC
  0
SECTION
  2
OBJECTS
  0
DICTIONARY
  5
C
330
0
100
AcDbDictionary
  3
ACAD_GROUP
350
D
  3
ACAD_LAYOUT
350
1A
  3
ACAD_MLEADERSTYLE
350
2E9
  3
ACAD_MLINESTYLE
350
17
  3
ACAD_PLOTSETTINGS
350
19
  3
ACAD_SCALELIST
350
6F
  3
ACAD_VISUALSTYLE
350
2A
  3
ACDBVARIABLEDICTIONARY
350
2E7
1001
ACAD
1000
TREAT_AS_HARD
1070
     0
  0
DICTIONARY
  5
D
102
{ACAD_REACTORS
330
C
102
}
330
C
100
AcDbDictionary
1001
ACAD
1000
TREAT_AS_HARD
1070
     0
  0
DICTIONARY
  5
1A
102
{ACAD_REACTORS
330
C
102
}
330
C
100
AcDbDictionary
1001
ACAD
1000
TREAT_AS_HARD
1070
     0
  0
DICTIONARY
  5
2E9
102
{ACAD_REACTORS
330
C
102
}
330
C
100
AcDbDictionary
1001
ACAD
1000
TREAT_AS_HARD
1070
     0
  0
DICTIONARY
  5
17
102
{ACAD_REACTORS
330
C
102
}
330
C
100
AcDbDictionary
  3
STANDARD
350
18
1001
ACAD
1000
TREAT_AS_HARD
1070
     0
  0
DICTIONARY
  5
19
102
{ACAD_REACTORS
330
C
102
}
330
C
100
AcDbDictionary
1001
ACAD
1000
TREAT_AS_HARD
1070
     0
  0
DICTIONARY
  5
6F
102
{ACAD_REACTORS
330
C
102
}
330
C
100
AcDbDictionary
  3
A0
350
70
  3
A1
350
71
  3
A2
350
72
  3
A3
350
73
  3
A4
350
74
  3
A5
350
75
  3
A6
350
76
  3
A7
350
77
  3
A8
350
78
  3
A9
350
79
  3
B0
350
7A
  3
B1
350
7B
  3
B2
350
7C
  3
B3
350
7D
  3
B4
350
7E
  3
B5
350
7F
  3
B6
350
80
  3
B7
350
81
  3
B8
350
82
  3
B9
350
83
  3
C0
350
84
  3
C1
350
85
  3
C2
350
86
  3
C3
350
87
  3
C4
350
88
  3
C5
350
89
  3
C6
350
8A
  3
C7
350
8B
  3
C8
350
8C
  3
C9
350
8D
  3
D0
350
8E
  3
D1
350
8F
  3
D2
350
90
1001
ACAD
1000
TREAT_AS_HARD
1070
     0
  0
DICTIONARY
  5
2A
102
{ACAD_REACTORS
330
C
102
}
330
C
100
AcDbDictionary
  3
2DWIREFRAME
350
2F
  3
3D_HIDDEN
350
31
  3
3DWIREFRAME
350
30
  3
BASIC
350
32
  3
BRIGHTEN
350
36
  3
COLORCHANGE
350
3A
  3
CONCEPTUAL
350
34
  3
DIM
350
35
  3
FACEPATTERN
350
39
  3
FLAT
350
2B
  3
FLATWITHEDGES
350
2C
  3
GOURAUD
350
2D
  3
GOURAUDWITHEDGES
350
2E
  3
LINEPATTERN
350
38
  3
REALISTIC
350
33
  3
THICKEN
350
37
1001
ACAD
1000
TREAT_AS_HARD
1070
     0
  0
DICTIONARY
  5
2E7
102
{ACAD_REACTORS
330
C
102
}
330
C
100
AcDbDictionary
  3
CANNOSCALE
350
2EA
  3
DIMASSOC
350
2EB
  3
HIDETEXT
350
2EC
1001
ACAD
1000
TREAT_AS_HARD
1070
     0
  0
MLINESTYLE
  5
18
102
{ACAD_REACTORS
330
17
102
}
330
17
100
AcDbMlineStyle
  2
Standard
 70
     0
  3

 62
   256
 51
90.0
 52
90.0
 71
     2
 49
0.5
 62
   256
  6
BYLAYER
 49
-0.5
 62
   256
  6
BYLAYER
  0
ACAD_PROXY_OBJECT
  5
70
102
{ACAD_REACTORS
330
6F
102
}
330
6F
100
AcDbZombieObject
 90
      499
 91
      502
 93
       41
310
903313A31580
  0
ACAD_PROXY_OBJECT
  5
71
102
{ACAD_REACTORS
330
6F
102
}
330
6F
100
AcDbZombieObject
 90
      499
 91
      502
 93
      105
310
903313A324000000000000004000
  0
ACAD_PROXY_OBJECT
  5
72
102
{ACAD_REACTORS
330
6F
102
}
330
6F
100
AcDbZombieObject
 90
      499
 91
      502
 93
      105
310
903313A344000000000000104000
  0
ACAD_PROXY_OBJECT
  5
73
102
{ACAD_REACTORS
330
6F
102
}
330
6F
100
AcDbZombieObject
 90
      499
 91
      502
 93
      105
310
903313A354000000000000144000
  0
ACAD_PROXY_OBJECT
  5
74
102
{ACAD_REACTORS
330
6F
102
}
330
6F
100
AcDbZombieObject
 90
      499
 91
      502
 93
      105
310
903313A384000000000000204000
  0
ACAD_PROXY_OBJECT
  5
75
102
{ACAD_REACTORS
330
6F
102
}
330
6F
100
AcDbZombieObject
 90
      499
 91
      502
 93
      113
310
904313A31304000000000000244000
  0
ACAD_PROXY_OBJECT
  5
76
102
{ACAD_REACTORS
330
6F
102
}
330
6F
100
AcDbZombieObject
 90
      499
 91
      502
 93
      113
310
904313A31364000000000000304000
  0
ACAD_PROXY_OBJECT
  5
77
102
{ACAD_REACTORS
330
6F
102
}
330
6F
100
AcDbZombieObject
 90
      499
 91
      502
 93
      113
310
904313A32304000000000000344000
  0
ACAD_PROXY_OBJECT
  5
78
102
{ACAD_REACTORS
330
6F
102
}
330
6F
100
AcDbZombieObject
 90
      499
 91
      502
 93
      113
310
904313A333040000000000003E4000
  0
ACAD_PROXY_OBJECT
  5
79
102
{ACAD_REACTORS
330
6F
102
}
330
6F
100
AcDbZombieObject
 90
      499
 91
      502
 93
      113
310
904313A34304000000000000444000
  0
ACAD_PROXY_OBJECT
  5
7A
102
{ACAD_REACTORS
330
6F
102
}
330
6F
100
AcDbZombieObject
 90
      499
 91
      502
 93
      113
310
904313A35304000000000000494000
  0
ACAD_PROXY_OBJECT
  5
7B
102
{ACAD_REACTORS
330
6F
102
}
330
6F
100
AcDbZombieObject
 90
      499
 91
      502
 93
      121
310
905313A3130304000000000000594000
  0
ACAD_PROXY_OBJECT
  5
7C
102
{ACAD_REACTORS
330
6F
102
}
330
6F
100
AcDbZombieObject
 90
      499
 91
      502
 93
      105
310
903323A310000000000000010100
  0
ACAD_PROXY_OBJECT
  5
7D
102
{ACAD_REACTORS
330
6F
102
}
330
6F
100
AcDbZombieObject
 90
      499
 91
      502
 93
      105
310
903343A310000000000000410100
  0
ACAD_PROXY_OBJECT
  5
7E
102
{ACAD_REACTORS
330
6F
102
}
330
6F
100
AcDbZombieObject
 90
      499
 91
      502
 93
      105
310
903383A310000000000000810100
  0
ACAD_PROXY_OBJECT
  5
7F
102
{ACAD_REACTORS
330
6F
102
}
330
6F
100
AcDbZombieObject
 90
      499
 91
      502
 93
      113
310
90431303A310000000000000910100
  0
ACAD_PROXY_OBJECT
  5
80
102
{ACAD_REACTORS
330
6F
102
}
330
6F
100
AcDbZombieObject
 90
      499
 91
      502
 93
      121
310
9053130303A310000000000001650100
  0
ACAD_PROXY_OBJECT
  5
81
102
{ACAD_REACTORS
330
6F
102
}
330
6F
100
AcDbZombieObject
 90
      499
 91
      502
 93
      257
310
90E312F31323822203D2031272D3022000000000000200FC000000000000284000
  0
ACAD_PROXY_OBJECT
  5
82
102
{ACAD_REACTORS
330
6F
102
}
330
6F
100
AcDbZombieObject
 90
      499
 91
      502
 93
      249
310
90D312F363422203D2031272D3022000000000000240FC000000000000284000
  0
ACAD_PROXY_OBJECT
  5
83
102
{ACAD_REACTORS
330
6F
102
}
330
6F
100
AcDbZombieObject
 90
      499
 91
      502
 93
      249
310
90D312F333222203D2031272D3022000000000000280FC000000000000284000
  0
ACAD_PROXY_OBJECT
  5
84
102
{ACAD_REACTORS
330
6F
102
}
330
6F
100
AcDbZombieObject
 90
      499
 91
      502
 93
      249
310
90D312F313622203D2031272D30220000000000002C0FC000000000000284000
  0
ACAD_PROXY_OBJECT
  5
85
102
{ACAD_REACTORS
330
6F
102
}
330
6F
100
AcDbZombieObject
 90
      499
 91
      502
 93
      249
310
90D332F333222203D2031272D30220000000000002E0FC000000000000284000
  0
ACAD_PROXY_OBJECT
  5
86
102
{ACAD_REACTORS
330
6F
102
}
330
6F
100
AcDbZombieObject
 90
      499
 91
      502
 93
      241
310
90C312F3822203D2031272D3022000000000000300FC000000000000284000
  0
ACAD_PROXY_OBJECT
  5
87
102
{ACAD_REACTORS
330
6F
102
}
330
6F
100
AcDbZombieObject
 90
      499
 91
      502
 93
      249
310
90D332F313622203D2031272D3022000000000000320FC000000000000284000
  0
ACAD_PROXY_OBJECT
  5
88
102
{ACAD_REACTORS
330
6F
102
}
330
6F
100
AcDbZombieObject
 90
      499
 91
      502
 93
      241
310
90C312F3422203D2031272D3022000000000000340FC000000000000284000
  0
ACAD_PROXY_OBJECT
  5
89
102
{ACAD_REACTORS
330
6F
102
}
330
6F
100
AcDbZombieObject
 90
      499
 91
      502
 93
      241
310
90C332F3822203D2031272D3022000000000000360FC000000000000284000
  0
ACAD_PROXY_OBJECT
  5
8A
102
{ACAD_REACTORS
330
6F
102
}
330
6F
100
AcDbZombieObject
 90
      499
 91
      502
 93
      241
310
90C312F3222203D2031272D3022000000000000380FC000000000000284000
  0
ACAD_PROXY_OBJECT
  5
8B
102
{ACAD_REACTORS
330
6F
102
}
330
6F
100
AcDbZombieObject
 90
      499
 91
      502
 93
      241
310
90C332F3422203D2031272D30220000000000003A0FC000000000000284000
  0
ACAD_PROXY_OBJECT
  5
8C
102
{ACAD_REACTORS
330
6F
102
}
330
6F
100
AcDbZombieObject
 90
      499
 91
      502
 93
      161
310
90A3122203D2031272D30224000000000000284000
  0
ACAD_PROXY_OBJECT
  5
8D
102
{ACAD_REACTORS
330
6F
102
}
330
6F
100
AcDbZombieObject
 90
      499
 91
      502
 93
      257
310
90E312D312F3222203D2031272D30220000000000003E0FC000000000000284000
  0
ACAD_PROXY_OBJECT
  5
8E
102
{ACAD_REACTORS
330
6F
102
}
330
6F
100
AcDbZombieObject
 90
      499
 91
      502
 93
      225
310
90A3322203D2031272D302200000000000002100000000000000284000
  0
ACAD_PROXY_OBJECT
  5
8F
102
{ACAD_REACTORS
330
6F
102
}
330
6F
100
AcDbZombieObject
 90
      499
 91
      502
 93
      225
310
90A3622203D2031272D302200000000000006100000000000000284000
  0
ACAD_PROXY_OBJECT
  5
90
102
{ACAD_REACTORS
330
6F
102
}
330
6F
100
AcDbZombieObject
 90
      499
 91
      502
 93
      249
310
90D31272D3022203D2031272D30220000000000000A100000000000000284000
  0
ACAD_PROXY_OBJECT
  5
2F
102
{ACAD_REACTORS
330
2A
102
}
330
2A
100
AcDbZombieObject
 90
      499
 91
      501
 93
      436
310
42CC9915DA5C99599C985B595049028333333333333E3BF0000000000000FB0107901411070040501600405405064090741402480A0340
1001
ACAD
1000
AcDbSavedByObjectVersion
1070
     0
  0
ACAD_PROXY_OBJECT
  5
31
102
{ACAD_REACTORS
330
2A
102
}
330
2A
100
AcDbZombieObject
 90
      499
 91
      501
 93
      500
310
424CD108121A5919195B90640502408333333333333E3BF0000000000000FB01079024090700405020000000000001110200405405064090740C02480A0340
1001
ACAD
1000
AcDbSavedByObjectVersion
1070
     0
  0
ACAD_PROXY_OBJECT
  5
30
102
{ACAD_REACTORS
330
2A
102
}
330
2A
100
AcDbZombieObject
 90
      499
 91
      501
 93
      436
310
42CCD915DA5C99599C985B595059028333333333333E3BF0000000000000FB0107901411070040501600405405064090741402480A0340
1001
ACAD
1000
AcDbSavedByObjectVersion
1070
     0
  0
ACAD_PROXY_OBJECT
  5
32
102
{ACAD_REACTORS
330
2A
102
}
330
2A
100
AcDbZombieObject
 90
      499
 91
      501
 93
      388
310
4150985CDA58D07406404333333333333E3BF0000000000000FB0107A41107004050150841D405064090741402480A0350
1001
ACAD
1000
AcDbSavedByObjectVersion
1070
     0
  0
ACAD_PROXY_OBJECT
  5
36
102
{ACAD_REACTORS
330
2A
102
}
330
2A
100
AcDbZombieObject
 90
      499
 91
      501
 93
      428
310
42109C9A59DA1D195B90C409028333333333333E3BF0000000000000FB010790141107004050150841D405064090741402480A029950
1001
ACAD
1000
AcDbSavedByObjectVersion
1070
     0
  0
ACAD_PROXY_OBJECT
  5
3A
102
{ACAD_REACTORS
330
2A
102
}
330
2A
100
AcDbZombieObject
 90
      499
 91
      501
 93
      452
310
42D0DBDB1BDC90DA185B99D95104090240C333333333333E3BF0000000000000FB0108901411070040501508421405064090741402480A0350
1001
ACAD
1000
AcDbSavedByObjectVersion
1070
     0
  0
ACAD_PROXY_OBJECT
  5
34
102
{ACAD_REACTORS
330
2A
102
}
330
2A
100
AcDbZombieObject
 90
      499
 91
      501
 93
      500
310
4290DBDB98D95C1D1D585B10940D028333333333333E3BF0000000000000FB0107902409070040501000000000000111010841D405064090740C02480A0340
1001
ACAD
1000
AcDbSavedByObjectVersion
1070
     0
  0
ACAD_PROXY_OBJECT
  5
35
102
{ACAD_REACTORS
330
2A
102
}
330
2A
100
AcDbZombieObject
 90
      499
 91
      501
 93
      412
310
40D11A5B50B409028333333333333E3BF0000000000000FB010790141107004050150841D405064090741402480A02677FFFFFD0
1001
ACAD
1000
AcDbSavedByObjectVersion
1070
     0
  0
ACAD_PROXY_OBJECT
  5
39
102
{ACAD_REACTORS
330
2A
102
}
330
2A
100
AcDbZombieObject
 90
      499
 91
      501
 93
      444
310
42D19858D95C185D1D195C9B90F409028333333333333E3BF0000000000000FB010790141107004050150841D405064090741402480A0350
1001
ACAD
1000
AcDbSavedByObjectVersion
1070
     0
  0
ACAD_PROXY_OBJECT
  5
2B
102
{ACAD_REACTORS
330
2A
102
}
330
2A
100
AcDbZombieObject
 90
      499
 91
      501
 93
      388
310
41119B185D240901404333333333333E3BF0000000000000F9010740A41107004050150841D405064090741402480A1B50
1001
ACAD
1000
AcDbSavedByObjectVersion
1070
     0
  0
ACAD_PROXY_OBJECT
  5
2C
102
{ACAD_REACTORS
330
2A
102
}
330
2A
100
AcDbZombieObject
 90
      499
 91
      501
 93
      476
310
43519B185D15DA5D1A115919D95CD0140901404333333333333E3BF0000000000000F9010740901411070040501600405405064090741402480A1B50
1001
ACAD
1000
AcDbSavedByObjectVersion
1070
     0
  0
ACAD_PROXY_OBJECT
  5
2D
102
{ACAD_REACTORS
330
2A
102
}
330
2A
100
AcDbZombieObject
 90
      499
 91
      501
 93
      412
310
41D1DBDD5C985D5910240902404333333333333E3BF0000000000000F9010740A411070040501641D405064090741402480A1B50
1001
ACAD
1000
AcDbSavedByObjectVersion
1070
     0
  0
ACAD_PROXY_OBJECT
  5
2E
102
{ACAD_REACTORS
330
2A
102
}
330
2A
100
AcDbZombieObject
 90
      499
 91
      501
 93
      500
310
4411DBDD5C985D5915DA5D1A115919D95CD0340902404333333333333E3BF0000000000000F9010740901411070040501600405405064090741402480A1B50
1001
ACAD
1000
AcDbSavedByObjectVersion
1070
     0
  0
ACAD_PROXY_OBJECT
  5
38
102
{ACAD_REACTORS
330
2A
102
}
330
2A
100
AcDbZombieObject
 90
      499
 91
      501
 93
      444
310
42D31A5B995C185D1D195C9B90E409028333333333333E3BF0000000000000FB010790141107004050750841D405064090741402483A0350
1001
ACAD
1000
AcDbSavedByObjectVersion
1070
     0
  0
ACAD_PROXY_OBJECT
  5
33
102
{ACAD_REACTORS
330
2A
102
}
330
2A
100
AcDbZombieObject
 90
      499
 91
      501
 93
      420
310
425499585B1A5CDD1A58D08409028333333333333E3BF0000000000000FB01079019070040501508421405064090741402480A1B40
1001
ACAD
1000
AcDbSavedByObjectVersion
1070
     0
  0
ACAD_PROXY_OBJECT
  5
37
102
{ACAD_REACTORS
330
2A
102
}
330
2A
100
AcDbZombieObject
 90
      499
 91
      501
 93
      412
310
41D51A1A58DAD95B90D409028333333333333E3BF0000000000000FB010790141107004050150C41D405064090741402480A0350
1001
ACAD
1000
AcDbSavedByObjectVersion
1070
     0
  0
DICTIONARYVAR
  5
2EA
102
{ACAD_REACTORS
330
2E7
102
}
330
2E7
100
DictionaryVariables
280
     0
  1
1:1
  0
DICTIONARYVAR
  5
2EB
102
{ACAD_REACTORS
330
2E7
102
}
330
2E7
100
DictionaryVariables
280
     0
  1
2
  0
DICTIONARYVAR
  5
2EC
102
{ACAD_REACTORS
330
2E7
102
}
330
2E7
100
DictionaryVariables
280
     0
  1
1
  0
ENDSEC
  0
EOF
