  0
SECTION
  2
HEADER
  9
$ACADVER
  1
AC1012
  9
$DWGCODEPAGE
  3
ansi_1252
  9
$INSBASE
 10
0.0
 20
0.0
 30
0.0
  9
$EXTMIN
 10
0.0
 20
0.0
 30
0.0
  9
$EXTMAX
 10
11.0
 20
8.5
 30
0.0
  9
$LIMMIN
 10
0.0
 20
0.0
  9
$LIMMAX
 10
11.0
 20
8.5
  9
$ORTHOMODE
 70
     0
  9
$REGENMODE
 70
     1
  9
$FILLMODE
 70
     1
  9
$QTEXTMODE
 70
     0
  9
$MIRRTEXT
 70
     1
  9
$DRAGMODE
 70
     2
  9
$LTSCALE
 40
1.0
  9
$OSMODE
 70
    37
  9
$ATTMODE
 70
     1
  9
$TEXTSIZE
 40
0.125
  9
$TRACEWID
 40
0.05
  9
$TEXTSTYLE
  7
STANDARD
  9
$CLAYER
  8
0
  9
$CELTYPE
  6
BYLAYER
  9
$CECOLOR
 62
   256
  9
$CELTSCALE
 40
1.0
  9
$DELOBJ
 70
     1
  9
$DISPSILH
 70
     0
  9
$DIMSCALE
 40
1.0
  9
$DIMASZ
 40
0.13
  9
$DIMEXO
 40
0.05
  9
$DIMDLI
 40
0.38
  9
$DIMRND
 40
0.0
  9
$DIMDLE
 40
0.0
  9
$DIMEXE
 40
0.125
  9
$DIMTP
 40
0.0
  9
$DIMTM
 40
0.0
  9
$DIMTXT
 40
0.125
  9
$DIMCEN
 40
0.09
  9
$DIMTSZ
 40
0.0
  9
$DIMTOL
 70
     0
  9
$DIMLIM
 70
     0
  9
$DIMTIH
 70
     1
  9
$DIMTOH
 70
     1
  9
$DIMSE1
 70
     0
  9
$DIMSE2
 70
     0
  9
$DIMTAD
 70
     0
  9
$DIMZIN
 70
     0
  9
$DIMBLK
  1

  9
$DIMASO
 70
     1
  9
$DIMSHO
 70
     1
  9
$DIMPOST
  1

  9
$DIMAPOST
  1

  9
$DIMALT
 70
     0
  9
$DIMALTD
 70
     2
  9
$DIMALTF
 40
25.4
  9
$DIMLFAC
 40
2.0
  9
$DIMTOFL
 70
     0
  9
$DIMTVP
 40
0.0
  9
$DIMTIX
 70
     0
  9
$DIMSOXD
 70
     0
  9
$DIMSAH
 70
     0
  9
$DIMBLK1
  1

  9
$DIMBLK2
  1

  9
$DIMSTYLE
  2
STANDARD
  9
$DIMCLRD
 70
     0
  9
$DIMCLRE
 70
     0
  9
$DIMCLRT
 70
     0
  9
$DIMTFAC
 40
1.0
  9
$DIMGAP
 40
0.06
  9
$DIMJUST
 70
     0
  9
$DIMSD1
 70
     0
  9
$DIMSD2
 70
     0
  9
$DIMTOLJ
 70
     1
  9
$DIMTZIN
 70
     0
  9
$DIMALTZ
 70
     0
  9
$DIMALTTZ
 70
     0
  9
$DIMFIT
 70
     3
  9
$DIMUPT
 70
     0
  9
$DIMUNIT
 70
     2
  9
$DIMDEC
 70
     3
  9
$DIMTDEC
 70
     3
  9
$DIMALTU
 70
     2
  9
$DIMALTTD
 70
     2
  9
$DIMTXSTY
  7
STANDARD
  9
$DIMAUNIT
 70
     0
  9
$LUNITS
 70
     2
  9
$LUPREC
 70
     2
  9
$SKETCHINC
 40
0.1
  9
$FILLETRAD
 40
0.5
  9
$AUNITS
 70
     0
  9
$AUPREC
 70
     2
  9
$MENU
  1
.
  9
$ELEVATION
 40
0.0
  9
$PELEVATION
 40
0.0
  9
$THICKNESS
 40
0.0
  9
$LIMCHECK
 70
     0
  9
$CHAMFERA
 40
0.5
  9
$CHAMFERB
 40
0.5
  9
$CHAMFERC
 40
1.0
  9
$CHAMFERD
 40
0.0
  9
$SKPOLY
 70
     0
  9
$TDCREATE
 40
2455784.018244965
  9
$TDUPDATE
 40
2455784.018244977
  9
$TDINDWG
 40
0.0000000116
  9
$TDUSRTIMER
 40
0.0000000116
  9
$USRTIMER
 70
     1
  9
$ANGBASE
 50
0.0
  9
$ANGDIR
 70
     0
  9
$PDMODE
 70
     0
  9
$PDSIZE
 40
-1.0
  9
$PLINEWID
 40
0.0
  9
$COORDS
 70
     1
  9
$SPLFRAME
 70
     0
  9
$SPLINETYPE
 70
     6
  9
$SPLINESEGS
 70
     8
  9
$ATTDIA
 70
     0
  9
$ATTREQ
 70
     1
  9
$HANDLING
 70
     1
  9
$HANDSEED
  5
731
  9
$SURFTAB1
 70
     6
  9
$SURFTAB2
 70
     6
  9
$SURFTYPE
 70
     6
  9
$SURFU
 70
     6
  9
$SURFV
 70
     6
  9
$UCSNAME
  2

  9
$UCSORG
 10
0.0
 20
0.0
 30
0.0
  9
$UCSXDIR
 10
1.0
 20
0.0
 30
0.0
  9
$UCSYDIR
 10
0.0
 20
1.0
 30
0.0
  9
$PUCSNAME
  2

  9
$PUCSORG
 10
0.0
 20
0.0
 30
0.0
  9
$PUCSXDIR
 10
1.0
 20
0.0
 30
0.0
  9
$PUCSYDIR
 10
0.0
 20
1.0
 30
0.0
  9
$USERI1
 70
     0
  9
$USERI2
 70
     0
  9
$USERI3
 70
     0
  9
$USERI4
 70
     0
  9
$USERI5
 70
     0
  9
$USERR1
 40
0.0
  9
$USERR2
 40
0.0
  9
$USERR3
 40
0.0
  9
$USERR4
 40
0.0
  9
$USERR5
 40
0.0
  9
$WORLDVIEW
 70
     1
  9
$SHADEDGE
 70
     3
  9
$SHADEDIF
 70
    70
  9
$TILEMODE
 70
     1
  9
$MAXACTVP
 70
    64
  9
$PINSBASE
 10
0.0
 20
0.0
 30
0.0
  9
$PLIMCHECK
 70
     0
  9
$PEXTMIN
 10
1.0000000000E+20
 20
1.0000000000E+20
 30
1.0000000000E+20
  9
$PEXTMAX
 10
-1.0000000000E+20
 20
-1.0000000000E+20
 30
-1.0000000000E+20
  9
$PLIMMIN
 10
0.0
 20
0.0
  9
$PLIMMAX
 10
12.0
 20
9.0
  9
$UNITMODE
 70
     0
  9
$VISRETAIN
 70
     1
  9
$PLINEGEN
 70
     0
  9
$PSLTSCALE
 70
     1
  9
$TREEDEPTH
 70
  3020
  9
$PICKSTYLE
 70
     1
  9
$CMLSTYLE
  2
STANDARD
  9
$CMLJUST
 70
     0
  9
$CMLSCALE
 40
1.0
  9
$SAVEIMAGES
 70
     1
  0
ENDSEC
  0
SECTION
  2
CLASSES
  0
CLASS
  1
ACDBDICTIONARYWDFLT
  2
AcDbDictionaryWithDefault
  3
ObjectDBX Classes
 90
    32768
280
     0
281
     0
  0
CLASS
  1
VISUALSTYLE
  2
AcDbVisualStyle
  3
ObjectDBX Classes
 90
     4095
280
     0
281
     0
  0
CLASS
  1
SCALE
  2
AcDbScale
  3
ObjectDBX Classes
 90
     1153
280
     0
281
     0
  0
CLASS
  1
DICTIONARYVAR
  2
AcDbDictionaryVar
  3
ObjectDBX Classes
 90
        0
280
     0
281
     0
  0
CLASS
  1
XRECORD
  2
AcDbXrecord
  3
AutoCAD 2000
 90
    32768
280
     0
281
     0
  0
CLASS
  1
LWPOLYLINE
  2
AcDbPolyline
  3
AutoCAD 2000
 90
    32768
280
     0
281
     1
  0
CLASS
  1
HATCH
  2
AcDbHatch
  3
AutoCAD 2000
 90
    32768
280
     0
281
     1
  0
CLASS
  1
ACDBPLACEHOLDER
  2
AcDbPlaceHolder
  3
ObjectDBX Classes
 90
        0
280
     0
281
     0
  0
CLASS
  1
LAYOUT
  2
AcDbLayout
  3
ObjectDBX Classes
 90
        0
280
     0
281
     0
  0
ENDSEC
  0
SECTION
  2
TABLES
  0
TABLE
  2
VPORT
  5
8
330
0
100
AcDbSymbolTable
 70
     1
  0
VPORT
  5
29
330
8
100
AcDbSymbolTableRecord
100
AcDbViewportTableRecord
  2
*ACTIVE
 70
     0
 10
0.0
 20
0.0
 11
1.0
 21
1.0
 12
5.5
 22
4.25
 13
0.0
 23
0.0
 14
0.5
 24
0.5
 15
0.5
 25
0.5
 16
0.0
 26
0.0
 36
1.0
 17
0.0
 27
0.0
 37
0.0
 40
8.5
 41
1.2941176471
 42
50.0
 43
0.0
 44
0.0
 50
0.0
 51
0.0
 71
     0
 72
  2000
 73
     1
 74
     3
 75
     0
 76
     0
 77
     0
 78
     0
  0
ENDTAB
  0
TABLE
  2
LTYPE
  5
5
330
0
100
AcDbSymbolTable
 70
     6
  0
LTYPE
  5
14
330
5
100
AcDbSymbolTableRecord
100
AcDbLinetypeTableRecord
  2
BYBLOCK
 70
     0
  3

 72
    65
 73
     0
 40
0.0
  0
LTYPE
  5
15
330
5
100
AcDbSymbolTableRecord
100
AcDbLinetypeTableRecord
  2
BYLAYER
 70
     0
  3

 72
    65
 73
     0
 40
0.0
  0
LTYPE
  5
16
330
5
100
AcDbSymbolTableRecord
100
AcDbLinetypeTableRecord
  2
CONTINUOUS
 70
     0
  3
Solid line
 72
    65
 73
     0
 40
0.0
  0
LTYPE
  5
3B
330
5
100
AcDbSymbolTableRecord
100
AcDbLinetypeTableRecord
  2
HIDDEN
 70
     0
  3
Hidden __ __ __ __ __ __ __ __ __ __ __ __ __ __
 72
    65
 73
     2
 40
0.075
 49
0.05
 74
     0
 49
-0.025
 74
     0
  0
LTYPE
  5
3C
330
5
100
AcDbSymbolTableRecord
100
AcDbLinetypeTableRecord
  2
PHANTOM
 70
     0
  3
Phantom ______  __  __  ______  __  __  ______
 72
    65
 73
     6
 40
0.5
 49
0.25
 74
     0
 49
-0.05
 74
     0
 49
0.05
 74
     0
 49
-0.05
 74
     0
 49
0.05
 74
     0
 49
-0.05
 74
     0
  0
LTYPE
  5
3D
330
5
100
AcDbSymbolTableRecord
100
AcDbLinetypeTableRecord
  2
CENTER
 70
     0
  3
Center ____ _ ____ _ ____ _ ____ _ ____ _ ____
 72
    65
 73
     4
 40
0.4
 49
0.25
 74
     0
 49
-0.05
 74
     0
 49
0.05
 74
     0
 49
-0.05
 74
     0
  0
LTYPE
  5
3E
330
5
100
AcDbSymbolTableRecord
100
AcDbLinetypeTableRecord
  2
CENTERX2
 70
     0
  3
Center (2x) ________  __  ________  __  _____
 72
    65
 73
     4
 40
0.8
 49
0.5
 74
     0
 49
-0.1
 74
     0
 49
0.1
 74
     0
 49
-0.1
 74
     0
  0
LTYPE
  5
3F
330
5
100
AcDbSymbolTableRecord
100
AcDbLinetypeTableRecord
  2
DOT2
 70
     0
  3
Dot (.5x) ........................................
 72
    65
 73
     2
 40
0.025
 49
0.0
 74
     0
 49
-0.025
 74
     0
  0
ENDTAB
  0
TABLE
  2
LAYER
  5
2
330
0
100
AcDbSymbolTable
 70
     2
  0
LAYER
  5
10
330
2
100
AcDbSymbolTableRecord
100
AcDbLayerTableRecord
  2
0
 70
     0
 62
     7
  6
CONTINUOUS
  0
LAYER
  5
40
330
2
100
AcDbSymbolTableRecord
100
AcDbLayerTableRecord
  2
FORMAT
 70
     0
 62
     7
  6
CONTINUOUS
  0
ENDTAB
  0
TABLE
  2
STYLE
  5
3
330
0
100
AcDbSymbolTable
 70
     4
  0
STYLE
  5
11
330
3
100
AcDbSymbolTableRecord
100
AcDbTextStyleTableRecord
  2
STANDARD
 70
     0
 40
0.0
 41
1.0
 50
0.0
 71
     0
 42
0.2
  3
txt
  4

  0
STYLE
  5
6E
330
3
100
AcDbSymbolTableRecord
100
AcDbTextStyleTableRecord
  2
SLDTEXTSTYLE0
 70
     0
 40
0.0
 41
0.75
 50
0.0
 71
     0
 42
0.2
  3
TXT
  4

  0
STYLE
  5
93
330
3
100
AcDbSymbolTableRecord
100
AcDbTextStyleTableRecord
  2
SLDTEXTSTYLE1
 70
     0
 40
0.0
 41
0.6875
 50
0.0
 71
     0
 42
0.2
  3
TXT
  4

  0
STYLE
  5
99
330
3
100
AcDbSymbolTableRecord
100
AcDbTextStyleTableRecord
  2
SLDTEXTSTYLE2
 70
     0
 40
0.0
 41
0.6944444444
 50
0.0
 71
     0
 42
0.2
  3
TXT
  4

  0
ENDTAB
  0
TABLE
  2
VIEW
  5
6
330
0
100
AcDbSymbolTable
 70
     0
  0
ENDTAB
  0
TABLE
  2
UCS
  5
7
330
0
100
AcDbSymbolTable
 70
     0
  0
ENDTAB
  0
TABLE
  2
APPID
  5
9
330
0
100
AcDbSymbolTable
 70
     1
  0
APPID
  5
12
330
9
100
AcDbSymbolTableRecord
100
AcDbRegAppTableRecord
  2
ACAD
 70
     0
  0
ENDTAB
  0
TABLE
  2
DIMSTYLE
  5
A
330
0
100
AcDbSymbolTable
 70
     1
  0
DIMSTYLE
105
27
330
A
100
AcDbSymbolTableRecord
100
AcDbDimStyleTableRecord
  2
STANDARD
 70
     0
  3

  4

  5

  6

  7

 40
1.0
 41
0.18
 42
0.0625
 43
0.38
 44
0.18
 45
0.0
 46
0.0
 47
0.0
 48
0.0
140
0.18
141
0.09
142
0.0
143
25.4
144
1.0
145
0.0
146
1.0
147
0.09
 71
     0
 72
     0
 73
     1
 74
     1
 75
     0
 76
     0
 77
     0
 78
     0
170
     0
171
     2
172
     0
173
     0
174
     0
175
     0
176
     0
177
     0
178
     0
270
     2
271
     4
272
     4
273
     2
274
     2
340
11
275
     0
280
     0
281
     0
282
     0
283
     1
284
     0
285
     0
286
     0
287
     3
288
     0
  0
ENDTAB
  0
TABLE
  2
BLOCK_RECORD
  5
1
330
0
100
AcDbSymbolTable
 70
     4
  0
BLOCK_RECORD
  5
1F
330
1
100
AcDbSymbolTableRecord
100
AcDbBlockTableRecord
  2
*MODEL_SPACE
  0
BLOCK_RECORD
  5
1B
330
1
100
AcDbSymbolTableRecord
100
AcDbBlockTableRecord
  2
*PAPER_SPACE
  0
BLOCK_RECORD
  5
A8
330
1
100
AcDbSymbolTableRecord
100
AcDbBlockTableRecord
  2
SW_NOTE_0
  0
BLOCK_RECORD
  5
AE
330
1
100
AcDbSymbolTableRecord
100
AcDbBlockTableRecord
  2
SW_NOTE_1
  0
BLOCK_RECORD
  5
C2
330
1
100
AcDbSymbolTableRecord
100
AcDbBlockTableRecord
  2
SW_NOTE_2
  0
ENDTAB
  0
ENDSEC
  0
SECTION
  2
BLOCKS
  0
BLOCK
  5
20
330
1F
100
AcDbEntity
  8
0
100
AcDbBlockBegin
  2
*MODEL_SPACE
 70
     0
 10
0.0
 20
0.0
 30
0.0
  3
*MODEL_SPACE
  1

  0
ENDBLK
  5
21
330
1F
100
AcDbEntity
  8
0
100
AcDbBlockEnd
  0
BLOCK
  5
1C
330
1B
100
AcDbEntity
 67
     1
  8
0
100
AcDbBlockBegin
  2
*PAPER_SPACE
 70
     0
 10
0.0
 20
0.0
 30
0.0
  3
*PAPER_SPACE
  1

  0
ENDBLK
  5
1D
330
1B
100
AcDbEntity
 67
     1
  8
0
100
AcDbBlockEnd
  0
BLOCK
  5
A9
330
A8
100
AcDbEntity
  8
0
100
AcDbBlockBegin
  2
SW_NOTE_0
 70
     0
 10
0.0
 20
0.0
 30
0.0
  3
SW_NOTE_0
  1

  0
MTEXT
  5
AB
330
A8
100
AcDbEntity
  8
0
  6
CONTINUOUS
 62
     0
100
AcDbMText
 10
0.0
 20
0.0773440644
 30
0.0
 40
0.06
 41
0.0
 71
     1
 72
     1
  1
INTERPRET GEOMETRIC
  7
SLDTEXTSTYLE0
  0
MTEXT
  5
AC
330
A8
100
AcDbEntity
  8
0
  6
CONTINUOUS
 62
     0
100
AcDbMText
 10
0.0
 20
-0.0220260102
 30
0.0
 40
0.06
 41
0.0
 71
     1
 72
     1
  1
TOLERANCING PER:
  7
SLDTEXTSTYLE0
  0
ENDBLK
  5
AA
330
A8
100
AcDbEntity
  8
0
100
AcDbBlockEnd
  0
BLOCK
  5
AF
330
AE
100
AcDbEntity
  8
0
100
AcDbBlockBegin
  2
SW_NOTE_1
 70
     0
 10
0.0
 20
0.0
 30
0.0
  3
SW_NOTE_1
  1

  0
MTEXT
  5
B1
330
AE
100
AcDbEntity
  8
0
  6
CONTINUOUS
 62
     0
100
AcDbMText
 10
0.0
 20
0.0837894031
 30
0.0
 40
0.065
 41
0.0
 71
     1
 72
     1
  1
DIMENSIONS ARE IN INCHES
  7
SLDTEXTSTYLE0
  0
MTEXT
  5
B2
330
AE
100
AcDbEntity
  8
0
  6
CONTINUOUS
 62
     0
100
AcDbMText
 10
0.0
 20
-0.0205806729
 30
0.0
 40
0.065
 41
0.0
 71
     1
 72
     1
  1
TOLERANCES:
  7
SLDTEXTSTYLE0
  0
MTEXT
  5
B3
330
AE
100
AcDbEntity
  8
0
  6
CONTINUOUS
 62
     0
100
AcDbMText
 10
0.0
 20
-0.1249507489
 30
0.0
 40
0.065
 41
0.0
 71
     1
 72
     1
  1
FRACTIONAL
  7
SLDTEXTSTYLE0
  0
MTEXT
  5
B4
330
AE
100
AcDbEntity
  8
0
  6
CONTINUOUS
 62
     0
100
AcDbMText
 10
0.5175850875
 20
-0.1249507489
 30
0.0
 40
0.065
 41
0.0
 71
     1
 72
     1
  1
%%p
  7
SLDTEXTSTYLE0
  0
MTEXT
  5
B5
330
AE
100
AcDbEntity
  8
0
  6
CONTINUOUS
 62
     0
100
AcDbMText
 10
0.0
 20
-0.2293208248
 30
0.0
 40
0.065
 41
0.0
 71
     1
 72
     1
  1
ANGULAR: MACH
  7
SLDTEXTSTYLE0
  0
MTEXT
  5
B6
330
AE
100
AcDbEntity
  8
0
  6
CONTINUOUS
 62
     0
100
AcDbMText
 10
0.7233732769
 20
-0.2293208248
 30
0.0
 40
0.065
 41
0.0
 71
     1
 72
     1
  1
%%p
  7
SLDTEXTSTYLE0
  0
MTEXT
  5
B7
330
AE
100
AcDbEntity
  8
0
  6
CONTINUOUS
 62
     0
100
AcDbMText
 10
0.7852857683
 20
-0.2293208248
 30
0.0
 40
0.065
 41
0.0
 71
     1
 72
     1
  1
     BEND 
  7
SLDTEXTSTYLE0
  0
MTEXT
  5
B8
330
AE
100
AcDbEntity
  8
0
  6
CONTINUOUS
 62
     0
100
AcDbMText
 10
1.14784136
 20
-0.2293208248
 30
0.0
 40
0.065
 41
0.0
 71
     1
 72
     1
  1
%%p
  7
SLDTEXTSTYLE0
  0
MTEXT
  5
B9
330
AE
100
AcDbEntity
  8
0
  6
CONTINUOUS
 62
     0
100
AcDbMText
 10
0.0
 20
-0.3336909008
 30
0.0
 40
0.065
 41
0.0
 71
     1
 72
     1
  1
TWO PLACE DECIMAL    
  7
SLDTEXTSTYLE0
  0
MTEXT
  5
BA
330
AE
100
AcDbEntity
  8
0
  6
CONTINUOUS
 62
     0
100
AcDbMText
 10
0.9794349188
 20
-0.3336909008
 30
0.0
 40
0.065
 41
0.0
 71
     1
 72
     1
  1
%%p
  7
SLDTEXTSTYLE0
  0
MTEXT
  5
BB
330
AE
100
AcDbEntity
  8
0
  6
CONTINUOUS
 62
     0
100
AcDbMText
 10
0.0
 20
-0.4380609768
 30
0.0
 40
0.065
 41
0.0
 71
     1
 72
     1
  1
THREE PLACE DECIMAL  
  7
SLDTEXTSTYLE0
  0
MTEXT
  5
BC
330
AE
100
AcDbEntity
  8
0
  6
CONTINUOUS
 62
     0
100
AcDbMText
 10
0.9738038639
 20
-0.4380609768
 30
0.0
 40
0.065
 41
0.0
 71
     1
 72
     1
  1
%%p
  7
SLDTEXTSTYLE0
  0
ENDBLK
  5
B0
330
AE
100
AcDbEntity
  8
0
100
AcDbBlockEnd
  0
BLOCK
  5
C3
330
C2
100
AcDbEntity
  8
0
100
AcDbBlockBegin
  2
SW_NOTE_2
 70
     0
 10
0.0
 20
0.0
 30
0.0
  3
SW_NOTE_2
  1

  0
MTEXT
  5
C5
330
C2
100
AcDbEntity
  8
0
  6
CONTINUOUS
 62
     0
100
AcDbMText
 10
0.0
 20
0.0773440644
 30
0.0
 40
0.06
 41
0.0
 71
     1
 72
     1
  1
THE INFORMATION CONTAINED IN THIS
  7
SLDTEXTSTYLE0
  0
MTEXT
  5
C6
330
C2
100
AcDbEntity
  8
0
  6
CONTINUOUS
 62
     0
100
AcDbMText
 10
0.0
 20
-0.0220260102
 30
0.0
 40
0.06
 41
0.0
 71
     1
 72
     1
  1
DRAWING IS THE SOLE PROPERTY OF
  7
SLDTEXTSTYLE0
  0
MTEXT
  5
C7
330
C2
100
AcDbEntity
  8
0
  6
CONTINUOUS
 62
     0
100
AcDbMText
 10
0.0
 20
-0.1213960848
 30
0.0
 40
0.06
 41
0.0
 71
     1
 72
     1
  1
Candy Controls.  ANY 
  7
SLDTEXTSTYLE0
  0
MTEXT
  5
C8
330
C2
100
AcDbEntity
  8
0
  6
CONTINUOUS
 62
     0
100
AcDbMText
 10
0.0
 20
-0.2207661593
 30
0.0
 40
0.06
 41
0.0
 71
     1
 72
     1
  1
REPRODUCTION IN PART OR AS A WHOLE
  7
SLDTEXTSTYLE0
  0
MTEXT
  5
C9
330
C2
100
AcDbEntity
  8
0
  6
CONTINUOUS
 62
     0
100
AcDbMText
 10
0.0
 20
-0.3201362339
 30
0.0
 40
0.06
 41
0.0
 71
     1
 72
     1
  1
WITHOUT THE WRITTEN PERMISSION OF
  7
SLDTEXTSTYLE0
  0
MTEXT
  5
CA
330
C2
100
AcDbEntity
  8
0
  6
CONTINUOUS
 62
     0
100
AcDbMText
 10
0.0
 20
-0.4195063085
 30
0.0
 40
0.06
 41
0.0
 71
     1
 72
     1
  1
Candy Controls IS 
  7
SLDTEXTSTYLE0
  0
MTEXT
  5
CB
330
C2
100
AcDbEntity
  8
0
  6
CONTINUOUS
 62
     0
100
AcDbMText
 10
0.0
 20
-0.518876383
 30
0.0
 40
0.06
 41
0.0
 71
     1
 72
     1
  1
PROHIBITED.
  7
SLDTEXTSTYLE0
  0
ENDBLK
  5
C4
330
C2
100
AcDbEntity
  8
0
100
AcDbBlockEnd
  0
ENDSEC
  0
SECTION
  2
ENTITIES
  0
LINE
  5
41
330
1F
100
AcDbEntity
  8
0
  6
CONTINUOUS
 62
     7
100
AcDbLine
 10
0.329927
 20
8.1920731707
 30
0.0
 11
10.629927
 21
8.1920731707
 31
0.0
  0
LINE
  5
42
330
1F
100
AcDbEntity
  8
0
  6
CONTINUOUS
 62
     7
100
AcDbLine
 10
0.329927
 20
8.1920731707
 30
0.0
 11
0.329927
 21
0.3920731707
 31
0.0
  0
LINE
  5
43
330
1F
100
AcDbEntity
  8
0
  6
CONTINUOUS
 62
     7
100
AcDbLine
 10
10.629927
 20
0.3920731707
 30
0.0
 11
0.329927
 21
0.3920731707
 31
0.0
  0
LINE
  5
44
330
1F
100
AcDbEntity
  8
0
  6
CONTINUOUS
 62
     7
100
AcDbLine
 10
10.629927
 20
0.3920731707
 30
0.0
 11
10.629927
 21
8.1920731707
 31
0.0
  0
LINE
  5
45
330
1F
100
AcDbEntity
  8
0
  6
CONTINUOUS
 62
     7
100
AcDbLine
 10
4.7981841288
 20
0.3920731707
 30
0.0
 11
4.7981841288
 21
2.3564211366
 31
0.0
  0
LINE
  5
46
330
1F
100
AcDbEntity
  8
0
  6
CONTINUOUS
 62
     7
100
AcDbLine
 10
2.8210345579
 20
2.3564211366
 30
0.0
 11
10.629927
 21
2.3564211366
 31
0.0
  0
LINE
  5
47
330
1F
100
AcDbEntity
  8
0
  6
CONTINUOUS
 62
     7
100
AcDbLine
 10
6.1796352514
 20
2.3564211366
 30
0.0
 11
6.1796352514
 21
0.3920731707
 31
0.0
  0
LINE
  5
48
330
1F
100
AcDbEntity
  8
0
  6
CONTINUOUS
 62
     7
100
AcDbLine
 10
7.8712070044
 20
2.3564211366
 30
0.0
 11
7.8712070044
 21
0.3920731707
 31
0.0
  0
LINE
  5
49
330
1F
100
AcDbEntity
  8
0
  6
CONTINUOUS
 62
     7
100
AcDbLine
 10
7.8712070044
 20
0.6049590101
 30
0.0
 11
10.629927
 21
0.6049590101
 31
0.0
  0
LINE
  5
4A
330
1F
100
AcDbEntity
  8
0
  6
CONTINUOUS
 62
     7
100
AcDbLine
 10
7.8712070044
 20
1.1119362457
 30
0.0
 11
10.629927
 21
1.1119362457
 31
0.0
  0
LINE
  5
4B
330
1F
100
AcDbEntity
  8
0
  6
CONTINUOUS
 62
     7
100
AcDbLine
 10
7.8712070044
 20
1.9892703708
 30
0.0
 11
10.629927
 21
1.9892703708
 31
0.0
  0
LINE
  5
4C
330
1F
100
AcDbEntity
  8
0
  6
CONTINUOUS
 62
     7
100
AcDbLine
 10
8.266751752
 20
1.1119362457
 30
0.0
 11
8.266751752
 21
0.6049590101
 31
0.0
  0
LINE
  5
4D
330
1F
100
AcDbEntity
  8
0
  6
CONTINUOUS
 62
     7
100
AcDbLine
 10
8.6943435176
 20
0.6049590101
 30
0.0
 11
8.6943435176
 21
0.3920731707
 31
0.0
  0
LINE
  5
4E
330
1F
100
AcDbEntity
  8
0
  6
CONTINUOUS
 62
     7
100
AcDbLine
 10
10.0579917045
 20
1.1119362457
 30
0.0
 11
10.0579917045
 21
0.6049590101
 31
0.0
  0
LINE
  5
4F
330
1F
100
AcDbEntity
  8
0
  6
CONTINUOUS
 62
     7
100
AcDbLine
 10
9.6662556631
 20
0.6049590101
 30
0.0
 11
9.6662556631
 21
0.3920731707
 31
0.0
  0
LINE
  5
50
330
1F
100
AcDbEntity
  8
0
  6
CONTINUOUS
 62
     7
100
AcDbLine
 10
2.8210345579
 20
0.5883479999
 30
0.0
 11
6.1796352514
 21
0.5883479999
 31
0.0
  0
LINE
  5
51
330
1F
100
AcDbEntity
  8
0
  6
CONTINUOUS
 62
     7
100
AcDbLine
 10
6.1796352514
 20
1.7939211366
 30
0.0
 11
7.8712070044
 21
1.7939211366
 31
0.0
  0
LINE
  5
52
330
1F
100
AcDbEntity
  8
0
  6
CONTINUOUS
 62
     7
100
AcDbLine
 10
6.1796352514
 20
1.9814211366
 30
0.0
 11
7.8712070044
 21
1.9814211366
 31
0.0
  0
LINE
  5
53
330
1F
100
AcDbEntity
  8
0
  6
CONTINUOUS
 62
     7
100
AcDbLine
 10
6.1796352514
 20
2.1689211366
 30
0.0
 11
7.8712070044
 21
2.1689211366
 31
0.0
  0
LINE
  5
54
330
1F
100
AcDbEntity
  8
0
  6
CONTINUOUS
 62
     7
100
AcDbLine
 10
7.8712070044
 20
1.2314211366
 30
0.0
 11
6.1796352514
 21
1.2314211366
 31
0.0
  0
LINE
  5
55
330
1F
100
AcDbEntity
  8
0
  6
CONTINUOUS
 62
     7
100
AcDbLine
 10
7.3921580388
 20
2.3564211366
 30
0.0
 11
7.3921580388
 21
1.2314211366
 31
0.0
  0
LINE
  5
56
330
1F
100
AcDbEntity
  8
0
  6
CONTINUOUS
 62
     7
100
AcDbLine
 10
6.9236308342
 20
2.3564211366
 30
0.0
 11
6.9236308342
 21
1.2314211366
 31
0.0
  0
LINE
  5
57
330
1F
100
AcDbEntity
  8
0
  6
CONTINUOUS
 62
     7
100
AcDbLine
 10
4.7981841288
 20
0.8557965305
 30
0.0
 11
6.1796352514
 21
0.8557965305
 31
0.0
  0
LINE
  5
58
330
1F
100
AcDbEntity
  8
0
  6
CONTINUOUS
 62
     7
100
AcDbLine
 10
4.7981841288
 20
1.1257965305
 30
0.0
 11
6.1796352514
 21
1.1257965305
 31
0.0
  0
LINE
  5
59
330
1F
100
AcDbEntity
  8
0
  6
CONTINUOUS
 62
     7
100
AcDbLine
 10
2.8210345579
 20
0.3920731707
 30
0.0
 11
2.8210345579
 21
2.3564211366
 31
0.0
  0
LINE
  5
5A
330
1F
100
AcDbEntity
  8
0
  6
CONTINUOUS
 62
     7
100
AcDbLine
 10
2.8210345579
 20
1.1064211366
 30
0.0
 11
4.7981841288
 21
1.1064211366
 31
0.0
  0
LINE
  5
5B
330
1F
100
AcDbEntity
  8
0
  6
CONTINUOUS
 62
     7
100
AcDbLine
 10
2.8210345579
 20
1.3564211366
 30
0.0
 11
4.7981841288
 21
1.3564211366
 31
0.0
  0
LINE
  5
5C
330
1F
100
AcDbEntity
  8
0
  6
CONTINUOUS
 62
     7
100
AcDbLine
 10
2.8210345579
 20
1.6064211366
 30
0.0
 11
4.7981841288
 21
1.6064211366
 31
0.0
  0
LINE
  5
5D
330
1F
100
AcDbEntity
  8
0
  6
CONTINUOUS
 62
     7
100
AcDbLine
 10
2.8210345579
 20
1.8564211366
 30
0.0
 11
4.7981841288
 21
1.8564211366
 31
0.0
  0
LINE
  5
5E
330
1F
100
AcDbEntity
  8
0
  6
CONTINUOUS
 62
     7
100
AcDbLine
 10
3.8190146875
 20
2.3564211366
 30
0.0
 11
3.8190146875
 21
0.5883479999
 31
0.0
  0
LINE
  5
5F
330
1F
100
AcDbEntity
  8
0
  6
CONTINUOUS
 62
     7
100
AcDbLine
 10
6.1796352514
 20
2.2020813496
 30
0.0
 11
4.7981841288
 21
2.2020813496
 31
0.0
  0
LINE
  5
60
330
1F
100
AcDbEntity
  8
0
  6
CONTINUOUS
 62
     7
100
AcDbLine
 10
7.8712070044
 20
1.6064211366
 30
0.0
 11
6.1796352514
 21
1.6064211366
 31
0.0
  0
LINE
  5
61
330
1F
100
AcDbEntity
  8
0
  6
CONTINUOUS
 62
     7
100
AcDbLine
 10
7.8712070044
 20
1.4189211366
 30
0.0
 11
6.1796352514
 21
1.4189211366
 31
0.0
  0
LINE
  5
62
330
1F
100
AcDbEntity
  8
0
  6
CONTINUOUS
 62
     7
100
AcDbLine
 10
2.8210345579
 20
2.1064211366
 30
0.0
 11
4.7981841288
 21
2.1064211366
 31
0.0
  0
LINE
  5
63
330
1F
100
AcDbEntity
  8
0
  6
CONTINUOUS
 62
     7
100
AcDbLine
 10
4.7981841288
 20
1.3957965305
 30
0.0
 11
6.1796352514
 21
1.3957965305
 31
0.0
  0
LINE
  5
64
330
1F
100
AcDbEntity
  8
0
  6
CONTINUOUS
 62
     7
100
AcDbLine
 10
2.8210345579
 20
0.8564211366
 30
0.0
 11
4.7981841288
 21
0.8564211366
 31
0.0
  0
LINE
  5
65
330
1F
100
AcDbEntity
  8
0
  6
CONTINUOUS
 62
     7
100
AcDbLine
 10
1.1838252943
 20
0.3920731707
 30
0.0
 11
1.1838252943
 21
1.3064211366
 31
0.0
  0
LINE
  5
66
330
1F
100
AcDbEntity
  8
0
  6
CONTINUOUS
 62
     7
100
AcDbLine
 10
2.8210345579
 20
1.3064211366
 30
0.0
 11
1.1838252943
 21
1.3064211366
 31
0.0
  0
LINE
  5
67
330
1F
100
AcDbEntity
  8
0
  6
CONTINUOUS
 62
     7
100
AcDbLine
 10
8.660927
 20
0.3920731707
 30
0.0
 11
8.660927
 21
0.3072739649
 31
0.0
  0
LINE
  5
68
330
1F
100
AcDbEntity
  8
0
  6
CONTINUOUS
 62
     7
100
AcDbLine
 10
6.692177
 20
0.3920731707
 30
0.0
 11
6.692177
 21
0.3072739649
 31
0.0
  0
LINE
  5
69
330
1F
100
AcDbEntity
  8
0
  6
CONTINUOUS
 62
     7
100
AcDbLine
 10
4.723427
 20
0.3920731707
 30
0.0
 11
4.723427
 21
0.3072739649
 31
0.0
  0
LINE
  5
6A
330
1F
100
AcDbEntity
  8
0
  6
CONTINUOUS
 62
     7
100
AcDbLine
 10
2.754677
 20
0.3920731707
 30
0.0
 11
2.754677
 21
0.3072739649
 31
0.0
  0
LINE
  5
6B
330
1F
100
AcDbEntity
  8
0
  6
CONTINUOUS
 62
     7
100
AcDbLine
 10
2.754677
 20
0.3920731707
 30
0.0
 11
2.7672319738
 21
0.3575
 31
0.0
  0
LINE
  5
6C
330
1F
100
AcDbEntity
  8
0
  6
CONTINUOUS
 62
     7
100
AcDbLine
 10
2.7672319738
 20
0.3575
 30
0.0
 11
2.7414258825
 21
0.3575
 31
0.0
  0
LINE
  5
6D
330
1F
100
AcDbEntity
  8
0
  6
CONTINUOUS
 62
     7
100
AcDbLine
 10
2.7414258825
 20
0.3575
 30
0.0
 11
2.754677
 21
0.3920731707
 31
0.0
  0
MTEXT
  5
91
330
1F
100
AcDbEntity
  8
0
  6
CONTINUOUS
 62
     7
100
AcDbMText
 10
4.9775846961
 20
0.5178452352
 30
0.0
 40
0.0625
 41
0.0
 71
     1
 72
     1
  1
DO NOT SCALE DRAWING
  7
SLDTEXTSTYLE0
  0
MTEXT
  5
92
330
1F
100
AcDbEntity
  8
0
  6
CONTINUOUS
 62
     7
100
AcDbMText
 10
8.8363827905
 20
0.9417064595
 30
0.0
 40
0.125
 41
0.0
 71
     1
 72
     1
  1
CL3-C68
  7
SLDTEXTSTYLE0
  0
MTEXT
  5
94
330
1F
100
AcDbEntity
  8
0
  6
CONTINUOUS
 62
     7
100
AcDbMText
 10
9.7571278483
 20
0.5524239532
 30
0.0
 40
0.1
 41
0.0
 71
     1
 72
     1
  1
SHEET 1 OF 1
  7
SLDTEXTSTYLE1
  0
MTEXT
  5
95
330
1F
100
AcDbEntity
  8
0
  6
CONTINUOUS
 62
     7
100
AcDbMText
 10
4.8448077858
 20
2.3132954224
 30
0.0
 40
0.07
 41
0.0
 71
     1
 72
     1
  1
UNLESS OTHERWISE SPECIFIED:
  7
SLDTEXTSTYLE0
  0
MTEXT
  5
96
330
1F
100
AcDbEntity
  8
0
  6
CONTINUOUS
 62
     7
100
AcDbMText
 10
7.9586139647
 20
0.5520987879
 30
0.0
 40
0.1
 41
0.0
 71
     1
 72
     1
  1
SCALE: 1:2
  7
SLDTEXTSTYLE0
  0
MTEXT
  5
97
330
1F
100
AcDbEntity
  8
0
  6
CONTINUOUS
 62
     7
100
AcDbMText
 10
8.7023691647
 20
0.5486763345
 30
0.0
 40
0.1
 41
0.0
 71
     1
 72
     1
  1
WEIGHT: 
  7
SLDTEXTSTYLE0
  0
MTEXT
  5
98
330
1F
100
AcDbEntity
  8
0
  6
CONTINUOUS
 62
     7
100
AcDbMText
 10
10.2277580983
 20
1.081966299
 30
0.0
 40
0.1
 41
0.0
 71
     1
 72
     1
  1
REV
  7
SLDTEXTSTYLE0
  0
MTEXT
  5
9A
330
1F
100
AcDbEntity
  8
0
  6
CONTINUOUS
 62
     7
100
AcDbMText
 10
8.2984570898
 20
1.0858725293
 30
0.0
 40
0.1
 41
0.0
 71
     1
 72
     1
  1
DWG.  NO.
  7
SLDTEXTSTYLE2
  0
MTEXT
  5
9B
330
1F
100
AcDbEntity
  8
0
  6
CONTINUOUS
 62
     7
100
AcDbMText
 10
7.9598482632
 20
0.9442140768
 30
0.0
 40
0.25
 41
0.0
 71
     1
 72
     1
  1
A
  7
SLDTEXTSTYLE0
  0
MTEXT
  5
9C
330
1F
100
AcDbEntity
  8
0
  6
CONTINUOUS
 62
     7
100
AcDbMText
 10
7.9519581822
 20
1.0872713483
 30
0.0
 40
0.1
 41
0.0
 71
     1
 72
     1
  1
SIZE
  7
SLDTEXTSTYLE0
  0
MTEXT
  5
9D
330
1F
100
AcDbEntity
  8
0
  6
CONTINUOUS
 62
     7
100
AcDbMText
 10
7.9170704177
 20
1.9547881128
 30
0.0
 40
0.1
 41
0.0
 71
     1
 72
     1
  1
TITLE:
  7
SLDTEXTSTYLE0
  0
MTEXT
  5
9E
330
1F
100
AcDbEntity
  8
0
  6
CONTINUOUS
 62
     7
100
AcDbMText
 10
7.0363774929
 20
2.2906161274
 30
0.0
 40
0.065
 41
0.0
 71
     1
 72
     1
  1
NAME
  7
SLDTEXTSTYLE0
  0
MTEXT
  5
9F
330
1F
100
AcDbEntity
  8
0
  6
CONTINUOUS
 62
     7
100
AcDbMText
 10
7.5281510634
 20
2.2888799118
 30
0.0
 40
0.065
 41
0.0
 71
     1
 72
     1
  1
DATE
  7
SLDTEXTSTYLE0
  0
MTEXT
  5
A0
330
1F
100
AcDbEntity
  8
0
  6
CONTINUOUS
 62
     7
100
AcDbMText
 10
6.2277147029
 20
1.1876913145
 30
0.0
 40
0.065
 41
0.0
 71
     1
 72
     1
  1
COMMENTS:
  7
SLDTEXTSTYLE0
  0
MTEXT
  5
A1
330
1F
100
AcDbEntity
  8
0
  6
CONTINUOUS
 62
     7
100
AcDbMText
 10
6.2268411461
 20
1.3536101679
 30
0.0
 40
0.065
 41
0.0
 71
     1
 72
     1
  1
Q.A.
  7
SLDTEXTSTYLE0
  0
MTEXT
  5
A2
330
1F
100
AcDbEntity
  8
0
  6
CONTINUOUS
 62
     7
100
AcDbMText
 10
6.2284654509
 20
1.5395328424
 30
0.0
 40
0.065
 41
0.0
 71
     1
 72
     1
  1
MFG APPR.
  7
SLDTEXTSTYLE0
  0
MTEXT
  5
A3
330
1F
100
AcDbEntity
  8
0
  6
CONTINUOUS
 62
     7
100
AcDbMText
 10
6.2235171344
 20
1.7267501785
 30
0.0
 40
0.065
 41
0.0
 71
     1
 72
     1
  1
ENG APPR.
  7
SLDTEXTSTYLE0
  0
MTEXT
  5
A4
330
1F
100
AcDbEntity
  8
0
  6
CONTINUOUS
 62
     7
100
AcDbMText
 10
6.2264103951
 20
1.9092699088
 30
0.0
 40
0.065
 41
0.0
 71
     1
 72
     1
  1
CHECKED
  7
SLDTEXTSTYLE0
  0
MTEXT
  5
A5
330
1F
100
AcDbEntity
  8
0
  6
CONTINUOUS
 62
     7
100
AcDbMText
 10
6.2242794356
 20
2.1016301232
 30
0.0
 40
0.065
 41
0.0
 71
     1
 72
     1
  1
DRAWN
  7
SLDTEXTSTYLE0
  0
MTEXT
  5
A6
330
1F
100
AcDbEntity
  8
0
  6
CONTINUOUS
 62
     7
100
AcDbMText
 10
4.8208600979
 20
0.834523235
 30
0.0
 40
0.06
 41
0.0
 71
     1
 72
     1
  1
FINISH
  7
SLDTEXTSTYLE0
  0
MTEXT
  5
A7
330
1F
100
AcDbEntity
  8
0
  6
CONTINUOUS
 62
     7
100
AcDbMText
 10
4.8181240648
 20
1.1028217587
 30
0.0
 40
0.06
 41
0.0
 71
     1
 72
     1
  1
MATERIAL
  7
SLDTEXTSTYLE0
  0
INSERT
  5
AD
330
1F
100
AcDbEntity
  8
0
  6
CONTINUOUS
 62
     7
100
AcDbBlockReference
  2
SW_NOTE_0
 10
4.8231926633
 20
1.2646542947
 30
0.0
  0
INSERT
  5
BD
330
1F
100
AcDbEntity
  8
0
  6
CONTINUOUS
 62
     7
100
AcDbBlockReference
  2
SW_NOTE_1
 10
4.8353339353
 20
2.0049168724
 30
0.0
  0
MTEXT
  5
BE
330
1F
100
AcDbEntity
  8
0
  6
CONTINUOUS
 62
     7
100
AcDbMText
 10
3.5531400086
 20
0.5200091997
 30
0.0
 40
0.0625
 41
0.0
 71
     1
 72
     1
  1
APPLICATION
  7
SLDTEXTSTYLE0
  0
MTEXT
  5
BF
330
1F
100
AcDbEntity
  8
0
  6
CONTINUOUS
 62
     7
100
AcDbMText
 10
4.1005607758
 20
0.7502454275
 30
0.0
 40
0.0625
 41
0.0
 71
     1
 72
     1
  1
USED ON
  7
SLDTEXTSTYLE0
  0
MTEXT
  5
C0
330
1F
100
AcDbEntity
  8
0
  6
CONTINUOUS
 62
     7
100
AcDbMText
 10
3.1040019536
 20
0.7492094783
 30
0.0
 40
0.0625
 41
0.0
 71
     1
 72
     1
  1
NEXT ASSY
  7
SLDTEXTSTYLE0
  0
MTEXT
  5
C1
330
1F
100
AcDbEntity
  8
0
  6
CONTINUOUS
 62
     7
100
AcDbMText
 10
1.3712489489
 20
1.2496672684
 30
0.0
 40
0.06
 41
0.0
 71
     1
 72
     1
  1
PROPRIETARY AND CONFIDENTIAL
  7
SLDTEXTSTYLE0
  0
INSERT
  5
CC
330
1F
100
AcDbEntity
  8
0
  6
CONTINUOUS
 62
     7
100
AcDbBlockReference
  2
SW_NOTE_2
 10
1.2226209074
 20
1.0313492921
 30
0.0
  0
MTEXT
  5
CD
330
1F
100
AcDbEntity
  8
0
  6
CONTINUOUS
 62
     7
100
AcDbMText
 10
1.7387909509
 20
0.3105864247
 30
0.0
 40
0.09375
 41
0.0
 71
     1
 72
     1
  1
5
  7
SLDTEXTSTYLE0
  0
MTEXT
  5
CE
330
1F
100
AcDbEntity
  8
0
  6
CONTINUOUS
 62
     7
100
AcDbMText
 10
3.723800327
 20
0.3137237518
 30
0.0
 40
0.09375
 41
0.0
 71
     1
 72
     1
  1
4
  7
SLDTEXTSTYLE0
  0
MTEXT
  5
CF
330
1F
100
AcDbEntity
  8
0
  6
CONTINUOUS
 62
     7
100
AcDbMText
 10
5.6324457277
 20
0.3116191842
 30
0.0
 40
0.09375
 41
0.0
 71
     1
 72
     1
  1
3
  7
SLDTEXTSTYLE0
  0
MTEXT
  5
D0
330
1F
100
AcDbEntity
  8
0
  6
CONTINUOUS
 62
     7
100
AcDbMText
 10
7.6059721724
 20
0.3124391351
 30
0.0
 40
0.09375
 41
0.0
 71
     1
 72
     1
  1
2
  7
SLDTEXTSTYLE0
  0
MTEXT
  5
D1
330
1F
100
AcDbEntity
  8
0
  6
CONTINUOUS
 62
     7
100
AcDbMText
 10
9.6619921328
 20
0.301372012
 30
0.0
 40
0.09375
 41
0.0
 71
     1
 72
     1
  1
1
  7
SLDTEXTSTYLE0
  0
LINE
  5
D2
330
1F
100
AcDbEntity
  8
0
  6
CONTINUOUS
 62
     7
100
AcDbLine
 10
3.5455140561
 20
3.0893869478
 30
0.0
 11
3.5553565758
 21
3.0992294675
 31
0.0
  0
LINE
  5
D3
330
1F
100
AcDbEntity
  8
0
  6
CONTINUOUS
 62
     7
100
AcDbLine
 10
3.5553565758
 20
4.4181271053
 30
0.0
 11
3.5455140561
 21
4.427969625
 31
0.0
  0
LINE
  5
D4
330
1F
100
AcDbEntity
  8
0
  6
CONTINUOUS
 62
     7
100
AcDbLine
 10
3.3856912215
 20
3.0893869478
 30
0.0
 11
3.5455140561
 21
3.0893869478
 31
0.0
  0
LINE
  5
D5
330
1F
100
AcDbEntity
  8
0
  6
CONTINUOUS
 62
     7
100
AcDbLine
 10
3.5455140561
 20
4.427969625
 30
0.0
 11
3.3856912215
 21
4.427969625
 31
0.0
  0
LINE
  5
D6
330
1F
100
AcDbEntity
  8
0
  6
CONTINUOUS
 62
     7
100
AcDbLine
 10
3.6078500141
 20
3.3059223809
 30
0.0
 11
3.8506321664
 21
3.3059223809
 31
0.0
  0
LINE
  5
D7
330
1F
100
AcDbEntity
  8
0
  6
CONTINUOUS
 62
     7
100
AcDbLine
 10
3.5553565758
 20
3.3059223809
 30
0.0
 11
3.581603295
 21
3.3059223809
 31
0.0
  0
LINE
  5
D8
330
1F
100
AcDbEntity
  8
0
  6
CONTINUOUS
 62
     7
100
AcDbLine
 10
3.581603295
 20
4.2114341919
 30
0.0
 11
3.5553565758
 21
4.2114341919
 31
0.0
  0
LINE
  5
D9
330
1F
100
AcDbEntity
  8
0
  6
CONTINUOUS
 62
     7
100
AcDbLine
 10
3.8506321664
 20
4.2114341919
 30
0.0
 11
3.6078500141
 21
4.2114341919
 31
0.0
  0
LINE
  5
DA
330
1F
100
AcDbEntity
  8
0
  6
CONTINUOUS
 62
     7
100
AcDbLine
 10
3.8506321664
 20
3.3059223809
 30
0.0
 11
3.8581321664
 21
3.3134223809
 31
0.0
  0
LINE
  5
DB
330
1F
100
AcDbEntity
  8
0
  6
CONTINUOUS
 62
     7
100
AcDbLine
 10
3.8581321664
 20
4.2039341919
 30
0.0
 11
3.8506321664
 21
4.2114341919
 31
0.0
  0
LINE
  5
DC
330
1F
100
AcDbEntity
  8
0
  6
CONTINUOUS
 62
     7
100
AcDbLine
 10
3.830947127
 20
4.0947121515
 30
0.0
 11
3.830947127
 21
4.0982452155
 31
0.0
  0
LINE
  5
DD
330
1F
100
AcDbEntity
  8
0
  6
CONTINUOUS
 62
     7
100
AcDbLine
 10
3.6340967333
 20
4.0982452155
 30
0.0
 11
3.6340967333
 21
4.0944358037
 31
0.0
  0
ARC
  5
DE
330
1F
100
AcDbEntity
  8
0
  6
CONTINUOUS
 62
     7
100
AcDbCircle
 10
3.643939253
 20
4.0982452155
 30
0.0
 40
0.0098425196850398
100
AcDbArc
 50
90.0
 51
180.0
  0
ARC
  5
DF
330
1F
100
AcDbEntity
  8
0
  6
CONTINUOUS
 62
     7
100
AcDbCircle
 10
3.8211046073
 20
4.0982452155
 30
0.0
 40
0.0098425196850398
100
AcDbArc
 50
0.0
 51
90.0
  0
LINE
  5
E0
330
1F
100
AcDbEntity
  8
0
  6
CONTINUOUS
 62
     7
100
AcDbLine
 10
3.673466812
 20
3.7685208061
 30
0.0
 11
3.673466812
 21
3.7488357667
 31
0.0
  0
LINE
  5
E1
330
1F
100
AcDbEntity
  8
0
  6
CONTINUOUS
 62
     7
100
AcDbLine
 10
3.7915770483
 20
3.7488357667
 30
0.0
 11
3.7915770483
 21
3.7685208061
 31
0.0
  0
LINE
  5
E2
330
1F
100
AcDbEntity
  8
0
  6
CONTINUOUS
 62
     7
100
AcDbLine
 10
3.1077581506
 20
4.427969625
 30
0.0
 11
3.0979156309
 21
4.4181271053
 31
0.0
  0
LINE
  5
E3
330
1F
100
AcDbEntity
  8
0
  6
CONTINUOUS
 62
     7
100
AcDbLine
 10
3.0979156309
 20
3.0992294675
 30
0.0
 11
3.1077581506
 21
3.0893869478
 31
0.0
  0
LINE
  5
E4
330
1F
100
AcDbEntity
  8
0
  6
CONTINUOUS
 62
     7
100
AcDbLine
 10
3.2675809853
 20
4.427969625
 30
0.0
 11
3.1077581506
 21
4.427969625
 31
0.0
  0
LINE
  5
E5
330
1F
100
AcDbEntity
  8
0
  6
CONTINUOUS
 62
     7
100
AcDbLine
 10
3.1077581506
 20
3.0893869478
 30
0.0
 11
3.2675809853
 21
3.0893869478
 31
0.0
  0
LINE
  5
E6
330
1F
100
AcDbEntity
  8
0
  6
CONTINUOUS
 62
     7
100
AcDbLine
 10
3.2675809853
 20
3.6602530895
 30
0.0
 11
3.306951064
 21
3.6602530895
 31
0.0
  0
LINE
  5
E7
330
1F
100
AcDbEntity
  8
0
  6
CONTINUOUS
 62
     7
100
AcDbLine
 10
3.306951064
 20
3.8571034832
 30
0.0
 11
3.2675809853
 21
3.8571034832
 31
0.0
  0
LINE
  5
E8
330
1F
100
AcDbEntity
  8
0
  6
CONTINUOUS
 62
     7
100
AcDbLine
 10
3.3463211428
 20
3.6602530895
 30
0.0
 11
3.3856912215
 21
3.6602530895
 31
0.0
  0
LINE
  5
E9
330
1F
100
AcDbEntity
  8
0
  6
CONTINUOUS
 62
     7
100
AcDbLine
 10
3.3856912215
 20
3.8571034832
 30
0.0
 11
3.3463211428
 21
3.8571034832
 31
0.0
  0
LINE
  5
EA
330
1F
100
AcDbEntity
  8
0
  6
CONTINUOUS
 62
     7
100
AcDbLine
 10
3.0979156309
 20
4.2114341919
 30
0.0
 11
3.0716689118
 21
4.2114341919
 31
0.0
  0
LINE
  5
EB
330
1F
100
AcDbEntity
  8
0
  6
CONTINUOUS
 62
     7
100
AcDbLine
 10
2.8026400404
 20
3.3059223809
 30
0.0
 11
3.0979156309
 21
3.3059223809
 31
0.0
  0
LINE
  5
EC
330
1F
100
AcDbEntity
  8
0
  6
CONTINUOUS
 62
     7
100
AcDbLine
 10
2.7951400404
 20
3.3134223809
 30
0.0
 11
2.8026400404
 21
3.3059223809
 31
0.0
  0
LINE
  5
ED
330
1F
100
AcDbEntity
  8
0
  6
CONTINUOUS
 62
     7
100
AcDbLine
 10
3.3463211428
 20
4.1819066328
 30
0.0
 11
3.3856912215
 21
4.1819066328
 31
0.0
  0
LINE
  5
EE
330
1F
100
AcDbEntity
  8
0
  6
CONTINUOUS
 62
     7
100
AcDbLine
 10
3.3856912215
 20
4.3787570265
 30
0.0
 11
3.3463211428
 21
4.3787570265
 31
0.0
  0
LINE
  5
EF
330
1F
100
AcDbEntity
  8
0
  6
CONTINUOUS
 62
     7
100
AcDbLine
 10
3.2675809853
 20
4.1819066328
 30
0.0
 11
3.306951064
 21
4.1819066328
 31
0.0
  0
LINE
  5
F0
330
1F
100
AcDbEntity
  8
0
  6
CONTINUOUS
 62
     7
100
AcDbLine
 10
3.306951064
 20
4.3787570265
 30
0.0
 11
3.2675809853
 21
4.3787570265
 31
0.0
  0
LINE
  5
F1
330
1F
100
AcDbEntity
  8
0
  6
CONTINUOUS
 62
     7
100
AcDbLine
 10
3.2675809853
 20
3.1385995462
 30
0.0
 11
3.306951064
 21
3.1385995462
 31
0.0
  0
LINE
  5
F2
330
1F
100
AcDbEntity
  8
0
  6
CONTINUOUS
 62
     7
100
AcDbLine
 10
3.306951064
 20
3.3354499399
 30
0.0
 11
3.2675809853
 21
3.3354499399
 31
0.0
  0
LINE
  5
F3
330
1F
100
AcDbEntity
  8
0
  6
CONTINUOUS
 62
     7
100
AcDbLine
 10
3.3463211428
 20
3.1385995462
 30
0.0
 11
3.3856912215
 21
3.1385995462
 31
0.0
  0
LINE
  5
F4
330
1F
100
AcDbEntity
  8
0
  6
CONTINUOUS
 62
     7
100
AcDbLine
 10
3.3856912215
 20
3.3354499399
 30
0.0
 11
3.3463211428
 21
3.3354499399
 31
0.0
  0
LINE
  5
F5
330
1F
100
AcDbEntity
  8
0
  6
CONTINUOUS
 62
     7
100
AcDbLine
 10
3.3463211428
 20
4.4033633258
 30
0.0
 11
3.306951064
 21
4.4033633258
 31
0.0
  0
LINE
  5
F6
330
1F
100
AcDbEntity
  8
0
  6
CONTINUOUS
 62
     7
100
AcDbLine
 10
3.306951064
 20
3.113993247
 30
0.0
 11
3.3463211428
 21
3.113993247
 31
0.0
  0
LINE
  5
F7
330
1F
100
AcDbEntity
  8
0
  6
CONTINUOUS
 62
     7
100
AcDbLine
 10
3.5455140561
 20
3.0893869478
 30
0.0
 11
3.5455140561
 21
4.427969625
 31
0.0
  0
LINE
  5
F8
330
1F
100
AcDbEntity
  8
0
  6
CONTINUOUS
 62
     7
100
AcDbLine
 10
3.5553565758
 20
4.4181271053
 30
0.0
 11
3.5553565758
 21
3.0992294675
 31
0.0
  0
LINE
  5
F9
330
1F
100
AcDbEntity
  8
0
  6
CONTINUOUS
 62
     7
100
AcDbLine
 10
3.3856912215
 20
3.7586782864
 30
0.0
 11
3.3856912215
 21
4.427969625
 31
0.0
  0
LINE
  5
FA
330
1F
100
AcDbEntity
  8
0
  6
CONTINUOUS
 62
     7
100
AcDbLine
 10
3.3856912215
 20
3.0893869478
 30
0.0
 11
3.3856912215
 21
3.7586782864
 31
0.0
  0
SPLINE
  5
FB
330
1F
100
AcDbEntity
  8
0
  6
CONTINUOUS
 62
     7
100
AcDbSpline
210
0.0
220
0.0
230
1.0
 70
     8
 71
     3
 72
    70
 73
    66
 74
     0
 42
0.00000001
 43
0.00000001
 40
0.0
 40
0.0
 40
0.0
 40
0.0
 40
0.0312500000000002
 40
0.0312500000000002
 40
0.0625000000000004
 40
0.0625000000000004
 40
0.0937500000000007
 40
0.0937500000000007
 40
0.1250000000000009
 40
0.1250000000000009
 40
0.1562500000000011
 40
0.1562500000000011
 40
0.1875000000000013
 40
0.1875000000000013
 40
0.2500000000000016
 40
0.2500000000000016
 40
0.2812500000000016
 40
0.2812500000000016
 40
0.3125000000000017
 40
0.3125000000000017
 40
0.3437500000000017
 40
0.3437500000000017
 40
0.3750000000000018
 40
0.3750000000000018
 40
0.4062500000000018
 40
0.4062500000000018
 40
0.4375000000000019
 40
0.4375000000000019
 40
0.4531250000000019
 40
0.4531250000000019
 40
0.468750000000002
 40
0.468750000000002
 40
0.4843750000000021
 40
0.4843750000000021
 40
0.5000000000000021
 40
0.5000000000000021
 40
0.5312500000000019
 40
0.5312500000000019
 40
0.5468750000000019
 40
0.5468750000000019
 40
0.5625000000000019
 40
0.5625000000000019
 40
0.5937500000000017
 40
0.5937500000000017
 40
0.6250000000000014
 40
0.6250000000000014
 40
0.6562500000000012
 40
0.6562500000000012
 40
0.687500000000001
 40
0.687500000000001
 40
0.7187500000000008
 40
0.7187500000000008
 40
0.7500000000000006
 40
0.7500000000000006
 40
0.8125000000000004
 40
0.8125000000000004
 40
0.8437500000000004
 40
0.8437500000000004
 40
0.8750000000000004
 40
0.8750000000000004
 40
0.9375000000000002
 40
0.9375000000000002
 40
0.9687500000000001
 40
0.9687500000000001
 40
1.0
 40
1.0
 40
1.0
 40
1.0
 10
3.77404803013602
 20
3.989977498990473
 30
0.0
 10
3.779152643876261
 20
3.993974724767086
 30
0.0
 10
3.783719216112292
 20
3.998282862686025
 30
0.0
 10
3.79214347418021
 20
4.007247368961443
 30
0.0
 10
3.795994140535966
 20
4.011908636520031
 30
0.0
 10
3.803119876822042
 20
4.021466294582218
 30
0.0
 10
3.806400119124257
 20
4.026381194936898
 30
0.0
 10
3.812313435111707
 20
4.036175899543839
 30
0.0
 10
3.814965870278753
 20
4.041080688974881
 30
0.0
 10
3.819702558196777
 20
4.050877540415808
 30
0.0
 10
3.821786351710548
 20
4.055769825642149
 30
0.0
 10
3.825370998055342
 20
4.065528598185547
 30
0.0
 10
3.826877031594029
 20
4.070417039209961
 30
0.0
 10
3.83038933753949
 20
4.084884544474249
 30
0.0
 10
3.831394432722119
 20
4.094129721513529
 30
0.0
 10
3.830452951352323
 20
4.107392950123937
 30
0.0
 10
3.829712360096118
 20
4.111739663564712
 30
0.0
 10
3.827309104793904
 20
4.119995579277207
 30
0.0
 10
3.825651133657192
 20
4.123927709528171
 30
0.0
 10
3.821300046287984
 20
4.131408303179427
 30
0.0
 10
3.818571696566104
 20
4.134987722071514
 30
0.0
 10
3.812089245448038
 20
4.141547585683363
 30
0.0
 10
3.80834209264903
 20
4.144542770608203
 30
0.0
 10
3.799723555353447
 20
4.14999185286414
 30
0.0
 10
3.79482466880847
 20
4.152442373320461
 30
0.0
 10
3.784280847721417
 20
4.156603952847301
 30
0.0
 10
3.778588377042574
 20
4.158352116171941
 30
0.0
 10
3.769360517930122
 20
4.160495630871647
 30
0.0
 10
3.76618209932549
 20
4.161124958553295
 30
0.0
 10
3.759765324964891
 20
4.162194165118374
 30
0.0
 10
3.756507041329384
 20
4.162638902549634
 30
0.0
 10
3.749890746437967
 20
4.163355327789512
 30
0.0
 10
3.746532749068693
 20
4.163627033425422
 30
0.0
 10
3.739713558703345
 20
4.16399562213208
 30
0.0
 10
3.736248065990894
 20
4.164091027662443
 30
0.0
 10
3.725977860535858
 20
4.164106732208607
 30
0.0
 10
3.719204194336986
 20
4.163768024856193
 30
0.0
 10
3.709154054085894
 20
4.162716891170507
 30
0.0
 10
3.705828960093033
 20
4.16227396848316
 30
0.0
 10
3.699385104576222
 20
4.161222239116686
 30
0.0
 10
3.696244358810338
 20
4.160611406206473
 30
0.0
 10
3.687059576223283
 20
4.15851776858328
 30
0.0
 10
3.681194281106567
 20
4.156749448576915
 30
0.0
 10
3.670534021960625
 20
4.152589682871082
 30
0.0
 10
3.665698985143624
 20
4.150198745976454
 30
0.0
 10
3.656963432660646
 20
4.144738430056966
 30
0.0
 10
3.653159194042985
 20
4.141723006015647
 30
0.0
 10
3.646641197120334
 20
4.135188609894505
 30
0.0
 10
3.643893311806454
 20
4.131625126992421
 30
0.0
 10
3.639477350896438
 20
4.124111315208014
 30
0.0
 10
3.637799096235096
 20
4.120167629895713
 30
0.0
 10
3.635364878190615
 20
4.11190136959739
 30
0.0
 10
3.634612685028076
 20
4.107554273964113
 30
0.0
 10
3.633640035744295
 20
4.094280667493893
 30
0.0
 10
3.634631865747608
 20
4.085032715689738
 30
0.0
 10
3.638123702703876
 20
4.070567891259108
 30
0.0
 10
3.639627899392698
 20
4.065663642601081
 30
0.0
 10
3.643217556070651
 20
4.055866248343951
 30
0.0
 10
3.645308388934398
 20
4.050948902195906
 30
0.0
 10
3.652453114219854
 20
4.036161704890497
 30
0.0
 10
3.658422505742913
 20
4.026157608535527
 30
0.0
 10
3.669059651795489
 20
4.011897916145845
 30
0.0
 10
3.672896093365777
 20
4.007252950977331
 30
0.0
 10
3.681306616988498
 20
3.99830103471702
 30
0.0
 10
3.685872970431092
 20
3.993989012508619
 30
0.0
 10
3.690995830176393
 20
3.989977498990473
 30
0.0
  0
SPLINE
  5
FC
330
1F
100
AcDbEntity
  8
0
  6
CONTINUOUS
 62
     7
100
AcDbSpline
210
0.0
220
0.0
230
1.0
 70
     8
 71
     3
 72
    60
 73
    56
 74
     0
 42
0.00000001
 43
0.00000001
 40
-0.0312500000000002
 40
-0.0312500000000002
 40
0.0
 40
0.0
 40
0.0312499999999998
 40
0.0312499999999998
 40
0.0624999999999996
 40
0.0624999999999996
 40
0.0937499999999994
 40
0.0937499999999994
 40
0.1249999999999992
 40
0.1249999999999992
 40
0.1874999999999992
 40
0.1874999999999992
 40
0.2187499999999993
 40
0.2187499999999993
 40
0.2499999999999994
 40
0.2499999999999994
 40
0.3124999999999996
 40
0.3124999999999996
 40
0.3749999999999996
 40
0.3749999999999996
 40
0.4062499999999997
 40
0.4062499999999997
 40
0.4374999999999997
 40
0.4374999999999997
 40
0.4687499999999998
 40
0.4687499999999998
 40
0.4999999999999998
 40
0.4999999999999998
 40
0.5312499999999998
 40
0.5312499999999998
 40
0.5624999999999998
 40
0.5624999999999998
 40
0.5937499999999999
 40
0.5937499999999999
 40
0.6249999999999999
 40
0.6249999999999999
 40
0.6562499999999999
 40
0.6562499999999999
 40
0.6874999999999999
 40
0.6874999999999999
 40
0.7187499999999999
 40
0.7187499999999999
 40
0.7499999999999999
 40
0.7499999999999999
 40
0.78125
 40
0.78125
 40
0.8125
 40
0.8125
 40
0.8749999999999999
 40
0.8749999999999999
 40
0.9374999999999997
 40
0.9374999999999997
 40
0.9687499999999998
 40
0.9687499999999998
 40
1.0
 40
1.0
 40
1.03125
 40
1.03125
 10
3.727876037210669
 20
3.482848047853021
 30
0.0
 10
3.737167823101744
 20
3.482848047853021
 30
0.0
 10
3.741633011529695
 20
3.48214263654091
 30
0.0
 10
3.750257206219795
 20
3.47955253206543
 30
0.0
 10
3.754243199028525
 20
3.477716827356486
 30
0.0
 10
3.761570165000669
 20
3.473364261608062
 30
0.0
 10
3.764875124551613
 20
3.470869210175365
 30
0.0
 10
3.770816507706139
 20
3.465566690505124
 30
0.0
 10
3.773492920180655
 20
3.462721847711016
 30
0.0
 10
3.780670476905456
 20
3.453888681328824
 30
0.0
 10
3.784254813397108
 20
3.447757892506071
 30
0.0
 10
3.788169982731867
 20
3.438381848072295
 30
0.0
 10
3.789219395858874
 20
3.435218478245909
 30
0.0
 10
3.790753875074069
 20
3.428998391238208
 30
0.0
 10
3.791248886630047
 20
3.425920835276021
 30
0.0
 10
3.791884004161541
 20
3.416788405996547
 30
0.0
 10
3.791153235022006
 20
3.410776192932846
 30
0.0
 10
3.786994098501087
 20
3.399706944518416
 30
0.0
 10
3.783493572038616
 20
3.394499845944532
 30
0.0
 10
3.775988489730418
 20
3.387862511401187
 30
0.0
 10
3.773063516422232
 20
3.385803983288408
 30
0.0
 10
3.76653045872228
 20
3.382197382322392
 30
0.0
 10
3.76293973741826
 20
3.380644882592331
 30
0.0
 10
3.755024945279085
 20
3.37805996025639
 30
0.0
 10
3.750810909700854
 20
3.377068953883166
 30
0.0
 10
3.742053187564323
 20
3.375722041144962
 30
0.0
 10
3.737413243760381
 20
3.375362483162693
 30
0.0
 10
3.728279917949043
 20
3.37533092574913
 30
0.0
 10
3.723676313978351
 20
3.375652039868054
 30
0.0
 10
3.714805622478464
 20
3.376950132986305
 30
0.0
 10
3.710594909614793
 20
3.377909004496962
 30
0.0
 10
3.702601288728568
 20
3.380450039417184
 30
0.0
 10
3.698964399067885
 20
3.381987493736384
 30
0.0
 10
3.69235827742849
 20
3.385560890328964
 30
0.0
 10
3.689401816716027
 20
3.387600890771067
 30
0.0
 10
3.684318213767007
 20
3.392012297993956
 30
0.0
 10
3.68214010865578
 20
3.3944252343659
 30
0.0
 10
3.678557400033551
 20
3.399511535709349
 30
0.0
 10
3.677149685533714
 20
3.402175237831436
 30
0.0
 10
3.67500643754452
 20
3.407740779925113
 30
0.0
 10
3.674276008819163
 20
3.410649441862352
 30
0.0
 10
3.673461650951134
 20
3.416547056172876
 30
0.0
 10
3.673368792392826
 20
3.41955543634425
 30
0.0
 10
3.673763845925858
 20
3.425691747419967
 30
0.0
 10
3.674257237772258
 20
3.428826828254114
 30
0.0
 10
3.675777302569157
 20
3.435064148425554
 30
0.0
 10
3.676803671532547
 20
3.438185004603329
 30
0.0
 10
3.680676371323051
 20
3.44754277080247
 30
0.0
 10
3.684338468349108
 20
3.453824505320119
 30
0.0
 10
3.693810125312855
 20
3.465522981631361
 30
0.0
 10
3.699733095496692
 20
3.471120843259367
 30
0.0
 10
3.710676129931672
 20
3.477653275511167
 30
0.0
 10
3.714700694739829
 20
3.47951514290653
 30
0.0
 10
3.723265768252707
 20
3.482110329509078
 30
0.0
 10
3.727876037210669
 20
3.482848047853021
 30
0.0
 10
3.737167823101744
 20
3.482848047853021
 30
0.0
  0
LINE
  5
FD
330
1F
100
AcDbEntity
  8
0
  6
CONTINUOUS
 62
     7
100
AcDbLine
 10
3.6078500141
 20
3.7488357667
 30
0.0
 11
3.6078500141
 21
3.3059223809
 31
0.0
  0
LINE
  5
FE
330
1F
100
AcDbEntity
  8
0
  6
CONTINUOUS
 62
     7
100
AcDbLine
 10
3.8506321664
 20
3.7488357667
 30
0.0
 11
3.6078500141
 21
3.7488357667
 31
0.0
  0
LINE
  5
FF
330
1F
100
AcDbEntity
  8
0
  6
CONTINUOUS
 62
     7
100
AcDbLine
 10
3.8506321664
 20
3.7685208061
 30
0.0
 11
3.8506321664
 21
4.2114341919
 31
0.0
  0
LINE
  5
100
330
1F
100
AcDbEntity
  8
0
  6
CONTINUOUS
 62
     7
100
AcDbLine
 10
3.8506321664
 20
3.3059223809
 30
0.0
 11
3.8506321664
 21
3.7488357667
 31
0.0
  0
LINE
  5
101
330
1F
100
AcDbEntity
  8
0
  6
CONTINUOUS
 62
     7
100
AcDbLine
 10
3.8506321664
 20
3.7685208061
 30
0.0
 11
3.6078500141
 21
3.7685208061
 31
0.0
  0
LINE
  5
102
330
1F
100
AcDbEntity
  8
0
  6
CONTINUOUS
 62
     7
100
AcDbLine
 10
3.6078500141
 20
4.2114341919
 30
0.0
 11
3.6078500141
 21
3.7685208061
 31
0.0
  0
LINE
  5
103
330
1F
100
AcDbEntity
  8
0
  6
CONTINUOUS
 62
     7
100
AcDbLine
 10
3.581603295
 20
4.1521867901
 30
0.0
 11
3.6078500141
 21
4.1521867901
 31
0.0
  0
LINE
  5
104
330
1F
100
AcDbEntity
  8
0
  6
CONTINUOUS
 62
     7
100
AcDbLine
 10
3.581603295
 20
3.3059223809
 30
0.0
 11
3.581603295
 21
4.2114341919
 31
0.0
  0
LINE
  5
105
330
1F
100
AcDbEntity
  8
0
  6
CONTINUOUS
 62
     7
100
AcDbLine
 10
3.6078500141
 20
3.3651697827
 30
0.0
 11
3.581603295
 21
3.3651697827
 31
0.0
  0
LINE
  5
106
330
1F
100
AcDbEntity
  8
0
  6
CONTINUOUS
 62
     7
100
AcDbLine
 10
3.8581321664
 20
3.7488357667
 30
0.0
 11
3.8581321664
 21
3.3134223809
 31
0.0
  0
LINE
  5
107
330
1F
100
AcDbEntity
  8
0
  6
CONTINUOUS
 62
     7
100
AcDbLine
 10
3.8581321664
 20
4.2039341919
 30
0.0
 11
3.8581321664
 21
3.7685208061
 31
0.0
  0
LINE
  5
108
330
1F
100
AcDbEntity
  8
0
  6
CONTINUOUS
 62
     7
100
AcDbLine
 10
3.8506321664
 20
3.7685208061
 30
0.0
 11
3.8581321664
 21
3.7685208061
 31
0.0
  0
LINE
  5
109
330
1F
100
AcDbEntity
  8
0
  6
CONTINUOUS
 62
     7
100
AcDbLine
 10
3.8506321664
 20
3.7488357667
 30
0.0
 11
3.8581321664
 21
3.7488357667
 31
0.0
  0
LINE
  5
10A
330
1F
100
AcDbEntity
  8
0
  6
CONTINUOUS
 62
     7
100
AcDbLine
 10
3.8581321664
 20
3.7685208061
 30
0.0
 11
3.8581321664
 21
3.7488357667
 31
0.0
  0
LINE
  5
10B
330
1F
100
AcDbEntity
  8
0
  6
CONTINUOUS
 62
     7
100
AcDbLine
 10
3.6078500141
 20
3.7488357667
 30
0.0
 11
3.6078500141
 21
3.7685208061
 31
0.0
  0
LINE
  5
10C
330
1F
100
AcDbEntity
  8
0
  6
CONTINUOUS
 62
     7
100
AcDbLine
 10
3.7325219302
 20
3.989977499
 30
0.0
 11
3.7742404123
 21
3.989977499
 31
0.0
  0
LINE
  5
10D
330
1F
100
AcDbEntity
  8
0
  6
CONTINUOUS
 62
     7
100
AcDbLine
 10
3.6907774595
 20
3.989977499
 30
0.0
 11
3.7325219302
 21
3.989977499
 31
0.0
  0
LINE
  5
10E
330
1F
100
AcDbEntity
  8
0
  6
CONTINUOUS
 62
     7
100
AcDbLine
 10
3.7325219302
 20
4.1080877352
 30
0.0
 11
3.8211046073
 21
4.1080877352
 31
0.0
  0
LINE
  5
10F
330
1F
100
AcDbEntity
  8
0
  6
CONTINUOUS
 62
     7
100
AcDbLine
 10
3.643939253
 20
4.1080877352
 30
0.0
 11
3.7325219302
 21
4.1080877352
 31
0.0
  0
LINE
  5
110
330
1F
100
AcDbEntity
  8
0
  6
CONTINUOUS
 62
     7
100
AcDbLine
 10
3.7771264036
 20
3.458481436
 30
0.0
 11
3.6875318071
 21
3.458481436
 31
0.0
  0
CIRCLE
  5
111
330
1F
100
AcDbEntity
  8
0
  6
CONTINUOUS
 62
     7
100
AcDbCircle
 10
2.9207502766
 20
4.0586574138
 30
0.0
 40
0.0492125984251972
  0
ARC
  5
112
330
1F
100
AcDbEntity
  8
0
  6
CONTINUOUS
 62
     7
100
AcDbCircle
 10
2.9207502766
 20
4.0586574138
 30
0.0
 40
0.0590551181102366
100
AcDbArc
 50
53.4064007033
 51
126.5935992967
  0
LINE
  5
113
330
1F
100
AcDbEntity
  8
0
  6
CONTINUOUS
 62
     7
100
AcDbLine
 10
3.1077581506
 20
3.0893869478
 30
0.0
 11
3.1077581506
 21
4.427969625
 31
0.0
  0
LINE
  5
114
330
1F
100
AcDbEntity
  8
0
  6
CONTINUOUS
 62
     7
100
AcDbLine
 10
3.0979156309
 20
4.4181271053
 30
0.0
 11
3.0979156309
 21
3.0992294675
 31
0.0
  0
LINE
  5
115
330
1F
100
AcDbEntity
  8
0
  6
CONTINUOUS
 62
     7
100
AcDbLine
 10
3.2675809853
 20
3.0893869478
 30
0.0
 11
3.2675809853
 21
4.427969625
 31
0.0
  0
LINE
  5
116
330
1F
100
AcDbEntity
  8
0
  6
CONTINUOUS
 62
     7
100
AcDbLine
 10
3.3463211428
 20
3.8456746916
 30
0.0
 11
3.306951064
 21
3.8456746916
 31
0.0
  0
LINE
  5
117
330
1F
100
AcDbEntity
  8
0
  6
CONTINUOUS
 62
     7
100
AcDbLine
 10
3.3463211428
 20
3.8456746916
 30
0.0
 11
3.3463211428
 21
3.6716818812
 31
0.0
  0
LINE
  5
118
330
1F
100
AcDbEntity
  8
0
  6
CONTINUOUS
 62
     7
100
AcDbLine
 10
3.3463211428
 20
3.6716818812
 30
0.0
 11
3.306951064
 21
3.6716818812
 31
0.0
  0
LINE
  5
119
330
1F
100
AcDbEntity
  8
0
  6
CONTINUOUS
 62
     7
100
AcDbLine
 10
3.306951064
 20
3.8456746916
 30
0.0
 11
3.306951064
 21
3.6716818812
 31
0.0
  0
LINE
  5
11A
330
1F
100
AcDbEntity
  8
0
  6
CONTINUOUS
 62
     7
100
AcDbLine
 10
3.3463211428
 20
4.3673282349
 30
0.0
 11
3.306951064
 21
4.3673282349
 31
0.0
  0
LINE
  5
11B
330
1F
100
AcDbEntity
  8
0
  6
CONTINUOUS
 62
     7
100
AcDbLine
 10
3.3463211428
 20
4.3673282349
 30
0.0
 11
3.3463211428
 21
3.8456746916
 31
0.0
  0
LINE
  5
11C
330
1F
100
AcDbEntity
  8
0
  6
CONTINUOUS
 62
     7
100
AcDbLine
 10
3.306951064
 20
4.3673282349
 30
0.0
 11
3.306951064
 21
3.8456746916
 31
0.0
  0
LINE
  5
11D
330
1F
100
AcDbEntity
  8
0
  6
CONTINUOUS
 62
     7
100
AcDbLine
 10
3.3463211428
 20
3.1500283379
 30
0.0
 11
3.306951064
 21
3.1500283379
 31
0.0
  0
LINE
  5
11E
330
1F
100
AcDbEntity
  8
0
  6
CONTINUOUS
 62
     7
100
AcDbLine
 10
3.3463211428
 20
3.6716818812
 30
0.0
 11
3.3463211428
 21
3.1500283379
 31
0.0
  0
LINE
  5
11F
330
1F
100
AcDbEntity
  8
0
  6
CONTINUOUS
 62
     7
100
AcDbLine
 10
3.306951064
 20
3.6716818812
 30
0.0
 11
3.306951064
 21
3.1500283379
 31
0.0
  0
SPLINE
  5
120
330
1F
100
AcDbEntity
  8
0
  6
CONTINUOUS
 62
     7
100
AcDbSpline
210
0.0
220
0.0
230
1.0
 70
     8
 71
     3
 72
    60
 73
    56
 74
     0
 42
0.00000001
 43
0.00000001
 40
-0.0312500000000002
 40
-0.0312500000000002
 40
0.0
 40
0.0
 40
0.0312499999999999
 40
0.0312499999999999
 40
0.0624999999999998
 40
0.0624999999999998
 40
0.0937499999999998
 40
0.0937499999999998
 40
0.1249999999999997
 40
0.1249999999999997
 40
0.1874999999999998
 40
0.1874999999999998
 40
0.2187499999999998
 40
0.2187499999999998
 40
0.2499999999999998
 40
0.2499999999999998
 40
0.3124999999999997
 40
0.3124999999999997
 40
0.3749999999999996
 40
0.3749999999999996
 40
0.4062499999999996
 40
0.4062499999999996
 40
0.4374999999999995
 40
0.4374999999999995
 40
0.4687499999999994
 40
0.4687499999999994
 40
0.4999999999999993
 40
0.4999999999999993
 40
0.5312499999999992
 40
0.5312499999999992
 40
0.5624999999999992
 40
0.5624999999999992
 40
0.5937499999999991
 40
0.5937499999999991
 40
0.624999999999999
 40
0.624999999999999
 40
0.656249999999999
 40
0.656249999999999
 40
0.6874999999999989
 40
0.6874999999999989
 40
0.7187499999999988
 40
0.7187499999999988
 40
0.7499999999999987
 40
0.7499999999999987
 40
0.7812499999999987
 40
0.7812499999999987
 40
0.8124999999999986
 40
0.8124999999999986
 40
0.874999999999999
 40
0.874999999999999
 40
0.9374999999999994
 40
0.9374999999999994
 40
0.9687499999999998
 40
0.9687499999999998
 40
1.0
 40
1.0
 40
1.03125
 40
1.03125
 10
2.925396169558437
 20
4.117712531949939
 30
0.0
 10
2.916104383667361
 20
4.117712531949939
 30
0.0
 10
2.911639195239411
 20
4.117173243819686
 30
0.0
 10
2.90301500054931
 20
4.115160282306611
 30
0.0
 10
2.899029007740581
 20
4.113722433754973
 30
0.0
 10
2.891702041768436
 20
4.110234249649139
 30
0.0
 10
2.888397082217492
 20
4.108200519312749
 30
0.0
 10
2.882455699062966
 20
4.103765881091124
 30
0.0
 10
2.87977928658845
 20
4.101334182753378
 30
0.0
 10
2.872601729863649
 20
4.093570320262253
 30
0.0
 10
2.869017393371998
 20
4.08790942319595
 30
0.0
 10
2.865102224037238
 20
4.078705288808088
 30
0.0
 10
2.864052810910231
 20
4.075509194541451
 30
0.0
 10
2.862518331695036
 20
4.069031695550164
 30
0.0
 10
2.862023320139058
 20
4.065730376321973
 30
0.0
 10
2.861388202607563
 20
4.055632169293027
 30
0.0
 10
2.862118971747099
 20
4.048558372587956
 30
0.0
 10
2.866278108268018
 20
4.034732459915446
 30
0.0
 10
2.869778634730488
 20
4.027788005497294
 30
0.0
 10
2.877283717038686
 20
4.018482227568303
 30
0.0
 10
2.880208690346874
 20
4.015510882046217
 30
0.0
 10
2.886741748046825
 20
4.010194403124907
 30
0.0
 10
2.890332469350845
 20
4.007845418884626
 30
0.0
 10
2.89824726149002
 20
4.003878621042438
 30
0.0
 10
2.902461297068252
 20
4.002325176732288
 30
0.0
 10
2.911219019204781
 20
4.000202620686953
 30
0.0
 10
2.915858963008724
 20
3.999628293343066
 30
0.0
 10
2.924992288820063
 20
3.999578082870106
 30
0.0
 10
2.929595892790754
 20
4.000091363205464
 30
0.0
 10
2.938466584290641
 20
4.002138747412356
 30
0.0
 10
2.942677297154312
 20
4.003643776276893
 30
0.0
 10
2.950670918040537
 20
4.007549197628662
 30
0.0
 10
2.95430780770122
 20
4.00987962477946
 30
0.0
 10
2.960913929340615
 20
4.015157280530521
 30
0.0
 10
2.963870390053077
 20
4.018108327817435
 30
0.0
 10
2.968953993002097
 20
4.024306660040042
 30
0.0
 10
2.971132098113324
 20
4.027612298518653
 30
0.0
 10
2.974714806735554
 20
4.034368391388415
 30
0.0
 10
2.976122521235391
 20
4.037807935524922
 30
0.0
 10
2.978265769224585
 20
4.044773814516523
 30
0.0
 10
2.978996197949943
 20
4.04830663783804
 30
0.0
 10
2.979810555817971
 20
4.055250166203191
 30
0.0
 10
2.97990341437628
 20
4.058685894055958
 30
0.0
 10
2.979508360843247
 20
4.065482518670806
 30
0.0
 10
2.979014968996847
 20
4.068849563678487
 30
0.0
 10
2.977494904199948
 20
4.075351770279513
 30
0.0
 10
2.976468535236557
 20
4.07850807845402
 30
0.0
 10
2.972595835446054
 20
4.0877058221087
 30
0.0
 10
2.968933738419997
 20
4.09351072171469
 30
0.0
 10
2.95946208145625
 20
4.103799359160158
 30
0.0
 10
2.953539111272412
 20
4.108435033929784
 30
0.0
 10
2.942596076837434
 20
4.11367214849189
 30
0.0
 10
2.938571512029276
 20
4.11513101879213
 30
0.0
 10
2.930006438516399
 20
4.117148335826837
 30
0.0
 10
2.925396169558437
 20
4.117712531949939
 30
0.0
 10
2.916104383667361
 20
4.117712531949939
 30
0.0
  0
LINE
  5
121
330
1F
100
AcDbEntity
  8
0
  6
CONTINUOUS
 62
     7
100
AcDbLine
 10
2.8026400404
 20
3.3059223809
 30
0.0
 11
2.8026400404
 21
4.2113271954
 31
0.0
  0
LINE
  5
122
330
1F
100
AcDbEntity
  8
0
  6
CONTINUOUS
 62
     7
100
AcDbLine
 10
2.8026400404
 20
4.2113271954
 30
0.0
 11
3.0454221926
 21
4.2113271954
 31
0.0
  0
LINE
  5
123
330
1F
100
AcDbEntity
  8
0
  6
CONTINUOUS
 62
     7
100
AcDbLine
 10
3.0454221926
 20
4.2113271954
 30
0.0
 11
3.0454221926
 21
3.5347609636
 31
0.0
  0
LINE
  5
124
330
1F
100
AcDbEntity
  8
0
  6
CONTINUOUS
 62
     7
100
AcDbLine
 10
3.0454221926
 20
3.5347609636
 30
0.0
 11
3.0716689118
 21
3.5347609636
 31
0.0
  0
LINE
  5
125
330
1F
100
AcDbEntity
  8
0
  6
CONTINUOUS
 62
     7
100
AcDbLine
 10
3.0716689118
 20
3.5347609636
 30
0.0
 11
3.0716689118
 21
4.2114341919
 31
0.0
  0
LINE
  5
126
330
1F
100
AcDbEntity
  8
0
  6
CONTINUOUS
 62
     7
100
AcDbLine
 10
2.7951400404
 20
4.2038253926
 30
0.0
 11
2.7951400404
 21
3.3134223809
 31
0.0
  0
LINE
  5
127
330
1F
100
AcDbEntity
  8
0
  6
CONTINUOUS
 62
     7
100
AcDbLine
 10
2.8026400404
 20
4.2113271954
 30
0.0
 11
2.7951400404
 21
4.2038253926
 31
0.0
  0
LINE
  5
128
330
1F
100
AcDbEntity
  8
0
  6
CONTINUOUS
 62
     7
100
AcDbLine
 10
3.3463211428
 20
4.4033633258
 30
0.0
 11
3.3463211428
 21
4.3673282349
 31
0.0
  0
LINE
  5
129
330
1F
100
AcDbEntity
  8
0
  6
CONTINUOUS
 62
     7
100
AcDbLine
 10
3.306951064
 20
4.4033633258
 30
0.0
 11
3.306951064
 21
4.3673282349
 31
0.0
  0
LINE
  5
12A
330
1F
100
AcDbEntity
  8
0
  6
CONTINUOUS
 62
     7
100
AcDbLine
 10
3.3463211428
 20
3.1500283379
 30
0.0
 11
3.3463211428
 21
3.113993247
 31
0.0
  0
LINE
  5
12B
330
1F
100
AcDbEntity
  8
0
  6
CONTINUOUS
 62
     7
100
AcDbLine
 10
3.306951064
 20
3.1500283379
 30
0.0
 11
3.306951064
 21
3.113993247
 31
0.0
  0
LINE
  5
12C
330
1F
100
AcDbEntity
  8
0
  6
CONTINUOUS
 62
     8
100
AcDbLine
 10
3.7325219302
 20
4.0982452155
 30
0.0
 11
3.6340967333
 21
4.0982452155
 31
0.0
  0
LINE
  5
12D
330
1F
100
AcDbEntity
  8
0
  6
CONTINUOUS
 62
     8
100
AcDbLine
 10
3.830947127
 20
4.0982452155
 30
0.0
 11
3.7325219302
 21
4.0982452155
 31
0.0
  0
LINE
  5
12E
330
1F
100
AcDbEntity
  8
0
  6
CONTINUOUS
 62
     8
100
AcDbLine
 10
3.6971704011
 20
3.4683239557
 30
0.0
 11
3.7678072079
 21
3.4683239557
 31
0.0
  0
LINE
  5
12F
330
1F
100
AcDbEntity
  8
0
  6
HIDDEN
 62
     7
100
AcDbLine
 10
3.8506321664
 20
3.7685208061
 30
0.0
 11
3.8506321664
 21
3.7488357667
 31
0.0
  0
LINE
  5
130
330
1F
100
AcDbEntity
  8
0
  6
HIDDEN
 62
     7
100
AcDbLine
 10
3.7740480301
 20
3.989977499
 30
0.0
 11
3.830947127
 21
3.989977499
 31
0.0
  0
LINE
  5
131
330
1F
100
AcDbEntity
  8
0
  6
HIDDEN
 62
     7
100
AcDbLine
 10
3.6340967333
 20
3.989977499
 30
0.0
 11
3.6909958302
 21
3.989977499
 31
0.0
  0
LINE
  5
132
330
1F
100
AcDbEntity
  8
0
  6
HIDDEN
 62
     7
100
AcDbLine
 10
3.7742404123
 20
3.989977499
 30
0.0
 11
3.830947127
 21
3.989977499
 31
0.0
  0
LINE
  5
133
330
1F
100
AcDbEntity
  8
0
  6
HIDDEN
 62
     7
100
AcDbLine
 10
3.6340967333
 20
3.989977499
 30
0.0
 11
3.6907774595
 21
3.989977499
 31
0.0
  0
LINE
  5
134
330
1F
100
AcDbEntity
  8
0
  6
HIDDEN
 62
     7
100
AcDbLine
 10
3.7817345286
 20
3.458481436
 30
0.0
 11
3.7771264036
 21
3.458481436
 31
0.0
  0
LINE
  5
135
330
1F
100
AcDbEntity
  8
0
  6
HIDDEN
 62
     7
100
AcDbLine
 10
3.6875318071
 20
3.458481436
 30
0.0
 11
3.6833093317
 21
3.458481436
 31
0.0
  0
LINE
  5
136
330
1F
100
AcDbEntity
  8
0
  6
HIDDEN
 62
     7
100
AcDbLine
 10
3.6833093317
 20
4.0293475777
 30
0.0
 11
3.7325219302
 21
4.0293475777
 31
0.0
  0
LINE
  5
137
330
1F
100
AcDbEntity
  8
0
  6
HIDDEN
 62
     7
100
AcDbLine
 10
3.7325219302
 20
4.0293475777
 30
0.0
 11
3.7325219302
 21
4.1080877352
 31
0.0
  0
LINE
  5
138
330
1F
100
AcDbEntity
  8
0
  6
HIDDEN
 62
     7
100
AcDbLine
 10
3.7325219302
 20
4.0293475777
 30
0.0
 11
3.7817345286
 21
4.0293475777
 31
0.0
  0
LINE
  5
139
330
1F
100
AcDbEntity
  8
0
  6
HIDDEN
 62
     7
100
AcDbLine
 10
3.6833093317
 20
4.0293475777
 30
0.0
 11
3.6833093317
 21
4.1080877352
 31
0.0
  0
LINE
  5
13A
330
1F
100
AcDbEntity
  8
0
  6
HIDDEN
 62
     7
100
AcDbLine
 10
3.7817345286
 20
4.0293475777
 30
0.0
 11
3.7817345286
 21
4.1080877352
 31
0.0
  0
ARC
  5
13B
330
1F
100
AcDbEntity
  8
0
  6
HIDDEN
 62
     7
100
AcDbCircle
 10
2.9207502766
 20
4.0586574138
 30
0.0
 40
0.0590551181102366
100
AcDbArc
 50
0.0
 51
53.4064007033
  0
ARC
  5
13C
330
1F
100
AcDbEntity
  8
0
  6
HIDDEN
 62
     7
100
AcDbCircle
 10
2.9207502766
 20
4.0586574138
 30
0.0
 40
0.0590551181102361
100
AcDbArc
 50
126.5935992967
 51
270.0
  0
CIRCLE
  5
13D
330
1F
100
AcDbEntity
  8
0
  6
HIDDEN
 62
     7
100
AcDbCircle
 10
2.9207502766
 20
4.0586574138
 30
0.0
 40
0.0984251968503944
  0
LINE
  5
13E
330
1F
100
AcDbEntity
  8
0
  6
HIDDEN
 62
     7
100
AcDbLine
 10
2.9207502766
 20
4.0018315999
 30
0.0
 11
2.969962875
 21
4.0302445069
 31
0.0
  0
LINE
  5
13F
330
1F
100
AcDbEntity
  8
0
  6
HIDDEN
 62
     7
100
AcDbLine
 10
2.8715376782
 20
4.0302445069
 30
0.0
 11
2.9207502766
 21
4.0018315999
 31
0.0
  0
LINE
  5
140
330
1F
100
AcDbEntity
  8
0
  6
HIDDEN
 62
     7
100
AcDbLine
 10
2.969962875
 20
4.0302445069
 30
0.0
 11
2.969962875
 21
4.0870703208
 31
0.0
  0
LINE
  5
141
330
1F
100
AcDbEntity
  8
0
  6
HIDDEN
 62
     7
100
AcDbLine
 10
2.8715376782
 20
4.0870703208
 30
0.0
 11
2.8715376782
 21
4.0302445069
 31
0.0
  0
LINE
  5
142
330
1F
100
AcDbEntity
  8
0
  6
HIDDEN
 62
     7
100
AcDbLine
 10
2.9207502766
 20
4.1154832277
 30
0.0
 11
2.8715376782
 21
4.0870703208
 31
0.0
  0
LINE
  5
143
330
1F
100
AcDbEntity
  8
0
  6
HIDDEN
 62
     7
100
AcDbLine
 10
2.969962875
 20
4.0870703208
 30
0.0
 11
2.9207502766
 21
4.1154832277
 31
0.0
  0
CIRCLE
  5
144
330
1F
100
AcDbEntity
  8
0
  6
HIDDEN
 62
     7
100
AcDbCircle
 10
2.9207502766
 20
4.0586574138
 30
0.0
 40
0.0885826771653546
  0
LINE
  5
145
330
1F
100
AcDbEntity
  8
0
  6
HIDDEN
 62
     7
100
AcDbLine
 10
2.9622763766
 20
4.1478936307
 30
0.0
 11
2.8792241766
 21
4.1478936307
 31
0.0
  0
LINE
  5
146
330
1F
100
AcDbEntity
  8
0
  6
HIDDEN
 62
     7
100
AcDbLine
 10
3.3463211428
 20
4.3673282349
 30
0.0
 11
3.306951064
 21
4.3673282349
 31
0.0
  0
LINE
  5
147
330
1F
100
AcDbEntity
  8
0
  6
HIDDEN
 62
     7
100
AcDbLine
 10
3.3463211428
 20
3.1500283379
 30
0.0
 11
3.306951064
 21
3.1500283379
 31
0.0
  0
ARC
  5
148
330
1F
100
AcDbEntity
  8
0
  6
HIDDEN
 62
     7
100
AcDbCircle
 10
2.7951400404
 20
3.6110404911
 30
0.0
 40
0.2502821522309708
100
AcDbArc
 50
270.0
 51
0.0
  0
LINE
  5
149
330
1F
100
AcDbEntity
  8
0
  6
HIDDEN
 62
     7
100
AcDbLine
 10
2.8026400404
 20
3.6113689405
 30
0.0
 11
3.0454221926
 21
3.6113689405
 31
0.0
  0
LINE
  5
14A
330
1F
100
AcDbEntity
  8
0
  6
HIDDEN
 62
     7
100
AcDbLine
 10
2.8026400404
 20
3.6113689405
 30
0.0
 11
2.7951400404
 21
3.603853029
 31
0.0
  0
LINE
  5
14B
330
1F
100
AcDbEntity
  8
0
  6
HIDDEN
 62
     7
100
AcDbLine
 10
3.0454221926
 20
3.9059876323
 30
0.0
 11
2.8026400404
 21
3.9059876323
 31
0.0
  0
LINE
  5
14C
330
1F
100
AcDbEntity
  8
0
  6
HIDDEN
 62
     7
100
AcDbLine
 10
2.7951400404
 20
3.9135035438
 30
0.0
 11
2.8026400404
 21
3.9059876323
 31
0.0
  0
ARC
  5
14D
330
1F
100
AcDbEntity
  8
0
  6
HIDDEN
 62
     7
100
AcDbCircle
 10
2.9207502766
 20
4.0586574138
 30
0.0
 40
0.0984251968503944
100
AcDbArc
 50
114.9549277545
 51
65.0450722455
  0
LINE
  5
14E
330
1F
100
AcDbEntity
  8
0
  6
HIDDEN
 62
     7
100
AcDbLine
 10
3.3463211428
 20
3.6716818812
 30
0.0
 11
3.306951064
 21
3.6716818812
 31
0.0
  0
LINE
  5
14F
330
1F
100
AcDbEntity
  8
0
  6
HIDDEN
 62
     7
100
AcDbLine
 10
3.3463211428
 20
3.8456746916
 30
0.0
 11
3.306951064
 21
3.8456746916
 31
0.0
  0
LINE
  5
150
330
1F
100
AcDbEntity
  8
0
  6
HIDDEN
 62
     7
100
AcDbLine
 10
3.830947127
 20
3.989977499
 30
0.0
 11
3.830947127
 21
4.0975288162
 31
0.0
  0
LINE
  5
151
330
1F
100
AcDbEntity
  8
0
  6
HIDDEN
 62
     7
100
AcDbLine
 10
3.6340967333
 20
4.097512905
 30
0.0
 11
3.6340967333
 21
3.989977499
 31
0.0
  0
LINE
  5
152
330
1F
100
AcDbEntity
  8
0
  6
HIDDEN
 62
     7
100
AcDbLine
 10
3.673466812
 20
3.7488357667
 30
0.0
 11
3.673466812
 21
3.4196126966
 31
0.0
  0
LINE
  5
153
330
1F
100
AcDbEntity
  8
0
  6
HIDDEN
 62
     7
100
AcDbLine
 10
3.7915770483
 20
3.4196721668
 30
0.0
 11
3.7915770483
 21
3.7488357667
 31
0.0
  0
LINE
  5
154
330
1F
100
AcDbEntity
  8
0
  6
HIDDEN
 62
     7
100
AcDbLine
 10
3.673466812
 20
3.989977499
 30
0.0
 11
3.673466812
 21
3.7685208061
 31
0.0
  0
LINE
  5
155
330
1F
100
AcDbEntity
  8
0
  6
HIDDEN
 62
     7
100
AcDbLine
 10
3.7915770483
 20
3.7685208061
 30
0.0
 11
3.7915770483
 21
3.989977499
 31
0.0
  0
LINE
  5
156
330
1F
100
AcDbEntity
  8
0
  6
HIDDEN
 62
     7
100
AcDbLine
 10
3.8581321664
 20
3.9138160817
 30
0.0
 11
3.8506321664
 21
3.9063160817
 31
0.0
  0
LINE
  5
157
330
1F
100
AcDbEntity
  8
0
  6
HIDDEN
 62
     7
100
AcDbLine
 10
3.8506321664
 20
3.6110404911
 30
0.0
 11
3.8581321664
 21
3.6035404911
 31
0.0
  0
LINE
  5
158
330
1F
100
AcDbEntity
  8
0
  6
HIDDEN
 62
     7
100
AcDbLine
 10
3.581603295
 20
3.9063160817
 30
0.0
 11
3.3856912215
 21
3.9063160817
 31
0.0
  0
LINE
  5
159
330
1F
100
AcDbEntity
  8
0
  6
HIDDEN
 62
     7
100
AcDbLine
 10
3.3856912215
 20
3.6110404911
 30
0.0
 11
3.581603295
 21
3.6110404911
 31
0.0
  0
LINE
  5
15A
330
1F
100
AcDbEntity
  8
0
  6
HIDDEN
 62
     7
100
AcDbLine
 10
3.6078500141
 20
3.6110404911
 30
0.0
 11
3.8506321664
 21
3.6110404911
 31
0.0
  0
LINE
  5
15B
330
1F
100
AcDbEntity
  8
0
  6
HIDDEN
 62
     7
100
AcDbLine
 10
3.8506321664
 20
3.9063160817
 30
0.0
 11
3.6078500141
 21
3.9063160817
 31
0.0
  0
LINE
  5
15C
330
1F
100
AcDbEntity
  8
0
  6
HIDDEN
 62
     7
100
AcDbLine
 10
3.830947127
 20
3.989977499
 30
0.0
 11
3.830947127
 21
4.0947121515
 31
0.0
  0
LINE
  5
15D
330
1F
100
AcDbEntity
  8
0
  6
HIDDEN
 62
     7
100
AcDbLine
 10
3.6340967333
 20
4.0944358037
 30
0.0
 11
3.6340967333
 21
3.989977499
 31
0.0
  0
ARC
  5
15E
330
1F
100
AcDbEntity
  8
0
  6
HIDDEN
 62
     7
100
AcDbCircle
 10
3.7817345286
 20
3.4683239557
 30
0.0
 40
0.0098425196850398
100
AcDbArc
 50
270.0
 51
0.0
  0
ARC
  5
15F
330
1F
100
AcDbEntity
  8
0
  6
HIDDEN
 62
     7
100
AcDbCircle
 10
3.6833093317
 20
3.4683239557
 30
0.0
 40
0.0098425196850394
100
AcDbArc
 50
180.0
 51
270.0
  0
LINE
  5
160
330
1F
100
AcDbEntity
  8
0
  6
HIDDEN
 62
     7
100
AcDbLine
 10
3.673466812
 20
3.989977499
 30
0.0
 11
3.673466812
 21
3.7685208061
 31
0.0
  0
LINE
  5
161
330
1F
100
AcDbEntity
  8
0
  6
HIDDEN
 62
     7
100
AcDbLine
 10
3.673466812
 20
3.7488357667
 30
0.0
 11
3.673466812
 21
3.4683239557
 31
0.0
  0
LINE
  5
162
330
1F
100
AcDbEntity
  8
0
  6
HIDDEN
 62
     7
100
AcDbLine
 10
3.7915770483
 20
3.4683239557
 30
0.0
 11
3.7915770483
 21
3.7488357667
 31
0.0
  0
LINE
  5
163
330
1F
100
AcDbEntity
  8
0
  6
HIDDEN
 62
     7
100
AcDbLine
 10
3.7915770483
 20
3.7685208061
 30
0.0
 11
3.7915770483
 21
3.989977499
 31
0.0
  0
LINE
  5
164
330
1F
100
AcDbEntity
  8
0
  6
HIDDEN
 62
     7
100
AcDbLine
 10
3.3463211428
 20
3.9456861604
 30
0.0
 11
3.306951064
 21
3.9456861604
 31
0.0
  0
LINE
  5
165
330
1F
100
AcDbEntity
  8
0
  6
HIDDEN
 62
     7
100
AcDbLine
 10
3.306951064
 20
3.5716704124
 30
0.0
 11
3.3463211428
 21
3.5716704124
 31
0.0
  0
LINE
  5
166
330
1F
100
AcDbEntity
  8
0
  6
HIDDEN
 62
     7
100
AcDbLine
 10
3.0716689118
 20
3.6110404911
 30
0.0
 11
3.2675809853
 21
3.6110404911
 31
0.0
  0
LINE
  5
167
330
1F
100
AcDbEntity
  8
0
  6
HIDDEN
 62
     7
100
AcDbLine
 10
3.2675809853
 20
3.9063160817
 30
0.0
 11
3.0716689118
 21
3.9063160817
 31
0.0
  0
LINE
  5
168
330
1F
100
AcDbEntity
  8
0
  6
HIDDEN
 62
     7
100
AcDbLine
 10
3.6340967333
 20
4.0982452155
 30
0.0
 11
3.830947127
 21
4.0982452155
 31
0.0
  0
LINE
  5
169
330
1F
100
AcDbEntity
  8
0
  6
HIDDEN
 62
     7
100
AcDbLine
 10
3.7325219302
 20
3.4683239557
 30
0.0
 11
3.6735147059
 21
3.4683239557
 31
0.0
  0
LINE
  5
16A
330
1F
100
AcDbEntity
  8
0
  6
HIDDEN
 62
     7
100
AcDbLine
 10
3.7325219302
 20
3.4683239557
 30
0.0
 11
3.7915291545
 21
3.4683239557
 31
0.0
  0
LINE
  5
16B
330
1F
100
AcDbEntity
  8
0
  6
CONTINUOUS
 62
     7
100
AcDbLine
 10
7.852480282
 20
4.0982452155
 30
0.0
 11
7.852480282
 21
3.989977499
 31
0.0
  0
ARC
  5
16C
330
1F
100
AcDbEntity
  8
0
  6
CONTINUOUS
 62
     7
100
AcDbCircle
 10
7.8623228017
 20
4.0982452155
 30
0.0
 40
0.0098425196850398
100
AcDbArc
 50
90.0
 51
180.0
  0
ARC
  5
16D
330
1F
100
AcDbEntity
  8
0
  6
CONTINUOUS
 62
     7
100
AcDbCircle
 10
7.9016928805
 20
3.4683239557
 30
0.0
 40
0.0098425196850398
100
AcDbArc
 50
180.0
 51
270.0
  0
LINE
  5
16E
330
1F
100
AcDbEntity
  8
0
  6
CONTINUOUS
 62
     7
100
AcDbLine
 10
7.8918503608
 20
3.7685208061
 30
0.0
 11
7.8918503608
 21
3.7488357667
 31
0.0
  0
LINE
  5
16F
330
1F
100
AcDbEntity
  8
0
  6
CONTINUOUS
 62
     7
100
AcDbLine
 10
7.8918503608
 20
3.4828480479
 30
0.0
 11
7.8918503608
 21
3.4683239557
 31
0.0
  0
LINE
  5
170
330
1F
100
AcDbEntity
  8
0
  6
CONTINUOUS
 62
     7
100
AcDbLine
 10
8.009960597
 20
3.7488357667
 30
0.0
 11
8.009960597
 21
3.7685208061
 31
0.0
  0
ARC
  5
171
330
1F
100
AcDbEntity
  8
0
  6
CONTINUOUS
 62
     7
100
AcDbCircle
 10
8.2508846063
 20
3.7586782864
 30
0.0
 40
0.4452559055118101
100
AcDbArc
 50
181.2666441212
 51
178.7333558788
  0
LINE
  5
172
330
1F
100
AcDbEntity
  8
0
  6
CONTINUOUS
 62
     7
100
AcDbLine
 10
7.7982356974
 20
3.7685208061
 30
0.0
 11
7.8057375001
 21
3.7685208061
 31
0.0
  0
ARC
  5
173
330
1F
100
AcDbEntity
  8
0
  6
CONTINUOUS
 62
     7
100
AcDbCircle
 10
8.2508846063
 20
3.7586782864
 30
0.0
 40
0.4527559055118099
100
AcDbArc
 50
181.2456585516
 51
178.7543414484
  0
LINE
  5
174
330
1F
100
AcDbEntity
  8
0
  6
CONTINUOUS
 62
     7
100
AcDbLine
 10
7.7982356974
 20
3.7488357667
 30
0.0
 11
7.8057375001
 21
3.7488357667
 31
0.0
  0
LINE
  5
175
330
1F
100
AcDbEntity
  8
0
  6
CONTINUOUS
 62
     7
100
AcDbLine
 10
8.6488045538
 20
3.7685208061
 30
0.0
 11
8.6488045538
 21
3.7488357667
 31
0.0
  0
LINE
  5
176
330
1F
100
AcDbEntity
  8
0
  6
CONTINUOUS
 62
     7
100
AcDbLine
 10
8.6488045538
 20
3.7685208061
 30
0.0
 11
8.4057098637
 21
3.7685208061
 31
0.0
  0
ARC
  5
177
330
1F
100
AcDbEntity
  8
0
  6
CONTINUOUS
 62
     7
100
AcDbCircle
 10
8.2508846063
 20
3.7586782864
 30
0.0
 40
0.1551377952755906
100
AcDbArc
 50
3.6375007128
 51
176.3624992872
  0
LINE
  5
178
330
1F
100
AcDbEntity
  8
0
  6
CONTINUOUS
 62
     7
100
AcDbLine
 10
7.8057375001
 20
3.7685208061
 30
0.0
 11
8.0960593489
 21
3.7685208061
 31
0.0
  0
LINE
  5
179
330
1F
100
AcDbEntity
  8
0
  6
CONTINUOUS
 62
     7
100
AcDbLine
 10
7.8057375001
 20
3.7488357667
 30
0.0
 11
8.0960593489
 21
3.7488357667
 31
0.0
  0
ARC
  5
17A
330
1F
100
AcDbEntity
  8
0
  6
CONTINUOUS
 62
     7
100
AcDbCircle
 10
8.2508846063
 20
3.7586782864
 30
0.0
 40
0.1551377952755906
100
AcDbArc
 50
183.6375007128
 51
356.3624992872
  0
LINE
  5
17B
330
1F
100
AcDbEntity
  8
0
  6
CONTINUOUS
 62
     7
100
AcDbLine
 10
8.4057098637
 20
3.7488357667
 30
0.0
 11
8.6488045538
 21
3.7488357667
 31
0.0
  0
LINE
  5
17C
330
1F
100
AcDbEntity
  8
0
  6
CONTINUOUS
 62
     7
100
AcDbLine
 10
8.3985224016
 20
3.7488357667
 30
0.0
 11
8.3985224016
 21
3.7685208061
 31
0.0
  0
LINE
  5
17D
330
1F
100
AcDbEntity
  8
0
  6
CONTINUOUS
 62
     7
100
AcDbLine
 10
8.0960593489
 20
3.7685208061
 30
0.0
 11
8.1035752604
 21
3.7685208061
 31
0.0
  0
ARC
  5
17E
330
1F
100
AcDbEntity
  8
0
  6
CONTINUOUS
 62
     7
100
AcDbCircle
 10
8.2508846063
 20
3.7586782864
 30
0.0
 40
0.1476377952755906
100
AcDbArc
 50
3.8225537293
 51
176.1774462707
  0
LINE
  5
17F
330
1F
100
AcDbEntity
  8
0
  6
CONTINUOUS
 62
     7
100
AcDbLine
 10
8.3981939523
 20
3.7685208061
 30
0.0
 11
8.4057098637
 21
3.7685208061
 31
0.0
  0
LINE
  5
180
330
1F
100
AcDbEntity
  8
0
  6
CONTINUOUS
 62
     7
100
AcDbLine
 10
8.0960593489
 20
3.7488357667
 30
0.0
 11
8.1035752604
 21
3.7488357667
 31
0.0
  0
ARC
  5
181
330
1F
100
AcDbEntity
  8
0
  6
CONTINUOUS
 62
     7
100
AcDbCircle
 10
8.2508846063
 20
3.7586782864
 30
0.0
 40
0.1476377952755906
100
AcDbArc
 50
183.8225537293
 51
356.1774462707
  0
LINE
  5
182
330
1F
100
AcDbEntity
  8
0
  6
CONTINUOUS
 62
     7
100
AcDbLine
 10
8.3981939523
 20
3.7488357667
 30
0.0
 11
8.4057098637
 21
3.7488357667
 31
0.0
  0
LINE
  5
183
330
1F
100
AcDbEntity
  8
0
  6
CONTINUOUS
 62
     7
100
AcDbLine
 10
8.103246811
 20
3.7586782864
 30
0.0
 11
8.1035752604
 21
3.7488357667
 31
0.0
  0
POLYLINE
  5
184
330
1F
100
AcDbEntity
  8
0
  6
CONTINUOUS
 62
     7
100
AcDb2dPolyline
 66
     1
 10
0.0
 20
0.0
 30
0.0
  0
VERTEX
  5
2DE
330
184
100
AcDbEntity
  8
0
  6
CONTINUOUS
 62
     7
100
AcDbVertex
100
AcDb2dVertex
 10
8.3981939523
 20
3.7488357667
 30
0.0
  0
VERTEX
  5
2DF
330
184
100
AcDbEntity
  8
0
  6
CONTINUOUS
 62
     7
100
AcDbVertex
100
AcDb2dVertex
 10
8.3985224016
 20
3.7586782864
 30
0.0
  0
VERTEX
  5
2E0
330
184
100
AcDbEntity
  8
0
  6
CONTINUOUS
 62
     7
100
AcDbVertex
100
AcDb2dVertex
 10
8.3981939523
 20
3.7685208061
 30
0.0
  0
SEQEND
  5
2E1
330
184
100
AcDbEntity
  8
0
  6
CONTINUOUS
 62
     7
  0
LINE
  5
185
330
1F
100
AcDbEntity
  8
0
  6
CONTINUOUS
 62
     7
100
AcDbLine
 10
8.1035752604
 20
3.7685208061
 30
0.0
 11
8.103246811
 21
3.7586782864
 31
0.0
  0
POLYLINE
  5
186
330
1F
100
AcDbEntity
  8
0
  6
CONTINUOUS
 62
     7
100
AcDb2dPolyline
 66
     1
 10
0.0
 20
0.0
 30
0.0
  0
VERTEX
  5
2E2
330
186
100
AcDbEntity
  8
0
  6
CONTINUOUS
 62
     7
100
AcDbVertex
100
AcDb2dVertex
 10
7.7982356974
 20
3.7488357667
 30
0.0
  0
VERTEX
  5
2E3
330
186
100
AcDbEntity
  8
0
  6
CONTINUOUS
 62
     7
100
AcDbVertex
100
AcDb2dVertex
 10
7.7981287008
 20
3.7586782864
 30
0.0
  0
VERTEX
  5
2E4
330
186
100
AcDbEntity
  8
0
  6
CONTINUOUS
 62
     7
100
AcDbVertex
100
AcDb2dVertex
 10
7.7982356974
 20
3.7685208061
 30
0.0
  0
SEQEND
  5
2E5
330
186
100
AcDbEntity
  8
0
  6
CONTINUOUS
 62
     7
  0
CIRCLE
  5
187
330
1F
100
AcDbEntity
  8
0
  6
CONTINUOUS
 62
     7
100
AcDbCircle
 10
8.2508846063
 20
3.7586782864
 30
0.0
 40
0.6692913385826778
  0
CIRCLE
  5
188
330
1F
100
AcDbEntity
  8
0
  6
CONTINUOUS
 62
     7
100
AcDbCircle
 10
8.2508846063
 20
3.7586782864
 30
0.0
 40
0.6594488188976388
  0
LINE
  5
189
330
1F
100
AcDbEntity
  8
0
  6
CONTINUOUS
 62
     7
100
AcDbLine
 10
7.852480282
 20
3.989977499
 30
0.0
 11
7.861669262
 21
3.989977499
 31
0.0
  0
LINE
  5
18A
330
1F
100
AcDbEntity
  8
0
  6
CONTINUOUS
 62
     7
100
AcDbLine
 10
7.8623228017
 20
4.1080877352
 30
0.0
 11
7.9629593607
 21
4.1080877352
 31
0.0
  0
LINE
  5
18B
330
1F
100
AcDbEntity
  8
0
  6
CONTINUOUS
 62
     7
100
AcDbLine
 10
7.9119601885
 20
3.458481436
 30
0.0
 11
7.9016979082
 21
3.458481436
 31
0.0
  0
LINE
  5
18C
330
1F
100
AcDbEntity
  8
0
  6
CONTINUOUS
 62
     8
100
AcDbLine
 10
7.9514147237
 20
4.0982452155
 30
0.0
 11
7.852480282
 21
4.0982452155
 31
0.0
  0
LINE
  5
18D
330
1F
100
AcDbEntity
  8
0
  6
CONTINUOUS
 62
     8
100
AcDbLine
 10
7.8918503608
 20
3.4683239557
 30
0.0
 11
7.9034910649
 21
3.4683239557
 31
0.0
  0
LINE
  5
18E
330
1F
100
AcDbEntity
  8
0
  6
HIDDEN
 62
     7
100
AcDbLine
 10
7.861669262
 20
3.989977499
 30
0.0
 11
8.0493306757
 21
3.989977499
 31
0.0
  0
LINE
  5
18F
330
1F
100
AcDbEntity
  8
0
  6
HIDDEN
 62
     7
100
AcDbLine
 10
8.4748019292
 20
3.3651697827
 30
0.0
 11
8.4748019292
 21
4.1521867901
 31
0.0
  0
LINE
  5
190
330
1F
100
AcDbEntity
  8
0
  6
HIDDEN
 62
     7
100
AcDbLine
 10
7.9629593607
 20
4.1080877352
 30
0.0
 11
8.0394881554
 21
4.1080877352
 31
0.0
  0
LINE
  5
191
330
1F
100
AcDbEntity
  8
0
  6
HIDDEN
 62
     7
100
AcDbLine
 10
8.0001180773
 20
3.458481436
 30
0.0
 11
7.9119601885
 21
3.458481436
 31
0.0
  0
LINE
  5
192
330
1F
100
AcDbEntity
  8
0
  6
HIDDEN
 62
     7
100
AcDbLine
 10
7.9793183858
 20
4.0293475777
 30
0.0
 11
8.0077312928
 21
4.0293475777
 31
0.0
  0
LINE
  5
193
330
1F
100
AcDbEntity
  8
0
  6
HIDDEN
 62
     7
100
AcDbLine
 10
7.9793183858
 20
4.0293475777
 30
0.0
 11
7.9793183858
 21
4.1080877352
 31
0.0
  0
LINE
  5
194
330
1F
100
AcDbEntity
  8
0
  6
HIDDEN
 62
     7
100
AcDbLine
 10
7.9224925719
 20
4.0293475777
 30
0.0
 11
7.9793183858
 21
4.0293475777
 31
0.0
  0
LINE
  5
195
330
1F
100
AcDbEntity
  8
0
  6
HIDDEN
 62
     7
100
AcDbLine
 10
7.9224925719
 20
4.0293475777
 30
0.0
 11
7.9224925719
 21
4.1080877352
 31
0.0
  0
LINE
  5
196
330
1F
100
AcDbEntity
  8
0
  6
HIDDEN
 62
     7
100
AcDbLine
 10
7.894079665
 20
4.0293475777
 30
0.0
 11
7.9224925719
 21
4.0293475777
 31
0.0
  0
LINE
  5
197
330
1F
100
AcDbEntity
  8
0
  6
HIDDEN
 62
     7
100
AcDbLine
 10
8.0077312928
 20
4.0293475777
 30
0.0
 11
8.0077312928
 21
4.1080877352
 31
0.0
  0
LINE
  5
198
330
1F
100
AcDbEntity
  8
0
  6
HIDDEN
 62
     7
100
AcDbLine
 10
7.894079665
 20
4.0293475777
 30
0.0
 11
7.894079665
 21
4.1080877352
 31
0.0
  0
LINE
  5
199
330
1F
100
AcDbEntity
  8
0
  6
HIDDEN
 62
     7
100
AcDbLine
 10
8.6002940551
 20
4.147240091
 30
0.0
 11
8.6002940551
 21
3.9700747367
 31
0.0
  0
LINE
  5
19A
330
1F
100
AcDbEntity
  8
0
  6
HIDDEN
 62
     7
100
AcDbLine
 10
8.5904515355
 20
4.1570826107
 30
0.0
 11
8.5904515355
 21
3.9604188972
 31
0.0
  0
LINE
  5
19B
330
1F
100
AcDbEntity
  8
0
  6
HIDDEN
 62
     7
100
AcDbLine
 10
8.4821838189
 20
3.960232217
 30
0.0
 11
8.4821838189
 21
4.1570826107
 31
0.0
  0
LINE
  5
19C
330
1F
100
AcDbEntity
  8
0
  6
HIDDEN
 62
     7
100
AcDbLine
 10
7.9605302756
 20
3.9996022957
 30
0.0
 11
7.9605302756
 21
4.1175210344
 31
0.0
  0
LINE
  5
19D
330
1F
100
AcDbEntity
  8
0
  6
HIDDEN
 62
     7
100
AcDbLine
 10
7.9506877559
 20
4.0094448154
 30
0.0
 11
7.9506877559
 21
4.1078700123
 31
0.0
  0
LINE
  5
19E
330
1F
100
AcDbEntity
  8
0
  6
HIDDEN
 62
     7
100
AcDbLine
 10
8.5215538977
 20
4.0870703208
 30
0.0
 11
8.6002940551
 21
4.0870703208
 31
0.0
  0
LINE
  5
19F
330
1F
100
AcDbEntity
  8
0
  6
HIDDEN
 62
     7
100
AcDbLine
 10
8.5215538977
 20
4.0302445069
 30
0.0
 11
8.6002940551
 21
4.0302445069
 31
0.0
  0
LINE
  5
1A0
330
1F
100
AcDbEntity
  8
0
  6
HIDDEN
 62
     7
100
AcDbLine
 10
8.5215538977
 20
4.0018315999
 30
0.0
 11
8.5215538977
 21
4.0302445069
 31
0.0
  0
LINE
  5
1A1
330
1F
100
AcDbEntity
  8
0
  6
HIDDEN
 62
     7
100
AcDbLine
 10
8.5215538977
 20
4.0870703208
 30
0.0
 11
8.5215538977
 21
4.1154832277
 31
0.0
  0
LINE
  5
1A2
330
1F
100
AcDbEntity
  8
0
  6
HIDDEN
 62
     7
100
AcDbLine
 10
8.5215538977
 20
4.0302445069
 30
0.0
 11
8.5215538977
 21
4.0870703208
 31
0.0
  0
LINE
  5
1A3
330
1F
100
AcDbEntity
  8
0
  6
HIDDEN
 62
     7
100
AcDbLine
 10
8.5215538977
 20
4.1154832277
 30
0.0
 11
8.6002940551
 21
4.1154832277
 31
0.0
  0
LINE
  5
1A4
330
1F
100
AcDbEntity
  8
0
  6
HIDDEN
 62
     7
100
AcDbLine
 10
8.5215538977
 20
4.0018315999
 30
0.0
 11
8.6002940551
 21
4.0018315999
 31
0.0
  0
CIRCLE
  5
1A5
330
1F
100
AcDbEntity
  8
0
  6
HIDDEN
 62
     7
100
AcDbCircle
 10
8.7725381496
 20
3.7586782864
 30
0.0
 40
0.0984251968503926
  0
CIRCLE
  5
1A6
330
1F
100
AcDbEntity
  8
0
  6
HIDDEN
 62
     7
100
AcDbCircle
 10
8.2508846063
 20
4.2803318297
 30
0.0
 40
0.0984251968503944
  0
CIRCLE
  5
1A7
330
1F
100
AcDbEntity
  8
0
  6
HIDDEN
 62
     7
100
AcDbCircle
 10
8.2508846063
 20
3.2370247431
 30
0.0
 40
0.0984251968503944
  0
CIRCLE
  5
1A8
330
1F
100
AcDbEntity
  8
0
  6
HIDDEN
 62
     7
100
AcDbCircle
 10
7.729231063
 20
3.7586782864
 30
0.0
 40
0.0984251968503935
  0
LINE
  5
1A9
330
1F
100
AcDbEntity
  8
0
  6
HIDDEN
 62
     7
100
AcDbLine
 10
8.1638882012
 20
4.3673282349
 30
0.0
 11
7.6422346579
 21
3.8456746916
 31
0.0
  0
ARC
  5
1AA
330
1F
100
AcDbEntity
  8
0
  6
HIDDEN
 62
     7
100
AcDbCircle
 10
8.2508846063
 20
4.2803318297
 30
0.0
 40
0.1230314960629934
100
AcDbArc
 50
45.0
 51
135.0
  0
LINE
  5
1AB
330
1F
100
AcDbEntity
  8
0
  6
HIDDEN
 62
     7
100
AcDbLine
 10
8.8595345548
 20
3.8456746916
 30
0.0
 11
8.3378810115
 21
4.3673282349
 31
0.0
  0
ARC
  5
1AC
330
1F
100
AcDbEntity
  8
0
  6
HIDDEN
 62
     7
100
AcDbCircle
 10
8.7725381496
 20
3.7586782864
 30
0.0
 40
0.1230314960629934
100
AcDbArc
 50
315.0
 51
45.0
  0
LINE
  5
1AD
330
1F
100
AcDbEntity
  8
0
  6
HIDDEN
 62
     7
100
AcDbLine
 10
8.3378810115
 20
3.1500283379
 30
0.0
 11
8.8595345548
 21
3.6716818812
 31
0.0
  0
ARC
  5
1AE
330
1F
100
AcDbEntity
  8
0
  6
HIDDEN
 62
     7
100
AcDbCircle
 10
8.2508846063
 20
3.2370247431
 30
0.0
 40
0.1230314960629934
100
AcDbArc
 50
225.0
 51
315.0
  0
LINE
  5
1AF
330
1F
100
AcDbEntity
  8
0
  6
HIDDEN
 62
     7
100
AcDbLine
 10
7.6422346579
 20
3.6716818812
 30
0.0
 11
8.1638882012
 21
3.1500283379
 31
0.0
  0
ARC
  5
1B0
330
1F
100
AcDbEntity
  8
0
  6
HIDDEN
 62
     7
100
AcDbCircle
 10
7.729231063
 20
3.7586782864
 30
0.0
 40
0.1230314960629931
100
AcDbArc
 50
135.0
 51
225.0
  0
CIRCLE
  5
1B1
330
1F
100
AcDbEntity
  8
0
  6
HIDDEN
 62
     7
100
AcDbCircle
 10
8.2508846063
 20
3.7586782864
 30
0.0
 40
0.1870078740157481
  0
CIRCLE
  5
1B2
330
1F
100
AcDbEntity
  8
0
  6
HIDDEN
 62
     7
100
AcDbCircle
 10
8.2508846063
 20
3.7586782864
 30
0.0
 40
0.4527559055118111
  0
LINE
  5
1B3
330
1F
100
AcDbEntity
  8
0
  6
HIDDEN
 62
     7
100
AcDbLine
 10
7.8573761026
 20
3.5347609636
 30
0.0
 11
8.6443931101
 21
3.5347609636
 31
0.0
  0
LINE
  5
1B4
330
1F
100
AcDbEntity
  8
0
  6
HIDDEN
 62
     7
100
AcDbLine
 10
8.2410420866
 20
3.6110404911
 30
0.0
 11
8.2410420866
 21
3.6113689405
 31
0.0
  0
LINE
  5
1B5
330
1F
100
AcDbEntity
  8
0
  6
HIDDEN
 62
     7
100
AcDbLine
 10
8.2410420866
 20
3.6110404911
 30
0.0
 11
8.260727126
 21
3.6110404911
 31
0.0
  0
LINE
  5
1B6
330
1F
100
AcDbEntity
  8
0
  6
HIDDEN
 62
     7
100
AcDbLine
 10
8.260727126
 20
3.6113689405
 30
0.0
 11
8.260727126
 21
3.6110404911
 31
0.0
  0
LINE
  5
1B7
330
1F
100
AcDbEntity
  8
0
  6
HIDDEN
 62
     7
100
AcDbLine
 10
8.260727126
 20
3.9059876323
 30
0.0
 11
8.260727126
 21
4.2113271954
 31
0.0
  0
LINE
  5
1B8
330
1F
100
AcDbEntity
  8
0
  6
HIDDEN
 62
     7
100
AcDbLine
 10
8.2410420866
 20
3.9059876323
 30
0.0
 11
8.2410420866
 21
4.2113271954
 31
0.0
  0
LINE
  5
1B9
330
1F
100
AcDbEntity
  8
0
  6
HIDDEN
 62
     7
100
AcDbLine
 10
8.2410420866
 20
3.3607583389
 30
0.0
 11
8.2410420866
 21
3.6110404911
 31
0.0
  0
LINE
  5
1BA
330
1F
100
AcDbEntity
  8
0
  6
HIDDEN
 62
     7
100
AcDbLine
 10
8.260727126
 20
3.3607583389
 30
0.0
 11
8.2410420866
 21
3.3607583389
 31
0.0
  0
LINE
  5
1BB
330
1F
100
AcDbEntity
  8
0
  6
HIDDEN
 62
     7
100
AcDbLine
 10
8.260727126
 20
3.6110404911
 30
0.0
 11
8.260727126
 21
3.3607583389
 31
0.0
  0
LINE
  5
1BC
330
1F
100
AcDbEntity
  8
0
  6
HIDDEN
 62
     7
100
AcDbLine
 10
8.4821838189
 20
3.960232217
 30
0.0
 11
8.4821838189
 21
4.1478936307
 31
0.0
  0
POLYLINE
  5
1BD
330
1F
100
AcDbEntity
  8
0
  6
HIDDEN
 62
     7
100
AcDb2dPolyline
 66
     1
 10
0.0
 20
0.0
 30
0.0
  0
VERTEX
  5
2E6
330
1BD
100
AcDbEntity
  8
0
  6
HIDDEN
 62
     7
100
AcDbVertex
100
AcDb2dVertex
 10
8.0960593489
 20
3.7488357667
 30
0.0
  0
VERTEX
  5
2E7
330
1BD
100
AcDbEntity
  8
0
  6
HIDDEN
 62
     7
100
AcDbVertex
100
AcDb2dVertex
 10
8.095746811
 20
3.7586782864
 30
0.0
  0
VERTEX
  5
2E8
330
1BD
100
AcDbEntity
  8
0
  6
HIDDEN
 62
     7
100
AcDbVertex
100
AcDb2dVertex
 10
8.0960593489
 20
3.7685208061
 30
0.0
  0
SEQEND
  5
2E9
330
1BD
100
AcDbEntity
  8
0
  6
HIDDEN
 62
     7
  0
POLYLINE
  5
1BE
330
1F
100
AcDbEntity
  8
0
  6
HIDDEN
 62
     7
100
AcDb2dPolyline
 66
     1
 10
0.0
 20
0.0
 30
0.0
  0
VERTEX
  5
2EA
330
1BE
100
AcDbEntity
  8
0
  6
HIDDEN
 62
     7
100
AcDbVertex
100
AcDb2dVertex
 10
8.4057098637
 20
3.7685208061
 30
0.0
  0
VERTEX
  5
2EB
330
1BE
100
AcDbEntity
  8
0
  6
HIDDEN
 62
     7
100
AcDbVertex
100
AcDb2dVertex
 10
8.4060224016
 20
3.7586782864
 30
0.0
  0
VERTEX
  5
2EC
330
1BE
100
AcDbEntity
  8
0
  6
HIDDEN
 62
     7
100
AcDbVertex
100
AcDb2dVertex
 10
8.4057098637
 20
3.7488357667
 30
0.0
  0
SEQEND
  5
2ED
330
1BE
100
AcDbEntity
  8
0
  6
HIDDEN
 62
     7
  0
POLYLINE
  5
1BF
330
1F
100
AcDbEntity
  8
0
  6
HIDDEN
 62
     7
100
AcDb2dPolyline
 66
     1
 10
0.0
 20
0.0
 30
0.0
  0
VERTEX
  5
2EE
330
1BF
100
AcDbEntity
  8
0
  6
HIDDEN
 62
     7
100
AcDbVertex
100
AcDb2dVertex
 10
7.8057375001
 20
3.7685208061
 30
0.0
  0
VERTEX
  5
2EF
330
1BF
100
AcDbEntity
  8
0
  6
HIDDEN
 62
     7
100
AcDbVertex
100
AcDb2dVertex
 10
7.8056559015
 20
3.7537567259
 30
0.0
  0
VERTEX
  5
2F0
330
1BF
100
AcDbEntity
  8
0
  6
HIDDEN
 62
     7
100
AcDbVertex
100
AcDb2dVertex
 10
7.8057375001
 20
3.7488357667
 30
0.0
  0
SEQEND
  5
2F1
330
1BF
100
AcDbEntity
  8
0
  6
HIDDEN
 62
     7
  0
LINE
  5
1C0
330
1F
100
AcDbEntity
  8
0
  6
HIDDEN
 62
     7
100
AcDbLine
 10
8.0493306757
 20
3.989977499
 30
0.0
 11
8.0493306757
 21
4.1639529297
 31
0.0
  0
LINE
  5
1C1
330
1F
100
AcDbEntity
  8
0
  6
HIDDEN
 62
     7
100
AcDbLine
 10
7.8918503608
 20
3.7488357667
 30
0.0
 11
7.8918503608
 21
3.4828480479
 31
0.0
  0
LINE
  5
1C2
330
1F
100
AcDbEntity
  8
0
  6
HIDDEN
 62
     7
100
AcDbLine
 10
8.009960597
 20
3.3754154932
 30
0.0
 11
8.009960597
 21
3.7488357667
 31
0.0
  0
LINE
  5
1C3
330
1F
100
AcDbEntity
  8
0
  6
HIDDEN
 62
     7
100
AcDbLine
 10
7.8918503608
 20
3.989977499
 30
0.0
 11
7.8918503608
 21
3.7685208061
 31
0.0
  0
LINE
  5
1C4
330
1F
100
AcDbEntity
  8
0
  6
HIDDEN
 62
     7
100
AcDbLine
 10
8.009960597
 20
3.7685208061
 30
0.0
 11
8.009960597
 21
3.989977499
 31
0.0
  0
LINE
  5
1C5
330
1F
100
AcDbEntity
  8
0
  6
HIDDEN
 62
     7
100
AcDbLine
 10
8.0493306757
 20
3.989977499
 30
0.0
 11
8.0493306757
 21
4.0982452155
 31
0.0
  0
ARC
  5
1C6
330
1F
100
AcDbEntity
  8
0
  6
HIDDEN
 62
     7
100
AcDbCircle
 10
8.039488156
 20
4.0982452155
 30
0.0
 40
0.0098425196850398
100
AcDbArc
 50
0.0
 51
90.0
  0
ARC
  5
1C7
330
1F
100
AcDbEntity
  8
0
  6
HIDDEN
 62
     7
100
AcDbCircle
 10
8.0001180773
 20
3.4683239557
 30
0.0
 40
0.0098425196850394
100
AcDbArc
 50
270.0
 51
0.0
  0
LINE
  5
1C8
330
1F
100
AcDbEntity
  8
0
  6
HIDDEN
 62
     7
100
AcDbLine
 10
7.8918503608
 20
3.989977499
 30
0.0
 11
7.8918503608
 21
3.7685208061
 31
0.0
  0
LINE
  5
1C9
330
1F
100
AcDbEntity
  8
0
  6
HIDDEN
 62
     7
100
AcDbLine
 10
7.8918503608
 20
3.7488357667
 30
0.0
 11
7.8918503608
 21
3.4828480479
 31
0.0
  0
LINE
  5
1CA
330
1F
100
AcDbEntity
  8
0
  6
HIDDEN
 62
     7
100
AcDbLine
 10
8.009960597
 20
3.4683239557
 30
0.0
 11
8.009960597
 21
3.7488357667
 31
0.0
  0
LINE
  5
1CB
330
1F
100
AcDbEntity
  8
0
  6
HIDDEN
 62
     7
100
AcDbLine
 10
8.009960597
 20
3.7685208061
 30
0.0
 11
8.009960597
 21
3.989977499
 31
0.0
  0
ARC
  5
1CC
330
1F
100
AcDbEntity
  8
0
  6
HIDDEN
 62
     7
100
AcDbCircle
 10
8.5904515355
 20
4.147240091
 30
0.0
 40
0.0098425196850407
100
AcDbArc
 50
0.0
 51
90.0
  0
ARC
  5
1CD
330
1F
100
AcDbEntity
  8
0
  6
HIDDEN
 62
     7
100
AcDbCircle
 10
8.5904515355
 20
3.9700747367
 30
0.0
 40
0.0098425196850407
100
AcDbArc
 50
270.0
 51
0.0
  0
LINE
  5
1CE
330
1F
100
AcDbEntity
  8
0
  6
HIDDEN
 62
     7
100
AcDbLine
 10
8.4821838189
 20
3.960232217
 30
0.0
 11
8.5904515355
 21
3.960232217
 31
0.0
  0
LINE
  5
1CF
330
1F
100
AcDbEntity
  8
0
  6
HIDDEN
 62
     7
100
AcDbLine
 10
8.5904515355
 20
4.1570826107
 30
0.0
 11
8.4821838189
 21
4.1570826107
 31
0.0
  0
LINE
  5
1D0
330
1F
100
AcDbEntity
  8
0
  6
HIDDEN
 62
     7
100
AcDbLine
 10
8.4821838189
 20
4.1177125319
 30
0.0
 11
7.9605302756
 21
4.1177125319
 31
0.0
  0
LINE
  5
1D1
330
1F
100
AcDbEntity
  8
0
  6
HIDDEN
 62
     7
100
AcDbLine
 10
7.9605302756
 20
3.9996022957
 30
0.0
 11
8.4821838189
 21
3.9996022957
 31
0.0
  0
ARC
  5
1D2
330
1F
100
AcDbEntity
  8
0
  6
HIDDEN
 62
     7
100
AcDbCircle
 10
7.9605302756
 20
4.0094448154
 30
0.0
 40
0.0098425196850398
100
AcDbArc
 50
180.0
 51
270.0
  0
ARC
  5
1D3
330
1F
100
AcDbEntity
  8
0
  6
HIDDEN
 62
     7
100
AcDbCircle
 10
7.9605302756
 20
4.1078700123
 30
0.0
 40
0.0098425196850398
100
AcDbArc
 50
90.0
 51
180.0
  0
LINE
  5
1D4
330
1F
100
AcDbEntity
  8
0
  6
HIDDEN
 62
     7
100
AcDbLine
 10
8.4821838189
 20
3.960232217
 30
0.0
 11
8.6561592497
 21
3.960232217
 31
0.0
  0
LINE
  5
1D5
330
1F
100
AcDbEntity
  8
0
  6
HIDDEN
 62
     7
100
AcDbLine
 10
8.4821838189
 20
4.1177125319
 30
0.0
 11
8.260727126
 21
4.1177125319
 31
0.0
  0
LINE
  5
1D6
330
1F
100
AcDbEntity
  8
0
  6
HIDDEN
 62
     7
100
AcDbLine
 10
8.260727126
 20
3.9996022957
 30
0.0
 11
8.4821838189
 21
3.9996022957
 31
0.0
  0
LINE
  5
1D7
330
1F
100
AcDbEntity
  8
0
  6
HIDDEN
 62
     7
100
AcDbLine
 10
8.2410420866
 20
4.1177125319
 30
0.0
 11
7.9750543678
 21
4.1177125319
 31
0.0
  0
LINE
  5
1D8
330
1F
100
AcDbEntity
  8
0
  6
HIDDEN
 62
     7
100
AcDbLine
 10
7.8676218131
 20
3.9996022957
 30
0.0
 11
8.2410420866
 21
3.9996022957
 31
0.0
  0
LINE
  5
1D9
330
1F
100
AcDbEntity
  8
0
  6
HIDDEN
 62
     7
100
AcDbLine
 10
7.852480282
 20
4.0982452155
 30
0.0
 11
8.0491439955
 21
4.0982452155
 31
0.0
  0
LINE
  5
1DA
330
1F
100
AcDbEntity
  8
0
  6
HIDDEN
 62
     7
100
AcDbLine
 10
8.009960597
 20
3.4683239557
 30
0.0
 11
7.8918503608
 21
3.4683239557
 31
0.0
  0
LINE
  5
1DB
330
1F
100
AcDbEntity
  8
0
  6
HIDDEN
 62
     7
100
AcDbLine
 10
7.9034910649
 20
3.4683239557
 30
0.0
 11
8.009960597
 21
3.4683239557
 31
0.0
  0
LINE
  5
1DC
330
1F
100
AcDbEntity
  8
0
  6
CONTINUOUS
 62
     7
100
AcDbLine
 10
3.5455140561
 20
6.0026858003
 30
0.0
 11
3.5553565758
 21
6.01252832
 31
0.0
  0
LINE
  5
1DD
330
1F
100
AcDbEntity
  8
0
  6
CONTINUOUS
 62
     7
100
AcDbLine
 10
3.5553565758
 20
7.3314259578
 30
0.0
 11
3.5455140561
 21
7.3412684775
 31
0.0
  0
LINE
  5
1DE
330
1F
100
AcDbEntity
  8
0
  6
CONTINUOUS
 62
     7
100
AcDbLine
 10
3.3856912215
 20
6.0026858003
 30
0.0
 11
3.5455140561
 21
6.0026858003
 31
0.0
  0
LINE
  5
1DF
330
1F
100
AcDbEntity
  8
0
  6
CONTINUOUS
 62
     7
100
AcDbLine
 10
3.5455140561
 20
7.3412684775
 30
0.0
 11
3.3856912215
 21
7.3412684775
 31
0.0
  0
LINE
  5
1E0
330
1F
100
AcDbEntity
  8
0
  6
CONTINUOUS
 62
     7
100
AcDbLine
 10
3.5553565758
 20
6.2192212334
 30
0.0
 11
3.581603295
 21
6.2192212334
 31
0.0
  0
LINE
  5
1E1
330
1F
100
AcDbEntity
  8
0
  6
CONTINUOUS
 62
     7
100
AcDbLine
 10
3.8506321664
 20
7.1247330444
 30
0.0
 11
3.5553565758
 21
7.1247330444
 31
0.0
  0
LINE
  5
1E2
330
1F
100
AcDbEntity
  8
0
  6
CONTINUOUS
 62
     7
100
AcDbLine
 10
3.8581321664
 20
7.1172330444
 30
0.0
 11
3.8506321664
 21
7.1247330444
 31
0.0
  0
LINE
  5
1E3
330
1F
100
AcDbEntity
  8
0
  6
CONTINUOUS
 62
     7
100
AcDbLine
 10
3.0191754735
 20
7.0077346563
 30
0.0
 11
3.0191754735
 21
7.0115440681
 31
0.0
  0
LINE
  5
1E4
330
1F
100
AcDbEntity
  8
0
  6
CONTINUOUS
 62
     7
100
AcDbLine
 10
2.8223250798
 20
7.0115440681
 30
0.0
 11
2.8223250798
 21
7.008011004
 31
0.0
  0
ARC
  5
1E5
330
1F
100
AcDbEntity
  8
0
  6
CONTINUOUS
 62
     7
100
AcDbCircle
 10
2.8321675994
 20
7.0115440681
 30
0.0
 40
0.0098425196850398
100
AcDbArc
 50
90.0
 51
180.0
  0
ARC
  5
1E6
330
1F
100
AcDbEntity
  8
0
  6
CONTINUOUS
 62
     7
100
AcDbCircle
 10
3.0093329538
 20
7.0115440681
 30
0.0
 40
0.0098425196850398
100
AcDbArc
 50
0.0
 51
90.0
  0
LINE
  5
1E7
330
1F
100
AcDbEntity
  8
0
  6
CONTINUOUS
 62
     7
100
AcDbLine
 10
2.8616951585
 20
6.6818196586
 30
0.0
 11
2.8616951585
 21
6.6621346192
 31
0.0
  0
LINE
  5
1E8
330
1F
100
AcDbEntity
  8
0
  6
CONTINUOUS
 62
     7
100
AcDbLine
 10
2.9798053947
 20
6.6621346192
 30
0.0
 11
2.9798053947
 21
6.6818196586
 31
0.0
  0
LINE
  5
1E9
330
1F
100
AcDbEntity
  8
0
  6
CONTINUOUS
 62
     7
100
AcDbLine
 10
3.1077581506
 20
7.3412684775
 30
0.0
 11
3.0979156309
 21
7.3314259578
 31
0.0
  0
LINE
  5
1EA
330
1F
100
AcDbEntity
  8
0
  6
CONTINUOUS
 62
     7
100
AcDbLine
 10
3.0979156309
 20
6.01252832
 30
0.0
 11
3.1077581506
 21
6.0026858003
 31
0.0
  0
LINE
  5
1EB
330
1F
100
AcDbEntity
  8
0
  6
CONTINUOUS
 62
     7
100
AcDbLine
 10
3.2675809853
 20
7.3412684775
 30
0.0
 11
3.1077581506
 21
7.3412684775
 31
0.0
  0
LINE
  5
1EC
330
1F
100
AcDbEntity
  8
0
  6
CONTINUOUS
 62
     7
100
AcDbLine
 10
3.1077581506
 20
6.0026858003
 30
0.0
 11
3.2675809853
 21
6.0026858003
 31
0.0
  0
LINE
  5
1ED
330
1F
100
AcDbEntity
  8
0
  6
CONTINUOUS
 62
     7
100
AcDbLine
 10
3.3463211428
 20
6.5735519421
 30
0.0
 11
3.3856912215
 21
6.5735519421
 31
0.0
  0
LINE
  5
1EE
330
1F
100
AcDbEntity
  8
0
  6
CONTINUOUS
 62
     7
100
AcDbLine
 10
3.3856912215
 20
6.7704023358
 30
0.0
 11
3.3463211428
 21
6.7704023358
 31
0.0
  0
LINE
  5
1EF
330
1F
100
AcDbEntity
  8
0
  6
CONTINUOUS
 62
     7
100
AcDbLine
 10
3.2675809853
 20
6.5735519421
 30
0.0
 11
3.306951064
 21
6.5735519421
 31
0.0
  0
LINE
  5
1F0
330
1F
100
AcDbEntity
  8
0
  6
CONTINUOUS
 62
     7
100
AcDbLine
 10
3.306951064
 20
6.7704023358
 30
0.0
 11
3.2675809853
 21
6.7704023358
 31
0.0
  0
LINE
  5
1F1
330
1F
100
AcDbEntity
  8
0
  6
CONTINUOUS
 62
     7
100
AcDbLine
 10
3.0454221926
 20
7.1247330444
 30
0.0
 11
2.8026400404
 21
7.1247330444
 31
0.0
  0
LINE
  5
1F2
330
1F
100
AcDbEntity
  8
0
  6
CONTINUOUS
 62
     7
100
AcDbLine
 10
3.0979156309
 20
7.1247330444
 30
0.0
 11
3.0716689118
 21
7.1247330444
 31
0.0
  0
LINE
  5
1F3
330
1F
100
AcDbEntity
  8
0
  6
CONTINUOUS
 62
     7
100
AcDbLine
 10
3.0716689118
 20
6.2192212334
 30
0.0
 11
3.0979156309
 21
6.2192212334
 31
0.0
  0
LINE
  5
1F4
330
1F
100
AcDbEntity
  8
0
  6
CONTINUOUS
 62
     7
100
AcDbLine
 10
2.8026400404
 20
6.2192212334
 30
0.0
 11
3.0454221926
 21
6.2192212334
 31
0.0
  0
LINE
  5
1F5
330
1F
100
AcDbEntity
  8
0
  6
CONTINUOUS
 62
     7
100
AcDbLine
 10
2.8026400404
 20
7.1247330444
 30
0.0
 11
2.7951400404
 21
7.1172330444
 31
0.0
  0
LINE
  5
1F6
330
1F
100
AcDbEntity
  8
0
  6
CONTINUOUS
 62
     7
100
AcDbLine
 10
2.7951400404
 20
6.2267212334
 30
0.0
 11
2.8026400404
 21
6.2192212334
 31
0.0
  0
LINE
  5
1F7
330
1F
100
AcDbEntity
  8
0
  6
CONTINUOUS
 62
     7
100
AcDbLine
 10
3.3463211428
 20
7.0952054854
 30
0.0
 11
3.3856912215
 21
7.0952054854
 31
0.0
  0
LINE
  5
1F8
330
1F
100
AcDbEntity
  8
0
  6
CONTINUOUS
 62
     7
100
AcDbLine
 10
3.3856912215
 20
7.2920558791
 30
0.0
 11
3.3463211428
 21
7.2920558791
 31
0.0
  0
LINE
  5
1F9
330
1F
100
AcDbEntity
  8
0
  6
CONTINUOUS
 62
     7
100
AcDbLine
 10
3.2675809853
 20
7.0952054854
 30
0.0
 11
3.306951064
 21
7.0952054854
 31
0.0
  0
LINE
  5
1FA
330
1F
100
AcDbEntity
  8
0
  6
CONTINUOUS
 62
     7
100
AcDbLine
 10
3.306951064
 20
7.2920558791
 30
0.0
 11
3.2675809853
 21
7.2920558791
 31
0.0
  0
LINE
  5
1FB
330
1F
100
AcDbEntity
  8
0
  6
CONTINUOUS
 62
     7
100
AcDbLine
 10
3.2675809853
 20
6.0518983988
 30
0.0
 11
3.306951064
 21
6.0518983988
 31
0.0
  0
LINE
  5
1FC
330
1F
100
AcDbEntity
  8
0
  6
CONTINUOUS
 62
     7
100
AcDbLine
 10
3.306951064
 20
6.2487487925
 30
0.0
 11
3.2675809853
 21
6.2487487925
 31
0.0
  0
LINE
  5
1FD
330
1F
100
AcDbEntity
  8
0
  6
CONTINUOUS
 62
     7
100
AcDbLine
 10
3.3463211428
 20
6.0518983988
 30
0.0
 11
3.3856912215
 21
6.0518983988
 31
0.0
  0
LINE
  5
1FE
330
1F
100
AcDbEntity
  8
0
  6
CONTINUOUS
 62
     7
100
AcDbLine
 10
3.3856912215
 20
6.2487487925
 30
0.0
 11
3.3463211428
 21
6.2487487925
 31
0.0
  0
LINE
  5
1FF
330
1F
100
AcDbEntity
  8
0
  6
CONTINUOUS
 62
     7
100
AcDbLine
 10
3.3463211428
 20
7.3166621783
 30
0.0
 11
3.306951064
 21
7.3166621783
 31
0.0
  0
LINE
  5
200
330
1F
100
AcDbEntity
  8
0
  6
CONTINUOUS
 62
     7
100
AcDbLine
 10
3.306951064
 20
6.0272920995
 30
0.0
 11
3.3463211428
 21
6.0272920995
 31
0.0
  0
LINE
  5
201
330
1F
100
AcDbEntity
  8
0
  6
CONTINUOUS
 62
     7
100
AcDbLine
 10
3.5455140561
 20
6.0026858003
 30
0.0
 11
3.5455140561
 21
7.3412684775
 31
0.0
  0
LINE
  5
202
330
1F
100
AcDbEntity
  8
0
  6
CONTINUOUS
 62
     7
100
AcDbLine
 10
3.5553565758
 20
7.3314259578
 30
0.0
 11
3.5553565758
 21
6.01252832
 31
0.0
  0
LINE
  5
203
330
1F
100
AcDbEntity
  8
0
  6
CONTINUOUS
 62
     7
100
AcDbLine
 10
3.3856912215
 20
6.0026858003
 30
0.0
 11
3.3856912215
 21
7.3412684775
 31
0.0
  0
SPLINE
  5
204
330
1F
100
AcDbEntity
  8
0
  6
CONTINUOUS
 62
     7
100
AcDbSpline
210
0.0
220
0.0
230
1.0
 70
     8
 71
     3
 72
    70
 73
    66
 74
     0
 42
0.00000001
 43
0.00000001
 40
0.0
 40
0.0
 40
0.0
 40
0.0
 40
0.0312500000000002
 40
0.0312500000000002
 40
0.0625000000000004
 40
0.0625000000000004
 40
0.0937500000000007
 40
0.0937500000000007
 40
0.1250000000000009
 40
0.1250000000000009
 40
0.1562500000000011
 40
0.1562500000000011
 40
0.1875000000000013
 40
0.1875000000000013
 40
0.2500000000000016
 40
0.2500000000000016
 40
0.2812500000000016
 40
0.2812500000000016
 40
0.3125000000000017
 40
0.3125000000000017
 40
0.3437500000000017
 40
0.3437500000000017
 40
0.3750000000000018
 40
0.3750000000000018
 40
0.4062500000000018
 40
0.4062500000000018
 40
0.4375000000000019
 40
0.4375000000000019
 40
0.4531250000000019
 40
0.4531250000000019
 40
0.468750000000002
 40
0.468750000000002
 40
0.4843750000000021
 40
0.4843750000000021
 40
0.5000000000000021
 40
0.5000000000000021
 40
0.5312500000000019
 40
0.5312500000000019
 40
0.5468750000000019
 40
0.5468750000000019
 40
0.5625000000000019
 40
0.5625000000000019
 40
0.5937500000000017
 40
0.5937500000000017
 40
0.6250000000000014
 40
0.6250000000000014
 40
0.6562500000000012
 40
0.6562500000000012
 40
0.687500000000001
 40
0.687500000000001
 40
0.7187500000000008
 40
0.7187500000000008
 40
0.7500000000000006
 40
0.7500000000000006
 40
0.8125000000000004
 40
0.8125000000000004
 40
0.8437500000000004
 40
0.8437500000000004
 40
0.8750000000000004
 40
0.8750000000000004
 40
0.9375000000000002
 40
0.9375000000000002
 40
0.9687500000000001
 40
0.9687500000000001
 40
1.0
 40
1.0
 40
1.0
 40
1.0
 10
3.77404803013602
 20
6.28276179463107
 30
0.0
 10
3.779152643876261
 20
6.285137228149516
 30
0.0
 10
3.783719216112292
 20
6.287782033182439
 30
0.0
 10
3.79214347418021
 20
6.293520214760487
 30
0.0
 10
3.795994140535966
 20
6.296615819842003
 30
0.0
 10
3.803119876822042
 20
6.303243911725446
 30
0.0
 10
3.806400119124257
 20
6.306791315549119
 30
0.0
 10
3.812313435111707
 20
6.314177463781177
 30
0.0
 10
3.814965870278753
 20
6.318032280966441
 30
0.0
 10
3.819702558196777
 20
6.326075887976581
 30
0.0
 10
3.821786351710548
 20
6.330264667954123
 30
0.0
 10
3.825370998055342
 20
6.33900014022524
 30
0.0
 10
3.826877031594029
 20
6.343568309001687
 30
0.0
 10
3.83038933753949
 20
6.357717078523296
 30
0.0
 10
3.831394432722119
 20
6.367599689047316
 30
0.0
 10
3.830452951352323
 20
6.383130570460626
 30
0.0
 10
3.829712360096118
 20
6.388462234562596
 30
0.0
 10
3.827309104793904
 20
6.399061674158637
 30
0.0
 10
3.825651133657192
 20
6.404353465988496
 30
0.0
 10
3.821300046287984
 20
6.41487422956224
 30
0.0
 10
3.818571696566104
 20
6.420153133496704
 30
0.0
 10
3.812089245448038
 20
6.430243358183968
 30
0.0
 10
3.80834209264903
 20
6.435070626614238
 30
0.0
 10
3.799723555353447
 20
6.444183836895761
 30
0.0
 10
3.79482466880847
 20
6.448468456195322
 30
0.0
 10
3.784280847721417
 20
6.455964520344193
 30
0.0
 10
3.778588377042574
 20
6.459237319267193
 30
0.0
 10
3.769360517930122
 20
6.463331256076489
 30
0.0
 10
3.76618209932549
 20
6.464550136126098
 30
0.0
 10
3.759765324964891
 20
6.466637856176951
 30
0.0
 10
3.756507041329384
 20
6.467515983273567
 30
0.0
 10
3.749890746437967
 20
6.468937645863904
 30
0.0
 10
3.746532749068693
 20
6.469481231140254
 30
0.0
 10
3.739713558703345
 20
6.470220013296045
 30
0.0
 10
3.736248065990894
 20
6.470412213074353
 30
0.0
 10
3.725977860535858
 20
6.470443802091724
 30
0.0
 10
3.719204194336986
 20
6.469757847491945
 30
0.0
 10
3.709154054085894
 20
6.46767020599727
 30
0.0
 10
3.705828960093033
 20
6.466794857876047
 30
0.0
 10
3.699385104576222
 20
6.464739089368695
 30
0.0
 10
3.696244358810338
 20
6.463554620282653
 30
0.0
 10
3.687059576223283
 20
6.459549798719359
 30
0.0
 10
3.681194281106567
 20
6.456232694242033
 30
0.0
 10
3.670534021960625
 20
6.44872811362178
 30
0.0
 10
3.665698985143624
 20
6.444539182372256
 30
0.0
 10
3.656963432660646
 20
6.435389185242543
 30
0.0
 10
3.653159194042985
 20
6.430521826839145
 30
0.0
 10
3.646641197120334
 20
6.420453976448366
 30
0.0
 10
3.643893311806454
 20
6.415187951520547
 30
0.0
 10
3.639477350896438
 20
6.40460336659082
 30
0.0
 10
3.637799096235096
 20
6.399289268752228
 30
0.0
 10
3.635364878190615
 20
6.388663402058664
 30
0.0
 10
3.634612685028076
 20
6.383325215108089
 30
0.0
 10
3.633640035744295
 20
6.367765266758441
 30
0.0
 10
3.634631865747608
 20
6.357870799521105
 30
0.0
 10
3.638123702703876
 20
6.343711532508488
 30
0.0
 10
3.639627899392698
 20
6.339124088349801
 30
0.0
 10
3.643217556070651
 20
6.330347986956045
 30
0.0
 10
3.645308388934398
 20
6.326135443245881
 30
0.0
 10
3.652453114219854
 20
6.313991681338144
 30
0.0
 10
3.658422505742913
 20
6.306495895742316
 30
0.0
 10
3.669059651795489
 20
6.296609075129931
 30
0.0
 10
3.672896093365777
 20
6.293523984607862
 30
0.0
 10
3.681306616988498
 20
6.287793468824927
 30
0.0
 10
3.685872970431092
 20
6.285145718933383
 30
0.0
 10
3.690995830176393
 20
6.28276179463107
 30
0.0
  0
LINE
  5
205
330
1F
100
AcDbEntity
  8
0
  6
CONTINUOUS
 62
     7
100
AcDbLine
 10
3.8506321664
 20
6.21932823
 30
0.0
 11
3.8506321664
 21
7.1247330444
 31
0.0
  0
LINE
  5
206
330
1F
100
AcDbEntity
  8
0
  6
CONTINUOUS
 62
     7
100
AcDbLine
 10
3.8506321664
 20
6.21932823
 30
0.0
 11
3.6078500141
 21
6.21932823
 31
0.0
  0
LINE
  5
207
330
1F
100
AcDbEntity
  8
0
  6
CONTINUOUS
 62
     7
100
AcDbLine
 10
3.6078500141
 20
6.8958944618
 30
0.0
 11
3.6078500141
 21
6.21932823
 31
0.0
  0
LINE
  5
208
330
1F
100
AcDbEntity
  8
0
  6
CONTINUOUS
 62
     7
100
AcDbLine
 10
3.581603295
 20
6.8958944618
 30
0.0
 11
3.6078500141
 21
6.8958944618
 31
0.0
  0
LINE
  5
209
330
1F
100
AcDbEntity
  8
0
  6
CONTINUOUS
 62
     7
100
AcDbLine
 10
3.581603295
 20
6.2192212334
 30
0.0
 11
3.581603295
 21
6.8958944618
 31
0.0
  0
LINE
  5
20A
330
1F
100
AcDbEntity
  8
0
  6
CONTINUOUS
 62
     7
100
AcDbLine
 10
3.8581321664
 20
7.1172330444
 30
0.0
 11
3.8581321664
 21
6.2268300327
 31
0.0
  0
LINE
  5
20B
330
1F
100
AcDbEntity
  8
0
  6
CONTINUOUS
 62
     7
100
AcDbLine
 10
3.8506321664
 20
6.21932823
 30
0.0
 11
3.8581321664
 21
6.2268300327
 31
0.0
  0
CIRCLE
  5
20C
330
1F
100
AcDbEntity
  8
0
  6
CONTINUOUS
 62
     7
100
AcDbCircle
 10
3.7325219302
 20
6.3719980115
 30
0.0
 40
0.0885826771653546
  0
CIRCLE
  5
20D
330
1F
100
AcDbEntity
  8
0
  6
CONTINUOUS
 62
     7
100
AcDbCircle
 10
3.7325219302
 20
6.3719980115
 30
0.0
 40
0.0984251968503935
  0
LINE
  5
20E
330
1F
100
AcDbEntity
  8
0
  6
CONTINUOUS
 62
     7
100
AcDbLine
 10
3.7817345286
 20
6.3435851045
 30
0.0
 11
3.7817345286
 21
6.4004109184
 31
0.0
  0
LINE
  5
20F
330
1F
100
AcDbEntity
  8
0
  6
CONTINUOUS
 62
     7
100
AcDbLine
 10
3.7817345286
 20
6.4004109184
 30
0.0
 11
3.7325219302
 21
6.4288238254
 31
0.0
  0
LINE
  5
210
330
1F
100
AcDbEntity
  8
0
  6
CONTINUOUS
 62
     7
100
AcDbLine
 10
3.7325219302
 20
6.4288238254
 30
0.0
 11
3.6833093317
 21
6.4004109184
 31
0.0
  0
LINE
  5
211
330
1F
100
AcDbEntity
  8
0
  6
CONTINUOUS
 62
     7
100
AcDbLine
 10
3.6833093317
 20
6.4004109184
 30
0.0
 11
3.6833093317
 21
6.3435851045
 31
0.0
  0
LINE
  5
212
330
1F
100
AcDbEntity
  8
0
  6
CONTINUOUS
 62
     7
100
AcDbLine
 10
3.6833093317
 20
6.3435851045
 30
0.0
 11
3.7325219302
 21
6.3151721976
 31
0.0
  0
LINE
  5
213
330
1F
100
AcDbEntity
  8
0
  6
CONTINUOUS
 62
     7
100
AcDbLine
 10
3.7325219302
 20
6.3151721976
 30
0.0
 11
3.7817345286
 21
6.3435851045
 31
0.0
  0
LINE
  5
214
330
1F
100
AcDbEntity
  8
0
  6
CONTINUOUS
 62
     7
100
AcDbLine
 10
2.9207502766
 20
6.9032763515
 30
0.0
 11
2.8790317945
 21
6.9032763515
 31
0.0
  0
LINE
  5
215
330
1F
100
AcDbEntity
  8
0
  6
CONTINUOUS
 62
     7
100
AcDbLine
 10
2.9624947473
 20
6.9032763515
 30
0.0
 11
2.9207502766
 21
6.9032763515
 31
0.0
  0
LINE
  5
216
330
1F
100
AcDbEntity
  8
0
  6
CONTINUOUS
 62
     7
100
AcDbLine
 10
2.9207502766
 20
7.0213865877
 30
0.0
 11
2.8321675994
 21
7.0213865877
 31
0.0
  0
LINE
  5
217
330
1F
100
AcDbEntity
  8
0
  6
CONTINUOUS
 62
     7
100
AcDbLine
 10
3.0093329538
 20
7.0213865877
 30
0.0
 11
2.9207502766
 21
7.0213865877
 31
0.0
  0
LINE
  5
218
330
1F
100
AcDbEntity
  8
0
  6
CONTINUOUS
 62
     7
100
AcDbLine
 10
2.8761458032
 20
6.3717802885
 30
0.0
 11
2.9657403997
 21
6.3717802885
 31
0.0
  0
LINE
  5
219
330
1F
100
AcDbEntity
  8
0
  6
CONTINUOUS
 62
     7
100
AcDbLine
 10
3.1077581506
 20
6.0026858003
 30
0.0
 11
3.1077581506
 21
7.3412684775
 31
0.0
  0
LINE
  5
21A
330
1F
100
AcDbEntity
  8
0
  6
CONTINUOUS
 62
     7
100
AcDbLine
 10
3.0979156309
 20
7.3314259578
 30
0.0
 11
3.0979156309
 21
6.01252832
 31
0.0
  0
LINE
  5
21B
330
1F
100
AcDbEntity
  8
0
  6
CONTINUOUS
 62
     7
100
AcDbLine
 10
3.2675809853
 20
6.6719771389
 30
0.0
 11
3.2675809853
 21
7.3412684775
 31
0.0
  0
LINE
  5
21C
330
1F
100
AcDbEntity
  8
0
  6
CONTINUOUS
 62
     7
100
AcDbLine
 10
3.2675809853
 20
6.0026858003
 30
0.0
 11
3.2675809853
 21
6.6719771389
 31
0.0
  0
LINE
  5
21D
330
1F
100
AcDbEntity
  8
0
  6
CONTINUOUS
 62
     7
100
AcDbLine
 10
3.3463211428
 20
6.7589735441
 30
0.0
 11
3.306951064
 21
6.7589735441
 31
0.0
  0
LINE
  5
21E
330
1F
100
AcDbEntity
  8
0
  6
CONTINUOUS
 62
     7
100
AcDbLine
 10
3.3463211428
 20
6.5849807338
 30
0.0
 11
3.306951064
 21
6.5849807338
 31
0.0
  0
LINE
  5
21F
330
1F
100
AcDbEntity
  8
0
  6
CONTINUOUS
 62
     7
100
AcDbLine
 10
3.3463211428
 20
6.7589735441
 30
0.0
 11
3.3463211428
 21
6.5849807338
 31
0.0
  0
LINE
  5
220
330
1F
100
AcDbEntity
  8
0
  6
CONTINUOUS
 62
     7
100
AcDbLine
 10
3.306951064
 20
6.7589735441
 30
0.0
 11
3.306951064
 21
6.5849807338
 31
0.0
  0
LINE
  5
221
330
1F
100
AcDbEntity
  8
0
  6
CONTINUOUS
 62
     7
100
AcDbLine
 10
3.3463211428
 20
7.2806270874
 30
0.0
 11
3.306951064
 21
7.2806270874
 31
0.0
  0
LINE
  5
222
330
1F
100
AcDbEntity
  8
0
  6
CONTINUOUS
 62
     7
100
AcDbLine
 10
3.3463211428
 20
7.2806270874
 30
0.0
 11
3.3463211428
 21
6.7589735441
 31
0.0
  0
LINE
  5
223
330
1F
100
AcDbEntity
  8
0
  6
CONTINUOUS
 62
     7
100
AcDbLine
 10
3.306951064
 20
7.2806270874
 30
0.0
 11
3.306951064
 21
6.7589735441
 31
0.0
  0
LINE
  5
224
330
1F
100
AcDbEntity
  8
0
  6
CONTINUOUS
 62
     7
100
AcDbLine
 10
3.3463211428
 20
6.0633271904
 30
0.0
 11
3.306951064
 21
6.0633271904
 31
0.0
  0
LINE
  5
225
330
1F
100
AcDbEntity
  8
0
  6
CONTINUOUS
 62
     7
100
AcDbLine
 10
3.3463211428
 20
6.5849807338
 30
0.0
 11
3.3463211428
 21
6.0633271904
 31
0.0
  0
LINE
  5
226
330
1F
100
AcDbEntity
  8
0
  6
CONTINUOUS
 62
     7
100
AcDbLine
 10
3.306951064
 20
6.5849807338
 30
0.0
 11
3.306951064
 21
6.0633271904
 31
0.0
  0
SPLINE
  5
227
330
1F
100
AcDbEntity
  8
0
  6
CONTINUOUS
 62
     7
100
AcDbSpline
210
0.0
220
0.0
230
1.0
 70
     8
 71
     3
 72
    70
 73
    66
 74
     0
 42
0.00000001
 43
0.00000001
 40
0.0
 40
0.0
 40
0.0
 40
0.0
 40
0.0312500000000003
 40
0.0312500000000003
 40
0.0625000000000005
 40
0.0625000000000005
 40
0.0937500000000008
 40
0.0937500000000008
 40
0.125000000000001
 40
0.125000000000001
 40
0.1562500000000013
 40
0.1562500000000013
 40
0.1875000000000016
 40
0.1875000000000016
 40
0.2500000000000025
 40
0.2500000000000025
 40
0.281250000000003
 40
0.281250000000003
 40
0.3125000000000034
 40
0.3125000000000034
 40
0.3437500000000039
 40
0.3437500000000039
 40
0.3750000000000044
 40
0.3750000000000044
 40
0.4062500000000049
 40
0.4062500000000049
 40
0.4375000000000054
 40
0.4375000000000054
 40
0.4531250000000056
 40
0.4531250000000056
 40
0.4687500000000058
 40
0.4687500000000058
 40
0.4843750000000061
 40
0.4843750000000061
 40
0.5000000000000063
 40
0.5000000000000063
 40
0.5312500000000066
 40
0.5312500000000066
 40
0.5468750000000064
 40
0.5468750000000064
 40
0.5625000000000064
 40
0.5625000000000064
 40
0.593750000000006
 40
0.593750000000006
 40
0.6250000000000056
 40
0.6250000000000056
 40
0.6562500000000052
 40
0.6562500000000052
 40
0.6875000000000048
 40
0.6875000000000048
 40
0.7187500000000043
 40
0.7187500000000043
 40
0.7500000000000039
 40
0.7500000000000039
 40
0.812500000000003
 40
0.812500000000003
 40
0.8437500000000026
 40
0.8437500000000026
 40
0.8750000000000022
 40
0.8750000000000022
 40
0.9375000000000011
 40
0.9375000000000011
 40
0.9687500000000007
 40
0.9687500000000007
 40
1.0
 40
1.0
 40
1.0
 40
1.0
 10
2.879224176633085
 20
6.903276351514854
 30
0.0
 10
2.874119562892844
 20
6.907273577291466
 30
0.0
 10
2.869552990656814
 20
6.911581715210405
 30
0.0
 10
2.861128732588895
 20
6.920546221485823
 30
0.0
 10
2.857278066233139
 20
6.925207489044412
 30
0.0
 10
2.850152329947063
 20
6.934765147106599
 30
0.0
 10
2.846872087644848
 20
6.939680047461278
 30
0.0
 10
2.840958771657398
 20
6.949474752068219
 30
0.0
 10
2.838306336490352
 20
6.954379541499261
 30
0.0
 10
2.833569648572328
 20
6.964176392940188
 30
0.0
 10
2.831485855058557
 20
6.96906867816653
 30
0.0
 10
2.827901208713763
 20
6.978827450709927
 30
0.0
 10
2.826395175175076
 20
6.983715891734341
 30
0.0
 10
2.822882869229615
 20
6.99818339699863
 30
0.0
 10
2.821877774046987
 20
7.00742857403791
 30
0.0
 10
2.822819255416782
 20
7.020691802648317
 30
0.0
 10
2.823559846672986
 20
7.025038516089092
 30
0.0
 10
2.825963101975201
 20
7.033294431801587
 30
0.0
 10
2.827621073111913
 20
7.037226562052552
 30
0.0
 10
2.831972160481121
 20
7.044707155703807
 30
0.0
 10
2.834700510203001
 20
7.048286574595895
 30
0.0
 10
2.841182961321068
 20
7.054846438207742
 30
0.0
 10
2.844930114120075
 20
7.057841623132583
 30
0.0
 10
2.853548651415658
 20
7.063290705388519
 30
0.0
 10
2.858447537960635
 20
7.065741225844841
 30
0.0
 10
2.868991359047687
 20
7.06990280537168
 30
0.0
 10
2.874683829726531
 20
7.07165096869632
 30
0.0
 10
2.883911688838984
 20
7.073794483396027
 30
0.0
 10
2.887090107443615
 20
7.074423811077676
 30
0.0
 10
2.893506881804214
 20
7.075493017642755
 30
0.0
 10
2.89676516543972
 20
7.075937755074015
 30
0.0
 10
2.903381460331138
 20
7.076654180313892
 30
0.0
 10
2.906739457700412
 20
7.076925885949803
 30
0.0
 10
2.91355864806576
 20
7.07729447465646
 30
0.0
 10
2.91702414077821
 20
7.077389880186823
 30
0.0
 10
2.927294346233247
 20
7.077405584732987
 30
0.0
 10
2.934068012432119
 20
7.077066877380572
 30
0.0
 10
2.944118152683211
 20
7.076015743694886
 30
0.0
 10
2.947443246676072
 20
7.07557282100754
 30
0.0
 10
2.953887102192883
 20
7.074521091641066
 30
0.0
 10
2.957027847958767
 20
7.073910258730853
 30
0.0
 10
2.966212630545821
 20
7.071816621107661
 30
0.0
 10
2.972077925662537
 20
7.070048301101294
 30
0.0
 10
2.98273818480848
 20
7.065888535395462
 30
0.0
 10
2.987573221625481
 20
7.063497598500834
 30
0.0
 10
2.996308774108459
 20
7.058037282581346
 30
0.0
 10
3.00011301272612
 20
7.055021858540028
 30
0.0
 10
3.006631009648771
 20
7.048487462418886
 30
0.0
 10
3.009378894962652
 20
7.044923979516801
 30
0.0
 10
3.013794855872667
 20
7.037410167732394
 30
0.0
 10
3.015473110534009
 20
7.033466482420092
 30
0.0
 10
3.017907328578489
 20
7.025200222121769
 30
0.0
 10
3.018659521741029
 20
7.020853126488493
 30
0.0
 10
3.01963217102481
 20
7.007579520018274
 30
0.0
 10
3.018640341021496
 20
6.998331568214117
 30
0.0
 10
3.015148504065229
 20
6.983866743783488
 30
0.0
 10
3.013644307376407
 20
6.978962495125463
 30
0.0
 10
3.010054650698454
 20
6.969165100868331
 30
0.0
 10
3.007963817834706
 20
6.964247754720286
 30
0.0
 10
3.000819092549251
 20
6.949460557414878
 30
0.0
 10
2.994849701026192
 20
6.939456461059907
 30
0.0
 10
2.984212554973616
 20
6.925196768670225
 30
0.0
 10
2.980376113403328
 20
6.920551803501711
 30
0.0
 10
2.971965589780607
 20
6.911599887241401
 30
0.0
 10
2.967399236338013
 20
6.907287865033
 30
0.0
 10
2.962276376592712
 20
6.903276351514854
 30
0.0
  0
SPLINE
  5
228
330
1F
100
AcDbEntity
  8
0
  6
CONTINUOUS
 62
     7
100
AcDbSpline
210
0.0
220
0.0
230
1.0
 70
     8
 71
     3
 72
    60
 73
    56
 74
     0
 42
0.00000001
 43
0.00000001
 40
-0.0312500000000002
 40
-0.0312500000000002
 40
0.0
 40
0.0
 40
0.0312499999999999
 40
0.0312499999999999
 40
0.0624999999999998
 40
0.0624999999999998
 40
0.0937499999999998
 40
0.0937499999999998
 40
0.1249999999999997
 40
0.1249999999999997
 40
0.1874999999999998
 40
0.1874999999999998
 40
0.2187499999999998
 40
0.2187499999999998
 40
0.2499999999999998
 40
0.2499999999999998
 40
0.3124999999999997
 40
0.3124999999999997
 40
0.3749999999999996
 40
0.3749999999999996
 40
0.4062499999999996
 40
0.4062499999999996
 40
0.4374999999999995
 40
0.4374999999999995
 40
0.4687499999999994
 40
0.4687499999999994
 40
0.4999999999999993
 40
0.4999999999999993
 40
0.5312499999999992
 40
0.5312499999999992
 40
0.5624999999999992
 40
0.5624999999999992
 40
0.5937499999999991
 40
0.5937499999999991
 40
0.624999999999999
 40
0.624999999999999
 40
0.656249999999999
 40
0.656249999999999
 40
0.6874999999999989
 40
0.6874999999999989
 40
0.7187499999999988
 40
0.7187499999999988
 40
0.7499999999999987
 40
0.7499999999999987
 40
0.7812499999999987
 40
0.7812499999999987
 40
0.8124999999999986
 40
0.8124999999999986
 40
0.874999999999999
 40
0.874999999999999
 40
0.9374999999999994
 40
0.9374999999999994
 40
0.9687499999999998
 40
0.9687499999999998
 40
1.0
 40
1.0
 40
1.03125
 40
1.03125
 10
2.925396169558437
 20
6.396146900377402
 30
0.0
 10
2.916104383667361
 20
6.396146900377402
 30
0.0
 10
2.911639195239411
 20
6.39544148906529
 30
0.0
 10
2.90301500054931
 20
6.39285138458981
 30
0.0
 10
2.899029007740581
 20
6.391015679880867
 30
0.0
 10
2.891702041768436
 20
6.386663114132442
 30
0.0
 10
2.888397082217492
 20
6.384168062699746
 30
0.0
 10
2.882455699062966
 20
6.378865543029505
 30
0.0
 10
2.87977928658845
 20
6.376020700235397
 30
0.0
 10
2.872601729863649
 20
6.367187533853205
 30
0.0
 10
2.869017393371998
 20
6.361056745030452
 30
0.0
 10
2.865102224037238
 20
6.351680700596676
 30
0.0
 10
2.864052810910231
 20
6.34851733077029
 30
0.0
 10
2.862518331695036
 20
6.342297243762587
 30
0.0
 10
2.862023320139058
 20
6.339219687800401
 30
0.0
 10
2.861388202607563
 20
6.330087258520926
 30
0.0
 10
2.862118971747099
 20
6.324075045457225
 30
0.0
 10
2.866278108268018
 20
6.313005797042796
 30
0.0
 10
2.869778634730488
 20
6.307798698468912
 30
0.0
 10
2.877283717038686
 20
6.301161363925567
 30
0.0
 10
2.880208690346874
 20
6.299102835812788
 30
0.0
 10
2.886741748046825
 20
6.295496234846772
 30
0.0
 10
2.890332469350845
 20
6.293943735116712
 30
0.0
 10
2.89824726149002
 20
6.29135881278077
 30
0.0
 10
2.902461297068252
 20
6.290367806407546
 30
0.0
 10
2.911219019204781
 20
6.289020893669342
 30
0.0
 10
2.915858963008724
 20
6.288661335687073
 30
0.0
 10
2.924992288820063
 20
6.28862977827351
 30
0.0
 10
2.929595892790754
 20
6.288950892392434
 30
0.0
 10
2.938466584290641
 20
6.290248985510685
 30
0.0
 10
2.942677297154312
 20
6.291207857021343
 30
0.0
 10
2.950670918040537
 20
6.293748891941564
 30
0.0
 10
2.95430780770122
 20
6.295286346260764
 30
0.0
 10
2.960913929340615
 20
6.298859742853343
 30
0.0
 10
2.963870390053077
 20
6.300899743295447
 30
0.0
 10
2.968953993002097
 20
6.305311150518337
 30
0.0
 10
2.971132098113324
 20
6.30772408689028
 30
0.0
 10
2.974714806735554
 20
6.312810388233729
 30
0.0
 10
2.976122521235391
 20
6.315474090355816
 30
0.0
 10
2.978265769224585
 20
6.321039632449493
 30
0.0
 10
2.978996197949943
 20
6.323948294386732
 30
0.0
 10
2.979810555817971
 20
6.329845908697256
 30
0.0
 10
2.97990341437628
 20
6.33285428886863
 30
0.0
 10
2.979508360843247
 20
6.338990599944347
 30
0.0
 10
2.979014968996847
 20
6.342125680778493
 30
0.0
 10
2.977494904199948
 20
6.348363000949934
 30
0.0
 10
2.976468535236557
 20
6.351483857127708
 30
0.0
 10
2.972595835446054
 20
6.360841623326849
 30
0.0
 10
2.968933738419997
 20
6.367123357844499
 30
0.0
 10
2.95946208145625
 20
6.378821834155741
 30
0.0
 10
2.953539111272412
 20
6.384419695783747
 30
0.0
 10
2.942596076837434
 20
6.390952128035547
 30
0.0
 10
2.938571512029276
 20
6.39281399543091
 30
0.0
 10
2.930006438516399
 20
6.395409182033458
 30
0.0
 10
2.925396169558437
 20
6.396146900377402
 30
0.0
 10
2.916104383667361
 20
6.396146900377402
 30
0.0
  0
LINE
  5
229
330
1F
100
AcDbEntity
  8
0
  6
CONTINUOUS
 62
     7
100
AcDbLine
 10
3.0716689118
 20
7.0654856426
 30
0.0
 11
3.0454221926
 21
7.0654856426
 31
0.0
  0
LINE
  5
22A
330
1F
100
AcDbEntity
  8
0
  6
CONTINUOUS
 62
     7
100
AcDbLine
 10
3.0454221926
 20
7.1247330444
 30
0.0
 11
3.0454221926
 21
6.6818196586
 31
0.0
  0
LINE
  5
22B
330
1F
100
AcDbEntity
  8
0
  6
CONTINUOUS
 62
     7
100
AcDbLine
 10
2.8026400404
 20
6.6818196586
 30
0.0
 11
3.0454221926
 21
6.6818196586
 31
0.0
  0
LINE
  5
22C
330
1F
100
AcDbEntity
  8
0
  6
CONTINUOUS
 62
     7
100
AcDbLine
 10
2.8026400404
 20
6.6818196586
 30
0.0
 11
2.8026400404
 21
7.1247330444
 31
0.0
  0
LINE
  5
22D
330
1F
100
AcDbEntity
  8
0
  6
CONTINUOUS
 62
     7
100
AcDbLine
 10
2.8026400404
 20
6.2192212334
 30
0.0
 11
2.8026400404
 21
6.6621346192
 31
0.0
  0
LINE
  5
22E
330
1F
100
AcDbEntity
  8
0
  6
CONTINUOUS
 62
     7
100
AcDbLine
 10
2.8026400404
 20
6.6621346192
 30
0.0
 11
3.0454221926
 21
6.6621346192
 31
0.0
  0
LINE
  5
22F
330
1F
100
AcDbEntity
  8
0
  6
CONTINUOUS
 62
     7
100
AcDbLine
 10
3.0454221926
 20
6.6621346192
 30
0.0
 11
3.0454221926
 21
6.2192212334
 31
0.0
  0
LINE
  5
230
330
1F
100
AcDbEntity
  8
0
  6
CONTINUOUS
 62
     7
100
AcDbLine
 10
3.0454221926
 20
6.2784686352
 30
0.0
 11
3.0716689118
 21
6.2784686352
 31
0.0
  0
LINE
  5
231
330
1F
100
AcDbEntity
  8
0
  6
CONTINUOUS
 62
     7
100
AcDbLine
 10
3.0716689118
 20
6.2192212334
 30
0.0
 11
3.0716689118
 21
7.1247330444
 31
0.0
  0
LINE
  5
232
330
1F
100
AcDbEntity
  8
0
  6
CONTINUOUS
 62
     7
100
AcDbLine
 10
2.8026400404
 20
6.6818196586
 30
0.0
 11
2.7951400404
 21
6.6818196586
 31
0.0
  0
LINE
  5
233
330
1F
100
AcDbEntity
  8
0
  6
CONTINUOUS
 62
     7
100
AcDbLine
 10
2.7951400404
 20
6.6621346192
 30
0.0
 11
2.7951400404
 21
6.2267212334
 31
0.0
  0
LINE
  5
234
330
1F
100
AcDbEntity
  8
0
  6
CONTINUOUS
 62
     7
100
AcDbLine
 10
2.7951400404
 20
7.1172330444
 30
0.0
 11
2.7951400404
 21
6.6818196586
 31
0.0
  0
LINE
  5
235
330
1F
100
AcDbEntity
  8
0
  6
CONTINUOUS
 62
     7
100
AcDbLine
 10
2.8026400404
 20
6.6621346192
 30
0.0
 11
2.7951400404
 21
6.6621346192
 31
0.0
  0
LINE
  5
236
330
1F
100
AcDbEntity
  8
0
  6
CONTINUOUS
 62
     7
100
AcDbLine
 10
3.3463211428
 20
7.3166621783
 30
0.0
 11
3.3463211428
 21
7.2806270874
 31
0.0
  0
LINE
  5
237
330
1F
100
AcDbEntity
  8
0
  6
CONTINUOUS
 62
     7
100
AcDbLine
 10
3.306951064
 20
7.3166621783
 30
0.0
 11
3.306951064
 21
7.2806270874
 31
0.0
  0
LINE
  5
238
330
1F
100
AcDbEntity
  8
0
  6
CONTINUOUS
 62
     7
100
AcDbLine
 10
3.3463211428
 20
6.0633271904
 30
0.0
 11
3.3463211428
 21
6.0272920995
 31
0.0
  0
LINE
  5
239
330
1F
100
AcDbEntity
  8
0
  6
CONTINUOUS
 62
     7
100
AcDbLine
 10
3.306951064
 20
6.0633271904
 30
0.0
 11
3.306951064
 21
6.0272920995
 31
0.0
  0
LINE
  5
23A
330
1F
100
AcDbEntity
  8
0
  6
CONTINUOUS
 62
     7
100
AcDbLine
 10
2.7951400404
 20
6.6818196586
 30
0.0
 11
2.7951400404
 21
6.6621346192
 31
0.0
  0
LINE
  5
23B
330
1F
100
AcDbEntity
  8
0
  6
CONTINUOUS
 62
     7
100
AcDbLine
 10
3.0454221926
 20
6.6621346192
 30
0.0
 11
3.0454221926
 21
6.6818196586
 31
0.0
  0
LINE
  5
23C
330
1F
100
AcDbEntity
  8
0
  6
CONTINUOUS
 62
     8
100
AcDbLine
 10
2.9207502766
 20
7.0115440681
 30
0.0
 11
3.0191754735
 21
7.0115440681
 31
0.0
  0
LINE
  5
23D
330
1F
100
AcDbEntity
  8
0
  6
CONTINUOUS
 62
     8
100
AcDbLine
 10
2.8223250798
 20
7.0115440681
 30
0.0
 11
2.9207502766
 21
7.0115440681
 31
0.0
  0
LINE
  5
23E
330
1F
100
AcDbEntity
  8
0
  6
CONTINUOUS
 62
     8
100
AcDbLine
 10
2.9561018056
 20
6.3816228082
 30
0.0
 11
2.8854649989
 21
6.3816228082
 31
0.0
  0
LINE
  5
23F
330
1F
100
AcDbEntity
  8
0
  6
HIDDEN
 62
     7
100
AcDbLine
 10
3.6909958302
 20
6.2827617946
 30
0.0
 11
3.7740480301
 21
6.2827617946
 31
0.0
  0
CIRCLE
  5
240
330
1F
100
AcDbEntity
  8
0
  6
HIDDEN
 62
     7
100
AcDbCircle
 10
3.7325219302
 20
6.3719980115
 30
0.0
 40
0.0590551181102361
  0
ARC
  5
241
330
1F
100
AcDbEntity
  8
0
  6
HIDDEN
 62
     7
100
AcDbCircle
 10
3.8581321664
 20
6.8196149342
 30
0.0
 40
0.2502821522309713
100
AcDbArc
 50
90.0
 51
180.0
  0
LINE
  5
242
330
1F
100
AcDbEntity
  8
0
  6
HIDDEN
 62
     7
100
AcDbLine
 10
3.8506321664
 20
6.8192864849
 30
0.0
 11
3.6078500141
 21
6.8192864849
 31
0.0
  0
LINE
  5
243
330
1F
100
AcDbEntity
  8
0
  6
HIDDEN
 62
     7
100
AcDbLine
 10
3.8506321664
 20
6.8192864849
 30
0.0
 11
3.8581321664
 21
6.8268023963
 31
0.0
  0
LINE
  5
244
330
1F
100
AcDbEntity
  8
0
  6
HIDDEN
 62
     7
100
AcDbLine
 10
3.6078500141
 20
6.524667793
 30
0.0
 11
3.8506321664
 21
6.524667793
 31
0.0
  0
LINE
  5
245
330
1F
100
AcDbEntity
  8
0
  6
HIDDEN
 62
     7
100
AcDbLine
 10
3.8581321664
 20
6.5171518815
 30
0.0
 11
3.8506321664
 21
6.524667793
 31
0.0
  0
CIRCLE
  5
246
330
1F
100
AcDbEntity
  8
0
  6
HIDDEN
 62
     7
100
AcDbCircle
 10
3.7325219302
 20
6.3719980115
 30
0.0
 40
0.0492125984251972
  0
LINE
  5
247
330
1F
100
AcDbEntity
  8
0
  6
HIDDEN
 62
     7
100
AcDbLine
 10
2.8790317945
 20
6.9032763515
 30
0.0
 11
2.8223250798
 21
6.9032763515
 31
0.0
  0
LINE
  5
248
330
1F
100
AcDbEntity
  8
0
  6
HIDDEN
 62
     7
100
AcDbLine
 10
3.0191754735
 20
6.9032763515
 30
0.0
 11
2.9624947473
 21
6.9032763515
 31
0.0
  0
LINE
  5
249
330
1F
100
AcDbEntity
  8
0
  6
HIDDEN
 62
     7
100
AcDbLine
 10
2.8715376782
 20
6.3717802885
 30
0.0
 11
2.8761458032
 21
6.3717802885
 31
0.0
  0
LINE
  5
24A
330
1F
100
AcDbEntity
  8
0
  6
HIDDEN
 62
     7
100
AcDbLine
 10
2.9657403997
 20
6.3717802885
 30
0.0
 11
2.969962875
 21
6.3717802885
 31
0.0
  0
LINE
  5
24B
330
1F
100
AcDbEntity
  8
0
  6
HIDDEN
 62
     7
100
AcDbLine
 10
2.9207502766
 20
6.9426464303
 30
0.0
 11
2.9207502766
 21
7.0213865877
 31
0.0
  0
LINE
  5
24C
330
1F
100
AcDbEntity
  8
0
  6
HIDDEN
 62
     7
100
AcDbLine
 10
2.9207502766
 20
6.9426464303
 30
0.0
 11
2.8715376782
 21
6.9426464303
 31
0.0
  0
LINE
  5
24D
330
1F
100
AcDbEntity
  8
0
  6
HIDDEN
 62
     7
100
AcDbLine
 10
2.969962875
 20
6.9426464303
 30
0.0
 11
2.9207502766
 21
6.9426464303
 31
0.0
  0
LINE
  5
24E
330
1F
100
AcDbEntity
  8
0
  6
HIDDEN
 62
     7
100
AcDbLine
 10
2.969962875
 20
6.9426464303
 30
0.0
 11
2.969962875
 21
7.0213865877
 31
0.0
  0
LINE
  5
24F
330
1F
100
AcDbEntity
  8
0
  6
HIDDEN
 62
     7
100
AcDbLine
 10
2.8715376782
 20
6.9426464303
 30
0.0
 11
2.8715376782
 21
7.0213865877
 31
0.0
  0
LINE
  5
250
330
1F
100
AcDbEntity
  8
0
  6
HIDDEN
 62
     7
100
AcDbLine
 10
2.8026400404
 20
6.6818196586
 30
0.0
 11
2.8026400404
 21
6.6621346192
 31
0.0
  0
LINE
  5
251
330
1F
100
AcDbEntity
  8
0
  6
HIDDEN
 62
     7
100
AcDbLine
 10
2.8792241766
 20
6.9032763515
 30
0.0
 11
2.8223250798
 21
6.9032763515
 31
0.0
  0
LINE
  5
252
330
1F
100
AcDbEntity
  8
0
  6
HIDDEN
 62
     7
100
AcDbLine
 10
3.0191754735
 20
6.9032763515
 30
0.0
 11
2.9622763766
 21
6.9032763515
 31
0.0
  0
LINE
  5
253
330
1F
100
AcDbEntity
  8
0
  6
HIDDEN
 62
     7
100
AcDbLine
 10
3.3463211428
 20
7.2806270874
 30
0.0
 11
3.306951064
 21
7.2806270874
 31
0.0
  0
LINE
  5
254
330
1F
100
AcDbEntity
  8
0
  6
HIDDEN
 62
     7
100
AcDbLine
 10
3.3463211428
 20
6.0633271904
 30
0.0
 11
3.306951064
 21
6.0633271904
 31
0.0
  0
LINE
  5
255
330
1F
100
AcDbEntity
  8
0
  6
HIDDEN
 62
     7
100
AcDbLine
 10
3.3463211428
 20
6.5849807338
 30
0.0
 11
3.306951064
 21
6.5849807338
 31
0.0
  0
LINE
  5
256
330
1F
100
AcDbEntity
  8
0
  6
HIDDEN
 62
     7
100
AcDbLine
 10
3.3463211428
 20
6.7589735441
 30
0.0
 11
3.306951064
 21
6.7589735441
 31
0.0
  0
LINE
  5
257
330
1F
100
AcDbEntity
  8
0
  6
HIDDEN
 62
     7
100
AcDbLine
 10
3.581603295
 20
6.8196149342
 30
0.0
 11
3.3856912215
 21
6.8196149342
 31
0.0
  0
LINE
  5
258
330
1F
100
AcDbEntity
  8
0
  6
HIDDEN
 62
     7
100
AcDbLine
 10
3.3856912215
 20
6.5243393436
 30
0.0
 11
3.581603295
 21
6.5243393436
 31
0.0
  0
LINE
  5
259
330
1F
100
AcDbEntity
  8
0
  6
HIDDEN
 62
     7
100
AcDbLine
 10
3.0191754735
 20
6.9032763515
 30
0.0
 11
3.0191754735
 21
7.0077346563
 31
0.0
  0
LINE
  5
25A
330
1F
100
AcDbEntity
  8
0
  6
HIDDEN
 62
     7
100
AcDbLine
 10
2.8223250798
 20
7.008011004
 30
0.0
 11
2.8223250798
 21
6.9032763515
 31
0.0
  0
LINE
  5
25B
330
1F
100
AcDbEntity
  8
0
  6
HIDDEN
 62
     7
100
AcDbLine
 10
2.8616951585
 20
6.9032763515
 30
0.0
 11
2.8616951585
 21
6.6818196586
 31
0.0
  0
LINE
  5
25C
330
1F
100
AcDbEntity
  8
0
  6
HIDDEN
 62
     7
100
AcDbLine
 10
2.8616951585
 20
6.6621346192
 30
0.0
 11
2.8616951585
 21
6.3816228082
 31
0.0
  0
LINE
  5
25D
330
1F
100
AcDbEntity
  8
0
  6
HIDDEN
 62
     7
100
AcDbLine
 10
2.9798053947
 20
6.3816228082
 30
0.0
 11
2.9798053947
 21
6.6621346192
 31
0.0
  0
LINE
  5
25E
330
1F
100
AcDbEntity
  8
0
  6
HIDDEN
 62
     7
100
AcDbLine
 10
2.9798053947
 20
6.6818196586
 30
0.0
 11
2.9798053947
 21
6.9032763515
 31
0.0
  0
ARC
  5
25F
330
1F
100
AcDbEntity
  8
0
  6
HIDDEN
 62
     7
100
AcDbCircle
 10
2.969962875
 20
6.3816228082
 30
0.0
 40
0.0098425196850394
100
AcDbArc
 50
270.0
 51
0.0
  0
ARC
  5
260
330
1F
100
AcDbEntity
  8
0
  6
HIDDEN
 62
     7
100
AcDbCircle
 10
2.8715376782
 20
6.3816228082
 30
0.0
 40
0.0098425196850394
100
AcDbArc
 50
180.0
 51
270.0
  0
LINE
  5
261
330
1F
100
AcDbEntity
  8
0
  6
HIDDEN
 62
     7
100
AcDbLine
 10
3.0191754735
 20
6.9032763515
 30
0.0
 11
3.0191754735
 21
7.0108117575
 31
0.0
  0
LINE
  5
262
330
1F
100
AcDbEntity
  8
0
  6
HIDDEN
 62
     7
100
AcDbLine
 10
2.8223250798
 20
7.0108276687
 30
0.0
 11
2.8223250798
 21
6.9032763515
 31
0.0
  0
LINE
  5
263
330
1F
100
AcDbEntity
  8
0
  6
HIDDEN
 62
     7
100
AcDbLine
 10
2.8616951585
 20
6.6621346192
 30
0.0
 11
2.8616951585
 21
6.3329710194
 31
0.0
  0
LINE
  5
264
330
1F
100
AcDbEntity
  8
0
  6
HIDDEN
 62
     7
100
AcDbLine
 10
2.9798053947
 20
6.3329115491
 30
0.0
 11
2.9798053947
 21
6.6621346192
 31
0.0
  0
LINE
  5
265
330
1F
100
AcDbEntity
  8
0
  6
HIDDEN
 62
     7
100
AcDbLine
 10
2.8616951585
 20
6.9032763515
 30
0.0
 11
2.8616951585
 21
6.6818196586
 31
0.0
  0
LINE
  5
266
330
1F
100
AcDbEntity
  8
0
  6
HIDDEN
 62
     7
100
AcDbLine
 10
2.9798053947
 20
6.6818196586
 30
0.0
 11
2.9798053947
 21
6.9032763515
 31
0.0
  0
LINE
  5
267
330
1F
100
AcDbEntity
  8
0
  6
HIDDEN
 62
     7
100
AcDbLine
 10
3.3463211428
 20
6.8589850129
 30
0.0
 11
3.306951064
 21
6.8589850129
 31
0.0
  0
LINE
  5
268
330
1F
100
AcDbEntity
  8
0
  6
HIDDEN
 62
     7
100
AcDbLine
 10
3.306951064
 20
6.4849692649
 30
0.0
 11
3.3463211428
 21
6.4849692649
 31
0.0
  0
LINE
  5
269
330
1F
100
AcDbEntity
  8
0
  6
HIDDEN
 62
     7
100
AcDbLine
 10
2.8026400404
 20
6.8196149342
 30
0.0
 11
2.7951400404
 21
6.8271149342
 31
0.0
  0
LINE
  5
26A
330
1F
100
AcDbEntity
  8
0
  6
HIDDEN
 62
     7
100
AcDbLine
 10
2.7951400404
 20
6.5168393436
 30
0.0
 11
2.8026400404
 21
6.5243393436
 31
0.0
  0
LINE
  5
26B
330
1F
100
AcDbEntity
  8
0
  6
HIDDEN
 62
     7
100
AcDbLine
 10
3.0716689118
 20
6.5243393436
 30
0.0
 11
3.2675809853
 21
6.5243393436
 31
0.0
  0
LINE
  5
26C
330
1F
100
AcDbEntity
  8
0
  6
HIDDEN
 62
     7
100
AcDbLine
 10
3.2675809853
 20
6.8196149342
 30
0.0
 11
3.0716689118
 21
6.8196149342
 31
0.0
  0
LINE
  5
26D
330
1F
100
AcDbEntity
  8
0
  6
HIDDEN
 62
     7
100
AcDbLine
 10
3.0454221926
 20
6.8196149342
 30
0.0
 11
2.8026400404
 21
6.8196149342
 31
0.0
  0
LINE
  5
26E
330
1F
100
AcDbEntity
  8
0
  6
HIDDEN
 62
     7
100
AcDbLine
 10
2.8026400404
 20
6.5243393436
 30
0.0
 11
3.0454221926
 21
6.5243393436
 31
0.0
  0
LINE
  5
26F
330
1F
100
AcDbEntity
  8
0
  6
HIDDEN
 62
     7
100
AcDbLine
 10
3.0191754735
 20
7.0115440681
 30
0.0
 11
2.8223250798
 21
7.0115440681
 31
0.0
  0
LINE
  5
270
330
1F
100
AcDbEntity
  8
0
  6
HIDDEN
 62
     7
100
AcDbLine
 10
2.9207502766
 20
6.3816228082
 30
0.0
 11
2.9797575009
 21
6.3816228082
 31
0.0
  0
LINE
  5
271
330
1F
100
AcDbEntity
  8
0
  6
HIDDEN
 62
     7
100
AcDbLine
 10
2.9207502766
 20
6.3816228082
 30
0.0
 11
2.8617430523
 21
6.3816228082
 31
0.0
  0
LINE
  5
272
330
1F
100
AcDbEntity
  8
0
  6
CONTINUOUS
 62
     7
100
AcDbLine
 10
8.3283873918
 20
6.2166408294
 30
0.0
 11
8.335345973
 21
6.2206592388
 31
0.0
  0
LINE
  5
273
330
1F
100
AcDbEntity
  8
0
  6
CONTINUOUS
 62
     7
100
AcDbLine
 10
8.8015709177
 20
7.0282720374
 30
0.0
 11
8.8015709177
 21
7.0363075503
 31
0.0
  0
LINE
  5
274
330
1F
100
AcDbEntity
  8
0
  6
CONTINUOUS
 62
     7
100
AcDbLine
 10
7.88068019
 20
6.2487014382
 30
0.0
 11
7.9936920001
 21
6.1834611089
 31
0.0
  0
LINE
  5
275
330
1F
100
AcDbEntity
  8
0
  6
CONTINUOUS
 62
     7
100
AcDbLine
 10
8.6629289472
 20
7.3427391137
 30
0.0
 11
8.549917137
 21
7.407979443
 31
0.0
  0
LINE
  5
276
330
1F
100
AcDbEntity
  8
0
  6
CONTINUOUS
 62
     7
100
AcDbLine
 10
8.5441135913
 20
6.2688860293
 30
0.0
 11
8.5494160302
 21
6.2719480573
 31
0.0
  0
LINE
  5
277
330
1F
100
AcDbEntity
  8
0
  6
CONTINUOUS
 62
     7
100
AcDbLine
 10
8.8642083295
 20
6.8172433973
 30
0.0
 11
8.8642083295
 21
6.8233664581
 31
0.0
  0
LINE
  5
278
330
1F
100
AcDbEntity
  8
0
  6
CONTINUOUS
 62
     7
100
AcDbLine
 10
8.2733983863
 20
6.2720168577
 30
0.0
 11
8.3177020028
 21
6.2464409242
 31
0.0
  0
LINE
  5
279
330
1F
100
AcDbEntity
  8
0
  6
CONTINUOUS
 62
     7
100
AcDbLine
 10
8.1460290966
 20
6.3455455835
 30
0.0
 11
8.1904827412
 21
6.3198830407
 31
0.0
  0
LINE
  5
27A
330
1F
100
AcDbEntity
  8
0
  6
CONTINUOUS
 62
     7
100
AcDbLine
 10
8.1089106304
 20
6.3669736179
 30
0.0
 11
8.1274698635
 21
6.3562596007
 31
0.0
  0
LINE
  5
27B
330
1F
100
AcDbEntity
  8
0
  6
CONTINUOUS
 62
     7
100
AcDbLine
 10
8.7704211141
 20
7.030658398
 30
0.0
 11
8.5616297417
 21
7.1511910917
 31
0.0
  0
SPLINE
  5
27C
330
1F
100
AcDbEntity
  8
0
  6
CONTINUOUS
 62
     7
100
AcDbSpline
210
0.0
220
0.0
230
1.0
 70
     8
 71
     3
 72
    32
 73
    28
 74
     0
 42
0.00000001
 43
0.00000001
 40
0.0
 40
0.0
 40
0.0
 40
0.0
 40
0.0233380853847578
 40
0.0621458875530188
 40
0.101840218490346
 40
0.1423511786741208
 40
0.1834275430184033
 40
0.2247846038424152
 40
0.266191159264959
 40
0.3075330529917428
 40
0.3487854964758363
 40
0.3899571524788035
 40
0.431072633603019
 40
0.4721635485648691
 40
0.5132645307559923
 40
0.5544011380097216
 40
0.5956088175075145
 40
0.6369239154198271
 40
0.6783790501907413
 40
0.7199952678245439
 40
0.7617653776202317
 40
0.8036082672009051
 40
0.8452901461047002
 40
0.8864805489809248
 40
0.9268222281421035
 40
0.9661315814603288
 40
0.9999999999999999
 40
0.9999999999999999
 40
0.9999999999999999
 40
0.9999999999999999
 10
8.343387671895206
 20
6.857541490874996
 30
0.0
 10
8.342804799130725
 20
6.858948272995699
 30
0.0
 10
8.34125269471933
 20
6.862694326797603
 30
0.0
 10
8.337352501316195
 20
6.868390426248824
 30
0.0
 10
8.331875257971996
 20
6.874611818421698
 30
0.0
 10
8.325172521682534
 20
6.880382201654086
 30
0.0
 10
8.3173958318819
 20
6.885633056236149
 30
0.0
 10
8.308646171418621
 20
6.890273451911757
 30
0.0
 10
8.299072559976759
 20
6.894236480703157
 30
0.0
 10
8.288823517348627
 20
6.897472992655681
 30
0.0
 10
8.278046556570416
 20
6.899949999985712
 30
0.0
 10
8.26688673935395
 20
6.901644754124378
 30
0.0
 10
8.255490183193883
 20
6.902542331600445
 30
0.0
 10
8.244003898057981
 20
6.902635025476911
 30
0.0
 10
8.232575962357858
 20
6.901922260078579
 30
0.0
 10
8.221353223698191
 20
6.900410632034758
 30
0.0
 10
8.21047947611275
 20
6.898113412764276
 30
0.0
 10
8.200093264814711
 20
6.895049328101241
 30
0.0
 10
8.190328295203544
 20
6.891241545262376
 30
0.0
 10
8.181314263979713
 20
6.886717013397027
 30
0.0
 10
8.173180854234621
 20
6.881507945008556
 30
0.0
 10
8.166062362335929
 20
6.875659112401334
 30
0.0
 10
8.160100689213172
 20
6.869238220288485
 30
0.0
 10
8.15541258342616
 20
6.862347953876812
 30
0.0
 10
8.152144349873835
 20
6.855127741362699
 30
0.0
 10
8.150244063510682
 20
6.848026611841014
 30
0.0
 10
8.150129109912022
 20
6.843354541284634
 30
0.0
 10
8.150075906644236
 20
6.841192195574551
 30
0.0
  0
LINE
  5
27D
330
1F
100
AcDbEntity
  8
0
  6
CONTINUOUS
 62
     7
100
AcDbLine
 10
8.1500025374
 20
6.8415802981
 30
0.0
 11
8.1500025374
 21
6.7752159731
 31
0.0
  0
SPLINE
  5
27E
330
1F
100
AcDbEntity
  8
0
  6
CONTINUOUS
 62
     7
100
AcDbSpline
210
0.0
220
0.0
230
1.0
 70
     8
 71
     3
 72
    17
 73
    13
 74
     0
 42
0.00000001
 43
0.00000001
 40
0.0
 40
0.0
 40
0.0
 40
0.0
 40
0.0461103511355348
 40
0.1440724173671201
 40
0.2442738888193395
 40
0.348276597119437
 40
0.4561474926662247
 40
0.5665971734473754
 40
0.6779593749286631
 40
0.7890997484590379
 40
0.8998414771725516
 40
1.0
 40
1.0
 40
1.0
 40
1.0
 10
8.190079998051104
 20
6.321908709049256
 30
0.0
 10
8.190233521813013
 20
6.320993124268555
 30
0.0
 10
8.190713208888841
 20
6.318132367206171
 30
0.0
 10
8.192880298480691
 20
6.313594201291036
 30
0.0
 10
8.196406185640226
 20
6.308427491588424
 30
0.0
 10
8.201147046536983
 20
6.30369272159107
 30
0.0
 10
8.206974482667006
 20
6.299447656173212
 30
0.0
 10
8.213813158313927
 20
6.295806921647362
 30
0.0
 10
8.221473948605492
 20
6.292866763503588
 30
0.0
 10
8.229745319432817
 20
6.290722607030638
 30
0.0
 10
8.238142253553708
 20
6.289358691536638
 30
0.0
 10
8.243790840719393
 20
6.289133623159667
 30
0.0
 10
8.246473408153255
 20
6.28902673606016
 30
0.0
  0
SPLINE
  5
27F
330
1F
100
AcDbEntity
  8
0
  6
CONTINUOUS
 62
     7
100
AcDbSpline
210
0.0
220
0.0
230
1.0
 70
     8
 71
     3
 72
    22
 73
    18
 74
     0
 42
0.00000001
 43
0.00000001
 40
0.0
 40
0.0
 40
0.0
 40
0.0
 40
0.0311960953163937
 40
0.0984891198786077
 40
0.1656853145185667
 40
0.2344389426994275
 40
0.3058070156867905
 40
0.3798188788052136
 40
0.4555813070726707
 40
0.5319523178931821
 40
0.6081672872094273
 40
0.6841093339630361
 40
0.759861825743523
 40
0.8355869408282735
 40
0.911451127516833
 40
0.9876191554207534
 40
1.0
 40
1.0
 40
1.0
 40
1.0
 10
7.652140703498423
 20
7.19574973370947
 30
0.0
 10
7.651323446247829
 20
7.19533873980976
 30
0.0
 10
7.648743285285089
 20
7.194041191926045
 30
0.0
 10
7.645169873660538
 20
7.190636162611844
 30
0.0
 10
7.641564216155881
 20
7.185810260812812
 30
0.0
 10
7.638911620513422
 20
7.180101410212446
 30
0.0
 10
7.637182410564108
 20
7.173633274729197
 30
0.0
 10
7.636438279539691
 20
7.166449165712849
 30
0.0
 10
7.636717613723258
 20
7.1586998012294
 30
0.0
 10
7.638020442514283
 20
7.150592733783149
 30
0.0
 10
7.640298706875771
 20
7.142350168803784
 30
0.0
 10
7.643477722492363
 20
7.134168370288335
 30
0.0
 10
7.647478304823143
 20
7.126228182148916
 30
0.0
 10
7.652200363054442
 20
7.118663823255689
 30
0.0
 10
7.657591969064201
 20
7.111741904577751
 30
0.0
 10
7.661764622786928
 20
7.107039547613911
 30
0.0
 10
7.664207848472535
 20
7.104977403882313
 30
0.0
 10
7.664549458666288
 20
7.10468907631444
 30
0.0
  0
LINE
  5
280
330
1F
100
AcDbEntity
  8
0
  6
CONTINUOUS
 62
     7
100
AcDbLine
 10
8.466400588
 20
7.4561925205
 30
0.0
 11
8.3533887779
 21
7.5214328498
 31
0.0
  0
LINE
  5
281
330
1F
100
AcDbEntity
  8
0
  6
CONTINUOUS
 62
     7
100
AcDbLine
 10
7.6841518308
 20
6.362154845
 30
0.0
 11
7.797163641
 21
6.2969145157
 31
0.0
  0
LINE
  5
282
330
1F
100
AcDbEntity
  8
0
  6
CONTINUOUS
 62
     7
100
AcDbLine
 10
8.0186933862
 20
7.4882531293
 30
0.0
 11
8.011734805
 21
7.4842347198
 31
0.0
  0
LINE
  5
283
330
1F
100
AcDbEntity
  8
0
  6
CONTINUOUS
 62
     7
100
AcDbLine
 10
7.5455098603
 20
6.6766219213
 30
0.0
 11
7.5455098603
 21
6.6685864084
 31
0.0
  0
LINE
  5
284
330
1F
100
AcDbEntity
  8
0
  6
CONTINUOUS
 62
     7
100
AcDbLine
 10
7.4828724485
 20
6.8876505614
 30
0.0
 11
7.4828724485
 21
6.8815275006
 31
0.0
  0
POLYLINE
  5
285
330
1F
100
AcDbEntity
  8
0
  6
CONTINUOUS
 62
     7
100
AcDb2dPolyline
 66
     1
 10
0.0
 20
0.0
 30
0.0
  0
VERTEX
  5
2F2
330
285
100
AcDbEntity
  8
0
  6
CONTINUOUS
 62
     7
100
AcDbVertex
100
AcDb2dVertex
 10
8.3283873918
 20
6.2166408294
 30
0.0
  0
VERTEX
  5
2F3
330
285
100
AcDbEntity
  8
0
  6
CONTINUOUS
 62
     7
100
AcDbVertex
100
AcDb2dVertex
 10
8.3115456563
 20
6.2072612972
 30
0.0
  0
VERTEX
  5
2F4
330
285
100
AcDbEntity
  8
0
  6
CONTINUOUS
 62
     7
100
AcDbVertex
100
AcDb2dVertex
 10
8.2892289359
 20
6.195901714
 30
0.0
  0
VERTEX
  5
2F5
330
285
100
AcDbEntity
  8
0
  6
CONTINUOUS
 62
     7
100
AcDbVertex
100
AcDb2dVertex
 10
8.2669994217
 20
6.1858077721
 30
0.0
  0
VERTEX
  5
2F6
330
285
100
AcDbEntity
  8
0
  6
CONTINUOUS
 62
     7
100
AcDbVertex
100
AcDb2dVertex
 10
8.2449067165
 20
6.1770019952
 30
0.0
  0
VERTEX
  5
2F7
330
285
100
AcDbEntity
  8
0
  6
CONTINUOUS
 62
     7
100
AcDbVertex
100
AcDb2dVertex
 10
8.2230001176
 20
6.1695040324
 30
0.0
  0
VERTEX
  5
2F8
330
285
100
AcDbEntity
  8
0
  6
CONTINUOUS
 62
     7
100
AcDbVertex
100
AcDb2dVertex
 10
8.2013285073
 20
6.1633306145
 30
0.0
  0
VERTEX
  5
2F9
330
285
100
AcDbEntity
  8
0
  6
CONTINUOUS
 62
     7
100
AcDbVertex
100
AcDb2dVertex
 10
8.1799402435
 20
6.1584955169
 30
0.0
  0
VERTEX
  5
2FA
330
285
100
AcDbEntity
  8
0
  6
CONTINUOUS
 62
     7
100
AcDbVertex
100
AcDb2dVertex
 10
8.1588830516
 20
6.1550095286
 30
0.0
  0
VERTEX
  5
2FB
330
285
100
AcDbEntity
  8
0
  6
CONTINUOUS
 62
     7
100
AcDbVertex
100
AcDb2dVertex
 10
8.1382039186
 20
6.1528804281
 30
0.0
  0
VERTEX
  5
2FC
330
285
100
AcDbEntity
  8
0
  6
CONTINUOUS
 62
     7
100
AcDbVertex
100
AcDb2dVertex
 10
8.1179489876
 20
6.1521129663
 30
0.0
  0
VERTEX
  5
2FD
330
285
100
AcDbEntity
  8
0
  6
CONTINUOUS
 62
     7
100
AcDbVertex
100
AcDb2dVertex
 10
8.0981634554
 20
6.1527088558
 30
0.0
  0
VERTEX
  5
2FE
330
285
100
AcDbEntity
  8
0
  6
CONTINUOUS
 62
     7
100
AcDbVertex
100
AcDb2dVertex
 10
8.0788914711
 20
6.1546667669
 30
0.0
  0
VERTEX
  5
2FF
330
285
100
AcDbEntity
  8
0
  6
CONTINUOUS
 62
     7
100
AcDbVertex
100
AcDb2dVertex
 10
8.0601760382
 20
6.1579823306
 30
0.0
  0
VERTEX
  5
300
330
285
100
AcDbEntity
  8
0
  6
CONTINUOUS
 62
     7
100
AcDbVertex
100
AcDb2dVertex
 10
8.042058918
 20
6.1626481488
 30
0.0
  0
VERTEX
  5
301
330
285
100
AcDbEntity
  8
0
  6
CONTINUOUS
 62
     7
100
AcDbVertex
100
AcDb2dVertex
 10
8.024580537
 20
6.16865381
 30
0.0
  0
VERTEX
  5
302
330
285
100
AcDbEntity
  8
0
  6
CONTINUOUS
 62
     7
100
AcDbVertex
100
AcDb2dVertex
 10
8.0077798963
 20
6.1759859134
 30
0.0
  0
VERTEX
  5
303
330
285
100
AcDbEntity
  8
0
  6
CONTINUOUS
 62
     7
100
AcDbVertex
100
AcDb2dVertex
 10
7.9916944846
 20
6.1846280981
 30
0.0
  0
VERTEX
  5
304
330
285
100
AcDbEntity
  8
0
  6
CONTINUOUS
 62
     7
100
AcDbVertex
100
AcDb2dVertex
 10
7.9763601948
 20
6.1945610802
 30
0.0
  0
VERTEX
  5
305
330
285
100
AcDbEntity
  8
0
  6
CONTINUOUS
 62
     7
100
AcDbVertex
100
AcDb2dVertex
 10
7.9618112437
 20
6.205762695
 30
0.0
  0
VERTEX
  5
306
330
285
100
AcDbEntity
  8
0
  6
CONTINUOUS
 62
     7
100
AcDbVertex
100
AcDb2dVertex
 10
7.9480800957
 20
6.2182079476
 30
0.0
  0
VERTEX
  5
307
330
285
100
AcDbEntity
  8
0
  6
CONTINUOUS
 62
     7
100
AcDbVertex
100
AcDb2dVertex
 10
7.9351973903
 20
6.2318690677
 30
0.0
  0
VERTEX
  5
308
330
285
100
AcDbEntity
  8
0
  6
CONTINUOUS
 62
     7
100
AcDbVertex
100
AcDb2dVertex
 10
7.9231918739
 20
6.246715572
 30
0.0
  0
VERTEX
  5
309
330
285
100
AcDbEntity
  8
0
  6
CONTINUOUS
 62
     7
100
AcDbVertex
100
AcDb2dVertex
 10
7.9120903356
 20
6.2627143321
 30
0.0
  0
VERTEX
  5
30A
330
285
100
AcDbEntity
  8
0
  6
CONTINUOUS
 62
     7
100
AcDbVertex
100
AcDb2dVertex
 10
7.9019175471
 20
6.2798296485
 30
0.0
  0
VERTEX
  5
30B
330
285
100
AcDbEntity
  8
0
  6
CONTINUOUS
 62
     7
100
AcDbVertex
100
AcDb2dVertex
 10
7.892696208
 20
6.2980233303
 30
0.0
  0
VERTEX
  5
30C
330
285
100
AcDbEntity
  8
0
  6
CONTINUOUS
 62
     7
100
AcDbVertex
100
AcDb2dVertex
 10
7.8844468946
 20
6.3172547802
 30
0.0
  0
VERTEX
  5
30D
330
285
100
AcDbEntity
  8
0
  6
CONTINUOUS
 62
     7
100
AcDbVertex
100
AcDb2dVertex
 10
7.8771880145
 20
6.3374810855
 30
0.0
  0
VERTEX
  5
30E
330
285
100
AcDbEntity
  8
0
  6
CONTINUOUS
 62
     7
100
AcDbVertex
100
AcDb2dVertex
 10
7.8709357649
 20
6.3586571132
 30
0.0
  0
VERTEX
  5
30F
330
285
100
AcDbEntity
  8
0
  6
CONTINUOUS
 62
     7
100
AcDbVertex
100
AcDb2dVertex
 10
7.8657040972
 20
6.3807356113
 30
0.0
  0
VERTEX
  5
310
330
285
100
AcDbEntity
  8
0
  6
CONTINUOUS
 62
     7
100
AcDbVertex
100
AcDb2dVertex
 10
7.8615046852
 20
6.4036673142
 30
0.0
  0
VERTEX
  5
311
330
285
100
AcDbEntity
  8
0
  6
CONTINUOUS
 62
     7
100
AcDbVertex
100
AcDb2dVertex
 10
7.8583468994
 20
6.4274010522
 30
0.0
  0
VERTEX
  5
312
330
285
100
AcDbEntity
  8
0
  6
CONTINUOUS
 62
     7
100
AcDbVertex
100
AcDb2dVertex
 10
7.8562377861
 20
6.4518838661
 30
0.0
  0
VERTEX
  5
313
330
285
100
AcDbEntity
  8
0
  6
CONTINUOUS
 62
     7
100
AcDbVertex
100
AcDb2dVertex
 10
7.8551820516
 20
6.4770611251
 30
0.0
  0
VERTEX
  5
314
330
285
100
AcDbEntity
  8
0
  6
CONTINUOUS
 62
     7
100
AcDbVertex
100
AcDb2dVertex
 10
7.8551820516
 20
6.5028766489
 30
0.0
  0
VERTEX
  5
315
330
285
100
AcDbEntity
  8
0
  6
CONTINUOUS
 62
     7
100
AcDbVertex
100
AcDb2dVertex
 10
7.8562377861
 20
6.529272833
 30
0.0
  0
VERTEX
  5
316
330
285
100
AcDbEntity
  8
0
  6
CONTINUOUS
 62
     7
100
AcDbVertex
100
AcDb2dVertex
 10
7.8583468994
 20
6.5561907772
 30
0.0
  0
VERTEX
  5
317
330
285
100
AcDbEntity
  8
0
  6
CONTINUOUS
 62
     7
100
AcDbVertex
100
AcDb2dVertex
 10
7.8615046852
 20
6.5835704171
 30
0.0
  0
VERTEX
  5
318
330
285
100
AcDbEntity
  8
0
  6
CONTINUOUS
 62
     7
100
AcDbVertex
100
AcDb2dVertex
 10
7.8657040972
 20
6.6113506579
 30
0.0
  0
VERTEX
  5
319
330
285
100
AcDbEntity
  8
0
  6
CONTINUOUS
 62
     7
100
AcDbVertex
100
AcDb2dVertex
 10
7.8709357649
 20
6.639469511
 30
0.0
  0
VERTEX
  5
31A
330
285
100
AcDbEntity
  8
0
  6
CONTINUOUS
 62
     7
100
AcDbVertex
100
AcDb2dVertex
 10
7.8771880145
 20
6.6678642324
 30
0.0
  0
VERTEX
  5
31B
330
285
100
AcDbEntity
  8
0
  6
CONTINUOUS
 62
     7
100
AcDbVertex
100
AcDb2dVertex
 10
7.8844468946
 20
6.6964714623
 30
0.0
  0
VERTEX
  5
31C
330
285
100
AcDbEntity
  8
0
  6
CONTINUOUS
 62
     7
100
AcDbVertex
100
AcDb2dVertex
 10
7.892696208
 20
6.7252273667
 30
0.0
  0
VERTEX
  5
31D
330
285
100
AcDbEntity
  8
0
  6
CONTINUOUS
 62
     7
100
AcDbVertex
100
AcDb2dVertex
 10
7.9019175471
 20
6.75406778
 30
0.0
  0
VERTEX
  5
31E
330
285
100
AcDbEntity
  8
0
  6
CONTINUOUS
 62
     7
100
AcDbVertex
100
AcDb2dVertex
 10
7.9120903356
 20
6.782928348
 30
0.0
  0
VERTEX
  5
31F
330
285
100
AcDbEntity
  8
0
  6
CONTINUOUS
 62
     7
100
AcDbVertex
100
AcDb2dVertex
 10
7.9231918739
 20
6.8117446715
 30
0.0
  0
VERTEX
  5
320
330
285
100
AcDbEntity
  8
0
  6
CONTINUOUS
 62
     7
100
AcDbVertex
100
AcDb2dVertex
 10
7.9351973903
 20
6.8404524499
 30
0.0
  0
VERTEX
  5
321
330
285
100
AcDbEntity
  8
0
  6
CONTINUOUS
 62
     7
100
AcDbVertex
100
AcDb2dVertex
 10
7.9480800957
 20
6.868987625
 30
0.0
  0
VERTEX
  5
322
330
285
100
AcDbEntity
  8
0
  6
CONTINUOUS
 62
     7
100
AcDbVertex
100
AcDb2dVertex
 10
7.9618112437
 20
6.8972865236
 30
0.0
  0
VERTEX
  5
323
330
285
100
AcDbEntity
  8
0
  6
CONTINUOUS
 62
     7
100
AcDbVertex
100
AcDb2dVertex
 10
7.9763601948
 20
6.9252859999
 30
0.0
  0
VERTEX
  5
324
330
285
100
AcDbEntity
  8
0
  6
CONTINUOUS
 62
     7
100
AcDbVertex
100
AcDb2dVertex
 10
7.9916944846
 20
6.952923576
 30
0.0
  0
VERTEX
  5
325
330
285
100
AcDbEntity
  8
0
  6
CONTINUOUS
 62
     7
100
AcDbVertex
100
AcDb2dVertex
 10
8.0077798963
 20
6.9801375818
 30
0.0
  0
VERTEX
  5
326
330
285
100
AcDbEntity
  8
0
  6
CONTINUOUS
 62
     7
100
AcDbVertex
100
AcDb2dVertex
 10
8.024580537
 20
7.0068672921
 30
0.0
  0
VERTEX
  5
327
330
285
100
AcDbEntity
  8
0
  6
CONTINUOUS
 62
     7
100
AcDbVertex
100
AcDb2dVertex
 10
8.042058918
 20
7.0330530625
 30
0.0
  0
VERTEX
  5
328
330
285
100
AcDbEntity
  8
0
  6
CONTINUOUS
 62
     7
100
AcDbVertex
100
AcDb2dVertex
 10
8.0601760382
 20
7.0586364624
 30
0.0
  0
VERTEX
  5
329
330
285
100
AcDbEntity
  8
0
  6
CONTINUOUS
 62
     7
100
AcDbVertex
100
AcDb2dVertex
 10
8.0788914711
 20
7.083560405
 30
0.0
  0
VERTEX
  5
32A
330
285
100
AcDbEntity
  8
0
  6
CONTINUOUS
 62
     7
100
AcDbVertex
100
AcDb2dVertex
 10
8.0981634554
 20
7.1077692755
 30
0.0
  0
VERTEX
  5
32B
330
285
100
AcDbEntity
  8
0
  6
CONTINUOUS
 62
     7
100
AcDbVertex
100
AcDb2dVertex
 10
8.1179489876
 20
7.1312090542
 30
0.0
  0
VERTEX
  5
32C
330
285
100
AcDbEntity
  8
0
  6
CONTINUOUS
 62
     7
100
AcDbVertex
100
AcDb2dVertex
 10
8.1382039186
 20
7.153827438
 30
0.0
  0
VERTEX
  5
32D
330
285
100
AcDbEntity
  8
0
  6
CONTINUOUS
 62
     7
100
AcDbVertex
100
AcDb2dVertex
 10
8.1588830516
 20
7.1755739563
 30
0.0
  0
VERTEX
  5
32E
330
285
100
AcDbEntity
  8
0
  6
CONTINUOUS
 62
     7
100
AcDbVertex
100
AcDb2dVertex
 10
8.1799402435
 20
7.1964000842
 30
0.0
  0
VERTEX
  5
32F
330
285
100
AcDbEntity
  8
0
  6
CONTINUOUS
 62
     7
100
AcDbVertex
100
AcDb2dVertex
 10
8.2013285073
 20
7.2162593504
 30
0.0
  0
VERTEX
  5
330
330
285
100
AcDbEntity
  8
0
  6
CONTINUOUS
 62
     7
100
AcDbVertex
100
AcDb2dVertex
 10
8.2230001176
 20
7.2351074412
 30
0.0
  0
VERTEX
  5
331
330
285
100
AcDbEntity
  8
0
  6
CONTINUOUS
 62
     7
100
AcDbVertex
100
AcDb2dVertex
 10
8.2449067165
 20
7.252902299
 30
0.0
  0
VERTEX
  5
332
330
285
100
AcDbEntity
  8
0
  6
CONTINUOUS
 62
     7
100
AcDbVertex
100
AcDb2dVertex
 10
8.2669994217
 20
7.2696042167
 30
0.0
  0
VERTEX
  5
333
330
285
100
AcDbEntity
  8
0
  6
CONTINUOUS
 62
     7
100
AcDbVertex
100
AcDb2dVertex
 10
8.2892289359
 20
7.2851759256
 30
0.0
  0
VERTEX
  5
334
330
285
100
AcDbEntity
  8
0
  6
CONTINUOUS
 62
     7
100
AcDbVertex
100
AcDb2dVertex
 10
8.3115456563
 20
7.2995826792
 30
0.0
  0
VERTEX
  5
335
330
285
100
AcDbEntity
  8
0
  6
CONTINUOUS
 62
     7
100
AcDbVertex
100
AcDb2dVertex
 10
8.3338997856
 20
7.3127923305
 30
0.0
  0
VERTEX
  5
336
330
285
100
AcDbEntity
  8
0
  6
CONTINUOUS
 62
     7
100
AcDbVertex
100
AcDb2dVertex
 10
8.3562414429
 20
7.3247754034
 30
0.0
  0
VERTEX
  5
337
330
285
100
AcDbEntity
  8
0
  6
CONTINUOUS
 62
     7
100
AcDbVertex
100
AcDb2dVertex
 10
8.3785207753
 20
7.3355051592
 30
0.0
  0
VERTEX
  5
338
330
285
100
AcDbEntity
  8
0
  6
CONTINUOUS
 62
     7
100
AcDbVertex
100
AcDb2dVertex
 10
8.4006880688
 20
7.3449576555
 30
0.0
  0
VERTEX
  5
339
330
285
100
AcDbEntity
  8
0
  6
CONTINUOUS
 62
     7
100
AcDbVertex
100
AcDb2dVertex
 10
8.4226938597
 20
7.3531118001
 30
0.0
  0
VERTEX
  5
33A
330
285
100
AcDbEntity
  8
0
  6
CONTINUOUS
 62
     7
100
AcDbVertex
100
AcDb2dVertex
 10
8.4444890443
 20
7.3599493979
 30
0.0
  0
VERTEX
  5
33B
330
285
100
AcDbEntity
  8
0
  6
CONTINUOUS
 62
     7
100
AcDbVertex
100
AcDb2dVertex
 10
8.4660249891
 20
7.3654551915
 30
0.0
  0
VERTEX
  5
33C
330
285
100
AcDbEntity
  8
0
  6
CONTINUOUS
 62
     7
100
AcDbVertex
100
AcDb2dVertex
 10
8.487253639
 20
7.3696168954
 30
0.0
  0
VERTEX
  5
33D
330
285
100
AcDbEntity
  8
0
  6
CONTINUOUS
 62
     7
100
AcDbVertex
100
AcDb2dVertex
 10
8.5081276245
 20
7.3724252233
 30
0.0
  0
VERTEX
  5
33E
330
285
100
AcDbEntity
  8
0
  6
CONTINUOUS
 62
     7
100
AcDbVertex
100
AcDb2dVertex
 10
8.5286003676
 20
7.3738739085
 30
0.0
  0
VERTEX
  5
33F
330
285
100
AcDbEntity
  8
0
  6
CONTINUOUS
 62
     7
100
AcDbVertex
100
AcDb2dVertex
 10
8.5486261857
 20
7.3739597186
 30
0.0
  0
VERTEX
  5
340
330
285
100
AcDbEntity
  8
0
  6
CONTINUOUS
 62
     7
100
AcDbVertex
100
AcDb2dVertex
 10
8.5681603933
 20
7.372682462
 30
0.0
  0
VERTEX
  5
341
330
285
100
AcDbEntity
  8
0
  6
CONTINUOUS
 62
     7
100
AcDbVertex
100
AcDb2dVertex
 10
8.5871594019
 20
7.3700449888
 30
0.0
  0
VERTEX
  5
342
330
285
100
AcDbEntity
  8
0
  6
CONTINUOUS
 62
     7
100
AcDbVertex
100
AcDb2dVertex
 10
8.6055808173
 20
7.3660531843
 30
0.0
  0
VERTEX
  5
343
330
285
100
AcDbEntity
  8
0
  6
CONTINUOUS
 62
     7
100
AcDbVertex
100
AcDb2dVertex
 10
8.6233835342
 20
7.3607159557
 30
0.0
  0
VERTEX
  5
344
330
285
100
AcDbEntity
  8
0
  6
CONTINUOUS
 62
     7
100
AcDbVertex
100
AcDb2dVertex
 10
8.6405278277
 20
7.3540452125
 30
0.0
  0
VERTEX
  5
345
330
285
100
AcDbEntity
  8
0
  6
CONTINUOUS
 62
     7
100
AcDbVertex
100
AcDb2dVertex
 10
8.6569754422
 20
7.3460558397
 30
0.0
  0
VERTEX
  5
346
330
285
100
AcDbEntity
  8
0
  6
CONTINUOUS
 62
     7
100
AcDbVertex
100
AcDb2dVertex
 10
8.6726896766
 20
7.3367656647
 30
0.0
  0
VERTEX
  5
347
330
285
100
AcDbEntity
  8
0
  6
CONTINUOUS
 62
     7
100
AcDbVertex
100
AcDb2dVertex
 10
8.6876354664
 20
7.3261954176
 30
0.0
  0
VERTEX
  5
348
330
285
100
AcDbEntity
  8
0
  6
CONTINUOUS
 62
     7
100
AcDbVertex
100
AcDb2dVertex
 10
8.7017794616
 20
7.3143686846
 30
0.0
  0
VERTEX
  5
349
330
285
100
AcDbEntity
  8
0
  6
CONTINUOUS
 62
     7
100
AcDbVertex
100
AcDb2dVertex
 10
8.7150901014
 20
7.3013118559
 30
0.0
  0
VERTEX
  5
34A
330
285
100
AcDbEntity
  8
0
  6
CONTINUOUS
 62
     7
100
AcDbVertex
100
AcDb2dVertex
 10
8.7275376847
 20
7.2870540663
 30
0.0
  0
VERTEX
  5
34B
330
285
100
AcDbEntity
  8
0
  6
CONTINUOUS
 62
     7
100
AcDbVertex
100
AcDb2dVertex
 10
8.739094436
 20
7.2716271306
 30
0.0
  0
VERTEX
  5
34C
330
285
100
AcDbEntity
  8
0
  6
CONTINUOUS
 62
     7
100
AcDbVertex
100
AcDb2dVertex
 10
8.7497345676
 20
7.2550654723
 30
0.0
  0
VERTEX
  5
34D
330
285
100
AcDbEntity
  8
0
  6
CONTINUOUS
 62
     7
100
AcDbVertex
100
AcDb2dVertex
 10
8.7594343373
 20
7.2374060469
 30
0.0
  0
VERTEX
  5
34E
330
285
100
AcDbEntity
  8
0
  6
CONTINUOUS
 62
     7
100
AcDbVertex
100
AcDb2dVertex
 10
8.768172101
 20
7.2186882594
 30
0.0
  0
VERTEX
  5
34F
330
285
100
AcDbEntity
  8
0
  6
CONTINUOUS
 62
     7
100
AcDbVertex
100
AcDb2dVertex
 10
8.7759283615
 20
7.1989538767
 30
0.0
  0
VERTEX
  5
350
330
285
100
AcDbEntity
  8
0
  6
CONTINUOUS
 62
     7
100
AcDbVertex
100
AcDb2dVertex
 10
8.7826858114
 20
7.1782469337
 30
0.0
  0
VERTEX
  5
351
330
285
100
AcDbEntity
  8
0
  6
CONTINUOUS
 62
     7
100
AcDbVertex
100
AcDb2dVertex
 10
8.7884293723
 20
7.1566136359
 30
0.0
  0
VERTEX
  5
352
330
285
100
AcDbEntity
  8
0
  6
CONTINUOUS
 62
     7
100
AcDbVertex
100
AcDb2dVertex
 10
8.793146228
 20
7.1341022556
 30
0.0
  0
VERTEX
  5
353
330
285
100
AcDbEntity
  8
0
  6
CONTINUOUS
 62
     7
100
AcDbVertex
100
AcDb2dVertex
 10
8.7968258534
 20
7.1107630244
 30
0.0
  0
VERTEX
  5
354
330
285
100
AcDbEntity
  8
0
  6
CONTINUOUS
 62
     7
100
AcDbVertex
100
AcDb2dVertex
 10
8.7994600377
 20
7.0866480212
 30
0.0
  0
VERTEX
  5
355
330
285
100
AcDbEntity
  8
0
  6
CONTINUOUS
 62
     7
100
AcDbVertex
100
AcDb2dVertex
 10
8.8010429032
 20
7.0618110562
 30
0.0
  0
VERTEX
  5
356
330
285
100
AcDbEntity
  8
0
  6
CONTINUOUS
 62
     7
100
AcDbVertex
100
AcDb2dVertex
 10
8.8015709177
 20
7.0363075503
 30
0.0
  0
VERTEX
  5
357
330
285
100
AcDbEntity
  8
0
  6
CONTINUOUS
 62
     7
100
AcDbVertex
100
AcDb2dVertex
 10
8.8015709177
 20
7.0363075503
 30
0.0
  0
SEQEND
  5
358
330
285
100
AcDbEntity
  8
0
  6
CONTINUOUS
 62
     7
  0
POLYLINE
  5
286
330
1F
100
AcDbEntity
  8
0
  6
CONTINUOUS
 62
     7
100
AcDb2dPolyline
 66
     1
 10
0.0
 20
0.0
 30
0.0
  0
VERTEX
  5
359
330
286
100
AcDbEntity
  8
0
  6
CONTINUOUS
 62
     7
100
AcDbVertex
100
AcDb2dVertex
 10
8.8012208036
 20
7.0072075229
 30
0.0
  0
VERTEX
  5
35A
330
286
100
AcDbEntity
  8
0
  6
CONTINUOUS
 62
     7
100
AcDbVertex
100
AcDb2dVertex
 10
8.8015709177
 20
7.0282720374
 30
0.0
  0
VERTEX
  5
35B
330
286
100
AcDbEntity
  8
0
  6
CONTINUOUS
 62
     7
100
AcDbVertex
100
AcDb2dVertex
 10
8.8010427572
 20
7.0535884222
 30
0.0
  0
VERTEX
  5
35C
330
286
100
AcDbEntity
  8
0
  6
CONTINUOUS
 62
     7
100
AcDbVertex
100
AcDb2dVertex
 10
8.7994594719
 20
7.0782376561
 30
0.0
  0
VERTEX
  5
35D
330
286
100
AcDbEntity
  8
0
  6
CONTINUOUS
 62
     7
100
AcDbVertex
100
AcDb2dVertex
 10
8.7968246486
 20
7.1021639006
 30
0.0
  0
VERTEX
  5
35E
330
286
100
AcDbEntity
  8
0
  6
CONTINUOUS
 62
     7
100
AcDbVertex
100
AcDb2dVertex
 10
8.7931442561
 20
7.1253129551
 30
0.0
  0
VERTEX
  5
35F
330
286
100
AcDbEntity
  8
0
  6
CONTINUOUS
 62
     7
100
AcDbVertex
100
AcDb2dVertex
 10
8.7884266314
 20
7.1476323794
 30
0.0
  0
VERTEX
  5
360
330
286
100
AcDbEntity
  8
0
  6
CONTINUOUS
 62
     7
100
AcDbVertex
100
AcDb2dVertex
 10
8.7826824617
 20
7.169071613
 30
0.0
  0
VERTEX
  5
361
330
286
100
AcDbEntity
  8
0
  6
CONTINUOUS
 62
     7
100
AcDbVertex
100
AcDb2dVertex
 10
8.7759247593
 20
7.189582089
 30
0.0
  0
VERTEX
  5
362
330
286
100
AcDbEntity
  8
0
  6
CONTINUOUS
 62
     7
100
AcDbVertex
100
AcDb2dVertex
 10
8.7681688325
 20
7.2091173447
 30
0.0
  0
VERTEX
  5
363
330
286
100
AcDbEntity
  8
0
  6
CONTINUOUS
 62
     7
100
AcDbVertex
100
AcDb2dVertex
 10
8.7594322511
 20
7.2276331263
 30
0.0
  0
VERTEX
  5
364
330
286
100
AcDbEntity
  8
0
  6
CONTINUOUS
 62
     7
100
AcDbVertex
100
AcDb2dVertex
 10
8.7497348061
 20
7.2450874898
 30
0.0
  0
VERTEX
  5
365
330
286
100
AcDbEntity
  8
0
  6
CONTINUOUS
 62
     7
100
AcDbVertex
100
AcDb2dVertex
 10
8.7390984655
 20
7.2614408953
 30
0.0
  0
VERTEX
  5
366
330
286
100
AcDbEntity
  8
0
  6
CONTINUOUS
 62
     7
100
AcDbVertex
100
AcDb2dVertex
 10
8.727547324
 20
7.2766562972
 30
0.0
  0
VERTEX
  5
367
330
286
100
AcDbEntity
  8
0
  6
CONTINUOUS
 62
     7
100
AcDbVertex
100
AcDb2dVertex
 10
8.7151075485
 20
7.2906992276
 30
0.0
  0
VERTEX
  5
368
330
286
100
AcDbEntity
  8
0
  6
CONTINUOUS
 62
     7
100
AcDbVertex
100
AcDb2dVertex
 10
8.7018073193
 20
7.3035378748
 30
0.0
  0
VERTEX
  5
369
330
286
100
AcDbEntity
  8
0
  6
CONTINUOUS
 62
     7
100
AcDbVertex
100
AcDb2dVertex
 10
8.6876767656
 20
7.3151431551
 30
0.0
  0
VERTEX
  5
36A
330
286
100
AcDbEntity
  8
0
  6
CONTINUOUS
 62
     7
100
AcDbVertex
100
AcDb2dVertex
 10
8.6727478976
 20
7.3254887789
 30
0.0
  0
VERTEX
  5
36B
330
286
100
AcDbEntity
  8
0
  6
CONTINUOUS
 62
     7
100
AcDbVertex
100
AcDb2dVertex
 10
8.657054534
 20
7.3345513099
 30
0.0
  0
VERTEX
  5
36C
330
286
100
AcDbEntity
  8
0
  6
CONTINUOUS
 62
     7
100
AcDbVertex
100
AcDb2dVertex
 10
8.6406322255
 20
7.3423102187
 30
0.0
  0
VERTEX
  5
36D
330
286
100
AcDbEntity
  8
0
  6
CONTINUOUS
 62
     7
100
AcDbVertex
100
AcDb2dVertex
 10
8.6235181736
 20
7.3487479288
 30
0.0
  0
VERTEX
  5
36E
330
286
100
AcDbEntity
  8
0
  6
CONTINUOUS
 62
     7
100
AcDbVertex
100
AcDb2dVertex
 10
8.6057511474
 20
7.3538498567
 30
0.0
  0
VERTEX
  5
36F
330
286
100
AcDbEntity
  8
0
  6
CONTINUOUS
 62
     7
100
AcDbVertex
100
AcDb2dVertex
 10
8.5873713948
 20
7.3576044449
 30
0.0
  0
VERTEX
  5
370
330
286
100
AcDbEntity
  8
0
  6
CONTINUOUS
 62
     7
100
AcDbVertex
100
AcDb2dVertex
 10
8.5684205519
 20
7.3600031881
 30
0.0
  0
VERTEX
  5
371
330
286
100
AcDbEntity
  8
0
  6
CONTINUOUS
 62
     7
100
AcDbVertex
100
AcDb2dVertex
 10
8.5489415484
 20
7.3610406523
 30
0.0
  0
VERTEX
  5
372
330
286
100
AcDbEntity
  8
0
  6
CONTINUOUS
 62
     7
100
AcDbVertex
100
AcDb2dVertex
 10
8.5289785106
 20
7.3607144873
 30
0.0
  0
VERTEX
  5
373
330
286
100
AcDbEntity
  8
0
  6
CONTINUOUS
 62
     7
100
AcDbVertex
100
AcDb2dVertex
 10
8.5085766611
 20
7.3590254321
 30
0.0
  0
VERTEX
  5
374
330
286
100
AcDbEntity
  8
0
  6
CONTINUOUS
 62
     7
100
AcDbVertex
100
AcDb2dVertex
 10
8.4877822167
 20
7.3559773128
 30
0.0
  0
VERTEX
  5
375
330
286
100
AcDbEntity
  8
0
  6
CONTINUOUS
 62
     7
100
AcDbVertex
100
AcDb2dVertex
 10
8.4666422835
 20
7.3515770345
 30
0.0
  0
VERTEX
  5
376
330
286
100
AcDbEntity
  8
0
  6
CONTINUOUS
 62
     7
100
AcDbVertex
100
AcDb2dVertex
 10
8.4452047502
 20
7.3458345651
 30
0.0
  0
VERTEX
  5
377
330
286
100
AcDbEntity
  8
0
  6
CONTINUOUS
 62
     7
100
AcDbVertex
100
AcDb2dVertex
 10
8.4235181798
 20
7.3387629133
 30
0.0
  0
VERTEX
  5
378
330
286
100
AcDbEntity
  8
0
  6
CONTINUOUS
 62
     7
100
AcDbVertex
100
AcDb2dVertex
 10
8.4016316993
 20
7.3303780986
 30
0.0
  0
VERTEX
  5
379
330
286
100
AcDbEntity
  8
0
  6
CONTINUOUS
 62
     7
100
AcDbVertex
100
AcDb2dVertex
 10
8.3795948886
 20
7.3206991152
 30
0.0
  0
VERTEX
  5
37A
330
286
100
AcDbEntity
  8
0
  6
CONTINUOUS
 62
     7
100
AcDbVertex
100
AcDb2dVertex
 10
8.3574576682
 20
7.3097478893
 30
0.0
  0
VERTEX
  5
37B
330
286
100
AcDbEntity
  8
0
  6
CONTINUOUS
 62
     7
100
AcDbVertex
100
AcDb2dVertex
 10
8.3352701861
 20
7.2975492288
 30
0.0
  0
VERTEX
  5
37C
330
286
100
AcDbEntity
  8
0
  6
CONTINUOUS
 62
     7
100
AcDbVertex
100
AcDb2dVertex
 10
8.3130827039
 20
7.2841307677
 30
0.0
  0
VERTEX
  5
37D
330
286
100
AcDbEntity
  8
0
  6
CONTINUOUS
 62
     7
100
AcDbVertex
100
AcDb2dVertex
 10
8.2909454835
 20
7.269522903
 30
0.0
  0
VERTEX
  5
37E
330
286
100
AcDbEntity
  8
0
  6
CONTINUOUS
 62
     7
100
AcDbVertex
100
AcDb2dVertex
 10
8.2689086728
 20
7.2537587263
 30
0.0
  0
VERTEX
  5
37F
330
286
100
AcDbEntity
  8
0
  6
CONTINUOUS
 62
     7
100
AcDbVertex
100
AcDb2dVertex
 10
8.2470221923
 20
7.2368739485
 30
0.0
  0
VERTEX
  5
380
330
286
100
AcDbEntity
  8
0
  6
CONTINUOUS
 62
     7
100
AcDbVertex
100
AcDb2dVertex
 10
8.2253356219
 20
7.2189068191
 30
0.0
  0
VERTEX
  5
381
330
286
100
AcDbEntity
  8
0
  6
CONTINUOUS
 62
     7
100
AcDbVertex
100
AcDb2dVertex
 10
8.2038980887
 20
7.1998980394
 30
0.0
  0
VERTEX
  5
382
330
286
100
AcDbEntity
  8
0
  6
CONTINUOUS
 62
     7
100
AcDbVertex
100
AcDb2dVertex
 10
8.1827581555
 20
7.1798906704
 30
0.0
  0
VERTEX
  5
383
330
286
100
AcDbEntity
  8
0
  6
CONTINUOUS
 62
     7
100
AcDbVertex
100
AcDb2dVertex
 10
8.161963711
 20
7.1589300352
 30
0.0
  0
VERTEX
  5
384
330
286
100
AcDbEntity
  8
0
  6
CONTINUOUS
 62
     7
100
AcDbVertex
100
AcDb2dVertex
 10
8.1415618615
 20
7.1370636164
 30
0.0
  0
VERTEX
  5
385
330
286
100
AcDbEntity
  8
0
  6
CONTINUOUS
 62
     7
100
AcDbVertex
100
AcDb2dVertex
 10
8.1215988237
 20
7.1143409484
 30
0.0
  0
VERTEX
  5
386
330
286
100
AcDbEntity
  8
0
  6
CONTINUOUS
 62
     7
100
AcDbVertex
100
AcDb2dVertex
 10
8.1021198202
 20
7.0908135055
 30
0.0
  0
VERTEX
  5
387
330
286
100
AcDbEntity
  8
0
  6
CONTINUOUS
 62
     7
100
AcDbVertex
100
AcDb2dVertex
 10
8.0831689773
 20
7.0665345848
 30
0.0
  0
VERTEX
  5
388
330
286
100
AcDbEntity
  8
0
  6
CONTINUOUS
 62
     7
100
AcDbVertex
100
AcDb2dVertex
 10
8.0647892247
 20
7.041559186
 30
0.0
  0
VERTEX
  5
389
330
286
100
AcDbEntity
  8
0
  6
CONTINUOUS
 62
     7
100
AcDbVertex
100
AcDb2dVertex
 10
8.0470221985
 20
7.0159438863
 30
0.0
  0
VERTEX
  5
38A
330
286
100
AcDbEntity
  8
0
  6
CONTINUOUS
 62
     7
100
AcDbVertex
100
AcDb2dVertex
 10
8.0299081467
 20
6.9897467126
 30
0.0
  0
VERTEX
  5
38B
330
286
100
AcDbEntity
  8
0
  6
CONTINUOUS
 62
     7
100
AcDbVertex
100
AcDb2dVertex
 10
8.0134858381
 20
6.9630270099
 30
0.0
  0
VERTEX
  5
38C
330
286
100
AcDbEntity
  8
0
  6
CONTINUOUS
 62
     7
100
AcDbVertex
100
AcDb2dVertex
 10
7.9977924745
 20
6.935845307
 30
0.0
  0
VERTEX
  5
38D
330
286
100
AcDbEntity
  8
0
  6
CONTINUOUS
 62
     7
100
AcDbVertex
100
AcDb2dVertex
 10
7.9828636066
 20
6.9082631791
 30
0.0
  0
VERTEX
  5
38E
330
286
100
AcDbEntity
  8
0
  6
CONTINUOUS
 62
     7
100
AcDbVertex
100
AcDb2dVertex
 10
7.9687330528
 20
6.8803431087
 30
0.0
  0
VERTEX
  5
38F
330
286
100
AcDbEntity
  8
0
  6
CONTINUOUS
 62
     7
100
AcDbVertex
100
AcDb2dVertex
 10
7.9554328236
 20
6.8521483437
 30
0.0
  0
VERTEX
  5
390
330
286
100
AcDbEntity
  8
0
  6
CONTINUOUS
 62
     7
100
AcDbVertex
100
AcDb2dVertex
 10
7.9429930482
 20
6.8237427543
 30
0.0
  0
VERTEX
  5
391
330
286
100
AcDbEntity
  8
0
  6
CONTINUOUS
 62
     7
100
AcDbVertex
100
AcDb2dVertex
 10
7.9314419066
 20
6.7951906883
 30
0.0
  0
VERTEX
  5
392
330
286
100
AcDbEntity
  8
0
  6
CONTINUOUS
 62
     7
100
AcDbVertex
100
AcDb2dVertex
 10
7.920805566
 20
6.7665568253
 30
0.0
  0
VERTEX
  5
393
330
286
100
AcDbEntity
  8
0
  6
CONTINUOUS
 62
     7
100
AcDbVertex
100
AcDb2dVertex
 10
7.9111081211
 20
6.7379060302
 30
0.0
  0
VERTEX
  5
394
330
286
100
AcDbEntity
  8
0
  6
CONTINUOUS
 62
     7
100
AcDbVertex
100
AcDb2dVertex
 10
7.9023715396
 20
6.7093032063
 30
0.0
  0
VERTEX
  5
395
330
286
100
AcDbEntity
  8
0
  6
CONTINUOUS
 62
     7
100
AcDbVertex
100
AcDb2dVertex
 10
7.8946156128
 20
6.6808131482
 30
0.0
  0
VERTEX
  5
396
330
286
100
AcDbEntity
  8
0
  6
CONTINUOUS
 62
     7
100
AcDbVertex
100
AcDb2dVertex
 10
7.8878579104
 20
6.652500395
 30
0.0
  0
VERTEX
  5
397
330
286
100
AcDbEntity
  8
0
  6
CONTINUOUS
 62
     7
100
AcDbVertex
100
AcDb2dVertex
 10
7.8821137407
 20
6.6244290843
 30
0.0
  0
VERTEX
  5
398
330
286
100
AcDbEntity
  8
0
  6
CONTINUOUS
 62
     7
100
AcDbVertex
100
AcDb2dVertex
 10
7.8773961161
 20
6.5966628065
 30
0.0
  0
VERTEX
  5
399
330
286
100
AcDbEntity
  8
0
  6
CONTINUOUS
 62
     7
100
AcDbVertex
100
AcDb2dVertex
 10
7.8737157235
 20
6.5692644612
 30
0.0
  0
VERTEX
  5
39A
330
286
100
AcDbEntity
  8
0
  6
CONTINUOUS
 62
     7
100
AcDbVertex
100
AcDb2dVertex
 10
7.8710809002
 20
6.5422961145
 30
0.0
  0
VERTEX
  5
39B
330
286
100
AcDbEntity
  8
0
  6
CONTINUOUS
 62
     7
100
AcDbVertex
100
AcDb2dVertex
 10
7.8694976149
 20
6.5158188584
 30
0.0
  0
VERTEX
  5
39C
330
286
100
AcDbEntity
  8
0
  6
CONTINUOUS
 62
     7
100
AcDbVertex
100
AcDb2dVertex
 10
7.8689694544
 20
6.4898926723
 30
0.0
  0
VERTEX
  5
39D
330
286
100
AcDbEntity
  8
0
  6
CONTINUOUS
 62
     7
100
AcDbVertex
100
AcDb2dVertex
 10
7.8694976149
 20
6.4645762874
 30
0.0
  0
VERTEX
  5
39E
330
286
100
AcDbEntity
  8
0
  6
CONTINUOUS
 62
     7
100
AcDbVertex
100
AcDb2dVertex
 10
7.8710809002
 20
6.4399270535
 30
0.0
  0
VERTEX
  5
39F
330
286
100
AcDbEntity
  8
0
  6
CONTINUOUS
 62
     7
100
AcDbVertex
100
AcDb2dVertex
 10
7.8737157235
 20
6.416000809
 30
0.0
  0
VERTEX
  5
3A0
330
286
100
AcDbEntity
  8
0
  6
CONTINUOUS
 62
     7
100
AcDbVertex
100
AcDb2dVertex
 10
7.8773961161
 20
6.3928517546
 30
0.0
  0
VERTEX
  5
3A1
330
286
100
AcDbEntity
  8
0
  6
CONTINUOUS
 62
     7
100
AcDbVertex
100
AcDb2dVertex
 10
7.8821137407
 20
6.3705323302
 30
0.0
  0
VERTEX
  5
3A2
330
286
100
AcDbEntity
  8
0
  6
CONTINUOUS
 62
     7
100
AcDbVertex
100
AcDb2dVertex
 10
7.8878579104
 20
6.3490930967
 30
0.0
  0
VERTEX
  5
3A3
330
286
100
AcDbEntity
  8
0
  6
CONTINUOUS
 62
     7
100
AcDbVertex
100
AcDb2dVertex
 10
7.8946156128
 20
6.3285826206
 30
0.0
  0
VERTEX
  5
3A4
330
286
100
AcDbEntity
  8
0
  6
CONTINUOUS
 62
     7
100
AcDbVertex
100
AcDb2dVertex
 10
7.9023715396
 20
6.309047365
 30
0.0
  0
VERTEX
  5
3A5
330
286
100
AcDbEntity
  8
0
  6
CONTINUOUS
 62
     7
100
AcDbVertex
100
AcDb2dVertex
 10
7.9111081211
 20
6.2905315833
 30
0.0
  0
VERTEX
  5
3A6
330
286
100
AcDbEntity
  8
0
  6
CONTINUOUS
 62
     7
100
AcDbVertex
100
AcDb2dVertex
 10
7.920805566
 20
6.2730772198
 30
0.0
  0
VERTEX
  5
3A7
330
286
100
AcDbEntity
  8
0
  6
CONTINUOUS
 62
     7
100
AcDbVertex
100
AcDb2dVertex
 10
7.9314419066
 20
6.2567238143
 30
0.0
  0
VERTEX
  5
3A8
330
286
100
AcDbEntity
  8
0
  6
CONTINUOUS
 62
     7
100
AcDbVertex
100
AcDb2dVertex
 10
7.9429930482
 20
6.2415084125
 30
0.0
  0
VERTEX
  5
3A9
330
286
100
AcDbEntity
  8
0
  6
CONTINUOUS
 62
     7
100
AcDbVertex
100
AcDb2dVertex
 10
7.9554328236
 20
6.2274654821
 30
0.0
  0
VERTEX
  5
3AA
330
286
100
AcDbEntity
  8
0
  6
CONTINUOUS
 62
     7
100
AcDbVertex
100
AcDb2dVertex
 10
7.9687330528
 20
6.2146268349
 30
0.0
  0
VERTEX
  5
3AB
330
286
100
AcDbEntity
  8
0
  6
CONTINUOUS
 62
     7
100
AcDbVertex
100
AcDb2dVertex
 10
7.9828636066
 20
6.2030215545
 30
0.0
  0
VERTEX
  5
3AC
330
286
100
AcDbEntity
  8
0
  6
CONTINUOUS
 62
     7
100
AcDbVertex
100
AcDb2dVertex
 10
7.9977924745
 20
6.1926759307
 30
0.0
  0
VERTEX
  5
3AD
330
286
100
AcDbEntity
  8
0
  6
CONTINUOUS
 62
     7
100
AcDbVertex
100
AcDb2dVertex
 10
8.0134858381
 20
6.1836133997
 30
0.0
  0
VERTEX
  5
3AE
330
286
100
AcDbEntity
  8
0
  6
CONTINUOUS
 62
     7
100
AcDbVertex
100
AcDb2dVertex
 10
8.0299081467
 20
6.1758544909
 30
0.0
  0
VERTEX
  5
3AF
330
286
100
AcDbEntity
  8
0
  6
CONTINUOUS
 62
     7
100
AcDbVertex
100
AcDb2dVertex
 10
8.0470221985
 20
6.1694167808
 30
0.0
  0
VERTEX
  5
3B0
330
286
100
AcDbEntity
  8
0
  6
CONTINUOUS
 62
     7
100
AcDbVertex
100
AcDb2dVertex
 10
8.0647892247
 20
6.164314853
 30
0.0
  0
VERTEX
  5
3B1
330
286
100
AcDbEntity
  8
0
  6
CONTINUOUS
 62
     7
100
AcDbVertex
100
AcDb2dVertex
 10
8.0831689773
 20
6.1605602648
 30
0.0
  0
VERTEX
  5
3B2
330
286
100
AcDbEntity
  8
0
  6
CONTINUOUS
 62
     7
100
AcDbVertex
100
AcDb2dVertex
 10
8.1021198202
 20
6.1581615216
 30
0.0
  0
VERTEX
  5
3B3
330
286
100
AcDbEntity
  8
0
  6
CONTINUOUS
 62
     7
100
AcDbVertex
100
AcDb2dVertex
 10
8.1215988237
 20
6.1571240574
 30
0.0
  0
VERTEX
  5
3B4
330
286
100
AcDbEntity
  8
0
  6
CONTINUOUS
 62
     7
100
AcDbVertex
100
AcDb2dVertex
 10
8.1415618615
 20
6.1574502223
 30
0.0
  0
VERTEX
  5
3B5
330
286
100
AcDbEntity
  8
0
  6
CONTINUOUS
 62
     7
100
AcDbVertex
100
AcDb2dVertex
 10
8.161963711
 20
6.1591392776
 30
0.0
  0
VERTEX
  5
3B6
330
286
100
AcDbEntity
  8
0
  6
CONTINUOUS
 62
     7
100
AcDbVertex
100
AcDb2dVertex
 10
8.1827581555
 20
6.1621873968
 30
0.0
  0
VERTEX
  5
3B7
330
286
100
AcDbEntity
  8
0
  6
CONTINUOUS
 62
     7
100
AcDbVertex
100
AcDb2dVertex
 10
8.2038980887
 20
6.1665876752
 30
0.0
  0
VERTEX
  5
3B8
330
286
100
AcDbEntity
  8
0
  6
CONTINUOUS
 62
     7
100
AcDbVertex
100
AcDb2dVertex
 10
8.2253356219
 20
6.1723301445
 30
0.0
  0
VERTEX
  5
3B9
330
286
100
AcDbEntity
  8
0
  6
CONTINUOUS
 62
     7
100
AcDbVertex
100
AcDb2dVertex
 10
8.2470221923
 20
6.1794017963
 30
0.0
  0
VERTEX
  5
3BA
330
286
100
AcDbEntity
  8
0
  6
CONTINUOUS
 62
     7
100
AcDbVertex
100
AcDb2dVertex
 10
8.2689086728
 20
6.1877866111
 30
0.0
  0
VERTEX
  5
3BB
330
286
100
AcDbEntity
  8
0
  6
CONTINUOUS
 62
     7
100
AcDbVertex
100
AcDb2dVertex
 10
8.2909454835
 20
6.1974655944
 30
0.0
  0
VERTEX
  5
3BC
330
286
100
AcDbEntity
  8
0
  6
CONTINUOUS
 62
     7
100
AcDbVertex
100
AcDb2dVertex
 10
8.3130827039
 20
6.2084168204
 30
0.0
  0
VERTEX
  5
3BD
330
286
100
AcDbEntity
  8
0
  6
CONTINUOUS
 62
     7
100
AcDbVertex
100
AcDb2dVertex
 10
8.3352701861
 20
6.2206154808
 30
0.0
  0
VERTEX
  5
3BE
330
286
100
AcDbEntity
  8
0
  6
CONTINUOUS
 62
     7
100
AcDbVertex
100
AcDb2dVertex
 10
8.3534123038
 20
6.2314963992
 30
0.0
  0
SEQEND
  5
3BF
330
286
100
AcDbEntity
  8
0
  6
CONTINUOUS
 62
     7
  0
POLYLINE
  5
287
330
1F
100
AcDbEntity
  8
0
  6
CONTINUOUS
 62
     7
100
AcDb2dPolyline
 66
     1
 10
0.0
 20
0.0
 30
0.0
  0
VERTEX
  5
3C0
330
287
100
AcDbEntity
  8
0
  6
CONTINUOUS
 62
     7
100
AcDbVertex
100
AcDb2dVertex
 10
7.7420382194
 20
6.5551330016
 30
0.0
  0
VERTEX
  5
3C1
330
287
100
AcDbEntity
  8
0
  6
CONTINUOUS
 62
     7
100
AcDbVertex
100
AcDb2dVertex
 10
7.7425662339
 20
6.5812461402
 30
0.0
  0
VERTEX
  5
3C2
330
287
100
AcDbEntity
  8
0
  6
CONTINUOUS
 62
     7
100
AcDbVertex
100
AcDb2dVertex
 10
7.7441490994
 20
6.6079106427
 30
0.0
  0
VERTEX
  5
3C3
330
287
100
AcDbEntity
  8
0
  6
CONTINUOUS
 62
     7
100
AcDbVertex
100
AcDb2dVertex
 10
7.7467832837
 20
6.6350670104
 30
0.0
  0
VERTEX
  5
3C4
330
287
100
AcDbEntity
  8
0
  6
CONTINUOUS
 62
     7
100
AcDbVertex
100
AcDb2dVertex
 10
7.7504629091
 20
6.6626546466
 30
0.0
  0
VERTEX
  5
3C5
330
287
100
AcDbEntity
  8
0
  6
CONTINUOUS
 62
     7
100
AcDbVertex
100
AcDb2dVertex
 10
7.7551797648
 20
6.6906119927
 30
0.0
  0
VERTEX
  5
3C6
330
287
100
AcDbEntity
  8
0
  6
CONTINUOUS
 62
     7
100
AcDbVertex
100
AcDb2dVertex
 10
7.7609233257
 20
6.7188766647
 30
0.0
  0
VERTEX
  5
3C7
330
287
100
AcDbEntity
  8
0
  6
CONTINUOUS
 62
     7
100
AcDbVertex
100
AcDb2dVertex
 10
7.7676807756
 20
6.7473855933
 30
0.0
  0
VERTEX
  5
3C8
330
287
100
AcDbEntity
  8
0
  6
CONTINUOUS
 62
     7
100
AcDbVertex
100
AcDb2dVertex
 10
7.7754370361
 20
6.7760751637
 30
0.0
  0
VERTEX
  5
3C9
330
287
100
AcDbEntity
  8
0
  6
CONTINUOUS
 62
     7
100
AcDbVertex
100
AcDb2dVertex
 10
7.7841747999
 20
6.8048813585
 30
0.0
  0
VERTEX
  5
3CA
330
287
100
AcDbEntity
  8
0
  6
CONTINUOUS
 62
     7
100
AcDbVertex
100
AcDb2dVertex
 10
7.7938745695
 20
6.8337398996
 30
0.0
  0
VERTEX
  5
3CB
330
287
100
AcDbEntity
  8
0
  6
CONTINUOUS
 62
     7
100
AcDbVertex
100
AcDb2dVertex
 10
7.8045147011
 20
6.8625863924
 30
0.0
  0
VERTEX
  5
3CC
330
287
100
AcDbEntity
  8
0
  6
CONTINUOUS
 62
     7
100
AcDbVertex
100
AcDb2dVertex
 10
7.8160714524
 20
6.8913564691
 30
0.0
  0
VERTEX
  5
3CD
330
287
100
AcDbEntity
  8
0
  6
CONTINUOUS
 62
     7
100
AcDbVertex
100
AcDb2dVertex
 10
7.8285190357
 20
6.9199859324
 30
0.0
  0
VERTEX
  5
3CE
330
287
100
AcDbEntity
  8
0
  6
CONTINUOUS
 62
     7
100
AcDbVertex
100
AcDb2dVertex
 10
7.8418296755
 20
6.9484108988
 30
0.0
  0
VERTEX
  5
3CF
330
287
100
AcDbEntity
  8
0
  6
CONTINUOUS
 62
     7
100
AcDbVertex
100
AcDb2dVertex
 10
7.8559736708
 20
6.976567941
 30
0.0
  0
VERTEX
  5
3D0
330
287
100
AcDbEntity
  8
0
  6
CONTINUOUS
 62
     7
100
AcDbVertex
100
AcDb2dVertex
 10
7.8709194605
 20
7.0043942297
 30
0.0
  0
VERTEX
  5
3D1
330
287
100
AcDbEntity
  8
0
  6
CONTINUOUS
 62
     7
100
AcDbVertex
100
AcDb2dVertex
 10
7.886633695
 20
7.0318276736
 30
0.0
  0
VERTEX
  5
3D2
330
287
100
AcDbEntity
  8
0
  6
CONTINUOUS
 62
     7
100
AcDbVertex
100
AcDb2dVertex
 10
7.9030813095
 20
7.0588070579
 30
0.0
  0
VERTEX
  5
3D3
330
287
100
AcDbEntity
  8
0
  6
CONTINUOUS
 62
     7
100
AcDbVertex
100
AcDb2dVertex
 10
7.920225603
 20
7.0852721811
 30
0.0
  0
VERTEX
  5
3D4
330
287
100
AcDbEntity
  8
0
  6
CONTINUOUS
 62
     7
100
AcDbVertex
100
AcDb2dVertex
 10
7.9380283198
 20
7.111163989
 30
0.0
  0
VERTEX
  5
3D5
330
287
100
AcDbEntity
  8
0
  6
CONTINUOUS
 62
     7
100
AcDbVertex
100
AcDb2dVertex
 10
7.9564497353
 20
7.1364247071
 30
0.0
  0
VERTEX
  5
3D6
330
287
100
AcDbEntity
  8
0
  6
CONTINUOUS
 62
     7
100
AcDbVertex
100
AcDb2dVertex
 10
7.9754487439
 20
7.1609979687
 30
0.0
  0
VERTEX
  5
3D7
330
287
100
AcDbEntity
  8
0
  6
CONTINUOUS
 62
     7
100
AcDbVertex
100
AcDb2dVertex
 10
7.9949829514
 20
7.1848289412
 30
0.0
  0
VERTEX
  5
3D8
330
287
100
AcDbEntity
  8
0
  6
CONTINUOUS
 62
     7
100
AcDbVertex
100
AcDb2dVertex
 10
8.0150087695
 20
7.2078644485
 30
0.0
  0
VERTEX
  5
3D9
330
287
100
AcDbEntity
  8
0
  6
CONTINUOUS
 62
     7
100
AcDbVertex
100
AcDb2dVertex
 10
8.0354815126
 20
7.2300530894
 30
0.0
  0
VERTEX
  5
3DA
330
287
100
AcDbEntity
  8
0
  6
CONTINUOUS
 62
     7
100
AcDbVertex
100
AcDb2dVertex
 10
8.0563554982
 20
7.2513453522
 30
0.0
  0
VERTEX
  5
3DB
330
287
100
AcDbEntity
  8
0
  6
CONTINUOUS
 62
     7
100
AcDbVertex
100
AcDb2dVertex
 10
8.077584148
 20
7.2716937257
 30
0.0
  0
VERTEX
  5
3DC
330
287
100
AcDbEntity
  8
0
  6
CONTINUOUS
 62
     7
100
AcDbVertex
100
AcDb2dVertex
 10
8.0991200928
 20
7.2910528047
 30
0.0
  0
VERTEX
  5
3DD
330
287
100
AcDbEntity
  8
0
  6
CONTINUOUS
 62
     7
100
AcDbVertex
100
AcDb2dVertex
 10
8.1209152774
 20
7.3093793914
 30
0.0
  0
VERTEX
  5
3DE
330
287
100
AcDbEntity
  8
0
  6
CONTINUOUS
 62
     7
100
AcDbVertex
100
AcDb2dVertex
 10
8.1429210683
 20
7.3266325922
 30
0.0
  0
VERTEX
  5
3DF
330
287
100
AcDbEntity
  8
0
  6
CONTINUOUS
 62
     7
100
AcDbVertex
100
AcDb2dVertex
 10
8.1650883619
 20
7.3427739083
 30
0.0
  0
VERTEX
  5
3E0
330
287
100
AcDbEntity
  8
0
  6
CONTINUOUS
 62
     7
100
AcDbVertex
100
AcDb2dVertex
 10
8.1873676943
 20
7.3577673221
 30
0.0
  0
VERTEX
  5
3E1
330
287
100
AcDbEntity
  8
0
  6
CONTINUOUS
 62
     7
100
AcDbVertex
100
AcDb2dVertex
 10
8.2097093516
 20
7.3715793776
 30
0.0
  0
VERTEX
  5
3E2
330
287
100
AcDbEntity
  8
0
  6
CONTINUOUS
 62
     7
100
AcDbVertex
100
AcDb2dVertex
 10
8.2320634808
 20
7.3841792546
 30
0.0
  0
VERTEX
  5
3E3
330
287
100
AcDbEntity
  8
0
  6
CONTINUOUS
 62
     7
100
AcDbVertex
100
AcDb2dVertex
 10
8.2543802012
 20
7.3955388379
 30
0.0
  0
VERTEX
  5
3E4
330
287
100
AcDbEntity
  8
0
  6
CONTINUOUS
 62
     7
100
AcDbVertex
100
AcDb2dVertex
 10
8.2766097154
 20
7.4056327798
 30
0.0
  0
VERTEX
  5
3E5
330
287
100
AcDbEntity
  8
0
  6
CONTINUOUS
 62
     7
100
AcDbVertex
100
AcDb2dVertex
 10
8.2987024206
 20
7.4144385567
 30
0.0
  0
VERTEX
  5
3E6
330
287
100
AcDbEntity
  8
0
  6
CONTINUOUS
 62
     7
100
AcDbVertex
100
AcDb2dVertex
 10
8.3206090195
 20
7.4219365195
 30
0.0
  0
VERTEX
  5
3E7
330
287
100
AcDbEntity
  8
0
  6
CONTINUOUS
 62
     7
100
AcDbVertex
100
AcDb2dVertex
 10
8.3422806298
 20
7.4281099374
 30
0.0
  0
VERTEX
  5
3E8
330
287
100
AcDbEntity
  8
0
  6
CONTINUOUS
 62
     7
100
AcDbVertex
100
AcDb2dVertex
 10
8.3636688936
 20
7.432945035
 30
0.0
  0
VERTEX
  5
3E9
330
287
100
AcDbEntity
  8
0
  6
CONTINUOUS
 62
     7
100
AcDbVertex
100
AcDb2dVertex
 10
8.3847260855
 20
7.4364310233
 30
0.0
  0
VERTEX
  5
3EA
330
287
100
AcDbEntity
  8
0
  6
CONTINUOUS
 62
     7
100
AcDbVertex
100
AcDb2dVertex
 10
8.4054052185
 20
7.4385601238
 30
0.0
  0
VERTEX
  5
3EB
330
287
100
AcDbEntity
  8
0
  6
CONTINUOUS
 62
     7
100
AcDbVertex
100
AcDb2dVertex
 10
8.4256601495
 20
7.4393275855
 30
0.0
  0
VERTEX
  5
3EC
330
287
100
AcDbEntity
  8
0
  6
CONTINUOUS
 62
     7
100
AcDbVertex
100
AcDb2dVertex
 10
8.4454456818
 20
7.4387316961
 30
0.0
  0
VERTEX
  5
3ED
330
287
100
AcDbEntity
  8
0
  6
CONTINUOUS
 62
     7
100
AcDbVertex
100
AcDb2dVertex
 10
8.464717666
 20
7.436773785
 30
0.0
  0
VERTEX
  5
3EE
330
287
100
AcDbEntity
  8
0
  6
CONTINUOUS
 62
     7
100
AcDbVertex
100
AcDb2dVertex
 10
8.4834330989
 20
7.4334582213
 30
0.0
  0
VERTEX
  5
3EF
330
287
100
AcDbEntity
  8
0
  6
CONTINUOUS
 62
     7
100
AcDbVertex
100
AcDb2dVertex
 10
8.5015502191
 20
7.4287924031
 30
0.0
  0
VERTEX
  5
3F0
330
287
100
AcDbEntity
  8
0
  6
CONTINUOUS
 62
     7
100
AcDbVertex
100
AcDb2dVertex
 10
8.5190286001
 20
7.4227867419
 30
0.0
  0
VERTEX
  5
3F1
330
287
100
AcDbEntity
  8
0
  6
CONTINUOUS
 62
     7
100
AcDbVertex
100
AcDb2dVertex
 10
8.5358292408
 20
7.4154546385
 30
0.0
  0
VERTEX
  5
3F2
330
287
100
AcDbEntity
  8
0
  6
CONTINUOUS
 62
     7
100
AcDbVertex
100
AcDb2dVertex
 10
8.549917137
 20
7.407979443
 30
0.0
  0
SEQEND
  5
3F3
330
287
100
AcDbEntity
  8
0
  6
CONTINUOUS
 62
     7
  0
POLYLINE
  5
288
330
1F
100
AcDbEntity
  8
0
  6
CONTINUOUS
 62
     7
100
AcDb2dPolyline
 66
     1
 10
0.0
 20
0.0
 30
0.0
  0
VERTEX
  5
3F4
330
288
100
AcDbEntity
  8
0
  6
CONTINUOUS
 62
     7
100
AcDbVertex
100
AcDb2dVertex
 10
7.88068019
 20
6.2487014382
 30
0.0
  0
VERTEX
  5
3F5
330
288
100
AcDbEntity
  8
0
  6
CONTINUOUS
 62
     7
100
AcDbVertex
100
AcDb2dVertex
 10
7.8709194605
 20
6.2546748871
 30
0.0
  0
VERTEX
  5
3F6
330
288
100
AcDbEntity
  8
0
  6
CONTINUOUS
 62
     7
100
AcDbVertex
100
AcDb2dVertex
 10
7.8559736708
 20
6.2652451343
 30
0.0
  0
VERTEX
  5
3F7
330
288
100
AcDbEntity
  8
0
  6
CONTINUOUS
 62
     7
100
AcDbVertex
100
AcDb2dVertex
 10
7.8418296755
 20
6.2770718673
 30
0.0
  0
VERTEX
  5
3F8
330
288
100
AcDbEntity
  8
0
  6
CONTINUOUS
 62
     7
100
AcDbVertex
100
AcDb2dVertex
 10
7.8285190357
 20
6.290128696
 30
0.0
  0
VERTEX
  5
3F9
330
288
100
AcDbEntity
  8
0
  6
CONTINUOUS
 62
     7
100
AcDbVertex
100
AcDb2dVertex
 10
7.8160714524
 20
6.3043864855
 30
0.0
  0
VERTEX
  5
3FA
330
288
100
AcDbEntity
  8
0
  6
CONTINUOUS
 62
     7
100
AcDbVertex
100
AcDb2dVertex
 10
7.8045147011
 20
6.3198134212
 30
0.0
  0
VERTEX
  5
3FB
330
288
100
AcDbEntity
  8
0
  6
CONTINUOUS
 62
     7
100
AcDbVertex
100
AcDb2dVertex
 10
7.7938745695
 20
6.3363750796
 30
0.0
  0
VERTEX
  5
3FC
330
288
100
AcDbEntity
  8
0
  6
CONTINUOUS
 62
     7
100
AcDbVertex
100
AcDb2dVertex
 10
7.7841747999
 20
6.354034505
 30
0.0
  0
VERTEX
  5
3FD
330
288
100
AcDbEntity
  8
0
  6
CONTINUOUS
 62
     7
100
AcDbVertex
100
AcDb2dVertex
 10
7.7754370361
 20
6.3727522925
 30
0.0
  0
VERTEX
  5
3FE
330
288
100
AcDbEntity
  8
0
  6
CONTINUOUS
 62
     7
100
AcDbVertex
100
AcDb2dVertex
 10
7.7676807756
 20
6.3924866752
 30
0.0
  0
VERTEX
  5
3FF
330
288
100
AcDbEntity
  8
0
  6
CONTINUOUS
 62
     7
100
AcDbVertex
100
AcDb2dVertex
 10
7.7609233257
 20
6.4131936181
 30
0.0
  0
VERTEX
  5
400
330
288
100
AcDbEntity
  8
0
  6
CONTINUOUS
 62
     7
100
AcDbVertex
100
AcDb2dVertex
 10
7.7551797648
 20
6.4348269159
 30
0.0
  0
VERTEX
  5
401
330
288
100
AcDbEntity
  8
0
  6
CONTINUOUS
 62
     7
100
AcDbVertex
100
AcDb2dVertex
 10
7.7504629091
 20
6.4573382963
 30
0.0
  0
VERTEX
  5
402
330
288
100
AcDbEntity
  8
0
  6
CONTINUOUS
 62
     7
100
AcDbVertex
100
AcDb2dVertex
 10
7.7467832837
 20
6.4806775275
 30
0.0
  0
VERTEX
  5
403
330
288
100
AcDbEntity
  8
0
  6
CONTINUOUS
 62
     7
100
AcDbVertex
100
AcDb2dVertex
 10
7.7441490994
 20
6.5047925306
 30
0.0
  0
VERTEX
  5
404
330
288
100
AcDbEntity
  8
0
  6
CONTINUOUS
 62
     7
100
AcDbVertex
100
AcDb2dVertex
 10
7.7425662339
 20
6.5296294957
 30
0.0
  0
VERTEX
  5
405
330
288
100
AcDbEntity
  8
0
  6
CONTINUOUS
 62
     7
100
AcDbVertex
100
AcDb2dVertex
 10
7.7420382194
 20
6.5551330016
 30
0.0
  0
SEQEND
  5
406
330
288
100
AcDbEntity
  8
0
  6
CONTINUOUS
 62
     7
  0
POLYLINE
  5
289
330
1F
100
AcDbEntity
  8
0
  6
CONTINUOUS
 62
     7
100
AcDb2dPolyline
 66
     1
 10
0.0
 20
0.0
 30
0.0
  0
VERTEX
  5
407
330
289
100
AcDbEntity
  8
0
  6
CONTINUOUS
 62
     7
100
AcDbVertex
100
AcDb2dVertex
 10
8.5616297417
 20
7.1511910917
 30
0.0
  0
VERTEX
  5
408
330
289
100
AcDbEntity
  8
0
  6
CONTINUOUS
 62
     7
100
AcDbVertex
100
AcDb2dVertex
 10
8.5567021413
 20
7.1539145153
 30
0.0
  0
VERTEX
  5
409
330
289
100
AcDbEntity
  8
0
  6
CONTINUOUS
 62
     7
100
AcDbVertex
100
AcDb2dVertex
 10
8.5430134162
 20
7.160300173
 30
0.0
  0
VERTEX
  5
40A
330
289
100
AcDbEntity
  8
0
  6
CONTINUOUS
 62
     7
100
AcDbVertex
100
AcDb2dVertex
 10
8.528634589
 20
7.1653530255
 30
0.0
  0
VERTEX
  5
40B
330
289
100
AcDbEntity
  8
0
  6
CONTINUOUS
 62
     7
100
AcDbVertex
100
AcDb2dVertex
 10
8.5136134248
 20
7.1690562876
 30
0.0
  0
VERTEX
  5
40C
330
289
100
AcDbEntity
  8
0
  6
CONTINUOUS
 62
     7
100
AcDbVertex
100
AcDb2dVertex
 10
8.4979998222
 20
7.1713976576
 30
0.0
  0
VERTEX
  5
40D
330
289
100
AcDbEntity
  8
0
  6
CONTINUOUS
 62
     7
100
AcDbVertex
100
AcDb2dVertex
 10
8.4818456481
 20
7.1723693576
 30
0.0
  0
VERTEX
  5
40E
330
289
100
AcDbEntity
  8
0
  6
CONTINUOUS
 62
     7
100
AcDbVertex
100
AcDb2dVertex
 10
8.4652045651
 20
7.1719681598
 30
0.0
  0
VERTEX
  5
40F
330
289
100
AcDbEntity
  8
0
  6
CONTINUOUS
 62
     7
100
AcDbVertex
100
AcDb2dVertex
 10
8.4481318531
 20
7.1701953968
 30
0.0
  0
VERTEX
  5
410
330
289
100
AcDbEntity
  8
0
  6
CONTINUOUS
 62
     7
100
AcDbVertex
100
AcDb2dVertex
 10
8.430684226
 20
7.1670569577
 30
0.0
  0
VERTEX
  5
411
330
289
100
AcDbEntity
  8
0
  6
CONTINUOUS
 62
     7
100
AcDbVertex
100
AcDb2dVertex
 10
8.4129196431
 20
7.1625632679
 30
0.0
  0
VERTEX
  5
412
330
289
100
AcDbEntity
  8
0
  6
CONTINUOUS
 62
     7
100
AcDbVertex
100
AcDb2dVertex
 10
8.3948971165
 20
7.1567292551
 30
0.0
  0
VERTEX
  5
413
330
289
100
AcDbEntity
  8
0
  6
CONTINUOUS
 62
     7
100
AcDbVertex
100
AcDb2dVertex
 10
8.3766765152
 20
7.1495742994
 30
0.0
  0
VERTEX
  5
414
330
289
100
AcDbEntity
  8
0
  6
CONTINUOUS
 62
     7
100
AcDbVertex
100
AcDb2dVertex
 10
8.3583183663
 20
7.1411221686
 30
0.0
  0
VERTEX
  5
415
330
289
100
AcDbEntity
  8
0
  6
CONTINUOUS
 62
     7
100
AcDbVertex
100
AcDb2dVertex
 10
8.3398836536
 20
7.13140094
 30
0.0
  0
VERTEX
  5
416
330
289
100
AcDbEntity
  8
0
  6
CONTINUOUS
 62
     7
100
AcDbVertex
100
AcDb2dVertex
 10
8.3214336155
 20
7.1204429065
 30
0.0
  0
VERTEX
  5
417
330
289
100
AcDbEntity
  8
0
  6
CONTINUOUS
 62
     7
100
AcDbVertex
100
AcDb2dVertex
 10
8.303029541
 20
7.1082844696
 30
0.0
  0
VERTEX
  5
418
330
289
100
AcDbEntity
  8
0
  6
CONTINUOUS
 62
     7
100
AcDbVertex
100
AcDb2dVertex
 10
8.2847325668
 20
7.0949660184
 30
0.0
  0
VERTEX
  5
419
330
289
100
AcDbEntity
  8
0
  6
CONTINUOUS
 62
     7
100
AcDbVertex
100
AcDb2dVertex
 10
8.2666034734
 20
7.0805317954
 30
0.0
  0
VERTEX
  5
41A
330
289
100
AcDbEntity
  8
0
  6
CONTINUOUS
 62
     7
100
AcDbVertex
100
AcDb2dVertex
 10
8.2487024839
 20
7.0650297497
 30
0.0
  0
VERTEX
  5
41B
330
289
100
AcDbEntity
  8
0
  6
CONTINUOUS
 62
     7
100
AcDbVertex
100
AcDb2dVertex
 10
8.2310890637
 20
7.0485113776
 30
0.0
  0
VERTEX
  5
41C
330
289
100
AcDbEntity
  8
0
  6
CONTINUOUS
 62
     7
100
AcDbVertex
100
AcDb2dVertex
 10
8.2138217226
 20
7.0310315513
 30
0.0
  0
VERTEX
  5
41D
330
289
100
AcDbEntity
  8
0
  6
CONTINUOUS
 62
     7
100
AcDbVertex
100
AcDb2dVertex
 10
8.1969578212
 20
7.0126483372
 30
0.0
  0
VERTEX
  5
41E
330
289
100
AcDbEntity
  8
0
  6
CONTINUOUS
 62
     7
100
AcDbVertex
100
AcDb2dVertex
 10
8.1805533794
 20
6.9934228023
 30
0.0
  0
VERTEX
  5
41F
330
289
100
AcDbEntity
  8
0
  6
CONTINUOUS
 62
     7
100
AcDbVertex
100
AcDb2dVertex
 10
8.1646628914
 20
6.9734188121
 30
0.0
  0
VERTEX
  5
420
330
289
100
AcDbEntity
  8
0
  6
CONTINUOUS
 62
     7
100
AcDbVertex
100
AcDb2dVertex
 10
8.1493391437
 20
6.9527028177
 30
0.0
  0
VERTEX
  5
421
330
289
100
AcDbEntity
  8
0
  6
CONTINUOUS
 62
     7
100
AcDbVertex
100
AcDb2dVertex
 10
8.1346330401
 20
6.9313436356
 30
0.0
  0
VERTEX
  5
422
330
289
100
AcDbEntity
  8
0
  6
CONTINUOUS
 62
     7
100
AcDbVertex
100
AcDb2dVertex
 10
8.120593433
 20
6.9094122188
 30
0.0
  0
VERTEX
  5
423
330
289
100
AcDbEntity
  8
0
  6
CONTINUOUS
 62
     7
100
AcDbVertex
100
AcDb2dVertex
 10
8.1072669605
 20
6.8869814214
 30
0.0
  0
VERTEX
  5
424
330
289
100
AcDbEntity
  8
0
  6
CONTINUOUS
 62
     7
100
AcDbVertex
100
AcDb2dVertex
 10
8.0946978918
 20
6.8641257561
 30
0.0
  0
VERTEX
  5
425
330
289
100
AcDbEntity
  8
0
  6
CONTINUOUS
 62
     7
100
AcDbVertex
100
AcDb2dVertex
 10
8.08292798
 20
6.8409211472
 30
0.0
  0
VERTEX
  5
426
330
289
100
AcDbEntity
  8
0
  6
CONTINUOUS
 62
     7
100
AcDbVertex
100
AcDb2dVertex
 10
8.0719963236
 20
6.8174446781
 30
0.0
  0
VERTEX
  5
427
330
289
100
AcDbEntity
  8
0
  6
CONTINUOUS
 62
     7
100
AcDbVertex
100
AcDb2dVertex
 10
8.0619392366
 20
6.7937743352
 30
0.0
  0
VERTEX
  5
428
330
289
100
AcDbEntity
  8
0
  6
CONTINUOUS
 62
     7
100
AcDbVertex
100
AcDb2dVertex
 10
8.0527901275
 20
6.769988749
 30
0.0
  0
VERTEX
  5
429
330
289
100
AcDbEntity
  8
0
  6
CONTINUOUS
 62
     7
100
AcDbVertex
100
AcDb2dVertex
 10
8.0445793887
 20
6.7461669329
 30
0.0
  0
VERTEX
  5
42A
330
289
100
AcDbEntity
  8
0
  6
CONTINUOUS
 62
     7
100
AcDbVertex
100
AcDb2dVertex
 10
8.0373342955
 20
6.7223880205
 30
0.0
  0
VERTEX
  5
42B
330
289
100
AcDbEntity
  8
0
  6
CONTINUOUS
 62
     7
100
AcDbVertex
100
AcDb2dVertex
 10
8.0310789154
 20
6.698731003
 30
0.0
  0
VERTEX
  5
42C
330
289
100
AcDbEntity
  8
0
  6
CONTINUOUS
 62
     7
100
AcDbVertex
100
AcDb2dVertex
 10
8.0258340281
 20
6.6752744666
 30
0.0
  0
VERTEX
  5
42D
330
289
100
AcDbEntity
  8
0
  6
CONTINUOUS
 62
     7
100
AcDbVertex
100
AcDb2dVertex
 10
8.0216170566
 20
6.6520963316
 30
0.0
  0
VERTEX
  5
42E
330
289
100
AcDbEntity
  8
0
  6
CONTINUOUS
 62
     7
100
AcDbVertex
100
AcDb2dVertex
 10
8.0184420093
 20
6.6292735935
 30
0.0
  0
VERTEX
  5
42F
330
289
100
AcDbEntity
  8
0
  6
CONTINUOUS
 62
     7
100
AcDbVertex
100
AcDb2dVertex
 10
8.0163194333
 20
6.6068820669
 30
0.0
  0
VERTEX
  5
430
330
289
100
AcDbEntity
  8
0
  6
CONTINUOUS
 62
     7
100
AcDbVertex
100
AcDb2dVertex
 10
8.0152563796
 20
6.5849961344
 30
0.0
  0
VERTEX
  5
431
330
289
100
AcDbEntity
  8
0
  6
CONTINUOUS
 62
     7
100
AcDbVertex
100
AcDb2dVertex
 10
8.0152563796
 20
6.5636884989
 30
0.0
  0
VERTEX
  5
432
330
289
100
AcDbEntity
  8
0
  6
CONTINUOUS
 62
     7
100
AcDbVertex
100
AcDb2dVertex
 10
8.0163194333
 20
6.543029942
 30
0.0
  0
VERTEX
  5
433
330
289
100
AcDbEntity
  8
0
  6
CONTINUOUS
 62
     7
100
AcDbVertex
100
AcDb2dVertex
 10
8.0184420093
 20
6.5230890896
 30
0.0
  0
VERTEX
  5
434
330
289
100
AcDbEntity
  8
0
  6
CONTINUOUS
 62
     7
100
AcDbVertex
100
AcDb2dVertex
 10
8.0216170566
 20
6.503932183
 30
0.0
  0
VERTEX
  5
435
330
289
100
AcDbEntity
  8
0
  6
CONTINUOUS
 62
     7
100
AcDbVertex
100
AcDb2dVertex
 10
8.0258340281
 20
6.4856228597
 30
0.0
  0
VERTEX
  5
436
330
289
100
AcDbEntity
  8
0
  6
CONTINUOUS
 62
     7
100
AcDbVertex
100
AcDb2dVertex
 10
8.0310789154
 20
6.4682219413
 30
0.0
  0
VERTEX
  5
437
330
289
100
AcDbEntity
  8
0
  6
CONTINUOUS
 62
     7
100
AcDbVertex
100
AcDb2dVertex
 10
8.0373342955
 20
6.4517872319
 30
0.0
  0
VERTEX
  5
438
330
289
100
AcDbEntity
  8
0
  6
CONTINUOUS
 62
     7
100
AcDbVertex
100
AcDb2dVertex
 10
8.0445793887
 20
6.4363733261
 30
0.0
  0
VERTEX
  5
439
330
289
100
AcDbEntity
  8
0
  6
CONTINUOUS
 62
     7
100
AcDbVertex
100
AcDb2dVertex
 10
8.0527901275
 20
6.4220314272
 30
0.0
  0
VERTEX
  5
43A
330
289
100
AcDbEntity
  8
0
  6
CONTINUOUS
 62
     7
100
AcDbVertex
100
AcDb2dVertex
 10
8.0619392366
 20
6.4088091775
 30
0.0
  0
VERTEX
  5
43B
330
289
100
AcDbEntity
  8
0
  6
CONTINUOUS
 62
     7
100
AcDbVertex
100
AcDb2dVertex
 10
8.0719963236
 20
6.3967505002
 30
0.0
  0
VERTEX
  5
43C
330
289
100
AcDbEntity
  8
0
  6
CONTINUOUS
 62
     7
100
AcDbVertex
100
AcDb2dVertex
 10
8.08292798
 20
6.3858954528
 30
0.0
  0
VERTEX
  5
43D
330
289
100
AcDbEntity
  8
0
  6
CONTINUOUS
 62
     7
100
AcDbVertex
100
AcDb2dVertex
 10
8.0946978918
 20
6.3762800948
 30
0.0
  0
VERTEX
  5
43E
330
289
100
AcDbEntity
  8
0
  6
CONTINUOUS
 62
     7
100
AcDbVertex
100
AcDb2dVertex
 10
8.1072669605
 20
6.3679363674
 30
0.0
  0
VERTEX
  5
43F
330
289
100
AcDbEntity
  8
0
  6
CONTINUOUS
 62
     7
100
AcDbVertex
100
AcDb2dVertex
 10
8.1089106304
 20
6.3669736179
 30
0.0
  0
SEQEND
  5
440
330
289
100
AcDbEntity
  8
0
  6
CONTINUOUS
 62
     7
  0
POLYLINE
  5
28A
330
1F
100
AcDbEntity
  8
0
  6
CONTINUOUS
 62
     7
100
AcDb2dPolyline
 66
     1
 10
0.0
 20
0.0
 30
0.0
  0
VERTEX
  5
441
330
28A
100
AcDbEntity
  8
0
  6
CONTINUOUS
 62
     7
100
AcDbVertex
100
AcDb2dVertex
 10
8.2345983219
 20
6.4457404575
 30
0.0
  0
VERTEX
  5
442
330
28A
100
AcDbEntity
  8
0
  6
CONTINUOUS
 62
     7
100
AcDbVertex
100
AcDb2dVertex
 10
8.2355252175
 20
6.4253029773
 30
0.0
  0
VERTEX
  5
443
330
28A
100
AcDbEntity
  8
0
  6
CONTINUOUS
 62
     7
100
AcDbVertex
100
AcDb2dVertex
 10
8.2374991584
 20
6.4055667259
 30
0.0
  0
VERTEX
  5
444
330
28A
100
AcDbEntity
  8
0
  6
CONTINUOUS
 62
     7
100
AcDbVertex
100
AcDb2dVertex
 10
8.240513559
 20
6.3865975481
 30
0.0
  0
VERTEX
  5
445
330
28A
100
AcDbEntity
  8
0
  6
CONTINUOUS
 62
     7
100
AcDbVertex
100
AcDb2dVertex
 10
8.2445583625
 20
6.3684587297
 30
0.0
  0
VERTEX
  5
446
330
28A
100
AcDbEntity
  8
0
  6
CONTINUOUS
 62
     7
100
AcDbVertex
100
AcDb2dVertex
 10
8.2496200746
 20
6.3512107863
 30
0.0
  0
VERTEX
  5
447
330
28A
100
AcDbEntity
  8
0
  6
CONTINUOUS
 62
     7
100
AcDbVertex
100
AcDb2dVertex
 10
8.255681808
 20
6.3349112611
 30
0.0
  0
VERTEX
  5
448
330
28A
100
AcDbEntity
  8
0
  6
CONTINUOUS
 62
     7
100
AcDbVertex
100
AcDb2dVertex
 10
8.2627233394
 20
6.3196145334
 30
0.0
  0
VERTEX
  5
449
330
28A
100
AcDbEntity
  8
0
  6
CONTINUOUS
 62
     7
100
AcDbVertex
100
AcDb2dVertex
 10
8.2707211766
 20
6.3053716367
 30
0.0
  0
VERTEX
  5
44A
330
28A
100
AcDbEntity
  8
0
  6
CONTINUOUS
 62
     7
100
AcDbVertex
100
AcDb2dVertex
 10
8.2796486367
 20
6.2922300888
 30
0.0
  0
VERTEX
  5
44B
330
28A
100
AcDbEntity
  8
0
  6
CONTINUOUS
 62
     7
100
AcDbVertex
100
AcDb2dVertex
 10
8.2894759356
 20
6.280233733
 30
0.0
  0
VERTEX
  5
44C
330
28A
100
AcDbEntity
  8
0
  6
CONTINUOUS
 62
     7
100
AcDbVertex
100
AcDb2dVertex
 10
8.3001702872
 20
6.2694225922
 30
0.0
  0
VERTEX
  5
44D
330
28A
100
AcDbEntity
  8
0
  6
CONTINUOUS
 62
     7
100
AcDbVertex
100
AcDb2dVertex
 10
8.3116960123
 20
6.259832735
 30
0.0
  0
VERTEX
  5
44E
330
28A
100
AcDbEntity
  8
0
  6
CONTINUOUS
 62
     7
100
AcDbVertex
100
AcDb2dVertex
 10
8.3240146584
 20
6.2514961553
 30
0.0
  0
VERTEX
  5
44F
330
28A
100
AcDbEntity
  8
0
  6
CONTINUOUS
 62
     7
100
AcDbVertex
100
AcDb2dVertex
 10
8.3370851275
 20
6.2444406662
 30
0.0
  0
VERTEX
  5
450
330
28A
100
AcDbEntity
  8
0
  6
CONTINUOUS
 62
     7
100
AcDbVertex
100
AcDb2dVertex
 10
8.3508638133
 20
6.2386898063
 30
0.0
  0
VERTEX
  5
451
330
28A
100
AcDbEntity
  8
0
  6
CONTINUOUS
 62
     7
100
AcDbVertex
100
AcDb2dVertex
 10
8.3653047468
 20
6.234262762
 30
0.0
  0
VERTEX
  5
452
330
28A
100
AcDbEntity
  8
0
  6
CONTINUOUS
 62
     7
100
AcDbVertex
100
AcDb2dVertex
 10
8.3803597496
 20
6.231174303
 30
0.0
  0
VERTEX
  5
453
330
28A
100
AcDbEntity
  8
0
  6
CONTINUOUS
 62
     7
100
AcDbVertex
100
AcDb2dVertex
 10
8.3959785945
 20
6.2294347331
 30
0.0
  0
VERTEX
  5
454
330
28A
100
AcDbEntity
  8
0
  6
CONTINUOUS
 62
     7
100
AcDbVertex
100
AcDb2dVertex
 10
8.4121091731
 20
6.229049856
 30
0.0
  0
VERTEX
  5
455
330
28A
100
AcDbEntity
  8
0
  6
CONTINUOUS
 62
     7
100
AcDbVertex
100
AcDb2dVertex
 10
8.4286976701
 20
6.2300209556
 30
0.0
  0
VERTEX
  5
456
330
28A
100
AcDbEntity
  8
0
  6
CONTINUOUS
 62
     7
100
AcDbVertex
100
AcDb2dVertex
 10
8.4456887422
 20
6.2323447922
 30
0.0
  0
VERTEX
  5
457
330
28A
100
AcDbEntity
  8
0
  6
CONTINUOUS
 62
     7
100
AcDbVertex
100
AcDb2dVertex
 10
8.4630257029
 20
6.2360136128
 30
0.0
  0
VERTEX
  5
458
330
28A
100
AcDbEntity
  8
0
  6
CONTINUOUS
 62
     7
100
AcDbVertex
100
AcDb2dVertex
 10
8.480650712
 20
6.2410151775
 30
0.0
  0
VERTEX
  5
459
330
28A
100
AcDbEntity
  8
0
  6
CONTINUOUS
 62
     7
100
AcDbVertex
100
AcDb2dVertex
 10
8.4985049682
 20
6.2473327998
 30
0.0
  0
VERTEX
  5
45A
330
28A
100
AcDbEntity
  8
0
  6
CONTINUOUS
 62
     7
100
AcDbVertex
100
AcDb2dVertex
 10
8.5165289054
 20
6.2549454024
 30
0.0
  0
VERTEX
  5
45B
330
28A
100
AcDbEntity
  8
0
  6
CONTINUOUS
 62
     7
100
AcDbVertex
100
AcDb2dVertex
 10
8.5346623912
 20
6.2638275881
 30
0.0
  0
VERTEX
  5
45C
330
28A
100
AcDbEntity
  8
0
  6
CONTINUOUS
 62
     7
100
AcDbVertex
100
AcDb2dVertex
 10
8.5528449281
 20
6.2739497235
 30
0.0
  0
VERTEX
  5
45D
330
28A
100
AcDbEntity
  8
0
  6
CONTINUOUS
 62
     7
100
AcDbVertex
100
AcDb2dVertex
 10
8.5710158546
 20
6.2852780389
 30
0.0
  0
VERTEX
  5
45E
330
28A
100
AcDbEntity
  8
0
  6
CONTINUOUS
 62
     7
100
AcDbVertex
100
AcDb2dVertex
 10
8.5891145482
 20
6.2977747402
 30
0.0
  0
VERTEX
  5
45F
330
28A
100
AcDbEntity
  8
0
  6
CONTINUOUS
 62
     7
100
AcDbVertex
100
AcDb2dVertex
 10
8.6070806271
 20
6.3113981354
 30
0.0
  0
VERTEX
  5
460
330
28A
100
AcDbEntity
  8
0
  6
CONTINUOUS
 62
     7
100
AcDbVertex
100
AcDb2dVertex
 10
8.6248541522
 20
6.3261027735
 30
0.0
  0
VERTEX
  5
461
330
28A
100
AcDbEntity
  8
0
  6
CONTINUOUS
 62
     7
100
AcDbVertex
100
AcDb2dVertex
 10
8.6423758267
 20
6.3418395963
 30
0.0
  0
VERTEX
  5
462
330
28A
100
AcDbEntity
  8
0
  6
CONTINUOUS
 62
     7
100
AcDbVertex
100
AcDb2dVertex
 10
8.659587194
 20
6.3585561019
 30
0.0
  0
VERTEX
  5
463
330
28A
100
AcDbEntity
  8
0
  6
CONTINUOUS
 62
     7
100
AcDbVertex
100
AcDb2dVertex
 10
8.6764308329
 20
6.3761965201
 30
0.0
  0
VERTEX
  5
464
330
28A
100
AcDbEntity
  8
0
  6
CONTINUOUS
 62
     7
100
AcDbVertex
100
AcDb2dVertex
 10
8.6928505488
 20
6.394701998
 30
0.0
  0
VERTEX
  5
465
330
28A
100
AcDbEntity
  8
0
  6
CONTINUOUS
 62
     7
100
AcDbVertex
100
AcDb2dVertex
 10
8.7087915616
 20
6.4140107969
 30
0.0
  0
VERTEX
  5
466
330
28A
100
AcDbEntity
  8
0
  6
CONTINUOUS
 62
     7
100
AcDbVertex
100
AcDb2dVertex
 10
8.7242006882
 20
6.4340584979
 30
0.0
  0
VERTEX
  5
467
330
28A
100
AcDbEntity
  8
0
  6
CONTINUOUS
 62
     7
100
AcDbVertex
100
AcDb2dVertex
 10
8.73902652
 20
6.4547782172
 30
0.0
  0
VERTEX
  5
468
330
28A
100
AcDbEntity
  8
0
  6
CONTINUOUS
 62
     7
100
AcDbVertex
100
AcDb2dVertex
 10
8.7532195945
 20
6.4761008286
 30
0.0
  0
VERTEX
  5
469
330
28A
100
AcDbEntity
  8
0
  6
CONTINUOUS
 62
     7
100
AcDbVertex
100
AcDb2dVertex
 10
8.76673256
 20
6.4979551948
 30
0.0
  0
VERTEX
  5
46A
330
28A
100
AcDbEntity
  8
0
  6
CONTINUOUS
 62
     7
100
AcDbVertex
100
AcDb2dVertex
 10
8.7795203342
 20
6.5202684042
 30
0.0
  0
VERTEX
  5
46B
330
28A
100
AcDbEntity
  8
0
  6
CONTINUOUS
 62
     7
100
AcDbVertex
100
AcDb2dVertex
 10
8.7915402537
 20
6.5429660146
 30
0.0
  0
VERTEX
  5
46C
330
28A
100
AcDbEntity
  8
0
  6
CONTINUOUS
 62
     7
100
AcDbVertex
100
AcDb2dVertex
 10
8.8027522174
 20
6.5659723013
 30
0.0
  0
VERTEX
  5
46D
330
28A
100
AcDbEntity
  8
0
  6
CONTINUOUS
 62
     7
100
AcDbVertex
100
AcDb2dVertex
 10
8.8131188192
 20
6.5892105096
 30
0.0
  0
VERTEX
  5
46E
330
28A
100
AcDbEntity
  8
0
  6
CONTINUOUS
 62
     7
100
AcDbVertex
100
AcDb2dVertex
 10
8.8226054739
 20
6.6126031114
 30
0.0
  0
VERTEX
  5
46F
330
28A
100
AcDbEntity
  8
0
  6
CONTINUOUS
 62
     7
100
AcDbVertex
100
AcDb2dVertex
 10
8.8311805314
 20
6.6360720631
 30
0.0
  0
VERTEX
  5
470
330
28A
100
AcDbEntity
  8
0
  6
CONTINUOUS
 62
     7
100
AcDbVertex
100
AcDb2dVertex
 10
8.8388153835
 20
6.6595390666
 30
0.0
  0
VERTEX
  5
471
330
28A
100
AcDbEntity
  8
0
  6
CONTINUOUS
 62
     7
100
AcDbVertex
100
AcDb2dVertex
 10
8.8454845583
 20
6.6829258305
 30
0.0
  0
VERTEX
  5
472
330
28A
100
AcDbEntity
  8
0
  6
CONTINUOUS
 62
     7
100
AcDbVertex
100
AcDb2dVertex
 10
8.8511658059
 20
6.7061543306
 30
0.0
  0
VERTEX
  5
473
330
28A
100
AcDbEntity
  8
0
  6
CONTINUOUS
 62
     7
100
AcDbVertex
100
AcDb2dVertex
 10
8.8558401722
 20
6.7291470711
 30
0.0
  0
VERTEX
  5
474
330
28A
100
AcDbEntity
  8
0
  6
CONTINUOUS
 62
     7
100
AcDbVertex
100
AcDb2dVertex
 10
8.8594920625
 20
6.7518273427
 30
0.0
  0
VERTEX
  5
475
330
28A
100
AcDbEntity
  8
0
  6
CONTINUOUS
 62
     7
100
AcDbVertex
100
AcDb2dVertex
 10
8.8621092931
 20
6.7741194784
 30
0.0
  0
VERTEX
  5
476
330
28A
100
AcDbEntity
  8
0
  6
CONTINUOUS
 62
     7
100
AcDbVertex
100
AcDb2dVertex
 10
8.8636831323
 20
6.7959491062
 30
0.0
  0
VERTEX
  5
477
330
28A
100
AcDbEntity
  8
0
  6
CONTINUOUS
 62
     7
100
AcDbVertex
100
AcDb2dVertex
 10
8.8642083295
 20
6.8172433973
 30
0.0
  0
VERTEX
  5
478
330
28A
100
AcDbEntity
  8
0
  6
CONTINUOUS
 62
     7
100
AcDbVertex
100
AcDb2dVertex
 10
8.8636831323
 20
6.8379313086
 30
0.0
  0
VERTEX
  5
479
330
28A
100
AcDbEntity
  8
0
  6
CONTINUOUS
 62
     7
100
AcDbVertex
100
AcDb2dVertex
 10
8.8621092931
 20
6.8579438204
 30
0.0
  0
VERTEX
  5
47A
330
28A
100
AcDbEntity
  8
0
  6
CONTINUOUS
 62
     7
100
AcDbVertex
100
AcDb2dVertex
 10
8.8594920625
 20
6.8772141659
 30
0.0
  0
VERTEX
  5
47B
330
28A
100
AcDbEntity
  8
0
  6
CONTINUOUS
 62
     7
100
AcDbVertex
100
AcDb2dVertex
 10
8.8558401722
 20
6.8956780547
 30
0.0
  0
VERTEX
  5
47C
330
28A
100
AcDbEntity
  8
0
  6
CONTINUOUS
 62
     7
100
AcDbVertex
100
AcDb2dVertex
 10
8.8511658059
 20
6.9132738868
 30
0.0
  0
VERTEX
  5
47D
330
28A
100
AcDbEntity
  8
0
  6
CONTINUOUS
 62
     7
100
AcDbVertex
100
AcDb2dVertex
 10
8.8454845583
 20
6.9299429581
 30
0.0
  0
VERTEX
  5
47E
330
28A
100
AcDbEntity
  8
0
  6
CONTINUOUS
 62
     7
100
AcDbVertex
100
AcDb2dVertex
 10
8.8388153835
 20
6.9456296565
 30
0.0
  0
VERTEX
  5
47F
330
28A
100
AcDbEntity
  8
0
  6
CONTINUOUS
 62
     7
100
AcDbVertex
100
AcDb2dVertex
 10
8.8311805314
 20
6.9602816476
 30
0.0
  0
VERTEX
  5
480
330
28A
100
AcDbEntity
  8
0
  6
CONTINUOUS
 62
     7
100
AcDbVertex
100
AcDb2dVertex
 10
8.8226054739
 20
6.9738500485
 30
0.0
  0
VERTEX
  5
481
330
28A
100
AcDbEntity
  8
0
  6
CONTINUOUS
 62
     7
100
AcDbVertex
100
AcDb2dVertex
 10
8.8131188192
 20
6.986289592
 30
0.0
  0
VERTEX
  5
482
330
28A
100
AcDbEntity
  8
0
  6
CONTINUOUS
 62
     7
100
AcDbVertex
100
AcDb2dVertex
 10
8.8027522174
 20
6.9975587766
 30
0.0
  0
VERTEX
  5
483
330
28A
100
AcDbEntity
  8
0
  6
CONTINUOUS
 62
     7
100
AcDbVertex
100
AcDb2dVertex
 10
8.7915402537
 20
7.0076200056
 30
0.0
  0
VERTEX
  5
484
330
28A
100
AcDbEntity
  8
0
  6
CONTINUOUS
 62
     7
100
AcDbVertex
100
AcDb2dVertex
 10
8.7795203342
 20
7.0164397123
 30
0.0
  0
VERTEX
  5
485
330
28A
100
AcDbEntity
  8
0
  6
CONTINUOUS
 62
     7
100
AcDbVertex
100
AcDb2dVertex
 10
8.76673256
 20
7.0239884719
 30
0.0
  0
VERTEX
  5
486
330
28A
100
AcDbEntity
  8
0
  6
CONTINUOUS
 62
     7
100
AcDbVertex
100
AcDb2dVertex
 10
8.7532195945
 20
7.0302411002
 30
0.0
  0
VERTEX
  5
487
330
28A
100
AcDbEntity
  8
0
  6
CONTINUOUS
 62
     7
100
AcDbVertex
100
AcDb2dVertex
 10
8.73902652
 20
7.0351767366
 30
0.0
  0
VERTEX
  5
488
330
28A
100
AcDbEntity
  8
0
  6
CONTINUOUS
 62
     7
100
AcDbVertex
100
AcDb2dVertex
 10
8.7242006882
 20
7.0387789148
 30
0.0
  0
VERTEX
  5
489
330
28A
100
AcDbEntity
  8
0
  6
CONTINUOUS
 62
     7
100
AcDbVertex
100
AcDb2dVertex
 10
8.7087915616
 20
7.041035617
 30
0.0
  0
VERTEX
  5
48A
330
28A
100
AcDbEntity
  8
0
  6
CONTINUOUS
 62
     7
100
AcDbVertex
100
AcDb2dVertex
 10
8.6928505488
 20
7.0419393143
 30
0.0
  0
VERTEX
  5
48B
330
28A
100
AcDbEntity
  8
0
  6
CONTINUOUS
 62
     7
100
AcDbVertex
100
AcDb2dVertex
 10
8.6764308329
 20
7.0414869917
 30
0.0
  0
VERTEX
  5
48C
330
28A
100
AcDbEntity
  8
0
  6
CONTINUOUS
 62
     7
100
AcDbVertex
100
AcDb2dVertex
 10
8.659587194
 20
7.0396801584
 30
0.0
  0
VERTEX
  5
48D
330
28A
100
AcDbEntity
  8
0
  6
CONTINUOUS
 62
     7
100
AcDbVertex
100
AcDb2dVertex
 10
8.6423758267
 20
7.0365248423
 30
0.0
  0
VERTEX
  5
48E
330
28A
100
AcDbEntity
  8
0
  6
CONTINUOUS
 62
     7
100
AcDbVertex
100
AcDb2dVertex
 10
8.6248541522
 20
7.0320315703
 30
0.0
  0
VERTEX
  5
48F
330
28A
100
AcDbEntity
  8
0
  6
CONTINUOUS
 62
     7
100
AcDbVertex
100
AcDb2dVertex
 10
8.6070806271
 20
7.0262153331
 30
0.0
  0
VERTEX
  5
490
330
28A
100
AcDbEntity
  8
0
  6
CONTINUOUS
 62
     7
100
AcDbVertex
100
AcDb2dVertex
 10
8.5891145482
 20
7.0190955351
 30
0.0
  0
VERTEX
  5
491
330
28A
100
AcDbEntity
  8
0
  6
CONTINUOUS
 62
     7
100
AcDbVertex
100
AcDb2dVertex
 10
8.5710158546
 20
7.0106959296
 30
0.0
  0
VERTEX
  5
492
330
28A
100
AcDbEntity
  8
0
  6
CONTINUOUS
 62
     7
100
AcDbVertex
100
AcDb2dVertex
 10
8.5528449281
 20
7.0010445398
 30
0.0
  0
VERTEX
  5
493
330
28A
100
AcDbEntity
  8
0
  6
CONTINUOUS
 62
     7
100
AcDbVertex
100
AcDb2dVertex
 10
8.5346623912
 20
6.9901735651
 30
0.0
  0
VERTEX
  5
494
330
28A
100
AcDbEntity
  8
0
  6
CONTINUOUS
 62
     7
100
AcDbVertex
100
AcDb2dVertex
 10
8.5165289054
 20
6.9781192736
 30
0.0
  0
VERTEX
  5
495
330
28A
100
AcDbEntity
  8
0
  6
CONTINUOUS
 62
     7
100
AcDbVertex
100
AcDb2dVertex
 10
8.4985049682
 20
6.9649218814
 30
0.0
  0
VERTEX
  5
496
330
28A
100
AcDbEntity
  8
0
  6
CONTINUOUS
 62
     7
100
AcDbVertex
100
AcDb2dVertex
 10
8.480650712
 20
6.9506254182
 30
0.0
  0
VERTEX
  5
497
330
28A
100
AcDbEntity
  8
0
  6
CONTINUOUS
 62
     7
100
AcDbVertex
100
AcDb2dVertex
 10
8.4630257029
 20
6.9352775804
 30
0.0
  0
VERTEX
  5
498
330
28A
100
AcDbEntity
  8
0
  6
CONTINUOUS
 62
     7
100
AcDbVertex
100
AcDb2dVertex
 10
8.4456887422
 20
6.9189295723
 30
0.0
  0
VERTEX
  5
499
330
28A
100
AcDbEntity
  8
0
  6
CONTINUOUS
 62
     7
100
AcDbVertex
100
AcDb2dVertex
 10
8.4286976701
 20
6.9016359347
 30
0.0
  0
VERTEX
  5
49A
330
28A
100
AcDbEntity
  8
0
  6
CONTINUOUS
 62
     7
100
AcDbVertex
100
AcDb2dVertex
 10
8.4121091731
 20
6.8834543634
 30
0.0
  0
VERTEX
  5
49B
330
28A
100
AcDbEntity
  8
0
  6
CONTINUOUS
 62
     7
100
AcDbVertex
100
AcDb2dVertex
 10
8.3959785945
 20
6.8644455165
 30
0.0
  0
VERTEX
  5
49C
330
28A
100
AcDbEntity
  8
0
  6
CONTINUOUS
 62
     7
100
AcDbVertex
100
AcDb2dVertex
 10
8.3803597496
 20
6.8446728122
 30
0.0
  0
VERTEX
  5
49D
330
28A
100
AcDbEntity
  8
0
  6
CONTINUOUS
 62
     7
100
AcDbVertex
100
AcDb2dVertex
 10
8.3653047468
 20
6.824202217
 30
0.0
  0
VERTEX
  5
49E
330
28A
100
AcDbEntity
  8
0
  6
CONTINUOUS
 62
     7
100
AcDbVertex
100
AcDb2dVertex
 10
8.3508638133
 20
6.8031020257
 30
0.0
  0
VERTEX
  5
49F
330
28A
100
AcDbEntity
  8
0
  6
CONTINUOUS
 62
     7
100
AcDbVertex
100
AcDb2dVertex
 10
8.3370851275
 20
6.7814426339
 30
0.0
  0
VERTEX
  5
4A0
330
28A
100
AcDbEntity
  8
0
  6
CONTINUOUS
 62
     7
100
AcDbVertex
100
AcDb2dVertex
 10
8.3240146584
 20
6.7592963023
 30
0.0
  0
VERTEX
  5
4A1
330
28A
100
AcDbEntity
  8
0
  6
CONTINUOUS
 62
     7
100
AcDbVertex
100
AcDb2dVertex
 10
8.3116960123
 20
6.7367369166
 30
0.0
  0
VERTEX
  5
4A2
330
28A
100
AcDbEntity
  8
0
  6
CONTINUOUS
 62
     7
100
AcDbVertex
100
AcDb2dVertex
 10
8.3001702872
 20
6.7138397404
 30
0.0
  0
VERTEX
  5
4A3
330
28A
100
AcDbEntity
  8
0
  6
CONTINUOUS
 62
     7
100
AcDbVertex
100
AcDb2dVertex
 10
8.2894759356
 20
6.6906811642
 30
0.0
  0
VERTEX
  5
4A4
330
28A
100
AcDbEntity
  8
0
  6
CONTINUOUS
 62
     7
100
AcDbVertex
100
AcDb2dVertex
 10
8.2796486367
 20
6.6673384506
 30
0.0
  0
VERTEX
  5
4A5
330
28A
100
AcDbEntity
  8
0
  6
CONTINUOUS
 62
     7
100
AcDbVertex
100
AcDb2dVertex
 10
8.2707211766
 20
6.6438894766
 30
0.0
  0
VERTEX
  5
4A6
330
28A
100
AcDbEntity
  8
0
  6
CONTINUOUS
 62
     7
100
AcDbVertex
100
AcDb2dVertex
 10
8.2627233394
 20
6.6204124737
 30
0.0
  0
VERTEX
  5
4A7
330
28A
100
AcDbEntity
  8
0
  6
CONTINUOUS
 62
     7
100
AcDbVertex
100
AcDb2dVertex
 10
8.255681808
 20
6.5969857668
 30
0.0
  0
VERTEX
  5
4A8
330
28A
100
AcDbEntity
  8
0
  6
CONTINUOUS
 62
     7
100
AcDbVertex
100
AcDb2dVertex
 10
8.2496200746
 20
6.5736875132
 30
0.0
  0
VERTEX
  5
4A9
330
28A
100
AcDbEntity
  8
0
  6
CONTINUOUS
 62
     7
100
AcDbVertex
100
AcDb2dVertex
 10
8.2445583625
 20
6.5505954414
 30
0.0
  0
VERTEX
  5
4AA
330
28A
100
AcDbEntity
  8
0
  6
CONTINUOUS
 62
     7
100
AcDbVertex
100
AcDb2dVertex
 10
8.240513559
 20
6.5277865923
 30
0.0
  0
VERTEX
  5
4AB
330
28A
100
AcDbEntity
  8
0
  6
CONTINUOUS
 62
     7
100
AcDbVertex
100
AcDb2dVertex
 10
8.2374991584
 20
6.5053370616
 30
0.0
  0
VERTEX
  5
4AC
330
28A
100
AcDbEntity
  8
0
  6
CONTINUOUS
 62
     7
100
AcDbVertex
100
AcDb2dVertex
 10
8.2355252175
 20
6.4833217466
 30
0.0
  0
VERTEX
  5
4AD
330
28A
100
AcDbEntity
  8
0
  6
CONTINUOUS
 62
     7
100
AcDbVertex
100
AcDb2dVertex
 10
8.2345983219
 20
6.4618140955
 30
0.0
  0
SEQEND
  5
4AE
330
28A
100
AcDbEntity
  8
0
  6
CONTINUOUS
 62
     7
  0
LINE
  5
28B
330
1F
100
AcDbEntity
  8
0
  6
CONTINUOUS
 62
     7
100
AcDbLine
 10
8.2239904454
 20
6.4618133596
 30
0.0
 11
8.2345983219
 21
6.4618140955
 31
0.0
  0
POLYLINE
  5
28C
330
1F
100
AcDbEntity
  8
0
  6
CONTINUOUS
 62
     7
100
AcDb2dPolyline
 66
     1
 10
0.0
 20
0.0
 30
0.0
  0
VERTEX
  5
4AF
330
28C
100
AcDbEntity
  8
0
  6
CONTINUOUS
 62
     7
100
AcDbVertex
100
AcDb2dVertex
 10
8.2239904454
 20
6.4618133596
 30
0.0
  0
VERTEX
  5
4B0
330
28C
100
AcDbEntity
  8
0
  6
CONTINUOUS
 62
     7
100
AcDbVertex
100
AcDb2dVertex
 10
8.224912928
 20
6.4834792873
 30
0.0
  0
VERTEX
  5
4B1
330
28C
100
AcDbEntity
  8
0
  6
CONTINUOUS
 62
     7
100
AcDbVertex
100
AcDb2dVertex
 10
8.2268809714
 20
6.50565324
 30
0.0
  0
VERTEX
  5
4B2
330
28C
100
AcDbEntity
  8
0
  6
CONTINUOUS
 62
     7
100
AcDbVertex
100
AcDb2dVertex
 10
8.2298881282
 20
6.5282625739
 30
0.0
  0
VERTEX
  5
4B3
330
28C
100
AcDbEntity
  8
0
  6
CONTINUOUS
 62
     7
100
AcDbVertex
100
AcDb2dVertex
 10
8.2339245466
 20
6.5512332186
 30
0.0
  0
VERTEX
  5
4B4
330
28C
100
AcDbEntity
  8
0
  6
CONTINUOUS
 62
     7
100
AcDbVertex
100
AcDb2dVertex
 10
8.238977003
 20
6.5744899202
 30
0.0
  0
VERTEX
  5
4B5
330
28C
100
AcDbEntity
  8
0
  6
CONTINUOUS
 62
     7
100
AcDbVertex
100
AcDb2dVertex
 10
8.2450289449
 20
6.5979564875
 30
0.0
  0
VERTEX
  5
4B6
330
28C
100
AcDbEntity
  8
0
  6
CONTINUOUS
 62
     7
100
AcDbVertex
100
AcDb2dVertex
 10
8.2520605457
 20
6.6215560418
 30
0.0
  0
VERTEX
  5
4B7
330
28C
100
AcDbEntity
  8
0
  6
CONTINUOUS
 62
     7
100
AcDbVertex
100
AcDb2dVertex
 10
8.2600487693
 20
6.6452112689
 30
0.0
  0
VERTEX
  5
4B8
330
28C
100
AcDbEntity
  8
0
  6
CONTINUOUS
 62
     7
100
AcDbVertex
100
AcDb2dVertex
 10
8.2689674454
 20
6.6688446719
 30
0.0
  0
VERTEX
  5
4B9
330
28C
100
AcDbEntity
  8
0
  6
CONTINUOUS
 62
     7
100
AcDbVertex
100
AcDb2dVertex
 10
8.2787873556
 20
6.6923788255
 30
0.0
  0
VERTEX
  5
4BA
330
28C
100
AcDbEntity
  8
0
  6
CONTINUOUS
 62
     7
100
AcDbVertex
100
AcDb2dVertex
 10
8.2894763289
 20
6.7157366298
 30
0.0
  0
VERTEX
  5
4BB
330
28C
100
AcDbEntity
  8
0
  6
CONTINUOUS
 62
     7
100
AcDbVertex
100
AcDb2dVertex
 10
8.3009993474
 20
6.7388415624
 30
0.0
  0
VERTEX
  5
4BC
330
28C
100
AcDbEntity
  8
0
  6
CONTINUOUS
 62
     7
100
AcDbVertex
100
AcDb2dVertex
 10
8.3133186604
 20
6.7616179293
 30
0.0
  0
VERTEX
  5
4BD
330
28C
100
AcDbEntity
  8
0
  6
CONTINUOUS
 62
     7
100
AcDbVertex
100
AcDb2dVertex
 10
8.3263939088
 20
6.7839911129
 30
0.0
  0
VERTEX
  5
4BE
330
28C
100
AcDbEntity
  8
0
  6
CONTINUOUS
 62
     7
100
AcDbVertex
100
AcDb2dVertex
 10
8.3401822569
 20
6.8058878168
 30
0.0
  0
VERTEX
  5
4BF
330
28C
100
AcDbEntity
  8
0
  6
CONTINUOUS
 62
     7
100
AcDbVertex
100
AcDb2dVertex
 10
8.3546385327
 20
6.8272363051
 30
0.0
  0
VERTEX
  5
4C0
330
28C
100
AcDbEntity
  8
0
  6
CONTINUOUS
 62
     7
100
AcDbVertex
100
AcDb2dVertex
 10
8.369715376
 20
6.8479666384
 30
0.0
  0
VERTEX
  5
4C1
330
28C
100
AcDbEntity
  8
0
  6
CONTINUOUS
 62
     7
100
AcDbVertex
100
AcDb2dVertex
 10
8.3853633938
 20
6.8680109019
 30
0.0
  0
VERTEX
  5
4C2
330
28C
100
AcDbEntity
  8
0
  6
CONTINUOUS
 62
     7
100
AcDbVertex
100
AcDb2dVertex
 10
8.4015313217
 20
6.8873034289
 30
0.0
  0
VERTEX
  5
4C3
330
28C
100
AcDbEntity
  8
0
  6
CONTINUOUS
 62
     7
100
AcDbVertex
100
AcDb2dVertex
 10
8.418166192
 20
6.9057810153
 30
0.0
  0
VERTEX
  5
4C4
330
28C
100
AcDbEntity
  8
0
  6
CONTINUOUS
 62
     7
100
AcDbVertex
100
AcDb2dVertex
 10
8.4352135074
 20
6.9233831266
 30
0.0
  0
VERTEX
  5
4C5
330
28C
100
AcDbEntity
  8
0
  6
CONTINUOUS
 62
     7
100
AcDbVertex
100
AcDb2dVertex
 10
8.4526174191
 20
6.9400520968
 30
0.0
  0
VERTEX
  5
4C6
330
28C
100
AcDbEntity
  8
0
  6
CONTINUOUS
 62
     7
100
AcDbVertex
100
AcDb2dVertex
 10
8.4703209105
 20
6.9557333168
 30
0.0
  0
VERTEX
  5
4C7
330
28C
100
AcDbEntity
  8
0
  6
CONTINUOUS
 62
     7
100
AcDbVertex
100
AcDb2dVertex
 10
8.4882659831
 20
6.9703754133
 30
0.0
  0
VERTEX
  5
4C8
330
28C
100
AcDbEntity
  8
0
  6
CONTINUOUS
 62
     7
100
AcDbVertex
100
AcDb2dVertex
 10
8.5063938472
 20
6.9839304176
 30
0.0
  0
VERTEX
  5
4C9
330
28C
100
AcDbEntity
  8
0
  6
CONTINUOUS
 62
     7
100
AcDbVertex
100
AcDb2dVertex
 10
8.5246451143
 20
6.9963539221
 30
0.0
  0
VERTEX
  5
4CA
330
28C
100
AcDbEntity
  8
0
  6
CONTINUOUS
 62
     7
100
AcDbVertex
100
AcDb2dVertex
 10
8.5429599915
 20
7.0076052263
 30
0.0
  0
VERTEX
  5
4CB
330
28C
100
AcDbEntity
  8
0
  6
CONTINUOUS
 62
     7
100
AcDbVertex
100
AcDb2dVertex
 10
8.5612784776
 20
7.0176474699
 30
0.0
  0
VERTEX
  5
4CC
330
28C
100
AcDbEntity
  8
0
  6
CONTINUOUS
 62
     7
100
AcDbVertex
100
AcDb2dVertex
 10
8.5795405593
 20
7.0264477534
 30
0.0
  0
VERTEX
  5
4CD
330
28C
100
AcDbEntity
  8
0
  6
CONTINUOUS
 62
     7
100
AcDbVertex
100
AcDb2dVertex
 10
8.5976864086
 20
7.0339772465
 30
0.0
  0
VERTEX
  5
4CE
330
28C
100
AcDbEntity
  8
0
  6
CONTINUOUS
 62
     7
100
AcDbVertex
100
AcDb2dVertex
 10
8.6156565778
 20
7.0402112817
 30
0.0
  0
VERTEX
  5
4CF
330
28C
100
AcDbEntity
  8
0
  6
CONTINUOUS
 62
     7
100
AcDbVertex
100
AcDb2dVertex
 10
8.6333921951
 20
7.0451294357
 30
0.0
  0
VERTEX
  5
4D0
330
28C
100
AcDbEntity
  8
0
  6
CONTINUOUS
 62
     7
100
AcDbVertex
100
AcDb2dVertex
 10
8.6508351567
 20
7.0487155963
 30
0.0
  0
VERTEX
  5
4D1
330
28C
100
AcDbEntity
  8
0
  6
CONTINUOUS
 62
     7
100
AcDbVertex
100
AcDb2dVertex
 10
8.6679283181
 20
7.0509580148
 30
0.0
  0
VERTEX
  5
4D2
330
28C
100
AcDbEntity
  8
0
  6
CONTINUOUS
 62
     7
100
AcDbVertex
100
AcDb2dVertex
 10
8.6846156803
 20
7.0518493449
 30
0.0
  0
VERTEX
  5
4D3
330
28C
100
AcDbEntity
  8
0
  6
CONTINUOUS
 62
     7
100
AcDbVertex
100
AcDb2dVertex
 10
8.7008425741
 20
7.0513866665
 30
0.0
  0
VERTEX
  5
4D4
330
28C
100
AcDbEntity
  8
0
  6
CONTINUOUS
 62
     7
100
AcDbVertex
100
AcDb2dVertex
 10
8.7165558385
 20
7.0495714952
 30
0.0
  0
VERTEX
  5
4D5
330
28C
100
AcDbEntity
  8
0
  6
CONTINUOUS
 62
     7
100
AcDbVertex
100
AcDb2dVertex
 10
8.7317039955
 20
7.046409778
 30
0.0
  0
VERTEX
  5
4D6
330
28C
100
AcDbEntity
  8
0
  6
CONTINUOUS
 62
     7
100
AcDbVertex
100
AcDb2dVertex
 10
8.7462374183
 20
7.0419118727
 30
0.0
  0
VERTEX
  5
4D7
330
28C
100
AcDbEntity
  8
0
  6
CONTINUOUS
 62
     7
100
AcDbVertex
100
AcDb2dVertex
 10
8.760108494
 20
7.036092515
 30
0.0
  0
VERTEX
  5
4D8
330
28C
100
AcDbEntity
  8
0
  6
CONTINUOUS
 62
     7
100
AcDbVertex
100
AcDb2dVertex
 10
8.7732717797
 20
7.0289707696
 30
0.0
  0
VERTEX
  5
4D9
330
28C
100
AcDbEntity
  8
0
  6
CONTINUOUS
 62
     7
100
AcDbVertex
100
AcDb2dVertex
 10
8.7856841512
 20
7.020569968
 30
0.0
  0
VERTEX
  5
4DA
330
28C
100
AcDbEntity
  8
0
  6
CONTINUOUS
 62
     7
100
AcDbVertex
100
AcDb2dVertex
 10
8.7973049444
 20
7.0109176321
 30
0.0
  0
VERTEX
  5
4DB
330
28C
100
AcDbEntity
  8
0
  6
CONTINUOUS
 62
     7
100
AcDbVertex
100
AcDb2dVertex
 10
8.8080960885
 20
7.0000453838
 30
0.0
  0
VERTEX
  5
4DC
330
28C
100
AcDbEntity
  8
0
  6
CONTINUOUS
 62
     7
100
AcDbVertex
100
AcDb2dVertex
 10
8.8180222308
 20
6.9879888416
 30
0.0
  0
VERTEX
  5
4DD
330
28C
100
AcDbEntity
  8
0
  6
CONTINUOUS
 62
     7
100
AcDbVertex
100
AcDb2dVertex
 10
8.8270508522
 20
6.9747875039
 30
0.0
  0
VERTEX
  5
4DE
330
28C
100
AcDbEntity
  8
0
  6
CONTINUOUS
 62
     7
100
AcDbVertex
100
AcDb2dVertex
 10
8.8351523741
 20
6.9604846195
 30
0.0
  0
VERTEX
  5
4DF
330
28C
100
AcDbEntity
  8
0
  6
CONTINUOUS
 62
     7
100
AcDbVertex
100
AcDb2dVertex
 10
8.8423002552
 20
6.9451270459
 30
0.0
  0
VERTEX
  5
4E0
330
28C
100
AcDbEntity
  8
0
  6
CONTINUOUS
 62
     7
100
AcDbVertex
100
AcDb2dVertex
 10
8.8484710784
 20
6.9287650961
 30
0.0
  0
VERTEX
  5
4E1
330
28C
100
AcDbEntity
  8
0
  6
CONTINUOUS
 62
     7
100
AcDbVertex
100
AcDb2dVertex
 10
8.8536446274
 20
6.9114523733
 30
0.0
  0
VERTEX
  5
4E2
330
28C
100
AcDbEntity
  8
0
  6
CONTINUOUS
 62
     7
100
AcDbVertex
100
AcDb2dVertex
 10
8.8578039533
 20
6.8932455956
 30
0.0
  0
VERTEX
  5
4E3
330
28C
100
AcDbEntity
  8
0
  6
CONTINUOUS
 62
     7
100
AcDbVertex
100
AcDb2dVertex
 10
8.8609354297
 20
6.8742044102
 30
0.0
  0
VERTEX
  5
4E4
330
28C
100
AcDbEntity
  8
0
  6
CONTINUOUS
 62
     7
100
AcDbVertex
100
AcDb2dVertex
 10
8.8630287975
 20
6.8543911977
 30
0.0
  0
VERTEX
  5
4E5
330
28C
100
AcDbEntity
  8
0
  6
CONTINUOUS
 62
     7
100
AcDbVertex
100
AcDb2dVertex
 10
8.8640771988
 20
6.8338708681
 30
0.0
  0
VERTEX
  5
4E6
330
28C
100
AcDbEntity
  8
0
  6
CONTINUOUS
 62
     7
100
AcDbVertex
100
AcDb2dVertex
 10
8.8642083295
 20
6.8233664581
 30
0.0
  0
SEQEND
  5
4E7
330
28C
100
AcDbEntity
  8
0
  6
CONTINUOUS
 62
     7
  0
POLYLINE
  5
28D
330
1F
100
AcDbEntity
  8
0
  6
CONTINUOUS
 62
     7
100
AcDb2dPolyline
 66
     1
 10
0.0
 20
0.0
 30
0.0
  0
VERTEX
  5
4E8
330
28D
100
AcDbEntity
  8
0
  6
CONTINUOUS
 62
     7
100
AcDbVertex
100
AcDb2dVertex
 10
8.5441135913
 20
6.2688860293
 30
0.0
  0
VERTEX
  5
4E9
330
28D
100
AcDbEntity
  8
0
  6
CONTINUOUS
 62
     7
100
AcDbVertex
100
AcDb2dVertex
 10
8.5429599915
 20
6.2682222539
 30
0.0
  0
VERTEX
  5
4EA
330
28D
100
AcDbEntity
  8
0
  6
CONTINUOUS
 62
     7
100
AcDbVertex
100
AcDb2dVertex
 10
8.5246451143
 20
6.258327651
 30
0.0
  0
VERTEX
  5
4EB
330
28D
100
AcDbEntity
  8
0
  6
CONTINUOUS
 62
     7
100
AcDbVertex
100
AcDb2dVertex
 10
8.5063938472
 20
6.249678691
 30
0.0
  0
VERTEX
  5
4EC
330
28D
100
AcDbEntity
  8
0
  6
CONTINUOUS
 62
     7
100
AcDbVertex
100
AcDb2dVertex
 10
8.4882659831
 20
6.2423037088
 30
0.0
  0
VERTEX
  5
4ED
330
28D
100
AcDbEntity
  8
0
  6
CONTINUOUS
 62
     7
100
AcDbVertex
100
AcDb2dVertex
 10
8.4703209105
 20
6.2362268656
 30
0.0
  0
VERTEX
  5
4EE
330
28D
100
AcDbEntity
  8
0
  6
CONTINUOUS
 62
     7
100
AcDbVertex
100
AcDb2dVertex
 10
8.4526174191
 20
6.2314680695
 30
0.0
  0
VERTEX
  5
4EF
330
28D
100
AcDbEntity
  8
0
  6
CONTINUOUS
 62
     7
100
AcDbVertex
100
AcDb2dVertex
 10
8.4352135074
 20
6.2280429109
 30
0.0
  0
VERTEX
  5
4F0
330
28D
100
AcDbEntity
  8
0
  6
CONTINUOUS
 62
     7
100
AcDbVertex
100
AcDb2dVertex
 10
8.418166192
 20
6.2259626109
 30
0.0
  0
VERTEX
  5
4F1
330
28D
100
AcDbEntity
  8
0
  6
CONTINUOUS
 62
     7
100
AcDbVertex
100
AcDb2dVertex
 10
8.4015313217
 20
6.2252339848
 30
0.0
  0
VERTEX
  5
4F2
330
28D
100
AcDbEntity
  8
0
  6
CONTINUOUS
 62
     7
100
AcDbVertex
100
AcDb2dVertex
 10
8.3853633938
 20
6.2258594197
 30
0.0
  0
VERTEX
  5
4F3
330
28D
100
AcDbEntity
  8
0
  6
CONTINUOUS
 62
     7
100
AcDbVertex
100
AcDb2dVertex
 10
8.369715376
 20
6.2278368664
 30
0.0
  0
VERTEX
  5
4F4
330
28D
100
AcDbEntity
  8
0
  6
CONTINUOUS
 62
     7
100
AcDbVertex
100
AcDb2dVertex
 10
8.3546385327
 20
6.2311598468
 30
0.0
  0
VERTEX
  5
4F5
330
28D
100
AcDbEntity
  8
0
  6
CONTINUOUS
 62
     7
100
AcDbVertex
100
AcDb2dVertex
 10
8.3401822569
 20
6.2358174744
 30
0.0
  0
VERTEX
  5
4F6
330
28D
100
AcDbEntity
  8
0
  6
CONTINUOUS
 62
     7
100
AcDbVertex
100
AcDb2dVertex
 10
8.3263939088
 20
6.2417944905
 30
0.0
  0
VERTEX
  5
4F7
330
28D
100
AcDbEntity
  8
0
  6
CONTINUOUS
 62
     7
100
AcDbVertex
100
AcDb2dVertex
 10
8.3133186604
 20
6.2490713136
 30
0.0
  0
VERTEX
  5
4F8
330
28D
100
AcDbEntity
  8
0
  6
CONTINUOUS
 62
     7
100
AcDbVertex
100
AcDb2dVertex
 10
8.3009993474
 20
6.2576241044
 30
0.0
  0
VERTEX
  5
4F9
330
28D
100
AcDbEntity
  8
0
  6
CONTINUOUS
 62
     7
100
AcDbVertex
100
AcDb2dVertex
 10
8.2894763289
 20
6.2674248431
 30
0.0
  0
VERTEX
  5
4FA
330
28D
100
AcDbEntity
  8
0
  6
CONTINUOUS
 62
     7
100
AcDbVertex
100
AcDb2dVertex
 10
8.2787873556
 20
6.2784414214
 30
0.0
  0
VERTEX
  5
4FB
330
28D
100
AcDbEntity
  8
0
  6
CONTINUOUS
 62
     7
100
AcDbVertex
100
AcDb2dVertex
 10
8.2689674454
 20
6.2906377481
 30
0.0
  0
VERTEX
  5
4FC
330
28D
100
AcDbEntity
  8
0
  6
CONTINUOUS
 62
     7
100
AcDbVertex
100
AcDb2dVertex
 10
8.2600487693
 20
6.3039738669
 30
0.0
  0
VERTEX
  5
4FD
330
28D
100
AcDbEntity
  8
0
  6
CONTINUOUS
 62
     7
100
AcDbVertex
100
AcDb2dVertex
 10
8.2520605457
 20
6.3184060873
 30
0.0
  0
VERTEX
  5
4FE
330
28D
100
AcDbEntity
  8
0
  6
CONTINUOUS
 62
     7
100
AcDbVertex
100
AcDb2dVertex
 10
8.2450289449
 20
6.3338871281
 30
0.0
  0
VERTEX
  5
4FF
330
28D
100
AcDbEntity
  8
0
  6
CONTINUOUS
 62
     7
100
AcDbVertex
100
AcDb2dVertex
 10
8.238977003
 20
6.350366272
 30
0.0
  0
VERTEX
  5
500
330
28D
100
AcDbEntity
  8
0
  6
CONTINUOUS
 62
     7
100
AcDbVertex
100
AcDb2dVertex
 10
8.2339245466
 20
6.3677895317
 30
0.0
  0
VERTEX
  5
501
330
28D
100
AcDbEntity
  8
0
  6
CONTINUOUS
 62
     7
100
AcDbVertex
100
AcDb2dVertex
 10
8.2298881282
 20
6.3860998269
 30
0.0
  0
VERTEX
  5
502
330
28D
100
AcDbEntity
  8
0
  6
CONTINUOUS
 62
     7
100
AcDbVertex
100
AcDb2dVertex
 10
8.2268809714
 20
6.4052371715
 30
0.0
  0
VERTEX
  5
503
330
28D
100
AcDbEntity
  8
0
  6
CONTINUOUS
 62
     7
100
AcDbVertex
100
AcDb2dVertex
 10
8.224912928
 20
6.4251388696
 30
0.0
  0
VERTEX
  5
504
330
28D
100
AcDbEntity
  8
0
  6
CONTINUOUS
 62
     7
100
AcDbVertex
100
AcDb2dVertex
 10
8.2239904454
 20
6.4457397216
 30
0.0
  0
SEQEND
  5
505
330
28D
100
AcDbEntity
  8
0
  6
CONTINUOUS
 62
     7
  0
LINE
  5
28E
330
1F
100
AcDbEntity
  8
0
  6
CONTINUOUS
 62
     7
100
AcDbLine
 10
8.2239904454
 20
6.4457397216
 30
0.0
 11
8.2345983219
 21
6.4457404575
 31
0.0
  0
SPLINE
  5
28F
330
1F
100
AcDbEntity
  8
0
  6
CONTINUOUS
 62
     7
100
AcDbSpline
210
0.0
220
0.0
230
1.0
 70
     8
 71
     3
 72
    33
 73
    29
 74
     0
 42
0.00000001
 43
0.00000001
 40
0.0
 40
0.0
 40
0.0
 40
0.0
 40
0.0510589614705941
 40
0.10226775430068
 40
0.1487796639641517
 40
0.1954404262918629
 40
0.2419480373050619
 40
0.2980912443996934
 40
0.3541701265478847
 40
0.3976247537195285
 40
0.4410348546717719
 40
0.4774058767984063
 40
0.5137504783089673
 40
0.5503171352723422
 40
0.5868633293096682
 40
0.6194521656398536
 40
0.6520357582601987
 40
0.6826454251269671
 40
0.7132565302702706
 40
0.743528470055873
 40
0.7738069739638817
 40
0.8049188914878274
 40
0.8360432730135442
 40
0.8694666306652847
 40
0.9029088934194038
 40
0.9408363525794461
 40
0.9787890485755423
 40
1.0
 40
1.0
 40
1.0
 40
1.0
 10
8.214691587104001
 20
6.699797580858662
 30
0.0
 10
8.221030844970981
 20
6.70291543568353
 30
0.0
 10
8.233727963112766
 20
6.709160294607234
 30
0.0
 10
8.25109258618125
 20
6.722918572444259
 30
0.0
 10
8.267470857605899
 20
6.737821075273692
 30
0.0
 10
8.282686742272027
 20
6.753870806163811
 30
0.0
 10
8.298191408366714
 20
6.772362555541099
 30
0.0
 10
8.313566905555852
 20
6.793390811575794
 30
0.0
 10
8.326809156406595
 20
6.815262806788126
 30
0.0
 10
8.336722196671412
 20
6.836009239966429
 30
0.0
 10
8.343060007220696
 20
6.854144439150081
 30
0.0
 10
8.346495508260709
 20
6.871048105357899
 30
0.0
 10
8.347255167231387
 20
6.886489369990193
 30
0.0
 10
8.345075127556838
 20
6.901022835381583
 30
0.0
 10
8.340095375543182
 20
6.913775118650572
 30
0.0
 10
8.332545094329054
 20
6.924388800363704
 30
0.0
 10
8.323258750611792
 20
6.932695465611972
 30
0.0
 10
8.312248887612855
 20
6.938896110818487
 30
0.0
 10
8.300096931289296
 20
6.94302201970043
 30
0.0
 10
8.28690009950779
 20
6.945021272815545
 30
0.0
 10
8.272992981239913
 20
6.944950802613103
 30
0.0
 10
8.258702383679434
 20
6.942673516872413
 30
0.0
 10
8.244092330174412
 20
6.938198189888552
 30
0.0
 10
8.229713126202007
 20
6.931439298981869
 30
0.0
 10
8.215275270478484
 20
6.922197621960461
 30
0.0
 10
8.20174642554196
 20
6.910448136329724
 30
0.0
 10
8.190687787541751
 20
6.898859908746267
 30
0.0
 10
8.18552235879761
 20
6.890655212424562
 30
0.0
 10
8.183670484159121
 20
6.88771372009406
 30
0.0
  0
SPLINE
  5
290
330
1F
100
AcDbEntity
  8
0
  6
CONTINUOUS
 62
     7
100
AcDbSpline
210
0.0
220
0.0
230
1.0
 70
     8
 71
     3
 72
    10
 73
     6
 74
     0
 42
0.00000001
 43
0.00000001
 40
0.0
 40
0.0
 40
0.0
 40
0.0
 40
0.1182579344701632
 40
0.5605961536330825
 40
1.0
 40
1.0
 40
1.0
 40
1.0
 10
8.150184346857126
 20
6.777890846766186
 30
0.0
 10
8.150123406667232
 20
6.77610627292419
 30
0.0
 10
8.149834522574942
 20
6.76764658490258
 30
0.0
 10
8.151253798593332
 20
6.752599977588783
 30
0.0
 10
8.154397962927117
 20
6.739985883426497
 30
0.0
 10
8.155964813320088
 20
6.733699825734543
 30
0.0
  0
SPLINE
  5
291
330
1F
100
AcDbEntity
  8
0
  6
CONTINUOUS
 62
     7
100
AcDbSpline
210
0.0
220
0.0
230
1.0
 70
     8
 71
     3
 72
    14
 73
    10
 74
     0
 42
0.00000001
 43
0.00000001
 40
0.0
 40
0.0
 40
0.0
 40
0.0
 40
0.0840729886669889
 40
0.1715529037482891
 40
0.3409112328730702
 40
0.4751064541189358
 40
0.6129782159743822
 40
0.8082007182451667
 40
1.0
 40
1.0
 40
1.0
 40
1.0
 10
8.206669459785894
 20
6.314976856446065
 30
0.0
 10
8.208449846853558
 20
6.313927216529471
 30
0.0
 10
8.212082768391094
 20
6.311785401679819
 30
0.0
 10
8.220078661196785
 20
6.306721101258913
 30
0.0
 10
8.229592304364946
 20
6.300394529685826
 30
0.0
 10
8.24004345326703
 20
6.293320585629213
 30
0.0
 10
8.250690784814797
 20
6.286180269713663
 30
0.0
 10
8.262091328130147
 20
6.278733761466562
 30
0.0
 10
8.269656004462798
 20
6.274249950506826
 30
0.0
 10
8.273404887722595
 20
6.272027874755284
 30
0.0
  0
SPLINE
  5
292
330
1F
100
AcDbEntity
  8
0
  6
CONTINUOUS
 62
     7
100
AcDbSpline
210
0.0
220
0.0
230
1.0
 70
     8
 71
     3
 72
    12
 73
     8
 74
     0
 42
0.00000001
 43
0.00000001
 40
0.0
 40
0.0
 40
0.0
 40
0.0
 40
0.1976518910743748
 40
0.3723303153364617
 40
0.5505440757137756
 40
0.822847631390226
 40
1.0
 40
1.0
 40
1.0
 40
1.0
 10
8.189614209209372
 20
6.321686254823124
 30
0.0
 10
8.189610117708304
 20
6.321921391954701
 30
0.0
 10
8.189602410269355
 20
6.322364335768048
 30
0.0
 10
8.191280393082053
 20
6.322179363544838
 30
0.0
 10
8.194338033075729
 20
6.321255035597836
 30
0.0
 10
8.199338501802004
 20
6.319081550158785
 30
0.0
 10
8.20459687858046
 20
6.316137320202881
 30
0.0
 10
8.206669459785894
 20
6.314976856446065
 30
0.0
  0
POLYLINE
  5
293
330
1F
100
AcDbEntity
  8
0
  6
CONTINUOUS
 62
     7
100
AcDb2dPolyline
 66
     1
 10
0.0
 20
0.0
 30
0.0
  0
VERTEX
  5
506
330
293
100
AcDbEntity
  8
0
  6
CONTINUOUS
 62
     7
100
AcDbVertex
100
AcDb2dVertex
 10
8.0523175392
 20
6.5448443808
 30
0.0
  0
VERTEX
  5
507
330
293
100
AcDbEntity
  8
0
  6
CONTINUOUS
 62
     7
100
AcDbVertex
100
AcDb2dVertex
 10
8.0532439344
 20
6.5241887618
 30
0.0
  0
VERTEX
  5
508
330
293
100
AcDbEntity
  8
0
  6
CONTINUOUS
 62
     7
100
AcDbVertex
100
AcDb2dVertex
 10
8.0552215359
 20
6.5042362606
 30
0.0
  0
VERTEX
  5
509
330
293
100
AcDbEntity
  8
0
  6
CONTINUOUS
 62
     7
100
AcDbVertex
100
AcDb2dVertex
 10
8.05824383
 20
6.4850525973
 30
0.0
  0
VERTEX
  5
50A
330
293
100
AcDbEntity
  8
0
  6
CONTINUOUS
 62
     7
100
AcDbVertex
100
AcDb2dVertex
 10
8.0623008617
 20
6.4667009596
 30
0.0
  0
VERTEX
  5
50B
330
293
100
AcDbEntity
  8
0
  6
CONTINUOUS
 62
     7
100
AcDbVertex
100
AcDb2dVertex
 10
8.0673792678
 20
6.4492417944
 30
0.0
  0
VERTEX
  5
50C
330
293
100
AcDbEntity
  8
0
  6
CONTINUOUS
 62
     7
100
AcDbVertex
100
AcDb2dVertex
 10
8.0734623211
 20
6.4327326092
 30
0.0
  0
VERTEX
  5
50D
330
293
100
AcDbEntity
  8
0
  6
CONTINUOUS
 62
     7
100
AcDbVertex
100
AcDb2dVertex
 10
8.080529985
 20
6.4172277823
 30
0.0
  0
VERTEX
  5
50E
330
293
100
AcDbEntity
  8
0
  6
CONTINUOUS
 62
     7
100
AcDbVertex
100
AcDb2dVertex
 10
8.0885589799
 20
6.402778384
 30
0.0
  0
VERTEX
  5
50F
330
293
100
AcDbEntity
  8
0
  6
CONTINUOUS
 62
     7
100
AcDbVertex
100
AcDb2dVertex
 10
8.0975228596
 20
6.3894320079
 30
0.0
  0
VERTEX
  5
510
330
293
100
AcDbEntity
  8
0
  6
CONTINUOUS
 62
     7
100
AcDbVertex
100
AcDb2dVertex
 10
8.1073920988
 20
6.3772326147
 30
0.0
  0
VERTEX
  5
511
330
293
100
AcDbEntity
  8
0
  6
CONTINUOUS
 62
     7
100
AcDbVertex
100
AcDb2dVertex
 10
8.1181341899
 20
6.366220387
 30
0.0
  0
VERTEX
  5
512
330
293
100
AcDbEntity
  8
0
  6
CONTINUOUS
 62
     7
100
AcDbVertex
100
AcDb2dVertex
 10
8.1297137503
 20
6.3564315971
 30
0.0
  0
VERTEX
  5
513
330
293
100
AcDbEntity
  8
0
  6
CONTINUOUS
 62
     7
100
AcDbVertex
100
AcDb2dVertex
 10
8.1420926391
 20
6.3478984877
 30
0.0
  0
VERTEX
  5
514
330
293
100
AcDbEntity
  8
0
  6
CONTINUOUS
 62
     7
100
AcDbVertex
100
AcDb2dVertex
 10
8.1460290966
 20
6.3455455835
 30
0.0
  0
SEQEND
  5
515
330
293
100
AcDbEntity
  8
0
  6
CONTINUOUS
 62
     7
  0
LINE
  5
294
330
1F
100
AcDbEntity
  8
0
  6
CONTINUOUS
 62
     7
100
AcDbLine
 10
8.2239904454
 20
6.4457397216
 30
0.0
 11
8.0523175392
 21
6.5448443808
 31
0.0
  0
LINE
  5
295
330
1F
100
AcDbEntity
  8
0
  6
CONTINUOUS
 62
     7
100
AcDbLine
 10
8.2239904454
 20
6.4618133596
 30
0.0
 11
8.0523175392
 21
6.5609180189
 31
0.0
  0
POLYLINE
  5
296
330
1F
100
AcDbEntity
  8
0
  6
CONTINUOUS
 62
     7
100
AcDb2dPolyline
 66
     1
 10
0.0
 20
0.0
 30
0.0
  0
VERTEX
  5
516
330
296
100
AcDbEntity
  8
0
  6
CONTINUOUS
 62
     7
100
AcDbVertex
100
AcDb2dVertex
 10
8.5307221097
 20
7.1503740329
 30
0.0
  0
VERTEX
  5
517
330
296
100
AcDbEntity
  8
0
  6
CONTINUOUS
 62
     7
100
AcDbVertex
100
AcDb2dVertex
 10
8.5144984993
 20
7.1509682306
 30
0.0
  0
VERTEX
  5
518
330
296
100
AcDbEntity
  8
0
  6
CONTINUOUS
 62
     7
100
AcDbVertex
100
AcDb2dVertex
 10
8.4978068042
 20
7.1502010452
 30
0.0
  0
VERTEX
  5
519
330
296
100
AcDbEntity
  8
0
  6
CONTINUOUS
 62
     7
100
AcDbVertex
100
AcDb2dVertex
 10
8.4807020038
 20
7.1480750037
 30
0.0
  0
VERTEX
  5
51A
330
296
100
AcDbEntity
  8
0
  6
CONTINUOUS
 62
     7
100
AcDbVertex
100
AcDb2dVertex
 10
8.4632404384
 20
7.1445971089
 30
0.0
  0
VERTEX
  5
51B
330
296
100
AcDbEntity
  8
0
  6
CONTINUOUS
 62
     7
100
AcDbVertex
100
AcDb2dVertex
 10
8.4454796232
 20
7.1397788162
 30
0.0
  0
VERTEX
  5
51C
330
296
100
AcDbEntity
  8
0
  6
CONTINUOUS
 62
     7
100
AcDbVertex
100
AcDb2dVertex
 10
8.4274780592
 20
7.1336359965
 30
0.0
  0
VERTEX
  5
51D
330
296
100
AcDbEntity
  8
0
  6
CONTINUOUS
 62
     7
100
AcDbVertex
100
AcDb2dVertex
 10
8.4092950404
 20
7.1261888829
 30
0.0
  0
VERTEX
  5
51E
330
296
100
AcDbEntity
  8
0
  6
CONTINUOUS
 62
     7
100
AcDbVertex
100
AcDb2dVertex
 10
8.3909904585
 20
7.117462005
 30
0.0
  0
VERTEX
  5
51F
330
296
100
AcDbEntity
  8
0
  6
CONTINUOUS
 62
     7
100
AcDbVertex
100
AcDb2dVertex
 10
8.3726246056
 20
7.1074841076
 30
0.0
  0
VERTEX
  5
520
330
296
100
AcDbEntity
  8
0
  6
CONTINUOUS
 62
     7
100
AcDbVertex
100
AcDb2dVertex
 10
8.3542579754
 20
7.0962880561
 30
0.0
  0
VERTEX
  5
521
330
296
100
AcDbEntity
  8
0
  6
CONTINUOUS
 62
     7
100
AcDbVertex
100
AcDb2dVertex
 10
8.3359510645
 20
7.0839107284
 30
0.0
  0
VERTEX
  5
522
330
296
100
AcDbEntity
  8
0
  6
CONTINUOUS
 62
     7
100
AcDbVertex
100
AcDb2dVertex
 10
8.3177641726
 20
7.0703928931
 30
0.0
  0
VERTEX
  5
523
330
296
100
AcDbEntity
  8
0
  6
CONTINUOUS
 62
     7
100
AcDbVertex
100
AcDb2dVertex
 10
8.2997572041
 20
7.0557790756
 30
0.0
  0
VERTEX
  5
524
330
296
100
AcDbEntity
  8
0
  6
CONTINUOUS
 62
     7
100
AcDbVertex
100
AcDb2dVertex
 10
8.2819894707
 20
7.0401174114
 30
0.0
  0
VERTEX
  5
525
330
296
100
AcDbEntity
  8
0
  6
CONTINUOUS
 62
     7
100
AcDbVertex
100
AcDb2dVertex
 10
8.2645194964
 20
7.023459487
 30
0.0
  0
VERTEX
  5
526
330
296
100
AcDbEntity
  8
0
  6
CONTINUOUS
 62
     7
100
AcDbVertex
100
AcDb2dVertex
 10
8.247404824
 20
7.0058601709
 30
0.0
  0
VERTEX
  5
527
330
296
100
AcDbEntity
  8
0
  6
CONTINUOUS
 62
     7
100
AcDbVertex
100
AcDb2dVertex
 10
8.2307018262
 20
6.9873774319
 30
0.0
  0
VERTEX
  5
528
330
296
100
AcDbEntity
  8
0
  6
CONTINUOUS
 62
     7
100
AcDbVertex
100
AcDb2dVertex
 10
8.2144655199
 20
6.9680721492
 30
0.0
  0
VERTEX
  5
529
330
296
100
AcDbEntity
  8
0
  6
CONTINUOUS
 62
     7
100
AcDbVertex
100
AcDb2dVertex
 10
8.1987493846
 20
6.9480079107
 30
0.0
  0
VERTEX
  5
52A
330
296
100
AcDbEntity
  8
0
  6
CONTINUOUS
 62
     7
100
AcDbVertex
100
AcDb2dVertex
 10
8.1836051863
 20
6.9272508046
 30
0.0
  0
VERTEX
  5
52B
330
296
100
AcDbEntity
  8
0
  6
CONTINUOUS
 62
     7
100
AcDbVertex
100
AcDb2dVertex
 10
8.1690828075
 20
6.9058692011
 30
0.0
  0
VERTEX
  5
52C
330
296
100
AcDbEntity
  8
0
  6
CONTINUOUS
 62
     7
100
AcDbVertex
100
AcDb2dVertex
 10
8.1552300823
 20
6.8839335275
 30
0.0
  0
VERTEX
  5
52D
330
296
100
AcDbEntity
  8
0
  6
CONTINUOUS
 62
     7
100
AcDbVertex
100
AcDb2dVertex
 10
8.1420926391
 20
6.861516036
 30
0.0
  0
VERTEX
  5
52E
330
296
100
AcDbEntity
  8
0
  6
CONTINUOUS
 62
     7
100
AcDbVertex
100
AcDb2dVertex
 10
8.1297137503
 20
6.8386905658
 30
0.0
  0
VERTEX
  5
52F
330
296
100
AcDbEntity
  8
0
  6
CONTINUOUS
 62
     7
100
AcDbVertex
100
AcDb2dVertex
 10
8.1181341899
 20
6.8155323001
 30
0.0
  0
VERTEX
  5
530
330
296
100
AcDbEntity
  8
0
  6
CONTINUOUS
 62
     7
100
AcDbVertex
100
AcDb2dVertex
 10
8.1073920988
 20
6.792117518
 30
0.0
  0
VERTEX
  5
531
330
296
100
AcDbEntity
  8
0
  6
CONTINUOUS
 62
     7
100
AcDbVertex
100
AcDb2dVertex
 10
8.0975228596
 20
6.7685233438
 30
0.0
  0
VERTEX
  5
532
330
296
100
AcDbEntity
  8
0
  6
CONTINUOUS
 62
     7
100
AcDbVertex
100
AcDb2dVertex
 10
8.0885589799
 20
6.7448274924
 30
0.0
  0
VERTEX
  5
533
330
296
100
AcDbEntity
  8
0
  6
CONTINUOUS
 62
     7
100
AcDbVertex
100
AcDb2dVertex
 10
8.080529985
 20
6.7211080139
 30
0.0
  0
VERTEX
  5
534
330
296
100
AcDbEntity
  8
0
  6
CONTINUOUS
 62
     7
100
AcDbVertex
100
AcDb2dVertex
 10
8.0734623211
 20
6.697443036
 30
0.0
  0
VERTEX
  5
535
330
296
100
AcDbEntity
  8
0
  6
CONTINUOUS
 62
     7
100
AcDbVertex
100
AcDb2dVertex
 10
8.0673792678
 20
6.673910507
 30
0.0
  0
VERTEX
  5
536
330
296
100
AcDbEntity
  8
0
  6
CONTINUOUS
 62
     7
100
AcDbVertex
100
AcDb2dVertex
 10
8.0623008617
 20
6.6505879388
 30
0.0
  0
VERTEX
  5
537
330
296
100
AcDbEntity
  8
0
  6
CONTINUOUS
 62
     7
100
AcDbVertex
100
AcDb2dVertex
 10
8.05824383
 20
6.627552152
 30
0.0
  0
VERTEX
  5
538
330
296
100
AcDbEntity
  8
0
  6
CONTINUOUS
 62
     7
100
AcDbVertex
100
AcDb2dVertex
 10
8.0552215359
 20
6.6048790223
 30
0.0
  0
VERTEX
  5
539
330
296
100
AcDbEntity
  8
0
  6
CONTINUOUS
 62
     7
100
AcDbVertex
100
AcDb2dVertex
 10
8.0532439344
 20
6.582643231
 30
0.0
  0
VERTEX
  5
53A
330
296
100
AcDbEntity
  8
0
  6
CONTINUOUS
 62
     7
100
AcDbVertex
100
AcDb2dVertex
 10
8.0523175392
 20
6.5609180189
 30
0.0
  0
SEQEND
  5
53B
330
296
100
AcDbEntity
  8
0
  6
CONTINUOUS
 62
     7
  0
LINE
  5
297
330
1F
100
AcDbEntity
  8
0
  6
CONTINUOUS
 62
     7
100
AcDbLine
 10
8.5121628766
 20
7.1610880501
 30
0.0
 11
8.5307221097
 21
7.1503740329
 31
0.0
  0
POLYLINE
  5
298
330
1F
100
AcDbEntity
  8
0
  6
CONTINUOUS
 62
     7
100
AcDb2dPolyline
 66
     1
 10
0.0
 20
0.0
 30
0.0
  0
VERTEX
  5
53C
330
298
100
AcDbEntity
  8
0
  6
CONTINUOUS
 62
     7
100
AcDbVertex
100
AcDb2dVertex
 10
8.1369397073
 20
6.3512321109
 30
0.0
  0
VERTEX
  5
53D
330
298
100
AcDbEntity
  8
0
  6
CONTINUOUS
 62
     7
100
AcDbVertex
100
AcDb2dVertex
 10
8.1335647413
 20
6.3529256454
 30
0.0
  0
VERTEX
  5
53E
330
298
100
AcDbEntity
  8
0
  6
CONTINUOUS
 62
     7
100
AcDbVertex
100
AcDb2dVertex
 10
8.1204667151
 20
6.3605606612
 30
0.0
  0
VERTEX
  5
53F
330
298
100
AcDbEntity
  8
0
  6
CONTINUOUS
 62
     7
100
AcDbVertex
100
AcDb2dVertex
 10
8.1081535995
 20
6.3695000597
 30
0.0
  0
VERTEX
  5
540
330
298
100
AcDbEntity
  8
0
  6
CONTINUOUS
 62
     7
100
AcDbVertex
100
AcDb2dVertex
 10
8.0966668091
 20
6.3797137736
 30
0.0
  0
VERTEX
  5
541
330
298
100
AcDbEntity
  8
0
  6
CONTINUOUS
 62
     7
100
AcDbVertex
100
AcDb2dVertex
 10
8.0860449796
 20
6.3911674491
 30
0.0
  0
VERTEX
  5
542
330
298
100
AcDbEntity
  8
0
  6
CONTINUOUS
 62
     7
100
AcDbVertex
100
AcDb2dVertex
 10
8.0763238373
 20
6.4038225621
 30
0.0
  0
VERTEX
  5
543
330
298
100
AcDbEntity
  8
0
  6
CONTINUOUS
 62
     7
100
AcDbVertex
100
AcDb2dVertex
 10
8.0675360791
 20
6.4176365474
 30
0.0
  0
VERTEX
  5
544
330
298
100
AcDbEntity
  8
0
  6
CONTINUOUS
 62
     7
100
AcDbVertex
100
AcDb2dVertex
 10
8.0597112623
 20
6.4325629419
 30
0.0
  0
VERTEX
  5
545
330
298
100
AcDbEntity
  8
0
  6
CONTINUOUS
 62
     7
100
AcDbVertex
100
AcDb2dVertex
 10
8.0528757056
 20
6.4485515411
 30
0.0
  0
VERTEX
  5
546
330
298
100
AcDbEntity
  8
0
  6
CONTINUOUS
 62
     7
100
AcDbVertex
100
AcDb2dVertex
 10
8.0470524003
 20
6.4655485676
 30
0.0
  0
VERTEX
  5
547
330
298
100
AcDbEntity
  8
0
  6
CONTINUOUS
 62
     7
100
AcDbVertex
100
AcDb2dVertex
 10
8.0422609328
 20
6.4834968523
 30
0.0
  0
VERTEX
  5
548
330
298
100
AcDbEntity
  8
0
  6
CONTINUOUS
 62
     7
100
AcDbVertex
100
AcDb2dVertex
 10
8.0385174192
 20
6.5023360266
 30
0.0
  0
VERTEX
  5
549
330
298
100
AcDbEntity
  8
0
  6
CONTINUOUS
 62
     7
100
AcDbVertex
100
AcDb2dVertex
 10
8.0358344508
 20
6.5220027252
 30
0.0
  0
VERTEX
  5
54A
330
298
100
AcDbEntity
  8
0
  6
CONTINUOUS
 62
     7
100
AcDbVertex
100
AcDb2dVertex
 10
8.0342210515
 20
6.5424307997
 30
0.0
  0
VERTEX
  5
54B
330
298
100
AcDbEntity
  8
0
  6
CONTINUOUS
 62
     7
100
AcDbVertex
100
AcDb2dVertex
 10
8.0336826482
 20
6.5635515406
 30
0.0
  0
VERTEX
  5
54C
330
298
100
AcDbEntity
  8
0
  6
CONTINUOUS
 62
     7
100
AcDbVertex
100
AcDb2dVertex
 10
8.0342210515
 20
6.5852939089
 30
0.0
  0
VERTEX
  5
54D
330
298
100
AcDbEntity
  8
0
  6
CONTINUOUS
 62
     7
100
AcDbVertex
100
AcDb2dVertex
 10
8.0358344508
 20
6.6075847745
 30
0.0
  0
VERTEX
  5
54E
330
298
100
AcDbEntity
  8
0
  6
CONTINUOUS
 62
     7
100
AcDbVertex
100
AcDb2dVertex
 10
8.0385174192
 20
6.6303491626
 30
0.0
  0
VERTEX
  5
54F
330
298
100
AcDbEntity
  8
0
  6
CONTINUOUS
 62
     7
100
AcDbVertex
100
AcDb2dVertex
 10
8.0422609328
 20
6.6535105056
 30
0.0
  0
VERTEX
  5
550
330
298
100
AcDbEntity
  8
0
  6
CONTINUOUS
 62
     7
100
AcDbVertex
100
AcDb2dVertex
 10
8.0470524003
 20
6.6769909009
 30
0.0
  0
VERTEX
  5
551
330
298
100
AcDbEntity
  8
0
  6
CONTINUOUS
 62
     7
100
AcDbVertex
100
AcDb2dVertex
 10
8.0528757056
 20
6.7007113726
 30
0.0
  0
VERTEX
  5
552
330
298
100
AcDbEntity
  8
0
  6
CONTINUOUS
 62
     7
100
AcDbVertex
100
AcDb2dVertex
 10
8.0597112623
 20
6.7245921376
 30
0.0
  0
VERTEX
  5
553
330
298
100
AcDbEntity
  8
0
  6
CONTINUOUS
 62
     7
100
AcDbVertex
100
AcDb2dVertex
 10
8.0675360791
 20
6.7485528733
 30
0.0
  0
VERTEX
  5
554
330
298
100
AcDbEntity
  8
0
  6
CONTINUOUS
 62
     7
100
AcDbVertex
100
AcDb2dVertex
 10
8.0763238373
 20
6.7725129883
 30
0.0
  0
VERTEX
  5
555
330
298
100
AcDbEntity
  8
0
  6
CONTINUOUS
 62
     7
100
AcDbVertex
100
AcDb2dVertex
 10
8.0860449796
 20
6.7963918932
 30
0.0
  0
VERTEX
  5
556
330
298
100
AcDbEntity
  8
0
  6
CONTINUOUS
 62
     7
100
AcDbVertex
100
AcDb2dVertex
 10
8.0966668091
 20
6.820109272
 30
0.0
  0
VERTEX
  5
557
330
298
100
AcDbEntity
  8
0
  6
CONTINUOUS
 62
     7
100
AcDbVertex
100
AcDb2dVertex
 10
8.1081535995
 20
6.8435853517
 30
0.0
  0
VERTEX
  5
558
330
298
100
AcDbEntity
  8
0
  6
CONTINUOUS
 62
     7
100
AcDbVertex
100
AcDb2dVertex
 10
8.1204667151
 20
6.8667411711
 30
0.0
  0
VERTEX
  5
559
330
298
100
AcDbEntity
  8
0
  6
CONTINUOUS
 62
     7
100
AcDbVertex
100
AcDb2dVertex
 10
8.1335647413
 20
6.8894988459
 30
0.0
  0
VERTEX
  5
55A
330
298
100
AcDbEntity
  8
0
  6
CONTINUOUS
 62
     7
100
AcDbVertex
100
AcDb2dVertex
 10
8.1474036229
 20
6.9117818313
 30
0.0
  0
VERTEX
  5
55B
330
298
100
AcDbEntity
  8
0
  6
CONTINUOUS
 62
     7
100
AcDbVertex
100
AcDb2dVertex
 10
8.1619368132
 20
6.933515179
 30
0.0
  0
VERTEX
  5
55C
330
298
100
AcDbEntity
  8
0
  6
CONTINUOUS
 62
     7
100
AcDbVertex
100
AcDb2dVertex
 10
8.1771154302
 20
6.9546257893
 30
0.0
  0
VERTEX
  5
55D
330
298
100
AcDbEntity
  8
0
  6
CONTINUOUS
 62
     7
100
AcDbVertex
100
AcDb2dVertex
 10
8.1928884209
 20
6.975042657
 30
0.0
  0
VERTEX
  5
55E
330
298
100
AcDbEntity
  8
0
  6
CONTINUOUS
 62
     7
100
AcDbVertex
100
AcDb2dVertex
 10
8.2092027331
 20
6.9946971106
 30
0.0
  0
VERTEX
  5
55F
330
298
100
AcDbEntity
  8
0
  6
CONTINUOUS
 62
     7
100
AcDbVertex
100
AcDb2dVertex
 10
8.2260034941
 20
7.0135230427
 30
0.0
  0
VERTEX
  5
560
330
298
100
AcDbEntity
  8
0
  6
CONTINUOUS
 62
     7
100
AcDbVertex
100
AcDb2dVertex
 10
8.2432341949
 20
7.0314571326
 30
0.0
  0
VERTEX
  5
561
330
298
100
AcDbEntity
  8
0
  6
CONTINUOUS
 62
     7
100
AcDbVertex
100
AcDb2dVertex
 10
8.2608368802
 20
7.0484390594
 30
0.0
  0
VERTEX
  5
562
330
298
100
AcDbEntity
  8
0
  6
CONTINUOUS
 62
     7
100
AcDbVertex
100
AcDb2dVertex
 10
8.278752344
 20
7.0644117049
 30
0.0
  0
VERTEX
  5
563
330
298
100
AcDbEntity
  8
0
  6
CONTINUOUS
 62
     7
100
AcDbVertex
100
AcDb2dVertex
 10
8.2969203279
 20
7.0793213453
 30
0.0
  0
VERTEX
  5
564
330
298
100
AcDbEntity
  8
0
  6
CONTINUOUS
 62
     7
100
AcDbVertex
100
AcDb2dVertex
 10
8.3152797244
 20
7.0931178324
 30
0.0
  0
VERTEX
  5
565
330
298
100
AcDbEntity
  8
0
  6
CONTINUOUS
 62
     7
100
AcDbVertex
100
AcDb2dVertex
 10
8.3337687818
 20
7.105754762
 30
0.0
  0
VERTEX
  5
566
330
298
100
AcDbEntity
  8
0
  6
CONTINUOUS
 62
     7
100
AcDbVertex
100
AcDb2dVertex
 10
8.3523253129
 20
7.1171896301
 30
0.0
  0
VERTEX
  5
567
330
298
100
AcDbEntity
  8
0
  6
CONTINUOUS
 62
     7
100
AcDbVertex
100
AcDb2dVertex
 10
8.3708869029
 20
7.1273839757
 30
0.0
  0
VERTEX
  5
568
330
298
100
AcDbEntity
  8
0
  6
CONTINUOUS
 62
     7
100
AcDbVertex
100
AcDb2dVertex
 10
8.3893911204
 20
7.1363035103
 30
0.0
  0
VERTEX
  5
569
330
298
100
AcDbEntity
  8
0
  6
CONTINUOUS
 62
     7
100
AcDbVertex
100
AcDb2dVertex
 10
8.407775727
 20
7.1439182334
 30
0.0
  0
VERTEX
  5
56A
330
298
100
AcDbEntity
  8
0
  6
CONTINUOUS
 62
     7
100
AcDbVertex
100
AcDb2dVertex
 10
8.4259788863
 20
7.1502025329
 30
0.0
  0
VERTEX
  5
56B
330
298
100
AcDbEntity
  8
0
  6
CONTINUOUS
 62
     7
100
AcDbVertex
100
AcDb2dVertex
 10
8.4439393724
 20
7.1551352718
 30
0.0
  0
VERTEX
  5
56C
330
298
100
AcDbEntity
  8
0
  6
CONTINUOUS
 62
     7
100
AcDbVertex
100
AcDb2dVertex
 10
8.4615967756
 20
7.1586998589
 30
0.0
  0
VERTEX
  5
56D
330
298
100
AcDbEntity
  8
0
  6
CONTINUOUS
 62
     7
100
AcDbVertex
100
AcDb2dVertex
 10
8.4788917057
 20
7.1608843047
 30
0.0
  0
VERTEX
  5
56E
330
298
100
AcDbEntity
  8
0
  6
CONTINUOUS
 62
     7
100
AcDbVertex
100
AcDb2dVertex
 10
8.4957659914
 20
7.1616812619
 30
0.0
  0
VERTEX
  5
56F
330
298
100
AcDbEntity
  8
0
  6
CONTINUOUS
 62
     7
100
AcDbVertex
100
AcDb2dVertex
 10
8.5121628766
 20
7.1610880501
 30
0.0
  0
SEQEND
  5
570
330
298
100
AcDbEntity
  8
0
  6
CONTINUOUS
 62
     7
  0
LINE
  5
299
330
1F
100
AcDbEntity
  8
0
  6
CONTINUOUS
 62
     7
100
AcDbLine
 10
8.8307367526
 20
6.8059574862
 30
0.0
 11
8.8307367526
 21
6.7898838482
 31
0.0
  0
LINE
  5
29A
330
1F
100
AcDbEntity
  8
0
  6
CONTINUOUS
 62
     7
100
AcDbLine
 10
8.8307367526
 20
6.8059574862
 30
0.0
 11
8.6588428487
 21
6.7067252478
 31
0.0
  0
POLYLINE
  5
29B
330
1F
100
AcDbEntity
  8
0
  6
CONTINUOUS
 62
     7
100
AcDb2dPolyline
 66
     1
 10
0.0
 20
0.0
 30
0.0
  0
VERTEX
  5
571
330
29B
100
AcDbEntity
  8
0
  6
CONTINUOUS
 62
     7
100
AcDbVertex
100
AcDb2dVertex
 10
8.4398868699
 20
6.5803246517
 30
0.0
  0
VERTEX
  5
572
330
29B
100
AcDbEntity
  8
0
  6
CONTINUOUS
 62
     7
100
AcDbVertex
100
AcDb2dVertex
 10
8.4411373296
 20
6.5936883383
 30
0.0
  0
VERTEX
  5
573
330
29B
100
AcDbEntity
  8
0
  6
CONTINUOUS
 62
     7
100
AcDbVertex
100
AcDb2dVertex
 10
8.4434797196
 20
6.6074737517
 30
0.0
  0
VERTEX
  5
574
330
29B
100
AcDbEntity
  8
0
  6
CONTINUOUS
 62
     7
100
AcDbVertex
100
AcDb2dVertex
 10
8.4468904069
 20
6.6215418081
 30
0.0
  0
VERTEX
  5
575
330
29B
100
AcDbEntity
  8
0
  6
CONTINUOUS
 62
     7
100
AcDbVertex
100
AcDb2dVertex
 10
8.4513349804
 20
6.6357505718
 30
0.0
  0
VERTEX
  5
576
330
29B
100
AcDbEntity
  8
0
  6
CONTINUOUS
 62
     7
100
AcDbVertex
100
AcDb2dVertex
 10
8.4567685979
 20
6.6499566877
 30
0.0
  0
VERTEX
  5
577
330
29B
100
AcDbEntity
  8
0
  6
CONTINUOUS
 62
     7
100
AcDbVertex
100
AcDb2dVertex
 10
8.4631364385
 20
6.6640168274
 30
0.0
  0
VERTEX
  5
578
330
29B
100
AcDbEntity
  8
0
  6
CONTINUOUS
 62
     7
100
AcDbVertex
100
AcDb2dVertex
 10
8.4703742557
 20
6.677789135
 30
0.0
  0
VERTEX
  5
579
330
29B
100
AcDbEntity
  8
0
  6
CONTINUOUS
 62
     7
100
AcDbVertex
100
AcDb2dVertex
 10
8.4784090257
 20
6.6911346589
 30
0.0
  0
VERTEX
  5
57A
330
29B
100
AcDbEntity
  8
0
  6
CONTINUOUS
 62
     7
100
AcDbVertex
100
AcDb2dVertex
 10
8.4871596839
 20
6.7039187533
 30
0.0
  0
VERTEX
  5
57B
330
29B
100
AcDbEntity
  8
0
  6
CONTINUOUS
 62
     7
100
AcDbVertex
100
AcDb2dVertex
 10
8.4965379432
 20
6.7160124369
 30
0.0
  0
VERTEX
  5
57C
330
29B
100
AcDbEntity
  8
0
  6
CONTINUOUS
 62
     7
100
AcDbVertex
100
AcDb2dVertex
 10
8.5064491843
 20
6.7272936938
 30
0.0
  0
VERTEX
  5
57D
330
29B
100
AcDbEntity
  8
0
  6
CONTINUOUS
 62
     7
100
AcDbVertex
100
AcDb2dVertex
 10
8.5167934107
 20
6.7376487052
 30
0.0
  0
VERTEX
  5
57E
330
29B
100
AcDbEntity
  8
0
  6
CONTINUOUS
 62
     7
100
AcDbVertex
100
AcDb2dVertex
 10
8.5274662572
 20
6.7469729971
 30
0.0
  0
VERTEX
  5
57F
330
29B
100
AcDbEntity
  8
0
  6
CONTINUOUS
 62
     7
100
AcDbVertex
100
AcDb2dVertex
 10
8.5383600433
 20
6.7551724949
 30
0.0
  0
VERTEX
  5
580
330
29B
100
AcDbEntity
  8
0
  6
CONTINUOUS
 62
     7
100
AcDbVertex
100
AcDb2dVertex
 10
8.5493648593
 20
6.762164472
 30
0.0
  0
VERTEX
  5
581
330
29B
100
AcDbEntity
  8
0
  6
CONTINUOUS
 62
     7
100
AcDbVertex
100
AcDb2dVertex
 10
8.5603696753
 20
6.767878385
 30
0.0
  0
VERTEX
  5
582
330
29B
100
AcDbEntity
  8
0
  6
CONTINUOUS
 62
     7
100
AcDbVertex
100
AcDb2dVertex
 10
8.5712634614
 20
6.772256585
 30
0.0
  0
VERTEX
  5
583
330
29B
100
AcDbEntity
  8
0
  6
CONTINUOUS
 62
     7
100
AcDbVertex
100
AcDb2dVertex
 10
8.581936308
 20
6.7752548993
 30
0.0
  0
VERTEX
  5
584
330
29B
100
AcDbEntity
  8
0
  6
CONTINUOUS
 62
     7
100
AcDbVertex
100
AcDb2dVertex
 10
8.5922805343
 20
6.7768430775
 30
0.0
  0
VERTEX
  5
585
330
29B
100
AcDbEntity
  8
0
  6
CONTINUOUS
 62
     7
100
AcDbVertex
100
AcDb2dVertex
 10
8.6021917754
 20
6.7770050959
 30
0.0
  0
VERTEX
  5
586
330
29B
100
AcDbEntity
  8
0
  6
CONTINUOUS
 62
     7
100
AcDbVertex
100
AcDb2dVertex
 10
8.6115700347
 20
6.7757393201
 30
0.0
  0
VERTEX
  5
587
330
29B
100
AcDbEntity
  8
0
  6
CONTINUOUS
 62
     7
100
AcDbVertex
100
AcDb2dVertex
 10
8.6203206929
 20
6.7730585206
 30
0.0
  0
VERTEX
  5
588
330
29B
100
AcDbEntity
  8
0
  6
CONTINUOUS
 62
     7
100
AcDbVertex
100
AcDb2dVertex
 10
8.6283554629
 20
6.7689897446
 30
0.0
  0
VERTEX
  5
589
330
29B
100
AcDbEntity
  8
0
  6
CONTINUOUS
 62
     7
100
AcDbVertex
100
AcDb2dVertex
 10
8.6355932801
 20
6.7635740429
 30
0.0
  0
VERTEX
  5
58A
330
29B
100
AcDbEntity
  8
0
  6
CONTINUOUS
 62
     7
100
AcDbVertex
100
AcDb2dVertex
 10
8.6419611207
 20
6.7568660555
 30
0.0
  0
VERTEX
  5
58B
330
29B
100
AcDbEntity
  8
0
  6
CONTINUOUS
 62
     7
100
AcDbVertex
100
AcDb2dVertex
 10
8.6473947382
 20
6.7489334609
 30
0.0
  0
VERTEX
  5
58C
330
29B
100
AcDbEntity
  8
0
  6
CONTINUOUS
 62
     7
100
AcDbVertex
100
AcDb2dVertex
 10
8.6518393118
 20
6.7398562925
 30
0.0
  0
VERTEX
  5
58D
330
29B
100
AcDbEntity
  8
0
  6
CONTINUOUS
 62
     7
100
AcDbVertex
100
AcDb2dVertex
 10
8.6552499991
 20
6.7297261319
 30
0.0
  0
VERTEX
  5
58E
330
29B
100
AcDbEntity
  8
0
  6
CONTINUOUS
 62
     7
100
AcDbVertex
100
AcDb2dVertex
 10
8.657592389
 20
6.7186451843
 30
0.0
  0
VERTEX
  5
58F
330
29B
100
AcDbEntity
  8
0
  6
CONTINUOUS
 62
     7
100
AcDbVertex
100
AcDb2dVertex
 10
8.6588428487
 20
6.7067252478
 30
0.0
  0
SEQEND
  5
590
330
29B
100
AcDbEntity
  8
0
  6
CONTINUOUS
 62
     7
  0
LINE
  5
29C
330
1F
100
AcDbEntity
  8
0
  6
CONTINUOUS
 62
     7
100
AcDbLine
 10
8.2345983219
 20
6.4618140955
 30
0.0
 11
8.4398868699
 21
6.5803246517
 31
0.0
  0
LINE
  5
29D
330
1F
100
AcDbEntity
  8
0
  6
CONTINUOUS
 62
     7
100
AcDbLine
 10
8.2345983219
 20
6.4457404575
 30
0.0
 11
8.4398868699
 21
6.5642510137
 31
0.0
  0
POLYLINE
  5
29E
330
1F
100
AcDbEntity
  8
0
  6
CONTINUOUS
 62
     7
100
AcDb2dPolyline
 66
     1
 10
0.0
 20
0.0
 30
0.0
  0
VERTEX
  5
591
330
29E
100
AcDbEntity
  8
0
  6
CONTINUOUS
 62
     7
100
AcDbVertex
100
AcDb2dVertex
 10
8.6588428487
 20
6.6906516097
 30
0.0
  0
VERTEX
  5
592
330
29E
100
AcDbEntity
  8
0
  6
CONTINUOUS
 62
     7
100
AcDbVertex
100
AcDb2dVertex
 10
8.657592389
 20
6.6772879232
 30
0.0
  0
VERTEX
  5
593
330
29E
100
AcDbEntity
  8
0
  6
CONTINUOUS
 62
     7
100
AcDbVertex
100
AcDb2dVertex
 10
8.6552499991
 20
6.6635025097
 30
0.0
  0
VERTEX
  5
594
330
29E
100
AcDbEntity
  8
0
  6
CONTINUOUS
 62
     7
100
AcDbVertex
100
AcDb2dVertex
 10
8.6518393118
 20
6.6494344534
 30
0.0
  0
VERTEX
  5
595
330
29E
100
AcDbEntity
  8
0
  6
CONTINUOUS
 62
     7
100
AcDbVertex
100
AcDb2dVertex
 10
8.6473947382
 20
6.6352256896
 30
0.0
  0
VERTEX
  5
596
330
29E
100
AcDbEntity
  8
0
  6
CONTINUOUS
 62
     7
100
AcDbVertex
100
AcDb2dVertex
 10
8.6419611207
 20
6.6210195737
 30
0.0
  0
VERTEX
  5
597
330
29E
100
AcDbEntity
  8
0
  6
CONTINUOUS
 62
     7
100
AcDbVertex
100
AcDb2dVertex
 10
8.6355932801
 20
6.6069594341
 30
0.0
  0
VERTEX
  5
598
330
29E
100
AcDbEntity
  8
0
  6
CONTINUOUS
 62
     7
100
AcDbVertex
100
AcDb2dVertex
 10
8.6283554629
 20
6.5931871265
 30
0.0
  0
VERTEX
  5
599
330
29E
100
AcDbEntity
  8
0
  6
CONTINUOUS
 62
     7
100
AcDbVertex
100
AcDb2dVertex
 10
8.6203206929
 20
6.5798416026
 30
0.0
  0
VERTEX
  5
59A
330
29E
100
AcDbEntity
  8
0
  6
CONTINUOUS
 62
     7
100
AcDbVertex
100
AcDb2dVertex
 10
8.6115700347
 20
6.5670575081
 30
0.0
  0
VERTEX
  5
59B
330
29E
100
AcDbEntity
  8
0
  6
CONTINUOUS
 62
     7
100
AcDbVertex
100
AcDb2dVertex
 10
8.6021917754
 20
6.5549638246
 30
0.0
  0
VERTEX
  5
59C
330
29E
100
AcDbEntity
  8
0
  6
CONTINUOUS
 62
     7
100
AcDbVertex
100
AcDb2dVertex
 10
8.5922805343
 20
6.5436825676
 30
0.0
  0
VERTEX
  5
59D
330
29E
100
AcDbEntity
  8
0
  6
CONTINUOUS
 62
     7
100
AcDbVertex
100
AcDb2dVertex
 10
8.581936308
 20
6.5333275562
 30
0.0
  0
VERTEX
  5
59E
330
29E
100
AcDbEntity
  8
0
  6
CONTINUOUS
 62
     7
100
AcDbVertex
100
AcDb2dVertex
 10
8.5712634614
 20
6.5240032643
 30
0.0
  0
VERTEX
  5
59F
330
29E
100
AcDbEntity
  8
0
  6
CONTINUOUS
 62
     7
100
AcDbVertex
100
AcDb2dVertex
 10
8.5603696753
 20
6.5158037665
 30
0.0
  0
VERTEX
  5
5A0
330
29E
100
AcDbEntity
  8
0
  6
CONTINUOUS
 62
     7
100
AcDbVertex
100
AcDb2dVertex
 10
8.5493648593
 20
6.5088117894
 30
0.0
  0
VERTEX
  5
5A1
330
29E
100
AcDbEntity
  8
0
  6
CONTINUOUS
 62
     7
100
AcDbVertex
100
AcDb2dVertex
 10
8.5383600433
 20
6.5030978764
 30
0.0
  0
VERTEX
  5
5A2
330
29E
100
AcDbEntity
  8
0
  6
CONTINUOUS
 62
     7
100
AcDbVertex
100
AcDb2dVertex
 10
8.5274662572
 20
6.4987196765
 30
0.0
  0
VERTEX
  5
5A3
330
29E
100
AcDbEntity
  8
0
  6
CONTINUOUS
 62
     7
100
AcDbVertex
100
AcDb2dVertex
 10
8.5167934107
 20
6.4957213621
 30
0.0
  0
VERTEX
  5
5A4
330
29E
100
AcDbEntity
  8
0
  6
CONTINUOUS
 62
     7
100
AcDbVertex
100
AcDb2dVertex
 10
8.5064491843
 20
6.494133184
 30
0.0
  0
VERTEX
  5
5A5
330
29E
100
AcDbEntity
  8
0
  6
CONTINUOUS
 62
     7
100
AcDbVertex
100
AcDb2dVertex
 10
8.4965379432
 20
6.4939711655
 30
0.0
  0
VERTEX
  5
5A6
330
29E
100
AcDbEntity
  8
0
  6
CONTINUOUS
 62
     7
100
AcDbVertex
100
AcDb2dVertex
 10
8.4871596839
 20
6.4952369414
 30
0.0
  0
VERTEX
  5
5A7
330
29E
100
AcDbEntity
  8
0
  6
CONTINUOUS
 62
     7
100
AcDbVertex
100
AcDb2dVertex
 10
8.4784090257
 20
6.4979177408
 30
0.0
  0
VERTEX
  5
5A8
330
29E
100
AcDbEntity
  8
0
  6
CONTINUOUS
 62
     7
100
AcDbVertex
100
AcDb2dVertex
 10
8.4703742557
 20
6.5019865168
 30
0.0
  0
VERTEX
  5
5A9
330
29E
100
AcDbEntity
  8
0
  6
CONTINUOUS
 62
     7
100
AcDbVertex
100
AcDb2dVertex
 10
8.4631364385
 20
6.5074022186
 30
0.0
  0
VERTEX
  5
5AA
330
29E
100
AcDbEntity
  8
0
  6
CONTINUOUS
 62
     7
100
AcDbVertex
100
AcDb2dVertex
 10
8.4567685979
 20
6.5141102059
 30
0.0
  0
VERTEX
  5
5AB
330
29E
100
AcDbEntity
  8
0
  6
CONTINUOUS
 62
     7
100
AcDbVertex
100
AcDb2dVertex
 10
8.4513349804
 20
6.5220428006
 30
0.0
  0
VERTEX
  5
5AC
330
29E
100
AcDbEntity
  8
0
  6
CONTINUOUS
 62
     7
100
AcDbVertex
100
AcDb2dVertex
 10
8.4468904069
 20
6.531119969
 30
0.0
  0
VERTEX
  5
5AD
330
29E
100
AcDbEntity
  8
0
  6
CONTINUOUS
 62
     7
100
AcDbVertex
100
AcDb2dVertex
 10
8.4434797196
 20
6.5412501296
 30
0.0
  0
VERTEX
  5
5AE
330
29E
100
AcDbEntity
  8
0
  6
CONTINUOUS
 62
     7
100
AcDbVertex
100
AcDb2dVertex
 10
8.4411373296
 20
6.5523310772
 30
0.0
  0
VERTEX
  5
5AF
330
29E
100
AcDbEntity
  8
0
  6
CONTINUOUS
 62
     7
100
AcDbVertex
100
AcDb2dVertex
 10
8.4398868699
 20
6.5642510137
 30
0.0
  0
SEQEND
  5
5B0
330
29E
100
AcDbEntity
  8
0
  6
CONTINUOUS
 62
     7
  0
LINE
  5
29F
330
1F
100
AcDbEntity
  8
0
  6
CONTINUOUS
 62
     7
100
AcDbLine
 10
8.6588428487
 20
6.6906516097
 30
0.0
 11
8.8307367526
 21
6.7898838482
 31
0.0
  0
LINE
  5
2A0
330
1F
100
AcDbEntity
  8
0
  6
CONTINUOUS
 62
     7
100
AcDbLine
 10
8.5121628766
 20
7.1509423369
 30
0.0
 11
8.5121628766
 21
7.1610880501
 31
0.0
  0
LINE
  5
2A1
330
1F
100
AcDbEntity
  8
0
  6
CONTINUOUS
 62
     7
100
AcDbLine
 10
8.4398868699
 20
6.5642510137
 30
0.0
 11
8.439898121
 21
6.5703805696
 31
0.0
  0
LINE
  5
2A2
330
1F
100
AcDbEntity
  8
0
  6
CONTINUOUS
 62
     7
100
AcDbLine
 10
8.4312797346
 20
6.5753558582
 30
0.0
 11
8.439898121
 21
6.5703805696
 31
0.0
  0
LINE
  5
2A3
330
1F
100
AcDbEntity
  8
0
  6
CONTINUOUS
 62
     7
100
AcDbLine
 10
8.0662392266
 20
6.5528811998
 30
0.0
 11
8.0523175392
 21
6.5448443808
 31
0.0
  0
LINE
  5
2A4
330
1F
100
AcDbEntity
  8
0
  6
CONTINUOUS
 62
     7
100
AcDbLine
 10
8.6482249959
 20
6.7067187526
 30
0.0
 11
8.6588428487
 21
6.7067252478
 31
0.0
  0
ARC
  5
2A5
330
1F
100
AcDbEntity
  8
0
  6
CONTINUOUS
 62
     7
100
AcDbCircle
 10
8.585090698
 20
6.7103429344
 30
0.0
 40
0.0632382341946104
100
AcDbArc
 50
356.7145800647
 51
127.4209344333
  0
LINE
  5
2A6
330
1F
100
AcDbEntity
  8
0
  6
CONTINUOUS
 62
     7
100
AcDbLine
 10
8.6482249959
 20
6.7067187526
 30
0.0
 11
8.5510043413
 21
6.7628430419
 31
0.0
  0
POLYLINE
  5
2A7
330
1F
100
AcDbEntity
  8
0
  6
CONTINUOUS
 62
     7
100
AcDb2dPolyline
 66
     1
 10
0.0
 20
0.0
 30
0.0
  0
VERTEX
  5
5B1
330
2A7
100
AcDbEntity
  8
0
  6
CONTINUOUS
 62
     7
100
AcDbVertex
100
AcDb2dVertex
 10
8.439898121
 20
6.5703805696
 30
0.0
  0
VERTEX
  5
5B2
330
2A7
100
AcDbEntity
  8
0
  6
CONTINUOUS
 62
     7
100
AcDbVertex
100
AcDb2dVertex
 10
8.4411180323
 20
6.5590842518
 30
0.0
  0
VERTEX
  5
5B3
330
2A7
100
AcDbEntity
  8
0
  6
CONTINUOUS
 62
     7
100
AcDbVertex
100
AcDb2dVertex
 10
8.4433721199
 20
6.5485862479
 30
0.0
  0
VERTEX
  5
5B4
330
2A7
100
AcDbEntity
  8
0
  6
CONTINUOUS
 62
     7
100
AcDbVertex
100
AcDb2dVertex
 10
8.4466377392
 20
6.5389920214
 30
0.0
  0
VERTEX
  5
5B5
330
2A7
100
AcDbEntity
  8
0
  6
CONTINUOUS
 62
     7
100
AcDbVertex
100
AcDb2dVertex
 10
8.4508820834
 20
6.5303979563
 30
0.0
  0
VERTEX
  5
5B6
330
2A7
100
AcDbEntity
  8
0
  6
CONTINUOUS
 62
     7
100
AcDbVertex
100
AcDb2dVertex
 10
8.4560625138
 20
6.5228903892
 30
0.0
  0
VERTEX
  5
5B7
330
2A7
100
AcDbEntity
  8
0
  6
CONTINUOUS
 62
     7
100
AcDbVertex
100
AcDb2dVertex
 10
8.4621269874
 20
6.5165447415
 30
0.0
  0
VERTEX
  5
5B8
330
2A7
100
AcDbEntity
  8
0
  6
CONTINUOUS
 62
     7
100
AcDbVertex
100
AcDb2dVertex
 10
8.4690145802
 20
6.5114247619
 30
0.0
  0
VERTEX
  5
5B9
330
2A7
100
AcDbEntity
  8
0
  6
CONTINUOUS
 62
     7
100
AcDbVertex
100
AcDb2dVertex
 10
8.4766560991
 20
6.507581886
 30
0.0
  0
VERTEX
  5
5BA
330
2A7
100
AcDbEntity
  8
0
  6
CONTINUOUS
 62
     7
100
AcDbVertex
100
AcDb2dVertex
 10
8.4849747769
 20
6.5050547196
 30
0.0
  0
VERTEX
  5
5BB
330
2A7
100
AcDbEntity
  8
0
  6
CONTINUOUS
 62
     7
100
AcDbVertex
100
AcDb2dVertex
 10
8.4938870437
 20
6.5038686506
 30
0.0
  0
VERTEX
  5
5BC
330
2A7
100
AcDbEntity
  8
0
  6
CONTINUOUS
 62
     7
100
AcDbVertex
100
AcDb2dVertex
 10
8.5033033665
 20
6.5040355945
 30
0.0
  0
VERTEX
  5
5BD
330
2A7
100
AcDbEntity
  8
0
  6
CONTINUOUS
 62
     7
100
AcDbVertex
100
AcDb2dVertex
 10
8.5131291483
 20
6.5055538741
 30
0.0
  0
VERTEX
  5
5BE
330
2A7
100
AcDbEntity
  8
0
  6
CONTINUOUS
 62
     7
100
AcDbVertex
100
AcDb2dVertex
 10
8.5232656788
 20
6.5084082366
 30
0.0
  0
VERTEX
  5
5BF
330
2A7
100
AcDbEntity
  8
0
  6
CONTINUOUS
 62
     7
100
AcDbVertex
100
AcDb2dVertex
 10
8.5336111258
 20
6.512570007
 30
0.0
  0
VERTEX
  5
5C0
330
2A7
100
AcDbEntity
  8
0
  6
CONTINUOUS
 62
     7
100
AcDbVertex
100
AcDb2dVertex
 10
8.5440615585
 20
6.5179973759
 30
0.0
  0
VERTEX
  5
5C1
330
2A7
100
AcDbEntity
  8
0
  6
CONTINUOUS
 62
     7
100
AcDbVertex
100
AcDb2dVertex
 10
8.5545119911
 20
6.5246358197
 30
0.0
  0
VERTEX
  5
5C2
330
2A7
100
AcDbEntity
  8
0
  6
CONTINUOUS
 62
     7
100
AcDbVertex
100
AcDb2dVertex
 10
8.5648574381
 20
6.5324186482
 30
0.0
  0
VERTEX
  5
5C3
330
2A7
100
AcDbEntity
  8
0
  6
CONTINUOUS
 62
     7
100
AcDbVertex
100
AcDb2dVertex
 10
8.5749939686
 20
6.5412676747
 30
0.0
  0
VERTEX
  5
5C4
330
2A7
100
AcDbEntity
  8
0
  6
CONTINUOUS
 62
     7
100
AcDbVertex
100
AcDb2dVertex
 10
8.5848197504
 20
6.5510940013
 30
0.0
  0
VERTEX
  5
5C5
330
2A7
100
AcDbEntity
  8
0
  6
CONTINUOUS
 62
     7
100
AcDbVertex
100
AcDb2dVertex
 10
8.5942360732
 20
6.5617989123
 30
0.0
  0
VERTEX
  5
5C6
330
2A7
100
AcDbEntity
  8
0
  6
CONTINUOUS
 62
     7
100
AcDbVertex
100
AcDb2dVertex
 10
8.60314834
 20
6.5732748655
 30
0.0
  0
VERTEX
  5
5C7
330
2A7
100
AcDbEntity
  8
0
  6
CONTINUOUS
 62
     7
100
AcDbVertex
100
AcDb2dVertex
 10
8.6114670178
 20
6.5854065729
 30
0.0
  0
VERTEX
  5
5C8
330
2A7
100
AcDbEntity
  8
0
  6
CONTINUOUS
 62
     7
100
AcDbVertex
100
AcDb2dVertex
 10
8.6191085367
 20
6.5980721586
 30
0.0
  0
VERTEX
  5
5C9
330
2A7
100
AcDbEntity
  8
0
  6
CONTINUOUS
 62
     7
100
AcDbVertex
100
AcDb2dVertex
 10
8.6259961295
 20
6.6111443836
 30
0.0
  0
VERTEX
  5
5CA
330
2A7
100
AcDbEntity
  8
0
  6
CONTINUOUS
 62
     7
100
AcDbVertex
100
AcDb2dVertex
 10
8.6320606031
 20
6.6244919235
 30
0.0
  0
VERTEX
  5
5CB
330
2A7
100
AcDbEntity
  8
0
  6
CONTINUOUS
 62
     7
100
AcDbVertex
100
AcDb2dVertex
 10
8.6372410335
 20
6.6379806882
 30
0.0
  0
VERTEX
  5
5CC
330
2A7
100
AcDbEntity
  8
0
  6
CONTINUOUS
 62
     7
100
AcDbVertex
100
AcDb2dVertex
 10
8.6414853777
 20
6.6514751688
 30
0.0
  0
VERTEX
  5
5CD
330
2A7
100
AcDbEntity
  8
0
  6
CONTINUOUS
 62
     7
100
AcDbVertex
100
AcDb2dVertex
 10
8.644750997
 20
6.6648397991
 30
0.0
  0
VERTEX
  5
5CE
330
2A7
100
AcDbEntity
  8
0
  6
CONTINUOUS
 62
     7
100
AcDbVertex
100
AcDb2dVertex
 10
8.6470050846
 20
6.6779403172
 30
0.0
  0
VERTEX
  5
5CF
330
2A7
100
AcDbEntity
  8
0
  6
CONTINUOUS
 62
     7
100
AcDbVertex
100
AcDb2dVertex
 10
8.6482249959
 20
6.6906451146
 30
0.0
  0
SEQEND
  5
5D0
330
2A7
100
AcDbEntity
  8
0
  6
CONTINUOUS
 62
     7
  0
LINE
  5
2A8
330
1F
100
AcDbEntity
  8
0
  6
CONTINUOUS
 62
     7
100
AcDbLine
 10
8.6482249959
 20
6.6906451146
 30
0.0
 11
8.6588428487
 21
6.6906516097
 31
0.0
  0
LINE
  5
2A9
330
1F
100
AcDbEntity
  8
0
  6
CONTINUOUS
 62
     7
100
AcDbLine
 10
8.6482249959
 20
6.6906451146
 30
0.0
 11
8.5374948318
 21
6.7545682777
 31
0.0
  0
POLYLINE
  5
2AA
330
1F
100
AcDbEntity
  8
0
  6
CONTINUOUS
 62
     7
100
AcDb2dPolyline
 66
     1
 10
0.0
 20
0.0
 30
0.0
  0
VERTEX
  5
5D1
330
2AA
100
AcDbEntity
  8
0
  6
CONTINUOUS
 62
     7
100
AcDbVertex
100
AcDb2dVertex
 10
8.8307367526
 20
6.7898838482
 30
0.0
  0
VERTEX
  5
5D2
330
2AA
100
AcDbEntity
  8
0
  6
CONTINUOUS
 62
     7
100
AcDbVertex
100
AcDb2dVertex
 10
8.8163058008
 20
6.7975847708
 30
0.0
  0
VERTEX
  5
5D3
330
2AA
100
AcDbEntity
  8
0
  6
CONTINUOUS
 62
     7
100
AcDbVertex
100
AcDb2dVertex
 10
8.8162666465
 20
6.7976040718
 30
0.0
  0
SEQEND
  5
5D4
330
2AA
100
AcDbEntity
  8
0
  6
CONTINUOUS
 62
     7
  0
POLYLINE
  5
2AB
330
1F
100
AcDbEntity
  8
0
  6
CONTINUOUS
 62
     7
100
AcDb2dPolyline
 66
     1
 10
0.0
 20
0.0
 30
0.0
  0
VERTEX
  5
5D5
330
2AB
100
AcDbEntity
  8
0
  6
CONTINUOUS
 62
     7
100
AcDbVertex
100
AcDb2dVertex
 10
8.1857903225
 20
6.813457309
 30
0.0
  0
VERTEX
  5
5D6
330
2AB
100
AcDbEntity
  8
0
  6
CONTINUOUS
 62
     7
100
AcDbVertex
100
AcDb2dVertex
 10
8.1945020171
 20
6.8090468591
 30
0.0
  0
VERTEX
  5
5D7
330
2AB
100
AcDbEntity
  8
0
  6
CONTINUOUS
 62
     7
100
AcDbVertex
100
AcDb2dVertex
 10
8.2041363957
 20
6.8053305776
 30
0.0
  0
VERTEX
  5
5D8
330
2AB
100
AcDbEntity
  8
0
  6
CONTINUOUS
 62
     7
100
AcDbVertex
100
AcDb2dVertex
 10
8.2145286113
 20
6.802372051
 30
0.0
  0
VERTEX
  5
5D9
330
2AB
100
AcDbEntity
  8
0
  6
CONTINUOUS
 62
     7
100
AcDbVertex
100
AcDb2dVertex
 10
8.2255008503
 20
6.8002219007
 30
0.0
  0
VERTEX
  5
5DA
330
2AB
100
AcDbEntity
  8
0
  6
CONTINUOUS
 62
     7
100
AcDbVertex
100
AcDb2dVertex
 10
8.2368653747
 20
6.7989169161
 30
0.0
  0
VERTEX
  5
5DB
330
2AB
100
AcDbEntity
  8
0
  6
CONTINUOUS
 62
     7
100
AcDbVertex
100
AcDb2dVertex
 10
8.2484277343
 20
6.7984794261
 30
0.0
  0
VERTEX
  5
5DC
330
2AB
100
AcDbEntity
  8
0
  6
CONTINUOUS
 62
     7
100
AcDbVertex
100
AcDb2dVertex
 10
8.2599900938
 20
6.7989169161
 30
0.0
  0
VERTEX
  5
5DD
330
2AB
100
AcDbEntity
  8
0
  6
CONTINUOUS
 62
     7
100
AcDbVertex
100
AcDb2dVertex
 10
8.2713546182
 20
6.8002219007
 30
0.0
  0
VERTEX
  5
5DE
330
2AB
100
AcDbEntity
  8
0
  6
CONTINUOUS
 62
     7
100
AcDbVertex
100
AcDb2dVertex
 10
8.2823268572
 20
6.802372051
 30
0.0
  0
VERTEX
  5
5DF
330
2AB
100
AcDbEntity
  8
0
  6
CONTINUOUS
 62
     7
100
AcDbVertex
100
AcDb2dVertex
 10
8.2927190728
 20
6.8053305776
 30
0.0
  0
VERTEX
  5
5E0
330
2AB
100
AcDbEntity
  8
0
  6
CONTINUOUS
 62
     7
100
AcDbVertex
100
AcDb2dVertex
 10
8.3023534514
 20
6.8090468591
 30
0.0
  0
VERTEX
  5
5E1
330
2AB
100
AcDbEntity
  8
0
  6
CONTINUOUS
 62
     7
100
AcDbVertex
100
AcDb2dVertex
 10
8.311065146
 20
6.813457309
 30
0.0
  0
VERTEX
  5
5E2
330
2AB
100
AcDbEntity
  8
0
  6
CONTINUOUS
 62
     7
100
AcDbVertex
100
AcDb2dVertex
 10
8.3187050971
 20
6.8184864633
 30
0.0
  0
VERTEX
  5
5E3
330
2AB
100
AcDbEntity
  8
0
  6
CONTINUOUS
 62
     7
100
AcDbVertex
100
AcDb2dVertex
 10
8.325142583
 20
6.8240482716
 30
0.0
  0
VERTEX
  5
5E4
330
2AB
100
AcDbEntity
  8
0
  6
CONTINUOUS
 62
     7
100
AcDbVertex
100
AcDb2dVertex
 10
8.3302674566
 20
6.83004757
 30
0.0
  0
VERTEX
  5
5E5
330
2AB
100
AcDbEntity
  8
0
  6
CONTINUOUS
 62
     7
100
AcDbVertex
100
AcDb2dVertex
 10
8.3339920299
 20
6.8363817088
 30
0.0
  0
VERTEX
  5
5E6
330
2AB
100
AcDbEntity
  8
0
  6
CONTINUOUS
 62
     7
100
AcDbVertex
100
AcDb2dVertex
 10
8.3362525743
 20
6.842942309
 30
0.0
  0
VERTEX
  5
5E7
330
2AB
100
AcDbEntity
  8
0
  6
CONTINUOUS
 62
     7
100
AcDbVertex
100
AcDb2dVertex
 10
8.3370104114
 20
6.8496171171
 30
0.0
  0
VERTEX
  5
5E8
330
2AB
100
AcDbEntity
  8
0
  6
CONTINUOUS
 62
     7
100
AcDbVertex
100
AcDb2dVertex
 10
8.3362525743
 20
6.8562919252
 30
0.0
  0
VERTEX
  5
5E9
330
2AB
100
AcDbEntity
  8
0
  6
CONTINUOUS
 62
     7
100
AcDbVertex
100
AcDb2dVertex
 10
8.3339920299
 20
6.8628525255
 30
0.0
  0
VERTEX
  5
5EA
330
2AB
100
AcDbEntity
  8
0
  6
CONTINUOUS
 62
     7
100
AcDbVertex
100
AcDb2dVertex
 10
8.3302674566
 20
6.8691866642
 30
0.0
  0
VERTEX
  5
5EB
330
2AB
100
AcDbEntity
  8
0
  6
CONTINUOUS
 62
     7
100
AcDbVertex
100
AcDb2dVertex
 10
8.325142583
 20
6.8751859626
 30
0.0
  0
VERTEX
  5
5EC
330
2AB
100
AcDbEntity
  8
0
  6
CONTINUOUS
 62
     7
100
AcDbVertex
100
AcDb2dVertex
 10
8.3187050971
 20
6.880747771
 30
0.0
  0
VERTEX
  5
5ED
330
2AB
100
AcDbEntity
  8
0
  6
CONTINUOUS
 62
     7
100
AcDbVertex
100
AcDb2dVertex
 10
8.311065146
 20
6.8857769252
 30
0.0
  0
VERTEX
  5
5EE
330
2AB
100
AcDbEntity
  8
0
  6
CONTINUOUS
 62
     7
100
AcDbVertex
100
AcDb2dVertex
 10
8.3023534514
 20
6.8901873751
 30
0.0
  0
VERTEX
  5
5EF
330
2AB
100
AcDbEntity
  8
0
  6
CONTINUOUS
 62
     7
100
AcDbVertex
100
AcDb2dVertex
 10
8.2927190728
 20
6.8939036566
 30
0.0
  0
VERTEX
  5
5F0
330
2AB
100
AcDbEntity
  8
0
  6
CONTINUOUS
 62
     7
100
AcDbVertex
100
AcDb2dVertex
 10
8.2823268572
 20
6.8968621832
 30
0.0
  0
VERTEX
  5
5F1
330
2AB
100
AcDbEntity
  8
0
  6
CONTINUOUS
 62
     7
100
AcDbVertex
100
AcDb2dVertex
 10
8.2713546182
 20
6.8990123336
 30
0.0
  0
VERTEX
  5
5F2
330
2AB
100
AcDbEntity
  8
0
  6
CONTINUOUS
 62
     7
100
AcDbVertex
100
AcDb2dVertex
 10
8.2599900938
 20
6.9003173181
 30
0.0
  0
VERTEX
  5
5F3
330
2AB
100
AcDbEntity
  8
0
  6
CONTINUOUS
 62
     7
100
AcDbVertex
100
AcDb2dVertex
 10
8.2484277343
 20
6.9007548082
 30
0.0
  0
VERTEX
  5
5F4
330
2AB
100
AcDbEntity
  8
0
  6
CONTINUOUS
 62
     7
100
AcDbVertex
100
AcDb2dVertex
 10
8.2368653747
 20
6.9003173181
 30
0.0
  0
VERTEX
  5
5F5
330
2AB
100
AcDbEntity
  8
0
  6
CONTINUOUS
 62
     7
100
AcDbVertex
100
AcDb2dVertex
 10
8.2255008503
 20
6.8990123336
 30
0.0
  0
VERTEX
  5
5F6
330
2AB
100
AcDbEntity
  8
0
  6
CONTINUOUS
 62
     7
100
AcDbVertex
100
AcDb2dVertex
 10
8.2145286113
 20
6.8968621832
 30
0.0
  0
VERTEX
  5
5F7
330
2AB
100
AcDbEntity
  8
0
  6
CONTINUOUS
 62
     7
100
AcDbVertex
100
AcDb2dVertex
 10
8.2041363957
 20
6.8939036566
 30
0.0
  0
VERTEX
  5
5F8
330
2AB
100
AcDbEntity
  8
0
  6
CONTINUOUS
 62
     7
100
AcDbVertex
100
AcDb2dVertex
 10
8.1945020171
 20
6.8901873751
 30
0.0
  0
VERTEX
  5
5F9
330
2AB
100
AcDbEntity
  8
0
  6
CONTINUOUS
 62
     7
100
AcDbVertex
100
AcDb2dVertex
 10
8.1857903225
 20
6.8857769252
 30
0.0
  0
VERTEX
  5
5FA
330
2AB
100
AcDbEntity
  8
0
  6
CONTINUOUS
 62
     7
100
AcDbVertex
100
AcDb2dVertex
 10
8.1781503714
 20
6.880747771
 30
0.0
  0
VERTEX
  5
5FB
330
2AB
100
AcDbEntity
  8
0
  6
CONTINUOUS
 62
     7
100
AcDbVertex
100
AcDb2dVertex
 10
8.1717128855
 20
6.8751859626
 30
0.0
  0
VERTEX
  5
5FC
330
2AB
100
AcDbEntity
  8
0
  6
CONTINUOUS
 62
     7
100
AcDbVertex
100
AcDb2dVertex
 10
8.1665880119
 20
6.8691866642
 30
0.0
  0
VERTEX
  5
5FD
330
2AB
100
AcDbEntity
  8
0
  6
CONTINUOUS
 62
     7
100
AcDbVertex
100
AcDb2dVertex
 10
8.1628634386
 20
6.8628525255
 30
0.0
  0
VERTEX
  5
5FE
330
2AB
100
AcDbEntity
  8
0
  6
CONTINUOUS
 62
     7
100
AcDbVertex
100
AcDb2dVertex
 10
8.1606028942
 20
6.8562919252
 30
0.0
  0
VERTEX
  5
5FF
330
2AB
100
AcDbEntity
  8
0
  6
CONTINUOUS
 62
     7
100
AcDbVertex
100
AcDb2dVertex
 10
8.1598450571
 20
6.8496171171
 30
0.0
  0
VERTEX
  5
600
330
2AB
100
AcDbEntity
  8
0
  6
CONTINUOUS
 62
     7
100
AcDbVertex
100
AcDb2dVertex
 10
8.1606028942
 20
6.842942309
 30
0.0
  0
VERTEX
  5
601
330
2AB
100
AcDbEntity
  8
0
  6
CONTINUOUS
 62
     7
100
AcDbVertex
100
AcDb2dVertex
 10
8.1628634386
 20
6.8363817088
 30
0.0
  0
VERTEX
  5
602
330
2AB
100
AcDbEntity
  8
0
  6
CONTINUOUS
 62
     7
100
AcDbVertex
100
AcDb2dVertex
 10
8.1665880119
 20
6.83004757
 30
0.0
  0
VERTEX
  5
603
330
2AB
100
AcDbEntity
  8
0
  6
CONTINUOUS
 62
     7
100
AcDbVertex
100
AcDb2dVertex
 10
8.1717128855
 20
6.8240482716
 30
0.0
  0
VERTEX
  5
604
330
2AB
100
AcDbEntity
  8
0
  6
CONTINUOUS
 62
     7
100
AcDbVertex
100
AcDb2dVertex
 10
8.1781503714
 20
6.8184864633
 30
0.0
  0
VERTEX
  5
605
330
2AB
100
AcDbEntity
  8
0
  6
CONTINUOUS
 62
     7
100
AcDbVertex
100
AcDb2dVertex
 10
8.1857903225
 20
6.813457309
 30
0.0
  0
SEQEND
  5
606
330
2AB
100
AcDbEntity
  8
0
  6
CONTINUOUS
 62
     7
  0
ARC
  5
2AC
330
1F
100
AcDbEntity
  8
0
  6
CONTINUOUS
 62
     7
100
AcDbCircle
 10
8.2390612033
 20
6.8213148181
 30
0.0
 40
0.1239367465542188
100
AcDbArc
 50
240.9233995851
 51
258.66007186
  0
ARC
  5
2AD
330
1F
100
AcDbEntity
  8
0
  6
CONTINUOUS
 62
     7
100
AcDbCircle
 10
8.2084183032
 20
6.7684879534
 30
0.0
 40
0.0628855873318613
100
AcDbArc
 50
211.7789728989
 51
241.9332174709
  0
LINE
  5
2AE
330
1F
100
AcDbEntity
  8
0
  6
CONTINUOUS
 62
     7
100
AcDbLine
 10
8.2631353372
 20
6.817930071
 30
0.0
 11
8.3033172555
 21
6.8411265987
 31
0.0
  0
LINE
  5
2AF
330
1F
100
AcDbEntity
  8
0
  6
CONTINUOUS
 62
     7
100
AcDbLine
 10
8.3033172555
 20
6.8411265987
 30
0.0
 11
8.2886096526
 21
6.8728136448
 31
0.0
  0
LINE
  5
2B0
330
1F
100
AcDbEntity
  8
0
  6
CONTINUOUS
 62
     7
100
AcDbLine
 10
8.2886096526
 20
6.8728136448
 30
0.0
 11
8.2337201314
 21
6.8813041633
 31
0.0
  0
LINE
  5
2B1
330
1F
100
AcDbEntity
  8
0
  6
CONTINUOUS
 62
     7
100
AcDbLine
 10
8.2337201314
 20
6.8813041633
 30
0.0
 11
8.193538213
 21
6.8581076355
 31
0.0
  0
LINE
  5
2B2
330
1F
100
AcDbEntity
  8
0
  6
CONTINUOUS
 62
     7
100
AcDbLine
 10
8.193538213
 20
6.8581076355
 30
0.0
 11
8.2082458159
 21
6.8264205894
 31
0.0
  0
LINE
  5
2B3
330
1F
100
AcDbEntity
  8
0
  6
CONTINUOUS
 62
     7
100
AcDbLine
 10
8.2082458159
 20
6.8264205894
 30
0.0
 11
8.2631353372
 21
6.817930071
 31
0.0
  0
LINE
  5
2B4
330
1F
100
AcDbEntity
  8
0
  6
CONTINUOUS
 62
     7
100
AcDbLine
 10
8.2886096526
 20
6.8326360803
 30
0.0
 11
8.2886096526
 21
6.8728136448
 31
0.0
  0
LINE
  5
2B5
330
1F
100
AcDbEntity
  8
0
  6
CONTINUOUS
 62
     7
100
AcDbLine
 10
8.2337201314
 20
6.8224801261
 30
0.0
 11
8.2337201314
 21
6.8813041633
 31
0.0
  0
ARC
  5
2B6
330
1F
100
AcDbEntity
  8
0
  6
CONTINUOUS
 62
     7
100
AcDbCircle
 10
8.2436276739
 20
7.2586762245
 30
0.0
 40
0.1247709781531522
100
AcDbArc
 50
96.6652337366
 51
150.0505562866
  0
ARC
  5
2B7
330
1F
100
AcDbEntity
  8
0
  6
CONTINUOUS
 62
     7
100
AcDbCircle
 10
7.8504150669
 20
6.5890518636
 30
0.0
 40
0.1190896919570809
100
AcDbArc
 50
148.5578500789
 51
204.7231626837
  0
ARC
  5
2B8
330
1F
100
AcDbEntity
  8
0
  6
CONTINUOUS
 62
     7
100
AcDbCircle
 10
7.7501612248
 20
6.6201839563
 30
0.0
 40
0.0569338808940191
100
AcDbArc
 50
176.72665029
 51
216.3411539556
  0
ARC
  5
2B9
330
1F
100
AcDbEntity
  8
0
  6
CONTINUOUS
 62
     7
100
AcDbCircle
 10
7.8421993592
 20
6.6177107276
 30
0.0
 40
0.1489891273858702
100
AcDbArc
 50
121.1540230343
 51
177.7981652186
  0
POLYLINE
  5
2BA
330
1F
100
AcDbEntity
  8
0
  6
CONTINUOUS
 62
     7
100
AcDb2dPolyline
 66
     1
 10
0.0
 20
0.0
 30
0.0
  0
VERTEX
  5
607
330
2BA
100
AcDbEntity
  8
0
  6
CONTINUOUS
 62
     7
100
AcDbVertex
100
AcDb2dVertex
 10
8.1317821145
 20
7.4230572111
 30
0.0
  0
VERTEX
  5
608
330
2BA
100
AcDbEntity
  8
0
  6
CONTINUOUS
 62
     7
100
AcDbVertex
100
AcDb2dVertex
 10
8.1541315665
 20
7.4353495434
 30
0.0
  0
VERTEX
  5
609
330
2BA
100
AcDbEntity
  8
0
  6
CONTINUOUS
 62
     7
100
AcDbVertex
100
AcDb2dVertex
 10
8.1764311481
 20
7.4463949832
 30
0.0
  0
VERTEX
  5
60A
330
2BA
100
AcDbEntity
  8
0
  6
CONTINUOUS
 62
     7
100
AcDbVertex
100
AcDb2dVertex
 10
8.1986311003
 20
7.4561688839
 30
0.0
  0
VERTEX
  5
60B
330
2BA
100
AcDbEntity
  8
0
  6
CONTINUOUS
 62
     7
100
AcDbVertex
100
AcDb2dVertex
 10
8.2206818863
 20
7.4646494361
 30
0.0
  0
VERTEX
  5
60C
330
2BA
100
AcDbEntity
  8
0
  6
CONTINUOUS
 62
     7
100
AcDbVertex
100
AcDb2dVertex
 10
8.2425343021
 20
7.4718177164
 30
0.0
  0
VERTEX
  5
60D
330
2BA
100
AcDbEntity
  8
0
  6
CONTINUOUS
 62
     7
100
AcDbVertex
100
AcDb2dVertex
 10
8.2641395864
 20
7.4776577295
 30
0.0
  0
VERTEX
  5
60E
330
2BA
100
AcDbEntity
  8
0
  6
CONTINUOUS
 62
     7
100
AcDbVertex
100
AcDb2dVertex
 10
8.2854495295
 20
7.482156444
 30
0.0
  0
VERTEX
  5
60F
330
2BA
100
AcDbEntity
  8
0
  6
CONTINUOUS
 62
     7
100
AcDbVertex
100
AcDb2dVertex
 10
8.3064165805
 20
7.4853038216
 30
0.0
  0
VERTEX
  5
610
330
2BA
100
AcDbEntity
  8
0
  6
CONTINUOUS
 62
     7
100
AcDbVertex
100
AcDb2dVertex
 10
8.3269939537
 20
7.4870928392
 30
0.0
  0
VERTEX
  5
611
330
2BA
100
AcDbEntity
  8
0
  6
CONTINUOUS
 62
     7
100
AcDbVertex
100
AcDb2dVertex
 10
8.347135733
 20
7.4875195049
 30
0.0
  0
VERTEX
  5
612
330
2BA
100
AcDbEntity
  8
0
  6
CONTINUOUS
 62
     7
100
AcDbVertex
100
AcDb2dVertex
 10
8.3667969741
 20
7.4865828665
 30
0.0
  0
VERTEX
  5
613
330
2BA
100
AcDbEntity
  8
0
  6
CONTINUOUS
 62
     7
100
AcDbVertex
100
AcDb2dVertex
 10
8.3859338052
 20
7.4842850142
 30
0.0
  0
VERTEX
  5
614
330
2BA
100
AcDbEntity
  8
0
  6
CONTINUOUS
 62
     7
100
AcDbVertex
100
AcDb2dVertex
 10
8.4045035245
 20
7.4806310752
 30
0.0
  0
VERTEX
  5
615
330
2BA
100
AcDbEntity
  8
0
  6
CONTINUOUS
 62
     7
100
AcDbVertex
100
AcDb2dVertex
 10
8.4224646957
 20
7.475629203
 30
0.0
  0
VERTEX
  5
616
330
2BA
100
AcDbEntity
  8
0
  6
CONTINUOUS
 62
     7
100
AcDbVertex
100
AcDb2dVertex
 10
8.4397772404
 20
7.4692905587
 30
0.0
  0
VERTEX
  5
617
330
2BA
100
AcDbEntity
  8
0
  6
CONTINUOUS
 62
     7
100
AcDbVertex
100
AcDb2dVertex
 10
8.4564025275
 20
7.4616292862
 30
0.0
  0
VERTEX
  5
618
330
2BA
100
AcDbEntity
  8
0
  6
CONTINUOUS
 62
     7
100
AcDbVertex
100
AcDb2dVertex
 10
8.4723034596
 20
7.452662481
 30
0.0
  0
VERTEX
  5
619
330
2BA
100
AcDbEntity
  8
0
  6
CONTINUOUS
 62
     7
100
AcDbVertex
100
AcDb2dVertex
 10
8.4874445553
 20
7.4424101514
 30
0.0
  0
VERTEX
  5
61A
330
2BA
100
AcDbEntity
  8
0
  6
CONTINUOUS
 62
     7
100
AcDbVertex
100
AcDb2dVertex
 10
8.5017920291
 20
7.4308951744
 30
0.0
  0
VERTEX
  5
61B
330
2BA
100
AcDbEntity
  8
0
  6
CONTINUOUS
 62
     7
100
AcDbVertex
100
AcDb2dVertex
 10
8.5055439071
 20
7.4275562553
 30
0.0
  0
SEQEND
  5
61C
330
2BA
100
AcDbEntity
  8
0
  6
CONTINUOUS
 62
     7
  0
POLYLINE
  5
2BB
330
1F
100
AcDbEntity
  8
0
  6
CONTINUOUS
 62
     7
100
AcDb2dPolyline
 66
     1
 10
0.0
 20
0.0
 30
0.0
  0
VERTEX
  5
61D
330
2BB
100
AcDbEntity
  8
0
  6
CONTINUOUS
 62
     7
100
AcDbVertex
100
AcDb2dVertex
 10
7.8415368709
 20
6.2773377033
 30
0.0
  0
VERTEX
  5
61E
330
2BB
100
AcDbEntity
  8
0
  6
CONTINUOUS
 62
     7
100
AcDbVertex
100
AcDb2dVertex
 10
7.8323597333
 20
6.2804808732
 30
0.0
  0
VERTEX
  5
61F
330
2BB
100
AcDbEntity
  8
0
  6
CONTINUOUS
 62
     7
100
AcDbVertex
100
AcDb2dVertex
 10
7.8153860824
 20
6.2874827849
 30
0.0
  0
VERTEX
  5
620
330
2BB
100
AcDbEntity
  8
0
  6
CONTINUOUS
 62
     7
100
AcDbVertex
100
AcDb2dVertex
 10
7.7991184347
 20
6.2957991437
 30
0.0
  0
VERTEX
  5
621
330
2BB
100
AcDbEntity
  8
0
  6
CONTINUOUS
 62
     7
100
AcDbVertex
100
AcDb2dVertex
 10
7.7835930898
 20
6.3054113925
 30
0.0
  0
VERTEX
  5
622
330
2BB
100
AcDbEntity
  8
0
  6
CONTINUOUS
 62
     7
100
AcDbVertex
100
AcDb2dVertex
 10
7.7688446908
 20
6.3162980828
 30
0.0
  0
VERTEX
  5
623
330
2BB
100
AcDbEntity
  8
0
  6
CONTINUOUS
 62
     7
100
AcDbVertex
100
AcDb2dVertex
 10
7.754906147
 20
6.3284349221
 30
0.0
  0
VERTEX
  5
624
330
2BB
100
AcDbEntity
  8
0
  6
CONTINUOUS
 62
     7
100
AcDbVertex
100
AcDb2dVertex
 10
7.741808561
 20
6.3417948282
 30
0.0
  0
VERTEX
  5
625
330
2BB
100
AcDbEntity
  8
0
  6
CONTINUOUS
 62
     7
100
AcDbVertex
100
AcDb2dVertex
 10
7.7295811584
 20
6.3563479901
 30
0.0
  0
VERTEX
  5
626
330
2BB
100
AcDbEntity
  8
0
  6
CONTINUOUS
 62
     7
100
AcDbVertex
100
AcDb2dVertex
 10
7.7182512234
 20
6.372061934
 30
0.0
  0
VERTEX
  5
627
330
2BB
100
AcDbEntity
  8
0
  6
CONTINUOUS
 62
     7
100
AcDbVertex
100
AcDb2dVertex
 10
7.7078440375
 20
6.3889015958
 30
0.0
  0
VERTEX
  5
628
330
2BB
100
AcDbEntity
  8
0
  6
CONTINUOUS
 62
     7
100
AcDbVertex
100
AcDb2dVertex
 10
7.6983828233
 20
6.4068293998
 30
0.0
  0
VERTEX
  5
629
330
2BB
100
AcDbEntity
  8
0
  6
CONTINUOUS
 62
     7
100
AcDbVertex
100
AcDb2dVertex
 10
7.6898886923
 20
6.4258053419
 30
0.0
  0
VERTEX
  5
62A
330
2BB
100
AcDbEntity
  8
0
  6
CONTINUOUS
 62
     7
100
AcDbVertex
100
AcDb2dVertex
 10
7.6823805983
 20
6.4457870795
 30
0.0
  0
VERTEX
  5
62B
330
2BB
100
AcDbEntity
  8
0
  6
CONTINUOUS
 62
     7
100
AcDbVertex
100
AcDb2dVertex
 10
7.6758752949
 20
6.4667300254
 30
0.0
  0
VERTEX
  5
62C
330
2BB
100
AcDbEntity
  8
0
  6
CONTINUOUS
 62
     7
100
AcDbVertex
100
AcDb2dVertex
 10
7.6703872978
 20
6.4885874478
 30
0.0
  0
VERTEX
  5
62D
330
2BB
100
AcDbEntity
  8
0
  6
CONTINUOUS
 62
     7
100
AcDbVertex
100
AcDb2dVertex
 10
7.665928853
 20
6.5113105742
 30
0.0
  0
VERTEX
  5
62E
330
2BB
100
AcDbEntity
  8
0
  6
CONTINUOUS
 62
     7
100
AcDbVertex
100
AcDb2dVertex
 10
7.662509909
 20
6.5348487004
 30
0.0
  0
VERTEX
  5
62F
330
2BB
100
AcDbEntity
  8
0
  6
CONTINUOUS
 62
     7
100
AcDbVertex
100
AcDb2dVertex
 10
7.6601380948
 20
6.5591493037
 30
0.0
  0
VERTEX
  5
630
330
2BB
100
AcDbEntity
  8
0
  6
CONTINUOUS
 62
     7
100
AcDbVertex
100
AcDb2dVertex
 10
7.6588187028
 20
6.5841581599
 30
0.0
  0
VERTEX
  5
631
330
2BB
100
AcDbEntity
  8
0
  6
CONTINUOUS
 62
     7
100
AcDbVertex
100
AcDb2dVertex
 10
7.6585546771
 20
6.6098194645
 30
0.0
  0
VERTEX
  5
632
330
2BB
100
AcDbEntity
  8
0
  6
CONTINUOUS
 62
     7
100
AcDbVertex
100
AcDb2dVertex
 10
7.6593466068
 20
6.6360759571
 30
0.0
  0
VERTEX
  5
633
330
2BB
100
AcDbEntity
  8
0
  6
CONTINUOUS
 62
     7
100
AcDbVertex
100
AcDb2dVertex
 10
7.661192725
 20
6.6628690491
 30
0.0
  0
VERTEX
  5
634
330
2BB
100
AcDbEntity
  8
0
  6
CONTINUOUS
 62
     7
100
AcDbVertex
100
AcDb2dVertex
 10
7.664088912
 20
6.6901389547
 30
0.0
  0
VERTEX
  5
635
330
2BB
100
AcDbEntity
  8
0
  6
CONTINUOUS
 62
     7
100
AcDbVertex
100
AcDb2dVertex
 10
7.6680287055
 20
6.7178248242
 30
0.0
  0
VERTEX
  5
636
330
2BB
100
AcDbEntity
  8
0
  6
CONTINUOUS
 62
     7
100
AcDbVertex
100
AcDb2dVertex
 10
7.6730033142
 20
6.7458648794
 30
0.0
  0
VERTEX
  5
637
330
2BB
100
AcDbEntity
  8
0
  6
CONTINUOUS
 62
     7
100
AcDbVertex
100
AcDb2dVertex
 10
7.6790016377
 20
6.774196552
 30
0.0
  0
VERTEX
  5
638
330
2BB
100
AcDbEntity
  8
0
  6
CONTINUOUS
 62
     7
100
AcDbVertex
100
AcDb2dVertex
 10
7.6860102916
 20
6.8027566231
 30
0.0
  0
VERTEX
  5
639
330
2BB
100
AcDbEntity
  8
0
  6
CONTINUOUS
 62
     7
100
AcDbVertex
100
AcDb2dVertex
 10
7.6940136367
 20
6.8314813639
 30
0.0
  0
VERTEX
  5
63A
330
2BB
100
AcDbEntity
  8
0
  6
CONTINUOUS
 62
     7
100
AcDbVertex
100
AcDb2dVertex
 10
7.7029938144
 20
6.8603066783
 30
0.0
  0
VERTEX
  5
63B
330
2BB
100
AcDbEntity
  8
0
  6
CONTINUOUS
 62
     7
100
AcDbVertex
100
AcDb2dVertex
 10
7.7129307865
 20
6.8891682457
 30
0.0
  0
VERTEX
  5
63C
330
2BB
100
AcDbEntity
  8
0
  6
CONTINUOUS
 62
     7
100
AcDbVertex
100
AcDb2dVertex
 10
7.7238023797
 20
6.9180016648
 30
0.0
  0
VERTEX
  5
63D
330
2BB
100
AcDbEntity
  8
0
  6
CONTINUOUS
 62
     7
100
AcDbVertex
100
AcDb2dVertex
 10
7.7355843352
 20
6.9467425968
 30
0.0
  0
VERTEX
  5
63E
330
2BB
100
AcDbEntity
  8
0
  6
CONTINUOUS
 62
     7
100
AcDbVertex
100
AcDb2dVertex
 10
7.7482503629
 20
6.9753269096
 30
0.0
  0
VERTEX
  5
63F
330
2BB
100
AcDbEntity
  8
0
  6
CONTINUOUS
 62
     7
100
AcDbVertex
100
AcDb2dVertex
 10
7.7617721999
 20
7.0036908203
 30
0.0
  0
VERTEX
  5
640
330
2BB
100
AcDbEntity
  8
0
  6
CONTINUOUS
 62
     7
100
AcDbVertex
100
AcDb2dVertex
 10
7.7761196737
 20
7.0317710379
 30
0.0
  0
VERTEX
  5
641
330
2BB
100
AcDbEntity
  8
0
  6
CONTINUOUS
 62
     7
100
AcDbVertex
100
AcDb2dVertex
 10
7.7912607695
 20
7.0595049046
 30
0.0
  0
VERTEX
  5
642
330
2BB
100
AcDbEntity
  8
0
  6
CONTINUOUS
 62
     7
100
AcDbVertex
100
AcDb2dVertex
 10
7.8071617015
 20
7.0868305352
 30
0.0
  0
VERTEX
  5
643
330
2BB
100
AcDbEntity
  8
0
  6
CONTINUOUS
 62
     7
100
AcDbVertex
100
AcDb2dVertex
 10
7.8237869887
 20
7.1136869556
 30
0.0
  0
VERTEX
  5
644
330
2BB
100
AcDbEntity
  8
0
  6
CONTINUOUS
 62
     7
100
AcDbVertex
100
AcDb2dVertex
 10
7.8410995333
 20
7.1400142385
 30
0.0
  0
VERTEX
  5
645
330
2BB
100
AcDbEntity
  8
0
  6
CONTINUOUS
 62
     7
100
AcDbVertex
100
AcDb2dVertex
 10
7.8590607045
 20
7.1657536376
 30
0.0
  0
VERTEX
  5
646
330
2BB
100
AcDbEntity
  8
0
  6
CONTINUOUS
 62
     7
100
AcDbVertex
100
AcDb2dVertex
 10
7.8776304238
 20
7.1908477181
 30
0.0
  0
VERTEX
  5
647
330
2BB
100
AcDbEntity
  8
0
  6
CONTINUOUS
 62
     7
100
AcDbVertex
100
AcDb2dVertex
 10
7.8967672549
 20
7.2152404853
 30
0.0
  0
VERTEX
  5
648
330
2BB
100
AcDbEntity
  8
0
  6
CONTINUOUS
 62
     7
100
AcDbVertex
100
AcDb2dVertex
 10
7.916428496
 20
7.2388775095
 30
0.0
  0
VERTEX
  5
649
330
2BB
100
AcDbEntity
  8
0
  6
CONTINUOUS
 62
     7
100
AcDbVertex
100
AcDb2dVertex
 10
7.9365702753
 20
7.2617060471
 30
0.0
  0
VERTEX
  5
64A
330
2BB
100
AcDbEntity
  8
0
  6
CONTINUOUS
 62
     7
100
AcDbVertex
100
AcDb2dVertex
 10
7.9571476485
 20
7.2836751589
 30
0.0
  0
VERTEX
  5
64B
330
2BB
100
AcDbEntity
  8
0
  6
CONTINUOUS
 62
     7
100
AcDbVertex
100
AcDb2dVertex
 10
7.9781146995
 20
7.3047358231
 30
0.0
  0
VERTEX
  5
64C
330
2BB
100
AcDbEntity
  8
0
  6
CONTINUOUS
 62
     7
100
AcDbVertex
100
AcDb2dVertex
 10
7.9994246426
 20
7.3248410452
 30
0.0
  0
VERTEX
  5
64D
330
2BB
100
AcDbEntity
  8
0
  6
CONTINUOUS
 62
     7
100
AcDbVertex
100
AcDb2dVertex
 10
8.021029927
 20
7.3439459625
 30
0.0
  0
VERTEX
  5
64E
330
2BB
100
AcDbEntity
  8
0
  6
CONTINUOUS
 62
     7
100
AcDbVertex
100
AcDb2dVertex
 10
8.0428823428
 20
7.3620079445
 30
0.0
  0
VERTEX
  5
64F
330
2BB
100
AcDbEntity
  8
0
  6
CONTINUOUS
 62
     7
100
AcDbVertex
100
AcDb2dVertex
 10
8.0649331287
 20
7.3789866878
 30
0.0
  0
VERTEX
  5
650
330
2BB
100
AcDbEntity
  8
0
  6
CONTINUOUS
 62
     7
100
AcDbVertex
100
AcDb2dVertex
 10
8.0871330809
 20
7.3948443063
 30
0.0
  0
VERTEX
  5
651
330
2BB
100
AcDbEntity
  8
0
  6
CONTINUOUS
 62
     7
100
AcDbVertex
100
AcDb2dVertex
 10
8.1094326625
 20
7.4095454153
 30
0.0
  0
VERTEX
  5
652
330
2BB
100
AcDbEntity
  8
0
  6
CONTINUOUS
 62
     7
100
AcDbVertex
100
AcDb2dVertex
 10
8.1317821145
 20
7.4230572111
 30
0.0
  0
SEQEND
  5
653
330
2BB
100
AcDbEntity
  8
0
  6
CONTINUOUS
 62
     7
  0
LINE
  5
2BC
330
1F
100
AcDbEntity
  8
0
  6
CONTINUOUS
 62
     7
100
AcDbLine
 10
8.0621849904
 20
7.2623273613
 30
0.0
 11
8.0622198941
 21
7.259802529
 31
0.0
  0
POLYLINE
  5
2BD
330
1F
100
AcDbEntity
  8
0
  6
CONTINUOUS
 62
     7
100
AcDb2dPolyline
 66
     1
 10
0.0
 20
0.0
 30
0.0
  0
VERTEX
  5
654
330
2BD
100
AcDbEntity
  8
0
  6
CONTINUOUS
 62
     7
100
AcDbVertex
100
AcDb2dVertex
 10
8.1692940679
 20
7.3918553679
 30
0.0
  0
VERTEX
  5
655
330
2BD
100
AcDbEntity
  8
0
  6
CONTINUOUS
 62
     7
100
AcDbVertex
100
AcDb2dVertex
 10
8.1665806766
 20
7.3921946025
 30
0.0
  0
VERTEX
  5
656
330
2BD
100
AcDbEntity
  8
0
  6
CONTINUOUS
 62
     7
100
AcDbVertex
100
AcDb2dVertex
 10
8.1589100903
 20
7.3921770827
 30
0.0
  0
VERTEX
  5
657
330
2BD
100
AcDbEntity
  8
0
  6
CONTINUOUS
 62
     7
100
AcDbVertex
100
AcDb2dVertex
 10
8.1508282716
 20
7.3908002245
 30
0.0
  0
VERTEX
  5
658
330
2BD
100
AcDbEntity
  8
0
  6
CONTINUOUS
 62
     7
100
AcDbVertex
100
AcDb2dVertex
 10
8.1424577326
 20
7.3880848995
 30
0.0
  0
VERTEX
  5
659
330
2BD
100
AcDbEntity
  8
0
  6
CONTINUOUS
 62
     7
100
AcDbVertex
100
AcDb2dVertex
 10
8.133925362
 20
7.3840722694
 30
0.0
  0
VERTEX
  5
65A
330
2BD
100
AcDbEntity
  8
0
  6
CONTINUOUS
 62
     7
100
AcDbVertex
100
AcDb2dVertex
 10
8.1253605021
 20
7.3788231615
 30
0.0
  0
VERTEX
  5
65B
330
2BD
100
AcDbEntity
  8
0
  6
CONTINUOUS
 62
     7
100
AcDbVertex
100
AcDb2dVertex
 10
8.1168929872
 20
7.3724171469
 30
0.0
  0
VERTEX
  5
65C
330
2BD
100
AcDbEntity
  8
0
  6
CONTINUOUS
 62
     7
100
AcDbVertex
100
AcDb2dVertex
 10
8.1086511763
 20
7.3649513344
 30
0.0
  0
VERTEX
  5
65D
330
2BD
100
AcDbEntity
  8
0
  6
CONTINUOUS
 62
     7
100
AcDbVertex
100
AcDb2dVertex
 10
8.1007600068
 20
7.3565388979
 30
0.0
  0
VERTEX
  5
65E
330
2BD
100
AcDbEntity
  8
0
  6
CONTINUOUS
 62
     7
100
AcDbVertex
100
AcDb2dVertex
 10
8.0933391009
 20
7.3473073615
 30
0.0
  0
VERTEX
  5
65F
330
2BD
100
AcDbEntity
  8
0
  6
CONTINUOUS
 62
     7
100
AcDbVertex
100
AcDb2dVertex
 10
8.0865009519
 20
7.3373966658
 30
0.0
  0
VERTEX
  5
660
330
2BD
100
AcDbEntity
  8
0
  6
CONTINUOUS
 62
     7
100
AcDbVertex
100
AcDb2dVertex
 10
8.0803492192
 20
7.326957047
 30
0.0
  0
VERTEX
  5
661
330
2BD
100
AcDbEntity
  8
0
  6
CONTINUOUS
 62
     7
100
AcDbVertex
100
AcDb2dVertex
 10
8.0749771567
 20
7.3161467589
 30
0.0
  0
VERTEX
  5
662
330
2BD
100
AcDbEntity
  8
0
  6
CONTINUOUS
 62
     7
100
AcDbVertex
100
AcDb2dVertex
 10
8.0704661995
 20
7.3051296745
 30
0.0
  0
VERTEX
  5
663
330
2BD
100
AcDbEntity
  8
0
  6
CONTINUOUS
 62
     7
100
AcDbVertex
100
AcDb2dVertex
 10
8.066884729
 20
7.2940728016
 30
0.0
  0
VERTEX
  5
664
330
2BD
100
AcDbEntity
  8
0
  6
CONTINUOUS
 62
     7
100
AcDbVertex
100
AcDb2dVertex
 10
8.0642870368
 20
7.2831437511
 30
0.0
  0
VERTEX
  5
665
330
2BD
100
AcDbEntity
  8
0
  6
CONTINUOUS
 62
     7
100
AcDbVertex
100
AcDb2dVertex
 10
8.0627125011
 20
7.2725081963
 30
0.0
  0
VERTEX
  5
666
330
2BD
100
AcDbEntity
  8
0
  6
CONTINUOUS
 62
     7
100
AcDbVertex
100
AcDb2dVertex
 10
8.0621849904
 20
7.2623273613
 30
0.0
  0
SEQEND
  5
667
330
2BD
100
AcDbEntity
  8
0
  6
CONTINUOUS
 62
     7
  0
POLYLINE
  5
2BE
330
1F
100
AcDbEntity
  8
0
  6
CONTINUOUS
 62
     7
100
AcDb2dPolyline
 66
     1
 10
0.0
 20
0.0
 30
0.0
  0
VERTEX
  5
668
330
2BE
100
AcDbEntity
  8
0
  6
CONTINUOUS
 62
     7
100
AcDbVertex
100
AcDb2dVertex
 10
7.6841518308
 20
6.362154845
 30
0.0
  0
VERTEX
  5
669
330
2BE
100
AcDbEntity
  8
0
  6
CONTINUOUS
 62
     7
100
AcDbVertex
100
AcDb2dVertex
 10
7.6782489593
 20
6.3656848845
 30
0.0
  0
VERTEX
  5
66A
330
2BE
100
AcDbEntity
  8
0
  6
CONTINUOUS
 62
     7
100
AcDbVertex
100
AcDb2dVertex
 10
7.6631078635
 20
6.3759372141
 30
0.0
  0
VERTEX
  5
66B
330
2BE
100
AcDbEntity
  8
0
  6
CONTINUOUS
 62
     7
100
AcDbVertex
100
AcDb2dVertex
 10
7.6487603897
 20
6.3874521911
 30
0.0
  0
VERTEX
  5
66C
330
2BE
100
AcDbEntity
  8
0
  6
CONTINUOUS
 62
     7
100
AcDbVertex
100
AcDb2dVertex
 10
7.6352385528
 20
6.4002041211
 30
0.0
  0
VERTEX
  5
66D
330
2BE
100
AcDbEntity
  8
0
  6
CONTINUOUS
 62
     7
100
AcDbVertex
100
AcDb2dVertex
 10
7.6225725251
 20
6.4141645496
 30
0.0
  0
VERTEX
  5
66E
330
2BE
100
AcDbEntity
  8
0
  6
CONTINUOUS
 62
     7
100
AcDbVertex
100
AcDb2dVertex
 10
7.6107905695
 20
6.4293023253
 30
0.0
  0
VERTEX
  5
66F
330
2BE
100
AcDbEntity
  8
0
  6
CONTINUOUS
 62
     7
100
AcDbVertex
100
AcDb2dVertex
 10
7.5999189763
 20
6.44558367
 30
0.0
  0
VERTEX
  5
670
330
2BE
100
AcDbEntity
  8
0
  6
CONTINUOUS
 62
     7
100
AcDbVertex
100
AcDb2dVertex
 10
7.5899820042
 20
6.4629722537
 30
0.0
  0
VERTEX
  5
671
330
2BE
100
AcDbEntity
  8
0
  6
CONTINUOUS
 62
     7
100
AcDbVertex
100
AcDb2dVertex
 10
7.5810018265
 20
6.4814292756
 30
0.0
  0
VERTEX
  5
672
330
2BE
100
AcDbEntity
  8
0
  6
CONTINUOUS
 62
     7
100
AcDbVertex
100
AcDb2dVertex
 10
7.5729984814
 20
6.5009135508
 30
0.0
  0
VERTEX
  5
673
330
2BE
100
AcDbEntity
  8
0
  6
CONTINUOUS
 62
     7
100
AcDbVertex
100
AcDb2dVertex
 10
7.5659898275
 20
6.5213816024
 30
0.0
  0
VERTEX
  5
674
330
2BE
100
AcDbEntity
  8
0
  6
CONTINUOUS
 62
     7
100
AcDbVertex
100
AcDb2dVertex
 10
7.559991504
 20
6.5427877581
 30
0.0
  0
VERTEX
  5
675
330
2BE
100
AcDbEntity
  8
0
  6
CONTINUOUS
 62
     7
100
AcDbVertex
100
AcDb2dVertex
 10
7.5550168953
 20
6.5650842524
 30
0.0
  0
VERTEX
  5
676
330
2BE
100
AcDbEntity
  8
0
  6
CONTINUOUS
 62
     7
100
AcDbVertex
100
AcDb2dVertex
 10
7.5510771019
 20
6.5882213331
 30
0.0
  0
VERTEX
  5
677
330
2BE
100
AcDbEntity
  8
0
  6
CONTINUOUS
 62
     7
100
AcDbVertex
100
AcDb2dVertex
 10
7.5481809148
 20
6.6121473723
 30
0.0
  0
VERTEX
  5
678
330
2BE
100
AcDbEntity
  8
0
  6
CONTINUOUS
 62
     7
100
AcDbVertex
100
AcDb2dVertex
 10
7.5463347967
 20
6.6368089817
 30
0.0
  0
VERTEX
  5
679
330
2BE
100
AcDbEntity
  8
0
  6
CONTINUOUS
 62
     7
100
AcDbVertex
100
AcDb2dVertex
 10
7.5455428669
 20
6.6621511316
 30
0.0
  0
VERTEX
  5
67A
330
2BE
100
AcDbEntity
  8
0
  6
CONTINUOUS
 62
     7
100
AcDbVertex
100
AcDb2dVertex
 10
7.5458068926
 20
6.6881172738
 30
0.0
  0
VERTEX
  5
67B
330
2BE
100
AcDbEntity
  8
0
  6
CONTINUOUS
 62
     7
100
AcDbVertex
100
AcDb2dVertex
 10
7.5471262846
 20
6.7146494676
 30
0.0
  0
VERTEX
  5
67C
330
2BE
100
AcDbEntity
  8
0
  6
CONTINUOUS
 62
     7
100
AcDbVertex
100
AcDb2dVertex
 10
7.5494980988
 20
6.7416885093
 30
0.0
  0
VERTEX
  5
67D
330
2BE
100
AcDbEntity
  8
0
  6
CONTINUOUS
 62
     7
100
AcDbVertex
100
AcDb2dVertex
 10
7.5529170429
 20
6.7691740643
 30
0.0
  0
VERTEX
  5
67E
330
2BE
100
AcDbEntity
  8
0
  6
CONTINUOUS
 62
     7
100
AcDbVertex
100
AcDb2dVertex
 10
7.5573754877
 20
6.7970448015
 30
0.0
  0
VERTEX
  5
67F
330
2BE
100
AcDbEntity
  8
0
  6
CONTINUOUS
 62
     7
100
AcDbVertex
100
AcDb2dVertex
 10
7.5628634847
 20
6.8252385304
 30
0.0
  0
VERTEX
  5
680
330
2BE
100
AcDbEntity
  8
0
  6
CONTINUOUS
 62
     7
100
AcDbVertex
100
AcDb2dVertex
 10
7.5693687882
 20
6.8536923398
 30
0.0
  0
VERTEX
  5
681
330
2BE
100
AcDbEntity
  8
0
  6
CONTINUOUS
 62
     7
100
AcDbVertex
100
AcDb2dVertex
 10
7.5768768821
 20
6.8823427382
 30
0.0
  0
VERTEX
  5
682
330
2BE
100
AcDbEntity
  8
0
  6
CONTINUOUS
 62
     7
100
AcDbVertex
100
AcDb2dVertex
 10
7.5853710131
 20
6.9111257952
 30
0.0
  0
VERTEX
  5
683
330
2BE
100
AcDbEntity
  8
0
  6
CONTINUOUS
 62
     7
100
AcDbVertex
100
AcDb2dVertex
 10
7.5948322273
 20
6.9399772846
 30
0.0
  0
VERTEX
  5
684
330
2BE
100
AcDbEntity
  8
0
  6
CONTINUOUS
 62
     7
100
AcDbVertex
100
AcDb2dVertex
 10
7.6052394132
 20
6.9688328275
 30
0.0
  0
VERTEX
  5
685
330
2BE
100
AcDbEntity
  8
0
  6
CONTINUOUS
 62
     7
100
AcDbVertex
100
AcDb2dVertex
 10
7.6165693482
 20
6.9976280358
 30
0.0
  0
VERTEX
  5
686
330
2BE
100
AcDbEntity
  8
0
  6
CONTINUOUS
 62
     7
100
AcDbVertex
100
AcDb2dVertex
 10
7.6287967508
 20
7.0262986562
 30
0.0
  0
VERTEX
  5
687
330
2BE
100
AcDbEntity
  8
0
  6
CONTINUOUS
 62
     7
100
AcDbVertex
100
AcDb2dVertex
 10
7.6418943369
 20
7.0547807134
 30
0.0
  0
VERTEX
  5
688
330
2BE
100
AcDbEntity
  8
0
  6
CONTINUOUS
 62
     7
100
AcDbVertex
100
AcDb2dVertex
 10
7.6558328806
 20
7.0830106527
 30
0.0
  0
VERTEX
  5
689
330
2BE
100
AcDbEntity
  8
0
  6
CONTINUOUS
 62
     7
100
AcDbVertex
100
AcDb2dVertex
 10
7.6705812797
 20
7.1109254821
 30
0.0
  0
VERTEX
  5
68A
330
2BE
100
AcDbEntity
  8
0
  6
CONTINUOUS
 62
     7
100
AcDbVertex
100
AcDb2dVertex
 10
7.6861066246
 20
7.1384629126
 30
0.0
  0
VERTEX
  5
68B
330
2BE
100
AcDbEntity
  8
0
  6
CONTINUOUS
 62
     7
100
AcDbVertex
100
AcDb2dVertex
 10
7.7023742722
 20
7.1655614976
 30
0.0
  0
VERTEX
  5
68C
330
2BE
100
AcDbEntity
  8
0
  6
CONTINUOUS
 62
     7
100
AcDbVertex
100
AcDb2dVertex
 10
7.7193479231
 20
7.1921607694
 30
0.0
  0
VERTEX
  5
68D
330
2BE
100
AcDbEntity
  8
0
  6
CONTINUOUS
 62
     7
100
AcDbVertex
100
AcDb2dVertex
 10
7.7369897025
 20
7.2182013748
 30
0.0
  0
VERTEX
  5
68E
330
2BE
100
AcDbEntity
  8
0
  6
CONTINUOUS
 62
     7
100
AcDbVertex
100
AcDb2dVertex
 10
7.7552602445
 20
7.2436252069
 30
0.0
  0
VERTEX
  5
68F
330
2BE
100
AcDbEntity
  8
0
  6
CONTINUOUS
 62
     7
100
AcDbVertex
100
AcDb2dVertex
 10
7.7741187805
 20
7.2683755351
 30
0.0
  0
VERTEX
  5
690
330
2BE
100
AcDbEntity
  8
0
  6
CONTINUOUS
 62
     7
100
AcDbVertex
100
AcDb2dVertex
 10
7.7935232298
 20
7.292397132
 30
0.0
  0
VERTEX
  5
691
330
2BE
100
AcDbEntity
  8
0
  6
CONTINUOUS
 62
     7
100
AcDbVertex
100
AcDb2dVertex
 10
7.8134302933
 20
7.3156363958
 30
0.0
  0
VERTEX
  5
692
330
2BE
100
AcDbEntity
  8
0
  6
CONTINUOUS
 62
     7
100
AcDbVertex
100
AcDb2dVertex
 10
7.8337955507
 20
7.3380414707
 30
0.0
  0
VERTEX
  5
693
330
2BE
100
AcDbEntity
  8
0
  6
CONTINUOUS
 62
     7
100
AcDbVertex
100
AcDb2dVertex
 10
7.8545735591
 20
7.3595623622
 30
0.0
  0
VERTEX
  5
694
330
2BE
100
AcDbEntity
  8
0
  6
CONTINUOUS
 62
     7
100
AcDbVertex
100
AcDb2dVertex
 10
7.8757179546
 20
7.3801510488
 30
0.0
  0
VERTEX
  5
695
330
2BE
100
AcDbEntity
  8
0
  6
CONTINUOUS
 62
     7
100
AcDbVertex
100
AcDb2dVertex
 10
7.8971815559
 20
7.3997615891
 30
0.0
  0
VERTEX
  5
696
330
2BE
100
AcDbEntity
  8
0
  6
CONTINUOUS
 62
     7
100
AcDbVertex
100
AcDb2dVertex
 10
7.9189164692
 20
7.4183502243
 30
0.0
  0
VERTEX
  5
697
330
2BE
100
AcDbEntity
  8
0
  6
CONTINUOUS
 62
     7
100
AcDbVertex
100
AcDb2dVertex
 10
7.9408741955
 20
7.4358754759
 30
0.0
  0
VERTEX
  5
698
330
2BE
100
AcDbEntity
  8
0
  6
CONTINUOUS
 62
     7
100
AcDbVertex
100
AcDb2dVertex
 10
7.9630057384
 20
7.4522982381
 30
0.0
  0
VERTEX
  5
699
330
2BE
100
AcDbEntity
  8
0
  6
CONTINUOUS
 62
     7
100
AcDbVertex
100
AcDb2dVertex
 10
7.9852617139
 20
7.4675818654
 30
0.0
  0
VERTEX
  5
69A
330
2BE
100
AcDbEntity
  8
0
  6
CONTINUOUS
 62
     7
100
AcDbVertex
100
AcDb2dVertex
 10
8.0075924602
 20
7.4816922541
 30
0.0
  0
VERTEX
  5
69B
330
2BE
100
AcDbEntity
  8
0
  6
CONTINUOUS
 62
     7
100
AcDbVertex
100
AcDb2dVertex
 10
8.0299481486
 20
7.4945979183
 30
0.0
  0
VERTEX
  5
69C
330
2BE
100
AcDbEntity
  8
0
  6
CONTINUOUS
 62
     7
100
AcDbVertex
100
AcDb2dVertex
 10
8.0522788948
 20
7.5062700605
 30
0.0
  0
VERTEX
  5
69D
330
2BE
100
AcDbEntity
  8
0
  6
CONTINUOUS
 62
     7
100
AcDbVertex
100
AcDb2dVertex
 10
8.0745348703
 20
7.5166826355
 30
0.0
  0
VERTEX
  5
69E
330
2BE
100
AcDbEntity
  8
0
  6
CONTINUOUS
 62
     7
100
AcDbVertex
100
AcDb2dVertex
 10
8.0966664132
 20
7.5258124088
 30
0.0
  0
VERTEX
  5
69F
330
2BE
100
AcDbEntity
  8
0
  6
CONTINUOUS
 62
     7
100
AcDbVertex
100
AcDb2dVertex
 10
8.1186241395
 20
7.5336390084
 30
0.0
  0
VERTEX
  5
6A0
330
2BE
100
AcDbEntity
  8
0
  6
CONTINUOUS
 62
     7
100
AcDbVertex
100
AcDb2dVertex
 10
8.1403590528
 20
7.54014497
 30
0.0
  0
VERTEX
  5
6A1
330
2BE
100
AcDbEntity
  8
0
  6
CONTINUOUS
 62
     7
100
AcDbVertex
100
AcDb2dVertex
 10
8.1618226541
 20
7.5453157762
 30
0.0
  0
VERTEX
  5
6A2
330
2BE
100
AcDbEntity
  8
0
  6
CONTINUOUS
 62
     7
100
AcDbVertex
100
AcDb2dVertex
 10
8.1829670496
 20
7.5491398891
 30
0.0
  0
VERTEX
  5
6A3
330
2BE
100
AcDbEntity
  8
0
  6
CONTINUOUS
 62
     7
100
AcDbVertex
100
AcDb2dVertex
 10
8.203745058
 20
7.5516087754
 30
0.0
  0
VERTEX
  5
6A4
330
2BE
100
AcDbEntity
  8
0
  6
CONTINUOUS
 62
     7
100
AcDbVertex
100
AcDb2dVertex
 10
8.2241103154
 20
7.5527169262
 30
0.0
  0
VERTEX
  5
6A5
330
2BE
100
AcDbEntity
  8
0
  6
CONTINUOUS
 62
     7
100
AcDbVertex
100
AcDb2dVertex
 10
8.244017379
 20
7.5524618687
 30
0.0
  0
VERTEX
  5
6A6
330
2BE
100
AcDbEntity
  8
0
  6
CONTINUOUS
 62
     7
100
AcDbVertex
100
AcDb2dVertex
 10
8.2634218282
 20
7.550844172
 30
0.0
  0
VERTEX
  5
6A7
330
2BE
100
AcDbEntity
  8
0
  6
CONTINUOUS
 62
     7
100
AcDbVertex
100
AcDb2dVertex
 10
8.2822803642
 20
7.547867446
 30
0.0
  0
VERTEX
  5
6A8
330
2BE
100
AcDbEntity
  8
0
  6
CONTINUOUS
 62
     7
100
AcDbVertex
100
AcDb2dVertex
 10
8.3005509062
 20
7.5435383327
 30
0.0
  0
VERTEX
  5
6A9
330
2BE
100
AcDbEntity
  8
0
  6
CONTINUOUS
 62
     7
100
AcDbVertex
100
AcDb2dVertex
 10
8.3181926856
 20
7.5378664922
 30
0.0
  0
VERTEX
  5
6AA
330
2BE
100
AcDbEntity
  8
0
  6
CONTINUOUS
 62
     7
100
AcDbVertex
100
AcDb2dVertex
 10
8.3351663365
 20
7.5308645806
 30
0.0
  0
VERTEX
  5
6AB
330
2BE
100
AcDbEntity
  8
0
  6
CONTINUOUS
 62
     7
100
AcDbVertex
100
AcDb2dVertex
 10
8.3514339842
 20
7.5225482218
 30
0.0
  0
VERTEX
  5
6AC
330
2BE
100
AcDbEntity
  8
0
  6
CONTINUOUS
 62
     7
100
AcDbVertex
100
AcDb2dVertex
 10
8.3533887779
 20
7.5214328498
 30
0.0
  0
SEQEND
  5
6AD
330
2BE
100
AcDbEntity
  8
0
  6
CONTINUOUS
 62
     7
  0
LINE
  5
2BF
330
1F
100
AcDbEntity
  8
0
  6
CONTINUOUS
 62
     7
100
AcDbLine
 10
8.0981052161
 20
7.3219577299
 30
0.0
 11
8.0586336104
 21
7.2535909035
 31
0.0
  0
LINE
  5
2C0
330
1F
100
AcDbEntity
  8
0
  6
CONTINUOUS
 62
     7
100
AcDbLine
 10
7.7687211124
 20
6.7514477287
 30
0.0
 11
7.7292404582
 21
6.68306523
 31
0.0
  0
POLYLINE
  5
2C1
330
1F
100
AcDbEntity
  8
0
  6
CONTINUOUS
 62
     7
100
AcDb2dPolyline
 66
     1
 10
0.0
 20
0.0
 30
0.0
  0
VERTEX
  5
6AE
330
2C1
100
AcDbEntity
  8
0
  6
CONTINUOUS
 62
     7
100
AcDbVertex
100
AcDb2dVertex
 10
8.011734805
 20
7.4842347198
 30
0.0
  0
VERTEX
  5
6AF
330
2C1
100
AcDbEntity
  8
0
  6
CONTINUOUS
 62
     7
100
AcDbVertex
100
AcDb2dVertex
 10
7.9896231098
 20
7.4708600167
 30
0.0
  0
VERTEX
  5
6B0
330
2C1
100
AcDbEntity
  8
0
  6
CONTINUOUS
 62
     7
100
AcDbVertex
100
AcDb2dVertex
 10
7.9674858894
 20
7.456252152
 30
0.0
  0
VERTEX
  5
6B1
330
2C1
100
AcDbEntity
  8
0
  6
CONTINUOUS
 62
     7
100
AcDbVertex
100
AcDb2dVertex
 10
7.9454490787
 20
7.4404879753
 30
0.0
  0
VERTEX
  5
6B2
330
2C1
100
AcDbEntity
  8
0
  6
CONTINUOUS
 62
     7
100
AcDbVertex
100
AcDb2dVertex
 10
7.9235625982
 20
7.4236031976
 30
0.0
  0
VERTEX
  5
6B3
330
2C1
100
AcDbEntity
  8
0
  6
CONTINUOUS
 62
     7
100
AcDbVertex
100
AcDb2dVertex
 10
7.9018760278
 20
7.4056360681
 30
0.0
  0
VERTEX
  5
6B4
330
2C1
100
AcDbEntity
  8
0
  6
CONTINUOUS
 62
     7
100
AcDbVertex
100
AcDb2dVertex
 10
7.8804384945
 20
7.3866272884
 30
0.0
  0
VERTEX
  5
6B5
330
2C1
100
AcDbEntity
  8
0
  6
CONTINUOUS
 62
     7
100
AcDbVertex
100
AcDb2dVertex
 10
7.8592985613
 20
7.3666199194
 30
0.0
  0
VERTEX
  5
6B6
330
2C1
100
AcDbEntity
  8
0
  6
CONTINUOUS
 62
     7
100
AcDbVertex
100
AcDb2dVertex
 10
7.8385041169
 20
7.3456592842
 30
0.0
  0
VERTEX
  5
6B7
330
2C1
100
AcDbEntity
  8
0
  6
CONTINUOUS
 62
     7
100
AcDbVertex
100
AcDb2dVertex
 10
7.8181022674
 20
7.3237928654
 30
0.0
  0
VERTEX
  5
6B8
330
2C1
100
AcDbEntity
  8
0
  6
CONTINUOUS
 62
     7
100
AcDbVertex
100
AcDb2dVertex
 10
7.7981392296
 20
7.3010701975
 30
0.0
  0
VERTEX
  5
6B9
330
2C1
100
AcDbEntity
  8
0
  6
CONTINUOUS
 62
     7
100
AcDbVertex
100
AcDb2dVertex
 10
7.7786602261
 20
7.2775427546
 30
0.0
  0
VERTEX
  5
6BA
330
2C1
100
AcDbEntity
  8
0
  6
CONTINUOUS
 62
     7
100
AcDbVertex
100
AcDb2dVertex
 10
7.7597093832
 20
7.2532638339
 30
0.0
  0
VERTEX
  5
6BB
330
2C1
100
AcDbEntity
  8
0
  6
CONTINUOUS
 62
     7
100
AcDbVertex
100
AcDb2dVertex
 10
7.7413296306
 20
7.228288435
 30
0.0
  0
VERTEX
  5
6BC
330
2C1
100
AcDbEntity
  8
0
  6
CONTINUOUS
 62
     7
100
AcDbVertex
100
AcDb2dVertex
 10
7.7235626044
 20
7.2026731353
 30
0.0
  0
VERTEX
  5
6BD
330
2C1
100
AcDbEntity
  8
0
  6
CONTINUOUS
 62
     7
100
AcDbVertex
100
AcDb2dVertex
 10
7.7064485525
 20
7.1764759616
 30
0.0
  0
VERTEX
  5
6BE
330
2C1
100
AcDbEntity
  8
0
  6
CONTINUOUS
 62
     7
100
AcDbVertex
100
AcDb2dVertex
 10
7.690026244
 20
7.1497562589
 30
0.0
  0
VERTEX
  5
6BF
330
2C1
100
AcDbEntity
  8
0
  6
CONTINUOUS
 62
     7
100
AcDbVertex
100
AcDb2dVertex
 10
7.6743328804
 20
7.122574556
 30
0.0
  0
VERTEX
  5
6C0
330
2C1
100
AcDbEntity
  8
0
  6
CONTINUOUS
 62
     7
100
AcDbVertex
100
AcDb2dVertex
 10
7.6594040124
 20
7.0949924282
 30
0.0
  0
VERTEX
  5
6C1
330
2C1
100
AcDbEntity
  8
0
  6
CONTINUOUS
 62
     7
100
AcDbVertex
100
AcDb2dVertex
 10
7.6452734587
 20
7.0670723578
 30
0.0
  0
VERTEX
  5
6C2
330
2C1
100
AcDbEntity
  8
0
  6
CONTINUOUS
 62
     7
100
AcDbVertex
100
AcDb2dVertex
 10
7.6319732295
 20
7.0388775927
 30
0.0
  0
VERTEX
  5
6C3
330
2C1
100
AcDbEntity
  8
0
  6
CONTINUOUS
 62
     7
100
AcDbVertex
100
AcDb2dVertex
 10
7.619533454
 20
7.0104720033
 30
0.0
  0
VERTEX
  5
6C4
330
2C1
100
AcDbEntity
  8
0
  6
CONTINUOUS
 62
     7
100
AcDbVertex
100
AcDb2dVertex
 10
7.6079823125
 20
6.9819199373
 30
0.0
  0
VERTEX
  5
6C5
330
2C1
100
AcDbEntity
  8
0
  6
CONTINUOUS
 62
     7
100
AcDbVertex
100
AcDb2dVertex
 10
7.5973459719
 20
6.9532860743
 30
0.0
  0
VERTEX
  5
6C6
330
2C1
100
AcDbEntity
  8
0
  6
CONTINUOUS
 62
     7
100
AcDbVertex
100
AcDb2dVertex
 10
7.5876485269
 20
6.9246352793
 30
0.0
  0
VERTEX
  5
6C7
330
2C1
100
AcDbEntity
  8
0
  6
CONTINUOUS
 62
     7
100
AcDbVertex
100
AcDb2dVertex
 10
7.5789119455
 20
6.8960324554
 30
0.0
  0
VERTEX
  5
6C8
330
2C1
100
AcDbEntity
  8
0
  6
CONTINUOUS
 62
     7
100
AcDbVertex
100
AcDb2dVertex
 10
7.5711560187
 20
6.8675423973
 30
0.0
  0
VERTEX
  5
6C9
330
2C1
100
AcDbEntity
  8
0
  6
CONTINUOUS
 62
     7
100
AcDbVertex
100
AcDb2dVertex
 10
7.5643983163
 20
6.8392296441
 30
0.0
  0
VERTEX
  5
6CA
330
2C1
100
AcDbEntity
  8
0
  6
CONTINUOUS
 62
     7
100
AcDbVertex
100
AcDb2dVertex
 10
7.5586541466
 20
6.8111583333
 30
0.0
  0
VERTEX
  5
6CB
330
2C1
100
AcDbEntity
  8
0
  6
CONTINUOUS
 62
     7
100
AcDbVertex
100
AcDb2dVertex
 10
7.5539365219
 20
6.7833920555
 30
0.0
  0
VERTEX
  5
6CC
330
2C1
100
AcDbEntity
  8
0
  6
CONTINUOUS
 62
     7
100
AcDbVertex
100
AcDb2dVertex
 10
7.5502561294
 20
6.7559937102
 30
0.0
  0
VERTEX
  5
6CD
330
2C1
100
AcDbEntity
  8
0
  6
CONTINUOUS
 62
     7
100
AcDbVertex
100
AcDb2dVertex
 10
7.5476213061
 20
6.7290253635
 30
0.0
  0
VERTEX
  5
6CE
330
2C1
100
AcDbEntity
  8
0
  6
CONTINUOUS
 62
     7
100
AcDbVertex
100
AcDb2dVertex
 10
7.5460380208
 20
6.7025481074
 30
0.0
  0
VERTEX
  5
6CF
330
2C1
100
AcDbEntity
  8
0
  6
CONTINUOUS
 62
     7
100
AcDbVertex
100
AcDb2dVertex
 10
7.5455098603
 20
6.6766219213
 30
0.0
  0
SEQEND
  5
6D0
330
2C1
100
AcDbEntity
  8
0
  6
CONTINUOUS
 62
     7
  0
POLYLINE
  5
2C2
330
1F
100
AcDbEntity
  8
0
  6
CONTINUOUS
 62
     7
100
AcDb2dPolyline
 66
     1
 10
0.0
 20
0.0
 30
0.0
  0
VERTEX
  5
6D1
330
2C2
100
AcDbEntity
  8
0
  6
CONTINUOUS
 62
     7
100
AcDbVertex
100
AcDb2dVertex
 10
7.7292404582
 20
6.68306523
 30
0.0
  0
VERTEX
  5
6D2
330
2C2
100
AcDbEntity
  8
0
  6
CONTINUOUS
 62
     7
100
AcDbVertex
100
AcDb2dVertex
 10
7.7227396779
 20
6.6709122277
 30
0.0
  0
VERTEX
  5
6D3
330
2C2
100
AcDbEntity
  8
0
  6
CONTINUOUS
 62
     7
100
AcDbVertex
100
AcDb2dVertex
 10
7.7170942448
 20
6.6584653237
 30
0.0
  0
VERTEX
  5
6D4
330
2C2
100
AcDbEntity
  8
0
  6
CONTINUOUS
 62
     7
100
AcDbVertex
100
AcDb2dVertex
 10
7.7123751536
 20
6.6458810451
 30
0.0
  0
VERTEX
  5
6D5
330
2C2
100
AcDbEntity
  8
0
  6
CONTINUOUS
 62
     7
100
AcDbVertex
100
AcDb2dVertex
 10
7.7086417496
 20
6.6333176464
 30
0.0
  0
VERTEX
  5
6D6
330
2C2
100
AcDbEntity
  8
0
  6
CONTINUOUS
 62
     7
100
AcDbVertex
100
AcDb2dVertex
 10
7.7059409826
 20
6.6209331196
 30
0.0
  0
VERTEX
  5
6D7
330
2C2
100
AcDbEntity
  8
0
  6
CONTINUOUS
 62
     7
100
AcDbVertex
100
AcDb2dVertex
 10
7.7043068162
 20
6.6088832074
 30
0.0
  0
VERTEX
  5
6D8
330
2C2
100
AcDbEntity
  8
0
  6
CONTINUOUS
 62
     7
100
AcDbVertex
100
AcDb2dVertex
 10
7.7037598011
 20
6.5973194444
 30
0.0
  0
VERTEX
  5
6D9
330
2C2
100
AcDbEntity
  8
0
  6
CONTINUOUS
 62
     7
100
AcDbVertex
100
AcDb2dVertex
 10
7.7043068162
 20
6.5863872516
 30
0.0
  0
VERTEX
  5
6DA
330
2C2
100
AcDbEntity
  8
0
  6
CONTINUOUS
 62
     7
100
AcDbVertex
100
AcDb2dVertex
 10
7.7059409826
 20
6.5762241078
 30
0.0
  0
VERTEX
  5
6DB
330
2C2
100
AcDbEntity
  8
0
  6
CONTINUOUS
 62
     7
100
AcDbVertex
100
AcDb2dVertex
 10
7.7086417496
 20
6.5669578202
 30
0.0
  0
VERTEX
  5
6DC
330
2C2
100
AcDbEntity
  8
0
  6
CONTINUOUS
 62
     7
100
AcDbVertex
100
AcDb2dVertex
 10
7.7123751536
 20
6.558704918
 30
0.0
  0
VERTEX
  5
6DD
330
2C2
100
AcDbEntity
  8
0
  6
CONTINUOUS
 62
     7
100
AcDbVertex
100
AcDb2dVertex
 10
7.7170942448
 20
6.551569186
 30
0.0
  0
VERTEX
  5
6DE
330
2C2
100
AcDbEntity
  8
0
  6
CONTINUOUS
 62
     7
100
AcDbVertex
100
AcDb2dVertex
 10
7.7227396779
 20
6.5456403603
 30
0.0
  0
VERTEX
  5
6DF
330
2C2
100
AcDbEntity
  8
0
  6
CONTINUOUS
 62
     7
100
AcDbVertex
100
AcDb2dVertex
 10
7.7292404582
 20
6.5409929993
 30
0.0
  0
SEQEND
  5
6E0
330
2C2
100
AcDbEntity
  8
0
  6
CONTINUOUS
 62
     7
  0
LINE
  5
2C3
330
1F
100
AcDbEntity
  8
0
  6
CONTINUOUS
 62
     7
100
AcDbLine
 10
8.2343095539
 20
7.3853777811
 30
0.0
 11
8.2211367122
 21
7.3929823008
 31
0.0
  0
POLYLINE
  5
2C4
330
1F
100
AcDbEntity
  8
0
  6
CONTINUOUS
 62
     7
100
AcDb2dPolyline
 66
     1
 10
0.0
 20
0.0
 30
0.0
  0
VERTEX
  5
6E1
330
2C4
100
AcDbEntity
  8
0
  6
CONTINUOUS
 62
     7
100
AcDbVertex
100
AcDb2dVertex
 10
8.2211367122
 20
7.3929823008
 30
0.0
  0
VERTEX
  5
6E2
330
2C4
100
AcDbEntity
  8
0
  6
CONTINUOUS
 62
     7
100
AcDbVertex
100
AcDb2dVertex
 10
8.2138623356
 20
7.3962897538
 30
0.0
  0
VERTEX
  5
6E3
330
2C4
100
AcDbEntity
  8
0
  6
CONTINUOUS
 62
     7
100
AcDbVertex
100
AcDb2dVertex
 10
8.2059058423
 20
7.3982157057
 30
0.0
  0
VERTEX
  5
6E4
330
2C4
100
AcDbEntity
  8
0
  6
CONTINUOUS
 62
     7
100
AcDbVertex
100
AcDb2dVertex
 10
8.1973672897
 20
7.3987359366
 30
0.0
  0
VERTEX
  5
6E5
330
2C4
100
AcDbEntity
  8
0
  6
CONTINUOUS
 62
     7
100
AcDbVertex
100
AcDb2dVertex
 10
8.1883540553
 20
7.3978439041
 30
0.0
  0
VERTEX
  5
6E6
330
2C4
100
AcDbEntity
  8
0
  6
CONTINUOUS
 62
     7
100
AcDbVertex
100
AcDb2dVertex
 10
8.1789794855
 20
7.3955508263
 30
0.0
  0
VERTEX
  5
6E7
330
2C4
100
AcDbEntity
  8
0
  6
CONTINUOUS
 62
     7
100
AcDbVertex
100
AcDb2dVertex
 10
8.1693614711
 20
7.3918855398
 30
0.0
  0
VERTEX
  5
6E8
330
2C4
100
AcDbEntity
  8
0
  6
CONTINUOUS
 62
     7
100
AcDbVertex
100
AcDb2dVertex
 10
8.1596209642
 20
7.3868941377
 30
0.0
  0
VERTEX
  5
6E9
330
2C4
100
AcDbEntity
  8
0
  6
CONTINUOUS
 62
     7
100
AcDbVertex
100
AcDb2dVertex
 10
8.1498804572
 20
7.3806393899
 30
0.0
  0
VERTEX
  5
6EA
330
2C4
100
AcDbEntity
  8
0
  6
CONTINUOUS
 62
     7
100
AcDbVertex
100
AcDb2dVertex
 10
8.1402624428
 20
7.3731999533
 30
0.0
  0
VERTEX
  5
6EB
330
2C4
100
AcDbEntity
  8
0
  6
CONTINUOUS
 62
     7
100
AcDbVertex
100
AcDb2dVertex
 10
8.1308878731
 20
7.3646693833
 30
0.0
  0
VERTEX
  5
6EC
330
2C4
100
AcDbEntity
  8
0
  6
CONTINUOUS
 62
     7
100
AcDbVertex
100
AcDb2dVertex
 10
8.1218746386
 20
7.3551549567
 30
0.0
  0
VERTEX
  5
6ED
330
2C4
100
AcDbEntity
  8
0
  6
CONTINUOUS
 62
     7
100
AcDbVertex
100
AcDb2dVertex
 10
8.1133360861
 20
7.344776323
 30
0.0
  0
VERTEX
  5
6EE
330
2C4
100
AcDbEntity
  8
0
  6
CONTINUOUS
 62
     7
100
AcDbVertex
100
AcDb2dVertex
 10
8.1053795928
 20
7.3336639994
 30
0.0
  0
VERTEX
  5
6EF
330
2C4
100
AcDbEntity
  8
0
  6
CONTINUOUS
 62
     7
100
AcDbVertex
100
AcDb2dVertex
 10
8.0981052161
 20
7.3219577299
 30
0.0
  0
SEQEND
  5
6F0
330
2C4
100
AcDbEntity
  8
0
  6
CONTINUOUS
 62
     7
  0
SPLINE
  5
2C5
330
1F
100
AcDbEntity
  8
0
  6
CONTINUOUS
 62
     7
100
AcDbSpline
210
0.0
220
0.0
230
1.0
 70
     8
 71
     3
 72
    28
 73
    24
 74
     0
 42
0.00000001
 43
0.00000001
 40
0.0
 40
0.0
 40
0.0
 40
0.0
 40
0.0295913918926114
 40
0.0592140411131525
 40
0.1176792667944339
 40
0.1645980764128951
 40
0.2116020192277626
 40
0.2799208950984083
 40
0.3483013724299168
 40
0.4181266491261004
 40
0.4879100995349643
 40
0.5446588202606696
 40
0.6013498743049748
 40
0.6470129376039373
 40
0.6926336795508083
 40
0.7313202979769302
 40
0.7699809073234578
 40
0.8088553195899019
 40
0.8477117882848788
 40
0.8826905621918136
 40
0.9176707555504174
 40
0.9848087048339174
 40
1.0
 40
1.0
 40
1.0
 40
1.0
 10
7.691494336375341
 20
7.198702312311414
 30
0.0
 10
7.68965548338004
 20
7.199585476585936
 30
0.0
 10
7.685975835012706
 20
7.201352738019632
 30
0.0
 10
7.677599920584219
 20
7.202718915031214
 30
0.0
 10
7.66735650965968
 20
7.20165298222403
 30
0.0
 10
7.656012168178338
 20
7.197804025990009
 30
0.0
 10
7.644424030027866
 20
7.191853572608856
 30
0.0
 10
7.632216834449207
 20
7.18308371728762
 30
0.0
 10
7.620006691515305
 20
7.171131783462579
 30
0.0
 10
7.609516736962714
 20
7.157322363721532
 30
0.0
 10
7.60163697427302
 20
7.142858746976177
 30
0.0
 10
7.596395299795114
 20
7.128410705841109
 30
0.0
 10
7.593703864047661
 20
7.115356728734559
 30
0.0
 10
7.593058933855794
 20
7.103102660499339
 30
0.0
 10
7.594031525999039
 20
7.092512990990114
 30
0.0
 10
7.596434441720211
 20
7.082989331852066
 30
0.0
 10
7.599949762198845
 20
7.074671137592478
 30
0.0
 10
7.604727273841764
 20
7.06738372436036
 30
0.0
 10
7.610391564161318
 20
7.061593195358173
 30
0.0
 10
7.616681090176589
 20
7.05742168605623
 30
0.0
 10
7.625270618308581
 20
7.05418415418092
 30
0.0
 10
7.633312638753053
 20
7.052955642068063
 30
0.0
 10
7.638778852444537
 20
7.054912034469532
 30
0.0
 10
7.639787471753305
 20
7.055273025689969
 30
0.0
  0
SPLINE
  5
2C6
330
1F
100
AcDbEntity
  8
0
  6
CONTINUOUS
 62
     7
100
AcDbSpline
210
0.0
220
0.0
230
1.0
 70
     8
 71
     3
 72
    11
 73
     7
 74
     0
 42
0.00000001
 43
0.00000001
 40
0.0
 40
0.0
 40
0.0
 40
0.0
 40
0.0674331427949876
 40
0.3301969205813485
 40
0.7359981355022236
 40
1.0
 40
1.0
 40
1.0
 40
1.0
 10
7.705484405528391
 20
7.174281073112233
 30
0.0
 10
7.705416076469665
 20
7.174978008737233
 30
0.0
 10
7.705081492556739
 20
7.178390662925966
 30
0.0
 10
7.702991686140086
 20
7.185425028643187
 30
0.0
 10
7.698731703642858
 20
7.193575661820235
 30
0.0
 10
7.693540457961147
 20
7.197252924730938
 30
0.0
 10
7.691494336375341
 20
7.198702312311414
 30
0.0
  0
LINE
  5
2C7
330
1F
100
AcDbEntity
  8
0
  6
CONTINUOUS
 62
     7
100
AcDbLine
 10
7.809978932
 20
7.4399683616
 30
0.0
 11
7.8889863741
 21
7.3943583361
 31
0.0
  0
ARC
  5
2C8
330
1F
100
AcDbEntity
  8
0
  6
CONTINUOUS
 62
     7
100
AcDbCircle
 10
7.9422924041
 20
7.2343121701
 30
0.0
 40
0.2445430923232813
100
AcDbArc
 50
77.8723706257
 51
122.7561016856
  0
POLYLINE
  5
2C9
330
1F
100
AcDbEntity
  8
0
  6
CONTINUOUS
 62
     7
100
AcDb2dPolyline
 66
     1
 10
0.0
 20
0.0
 30
0.0
  0
VERTEX
  5
6F1
330
2C9
100
AcDbEntity
  8
0
  6
CONTINUOUS
 62
     7
100
AcDbVertex
100
AcDb2dVertex
 10
7.5458599744
 20
6.6976864358
 30
0.0
  0
VERTEX
  5
6F2
330
2C9
100
AcDbEntity
  8
0
  6
CONTINUOUS
 62
     7
100
AcDbVertex
100
AcDb2dVertex
 10
7.5436271017
 20
6.6999178548
 30
0.0
  0
VERTEX
  5
6F3
330
2C9
100
AcDbEntity
  8
0
  6
CONTINUOUS
 62
     7
100
AcDbVertex
100
AcDb2dVertex
 10
7.5333162749
 20
6.7114580738
 30
0.0
  0
VERTEX
  5
6F4
330
2C9
100
AcDbEntity
  8
0
  6
CONTINUOUS
 62
     7
100
AcDbVertex
100
AcDb2dVertex
 10
7.5238890203
 20
6.7241609333
 30
0.0
  0
VERTEX
  5
6F5
330
2C9
100
AcDbEntity
  8
0
  6
CONTINUOUS
 62
     7
100
AcDbVertex
100
AcDb2dVertex
 10
7.5153762224
 20
6.7379848177
 30
0.0
  0
VERTEX
  5
6F6
330
2C9
100
AcDbEntity
  8
0
  6
CONTINUOUS
 62
     7
100
AcDbVertex
100
AcDb2dVertex
 10
7.5078057699
 20
6.7528844385
 30
0.0
  0
VERTEX
  5
6F7
330
2C9
100
AcDbEntity
  8
0
  6
CONTINUOUS
 62
     7
100
AcDbVertex
100
AcDb2dVertex
 10
7.5012024644
 20
6.7688109832
 30
0.0
  0
VERTEX
  5
6F8
330
2C9
100
AcDbEntity
  8
0
  6
CONTINUOUS
 62
     7
100
AcDbVertex
100
AcDb2dVertex
 10
7.4955879388
 20
6.7857122749
 30
0.0
  0
VERTEX
  5
6F9
330
2C9
100
AcDbEntity
  8
0
  6
CONTINUOUS
 62
     7
100
AcDbVertex
100
AcDb2dVertex
 10
7.490980587
 20
6.8035329435
 30
0.0
  0
VERTEX
  5
6FA
330
2C9
100
AcDbEntity
  8
0
  6
CONTINUOUS
 62
     7
100
AcDbVertex
100
AcDb2dVertex
 10
7.487395503
 20
6.8222146067
 30
0.0
  0
VERTEX
  5
6FB
330
2C9
100
AcDbEntity
  8
0
  6
CONTINUOUS
 62
     7
100
AcDbVertex
100
AcDb2dVertex
 10
7.4848444319
 20
6.8416960616
 30
0.0
  0
VERTEX
  5
6FC
330
2C9
100
AcDbEntity
  8
0
  6
CONTINUOUS
 62
     7
100
AcDbVertex
100
AcDb2dVertex
 10
7.4833357313
 20
6.8619134853
 30
0.0
  0
VERTEX
  5
6FD
330
2C9
100
AcDbEntity
  8
0
  6
CONTINUOUS
 62
     7
100
AcDbVertex
100
AcDb2dVertex
 10
7.4828743437
 20
6.8828006435
 30
0.0
  0
VERTEX
  5
6FE
330
2C9
100
AcDbEntity
  8
0
  6
CONTINUOUS
 62
     7
100
AcDbVertex
100
AcDb2dVertex
 10
7.4834617808
 20
6.9042891078
 30
0.0
  0
VERTEX
  5
6FF
330
2C9
100
AcDbEntity
  8
0
  6
CONTINUOUS
 62
     7
100
AcDbVertex
100
AcDb2dVertex
 10
7.485096118
 20
6.9263084802
 30
0.0
  0
VERTEX
  5
700
330
2C9
100
AcDbEntity
  8
0
  6
CONTINUOUS
 62
     7
100
AcDbVertex
100
AcDb2dVertex
 10
7.4877720011
 20
6.9487866231
 30
0.0
  0
VERTEX
  5
701
330
2C9
100
AcDbEntity
  8
0
  6
CONTINUOUS
 62
     7
100
AcDbVertex
100
AcDb2dVertex
 10
7.4914806636
 20
6.9716498959
 30
0.0
  0
VERTEX
  5
702
330
2C9
100
AcDbEntity
  8
0
  6
CONTINUOUS
 62
     7
100
AcDbVertex
100
AcDb2dVertex
 10
7.4962099557
 20
6.9948233965
 30
0.0
  0
VERTEX
  5
703
330
2C9
100
AcDbEntity
  8
0
  6
CONTINUOUS
 62
     7
100
AcDbVertex
100
AcDb2dVertex
 10
7.5019443837
 20
7.0182312063
 30
0.0
  0
VERTEX
  5
704
330
2C9
100
AcDbEntity
  8
0
  6
CONTINUOUS
 62
     7
100
AcDbVertex
100
AcDb2dVertex
 10
7.5086651611
 20
7.041796639
 30
0.0
  0
VERTEX
  5
705
330
2C9
100
AcDbEntity
  8
0
  6
CONTINUOUS
 62
     7
100
AcDbVertex
100
AcDb2dVertex
 10
7.51635027
 20
7.0654424922
 30
0.0
  0
VERTEX
  5
706
330
2C9
100
AcDbEntity
  8
0
  6
CONTINUOUS
 62
     7
100
AcDbVertex
100
AcDb2dVertex
 10
7.5249745333
 20
7.0890912998
 30
0.0
  0
VERTEX
  5
707
330
2C9
100
AcDbEntity
  8
0
  6
CONTINUOUS
 62
     7
100
AcDbVertex
100
AcDb2dVertex
 10
7.5345096971
 20
7.1126655861
 30
0.0
  0
VERTEX
  5
708
330
2C9
100
AcDbEntity
  8
0
  6
CONTINUOUS
 62
     7
100
AcDbVertex
100
AcDb2dVertex
 10
7.5449245232
 20
7.1360881194
 30
0.0
  0
VERTEX
  5
709
330
2C9
100
AcDbEntity
  8
0
  6
CONTINUOUS
 62
     7
100
AcDbVertex
100
AcDb2dVertex
 10
7.5561848917
 20
7.1592821655
 30
0.0
  0
VERTEX
  5
70A
330
2C9
100
AcDbEntity
  8
0
  6
CONTINUOUS
 62
     7
100
AcDbVertex
100
AcDb2dVertex
 10
7.5682539127
 20
7.1821717384
 30
0.0
  0
VERTEX
  5
70B
330
2C9
100
AcDbEntity
  8
0
  6
CONTINUOUS
 62
     7
100
AcDbVertex
100
AcDb2dVertex
 10
7.5810920468
 20
7.2046818498
 30
0.0
  0
VERTEX
  5
70C
330
2C9
100
AcDbEntity
  8
0
  6
CONTINUOUS
 62
     7
100
AcDbVertex
100
AcDb2dVertex
 10
7.5946572352
 20
7.2267387543
 30
0.0
  0
VERTEX
  5
70D
330
2C9
100
AcDbEntity
  8
0
  6
CONTINUOUS
 62
     7
100
AcDbVertex
100
AcDb2dVertex
 10
7.6089050369
 20
7.2482701916
 30
0.0
  0
VERTEX
  5
70E
330
2C9
100
AcDbEntity
  8
0
  6
CONTINUOUS
 62
     7
100
AcDbVertex
100
AcDb2dVertex
 10
7.623788775
 20
7.2692056226
 30
0.0
  0
VERTEX
  5
70F
330
2C9
100
AcDbEntity
  8
0
  6
CONTINUOUS
 62
     7
100
AcDbVertex
100
AcDb2dVertex
 10
7.6392596887
 20
7.2894764609
 30
0.0
  0
VERTEX
  5
710
330
2C9
100
AcDbEntity
  8
0
  6
CONTINUOUS
 62
     7
100
AcDbVertex
100
AcDb2dVertex
 10
7.6552670941
 20
7.3090162972
 30
0.0
  0
VERTEX
  5
711
330
2C9
100
AcDbEntity
  8
0
  6
CONTINUOUS
 62
     7
100
AcDbVertex
100
AcDb2dVertex
 10
7.6717585493
 20
7.3277611173
 30
0.0
  0
VERTEX
  5
712
330
2C9
100
AcDbEntity
  8
0
  6
CONTINUOUS
 62
     7
100
AcDbVertex
100
AcDb2dVertex
 10
7.6886800267
 20
7.3456495115
 30
0.0
  0
VERTEX
  5
713
330
2C9
100
AcDbEntity
  8
0
  6
CONTINUOUS
 62
     7
100
AcDbVertex
100
AcDb2dVertex
 10
7.7059760901
 20
7.3626228755
 30
0.0
  0
VERTEX
  5
714
330
2C9
100
AcDbEntity
  8
0
  6
CONTINUOUS
 62
     7
100
AcDbVertex
100
AcDb2dVertex
 10
7.7235900758
 20
7.3786256031
 30
0.0
  0
VERTEX
  5
715
330
2C9
100
AcDbEntity
  8
0
  6
CONTINUOUS
 62
     7
100
AcDbVertex
100
AcDb2dVertex
 10
7.7414642789
 20
7.3936052679
 30
0.0
  0
VERTEX
  5
716
330
2C9
100
AcDbEntity
  8
0
  6
CONTINUOUS
 62
     7
100
AcDbVertex
100
AcDb2dVertex
 10
7.7595401417
 20
7.4075127951
 30
0.0
  0
VERTEX
  5
717
330
2C9
100
AcDbEntity
  8
0
  6
CONTINUOUS
 62
     7
100
AcDbVertex
100
AcDb2dVertex
 10
7.7777584461
 20
7.4203026222
 30
0.0
  0
VERTEX
  5
718
330
2C9
100
AcDbEntity
  8
0
  6
CONTINUOUS
 62
     7
100
AcDbVertex
100
AcDb2dVertex
 10
7.7960595071
 20
7.4319328487
 30
0.0
  0
SEQEND
  5
719
330
2C9
100
AcDbEntity
  8
0
  6
CONTINUOUS
 62
     7
  0
LINE
  5
2CA
330
1F
100
AcDbEntity
  8
0
  6
CONTINUOUS
 62
     7
100
AcDbLine
 10
7.7960595071
 20
7.4319328487
 30
0.0
 11
7.8781634377
 21
7.3845352585
 31
0.0
  0
LINE
  5
2CB
330
1F
100
AcDbEntity
  8
0
  6
CONTINUOUS
 62
     7
100
AcDbLine
 10
7.7292404582
 20
6.5409929993
 30
0.0
 11
7.7424208763
 21
6.5333816324
 31
0.0
  0
LINE
  5
2CC
330
1F
100
AcDbEntity
  8
0
  6
CONTINUOUS
 62
     7
100
AcDbLine
 10
7.809978932
 20
7.4399683616
 30
0.0
 11
7.8046756311
 21
7.436904364
 31
0.0
  0
ARC
  5
2CD
330
1F
100
AcDbEntity
  8
0
  6
CONTINUOUS
 62
     7
100
AcDbCircle
 10
8.1673261102
 20
6.856466577
 30
0.0
 40
0.6851636708348368
100
AcDbArc
 50
123.3399710507
 51
177.391385165
  0
LINE
  5
2CE
330
1F
100
AcDbEntity
  8
0
  6
CONTINUOUS
 62
     7
100
AcDbLine
 10
7.7960595071
 20
7.4319328487
 30
0.0
 11
7.7907562063
 21
7.428868851
 31
0.0
  0
LINE
  5
2CF
330
1F
100
AcDbEntity
  8
0
  6
CONTINUOUS
 62
     7
100
AcDbLine
 10
7.8046756311
 20
7.436904364
 30
0.0
 11
7.8046756311
 21
7.4269588662
 31
0.0
  0
ARC
  5
2D0
330
1F
100
AcDbEntity
  8
0
  6
CONTINUOUS
 62
     8
100
AcDbCircle
 10
8.1975050392
 20
6.8452623477
 30
0.0
 40
0.0476696974195319
100
AcDbArc
 50
184.8234110902
 51
246.9367950154
  0
ARC
  5
2D1
330
1F
100
AcDbEntity
  8
0
  6
CONTINUOUS
 62
     8
100
AcDbCircle
 10
8.2484048781
 20
6.9349966493
 30
0.0
 40
0.1506250745545977
100
AcDbArc
 50
242.4899866936
 51
297.707303
  0
ARC
  5
2D2
330
1F
100
AcDbEntity
  8
0
  6
CONTINUOUS
 62
     8
100
AcDbCircle
 10
8.2376345181
 20
6.3475103864
 30
0.0
 40
0.0540157379300651
100
AcDbArc
 50
208.399074427
 51
271.9535529202
  0
POLYLINE
  5
2D3
330
1F
100
AcDbEntity
  8
0
  6
CONTINUOUS
 62
     8
100
AcDb2dPolyline
 66
     1
 10
0.0
 20
0.0
 30
0.0
  0
VERTEX
  5
71A
330
2D3
100
AcDbEntity
  8
0
  6
CONTINUOUS
 62
     8
100
AcDbVertex
100
AcDb2dVertex
 10
7.6655843315
 20
7.1066319564
 30
0.0
  0
VERTEX
  5
71B
330
2D3
100
AcDbEntity
  8
0
  6
CONTINUOUS
 62
     8
100
AcDbVertex
100
AcDb2dVertex
 10
7.6623627307
 20
7.109644919
 30
0.0
  0
VERTEX
  5
71C
330
2D3
100
AcDbEntity
  8
0
  6
CONTINUOUS
 62
     8
100
AcDbVertex
100
AcDb2dVertex
 10
7.6568652589
 20
7.1157787924
 30
0.0
  0
VERTEX
  5
71D
330
2D3
100
AcDbEntity
  8
0
  6
CONTINUOUS
 62
     8
100
AcDbVertex
100
AcDb2dVertex
 10
7.6518964554
 20
7.122664866
 30
0.0
  0
VERTEX
  5
71E
330
2D3
100
AcDbEntity
  8
0
  6
CONTINUOUS
 62
     8
100
AcDbVertex
100
AcDb2dVertex
 10
7.6476072948
 20
7.1300939101
 30
0.0
  0
VERTEX
  5
71F
330
2D3
100
AcDbEntity
  8
0
  6
CONTINUOUS
 62
     8
100
AcDbVertex
100
AcDb2dVertex
 10
7.6441281011
 20
7.1378401967
 30
0.0
  0
VERTEX
  5
720
330
2D3
100
AcDbEntity
  8
0
  6
CONTINUOUS
 62
     8
100
AcDbVertex
100
AcDb2dVertex
 10
7.6415645879
 20
7.1456683589
 30
0.0
  0
VERTEX
  5
721
330
2D3
100
AcDbEntity
  8
0
  6
CONTINUOUS
 62
     8
100
AcDbVertex
100
AcDb2dVertex
 10
7.6399946462
 20
7.1533405421
 30
0.0
  0
VERTEX
  5
722
330
2D3
100
AcDbEntity
  8
0
  6
CONTINUOUS
 62
     8
100
AcDbVertex
100
AcDb2dVertex
 10
7.6394659778
 20
7.1606236307
 30
0.0
  0
VERTEX
  5
723
330
2D3
100
AcDbEntity
  8
0
  6
CONTINUOUS
 62
     8
100
AcDbVertex
100
AcDb2dVertex
 10
7.6399946462
 20
7.1672963319
 30
0.0
  0
VERTEX
  5
724
330
2D3
100
AcDbEntity
  8
0
  6
CONTINUOUS
 62
     8
100
AcDbVertex
100
AcDb2dVertex
 10
7.6415645879
 20
7.1731558989
 30
0.0
  0
VERTEX
  5
725
330
2D3
100
AcDbEntity
  8
0
  6
CONTINUOUS
 62
     8
100
AcDbVertex
100
AcDb2dVertex
 10
7.6441281011
 20
7.1780242918
 30
0.0
  0
VERTEX
  5
726
330
2D3
100
AcDbEntity
  8
0
  6
CONTINUOUS
 62
     8
100
AcDbVertex
100
AcDb2dVertex
 10
7.6476072948
 20
7.1817535869
 30
0.0
  0
VERTEX
  5
727
330
2D3
100
AcDbEntity
  8
0
  6
CONTINUOUS
 62
     8
100
AcDbVertex
100
AcDb2dVertex
 10
7.6518964554
 20
7.1842304715
 30
0.0
  0
VERTEX
  5
728
330
2D3
100
AcDbEntity
  8
0
  6
CONTINUOUS
 62
     8
100
AcDbVertex
100
AcDb2dVertex
 10
7.6568652589
 20
7.1853796867
 30
0.0
  0
VERTEX
  5
729
330
2D3
100
AcDbEntity
  8
0
  6
CONTINUOUS
 62
     8
100
AcDbVertex
100
AcDb2dVertex
 10
7.6623627307
 20
7.1851663142
 30
0.0
  0
VERTEX
  5
72A
330
2D3
100
AcDbEntity
  8
0
  6
CONTINUOUS
 62
     8
100
AcDbVertex
100
AcDb2dVertex
 10
7.668221833
 20
7.1835968372
 30
0.0
  0
VERTEX
  5
72B
330
2D3
100
AcDbEntity
  8
0
  6
CONTINUOUS
 62
     8
100
AcDbVertex
100
AcDb2dVertex
 10
7.6742645399
 20
7.1807189435
 30
0.0
  0
VERTEX
  5
72C
330
2D3
100
AcDbEntity
  8
0
  6
CONTINUOUS
 62
     8
100
AcDbVertex
100
AcDb2dVertex
 10
7.6803072468
 20
7.1766200764
 30
0.0
  0
VERTEX
  5
72D
330
2D3
100
AcDbEntity
  8
0
  6
CONTINUOUS
 62
     8
100
AcDbVertex
100
AcDb2dVertex
 10
7.6861663491
 20
7.1714247779
 30
0.0
  0
VERTEX
  5
72E
330
2D3
100
AcDbEntity
  8
0
  6
CONTINUOUS
 62
     8
100
AcDbVertex
100
AcDb2dVertex
 10
7.6916638209
 20
7.1652909045
 30
0.0
  0
VERTEX
  5
72F
330
2D3
100
AcDbEntity
  8
0
  6
CONTINUOUS
 62
     8
100
AcDbVertex
100
AcDb2dVertex
 10
7.6959046757
 20
7.1595112944
 30
0.0
  0
SEQEND
  5
730
330
2D3
100
AcDbEntity
  8
0
  6
CONTINUOUS
 62
     8
  0
ARC
  5
2D4
330
1F
100
AcDbEntity
  8
0
  6
CONTINUOUS
 62
     8
100
AcDbCircle
 10
7.6625502594
 20
7.1505581715
 30
0.0
 40
0.0465115942661524
100
AcDbArc
 50
27.6912329757
 51
103.1499321537
  0
LINE
  5
2D5
330
1F
100
AcDbEntity
  8
0
  6
CONTINUOUS
 62
     8
100
AcDbLine
 10
8.1204911273
 20
7.3090346185
 30
0.0
 11
8.0981052161
 21
7.3219577299
 31
0.0
  0
LINE
  5
2D6
330
1F
100
AcDbEntity
  8
0
  6
CONTINUOUS
 62
     8
100
AcDbLine
 10
7.751629943
 20
6.6701400555
 30
0.0
 11
7.7292404582
 21
6.68306523
 31
0.0
  0
LINE
  5
2D7
330
1F
100
AcDbEntity
  8
0
  6
CONTINUOUS
 62
     8
100
AcDbLine
 10
7.7424207865
 20
6.5333841578
 30
0.0
 11
7.7292404582
 21
6.5409929993
 31
0.0
  0
ENDSEC
  0
SECTION
  2
OBJECTS
  0
DICTIONARY
  5
C
330
0
100
AcDbDictionary
  3
ACAD_GROUP
350
D
  3
ACAD_LAYOUT
350
1A
  3
ACAD_MLEADERSTYLE
350
2DA
  3
ACAD_MLINESTYLE
350
17
  3
ACAD_PLOTSETTINGS
350
19
  3
ACAD_SCALELIST
350
6F
  3
ACAD_VISUALSTYLE
350
2A
  3
ACDBVARIABLEDICTIONARY
350
2D8
1001
ACAD
1000
TREAT_AS_HARD
1070
     0
  0
DICTIONARY
  5
D
102
{ACAD_REACTORS
330
C
102
}
330
C
100
AcDbDictionary
1001
ACAD
1000
TREAT_AS_HARD
1070
     0
  0
DICTIONARY
  5
1A
102
{ACAD_REACTORS
330
C
102
}
330
C
100
AcDbDictionary
1001
ACAD
1000
TREAT_AS_HARD
1070
     0
  0
DICTIONARY
  5
2DA
102
{ACAD_REACTORS
330
C
102
}
330
C
100
AcDbDictionary
1001
ACAD
1000
TREAT_AS_HARD
1070
     0
  0
DICTIONARY
  5
17
102
{ACAD_REACTORS
330
C
102
}
330
C
100
AcDbDictionary
  3
STANDARD
350
18
1001
ACAD
1000
TREAT_AS_HARD
1070
     0
  0
DICTIONARY
  5
19
102
{ACAD_REACTORS
330
C
102
}
330
C
100
AcDbDictionary
1001
ACAD
1000
TREAT_AS_HARD
1070
     0
  0
DICTIONARY
  5
6F
102
{ACAD_REACTORS
330
C
102
}
330
C
100
AcDbDictionary
  3
A0
350
70
  3
A1
350
71
  3
A2
350
72
  3
A3
350
73
  3
A4
350
74
  3
A5
350
75
  3
A6
350
76
  3
A7
350
77
  3
A8
350
78
  3
A9
350
79
  3
B0
350
7A
  3
B1
350
7B
  3
B2
350
7C
  3
B3
350
7D
  3
B4
350
7E
  3
B5
350
7F
  3
B6
350
80
  3
B7
350
81
  3
B8
350
82
  3
B9
350
83
  3
C0
350
84
  3
C1
350
85
  3
C2
350
86
  3
C3
350
87
  3
C4
350
88
  3
C5
350
89
  3
C6
350
8A
  3
C7
350
8B
  3
C8
350
8C
  3
C9
350
8D
  3
D0
350
8E
  3
D1
350
8F
  3
D2
350
90
1001
ACAD
1000
TREAT_AS_HARD
1070
     0
  0
DICTIONARY
  5
2A
102
{ACAD_REACTORS
330
C
102
}
330
C
100
AcDbDictionary
  3
2DWIREFRAME
350
2F
  3
3D_HIDDEN
350
31
  3
3DWIREFRAME
350
30
  3
BASIC
350
32
  3
BRIGHTEN
350
36
  3
COLORCHANGE
350
3A
  3
CONCEPTUAL
350
34
  3
DIM
350
35
  3
FACEPATTERN
350
39
  3
FLAT
350
2B
  3
FLATWITHEDGES
350
2C
  3
GOURAUD
350
2D
  3
GOURAUDWITHEDGES
350
2E
  3
LINEPATTERN
350
38
  3
REALISTIC
350
33
  3
THICKEN
350
37
1001
ACAD
1000
TREAT_AS_HARD
1070
     0
  0
DICTIONARY
  5
2D8
102
{ACAD_REACTORS
330
C
102
}
330
C
100
AcDbDictionary
  3
CANNOSCALE
350
2DB
  3
DIMASSOC
350
2DC
  3
HIDETEXT
350
2DD
1001
ACAD
1000
TREAT_AS_HARD
1070
     0
  0
MLINESTYLE
  5
18
102
{ACAD_REACTORS
330
17
102
}
330
17
100
AcDbMlineStyle
  2
Standard
 70
     0
  3

 62
   256
 51
90.0
 52
90.0
 71
     2
 49
0.5
 62
   256
  6
BYLAYER
 49
-0.5
 62
   256
  6
BYLAYER
  0
ACAD_PROXY_OBJECT
  5
70
102
{ACAD_REACTORS
330
6F
102
}
330
6F
100
AcDbZombieObject
 90
      499
 91
      502
 93
       41
310
903313A31580
  0
ACAD_PROXY_OBJECT
  5
71
102
{ACAD_REACTORS
330
6F
102
}
330
6F
100
AcDbZombieObject
 90
      499
 91
      502
 93
      105
310
903313A324000000000000004000
  0
ACAD_PROXY_OBJECT
  5
72
102
{ACAD_REACTORS
330
6F
102
}
330
6F
100
AcDbZombieObject
 90
      499
 91
      502
 93
      105
310
903313A344000000000000104000
  0
ACAD_PROXY_OBJECT
  5
73
102
{ACAD_REACTORS
330
6F
102
}
330
6F
100
AcDbZombieObject
 90
      499
 91
      502
 93
      105
310
903313A354000000000000144000
  0
ACAD_PROXY_OBJECT
  5
74
102
{ACAD_REACTORS
330
6F
102
}
330
6F
100
AcDbZombieObject
 90
      499
 91
      502
 93
      105
310
903313A384000000000000204000
  0
ACAD_PROXY_OBJECT
  5
75
102
{ACAD_REACTORS
330
6F
102
}
330
6F
100
AcDbZombieObject
 90
      499
 91
      502
 93
      113
310
904313A31304000000000000244000
  0
ACAD_PROXY_OBJECT
  5
76
102
{ACAD_REACTORS
330
6F
102
}
330
6F
100
AcDbZombieObject
 90
      499
 91
      502
 93
      113
310
904313A31364000000000000304000
  0
ACAD_PROXY_OBJECT
  5
77
102
{ACAD_REACTORS
330
6F
102
}
330
6F
100
AcDbZombieObject
 90
      499
 91
      502
 93
      113
310
904313A32304000000000000344000
  0
ACAD_PROXY_OBJECT
  5
78
102
{ACAD_REACTORS
330
6F
102
}
330
6F
100
AcDbZombieObject
 90
      499
 91
      502
 93
      113
310
904313A333040000000000003E4000
  0
ACAD_PROXY_OBJECT
  5
79
102
{ACAD_REACTORS
330
6F
102
}
330
6F
100
AcDbZombieObject
 90
      499
 91
      502
 93
      113
310
904313A34304000000000000444000
  0
ACAD_PROXY_OBJECT
  5
7A
102
{ACAD_REACTORS
330
6F
102
}
330
6F
100
AcDbZombieObject
 90
      499
 91
      502
 93
      113
310
904313A35304000000000000494000
  0
ACAD_PROXY_OBJECT
  5
7B
102
{ACAD_REACTORS
330
6F
102
}
330
6F
100
AcDbZombieObject
 90
      499
 91
      502
 93
      121
310
905313A3130304000000000000594000
  0
ACAD_PROXY_OBJECT
  5
7C
102
{ACAD_REACTORS
330
6F
102
}
330
6F
100
AcDbZombieObject
 90
      499
 91
      502
 93
      105
310
903323A310000000000000010100
  0
ACAD_PROXY_OBJECT
  5
7D
102
{ACAD_REACTORS
330
6F
102
}
330
6F
100
AcDbZombieObject
 90
      499
 91
      502
 93
      105
310
903343A310000000000000410100
  0
ACAD_PROXY_OBJECT
  5
7E
102
{ACAD_REACTORS
330
6F
102
}
330
6F
100
AcDbZombieObject
 90
      499
 91
      502
 93
      105
310
903383A310000000000000810100
  0
ACAD_PROXY_OBJECT
  5
7F
102
{ACAD_REACTORS
330
6F
102
}
330
6F
100
AcDbZombieObject
 90
      499
 91
      502
 93
      113
310
90431303A310000000000000910100
  0
ACAD_PROXY_OBJECT
  5
80
102
{ACAD_REACTORS
330
6F
102
}
330
6F
100
AcDbZombieObject
 90
      499
 91
      502
 93
      121
310
9053130303A310000000000001650100
  0
ACAD_PROXY_OBJECT
  5
81
102
{ACAD_REACTORS
330
6F
102
}
330
6F
100
AcDbZombieObject
 90
      499
 91
      502
 93
      257
310
90E312F31323822203D2031272D3022000000000000200FC000000000000284000
  0
ACAD_PROXY_OBJECT
  5
82
102
{ACAD_REACTORS
330
6F
102
}
330
6F
100
AcDbZombieObject
 90
      499
 91
      502
 93
      249
310
90D312F363422203D2031272D3022000000000000240FC000000000000284000
  0
ACAD_PROXY_OBJECT
  5
83
102
{ACAD_REACTORS
330
6F
102
}
330
6F
100
AcDbZombieObject
 90
      499
 91
      502
 93
      249
310
90D312F333222203D2031272D3022000000000000280FC000000000000284000
  0
ACAD_PROXY_OBJECT
  5
84
102
{ACAD_REACTORS
330
6F
102
}
330
6F
100
AcDbZombieObject
 90
      499
 91
      502
 93
      249
310
90D312F313622203D2031272D30220000000000002C0FC000000000000284000
  0
ACAD_PROXY_OBJECT
  5
85
102
{ACAD_REACTORS
330
6F
102
}
330
6F
100
AcDbZombieObject
 90
      499
 91
      502
 93
      249
310
90D332F333222203D2031272D30220000000000002E0FC000000000000284000
  0
ACAD_PROXY_OBJECT
  5
86
102
{ACAD_REACTORS
330
6F
102
}
330
6F
100
AcDbZombieObject
 90
      499
 91
      502
 93
      241
310
90C312F3822203D2031272D3022000000000000300FC000000000000284000
  0
ACAD_PROXY_OBJECT
  5
87
102
{ACAD_REACTORS
330
6F
102
}
330
6F
100
AcDbZombieObject
 90
      499
 91
      502
 93
      249
310
90D332F313622203D2031272D3022000000000000320FC000000000000284000
  0
ACAD_PROXY_OBJECT
  5
88
102
{ACAD_REACTORS
330
6F
102
}
330
6F
100
AcDbZombieObject
 90
      499
 91
      502
 93
      241
310
90C312F3422203D2031272D3022000000000000340FC000000000000284000
  0
ACAD_PROXY_OBJECT
  5
89
102
{ACAD_REACTORS
330
6F
102
}
330
6F
100
AcDbZombieObject
 90
      499
 91
      502
 93
      241
310
90C332F3822203D2031272D3022000000000000360FC000000000000284000
  0
ACAD_PROXY_OBJECT
  5
8A
102
{ACAD_REACTORS
330
6F
102
}
330
6F
100
AcDbZombieObject
 90
      499
 91
      502
 93
      241
310
90C312F3222203D2031272D3022000000000000380FC000000000000284000
  0
ACAD_PROXY_OBJECT
  5
8B
102
{ACAD_REACTORS
330
6F
102
}
330
6F
100
AcDbZombieObject
 90
      499
 91
      502
 93
      241
310
90C332F3422203D2031272D30220000000000003A0FC000000000000284000
  0
ACAD_PROXY_OBJECT
  5
8C
102
{ACAD_REACTORS
330
6F
102
}
330
6F
100
AcDbZombieObject
 90
      499
 91
      502
 93
      161
310
90A3122203D2031272D30224000000000000284000
  0
ACAD_PROXY_OBJECT
  5
8D
102
{ACAD_REACTORS
330
6F
102
}
330
6F
100
AcDbZombieObject
 90
      499
 91
      502
 93
      257
310
90E312D312F3222203D2031272D30220000000000003E0FC000000000000284000
  0
ACAD_PROXY_OBJECT
  5
8E
102
{ACAD_REACTORS
330
6F
102
}
330
6F
100
AcDbZombieObject
 90
      499
 91
      502
 93
      225
310
90A3322203D2031272D302200000000000002100000000000000284000
  0
ACAD_PROXY_OBJECT
  5
8F
102
{ACAD_REACTORS
330
6F
102
}
330
6F
100
AcDbZombieObject
 90
      499
 91
      502
 93
      225
310
90A3622203D2031272D302200000000000006100000000000000284000
  0
ACAD_PROXY_OBJECT
  5
90
102
{ACAD_REACTORS
330
6F
102
}
330
6F
100
AcDbZombieObject
 90
      499
 91
      502
 93
      249
310
90D31272D3022203D2031272D30220000000000000A100000000000000284000
  0
ACAD_PROXY_OBJECT
  5
2F
102
{ACAD_REACTORS
330
2A
102
}
330
2A
100
AcDbZombieObject
 90
      499
 91
      501
 93
      436
310
42CC9915DA5C99599C985B595049028333333333333E3BF0000000000000FB0107901411070040501600405405064090741402480A0340
1001
ACAD
1000
AcDbSavedByObjectVersion
1070
     0
  0
ACAD_PROXY_OBJECT
  5
31
102
{ACAD_REACTORS
330
2A
102
}
330
2A
100
AcDbZombieObject
 90
      499
 91
      501
 93
      500
310
424CD108121A5919195B90640502408333333333333E3BF0000000000000FB01079024090700405020000000000001110200405405064090740C02480A0340
1001
ACAD
1000
AcDbSavedByObjectVersion
1070
     0
  0
ACAD_PROXY_OBJECT
  5
30
102
{ACAD_REACTORS
330
2A
102
}
330
2A
100
AcDbZombieObject
 90
      499
 91
      501
 93
      436
310
42CCD915DA5C99599C985B595059028333333333333E3BF0000000000000FB0107901411070040501600405405064090741402480A0340
1001
ACAD
1000
AcDbSavedByObjectVersion
1070
     0
  0
ACAD_PROXY_OBJECT
  5
32
102
{ACAD_REACTORS
330
2A
102
}
330
2A
100
AcDbZombieObject
 90
      499
 91
      501
 93
      388
310
4150985CDA58D07406404333333333333E3BF0000000000000FB0107A41107004050150841D405064090741402480A0350
1001
ACAD
1000
AcDbSavedByObjectVersion
1070
     0
  0
ACAD_PROXY_OBJECT
  5
36
102
{ACAD_REACTORS
330
2A
102
}
330
2A
100
AcDbZombieObject
 90
      499
 91
      501
 93
      428
310
42109C9A59DA1D195B90C409028333333333333E3BF0000000000000FB010790141107004050150841D405064090741402480A029950
1001
ACAD
1000
AcDbSavedByObjectVersion
1070
     0
  0
ACAD_PROXY_OBJECT
  5
3A
102
{ACAD_REACTORS
330
2A
102
}
330
2A
100
AcDbZombieObject
 90
      499
 91
      501
 93
      452
310
42D0DBDB1BDC90DA185B99D95104090240C333333333333E3BF0000000000000FB0108901411070040501508421405064090741402480A0350
1001
ACAD
1000
AcDbSavedByObjectVersion
1070
     0
  0
ACAD_PROXY_OBJECT
  5
34
102
{ACAD_REACTORS
330
2A
102
}
330
2A
100
AcDbZombieObject
 90
      499
 91
      501
 93
      500
310
4290DBDB98D95C1D1D585B10940D028333333333333E3BF0000000000000FB0107902409070040501000000000000111010841D405064090740C02480A0340
1001
ACAD
1000
AcDbSavedByObjectVersion
1070
     0
  0
ACAD_PROXY_OBJECT
  5
35
102
{ACAD_REACTORS
330
2A
102
}
330
2A
100
AcDbZombieObject
 90
      499
 91
      501
 93
      412
310
40D11A5B50B409028333333333333E3BF0000000000000FB010790141107004050150841D405064090741402480A02677FFFFFD0
1001
ACAD
1000
AcDbSavedByObjectVersion
1070
     0
  0
ACAD_PROXY_OBJECT
  5
39
102
{ACAD_REACTORS
330
2A
102
}
330
2A
100
AcDbZombieObject
 90
      499
 91
      501
 93
      444
310
42D19858D95C185D1D195C9B90F409028333333333333E3BF0000000000000FB010790141107004050150841D405064090741402480A0350
1001
ACAD
1000
AcDbSavedByObjectVersion
1070
     0
  0
ACAD_PROXY_OBJECT
  5
2B
102
{ACAD_REACTORS
330
2A
102
}
330
2A
100
AcDbZombieObject
 90
      499
 91
      501
 93
      388
310
41119B185D240901404333333333333E3BF0000000000000F9010740A41107004050150841D405064090741402480A1B50
1001
ACAD
1000
AcDbSavedByObjectVersion
1070
     0
  0
ACAD_PROXY_OBJECT
  5
2C
102
{ACAD_REACTORS
330
2A
102
}
330
2A
100
AcDbZombieObject
 90
      499
 91
      501
 93
      476
310
43519B185D15DA5D1A115919D95CD0140901404333333333333E3BF0000000000000F9010740901411070040501600405405064090741402480A1B50
1001
ACAD
1000
AcDbSavedByObjectVersion
1070
     0
  0
ACAD_PROXY_OBJECT
  5
2D
102
{ACAD_REACTORS
330
2A
102
}
330
2A
100
AcDbZombieObject
 90
      499
 91
      501
 93
      412
310
41D1DBDD5C985D5910240902404333333333333E3BF0000000000000F9010740A411070040501641D405064090741402480A1B50
1001
ACAD
1000
AcDbSavedByObjectVersion
1070
     0
  0
ACAD_PROXY_OBJECT
  5
2E
102
{ACAD_REACTORS
330
2A
102
}
330
2A
100
AcDbZombieObject
 90
      499
 91
      501
 93
      500
310
4411DBDD5C985D5915DA5D1A115919D95CD0340902404333333333333E3BF0000000000000F9010740901411070040501600405405064090741402480A1B50
1001
ACAD
1000
AcDbSavedByObjectVersion
1070
     0
  0
ACAD_PROXY_OBJECT
  5
38
102
{ACAD_REACTORS
330
2A
102
}
330
2A
100
AcDbZombieObject
 90
      499
 91
      501
 93
      444
310
42D31A5B995C185D1D195C9B90E409028333333333333E3BF0000000000000FB010790141107004050750841D405064090741402483A0350
1001
ACAD
1000
AcDbSavedByObjectVersion
1070
     0
  0
ACAD_PROXY_OBJECT
  5
33
102
{ACAD_REACTORS
330
2A
102
}
330
2A
100
AcDbZombieObject
 90
      499
 91
      501
 93
      420
310
425499585B1A5CDD1A58D08409028333333333333E3BF0000000000000FB01079019070040501508421405064090741402480A1B40
1001
ACAD
1000
AcDbSavedByObjectVersion
1070
     0
  0
ACAD_PROXY_OBJECT
  5
37
102
{ACAD_REACTORS
330
2A
102
}
330
2A
100
AcDbZombieObject
 90
      499
 91
      501
 93
      412
310
41D51A1A58DAD95B90D409028333333333333E3BF0000000000000FB010790141107004050150C41D405064090741402480A0350
1001
ACAD
1000
AcDbSavedByObjectVersion
1070
     0
  0
DICTIONARYVAR
  5
2DB
102
{ACAD_REACTORS
330
2D8
102
}
330
2D8
100
DictionaryVariables
280
     0
  1
1:1
  0
DICTIONARYVAR
  5
2DC
102
{ACAD_REACTORS
330
2D8
102
}
330
2D8
100
DictionaryVariables
280
     0
  1
2
  0
DICTIONARYVAR
  5
2DD
102
{ACAD_REACTORS
330
2D8
102
}
330
2D8
100
DictionaryVariables
280
     0
  1
1
  0
ENDSEC
  0
EOF
