  0
SECTION
  2
HEADER
  9
$ACADVER
  1
AC1012
  9
$DWGCODEPAGE
  3
ansi_1252
  9
$INSBASE
 10
0.0
 20
0.0
 30
0.0
  9
$EXTMIN
 10
0.0
 20
0.0
 30
0.0
  9
$EXTMAX
 10
11.0
 20
8.5
 30
0.0
  9
$LIMMIN
 10
0.0
 20
0.0
  9
$LIMMAX
 10
11.0
 20
8.5
  9
$ORTHOMODE
 70
     0
  9
$REGENMODE
 70
     1
  9
$FILLMODE
 70
     1
  9
$QTEXTMODE
 70
     0
  9
$MIRRTEXT
 70
     1
  9
$DRAGMODE
 70
     2
  9
$LTSCALE
 40
1.0
  9
$OSMODE
 70
    37
  9
$ATTMODE
 70
     1
  9
$TEXTSIZE
 40
0.125
  9
$TRACEWID
 40
0.05
  9
$TEXTSTYLE
  7
STANDARD
  9
$CLAYER
  8
0
  9
$CELTYPE
  6
BYLAYER
  9
$CECOLOR
 62
   256
  9
$CELTSCALE
 40
1.0
  9
$DELOBJ
 70
     1
  9
$DISPSILH
 70
     0
  9
$DIMSCALE
 40
1.0
  9
$DIMASZ
 40
0.13
  9
$DIMEXO
 40
0.05
  9
$DIMDLI
 40
0.38
  9
$DIMRND
 40
0.0
  9
$DIMDLE
 40
0.0
  9
$DIMEXE
 40
0.125
  9
$DIMTP
 40
0.0
  9
$DIMTM
 40
0.0
  9
$DIMTXT
 40
0.125
  9
$DIMCEN
 40
0.09
  9
$DIMTSZ
 40
0.0
  9
$DIMTOL
 70
     0
  9
$DIMLIM
 70
     0
  9
$DIMTIH
 70
     1
  9
$DIMTOH
 70
     1
  9
$DIMSE1
 70
     0
  9
$DIMSE2
 70
     0
  9
$DIMTAD
 70
     0
  9
$DIMZIN
 70
     0
  9
$DIMBLK
  1

  9
$DIMASO
 70
     1
  9
$DIMSHO
 70
     1
  9
$DIMPOST
  1

  9
$DIMAPOST
  1

  9
$DIMALT
 70
     0
  9
$DIMALTD
 70
     2
  9
$DIMALTF
 40
25.4
  9
$DIMLFAC
 40
1.0
  9
$DIMTOFL
 70
     0
  9
$DIMTVP
 40
0.0
  9
$DIMTIX
 70
     0
  9
$DIMSOXD
 70
     0
  9
$DIMSAH
 70
     0
  9
$DIMBLK1
  1

  9
$DIMBLK2
  1

  9
$DIMSTYLE
  2
STANDARD
  9
$DIMCLRD
 70
     0
  9
$DIMCLRE
 70
     0
  9
$DIMCLRT
 70
     0
  9
$DIMTFAC
 40
1.0
  9
$DIMGAP
 40
0.06
  9
$DIMJUST
 70
     0
  9
$DIMSD1
 70
     0
  9
$DIMSD2
 70
     0
  9
$DIMTOLJ
 70
     1
  9
$DIMTZIN
 70
     0
  9
$DIMALTZ
 70
     0
  9
$DIMALTTZ
 70
     0
  9
$DIMFIT
 70
     3
  9
$DIMUPT
 70
     0
  9
$DIMUNIT
 70
     2
  9
$DIMDEC
 70
     3
  9
$DIMTDEC
 70
     3
  9
$DIMALTU
 70
     2
  9
$DIMALTTD
 70
     2
  9
$DIMTXSTY
  7
STANDARD
  9
$DIMAUNIT
 70
     0
  9
$LUNITS
 70
     2
  9
$LUPREC
 70
     2
  9
$SKETCHINC
 40
0.1
  9
$FILLETRAD
 40
0.5
  9
$AUNITS
 70
     0
  9
$AUPREC
 70
     2
  9
$MENU
  1
.
  9
$ELEVATION
 40
0.0
  9
$PELEVATION
 40
0.0
  9
$THICKNESS
 40
0.0
  9
$LIMCHECK
 70
     0
  9
$CHAMFERA
 40
0.5
  9
$CHAMFERB
 40
0.5
  9
$CHAMFERC
 40
1.0
  9
$CHAMFERD
 40
0.0
  9
$SKPOLY
 70
     0
  9
$TDCREATE
 40
2455784.017959687
  9
$TDUPDATE
 40
2455784.017959699
  9
$TDINDWG
 40
0.0000000116
  9
$TDUSRTIMER
 40
0.0000000116
  9
$USRTIMER
 70
     1
  9
$ANGBASE
 50
0.0
  9
$ANGDIR
 70
     0
  9
$PDMODE
 70
     0
  9
$PDSIZE
 40
-1.0
  9
$PLINEWID
 40
0.0
  9
$COORDS
 70
     1
  9
$SPLFRAME
 70
     0
  9
$SPLINETYPE
 70
     6
  9
$SPLINESEGS
 70
     8
  9
$ATTDIA
 70
     0
  9
$ATTREQ
 70
     1
  9
$HANDLING
 70
     1
  9
$HANDSEED
  5
73B
  9
$SURFTAB1
 70
     6
  9
$SURFTAB2
 70
     6
  9
$SURFTYPE
 70
     6
  9
$SURFU
 70
     6
  9
$SURFV
 70
     6
  9
$UCSNAME
  2

  9
$UCSORG
 10
0.0
 20
0.0
 30
0.0
  9
$UCSXDIR
 10
1.0
 20
0.0
 30
0.0
  9
$UCSYDIR
 10
0.0
 20
1.0
 30
0.0
  9
$PUCSNAME
  2

  9
$PUCSORG
 10
0.0
 20
0.0
 30
0.0
  9
$PUCSXDIR
 10
1.0
 20
0.0
 30
0.0
  9
$PUCSYDIR
 10
0.0
 20
1.0
 30
0.0
  9
$USERI1
 70
     0
  9
$USERI2
 70
     0
  9
$USERI3
 70
     0
  9
$USERI4
 70
     0
  9
$USERI5
 70
     0
  9
$USERR1
 40
0.0
  9
$USERR2
 40
0.0
  9
$USERR3
 40
0.0
  9
$USERR4
 40
0.0
  9
$USERR5
 40
0.0
  9
$WORLDVIEW
 70
     1
  9
$SHADEDGE
 70
     3
  9
$SHADEDIF
 70
    70
  9
$TILEMODE
 70
     1
  9
$MAXACTVP
 70
    64
  9
$PINSBASE
 10
0.0
 20
0.0
 30
0.0
  9
$PLIMCHECK
 70
     0
  9
$PEXTMIN
 10
1.0000000000E+20
 20
1.0000000000E+20
 30
1.0000000000E+20
  9
$PEXTMAX
 10
-1.0000000000E+20
 20
-1.0000000000E+20
 30
-1.0000000000E+20
  9
$PLIMMIN
 10
0.0
 20
0.0
  9
$PLIMMAX
 10
12.0
 20
9.0
  9
$UNITMODE
 70
     0
  9
$VISRETAIN
 70
     1
  9
$PLINEGEN
 70
     0
  9
$PSLTSCALE
 70
     1
  9
$TREEDEPTH
 70
  3020
  9
$PICKSTYLE
 70
     1
  9
$CMLSTYLE
  2
STANDARD
  9
$CMLJUST
 70
     0
  9
$CMLSCALE
 40
1.0
  9
$SAVEIMAGES
 70
     1
  0
ENDSEC
  0
SECTION
  2
CLASSES
  0
CLASS
  1
ACDBDICTIONARYWDFLT
  2
AcDbDictionaryWithDefault
  3
ObjectDBX Classes
 90
    32768
280
     0
281
     0
  0
CLASS
  1
VISUALSTYLE
  2
AcDbVisualStyle
  3
ObjectDBX Classes
 90
     4095
280
     0
281
     0
  0
CLASS
  1
SCALE
  2
AcDbScale
  3
ObjectDBX Classes
 90
     1153
280
     0
281
     0
  0
CLASS
  1
DICTIONARYVAR
  2
AcDbDictionaryVar
  3
ObjectDBX Classes
 90
        0
280
     0
281
     0
  0
CLASS
  1
XRECORD
  2
AcDbXrecord
  3
AutoCAD 2000
 90
    32768
280
     0
281
     0
  0
CLASS
  1
LWPOLYLINE
  2
AcDbPolyline
  3
AutoCAD 2000
 90
    32768
280
     0
281
     1
  0
CLASS
  1
HATCH
  2
AcDbHatch
  3
AutoCAD 2000
 90
    32768
280
     0
281
     1
  0
CLASS
  1
ACDBPLACEHOLDER
  2
AcDbPlaceHolder
  3
ObjectDBX Classes
 90
        0
280
     0
281
     0
  0
CLASS
  1
LAYOUT
  2
AcDbLayout
  3
ObjectDBX Classes
 90
        0
280
     0
281
     0
  0
ENDSEC
  0
SECTION
  2
TABLES
  0
TABLE
  2
VPORT
  5
8
330
0
100
AcDbSymbolTable
 70
     1
  0
VPORT
  5
29
330
8
100
AcDbSymbolTableRecord
100
AcDbViewportTableRecord
  2
*ACTIVE
 70
     0
 10
0.0
 20
0.0
 11
1.0
 21
1.0
 12
5.5
 22
4.25
 13
0.0
 23
0.0
 14
0.5
 24
0.5
 15
0.5
 25
0.5
 16
0.0
 26
0.0
 36
1.0
 17
0.0
 27
0.0
 37
0.0
 40
8.5
 41
1.2941176471
 42
50.0
 43
0.0
 44
0.0
 50
0.0
 51
0.0
 71
     0
 72
  2000
 73
     1
 74
     3
 75
     0
 76
     0
 77
     0
 78
     0
  0
ENDTAB
  0
TABLE
  2
LTYPE
  5
5
330
0
100
AcDbSymbolTable
 70
     6
  0
LTYPE
  5
14
330
5
100
AcDbSymbolTableRecord
100
AcDbLinetypeTableRecord
  2
BYBLOCK
 70
     0
  3

 72
    65
 73
     0
 40
0.0
  0
LTYPE
  5
15
330
5
100
AcDbSymbolTableRecord
100
AcDbLinetypeTableRecord
  2
BYLAYER
 70
     0
  3

 72
    65
 73
     0
 40
0.0
  0
LTYPE
  5
16
330
5
100
AcDbSymbolTableRecord
100
AcDbLinetypeTableRecord
  2
CONTINUOUS
 70
     0
  3
Solid line
 72
    65
 73
     0
 40
0.0
  0
LTYPE
  5
3B
330
5
100
AcDbSymbolTableRecord
100
AcDbLinetypeTableRecord
  2
HIDDEN
 70
     0
  3
Hidden __ __ __ __ __ __ __ __ __ __ __ __ __ __
 72
    65
 73
     2
 40
0.075
 49
0.05
 74
     0
 49
-0.025
 74
     0
  0
LTYPE
  5
3C
330
5
100
AcDbSymbolTableRecord
100
AcDbLinetypeTableRecord
  2
PHANTOM
 70
     0
  3
Phantom ______  __  __  ______  __  __  ______
 72
    65
 73
     6
 40
0.5
 49
0.25
 74
     0
 49
-0.05
 74
     0
 49
0.05
 74
     0
 49
-0.05
 74
     0
 49
0.05
 74
     0
 49
-0.05
 74
     0
  0
LTYPE
  5
3D
330
5
100
AcDbSymbolTableRecord
100
AcDbLinetypeTableRecord
  2
CENTER
 70
     0
  3
Center ____ _ ____ _ ____ _ ____ _ ____ _ ____
 72
    65
 73
     4
 40
0.4
 49
0.25
 74
     0
 49
-0.05
 74
     0
 49
0.05
 74
     0
 49
-0.05
 74
     0
  0
LTYPE
  5
3E
330
5
100
AcDbSymbolTableRecord
100
AcDbLinetypeTableRecord
  2
CENTERX2
 70
     0
  3
Center (2x) ________  __  ________  __  _____
 72
    65
 73
     4
 40
0.8
 49
0.5
 74
     0
 49
-0.1
 74
     0
 49
0.1
 74
     0
 49
-0.1
 74
     0
  0
LTYPE
  5
3F
330
5
100
AcDbSymbolTableRecord
100
AcDbLinetypeTableRecord
  2
DOT2
 70
     0
  3
Dot (.5x) ........................................
 72
    65
 73
     2
 40
0.025
 49
0.0
 74
     0
 49
-0.025
 74
     0
  0
ENDTAB
  0
TABLE
  2
LAYER
  5
2
330
0
100
AcDbSymbolTable
 70
     2
  0
LAYER
  5
10
330
2
100
AcDbSymbolTableRecord
100
AcDbLayerTableRecord
  2
0
 70
     0
 62
     7
  6
CONTINUOUS
  0
LAYER
  5
40
330
2
100
AcDbSymbolTableRecord
100
AcDbLayerTableRecord
  2
FORMAT
 70
     0
 62
     7
  6
CONTINUOUS
  0
ENDTAB
  0
TABLE
  2
STYLE
  5
3
330
0
100
AcDbSymbolTable
 70
     4
  0
STYLE
  5
11
330
3
100
AcDbSymbolTableRecord
100
AcDbTextStyleTableRecord
  2
STANDARD
 70
     0
 40
0.0
 41
1.0
 50
0.0
 71
     0
 42
0.2
  3
txt
  4

  0
STYLE
  5
6E
330
3
100
AcDbSymbolTableRecord
100
AcDbTextStyleTableRecord
  2
SLDTEXTSTYLE0
 70
     0
 40
0.0
 41
0.75
 50
0.0
 71
     0
 42
0.2
  3
TXT
  4

  0
STYLE
  5
93
330
3
100
AcDbSymbolTableRecord
100
AcDbTextStyleTableRecord
  2
SLDTEXTSTYLE1
 70
     0
 40
0.0
 41
0.6875
 50
0.0
 71
     0
 42
0.2
  3
TXT
  4

  0
STYLE
  5
99
330
3
100
AcDbSymbolTableRecord
100
AcDbTextStyleTableRecord
  2
SLDTEXTSTYLE2
 70
     0
 40
0.0
 41
0.6944444444
 50
0.0
 71
     0
 42
0.2
  3
TXT
  4

  0
ENDTAB
  0
TABLE
  2
VIEW
  5
6
330
0
100
AcDbSymbolTable
 70
     0
  0
ENDTAB
  0
TABLE
  2
UCS
  5
7
330
0
100
AcDbSymbolTable
 70
     0
  0
ENDTAB
  0
TABLE
  2
APPID
  5
9
330
0
100
AcDbSymbolTable
 70
     1
  0
APPID
  5
12
330
9
100
AcDbSymbolTableRecord
100
AcDbRegAppTableRecord
  2
ACAD
 70
     0
  0
ENDTAB
  0
TABLE
  2
DIMSTYLE
  5
A
330
0
100
AcDbSymbolTable
 70
     1
  0
DIMSTYLE
105
27
330
A
100
AcDbSymbolTableRecord
100
AcDbDimStyleTableRecord
  2
STANDARD
 70
     0
  3

  4

  5

  6

  7

 40
1.0
 41
0.18
 42
0.0625
 43
0.38
 44
0.18
 45
0.0
 46
0.0
 47
0.0
 48
0.0
140
0.18
141
0.09
142
0.0
143
25.4
144
1.0
145
0.0
146
1.0
147
0.09
 71
     0
 72
     0
 73
     1
 74
     1
 75
     0
 76
     0
 77
     0
 78
     0
170
     0
171
     2
172
     0
173
     0
174
     0
175
     0
176
     0
177
     0
178
     0
270
     2
271
     4
272
     4
273
     2
274
     2
340
11
275
     0
280
     0
281
     0
282
     0
283
     1
284
     0
285
     0
286
     0
287
     3
288
     0
  0
ENDTAB
  0
TABLE
  2
BLOCK_RECORD
  5
1
330
0
100
AcDbSymbolTable
 70
     4
  0
BLOCK_RECORD
  5
1F
330
1
100
AcDbSymbolTableRecord
100
AcDbBlockTableRecord
  2
*MODEL_SPACE
  0
BLOCK_RECORD
  5
1B
330
1
100
AcDbSymbolTableRecord
100
AcDbBlockTableRecord
  2
*PAPER_SPACE
  0
BLOCK_RECORD
  5
A8
330
1
100
AcDbSymbolTableRecord
100
AcDbBlockTableRecord
  2
SW_NOTE_0
  0
BLOCK_RECORD
  5
AE
330
1
100
AcDbSymbolTableRecord
100
AcDbBlockTableRecord
  2
SW_NOTE_1
  0
BLOCK_RECORD
  5
C2
330
1
100
AcDbSymbolTableRecord
100
AcDbBlockTableRecord
  2
SW_NOTE_2
  0
ENDTAB
  0
ENDSEC
  0
SECTION
  2
BLOCKS
  0
BLOCK
  5
20
330
1F
100
AcDbEntity
  8
0
100
AcDbBlockBegin
  2
*MODEL_SPACE
 70
     0
 10
0.0
 20
0.0
 30
0.0
  3
*MODEL_SPACE
  1

  0
ENDBLK
  5
21
330
1F
100
AcDbEntity
  8
0
100
AcDbBlockEnd
  0
BLOCK
  5
1C
330
1B
100
AcDbEntity
 67
     1
  8
0
100
AcDbBlockBegin
  2
*PAPER_SPACE
 70
     0
 10
0.0
 20
0.0
 30
0.0
  3
*PAPER_SPACE
  1

  0
ENDBLK
  5
1D
330
1B
100
AcDbEntity
 67
     1
  8
0
100
AcDbBlockEnd
  0
BLOCK
  5
A9
330
A8
100
AcDbEntity
  8
0
100
AcDbBlockBegin
  2
SW_NOTE_0
 70
     0
 10
0.0
 20
0.0
 30
0.0
  3
SW_NOTE_0
  1

  0
MTEXT
  5
AB
330
A8
100
AcDbEntity
  8
0
  6
CONTINUOUS
 62
     0
100
AcDbMText
 10
0.0
 20
0.0773440644
 30
0.0
 40
0.06
 41
0.0
 71
     1
 72
     1
  1
INTERPRET GEOMETRIC
  7
SLDTEXTSTYLE0
  0
MTEXT
  5
AC
330
A8
100
AcDbEntity
  8
0
  6
CONTINUOUS
 62
     0
100
AcDbMText
 10
0.0
 20
-0.0220260102
 30
0.0
 40
0.06
 41
0.0
 71
     1
 72
     1
  1
TOLERANCING PER:
  7
SLDTEXTSTYLE0
  0
ENDBLK
  5
AA
330
A8
100
AcDbEntity
  8
0
100
AcDbBlockEnd
  0
BLOCK
  5
AF
330
AE
100
AcDbEntity
  8
0
100
AcDbBlockBegin
  2
SW_NOTE_1
 70
     0
 10
0.0
 20
0.0
 30
0.0
  3
SW_NOTE_1
  1

  0
MTEXT
  5
B1
330
AE
100
AcDbEntity
  8
0
  6
CONTINUOUS
 62
     0
100
AcDbMText
 10
0.0
 20
0.0837894031
 30
0.0
 40
0.065
 41
0.0
 71
     1
 72
     1
  1
DIMENSIONS ARE IN INCHES
  7
SLDTEXTSTYLE0
  0
MTEXT
  5
B2
330
AE
100
AcDbEntity
  8
0
  6
CONTINUOUS
 62
     0
100
AcDbMText
 10
0.0
 20
-0.0205806729
 30
0.0
 40
0.065
 41
0.0
 71
     1
 72
     1
  1
TOLERANCES:
  7
SLDTEXTSTYLE0
  0
MTEXT
  5
B3
330
AE
100
AcDbEntity
  8
0
  6
CONTINUOUS
 62
     0
100
AcDbMText
 10
0.0
 20
-0.1249507489
 30
0.0
 40
0.065
 41
0.0
 71
     1
 72
     1
  1
FRACTIONAL
  7
SLDTEXTSTYLE0
  0
MTEXT
  5
B4
330
AE
100
AcDbEntity
  8
0
  6
CONTINUOUS
 62
     0
100
AcDbMText
 10
0.5175850875
 20
-0.1249507489
 30
0.0
 40
0.065
 41
0.0
 71
     1
 72
     1
  1
%%p
  7
SLDTEXTSTYLE0
  0
MTEXT
  5
B5
330
AE
100
AcDbEntity
  8
0
  6
CONTINUOUS
 62
     0
100
AcDbMText
 10
0.0
 20
-0.2293208248
 30
0.0
 40
0.065
 41
0.0
 71
     1
 72
     1
  1
ANGULAR: MACH
  7
SLDTEXTSTYLE0
  0
MTEXT
  5
B6
330
AE
100
AcDbEntity
  8
0
  6
CONTINUOUS
 62
     0
100
AcDbMText
 10
0.7233732769
 20
-0.2293208248
 30
0.0
 40
0.065
 41
0.0
 71
     1
 72
     1
  1
%%p
  7
SLDTEXTSTYLE0
  0
MTEXT
  5
B7
330
AE
100
AcDbEntity
  8
0
  6
CONTINUOUS
 62
     0
100
AcDbMText
 10
0.7852857683
 20
-0.2293208248
 30
0.0
 40
0.065
 41
0.0
 71
     1
 72
     1
  1
     BEND 
  7
SLDTEXTSTYLE0
  0
MTEXT
  5
B8
330
AE
100
AcDbEntity
  8
0
  6
CONTINUOUS
 62
     0
100
AcDbMText
 10
1.14784136
 20
-0.2293208248
 30
0.0
 40
0.065
 41
0.0
 71
     1
 72
     1
  1
%%p
  7
SLDTEXTSTYLE0
  0
MTEXT
  5
B9
330
AE
100
AcDbEntity
  8
0
  6
CONTINUOUS
 62
     0
100
AcDbMText
 10
0.0
 20
-0.3336909008
 30
0.0
 40
0.065
 41
0.0
 71
     1
 72
     1
  1
TWO PLACE DECIMAL    
  7
SLDTEXTSTYLE0
  0
MTEXT
  5
BA
330
AE
100
AcDbEntity
  8
0
  6
CONTINUOUS
 62
     0
100
AcDbMText
 10
0.9794349188
 20
-0.3336909008
 30
0.0
 40
0.065
 41
0.0
 71
     1
 72
     1
  1
%%p
  7
SLDTEXTSTYLE0
  0
MTEXT
  5
BB
330
AE
100
AcDbEntity
  8
0
  6
CONTINUOUS
 62
     0
100
AcDbMText
 10
0.0
 20
-0.4380609768
 30
0.0
 40
0.065
 41
0.0
 71
     1
 72
     1
  1
THREE PLACE DECIMAL  
  7
SLDTEXTSTYLE0
  0
MTEXT
  5
BC
330
AE
100
AcDbEntity
  8
0
  6
CONTINUOUS
 62
     0
100
AcDbMText
 10
0.9738038639
 20
-0.4380609768
 30
0.0
 40
0.065
 41
0.0
 71
     1
 72
     1
  1
%%p
  7
SLDTEXTSTYLE0
  0
ENDBLK
  5
B0
330
AE
100
AcDbEntity
  8
0
100
AcDbBlockEnd
  0
BLOCK
  5
C3
330
C2
100
AcDbEntity
  8
0
100
AcDbBlockBegin
  2
SW_NOTE_2
 70
     0
 10
0.0
 20
0.0
 30
0.0
  3
SW_NOTE_2
  1

  0
MTEXT
  5
C5
330
C2
100
AcDbEntity
  8
0
  6
CONTINUOUS
 62
     0
100
AcDbMText
 10
0.0
 20
0.0773440644
 30
0.0
 40
0.06
 41
0.0
 71
     1
 72
     1
  1
THE INFORMATION CONTAINED IN THIS
  7
SLDTEXTSTYLE0
  0
MTEXT
  5
C6
330
C2
100
AcDbEntity
  8
0
  6
CONTINUOUS
 62
     0
100
AcDbMText
 10
0.0
 20
-0.0220260102
 30
0.0
 40
0.06
 41
0.0
 71
     1
 72
     1
  1
DRAWING IS THE SOLE PROPERTY OF
  7
SLDTEXTSTYLE0
  0
MTEXT
  5
C7
330
C2
100
AcDbEntity
  8
0
  6
CONTINUOUS
 62
     0
100
AcDbMText
 10
0.0
 20
-0.1213960848
 30
0.0
 40
0.06
 41
0.0
 71
     1
 72
     1
  1
Candy Controls.  ANY 
  7
SLDTEXTSTYLE0
  0
MTEXT
  5
C8
330
C2
100
AcDbEntity
  8
0
  6
CONTINUOUS
 62
     0
100
AcDbMText
 10
0.0
 20
-0.2207661593
 30
0.0
 40
0.06
 41
0.0
 71
     1
 72
     1
  1
REPRODUCTION IN PART OR AS A WHOLE
  7
SLDTEXTSTYLE0
  0
MTEXT
  5
C9
330
C2
100
AcDbEntity
  8
0
  6
CONTINUOUS
 62
     0
100
AcDbMText
 10
0.0
 20
-0.3201362339
 30
0.0
 40
0.06
 41
0.0
 71
     1
 72
     1
  1
WITHOUT THE WRITTEN PERMISSION OF
  7
SLDTEXTSTYLE0
  0
MTEXT
  5
CA
330
C2
100
AcDbEntity
  8
0
  6
CONTINUOUS
 62
     0
100
AcDbMText
 10
0.0
 20
-0.4195063085
 30
0.0
 40
0.06
 41
0.0
 71
     1
 72
     1
  1
Candy Controls IS 
  7
SLDTEXTSTYLE0
  0
MTEXT
  5
CB
330
C2
100
AcDbEntity
  8
0
  6
CONTINUOUS
 62
     0
100
AcDbMText
 10
0.0
 20
-0.518876383
 30
0.0
 40
0.06
 41
0.0
 71
     1
 72
     1
  1
PROHIBITED.
  7
SLDTEXTSTYLE0
  0
ENDBLK
  5
C4
330
C2
100
AcDbEntity
  8
0
100
AcDbBlockEnd
  0
ENDSEC
  0
SECTION
  2
ENTITIES
  0
LINE
  5
41
330
1F
100
AcDbEntity
  8
0
  6
CONTINUOUS
 62
     7
100
AcDbLine
 10
0.329927
 20
8.1920731707
 30
0.0
 11
10.629927
 21
8.1920731707
 31
0.0
  0
LINE
  5
42
330
1F
100
AcDbEntity
  8
0
  6
CONTINUOUS
 62
     7
100
AcDbLine
 10
0.329927
 20
8.1920731707
 30
0.0
 11
0.329927
 21
0.3920731707
 31
0.0
  0
LINE
  5
43
330
1F
100
AcDbEntity
  8
0
  6
CONTINUOUS
 62
     7
100
AcDbLine
 10
10.629927
 20
0.3920731707
 30
0.0
 11
0.329927
 21
0.3920731707
 31
0.0
  0
LINE
  5
44
330
1F
100
AcDbEntity
  8
0
  6
CONTINUOUS
 62
     7
100
AcDbLine
 10
10.629927
 20
0.3920731707
 30
0.0
 11
10.629927
 21
8.1920731707
 31
0.0
  0
LINE
  5
45
330
1F
100
AcDbEntity
  8
0
  6
CONTINUOUS
 62
     7
100
AcDbLine
 10
4.7981841288
 20
0.3920731707
 30
0.0
 11
4.7981841288
 21
2.3564211366
 31
0.0
  0
LINE
  5
46
330
1F
100
AcDbEntity
  8
0
  6
CONTINUOUS
 62
     7
100
AcDbLine
 10
2.8210345579
 20
2.3564211366
 30
0.0
 11
10.629927
 21
2.3564211366
 31
0.0
  0
LINE
  5
47
330
1F
100
AcDbEntity
  8
0
  6
CONTINUOUS
 62
     7
100
AcDbLine
 10
6.1796352514
 20
2.3564211366
 30
0.0
 11
6.1796352514
 21
0.3920731707
 31
0.0
  0
LINE
  5
48
330
1F
100
AcDbEntity
  8
0
  6
CONTINUOUS
 62
     7
100
AcDbLine
 10
7.8712070044
 20
2.3564211366
 30
0.0
 11
7.8712070044
 21
0.3920731707
 31
0.0
  0
LINE
  5
49
330
1F
100
AcDbEntity
  8
0
  6
CONTINUOUS
 62
     7
100
AcDbLine
 10
7.8712070044
 20
0.6049590101
 30
0.0
 11
10.629927
 21
0.6049590101
 31
0.0
  0
LINE
  5
4A
330
1F
100
AcDbEntity
  8
0
  6
CONTINUOUS
 62
     7
100
AcDbLine
 10
7.8712070044
 20
1.1119362457
 30
0.0
 11
10.629927
 21
1.1119362457
 31
0.0
  0
LINE
  5
4B
330
1F
100
AcDbEntity
  8
0
  6
CONTINUOUS
 62
     7
100
AcDbLine
 10
7.8712070044
 20
1.9892703708
 30
0.0
 11
10.629927
 21
1.9892703708
 31
0.0
  0
LINE
  5
4C
330
1F
100
AcDbEntity
  8
0
  6
CONTINUOUS
 62
     7
100
AcDbLine
 10
8.266751752
 20
1.1119362457
 30
0.0
 11
8.266751752
 21
0.6049590101
 31
0.0
  0
LINE
  5
4D
330
1F
100
AcDbEntity
  8
0
  6
CONTINUOUS
 62
     7
100
AcDbLine
 10
8.6943435176
 20
0.6049590101
 30
0.0
 11
8.6943435176
 21
0.3920731707
 31
0.0
  0
LINE
  5
4E
330
1F
100
AcDbEntity
  8
0
  6
CONTINUOUS
 62
     7
100
AcDbLine
 10
10.0579917045
 20
1.1119362457
 30
0.0
 11
10.0579917045
 21
0.6049590101
 31
0.0
  0
LINE
  5
4F
330
1F
100
AcDbEntity
  8
0
  6
CONTINUOUS
 62
     7
100
AcDbLine
 10
9.6662556631
 20
0.6049590101
 30
0.0
 11
9.6662556631
 21
0.3920731707
 31
0.0
  0
LINE
  5
50
330
1F
100
AcDbEntity
  8
0
  6
CONTINUOUS
 62
     7
100
AcDbLine
 10
2.8210345579
 20
0.5883479999
 30
0.0
 11
6.1796352514
 21
0.5883479999
 31
0.0
  0
LINE
  5
51
330
1F
100
AcDbEntity
  8
0
  6
CONTINUOUS
 62
     7
100
AcDbLine
 10
6.1796352514
 20
1.7939211366
 30
0.0
 11
7.8712070044
 21
1.7939211366
 31
0.0
  0
LINE
  5
52
330
1F
100
AcDbEntity
  8
0
  6
CONTINUOUS
 62
     7
100
AcDbLine
 10
6.1796352514
 20
1.9814211366
 30
0.0
 11
7.8712070044
 21
1.9814211366
 31
0.0
  0
LINE
  5
53
330
1F
100
AcDbEntity
  8
0
  6
CONTINUOUS
 62
     7
100
AcDbLine
 10
6.1796352514
 20
2.1689211366
 30
0.0
 11
7.8712070044
 21
2.1689211366
 31
0.0
  0
LINE
  5
54
330
1F
100
AcDbEntity
  8
0
  6
CONTINUOUS
 62
     7
100
AcDbLine
 10
7.8712070044
 20
1.2314211366
 30
0.0
 11
6.1796352514
 21
1.2314211366
 31
0.0
  0
LINE
  5
55
330
1F
100
AcDbEntity
  8
0
  6
CONTINUOUS
 62
     7
100
AcDbLine
 10
7.3921580388
 20
2.3564211366
 30
0.0
 11
7.3921580388
 21
1.2314211366
 31
0.0
  0
LINE
  5
56
330
1F
100
AcDbEntity
  8
0
  6
CONTINUOUS
 62
     7
100
AcDbLine
 10
6.9236308342
 20
2.3564211366
 30
0.0
 11
6.9236308342
 21
1.2314211366
 31
0.0
  0
LINE
  5
57
330
1F
100
AcDbEntity
  8
0
  6
CONTINUOUS
 62
     7
100
AcDbLine
 10
4.7981841288
 20
0.8557965305
 30
0.0
 11
6.1796352514
 21
0.8557965305
 31
0.0
  0
LINE
  5
58
330
1F
100
AcDbEntity
  8
0
  6
CONTINUOUS
 62
     7
100
AcDbLine
 10
4.7981841288
 20
1.1257965305
 30
0.0
 11
6.1796352514
 21
1.1257965305
 31
0.0
  0
LINE
  5
59
330
1F
100
AcDbEntity
  8
0
  6
CONTINUOUS
 62
     7
100
AcDbLine
 10
2.8210345579
 20
0.3920731707
 30
0.0
 11
2.8210345579
 21
2.3564211366
 31
0.0
  0
LINE
  5
5A
330
1F
100
AcDbEntity
  8
0
  6
CONTINUOUS
 62
     7
100
AcDbLine
 10
2.8210345579
 20
1.1064211366
 30
0.0
 11
4.7981841288
 21
1.1064211366
 31
0.0
  0
LINE
  5
5B
330
1F
100
AcDbEntity
  8
0
  6
CONTINUOUS
 62
     7
100
AcDbLine
 10
2.8210345579
 20
1.3564211366
 30
0.0
 11
4.7981841288
 21
1.3564211366
 31
0.0
  0
LINE
  5
5C
330
1F
100
AcDbEntity
  8
0
  6
CONTINUOUS
 62
     7
100
AcDbLine
 10
2.8210345579
 20
1.6064211366
 30
0.0
 11
4.7981841288
 21
1.6064211366
 31
0.0
  0
LINE
  5
5D
330
1F
100
AcDbEntity
  8
0
  6
CONTINUOUS
 62
     7
100
AcDbLine
 10
2.8210345579
 20
1.8564211366
 30
0.0
 11
4.7981841288
 21
1.8564211366
 31
0.0
  0
LINE
  5
5E
330
1F
100
AcDbEntity
  8
0
  6
CONTINUOUS
 62
     7
100
AcDbLine
 10
3.8190146875
 20
2.3564211366
 30
0.0
 11
3.8190146875
 21
0.5883479999
 31
0.0
  0
LINE
  5
5F
330
1F
100
AcDbEntity
  8
0
  6
CONTINUOUS
 62
     7
100
AcDbLine
 10
6.1796352514
 20
2.2020813496
 30
0.0
 11
4.7981841288
 21
2.2020813496
 31
0.0
  0
LINE
  5
60
330
1F
100
AcDbEntity
  8
0
  6
CONTINUOUS
 62
     7
100
AcDbLine
 10
7.8712070044
 20
1.6064211366
 30
0.0
 11
6.1796352514
 21
1.6064211366
 31
0.0
  0
LINE
  5
61
330
1F
100
AcDbEntity
  8
0
  6
CONTINUOUS
 62
     7
100
AcDbLine
 10
7.8712070044
 20
1.4189211366
 30
0.0
 11
6.1796352514
 21
1.4189211366
 31
0.0
  0
LINE
  5
62
330
1F
100
AcDbEntity
  8
0
  6
CONTINUOUS
 62
     7
100
AcDbLine
 10
2.8210345579
 20
2.1064211366
 30
0.0
 11
4.7981841288
 21
2.1064211366
 31
0.0
  0
LINE
  5
63
330
1F
100
AcDbEntity
  8
0
  6
CONTINUOUS
 62
     7
100
AcDbLine
 10
4.7981841288
 20
1.3957965305
 30
0.0
 11
6.1796352514
 21
1.3957965305
 31
0.0
  0
LINE
  5
64
330
1F
100
AcDbEntity
  8
0
  6
CONTINUOUS
 62
     7
100
AcDbLine
 10
2.8210345579
 20
0.8564211366
 30
0.0
 11
4.7981841288
 21
0.8564211366
 31
0.0
  0
LINE
  5
65
330
1F
100
AcDbEntity
  8
0
  6
CONTINUOUS
 62
     7
100
AcDbLine
 10
1.1838252943
 20
0.3920731707
 30
0.0
 11
1.1838252943
 21
1.3064211366
 31
0.0
  0
LINE
  5
66
330
1F
100
AcDbEntity
  8
0
  6
CONTINUOUS
 62
     7
100
AcDbLine
 10
2.8210345579
 20
1.3064211366
 30
0.0
 11
1.1838252943
 21
1.3064211366
 31
0.0
  0
LINE
  5
67
330
1F
100
AcDbEntity
  8
0
  6
CONTINUOUS
 62
     7
100
AcDbLine
 10
8.660927
 20
0.3920731707
 30
0.0
 11
8.660927
 21
0.3072739649
 31
0.0
  0
LINE
  5
68
330
1F
100
AcDbEntity
  8
0
  6
CONTINUOUS
 62
     7
100
AcDbLine
 10
6.692177
 20
0.3920731707
 30
0.0
 11
6.692177
 21
0.3072739649
 31
0.0
  0
LINE
  5
69
330
1F
100
AcDbEntity
  8
0
  6
CONTINUOUS
 62
     7
100
AcDbLine
 10
4.723427
 20
0.3920731707
 30
0.0
 11
4.723427
 21
0.3072739649
 31
0.0
  0
LINE
  5
6A
330
1F
100
AcDbEntity
  8
0
  6
CONTINUOUS
 62
     7
100
AcDbLine
 10
2.754677
 20
0.3920731707
 30
0.0
 11
2.754677
 21
0.3072739649
 31
0.0
  0
LINE
  5
6B
330
1F
100
AcDbEntity
  8
0
  6
CONTINUOUS
 62
     7
100
AcDbLine
 10
2.754677
 20
0.3920731707
 30
0.0
 11
2.7672319738
 21
0.3575
 31
0.0
  0
LINE
  5
6C
330
1F
100
AcDbEntity
  8
0
  6
CONTINUOUS
 62
     7
100
AcDbLine
 10
2.7672319738
 20
0.3575
 30
0.0
 11
2.7414258825
 21
0.3575
 31
0.0
  0
LINE
  5
6D
330
1F
100
AcDbEntity
  8
0
  6
CONTINUOUS
 62
     7
100
AcDbLine
 10
2.7414258825
 20
0.3575
 30
0.0
 11
2.754677
 21
0.3920731707
 31
0.0
  0
MTEXT
  5
91
330
1F
100
AcDbEntity
  8
0
  6
CONTINUOUS
 62
     7
100
AcDbMText
 10
4.9775846961
 20
0.5178452352
 30
0.0
 40
0.0625
 41
0.0
 71
     1
 72
     1
  1
DO NOT SCALE DRAWING
  7
SLDTEXTSTYLE0
  0
MTEXT
  5
92
330
1F
100
AcDbEntity
  8
0
  6
CONTINUOUS
 62
     7
100
AcDbMText
 10
8.8365564052
 20
0.9417064595
 30
0.0
 40
0.125
 41
0.0
 71
     1
 72
     1
  1
CL3-C56
  7
SLDTEXTSTYLE0
  0
MTEXT
  5
94
330
1F
100
AcDbEntity
  8
0
  6
CONTINUOUS
 62
     7
100
AcDbMText
 10
9.7571278483
 20
0.5524239532
 30
0.0
 40
0.1
 41
0.0
 71
     1
 72
     1
  1
SHEET 1 OF 1
  7
SLDTEXTSTYLE1
  0
MTEXT
  5
95
330
1F
100
AcDbEntity
  8
0
  6
CONTINUOUS
 62
     7
100
AcDbMText
 10
4.8448077858
 20
2.3132954224
 30
0.0
 40
0.07
 41
0.0
 71
     1
 72
     1
  1
UNLESS OTHERWISE SPECIFIED:
  7
SLDTEXTSTYLE0
  0
MTEXT
  5
96
330
1F
100
AcDbEntity
  8
0
  6
CONTINUOUS
 62
     7
100
AcDbMText
 10
7.9586139647
 20
0.5520987879
 30
0.0
 40
0.1
 41
0.0
 71
     1
 72
     1
  1
SCALE: 1:1
  7
SLDTEXTSTYLE0
  0
MTEXT
  5
97
330
1F
100
AcDbEntity
  8
0
  6
CONTINUOUS
 62
     7
100
AcDbMText
 10
8.7023691647
 20
0.5486763345
 30
0.0
 40
0.1
 41
0.0
 71
     1
 72
     1
  1
WEIGHT: 
  7
SLDTEXTSTYLE0
  0
MTEXT
  5
98
330
1F
100
AcDbEntity
  8
0
  6
CONTINUOUS
 62
     7
100
AcDbMText
 10
10.2277580983
 20
1.081966299
 30
0.0
 40
0.1
 41
0.0
 71
     1
 72
     1
  1
REV
  7
SLDTEXTSTYLE0
  0
MTEXT
  5
9A
330
1F
100
AcDbEntity
  8
0
  6
CONTINUOUS
 62
     7
100
AcDbMText
 10
8.2984570898
 20
1.0858725293
 30
0.0
 40
0.1
 41
0.0
 71
     1
 72
     1
  1
DWG.  NO.
  7
SLDTEXTSTYLE2
  0
MTEXT
  5
9B
330
1F
100
AcDbEntity
  8
0
  6
CONTINUOUS
 62
     7
100
AcDbMText
 10
7.9598482632
 20
0.9442140768
 30
0.0
 40
0.25
 41
0.0
 71
     1
 72
     1
  1
A
  7
SLDTEXTSTYLE0
  0
MTEXT
  5
9C
330
1F
100
AcDbEntity
  8
0
  6
CONTINUOUS
 62
     7
100
AcDbMText
 10
7.9519581822
 20
1.0872713483
 30
0.0
 40
0.1
 41
0.0
 71
     1
 72
     1
  1
SIZE
  7
SLDTEXTSTYLE0
  0
MTEXT
  5
9D
330
1F
100
AcDbEntity
  8
0
  6
CONTINUOUS
 62
     7
100
AcDbMText
 10
7.9170704177
 20
1.9547881128
 30
0.0
 40
0.1
 41
0.0
 71
     1
 72
     1
  1
TITLE:
  7
SLDTEXTSTYLE0
  0
MTEXT
  5
9E
330
1F
100
AcDbEntity
  8
0
  6
CONTINUOUS
 62
     7
100
AcDbMText
 10
7.0363774929
 20
2.2906161274
 30
0.0
 40
0.065
 41
0.0
 71
     1
 72
     1
  1
NAME
  7
SLDTEXTSTYLE0
  0
MTEXT
  5
9F
330
1F
100
AcDbEntity
  8
0
  6
CONTINUOUS
 62
     7
100
AcDbMText
 10
7.5281510634
 20
2.2888799118
 30
0.0
 40
0.065
 41
0.0
 71
     1
 72
     1
  1
DATE
  7
SLDTEXTSTYLE0
  0
MTEXT
  5
A0
330
1F
100
AcDbEntity
  8
0
  6
CONTINUOUS
 62
     7
100
AcDbMText
 10
6.2277147029
 20
1.1876913145
 30
0.0
 40
0.065
 41
0.0
 71
     1
 72
     1
  1
COMMENTS:
  7
SLDTEXTSTYLE0
  0
MTEXT
  5
A1
330
1F
100
AcDbEntity
  8
0
  6
CONTINUOUS
 62
     7
100
AcDbMText
 10
6.2268411461
 20
1.3536101679
 30
0.0
 40
0.065
 41
0.0
 71
     1
 72
     1
  1
Q.A.
  7
SLDTEXTSTYLE0
  0
MTEXT
  5
A2
330
1F
100
AcDbEntity
  8
0
  6
CONTINUOUS
 62
     7
100
AcDbMText
 10
6.2284654509
 20
1.5395328424
 30
0.0
 40
0.065
 41
0.0
 71
     1
 72
     1
  1
MFG APPR.
  7
SLDTEXTSTYLE0
  0
MTEXT
  5
A3
330
1F
100
AcDbEntity
  8
0
  6
CONTINUOUS
 62
     7
100
AcDbMText
 10
6.2235171344
 20
1.7267501785
 30
0.0
 40
0.065
 41
0.0
 71
     1
 72
     1
  1
ENG APPR.
  7
SLDTEXTSTYLE0
  0
MTEXT
  5
A4
330
1F
100
AcDbEntity
  8
0
  6
CONTINUOUS
 62
     7
100
AcDbMText
 10
6.2264103951
 20
1.9092699088
 30
0.0
 40
0.065
 41
0.0
 71
     1
 72
     1
  1
CHECKED
  7
SLDTEXTSTYLE0
  0
MTEXT
  5
A5
330
1F
100
AcDbEntity
  8
0
  6
CONTINUOUS
 62
     7
100
AcDbMText
 10
6.2242794356
 20
2.1016301232
 30
0.0
 40
0.065
 41
0.0
 71
     1
 72
     1
  1
DRAWN
  7
SLDTEXTSTYLE0
  0
MTEXT
  5
A6
330
1F
100
AcDbEntity
  8
0
  6
CONTINUOUS
 62
     7
100
AcDbMText
 10
4.8208600979
 20
0.834523235
 30
0.0
 40
0.06
 41
0.0
 71
     1
 72
     1
  1
FINISH
  7
SLDTEXTSTYLE0
  0
MTEXT
  5
A7
330
1F
100
AcDbEntity
  8
0
  6
CONTINUOUS
 62
     7
100
AcDbMText
 10
4.8181240648
 20
1.1028217587
 30
0.0
 40
0.06
 41
0.0
 71
     1
 72
     1
  1
MATERIAL
  7
SLDTEXTSTYLE0
  0
INSERT
  5
AD
330
1F
100
AcDbEntity
  8
0
  6
CONTINUOUS
 62
     7
100
AcDbBlockReference
  2
SW_NOTE_0
 10
4.8231926633
 20
1.2646542947
 30
0.0
  0
INSERT
  5
BD
330
1F
100
AcDbEntity
  8
0
  6
CONTINUOUS
 62
     7
100
AcDbBlockReference
  2
SW_NOTE_1
 10
4.8353339353
 20
2.0049168724
 30
0.0
  0
MTEXT
  5
BE
330
1F
100
AcDbEntity
  8
0
  6
CONTINUOUS
 62
     7
100
AcDbMText
 10
3.5531400086
 20
0.5200091997
 30
0.0
 40
0.0625
 41
0.0
 71
     1
 72
     1
  1
APPLICATION
  7
SLDTEXTSTYLE0
  0
MTEXT
  5
BF
330
1F
100
AcDbEntity
  8
0
  6
CONTINUOUS
 62
     7
100
AcDbMText
 10
4.1005607758
 20
0.7502454275
 30
0.0
 40
0.0625
 41
0.0
 71
     1
 72
     1
  1
USED ON
  7
SLDTEXTSTYLE0
  0
MTEXT
  5
C0
330
1F
100
AcDbEntity
  8
0
  6
CONTINUOUS
 62
     7
100
AcDbMText
 10
3.1040019536
 20
0.7492094783
 30
0.0
 40
0.0625
 41
0.0
 71
     1
 72
     1
  1
NEXT ASSY
  7
SLDTEXTSTYLE0
  0
MTEXT
  5
C1
330
1F
100
AcDbEntity
  8
0
  6
CONTINUOUS
 62
     7
100
AcDbMText
 10
1.3712489489
 20
1.2496672684
 30
0.0
 40
0.06
 41
0.0
 71
     1
 72
     1
  1
PROPRIETARY AND CONFIDENTIAL
  7
SLDTEXTSTYLE0
  0
INSERT
  5
CC
330
1F
100
AcDbEntity
  8
0
  6
CONTINUOUS
 62
     7
100
AcDbBlockReference
  2
SW_NOTE_2
 10
1.2226209074
 20
1.0313492921
 30
0.0
  0
MTEXT
  5
CD
330
1F
100
AcDbEntity
  8
0
  6
CONTINUOUS
 62
     7
100
AcDbMText
 10
1.7387909509
 20
0.3105864247
 30
0.0
 40
0.09375
 41
0.0
 71
     1
 72
     1
  1
5
  7
SLDTEXTSTYLE0
  0
MTEXT
  5
CE
330
1F
100
AcDbEntity
  8
0
  6
CONTINUOUS
 62
     7
100
AcDbMText
 10
3.723800327
 20
0.3137237518
 30
0.0
 40
0.09375
 41
0.0
 71
     1
 72
     1
  1
4
  7
SLDTEXTSTYLE0
  0
MTEXT
  5
CF
330
1F
100
AcDbEntity
  8
0
  6
CONTINUOUS
 62
     7
100
AcDbMText
 10
5.6324457277
 20
0.3116191842
 30
0.0
 40
0.09375
 41
0.0
 71
     1
 72
     1
  1
3
  7
SLDTEXTSTYLE0
  0
MTEXT
  5
D0
330
1F
100
AcDbEntity
  8
0
  6
CONTINUOUS
 62
     7
100
AcDbMText
 10
7.6059721724
 20
0.3124391351
 30
0.0
 40
0.09375
 41
0.0
 71
     1
 72
     1
  1
2
  7
SLDTEXTSTYLE0
  0
MTEXT
  5
D1
330
1F
100
AcDbEntity
  8
0
  6
CONTINUOUS
 62
     7
100
AcDbMText
 10
9.6619921328
 20
0.301372012
 30
0.0
 40
0.09375
 41
0.0
 71
     1
 72
     1
  1
1
  7
SLDTEXTSTYLE0
  0
LINE
  5
D2
330
1F
100
AcDbEntity
  8
0
  6
CONTINUOUS
 62
     7
100
AcDbLine
 10
3.6561242924
 20
2.6563160817
 30
0.0
 11
3.6758093317
 21
2.676001121
 31
0.0
  0
LINE
  5
D3
330
1F
100
AcDbEntity
  8
0
  6
CONTINUOUS
 62
     7
100
AcDbLine
 10
3.6758093317
 20
4.8413554517
 30
0.0
 11
3.6561242924
 21
4.8610404911
 31
0.0
  0
LINE
  5
D4
330
1F
100
AcDbEntity
  8
0
  6
CONTINUOUS
 62
     7
100
AcDbLine
 10
3.4250613002
 20
2.6563160817
 30
0.0
 11
3.6561242924
 21
2.6563160817
 31
0.0
  0
LINE
  5
D5
330
1F
100
AcDbEntity
  8
0
  6
CONTINUOUS
 62
     7
100
AcDbLine
 10
3.6561242924
 20
4.8610404911
 30
0.0
 11
3.4250613002
 21
4.8610404911
 31
0.0
  0
LINE
  5
D6
330
1F
100
AcDbEntity
  8
0
  6
CONTINUOUS
 62
     7
100
AcDbLine
 10
3.7807962084
 20
3.0106467903
 30
0.0
 11
4.197462875
 21
3.0106467903
 31
0.0
  0
LINE
  5
D7
330
1F
100
AcDbEntity
  8
0
  6
CONTINUOUS
 62
     7
100
AcDbLine
 10
3.6758093317
 20
3.0106467903
 30
0.0
 11
3.7283027701
 21
3.0106467903
 31
0.0
  0
LINE
  5
D8
330
1F
100
AcDbEntity
  8
0
  6
CONTINUOUS
 62
     7
100
AcDbLine
 10
3.7283027701
 20
4.5067097825
 30
0.0
 11
3.6758093317
 21
4.5067097825
 31
0.0
  0
LINE
  5
D9
330
1F
100
AcDbEntity
  8
0
  6
CONTINUOUS
 62
     7
100
AcDbLine
 10
4.197462875
 20
4.5067097825
 30
0.0
 11
3.7807962084
 21
4.5067097825
 31
0.0
  0
LINE
  5
DA
330
1F
100
AcDbEntity
  8
0
  6
CONTINUOUS
 62
     7
100
AcDbLine
 10
4.197462875
 20
3.0106467903
 30
0.0
 11
4.212462875
 21
3.0256467903
 31
0.0
  0
LINE
  5
DB
330
1F
100
AcDbEntity
  8
0
  6
CONTINUOUS
 62
     7
100
AcDbLine
 10
4.212462875
 20
4.4917097825
 30
0.0
 11
4.197462875
 21
4.5067097825
 31
0.0
  0
LINE
  5
DC
330
1F
100
AcDbEntity
  8
0
  6
CONTINUOUS
 62
     7
100
AcDbLine
 10
4.167935316
 20
4.2994311043
 30
0.0
 11
4.167935316
 21
4.3197019084
 31
0.0
  0
LINE
  5
DD
330
1F
100
AcDbEntity
  8
0
  6
CONTINUOUS
 62
     7
100
AcDbLine
 10
3.8332896467
 20
4.3197019084
 30
0.0
 11
3.8332896467
 21
4.3014722447
 31
0.0
  0
ARC
  5
DE
330
1F
100
AcDbEntity
  8
0
  6
CONTINUOUS
 62
     7
100
AcDbCircle
 10
3.8529746861
 20
4.3197019084
 30
0.0
 40
0.0196850393700787
100
AcDbArc
 50
90.0
 51
180.0
  0
ARC
  5
DF
330
1F
100
AcDbEntity
  8
0
  6
CONTINUOUS
 62
     7
100
AcDbCircle
 10
4.1482502766
 20
4.3197019084
 30
0.0
 40
0.0196850393700787
100
AcDbArc
 50
0.0
 51
90.0
  0
ARC
  5
E0
330
1F
100
AcDbEntity
  8
0
  6
CONTINUOUS
 62
     7
100
AcDbCircle
 10
4.0793526388
 20
3.2665523021
 30
0.0
 40
0.0196850393700787
100
AcDbArc
 50
270.0
 51
306.8825125239
  0
ARC
  5
E1
330
1F
100
AcDbEntity
  8
0
  6
CONTINUOUS
 62
     7
100
AcDbCircle
 10
3.9218723239
 20
3.2665523021
 30
0.0
 40
0.0196850393700787
100
AcDbArc
 50
233.6200970824
 51
270.0
  0
LINE
  5
E2
330
1F
100
AcDbEntity
  8
0
  6
CONTINUOUS
 62
     7
100
AcDbLine
 10
3.9021872845
 20
3.7783633258
 30
0.0
 11
3.9021872845
 21
3.738993247
 31
0.0
  0
LINE
  5
E3
330
1F
100
AcDbEntity
  8
0
  6
CONTINUOUS
 62
     7
100
AcDbLine
 10
4.0990376782
 20
3.738993247
 30
0.0
 11
4.0990376782
 21
3.7783633258
 31
0.0
  0
LINE
  5
E4
330
1F
100
AcDbEntity
  8
0
  6
CONTINUOUS
 62
     7
100
AcDbLine
 10
2.9971479144
 20
4.8610404911
 30
0.0
 11
2.977462875
 21
4.8413554517
 31
0.0
  0
LINE
  5
E5
330
1F
100
AcDbEntity
  8
0
  6
CONTINUOUS
 62
     7
100
AcDbLine
 10
2.977462875
 20
2.676001121
 30
0.0
 11
2.9971479144
 21
2.6563160817
 31
0.0
  0
LINE
  5
E6
330
1F
100
AcDbEntity
  8
0
  6
CONTINUOUS
 62
     7
100
AcDbLine
 10
3.2282109065
 20
4.8610404911
 30
0.0
 11
2.9971479144
 21
4.8610404911
 31
0.0
  0
LINE
  5
E7
330
1F
100
AcDbEntity
  8
0
  6
CONTINUOUS
 62
     7
100
AcDbLine
 10
2.9971479144
 20
2.6563160817
 30
0.0
 11
3.2282109065
 21
2.6563160817
 31
0.0
  0
LINE
  5
E8
330
1F
100
AcDbEntity
  8
0
  6
CONTINUOUS
 62
     7
100
AcDbLine
 10
3.2282109065
 20
3.5913554517
 30
0.0
 11
3.2872660246
 21
3.5913554517
 31
0.0
  0
LINE
  5
E9
330
1F
100
AcDbEntity
  8
0
  6
CONTINUOUS
 62
     7
100
AcDbLine
 10
3.2872660246
 20
3.926001121
 30
0.0
 11
3.2282109065
 21
3.926001121
 31
0.0
  0
LINE
  5
EA
330
1F
100
AcDbEntity
  8
0
  6
CONTINUOUS
 62
     7
100
AcDbLine
 10
3.3660061821
 20
3.5913554517
 30
0.0
 11
3.4250613002
 21
3.5913554517
 31
0.0
  0
LINE
  5
EB
330
1F
100
AcDbEntity
  8
0
  6
CONTINUOUS
 62
     7
100
AcDbLine
 10
3.4250613002
 20
3.926001121
 30
0.0
 11
3.3660061821
 21
3.926001121
 31
0.0
  0
LINE
  5
EC
330
1F
100
AcDbEntity
  8
0
  6
CONTINUOUS
 62
     7
100
AcDbLine
 10
2.977462875
 20
4.5067097825
 30
0.0
 11
2.9249694367
 21
4.5067097825
 31
0.0
  0
LINE
  5
ED
330
1F
100
AcDbEntity
  8
0
  6
CONTINUOUS
 62
     7
100
AcDbLine
 10
2.4558093317
 20
3.0106467903
 30
0.0
 11
2.977462875
 21
3.0106467903
 31
0.0
  0
LINE
  5
EE
330
1F
100
AcDbEntity
  8
0
  6
CONTINUOUS
 62
     7
100
AcDbLine
 10
2.4408093317
 20
3.0256467903
 30
0.0
 11
2.4558093317
 21
3.0106467903
 31
0.0
  0
LINE
  5
EF
330
1F
100
AcDbEntity
  8
0
  6
CONTINUOUS
 62
     7
100
AcDbLine
 10
3.3660061821
 20
4.4427334045
 30
0.0
 11
3.4250613002
 21
4.4427334045
 31
0.0
  0
LINE
  5
F0
330
1F
100
AcDbEntity
  8
0
  6
CONTINUOUS
 62
     7
100
AcDbLine
 10
3.4250613002
 20
4.7773790738
 30
0.0
 11
3.3660061821
 21
4.7773790738
 31
0.0
  0
LINE
  5
F1
330
1F
100
AcDbEntity
  8
0
  6
CONTINUOUS
 62
     7
100
AcDbLine
 10
3.2282109065
 20
4.4427334045
 30
0.0
 11
3.2872660246
 21
4.4427334045
 31
0.0
  0
LINE
  5
F2
330
1F
100
AcDbEntity
  8
0
  6
CONTINUOUS
 62
     7
100
AcDbLine
 10
3.2872660246
 20
4.7773790738
 30
0.0
 11
3.2282109065
 21
4.7773790738
 31
0.0
  0
LINE
  5
F3
330
1F
100
AcDbEntity
  8
0
  6
CONTINUOUS
 62
     7
100
AcDbLine
 10
3.2282109065
 20
2.739977499
 30
0.0
 11
3.2872660246
 21
2.739977499
 31
0.0
  0
LINE
  5
F4
330
1F
100
AcDbEntity
  8
0
  6
CONTINUOUS
 62
     7
100
AcDbLine
 10
3.2872660246
 20
3.0746231683
 30
0.0
 11
3.2282109065
 21
3.0746231683
 31
0.0
  0
LINE
  5
F5
330
1F
100
AcDbEntity
  8
0
  6
CONTINUOUS
 62
     7
100
AcDbLine
 10
3.3660061821
 20
2.739977499
 30
0.0
 11
3.4250613002
 21
2.739977499
 31
0.0
  0
LINE
  5
F6
330
1F
100
AcDbEntity
  8
0
  6
CONTINUOUS
 62
     7
100
AcDbLine
 10
3.4250613002
 20
3.0746231683
 30
0.0
 11
3.3660061821
 21
3.0746231683
 31
0.0
  0
LINE
  5
F7
330
1F
100
AcDbEntity
  8
0
  6
CONTINUOUS
 62
     7
100
AcDbLine
 10
3.2872660246
 20
2.6981467903
 30
0.0
 11
3.3660061821
 21
2.6981467903
 31
0.0
  0
LINE
  5
F8
330
1F
100
AcDbEntity
  8
0
  6
CONTINUOUS
 62
     7
100
AcDbLine
 10
3.3660061821
 20
4.8192097825
 30
0.0
 11
3.2872660246
 21
4.8192097825
 31
0.0
  0
LINE
  5
F9
330
1F
100
AcDbEntity
  8
0
  6
CONTINUOUS
 62
     7
100
AcDbLine
 10
3.6561242924
 20
2.6563160817
 30
0.0
 11
3.6561242924
 21
4.8610404911
 31
0.0
  0
LINE
  5
FA
330
1F
100
AcDbEntity
  8
0
  6
CONTINUOUS
 62
     7
100
AcDbLine
 10
3.6758093317
 20
4.8413554517
 30
0.0
 11
3.6758093317
 21
2.676001121
 31
0.0
  0
LINE
  5
FB
330
1F
100
AcDbEntity
  8
0
  6
CONTINUOUS
 62
     7
100
AcDbLine
 10
3.4250613002
 20
3.7586782864
 30
0.0
 11
3.4250613002
 21
4.8610404911
 31
0.0
  0
LINE
  5
FC
330
1F
100
AcDbEntity
  8
0
  6
CONTINUOUS
 62
     7
100
AcDbLine
 10
3.4250613002
 20
2.6563160817
 30
0.0
 11
3.4250613002
 21
3.7586782864
 31
0.0
  0
SPLINE
  5
FD
330
1F
100
AcDbEntity
  8
0
  6
CONTINUOUS
 62
     7
100
AcDbSpline
210
0.0
220
0.0
230
1.0
 70
     8
 71
     3
 72
    13
 73
     9
 74
     0
 42
0.00000001
 43
0.00000001
 40
0.0
 40
0.0
 40
0.0
 40
0.0
 40
0.1854628799590649
 40
0.3715632485470056
 40
0.5571416750000213
 40
0.7459512448425927
 40
0.9353794909595999
 40
0.9999999999999999
 40
0.9999999999999999
 40
0.9999999999999999
 40
0.9999999999999999
 10
4.105082698891975
 20
4.142536554108582
 30
0.0
 10
4.112074735999114
 20
4.152515032180204
 30
0.0
 10
4.12608284383214
 20
4.172506287188565
 30
0.0
 10
4.142186318739491
 20
4.203414513215606
 30
0.0
 10
4.155075005852433
 20
4.234421829493883
 30
0.0
 10
4.163734091428884
 20
4.264908923985851
 30
0.0
 10
4.168136918835084
 20
4.288472634687597
 30
0.0
 10
4.167473704189028
 20
4.301054056498888
 30
0.0
 10
4.167305007168629
 20
4.304254300016687
 30
0.0
  0
SPLINE
  5
FE
330
1F
100
AcDbEntity
  8
0
  6
CONTINUOUS
 62
     7
100
AcDbSpline
210
0.0
220
0.0
230
1.0
 70
     8
 71
     3
 72
    26
 73
    22
 74
     0
 42
0.00000001
 43
0.00000001
 40
0.0
 40
0.0
 40
0.0
 40
0.0
 40
0.0510304685959266
 40
0.1224434957033795
 40
0.1824697745422788
 40
0.2424474253684261
 40
0.3028449425174603
 40
0.363202019129306
 40
0.4161782989462758
 40
0.4691441219424521
 40
0.5183795718763492
 40
0.5676168932216261
 40
0.616116851847393
 40
0.6646273564057218
 40
0.7144260143008738
 40
0.7642449307656274
 40
0.8177865818885833
 40
0.8713591677161697
 40
0.9322888531484568
 40
0.9932603705131651
 40
1.0
 40
1.0
 40
1.0
 40
1.0
 10
4.165048189054225
 20
4.329417940103936
 30
0.0
 10
4.163873517928142
 20
4.335040363925154
 30
0.0
 10
4.161054989254256
 20
4.348530916646648
 30
0.0
 10
4.151077937784515
 20
4.366451354136039
 30
0.0
 10
4.136215010325167
 20
4.383171333386574
 30
0.0
 10
4.117800670991727
 20
4.396699706718726
 30
0.0
 10
4.095046330541796
 20
4.40763178811854
 30
0.0
 10
4.069666084825807
 20
4.41552630464845
 30
0.0
 10
4.042851806023759
 20
4.420479871823829
 30
0.0
 10
4.016481126575834
 20
4.422895648895647
 30
0.0
 10
3.990264178812181
 20
4.423074488466268
 30
0.0
 10
3.965115063693163
 20
4.421282431921007
 30
0.0
 10
3.941132001593691
 20
4.417500322553773
 30
0.0
 10
3.918672180277556
 20
4.411809386877845
 30
0.0
 10
3.898285226173705
 20
4.404112016298848
 30
0.0
 10
3.879897222912438
 20
4.394291512471857
 30
0.0
 10
3.864327324914479
 20
4.382300924928264
 30
0.0
 10
3.851087496224379
 20
4.367697141452474
 30
0.0
 10
3.841780711933462
 20
4.350424459205173
 30
0.0
 10
3.836311946444825
 20
4.337147006140057
 30
0.0
 10
3.835786388895293
 20
4.329328441987208
 30
0.0
 10
3.835734077520836
 20
4.328550221148255
 30
0.0
  0
SPLINE
  5
FF
330
1F
100
AcDbEntity
  8
0
  6
CONTINUOUS
 62
     7
100
AcDbSpline
210
0.0
220
0.0
230
1.0
 70
     8
 71
     3
 72
    13
 73
     9
 74
     0
 42
0.00000001
 43
0.00000001
 40
0.0
 40
0.0
 40
0.0
 40
0.0
 40
0.038453379107692
 40
0.2576973583557648
 40
0.4460727571060783
 40
0.6350887435708881
 40
0.8235527191987878
 40
1.0
 40
1.0
 40
1.0
 40
1.0
 10
3.833854528147197
 20
4.304290753975308
 30
0.0
 10
3.833678999188296
 20
4.30241164040925
 30
0.0
 10
3.832502682566114
 20
4.289818661241742
 30
0.0
 10
3.837290319356616
 20
4.265967601435884
 30
0.0
 10
3.846320238902725
 20
4.233657164430556
 30
0.0
 10
3.859542040866922
 20
4.202378510582221
 30
0.0
 10
3.875754335851881
 20
4.171696984003215
 30
0.0
 10
3.889497140085216
 20
4.152040936524395
 30
0.0
 10
3.896142263782644
 20
4.142536554108582
 30
0.0
  0
SPLINE
  5
100
330
1F
100
AcDbEntity
  8
0
  6
CONTINUOUS
 62
     7
100
AcDbSpline
210
0.0
220
0.0
230
1.0
 70
     8
 71
     3
 72
    64
 73
    60
 74
     0
 42
0.00000001
 43
0.00000001
 40
-0.0312499999999997
 40
-0.0312499999999997
 40
0.0
 40
0.0
 40
0.0312499999999998
 40
0.0312499999999998
 40
0.0624999999999997
 40
0.0624999999999997
 40
0.0937499999999995
 40
0.0937499999999995
 40
0.1249999999999993
 40
0.1249999999999993
 40
0.1874999999999994
 40
0.1874999999999994
 40
0.2187499999999994
 40
0.2187499999999994
 40
0.2499999999999995
 40
0.2499999999999995
 40
0.3125000000000001
 40
0.3125000000000001
 40
0.3437500000000003
 40
0.3437500000000003
 40
0.3750000000000004
 40
0.3750000000000004
 40
0.4062500000000007
 40
0.4062500000000007
 40
0.4375000000000009
 40
0.4375000000000009
 40
0.4687500000000011
 40
0.4687500000000011
 40
0.5000000000000013
 40
0.5000000000000013
 40
0.5312500000000014
 40
0.5312500000000014
 40
0.5625000000000017
 40
0.5625000000000017
 40
0.5937500000000018
 40
0.5937500000000018
 40
0.6250000000000019
 40
0.6250000000000019
 40
0.6562500000000019
 40
0.6562500000000019
 40
0.687500000000002
 40
0.687500000000002
 40
0.718750000000002
 40
0.718750000000002
 40
0.750000000000002
 40
0.750000000000002
 40
0.8125000000000017
 40
0.8125000000000017
 40
0.8437500000000014
 40
0.8437500000000014
 40
0.8750000000000011
 40
0.8750000000000011
 40
0.9062500000000009
 40
0.9062500000000009
 40
0.9375000000000006
 40
0.9375000000000006
 40
0.9687500000000003
 40
0.9687500000000003
 40
1.0
 40
1.0
 40
1.03125
 40
1.03125
 10
3.992720023950268
 20
3.325376663131273
 30
0.0
 10
4.00850493872435
 20
3.325376663131273
 30
0.0
 10
4.016060215614765
 20
3.324057203439746
 30
0.0
 10
4.030611799242708
 20
3.319260638730571
 30
0.0
 10
4.037236728905968
 20
3.315912306177791
 30
0.0
 10
4.049435041084779
 20
3.308017993412813
 30
0.0
 10
4.054859942815091
 20
3.303567356867921
 30
0.0
 10
4.064659716259516
 20
3.294114022010794
 30
0.0
 10
4.069078196643094
 20
3.289051134100848
 30
0.0
 10
4.080857266860771
 20
3.273484792666952
 30
0.0
 10
4.08676642251027
 20
3.262716276034652
 30
0.0
 10
4.093255119093153
 20
3.246272428557318
 30
0.0
 10
4.095000709717795
 20
3.24073555753763
 30
0.0
 10
4.097576205854676
 20
3.229843465955598
 30
0.0
 10
4.098421590780585
 20
3.224452951844059
 30
0.0
 10
4.099570511200385
 20
3.208452000266225
 30
0.0
 10
4.098456584003123
 20
3.197898041776646
 30
0.0
 10
4.093427773265005
 20
3.183271335762778
 30
0.0
 10
4.091195724439326
 20
3.178566398196714
 30
0.0
 10
4.085412047628091
 20
3.169509509823529
 30
0.0
 10
4.08190976512638
 20
3.165247431271658
 30
0.0
 10
4.073639008730012
 20
3.157375582013766
 30
0.0
 10
4.068792813408155
 20
3.153707414633977
 30
0.0
 10
4.057871653845812
 20
3.147241756798759
 30
0.0
 10
4.051850749906485
 20
3.144453816454406
 30
0.0
 10
4.038533924359641
 20
3.13980591578319
 30
0.0
 10
4.031395867818407
 20
3.13801409819515
 30
0.0
 10
4.016557983556464
 20
3.135590222015592
 30
0.0
 10
4.008676987547941
 20
3.134947190064615
 30
0.0
 10
3.993170467900697
 20
3.134914729520979
 30
0.0
 10
3.985342788879251
 20
3.135514809907469
 30
0.0
 10
3.970345768718862
 20
3.137897387528879
 30
0.0
 10
3.963209233428462
 20
3.13965923301273
 30
0.0
 10
3.949801851443951
 20
3.144272712776319
 30
0.0
 10
3.943736361364314
 20
3.147048650588189
 30
0.0
 10
3.932728002104447
 20
3.153500606922879
 30
0.0
 10
3.927866444335378
 20
3.15714514506197
 30
0.0
 10
3.919508074843767
 20
3.165029348292784
 30
0.0
 10
3.915945191704088
 20
3.169340062499991
 30
0.0
 10
3.910160995893345
 20
3.17832407070249
 30
0.0
 10
3.907907178411539
 20
3.18301442401419
 30
0.0
 10
3.904506064059958
 20
3.192783954984916
 30
0.0
 10
3.903359461845003
 20
3.197903470415466
 30
0.0
 10
3.902130447467666
 20
3.208267303558943
 30
0.0
 10
3.90203418288715
 20
3.213524656238546
 30
0.0
 10
3.903137542944795
 20
3.22952311005705
 30
0.0
 10
3.905764841132016
 20
3.240629122108375
 30
0.0
 10
3.912195697506945
 20
3.25700860334229
 30
0.0
 10
3.914753345174888
 20
3.262433900357445
 30
0.0
 10
3.92074633119224
 20
3.273184522186585
 30
0.0
 10
3.924201303634455
 20
3.278538987519328
 30
0.0
 10
3.93205994107986
 20
3.288948136993072
 30
0.0
 10
3.936424014208062
 20
3.293962675178264
 30
0.0
 10
3.946233904659294
 20
3.303455570763342
 30
0.0
 10
3.951738080901252
 20
3.307972701073112
 30
0.0
 10
3.963816275677248
 20
3.315812548379862
 30
0.0
 10
3.970533716970643
 20
3.319218547908763
 30
0.0
 10
3.984952032418819
 20
3.324002671692049
 30
0.0
 10
3.992720023950268
 20
3.325376663131273
 30
0.0
 10
4.00850493872435
 20
3.325376663131273
 30
0.0
  0
LINE
  5
101
330
1F
100
AcDbEntity
  8
0
  6
CONTINUOUS
 62
     7
100
AcDbLine
 10
3.7807962084
 20
3.738993247
 30
0.0
 11
3.7807962084
 21
3.0106467903
 31
0.0
  0
LINE
  5
102
330
1F
100
AcDbEntity
  8
0
  6
CONTINUOUS
 62
     7
100
AcDbLine
 10
4.197462875
 20
3.738993247
 30
0.0
 11
3.7807962084
 21
3.738993247
 31
0.0
  0
LINE
  5
103
330
1F
100
AcDbEntity
  8
0
  6
CONTINUOUS
 62
     7
100
AcDbLine
 10
4.197462875
 20
3.7783633258
 30
0.0
 11
4.197462875
 21
4.5067097825
 31
0.0
  0
LINE
  5
104
330
1F
100
AcDbEntity
  8
0
  6
CONTINUOUS
 62
     7
100
AcDbLine
 10
4.197462875
 20
3.0106467903
 30
0.0
 11
4.197462875
 21
3.738993247
 31
0.0
  0
LINE
  5
105
330
1F
100
AcDbEntity
  8
0
  6
CONTINUOUS
 62
     7
100
AcDbLine
 10
4.197462875
 20
3.7783633258
 30
0.0
 11
3.7807962084
 21
3.7783633258
 31
0.0
  0
LINE
  5
106
330
1F
100
AcDbEntity
  8
0
  6
CONTINUOUS
 62
     7
100
AcDbLine
 10
3.7807962084
 20
4.5067097825
 30
0.0
 11
3.7807962084
 21
3.7783633258
 31
0.0
  0
LINE
  5
107
330
1F
100
AcDbEntity
  8
0
  6
CONTINUOUS
 62
     7
100
AcDbLine
 10
3.7283027701
 20
4.3947213738
 30
0.0
 11
3.7807962084
 21
4.3947213738
 31
0.0
  0
LINE
  5
108
330
1F
100
AcDbEntity
  8
0
  6
CONTINUOUS
 62
     7
100
AcDbLine
 10
3.7283027701
 20
3.0106467903
 30
0.0
 11
3.7283027701
 21
4.5067097825
 31
0.0
  0
LINE
  5
109
330
1F
100
AcDbEntity
  8
0
  6
CONTINUOUS
 62
     7
100
AcDbLine
 10
3.7807962084
 20
3.1226351989
 30
0.0
 11
3.7283027701
 21
3.1226351989
 31
0.0
  0
LINE
  5
10A
330
1F
100
AcDbEntity
  8
0
  6
CONTINUOUS
 62
     7
100
AcDbLine
 10
4.212462875
 20
3.738993247
 30
0.0
 11
4.212462875
 21
3.0256467903
 31
0.0
  0
LINE
  5
10B
330
1F
100
AcDbEntity
  8
0
  6
CONTINUOUS
 62
     7
100
AcDbLine
 10
4.212462875
 20
4.4917097825
 30
0.0
 11
4.212462875
 21
3.7783633258
 31
0.0
  0
LINE
  5
10C
330
1F
100
AcDbEntity
  8
0
  6
CONTINUOUS
 62
     7
100
AcDbLine
 10
4.197462875
 20
3.7783633258
 30
0.0
 11
4.212462875
 21
3.7783633258
 31
0.0
  0
LINE
  5
10D
330
1F
100
AcDbEntity
  8
0
  6
CONTINUOUS
 62
     7
100
AcDbLine
 10
4.197462875
 20
3.738993247
 30
0.0
 11
4.212462875
 21
3.738993247
 31
0.0
  0
LINE
  5
10E
330
1F
100
AcDbEntity
  8
0
  6
CONTINUOUS
 62
     7
100
AcDbLine
 10
4.212462875
 20
3.7783633258
 30
0.0
 11
4.212462875
 21
3.738993247
 31
0.0
  0
LINE
  5
10F
330
1F
100
AcDbEntity
  8
0
  6
CONTINUOUS
 62
     7
100
AcDbLine
 10
3.7807962084
 20
3.738993247
 30
0.0
 11
3.7807962084
 21
3.7783633258
 31
0.0
  0
LINE
  5
110
330
1F
100
AcDbEntity
  8
0
  6
CONTINUOUS
 62
     7
100
AcDbLine
 10
4.0006124813
 20
4.1425365541
 30
0.0
 11
4.105542675
 21
4.1425365541
 31
0.0
  0
LINE
  5
111
330
1F
100
AcDbEntity
  8
0
  6
CONTINUOUS
 62
     7
100
AcDbLine
 10
3.895756031
 20
4.1425365541
 30
0.0
 11
4.0006124813
 21
4.1425365541
 31
0.0
  0
LINE
  5
112
330
1F
100
AcDbEntity
  8
0
  6
CONTINUOUS
 62
     7
100
AcDbLine
 10
4.0006124813
 20
4.3393869478
 30
0.0
 11
4.1482502766
 21
4.3393869478
 31
0.0
  0
LINE
  5
113
330
1F
100
AcDbEntity
  8
0
  6
CONTINUOUS
 62
     7
100
AcDbLine
 10
3.8529746861
 20
4.3393869478
 30
0.0
 11
4.0006124813
 21
4.3393869478
 31
0.0
  0
LINE
  5
114
330
1F
100
AcDbEntity
  8
0
  6
CONTINUOUS
 62
     7
100
AcDbLine
 10
4.0793526388
 20
3.2468672628
 30
0.0
 11
3.9218723239
 21
3.2468672628
 31
0.0
  0
CIRCLE
  5
115
330
1F
100
AcDbEntity
  8
0
  6
CONTINUOUS
 62
     7
100
AcDbCircle
 10
2.6526597254
 20
4.2700078127
 30
0.0
 40
0.0787401574803148
  0
ARC
  5
116
330
1F
100
AcDbEntity
  8
0
  6
CONTINUOUS
 62
     7
100
AcDbCircle
 10
2.6526597254
 20
4.2700078127
 30
0.0
 40
0.0984251968503935
100
AcDbArc
 50
31.9059990246
 51
148.0940009754
  0
LINE
  5
117
330
1F
100
AcDbEntity
  8
0
  6
CONTINUOUS
 62
     7
100
AcDbLine
 10
2.9971479144
 20
2.6563160817
 30
0.0
 11
2.9971479144
 21
4.8610404911
 31
0.0
  0
LINE
  5
118
330
1F
100
AcDbEntity
  8
0
  6
CONTINUOUS
 62
     7
100
AcDbLine
 10
2.977462875
 20
4.8413554517
 30
0.0
 11
2.977462875
 21
2.676001121
 31
0.0
  0
LINE
  5
119
330
1F
100
AcDbEntity
  8
0
  6
CONTINUOUS
 62
     7
100
AcDbLine
 10
3.2282109065
 20
2.6563160817
 30
0.0
 11
3.2282109065
 21
4.8610404911
 31
0.0
  0
LINE
  5
11A
330
1F
100
AcDbEntity
  8
0
  6
CONTINUOUS
 62
     7
100
AcDbLine
 10
3.3660061821
 20
3.9065721752
 30
0.0
 11
3.2872660246
 21
3.9065721752
 31
0.0
  0
LINE
  5
11B
330
1F
100
AcDbEntity
  8
0
  6
CONTINUOUS
 62
     7
100
AcDbLine
 10
3.3660061821
 20
3.9065721752
 30
0.0
 11
3.3660061821
 21
3.6107843976
 31
0.0
  0
LINE
  5
11C
330
1F
100
AcDbEntity
  8
0
  6
CONTINUOUS
 62
     7
100
AcDbLine
 10
3.3660061821
 20
3.6107843976
 30
0.0
 11
3.2872660246
 21
3.6107843976
 31
0.0
  0
LINE
  5
11D
330
1F
100
AcDbEntity
  8
0
  6
CONTINUOUS
 62
     7
100
AcDbLine
 10
3.2872660246
 20
3.9065721752
 30
0.0
 11
3.2872660246
 21
3.6107843976
 31
0.0
  0
LINE
  5
11E
330
1F
100
AcDbEntity
  8
0
  6
CONTINUOUS
 62
     7
100
AcDbLine
 10
3.3660061821
 20
2.7594064449
 30
0.0
 11
3.2872660246
 21
2.7594064449
 31
0.0
  0
LINE
  5
11F
330
1F
100
AcDbEntity
  8
0
  6
CONTINUOUS
 62
     7
100
AcDbLine
 10
3.3660061821
 20
3.6107843976
 30
0.0
 11
3.3660061821
 21
2.7594064449
 31
0.0
  0
LINE
  5
120
330
1F
100
AcDbEntity
  8
0
  6
CONTINUOUS
 62
     7
100
AcDbLine
 10
3.2872660246
 20
3.6107843976
 30
0.0
 11
3.2872660246
 21
2.7594064449
 31
0.0
  0
LINE
  5
121
330
1F
100
AcDbEntity
  8
0
  6
CONTINUOUS
 62
     7
100
AcDbLine
 10
3.3660061821
 20
4.7579501279
 30
0.0
 11
3.2872660246
 21
4.7579501279
 31
0.0
  0
LINE
  5
122
330
1F
100
AcDbEntity
  8
0
  6
CONTINUOUS
 62
     7
100
AcDbLine
 10
3.3660061821
 20
4.7579501279
 30
0.0
 11
3.3660061821
 21
3.9065721752
 31
0.0
  0
LINE
  5
123
330
1F
100
AcDbEntity
  8
0
  6
CONTINUOUS
 62
     7
100
AcDbLine
 10
3.2872660246
 20
4.7579501279
 30
0.0
 11
3.2872660246
 21
3.9065721752
 31
0.0
  0
SPLINE
  5
124
330
1F
100
AcDbEntity
  8
0
  6
CONTINUOUS
 62
     7
100
AcDbSpline
210
0.0
220
0.0
230
1.0
 70
     8
 71
     3
 72
    64
 73
    60
 74
     0
 42
0.00000001
 43
0.00000001
 40
-0.0312499999999997
 40
-0.0312499999999997
 40
0.0
 40
0.0
 40
0.0312500000000001
 40
0.0312500000000001
 40
0.0625000000000003
 40
0.0625000000000003
 40
0.0937500000000004
 40
0.0937500000000004
 40
0.1250000000000006
 40
0.1250000000000006
 40
0.1875000000000013
 40
0.1875000000000013
 40
0.2187500000000015
 40
0.2187500000000015
 40
0.2500000000000017
 40
0.2500000000000017
 40
0.3125000000000019
 40
0.3125000000000019
 40
0.343750000000002
 40
0.343750000000002
 40
0.3750000000000021
 40
0.3750000000000021
 40
0.4062500000000021
 40
0.4062500000000021
 40
0.4375000000000021
 40
0.4375000000000021
 40
0.4687500000000021
 40
0.4687500000000021
 40
0.5000000000000021
 40
0.5000000000000021
 40
0.5312500000000022
 40
0.5312500000000022
 40
0.5625000000000023
 40
0.5625000000000023
 40
0.5937500000000023
 40
0.5937500000000023
 40
0.6250000000000021
 40
0.6250000000000021
 40
0.656250000000002
 40
0.656250000000002
 40
0.6875000000000018
 40
0.6875000000000018
 40
0.7187500000000016
 40
0.7187500000000016
 40
0.7500000000000013
 40
0.7500000000000013
 40
0.8125000000000012
 40
0.8125000000000012
 40
0.843750000000001
 40
0.843750000000001
 40
0.8750000000000009
 40
0.8750000000000009
 40
0.9062500000000007
 40
0.9062500000000007
 40
0.9375000000000004
 40
0.9375000000000004
 40
0.9687500000000003
 40
0.9687500000000003
 40
1.0
 40
1.0
 40
1.03125
 40
1.03125
 10
2.660552182818837
 20
4.368433009524077
 30
0.0
 10
2.644767268044755
 20
4.368433009524076
 30
0.0
 10
2.63721199115434
 20
4.367500399659841
 30
0.0
 10
2.622660407526398
 20
4.364047580520968
 30
0.0
 10
2.616035477863137
 20
4.361615780801835
 30
0.0
 10
2.603837165684327
 20
4.355738279803192
 30
0.0
 10
2.598412263954014
 20
4.352362607723177
 30
0.0
 10
2.588612490509589
 20
4.344994818503007
 30
0.0
 10
2.584194010126011
 20
4.340955323739798
 30
0.0
 10
2.572414939908335
 20
4.328168196668408
 30
0.0
 10
2.566505784258834
 20
4.318852406892638
 30
0.0
 10
2.560017087675952
 20
4.303698392839896
 30
0.0
 10
2.558271497051309
 20
4.298441711156498
 30
0.0
 10
2.55569600091443
 20
4.28777464602851
 30
0.0
 10
2.554850615988521
 20
4.282332477697315
 30
0.0
 10
2.553701695568719
 20
4.26566877676381
 30
0.0
 10
2.554815622765982
 20
4.253959987299455
 30
0.0
 10
2.5598444335041
 20
4.236710494507115
 30
0.0
 10
2.562076482329779
 20
4.230985403946685
 30
0.0
 10
2.567860159141014
 20
4.219638120689005
 30
0.0
 10
2.571362441642725
 20
4.214127188643069
 30
0.0
 10
2.579633198039093
 20
4.203682713423894
 30
0.0
 10
2.58447939336095
 20
4.198669423519931
 30
0.0
 10
2.595400552923293
 20
4.189639220475086
 30
0.0
 10
2.60142145686262
 20
4.185639950751725
 30
0.0
 10
2.614738282409463
 20
4.178874610983226
 30
0.0
 10
2.621876338950699
 20
4.17620893218165
 30
0.0
 10
2.636714223212641
 20
4.172583032336326
 30
0.0
 10
2.644595219221165
 20
4.171607625917556
 30
0.0
 10
2.660101738868409
 20
4.171558589974509
 30
0.0
 10
2.667929417889854
 20
4.172469294952496
 30
0.0
 10
2.682926438050242
 20
4.176035199353192
 30
0.0
 10
2.690062973340643
 20
4.178658219275395
 30
0.0
 10
2.703470355325154
 20
4.185379028811433
 30
0.0
 10
2.709535845404791
 20
4.189365010028823
 30
0.0
 10
2.720544204664658
 20
4.19838482669234
 30
0.0
 10
2.725405762433727
 20
4.203371386595675
 30
0.0
 10
2.733764131925338
 20
4.213843104651061
 30
0.0
 10
2.737327015065016
 20
4.219420607752953
 30
0.0
 10
2.743111210875759
 20
4.230686774837583
 30
0.0
 10
2.745365028357567
 20
4.236401377711656
 30
0.0
 10
2.748766142709147
 20
4.247934701893196
 30
0.0
 10
2.749912744924103
 20
4.253797078048517
 30
0.0
 10
2.75114175930144
 20
4.265293290178579
 30
0.0
 10
2.751238023881954
 20
4.270945778668618
 30
0.0
 10
2.750134663824311
 20
4.287623745303102
 30
0.0
 10
2.747507365637089
 20
4.298490142033682
 30
0.0
 10
2.74107650926216
 20
4.313596129376037
 30
0.0
 10
2.738518861594218
 20
4.318449109647886
 30
0.0
 10
2.732525875576866
 20
4.327798370519281
 30
0.0
 10
2.729070903134649
 20
4.332318203344552
 30
0.0
 10
2.721212265689245
 20
4.340872487143718
 30
0.0
 10
2.716848192561043
 20
4.344875135632862
 30
0.0
 10
2.707038302109811
 20
4.352277161509988
 30
0.0
 10
2.701534125867853
 20
4.355703815211991
 30
0.0
 10
2.689455931091856
 20
4.361542238536592
 30
0.0
 10
2.682738489798462
 20
4.364016989399651
 30
0.0
 10
2.668320174350287
 20
4.3674614309451
 30
0.0
 10
2.660552182818837
 20
4.368433009524077
 30
0.0
 10
2.644767268044755
 20
4.368433009524076
 30
0.0
  0
LINE
  5
125
330
1F
100
AcDbEntity
  8
0
  6
CONTINUOUS
 62
     7
100
AcDbLine
 10
2.4558093317
 20
3.0106467903
 30
0.0
 11
2.4558093317
 21
4.5064507239
 31
0.0
  0
LINE
  5
126
330
1F
100
AcDbEntity
  8
0
  6
CONTINUOUS
 62
     7
100
AcDbLine
 10
2.4558093317
 20
4.5064507239
 30
0.0
 11
2.8724759984
 21
4.5064507239
 31
0.0
  0
LINE
  5
127
330
1F
100
AcDbEntity
  8
0
  6
CONTINUOUS
 62
     7
100
AcDbLine
 10
2.8724759984
 20
4.5064507239
 30
0.0
 11
2.8724759984
 21
3.364977499
 31
0.0
  0
LINE
  5
128
330
1F
100
AcDbEntity
  8
0
  6
CONTINUOUS
 62
     7
100
AcDbLine
 10
2.8724759984
 20
3.364977499
 30
0.0
 11
2.9249694367
 21
3.364977499
 31
0.0
  0
LINE
  5
129
330
1F
100
AcDbEntity
  8
0
  6
CONTINUOUS
 62
     7
100
AcDbLine
 10
2.9249694367
 20
3.364977499
 30
0.0
 11
2.9249694367
 21
4.5067097825
 31
0.0
  0
LINE
  5
12A
330
1F
100
AcDbEntity
  8
0
  6
CONTINUOUS
 62
     7
100
AcDbLine
 10
2.4408093317
 20
4.4914454209
 30
0.0
 11
2.4408093317
 21
3.0256467903
 31
0.0
  0
LINE
  5
12B
330
1F
100
AcDbEntity
  8
0
  6
CONTINUOUS
 62
     7
100
AcDbLine
 10
2.4558093317
 20
4.5064507239
 30
0.0
 11
2.4408093317
 21
4.4914454209
 31
0.0
  0
LINE
  5
12C
330
1F
100
AcDbEntity
  8
0
  6
CONTINUOUS
 62
     7
100
AcDbLine
 10
3.3660061821
 20
2.7594064449
 30
0.0
 11
3.3660061821
 21
2.6981467903
 31
0.0
  0
LINE
  5
12D
330
1F
100
AcDbEntity
  8
0
  6
CONTINUOUS
 62
     7
100
AcDbLine
 10
3.2872660246
 20
2.7594064449
 30
0.0
 11
3.2872660246
 21
2.6981467903
 31
0.0
  0
LINE
  5
12E
330
1F
100
AcDbEntity
  8
0
  6
CONTINUOUS
 62
     7
100
AcDbLine
 10
3.3660061821
 20
4.8192097825
 30
0.0
 11
3.3660061821
 21
4.7579501279
 31
0.0
  0
LINE
  5
12F
330
1F
100
AcDbEntity
  8
0
  6
CONTINUOUS
 62
     7
100
AcDbLine
 10
3.2872660246
 20
4.8192097825
 30
0.0
 11
3.2872660246
 21
4.7579501279
 31
0.0
  0
LINE
  5
130
330
1F
100
AcDbEntity
  8
0
  6
CONTINUOUS
 62
     8
100
AcDbLine
 10
4.0006124813
 20
4.3197019084
 30
0.0
 11
3.8332896467
 21
4.3197019084
 31
0.0
  0
LINE
  5
131
330
1F
100
AcDbEntity
  8
0
  6
CONTINUOUS
 62
     8
100
AcDbLine
 10
4.167935316
 20
4.3197019084
 30
0.0
 11
4.0006124813
 21
4.3197019084
 31
0.0
  0
LINE
  5
132
330
1F
100
AcDbEntity
  8
0
  6
CONTINUOUS
 62
     8
100
AcDbLine
 10
3.9167170971
 20
3.2665523021
 30
0.0
 11
4.0848109919
 21
3.2665523021
 31
0.0
  0
SPLINE
  5
133
330
1F
100
AcDbEntity
  8
0
  6
HIDDEN
 62
     7
100
AcDbSpline
210
0.0
220
0.0
230
1.0
 70
     8
 71
     3
 72
     9
 73
     5
 74
     0
 42
0.00000001
 43
0.00000001
 40
0.0
 40
0.0
 40
0.0
 40
0.0
 40
0.7207695988163347
 40
1.0
 40
1.0
 40
1.0
 40
1.0
 10
4.167305007168629
 20
4.304254300016687
 30
0.0
 10
4.167566440953918
 20
4.310579833493276
 30
0.0
 10
4.167929155732284
 20
4.319355916012539
 30
0.0
 10
4.165677046436419
 20
4.327221601570112
 30
0.0
 10
4.165048189054225
 20
4.329417940103936
 30
0.0
  0
LINE
  5
134
330
1F
100
AcDbEntity
  8
0
  6
HIDDEN
 62
     7
100
AcDbLine
 10
3.8357340775
 20
4.3285502211
 30
0.0
 11
3.8338545281
 21
4.304290754
 31
0.0
  0
LINE
  5
135
330
1F
100
AcDbEntity
  8
0
  6
HIDDEN
 62
     7
100
AcDbLine
 10
4.197462875
 20
3.7783633258
 30
0.0
 11
4.197462875
 21
3.738993247
 31
0.0
  0
LINE
  5
136
330
1F
100
AcDbEntity
  8
0
  6
HIDDEN
 62
     7
100
AcDbLine
 10
4.1050826989
 20
4.1425365541
 30
0.0
 11
4.167935316
 21
4.1425365541
 31
0.0
  0
LINE
  5
137
330
1F
100
AcDbEntity
  8
0
  6
HIDDEN
 62
     7
100
AcDbLine
 10
3.8332896467
 20
4.1425365541
 30
0.0
 11
3.8961422638
 21
4.1425365541
 31
0.0
  0
LINE
  5
138
330
1F
100
AcDbEntity
  8
0
  6
HIDDEN
 62
     7
100
AcDbLine
 10
4.105542675
 20
4.1425365541
 30
0.0
 11
4.167935316
 21
4.1425365541
 31
0.0
  0
LINE
  5
139
330
1F
100
AcDbEntity
  8
0
  6
HIDDEN
 62
     7
100
AcDbLine
 10
3.8332896467
 20
4.1425365541
 30
0.0
 11
3.895756031
 21
4.1425365541
 31
0.0
  0
LINE
  5
13A
330
1F
100
AcDbEntity
  8
0
  6
HIDDEN
 62
     7
100
AcDbLine
 10
3.9218723239
 20
4.1819066328
 30
0.0
 11
4.0006124813
 21
4.1819066328
 31
0.0
  0
LINE
  5
13B
330
1F
100
AcDbEntity
  8
0
  6
HIDDEN
 62
     7
100
AcDbLine
 10
4.0006124813
 20
4.1819066328
 30
0.0
 11
4.0006124813
 21
4.3393869478
 31
0.0
  0
LINE
  5
13C
330
1F
100
AcDbEntity
  8
0
  6
HIDDEN
 62
     7
100
AcDbLine
 10
4.0006124813
 20
4.1819066328
 30
0.0
 11
4.0793526388
 21
4.1819066328
 31
0.0
  0
LINE
  5
13D
330
1F
100
AcDbEntity
  8
0
  6
HIDDEN
 62
     7
100
AcDbLine
 10
4.0793526388
 20
4.1819066328
 30
0.0
 11
4.0793526388
 21
4.3393869478
 31
0.0
  0
LINE
  5
13E
330
1F
100
AcDbEntity
  8
0
  6
HIDDEN
 62
     7
100
AcDbLine
 10
3.9218723239
 20
4.1819066328
 30
0.0
 11
3.9218723239
 21
4.3393869478
 31
0.0
  0
ARC
  5
13F
330
1F
100
AcDbEntity
  8
0
  6
HIDDEN
 62
     7
100
AcDbCircle
 10
2.6526597254
 20
4.2700078127
 30
0.0
 40
0.0984251968503935
100
AcDbArc
 50
0.0
 51
31.9059990246
  0
ARC
  5
140
330
1F
100
AcDbEntity
  8
0
  6
HIDDEN
 62
     7
100
AcDbCircle
 10
2.6526597254
 20
4.2700078127
 30
0.0
 40
0.0984251968503935
100
AcDbArc
 50
148.0940009754
 51
270.0
  0
CIRCLE
  5
141
330
1F
100
AcDbEntity
  8
0
  6
HIDDEN
 62
     7
100
AcDbCircle
 10
2.6526597254
 20
4.2700078127
 30
0.0
 40
0.1673228346456694
  0
LINE
  5
142
330
1F
100
AcDbEntity
  8
0
  6
HIDDEN
 62
     7
100
AcDbLine
 10
2.6526597254
 20
4.1790865104
 30
0.0
 11
2.7313998829
 21
4.2245471616
 31
0.0
  0
LINE
  5
143
330
1F
100
AcDbEntity
  8
0
  6
HIDDEN
 62
     7
100
AcDbLine
 10
2.573919568
 20
4.2245471616
 30
0.0
 11
2.6526597254
 21
4.1790865104
 31
0.0
  0
LINE
  5
144
330
1F
100
AcDbEntity
  8
0
  6
HIDDEN
 62
     7
100
AcDbLine
 10
2.7313998829
 20
4.2245471616
 30
0.0
 11
2.7313998829
 21
4.3154684638
 31
0.0
  0
LINE
  5
145
330
1F
100
AcDbEntity
  8
0
  6
HIDDEN
 62
     7
100
AcDbLine
 10
2.573919568
 20
4.3154684638
 30
0.0
 11
2.573919568
 21
4.2245471616
 31
0.0
  0
LINE
  5
146
330
1F
100
AcDbEntity
  8
0
  6
HIDDEN
 62
     7
100
AcDbLine
 10
2.6526597254
 20
4.3609291149
 30
0.0
 11
2.573919568
 21
4.3154684638
 31
0.0
  0
LINE
  5
147
330
1F
100
AcDbEntity
  8
0
  6
HIDDEN
 62
     7
100
AcDbLine
 10
2.7313998829
 20
4.3154684638
 30
0.0
 11
2.6526597254
 21
4.3609291149
 31
0.0
  0
CIRCLE
  5
148
330
1F
100
AcDbEntity
  8
0
  6
HIDDEN
 62
     7
100
AcDbCircle
 10
2.6526597254
 20
4.2700078127
 30
0.0
 40
0.1476377952755907
  0
LINE
  5
149
330
1F
100
AcDbEntity
  8
0
  6
HIDDEN
 62
     7
100
AcDbLine
 10
2.757129943
 20
4.4007093989
 30
0.0
 11
2.5481895079
 21
4.4007093989
 31
0.0
  0
LINE
  5
14A
330
1F
100
AcDbEntity
  8
0
  6
HIDDEN
 62
     7
100
AcDbLine
 10
3.3660061821
 20
2.7594064449
 30
0.0
 11
3.2872660246
 21
2.7594064449
 31
0.0
  0
LINE
  5
14B
330
1F
100
AcDbEntity
  8
0
  6
HIDDEN
 62
     7
100
AcDbLine
 10
3.3660061821
 20
4.7579501279
 30
0.0
 11
3.2872660246
 21
4.7579501279
 31
0.0
  0
ARC
  5
14C
330
1F
100
AcDbEntity
  8
0
  6
HIDDEN
 62
     7
100
AcDbCircle
 10
2.4408093317
 20
3.4830877352
 30
0.0
 40
0.4316666666666658
100
AcDbArc
 50
270.0
 51
0.0
  0
LINE
  5
14D
330
1F
100
AcDbEntity
  8
0
  6
HIDDEN
 62
     7
100
AcDbLine
 10
2.4558093317
 20
3.4837916714
 30
0.0
 11
2.8724759984
 21
3.4837916714
 31
0.0
  0
LINE
  5
14E
330
1F
100
AcDbEntity
  8
0
  6
HIDDEN
 62
     7
100
AcDbLine
 10
2.4558093317
 20
3.4837916714
 30
0.0
 11
2.4408093317
 21
3.4687552489
 31
0.0
  0
LINE
  5
14F
330
1F
100
AcDbEntity
  8
0
  6
HIDDEN
 62
     7
100
AcDbLine
 10
2.8724759984
 20
4.0335649014
 30
0.0
 11
2.4558093317
 21
4.0335649014
 31
0.0
  0
LINE
  5
150
330
1F
100
AcDbEntity
  8
0
  6
HIDDEN
 62
     7
100
AcDbLine
 10
2.4408093317
 20
4.0486013239
 30
0.0
 11
2.4558093317
 21
4.0335649014
 31
0.0
  0
ARC
  5
151
330
1F
100
AcDbEntity
  8
0
  6
HIDDEN
 62
     7
100
AcDbCircle
 10
2.6526597254
 20
4.2700078127
 30
0.0
 40
0.1673228346456692
100
AcDbArc
 50
128.6354619971
 51
51.3645380029
  0
LINE
  5
152
330
1F
100
AcDbEntity
  8
0
  6
HIDDEN
 62
     7
100
AcDbLine
 10
3.3660061821
 20
3.9065721752
 30
0.0
 11
3.2872660246
 21
3.9065721752
 31
0.0
  0
LINE
  5
153
330
1F
100
AcDbEntity
  8
0
  6
HIDDEN
 62
     7
100
AcDbLine
 10
3.3660061821
 20
3.6107843976
 30
0.0
 11
3.2872660246
 21
3.6107843976
 31
0.0
  0
LINE
  5
154
330
1F
100
AcDbEntity
  8
0
  6
HIDDEN
 62
     7
100
AcDbLine
 10
4.167935316
 20
4.1425365541
 30
0.0
 11
4.167935316
 21
4.3042543
 31
0.0
  0
LINE
  5
155
330
1F
100
AcDbEntity
  8
0
  6
HIDDEN
 62
     7
100
AcDbLine
 10
3.8332896467
 20
4.304290754
 30
0.0
 11
3.8332896467
 21
4.1425365541
 31
0.0
  0
LINE
  5
156
330
1F
100
AcDbEntity
  8
0
  6
HIDDEN
 62
     7
100
AcDbLine
 10
3.9021872845
 20
3.738993247
 30
0.0
 11
3.9021872845
 21
3.212873829
 31
0.0
  0
LINE
  5
157
330
1F
100
AcDbEntity
  8
0
  6
HIDDEN
 62
     7
100
AcDbLine
 10
4.0990376782
 20
3.2129121603
 30
0.0
 11
4.0990376782
 21
3.738993247
 31
0.0
  0
LINE
  5
158
330
1F
100
AcDbEntity
  8
0
  6
HIDDEN
 62
     7
100
AcDbLine
 10
3.9021872845
 20
4.1425365541
 30
0.0
 11
3.9021872845
 21
3.7783633258
 31
0.0
  0
LINE
  5
159
330
1F
100
AcDbEntity
  8
0
  6
HIDDEN
 62
     7
100
AcDbLine
 10
4.0990376782
 20
3.7783633258
 30
0.0
 11
4.0990376782
 21
4.1425365541
 31
0.0
  0
LINE
  5
15A
330
1F
100
AcDbEntity
  8
0
  6
HIDDEN
 62
     7
100
AcDbLine
 10
4.212462875
 20
4.0492688376
 30
0.0
 11
4.197462875
 21
4.0342688376
 31
0.0
  0
LINE
  5
15B
330
1F
100
AcDbEntity
  8
0
  6
HIDDEN
 62
     7
100
AcDbLine
 10
4.197462875
 20
3.4830877352
 30
0.0
 11
4.212462875
 21
3.4680877352
 31
0.0
  0
LINE
  5
15C
330
1F
100
AcDbEntity
  8
0
  6
HIDDEN
 62
     7
100
AcDbLine
 10
3.7283027701
 20
4.0342688376
 30
0.0
 11
3.4250613002
 21
4.0342688376
 31
0.0
  0
LINE
  5
15D
330
1F
100
AcDbEntity
  8
0
  6
HIDDEN
 62
     7
100
AcDbLine
 10
3.4250613002
 20
3.4830877352
 30
0.0
 11
3.7283027701
 21
3.4830877352
 31
0.0
  0
LINE
  5
15E
330
1F
100
AcDbEntity
  8
0
  6
HIDDEN
 62
     7
100
AcDbLine
 10
3.7807962084
 20
3.4830877352
 30
0.0
 11
4.197462875
 21
3.4830877352
 31
0.0
  0
LINE
  5
15F
330
1F
100
AcDbEntity
  8
0
  6
HIDDEN
 62
     7
100
AcDbLine
 10
4.197462875
 20
4.0342688376
 30
0.0
 11
3.7807962084
 21
4.0342688376
 31
0.0
  0
LINE
  5
160
330
1F
100
AcDbEntity
  8
0
  6
HIDDEN
 62
     7
100
AcDbLine
 10
4.167935316
 20
4.1425365541
 30
0.0
 11
4.167935316
 21
4.2994311043
 31
0.0
  0
LINE
  5
161
330
1F
100
AcDbEntity
  8
0
  6
HIDDEN
 62
     7
100
AcDbLine
 10
3.8332896467
 20
4.3014722447
 30
0.0
 11
3.8332896467
 21
4.1425365541
 31
0.0
  0
ARC
  5
162
330
1F
100
AcDbEntity
  8
0
  6
HIDDEN
 62
     7
100
AcDbCircle
 10
4.0793526388
 20
3.2665523021
 30
0.0
 40
0.0196850393700787
100
AcDbArc
 50
306.8825125239
 51
0.0
  0
ARC
  5
163
330
1F
100
AcDbEntity
  8
0
  6
HIDDEN
 62
     7
100
AcDbCircle
 10
3.9218723239
 20
3.2665523021
 30
0.0
 40
0.0196850393700787
100
AcDbArc
 50
180.0
 51
233.6200970824
  0
LINE
  5
164
330
1F
100
AcDbEntity
  8
0
  6
HIDDEN
 62
     7
100
AcDbLine
 10
3.9021872845
 20
4.1425365541
 30
0.0
 11
3.9021872845
 21
3.7783633258
 31
0.0
  0
LINE
  5
165
330
1F
100
AcDbEntity
  8
0
  6
HIDDEN
 62
     7
100
AcDbLine
 10
3.9021872845
 20
3.738993247
 30
0.0
 11
3.9021872845
 21
3.2665523021
 31
0.0
  0
LINE
  5
166
330
1F
100
AcDbEntity
  8
0
  6
HIDDEN
 62
     7
100
AcDbLine
 10
4.0990376782
 20
3.2665523021
 30
0.0
 11
4.0990376782
 21
3.738993247
 31
0.0
  0
LINE
  5
167
330
1F
100
AcDbEntity
  8
0
  6
HIDDEN
 62
     7
100
AcDbLine
 10
4.0990376782
 20
3.7783633258
 30
0.0
 11
4.0990376782
 21
4.1425365541
 31
0.0
  0
LINE
  5
168
330
1F
100
AcDbEntity
  8
0
  6
HIDDEN
 62
     7
100
AcDbLine
 10
3.3660061821
 20
4.1130089951
 30
0.0
 11
3.2872660246
 21
4.1130089951
 31
0.0
  0
LINE
  5
169
330
1F
100
AcDbEntity
  8
0
  6
HIDDEN
 62
     7
100
AcDbLine
 10
3.2872660246
 20
3.4043475777
 30
0.0
 11
3.3660061821
 21
3.4043475777
 31
0.0
  0
LINE
  5
16A
330
1F
100
AcDbEntity
  8
0
  6
HIDDEN
 62
     7
100
AcDbLine
 10
2.9249694367
 20
3.4830877352
 30
0.0
 11
3.2282109065
 21
3.4830877352
 31
0.0
  0
LINE
  5
16B
330
1F
100
AcDbEntity
  8
0
  6
HIDDEN
 62
     7
100
AcDbLine
 10
3.2282109065
 20
4.0342688376
 30
0.0
 11
2.9249694367
 21
4.0342688376
 31
0.0
  0
LINE
  5
16C
330
1F
100
AcDbEntity
  8
0
  6
HIDDEN
 62
     7
100
AcDbLine
 10
3.8332896467
 20
4.3197019084
 30
0.0
 11
4.167935316
 21
4.3197019084
 31
0.0
  0
LINE
  5
16D
330
1F
100
AcDbEntity
  8
0
  6
HIDDEN
 62
     7
100
AcDbLine
 10
4.0006124813
 20
3.2665523021
 30
0.0
 11
3.9022671075
 21
3.2665523021
 31
0.0
  0
LINE
  5
16E
330
1F
100
AcDbEntity
  8
0
  6
HIDDEN
 62
     7
100
AcDbLine
 10
4.0006124813
 20
3.2665523021
 30
0.0
 11
4.0989578552
 21
3.2665523021
 31
0.0
  0
LINE
  5
16F
330
1F
100
AcDbEntity
  8
0
  6
CONTINUOUS
 62
     7
100
AcDbLine
 10
7.5722322454
 20
4.3197019084
 30
0.0
 11
7.5722322454
 21
4.1425365541
 31
0.0
  0
ARC
  5
170
330
1F
100
AcDbEntity
  8
0
  6
CONTINUOUS
 62
     7
100
AcDbCircle
 10
7.5919172848
 20
4.3197019084
 30
0.0
 40
0.0196850393700787
100
AcDbArc
 50
90.0
 51
180.0
  0
ARC
  5
171
330
1F
100
AcDbEntity
  8
0
  6
CONTINUOUS
 62
     7
100
AcDbCircle
 10
7.6608149226
 20
3.2665523021
 30
0.0
 40
0.0196850393700787
100
AcDbArc
 50
180.0
 51
270.0
  0
LINE
  5
172
330
1F
100
AcDbEntity
  8
0
  6
CONTINUOUS
 62
     7
100
AcDbLine
 10
7.6411298832
 20
3.7783633258
 30
0.0
 11
7.6411298832
 21
3.738993247
 31
0.0
  0
LINE
  5
173
330
1F
100
AcDbEntity
  8
0
  6
CONTINUOUS
 62
     7
100
AcDbLine
 10
7.6411298832
 20
3.3253766631
 30
0.0
 11
7.6411298832
 21
3.2665523021
 31
0.0
  0
LINE
  5
174
330
1F
100
AcDbEntity
  8
0
  6
CONTINUOUS
 62
     7
100
AcDbLine
 10
7.8379802769
 20
3.738993247
 30
0.0
 11
7.8379802769
 21
3.7783633258
 31
0.0
  0
ARC
  5
175
330
1F
100
AcDbEntity
  8
0
  6
CONTINUOUS
 62
     7
100
AcDbCircle
 10
8.2508846063
 20
3.7586782864
 30
0.0
 40
0.7330314960629917
100
AcDbArc
 50
181.5388223925
 51
178.4611776075
  0
LINE
  5
176
330
1F
100
AcDbEntity
  8
0
  6
CONTINUOUS
 62
     7
100
AcDbLine
 10
7.5031121688
 20
3.7783633258
 30
0.0
 11
7.5181174718
 21
3.7783633258
 31
0.0
  0
ARC
  5
177
330
1F
100
AcDbEntity
  8
0
  6
CONTINUOUS
 62
     7
100
AcDbCircle
 10
8.2508846063
 20
3.7586782864
 30
0.0
 40
0.7480314960629918
100
AcDbArc
 50
181.5079577542
 51
178.4920422458
  0
LINE
  5
178
330
1F
100
AcDbEntity
  8
0
  6
CONTINUOUS
 62
     7
100
AcDbLine
 10
7.5031121688
 20
3.738993247
 30
0.0
 11
7.5181174718
 21
3.738993247
 31
0.0
  0
LINE
  5
179
330
1F
100
AcDbEntity
  8
0
  6
CONTINUOUS
 62
     7
100
AcDbLine
 10
8.9581418242
 20
3.7783633258
 30
0.0
 11
8.9581418242
 21
3.738993247
 31
0.0
  0
LINE
  5
17A
330
1F
100
AcDbEntity
  8
0
  6
CONTINUOUS
 62
     7
100
AcDbLine
 10
8.9581418242
 20
3.7783633258
 30
0.0
 11
8.5408076438
 21
3.7783633258
 31
0.0
  0
ARC
  5
17B
330
1F
100
AcDbEntity
  8
0
  6
CONTINUOUS
 62
     7
100
AcDbCircle
 10
8.2508846063
 20
3.7586782864
 30
0.0
 40
0.2905905511811056
100
AcDbArc
 50
3.8842765967
 51
176.1157234033
  0
LINE
  5
17C
330
1F
100
AcDbEntity
  8
0
  6
CONTINUOUS
 62
     7
100
AcDbLine
 10
7.5181174718
 20
3.7783633258
 30
0.0
 11
7.9609615688
 21
3.7783633258
 31
0.0
  0
LINE
  5
17D
330
1F
100
AcDbEntity
  8
0
  6
CONTINUOUS
 62
     7
100
AcDbLine
 10
7.5181174718
 20
3.738993247
 30
0.0
 11
7.9609615688
 21
3.738993247
 31
0.0
  0
ARC
  5
17E
330
1F
100
AcDbEntity
  8
0
  6
CONTINUOUS
 62
     7
100
AcDbCircle
 10
8.2508846063
 20
3.7586782864
 30
0.0
 40
0.2905905511811056
100
AcDbArc
 50
183.8842765967
 51
356.1157234033
  0
LINE
  5
17F
330
1F
100
AcDbEntity
  8
0
  6
CONTINUOUS
 62
     7
100
AcDbLine
 10
8.5408076438
 20
3.738993247
 30
0.0
 11
8.9581418242
 21
3.738993247
 31
0.0
  0
LINE
  5
180
330
1F
100
AcDbEntity
  8
0
  6
CONTINUOUS
 62
     7
100
AcDbLine
 10
8.5264751575
 20
3.738993247
 30
0.0
 11
8.5264751575
 21
3.7783633258
 31
0.0
  0
LINE
  5
181
330
1F
100
AcDbEntity
  8
0
  6
CONTINUOUS
 62
     7
100
AcDbLine
 10
7.9609615688
 20
3.7783633258
 30
0.0
 11
7.9759979913
 21
3.7783633258
 31
0.0
  0
ARC
  5
182
330
1F
100
AcDbEntity
  8
0
  6
CONTINUOUS
 62
     7
100
AcDbCircle
 10
8.2508846063
 20
3.7586782864
 30
0.0
 40
0.2755905511811024
100
AcDbArc
 50
4.0960437582
 51
175.9039562418
  0
LINE
  5
183
330
1F
100
AcDbEntity
  8
0
  6
CONTINUOUS
 62
     7
100
AcDbLine
 10
8.5257712214
 20
3.7783633258
 30
0.0
 11
8.5408076438
 21
3.7783633258
 31
0.0
  0
LINE
  5
184
330
1F
100
AcDbEntity
  8
0
  6
CONTINUOUS
 62
     7
100
AcDbLine
 10
7.9609615688
 20
3.738993247
 30
0.0
 11
7.9759979913
 21
3.738993247
 31
0.0
  0
ARC
  5
185
330
1F
100
AcDbEntity
  8
0
  6
CONTINUOUS
 62
     7
100
AcDbCircle
 10
8.2508846063
 20
3.7586782864
 30
0.0
 40
0.2755905511811024
100
AcDbArc
 50
184.0960437582
 51
355.9039562418
  0
LINE
  5
186
330
1F
100
AcDbEntity
  8
0
  6
CONTINUOUS
 62
     7
100
AcDbLine
 10
8.5257712214
 20
3.738993247
 30
0.0
 11
8.5408076438
 21
3.738993247
 31
0.0
  0
LINE
  5
187
330
1F
100
AcDbEntity
  8
0
  6
CONTINUOUS
 62
     7
100
AcDbLine
 10
7.9752940551
 20
3.7586782864
 30
0.0
 11
7.9759979913
 21
3.738993247
 31
0.0
  0
POLYLINE
  5
188
330
1F
100
AcDbEntity
  8
0
  6
CONTINUOUS
 62
     7
100
AcDb2dPolyline
 66
     1
 10
0.0
 20
0.0
 30
0.0
  0
VERTEX
  5
2EA
330
188
100
AcDbEntity
  8
0
  6
CONTINUOUS
 62
     7
100
AcDbVertex
100
AcDb2dVertex
 10
8.5257712214
 20
3.738993247
 30
0.0
  0
VERTEX
  5
2EB
330
188
100
AcDbEntity
  8
0
  6
CONTINUOUS
 62
     7
100
AcDbVertex
100
AcDb2dVertex
 10
8.5264751575
 20
3.7586782864
 30
0.0
  0
VERTEX
  5
2EC
330
188
100
AcDbEntity
  8
0
  6
CONTINUOUS
 62
     7
100
AcDbVertex
100
AcDb2dVertex
 10
8.5257712214
 20
3.7783633258
 30
0.0
  0
SEQEND
  5
2ED
330
188
100
AcDbEntity
  8
0
  6
CONTINUOUS
 62
     7
  0
LINE
  5
189
330
1F
100
AcDbEntity
  8
0
  6
CONTINUOUS
 62
     7
100
AcDbLine
 10
7.9759979913
 20
3.7783633258
 30
0.0
 11
7.9752940551
 21
3.7586782864
 31
0.0
  0
POLYLINE
  5
18A
330
1F
100
AcDbEntity
  8
0
  6
CONTINUOUS
 62
     7
100
AcDb2dPolyline
 66
     1
 10
0.0
 20
0.0
 30
0.0
  0
VERTEX
  5
2EE
330
18A
100
AcDbEntity
  8
0
  6
CONTINUOUS
 62
     7
100
AcDbVertex
100
AcDb2dVertex
 10
7.5031121688
 20
3.738993247
 30
0.0
  0
VERTEX
  5
2EF
330
18A
100
AcDbEntity
  8
0
  6
CONTINUOUS
 62
     7
100
AcDbVertex
100
AcDb2dVertex
 10
7.5028531103
 20
3.7586782864
 30
0.0
  0
VERTEX
  5
2F0
330
18A
100
AcDbEntity
  8
0
  6
CONTINUOUS
 62
     7
100
AcDbVertex
100
AcDb2dVertex
 10
7.5031121688
 20
3.7783633258
 30
0.0
  0
SEQEND
  5
2F1
330
18A
100
AcDbEntity
  8
0
  6
CONTINUOUS
 62
     7
  0
CIRCLE
  5
18B
330
1F
100
AcDbEntity
  8
0
  6
CONTINUOUS
 62
     7
100
AcDbCircle
 10
8.2508846063
 20
3.7586782864
 30
0.0
 40
1.102362204724409
  0
CIRCLE
  5
18C
330
1F
100
AcDbEntity
  8
0
  6
CONTINUOUS
 62
     7
100
AcDbCircle
 10
8.2508846063
 20
3.7586782864
 30
0.0
 40
1.082677165354331
  0
LINE
  5
18D
330
1F
100
AcDbEntity
  8
0
  6
CONTINUOUS
 62
     7
100
AcDbLine
 10
7.5722322454
 20
4.1425365541
 30
0.0
 11
7.6088534938
 21
4.1425365541
 31
0.0
  0
LINE
  5
18E
330
1F
100
AcDbEntity
  8
0
  6
CONTINUOUS
 62
     7
100
AcDbLine
 10
7.5919172848
 20
4.3393869478
 30
0.0
 11
7.7793673005
 21
4.3393869478
 31
0.0
  0
LINE
  5
18F
330
1F
100
AcDbEntity
  8
0
  6
CONTINUOUS
 62
     7
100
AcDbLine
 10
7.7053567929
 20
3.2468672628
 30
0.0
 11
7.6608149254
 21
3.2468672628
 31
0.0
  0
LINE
  5
190
330
1F
100
AcDbEntity
  8
0
  6
CONTINUOUS
 62
     8
100
AcDbLine
 10
7.7561082785
 20
4.3197019084
 30
0.0
 11
7.5722322454
 21
4.3197019084
 31
0.0
  0
LINE
  5
191
330
1F
100
AcDbEntity
  8
0
  6
CONTINUOUS
 62
     8
100
AcDbLine
 10
7.6411298832
 20
3.2665523021
 30
0.0
 11
7.6875346842
 21
3.2665523021
 31
0.0
  0
LINE
  5
192
330
1F
100
AcDbEntity
  8
0
  6
HIDDEN
 62
     7
100
AcDbLine
 10
7.6088534938
 20
4.1425365541
 30
0.0
 11
7.9068779147
 21
4.1425365541
 31
0.0
  0
LINE
  5
193
330
1F
100
AcDbEntity
  8
0
  6
HIDDEN
 62
     7
100
AcDbLine
 10
8.6445853937
 20
3.1226351989
 30
0.0
 11
8.6445853937
 21
4.3947213738
 31
0.0
  0
LINE
  5
194
330
1F
100
AcDbEntity
  8
0
  6
HIDDEN
 62
     7
100
AcDbLine
 10
7.7793673005
 20
4.3393869478
 30
0.0
 11
7.8871928739
 21
4.3393869478
 31
0.0
  0
LINE
  5
195
330
1F
100
AcDbEntity
  8
0
  6
HIDDEN
 62
     7
100
AcDbLine
 10
7.8182952375
 20
3.2468672628
 30
0.0
 11
7.7053567929
 21
3.2468672628
 31
0.0
  0
LINE
  5
196
330
1F
100
AcDbEntity
  8
0
  6
HIDDEN
 62
     7
100
AcDbLine
 10
7.7850157312
 20
4.1819066328
 30
0.0
 11
7.8304763823
 21
4.1819066328
 31
0.0
  0
LINE
  5
197
330
1F
100
AcDbEntity
  8
0
  6
HIDDEN
 62
     7
100
AcDbLine
 10
7.7850157312
 20
4.1819066328
 30
0.0
 11
7.7850157312
 21
4.3393869478
 31
0.0
  0
LINE
  5
198
330
1F
100
AcDbEntity
  8
0
  6
HIDDEN
 62
     7
100
AcDbLine
 10
7.6940944289
 20
4.1819066328
 30
0.0
 11
7.7850157312
 21
4.1819066328
 31
0.0
  0
LINE
  5
199
330
1F
100
AcDbEntity
  8
0
  6
HIDDEN
 62
     7
100
AcDbLine
 10
7.6940944289
 20
4.1819066328
 30
0.0
 11
7.6940944289
 21
4.3393869478
 31
0.0
  0
LINE
  5
19A
330
1F
100
AcDbEntity
  8
0
  6
HIDDEN
 62
     7
100
AcDbLine
 10
7.6486337778
 20
4.1819066328
 30
0.0
 11
7.6940944289
 21
4.1819066328
 31
0.0
  0
LINE
  5
19B
330
1F
100
AcDbEntity
  8
0
  6
HIDDEN
 62
     7
100
AcDbLine
 10
7.8304763823
 20
4.1819066328
 30
0.0
 11
7.8304763823
 21
4.3393869478
 31
0.0
  0
LINE
  5
19C
330
1F
100
AcDbEntity
  8
0
  6
HIDDEN
 62
     7
100
AcDbLine
 10
7.6486337778
 20
4.1819066328
 30
0.0
 11
7.6486337778
 21
4.3393869478
 31
0.0
  0
LINE
  5
19D
330
1F
100
AcDbEntity
  8
0
  6
HIDDEN
 62
     7
100
AcDbLine
 10
8.8315932677
 20
4.4176456079
 30
0.0
 11
8.8315932677
 21
4.1223700174
 31
0.0
  0
LINE
  5
19E
330
1F
100
AcDbEntity
  8
0
  6
HIDDEN
 62
     7
100
AcDbLine
 10
8.8119082284
 20
4.4373306473
 30
0.0
 11
8.8119082284
 21
4.1030023344
 31
0.0
  0
LINE
  5
19F
330
1F
100
AcDbEntity
  8
0
  6
HIDDEN
 62
     7
100
AcDbLine
 10
8.634742874
 20
4.102684978
 30
0.0
 11
8.634742874
 21
4.4373306473
 31
0.0
  0
LINE
  5
1A0
330
1F
100
AcDbEntity
  8
0
  6
HIDDEN
 62
     7
100
AcDbLine
 10
7.7587586221
 20
4.1715826158
 30
0.0
 11
7.7587586221
 21
4.3681138469
 31
0.0
  0
LINE
  5
1A1
330
1F
100
AcDbEntity
  8
0
  6
HIDDEN
 62
     7
100
AcDbLine
 10
7.7390735827
 20
4.3487479673
 30
0.0
 11
7.7390735827
 21
4.1912676552
 31
0.0
  0
LINE
  5
1A2
330
1F
100
AcDbEntity
  8
0
  6
HIDDEN
 62
     7
100
AcDbLine
 10
8.6741129528
 20
4.3154684638
 30
0.0
 11
8.8315932677
 21
4.3154684638
 31
0.0
  0
LINE
  5
1A3
330
1F
100
AcDbEntity
  8
0
  6
HIDDEN
 62
     7
100
AcDbLine
 10
8.6741129528
 20
4.2245471616
 30
0.0
 11
8.8315932677
 21
4.2245471616
 31
0.0
  0
LINE
  5
1A4
330
1F
100
AcDbEntity
  8
0
  6
HIDDEN
 62
     7
100
AcDbLine
 10
8.6741129528
 20
4.1790865104
 30
0.0
 11
8.6741129528
 21
4.2245471616
 31
0.0
  0
LINE
  5
1A5
330
1F
100
AcDbEntity
  8
0
  6
HIDDEN
 62
     7
100
AcDbLine
 10
8.6741129528
 20
4.3154684638
 30
0.0
 11
8.6741129528
 21
4.3609291149
 31
0.0
  0
LINE
  5
1A6
330
1F
100
AcDbEntity
  8
0
  6
HIDDEN
 62
     7
100
AcDbLine
 10
8.6741129528
 20
4.2245471616
 30
0.0
 11
8.6741129528
 21
4.3154684638
 31
0.0
  0
LINE
  5
1A7
330
1F
100
AcDbEntity
  8
0
  6
HIDDEN
 62
     7
100
AcDbLine
 10
8.6741129528
 20
4.1790865104
 30
0.0
 11
8.8315932677
 21
4.1790865104
 31
0.0
  0
LINE
  5
1A8
330
1F
100
AcDbEntity
  8
0
  6
HIDDEN
 62
     7
100
AcDbLine
 10
8.6741129528
 20
4.3609291149
 30
0.0
 11
8.8315932677
 21
4.3609291149
 31
0.0
  0
CIRCLE
  5
1A9
330
1F
100
AcDbEntity
  8
0
  6
HIDDEN
 62
     7
100
AcDbCircle
 10
9.1022625591
 20
3.7586782864
 30
0.0
 40
0.1673228346456686
  0
CIRCLE
  5
1AA
330
1F
100
AcDbEntity
  8
0
  6
HIDDEN
 62
     7
100
AcDbCircle
 10
8.2508846063
 20
4.6100562391
 30
0.0
 40
0.1673228346456703
  0
CIRCLE
  5
1AB
330
1F
100
AcDbEntity
  8
0
  6
HIDDEN
 62
     7
100
AcDbCircle
 10
8.2508846063
 20
2.9073003336
 30
0.0
 40
0.1673228346456703
  0
CIRCLE
  5
1AC
330
1F
100
AcDbEntity
  8
0
  6
HIDDEN
 62
     7
100
AcDbCircle
 10
7.3995066536
 20
3.7586782864
 30
0.0
 40
0.1673228346456694
  0
LINE
  5
1AD
330
1F
100
AcDbEntity
  8
0
  6
HIDDEN
 62
     7
100
AcDbLine
 10
8.1029907175
 20
4.7579501279
 30
0.0
 11
7.2516127648
 21
3.9065721752
 31
0.0
  0
ARC
  5
1AE
330
1F
100
AcDbEntity
  8
0
  6
HIDDEN
 62
     7
100
AcDbCircle
 10
8.2508846063
 20
4.6100562391
 30
0.0
 40
0.2091535433070873
100
AcDbArc
 50
45.0
 51
135.0
  0
LINE
  5
1AF
330
1F
100
AcDbEntity
  8
0
  6
HIDDEN
 62
     7
100
AcDbLine
 10
9.2501564479
 20
3.9065721752
 30
0.0
 11
8.3987784951
 21
4.7579501279
 31
0.0
  0
ARC
  5
1B0
330
1F
100
AcDbEntity
  8
0
  6
HIDDEN
 62
     7
100
AcDbCircle
 10
9.1022625591
 20
3.7586782864
 30
0.0
 40
0.2091535433070851
100
AcDbArc
 50
315.0
 51
45.0
  0
LINE
  5
1B1
330
1F
100
AcDbEntity
  8
0
  6
HIDDEN
 62
     7
100
AcDbLine
 10
8.3987784951
 20
2.7594064449
 30
0.0
 11
9.2501564479
 21
3.6107843976
 31
0.0
  0
ARC
  5
1B2
330
1F
100
AcDbEntity
  8
0
  6
HIDDEN
 62
     7
100
AcDbCircle
 10
8.2508846063
 20
2.9073003336
 30
0.0
 40
0.209153543307086
100
AcDbArc
 50
225.0
 51
315.0
  0
LINE
  5
1B3
330
1F
100
AcDbEntity
  8
0
  6
HIDDEN
 62
     7
100
AcDbLine
 10
7.2516127648
 20
3.6107843976
 30
0.0
 11
8.1029907175
 21
2.7594064449
 31
0.0
  0
ARC
  5
1B4
330
1F
100
AcDbEntity
  8
0
  6
HIDDEN
 62
     7
100
AcDbCircle
 10
7.3995066536
 20
3.7586782864
 30
0.0
 40
0.2091535433070885
100
AcDbArc
 50
135.0
 51
225.0
  0
CIRCLE
  5
1B5
330
1F
100
AcDbEntity
  8
0
  6
HIDDEN
 62
     7
100
AcDbCircle
 10
8.2508846063
 20
3.7586782864
 30
0.0
 40
0.3543307086614185
  0
CIRCLE
  5
1B6
330
1F
100
AcDbEntity
  8
0
  6
HIDDEN
 62
     7
100
AcDbCircle
 10
8.2508846063
 20
3.7586782864
 30
0.0
 40
0.7480314960629921
  0
LINE
  5
1B7
330
1F
100
AcDbEntity
  8
0
  6
HIDDEN
 62
     7
100
AcDbLine
 10
7.6148415189
 20
3.364977499
 30
0.0
 11
8.8869276938
 21
3.364977499
 31
0.0
  0
LINE
  5
1B8
330
1F
100
AcDbEntity
  8
0
  6
HIDDEN
 62
     7
100
AcDbLine
 10
8.231199567
 20
3.4830877352
 30
0.0
 11
8.231199567
 21
3.4837916714
 31
0.0
  0
LINE
  5
1B9
330
1F
100
AcDbEntity
  8
0
  6
HIDDEN
 62
     7
100
AcDbLine
 10
8.231199567
 20
3.4830877352
 30
0.0
 11
8.2705696457
 21
3.4830877352
 31
0.0
  0
LINE
  5
1BA
330
1F
100
AcDbEntity
  8
0
  6
HIDDEN
 62
     7
100
AcDbLine
 10
8.2705696457
 20
3.4837916714
 30
0.0
 11
8.2705696457
 21
3.4830877352
 31
0.0
  0
LINE
  5
1BB
330
1F
100
AcDbEntity
  8
0
  6
HIDDEN
 62
     7
100
AcDbLine
 10
8.2705696457
 20
4.0335649014
 30
0.0
 11
8.2705696457
 21
4.5064507239
 31
0.0
  0
LINE
  5
1BC
330
1F
100
AcDbEntity
  8
0
  6
HIDDEN
 62
     7
100
AcDbLine
 10
8.231199567
 20
4.0335649014
 30
0.0
 11
8.231199567
 21
4.5064507239
 31
0.0
  0
LINE
  5
1BD
330
1F
100
AcDbEntity
  8
0
  6
HIDDEN
 62
     7
100
AcDbLine
 10
8.231199567
 20
3.0514210685
 30
0.0
 11
8.231199567
 21
3.4830877352
 31
0.0
  0
LINE
  5
1BE
330
1F
100
AcDbEntity
  8
0
  6
HIDDEN
 62
     7
100
AcDbLine
 10
8.2705696457
 20
3.0514210685
 30
0.0
 11
8.231199567
 21
3.0514210685
 31
0.0
  0
LINE
  5
1BF
330
1F
100
AcDbEntity
  8
0
  6
HIDDEN
 62
     7
100
AcDbLine
 10
8.2705696457
 20
3.4830877352
 30
0.0
 11
8.2705696457
 21
3.0514210685
 31
0.0
  0
LINE
  5
1C0
330
1F
100
AcDbEntity
  8
0
  6
HIDDEN
 62
     7
100
AcDbLine
 10
8.634742874
 20
4.102684978
 30
0.0
 11
8.634742874
 21
4.4007093989
 31
0.0
  0
POLYLINE
  5
1C1
330
1F
100
AcDbEntity
  8
0
  6
HIDDEN
 62
     7
100
AcDb2dPolyline
 66
     1
 10
0.0
 20
0.0
 30
0.0
  0
VERTEX
  5
2F2
330
1C1
100
AcDbEntity
  8
0
  6
HIDDEN
 62
     7
100
AcDbVertex
100
AcDb2dVertex
 10
7.9609615688
 20
3.738993247
 30
0.0
  0
VERTEX
  5
2F3
330
1C1
100
AcDbEntity
  8
0
  6
HIDDEN
 62
     7
100
AcDbVertex
100
AcDb2dVertex
 10
7.9602940551
 20
3.7586782864
 30
0.0
  0
VERTEX
  5
2F4
330
1C1
100
AcDbEntity
  8
0
  6
HIDDEN
 62
     7
100
AcDbVertex
100
AcDb2dVertex
 10
7.9609615688
 20
3.7783633258
 30
0.0
  0
SEQEND
  5
2F5
330
1C1
100
AcDbEntity
  8
0
  6
HIDDEN
 62
     7
  0
LINE
  5
1C2
330
1F
100
AcDbEntity
  8
0
  6
HIDDEN
 62
     7
100
AcDbLine
 10
7.5181174718
 20
3.7783633258
 30
0.0
 11
7.5181174718
 21
3.738993247
 31
0.0
  0
POLYLINE
  5
1C3
330
1F
100
AcDbEntity
  8
0
  6
HIDDEN
 62
     7
100
AcDb2dPolyline
 66
     1
 10
0.0
 20
0.0
 30
0.0
  0
VERTEX
  5
2F6
330
1C3
100
AcDbEntity
  8
0
  6
HIDDEN
 62
     7
100
AcDbVertex
100
AcDb2dVertex
 10
8.5408076438
 20
3.7783633258
 30
0.0
  0
VERTEX
  5
2F7
330
1C3
100
AcDbEntity
  8
0
  6
HIDDEN
 62
     7
100
AcDbVertex
100
AcDb2dVertex
 10
8.5414751575
 20
3.7586782864
 30
0.0
  0
VERTEX
  5
2F8
330
1C3
100
AcDbEntity
  8
0
  6
HIDDEN
 62
     7
100
AcDbVertex
100
AcDb2dVertex
 10
8.5408076438
 20
3.738993247
 30
0.0
  0
SEQEND
  5
2F9
330
1C3
100
AcDbEntity
  8
0
  6
HIDDEN
 62
     7
  0
LINE
  5
1C4
330
1F
100
AcDbEntity
  8
0
  6
HIDDEN
 62
     7
100
AcDbLine
 10
7.9068779147
 20
4.1425365541
 30
0.0
 11
7.9068779147
 21
4.4226698435
 31
0.0
  0
LINE
  5
1C5
330
1F
100
AcDbEntity
  8
0
  6
HIDDEN
 62
     7
100
AcDbLine
 10
7.6411298832
 20
3.738993247
 30
0.0
 11
7.6411298832
 21
3.3253766631
 31
0.0
  0
LINE
  5
1C6
330
1F
100
AcDbEntity
  8
0
  6
HIDDEN
 62
     7
100
AcDbLine
 10
7.8379802769
 20
3.1350467647
 30
0.0
 11
7.8379802769
 21
3.738993247
 31
0.0
  0
LINE
  5
1C7
330
1F
100
AcDbEntity
  8
0
  6
HIDDEN
 62
     7
100
AcDbLine
 10
7.6411298832
 20
4.1425365541
 30
0.0
 11
7.6411298832
 21
3.7783633258
 31
0.0
  0
LINE
  5
1C8
330
1F
100
AcDbEntity
  8
0
  6
HIDDEN
 62
     7
100
AcDbLine
 10
7.8379802769
 20
3.7783633258
 30
0.0
 11
7.8379802769
 21
4.1425365541
 31
0.0
  0
LINE
  5
1C9
330
1F
100
AcDbEntity
  8
0
  6
HIDDEN
 62
     7
100
AcDbLine
 10
7.9068779147
 20
4.1425365541
 30
0.0
 11
7.9068779147
 21
4.3197019084
 31
0.0
  0
ARC
  5
1CA
330
1F
100
AcDbEntity
  8
0
  6
HIDDEN
 62
     7
100
AcDbCircle
 10
7.8871928753
 20
4.3197019084
 30
0.0
 40
0.0196850393700787
100
AcDbArc
 50
0.0
 51
90.0
  0
ARC
  5
1CB
330
1F
100
AcDbEntity
  8
0
  6
HIDDEN
 62
     7
100
AcDbCircle
 10
7.8182952375
 20
3.2665523021
 30
0.0
 40
0.0196850393700787
100
AcDbArc
 50
270.0
 51
0.0
  0
LINE
  5
1CC
330
1F
100
AcDbEntity
  8
0
  6
HIDDEN
 62
     7
100
AcDbLine
 10
7.6411298832
 20
4.1425365541
 30
0.0
 11
7.6411298832
 21
3.7783633258
 31
0.0
  0
LINE
  5
1CD
330
1F
100
AcDbEntity
  8
0
  6
HIDDEN
 62
     7
100
AcDbLine
 10
7.6411298832
 20
3.738993247
 30
0.0
 11
7.6411298832
 21
3.3253766631
 31
0.0
  0
LINE
  5
1CE
330
1F
100
AcDbEntity
  8
0
  6
HIDDEN
 62
     7
100
AcDbLine
 10
7.8379802769
 20
3.2665523021
 30
0.0
 11
7.8379802769
 21
3.738993247
 31
0.0
  0
LINE
  5
1CF
330
1F
100
AcDbEntity
  8
0
  6
HIDDEN
 62
     7
100
AcDbLine
 10
7.8379802769
 20
3.7783633258
 30
0.0
 11
7.8379802769
 21
4.1425365541
 31
0.0
  0
ARC
  5
1D0
330
1F
100
AcDbEntity
  8
0
  6
HIDDEN
 62
     7
100
AcDbCircle
 10
8.8119082284
 20
4.4176456079
 30
0.0
 40
0.0196850393700787
100
AcDbArc
 50
0.0
 51
90.0
  0
ARC
  5
1D1
330
1F
100
AcDbEntity
  8
0
  6
HIDDEN
 62
     7
100
AcDbCircle
 10
8.8119082284
 20
4.1223700174
 30
0.0
 40
0.0196850393700796
100
AcDbArc
 50
270.0
 51
0.0
  0
LINE
  5
1D2
330
1F
100
AcDbEntity
  8
0
  6
HIDDEN
 62
     7
100
AcDbLine
 10
8.634742874
 20
4.102684978
 30
0.0
 11
8.8119082284
 21
4.102684978
 31
0.0
  0
LINE
  5
1D3
330
1F
100
AcDbEntity
  8
0
  6
HIDDEN
 62
     7
100
AcDbLine
 10
8.8119082284
 20
4.4373306473
 30
0.0
 11
8.634742874
 21
4.4373306473
 31
0.0
  0
LINE
  5
1D4
330
1F
100
AcDbEntity
  8
0
  6
HIDDEN
 62
     7
100
AcDbLine
 10
8.634742874
 20
4.3684330095
 30
0.0
 11
7.7587586221
 21
4.3684330095
 31
0.0
  0
LINE
  5
1D5
330
1F
100
AcDbEntity
  8
0
  6
HIDDEN
 62
     7
100
AcDbLine
 10
7.7587586221
 20
4.1715826158
 30
0.0
 11
8.634742874
 21
4.1715826158
 31
0.0
  0
ARC
  5
1D6
330
1F
100
AcDbEntity
  8
0
  6
HIDDEN
 62
     7
100
AcDbCircle
 10
7.7587586221
 20
4.1912676552
 30
0.0
 40
0.0196850393700787
100
AcDbArc
 50
180.0
 51
270.0
  0
ARC
  5
1D7
330
1F
100
AcDbEntity
  8
0
  6
HIDDEN
 62
     7
100
AcDbCircle
 10
7.7587586221
 20
4.3487479702
 30
0.0
 40
0.0196850393700787
100
AcDbArc
 50
90.0
 51
180.0
  0
LINE
  5
1D8
330
1F
100
AcDbEntity
  8
0
  6
HIDDEN
 62
     7
100
AcDbLine
 10
8.634742874
 20
4.102684978
 30
0.0
 11
8.9148761634
 21
4.102684978
 31
0.0
  0
LINE
  5
1D9
330
1F
100
AcDbEntity
  8
0
  6
HIDDEN
 62
     7
100
AcDbLine
 10
8.634742874
 20
4.3684330095
 30
0.0
 11
8.2705696457
 21
4.3684330095
 31
0.0
  0
LINE
  5
1DA
330
1F
100
AcDbEntity
  8
0
  6
HIDDEN
 62
     7
100
AcDbLine
 10
8.2705696457
 20
4.1715826158
 30
0.0
 11
8.634742874
 21
4.1715826158
 31
0.0
  0
LINE
  5
1DB
330
1F
100
AcDbEntity
  8
0
  6
HIDDEN
 62
     7
100
AcDbLine
 10
8.231199567
 20
4.3684330095
 30
0.0
 11
7.8175829831
 21
4.3684330095
 31
0.0
  0
LINE
  5
1DC
330
1F
100
AcDbEntity
  8
0
  6
HIDDEN
 62
     7
100
AcDbLine
 10
7.6272530846
 20
4.1715826158
 30
0.0
 11
8.231199567
 21
4.1715826158
 31
0.0
  0
LINE
  5
1DD
330
1F
100
AcDbEntity
  8
0
  6
HIDDEN
 62
     7
100
AcDbLine
 10
7.5722322454
 20
4.3197019084
 30
0.0
 11
7.9065605583
 21
4.3197019084
 31
0.0
  0
LINE
  5
1DE
330
1F
100
AcDbEntity
  8
0
  6
HIDDEN
 62
     7
100
AcDbLine
 10
7.8379802769
 20
3.2665523021
 30
0.0
 11
7.6411298832
 21
3.2665523021
 31
0.0
  0
LINE
  5
1DF
330
1F
100
AcDbEntity
  8
0
  6
HIDDEN
 62
     7
100
AcDbLine
 10
7.6875346842
 20
3.2665523021
 30
0.0
 11
7.8379802769
 21
3.2665523021
 31
0.0
  0
LINE
  5
1E0
330
1F
100
AcDbEntity
  8
0
  6
CONTINUOUS
 62
     7
100
AcDbLine
 10
3.6561242924
 20
5.5696149342
 30
0.0
 11
3.6758093317
 21
5.5892999736
 31
0.0
  0
LINE
  5
1E1
330
1F
100
AcDbEntity
  8
0
  6
CONTINUOUS
 62
     7
100
AcDbLine
 10
3.6758093317
 20
7.7546543043
 30
0.0
 11
3.6561242924
 21
7.7743393436
 31
0.0
  0
LINE
  5
1E2
330
1F
100
AcDbEntity
  8
0
  6
CONTINUOUS
 62
     7
100
AcDbLine
 10
3.4250613002
 20
5.5696149342
 30
0.0
 11
3.6561242924
 21
5.5696149342
 31
0.0
  0
LINE
  5
1E3
330
1F
100
AcDbEntity
  8
0
  6
CONTINUOUS
 62
     7
100
AcDbLine
 10
3.6561242924
 20
7.7743393436
 30
0.0
 11
3.4250613002
 21
7.7743393436
 31
0.0
  0
LINE
  5
1E4
330
1F
100
AcDbEntity
  8
0
  6
CONTINUOUS
 62
     7
100
AcDbLine
 10
3.6758093317
 20
5.9239456429
 30
0.0
 11
3.7283027701
 21
5.9239456429
 31
0.0
  0
LINE
  5
1E5
330
1F
100
AcDbEntity
  8
0
  6
CONTINUOUS
 62
     7
100
AcDbLine
 10
4.197462875
 20
7.420008635
 30
0.0
 11
3.6758093317
 21
7.420008635
 31
0.0
  0
LINE
  5
1E6
330
1F
100
AcDbEntity
  8
0
  6
CONTINUOUS
 62
     7
100
AcDbLine
 10
4.212462875
 20
7.405008635
 30
0.0
 11
4.197462875
 21
7.420008635
 31
0.0
  0
LINE
  5
1E7
330
1F
100
AcDbEntity
  8
0
  6
CONTINUOUS
 62
     7
100
AcDbLine
 10
2.8199825601
 20
7.2147710972
 30
0.0
 11
2.8199825601
 21
7.233000761
 31
0.0
  0
LINE
  5
1E8
330
1F
100
AcDbEntity
  8
0
  6
CONTINUOUS
 62
     7
100
AcDbLine
 10
2.4853368908
 20
7.233000761
 30
0.0
 11
2.4853368908
 21
7.2127299568
 31
0.0
  0
ARC
  5
1E9
330
1F
100
AcDbEntity
  8
0
  6
CONTINUOUS
 62
     7
100
AcDbCircle
 10
2.5050219302
 20
7.233000761
 30
0.0
 40
0.0196850393700787
100
AcDbArc
 50
90.0
 51
180.0
  0
ARC
  5
1EA
330
1F
100
AcDbEntity
  8
0
  6
CONTINUOUS
 62
     7
100
AcDbCircle
 10
2.8002975207
 20
7.233000761
 30
0.0
 40
0.0196850393700791
100
AcDbArc
 50
0.0
 51
90.0
  0
LINE
  5
1EB
330
1F
100
AcDbEntity
  8
0
  6
CONTINUOUS
 62
     7
100
AcDbLine
 10
2.5542345286
 20
6.6916621783
 30
0.0
 11
2.5542345286
 21
6.6522920995
 31
0.0
  0
LINE
  5
1EC
330
1F
100
AcDbEntity
  8
0
  6
CONTINUOUS
 62
     7
100
AcDbLine
 10
2.7510849223
 20
6.6522920995
 30
0.0
 11
2.7510849223
 21
6.6916621783
 31
0.0
  0
ARC
  5
1ED
330
1F
100
AcDbEntity
  8
0
  6
CONTINUOUS
 62
     7
100
AcDbCircle
 10
2.7313998829
 20
6.1798511547
 30
0.0
 40
0.0196850393700787
100
AcDbArc
 50
270.0
 51
306.4810819084
  0
ARC
  5
1EE
330
1F
100
AcDbEntity
  8
0
  6
CONTINUOUS
 62
     7
100
AcDbCircle
 10
2.573919568
 20
6.1798511547
 30
0.0
 40
0.0196850393700787
100
AcDbArc
 50
233.2066452367
 51
270.0
  0
LINE
  5
1EF
330
1F
100
AcDbEntity
  8
0
  6
CONTINUOUS
 62
     7
100
AcDbLine
 10
2.9971479144
 20
7.7743393436
 30
0.0
 11
2.977462875
 21
7.7546543043
 31
0.0
  0
LINE
  5
1F0
330
1F
100
AcDbEntity
  8
0
  6
CONTINUOUS
 62
     7
100
AcDbLine
 10
2.977462875
 20
5.5892999736
 30
0.0
 11
2.9971479144
 21
5.5696149342
 31
0.0
  0
LINE
  5
1F1
330
1F
100
AcDbEntity
  8
0
  6
CONTINUOUS
 62
     7
100
AcDbLine
 10
3.2282109065
 20
7.7743393436
 30
0.0
 11
2.9971479144
 21
7.7743393436
 31
0.0
  0
LINE
  5
1F2
330
1F
100
AcDbEntity
  8
0
  6
CONTINUOUS
 62
     7
100
AcDbLine
 10
2.9971479144
 20
5.5696149342
 30
0.0
 11
3.2282109065
 21
5.5696149342
 31
0.0
  0
LINE
  5
1F3
330
1F
100
AcDbEntity
  8
0
  6
CONTINUOUS
 62
     7
100
AcDbLine
 10
3.3660061821
 20
6.5046543043
 30
0.0
 11
3.4250613002
 21
6.5046543043
 31
0.0
  0
LINE
  5
1F4
330
1F
100
AcDbEntity
  8
0
  6
CONTINUOUS
 62
     7
100
AcDbLine
 10
3.4250613002
 20
6.8392999736
 30
0.0
 11
3.3660061821
 21
6.8392999736
 31
0.0
  0
LINE
  5
1F5
330
1F
100
AcDbEntity
  8
0
  6
CONTINUOUS
 62
     7
100
AcDbLine
 10
3.2282109065
 20
6.5046543043
 30
0.0
 11
3.2872660246
 21
6.5046543043
 31
0.0
  0
LINE
  5
1F6
330
1F
100
AcDbEntity
  8
0
  6
CONTINUOUS
 62
     7
100
AcDbLine
 10
3.2872660246
 20
6.8392999736
 30
0.0
 11
3.2282109065
 21
6.8392999736
 31
0.0
  0
LINE
  5
1F7
330
1F
100
AcDbEntity
  8
0
  6
CONTINUOUS
 62
     7
100
AcDbLine
 10
2.8724759984
 20
7.420008635
 30
0.0
 11
2.4558093317
 21
7.420008635
 31
0.0
  0
LINE
  5
1F8
330
1F
100
AcDbEntity
  8
0
  6
CONTINUOUS
 62
     7
100
AcDbLine
 10
2.977462875
 20
7.420008635
 30
0.0
 11
2.9249694367
 21
7.420008635
 31
0.0
  0
LINE
  5
1F9
330
1F
100
AcDbEntity
  8
0
  6
CONTINUOUS
 62
     7
100
AcDbLine
 10
2.9249694367
 20
5.9239456429
 30
0.0
 11
2.977462875
 21
5.9239456429
 31
0.0
  0
LINE
  5
1FA
330
1F
100
AcDbEntity
  8
0
  6
CONTINUOUS
 62
     7
100
AcDbLine
 10
2.4558093317
 20
5.9239456429
 30
0.0
 11
2.8724759984
 21
5.9239456429
 31
0.0
  0
LINE
  5
1FB
330
1F
100
AcDbEntity
  8
0
  6
CONTINUOUS
 62
     7
100
AcDbLine
 10
2.4558093317
 20
7.420008635
 30
0.0
 11
2.4408093317
 21
7.405008635
 31
0.0
  0
LINE
  5
1FC
330
1F
100
AcDbEntity
  8
0
  6
CONTINUOUS
 62
     7
100
AcDbLine
 10
2.4408093317
 20
5.9389456429
 30
0.0
 11
2.4558093317
 21
5.9239456429
 31
0.0
  0
LINE
  5
1FD
330
1F
100
AcDbEntity
  8
0
  6
CONTINUOUS
 62
     7
100
AcDbLine
 10
3.3660061821
 20
7.356032257
 30
0.0
 11
3.4250613002
 21
7.356032257
 31
0.0
  0
LINE
  5
1FE
330
1F
100
AcDbEntity
  8
0
  6
CONTINUOUS
 62
     7
100
AcDbLine
 10
3.4250613002
 20
7.6906779263
 30
0.0
 11
3.3660061821
 21
7.6906779263
 31
0.0
  0
LINE
  5
1FF
330
1F
100
AcDbEntity
  8
0
  6
CONTINUOUS
 62
     7
100
AcDbLine
 10
3.2282109065
 20
7.356032257
 30
0.0
 11
3.2872660246
 21
7.356032257
 31
0.0
  0
LINE
  5
200
330
1F
100
AcDbEntity
  8
0
  6
CONTINUOUS
 62
     7
100
AcDbLine
 10
3.2872660246
 20
7.6906779263
 30
0.0
 11
3.2282109065
 21
7.6906779263
 31
0.0
  0
LINE
  5
201
330
1F
100
AcDbEntity
  8
0
  6
CONTINUOUS
 62
     7
100
AcDbLine
 10
3.2282109065
 20
5.6532763515
 30
0.0
 11
3.2872660246
 21
5.6532763515
 31
0.0
  0
LINE
  5
202
330
1F
100
AcDbEntity
  8
0
  6
CONTINUOUS
 62
     7
100
AcDbLine
 10
3.2872660246
 20
5.9879220208
 30
0.0
 11
3.2282109065
 21
5.9879220208
 31
0.0
  0
LINE
  5
203
330
1F
100
AcDbEntity
  8
0
  6
CONTINUOUS
 62
     7
100
AcDbLine
 10
3.3660061821
 20
5.6532763515
 30
0.0
 11
3.4250613002
 21
5.6532763515
 31
0.0
  0
LINE
  5
204
330
1F
100
AcDbEntity
  8
0
  6
CONTINUOUS
 62
     7
100
AcDbLine
 10
3.4250613002
 20
5.9879220208
 30
0.0
 11
3.3660061821
 21
5.9879220208
 31
0.0
  0
LINE
  5
205
330
1F
100
AcDbEntity
  8
0
  6
CONTINUOUS
 62
     7
100
AcDbLine
 10
3.3660061821
 20
7.732508635
 30
0.0
 11
3.2872660246
 21
7.732508635
 31
0.0
  0
LINE
  5
206
330
1F
100
AcDbEntity
  8
0
  6
CONTINUOUS
 62
     7
100
AcDbLine
 10
3.2872660246
 20
5.6114456429
 30
0.0
 11
3.3660061821
 21
5.6114456429
 31
0.0
  0
LINE
  5
207
330
1F
100
AcDbEntity
  8
0
  6
CONTINUOUS
 62
     7
100
AcDbLine
 10
3.6561242924
 20
5.5696149342
 30
0.0
 11
3.6561242924
 21
7.7743393436
 31
0.0
  0
LINE
  5
208
330
1F
100
AcDbEntity
  8
0
  6
CONTINUOUS
 62
     7
100
AcDbLine
 10
3.6758093317
 20
7.7546543043
 30
0.0
 11
3.6758093317
 21
5.5892999736
 31
0.0
  0
LINE
  5
209
330
1F
100
AcDbEntity
  8
0
  6
CONTINUOUS
 62
     7
100
AcDbLine
 10
3.4250613002
 20
5.5696149342
 30
0.0
 11
3.4250613002
 21
7.7743393436
 31
0.0
  0
SPLINE
  5
20A
330
1F
100
AcDbEntity
  8
0
  6
CONTINUOUS
 62
     7
100
AcDbSpline
210
0.0
220
0.0
230
1.0
 70
     8
 71
     3
 72
    52
 73
    48
 74
     0
 42
0.00000001
 43
0.00000001
 40
0.0
 40
0.0
 40
0.0
 40
0.0
 40
0.0624999999999997
 40
0.0624999999999997
 40
0.0937499999999995
 40
0.0937499999999995
 40
0.1249999999999994
 40
0.1249999999999994
 40
0.1874999999999991
 40
0.1874999999999991
 40
0.218749999999999
 40
0.218749999999999
 40
0.2499999999999989
 40
0.2499999999999989
 40
0.3124999999999989
 40
0.3124999999999989
 40
0.3749999999999989
 40
0.3749999999999989
 40
0.4062499999999989
 40
0.4062499999999989
 40
0.437499999999999
 40
0.437499999999999
 40
0.4687499999999991
 40
0.4687499999999991
 40
0.4999999999999991
 40
0.4999999999999991
 40
0.5312499999999991
 40
0.5312499999999991
 40
0.5624999999999992
 40
0.5624999999999992
 40
0.5937499999999992
 40
0.5937499999999992
 40
0.6249999999999993
 40
0.6249999999999993
 40
0.6562499999999993
 40
0.6562499999999993
 40
0.6874999999999994
 40
0.6874999999999994
 40
0.7499999999999996
 40
0.7499999999999996
 40
0.8124999999999997
 40
0.8124999999999997
 40
0.8749999999999998
 40
0.8749999999999998
 40
0.9374999999999999
 40
0.9374999999999999
 40
1.0
 40
1.0
 40
1.0
 40
1.0
 10
4.105082698891975
 20
6.029946026424283
 30
0.0
 10
4.116771173186499
 20
6.039288663249397
 30
0.0
 10
4.126569062124533
 20
6.049606393465838
 30
0.0
 10
4.139159017227749
 20
6.066565952425751
 30
0.0
 10
4.142990643923012
 20
6.072468984145647
 30
0.0
 10
4.149927740333146
 20
6.084805901587944
 30
0.0
 10
4.153043548092917
 20
6.091266542111293
 30
0.0
 10
4.161151704805124
 20
6.111330100697116
 30
0.0
 10
4.164875428836861
 20
6.12544030425195
 30
0.0
 10
4.167607548935991
 20
6.147770762697435
 30
0.0
 10
4.168037170180831
 20
6.155409076792139
 30
0.0
 10
4.167792899420638
 20
6.171096368618564
 30
0.0
 10
4.167108630988761
 20
6.179206133719255
 30
0.0
 10
4.163143973191151
 20
6.203708817780277
 30
0.0
 10
4.158060223751207
 20
6.220171657946969
 30
0.0
 10
4.141439578288908
 20
6.252846486411776
 30
0.0
 10
4.130252429444716
 20
6.268314136188916
 30
0.0
 10
4.108431498318362
 20
6.288992487610447
 30
0.0
 10
4.100523626613705
 20
6.295254622313419
 30
0.0
 10
4.08340667338296
 20
6.30640908137249
 30
0.0
 10
4.074115023435878
 20
6.311337373269522
 30
0.0
 10
4.05444558157906
 20
6.319430561887744
 30
0.0
 10
4.044287007552587
 20
6.322523557931056
 30
0.0
 10
4.023324703054628
 20
6.32676636801886
 30
0.0
 10
4.012387968792359
 20
6.327903653604529
 30
0.0
 10
3.99081852061523
 20
6.328031374329433
 30
0.0
 10
3.980114430587382
 20
6.327061667015935
 30
0.0
 10
3.958869801997875
 20
6.323040211917153
 30
0.0
 10
3.948533112911573
 20
6.320009224529605
 30
0.0
 10
3.928916210443885
 20
6.312199678609866
 30
0.0
 10
3.919456788714483
 20
6.30733675630559
 30
0.0
 10
3.902005257157638
 20
6.296222561115486
 30
0.0
 10
3.894003472373504
 20
6.289997933706348
 30
0.0
 10
3.879352383573787
 20
6.276375634496139
 30
0.0
 10
3.872749948794647
 20
6.268995167727977
 30
0.0
 10
3.861259110370232
 20
6.253753240407802
 30
0.0
 10
3.856296797396189
 20
6.245820604060095
 30
0.0
 10
3.843602497314638
 20
6.221334450866213
 30
0.0
 10
3.838350008649647
 20
6.204752144352274
 30
0.0
 10
3.832839780219976
 20
6.171901079679508
 30
0.0
 10
3.832662724905907
 20
6.156164139808316
 30
0.0
 10
3.836209776709721
 20
6.126021424206279
 30
0.0
 10
3.840013075106186
 20
6.111549797874836
 30
0.0
 10
3.85071551963128
 20
6.084926640854883
 30
0.0
 10
3.857612461375621
 20
6.072619903148776
 30
0.0
 10
3.874459946055233
 20
6.049817015829116
 30
0.0
 10
3.884436628487668
 20
6.03930238009479
 30
0.0
 10
3.896142263782644
 20
6.029946026424283
 30
0.0
  0
LINE
  5
20B
330
1F
100
AcDbEntity
  8
0
  6
CONTINUOUS
 62
     7
100
AcDbLine
 10
4.197462875
 20
5.9242047014
 30
0.0
 11
4.197462875
 21
7.420008635
 31
0.0
  0
LINE
  5
20C
330
1F
100
AcDbEntity
  8
0
  6
CONTINUOUS
 62
     7
100
AcDbLine
 10
4.197462875
 20
5.9242047014
 30
0.0
 11
3.7807962084
 21
5.9242047014
 31
0.0
  0
LINE
  5
20D
330
1F
100
AcDbEntity
  8
0
  6
CONTINUOUS
 62
     7
100
AcDbLine
 10
3.7807962084
 20
7.0656779263
 30
0.0
 11
3.7807962084
 21
5.9242047014
 31
0.0
  0
LINE
  5
20E
330
1F
100
AcDbEntity
  8
0
  6
CONTINUOUS
 62
     7
100
AcDbLine
 10
3.7283027701
 20
7.0656779263
 30
0.0
 11
3.7807962084
 21
7.0656779263
 31
0.0
  0
LINE
  5
20F
330
1F
100
AcDbEntity
  8
0
  6
CONTINUOUS
 62
     7
100
AcDbLine
 10
3.7283027701
 20
5.9239456429
 30
0.0
 11
3.7283027701
 21
7.0656779263
 31
0.0
  0
LINE
  5
210
330
1F
100
AcDbEntity
  8
0
  6
CONTINUOUS
 62
     7
100
AcDbLine
 10
4.212462875
 20
7.405008635
 30
0.0
 11
4.212462875
 21
5.9392100044
 31
0.0
  0
LINE
  5
211
330
1F
100
AcDbEntity
  8
0
  6
CONTINUOUS
 62
     7
100
AcDbLine
 10
4.197462875
 20
5.9242047014
 30
0.0
 11
4.212462875
 21
5.9392100044
 31
0.0
  0
CIRCLE
  5
212
330
1F
100
AcDbEntity
  8
0
  6
CONTINUOUS
 62
     7
100
AcDbCircle
 10
4.0006124813
 20
6.1606476126
 30
0.0
 40
0.1476377952755907
  0
CIRCLE
  5
213
330
1F
100
AcDbEntity
  8
0
  6
CONTINUOUS
 62
     7
100
AcDbCircle
 10
4.0006124813
 20
6.1606476126
 30
0.0
 40
0.1673228346456694
  0
LINE
  5
214
330
1F
100
AcDbEntity
  8
0
  6
CONTINUOUS
 62
     7
100
AcDbLine
 10
4.0793526388
 20
6.1151869615
 30
0.0
 11
4.0793526388
 21
6.2061082638
 31
0.0
  0
LINE
  5
215
330
1F
100
AcDbEntity
  8
0
  6
CONTINUOUS
 62
     7
100
AcDbLine
 10
4.0793526388
 20
6.2061082638
 30
0.0
 11
4.0006124813
 21
6.2515689149
 31
0.0
  0
LINE
  5
216
330
1F
100
AcDbEntity
  8
0
  6
CONTINUOUS
 62
     7
100
AcDbLine
 10
4.0006124813
 20
6.2515689149
 30
0.0
 11
3.9218723239
 21
6.2061082638
 31
0.0
  0
LINE
  5
217
330
1F
100
AcDbEntity
  8
0
  6
CONTINUOUS
 62
     7
100
AcDbLine
 10
3.9218723239
 20
6.2061082638
 30
0.0
 11
3.9218723239
 21
6.1151869615
 31
0.0
  0
LINE
  5
218
330
1F
100
AcDbEntity
  8
0
  6
CONTINUOUS
 62
     7
100
AcDbLine
 10
3.9218723239
 20
6.1151869615
 30
0.0
 11
4.0006124813
 21
6.0697263104
 31
0.0
  0
LINE
  5
219
330
1F
100
AcDbEntity
  8
0
  6
CONTINUOUS
 62
     7
100
AcDbLine
 10
4.0006124813
 20
6.0697263104
 30
0.0
 11
4.0793526388
 21
6.1151869615
 31
0.0
  0
LINE
  5
21A
330
1F
100
AcDbEntity
  8
0
  6
CONTINUOUS
 62
     7
100
AcDbLine
 10
2.6526597254
 20
7.0558354066
 30
0.0
 11
2.5477295318
 21
7.0558354066
 31
0.0
  0
LINE
  5
21B
330
1F
100
AcDbEntity
  8
0
  6
CONTINUOUS
 62
     7
100
AcDbLine
 10
2.7575161758
 20
7.0558354066
 30
0.0
 11
2.6526597254
 21
7.0558354066
 31
0.0
  0
LINE
  5
21C
330
1F
100
AcDbEntity
  8
0
  6
CONTINUOUS
 62
     7
100
AcDbLine
 10
2.6526597254
 20
7.2526858003
 30
0.0
 11
2.5050219302
 21
7.2526858003
 31
0.0
  0
LINE
  5
21D
330
1F
100
AcDbEntity
  8
0
  6
CONTINUOUS
 62
     7
100
AcDbLine
 10
2.8002975207
 20
7.2526858003
 30
0.0
 11
2.6526597254
 21
7.2526858003
 31
0.0
  0
LINE
  5
21E
330
1F
100
AcDbEntity
  8
0
  6
CONTINUOUS
 62
     7
100
AcDbLine
 10
2.573919568
 20
6.1601661153
 30
0.0
 11
2.7313998829
 21
6.1601661153
 31
0.0
  0
LINE
  5
21F
330
1F
100
AcDbEntity
  8
0
  6
CONTINUOUS
 62
     7
100
AcDbLine
 10
2.9971479144
 20
5.5696149342
 30
0.0
 11
2.9971479144
 21
7.7743393436
 31
0.0
  0
LINE
  5
220
330
1F
100
AcDbEntity
  8
0
  6
CONTINUOUS
 62
     7
100
AcDbLine
 10
2.977462875
 20
7.7546543043
 30
0.0
 11
2.977462875
 21
5.5892999736
 31
0.0
  0
LINE
  5
221
330
1F
100
AcDbEntity
  8
0
  6
CONTINUOUS
 62
     7
100
AcDbLine
 10
3.2282109065
 20
6.6719771389
 30
0.0
 11
3.2282109065
 21
7.7743393436
 31
0.0
  0
LINE
  5
222
330
1F
100
AcDbEntity
  8
0
  6
CONTINUOUS
 62
     7
100
AcDbLine
 10
3.2282109065
 20
5.5696149342
 30
0.0
 11
3.2282109065
 21
6.6719771389
 31
0.0
  0
LINE
  5
223
330
1F
100
AcDbEntity
  8
0
  6
CONTINUOUS
 62
     7
100
AcDbLine
 10
3.3660061821
 20
6.8198710277
 30
0.0
 11
3.2872660246
 21
6.8198710277
 31
0.0
  0
LINE
  5
224
330
1F
100
AcDbEntity
  8
0
  6
CONTINUOUS
 62
     7
100
AcDbLine
 10
3.3660061821
 20
6.5240832501
 30
0.0
 11
3.2872660246
 21
6.5240832501
 31
0.0
  0
LINE
  5
225
330
1F
100
AcDbEntity
  8
0
  6
CONTINUOUS
 62
     7
100
AcDbLine
 10
3.3660061821
 20
6.8198710277
 30
0.0
 11
3.3660061821
 21
6.5240832501
 31
0.0
  0
LINE
  5
226
330
1F
100
AcDbEntity
  8
0
  6
CONTINUOUS
 62
     7
100
AcDbLine
 10
3.2872660246
 20
6.8198710277
 30
0.0
 11
3.2872660246
 21
6.5240832501
 31
0.0
  0
LINE
  5
227
330
1F
100
AcDbEntity
  8
0
  6
CONTINUOUS
 62
     7
100
AcDbLine
 10
3.3660061821
 20
7.6712489805
 30
0.0
 11
3.2872660246
 21
7.6712489805
 31
0.0
  0
LINE
  5
228
330
1F
100
AcDbEntity
  8
0
  6
CONTINUOUS
 62
     7
100
AcDbLine
 10
3.3660061821
 20
7.6712489805
 30
0.0
 11
3.3660061821
 21
6.8198710277
 31
0.0
  0
LINE
  5
229
330
1F
100
AcDbEntity
  8
0
  6
CONTINUOUS
 62
     7
100
AcDbLine
 10
3.2872660246
 20
7.6712489805
 30
0.0
 11
3.2872660246
 21
6.8198710277
 31
0.0
  0
LINE
  5
22A
330
1F
100
AcDbEntity
  8
0
  6
CONTINUOUS
 62
     7
100
AcDbLine
 10
3.3660061821
 20
5.6727052974
 30
0.0
 11
3.2872660246
 21
5.6727052974
 31
0.0
  0
LINE
  5
22B
330
1F
100
AcDbEntity
  8
0
  6
CONTINUOUS
 62
     7
100
AcDbLine
 10
3.3660061821
 20
6.5240832501
 30
0.0
 11
3.3660061821
 21
5.6727052974
 31
0.0
  0
LINE
  5
22C
330
1F
100
AcDbEntity
  8
0
  6
CONTINUOUS
 62
     7
100
AcDbLine
 10
3.2872660246
 20
6.5240832501
 30
0.0
 11
3.2872660246
 21
5.6727052974
 31
0.0
  0
SPLINE
  5
22D
330
1F
100
AcDbEntity
  8
0
  6
CONTINUOUS
 62
     7
100
AcDbSpline
210
0.0
220
0.0
230
1.0
 70
     8
 71
     3
 72
    13
 73
     9
 74
     0
 42
0.00000001
 43
0.00000001
 40
0.0
 40
0.0
 40
0.0
 40
0.0
 40
0.1854628799590649
 40
0.3715632485470055
 40
0.5571416750000212
 40
0.7459512448425923
 40
0.9353794909596002
 40
0.9999999999999999
 40
0.9999999999999999
 40
0.9999999999999999
 40
0.9999999999999999
 10
2.54818950787713
 20
7.055835406632964
 30
0.0
 10
2.541197470769991
 20
7.065813884704585
 30
0.0
 10
2.527189362936965
 20
7.085805139712946
 30
0.0
 10
2.511085888029614
 20
7.116713365739987
 30
0.0
 10
2.498197200916671
 20
7.147720682018265
 30
0.0
 10
2.489538115340221
 20
7.178207776510232
 30
0.0
 10
2.48513528793402
 20
7.201771487211977
 30
0.0
 10
2.485798502580077
 20
7.214352909023269
 30
0.0
 10
2.485967199600476
 20
7.217553152541068
 30
0.0
  0
SPLINE
  5
22E
330
1F
100
AcDbEntity
  8
0
  6
CONTINUOUS
 62
     7
100
AcDbSpline
210
0.0
220
0.0
230
1.0
 70
     8
 71
     3
 72
    26
 73
    22
 74
     0
 42
0.00000001
 43
0.00000001
 40
0.0
 40
0.0
 40
0.0
 40
0.0
 40
0.0519206597901173
 40
0.1233310981026595
 40
0.1833552009278612
 40
0.243330677503126
 40
0.303726005180696
 40
0.3640808937870884
 40
0.4170552531600001
 40
0.4700191560911887
 40
0.519252821189918
 40
0.5684883576321867
 40
0.6169865580850943
 40
0.6654953040882631
 40
0.7152921567313856
 40
0.765109267209716
 40
0.8186489773933284
 40
0.872219621160157
 40
0.9331470978293381
 40
0.9941164049144905
 40
1.0
 40
1.0
 40
1.0
 40
1.0
 10
2.488150643416251
 20
7.242426381914006
 30
0.0
 10
2.489343691411741
 20
7.248147908070362
 30
0.0
 10
2.492177629192341
 20
7.261738684969943
 30
0.0
 10
2.502191970228631
 20
7.279751075612381
 30
0.0
 10
2.517057766040828
 20
7.29646997059778
 30
0.0
 10
2.535471381966155
 20
7.309998617385428
 30
0.0
 10
2.558225917710553
 20
7.320930624961122
 30
0.0
 10
2.583606112334545
 20
7.328825160807619
 30
0.0
 10
2.61042040317161
 20
7.333778723422709
 30
0.0
 10
2.636791079632681
 20
7.336194501662296
 30
0.0
 10
2.663008027970345
 20
7.336373340881085
 30
0.0
 10
2.688157143566362
 20
7.334581284648467
 30
0.0
 10
2.71214020323483
 20
7.330799174385717
 30
0.0
 10
2.734600033859122
 20
7.325108242002902
 30
0.0
 10
2.754986952268623
 20
7.317410858832068
 30
0.0
 10
2.773375092870528
 20
7.30759040344448
 30
0.0
 10
2.788944440946756
 20
7.295599621948922
 30
0.0
 10
2.802186448535421
 20
7.280996606948327
 30
0.0
 10
2.811484008744121
 20
7.263720671461999
 30
0.0
 10
2.816941076436156
 20
7.25054025664071
 30
0.0
 10
2.817468797356396
 20
7.242823619422952
 30
0.0
 10
2.817515241057598
 20
7.242144493052415
 30
0.0
  0
SPLINE
  5
22F
330
1F
100
AcDbEntity
  8
0
  6
CONTINUOUS
 62
     7
100
AcDbSpline
210
0.0
220
0.0
230
1.0
 70
     8
 71
     3
 72
    13
 73
     9
 74
     0
 42
0.00000001
 43
0.00000001
 40
0.0
 40
0.0
 40
0.0
 40
0.0
 40
0.038453379107692
 40
0.257697358355765
 40
0.4460727571060782
 40
0.6350887435708878
 40
0.8235527191987877
 40
1.0
 40
1.0
 40
1.0
 40
1.0
 10
2.819417678621909
 20
7.217589606499689
 30
0.0
 10
2.819593207580808
 20
7.21571049293363
 30
0.0
 10
2.820769524202991
 20
7.203117513766123
 30
0.0
 10
2.81598188741249
 20
7.179266453960265
 30
0.0
 10
2.80695196786638
 20
7.146956016954937
 30
0.0
 10
2.793730165902182
 20
7.115677363106602
 30
0.0
 10
2.777517870917224
 20
7.084995836527596
 30
0.0
 10
2.763775066683889
 20
7.065339789048776
 30
0.0
 10
2.757129942986461
 20
7.055835406632964
 30
0.0
  0
SPLINE
  5
230
330
1F
100
AcDbEntity
  8
0
  6
CONTINUOUS
 62
     7
100
AcDbSpline
210
0.0
220
0.0
230
1.0
 70
     8
 71
     3
 72
    64
 73
    60
 74
     0
 42
0.00000001
 43
0.00000001
 40
-0.0312499999999997
 40
-0.0312499999999997
 40
0.0
 40
0.0
 40
0.0312500000000001
 40
0.0312500000000001
 40
0.0625000000000003
 40
0.0625000000000003
 40
0.0937500000000004
 40
0.0937500000000004
 40
0.1250000000000006
 40
0.1250000000000006
 40
0.1875000000000013
 40
0.1875000000000013
 40
0.2187500000000015
 40
0.2187500000000015
 40
0.2500000000000017
 40
0.2500000000000017
 40
0.3125000000000019
 40
0.3125000000000019
 40
0.343750000000002
 40
0.343750000000002
 40
0.3750000000000021
 40
0.3750000000000021
 40
0.4062500000000021
 40
0.4062500000000021
 40
0.4375000000000021
 40
0.4375000000000021
 40
0.4687500000000021
 40
0.4687500000000021
 40
0.5000000000000021
 40
0.5000000000000021
 40
0.5312500000000022
 40
0.5312500000000022
 40
0.5625000000000023
 40
0.5625000000000023
 40
0.5937500000000023
 40
0.5937500000000023
 40
0.6250000000000021
 40
0.6250000000000021
 40
0.656250000000002
 40
0.656250000000002
 40
0.6875000000000018
 40
0.6875000000000018
 40
0.7187500000000016
 40
0.7187500000000016
 40
0.7500000000000013
 40
0.7500000000000013
 40
0.8125000000000012
 40
0.8125000000000012
 40
0.843750000000001
 40
0.843750000000001
 40
0.8750000000000009
 40
0.8750000000000009
 40
0.9062500000000007
 40
0.9062500000000007
 40
0.9375000000000004
 40
0.9375000000000004
 40
0.9687500000000003
 40
0.9687500000000003
 40
1.0
 40
1.0
 40
1.03125
 40
1.03125
 10
2.660552182818837
 20
6.238675515655655
 30
0.0
 10
2.644767268044755
 20
6.238675515655655
 30
0.0
 10
2.63721199115434
 20
6.237356055964127
 30
0.0
 10
2.622660407526398
 20
6.232559491254952
 30
0.0
 10
2.616035477863137
 20
6.229211158702173
 30
0.0
 10
2.603837165684327
 20
6.221316845937195
 30
0.0
 10
2.598412263954014
 20
6.216866209392302
 30
0.0
 10
2.588612490509589
 20
6.207412874535175
 30
0.0
 10
2.584194010126011
 20
6.202349986625228
 30
0.0
 10
2.572414939908335
 20
6.186783645191334
 30
0.0
 10
2.566505784258834
 20
6.176015128559033
 30
0.0
 10
2.560017087675952
 20
6.159571281081699
 30
0.0
 10
2.558271497051309
 20
6.154034410062011
 30
0.0
 10
2.55569600091443
 20
6.143142318479979
 30
0.0
 10
2.554850615988521
 20
6.13775180436844
 30
0.0
 10
2.553701695568719
 20
6.121750852790606
 30
0.0
 10
2.554815622765982
 20
6.111196894301027
 30
0.0
 10
2.5598444335041
 20
6.096570188287158
 30
0.0
 10
2.562076482329779
 20
6.091865250721095
 30
0.0
 10
2.567860159141014
 20
6.082808362347909
 30
0.0
 10
2.571362441642725
 20
6.078546283796039
 30
0.0
 10
2.579633198039093
 20
6.070674434538148
 30
0.0
 10
2.58447939336095
 20
6.067006267158358
 30
0.0
 10
2.595400552923293
 20
6.06054060932314
 30
0.0
 10
2.60142145686262
 20
6.057752668978787
 30
0.0
 10
2.614738282409463
 20
6.053104768307571
 30
0.0
 10
2.621876338950699
 20
6.051312950719531
 30
0.0
 10
2.636714223212641
 20
6.048889074539971
 30
0.0
 10
2.644595219221165
 20
6.048246042588996
 30
0.0
 10
2.660101738868409
 20
6.04821358204536
 30
0.0
 10
2.667929417889854
 20
6.048813662431849
 30
0.0
 10
2.682926438050242
 20
6.05119624005326
 30
0.0
 10
2.690062973340643
 20
6.05295808553711
 30
0.0
 10
2.703470355325154
 20
6.0575715653007
 30
0.0
 10
2.709535845404791
 20
6.060347503112569
 30
0.0
 10
2.720544204664658
 20
6.066799459447259
 30
0.0
 10
2.725405762433727
 20
6.07044399758635
 30
0.0
 10
2.733764131925338
 20
6.078328200817165
 30
0.0
 10
2.737327015065016
 20
6.082638915024371
 30
0.0
 10
2.743111210875759
 20
6.091622923226871
 30
0.0
 10
2.745365028357567
 20
6.096313276538571
 30
0.0
 10
2.748766142709147
 20
6.106082807509297
 30
0.0
 10
2.749912744924103
 20
6.111202322939847
 30
0.0
 10
2.75114175930144
 20
6.121566156083325
 30
0.0
 10
2.751238023881954
 20
6.126823508762927
 30
0.0
 10
2.750134663824311
 20
6.142821962581431
 30
0.0
 10
2.747507365637089
 20
6.153927974632756
 30
0.0
 10
2.74107650926216
 20
6.170307455866671
 30
0.0
 10
2.738518861594218
 20
6.175732752881825
 30
0.0
 10
2.732525875576866
 20
6.186483374710966
 30
0.0
 10
2.729070903134649
 20
6.191837840043709
 30
0.0
 10
2.721212265689245
 20
6.202246989517453
 30
0.0
 10
2.716848192561043
 20
6.207261527702646
 30
0.0
 10
2.707038302109811
 20
6.216754423287723
 30
0.0
 10
2.701534125867853
 20
6.221271553597494
 30
0.0
 10
2.689455931091856
 20
6.229111400904243
 30
0.0
 10
2.682738489798462
 20
6.232517400433145
 30
0.0
 10
2.668320174350287
 20
6.237301524216431
 30
0.0
 10
2.660552182818837
 20
6.238675515655655
 30
0.0
 10
2.644767268044755
 20
6.238675515655655
 30
0.0
  0
LINE
  5
231
330
1F
100
AcDbEntity
  8
0
  6
CONTINUOUS
 62
     7
100
AcDbLine
 10
2.9249694367
 20
7.3080202264
 30
0.0
 11
2.8724759984
 21
7.3080202264
 31
0.0
  0
LINE
  5
232
330
1F
100
AcDbEntity
  8
0
  6
CONTINUOUS
 62
     7
100
AcDbLine
 10
2.8724759984
 20
7.420008635
 30
0.0
 11
2.8724759984
 21
6.6916621783
 31
0.0
  0
LINE
  5
233
330
1F
100
AcDbEntity
  8
0
  6
CONTINUOUS
 62
     7
100
AcDbLine
 10
2.4558093317
 20
6.6916621783
 30
0.0
 11
2.8724759984
 21
6.6916621783
 31
0.0
  0
LINE
  5
234
330
1F
100
AcDbEntity
  8
0
  6
CONTINUOUS
 62
     7
100
AcDbLine
 10
2.4558093317
 20
6.6916621783
 30
0.0
 11
2.4558093317
 21
7.420008635
 31
0.0
  0
LINE
  5
235
330
1F
100
AcDbEntity
  8
0
  6
CONTINUOUS
 62
     7
100
AcDbLine
 10
2.4558093317
 20
5.9239456429
 30
0.0
 11
2.4558093317
 21
6.6522920995
 31
0.0
  0
LINE
  5
236
330
1F
100
AcDbEntity
  8
0
  6
CONTINUOUS
 62
     7
100
AcDbLine
 10
2.4558093317
 20
6.6522920995
 30
0.0
 11
2.8724759984
 21
6.6522920995
 31
0.0
  0
LINE
  5
237
330
1F
100
AcDbEntity
  8
0
  6
CONTINUOUS
 62
     7
100
AcDbLine
 10
2.8724759984
 20
6.6522920995
 30
0.0
 11
2.8724759984
 21
5.9239456429
 31
0.0
  0
LINE
  5
238
330
1F
100
AcDbEntity
  8
0
  6
CONTINUOUS
 62
     7
100
AcDbLine
 10
2.8724759984
 20
6.0359340515
 30
0.0
 11
2.9249694367
 21
6.0359340515
 31
0.0
  0
LINE
  5
239
330
1F
100
AcDbEntity
  8
0
  6
CONTINUOUS
 62
     7
100
AcDbLine
 10
2.9249694367
 20
5.9239456429
 30
0.0
 11
2.9249694367
 21
7.420008635
 31
0.0
  0
LINE
  5
23A
330
1F
100
AcDbEntity
  8
0
  6
CONTINUOUS
 62
     7
100
AcDbLine
 10
2.4558093317
 20
6.6916621783
 30
0.0
 11
2.4408093317
 21
6.6916621783
 31
0.0
  0
LINE
  5
23B
330
1F
100
AcDbEntity
  8
0
  6
CONTINUOUS
 62
     7
100
AcDbLine
 10
2.4408093317
 20
6.6522920995
 30
0.0
 11
2.4408093317
 21
5.9389456429
 31
0.0
  0
LINE
  5
23C
330
1F
100
AcDbEntity
  8
0
  6
CONTINUOUS
 62
     7
100
AcDbLine
 10
2.4408093317
 20
7.405008635
 30
0.0
 11
2.4408093317
 21
6.6916621783
 31
0.0
  0
LINE
  5
23D
330
1F
100
AcDbEntity
  8
0
  6
CONTINUOUS
 62
     7
100
AcDbLine
 10
2.4558093317
 20
6.6522920995
 30
0.0
 11
2.4408093317
 21
6.6522920995
 31
0.0
  0
LINE
  5
23E
330
1F
100
AcDbEntity
  8
0
  6
CONTINUOUS
 62
     7
100
AcDbLine
 10
3.3660061821
 20
7.732508635
 30
0.0
 11
3.3660061821
 21
7.6712489805
 31
0.0
  0
LINE
  5
23F
330
1F
100
AcDbEntity
  8
0
  6
CONTINUOUS
 62
     7
100
AcDbLine
 10
3.2872660246
 20
7.732508635
 30
0.0
 11
3.2872660246
 21
7.6712489805
 31
0.0
  0
LINE
  5
240
330
1F
100
AcDbEntity
  8
0
  6
CONTINUOUS
 62
     7
100
AcDbLine
 10
3.3660061821
 20
5.6727052974
 30
0.0
 11
3.3660061821
 21
5.6114456429
 31
0.0
  0
LINE
  5
241
330
1F
100
AcDbEntity
  8
0
  6
CONTINUOUS
 62
     7
100
AcDbLine
 10
3.2872660246
 20
5.6727052974
 30
0.0
 11
3.2872660246
 21
5.6114456429
 31
0.0
  0
LINE
  5
242
330
1F
100
AcDbEntity
  8
0
  6
CONTINUOUS
 62
     7
100
AcDbLine
 10
2.4408093317
 20
6.6916621783
 30
0.0
 11
2.4408093317
 21
6.6522920995
 31
0.0
  0
LINE
  5
243
330
1F
100
AcDbEntity
  8
0
  6
CONTINUOUS
 62
     7
100
AcDbLine
 10
2.8724759984
 20
6.6522920995
 30
0.0
 11
2.8724759984
 21
6.6916621783
 31
0.0
  0
LINE
  5
244
330
1F
100
AcDbEntity
  8
0
  6
CONTINUOUS
 62
     8
100
AcDbLine
 10
2.6526597254
 20
7.233000761
 30
0.0
 11
2.8199825601
 21
7.233000761
 31
0.0
  0
LINE
  5
245
330
1F
100
AcDbEntity
  8
0
  6
CONTINUOUS
 62
     8
100
AcDbLine
 10
2.4853368908
 20
7.233000761
 30
0.0
 11
2.6526597254
 21
7.233000761
 31
0.0
  0
LINE
  5
246
330
1F
100
AcDbEntity
  8
0
  6
CONTINUOUS
 62
     8
100
AcDbLine
 10
2.7365551096
 20
6.1798511547
 30
0.0
 11
2.5684612148
 21
6.1798511547
 31
0.0
  0
LINE
  5
247
330
1F
100
AcDbEntity
  8
0
  6
HIDDEN
 62
     7
100
AcDbLine
 10
3.8961422638
 20
6.0299460264
 30
0.0
 11
4.1050826989
 21
6.0299460264
 31
0.0
  0
CIRCLE
  5
248
330
1F
100
AcDbEntity
  8
0
  6
HIDDEN
 62
     7
100
AcDbCircle
 10
4.0006124813
 20
6.1606476126
 30
0.0
 40
0.0984251968503944
  0
ARC
  5
249
330
1F
100
AcDbEntity
  8
0
  6
HIDDEN
 62
     7
100
AcDbCircle
 10
4.212462875
 20
6.9475676901
 30
0.0
 40
0.4316666666666662
100
AcDbArc
 50
90.0
 51
180.0
  0
LINE
  5
24A
330
1F
100
AcDbEntity
  8
0
  6
HIDDEN
 62
     7
100
AcDbLine
 10
4.197462875
 20
6.946863754
 30
0.0
 11
3.7807962084
 21
6.946863754
 31
0.0
  0
LINE
  5
24B
330
1F
100
AcDbEntity
  8
0
  6
HIDDEN
 62
     7
100
AcDbLine
 10
4.197462875
 20
6.946863754
 30
0.0
 11
4.212462875
 21
6.9619001764
 31
0.0
  0
LINE
  5
24C
330
1F
100
AcDbEntity
  8
0
  6
HIDDEN
 62
     7
100
AcDbLine
 10
3.7807962084
 20
6.3970905239
 30
0.0
 11
4.197462875
 21
6.3970905239
 31
0.0
  0
LINE
  5
24D
330
1F
100
AcDbEntity
  8
0
  6
HIDDEN
 62
     7
100
AcDbLine
 10
4.212462875
 20
6.3820541014
 30
0.0
 11
4.197462875
 21
6.3970905239
 31
0.0
  0
CIRCLE
  5
24E
330
1F
100
AcDbEntity
  8
0
  6
HIDDEN
 62
     7
100
AcDbCircle
 10
4.0006124813
 20
6.1606476126
 30
0.0
 40
0.0787401574803148
  0
LINE
  5
24F
330
1F
100
AcDbEntity
  8
0
  6
HIDDEN
 62
     7
100
AcDbLine
 10
2.5477295318
 20
7.0558354066
 30
0.0
 11
2.4853368908
 21
7.0558354066
 31
0.0
  0
LINE
  5
250
330
1F
100
AcDbEntity
  8
0
  6
HIDDEN
 62
     7
100
AcDbLine
 10
2.8199825601
 20
7.0558354066
 30
0.0
 11
2.7575161758
 21
7.0558354066
 31
0.0
  0
LINE
  5
251
330
1F
100
AcDbEntity
  8
0
  6
HIDDEN
 62
     7
100
AcDbLine
 10
2.6526597254
 20
7.0952054854
 30
0.0
 11
2.6526597254
 21
7.2526858003
 31
0.0
  0
LINE
  5
252
330
1F
100
AcDbEntity
  8
0
  6
HIDDEN
 62
     7
100
AcDbLine
 10
2.6526597254
 20
7.0952054854
 30
0.0
 11
2.573919568
 21
7.0952054854
 31
0.0
  0
LINE
  5
253
330
1F
100
AcDbEntity
  8
0
  6
HIDDEN
 62
     7
100
AcDbLine
 10
2.7313998829
 20
7.0952054854
 30
0.0
 11
2.6526597254
 21
7.0952054854
 31
0.0
  0
LINE
  5
254
330
1F
100
AcDbEntity
  8
0
  6
HIDDEN
 62
     7
100
AcDbLine
 10
2.573919568
 20
7.0952054854
 30
0.0
 11
2.573919568
 21
7.2526858003
 31
0.0
  0
LINE
  5
255
330
1F
100
AcDbEntity
  8
0
  6
HIDDEN
 62
     7
100
AcDbLine
 10
2.7313998829
 20
7.0952054854
 30
0.0
 11
2.7313998829
 21
7.2526858003
 31
0.0
  0
SPLINE
  5
256
330
1F
100
AcDbEntity
  8
0
  6
HIDDEN
 62
     7
100
AcDbSpline
210
0.0
220
0.0
230
1.0
 70
     8
 71
     3
 72
     9
 73
     5
 74
     0
 42
0.00000001
 43
0.00000001
 40
0.0
 40
0.0
 40
0.0
 40
0.0
 40
0.7296537925779885
 40
1.0
 40
1.0
 40
1.0
 40
1.0
 10
2.485967199600476
 20
7.217553152541068
 30
0.0
 10
2.485700184510878
 20
7.223880629246854
 30
0.0
 10
2.485334236862399
 20
7.232552518257982
 30
0.0
 10
2.487551275444006
 20
7.240325095212467
 30
0.0
 10
2.488150643416251
 20
7.242426381914006
 30
0.0
  0
LINE
  5
257
330
1F
100
AcDbEntity
  8
0
  6
HIDDEN
 62
     7
100
AcDbLine
 10
2.8175152411
 20
7.2421444931
 30
0.0
 11
2.8194176786
 21
7.2175896065
 31
0.0
  0
LINE
  5
258
330
1F
100
AcDbEntity
  8
0
  6
HIDDEN
 62
     7
100
AcDbLine
 10
2.4558093317
 20
6.6916621783
 30
0.0
 11
2.4558093317
 21
6.6522920995
 31
0.0
  0
LINE
  5
259
330
1F
100
AcDbEntity
  8
0
  6
HIDDEN
 62
     7
100
AcDbLine
 10
2.5481895079
 20
7.0558354066
 30
0.0
 11
2.4853368908
 21
7.0558354066
 31
0.0
  0
LINE
  5
25A
330
1F
100
AcDbEntity
  8
0
  6
HIDDEN
 62
     7
100
AcDbLine
 10
2.8199825601
 20
7.0558354066
 30
0.0
 11
2.757129943
 21
7.0558354066
 31
0.0
  0
LINE
  5
25B
330
1F
100
AcDbEntity
  8
0
  6
HIDDEN
 62
     7
100
AcDbLine
 10
3.3660061821
 20
7.6712489805
 30
0.0
 11
3.2872660246
 21
7.6712489805
 31
0.0
  0
LINE
  5
25C
330
1F
100
AcDbEntity
  8
0
  6
HIDDEN
 62
     7
100
AcDbLine
 10
3.3660061821
 20
5.6727052974
 30
0.0
 11
3.2872660246
 21
5.6727052974
 31
0.0
  0
LINE
  5
25D
330
1F
100
AcDbEntity
  8
0
  6
HIDDEN
 62
     7
100
AcDbLine
 10
3.3660061821
 20
6.5240832501
 30
0.0
 11
3.2872660246
 21
6.5240832501
 31
0.0
  0
LINE
  5
25E
330
1F
100
AcDbEntity
  8
0
  6
HIDDEN
 62
     7
100
AcDbLine
 10
3.3660061821
 20
6.8198710277
 30
0.0
 11
3.2872660246
 21
6.8198710277
 31
0.0
  0
LINE
  5
25F
330
1F
100
AcDbEntity
  8
0
  6
HIDDEN
 62
     7
100
AcDbLine
 10
3.7283027701
 20
6.9475676901
 30
0.0
 11
3.4250613002
 21
6.9475676901
 31
0.0
  0
LINE
  5
260
330
1F
100
AcDbEntity
  8
0
  6
HIDDEN
 62
     7
100
AcDbLine
 10
3.4250613002
 20
6.3963865877
 30
0.0
 11
3.7283027701
 21
6.3963865877
 31
0.0
  0
LINE
  5
261
330
1F
100
AcDbEntity
  8
0
  6
HIDDEN
 62
     7
100
AcDbLine
 10
2.8199825601
 20
7.0558354066
 30
0.0
 11
2.8199825601
 21
7.2147710972
 31
0.0
  0
LINE
  5
262
330
1F
100
AcDbEntity
  8
0
  6
HIDDEN
 62
     7
100
AcDbLine
 10
2.4853368908
 20
7.2127299568
 30
0.0
 11
2.4853368908
 21
7.0558354066
 31
0.0
  0
LINE
  5
263
330
1F
100
AcDbEntity
  8
0
  6
HIDDEN
 62
     7
100
AcDbLine
 10
2.5542345286
 20
7.0558354066
 30
0.0
 11
2.5542345286
 21
6.6916621783
 31
0.0
  0
LINE
  5
264
330
1F
100
AcDbEntity
  8
0
  6
HIDDEN
 62
     7
100
AcDbLine
 10
2.5542345286
 20
6.6522920995
 30
0.0
 11
2.5542345286
 21
6.1798511547
 31
0.0
  0
LINE
  5
265
330
1F
100
AcDbEntity
  8
0
  6
HIDDEN
 62
     7
100
AcDbLine
 10
2.7510849223
 20
6.1798511547
 30
0.0
 11
2.7510849223
 21
6.6522920995
 31
0.0
  0
LINE
  5
266
330
1F
100
AcDbEntity
  8
0
  6
HIDDEN
 62
     7
100
AcDbLine
 10
2.7510849223
 20
6.6916621783
 30
0.0
 11
2.7510849223
 21
7.0558354066
 31
0.0
  0
ARC
  5
267
330
1F
100
AcDbEntity
  8
0
  6
HIDDEN
 62
     7
100
AcDbCircle
 10
2.7313998829
 20
6.1798511547
 30
0.0
 40
0.0196850393700787
100
AcDbArc
 50
306.4810819084
 51
0.0
  0
ARC
  5
268
330
1F
100
AcDbEntity
  8
0
  6
HIDDEN
 62
     7
100
AcDbCircle
 10
2.573919568
 20
6.1798511547
 30
0.0
 40
0.0196850393700787
100
AcDbArc
 50
180.0
 51
233.2066452367
  0
LINE
  5
269
330
1F
100
AcDbEntity
  8
0
  6
HIDDEN
 62
     7
100
AcDbLine
 10
2.8199825601
 20
7.0558354066
 30
0.0
 11
2.8199825601
 21
7.2175896065
 31
0.0
  0
LINE
  5
26A
330
1F
100
AcDbEntity
  8
0
  6
HIDDEN
 62
     7
100
AcDbLine
 10
2.4853368908
 20
7.2175531525
 30
0.0
 11
2.4853368908
 21
7.0558354066
 31
0.0
  0
LINE
  5
26B
330
1F
100
AcDbEntity
  8
0
  6
HIDDEN
 62
     7
100
AcDbLine
 10
2.5542345286
 20
6.6522920995
 30
0.0
 11
2.5542345286
 21
6.1262110128
 31
0.0
  0
LINE
  5
26C
330
1F
100
AcDbEntity
  8
0
  6
HIDDEN
 62
     7
100
AcDbLine
 10
2.7510849223
 20
6.1261726815
 30
0.0
 11
2.7510849223
 21
6.6522920995
 31
0.0
  0
LINE
  5
26D
330
1F
100
AcDbEntity
  8
0
  6
HIDDEN
 62
     7
100
AcDbLine
 10
2.5542345286
 20
7.0558354066
 30
0.0
 11
2.5542345286
 21
6.6916621783
 31
0.0
  0
LINE
  5
26E
330
1F
100
AcDbEntity
  8
0
  6
HIDDEN
 62
     7
100
AcDbLine
 10
2.7510849223
 20
6.6916621783
 30
0.0
 11
2.7510849223
 21
7.0558354066
 31
0.0
  0
LINE
  5
26F
330
1F
100
AcDbEntity
  8
0
  6
HIDDEN
 62
     7
100
AcDbLine
 10
3.3660061821
 20
7.0263078476
 30
0.0
 11
3.2872660246
 21
7.0263078476
 31
0.0
  0
LINE
  5
270
330
1F
100
AcDbEntity
  8
0
  6
HIDDEN
 62
     7
100
AcDbLine
 10
3.2872660246
 20
6.3176464303
 30
0.0
 11
3.3660061821
 21
6.3176464303
 31
0.0
  0
LINE
  5
271
330
1F
100
AcDbEntity
  8
0
  6
HIDDEN
 62
     7
100
AcDbLine
 10
2.4558093317
 20
6.9475676901
 30
0.0
 11
2.4408093317
 21
6.9625676901
 31
0.0
  0
LINE
  5
272
330
1F
100
AcDbEntity
  8
0
  6
HIDDEN
 62
     7
100
AcDbLine
 10
2.4408093317
 20
6.3813865877
 30
0.0
 11
2.4558093317
 21
6.3963865877
 31
0.0
  0
LINE
  5
273
330
1F
100
AcDbEntity
  8
0
  6
HIDDEN
 62
     7
100
AcDbLine
 10
2.9249694367
 20
6.3963865877
 30
0.0
 11
3.2282109065
 21
6.3963865877
 31
0.0
  0
LINE
  5
274
330
1F
100
AcDbEntity
  8
0
  6
HIDDEN
 62
     7
100
AcDbLine
 10
3.2282109065
 20
6.9475676901
 30
0.0
 11
2.9249694367
 21
6.9475676901
 31
0.0
  0
LINE
  5
275
330
1F
100
AcDbEntity
  8
0
  6
HIDDEN
 62
     7
100
AcDbLine
 10
2.8724759984
 20
6.9475676901
 30
0.0
 11
2.4558093317
 21
6.9475676901
 31
0.0
  0
LINE
  5
276
330
1F
100
AcDbEntity
  8
0
  6
HIDDEN
 62
     7
100
AcDbLine
 10
2.4558093317
 20
6.3963865877
 30
0.0
 11
2.8724759984
 21
6.3963865877
 31
0.0
  0
LINE
  5
277
330
1F
100
AcDbEntity
  8
0
  6
HIDDEN
 62
     7
100
AcDbLine
 10
2.8199825601
 20
7.233000761
 30
0.0
 11
2.4853368908
 21
7.233000761
 31
0.0
  0
LINE
  5
278
330
1F
100
AcDbEntity
  8
0
  6
HIDDEN
 62
     7
100
AcDbLine
 10
2.6526597254
 20
6.1798511547
 30
0.0
 11
2.7510050993
 21
6.1798511547
 31
0.0
  0
LINE
  5
279
330
1F
100
AcDbEntity
  8
0
  6
HIDDEN
 62
     7
100
AcDbLine
 10
2.6526597254
 20
6.1798511547
 30
0.0
 11
2.5543143516
 21
6.1798511547
 31
0.0
  0
LINE
  5
27A
330
1F
100
AcDbEntity
  8
0
  6
CONTINUOUS
 62
     7
100
AcDbLine
 10
8.4066504104
 20
5.8178979823
 30
0.0
 11
8.420567573
 21
5.8259348012
 31
0.0
  0
LINE
  5
27B
330
1F
100
AcDbEntity
  8
0
  6
CONTINUOUS
 62
     7
100
AcDbLine
 10
9.186011512
 20
7.1518662615
 30
0.0
 11
9.186011512
 21
7.1679372873
 31
0.0
  0
LINE
  5
27C
330
1F
100
AcDbEntity
  8
0
  6
CONTINUOUS
 62
     7
100
AcDbLine
 10
7.6920012038
 20
5.8575698814
 30
0.0
 11
7.8553874124
 21
5.7632490309
 31
0.0
  0
LINE
  5
27D
330
1F
100
AcDbEntity
  8
0
  6
CONTINUOUS
 62
     7
100
AcDbLine
 10
8.9576600311
 20
7.6726480976
 30
0.0
 11
8.7942738225
 21
7.7669689481
 31
0.0
  0
LINE
  5
27E
330
1F
100
AcDbEntity
  8
0
  6
CONTINUOUS
 62
     7
100
AcDbLine
 10
8.7893938718
 20
5.88622335
 30
0.0
 11
8.7999987496
 21
5.892347406
 31
0.0
  0
LINE
  5
27F
330
1F
100
AcDbEntity
  8
0
  6
CONTINUOUS
 62
     7
100
AcDbLine
 10
9.3182460479
 20
6.7900753281
 30
0.0
 11
9.3182460479
 21
6.8023214498
 31
0.0
  0
LINE
  5
280
330
1F
100
AcDbEntity
  8
0
  6
CONTINUOUS
 62
     7
100
AcDbLine
 10
8.3443122007
 20
5.890133536
 30
0.0
 11
8.4153225517
 21
5.849140133
 31
0.0
  0
LINE
  5
281
330
1F
100
AcDbEntity
  8
0
  6
CONTINUOUS
 62
     7
100
AcDbLine
 10
8.1206947262
 20
6.0192251563
 30
0.0
 11
8.1901238839
 21
5.9791445567
 31
0.0
  0
LINE
  5
282
330
1F
100
AcDbEntity
  8
0
  6
CONTINUOUS
 62
     7
100
AcDbLine
 10
8.0464577938
 20
6.0620812251
 30
0.0
 11
8.08357626
 21
6.0406531907
 31
0.0
  0
LINE
  5
283
330
1F
100
AcDbEntity
  8
0
  6
CONTINUOUS
 62
     7
100
AcDbLine
 10
9.1632932572
 20
7.1448037853
 30
0.0
 11
8.7944284993
 21
7.3577448775
 31
0.0
  0
SPLINE
  5
284
330
1F
100
AcDbEntity
  8
0
  6
CONTINUOUS
 62
     7
100
AcDbSpline
210
0.0
220
0.0
230
1.0
 70
     8
 71
     3
 72
    33
 73
    29
 74
     0
 42
0.00000001
 43
0.00000001
 40
0.0
 40
0.0
 40
0.0
 40
0.0
 40
0.023516766810657
 40
0.0608984988935786
 40
0.0991819958434757
 40
0.1383979351944797
 40
0.1783477026786146
 40
0.2187281550453452
 40
0.2592655356667281
 40
0.2997616646713283
 40
0.3401639790181823
 40
0.3804691966959761
 40
0.4206990848300362
 40
0.460886868964558
 40
0.5010707711503836
 40
0.5412846701651347
 40
0.5815633489081262
 40
0.6219486573204633
 40
0.6624800056294368
 40
0.7031878691893583
 40
0.7440794196169456
 40
0.7851108043916919
 40
0.8260761789822865
 40
0.8666550204151173
 40
0.9064538641945957
 40
0.9451840545919578
 40
0.9828468445217987
 40
1.0
 40
1.0
 40
1.0
 40
1.0
 10
8.451186103479396
 20
6.851198827605416
 30
0.0
 10
8.45027106422629
 20
6.853712956725914
 30
0.0
 10
8.447901498826784
 20
6.860223489857262
 30
0.0
 10
8.441769372202835
 20
6.870101400411535
 30
0.0
 10
8.433130732080766
 20
6.880808230817384
 30
0.0
 10
8.422445663287952
 20
6.890802610814039
 30
0.0
 10
8.409930522708194
 20
6.899973895919915
 30
0.0
 10
8.395729749335219
 20
6.908166539440651
 30
0.0
 10
8.38008312243321
 20
6.915255936744359
 30
0.0
 10
8.363238828327196
 20
6.921149994636276
 30
0.0
 10
8.345446065430481
 20
6.925788119172682
 30
0.0
 10
8.326942099936877
 20
6.929130997129906
 30
0.0
 10
8.307963372628107
 20
6.931152374143735
 30
0.0
 10
8.288746639428483
 20
6.931836977865593
 30
0.0
 10
8.26952984517523
 20
6.931179948198173
 30
0.0
 10
8.250550548328082
 20
6.92918687407127
 30
0.0
 10
8.232042415974277
 20
6.925873298474445
 30
0.0
 10
8.21423207268878
 20
6.921263038433018
 30
0.0
 10
8.197338243856949
 20
6.91538604030228
 30
0.0
 10
8.181574110994255
 20
6.908277030035523
 30
0.0
 10
8.167151152876876
 20
6.899976013460223
 30
0.0
 10
8.15429513241864
 20
6.89053929442033
 30
0.0
 10
8.143240082072264
 20
6.88005640777067
 30
0.0
 10
8.13423642069749
 20
6.868674302017467
 30
0.0
 10
8.12743575492236
 20
6.856605832273094
 30
0.0
 10
8.123129151821924
 20
6.844123812510012
 30
0.0
 10
8.121138008569023
 20
6.833702965558669
 30
0.0
 10
8.121423118854942
 20
6.827561184016975
 30
0.0
 10
8.121512336344969
 20
6.825639280948194
 30
0.0
  0
LINE
  5
285
330
1F
100
AcDbEntity
  8
0
  6
CONTINUOUS
 62
     7
100
AcDbLine
 10
8.1212262461
 20
6.8266989856
 30
0.0
 11
8.1212262461
 21
6.6820362433
 31
0.0
  0
LINE
  5
286
330
1F
100
AcDbEntity
  8
0
  6
CONTINUOUS
 62
     7
100
AcDbLine
 10
8.1901238839
 20
5.9838064981
 30
0.0
 11
8.1901238839
 21
5.966759351
 31
0.0
  0
SPLINE
  5
287
330
1F
100
AcDbEntity
  8
0
  6
CONTINUOUS
 62
     7
100
AcDbSpline
210
0.0
220
0.0
230
1.0
 70
     8
 71
     3
 72
    21
 73
    17
 74
     0
 42
0.00000001
 43
0.00000001
 40
0.0
 40
0.0
 40
0.0
 40
0.0
 40
0.0318473773879244
 40
0.1030375556774667
 40
0.1740210053986168
 40
0.2465847885887043
 40
0.3220074366606754
 40
0.4005857635884891
 40
0.4815087599881331
 40
0.5634663360292895
 40
0.6453196177960896
 40
0.7268508786970355
 40
0.8081405387888777
 40
0.8893923611818334
 40
0.97082721316079
 40
1.0
 40
1.0
 40
1.0
 40
1.0
 10
8.190407027205817
 20
5.967025205525273
 30
0.0
 10
8.190332781619265
 20
5.96552812240489
 30
0.0
 10
8.190092570826867
 20
5.960684527797674
 30
0.0
 10
8.192050362388901
 20
5.952606642737945
 30
0.0
 10
8.19600897014419
 20
5.943239255338126
 30
0.0
 10
8.201993080307332
 20
5.934543252574693
 30
0.0
 10
8.209797102344307
 20
5.926564819599963
 30
0.0
 10
8.219429711721723
 20
5.919412633878754
 30
0.0
 10
8.230736375238477
 20
5.913259222238956
 30
0.0
 10
8.24343188243726
 20
5.908286547829205
 30
0.0
 10
8.257151998794352
 20
5.904616904401895
 30
0.0
 10
8.271531959743104
 20
5.902320002863451
 30
0.0
 10
8.286272323614988
 20
5.901387739159709
 30
0.0
 10
8.301009205983853
 20
5.901941514888245
 30
0.0
 10
8.312521512641625
 20
5.903203628706297
 30
0.0
 10
8.318761700934012
 20
5.904737832100994
 30
0.0
 10
8.320407551843005
 20
5.9051424785529
 30
0.0
  0
SPLINE
  5
288
330
1F
100
AcDbEntity
  8
0
  6
CONTINUOUS
 62
     7
100
AcDbSpline
210
0.0
220
0.0
230
1.0
 70
     8
 71
     3
 72
    25
 73
    21
 74
     0
 42
0.00000001
 43
0.00000001
 40
0.0
 40
0.0
 40
0.0
 40
0.0
 40
0.0469588107858588
 40
0.1001297604502425
 40
0.1538607479950838
 40
0.2093517981496501
 40
0.2672118140027992
 40
0.3272079769821041
 40
0.3884500926533605
 40
0.4499453608314549
 40
0.5112380486271276
 40
0.5723033617372074
 40
0.6332608784126301
 40
0.6942857103088735
 40
0.7555191330942935
 40
0.8171583537375738
 40
0.8793935979415325
 40
0.9066755623983369
 40
0.9406911722165856
 40
1.0
 40
1.0
 40
1.0
 40
1.0
 10
7.29926462698823
 20
7.42900014150563
 30
0.0
 10
7.296792602603095
 20
7.427391469629258
 30
0.0
 10
7.291521531948439
 20
7.423961316119648
 30
0.0
 10
7.285081672440893
 20
7.416613021550147
 30
0.0
 10
7.279775524042774
 20
7.407757461814239
 30
0.0
 10
7.276032301961159
 20
7.397580691696331
 30
0.0
 10
7.273864403864573
 20
7.386203394654751
 30
0.0
 10
7.273369408378502
 20
7.373752235483455
 30
0.0
 10
7.274594964216507
 20
7.360517564436119
 30
0.0
 10
7.27750687856954
 20
7.346869306515254
 30
0.0
 10
7.281997698382543
 20
7.33317270083828
 30
0.0
 10
7.287932132718474
 20
7.31973744496797
 30
0.0
 10
7.295168449897978
 20
7.306835401675978
 30
0.0
 10
7.30355851669441
 20
7.294726207897624
 30
0.0
 10
7.312951807430699
 20
7.283656092672045
 30
0.0
 10
7.323198401663836
 20
7.273867031608684
 30
0.0
 10
7.332071293850167
 20
7.26715493698897
 30
0.0
 10
7.339534453410573
 20
7.26255472678145
 30
0.0
 10
7.346941366801323
 20
7.258582337547073
 30
0.0
 10
7.352832074237353
 20
7.256582885646747
 30
0.0
 10
7.356575691255836
 20
7.255312209375181
 30
0.0
  0
LINE
  5
289
330
1F
100
AcDbEntity
  8
0
  6
CONTINUOUS
 62
     7
100
AcDbLine
 10
7.3145402947
 20
7.4379665382
 30
0.0
 11
7.2997729021
 21
7.4294415039
 31
0.0
  0
LINE
  5
28A
330
1F
100
AcDbEntity
  8
0
  6
CONTINUOUS
 62
     7
100
AcDbLine
 10
8.6550795742
 20
7.8473240772
 30
0.0
 11
8.4916933656
 21
7.9416449278
 31
0.0
  0
LINE
  5
28B
330
1F
100
AcDbEntity
  8
0
  6
CONTINUOUS
 62
     7
100
AcDbLine
 10
7.3894207469
 20
6.0322458611
 30
0.0
 11
7.5528069555
 21
5.9379250106
 31
0.0
  0
LINE
  5
28C
330
1F
100
AcDbEntity
  8
0
  6
CONTINUOUS
 62
     7
100
AcDbLine
 10
7.9404303676
 20
7.8869959764
 30
0.0
 11
7.926513205
 21
7.8789591575
 31
0.0
  0
LINE
  5
28D
330
1F
100
AcDbEntity
  8
0
  6
CONTINUOUS
 62
     7
100
AcDbLine
 10
7.161069266
 20
6.5530276972
 30
0.0
 11
7.161069266
 21
6.5369566714
 31
0.0
  0
LINE
  5
28E
330
1F
100
AcDbEntity
  8
0
  6
CONTINUOUS
 62
     7
100
AcDbLine
 10
7.0288347301
 20
6.9148186306
 30
0.0
 11
7.0288347301
 21
6.9025725089
 31
0.0
  0
POLYLINE
  5
28F
330
1F
100
AcDbEntity
  8
0
  6
CONTINUOUS
 62
     7
100
AcDb2dPolyline
 66
     1
 10
0.0
 20
0.0
 30
0.0
  0
VERTEX
  5
2FA
330
28F
100
AcDbEntity
  8
0
  6
CONTINUOUS
 62
     7
100
AcDbVertex
100
AcDb2dVertex
 10
8.4066504104
 20
5.8178979823
 30
0.0
  0
VERTEX
  5
2FB
330
28F
100
AcDbEntity
  8
0
  6
CONTINUOUS
 62
     7
100
AcDbVertex
100
AcDb2dVertex
 10
8.3789110814
 20
5.8024493411
 30
0.0
  0
VERTEX
  5
2FC
330
28F
100
AcDbEntity
  8
0
  6
CONTINUOUS
 62
     7
100
AcDbVertex
100
AcDb2dVertex
 10
8.3421541302
 20
5.7837394393
 30
0.0
  0
VERTEX
  5
2FD
330
28F
100
AcDbEntity
  8
0
  6
CONTINUOUS
 62
     7
100
AcDbVertex
100
AcDb2dVertex
 10
8.3055408127
 20
5.7671141233
 30
0.0
  0
VERTEX
  5
2FE
330
28F
100
AcDbEntity
  8
0
  6
CONTINUOUS
 62
     7
100
AcDbVertex
100
AcDb2dVertex
 10
8.2691528276
 20
5.7526104907
 30
0.0
  0
VERTEX
  5
2FF
330
28F
100
AcDbEntity
  8
0
  6
CONTINUOUS
 62
     7
100
AcDbVertex
100
AcDb2dVertex
 10
8.2330713706
 20
5.7402609049
 30
0.0
  0
VERTEX
  5
300
330
28F
100
AcDbEntity
  8
0
  6
CONTINUOUS
 62
     7
100
AcDbVertex
100
AcDb2dVertex
 10
8.1973769537
 20
5.7300929225
 30
0.0
  0
VERTEX
  5
301
330
28F
100
AcDbEntity
  8
0
  6
CONTINUOUS
 62
     7
100
AcDbVertex
100
AcDb2dVertex
 10
8.162149225
 20
5.7221292323
 30
0.0
  0
VERTEX
  5
302
330
28F
100
AcDbEntity
  8
0
  6
CONTINUOUS
 62
     7
100
AcDbVertex
100
AcDb2dVertex
 10
8.1274667913
 20
5.7163876045
 30
0.0
  0
VERTEX
  5
303
330
28F
100
AcDbEntity
  8
0
  6
CONTINUOUS
 62
     7
100
AcDbVertex
100
AcDb2dVertex
 10
8.0934070428
 20
5.7128808507
 30
0.0
  0
VERTEX
  5
304
330
28F
100
AcDbEntity
  8
0
  6
CONTINUOUS
 62
     7
100
AcDbVertex
100
AcDb2dVertex
 10
8.06004598
 20
5.7116167961
 30
0.0
  0
VERTEX
  5
305
330
28F
100
AcDbEntity
  8
0
  6
CONTINUOUS
 62
     7
100
AcDbVertex
100
AcDb2dVertex
 10
8.0274580446
 20
5.7125982611
 30
0.0
  0
VERTEX
  5
306
330
28F
100
AcDbEntity
  8
0
  6
CONTINUOUS
 62
     7
100
AcDbVertex
100
AcDb2dVertex
 10
7.9957159529
 20
5.7158230558
 30
0.0
  0
VERTEX
  5
307
330
28F
100
AcDbEntity
  8
0
  6
CONTINUOUS
 62
     7
100
AcDbVertex
100
AcDb2dVertex
 10
7.9648905339
 20
5.7212839843
 30
0.0
  0
VERTEX
  5
308
330
28F
100
AcDbEntity
  8
0
  6
CONTINUOUS
 62
     7
100
AcDbVertex
100
AcDb2dVertex
 10
7.9350505713
 20
5.7289688613
 30
0.0
  0
VERTEX
  5
309
330
28F
100
AcDbEntity
  8
0
  6
CONTINUOUS
 62
     7
100
AcDbVertex
100
AcDb2dVertex
 10
7.9062626497
 20
5.7388605386
 30
0.0
  0
VERTEX
  5
30A
330
28F
100
AcDbEntity
  8
0
  6
CONTINUOUS
 62
     7
100
AcDbVertex
100
AcDb2dVertex
 10
7.8785910061
 20
5.7509369442
 30
0.0
  0
VERTEX
  5
30B
330
28F
100
AcDbEntity
  8
0
  6
CONTINUOUS
 62
     7
100
AcDbVertex
100
AcDb2dVertex
 10
7.8520973868
 20
5.7651711308
 30
0.0
  0
VERTEX
  5
30C
330
28F
100
AcDbEntity
  8
0
  6
CONTINUOUS
 62
     7
100
AcDbVertex
100
AcDb2dVertex
 10
7.8268409095
 20
5.7815313365
 30
0.0
  0
VERTEX
  5
30D
330
28F
100
AcDbEntity
  8
0
  6
CONTINUOUS
 62
     7
100
AcDbVertex
100
AcDb2dVertex
 10
7.8028779312
 20
5.7999810551
 30
0.0
  0
VERTEX
  5
30E
330
28F
100
AcDbEntity
  8
0
  6
CONTINUOUS
 62
     7
100
AcDbVertex
100
AcDb2dVertex
 10
7.7802619227
 20
5.8204791182
 30
0.0
  0
VERTEX
  5
30F
330
28F
100
AcDbEntity
  8
0
  6
CONTINUOUS
 62
     7
100
AcDbVertex
100
AcDb2dVertex
 10
7.7590433492
 20
5.8429797866
 30
0.0
  0
VERTEX
  5
310
330
28F
100
AcDbEntity
  8
0
  6
CONTINUOUS
 62
     7
100
AcDbVertex
100
AcDb2dVertex
 10
7.7392695575
 20
5.8674328525
 30
0.0
  0
VERTEX
  5
311
330
28F
100
AcDbEntity
  8
0
  6
CONTINUOUS
 62
     7
100
AcDbVertex
100
AcDb2dVertex
 10
7.7209846708
 20
5.8937837514
 30
0.0
  0
VERTEX
  5
312
330
28F
100
AcDbEntity
  8
0
  6
CONTINUOUS
 62
     7
100
AcDbVertex
100
AcDb2dVertex
 10
7.7042294898
 20
5.9219736844
 30
0.0
  0
VERTEX
  5
313
330
28F
100
AcDbEntity
  8
0
  6
CONTINUOUS
 62
     7
100
AcDbVertex
100
AcDb2dVertex
 10
7.6890414018
 20
5.9519397485
 30
0.0
  0
VERTEX
  5
314
330
28F
100
AcDbEntity
  8
0
  6
CONTINUOUS
 62
     7
100
AcDbVertex
100
AcDb2dVertex
 10
7.6754542975
 20
5.9836150778
 30
0.0
  0
VERTEX
  5
315
330
28F
100
AcDbEntity
  8
0
  6
CONTINUOUS
 62
     7
100
AcDbVertex
100
AcDb2dVertex
 10
7.6634984948
 20
6.0169289923
 30
0.0
  0
VERTEX
  5
316
330
28F
100
AcDbEntity
  8
0
  6
CONTINUOUS
 62
     7
100
AcDbVertex
100
AcDb2dVertex
 10
7.6532006721
 20
6.0518071556
 30
0.0
  0
VERTEX
  5
317
330
28F
100
AcDbEntity
  8
0
  6
CONTINUOUS
 62
     7
100
AcDbVertex
100
AcDb2dVertex
 10
7.6445838076
 20
6.0881717408
 30
0.0
  0
VERTEX
  5
318
330
28F
100
AcDbEntity
  8
0
  6
CONTINUOUS
 62
     7
100
AcDbVertex
100
AcDb2dVertex
 10
7.6376671289
 20
6.1259416044
 30
0.0
  0
VERTEX
  5
319
330
28F
100
AcDbEntity
  8
0
  6
CONTINUOUS
 62
     7
100
AcDbVertex
100
AcDb2dVertex
 10
7.63246607
 20
6.1650324669
 30
0.0
  0
VERTEX
  5
31A
330
28F
100
AcDbEntity
  8
0
  6
CONTINUOUS
 62
     7
100
AcDbVertex
100
AcDb2dVertex
 10
7.6289922364
 20
6.2053571015
 30
0.0
  0
VERTEX
  5
31B
330
28F
100
AcDbEntity
  8
0
  6
CONTINUOUS
 62
     7
100
AcDbVertex
100
AcDb2dVertex
 10
7.6272533795
 20
6.2468255281
 30
0.0
  0
VERTEX
  5
31C
330
28F
100
AcDbEntity
  8
0
  6
CONTINUOUS
 62
     7
100
AcDbVertex
100
AcDb2dVertex
 10
7.6272533795
 20
6.2893452144
 30
0.0
  0
VERTEX
  5
31D
330
28F
100
AcDbEntity
  8
0
  6
CONTINUOUS
 62
     7
100
AcDbVertex
100
AcDb2dVertex
 10
7.6289922364
 20
6.3328212824
 30
0.0
  0
VERTEX
  5
31E
330
28F
100
AcDbEntity
  8
0
  6
CONTINUOUS
 62
     7
100
AcDbVertex
100
AcDb2dVertex
 10
7.63246607
 20
6.3771567199
 30
0.0
  0
VERTEX
  5
31F
330
28F
100
AcDbEntity
  8
0
  6
CONTINUOUS
 62
     7
100
AcDbVertex
100
AcDb2dVertex
 10
7.6376671289
 20
6.4222525973
 30
0.0
  0
VERTEX
  5
320
330
28F
100
AcDbEntity
  8
0
  6
CONTINUOUS
 62
     7
100
AcDbVertex
100
AcDb2dVertex
 10
7.6445838076
 20
6.468008288
 30
0.0
  0
VERTEX
  5
321
330
28F
100
AcDbEntity
  8
0
  6
CONTINUOUS
 62
     7
100
AcDbVertex
100
AcDb2dVertex
 10
7.6532006721
 20
6.5143216932
 30
0.0
  0
VERTEX
  5
322
330
28F
100
AcDbEntity
  8
0
  6
CONTINUOUS
 62
     7
100
AcDbVertex
100
AcDb2dVertex
 10
7.6634984948
 20
6.5610894696
 30
0.0
  0
VERTEX
  5
323
330
28F
100
AcDbEntity
  8
0
  6
CONTINUOUS
 62
     7
100
AcDbVertex
100
AcDb2dVertex
 10
7.6754542975
 20
6.60820726
 30
0.0
  0
VERTEX
  5
324
330
28F
100
AcDbEntity
  8
0
  6
CONTINUOUS
 62
     7
100
AcDbVertex
100
AcDb2dVertex
 10
7.6890414018
 20
6.6555699261
 30
0.0
  0
VERTEX
  5
325
330
28F
100
AcDbEntity
  8
0
  6
CONTINUOUS
 62
     7
100
AcDbVertex
100
AcDb2dVertex
 10
7.7042294898
 20
6.7030717833
 30
0.0
  0
VERTEX
  5
326
330
28F
100
AcDbEntity
  8
0
  6
CONTINUOUS
 62
     7
100
AcDbVertex
100
AcDb2dVertex
 10
7.7209846708
 20
6.7506068365
 30
0.0
  0
VERTEX
  5
327
330
28F
100
AcDbEntity
  8
0
  6
CONTINUOUS
 62
     7
100
AcDbVertex
100
AcDb2dVertex
 10
7.7392695575
 20
6.7980690163
 30
0.0
  0
VERTEX
  5
328
330
28F
100
AcDbEntity
  8
0
  6
CONTINUOUS
 62
     7
100
AcDbVertex
100
AcDb2dVertex
 10
7.7590433492
 20
6.845352416
 30
0.0
  0
VERTEX
  5
329
330
28F
100
AcDbEntity
  8
0
  6
CONTINUOUS
 62
     7
100
AcDbVertex
100
AcDb2dVertex
 10
7.7802619227
 20
6.8923515279
 30
0.0
  0
VERTEX
  5
32A
330
28F
100
AcDbEntity
  8
0
  6
CONTINUOUS
 62
     7
100
AcDbVertex
100
AcDb2dVertex
 10
7.8028779312
 20
6.9389614786
 30
0.0
  0
VERTEX
  5
32B
330
28F
100
AcDbEntity
  8
0
  6
CONTINUOUS
 62
     7
100
AcDbVertex
100
AcDb2dVertex
 10
7.8268409095
 20
6.9850782631
 30
0.0
  0
VERTEX
  5
32C
330
28F
100
AcDbEntity
  8
0
  6
CONTINUOUS
 62
     7
100
AcDbVertex
100
AcDb2dVertex
 10
7.8520973868
 20
7.0305989768
 30
0.0
  0
VERTEX
  5
32D
330
28F
100
AcDbEntity
  8
0
  6
CONTINUOUS
 62
     7
100
AcDbVertex
100
AcDb2dVertex
 10
7.8785910061
 20
7.0754220451
 30
0.0
  0
VERTEX
  5
32E
330
28F
100
AcDbEntity
  8
0
  6
CONTINUOUS
 62
     7
100
AcDbVertex
100
AcDb2dVertex
 10
7.9062626497
 20
7.1194474503
 30
0.0
  0
VERTEX
  5
32F
330
28F
100
AcDbEntity
  8
0
  6
CONTINUOUS
 62
     7
100
AcDbVertex
100
AcDb2dVertex
 10
7.9350505713
 20
7.1625769546
 30
0.0
  0
VERTEX
  5
330
330
28F
100
AcDbEntity
  8
0
  6
CONTINUOUS
 62
     7
100
AcDbVertex
100
AcDb2dVertex
 10
7.9648905339
 20
7.204714319
 30
0.0
  0
VERTEX
  5
331
330
28F
100
AcDbEntity
  8
0
  6
CONTINUOUS
 62
     7
100
AcDbVertex
100
AcDb2dVertex
 10
7.9957159529
 20
7.2457655187
 30
0.0
  0
VERTEX
  5
332
330
28F
100
AcDbEntity
  8
0
  6
CONTINUOUS
 62
     7
100
AcDbVertex
100
AcDb2dVertex
 10
8.0274580446
 20
7.2856389523
 30
0.0
  0
VERTEX
  5
333
330
28F
100
AcDbEntity
  8
0
  6
CONTINUOUS
 62
     7
100
AcDbVertex
100
AcDb2dVertex
 10
8.06004598
 20
7.3242456468
 30
0.0
  0
VERTEX
  5
334
330
28F
100
AcDbEntity
  8
0
  6
CONTINUOUS
 62
     7
100
AcDbVertex
100
AcDb2dVertex
 10
8.0934070428
 20
7.3614994553
 30
0.0
  0
VERTEX
  5
335
330
28F
100
AcDbEntity
  8
0
  6
CONTINUOUS
 62
     7
100
AcDbVertex
100
AcDb2dVertex
 10
8.1274667913
 20
7.3973172502
 30
0.0
  0
VERTEX
  5
336
330
28F
100
AcDbEntity
  8
0
  6
CONTINUOUS
 62
     7
100
AcDbVertex
100
AcDb2dVertex
 10
8.162149225
 20
7.4316191079
 30
0.0
  0
VERTEX
  5
337
330
28F
100
AcDbEntity
  8
0
  6
CONTINUOUS
 62
     7
100
AcDbVertex
100
AcDb2dVertex
 10
8.1973769537
 20
7.4643284876
 30
0.0
  0
VERTEX
  5
338
330
28F
100
AcDbEntity
  8
0
  6
CONTINUOUS
 62
     7
100
AcDbVertex
100
AcDb2dVertex
 10
8.2330713706
 20
7.4953724017
 30
0.0
  0
VERTEX
  5
339
330
28F
100
AcDbEntity
  8
0
  6
CONTINUOUS
 62
     7
100
AcDbVertex
100
AcDb2dVertex
 10
8.2691528276
 20
7.5246815794
 30
0.0
  0
VERTEX
  5
33A
330
28F
100
AcDbEntity
  8
0
  6
CONTINUOUS
 62
     7
100
AcDbVertex
100
AcDb2dVertex
 10
8.3055408127
 20
7.5521906202
 30
0.0
  0
VERTEX
  5
33B
330
28F
100
AcDbEntity
  8
0
  6
CONTINUOUS
 62
     7
100
AcDbVertex
100
AcDb2dVertex
 10
8.3421541302
 20
7.5778381407
 30
0.0
  0
VERTEX
  5
33C
330
28F
100
AcDbEntity
  8
0
  6
CONTINUOUS
 62
     7
100
AcDbVertex
100
AcDb2dVertex
 10
8.3789110814
 20
7.6015669114
 30
0.0
  0
VERTEX
  5
33D
330
28F
100
AcDbEntity
  8
0
  6
CONTINUOUS
 62
     7
100
AcDbVertex
100
AcDb2dVertex
 10
8.4157296473
 20
7.6233239841
 30
0.0
  0
VERTEX
  5
33E
330
28F
100
AcDbEntity
  8
0
  6
CONTINUOUS
 62
     7
100
AcDbVertex
100
AcDb2dVertex
 10
8.4525276711
 20
7.6430608102
 30
0.0
  0
VERTEX
  5
33F
330
28F
100
AcDbEntity
  8
0
  6
CONTINUOUS
 62
     7
100
AcDbVertex
100
AcDb2dVertex
 10
8.489223042
 20
7.6607333491
 30
0.0
  0
VERTEX
  5
340
330
28F
100
AcDbEntity
  8
0
  6
CONTINUOUS
 62
     7
100
AcDbVertex
100
AcDb2dVertex
 10
8.5257338785
 20
7.6763021665
 30
0.0
  0
VERTEX
  5
341
330
28F
100
AcDbEntity
  8
0
  6
CONTINUOUS
 62
     7
100
AcDbVertex
100
AcDb2dVertex
 10
8.5619787105
 20
7.6897325222
 30
0.0
  0
VERTEX
  5
342
330
28F
100
AcDbEntity
  8
0
  6
CONTINUOUS
 62
     7
100
AcDbVertex
100
AcDb2dVertex
 10
8.5978766617
 20
7.700994448
 30
0.0
  0
VERTEX
  5
343
330
28F
100
AcDbEntity
  8
0
  6
CONTINUOUS
 62
     7
100
AcDbVertex
100
AcDb2dVertex
 10
8.6333476296
 20
7.710062814
 30
0.0
  0
VERTEX
  5
344
330
28F
100
AcDbEntity
  8
0
  6
CONTINUOUS
 62
     7
100
AcDbVertex
100
AcDb2dVertex
 10
8.6683124646
 20
7.7169173852
 30
0.0
  0
VERTEX
  5
345
330
28F
100
AcDbEntity
  8
0
  6
CONTINUOUS
 62
     7
100
AcDbVertex
100
AcDb2dVertex
 10
8.7026931467
 20
7.7215428663
 30
0.0
  0
VERTEX
  5
346
330
28F
100
AcDbEntity
  8
0
  6
CONTINUOUS
 62
     7
100
AcDbVertex
100
AcDb2dVertex
 10
8.7364129589
 20
7.7239289361
 30
0.0
  0
VERTEX
  5
347
330
28F
100
AcDbEntity
  8
0
  6
CONTINUOUS
 62
     7
100
AcDbVertex
100
AcDb2dVertex
 10
8.7693966592
 20
7.7240702704
 30
0.0
  0
VERTEX
  5
348
330
28F
100
AcDbEntity
  8
0
  6
CONTINUOUS
 62
     7
100
AcDbVertex
100
AcDb2dVertex
 10
8.8015706482
 20
7.7219665536
 30
0.0
  0
VERTEX
  5
349
330
28F
100
AcDbEntity
  8
0
  6
CONTINUOUS
 62
     7
100
AcDbVertex
100
AcDb2dVertex
 10
8.8328631329
 20
7.7176224802
 30
0.0
  0
VERTEX
  5
34A
330
28F
100
AcDbEntity
  8
0
  6
CONTINUOUS
 62
     7
100
AcDbVertex
100
AcDb2dVertex
 10
8.8632042877
 20
7.7110477434
 30
0.0
  0
VERTEX
  5
34B
330
28F
100
AcDbEntity
  8
0
  6
CONTINUOUS
 62
     7
100
AcDbVertex
100
AcDb2dVertex
 10
8.8925264097
 20
7.7022570139
 30
0.0
  0
VERTEX
  5
34C
330
28F
100
AcDbEntity
  8
0
  6
CONTINUOUS
 62
     7
100
AcDbVertex
100
AcDb2dVertex
 10
8.9207640695
 20
7.6912699075
 30
0.0
  0
VERTEX
  5
34D
330
28F
100
AcDbEntity
  8
0
  6
CONTINUOUS
 62
     7
100
AcDbVertex
100
AcDb2dVertex
 10
8.9478542581
 20
7.6781109405
 30
0.0
  0
VERTEX
  5
34E
330
28F
100
AcDbEntity
  8
0
  6
CONTINUOUS
 62
     7
100
AcDbVertex
100
AcDb2dVertex
 10
8.9737365266
 20
7.6628094758
 30
0.0
  0
VERTEX
  5
34F
330
28F
100
AcDbEntity
  8
0
  6
CONTINUOUS
 62
     7
100
AcDbVertex
100
AcDb2dVertex
 10
8.9983531215
 20
7.645399657
 30
0.0
  0
VERTEX
  5
350
330
28F
100
AcDbEntity
  8
0
  6
CONTINUOUS
 62
     7
100
AcDbVertex
100
AcDb2dVertex
 10
9.0216491136
 20
7.6259203321
 30
0.0
  0
VERTEX
  5
351
330
28F
100
AcDbEntity
  8
0
  6
CONTINUOUS
 62
     7
100
AcDbVertex
100
AcDb2dVertex
 10
9.0435725205
 20
7.6044149672
 30
0.0
  0
VERTEX
  5
352
330
28F
100
AcDbEntity
  8
0
  6
CONTINUOUS
 62
     7
100
AcDbVertex
100
AcDb2dVertex
 10
9.0640744223
 20
7.5809315491
 30
0.0
  0
VERTEX
  5
353
330
28F
100
AcDbEntity
  8
0
  6
CONTINUOUS
 62
     7
100
AcDbVertex
100
AcDb2dVertex
 10
9.0831090715
 20
7.5555224785
 30
0.0
  0
VERTEX
  5
354
330
28F
100
AcDbEntity
  8
0
  6
CONTINUOUS
 62
     7
100
AcDbVertex
100
AcDb2dVertex
 10
9.1006339941
 20
7.528244453
 30
0.0
  0
VERTEX
  5
355
330
28F
100
AcDbEntity
  8
0
  6
CONTINUOUS
 62
     7
100
AcDbVertex
100
AcDb2dVertex
 10
9.1166100854
 20
7.4991583405
 30
0.0
  0
VERTEX
  5
356
330
28F
100
AcDbEntity
  8
0
  6
CONTINUOUS
 62
     7
100
AcDbVertex
100
AcDb2dVertex
 10
9.1310016963
 20
7.4683290435
 30
0.0
  0
VERTEX
  5
357
330
28F
100
AcDbEntity
  8
0
  6
CONTINUOUS
 62
     7
100
AcDbVertex
100
AcDb2dVertex
 10
9.1437767135
 20
7.4358253543
 30
0.0
  0
VERTEX
  5
358
330
28F
100
AcDbEntity
  8
0
  6
CONTINUOUS
 62
     7
100
AcDbVertex
100
AcDb2dVertex
 10
9.154906631
 20
7.4017198012
 30
0.0
  0
VERTEX
  5
359
330
28F
100
AcDbEntity
  8
0
  6
CONTINUOUS
 62
     7
100
AcDbVertex
100
AcDb2dVertex
 10
9.1643666137
 20
7.3660884872
 30
0.0
  0
VERTEX
  5
35A
330
28F
100
AcDbEntity
  8
0
  6
CONTINUOUS
 62
     7
100
AcDbVertex
100
AcDb2dVertex
 10
9.1721355525
 20
7.3290109195
 30
0.0
  0
VERTEX
  5
35B
330
28F
100
AcDbEntity
  8
0
  6
CONTINUOUS
 62
     7
100
AcDbVertex
100
AcDb2dVertex
 10
9.1781961119
 20
7.2905698328
 30
0.0
  0
VERTEX
  5
35C
330
28F
100
AcDbEntity
  8
0
  6
CONTINUOUS
 62
     7
100
AcDbVertex
100
AcDb2dVertex
 10
9.1825347685
 20
7.2508510042
 30
0.0
  0
VERTEX
  5
35D
330
28F
100
AcDbEntity
  8
0
  6
CONTINUOUS
 62
     7
100
AcDbVertex
100
AcDb2dVertex
 10
9.185141841
 20
7.2099430618
 30
0.0
  0
VERTEX
  5
35E
330
28F
100
AcDbEntity
  8
0
  6
CONTINUOUS
 62
     7
100
AcDbVertex
100
AcDb2dVertex
 10
9.186011512
 20
7.1679372873
 30
0.0
  0
VERTEX
  5
35F
330
28F
100
AcDbEntity
  8
0
  6
CONTINUOUS
 62
     7
100
AcDbVertex
100
AcDb2dVertex
 10
9.186011512
 20
7.1679372873
 30
0.0
  0
SEQEND
  5
360
330
28F
100
AcDbEntity
  8
0
  6
CONTINUOUS
 62
     7
  0
POLYLINE
  5
290
330
1F
100
AcDbEntity
  8
0
  6
CONTINUOUS
 62
     7
100
AcDb2dPolyline
 66
     1
 10
0.0
 20
0.0
 30
0.0
  0
VERTEX
  5
361
330
290
100
AcDbEntity
  8
0
  6
CONTINUOUS
 62
     7
100
AcDbVertex
100
AcDb2dVertex
 10
9.1857834181
 20
7.1301559309
 30
0.0
  0
VERTEX
  5
362
330
290
100
AcDbEntity
  8
0
  6
CONTINUOUS
 62
     7
100
AcDbVertex
100
AcDb2dVertex
 10
9.186011512
 20
7.1518662615
 30
0.0
  0
VERTEX
  5
363
330
290
100
AcDbEntity
  8
0
  6
CONTINUOUS
 62
     7
100
AcDbVertex
100
AcDb2dVertex
 10
9.1851443827
 20
7.1934304754
 30
0.0
  0
VERTEX
  5
364
330
290
100
AcDbEntity
  8
0
  6
CONTINUOUS
 62
     7
100
AcDbVertex
100
AcDb2dVertex
 10
9.1825449592
 20
7.2338993669
 30
0.0
  0
VERTEX
  5
365
330
290
100
AcDbEntity
  8
0
  6
CONTINUOUS
 62
     7
100
AcDbVertex
100
AcDb2dVertex
 10
9.1782191299
 20
7.2731812608
 30
0.0
  0
VERTEX
  5
366
330
290
100
AcDbEntity
  8
0
  6
CONTINUOUS
 62
     7
100
AcDbVertex
100
AcDb2dVertex
 10
9.1721766943
 20
7.3111871711
 30
0.0
  0
VERTEX
  5
367
330
290
100
AcDbEntity
  8
0
  6
CONTINUOUS
 62
     7
100
AcDbVertex
100
AcDb2dVertex
 10
9.1644313405
 20
7.3478310021
 30
0.0
  0
VERTEX
  5
368
330
290
100
AcDbEntity
  8
0
  6
CONTINUOUS
 62
     7
100
AcDbVertex
100
AcDb2dVertex
 10
9.1550006141
 20
7.3830297438
 30
0.0
  0
VERTEX
  5
369
330
290
100
AcDbEntity
  8
0
  6
CONTINUOUS
 62
     7
100
AcDbVertex
100
AcDb2dVertex
 10
9.1439058787
 20
7.4167036597
 30
0.0
  0
VERTEX
  5
36A
330
290
100
AcDbEntity
  8
0
  6
CONTINUOUS
 62
     7
100
AcDbVertex
100
AcDb2dVertex
 10
9.1311722676
 20
7.4487764675
 30
0.0
  0
VERTEX
  5
36B
330
290
100
AcDbEntity
  8
0
  6
CONTINUOUS
 62
     7
100
AcDbVertex
100
AcDb2dVertex
 10
9.1168286264
 20
7.479175512
 30
0.0
  0
VERTEX
  5
36C
330
290
100
AcDbEntity
  8
0
  6
CONTINUOUS
 62
     7
100
AcDbVertex
100
AcDb2dVertex
 10
9.1009074482
 20
7.5078319296
 30
0.0
  0
VERTEX
  5
36D
330
290
100
AcDbEntity
  8
0
  6
CONTINUOUS
 62
     7
100
AcDbVertex
100
AcDb2dVertex
 10
9.0834447994
 20
7.5346808044
 30
0.0
  0
VERTEX
  5
36E
330
290
100
AcDbEntity
  8
0
  6
CONTINUOUS
 62
     7
100
AcDbVertex
100
AcDb2dVertex
 10
9.0644802386
 20
7.5596613149
 30
0.0
  0
VERTEX
  5
36F
330
290
100
AcDbEntity
  8
0
  6
CONTINUOUS
 62
     7
100
AcDbVertex
100
AcDb2dVertex
 10
9.0440567267
 20
7.5827168723
 30
0.0
  0
VERTEX
  5
370
330
290
100
AcDbEntity
  8
0
  6
CONTINUOUS
 62
     7
100
AcDbVertex
100
AcDb2dVertex
 10
9.0222205295
 20
7.6037952483
 30
0.0
  0
VERTEX
  5
371
330
290
100
AcDbEntity
  8
0
  6
CONTINUOUS
 62
     7
100
AcDbVertex
100
AcDb2dVertex
 10
8.9990211129
 20
7.6228486936
 30
0.0
  0
VERTEX
  5
372
330
290
100
AcDbEntity
  8
0
  6
CONTINUOUS
 62
     7
100
AcDbVertex
100
AcDb2dVertex
 10
8.9745110312
 20
7.6398340461
 30
0.0
  0
VERTEX
  5
373
330
290
100
AcDbEntity
  8
0
  6
CONTINUOUS
 62
     7
100
AcDbVertex
100
AcDb2dVertex
 10
8.9487458074
 20
7.6547128284
 30
0.0
  0
VERTEX
  5
374
330
290
100
AcDbEntity
  8
0
  6
CONTINUOUS
 62
     7
100
AcDbVertex
100
AcDb2dVertex
 10
8.9217838083
 20
7.6674513353
 30
0.0
  0
VERTEX
  5
375
330
290
100
AcDbEntity
  8
0
  6
CONTINUOUS
 62
     7
100
AcDbVertex
100
AcDb2dVertex
 10
8.8936861112
 20
7.6780207101
 30
0.0
  0
VERTEX
  5
376
330
290
100
AcDbEntity
  8
0
  6
CONTINUOUS
 62
     7
100
AcDbVertex
100
AcDb2dVertex
 10
8.8645163667
 20
7.6863970096
 30
0.0
  0
VERTEX
  5
377
330
290
100
AcDbEntity
  8
0
  6
CONTINUOUS
 62
     7
100
AcDbVertex
100
AcDb2dVertex
 10
8.8343406535
 20
7.6925612589
 30
0.0
  0
VERTEX
  5
378
330
290
100
AcDbEntity
  8
0
  6
CONTINUOUS
 62
     7
100
AcDbVertex
100
AcDb2dVertex
 10
8.8032273293
 20
7.6964994939
 30
0.0
  0
VERTEX
  5
379
330
290
100
AcDbEntity
  8
0
  6
CONTINUOUS
 62
     7
100
AcDbVertex
100
AcDb2dVertex
 10
8.7712468758
 20
7.6982027934
 30
0.0
  0
VERTEX
  5
37A
330
290
100
AcDbEntity
  8
0
  6
CONTINUOUS
 62
     7
100
AcDbVertex
100
AcDb2dVertex
 10
8.7384717391
 20
7.6976672987
 30
0.0
  0
VERTEX
  5
37B
330
290
100
AcDbEntity
  8
0
  6
CONTINUOUS
 62
     7
100
AcDbVertex
100
AcDb2dVertex
 10
8.7049761653
 20
7.6948942229
 30
0.0
  0
VERTEX
  5
37C
330
290
100
AcDbEntity
  8
0
  6
CONTINUOUS
 62
     7
100
AcDbVertex
100
AcDb2dVertex
 10
8.6708360326
 20
7.689889848
 30
0.0
  0
VERTEX
  5
37D
330
290
100
AcDbEntity
  8
0
  6
CONTINUOUS
 62
     7
100
AcDbVertex
100
AcDb2dVertex
 10
8.6361286796
 20
7.6826655104
 30
0.0
  0
VERTEX
  5
37E
330
290
100
AcDbEntity
  8
0
  6
CONTINUOUS
 62
     7
100
AcDbVertex
100
AcDb2dVertex
 10
8.6009327295
 20
7.6732375757
 30
0.0
  0
VERTEX
  5
37F
330
290
100
AcDbEntity
  8
0
  6
CONTINUOUS
 62
     7
100
AcDbVertex
100
AcDb2dVertex
 10
8.5653279124
 20
7.661627401
 30
0.0
  0
VERTEX
  5
380
330
290
100
AcDbEntity
  8
0
  6
CONTINUOUS
 62
     7
100
AcDbVertex
100
AcDb2dVertex
 10
8.5293948847
 20
7.6478612873
 30
0.0
  0
VERTEX
  5
381
330
290
100
AcDbEntity
  8
0
  6
CONTINUOUS
 62
     7
100
AcDbVertex
100
AcDb2dVertex
 10
8.4932150463
 20
7.6319704191
 30
0.0
  0
VERTEX
  5
382
330
290
100
AcDbEntity
  8
0
  6
CONTINUOUS
 62
     7
100
AcDbVertex
100
AcDb2dVertex
 10
8.4568703561
 20
7.6139907945
 30
0.0
  0
VERTEX
  5
383
330
290
100
AcDbEntity
  8
0
  6
CONTINUOUS
 62
     7
100
AcDbVertex
100
AcDb2dVertex
 10
8.4204431466
 20
7.5939631429
 30
0.0
  0
VERTEX
  5
384
330
290
100
AcDbEntity
  8
0
  6
CONTINUOUS
 62
     7
100
AcDbVertex
100
AcDb2dVertex
 10
8.3840159371
 20
7.5719328336
 30
0.0
  0
VERTEX
  5
385
330
290
100
AcDbEntity
  8
0
  6
CONTINUOUS
 62
     7
100
AcDbVertex
100
AcDb2dVertex
 10
8.3476712469
 20
7.5479497722
 30
0.0
  0
VERTEX
  5
386
330
290
100
AcDbEntity
  8
0
  6
CONTINUOUS
 62
     7
100
AcDbVertex
100
AcDb2dVertex
 10
8.3114914085
 20
7.5220682881
 30
0.0
  0
VERTEX
  5
387
330
290
100
AcDbEntity
  8
0
  6
CONTINUOUS
 62
     7
100
AcDbVertex
100
AcDb2dVertex
 10
8.2755583808
 20
7.4943470111
 30
0.0
  0
VERTEX
  5
388
330
290
100
AcDbEntity
  8
0
  6
CONTINUOUS
 62
     7
100
AcDbVertex
100
AcDb2dVertex
 10
8.2399535637
 20
7.4648487389
 30
0.0
  0
VERTEX
  5
389
330
290
100
AcDbEntity
  8
0
  6
CONTINUOUS
 62
     7
100
AcDbVertex
100
AcDb2dVertex
 10
8.2047576135
 20
7.4336402946
 30
0.0
  0
VERTEX
  5
38A
330
290
100
AcDbEntity
  8
0
  6
CONTINUOUS
 62
     7
100
AcDbVertex
100
AcDb2dVertex
 10
8.1700502605
 20
7.4007923753
 30
0.0
  0
VERTEX
  5
38B
330
290
100
AcDbEntity
  8
0
  6
CONTINUOUS
 62
     7
100
AcDbVertex
100
AcDb2dVertex
 10
8.1359101279
 20
7.3663793922
 30
0.0
  0
VERTEX
  5
38C
330
290
100
AcDbEntity
  8
0
  6
CONTINUOUS
 62
     7
100
AcDbVertex
100
AcDb2dVertex
 10
8.1024145541
 20
7.3304793016
 30
0.0
  0
VERTEX
  5
38D
330
290
100
AcDbEntity
  8
0
  6
CONTINUOUS
 62
     7
100
AcDbVertex
100
AcDb2dVertex
 10
8.0696394173
 20
7.2931734289
 30
0.0
  0
VERTEX
  5
38E
330
290
100
AcDbEntity
  8
0
  6
CONTINUOUS
 62
     7
100
AcDbVertex
100
AcDb2dVertex
 10
8.0376589638
 20
7.2545462838
 30
0.0
  0
VERTEX
  5
38F
330
290
100
AcDbEntity
  8
0
  6
CONTINUOUS
 62
     7
100
AcDbVertex
100
AcDb2dVertex
 10
8.0065456397
 20
7.2146853693
 30
0.0
  0
VERTEX
  5
390
330
290
100
AcDbEntity
  8
0
  6
CONTINUOUS
 62
     7
100
AcDbVertex
100
AcDb2dVertex
 10
7.9763699264
 20
7.1736809831
 30
0.0
  0
VERTEX
  5
391
330
290
100
AcDbEntity
  8
0
  6
CONTINUOUS
 62
     7
100
AcDbVertex
100
AcDb2dVertex
 10
7.9472001819
 20
7.1316260134
 30
0.0
  0
VERTEX
  5
392
330
290
100
AcDbEntity
  8
0
  6
CONTINUOUS
 62
     7
100
AcDbVertex
100
AcDb2dVertex
 10
7.9191024849
 20
7.0886157282
 30
0.0
  0
VERTEX
  5
393
330
290
100
AcDbEntity
  8
0
  6
CONTINUOUS
 62
     7
100
AcDbVertex
100
AcDb2dVertex
 10
7.8921404857
 20
7.0447475596
 30
0.0
  0
VERTEX
  5
394
330
290
100
AcDbEntity
  8
0
  6
CONTINUOUS
 62
     7
100
AcDbVertex
100
AcDb2dVertex
 10
7.866375262
 20
7.0001208832
 30
0.0
  0
VERTEX
  5
395
330
290
100
AcDbEntity
  8
0
  6
CONTINUOUS
 62
     7
100
AcDbVertex
100
AcDb2dVertex
 10
7.8418651802
 20
6.9548367927
 30
0.0
  0
VERTEX
  5
396
330
290
100
AcDbEntity
  8
0
  6
CONTINUOUS
 62
     7
100
AcDbVertex
100
AcDb2dVertex
 10
7.8186657637
 20
6.9089978711
 30
0.0
  0
VERTEX
  5
397
330
290
100
AcDbEntity
  8
0
  6
CONTINUOUS
 62
     7
100
AcDbVertex
100
AcDb2dVertex
 10
7.7968295664
 20
6.8627079584
 30
0.0
  0
VERTEX
  5
398
330
290
100
AcDbEntity
  8
0
  6
CONTINUOUS
 62
     7
100
AcDbVertex
100
AcDb2dVertex
 10
7.7764060545
 20
6.8160719161
 30
0.0
  0
VERTEX
  5
399
330
290
100
AcDbEntity
  8
0
  6
CONTINUOUS
 62
     7
100
AcDbVertex
100
AcDb2dVertex
 10
7.7574414938
 20
6.7691953899
 30
0.0
  0
VERTEX
  5
39A
330
290
100
AcDbEntity
  8
0
  6
CONTINUOUS
 62
     7
100
AcDbVertex
100
AcDb2dVertex
 10
7.739978845
 20
6.72218457
 30
0.0
  0
VERTEX
  5
39B
330
290
100
AcDbEntity
  8
0
  6
CONTINUOUS
 62
     7
100
AcDbVertex
100
AcDb2dVertex
 10
7.7240576667
 20
6.6751459512
 30
0.0
  0
VERTEX
  5
39C
330
290
100
AcDbEntity
  8
0
  6
CONTINUOUS
 62
     7
100
AcDbVertex
100
AcDb2dVertex
 10
7.7097140256
 20
6.6281860911
 30
0.0
  0
VERTEX
  5
39D
330
290
100
AcDbEntity
  8
0
  6
CONTINUOUS
 62
     7
100
AcDbVertex
100
AcDb2dVertex
 10
7.6969804144
 20
6.5814113688
 30
0.0
  0
VERTEX
  5
39E
330
290
100
AcDbEntity
  8
0
  6
CONTINUOUS
 62
     7
100
AcDbVertex
100
AcDb2dVertex
 10
7.6858856791
 20
6.5349277442
 30
0.0
  0
VERTEX
  5
39F
330
290
100
AcDbEntity
  8
0
  6
CONTINUOUS
 62
     7
100
AcDbVertex
100
AcDb2dVertex
 10
7.6764549527
 20
6.4888405176
 30
0.0
  0
VERTEX
  5
3A0
330
290
100
AcDbEntity
  8
0
  6
CONTINUOUS
 62
     7
100
AcDbVertex
100
AcDb2dVertex
 10
7.6687095988
 20
6.4432540913
 30
0.0
  0
VERTEX
  5
3A1
330
290
100
AcDbEntity
  8
0
  6
CONTINUOUS
 62
     7
100
AcDbVertex
100
AcDb2dVertex
 10
7.6626671632
 20
6.3982717334
 30
0.0
  0
VERTEX
  5
3A2
330
290
100
AcDbEntity
  8
0
  6
CONTINUOUS
 62
     7
100
AcDbVertex
100
AcDb2dVertex
 10
7.6583413339
 20
6.3539953433
 30
0.0
  0
VERTEX
  5
3A3
330
290
100
AcDbEntity
  8
0
  6
CONTINUOUS
 62
     7
100
AcDbVertex
100
AcDb2dVertex
 10
7.6557419104
 20
6.3105252213
 30
0.0
  0
VERTEX
  5
3A4
330
290
100
AcDbEntity
  8
0
  6
CONTINUOUS
 62
     7
100
AcDbVertex
100
AcDb2dVertex
 10
7.6548747811
 20
6.2679598412
 30
0.0
  0
VERTEX
  5
3A5
330
290
100
AcDbEntity
  8
0
  6
CONTINUOUS
 62
     7
100
AcDbVertex
100
AcDb2dVertex
 10
7.6557419104
 20
6.2263956272
 30
0.0
  0
VERTEX
  5
3A6
330
290
100
AcDbEntity
  8
0
  6
CONTINUOUS
 62
     7
100
AcDbVertex
100
AcDb2dVertex
 10
7.6583413339
 20
6.1859267357
 30
0.0
  0
VERTEX
  5
3A7
330
290
100
AcDbEntity
  8
0
  6
CONTINUOUS
 62
     7
100
AcDbVertex
100
AcDb2dVertex
 10
7.6626671632
 20
6.1466448418
 30
0.0
  0
VERTEX
  5
3A8
330
290
100
AcDbEntity
  8
0
  6
CONTINUOUS
 62
     7
100
AcDbVertex
100
AcDb2dVertex
 10
7.6687095988
 20
6.1086389315
 30
0.0
  0
VERTEX
  5
3A9
330
290
100
AcDbEntity
  8
0
  6
CONTINUOUS
 62
     7
100
AcDbVertex
100
AcDb2dVertex
 10
7.6764549527
 20
6.0719951005
 30
0.0
  0
VERTEX
  5
3AA
330
290
100
AcDbEntity
  8
0
  6
CONTINUOUS
 62
     7
100
AcDbVertex
100
AcDb2dVertex
 10
7.6858856791
 20
6.0367963588
 30
0.0
  0
VERTEX
  5
3AB
330
290
100
AcDbEntity
  8
0
  6
CONTINUOUS
 62
     7
100
AcDbVertex
100
AcDb2dVertex
 10
7.6969804144
 20
6.003122443
 30
0.0
  0
VERTEX
  5
3AC
330
290
100
AcDbEntity
  8
0
  6
CONTINUOUS
 62
     7
100
AcDbVertex
100
AcDb2dVertex
 10
7.7097140256
 20
5.9710496351
 30
0.0
  0
VERTEX
  5
3AD
330
290
100
AcDbEntity
  8
0
  6
CONTINUOUS
 62
     7
100
AcDbVertex
100
AcDb2dVertex
 10
7.7240576667
 20
5.9406505906
 30
0.0
  0
VERTEX
  5
3AE
330
290
100
AcDbEntity
  8
0
  6
CONTINUOUS
 62
     7
100
AcDbVertex
100
AcDb2dVertex
 10
7.739978845
 20
5.911994173
 30
0.0
  0
VERTEX
  5
3AF
330
290
100
AcDbEntity
  8
0
  6
CONTINUOUS
 62
     7
100
AcDbVertex
100
AcDb2dVertex
 10
7.7574414938
 20
5.8851452982
 30
0.0
  0
VERTEX
  5
3B0
330
290
100
AcDbEntity
  8
0
  6
CONTINUOUS
 62
     7
100
AcDbVertex
100
AcDb2dVertex
 10
7.7764060545
 20
5.8601647877
 30
0.0
  0
VERTEX
  5
3B1
330
290
100
AcDbEntity
  8
0
  6
CONTINUOUS
 62
     7
100
AcDbVertex
100
AcDb2dVertex
 10
7.7968295664
 20
5.8371092304
 30
0.0
  0
VERTEX
  5
3B2
330
290
100
AcDbEntity
  8
0
  6
CONTINUOUS
 62
     7
100
AcDbVertex
100
AcDb2dVertex
 10
7.8186657637
 20
5.8160308544
 30
0.0
  0
VERTEX
  5
3B3
330
290
100
AcDbEntity
  8
0
  6
CONTINUOUS
 62
     7
100
AcDbVertex
100
AcDb2dVertex
 10
7.8418651802
 20
5.796977409
 30
0.0
  0
VERTEX
  5
3B4
330
290
100
AcDbEntity
  8
0
  6
CONTINUOUS
 62
     7
100
AcDbVertex
100
AcDb2dVertex
 10
7.866375262
 20
5.7799920566
 30
0.0
  0
VERTEX
  5
3B5
330
290
100
AcDbEntity
  8
0
  6
CONTINUOUS
 62
     7
100
AcDbVertex
100
AcDb2dVertex
 10
7.8921404857
 20
5.7651132742
 30
0.0
  0
VERTEX
  5
3B6
330
290
100
AcDbEntity
  8
0
  6
CONTINUOUS
 62
     7
100
AcDbVertex
100
AcDb2dVertex
 10
7.9191024849
 20
5.7523747673
 30
0.0
  0
VERTEX
  5
3B7
330
290
100
AcDbEntity
  8
0
  6
CONTINUOUS
 62
     7
100
AcDbVertex
100
AcDb2dVertex
 10
7.9472001819
 20
5.7418053926
 30
0.0
  0
VERTEX
  5
3B8
330
290
100
AcDbEntity
  8
0
  6
CONTINUOUS
 62
     7
100
AcDbVertex
100
AcDb2dVertex
 10
7.9763699264
 20
5.733429093
 30
0.0
  0
VERTEX
  5
3B9
330
290
100
AcDbEntity
  8
0
  6
CONTINUOUS
 62
     7
100
AcDbVertex
100
AcDb2dVertex
 10
8.0065456397
 20
5.7272648437
 30
0.0
  0
VERTEX
  5
3BA
330
290
100
AcDbEntity
  8
0
  6
CONTINUOUS
 62
     7
100
AcDbVertex
100
AcDb2dVertex
 10
8.0376589638
 20
5.7233266087
 30
0.0
  0
VERTEX
  5
3BB
330
290
100
AcDbEntity
  8
0
  6
CONTINUOUS
 62
     7
100
AcDbVertex
100
AcDb2dVertex
 10
8.0696394173
 20
5.7216233093
 30
0.0
  0
VERTEX
  5
3BC
330
290
100
AcDbEntity
  8
0
  6
CONTINUOUS
 62
     7
100
AcDbVertex
100
AcDb2dVertex
 10
8.1024145541
 20
5.722158804
 30
0.0
  0
VERTEX
  5
3BD
330
290
100
AcDbEntity
  8
0
  6
CONTINUOUS
 62
     7
100
AcDbVertex
100
AcDb2dVertex
 10
8.1359101279
 20
5.7249318797
 30
0.0
  0
VERTEX
  5
3BE
330
290
100
AcDbEntity
  8
0
  6
CONTINUOUS
 62
     7
100
AcDbVertex
100
AcDb2dVertex
 10
8.1700502605
 20
5.7299362546
 30
0.0
  0
VERTEX
  5
3BF
330
290
100
AcDbEntity
  8
0
  6
CONTINUOUS
 62
     7
100
AcDbVertex
100
AcDb2dVertex
 10
8.2047576135
 20
5.7371605922
 30
0.0
  0
VERTEX
  5
3C0
330
290
100
AcDbEntity
  8
0
  6
CONTINUOUS
 62
     7
100
AcDbVertex
100
AcDb2dVertex
 10
8.2399535637
 20
5.7465885269
 30
0.0
  0
VERTEX
  5
3C1
330
290
100
AcDbEntity
  8
0
  6
CONTINUOUS
 62
     7
100
AcDbVertex
100
AcDb2dVertex
 10
8.2755583808
 20
5.7581987016
 30
0.0
  0
VERTEX
  5
3C2
330
290
100
AcDbEntity
  8
0
  6
CONTINUOUS
 62
     7
100
AcDbVertex
100
AcDb2dVertex
 10
8.3114914085
 20
5.7719648153
 30
0.0
  0
VERTEX
  5
3C3
330
290
100
AcDbEntity
  8
0
  6
CONTINUOUS
 62
     7
100
AcDbVertex
100
AcDb2dVertex
 10
8.3476712469
 20
5.7878556835
 30
0.0
  0
VERTEX
  5
3C4
330
290
100
AcDbEntity
  8
0
  6
CONTINUOUS
 62
     7
100
AcDbVertex
100
AcDb2dVertex
 10
8.3840159371
 20
5.8058353082
 30
0.0
  0
VERTEX
  5
3C5
330
290
100
AcDbEntity
  8
0
  6
CONTINUOUS
 62
     7
100
AcDbVertex
100
AcDb2dVertex
 10
8.4204431466
 20
5.8258629597
 30
0.0
  0
VERTEX
  5
3C6
330
290
100
AcDbEntity
  8
0
  6
CONTINUOUS
 62
     7
100
AcDbVertex
100
AcDb2dVertex
 10
8.4392541866
 20
5.8369892552
 30
0.0
  0
SEQEND
  5
3C7
330
290
100
AcDbEntity
  8
0
  6
CONTINUOUS
 62
     7
  0
POLYLINE
  5
291
330
1F
100
AcDbEntity
  8
0
  6
CONTINUOUS
 62
     7
100
AcDb2dPolyline
 66
     1
 10
0.0
 20
0.0
 30
0.0
  0
VERTEX
  5
3C8
330
291
100
AcDbEntity
  8
0
  6
CONTINUOUS
 62
     7
100
AcDbVertex
100
AcDb2dVertex
 10
7.4636497228
 20
6.3622806917
 30
0.0
  0
VERTEX
  5
3C9
330
291
100
AcDbEntity
  8
0
  6
CONTINUOUS
 62
     7
100
AcDbVertex
100
AcDb2dVertex
 10
7.4645193939
 20
6.405290567
 30
0.0
  0
VERTEX
  5
3CA
330
291
100
AcDbEntity
  8
0
  6
CONTINUOUS
 62
     7
100
AcDbVertex
100
AcDb2dVertex
 10
7.4671264664
 20
6.4492085713
 30
0.0
  0
VERTEX
  5
3CB
330
291
100
AcDbEntity
  8
0
  6
CONTINUOUS
 62
     7
100
AcDbVertex
100
AcDb2dVertex
 10
7.471465123
 20
6.4939367062
 30
0.0
  0
VERTEX
  5
3CC
330
291
100
AcDbEntity
  8
0
  6
CONTINUOUS
 62
     7
100
AcDbVertex
100
AcDb2dVertex
 10
7.4775256824
 20
6.5393751659
 30
0.0
  0
VERTEX
  5
3CD
330
291
100
AcDbEntity
  8
0
  6
CONTINUOUS
 62
     7
100
AcDbVertex
100
AcDb2dVertex
 10
7.4852946212
 20
6.5854225594
 30
0.0
  0
VERTEX
  5
3CE
330
291
100
AcDbEntity
  8
0
  6
CONTINUOUS
 62
     7
100
AcDbVertex
100
AcDb2dVertex
 10
7.4947546039
 20
6.6319761369
 30
0.0
  0
VERTEX
  5
3CF
330
291
100
AcDbEntity
  8
0
  6
CONTINUOUS
 62
     7
100
AcDbVertex
100
AcDb2dVertex
 10
7.5058845214
 20
6.6789320192
 30
0.0
  0
VERTEX
  5
3D0
330
291
100
AcDbEntity
  8
0
  6
CONTINUOUS
 62
     7
100
AcDbVertex
100
AcDb2dVertex
 10
7.5186595386
 20
6.7261854294
 30
0.0
  0
VERTEX
  5
3D1
330
291
100
AcDbEntity
  8
0
  6
CONTINUOUS
 62
     7
100
AcDbVertex
100
AcDb2dVertex
 10
7.5330511495
 20
6.7736309266
 30
0.0
  0
VERTEX
  5
3D2
330
291
100
AcDbEntity
  8
0
  6
CONTINUOUS
 62
     7
100
AcDbVertex
100
AcDb2dVertex
 10
7.5490272407
 20
6.8211626413
 30
0.0
  0
VERTEX
  5
3D3
330
291
100
AcDbEntity
  8
0
  6
CONTINUOUS
 62
     7
100
AcDbVertex
100
AcDb2dVertex
 10
7.5665521634
 20
6.8686745119
 30
0.0
  0
VERTEX
  5
3D4
330
291
100
AcDbEntity
  8
0
  6
CONTINUOUS
 62
     7
100
AcDbVertex
100
AcDb2dVertex
 10
7.5855868125
 20
6.9160605206
 30
0.0
  0
VERTEX
  5
3D5
330
291
100
AcDbEntity
  8
0
  6
CONTINUOUS
 62
     7
100
AcDbVertex
100
AcDb2dVertex
 10
7.6060887144
 20
6.9632149307
 30
0.0
  0
VERTEX
  5
3D6
330
291
100
AcDbEntity
  8
0
  6
CONTINUOUS
 62
     7
100
AcDbVertex
100
AcDb2dVertex
 10
7.6280121212
 20
7.0100325224
 30
0.0
  0
VERTEX
  5
3D7
330
291
100
AcDbEntity
  8
0
  6
CONTINUOUS
 62
     7
100
AcDbVertex
100
AcDb2dVertex
 10
7.6513081134
 20
7.0564088272
 30
0.0
  0
VERTEX
  5
3D8
330
291
100
AcDbEntity
  8
0
  6
CONTINUOUS
 62
     7
100
AcDbVertex
100
AcDb2dVertex
 10
7.6759247083
 20
7.1022403616
 30
0.0
  0
VERTEX
  5
3D9
330
291
100
AcDbEntity
  8
0
  6
CONTINUOUS
 62
     7
100
AcDbVertex
100
AcDb2dVertex
 10
7.7018069768
 20
7.1474248574
 30
0.0
  0
VERTEX
  5
3DA
330
291
100
AcDbEntity
  8
0
  6
CONTINUOUS
 62
     7
100
AcDbVertex
100
AcDb2dVertex
 10
7.7288971653
 20
7.1918614904
 30
0.0
  0
VERTEX
  5
3DB
330
291
100
AcDbEntity
  8
0
  6
CONTINUOUS
 62
     7
100
AcDbVertex
100
AcDb2dVertex
 10
7.7571348252
 20
7.235451105
 30
0.0
  0
VERTEX
  5
3DC
330
291
100
AcDbEntity
  8
0
  6
CONTINUOUS
 62
     7
100
AcDbVertex
100
AcDb2dVertex
 10
7.7864569471
 20
7.2780964357
 30
0.0
  0
VERTEX
  5
3DD
330
291
100
AcDbEntity
  8
0
  6
CONTINUOUS
 62
     7
100
AcDbVertex
100
AcDb2dVertex
 10
7.816798102
 20
7.3197023243
 30
0.0
  0
VERTEX
  5
3DE
330
291
100
AcDbEntity
  8
0
  6
CONTINUOUS
 62
     7
100
AcDbVertex
100
AcDb2dVertex
 10
7.8480905867
 20
7.3601759316
 30
0.0
  0
VERTEX
  5
3DF
330
291
100
AcDbEntity
  8
0
  6
CONTINUOUS
 62
     7
100
AcDbVertex
100
AcDb2dVertex
 10
7.8802645756
 20
7.3994269452
 30
0.0
  0
VERTEX
  5
3E0
330
291
100
AcDbEntity
  8
0
  6
CONTINUOUS
 62
     7
100
AcDbVertex
100
AcDb2dVertex
 10
7.913248276
 20
7.4373677808
 30
0.0
  0
VERTEX
  5
3E1
330
291
100
AcDbEntity
  8
0
  6
CONTINUOUS
 62
     7
100
AcDbVertex
100
AcDb2dVertex
 10
7.9469680882
 20
7.4739137775
 30
0.0
  0
VERTEX
  5
3E2
330
291
100
AcDbEntity
  8
0
  6
CONTINUOUS
 62
     7
100
AcDbVertex
100
AcDb2dVertex
 10
7.9813487702
 20
7.5089833869
 30
0.0
  0
VERTEX
  5
3E3
330
291
100
AcDbEntity
  8
0
  6
CONTINUOUS
 62
     7
100
AcDbVertex
100
AcDb2dVertex
 10
8.0163136053
 20
7.542498355
 30
0.0
  0
VERTEX
  5
3E4
330
291
100
AcDbEntity
  8
0
  6
CONTINUOUS
 62
     7
100
AcDbVertex
100
AcDb2dVertex
 10
8.0517845732
 20
7.5743838968
 30
0.0
  0
VERTEX
  5
3E5
330
291
100
AcDbEntity
  8
0
  6
CONTINUOUS
 62
     7
100
AcDbVertex
100
AcDb2dVertex
 10
8.0876825244
 20
7.6045688632
 30
0.0
  0
VERTEX
  5
3E6
330
291
100
AcDbEntity
  8
0
  6
CONTINUOUS
 62
     7
100
AcDbVertex
100
AcDb2dVertex
 10
8.1239273564
 20
7.6329858997
 30
0.0
  0
VERTEX
  5
3E7
330
291
100
AcDbEntity
  8
0
  6
CONTINUOUS
 62
     7
100
AcDbVertex
100
AcDb2dVertex
 10
8.1604381928
 20
7.6595715968
 30
0.0
  0
VERTEX
  5
3E8
330
291
100
AcDbEntity
  8
0
  6
CONTINUOUS
 62
     7
100
AcDbVertex
100
AcDb2dVertex
 10
8.1971335638
 20
7.6842666314
 30
0.0
  0
VERTEX
  5
3E9
330
291
100
AcDbEntity
  8
0
  6
CONTINUOUS
 62
     7
100
AcDbVertex
100
AcDb2dVertex
 10
8.2339315876
 20
7.7070158993
 30
0.0
  0
VERTEX
  5
3EA
330
291
100
AcDbEntity
  8
0
  6
CONTINUOUS
 62
     7
100
AcDbVertex
100
AcDb2dVertex
 10
8.2707501534
 20
7.7277686379
 30
0.0
  0
VERTEX
  5
3EB
330
291
100
AcDbEntity
  8
0
  6
CONTINUOUS
 62
     7
100
AcDbVertex
100
AcDb2dVertex
 10
8.3075071047
 20
7.7464785397
 30
0.0
  0
VERTEX
  5
3EC
330
291
100
AcDbEntity
  8
0
  6
CONTINUOUS
 62
     7
100
AcDbVertex
100
AcDb2dVertex
 10
8.3441204221
 20
7.7631038557
 30
0.0
  0
VERTEX
  5
3ED
330
291
100
AcDbEntity
  8
0
  6
CONTINUOUS
 62
     7
100
AcDbVertex
100
AcDb2dVertex
 10
8.3805084073
 20
7.7776074883
 30
0.0
  0
VERTEX
  5
3EE
330
291
100
AcDbEntity
  8
0
  6
CONTINUOUS
 62
     7
100
AcDbVertex
100
AcDb2dVertex
 10
8.4165898642
 20
7.7899570741
 30
0.0
  0
VERTEX
  5
3EF
330
291
100
AcDbEntity
  8
0
  6
CONTINUOUS
 62
     7
100
AcDbVertex
100
AcDb2dVertex
 10
8.4522842812
 20
7.8001250565
 30
0.0
  0
VERTEX
  5
3F0
330
291
100
AcDbEntity
  8
0
  6
CONTINUOUS
 62
     7
100
AcDbVertex
100
AcDb2dVertex
 10
8.4875120099
 20
7.8080887467
 30
0.0
  0
VERTEX
  5
3F1
330
291
100
AcDbEntity
  8
0
  6
CONTINUOUS
 62
     7
100
AcDbVertex
100
AcDb2dVertex
 10
8.5221944435
 20
7.8138303745
 30
0.0
  0
VERTEX
  5
3F2
330
291
100
AcDbEntity
  8
0
  6
CONTINUOUS
 62
     7
100
AcDbVertex
100
AcDb2dVertex
 10
8.5562541921
 20
7.8173371283
 30
0.0
  0
VERTEX
  5
3F3
330
291
100
AcDbEntity
  8
0
  6
CONTINUOUS
 62
     7
100
AcDbVertex
100
AcDb2dVertex
 10
8.5896152548
 20
7.8186011829
 30
0.0
  0
VERTEX
  5
3F4
330
291
100
AcDbEntity
  8
0
  6
CONTINUOUS
 62
     7
100
AcDbVertex
100
AcDb2dVertex
 10
8.6222031903
 20
7.8176197179
 30
0.0
  0
VERTEX
  5
3F5
330
291
100
AcDbEntity
  8
0
  6
CONTINUOUS
 62
     7
100
AcDbVertex
100
AcDb2dVertex
 10
8.653945282
 20
7.8143949232
 30
0.0
  0
VERTEX
  5
3F6
330
291
100
AcDbEntity
  8
0
  6
CONTINUOUS
 62
     7
100
AcDbVertex
100
AcDb2dVertex
 10
8.6847707009
 20
7.8089339947
 30
0.0
  0
VERTEX
  5
3F7
330
291
100
AcDbEntity
  8
0
  6
CONTINUOUS
 62
     7
100
AcDbVertex
100
AcDb2dVertex
 10
8.7146106636
 20
7.8012491178
 30
0.0
  0
VERTEX
  5
3F8
330
291
100
AcDbEntity
  8
0
  6
CONTINUOUS
 62
     7
100
AcDbVertex
100
AcDb2dVertex
 10
8.7433985852
 20
7.7913574404
 30
0.0
  0
VERTEX
  5
3F9
330
291
100
AcDbEntity
  8
0
  6
CONTINUOUS
 62
     7
100
AcDbVertex
100
AcDb2dVertex
 10
8.7710702288
 20
7.7792810348
 30
0.0
  0
VERTEX
  5
3FA
330
291
100
AcDbEntity
  8
0
  6
CONTINUOUS
 62
     7
100
AcDbVertex
100
AcDb2dVertex
 10
8.7942738225
 20
7.7669689481
 30
0.0
  0
SEQEND
  5
3FB
330
291
100
AcDbEntity
  8
0
  6
CONTINUOUS
 62
     7
  0
POLYLINE
  5
292
330
1F
100
AcDbEntity
  8
0
  6
CONTINUOUS
 62
     7
100
AcDb2dPolyline
 66
     1
 10
0.0
 20
0.0
 30
0.0
  0
VERTEX
  5
3FC
330
292
100
AcDbEntity
  8
0
  6
CONTINUOUS
 62
     7
100
AcDbVertex
100
AcDb2dVertex
 10
7.6920012038
 20
5.8575698814
 30
0.0
  0
VERTEX
  5
3FD
330
292
100
AcDbEntity
  8
0
  6
CONTINUOUS
 62
     7
100
AcDbVertex
100
AcDb2dVertex
 10
7.6759247083
 20
5.8674085032
 30
0.0
  0
VERTEX
  5
3FE
330
292
100
AcDbEntity
  8
0
  6
CONTINUOUS
 62
     7
100
AcDbVertex
100
AcDb2dVertex
 10
7.6513081134
 20
5.884818322
 30
0.0
  0
VERTEX
  5
3FF
330
292
100
AcDbEntity
  8
0
  6
CONTINUOUS
 62
     7
100
AcDbVertex
100
AcDb2dVertex
 10
7.6280121212
 20
5.9042976469
 30
0.0
  0
VERTEX
  5
400
330
292
100
AcDbEntity
  8
0
  6
CONTINUOUS
 62
     7
100
AcDbVertex
100
AcDb2dVertex
 10
7.6060887144
 20
5.9258030118
 30
0.0
  0
VERTEX
  5
401
330
292
100
AcDbEntity
  8
0
  6
CONTINUOUS
 62
     7
100
AcDbVertex
100
AcDb2dVertex
 10
7.5855868125
 20
5.94928643
 30
0.0
  0
VERTEX
  5
402
330
292
100
AcDbEntity
  8
0
  6
CONTINUOUS
 62
     7
100
AcDbVertex
100
AcDb2dVertex
 10
7.5665521634
 20
5.9746955005
 30
0.0
  0
VERTEX
  5
403
330
292
100
AcDbEntity
  8
0
  6
CONTINUOUS
 62
     7
100
AcDbVertex
100
AcDb2dVertex
 10
7.5490272407
 20
6.0019735261
 30
0.0
  0
VERTEX
  5
404
330
292
100
AcDbEntity
  8
0
  6
CONTINUOUS
 62
     7
100
AcDbVertex
100
AcDb2dVertex
 10
7.5330511495
 20
6.0310596385
 30
0.0
  0
VERTEX
  5
405
330
292
100
AcDbEntity
  8
0
  6
CONTINUOUS
 62
     7
100
AcDbVertex
100
AcDb2dVertex
 10
7.5186595386
 20
6.0618889355
 30
0.0
  0
VERTEX
  5
406
330
292
100
AcDbEntity
  8
0
  6
CONTINUOUS
 62
     7
100
AcDbVertex
100
AcDb2dVertex
 10
7.5058845214
 20
6.0943926247
 30
0.0
  0
VERTEX
  5
407
330
292
100
AcDbEntity
  8
0
  6
CONTINUOUS
 62
     7
100
AcDbVertex
100
AcDb2dVertex
 10
7.4947546039
 20
6.1284981778
 30
0.0
  0
VERTEX
  5
408
330
292
100
AcDbEntity
  8
0
  6
CONTINUOUS
 62
     7
100
AcDbVertex
100
AcDb2dVertex
 10
7.4852946212
 20
6.1641294918
 30
0.0
  0
VERTEX
  5
409
330
292
100
AcDbEntity
  8
0
  6
CONTINUOUS
 62
     7
100
AcDbVertex
100
AcDb2dVertex
 10
7.4775256824
 20
6.2012070595
 30
0.0
  0
VERTEX
  5
40A
330
292
100
AcDbEntity
  8
0
  6
CONTINUOUS
 62
     7
100
AcDbVertex
100
AcDb2dVertex
 10
7.471465123
 20
6.2396481462
 30
0.0
  0
VERTEX
  5
40B
330
292
100
AcDbEntity
  8
0
  6
CONTINUOUS
 62
     7
100
AcDbVertex
100
AcDb2dVertex
 10
7.4671264664
 20
6.2793669748
 30
0.0
  0
VERTEX
  5
40C
330
292
100
AcDbEntity
  8
0
  6
CONTINUOUS
 62
     7
100
AcDbVertex
100
AcDb2dVertex
 10
7.4645193939
 20
6.3202749172
 30
0.0
  0
VERTEX
  5
40D
330
292
100
AcDbEntity
  8
0
  6
CONTINUOUS
 62
     7
100
AcDbVertex
100
AcDb2dVertex
 10
7.4636497228
 20
6.3622806917
 30
0.0
  0
SEQEND
  5
40E
330
292
100
AcDbEntity
  8
0
  6
CONTINUOUS
 62
     7
  0
POLYLINE
  5
293
330
1F
100
AcDbEntity
  8
0
  6
CONTINUOUS
 62
     7
100
AcDb2dPolyline
 66
     1
 10
0.0
 20
0.0
 30
0.0
  0
VERTEX
  5
40F
330
293
100
AcDbEntity
  8
0
  6
CONTINUOUS
 62
     7
100
AcDbVertex
100
AcDb2dVertex
 10
8.7944284993
 20
7.3577448775
 30
0.0
  0
VERTEX
  5
410
330
293
100
AcDbEntity
  8
0
  6
CONTINUOUS
 62
     7
100
AcDbVertex
100
AcDb2dVertex
 10
8.7862872465
 20
7.3622444469
 30
0.0
  0
VERTEX
  5
411
330
293
100
AcDbEntity
  8
0
  6
CONTINUOUS
 62
     7
100
AcDbVertex
100
AcDb2dVertex
 10
8.7636710921
 20
7.372794664
 30
0.0
  0
VERTEX
  5
412
330
293
100
AcDbEntity
  8
0
  6
CONTINUOUS
 62
     7
100
AcDbVertex
100
AcDb2dVertex
 10
8.7399147689
 20
7.381142855
 30
0.0
  0
VERTEX
  5
413
330
293
100
AcDbEntity
  8
0
  6
CONTINUOUS
 62
     7
100
AcDbVertex
100
AcDb2dVertex
 10
8.7150971931
 20
7.3872612882
 30
0.0
  0
VERTEX
  5
414
330
293
100
AcDbEntity
  8
0
  6
CONTINUOUS
 62
     7
100
AcDbVertex
100
AcDb2dVertex
 10
8.6893008062
 20
7.3911296386
 30
0.0
  0
VERTEX
  5
415
330
293
100
AcDbEntity
  8
0
  6
CONTINUOUS
 62
     7
100
AcDbVertex
100
AcDb2dVertex
 10
8.6626113012
 20
7.392735056
 30
0.0
  0
VERTEX
  5
416
330
293
100
AcDbEntity
  8
0
  6
CONTINUOUS
 62
     7
100
AcDbVertex
100
AcDb2dVertex
 10
8.635117338
 20
7.3920722074
 30
0.0
  0
VERTEX
  5
417
330
293
100
AcDbEntity
  8
0
  6
CONTINUOUS
 62
     7
100
AcDbVertex
100
AcDb2dVertex
 10
8.6069102486
 20
7.3891432946
 30
0.0
  0
VERTEX
  5
418
330
293
100
AcDbEntity
  8
0
  6
CONTINUOUS
 62
     7
100
AcDbVertex
100
AcDb2dVertex
 10
8.5780837343
 20
7.3839580473
 30
0.0
  0
VERTEX
  5
419
330
293
100
AcDbEntity
  8
0
  6
CONTINUOUS
 62
     7
100
AcDbVertex
100
AcDb2dVertex
 10
8.5487335539
 20
7.3765336903
 30
0.0
  0
VERTEX
  5
41A
330
293
100
AcDbEntity
  8
0
  6
CONTINUOUS
 62
     7
100
AcDbVertex
100
AcDb2dVertex
 10
8.5189572056
 20
7.3668948866
 30
0.0
  0
VERTEX
  5
41B
330
293
100
AcDbEntity
  8
0
  6
CONTINUOUS
 62
     7
100
AcDbVertex
100
AcDb2dVertex
 10
8.4888536035
 20
7.3550736553
 30
0.0
  0
VERTEX
  5
41C
330
293
100
AcDbEntity
  8
0
  6
CONTINUOUS
 62
     7
100
AcDbVertex
100
AcDb2dVertex
 10
8.4585227487
 20
7.3411092654
 30
0.0
  0
VERTEX
  5
41D
330
293
100
AcDbEntity
  8
0
  6
CONTINUOUS
 62
     7
100
AcDbVertex
100
AcDb2dVertex
 10
8.4280653974
 20
7.3250481051
 30
0.0
  0
VERTEX
  5
41E
330
293
100
AcDbEntity
  8
0
  6
CONTINUOUS
 62
     7
100
AcDbVertex
100
AcDb2dVertex
 10
8.3975827256
 20
7.306943528
 30
0.0
  0
VERTEX
  5
41F
330
293
100
AcDbEntity
  8
0
  6
CONTINUOUS
 62
     7
100
AcDbVertex
100
AcDb2dVertex
 10
8.3671759939
 20
7.2868556757
 30
0.0
  0
VERTEX
  5
420
330
293
100
AcDbEntity
  8
0
  6
CONTINUOUS
 62
     7
100
AcDbVertex
100
AcDb2dVertex
 10
8.3369462104
 20
7.2648512781
 30
0.0
  0
VERTEX
  5
421
330
293
100
AcDbEntity
  8
0
  6
CONTINUOUS
 62
     7
100
AcDbVertex
100
AcDb2dVertex
 10
8.3069937952
 20
7.2410034315
 30
0.0
  0
VERTEX
  5
422
330
293
100
AcDbEntity
  8
0
  6
CONTINUOUS
 62
     7
100
AcDbVertex
100
AcDb2dVertex
 10
8.2774182474
 20
7.215391356
 30
0.0
  0
VERTEX
  5
423
330
293
100
AcDbEntity
  8
0
  6
CONTINUOUS
 62
     7
100
AcDbVertex
100
AcDb2dVertex
 10
8.2483178139
 20
7.1881001324
 30
0.0
  0
VERTEX
  5
424
330
293
100
AcDbEntity
  8
0
  6
CONTINUOUS
 62
     7
100
AcDbVertex
100
AcDb2dVertex
 10
8.2197891635
 20
7.1592204195
 30
0.0
  0
VERTEX
  5
425
330
293
100
AcDbEntity
  8
0
  6
CONTINUOUS
 62
     7
100
AcDbVertex
100
AcDb2dVertex
 10
8.1919270654
 20
7.1288481526
 30
0.0
  0
VERTEX
  5
426
330
293
100
AcDbEntity
  8
0
  6
CONTINUOUS
 62
     7
100
AcDbVertex
100
AcDb2dVertex
 10
8.1648240748
 20
7.0970842255
 30
0.0
  0
VERTEX
  5
427
330
293
100
AcDbEntity
  8
0
  6
CONTINUOUS
 62
     7
100
AcDbVertex
100
AcDb2dVertex
 10
8.138570225
 20
7.0640341546
 30
0.0
  0
VERTEX
  5
428
330
293
100
AcDbEntity
  8
0
  6
CONTINUOUS
 62
     7
100
AcDbVertex
100
AcDb2dVertex
 10
8.1132527287
 20
7.0298077291
 30
0.0
  0
VERTEX
  5
429
330
293
100
AcDbEntity
  8
0
  6
CONTINUOUS
 62
     7
100
AcDbVertex
100
AcDb2dVertex
 10
8.0889556881
 20
6.9945186456
 30
0.0
  0
VERTEX
  5
42A
330
293
100
AcDbEntity
  8
0
  6
CONTINUOUS
 62
     7
100
AcDbVertex
100
AcDb2dVertex
 10
8.0657598155
 20
6.958284131
 30
0.0
  0
VERTEX
  5
42B
330
293
100
AcDbEntity
  8
0
  6
CONTINUOUS
 62
     7
100
AcDbVertex
100
AcDb2dVertex
 10
8.0437421652
 20
6.9212245526
 30
0.0
  0
VERTEX
  5
42C
330
293
100
AcDbEntity
  8
0
  6
CONTINUOUS
 62
     7
100
AcDbVertex
100
AcDb2dVertex
 10
8.0229758777
 20
6.8834630187
 30
0.0
  0
VERTEX
  5
42D
330
293
100
AcDbEntity
  8
0
  6
CONTINUOUS
 62
     7
100
AcDbVertex
100
AcDb2dVertex
 10
8.0035299365
 20
6.8451249692
 30
0.0
  0
VERTEX
  5
42E
330
293
100
AcDbEntity
  8
0
  6
CONTINUOUS
 62
     7
100
AcDbVertex
100
AcDb2dVertex
 10
7.9854689391
 20
6.8063377593
 30
0.0
  0
VERTEX
  5
42F
330
293
100
AcDbEntity
  8
0
  6
CONTINUOUS
 62
     7
100
AcDbVertex
100
AcDb2dVertex
 10
7.9688528823
 20
6.7672302363
 30
0.0
  0
VERTEX
  5
430
330
293
100
AcDbEntity
  8
0
  6
CONTINUOUS
 62
     7
100
AcDbVertex
100
AcDb2dVertex
 10
7.9537369628
 20
6.7279323113
 30
0.0
  0
VERTEX
  5
431
330
293
100
AcDbEntity
  8
0
  6
CONTINUOUS
 62
     7
100
AcDbVertex
100
AcDb2dVertex
 10
7.9401713944
 20
6.6885745281
 30
0.0
  0
VERTEX
  5
432
330
293
100
AcDbEntity
  8
0
  6
CONTINUOUS
 62
     7
100
AcDbVertex
100
AcDb2dVertex
 10
7.9282012405
 20
6.6492876294
 30
0.0
  0
VERTEX
  5
433
330
293
100
AcDbEntity
  8
0
  6
CONTINUOUS
 62
     7
100
AcDbVertex
100
AcDb2dVertex
 10
7.9178662647
 20
6.6102021222
 30
0.0
  0
VERTEX
  5
434
330
293
100
AcDbEntity
  8
0
  6
CONTINUOUS
 62
     7
100
AcDbVertex
100
AcDb2dVertex
 10
7.9092007987
 20
6.5714478448
 30
0.0
  0
VERTEX
  5
435
330
293
100
AcDbEntity
  8
0
  6
CONTINUOUS
 62
     7
100
AcDbVertex
100
AcDb2dVertex
 10
7.9022336284
 20
6.5331535348
 30
0.0
  0
VERTEX
  5
436
330
293
100
AcDbEntity
  8
0
  6
CONTINUOUS
 62
     7
100
AcDbVertex
100
AcDb2dVertex
 10
7.896987898
 20
6.4954464021
 30
0.0
  0
VERTEX
  5
437
330
293
100
AcDbEntity
  8
0
  6
CONTINUOUS
 62
     7
100
AcDbVertex
100
AcDb2dVertex
 10
7.8934810333
 20
6.4584517061
 30
0.0
  0
VERTEX
  5
438
330
293
100
AcDbEntity
  8
0
  6
CONTINUOUS
 62
     7
100
AcDbVertex
100
AcDb2dVertex
 10
7.8917246837
 20
6.4222923394
 30
0.0
  0
VERTEX
  5
439
330
293
100
AcDbEntity
  8
0
  6
CONTINUOUS
 62
     7
100
AcDbVertex
100
AcDb2dVertex
 10
7.8917246837
 20
6.3870884197
 30
0.0
  0
VERTEX
  5
43A
330
293
100
AcDbEntity
  8
0
  6
CONTINUOUS
 62
     7
100
AcDbVertex
100
AcDb2dVertex
 10
7.8934810333
 20
6.352956891
 30
0.0
  0
VERTEX
  5
43B
330
293
100
AcDbEntity
  8
0
  6
CONTINUOUS
 62
     7
100
AcDbVertex
100
AcDb2dVertex
 10
7.896987898
 20
6.3200111348
 30
0.0
  0
VERTEX
  5
43C
330
293
100
AcDbEntity
  8
0
  6
CONTINUOUS
 62
     7
100
AcDbVertex
100
AcDb2dVertex
 10
7.9022336284
 20
6.2883605936
 30
0.0
  0
VERTEX
  5
43D
330
293
100
AcDbEntity
  8
0
  6
CONTINUOUS
 62
     7
100
AcDbVertex
100
AcDb2dVertex
 10
7.9092007987
 20
6.2581104072
 30
0.0
  0
VERTEX
  5
43E
330
293
100
AcDbEntity
  8
0
  6
CONTINUOUS
 62
     7
100
AcDbVertex
100
AcDb2dVertex
 10
7.9178662647
 20
6.2293610638
 30
0.0
  0
VERTEX
  5
43F
330
293
100
AcDbEntity
  8
0
  6
CONTINUOUS
 62
     7
100
AcDbVertex
100
AcDb2dVertex
 10
7.9282012405
 20
6.2022080657
 30
0.0
  0
VERTEX
  5
440
330
293
100
AcDbEntity
  8
0
  6
CONTINUOUS
 62
     7
100
AcDbVertex
100
AcDb2dVertex
 10
7.9401713944
 20
6.1767416125
 30
0.0
  0
VERTEX
  5
441
330
293
100
AcDbEntity
  8
0
  6
CONTINUOUS
 62
     7
100
AcDbVertex
100
AcDb2dVertex
 10
7.9537369628
 20
6.1530463013
 30
0.0
  0
VERTEX
  5
442
330
293
100
AcDbEntity
  8
0
  6
CONTINUOUS
 62
     7
100
AcDbVertex
100
AcDb2dVertex
 10
7.9688528823
 20
6.1312008454
 30
0.0
  0
VERTEX
  5
443
330
293
100
AcDbEntity
  8
0
  6
CONTINUOUS
 62
     7
100
AcDbVertex
100
AcDb2dVertex
 10
7.9854689391
 20
6.1112778132
 30
0.0
  0
VERTEX
  5
444
330
293
100
AcDbEntity
  8
0
  6
CONTINUOUS
 62
     7
100
AcDbVertex
100
AcDb2dVertex
 10
8.0035299365
 20
6.0933433871
 30
0.0
  0
VERTEX
  5
445
330
293
100
AcDbEntity
  8
0
  6
CONTINUOUS
 62
     7
100
AcDbVertex
100
AcDb2dVertex
 10
8.0229758777
 20
6.0774571434
 30
0.0
  0
VERTEX
  5
446
330
293
100
AcDbEntity
  8
0
  6
CONTINUOUS
 62
     7
100
AcDbVertex
100
AcDb2dVertex
 10
8.0437421652
 20
6.0636718546
 30
0.0
  0
VERTEX
  5
447
330
293
100
AcDbEntity
  8
0
  6
CONTINUOUS
 62
     7
100
AcDbVertex
100
AcDb2dVertex
 10
8.0464577938
 20
6.0620812251
 30
0.0
  0
SEQEND
  5
448
330
293
100
AcDbEntity
  8
0
  6
CONTINUOUS
 62
     7
  0
POLYLINE
  5
294
330
1F
100
AcDbEntity
  8
0
  6
CONTINUOUS
 62
     7
100
AcDb2dPolyline
 66
     1
 10
0.0
 20
0.0
 30
0.0
  0
VERTEX
  5
449
330
294
100
AcDbEntity
  8
0
  6
CONTINUOUS
 62
     7
100
AcDbVertex
100
AcDb2dVertex
 10
8.2817698963
 20
6.1756567439
 30
0.0
  0
VERTEX
  5
44A
330
294
100
AcDbEntity
  8
0
  6
CONTINUOUS
 62
     7
100
AcDbVertex
100
AcDb2dVertex
 10
8.2834576941
 20
6.1418433658
 30
0.0
  0
VERTEX
  5
44B
330
294
100
AcDbEntity
  8
0
  6
CONTINUOUS
 62
     7
100
AcDbVertex
100
AcDb2dVertex
 10
8.286895524
 20
6.1092126053
 30
0.0
  0
VERTEX
  5
44C
330
294
100
AcDbEntity
  8
0
  6
CONTINUOUS
 62
     7
100
AcDbVertex
100
AcDb2dVertex
 10
8.2920717367
 20
6.0778750327
 30
0.0
  0
VERTEX
  5
44D
330
294
100
AcDbEntity
  8
0
  6
CONTINUOUS
 62
     7
100
AcDbVertex
100
AcDb2dVertex
 10
8.2989687926
 20
6.0479368367
 30
0.0
  0
VERTEX
  5
44E
330
294
100
AcDbEntity
  8
0
  6
CONTINUOUS
 62
     7
100
AcDbVertex
100
AcDb2dVertex
 10
8.3075633207
 20
6.0194994638
 30
0.0
  0
VERTEX
  5
44F
330
294
100
AcDbEntity
  8
0
  6
CONTINUOUS
 62
     7
100
AcDbVertex
100
AcDb2dVertex
 10
8.3178261982
 20
5.9926592751
 30
0.0
  0
VERTEX
  5
450
330
294
100
AcDbEntity
  8
0
  6
CONTINUOUS
 62
     7
100
AcDbVertex
100
AcDb2dVertex
 10
8.3297226488
 20
5.9675072194
 30
0.0
  0
VERTEX
  5
451
330
294
100
AcDbEntity
  8
0
  6
CONTINUOUS
 62
     7
100
AcDbVertex
100
AcDb2dVertex
 10
8.3432123611
 20
5.9441285255
 30
0.0
  0
VERTEX
  5
452
330
294
100
AcDbEntity
  8
0
  6
CONTINUOUS
 62
     7
100
AcDbVertex
100
AcDb2dVertex
 10
8.3582496248
 20
5.9226024128
 30
0.0
  0
VERTEX
  5
453
330
294
100
AcDbEntity
  8
0
  6
CONTINUOUS
 62
     7
100
AcDbVertex
100
AcDb2dVertex
 10
8.3747834855
 20
5.9030018234
 30
0.0
  0
VERTEX
  5
454
330
294
100
AcDbEntity
  8
0
  6
CONTINUOUS
 62
     7
100
AcDbVertex
100
AcDb2dVertex
 10
8.3927579176
 20
5.8853931745
 30
0.0
  0
VERTEX
  5
455
330
294
100
AcDbEntity
  8
0
  6
CONTINUOUS
 62
     7
100
AcDbVertex
100
AcDb2dVertex
 10
8.4121120141
 20
5.8698361337
 30
0.0
  0
VERTEX
  5
456
330
294
100
AcDbEntity
  8
0
  6
CONTINUOUS
 62
     7
100
AcDbVertex
100
AcDb2dVertex
 10
8.4327801931
 20
5.8563834165
 30
0.0
  0
VERTEX
  5
457
330
294
100
AcDbEntity
  8
0
  6
CONTINUOUS
 62
     7
100
AcDbVertex
100
AcDb2dVertex
 10
8.4546924196
 20
5.8450806079
 30
0.0
  0
VERTEX
  5
458
330
294
100
AcDbEntity
  8
0
  6
CONTINUOUS
 62
     7
100
AcDbVertex
100
AcDb2dVertex
 10
8.4777744434
 20
5.8359660079
 30
0.0
  0
VERTEX
  5
459
330
294
100
AcDbEntity
  8
0
  6
CONTINUOUS
 62
     7
100
AcDbVertex
100
AcDb2dVertex
 10
8.5019480501
 20
5.8290705018
 30
0.0
  0
VERTEX
  5
45A
330
294
100
AcDbEntity
  8
0
  6
CONTINUOUS
 62
     7
100
AcDbVertex
100
AcDb2dVertex
 10
8.5271313266
 20
5.824417455
 30
0.0
  0
VERTEX
  5
45B
330
294
100
AcDbEntity
  8
0
  6
CONTINUOUS
 62
     7
100
AcDbVertex
100
AcDb2dVertex
 10
8.5532389385
 20
5.8220226346
 30
0.0
  0
VERTEX
  5
45C
330
294
100
AcDbEntity
  8
0
  6
CONTINUOUS
 62
     7
100
AcDbVertex
100
AcDb2dVertex
 10
8.5801824193
 20
5.8218941556
 30
0.0
  0
VERTEX
  5
45D
330
294
100
AcDbEntity
  8
0
  6
CONTINUOUS
 62
     7
100
AcDbVertex
100
AcDb2dVertex
 10
8.6078704701
 20
5.8240324534
 30
0.0
  0
VERTEX
  5
45E
330
294
100
AcDbEntity
  8
0
  6
CONTINUOUS
 62
     7
100
AcDbVertex
100
AcDb2dVertex
 10
8.6362092688
 20
5.8284302822
 30
0.0
  0
VERTEX
  5
45F
330
294
100
AcDbEntity
  8
0
  6
CONTINUOUS
 62
     7
100
AcDbVertex
100
AcDb2dVertex
 10
8.6651027884
 20
5.8350727397
 30
0.0
  0
VERTEX
  5
460
330
294
100
AcDbEntity
  8
0
  6
CONTINUOUS
 62
     7
100
AcDbVertex
100
AcDb2dVertex
 10
8.6944531224
 20
5.843937318
 30
0.0
  0
VERTEX
  5
461
330
294
100
AcDbEntity
  8
0
  6
CONTINUOUS
 62
     7
100
AcDbVertex
100
AcDb2dVertex
 10
8.7241608159
 20
5.8549939789
 30
0.0
  0
VERTEX
  5
462
330
294
100
AcDbEntity
  8
0
  6
CONTINUOUS
 62
     7
100
AcDbVertex
100
AcDb2dVertex
 10
8.7541252035
 20
5.8682052566
 30
0.0
  0
VERTEX
  5
463
330
294
100
AcDbEntity
  8
0
  6
CONTINUOUS
 62
     7
100
AcDbVertex
100
AcDb2dVertex
 10
8.7842447497
 20
5.8835263842
 30
0.0
  0
VERTEX
  5
464
330
294
100
AcDbEntity
  8
0
  6
CONTINUOUS
 62
     7
100
AcDbVertex
100
AcDb2dVertex
 10
8.8144173935
 20
5.9009054455
 30
0.0
  0
VERTEX
  5
465
330
294
100
AcDbEntity
  8
0
  6
CONTINUOUS
 62
     7
100
AcDbVertex
100
AcDb2dVertex
 10
8.8445408938
 20
5.9202835511
 30
0.0
  0
VERTEX
  5
466
330
294
100
AcDbEntity
  8
0
  6
CONTINUOUS
 62
     7
100
AcDbVertex
100
AcDb2dVertex
 10
8.8745131759
 20
5.9415950374
 30
0.0
  0
VERTEX
  5
467
330
294
100
AcDbEntity
  8
0
  6
CONTINUOUS
 62
     7
100
AcDbVertex
100
AcDb2dVertex
 10
8.9042326778
 20
5.9647676898
 30
0.0
  0
VERTEX
  5
468
330
294
100
AcDbEntity
  8
0
  6
CONTINUOUS
 62
     7
100
AcDbVertex
100
AcDb2dVertex
 10
8.933598694
 20
5.9897229869
 30
0.0
  0
VERTEX
  5
469
330
294
100
AcDbEntity
  8
0
  6
CONTINUOUS
 62
     7
100
AcDbVertex
100
AcDb2dVertex
 10
8.9625117165
 20
6.0163763669
 30
0.0
  0
VERTEX
  5
46A
330
294
100
AcDbEntity
  8
0
  6
CONTINUOUS
 62
     7
100
AcDbVertex
100
AcDb2dVertex
 10
8.9908737727
 20
6.0446375137
 30
0.0
  0
VERTEX
  5
46B
330
294
100
AcDbEntity
  8
0
  6
CONTINUOUS
 62
     7
100
AcDbVertex
100
AcDb2dVertex
 10
9.0185887566
 20
6.0744106635
 30
0.0
  0
VERTEX
  5
46C
330
294
100
AcDbEntity
  8
0
  6
CONTINUOUS
 62
     7
100
AcDbVertex
100
AcDb2dVertex
 10
9.0455627552
 20
6.1055949289
 30
0.0
  0
VERTEX
  5
46D
330
294
100
AcDbEntity
  8
0
  6
CONTINUOUS
 62
     7
100
AcDbVertex
100
AcDb2dVertex
 10
9.071704366
 20
6.138084641
 30
0.0
  0
VERTEX
  5
46E
330
294
100
AcDbEntity
  8
0
  6
CONTINUOUS
 62
     7
100
AcDbVertex
100
AcDb2dVertex
 10
9.0969250073
 20
6.1717697073
 30
0.0
  0
VERTEX
  5
46F
330
294
100
AcDbEntity
  8
0
  6
CONTINUOUS
 62
     7
100
AcDbVertex
100
AcDb2dVertex
 10
9.121139218
 20
6.2065359846
 30
0.0
  0
VERTEX
  5
470
330
294
100
AcDbEntity
  8
0
  6
CONTINUOUS
 62
     7
100
AcDbVertex
100
AcDb2dVertex
 10
9.1442649475
 20
6.2422656662
 30
0.0
  0
VERTEX
  5
471
330
294
100
AcDbEntity
  8
0
  6
CONTINUOUS
 62
     7
100
AcDbVertex
100
AcDb2dVertex
 10
9.1662238334
 20
6.2788376809
 30
0.0
  0
VERTEX
  5
472
330
294
100
AcDbEntity
  8
0
  6
CONTINUOUS
 62
     7
100
AcDbVertex
100
AcDb2dVertex
 10
9.1869414672
 20
6.316128103
 30
0.0
  0
VERTEX
  5
473
330
294
100
AcDbEntity
  8
0
  6
CONTINUOUS
 62
     7
100
AcDbVertex
100
AcDb2dVertex
 10
9.2063476465
 20
6.3540105728
 30
0.0
  0
VERTEX
  5
474
330
294
100
AcDbEntity
  8
0
  6
CONTINUOUS
 62
     7
100
AcDbVertex
100
AcDb2dVertex
 10
9.2243766128
 20
6.392356724
 30
0.0
  0
VERTEX
  5
475
330
294
100
AcDbEntity
  8
0
  6
CONTINUOUS
 62
     7
100
AcDbVertex
100
AcDb2dVertex
 10
9.2409672743
 20
6.4310366194
 30
0.0
  0
VERTEX
  5
476
330
294
100
AcDbEntity
  8
0
  6
CONTINUOUS
 62
     7
100
AcDbVertex
100
AcDb2dVertex
 10
9.256063413
 20
6.4699191909
 30
0.0
  0
VERTEX
  5
477
330
294
100
AcDbEntity
  8
0
  6
CONTINUOUS
 62
     7
100
AcDbVertex
100
AcDb2dVertex
 10
9.269613875
 20
6.5088726833
 30
0.0
  0
VERTEX
  5
478
330
294
100
AcDbEntity
  8
0
  6
CONTINUOUS
 62
     7
100
AcDbVertex
100
AcDb2dVertex
 10
9.2815727441
 20
6.5477651016
 30
0.0
  0
VERTEX
  5
479
330
294
100
AcDbEntity
  8
0
  6
CONTINUOUS
 62
     7
100
AcDbVertex
100
AcDb2dVertex
 10
9.2918994973
 20
6.5864646573
 30
0.0
  0
VERTEX
  5
47A
330
294
100
AcDbEntity
  8
0
  6
CONTINUOUS
 62
     7
100
AcDbVertex
100
AcDb2dVertex
 10
9.3005591421
 20
6.6248402156
 30
0.0
  0
VERTEX
  5
47B
330
294
100
AcDbEntity
  8
0
  6
CONTINUOUS
 62
     7
100
AcDbVertex
100
AcDb2dVertex
 10
9.3075223348
 20
6.6627617397
 30
0.0
  0
VERTEX
  5
47C
330
294
100
AcDbEntity
  8
0
  6
CONTINUOUS
 62
     7
100
AcDbVertex
100
AcDb2dVertex
 10
9.3127654806
 20
6.700100731
 30
0.0
  0
VERTEX
  5
47D
330
294
100
AcDbEntity
  8
0
  6
CONTINUOUS
 62
     7
100
AcDbVertex
100
AcDb2dVertex
 10
9.3162708127
 20
6.7367306651
 30
0.0
  0
VERTEX
  5
47E
330
294
100
AcDbEntity
  8
0
  6
CONTINUOUS
 62
     7
100
AcDbVertex
100
AcDb2dVertex
 10
9.3180264533
 20
6.7725274201
 30
0.0
  0
VERTEX
  5
47F
330
294
100
AcDbEntity
  8
0
  6
CONTINUOUS
 62
     7
100
AcDbVertex
100
AcDb2dVertex
 10
9.3180264533
 20
6.8073696976
 30
0.0
  0
VERTEX
  5
480
330
294
100
AcDbEntity
  8
0
  6
CONTINUOUS
 62
     7
100
AcDbVertex
100
AcDb2dVertex
 10
9.3162708127
 20
6.8411394332
 30
0.0
  0
VERTEX
  5
481
330
294
100
AcDbEntity
  8
0
  6
CONTINUOUS
 62
     7
100
AcDbVertex
100
AcDb2dVertex
 10
9.3127654806
 20
6.8737221969
 30
0.0
  0
VERTEX
  5
482
330
294
100
AcDbEntity
  8
0
  6
CONTINUOUS
 62
     7
100
AcDbVertex
100
AcDb2dVertex
 10
9.3075223348
 20
6.905007581
 30
0.0
  0
VERTEX
  5
483
330
294
100
AcDbEntity
  8
0
  6
CONTINUOUS
 62
     7
100
AcDbVertex
100
AcDb2dVertex
 10
9.3005591421
 20
6.9348895738
 30
0.0
  0
VERTEX
  5
484
330
294
100
AcDbEntity
  8
0
  6
CONTINUOUS
 62
     7
100
AcDbVertex
100
AcDb2dVertex
 10
9.2918994973
 20
6.9632669192
 30
0.0
  0
VERTEX
  5
485
330
294
100
AcDbEntity
  8
0
  6
CONTINUOUS
 62
     7
100
AcDbVertex
100
AcDb2dVertex
 10
9.2815727441
 20
6.9900434594
 30
0.0
  0
VERTEX
  5
486
330
294
100
AcDbEntity
  8
0
  6
CONTINUOUS
 62
     7
100
AcDbVertex
100
AcDb2dVertex
 10
9.269613875
 20
7.0151284612
 30
0.0
  0
VERTEX
  5
487
330
294
100
AcDbEntity
  8
0
  6
CONTINUOUS
 62
     7
100
AcDbVertex
100
AcDb2dVertex
 10
9.256063413
 20
7.0384369233
 30
0.0
  0
VERTEX
  5
488
330
294
100
AcDbEntity
  8
0
  6
CONTINUOUS
 62
     7
100
AcDbVertex
100
AcDb2dVertex
 10
9.2409672743
 20
7.0598898641
 30
0.0
  0
VERTEX
  5
489
330
294
100
AcDbEntity
  8
0
  6
CONTINUOUS
 62
     7
100
AcDbVertex
100
AcDb2dVertex
 10
9.2243766128
 20
7.0794145895
 30
0.0
  0
VERTEX
  5
48A
330
294
100
AcDbEntity
  8
0
  6
CONTINUOUS
 62
     7
100
AcDbVertex
100
AcDb2dVertex
 10
9.2063476465
 20
7.0969449393
 30
0.0
  0
VERTEX
  5
48B
330
294
100
AcDbEntity
  8
0
  6
CONTINUOUS
 62
     7
100
AcDbVertex
100
AcDb2dVertex
 10
9.1869414672
 20
7.1124215113
 30
0.0
  0
VERTEX
  5
48C
330
294
100
AcDbEntity
  8
0
  6
CONTINUOUS
 62
     7
100
AcDbVertex
100
AcDb2dVertex
 10
9.1662238334
 20
7.1257918626
 30
0.0
  0
VERTEX
  5
48D
330
294
100
AcDbEntity
  8
0
  6
CONTINUOUS
 62
     7
100
AcDbVertex
100
AcDb2dVertex
 10
9.1442649475
 20
7.1370106873
 30
0.0
  0
VERTEX
  5
48E
330
294
100
AcDbEntity
  8
0
  6
CONTINUOUS
 62
     7
100
AcDbVertex
100
AcDb2dVertex
 10
9.121139218
 20
7.14603997
 30
0.0
  0
VERTEX
  5
48F
330
294
100
AcDbEntity
  8
0
  6
CONTINUOUS
 62
     7
100
AcDbVertex
100
AcDb2dVertex
 10
9.0969250073
 20
7.1528491147
 30
0.0
  0
VERTEX
  5
490
330
294
100
AcDbEntity
  8
0
  6
CONTINUOUS
 62
     7
100
AcDbVertex
100
AcDb2dVertex
 10
9.071704366
 20
7.1574150483
 30
0.0
  0
VERTEX
  5
491
330
294
100
AcDbEntity
  8
0
  6
CONTINUOUS
 62
     7
100
AcDbVertex
100
AcDb2dVertex
 10
9.0455627552
 20
7.159722299
 30
0.0
  0
VERTEX
  5
492
330
294
100
AcDbEntity
  8
0
  6
CONTINUOUS
 62
     7
100
AcDbVertex
100
AcDb2dVertex
 10
9.0185887566
 20
7.1597630486
 30
0.0
  0
VERTEX
  5
493
330
294
100
AcDbEntity
  8
0
  6
CONTINUOUS
 62
     7
100
AcDbVertex
100
AcDb2dVertex
 10
8.9908737727
 20
7.1575371591
 30
0.0
  0
VERTEX
  5
494
330
294
100
AcDbEntity
  8
0
  6
CONTINUOUS
 62
     7
100
AcDbVertex
100
AcDb2dVertex
 10
8.9625117165
 20
7.1530521728
 30
0.0
  0
VERTEX
  5
495
330
294
100
AcDbEntity
  8
0
  6
CONTINUOUS
 62
     7
100
AcDbVertex
100
AcDb2dVertex
 10
8.933598694
 20
7.1463232875
 30
0.0
  0
VERTEX
  5
496
330
294
100
AcDbEntity
  8
0
  6
CONTINUOUS
 62
     7
100
AcDbVertex
100
AcDb2dVertex
 10
8.9042326778
 20
7.1373733041
 30
0.0
  0
VERTEX
  5
497
330
294
100
AcDbEntity
  8
0
  6
CONTINUOUS
 62
     7
100
AcDbVertex
100
AcDb2dVertex
 10
8.8745131759
 20
7.1262325499
 30
0.0
  0
VERTEX
  5
498
330
294
100
AcDbEntity
  8
0
  6
CONTINUOUS
 62
     7
100
AcDbVertex
100
AcDb2dVertex
 10
8.8445408938
 20
7.1129387759
 30
0.0
  0
VERTEX
  5
499
330
294
100
AcDbEntity
  8
0
  6
CONTINUOUS
 62
     7
100
AcDbVertex
100
AcDb2dVertex
 10
8.8144173935
 20
7.0975370284
 30
0.0
  0
VERTEX
  5
49A
330
294
100
AcDbEntity
  8
0
  6
CONTINUOUS
 62
     7
100
AcDbVertex
100
AcDb2dVertex
 10
8.7842447497
 20
7.0800794968
 30
0.0
  0
VERTEX
  5
49B
330
294
100
AcDbEntity
  8
0
  6
CONTINUOUS
 62
     7
100
AcDbVertex
100
AcDb2dVertex
 10
8.7541252035
 20
7.0606253365
 30
0.0
  0
VERTEX
  5
49C
330
294
100
AcDbEntity
  8
0
  6
CONTINUOUS
 62
     7
100
AcDbVertex
100
AcDb2dVertex
 10
8.7241608159
 20
7.0392404687
 30
0.0
  0
VERTEX
  5
49D
330
294
100
AcDbEntity
  8
0
  6
CONTINUOUS
 62
     7
100
AcDbVertex
100
AcDb2dVertex
 10
8.6944531224
 20
7.0159973567
 30
0.0
  0
VERTEX
  5
49E
330
294
100
AcDbEntity
  8
0
  6
CONTINUOUS
 62
     7
100
AcDbVertex
100
AcDb2dVertex
 10
8.6651027884
 20
6.9909747607
 30
0.0
  0
VERTEX
  5
49F
330
294
100
AcDbEntity
  8
0
  6
CONTINUOUS
 62
     7
100
AcDbVertex
100
AcDb2dVertex
 10
8.6362092688
 20
6.9642574705
 30
0.0
  0
VERTEX
  5
4A0
330
294
100
AcDbEntity
  8
0
  6
CONTINUOUS
 62
     7
100
AcDbVertex
100
AcDb2dVertex
 10
8.6078704701
 20
6.9359360188
 30
0.0
  0
VERTEX
  5
4A1
330
294
100
AcDbEntity
  8
0
  6
CONTINUOUS
 62
     7
100
AcDbVertex
100
AcDb2dVertex
 10
8.5801824193
 20
6.9061063736
 30
0.0
  0
VERTEX
  5
4A2
330
294
100
AcDbEntity
  8
0
  6
CONTINUOUS
 62
     7
100
AcDbVertex
100
AcDb2dVertex
 10
8.5532389385
 20
6.8748696138
 30
0.0
  0
VERTEX
  5
4A3
330
294
100
AcDbEntity
  8
0
  6
CONTINUOUS
 62
     7
100
AcDbVertex
100
AcDb2dVertex
 10
8.5271313266
 20
6.8423315864
 30
0.0
  0
VERTEX
  5
4A4
330
294
100
AcDbEntity
  8
0
  6
CONTINUOUS
 62
     7
100
AcDbVertex
100
AcDb2dVertex
 10
8.5019480501
 20
6.8086025474
 30
0.0
  0
VERTEX
  5
4A5
330
294
100
AcDbEntity
  8
0
  6
CONTINUOUS
 62
     7
100
AcDbVertex
100
AcDb2dVertex
 10
8.4777744434
 20
6.773796789
 30
0.0
  0
VERTEX
  5
4A6
330
294
100
AcDbEntity
  8
0
  6
CONTINUOUS
 62
     7
100
AcDbVertex
100
AcDb2dVertex
 10
8.4546924196
 20
6.7380322517
 30
0.0
  0
VERTEX
  5
4A7
330
294
100
AcDbEntity
  8
0
  6
CONTINUOUS
 62
     7
100
AcDbVertex
100
AcDb2dVertex
 10
8.4327801931
 20
6.7014301249
 30
0.0
  0
VERTEX
  5
4A8
330
294
100
AcDbEntity
  8
0
  6
CONTINUOUS
 62
     7
100
AcDbVertex
100
AcDb2dVertex
 10
8.4121120141
 20
6.6641144362
 30
0.0
  0
VERTEX
  5
4A9
330
294
100
AcDbEntity
  8
0
  6
CONTINUOUS
 62
     7
100
AcDbVertex
100
AcDb2dVertex
 10
8.3927579176
 20
6.6262116311
 30
0.0
  0
VERTEX
  5
4AA
330
294
100
AcDbEntity
  8
0
  6
CONTINUOUS
 62
     7
100
AcDbVertex
100
AcDb2dVertex
 10
8.3747834855
 20
6.5878501446
 30
0.0
  0
VERTEX
  5
4AB
330
294
100
AcDbEntity
  8
0
  6
CONTINUOUS
 62
     7
100
AcDbVertex
100
AcDb2dVertex
 10
8.3582496248
 20
6.549159966
 30
0.0
  0
VERTEX
  5
4AC
330
294
100
AcDbEntity
  8
0
  6
CONTINUOUS
 62
     7
100
AcDbVertex
100
AcDb2dVertex
 10
8.3432123611
 20
6.5102721983
 30
0.0
  0
VERTEX
  5
4AD
330
294
100
AcDbEntity
  8
0
  6
CONTINUOUS
 62
     7
100
AcDbVertex
100
AcDb2dVertex
 10
8.3297226488
 20
6.471318614
 30
0.0
  0
VERTEX
  5
4AE
330
294
100
AcDbEntity
  8
0
  6
CONTINUOUS
 62
     7
100
AcDbVertex
100
AcDb2dVertex
 10
8.3178261982
 20
6.4324312088
 30
0.0
  0
VERTEX
  5
4AF
330
294
100
AcDbEntity
  8
0
  6
CONTINUOUS
 62
     7
100
AcDbVertex
100
AcDb2dVertex
 10
8.3075633207
 20
6.393741754
 30
0.0
  0
VERTEX
  5
4B0
330
294
100
AcDbEntity
  8
0
  6
CONTINUOUS
 62
     7
100
AcDbVertex
100
AcDb2dVertex
 10
8.2989687926
 20
6.3553813502
 30
0.0
  0
VERTEX
  5
4B1
330
294
100
AcDbEntity
  8
0
  6
CONTINUOUS
 62
     7
100
AcDbVertex
100
AcDb2dVertex
 10
8.2920717367
 20
6.3174799829
 30
0.0
  0
VERTEX
  5
4B2
330
294
100
AcDbEntity
  8
0
  6
CONTINUOUS
 62
     7
100
AcDbVertex
100
AcDb2dVertex
 10
8.286895524
 20
6.2801660824
 30
0.0
  0
VERTEX
  5
4B3
330
294
100
AcDbEntity
  8
0
  6
CONTINUOUS
 62
     7
100
AcDbVertex
100
AcDb2dVertex
 10
8.2834576941
 20
6.2435660879
 30
0.0
  0
VERTEX
  5
4B4
330
294
100
AcDbEntity
  8
0
  6
CONTINUOUS
 62
     7
100
AcDbVertex
100
AcDb2dVertex
 10
8.2817698963
 20
6.20780402
 30
0.0
  0
SEQEND
  5
4B5
330
294
100
AcDbEntity
  8
0
  6
CONTINUOUS
 62
     7
  0
LINE
  5
295
330
1F
100
AcDbEntity
  8
0
  6
CONTINUOUS
 62
     7
100
AcDbLine
 10
8.2605529431
 20
6.2078018553
 30
0.0
 11
8.2817698963
 21
6.20780402
 31
0.0
  0
POLYLINE
  5
296
330
1F
100
AcDbEntity
  8
0
  6
CONTINUOUS
 62
     7
100
AcDb2dPolyline
 66
     1
 10
0.0
 20
0.0
 30
0.0
  0
VERTEX
  5
4B6
330
296
100
AcDbEntity
  8
0
  6
CONTINUOUS
 62
     7
100
AcDbVertex
100
AcDb2dVertex
 10
8.2605529431
 20
6.2078018553
 30
0.0
  0
VERTEX
  5
4B7
330
296
100
AcDbEntity
  8
0
  6
CONTINUOUS
 62
     7
100
AcDbVertex
100
AcDb2dVertex
 10
8.262235161
 20
6.2439516066
 30
0.0
  0
VERTEX
  5
4B8
330
296
100
AcDbEntity
  8
0
  6
CONTINUOUS
 62
     7
100
AcDbVertex
100
AcDb2dVertex
 10
8.2656710778
 20
6.2809432179
 30
0.0
  0
VERTEX
  5
4B9
330
296
100
AcDbEntity
  8
0
  6
CONTINUOUS
 62
     7
100
AcDbVertex
100
AcDb2dVertex
 10
8.2708492614
 20
6.3186536094
 30
0.0
  0
VERTEX
  5
4BA
330
296
100
AcDbEntity
  8
0
  6
CONTINUOUS
 62
     7
100
AcDbVertex
100
AcDb2dVertex
 10
8.2777524827
 20
6.3569573093
 30
0.0
  0
VERTEX
  5
4BB
330
296
100
AcDbEntity
  8
0
  6
CONTINUOUS
 62
     7
100
AcDbVertex
100
AcDb2dVertex
 10
8.2863577731
 20
6.3957268718
 30
0.0
  0
VERTEX
  5
4BC
330
296
100
AcDbEntity
  8
0
  6
CONTINUOUS
 62
     7
100
AcDbVertex
100
AcDb2dVertex
 10
8.2966365006
 20
6.4348333014
 30
0.0
  0
VERTEX
  5
4BD
330
296
100
AcDbEntity
  8
0
  6
CONTINUOUS
 62
     7
100
AcDbVertex
100
AcDb2dVertex
 10
8.3085544654
 20
6.4741464814
 30
0.0
  0
VERTEX
  5
4BE
330
296
100
AcDbEntity
  8
0
  6
CONTINUOUS
 62
     7
100
AcDbVertex
100
AcDb2dVertex
 10
8.3220720136
 20
6.5135356072
 30
0.0
  0
VERTEX
  5
4BF
330
296
100
AcDbEntity
  8
0
  6
CONTINUOUS
 62
     7
100
AcDbVertex
100
AcDb2dVertex
 10
8.337144169
 20
6.5528696218
 30
0.0
  0
VERTEX
  5
4C0
330
296
100
AcDbEntity
  8
0
  6
CONTINUOUS
 62
     7
100
AcDbVertex
100
AcDb2dVertex
 10
8.3537207829
 20
6.5920176513
 30
0.0
  0
VERTEX
  5
4C1
330
296
100
AcDbEntity
  8
0
  6
CONTINUOUS
 62
     7
100
AcDbVertex
100
AcDb2dVertex
 10
8.3717467009
 20
6.6308494407
 30
0.0
  0
VERTEX
  5
4C2
330
296
100
AcDbEntity
  8
0
  6
CONTINUOUS
 62
     7
100
AcDbVertex
100
AcDb2dVertex
 10
8.3911619463
 20
6.6692357872
 30
0.0
  0
VERTEX
  5
4C3
330
296
100
AcDbEntity
  8
0
  6
CONTINUOUS
 62
     7
100
AcDbVertex
100
AcDb2dVertex
 10
8.4119019199
 20
6.7070489702
 30
0.0
  0
VERTEX
  5
4C4
330
296
100
AcDbEntity
  8
0
  6
CONTINUOUS
 62
     7
100
AcDbVertex
100
AcDb2dVertex
 10
8.4338976148
 20
6.744163176
 30
0.0
  0
VERTEX
  5
4C5
330
296
100
AcDbEntity
  8
0
  6
CONTINUOUS
 62
     7
100
AcDbVertex
100
AcDb2dVertex
 10
8.4570758461
 20
6.7804549166
 30
0.0
  0
VERTEX
  5
4C6
330
296
100
AcDbEntity
  8
0
  6
CONTINUOUS
 62
     7
100
AcDbVertex
100
AcDb2dVertex
 10
8.481359494
 20
6.8158034406
 30
0.0
  0
VERTEX
  5
4C7
330
296
100
AcDbEntity
  8
0
  6
CONTINUOUS
 62
     7
100
AcDbVertex
100
AcDb2dVertex
 10
8.506667761
 20
6.8500911349
 30
0.0
  0
VERTEX
  5
4C8
330
296
100
AcDbEntity
  8
0
  6
CONTINUOUS
 62
     7
100
AcDbVertex
100
AcDb2dVertex
 10
8.5329164403
 20
6.883203916
 30
0.0
  0
VERTEX
  5
4C9
330
296
100
AcDbEntity
  8
0
  6
CONTINUOUS
 62
     7
100
AcDbVertex
100
AcDb2dVertex
 10
8.5600181963
 20
6.9150316097
 30
0.0
  0
VERTEX
  5
4CA
330
296
100
AcDbEntity
  8
0
  6
CONTINUOUS
 62
     7
100
AcDbVertex
100
AcDb2dVertex
 10
8.5878828548
 20
6.9454683174
 30
0.0
  0
VERTEX
  5
4CB
330
296
100
AcDbEntity
  8
0
  6
CONTINUOUS
 62
     7
100
AcDbVertex
100
AcDb2dVertex
 10
8.6164177033
 20
6.9744127689
 30
0.0
  0
VERTEX
  5
4CC
330
296
100
AcDbEntity
  8
0
  6
CONTINUOUS
 62
     7
100
AcDbVertex
100
AcDb2dVertex
 10
8.6455277995
 20
7.001768659
 30
0.0
  0
VERTEX
  5
4CD
330
296
100
AcDbEntity
  8
0
  6
CONTINUOUS
 62
     7
100
AcDbVertex
100
AcDb2dVertex
 10
8.6751162869
 20
7.0274449679
 30
0.0
  0
VERTEX
  5
4CE
330
296
100
AcDbEntity
  8
0
  6
CONTINUOUS
 62
     7
100
AcDbVertex
100
AcDb2dVertex
 10
8.7050847176
 20
7.0513562644
 30
0.0
  0
VERTEX
  5
4CF
330
296
100
AcDbEntity
  8
0
  6
CONTINUOUS
 62
     7
100
AcDbVertex
100
AcDb2dVertex
 10
8.7353333793
 20
7.0734229898
 30
0.0
  0
VERTEX
  5
4D0
330
296
100
AcDbEntity
  8
0
  6
CONTINUOUS
 62
     7
100
AcDbVertex
100
AcDb2dVertex
 10
8.7657616273
 20
7.0935717227
 30
0.0
  0
VERTEX
  5
4D1
330
296
100
AcDbEntity
  8
0
  6
CONTINUOUS
 62
     7
100
AcDbVertex
100
AcDb2dVertex
 10
8.7962682195
 20
7.1117354234
 30
0.0
  0
VERTEX
  5
4D2
330
296
100
AcDbEntity
  8
0
  6
CONTINUOUS
 62
     7
100
AcDbVertex
100
AcDb2dVertex
 10
8.8267516531
 20
7.1278536568
 30
0.0
  0
VERTEX
  5
4D3
330
296
100
AcDbEntity
  8
0
  6
CONTINUOUS
 62
     7
100
AcDbVertex
100
AcDb2dVertex
 10
8.8571105022
 20
7.1418727938
 30
0.0
  0
VERTEX
  5
4D4
330
296
100
AcDbEntity
  8
0
  6
CONTINUOUS
 62
     7
100
AcDbVertex
100
AcDb2dVertex
 10
8.8872437556
 20
7.1537461891
 30
0.0
  0
VERTEX
  5
4D5
330
296
100
AcDbEntity
  8
0
  6
CONTINUOUS
 62
     7
100
AcDbVertex
100
AcDb2dVertex
 10
8.9170511527
 20
7.1634343372
 30
0.0
  0
VERTEX
  5
4D6
330
296
100
AcDbEntity
  8
0
  6
CONTINUOUS
 62
     7
100
AcDbVertex
100
AcDb2dVertex
 10
8.9464335169
 20
7.1709050033
 30
0.0
  0
VERTEX
  5
4D7
330
296
100
AcDbEntity
  8
0
  6
CONTINUOUS
 62
     7
100
AcDbVertex
100
AcDb2dVertex
 10
8.9752930862
 20
7.1761333305
 30
0.0
  0
VERTEX
  5
4D8
330
296
100
AcDbEntity
  8
0
  6
CONTINUOUS
 62
     7
100
AcDbVertex
100
AcDb2dVertex
 10
9.0035338375
 20
7.179101923
 30
0.0
  0
VERTEX
  5
4D9
330
296
100
AcDbEntity
  8
0
  6
CONTINUOUS
 62
     7
100
AcDbVertex
100
AcDb2dVertex
 10
9.0310618073
 20
7.1798009036
 30
0.0
  0
VERTEX
  5
4DA
330
296
100
AcDbEntity
  8
0
  6
CONTINUOUS
 62
     7
100
AcDbVertex
100
AcDb2dVertex
 10
9.0577854031
 20
7.1782279466
 30
0.0
  0
VERTEX
  5
4DB
330
296
100
AcDbEntity
  8
0
  6
CONTINUOUS
 62
     7
100
AcDbVertex
100
AcDb2dVertex
 10
9.0836157091
 20
7.1743882856
 30
0.0
  0
VERTEX
  5
4DC
330
296
100
AcDbEntity
  8
0
  6
CONTINUOUS
 62
     7
100
AcDbVertex
100
AcDb2dVertex
 10
9.1084667816
 20
7.1682946961
 30
0.0
  0
VERTEX
  5
4DD
330
296
100
AcDbEntity
  8
0
  6
CONTINUOUS
 62
     7
100
AcDbVertex
100
AcDb2dVertex
 10
9.1322559351
 20
7.1599674529
 30
0.0
  0
VERTEX
  5
4DE
330
296
100
AcDbEntity
  8
0
  6
CONTINUOUS
 62
     7
100
AcDbVertex
100
AcDb2dVertex
 10
9.1549040173
 20
7.1494342628
 30
0.0
  0
VERTEX
  5
4DF
330
296
100
AcDbEntity
  8
0
  6
CONTINUOUS
 62
     7
100
AcDbVertex
100
AcDb2dVertex
 10
9.1763356725
 20
7.1367301722
 30
0.0
  0
VERTEX
  5
4E0
330
296
100
AcDbEntity
  8
0
  6
CONTINUOUS
 62
     7
100
AcDbVertex
100
AcDb2dVertex
 10
9.1964795923
 20
7.1218974509
 30
0.0
  0
VERTEX
  5
4E1
330
296
100
AcDbEntity
  8
0
  6
CONTINUOUS
 62
     7
100
AcDbVertex
100
AcDb2dVertex
 10
9.2152687532
 20
7.1049854507
 30
0.0
  0
VERTEX
  5
4E2
330
296
100
AcDbEntity
  8
0
  6
CONTINUOUS
 62
     7
100
AcDbVertex
100
AcDb2dVertex
 10
9.2326406389
 20
7.0860504421
 30
0.0
  0
VERTEX
  5
4E3
330
296
100
AcDbEntity
  8
0
  6
CONTINUOUS
 62
     7
100
AcDbVertex
100
AcDb2dVertex
 10
9.248537449
 20
7.0651554265
 30
0.0
  0
VERTEX
  5
4E4
330
296
100
AcDbEntity
  8
0
  6
CONTINUOUS
 62
     7
100
AcDbVertex
100
AcDb2dVertex
 10
9.262906291
 20
7.0423699265
 30
0.0
  0
VERTEX
  5
4E5
330
296
100
AcDbEntity
  8
0
  6
CONTINUOUS
 62
     7
100
AcDbVertex
100
AcDb2dVertex
 10
9.2756993562
 20
7.0177697552
 30
0.0
  0
VERTEX
  5
4E6
330
296
100
AcDbEntity
  8
0
  6
CONTINUOUS
 62
     7
100
AcDbVertex
100
AcDb2dVertex
 10
9.2868740791
 20
6.9914367632
 30
0.0
  0
VERTEX
  5
4E7
330
296
100
AcDbEntity
  8
0
  6
CONTINUOUS
 62
     7
100
AcDbVertex
100
AcDb2dVertex
 10
9.2963932785
 20
6.9634585668
 30
0.0
  0
VERTEX
  5
4E8
330
296
100
AcDbEntity
  8
0
  6
CONTINUOUS
 62
     7
100
AcDbVertex
100
AcDb2dVertex
 10
9.3042252818
 20
6.9339282562
 30
0.0
  0
VERTEX
  5
4E9
330
296
100
AcDbEntity
  8
0
  6
CONTINUOUS
 62
     7
100
AcDbVertex
100
AcDb2dVertex
 10
9.31034403
 20
6.902944086
 30
0.0
  0
VERTEX
  5
4EA
330
296
100
AcDbEntity
  8
0
  6
CONTINUOUS
 62
     7
100
AcDbVertex
100
AcDb2dVertex
 10
9.3147291646
 20
6.870609148
 30
0.0
  0
VERTEX
  5
4EB
330
296
100
AcDbEntity
  8
0
  6
CONTINUOUS
 62
     7
100
AcDbVertex
100
AcDb2dVertex
 10
9.3173660951
 20
6.8370310284
 30
0.0
  0
VERTEX
  5
4EC
330
296
100
AcDbEntity
  8
0
  6
CONTINUOUS
 62
     7
100
AcDbVertex
100
AcDb2dVertex
 10
9.3182460479
 20
6.8023214498
 30
0.0
  0
SEQEND
  5
4ED
330
296
100
AcDbEntity
  8
0
  6
CONTINUOUS
 62
     7
  0
POLYLINE
  5
297
330
1F
100
AcDbEntity
  8
0
  6
CONTINUOUS
 62
     7
100
AcDb2dPolyline
 66
     1
 10
0.0
 20
0.0
 30
0.0
  0
VERTEX
  5
4EE
330
297
100
AcDbEntity
  8
0
  6
CONTINUOUS
 62
     7
100
AcDbVertex
100
AcDb2dVertex
 10
8.7893938718
 20
5.88622335
 30
0.0
  0
VERTEX
  5
4EF
330
297
100
AcDbEntity
  8
0
  6
CONTINUOUS
 62
     7
100
AcDbVertex
100
AcDb2dVertex
 10
8.7657616273
 20
5.8731862427
 30
0.0
  0
VERTEX
  5
4F0
330
297
100
AcDbEntity
  8
0
  6
CONTINUOUS
 62
     7
100
AcDbVertex
100
AcDb2dVertex
 10
8.7353333793
 20
5.8582032683
 30
0.0
  0
VERTEX
  5
4F1
330
297
100
AcDbEntity
  8
0
  6
CONTINUOUS
 62
     7
100
AcDbVertex
100
AcDb2dVertex
 10
8.7050847176
 20
5.8453456322
 30
0.0
  0
VERTEX
  5
4F2
330
297
100
AcDbEntity
  8
0
  6
CONTINUOUS
 62
     7
100
AcDbVertex
100
AcDb2dVertex
 10
8.6751162869
 20
5.8346561152
 30
0.0
  0
VERTEX
  5
4F3
330
297
100
AcDbEntity
  8
0
  6
CONTINUOUS
 62
     7
100
AcDbVertex
100
AcDb2dVertex
 10
8.6455277995
 20
5.8261702836
 30
0.0
  0
VERTEX
  5
4F4
330
297
100
AcDbEntity
  8
0
  6
CONTINUOUS
 62
     7
100
AcDbVertex
100
AcDb2dVertex
 10
8.6164177033
 20
5.8199163721
 30
0.0
  0
VERTEX
  5
4F5
330
297
100
AcDbEntity
  8
0
  6
CONTINUOUS
 62
     7
100
AcDbVertex
100
AcDb2dVertex
 10
8.5878828548
 20
5.8159151887
 30
0.0
  0
VERTEX
  5
4F6
330
297
100
AcDbEntity
  8
0
  6
CONTINUOUS
 62
     7
100
AcDbVertex
100
AcDb2dVertex
 10
8.5600181963
 20
5.8141800466
 30
0.0
  0
VERTEX
  5
4F7
330
297
100
AcDbEntity
  8
0
  6
CONTINUOUS
 62
     7
100
AcDbVertex
100
AcDb2dVertex
 10
8.5329164403
 20
5.8147167188
 30
0.0
  0
VERTEX
  5
4F8
330
297
100
AcDbEntity
  8
0
  6
CONTINUOUS
 62
     7
100
AcDbVertex
100
AcDb2dVertex
 10
8.506667761
 20
5.8175234198
 30
0.0
  0
VERTEX
  5
4F9
330
297
100
AcDbEntity
  8
0
  6
CONTINUOUS
 62
     7
100
AcDbVertex
100
AcDb2dVertex
 10
8.481359494
 20
5.822590811
 30
0.0
  0
VERTEX
  5
4FA
330
297
100
AcDbEntity
  8
0
  6
CONTINUOUS
 62
     7
100
AcDbVertex
100
AcDb2dVertex
 10
8.4570758461
 20
5.8299020319
 30
0.0
  0
VERTEX
  5
4FB
330
297
100
AcDbEntity
  8
0
  6
CONTINUOUS
 62
     7
100
AcDbVertex
100
AcDb2dVertex
 10
8.4338976148
 20
5.8394327564
 30
0.0
  0
VERTEX
  5
4FC
330
297
100
AcDbEntity
  8
0
  6
CONTINUOUS
 62
     7
100
AcDbVertex
100
AcDb2dVertex
 10
8.4119019199
 20
5.8511512734
 30
0.0
  0
VERTEX
  5
4FD
330
297
100
AcDbEntity
  8
0
  6
CONTINUOUS
 62
     7
100
AcDbVertex
100
AcDb2dVertex
 10
8.3911619463
 20
5.8650185925
 30
0.0
  0
VERTEX
  5
4FE
330
297
100
AcDbEntity
  8
0
  6
CONTINUOUS
 62
     7
100
AcDbVertex
100
AcDb2dVertex
 10
8.3717467009
 20
5.8809885738
 30
0.0
  0
VERTEX
  5
4FF
330
297
100
AcDbEntity
  8
0
  6
CONTINUOUS
 62
     7
100
AcDbVertex
100
AcDb2dVertex
 10
8.3537207829
 20
5.8990080814
 30
0.0
  0
VERTEX
  5
500
330
297
100
AcDbEntity
  8
0
  6
CONTINUOUS
 62
     7
100
AcDbVertex
100
AcDb2dVertex
 10
8.337144169
 20
5.9190171599
 30
0.0
  0
VERTEX
  5
501
330
297
100
AcDbEntity
  8
0
  6
CONTINUOUS
 62
     7
100
AcDbVertex
100
AcDb2dVertex
 10
8.3220720136
 20
5.9409492342
 30
0.0
  0
VERTEX
  5
502
330
297
100
AcDbEntity
  8
0
  6
CONTINUOUS
 62
     7
100
AcDbVertex
100
AcDb2dVertex
 10
8.3085544654
 20
5.9647313311
 30
0.0
  0
VERTEX
  5
503
330
297
100
AcDbEntity
  8
0
  6
CONTINUOUS
 62
     7
100
AcDbVertex
100
AcDb2dVertex
 10
8.2966365006
 20
5.9902843218
 30
0.0
  0
VERTEX
  5
504
330
297
100
AcDbEntity
  8
0
  6
CONTINUOUS
 62
     7
100
AcDbVertex
100
AcDb2dVertex
 10
8.2863577731
 20
6.0175231852
 30
0.0
  0
VERTEX
  5
505
330
297
100
AcDbEntity
  8
0
  6
CONTINUOUS
 62
     7
100
AcDbVertex
100
AcDb2dVertex
 10
8.2777524827
 20
6.046357291
 30
0.0
  0
VERTEX
  5
506
330
297
100
AcDbEntity
  8
0
  6
CONTINUOUS
 62
     7
100
AcDbVertex
100
AcDb2dVertex
 10
8.2708492614
 20
6.0766907012
 30
0.0
  0
VERTEX
  5
507
330
297
100
AcDbEntity
  8
0
  6
CONTINUOUS
 62
     7
100
AcDbVertex
100
AcDb2dVertex
 10
8.2656710778
 20
6.1084224891
 30
0.0
  0
VERTEX
  5
508
330
297
100
AcDbEntity
  8
0
  6
CONTINUOUS
 62
     7
100
AcDbVertex
100
AcDb2dVertex
 10
8.262235161
 20
6.1414470754
 30
0.0
  0
VERTEX
  5
509
330
297
100
AcDbEntity
  8
0
  6
CONTINUOUS
 62
     7
100
AcDbVertex
100
AcDb2dVertex
 10
8.2605529431
 20
6.1756545792
 30
0.0
  0
SEQEND
  5
50A
330
297
100
AcDbEntity
  8
0
  6
CONTINUOUS
 62
     7
  0
LINE
  5
298
330
1F
100
AcDbEntity
  8
0
  6
CONTINUOUS
 62
     7
100
AcDbLine
 10
8.2605529431
 20
6.1756545792
 30
0.0
 11
8.2817698963
 21
6.1756567439
 31
0.0
  0
SPLINE
  5
299
330
1F
100
AcDbEntity
  8
0
  6
CONTINUOUS
 62
     7
100
AcDbSpline
210
0.0
220
0.0
230
1.0
 70
     8
 71
     3
 72
    32
 73
    28
 74
     0
 42
0.00000001
 43
0.00000001
 40
0.0
 40
0.0
 40
0.0
 40
0.0
 40
0.0527592611789371
 40
0.1056998709332705
 40
0.1584920020194042
 40
0.2122033075410572
 40
0.2660906100231553
 40
0.319680828919754
 40
0.3673429947121647
 40
0.4149548955332614
 40
0.4549751180402402
 40
0.4949629196820904
 40
0.535230651114528
 40
0.5754714203676021
 40
0.6107913260302065
 40
0.6461042600080258
 40
0.678930110613792
 40
0.7117572089114238
 40
0.7440926988556151
 40
0.77643521989645
 40
0.809636567840434
 40
0.8428514224098297
 40
0.8785482677378984
 40
0.9142657375955309
 40
0.9548882718496476
 40
0.9955386959426115
 40
1.0
 40
1.0
 40
1.0
 40
1.0
 10
8.270000702099273
 20
6.586038159171518
 30
0.0
 10
8.279295829449902
 20
6.593844380071331
 30
0.0
 10
8.297918034145635
 20
6.609483654070794
 30
0.0
 10
8.32468986737202
 20
6.637017795023561
 30
0.0
 10
8.350754594217747
 20
6.666905694319382
 30
0.0
 10
8.375944710876249
 20
6.699102150630218
 30
0.0
 10
8.399574618253032
 20
6.733400208357518
 30
0.0
 10
8.419986640721035
 20
6.768040240305506
 30
0.0
 10
8.436510267807249
 20
6.80233268433361
 30
0.0
 10
8.447976039235344
 20
6.834017735958858
 30
0.0
 10
8.454617736001245
 20
6.863698665433051
 30
0.0
 10
8.456696884680255
 20
6.89096388526987
 30
0.0
 10
8.453705035206715
 20
6.916744131229325
 30
0.0
 10
8.445804644737034
 20
6.939349097484119
 30
0.0
 10
8.433408447857204
 20
6.95812936189655
 30
0.0
 10
8.418061429142048
 20
6.972771470179031
 30
0.0
 10
8.399755884457916
 20
6.983753678655582
 30
0.0
 10
8.379538905082427
 20
6.99115131507584
 30
0.0
 10
8.357514745104739
 20
6.994928758882027
 30
0.0
 10
8.334264669214711
 20
6.995196275119458
 30
0.0
 10
8.310306592058533
 20
6.991724426949296
 30
0.0
 10
8.285742601065804
 20
6.984537218035563
 30
0.0
 10
8.261503037289954
 20
6.97346456897764
 30
0.0
 10
8.237014520150609
 20
6.958212300748756
 30
0.0
 10
8.214169219556407
 20
6.938517708576646
 30
0.0
 10
8.198145787037749
 20
6.922894647440429
 30
0.0
 10
8.191662525077804
 20
6.913201611244775
 30
0.0
 10
8.191021365803422
 20
6.912243022791591
 30
0.0
  0
LINE
  5
29A
330
1F
100
AcDbEntity
  8
0
  6
CONTINUOUS
 62
     7
100
AcDbLine
 10
8.1216581156
 20
6.6985327574
 30
0.0
 11
8.1222575036
 21
6.6713284922
 31
0.0
  0
SPLINE
  5
29B
330
1F
100
AcDbEntity
  8
0
  6
CONTINUOUS
 62
     7
100
AcDbSpline
210
0.0
220
0.0
230
1.0
 70
     8
 71
     3
 72
    15
 73
    11
 74
     0
 42
0.00000001
 43
0.00000001
 40
0.0
 40
0.0
 40
0.0
 40
0.0
 40
0.0693691567047356
 40
0.1416871087221953
 40
0.2813876282190639
 40
0.395627899166848
 40
0.5129523697618794
 40
0.6860935168619261
 40
0.8640998522559539
 40
0.9999999999999999
 40
0.9999999999999999
 40
0.9999999999999999
 40
0.9999999999999999
 10
8.218951956623089
 20
5.974614277927165
 30
0.0
 10
8.221846942586145
 20
5.972896187750067
 30
0.0
 10
8.227759976712289
 20
5.969386973550544
 30
0.0
 10
8.240698162249862
 20
5.96095442216591
 30
0.0
 10
8.2561360605856
 20
5.950216395491176
 30
0.0
 10
8.273120392048167
 20
5.938033871338976
 30
0.0
 10
8.290917785758543
 20
5.925249664430664
 30
0.0
 10
8.31031263607836
 20
5.911657490770588
 30
0.0
 10
8.329182526677736
 20
5.899091892420755
 30
0.0
 10
8.339779085843503
 20
5.892905059226313
 30
0.0
 10
8.344366674929942
 20
5.890226581430037
 30
0.0
  0
SPLINE
  5
29C
330
1F
100
AcDbEntity
  8
0
  6
CONTINUOUS
 62
     7
100
AcDbSpline
210
0.0
220
0.0
230
1.0
 70
     8
 71
     3
 72
    13
 73
     9
 74
     0
 42
0.00000001
 43
0.00000001
 40
0.0
 40
0.0
 40
0.0
 40
0.0
 40
0.1143813819361974
 40
0.3417273468310228
 40
0.4982713588807737
 40
0.6582360116885552
 40
0.8970972207395292
 40
1.0
 40
1.0
 40
1.0
 40
1.0
 10
8.190402789879426
 20
5.98366757754664
 30
0.0
 10
8.190349194650993
 20
5.984032321683084
 30
0.0
 10
8.19018907282955
 20
5.985122036144559
 30
0.0
 10
8.192233305113586
 20
5.985613809622273
 30
0.0
 10
8.196117488281597
 20
5.985107657330157
 30
0.0
 10
8.202107437625527
 20
5.98322313006591
 30
0.0
 10
8.209984057303611
 20
5.979669570294563
 30
0.0
 10
8.216876645780452
 20
5.975784150902877
 30
0.0
 10
8.218951956623089
 20
5.974614277927165
 30
0.0
  0
POLYLINE
  5
29D
330
1F
100
AcDbEntity
  8
0
  6
CONTINUOUS
 62
     7
100
AcDb2dPolyline
 66
     1
 10
0.0
 20
0.0
 30
0.0
  0
VERTEX
  5
50B
330
29D
100
AcDbEntity
  8
0
  6
CONTINUOUS
 62
     7
100
AcDbVertex
100
AcDb2dVertex
 10
7.9659251176
 20
6.3457396025
 30
0.0
  0
VERTEX
  5
50C
330
29D
100
AcDbEntity
  8
0
  6
CONTINUOUS
 62
     7
100
AcDbVertex
100
AcDb2dVertex
 10
7.9676344206
 20
6.3111776526
 30
0.0
  0
VERTEX
  5
50D
330
29D
100
AcDbEntity
  8
0
  6
CONTINUOUS
 62
     7
100
AcDbVertex
100
AcDb2dVertex
 10
7.971134483
 20
6.277824885
 30
0.0
  0
VERTEX
  5
50E
330
29D
100
AcDbEntity
  8
0
  6
CONTINUOUS
 62
     7
100
AcDbVertex
100
AcDb2dVertex
 10
7.9764134125
 20
6.2457946233
 30
0.0
  0
VERTEX
  5
50F
330
29D
100
AcDbEntity
  8
0
  6
CONTINUOUS
 62
     7
100
AcDbVertex
100
AcDb2dVertex
 10
7.9834532727
 20
6.2151956979
 30
0.0
  0
VERTEX
  5
510
330
29D
100
AcDbEntity
  8
0
  6
CONTINUOUS
 62
     7
100
AcDbVertex
100
AcDb2dVertex
 10
7.9922301441
 20
6.1861320755
 30
0.0
  0
VERTEX
  5
511
330
29D
100
AcDbEntity
  8
0
  6
CONTINUOUS
 62
     7
100
AcDbVertex
100
AcDb2dVertex
 10
8.0027142053
 20
6.1587025066
 30
0.0
  0
VERTEX
  5
512
330
29D
100
AcDbEntity
  8
0
  6
CONTINUOUS
 62
     7
100
AcDbVertex
100
AcDb2dVertex
 10
8.0148698341
 20
6.1330001895
 30
0.0
  0
VERTEX
  5
513
330
29D
100
AcDbEntity
  8
0
  6
CONTINUOUS
 62
     7
100
AcDbVertex
100
AcDb2dVertex
 10
8.0286557292
 20
6.1091124537
 30
0.0
  0
VERTEX
  5
514
330
29D
100
AcDbEntity
  8
0
  6
CONTINUOUS
 62
     7
100
AcDbVertex
100
AcDb2dVertex
 10
8.0440250496
 20
6.0871204634
 30
0.0
  0
VERTEX
  5
515
330
29D
100
AcDbEntity
  8
0
  6
CONTINUOUS
 62
     7
100
AcDbVertex
100
AcDb2dVertex
 10
8.0609255745
 20
6.0670989413
 30
0.0
  0
VERTEX
  5
516
330
29D
100
AcDbEntity
  8
0
  6
CONTINUOUS
 62
     7
100
AcDbVertex
100
AcDb2dVertex
 10
8.0792998807
 20
6.0491159153
 30
0.0
  0
VERTEX
  5
517
330
29D
100
AcDbEntity
  8
0
  6
CONTINUOUS
 62
     7
100
AcDbVertex
100
AcDb2dVertex
 10
8.099085537
 20
6.0332324869
 30
0.0
  0
VERTEX
  5
518
330
29D
100
AcDbEntity
  8
0
  6
CONTINUOUS
 62
     7
100
AcDbVertex
100
AcDb2dVertex
 10
8.1202153171
 20
6.0195026236
 30
0.0
  0
VERTEX
  5
519
330
29D
100
AcDbEntity
  8
0
  6
CONTINUOUS
 62
     7
100
AcDbVertex
100
AcDb2dVertex
 10
8.1206947262
 20
6.0192251563
 30
0.0
  0
SEQEND
  5
51A
330
29D
100
AcDbEntity
  8
0
  6
CONTINUOUS
 62
     7
  0
LINE
  5
29E
330
1F
100
AcDbEntity
  8
0
  6
CONTINUOUS
 62
     7
100
AcDbLine
 10
8.2605529431
 20
6.1756545792
 30
0.0
 11
7.9659251176
 21
6.3457396025
 31
0.0
  0
LINE
  5
29F
330
1F
100
AcDbEntity
  8
0
  6
CONTINUOUS
 62
     7
100
AcDbLine
 10
8.2605529431
 20
6.2078018553
 30
0.0
 11
7.9659251176
 21
6.3778868786
 31
0.0
  0
POLYLINE
  5
2A0
330
1F
100
AcDbEntity
  8
0
  6
CONTINUOUS
 62
     7
100
AcDb2dPolyline
 66
     1
 10
0.0
 20
0.0
 30
0.0
  0
VERTEX
  5
51B
330
2A0
100
AcDbEntity
  8
0
  6
CONTINUOUS
 62
     7
100
AcDbVertex
100
AcDb2dVertex
 10
8.7730685755
 20
7.3471223797
 30
0.0
  0
VERTEX
  5
51C
330
2A0
100
AcDbEntity
  8
0
  6
CONTINUOUS
 62
     7
100
AcDbVertex
100
AcDb2dVertex
 10
8.7463907912
 20
7.3495700141
 30
0.0
  0
VERTEX
  5
51D
330
2A0
100
AcDbEntity
  8
0
  6
CONTINUOUS
 62
     7
100
AcDbVertex
100
AcDb2dVertex
 10
8.7188577616
 20
7.3496986528
 30
0.0
  0
VERTEX
  5
51E
330
2A0
100
AcDbEntity
  8
0
  6
CONTINUOUS
 62
     7
100
AcDbVertex
100
AcDb2dVertex
 10
8.6905630366
 20
7.3475078588
 30
0.0
  0
VERTEX
  5
51F
330
2A0
100
AcDbEntity
  8
0
  6
CONTINUOUS
 62
     7
100
AcDbVertex
100
AcDb2dVertex
 10
8.6616027539
 20
7.3430050756
 30
0.0
  0
VERTEX
  5
520
330
2A0
100
AcDbEntity
  8
0
  6
CONTINUOUS
 62
     7
100
AcDbVertex
100
AcDb2dVertex
 10
8.6320753129
 20
7.3362056027
 30
0.0
  0
VERTEX
  5
521
330
2A0
100
AcDbEntity
  8
0
  6
CONTINUOUS
 62
     7
100
AcDbVertex
100
AcDb2dVertex
 10
8.6020810399
 20
7.3271325428
 30
0.0
  0
VERTEX
  5
522
330
2A0
100
AcDbEntity
  8
0
  6
CONTINUOUS
 62
     7
100
AcDbVertex
100
AcDb2dVertex
 10
8.5717218473
 20
7.3158167236
 30
0.0
  0
VERTEX
  5
523
330
2A0
100
AcDbEntity
  8
0
  6
CONTINUOUS
 62
     7
100
AcDbVertex
100
AcDb2dVertex
 10
8.5411008874
 20
7.3022965933
 30
0.0
  0
VERTEX
  5
524
330
2A0
100
AcDbEntity
  8
0
  6
CONTINUOUS
 62
     7
100
AcDbVertex
100
AcDb2dVertex
 10
8.5103222022
 20
7.2866180897
 30
0.0
  0
VERTEX
  5
525
330
2A0
100
AcDbEntity
  8
0
  6
CONTINUOUS
 62
     7
100
AcDbVertex
100
AcDb2dVertex
 10
8.4794903692
 20
7.2688344841
 30
0.0
  0
VERTEX
  5
526
330
2A0
100
AcDbEntity
  8
0
  6
CONTINUOUS
 62
     7
100
AcDbVertex
100
AcDb2dVertex
 10
8.4487101468
 20
7.2490062004
 30
0.0
  0
VERTEX
  5
527
330
2A0
100
AcDbEntity
  8
0
  6
CONTINUOUS
 62
     7
100
AcDbVertex
100
AcDb2dVertex
 10
8.4180861178
 20
7.2272006098
 30
0.0
  0
VERTEX
  5
528
330
2A0
100
AcDbEntity
  8
0
  6
CONTINUOUS
 62
     7
100
AcDbVertex
100
AcDb2dVertex
 10
8.3877223345
 20
7.2034918018
 30
0.0
  0
VERTEX
  5
529
330
2A0
100
AcDbEntity
  8
0
  6
CONTINUOUS
 62
     7
100
AcDbVertex
100
AcDb2dVertex
 10
8.3577219648
 20
7.1779603326
 30
0.0
  0
VERTEX
  5
52A
330
2A0
100
AcDbEntity
  8
0
  6
CONTINUOUS
 62
     7
100
AcDbVertex
100
AcDb2dVertex
 10
8.328186942
 20
7.1506929512
 30
0.0
  0
VERTEX
  5
52B
330
2A0
100
AcDbEntity
  8
0
  6
CONTINUOUS
 62
     7
100
AcDbVertex
100
AcDb2dVertex
 10
8.2992176181
 20
7.1217823049
 30
0.0
  0
VERTEX
  5
52C
330
2A0
100
AcDbEntity
  8
0
  6
CONTINUOUS
 62
     7
100
AcDbVertex
100
AcDb2dVertex
 10
8.2709124231
 20
7.0913266242
 30
0.0
  0
VERTEX
  5
52D
330
2A0
100
AcDbEntity
  8
0
  6
CONTINUOUS
 62
     7
100
AcDbVertex
100
AcDb2dVertex
 10
8.2433675303
 20
7.0594293894
 30
0.0
  0
VERTEX
  5
52E
330
2A0
100
AcDbEntity
  8
0
  6
CONTINUOUS
 62
     7
100
AcDbVertex
100
AcDb2dVertex
 10
8.21667653
 20
7.0261989788
 30
0.0
  0
VERTEX
  5
52F
330
2A0
100
AcDbEntity
  8
0
  6
CONTINUOUS
 62
     7
100
AcDbVertex
100
AcDb2dVertex
 10
8.190930111
 20
6.9917483002
 30
0.0
  0
VERTEX
  5
530
330
2A0
100
AcDbEntity
  8
0
  6
CONTINUOUS
 62
     7
100
AcDbVertex
100
AcDb2dVertex
 10
8.1662157527
 20
6.9561944078
 30
0.0
  0
VERTEX
  5
531
330
2A0
100
AcDbEntity
  8
0
  6
CONTINUOUS
 62
     7
100
AcDbVertex
100
AcDb2dVertex
 10
8.1426174278
 20
6.9196581043
 30
0.0
  0
VERTEX
  5
532
330
2A0
100
AcDbEntity
  8
0
  6
CONTINUOUS
 62
     7
100
AcDbVertex
100
AcDb2dVertex
 10
8.1202153171
 20
6.8822635301
 30
0.0
  0
VERTEX
  5
533
330
2A0
100
AcDbEntity
  8
0
  6
CONTINUOUS
 62
     7
100
AcDbVertex
100
AcDb2dVertex
 10
8.099085537
 20
6.8441377419
 30
0.0
  0
VERTEX
  5
534
330
2A0
100
AcDbEntity
  8
0
  6
CONTINUOUS
 62
     7
100
AcDbVertex
100
AcDb2dVertex
 10
8.0792998807
 20
6.8054102809
 30
0.0
  0
VERTEX
  5
535
330
2A0
100
AcDbEntity
  8
0
  6
CONTINUOUS
 62
     7
100
AcDbVertex
100
AcDb2dVertex
 10
8.0609255745
 20
6.7662127326
 30
0.0
  0
VERTEX
  5
536
330
2A0
100
AcDbEntity
  8
0
  6
CONTINUOUS
 62
     7
100
AcDbVertex
100
AcDb2dVertex
 10
8.0440250496
 20
6.7266782798
 30
0.0
  0
VERTEX
  5
537
330
2A0
100
AcDbEntity
  8
0
  6
CONTINUOUS
 62
     7
100
AcDbVertex
100
AcDb2dVertex
 10
8.0286557292
 20
6.6869412498
 30
0.0
  0
VERTEX
  5
538
330
2A0
100
AcDbEntity
  8
0
  6
CONTINUOUS
 62
     7
100
AcDbVertex
100
AcDb2dVertex
 10
8.0148698341
 20
6.6471366584
 30
0.0
  0
VERTEX
  5
539
330
2A0
100
AcDbEntity
  8
0
  6
CONTINUOUS
 62
     7
100
AcDbVertex
100
AcDb2dVertex
 10
8.0027142053
 20
6.607399751
 30
0.0
  0
VERTEX
  5
53A
330
2A0
100
AcDbEntity
  8
0
  6
CONTINUOUS
 62
     7
100
AcDbVertex
100
AcDb2dVertex
 10
7.9922301441
 20
6.5678655428
 30
0.0
  0
VERTEX
  5
53B
330
2A0
100
AcDbEntity
  8
0
  6
CONTINUOUS
 62
     7
100
AcDbVertex
100
AcDb2dVertex
 10
7.9834532727
 20
6.5286683604
 30
0.0
  0
VERTEX
  5
53C
330
2A0
100
AcDbEntity
  8
0
  6
CONTINUOUS
 62
     7
100
AcDbVertex
100
AcDb2dVertex
 10
7.9764134125
 20
6.4899413853
 30
0.0
  0
VERTEX
  5
53D
330
2A0
100
AcDbEntity
  8
0
  6
CONTINUOUS
 62
     7
100
AcDbVertex
100
AcDb2dVertex
 10
7.971134483
 20
6.4518162013
 30
0.0
  0
VERTEX
  5
53E
330
2A0
100
AcDbEntity
  8
0
  6
CONTINUOUS
 62
     7
100
AcDbVertex
100
AcDb2dVertex
 10
7.9676344206
 20
6.4144223477
 30
0.0
  0
VERTEX
  5
53F
330
2A0
100
AcDbEntity
  8
0
  6
CONTINUOUS
 62
     7
100
AcDbVertex
100
AcDb2dVertex
 10
7.9659251176
 20
6.3778868786
 30
0.0
  0
SEQEND
  5
540
330
2A0
100
AcDbEntity
  8
0
  6
CONTINUOUS
 62
     7
  0
LINE
  5
2A1
330
1F
100
AcDbEntity
  8
0
  6
CONTINUOUS
 62
     7
100
AcDbLine
 10
8.7359501093
 20
7.3685504141
 30
0.0
 11
8.7730685755
 21
7.3471223797
 31
0.0
  0
POLYLINE
  5
2A2
330
1F
100
AcDbEntity
  8
0
  6
CONTINUOUS
 62
     7
100
AcDb2dPolyline
 66
     1
 10
0.0
 20
0.0
 30
0.0
  0
VERTEX
  5
541
330
2A2
100
AcDbEntity
  8
0
  6
CONTINUOUS
 62
     7
100
AcDbVertex
100
AcDb2dVertex
 10
8.1025961333
 20
6.0307371122
 30
0.0
  0
VERTEX
  5
542
330
2A2
100
AcDbEntity
  8
0
  6
CONTINUOUS
 62
     7
100
AcDbVertex
100
AcDb2dVertex
 10
8.0905965248
 20
6.0367498275
 30
0.0
  0
VERTEX
  5
543
330
2A2
100
AcDbEntity
  8
0
  6
CONTINUOUS
 62
     7
100
AcDbVertex
100
AcDb2dVertex
 10
8.0693349564
 20
6.0495258375
 30
0.0
  0
VERTEX
  5
544
330
2A2
100
AcDbEntity
  8
0
  6
CONTINUOUS
 62
     7
100
AcDbVertex
100
AcDb2dVertex
 10
8.0493536655
 20
6.0644089803
 30
0.0
  0
VERTEX
  5
545
330
2A2
100
AcDbEntity
  8
0
  6
CONTINUOUS
 62
     7
100
AcDbVertex
100
AcDb2dVertex
 10
8.0307185458
 20
6.081350175
 30
0.0
  0
VERTEX
  5
546
330
2A2
100
AcDbEntity
  8
0
  6
CONTINUOUS
 62
     7
100
AcDbVertex
100
AcDb2dVertex
 10
8.0134910513
 20
6.1002935536
 30
0.0
  0
VERTEX
  5
547
330
2A2
100
AcDbEntity
  8
0
  6
CONTINUOUS
 62
     7
100
AcDbVertex
100
AcDb2dVertex
 10
7.9977279941
 20
6.1211766454
 30
0.0
  0
VERTEX
  5
548
330
2A2
100
AcDbEntity
  8
0
  6
CONTINUOUS
 62
     7
100
AcDbVertex
100
AcDb2dVertex
 10
7.9834813571
 20
6.143930583
 30
0.0
  0
VERTEX
  5
549
330
2A2
100
AcDbEntity
  8
0
  6
CONTINUOUS
 62
     7
100
AcDbVertex
100
AcDb2dVertex
 10
7.970798122
 20
6.1684803295
 30
0.0
  0
VERTEX
  5
54A
330
2A2
100
AcDbEntity
  8
0
  6
CONTINUOUS
 62
     7
100
AcDbVertex
100
AcDb2dVertex
 10
7.9597201153
 20
6.1947449257
 30
0.0
  0
VERTEX
  5
54B
330
2A2
100
AcDbEntity
  8
0
  6
CONTINUOUS
 62
     7
100
AcDbVertex
100
AcDb2dVertex
 10
7.9502838694
 20
6.2226377573
 30
0.0
  0
VERTEX
  5
54C
330
2A2
100
AcDbEntity
  8
0
  6
CONTINUOUS
 62
     7
100
AcDbVertex
100
AcDb2dVertex
 10
7.9425205028
 20
6.2520668405
 30
0.0
  0
VERTEX
  5
54D
330
2A2
100
AcDbEntity
  8
0
  6
CONTINUOUS
 62
     7
100
AcDbVertex
100
AcDb2dVertex
 10
7.9364556173
 20
6.2829351254
 30
0.0
  0
VERTEX
  5
54E
330
2A2
100
AcDbEntity
  8
0
  6
CONTINUOUS
 62
     7
100
AcDbVertex
100
AcDb2dVertex
 10
7.9321092134
 20
6.3151408157
 30
0.0
  0
VERTEX
  5
54F
330
2A2
100
AcDbEntity
  8
0
  6
CONTINUOUS
 62
     7
100
AcDbVertex
100
AcDb2dVertex
 10
7.9294956244
 20
6.3485777049
 30
0.0
  0
VERTEX
  5
550
330
2A2
100
AcDbEntity
  8
0
  6
CONTINUOUS
 62
     7
100
AcDbVertex
100
AcDb2dVertex
 10
7.9286234694
 20
6.3831355262
 30
0.0
  0
VERTEX
  5
551
330
2A2
100
AcDbEntity
  8
0
  6
CONTINUOUS
 62
     7
100
AcDbVertex
100
AcDb2dVertex
 10
7.9294956244
 20
6.4187003164
 30
0.0
  0
VERTEX
  5
552
330
2A2
100
AcDbEntity
  8
0
  6
CONTINUOUS
 62
     7
100
AcDbVertex
100
AcDb2dVertex
 10
7.9321092134
 20
6.4551547912
 30
0.0
  0
VERTEX
  5
553
330
2A2
100
AcDbEntity
  8
0
  6
CONTINUOUS
 62
     7
100
AcDbVertex
100
AcDb2dVertex
 10
7.9364556173
 20
6.4923787327
 30
0.0
  0
VERTEX
  5
554
330
2A2
100
AcDbEntity
  8
0
  6
CONTINUOUS
 62
     7
100
AcDbVertex
100
AcDb2dVertex
 10
7.9425205028
 20
6.5302493853
 30
0.0
  0
VERTEX
  5
555
330
2A2
100
AcDbEntity
  8
0
  6
CONTINUOUS
 62
     7
100
AcDbVertex
100
AcDb2dVertex
 10
7.9502838694
 20
6.5686418607
 30
0.0
  0
VERTEX
  5
556
330
2A2
100
AcDbEntity
  8
0
  6
CONTINUOUS
 62
     7
100
AcDbVertex
100
AcDb2dVertex
 10
7.9597201153
 20
6.6074295499
 30
0.0
  0
VERTEX
  5
557
330
2A2
100
AcDbEntity
  8
0
  6
CONTINUOUS
 62
     7
100
AcDbVertex
100
AcDb2dVertex
 10
7.970798122
 20
6.6464845405
 30
0.0
  0
VERTEX
  5
558
330
2A2
100
AcDbEntity
  8
0
  6
CONTINUOUS
 62
     7
100
AcDbVertex
100
AcDb2dVertex
 10
7.9834813571
 20
6.6856780384
 30
0.0
  0
VERTEX
  5
559
330
2A2
100
AcDbEntity
  8
0
  6
CONTINUOUS
 62
     7
100
AcDbVertex
100
AcDb2dVertex
 10
7.9977279941
 20
6.7248807931
 30
0.0
  0
VERTEX
  5
55A
330
2A2
100
AcDbEntity
  8
0
  6
CONTINUOUS
 62
     7
100
AcDbVertex
100
AcDb2dVertex
 10
8.0134910513
 20
6.7639635233
 30
0.0
  0
VERTEX
  5
55B
330
2A2
100
AcDbEntity
  8
0
  6
CONTINUOUS
 62
     7
100
AcDbVertex
100
AcDb2dVertex
 10
8.0307185458
 20
6.8027973437
 30
0.0
  0
VERTEX
  5
55C
330
2A2
100
AcDbEntity
  8
0
  6
CONTINUOUS
 62
     7
100
AcDbVertex
100
AcDb2dVertex
 10
8.0493536655
 20
6.8412541896
 30
0.0
  0
VERTEX
  5
55D
330
2A2
100
AcDbEntity
  8
0
  6
CONTINUOUS
 62
     7
100
AcDbVertex
100
AcDb2dVertex
 10
8.0693349564
 20
6.8792072397
 30
0.0
  0
VERTEX
  5
55E
330
2A2
100
AcDbEntity
  8
0
  6
CONTINUOUS
 62
     7
100
AcDbVertex
100
AcDb2dVertex
 10
8.0905965248
 20
6.9165313341
 30
0.0
  0
VERTEX
  5
55F
330
2A2
100
AcDbEntity
  8
0
  6
CONTINUOUS
 62
     7
100
AcDbVertex
100
AcDb2dVertex
 10
8.1130682554
 20
6.9531033869
 30
0.0
  0
VERTEX
  5
560
330
2A2
100
AcDbEntity
  8
0
  6
CONTINUOUS
 62
     7
100
AcDbVertex
100
AcDb2dVertex
 10
8.1366760418
 20
6.9888027922
 30
0.0
  0
VERTEX
  5
561
330
2A2
100
AcDbEntity
  8
0
  6
CONTINUOUS
 62
     7
100
AcDbVertex
100
AcDb2dVertex
 10
8.1613420312
 20
7.0235118222
 30
0.0
  0
VERTEX
  5
562
330
2A2
100
AcDbEntity
  8
0
  6
CONTINUOUS
 62
     7
100
AcDbVertex
100
AcDb2dVertex
 10
8.1869848811
 20
7.0571160148
 30
0.0
  0
VERTEX
  5
563
330
2A2
100
AcDbEntity
  8
0
  6
CONTINUOUS
 62
     7
100
AcDbVertex
100
AcDb2dVertex
 10
8.2135200277
 20
7.0895045515
 30
0.0
  0
VERTEX
  5
564
330
2A2
100
AcDbEntity
  8
0
  6
CONTINUOUS
 62
     7
100
AcDbVertex
100
AcDb2dVertex
 10
8.2408599644
 20
7.1205706227
 30
0.0
  0
VERTEX
  5
565
330
2A2
100
AcDbEntity
  8
0
  6
CONTINUOUS
 62
     7
100
AcDbVertex
100
AcDb2dVertex
 10
8.2689145307
 20
7.1502117801
 30
0.0
  0
VERTEX
  5
566
330
2A2
100
AcDbEntity
  8
0
  6
CONTINUOUS
 62
     7
100
AcDbVertex
100
AcDb2dVertex
 10
8.2975912095
 20
7.1783302742
 30
0.0
  0
VERTEX
  5
567
330
2A2
100
AcDbEntity
  8
0
  6
CONTINUOUS
 62
     7
100
AcDbVertex
100
AcDb2dVertex
 10
8.3267954321
 20
7.2048333772
 30
0.0
  0
VERTEX
  5
568
330
2A2
100
AcDbEntity
  8
0
  6
CONTINUOUS
 62
     7
100
AcDbVertex
100
AcDb2dVertex
 10
8.3564308898
 20
7.2296336881
 30
0.0
  0
VERTEX
  5
569
330
2A2
100
AcDbEntity
  8
0
  6
CONTINUOUS
 62
     7
100
AcDbVertex
100
AcDb2dVertex
 10
8.3863998523
 20
7.2526494216
 30
0.0
  0
VERTEX
  5
56A
330
2A2
100
AcDbEntity
  8
0
  6
CONTINUOUS
 62
     7
100
AcDbVertex
100
AcDb2dVertex
 10
8.416603489
 20
7.2738046772
 30
0.0
  0
VERTEX
  5
56B
330
2A2
100
AcDbEntity
  8
0
  6
CONTINUOUS
 62
     7
100
AcDbVertex
100
AcDb2dVertex
 10
8.4469421957
 20
7.2930296902
 30
0.0
  0
VERTEX
  5
56C
330
2A2
100
AcDbEntity
  8
0
  6
CONTINUOUS
 62
     7
100
AcDbVertex
100
AcDb2dVertex
 10
8.4773159226
 20
7.310261061
 30
0.0
  0
VERTEX
  5
56D
330
2A2
100
AcDbEntity
  8
0
  6
CONTINUOUS
 62
     7
100
AcDbVertex
100
AcDb2dVertex
 10
8.5076245047
 20
7.3254419648
 30
0.0
  0
VERTEX
  5
56E
330
2A2
100
AcDbEntity
  8
0
  6
CONTINUOUS
 62
     7
100
AcDbVertex
100
AcDb2dVertex
 10
8.5377679914
 20
7.3385223386
 30
0.0
  0
VERTEX
  5
56F
330
2A2
100
AcDbEntity
  8
0
  6
CONTINUOUS
 62
     7
100
AcDbVertex
100
AcDb2dVertex
 10
8.5676469768
 20
7.3494590465
 30
0.0
  0
VERTEX
  5
570
330
2A2
100
AcDbEntity
  8
0
  6
CONTINUOUS
 62
     7
100
AcDbVertex
100
AcDb2dVertex
 10
8.5971629274
 20
7.3582160218
 30
0.0
  0
VERTEX
  5
571
330
2A2
100
AcDbEntity
  8
0
  6
CONTINUOUS
 62
     7
100
AcDbVertex
100
AcDb2dVertex
 10
8.6262185066
 20
7.3647643863
 30
0.0
  0
VERTEX
  5
572
330
2A2
100
AcDbEntity
  8
0
  6
CONTINUOUS
 62
     7
100
AcDbVertex
100
AcDb2dVertex
 10
8.6547178961
 20
7.3690825449
 30
0.0
  0
VERTEX
  5
573
330
2A2
100
AcDbEntity
  8
0
  6
CONTINUOUS
 62
     7
100
AcDbVertex
100
AcDb2dVertex
 10
8.6825671119
 20
7.3711562575
 30
0.0
  0
VERTEX
  5
574
330
2A2
100
AcDbEntity
  8
0
  6
CONTINUOUS
 62
     7
100
AcDbVertex
100
AcDb2dVertex
 10
8.709674314
 20
7.3709786853
 30
0.0
  0
VERTEX
  5
575
330
2A2
100
AcDbEntity
  8
0
  6
CONTINUOUS
 62
     7
100
AcDbVertex
100
AcDb2dVertex
 10
8.7359501093
 20
7.3685504141
 30
0.0
  0
SEQEND
  5
576
330
2A2
100
AcDbEntity
  8
0
  6
CONTINUOUS
 62
     7
  0
LINE
  5
2A3
330
1F
100
AcDbEntity
  8
0
  6
CONTINUOUS
 62
     7
100
AcDbLine
 10
9.300020881
 20
6.7956278012
 30
0.0
 11
9.300020881
 21
6.7634805252
 31
0.0
  0
LINE
  5
2A4
330
1F
100
AcDbEntity
  8
0
  6
CONTINUOUS
 62
     7
100
AcDbLine
 10
9.300020881
 20
6.7956278012
 30
0.0
 11
9.004921052
 21
6.6252702961
 31
0.0
  0
POLYLINE
  5
2A5
330
1F
100
AcDbEntity
  8
0
  6
CONTINUOUS
 62
     7
100
AcDb2dPolyline
 66
     1
 10
0.0
 20
0.0
 30
0.0
  0
VERTEX
  5
577
330
2A5
100
AcDbEntity
  8
0
  6
CONTINUOUS
 62
     7
100
AcDbVertex
100
AcDb2dVertex
 10
8.5949079604
 20
6.3885747765
 30
0.0
  0
VERTEX
  5
578
330
2A5
100
AcDbEntity
  8
0
  6
CONTINUOUS
 62
     7
100
AcDbVertex
100
AcDb2dVertex
 10
8.5971174501
 20
6.4119849716
 30
0.0
  0
VERTEX
  5
579
330
2A5
100
AcDbEntity
  8
0
  6
CONTINUOUS
 62
     7
100
AcDbVertex
100
AcDb2dVertex
 10
8.601115164
 20
6.436090573
 30
0.0
  0
VERTEX
  5
57A
330
2A5
100
AcDbEntity
  8
0
  6
CONTINUOUS
 62
     7
100
AcDbVertex
100
AcDb2dVertex
 10
8.6068658509
 20
6.4606790225
 30
0.0
  0
VERTEX
  5
57B
330
2A5
100
AcDbEntity
  8
0
  6
CONTINUOUS
 62
     7
100
AcDbVertex
100
AcDb2dVertex
 10
8.6143188024
 20
6.4855335039
 30
0.0
  0
VERTEX
  5
57C
330
2A5
100
AcDbEntity
  8
0
  6
CONTINUOUS
 62
     7
100
AcDbVertex
100
AcDb2dVertex
 10
8.6234082999
 20
6.5104348554
 30
0.0
  0
VERTEX
  5
57D
330
2A5
100
AcDbEntity
  8
0
  6
CONTINUOUS
 62
     7
100
AcDbVertex
100
AcDb2dVertex
 10
8.634054194
 20
6.5351635018
 30
0.0
  0
VERTEX
  5
57E
330
2A5
100
AcDbEntity
  8
0
  6
CONTINUOUS
 62
     7
100
AcDbVertex
100
AcDb2dVertex
 10
8.6461626113
 20
6.5595013909
 30
0.0
  0
VERTEX
  5
57F
330
2A5
100
AcDbEntity
  8
0
  6
CONTINUOUS
 62
     7
100
AcDbVertex
100
AcDb2dVertex
 10
8.6596267822
 20
6.5832339159
 30
0.0
  0
VERTEX
  5
580
330
2A5
100
AcDbEntity
  8
0
  6
CONTINUOUS
 62
     7
100
AcDbVertex
100
AcDb2dVertex
 10
8.6743279824
 20
6.6061518083
 30
0.0
  0
VERTEX
  5
581
330
2A5
100
AcDbEntity
  8
0
  6
CONTINUOUS
 62
     7
100
AcDbVertex
100
AcDb2dVertex
 10
8.6901365795
 20
6.6280529825
 30
0.0
  0
VERTEX
  5
582
330
2A5
100
AcDbEntity
  8
0
  6
CONTINUOUS
 62
     7
100
AcDbVertex
100
AcDb2dVertex
 10
8.7069131766
 20
6.6487443185
 30
0.0
  0
VERTEX
  5
583
330
2A5
100
AcDbEntity
  8
0
  6
CONTINUOUS
 62
     7
100
AcDbVertex
100
AcDb2dVertex
 10
8.7245098408
 20
6.668043364
 30
0.0
  0
VERTEX
  5
584
330
2A5
100
AcDbEntity
  8
0
  6
CONTINUOUS
 62
     7
100
AcDbVertex
100
AcDb2dVertex
 10
8.7427714084
 20
6.685779944
 30
0.0
  0
VERTEX
  5
585
330
2A5
100
AcDbEntity
  8
0
  6
CONTINUOUS
 62
     7
100
AcDbVertex
100
AcDb2dVertex
 10
8.7615368525
 20
6.7017976609
 30
0.0
  0
VERTEX
  5
586
330
2A5
100
AcDbEntity
  8
0
  6
CONTINUOUS
 62
     7
100
AcDbVertex
100
AcDb2dVertex
 10
8.7806407031
 20
6.7159552735
 30
0.0
  0
VERTEX
  5
587
330
2A5
100
AcDbEntity
  8
0
  6
CONTINUOUS
 62
     7
100
AcDbVertex
100
AcDb2dVertex
 10
8.7999145062
 20
6.7281279429
 30
0.0
  0
VERTEX
  5
588
330
2A5
100
AcDbEntity
  8
0
  6
CONTINUOUS
 62
     7
100
AcDbVertex
100
AcDb2dVertex
 10
8.8191883093
 20
6.7382083329
 30
0.0
  0
VERTEX
  5
589
330
2A5
100
AcDbEntity
  8
0
  6
CONTINUOUS
 62
     7
100
AcDbVertex
100
AcDb2dVertex
 10
8.8382921599
 20
6.7461075567
 30
0.0
  0
VERTEX
  5
58A
330
2A5
100
AcDbEntity
  8
0
  6
CONTINUOUS
 62
     7
100
AcDbVertex
100
AcDb2dVertex
 10
8.857057604
 20
6.7517559604
 30
0.0
  0
VERTEX
  5
58B
330
2A5
100
AcDbEntity
  8
0
  6
CONTINUOUS
 62
     7
100
AcDbVertex
100
AcDb2dVertex
 10
8.8753191716
 20
6.7551037375
 30
0.0
  0
VERTEX
  5
58C
330
2A5
100
AcDbEntity
  8
0
  6
CONTINUOUS
 62
     7
100
AcDbVertex
100
AcDb2dVertex
 10
8.8929158358
 20
6.7561213681
 30
0.0
  0
VERTEX
  5
58D
330
2A5
100
AcDbEntity
  8
0
  6
CONTINUOUS
 62
     7
100
AcDbVertex
100
AcDb2dVertex
 10
8.9096924329
 20
6.7547998788
 30
0.0
  0
VERTEX
  5
58E
330
2A5
100
AcDbEntity
  8
0
  6
CONTINUOUS
 62
     7
100
AcDbVertex
100
AcDb2dVertex
 10
8.92550103
 20
6.7511509223
 30
0.0
  0
VERTEX
  5
58F
330
2A5
100
AcDbEntity
  8
0
  6
CONTINUOUS
 62
     7
100
AcDbVertex
100
AcDb2dVertex
 10
8.9402022302
 20
6.7452066743
 30
0.0
  0
VERTEX
  5
590
330
2A5
100
AcDbEntity
  8
0
  6
CONTINUOUS
 62
     7
100
AcDbVertex
100
AcDb2dVertex
 10
8.9536664011
 20
6.7370195502
 30
0.0
  0
VERTEX
  5
591
330
2A5
100
AcDbEntity
  8
0
  6
CONTINUOUS
 62
     7
100
AcDbVertex
100
AcDb2dVertex
 10
8.9657748184
 20
6.7266617421
 30
0.0
  0
VERTEX
  5
592
330
2A5
100
AcDbEntity
  8
0
  6
CONTINUOUS
 62
     7
100
AcDbVertex
100
AcDb2dVertex
 10
8.9764207125
 20
6.7142245834
 30
0.0
  0
VERTEX
  5
593
330
2A5
100
AcDbEntity
  8
0
  6
CONTINUOUS
 62
     7
100
AcDbVertex
100
AcDb2dVertex
 10
8.98551021
 20
6.6998177423
 30
0.0
  0
VERTEX
  5
594
330
2A5
100
AcDbEntity
  8
0
  6
CONTINUOUS
 62
     7
100
AcDbVertex
100
AcDb2dVertex
 10
8.9929631615
 20
6.6835682556
 30
0.0
  0
VERTEX
  5
595
330
2A5
100
AcDbEntity
  8
0
  6
CONTINUOUS
 62
     7
100
AcDbVertex
100
AcDb2dVertex
 10
8.9987138484
 20
6.6656194079
 30
0.0
  0
VERTEX
  5
596
330
2A5
100
AcDbEntity
  8
0
  6
CONTINUOUS
 62
     7
100
AcDbVertex
100
AcDb2dVertex
 10
9.0027115622
 20
6.6461294686
 30
0.0
  0
VERTEX
  5
597
330
2A5
100
AcDbEntity
  8
0
  6
CONTINUOUS
 62
     7
100
AcDbVertex
100
AcDb2dVertex
 10
9.004921052
 20
6.6252702961
 30
0.0
  0
SEQEND
  5
598
330
2A5
100
AcDbEntity
  8
0
  6
CONTINUOUS
 62
     7
  0
LINE
  5
2A6
330
1F
100
AcDbEntity
  8
0
  6
CONTINUOUS
 62
     7
100
AcDbLine
 10
8.2817698963
 20
6.20780402
 30
0.0
 11
8.5949079604
 21
6.3885747765
 31
0.0
  0
LINE
  5
2A7
330
1F
100
AcDbEntity
  8
0
  6
CONTINUOUS
 62
     7
100
AcDbLine
 10
8.2817698963
 20
6.1756567439
 30
0.0
 11
8.5949079604
 21
6.3564275005
 31
0.0
  0
POLYLINE
  5
2A8
330
1F
100
AcDbEntity
  8
0
  6
CONTINUOUS
 62
     7
100
AcDb2dPolyline
 66
     1
 10
0.0
 20
0.0
 30
0.0
  0
VERTEX
  5
599
330
2A8
100
AcDbEntity
  8
0
  6
CONTINUOUS
 62
     7
100
AcDbVertex
100
AcDb2dVertex
 10
9.004921052
 20
6.5931230201
 30
0.0
  0
VERTEX
  5
59A
330
2A8
100
AcDbEntity
  8
0
  6
CONTINUOUS
 62
     7
100
AcDbVertex
100
AcDb2dVertex
 10
9.0027115622
 20
6.5697128251
 30
0.0
  0
VERTEX
  5
59B
330
2A8
100
AcDbEntity
  8
0
  6
CONTINUOUS
 62
     7
100
AcDbVertex
100
AcDb2dVertex
 10
8.9987138484
 20
6.5456072236
 30
0.0
  0
VERTEX
  5
59C
330
2A8
100
AcDbEntity
  8
0
  6
CONTINUOUS
 62
     7
100
AcDbVertex
100
AcDb2dVertex
 10
8.9929631615
 20
6.5210187742
 30
0.0
  0
VERTEX
  5
59D
330
2A8
100
AcDbEntity
  8
0
  6
CONTINUOUS
 62
     7
100
AcDbVertex
100
AcDb2dVertex
 10
8.98551021
 20
6.4961642928
 30
0.0
  0
VERTEX
  5
59E
330
2A8
100
AcDbEntity
  8
0
  6
CONTINUOUS
 62
     7
100
AcDbVertex
100
AcDb2dVertex
 10
8.9764207125
 20
6.4712629413
 30
0.0
  0
VERTEX
  5
59F
330
2A8
100
AcDbEntity
  8
0
  6
CONTINUOUS
 62
     7
100
AcDbVertex
100
AcDb2dVertex
 10
8.9657748184
 20
6.4465342948
 30
0.0
  0
VERTEX
  5
5A0
330
2A8
100
AcDbEntity
  8
0
  6
CONTINUOUS
 62
     7
100
AcDbVertex
100
AcDb2dVertex
 10
8.9536664011
 20
6.4221964058
 30
0.0
  0
VERTEX
  5
5A1
330
2A8
100
AcDbEntity
  8
0
  6
CONTINUOUS
 62
     7
100
AcDbVertex
100
AcDb2dVertex
 10
8.9402022302
 20
6.3984638807
 30
0.0
  0
VERTEX
  5
5A2
330
2A8
100
AcDbEntity
  8
0
  6
CONTINUOUS
 62
     7
100
AcDbVertex
100
AcDb2dVertex
 10
8.92550103
 20
6.3755459883
 30
0.0
  0
VERTEX
  5
5A3
330
2A8
100
AcDbEntity
  8
0
  6
CONTINUOUS
 62
     7
100
AcDbVertex
100
AcDb2dVertex
 10
8.9096924329
 20
6.3536448141
 30
0.0
  0
VERTEX
  5
5A4
330
2A8
100
AcDbEntity
  8
0
  6
CONTINUOUS
 62
     7
100
AcDbVertex
100
AcDb2dVertex
 10
8.8929158358
 20
6.3329534782
 30
0.0
  0
VERTEX
  5
5A5
330
2A8
100
AcDbEntity
  8
0
  6
CONTINUOUS
 62
     7
100
AcDbVertex
100
AcDb2dVertex
 10
8.8753191716
 20
6.3136544326
 30
0.0
  0
VERTEX
  5
5A6
330
2A8
100
AcDbEntity
  8
0
  6
CONTINUOUS
 62
     7
100
AcDbVertex
100
AcDb2dVertex
 10
8.857057604
 20
6.2959178526
 30
0.0
  0
VERTEX
  5
5A7
330
2A8
100
AcDbEntity
  8
0
  6
CONTINUOUS
 62
     7
100
AcDbVertex
100
AcDb2dVertex
 10
8.8382921599
 20
6.2799001358
 30
0.0
  0
VERTEX
  5
5A8
330
2A8
100
AcDbEntity
  8
0
  6
CONTINUOUS
 62
     7
100
AcDbVertex
100
AcDb2dVertex
 10
8.8191883093
 20
6.2657425231
 30
0.0
  0
VERTEX
  5
5A9
330
2A8
100
AcDbEntity
  8
0
  6
CONTINUOUS
 62
     7
100
AcDbVertex
100
AcDb2dVertex
 10
8.7999145062
 20
6.2535698537
 30
0.0
  0
VERTEX
  5
5AA
330
2A8
100
AcDbEntity
  8
0
  6
CONTINUOUS
 62
     7
100
AcDbVertex
100
AcDb2dVertex
 10
8.7806407031
 20
6.2434894637
 30
0.0
  0
VERTEX
  5
5AB
330
2A8
100
AcDbEntity
  8
0
  6
CONTINUOUS
 62
     7
100
AcDbVertex
100
AcDb2dVertex
 10
8.7615368525
 20
6.23559024
 30
0.0
  0
VERTEX
  5
5AC
330
2A8
100
AcDbEntity
  8
0
  6
CONTINUOUS
 62
     7
100
AcDbVertex
100
AcDb2dVertex
 10
8.7427714084
 20
6.2299418363
 30
0.0
  0
VERTEX
  5
5AD
330
2A8
100
AcDbEntity
  8
0
  6
CONTINUOUS
 62
     7
100
AcDbVertex
100
AcDb2dVertex
 10
8.7245098408
 20
6.2265940591
 30
0.0
  0
VERTEX
  5
5AE
330
2A8
100
AcDbEntity
  8
0
  6
CONTINUOUS
 62
     7
100
AcDbVertex
100
AcDb2dVertex
 10
8.7069131766
 20
6.2255764285
 30
0.0
  0
VERTEX
  5
5AF
330
2A8
100
AcDbEntity
  8
0
  6
CONTINUOUS
 62
     7
100
AcDbVertex
100
AcDb2dVertex
 10
8.6901365795
 20
6.2268979178
 30
0.0
  0
VERTEX
  5
5B0
330
2A8
100
AcDbEntity
  8
0
  6
CONTINUOUS
 62
     7
100
AcDbVertex
100
AcDb2dVertex
 10
8.6743279824
 20
6.2305468743
 30
0.0
  0
VERTEX
  5
5B1
330
2A8
100
AcDbEntity
  8
0
  6
CONTINUOUS
 62
     7
100
AcDbVertex
100
AcDb2dVertex
 10
8.6596267822
 20
6.2364911223
 30
0.0
  0
VERTEX
  5
5B2
330
2A8
100
AcDbEntity
  8
0
  6
CONTINUOUS
 62
     7
100
AcDbVertex
100
AcDb2dVertex
 10
8.6461626113
 20
6.2446782465
 30
0.0
  0
VERTEX
  5
5B3
330
2A8
100
AcDbEntity
  8
0
  6
CONTINUOUS
 62
     7
100
AcDbVertex
100
AcDb2dVertex
 10
8.634054194
 20
6.2550360545
 30
0.0
  0
VERTEX
  5
5B4
330
2A8
100
AcDbEntity
  8
0
  6
CONTINUOUS
 62
     7
100
AcDbVertex
100
AcDb2dVertex
 10
8.6234082999
 20
6.2674732132
 30
0.0
  0
VERTEX
  5
5B5
330
2A8
100
AcDbEntity
  8
0
  6
CONTINUOUS
 62
     7
100
AcDbVertex
100
AcDb2dVertex
 10
8.6143188024
 20
6.2818800543
 30
0.0
  0
VERTEX
  5
5B6
330
2A8
100
AcDbEntity
  8
0
  6
CONTINUOUS
 62
     7
100
AcDbVertex
100
AcDb2dVertex
 10
8.6068658509
 20
6.2981295411
 30
0.0
  0
VERTEX
  5
5B7
330
2A8
100
AcDbEntity
  8
0
  6
CONTINUOUS
 62
     7
100
AcDbVertex
100
AcDb2dVertex
 10
8.601115164
 20
6.3160783888
 30
0.0
  0
VERTEX
  5
5B8
330
2A8
100
AcDbEntity
  8
0
  6
CONTINUOUS
 62
     7
100
AcDbVertex
100
AcDb2dVertex
 10
8.5971174501
 20
6.335568328
 30
0.0
  0
VERTEX
  5
5B9
330
2A8
100
AcDbEntity
  8
0
  6
CONTINUOUS
 62
     7
100
AcDbVertex
100
AcDb2dVertex
 10
8.5949079604
 20
6.3564275005
 30
0.0
  0
SEQEND
  5
5BA
330
2A8
100
AcDbEntity
  8
0
  6
CONTINUOUS
 62
     7
  0
LINE
  5
2A9
330
1F
100
AcDbEntity
  8
0
  6
CONTINUOUS
 62
     7
100
AcDbLine
 10
9.004921052
 20
6.5931230201
 30
0.0
 11
9.300020881
 21
6.7634805252
 31
0.0
  0
LINE
  5
2AA
330
1F
100
AcDbEntity
  8
0
  6
CONTINUOUS
 62
     7
100
AcDbLine
 10
8.7359501093
 20
7.3498933589
 30
0.0
 11
8.7359501093
 21
7.3685504141
 31
0.0
  0
LINE
  5
2AB
330
1F
100
AcDbEntity
  8
0
  6
CONTINUOUS
 62
     7
100
AcDbLine
 10
8.5949079604
 20
6.3564275005
 30
0.0
 11
8.5949337149
 21
6.36868849
 31
0.0
  0
LINE
  5
2AC
330
1F
100
AcDbEntity
  8
0
  6
CONTINUOUS
 62
     7
100
AcDbLine
 10
8.577696942
 20
6.3786390671
 30
0.0
 11
8.5949337149
 21
6.36868849
 31
0.0
  0
LINE
  5
2AD
330
1F
100
AcDbEntity
  8
0
  6
CONTINUOUS
 62
     7
100
AcDbLine
 10
7.9937684922
 20
6.3618132406
 30
0.0
 11
7.9659251176
 21
6.3457396025
 31
0.0
  0
LINE
  5
2AE
330
1F
100
AcDbEntity
  8
0
  6
CONTINUOUS
 62
     7
100
AcDbLine
 10
8.983682094
 20
6.6252554284
 30
0.0
 11
9.004921052
 21
6.6252702961
 31
0.0
  0
ARC
  5
2AF
330
1F
100
AcDbEntity
  8
0
  6
CONTINUOUS
 62
     7
100
AcDbCircle
 10
8.8661970249
 20
6.6316291229
 30
0.0
 40
0.1176578320328366
100
AcDbArc
 50
356.8946849187
 51
127.5387148696
  0
LINE
  5
2B0
330
1F
100
AcDbEntity
  8
0
  6
CONTINUOUS
 62
     7
100
AcDbLine
 10
8.983682094
 20
6.6252554284
 30
0.0
 11
8.8031957378
 21
6.729447984
 31
0.0
  0
POLYLINE
  5
2B1
330
1F
100
AcDbEntity
  8
0
  6
CONTINUOUS
 62
     7
100
AcDb2dPolyline
 66
     1
 10
0.0
 20
0.0
 30
0.0
  0
VERTEX
  5
5BB
330
2B1
100
AcDbEntity
  8
0
  6
CONTINUOUS
 62
     7
100
AcDbVertex
100
AcDb2dVertex
 10
8.5949337149
 20
6.36868849
 30
0.0
  0
VERTEX
  5
5BC
330
2B1
100
AcDbEntity
  8
0
  6
CONTINUOUS
 62
     7
100
AcDbVertex
100
AcDb2dVertex
 10
8.5971866661
 20
6.3483865466
 30
0.0
  0
VERTEX
  5
5BD
330
2B1
100
AcDbEntity
  8
0
  6
CONTINUOUS
 62
     7
100
AcDbVertex
100
AcDb2dVertex
 10
8.601235816
 20
6.3294737726
 30
0.0
  0
VERTEX
  5
5BE
330
2B1
100
AcDbEntity
  8
0
  6
CONTINUOUS
 62
     7
100
AcDbVertex
100
AcDb2dVertex
 10
8.607043308
 20
6.3121269891
 30
0.0
  0
VERTEX
  5
5BF
330
2B1
100
AcDbEntity
  8
0
  6
CONTINUOUS
 62
     7
100
AcDbVertex
100
AcDb2dVertex
 10
8.614554846
 20
6.2965083764
 30
0.0
  0
VERTEX
  5
5C0
330
2B1
100
AcDbEntity
  8
0
  6
CONTINUOUS
 62
     7
100
AcDbVertex
100
AcDb2dVertex
 10
8.6237002025
 20
6.2827639576
 30
0.0
  0
VERTEX
  5
5C1
330
2B1
100
AcDbEntity
  8
0
  6
CONTINUOUS
 62
     7
100
AcDbVertex
100
AcDb2dVertex
 10
8.6343938749
 20
6.2710222332
 30
0.0
  0
VERTEX
  5
5C2
330
2B1
100
AcDbEntity
  8
0
  6
CONTINUOUS
 62
     7
100
AcDbVertex
100
AcDb2dVertex
 10
8.6465358847
 20
6.2613929802
 30
0.0
  0
VERTEX
  5
5C3
330
2B1
100
AcDbEntity
  8
0
  6
CONTINUOUS
 62
     7
100
AcDbVertex
100
AcDb2dVertex
 10
8.6600127127
 20
6.2539662254
 30
0.0
  0
VERTEX
  5
5C4
330
2B1
100
AcDbEntity
  8
0
  6
CONTINUOUS
 62
     7
100
AcDbVertex
100
AcDb2dVertex
 10
8.67469836
 20
6.2488114036
 30
0.0
  0
VERTEX
  5
5C5
330
2B1
100
AcDbEntity
  8
0
  6
CONTINUOUS
 62
     7
100
AcDbVertex
100
AcDb2dVertex
 10
8.6904555262
 20
6.2459767089
 30
0.0
  0
VERTEX
  5
5C6
330
2B1
100
AcDbEntity
  8
0
  6
CONTINUOUS
 62
     7
100
AcDbVertex
100
AcDb2dVertex
 10
8.7071368927
 20
6.2454886437
 30
0.0
  0
VERTEX
  5
5C7
330
2B1
100
AcDbEntity
  8
0
  6
CONTINUOUS
 62
     7
100
AcDbVertex
100
AcDb2dVertex
 10
8.7245865005
 20
6.2473517711
 30
0.0
  0
VERTEX
  5
5C8
330
2B1
100
AcDbEntity
  8
0
  6
CONTINUOUS
 62
     7
100
AcDbVertex
100
AcDb2dVertex
 10
8.742641208
 20
6.251548672
 30
0.0
  0
VERTEX
  5
5C9
330
2B1
100
AcDbEntity
  8
0
  6
CONTINUOUS
 62
     7
100
AcDbVertex
100
AcDb2dVertex
 10
8.7611322164
 20
6.2580401084
 30
0.0
  0
VERTEX
  5
5CA
330
2B1
100
AcDbEntity
  8
0
  6
CONTINUOUS
 62
     7
100
AcDbVertex
100
AcDb2dVertex
 10
8.7798866477
 20
6.26676539
 30
0.0
  0
VERTEX
  5
5CB
330
2B1
100
AcDbEntity
  8
0
  6
CONTINUOUS
 62
     7
100
AcDbVertex
100
AcDb2dVertex
 10
8.7987291612
 20
6.2776429415
 30
0.0
  0
VERTEX
  5
5CC
330
2B1
100
AcDbEntity
  8
0
  6
CONTINUOUS
 62
     7
100
AcDbVertex
100
AcDb2dVertex
 10
8.8174835925
 20
6.2905710654
 30
0.0
  0
VERTEX
  5
5CD
330
2B1
100
AcDbEntity
  8
0
  6
CONTINUOUS
 62
     7
100
AcDbVertex
100
AcDb2dVertex
 10
8.8359746009
 20
6.3054288928
 30
0.0
  0
VERTEX
  5
5CE
330
2B1
100
AcDbEntity
  8
0
  6
CONTINUOUS
 62
     7
100
AcDbVertex
100
AcDb2dVertex
 10
8.8540293084
 20
6.3220775135
 30
0.0
  0
VERTEX
  5
5CF
330
2B1
100
AcDbEntity
  8
0
  6
CONTINUOUS
 62
     7
100
AcDbVertex
100
AcDb2dVertex
 10
8.8714789163
 20
6.3403612745
 30
0.0
  0
VERTEX
  5
5D0
330
2B1
100
AcDbEntity
  8
0
  6
CONTINUOUS
 62
     7
100
AcDbVertex
100
AcDb2dVertex
 10
8.8881602828
 20
6.3601092356
 30
0.0
  0
VERTEX
  5
5D1
330
2B1
100
AcDbEntity
  8
0
  6
CONTINUOUS
 62
     7
100
AcDbVertex
100
AcDb2dVertex
 10
8.9039174489
 20
6.381136767
 30
0.0
  0
VERTEX
  5
5D2
330
2B1
100
AcDbEntity
  8
0
  6
CONTINUOUS
 62
     7
100
AcDbVertex
100
AcDb2dVertex
 10
8.9186030963
 20
6.4032472763
 30
0.0
  0
VERTEX
  5
5D3
330
2B1
100
AcDbEntity
  8
0
  6
CONTINUOUS
 62
     7
100
AcDbVertex
100
AcDb2dVertex
 10
8.9320799243
 20
6.4262340455
 30
0.0
  0
VERTEX
  5
5D4
330
2B1
100
AcDbEntity
  8
0
  6
CONTINUOUS
 62
     7
100
AcDbVertex
100
AcDb2dVertex
 10
8.9442219341
 20
6.4498821646
 30
0.0
  0
VERTEX
  5
5D5
330
2B1
100
AcDbEntity
  8
0
  6
CONTINUOUS
 62
     7
100
AcDbVertex
100
AcDb2dVertex
 10
8.9549156064
 20
6.4739705403
 30
0.0
  0
VERTEX
  5
5D6
330
2B1
100
AcDbEntity
  8
0
  6
CONTINUOUS
 62
     7
100
AcDbVertex
100
AcDb2dVertex
 10
8.9640609629
 20
6.498273963
 30
0.0
  0
VERTEX
  5
5D7
330
2B1
100
AcDbEntity
  8
0
  6
CONTINUOUS
 62
     7
100
AcDbVertex
100
AcDb2dVertex
 10
8.971572501
 20
6.522565213
 30
0.0
  0
VERTEX
  5
5D8
330
2B1
100
AcDbEntity
  8
0
  6
CONTINUOUS
 62
     7
100
AcDbVertex
100
AcDb2dVertex
 10
8.977379993
 20
6.546617184
 30
0.0
  0
VERTEX
  5
5D9
330
2B1
100
AcDbEntity
  8
0
  6
CONTINUOUS
 62
     7
100
AcDbVertex
100
AcDb2dVertex
 10
8.9814291429
 20
6.5702050069
 30
0.0
  0
VERTEX
  5
5DA
330
2B1
100
AcDbEntity
  8
0
  6
CONTINUOUS
 62
     7
100
AcDbVertex
100
AcDb2dVertex
 10
8.983682094
 20
6.5931081523
 30
0.0
  0
SEQEND
  5
5DB
330
2B1
100
AcDbEntity
  8
0
  6
CONTINUOUS
 62
     7
  0
LINE
  5
2B2
330
1F
100
AcDbEntity
  8
0
  6
CONTINUOUS
 62
     7
100
AcDbLine
 10
8.983682094
 20
6.5931081523
 30
0.0
 11
9.004921052
 21
6.5931230201
 31
0.0
  0
LINE
  5
2B3
330
1F
100
AcDbEntity
  8
0
  6
CONTINUOUS
 62
     7
100
AcDbLine
 10
8.983682094
 20
6.5931081523
 30
0.0
 11
8.7762253818
 21
6.7128703631
 31
0.0
  0
POLYLINE
  5
2B4
330
1F
100
AcDbEntity
  8
0
  6
CONTINUOUS
 62
     7
100
AcDb2dPolyline
 66
     1
 10
0.0
 20
0.0
 30
0.0
  0
VERTEX
  5
5DC
330
2B4
100
AcDbEntity
  8
0
  6
CONTINUOUS
 62
     7
100
AcDbVertex
100
AcDb2dVertex
 10
9.300020881
 20
6.7634805252
 30
0.0
  0
VERTEX
  5
5DD
330
2B4
100
AcDbEntity
  8
0
  6
CONTINUOUS
 62
     7
100
AcDbVertex
100
AcDb2dVertex
 10
9.275131528
 20
6.7767624614
 30
0.0
  0
VERTEX
  5
5DE
330
2B4
100
AcDbEntity
  8
0
  6
CONTINUOUS
 62
     7
100
AcDbVertex
100
AcDb2dVertex
 10
9.2709049222
 20
6.778819516
 30
0.0
  0
SEQEND
  5
5DF
330
2B4
100
AcDbEntity
  8
0
  6
CONTINUOUS
 62
     7
  0
POLYLINE
  5
2B5
330
1F
100
AcDbEntity
  8
0
  6
CONTINUOUS
 62
     7
100
AcDb2dPolyline
 66
     1
 10
0.0
 20
0.0
 30
0.0
  0
VERTEX
  5
5E0
330
2B5
100
AcDbEntity
  8
0
  6
CONTINUOUS
 62
     7
100
AcDbVertex
100
AcDb2dVertex
 10
8.1841533946
 20
6.7825062768
 30
0.0
  0
VERTEX
  5
5E1
330
2B5
100
AcDbEntity
  8
0
  6
CONTINUOUS
 62
     7
100
AcDbVertex
100
AcDb2dVertex
 10
8.1986728855
 20
6.7751555269
 30
0.0
  0
VERTEX
  5
5E2
330
2B5
100
AcDbEntity
  8
0
  6
CONTINUOUS
 62
     7
100
AcDbVertex
100
AcDb2dVertex
 10
8.2147301831
 20
6.7689617244
 30
0.0
  0
VERTEX
  5
5E3
330
2B5
100
AcDbEntity
  8
0
  6
CONTINUOUS
 62
     7
100
AcDbVertex
100
AcDb2dVertex
 10
8.2320505425
 20
6.7640308468
 30
0.0
  0
VERTEX
  5
5E4
330
2B5
100
AcDbEntity
  8
0
  6
CONTINUOUS
 62
     7
100
AcDbVertex
100
AcDb2dVertex
 10
8.2503376076
 20
6.7604472628
 30
0.0
  0
VERTEX
  5
5E5
330
2B5
100
AcDbEntity
  8
0
  6
CONTINUOUS
 62
     7
100
AcDbVertex
100
AcDb2dVertex
 10
8.2692784815
 20
6.7582722886
 30
0.0
  0
VERTEX
  5
5E6
330
2B5
100
AcDbEntity
  8
0
  6
CONTINUOUS
 62
     7
100
AcDbVertex
100
AcDb2dVertex
 10
8.2885490808
 20
6.7575431385
 30
0.0
  0
VERTEX
  5
5E7
330
2B5
100
AcDbEntity
  8
0
  6
CONTINUOUS
 62
     7
100
AcDbVertex
100
AcDb2dVertex
 10
8.30781968
 20
6.7582722886
 30
0.0
  0
VERTEX
  5
5E8
330
2B5
100
AcDbEntity
  8
0
  6
CONTINUOUS
 62
     7
100
AcDbVertex
100
AcDb2dVertex
 10
8.3267605539
 20
6.7604472628
 30
0.0
  0
VERTEX
  5
5E9
330
2B5
100
AcDbEntity
  8
0
  6
CONTINUOUS
 62
     7
100
AcDbVertex
100
AcDb2dVertex
 10
8.345047619
 20
6.7640308468
 30
0.0
  0
VERTEX
  5
5EA
330
2B5
100
AcDbEntity
  8
0
  6
CONTINUOUS
 62
     7
100
AcDbVertex
100
AcDb2dVertex
 10
8.3623679784
 20
6.7689617244
 30
0.0
  0
VERTEX
  5
5EB
330
2B5
100
AcDbEntity
  8
0
  6
CONTINUOUS
 62
     7
100
AcDbVertex
100
AcDb2dVertex
 10
8.378425276
 20
6.7751555269
 30
0.0
  0
VERTEX
  5
5EC
330
2B5
100
AcDbEntity
  8
0
  6
CONTINUOUS
 62
     7
100
AcDbVertex
100
AcDb2dVertex
 10
8.392944767
 20
6.7825062768
 30
0.0
  0
VERTEX
  5
5ED
330
2B5
100
AcDbEntity
  8
0
  6
CONTINUOUS
 62
     7
100
AcDbVertex
100
AcDb2dVertex
 10
8.4056780188
 20
6.7908882005
 30
0.0
  0
VERTEX
  5
5EE
330
2B5
100
AcDbEntity
  8
0
  6
CONTINUOUS
 62
     7
100
AcDbVertex
100
AcDb2dVertex
 10
8.416407162
 20
6.8001578811
 30
0.0
  0
VERTEX
  5
5EF
330
2B5
100
AcDbEntity
  8
0
  6
CONTINUOUS
 62
     7
100
AcDbVertex
100
AcDb2dVertex
 10
8.424948618
 20
6.8101567117
 30
0.0
  0
VERTEX
  5
5F0
330
2B5
100
AcDbEntity
  8
0
  6
CONTINUOUS
 62
     7
100
AcDbVertex
100
AcDb2dVertex
 10
8.4311562401
 20
6.8207136097
 30
0.0
  0
VERTEX
  5
5F1
330
2B5
100
AcDbEntity
  8
0
  6
CONTINUOUS
 62
     7
100
AcDbVertex
100
AcDb2dVertex
 10
8.4349238142
 20
6.8316479434
 30
0.0
  0
VERTEX
  5
5F2
330
2B5
100
AcDbEntity
  8
0
  6
CONTINUOUS
 62
     7
100
AcDbVertex
100
AcDb2dVertex
 10
8.436186876
 20
6.8427726236
 30
0.0
  0
VERTEX
  5
5F3
330
2B5
100
AcDbEntity
  8
0
  6
CONTINUOUS
 62
     7
100
AcDbVertex
100
AcDb2dVertex
 10
8.4349238142
 20
6.8538973037
 30
0.0
  0
VERTEX
  5
5F4
330
2B5
100
AcDbEntity
  8
0
  6
CONTINUOUS
 62
     7
100
AcDbVertex
100
AcDb2dVertex
 10
8.4311562401
 20
6.8648316375
 30
0.0
  0
VERTEX
  5
5F5
330
2B5
100
AcDbEntity
  8
0
  6
CONTINUOUS
 62
     7
100
AcDbVertex
100
AcDb2dVertex
 10
8.424948618
 20
6.8753885355
 30
0.0
  0
VERTEX
  5
5F6
330
2B5
100
AcDbEntity
  8
0
  6
CONTINUOUS
 62
     7
100
AcDbVertex
100
AcDb2dVertex
 10
8.416407162
 20
6.8853873661
 30
0.0
  0
VERTEX
  5
5F7
330
2B5
100
AcDbEntity
  8
0
  6
CONTINUOUS
 62
     7
100
AcDbVertex
100
AcDb2dVertex
 10
8.4056780188
 20
6.8946570467
 30
0.0
  0
VERTEX
  5
5F8
330
2B5
100
AcDbEntity
  8
0
  6
CONTINUOUS
 62
     7
100
AcDbVertex
100
AcDb2dVertex
 10
8.392944767
 20
6.9030389704
 30
0.0
  0
VERTEX
  5
5F9
330
2B5
100
AcDbEntity
  8
0
  6
CONTINUOUS
 62
     7
100
AcDbVertex
100
AcDb2dVertex
 10
8.378425276
 20
6.9103897203
 30
0.0
  0
VERTEX
  5
5FA
330
2B5
100
AcDbEntity
  8
0
  6
CONTINUOUS
 62
     7
100
AcDbVertex
100
AcDb2dVertex
 10
8.3623679784
 20
6.9165835228
 30
0.0
  0
VERTEX
  5
5FB
330
2B5
100
AcDbEntity
  8
0
  6
CONTINUOUS
 62
     7
100
AcDbVertex
100
AcDb2dVertex
 10
8.345047619
 20
6.9215144004
 30
0.0
  0
VERTEX
  5
5FC
330
2B5
100
AcDbEntity
  8
0
  6
CONTINUOUS
 62
     7
100
AcDbVertex
100
AcDb2dVertex
 10
8.3267605539
 20
6.9250979844
 30
0.0
  0
VERTEX
  5
5FD
330
2B5
100
AcDbEntity
  8
0
  6
CONTINUOUS
 62
     7
100
AcDbVertex
100
AcDb2dVertex
 10
8.30781968
 20
6.9272729586
 30
0.0
  0
VERTEX
  5
5FE
330
2B5
100
AcDbEntity
  8
0
  6
CONTINUOUS
 62
     7
100
AcDbVertex
100
AcDb2dVertex
 10
8.2885490808
 20
6.9280021086
 30
0.0
  0
VERTEX
  5
5FF
330
2B5
100
AcDbEntity
  8
0
  6
CONTINUOUS
 62
     7
100
AcDbVertex
100
AcDb2dVertex
 10
8.2692784815
 20
6.9272729586
 30
0.0
  0
VERTEX
  5
600
330
2B5
100
AcDbEntity
  8
0
  6
CONTINUOUS
 62
     7
100
AcDbVertex
100
AcDb2dVertex
 10
8.2503376076
 20
6.9250979844
 30
0.0
  0
VERTEX
  5
601
330
2B5
100
AcDbEntity
  8
0
  6
CONTINUOUS
 62
     7
100
AcDbVertex
100
AcDb2dVertex
 10
8.2320505425
 20
6.9215144004
 30
0.0
  0
VERTEX
  5
602
330
2B5
100
AcDbEntity
  8
0
  6
CONTINUOUS
 62
     7
100
AcDbVertex
100
AcDb2dVertex
 10
8.2147301831
 20
6.9165835228
 30
0.0
  0
VERTEX
  5
603
330
2B5
100
AcDbEntity
  8
0
  6
CONTINUOUS
 62
     7
100
AcDbVertex
100
AcDb2dVertex
 10
8.1986728855
 20
6.9103897203
 30
0.0
  0
VERTEX
  5
604
330
2B5
100
AcDbEntity
  8
0
  6
CONTINUOUS
 62
     7
100
AcDbVertex
100
AcDb2dVertex
 10
8.1841533946
 20
6.9030389704
 30
0.0
  0
VERTEX
  5
605
330
2B5
100
AcDbEntity
  8
0
  6
CONTINUOUS
 62
     7
100
AcDbVertex
100
AcDb2dVertex
 10
8.1714201427
 20
6.8946570467
 30
0.0
  0
VERTEX
  5
606
330
2B5
100
AcDbEntity
  8
0
  6
CONTINUOUS
 62
     7
100
AcDbVertex
100
AcDb2dVertex
 10
8.1606909995
 20
6.8853873661
 30
0.0
  0
VERTEX
  5
607
330
2B5
100
AcDbEntity
  8
0
  6
CONTINUOUS
 62
     7
100
AcDbVertex
100
AcDb2dVertex
 10
8.1521495435
 20
6.8753885355
 30
0.0
  0
VERTEX
  5
608
330
2B5
100
AcDbEntity
  8
0
  6
CONTINUOUS
 62
     7
100
AcDbVertex
100
AcDb2dVertex
 10
8.1459419214
 20
6.8648316375
 30
0.0
  0
VERTEX
  5
609
330
2B5
100
AcDbEntity
  8
0
  6
CONTINUOUS
 62
     7
100
AcDbVertex
100
AcDb2dVertex
 10
8.1421743473
 20
6.8538973037
 30
0.0
  0
VERTEX
  5
60A
330
2B5
100
AcDbEntity
  8
0
  6
CONTINUOUS
 62
     7
100
AcDbVertex
100
AcDb2dVertex
 10
8.1409112855
 20
6.8427726236
 30
0.0
  0
VERTEX
  5
60B
330
2B5
100
AcDbEntity
  8
0
  6
CONTINUOUS
 62
     7
100
AcDbVertex
100
AcDb2dVertex
 10
8.1421743473
 20
6.8316479434
 30
0.0
  0
VERTEX
  5
60C
330
2B5
100
AcDbEntity
  8
0
  6
CONTINUOUS
 62
     7
100
AcDbVertex
100
AcDb2dVertex
 10
8.1459419214
 20
6.8207136097
 30
0.0
  0
VERTEX
  5
60D
330
2B5
100
AcDbEntity
  8
0
  6
CONTINUOUS
 62
     7
100
AcDbVertex
100
AcDb2dVertex
 10
8.1521495435
 20
6.8101567117
 30
0.0
  0
VERTEX
  5
60E
330
2B5
100
AcDbEntity
  8
0
  6
CONTINUOUS
 62
     7
100
AcDbVertex
100
AcDb2dVertex
 10
8.1606909995
 20
6.8001578811
 30
0.0
  0
VERTEX
  5
60F
330
2B5
100
AcDbEntity
  8
0
  6
CONTINUOUS
 62
     7
100
AcDbVertex
100
AcDb2dVertex
 10
8.1714201427
 20
6.7908882005
 30
0.0
  0
VERTEX
  5
610
330
2B5
100
AcDbEntity
  8
0
  6
CONTINUOUS
 62
     7
100
AcDbVertex
100
AcDb2dVertex
 10
8.1841533946
 20
6.7825062768
 30
0.0
  0
SEQEND
  5
611
330
2B5
100
AcDbEntity
  8
0
  6
CONTINUOUS
 62
     7
  0
LINE
  5
2B6
330
1F
100
AcDbEntity
  8
0
  6
CONTINUOUS
 62
     7
100
AcDbLine
 10
8.1212328828
 20
6.8258386753
 30
0.0
 11
8.1212262461
 21
6.8266989856
 31
0.0
  0
ARC
  5
2B7
330
1F
100
AcDbEntity
  8
0
  6
CONTINUOUS
 62
     7
100
AcDbCircle
 10
8.281117897
 20
6.8196211555
 30
0.0
 40
0.2338474036503694
100
AcDbArc
 50
241.6945372058
 51
267.2751096722
  0
ARC
  5
2B8
330
1F
100
AcDbEntity
  8
0
  6
CONTINUOUS
 62
     7
100
AcDbCircle
 10
8.2060653571
 20
6.6911768611
 30
0.0
 40
0.0853300981792995
100
AcDbArc
 50
186.1493615955
 51
245.1707793621
  0
LINE
  5
2B9
330
1F
100
AcDbEntity
  8
0
  6
CONTINUOUS
 62
     7
100
AcDbLine
 10
8.3120812454
 20
6.7920733498
 30
0.0
 11
8.3763723147
 21
6.8291877941
 31
0.0
  0
LINE
  5
2BA
330
1F
100
AcDbEntity
  8
0
  6
CONTINUOUS
 62
     7
100
AcDbLine
 10
8.3763723147
 20
6.8291877941
 30
0.0
 11
8.3528401501
 21
6.8798870679
 31
0.0
  0
LINE
  5
2BB
330
1F
100
AcDbEntity
  8
0
  6
CONTINUOUS
 62
     7
100
AcDbLine
 10
8.3528401501
 20
6.8798870679
 30
0.0
 11
8.2650169161
 21
6.8934718974
 31
0.0
  0
LINE
  5
2BC
330
1F
100
AcDbEntity
  8
0
  6
CONTINUOUS
 62
     7
100
AcDbLine
 10
8.2650169161
 20
6.8934718974
 30
0.0
 11
8.2007258468
 21
6.8563574531
 31
0.0
  0
LINE
  5
2BD
330
1F
100
AcDbEntity
  8
0
  6
CONTINUOUS
 62
     7
100
AcDbLine
 10
8.2007258468
 20
6.8563574531
 30
0.0
 11
8.2242580114
 21
6.8056581793
 31
0.0
  0
LINE
  5
2BE
330
1F
100
AcDbEntity
  8
0
  6
CONTINUOUS
 62
     7
100
AcDbLine
 10
8.2242580114
 20
6.8056581793
 30
0.0
 11
8.3120812454
 21
6.7920733498
 31
0.0
  0
LINE
  5
2BF
330
1F
100
AcDbEntity
  8
0
  6
CONTINUOUS
 62
     7
100
AcDbLine
 10
8.3528401501
 20
6.8156029646
 30
0.0
 11
8.3528401501
 21
6.8798870679
 31
0.0
  0
LINE
  5
2C0
330
1F
100
AcDbEntity
  8
0
  6
CONTINUOUS
 62
     7
100
AcDbLine
 10
8.2650169161
 20
6.799353438
 30
0.0
 11
8.2650169161
 21
6.8934718974
 31
0.0
  0
ARC
  5
2C1
330
1F
100
AcDbEntity
  8
0
  6
CONTINUOUS
 62
     7
100
AcDbCircle
 10
8.2991698291
 20
7.5150950614
 30
0.0
 40
0.2107077861424879
100
AcDbArc
 50
100.5515152697
 51
145.6726270675
  0
ARC
  5
2C2
330
1F
100
AcDbEntity
  8
0
  6
CONTINUOUS
 62
     7
100
AcDbCircle
 10
7.6587988011
 20
6.4125964255
 30
0.0
 40
0.2072674478342847
100
AcDbArc
 50
153.9230274495
 51
199.8494742366
  0
ARC
  5
2C3
330
1F
100
AcDbEntity
  8
0
  6
CONTINUOUS
 62
     7
100
AcDbCircle
 10
7.4905138264
 20
6.4731897998
 30
0.0
 40
0.1069612935027008
100
AcDbArc
 50
178.0728638841
 51
208.1837320068
  0
ARC
  5
2C4
330
1F
100
AcDbEntity
  8
0
  6
CONTINUOUS
 62
     7
100
AcDbCircle
 10
7.6415166848
 20
6.4649345905
 30
0.0
 40
0.2581758485742613
100
AcDbArc
 50
124.7500834702
 51
177.368779789
  0
POLYLINE
  5
2C5
330
1F
100
AcDbEntity
  8
0
  6
CONTINUOUS
 62
     7
100
AcDb2dPolyline
 66
     1
 10
0.0
 20
0.0
 30
0.0
  0
VERTEX
  5
612
330
2C5
100
AcDbEntity
  8
0
  6
CONTINUOUS
 62
     7
100
AcDbVertex
100
AcDb2dVertex
 10
8.1039432649
 20
7.7927482735
 30
0.0
  0
VERTEX
  5
613
330
2C5
100
AcDbEntity
  8
0
  6
CONTINUOUS
 62
     7
100
AcDbVertex
100
AcDb2dVertex
 10
8.140754127
 20
7.8129944679
 30
0.0
  0
VERTEX
  5
614
330
2C5
100
AcDbEntity
  8
0
  6
CONTINUOUS
 62
     7
100
AcDbVertex
100
AcDb2dVertex
 10
8.1774828497
 20
7.8311869571
 30
0.0
  0
VERTEX
  5
615
330
2C5
100
AcDbEntity
  8
0
  6
CONTINUOUS
 62
     7
100
AcDbVertex
100
AcDb2dVertex
 10
8.2140474768
 20
7.8472851465
 30
0.0
  0
VERTEX
  5
616
330
2C5
100
AcDbEntity
  8
0
  6
CONTINUOUS
 62
     7
100
AcDbVertex
100
AcDb2dVertex
 10
8.2503664183
 20
7.8612531148
 30
0.0
  0
VERTEX
  5
617
330
2C5
100
AcDbEntity
  8
0
  6
CONTINUOUS
 62
     7
100
AcDbVertex
100
AcDb2dVertex
 10
8.2863586326
 20
7.8730596941
 30
0.0
  0
VERTEX
  5
618
330
2C5
100
AcDbEntity
  8
0
  6
CONTINUOUS
 62
     7
100
AcDbVertex
100
AcDb2dVertex
 10
8.3219438068
 20
7.8826785391
 30
0.0
  0
VERTEX
  5
619
330
2C5
100
AcDbEntity
  8
0
  6
CONTINUOUS
 62
     7
100
AcDbVertex
100
AcDb2dVertex
 10
8.3570425366
 20
7.8900881866
 30
0.0
  0
VERTEX
  5
61A
330
2C5
100
AcDbEntity
  8
0
  6
CONTINUOUS
 62
     7
100
AcDbVertex
100
AcDb2dVertex
 10
8.391576503
 20
7.8952721026
 30
0.0
  0
VERTEX
  5
61B
330
2C5
100
AcDbEntity
  8
0
  6
CONTINUOUS
 62
     7
100
AcDbVertex
100
AcDb2dVertex
 10
8.4254686471
 20
7.8982187199
 30
0.0
  0
VERTEX
  5
61C
330
2C5
100
AcDbEntity
  8
0
  6
CONTINUOUS
 62
     7
100
AcDbVertex
100
AcDb2dVertex
 10
8.4586433424
 20
7.8989214633
 30
0.0
  0
VERTEX
  5
61D
330
2C5
100
AcDbEntity
  8
0
  6
CONTINUOUS
 62
     7
100
AcDbVertex
100
AcDb2dVertex
 10
8.4910265631
 20
7.8973787649
 30
0.0
  0
VERTEX
  5
61E
330
2C5
100
AcDbEntity
  8
0
  6
CONTINUOUS
 62
     7
100
AcDbVertex
100
AcDb2dVertex
 10
8.5225460496
 20
7.8935940669
 30
0.0
  0
VERTEX
  5
61F
330
2C5
100
AcDbEntity
  8
0
  6
CONTINUOUS
 62
     7
100
AcDbVertex
100
AcDb2dVertex
 10
8.5531314696
 20
7.8875758144
 30
0.0
  0
VERTEX
  5
620
330
2C5
100
AcDbEntity
  8
0
  6
CONTINUOUS
 62
     7
100
AcDbVertex
100
AcDb2dVertex
 10
8.582714575
 20
7.8793374367
 30
0.0
  0
VERTEX
  5
621
330
2C5
100
AcDbEntity
  8
0
  6
CONTINUOUS
 62
     7
100
AcDbVertex
100
AcDb2dVertex
 10
8.6112293545
 20
7.8688973166
 30
0.0
  0
VERTEX
  5
622
330
2C5
100
AcDbEntity
  8
0
  6
CONTINUOUS
 62
     7
100
AcDbVertex
100
AcDb2dVertex
 10
8.6386121804
 20
7.8562787503
 30
0.0
  0
VERTEX
  5
623
330
2C5
100
AcDbEntity
  8
0
  6
CONTINUOUS
 62
     7
100
AcDbVertex
100
AcDb2dVertex
 10
8.6648019508
 20
7.8415098946
 30
0.0
  0
VERTEX
  5
624
330
2C5
100
AcDbEntity
  8
0
  6
CONTINUOUS
 62
     7
100
AcDbVertex
100
AcDb2dVertex
 10
8.6897402262
 20
7.8246237047
 30
0.0
  0
VERTEX
  5
625
330
2C5
100
AcDbEntity
  8
0
  6
CONTINUOUS
 62
     7
100
AcDbVertex
100
AcDb2dVertex
 10
8.7133713595
 20
7.8056578602
 30
0.0
  0
VERTEX
  5
626
330
2C5
100
AcDbEntity
  8
0
  6
CONTINUOUS
 62
     7
100
AcDbVertex
100
AcDb2dVertex
 10
8.7202661393
 20
7.7995063725
 30
0.0
  0
SEQEND
  5
627
330
2C5
100
AcDbEntity
  8
0
  6
CONTINUOUS
 62
     7
  0
POLYLINE
  5
2C6
330
1F
100
AcDbEntity
  8
0
  6
CONTINUOUS
 62
     7
100
AcDb2dPolyline
 66
     1
 10
0.0
 20
0.0
 30
0.0
  0
VERTEX
  5
628
330
2C6
100
AcDbEntity
  8
0
  6
CONTINUOUS
 62
     7
100
AcDbVertex
100
AcDb2dVertex
 10
7.6268146387
 20
5.9053875862
 30
0.0
  0
VERTEX
  5
629
330
2C6
100
AcDbEntity
  8
0
  6
CONTINUOUS
 62
     7
100
AcDbVertex
100
AcDb2dVertex
 10
7.6107769899
 20
5.9108578347
 30
0.0
  0
VERTEX
  5
62A
330
2C6
100
AcDbEntity
  8
0
  6
CONTINUOUS
 62
     7
100
AcDbVertex
100
AcDb2dVertex
 10
7.5828203884
 20
5.9223903951
 30
0.0
  0
VERTEX
  5
62B
330
2C6
100
AcDbEntity
  8
0
  6
CONTINUOUS
 62
     7
100
AcDbVertex
100
AcDb2dVertex
 10
7.5560266158
 20
5.9360879272
 30
0.0
  0
VERTEX
  5
62C
330
2C6
100
AcDbEntity
  8
0
  6
CONTINUOUS
 62
     7
100
AcDbVertex
100
AcDb2dVertex
 10
7.5304554595
 20
5.9519198665
 30
0.0
  0
VERTEX
  5
62D
330
2C6
100
AcDbEntity
  8
0
  6
CONTINUOUS
 62
     7
100
AcDbVertex
100
AcDb2dVertex
 10
7.5061639787
 20
5.9698508859
 30
0.0
  0
VERTEX
  5
62E
330
2C6
100
AcDbEntity
  8
0
  6
CONTINUOUS
 62
     7
100
AcDbVertex
100
AcDb2dVertex
 10
7.4832063773
 20
5.989840974
 30
0.0
  0
VERTEX
  5
62F
330
2C6
100
AcDbEntity
  8
0
  6
CONTINUOUS
 62
     7
100
AcDbVertex
100
AcDb2dVertex
 10
7.4616338825
 20
6.0118455253
 30
0.0
  0
VERTEX
  5
630
330
2C6
100
AcDbEntity
  8
0
  6
CONTINUOUS
 62
     7
100
AcDbVertex
100
AcDb2dVertex
 10
7.4414946312
 20
6.0358154391
 30
0.0
  0
VERTEX
  5
631
330
2C6
100
AcDbEntity
  8
0
  6
CONTINUOUS
 62
     7
100
AcDbVertex
100
AcDb2dVertex
 10
7.4228335618
 20
6.0616972289
 30
0.0
  0
VERTEX
  5
632
330
2C6
100
AcDbEntity
  8
0
  6
CONTINUOUS
 62
     7
100
AcDbVertex
100
AcDb2dVertex
 10
7.4056923145
 20
6.0894331425
 30
0.0
  0
VERTEX
  5
633
330
2C6
100
AcDbEntity
  8
0
  6
CONTINUOUS
 62
     7
100
AcDbVertex
100
AcDb2dVertex
 10
7.3901091381
 20
6.1189612902
 30
0.0
  0
VERTEX
  5
634
330
2C6
100
AcDbEntity
  8
0
  6
CONTINUOUS
 62
     7
100
AcDbVertex
100
AcDb2dVertex
 10
7.3761188047
 20
6.1502157831
 30
0.0
  0
VERTEX
  5
635
330
2C6
100
AcDbEntity
  8
0
  6
CONTINUOUS
 62
     7
100
AcDbVertex
100
AcDb2dVertex
 10
7.3637525323
 20
6.1831268803
 30
0.0
  0
VERTEX
  5
636
330
2C6
100
AcDbEntity
  8
0
  6
CONTINUOUS
 62
     7
100
AcDbVertex
100
AcDb2dVertex
 10
7.3530379149
 20
6.2176211442
 30
0.0
  0
VERTEX
  5
637
330
2C6
100
AcDbEntity
  8
0
  6
CONTINUOUS
 62
     7
100
AcDbVertex
100
AcDb2dVertex
 10
7.3439988609
 20
6.2536216046
 30
0.0
  0
VERTEX
  5
638
330
2C6
100
AcDbEntity
  8
0
  6
CONTINUOUS
 62
     7
100
AcDbVertex
100
AcDb2dVertex
 10
7.3366555401
 20
6.2910479305
 30
0.0
  0
VERTEX
  5
639
330
2C6
100
AcDbEntity
  8
0
  6
CONTINUOUS
 62
     7
100
AcDbVertex
100
AcDb2dVertex
 10
7.3310243381
 20
6.329816609
 30
0.0
  0
VERTEX
  5
63A
330
2C6
100
AcDbEntity
  8
0
  6
CONTINUOUS
 62
     7
100
AcDbVertex
100
AcDb2dVertex
 10
7.3271178206
 20
6.369841132
 30
0.0
  0
VERTEX
  5
63B
330
2C6
100
AcDbEntity
  8
0
  6
CONTINUOUS
 62
     7
100
AcDbVertex
100
AcDb2dVertex
 10
7.3249447043
 20
6.4110321893
 30
0.0
  0
VERTEX
  5
63C
330
2C6
100
AcDbEntity
  8
0
  6
CONTINUOUS
 62
     7
100
AcDbVertex
100
AcDb2dVertex
 10
7.3245098385
 20
6.4532978675
 30
0.0
  0
VERTEX
  5
63D
330
2C6
100
AcDbEntity
  8
0
  6
CONTINUOUS
 62
     7
100
AcDbVertex
100
AcDb2dVertex
 10
7.3258141934
 20
6.4965438552
 30
0.0
  0
VERTEX
  5
63E
330
2C6
100
AcDbEntity
  8
0
  6
CONTINUOUS
 62
     7
100
AcDbVertex
100
AcDb2dVertex
 10
7.3288548585
 20
6.5406736538
 30
0.0
  0
VERTEX
  5
63F
330
2C6
100
AcDbEntity
  8
0
  6
CONTINUOUS
 62
     7
100
AcDbVertex
100
AcDb2dVertex
 10
7.333625049
 20
6.5855887925
 30
0.0
  0
VERTEX
  5
640
330
2C6
100
AcDbEntity
  8
0
  6
CONTINUOUS
 62
     7
100
AcDbVertex
100
AcDb2dVertex
 10
7.3401141206
 20
6.631189048
 30
0.0
  0
VERTEX
  5
641
330
2C6
100
AcDbEntity
  8
0
  6
CONTINUOUS
 62
     7
100
AcDbVertex
100
AcDb2dVertex
 10
7.3483075937
 20
6.6773726684
 30
0.0
  0
VERTEX
  5
642
330
2C6
100
AcDbEntity
  8
0
  6
CONTINUOUS
 62
     7
100
AcDbVertex
100
AcDb2dVertex
 10
7.3581871854
 20
6.7240365998
 30
0.0
  0
VERTEX
  5
643
330
2C6
100
AcDbEntity
  8
0
  6
CONTINUOUS
 62
     7
100
AcDbVertex
100
AcDb2dVertex
 10
7.3697308506
 20
6.7710767168
 30
0.0
  0
VERTEX
  5
644
330
2C6
100
AcDbEntity
  8
0
  6
CONTINUOUS
 62
     7
100
AcDbVertex
100
AcDb2dVertex
 10
7.3829128307
 20
6.8183880546
 30
0.0
  0
VERTEX
  5
645
330
2C6
100
AcDbEntity
  8
0
  6
CONTINUOUS
 62
     7
100
AcDbVertex
100
AcDb2dVertex
 10
7.3977037117
 20
6.8658650431
 30
0.0
  0
VERTEX
  5
646
330
2C6
100
AcDbEntity
  8
0
  6
CONTINUOUS
 62
     7
100
AcDbVertex
100
AcDb2dVertex
 10
7.4140704893
 20
6.9134017424
 30
0.0
  0
VERTEX
  5
647
330
2C6
100
AcDbEntity
  8
0
  6
CONTINUOUS
 62
     7
100
AcDbVertex
100
AcDb2dVertex
 10
7.4319766428
 20
6.9608920797
 30
0.0
  0
VERTEX
  5
648
330
2C6
100
AcDbEntity
  8
0
  6
CONTINUOUS
 62
     7
100
AcDbVertex
100
AcDb2dVertex
 10
7.4513822166
 20
7.0082300854
 30
0.0
  0
VERTEX
  5
649
330
2C6
100
AcDbEntity
  8
0
  6
CONTINUOUS
 62
     7
100
AcDbVertex
100
AcDb2dVertex
 10
7.4722439093
 20
7.0553101299
 30
0.0
  0
VERTEX
  5
64A
330
2C6
100
AcDbEntity
  8
0
  6
CONTINUOUS
 62
     7
100
AcDbVertex
100
AcDb2dVertex
 10
7.4945151702
 20
7.1020271593
 30
0.0
  0
VERTEX
  5
64B
330
2C6
100
AcDbEntity
  8
0
  6
CONTINUOUS
 62
     7
100
AcDbVertex
100
AcDb2dVertex
 10
7.5181463035
 20
7.1482769296
 30
0.0
  0
VERTEX
  5
64C
330
2C6
100
AcDbEntity
  8
0
  6
CONTINUOUS
 62
     7
100
AcDbVertex
100
AcDb2dVertex
 10
7.5430845789
 20
7.1939562394
 30
0.0
  0
VERTEX
  5
64D
330
2C6
100
AcDbEntity
  8
0
  6
CONTINUOUS
 62
     7
100
AcDbVertex
100
AcDb2dVertex
 10
7.5692743494
 20
7.2389631604
 30
0.0
  0
VERTEX
  5
64E
330
2C6
100
AcDbEntity
  8
0
  6
CONTINUOUS
 62
     7
100
AcDbVertex
100
AcDb2dVertex
 10
7.5966571752
 20
7.2831972645
 30
0.0
  0
VERTEX
  5
64F
330
2C6
100
AcDbEntity
  8
0
  6
CONTINUOUS
 62
     7
100
AcDbVertex
100
AcDb2dVertex
 10
7.6251719547
 20
7.3265598482
 30
0.0
  0
VERTEX
  5
650
330
2C6
100
AcDbEntity
  8
0
  6
CONTINUOUS
 62
     7
100
AcDbVertex
100
AcDb2dVertex
 10
7.6547550602
 20
7.3689541525
 30
0.0
  0
VERTEX
  5
651
330
2C6
100
AcDbEntity
  8
0
  6
CONTINUOUS
 62
     7
100
AcDbVertex
100
AcDb2dVertex
 10
7.6853404802
 20
7.4102855792
 30
0.0
  0
VERTEX
  5
652
330
2C6
100
AcDbEntity
  8
0
  6
CONTINUOUS
 62
     7
100
AcDbVertex
100
AcDb2dVertex
 10
7.7168599667
 20
7.4504619017
 30
0.0
  0
VERTEX
  5
653
330
2C6
100
AcDbEntity
  8
0
  6
CONTINUOUS
 62
     7
100
AcDbVertex
100
AcDb2dVertex
 10
7.7492431874
 20
7.4893934709
 30
0.0
  0
VERTEX
  5
654
330
2C6
100
AcDbEntity
  8
0
  6
CONTINUOUS
 62
     7
100
AcDbVertex
100
AcDb2dVertex
 10
7.7824178826
 20
7.5269934153
 30
0.0
  0
VERTEX
  5
655
330
2C6
100
AcDbEntity
  8
0
  6
CONTINUOUS
 62
     7
100
AcDbVertex
100
AcDb2dVertex
 10
7.8163100268
 20
7.5631778347
 30
0.0
  0
VERTEX
  5
656
330
2C6
100
AcDbEntity
  8
0
  6
CONTINUOUS
 62
     7
100
AcDbVertex
100
AcDb2dVertex
 10
7.8508439931
 20
7.5978659875
 30
0.0
  0
VERTEX
  5
657
330
2C6
100
AcDbEntity
  8
0
  6
CONTINUOUS
 62
     7
100
AcDbVertex
100
AcDb2dVertex
 10
7.8859427229
 20
7.6309804709
 30
0.0
  0
VERTEX
  5
658
330
2C6
100
AcDbEntity
  8
0
  6
CONTINUOUS
 62
     7
100
AcDbVertex
100
AcDb2dVertex
 10
7.9215278971
 20
7.6624473935
 30
0.0
  0
VERTEX
  5
659
330
2C6
100
AcDbEntity
  8
0
  6
CONTINUOUS
 62
     7
100
AcDbVertex
100
AcDb2dVertex
 10
7.9575201114
 20
7.6921965403
 30
0.0
  0
VERTEX
  5
65A
330
2C6
100
AcDbEntity
  8
0
  6
CONTINUOUS
 62
     7
100
AcDbVertex
100
AcDb2dVertex
 10
7.993839053
 20
7.7201615293
 30
0.0
  0
VERTEX
  5
65B
330
2C6
100
AcDbEntity
  8
0
  6
CONTINUOUS
 62
     7
100
AcDbVertex
100
AcDb2dVertex
 10
8.0304036801
 20
7.7462799598
 30
0.0
  0
VERTEX
  5
65C
330
2C6
100
AcDbEntity
  8
0
  6
CONTINUOUS
 62
     7
100
AcDbVertex
100
AcDb2dVertex
 10
8.0671324028
 20
7.7704935512
 30
0.0
  0
VERTEX
  5
65D
330
2C6
100
AcDbEntity
  8
0
  6
CONTINUOUS
 62
     7
100
AcDbVertex
100
AcDb2dVertex
 10
8.1039432649
 20
7.7927482735
 30
0.0
  0
SEQEND
  5
65E
330
2C6
100
AcDbEntity
  8
0
  6
CONTINUOUS
 62
     7
  0
POLYLINE
  5
2C7
330
1F
100
AcDbEntity
  8
0
  6
CONTINUOUS
 62
     7
100
AcDb2dPolyline
 66
     1
 10
0.0
 20
0.0
 30
0.0
  0
VERTEX
  5
65F
330
2C7
100
AcDbEntity
  8
0
  6
CONTINUOUS
 62
     7
100
AcDbVertex
100
AcDb2dVertex
 10
8.157097881
 20
7.7405564254
 30
0.0
  0
VERTEX
  5
660
330
2C7
100
AcDbEntity
  8
0
  6
CONTINUOUS
 62
     7
100
AcDbVertex
100
AcDb2dVertex
 10
8.1500608237
 20
7.7402520553
 30
0.0
  0
VERTEX
  5
661
330
2C7
100
AcDbEntity
  8
0
  6
CONTINUOUS
 62
     7
100
AcDbVertex
100
AcDb2dVertex
 10
8.1363217319
 20
7.7379113963
 30
0.0
  0
VERTEX
  5
662
330
2C7
100
AcDbEntity
  8
0
  6
CONTINUOUS
 62
     7
100
AcDbVertex
100
AcDb2dVertex
 10
8.1220918155
 20
7.7332953439
 30
0.0
  0
VERTEX
  5
663
330
2C7
100
AcDbEntity
  8
0
  6
CONTINUOUS
 62
     7
100
AcDbVertex
100
AcDb2dVertex
 10
8.1075867856
 20
7.7264738727
 30
0.0
  0
VERTEX
  5
664
330
2C7
100
AcDbEntity
  8
0
  6
CONTINUOUS
 62
     7
100
AcDbVertex
100
AcDb2dVertex
 10
8.0930265237
 20
7.7175503893
 30
0.0
  0
VERTEX
  5
665
330
2C7
100
AcDbEntity
  8
0
  6
CONTINUOUS
 62
     7
100
AcDbVertex
100
AcDb2dVertex
 10
8.0786317484
 20
7.7066601645
 30
0.0
  0
VERTEX
  5
666
330
2C7
100
AcDbEntity
  8
0
  6
CONTINUOUS
 62
     7
100
AcDbVertex
100
AcDb2dVertex
 10
8.0646206699
 20
7.6939682831
 30
0.0
  0
VERTEX
  5
667
330
2C7
100
AcDbEntity
  8
0
  6
CONTINUOUS
 62
     7
100
AcDbVertex
100
AcDb2dVertex
 10
8.0512056818
 20
7.6796671411
 30
0.0
  0
VERTEX
  5
668
330
2C7
100
AcDbEntity
  8
0
  6
CONTINUOUS
 62
     7
100
AcDbVertex
100
AcDb2dVertex
 10
8.0385901418
 20
7.6639735293
 30
0.0
  0
VERTEX
  5
669
330
2C7
100
AcDbEntity
  8
0
  6
CONTINUOUS
 62
     7
100
AcDbVertex
100
AcDb2dVertex
 10
8.0269652884
 20
7.6471253466
 30
0.0
  0
VERTEX
  5
66A
330
2C7
100
AcDbEntity
  8
0
  6
CONTINUOUS
 62
     7
100
AcDbVertex
100
AcDb2dVertex
 10
8.0165073428
 20
7.6293779945
 30
0.0
  0
VERTEX
  5
66B
330
2C7
100
AcDbEntity
  8
0
  6
CONTINUOUS
 62
     7
100
AcDbVertex
100
AcDb2dVertex
 10
8.0073748366
 20
7.6110005048
 30
0.0
  0
VERTEX
  5
66C
330
2C7
100
AcDbEntity
  8
0
  6
CONTINUOUS
 62
     7
100
AcDbVertex
100
AcDb2dVertex
 10
7.9997062093
 20
7.5922714613
 30
0.0
  0
VERTEX
  5
66D
330
2C7
100
AcDbEntity
  8
0
  6
CONTINUOUS
 62
     7
100
AcDbVertex
100
AcDb2dVertex
 10
7.9936177095
 20
7.5734747774
 30
0.0
  0
VERTEX
  5
66E
330
2C7
100
AcDbEntity
  8
0
  6
CONTINUOUS
 62
     7
100
AcDbVertex
100
AcDb2dVertex
 10
7.9892016327
 20
7.5548953916
 30
0.0
  0
VERTEX
  5
66F
330
2C7
100
AcDbEntity
  8
0
  6
CONTINUOUS
 62
     7
100
AcDbVertex
100
AcDb2dVertex
 10
7.9865249221
 20
7.5368149484
 30
0.0
  0
VERTEX
  5
670
330
2C7
100
AcDbEntity
  8
0
  6
CONTINUOUS
 62
     7
100
AcDbVertex
100
AcDb2dVertex
 10
7.9858706475
 20
7.5283904174
 30
0.0
  0
SEQEND
  5
671
330
2C7
100
AcDbEntity
  8
0
  6
CONTINUOUS
 62
     7
  0
POLYLINE
  5
2C8
330
1F
100
AcDbEntity
  8
0
  6
CONTINUOUS
 62
     7
100
AcDb2dPolyline
 66
     1
 10
0.0
 20
0.0
 30
0.0
  0
VERTEX
  5
672
330
2C8
100
AcDbEntity
  8
0
  6
CONTINUOUS
 62
     7
100
AcDbVertex
100
AcDb2dVertex
 10
7.3894207469
 20
6.0322458611
 30
0.0
  0
VERTEX
  5
673
330
2C8
100
AcDbEntity
  8
0
  6
CONTINUOUS
 62
     7
100
AcDbVertex
100
AcDb2dVertex
 10
7.3796983703
 20
6.0380600437
 30
0.0
  0
VERTEX
  5
674
330
2C8
100
AcDbEntity
  8
0
  6
CONTINUOUS
 62
     7
100
AcDbVertex
100
AcDb2dVertex
 10
7.3547600949
 20
6.0549462337
 30
0.0
  0
VERTEX
  5
675
330
2C8
100
AcDbEntity
  8
0
  6
CONTINUOUS
 62
     7
100
AcDbVertex
100
AcDb2dVertex
 10
7.3311289616
 20
6.0739120782
 30
0.0
  0
VERTEX
  5
676
330
2C8
100
AcDbEntity
  8
0
  6
CONTINUOUS
 62
     7
100
AcDbVertex
100
AcDb2dVertex
 10
7.3088577007
 20
6.094915257
 30
0.0
  0
VERTEX
  5
677
330
2C8
100
AcDbEntity
  8
0
  6
CONTINUOUS
 62
     7
100
AcDbVertex
100
AcDb2dVertex
 10
7.287996008
 20
6.1179089039
 30
0.0
  0
VERTEX
  5
678
330
2C8
100
AcDbEntity
  8
0
  6
CONTINUOUS
 62
     7
100
AcDbVertex
100
AcDb2dVertex
 10
7.2685904342
 20
6.142841711
 30
0.0
  0
VERTEX
  5
679
330
2C8
100
AcDbEntity
  8
0
  6
CONTINUOUS
 62
     7
100
AcDbVertex
100
AcDb2dVertex
 10
7.2506842807
 20
6.1696580435
 30
0.0
  0
VERTEX
  5
67A
330
2C8
100
AcDbEntity
  8
0
  6
CONTINUOUS
 62
     7
100
AcDbVertex
100
AcDb2dVertex
 10
7.2343175031
 20
6.1982980637
 30
0.0
  0
VERTEX
  5
67B
330
2C8
100
AcDbEntity
  8
0
  6
CONTINUOUS
 62
     7
100
AcDbVertex
100
AcDb2dVertex
 10
7.2195266221
 20
6.2286978644
 30
0.0
  0
VERTEX
  5
67C
330
2C8
100
AcDbEntity
  8
0
  6
CONTINUOUS
 62
     7
100
AcDbVertex
100
AcDb2dVertex
 10
7.206344642
 20
6.2607896118
 30
0.0
  0
VERTEX
  5
67D
330
2C8
100
AcDbEntity
  8
0
  6
CONTINUOUS
 62
     7
100
AcDbVertex
100
AcDb2dVertex
 10
7.1948009768
 20
6.2945016968
 30
0.0
  0
VERTEX
  5
67E
330
2C8
100
AcDbEntity
  8
0
  6
CONTINUOUS
 62
     7
100
AcDbVertex
100
AcDb2dVertex
 10
7.1849213851
 20
6.3297588944
 30
0.0
  0
VERTEX
  5
67F
330
2C8
100
AcDbEntity
  8
0
  6
CONTINUOUS
 62
     7
100
AcDbVertex
100
AcDb2dVertex
 10
7.176727912
 20
6.3664825321
 30
0.0
  0
VERTEX
  5
680
330
2C8
100
AcDbEntity
  8
0
  6
CONTINUOUS
 62
     7
100
AcDbVertex
100
AcDb2dVertex
 10
7.1702388404
 20
6.404590665
 30
0.0
  0
VERTEX
  5
681
330
2C8
100
AcDbEntity
  8
0
  6
CONTINUOUS
 62
     7
100
AcDbVertex
100
AcDb2dVertex
 10
7.1654686499
 20
6.443998259
 30
0.0
  0
VERTEX
  5
682
330
2C8
100
AcDbEntity
  8
0
  6
CONTINUOUS
 62
     7
100
AcDbVertex
100
AcDb2dVertex
 10
7.1624279848
 20
6.4846173804
 30
0.0
  0
VERTEX
  5
683
330
2C8
100
AcDbEntity
  8
0
  6
CONTINUOUS
 62
     7
100
AcDbVertex
100
AcDb2dVertex
 10
7.1611236299
 20
6.526357392
 30
0.0
  0
VERTEX
  5
684
330
2C8
100
AcDbEntity
  8
0
  6
CONTINUOUS
 62
     7
100
AcDbVertex
100
AcDb2dVertex
 10
7.1615584957
 20
6.5691251556
 30
0.0
  0
VERTEX
  5
685
330
2C8
100
AcDbEntity
  8
0
  6
CONTINUOUS
 62
     7
100
AcDbVertex
100
AcDb2dVertex
 10
7.163731612
 20
6.6128252395
 30
0.0
  0
VERTEX
  5
686
330
2C8
100
AcDbEntity
  8
0
  6
CONTINUOUS
 62
     7
100
AcDbVertex
100
AcDb2dVertex
 10
7.1676381295
 20
6.6573601317
 30
0.0
  0
VERTEX
  5
687
330
2C8
100
AcDbEntity
  8
0
  6
CONTINUOUS
 62
     7
100
AcDbVertex
100
AcDb2dVertex
 10
7.1732693314
 20
6.7026304575
 30
0.0
  0
VERTEX
  5
688
330
2C8
100
AcDbEntity
  8
0
  6
CONTINUOUS
 62
     7
100
AcDbVertex
100
AcDb2dVertex
 10
7.1806126523
 20
6.7485352012
 30
0.0
  0
VERTEX
  5
689
330
2C8
100
AcDbEntity
  8
0
  6
CONTINUOUS
 62
     7
100
AcDbVertex
100
AcDb2dVertex
 10
7.1896517063
 20
6.7949719312
 30
0.0
  0
VERTEX
  5
68A
330
2C8
100
AcDbEntity
  8
0
  6
CONTINUOUS
 62
     7
100
AcDbVertex
100
AcDb2dVertex
 10
7.2003663237
 20
6.841837029
 30
0.0
  0
VERTEX
  5
68B
330
2C8
100
AcDbEntity
  8
0
  6
CONTINUOUS
 62
     7
100
AcDbVertex
100
AcDb2dVertex
 10
7.2127325961
 20
6.8890259204
 30
0.0
  0
VERTEX
  5
68C
330
2C8
100
AcDbEntity
  8
0
  6
CONTINUOUS
 62
     7
100
AcDbVertex
100
AcDb2dVertex
 10
7.2267229295
 20
6.9364333084
 30
0.0
  0
VERTEX
  5
68D
330
2C8
100
AcDbEntity
  8
0
  6
CONTINUOUS
 62
     7
100
AcDbVertex
100
AcDb2dVertex
 10
7.2423061059
 20
6.9839534086
 30
0.0
  0
VERTEX
  5
68E
330
2C8
100
AcDbEntity
  8
0
  6
CONTINUOUS
 62
     7
100
AcDbVertex
100
AcDb2dVertex
 10
7.2594473532
 20
7.0314801851
 30
0.0
  0
VERTEX
  5
68F
330
2C8
100
AcDbEntity
  8
0
  6
CONTINUOUS
 62
     7
100
AcDbVertex
100
AcDb2dVertex
 10
7.2781084226
 20
7.0789075871
 30
0.0
  0
VERTEX
  5
690
330
2C8
100
AcDbEntity
  8
0
  6
CONTINUOUS
 62
     7
100
AcDbVertex
100
AcDb2dVertex
 10
7.2982476739
 20
7.1261297855
 30
0.0
  0
VERTEX
  5
691
330
2C8
100
AcDbEntity
  8
0
  6
CONTINUOUS
 62
     7
100
AcDbVertex
100
AcDb2dVertex
 10
7.3198201687
 20
7.173041409
 30
0.0
  0
VERTEX
  5
692
330
2C8
100
AcDbEntity
  8
0
  6
CONTINUOUS
 62
     7
100
AcDbVertex
100
AcDb2dVertex
 10
7.3427777701
 20
7.2195377796
 30
0.0
  0
VERTEX
  5
693
330
2C8
100
AcDbEntity
  8
0
  6
CONTINUOUS
 62
     7
100
AcDbVertex
100
AcDb2dVertex
 10
7.3670692509
 20
7.2655151456
 30
0.0
  0
VERTEX
  5
694
330
2C8
100
AcDbEntity
  8
0
  6
CONTINUOUS
 62
     7
100
AcDbVertex
100
AcDb2dVertex
 10
7.3926404072
 20
7.3108709136
 30
0.0
  0
VERTEX
  5
695
330
2C8
100
AcDbEntity
  8
0
  6
CONTINUOUS
 62
     7
100
AcDbVertex
100
AcDb2dVertex
 10
7.4194341798
 20
7.3555038771
 30
0.0
  0
VERTEX
  5
696
330
2C8
100
AcDbEntity
  8
0
  6
CONTINUOUS
 62
     7
100
AcDbVertex
100
AcDb2dVertex
 10
7.4473907813
 20
7.3993144425
 30
0.0
  0
VERTEX
  5
697
330
2C8
100
AcDbEntity
  8
0
  6
CONTINUOUS
 62
     7
100
AcDbVertex
100
AcDb2dVertex
 10
7.4764478296
 20
7.4422048513
 30
0.0
  0
VERTEX
  5
698
330
2C8
100
AcDbEntity
  8
0
  6
CONTINUOUS
 62
     7
100
AcDbVertex
100
AcDb2dVertex
 10
7.5065404871
 20
7.4840793983
 30
0.0
  0
VERTEX
  5
699
330
2C8
100
AcDbEntity
  8
0
  6
CONTINUOUS
 62
     7
100
AcDbVertex
100
AcDb2dVertex
 10
7.5376016052
 20
7.5248446448
 30
0.0
  0
VERTEX
  5
69A
330
2C8
100
AcDbEntity
  8
0
  6
CONTINUOUS
 62
     7
100
AcDbVertex
100
AcDb2dVertex
 10
7.5695618746
 20
7.5644096279
 30
0.0
  0
VERTEX
  5
69B
330
2C8
100
AcDbEntity
  8
0
  6
CONTINUOUS
 62
     7
100
AcDbVertex
100
AcDb2dVertex
 10
7.6023499792
 20
7.6026860624
 30
0.0
  0
VERTEX
  5
69C
330
2C8
100
AcDbEntity
  8
0
  6
CONTINUOUS
 62
     7
100
AcDbVertex
100
AcDb2dVertex
 10
7.6358927561
 20
7.6395885387
 30
0.0
  0
VERTEX
  5
69D
330
2C8
100
AcDbEntity
  8
0
  6
CONTINUOUS
 62
     7
100
AcDbVertex
100
AcDb2dVertex
 10
7.6701153582
 20
7.675034713
 30
0.0
  0
VERTEX
  5
69E
330
2C8
100
AcDbEntity
  8
0
  6
CONTINUOUS
 62
     7
100
AcDbVertex
100
AcDb2dVertex
 10
7.7049414214
 20
7.7089454909
 30
0.0
  0
VERTEX
  5
69F
330
2C8
100
AcDbEntity
  8
0
  6
CONTINUOUS
 62
     7
100
AcDbVertex
100
AcDb2dVertex
 10
7.7402932353
 20
7.7412452043
 30
0.0
  0
VERTEX
  5
6A0
330
2C8
100
AcDbEntity
  8
0
  6
CONTINUOUS
 62
     7
100
AcDbVertex
100
AcDb2dVertex
 10
7.776091916
 20
7.7718617799
 30
0.0
  0
VERTEX
  5
6A1
330
2C8
100
AcDbEntity
  8
0
  6
CONTINUOUS
 62
     7
100
AcDbVertex
100
AcDb2dVertex
 10
7.8122575828
 20
7.8007269001
 30
0.0
  0
VERTEX
  5
6A2
330
2C8
100
AcDbEntity
  8
0
  6
CONTINUOUS
 62
     7
100
AcDbVertex
100
AcDb2dVertex
 10
7.8487095359
 20
7.8277761556
 30
0.0
  0
VERTEX
  5
6A3
330
2C8
100
AcDbEntity
  8
0
  6
CONTINUOUS
 62
     7
100
AcDbVertex
100
AcDb2dVertex
 10
7.8853664367
 20
7.8529491889
 30
0.0
  0
VERTEX
  5
6A4
330
2C8
100
AcDbEntity
  8
0
  6
CONTINUOUS
 62
     7
100
AcDbVertex
100
AcDb2dVertex
 10
7.9221464893
 20
7.876189829
 30
0.0
  0
VERTEX
  5
6A5
330
2C8
100
AcDbEntity
  8
0
  6
CONTINUOUS
 62
     7
100
AcDbVertex
100
AcDb2dVertex
 10
7.9589676232
 20
7.8974462171
 30
0.0
  0
VERTEX
  5
6A6
330
2C8
100
AcDbEntity
  8
0
  6
CONTINUOUS
 62
     7
100
AcDbVertex
100
AcDb2dVertex
 10
7.9957476758
 20
7.9166709219
 30
0.0
  0
VERTEX
  5
6A7
330
2C8
100
AcDbEntity
  8
0
  6
CONTINUOUS
 62
     7
100
AcDbVertex
100
AcDb2dVertex
 10
8.0324045766
 20
7.9338210454
 30
0.0
  0
VERTEX
  5
6A8
330
2C8
100
AcDbEntity
  8
0
  6
CONTINUOUS
 62
     7
100
AcDbVertex
100
AcDb2dVertex
 10
8.0688565297
 20
7.9488583191
 30
0.0
  0
VERTEX
  5
6A9
330
2C8
100
AcDbEntity
  8
0
  6
CONTINUOUS
 62
     7
100
AcDbVertex
100
AcDb2dVertex
 10
8.1050221965
 20
7.961749189
 30
0.0
  0
VERTEX
  5
6AA
330
2C8
100
AcDbEntity
  8
0
  6
CONTINUOUS
 62
     7
100
AcDbVertex
100
AcDb2dVertex
 10
8.1408208773
 20
7.9724648904
 30
0.0
  0
VERTEX
  5
6AB
330
2C8
100
AcDbEntity
  8
0
  6
CONTINUOUS
 62
     7
100
AcDbVertex
100
AcDb2dVertex
 10
8.1761726911
 20
7.9809815125
 30
0.0
  0
VERTEX
  5
6AC
330
2C8
100
AcDbEntity
  8
0
  6
CONTINUOUS
 62
     7
100
AcDbVertex
100
AcDb2dVertex
 10
8.2109987544
 20
7.9872800513
 30
0.0
  0
VERTEX
  5
6AD
330
2C8
100
AcDbEntity
  8
0
  6
CONTINUOUS
 62
     7
100
AcDbVertex
100
AcDb2dVertex
 10
8.2452213564
 20
7.9913464523
 30
0.0
  0
VERTEX
  5
6AE
330
2C8
100
AcDbEntity
  8
0
  6
CONTINUOUS
 62
     7
100
AcDbVertex
100
AcDb2dVertex
 10
8.2787641333
 20
7.9931716418
 30
0.0
  0
VERTEX
  5
6AF
330
2C8
100
AcDbEntity
  8
0
  6
CONTINUOUS
 62
     7
100
AcDbVertex
100
AcDb2dVertex
 10
8.3115522379
 20
7.9927515471
 30
0.0
  0
VERTEX
  5
6B0
330
2C8
100
AcDbEntity
  8
0
  6
CONTINUOUS
 62
     7
100
AcDbVertex
100
AcDb2dVertex
 10
8.3435125073
 20
7.9900871056
 30
0.0
  0
VERTEX
  5
6B1
330
2C8
100
AcDbEntity
  8
0
  6
CONTINUOUS
 62
     7
100
AcDbVertex
100
AcDb2dVertex
 10
8.3745736254
 20
7.9851842627
 30
0.0
  0
VERTEX
  5
6B2
330
2C8
100
AcDbEntity
  8
0
  6
CONTINUOUS
 62
     7
100
AcDbVertex
100
AcDb2dVertex
 10
8.4046662829
 20
7.9780539585
 30
0.0
  0
VERTEX
  5
6B3
330
2C8
100
AcDbEntity
  8
0
  6
CONTINUOUS
 62
     7
100
AcDbVertex
100
AcDb2dVertex
 10
8.4337233312
 20
7.9687121036
 30
0.0
  0
VERTEX
  5
6B4
330
2C8
100
AcDbEntity
  8
0
  6
CONTINUOUS
 62
     7
100
AcDbVertex
100
AcDb2dVertex
 10
8.4616799327
 20
7.9571795433
 30
0.0
  0
VERTEX
  5
6B5
330
2C8
100
AcDbEntity
  8
0
  6
CONTINUOUS
 62
     7
100
AcDbVertex
100
AcDb2dVertex
 10
8.4884737053
 20
7.9434820111
 30
0.0
  0
VERTEX
  5
6B6
330
2C8
100
AcDbEntity
  8
0
  6
CONTINUOUS
 62
     7
100
AcDbVertex
100
AcDb2dVertex
 10
8.4916933656
 20
7.9416449278
 30
0.0
  0
SEQEND
  5
6B7
330
2C8
100
AcDbEntity
  8
0
  6
CONTINUOUS
 62
     7
  0
LINE
  5
2C9
330
1F
100
AcDbEntity
  8
0
  6
CONTINUOUS
 62
     7
100
AcDbLine
 10
8.0411247677
 20
7.6240933607
 30
0.0
 11
7.9654674033
 21
7.493050962
 31
0.0
  0
LINE
  5
2CA
330
1F
100
AcDbEntity
  8
0
  6
CONTINUOUS
 62
     7
100
AcDbLine
 10
7.5147828431
 20
6.7124424079
 30
0.0
 11
7.4391096439
 21
6.5813725825
 31
0.0
  0
ARC
  5
2CB
330
1F
100
AcDbEntity
  8
0
  6
CONTINUOUS
 62
     7
100
AcDbCircle
 10
8.8215296846
 20
6.4783707214
 30
0.0
 40
1.662137920261986
100
AcDbArc
 50
122.57975329
 51
177.4256232427
  0
POLYLINE
  5
2CC
330
1F
100
AcDbEntity
  8
0
  6
CONTINUOUS
 62
     7
100
AcDb2dPolyline
 66
     1
 10
0.0
 20
0.0
 30
0.0
  0
VERTEX
  5
6B8
330
2CC
100
AcDbEntity
  8
0
  6
CONTINUOUS
 62
     7
100
AcDbVertex
100
AcDb2dVertex
 10
7.4391096439
 20
6.5813725825
 30
0.0
  0
VERTEX
  5
6B9
330
2CC
100
AcDbEntity
  8
0
  6
CONTINUOUS
 62
     7
100
AcDbVertex
100
AcDb2dVertex
 10
7.4280583173
 20
6.5607124787
 30
0.0
  0
VERTEX
  5
6BA
330
2CC
100
AcDbEntity
  8
0
  6
CONTINUOUS
 62
     7
100
AcDbVertex
100
AcDb2dVertex
 10
7.4184610811
 20
6.5395527419
 30
0.0
  0
VERTEX
  5
6BB
330
2CC
100
AcDbEntity
  8
0
  6
CONTINUOUS
 62
     7
100
AcDbVertex
100
AcDb2dVertex
 10
7.4104386261
 20
6.5181594682
 30
0.0
  0
VERTEX
  5
6BC
330
2CC
100
AcDbEntity
  8
0
  6
CONTINUOUS
 62
     7
100
AcDbVertex
100
AcDb2dVertex
 10
7.4040918393
 20
6.4968016904
 30
0.0
  0
VERTEX
  5
6BD
330
2CC
100
AcDbEntity
  8
0
  6
CONTINUOUS
 62
     7
100
AcDbVertex
100
AcDb2dVertex
 10
7.3995005354
 20
6.4757479949
 30
0.0
  0
VERTEX
  5
6BE
330
2CC
100
AcDbEntity
  8
0
  6
CONTINUOUS
 62
     7
100
AcDbVertex
100
AcDb2dVertex
 10
7.3967224525
 20
6.4552631441
 30
0.0
  0
VERTEX
  5
6BF
330
2CC
100
AcDbEntity
  8
0
  6
CONTINUOUS
 62
     7
100
AcDbVertex
100
AcDb2dVertex
 10
7.3957925268
 20
6.435604747
 30
0.0
  0
VERTEX
  5
6C0
330
2CC
100
AcDbEntity
  8
0
  6
CONTINUOUS
 62
     7
100
AcDbVertex
100
AcDb2dVertex
 10
7.3967224525
 20
6.4170200193
 30
0.0
  0
VERTEX
  5
6C1
330
2CC
100
AcDbEntity
  8
0
  6
CONTINUOUS
 62
     7
100
AcDbVertex
100
AcDb2dVertex
 10
7.3995005354
 20
6.3997426748
 30
0.0
  0
VERTEX
  5
6C2
330
2CC
100
AcDbEntity
  8
0
  6
CONTINUOUS
 62
     7
100
AcDbVertex
100
AcDb2dVertex
 10
7.4040918393
 20
6.383989986
 30
0.0
  0
VERTEX
  5
6C3
330
2CC
100
AcDbEntity
  8
0
  6
CONTINUOUS
 62
     7
100
AcDbVertex
100
AcDb2dVertex
 10
7.4104386261
 20
6.3699600521
 30
0.0
  0
VERTEX
  5
6C4
330
2CC
100
AcDbEntity
  8
0
  6
CONTINUOUS
 62
     7
100
AcDbVertex
100
AcDb2dVertex
 10
7.4184610811
 20
6.3578293078
 30
0.0
  0
VERTEX
  5
6C5
330
2CC
100
AcDbEntity
  8
0
  6
CONTINUOUS
 62
     7
100
AcDbVertex
100
AcDb2dVertex
 10
7.4280583173
 20
6.3477503041
 30
0.0
  0
VERTEX
  5
6C6
330
2CC
100
AcDbEntity
  8
0
  6
CONTINUOUS
 62
     7
100
AcDbVertex
100
AcDb2dVertex
 10
7.4391096439
 20
6.3398497905
 30
0.0
  0
SEQEND
  5
6C7
330
2CC
100
AcDbEntity
  8
0
  6
CONTINUOUS
 62
     7
  0
LINE
  5
2CD
330
1F
100
AcDbEntity
  8
0
  6
CONTINUOUS
 62
     7
100
AcDbLine
 10
8.275477826
 20
7.7302877609
 30
0.0
 11
8.250278311
 21
7.7448351312
 31
0.0
  0
POLYLINE
  5
2CE
330
1F
100
AcDbEntity
  8
0
  6
CONTINUOUS
 62
     7
100
AcDb2dPolyline
 66
     1
 10
0.0
 20
0.0
 30
0.0
  0
VERTEX
  5
6C8
330
2CE
100
AcDbEntity
  8
0
  6
CONTINUOUS
 62
     7
100
AcDbVertex
100
AcDb2dVertex
 10
8.250278311
 20
7.7448351312
 30
0.0
  0
VERTEX
  5
6C9
330
2CE
100
AcDbEntity
  8
0
  6
CONTINUOUS
 62
     7
100
AcDbVertex
100
AcDb2dVertex
 10
8.2379118708
 20
7.7504578013
 30
0.0
  0
VERTEX
  5
6CA
330
2CE
100
AcDbEntity
  8
0
  6
CONTINUOUS
 62
     7
100
AcDbVertex
100
AcDb2dVertex
 10
8.2243858321
 20
7.7537319196
 30
0.0
  0
VERTEX
  5
6CB
330
2CE
100
AcDbEntity
  8
0
  6
CONTINUOUS
 62
     7
100
AcDbVertex
100
AcDb2dVertex
 10
8.2098702928
 20
7.754616312
 30
0.0
  0
VERTEX
  5
6CC
330
2CE
100
AcDbEntity
  8
0
  6
CONTINUOUS
 62
     7
100
AcDbVertex
100
AcDb2dVertex
 10
8.1945477942
 20
7.7530998569
 30
0.0
  0
VERTEX
  5
6CD
330
2CE
100
AcDbEntity
  8
0
  6
CONTINUOUS
 62
     7
100
AcDbVertex
100
AcDb2dVertex
 10
8.1786110256
 20
7.7492016246
 30
0.0
  0
VERTEX
  5
6CE
330
2CE
100
AcDbEntity
  8
0
  6
CONTINUOUS
 62
     7
100
AcDbVertex
100
AcDb2dVertex
 10
8.1622604011
 20
7.7429706375
 30
0.0
  0
VERTEX
  5
6CF
330
2CE
100
AcDbEntity
  8
0
  6
CONTINUOUS
 62
     7
100
AcDbVertex
100
AcDb2dVertex
 10
8.1457015393
 20
7.734485254
 30
0.0
  0
VERTEX
  5
6D0
330
2CE
100
AcDbEntity
  8
0
  6
CONTINUOUS
 62
     7
100
AcDbVertex
100
AcDb2dVertex
 10
8.1291426776
 20
7.7238521826
 30
0.0
  0
VERTEX
  5
6D1
330
2CE
100
AcDbEntity
  8
0
  6
CONTINUOUS
 62
     7
100
AcDbVertex
100
AcDb2dVertex
 10
8.1127920531
 20
7.7112051405
 30
0.0
  0
VERTEX
  5
6D2
330
2CE
100
AcDbEntity
  8
0
  6
CONTINUOUS
 62
     7
100
AcDbVertex
100
AcDb2dVertex
 10
8.0968552845
 20
7.6967031715
 30
0.0
  0
VERTEX
  5
6D3
330
2CE
100
AcDbEntity
  8
0
  6
CONTINUOUS
 62
     7
100
AcDbVertex
100
AcDb2dVertex
 10
8.0815327859
 20
7.6805286463
 30
0.0
  0
VERTEX
  5
6D4
330
2CE
100
AcDbEntity
  8
0
  6
CONTINUOUS
 62
     7
100
AcDbVertex
100
AcDb2dVertex
 10
8.0670172466
 20
7.6628849689
 30
0.0
  0
VERTEX
  5
6D5
330
2CE
100
AcDbEntity
  8
0
  6
CONTINUOUS
 62
     7
100
AcDbVertex
100
AcDb2dVertex
 10
8.0534912079
 20
7.6439940188
 30
0.0
  0
VERTEX
  5
6D6
330
2CE
100
AcDbEntity
  8
0
  6
CONTINUOUS
 62
     7
100
AcDbVertex
100
AcDb2dVertex
 10
8.0411247677
 20
7.6240933607
 30
0.0
  0
SEQEND
  5
6D7
330
2CE
100
AcDbEntity
  8
0
  6
CONTINUOUS
 62
     7
  0
SPLINE
  5
2CF
330
1F
100
AcDbEntity
  8
0
  6
CONTINUOUS
 62
     7
100
AcDbSpline
210
0.0
220
0.0
230
1.0
 70
     8
 71
     3
 72
    13
 73
     9
 74
     0
 42
0.00000001
 43
0.00000001
 40
0.0
 40
0.0
 40
0.0
 40
0.0
 40
0.1375818930099653
 40
0.2753313748940464
 40
0.5468470296706374
 40
0.7716607845555427
 40
0.9969139021904858
 40
1.0
 40
1.0
 40
1.0
 40
1.0
 10
7.39057660568356
 20
7.448581007036426
 30
0.0
 10
7.387572886634443
 20
7.450017625766147
 30
0.0
 10
7.381561789697951
 20
7.452892613174728
 30
0.0
 10
7.367809719481365
 20
7.45507014858099
 30
0.0
 10
7.350741104870653
 20
7.453382180648134
 30
0.0
 10
7.331849307960959
 20
7.44678026711081
 30
0.0
 10
7.31999870790092
 20
7.441725518524308
 30
0.0
 10
7.314617993997087
 20
7.437994549584183
 30
0.0
 10
7.314545271449802
 20
7.437944124014265
 30
0.0
  0
SPLINE
  5
2D0
330
1F
100
AcDbEntity
  8
0
  6
CONTINUOUS
 62
     7
100
AcDbSpline
210
0.0
220
0.0
230
1.0
 70
     8
 71
     3
 72
    25
 73
    21
 74
     0
 42
0.00000001
 43
0.00000001
 40
0.0
 40
0.0
 40
0.0
 40
0.0
 40
0.0616723677620234
 40
0.1460629243366255
 40
0.2303964206851765
 40
0.2970793140005469
 40
0.3636900118030243
 40
0.4165787386804232
 40
0.4694149686644193
 40
0.5136528448845902
 40
0.5578585471110421
 40
0.6023329062251325
 40
0.6467841331310914
 40
0.6864461360847514
 40
0.7261098485055509
 40
0.8019185609576401
 40
0.8812552307548768
 40
0.9257774548941359
 40
0.9703276985848555
 40
1.0
 40
1.0
 40
1.0
 40
1.0
 10
7.285247571112026
 20
7.416292749514533
 30
0.0
 10
7.279726412207202
 20
7.411333312523774
 30
0.0
 10
7.2666502705796
 20
7.399587535667457
 30
0.0
 10
7.249585705956727
 20
7.377266100445311
 30
0.0
 10
7.235344871266411
 20
7.352347931090221
 30
0.0
 10
7.225902977458939
 20
7.327541197962048
 30
0.0
 10
7.220959202570925
 20
7.305448415042337
 30
0.0
 10
7.21953405866787
 20
7.284771659364877
 30
0.0
 10
7.220885831894635
 20
7.267040602359549
 30
0.0
 10
7.224659717999606
 20
7.251136334686763
 30
0.0
 10
7.23030749318896
 20
7.237281342664949
 30
0.0
 10
7.238107465161702
 20
7.22512932225046
 30
0.0
 10
7.247426454888712
 20
7.215474346510976
 30
0.0
 10
7.257803774016281
 20
7.208610432754767
 30
0.0
 10
7.271991537102998
 20
7.203004876272149
 30
0.0
 10
7.29133454458578
 20
7.201919504065705
 30
0.0
 10
7.311130611943717
 20
7.208353145708903
 30
0.0
 10
7.326770362999199
 20
7.217866807928918
 30
0.0
 10
7.33739671282723
 20
7.225926661211329
 30
0.0
 10
7.343323222476699
 20
7.23228311633616
 30
0.0
 10
7.34569249154997
 20
7.234824266765949
 30
0.0
  0
SPLINE
  5
2D1
330
1F
100
AcDbEntity
  8
0
  6
CONTINUOUS
 62
     7
100
AcDbSpline
210
0.0
220
0.0
230
1.0
 70
     8
 71
     3
 72
    15
 73
    11
 74
     0
 42
0.00000001
 43
0.00000001
 40
0.0
 40
0.0
 40
0.0
 40
0.0
 40
0.0336437543504534
 40
0.2637271077578059
 40
0.4134155544408414
 40
0.5629032000615444
 40
0.6680696081343325
 40
0.7730662895715178
 40
0.9316718252664432
 40
1.0
 40
1.0
 40
1.0
 40
1.0
 10
7.404358227651814
 20
7.339504425724619
 30
0.0
 10
7.404836182757251
 20
7.340888190744795
 30
0.0
 10
7.408582783575988
 20
7.351735266335293
 30
0.0
 10
7.411724115410343
 20
7.368956260454601
 30
0.0
 10
7.413988064845789
 20
7.390511441077438
 30
0.0
 10
7.413491593480401
 20
7.406521899661887
 30
0.0
 10
7.411062089111054
 20
7.420025423586472
 30
0.0
 10
7.406434455914392
 20
7.432810429042521
 30
0.0
 10
7.399438608264097
 20
7.442746747502539
 30
0.0
 10
7.392627410380144
 20
7.447230868989811
 30
0.0
 10
7.390576605683561
 20
7.448581007036426
 30
0.0
  0
LINE
  5
2D2
330
1F
100
AcDbEntity
  8
0
  6
CONTINUOUS
 62
     7
100
AcDbLine
 10
7.5716922984
 20
7.8265442257
 30
0.0
 11
7.729521027
 21
7.73543164
 31
0.0
  0
ARC
  5
2D3
330
1F
100
AcDbEntity
  8
0
  6
CONTINUOUS
 62
     7
100
AcDbCircle
 10
7.781090531
 20
7.5113290362
 30
0.0
 40
0.3784286399498093
100
AcDbArc
 50
70.4334932533
 51
123.5961866801
  0
POLYLINE
  5
2D4
330
1F
100
AcDbEntity
  8
0
  6
CONTINUOUS
 62
     7
100
AcDb2dPolyline
 66
     1
 10
0.0
 20
0.0
 30
0.0
  0
VERTEX
  5
6D8
330
2D4
100
AcDbEntity
  8
0
  6
CONTINUOUS
 62
     7
100
AcDbVertex
100
AcDb2dVertex
 10
7.1612973599
 20
6.5747380278
 30
0.0
  0
VERTEX
  5
6D9
330
2D4
100
AcDbEntity
  8
0
  6
CONTINUOUS
 62
     7
100
AcDbVertex
100
AcDb2dVertex
 10
7.1550791837
 20
6.5794281529
 30
0.0
  0
VERTEX
  5
6DA
330
2D4
100
AcDbEntity
  8
0
  6
CONTINUOUS
 62
     7
100
AcDbVertex
100
AcDb2dVertex
 10
7.1359753265
 20
6.5958705673
 30
0.0
  0
VERTEX
  5
6DB
330
2D4
100
AcDbEntity
  8
0
  6
CONTINUOUS
 62
     7
100
AcDbVertex
100
AcDb2dVertex
 10
7.1182748921
 20
6.6143494253
 30
0.0
  0
VERTEX
  5
6DC
330
2D4
100
AcDbEntity
  8
0
  6
CONTINUOUS
 62
     7
100
AcDbVertex
100
AcDb2dVertex
 10
7.1020367741
 20
6.6348032434
 30
0.0
  0
VERTEX
  5
6DD
330
2D4
100
AcDbEntity
  8
0
  6
CONTINUOUS
 62
     7
100
AcDbVertex
100
AcDb2dVertex
 10
7.0873150008
 20
6.6571639666
 30
0.0
  0
VERTEX
  5
6DE
330
2D4
100
AcDbEntity
  8
0
  6
CONTINUOUS
 62
     7
100
AcDbVertex
100
AcDb2dVertex
 10
7.0741585549
 20
6.6813571955
 30
0.0
  0
VERTEX
  5
6DF
330
2D4
100
AcDbEntity
  8
0
  6
CONTINUOUS
 62
     7
100
AcDbVertex
100
AcDb2dVertex
 10
7.0626112113
 20
6.7073024333
 30
0.0
  0
VERTEX
  5
6E0
330
2D4
100
AcDbEntity
  8
0
  6
CONTINUOUS
 62
     7
100
AcDbVertex
100
AcDb2dVertex
 10
7.0527113907
 20
6.7349133538
 30
0.0
  0
VERTEX
  5
6E1
330
2D4
100
AcDbEntity
  8
0
  6
CONTINUOUS
 62
     7
100
AcDbVertex
100
AcDb2dVertex
 10
7.0444920322
 20
6.7640980889
 30
0.0
  0
VERTEX
  5
6E2
330
2D4
100
AcDbEntity
  8
0
  6
CONTINUOUS
 62
     7
100
AcDbVertex
100
AcDb2dVertex
 10
7.0379804836
 20
6.7947595339
 30
0.0
  0
VERTEX
  5
6E3
330
2D4
100
AcDbEntity
  8
0
  6
CONTINUOUS
 62
     7
100
AcDbVertex
100
AcDb2dVertex
 10
7.0331984105
 20
6.8267956707
 30
0.0
  0
VERTEX
  5
6E4
330
2D4
100
AcDbEntity
  8
0
  6
CONTINUOUS
 62
     7
100
AcDbVertex
100
AcDb2dVertex
 10
7.0301617239
 20
6.8600999072
 30
0.0
  0
VERTEX
  5
6E5
330
2D4
100
AcDbEntity
  8
0
  6
CONTINUOUS
 62
     7
100
AcDbVertex
100
AcDb2dVertex
 10
7.0288805276
 20
6.8945614323
 30
0.0
  0
VERTEX
  5
6E6
330
2D4
100
AcDbEntity
  8
0
  6
CONTINUOUS
 62
     7
100
AcDbVertex
100
AcDb2dVertex
 10
7.0293590845
 20
6.930065584
 30
0.0
  0
VERTEX
  5
6E7
330
2D4
100
AcDbEntity
  8
0
  6
CONTINUOUS
 62
     7
100
AcDbVertex
100
AcDb2dVertex
 10
7.0315958024
 20
6.9664942314
 30
0.0
  0
VERTEX
  5
6E8
330
2D4
100
AcDbEntity
  8
0
  6
CONTINUOUS
 62
     7
100
AcDbVertex
100
AcDb2dVertex
 10
7.0355832391
 20
7.0037261677
 30
0.0
  0
VERTEX
  5
6E9
330
2D4
100
AcDbEntity
  8
0
  6
CONTINUOUS
 62
     7
100
AcDbVertex
100
AcDb2dVertex
 10
7.0413081274
 20
7.041637513
 30
0.0
  0
VERTEX
  5
6EA
330
2D4
100
AcDbEntity
  8
0
  6
CONTINUOUS
 62
     7
100
AcDbVertex
100
AcDb2dVertex
 10
7.0487514192
 20
7.0801021271
 30
0.0
  0
VERTEX
  5
6EB
330
2D4
100
AcDbEntity
  8
0
  6
CONTINUOUS
 62
     7
100
AcDbVertex
100
AcDb2dVertex
 10
7.057888349
 20
7.118992029
 30
0.0
  0
VERTEX
  5
6EC
330
2D4
100
AcDbEntity
  8
0
  6
CONTINUOUS
 62
     7
100
AcDbVertex
100
AcDb2dVertex
 10
7.0686885159
 20
7.1581778225
 30
0.0
  0
VERTEX
  5
6ED
330
2D4
100
AcDbEntity
  8
0
  6
CONTINUOUS
 62
     7
100
AcDbVertex
100
AcDb2dVertex
 10
7.0811159851
 20
7.1975291269
 30
0.0
  0
VERTEX
  5
6EE
330
2D4
100
AcDbEntity
  8
0
  6
CONTINUOUS
 62
     7
100
AcDbVertex
100
AcDb2dVertex
 10
7.0951294075
 20
7.236915011
 30
0.0
  0
VERTEX
  5
6EF
330
2D4
100
AcDbEntity
  8
0
  6
CONTINUOUS
 62
     7
100
AcDbVertex
100
AcDb2dVertex
 10
7.110682157
 20
7.2762044282
 30
0.0
  0
VERTEX
  5
6F0
330
2D4
100
AcDbEntity
  8
0
  6
CONTINUOUS
 62
     7
100
AcDbVertex
100
AcDb2dVertex
 10
7.1277224858
 20
7.3152666533
 30
0.0
  0
VERTEX
  5
6F1
330
2D4
100
AcDbEntity
  8
0
  6
CONTINUOUS
 62
     7
100
AcDbVertex
100
AcDb2dVertex
 10
7.1461936966
 20
7.3539717166
 30
0.0
  0
VERTEX
  5
6F2
330
2D4
100
AcDbEntity
  8
0
  6
CONTINUOUS
 62
     7
100
AcDbVertex
100
AcDb2dVertex
 10
7.1660343312
 20
7.3921908371
 30
0.0
  0
VERTEX
  5
6F3
330
2D4
100
AcDbEntity
  8
0
  6
CONTINUOUS
 62
     7
100
AcDbVertex
100
AcDb2dVertex
 10
7.187178375
 20
7.4297968504
 30
0.0
  0
VERTEX
  5
6F4
330
2D4
100
AcDbEntity
  8
0
  6
CONTINUOUS
 62
     7
100
AcDbVertex
100
AcDb2dVertex
 10
7.2095554766
 20
7.4666646323
 30
0.0
  0
VERTEX
  5
6F5
330
2D4
100
AcDbEntity
  8
0
  6
CONTINUOUS
 62
     7
100
AcDbVertex
100
AcDb2dVertex
 10
7.2330911821
 20
7.5026715146
 30
0.0
  0
VERTEX
  5
6F6
330
2D4
100
AcDbEntity
  8
0
  6
CONTINUOUS
 62
     7
100
AcDbVertex
100
AcDb2dVertex
 10
7.2577071823
 20
7.5376976938
 30
0.0
  0
VERTEX
  5
6F7
330
2D4
100
AcDbEntity
  8
0
  6
CONTINUOUS
 62
     7
100
AcDbVertex
100
AcDb2dVertex
 10
7.2833215739
 20
7.5716266292
 30
0.0
  0
VERTEX
  5
6F8
330
2D4
100
AcDbEntity
  8
0
  6
CONTINUOUS
 62
     7
100
AcDbVertex
100
AcDb2dVertex
 10
7.3098491315
 20
7.604345431
 30
0.0
  0
VERTEX
  5
6F9
330
2D4
100
AcDbEntity
  8
0
  6
CONTINUOUS
 62
     7
100
AcDbVertex
100
AcDb2dVertex
 10
7.3372015917
 20
7.6357452359
 30
0.0
  0
VERTEX
  5
6FA
330
2D4
100
AcDbEntity
  8
0
  6
CONTINUOUS
 62
     7
100
AcDbVertex
100
AcDb2dVertex
 10
7.365287946
 20
7.665721569
 30
0.0
  0
VERTEX
  5
6FB
330
2D4
100
AcDbEntity
  8
0
  6
CONTINUOUS
 62
     7
100
AcDbVertex
100
AcDb2dVertex
 10
7.3940147443
 20
7.6941746918
 30
0.0
  0
VERTEX
  5
6FC
330
2D4
100
AcDbEntity
  8
0
  6
CONTINUOUS
 62
     7
100
AcDbVertex
100
AcDb2dVertex
 10
7.4232864058
 20
7.721009934
 30
0.0
  0
VERTEX
  5
6FD
330
2D4
100
AcDbEntity
  8
0
  6
CONTINUOUS
 62
     7
100
AcDbVertex
100
AcDb2dVertex
 10
7.4530055363
 20
7.7461380081
 30
0.0
  0
VERTEX
  5
6FE
330
2D4
100
AcDbEntity
  8
0
  6
CONTINUOUS
 62
     7
100
AcDbVertex
100
AcDb2dVertex
 10
7.4830732532
 20
7.7694753068
 30
0.0
  0
VERTEX
  5
6FF
330
2D4
100
AcDbEntity
  8
0
  6
CONTINUOUS
 62
     7
100
AcDbVertex
100
AcDb2dVertex
 10
7.5133895138
 20
7.7909441815
 30
0.0
  0
VERTEX
  5
700
330
2D4
100
AcDbEntity
  8
0
  6
CONTINUOUS
 62
     7
100
AcDbVertex
100
AcDb2dVertex
 10
7.5438534487
 20
7.8104731999
 30
0.0
  0
SEQEND
  5
701
330
2D4
100
AcDbEntity
  8
0
  6
CONTINUOUS
 62
     7
  0
LINE
  5
2D5
330
1F
100
AcDbEntity
  8
0
  6
CONTINUOUS
 62
     7
100
AcDbLine
 10
7.5438534487
 20
7.8104731999
 30
0.0
 11
7.707811781
 21
7.7158220693
 31
0.0
  0
LINE
  5
2D6
330
1F
100
AcDbEntity
  8
0
  6
CONTINUOUS
 62
     7
100
AcDbLine
 10
7.4391096439
 20
6.3398497905
 30
0.0
 11
7.4643220936
 21
6.3252902216
 31
0.0
  0
LINE
  5
2D7
330
1F
100
AcDbEntity
  8
0
  6
CONTINUOUS
 62
     7
100
AcDbLine
 10
7.5716922984
 20
7.8265442257
 30
0.0
 11
7.5610856966
 21
7.8204148442
 31
0.0
  0
ARC
  5
2D8
330
1F
100
AcDbEntity
  8
0
  6
CONTINUOUS
 62
     7
100
AcDbCircle
 10
8.1557150598
 20
6.8635904344
 30
0.0
 40
1.128044150545318
100
AcDbArc
 50
123.4914075276
 51
177.3971149394
  0
LINE
  5
2D9
330
1F
100
AcDbEntity
  8
0
  6
CONTINUOUS
 62
     7
100
AcDbLine
 10
7.5438534487
 20
7.8104731999
 30
0.0
 11
7.533246847
 21
7.8043438184
 31
0.0
  0
LINE
  5
2DA
330
1F
100
AcDbEntity
  8
0
  6
CONTINUOUS
 62
     7
100
AcDbLine
 10
7.5610856966
 20
7.8204148442
 30
0.0
 11
7.5610856966
 21
7.8005252349
 31
0.0
  0
ARC
  5
2DB
330
1F
100
AcDbEntity
  8
0
  6
CONTINUOUS
 62
     8
100
AcDbCircle
 10
8.2020576372
 20
6.8330414496
 30
0.0
 40
0.0811450607980135
100
AcDbArc
 50
185.092514972
 51
246.9096348206
  0
ARC
  5
2DC
330
1F
100
AcDbEntity
  8
0
  6
CONTINUOUS
 62
     8
100
AcDbCircle
 10
8.2878731667
 20
6.9795739813
 30
0.0
 40
0.2505158320114825
100
AcDbArc
 50
241.9924521143
 51
301.3178742534
  0
POLYLINE
  5
2DD
330
1F
100
AcDbEntity
  8
0
  6
CONTINUOUS
 62
     8
100
AcDb2dPolyline
 66
     1
 10
0.0
 20
0.0
 30
0.0
  0
VERTEX
  5
702
330
2DD
100
AcDbEntity
  8
0
  6
CONTINUOUS
 62
     8
100
AcDbVertex
100
AcDb2dVertex
 10
8.1901238839
 20
5.966759351
 30
0.0
  0
VERTEX
  5
703
330
2DD
100
AcDbEntity
  8
0
  6
CONTINUOUS
 62
     8
100
AcDbVertex
100
AcDb2dVertex
 10
8.1903034553
 20
5.9633286655
 30
0.0
  0
VERTEX
  5
704
330
2DD
100
AcDbEntity
  8
0
  6
CONTINUOUS
 62
     8
100
AcDbVertex
100
AcDb2dVertex
 10
8.192528997
 20
5.954275207
 30
0.0
  0
VERTEX
  5
705
330
2DD
100
AcDbEntity
  8
0
  6
CONTINUOUS
 62
     8
100
AcDbVertex
100
AcDb2dVertex
 10
8.1972414084
 20
5.9455450813
 30
0.0
  0
VERTEX
  5
706
330
2DD
100
AcDbEntity
  8
0
  6
CONTINUOUS
 62
     8
100
AcDbVertex
100
AcDb2dVertex
 10
8.2043186406
 20
5.937364394
 30
0.0
  0
VERTEX
  5
707
330
2DD
100
AcDbEntity
  8
0
  6
CONTINUOUS
 62
     8
100
AcDbVertex
100
AcDb2dVertex
 10
8.2135773969
 20
5.9299450207
 30
0.0
  0
VERTEX
  5
708
330
2DD
100
AcDbEntity
  8
0
  6
CONTINUOUS
 62
     8
100
AcDbVertex
100
AcDb2dVertex
 10
8.2247778804
 20
5.9234791191
 30
0.0
  0
VERTEX
  5
709
330
2DD
100
AcDbEntity
  8
0
  6
CONTINUOUS
 62
     8
100
AcDbVertex
100
AcDb2dVertex
 10
8.2376300046
 20
5.9181341529
 30
0.0
  0
VERTEX
  5
70A
330
2DD
100
AcDbEntity
  8
0
  6
CONTINUOUS
 62
     8
100
AcDbVertex
100
AcDb2dVertex
 10
8.251800906
 20
5.9140485537
 30
0.0
  0
VERTEX
  5
70B
330
2DD
100
AcDbEntity
  8
0
  6
CONTINUOUS
 62
     8
100
AcDbVertex
100
AcDb2dVertex
 10
8.2669235659
 20
5.9113281365
 30
0.0
  0
VERTEX
  5
70C
330
2DD
100
AcDbEntity
  8
0
  6
CONTINUOUS
 62
     8
100
AcDbVertex
100
AcDb2dVertex
 10
8.2826063153
 20
5.9100433587
 30
0.0
  0
VERTEX
  5
70D
330
2DD
100
AcDbEntity
  8
0
  6
CONTINUOUS
 62
     8
100
AcDbVertex
100
AcDb2dVertex
 10
8.2984429791
 20
5.9102274952
 30
0.0
  0
VERTEX
  5
70E
330
2DD
100
AcDbEntity
  8
0
  6
CONTINUOUS
 62
     8
100
AcDbVertex
100
AcDb2dVertex
 10
8.3105871663
 20
5.9113823155
 30
0.0
  0
SEQEND
  5
70F
330
2DD
100
AcDbEntity
  8
0
  6
CONTINUOUS
 62
     8
  0
POLYLINE
  5
2DE
330
1F
100
AcDbEntity
  8
0
  6
CONTINUOUS
 62
     8
100
AcDb2dPolyline
 66
     1
 10
0.0
 20
0.0
 30
0.0
  0
VERTEX
  5
710
330
2DE
100
AcDbEntity
  8
0
  6
CONTINUOUS
 62
     8
100
AcDbVertex
100
AcDb2dVertex
 10
7.3350620763
 20
7.2718704091
 30
0.0
  0
VERTEX
  5
711
330
2DE
100
AcDbEntity
  8
0
  6
CONTINUOUS
 62
     8
100
AcDbVertex
100
AcDb2dVertex
 10
7.3251204392
 20
7.278642834
 30
0.0
  0
VERTEX
  5
712
330
2DE
100
AcDbEntity
  8
0
  6
CONTINUOUS
 62
     8
100
AcDbVertex
100
AcDb2dVertex
 10
7.3154983345
 20
7.2872640673
 30
0.0
  0
VERTEX
  5
713
330
2DE
100
AcDbEntity
  8
0
  6
CONTINUOUS
 62
     8
100
AcDbVertex
100
AcDb2dVertex
 10
7.3065050246
 20
7.2974570156
 30
0.0
  0
VERTEX
  5
714
330
2DE
100
AcDbEntity
  8
0
  6
CONTINUOUS
 62
     8
100
AcDbVertex
100
AcDb2dVertex
 10
7.2984295618
 20
7.3088940691
 30
0.0
  0
VERTEX
  5
715
330
2DE
100
AcDbEntity
  8
0
  6
CONTINUOUS
 62
     8
100
AcDbVertex
100
AcDb2dVertex
 10
7.2915314981
 20
7.3212076316
 30
0.0
  0
VERTEX
  5
716
330
2DE
100
AcDbEntity
  8
0
  6
CONTINUOUS
 62
     8
100
AcDbVertex
100
AcDb2dVertex
 10
7.2860325431
 20
7.3340019349
 30
0.0
  0
VERTEX
  5
717
330
2DE
100
AcDbEntity
  8
0
  6
CONTINUOUS
 62
     8
100
AcDbVertex
100
AcDb2dVertex
 10
7.2821094376
 20
7.3468657597
 30
0.0
  0
VERTEX
  5
718
330
2DE
100
AcDbEntity
  8
0
  6
CONTINUOUS
 62
     8
100
AcDbVertex
100
AcDb2dVertex
 10
7.2798882734
 20
7.359385652
 30
0.0
  0
VERTEX
  5
719
330
2DE
100
AcDbEntity
  8
0
  6
CONTINUOUS
 62
     8
100
AcDbVertex
100
AcDb2dVertex
 10
7.2794404407
 20
7.3711592121
 30
0.0
  0
VERTEX
  5
71A
330
2DE
100
AcDbEntity
  8
0
  6
CONTINUOUS
 62
     8
100
AcDbVertex
100
AcDb2dVertex
 10
7.2807803332
 20
7.3818080283
 30
0.0
  0
VERTEX
  5
71B
330
2DE
100
AcDbEntity
  8
0
  6
CONTINUOUS
 62
     8
100
AcDbVertex
100
AcDb2dVertex
 10
7.2838648855
 20
7.3909898388
 30
0.0
  0
VERTEX
  5
71C
330
2DE
100
AcDbEntity
  8
0
  6
CONTINUOUS
 62
     8
100
AcDbVertex
100
AcDb2dVertex
 10
7.2885949576
 20
7.3984095325
 30
0.0
  0
VERTEX
  5
71D
330
2DE
100
AcDbEntity
  8
0
  6
CONTINUOUS
 62
     8
100
AcDbVertex
100
AcDb2dVertex
 10
7.2948185212
 20
7.4038286346
 30
0.0
  0
VERTEX
  5
71E
330
2DE
100
AcDbEntity
  8
0
  6
CONTINUOUS
 62
     8
100
AcDbVertex
100
AcDb2dVertex
 10
7.3023355458
 20
7.4070729705
 30
0.0
  0
VERTEX
  5
71F
330
2DE
100
AcDbEntity
  8
0
  6
CONTINUOUS
 62
     8
100
AcDbVertex
100
AcDb2dVertex
 10
7.3109044279
 20
7.4080382646
 30
0.0
  0
VERTEX
  5
720
330
2DE
100
AcDbEntity
  8
0
  6
CONTINUOUS
 62
     8
100
AcDbVertex
100
AcDb2dVertex
 10
7.3202497568
 20
7.4066934917
 30
0.0
  0
VERTEX
  5
721
330
2DE
100
AcDbEntity
  8
0
  6
CONTINUOUS
 62
     8
100
AcDbVertex
100
AcDb2dVertex
 10
7.3300711658
 20
7.4030818737
 30
0.0
  0
VERTEX
  5
722
330
2DE
100
AcDbEntity
  8
0
  6
CONTINUOUS
 62
     8
100
AcDbVertex
100
AcDb2dVertex
 10
7.3400529868
 20
7.3973194911
 30
0.0
  0
VERTEX
  5
723
330
2DE
100
AcDbEntity
  8
0
  6
CONTINUOUS
 62
     8
100
AcDbVertex
100
AcDb2dVertex
 10
7.3498743958
 20
7.3895915516
 30
0.0
  0
VERTEX
  5
724
330
2DE
100
AcDbEntity
  8
0
  6
CONTINUOUS
 62
     8
100
AcDbVertex
100
AcDb2dVertex
 10
7.3592197247
 20
7.3801464375
 30
0.0
  0
VERTEX
  5
725
330
2DE
100
AcDbEntity
  8
0
  6
CONTINUOUS
 62
     8
100
AcDbVertex
100
AcDb2dVertex
 10
7.3677886068
 20
7.3692877226
 30
0.0
  0
VERTEX
  5
726
330
2DE
100
AcDbEntity
  8
0
  6
CONTINUOUS
 62
     8
100
AcDbVertex
100
AcDb2dVertex
 10
7.3753056314
 20
7.3573644149
 30
0.0
  0
VERTEX
  5
727
330
2DE
100
AcDbEntity
  8
0
  6
CONTINUOUS
 62
     8
100
AcDbVertex
100
AcDb2dVertex
 10
7.381529195
 20
7.3447597393
 30
0.0
  0
VERTEX
  5
728
330
2DE
100
AcDbEntity
  8
0
  6
CONTINUOUS
 62
     8
100
AcDbVertex
100
AcDb2dVertex
 10
7.3862592671
 20
7.3318788205
 30
0.0
  0
VERTEX
  5
729
330
2DE
100
AcDbEntity
  8
0
  6
CONTINUOUS
 62
     8
100
AcDbVertex
100
AcDb2dVertex
 10
7.3893438194
 20
7.3191356617
 30
0.0
  0
VERTEX
  5
72A
330
2DE
100
AcDbEntity
  8
0
  6
CONTINUOUS
 62
     8
100
AcDbVertex
100
AcDb2dVertex
 10
7.3899132103
 20
7.3155375386
 30
0.0
  0
SEQEND
  5
72B
330
2DE
100
AcDbEntity
  8
0
  6
CONTINUOUS
 62
     8
  0
ARC
  5
2DF
330
1F
100
AcDbEntity
  8
0
  6
CONTINUOUS
 62
     8
100
AcDbCircle
 10
7.3612591709
 20
7.3134208362
 30
0.0
 40
0.0491195048104296
100
AcDbArc
 50
237.7690124027
 51
269.7726526942
  0
POLYLINE
  5
2E0
330
1F
100
AcDbEntity
  8
0
  6
CONTINUOUS
 62
     8
100
AcDb2dPolyline
 66
     1
 10
0.0
 20
0.0
 30
0.0
  0
VERTEX
  5
72C
330
2E0
100
AcDbEntity
  8
0
  6
CONTINUOUS
 62
     8
100
AcDbVertex
100
AcDb2dVertex
 10
7.4096507934
 20
7.3485574189
 30
0.0
  0
VERTEX
  5
72D
330
2E0
100
AcDbEntity
  8
0
  6
CONTINUOUS
 62
     8
100
AcDbVertex
100
AcDb2dVertex
 10
7.4092543787
 20
7.3495897777
 30
0.0
  0
VERTEX
  5
72E
330
2E0
100
AcDbEntity
  8
0
  6
CONTINUOUS
 62
     8
100
AcDbVertex
100
AcDb2dVertex
 10
7.4028917788
 20
7.3639072235
 30
0.0
  0
VERTEX
  5
72F
330
2E0
100
AcDbEntity
  8
0
  6
CONTINUOUS
 62
     8
100
AcDbVertex
100
AcDb2dVertex
 10
7.3951329311
 20
7.3777142749
 30
0.0
  0
VERTEX
  5
730
330
2E0
100
AcDbEntity
  8
0
  6
CONTINUOUS
 62
     8
100
AcDbVertex
100
AcDb2dVertex
 10
7.3861787856
 20
7.3906533364
 30
0.0
  0
VERTEX
  5
731
330
2E0
100
AcDbEntity
  8
0
  6
CONTINUOUS
 62
     8
100
AcDbVertex
100
AcDb2dVertex
 10
7.3762612499
 20
7.4023892932
 30
0.0
  0
VERTEX
  5
732
330
2E0
100
AcDbEntity
  8
0
  6
CONTINUOUS
 62
     8
100
AcDbVertex
100
AcDb2dVertex
 10
7.3656371831
 20
7.4126181902
 30
0.0
  0
VERTEX
  5
733
330
2E0
100
AcDbEntity
  8
0
  6
CONTINUOUS
 62
     8
100
AcDbVertex
100
AcDb2dVertex
 10
7.3545817429
 20
7.4210751043
 30
0.0
  0
VERTEX
  5
734
330
2E0
100
AcDbEntity
  8
0
  6
CONTINUOUS
 62
     8
100
AcDbVertex
100
AcDb2dVertex
 10
7.3433812594
 20
7.4275410058
 30
0.0
  0
VERTEX
  5
735
330
2E0
100
AcDbEntity
  8
0
  6
CONTINUOUS
 62
     8
100
AcDbVertex
100
AcDb2dVertex
 10
7.3323258191
 20
7.4318484313
 30
0.0
  0
VERTEX
  5
736
330
2E0
100
AcDbEntity
  8
0
  6
CONTINUOUS
 62
     8
100
AcDbVertex
100
AcDb2dVertex
 10
7.3217017523
 20
7.4338858208
 30
0.0
  0
VERTEX
  5
737
330
2E0
100
AcDbEntity
  8
0
  6
CONTINUOUS
 62
     8
100
AcDbVertex
100
AcDb2dVertex
 10
7.3117842167
 20
7.4336004069
 30
0.0
  0
VERTEX
  5
738
330
2E0
100
AcDbEntity
  8
0
  6
CONTINUOUS
 62
     8
100
AcDbVertex
100
AcDb2dVertex
 10
7.3028300712
 20
7.4309995817
 30
0.0
  0
VERTEX
  5
739
330
2E0
100
AcDbEntity
  8
0
  6
CONTINUOUS
 62
     8
100
AcDbVertex
100
AcDb2dVertex
 10
7.2993644537
 20
7.4292017651
 30
0.0
  0
SEQEND
  5
73A
330
2E0
100
AcDbEntity
  8
0
  6
CONTINUOUS
 62
     8
  0
LINE
  5
2E1
330
1F
100
AcDbEntity
  8
0
  6
CONTINUOUS
 62
     8
100
AcDbLine
 10
8.0824070368
 20
7.600261614
 30
0.0
 11
8.0411247677
 21
7.6240933607
 31
0.0
  0
LINE
  5
2E2
330
1F
100
AcDbEntity
  8
0
  6
CONTINUOUS
 62
     8
100
AcDbLine
 10
7.4803978624
 20
6.5575374013
 30
0.0
 11
7.4391096439
 21
6.5813725825
 31
0.0
  0
LINE
  5
2E3
330
1F
100
AcDbEntity
  8
0
  6
CONTINUOUS
 62
     8
100
AcDbLine
 10
7.4643219159
 20
6.3252950557
 30
0.0
 11
7.4391096439
 21
6.3398497905
 31
0.0
  0
ENDSEC
  0
SECTION
  2
OBJECTS
  0
DICTIONARY
  5
C
330
0
100
AcDbDictionary
  3
ACAD_GROUP
350
D
  3
ACAD_LAYOUT
350
1A
  3
ACAD_MLEADERSTYLE
350
2E6
  3
ACAD_MLINESTYLE
350
17
  3
ACAD_PLOTSETTINGS
350
19
  3
ACAD_SCALELIST
350
6F
  3
ACAD_VISUALSTYLE
350
2A
  3
ACDBVARIABLEDICTIONARY
350
2E4
1001
ACAD
1000
TREAT_AS_HARD
1070
     0
  0
DICTIONARY
  5
D
102
{ACAD_REACTORS
330
C
102
}
330
C
100
AcDbDictionary
1001
ACAD
1000
TREAT_AS_HARD
1070
     0
  0
DICTIONARY
  5
1A
102
{ACAD_REACTORS
330
C
102
}
330
C
100
AcDbDictionary
1001
ACAD
1000
TREAT_AS_HARD
1070
     0
  0
DICTIONARY
  5
2E6
102
{ACAD_REACTORS
330
C
102
}
330
C
100
AcDbDictionary
1001
ACAD
1000
TREAT_AS_HARD
1070
     0
  0
DICTIONARY
  5
17
102
{ACAD_REACTORS
330
C
102
}
330
C
100
AcDbDictionary
  3
STANDARD
350
18
1001
ACAD
1000
TREAT_AS_HARD
1070
     0
  0
DICTIONARY
  5
19
102
{ACAD_REACTORS
330
C
102
}
330
C
100
AcDbDictionary
1001
ACAD
1000
TREAT_AS_HARD
1070
     0
  0
DICTIONARY
  5
6F
102
{ACAD_REACTORS
330
C
102
}
330
C
100
AcDbDictionary
  3
A0
350
70
  3
A1
350
71
  3
A2
350
72
  3
A3
350
73
  3
A4
350
74
  3
A5
350
75
  3
A6
350
76
  3
A7
350
77
  3
A8
350
78
  3
A9
350
79
  3
B0
350
7A
  3
B1
350
7B
  3
B2
350
7C
  3
B3
350
7D
  3
B4
350
7E
  3
B5
350
7F
  3
B6
350
80
  3
B7
350
81
  3
B8
350
82
  3
B9
350
83
  3
C0
350
84
  3
C1
350
85
  3
C2
350
86
  3
C3
350
87
  3
C4
350
88
  3
C5
350
89
  3
C6
350
8A
  3
C7
350
8B
  3
C8
350
8C
  3
C9
350
8D
  3
D0
350
8E
  3
D1
350
8F
  3
D2
350
90
1001
ACAD
1000
TREAT_AS_HARD
1070
     0
  0
DICTIONARY
  5
2A
102
{ACAD_REACTORS
330
C
102
}
330
C
100
AcDbDictionary
  3
2DWIREFRAME
350
2F
  3
3D_HIDDEN
350
31
  3
3DWIREFRAME
350
30
  3
BASIC
350
32
  3
BRIGHTEN
350
36
  3
COLORCHANGE
350
3A
  3
CONCEPTUAL
350
34
  3
DIM
350
35
  3
FACEPATTERN
350
39
  3
FLAT
350
2B
  3
FLATWITHEDGES
350
2C
  3
GOURAUD
350
2D
  3
GOURAUDWITHEDGES
350
2E
  3
LINEPATTERN
350
38
  3
REALISTIC
350
33
  3
THICKEN
350
37
1001
ACAD
1000
TREAT_AS_HARD
1070
     0
  0
DICTIONARY
  5
2E4
102
{ACAD_REACTORS
330
C
102
}
330
C
100
AcDbDictionary
  3
CANNOSCALE
350
2E7
  3
DIMASSOC
350
2E8
  3
HIDETEXT
350
2E9
1001
ACAD
1000
TREAT_AS_HARD
1070
     0
  0
MLINESTYLE
  5
18
102
{ACAD_REACTORS
330
17
102
}
330
17
100
AcDbMlineStyle
  2
Standard
 70
     0
  3

 62
   256
 51
90.0
 52
90.0
 71
     2
 49
0.5
 62
   256
  6
BYLAYER
 49
-0.5
 62
   256
  6
BYLAYER
  0
ACAD_PROXY_OBJECT
  5
70
102
{ACAD_REACTORS
330
6F
102
}
330
6F
100
AcDbZombieObject
 90
      499
 91
      502
 93
       41
310
903313A31580
  0
ACAD_PROXY_OBJECT
  5
71
102
{ACAD_REACTORS
330
6F
102
}
330
6F
100
AcDbZombieObject
 90
      499
 91
      502
 93
      105
310
903313A324000000000000004000
  0
ACAD_PROXY_OBJECT
  5
72
102
{ACAD_REACTORS
330
6F
102
}
330
6F
100
AcDbZombieObject
 90
      499
 91
      502
 93
      105
310
903313A344000000000000104000
  0
ACAD_PROXY_OBJECT
  5
73
102
{ACAD_REACTORS
330
6F
102
}
330
6F
100
AcDbZombieObject
 90
      499
 91
      502
 93
      105
310
903313A354000000000000144000
  0
ACAD_PROXY_OBJECT
  5
74
102
{ACAD_REACTORS
330
6F
102
}
330
6F
100
AcDbZombieObject
 90
      499
 91
      502
 93
      105
310
903313A384000000000000204000
  0
ACAD_PROXY_OBJECT
  5
75
102
{ACAD_REACTORS
330
6F
102
}
330
6F
100
AcDbZombieObject
 90
      499
 91
      502
 93
      113
310
904313A31304000000000000244000
  0
ACAD_PROXY_OBJECT
  5
76
102
{ACAD_REACTORS
330
6F
102
}
330
6F
100
AcDbZombieObject
 90
      499
 91
      502
 93
      113
310
904313A31364000000000000304000
  0
ACAD_PROXY_OBJECT
  5
77
102
{ACAD_REACTORS
330
6F
102
}
330
6F
100
AcDbZombieObject
 90
      499
 91
      502
 93
      113
310
904313A32304000000000000344000
  0
ACAD_PROXY_OBJECT
  5
78
102
{ACAD_REACTORS
330
6F
102
}
330
6F
100
AcDbZombieObject
 90
      499
 91
      502
 93
      113
310
904313A333040000000000003E4000
  0
ACAD_PROXY_OBJECT
  5
79
102
{ACAD_REACTORS
330
6F
102
}
330
6F
100
AcDbZombieObject
 90
      499
 91
      502
 93
      113
310
904313A34304000000000000444000
  0
ACAD_PROXY_OBJECT
  5
7A
102
{ACAD_REACTORS
330
6F
102
}
330
6F
100
AcDbZombieObject
 90
      499
 91
      502
 93
      113
310
904313A35304000000000000494000
  0
ACAD_PROXY_OBJECT
  5
7B
102
{ACAD_REACTORS
330
6F
102
}
330
6F
100
AcDbZombieObject
 90
      499
 91
      502
 93
      121
310
905313A3130304000000000000594000
  0
ACAD_PROXY_OBJECT
  5
7C
102
{ACAD_REACTORS
330
6F
102
}
330
6F
100
AcDbZombieObject
 90
      499
 91
      502
 93
      105
310
903323A310000000000000010100
  0
ACAD_PROXY_OBJECT
  5
7D
102
{ACAD_REACTORS
330
6F
102
}
330
6F
100
AcDbZombieObject
 90
      499
 91
      502
 93
      105
310
903343A310000000000000410100
  0
ACAD_PROXY_OBJECT
  5
7E
102
{ACAD_REACTORS
330
6F
102
}
330
6F
100
AcDbZombieObject
 90
      499
 91
      502
 93
      105
310
903383A310000000000000810100
  0
ACAD_PROXY_OBJECT
  5
7F
102
{ACAD_REACTORS
330
6F
102
}
330
6F
100
AcDbZombieObject
 90
      499
 91
      502
 93
      113
310
90431303A310000000000000910100
  0
ACAD_PROXY_OBJECT
  5
80
102
{ACAD_REACTORS
330
6F
102
}
330
6F
100
AcDbZombieObject
 90
      499
 91
      502
 93
      121
310
9053130303A310000000000001650100
  0
ACAD_PROXY_OBJECT
  5
81
102
{ACAD_REACTORS
330
6F
102
}
330
6F
100
AcDbZombieObject
 90
      499
 91
      502
 93
      257
310
90E312F31323822203D2031272D3022000000000000200FC000000000000284000
  0
ACAD_PROXY_OBJECT
  5
82
102
{ACAD_REACTORS
330
6F
102
}
330
6F
100
AcDbZombieObject
 90
      499
 91
      502
 93
      249
310
90D312F363422203D2031272D3022000000000000240FC000000000000284000
  0
ACAD_PROXY_OBJECT
  5
83
102
{ACAD_REACTORS
330
6F
102
}
330
6F
100
AcDbZombieObject
 90
      499
 91
      502
 93
      249
310
90D312F333222203D2031272D3022000000000000280FC000000000000284000
  0
ACAD_PROXY_OBJECT
  5
84
102
{ACAD_REACTORS
330
6F
102
}
330
6F
100
AcDbZombieObject
 90
      499
 91
      502
 93
      249
310
90D312F313622203D2031272D30220000000000002C0FC000000000000284000
  0
ACAD_PROXY_OBJECT
  5
85
102
{ACAD_REACTORS
330
6F
102
}
330
6F
100
AcDbZombieObject
 90
      499
 91
      502
 93
      249
310
90D332F333222203D2031272D30220000000000002E0FC000000000000284000
  0
ACAD_PROXY_OBJECT
  5
86
102
{ACAD_REACTORS
330
6F
102
}
330
6F
100
AcDbZombieObject
 90
      499
 91
      502
 93
      241
310
90C312F3822203D2031272D3022000000000000300FC000000000000284000
  0
ACAD_PROXY_OBJECT
  5
87
102
{ACAD_REACTORS
330
6F
102
}
330
6F
100
AcDbZombieObject
 90
      499
 91
      502
 93
      249
310
90D332F313622203D2031272D3022000000000000320FC000000000000284000
  0
ACAD_PROXY_OBJECT
  5
88
102
{ACAD_REACTORS
330
6F
102
}
330
6F
100
AcDbZombieObject
 90
      499
 91
      502
 93
      241
310
90C312F3422203D2031272D3022000000000000340FC000000000000284000
  0
ACAD_PROXY_OBJECT
  5
89
102
{ACAD_REACTORS
330
6F
102
}
330
6F
100
AcDbZombieObject
 90
      499
 91
      502
 93
      241
310
90C332F3822203D2031272D3022000000000000360FC000000000000284000
  0
ACAD_PROXY_OBJECT
  5
8A
102
{ACAD_REACTORS
330
6F
102
}
330
6F
100
AcDbZombieObject
 90
      499
 91
      502
 93
      241
310
90C312F3222203D2031272D3022000000000000380FC000000000000284000
  0
ACAD_PROXY_OBJECT
  5
8B
102
{ACAD_REACTORS
330
6F
102
}
330
6F
100
AcDbZombieObject
 90
      499
 91
      502
 93
      241
310
90C332F3422203D2031272D30220000000000003A0FC000000000000284000
  0
ACAD_PROXY_OBJECT
  5
8C
102
{ACAD_REACTORS
330
6F
102
}
330
6F
100
AcDbZombieObject
 90
      499
 91
      502
 93
      161
310
90A3122203D2031272D30224000000000000284000
  0
ACAD_PROXY_OBJECT
  5
8D
102
{ACAD_REACTORS
330
6F
102
}
330
6F
100
AcDbZombieObject
 90
      499
 91
      502
 93
      257
310
90E312D312F3222203D2031272D30220000000000003E0FC000000000000284000
  0
ACAD_PROXY_OBJECT
  5
8E
102
{ACAD_REACTORS
330
6F
102
}
330
6F
100
AcDbZombieObject
 90
      499
 91
      502
 93
      225
310
90A3322203D2031272D302200000000000002100000000000000284000
  0
ACAD_PROXY_OBJECT
  5
8F
102
{ACAD_REACTORS
330
6F
102
}
330
6F
100
AcDbZombieObject
 90
      499
 91
      502
 93
      225
310
90A3622203D2031272D302200000000000006100000000000000284000
  0
ACAD_PROXY_OBJECT
  5
90
102
{ACAD_REACTORS
330
6F
102
}
330
6F
100
AcDbZombieObject
 90
      499
 91
      502
 93
      249
310
90D31272D3022203D2031272D30220000000000000A100000000000000284000
  0
ACAD_PROXY_OBJECT
  5
2F
102
{ACAD_REACTORS
330
2A
102
}
330
2A
100
AcDbZombieObject
 90
      499
 91
      501
 93
      436
310
42CC9915DA5C99599C985B595049028333333333333E3BF0000000000000FB0107901411070040501600405405064090741402480A0340
1001
ACAD
1000
AcDbSavedByObjectVersion
1070
     0
  0
ACAD_PROXY_OBJECT
  5
31
102
{ACAD_REACTORS
330
2A
102
}
330
2A
100
AcDbZombieObject
 90
      499
 91
      501
 93
      500
310
424CD108121A5919195B90640502408333333333333E3BF0000000000000FB01079024090700405020000000000001110200405405064090740C02480A0340
1001
ACAD
1000
AcDbSavedByObjectVersion
1070
     0
  0
ACAD_PROXY_OBJECT
  5
30
102
{ACAD_REACTORS
330
2A
102
}
330
2A
100
AcDbZombieObject
 90
      499
 91
      501
 93
      436
310
42CCD915DA5C99599C985B595059028333333333333E3BF0000000000000FB0107901411070040501600405405064090741402480A0340
1001
ACAD
1000
AcDbSavedByObjectVersion
1070
     0
  0
ACAD_PROXY_OBJECT
  5
32
102
{ACAD_REACTORS
330
2A
102
}
330
2A
100
AcDbZombieObject
 90
      499
 91
      501
 93
      388
310
4150985CDA58D07406404333333333333E3BF0000000000000FB0107A41107004050150841D405064090741402480A0350
1001
ACAD
1000
AcDbSavedByObjectVersion
1070
     0
  0
ACAD_PROXY_OBJECT
  5
36
102
{ACAD_REACTORS
330
2A
102
}
330
2A
100
AcDbZombieObject
 90
      499
 91
      501
 93
      428
310
42109C9A59DA1D195B90C409028333333333333E3BF0000000000000FB010790141107004050150841D405064090741402480A029950
1001
ACAD
1000
AcDbSavedByObjectVersion
1070
     0
  0
ACAD_PROXY_OBJECT
  5
3A
102
{ACAD_REACTORS
330
2A
102
}
330
2A
100
AcDbZombieObject
 90
      499
 91
      501
 93
      452
310
42D0DBDB1BDC90DA185B99D95104090240C333333333333E3BF0000000000000FB0108901411070040501508421405064090741402480A0350
1001
ACAD
1000
AcDbSavedByObjectVersion
1070
     0
  0
ACAD_PROXY_OBJECT
  5
34
102
{ACAD_REACTORS
330
2A
102
}
330
2A
100
AcDbZombieObject
 90
      499
 91
      501
 93
      500
310
4290DBDB98D95C1D1D585B10940D028333333333333E3BF0000000000000FB0107902409070040501000000000000111010841D405064090740C02480A0340
1001
ACAD
1000
AcDbSavedByObjectVersion
1070
     0
  0
ACAD_PROXY_OBJECT
  5
35
102
{ACAD_REACTORS
330
2A
102
}
330
2A
100
AcDbZombieObject
 90
      499
 91
      501
 93
      412
310
40D11A5B50B409028333333333333E3BF0000000000000FB010790141107004050150841D405064090741402480A02677FFFFFD0
1001
ACAD
1000
AcDbSavedByObjectVersion
1070
     0
  0
ACAD_PROXY_OBJECT
  5
39
102
{ACAD_REACTORS
330
2A
102
}
330
2A
100
AcDbZombieObject
 90
      499
 91
      501
 93
      444
310
42D19858D95C185D1D195C9B90F409028333333333333E3BF0000000000000FB010790141107004050150841D405064090741402480A0350
1001
ACAD
1000
AcDbSavedByObjectVersion
1070
     0
  0
ACAD_PROXY_OBJECT
  5
2B
102
{ACAD_REACTORS
330
2A
102
}
330
2A
100
AcDbZombieObject
 90
      499
 91
      501
 93
      388
310
41119B185D240901404333333333333E3BF0000000000000F9010740A41107004050150841D405064090741402480A1B50
1001
ACAD
1000
AcDbSavedByObjectVersion
1070
     0
  0
ACAD_PROXY_OBJECT
  5
2C
102
{ACAD_REACTORS
330
2A
102
}
330
2A
100
AcDbZombieObject
 90
      499
 91
      501
 93
      476
310
43519B185D15DA5D1A115919D95CD0140901404333333333333E3BF0000000000000F9010740901411070040501600405405064090741402480A1B50
1001
ACAD
1000
AcDbSavedByObjectVersion
1070
     0
  0
ACAD_PROXY_OBJECT
  5
2D
102
{ACAD_REACTORS
330
2A
102
}
330
2A
100
AcDbZombieObject
 90
      499
 91
      501
 93
      412
310
41D1DBDD5C985D5910240902404333333333333E3BF0000000000000F9010740A411070040501641D405064090741402480A1B50
1001
ACAD
1000
AcDbSavedByObjectVersion
1070
     0
  0
ACAD_PROXY_OBJECT
  5
2E
102
{ACAD_REACTORS
330
2A
102
}
330
2A
100
AcDbZombieObject
 90
      499
 91
      501
 93
      500
310
4411DBDD5C985D5915DA5D1A115919D95CD0340902404333333333333E3BF0000000000000F9010740901411070040501600405405064090741402480A1B50
1001
ACAD
1000
AcDbSavedByObjectVersion
1070
     0
  0
ACAD_PROXY_OBJECT
  5
38
102
{ACAD_REACTORS
330
2A
102
}
330
2A
100
AcDbZombieObject
 90
      499
 91
      501
 93
      444
310
42D31A5B995C185D1D195C9B90E409028333333333333E3BF0000000000000FB010790141107004050750841D405064090741402483A0350
1001
ACAD
1000
AcDbSavedByObjectVersion
1070
     0
  0
ACAD_PROXY_OBJECT
  5
33
102
{ACAD_REACTORS
330
2A
102
}
330
2A
100
AcDbZombieObject
 90
      499
 91
      501
 93
      420
310
425499585B1A5CDD1A58D08409028333333333333E3BF0000000000000FB01079019070040501508421405064090741402480A1B40
1001
ACAD
1000
AcDbSavedByObjectVersion
1070
     0
  0
ACAD_PROXY_OBJECT
  5
37
102
{ACAD_REACTORS
330
2A
102
}
330
2A
100
AcDbZombieObject
 90
      499
 91
      501
 93
      412
310
41D51A1A58DAD95B90D409028333333333333E3BF0000000000000FB010790141107004050150C41D405064090741402480A0350
1001
ACAD
1000
AcDbSavedByObjectVersion
1070
     0
  0
DICTIONARYVAR
  5
2E7
102
{ACAD_REACTORS
330
2E4
102
}
330
2E4
100
DictionaryVariables
280
     0
  1
1:1
  0
DICTIONARYVAR
  5
2E8
102
{ACAD_REACTORS
330
2E4
102
}
330
2E4
100
DictionaryVariables
280
     0
  1
2
  0
DICTIONARYVAR
  5
2E9
102
{ACAD_REACTORS
330
2E4
102
}
330
2E4
100
DictionaryVariables
280
     0
  1
1
  0
ENDSEC
  0
EOF
