  0
SECTION
  2
HEADER
  9
$ACADVER
  1
AC1012
  9
$DWGCODEPAGE
  3
ansi_1252
  9
$INSBASE
 10
0.0
 20
0.0
 30
0.0
  9
$EXTMIN
 10
0.0
 20
0.0
 30
0.0
  9
$EXTMAX
 10
11.0
 20
8.5
 30
0.0
  9
$LIMMIN
 10
0.0
 20
0.0
  9
$LIMMAX
 10
11.0
 20
8.5
  9
$ORTHOMODE
 70
     0
  9
$REGENMODE
 70
     1
  9
$FILLMODE
 70
     1
  9
$QTEXTMODE
 70
     0
  9
$MIRRTEXT
 70
     1
  9
$DRAGMODE
 70
     2
  9
$LTSCALE
 40
1.0
  9
$OSMODE
 70
    37
  9
$ATTMODE
 70
     1
  9
$TEXTSIZE
 40
0.125
  9
$TRACEWID
 40
0.05
  9
$TEXTSTYLE
  7
STANDARD
  9
$CLAYER
  8
0
  9
$CELTYPE
  6
BYLAYER
  9
$CECOLOR
 62
   256
  9
$CELTSCALE
 40
1.0
  9
$DELOBJ
 70
     1
  9
$DISPSILH
 70
     0
  9
$DIMSCALE
 40
1.0
  9
$DIMASZ
 40
0.13
  9
$DIMEXO
 40
0.05
  9
$DIMDLI
 40
0.38
  9
$DIMRND
 40
0.0
  9
$DIMDLE
 40
0.0
  9
$DIMEXE
 40
0.125
  9
$DIMTP
 40
0.0
  9
$DIMTM
 40
0.0
  9
$DIMTXT
 40
0.125
  9
$DIMCEN
 40
0.09
  9
$DIMTSZ
 40
0.0
  9
$DIMTOL
 70
     0
  9
$DIMLIM
 70
     0
  9
$DIMTIH
 70
     1
  9
$DIMTOH
 70
     1
  9
$DIMSE1
 70
     0
  9
$DIMSE2
 70
     0
  9
$DIMTAD
 70
     0
  9
$DIMZIN
 70
     0
  9
$DIMBLK
  1

  9
$DIMASO
 70
     1
  9
$DIMSHO
 70
     1
  9
$DIMPOST
  1

  9
$DIMAPOST
  1

  9
$DIMALT
 70
     0
  9
$DIMALTD
 70
     2
  9
$DIMALTF
 40
25.4
  9
$DIMLFAC
 40
1.0
  9
$DIMTOFL
 70
     0
  9
$DIMTVP
 40
0.0
  9
$DIMTIX
 70
     0
  9
$DIMSOXD
 70
     0
  9
$DIMSAH
 70
     0
  9
$DIMBLK1
  1

  9
$DIMBLK2
  1

  9
$DIMSTYLE
  2
STANDARD
  9
$DIMCLRD
 70
     0
  9
$DIMCLRE
 70
     0
  9
$DIMCLRT
 70
     0
  9
$DIMTFAC
 40
1.0
  9
$DIMGAP
 40
0.06
  9
$DIMJUST
 70
     0
  9
$DIMSD1
 70
     0
  9
$DIMSD2
 70
     0
  9
$DIMTOLJ
 70
     1
  9
$DIMTZIN
 70
     0
  9
$DIMALTZ
 70
     0
  9
$DIMALTTZ
 70
     0
  9
$DIMFIT
 70
     3
  9
$DIMUPT
 70
     0
  9
$DIMUNIT
 70
     2
  9
$DIMDEC
 70
     3
  9
$DIMTDEC
 70
     3
  9
$DIMALTU
 70
     2
  9
$DIMALTTD
 70
     2
  9
$DIMTXSTY
  7
STANDARD
  9
$DIMAUNIT
 70
     0
  9
$LUNITS
 70
     2
  9
$LUPREC
 70
     2
  9
$SKETCHINC
 40
0.1
  9
$FILLETRAD
 40
0.5
  9
$AUNITS
 70
     0
  9
$AUPREC
 70
     2
  9
$MENU
  1
.
  9
$ELEVATION
 40
0.0
  9
$PELEVATION
 40
0.0
  9
$THICKNESS
 40
0.0
  9
$LIMCHECK
 70
     0
  9
$CHAMFERA
 40
0.5
  9
$CHAMFERB
 40
0.5
  9
$CHAMFERC
 40
1.0
  9
$CHAMFERD
 40
0.0
  9
$SKPOLY
 70
     0
  9
$TDCREATE
 40
2455784.017664838
  9
$TDUPDATE
 40
2455784.01766485
  9
$TDINDWG
 40
0.0000000116
  9
$TDUSRTIMER
 40
0.0000000116
  9
$USRTIMER
 70
     1
  9
$ANGBASE
 50
0.0
  9
$ANGDIR
 70
     0
  9
$PDMODE
 70
     0
  9
$PDSIZE
 40
-1.0
  9
$PLINEWID
 40
0.0
  9
$COORDS
 70
     1
  9
$SPLFRAME
 70
     0
  9
$SPLINETYPE
 70
     6
  9
$SPLINESEGS
 70
     8
  9
$ATTDIA
 70
     0
  9
$ATTREQ
 70
     1
  9
$HANDLING
 70
     1
  9
$HANDSEED
  5
705
  9
$SURFTAB1
 70
     6
  9
$SURFTAB2
 70
     6
  9
$SURFTYPE
 70
     6
  9
$SURFU
 70
     6
  9
$SURFV
 70
     6
  9
$UCSNAME
  2

  9
$UCSORG
 10
0.0
 20
0.0
 30
0.0
  9
$UCSXDIR
 10
1.0
 20
0.0
 30
0.0
  9
$UCSYDIR
 10
0.0
 20
1.0
 30
0.0
  9
$PUCSNAME
  2

  9
$PUCSORG
 10
0.0
 20
0.0
 30
0.0
  9
$PUCSXDIR
 10
1.0
 20
0.0
 30
0.0
  9
$PUCSYDIR
 10
0.0
 20
1.0
 30
0.0
  9
$USERI1
 70
     0
  9
$USERI2
 70
     0
  9
$USERI3
 70
     0
  9
$USERI4
 70
     0
  9
$USERI5
 70
     0
  9
$USERR1
 40
0.0
  9
$USERR2
 40
0.0
  9
$USERR3
 40
0.0
  9
$USERR4
 40
0.0
  9
$USERR5
 40
0.0
  9
$WORLDVIEW
 70
     1
  9
$SHADEDGE
 70
     3
  9
$SHADEDIF
 70
    70
  9
$TILEMODE
 70
     1
  9
$MAXACTVP
 70
    64
  9
$PINSBASE
 10
0.0
 20
0.0
 30
0.0
  9
$PLIMCHECK
 70
     0
  9
$PEXTMIN
 10
1.0000000000E+20
 20
1.0000000000E+20
 30
1.0000000000E+20
  9
$PEXTMAX
 10
-1.0000000000E+20
 20
-1.0000000000E+20
 30
-1.0000000000E+20
  9
$PLIMMIN
 10
0.0
 20
0.0
  9
$PLIMMAX
 10
12.0
 20
9.0
  9
$UNITMODE
 70
     0
  9
$VISRETAIN
 70
     1
  9
$PLINEGEN
 70
     0
  9
$PSLTSCALE
 70
     1
  9
$TREEDEPTH
 70
  3020
  9
$PICKSTYLE
 70
     1
  9
$CMLSTYLE
  2
STANDARD
  9
$CMLJUST
 70
     0
  9
$CMLSCALE
 40
1.0
  9
$SAVEIMAGES
 70
     1
  0
ENDSEC
  0
SECTION
  2
CLASSES
  0
CLASS
  1
ACDBDICTIONARYWDFLT
  2
AcDbDictionaryWithDefault
  3
ObjectDBX Classes
 90
    32768
280
     0
281
     0
  0
CLASS
  1
VISUALSTYLE
  2
AcDbVisualStyle
  3
ObjectDBX Classes
 90
     4095
280
     0
281
     0
  0
CLASS
  1
SCALE
  2
AcDbScale
  3
ObjectDBX Classes
 90
     1153
280
     0
281
     0
  0
CLASS
  1
DICTIONARYVAR
  2
AcDbDictionaryVar
  3
ObjectDBX Classes
 90
        0
280
     0
281
     0
  0
CLASS
  1
XRECORD
  2
AcDbXrecord
  3
AutoCAD 2000
 90
    32768
280
     0
281
     0
  0
CLASS
  1
LWPOLYLINE
  2
AcDbPolyline
  3
AutoCAD 2000
 90
    32768
280
     0
281
     1
  0
CLASS
  1
HATCH
  2
AcDbHatch
  3
AutoCAD 2000
 90
    32768
280
     0
281
     1
  0
CLASS
  1
ACDBPLACEHOLDER
  2
AcDbPlaceHolder
  3
ObjectDBX Classes
 90
        0
280
     0
281
     0
  0
CLASS
  1
LAYOUT
  2
AcDbLayout
  3
ObjectDBX Classes
 90
        0
280
     0
281
     0
  0
ENDSEC
  0
SECTION
  2
TABLES
  0
TABLE
  2
VPORT
  5
8
330
0
100
AcDbSymbolTable
 70
     1
  0
VPORT
  5
29
330
8
100
AcDbSymbolTableRecord
100
AcDbViewportTableRecord
  2
*ACTIVE
 70
     0
 10
0.0
 20
0.0
 11
1.0
 21
1.0
 12
5.5
 22
4.25
 13
0.0
 23
0.0
 14
0.5
 24
0.5
 15
0.5
 25
0.5
 16
0.0
 26
0.0
 36
1.0
 17
0.0
 27
0.0
 37
0.0
 40
8.5
 41
1.2941176471
 42
50.0
 43
0.0
 44
0.0
 50
0.0
 51
0.0
 71
     0
 72
  2000
 73
     1
 74
     3
 75
     0
 76
     0
 77
     0
 78
     0
  0
ENDTAB
  0
TABLE
  2
LTYPE
  5
5
330
0
100
AcDbSymbolTable
 70
     6
  0
LTYPE
  5
14
330
5
100
AcDbSymbolTableRecord
100
AcDbLinetypeTableRecord
  2
BYBLOCK
 70
     0
  3

 72
    65
 73
     0
 40
0.0
  0
LTYPE
  5
15
330
5
100
AcDbSymbolTableRecord
100
AcDbLinetypeTableRecord
  2
BYLAYER
 70
     0
  3

 72
    65
 73
     0
 40
0.0
  0
LTYPE
  5
16
330
5
100
AcDbSymbolTableRecord
100
AcDbLinetypeTableRecord
  2
CONTINUOUS
 70
     0
  3
Solid line
 72
    65
 73
     0
 40
0.0
  0
LTYPE
  5
3B
330
5
100
AcDbSymbolTableRecord
100
AcDbLinetypeTableRecord
  2
HIDDEN
 70
     0
  3
Hidden __ __ __ __ __ __ __ __ __ __ __ __ __ __
 72
    65
 73
     2
 40
0.075
 49
0.05
 74
     0
 49
-0.025
 74
     0
  0
LTYPE
  5
3C
330
5
100
AcDbSymbolTableRecord
100
AcDbLinetypeTableRecord
  2
PHANTOM
 70
     0
  3
Phantom ______  __  __  ______  __  __  ______
 72
    65
 73
     6
 40
0.5
 49
0.25
 74
     0
 49
-0.05
 74
     0
 49
0.05
 74
     0
 49
-0.05
 74
     0
 49
0.05
 74
     0
 49
-0.05
 74
     0
  0
LTYPE
  5
3D
330
5
100
AcDbSymbolTableRecord
100
AcDbLinetypeTableRecord
  2
CENTER
 70
     0
  3
Center ____ _ ____ _ ____ _ ____ _ ____ _ ____
 72
    65
 73
     4
 40
0.4
 49
0.25
 74
     0
 49
-0.05
 74
     0
 49
0.05
 74
     0
 49
-0.05
 74
     0
  0
LTYPE
  5
3E
330
5
100
AcDbSymbolTableRecord
100
AcDbLinetypeTableRecord
  2
CENTERX2
 70
     0
  3
Center (2x) ________  __  ________  __  _____
 72
    65
 73
     4
 40
0.8
 49
0.5
 74
     0
 49
-0.1
 74
     0
 49
0.1
 74
     0
 49
-0.1
 74
     0
  0
LTYPE
  5
3F
330
5
100
AcDbSymbolTableRecord
100
AcDbLinetypeTableRecord
  2
DOT2
 70
     0
  3
Dot (.5x) ........................................
 72
    65
 73
     2
 40
0.025
 49
0.0
 74
     0
 49
-0.025
 74
     0
  0
ENDTAB
  0
TABLE
  2
LAYER
  5
2
330
0
100
AcDbSymbolTable
 70
     2
  0
LAYER
  5
10
330
2
100
AcDbSymbolTableRecord
100
AcDbLayerTableRecord
  2
0
 70
     0
 62
     7
  6
CONTINUOUS
  0
LAYER
  5
40
330
2
100
AcDbSymbolTableRecord
100
AcDbLayerTableRecord
  2
FORMAT
 70
     0
 62
     7
  6
CONTINUOUS
  0
ENDTAB
  0
TABLE
  2
STYLE
  5
3
330
0
100
AcDbSymbolTable
 70
     4
  0
STYLE
  5
11
330
3
100
AcDbSymbolTableRecord
100
AcDbTextStyleTableRecord
  2
STANDARD
 70
     0
 40
0.0
 41
1.0
 50
0.0
 71
     0
 42
0.2
  3
txt
  4

  0
STYLE
  5
6E
330
3
100
AcDbSymbolTableRecord
100
AcDbTextStyleTableRecord
  2
SLDTEXTSTYLE0
 70
     0
 40
0.0
 41
0.75
 50
0.0
 71
     0
 42
0.2
  3
TXT
  4

  0
STYLE
  5
93
330
3
100
AcDbSymbolTableRecord
100
AcDbTextStyleTableRecord
  2
SLDTEXTSTYLE1
 70
     0
 40
0.0
 41
0.6875
 50
0.0
 71
     0
 42
0.2
  3
TXT
  4

  0
STYLE
  5
99
330
3
100
AcDbSymbolTableRecord
100
AcDbTextStyleTableRecord
  2
SLDTEXTSTYLE2
 70
     0
 40
0.0
 41
0.6944444444
 50
0.0
 71
     0
 42
0.2
  3
TXT
  4

  0
ENDTAB
  0
TABLE
  2
VIEW
  5
6
330
0
100
AcDbSymbolTable
 70
     0
  0
ENDTAB
  0
TABLE
  2
UCS
  5
7
330
0
100
AcDbSymbolTable
 70
     0
  0
ENDTAB
  0
TABLE
  2
APPID
  5
9
330
0
100
AcDbSymbolTable
 70
     1
  0
APPID
  5
12
330
9
100
AcDbSymbolTableRecord
100
AcDbRegAppTableRecord
  2
ACAD
 70
     0
  0
ENDTAB
  0
TABLE
  2
DIMSTYLE
  5
A
330
0
100
AcDbSymbolTable
 70
     1
  0
DIMSTYLE
105
27
330
A
100
AcDbSymbolTableRecord
100
AcDbDimStyleTableRecord
  2
STANDARD
 70
     0
  3

  4

  5

  6

  7

 40
1.0
 41
0.18
 42
0.0625
 43
0.38
 44
0.18
 45
0.0
 46
0.0
 47
0.0
 48
0.0
140
0.18
141
0.09
142
0.0
143
25.4
144
1.0
145
0.0
146
1.0
147
0.09
 71
     0
 72
     0
 73
     1
 74
     1
 75
     0
 76
     0
 77
     0
 78
     0
170
     0
171
     2
172
     0
173
     0
174
     0
175
     0
176
     0
177
     0
178
     0
270
     2
271
     4
272
     4
273
     2
274
     2
340
11
275
     0
280
     0
281
     0
282
     0
283
     1
284
     0
285
     0
286
     0
287
     3
288
     0
  0
ENDTAB
  0
TABLE
  2
BLOCK_RECORD
  5
1
330
0
100
AcDbSymbolTable
 70
     4
  0
BLOCK_RECORD
  5
1F
330
1
100
AcDbSymbolTableRecord
100
AcDbBlockTableRecord
  2
*MODEL_SPACE
  0
BLOCK_RECORD
  5
1B
330
1
100
AcDbSymbolTableRecord
100
AcDbBlockTableRecord
  2
*PAPER_SPACE
  0
BLOCK_RECORD
  5
A8
330
1
100
AcDbSymbolTableRecord
100
AcDbBlockTableRecord
  2
SW_NOTE_0
  0
BLOCK_RECORD
  5
AE
330
1
100
AcDbSymbolTableRecord
100
AcDbBlockTableRecord
  2
SW_NOTE_1
  0
BLOCK_RECORD
  5
C2
330
1
100
AcDbSymbolTableRecord
100
AcDbBlockTableRecord
  2
SW_NOTE_2
  0
ENDTAB
  0
ENDSEC
  0
SECTION
  2
BLOCKS
  0
BLOCK
  5
20
330
1F
100
AcDbEntity
  8
0
100
AcDbBlockBegin
  2
*MODEL_SPACE
 70
     0
 10
0.0
 20
0.0
 30
0.0
  3
*MODEL_SPACE
  1

  0
ENDBLK
  5
21
330
1F
100
AcDbEntity
  8
0
100
AcDbBlockEnd
  0
BLOCK
  5
1C
330
1B
100
AcDbEntity
 67
     1
  8
0
100
AcDbBlockBegin
  2
*PAPER_SPACE
 70
     0
 10
0.0
 20
0.0
 30
0.0
  3
*PAPER_SPACE
  1

  0
ENDBLK
  5
1D
330
1B
100
AcDbEntity
 67
     1
  8
0
100
AcDbBlockEnd
  0
BLOCK
  5
A9
330
A8
100
AcDbEntity
  8
0
100
AcDbBlockBegin
  2
SW_NOTE_0
 70
     0
 10
0.0
 20
0.0
 30
0.0
  3
SW_NOTE_0
  1

  0
MTEXT
  5
AB
330
A8
100
AcDbEntity
  8
0
  6
CONTINUOUS
 62
     0
100
AcDbMText
 10
0.0
 20
0.0773440644
 30
0.0
 40
0.06
 41
0.0
 71
     1
 72
     1
  1
INTERPRET GEOMETRIC
  7
SLDTEXTSTYLE0
  0
MTEXT
  5
AC
330
A8
100
AcDbEntity
  8
0
  6
CONTINUOUS
 62
     0
100
AcDbMText
 10
0.0
 20
-0.0220260102
 30
0.0
 40
0.06
 41
0.0
 71
     1
 72
     1
  1
TOLERANCING PER:
  7
SLDTEXTSTYLE0
  0
ENDBLK
  5
AA
330
A8
100
AcDbEntity
  8
0
100
AcDbBlockEnd
  0
BLOCK
  5
AF
330
AE
100
AcDbEntity
  8
0
100
AcDbBlockBegin
  2
SW_NOTE_1
 70
     0
 10
0.0
 20
0.0
 30
0.0
  3
SW_NOTE_1
  1

  0
MTEXT
  5
B1
330
AE
100
AcDbEntity
  8
0
  6
CONTINUOUS
 62
     0
100
AcDbMText
 10
0.0
 20
0.0837894031
 30
0.0
 40
0.065
 41
0.0
 71
     1
 72
     1
  1
DIMENSIONS ARE IN INCHES
  7
SLDTEXTSTYLE0
  0
MTEXT
  5
B2
330
AE
100
AcDbEntity
  8
0
  6
CONTINUOUS
 62
     0
100
AcDbMText
 10
0.0
 20
-0.0205806729
 30
0.0
 40
0.065
 41
0.0
 71
     1
 72
     1
  1
TOLERANCES:
  7
SLDTEXTSTYLE0
  0
MTEXT
  5
B3
330
AE
100
AcDbEntity
  8
0
  6
CONTINUOUS
 62
     0
100
AcDbMText
 10
0.0
 20
-0.1249507489
 30
0.0
 40
0.065
 41
0.0
 71
     1
 72
     1
  1
FRACTIONAL
  7
SLDTEXTSTYLE0
  0
MTEXT
  5
B4
330
AE
100
AcDbEntity
  8
0
  6
CONTINUOUS
 62
     0
100
AcDbMText
 10
0.5175850875
 20
-0.1249507489
 30
0.0
 40
0.065
 41
0.0
 71
     1
 72
     1
  1
%%p
  7
SLDTEXTSTYLE0
  0
MTEXT
  5
B5
330
AE
100
AcDbEntity
  8
0
  6
CONTINUOUS
 62
     0
100
AcDbMText
 10
0.0
 20
-0.2293208248
 30
0.0
 40
0.065
 41
0.0
 71
     1
 72
     1
  1
ANGULAR: MACH
  7
SLDTEXTSTYLE0
  0
MTEXT
  5
B6
330
AE
100
AcDbEntity
  8
0
  6
CONTINUOUS
 62
     0
100
AcDbMText
 10
0.7233732769
 20
-0.2293208248
 30
0.0
 40
0.065
 41
0.0
 71
     1
 72
     1
  1
%%p
  7
SLDTEXTSTYLE0
  0
MTEXT
  5
B7
330
AE
100
AcDbEntity
  8
0
  6
CONTINUOUS
 62
     0
100
AcDbMText
 10
0.7852857683
 20
-0.2293208248
 30
0.0
 40
0.065
 41
0.0
 71
     1
 72
     1
  1
     BEND 
  7
SLDTEXTSTYLE0
  0
MTEXT
  5
B8
330
AE
100
AcDbEntity
  8
0
  6
CONTINUOUS
 62
     0
100
AcDbMText
 10
1.14784136
 20
-0.2293208248
 30
0.0
 40
0.065
 41
0.0
 71
     1
 72
     1
  1
%%p
  7
SLDTEXTSTYLE0
  0
MTEXT
  5
B9
330
AE
100
AcDbEntity
  8
0
  6
CONTINUOUS
 62
     0
100
AcDbMText
 10
0.0
 20
-0.3336909008
 30
0.0
 40
0.065
 41
0.0
 71
     1
 72
     1
  1
TWO PLACE DECIMAL    
  7
SLDTEXTSTYLE0
  0
MTEXT
  5
BA
330
AE
100
AcDbEntity
  8
0
  6
CONTINUOUS
 62
     0
100
AcDbMText
 10
0.9794349188
 20
-0.3336909008
 30
0.0
 40
0.065
 41
0.0
 71
     1
 72
     1
  1
%%p
  7
SLDTEXTSTYLE0
  0
MTEXT
  5
BB
330
AE
100
AcDbEntity
  8
0
  6
CONTINUOUS
 62
     0
100
AcDbMText
 10
0.0
 20
-0.4380609768
 30
0.0
 40
0.065
 41
0.0
 71
     1
 72
     1
  1
THREE PLACE DECIMAL  
  7
SLDTEXTSTYLE0
  0
MTEXT
  5
BC
330
AE
100
AcDbEntity
  8
0
  6
CONTINUOUS
 62
     0
100
AcDbMText
 10
0.9738038639
 20
-0.4380609768
 30
0.0
 40
0.065
 41
0.0
 71
     1
 72
     1
  1
%%p
  7
SLDTEXTSTYLE0
  0
ENDBLK
  5
B0
330
AE
100
AcDbEntity
  8
0
100
AcDbBlockEnd
  0
BLOCK
  5
C3
330
C2
100
AcDbEntity
  8
0
100
AcDbBlockBegin
  2
SW_NOTE_2
 70
     0
 10
0.0
 20
0.0
 30
0.0
  3
SW_NOTE_2
  1

  0
MTEXT
  5
C5
330
C2
100
AcDbEntity
  8
0
  6
CONTINUOUS
 62
     0
100
AcDbMText
 10
0.0
 20
0.0773440644
 30
0.0
 40
0.06
 41
0.0
 71
     1
 72
     1
  1
THE INFORMATION CONTAINED IN THIS
  7
SLDTEXTSTYLE0
  0
MTEXT
  5
C6
330
C2
100
AcDbEntity
  8
0
  6
CONTINUOUS
 62
     0
100
AcDbMText
 10
0.0
 20
-0.0220260102
 30
0.0
 40
0.06
 41
0.0
 71
     1
 72
     1
  1
DRAWING IS THE SOLE PROPERTY OF
  7
SLDTEXTSTYLE0
  0
MTEXT
  5
C7
330
C2
100
AcDbEntity
  8
0
  6
CONTINUOUS
 62
     0
100
AcDbMText
 10
0.0
 20
-0.1213960848
 30
0.0
 40
0.06
 41
0.0
 71
     1
 72
     1
  1
Candy Controls.  ANY 
  7
SLDTEXTSTYLE0
  0
MTEXT
  5
C8
330
C2
100
AcDbEntity
  8
0
  6
CONTINUOUS
 62
     0
100
AcDbMText
 10
0.0
 20
-0.2207661593
 30
0.0
 40
0.06
 41
0.0
 71
     1
 72
     1
  1
REPRODUCTION IN PART OR AS A WHOLE
  7
SLDTEXTSTYLE0
  0
MTEXT
  5
C9
330
C2
100
AcDbEntity
  8
0
  6
CONTINUOUS
 62
     0
100
AcDbMText
 10
0.0
 20
-0.3201362339
 30
0.0
 40
0.06
 41
0.0
 71
     1
 72
     1
  1
WITHOUT THE WRITTEN PERMISSION OF
  7
SLDTEXTSTYLE0
  0
MTEXT
  5
CA
330
C2
100
AcDbEntity
  8
0
  6
CONTINUOUS
 62
     0
100
AcDbMText
 10
0.0
 20
-0.4195063085
 30
0.0
 40
0.06
 41
0.0
 71
     1
 72
     1
  1
Candy Controls IS 
  7
SLDTEXTSTYLE0
  0
MTEXT
  5
CB
330
C2
100
AcDbEntity
  8
0
  6
CONTINUOUS
 62
     0
100
AcDbMText
 10
0.0
 20
-0.518876383
 30
0.0
 40
0.06
 41
0.0
 71
     1
 72
     1
  1
PROHIBITED.
  7
SLDTEXTSTYLE0
  0
ENDBLK
  5
C4
330
C2
100
AcDbEntity
  8
0
100
AcDbBlockEnd
  0
ENDSEC
  0
SECTION
  2
ENTITIES
  0
LINE
  5
41
330
1F
100
AcDbEntity
  8
0
  6
CONTINUOUS
 62
     7
100
AcDbLine
 10
0.329927
 20
8.1920731707
 30
0.0
 11
10.629927
 21
8.1920731707
 31
0.0
  0
LINE
  5
42
330
1F
100
AcDbEntity
  8
0
  6
CONTINUOUS
 62
     7
100
AcDbLine
 10
0.329927
 20
8.1920731707
 30
0.0
 11
0.329927
 21
0.3920731707
 31
0.0
  0
LINE
  5
43
330
1F
100
AcDbEntity
  8
0
  6
CONTINUOUS
 62
     7
100
AcDbLine
 10
10.629927
 20
0.3920731707
 30
0.0
 11
0.329927
 21
0.3920731707
 31
0.0
  0
LINE
  5
44
330
1F
100
AcDbEntity
  8
0
  6
CONTINUOUS
 62
     7
100
AcDbLine
 10
10.629927
 20
0.3920731707
 30
0.0
 11
10.629927
 21
8.1920731707
 31
0.0
  0
LINE
  5
45
330
1F
100
AcDbEntity
  8
0
  6
CONTINUOUS
 62
     7
100
AcDbLine
 10
4.7981841288
 20
0.3920731707
 30
0.0
 11
4.7981841288
 21
2.3564211366
 31
0.0
  0
LINE
  5
46
330
1F
100
AcDbEntity
  8
0
  6
CONTINUOUS
 62
     7
100
AcDbLine
 10
2.8210345579
 20
2.3564211366
 30
0.0
 11
10.629927
 21
2.3564211366
 31
0.0
  0
LINE
  5
47
330
1F
100
AcDbEntity
  8
0
  6
CONTINUOUS
 62
     7
100
AcDbLine
 10
6.1796352514
 20
2.3564211366
 30
0.0
 11
6.1796352514
 21
0.3920731707
 31
0.0
  0
LINE
  5
48
330
1F
100
AcDbEntity
  8
0
  6
CONTINUOUS
 62
     7
100
AcDbLine
 10
7.8712070044
 20
2.3564211366
 30
0.0
 11
7.8712070044
 21
0.3920731707
 31
0.0
  0
LINE
  5
49
330
1F
100
AcDbEntity
  8
0
  6
CONTINUOUS
 62
     7
100
AcDbLine
 10
7.8712070044
 20
0.6049590101
 30
0.0
 11
10.629927
 21
0.6049590101
 31
0.0
  0
LINE
  5
4A
330
1F
100
AcDbEntity
  8
0
  6
CONTINUOUS
 62
     7
100
AcDbLine
 10
7.8712070044
 20
1.1119362457
 30
0.0
 11
10.629927
 21
1.1119362457
 31
0.0
  0
LINE
  5
4B
330
1F
100
AcDbEntity
  8
0
  6
CONTINUOUS
 62
     7
100
AcDbLine
 10
7.8712070044
 20
1.9892703708
 30
0.0
 11
10.629927
 21
1.9892703708
 31
0.0
  0
LINE
  5
4C
330
1F
100
AcDbEntity
  8
0
  6
CONTINUOUS
 62
     7
100
AcDbLine
 10
8.266751752
 20
1.1119362457
 30
0.0
 11
8.266751752
 21
0.6049590101
 31
0.0
  0
LINE
  5
4D
330
1F
100
AcDbEntity
  8
0
  6
CONTINUOUS
 62
     7
100
AcDbLine
 10
8.6943435176
 20
0.6049590101
 30
0.0
 11
8.6943435176
 21
0.3920731707
 31
0.0
  0
LINE
  5
4E
330
1F
100
AcDbEntity
  8
0
  6
CONTINUOUS
 62
     7
100
AcDbLine
 10
10.0579917045
 20
1.1119362457
 30
0.0
 11
10.0579917045
 21
0.6049590101
 31
0.0
  0
LINE
  5
4F
330
1F
100
AcDbEntity
  8
0
  6
CONTINUOUS
 62
     7
100
AcDbLine
 10
9.6662556631
 20
0.6049590101
 30
0.0
 11
9.6662556631
 21
0.3920731707
 31
0.0
  0
LINE
  5
50
330
1F
100
AcDbEntity
  8
0
  6
CONTINUOUS
 62
     7
100
AcDbLine
 10
2.8210345579
 20
0.5883479999
 30
0.0
 11
6.1796352514
 21
0.5883479999
 31
0.0
  0
LINE
  5
51
330
1F
100
AcDbEntity
  8
0
  6
CONTINUOUS
 62
     7
100
AcDbLine
 10
6.1796352514
 20
1.7939211366
 30
0.0
 11
7.8712070044
 21
1.7939211366
 31
0.0
  0
LINE
  5
52
330
1F
100
AcDbEntity
  8
0
  6
CONTINUOUS
 62
     7
100
AcDbLine
 10
6.1796352514
 20
1.9814211366
 30
0.0
 11
7.8712070044
 21
1.9814211366
 31
0.0
  0
LINE
  5
53
330
1F
100
AcDbEntity
  8
0
  6
CONTINUOUS
 62
     7
100
AcDbLine
 10
6.1796352514
 20
2.1689211366
 30
0.0
 11
7.8712070044
 21
2.1689211366
 31
0.0
  0
LINE
  5
54
330
1F
100
AcDbEntity
  8
0
  6
CONTINUOUS
 62
     7
100
AcDbLine
 10
7.8712070044
 20
1.2314211366
 30
0.0
 11
6.1796352514
 21
1.2314211366
 31
0.0
  0
LINE
  5
55
330
1F
100
AcDbEntity
  8
0
  6
CONTINUOUS
 62
     7
100
AcDbLine
 10
7.3921580388
 20
2.3564211366
 30
0.0
 11
7.3921580388
 21
1.2314211366
 31
0.0
  0
LINE
  5
56
330
1F
100
AcDbEntity
  8
0
  6
CONTINUOUS
 62
     7
100
AcDbLine
 10
6.9236308342
 20
2.3564211366
 30
0.0
 11
6.9236308342
 21
1.2314211366
 31
0.0
  0
LINE
  5
57
330
1F
100
AcDbEntity
  8
0
  6
CONTINUOUS
 62
     7
100
AcDbLine
 10
4.7981841288
 20
0.8557965305
 30
0.0
 11
6.1796352514
 21
0.8557965305
 31
0.0
  0
LINE
  5
58
330
1F
100
AcDbEntity
  8
0
  6
CONTINUOUS
 62
     7
100
AcDbLine
 10
4.7981841288
 20
1.1257965305
 30
0.0
 11
6.1796352514
 21
1.1257965305
 31
0.0
  0
LINE
  5
59
330
1F
100
AcDbEntity
  8
0
  6
CONTINUOUS
 62
     7
100
AcDbLine
 10
2.8210345579
 20
0.3920731707
 30
0.0
 11
2.8210345579
 21
2.3564211366
 31
0.0
  0
LINE
  5
5A
330
1F
100
AcDbEntity
  8
0
  6
CONTINUOUS
 62
     7
100
AcDbLine
 10
2.8210345579
 20
1.1064211366
 30
0.0
 11
4.7981841288
 21
1.1064211366
 31
0.0
  0
LINE
  5
5B
330
1F
100
AcDbEntity
  8
0
  6
CONTINUOUS
 62
     7
100
AcDbLine
 10
2.8210345579
 20
1.3564211366
 30
0.0
 11
4.7981841288
 21
1.3564211366
 31
0.0
  0
LINE
  5
5C
330
1F
100
AcDbEntity
  8
0
  6
CONTINUOUS
 62
     7
100
AcDbLine
 10
2.8210345579
 20
1.6064211366
 30
0.0
 11
4.7981841288
 21
1.6064211366
 31
0.0
  0
LINE
  5
5D
330
1F
100
AcDbEntity
  8
0
  6
CONTINUOUS
 62
     7
100
AcDbLine
 10
2.8210345579
 20
1.8564211366
 30
0.0
 11
4.7981841288
 21
1.8564211366
 31
0.0
  0
LINE
  5
5E
330
1F
100
AcDbEntity
  8
0
  6
CONTINUOUS
 62
     7
100
AcDbLine
 10
3.8190146875
 20
2.3564211366
 30
0.0
 11
3.8190146875
 21
0.5883479999
 31
0.0
  0
LINE
  5
5F
330
1F
100
AcDbEntity
  8
0
  6
CONTINUOUS
 62
     7
100
AcDbLine
 10
6.1796352514
 20
2.2020813496
 30
0.0
 11
4.7981841288
 21
2.2020813496
 31
0.0
  0
LINE
  5
60
330
1F
100
AcDbEntity
  8
0
  6
CONTINUOUS
 62
     7
100
AcDbLine
 10
7.8712070044
 20
1.6064211366
 30
0.0
 11
6.1796352514
 21
1.6064211366
 31
0.0
  0
LINE
  5
61
330
1F
100
AcDbEntity
  8
0
  6
CONTINUOUS
 62
     7
100
AcDbLine
 10
7.8712070044
 20
1.4189211366
 30
0.0
 11
6.1796352514
 21
1.4189211366
 31
0.0
  0
LINE
  5
62
330
1F
100
AcDbEntity
  8
0
  6
CONTINUOUS
 62
     7
100
AcDbLine
 10
2.8210345579
 20
2.1064211366
 30
0.0
 11
4.7981841288
 21
2.1064211366
 31
0.0
  0
LINE
  5
63
330
1F
100
AcDbEntity
  8
0
  6
CONTINUOUS
 62
     7
100
AcDbLine
 10
4.7981841288
 20
1.3957965305
 30
0.0
 11
6.1796352514
 21
1.3957965305
 31
0.0
  0
LINE
  5
64
330
1F
100
AcDbEntity
  8
0
  6
CONTINUOUS
 62
     7
100
AcDbLine
 10
2.8210345579
 20
0.8564211366
 30
0.0
 11
4.7981841288
 21
0.8564211366
 31
0.0
  0
LINE
  5
65
330
1F
100
AcDbEntity
  8
0
  6
CONTINUOUS
 62
     7
100
AcDbLine
 10
1.1838252943
 20
0.3920731707
 30
0.0
 11
1.1838252943
 21
1.3064211366
 31
0.0
  0
LINE
  5
66
330
1F
100
AcDbEntity
  8
0
  6
CONTINUOUS
 62
     7
100
AcDbLine
 10
2.8210345579
 20
1.3064211366
 30
0.0
 11
1.1838252943
 21
1.3064211366
 31
0.0
  0
LINE
  5
67
330
1F
100
AcDbEntity
  8
0
  6
CONTINUOUS
 62
     7
100
AcDbLine
 10
8.660927
 20
0.3920731707
 30
0.0
 11
8.660927
 21
0.3072739649
 31
0.0
  0
LINE
  5
68
330
1F
100
AcDbEntity
  8
0
  6
CONTINUOUS
 62
     7
100
AcDbLine
 10
6.692177
 20
0.3920731707
 30
0.0
 11
6.692177
 21
0.3072739649
 31
0.0
  0
LINE
  5
69
330
1F
100
AcDbEntity
  8
0
  6
CONTINUOUS
 62
     7
100
AcDbLine
 10
4.723427
 20
0.3920731707
 30
0.0
 11
4.723427
 21
0.3072739649
 31
0.0
  0
LINE
  5
6A
330
1F
100
AcDbEntity
  8
0
  6
CONTINUOUS
 62
     7
100
AcDbLine
 10
2.754677
 20
0.3920731707
 30
0.0
 11
2.754677
 21
0.3072739649
 31
0.0
  0
LINE
  5
6B
330
1F
100
AcDbEntity
  8
0
  6
CONTINUOUS
 62
     7
100
AcDbLine
 10
2.754677
 20
0.3920731707
 30
0.0
 11
2.7672319738
 21
0.3575
 31
0.0
  0
LINE
  5
6C
330
1F
100
AcDbEntity
  8
0
  6
CONTINUOUS
 62
     7
100
AcDbLine
 10
2.7672319738
 20
0.3575
 30
0.0
 11
2.7414258825
 21
0.3575
 31
0.0
  0
LINE
  5
6D
330
1F
100
AcDbEntity
  8
0
  6
CONTINUOUS
 62
     7
100
AcDbLine
 10
2.7414258825
 20
0.3575
 30
0.0
 11
2.754677
 21
0.3920731707
 31
0.0
  0
MTEXT
  5
91
330
1F
100
AcDbEntity
  8
0
  6
CONTINUOUS
 62
     7
100
AcDbMText
 10
4.9775846961
 20
0.5178452352
 30
0.0
 40
0.0625
 41
0.0
 71
     1
 72
     1
  1
DO NOT SCALE DRAWING
  7
SLDTEXTSTYLE0
  0
MTEXT
  5
92
330
1F
100
AcDbEntity
  8
0
  6
CONTINUOUS
 62
     7
100
AcDbMText
 10
8.8355870964
 20
0.9417064595
 30
0.0
 40
0.125
 41
0.0
 71
     1
 72
     1
  1
CL3-C44
  7
SLDTEXTSTYLE0
  0
MTEXT
  5
94
330
1F
100
AcDbEntity
  8
0
  6
CONTINUOUS
 62
     7
100
AcDbMText
 10
9.7571278483
 20
0.5524239532
 30
0.0
 40
0.1
 41
0.0
 71
     1
 72
     1
  1
SHEET 1 OF 1
  7
SLDTEXTSTYLE1
  0
MTEXT
  5
95
330
1F
100
AcDbEntity
  8
0
  6
CONTINUOUS
 62
     7
100
AcDbMText
 10
4.8448077858
 20
2.3132954224
 30
0.0
 40
0.07
 41
0.0
 71
     1
 72
     1
  1
UNLESS OTHERWISE SPECIFIED:
  7
SLDTEXTSTYLE0
  0
MTEXT
  5
96
330
1F
100
AcDbEntity
  8
0
  6
CONTINUOUS
 62
     7
100
AcDbMText
 10
7.9586139647
 20
0.5520987879
 30
0.0
 40
0.1
 41
0.0
 71
     1
 72
     1
  1
SCALE: 1:1
  7
SLDTEXTSTYLE0
  0
MTEXT
  5
97
330
1F
100
AcDbEntity
  8
0
  6
CONTINUOUS
 62
     7
100
AcDbMText
 10
8.7023691647
 20
0.5486763345
 30
0.0
 40
0.1
 41
0.0
 71
     1
 72
     1
  1
WEIGHT: 
  7
SLDTEXTSTYLE0
  0
MTEXT
  5
98
330
1F
100
AcDbEntity
  8
0
  6
CONTINUOUS
 62
     7
100
AcDbMText
 10
10.2277580983
 20
1.081966299
 30
0.0
 40
0.1
 41
0.0
 71
     1
 72
     1
  1
REV
  7
SLDTEXTSTYLE0
  0
MTEXT
  5
9A
330
1F
100
AcDbEntity
  8
0
  6
CONTINUOUS
 62
     7
100
AcDbMText
 10
8.2984570898
 20
1.0858725293
 30
0.0
 40
0.1
 41
0.0
 71
     1
 72
     1
  1
DWG.  NO.
  7
SLDTEXTSTYLE2
  0
MTEXT
  5
9B
330
1F
100
AcDbEntity
  8
0
  6
CONTINUOUS
 62
     7
100
AcDbMText
 10
7.9598482632
 20
0.9442140768
 30
0.0
 40
0.25
 41
0.0
 71
     1
 72
     1
  1
A
  7
SLDTEXTSTYLE0
  0
MTEXT
  5
9C
330
1F
100
AcDbEntity
  8
0
  6
CONTINUOUS
 62
     7
100
AcDbMText
 10
7.9519581822
 20
1.0872713483
 30
0.0
 40
0.1
 41
0.0
 71
     1
 72
     1
  1
SIZE
  7
SLDTEXTSTYLE0
  0
MTEXT
  5
9D
330
1F
100
AcDbEntity
  8
0
  6
CONTINUOUS
 62
     7
100
AcDbMText
 10
7.9170704177
 20
1.9547881128
 30
0.0
 40
0.1
 41
0.0
 71
     1
 72
     1
  1
TITLE:
  7
SLDTEXTSTYLE0
  0
MTEXT
  5
9E
330
1F
100
AcDbEntity
  8
0
  6
CONTINUOUS
 62
     7
100
AcDbMText
 10
7.0363774929
 20
2.2906161274
 30
0.0
 40
0.065
 41
0.0
 71
     1
 72
     1
  1
NAME
  7
SLDTEXTSTYLE0
  0
MTEXT
  5
9F
330
1F
100
AcDbEntity
  8
0
  6
CONTINUOUS
 62
     7
100
AcDbMText
 10
7.5281510634
 20
2.2888799118
 30
0.0
 40
0.065
 41
0.0
 71
     1
 72
     1
  1
DATE
  7
SLDTEXTSTYLE0
  0
MTEXT
  5
A0
330
1F
100
AcDbEntity
  8
0
  6
CONTINUOUS
 62
     7
100
AcDbMText
 10
6.2277147029
 20
1.1876913145
 30
0.0
 40
0.065
 41
0.0
 71
     1
 72
     1
  1
COMMENTS:
  7
SLDTEXTSTYLE0
  0
MTEXT
  5
A1
330
1F
100
AcDbEntity
  8
0
  6
CONTINUOUS
 62
     7
100
AcDbMText
 10
6.2268411461
 20
1.3536101679
 30
0.0
 40
0.065
 41
0.0
 71
     1
 72
     1
  1
Q.A.
  7
SLDTEXTSTYLE0
  0
MTEXT
  5
A2
330
1F
100
AcDbEntity
  8
0
  6
CONTINUOUS
 62
     7
100
AcDbMText
 10
6.2284654509
 20
1.5395328424
 30
0.0
 40
0.065
 41
0.0
 71
     1
 72
     1
  1
MFG APPR.
  7
SLDTEXTSTYLE0
  0
MTEXT
  5
A3
330
1F
100
AcDbEntity
  8
0
  6
CONTINUOUS
 62
     7
100
AcDbMText
 10
6.2235171344
 20
1.7267501785
 30
0.0
 40
0.065
 41
0.0
 71
     1
 72
     1
  1
ENG APPR.
  7
SLDTEXTSTYLE0
  0
MTEXT
  5
A4
330
1F
100
AcDbEntity
  8
0
  6
CONTINUOUS
 62
     7
100
AcDbMText
 10
6.2264103951
 20
1.9092699088
 30
0.0
 40
0.065
 41
0.0
 71
     1
 72
     1
  1
CHECKED
  7
SLDTEXTSTYLE0
  0
MTEXT
  5
A5
330
1F
100
AcDbEntity
  8
0
  6
CONTINUOUS
 62
     7
100
AcDbMText
 10
6.2242794356
 20
2.1016301232
 30
0.0
 40
0.065
 41
0.0
 71
     1
 72
     1
  1
DRAWN
  7
SLDTEXTSTYLE0
  0
MTEXT
  5
A6
330
1F
100
AcDbEntity
  8
0
  6
CONTINUOUS
 62
     7
100
AcDbMText
 10
4.8208600979
 20
0.834523235
 30
0.0
 40
0.06
 41
0.0
 71
     1
 72
     1
  1
FINISH
  7
SLDTEXTSTYLE0
  0
MTEXT
  5
A7
330
1F
100
AcDbEntity
  8
0
  6
CONTINUOUS
 62
     7
100
AcDbMText
 10
4.8181240648
 20
1.1028217587
 30
0.0
 40
0.06
 41
0.0
 71
     1
 72
     1
  1
MATERIAL
  7
SLDTEXTSTYLE0
  0
INSERT
  5
AD
330
1F
100
AcDbEntity
  8
0
  6
CONTINUOUS
 62
     7
100
AcDbBlockReference
  2
SW_NOTE_0
 10
4.8231926633
 20
1.2646542947
 30
0.0
  0
INSERT
  5
BD
330
1F
100
AcDbEntity
  8
0
  6
CONTINUOUS
 62
     7
100
AcDbBlockReference
  2
SW_NOTE_1
 10
4.8353339353
 20
2.0049168724
 30
0.0
  0
MTEXT
  5
BE
330
1F
100
AcDbEntity
  8
0
  6
CONTINUOUS
 62
     7
100
AcDbMText
 10
3.5531400086
 20
0.5200091997
 30
0.0
 40
0.0625
 41
0.0
 71
     1
 72
     1
  1
APPLICATION
  7
SLDTEXTSTYLE0
  0
MTEXT
  5
BF
330
1F
100
AcDbEntity
  8
0
  6
CONTINUOUS
 62
     7
100
AcDbMText
 10
4.1005607758
 20
0.7502454275
 30
0.0
 40
0.0625
 41
0.0
 71
     1
 72
     1
  1
USED ON
  7
SLDTEXTSTYLE0
  0
MTEXT
  5
C0
330
1F
100
AcDbEntity
  8
0
  6
CONTINUOUS
 62
     7
100
AcDbMText
 10
3.1040019536
 20
0.7492094783
 30
0.0
 40
0.0625
 41
0.0
 71
     1
 72
     1
  1
NEXT ASSY
  7
SLDTEXTSTYLE0
  0
MTEXT
  5
C1
330
1F
100
AcDbEntity
  8
0
  6
CONTINUOUS
 62
     7
100
AcDbMText
 10
1.3712489489
 20
1.2496672684
 30
0.0
 40
0.06
 41
0.0
 71
     1
 72
     1
  1
PROPRIETARY AND CONFIDENTIAL
  7
SLDTEXTSTYLE0
  0
INSERT
  5
CC
330
1F
100
AcDbEntity
  8
0
  6
CONTINUOUS
 62
     7
100
AcDbBlockReference
  2
SW_NOTE_2
 10
1.2226209074
 20
1.0313492921
 30
0.0
  0
MTEXT
  5
CD
330
1F
100
AcDbEntity
  8
0
  6
CONTINUOUS
 62
     7
100
AcDbMText
 10
1.7387909509
 20
0.3105864247
 30
0.0
 40
0.09375
 41
0.0
 71
     1
 72
     1
  1
5
  7
SLDTEXTSTYLE0
  0
MTEXT
  5
CE
330
1F
100
AcDbEntity
  8
0
  6
CONTINUOUS
 62
     7
100
AcDbMText
 10
3.723800327
 20
0.3137237518
 30
0.0
 40
0.09375
 41
0.0
 71
     1
 72
     1
  1
4
  7
SLDTEXTSTYLE0
  0
MTEXT
  5
CF
330
1F
100
AcDbEntity
  8
0
  6
CONTINUOUS
 62
     7
100
AcDbMText
 10
5.6324457277
 20
0.3116191842
 30
0.0
 40
0.09375
 41
0.0
 71
     1
 72
     1
  1
3
  7
SLDTEXTSTYLE0
  0
MTEXT
  5
D0
330
1F
100
AcDbEntity
  8
0
  6
CONTINUOUS
 62
     7
100
AcDbMText
 10
7.6059721724
 20
0.3124391351
 30
0.0
 40
0.09375
 41
0.0
 71
     1
 72
     1
  1
2
  7
SLDTEXTSTYLE0
  0
MTEXT
  5
D1
330
1F
100
AcDbEntity
  8
0
  6
CONTINUOUS
 62
     7
100
AcDbMText
 10
9.6619921328
 20
0.301372012
 30
0.0
 40
0.09375
 41
0.0
 71
     1
 72
     1
  1
1
  7
SLDTEXTSTYLE0
  0
LINE
  5
D2
330
1F
100
AcDbEntity
  8
0
  6
CONTINUOUS
 62
     7
100
AcDbLine
 10
3.5084864971
 20
2.8925365541
 30
0.0
 11
3.5281715365
 21
2.9122215935
 31
0.0
  0
LINE
  5
D3
330
1F
100
AcDbEntity
  8
0
  6
CONTINUOUS
 62
     7
100
AcDbLine
 10
3.5281715365
 20
4.6051349793
 30
0.0
 11
3.5084864971
 21
4.6248200187
 31
0.0
  0
LINE
  5
D4
330
1F
100
AcDbEntity
  8
0
  6
CONTINUOUS
 62
     7
100
AcDbLine
 10
3.4053762609
 20
2.8925365541
 30
0.0
 11
3.5084864971
 21
2.8925365541
 31
0.0
  0
LINE
  5
D5
330
1F
100
AcDbEntity
  8
0
  6
CONTINUOUS
 62
     7
100
AcDbLine
 10
3.5084864971
 20
4.6248200187
 30
0.0
 11
3.4053762609
 21
4.6248200187
 31
0.0
  0
LINE
  5
D6
330
1F
100
AcDbEntity
  8
0
  6
CONTINUOUS
 62
     7
100
AcDbLine
 10
3.6331584131
 20
3.176001121
 30
0.0
 11
3.980927442
 21
3.176001121
 31
0.0
  0
LINE
  5
D7
330
1F
100
AcDbEntity
  8
0
  6
CONTINUOUS
 62
     7
100
AcDbLine
 10
3.5281715365
 20
3.176001121
 30
0.0
 11
3.5806649748
 21
3.176001121
 31
0.0
  0
LINE
  5
D8
330
1F
100
AcDbEntity
  8
0
  6
CONTINUOUS
 62
     7
100
AcDbLine
 10
3.5806649748
 20
4.3413554517
 30
0.0
 11
3.5281715365
 21
4.3413554517
 31
0.0
  0
LINE
  5
D9
330
1F
100
AcDbEntity
  8
0
  6
CONTINUOUS
 62
     7
100
AcDbLine
 10
3.980927442
 20
4.3413554517
 30
0.0
 11
3.6331584131
 21
4.3413554517
 31
0.0
  0
LINE
  5
DA
330
1F
100
AcDbEntity
  8
0
  6
CONTINUOUS
 62
     7
100
AcDbLine
 10
3.980927442
 20
3.176001121
 30
0.0
 11
3.995927442
 21
3.191001121
 31
0.0
  0
LINE
  5
DB
330
1F
100
AcDbEntity
  8
0
  6
CONTINUOUS
 62
     7
100
AcDbLine
 10
3.995927442
 20
4.3263554517
 30
0.0
 11
3.980927442
 21
4.3413554517
 31
0.0
  0
LINE
  5
DC
330
1F
100
AcDbEntity
  8
0
  6
CONTINUOUS
 62
     7
100
AcDbLine
 10
3.9612424026
 20
4.1853298175
 30
0.0
 11
3.9612424026
 21
4.1976546643
 31
0.0
  0
LINE
  5
DD
330
1F
100
AcDbEntity
  8
0
  6
CONTINUOUS
 62
     7
100
AcDbLine
 10
3.6856518514
 20
4.1976546643
 30
0.0
 11
3.6856518514
 21
4.192395556
 31
0.0
  0
ARC
  5
DE
330
1F
100
AcDbEntity
  8
0
  6
CONTINUOUS
 62
     7
100
AcDbCircle
 10
3.7053368908
 20
4.1976546643
 30
0.0
 40
0.0196850393700787
100
AcDbArc
 50
90.0
 51
180.0
  0
ARC
  5
DF
330
1F
100
AcDbEntity
  8
0
  6
CONTINUOUS
 62
     7
100
AcDbCircle
 10
3.9415573632
 20
4.1976546643
 30
0.0
 40
0.0196850393700787
100
AcDbArc
 50
0.0
 51
90.0
  0
POLYLINE
  5
E0
330
1F
100
AcDbEntity
  8
0
  6
CONTINUOUS
 62
     7
100
AcDb2dPolyline
 66
     1
 10
0.0
 20
0.0
 30
0.0
  0
VERTEX
  5
2E2
330
E0
100
AcDbEntity
  8
0
  6
CONTINUOUS
 62
     7
100
AcDbVertex
100
AcDb2dVertex
 10
3.8825022451
 20
3.3689145069
 30
0.0
  0
VERTEX
  5
2E3
330
E0
100
AcDbEntity
  8
0
  6
CONTINUOUS
 62
     7
100
AcDbVertex
100
AcDb2dVertex
 10
3.8863426058
 20
3.3692927494
 30
0.0
  0
VERTEX
  5
2E4
330
E0
100
AcDbEntity
  8
0
  6
CONTINUOUS
 62
     7
100
AcDbVertex
100
AcDb2dVertex
 10
3.8877986142
 20
3.3696403994
 30
0.0
  0
SEQEND
  5
2E5
330
E0
100
AcDbEntity
  8
0
  6
CONTINUOUS
 62
     7
  0
POLYLINE
  5
E1
330
1F
100
AcDbEntity
  8
0
  6
CONTINUOUS
 62
     7
100
AcDb2dPolyline
 66
     1
 10
0.0
 20
0.0
 30
0.0
  0
VERTEX
  5
2E6
330
E1
100
AcDbEntity
  8
0
  6
CONTINUOUS
 62
     7
100
AcDbVertex
100
AcDb2dVertex
 10
3.7588244471
 20
3.3697182584
 30
0.0
  0
VERTEX
  5
2E7
330
E1
100
AcDbEntity
  8
0
  6
CONTINUOUS
 62
     7
100
AcDbVertex
100
AcDb2dVertex
 10
3.7605516482
 20
3.3692927494
 30
0.0
  0
VERTEX
  5
2E8
330
E1
100
AcDbEntity
  8
0
  6
CONTINUOUS
 62
     7
100
AcDbVertex
100
AcDb2dVertex
 10
3.7643920089
 20
3.3689145069
 30
0.0
  0
SEQEND
  5
2E9
330
E1
100
AcDbEntity
  8
0
  6
CONTINUOUS
 62
     7
  0
LINE
  5
E2
330
1F
100
AcDbEntity
  8
0
  6
CONTINUOUS
 62
     7
100
AcDbLine
 10
3.7447069695
 20
3.7783633258
 30
0.0
 11
3.7447069695
 21
3.738993247
 31
0.0
  0
LINE
  5
E3
330
1F
100
AcDbEntity
  8
0
  6
CONTINUOUS
 62
     7
100
AcDbLine
 10
3.9021872845
 20
3.738993247
 30
0.0
 11
3.9021872845
 21
3.7783633258
 31
0.0
  0
LINE
  5
E4
330
1F
100
AcDbEntity
  8
0
  6
CONTINUOUS
 62
     7
100
AcDbLine
 10
3.1447857097
 20
4.6248200187
 30
0.0
 11
3.1251006703
 21
4.6051349793
 31
0.0
  0
LINE
  5
E5
330
1F
100
AcDbEntity
  8
0
  6
CONTINUOUS
 62
     7
100
AcDbLine
 10
3.1251006703
 20
2.9122215935
 30
0.0
 11
3.1447857097
 21
2.8925365541
 31
0.0
  0
LINE
  5
E6
330
1F
100
AcDbEntity
  8
0
  6
CONTINUOUS
 62
     7
100
AcDbLine
 10
3.2478959459
 20
4.6248200187
 30
0.0
 11
3.1447857097
 21
4.6248200187
 31
0.0
  0
LINE
  5
E7
330
1F
100
AcDbEntity
  8
0
  6
CONTINUOUS
 62
     7
100
AcDbLine
 10
3.1447857097
 20
2.8925365541
 30
0.0
 11
3.2478959459
 21
2.8925365541
 31
0.0
  0
LINE
  5
E8
330
1F
100
AcDbEntity
  8
0
  6
CONTINUOUS
 62
     7
100
AcDbLine
 10
3.2478959459
 20
3.6208830108
 30
0.0
 11
3.2971085443
 21
3.6208830108
 31
0.0
  0
LINE
  5
E9
330
1F
100
AcDbEntity
  8
0
  6
CONTINUOUS
 62
     7
100
AcDbLine
 10
3.2971085443
 20
3.896473562
 30
0.0
 11
3.2478959459
 21
3.896473562
 31
0.0
  0
LINE
  5
EA
330
1F
100
AcDbEntity
  8
0
  6
CONTINUOUS
 62
     7
100
AcDbLine
 10
3.3561636624
 20
3.6208830108
 30
0.0
 11
3.4053762609
 21
3.6208830108
 31
0.0
  0
LINE
  5
EB
330
1F
100
AcDbEntity
  8
0
  6
CONTINUOUS
 62
     7
100
AcDbLine
 10
3.4053762609
 20
3.896473562
 30
0.0
 11
3.3561636624
 21
3.896473562
 31
0.0
  0
LINE
  5
EC
330
1F
100
AcDbEntity
  8
0
  6
CONTINUOUS
 62
     7
100
AcDbLine
 10
3.1251006703
 20
4.3413554517
 30
0.0
 11
3.072607232
 21
4.3413554517
 31
0.0
  0
LINE
  5
ED
330
1F
100
AcDbEntity
  8
0
  6
CONTINUOUS
 62
     7
100
AcDbLine
 10
2.6723447648
 20
3.176001121
 30
0.0
 11
3.1251006703
 21
3.176001121
 31
0.0
  0
LINE
  5
EE
330
1F
100
AcDbEntity
  8
0
  6
CONTINUOUS
 62
     7
100
AcDbLine
 10
2.6573447648
 20
3.191001121
 30
0.0
 11
2.6723447648
 21
3.176001121
 31
0.0
  0
LINE
  5
EF
330
1F
100
AcDbEntity
  8
0
  6
CONTINUOUS
 62
     7
100
AcDbLine
 10
3.3561636624
 20
4.2803318297
 30
0.0
 11
3.4053762609
 21
4.2803318297
 31
0.0
  0
LINE
  5
F0
330
1F
100
AcDbEntity
  8
0
  6
CONTINUOUS
 62
     7
100
AcDbLine
 10
3.4053762609
 20
4.5559223809
 30
0.0
 11
3.3561636624
 21
4.5559223809
 31
0.0
  0
LINE
  5
F1
330
1F
100
AcDbEntity
  8
0
  6
CONTINUOUS
 62
     7
100
AcDbLine
 10
3.2478959459
 20
4.2803318297
 30
0.0
 11
3.2971085443
 21
4.2803318297
 31
0.0
  0
LINE
  5
F2
330
1F
100
AcDbEntity
  8
0
  6
CONTINUOUS
 62
     7
100
AcDbLine
 10
3.2971085443
 20
4.5559223809
 30
0.0
 11
3.2478959459
 21
4.5559223809
 31
0.0
  0
LINE
  5
F3
330
1F
100
AcDbEntity
  8
0
  6
CONTINUOUS
 62
     7
100
AcDbLine
 10
3.2478959459
 20
2.9614341919
 30
0.0
 11
3.2971085443
 21
2.9614341919
 31
0.0
  0
LINE
  5
F4
330
1F
100
AcDbEntity
  8
0
  6
CONTINUOUS
 62
     7
100
AcDbLine
 10
3.2971085443
 20
3.2370247431
 30
0.0
 11
3.2478959459
 21
3.2370247431
 31
0.0
  0
LINE
  5
F5
330
1F
100
AcDbEntity
  8
0
  6
CONTINUOUS
 62
     7
100
AcDbLine
 10
3.3561636624
 20
2.9614341919
 30
0.0
 11
3.4053762609
 21
2.9614341919
 31
0.0
  0
LINE
  5
F6
330
1F
100
AcDbEntity
  8
0
  6
CONTINUOUS
 62
     7
100
AcDbLine
 10
3.4053762609
 20
3.2370247431
 30
0.0
 11
3.3561636624
 21
3.2370247431
 31
0.0
  0
LINE
  5
F7
330
1F
100
AcDbEntity
  8
0
  6
CONTINUOUS
 62
     7
100
AcDbLine
 10
3.3561636624
 20
4.5903711998
 30
0.0
 11
3.2971085443
 21
4.5903711998
 31
0.0
  0
LINE
  5
F8
330
1F
100
AcDbEntity
  8
0
  6
CONTINUOUS
 62
     7
100
AcDbLine
 10
3.2971085443
 20
2.926985373
 30
0.0
 11
3.3561636624
 21
2.926985373
 31
0.0
  0
LINE
  5
F9
330
1F
100
AcDbEntity
  8
0
  6
CONTINUOUS
 62
     7
100
AcDbLine
 10
3.5084864971
 20
2.8925365541
 30
0.0
 11
3.5084864971
 21
4.6248200187
 31
0.0
  0
LINE
  5
FA
330
1F
100
AcDbEntity
  8
0
  6
CONTINUOUS
 62
     7
100
AcDbLine
 10
3.5281715365
 20
4.6051349793
 30
0.0
 11
3.5281715365
 21
2.9122215935
 31
0.0
  0
LINE
  5
FB
330
1F
100
AcDbEntity
  8
0
  6
CONTINUOUS
 62
     7
100
AcDbLine
 10
3.4053762609
 20
3.7586782864
 30
0.0
 11
3.4053762609
 21
4.6248200187
 31
0.0
  0
LINE
  5
FC
330
1F
100
AcDbEntity
  8
0
  6
CONTINUOUS
 62
     7
100
AcDbLine
 10
3.4053762609
 20
2.8925365541
 30
0.0
 11
3.4053762609
 21
3.7586782864
 31
0.0
  0
SPLINE
  5
FD
330
1F
100
AcDbEntity
  8
0
  6
CONTINUOUS
 62
     7
100
AcDbSpline
210
0.0
220
0.0
230
1.0
 70
     8
 71
     3
 72
    13
 73
     9
 74
     0
 42
0.00000001
 43
0.00000001
 40
0.0
 40
0.0
 40
0.0
 40
0.0
 40
0.1764976880100889
 40
0.3536129713065939
 40
0.5302445879570611
 40
0.7100494914466646
 40
0.8904246544117853
 40
1.0
 40
1.0
 40
1.0
 40
1.0
 10
3.906838312314065
 20
4.059859388754252
 30
0.0
 10
3.91260479629051
 20
4.067604513516487
 30
0.0
 10
3.924157942146937
 20
4.083121864543532
 30
0.0
 10
3.937636325469293
 20
4.107225711037495
 30
0.0
 10
3.948598191030044
 20
4.131441729585481
 30
0.0
 10
3.956420327959211
 20
4.155325161736092
 30
0.0
 10
3.960872472755075
 20
4.175810696501904
 30
0.0
 10
3.960769682049807
 20
4.187629001138125
 30
0.0
 10
3.960730836361592
 20
4.192095262712356
 30
0.0
  0
SPLINE
  5
FE
330
1F
100
AcDbEntity
  8
0
  6
CONTINUOUS
 62
     7
100
AcDbSpline
210
0.0
220
0.0
230
1.0
 70
     8
 71
     3
 72
    27
 73
    23
 74
     0
 42
0.00000001
 43
0.00000001
 40
0.0
 40
0.0
 40
0.0
 40
0.0
 40
0.0033106965941944
 40
0.0711739046458015
 40
0.1389660781774444
 40
0.196013320732444
 40
0.2530157957870415
 40
0.3103978799768454
 40
0.3677446063722878
 40
0.4183876843897849
 40
0.4690214760654585
 40
0.5163431980579745
 40
0.563665409413253
 40
0.6102175314303954
 40
0.6567770171734949
 40
0.7041116269658727
 40
0.7514623138528116
 40
0.8014906961318566
 40
0.8515454910876795
 40
0.9073362532244832
 40
0.9631638731211859
 40
1.0
 40
1.0
 40
1.0
 40
1.0
 10
3.960894566715439
 20
4.199710729671848
 30
0.0
 10
3.960903150161882
 20
4.200045677869845
 30
0.0
 10
3.961087678517539
 20
4.207246449800246
 30
0.0
 10
3.957679111840402
 20
4.220042896658866
 30
0.0
 10
3.950370264982699
 20
4.236727063756178
 30
0.0
 10
3.938866246093727
 20
4.250451386243975
 30
0.0
 10
3.924513724434258
 20
4.261648005472858
 30
0.0
 10
3.90641007908408
 20
4.270727687081131
 30
0.0
 10
3.885957811524753
 20
4.277390493748316
 30
0.0
 10
3.864081507542004
 20
4.281723286442792
 30
0.0
 10
3.842303373582054
 20
4.2840466493919
 30
0.0
 10
3.820431567309904
 20
4.284614218954159
 30
0.0
 10
3.799259629341705
 20
4.283620020795196
 30
0.0
 10
3.778916730999514
 20
4.28105542773702
 30
0.0
 10
3.759791937331502
 20
4.276978122958422
 30
0.0
 10
3.742347640293596
 20
4.27130114874798
 30
0.0
 10
3.726631126095805
 20
4.26396500733831
 30
0.0
 10
3.713256836756791
 20
4.254907210681687
 30
0.0
 10
3.701946226323123
 20
4.243851522668564
 30
0.0
 10
3.693641219610905
 20
4.230783854192676
 30
0.0
 10
3.688203573690823
 20
4.217841293045568
 30
0.0
 10
3.687508927982096
 20
4.208762317890188
 30
0.0
 10
3.687232789164566
 20
4.205153201138592
 30
0.0
  0
SPLINE
  5
FF
330
1F
100
AcDbEntity
  8
0
  6
CONTINUOUS
 62
     7
100
AcDbSpline
210
0.0
220
0.0
230
1.0
 70
     8
 71
     3
 72
    14
 73
    10
 74
     0
 42
0.00000001
 43
0.00000001
 40
0.0
 40
0.0
 40
0.0
 40
0.0
 40
0.0046464834099278
 40
0.2086386741944799
 40
0.3852468776960541
 40
0.5624710374621847
 40
0.7392088420057559
 40
0.8696198850386951
 40
1.0
 40
1.0
 40
1.0
 40
1.0
 10
3.685724880234353
 20
4.192333887963223
 30
0.0
 10
3.685702937107201
 20
4.192151297366385
 30
0.0
 10
3.684717636062731
 20
4.183952524943493
 30
0.0
 10
3.687905830122635
 20
4.167196854606193
 30
0.0
 10
3.694099809014753
 20
4.142717067642081
 30
0.0
 10
3.703693667385102
 20
4.118736040131401
 30
0.0
 10
3.715020032449345
 20
4.096766852486942
 30
0.0
 10
3.72712039523738
 20
4.076990089546898
 30
0.0
 10
3.735744433796144
 20
4.065569170870504
 30
0.0
 10
3.740055941699135
 20
4.059859388754252
 30
0.0
  0
SPLINE
  5
100
330
1F
100
AcDbEntity
  8
0
  6
CONTINUOUS
 62
     7
100
AcDbSpline
210
0.0
220
0.0
230
1.0
 70
     8
 71
     3
 72
    60
 73
    56
 74
     0
 42
0.00000001
 43
0.00000001
 40
-0.0312499999999998
 40
-0.0312499999999998
 40
0.0
 40
0.0
 40
0.0312500000000002
 40
0.0312500000000002
 40
0.0625000000000004
 40
0.0625000000000004
 40
0.1250000000000009
 40
0.1250000000000009
 40
0.1875000000000013
 40
0.1875000000000013
 40
0.2187500000000014
 40
0.2187500000000014
 40
0.2500000000000014
 40
0.2500000000000014
 40
0.3125000000000018
 40
0.3125000000000018
 40
0.3750000000000021
 40
0.3750000000000021
 40
0.406250000000002
 40
0.406250000000002
 40
0.4375000000000019
 40
0.4375000000000019
 40
0.4687500000000018
 40
0.4687500000000018
 40
0.5000000000000017
 40
0.5000000000000017
 40
0.5312500000000016
 40
0.5312500000000016
 40
0.5625000000000014
 40
0.5625000000000014
 40
0.5937500000000013
 40
0.5937500000000013
 40
0.6250000000000012
 40
0.6250000000000012
 40
0.6562500000000011
 40
0.6562500000000011
 40
0.687500000000001
 40
0.687500000000001
 40
0.7187500000000009
 40
0.7187500000000009
 40
0.7500000000000008
 40
0.7500000000000008
 40
0.8125000000000008
 40
0.8125000000000008
 40
0.8437500000000007
 40
0.8437500000000007
 40
0.8750000000000006
 40
0.8750000000000006
 40
0.9062500000000004
 40
0.9062500000000004
 40
0.9375000000000003
 40
0.9375000000000003
 40
0.9687500000000002
 40
0.9687500000000002
 40
1.0
 40
1.0
 40
1.03125
 40
1.03125
 10
3.817218144149188
 20
3.411353626067912
 30
0.0
 10
3.829676109864012
 20
3.411353626067912
 30
0.0
 10
3.835653343947219
 20
3.410369591569473
 30
0.0
 10
3.847185342387671
 20
3.406772970334854
 30
0.0
 10
3.852486908570981
 20
3.404238492791019
 30
0.0
 10
3.867112606468675
 20
3.39525202039727
 30
0.0
 10
3.874880834511144
 20
3.387710854003319
 30
0.0
 10
3.887572850142875
 20
3.371700218328847
 30
0.0
 10
3.892342121337294
 20
3.363383014311206
 30
0.0
 10
3.89757049779267
 20
3.350681822828273
 30
0.0
 10
3.898976582079726
 20
3.346399635083572
 30
0.0
 10
3.901042792511291
 20
3.337983115840368
 30
0.0
 10
3.901716037735255
 20
3.333820898657724
 30
0.0
 10
3.90260913999257
 20
3.321475996127849
 30
0.0
 10
3.901675428029403
 20
3.313349031828748
 30
0.0
 10
3.89619704317962
 20
3.298391745386276
 30
0.0
 10
3.891557264856371
 20
3.291359277708094
 30
0.0
 10
3.881558420647326
 20
3.282399753064947
 30
0.0
 10
3.877657533987982
 20
3.279623049494552
 30
0.0
 10
3.868924101772349
 20
3.274756025406802
 30
0.0
 10
3.86412046404985
 20
3.27266324405424
 30
0.0
 10
3.853525773288452
 20
3.269181341891739
 30
0.0
 10
3.847875938552683
 20
3.267846610355849
 30
0.0
 10
3.836137297295163
 20
3.2660368048901
 30
0.0
 10
3.829916565372272
 20
3.265555965362
 30
0.0
 10
3.817673745920381
 20
3.265521908307404
 30
0.0
 10
3.811500683505211
 20
3.265959897074703
 30
0.0
 10
3.799622377883858
 20
3.267719782094762
 30
0.0
 10
3.79398567462386
 20
3.269017706416748
 30
0.0
 10
3.783289606603653
 20
3.272458473312769
 30
0.0
 10
3.778439498338443
 20
3.274535078862782
 30
0.0
 10
3.769625154477324
 20
3.279369747326021
 30
0.0
 10
3.765692294168067
 20
3.282126351007918
 30
0.0
 10
3.758937207682251
 20
3.28809135044307
 30
0.0
 10
3.756048511416443
 20
3.291356648910018
 30
0.0
 10
3.751316291026129
 20
3.298230007555061
 30
0.0
 10
3.749463155160283
 20
3.301831472043091
 30
0.0
 10
3.746655637966252
 20
3.309360679893376
 30
0.0
 10
3.745710729257772
 20
3.313291298232274
 30
0.0
 10
3.744678896558761
 20
3.321241336453868
 30
0.0
 10
3.744579507262541
 20
3.325290605474016
 30
0.0
 10
3.745421091945246
 20
3.33766123855076
 30
0.0
 10
3.747525571808783
 20
3.346251033463346
 30
0.0
 10
3.752696113554901
 20
3.358904215608891
 30
0.0
 10
3.754760864825487
 20
3.363108937622765
 30
0.0
 10
3.759628243060076
 20
3.37146713552465
 30
0.0
 10
3.76243269921545
 20
3.375614217007926
 30
0.0
 10
3.768733207247628
 20
3.383583485250127
 30
0.0
 10
3.772240868903599
 20
3.387434493181908
 30
0.0
 10
3.780165045104106
 20
3.394743943564002
 30
0.0
 10
3.78457075198332
 20
3.398181908640991
 30
0.0
 10
3.794241696334956
 20
3.404149069879153
 30
0.0
 10
3.799622912412637
 20
3.406731651214388
 30
0.0
 10
3.811046422609662
 20
3.410323080378098
 30
0.0
 10
3.817218144149188
 20
3.411353626067912
 30
0.0
 10
3.829676109864012
 20
3.411353626067912
 30
0.0
  0
LINE
  5
101
330
1F
100
AcDbEntity
  8
0
  6
CONTINUOUS
 62
     7
100
AcDbLine
 10
3.6331584131
 20
3.738993247
 30
0.0
 11
3.6331584131
 21
3.176001121
 31
0.0
  0
LINE
  5
102
330
1F
100
AcDbEntity
  8
0
  6
CONTINUOUS
 62
     7
100
AcDbLine
 10
3.980927442
 20
3.738993247
 30
0.0
 11
3.6331584131
 21
3.738993247
 31
0.0
  0
LINE
  5
103
330
1F
100
AcDbEntity
  8
0
  6
CONTINUOUS
 62
     7
100
AcDbLine
 10
3.980927442
 20
3.7783633258
 30
0.0
 11
3.980927442
 21
4.3413554517
 31
0.0
  0
LINE
  5
104
330
1F
100
AcDbEntity
  8
0
  6
CONTINUOUS
 62
     7
100
AcDbLine
 10
3.980927442
 20
3.176001121
 30
0.0
 11
3.980927442
 21
3.738993247
 31
0.0
  0
LINE
  5
105
330
1F
100
AcDbEntity
  8
0
  6
CONTINUOUS
 62
     7
100
AcDbLine
 10
3.980927442
 20
3.7783633258
 30
0.0
 11
3.6331584131
 21
3.7783633258
 31
0.0
  0
LINE
  5
106
330
1F
100
AcDbEntity
  8
0
  6
CONTINUOUS
 62
     7
100
AcDbLine
 10
3.6331584131
 20
4.3413554517
 30
0.0
 11
3.6331584131
 21
3.7783633258
 31
0.0
  0
LINE
  5
107
330
1F
100
AcDbEntity
  8
0
  6
CONTINUOUS
 62
     7
100
AcDbLine
 10
3.5806649748
 20
4.2621498665
 30
0.0
 11
3.6331584131
 21
4.2621498665
 31
0.0
  0
LINE
  5
108
330
1F
100
AcDbEntity
  8
0
  6
CONTINUOUS
 62
     7
100
AcDbLine
 10
3.5806649748
 20
3.176001121
 30
0.0
 11
3.5806649748
 21
4.3413554517
 31
0.0
  0
LINE
  5
109
330
1F
100
AcDbEntity
  8
0
  6
CONTINUOUS
 62
     7
100
AcDbLine
 10
3.6331584131
 20
3.2552067063
 30
0.0
 11
3.5806649748
 21
3.2552067063
 31
0.0
  0
LINE
  5
10A
330
1F
100
AcDbEntity
  8
0
  6
CONTINUOUS
 62
     7
100
AcDbLine
 10
3.995927442
 20
3.738993247
 30
0.0
 11
3.995927442
 21
3.191001121
 31
0.0
  0
LINE
  5
10B
330
1F
100
AcDbEntity
  8
0
  6
CONTINUOUS
 62
     7
100
AcDbLine
 10
3.995927442
 20
4.3263554517
 30
0.0
 11
3.995927442
 21
3.7783633258
 31
0.0
  0
LINE
  5
10C
330
1F
100
AcDbEntity
  8
0
  6
CONTINUOUS
 62
     7
100
AcDbLine
 10
3.980927442
 20
3.7783633258
 30
0.0
 11
3.995927442
 21
3.7783633258
 31
0.0
  0
LINE
  5
10D
330
1F
100
AcDbEntity
  8
0
  6
CONTINUOUS
 62
     7
100
AcDbLine
 10
3.980927442
 20
3.738993247
 30
0.0
 11
3.995927442
 21
3.738993247
 31
0.0
  0
LINE
  5
10E
330
1F
100
AcDbEntity
  8
0
  6
CONTINUOUS
 62
     7
100
AcDbLine
 10
3.995927442
 20
3.7783633258
 30
0.0
 11
3.995927442
 21
3.738993247
 31
0.0
  0
LINE
  5
10F
330
1F
100
AcDbEntity
  8
0
  6
CONTINUOUS
 62
     7
100
AcDbLine
 10
3.6331584131
 20
3.738993247
 30
0.0
 11
3.6331584131
 21
3.7783633258
 31
0.0
  0
LINE
  5
110
330
1F
100
AcDbEntity
  8
0
  6
CONTINUOUS
 62
     7
100
AcDbLine
 10
3.823447127
 20
4.0598593888
 30
0.0
 11
3.9072166159
 21
4.0598593888
 31
0.0
  0
LINE
  5
111
330
1F
100
AcDbEntity
  8
0
  6
CONTINUOUS
 62
     7
100
AcDbLine
 10
3.7398990817
 20
4.0598593888
 30
0.0
 11
3.823447127
 21
4.0598593888
 31
0.0
  0
LINE
  5
112
330
1F
100
AcDbEntity
  8
0
  6
CONTINUOUS
 62
     7
100
AcDbLine
 10
3.823447127
 20
4.2173397037
 30
0.0
 11
3.9415573632
 21
4.2173397037
 31
0.0
  0
LINE
  5
113
330
1F
100
AcDbEntity
  8
0
  6
CONTINUOUS
 62
     7
100
AcDbLine
 10
3.7053368908
 20
4.2173397037
 30
0.0
 11
3.823447127
 21
4.2173397037
 31
0.0
  0
LINE
  5
114
330
1F
100
AcDbEntity
  8
0
  6
CONTINUOUS
 62
     7
100
AcDbLine
 10
3.8825022451
 20
3.3689145069
 30
0.0
 11
3.7643920089
 21
3.3689145069
 31
0.0
  0
CIRCLE
  5
115
330
1F
100
AcDbEntity
  8
0
  6
CONTINUOUS
 62
     7
100
AcDbCircle
 10
2.8298250798
 20
4.1477823972
 30
0.0
 40
0.0590551181102361
  0
ARC
  5
116
330
1F
100
AcDbEntity
  8
0
  6
CONTINUOUS
 62
     7
100
AcDbCircle
 10
2.8298250798
 20
4.1477823972
 30
0.0
 40
0.0787401574803152
100
AcDbArc
 50
50.7276209559
 51
129.2723790441
  0
LINE
  5
117
330
1F
100
AcDbEntity
  8
0
  6
CONTINUOUS
 62
     7
100
AcDbLine
 10
3.1447857097
 20
2.8925365541
 30
0.0
 11
3.1447857097
 21
4.6248200187
 31
0.0
  0
LINE
  5
118
330
1F
100
AcDbEntity
  8
0
  6
CONTINUOUS
 62
     7
100
AcDbLine
 10
3.1251006703
 20
4.6051349793
 30
0.0
 11
3.1251006703
 21
2.9122215935
 31
0.0
  0
LINE
  5
119
330
1F
100
AcDbEntity
  8
0
  6
CONTINUOUS
 62
     7
100
AcDbLine
 10
3.2478959459
 20
2.8925365541
 30
0.0
 11
3.2478959459
 21
4.6248200187
 31
0.0
  0
LINE
  5
11A
330
1F
100
AcDbEntity
  8
0
  6
CONTINUOUS
 62
     7
100
AcDbLine
 10
3.3561636624
 20
3.8804732536
 30
0.0
 11
3.2971085443
 21
3.8804732536
 31
0.0
  0
LINE
  5
11B
330
1F
100
AcDbEntity
  8
0
  6
CONTINUOUS
 62
     7
100
AcDbLine
 10
3.3561636624
 20
3.8804732536
 30
0.0
 11
3.3561636624
 21
3.6368833192
 31
0.0
  0
LINE
  5
11C
330
1F
100
AcDbEntity
  8
0
  6
CONTINUOUS
 62
     7
100
AcDbLine
 10
3.3561636624
 20
3.6368833192
 30
0.0
 11
3.2971085443
 21
3.6368833192
 31
0.0
  0
LINE
  5
11D
330
1F
100
AcDbEntity
  8
0
  6
CONTINUOUS
 62
     7
100
AcDbLine
 10
3.2971085443
 20
3.8804732536
 30
0.0
 11
3.2971085443
 21
3.6368833192
 31
0.0
  0
LINE
  5
11E
330
1F
100
AcDbEntity
  8
0
  6
CONTINUOUS
 62
     7
100
AcDbLine
 10
3.3561636624
 20
2.9774345003
 30
0.0
 11
3.2971085443
 21
2.9774345003
 31
0.0
  0
LINE
  5
11F
330
1F
100
AcDbEntity
  8
0
  6
CONTINUOUS
 62
     7
100
AcDbLine
 10
3.3561636624
 20
3.6368833192
 30
0.0
 11
3.3561636624
 21
2.9774345003
 31
0.0
  0
LINE
  5
120
330
1F
100
AcDbEntity
  8
0
  6
CONTINUOUS
 62
     7
100
AcDbLine
 10
3.2971085443
 20
3.6368833192
 30
0.0
 11
3.2971085443
 21
2.9774345003
 31
0.0
  0
LINE
  5
121
330
1F
100
AcDbEntity
  8
0
  6
CONTINUOUS
 62
     7
100
AcDbLine
 10
3.3561636624
 20
4.5399220725
 30
0.0
 11
3.2971085443
 21
4.5399220725
 31
0.0
  0
LINE
  5
122
330
1F
100
AcDbEntity
  8
0
  6
CONTINUOUS
 62
     7
100
AcDbLine
 10
3.3561636624
 20
4.5399220725
 30
0.0
 11
3.3561636624
 21
3.8804732536
 31
0.0
  0
LINE
  5
123
330
1F
100
AcDbEntity
  8
0
  6
CONTINUOUS
 62
     7
100
AcDbLine
 10
3.2971085443
 20
4.5399220725
 30
0.0
 11
3.2971085443
 21
3.8804732536
 31
0.0
  0
SPLINE
  5
124
330
1F
100
AcDbEntity
  8
0
  6
CONTINUOUS
 62
     7
100
AcDbSpline
210
0.0
220
0.0
230
1.0
 70
     8
 71
     3
 72
    60
 73
    56
 74
     0
 42
0.00000001
 43
0.00000001
 40
-0.0312499999999998
 40
-0.0312499999999998
 40
0.0
 40
0.0
 40
0.03125
 40
0.03125
 40
0.0624999999999999
 40
0.0624999999999999
 40
0.125
 40
0.125
 40
0.1875
 40
0.1875
 40
0.21875
 40
0.21875
 40
0.2499999999999999
 40
0.2499999999999999
 40
0.3125000000000002
 40
0.3125000000000002
 40
0.3750000000000003
 40
0.3750000000000003
 40
0.4062500000000004
 40
0.4062500000000004
 40
0.4375000000000005
 40
0.4375000000000005
 40
0.4687500000000006
 40
0.4687500000000006
 40
0.5000000000000007
 40
0.5000000000000007
 40
0.5312500000000008
 40
0.5312500000000008
 40
0.5625000000000008
 40
0.5625000000000008
 40
0.5937500000000009
 40
0.5937500000000009
 40
0.625000000000001
 40
0.625000000000001
 40
0.656250000000001
 40
0.656250000000001
 40
0.6875000000000011
 40
0.6875000000000011
 40
0.7187500000000012
 40
0.7187500000000012
 40
0.7500000000000012
 40
0.7500000000000012
 40
0.812500000000001
 40
0.812500000000001
 40
0.8437500000000009
 40
0.8437500000000009
 40
0.8750000000000007
 40
0.8750000000000007
 40
0.9062500000000006
 40
0.9062500000000006
 40
0.9375000000000004
 40
0.9375000000000004
 40
0.9687500000000002
 40
0.9687500000000002
 40
1.0
 40
1.0
 40
1.03125
 40
1.03125
 10
2.836054062619917
 20
4.226522554665245
 30
0.0
 10
2.823596096905093
 20
4.226522554665245
 30
0.0
 10
2.817618862821886
 20
4.225795823312414
 30
0.0
 10
2.806086864381434
 20
4.223092313654621
 30
0.0
 10
2.800785298198124
 20
4.221170987413781
 30
0.0
 10
2.78615960030043
 20
4.214190717895611
 30
0.0
 10
2.778391372257961
 20
4.208130077869634
 30
0.0
 10
2.76569935662623
 20
4.194421012772615
 30
0.0
 10
2.760930085431811
 20
4.18692150347625
 30
0.0
 10
2.755701708976435
 20
4.174714398124547
 30
0.0
 10
2.75429562468938
 20
4.170473383351841
 30
0.0
 10
2.752229414257814
 20
4.161871120752175
 30
0.0
 10
2.75155616903385
 20
4.157483816658651
 30
0.0
 10
2.750663066776535
 20
4.144054367443143
 30
0.0
 10
2.751596778739702
 20
4.134624744661779
 30
0.0
 10
2.757075163589485
 20
4.116155816629126
 30
0.0
 10
2.761714941912734
 20
4.106859975945005
 30
0.0
 10
2.771713786121779
 20
4.094382999145878
 30
0.0
 10
2.775614672781123
 20
4.090397189506049
 30
0.0
 10
2.784348104996756
 20
4.083255851859841
 30
0.0
 10
2.789151742719255
 20
4.080100415757059
 30
0.0
 10
2.799746433480653
 20
4.074772493787598
 30
0.0
 10
2.805396268216422
 20
4.072684321590027
 30
0.0
 10
2.817134909473942
 20
4.069837241019463
 30
0.0
 10
2.823355641396833
 20
4.069070065518576
 30
0.0
 10
2.835598460848724
 20
4.069015952172129
 30
0.0
 10
2.841771523263894
 20
4.069715199201307
 30
0.0
 10
2.853649828885247
 20
4.072485742261988
 30
0.0
 10
2.859286532145245
 20
4.074518598393113
 30
0.0
 10
2.869982600165452
 20
4.079790228922732
 30
0.0
 10
2.874832708430662
 20
4.082925872377507
 30
0.0
 10
2.883647052291781
 20
4.090030767584681
 30
0.0
 10
2.887579912601038
 20
4.093994760219034
 30
0.0
 10
2.894334999086853
 20
4.10231591595592
 30
0.0
 10
2.897223695352662
 20
4.106752157831218
 30
0.0
 10
2.901955915742976
 20
4.115794955498369
 30
0.0
 10
2.903809051608822
 20
4.120395736641464
 30
0.0
 10
2.906616568802853
 20
4.129706875702943
 30
0.0
 10
2.907561477511333
 20
4.134417812743493
 30
0.0
 10
2.908593310210345
 20
4.143644097489118
 30
0.0
 10
2.908692699506564
 20
4.14819719874451
 30
0.0
 10
2.907851114823859
 20
4.16167464935076
 30
0.0
 10
2.905746634960321
 20
4.170446994630352
 30
0.0
 10
2.900576093214204
 20
4.182621240820025
 30
0.0
 10
2.898511341943617
 20
4.186544378496215
 30
0.0
 10
2.893643963709029
 20
4.194122917892072
 30
0.0
 10
2.890839507553655
 20
4.197770676497139
 30
0.0
 10
2.884538999521477
 20
4.204597671996249
 30
0.0
 10
2.881031337865506
 20
4.207802893036545
 30
0.0
 10
2.873107161664999
 20
4.213746040029839
 30
0.0
 10
2.868701454785785
 20
4.216465701000412
 30
0.0
 10
2.859030510434149
 20
4.221102323379958
 30
0.0
 10
2.853649294356468
 20
4.223060986638454
 30
0.0
 10
2.842225784159443
 20
4.225761123524818
 30
0.0
 10
2.836054062619917
 20
4.226522554665245
 30
0.0
 10
2.823596096905093
 20
4.226522554665245
 30
0.0
  0
LINE
  5
125
330
1F
100
AcDbEntity
  8
0
  6
CONTINUOUS
 62
     7
100
AcDbLine
 10
2.6723447648
 20
3.176001121
 30
0.0
 11
2.6723447648
 21
4.3410228393
 31
0.0
  0
LINE
  5
126
330
1F
100
AcDbEntity
  8
0
  6
CONTINUOUS
 62
     7
100
AcDbLine
 10
2.6723447648
 20
4.3410228393
 30
0.0
 11
3.0201137937
 21
4.3410228393
 31
0.0
  0
LINE
  5
127
330
1F
100
AcDbEntity
  8
0
  6
CONTINUOUS
 62
     7
100
AcDbLine
 10
3.0201137937
 20
4.3410228393
 30
0.0
 11
3.0201137937
 21
3.4653711998
 31
0.0
  0
LINE
  5
128
330
1F
100
AcDbEntity
  8
0
  6
CONTINUOUS
 62
     7
100
AcDbLine
 10
3.0201137937
 20
3.4653711998
 30
0.0
 11
3.072607232
 21
3.4653711998
 31
0.0
  0
LINE
  5
129
330
1F
100
AcDbEntity
  8
0
  6
CONTINUOUS
 62
     7
100
AcDbLine
 10
3.072607232
 20
3.4653711998
 30
0.0
 11
3.072607232
 21
4.3413554517
 31
0.0
  0
LINE
  5
12A
330
1F
100
AcDbEntity
  8
0
  6
CONTINUOUS
 62
     7
100
AcDbLine
 10
2.6573447648
 20
4.3260140453
 30
0.0
 11
2.6573447648
 21
3.191001121
 31
0.0
  0
LINE
  5
12B
330
1F
100
AcDbEntity
  8
0
  6
CONTINUOUS
 62
     7
100
AcDbLine
 10
2.6723447648
 20
4.3410228393
 30
0.0
 11
2.6573447648
 21
4.3260140453
 31
0.0
  0
LINE
  5
12C
330
1F
100
AcDbEntity
  8
0
  6
CONTINUOUS
 62
     7
100
AcDbLine
 10
3.3561636624
 20
4.5903711998
 30
0.0
 11
3.3561636624
 21
4.5399220725
 31
0.0
  0
LINE
  5
12D
330
1F
100
AcDbEntity
  8
0
  6
CONTINUOUS
 62
     7
100
AcDbLine
 10
3.2971085443
 20
4.5903711998
 30
0.0
 11
3.2971085443
 21
4.5399220725
 31
0.0
  0
LINE
  5
12E
330
1F
100
AcDbEntity
  8
0
  6
CONTINUOUS
 62
     7
100
AcDbLine
 10
3.3561636624
 20
2.9774345003
 30
0.0
 11
3.3561636624
 21
2.926985373
 31
0.0
  0
LINE
  5
12F
330
1F
100
AcDbEntity
  8
0
  6
CONTINUOUS
 62
     7
100
AcDbLine
 10
3.2971085443
 20
2.9774345003
 30
0.0
 11
3.2971085443
 21
2.926985373
 31
0.0
  0
LINE
  5
130
330
1F
100
AcDbEntity
  8
0
  6
CONTINUOUS
 62
     8
100
AcDbLine
 10
3.823447127
 20
4.1976546643
 30
0.0
 11
3.6856518514
 21
4.1976546643
 31
0.0
  0
LINE
  5
131
330
1F
100
AcDbEntity
  8
0
  6
CONTINUOUS
 62
     8
100
AcDbLine
 10
3.9612424026
 20
4.1976546643
 30
0.0
 11
3.823447127
 21
4.1976546643
 31
0.0
  0
LINE
  5
132
330
1F
100
AcDbEntity
  8
0
  6
CONTINUOUS
 62
     8
100
AcDbLine
 10
3.773793264
 20
3.3885995462
 30
0.0
 11
3.8735560215
 21
3.3885995462
 31
0.0
  0
LINE
  5
133
330
1F
100
AcDbEntity
  8
0
  6
HIDDEN
 62
     7
100
AcDbLine
 10
3.9607308364
 20
4.1920952627
 30
0.0
 11
3.9608945667
 21
4.1997107297
 31
0.0
  0
LINE
  5
134
330
1F
100
AcDbEntity
  8
0
  6
HIDDEN
 62
     7
100
AcDbLine
 10
3.6872327892
 20
4.2051532011
 30
0.0
 11
3.6857248802
 21
4.192333888
 31
0.0
  0
LINE
  5
135
330
1F
100
AcDbEntity
  8
0
  6
HIDDEN
 62
     7
100
AcDbLine
 10
3.980927442
 20
3.7783633258
 30
0.0
 11
3.980927442
 21
3.738993247
 31
0.0
  0
LINE
  5
136
330
1F
100
AcDbEntity
  8
0
  6
HIDDEN
 62
     7
100
AcDbLine
 10
3.9068383123
 20
4.0598593888
 30
0.0
 11
3.9612424026
 21
4.0598593888
 31
0.0
  0
LINE
  5
137
330
1F
100
AcDbEntity
  8
0
  6
HIDDEN
 62
     7
100
AcDbLine
 10
3.6856518514
 20
4.0598593888
 30
0.0
 11
3.7400559417
 21
4.0598593888
 31
0.0
  0
LINE
  5
138
330
1F
100
AcDbEntity
  8
0
  6
HIDDEN
 62
     7
100
AcDbLine
 10
3.9072166159
 20
4.0598593888
 30
0.0
 11
3.9612424026
 21
4.0598593888
 31
0.0
  0
LINE
  5
139
330
1F
100
AcDbEntity
  8
0
  6
HIDDEN
 62
     7
100
AcDbLine
 10
3.6856518514
 20
4.0598593888
 30
0.0
 11
3.7398990817
 21
4.0598593888
 31
0.0
  0
LINE
  5
13A
330
1F
100
AcDbEntity
  8
0
  6
HIDDEN
 62
     7
100
AcDbLine
 10
3.823447127
 20
4.0598593888
 30
0.0
 11
3.823447127
 21
4.2173397037
 31
0.0
  0
LINE
  5
13B
330
1F
100
AcDbEntity
  8
0
  6
HIDDEN
 62
     7
100
AcDbLine
 10
3.7643920089
 20
4.0598593888
 30
0.0
 11
3.7643920089
 21
4.2173397037
 31
0.0
  0
LINE
  5
13C
330
1F
100
AcDbEntity
  8
0
  6
HIDDEN
 62
     7
100
AcDbLine
 10
3.8825022451
 20
4.0598593888
 30
0.0
 11
3.8825022451
 21
4.2173397037
 31
0.0
  0
ARC
  5
13D
330
1F
100
AcDbEntity
  8
0
  6
HIDDEN
 62
     7
100
AcDbCircle
 10
2.8298250798
 20
4.1477823972
 30
0.0
 40
0.0787401574803149
100
AcDbArc
 50
0.0
 51
50.7276209559
  0
ARC
  5
13E
330
1F
100
AcDbEntity
  8
0
  6
HIDDEN
 62
     7
100
AcDbCircle
 10
2.8298250798
 20
4.1477823972
 30
0.0
 40
0.0787401574803157
100
AcDbArc
 50
129.2723790441
 51
270.0
  0
LINE
  5
13F
330
1F
100
AcDbEntity
  8
0
  6
HIDDEN
 62
     7
100
AcDbLine
 10
2.8298250798
 20
4.0795914205
 30
0.0
 11
2.8888801979
 21
4.1136869088
 31
0.0
  0
LINE
  5
140
330
1F
100
AcDbEntity
  8
0
  6
HIDDEN
 62
     7
100
AcDbLine
 10
2.7707699617
 20
4.1136869088
 30
0.0
 11
2.8298250798
 21
4.0795914205
 31
0.0
  0
LINE
  5
141
330
1F
100
AcDbEntity
  8
0
  6
HIDDEN
 62
     7
100
AcDbLine
 10
2.7707699617
 20
4.1818778855
 30
0.0
 11
2.7707699617
 21
4.1136869088
 31
0.0
  0
LINE
  5
142
330
1F
100
AcDbEntity
  8
0
  6
HIDDEN
 62
     7
100
AcDbLine
 10
2.8888801979
 20
4.1136869088
 30
0.0
 11
2.8888801979
 21
4.1818778855
 31
0.0
  0
LINE
  5
143
330
1F
100
AcDbEntity
  8
0
  6
HIDDEN
 62
     7
100
AcDbLine
 10
2.8888801979
 20
4.1818778855
 30
0.0
 11
2.8298250798
 21
4.2159733739
 31
0.0
  0
LINE
  5
144
330
1F
100
AcDbEntity
  8
0
  6
HIDDEN
 62
     7
100
AcDbLine
 10
2.8298250798
 20
4.2159733739
 30
0.0
 11
2.7707699617
 21
4.1818778855
 31
0.0
  0
CIRCLE
  5
145
330
1F
100
AcDbEntity
  8
0
  6
HIDDEN
 62
     7
100
AcDbCircle
 10
2.8298250798
 20
4.1477823972
 30
0.0
 40
0.1377952755905518
  0
CIRCLE
  5
146
330
1F
100
AcDbEntity
  8
0
  6
HIDDEN
 62
     7
100
AcDbCircle
 10
2.8298250798
 20
4.1477823972
 30
0.0
 40
0.1181102362204722
  0
LINE
  5
147
330
1F
100
AcDbEntity
  8
0
  6
HIDDEN
 62
     7
100
AcDbLine
 10
2.9132162651
 20
4.2574794718
 30
0.0
 11
2.7464338945
 21
4.2574794718
 31
0.0
  0
LINE
  5
148
330
1F
100
AcDbEntity
  8
0
  6
HIDDEN
 62
     7
100
AcDbLine
 10
3.3561636624
 20
4.5399220725
 30
0.0
 11
3.2971085443
 21
4.5399220725
 31
0.0
  0
LINE
  5
149
330
1F
100
AcDbEntity
  8
0
  6
HIDDEN
 62
     7
100
AcDbLine
 10
3.3561636624
 20
2.9774345003
 30
0.0
 11
3.2971085443
 21
2.9774345003
 31
0.0
  0
ARC
  5
14A
330
1F
100
AcDbEntity
  8
0
  6
HIDDEN
 62
     7
100
AcDbCircle
 10
2.6573447648
 20
3.5618278927
 30
0.0
 40
0.3627690288713907
100
AcDbArc
 50
270.0
 51
0.0
  0
LINE
  5
14B
330
1F
100
AcDbEntity
  8
0
  6
HIDDEN
 62
     7
100
AcDbLine
 10
2.6723447648
 20
3.5628146177
 30
0.0
 11
3.0201137937
 21
3.5628146177
 31
0.0
  0
SPLINE
  5
14C
330
1F
100
AcDbEntity
  8
0
  6
HIDDEN
 62
     7
100
AcDbSpline
210
0.0
220
0.0
230
1.0
 70
     8
 71
     3
 72
     8
 73
     4
 74
     0
 42
0.00000001
 43
0.00000001
 40
0.0
 40
0.0
 40
0.0
 40
0.0
 40
1.0
 40
1.0
 40
1.0
 40
1.0
 10
2.672344764801875
 20
3.562814617670271
 30
0.0
 10
2.667345661662633
 20
3.557790329972952
 30
0.0
 10
2.662345597874553
 20
3.552767000250462
 30
0.0
 10
2.657344764801875
 20
3.547744437671229
 30
0.0
  0
LINE
  5
14D
330
1F
100
AcDbEntity
  8
0
  6
HIDDEN
 62
     7
100
AcDbLine
 10
3.0201137937
 20
3.9545419551
 30
0.0
 11
2.6723447648
 21
3.9545419551
 31
0.0
  0
SPLINE
  5
14E
330
1F
100
AcDbEntity
  8
0
  6
HIDDEN
 62
     7
100
AcDbSpline
210
0.0
220
0.0
230
1.0
 70
     8
 71
     3
 72
     8
 73
     4
 74
     0
 42
0.00000001
 43
0.00000001
 40
0.0
 40
0.0
 40
0.0
 40
0.0
 40
1.0
 40
1.0
 40
1.0
 40
1.0
 10
2.657344764801875
 20
3.969612135112865
 30
0.0
 10
2.662345597874894
 20
3.964589572533291
 30
0.0
 10
2.667345661663
 20
3.959566242810773
 30
0.0
 10
2.672344764801875
 20
3.954541955113823
 30
0.0
  0
ARC
  5
14F
330
1F
100
AcDbEntity
  8
0
  6
HIDDEN
 62
     7
100
AcDbCircle
 10
2.8298250798
 20
4.1477823972
 30
0.0
 40
0.1377952755905509
100
AcDbArc
 50
127.2419212273
 51
52.7580787727
  0
LINE
  5
150
330
1F
100
AcDbEntity
  8
0
  6
HIDDEN
 62
     7
100
AcDbLine
 10
3.3561636624
 20
3.6368833192
 30
0.0
 11
3.2971085443
 21
3.6368833192
 31
0.0
  0
LINE
  5
151
330
1F
100
AcDbEntity
  8
0
  6
HIDDEN
 62
     7
100
AcDbLine
 10
3.3561636624
 20
3.8804732536
 30
0.0
 11
3.2971085443
 21
3.8804732536
 31
0.0
  0
LINE
  5
152
330
1F
100
AcDbEntity
  8
0
  6
HIDDEN
 62
     7
100
AcDbLine
 10
3.9612424026
 20
4.0598593888
 30
0.0
 11
3.9612424026
 21
4.1920952627
 31
0.0
  0
LINE
  5
153
330
1F
100
AcDbEntity
  8
0
  6
HIDDEN
 62
     7
100
AcDbLine
 10
3.6856518514
 20
4.192333888
 30
0.0
 11
3.6856518514
 21
4.0598593888
 31
0.0
  0
LINE
  5
154
330
1F
100
AcDbEntity
  8
0
  6
HIDDEN
 62
     7
100
AcDbLine
 10
3.7447069695
 20
3.738993247
 30
0.0
 11
3.7447069695
 21
3.3249905349
 31
0.0
  0
LINE
  5
155
330
1F
100
AcDbEntity
  8
0
  6
HIDDEN
 62
     7
100
AcDbLine
 10
3.9021872845
 20
3.3251228629
 30
0.0
 11
3.9021872845
 21
3.738993247
 31
0.0
  0
LINE
  5
156
330
1F
100
AcDbEntity
  8
0
  6
HIDDEN
 62
     7
100
AcDbLine
 10
3.7447069695
 20
4.0598593888
 30
0.0
 11
3.7447069695
 21
3.7783633258
 31
0.0
  0
LINE
  5
157
330
1F
100
AcDbEntity
  8
0
  6
HIDDEN
 62
     7
100
AcDbLine
 10
3.9021872845
 20
3.7783633258
 30
0.0
 11
3.9021872845
 21
4.0598593888
 31
0.0
  0
LINE
  5
158
330
1F
100
AcDbEntity
  8
0
  6
HIDDEN
 62
     7
100
AcDbLine
 10
3.995927442
 20
3.9705286801
 30
0.0
 11
3.980927442
 21
3.9555286801
 31
0.0
  0
LINE
  5
159
330
1F
100
AcDbEntity
  8
0
  6
HIDDEN
 62
     7
100
AcDbLine
 10
3.980927442
 20
3.5618278927
 30
0.0
 11
3.995927442
 21
3.5468278927
 31
0.0
  0
LINE
  5
15A
330
1F
100
AcDbEntity
  8
0
  6
HIDDEN
 62
     7
100
AcDbLine
 10
3.5806649748
 20
3.9555286801
 30
0.0
 11
3.4053762609
 21
3.9555286801
 31
0.0
  0
LINE
  5
15B
330
1F
100
AcDbEntity
  8
0
  6
HIDDEN
 62
     7
100
AcDbLine
 10
3.4053762609
 20
3.5618278927
 30
0.0
 11
3.5806649748
 21
3.5618278927
 31
0.0
  0
LINE
  5
15C
330
1F
100
AcDbEntity
  8
0
  6
HIDDEN
 62
     7
100
AcDbLine
 10
3.6331584131
 20
3.5618278927
 30
0.0
 11
3.980927442
 21
3.5618278927
 31
0.0
  0
LINE
  5
15D
330
1F
100
AcDbEntity
  8
0
  6
HIDDEN
 62
     7
100
AcDbLine
 10
3.980927442
 20
3.9555286801
 30
0.0
 11
3.6331584131
 21
3.9555286801
 31
0.0
  0
LINE
  5
15E
330
1F
100
AcDbEntity
  8
0
  6
HIDDEN
 62
     7
100
AcDbLine
 10
3.9612424026
 20
4.0598593888
 30
0.0
 11
3.9612424026
 21
4.1853298175
 31
0.0
  0
LINE
  5
15F
330
1F
100
AcDbEntity
  8
0
  6
HIDDEN
 62
     7
100
AcDbLine
 10
3.6856518514
 20
4.192395556
 30
0.0
 11
3.6856518514
 21
4.0598593888
 31
0.0
  0
ARC
  5
160
330
1F
100
AcDbEntity
  8
0
  6
HIDDEN
 62
     7
100
AcDbCircle
 10
3.8825022451
 20
3.3885995462
 30
0.0
 40
0.0196850393700787
100
AcDbArc
 50
285.6080741417
 51
0.0
  0
ARC
  5
161
330
1F
100
AcDbEntity
  8
0
  6
HIDDEN
 62
     7
100
AcDbCircle
 10
3.7643920089
 20
3.3885995462
 30
0.0
 40
0.0196850393700787
100
AcDbArc
 50
180.0
 51
253.570691439
  0
LINE
  5
162
330
1F
100
AcDbEntity
  8
0
  6
HIDDEN
 62
     7
100
AcDbLine
 10
3.7447069695
 20
4.0598593888
 30
0.0
 11
3.7447069695
 21
3.7783633258
 31
0.0
  0
LINE
  5
163
330
1F
100
AcDbEntity
  8
0
  6
HIDDEN
 62
     7
100
AcDbLine
 10
3.7447069695
 20
3.738993247
 30
0.0
 11
3.7447069695
 21
3.3885995462
 31
0.0
  0
LINE
  5
164
330
1F
100
AcDbEntity
  8
0
  6
HIDDEN
 62
     7
100
AcDbLine
 10
3.9021872845
 20
3.3885995462
 30
0.0
 11
3.9021872845
 21
3.738993247
 31
0.0
  0
LINE
  5
165
330
1F
100
AcDbEntity
  8
0
  6
HIDDEN
 62
     7
100
AcDbLine
 10
3.9021872845
 20
3.7783633258
 30
0.0
 11
3.9021872845
 21
4.0598593888
 31
0.0
  0
LINE
  5
166
330
1F
100
AcDbEntity
  8
0
  6
HIDDEN
 62
     7
100
AcDbLine
 10
3.3561636624
 20
4.0342688376
 30
0.0
 11
3.2971085443
 21
4.0342688376
 31
0.0
  0
LINE
  5
167
330
1F
100
AcDbEntity
  8
0
  6
HIDDEN
 62
     7
100
AcDbLine
 10
3.2971085443
 20
3.4830877352
 30
0.0
 11
3.3561636624
 21
3.4830877352
 31
0.0
  0
LINE
  5
168
330
1F
100
AcDbEntity
  8
0
  6
HIDDEN
 62
     7
100
AcDbLine
 10
3.072607232
 20
3.5618278927
 30
0.0
 11
3.2478959459
 21
3.5618278927
 31
0.0
  0
LINE
  5
169
330
1F
100
AcDbEntity
  8
0
  6
HIDDEN
 62
     7
100
AcDbLine
 10
3.2478959459
 20
3.9555286801
 30
0.0
 11
3.072607232
 21
3.9555286801
 31
0.0
  0
LINE
  5
16A
330
1F
100
AcDbEntity
  8
0
  6
HIDDEN
 62
     7
100
AcDbLine
 10
3.6856518514
 20
4.1976546643
 30
0.0
 11
3.9612424026
 21
4.1976546643
 31
0.0
  0
LINE
  5
16B
330
1F
100
AcDbEntity
  8
0
  6
HIDDEN
 62
     7
100
AcDbLine
 10
3.823447127
 20
3.3885995462
 30
0.0
 11
3.7447069695
 21
3.3885995462
 31
0.0
  0
LINE
  5
16C
330
1F
100
AcDbEntity
  8
0
  6
HIDDEN
 62
     7
100
AcDbLine
 10
3.823447127
 20
3.3885995462
 30
0.0
 11
3.9021872845
 21
3.3885995462
 31
0.0
  0
LINE
  5
16D
330
1F
100
AcDbEntity
  8
0
  6
CONTINUOUS
 62
     7
100
AcDbLine
 10
7.7239852199
 20
4.1976546643
 30
0.0
 11
7.7239852199
 21
4.0598593888
 31
0.0
  0
ARC
  5
16E
330
1F
100
AcDbEntity
  8
0
  6
CONTINUOUS
 62
     7
100
AcDbCircle
 10
7.7436702593
 20
4.1976546643
 30
0.0
 40
0.0196850393700796
100
AcDbArc
 50
90.0
 51
180.0
  0
ARC
  5
16F
330
1F
100
AcDbEntity
  8
0
  6
CONTINUOUS
 62
     7
100
AcDbCircle
 10
7.8027253774
 20
3.3885995462
 30
0.0
 40
0.0196850393700787
100
AcDbArc
 50
180.0
 51
270.0
  0
LINE
  5
170
330
1F
100
AcDbEntity
  8
0
  6
CONTINUOUS
 62
     7
100
AcDbLine
 10
7.7830403381
 20
3.7783633258
 30
0.0
 11
7.7830403381
 21
3.738993247
 31
0.0
  0
LINE
  5
171
330
1F
100
AcDbEntity
  8
0
  6
CONTINUOUS
 62
     7
100
AcDbLine
 10
7.7830403381
 20
3.4113536261
 30
0.0
 11
7.7830403381
 21
3.3885995462
 31
0.0
  0
LINE
  5
172
330
1F
100
AcDbEntity
  8
0
  6
CONTINUOUS
 62
     7
100
AcDbLine
 10
7.940520653
 20
3.738993247
 30
0.0
 11
7.940520653
 21
3.7783633258
 31
0.0
  0
ARC
  5
173
330
1F
100
AcDbEntity
  8
0
  6
CONTINUOUS
 62
     7
100
AcDbCircle
 10
8.2508846063
 20
3.7586782864
 30
0.0
 40
0.5676771653543312
100
AcDbArc
 50
181.9872136887
 51
178.0127863113
  0
LINE
  5
174
330
1F
100
AcDbEntity
  8
0
  6
CONTINUOUS
 62
     7
100
AcDbLine
 10
7.6685400535
 20
3.7783633258
 30
0.0
 11
7.6835488475
 21
3.7783633258
 31
0.0
  0
ARC
  5
175
330
1F
100
AcDbEntity
  8
0
  6
CONTINUOUS
 62
     7
100
AcDbCircle
 10
8.2508846063
 20
3.7586782864
 30
0.0
 40
0.5826771653543298
100
AcDbArc
 50
181.9360366266
 51
178.0639633734
  0
LINE
  5
176
330
1F
100
AcDbEntity
  8
0
  6
CONTINUOUS
 62
     7
100
AcDbLine
 10
7.6685400535
 20
3.738993247
 30
0.0
 11
7.6835488475
 21
3.738993247
 31
0.0
  0
LINE
  5
177
330
1F
100
AcDbEntity
  8
0
  6
CONTINUOUS
 62
     7
100
AcDbLine
 10
8.8105040289
 20
3.7783633258
 30
0.0
 11
8.8105040289
 21
3.738993247
 31
0.0
  0
LINE
  5
178
330
1F
100
AcDbEntity
  8
0
  6
CONTINUOUS
 62
     7
100
AcDbLine
 10
8.8105040289
 20
3.7783633258
 30
0.0
 11
8.461818455
 21
3.7783633258
 31
0.0
  0
ARC
  5
179
330
1F
100
AcDbEntity
  8
0
  6
CONTINUOUS
 62
     7
100
AcDbCircle
 10
8.2508846063
 20
3.7586782864
 30
0.0
 40
0.2118503937007878
100
AcDbArc
 50
5.3315880424
 51
174.6684119576
  0
LINE
  5
17A
330
1F
100
AcDbEntity
  8
0
  6
CONTINUOUS
 62
     7
100
AcDbLine
 10
7.6835488475
 20
3.7783633258
 30
0.0
 11
8.0399507576
 21
3.7783633258
 31
0.0
  0
LINE
  5
17B
330
1F
100
AcDbEntity
  8
0
  6
CONTINUOUS
 62
     7
100
AcDbLine
 10
7.6835488475
 20
3.738993247
 30
0.0
 11
8.0399507576
 21
3.738993247
 31
0.0
  0
ARC
  5
17C
330
1F
100
AcDbEntity
  8
0
  6
CONTINUOUS
 62
     7
100
AcDbCircle
 10
8.2508846063
 20
3.7586782864
 30
0.0
 40
0.2118503937007878
100
AcDbArc
 50
185.3315880424
 51
354.6684119576
  0
LINE
  5
17D
330
1F
100
AcDbEntity
  8
0
  6
CONTINUOUS
 62
     7
100
AcDbLine
 10
8.461818455
 20
3.738993247
 30
0.0
 11
8.8105040289
 21
3.738993247
 31
0.0
  0
LINE
  5
17E
330
1F
100
AcDbEntity
  8
0
  6
CONTINUOUS
 62
     7
100
AcDbLine
 10
8.447735
 20
3.738993247
 30
0.0
 11
8.447735
 21
3.7783633258
 31
0.0
  0
SPLINE
  5
17F
330
1F
100
AcDbEntity
  8
0
  6
CONTINUOUS
 62
     7
100
AcDbSpline
210
0.0
220
0.0
230
1.0
 70
    24
 71
     3
 72
     8
 73
     4
 74
     0
 42
0.00000001
 43
0.00000001
 40
0.0
 40
0.0
 40
0.0
 40
0.0
 40
1.0
 40
1.0
 40
1.0
 40
1.0
 10
8.039950757603172
 20
3.778363325762126
 30
0.0
 10
8.044973320182747
 20
3.778363325762126
 30
0.0
 10
8.049996649905264
 20
3.778363325762126
 30
0.0
 10
8.055020937602215
 20
3.778363325762126
 30
0.0
  0
ARC
  5
180
330
1F
100
AcDbEntity
  8
0
  6
CONTINUOUS
 62
     7
100
AcDbCircle
 10
8.2508846063
 20
3.7586782864
 30
0.0
 40
0.1968503937007877
100
AcDbArc
 50
5.7391704773
 51
174.2608295227
  0
SPLINE
  5
181
330
1F
100
AcDbEntity
  8
0
  6
CONTINUOUS
 62
     7
100
AcDbSpline
210
0.0
220
0.0
230
1.0
 70
    24
 71
     3
 72
     8
 73
     4
 74
     0
 42
0.00000001
 43
0.00000001
 40
0.0
 40
0.0
 40
0.0
 40
0.0
 40
1.0
 40
1.0
 40
1.0
 40
1.0
 10
8.446748275045765
 20
3.778363325762126
 30
0.0
 10
8.451772562743084
 20
3.778363325762126
 30
0.0
 10
8.456795892465577
 20
3.778363325762126
 30
0.0
 10
8.461818455044808
 20
3.778363325762126
 30
0.0
  0
SPLINE
  5
182
330
1F
100
AcDbEntity
  8
0
  6
CONTINUOUS
 62
     7
100
AcDbSpline
210
0.0
220
0.0
230
1.0
 70
    24
 71
     3
 72
     8
 73
     4
 74
     0
 42
0.00000001
 43
0.00000001
 40
0.0
 40
0.0
 40
0.0
 40
0.0
 40
1.0
 40
1.0
 40
1.0
 40
1.0
 10
8.039950757603172
 20
3.738993247021968
 30
0.0
 10
8.044973320182747
 20
3.738993247021968
 30
0.0
 10
8.049996649905264
 20
3.738993247021968
 30
0.0
 10
8.055020937602215
 20
3.738993247021968
 30
0.0
  0
ARC
  5
183
330
1F
100
AcDbEntity
  8
0
  6
CONTINUOUS
 62
     7
100
AcDbCircle
 10
8.2508846063
 20
3.7586782864
 30
0.0
 40
0.1968503937007877
100
AcDbArc
 50
185.7391704773
 51
354.2608295227
  0
SPLINE
  5
184
330
1F
100
AcDbEntity
  8
0
  6
CONTINUOUS
 62
     7
100
AcDbSpline
210
0.0
220
0.0
230
1.0
 70
    24
 71
     3
 72
     8
 73
     4
 74
     0
 42
0.00000001
 43
0.00000001
 40
0.0
 40
0.0
 40
0.0
 40
0.0
 40
1.0
 40
1.0
 40
1.0
 40
1.0
 10
8.446748275045765
 20
3.738993247021968
 30
0.0
 10
8.451772562743084
 20
3.738993247021968
 30
0.0
 10
8.456795892465577
 20
3.738993247021968
 30
0.0
 10
8.461818455044808
 20
3.738993247021968
 30
0.0
  0
POLYLINE
  5
185
330
1F
100
AcDbEntity
  8
0
  6
CONTINUOUS
 62
     7
100
AcDb2dPolyline
 66
     1
 10
0.0
 20
0.0
 30
0.0
  0
VERTEX
  5
2EA
330
185
100
AcDbEntity
  8
0
  6
CONTINUOUS
 62
     7
100
AcDbVertex
100
AcDb2dVertex
 10
8.0540342126
 20
3.7586782864
 30
0.0
  0
VERTEX
  5
2EB
330
185
100
AcDbEntity
  8
0
  6
CONTINUOUS
 62
     7
100
AcDbVertex
100
AcDb2dVertex
 10
8.0550124064
 20
3.7390783166
 30
0.0
  0
VERTEX
  5
2EC
330
185
100
AcDbEntity
  8
0
  6
CONTINUOUS
 62
     7
100
AcDbVertex
100
AcDb2dVertex
 10
8.0550209376
 20
3.738993247
 30
0.0
  0
SEQEND
  5
2ED
330
185
100
AcDbEntity
  8
0
  6
CONTINUOUS
 62
     7
  0
ARC
  5
186
330
1F
100
AcDbEntity
  8
0
  6
CONTINUOUS
 62
     7
100
AcDbCircle
 10
8.2508846063
 20
3.7586782864
 30
0.0
 40
0.1968503937007877
100
AcDbArc
 50
354.2608295227
 51
5.7391704773
  0
POLYLINE
  5
187
330
1F
100
AcDbEntity
  8
0
  6
CONTINUOUS
 62
     7
100
AcDb2dPolyline
 66
     1
 10
0.0
 20
0.0
 30
0.0
  0
VERTEX
  5
2EE
330
187
100
AcDbEntity
  8
0
  6
CONTINUOUS
 62
     7
100
AcDbVertex
100
AcDb2dVertex
 10
8.0550209376
 20
3.7783633258
 30
0.0
  0
VERTEX
  5
2EF
330
187
100
AcDbEntity
  8
0
  6
CONTINUOUS
 62
     7
100
AcDbVertex
100
AcDb2dVertex
 10
8.0550124064
 20
3.7782782562
 30
0.0
  0
VERTEX
  5
2F0
330
187
100
AcDbEntity
  8
0
  6
CONTINUOUS
 62
     7
100
AcDbVertex
100
AcDb2dVertex
 10
8.0540342126
 20
3.7586782864
 30
0.0
  0
SEQEND
  5
2F1
330
187
100
AcDbEntity
  8
0
  6
CONTINUOUS
 62
     7
  0
ARC
  5
188
330
1F
100
AcDbEntity
  8
0
  6
CONTINUOUS
 62
     7
100
AcDbCircle
 10
8.2508846063
 20
3.7586782864
 30
0.0
 40
0.5826771653543316
100
AcDbArc
 50
178.0639633734
 51
181.9360366266
  0
CIRCLE
  5
189
330
1F
100
AcDbEntity
  8
0
  6
CONTINUOUS
 62
     7
100
AcDbCircle
 10
8.2508846063
 20
3.7586782864
 30
0.0
 40
0.8661417322834648
  0
CIRCLE
  5
18A
330
1F
100
AcDbEntity
  8
0
  6
CONTINUOUS
 62
     7
100
AcDbCircle
 10
8.2508846063
 20
3.7586782864
 30
0.0
 40
0.846456692913387
  0
LINE
  5
18B
330
1F
100
AcDbEntity
  8
0
  6
CONTINUOUS
 62
     7
100
AcDbLine
 10
7.7239852199
 20
4.0598593888
 30
0.0
 11
7.7520834209
 21
4.0598593888
 31
0.0
  0
LINE
  5
18C
330
1F
100
AcDbEntity
  8
0
  6
CONTINUOUS
 62
     7
100
AcDbLine
 10
7.7436702593
 20
4.2173397037
 30
0.0
 11
7.8915207471
 21
4.2173397037
 31
0.0
  0
LINE
  5
18D
330
1F
100
AcDbEntity
  8
0
  6
CONTINUOUS
 62
     7
100
AcDbLine
 10
7.817760057
 20
3.3689145069
 30
0.0
 11
7.8027253774
 21
3.3689145069
 31
0.0
  0
LINE
  5
18E
330
1F
100
AcDbEntity
  8
0
  6
CONTINUOUS
 62
     8
100
AcDbLine
 10
7.8677235193
 20
4.1976546643
 30
0.0
 11
7.7239852199
 21
4.1976546643
 31
0.0
  0
LINE
  5
18F
330
1F
100
AcDbEntity
  8
0
  6
CONTINUOUS
 62
     8
100
AcDbLine
 10
7.7830403381
 20
3.3885995462
 30
0.0
 11
7.8008241603
 21
3.3885995462
 31
0.0
  0
LINE
  5
190
330
1F
100
AcDbEntity
  8
0
  6
HIDDEN
 62
     7
100
AcDbLine
 10
7.7520834209
 20
4.0598593888
 30
0.0
 11
7.9995757711
 21
4.0598593888
 31
0.0
  0
LINE
  5
191
330
1F
100
AcDbEntity
  8
0
  6
HIDDEN
 62
     7
100
AcDbLine
 10
8.5441916929
 20
3.2552067063
 30
0.0
 11
8.5441916929
 21
4.2621498665
 31
0.0
  0
LINE
  5
192
330
1F
100
AcDbEntity
  8
0
  6
HIDDEN
 62
     7
100
AcDbLine
 10
7.8915207471
 20
4.2173397037
 30
0.0
 11
7.9798907313
 21
4.2173397037
 31
0.0
  0
LINE
  5
193
330
1F
100
AcDbEntity
  8
0
  6
HIDDEN
 62
     7
100
AcDbLine
 10
7.9208356136
 20
3.3689145069
 30
0.0
 11
7.817760057
 21
3.3689145069
 31
0.0
  0
LINE
  5
194
330
1F
100
AcDbEntity
  8
0
  6
HIDDEN
 62
     7
100
AcDbLine
 10
7.8958759839
 20
4.0598593888
 30
0.0
 11
7.8958759839
 21
4.2173397037
 31
0.0
  0
LINE
  5
195
330
1F
100
AcDbEntity
  8
0
  6
HIDDEN
 62
     7
100
AcDbLine
 10
7.8276850072
 20
4.0598593888
 30
0.0
 11
7.8276850072
 21
4.2173397037
 31
0.0
  0
LINE
  5
196
330
1F
100
AcDbEntity
  8
0
  6
HIDDEN
 62
     7
100
AcDbLine
 10
7.9299714722
 20
4.0598593888
 30
0.0
 11
7.9299714722
 21
4.2173397037
 31
0.0
  0
LINE
  5
197
330
1F
100
AcDbEntity
  8
0
  6
HIDDEN
 62
     7
100
AcDbLine
 10
7.7935895189
 20
4.0598593888
 30
0.0
 11
7.7935895189
 21
4.2173397037
 31
0.0
  0
LINE
  5
198
330
1F
100
AcDbEntity
  8
0
  6
HIDDEN
 62
     7
100
AcDbLine
 10
8.7095460236
 20
4.0296721614
 30
0.0
 11
8.7095460236
 21
4.2658926334
 31
0.0
  0
LINE
  5
199
330
1F
100
AcDbEntity
  8
0
  6
HIDDEN
 62
     7
100
AcDbLine
 10
8.6898609843
 20
4.2855776728
 30
0.0
 11
8.6898609843
 21
4.0102291271
 31
0.0
  0
LINE
  5
19A
330
1F
100
AcDbEntity
  8
0
  6
HIDDEN
 62
     7
100
AcDbLine
 10
8.5520657087
 20
4.0099871216
 30
0.0
 11
8.5520657087
 21
4.2855776728
 31
0.0
  0
LINE
  5
19B
330
1F
100
AcDbEntity
  8
0
  6
HIDDEN
 62
     7
100
AcDbLine
 10
7.8808058662
 20
4.0690422397
 30
0.0
 11
7.8808058662
 21
4.2265225547
 31
0.0
  0
LINE
  5
19C
330
1F
100
AcDbEntity
  8
0
  6
HIDDEN
 62
     7
100
AcDbLine
 10
7.8611208268
 20
4.2068375116
 30
0.0
 11
7.8611208268
 21
4.0887272791
 31
0.0
  0
LINE
  5
19D
330
1F
100
AcDbEntity
  8
0
  6
HIDDEN
 62
     7
100
AcDbLine
 10
8.5520657087
 20
4.1818778855
 30
0.0
 11
8.7095460236
 21
4.1818778855
 31
0.0
  0
LINE
  5
19E
330
1F
100
AcDbEntity
  8
0
  6
HIDDEN
 62
     7
100
AcDbLine
 10
8.5520657087
 20
4.1136869088
 30
0.0
 11
8.7095460236
 21
4.1136869088
 31
0.0
  0
LINE
  5
19F
330
1F
100
AcDbEntity
  8
0
  6
HIDDEN
 62
     7
100
AcDbLine
 10
8.5520657087
 20
4.2159733739
 30
0.0
 11
8.7095460236
 21
4.2159733739
 31
0.0
  0
LINE
  5
1A0
330
1F
100
AcDbEntity
  8
0
  6
HIDDEN
 62
     7
100
AcDbLine
 10
8.5520657087
 20
4.0795914205
 30
0.0
 11
8.7095460236
 21
4.0795914205
 31
0.0
  0
CIRCLE
  5
1A1
330
1F
100
AcDbEntity
  8
0
  6
HIDDEN
 62
     7
100
AcDbCircle
 10
8.9103334252
 20
3.7586782864
 30
0.0
 40
0.13779527559055
  0
CIRCLE
  5
1A2
330
1F
100
AcDbEntity
  8
0
  6
HIDDEN
 62
     7
100
AcDbCircle
 10
8.2508846063
 20
4.4181271053
 30
0.0
 40
0.1377952755905518
  0
CIRCLE
  5
1A3
330
1F
100
AcDbEntity
  8
0
  6
HIDDEN
 62
     7
100
AcDbCircle
 10
8.2508846063
 20
3.0992294675
 30
0.0
 40
0.1377952755905518
  0
CIRCLE
  5
1A4
330
1F
100
AcDbEntity
  8
0
  6
HIDDEN
 62
     7
100
AcDbCircle
 10
7.5914357874
 20
3.7586782864
 30
0.0
 40
0.1377952755905518
  0
LINE
  5
1A5
330
1F
100
AcDbEntity
  8
0
  6
HIDDEN
 62
     7
100
AcDbLine
 10
8.1290896391
 20
4.5399220725
 30
0.0
 11
7.4696408202
 21
3.8804732536
 31
0.0
  0
ARC
  5
1A6
330
1F
100
AcDbEntity
  8
0
  6
HIDDEN
 62
     7
100
AcDbCircle
 10
8.2508846063
 20
4.4181271053
 30
0.0
 40
0.1722440944881891
100
AcDbArc
 50
45.0
 51
135.0
  0
LINE
  5
1A7
330
1F
100
AcDbEntity
  8
0
  6
HIDDEN
 62
     7
100
AcDbLine
 10
9.0321283925
 20
3.8804732536
 30
0.0
 11
8.3726795736
 21
4.5399220725
 31
0.0
  0
ARC
  5
1A8
330
1F
100
AcDbEntity
  8
0
  6
HIDDEN
 62
     7
100
AcDbCircle
 10
8.9103334252
 20
3.7586782864
 30
0.0
 40
0.1722440944881878
100
AcDbArc
 50
315.0
 51
45.0
  0
LINE
  5
1A9
330
1F
100
AcDbEntity
  8
0
  6
HIDDEN
 62
     7
100
AcDbLine
 10
8.3726795736
 20
2.9774345003
 30
0.0
 11
9.0321283925
 21
3.6368833192
 31
0.0
  0
ARC
  5
1AA
330
1F
100
AcDbEntity
  8
0
  6
HIDDEN
 62
     7
100
AcDbCircle
 10
8.2508846063
 20
3.0992294675
 30
0.0
 40
0.1722440944881891
100
AcDbArc
 50
225.0
 51
315.0
  0
LINE
  5
1AB
330
1F
100
AcDbEntity
  8
0
  6
HIDDEN
 62
     7
100
AcDbLine
 10
7.4696408202
 20
3.6368833192
 30
0.0
 11
8.1290896391
 21
2.9774345003
 31
0.0
  0
ARC
  5
1AC
330
1F
100
AcDbEntity
  8
0
  6
HIDDEN
 62
     7
100
AcDbCircle
 10
7.5914357874
 20
3.7586782864
 30
0.0
 40
0.1722440944881882
100
AcDbArc
 50
135.0
 51
225.0
  0
CIRCLE
  5
1AD
330
1F
100
AcDbEntity
  8
0
  6
HIDDEN
 62
     7
100
AcDbCircle
 10
8.2508846063
 20
3.7586782864
 30
0.0
 40
0.2755905511811036
  0
CIRCLE
  5
1AE
330
1F
100
AcDbEntity
  8
0
  6
HIDDEN
 62
     7
100
AcDbCircle
 10
8.2508846063
 20
3.7586782864
 30
0.0
 40
0.582677165354331
  0
LINE
  5
1AF
330
1F
100
AcDbEntity
  8
0
  6
HIDDEN
 62
     7
100
AcDbLine
 10
7.7474130262
 20
3.4653711998
 30
0.0
 11
8.7543561864
 21
3.4653711998
 31
0.0
  0
LINE
  5
1B0
330
1F
100
AcDbEntity
  8
0
  6
HIDDEN
 62
     7
100
AcDbLine
 10
8.231199567
 20
3.5618278927
 30
0.0
 11
8.231199567
 21
3.5628146177
 31
0.0
  0
LINE
  5
1B1
330
1F
100
AcDbEntity
  8
0
  6
HIDDEN
 62
     7
100
AcDbLine
 10
8.231199567
 20
3.5618278927
 30
0.0
 11
8.2705696457
 21
3.5618278927
 31
0.0
  0
LINE
  5
1B2
330
1F
100
AcDbEntity
  8
0
  6
HIDDEN
 62
     7
100
AcDbLine
 10
8.2705696457
 20
3.5628146177
 30
0.0
 11
8.2705696457
 21
3.5618278927
 31
0.0
  0
LINE
  5
1B3
330
1F
100
AcDbEntity
  8
0
  6
HIDDEN
 62
     7
100
AcDbLine
 10
8.2705696457
 20
3.9545419551
 30
0.0
 11
8.2705696457
 21
4.3410228393
 31
0.0
  0
LINE
  5
1B4
330
1F
100
AcDbEntity
  8
0
  6
HIDDEN
 62
     7
100
AcDbLine
 10
8.231199567
 20
3.9545419551
 30
0.0
 11
8.231199567
 21
4.3410228393
 31
0.0
  0
LINE
  5
1B5
330
1F
100
AcDbEntity
  8
0
  6
HIDDEN
 62
     7
100
AcDbLine
 10
8.231199567
 20
3.1990588638
 30
0.0
 11
8.231199567
 21
3.5618278927
 31
0.0
  0
LINE
  5
1B6
330
1F
100
AcDbEntity
  8
0
  6
HIDDEN
 62
     7
100
AcDbLine
 10
8.2705696457
 20
3.1990588638
 30
0.0
 11
8.231199567
 21
3.1990588638
 31
0.0
  0
LINE
  5
1B7
330
1F
100
AcDbEntity
  8
0
  6
HIDDEN
 62
     7
100
AcDbLine
 10
8.2705696457
 20
3.5618278927
 30
0.0
 11
8.2705696457
 21
3.1990588638
 31
0.0
  0
LINE
  5
1B8
330
1F
100
AcDbEntity
  8
0
  6
HIDDEN
 62
     7
100
AcDbLine
 10
8.5520657087
 20
4.0099871216
 30
0.0
 11
8.5520657087
 21
4.2574794718
 31
0.0
  0
ARC
  5
1B9
330
1F
100
AcDbEntity
  8
0
  6
HIDDEN
 62
     7
100
AcDbCircle
 10
8.2508846063
 20
3.7586782864
 30
0.0
 40
0.2118503937007914
100
AcDbArc
 50
174.6684119576
 51
185.3315880424
  0
ARC
  5
1BA
330
1F
100
AcDbEntity
  8
0
  6
HIDDEN
 62
     7
100
AcDbCircle
 10
8.2508846063
 20
3.7586782864
 30
0.0
 40
0.2118503937007843
100
AcDbArc
 50
354.6684119576
 51
5.3315880424
  0
ARC
  5
1BB
330
1F
100
AcDbEntity
  8
0
  6
HIDDEN
 62
     7
100
AcDbCircle
 10
8.2508846063
 20
3.7586782864
 30
0.0
 40
0.5676771653543348
100
AcDbArc
 50
178.0127863113
 51
181.9872136887
  0
LINE
  5
1BC
330
1F
100
AcDbEntity
  8
0
  6
HIDDEN
 62
     7
100
AcDbLine
 10
7.9995757711
 20
4.0598593888
 30
0.0
 11
7.9995757711
 21
4.2842759375
 31
0.0
  0
LINE
  5
1BD
330
1F
100
AcDbEntity
  8
0
  6
HIDDEN
 62
     7
100
AcDbLine
 10
7.7830403381
 20
3.738993247
 30
0.0
 11
7.7830403381
 21
3.4113536261
 31
0.0
  0
LINE
  5
1BE
330
1F
100
AcDbEntity
  8
0
  6
HIDDEN
 62
     7
100
AcDbLine
 10
7.940520653
 20
3.2656309009
 30
0.0
 11
7.940520653
 21
3.738993247
 31
0.0
  0
LINE
  5
1BF
330
1F
100
AcDbEntity
  8
0
  6
HIDDEN
 62
     7
100
AcDbLine
 10
7.7830403381
 20
4.0598593888
 30
0.0
 11
7.7830403381
 21
3.7783633258
 31
0.0
  0
LINE
  5
1C0
330
1F
100
AcDbEntity
  8
0
  6
HIDDEN
 62
     7
100
AcDbLine
 10
7.940520653
 20
3.7783633258
 30
0.0
 11
7.940520653
 21
4.0598593888
 31
0.0
  0
LINE
  5
1C1
330
1F
100
AcDbEntity
  8
0
  6
HIDDEN
 62
     7
100
AcDbLine
 10
7.9995757711
 20
4.0598593888
 30
0.0
 11
7.9995757711
 21
4.1976546643
 31
0.0
  0
ARC
  5
1C2
330
1F
100
AcDbEntity
  8
0
  6
HIDDEN
 62
     7
100
AcDbCircle
 10
7.9798907318
 20
4.1976546643
 30
0.0
 40
0.0196850393700787
100
AcDbArc
 50
0.0
 51
90.0
  0
ARC
  5
1C3
330
1F
100
AcDbEntity
  8
0
  6
HIDDEN
 62
     7
100
AcDbCircle
 10
7.9208356136
 20
3.3885995462
 30
0.0
 40
0.0196850393700787
100
AcDbArc
 50
270.0
 51
0.0
  0
LINE
  5
1C4
330
1F
100
AcDbEntity
  8
0
  6
HIDDEN
 62
     7
100
AcDbLine
 10
7.7830403381
 20
4.0598593888
 30
0.0
 11
7.7830403381
 21
3.7783633258
 31
0.0
  0
LINE
  5
1C5
330
1F
100
AcDbEntity
  8
0
  6
HIDDEN
 62
     7
100
AcDbLine
 10
7.7830403381
 20
3.738993247
 30
0.0
 11
7.7830403381
 21
3.4113536261
 31
0.0
  0
LINE
  5
1C6
330
1F
100
AcDbEntity
  8
0
  6
HIDDEN
 62
     7
100
AcDbLine
 10
7.940520653
 20
3.3885995462
 30
0.0
 11
7.940520653
 21
3.738993247
 31
0.0
  0
LINE
  5
1C7
330
1F
100
AcDbEntity
  8
0
  6
HIDDEN
 62
     7
100
AcDbLine
 10
7.940520653
 20
3.7783633258
 30
0.0
 11
7.940520653
 21
4.0598593888
 31
0.0
  0
ARC
  5
1C8
330
1F
100
AcDbEntity
  8
0
  6
HIDDEN
 62
     7
100
AcDbCircle
 10
8.6898609843
 20
4.2658926334
 30
0.0
 40
0.0196850393700787
100
AcDbArc
 50
0.0
 51
90.0
  0
ARC
  5
1C9
330
1F
100
AcDbEntity
  8
0
  6
HIDDEN
 62
     7
100
AcDbCircle
 10
8.6898609843
 20
4.029672161
 30
0.0
 40
0.0196850393700796
100
AcDbArc
 50
270.0
 51
360.0
  0
LINE
  5
1CA
330
1F
100
AcDbEntity
  8
0
  6
HIDDEN
 62
     7
100
AcDbLine
 10
8.5520657087
 20
4.0099871216
 30
0.0
 11
8.6898609843
 21
4.0099871216
 31
0.0
  0
LINE
  5
1CB
330
1F
100
AcDbEntity
  8
0
  6
HIDDEN
 62
     7
100
AcDbLine
 10
8.6898609843
 20
4.2855776728
 30
0.0
 11
8.5520657087
 21
4.2855776728
 31
0.0
  0
LINE
  5
1CC
330
1F
100
AcDbEntity
  8
0
  6
HIDDEN
 62
     7
100
AcDbLine
 10
8.5520657087
 20
4.2265225547
 30
0.0
 11
7.8808058662
 21
4.2265225547
 31
0.0
  0
LINE
  5
1CD
330
1F
100
AcDbEntity
  8
0
  6
HIDDEN
 62
     7
100
AcDbLine
 10
7.8808058662
 20
4.0690422397
 30
0.0
 11
8.5520657087
 21
4.0690422397
 31
0.0
  0
ARC
  5
1CE
330
1F
100
AcDbEntity
  8
0
  6
HIDDEN
 62
     7
100
AcDbCircle
 10
7.8808058662
 20
4.0887272791
 30
0.0
 40
0.0196850393700787
100
AcDbArc
 50
180.0
 51
270.0
  0
ARC
  5
1CF
330
1F
100
AcDbEntity
  8
0
  6
HIDDEN
 62
     7
100
AcDbCircle
 10
7.8808058662
 20
4.2068375153
 30
0.0
 40
0.0196850393700787
100
AcDbArc
 50
90.0
 51
180.0
  0
LINE
  5
1D0
330
1F
100
AcDbEntity
  8
0
  6
HIDDEN
 62
     7
100
AcDbLine
 10
8.5520657087
 20
4.0099871216
 30
0.0
 11
8.7764822575
 21
4.0099871216
 31
0.0
  0
LINE
  5
1D1
330
1F
100
AcDbEntity
  8
0
  6
HIDDEN
 62
     7
100
AcDbLine
 10
8.5520657087
 20
4.2265225547
 30
0.0
 11
8.2705696457
 21
4.2265225547
 31
0.0
  0
LINE
  5
1D2
330
1F
100
AcDbEntity
  8
0
  6
HIDDEN
 62
     7
100
AcDbLine
 10
8.2705696457
 20
4.0690422397
 30
0.0
 11
8.5520657087
 21
4.0690422397
 31
0.0
  0
LINE
  5
1D3
330
1F
100
AcDbEntity
  8
0
  6
HIDDEN
 62
     7
100
AcDbLine
 10
8.231199567
 20
4.2265225547
 30
0.0
 11
7.903559946
 21
4.2265225547
 31
0.0
  0
LINE
  5
1D4
330
1F
100
AcDbEntity
  8
0
  6
HIDDEN
 62
     7
100
AcDbLine
 10
7.7578372209
 20
4.0690422397
 30
0.0
 11
8.231199567
 21
4.0690422397
 31
0.0
  0
LINE
  5
1D5
330
1F
100
AcDbEntity
  8
0
  6
HIDDEN
 62
     7
100
AcDbLine
 10
7.7239852199
 20
4.1976546643
 30
0.0
 11
7.9993337657
 21
4.1976546643
 31
0.0
  0
LINE
  5
1D6
330
1F
100
AcDbEntity
  8
0
  6
HIDDEN
 62
     7
100
AcDbLine
 10
7.940520653
 20
3.3885995462
 30
0.0
 11
7.7830403381
 21
3.3885995462
 31
0.0
  0
LINE
  5
1D7
330
1F
100
AcDbEntity
  8
0
  6
HIDDEN
 62
     7
100
AcDbLine
 10
7.8008241603
 20
3.3885995462
 30
0.0
 11
7.940520653
 21
3.3885995462
 31
0.0
  0
LINE
  5
1D8
330
1F
100
AcDbEntity
  8
0
  6
CONTINUOUS
 62
     7
100
AcDbLine
 10
3.5084864971
 20
5.8058354066
 30
0.0
 11
3.5281715365
 21
5.825520446
 31
0.0
  0
LINE
  5
1D9
330
1F
100
AcDbEntity
  8
0
  6
CONTINUOUS
 62
     7
100
AcDbLine
 10
3.5281715365
 20
7.5184338318
 30
0.0
 11
3.5084864971
 21
7.5381188712
 31
0.0
  0
LINE
  5
1DA
330
1F
100
AcDbEntity
  8
0
  6
CONTINUOUS
 62
     7
100
AcDbLine
 10
3.4053762609
 20
5.8058354066
 30
0.0
 11
3.5084864971
 21
5.8058354066
 31
0.0
  0
LINE
  5
1DB
330
1F
100
AcDbEntity
  8
0
  6
CONTINUOUS
 62
     7
100
AcDbLine
 10
3.5084864971
 20
7.5381188712
 30
0.0
 11
3.4053762609
 21
7.5381188712
 31
0.0
  0
LINE
  5
1DC
330
1F
100
AcDbEntity
  8
0
  6
CONTINUOUS
 62
     7
100
AcDbLine
 10
3.5281715365
 20
6.0892999736
 30
0.0
 11
3.5806649748
 21
6.0892999736
 31
0.0
  0
LINE
  5
1DD
330
1F
100
AcDbEntity
  8
0
  6
CONTINUOUS
 62
     7
100
AcDbLine
 10
3.980927442
 20
7.2546543043
 30
0.0
 11
3.5281715365
 21
7.2546543043
 31
0.0
  0
LINE
  5
1DE
330
1F
100
AcDbEntity
  8
0
  6
CONTINUOUS
 62
     7
100
AcDbLine
 10
3.995927442
 20
7.2396543043
 30
0.0
 11
3.980927442
 21
7.2546543043
 31
0.0
  0
LINE
  5
1DF
330
1F
100
AcDbEntity
  8
0
  6
CONTINUOUS
 62
     7
100
AcDbLine
 10
2.9676203554
 20
7.1056944086
 30
0.0
 11
2.9676203554
 21
7.1109535169
 31
0.0
  0
LINE
  5
1E0
330
1F
100
AcDbEntity
  8
0
  6
CONTINUOUS
 62
     7
100
AcDbLine
 10
2.6920298042
 20
7.1109535169
 30
0.0
 11
2.6920298042
 21
7.0986286701
 31
0.0
  0
ARC
  5
1E1
330
1F
100
AcDbEntity
  8
0
  6
CONTINUOUS
 62
     7
100
AcDbCircle
 10
2.7117148435
 20
7.1109535169
 30
0.0
 40
0.0196850393700787
100
AcDbArc
 50
90.0
 51
180.0
  0
ARC
  5
1E2
330
1F
100
AcDbEntity
  8
0
  6
CONTINUOUS
 62
     7
100
AcDbCircle
 10
2.947935316
 20
7.1109535169
 30
0.0
 40
0.0196850393700787
100
AcDbArc
 50
0.0
 51
90.0
  0
LINE
  5
1E3
330
1F
100
AcDbEntity
  8
0
  6
CONTINUOUS
 62
     7
100
AcDbLine
 10
2.7510849223
 20
6.6916621783
 30
0.0
 11
2.7510849223
 21
6.6522920995
 31
0.0
  0
LINE
  5
1E4
330
1F
100
AcDbEntity
  8
0
  6
CONTINUOUS
 62
     7
100
AcDbLine
 10
2.9085652372
 20
6.6522920995
 30
0.0
 11
2.9085652372
 21
6.6916621783
 31
0.0
  0
POLYLINE
  5
1E5
330
1F
100
AcDbEntity
  8
0
  6
CONTINUOUS
 62
     7
100
AcDb2dPolyline
 66
     1
 10
0.0
 20
0.0
 30
0.0
  0
VERTEX
  5
2F2
330
1E5
100
AcDbEntity
  8
0
  6
CONTINUOUS
 62
     7
100
AcDbVertex
100
AcDb2dVertex
 10
2.8888801979
 20
6.2822133594
 30
0.0
  0
VERTEX
  5
2F3
330
1E5
100
AcDbEntity
  8
0
  6
CONTINUOUS
 62
     7
100
AcDbVertex
100
AcDb2dVertex
 10
2.8927205585
 20
6.2825916019
 30
0.0
  0
VERTEX
  5
2F4
330
1E5
100
AcDbEntity
  8
0
  6
CONTINUOUS
 62
     7
100
AcDbVertex
100
AcDb2dVertex
 10
2.8944054264
 20
6.2830046796
 30
0.0
  0
SEQEND
  5
2F5
330
1E5
100
AcDbEntity
  8
0
  6
CONTINUOUS
 62
     7
  0
POLYLINE
  5
1E6
330
1F
100
AcDbEntity
  8
0
  6
CONTINUOUS
 62
     7
100
AcDb2dPolyline
 66
     1
 10
0.0
 20
0.0
 30
0.0
  0
VERTEX
  5
2F6
330
1E6
100
AcDbEntity
  8
0
  6
CONTINUOUS
 62
     7
100
AcDbVertex
100
AcDb2dVertex
 10
2.7654096079
 20
6.282957243
 30
0.0
  0
VERTEX
  5
2F7
330
1E6
100
AcDbEntity
  8
0
  6
CONTINUOUS
 62
     7
100
AcDbVertex
100
AcDb2dVertex
 10
2.766929601
 20
6.2825916019
 30
0.0
  0
VERTEX
  5
2F8
330
1E6
100
AcDbEntity
  8
0
  6
CONTINUOUS
 62
     7
100
AcDbVertex
100
AcDb2dVertex
 10
2.7707699617
 20
6.2822133594
 30
0.0
  0
SEQEND
  5
2F9
330
1E6
100
AcDbEntity
  8
0
  6
CONTINUOUS
 62
     7
  0
LINE
  5
1E7
330
1F
100
AcDbEntity
  8
0
  6
CONTINUOUS
 62
     7
100
AcDbLine
 10
3.1447857097
 20
7.5381188712
 30
0.0
 11
3.1251006703
 21
7.5184338318
 31
0.0
  0
LINE
  5
1E8
330
1F
100
AcDbEntity
  8
0
  6
CONTINUOUS
 62
     7
100
AcDbLine
 10
3.1251006703
 20
5.825520446
 30
0.0
 11
3.1447857097
 21
5.8058354066
 31
0.0
  0
LINE
  5
1E9
330
1F
100
AcDbEntity
  8
0
  6
CONTINUOUS
 62
     7
100
AcDbLine
 10
3.2478959459
 20
7.5381188712
 30
0.0
 11
3.1447857097
 21
7.5381188712
 31
0.0
  0
LINE
  5
1EA
330
1F
100
AcDbEntity
  8
0
  6
CONTINUOUS
 62
     7
100
AcDbLine
 10
3.1447857097
 20
5.8058354066
 30
0.0
 11
3.2478959459
 21
5.8058354066
 31
0.0
  0
LINE
  5
1EB
330
1F
100
AcDbEntity
  8
0
  6
CONTINUOUS
 62
     7
100
AcDbLine
 10
3.3561636624
 20
6.5341818633
 30
0.0
 11
3.4053762609
 21
6.5341818633
 31
0.0
  0
LINE
  5
1EC
330
1F
100
AcDbEntity
  8
0
  6
CONTINUOUS
 62
     7
100
AcDbLine
 10
3.4053762609
 20
6.8097724145
 30
0.0
 11
3.3561636624
 21
6.8097724145
 31
0.0
  0
LINE
  5
1ED
330
1F
100
AcDbEntity
  8
0
  6
CONTINUOUS
 62
     7
100
AcDbLine
 10
3.2478959459
 20
6.5341818633
 30
0.0
 11
3.2971085443
 21
6.5341818633
 31
0.0
  0
LINE
  5
1EE
330
1F
100
AcDbEntity
  8
0
  6
CONTINUOUS
 62
     7
100
AcDbLine
 10
3.2971085443
 20
6.8097724145
 30
0.0
 11
3.2478959459
 21
6.8097724145
 31
0.0
  0
LINE
  5
1EF
330
1F
100
AcDbEntity
  8
0
  6
CONTINUOUS
 62
     7
100
AcDbLine
 10
3.0201137937
 20
7.2546543043
 30
0.0
 11
2.6723447648
 21
7.2546543043
 31
0.0
  0
LINE
  5
1F0
330
1F
100
AcDbEntity
  8
0
  6
CONTINUOUS
 62
     7
100
AcDbLine
 10
3.1251006703
 20
7.2546543043
 30
0.0
 11
3.072607232
 21
7.2546543043
 31
0.0
  0
LINE
  5
1F1
330
1F
100
AcDbEntity
  8
0
  6
CONTINUOUS
 62
     7
100
AcDbLine
 10
3.072607232
 20
6.0892999736
 30
0.0
 11
3.1251006703
 21
6.0892999736
 31
0.0
  0
LINE
  5
1F2
330
1F
100
AcDbEntity
  8
0
  6
CONTINUOUS
 62
     7
100
AcDbLine
 10
2.6723447648
 20
6.0892999736
 30
0.0
 11
3.0201137937
 21
6.0892999736
 31
0.0
  0
LINE
  5
1F3
330
1F
100
AcDbEntity
  8
0
  6
CONTINUOUS
 62
     7
100
AcDbLine
 10
2.6723447648
 20
7.2546543043
 30
0.0
 11
2.6573447648
 21
7.2396543043
 31
0.0
  0
LINE
  5
1F4
330
1F
100
AcDbEntity
  8
0
  6
CONTINUOUS
 62
     7
100
AcDbLine
 10
2.6573447648
 20
6.1042999736
 30
0.0
 11
2.6723447648
 21
6.0892999736
 31
0.0
  0
LINE
  5
1F5
330
1F
100
AcDbEntity
  8
0
  6
CONTINUOUS
 62
     7
100
AcDbLine
 10
3.3561636624
 20
7.1936306822
 30
0.0
 11
3.4053762609
 21
7.1936306822
 31
0.0
  0
LINE
  5
1F6
330
1F
100
AcDbEntity
  8
0
  6
CONTINUOUS
 62
     7
100
AcDbLine
 10
3.4053762609
 20
7.4692212334
 30
0.0
 11
3.3561636624
 21
7.4692212334
 31
0.0
  0
LINE
  5
1F7
330
1F
100
AcDbEntity
  8
0
  6
CONTINUOUS
 62
     7
100
AcDbLine
 10
3.2478959459
 20
7.1936306822
 30
0.0
 11
3.2971085443
 21
7.1936306822
 31
0.0
  0
LINE
  5
1F8
330
1F
100
AcDbEntity
  8
0
  6
CONTINUOUS
 62
     7
100
AcDbLine
 10
3.2971085443
 20
7.4692212334
 30
0.0
 11
3.2478959459
 21
7.4692212334
 31
0.0
  0
LINE
  5
1F9
330
1F
100
AcDbEntity
  8
0
  6
CONTINUOUS
 62
     7
100
AcDbLine
 10
3.2478959459
 20
5.8747330444
 30
0.0
 11
3.2971085443
 21
5.8747330444
 31
0.0
  0
LINE
  5
1FA
330
1F
100
AcDbEntity
  8
0
  6
CONTINUOUS
 62
     7
100
AcDbLine
 10
3.2971085443
 20
6.1503235956
 30
0.0
 11
3.2478959459
 21
6.1503235956
 31
0.0
  0
LINE
  5
1FB
330
1F
100
AcDbEntity
  8
0
  6
CONTINUOUS
 62
     7
100
AcDbLine
 10
3.3561636624
 20
5.8747330444
 30
0.0
 11
3.4053762609
 21
5.8747330444
 31
0.0
  0
LINE
  5
1FC
330
1F
100
AcDbEntity
  8
0
  6
CONTINUOUS
 62
     7
100
AcDbLine
 10
3.4053762609
 20
6.1503235956
 30
0.0
 11
3.3561636624
 21
6.1503235956
 31
0.0
  0
LINE
  5
1FD
330
1F
100
AcDbEntity
  8
0
  6
CONTINUOUS
 62
     7
100
AcDbLine
 10
3.3561636624
 20
7.5036700523
 30
0.0
 11
3.2971085443
 21
7.5036700523
 31
0.0
  0
LINE
  5
1FE
330
1F
100
AcDbEntity
  8
0
  6
CONTINUOUS
 62
     7
100
AcDbLine
 10
3.2971085443
 20
5.8402842255
 30
0.0
 11
3.3561636624
 21
5.8402842255
 31
0.0
  0
LINE
  5
1FF
330
1F
100
AcDbEntity
  8
0
  6
CONTINUOUS
 62
     7
100
AcDbLine
 10
3.5084864971
 20
5.8058354066
 30
0.0
 11
3.5084864971
 21
7.5381188712
 31
0.0
  0
LINE
  5
200
330
1F
100
AcDbEntity
  8
0
  6
CONTINUOUS
 62
     7
100
AcDbLine
 10
3.5281715365
 20
7.5184338318
 30
0.0
 11
3.5281715365
 21
5.825520446
 31
0.0
  0
LINE
  5
201
330
1F
100
AcDbEntity
  8
0
  6
CONTINUOUS
 62
     7
100
AcDbLine
 10
3.4053762609
 20
5.8058354066
 30
0.0
 11
3.4053762609
 21
7.5381188712
 31
0.0
  0
SPLINE
  5
202
330
1F
100
AcDbEntity
  8
0
  6
CONTINUOUS
 62
     7
100
AcDbSpline
210
0.0
220
0.0
230
1.0
 70
     8
 71
     3
 72
    58
 73
    54
 74
     0
 42
0.00000001
 43
0.00000001
 40
0.0
 40
0.0
 40
0.0
 40
0.0
 40
0.0625000000000003
 40
0.0625000000000003
 40
0.0937500000000004
 40
0.0937500000000004
 40
0.1250000000000005
 40
0.1250000000000005
 40
0.1875000000000006
 40
0.1875000000000006
 40
0.2187500000000007
 40
0.2187500000000007
 40
0.2500000000000008
 40
0.2500000000000008
 40
0.2812500000000008
 40
0.2812500000000008
 40
0.3125000000000009
 40
0.3125000000000009
 40
0.3437500000000009
 40
0.3437500000000009
 40
0.3750000000000009
 40
0.3750000000000009
 40
0.4062500000000009
 40
0.4062500000000009
 40
0.4375000000000009
 40
0.4375000000000009
 40
0.4687500000000009
 40
0.4687500000000009
 40
0.5000000000000009
 40
0.5000000000000009
 40
0.5312500000000008
 40
0.5312500000000008
 40
0.5625000000000008
 40
0.5625000000000008
 40
0.5937500000000007
 40
0.5937500000000007
 40
0.6250000000000007
 40
0.6250000000000007
 40
0.6875000000000004
 40
0.6875000000000004
 40
0.7187500000000003
 40
0.7187500000000003
 40
0.7500000000000002
 40
0.7500000000000002
 40
0.8125000000000001
 40
0.8125000000000001
 40
0.8437500000000001
 40
0.8437500000000001
 40
0.875
 40
0.875
 40
0.9375
 40
0.9375
 40
1.0
 40
1.0
 40
1.0
 40
1.0
 10
3.906838312314065
 20
6.173175953467509
 30
0.0
 10
3.916839494690006
 20
6.18077880391198
 30
0.0
 10
3.925221645987279
 20
6.189234224249391
 30
0.0
 10
3.936033594423872
 20
6.203208039502511
 30
0.0
 10
3.939331341572246
 20
6.208083717978543
 30
0.0
 10
3.945319351412468
 20
6.218299403354387
 30
0.0
 10
3.948020760103143
 20
6.223669004477452
 30
0.0
 10
3.955047306876555
 20
6.240286590751952
 30
0.0
 10
3.95832873672559
 20
6.252018528820146
 30
0.0
 10
3.960844822914577
 20
6.270675125336656
 30
0.0
 10
3.961277640304855
 20
6.277071147440959
 30
0.0
 10
3.96120270506025
 20
6.290242758825559
 30
0.0
 10
3.960684100514421
 20
6.297048792091919
 30
0.0
 10
3.958587561186623
 20
6.310657956255686
 30
0.0
 10
3.957014114249191
 20
6.317502936916598
 30
0.0
 10
3.95267805226499
 20
6.331233534954409
 30
0.0
 10
3.949885894485552
 20
6.338176802479376
 30
0.0
 10
3.943038871304783
 20
6.351743080216709
 30
0.0
 10
3.939010969521636
 20
6.35833777139286
 30
0.0
 10
3.929630629781749
 20
6.371048948373597
 30
0.0
 10
3.924205818417549
 20
6.377230013245166
 30
0.0
 10
3.912232079797289
 20
6.388574431586525
 30
0.0
 10
3.905705200089771
 20
6.393745702615004
 30
0.0
 10
3.891521198086385
 20
6.402977405158145
 30
0.0
 10
3.883753717245093
 20
6.407076175218114
 30
0.0
 10
3.867644894231639
 20
6.413677706735244
 30
0.0
 10
3.859293713113035
 20
6.416216567888977
 30
0.0
 10
3.841984258257312
 20
6.419700847289295
 30
0.0
 10
3.833014561695985
 20
6.420619454309794
 30
0.0
 10
3.8153427130989
 20
6.420713269739815
 30
0.0
 10
3.80649529545461
 20
6.419911510748487
 30
0.0
 10
3.788989827203161
 20
6.416587667574017
 30
0.0
 10
3.780577649368103
 20
6.41411909311842
 30
0.0
 10
3.764401158046266
 20
6.407680460751461
 30
0.0
 10
3.75657817809511
 20
6.403656782903207
 30
0.0
 10
3.742203969463226
 20
6.394496148934529
 30
0.0
 10
3.73557883917683
 20
6.389343270932319
 30
0.0
 10
3.717322042385534
 20
6.372326071271998
 30
0.0
 10
3.707798608956612
 20
6.359332897546842
 30
0.0
 10
3.697348056884789
 20
6.338951997760728
 30
0.0
 10
3.694538830349268
 20
6.332092837656752
 30
0.0
 10
3.690091261953961
 20
6.318315260751332
 30
0.0
 10
3.688448766584377
 20
6.311349777065443
 30
0.0
 10
3.685186774755195
 20
6.290834890847956
 30
0.0
 10
3.68516335209073
 20
6.277691691303026
 30
0.0
 10
3.687626199634795
 20
6.258776527688262
 30
0.0
 10
3.688881807652257
 20
6.25257990019823
 30
0.0
 10
3.692122378139115
 20
6.240691170562176
 30
0.0
 10
3.694107301503278
 20
6.234972114016145
 30
0.0
 10
3.701060248769083
 20
6.218437089050194
 30
0.0
 10
3.707002713264478
 20
6.208238329873498
 30
0.0
 10
3.721550034845
 20
6.189349649850342
 30
0.0
 10
3.730046582467775
 20
6.1807850199179
 30
0.0
 10
3.740055941699135
 20
6.173175953467509
 30
0.0
  0
LINE
  5
203
330
1F
100
AcDbEntity
  8
0
  6
CONTINUOUS
 62
     7
100
AcDbLine
 10
3.980927442
 20
6.0896325861
 30
0.0
 11
3.980927442
 21
7.2546543043
 31
0.0
  0
LINE
  5
204
330
1F
100
AcDbEntity
  8
0
  6
CONTINUOUS
 62
     7
100
AcDbLine
 10
3.980927442
 20
6.0896325861
 30
0.0
 11
3.6331584131
 21
6.0896325861
 31
0.0
  0
LINE
  5
205
330
1F
100
AcDbEntity
  8
0
  6
CONTINUOUS
 62
     7
100
AcDbLine
 10
3.6331584131
 20
6.9652842255
 30
0.0
 11
3.6331584131
 21
6.0896325861
 31
0.0
  0
LINE
  5
206
330
1F
100
AcDbEntity
  8
0
  6
CONTINUOUS
 62
     7
100
AcDbLine
 10
3.5806649748
 20
6.9652842255
 30
0.0
 11
3.6331584131
 21
6.9652842255
 31
0.0
  0
LINE
  5
207
330
1F
100
AcDbEntity
  8
0
  6
CONTINUOUS
 62
     7
100
AcDbLine
 10
3.5806649748
 20
6.0892999736
 30
0.0
 11
3.5806649748
 21
6.9652842255
 31
0.0
  0
LINE
  5
208
330
1F
100
AcDbEntity
  8
0
  6
CONTINUOUS
 62
     7
100
AcDbLine
 10
3.995927442
 20
7.2396543043
 30
0.0
 11
3.995927442
 21
6.10464138
 31
0.0
  0
LINE
  5
209
330
1F
100
AcDbEntity
  8
0
  6
CONTINUOUS
 62
     7
100
AcDbLine
 10
3.980927442
 20
6.0896325861
 30
0.0
 11
3.995927442
 21
6.10464138
 31
0.0
  0
CIRCLE
  5
20A
330
1F
100
AcDbEntity
  8
0
  6
CONTINUOUS
 62
     7
100
AcDbCircle
 10
3.823447127
 20
6.2828730281
 30
0.0
 40
0.1181102362204722
  0
CIRCLE
  5
20B
330
1F
100
AcDbEntity
  8
0
  6
CONTINUOUS
 62
     7
100
AcDbCircle
 10
3.823447127
 20
6.2828730281
 30
0.0
 40
0.1377952755905509
  0
LINE
  5
20C
330
1F
100
AcDbEntity
  8
0
  6
CONTINUOUS
 62
     7
100
AcDbLine
 10
3.8825022451
 20
6.2487775398
 30
0.0
 11
3.8825022451
 21
6.3169685165
 31
0.0
  0
LINE
  5
20D
330
1F
100
AcDbEntity
  8
0
  6
CONTINUOUS
 62
     7
100
AcDbLine
 10
3.8825022451
 20
6.3169685165
 30
0.0
 11
3.823447127
 21
6.3510640048
 31
0.0
  0
LINE
  5
20E
330
1F
100
AcDbEntity
  8
0
  6
CONTINUOUS
 62
     7
100
AcDbLine
 10
3.823447127
 20
6.3510640048
 30
0.0
 11
3.7643920089
 21
6.3169685165
 31
0.0
  0
LINE
  5
20F
330
1F
100
AcDbEntity
  8
0
  6
CONTINUOUS
 62
     7
100
AcDbLine
 10
3.7643920089
 20
6.3169685165
 30
0.0
 11
3.7643920089
 21
6.2487775398
 31
0.0
  0
LINE
  5
210
330
1F
100
AcDbEntity
  8
0
  6
CONTINUOUS
 62
     7
100
AcDbLine
 10
3.7643920089
 20
6.2487775398
 30
0.0
 11
3.823447127
 21
6.2146820514
 31
0.0
  0
LINE
  5
211
330
1F
100
AcDbEntity
  8
0
  6
CONTINUOUS
 62
     7
100
AcDbLine
 10
3.823447127
 20
6.2146820514
 30
0.0
 11
3.8825022451
 21
6.2487775398
 31
0.0
  0
LINE
  5
212
330
1F
100
AcDbEntity
  8
0
  6
CONTINUOUS
 62
     7
100
AcDbLine
 10
2.8298250798
 20
6.9731582413
 30
0.0
 11
2.7460555909
 21
6.9731582413
 31
0.0
  0
LINE
  5
213
330
1F
100
AcDbEntity
  8
0
  6
CONTINUOUS
 62
     7
100
AcDbLine
 10
2.913373125
 20
6.9731582413
 30
0.0
 11
2.8298250798
 21
6.9731582413
 31
0.0
  0
LINE
  5
214
330
1F
100
AcDbEntity
  8
0
  6
CONTINUOUS
 62
     7
100
AcDbLine
 10
2.8298250798
 20
7.1306385562
 30
0.0
 11
2.7117148435
 21
7.1306385562
 31
0.0
  0
LINE
  5
215
330
1F
100
AcDbEntity
  8
0
  6
CONTINUOUS
 62
     7
100
AcDbLine
 10
2.947935316
 20
7.1306385562
 30
0.0
 11
2.8298250798
 21
7.1306385562
 31
0.0
  0
LINE
  5
216
330
1F
100
AcDbEntity
  8
0
  6
CONTINUOUS
 62
     7
100
AcDbLine
 10
2.7707699617
 20
6.2822133594
 30
0.0
 11
2.8888801979
 21
6.2822133594
 31
0.0
  0
LINE
  5
217
330
1F
100
AcDbEntity
  8
0
  6
CONTINUOUS
 62
     7
100
AcDbLine
 10
3.1447857097
 20
5.8058354066
 30
0.0
 11
3.1447857097
 21
7.5381188712
 31
0.0
  0
LINE
  5
218
330
1F
100
AcDbEntity
  8
0
  6
CONTINUOUS
 62
     7
100
AcDbLine
 10
3.1251006703
 20
7.5184338318
 30
0.0
 11
3.1251006703
 21
5.825520446
 31
0.0
  0
LINE
  5
219
330
1F
100
AcDbEntity
  8
0
  6
CONTINUOUS
 62
     7
100
AcDbLine
 10
3.2478959459
 20
6.6719771389
 30
0.0
 11
3.2478959459
 21
7.5381188712
 31
0.0
  0
LINE
  5
21A
330
1F
100
AcDbEntity
  8
0
  6
CONTINUOUS
 62
     7
100
AcDbLine
 10
3.2478959459
 20
5.8058354066
 30
0.0
 11
3.2478959459
 21
6.6719771389
 31
0.0
  0
LINE
  5
21B
330
1F
100
AcDbEntity
  8
0
  6
CONTINUOUS
 62
     7
100
AcDbLine
 10
3.3561636624
 20
6.7937721061
 30
0.0
 11
3.2971085443
 21
6.7937721061
 31
0.0
  0
LINE
  5
21C
330
1F
100
AcDbEntity
  8
0
  6
CONTINUOUS
 62
     7
100
AcDbLine
 10
3.3561636624
 20
6.5501821717
 30
0.0
 11
3.2971085443
 21
6.5501821717
 31
0.0
  0
LINE
  5
21D
330
1F
100
AcDbEntity
  8
0
  6
CONTINUOUS
 62
     7
100
AcDbLine
 10
3.3561636624
 20
6.7937721061
 30
0.0
 11
3.3561636624
 21
6.5501821717
 31
0.0
  0
LINE
  5
21E
330
1F
100
AcDbEntity
  8
0
  6
CONTINUOUS
 62
     7
100
AcDbLine
 10
3.2971085443
 20
6.7937721061
 30
0.0
 11
3.2971085443
 21
6.5501821717
 31
0.0
  0
LINE
  5
21F
330
1F
100
AcDbEntity
  8
0
  6
CONTINUOUS
 62
     7
100
AcDbLine
 10
3.3561636624
 20
7.453220925
 30
0.0
 11
3.2971085443
 21
7.453220925
 31
0.0
  0
LINE
  5
220
330
1F
100
AcDbEntity
  8
0
  6
CONTINUOUS
 62
     7
100
AcDbLine
 10
3.3561636624
 20
7.453220925
 30
0.0
 11
3.3561636624
 21
6.7937721061
 31
0.0
  0
LINE
  5
221
330
1F
100
AcDbEntity
  8
0
  6
CONTINUOUS
 62
     7
100
AcDbLine
 10
3.2971085443
 20
7.453220925
 30
0.0
 11
3.2971085443
 21
6.7937721061
 31
0.0
  0
LINE
  5
222
330
1F
100
AcDbEntity
  8
0
  6
CONTINUOUS
 62
     7
100
AcDbLine
 10
3.3561636624
 20
5.8907333528
 30
0.0
 11
3.2971085443
 21
5.8907333528
 31
0.0
  0
LINE
  5
223
330
1F
100
AcDbEntity
  8
0
  6
CONTINUOUS
 62
     7
100
AcDbLine
 10
3.3561636624
 20
6.5501821717
 30
0.0
 11
3.3561636624
 21
5.8907333528
 31
0.0
  0
LINE
  5
224
330
1F
100
AcDbEntity
  8
0
  6
CONTINUOUS
 62
     7
100
AcDbLine
 10
3.2971085443
 20
6.5501821717
 30
0.0
 11
3.2971085443
 21
5.8907333528
 31
0.0
  0
SPLINE
  5
225
330
1F
100
AcDbEntity
  8
0
  6
CONTINUOUS
 62
     7
100
AcDbSpline
210
0.0
220
0.0
230
1.0
 70
     8
 71
     3
 72
    13
 73
     9
 74
     0
 42
0.00000001
 43
0.00000001
 40
0.0
 40
0.0
 40
0.0
 40
0.0
 40
0.1764976880100889
 40
0.3536129713065944
 40
0.5302445879570611
 40
0.7100494914466655
 40
0.890424654411786
 40
1.0
 40
1.0
 40
1.0
 40
1.0
 10
2.74643389445504
 20
6.973158241278632
 30
0.0
 10
2.740667410478595
 20
6.980903366040867
 30
0.0
 10
2.729114264622168
 20
6.996420717067912
 30
0.0
 10
2.715635881299812
 20
7.020524563561877
 30
0.0
 10
2.704674015739061
 20
7.044740582109862
 30
0.0
 10
2.696851878809895
 20
7.068624014260473
 30
0.0
 10
2.69239973401403
 20
7.089109549026285
 30
0.0
 10
2.692502524719298
 20
7.100927853662505
 30
0.0
 10
2.692541370407513
 20
7.105394115236736
 30
0.0
  0
SPLINE
  5
226
330
1F
100
AcDbEntity
  8
0
  6
CONTINUOUS
 62
     7
100
AcDbSpline
210
0.0
220
0.0
230
1.0
 70
     8
 71
     3
 72
    27
 73
    23
 74
     0
 42
0.00000001
 43
0.00000001
 40
0.0
 40
0.0
 40
0.0
 40
0.0
 40
0.0102816352405944
 40
0.077564404545526
 40
0.1447767468936915
 40
0.201336060408485
 40
0.2578509893224266
 40
0.3147422805481925
 40
0.3715985163972758
 40
0.4218084406400512
 40
0.4720091579677319
 40
0.5189261339750156
 40
0.5658435951595081
 40
0.6119975536336277
 40
0.6581588128512433
 40
0.7050885664281386
 40
0.7520342595910852
 40
0.801634745630887
 40
0.8512614184380021
 40
0.906574998299159
 40
0.9619251206732262
 40
1.0
 40
1.0
 40
1.0
 40
1.0
 10
2.692423643378104
 20
7.110869864122858
 30
0.0
 10
2.692388853745777
 20
7.111921694853745
 30
0.0
 10
2.692126401611207
 20
7.119856680137199
 30
0.0
 10
2.695544824832823
 20
7.133357924730137
 30
0.0
 10
2.702912610179919
 20
7.150022341249334
 30
0.0
 10
2.714403315715766
 20
7.163751125107384
 30
0.0
 10
2.728759196294995
 20
7.174946618745549
 30
0.0
 10
2.746861935179815
 20
7.184026604115429
 30
0.0
 10
2.767314440152765
 20
7.19068933122198
 30
0.0
 10
2.78919068781555
 20
7.195022142796717
 30
0.0
 10
2.810968835996462
 20
7.197345500954873
 30
0.0
 10
2.832840638818211
 20
7.197913071762445
 30
0.0
 10
2.854012577258005
 20
7.196918873119616
 30
0.0
 10
2.874355477051323
 20
7.19435428077287
 30
0.0
 10
2.893480264436554
 20
7.19027697361957
 30
0.0
 10
2.910924585539175
 20
7.184600008339602
 30
0.0
 10
2.926641007824911
 20
7.177263832865972
 30
0.0
 10
2.940015659111051
 20
7.168206170339687
 30
0.0
 10
2.951324850644923
 20
7.157149956514327
 30
0.0
 10
2.959635745564048
 20
7.144084470073965
 30
0.0
 10
2.965110668006436
 20
7.130997816611265
 30
0.0
 10
2.965808439446463
 20
7.121762093634552
 30
0.0
 10
2.966092812610958
 20
7.1179981221983
 30
0.0
  0
SPLINE
  5
227
330
1F
100
AcDbEntity
  8
0
  6
CONTINUOUS
 62
     7
100
AcDbSpline
210
0.0
220
0.0
230
1.0
 70
     8
 71
     3
 72
    14
 73
    10
 74
     0
 42
0.00000001
 43
0.00000001
 40
0.0
 40
0.0
 40
0.0
 40
0.0
 40
0.0046464834099284
 40
0.20863867419448
 40
0.3852468776960544
 40
0.5624710374621849
 40
0.7392088420057559
 40
0.8696198850386951
 40
1.0
 40
1.0
 40
1.0
 40
1.0
 10
2.967547326534751
 20
7.105632740487605
 30
0.0
 10
2.967569269661904
 20
7.105450149890766
 30
0.0
 10
2.968554570706373
 20
7.097251377467875
 30
0.0
 10
2.96536637664647
 20
7.080495707130574
 30
0.0
 10
2.959172397754352
 20
7.056015920166462
 30
0.0
 10
2.949578539384003
 20
7.032034892655781
 30
0.0
 10
2.938252174319761
 20
7.010065705011322
 30
0.0
 10
2.926151811531725
 20
6.990288942071279
 30
0.0
 10
2.917527772972961
 20
6.978868023394885
 30
0.0
 10
2.91321626506997
 20
6.973158241278632
 30
0.0
  0
SPLINE
  5
228
330
1F
100
AcDbEntity
  8
0
  6
CONTINUOUS
 62
     7
100
AcDbSpline
210
0.0
220
0.0
230
1.0
 70
     8
 71
     3
 72
    60
 73
    56
 74
     0
 42
0.00000001
 43
0.00000001
 40
-0.0312499999999998
 40
-0.0312499999999998
 40
0.0
 40
0.0
 40
0.03125
 40
0.03125
 40
0.0624999999999999
 40
0.0624999999999999
 40
0.125
 40
0.125
 40
0.1875
 40
0.1875
 40
0.21875
 40
0.21875
 40
0.2499999999999999
 40
0.2499999999999999
 40
0.3125000000000002
 40
0.3125000000000002
 40
0.3750000000000003
 40
0.3750000000000003
 40
0.4062500000000004
 40
0.4062500000000004
 40
0.4375000000000005
 40
0.4375000000000005
 40
0.4687500000000006
 40
0.4687500000000006
 40
0.5000000000000007
 40
0.5000000000000007
 40
0.5312500000000008
 40
0.5312500000000008
 40
0.5625000000000008
 40
0.5625000000000008
 40
0.5937500000000009
 40
0.5937500000000009
 40
0.625000000000001
 40
0.625000000000001
 40
0.656250000000001
 40
0.656250000000001
 40
0.6875000000000011
 40
0.6875000000000011
 40
0.7187500000000012
 40
0.7187500000000012
 40
0.7500000000000012
 40
0.7500000000000012
 40
0.812500000000001
 40
0.812500000000001
 40
0.8437500000000009
 40
0.8437500000000009
 40
0.8750000000000007
 40
0.8750000000000007
 40
0.9062500000000006
 40
0.9062500000000006
 40
0.9375000000000004
 40
0.9375000000000004
 40
0.9687500000000002
 40
0.9687500000000002
 40
1.0
 40
1.0
 40
1.03125
 40
1.03125
 10
2.836054062619917
 20
6.324652478592292
 30
0.0
 10
2.823596096905093
 20
6.324652478592292
 30
0.0
 10
2.817618862821886
 20
6.323668444093854
 30
0.0
 10
2.806086864381434
 20
6.320071822859235
 30
0.0
 10
2.800785298198124
 20
6.3175373453154
 30
0.0
 10
2.78615960030043
 20
6.308550872921652
 30
0.0
 10
2.778391372257961
 20
6.3010097065277
 30
0.0
 10
2.76569935662623
 20
6.284999070853227
 30
0.0
 10
2.760930085431811
 20
6.276681866835587
 30
0.0
 10
2.755701708976435
 20
6.263980675352655
 30
0.0
 10
2.75429562468938
 20
6.259698487607953
 30
0.0
 10
2.752229414257814
 20
6.251281968364748
 30
0.0
 10
2.75155616903385
 20
6.247119751182105
 30
0.0
 10
2.750663066776535
 20
6.234774848652229
 30
0.0
 10
2.751596778739702
 20
6.226647884353129
 30
0.0
 10
2.757075163589485
 20
6.211690597910656
 30
0.0
 10
2.761714941912734
 20
6.204658130232475
 30
0.0
 10
2.771713786121779
 20
6.195698605589328
 30
0.0
 10
2.775614672781123
 20
6.192921902018933
 30
0.0
 10
2.784348104996756
 20
6.188054877931183
 30
0.0
 10
2.789151742719255
 20
6.185962096578621
 30
0.0
 10
2.799746433480653
 20
6.18248019441612
 30
0.0
 10
2.805396268216422
 20
6.181145462880228
 30
0.0
 10
2.817134909473942
 20
6.17933565741448
 30
0.0
 10
2.823355641396833
 20
6.178854817886379
 30
0.0
 10
2.835598460848724
 20
6.178820760831784
 30
0.0
 10
2.841771523263894
 20
6.179258749599082
 30
0.0
 10
2.853649828885247
 20
6.181018634619141
 30
0.0
 10
2.859286532145245
 20
6.182316558941128
 30
0.0
 10
2.869982600165452
 20
6.18575732583715
 30
0.0
 10
2.874832708430662
 20
6.187833931387163
 30
0.0
 10
2.883647052291781
 20
6.192668599850402
 30
0.0
 10
2.887579912601038
 20
6.195425203532299
 30
0.0
 10
2.894334999086853
 20
6.20139020296745
 30
0.0
 10
2.897223695352662
 20
6.204655501434399
 30
0.0
 10
2.901955915742976
 20
6.211528860079441
 30
0.0
 10
2.903809051608822
 20
6.215130324567472
 30
0.0
 10
2.906616568802853
 20
6.222659532417755
 30
0.0
 10
2.907561477511333
 20
6.226590150756655
 30
0.0
 10
2.908593310210345
 20
6.234540188978249
 30
0.0
 10
2.908692699506564
 20
6.238589457998396
 30
0.0
 10
2.907851114823859
 20
6.25096009107514
 30
0.0
 10
2.905746634960321
 20
6.259549885987727
 30
0.0
 10
2.900576093214204
 20
6.272203068133273
 30
0.0
 10
2.898511341943617
 20
6.276407790147145
 30
0.0
 10
2.893643963709029
 20
6.28476598804903
 30
0.0
 10
2.890839507553655
 20
6.288913069532306
 30
0.0
 10
2.884538999521477
 20
6.296882337774508
 30
0.0
 10
2.881031337865506
 20
6.300733345706289
 30
0.0
 10
2.873107161664999
 20
6.308042796088382
 30
0.0
 10
2.868701454785785
 20
6.311480761165372
 30
0.0
 10
2.859030510434149
 20
6.317447922403534
 30
0.0
 10
2.853649294356468
 20
6.320030503738769
 30
0.0
 10
2.842225784159443
 20
6.323621932902478
 30
0.0
 10
2.836054062619917
 20
6.324652478592292
 30
0.0
 10
2.823596096905093
 20
6.324652478592292
 30
0.0
  0
LINE
  5
229
330
1F
100
AcDbEntity
  8
0
  6
CONTINUOUS
 62
     7
100
AcDbLine
 10
3.072607232
 20
7.175448719
 30
0.0
 11
3.0201137937
 21
7.175448719
 31
0.0
  0
LINE
  5
22A
330
1F
100
AcDbEntity
  8
0
  6
CONTINUOUS
 62
     7
100
AcDbLine
 10
3.0201137937
 20
7.2546543043
 30
0.0
 11
3.0201137937
 21
6.6916621783
 31
0.0
  0
LINE
  5
22B
330
1F
100
AcDbEntity
  8
0
  6
CONTINUOUS
 62
     7
100
AcDbLine
 10
2.6723447648
 20
6.6916621783
 30
0.0
 11
3.0201137937
 21
6.6916621783
 31
0.0
  0
LINE
  5
22C
330
1F
100
AcDbEntity
  8
0
  6
CONTINUOUS
 62
     7
100
AcDbLine
 10
2.6723447648
 20
6.6916621783
 30
0.0
 11
2.6723447648
 21
7.2546543043
 31
0.0
  0
LINE
  5
22D
330
1F
100
AcDbEntity
  8
0
  6
CONTINUOUS
 62
     7
100
AcDbLine
 10
2.6723447648
 20
6.0892999736
 30
0.0
 11
2.6723447648
 21
6.6522920995
 31
0.0
  0
LINE
  5
22E
330
1F
100
AcDbEntity
  8
0
  6
CONTINUOUS
 62
     7
100
AcDbLine
 10
2.6723447648
 20
6.6522920995
 30
0.0
 11
3.0201137937
 21
6.6522920995
 31
0.0
  0
LINE
  5
22F
330
1F
100
AcDbEntity
  8
0
  6
CONTINUOUS
 62
     7
100
AcDbLine
 10
3.0201137937
 20
6.6522920995
 30
0.0
 11
3.0201137937
 21
6.0892999736
 31
0.0
  0
LINE
  5
230
330
1F
100
AcDbEntity
  8
0
  6
CONTINUOUS
 62
     7
100
AcDbLine
 10
3.0201137937
 20
6.1685055588
 30
0.0
 11
3.072607232
 21
6.1685055588
 31
0.0
  0
LINE
  5
231
330
1F
100
AcDbEntity
  8
0
  6
CONTINUOUS
 62
     7
100
AcDbLine
 10
3.072607232
 20
6.0892999736
 30
0.0
 11
3.072607232
 21
7.2546543043
 31
0.0
  0
LINE
  5
232
330
1F
100
AcDbEntity
  8
0
  6
CONTINUOUS
 62
     7
100
AcDbLine
 10
2.6723447648
 20
6.6916621783
 30
0.0
 11
2.6573447648
 21
6.6916621783
 31
0.0
  0
LINE
  5
233
330
1F
100
AcDbEntity
  8
0
  6
CONTINUOUS
 62
     7
100
AcDbLine
 10
2.6573447648
 20
6.6522920995
 30
0.0
 11
2.6573447648
 21
6.1042999736
 31
0.0
  0
LINE
  5
234
330
1F
100
AcDbEntity
  8
0
  6
CONTINUOUS
 62
     7
100
AcDbLine
 10
2.6573447648
 20
7.2396543043
 30
0.0
 11
2.6573447648
 21
6.6916621783
 31
0.0
  0
LINE
  5
235
330
1F
100
AcDbEntity
  8
0
  6
CONTINUOUS
 62
     7
100
AcDbLine
 10
2.6723447648
 20
6.6522920995
 30
0.0
 11
2.6573447648
 21
6.6522920995
 31
0.0
  0
LINE
  5
236
330
1F
100
AcDbEntity
  8
0
  6
CONTINUOUS
 62
     7
100
AcDbLine
 10
3.3561636624
 20
7.5036700523
 30
0.0
 11
3.3561636624
 21
7.453220925
 31
0.0
  0
LINE
  5
237
330
1F
100
AcDbEntity
  8
0
  6
CONTINUOUS
 62
     7
100
AcDbLine
 10
3.2971085443
 20
7.5036700523
 30
0.0
 11
3.2971085443
 21
7.453220925
 31
0.0
  0
LINE
  5
238
330
1F
100
AcDbEntity
  8
0
  6
CONTINUOUS
 62
     7
100
AcDbLine
 10
3.3561636624
 20
5.8907333528
 30
0.0
 11
3.3561636624
 21
5.8402842255
 31
0.0
  0
LINE
  5
239
330
1F
100
AcDbEntity
  8
0
  6
CONTINUOUS
 62
     7
100
AcDbLine
 10
3.2971085443
 20
5.8907333528
 30
0.0
 11
3.2971085443
 21
5.8402842255
 31
0.0
  0
LINE
  5
23A
330
1F
100
AcDbEntity
  8
0
  6
CONTINUOUS
 62
     7
100
AcDbLine
 10
2.6573447648
 20
6.6916621783
 30
0.0
 11
2.6573447648
 21
6.6522920995
 31
0.0
  0
LINE
  5
23B
330
1F
100
AcDbEntity
  8
0
  6
CONTINUOUS
 62
     7
100
AcDbLine
 10
3.0201137937
 20
6.6522920995
 30
0.0
 11
3.0201137937
 21
6.6916621783
 31
0.0
  0
LINE
  5
23C
330
1F
100
AcDbEntity
  8
0
  6
CONTINUOUS
 62
     8
100
AcDbLine
 10
2.8298250798
 20
7.1109535169
 30
0.0
 11
2.9676203554
 21
7.1109535169
 31
0.0
  0
LINE
  5
23D
330
1F
100
AcDbEntity
  8
0
  6
CONTINUOUS
 62
     8
100
AcDbLine
 10
2.6920298042
 20
7.1109535169
 30
0.0
 11
2.8298250798
 21
7.1109535169
 31
0.0
  0
LINE
  5
23E
330
1F
100
AcDbEntity
  8
0
  6
CONTINUOUS
 62
     8
100
AcDbLine
 10
2.8794789428
 20
6.3018983988
 30
0.0
 11
2.7797161853
 21
6.3018983988
 31
0.0
  0
LINE
  5
23F
330
1F
100
AcDbEntity
  8
0
  6
HIDDEN
 62
     7
100
AcDbLine
 10
3.7400559417
 20
6.1731759535
 30
0.0
 11
3.9068383123
 21
6.1731759535
 31
0.0
  0
CIRCLE
  5
240
330
1F
100
AcDbEntity
  8
0
  6
HIDDEN
 62
     7
100
AcDbCircle
 10
3.823447127
 20
6.2828730281
 30
0.0
 40
0.0787401574803148
  0
ARC
  5
241
330
1F
100
AcDbEntity
  8
0
  6
HIDDEN
 62
     7
100
AcDbCircle
 10
3.995927442
 20
6.8688275326
 30
0.0
 40
0.3627690288713907
100
AcDbArc
 50
90.0
 51
180.0
  0
LINE
  5
242
330
1F
100
AcDbEntity
  8
0
  6
HIDDEN
 62
     7
100
AcDbLine
 10
3.980927442
 20
6.8678408076
 30
0.0
 11
3.6331584131
 21
6.8678408076
 31
0.0
  0
SPLINE
  5
243
330
1F
100
AcDbEntity
  8
0
  6
HIDDEN
 62
     7
100
AcDbSpline
210
0.0
220
0.0
230
1.0
 70
     8
 71
     3
 72
     8
 73
     4
 74
     0
 42
0.00000001
 43
0.00000001
 40
0.0
 40
0.0
 40
0.0
 40
0.0
 40
1.0
 40
1.0
 40
1.0
 40
1.0
 10
3.98092744196723
 20
6.867840807638202
 30
0.0
 10
3.985926545106472
 20
6.872865095335521
 30
0.0
 10
3.990926608894552
 20
6.877888425058012
 30
0.0
 10
3.99592744196723
 20
6.882910987637245
 30
0.0
  0
LINE
  5
244
330
1F
100
AcDbEntity
  8
0
  6
HIDDEN
 62
     7
100
AcDbLine
 10
3.6331584131
 20
6.4761134702
 30
0.0
 11
3.980927442
 21
6.4761134702
 31
0.0
  0
SPLINE
  5
245
330
1F
100
AcDbEntity
  8
0
  6
HIDDEN
 62
     7
100
AcDbSpline
210
0.0
220
0.0
230
1.0
 70
     8
 71
     3
 72
     8
 73
     4
 74
     0
 42
0.00000001
 43
0.00000001
 40
0.0
 40
0.0
 40
0.0
 40
0.0
 40
1.0
 40
1.0
 40
1.0
 40
1.0
 10
3.99592744196723
 20
6.461043290195608
 30
0.0
 10
3.990926608894211
 20
6.466065852775183
 30
0.0
 10
3.985926545106105
 20
6.4710891824977
 30
0.0
 10
3.98092744196723
 20
6.47611347019465
 30
0.0
  0
CIRCLE
  5
246
330
1F
100
AcDbEntity
  8
0
  6
HIDDEN
 62
     7
100
AcDbCircle
 10
3.823447127
 20
6.2828730281
 30
0.0
 40
0.059055118110237
  0
LINE
  5
247
330
1F
100
AcDbEntity
  8
0
  6
HIDDEN
 62
     7
100
AcDbLine
 10
2.7460555909
 20
6.9731582413
 30
0.0
 11
2.6920298042
 21
6.9731582413
 31
0.0
  0
LINE
  5
248
330
1F
100
AcDbEntity
  8
0
  6
HIDDEN
 62
     7
100
AcDbLine
 10
2.9676203554
 20
6.9731582413
 30
0.0
 11
2.913373125
 21
6.9731582413
 31
0.0
  0
LINE
  5
249
330
1F
100
AcDbEntity
  8
0
  6
HIDDEN
 62
     7
100
AcDbLine
 10
2.8298250798
 20
6.9731582413
 30
0.0
 11
2.8298250798
 21
7.1306385562
 31
0.0
  0
LINE
  5
24A
330
1F
100
AcDbEntity
  8
0
  6
HIDDEN
 62
     7
100
AcDbLine
 10
2.8888801979
 20
6.9731582413
 30
0.0
 11
2.8888801979
 21
7.1306385562
 31
0.0
  0
LINE
  5
24B
330
1F
100
AcDbEntity
  8
0
  6
HIDDEN
 62
     7
100
AcDbLine
 10
2.7707699617
 20
6.9731582413
 30
0.0
 11
2.7707699617
 21
7.1306385562
 31
0.0
  0
LINE
  5
24C
330
1F
100
AcDbEntity
  8
0
  6
HIDDEN
 62
     7
100
AcDbLine
 10
2.6925413704
 20
7.1053941152
 30
0.0
 11
2.6924236434
 21
7.1108698641
 31
0.0
  0
LINE
  5
24D
330
1F
100
AcDbEntity
  8
0
  6
HIDDEN
 62
     7
100
AcDbLine
 10
2.9660928126
 20
7.1179981222
 30
0.0
 11
2.9675473265
 21
7.1056327405
 31
0.0
  0
LINE
  5
24E
330
1F
100
AcDbEntity
  8
0
  6
HIDDEN
 62
     7
100
AcDbLine
 10
2.6723447648
 20
6.6916621783
 30
0.0
 11
2.6723447648
 21
6.6522920995
 31
0.0
  0
LINE
  5
24F
330
1F
100
AcDbEntity
  8
0
  6
HIDDEN
 62
     7
100
AcDbLine
 10
2.7464338945
 20
6.9731582413
 30
0.0
 11
2.6920298042
 21
6.9731582413
 31
0.0
  0
LINE
  5
250
330
1F
100
AcDbEntity
  8
0
  6
HIDDEN
 62
     7
100
AcDbLine
 10
2.9676203554
 20
6.9731582413
 30
0.0
 11
2.9132162651
 21
6.9731582413
 31
0.0
  0
LINE
  5
251
330
1F
100
AcDbEntity
  8
0
  6
HIDDEN
 62
     7
100
AcDbLine
 10
3.3561636624
 20
7.453220925
 30
0.0
 11
3.2971085443
 21
7.453220925
 31
0.0
  0
LINE
  5
252
330
1F
100
AcDbEntity
  8
0
  6
HIDDEN
 62
     7
100
AcDbLine
 10
3.3561636624
 20
5.8907333528
 30
0.0
 11
3.2971085443
 21
5.8907333528
 31
0.0
  0
LINE
  5
253
330
1F
100
AcDbEntity
  8
0
  6
HIDDEN
 62
     7
100
AcDbLine
 10
3.3561636624
 20
6.5501821717
 30
0.0
 11
3.2971085443
 21
6.5501821717
 31
0.0
  0
LINE
  5
254
330
1F
100
AcDbEntity
  8
0
  6
HIDDEN
 62
     7
100
AcDbLine
 10
3.3561636624
 20
6.7937721061
 30
0.0
 11
3.2971085443
 21
6.7937721061
 31
0.0
  0
LINE
  5
255
330
1F
100
AcDbEntity
  8
0
  6
HIDDEN
 62
     7
100
AcDbLine
 10
3.5806649748
 20
6.8688275326
 30
0.0
 11
3.4053762609
 21
6.8688275326
 31
0.0
  0
LINE
  5
256
330
1F
100
AcDbEntity
  8
0
  6
HIDDEN
 62
     7
100
AcDbLine
 10
3.4053762609
 20
6.4751267452
 30
0.0
 11
3.5806649748
 21
6.4751267452
 31
0.0
  0
LINE
  5
257
330
1F
100
AcDbEntity
  8
0
  6
HIDDEN
 62
     7
100
AcDbLine
 10
2.9676203554
 20
6.9731582413
 30
0.0
 11
2.9676203554
 21
7.1056944086
 31
0.0
  0
LINE
  5
258
330
1F
100
AcDbEntity
  8
0
  6
HIDDEN
 62
     7
100
AcDbLine
 10
2.6920298042
 20
7.0986286701
 30
0.0
 11
2.6920298042
 21
6.9731582413
 31
0.0
  0
LINE
  5
259
330
1F
100
AcDbEntity
  8
0
  6
HIDDEN
 62
     7
100
AcDbLine
 10
2.7510849223
 20
6.9731582413
 30
0.0
 11
2.7510849223
 21
6.6916621783
 31
0.0
  0
LINE
  5
25A
330
1F
100
AcDbEntity
  8
0
  6
HIDDEN
 62
     7
100
AcDbLine
 10
2.7510849223
 20
6.6522920995
 30
0.0
 11
2.7510849223
 21
6.3018983988
 31
0.0
  0
LINE
  5
25B
330
1F
100
AcDbEntity
  8
0
  6
HIDDEN
 62
     7
100
AcDbLine
 10
2.9085652372
 20
6.3018983988
 30
0.0
 11
2.9085652372
 21
6.6522920995
 31
0.0
  0
LINE
  5
25C
330
1F
100
AcDbEntity
  8
0
  6
HIDDEN
 62
     7
100
AcDbLine
 10
2.9085652372
 20
6.6916621783
 30
0.0
 11
2.9085652372
 21
6.9731582413
 31
0.0
  0
ARC
  5
25D
330
1F
100
AcDbEntity
  8
0
  6
HIDDEN
 62
     7
100
AcDbCircle
 10
2.8888801979
 20
6.3018983988
 30
0.0
 40
0.0196850393700787
100
AcDbArc
 50
286.3008894606
 51
0.0
  0
ARC
  5
25E
330
1F
100
AcDbEntity
  8
0
  6
HIDDEN
 62
     7
100
AcDbCircle
 10
2.7707699617
 20
6.3018983988
 30
0.0
 40
0.0196850393700791
100
AcDbArc
 50
180.0
 51
254.1984682395
  0
LINE
  5
25F
330
1F
100
AcDbEntity
  8
0
  6
HIDDEN
 62
     7
100
AcDbLine
 10
2.9676203554
 20
6.9731582413
 30
0.0
 11
2.9676203554
 21
7.1056327405
 31
0.0
  0
LINE
  5
260
330
1F
100
AcDbEntity
  8
0
  6
HIDDEN
 62
     7
100
AcDbLine
 10
2.6920298042
 20
7.1053941152
 30
0.0
 11
2.6920298042
 21
6.9731582413
 31
0.0
  0
LINE
  5
261
330
1F
100
AcDbEntity
  8
0
  6
HIDDEN
 62
     7
100
AcDbLine
 10
2.7510849223
 20
6.6522920995
 30
0.0
 11
2.7510849223
 21
6.2384217154
 31
0.0
  0
LINE
  5
262
330
1F
100
AcDbEntity
  8
0
  6
HIDDEN
 62
     7
100
AcDbLine
 10
2.9085652372
 20
6.2382893874
 30
0.0
 11
2.9085652372
 21
6.6522920995
 31
0.0
  0
LINE
  5
263
330
1F
100
AcDbEntity
  8
0
  6
HIDDEN
 62
     7
100
AcDbLine
 10
2.7510849223
 20
6.9731582413
 30
0.0
 11
2.7510849223
 21
6.6916621783
 31
0.0
  0
LINE
  5
264
330
1F
100
AcDbEntity
  8
0
  6
HIDDEN
 62
     7
100
AcDbLine
 10
2.9085652372
 20
6.6916621783
 30
0.0
 11
2.9085652372
 21
6.9731582413
 31
0.0
  0
LINE
  5
265
330
1F
100
AcDbEntity
  8
0
  6
HIDDEN
 62
     7
100
AcDbLine
 10
3.3561636624
 20
6.9475676901
 30
0.0
 11
3.2971085443
 21
6.9475676901
 31
0.0
  0
LINE
  5
266
330
1F
100
AcDbEntity
  8
0
  6
HIDDEN
 62
     7
100
AcDbLine
 10
3.2971085443
 20
6.3963865877
 30
0.0
 11
3.3561636624
 21
6.3963865877
 31
0.0
  0
LINE
  5
267
330
1F
100
AcDbEntity
  8
0
  6
HIDDEN
 62
     7
100
AcDbLine
 10
2.6723447648
 20
6.8688275326
 30
0.0
 11
2.6573447648
 21
6.8838275326
 31
0.0
  0
LINE
  5
268
330
1F
100
AcDbEntity
  8
0
  6
HIDDEN
 62
     7
100
AcDbLine
 10
2.6573447648
 20
6.4601267452
 30
0.0
 11
2.6723447648
 21
6.4751267452
 31
0.0
  0
LINE
  5
269
330
1F
100
AcDbEntity
  8
0
  6
HIDDEN
 62
     7
100
AcDbLine
 10
3.072607232
 20
6.4751267452
 30
0.0
 11
3.2478959459
 21
6.4751267452
 31
0.0
  0
LINE
  5
26A
330
1F
100
AcDbEntity
  8
0
  6
HIDDEN
 62
     7
100
AcDbLine
 10
3.2478959459
 20
6.8688275326
 30
0.0
 11
3.072607232
 21
6.8688275326
 31
0.0
  0
LINE
  5
26B
330
1F
100
AcDbEntity
  8
0
  6
HIDDEN
 62
     7
100
AcDbLine
 10
3.0201137937
 20
6.8688275326
 30
0.0
 11
2.6723447648
 21
6.8688275326
 31
0.0
  0
LINE
  5
26C
330
1F
100
AcDbEntity
  8
0
  6
HIDDEN
 62
     7
100
AcDbLine
 10
2.6723447648
 20
6.4751267452
 30
0.0
 11
3.0201137937
 21
6.4751267452
 31
0.0
  0
LINE
  5
26D
330
1F
100
AcDbEntity
  8
0
  6
HIDDEN
 62
     7
100
AcDbLine
 10
2.9676203554
 20
7.1109535169
 30
0.0
 11
2.6920298042
 21
7.1109535169
 31
0.0
  0
LINE
  5
26E
330
1F
100
AcDbEntity
  8
0
  6
HIDDEN
 62
     7
100
AcDbLine
 10
2.8298250798
 20
6.3018983988
 30
0.0
 11
2.9085652372
 21
6.3018983988
 31
0.0
  0
LINE
  5
26F
330
1F
100
AcDbEntity
  8
0
  6
HIDDEN
 62
     7
100
AcDbLine
 10
2.8298250798
 20
6.3018983988
 30
0.0
 11
2.7510849223
 21
6.3018983988
 31
0.0
  0
LINE
  5
270
330
1F
100
AcDbEntity
  8
0
  6
CONTINUOUS
 62
     7
100
AcDbLine
 10
8.3022275767
 20
6.071032311
 30
0.0
 11
8.3161447392
 21
6.0790691299
 31
0.0
  0
LINE
  5
271
330
1F
100
AcDbEntity
  8
0
  6
CONTINUOUS
 62
     7
100
AcDbLine
 10
8.9145827279
 20
7.1157064533
 30
0.0
 11
8.9145827279
 21
7.1317774792
 31
0.0
  0
LINE
  5
272
330
1F
100
AcDbEntity
  8
0
  6
CONTINUOUS
 62
     7
100
AcDbLine
 10
7.7961824167
 20
6.0701838658
 30
0.0
 11
7.8690923639
 21
6.0280938492
 31
0.0
  0
LINE
  5
273
330
1F
100
AcDbEntity
  8
0
  6
CONTINUOUS
 62
     7
100
AcDbLine
 10
8.7351637072
 20
7.528335973
 30
0.0
 11
8.6622537599
 21
7.5704259896
 31
0.0
  0
LINE
  5
274
330
1F
100
AcDbEntity
  8
0
  6
CONTINUOUS
 62
     7
100
AcDbLine
 10
8.6362611954
 20
6.1096215793
 30
0.0
 11
8.6468660733
 21
6.1157456353
 31
0.0
  0
LINE
  5
275
330
1F
100
AcDbEntity
  8
0
  6
CONTINUOUS
 62
     7
100
AcDbLine
 10
9.0482092062
 20
6.8109676617
 30
0.0
 11
9.0482092062
 21
6.8232137834
 31
0.0
  0
LINE
  5
276
330
1F
100
AcDbEntity
  8
0
  6
CONTINUOUS
 62
     7
100
AcDbLine
 10
8.2865831054
 20
6.1143893963
 30
0.0
 11
8.344879325
 21
6.080735705
 31
0.0
  0
LINE
  5
277
330
1F
100
AcDbEntity
  8
0
  6
CONTINUOUS
 62
     7
100
AcDbLine
 10
8.0989694864
 20
6.2226964331
 30
0.0
 11
8.1719102801
 21
6.1805886092
 31
0.0
  0
LINE
  5
278
330
1F
100
AcDbEntity
  8
0
  6
CONTINUOUS
 62
     7
100
AcDbLine
 10
8.024732554
 20
6.265552502
 30
0.0
 11
8.0618510202
 21
6.2441244675
 31
0.0
  0
LINE
  5
279
330
1F
100
AcDbEntity
  8
0
  6
CONTINUOUS
 62
     7
100
AcDbLine
 10
8.9275091377
 20
7.0899894974
 30
0.0
 11
8.6073623667
 21
7.2748062943
 31
0.0
  0
SPLINE
  5
27A
330
1F
100
AcDbEntity
  8
0
  6
CONTINUOUS
 62
     7
100
AcDbSpline
210
0.0
220
0.0
230
1.0
 70
     8
 71
     3
 72
    34
 73
    30
 74
     0
 42
0.00000001
 43
0.00000001
 40
0.0
 40
0.0
 40
0.0
 40
0.0
 40
0.0000576878260792
 40
0.0359238275826077
 40
0.072574163188355
 40
0.1102202543707299
 40
0.1488337769473333
 40
0.188179345045406
 40
0.2279371086458421
 40
0.2678189748721924
 40
0.3076398542244872
 40
0.3473513876459407
 40
0.3869553866794771
 40
0.4264792865354661
 40
0.4659623924861895
 40
0.5054493178962207
 40
0.5449769755864045
 40
0.58458828681156
 40
0.6243314592533489
 40
0.6642509660845226
 40
0.7043790310108698
 40
0.7447174936611655
 40
0.7852016570400346
 40
0.8255726489774334
 40
0.8654691516831579
 40
0.9044758614705763
 40
0.9423201994592396
 40
0.9790269729706391
 40
1.0
 40
1.0
 40
1.0
 40
1.0
 10
8.383350433896355
 20
6.871163084282945
 30
0.0
 10
8.383348874959397
 20
6.871168342461188
 30
0.0
 10
8.382378081184187
 20
6.874442757557905
 30
0.0
 10
8.37895777243151
 20
6.88065303997086
 30
0.0
 10
8.373046895130091
 20
6.889656870416032
 30
0.0
 10
8.365386725234455
 20
6.898113415989045
 30
0.0
 10
8.356280768428967
 20
6.905999514997991
 30
0.0
 10
8.345747973199922
 20
6.913183486665838
 30
0.0
 10
8.333957954154041
 20
6.919557841355839
 30
0.0
 10
8.321093872656636
 20
6.925028459456319
 30
0.0
 10
8.307355709669782
 20
6.929532369403972
 30
0.0
 10
8.292934203240328
 20
6.933030119956474
 30
0.0
 10
8.278009853958173
 20
6.93549762208476
 30
0.0
 10
8.262760327892536
 20
6.936919492363239
 30
0.0
 10
8.247362334736339
 20
6.937287366639334
 30
0.0
 10
8.23199315711981
 20
6.936599336117965
 30
0.0
 10
8.216829153637958
 20
6.934859967950897
 30
0.0
 10
8.202043512482827
 20
6.932079725548093
 30
0.0
 10
8.187803883595677
 20
6.928273337729997
 30
0.0
 10
8.174273136392713
 20
6.923458171136063
 30
0.0
 10
8.161612191806665
 20
6.917653427700561
 30
0.0
 10
8.149984904728537
 20
6.910881671336035
 30
0.0
 10
8.139573275549255
 20
6.903180914972371
 30
0.0
 10
8.130570546127622
 20
6.894620450391955
 30
0.0
 10
8.12318088431826
 20
6.885321327699254
 30
0.0
 10
8.117533886014234
 20
6.875459965546368
 30
0.0
 10
8.113832055603188
 20
6.865256270432392
 30
0.0
 10
8.111980257710176
 20
6.856328843810552
 30
0.0
 10
8.112081962433598
 20
6.850877562295281
 30
0.0
 10
8.112118943419892
 20
6.84889541475849
 30
0.0
  0
LINE
  5
27B
330
1F
100
AcDbEntity
  8
0
  6
CONTINUOUS
 62
     7
100
AcDbLine
 10
8.1119054019
 20
6.8492549563
 30
0.0
 11
8.1119054019
 21
6.7367394901
 31
0.0
  0
SPLINE
  5
27C
330
1F
100
AcDbEntity
  8
0
  6
CONTINUOUS
 62
     7
100
AcDbSpline
210
0.0
220
0.0
230
1.0
 70
     8
 71
     3
 72
    18
 73
    14
 74
     0
 42
0.00000001
 43
0.00000001
 40
0.0
 40
0.0
 40
0.0
 40
0.0
 40
0.0473690370658155
 40
0.1329496378210281
 40
0.2195551361224159
 40
0.3090473141946775
 40
0.4025624286531322
 40
0.5000054321165831
 40
0.6000257863617794
 40
0.7008048387942019
 40
0.801280108273296
 40
0.901344495879342
 40
1.0
 40
1.0
 40
1.0
 40
1.0
 10
8.171488968198517
 20
6.183648351564798
 30
0.0
 10
8.171647292795132
 20
6.182153527657635
 30
0.0
 10
8.17209165896937
 20
6.1779580381697
 30
0.0
 10
8.174630222535466
 20
6.171387268276709
 30
0.0
 10
8.17879314964184
 20
6.164155238649824
 30
0.0
 10
8.184455763578974
 20
6.157511809162139
 30
0.0
 10
8.191499153964141
 20
6.151493178495703
 30
0.0
 10
8.19990458911257
 20
6.146208997126583
 30
0.0
 10
8.209506855017594
 20
6.141804148145111
 30
0.0
 10
8.220045797099626
 20
6.138398515501359
 30
0.0
 10
8.231220178330442
 20
6.136093440098173
 30
0.0
 10
8.242723442562973
 20
6.134816650452682
 30
0.0
 10
8.250445926145035
 20
6.134901981900228
 30
0.0
 10
8.254279792519618
 20
6.134944345132725
 30
0.0
  0
SPLINE
  5
27D
330
1F
100
AcDbEntity
  8
0
  6
CONTINUOUS
 62
     7
100
AcDbSpline
210
0.0
220
0.0
230
1.0
 70
     8
 71
     3
 72
    25
 73
    21
 74
     0
 42
0.00000001
 43
0.00000001
 40
0.0
 40
0.0
 40
0.0
 40
0.0
 40
0.0271513072701704
 40
0.0798898831258595
 40
0.1324318571624938
 40
0.1860645176012282
 40
0.2417960774117444
 40
0.3000717632974511
 40
0.3605139845721555
 40
0.4221318206226105
 40
0.4838599794939987
 40
0.54534208366136
 40
0.6066092248869833
 40
0.6678398693739943
 40
0.7292471665500262
 40
0.7910320066379916
 40
0.8534555003430138
 40
0.9151575909723718
 40
0.9500469319782626
 40
1.0
 40
1.0
 40
1.0
 40
1.0
 10
7.521141684738257
 20
7.289807342688186
 30
0.0
 10
7.519906808209257
 20
7.289135621000534
 30
0.0
 10
7.516273313122077
 20
7.287159150159347
 30
0.0
 10
7.511292784046192
 20
7.282330047343616
 30
0.0
 10
7.506356542029001
 20
7.27572911374275
 30
0.0
 10
7.502675896364006
 20
7.268082995321529
 30
0.0
 10
7.500199713236805
 20
7.259531877600916
 30
0.0
 10
7.49899687089906
 20
7.250097493556455
 30
0.0
 10
7.499129538647237
 20
7.239921236051317
 30
0.0
 10
7.500623504235352
 20
7.229249468460824
 30
0.0
 10
7.503429500820757
 20
7.218384066969995
 30
0.0
 10
7.50744718794174
 20
7.207605838958411
 30
0.0
 10
7.512565065987684
 20
7.197140809848494
 30
0.0
 10
7.518672883632064
 20
7.187188259572644
 30
0.0
 10
7.525661354803721
 20
7.177936593157296
 30
0.0
 10
7.533427463576833
 20
7.169572415045604
 30
0.0
 10
7.541802212866225
 20
7.162320456721172
 30
0.0
 10
7.549381715224246
 20
7.157271151071007
 30
0.0
 10
7.556572356950101
 20
7.153399087767409
 30
0.0
 10
7.560890859644744
 20
7.151929078099281
 30
0.0
 10
7.563433484981884
 20
7.151063573526907
 30
0.0
  0
LINE
  5
27E
330
1F
100
AcDbEntity
  8
0
  6
CONTINUOUS
 62
     7
100
AcDbLine
 10
8.0637530802
 20
7.6714960203
 30
0.0
 11
7.9800476354
 21
7.6231738956
 31
0.0
  0
SPLINE
  5
27F
330
1F
100
AcDbEntity
  8
0
  6
CONTINUOUS
 62
     7
100
AcDbSpline
210
0.0
220
0.0
230
1.0
 70
     8
 71
     3
 72
    14
 73
    10
 74
     0
 42
0.00000001
 43
0.00000001
 40
0.0
 40
0.0
 40
0.0
 40
0.0
 40
0.0130346528319357
 40
0.1984710946089996
 40
0.3817457400043893
 40
0.5609481404601415
 40
0.7348190816911745
 40
0.9034615953018518
 40
1.0
 40
1.0
 40
1.0
 40
1.0
 10
8.125190361109393
 20
7.673834523480659
 30
0.0
 10
8.124912731837798
 20
7.673956435024909
 30
0.0
 10
8.120685432028617
 20
7.675812711363436
 30
0.0
 10
8.1124586560803
 20
7.677887141134249
 30
0.0
 10
8.100717731358387
 20
7.679786260676143
 30
0.0
 10
8.089346936817726
 20
7.679724262563301
 30
0.0
 10
8.078653506574618
 20
7.677850462031817
 30
0.0
 10
8.069985871973191
 20
7.674997338006691
 30
0.0
 10
8.065307493160303
 20
7.672187172314392
 30
0.0
 10
8.063604341854958
 20
7.671164139003391
 30
0.0
  0
LINE
  5
280
330
1F
100
AcDbEntity
  8
0
  6
CONTINUOUS
 62
     7
100
AcDbLine
 10
8.5508983613
 20
7.6347100929
 30
0.0
 11
8.4779884141
 21
7.6768001095
 31
0.0
  0
LINE
  5
281
330
1F
100
AcDbEntity
  8
0
  6
CONTINUOUS
 62
     7
100
AcDbLine
 10
7.6119170708
 20
6.1765579857
 30
0.0
 11
7.6848270181
 21
6.1344679691
 31
0.0
  0
LINE
  5
282
330
1F
100
AcDbEntity
  8
0
  6
CONTINUOUS
 62
     7
100
AcDbLine
 10
8.0448532013
 20
7.6338616477
 30
0.0
 11
8.0309360388
 21
7.6258248288
 31
0.0
  0
LINE
  5
283
330
1F
100
AcDbEntity
  8
0
  6
CONTINUOUS
 62
     7
100
AcDbLine
 10
7.4324980501
 20
6.5891875053
 30
0.0
 11
7.4324980501
 21
6.5731164795
 31
0.0
  0
LINE
  5
284
330
1F
100
AcDbEntity
  8
0
  6
CONTINUOUS
 62
     7
100
AcDbLine
 10
7.4195716403
 20
6.6149044613
 30
0.0
 11
7.4327015049
 21
6.6073247518
 31
0.0
  0
LINE
  5
285
330
1F
100
AcDbEntity
  8
0
  6
CONTINUOUS
 62
     7
100
AcDbLine
 10
7.2988715718
 20
6.893926297
 30
0.0
 11
7.2988715718
 21
6.8816801753
 31
0.0
  0
POLYLINE
  5
286
330
1F
100
AcDbEntity
  8
0
  6
CONTINUOUS
 62
     7
100
AcDb2dPolyline
 66
     1
 10
0.0
 20
0.0
 30
0.0
  0
VERTEX
  5
2FA
330
286
100
AcDbEntity
  8
0
  6
CONTINUOUS
 62
     7
100
AcDbVertex
100
AcDb2dVertex
 10
8.3022275767
 20
6.071032311
 30
0.0
  0
VERTEX
  5
2FB
330
286
100
AcDbEntity
  8
0
  6
CONTINUOUS
 62
     7
100
AcDbVertex
100
AcDb2dVertex
 10
8.2804323896
 20
6.0588940929
 30
0.0
  0
VERTEX
  5
2FC
330
286
100
AcDbEntity
  8
0
  6
CONTINUOUS
 62
     7
100
AcDbVertex
100
AcDb2dVertex
 10
8.2515519279
 20
6.0441934557
 30
0.0
  0
VERTEX
  5
2FD
330
286
100
AcDbEntity
  8
0
  6
CONTINUOUS
 62
     7
100
AcDbVertex
100
AcDb2dVertex
 10
8.2227843213
 20
6.0311307075
 30
0.0
  0
VERTEX
  5
2FE
330
286
100
AcDbEntity
  8
0
  6
CONTINUOUS
 62
     7
100
AcDbVertex
100
AcDb2dVertex
 10
8.1941937616
 20
6.0197349962
 30
0.0
  0
VERTEX
  5
2FF
330
286
100
AcDbEntity
  8
0
  6
CONTINUOUS
 62
     7
100
AcDbVertex
100
AcDb2dVertex
 10
8.1658440454
 20
6.0100317501
 30
0.0
  0
VERTEX
  5
300
330
286
100
AcDbEntity
  8
0
  6
CONTINUOUS
 62
     7
100
AcDbVertex
100
AcDb2dVertex
 10
8.1377984321
 20
6.0020426211
 30
0.0
  0
VERTEX
  5
301
330
286
100
AcDbEntity
  8
0
  6
CONTINUOUS
 62
     7
100
AcDbVertex
100
AcDb2dVertex
 10
8.1101195024
 20
5.995785436
 30
0.0
  0
VERTEX
  5
302
330
286
100
AcDbEntity
  8
0
  6
CONTINUOUS
 62
     7
100
AcDbVertex
100
AcDb2dVertex
 10
8.0828690188
 20
5.991274157
 30
0.0
  0
VERTEX
  5
303
330
286
100
AcDbEntity
  8
0
  6
CONTINUOUS
 62
     7
100
AcDbVertex
100
AcDb2dVertex
 10
8.0561077878
 20
5.9885188505
 30
0.0
  0
VERTEX
  5
304
330
286
100
AcDbEntity
  8
0
  6
CONTINUOUS
 62
     7
100
AcDbVertex
100
AcDb2dVertex
 10
8.0298955242
 20
5.9875256647
 30
0.0
  0
VERTEX
  5
305
330
286
100
AcDbEntity
  8
0
  6
CONTINUOUS
 62
     7
100
AcDbVertex
100
AcDb2dVertex
 10
8.0042907178
 20
5.9882968158
 30
0.0
  0
VERTEX
  5
306
330
286
100
AcDbEntity
  8
0
  6
CONTINUOUS
 62
     7
100
AcDbVertex
100
AcDb2dVertex
 10
7.9793505029
 20
5.990830583
 30
0.0
  0
VERTEX
  5
307
330
286
100
AcDbEntity
  8
0
  6
CONTINUOUS
 62
     7
100
AcDbVertex
100
AcDb2dVertex
 10
7.9551305308
 20
5.9951213126
 30
0.0
  0
VERTEX
  5
308
330
286
100
AcDbEntity
  8
0
  6
CONTINUOUS
 62
     7
100
AcDbVertex
100
AcDb2dVertex
 10
7.9316848459
 20
6.0011594302
 30
0.0
  0
VERTEX
  5
309
330
286
100
AcDbEntity
  8
0
  6
CONTINUOUS
 62
     7
100
AcDbVertex
100
AcDb2dVertex
 10
7.9090657646
 20
6.0089314624
 30
0.0
  0
VERTEX
  5
30A
330
286
100
AcDbEntity
  8
0
  6
CONTINUOUS
 62
     7
100
AcDbVertex
100
AcDb2dVertex
 10
7.887323759
 20
6.0184200668
 30
0.0
  0
VERTEX
  5
30B
330
286
100
AcDbEntity
  8
0
  6
CONTINUOUS
 62
     7
100
AcDbVertex
100
AcDb2dVertex
 10
7.8665073438
 20
6.0296040705
 30
0.0
  0
VERTEX
  5
30C
330
286
100
AcDbEntity
  8
0
  6
CONTINUOUS
 62
     7
100
AcDbVertex
100
AcDb2dVertex
 10
7.8466629688
 20
6.0424585178
 30
0.0
  0
VERTEX
  5
30D
330
286
100
AcDbEntity
  8
0
  6
CONTINUOUS
 62
     7
100
AcDbVertex
100
AcDb2dVertex
 10
7.8278349144
 20
6.0569547254
 30
0.0
  0
VERTEX
  5
30E
330
286
100
AcDbEntity
  8
0
  6
CONTINUOUS
 62
     7
100
AcDbVertex
100
AcDb2dVertex
 10
7.8100651934
 20
6.0730603464
 30
0.0
  0
VERTEX
  5
30F
330
286
100
AcDbEntity
  8
0
  6
CONTINUOUS
 62
     7
100
AcDbVertex
100
AcDb2dVertex
 10
7.7933934571
 20
6.0907394429
 30
0.0
  0
VERTEX
  5
310
330
286
100
AcDbEntity
  8
0
  6
CONTINUOUS
 62
     7
100
AcDbVertex
100
AcDb2dVertex
 10
7.7778569065
 20
6.1099525661
 30
0.0
  0
VERTEX
  5
311
330
286
100
AcDbEntity
  8
0
  6
CONTINUOUS
 62
     7
100
AcDbVertex
100
AcDb2dVertex
 10
7.7634902098
 20
6.1306568439
 30
0.0
  0
VERTEX
  5
312
330
286
100
AcDbEntity
  8
0
  6
CONTINUOUS
 62
     7
100
AcDbVertex
100
AcDb2dVertex
 10
7.7503254247
 20
6.1528060769
 30
0.0
  0
VERTEX
  5
313
330
286
100
AcDbEntity
  8
0
  6
CONTINUOUS
 62
     7
100
AcDbVertex
100
AcDb2dVertex
 10
7.738391927
 20
6.1763508416
 30
0.0
  0
VERTEX
  5
314
330
286
100
AcDbEntity
  8
0
  6
CONTINUOUS
 62
     7
100
AcDbVertex
100
AcDb2dVertex
 10
7.727716345
 20
6.2012386003
 30
0.0
  0
VERTEX
  5
315
330
286
100
AcDbEntity
  8
0
  6
CONTINUOUS
 62
     7
100
AcDbVertex
100
AcDb2dVertex
 10
7.7183225001
 20
6.2274138188
 30
0.0
  0
VERTEX
  5
316
330
286
100
AcDbEntity
  8
0
  6
CONTINUOUS
 62
     7
100
AcDbVertex
100
AcDb2dVertex
 10
7.7102313536
 20
6.25481809
 30
0.0
  0
VERTEX
  5
317
330
286
100
AcDbEntity
  8
0
  6
CONTINUOUS
 62
     7
100
AcDbVertex
100
AcDb2dVertex
 10
7.7034609601
 20
6.2833902641
 30
0.0
  0
VERTEX
  5
318
330
286
100
AcDbEntity
  8
0
  6
CONTINUOUS
 62
     7
100
AcDbVertex
100
AcDb2dVertex
 10
7.6980264269
 20
6.3130665855
 30
0.0
  0
VERTEX
  5
319
330
286
100
AcDbEntity
  8
0
  6
CONTINUOUS
 62
     7
100
AcDbVertex
100
AcDb2dVertex
 10
7.6939398806
 20
6.3437808346
 30
0.0
  0
VERTEX
  5
31A
330
286
100
AcDbEntity
  8
0
  6
CONTINUOUS
 62
     7
100
AcDbVertex
100
AcDb2dVertex
 10
7.6912104399
 20
6.3754644761
 30
0.0
  0
VERTEX
  5
31B
330
286
100
AcDbEntity
  8
0
  6
CONTINUOUS
 62
     7
100
AcDbVertex
100
AcDb2dVertex
 10
7.6898441952
 20
6.4080468113
 30
0.0
  0
VERTEX
  5
31C
330
286
100
AcDbEntity
  8
0
  6
CONTINUOUS
 62
     7
100
AcDbVertex
100
AcDb2dVertex
 10
7.6898441952
 20
6.4414551362
 30
0.0
  0
VERTEX
  5
31D
330
286
100
AcDbEntity
  8
0
  6
CONTINUOUS
 62
     7
100
AcDbVertex
100
AcDb2dVertex
 10
7.6912104399
 20
6.4756149039
 30
0.0
  0
VERTEX
  5
31E
330
286
100
AcDbEntity
  8
0
  6
CONTINUOUS
 62
     7
100
AcDbVertex
100
AcDb2dVertex
 10
7.6939398806
 20
6.5104498905
 30
0.0
  0
VERTEX
  5
31F
330
286
100
AcDbEntity
  8
0
  6
CONTINUOUS
 62
     7
100
AcDbVertex
100
AcDb2dVertex
 10
7.6980264269
 20
6.5458823656
 30
0.0
  0
VERTEX
  5
320
330
286
100
AcDbEntity
  8
0
  6
CONTINUOUS
 62
     7
100
AcDbVertex
100
AcDb2dVertex
 10
7.7034609601
 20
6.5818332655
 30
0.0
  0
VERTEX
  5
321
330
286
100
AcDbEntity
  8
0
  6
CONTINUOUS
 62
     7
100
AcDbVertex
100
AcDb2dVertex
 10
7.7102313536
 20
6.6182223696
 30
0.0
  0
VERTEX
  5
322
330
286
100
AcDbEntity
  8
0
  6
CONTINUOUS
 62
     7
100
AcDbVertex
100
AcDb2dVertex
 10
7.7183225001
 20
6.6549684796
 30
0.0
  0
VERTEX
  5
323
330
286
100
AcDbEntity
  8
0
  6
CONTINUOUS
 62
     7
100
AcDbVertex
100
AcDb2dVertex
 10
7.727716345
 20
6.6919896006
 30
0.0
  0
VERTEX
  5
324
330
286
100
AcDbEntity
  8
0
  6
CONTINUOUS
 62
     7
100
AcDbVertex
100
AcDb2dVertex
 10
7.738391927
 20
6.729203124
 30
0.0
  0
VERTEX
  5
325
330
286
100
AcDbEntity
  8
0
  6
CONTINUOUS
 62
     7
100
AcDbVertex
100
AcDb2dVertex
 10
7.7503254247
 20
6.7665260118
 30
0.0
  0
VERTEX
  5
326
330
286
100
AcDbEntity
  8
0
  6
CONTINUOUS
 62
     7
100
AcDbVertex
100
AcDb2dVertex
 10
7.7634902098
 20
6.8038749821
 30
0.0
  0
VERTEX
  5
327
330
286
100
AcDbEntity
  8
0
  6
CONTINUOUS
 62
     7
100
AcDbVertex
100
AcDb2dVertex
 10
7.7778569065
 20
6.8411666948
 30
0.0
  0
VERTEX
  5
328
330
286
100
AcDbEntity
  8
0
  6
CONTINUOUS
 62
     7
100
AcDbVertex
100
AcDb2dVertex
 10
7.7933934571
 20
6.8783179375
 30
0.0
  0
VERTEX
  5
329
330
286
100
AcDbEntity
  8
0
  6
CONTINUOUS
 62
     7
100
AcDbVertex
100
AcDb2dVertex
 10
7.8100651934
 20
6.9152458111
 30
0.0
  0
VERTEX
  5
32A
330
286
100
AcDbEntity
  8
0
  6
CONTINUOUS
 62
     7
100
AcDbVertex
100
AcDb2dVertex
 10
7.8278349144
 20
6.9518679152
 30
0.0
  0
VERTEX
  5
32B
330
286
100
AcDbEntity
  8
0
  6
CONTINUOUS
 62
     7
100
AcDbVertex
100
AcDb2dVertex
 10
7.8466629688
 20
6.9881025316
 30
0.0
  0
VERTEX
  5
32C
330
286
100
AcDbEntity
  8
0
  6
CONTINUOUS
 62
     7
100
AcDbVertex
100
AcDb2dVertex
 10
7.8665073438
 20
7.0238688066
 30
0.0
  0
VERTEX
  5
32D
330
286
100
AcDbEntity
  8
0
  6
CONTINUOUS
 62
     7
100
AcDbVertex
100
AcDb2dVertex
 10
7.887323759
 20
7.0590869318
 30
0.0
  0
VERTEX
  5
32E
330
286
100
AcDbEntity
  8
0
  6
CONTINUOUS
 62
     7
100
AcDbVertex
100
AcDb2dVertex
 10
7.9090657646
 20
7.0936783216
 30
0.0
  0
VERTEX
  5
32F
330
286
100
AcDbEntity
  8
0
  6
CONTINUOUS
 62
     7
100
AcDbVertex
100
AcDb2dVertex
 10
7.9316848459
 20
7.1275657892
 30
0.0
  0
VERTEX
  5
330
330
286
100
AcDbEntity
  8
0
  6
CONTINUOUS
 62
     7
100
AcDbVertex
100
AcDb2dVertex
 10
7.9551305308
 20
7.1606737184
 30
0.0
  0
VERTEX
  5
331
330
286
100
AcDbEntity
  8
0
  6
CONTINUOUS
 62
     7
100
AcDbVertex
100
AcDb2dVertex
 10
7.9793505029
 20
7.1929282324
 30
0.0
  0
VERTEX
  5
332
330
286
100
AcDbEntity
  8
0
  6
CONTINUOUS
 62
     7
100
AcDbVertex
100
AcDb2dVertex
 10
8.0042907178
 20
7.2242573589
 30
0.0
  0
VERTEX
  5
333
330
286
100
AcDbEntity
  8
0
  6
CONTINUOUS
 62
     7
100
AcDbVertex
100
AcDb2dVertex
 10
8.0298955242
 20
7.2545911902
 30
0.0
  0
VERTEX
  5
334
330
286
100
AcDbEntity
  8
0
  6
CONTINUOUS
 62
     7
100
AcDbVertex
100
AcDb2dVertex
 10
8.0561077878
 20
7.2838620398
 30
0.0
  0
VERTEX
  5
335
330
286
100
AcDbEntity
  8
0
  6
CONTINUOUS
 62
     7
100
AcDbVertex
100
AcDb2dVertex
 10
8.0828690188
 20
7.3120045929
 30
0.0
  0
VERTEX
  5
336
330
286
100
AcDbEntity
  8
0
  6
CONTINUOUS
 62
     7
100
AcDbVertex
100
AcDb2dVertex
 10
8.1101195024
 20
7.3389560525
 30
0.0
  0
VERTEX
  5
337
330
286
100
AcDbEntity
  8
0
  6
CONTINUOUS
 62
     7
100
AcDbVertex
100
AcDb2dVertex
 10
8.1377984321
 20
7.3646562794
 30
0.0
  0
VERTEX
  5
338
330
286
100
AcDbEntity
  8
0
  6
CONTINUOUS
 62
     7
100
AcDbVertex
100
AcDb2dVertex
 10
8.1658440454
 20
7.3890479263
 30
0.0
  0
VERTEX
  5
339
330
286
100
AcDbEntity
  8
0
  6
CONTINUOUS
 62
     7
100
AcDbVertex
100
AcDb2dVertex
 10
8.1941937616
 20
7.4120765658
 30
0.0
  0
VERTEX
  5
33A
330
286
100
AcDbEntity
  8
0
  6
CONTINUOUS
 62
     7
100
AcDbVertex
100
AcDb2dVertex
 10
8.2227843213
 20
7.4336908122
 30
0.0
  0
VERTEX
  5
33B
330
286
100
AcDbEntity
  8
0
  6
CONTINUOUS
 62
     7
100
AcDbVertex
100
AcDb2dVertex
 10
8.2515519279
 20
7.4538424355
 30
0.0
  0
VERTEX
  5
33C
330
286
100
AcDbEntity
  8
0
  6
CONTINUOUS
 62
     7
100
AcDbVertex
100
AcDb2dVertex
 10
8.2804323896
 20
7.4724864696
 30
0.0
  0
VERTEX
  5
33D
330
286
100
AcDbEntity
  8
0
  6
CONTINUOUS
 62
     7
100
AcDbVertex
100
AcDb2dVertex
 10
8.3093612627
 20
7.4895813124
 30
0.0
  0
VERTEX
  5
33E
330
286
100
AcDbEntity
  8
0
  6
CONTINUOUS
 62
     7
100
AcDbVertex
100
AcDb2dVertex
 10
8.3382739957
 20
7.5050888186
 30
0.0
  0
VERTEX
  5
33F
330
286
100
AcDbEntity
  8
0
  6
CONTINUOUS
 62
     7
100
AcDbVertex
100
AcDb2dVertex
 10
8.3671060729
 20
7.5189743849
 30
0.0
  0
VERTEX
  5
340
330
286
100
AcDbEntity
  8
0
  6
CONTINUOUS
 62
     7
100
AcDbVertex
100
AcDb2dVertex
 10
8.3957931587
 20
7.5312070271
 30
0.0
  0
VERTEX
  5
341
330
286
100
AcDbEntity
  8
0
  6
CONTINUOUS
 62
     7
100
AcDbVertex
100
AcDb2dVertex
 10
8.424271241
 20
7.5417594495
 30
0.0
  0
VERTEX
  5
342
330
286
100
AcDbEntity
  8
0
  6
CONTINUOUS
 62
     7
100
AcDbVertex
100
AcDb2dVertex
 10
8.4524767741
 20
7.5506081055
 30
0.0
  0
VERTEX
  5
343
330
286
100
AcDbEntity
  8
0
  6
CONTINUOUS
 62
     7
100
AcDbVertex
100
AcDb2dVertex
 10
8.4803468203
 20
7.5577332502
 30
0.0
  0
VERTEX
  5
344
330
286
100
AcDbEntity
  8
0
  6
CONTINUOUS
 62
     7
100
AcDbVertex
100
AcDb2dVertex
 10
8.5078191907
 20
7.5631189847
 30
0.0
  0
VERTEX
  5
345
330
286
100
AcDbEntity
  8
0
  6
CONTINUOUS
 62
     7
100
AcDbVertex
100
AcDb2dVertex
 10
8.5348325837
 20
7.5667532913
 30
0.0
  0
VERTEX
  5
346
330
286
100
AcDbEntity
  8
0
  6
CONTINUOUS
 62
     7
100
AcDbVertex
100
AcDb2dVertex
 10
8.5613267219
 20
7.5686280604
 30
0.0
  0
VERTEX
  5
347
330
286
100
AcDbEntity
  8
0
  6
CONTINUOUS
 62
     7
100
AcDbVertex
100
AcDb2dVertex
 10
8.5872424864
 20
7.5687391087
 30
0.0
  0
VERTEX
  5
348
330
286
100
AcDbEntity
  8
0
  6
CONTINUOUS
 62
     7
100
AcDbVertex
100
AcDb2dVertex
 10
8.6125220492
 20
7.5670861885
 30
0.0
  0
VERTEX
  5
349
330
286
100
AcDbEntity
  8
0
  6
CONTINUOUS
 62
     7
100
AcDbVertex
100
AcDb2dVertex
 10
8.6371090015
 20
7.5636729879
 30
0.0
  0
VERTEX
  5
34A
330
286
100
AcDbEntity
  8
0
  6
CONTINUOUS
 62
     7
100
AcDbVertex
100
AcDb2dVertex
 10
8.6609484803
 20
7.5585071233
 30
0.0
  0
VERTEX
  5
34B
330
286
100
AcDbEntity
  8
0
  6
CONTINUOUS
 62
     7
100
AcDbVertex
100
AcDb2dVertex
 10
8.6839872903
 20
7.5516001216
 30
0.0
  0
VERTEX
  5
34C
330
286
100
AcDbEntity
  8
0
  6
CONTINUOUS
 62
     7
100
AcDbVertex
100
AcDb2dVertex
 10
8.7061740231
 20
7.542967395
 30
0.0
  0
VERTEX
  5
34D
330
286
100
AcDbEntity
  8
0
  6
CONTINUOUS
 62
     7
100
AcDbVertex
100
AcDb2dVertex
 10
8.7274591713
 20
7.5326282067
 30
0.0
  0
VERTEX
  5
34E
330
286
100
AcDbEntity
  8
0
  6
CONTINUOUS
 62
     7
100
AcDbVertex
100
AcDb2dVertex
 10
8.7477952394
 20
7.5206056273
 30
0.0
  0
VERTEX
  5
34F
330
286
100
AcDbEntity
  8
0
  6
CONTINUOUS
 62
     7
100
AcDbVertex
100
AcDb2dVertex
 10
8.7671368497
 20
7.5069264839
 30
0.0
  0
VERTEX
  5
350
330
286
100
AcDbEntity
  8
0
  6
CONTINUOUS
 62
     7
100
AcDbVertex
100
AcDb2dVertex
 10
8.7854408435
 20
7.4916213001
 30
0.0
  0
VERTEX
  5
351
330
286
100
AcDbEntity
  8
0
  6
CONTINUOUS
 62
     7
100
AcDbVertex
100
AcDb2dVertex
 10
8.8026663774
 20
7.4747242277
 30
0.0
  0
VERTEX
  5
352
330
286
100
AcDbEntity
  8
0
  6
CONTINUOUS
 62
     7
100
AcDbVertex
100
AcDb2dVertex
 10
8.8187750146
 20
7.4562729706
 30
0.0
  0
VERTEX
  5
353
330
286
100
AcDbEntity
  8
0
  6
CONTINUOUS
 62
     7
100
AcDbVertex
100
AcDb2dVertex
 10
8.8337308103
 20
7.4363087008
 30
0.0
  0
VERTEX
  5
354
330
286
100
AcDbEntity
  8
0
  6
CONTINUOUS
 62
     7
100
AcDbVertex
100
AcDb2dVertex
 10
8.8475003924
 20
7.4148759665
 30
0.0
  0
VERTEX
  5
355
330
286
100
AcDbEntity
  8
0
  6
CONTINUOUS
 62
     7
100
AcDbVertex
100
AcDb2dVertex
 10
8.8600530355
 20
7.3920225924
 30
0.0
  0
VERTEX
  5
356
330
286
100
AcDbEntity
  8
0
  6
CONTINUOUS
 62
     7
100
AcDbVertex
100
AcDb2dVertex
 10
8.8713607298
 20
7.3677995734
 30
0.0
  0
VERTEX
  5
357
330
286
100
AcDbEntity
  8
0
  6
CONTINUOUS
 62
     7
100
AcDbVertex
100
AcDb2dVertex
 10
8.8813982433
 20
7.3422609604
 30
0.0
  0
VERTEX
  5
358
330
286
100
AcDbEntity
  8
0
  6
CONTINUOUS
 62
     7
100
AcDbVertex
100
AcDb2dVertex
 10
8.8901431786
 20
7.3154637401
 30
0.0
  0
VERTEX
  5
359
330
286
100
AcDbEntity
  8
0
  6
CONTINUOUS
 62
     7
100
AcDbVertex
100
AcDb2dVertex
 10
8.897576022
 20
7.2874677077
 30
0.0
  0
VERTEX
  5
35A
330
286
100
AcDbEntity
  8
0
  6
CONTINUOUS
 62
     7
100
AcDbVertex
100
AcDb2dVertex
 10
8.9036801883
 20
7.2583353331
 30
0.0
  0
VERTEX
  5
35B
330
286
100
AcDbEntity
  8
0
  6
CONTINUOUS
 62
     7
100
AcDbVertex
100
AcDb2dVertex
 10
8.9084420564
 20
7.2281316221
 30
0.0
  0
VERTEX
  5
35C
330
286
100
AcDbEntity
  8
0
  6
CONTINUOUS
 62
     7
100
AcDbVertex
100
AcDb2dVertex
 10
8.9118510008
 20
7.196923971
 30
0.0
  0
VERTEX
  5
35D
330
286
100
AcDbEntity
  8
0
  6
CONTINUOUS
 62
     7
100
AcDbVertex
100
AcDb2dVertex
 10
8.913899415
 20
7.1647820163
 30
0.0
  0
VERTEX
  5
35E
330
286
100
AcDbEntity
  8
0
  6
CONTINUOUS
 62
     7
100
AcDbVertex
100
AcDb2dVertex
 10
8.9145827279
 20
7.1317774792
 30
0.0
  0
VERTEX
  5
35F
330
286
100
AcDbEntity
  8
0
  6
CONTINUOUS
 62
     7
100
AcDbVertex
100
AcDb2dVertex
 10
8.9145827279
 20
7.1317774792
 30
0.0
  0
SEQEND
  5
360
330
286
100
AcDbEntity
  8
0
  6
CONTINUOUS
 62
     7
  0
POLYLINE
  5
287
330
1F
100
AcDbEntity
  8
0
  6
CONTINUOUS
 62
     7
100
AcDb2dPolyline
 66
     1
 10
0.0
 20
0.0
 30
0.0
  0
VERTEX
  5
361
330
287
100
AcDbEntity
  8
0
  6
CONTINUOUS
 62
     7
100
AcDbVertex
100
AcDb2dVertex
 10
8.9143792731
 20
7.0975692069
 30
0.0
  0
VERTEX
  5
362
330
287
100
AcDbEntity
  8
0
  6
CONTINUOUS
 62
     7
100
AcDbVertex
100
AcDb2dVertex
 10
8.9145827279
 20
7.1157064533
 30
0.0
  0
VERTEX
  5
363
330
287
100
AcDbEntity
  8
0
  6
CONTINUOUS
 62
     7
100
AcDbVertex
100
AcDb2dVertex
 10
8.9139047905
 20
7.1482021115
 30
0.0
  0
VERTEX
  5
364
330
287
100
AcDbEntity
  8
0
  6
CONTINUOUS
 62
     7
100
AcDbVertex
100
AcDb2dVertex
 10
8.9118725139
 20
7.1798414267
 30
0.0
  0
VERTEX
  5
365
330
287
100
AcDbEntity
  8
0
  6
CONTINUOUS
 62
     7
100
AcDbVertex
100
AcDb2dVertex
 10
8.9084905019
 20
7.2105527256
 30
0.0
  0
VERTEX
  5
366
330
287
100
AcDbEntity
  8
0
  6
CONTINUOUS
 62
     7
100
AcDbVertex
100
AcDb2dVertex
 10
8.9037664159
 20
7.2402664373
 30
0.0
  0
VERTEX
  5
367
330
287
100
AcDbEntity
  8
0
  6
CONTINUOUS
 62
     7
100
AcDbVertex
100
AcDb2dVertex
 10
8.8977109574
 20
7.2689152506
 30
0.0
  0
VERTEX
  5
368
330
287
100
AcDbEntity
  8
0
  6
CONTINUOUS
 62
     7
100
AcDbVertex
100
AcDb2dVertex
 10
8.890337844
 20
7.2964342668
 30
0.0
  0
VERTEX
  5
369
330
287
100
AcDbEntity
  8
0
  6
CONTINUOUS
 62
     7
100
AcDbVertex
100
AcDb2dVertex
 10
8.8816637782
 20
7.3227611465
 30
0.0
  0
VERTEX
  5
36A
330
287
100
AcDbEntity
  8
0
  6
CONTINUOUS
 62
     7
100
AcDbVertex
100
AcDb2dVertex
 10
8.8717084095
 20
7.3478362508
 30
0.0
  0
VERTEX
  5
36B
330
287
100
AcDbEntity
  8
0
  6
CONTINUOUS
 62
     7
100
AcDbVertex
100
AcDb2dVertex
 10
8.8604942901
 20
7.3716027765
 30
0.0
  0
VERTEX
  5
36C
330
287
100
AcDbEntity
  8
0
  6
CONTINUOUS
 62
     7
100
AcDbVertex
100
AcDb2dVertex
 10
8.8480468234
 20
7.3940068848
 30
0.0
  0
VERTEX
  5
36D
330
287
100
AcDbEntity
  8
0
  6
CONTINUOUS
 62
     7
100
AcDbVertex
100
AcDb2dVertex
 10
8.8343942071
 20
7.4149978233
 30
0.0
  0
VERTEX
  5
36E
330
287
100
AcDbEntity
  8
0
  6
CONTINUOUS
 62
     7
100
AcDbVertex
100
AcDb2dVertex
 10
8.8195673687
 20
7.4345280406
 30
0.0
  0
VERTEX
  5
36F
330
287
100
AcDbEntity
  8
0
  6
CONTINUOUS
 62
     7
100
AcDbVertex
100
AcDb2dVertex
 10
8.8035998958
 20
7.4525532945
 30
0.0
  0
VERTEX
  5
370
330
287
100
AcDbEntity
  8
0
  6
CONTINUOUS
 62
     7
100
AcDbVertex
100
AcDb2dVertex
 10
8.7865279597
 20
7.4690327521
 30
0.0
  0
VERTEX
  5
371
330
287
100
AcDbEntity
  8
0
  6
CONTINUOUS
 62
     7
100
AcDbVertex
100
AcDb2dVertex
 10
8.7683902341
 20
7.4839290821
 30
0.0
  0
VERTEX
  5
372
330
287
100
AcDbEntity
  8
0
  6
CONTINUOUS
 62
     7
100
AcDbVertex
100
AcDb2dVertex
 10
8.7492278065
 20
7.4972085395
 30
0.0
  0
VERTEX
  5
373
330
287
100
AcDbEntity
  8
0
  6
CONTINUOUS
 62
     7
100
AcDbVertex
100
AcDb2dVertex
 10
8.7290840861
 20
7.508841042
 30
0.0
  0
VERTEX
  5
374
330
287
100
AcDbEntity
  8
0
  6
CONTINUOUS
 62
     7
100
AcDbVertex
100
AcDb2dVertex
 10
8.708004705
 20
7.5188002384
 30
0.0
  0
VERTEX
  5
375
330
287
100
AcDbEntity
  8
0
  6
CONTINUOUS
 62
     7
100
AcDbVertex
100
AcDb2dVertex
 10
8.6860374146
 20
7.5270635677
 30
0.0
  0
VERTEX
  5
376
330
287
100
AcDbEntity
  8
0
  6
CONTINUOUS
 62
     7
100
AcDbVertex
100
AcDb2dVertex
 10
8.6632319779
 20
7.533612311
 30
0.0
  0
VERTEX
  5
377
330
287
100
AcDbEntity
  8
0
  6
CONTINUOUS
 62
     7
100
AcDbVertex
100
AcDb2dVertex
 10
8.6396400567
 20
7.5384316332
 30
0.0
  0
VERTEX
  5
378
330
287
100
AcDbEntity
  8
0
  6
CONTINUOUS
 62
     7
100
AcDbVertex
100
AcDb2dVertex
 10
8.6153150941
 20
7.5415106169
 30
0.0
  0
VERTEX
  5
379
330
287
100
AcDbEntity
  8
0
  6
CONTINUOUS
 62
     7
100
AcDbVertex
100
AcDb2dVertex
 10
8.5903121942
 20
7.5428422874
 30
0.0
  0
VERTEX
  5
37A
330
287
100
AcDbEntity
  8
0
  6
CONTINUOUS
 62
     7
100
AcDbVertex
100
AcDb2dVertex
 10
8.5646879963
 20
7.5424236279
 30
0.0
  0
VERTEX
  5
37B
330
287
100
AcDbEntity
  8
0
  6
CONTINUOUS
 62
     7
100
AcDbVertex
100
AcDb2dVertex
 10
8.5385005477
 20
7.5402555869
 30
0.0
  0
VERTEX
  5
37C
330
287
100
AcDbEntity
  8
0
  6
CONTINUOUS
 62
     7
100
AcDbVertex
100
AcDb2dVertex
 10
8.5118091713
 20
7.5363430756
 30
0.0
  0
VERTEX
  5
37D
330
287
100
AcDbEntity
  8
0
  6
CONTINUOUS
 62
     7
100
AcDbVertex
100
AcDb2dVertex
 10
8.4846743317
 20
7.5306949571
 30
0.0
  0
VERTEX
  5
37E
330
287
100
AcDbEntity
  8
0
  6
CONTINUOUS
 62
     7
100
AcDbVertex
100
AcDb2dVertex
 10
8.4571574979
 20
7.5233240263
 30
0.0
  0
VERTEX
  5
37F
330
287
100
AcDbEntity
  8
0
  6
CONTINUOUS
 62
     7
100
AcDbVertex
100
AcDb2dVertex
 10
8.4293210045
 20
7.5142469807
 30
0.0
  0
VERTEX
  5
380
330
287
100
AcDbEntity
  8
0
  6
CONTINUOUS
 62
     7
100
AcDbVertex
100
AcDb2dVertex
 10
8.4012279102
 20
7.5034843827
 30
0.0
  0
VERTEX
  5
381
330
287
100
AcDbEntity
  8
0
  6
CONTINUOUS
 62
     7
100
AcDbVertex
100
AcDb2dVertex
 10
8.3729418547
 20
7.491060613
 30
0.0
  0
VERTEX
  5
382
330
287
100
AcDbEntity
  8
0
  6
CONTINUOUS
 62
     7
100
AcDbVertex
100
AcDb2dVertex
 10
8.3445269151
 20
7.4770038155
 30
0.0
  0
VERTEX
  5
383
330
287
100
AcDbEntity
  8
0
  6
CONTINUOUS
 62
     7
100
AcDbVertex
100
AcDb2dVertex
 10
8.3160474604
 20
7.4613458334
 30
0.0
  0
VERTEX
  5
384
330
287
100
AcDbEntity
  8
0
  6
CONTINUOUS
 62
     7
100
AcDbVertex
100
AcDb2dVertex
 10
8.2875680057
 20
7.444122137
 30
0.0
  0
VERTEX
  5
385
330
287
100
AcDbEntity
  8
0
  6
CONTINUOUS
 62
     7
100
AcDbVertex
100
AcDb2dVertex
 10
8.2591530661
 20
7.4253717436
 30
0.0
  0
VERTEX
  5
386
330
287
100
AcDbEntity
  8
0
  6
CONTINUOUS
 62
     7
100
AcDbVertex
100
AcDb2dVertex
 10
8.2308670106
 20
7.4051371287
 30
0.0
  0
VERTEX
  5
387
330
287
100
AcDbEntity
  8
0
  6
CONTINUOUS
 62
     7
100
AcDbVertex
100
AcDb2dVertex
 10
8.2027739162
 20
7.3834641304
 30
0.0
  0
VERTEX
  5
388
330
287
100
AcDbEntity
  8
0
  6
CONTINUOUS
 62
     7
100
AcDbVertex
100
AcDb2dVertex
 10
8.1749374228
 20
7.3604018448
 30
0.0
  0
VERTEX
  5
389
330
287
100
AcDbEntity
  8
0
  6
CONTINUOUS
 62
     7
100
AcDbVertex
100
AcDb2dVertex
 10
8.1474205891
 20
7.3360025157
 30
0.0
  0
VERTEX
  5
38A
330
287
100
AcDbEntity
  8
0
  6
CONTINUOUS
 62
     7
100
AcDbVertex
100
AcDb2dVertex
 10
8.1202857494
 20
7.3103214151
 30
0.0
  0
VERTEX
  5
38B
330
287
100
AcDbEntity
  8
0
  6
CONTINUOUS
 62
     7
100
AcDbVertex
100
AcDb2dVertex
 10
8.093594373
 20
7.2834167192
 30
0.0
  0
VERTEX
  5
38C
330
287
100
AcDbEntity
  8
0
  6
CONTINUOUS
 62
     7
100
AcDbVertex
100
AcDb2dVertex
 10
8.0674069244
 20
7.2553493756
 30
0.0
  0
VERTEX
  5
38D
330
287
100
AcDbEntity
  8
0
  6
CONTINUOUS
 62
     7
100
AcDbVertex
100
AcDb2dVertex
 10
8.0417827266
 20
7.2261829661
 30
0.0
  0
VERTEX
  5
38E
330
287
100
AcDbEntity
  8
0
  6
CONTINUOUS
 62
     7
100
AcDbVertex
100
AcDb2dVertex
 10
8.0167798266
 20
7.1959835617
 30
0.0
  0
VERTEX
  5
38F
330
287
100
AcDbEntity
  8
0
  6
CONTINUOUS
 62
     7
100
AcDbVertex
100
AcDb2dVertex
 10
7.9924548641
 20
7.164819574
 30
0.0
  0
VERTEX
  5
390
330
287
100
AcDbEntity
  8
0
  6
CONTINUOUS
 62
     7
100
AcDbVertex
100
AcDb2dVertex
 10
7.9688629428
 20
7.1327615994
 30
0.0
  0
VERTEX
  5
391
330
287
100
AcDbEntity
  8
0
  6
CONTINUOUS
 62
     7
100
AcDbVertex
100
AcDb2dVertex
 10
7.9460575062
 20
7.0998822594
 30
0.0
  0
VERTEX
  5
392
330
287
100
AcDbEntity
  8
0
  6
CONTINUOUS
 62
     7
100
AcDbVertex
100
AcDb2dVertex
 10
7.9240902158
 20
7.0662560364
 30
0.0
  0
VERTEX
  5
393
330
287
100
AcDbEntity
  8
0
  6
CONTINUOUS
 62
     7
100
AcDbVertex
100
AcDb2dVertex
 10
7.9030108346
 20
7.0319591046
 30
0.0
  0
VERTEX
  5
394
330
287
100
AcDbEntity
  8
0
  6
CONTINUOUS
 62
     7
100
AcDbVertex
100
AcDb2dVertex
 10
7.8828671142
 20
6.9970691576
 30
0.0
  0
VERTEX
  5
395
330
287
100
AcDbEntity
  8
0
  6
CONTINUOUS
 62
     7
100
AcDbVertex
100
AcDb2dVertex
 10
7.8637046867
 20
6.9616652323
 30
0.0
  0
VERTEX
  5
396
330
287
100
AcDbEntity
  8
0
  6
CONTINUOUS
 62
     7
100
AcDbVertex
100
AcDb2dVertex
 10
7.845566961
 20
6.92582753
 30
0.0
  0
VERTEX
  5
397
330
287
100
AcDbEntity
  8
0
  6
CONTINUOUS
 62
     7
100
AcDbVertex
100
AcDb2dVertex
 10
7.828495025
 20
6.8896372346
 30
0.0
  0
VERTEX
  5
398
330
287
100
AcDbEntity
  8
0
  6
CONTINUOUS
 62
     7
100
AcDbVertex
100
AcDb2dVertex
 10
7.812527552
 20
6.8531763288
 30
0.0
  0
VERTEX
  5
399
330
287
100
AcDbEntity
  8
0
  6
CONTINUOUS
 62
     7
100
AcDbVertex
100
AcDb2dVertex
 10
7.7977007136
 20
6.8165274083
 30
0.0
  0
VERTEX
  5
39A
330
287
100
AcDbEntity
  8
0
  6
CONTINUOUS
 62
     7
100
AcDbVertex
100
AcDb2dVertex
 10
7.7840480973
 20
6.7797734946
 30
0.0
  0
VERTEX
  5
39B
330
287
100
AcDbEntity
  8
0
  6
CONTINUOUS
 62
     7
100
AcDbVertex
100
AcDb2dVertex
 10
7.7716006307
 20
6.7429978472
 30
0.0
  0
VERTEX
  5
39C
330
287
100
AcDbEntity
  8
0
  6
CONTINUOUS
 62
     7
100
AcDbVertex
100
AcDb2dVertex
 10
7.7603865112
 20
6.7062837747
 30
0.0
  0
VERTEX
  5
39D
330
287
100
AcDbEntity
  8
0
  6
CONTINUOUS
 62
     7
100
AcDbVertex
100
AcDb2dVertex
 10
7.7504311425
 20
6.6697144464
 30
0.0
  0
VERTEX
  5
39E
330
287
100
AcDbEntity
  8
0
  6
CONTINUOUS
 62
     7
100
AcDbVertex
100
AcDb2dVertex
 10
7.7417570767
 20
6.6333727035
 30
0.0
  0
VERTEX
  5
39F
330
287
100
AcDbEntity
  8
0
  6
CONTINUOUS
 62
     7
100
AcDbVertex
100
AcDb2dVertex
 10
7.7343839633
 20
6.5973408718
 30
0.0
  0
VERTEX
  5
3A0
330
287
100
AcDbEntity
  8
0
  6
CONTINUOUS
 62
     7
100
AcDbVertex
100
AcDb2dVertex
 10
7.7283285049
 20
6.5617005749
 30
0.0
  0
VERTEX
  5
3A1
330
287
100
AcDbEntity
  8
0
  6
CONTINUOUS
 62
     7
100
AcDbVertex
100
AcDb2dVertex
 10
7.7236044188
 20
6.5265325496
 30
0.0
  0
VERTEX
  5
3A2
330
287
100
AcDbEntity
  8
0
  6
CONTINUOUS
 62
     7
100
AcDbVertex
100
AcDb2dVertex
 10
7.7202224069
 20
6.4919164628
 30
0.0
  0
VERTEX
  5
3A3
330
287
100
AcDbEntity
  8
0
  6
CONTINUOUS
 62
     7
100
AcDbVertex
100
AcDb2dVertex
 10
7.7181901303
 20
6.457930731
 30
0.0
  0
VERTEX
  5
3A4
330
287
100
AcDbEntity
  8
0
  6
CONTINUOUS
 62
     7
100
AcDbVertex
100
AcDb2dVertex
 10
7.7175121928
 20
6.4246523429
 30
0.0
  0
VERTEX
  5
3A5
330
287
100
AcDbEntity
  8
0
  6
CONTINUOUS
 62
     7
100
AcDbVertex
100
AcDb2dVertex
 10
7.7181901303
 20
6.3921566848
 30
0.0
  0
VERTEX
  5
3A6
330
287
100
AcDbEntity
  8
0
  6
CONTINUOUS
 62
     7
100
AcDbVertex
100
AcDb2dVertex
 10
7.7202224069
 20
6.3605173696
 30
0.0
  0
VERTEX
  5
3A7
330
287
100
AcDbEntity
  8
0
  6
CONTINUOUS
 62
     7
100
AcDbVertex
100
AcDb2dVertex
 10
7.7236044188
 20
6.3298060707
 30
0.0
  0
VERTEX
  5
3A8
330
287
100
AcDbEntity
  8
0
  6
CONTINUOUS
 62
     7
100
AcDbVertex
100
AcDb2dVertex
 10
7.7283285049
 20
6.300092359
 30
0.0
  0
VERTEX
  5
3A9
330
287
100
AcDbEntity
  8
0
  6
CONTINUOUS
 62
     7
100
AcDbVertex
100
AcDb2dVertex
 10
7.7343839633
 20
6.2714435457
 30
0.0
  0
VERTEX
  5
3AA
330
287
100
AcDbEntity
  8
0
  6
CONTINUOUS
 62
     7
100
AcDbVertex
100
AcDb2dVertex
 10
7.7417570767
 20
6.2439245295
 30
0.0
  0
VERTEX
  5
3AB
330
287
100
AcDbEntity
  8
0
  6
CONTINUOUS
 62
     7
100
AcDbVertex
100
AcDb2dVertex
 10
7.7504311425
 20
6.2175976498
 30
0.0
  0
VERTEX
  5
3AC
330
287
100
AcDbEntity
  8
0
  6
CONTINUOUS
 62
     7
100
AcDbVertex
100
AcDb2dVertex
 10
7.7603865112
 20
6.1925225455
 30
0.0
  0
VERTEX
  5
3AD
330
287
100
AcDbEntity
  8
0
  6
CONTINUOUS
 62
     7
100
AcDbVertex
100
AcDb2dVertex
 10
7.7716006307
 20
6.1687560198
 30
0.0
  0
VERTEX
  5
3AE
330
287
100
AcDbEntity
  8
0
  6
CONTINUOUS
 62
     7
100
AcDbVertex
100
AcDb2dVertex
 10
7.7840480973
 20
6.1463519115
 30
0.0
  0
VERTEX
  5
3AF
330
287
100
AcDbEntity
  8
0
  6
CONTINUOUS
 62
     7
100
AcDbVertex
100
AcDb2dVertex
 10
7.7977007136
 20
6.125360973
 30
0.0
  0
VERTEX
  5
3B0
330
287
100
AcDbEntity
  8
0
  6
CONTINUOUS
 62
     7
100
AcDbVertex
100
AcDb2dVertex
 10
7.812527552
 20
6.1058307557
 30
0.0
  0
VERTEX
  5
3B1
330
287
100
AcDbEntity
  8
0
  6
CONTINUOUS
 62
     7
100
AcDbVertex
100
AcDb2dVertex
 10
7.828495025
 20
6.0878055018
 30
0.0
  0
VERTEX
  5
3B2
330
287
100
AcDbEntity
  8
0
  6
CONTINUOUS
 62
     7
100
AcDbVertex
100
AcDb2dVertex
 10
7.845566961
 20
6.0713260442
 30
0.0
  0
VERTEX
  5
3B3
330
287
100
AcDbEntity
  8
0
  6
CONTINUOUS
 62
     7
100
AcDbVertex
100
AcDb2dVertex
 10
7.8637046867
 20
6.0564297142
 30
0.0
  0
VERTEX
  5
3B4
330
287
100
AcDbEntity
  8
0
  6
CONTINUOUS
 62
     7
100
AcDbVertex
100
AcDb2dVertex
 10
7.8828671142
 20
6.0431502568
 30
0.0
  0
VERTEX
  5
3B5
330
287
100
AcDbEntity
  8
0
  6
CONTINUOUS
 62
     7
100
AcDbVertex
100
AcDb2dVertex
 10
7.9030108346
 20
6.0315177543
 30
0.0
  0
VERTEX
  5
3B6
330
287
100
AcDbEntity
  8
0
  6
CONTINUOUS
 62
     7
100
AcDbVertex
100
AcDb2dVertex
 10
7.9240902158
 20
6.0215585579
 30
0.0
  0
VERTEX
  5
3B7
330
287
100
AcDbEntity
  8
0
  6
CONTINUOUS
 62
     7
100
AcDbVertex
100
AcDb2dVertex
 10
7.9460575062
 20
6.0132952286
 30
0.0
  0
VERTEX
  5
3B8
330
287
100
AcDbEntity
  8
0
  6
CONTINUOUS
 62
     7
100
AcDbVertex
100
AcDb2dVertex
 10
7.9688629428
 20
6.0067464853
 30
0.0
  0
VERTEX
  5
3B9
330
287
100
AcDbEntity
  8
0
  6
CONTINUOUS
 62
     7
100
AcDbVertex
100
AcDb2dVertex
 10
7.9924548641
 20
6.0019271631
 30
0.0
  0
VERTEX
  5
3BA
330
287
100
AcDbEntity
  8
0
  6
CONTINUOUS
 62
     7
100
AcDbVertex
100
AcDb2dVertex
 10
8.0167798266
 20
5.9988481794
 30
0.0
  0
VERTEX
  5
3BB
330
287
100
AcDbEntity
  8
0
  6
CONTINUOUS
 62
     7
100
AcDbVertex
100
AcDb2dVertex
 10
8.0417827266
 20
5.9975165089
 30
0.0
  0
VERTEX
  5
3BC
330
287
100
AcDbEntity
  8
0
  6
CONTINUOUS
 62
     7
100
AcDbVertex
100
AcDb2dVertex
 10
8.0674069244
 20
5.9979351684
 30
0.0
  0
VERTEX
  5
3BD
330
287
100
AcDbEntity
  8
0
  6
CONTINUOUS
 62
     7
100
AcDbVertex
100
AcDb2dVertex
 10
8.093594373
 20
6.0001032094
 30
0.0
  0
VERTEX
  5
3BE
330
287
100
AcDbEntity
  8
0
  6
CONTINUOUS
 62
     7
100
AcDbVertex
100
AcDb2dVertex
 10
8.1202857494
 20
6.0040157207
 30
0.0
  0
VERTEX
  5
3BF
330
287
100
AcDbEntity
  8
0
  6
CONTINUOUS
 62
     7
100
AcDbVertex
100
AcDb2dVertex
 10
8.1474205891
 20
6.0096638392
 30
0.0
  0
VERTEX
  5
3C0
330
287
100
AcDbEntity
  8
0
  6
CONTINUOUS
 62
     7
100
AcDbVertex
100
AcDb2dVertex
 10
8.1749374228
 20
6.01703477
 30
0.0
  0
VERTEX
  5
3C1
330
287
100
AcDbEntity
  8
0
  6
CONTINUOUS
 62
     7
100
AcDbVertex
100
AcDb2dVertex
 10
8.2027739162
 20
6.0261118156
 30
0.0
  0
VERTEX
  5
3C2
330
287
100
AcDbEntity
  8
0
  6
CONTINUOUS
 62
     7
100
AcDbVertex
100
AcDb2dVertex
 10
8.2308670106
 20
6.0368744136
 30
0.0
  0
VERTEX
  5
3C3
330
287
100
AcDbEntity
  8
0
  6
CONTINUOUS
 62
     7
100
AcDbVertex
100
AcDb2dVertex
 10
8.2591530661
 20
6.0492981833
 30
0.0
  0
VERTEX
  5
3C4
330
287
100
AcDbEntity
  8
0
  6
CONTINUOUS
 62
     7
100
AcDbVertex
100
AcDb2dVertex
 10
8.2875680057
 20
6.0633549808
 30
0.0
  0
VERTEX
  5
3C5
330
287
100
AcDbEntity
  8
0
  6
CONTINUOUS
 62
     7
100
AcDbVertex
100
AcDb2dVertex
 10
8.3160474604
 20
6.0790129629
 30
0.0
  0
VERTEX
  5
3C6
330
287
100
AcDbEntity
  8
0
  6
CONTINUOUS
 62
     7
100
AcDbVertex
100
AcDb2dVertex
 10
8.3317494604
 20
6.0883154145
 30
0.0
  0
SEQEND
  5
3C7
330
287
100
AcDbEntity
  8
0
  6
CONTINUOUS
 62
     7
  0
POLYLINE
  5
288
330
1F
100
AcDbEntity
  8
0
  6
CONTINUOUS
 62
     7
100
AcDb2dPolyline
 66
     1
 10
0.0
 20
0.0
 30
0.0
  0
VERTEX
  5
3C8
330
288
100
AcDbEntity
  8
0
  6
CONTINUOUS
 62
     7
100
AcDbVertex
100
AcDb2dVertex
 10
7.6167633959
 20
6.4667423596
 30
0.0
  0
VERTEX
  5
3C9
330
288
100
AcDbEntity
  8
0
  6
CONTINUOUS
 62
     7
100
AcDbVertex
100
AcDb2dVertex
 10
7.6174467089
 20
6.500535833
 30
0.0
  0
VERTEX
  5
3CA
330
288
100
AcDbEntity
  8
0
  6
CONTINUOUS
 62
     7
100
AcDbVertex
100
AcDb2dVertex
 10
7.619495123
 20
6.5350428364
 30
0.0
  0
VERTEX
  5
3CB
330
288
100
AcDbEntity
  8
0
  6
CONTINUOUS
 62
     7
100
AcDbVertex
100
AcDb2dVertex
 10
7.6229040675
 20
6.570186371
 30
0.0
  0
VERTEX
  5
3CC
330
288
100
AcDbEntity
  8
0
  6
CONTINUOUS
 62
     7
100
AcDbVertex
100
AcDb2dVertex
 10
7.6276659356
 20
6.6058880179
 30
0.0
  0
VERTEX
  5
3CD
330
288
100
AcDbEntity
  8
0
  6
CONTINUOUS
 62
     7
100
AcDbVertex
100
AcDb2dVertex
 10
7.6337701018
 20
6.6420681127
 30
0.0
  0
VERTEX
  5
3CE
330
288
100
AcDbEntity
  8
0
  6
CONTINUOUS
 62
     7
100
AcDbVertex
100
AcDb2dVertex
 10
7.6412029453
 20
6.6786459236
 30
0.0
  0
VERTEX
  5
3CF
330
288
100
AcDbEntity
  8
0
  6
CONTINUOUS
 62
     7
100
AcDbVertex
100
AcDb2dVertex
 10
7.6499478805
 20
6.7155398311
 30
0.0
  0
VERTEX
  5
3D0
330
288
100
AcDbEntity
  8
0
  6
CONTINUOUS
 62
     7
100
AcDbVertex
100
AcDb2dVertex
 10
7.6599853941
 20
6.7526675106
 30
0.0
  0
VERTEX
  5
3D1
330
288
100
AcDbEntity
  8
0
  6
CONTINUOUS
 62
     7
100
AcDbVertex
100
AcDb2dVertex
 10
7.6712930883
 20
6.7899461155
 30
0.0
  0
VERTEX
  5
3D2
330
288
100
AcDbEntity
  8
0
  6
CONTINUOUS
 62
     7
100
AcDbVertex
100
AcDb2dVertex
 10
7.6838457314
 20
6.8272924629
 30
0.0
  0
VERTEX
  5
3D3
330
288
100
AcDbEntity
  8
0
  6
CONTINUOUS
 62
     7
100
AcDbVertex
100
AcDb2dVertex
 10
7.6976153135
 20
6.8646232183
 30
0.0
  0
VERTEX
  5
3D4
330
288
100
AcDbEntity
  8
0
  6
CONTINUOUS
 62
     7
100
AcDbVertex
100
AcDb2dVertex
 10
7.7125711093
 20
6.9018550822
 30
0.0
  0
VERTEX
  5
3D5
330
288
100
AcDbEntity
  8
0
  6
CONTINUOUS
 62
     7
100
AcDbVertex
100
AcDb2dVertex
 10
7.7286797464
 20
6.9389049759
 30
0.0
  0
VERTEX
  5
3D6
330
288
100
AcDbEntity
  8
0
  6
CONTINUOUS
 62
     7
100
AcDbVertex
100
AcDb2dVertex
 10
7.7459052804
 20
6.9756902265
 30
0.0
  0
VERTEX
  5
3D7
330
288
100
AcDbEntity
  8
0
  6
CONTINUOUS
 62
     7
100
AcDbVertex
100
AcDb2dVertex
 10
7.7642092742
 20
7.0121287518
 30
0.0
  0
VERTEX
  5
3D8
330
288
100
AcDbEntity
  8
0
  6
CONTINUOUS
 62
     7
100
AcDbVertex
100
AcDb2dVertex
 10
7.7835508845
 20
7.0481392431
 30
0.0
  0
VERTEX
  5
3D9
330
288
100
AcDbEntity
  8
0
  6
CONTINUOUS
 62
     7
100
AcDbVertex
100
AcDb2dVertex
 10
7.8038869526
 20
7.0836413469
 30
0.0
  0
VERTEX
  5
3DA
330
288
100
AcDbEntity
  8
0
  6
CONTINUOUS
 62
     7
100
AcDbVertex
100
AcDb2dVertex
 10
7.8251721008
 20
7.1185558442
 30
0.0
  0
VERTEX
  5
3DB
330
288
100
AcDbEntity
  8
0
  6
CONTINUOUS
 62
     7
100
AcDbVertex
100
AcDb2dVertex
 10
7.8473588335
 20
7.1528048271
 30
0.0
  0
VERTEX
  5
3DC
330
288
100
AcDbEntity
  8
0
  6
CONTINUOUS
 62
     7
100
AcDbVertex
100
AcDb2dVertex
 10
7.8703976436
 20
7.1863118727
 30
0.0
  0
VERTEX
  5
3DD
330
288
100
AcDbEntity
  8
0
  6
CONTINUOUS
 62
     7
100
AcDbVertex
100
AcDb2dVertex
 10
7.8942371224
 20
7.2190022137
 30
0.0
  0
VERTEX
  5
3DE
330
288
100
AcDbEntity
  8
0
  6
CONTINUOUS
 62
     7
100
AcDbVertex
100
AcDb2dVertex
 10
7.9188240747
 20
7.2508029052
 30
0.0
  0
VERTEX
  5
3DF
330
288
100
AcDbEntity
  8
0
  6
CONTINUOUS
 62
     7
100
AcDbVertex
100
AcDb2dVertex
 10
7.9441036374
 20
7.2816429873
 30
0.0
  0
VERTEX
  5
3E0
330
288
100
AcDbEntity
  8
0
  6
CONTINUOUS
 62
     7
100
AcDbVertex
100
AcDb2dVertex
 10
7.970019402
 20
7.3114536438
 30
0.0
  0
VERTEX
  5
3E1
330
288
100
AcDbEntity
  8
0
  6
CONTINUOUS
 62
     7
100
AcDbVertex
100
AcDb2dVertex
 10
7.9965135402
 20
7.3401683555
 30
0.0
  0
VERTEX
  5
3E2
330
288
100
AcDbEntity
  8
0
  6
CONTINUOUS
 62
     7
100
AcDbVertex
100
AcDb2dVertex
 10
8.0235269332
 20
7.3677230486
 30
0.0
  0
VERTEX
  5
3E3
330
288
100
AcDbEntity
  8
0
  6
CONTINUOUS
 62
     7
100
AcDbVertex
100
AcDb2dVertex
 10
8.0509993036
 20
7.3940562379
 30
0.0
  0
VERTEX
  5
3E4
330
288
100
AcDbEntity
  8
0
  6
CONTINUOUS
 62
     7
100
AcDbVertex
100
AcDb2dVertex
 10
8.0788693498
 20
7.4191091636
 30
0.0
  0
VERTEX
  5
3E5
330
288
100
AcDbEntity
  8
0
  6
CONTINUOUS
 62
     7
100
AcDbVertex
100
AcDb2dVertex
 10
8.1070748828
 20
7.4428259229
 30
0.0
  0
VERTEX
  5
3E6
330
288
100
AcDbEntity
  8
0
  6
CONTINUOUS
 62
     7
100
AcDbVertex
100
AcDb2dVertex
 10
8.1355529651
 20
7.4651535944
 30
0.0
  0
VERTEX
  5
3E7
330
288
100
AcDbEntity
  8
0
  6
CONTINUOUS
 62
     7
100
AcDbVertex
100
AcDb2dVertex
 10
8.1642400509
 20
7.4860423564
 30
0.0
  0
VERTEX
  5
3E8
330
288
100
AcDbEntity
  8
0
  6
CONTINUOUS
 62
     7
100
AcDbVertex
100
AcDb2dVertex
 10
8.1930721281
 20
7.5054455979
 30
0.0
  0
VERTEX
  5
3E9
330
288
100
AcDbEntity
  8
0
  6
CONTINUOUS
 62
     7
100
AcDbVertex
100
AcDb2dVertex
 10
8.2219848611
 20
7.5233200227
 30
0.0
  0
VERTEX
  5
3EA
330
288
100
AcDbEntity
  8
0
  6
CONTINUOUS
 62
     7
100
AcDbVertex
100
AcDb2dVertex
 10
8.2509137343
 20
7.5396257459
 30
0.0
  0
VERTEX
  5
3EB
330
288
100
AcDbEntity
  8
0
  6
CONTINUOUS
 62
     7
100
AcDbVertex
100
AcDb2dVertex
 10
8.2797941959
 20
7.554326383
 30
0.0
  0
VERTEX
  5
3EC
330
288
100
AcDbEntity
  8
0
  6
CONTINUOUS
 62
     7
100
AcDbVertex
100
AcDb2dVertex
 10
8.3085618025
 20
7.5673891313
 30
0.0
  0
VERTEX
  5
3ED
330
288
100
AcDbEntity
  8
0
  6
CONTINUOUS
 62
     7
100
AcDbVertex
100
AcDb2dVertex
 10
8.3371523623
 20
7.5787848426
 30
0.0
  0
VERTEX
  5
3EE
330
288
100
AcDbEntity
  8
0
  6
CONTINUOUS
 62
     7
100
AcDbVertex
100
AcDb2dVertex
 10
8.3655020785
 20
7.5884880886
 30
0.0
  0
VERTEX
  5
3EF
330
288
100
AcDbEntity
  8
0
  6
CONTINUOUS
 62
     7
100
AcDbVertex
100
AcDb2dVertex
 10
8.3935476918
 20
7.5964772176
 30
0.0
  0
VERTEX
  5
3F0
330
288
100
AcDbEntity
  8
0
  6
CONTINUOUS
 62
     7
100
AcDbVertex
100
AcDb2dVertex
 10
8.4212266215
 20
7.6027344028
 30
0.0
  0
VERTEX
  5
3F1
330
288
100
AcDbEntity
  8
0
  6
CONTINUOUS
 62
     7
100
AcDbVertex
100
AcDb2dVertex
 10
8.4484771051
 20
7.6072456818
 30
0.0
  0
VERTEX
  5
3F2
330
288
100
AcDbEntity
  8
0
  6
CONTINUOUS
 62
     7
100
AcDbVertex
100
AcDb2dVertex
 10
8.475238336
 20
7.6100009883
 30
0.0
  0
VERTEX
  5
3F3
330
288
100
AcDbEntity
  8
0
  6
CONTINUOUS
 62
     7
100
AcDbVertex
100
AcDb2dVertex
 10
8.5014505996
 20
7.6109941741
 30
0.0
  0
VERTEX
  5
3F4
330
288
100
AcDbEntity
  8
0
  6
CONTINUOUS
 62
     7
100
AcDbVertex
100
AcDb2dVertex
 10
8.5270554061
 20
7.610223023
 30
0.0
  0
VERTEX
  5
3F5
330
288
100
AcDbEntity
  8
0
  6
CONTINUOUS
 62
     7
100
AcDbVertex
100
AcDb2dVertex
 10
8.551995621
 20
7.6076892557
 30
0.0
  0
VERTEX
  5
3F6
330
288
100
AcDbEntity
  8
0
  6
CONTINUOUS
 62
     7
100
AcDbVertex
100
AcDb2dVertex
 10
8.576215593
 20
7.6033985262
 30
0.0
  0
VERTEX
  5
3F7
330
288
100
AcDbEntity
  8
0
  6
CONTINUOUS
 62
     7
100
AcDbVertex
100
AcDb2dVertex
 10
8.5996612779
 20
7.5973604086
 30
0.0
  0
VERTEX
  5
3F8
330
288
100
AcDbEntity
  8
0
  6
CONTINUOUS
 62
     7
100
AcDbVertex
100
AcDb2dVertex
 10
8.6222803592
 20
7.5895883764
 30
0.0
  0
VERTEX
  5
3F9
330
288
100
AcDbEntity
  8
0
  6
CONTINUOUS
 62
     7
100
AcDbVertex
100
AcDb2dVertex
 10
8.6440223649
 20
7.580099772
 30
0.0
  0
VERTEX
  5
3FA
330
288
100
AcDbEntity
  8
0
  6
CONTINUOUS
 62
     7
100
AcDbVertex
100
AcDb2dVertex
 10
8.6622537599
 20
7.5704259896
 30
0.0
  0
SEQEND
  5
3FB
330
288
100
AcDbEntity
  8
0
  6
CONTINUOUS
 62
     7
  0
POLYLINE
  5
289
330
1F
100
AcDbEntity
  8
0
  6
CONTINUOUS
 62
     7
100
AcDb2dPolyline
 66
     1
 10
0.0
 20
0.0
 30
0.0
  0
VERTEX
  5
3FC
330
289
100
AcDbEntity
  8
0
  6
CONTINUOUS
 62
     7
100
AcDbVertex
100
AcDb2dVertex
 10
7.7961824167
 20
6.0701838658
 30
0.0
  0
VERTEX
  5
3FD
330
289
100
AcDbEntity
  8
0
  6
CONTINUOUS
 62
     7
100
AcDbVertex
100
AcDb2dVertex
 10
7.7835508845
 20
6.0779142114
 30
0.0
  0
VERTEX
  5
3FE
330
289
100
AcDbEntity
  8
0
  6
CONTINUOUS
 62
     7
100
AcDbVertex
100
AcDb2dVertex
 10
7.7642092742
 20
6.0915933548
 30
0.0
  0
VERTEX
  5
3FF
330
289
100
AcDbEntity
  8
0
  6
CONTINUOUS
 62
     7
100
AcDbVertex
100
AcDb2dVertex
 10
7.7459052804
 20
6.1068985387
 30
0.0
  0
VERTEX
  5
400
330
289
100
AcDbEntity
  8
0
  6
CONTINUOUS
 62
     7
100
AcDbVertex
100
AcDb2dVertex
 10
7.7286797464
 20
6.1237956111
 30
0.0
  0
VERTEX
  5
401
330
289
100
AcDbEntity
  8
0
  6
CONTINUOUS
 62
     7
100
AcDbVertex
100
AcDb2dVertex
 10
7.7125711093
 20
6.1422468682
 30
0.0
  0
VERTEX
  5
402
330
289
100
AcDbEntity
  8
0
  6
CONTINUOUS
 62
     7
100
AcDbVertex
100
AcDb2dVertex
 10
7.6976153135
 20
6.1622111379
 30
0.0
  0
VERTEX
  5
403
330
289
100
AcDbEntity
  8
0
  6
CONTINUOUS
 62
     7
100
AcDbVertex
100
AcDb2dVertex
 10
7.6838457314
 20
6.1836438723
 30
0.0
  0
VERTEX
  5
404
330
289
100
AcDbEntity
  8
0
  6
CONTINUOUS
 62
     7
100
AcDbVertex
100
AcDb2dVertex
 10
7.6712930883
 20
6.2064972464
 30
0.0
  0
VERTEX
  5
405
330
289
100
AcDbEntity
  8
0
  6
CONTINUOUS
 62
     7
100
AcDbVertex
100
AcDb2dVertex
 10
7.6599853941
 20
6.2307202654
 30
0.0
  0
VERTEX
  5
406
330
289
100
AcDbEntity
  8
0
  6
CONTINUOUS
 62
     7
100
AcDbVertex
100
AcDb2dVertex
 10
7.6499478805
 20
6.2562588784
 30
0.0
  0
VERTEX
  5
407
330
289
100
AcDbEntity
  8
0
  6
CONTINUOUS
 62
     7
100
AcDbVertex
100
AcDb2dVertex
 10
7.6412029453
 20
6.2830560986
 30
0.0
  0
VERTEX
  5
408
330
289
100
AcDbEntity
  8
0
  6
CONTINUOUS
 62
     7
100
AcDbVertex
100
AcDb2dVertex
 10
7.6337701018
 20
6.3110521311
 30
0.0
  0
VERTEX
  5
409
330
289
100
AcDbEntity
  8
0
  6
CONTINUOUS
 62
     7
100
AcDbVertex
100
AcDb2dVertex
 10
7.6276659356
 20
6.3401845057
 30
0.0
  0
VERTEX
  5
40A
330
289
100
AcDbEntity
  8
0
  6
CONTINUOUS
 62
     7
100
AcDbVertex
100
AcDb2dVertex
 10
7.6229040675
 20
6.3703882166
 30
0.0
  0
VERTEX
  5
40B
330
289
100
AcDbEntity
  8
0
  6
CONTINUOUS
 62
     7
100
AcDbVertex
100
AcDb2dVertex
 10
7.619495123
 20
6.4015958677
 30
0.0
  0
VERTEX
  5
40C
330
289
100
AcDbEntity
  8
0
  6
CONTINUOUS
 62
     7
100
AcDbVertex
100
AcDb2dVertex
 10
7.6174467089
 20
6.4337378225
 30
0.0
  0
VERTEX
  5
40D
330
289
100
AcDbEntity
  8
0
  6
CONTINUOUS
 62
     7
100
AcDbVertex
100
AcDb2dVertex
 10
7.6167633959
 20
6.4667423596
 30
0.0
  0
SEQEND
  5
40E
330
289
100
AcDbEntity
  8
0
  6
CONTINUOUS
 62
     7
  0
POLYLINE
  5
28A
330
1F
100
AcDbEntity
  8
0
  6
CONTINUOUS
 62
     7
100
AcDb2dPolyline
 66
     1
 10
0.0
 20
0.0
 30
0.0
  0
VERTEX
  5
40F
330
28A
100
AcDbEntity
  8
0
  6
CONTINUOUS
 62
     7
100
AcDbVertex
100
AcDb2dVertex
 10
8.6073623667
 20
7.2748062943
 30
0.0
  0
VERTEX
  5
410
330
28A
100
AcDbEntity
  8
0
  6
CONTINUOUS
 62
     7
100
AcDbVertex
100
AcDb2dVertex
 10
8.6010207593
 20
7.2783112221
 30
0.0
  0
VERTEX
  5
411
330
28A
100
AcDbEntity
  8
0
  6
CONTINUOUS
 62
     7
100
AcDbVertex
100
AcDb2dVertex
 10
8.5834039653
 20
7.2865292859
 30
0.0
  0
VERTEX
  5
412
330
28A
100
AcDbEntity
  8
0
  6
CONTINUOUS
 62
     7
100
AcDbVertex
100
AcDb2dVertex
 10
8.5648990399
 20
7.2930320874
 30
0.0
  0
VERTEX
  5
413
330
28A
100
AcDbEntity
  8
0
  6
CONTINUOUS
 62
     7
100
AcDbVertex
100
AcDb2dVertex
 10
8.5455674545
 20
7.2977980247
 30
0.0
  0
VERTEX
  5
414
330
28A
100
AcDbEntity
  8
0
  6
CONTINUOUS
 62
     7
100
AcDbVertex
100
AcDb2dVertex
 10
8.5254734268
 20
7.3008112661
 30
0.0
  0
VERTEX
  5
415
330
28A
100
AcDbEntity
  8
0
  6
CONTINUOUS
 62
     7
100
AcDbVertex
100
AcDb2dVertex
 10
8.5046837071
 20
7.3020618018
 30
0.0
  0
VERTEX
  5
416
330
28A
100
AcDbEntity
  8
0
  6
CONTINUOUS
 62
     7
100
AcDbVertex
100
AcDb2dVertex
 10
8.4832673568
 20
7.3015454776
 30
0.0
  0
VERTEX
  5
417
330
28A
100
AcDbEntity
  8
0
  6
CONTINUOUS
 62
     7
100
AcDbVertex
100
AcDb2dVertex
 10
8.4612955188
 20
7.2992640087
 30
0.0
  0
VERTEX
  5
418
330
28A
100
AcDbEntity
  8
0
  6
CONTINUOUS
 62
     7
100
AcDbVertex
100
AcDb2dVertex
 10
8.4388411814
 20
7.295224974
 30
0.0
  0
VERTEX
  5
419
330
28A
100
AcDbEntity
  8
0
  6
CONTINUOUS
 62
     7
100
AcDbVertex
100
AcDb2dVertex
 10
8.4159789355
 20
7.2894417907
 30
0.0
  0
VERTEX
  5
41A
330
28A
100
AcDbEntity
  8
0
  6
CONTINUOUS
 62
     7
100
AcDbVertex
100
AcDb2dVertex
 10
8.3927847274
 20
7.2819336699
 30
0.0
  0
VERTEX
  5
41B
330
28A
100
AcDbEntity
  8
0
  6
CONTINUOUS
 62
     7
100
AcDbVertex
100
AcDb2dVertex
 10
8.3693356057
 20
7.2727255529
 30
0.0
  0
VERTEX
  5
41C
330
28A
100
AcDbEntity
  8
0
  6
CONTINUOUS
 62
     7
100
AcDbVertex
100
AcDb2dVertex
 10
8.3457094663
 20
7.2618480281
 30
0.0
  0
VERTEX
  5
41D
330
28A
100
AcDbEntity
  8
0
  6
CONTINUOUS
 62
     7
100
AcDbVertex
100
AcDb2dVertex
 10
8.3219847926
 20
7.2493372295
 30
0.0
  0
VERTEX
  5
41E
330
28A
100
AcDbEntity
  8
0
  6
CONTINUOUS
 62
     7
100
AcDbVertex
100
AcDb2dVertex
 10
8.2982403956
 20
7.2352347169
 30
0.0
  0
VERTEX
  5
41F
330
28A
100
AcDbEntity
  8
0
  6
CONTINUOUS
 62
     7
100
AcDbVertex
100
AcDb2dVertex
 10
8.274555152
 20
7.2195873372
 30
0.0
  0
VERTEX
  5
420
330
28A
100
AcDbEntity
  8
0
  6
CONTINUOUS
 62
     7
100
AcDbVertex
100
AcDb2dVertex
 10
8.2510077416
 20
7.2024470695
 30
0.0
  0
VERTEX
  5
421
330
28A
100
AcDbEntity
  8
0
  6
CONTINUOUS
 62
     7
100
AcDbVertex
100
AcDb2dVertex
 10
8.2276763867
 20
7.1838708522
 30
0.0
  0
VERTEX
  5
422
330
28A
100
AcDbEntity
  8
0
  6
CONTINUOUS
 62
     7
100
AcDbVertex
100
AcDb2dVertex
 10
8.2046385916
 20
7.1639203934
 30
0.0
  0
VERTEX
  5
423
330
28A
100
AcDbEntity
  8
0
  6
CONTINUOUS
 62
     7
100
AcDbVertex
100
AcDb2dVertex
 10
8.1819708855
 20
7.1426619666
 30
0.0
  0
VERTEX
  5
424
330
28A
100
AcDbEntity
  8
0
  6
CONTINUOUS
 62
     7
100
AcDbVertex
100
AcDb2dVertex
 10
8.1597485683
 20
7.1201661902
 30
0.0
  0
VERTEX
  5
425
330
28A
100
AcDbEntity
  8
0
  6
CONTINUOUS
 62
     7
100
AcDbVertex
100
AcDb2dVertex
 10
8.1380454603
 20
7.0965077928
 30
0.0
  0
VERTEX
  5
426
330
28A
100
AcDbEntity
  8
0
  6
CONTINUOUS
 62
     7
100
AcDbVertex
100
AcDb2dVertex
 10
8.1169336571
 20
7.0717653654
 30
0.0
  0
VERTEX
  5
427
330
28A
100
AcDbEntity
  8
0
  6
CONTINUOUS
 62
     7
100
AcDbVertex
100
AcDb2dVertex
 10
8.0964832899
 20
7.0460210997
 30
0.0
  0
VERTEX
  5
428
330
28A
100
AcDbEntity
  8
0
  6
CONTINUOUS
 62
     7
100
AcDbVertex
100
AcDb2dVertex
 10
8.0767622928
 20
7.0193605156
 30
0.0
  0
VERTEX
  5
429
330
28A
100
AcDbEntity
  8
0
  6
CONTINUOUS
 62
     7
100
AcDbVertex
100
AcDb2dVertex
 10
8.0578361769
 20
6.9918721769
 30
0.0
  0
VERTEX
  5
42A
330
28A
100
AcDbEntity
  8
0
  6
CONTINUOUS
 62
     7
100
AcDbVertex
100
AcDb2dVertex
 10
8.039767813
 20
6.9636473971
 30
0.0
  0
VERTEX
  5
42B
330
28A
100
AcDbEntity
  8
0
  6
CONTINUOUS
 62
     7
100
AcDbVertex
100
AcDb2dVertex
 10
8.0226172223
 20
6.934779936
 30
0.0
  0
VERTEX
  5
42C
330
28A
100
AcDbEntity
  8
0
  6
CONTINUOUS
 62
     7
100
AcDbVertex
100
AcDb2dVertex
 10
8.0064413773
 20
6.9053656885
 30
0.0
  0
VERTEX
  5
42D
330
28A
100
AcDbEntity
  8
0
  6
CONTINUOUS
 62
     7
100
AcDbVertex
100
AcDb2dVertex
 10
7.9912940126
 20
6.8755023658
 30
0.0
  0
VERTEX
  5
42E
330
28A
100
AcDbEntity
  8
0
  6
CONTINUOUS
 62
     7
100
AcDbVertex
100
AcDb2dVertex
 10
7.9772254461
 20
6.8452891707
 30
0.0
  0
VERTEX
  5
42F
330
28A
100
AcDbEntity
  8
0
  6
CONTINUOUS
 62
     7
100
AcDbVertex
100
AcDb2dVertex
 10
7.9642824124
 20
6.8148264685
 30
0.0
  0
VERTEX
  5
430
330
28A
100
AcDbEntity
  8
0
  6
CONTINUOUS
 62
     7
100
AcDbVertex
100
AcDb2dVertex
 10
7.9525079067
 20
6.7842154533
 30
0.0
  0
VERTEX
  5
431
330
28A
100
AcDbEntity
  8
0
  6
CONTINUOUS
 62
     7
100
AcDbVertex
100
AcDb2dVertex
 10
7.9419410429
 20
6.7535578117
 30
0.0
  0
VERTEX
  5
432
330
28A
100
AcDbEntity
  8
0
  6
CONTINUOUS
 62
     7
100
AcDbVertex
100
AcDb2dVertex
 10
7.932616923
 20
6.7229553853
 30
0.0
  0
VERTEX
  5
433
330
28A
100
AcDbEntity
  8
0
  6
CONTINUOUS
 62
     7
100
AcDbVertex
100
AcDb2dVertex
 10
7.9245665208
 20
6.6925098324
 30
0.0
  0
VERTEX
  5
434
330
28A
100
AcDbEntity
  8
0
  6
CONTINUOUS
 62
     7
100
AcDbVertex
100
AcDb2dVertex
 10
7.9178165789
 20
6.6623222899
 30
0.0
  0
VERTEX
  5
435
330
28A
100
AcDbEntity
  8
0
  6
CONTINUOUS
 62
     7
100
AcDbVertex
100
AcDb2dVertex
 10
7.9123895199
 20
6.6324930379
 30
0.0
  0
VERTEX
  5
436
330
28A
100
AcDbEntity
  8
0
  6
CONTINUOUS
 62
     7
100
AcDbVertex
100
AcDb2dVertex
 10
7.908303372
 20
6.6031211661
 30
0.0
  0
VERTEX
  5
437
330
28A
100
AcDbEntity
  8
0
  6
CONTINUOUS
 62
     7
100
AcDbVertex
100
AcDb2dVertex
 10
7.905571709
 20
6.574304245
 30
0.0
  0
VERTEX
  5
438
330
28A
100
AcDbEntity
  8
0
  6
CONTINUOUS
 62
     7
100
AcDbVertex
100
AcDb2dVertex
 10
7.9042036051
 20
6.5461380015
 30
0.0
  0
VERTEX
  5
439
330
28A
100
AcDbEntity
  8
0
  6
CONTINUOUS
 62
     7
100
AcDbVertex
100
AcDb2dVertex
 10
7.9042036051
 20
6.5187160009
 30
0.0
  0
VERTEX
  5
43A
330
28A
100
AcDbEntity
  8
0
  6
CONTINUOUS
 62
     7
100
AcDbVertex
100
AcDb2dVertex
 10
7.905571709
 20
6.4921293365
 30
0.0
  0
VERTEX
  5
43B
330
28A
100
AcDbEntity
  8
0
  6
CONTINUOUS
 62
     7
100
AcDbVertex
100
AcDb2dVertex
 10
7.908303372
 20
6.4664663264
 30
0.0
  0
VERTEX
  5
43C
330
28A
100
AcDbEntity
  8
0
  6
CONTINUOUS
 62
     7
100
AcDbVertex
100
AcDb2dVertex
 10
7.9123895199
 20
6.4418122205
 30
0.0
  0
VERTEX
  5
43D
330
28A
100
AcDbEntity
  8
0
  6
CONTINUOUS
 62
     7
100
AcDbVertex
100
AcDb2dVertex
 10
7.9178165789
 20
6.4182489175
 30
0.0
  0
VERTEX
  5
43E
330
28A
100
AcDbEntity
  8
0
  6
CONTINUOUS
 62
     7
100
AcDbVertex
100
AcDb2dVertex
 10
7.9245665208
 20
6.3958546921
 30
0.0
  0
VERTEX
  5
43F
330
28A
100
AcDbEntity
  8
0
  6
CONTINUOUS
 62
     7
100
AcDbVertex
100
AcDb2dVertex
 10
7.932616923
 20
6.3747039357
 30
0.0
  0
VERTEX
  5
440
330
28A
100
AcDbEntity
  8
0
  6
CONTINUOUS
 62
     7
100
AcDbVertex
100
AcDb2dVertex
 10
7.9419410429
 20
6.354866909
 30
0.0
  0
VERTEX
  5
441
330
28A
100
AcDbEntity
  8
0
  6
CONTINUOUS
 62
     7
100
AcDbVertex
100
AcDb2dVertex
 10
7.9525079067
 20
6.3364095087
 30
0.0
  0
VERTEX
  5
442
330
28A
100
AcDbEntity
  8
0
  6
CONTINUOUS
 62
     7
100
AcDbVertex
100
AcDb2dVertex
 10
7.9642824124
 20
6.3193930483
 30
0.0
  0
VERTEX
  5
443
330
28A
100
AcDbEntity
  8
0
  6
CONTINUOUS
 62
     7
100
AcDbVertex
100
AcDb2dVertex
 10
7.9772254461
 20
6.3038740548
 30
0.0
  0
VERTEX
  5
444
330
28A
100
AcDbEntity
  8
0
  6
CONTINUOUS
 62
     7
100
AcDbVertex
100
AcDb2dVertex
 10
7.9912940126
 20
6.2899040808
 30
0.0
  0
VERTEX
  5
445
330
28A
100
AcDbEntity
  8
0
  6
CONTINUOUS
 62
     7
100
AcDbVertex
100
AcDb2dVertex
 10
8.0064413773
 20
6.277529533
 30
0.0
  0
VERTEX
  5
446
330
28A
100
AcDbEntity
  8
0
  6
CONTINUOUS
 62
     7
100
AcDbVertex
100
AcDb2dVertex
 10
8.0226172223
 20
6.2667915186
 30
0.0
  0
VERTEX
  5
447
330
28A
100
AcDbEntity
  8
0
  6
CONTINUOUS
 62
     7
100
AcDbVertex
100
AcDb2dVertex
 10
8.024732554
 20
6.265552502
 30
0.0
  0
SEQEND
  5
448
330
28A
100
AcDbEntity
  8
0
  6
CONTINUOUS
 62
     7
  0
POLYLINE
  5
28B
330
1F
100
AcDbEntity
  8
0
  6
CONTINUOUS
 62
     7
100
AcDb2dPolyline
 66
     1
 10
0.0
 20
0.0
 30
0.0
  0
VERTEX
  5
449
330
28B
100
AcDbEntity
  8
0
  6
CONTINUOUS
 62
     7
100
AcDbVertex
100
AcDb2dVertex
 10
8.2456338708
 20
6.3315771445
 30
0.0
  0
VERTEX
  5
44A
330
28B
100
AcDbEntity
  8
0
  6
CONTINUOUS
 62
     7
100
AcDbVertex
100
AcDb2dVertex
 10
8.2471180342
 20
6.3055736368
 30
0.0
  0
VERTEX
  5
44B
330
28B
100
AcDbEntity
  8
0
  6
CONTINUOUS
 62
     7
100
AcDbVertex
100
AcDb2dVertex
 10
8.2499497417
 20
6.2804928029
 30
0.0
  0
VERTEX
  5
44C
330
28B
100
AcDbEntity
  8
0
  6
CONTINUOUS
 62
     7
100
AcDbVertex
100
AcDb2dVertex
 10
8.254119446
 20
6.2564192037
 30
0.0
  0
VERTEX
  5
44D
330
28B
100
AcDbEntity
  8
0
  6
CONTINUOUS
 62
     7
100
AcDbVertex
100
AcDb2dVertex
 10
8.2596130888
 20
6.2334340042
 30
0.0
  0
VERTEX
  5
44E
330
28B
100
AcDbEntity
  8
0
  6
CONTINUOUS
 62
     7
100
AcDbVertex
100
AcDb2dVertex
 10
8.2664121482
 20
6.2116146997
 30
0.0
  0
VERTEX
  5
44F
330
28B
100
AcDbEntity
  8
0
  6
CONTINUOUS
 62
     7
100
AcDbVertex
100
AcDb2dVertex
 10
8.2744937009
 20
6.1910348548
 30
0.0
  0
VERTEX
  5
450
330
28B
100
AcDbEntity
  8
0
  6
CONTINUOUS
 62
     7
100
AcDbVertex
100
AcDb2dVertex
 10
8.2838304996
 20
6.1717638551
 30
0.0
  0
VERTEX
  5
451
330
28B
100
AcDbEntity
  8
0
  6
CONTINUOUS
 62
     7
100
AcDbVertex
100
AcDb2dVertex
 10
8.2943910651
 20
6.1538666733
 30
0.0
  0
VERTEX
  5
452
330
28B
100
AcDbEntity
  8
0
  6
CONTINUOUS
 62
     7
100
AcDbVertex
100
AcDb2dVertex
 10
8.306139792
 20
6.1374036506
 30
0.0
  0
VERTEX
  5
453
330
28B
100
AcDbEntity
  8
0
  6
CONTINUOUS
 62
     7
100
AcDbVertex
100
AcDb2dVertex
 10
8.319037069
 20
6.1224302924
 30
0.0
  0
VERTEX
  5
454
330
28B
100
AcDbEntity
  8
0
  6
CONTINUOUS
 62
     7
100
AcDbVertex
100
AcDb2dVertex
 10
8.3330394127
 20
6.1089970821
 30
0.0
  0
VERTEX
  5
455
330
28B
100
AcDbEntity
  8
0
  6
CONTINUOUS
 62
     7
100
AcDbVertex
100
AcDb2dVertex
 10
8.3480996136
 20
6.0971493101
 30
0.0
  0
VERTEX
  5
456
330
28B
100
AcDbEntity
  8
0
  6
CONTINUOUS
 62
     7
100
AcDbVertex
100
AcDb2dVertex
 10
8.3641668957
 20
6.0869269215
 30
0.0
  0
VERTEX
  5
457
330
28B
100
AcDbEntity
  8
0
  6
CONTINUOUS
 62
     7
100
AcDbVertex
100
AcDb2dVertex
 10
8.3811870876
 20
6.0783643815
 30
0.0
  0
VERTEX
  5
458
330
28B
100
AcDbEntity
  8
0
  6
CONTINUOUS
 62
     7
100
AcDbVertex
100
AcDb2dVertex
 10
8.3991028053
 20
6.071490559
 30
0.0
  0
VERTEX
  5
459
330
28B
100
AcDbEntity
  8
0
  6
CONTINUOUS
 62
     7
100
AcDbVertex
100
AcDb2dVertex
 10
8.4178536452
 20
6.0663286294
 30
0.0
  0
VERTEX
  5
45A
330
28B
100
AcDbEntity
  8
0
  6
CONTINUOUS
 62
     7
100
AcDbVertex
100
AcDb2dVertex
 10
8.4373763883
 20
6.0628959962
 30
0.0
  0
VERTEX
  5
45B
330
28B
100
AcDbEntity
  8
0
  6
CONTINUOUS
 62
     7
100
AcDbVertex
100
AcDb2dVertex
 10
8.457605213
 20
6.0612042327
 30
0.0
  0
VERTEX
  5
45C
330
28B
100
AcDbEntity
  8
0
  6
CONTINUOUS
 62
     7
100
AcDbVertex
100
AcDb2dVertex
 10
8.4784719171
 20
6.0612590426
 30
0.0
  0
VERTEX
  5
45D
330
28B
100
AcDbEntity
  8
0
  6
CONTINUOUS
 62
     7
100
AcDbVertex
100
AcDb2dVertex
 10
8.4999061478
 20
6.0630602413
 30
0.0
  0
VERTEX
  5
45E
330
28B
100
AcDbEntity
  8
0
  6
CONTINUOUS
 62
     7
100
AcDbVertex
100
AcDb2dVertex
 10
8.5218356389
 20
6.066601756
 30
0.0
  0
VERTEX
  5
45F
330
28B
100
AcDbEntity
  8
0
  6
CONTINUOUS
 62
     7
100
AcDbVertex
100
AcDb2dVertex
 10
8.5441864543
 20
6.0718716462
 30
0.0
  0
VERTEX
  5
460
330
28B
100
AcDbEntity
  8
0
  6
CONTINUOUS
 62
     7
100
AcDbVertex
100
AcDb2dVertex
 10
8.5668832376
 20
6.0788521443
 30
0.0
  0
VERTEX
  5
461
330
28B
100
AcDbEntity
  8
0
  6
CONTINUOUS
 62
     7
100
AcDbVertex
100
AcDb2dVertex
 10
8.5898494658
 20
6.0875197155
 30
0.0
  0
VERTEX
  5
462
330
28B
100
AcDbEntity
  8
0
  6
CONTINUOUS
 62
     7
100
AcDbVertex
100
AcDb2dVertex
 10
8.6130077074
 20
6.0978451366
 30
0.0
  0
VERTEX
  5
463
330
28B
100
AcDbEntity
  8
0
  6
CONTINUOUS
 62
     7
100
AcDbVertex
100
AcDb2dVertex
 10
8.6362798837
 20
6.1097935953
 30
0.0
  0
VERTEX
  5
464
330
28B
100
AcDbEntity
  8
0
  6
CONTINUOUS
 62
     7
100
AcDbVertex
100
AcDb2dVertex
 10
8.6595875317
 20
6.1233248067
 30
0.0
  0
VERTEX
  5
465
330
28B
100
AcDbEntity
  8
0
  6
CONTINUOUS
 62
     7
100
AcDbVertex
100
AcDb2dVertex
 10
8.682852069
 20
6.1383931501
 30
0.0
  0
VERTEX
  5
466
330
28B
100
AcDbEntity
  8
0
  6
CONTINUOUS
 62
     7
100
AcDbVertex
100
AcDb2dVertex
 10
8.7059950582
 20
6.1549478219
 30
0.0
  0
VERTEX
  5
467
330
28B
100
AcDbEntity
  8
0
  6
CONTINUOUS
 62
     7
100
AcDbVertex
100
AcDb2dVertex
 10
8.7289384722
 20
6.1729330076
 30
0.0
  0
VERTEX
  5
468
330
28B
100
AcDbEntity
  8
0
  6
CONTINUOUS
 62
     7
100
AcDbVertex
100
AcDb2dVertex
 10
8.7516049563
 20
6.1922880694
 30
0.0
  0
VERTEX
  5
469
330
28B
100
AcDbEntity
  8
0
  6
CONTINUOUS
 62
     7
100
AcDbVertex
100
AcDb2dVertex
 10
8.7739180898
 20
6.2129477512
 30
0.0
  0
VERTEX
  5
46A
330
28B
100
AcDbEntity
  8
0
  6
CONTINUOUS
 62
     7
100
AcDbVertex
100
AcDb2dVertex
 10
8.7958026432
 20
6.2348423981
 30
0.0
  0
VERTEX
  5
46B
330
28B
100
AcDbEntity
  8
0
  6
CONTINUOUS
 62
     7
100
AcDbVertex
100
AcDb2dVertex
 10
8.8171848319
 20
6.2578981916
 30
0.0
  0
VERTEX
  5
46C
330
28B
100
AcDbEntity
  8
0
  6
CONTINUOUS
 62
     7
100
AcDbVertex
100
AcDb2dVertex
 10
8.8379925653
 20
6.2820373983
 30
0.0
  0
VERTEX
  5
46D
330
28B
100
AcDbEntity
  8
0
  6
CONTINUOUS
 62
     7
100
AcDbVertex
100
AcDb2dVertex
 10
8.8581556892
 20
6.3071786321
 30
0.0
  0
VERTEX
  5
46E
330
28B
100
AcDbEntity
  8
0
  6
CONTINUOUS
 62
     7
100
AcDbVertex
100
AcDb2dVertex
 10
8.8776062232
 20
6.3332371284
 30
0.0
  0
VERTEX
  5
46F
330
28B
100
AcDbEntity
  8
0
  6
CONTINUOUS
 62
     7
100
AcDbVertex
100
AcDb2dVertex
 10
8.896278589
 20
6.3601250301
 30
0.0
  0
VERTEX
  5
470
330
28B
100
AcDbEntity
  8
0
  6
CONTINUOUS
 62
     7
100
AcDbVertex
100
AcDb2dVertex
 10
8.9141098321
 20
6.3877516837
 30
0.0
  0
VERTEX
  5
471
330
28B
100
AcDbEntity
  8
0
  6
CONTINUOUS
 62
     7
100
AcDbVertex
100
AcDb2dVertex
 10
8.9310398339
 20
6.4160239452
 30
0.0
  0
VERTEX
  5
472
330
28B
100
AcDbEntity
  8
0
  6
CONTINUOUS
 62
     7
100
AcDbVertex
100
AcDb2dVertex
 10
8.9470115143
 20
6.4448464935
 30
0.0
  0
VERTEX
  5
473
330
28B
100
AcDbEntity
  8
0
  6
CONTINUOUS
 62
     7
100
AcDbVertex
100
AcDb2dVertex
 10
8.9619710243
 20
6.4741221525
 30
0.0
  0
VERTEX
  5
474
330
28B
100
AcDbEntity
  8
0
  6
CONTINUOUS
 62
     7
100
AcDbVertex
100
AcDb2dVertex
 10
8.9758679274
 20
6.5037522184
 30
0.0
  0
VERTEX
  5
475
330
28B
100
AcDbEntity
  8
0
  6
CONTINUOUS
 62
     7
100
AcDbVertex
100
AcDb2dVertex
 10
8.9886553696
 20
6.5336367922
 30
0.0
  0
VERTEX
  5
476
330
28B
100
AcDbEntity
  8
0
  6
CONTINUOUS
 62
     7
100
AcDbVertex
100
AcDb2dVertex
 10
9.0002902378
 20
6.5636751173
 30
0.0
  0
VERTEX
  5
477
330
28B
100
AcDbEntity
  8
0
  6
CONTINUOUS
 62
     7
100
AcDbVertex
100
AcDb2dVertex
 10
9.0107333045
 20
6.5937659184
 30
0.0
  0
VERTEX
  5
478
330
28B
100
AcDbEntity
  8
0
  6
CONTINUOUS
 62
     7
100
AcDbVertex
100
AcDb2dVertex
 10
9.0199493606
 20
6.6238077433
 30
0.0
  0
VERTEX
  5
479
330
28B
100
AcDbEntity
  8
0
  6
CONTINUOUS
 62
     7
100
AcDbVertex
100
AcDb2dVertex
 10
9.0279073338
 20
6.653699305
 30
0.0
  0
VERTEX
  5
47A
330
28B
100
AcDbEntity
  8
0
  6
CONTINUOUS
 62
     7
100
AcDbVertex
100
AcDb2dVertex
 10
9.0345803936
 20
6.6833398231
 30
0.0
  0
VERTEX
  5
47B
330
28B
100
AcDbEntity
  8
0
  6
CONTINUOUS
 62
     7
100
AcDbVertex
100
AcDb2dVertex
 10
9.0399460416
 20
6.7126293635
 30
0.0
  0
VERTEX
  5
47C
330
28B
100
AcDbEntity
  8
0
  6
CONTINUOUS
 62
     7
100
AcDbVertex
100
AcDb2dVertex
 10
9.0439861872
 20
6.7414691757
 30
0.0
  0
VERTEX
  5
47D
330
28B
100
AcDbEntity
  8
0
  6
CONTINUOUS
 62
     7
100
AcDbVertex
100
AcDb2dVertex
 10
9.046687209
 20
6.7697620252
 30
0.0
  0
VERTEX
  5
47E
330
28B
100
AcDbEntity
  8
0
  6
CONTINUOUS
 62
     7
100
AcDbVertex
100
AcDb2dVertex
 10
9.0480400004
 20
6.7974125217
 30
0.0
  0
VERTEX
  5
47F
330
28B
100
AcDbEntity
  8
0
  6
CONTINUOUS
 62
     7
100
AcDbVertex
100
AcDb2dVertex
 10
9.0480400004
 20
6.8243274407
 30
0.0
  0
VERTEX
  5
480
330
28B
100
AcDbEntity
  8
0
  6
CONTINUOUS
 62
     7
100
AcDbVertex
100
AcDb2dVertex
 10
9.046687209
 20
6.8504160375
 30
0.0
  0
VERTEX
  5
481
330
28B
100
AcDbEntity
  8
0
  6
CONTINUOUS
 62
     7
100
AcDbVertex
100
AcDb2dVertex
 10
9.0439861872
 20
6.8755903536
 30
0.0
  0
VERTEX
  5
482
330
28B
100
AcDbEntity
  8
0
  6
CONTINUOUS
 62
     7
100
AcDbVertex
100
AcDb2dVertex
 10
9.0399460416
 20
6.8997655129
 30
0.0
  0
VERTEX
  5
483
330
28B
100
AcDbEntity
  8
0
  6
CONTINUOUS
 62
     7
100
AcDbVertex
100
AcDb2dVertex
 10
9.0345803936
 20
6.9228600082
 30
0.0
  0
VERTEX
  5
484
330
28B
100
AcDbEntity
  8
0
  6
CONTINUOUS
 62
     7
100
AcDbVertex
100
AcDb2dVertex
 10
9.0279073338
 20
6.9447959754
 30
0.0
  0
VERTEX
  5
485
330
28B
100
AcDbEntity
  8
0
  6
CONTINUOUS
 62
     7
100
AcDbVertex
100
AcDb2dVertex
 10
9.0199493606
 20
6.9654994567
 30
0.0
  0
VERTEX
  5
486
330
28B
100
AcDbEntity
  8
0
  6
CONTINUOUS
 62
     7
100
AcDbVertex
100
AcDb2dVertex
 10
9.0107333045
 20
6.9849006498
 30
0.0
  0
VERTEX
  5
487
330
28B
100
AcDbEntity
  8
0
  6
CONTINUOUS
 62
     7
100
AcDbVertex
100
AcDb2dVertex
 10
9.0002902378
 20
7.0029341427
 30
0.0
  0
VERTEX
  5
488
330
28B
100
AcDbEntity
  8
0
  6
CONTINUOUS
 62
     7
100
AcDbVertex
100
AcDb2dVertex
 10
8.9886553696
 20
7.0195391349
 30
0.0
  0
VERTEX
  5
489
330
28B
100
AcDbEntity
  8
0
  6
CONTINUOUS
 62
     7
100
AcDbVertex
100
AcDb2dVertex
 10
8.9758679274
 20
7.0346596423
 30
0.0
  0
VERTEX
  5
48A
330
28B
100
AcDbEntity
  8
0
  6
CONTINUOUS
 62
     7
100
AcDbVertex
100
AcDb2dVertex
 10
8.9619710243
 20
7.0482446854
 30
0.0
  0
VERTEX
  5
48B
330
28B
100
AcDbEntity
  8
0
  6
CONTINUOUS
 62
     7
100
AcDbVertex
100
AcDb2dVertex
 10
8.9470115143
 20
7.0602484618
 30
0.0
  0
VERTEX
  5
48C
330
28B
100
AcDbEntity
  8
0
  6
CONTINUOUS
 62
     7
100
AcDbVertex
100
AcDb2dVertex
 10
8.9310398339
 20
7.0706305004
 30
0.0
  0
VERTEX
  5
48D
330
28B
100
AcDbEntity
  8
0
  6
CONTINUOUS
 62
     7
100
AcDbVertex
100
AcDb2dVertex
 10
8.9141098321
 20
7.0793557978
 30
0.0
  0
VERTEX
  5
48E
330
28B
100
AcDbEntity
  8
0
  6
CONTINUOUS
 62
     7
100
AcDbVertex
100
AcDb2dVertex
 10
8.896278589
 20
7.0863949364
 30
0.0
  0
VERTEX
  5
48F
330
28B
100
AcDbEntity
  8
0
  6
CONTINUOUS
 62
     7
100
AcDbVertex
100
AcDb2dVertex
 10
8.8776062232
 20
7.0917241835
 30
0.0
  0
VERTEX
  5
490
330
28B
100
AcDbEntity
  8
0
  6
CONTINUOUS
 62
     7
100
AcDbVertex
100
AcDb2dVertex
 10
8.8581556892
 20
7.0953255713
 30
0.0
  0
VERTEX
  5
491
330
28B
100
AcDbEntity
  8
0
  6
CONTINUOUS
 62
     7
100
AcDbVertex
100
AcDb2dVertex
 10
8.8379925653
 20
7.0971869576
 30
0.0
  0
VERTEX
  5
492
330
28B
100
AcDbEntity
  8
0
  6
CONTINUOUS
 62
     7
100
AcDbVertex
100
AcDb2dVertex
 10
8.8171848319
 20
7.0973020668
 30
0.0
  0
VERTEX
  5
493
330
28B
100
AcDbEntity
  8
0
  6
CONTINUOUS
 62
     7
100
AcDbVertex
100
AcDb2dVertex
 10
8.7958026432
 20
7.0956705106
 30
0.0
  0
VERTEX
  5
494
330
28B
100
AcDbEntity
  8
0
  6
CONTINUOUS
 62
     7
100
AcDbVertex
100
AcDb2dVertex
 10
8.7739180898
 20
7.09229779
 30
0.0
  0
VERTEX
  5
495
330
28B
100
AcDbEntity
  8
0
  6
CONTINUOUS
 62
     7
100
AcDbVertex
100
AcDb2dVertex
 10
8.7516049563
 20
7.0871952763
 30
0.0
  0
VERTEX
  5
496
330
28B
100
AcDbEntity
  8
0
  6
CONTINUOUS
 62
     7
100
AcDbVertex
100
AcDb2dVertex
 10
8.7289384722
 20
7.0803801726
 30
0.0
  0
VERTEX
  5
497
330
28B
100
AcDbEntity
  8
0
  6
CONTINUOUS
 62
     7
100
AcDbVertex
100
AcDb2dVertex
 10
8.7059950582
 20
7.0718754564
 30
0.0
  0
VERTEX
  5
498
330
28B
100
AcDbEntity
  8
0
  6
CONTINUOUS
 62
     7
100
AcDbVertex
100
AcDb2dVertex
 10
8.682852069
 20
7.0617098015
 30
0.0
  0
VERTEX
  5
499
330
28B
100
AcDbEntity
  8
0
  6
CONTINUOUS
 62
     7
100
AcDbVertex
100
AcDb2dVertex
 10
8.6595875317
 20
7.0499174819
 30
0.0
  0
VERTEX
  5
49A
330
28B
100
AcDbEntity
  8
0
  6
CONTINUOUS
 62
     7
100
AcDbVertex
100
AcDb2dVertex
 10
8.6362798837
 20
7.0365382558
 30
0.0
  0
VERTEX
  5
49B
330
28B
100
AcDbEntity
  8
0
  6
CONTINUOUS
 62
     7
100
AcDbVertex
100
AcDb2dVertex
 10
8.6130077074
 20
7.0216172316
 30
0.0
  0
VERTEX
  5
49C
330
28B
100
AcDbEntity
  8
0
  6
CONTINUOUS
 62
     7
100
AcDbVertex
100
AcDb2dVertex
 10
8.5898494658
 20
7.0052047161
 30
0.0
  0
VERTEX
  5
49D
330
28B
100
AcDbEntity
  8
0
  6
CONTINUOUS
 62
     7
100
AcDbVertex
100
AcDb2dVertex
 10
8.5668832376
 20
6.9873560446
 30
0.0
  0
VERTEX
  5
49E
330
28B
100
AcDbEntity
  8
0
  6
CONTINUOUS
 62
     7
100
AcDbVertex
100
AcDb2dVertex
 10
8.5441864543
 20
6.9681313946
 30
0.0
  0
VERTEX
  5
49F
330
28B
100
AcDbEntity
  8
0
  6
CONTINUOUS
 62
     7
100
AcDbVertex
100
AcDb2dVertex
 10
8.5218356389
 20
6.9475955826
 30
0.0
  0
VERTEX
  5
4A0
330
28B
100
AcDbEntity
  8
0
  6
CONTINUOUS
 62
     7
100
AcDbVertex
100
AcDb2dVertex
 10
8.4999061478
 20
6.9258178457
 30
0.0
  0
VERTEX
  5
4A1
330
28B
100
AcDbEntity
  8
0
  6
CONTINUOUS
 62
     7
100
AcDbVertex
100
AcDb2dVertex
 10
8.4784719171
 20
6.9028716084
 30
0.0
  0
VERTEX
  5
4A2
330
28B
100
AcDbEntity
  8
0
  6
CONTINUOUS
 62
     7
100
AcDbVertex
100
AcDb2dVertex
 10
8.457605213
 20
6.8788342347
 30
0.0
  0
VERTEX
  5
4A3
330
28B
100
AcDbEntity
  8
0
  6
CONTINUOUS
 62
     7
100
AcDbVertex
100
AcDb2dVertex
 10
8.4373763883
 20
6.8537867673
 30
0.0
  0
VERTEX
  5
4A4
330
28B
100
AcDbEntity
  8
0
  6
CONTINUOUS
 62
     7
100
AcDbVertex
100
AcDb2dVertex
 10
8.4178536452
 20
6.8278136547
 30
0.0
  0
VERTEX
  5
4A5
330
28B
100
AcDbEntity
  8
0
  6
CONTINUOUS
 62
     7
100
AcDbVertex
100
AcDb2dVertex
 10
8.3991028053
 20
6.8010024661
 30
0.0
  0
VERTEX
  5
4A6
330
28B
100
AcDbEntity
  8
0
  6
CONTINUOUS
 62
     7
100
AcDbVertex
100
AcDb2dVertex
 10
8.3811870876
 20
6.7734435963
 30
0.0
  0
VERTEX
  5
4A7
330
28B
100
AcDbEntity
  8
0
  6
CONTINUOUS
 62
     7
100
AcDbVertex
100
AcDb2dVertex
 10
8.3641668957
 20
6.745229961
 30
0.0
  0
VERTEX
  5
4A8
330
28B
100
AcDbEntity
  8
0
  6
CONTINUOUS
 62
     7
100
AcDbVertex
100
AcDb2dVertex
 10
8.3480996136
 20
6.7164566834
 30
0.0
  0
VERTEX
  5
4A9
330
28B
100
AcDbEntity
  8
0
  6
CONTINUOUS
 62
     7
100
AcDbVertex
100
AcDb2dVertex
 10
8.3330394127
 20
6.6872207735
 30
0.0
  0
VERTEX
  5
4AA
330
28B
100
AcDbEntity
  8
0
  6
CONTINUOUS
 62
     7
100
AcDbVertex
100
AcDb2dVertex
 10
8.319037069
 20
6.6576208013
 30
0.0
  0
VERTEX
  5
4AB
330
28B
100
AcDbEntity
  8
0
  6
CONTINUOUS
 62
     7
100
AcDbVertex
100
AcDb2dVertex
 10
8.306139792
 20
6.627756564
 30
0.0
  0
VERTEX
  5
4AC
330
28B
100
AcDbEntity
  8
0
  6
CONTINUOUS
 62
     7
100
AcDbVertex
100
AcDb2dVertex
 10
8.2943910651
 20
6.59772875
 30
0.0
  0
VERTEX
  5
4AD
330
28B
100
AcDbEntity
  8
0
  6
CONTINUOUS
 62
     7
100
AcDbVertex
100
AcDb2dVertex
 10
8.2838304996
 20
6.5676385989
 30
0.0
  0
VERTEX
  5
4AE
330
28B
100
AcDbEntity
  8
0
  6
CONTINUOUS
 62
     7
100
AcDbVertex
100
AcDb2dVertex
 10
8.2744937009
 20
6.5375875608
 30
0.0
  0
VERTEX
  5
4AF
330
28B
100
AcDbEntity
  8
0
  6
CONTINUOUS
 62
     7
100
AcDbVertex
100
AcDb2dVertex
 10
8.2664121482
 20
6.5076769538
 30
0.0
  0
VERTEX
  5
4B0
330
28B
100
AcDbEntity
  8
0
  6
CONTINUOUS
 62
     7
100
AcDbVertex
100
AcDb2dVertex
 10
8.2596130888
 20
6.4780076224
 30
0.0
  0
VERTEX
  5
4B1
330
28B
100
AcDbEntity
  8
0
  6
CONTINUOUS
 62
     7
100
AcDbVertex
100
AcDb2dVertex
 10
8.254119446
 20
6.4486795979
 30
0.0
  0
VERTEX
  5
4B2
330
28B
100
AcDbEntity
  8
0
  6
CONTINUOUS
 62
     7
100
AcDbVertex
100
AcDb2dVertex
 10
8.2499497417
 20
6.4197917606
 30
0.0
  0
VERTEX
  5
4B3
330
28B
100
AcDbEntity
  8
0
  6
CONTINUOUS
 62
     7
100
AcDbVertex
100
AcDb2dVertex
 10
8.2471180342
 20
6.3914415069
 30
0.0
  0
VERTEX
  5
4B4
330
28B
100
AcDbEntity
  8
0
  6
CONTINUOUS
 62
     7
100
AcDbVertex
100
AcDb2dVertex
 10
8.2456338708
 20
6.3637244205
 30
0.0
  0
SEQEND
  5
4B5
330
28B
100
AcDbEntity
  8
0
  6
CONTINUOUS
 62
     7
  0
LINE
  5
28C
330
1F
100
AcDbEntity
  8
0
  6
CONTINUOUS
 62
     7
100
AcDbLine
 10
8.2244144491
 20
6.3637208308
 30
0.0
 11
8.2456338708
 21
6.3637244205
 31
0.0
  0
POLYLINE
  5
28D
330
1F
100
AcDbEntity
  8
0
  6
CONTINUOUS
 62
     7
100
AcDb2dPolyline
 66
     1
 10
0.0
 20
0.0
 30
0.0
  0
VERTEX
  5
4B6
330
28D
100
AcDbEntity
  8
0
  6
CONTINUOUS
 62
     7
100
AcDbVertex
100
AcDb2dVertex
 10
8.2244144491
 20
6.3637208308
 30
0.0
  0
VERTEX
  5
4B7
330
28D
100
AcDbEntity
  8
0
  6
CONTINUOUS
 62
     7
100
AcDbVertex
100
AcDb2dVertex
 10
8.2258968608
 20
6.3919012846
 30
0.0
  0
VERTEX
  5
4B8
330
28D
100
AcDbEntity
  8
0
  6
CONTINUOUS
 62
     7
100
AcDbVertex
100
AcDb2dVertex
 10
8.228737893
 20
6.4207223482
 30
0.0
  0
VERTEX
  5
4B9
330
28D
100
AcDbEntity
  8
0
  6
CONTINUOUS
 62
     7
100
AcDbVertex
100
AcDb2dVertex
 10
8.232928138
 20
6.4500885861
 30
0.0
  0
VERTEX
  5
4BA
330
28D
100
AcDbEntity
  8
0
  6
CONTINUOUS
 62
     7
100
AcDbVertex
100
AcDb2dVertex
 10
8.2384537208
 20
6.4799027578
 30
0.0
  0
VERTEX
  5
4BB
330
28D
100
AcDbEntity
  8
0
  6
CONTINUOUS
 62
     7
100
AcDbVertex
100
AcDb2dVertex
 10
8.2452963445
 20
6.5100661394
 30
0.0
  0
VERTEX
  5
4BC
330
28D
100
AcDbEntity
  8
0
  6
CONTINUOUS
 62
     7
100
AcDbVertex
100
AcDb2dVertex
 10
8.2534333509
 20
6.5404788507
 30
0.0
  0
VERTEX
  5
4BD
330
28D
100
AcDbEntity
  8
0
  6
CONTINUOUS
 62
     7
100
AcDbVertex
100
AcDb2dVertex
 10
8.262837796
 20
6.5710401858
 30
0.0
  0
VERTEX
  5
4BE
330
28D
100
AcDbEntity
  8
0
  6
CONTINUOUS
 62
     7
100
AcDbVertex
100
AcDb2dVertex
 10
8.2734785388
 20
6.6016489469
 30
0.0
  0
VERTEX
  5
4BF
330
28D
100
AcDbEntity
  8
0
  6
CONTINUOUS
 62
     7
100
AcDbVertex
100
AcDb2dVertex
 10
8.2853203445
 20
6.6322037788
 30
0.0
  0
VERTEX
  5
4C0
330
28D
100
AcDbEntity
  8
0
  6
CONTINUOUS
 62
     7
100
AcDbVertex
100
AcDb2dVertex
 10
8.2983240012
 20
6.6626035053
 30
0.0
  0
VERTEX
  5
4C1
330
28D
100
AcDbEntity
  8
0
  6
CONTINUOUS
 62
     7
100
AcDbVertex
100
AcDb2dVertex
 10
8.3124464499
 20
6.6927474634
 30
0.0
  0
VERTEX
  5
4C2
330
28D
100
AcDbEntity
  8
0
  6
CONTINUOUS
 62
     7
100
AcDbVertex
100
AcDb2dVertex
 10
8.3276409268
 20
6.7225358373
 30
0.0
  0
VERTEX
  5
4C3
330
28D
100
AcDbEntity
  8
0
  6
CONTINUOUS
 62
     7
100
AcDbVertex
100
AcDb2dVertex
 10
8.3438571184
 20
6.7518699886
 30
0.0
  0
VERTEX
  5
4C4
330
28D
100
AcDbEntity
  8
0
  6
CONTINUOUS
 62
     7
100
AcDbVertex
100
AcDb2dVertex
 10
8.3610413278
 20
6.7806527828
 30
0.0
  0
VERTEX
  5
4C5
330
28D
100
AcDbEntity
  8
0
  6
CONTINUOUS
 62
     7
100
AcDbVertex
100
AcDb2dVertex
 10
8.3791366528
 20
6.8087889113
 30
0.0
  0
VERTEX
  5
4C6
330
28D
100
AcDbEntity
  8
0
  6
CONTINUOUS
 62
     7
100
AcDbVertex
100
AcDb2dVertex
 10
8.3980831744
 20
6.8361852068
 30
0.0
  0
VERTEX
  5
4C7
330
28D
100
AcDbEntity
  8
0
  6
CONTINUOUS
 62
     7
100
AcDbVertex
100
AcDb2dVertex
 10
8.4178181546
 20
6.8627509517
 30
0.0
  0
VERTEX
  5
4C8
330
28D
100
AcDbEntity
  8
0
  6
CONTINUOUS
 62
     7
100
AcDbVertex
100
AcDb2dVertex
 10
8.4382762451
 20
6.8883981787
 30
0.0
  0
VERTEX
  5
4C9
330
28D
100
AcDbEntity
  8
0
  6
CONTINUOUS
 62
     7
100
AcDbVertex
100
AcDb2dVertex
 10
8.4593897027
 20
6.913041962
 30
0.0
  0
VERTEX
  5
4CA
330
28D
100
AcDbEntity
  8
0
  6
CONTINUOUS
 62
     7
100
AcDbVertex
100
AcDb2dVertex
 10
8.4810886143
 20
6.9366006984
 30
0.0
  0
VERTEX
  5
4CB
330
28D
100
AcDbEntity
  8
0
  6
CONTINUOUS
 62
     7
100
AcDbVertex
100
AcDb2dVertex
 10
8.5033011282
 20
6.9589963777
 30
0.0
  0
VERTEX
  5
4CC
330
28D
100
AcDbEntity
  8
0
  6
CONTINUOUS
 62
     7
100
AcDbVertex
100
AcDb2dVertex
 10
8.525953692
 20
6.980154841
 30
0.0
  0
VERTEX
  5
4CD
330
28D
100
AcDbEntity
  8
0
  6
CONTINUOUS
 62
     7
100
AcDbVertex
100
AcDb2dVertex
 10
8.5489712959
 20
7.000006026
 30
0.0
  0
VERTEX
  5
4CE
330
28D
100
AcDbEntity
  8
0
  6
CONTINUOUS
 62
     7
100
AcDbVertex
100
AcDb2dVertex
 10
8.5722777218
 20
7.0184841996
 30
0.0
  0
VERTEX
  5
4CF
330
28D
100
AcDbEntity
  8
0
  6
CONTINUOUS
 62
     7
100
AcDbVertex
100
AcDb2dVertex
 10
8.5957957948
 20
7.0355281746
 30
0.0
  0
VERTEX
  5
4D0
330
28D
100
AcDbEntity
  8
0
  6
CONTINUOUS
 62
     7
100
AcDbVertex
100
AcDb2dVertex
 10
8.6194476395
 20
7.0510815134
 30
0.0
  0
VERTEX
  5
4D1
330
28D
100
AcDbEntity
  8
0
  6
CONTINUOUS
 62
     7
100
AcDbVertex
100
AcDb2dVertex
 10
8.6431549372
 20
7.065092714
 30
0.0
  0
VERTEX
  5
4D2
330
28D
100
AcDbEntity
  8
0
  6
CONTINUOUS
 62
     7
100
AcDbVertex
100
AcDb2dVertex
 10
8.6668391859
 20
7.0775153811
 30
0.0
  0
VERTEX
  5
4D3
330
28D
100
AcDbEntity
  8
0
  6
CONTINUOUS
 62
     7
100
AcDbVertex
100
AcDb2dVertex
 10
8.6904219598
 20
7.0883083794
 30
0.0
  0
VERTEX
  5
4D4
330
28D
100
AcDbEntity
  8
0
  6
CONTINUOUS
 62
     7
100
AcDbVertex
100
AcDb2dVertex
 10
8.713825169
 20
7.0974359699
 30
0.0
  0
VERTEX
  5
4D5
330
28D
100
AcDbEntity
  8
0
  6
CONTINUOUS
 62
     7
100
AcDbVertex
100
AcDb2dVertex
 10
8.7369713184
 20
7.1048679284
 30
0.0
  0
VERTEX
  5
4D6
330
28D
100
AcDbEntity
  8
0
  6
CONTINUOUS
 62
     7
100
AcDbVertex
100
AcDb2dVertex
 10
8.759783764
 20
7.1105796455
 30
0.0
  0
VERTEX
  5
4D7
330
28D
100
AcDbEntity
  8
0
  6
CONTINUOUS
 62
     7
100
AcDbVertex
100
AcDb2dVertex
 10
8.7821869666
 20
7.1145522078
 30
0.0
  0
VERTEX
  5
4D8
330
28D
100
AcDbEntity
  8
0
  6
CONTINUOUS
 62
     7
100
AcDbVertex
100
AcDb2dVertex
 10
8.8041067426
 20
7.116772461
 30
0.0
  0
VERTEX
  5
4D9
330
28D
100
AcDbEntity
  8
0
  6
CONTINUOUS
 62
     7
100
AcDbVertex
100
AcDb2dVertex
 10
8.8254705087
 20
7.1172330532
 30
0.0
  0
VERTEX
  5
4DA
330
28D
100
AcDbEntity
  8
0
  6
CONTINUOUS
 62
     7
100
AcDbVertex
100
AcDb2dVertex
 10
8.8462075231
 20
7.1159324592
 30
0.0
  0
VERTEX
  5
4DB
330
28D
100
AcDbEntity
  8
0
  6
CONTINUOUS
 62
     7
100
AcDbVertex
100
AcDb2dVertex
 10
8.866249119
 20
7.1128749857
 30
0.0
  0
VERTEX
  5
4DC
330
28D
100
AcDbEntity
  8
0
  6
CONTINUOUS
 62
     7
100
AcDbVertex
100
AcDb2dVertex
 10
8.8855289326
 20
7.1080707568
 30
0.0
  0
VERTEX
  5
4DD
330
28D
100
AcDbEntity
  8
0
  6
CONTINUOUS
 62
     7
100
AcDbVertex
100
AcDb2dVertex
 10
8.9039831225
 20
7.1015356809
 30
0.0
  0
VERTEX
  5
4DE
330
28D
100
AcDbEntity
  8
0
  6
CONTINUOUS
 62
     7
100
AcDbVertex
100
AcDb2dVertex
 10
8.9215505813
 20
7.0932913977
 30
0.0
  0
VERTEX
  5
4DF
330
28D
100
AcDbEntity
  8
0
  6
CONTINUOUS
 62
     7
100
AcDbVertex
100
AcDb2dVertex
 10
8.9381731377
 20
7.0833652064
 30
0.0
  0
VERTEX
  5
4E0
330
28D
100
AcDbEntity
  8
0
  6
CONTINUOUS
 62
     7
100
AcDbVertex
100
AcDb2dVertex
 10
8.9537957493
 20
7.0717899757
 30
0.0
  0
VERTEX
  5
4E1
330
28D
100
AcDbEntity
  8
0
  6
CONTINUOUS
 62
     7
100
AcDbVertex
100
AcDb2dVertex
 10
8.9683666848
 20
7.0586040348
 30
0.0
  0
VERTEX
  5
4E2
330
28D
100
AcDbEntity
  8
0
  6
CONTINUOUS
 62
     7
100
AcDbVertex
100
AcDb2dVertex
 10
8.9818376955
 20
7.0438510463
 30
0.0
  0
VERTEX
  5
4E3
330
28D
100
AcDbEntity
  8
0
  6
CONTINUOUS
 62
     7
100
AcDbVertex
100
AcDb2dVertex
 10
8.9941641747
 20
7.027579862
 30
0.0
  0
VERTEX
  5
4E4
330
28D
100
AcDbEntity
  8
0
  6
CONTINUOUS
 62
     7
100
AcDbVertex
100
AcDb2dVertex
 10
9.0053053056
 20
7.0098443607
 30
0.0
  0
VERTEX
  5
4E5
330
28D
100
AcDbEntity
  8
0
  6
CONTINUOUS
 62
     7
100
AcDbVertex
100
AcDb2dVertex
 10
9.0152241965
 20
6.9907032701
 30
0.0
  0
VERTEX
  5
4E6
330
28D
100
AcDbEntity
  8
0
  6
CONTINUOUS
 62
     7
100
AcDbVertex
100
AcDb2dVertex
 10
9.0238880029
 20
6.9702199722
 30
0.0
  0
VERTEX
  5
4E7
330
28D
100
AcDbEntity
  8
0
  6
CONTINUOUS
 62
     7
100
AcDbVertex
100
AcDb2dVertex
 10
9.0312680363
 20
6.9484622935
 30
0.0
  0
VERTEX
  5
4E8
330
28D
100
AcDbEntity
  8
0
  6
CONTINUOUS
 62
     7
100
AcDbVertex
100
AcDb2dVertex
 10
9.0373398592
 20
6.9255022804
 30
0.0
  0
VERTEX
  5
4E9
330
28D
100
AcDbEntity
  8
0
  6
CONTINUOUS
 62
     7
100
AcDbVertex
100
AcDb2dVertex
 10
9.0420833659
 20
6.9014159604
 30
0.0
  0
VERTEX
  5
4EA
330
28D
100
AcDbEntity
  8
0
  6
CONTINUOUS
 62
     7
100
AcDbVertex
100
AcDb2dVertex
 10
9.0454828492
 20
6.8762830909
 30
0.0
  0
VERTEX
  5
4EB
330
28D
100
AcDbEntity
  8
0
  6
CONTINUOUS
 62
     7
100
AcDbVertex
100
AcDb2dVertex
 10
9.0475270523
 20
6.8501868944
 30
0.0
  0
VERTEX
  5
4EC
330
28D
100
AcDbEntity
  8
0
  6
CONTINUOUS
 62
     7
100
AcDbVertex
100
AcDb2dVertex
 10
9.0482092062
 20
6.8232137834
 30
0.0
  0
SEQEND
  5
4ED
330
28D
100
AcDbEntity
  8
0
  6
CONTINUOUS
 62
     7
  0
POLYLINE
  5
28E
330
1F
100
AcDbEntity
  8
0
  6
CONTINUOUS
 62
     7
100
AcDb2dPolyline
 66
     1
 10
0.0
 20
0.0
 30
0.0
  0
VERTEX
  5
4EE
330
28E
100
AcDbEntity
  8
0
  6
CONTINUOUS
 62
     7
100
AcDbVertex
100
AcDb2dVertex
 10
8.6362611954
 20
6.1096215793
 30
0.0
  0
VERTEX
  5
4EF
330
28E
100
AcDbEntity
  8
0
  6
CONTINUOUS
 62
     7
100
AcDbVertex
100
AcDb2dVertex
 10
8.6194476395
 20
6.1003084855
 30
0.0
  0
VERTEX
  5
4F0
330
28E
100
AcDbEntity
  8
0
  6
CONTINUOUS
 62
     7
100
AcDbVertex
100
AcDb2dVertex
 10
8.5957957948
 20
6.0885539857
 30
0.0
  0
VERTEX
  5
4F1
330
28E
100
AcDbEntity
  8
0
  6
CONTINUOUS
 62
     7
100
AcDbVertex
100
AcDb2dVertex
 10
8.5722777218
 20
6.0784445716
 30
0.0
  0
VERTEX
  5
4F2
330
28E
100
AcDbEntity
  8
0
  6
CONTINUOUS
 62
     7
100
AcDbVertex
100
AcDb2dVertex
 10
8.5489712959
 20
6.0700137186
 30
0.0
  0
VERTEX
  5
4F3
330
28E
100
AcDbEntity
  8
0
  6
CONTINUOUS
 62
     7
100
AcDbVertex
100
AcDb2dVertex
 10
8.525953692
 20
6.0632893439
 30
0.0
  0
VERTEX
  5
4F4
330
28E
100
AcDbEntity
  8
0
  6
CONTINUOUS
 62
     7
100
AcDbVertex
100
AcDb2dVertex
 10
8.5033011282
 20
6.0582937138
 30
0.0
  0
VERTEX
  5
4F5
330
28E
100
AcDbEntity
  8
0
  6
CONTINUOUS
 62
     7
100
AcDbVertex
100
AcDb2dVertex
 10
8.4810886143
 20
6.0550433704
 30
0.0
  0
VERTEX
  5
4F6
330
28E
100
AcDbEntity
  8
0
  6
CONTINUOUS
 62
     7
100
AcDbVertex
100
AcDb2dVertex
 10
8.4593897027
 20
6.0535490767
 30
0.0
  0
VERTEX
  5
4F7
330
28E
100
AcDbEntity
  8
0
  6
CONTINUOUS
 62
     7
100
AcDbVertex
100
AcDb2dVertex
 10
8.4382762451
 20
6.0538157807
 30
0.0
  0
VERTEX
  5
4F8
330
28E
100
AcDbEntity
  8
0
  6
CONTINUOUS
 62
     7
100
AcDbVertex
100
AcDb2dVertex
 10
8.4178181546
 20
6.0558425992
 30
0.0
  0
VERTEX
  5
4F9
330
28E
100
AcDbEntity
  8
0
  6
CONTINUOUS
 62
     7
100
AcDbVertex
100
AcDb2dVertex
 10
8.3980831744
 20
6.0596228209
 30
0.0
  0
VERTEX
  5
4FA
330
28E
100
AcDbEntity
  8
0
  6
CONTINUOUS
 62
     7
100
AcDbVertex
100
AcDb2dVertex
 10
8.3791366528
 20
6.0651439282
 30
0.0
  0
VERTEX
  5
4FB
330
28E
100
AcDbEntity
  8
0
  6
CONTINUOUS
 62
     7
100
AcDbVertex
100
AcDb2dVertex
 10
8.3610413278
 20
6.0723876392
 30
0.0
  0
VERTEX
  5
4FC
330
28E
100
AcDbEntity
  8
0
  6
CONTINUOUS
 62
     7
100
AcDbVertex
100
AcDb2dVertex
 10
8.3438571184
 20
6.0813299676
 30
0.0
  0
VERTEX
  5
4FD
330
28E
100
AcDbEntity
  8
0
  6
CONTINUOUS
 62
     7
100
AcDbVertex
100
AcDb2dVertex
 10
8.3276409268
 20
6.0919413026
 30
0.0
  0
VERTEX
  5
4FE
330
28E
100
AcDbEntity
  8
0
  6
CONTINUOUS
 62
     7
100
AcDbVertex
100
AcDb2dVertex
 10
8.3124464499
 20
6.1041865069
 30
0.0
  0
VERTEX
  5
4FF
330
28E
100
AcDbEntity
  8
0
  6
CONTINUOUS
 62
     7
100
AcDbVertex
100
AcDb2dVertex
 10
8.2983240012
 20
6.1180250328
 30
0.0
  0
VERTEX
  5
500
330
28E
100
AcDbEntity
  8
0
  6
CONTINUOUS
 62
     7
100
AcDbVertex
100
AcDb2dVertex
 10
8.2853203445
 20
6.1334110567
 30
0.0
  0
VERTEX
  5
501
330
28E
100
AcDbEntity
  8
0
  6
CONTINUOUS
 62
     7
100
AcDbVertex
100
AcDb2dVertex
 10
8.2734785388
 20
6.1502936309
 30
0.0
  0
VERTEX
  5
502
330
28E
100
AcDbEntity
  8
0
  6
CONTINUOUS
 62
     7
100
AcDbVertex
100
AcDb2dVertex
 10
8.262837796
 20
6.1686168518
 30
0.0
  0
VERTEX
  5
503
330
28E
100
AcDbEntity
  8
0
  6
CONTINUOUS
 62
     7
100
AcDbVertex
100
AcDb2dVertex
 10
8.2534333509
 20
6.1883200457
 30
0.0
  0
VERTEX
  5
504
330
28E
100
AcDbEntity
  8
0
  6
CONTINUOUS
 62
     7
100
AcDbVertex
100
AcDb2dVertex
 10
8.2452963445
 20
6.2093379694
 30
0.0
  0
VERTEX
  5
505
330
28E
100
AcDbEntity
  8
0
  6
CONTINUOUS
 62
     7
100
AcDbVertex
100
AcDb2dVertex
 10
8.2384537208
 20
6.2316010259
 30
0.0
  0
VERTEX
  5
506
330
28E
100
AcDbEntity
  8
0
  6
CONTINUOUS
 62
     7
100
AcDbVertex
100
AcDb2dVertex
 10
8.232928138
 20
6.2550354955
 30
0.0
  0
VERTEX
  5
507
330
28E
100
AcDbEntity
  8
0
  6
CONTINUOUS
 62
     7
100
AcDbVertex
100
AcDb2dVertex
 10
8.228737893
 20
6.2795637794
 30
0.0
  0
VERTEX
  5
508
330
28E
100
AcDbEntity
  8
0
  6
CONTINUOUS
 62
     7
100
AcDbVertex
100
AcDb2dVertex
 10
8.2258968608
 20
6.3051046571
 30
0.0
  0
VERTEX
  5
509
330
28E
100
AcDbEntity
  8
0
  6
CONTINUOUS
 62
     7
100
AcDbVertex
100
AcDb2dVertex
 10
8.2244144491
 20
6.3315735547
 30
0.0
  0
SEQEND
  5
50A
330
28E
100
AcDbEntity
  8
0
  6
CONTINUOUS
 62
     7
  0
LINE
  5
28F
330
1F
100
AcDbEntity
  8
0
  6
CONTINUOUS
 62
     7
100
AcDbLine
 10
8.2244144491
 20
6.3315735547
 30
0.0
 11
8.2456338708
 21
6.3315771445
 31
0.0
  0
SPLINE
  5
290
330
1F
100
AcDbEntity
  8
0
  6
CONTINUOUS
 62
     7
100
AcDbSpline
210
0.0
220
0.0
230
1.0
 70
     8
 71
     3
 72
    32
 73
    28
 74
     0
 42
0.00000001
 43
0.00000001
 40
0.0
 40
0.0
 40
0.0
 40
0.0
 40
0.0503616743966778
 40
0.1008995728168773
 40
0.1512994622783254
 40
0.2026048142439097
 40
0.2540728834799093
 40
0.3052757149916132
 40
0.3528540962858664
 40
0.4003826758160571
 40
0.4403780656008057
 40
0.4803420692300089
 40
0.520572213949446
 40
0.560777569586991
 40
0.596283048107823
 40
0.6317820160447202
 40
0.6649589170062605
 40
0.6981361610563281
 40
0.7307735013026643
 40
0.7634160042015097
 40
0.7966019407019446
 40
0.8297991487316382
 40
0.8648736687248127
 40
0.8999667064456756
 40
0.9390811873234914
 40
0.9782215088976798
 40
1.0
 40
1.0
 40
1.0
 40
1.0
 10
8.231099604698985
 20
6.657920079258374
 30
0.0
 10
8.238587526962974
 20
6.663859547818951
 30
0.0
 10
8.253589572998447
 20
6.67575926814598
 30
0.0
 10
8.275223708250339
 20
6.69692062835486
 30
0.0
 10
8.296361864787356
 20
6.719969083287972
 30
0.0
 10
8.31689911366419
 20
6.744858393948088
 30
0.0
 10
8.336335850888243
 20
6.771427689009291
 30
0.0
 10
8.353608801124125
 20
6.798679516039542
 30
0.0
 10
8.36812198570991
 20
6.826150045908066
 30
0.0
 10
8.378696779500745
 20
6.852041511652629
 30
0.0
 10
8.385304823801109
 20
6.876410320262131
 30
0.0
 10
8.388123278108885
 20
6.898908587387706
 30
0.0
 10
8.386771486758096
 20
6.920319086797251
 30
0.0
 10
8.381295312521774
 20
6.939296400811758
 30
0.0
 10
8.37196942299603
 20
6.955310385663839
 30
0.0
 10
8.359985841441945
 20
6.968069424865688
 30
0.0
 10
8.345351697847924
 20
6.977941064873568
 30
0.0
 10
8.328917832775526
 20
6.984927140223615
 30
0.0
 10
8.310791505133986
 20
6.988977037875167
 30
0.0
 10
8.291525716680058
 20
6.990139514675248
 30
0.0
 10
8.271546973529738
 20
6.988212107732331
 30
0.0
 10
8.251085284864054
 20
6.983241071000751
 30
0.0
 10
8.230846202457332
 20
6.975078485363138
 30
0.0
 10
8.210561671469172
 20
6.963581517326616
 30
0.0
 10
8.191455053057336
 20
6.948634979006249
 30
0.0
 10
8.175805544614828
 20
6.933796425524937
 30
0.0
 10
8.168326485957532
 20
6.923094904266875
 30
0.0
 10
8.165652720575947
 20
6.919269107681877
 30
0.0
  0
SPLINE
  5
291
330
1F
100
AcDbEntity
  8
0
  6
CONTINUOUS
 62
     7
100
AcDbSpline
210
0.0
220
0.0
230
1.0
 70
     8
 71
     3
 72
     9
 73
     5
 74
     0
 42
0.00000001
 43
0.00000001
 40
0.0
 40
0.0
 40
0.0
 40
0.0
 40
0.1126043456802676
 40
1.0
 40
1.0
 40
1.0
 40
1.0
 10
8.112007864045173
 20
6.752621871904584
 30
0.0
 10
8.11197300687922
 20
6.751618902138563
 30
0.0
 10
8.111663452521059
 20
6.742711876748371
 30
0.0
 10
8.112459897575015
 20
6.733858111872826
 30
0.0
 10
8.113166659454802
 20
6.726001319397899
 30
0.0
  0
SPLINE
  5
292
330
1F
100
AcDbEntity
  8
0
  6
CONTINUOUS
 62
     7
100
AcDbSpline
210
0.0
220
0.0
230
1.0
 70
     8
 71
     3
 72
    15
 73
    11
 74
     0
 42
0.00000001
 43
0.00000001
 40
0.0
 40
0.0
 40
0.0
 40
0.0
 40
0.0786972834118607
 40
0.160652012543922
 40
0.3191594935913879
 40
0.446639026719269
 40
0.5775896329049549
 40
0.765646601263195
 40
0.9590206811716264
 40
1.0
 40
1.0
 40
1.0
 40
1.0
 10
8.194022978136475
 20
6.175066016501287
 30
0.0
 10
8.196372758027918
 20
6.173676658662666
 30
0.0
 10
8.201169580131923
 20
6.170840434548676
 30
0.0
 10
8.211700349133183
 20
6.164086803320963
 30
0.0
 10
8.224253258251847
 20
6.15557497389113
 30
0.0
 10
8.238054401273224
 20
6.146009321119068
 30
0.0
 10
8.252309581613472
 20
6.13617092268367
 30
0.0
 10
8.267667286778387
 20
6.125953360998115
 30
0.0
 10
8.279769705954859
 20
6.118227487911303
 30
0.0
 10
8.285601469655608
 20
6.115017700630658
 30
0.0
 10
8.2866212189117
 20
6.114456433343502
 30
0.0
  0
SPLINE
  5
293
330
1F
100
AcDbEntity
  8
0
  6
CONTINUOUS
 62
     7
100
AcDbSpline
210
0.0
220
0.0
230
1.0
 70
     8
 71
     3
 72
    13
 73
     9
 74
     0
 42
0.00000001
 43
0.00000001
 40
0.0
 40
0.0
 40
0.0
 40
0.0
 40
0.0083876115612289
 40
0.2688231193339254
 40
0.4342371162389874
 40
0.6030794396594463
 40
0.8605543535207975
 40
1.0
 40
1.0
 40
1.0
 40
1.0
 10
8.170996530544716
 20
6.183445613946229
 30
0.0
 10
8.170984571744118
 20
6.183466321222445
 30
0.0
 10
8.170601291944262
 20
6.184129989841906
 30
0.0
 10
8.171805490188483
 20
6.184418574785898
 30
0.0
 10
8.174509070457846
 20
6.184127668778026
 30
0.0
 10
8.17901598647701
 20
6.182719916980094
 30
0.0
 10
8.185535207118917
 20
6.17983304064872
 30
0.0
 10
8.191816309070338
 20
6.176305357749055
 30
0.0
 10
8.194022978136475
 20
6.175066016501287
 30
0.0
  0
ARC
  5
294
330
1F
100
AcDbEntity
  8
0
  6
CONTINUOUS
 62
     7
100
AcDbCircle
 10
8.260810047
 20
6.4547659143
 30
0.0
 40
0.2829286326474383
100
AcDbArc
 50
176.1964311147
 51
235.1088611458
  0
LINE
  5
295
330
1F
100
AcDbEntity
  8
0
  6
CONTINUOUS
 62
     7
100
AcDbLine
 10
8.2244144491
 20
6.3315735547
 30
0.0
 11
7.9785046105
 21
6.4735342828
 31
0.0
  0
LINE
  5
296
330
1F
100
AcDbEntity
  8
0
  6
CONTINUOUS
 62
     7
100
AcDbLine
 10
8.2244144491
 20
6.3637208308
 30
0.0
 11
7.9785046105
 21
6.5056815589
 31
0.0
  0
POLYLINE
  5
297
330
1F
100
AcDbEntity
  8
0
  6
CONTINUOUS
 62
     7
100
AcDb2dPolyline
 66
     1
 10
0.0
 20
0.0
 30
0.0
  0
VERTEX
  5
50B
330
297
100
AcDbEntity
  8
0
  6
CONTINUOUS
 62
     7
100
AcDbVertex
100
AcDb2dVertex
 10
8.5976838227
 20
7.2581575644
 30
0.0
  0
VERTEX
  5
50C
330
297
100
AcDbEntity
  8
0
  6
CONTINUOUS
 62
     7
100
AcDbVertex
100
AcDb2dVertex
 10
8.5769378822
 20
7.2592324062
 30
0.0
  0
VERTEX
  5
50D
330
297
100
AcDbEntity
  8
0
  6
CONTINUOUS
 62
     7
100
AcDbVertex
100
AcDb2dVertex
 10
8.5555782558
 20
7.2585584183
 30
0.0
  0
VERTEX
  5
50E
330
297
100
AcDbEntity
  8
0
  6
CONTINUOUS
 62
     7
100
AcDbVertex
100
AcDb2dVertex
 10
8.5336751704
 20
7.2561378168
 30
0.0
  0
VERTEX
  5
50F
330
297
100
AcDbEntity
  8
0
  6
CONTINUOUS
 62
     7
100
AcDbVertex
100
AcDb2dVertex
 10
8.5113006396
 20
7.2519785603
 30
0.0
  0
VERTEX
  5
510
330
297
100
AcDbEntity
  8
0
  6
CONTINUOUS
 62
     7
100
AcDbVertex
100
AcDb2dVertex
 10
8.4885282273
 20
7.2460943236
 30
0.0
  0
VERTEX
  5
511
330
297
100
AcDbEntity
  8
0
  6
CONTINUOUS
 62
     7
100
AcDbVertex
100
AcDb2dVertex
 10
8.4654328055
 20
7.2385044532
 30
0.0
  0
VERTEX
  5
512
330
297
100
AcDbEntity
  8
0
  6
CONTINUOUS
 62
     7
100
AcDbVertex
100
AcDb2dVertex
 10
8.442090308
 20
7.2292339034
 30
0.0
  0
VERTEX
  5
513
330
297
100
AcDbEntity
  8
0
  6
CONTINUOUS
 62
     7
100
AcDbVertex
100
AcDb2dVertex
 10
8.4185774812
 20
7.2183131541
 30
0.0
  0
VERTEX
  5
514
330
297
100
AcDbEntity
  8
0
  6
CONTINUOUS
 62
     7
100
AcDbVertex
100
AcDb2dVertex
 10
8.3949716314
 20
7.205778111
 30
0.0
  0
VERTEX
  5
515
330
297
100
AcDbEntity
  8
0
  6
CONTINUOUS
 62
     7
100
AcDbVertex
100
AcDb2dVertex
 10
8.3713503707
 20
7.1916699873
 30
0.0
  0
VERTEX
  5
516
330
297
100
AcDbEntity
  8
0
  6
CONTINUOUS
 62
     7
100
AcDbVertex
100
AcDb2dVertex
 10
8.3477913619
 20
7.1760351681
 30
0.0
  0
VERTEX
  5
517
330
297
100
AcDbEntity
  8
0
  6
CONTINUOUS
 62
     7
100
AcDbVertex
100
AcDb2dVertex
 10
8.3243720633
 20
7.1589250582
 30
0.0
  0
VERTEX
  5
518
330
297
100
AcDbEntity
  8
0
  6
CONTINUOUS
 62
     7
100
AcDbVertex
100
AcDb2dVertex
 10
8.3011694735
 20
7.1403959128
 30
0.0
  0
VERTEX
  5
519
330
297
100
AcDbEntity
  8
0
  6
CONTINUOUS
 62
     7
100
AcDbVertex
100
AcDb2dVertex
 10
8.278259879
 20
7.1205086527
 30
0.0
  0
VERTEX
  5
51A
330
297
100
AcDbEntity
  8
0
  6
CONTINUOUS
 62
     7
100
AcDbVertex
100
AcDb2dVertex
 10
8.2557186026
 20
7.0993286638
 30
0.0
  0
VERTEX
  5
51B
330
297
100
AcDbEntity
  8
0
  6
CONTINUOUS
 62
     7
100
AcDbVertex
100
AcDb2dVertex
 10
8.2336197564
 20
7.0769255826
 30
0.0
  0
VERTEX
  5
51C
330
297
100
AcDbEntity
  8
0
  6
CONTINUOUS
 62
     7
100
AcDbVertex
100
AcDb2dVertex
 10
8.2120359978
 20
7.0533730667
 30
0.0
  0
VERTEX
  5
51D
330
297
100
AcDbEntity
  8
0
  6
CONTINUOUS
 62
     7
100
AcDbVertex
100
AcDb2dVertex
 10
8.1910382906
 20
7.0287485529
 30
0.0
  0
VERTEX
  5
51E
330
297
100
AcDbEntity
  8
0
  6
CONTINUOUS
 62
     7
100
AcDbVertex
100
AcDb2dVertex
 10
8.1706956718
 20
7.0031330025
 30
0.0
  0
VERTEX
  5
51F
330
297
100
AcDbEntity
  8
0
  6
CONTINUOUS
 62
     7
100
AcDbVertex
100
AcDb2dVertex
 10
8.1510750246
 20
6.9766106353
 30
0.0
  0
VERTEX
  5
520
330
297
100
AcDbEntity
  8
0
  6
CONTINUOUS
 62
     7
100
AcDbVertex
100
AcDb2dVertex
 10
8.1322408585
 20
6.9492686524
 30
0.0
  0
VERTEX
  5
521
330
297
100
AcDbEntity
  8
0
  6
CONTINUOUS
 62
     7
100
AcDbVertex
100
AcDb2dVertex
 10
8.1142550971
 20
6.9211969498
 30
0.0
  0
VERTEX
  5
522
330
297
100
AcDbEntity
  8
0
  6
CONTINUOUS
 62
     7
100
AcDbVertex
100
AcDb2dVertex
 10
8.0971768746
 20
6.8924878226
 30
0.0
  0
VERTEX
  5
523
330
297
100
AcDbEntity
  8
0
  6
CONTINUOUS
 62
     7
100
AcDbVertex
100
AcDb2dVertex
 10
8.0810623414
 20
6.8632356617
 30
0.0
  0
VERTEX
  5
524
330
297
100
AcDbEntity
  8
0
  6
CONTINUOUS
 62
     7
100
AcDbVertex
100
AcDb2dVertex
 10
8.0659644795
 20
6.8335366434
 30
0.0
  0
VERTEX
  5
525
330
297
100
AcDbEntity
  8
0
  6
CONTINUOUS
 62
     7
100
AcDbVertex
100
AcDb2dVertex
 10
8.0519329281
 20
6.8034884132
 30
0.0
  0
VERTEX
  5
526
330
297
100
AcDbEntity
  8
0
  6
CONTINUOUS
 62
     7
100
AcDbVertex
100
AcDb2dVertex
 10
8.0390138207
 20
6.7731897647
 30
0.0
  0
VERTEX
  5
527
330
297
100
AcDbEntity
  8
0
  6
CONTINUOUS
 62
     7
100
AcDbVertex
100
AcDb2dVertex
 10
8.0272496332
 20
6.7427403149
 30
0.0
  0
VERTEX
  5
528
330
297
100
AcDbEntity
  8
0
  6
CONTINUOUS
 62
     7
100
AcDbVertex
100
AcDb2dVertex
 10
8.0166790443
 20
6.7122401766
 30
0.0
  0
VERTEX
  5
529
330
297
100
AcDbEntity
  8
0
  6
CONTINUOUS
 62
     7
100
AcDbVertex
100
AcDb2dVertex
 10
8.0073368083
 20
6.6817896293
 30
0.0
  0
VERTEX
  5
52A
330
297
100
AcDbEntity
  8
0
  6
CONTINUOUS
 62
     7
100
AcDbVertex
100
AcDb2dVertex
 10
7.9992536409
 20
6.6514887892
 30
0.0
  0
VERTEX
  5
52B
330
297
100
AcDbEntity
  8
0
  6
CONTINUOUS
 62
     7
100
AcDbVertex
100
AcDb2dVertex
 10
7.9924561184
 20
6.6214372807
 30
0.0
  0
VERTEX
  5
52C
330
297
100
AcDbEntity
  8
0
  6
CONTINUOUS
 62
     7
100
AcDbVertex
100
AcDb2dVertex
 10
7.9869665899
 20
6.591733908
 30
0.0
  0
VERTEX
  5
52D
330
297
100
AcDbEntity
  8
0
  6
CONTINUOUS
 62
     7
100
AcDbVertex
100
AcDb2dVertex
 10
7.9828031039
 20
6.5624763311
 30
0.0
  0
VERTEX
  5
52E
330
297
100
AcDbEntity
  8
0
  6
CONTINUOUS
 62
     7
100
AcDbVertex
100
AcDb2dVertex
 10
7.9799793494
 20
6.533760744
 30
0.0
  0
VERTEX
  5
52F
330
297
100
AcDbEntity
  8
0
  6
CONTINUOUS
 62
     7
100
AcDbVertex
100
AcDb2dVertex
 10
7.9785046105
 20
6.5056815589
 30
0.0
  0
SEQEND
  5
530
330
297
100
AcDbEntity
  8
0
  6
CONTINUOUS
 62
     7
  0
LINE
  5
298
330
1F
100
AcDbEntity
  8
0
  6
CONTINUOUS
 62
     7
100
AcDbLine
 10
8.5605653565
 20
7.2795855989
 30
0.0
 11
8.5976838227
 21
7.2581575644
 31
0.0
  0
POLYLINE
  5
299
330
1F
100
AcDbEntity
  8
0
  6
CONTINUOUS
 62
     7
100
AcDb2dPolyline
 66
     1
 10
0.0
 20
0.0
 30
0.0
  0
VERTEX
  5
531
330
299
100
AcDbEntity
  8
0
  6
CONTINUOUS
 62
     7
100
AcDbVertex
100
AcDb2dVertex
 10
8.0810018523
 20
6.2344352408
 30
0.0
  0
VERTEX
  5
532
330
299
100
AcDbEntity
  8
0
  6
CONTINUOUS
 62
     7
100
AcDbVertex
100
AcDb2dVertex
 10
8.0761946357
 20
6.236621964
 30
0.0
  0
VERTEX
  5
533
330
299
100
AcDbEntity
  8
0
  6
CONTINUOUS
 62
     7
100
AcDbVertex
100
AcDb2dVertex
 10
8.0591263754
 20
6.2457270682
 30
0.0
  0
VERTEX
  5
534
330
299
100
AcDbEntity
  8
0
  6
CONTINUOUS
 62
     7
100
AcDbVertex
100
AcDb2dVertex
 10
8.0430295994
 20
6.2564941264
 30
0.0
  0
VERTEX
  5
535
330
299
100
AcDbEntity
  8
0
  6
CONTINUOUS
 62
     7
100
AcDbVertex
100
AcDb2dVertex
 10
8.0279574902
 20
6.2688875651
 30
0.0
  0
VERTEX
  5
536
330
299
100
AcDbEntity
  8
0
  6
CONTINUOUS
 62
     7
100
AcDbVertex
100
AcDb2dVertex
 10
8.013959845
 20
6.2828664373
 30
0.0
  0
VERTEX
  5
537
330
299
100
AcDbEntity
  8
0
  6
CONTINUOUS
 62
     7
100
AcDbVertex
100
AcDb2dVertex
 10
8.0010829109
 20
6.2983845578
 30
0.0
  0
VERTEX
  5
538
330
299
100
AcDbEntity
  8
0
  6
CONTINUOUS
 62
     7
100
AcDbVertex
100
AcDb2dVertex
 10
7.9893692323
 20
6.3153906561
 30
0.0
  0
VERTEX
  5
539
330
299
100
AcDbEntity
  8
0
  6
CONTINUOUS
 62
     7
100
AcDbVertex
100
AcDb2dVertex
 10
7.9788575103
 20
6.3338285451
 30
0.0
  0
VERTEX
  5
53A
330
299
100
AcDbEntity
  8
0
  6
CONTINUOUS
 62
     7
100
AcDbVertex
100
AcDb2dVertex
 10
7.9695824749
 20
6.3536373076
 30
0.0
  0
VERTEX
  5
53B
330
299
100
AcDbEntity
  8
0
  6
CONTINUOUS
 62
     7
100
AcDbVertex
100
AcDb2dVertex
 10
7.96157477
 20
6.3747514969
 30
0.0
  0
VERTEX
  5
53C
330
299
100
AcDbEntity
  8
0
  6
CONTINUOUS
 62
     7
100
AcDbVertex
100
AcDb2dVertex
 10
7.9548608525
 20
6.3971013533
 30
0.0
  0
VERTEX
  5
53D
330
299
100
AcDbEntity
  8
0
  6
CONTINUOUS
 62
     7
100
AcDbVertex
100
AcDb2dVertex
 10
7.9494629047
 20
6.4206130346
 30
0.0
  0
VERTEX
  5
53E
330
299
100
AcDbEntity
  8
0
  6
CONTINUOUS
 62
     7
100
AcDbVertex
100
AcDb2dVertex
 10
7.945398761
 20
6.44520886
 30
0.0
  0
VERTEX
  5
53F
330
299
100
AcDbEntity
  8
0
  6
CONTINUOUS
 62
     7
100
AcDbVertex
100
AcDb2dVertex
 10
7.942681849
 20
6.4708075668
 30
0.0
  0
VERTEX
  5
540
330
299
100
AcDbEntity
  8
0
  6
CONTINUOUS
 62
     7
100
AcDbVertex
100
AcDb2dVertex
 10
7.9413211451
 20
6.4973245787
 30
0.0
  0
VERTEX
  5
541
330
299
100
AcDbEntity
  8
0
  6
CONTINUOUS
 62
     7
100
AcDbVertex
100
AcDb2dVertex
 10
7.9413211451
 20
6.5246722855
 30
0.0
  0
VERTEX
  5
542
330
299
100
AcDbEntity
  8
0
  6
CONTINUOUS
 62
     7
100
AcDbVertex
100
AcDb2dVertex
 10
7.942681849
 20
6.5527603327
 30
0.0
  0
VERTEX
  5
543
330
299
100
AcDbEntity
  8
0
  6
CONTINUOUS
 62
     7
100
AcDbVertex
100
AcDb2dVertex
 10
7.945398761
 20
6.5814959192
 30
0.0
  0
VERTEX
  5
544
330
299
100
AcDbEntity
  8
0
  6
CONTINUOUS
 62
     7
100
AcDbVertex
100
AcDb2dVertex
 10
7.9494629047
 20
6.6107841051
 30
0.0
  0
VERTEX
  5
545
330
299
100
AcDbEntity
  8
0
  6
CONTINUOUS
 62
     7
100
AcDbVertex
100
AcDb2dVertex
 10
7.9548608525
 20
6.6405281243
 30
0.0
  0
VERTEX
  5
546
330
299
100
AcDbEntity
  8
0
  6
CONTINUOUS
 62
     7
100
AcDbVertex
100
AcDb2dVertex
 10
7.96157477
 20
6.6706297048
 30
0.0
  0
VERTEX
  5
547
330
299
100
AcDbEntity
  8
0
  6
CONTINUOUS
 62
     7
100
AcDbVertex
100
AcDb2dVertex
 10
7.9695824749
 20
6.7009893934
 30
0.0
  0
VERTEX
  5
548
330
299
100
AcDbEntity
  8
0
  6
CONTINUOUS
 62
     7
100
AcDbVertex
100
AcDb2dVertex
 10
7.9788575103
 20
6.7315068838
 30
0.0
  0
VERTEX
  5
549
330
299
100
AcDbEntity
  8
0
  6
CONTINUOUS
 62
     7
100
AcDbVertex
100
AcDb2dVertex
 10
7.9893692323
 20
6.7620813488
 30
0.0
  0
VERTEX
  5
54A
330
299
100
AcDbEntity
  8
0
  6
CONTINUOUS
 62
     7
100
AcDbVertex
100
AcDb2dVertex
 10
8.0010829109
 20
6.7926117724
 30
0.0
  0
VERTEX
  5
54B
330
299
100
AcDbEntity
  8
0
  6
CONTINUOUS
 62
     7
100
AcDbVertex
100
AcDb2dVertex
 10
8.013959845
 20
6.8229972846
 30
0.0
  0
VERTEX
  5
54C
330
299
100
AcDbEntity
  8
0
  6
CONTINUOUS
 62
     7
100
AcDbVertex
100
AcDb2dVertex
 10
8.0279574902
 20
6.853137494
 30
0.0
  0
VERTEX
  5
54D
330
299
100
AcDbEntity
  8
0
  6
CONTINUOUS
 62
     7
100
AcDbVertex
100
AcDb2dVertex
 10
8.0430295994
 20
6.8829328195
 30
0.0
  0
VERTEX
  5
54E
330
299
100
AcDbEntity
  8
0
  6
CONTINUOUS
 62
     7
100
AcDbVertex
100
AcDb2dVertex
 10
8.0591263754
 20
6.9122848196
 30
0.0
  0
VERTEX
  5
54F
330
299
100
AcDbEntity
  8
0
  6
CONTINUOUS
 62
     7
100
AcDbVertex
100
AcDb2dVertex
 10
8.0761946357
 20
6.9410965177
 30
0.0
  0
VERTEX
  5
550
330
299
100
AcDbEntity
  8
0
  6
CONTINUOUS
 62
     7
100
AcDbVertex
100
AcDb2dVertex
 10
8.094177988
 20
6.969272722
 30
0.0
  0
VERTEX
  5
551
330
299
100
AcDbEntity
  8
0
  6
CONTINUOUS
 62
     7
100
AcDbVertex
100
AcDb2dVertex
 10
8.1130170169
 20
6.9967203405
 30
0.0
  0
VERTEX
  5
552
330
299
100
AcDbEntity
  8
0
  6
CONTINUOUS
 62
     7
100
AcDbVertex
100
AcDb2dVertex
 10
8.1326494795
 20
7.0233486884
 30
0.0
  0
VERTEX
  5
553
330
299
100
AcDbEntity
  8
0
  6
CONTINUOUS
 62
     7
100
AcDbVertex
100
AcDb2dVertex
 10
8.1530105116
 20
7.0490697876
 30
0.0
  0
VERTEX
  5
554
330
299
100
AcDbEntity
  8
0
  6
CONTINUOUS
 62
     7
100
AcDbVertex
100
AcDb2dVertex
 10
8.174032842
 20
7.0737986575
 30
0.0
  0
VERTEX
  5
555
330
299
100
AcDbEntity
  8
0
  6
CONTINUOUS
 62
     7
100
AcDbVertex
100
AcDb2dVertex
 10
8.1956470145
 20
7.097453596
 30
0.0
  0
VERTEX
  5
556
330
299
100
AcDbEntity
  8
0
  6
CONTINUOUS
 62
     7
100
AcDbVertex
100
AcDb2dVertex
 10
8.2177816176
 20
7.1199564487
 30
0.0
  0
VERTEX
  5
557
330
299
100
AcDbEntity
  8
0
  6
CONTINUOUS
 62
     7
100
AcDbVertex
100
AcDb2dVertex
 10
8.24036352
 20
7.1412328681
 30
0.0
  0
VERTEX
  5
558
330
299
100
AcDbEntity
  8
0
  6
CONTINUOUS
 62
     7
100
AcDbVertex
100
AcDb2dVertex
 10
8.2633181131
 20
7.1612125584
 30
0.0
  0
VERTEX
  5
559
330
299
100
AcDbEntity
  8
0
  6
CONTINUOUS
 62
     7
100
AcDbVertex
100
AcDb2dVertex
 10
8.2865695565
 20
7.1798295083
 30
0.0
  0
VERTEX
  5
55A
330
299
100
AcDbEntity
  8
0
  6
CONTINUOUS
 62
     7
100
AcDbVertex
100
AcDb2dVertex
 10
8.3100410292
 20
7.1970222089
 30
0.0
  0
VERTEX
  5
55B
330
299
100
AcDbEntity
  8
0
  6
CONTINUOUS
 62
     7
100
AcDbVertex
100
AcDb2dVertex
 10
8.3336549833
 20
7.2127338566
 30
0.0
  0
VERTEX
  5
55C
330
299
100
AcDbEntity
  8
0
  6
CONTINUOUS
 62
     7
100
AcDbVertex
100
AcDb2dVertex
 10
8.3573334001
 20
7.2269125414
 30
0.0
  0
VERTEX
  5
55D
330
299
100
AcDbEntity
  8
0
  6
CONTINUOUS
 62
     7
100
AcDbVertex
100
AcDb2dVertex
 10
8.3809980479
 20
7.2395114181
 30
0.0
  0
VERTEX
  5
55E
330
299
100
AcDbEntity
  8
0
  6
CONTINUOUS
 62
     7
100
AcDbVertex
100
AcDb2dVertex
 10
8.4045707405
 20
7.2504888609
 30
0.0
  0
VERTEX
  5
55F
330
299
100
AcDbEntity
  8
0
  6
CONTINUOUS
 62
     7
100
AcDbVertex
100
AcDb2dVertex
 10
8.4279735954
 20
7.2598086011
 30
0.0
  0
VERTEX
  5
560
330
299
100
AcDbEntity
  8
0
  6
CONTINUOUS
 62
     7
100
AcDbVertex
100
AcDb2dVertex
 10
8.4511292915
 20
7.2674398471
 30
0.0
  0
VERTEX
  5
561
330
299
100
AcDbEntity
  8
0
  6
CONTINUOUS
 62
     7
100
AcDbVertex
100
AcDb2dVertex
 10
8.4739613242
 20
7.2733573858
 30
0.0
  0
VERTEX
  5
562
330
299
100
AcDbEntity
  8
0
  6
CONTINUOUS
 62
     7
100
AcDbVertex
100
AcDb2dVertex
 10
8.496394258
 20
7.2775416661
 30
0.0
  0
VERTEX
  5
563
330
299
100
AcDbEntity
  8
0
  6
CONTINUOUS
 62
     7
100
AcDbVertex
100
AcDb2dVertex
 10
8.5183539762
 20
7.2799788635
 30
0.0
  0
VERTEX
  5
564
330
299
100
AcDbEntity
  8
0
  6
CONTINUOUS
 62
     7
100
AcDbVertex
100
AcDb2dVertex
 10
8.5397679258
 20
7.2806609255
 30
0.0
  0
VERTEX
  5
565
330
299
100
AcDbEntity
  8
0
  6
CONTINUOUS
 62
     7
100
AcDbVertex
100
AcDb2dVertex
 10
8.5605653565
 20
7.2795855989
 30
0.0
  0
SEQEND
  5
566
330
299
100
AcDbEntity
  8
0
  6
CONTINUOUS
 62
     7
  0
LINE
  5
29A
330
1F
100
AcDbEntity
  8
0
  6
CONTINUOUS
 62
     7
100
AcDbLine
 10
9.0425115217
 20
6.8237520964
 30
0.0
 11
9.0425115217
 21
6.7916048204
 31
0.0
  0
LINE
  5
29B
330
1F
100
AcDbEntity
  8
0
  6
CONTINUOUS
 62
     7
100
AcDbLine
 10
9.0425115217
 20
6.8237520964
 30
0.0
 11
8.7959535879
 21
6.6814172309
 31
0.0
  0
POLYLINE
  5
29C
330
1F
100
AcDbEntity
  8
0
  6
CONTINUOUS
 62
     7
100
AcDb2dPolyline
 66
     1
 10
0.0
 20
0.0
 30
0.0
  0
VERTEX
  5
567
330
29C
100
AcDbEntity
  8
0
  6
CONTINUOUS
 62
     7
100
AcDbVertex
100
AcDb2dVertex
 10
8.4976480783
 20
6.5092091258
 30
0.0
  0
VERTEX
  5
568
330
29C
100
AcDbEntity
  8
0
  6
CONTINUOUS
 62
     7
100
AcDbVertex
100
AcDb2dVertex
 10
8.4996504618
 20
6.526687903
 30
0.0
  0
VERTEX
  5
569
330
29C
100
AcDbEntity
  8
0
  6
CONTINUOUS
 62
     7
100
AcDbVertex
100
AcDb2dVertex
 10
8.5029893378
 20
6.5446439802
 30
0.0
  0
VERTEX
  5
56A
330
29C
100
AcDbEntity
  8
0
  6
CONTINUOUS
 62
     7
100
AcDbVertex
100
AcDb2dVertex
 10
8.5076343812
 20
6.5629142714
 30
0.0
  0
VERTEX
  5
56B
330
29C
100
AcDbEntity
  8
0
  6
CONTINUOUS
 62
     7
100
AcDbVertex
100
AcDb2dVertex
 10
8.5135434031
 20
6.5813328367
 30
0.0
  0
VERTEX
  5
56C
330
29C
100
AcDbEntity
  8
0
  6
CONTINUOUS
 62
     7
100
AcDbVertex
100
AcDb2dVertex
 10
8.5206627351
 20
6.5997323898
 30
0.0
  0
VERTEX
  5
56D
330
29C
100
AcDbEntity
  8
0
  6
CONTINUOUS
 62
     7
100
AcDbVertex
100
AcDb2dVertex
 10
8.5289277157
 20
6.6179458166
 30
0.0
  0
VERTEX
  5
56E
330
29C
100
AcDbEntity
  8
0
  6
CONTINUOUS
 62
     7
100
AcDbVertex
100
AcDb2dVertex
 10
8.5382632785
 20
6.6358076938
 30
0.0
  0
VERTEX
  5
56F
330
29C
100
AcDbEntity
  8
0
  6
CONTINUOUS
 62
     7
100
AcDbVertex
100
AcDb2dVertex
 10
8.548584633
 20
6.6531557911
 30
0.0
  0
VERTEX
  5
570
330
29C
100
AcDbEntity
  8
0
  6
CONTINUOUS
 62
     7
100
AcDbVertex
100
AcDb2dVertex
 10
8.5597980357
 20
6.6698325443
 30
0.0
  0
VERTEX
  5
571
330
29C
100
AcDbEntity
  8
0
  6
CONTINUOUS
 62
     7
100
AcDbVertex
100
AcDb2dVertex
 10
8.571801641
 20
6.685686487
 30
0.0
  0
VERTEX
  5
572
330
29C
100
AcDbEntity
  8
0
  6
CONTINUOUS
 62
     7
100
AcDbVertex
100
AcDb2dVertex
 10
8.584486426
 20
6.7005736258
 30
0.0
  0
VERTEX
  5
573
330
29C
100
AcDbEntity
  8
0
  6
CONTINUOUS
 62
     7
100
AcDbVertex
100
AcDb2dVertex
 10
8.5977371814
 20
6.7143587483
 30
0.0
  0
VERTEX
  5
574
330
29C
100
AcDbEntity
  8
0
  6
CONTINUOUS
 62
     7
100
AcDbVertex
100
AcDb2dVertex
 10
8.6114335572
 20
6.7269166513
 30
0.0
  0
VERTEX
  5
575
330
29C
100
AcDbEntity
  8
0
  6
CONTINUOUS
 62
     7
100
AcDbVertex
100
AcDb2dVertex
 10
8.6254511561
 20
6.7381332775
 30
0.0
  0
VERTEX
  5
576
330
29C
100
AcDbEntity
  8
0
  6
CONTINUOUS
 62
     7
100
AcDbVertex
100
AcDb2dVertex
 10
8.6396626633
 20
6.7479067521
 30
0.0
  0
VERTEX
  5
577
330
29C
100
AcDbEntity
  8
0
  6
CONTINUOUS
 62
     7
100
AcDbVertex
100
AcDb2dVertex
 10
8.6539390029
 20
6.7561483076
 30
0.0
  0
VERTEX
  5
578
330
29C
100
AcDbEntity
  8
0
  6
CONTINUOUS
 62
     7
100
AcDbVertex
100
AcDb2dVertex
 10
8.6681505101
 20
6.7627830899
 30
0.0
  0
VERTEX
  5
579
330
29C
100
AcDbEntity
  8
0
  6
CONTINUOUS
 62
     7
100
AcDbVertex
100
AcDb2dVertex
 10
8.682168109
 20
6.7677508389
 30
0.0
  0
VERTEX
  5
57A
330
29C
100
AcDbEntity
  8
0
  6
CONTINUOUS
 62
     7
100
AcDbVertex
100
AcDb2dVertex
 10
8.6958644848
 20
6.7710064348
 30
0.0
  0
VERTEX
  5
57B
330
29C
100
AcDbEntity
  8
0
  6
CONTINUOUS
 62
     7
100
AcDbVertex
100
AcDb2dVertex
 10
8.7091152402
 20
6.7725203088
 30
0.0
  0
VERTEX
  5
57C
330
29C
100
AcDbEntity
  8
0
  6
CONTINUOUS
 62
     7
100
AcDbVertex
100
AcDb2dVertex
 10
8.7218000252
 20
6.7722787111
 30
0.0
  0
VERTEX
  5
57D
330
29C
100
AcDbEntity
  8
0
  6
CONTINUOUS
 62
     7
100
AcDbVertex
100
AcDb2dVertex
 10
8.7338036305
 20
6.770283836
 30
0.0
  0
VERTEX
  5
57E
330
29C
100
AcDbEntity
  8
0
  6
CONTINUOUS
 62
     7
100
AcDbVertex
100
AcDb2dVertex
 10
8.7450170332
 20
6.766553802
 30
0.0
  0
VERTEX
  5
57F
330
29C
100
AcDbEntity
  8
0
  6
CONTINUOUS
 62
     7
100
AcDbVertex
100
AcDb2dVertex
 10
8.7553383878
 20
6.761122487
 30
0.0
  0
VERTEX
  5
580
330
29C
100
AcDbEntity
  8
0
  6
CONTINUOUS
 62
     7
100
AcDbVertex
100
AcDb2dVertex
 10
8.7646739505
 20
6.7540392211
 30
0.0
  0
VERTEX
  5
581
330
29C
100
AcDbEntity
  8
0
  6
CONTINUOUS
 62
     7
100
AcDbVertex
100
AcDb2dVertex
 10
8.7729389311
 20
6.7453683378
 30
0.0
  0
VERTEX
  5
582
330
29C
100
AcDbEntity
  8
0
  6
CONTINUOUS
 62
     7
100
AcDbVertex
100
AcDb2dVertex
 10
8.7800582631
 20
6.7351885905
 30
0.0
  0
VERTEX
  5
583
330
29C
100
AcDbEntity
  8
0
  6
CONTINUOUS
 62
     7
100
AcDbVertex
100
AcDb2dVertex
 10
8.785967285
 20
6.7235924367
 30
0.0
  0
VERTEX
  5
584
330
29C
100
AcDbEntity
  8
0
  6
CONTINUOUS
 62
     7
100
AcDbVertex
100
AcDb2dVertex
 10
8.7906123284
 20
6.7106851983
 30
0.0
  0
VERTEX
  5
585
330
29C
100
AcDbEntity
  8
0
  6
CONTINUOUS
 62
     7
100
AcDbVertex
100
AcDb2dVertex
 10
8.7939512044
 20
6.6965841054
 30
0.0
  0
VERTEX
  5
586
330
29C
100
AcDbEntity
  8
0
  6
CONTINUOUS
 62
     7
100
AcDbVertex
100
AcDb2dVertex
 10
8.7959535879
 20
6.6814172309
 30
0.0
  0
SEQEND
  5
587
330
29C
100
AcDbEntity
  8
0
  6
CONTINUOUS
 62
     7
  0
LINE
  5
29D
330
1F
100
AcDbEntity
  8
0
  6
CONTINUOUS
 62
     7
100
AcDbLine
 10
8.2456338708
 20
6.3637244205
 30
0.0
 11
8.4976480783
 21
6.5092091258
 31
0.0
  0
LINE
  5
29E
330
1F
100
AcDbEntity
  8
0
  6
CONTINUOUS
 62
     7
100
AcDbLine
 10
8.2456338708
 20
6.3315771445
 30
0.0
 11
8.4976480783
 21
6.4770618497
 31
0.0
  0
POLYLINE
  5
29F
330
1F
100
AcDbEntity
  8
0
  6
CONTINUOUS
 62
     7
100
AcDb2dPolyline
 66
     1
 10
0.0
 20
0.0
 30
0.0
  0
VERTEX
  5
588
330
29F
100
AcDbEntity
  8
0
  6
CONTINUOUS
 62
     7
100
AcDbVertex
100
AcDb2dVertex
 10
8.7959535879
 20
6.6492699549
 30
0.0
  0
VERTEX
  5
589
330
29F
100
AcDbEntity
  8
0
  6
CONTINUOUS
 62
     7
100
AcDbVertex
100
AcDb2dVertex
 10
8.7939512044
 20
6.6317911777
 30
0.0
  0
VERTEX
  5
58A
330
29F
100
AcDbEntity
  8
0
  6
CONTINUOUS
 62
     7
100
AcDbVertex
100
AcDb2dVertex
 10
8.7906123284
 20
6.6138351005
 30
0.0
  0
VERTEX
  5
58B
330
29F
100
AcDbEntity
  8
0
  6
CONTINUOUS
 62
     7
100
AcDbVertex
100
AcDb2dVertex
 10
8.785967285
 20
6.5955648093
 30
0.0
  0
VERTEX
  5
58C
330
29F
100
AcDbEntity
  8
0
  6
CONTINUOUS
 62
     7
100
AcDbVertex
100
AcDb2dVertex
 10
8.7800582631
 20
6.5771462439
 30
0.0
  0
VERTEX
  5
58D
330
29F
100
AcDbEntity
  8
0
  6
CONTINUOUS
 62
     7
100
AcDbVertex
100
AcDb2dVertex
 10
8.7729389311
 20
6.5587466909
 30
0.0
  0
VERTEX
  5
58E
330
29F
100
AcDbEntity
  8
0
  6
CONTINUOUS
 62
     7
100
AcDbVertex
100
AcDb2dVertex
 10
8.7646739505
 20
6.5405332641
 30
0.0
  0
VERTEX
  5
58F
330
29F
100
AcDbEntity
  8
0
  6
CONTINUOUS
 62
     7
100
AcDbVertex
100
AcDb2dVertex
 10
8.7553383878
 20
6.5226713869
 30
0.0
  0
VERTEX
  5
590
330
29F
100
AcDbEntity
  8
0
  6
CONTINUOUS
 62
     7
100
AcDbVertex
100
AcDb2dVertex
 10
8.7450170332
 20
6.5053232896
 30
0.0
  0
VERTEX
  5
591
330
29F
100
AcDbEntity
  8
0
  6
CONTINUOUS
 62
     7
100
AcDbVertex
100
AcDb2dVertex
 10
8.7338036305
 20
6.4886465364
 30
0.0
  0
VERTEX
  5
592
330
29F
100
AcDbEntity
  8
0
  6
CONTINUOUS
 62
     7
100
AcDbVertex
100
AcDb2dVertex
 10
8.7218000252
 20
6.4727925937
 30
0.0
  0
VERTEX
  5
593
330
29F
100
AcDbEntity
  8
0
  6
CONTINUOUS
 62
     7
100
AcDbVertex
100
AcDb2dVertex
 10
8.7091152402
 20
6.4579054549
 30
0.0
  0
VERTEX
  5
594
330
29F
100
AcDbEntity
  8
0
  6
CONTINUOUS
 62
     7
100
AcDbVertex
100
AcDb2dVertex
 10
8.6958644848
 20
6.4441203324
 30
0.0
  0
VERTEX
  5
595
330
29F
100
AcDbEntity
  8
0
  6
CONTINUOUS
 62
     7
100
AcDbVertex
100
AcDb2dVertex
 10
8.682168109
 20
6.4315624294
 30
0.0
  0
VERTEX
  5
596
330
29F
100
AcDbEntity
  8
0
  6
CONTINUOUS
 62
     7
100
AcDbVertex
100
AcDb2dVertex
 10
8.6681505101
 20
6.4203458032
 30
0.0
  0
VERTEX
  5
597
330
29F
100
AcDbEntity
  8
0
  6
CONTINUOUS
 62
     7
100
AcDbVertex
100
AcDb2dVertex
 10
8.6539390029
 20
6.4105723286
 30
0.0
  0
VERTEX
  5
598
330
29F
100
AcDbEntity
  8
0
  6
CONTINUOUS
 62
     7
100
AcDbVertex
100
AcDb2dVertex
 10
8.6396626633
 20
6.4023307731
 30
0.0
  0
VERTEX
  5
599
330
29F
100
AcDbEntity
  8
0
  6
CONTINUOUS
 62
     7
100
AcDbVertex
100
AcDb2dVertex
 10
8.6254511561
 20
6.3956959907
 30
0.0
  0
VERTEX
  5
59A
330
29F
100
AcDbEntity
  8
0
  6
CONTINUOUS
 62
     7
100
AcDbVertex
100
AcDb2dVertex
 10
8.6114335572
 20
6.3907282418
 30
0.0
  0
VERTEX
  5
59B
330
29F
100
AcDbEntity
  8
0
  6
CONTINUOUS
 62
     7
100
AcDbVertex
100
AcDb2dVertex
 10
8.5977371814
 20
6.3874726459
 30
0.0
  0
VERTEX
  5
59C
330
29F
100
AcDbEntity
  8
0
  6
CONTINUOUS
 62
     7
100
AcDbVertex
100
AcDb2dVertex
 10
8.584486426
 20
6.3859587719
 30
0.0
  0
VERTEX
  5
59D
330
29F
100
AcDbEntity
  8
0
  6
CONTINUOUS
 62
     7
100
AcDbVertex
100
AcDb2dVertex
 10
8.571801641
 20
6.3862003696
 30
0.0
  0
VERTEX
  5
59E
330
29F
100
AcDbEntity
  8
0
  6
CONTINUOUS
 62
     7
100
AcDbVertex
100
AcDb2dVertex
 10
8.5597980357
 20
6.3881952447
 30
0.0
  0
VERTEX
  5
59F
330
29F
100
AcDbEntity
  8
0
  6
CONTINUOUS
 62
     7
100
AcDbVertex
100
AcDb2dVertex
 10
8.548584633
 20
6.3919252787
 30
0.0
  0
VERTEX
  5
5A0
330
29F
100
AcDbEntity
  8
0
  6
CONTINUOUS
 62
     7
100
AcDbVertex
100
AcDb2dVertex
 10
8.5382632785
 20
6.3973565937
 30
0.0
  0
VERTEX
  5
5A1
330
29F
100
AcDbEntity
  8
0
  6
CONTINUOUS
 62
     7
100
AcDbVertex
100
AcDb2dVertex
 10
8.5289277157
 20
6.4044398596
 30
0.0
  0
VERTEX
  5
5A2
330
29F
100
AcDbEntity
  8
0
  6
CONTINUOUS
 62
     7
100
AcDbVertex
100
AcDb2dVertex
 10
8.5206627351
 20
6.4131107429
 30
0.0
  0
VERTEX
  5
5A3
330
29F
100
AcDbEntity
  8
0
  6
CONTINUOUS
 62
     7
100
AcDbVertex
100
AcDb2dVertex
 10
8.5135434031
 20
6.4232904902
 30
0.0
  0
VERTEX
  5
5A4
330
29F
100
AcDbEntity
  8
0
  6
CONTINUOUS
 62
     7
100
AcDbVertex
100
AcDb2dVertex
 10
8.5076343812
 20
6.434886644
 30
0.0
  0
VERTEX
  5
5A5
330
29F
100
AcDbEntity
  8
0
  6
CONTINUOUS
 62
     7
100
AcDbVertex
100
AcDb2dVertex
 10
8.5029893378
 20
6.4477938824
 30
0.0
  0
VERTEX
  5
5A6
330
29F
100
AcDbEntity
  8
0
  6
CONTINUOUS
 62
     7
100
AcDbVertex
100
AcDb2dVertex
 10
8.4996504618
 20
6.4618949753
 30
0.0
  0
VERTEX
  5
5A7
330
29F
100
AcDbEntity
  8
0
  6
CONTINUOUS
 62
     7
100
AcDbVertex
100
AcDb2dVertex
 10
8.4976480783
 20
6.4770618497
 30
0.0
  0
SEQEND
  5
5A8
330
29F
100
AcDbEntity
  8
0
  6
CONTINUOUS
 62
     7
  0
LINE
  5
2A0
330
1F
100
AcDbEntity
  8
0
  6
CONTINUOUS
 62
     7
100
AcDbLine
 10
8.7959535879
 20
6.6492699549
 30
0.0
 11
9.0425115217
 21
6.7916048204
 31
0.0
  0
LINE
  5
2A1
330
1F
100
AcDbEntity
  8
0
  6
CONTINUOUS
 62
     7
100
AcDbLine
 10
8.5605653565
 20
7.2588695315
 30
0.0
 11
8.5605653565
 21
7.2795855989
 31
0.0
  0
SPLINE
  5
2A2
330
1F
100
AcDbEntity
  8
0
  6
CONTINUOUS
 62
     7
100
AcDbSpline
210
0.0
220
0.0
230
1.0
 70
     8
 71
     3
 72
     8
 73
     4
 74
     0
 42
0.00000001
 43
0.00000001
 40
0.0
 40
0.0
 40
0.0
 40
0.0
 40
1.0
 40
1.0
 40
1.0
 40
1.0
 10
8.497648078289297
 20
6.477061849736423
 30
0.0
 10
8.497663443370735
 20
6.481153440495816
 30
0.0
 10
8.497679894870727
 20
6.485245030380848
 30
0.0
 10
8.497697703042522
 20
6.489336619174017
 30
0.0
  0
LINE
  5
2A3
330
1F
100
AcDbEntity
  8
0
  6
CONTINUOUS
 62
     7
100
AcDbLine
 10
8.4804609301
 20
6.4992871964
 30
0.0
 11
8.497697703
 21
6.4893366192
 31
0.0
  0
LINE
  5
2A4
330
1F
100
AcDbEntity
  8
0
  6
CONTINUOUS
 62
     7
100
AcDbLine
 10
8.0063479851
 20
6.4896079209
 30
0.0
 11
7.9785046105
 21
6.4735342828
 31
0.0
  0
SPLINE
  5
2A5
330
1F
100
AcDbEntity
  8
0
  6
CONTINUOUS
 62
     7
100
AcDbSpline
210
0.0
220
0.0
230
1.0
 70
     8
 71
     3
 72
     8
 73
     4
 74
     0
 42
0.00000001
 43
0.00000001
 40
0.0
 40
0.0
 40
0.0
 40
0.0
 40
1.0
 40
1.0
 40
1.0
 40
1.0
 10
8.77469075972501
 20
6.681388583188324
 30
0.0
 10
8.781778367356026
 20
6.681398863627076
 30
0.0
 10
8.788865976877851
 20
6.681408360875868
 30
0.0
 10
8.795953587913832
 20
6.681417230948576
 30
0.0
  0
ARC
  5
2A6
330
1F
100
AcDbEntity
  8
0
  6
CONTINUOUS
 62
     7
100
AcDbCircle
 10
8.6909890568
 20
6.6815655119
 30
0.0
 40
0.0837018899483535
100
AcDbArc
 50
359.8788882962
 51
126.3507584384
  0
LINE
  5
2A7
330
1F
100
AcDbEntity
  8
0
  6
CONTINUOUS
 62
     7
100
AcDbLine
 10
8.7746907597
 20
6.6813885832
 30
0.0
 11
8.6500911464
 21
6.7533184089
 31
0.0
  0
POLYLINE
  5
2A8
330
1F
100
AcDbEntity
  8
0
  6
CONTINUOUS
 62
     7
100
AcDb2dPolyline
 66
     1
 10
0.0
 20
0.0
 30
0.0
  0
VERTEX
  5
5A9
330
2A8
100
AcDbEntity
  8
0
  6
CONTINUOUS
 62
     7
100
AcDbVertex
100
AcDb2dVertex
 10
8.497697703
 20
6.4893366192
 30
0.0
  0
VERTEX
  5
5AA
330
2A8
100
AcDbEntity
  8
0
  6
CONTINUOUS
 62
     7
100
AcDbVertex
100
AcDb2dVertex
 10
8.4998187454
 20
6.4744508674
 30
0.0
  0
VERTEX
  5
5AB
330
2A8
100
AcDbEntity
  8
0
  6
CONTINUOUS
 62
     7
100
AcDbVertex
100
AcDb2dVertex
 10
8.5033414204
 20
6.4607050383
 30
0.0
  0
VERTEX
  5
5AC
330
2A8
100
AcDbEntity
  8
0
  6
CONTINUOUS
 62
     7
100
AcDbVertex
100
AcDb2dVertex
 10
8.5082295228
 20
6.4482404079
 30
0.0
  0
VERTEX
  5
5AD
330
2A8
100
AcDbEntity
  8
0
  6
CONTINUOUS
 62
     7
100
AcDbVertex
100
AcDb2dVertex
 10
8.514432814
 20
6.4371850845
 30
0.0
  0
VERTEX
  5
5AE
330
2A8
100
AcDbEntity
  8
0
  6
CONTINUOUS
 62
     7
100
AcDbVertex
100
AcDb2dVertex
 10
8.5218875381
 20
6.4276526921
 30
0.0
  0
VERTEX
  5
5AF
330
2A8
100
AcDbEntity
  8
0
  6
CONTINUOUS
 62
     7
100
AcDbVertex
100
AcDb2dVertex
 10
8.5305170773
 20
6.419741202
 30
0.0
  0
VERTEX
  5
5B0
330
2A8
100
AcDbEntity
  8
0
  6
CONTINUOUS
 62
     7
100
AcDbVertex
100
AcDb2dVertex
 10
8.5402327395
 20
6.4135319265
 30
0.0
  0
VERTEX
  5
5B1
330
2A8
100
AcDbEntity
  8
0
  6
CONTINUOUS
 62
     7
100
AcDbVertex
100
AcDb2dVertex
 10
8.5509346695
 20
6.4090886831
 30
0.0
  0
VERTEX
  5
5B2
330
2A8
100
AcDbEntity
  8
0
  6
CONTINUOUS
 62
     7
100
AcDbVertex
100
AcDb2dVertex
 10
8.5625128756
 20
6.4064571382
 30
0.0
  0
VERTEX
  5
5B3
330
2A8
100
AcDbEntity
  8
0
  6
CONTINUOUS
 62
     7
100
AcDbVertex
100
AcDb2dVertex
 10
8.5748483599
 20
6.4056643382
 30
0.0
  0
VERTEX
  5
5B4
330
2A8
100
AcDbEntity
  8
0
  6
CONTINUOUS
 62
     7
100
AcDbVertex
100
AcDb2dVertex
 10
8.5878143416
 20
6.4067184313
 30
0.0
  0
VERTEX
  5
5B5
330
2A8
100
AcDbEntity
  8
0
  6
CONTINUOUS
 62
     7
100
AcDbVertex
100
AcDb2dVertex
 10
8.6012775594
 20
6.4096085838
 30
0.0
  0
VERTEX
  5
5B6
330
2A8
100
AcDbEntity
  8
0
  6
CONTINUOUS
 62
     7
100
AcDbVertex
100
AcDb2dVertex
 10
8.615099642
 20
6.4143050914
 30
0.0
  0
VERTEX
  5
5B7
330
2A8
100
AcDbEntity
  8
0
  6
CONTINUOUS
 62
     7
100
AcDbVertex
100
AcDb2dVertex
 10
8.6291385293
 20
6.4207596846
 30
0.0
  0
VERTEX
  5
5B8
330
2A8
100
AcDbEntity
  8
0
  6
CONTINUOUS
 62
     7
100
AcDbVertex
100
AcDb2dVertex
 10
8.6432499334
 20
6.4289060248
 30
0.0
  0
VERTEX
  5
5B9
330
2A8
100
AcDbEntity
  8
0
  6
CONTINUOUS
 62
     7
100
AcDbVertex
100
AcDb2dVertex
 10
8.6572888208
 20
6.4386603859
 30
0.0
  0
VERTEX
  5
5BA
330
2A8
100
AcDbEntity
  8
0
  6
CONTINUOUS
 62
     7
100
AcDbVertex
100
AcDb2dVertex
 10
8.6711109033
 20
6.4499225151
 30
0.0
  0
VERTEX
  5
5BB
330
2A8
100
AcDbEntity
  8
0
  6
CONTINUOUS
 62
     7
100
AcDbVertex
100
AcDb2dVertex
 10
8.6845741212
 20
6.4625766631
 30
0.0
  0
VERTEX
  5
5BC
330
2A8
100
AcDbEntity
  8
0
  6
CONTINUOUS
 62
     7
100
AcDbVertex
100
AcDb2dVertex
 10
8.6975401028
 20
6.4764927737
 30
0.0
  0
VERTEX
  5
5BD
330
2A8
100
AcDbEntity
  8
0
  6
CONTINUOUS
 62
     7
100
AcDbVertex
100
AcDb2dVertex
 10
8.7098755872
 20
6.4915278208
 30
0.0
  0
VERTEX
  5
5BE
330
2A8
100
AcDbEntity
  8
0
  6
CONTINUOUS
 62
     7
100
AcDbVertex
100
AcDb2dVertex
 10
8.7214537933
 20
6.5075272779
 30
0.0
  0
VERTEX
  5
5BF
330
2A8
100
AcDbEntity
  8
0
  6
CONTINUOUS
 62
     7
100
AcDbVertex
100
AcDb2dVertex
 10
8.7321557233
 20
6.5243267067
 30
0.0
  0
VERTEX
  5
5C0
330
2A8
100
AcDbEntity
  8
0
  6
CONTINUOUS
 62
     7
100
AcDbVertex
100
AcDb2dVertex
 10
8.7418713855
 20
6.5417534469
 30
0.0
  0
VERTEX
  5
5C1
330
2A8
100
AcDbEntity
  8
0
  6
CONTINUOUS
 62
     7
100
AcDbVertex
100
AcDb2dVertex
 10
8.7505009247
 20
6.559628391
 30
0.0
  0
VERTEX
  5
5C2
330
2A8
100
AcDbEntity
  8
0
  6
CONTINUOUS
 62
     7
100
AcDbVertex
100
AcDb2dVertex
 10
8.7579556488
 20
6.5777678247
 30
0.0
  0
VERTEX
  5
5C3
330
2A8
100
AcDbEntity
  8
0
  6
CONTINUOUS
 62
     7
100
AcDbVertex
100
AcDb2dVertex
 10
8.7641589399
 20
6.5959853155
 30
0.0
  0
VERTEX
  5
5C4
330
2A8
100
AcDbEntity
  8
0
  6
CONTINUOUS
 62
     7
100
AcDbVertex
100
AcDb2dVertex
 10
8.7690470424
 20
6.6140936288
 30
0.0
  0
VERTEX
  5
5C5
330
2A8
100
AcDbEntity
  8
0
  6
CONTINUOUS
 62
     7
100
AcDbVertex
100
AcDb2dVertex
 10
8.7725697173
 20
6.6319066519
 30
0.0
  0
VERTEX
  5
5C6
330
2A8
100
AcDbEntity
  8
0
  6
CONTINUOUS
 62
     7
100
AcDbVertex
100
AcDb2dVertex
 10
8.7746907597
 20
6.6492413071
 30
0.0
  0
SEQEND
  5
5C7
330
2A8
100
AcDbEntity
  8
0
  6
CONTINUOUS
 62
     7
  0
SPLINE
  5
2A9
330
1F
100
AcDbEntity
  8
0
  6
CONTINUOUS
 62
     7
100
AcDbSpline
210
0.0
220
0.0
230
1.0
 70
     8
 71
     3
 72
     8
 73
     4
 74
     0
 42
0.00000001
 43
0.00000001
 40
0.0
 40
0.0
 40
0.0
 40
0.0
 40
1.0
 40
1.0
 40
1.0
 40
1.0
 10
8.77469075972501
 20
6.649241307129829
 30
0.0
 10
8.781778367356026
 20
6.649251587568583
 30
0.0
 10
8.788865976877851
 20
6.649261084817374
 30
0.0
 10
8.795953587913832
 20
6.649269954890082
 30
0.0
  0
LINE
  5
2AA
330
1F
100
AcDbEntity
  8
0
  6
CONTINUOUS
 62
     7
100
AcDbLine
 10
8.7746907597
 20
6.6492413071
 30
0.0
 11
8.6233912101
 21
6.736584678
 31
0.0
  0
POLYLINE
  5
2AB
330
1F
100
AcDbEntity
  8
0
  6
CONTINUOUS
 62
     7
100
AcDb2dPolyline
 66
     1
 10
0.0
 20
0.0
 30
0.0
  0
VERTEX
  5
5C8
330
2AB
100
AcDbEntity
  8
0
  6
CONTINUOUS
 62
     7
100
AcDbVertex
100
AcDb2dVertex
 10
9.0425115217
 20
6.7916048204
 30
0.0
  0
VERTEX
  5
5C9
330
2AB
100
AcDbEntity
  8
0
  6
CONTINUOUS
 62
     7
100
AcDbVertex
100
AcDb2dVertex
 10
9.0226247521
 20
6.8022570635
 30
0.0
  0
VERTEX
  5
5CA
330
2AB
100
AcDbEntity
  8
0
  6
CONTINUOUS
 62
     7
100
AcDbVertex
100
AcDb2dVertex
 10
9.0131525511
 20
6.8068035235
 30
0.0
  0
SEQEND
  5
5CB
330
2AB
100
AcDbEntity
  8
0
  6
CONTINUOUS
 62
     7
  0
POLYLINE
  5
2AC
330
1F
100
AcDbEntity
  8
0
  6
CONTINUOUS
 62
     7
100
AcDb2dPolyline
 66
     1
 10
0.0
 20
0.0
 30
0.0
  0
VERTEX
  5
5CC
330
2AC
100
AcDbEntity
  8
0
  6
CONTINUOUS
 62
     7
100
AcDbVertex
100
AcDb2dVertex
 10
8.1661841285
 20
6.8171155169
 30
0.0
  0
VERTEX
  5
5CD
330
2AC
100
AcDbEntity
  8
0
  6
CONTINUOUS
 62
     7
100
AcDbVertex
100
AcDb2dVertex
 10
8.1775496574
 20
6.8113459941
 30
0.0
  0
VERTEX
  5
5CE
330
2AC
100
AcDbEntity
  8
0
  6
CONTINUOUS
 62
     7
100
AcDbVertex
100
AcDb2dVertex
 10
8.1900999041
 20
6.8064628641
 30
0.0
  0
VERTEX
  5
5CF
330
2AC
100
AcDbEntity
  8
0
  6
CONTINUOUS
 62
     7
100
AcDbVertex
100
AcDb2dVertex
 10
8.2036287939
 20
6.8025463078
 30
0.0
  0
VERTEX
  5
5D0
330
2AC
100
AcDbEntity
  8
0
  6
CONTINUOUS
 62
     7
100
AcDbVertex
100
AcDb2dVertex
 10
8.2179141827
 20
6.7996606348
 30
0.0
  0
VERTEX
  5
5D1
330
2AC
100
AcDbEntity
  8
0
  6
CONTINUOUS
 62
     7
100
AcDbVertex
100
AcDb2dVertex
 10
8.2327215049
 20
6.797853228
 30
0.0
  0
VERTEX
  5
5D2
330
2AC
100
AcDbEntity
  8
0
  6
CONTINUOUS
 62
     7
100
AcDbVertex
100
AcDb2dVertex
 10
8.2478076246
 20
6.7971537648
 30
0.0
  0
VERTEX
  5
5D3
330
2AC
100
AcDbEntity
  8
0
  6
CONTINUOUS
 62
     7
100
AcDbVertex
100
AcDb2dVertex
 10
8.2629248282
 20
6.7975737304
 30
0.0
  0
VERTEX
  5
5D4
330
2AC
100
AcDbEntity
  8
0
  6
CONTINUOUS
 62
     7
100
AcDbVertex
100
AcDb2dVertex
 10
8.2778248916
 20
6.799106229
 30
0.0
  0
VERTEX
  5
5D5
330
2AC
100
AcDbEntity
  8
0
  6
CONTINUOUS
 62
     7
100
AcDbVertex
100
AcDb2dVertex
 10
8.2922631561
 20
6.801726097
 30
0.0
  0
VERTEX
  5
5D6
330
2AC
100
AcDbEntity
  8
0
  6
CONTINUOUS
 62
     7
100
AcDbVertex
100
AcDb2dVertex
 10
8.306002546
 20
6.8053903163
 30
0.0
  0
VERTEX
  5
5D7
330
2AC
100
AcDbEntity
  8
0
  6
CONTINUOUS
 62
     7
100
AcDbVertex
100
AcDb2dVertex
 10
8.3188174607
 20
6.8100387205
 30
0.0
  0
VERTEX
  5
5D8
330
2AC
100
AcDbEntity
  8
0
  6
CONTINUOUS
 62
     7
100
AcDbVertex
100
AcDb2dVertex
 10
8.3304974798
 20
6.8155949828
 30
0.0
  0
VERTEX
  5
5D9
330
2AC
100
AcDbEntity
  8
0
  6
CONTINUOUS
 62
     7
100
AcDbVertex
100
AcDb2dVertex
 10
8.3408508176
 20
6.8219678697
 30
0.0
  0
VERTEX
  5
5DA
330
2AC
100
AcDbEntity
  8
0
  6
CONTINUOUS
 62
     7
100
AcDbVertex
100
AcDb2dVertex
 10
8.3497074726
 20
6.8290527384
 30
0.0
  0
VERTEX
  5
5DB
330
2AC
100
AcDbEntity
  8
0
  6
CONTINUOUS
 62
     7
100
AcDbVertex
100
AcDb2dVertex
 10
8.3569220188
 20
6.8367332557
 30
0.0
  0
VERTEX
  5
5DC
330
2AC
100
AcDbEntity
  8
0
  6
CONTINUOUS
 62
     7
100
AcDbVertex
100
AcDb2dVertex
 10
8.3623759936
 20
6.8448833077
 30
0.0
  0
VERTEX
  5
5DD
330
2AC
100
AcDbEntity
  8
0
  6
CONTINUOUS
 62
     7
100
AcDbVertex
100
AcDb2dVertex
 10
8.3659798428
 20
6.8533690708
 30
0.0
  0
VERTEX
  5
5DE
330
2AC
100
AcDbEntity
  8
0
  6
CONTINUOUS
 62
     7
100
AcDbVertex
100
AcDb2dVertex
 10
8.3676743912
 20
6.8620512088
 30
0.0
  0
VERTEX
  5
5DF
330
2AC
100
AcDbEntity
  8
0
  6
CONTINUOUS
 62
     7
100
AcDbVertex
100
AcDb2dVertex
 10
8.3674318146
 20
6.8707871615
 30
0.0
  0
VERTEX
  5
5E0
330
2AC
100
AcDbEntity
  8
0
  6
CONTINUOUS
 62
     7
100
AcDbVertex
100
AcDb2dVertex
 10
8.365256096
 20
6.8794334846
 30
0.0
  0
VERTEX
  5
5E1
330
2AC
100
AcDbEntity
  8
0
  6
CONTINUOUS
 62
     7
100
AcDbVertex
100
AcDb2dVertex
 10
8.3611829605
 20
6.8878482059
 30
0.0
  0
VERTEX
  5
5E2
330
2AC
100
AcDbEntity
  8
0
  6
CONTINUOUS
 62
     7
100
AcDbVertex
100
AcDb2dVertex
 10
8.3552792891
 20
6.8958931557
 30
0.0
  0
VERTEX
  5
5E3
330
2AC
100
AcDbEntity
  8
0
  6
CONTINUOUS
 62
     7
100
AcDbVertex
100
AcDb2dVertex
 10
8.3476420198
 20
6.9034362363
 30
0.0
  0
VERTEX
  5
5E4
330
2AC
100
AcDbEntity
  8
0
  6
CONTINUOUS
 62
     7
100
AcDbVertex
100
AcDb2dVertex
 10
8.3383965564
 20
6.9103535904
 30
0.0
  0
VERTEX
  5
5E5
330
2AC
100
AcDbEntity
  8
0
  6
CONTINUOUS
 62
     7
100
AcDbVertex
100
AcDb2dVertex
 10
8.327694709
 20
6.9165316354
 30
0.0
  0
VERTEX
  5
5E6
330
2AC
100
AcDbEntity
  8
0
  6
CONTINUOUS
 62
     7
100
AcDbVertex
100
AcDb2dVertex
 10
8.3157122019
 20
6.9218689278
 30
0.0
  0
VERTEX
  5
5E7
330
2AC
100
AcDbEntity
  8
0
  6
CONTINUOUS
 62
     7
100
AcDbVertex
100
AcDb2dVertex
 10
8.3026457873
 20
6.9262778295
 30
0.0
  0
VERTEX
  5
5E8
330
2AC
100
AcDbEntity
  8
0
  6
CONTINUOUS
 62
     7
100
AcDbVertex
100
AcDb2dVertex
 10
8.2887100155
 20
6.9296859465
 30
0.0
  0
VERTEX
  5
5E9
330
2AC
100
AcDbEntity
  8
0
  6
CONTINUOUS
 62
     7
100
AcDbVertex
100
AcDb2dVertex
 10
8.2741337114
 20
6.9320373175
 30
0.0
  0
VERTEX
  5
5EA
330
2AC
100
AcDbEntity
  8
0
  6
CONTINUOUS
 62
     7
100
AcDbVertex
100
AcDb2dVertex
 10
8.2591562176
 20
6.9332933332
 30
0.0
  0
VERTEX
  5
5EB
330
2AC
100
AcDbEntity
  8
0
  6
CONTINUOUS
 62
     7
100
AcDbVertex
100
AcDb2dVertex
 10
8.2440234641
 20
6.9334333697
 30
0.0
  0
VERTEX
  5
5EC
330
2AC
100
AcDbEntity
  8
0
  6
CONTINUOUS
 62
     7
100
AcDbVertex
100
AcDb2dVertex
 10
8.2289839302
 20
6.9324551277
 30
0.0
  0
VERTEX
  5
5ED
330
2AC
100
AcDbEntity
  8
0
  6
CONTINUOUS
 62
     7
100
AcDbVertex
100
AcDb2dVertex
 10
8.2142845648
 20
6.9303746698
 30
0.0
  0
VERTEX
  5
5EE
330
2AC
100
AcDbEntity
  8
0
  6
CONTINUOUS
 62
     7
100
AcDbVertex
100
AcDb2dVertex
 10
8.200166731
 20
6.9272261572
 30
0.0
  0
VERTEX
  5
5EF
330
2AC
100
AcDbEntity
  8
0
  6
CONTINUOUS
 62
     7
100
AcDbVertex
100
AcDb2dVertex
 10
8.1868622432
 20
6.9230612883
 30
0.0
  0
VERTEX
  5
5F0
330
2AC
100
AcDbEntity
  8
0
  6
CONTINUOUS
 62
     7
100
AcDbVertex
100
AcDb2dVertex
 10
8.1745895608
 20
6.9179484502
 30
0.0
  0
VERTEX
  5
5F1
330
2AC
100
AcDbEntity
  8
0
  6
CONTINUOUS
 62
     7
100
AcDbVertex
100
AcDb2dVertex
 10
8.1635502008
 20
6.9119715955
 30
0.0
  0
VERTEX
  5
5F2
330
2AC
100
AcDbEntity
  8
0
  6
CONTINUOUS
 62
     7
100
AcDbVertex
100
AcDb2dVertex
 10
8.1539254292
 20
6.9052288641
 30
0.0
  0
VERTEX
  5
5F3
330
2AC
100
AcDbEntity
  8
0
  6
CONTINUOUS
 62
     7
100
AcDbVertex
100
AcDb2dVertex
 10
8.1458732846
 20
6.8978309712
 30
0.0
  0
VERTEX
  5
5F4
330
2AC
100
AcDbEntity
  8
0
  6
CONTINUOUS
 62
     7
100
AcDbVertex
100
AcDb2dVertex
 10
8.1395259829
 20
6.8898993903
 30
0.0
  0
VERTEX
  5
5F5
330
2AC
100
AcDbEntity
  8
0
  6
CONTINUOUS
 62
     7
100
AcDbVertex
100
AcDb2dVertex
 10
8.1349877467
 20
6.8815643576
 30
0.0
  0
VERTEX
  5
5F6
330
2AC
100
AcDbEntity
  8
0
  6
CONTINUOUS
 62
     7
100
AcDbVertex
100
AcDb2dVertex
 10
8.1323330936
 20
6.8729627341
 30
0.0
  0
VERTEX
  5
5F7
330
2AC
100
AcDbEntity
  8
0
  6
CONTINUOUS
 62
     7
100
AcDbVertex
100
AcDb2dVertex
 10
8.131605613
 20
6.8642357582
 30
0.0
  0
VERTEX
  5
5F8
330
2AC
100
AcDbEntity
  8
0
  6
CONTINUOUS
 62
     7
100
AcDbVertex
100
AcDb2dVertex
 10
8.1328172501
 20
6.8555267267
 30
0.0
  0
VERTEX
  5
5F9
330
2AC
100
AcDbEntity
  8
0
  6
CONTINUOUS
 62
     7
100
AcDbVertex
100
AcDb2dVertex
 10
8.1359481098
 20
6.8469786415
 30
0.0
  0
VERTEX
  5
5FA
330
2AC
100
AcDbEntity
  8
0
  6
CONTINUOUS
 62
     7
100
AcDbVertex
100
AcDb2dVertex
 10
8.1409467835
 20
6.8387318621
 30
0.0
  0
VERTEX
  5
5FB
330
2AC
100
AcDbEntity
  8
0
  6
CONTINUOUS
 62
     7
100
AcDbVertex
100
AcDb2dVertex
 10
8.1477311932
 20
6.8309218003
 30
0.0
  0
VERTEX
  5
5FC
330
2AC
100
AcDbEntity
  8
0
  6
CONTINUOUS
 62
     7
100
AcDbVertex
100
AcDb2dVertex
 10
8.156189939
 20
6.8236766971
 30
0.0
  0
VERTEX
  5
5FD
330
2AC
100
AcDbEntity
  8
0
  6
CONTINUOUS
 62
     7
100
AcDbVertex
100
AcDb2dVertex
 10
8.1661841285
 20
6.8171155169
 30
0.0
  0
SEQEND
  5
5FE
330
2AC
100
AcDbEntity
  8
0
  6
CONTINUOUS
 62
     7
  0
ARC
  5
2AD
330
1F
100
AcDbEntity
  8
0
  6
CONTINUOUS
 62
     7
100
AcDbCircle
 10
8.2429635017
 20
6.8483199333
 30
0.0
 40
0.1907691182326468
100
AcDbArc
 50
241.6121587288
 51
266.4344849836
  0
ARC
  5
2AE
330
1F
100
AcDbEntity
  8
0
  6
CONTINUOUS
 62
     7
100
AcDbCircle
 10
8.1821523149
 20
6.7445392906
 30
0.0
 40
0.0706786084005132
100
AcDbArc
 50
186.3358312974
 51
244.9843096602
  0
LINE
  5
2AF
330
1F
100
AcDbEntity
  8
0
  6
CONTINUOUS
 62
     7
100
AcDbLine
 10
8.2673498009
 20
6.827304139
 30
0.0
 11
8.3155681029
 21
6.8551399723
 31
0.0
  0
LINE
  5
2B0
330
1F
100
AcDbEntity
  8
0
  6
CONTINUOUS
 62
     7
100
AcDbLine
 10
8.3155681029
 20
6.8551399723
 30
0.0
 11
8.2979189795
 21
6.8931644276
 31
0.0
  0
LINE
  5
2B1
330
1F
100
AcDbEntity
  8
0
  6
CONTINUOUS
 62
     7
100
AcDbLine
 10
8.2979189795
 20
6.8931644276
 30
0.0
 11
8.232051554
 21
6.9033530497
 31
0.0
  0
LINE
  5
2B2
330
1F
100
AcDbEntity
  8
0
  6
CONTINUOUS
 62
     7
100
AcDbLine
 10
8.232051554
 20
6.9033530497
 30
0.0
 11
8.183833252
 21
6.8755172165
 31
0.0
  0
LINE
  5
2B3
330
1F
100
AcDbEntity
  8
0
  6
CONTINUOUS
 62
     7
100
AcDbLine
 10
8.183833252
 20
6.8755172165
 30
0.0
 11
8.2014823754
 21
6.8374927611
 31
0.0
  0
LINE
  5
2B4
330
1F
100
AcDbEntity
  8
0
  6
CONTINUOUS
 62
     7
100
AcDbLine
 10
8.2014823754
 20
6.8374927611
 30
0.0
 11
8.2673498009
 21
6.827304139
 31
0.0
  0
LINE
  5
2B5
330
1F
100
AcDbEntity
  8
0
  6
CONTINUOUS
 62
     7
100
AcDbLine
 10
8.2979189795
 20
6.8449513501
 30
0.0
 11
8.2979189795
 21
6.8931644276
 31
0.0
  0
LINE
  5
2B6
330
1F
100
AcDbEntity
  8
0
  6
CONTINUOUS
 62
     7
100
AcDbLine
 10
8.232051554
 20
6.8327642051
 30
0.0
 11
8.232051554
 21
6.9033530497
 31
0.0
  0
ARC
  5
2B7
330
1F
100
AcDbEntity
  8
0
  6
CONTINUOUS
 62
     7
100
AcDbCircle
 10
7.992705216
 20
7.5567590658
 30
0.0
 40
0.0648867859150289
100
AcDbArc
 50
68.6408106894
 51
104.6972669705
  0
ARC
  5
2B8
330
1F
100
AcDbEntity
  8
0
  6
CONTINUOUS
 62
     7
100
AcDbCircle
 10
8.274828069
 20
7.3647411355
 30
0.0
 40
0.1739408625995988
100
AcDbArc
 50
100.1579950081
 51
146.4902842762
  0
ARC
  5
2B9
330
1F
100
AcDbEntity
  8
0
  6
CONTINUOUS
 62
     7
100
AcDbCircle
 10
7.7774825972
 20
6.5088148153
 30
0.0
 40
0.1711159021023885
100
AcDbArc
 50
153.0957834081
 51
200.2527183021
  0
ARC
  5
2BA
330
1F
100
AcDbEntity
  8
0
  6
CONTINUOUS
 62
     7
100
AcDbCircle
 10
7.6384774221
 20
6.5553711845
 30
0.0
 40
0.0844360719300194
100
AcDbArc
 50
177.4344377843
 51
209.4700788757
  0
ARC
  5
2BB
330
1F
100
AcDbEntity
  8
0
  6
CONTINUOUS
 62
     7
100
AcDbCircle
 10
7.7665304795
 20
6.5493423023
 30
0.0
 40
0.212630843075314
100
AcDbArc
 50
124.4664999008
 51
177.3560627163
  0
POLYLINE
  5
2BC
330
1F
100
AcDbEntity
  8
0
  6
CONTINUOUS
 62
     7
100
AcDb2dPolyline
 66
     1
 10
0.0
 20
0.0
 30
0.0
  0
VERTEX
  5
5FF
330
2BC
100
AcDbEntity
  8
0
  6
CONTINUOUS
 62
     7
100
AcDbVertex
100
AcDb2dVertex
 10
8.1178626897
 20
7.5918291043
 30
0.0
  0
VERTEX
  5
600
330
2BC
100
AcDbEntity
  8
0
  6
CONTINUOUS
 62
     7
100
AcDbVertex
100
AcDb2dVertex
 10
8.1467855099
 20
7.6077368284
 30
0.0
  0
VERTEX
  5
601
330
2BC
100
AcDbEntity
  8
0
  6
CONTINUOUS
 62
     7
100
AcDbVertex
100
AcDb2dVertex
 10
8.175643792
 20
7.6220309271
 30
0.0
  0
VERTEX
  5
602
330
2BC
100
AcDbEntity
  8
0
  6
CONTINUOUS
 62
     7
100
AcDbVertex
100
AcDb2dVertex
 10
8.2043731419
 20
7.6346795045
 30
0.0
  0
VERTEX
  5
603
330
2BC
100
AcDbEntity
  8
0
  6
CONTINUOUS
 62
     7
100
AcDbVertex
100
AcDb2dVertex
 10
8.2329094531
 20
7.6456543367
 30
0.0
  0
VERTEX
  5
604
330
2BC
100
AcDbEntity
  8
0
  6
CONTINUOUS
 62
     7
100
AcDbVertex
100
AcDb2dVertex
 10
8.2611890501
 20
7.6549309347
 30
0.0
  0
VERTEX
  5
605
330
2BC
100
AcDbEntity
  8
0
  6
CONTINUOUS
 62
     7
100
AcDbVertex
100
AcDb2dVertex
 10
8.2891488298
 20
7.6624885987
 30
0.0
  0
VERTEX
  5
606
330
2BC
100
AcDbEntity
  8
0
  6
CONTINUOUS
 62
     7
100
AcDbVertex
100
AcDb2dVertex
 10
8.3167264032
 20
7.6683104645
 30
0.0
  0
VERTEX
  5
607
330
2BC
100
AcDbEntity
  8
0
  6
CONTINUOUS
 62
     7
100
AcDbVertex
100
AcDb2dVertex
 10
8.3438602339
 20
7.6723835414
 30
0.0
  0
VERTEX
  5
608
330
2BC
100
AcDbEntity
  8
0
  6
CONTINUOUS
 62
     7
100
AcDbVertex
100
AcDb2dVertex
 10
8.3704897757
 20
7.6746987407
 30
0.0
  0
VERTEX
  5
609
330
2BC
100
AcDbEntity
  8
0
  6
CONTINUOUS
 62
     7
100
AcDbVertex
100
AcDb2dVertex
 10
8.3965556077
 20
7.6752508963
 30
0.0
  0
VERTEX
  5
60A
330
2BC
100
AcDbEntity
  8
0
  6
CONTINUOUS
 62
     7
100
AcDbVertex
100
AcDb2dVertex
 10
8.4219995668
 20
7.674038776
 30
0.0
  0
VERTEX
  5
60B
330
2BC
100
AcDbEntity
  8
0
  6
CONTINUOUS
 62
     7
100
AcDbVertex
100
AcDb2dVertex
 10
8.4467648777
 20
7.6710650847
 30
0.0
  0
VERTEX
  5
60C
330
2BC
100
AcDbEntity
  8
0
  6
CONTINUOUS
 62
     7
100
AcDbVertex
100
AcDb2dVertex
 10
8.4707962791
 20
7.6663364578
 30
0.0
  0
VERTEX
  5
60D
330
2BC
100
AcDbEntity
  8
0
  6
CONTINUOUS
 62
     7
100
AcDbVertex
100
AcDb2dVertex
 10
8.4940401477
 20
7.6598634467
 30
0.0
  0
VERTEX
  5
60E
330
2BC
100
AcDbEntity
  8
0
  6
CONTINUOUS
 62
     7
100
AcDbVertex
100
AcDb2dVertex
 10
8.5164446173
 20
7.6516604953
 30
0.0
  0
VERTEX
  5
60F
330
2BC
100
AcDbEntity
  8
0
  6
CONTINUOUS
 62
     7
100
AcDbVertex
100
AcDb2dVertex
 10
8.5379596947
 20
7.6417459074
 30
0.0
  0
VERTEX
  5
610
330
2BC
100
AcDbEntity
  8
0
  6
CONTINUOUS
 62
     7
100
AcDbVertex
100
AcDb2dVertex
 10
8.5585373715
 20
7.6301418066
 30
0.0
  0
VERTEX
  5
611
330
2BC
100
AcDbEntity
  8
0
  6
CONTINUOUS
 62
     7
100
AcDbVertex
100
AcDb2dVertex
 10
8.5781317307
 20
7.6168740859
 30
0.0
  0
VERTEX
  5
612
330
2BC
100
AcDbEntity
  8
0
  6
CONTINUOUS
 62
     7
100
AcDbVertex
100
AcDb2dVertex
 10
8.5966990498
 20
7.6019723509
 30
0.0
  0
VERTEX
  5
613
330
2BC
100
AcDbEntity
  8
0
  6
CONTINUOUS
 62
     7
100
AcDbVertex
100
AcDb2dVertex
 10
8.6029829279
 20
7.5963438784
 30
0.0
  0
SEQEND
  5
614
330
2BC
100
AcDbEntity
  8
0
  6
CONTINUOUS
 62
     7
  0
POLYLINE
  5
2BD
330
1F
100
AcDbEntity
  8
0
  6
CONTINUOUS
 62
     7
100
AcDb2dPolyline
 66
     1
 10
0.0
 20
0.0
 30
0.0
  0
VERTEX
  5
615
330
2BD
100
AcDbEntity
  8
0
  6
CONTINUOUS
 62
     7
100
AcDbVertex
100
AcDb2dVertex
 10
7.7440978501
 20
6.1085500803
 30
0.0
  0
VERTEX
  5
616
330
2BD
100
AcDbEntity
  8
0
  6
CONTINUOUS
 62
     7
100
AcDbVertex
100
AcDb2dVertex
 10
7.7303749022
 20
6.1132009024
 30
0.0
  0
VERTEX
  5
617
330
2BD
100
AcDbEntity
  8
0
  6
CONTINUOUS
 62
     7
100
AcDbVertex
100
AcDb2dVertex
 10
7.708409001
 20
6.1222621998
 30
0.0
  0
VERTEX
  5
618
330
2BD
100
AcDbEntity
  8
0
  6
CONTINUOUS
 62
     7
100
AcDbVertex
100
AcDb2dVertex
 10
7.6873567511
 20
6.1330245464
 30
0.0
  0
VERTEX
  5
619
330
2BD
100
AcDbEntity
  8
0
  6
CONTINUOUS
 62
     7
100
AcDbVertex
100
AcDb2dVertex
 10
7.6672651283
 20
6.1454639274
 30
0.0
  0
VERTEX
  5
61A
330
2BD
100
AcDbEntity
  8
0
  6
CONTINUOUS
 62
     7
100
AcDbVertex
100
AcDb2dVertex
 10
7.6481789649
 20
6.1595525854
 30
0.0
  0
VERTEX
  5
61B
330
2BD
100
AcDbEntity
  8
0
  6
CONTINUOUS
 62
     7
100
AcDbVertex
100
AcDb2dVertex
 10
7.6301408494
 20
6.1752590832
 30
0.0
  0
VERTEX
  5
61C
330
2BD
100
AcDbEntity
  8
0
  6
CONTINUOUS
 62
     7
100
AcDbVertex
100
AcDb2dVertex
 10
7.6131910322
 20
6.1925483735
 30
0.0
  0
VERTEX
  5
61D
330
2BD
100
AcDbEntity
  8
0
  6
CONTINUOUS
 62
     7
100
AcDbVertex
100
AcDb2dVertex
 10
7.5973673347
 20
6.2113818772
 30
0.0
  0
VERTEX
  5
61E
330
2BD
100
AcDbEntity
  8
0
  6
CONTINUOUS
 62
     7
100
AcDbVertex
100
AcDb2dVertex
 10
7.5827050659
 20
6.2317175692
 30
0.0
  0
VERTEX
  5
61F
330
2BD
100
AcDbEntity
  8
0
  6
CONTINUOUS
 62
     7
100
AcDbVertex
100
AcDb2dVertex
 10
7.569236943
 20
6.2535100728
 30
0.0
  0
VERTEX
  5
620
330
2BD
100
AcDbEntity
  8
0
  6
CONTINUOUS
 62
     7
100
AcDbVertex
100
AcDb2dVertex
 10
7.5569930186
 20
6.2767107602
 30
0.0
  0
VERTEX
  5
621
330
2BD
100
AcDbEntity
  8
0
  6
CONTINUOUS
 62
     7
100
AcDbVertex
100
AcDb2dVertex
 10
7.5460006139
 20
6.3012678618
 30
0.0
  0
VERTEX
  5
622
330
2BD
100
AcDbEntity
  8
0
  6
CONTINUOUS
 62
     7
100
AcDbVertex
100
AcDb2dVertex
 10
7.536284257
 20
6.327126581
 30
0.0
  0
VERTEX
  5
623
330
2BD
100
AcDbEntity
  8
0
  6
CONTINUOUS
 62
     7
100
AcDbVertex
100
AcDb2dVertex
 10
7.527865629
 20
6.3542292169
 30
0.0
  0
VERTEX
  5
624
330
2BD
100
AcDbEntity
  8
0
  6
CONTINUOUS
 62
     7
100
AcDbVertex
100
AcDb2dVertex
 10
7.5207635152
 20
6.382515293
 30
0.0
  0
VERTEX
  5
625
330
2BD
100
AcDbEntity
  8
0
  6
CONTINUOUS
 62
     7
100
AcDbVertex
100
AcDb2dVertex
 10
7.5149937631
 20
6.4119216919
 30
0.0
  0
VERTEX
  5
626
330
2BD
100
AcDbEntity
  8
0
  6
CONTINUOUS
 62
     7
100
AcDbVertex
100
AcDb2dVertex
 10
7.5105692473
 20
6.4423827964
 30
0.0
  0
VERTEX
  5
627
330
2BD
100
AcDbEntity
  8
0
  6
CONTINUOUS
 62
     7
100
AcDbVertex
100
AcDb2dVertex
 10
7.5074998406
 20
6.473830636
 30
0.0
  0
VERTEX
  5
628
330
2BD
100
AcDbEntity
  8
0
  6
CONTINUOUS
 62
     7
100
AcDbVertex
100
AcDb2dVertex
 10
7.5057923921
 20
6.5061950381
 30
0.0
  0
VERTEX
  5
629
330
2BD
100
AcDbEntity
  8
0
  6
CONTINUOUS
 62
     7
100
AcDbVertex
100
AcDb2dVertex
 10
7.5054507118
 20
6.5394037852
 30
0.0
  0
VERTEX
  5
62A
330
2BD
100
AcDbEntity
  8
0
  6
CONTINUOUS
 62
     7
100
AcDbVertex
100
AcDb2dVertex
 10
7.5064755621
 20
6.5733827756
 30
0.0
  0
VERTEX
  5
62B
330
2BD
100
AcDbEntity
  8
0
  6
CONTINUOUS
 62
     7
100
AcDbVertex
100
AcDb2dVertex
 10
7.5088646562
 20
6.6080561888
 30
0.0
  0
VERTEX
  5
62C
330
2BD
100
AcDbEntity
  8
0
  6
CONTINUOUS
 62
     7
100
AcDbVertex
100
AcDb2dVertex
 10
7.5126126629
 20
6.6433466549
 30
0.0
  0
VERTEX
  5
62D
330
2BD
100
AcDbEntity
  8
0
  6
CONTINUOUS
 62
     7
100
AcDbVertex
100
AcDb2dVertex
 10
7.5177112192
 20
6.6791754271
 30
0.0
  0
VERTEX
  5
62E
330
2BD
100
AcDbEntity
  8
0
  6
CONTINUOUS
 62
     7
100
AcDbVertex
100
AcDb2dVertex
 10
7.524148948
 20
6.7154625573
 30
0.0
  0
VERTEX
  5
62F
330
2BD
100
AcDbEntity
  8
0
  6
CONTINUOUS
 62
     7
100
AcDbVertex
100
AcDb2dVertex
 10
7.5319114844
 20
6.7521270749
 30
0.0
  0
VERTEX
  5
630
330
2BD
100
AcDbEntity
  8
0
  6
CONTINUOUS
 62
     7
100
AcDbVertex
100
AcDb2dVertex
 10
7.540981507
 20
6.7890871669
 30
0.0
  0
VERTEX
  5
631
330
2BD
100
AcDbEntity
  8
0
  6
CONTINUOUS
 62
     7
100
AcDbVertex
100
AcDb2dVertex
 10
7.5513387772
 20
6.8262603608
 30
0.0
  0
VERTEX
  5
632
330
2BD
100
AcDbEntity
  8
0
  6
CONTINUOUS
 62
     7
100
AcDbVertex
100
AcDb2dVertex
 10
7.5629601837
 20
6.8635637089
 30
0.0
  0
VERTEX
  5
633
330
2BD
100
AcDbEntity
  8
0
  6
CONTINUOUS
 62
     7
100
AcDbVertex
100
AcDb2dVertex
 10
7.5758197946
 20
6.9009139727
 30
0.0
  0
VERTEX
  5
634
330
2BD
100
AcDbEntity
  8
0
  6
CONTINUOUS
 62
     7
100
AcDbVertex
100
AcDb2dVertex
 10
7.5898889152
 20
6.9382278091
 30
0.0
  0
VERTEX
  5
635
330
2BD
100
AcDbEntity
  8
0
  6
CONTINUOUS
 62
     7
100
AcDbVertex
100
AcDb2dVertex
 10
7.6051361518
 20
6.9754219564
 30
0.0
  0
VERTEX
  5
636
330
2BD
100
AcDbEntity
  8
0
  6
CONTINUOUS
 62
     7
100
AcDbVertex
100
AcDb2dVertex
 10
7.6215274817
 20
7.01241342
 30
0.0
  0
VERTEX
  5
637
330
2BD
100
AcDbEntity
  8
0
  6
CONTINUOUS
 62
     7
100
AcDbVertex
100
AcDb2dVertex
 10
7.6390263296
 20
7.0491196574
 30
0.0
  0
VERTEX
  5
638
330
2BD
100
AcDbEntity
  8
0
  6
CONTINUOUS
 62
     7
100
AcDbVertex
100
AcDb2dVertex
 10
7.6575936486
 20
7.0854587626
 30
0.0
  0
VERTEX
  5
639
330
2BD
100
AcDbEntity
  8
0
  6
CONTINUOUS
 62
     7
100
AcDbVertex
100
AcDb2dVertex
 10
7.6771880079
 20
7.1213496489
 30
0.0
  0
VERTEX
  5
63A
330
2BD
100
AcDbEntity
  8
0
  6
CONTINUOUS
 62
     7
100
AcDbVertex
100
AcDb2dVertex
 10
7.6977656847
 20
7.1567122297
 30
0.0
  0
VERTEX
  5
63B
330
2BD
100
AcDbEntity
  8
0
  6
CONTINUOUS
 62
     7
100
AcDbVertex
100
AcDb2dVertex
 10
7.7192807621
 20
7.1914675972
 30
0.0
  0
VERTEX
  5
63C
330
2BD
100
AcDbEntity
  8
0
  6
CONTINUOUS
 62
     7
100
AcDbVertex
100
AcDb2dVertex
 10
7.7416852317
 20
7.2255381986
 30
0.0
  0
VERTEX
  5
63D
330
2BD
100
AcDbEntity
  8
0
  6
CONTINUOUS
 62
     7
100
AcDbVertex
100
AcDb2dVertex
 10
7.7649291003
 20
7.2588480091
 30
0.0
  0
VERTEX
  5
63E
330
2BD
100
AcDbEntity
  8
0
  6
CONTINUOUS
 62
     7
100
AcDbVertex
100
AcDb2dVertex
 10
7.7889605017
 20
7.2913227015
 30
0.0
  0
VERTEX
  5
63F
330
2BD
100
AcDbEntity
  8
0
  6
CONTINUOUS
 62
     7
100
AcDbVertex
100
AcDb2dVertex
 10
7.8137258125
 20
7.3228898121
 30
0.0
  0
VERTEX
  5
640
330
2BD
100
AcDbEntity
  8
0
  6
CONTINUOUS
 62
     7
100
AcDbVertex
100
AcDb2dVertex
 10
7.8391697717
 20
7.3534789022
 30
0.0
  0
VERTEX
  5
641
330
2BD
100
AcDbEntity
  8
0
  6
CONTINUOUS
 62
     7
100
AcDbVertex
100
AcDb2dVertex
 10
7.8652356037
 20
7.3830217157
 30
0.0
  0
VERTEX
  5
642
330
2BD
100
AcDbEntity
  8
0
  6
CONTINUOUS
 62
     7
100
AcDbVertex
100
AcDb2dVertex
 10
7.8918651455
 20
7.4114523309
 30
0.0
  0
VERTEX
  5
643
330
2BD
100
AcDbEntity
  8
0
  6
CONTINUOUS
 62
     7
100
AcDbVertex
100
AcDb2dVertex
 10
7.9189989762
 20
7.4387073081
 30
0.0
  0
VERTEX
  5
644
330
2BD
100
AcDbEntity
  8
0
  6
CONTINUOUS
 62
     7
100
AcDbVertex
100
AcDb2dVertex
 10
7.9465765496
 20
7.4647258308
 30
0.0
  0
VERTEX
  5
645
330
2BD
100
AcDbEntity
  8
0
  6
CONTINUOUS
 62
     7
100
AcDbVertex
100
AcDb2dVertex
 10
7.9745363293
 20
7.4894498414
 30
0.0
  0
VERTEX
  5
646
330
2BD
100
AcDbEntity
  8
0
  6
CONTINUOUS
 62
     7
100
AcDbVertex
100
AcDb2dVertex
 10
8.0028159263
 20
7.512824171
 30
0.0
  0
VERTEX
  5
647
330
2BD
100
AcDbEntity
  8
0
  6
CONTINUOUS
 62
     7
100
AcDbVertex
100
AcDb2dVertex
 10
8.0313522375
 20
7.5347966624
 30
0.0
  0
VERTEX
  5
648
330
2BD
100
AcDbEntity
  8
0
  6
CONTINUOUS
 62
     7
100
AcDbVertex
100
AcDb2dVertex
 10
8.0600815874
 20
7.5553182863
 30
0.0
  0
VERTEX
  5
649
330
2BD
100
AcDbEntity
  8
0
  6
CONTINUOUS
 62
     7
100
AcDbVertex
100
AcDb2dVertex
 10
8.0889398695
 20
7.574343251
 30
0.0
  0
VERTEX
  5
64A
330
2BD
100
AcDbEntity
  8
0
  6
CONTINUOUS
 62
     7
100
AcDbVertex
100
AcDb2dVertex
 10
8.1178626897
 20
7.5918291043
 30
0.0
  0
SEQEND
  5
64B
330
2BD
100
AcDbEntity
  8
0
  6
CONTINUOUS
 62
     7
  0
ARC
  5
2BE
330
1F
100
AcDbEntity
  8
0
  6
CONTINUOUS
 62
     7
100
AcDbCircle
 10
8.2030361085
 20
7.3709200449
 30
0.0
 40
0.1824744788124564
100
AcDbArc
 50
102.8307701965
 51
179.3194860428
  0
POLYLINE
  5
2BF
330
1F
100
AcDbEntity
  8
0
  6
CONTINUOUS
 62
     7
100
AcDb2dPolyline
 66
     1
 10
0.0
 20
0.0
 30
0.0
  0
VERTEX
  5
64C
330
2BF
100
AcDbEntity
  8
0
  6
CONTINUOUS
 62
     7
100
AcDbVertex
100
AcDb2dVertex
 10
7.6119170708
 20
6.1765579857
 30
0.0
  0
VERTEX
  5
64D
330
2BF
100
AcDbEntity
  8
0
  6
CONTINUOUS
 62
     7
100
AcDbVertex
100
AcDb2dVertex
 10
7.6042780606
 20
6.1811262721
 30
0.0
  0
VERTEX
  5
64E
330
2BF
100
AcDbEntity
  8
0
  6
CONTINUOUS
 62
     7
100
AcDbVertex
100
AcDb2dVertex
 10
7.5846837014
 20
6.1943939927
 30
0.0
  0
VERTEX
  5
64F
330
2BF
100
AcDbEntity
  8
0
  6
CONTINUOUS
 62
     7
100
AcDbVertex
100
AcDb2dVertex
 10
7.5661163824
 20
6.2092957277
 30
0.0
  0
VERTEX
  5
650
330
2BF
100
AcDbEntity
  8
0
  6
CONTINUOUS
 62
     7
100
AcDbVertex
100
AcDb2dVertex
 10
7.5486175345
 20
6.2257982253
 30
0.0
  0
VERTEX
  5
651
330
2BF
100
AcDbEntity
  8
0
  6
CONTINUOUS
 62
     7
100
AcDbVertex
100
AcDb2dVertex
 10
7.5322262045
 20
6.2438646622
 30
0.0
  0
VERTEX
  5
652
330
2BF
100
AcDbEntity
  8
0
  6
CONTINUOUS
 62
     7
100
AcDbVertex
100
AcDb2dVertex
 10
7.516978968
 20
6.2634547249
 30
0.0
  0
VERTEX
  5
653
330
2BF
100
AcDbEntity
  8
0
  6
CONTINUOUS
 62
     7
100
AcDbVertex
100
AcDb2dVertex
 10
7.5029098474
 20
6.2845247004
 30
0.0
  0
VERTEX
  5
654
330
2BF
100
AcDbEntity
  8
0
  6
CONTINUOUS
 62
     7
100
AcDbVertex
100
AcDb2dVertex
 10
7.4900502364
 20
6.3070275734
 30
0.0
  0
VERTEX
  5
655
330
2BF
100
AcDbEntity
  8
0
  6
CONTINUOUS
 62
     7
100
AcDbVertex
100
AcDb2dVertex
 10
7.4784288299
 20
6.3309131311
 30
0.0
  0
VERTEX
  5
656
330
2BF
100
AcDbEntity
  8
0
  6
CONTINUOUS
 62
     7
100
AcDbVertex
100
AcDb2dVertex
 10
7.4680715598
 20
6.3561280756
 30
0.0
  0
VERTEX
  5
657
330
2BF
100
AcDbEntity
  8
0
  6
CONTINUOUS
 62
     7
100
AcDbVertex
100
AcDb2dVertex
 10
7.4590015372
 20
6.3826161423
 30
0.0
  0
VERTEX
  5
658
330
2BF
100
AcDbEntity
  8
0
  6
CONTINUOUS
 62
     7
100
AcDbVertex
100
AcDb2dVertex
 10
7.4512390008
 20
6.4103182261
 30
0.0
  0
VERTEX
  5
659
330
2BF
100
AcDbEntity
  8
0
  6
CONTINUOUS
 62
     7
100
AcDbVertex
100
AcDb2dVertex
 10
7.4448012719
 20
6.4391725129
 30
0.0
  0
VERTEX
  5
65A
330
2BF
100
AcDbEntity
  8
0
  6
CONTINUOUS
 62
     7
100
AcDbVertex
100
AcDb2dVertex
 10
7.4397027157
 20
6.4691146173
 30
0.0
  0
VERTEX
  5
65B
330
2BF
100
AcDbEntity
  8
0
  6
CONTINUOUS
 62
     7
100
AcDbVertex
100
AcDb2dVertex
 10
7.4359547089
 20
6.5000777269
 30
0.0
  0
VERTEX
  5
65C
330
2BF
100
AcDbEntity
  8
0
  6
CONTINUOUS
 62
     7
100
AcDbVertex
100
AcDb2dVertex
 10
7.4335656149
 20
6.5319927509
 30
0.0
  0
VERTEX
  5
65D
330
2BF
100
AcDbEntity
  8
0
  6
CONTINUOUS
 62
     7
100
AcDbVertex
100
AcDb2dVertex
 10
7.4325407646
 20
6.5647884743
 30
0.0
  0
VERTEX
  5
65E
330
2BF
100
AcDbEntity
  8
0
  6
CONTINUOUS
 62
     7
100
AcDbVertex
100
AcDb2dVertex
 10
7.4328824449
 20
6.5983917171
 30
0.0
  0
VERTEX
  5
65F
330
2BF
100
AcDbEntity
  8
0
  6
CONTINUOUS
 62
     7
100
AcDbVertex
100
AcDb2dVertex
 10
7.4345898934
 20
6.6327274973
 30
0.0
  0
VERTEX
  5
660
330
2BF
100
AcDbEntity
  8
0
  6
CONTINUOUS
 62
     7
100
AcDbVertex
100
AcDb2dVertex
 10
7.4376593
 20
6.6677191983
 30
0.0
  0
VERTEX
  5
661
330
2BF
100
AcDbEntity
  8
0
  6
CONTINUOUS
 62
     7
100
AcDbVertex
100
AcDb2dVertex
 10
7.4420838158
 20
6.70328874
 30
0.0
  0
VERTEX
  5
662
330
2BF
100
AcDbEntity
  8
0
  6
CONTINUOUS
 62
     7
100
AcDbVertex
100
AcDb2dVertex
 10
7.4478535679
 20
6.7393567529
 30
0.0
  0
VERTEX
  5
663
330
2BF
100
AcDbEntity
  8
0
  6
CONTINUOUS
 62
     7
100
AcDbVertex
100
AcDb2dVertex
 10
7.4549556818
 20
6.775842755
 30
0.0
  0
VERTEX
  5
664
330
2BF
100
AcDbEntity
  8
0
  6
CONTINUOUS
 62
     7
100
AcDbVertex
100
AcDb2dVertex
 10
7.4633743097
 20
6.8126653319
 30
0.0
  0
VERTEX
  5
665
330
2BF
100
AcDbEntity
  8
0
  6
CONTINUOUS
 62
     7
100
AcDbVertex
100
AcDb2dVertex
 10
7.4730906666
 20
6.849742318
 30
0.0
  0
VERTEX
  5
666
330
2BF
100
AcDbEntity
  8
0
  6
CONTINUOUS
 62
     7
100
AcDbVertex
100
AcDb2dVertex
 10
7.4840830714
 20
6.88699098
 30
0.0
  0
VERTEX
  5
667
330
2BF
100
AcDbEntity
  8
0
  6
CONTINUOUS
 62
     7
100
AcDbVertex
100
AcDb2dVertex
 10
7.4963269957
 20
6.9243282016
 30
0.0
  0
VERTEX
  5
668
330
2BF
100
AcDbEntity
  8
0
  6
CONTINUOUS
 62
     7
100
AcDbVertex
100
AcDb2dVertex
 10
7.5097951186
 20
6.9616706689
 30
0.0
  0
VERTEX
  5
669
330
2BF
100
AcDbEntity
  8
0
  6
CONTINUOUS
 62
     7
100
AcDbVertex
100
AcDb2dVertex
 10
7.5244573874
 20
6.9989350561
 30
0.0
  0
VERTEX
  5
66A
330
2BF
100
AcDbEntity
  8
0
  6
CONTINUOUS
 62
     7
100
AcDbVertex
100
AcDb2dVertex
 10
7.5402810849
 20
7.036038212
 30
0.0
  0
VERTEX
  5
66B
330
2BF
100
AcDbEntity
  8
0
  6
CONTINUOUS
 62
     7
100
AcDbVertex
100
AcDb2dVertex
 10
7.5572309022
 20
7.0728973448
 30
0.0
  0
VERTEX
  5
66C
330
2BF
100
AcDbEntity
  8
0
  6
CONTINUOUS
 62
     7
100
AcDbVertex
100
AcDb2dVertex
 10
7.5752690176
 20
7.1094302074
 30
0.0
  0
VERTEX
  5
66D
330
2BF
100
AcDbEntity
  8
0
  6
CONTINUOUS
 62
     7
100
AcDbVertex
100
AcDb2dVertex
 10
7.5943551811
 20
7.1455552807
 30
0.0
  0
VERTEX
  5
66E
330
2BF
100
AcDbEntity
  8
0
  6
CONTINUOUS
 62
     7
100
AcDbVertex
100
AcDb2dVertex
 10
7.6144468039
 20
7.1811919555
 30
0.0
  0
VERTEX
  5
66F
330
2BF
100
AcDbEntity
  8
0
  6
CONTINUOUS
 62
     7
100
AcDbVertex
100
AcDb2dVertex
 10
7.6354990538
 20
7.2162607126
 30
0.0
  0
VERTEX
  5
670
330
2BF
100
AcDbEntity
  8
0
  6
CONTINUOUS
 62
     7
100
AcDbVertex
100
AcDb2dVertex
 10
7.657464955
 20
7.2506832997
 30
0.0
  0
VERTEX
  5
671
330
2BF
100
AcDbEntity
  8
0
  6
CONTINUOUS
 62
     7
100
AcDbVertex
100
AcDb2dVertex
 10
7.6802954929
 20
7.2843829066
 30
0.0
  0
VERTEX
  5
672
330
2BF
100
AcDbEntity
  8
0
  6
CONTINUOUS
 62
     7
100
AcDbVertex
100
AcDb2dVertex
 10
7.7039397238
 20
7.3172843363
 30
0.0
  0
VERTEX
  5
673
330
2BF
100
AcDbEntity
  8
0
  6
CONTINUOUS
 62
     7
100
AcDbVertex
100
AcDb2dVertex
 10
7.7283448881
 20
7.3493141729
 30
0.0
  0
VERTEX
  5
674
330
2BF
100
AcDbEntity
  8
0
  6
CONTINUOUS
 62
     7
100
AcDbVertex
100
AcDb2dVertex
 10
7.7534565283
 20
7.3804009453
 30
0.0
  0
VERTEX
  5
675
330
2BF
100
AcDbEntity
  8
0
  6
CONTINUOUS
 62
     7
100
AcDbVertex
100
AcDb2dVertex
 10
7.7792186105
 20
7.4104752867
 30
0.0
  0
VERTEX
  5
676
330
2BF
100
AcDbEntity
  8
0
  6
CONTINUOUS
 62
     7
100
AcDbVertex
100
AcDb2dVertex
 10
7.8055736495
 20
7.4394700895
 30
0.0
  0
VERTEX
  5
677
330
2BF
100
AcDbEntity
  8
0
  6
CONTINUOUS
 62
     7
100
AcDbVertex
100
AcDb2dVertex
 10
7.8324628368
 20
7.467320655
 30
0.0
  0
VERTEX
  5
678
330
2BF
100
AcDbEntity
  8
0
  6
CONTINUOUS
 62
     7
100
AcDbVertex
100
AcDb2dVertex
 10
7.8598261722
 20
7.4939648377
 30
0.0
  0
VERTEX
  5
679
330
2BF
100
AcDbEntity
  8
0
  6
CONTINUOUS
 62
     7
100
AcDbVertex
100
AcDb2dVertex
 10
7.8876025974
 20
7.519343184
 30
0.0
  0
VERTEX
  5
67A
330
2BF
100
AcDbEntity
  8
0
  6
CONTINUOUS
 62
     7
100
AcDbVertex
100
AcDb2dVertex
 10
7.9157301323
 20
7.5433990648
 30
0.0
  0
VERTEX
  5
67B
330
2BF
100
AcDbEntity
  8
0
  6
CONTINUOUS
 62
     7
100
AcDbVertex
100
AcDb2dVertex
 10
7.9441460133
 20
7.5660788021
 30
0.0
  0
VERTEX
  5
67C
330
2BF
100
AcDbEntity
  8
0
  6
CONTINUOUS
 62
     7
100
AcDbVertex
100
AcDb2dVertex
 10
7.9727868336
 20
7.5873317885
 30
0.0
  0
VERTEX
  5
67D
330
2BF
100
AcDbEntity
  8
0
  6
CONTINUOUS
 62
     7
100
AcDbVertex
100
AcDb2dVertex
 10
8.0015886842
 20
7.6071106004
 30
0.0
  0
VERTEX
  5
67E
330
2BF
100
AcDbEntity
  8
0
  6
CONTINUOUS
 62
     7
100
AcDbVertex
100
AcDb2dVertex
 10
8.030487297
 20
7.6253711033
 30
0.0
  0
VERTEX
  5
67F
330
2BF
100
AcDbEntity
  8
0
  6
CONTINUOUS
 62
     7
100
AcDbVertex
100
AcDb2dVertex
 10
8.0594181879
 20
7.6420725511
 30
0.0
  0
VERTEX
  5
680
330
2BF
100
AcDbEntity
  8
0
  6
CONTINUOUS
 62
     7
100
AcDbVertex
100
AcDb2dVertex
 10
8.0883168007
 20
7.6571776763
 30
0.0
  0
VERTEX
  5
681
330
2BF
100
AcDbEntity
  8
0
  6
CONTINUOUS
 62
     7
100
AcDbVertex
100
AcDb2dVertex
 10
8.1171186513
 20
7.6706527734
 30
0.0
  0
VERTEX
  5
682
330
2BF
100
AcDbEntity
  8
0
  6
CONTINUOUS
 62
     7
100
AcDbVertex
100
AcDb2dVertex
 10
8.1457594716
 20
7.6824677742
 30
0.0
  0
VERTEX
  5
683
330
2BF
100
AcDbEntity
  8
0
  6
CONTINUOUS
 62
     7
100
AcDbVertex
100
AcDb2dVertex
 10
8.1741753527
 20
7.6925963148
 30
0.0
  0
VERTEX
  5
684
330
2BF
100
AcDbEntity
  8
0
  6
CONTINUOUS
 62
     7
100
AcDbVertex
100
AcDb2dVertex
 10
8.2023028875
 20
7.7010157945
 30
0.0
  0
VERTEX
  5
685
330
2BF
100
AcDbEntity
  8
0
  6
CONTINUOUS
 62
     7
100
AcDbVertex
100
AcDb2dVertex
 10
8.2300793127
 20
7.7077074261
 30
0.0
  0
VERTEX
  5
686
330
2BF
100
AcDbEntity
  8
0
  6
CONTINUOUS
 62
     7
100
AcDbVertex
100
AcDb2dVertex
 10
8.2574426481
 20
7.712656278
 30
0.0
  0
VERTEX
  5
687
330
2BF
100
AcDbEntity
  8
0
  6
CONTINUOUS
 62
     7
100
AcDbVertex
100
AcDb2dVertex
 10
8.2843318354
 20
7.7158513074
 30
0.0
  0
VERTEX
  5
688
330
2BF
100
AcDbEntity
  8
0
  6
CONTINUOUS
 62
     7
100
AcDbVertex
100
AcDb2dVertex
 10
8.3106868744
 20
7.7172853848
 30
0.0
  0
VERTEX
  5
689
330
2BF
100
AcDbEntity
  8
0
  6
CONTINUOUS
 62
     7
100
AcDbVertex
100
AcDb2dVertex
 10
8.3364489566
 20
7.7169553104
 30
0.0
  0
VERTEX
  5
68A
330
2BF
100
AcDbEntity
  8
0
  6
CONTINUOUS
 62
     7
100
AcDbVertex
100
AcDb2dVertex
 10
8.3615605968
 20
7.7148618207
 30
0.0
  0
VERTEX
  5
68B
330
2BF
100
AcDbEntity
  8
0
  6
CONTINUOUS
 62
     7
100
AcDbVertex
100
AcDb2dVertex
 10
8.3859657611
 20
7.711009587
 30
0.0
  0
VERTEX
  5
68C
330
2BF
100
AcDbEntity
  8
0
  6
CONTINUOUS
 62
     7
100
AcDbVertex
100
AcDb2dVertex
 10
8.409609992
 20
7.7054072051
 30
0.0
  0
VERTEX
  5
68D
330
2BF
100
AcDbEntity
  8
0
  6
CONTINUOUS
 62
     7
100
AcDbVertex
100
AcDb2dVertex
 10
8.4324405299
 20
7.6980671762
 30
0.0
  0
VERTEX
  5
68E
330
2BF
100
AcDbEntity
  8
0
  6
CONTINUOUS
 62
     7
100
AcDbVertex
100
AcDb2dVertex
 10
8.4544064311
 20
7.6890058788
 30
0.0
  0
VERTEX
  5
68F
330
2BF
100
AcDbEntity
  8
0
  6
CONTINUOUS
 62
     7
100
AcDbVertex
100
AcDb2dVertex
 10
8.475458681
 20
7.6782435322
 30
0.0
  0
VERTEX
  5
690
330
2BF
100
AcDbEntity
  8
0
  6
CONTINUOUS
 62
     7
100
AcDbVertex
100
AcDb2dVertex
 10
8.4779884141
 20
7.6768001095
 30
0.0
  0
SEQEND
  5
691
330
2BF
100
AcDbEntity
  8
0
  6
CONTINUOUS
 62
     7
  0
LINE
  5
2C0
330
1F
100
AcDbEntity
  8
0
  6
CONTINUOUS
 62
     7
100
AcDbLine
 10
8.0665392045
 20
7.4527004845
 30
0.0
 11
8.0091064847
 21
7.3532240961
 31
0.0
  0
LINE
  5
2C1
330
1F
100
AcDbEntity
  8
0
  6
CONTINUOUS
 62
     7
100
AcDbLine
 10
7.6576836343
 20
6.7445418659
 30
0.0
 11
7.6002384728
 21
6.645043928
 31
0.0
  0
ARC
  5
2C2
330
1F
100
AcDbEntity
  8
0
  6
CONTINUOUS
 62
     7
100
AcDbCircle
 10
8.7306761956
 20
6.5308193242
 30
0.0
 40
1.299489646750281
100
AcDbArc
 50
122.57975329
 51
177.4256232427
  0
POLYLINE
  5
2C3
330
1F
100
AcDbEntity
  8
0
  6
CONTINUOUS
 62
     7
100
AcDb2dPolyline
 66
     1
 10
0.0
 20
0.0
 30
0.0
  0
VERTEX
  5
692
330
2C3
100
AcDbEntity
  8
0
  6
CONTINUOUS
 62
     7
100
AcDbVertex
100
AcDb2dVertex
 10
7.6002384728
 20
6.645043928
 30
0.0
  0
VERTEX
  5
693
330
2C3
100
AcDbEntity
  8
0
  6
CONTINUOUS
 62
     7
100
AcDbVertex
100
AcDb2dVertex
 10
7.5911373803
 20
6.6280297248
 30
0.0
  0
VERTEX
  5
694
330
2C3
100
AcDbEntity
  8
0
  6
CONTINUOUS
 62
     7
100
AcDbVertex
100
AcDb2dVertex
 10
7.583233774
 20
6.6106040593
 30
0.0
  0
VERTEX
  5
695
330
2C3
100
AcDbEntity
  8
0
  6
CONTINUOUS
 62
     7
100
AcDbVertex
100
AcDb2dVertex
 10
7.5766270463
 20
6.5929860692
 30
0.0
  0
VERTEX
  5
696
330
2C3
100
AcDbEntity
  8
0
  6
CONTINUOUS
 62
     7
100
AcDbVertex
100
AcDb2dVertex
 10
7.5714002808
 20
6.5753973109
 30
0.0
  0
VERTEX
  5
697
330
2C3
100
AcDbEntity
  8
0
  6
CONTINUOUS
 62
     7
100
AcDbVertex
100
AcDb2dVertex
 10
7.567619207
 20
6.5580589735
 30
0.0
  0
VERTEX
  5
698
330
2C3
100
AcDbEntity
  8
0
  6
CONTINUOUS
 62
     7
100
AcDbVertex
100
AcDb2dVertex
 10
7.565331374
 20
6.5411890964
 30
0.0
  0
VERTEX
  5
699
330
2C3
100
AcDbEntity
  8
0
  6
CONTINUOUS
 62
     7
100
AcDbVertex
100
AcDb2dVertex
 10
7.5645655528
 20
6.5249998282
 30
0.0
  0
VERTEX
  5
69A
330
2C3
100
AcDbEntity
  8
0
  6
CONTINUOUS
 62
     7
100
AcDbVertex
100
AcDb2dVertex
 10
7.565331374
 20
6.5096947583
 30
0.0
  0
VERTEX
  5
69B
330
2C3
100
AcDbEntity
  8
0
  6
CONTINUOUS
 62
     7
100
AcDbVertex
100
AcDb2dVertex
 10
7.567619207
 20
6.4954663569
 30
0.0
  0
VERTEX
  5
69C
330
2C3
100
AcDbEntity
  8
0
  6
CONTINUOUS
 62
     7
100
AcDbVertex
100
AcDb2dVertex
 10
7.5714002808
 20
6.4824935544
 30
0.0
  0
VERTEX
  5
69D
330
2C3
100
AcDbEntity
  8
0
  6
CONTINUOUS
 62
     7
100
AcDbVertex
100
AcDb2dVertex
 10
7.5766270463
 20
6.4709394912
 30
0.0
  0
VERTEX
  5
69E
330
2C3
100
AcDbEntity
  8
0
  6
CONTINUOUS
 62
     7
100
AcDbVertex
100
AcDb2dVertex
 10
7.583233774
 20
6.4609494664
 30
0.0
  0
VERTEX
  5
69F
330
2C3
100
AcDbEntity
  8
0
  6
CONTINUOUS
 62
     7
100
AcDbVertex
100
AcDb2dVertex
 10
7.5911373803
 20
6.4526491105
 30
0.0
  0
VERTEX
  5
6A0
330
2C3
100
AcDbEntity
  8
0
  6
CONTINUOUS
 62
     7
100
AcDbVertex
100
AcDb2dVertex
 10
7.6002384728
 20
6.4461428051
 30
0.0
  0
SEQEND
  5
6A1
330
2C3
100
AcDbEntity
  8
0
  6
CONTINUOUS
 62
     7
  0
LINE
  5
2C4
330
1F
100
AcDbEntity
  8
0
  6
CONTINUOUS
 62
     7
100
AcDbLine
 10
8.255879131
 20
7.54226567
 30
0.0
 11
8.238783299
 21
7.5521348837
 31
0.0
  0
POLYLINE
  5
2C5
330
1F
100
AcDbEntity
  8
0
  6
CONTINUOUS
 62
     7
100
AcDb2dPolyline
 66
     1
 10
0.0
 20
0.0
 30
0.0
  0
VERTEX
  5
6A2
330
2C5
100
AcDbEntity
  8
0
  6
CONTINUOUS
 62
     7
100
AcDbVertex
100
AcDb2dVertex
 10
8.238783299
 20
7.5521348837
 30
0.0
  0
VERTEX
  5
6A3
330
2C5
100
AcDbEntity
  8
0
  6
CONTINUOUS
 62
     7
100
AcDbVertex
100
AcDb2dVertex
 10
8.2285991717
 20
7.556765318
 30
0.0
  0
VERTEX
  5
6A4
330
2C5
100
AcDbEntity
  8
0
  6
CONTINUOUS
 62
     7
100
AcDbVertex
100
AcDb2dVertex
 10
8.2174600811
 20
7.5594616506
 30
0.0
  0
VERTEX
  5
6A5
330
2C5
100
AcDbEntity
  8
0
  6
CONTINUOUS
 62
     7
100
AcDbVertex
100
AcDb2dVertex
 10
8.2055061075
 20
7.5601899738
 30
0.0
  0
VERTEX
  5
6A6
330
2C5
100
AcDbEntity
  8
0
  6
CONTINUOUS
 62
     7
100
AcDbVertex
100
AcDb2dVertex
 10
8.1928875793
 20
7.5589411285
 30
0.0
  0
VERTEX
  5
6A7
330
2C5
100
AcDbEntity
  8
0
  6
CONTINUOUS
 62
     7
100
AcDbVertex
100
AcDb2dVertex
 10
8.1797631816
 20
7.5557308195
 30
0.0
  0
VERTEX
  5
6A8
330
2C5
100
AcDbEntity
  8
0
  6
CONTINUOUS
 62
     7
100
AcDbVertex
100
AcDb2dVertex
 10
8.1662979615
 20
7.5505994183
 30
0.0
  0
VERTEX
  5
6A9
330
2C5
100
AcDbEntity
  8
0
  6
CONTINUOUS
 62
     7
100
AcDbVertex
100
AcDb2dVertex
 10
8.1526612518
 20
7.5436114554
 30
0.0
  0
VERTEX
  5
6AA
330
2C5
100
AcDbEntity
  8
0
  6
CONTINUOUS
 62
     7
100
AcDbVertex
100
AcDb2dVertex
 10
8.1390245421
 20
7.5348548085
 30
0.0
  0
VERTEX
  5
6AB
330
2C5
100
AcDbEntity
  8
0
  6
CONTINUOUS
 62
     7
100
AcDbVertex
100
AcDb2dVertex
 10
8.1255593219
 20
7.5244395973
 30
0.0
  0
VERTEX
  5
6AC
330
2C5
100
AcDbEntity
  8
0
  6
CONTINUOUS
 62
     7
100
AcDbVertex
100
AcDb2dVertex
 10
8.1124349242
 20
7.5124967993
 30
0.0
  0
VERTEX
  5
6AD
330
2C5
100
AcDbEntity
  8
0
  6
CONTINUOUS
 62
     7
100
AcDbVertex
100
AcDb2dVertex
 10
8.099816396
 20
7.4991766021
 30
0.0
  0
VERTEX
  5
6AE
330
2C5
100
AcDbEntity
  8
0
  6
CONTINUOUS
 62
     7
100
AcDbVertex
100
AcDb2dVertex
 10
8.0878624224
 20
7.4846465148
 30
0.0
  0
VERTEX
  5
6AF
330
2C5
100
AcDbEntity
  8
0
  6
CONTINUOUS
 62
     7
100
AcDbVertex
100
AcDb2dVertex
 10
8.0767233318
 20
7.4690892618
 30
0.0
  0
VERTEX
  5
6B0
330
2C5
100
AcDbEntity
  8
0
  6
CONTINUOUS
 62
     7
100
AcDbVertex
100
AcDb2dVertex
 10
8.0665392045
 20
7.4527004845
 30
0.0
  0
SEQEND
  5
6B1
330
2C5
100
AcDbEntity
  8
0
  6
CONTINUOUS
 62
     7
  0
LINE
  5
2C6
330
1F
100
AcDbEntity
  8
0
  6
CONTINUOUS
 62
     7
100
AcDbLine
 10
7.9989895134
 20
7.606391275
 30
0.0
 11
7.9762426725
 21
7.6195227468
 31
0.0
  0
SPLINE
  5
2C7
330
1F
100
AcDbEntity
  8
0
  6
CONTINUOUS
 62
     7
100
AcDbSpline
210
0.0
220
0.0
230
1.0
 70
     8
 71
     3
 72
     9
 73
     5
 74
     0
 42
0.00000001
 43
0.00000001
 40
0.0
 40
0.0
 40
0.0
 40
0.0
 40
0.8894907106090605
 40
0.9999999999999999
 40
0.9999999999999999
 40
0.9999999999999999
 40
0.9999999999999999
 10
7.976242672452417
 20
7.619522746756181
 30
0.0
 10
7.977125718686239
 20
7.620850166365166
 30
0.0
 10
7.978118473555166
 20
7.622342503039572
 30
0.0
 10
7.979918096744372
 20
7.623022300867105
 30
0.0
 10
7.980116971824182
 20
7.623097424841955
 30
0.0
  0
SPLINE
  5
2C8
330
1F
100
AcDbEntity
  8
0
  6
CONTINUOUS
 62
     7
100
AcDbSpline
210
0.0
220
0.0
230
1.0
 70
     8
 71
     3
 72
    60
 73
    56
 74
     0
 42
0.00000001
 43
0.00000001
 40
-0.0312499999999998
 40
-0.0312499999999998
 40
0.0
 40
0.0
 40
0.03125
 40
0.03125
 40
0.0624999999999999
 40
0.0624999999999999
 40
0.125
 40
0.125
 40
0.1875
 40
0.1875
 40
0.21875
 40
0.21875
 40
0.2499999999999999
 40
0.2499999999999999
 40
0.3125000000000002
 40
0.3125000000000002
 40
0.3750000000000003
 40
0.3750000000000003
 40
0.4062500000000004
 40
0.4062500000000004
 40
0.4375000000000005
 40
0.4375000000000005
 40
0.4687500000000006
 40
0.4687500000000006
 40
0.5000000000000007
 40
0.5000000000000007
 40
0.5312500000000008
 40
0.5312500000000008
 40
0.5625000000000008
 40
0.5625000000000008
 40
0.5937500000000009
 40
0.5937500000000009
 40
0.625000000000001
 40
0.625000000000001
 40
0.656250000000001
 40
0.656250000000001
 40
0.6875000000000011
 40
0.6875000000000011
 40
0.7187500000000012
 40
0.7187500000000012
 40
0.7500000000000012
 40
0.7500000000000012
 40
0.812500000000001
 40
0.812500000000001
 40
0.8437500000000009
 40
0.8437500000000009
 40
0.8750000000000007
 40
0.8750000000000007
 40
0.9062500000000006
 40
0.9062500000000006
 40
0.9375000000000004
 40
0.9375000000000004
 40
0.9687500000000002
 40
0.9687500000000002
 40
1.0
 40
1.0
 40
1.03125
 40
1.03125
 10
7.581050878658814
 20
7.292939161725228
 30
0.0
 10
7.572241766622073
 20
7.298024553858425
 30
0.0
 10
7.567319406402331
 20
7.29946939237204
 30
0.0
 10
7.556621856840096
 20
7.300501119561732
 30
0.0
 10
7.551080937182958
 20
7.300061815078838
 30
0.0
 10
7.534384611451347
 20
7.296664094862199
 30
0.0
 10
7.523559234829494
 20
7.291808022420708
 30
0.0
 10
7.503263395452845
 20
7.279259337114718
 30
0.0
 10
7.494009860088568
 20
7.271687401136579
 30
0.0
 10
7.481331741015644
 20
7.258669368018601
 30
0.0
 10
7.477309525288756
 20
7.254032369276244
 30
0.0
 10
7.46989711605038
 20
7.244416048975857
 30
0.0
 10
7.466477927792496
 20
7.239409423624847
 30
0.0
 10
7.457117244838093
 20
7.223769058940493
 30
0.0
 10
7.452030847332569
 20
7.212370782299264
 30
0.0
 10
7.445328251738178
 20
7.188948224902053
 30
0.0
 10
7.443636364870032
 20
7.1765931334433
 30
0.0
 10
7.444371274782898
 20
7.158666289618933
 30
0.0
 10
7.44516619226839
 20
7.152685893964112
 30
0.0
 10
7.44790015567445
 20
7.141302938899241
 30
0.0
 10
7.449817020596456
 20
7.135911250304316
 30
0.0
 10
7.454846521647882
 20
7.125814662248762
 30
0.0
 10
7.457897760382036
 20
7.121258456146326
 30
0.0
 10
7.464918507499685
 20
7.113403167761996
 30
0.0
 10
7.468977224335322
 20
7.110041129008369
 30
0.0
 10
7.477610123016345
 20
7.104985472468656
 30
0.0
 10
7.482284842138241
 20
7.103215355881559
 30
0.0
 10
7.491928499223897
 20
7.101347237032827
 30
0.0
 10
7.496832021412121
 20
7.101236039868383
 30
0.0
 10
7.506828273245902
 20
7.102578897995249
 30
0.0
 10
7.511726199555985
 20
7.10400712379017
 30
0.0
 10
7.521377508727038
 20
7.108184041052374
 30
0.0
 10
7.526107674077685
 20
7.110940650090257
 30
0.0
 10
7.535102133089676
 20
7.117412696612878
 30
0.0
 10
7.539453664496595
 20
7.121188799701425
 30
0.0
 10
7.547660048132093
 20
7.129446634370127
 30
0.0
 10
7.55151703303098
 20
7.133917034774659
 30
0.0
 10
7.558826201405077
 20
7.143447373100142
 30
0.0
 10
7.562273719642136
 20
7.148512824236886
 30
0.0
 10
7.568624861477839
 20
7.158870501827715
 30
0.0
 10
7.571558405906169
 20
7.164200651747061
 30
0.0
 10
7.579710674206222
 20
7.180598821084229
 30
0.0
 10
7.584296484455535
 20
7.192127245359614
 30
0.0
 10
7.589587510223151
 20
7.209343730611447
 30
0.0
 10
7.59110069804727
 20
7.215106357057846
 30
0.0
 10
7.593569080305914
 20
7.22669327758972
 30
0.0
 10
7.594518459779867
 20
7.232509467221583
 30
0.0
 10
7.595698451440549
 20
7.243908968221315
 30
0.0
 10
7.595941233920469
 20
7.249530000783665
 30
0.0
 10
7.595506557125698
 20
7.26060125101198
 30
0.0
 10
7.594822260334908
 20
7.266023783894707
 30
0.0
 10
7.592203290179326
 20
7.276193313425434
 30
0.0
 10
7.590224356574878
 20
7.281043496317147
 30
0.0
 10
7.584686238965418
 20
7.289377427428856
 30
0.0
 10
7.581050878658814
 20
7.292939161725228
 30
0.0
 10
7.572241766622073
 20
7.298024553858425
 30
0.0
  0
LINE
  5
2C9
330
1F
100
AcDbEntity
  8
0
  6
CONTINUOUS
 62
     7
100
AcDbLine
 10
7.7248059714
 20
7.6030749644
 30
0.0
 11
7.8780510263
 21
7.5146084773
 31
0.0
  0
ARC
  5
2CA
330
1F
100
AcDbEntity
  8
0
  6
CONTINUOUS
 62
     7
100
AcDbCircle
 10
7.8837791706
 20
7.3615927095
 30
0.0
 40
0.2891127072153151
100
AcDbArc
 50
68.1020604117
 51
123.3578089458
  0
POLYLINE
  5
2CB
330
1F
100
AcDbEntity
  8
0
  6
CONTINUOUS
 62
     7
100
AcDb2dPolyline
 66
     1
 10
0.0
 20
0.0
 30
0.0
  0
VERTEX
  5
6B2
330
2CB
100
AcDbEntity
  8
0
  6
CONTINUOUS
 62
     7
100
AcDbVertex
100
AcDb2dVertex
 10
7.4195716403
 20
6.6149044613
 30
0.0
  0
VERTEX
  5
6B3
330
2CB
100
AcDbEntity
  8
0
  6
CONTINUOUS
 62
     7
100
AcDbVertex
100
AcDb2dVertex
 10
7.4136861208
 20
6.6184422232
 30
0.0
  0
VERTEX
  5
6B4
330
2CB
100
AcDbEntity
  8
0
  6
CONTINUOUS
 62
     7
100
AcDbVertex
100
AcDb2dVertex
 10
7.3977644469
 20
6.6295370895
 30
0.0
  0
VERTEX
  5
6B5
330
2CB
100
AcDbEntity
  8
0
  6
CONTINUOUS
 62
     7
100
AcDbVertex
100
AcDb2dVertex
 10
7.3828796164
 20
6.6422544771
 30
0.0
  0
VERTEX
  5
6B6
330
2CB
100
AcDbEntity
  8
0
  6
CONTINUOUS
 62
     7
100
AcDbVertex
100
AcDb2dVertex
 10
7.3690809173
 20
6.6565522748
 30
0.0
  0
VERTEX
  5
6B7
330
2CB
100
AcDbEntity
  8
0
  6
CONTINUOUS
 62
     7
100
AcDbVertex
100
AcDb2dVertex
 10
7.3564140416
 20
6.6723831383
 30
0.0
  0
VERTEX
  5
6B8
330
2CB
100
AcDbEntity
  8
0
  6
CONTINUOUS
 62
     7
100
AcDbVertex
100
AcDb2dVertex
 10
7.344920933
 20
6.6896946467
 30
0.0
  0
VERTEX
  5
6B9
330
2CB
100
AcDbEntity
  8
0
  6
CONTINUOUS
 62
     7
100
AcDbVertex
100
AcDb2dVertex
 10
7.3346396488
 20
6.7084294763
 30
0.0
  0
VERTEX
  5
6BA
330
2CB
100
AcDbEntity
  8
0
  6
CONTINUOUS
 62
     7
100
AcDbVertex
100
AcDb2dVertex
 10
7.3256042335
 20
6.7285255903
 30
0.0
  0
VERTEX
  5
6BB
330
2CB
100
AcDbEntity
  8
0
  6
CONTINUOUS
 62
     7
100
AcDbVertex
100
AcDb2dVertex
 10
7.3178446062
 20
6.7499164444
 30
0.0
  0
VERTEX
  5
6BC
330
2CB
100
AcDbEntity
  8
0
  6
CONTINUOUS
 62
     7
100
AcDbVertex
100
AcDb2dVertex
 10
7.3113864612
 20
6.7725312067
 30
0.0
  0
VERTEX
  5
6BD
330
2CB
100
AcDbEntity
  8
0
  6
CONTINUOUS
 62
     7
100
AcDbVertex
100
AcDb2dVertex
 10
7.3062511836
 20
6.7962949931
 30
0.0
  0
VERTEX
  5
6BE
330
2CB
100
AcDbEntity
  8
0
  6
CONTINUOUS
 62
     7
100
AcDbVertex
100
AcDb2dVertex
 10
7.3024557777
 20
6.8211291141
 30
0.0
  0
VERTEX
  5
6BF
330
2CB
100
AcDbEntity
  8
0
  6
CONTINUOUS
 62
     7
100
AcDbVertex
100
AcDb2dVertex
 10
7.3000128114
 20
6.8469513365
 30
0.0
  0
VERTEX
  5
6C0
330
2CB
100
AcDbEntity
  8
0
  6
CONTINUOUS
 62
     7
100
AcDbVertex
100
AcDb2dVertex
 10
7.2989303741
 20
6.873676155
 30
0.0
  0
VERTEX
  5
6C1
330
2CB
100
AcDbEntity
  8
0
  6
CONTINUOUS
 62
     7
100
AcDbVertex
100
AcDb2dVertex
 10
7.29921205
 20
6.9012150754
 30
0.0
  0
VERTEX
  5
6C2
330
2CB
100
AcDbEntity
  8
0
  6
CONTINUOUS
 62
     7
100
AcDbVertex
100
AcDb2dVertex
 10
7.3008569064
 20
6.9294769081
 30
0.0
  0
VERTEX
  5
6C3
330
2CB
100
AcDbEntity
  8
0
  6
CONTINUOUS
 62
     7
100
AcDbVertex
100
AcDb2dVertex
 10
7.3038594968
 20
6.9583680693
 30
0.0
  0
VERTEX
  5
6C4
330
2CB
100
AcDbEntity
  8
0
  6
CONTINUOUS
 62
     7
100
AcDbVertex
100
AcDb2dVertex
 10
7.3082098785
 20
6.9877928915
 30
0.0
  0
VERTEX
  5
6C5
330
2CB
100
AcDbEntity
  8
0
  6
CONTINUOUS
 62
     7
100
AcDbVertex
100
AcDb2dVertex
 10
7.3138936462
 20
7.0176539403
 30
0.0
  0
VERTEX
  5
6C6
330
2CB
100
AcDbEntity
  8
0
  6
CONTINUOUS
 62
     7
100
AcDbVertex
100
AcDb2dVertex
 10
7.3208919792
 20
7.0478523364
 30
0.0
  0
VERTEX
  5
6C7
330
2CB
100
AcDbEntity
  8
0
  6
CONTINUOUS
 62
     7
100
AcDbVertex
100
AcDb2dVertex
 10
7.3291817037
 20
7.0782880837
 30
0.0
  0
VERTEX
  5
6C8
330
2CB
100
AcDbEntity
  8
0
  6
CONTINUOUS
 62
     7
100
AcDbVertex
100
AcDb2dVertex
 10
7.3387353701
 20
7.1088604002
 30
0.0
  0
VERTEX
  5
6C9
330
2CB
100
AcDbEntity
  8
0
  6
CONTINUOUS
 62
     7
100
AcDbVertex
100
AcDb2dVertex
 10
7.3495213432
 20
7.1394680515
 30
0.0
  0
VERTEX
  5
6CA
330
2CB
100
AcDbEntity
  8
0
  6
CONTINUOUS
 62
     7
100
AcDbVertex
100
AcDb2dVertex
 10
7.3615039074
 20
7.1700096863
 30
0.0
  0
VERTEX
  5
6CB
330
2CB
100
AcDbEntity
  8
0
  6
CONTINUOUS
 62
     7
100
AcDbVertex
100
AcDb2dVertex
 10
7.3746433845
 20
7.2003841718
 30
0.0
  0
VERTEX
  5
6CC
330
2CB
100
AcDbEntity
  8
0
  6
CONTINUOUS
 62
     7
100
AcDbVertex
100
AcDb2dVertex
 10
7.388896266
 20
7.2304909289
 30
0.0
  0
VERTEX
  5
6CD
330
2CB
100
AcDbEntity
  8
0
  6
CONTINUOUS
 62
     7
100
AcDbVertex
100
AcDb2dVertex
 10
7.404215356
 20
7.2602302648
 30
0.0
  0
VERTEX
  5
6CE
330
2CB
100
AcDbEntity
  8
0
  6
CONTINUOUS
 62
     7
100
AcDbVertex
100
AcDb2dVertex
 10
7.4205499284
 20
7.2895037035
 30
0.0
  0
VERTEX
  5
6CF
330
2CB
100
AcDbEntity
  8
0
  6
CONTINUOUS
 62
     7
100
AcDbVertex
100
AcDb2dVertex
 10
7.4378458944
 20
7.3182143116
 30
0.0
  0
VERTEX
  5
6D0
330
2CB
100
AcDbEntity
  8
0
  6
CONTINUOUS
 62
     7
100
AcDbVertex
100
AcDb2dVertex
 10
7.4560459817
 20
7.3462670195
 30
0.0
  0
VERTEX
  5
6D1
330
2CB
100
AcDbEntity
  8
0
  6
CONTINUOUS
 62
     7
100
AcDbVertex
100
AcDb2dVertex
 10
7.4750899243
 20
7.373568936
 30
0.0
  0
VERTEX
  5
6D2
330
2CB
100
AcDbEntity
  8
0
  6
CONTINUOUS
 62
     7
100
AcDbVertex
100
AcDb2dVertex
 10
7.4949146619
 20
7.4000296563
 30
0.0
  0
VERTEX
  5
6D3
330
2CB
100
AcDbEntity
  8
0
  6
CONTINUOUS
 62
     7
100
AcDbVertex
100
AcDb2dVertex
 10
7.5154545486
 20
7.4255615606
 30
0.0
  0
VERTEX
  5
6D4
330
2CB
100
AcDbEntity
  8
0
  6
CONTINUOUS
 62
     7
100
AcDbVertex
100
AcDb2dVertex
 10
7.5366415706
 20
7.4500801051
 30
0.0
  0
VERTEX
  5
6D5
330
2CB
100
AcDbEntity
  8
0
  6
CONTINUOUS
 62
     7
100
AcDbVertex
100
AcDb2dVertex
 10
7.5584055711
 20
7.4735041013
 30
0.0
  0
VERTEX
  5
6D6
330
2CB
100
AcDbEntity
  8
0
  6
CONTINUOUS
 62
     7
100
AcDbVertex
100
AcDb2dVertex
 10
7.580674483
 20
7.4957559851
 30
0.0
  0
VERTEX
  5
6D7
330
2CB
100
AcDbEntity
  8
0
  6
CONTINUOUS
 62
     7
100
AcDbVertex
100
AcDb2dVertex
 10
7.6033745669
 20
7.5167620738
 30
0.0
  0
VERTEX
  5
6D8
330
2CB
100
AcDbEntity
  8
0
  6
CONTINUOUS
 62
     7
100
AcDbVertex
100
AcDb2dVertex
 10
7.6264306559
 20
7.5364528098
 30
0.0
  0
VERTEX
  5
6D9
330
2CB
100
AcDbEntity
  8
0
  6
CONTINUOUS
 62
     7
100
AcDbVertex
100
AcDb2dVertex
 10
7.6497664043
 20
7.554762991
 30
0.0
  0
VERTEX
  5
6DA
330
2CB
100
AcDbEntity
  8
0
  6
CONTINUOUS
 62
     7
100
AcDbVertex
100
AcDb2dVertex
 10
7.6733045403
 20
7.5716319867
 30
0.0
  0
VERTEX
  5
6DB
330
2CB
100
AcDbEntity
  8
0
  6
CONTINUOUS
 62
     7
100
AcDbVertex
100
AcDb2dVertex
 10
7.6969671218
 20
7.5870039386
 30
0.0
  0
SEQEND
  5
6DC
330
2CB
100
AcDbEntity
  8
0
  6
CONTINUOUS
 62
     7
  0
LINE
  5
2CC
330
1F
100
AcDbEntity
  8
0
  6
CONTINUOUS
 62
     7
100
AcDbLine
 10
7.6969671218
 20
7.5870039386
 30
0.0
 11
7.8563808793
 21
7.4949763352
 31
0.0
  0
LINE
  5
2CD
330
1F
100
AcDbEntity
  8
0
  6
CONTINUOUS
 62
     7
100
AcDbLine
 10
7.6002384728
 20
6.4461428051
 30
0.0
 11
7.6173449756
 21
6.436264221
 31
0.0
  0
LINE
  5
2CE
330
1F
100
AcDbEntity
  8
0
  6
CONTINUOUS
 62
     7
100
AcDbLine
 10
7.7248059714
 20
7.6030749644
 30
0.0
 11
7.7141993697
 21
7.5969427324
 31
0.0
  0
ARC
  5
2CF
330
1F
100
AcDbEntity
  8
0
  6
CONTINUOUS
 62
     7
100
AcDbCircle
 10
8.1722607996
 20
6.8540281732
 30
0.0
 40
0.874300064980621
100
AcDbArc
 50
123.7630205426
 51
177.3844354289
  0
LINE
  5
2D0
330
1F
100
AcDbEntity
  8
0
  6
CONTINUOUS
 62
     7
100
AcDbLine
 10
7.6969671218
 20
7.5870039386
 30
0.0
 11
7.6863605201
 21
7.5808717066
 31
0.0
  0
LINE
  5
2D1
330
1F
100
AcDbEntity
  8
0
  6
CONTINUOUS
 62
     7
100
AcDbLine
 10
7.7141993697
 20
7.5969427324
 30
0.0
 11
7.7141993697
 21
7.5770559736
 31
0.0
  0
ARC
  5
2D2
330
1F
100
AcDbEntity
  8
0
  6
CONTINUOUS
 62
     8
100
AcDbCircle
 10
8.1788126154
 20
6.8546853121
 30
0.0
 40
0.067149713426018
100
AcDbArc
 50
184.8794769758
 51
246.7119424081
  0
ARC
  5
2D3
330
1F
100
AcDbEntity
  8
0
  6
CONTINUOUS
 62
     8
100
AcDbCircle
 10
8.2494280332
 20
6.9775836765
 30
0.0
 40
0.2085893002753956
100
AcDbArc
 50
242.2372356304
 51
299.4328386568
  0
ARC
  5
2D4
330
1F
100
AcDbEntity
  8
0
  6
CONTINUOUS
 62
     8
100
AcDbCircle
 10
8.2352342731
 20
6.2137279304
 30
0.0
 40
0.0705336086690033
100
AcDbArc
 50
205.2379147904
 51
274.8038207273
  0
POLYLINE
  5
2D5
330
1F
100
AcDbEntity
  8
0
  6
CONTINUOUS
 62
     8
100
AcDb2dPolyline
 66
     1
 10
0.0
 20
0.0
 30
0.0
  0
VERTEX
  5
6DD
330
2D5
100
AcDbEntity
  8
0
  6
CONTINUOUS
 62
     8
100
AcDbVertex
100
AcDb2dVertex
 10
7.5466373337
 20
7.165642571
 30
0.0
  0
VERTEX
  5
6DE
330
2D5
100
AcDbEntity
  8
0
  6
CONTINUOUS
 62
     8
100
AcDbVertex
100
AcDb2dVertex
 10
7.5389642709
 20
7.1708931886
 30
0.0
  0
VERTEX
  5
6DF
330
2D5
100
AcDbEntity
  8
0
  6
CONTINUOUS
 62
     8
100
AcDbVertex
100
AcDb2dVertex
 10
7.531552505
 20
7.177607108
 30
0.0
  0
VERTEX
  5
6E0
330
2D5
100
AcDbEntity
  8
0
  6
CONTINUOUS
 62
     8
100
AcDbVertex
100
AcDb2dVertex
 10
7.5246544349
 20
7.185555695
 30
0.0
  0
VERTEX
  5
6E1
330
2D5
100
AcDbEntity
  8
0
  6
CONTINUOUS
 62
     8
100
AcDbVertex
100
AcDb2dVertex
 10
7.5185049661
 20
7.1944682697
 30
0.0
  0
VERTEX
  5
6E2
330
2D5
100
AcDbEntity
  8
0
  6
CONTINUOUS
 62
     8
100
AcDbVertex
100
AcDb2dVertex
 10
7.5133135112
 20
7.2040413253
 30
0.0
  0
VERTEX
  5
6E3
330
2D5
100
AcDbEntity
  8
0
  6
CONTINUOUS
 62
     8
100
AcDbVertex
100
AcDb2dVertex
 10
7.5092568592
 20
7.2139488627
 30
0.0
  0
VERTEX
  5
6E4
330
2D5
100
AcDbEntity
  8
0
  6
CONTINUOUS
 62
     8
100
AcDbVertex
100
AcDb2dVertex
 10
7.5064731545
 20
7.2238534927
 30
0.0
  0
VERTEX
  5
6E5
330
2D5
100
AcDbEntity
  8
0
  6
CONTINUOUS
 62
     8
100
AcDbVertex
100
AcDb2dVertex
 10
7.5050571926
 20
7.2334179249
 30
0.0
  0
VERTEX
  5
6E6
330
2D5
100
AcDbEntity
  8
0
  6
CONTINUOUS
 62
     8
100
AcDbVertex
100
AcDb2dVertex
 10
7.5050571926
 20
7.2423164542
 30
0.0
  0
VERTEX
  5
6E7
330
2D5
100
AcDbEntity
  8
0
  6
CONTINUOUS
 62
     8
100
AcDbVertex
100
AcDb2dVertex
 10
7.5064731545
 20
7.2502460517
 30
0.0
  0
VERTEX
  5
6E8
330
2D5
100
AcDbEntity
  8
0
  6
CONTINUOUS
 62
     8
100
AcDbVertex
100
AcDb2dVertex
 10
7.5092568592
 20
7.2569366846
 30
0.0
  0
VERTEX
  5
6E9
330
2D5
100
AcDbEntity
  8
0
  6
CONTINUOUS
 62
     8
100
AcDbVertex
100
AcDb2dVertex
 10
7.5133135112
 20
7.2621605113
 30
0.0
  0
VERTEX
  5
6EA
330
2D5
100
AcDbEntity
  8
0
  6
CONTINUOUS
 62
     8
100
AcDbVertex
100
AcDb2dVertex
 10
7.5185049661
 20
7.2657396407
 30
0.0
  0
VERTEX
  5
6EB
330
2D5
100
AcDbEntity
  8
0
  6
CONTINUOUS
 62
     8
100
AcDbVertex
100
AcDb2dVertex
 10
7.5246544349
 20
7.2675521899
 30
0.0
  0
VERTEX
  5
6EC
330
2D5
100
AcDbEntity
  8
0
  6
CONTINUOUS
 62
     8
100
AcDbVertex
100
AcDb2dVertex
 10
7.531552505
 20
7.2675364346
 30
0.0
  0
VERTEX
  5
6ED
330
2D5
100
AcDbEntity
  8
0
  6
CONTINUOUS
 62
     8
100
AcDbVertex
100
AcDb2dVertex
 10
7.5389642709
 20
7.2656929113
 30
0.0
  0
VERTEX
  5
6EE
330
2D5
100
AcDbEntity
  8
0
  6
CONTINUOUS
 62
     8
100
AcDbVertex
100
AcDb2dVertex
 10
7.5466373337
 20
7.2620843992
 30
0.0
  0
VERTEX
  5
6EF
330
2D5
100
AcDbEntity
  8
0
  6
CONTINUOUS
 62
     8
100
AcDbVertex
100
AcDb2dVertex
 10
7.5543103965
 20
7.2568337816
 30
0.0
  0
VERTEX
  5
6F0
330
2D5
100
AcDbEntity
  8
0
  6
CONTINUOUS
 62
     8
100
AcDbVertex
100
AcDb2dVertex
 10
7.5617221623
 20
7.2501198621
 30
0.0
  0
VERTEX
  5
6F1
330
2D5
100
AcDbEntity
  8
0
  6
CONTINUOUS
 62
     8
100
AcDbVertex
100
AcDb2dVertex
 10
7.5686202324
 20
7.2421712752
 30
0.0
  0
VERTEX
  5
6F2
330
2D5
100
AcDbEntity
  8
0
  6
CONTINUOUS
 62
     8
100
AcDbVertex
100
AcDb2dVertex
 10
7.5747697013
 20
7.2332587005
 30
0.0
  0
VERTEX
  5
6F3
330
2D5
100
AcDbEntity
  8
0
  6
CONTINUOUS
 62
     8
100
AcDbVertex
100
AcDb2dVertex
 10
7.5799611561
 20
7.2236856449
 30
0.0
  0
VERTEX
  5
6F4
330
2D5
100
AcDbEntity
  8
0
  6
CONTINUOUS
 62
     8
100
AcDbVertex
100
AcDb2dVertex
 10
7.5840178081
 20
7.2137781075
 30
0.0
  0
VERTEX
  5
6F5
330
2D5
100
AcDbEntity
  8
0
  6
CONTINUOUS
 62
     8
100
AcDbVertex
100
AcDb2dVertex
 10
7.5868015129
 20
7.2038734775
 30
0.0
  0
VERTEX
  5
6F6
330
2D5
100
AcDbEntity
  8
0
  6
CONTINUOUS
 62
     8
100
AcDbVertex
100
AcDb2dVertex
 10
7.5874356528
 20
7.2005911448
 30
0.0
  0
SEQEND
  5
6F7
330
2D5
100
AcDbEntity
  8
0
  6
CONTINUOUS
 62
     8
  0
ARC
  5
2D6
330
1F
100
AcDbEntity
  8
0
  6
CONTINUOUS
 62
     8
100
AcDbCircle
 10
7.5650924691
 20
7.1931689822
 30
0.0
 40
0.0331405391803085
100
AcDbArc
 50
236.160047279
 51
277.9946769706
  0
POLYLINE
  5
2D7
330
1F
100
AcDbEntity
  8
0
  6
CONTINUOUS
 62
     8
100
AcDb2dPolyline
 66
     1
 10
0.0
 20
0.0
 30
0.0
  0
VERTEX
  5
6F8
330
2D7
100
AcDbEntity
  8
0
  6
CONTINUOUS
 62
     8
100
AcDbVertex
100
AcDb2dVertex
 10
7.5956674176
 20
7.2515292794
 30
0.0
  0
VERTEX
  5
6F9
330
2D7
100
AcDbEntity
  8
0
  6
CONTINUOUS
 62
     8
100
AcDbVertex
100
AcDb2dVertex
 10
7.593283289
 20
7.2550217594
 30
0.0
  0
VERTEX
  5
6FA
330
2D7
100
AcDbEntity
  8
0
  6
CONTINUOUS
 62
     8
100
AcDbVertex
100
AcDb2dVertex
 10
7.585833905
 20
7.2645936773
 30
0.0
  0
VERTEX
  5
6FB
330
2D7
100
AcDbEntity
  8
0
  6
CONTINUOUS
 62
     8
100
AcDbVertex
100
AcDb2dVertex
 10
7.5777621138
 20
7.2731143106
 30
0.0
  0
VERTEX
  5
6FC
330
2D7
100
AcDbEntity
  8
0
  6
CONTINUOUS
 62
     8
100
AcDbVertex
100
AcDb2dVertex
 10
7.5692666696
 20
7.2803738528
 30
0.0
  0
VERTEX
  5
6FD
330
2D7
100
AcDbEntity
  8
0
  6
CONTINUOUS
 62
     8
100
AcDbVertex
100
AcDb2dVertex
 10
7.5605567585
 20
7.2861935501
 30
0.0
  0
VERTEX
  5
6FE
330
2D7
100
AcDbEntity
  8
0
  6
CONTINUOUS
 62
     8
100
AcDbVertex
100
AcDb2dVertex
 10
7.5518468474
 20
7.2904301021
 30
0.0
  0
VERTEX
  5
6FF
330
2D7
100
AcDbEntity
  8
0
  6
CONTINUOUS
 62
     8
100
AcDbVertex
100
AcDb2dVertex
 10
7.5433514032
 20
7.2929791909
 30
0.0
  0
VERTEX
  5
700
330
2D7
100
AcDbEntity
  8
0
  6
CONTINUOUS
 62
     8
100
AcDbVertex
100
AcDb2dVertex
 10
7.535279612
 20
7.2937780495
 30
0.0
  0
VERTEX
  5
701
330
2D7
100
AcDbEntity
  8
0
  6
CONTINUOUS
 62
     8
100
AcDbVertex
100
AcDb2dVertex
 10
7.527830228
 20
7.2928070072
 30
0.0
  0
VERTEX
  5
702
330
2D7
100
AcDbEntity
  8
0
  6
CONTINUOUS
 62
     8
100
AcDbVertex
100
AcDb2dVertex
 10
7.5211866798
 20
7.2900899745
 30
0.0
  0
VERTEX
  5
703
330
2D7
100
AcDbEntity
  8
0
  6
CONTINUOUS
 62
     8
100
AcDbVertex
100
AcDb2dVertex
 10
7.5210817292
 20
7.2900290442
 30
0.0
  0
SEQEND
  5
704
330
2D7
100
AcDbEntity
  8
0
  6
CONTINUOUS
 62
     8
  0
ARC
  5
2D8
330
1F
100
AcDbEntity
  8
0
  6
CONTINUOUS
 62
     8
100
AcDbCircle
 10
8.0913190691
 20
7.615810012
 30
0.0
 40
0.0621354590013625
100
AcDbArc
 50
63.5877573699
 51
116.3365792423
  0
LINE
  5
2D9
330
1F
100
AcDbEntity
  8
0
  6
CONTINUOUS
 62
     8
100
AcDbLine
 10
8.097408562
 20
7.4348799838
 30
0.0
 11
8.0665392045
 21
7.4527004845
 31
0.0
  0
LINE
  5
2DA
330
1F
100
AcDbEntity
  8
0
  6
CONTINUOUS
 62
     8
100
AcDbLine
 10
7.6311125738
 20
6.6272206889
 30
0.0
 11
7.6002384728
 21
6.645043928
 31
0.0
  0
LINE
  5
2DB
330
1F
100
AcDbEntity
  8
0
  6
CONTINUOUS
 62
     8
100
AcDbLine
 10
7.6173448488
 20
6.4362675045
 30
0.0
 11
7.6002384728
 21
6.4461428051
 31
0.0
  0
ENDSEC
  0
SECTION
  2
OBJECTS
  0
DICTIONARY
  5
C
330
0
100
AcDbDictionary
  3
ACAD_GROUP
350
D
  3
ACAD_LAYOUT
350
1A
  3
ACAD_MLEADERSTYLE
350
2DE
  3
ACAD_MLINESTYLE
350
17
  3
ACAD_PLOTSETTINGS
350
19
  3
ACAD_SCALELIST
350
6F
  3
ACAD_VISUALSTYLE
350
2A
  3
ACDBVARIABLEDICTIONARY
350
2DC
1001
ACAD
1000
TREAT_AS_HARD
1070
     0
  0
DICTIONARY
  5
D
102
{ACAD_REACTORS
330
C
102
}
330
C
100
AcDbDictionary
1001
ACAD
1000
TREAT_AS_HARD
1070
     0
  0
DICTIONARY
  5
1A
102
{ACAD_REACTORS
330
C
102
}
330
C
100
AcDbDictionary
1001
ACAD
1000
TREAT_AS_HARD
1070
     0
  0
DICTIONARY
  5
2DE
102
{ACAD_REACTORS
330
C
102
}
330
C
100
AcDbDictionary
1001
ACAD
1000
TREAT_AS_HARD
1070
     0
  0
DICTIONARY
  5
17
102
{ACAD_REACTORS
330
C
102
}
330
C
100
AcDbDictionary
  3
STANDARD
350
18
1001
ACAD
1000
TREAT_AS_HARD
1070
     0
  0
DICTIONARY
  5
19
102
{ACAD_REACTORS
330
C
102
}
330
C
100
AcDbDictionary
1001
ACAD
1000
TREAT_AS_HARD
1070
     0
  0
DICTIONARY
  5
6F
102
{ACAD_REACTORS
330
C
102
}
330
C
100
AcDbDictionary
  3
A0
350
70
  3
A1
350
71
  3
A2
350
72
  3
A3
350
73
  3
A4
350
74
  3
A5
350
75
  3
A6
350
76
  3
A7
350
77
  3
A8
350
78
  3
A9
350
79
  3
B0
350
7A
  3
B1
350
7B
  3
B2
350
7C
  3
B3
350
7D
  3
B4
350
7E
  3
B5
350
7F
  3
B6
350
80
  3
B7
350
81
  3
B8
350
82
  3
B9
350
83
  3
C0
350
84
  3
C1
350
85
  3
C2
350
86
  3
C3
350
87
  3
C4
350
88
  3
C5
350
89
  3
C6
350
8A
  3
C7
350
8B
  3
C8
350
8C
  3
C9
350
8D
  3
D0
350
8E
  3
D1
350
8F
  3
D2
350
90
1001
ACAD
1000
TREAT_AS_HARD
1070
     0
  0
DICTIONARY
  5
2A
102
{ACAD_REACTORS
330
C
102
}
330
C
100
AcDbDictionary
  3
2DWIREFRAME
350
2F
  3
3D_HIDDEN
350
31
  3
3DWIREFRAME
350
30
  3
BASIC
350
32
  3
BRIGHTEN
350
36
  3
COLORCHANGE
350
3A
  3
CONCEPTUAL
350
34
  3
DIM
350
35
  3
FACEPATTERN
350
39
  3
FLAT
350
2B
  3
FLATWITHEDGES
350
2C
  3
GOURAUD
350
2D
  3
GOURAUDWITHEDGES
350
2E
  3
LINEPATTERN
350
38
  3
REALISTIC
350
33
  3
THICKEN
350
37
1001
ACAD
1000
TREAT_AS_HARD
1070
     0
  0
DICTIONARY
  5
2DC
102
{ACAD_REACTORS
330
C
102
}
330
C
100
AcDbDictionary
  3
CANNOSCALE
350
2DF
  3
DIMASSOC
350
2E0
  3
HIDETEXT
350
2E1
1001
ACAD
1000
TREAT_AS_HARD
1070
     0
  0
MLINESTYLE
  5
18
102
{ACAD_REACTORS
330
17
102
}
330
17
100
AcDbMlineStyle
  2
Standard
 70
     0
  3

 62
   256
 51
90.0
 52
90.0
 71
     2
 49
0.5
 62
   256
  6
BYLAYER
 49
-0.5
 62
   256
  6
BYLAYER
  0
ACAD_PROXY_OBJECT
  5
70
102
{ACAD_REACTORS
330
6F
102
}
330
6F
100
AcDbZombieObject
 90
      499
 91
      502
 93
       41
310
903313A31580
  0
ACAD_PROXY_OBJECT
  5
71
102
{ACAD_REACTORS
330
6F
102
}
330
6F
100
AcDbZombieObject
 90
      499
 91
      502
 93
      105
310
903313A324000000000000004000
  0
ACAD_PROXY_OBJECT
  5
72
102
{ACAD_REACTORS
330
6F
102
}
330
6F
100
AcDbZombieObject
 90
      499
 91
      502
 93
      105
310
903313A344000000000000104000
  0
ACAD_PROXY_OBJECT
  5
73
102
{ACAD_REACTORS
330
6F
102
}
330
6F
100
AcDbZombieObject
 90
      499
 91
      502
 93
      105
310
903313A354000000000000144000
  0
ACAD_PROXY_OBJECT
  5
74
102
{ACAD_REACTORS
330
6F
102
}
330
6F
100
AcDbZombieObject
 90
      499
 91
      502
 93
      105
310
903313A384000000000000204000
  0
ACAD_PROXY_OBJECT
  5
75
102
{ACAD_REACTORS
330
6F
102
}
330
6F
100
AcDbZombieObject
 90
      499
 91
      502
 93
      113
310
904313A31304000000000000244000
  0
ACAD_PROXY_OBJECT
  5
76
102
{ACAD_REACTORS
330
6F
102
}
330
6F
100
AcDbZombieObject
 90
      499
 91
      502
 93
      113
310
904313A31364000000000000304000
  0
ACAD_PROXY_OBJECT
  5
77
102
{ACAD_REACTORS
330
6F
102
}
330
6F
100
AcDbZombieObject
 90
      499
 91
      502
 93
      113
310
904313A32304000000000000344000
  0
ACAD_PROXY_OBJECT
  5
78
102
{ACAD_REACTORS
330
6F
102
}
330
6F
100
AcDbZombieObject
 90
      499
 91
      502
 93
      113
310
904313A333040000000000003E4000
  0
ACAD_PROXY_OBJECT
  5
79
102
{ACAD_REACTORS
330
6F
102
}
330
6F
100
AcDbZombieObject
 90
      499
 91
      502
 93
      113
310
904313A34304000000000000444000
  0
ACAD_PROXY_OBJECT
  5
7A
102
{ACAD_REACTORS
330
6F
102
}
330
6F
100
AcDbZombieObject
 90
      499
 91
      502
 93
      113
310
904313A35304000000000000494000
  0
ACAD_PROXY_OBJECT
  5
7B
102
{ACAD_REACTORS
330
6F
102
}
330
6F
100
AcDbZombieObject
 90
      499
 91
      502
 93
      121
310
905313A3130304000000000000594000
  0
ACAD_PROXY_OBJECT
  5
7C
102
{ACAD_REACTORS
330
6F
102
}
330
6F
100
AcDbZombieObject
 90
      499
 91
      502
 93
      105
310
903323A310000000000000010100
  0
ACAD_PROXY_OBJECT
  5
7D
102
{ACAD_REACTORS
330
6F
102
}
330
6F
100
AcDbZombieObject
 90
      499
 91
      502
 93
      105
310
903343A310000000000000410100
  0
ACAD_PROXY_OBJECT
  5
7E
102
{ACAD_REACTORS
330
6F
102
}
330
6F
100
AcDbZombieObject
 90
      499
 91
      502
 93
      105
310
903383A310000000000000810100
  0
ACAD_PROXY_OBJECT
  5
7F
102
{ACAD_REACTORS
330
6F
102
}
330
6F
100
AcDbZombieObject
 90
      499
 91
      502
 93
      113
310
90431303A310000000000000910100
  0
ACAD_PROXY_OBJECT
  5
80
102
{ACAD_REACTORS
330
6F
102
}
330
6F
100
AcDbZombieObject
 90
      499
 91
      502
 93
      121
310
9053130303A310000000000001650100
  0
ACAD_PROXY_OBJECT
  5
81
102
{ACAD_REACTORS
330
6F
102
}
330
6F
100
AcDbZombieObject
 90
      499
 91
      502
 93
      257
310
90E312F31323822203D2031272D3022000000000000200FC000000000000284000
  0
ACAD_PROXY_OBJECT
  5
82
102
{ACAD_REACTORS
330
6F
102
}
330
6F
100
AcDbZombieObject
 90
      499
 91
      502
 93
      249
310
90D312F363422203D2031272D3022000000000000240FC000000000000284000
  0
ACAD_PROXY_OBJECT
  5
83
102
{ACAD_REACTORS
330
6F
102
}
330
6F
100
AcDbZombieObject
 90
      499
 91
      502
 93
      249
310
90D312F333222203D2031272D3022000000000000280FC000000000000284000
  0
ACAD_PROXY_OBJECT
  5
84
102
{ACAD_REACTORS
330
6F
102
}
330
6F
100
AcDbZombieObject
 90
      499
 91
      502
 93
      249
310
90D312F313622203D2031272D30220000000000002C0FC000000000000284000
  0
ACAD_PROXY_OBJECT
  5
85
102
{ACAD_REACTORS
330
6F
102
}
330
6F
100
AcDbZombieObject
 90
      499
 91
      502
 93
      249
310
90D332F333222203D2031272D30220000000000002E0FC000000000000284000
  0
ACAD_PROXY_OBJECT
  5
86
102
{ACAD_REACTORS
330
6F
102
}
330
6F
100
AcDbZombieObject
 90
      499
 91
      502
 93
      241
310
90C312F3822203D2031272D3022000000000000300FC000000000000284000
  0
ACAD_PROXY_OBJECT
  5
87
102
{ACAD_REACTORS
330
6F
102
}
330
6F
100
AcDbZombieObject
 90
      499
 91
      502
 93
      249
310
90D332F313622203D2031272D3022000000000000320FC000000000000284000
  0
ACAD_PROXY_OBJECT
  5
88
102
{ACAD_REACTORS
330
6F
102
}
330
6F
100
AcDbZombieObject
 90
      499
 91
      502
 93
      241
310
90C312F3422203D2031272D3022000000000000340FC000000000000284000
  0
ACAD_PROXY_OBJECT
  5
89
102
{ACAD_REACTORS
330
6F
102
}
330
6F
100
AcDbZombieObject
 90
      499
 91
      502
 93
      241
310
90C332F3822203D2031272D3022000000000000360FC000000000000284000
  0
ACAD_PROXY_OBJECT
  5
8A
102
{ACAD_REACTORS
330
6F
102
}
330
6F
100
AcDbZombieObject
 90
      499
 91
      502
 93
      241
310
90C312F3222203D2031272D3022000000000000380FC000000000000284000
  0
ACAD_PROXY_OBJECT
  5
8B
102
{ACAD_REACTORS
330
6F
102
}
330
6F
100
AcDbZombieObject
 90
      499
 91
      502
 93
      241
310
90C332F3422203D2031272D30220000000000003A0FC000000000000284000
  0
ACAD_PROXY_OBJECT
  5
8C
102
{ACAD_REACTORS
330
6F
102
}
330
6F
100
AcDbZombieObject
 90
      499
 91
      502
 93
      161
310
90A3122203D2031272D30224000000000000284000
  0
ACAD_PROXY_OBJECT
  5
8D
102
{ACAD_REACTORS
330
6F
102
}
330
6F
100
AcDbZombieObject
 90
      499
 91
      502
 93
      257
310
90E312D312F3222203D2031272D30220000000000003E0FC000000000000284000
  0
ACAD_PROXY_OBJECT
  5
8E
102
{ACAD_REACTORS
330
6F
102
}
330
6F
100
AcDbZombieObject
 90
      499
 91
      502
 93
      225
310
90A3322203D2031272D302200000000000002100000000000000284000
  0
ACAD_PROXY_OBJECT
  5
8F
102
{ACAD_REACTORS
330
6F
102
}
330
6F
100
AcDbZombieObject
 90
      499
 91
      502
 93
      225
310
90A3622203D2031272D302200000000000006100000000000000284000
  0
ACAD_PROXY_OBJECT
  5
90
102
{ACAD_REACTORS
330
6F
102
}
330
6F
100
AcDbZombieObject
 90
      499
 91
      502
 93
      249
310
90D31272D3022203D2031272D30220000000000000A100000000000000284000
  0
ACAD_PROXY_OBJECT
  5
2F
102
{ACAD_REACTORS
330
2A
102
}
330
2A
100
AcDbZombieObject
 90
      499
 91
      501
 93
      436
310
42CC9915DA5C99599C985B595049028333333333333E3BF0000000000000FB0107901411070040501600405405064090741402480A0340
1001
ACAD
1000
AcDbSavedByObjectVersion
1070
     0
  0
ACAD_PROXY_OBJECT
  5
31
102
{ACAD_REACTORS
330
2A
102
}
330
2A
100
AcDbZombieObject
 90
      499
 91
      501
 93
      500
310
424CD108121A5919195B90640502408333333333333E3BF0000000000000FB01079024090700405020000000000001110200405405064090740C02480A0340
1001
ACAD
1000
AcDbSavedByObjectVersion
1070
     0
  0
ACAD_PROXY_OBJECT
  5
30
102
{ACAD_REACTORS
330
2A
102
}
330
2A
100
AcDbZombieObject
 90
      499
 91
      501
 93
      436
310
42CCD915DA5C99599C985B595059028333333333333E3BF0000000000000FB0107901411070040501600405405064090741402480A0340
1001
ACAD
1000
AcDbSavedByObjectVersion
1070
     0
  0
ACAD_PROXY_OBJECT
  5
32
102
{ACAD_REACTORS
330
2A
102
}
330
2A
100
AcDbZombieObject
 90
      499
 91
      501
 93
      388
310
4150985CDA58D07406404333333333333E3BF0000000000000FB0107A41107004050150841D405064090741402480A0350
1001
ACAD
1000
AcDbSavedByObjectVersion
1070
     0
  0
ACAD_PROXY_OBJECT
  5
36
102
{ACAD_REACTORS
330
2A
102
}
330
2A
100
AcDbZombieObject
 90
      499
 91
      501
 93
      428
310
42109C9A59DA1D195B90C409028333333333333E3BF0000000000000FB010790141107004050150841D405064090741402480A029950
1001
ACAD
1000
AcDbSavedByObjectVersion
1070
     0
  0
ACAD_PROXY_OBJECT
  5
3A
102
{ACAD_REACTORS
330
2A
102
}
330
2A
100
AcDbZombieObject
 90
      499
 91
      501
 93
      452
310
42D0DBDB1BDC90DA185B99D95104090240C333333333333E3BF0000000000000FB0108901411070040501508421405064090741402480A0350
1001
ACAD
1000
AcDbSavedByObjectVersion
1070
     0
  0
ACAD_PROXY_OBJECT
  5
34
102
{ACAD_REACTORS
330
2A
102
}
330
2A
100
AcDbZombieObject
 90
      499
 91
      501
 93
      500
310
4290DBDB98D95C1D1D585B10940D028333333333333E3BF0000000000000FB0107902409070040501000000000000111010841D405064090740C02480A0340
1001
ACAD
1000
AcDbSavedByObjectVersion
1070
     0
  0
ACAD_PROXY_OBJECT
  5
35
102
{ACAD_REACTORS
330
2A
102
}
330
2A
100
AcDbZombieObject
 90
      499
 91
      501
 93
      412
310
40D11A5B50B409028333333333333E3BF0000000000000FB010790141107004050150841D405064090741402480A02677FFFFFD0
1001
ACAD
1000
AcDbSavedByObjectVersion
1070
     0
  0
ACAD_PROXY_OBJECT
  5
39
102
{ACAD_REACTORS
330
2A
102
}
330
2A
100
AcDbZombieObject
 90
      499
 91
      501
 93
      444
310
42D19858D95C185D1D195C9B90F409028333333333333E3BF0000000000000FB010790141107004050150841D405064090741402480A0350
1001
ACAD
1000
AcDbSavedByObjectVersion
1070
     0
  0
ACAD_PROXY_OBJECT
  5
2B
102
{ACAD_REACTORS
330
2A
102
}
330
2A
100
AcDbZombieObject
 90
      499
 91
      501
 93
      388
310
41119B185D240901404333333333333E3BF0000000000000F9010740A41107004050150841D405064090741402480A1B50
1001
ACAD
1000
AcDbSavedByObjectVersion
1070
     0
  0
ACAD_PROXY_OBJECT
  5
2C
102
{ACAD_REACTORS
330
2A
102
}
330
2A
100
AcDbZombieObject
 90
      499
 91
      501
 93
      476
310
43519B185D15DA5D1A115919D95CD0140901404333333333333E3BF0000000000000F9010740901411070040501600405405064090741402480A1B50
1001
ACAD
1000
AcDbSavedByObjectVersion
1070
     0
  0
ACAD_PROXY_OBJECT
  5
2D
102
{ACAD_REACTORS
330
2A
102
}
330
2A
100
AcDbZombieObject
 90
      499
 91
      501
 93
      412
310
41D1DBDD5C985D5910240902404333333333333E3BF0000000000000F9010740A411070040501641D405064090741402480A1B50
1001
ACAD
1000
AcDbSavedByObjectVersion
1070
     0
  0
ACAD_PROXY_OBJECT
  5
2E
102
{ACAD_REACTORS
330
2A
102
}
330
2A
100
AcDbZombieObject
 90
      499
 91
      501
 93
      500
310
4411DBDD5C985D5915DA5D1A115919D95CD0340902404333333333333E3BF0000000000000F9010740901411070040501600405405064090741402480A1B50
1001
ACAD
1000
AcDbSavedByObjectVersion
1070
     0
  0
ACAD_PROXY_OBJECT
  5
38
102
{ACAD_REACTORS
330
2A
102
}
330
2A
100
AcDbZombieObject
 90
      499
 91
      501
 93
      444
310
42D31A5B995C185D1D195C9B90E409028333333333333E3BF0000000000000FB010790141107004050750841D405064090741402483A0350
1001
ACAD
1000
AcDbSavedByObjectVersion
1070
     0
  0
ACAD_PROXY_OBJECT
  5
33
102
{ACAD_REACTORS
330
2A
102
}
330
2A
100
AcDbZombieObject
 90
      499
 91
      501
 93
      420
310
425499585B1A5CDD1A58D08409028333333333333E3BF0000000000000FB01079019070040501508421405064090741402480A1B40
1001
ACAD
1000
AcDbSavedByObjectVersion
1070
     0
  0
ACAD_PROXY_OBJECT
  5
37
102
{ACAD_REACTORS
330
2A
102
}
330
2A
100
AcDbZombieObject
 90
      499
 91
      501
 93
      412
310
41D51A1A58DAD95B90D409028333333333333E3BF0000000000000FB010790141107004050150C41D405064090741402480A0350
1001
ACAD
1000
AcDbSavedByObjectVersion
1070
     0
  0
DICTIONARYVAR
  5
2DF
102
{ACAD_REACTORS
330
2DC
102
}
330
2DC
100
DictionaryVariables
280
     0
  1
1:1
  0
DICTIONARYVAR
  5
2E0
102
{ACAD_REACTORS
330
2DC
102
}
330
2DC
100
DictionaryVariables
280
     0
  1
2
  0
DICTIONARYVAR
  5
2E1
102
{ACAD_REACTORS
330
2DC
102
}
330
2DC
100
DictionaryVariables
280
     0
  1
1
  0
ENDSEC
  0
EOF
