  0
SECTION
  2
HEADER
  9
$ACADVER
  1
AC1012
  9
$DWGCODEPAGE
  3
ansi_1252
  9
$INSBASE
 10
0.0
 20
0.0
 30
0.0
  9
$EXTMIN
 10
0.0
 20
0.0
 30
0.0
  9
$EXTMAX
 10
11.0
 20
8.5
 30
0.0
  9
$LIMMIN
 10
0.0
 20
0.0
  9
$LIMMAX
 10
11.0
 20
8.5
  9
$ORTHOMODE
 70
     0
  9
$REGENMODE
 70
     1
  9
$FILLMODE
 70
     1
  9
$QTEXTMODE
 70
     0
  9
$MIRRTEXT
 70
     1
  9
$DRAGMODE
 70
     2
  9
$LTSCALE
 40
1.0
  9
$OSMODE
 70
    37
  9
$ATTMODE
 70
     1
  9
$TEXTSIZE
 40
0.125
  9
$TRACEWID
 40
0.05
  9
$TEXTSTYLE
  7
STANDARD
  9
$CLAYER
  8
0
  9
$CELTYPE
  6
BYLAYER
  9
$CECOLOR
 62
   256
  9
$CELTSCALE
 40
1.0
  9
$DELOBJ
 70
     1
  9
$DISPSILH
 70
     0
  9
$DIMSCALE
 40
1.0
  9
$DIMASZ
 40
0.13
  9
$DIMEXO
 40
0.05
  9
$DIMDLI
 40
0.38
  9
$DIMRND
 40
0.0
  9
$DIMDLE
 40
0.0
  9
$DIMEXE
 40
0.125
  9
$DIMTP
 40
0.0
  9
$DIMTM
 40
0.0
  9
$DIMTXT
 40
0.125
  9
$DIMCEN
 40
0.09
  9
$DIMTSZ
 40
0.0
  9
$DIMTOL
 70
     0
  9
$DIMLIM
 70
     0
  9
$DIMTIH
 70
     1
  9
$DIMTOH
 70
     1
  9
$DIMSE1
 70
     0
  9
$DIMSE2
 70
     0
  9
$DIMTAD
 70
     0
  9
$DIMZIN
 70
     0
  9
$DIMBLK
  1

  9
$DIMASO
 70
     1
  9
$DIMSHO
 70
     1
  9
$DIMPOST
  1

  9
$DIMAPOST
  1

  9
$DIMALT
 70
     0
  9
$DIMALTD
 70
     2
  9
$DIMALTF
 40
25.4
  9
$DIMLFAC
 40
1.0
  9
$DIMTOFL
 70
     0
  9
$DIMTVP
 40
0.0
  9
$DIMTIX
 70
     0
  9
$DIMSOXD
 70
     0
  9
$DIMSAH
 70
     0
  9
$DIMBLK1
  1

  9
$DIMBLK2
  1

  9
$DIMSTYLE
  2
STANDARD
  9
$DIMCLRD
 70
     0
  9
$DIMCLRE
 70
     0
  9
$DIMCLRT
 70
     0
  9
$DIMTFAC
 40
1.0
  9
$DIMGAP
 40
0.06
  9
$DIMJUST
 70
     0
  9
$DIMSD1
 70
     0
  9
$DIMSD2
 70
     0
  9
$DIMTOLJ
 70
     1
  9
$DIMTZIN
 70
     0
  9
$DIMALTZ
 70
     0
  9
$DIMALTTZ
 70
     0
  9
$DIMFIT
 70
     3
  9
$DIMUPT
 70
     0
  9
$DIMUNIT
 70
     2
  9
$DIMDEC
 70
     3
  9
$DIMTDEC
 70
     3
  9
$DIMALTU
 70
     2
  9
$DIMALTTD
 70
     2
  9
$DIMTXSTY
  7
STANDARD
  9
$DIMAUNIT
 70
     0
  9
$LUNITS
 70
     2
  9
$LUPREC
 70
     2
  9
$SKETCHINC
 40
0.1
  9
$FILLETRAD
 40
0.5
  9
$AUNITS
 70
     0
  9
$AUPREC
 70
     2
  9
$MENU
  1
.
  9
$ELEVATION
 40
0.0
  9
$PELEVATION
 40
0.0
  9
$THICKNESS
 40
0.0
  9
$LIMCHECK
 70
     0
  9
$CHAMFERA
 40
0.5
  9
$CHAMFERB
 40
0.5
  9
$CHAMFERC
 40
1.0
  9
$CHAMFERD
 40
0.0
  9
$SKPOLY
 70
     0
  9
$TDCREATE
 40
2455784.013780173
  9
$TDUPDATE
 40
2455784.013780185
  9
$TDINDWG
 40
0.0000000116
  9
$TDUSRTIMER
 40
0.0000000116
  9
$USRTIMER
 70
     1
  9
$ANGBASE
 50
0.0
  9
$ANGDIR
 70
     0
  9
$PDMODE
 70
     0
  9
$PDSIZE
 40
-1.0
  9
$PLINEWID
 40
0.0
  9
$COORDS
 70
     1
  9
$SPLFRAME
 70
     0
  9
$SPLINETYPE
 70
     6
  9
$SPLINESEGS
 70
     8
  9
$ATTDIA
 70
     0
  9
$ATTREQ
 70
     1
  9
$HANDLING
 70
     1
  9
$HANDSEED
  5
493
  9
$SURFTAB1
 70
     6
  9
$SURFTAB2
 70
     6
  9
$SURFTYPE
 70
     6
  9
$SURFU
 70
     6
  9
$SURFV
 70
     6
  9
$UCSNAME
  2

  9
$UCSORG
 10
0.0
 20
0.0
 30
0.0
  9
$UCSXDIR
 10
1.0
 20
0.0
 30
0.0
  9
$UCSYDIR
 10
0.0
 20
1.0
 30
0.0
  9
$PUCSNAME
  2

  9
$PUCSORG
 10
0.0
 20
0.0
 30
0.0
  9
$PUCSXDIR
 10
1.0
 20
0.0
 30
0.0
  9
$PUCSYDIR
 10
0.0
 20
1.0
 30
0.0
  9
$USERI1
 70
     0
  9
$USERI2
 70
     0
  9
$USERI3
 70
     0
  9
$USERI4
 70
     0
  9
$USERI5
 70
     0
  9
$USERR1
 40
0.0
  9
$USERR2
 40
0.0
  9
$USERR3
 40
0.0
  9
$USERR4
 40
0.0
  9
$USERR5
 40
0.0
  9
$WORLDVIEW
 70
     1
  9
$SHADEDGE
 70
     3
  9
$SHADEDIF
 70
    70
  9
$TILEMODE
 70
     1
  9
$MAXACTVP
 70
    64
  9
$PINSBASE
 10
0.0
 20
0.0
 30
0.0
  9
$PLIMCHECK
 70
     0
  9
$PEXTMIN
 10
1.0000000000E+20
 20
1.0000000000E+20
 30
1.0000000000E+20
  9
$PEXTMAX
 10
-1.0000000000E+20
 20
-1.0000000000E+20
 30
-1.0000000000E+20
  9
$PLIMMIN
 10
0.0
 20
0.0
  9
$PLIMMAX
 10
12.0
 20
9.0
  9
$UNITMODE
 70
     0
  9
$VISRETAIN
 70
     1
  9
$PLINEGEN
 70
     0
  9
$PSLTSCALE
 70
     1
  9
$TREEDEPTH
 70
  3020
  9
$PICKSTYLE
 70
     1
  9
$CMLSTYLE
  2
STANDARD
  9
$CMLJUST
 70
     0
  9
$CMLSCALE
 40
1.0
  9
$SAVEIMAGES
 70
     1
  0
ENDSEC
  0
SECTION
  2
CLASSES
  0
CLASS
  1
ACDBDICTIONARYWDFLT
  2
AcDbDictionaryWithDefault
  3
ObjectDBX Classes
 90
    32768
280
     0
281
     0
  0
CLASS
  1
VISUALSTYLE
  2
AcDbVisualStyle
  3
ObjectDBX Classes
 90
     4095
280
     0
281
     0
  0
CLASS
  1
SCALE
  2
AcDbScale
  3
ObjectDBX Classes
 90
     1153
280
     0
281
     0
  0
CLASS
  1
DICTIONARYVAR
  2
AcDbDictionaryVar
  3
ObjectDBX Classes
 90
        0
280
     0
281
     0
  0
CLASS
  1
XRECORD
  2
AcDbXrecord
  3
AutoCAD 2000
 90
    32768
280
     0
281
     0
  0
CLASS
  1
LWPOLYLINE
  2
AcDbPolyline
  3
AutoCAD 2000
 90
    32768
280
     0
281
     1
  0
CLASS
  1
HATCH
  2
AcDbHatch
  3
AutoCAD 2000
 90
    32768
280
     0
281
     1
  0
CLASS
  1
ACDBPLACEHOLDER
  2
AcDbPlaceHolder
  3
ObjectDBX Classes
 90
        0
280
     0
281
     0
  0
CLASS
  1
LAYOUT
  2
AcDbLayout
  3
ObjectDBX Classes
 90
        0
280
     0
281
     0
  0
ENDSEC
  0
SECTION
  2
TABLES
  0
TABLE
  2
VPORT
  5
8
330
0
100
AcDbSymbolTable
 70
     1
  0
VPORT
  5
29
330
8
100
AcDbSymbolTableRecord
100
AcDbViewportTableRecord
  2
*ACTIVE
 70
     0
 10
0.0
 20
0.0
 11
1.0
 21
1.0
 12
5.5
 22
4.25
 13
0.0
 23
0.0
 14
0.5
 24
0.5
 15
0.5
 25
0.5
 16
0.0
 26
0.0
 36
1.0
 17
0.0
 27
0.0
 37
0.0
 40
8.5
 41
1.2941176471
 42
50.0
 43
0.0
 44
0.0
 50
0.0
 51
0.0
 71
     0
 72
  2000
 73
     1
 74
     3
 75
     0
 76
     0
 77
     0
 78
     0
  0
ENDTAB
  0
TABLE
  2
LTYPE
  5
5
330
0
100
AcDbSymbolTable
 70
     6
  0
LTYPE
  5
14
330
5
100
AcDbSymbolTableRecord
100
AcDbLinetypeTableRecord
  2
BYBLOCK
 70
     0
  3

 72
    65
 73
     0
 40
0.0
  0
LTYPE
  5
15
330
5
100
AcDbSymbolTableRecord
100
AcDbLinetypeTableRecord
  2
BYLAYER
 70
     0
  3

 72
    65
 73
     0
 40
0.0
  0
LTYPE
  5
16
330
5
100
AcDbSymbolTableRecord
100
AcDbLinetypeTableRecord
  2
CONTINUOUS
 70
     0
  3
Solid line
 72
    65
 73
     0
 40
0.0
  0
LTYPE
  5
3B
330
5
100
AcDbSymbolTableRecord
100
AcDbLinetypeTableRecord
  2
HIDDEN
 70
     0
  3
Hidden __ __ __ __ __ __ __ __ __ __ __ __ __ __
 72
    65
 73
     2
 40
0.075
 49
0.05
 74
     0
 49
-0.025
 74
     0
  0
LTYPE
  5
3C
330
5
100
AcDbSymbolTableRecord
100
AcDbLinetypeTableRecord
  2
PHANTOM
 70
     0
  3
Phantom ______  __  __  ______  __  __  ______
 72
    65
 73
     6
 40
0.5
 49
0.25
 74
     0
 49
-0.05
 74
     0
 49
0.05
 74
     0
 49
-0.05
 74
     0
 49
0.05
 74
     0
 49
-0.05
 74
     0
  0
LTYPE
  5
3D
330
5
100
AcDbSymbolTableRecord
100
AcDbLinetypeTableRecord
  2
CENTER
 70
     0
  3
Center ____ _ ____ _ ____ _ ____ _ ____ _ ____
 72
    65
 73
     4
 40
0.4
 49
0.25
 74
     0
 49
-0.05
 74
     0
 49
0.05
 74
     0
 49
-0.05
 74
     0
  0
LTYPE
  5
3E
330
5
100
AcDbSymbolTableRecord
100
AcDbLinetypeTableRecord
  2
CENTERX2
 70
     0
  3
Center (2x) ________  __  ________  __  _____
 72
    65
 73
     4
 40
0.8
 49
0.5
 74
     0
 49
-0.1
 74
     0
 49
0.1
 74
     0
 49
-0.1
 74
     0
  0
LTYPE
  5
3F
330
5
100
AcDbSymbolTableRecord
100
AcDbLinetypeTableRecord
  2
DOT2
 70
     0
  3
Dot (.5x) ........................................
 72
    65
 73
     2
 40
0.025
 49
0.0
 74
     0
 49
-0.025
 74
     0
  0
ENDTAB
  0
TABLE
  2
LAYER
  5
2
330
0
100
AcDbSymbolTable
 70
     2
  0
LAYER
  5
10
330
2
100
AcDbSymbolTableRecord
100
AcDbLayerTableRecord
  2
0
 70
     0
 62
     7
  6
CONTINUOUS
  0
LAYER
  5
40
330
2
100
AcDbSymbolTableRecord
100
AcDbLayerTableRecord
  2
FORMAT
 70
     0
 62
     7
  6
CONTINUOUS
  0
ENDTAB
  0
TABLE
  2
STYLE
  5
3
330
0
100
AcDbSymbolTable
 70
     4
  0
STYLE
  5
11
330
3
100
AcDbSymbolTableRecord
100
AcDbTextStyleTableRecord
  2
STANDARD
 70
     0
 40
0.0
 41
1.0
 50
0.0
 71
     0
 42
0.2
  3
txt
  4

  0
STYLE
  5
6E
330
3
100
AcDbSymbolTableRecord
100
AcDbTextStyleTableRecord
  2
SLDTEXTSTYLE0
 70
     0
 40
0.0
 41
0.75
 50
0.0
 71
     0
 42
0.2
  3
TXT
  4

  0
STYLE
  5
93
330
3
100
AcDbSymbolTableRecord
100
AcDbTextStyleTableRecord
  2
SLDTEXTSTYLE1
 70
     0
 40
0.0
 41
0.6875
 50
0.0
 71
     0
 42
0.2
  3
TXT
  4

  0
STYLE
  5
99
330
3
100
AcDbSymbolTableRecord
100
AcDbTextStyleTableRecord
  2
SLDTEXTSTYLE2
 70
     0
 40
0.0
 41
0.6944444444
 50
0.0
 71
     0
 42
0.2
  3
TXT
  4

  0
ENDTAB
  0
TABLE
  2
VIEW
  5
6
330
0
100
AcDbSymbolTable
 70
     0
  0
ENDTAB
  0
TABLE
  2
UCS
  5
7
330
0
100
AcDbSymbolTable
 70
     0
  0
ENDTAB
  0
TABLE
  2
APPID
  5
9
330
0
100
AcDbSymbolTable
 70
     1
  0
APPID
  5
12
330
9
100
AcDbSymbolTableRecord
100
AcDbRegAppTableRecord
  2
ACAD
 70
     0
  0
ENDTAB
  0
TABLE
  2
DIMSTYLE
  5
A
330
0
100
AcDbSymbolTable
 70
     1
  0
DIMSTYLE
105
27
330
A
100
AcDbSymbolTableRecord
100
AcDbDimStyleTableRecord
  2
STANDARD
 70
     0
  3

  4

  5

  6

  7

 40
1.0
 41
0.18
 42
0.0625
 43
0.38
 44
0.18
 45
0.0
 46
0.0
 47
0.0
 48
0.0
140
0.18
141
0.09
142
0.0
143
25.4
144
1.0
145
0.0
146
1.0
147
0.09
 71
     0
 72
     0
 73
     1
 74
     1
 75
     0
 76
     0
 77
     0
 78
     0
170
     0
171
     2
172
     0
173
     0
174
     0
175
     0
176
     0
177
     0
178
     0
270
     2
271
     4
272
     4
273
     2
274
     2
340
11
275
     0
280
     0
281
     0
282
     0
283
     1
284
     0
285
     0
286
     0
287
     3
288
     0
  0
ENDTAB
  0
TABLE
  2
BLOCK_RECORD
  5
1
330
0
100
AcDbSymbolTable
 70
     4
  0
BLOCK_RECORD
  5
1F
330
1
100
AcDbSymbolTableRecord
100
AcDbBlockTableRecord
  2
*MODEL_SPACE
  0
BLOCK_RECORD
  5
1B
330
1
100
AcDbSymbolTableRecord
100
AcDbBlockTableRecord
  2
*PAPER_SPACE
  0
BLOCK_RECORD
  5
A8
330
1
100
AcDbSymbolTableRecord
100
AcDbBlockTableRecord
  2
SW_NOTE_0
  0
BLOCK_RECORD
  5
AE
330
1
100
AcDbSymbolTableRecord
100
AcDbBlockTableRecord
  2
SW_NOTE_1
  0
BLOCK_RECORD
  5
C2
330
1
100
AcDbSymbolTableRecord
100
AcDbBlockTableRecord
  2
SW_NOTE_2
  0
ENDTAB
  0
ENDSEC
  0
SECTION
  2
BLOCKS
  0
BLOCK
  5
20
330
1F
100
AcDbEntity
  8
0
100
AcDbBlockBegin
  2
*MODEL_SPACE
 70
     0
 10
0.0
 20
0.0
 30
0.0
  3
*MODEL_SPACE
  1

  0
ENDBLK
  5
21
330
1F
100
AcDbEntity
  8
0
100
AcDbBlockEnd
  0
BLOCK
  5
1C
330
1B
100
AcDbEntity
 67
     1
  8
0
100
AcDbBlockBegin
  2
*PAPER_SPACE
 70
     0
 10
0.0
 20
0.0
 30
0.0
  3
*PAPER_SPACE
  1

  0
ENDBLK
  5
1D
330
1B
100
AcDbEntity
 67
     1
  8
0
100
AcDbBlockEnd
  0
BLOCK
  5
A9
330
A8
100
AcDbEntity
  8
0
100
AcDbBlockBegin
  2
SW_NOTE_0
 70
     0
 10
0.0
 20
0.0
 30
0.0
  3
SW_NOTE_0
  1

  0
MTEXT
  5
AB
330
A8
100
AcDbEntity
  8
0
  6
CONTINUOUS
 62
     0
100
AcDbMText
 10
0.0
 20
0.0773440644
 30
0.0
 40
0.06
 41
0.0
 71
     1
 72
     1
  1
INTERPRET GEOMETRIC
  7
SLDTEXTSTYLE0
  0
MTEXT
  5
AC
330
A8
100
AcDbEntity
  8
0
  6
CONTINUOUS
 62
     0
100
AcDbMText
 10
0.0
 20
-0.0220260102
 30
0.0
 40
0.06
 41
0.0
 71
     1
 72
     1
  1
TOLERANCING PER:
  7
SLDTEXTSTYLE0
  0
ENDBLK
  5
AA
330
A8
100
AcDbEntity
  8
0
100
AcDbBlockEnd
  0
BLOCK
  5
AF
330
AE
100
AcDbEntity
  8
0
100
AcDbBlockBegin
  2
SW_NOTE_1
 70
     0
 10
0.0
 20
0.0
 30
0.0
  3
SW_NOTE_1
  1

  0
MTEXT
  5
B1
330
AE
100
AcDbEntity
  8
0
  6
CONTINUOUS
 62
     0
100
AcDbMText
 10
0.0
 20
0.0837894031
 30
0.0
 40
0.065
 41
0.0
 71
     1
 72
     1
  1
DIMENSIONS ARE IN INCHES
  7
SLDTEXTSTYLE0
  0
MTEXT
  5
B2
330
AE
100
AcDbEntity
  8
0
  6
CONTINUOUS
 62
     0
100
AcDbMText
 10
0.0
 20
-0.0205806729
 30
0.0
 40
0.065
 41
0.0
 71
     1
 72
     1
  1
TOLERANCES:
  7
SLDTEXTSTYLE0
  0
MTEXT
  5
B3
330
AE
100
AcDbEntity
  8
0
  6
CONTINUOUS
 62
     0
100
AcDbMText
 10
0.0
 20
-0.1249507489
 30
0.0
 40
0.065
 41
0.0
 71
     1
 72
     1
  1
FRACTIONAL
  7
SLDTEXTSTYLE0
  0
MTEXT
  5
B4
330
AE
100
AcDbEntity
  8
0
  6
CONTINUOUS
 62
     0
100
AcDbMText
 10
0.5175850875
 20
-0.1249507489
 30
0.0
 40
0.065
 41
0.0
 71
     1
 72
     1
  1
%%p
  7
SLDTEXTSTYLE0
  0
MTEXT
  5
B5
330
AE
100
AcDbEntity
  8
0
  6
CONTINUOUS
 62
     0
100
AcDbMText
 10
0.0
 20
-0.2293208248
 30
0.0
 40
0.065
 41
0.0
 71
     1
 72
     1
  1
ANGULAR: MACH
  7
SLDTEXTSTYLE0
  0
MTEXT
  5
B6
330
AE
100
AcDbEntity
  8
0
  6
CONTINUOUS
 62
     0
100
AcDbMText
 10
0.7233732769
 20
-0.2293208248
 30
0.0
 40
0.065
 41
0.0
 71
     1
 72
     1
  1
%%p
  7
SLDTEXTSTYLE0
  0
MTEXT
  5
B7
330
AE
100
AcDbEntity
  8
0
  6
CONTINUOUS
 62
     0
100
AcDbMText
 10
0.7852857683
 20
-0.2293208248
 30
0.0
 40
0.065
 41
0.0
 71
     1
 72
     1
  1
     BEND 
  7
SLDTEXTSTYLE0
  0
MTEXT
  5
B8
330
AE
100
AcDbEntity
  8
0
  6
CONTINUOUS
 62
     0
100
AcDbMText
 10
1.14784136
 20
-0.2293208248
 30
0.0
 40
0.065
 41
0.0
 71
     1
 72
     1
  1
%%p
  7
SLDTEXTSTYLE0
  0
MTEXT
  5
B9
330
AE
100
AcDbEntity
  8
0
  6
CONTINUOUS
 62
     0
100
AcDbMText
 10
0.0
 20
-0.3336909008
 30
0.0
 40
0.065
 41
0.0
 71
     1
 72
     1
  1
TWO PLACE DECIMAL    
  7
SLDTEXTSTYLE0
  0
MTEXT
  5
BA
330
AE
100
AcDbEntity
  8
0
  6
CONTINUOUS
 62
     0
100
AcDbMText
 10
0.9794349188
 20
-0.3336909008
 30
0.0
 40
0.065
 41
0.0
 71
     1
 72
     1
  1
%%p
  7
SLDTEXTSTYLE0
  0
MTEXT
  5
BB
330
AE
100
AcDbEntity
  8
0
  6
CONTINUOUS
 62
     0
100
AcDbMText
 10
0.0
 20
-0.4380609768
 30
0.0
 40
0.065
 41
0.0
 71
     1
 72
     1
  1
THREE PLACE DECIMAL  
  7
SLDTEXTSTYLE0
  0
MTEXT
  5
BC
330
AE
100
AcDbEntity
  8
0
  6
CONTINUOUS
 62
     0
100
AcDbMText
 10
0.9738038639
 20
-0.4380609768
 30
0.0
 40
0.065
 41
0.0
 71
     1
 72
     1
  1
%%p
  7
SLDTEXTSTYLE0
  0
ENDBLK
  5
B0
330
AE
100
AcDbEntity
  8
0
100
AcDbBlockEnd
  0
BLOCK
  5
C3
330
C2
100
AcDbEntity
  8
0
100
AcDbBlockBegin
  2
SW_NOTE_2
 70
     0
 10
0.0
 20
0.0
 30
0.0
  3
SW_NOTE_2
  1

  0
MTEXT
  5
C5
330
C2
100
AcDbEntity
  8
0
  6
CONTINUOUS
 62
     0
100
AcDbMText
 10
0.0
 20
0.0773440644
 30
0.0
 40
0.06
 41
0.0
 71
     1
 72
     1
  1
THE INFORMATION CONTAINED IN THIS
  7
SLDTEXTSTYLE0
  0
MTEXT
  5
C6
330
C2
100
AcDbEntity
  8
0
  6
CONTINUOUS
 62
     0
100
AcDbMText
 10
0.0
 20
-0.0220260102
 30
0.0
 40
0.06
 41
0.0
 71
     1
 72
     1
  1
DRAWING IS THE SOLE PROPERTY OF
  7
SLDTEXTSTYLE0
  0
MTEXT
  5
C7
330
C2
100
AcDbEntity
  8
0
  6
CONTINUOUS
 62
     0
100
AcDbMText
 10
0.0
 20
-0.1213960848
 30
0.0
 40
0.06
 41
0.0
 71
     1
 72
     1
  1
Candy Controls.  ANY 
  7
SLDTEXTSTYLE0
  0
MTEXT
  5
C8
330
C2
100
AcDbEntity
  8
0
  6
CONTINUOUS
 62
     0
100
AcDbMText
 10
0.0
 20
-0.2207661593
 30
0.0
 40
0.06
 41
0.0
 71
     1
 72
     1
  1
REPRODUCTION IN PART OR AS A WHOLE
  7
SLDTEXTSTYLE0
  0
MTEXT
  5
C9
330
C2
100
AcDbEntity
  8
0
  6
CONTINUOUS
 62
     0
100
AcDbMText
 10
0.0
 20
-0.3201362339
 30
0.0
 40
0.06
 41
0.0
 71
     1
 72
     1
  1
WITHOUT THE WRITTEN PERMISSION OF
  7
SLDTEXTSTYLE0
  0
MTEXT
  5
CA
330
C2
100
AcDbEntity
  8
0
  6
CONTINUOUS
 62
     0
100
AcDbMText
 10
0.0
 20
-0.4195063085
 30
0.0
 40
0.06
 41
0.0
 71
     1
 72
     1
  1
Candy Controls IS 
  7
SLDTEXTSTYLE0
  0
MTEXT
  5
CB
330
C2
100
AcDbEntity
  8
0
  6
CONTINUOUS
 62
     0
100
AcDbMText
 10
0.0
 20
-0.518876383
 30
0.0
 40
0.06
 41
0.0
 71
     1
 72
     1
  1
PROHIBITED.
  7
SLDTEXTSTYLE0
  0
ENDBLK
  5
C4
330
C2
100
AcDbEntity
  8
0
100
AcDbBlockEnd
  0
ENDSEC
  0
SECTION
  2
ENTITIES
  0
LINE
  5
41
330
1F
100
AcDbEntity
  8
0
  6
CONTINUOUS
 62
     7
100
AcDbLine
 10
0.329927
 20
8.1920731707
 30
0.0
 11
10.629927
 21
8.1920731707
 31
0.0
  0
LINE
  5
42
330
1F
100
AcDbEntity
  8
0
  6
CONTINUOUS
 62
     7
100
AcDbLine
 10
0.329927
 20
8.1920731707
 30
0.0
 11
0.329927
 21
0.3920731707
 31
0.0
  0
LINE
  5
43
330
1F
100
AcDbEntity
  8
0
  6
CONTINUOUS
 62
     7
100
AcDbLine
 10
10.629927
 20
0.3920731707
 30
0.0
 11
0.329927
 21
0.3920731707
 31
0.0
  0
LINE
  5
44
330
1F
100
AcDbEntity
  8
0
  6
CONTINUOUS
 62
     7
100
AcDbLine
 10
10.629927
 20
0.3920731707
 30
0.0
 11
10.629927
 21
8.1920731707
 31
0.0
  0
LINE
  5
45
330
1F
100
AcDbEntity
  8
0
  6
CONTINUOUS
 62
     7
100
AcDbLine
 10
4.7981841288
 20
0.3920731707
 30
0.0
 11
4.7981841288
 21
2.3564211366
 31
0.0
  0
LINE
  5
46
330
1F
100
AcDbEntity
  8
0
  6
CONTINUOUS
 62
     7
100
AcDbLine
 10
2.8210345579
 20
2.3564211366
 30
0.0
 11
10.629927
 21
2.3564211366
 31
0.0
  0
LINE
  5
47
330
1F
100
AcDbEntity
  8
0
  6
CONTINUOUS
 62
     7
100
AcDbLine
 10
6.1796352514
 20
2.3564211366
 30
0.0
 11
6.1796352514
 21
0.3920731707
 31
0.0
  0
LINE
  5
48
330
1F
100
AcDbEntity
  8
0
  6
CONTINUOUS
 62
     7
100
AcDbLine
 10
7.8712070044
 20
2.3564211366
 30
0.0
 11
7.8712070044
 21
0.3920731707
 31
0.0
  0
LINE
  5
49
330
1F
100
AcDbEntity
  8
0
  6
CONTINUOUS
 62
     7
100
AcDbLine
 10
7.8712070044
 20
0.6049590101
 30
0.0
 11
10.629927
 21
0.6049590101
 31
0.0
  0
LINE
  5
4A
330
1F
100
AcDbEntity
  8
0
  6
CONTINUOUS
 62
     7
100
AcDbLine
 10
7.8712070044
 20
1.1119362457
 30
0.0
 11
10.629927
 21
1.1119362457
 31
0.0
  0
LINE
  5
4B
330
1F
100
AcDbEntity
  8
0
  6
CONTINUOUS
 62
     7
100
AcDbLine
 10
7.8712070044
 20
1.9892703708
 30
0.0
 11
10.629927
 21
1.9892703708
 31
0.0
  0
LINE
  5
4C
330
1F
100
AcDbEntity
  8
0
  6
CONTINUOUS
 62
     7
100
AcDbLine
 10
8.266751752
 20
1.1119362457
 30
0.0
 11
8.266751752
 21
0.6049590101
 31
0.0
  0
LINE
  5
4D
330
1F
100
AcDbEntity
  8
0
  6
CONTINUOUS
 62
     7
100
AcDbLine
 10
8.6943435176
 20
0.6049590101
 30
0.0
 11
8.6943435176
 21
0.3920731707
 31
0.0
  0
LINE
  5
4E
330
1F
100
AcDbEntity
  8
0
  6
CONTINUOUS
 62
     7
100
AcDbLine
 10
10.0579917045
 20
1.1119362457
 30
0.0
 11
10.0579917045
 21
0.6049590101
 31
0.0
  0
LINE
  5
4F
330
1F
100
AcDbEntity
  8
0
  6
CONTINUOUS
 62
     7
100
AcDbLine
 10
9.6662556631
 20
0.6049590101
 30
0.0
 11
9.6662556631
 21
0.3920731707
 31
0.0
  0
LINE
  5
50
330
1F
100
AcDbEntity
  8
0
  6
CONTINUOUS
 62
     7
100
AcDbLine
 10
2.8210345579
 20
0.5883479999
 30
0.0
 11
6.1796352514
 21
0.5883479999
 31
0.0
  0
LINE
  5
51
330
1F
100
AcDbEntity
  8
0
  6
CONTINUOUS
 62
     7
100
AcDbLine
 10
6.1796352514
 20
1.7939211366
 30
0.0
 11
7.8712070044
 21
1.7939211366
 31
0.0
  0
LINE
  5
52
330
1F
100
AcDbEntity
  8
0
  6
CONTINUOUS
 62
     7
100
AcDbLine
 10
6.1796352514
 20
1.9814211366
 30
0.0
 11
7.8712070044
 21
1.9814211366
 31
0.0
  0
LINE
  5
53
330
1F
100
AcDbEntity
  8
0
  6
CONTINUOUS
 62
     7
100
AcDbLine
 10
6.1796352514
 20
2.1689211366
 30
0.0
 11
7.8712070044
 21
2.1689211366
 31
0.0
  0
LINE
  5
54
330
1F
100
AcDbEntity
  8
0
  6
CONTINUOUS
 62
     7
100
AcDbLine
 10
7.8712070044
 20
1.2314211366
 30
0.0
 11
6.1796352514
 21
1.2314211366
 31
0.0
  0
LINE
  5
55
330
1F
100
AcDbEntity
  8
0
  6
CONTINUOUS
 62
     7
100
AcDbLine
 10
7.3921580388
 20
2.3564211366
 30
0.0
 11
7.3921580388
 21
1.2314211366
 31
0.0
  0
LINE
  5
56
330
1F
100
AcDbEntity
  8
0
  6
CONTINUOUS
 62
     7
100
AcDbLine
 10
6.9236308342
 20
2.3564211366
 30
0.0
 11
6.9236308342
 21
1.2314211366
 31
0.0
  0
LINE
  5
57
330
1F
100
AcDbEntity
  8
0
  6
CONTINUOUS
 62
     7
100
AcDbLine
 10
4.7981841288
 20
0.8557965305
 30
0.0
 11
6.1796352514
 21
0.8557965305
 31
0.0
  0
LINE
  5
58
330
1F
100
AcDbEntity
  8
0
  6
CONTINUOUS
 62
     7
100
AcDbLine
 10
4.7981841288
 20
1.1257965305
 30
0.0
 11
6.1796352514
 21
1.1257965305
 31
0.0
  0
LINE
  5
59
330
1F
100
AcDbEntity
  8
0
  6
CONTINUOUS
 62
     7
100
AcDbLine
 10
2.8210345579
 20
0.3920731707
 30
0.0
 11
2.8210345579
 21
2.3564211366
 31
0.0
  0
LINE
  5
5A
330
1F
100
AcDbEntity
  8
0
  6
CONTINUOUS
 62
     7
100
AcDbLine
 10
2.8210345579
 20
1.1064211366
 30
0.0
 11
4.7981841288
 21
1.1064211366
 31
0.0
  0
LINE
  5
5B
330
1F
100
AcDbEntity
  8
0
  6
CONTINUOUS
 62
     7
100
AcDbLine
 10
2.8210345579
 20
1.3564211366
 30
0.0
 11
4.7981841288
 21
1.3564211366
 31
0.0
  0
LINE
  5
5C
330
1F
100
AcDbEntity
  8
0
  6
CONTINUOUS
 62
     7
100
AcDbLine
 10
2.8210345579
 20
1.6064211366
 30
0.0
 11
4.7981841288
 21
1.6064211366
 31
0.0
  0
LINE
  5
5D
330
1F
100
AcDbEntity
  8
0
  6
CONTINUOUS
 62
     7
100
AcDbLine
 10
2.8210345579
 20
1.8564211366
 30
0.0
 11
4.7981841288
 21
1.8564211366
 31
0.0
  0
LINE
  5
5E
330
1F
100
AcDbEntity
  8
0
  6
CONTINUOUS
 62
     7
100
AcDbLine
 10
3.8190146875
 20
2.3564211366
 30
0.0
 11
3.8190146875
 21
0.5883479999
 31
0.0
  0
LINE
  5
5F
330
1F
100
AcDbEntity
  8
0
  6
CONTINUOUS
 62
     7
100
AcDbLine
 10
6.1796352514
 20
2.2020813496
 30
0.0
 11
4.7981841288
 21
2.2020813496
 31
0.0
  0
LINE
  5
60
330
1F
100
AcDbEntity
  8
0
  6
CONTINUOUS
 62
     7
100
AcDbLine
 10
7.8712070044
 20
1.6064211366
 30
0.0
 11
6.1796352514
 21
1.6064211366
 31
0.0
  0
LINE
  5
61
330
1F
100
AcDbEntity
  8
0
  6
CONTINUOUS
 62
     7
100
AcDbLine
 10
7.8712070044
 20
1.4189211366
 30
0.0
 11
6.1796352514
 21
1.4189211366
 31
0.0
  0
LINE
  5
62
330
1F
100
AcDbEntity
  8
0
  6
CONTINUOUS
 62
     7
100
AcDbLine
 10
2.8210345579
 20
2.1064211366
 30
0.0
 11
4.7981841288
 21
2.1064211366
 31
0.0
  0
LINE
  5
63
330
1F
100
AcDbEntity
  8
0
  6
CONTINUOUS
 62
     7
100
AcDbLine
 10
4.7981841288
 20
1.3957965305
 30
0.0
 11
6.1796352514
 21
1.3957965305
 31
0.0
  0
LINE
  5
64
330
1F
100
AcDbEntity
  8
0
  6
CONTINUOUS
 62
     7
100
AcDbLine
 10
2.8210345579
 20
0.8564211366
 30
0.0
 11
4.7981841288
 21
0.8564211366
 31
0.0
  0
LINE
  5
65
330
1F
100
AcDbEntity
  8
0
  6
CONTINUOUS
 62
     7
100
AcDbLine
 10
1.1838252943
 20
0.3920731707
 30
0.0
 11
1.1838252943
 21
1.3064211366
 31
0.0
  0
LINE
  5
66
330
1F
100
AcDbEntity
  8
0
  6
CONTINUOUS
 62
     7
100
AcDbLine
 10
2.8210345579
 20
1.3064211366
 30
0.0
 11
1.1838252943
 21
1.3064211366
 31
0.0
  0
LINE
  5
67
330
1F
100
AcDbEntity
  8
0
  6
CONTINUOUS
 62
     7
100
AcDbLine
 10
8.660927
 20
0.3920731707
 30
0.0
 11
8.660927
 21
0.3072739649
 31
0.0
  0
LINE
  5
68
330
1F
100
AcDbEntity
  8
0
  6
CONTINUOUS
 62
     7
100
AcDbLine
 10
6.692177
 20
0.3920731707
 30
0.0
 11
6.692177
 21
0.3072739649
 31
0.0
  0
LINE
  5
69
330
1F
100
AcDbEntity
  8
0
  6
CONTINUOUS
 62
     7
100
AcDbLine
 10
4.723427
 20
0.3920731707
 30
0.0
 11
4.723427
 21
0.3072739649
 31
0.0
  0
LINE
  5
6A
330
1F
100
AcDbEntity
  8
0
  6
CONTINUOUS
 62
     7
100
AcDbLine
 10
2.754677
 20
0.3920731707
 30
0.0
 11
2.754677
 21
0.3072739649
 31
0.0
  0
LINE
  5
6B
330
1F
100
AcDbEntity
  8
0
  6
CONTINUOUS
 62
     7
100
AcDbLine
 10
2.754677
 20
0.3920731707
 30
0.0
 11
2.7672319738
 21
0.3575
 31
0.0
  0
LINE
  5
6C
330
1F
100
AcDbEntity
  8
0
  6
CONTINUOUS
 62
     7
100
AcDbLine
 10
2.7672319738
 20
0.3575
 30
0.0
 11
2.7414258825
 21
0.3575
 31
0.0
  0
LINE
  5
6D
330
1F
100
AcDbEntity
  8
0
  6
CONTINUOUS
 62
     7
100
AcDbLine
 10
2.7414258825
 20
0.3575
 30
0.0
 11
2.754677
 21
0.3920731707
 31
0.0
  0
MTEXT
  5
91
330
1F
100
AcDbEntity
  8
0
  6
CONTINUOUS
 62
     7
100
AcDbMText
 10
4.9775846961
 20
0.5178452352
 30
0.0
 40
0.0625
 41
0.0
 71
     1
 72
     1
  1
DO NOT SCALE DRAWING
  7
SLDTEXTSTYLE0
  0
MTEXT
  5
92
330
1F
100
AcDbEntity
  8
0
  6
CONTINUOUS
 62
     7
100
AcDbMText
 10
8.8567820915
 20
0.9417064595
 30
0.0
 40
0.125
 41
0.0
 71
     1
 72
     1
  1
CL2-200
  7
SLDTEXTSTYLE0
  0
MTEXT
  5
94
330
1F
100
AcDbEntity
  8
0
  6
CONTINUOUS
 62
     7
100
AcDbMText
 10
9.7571278483
 20
0.5524239532
 30
0.0
 40
0.1
 41
0.0
 71
     1
 72
     1
  1
SHEET 1 OF 1
  7
SLDTEXTSTYLE1
  0
MTEXT
  5
95
330
1F
100
AcDbEntity
  8
0
  6
CONTINUOUS
 62
     7
100
AcDbMText
 10
4.8448077858
 20
2.3132954224
 30
0.0
 40
0.07
 41
0.0
 71
     1
 72
     1
  1
UNLESS OTHERWISE SPECIFIED:
  7
SLDTEXTSTYLE0
  0
MTEXT
  5
96
330
1F
100
AcDbEntity
  8
0
  6
CONTINUOUS
 62
     7
100
AcDbMText
 10
7.9586139647
 20
0.5520987879
 30
0.0
 40
0.1
 41
0.0
 71
     1
 72
     1
  1
SCALE: 1:1
  7
SLDTEXTSTYLE0
  0
MTEXT
  5
97
330
1F
100
AcDbEntity
  8
0
  6
CONTINUOUS
 62
     7
100
AcDbMText
 10
8.7023691647
 20
0.5486763345
 30
0.0
 40
0.1
 41
0.0
 71
     1
 72
     1
  1
WEIGHT: 
  7
SLDTEXTSTYLE0
  0
MTEXT
  5
98
330
1F
100
AcDbEntity
  8
0
  6
CONTINUOUS
 62
     7
100
AcDbMText
 10
10.2277580983
 20
1.081966299
 30
0.0
 40
0.1
 41
0.0
 71
     1
 72
     1
  1
REV
  7
SLDTEXTSTYLE0
  0
MTEXT
  5
9A
330
1F
100
AcDbEntity
  8
0
  6
CONTINUOUS
 62
     7
100
AcDbMText
 10
8.2984570898
 20
1.0858725293
 30
0.0
 40
0.1
 41
0.0
 71
     1
 72
     1
  1
DWG.  NO.
  7
SLDTEXTSTYLE2
  0
MTEXT
  5
9B
330
1F
100
AcDbEntity
  8
0
  6
CONTINUOUS
 62
     7
100
AcDbMText
 10
7.9598482632
 20
0.9442140768
 30
0.0
 40
0.25
 41
0.0
 71
     1
 72
     1
  1
A
  7
SLDTEXTSTYLE0
  0
MTEXT
  5
9C
330
1F
100
AcDbEntity
  8
0
  6
CONTINUOUS
 62
     7
100
AcDbMText
 10
7.9519581822
 20
1.0872713483
 30
0.0
 40
0.1
 41
0.0
 71
     1
 72
     1
  1
SIZE
  7
SLDTEXTSTYLE0
  0
MTEXT
  5
9D
330
1F
100
AcDbEntity
  8
0
  6
CONTINUOUS
 62
     7
100
AcDbMText
 10
7.9170704177
 20
1.9547881128
 30
0.0
 40
0.1
 41
0.0
 71
     1
 72
     1
  1
TITLE:
  7
SLDTEXTSTYLE0
  0
MTEXT
  5
9E
330
1F
100
AcDbEntity
  8
0
  6
CONTINUOUS
 62
     7
100
AcDbMText
 10
7.0363774929
 20
2.2906161274
 30
0.0
 40
0.065
 41
0.0
 71
     1
 72
     1
  1
NAME
  7
SLDTEXTSTYLE0
  0
MTEXT
  5
9F
330
1F
100
AcDbEntity
  8
0
  6
CONTINUOUS
 62
     7
100
AcDbMText
 10
7.5281510634
 20
2.2888799118
 30
0.0
 40
0.065
 41
0.0
 71
     1
 72
     1
  1
DATE
  7
SLDTEXTSTYLE0
  0
MTEXT
  5
A0
330
1F
100
AcDbEntity
  8
0
  6
CONTINUOUS
 62
     7
100
AcDbMText
 10
6.2277147029
 20
1.1876913145
 30
0.0
 40
0.065
 41
0.0
 71
     1
 72
     1
  1
COMMENTS:
  7
SLDTEXTSTYLE0
  0
MTEXT
  5
A1
330
1F
100
AcDbEntity
  8
0
  6
CONTINUOUS
 62
     7
100
AcDbMText
 10
6.2268411461
 20
1.3536101679
 30
0.0
 40
0.065
 41
0.0
 71
     1
 72
     1
  1
Q.A.
  7
SLDTEXTSTYLE0
  0
MTEXT
  5
A2
330
1F
100
AcDbEntity
  8
0
  6
CONTINUOUS
 62
     7
100
AcDbMText
 10
6.2284654509
 20
1.5395328424
 30
0.0
 40
0.065
 41
0.0
 71
     1
 72
     1
  1
MFG APPR.
  7
SLDTEXTSTYLE0
  0
MTEXT
  5
A3
330
1F
100
AcDbEntity
  8
0
  6
CONTINUOUS
 62
     7
100
AcDbMText
 10
6.2235171344
 20
1.7267501785
 30
0.0
 40
0.065
 41
0.0
 71
     1
 72
     1
  1
ENG APPR.
  7
SLDTEXTSTYLE0
  0
MTEXT
  5
A4
330
1F
100
AcDbEntity
  8
0
  6
CONTINUOUS
 62
     7
100
AcDbMText
 10
6.2264103951
 20
1.9092699088
 30
0.0
 40
0.065
 41
0.0
 71
     1
 72
     1
  1
CHECKED
  7
SLDTEXTSTYLE0
  0
MTEXT
  5
A5
330
1F
100
AcDbEntity
  8
0
  6
CONTINUOUS
 62
     7
100
AcDbMText
 10
6.2242794356
 20
2.1016301232
 30
0.0
 40
0.065
 41
0.0
 71
     1
 72
     1
  1
DRAWN
  7
SLDTEXTSTYLE0
  0
MTEXT
  5
A6
330
1F
100
AcDbEntity
  8
0
  6
CONTINUOUS
 62
     7
100
AcDbMText
 10
4.8208600979
 20
0.834523235
 30
0.0
 40
0.06
 41
0.0
 71
     1
 72
     1
  1
FINISH
  7
SLDTEXTSTYLE0
  0
MTEXT
  5
A7
330
1F
100
AcDbEntity
  8
0
  6
CONTINUOUS
 62
     7
100
AcDbMText
 10
4.8181240648
 20
1.1028217587
 30
0.0
 40
0.06
 41
0.0
 71
     1
 72
     1
  1
MATERIAL
  7
SLDTEXTSTYLE0
  0
INSERT
  5
AD
330
1F
100
AcDbEntity
  8
0
  6
CONTINUOUS
 62
     7
100
AcDbBlockReference
  2
SW_NOTE_0
 10
4.8231926633
 20
1.2646542947
 30
0.0
  0
INSERT
  5
BD
330
1F
100
AcDbEntity
  8
0
  6
CONTINUOUS
 62
     7
100
AcDbBlockReference
  2
SW_NOTE_1
 10
4.8353339353
 20
2.0049168724
 30
0.0
  0
MTEXT
  5
BE
330
1F
100
AcDbEntity
  8
0
  6
CONTINUOUS
 62
     7
100
AcDbMText
 10
3.5531400086
 20
0.5200091997
 30
0.0
 40
0.0625
 41
0.0
 71
     1
 72
     1
  1
APPLICATION
  7
SLDTEXTSTYLE0
  0
MTEXT
  5
BF
330
1F
100
AcDbEntity
  8
0
  6
CONTINUOUS
 62
     7
100
AcDbMText
 10
4.1005607758
 20
0.7502454275
 30
0.0
 40
0.0625
 41
0.0
 71
     1
 72
     1
  1
USED ON
  7
SLDTEXTSTYLE0
  0
MTEXT
  5
C0
330
1F
100
AcDbEntity
  8
0
  6
CONTINUOUS
 62
     7
100
AcDbMText
 10
3.1040019536
 20
0.7492094783
 30
0.0
 40
0.0625
 41
0.0
 71
     1
 72
     1
  1
NEXT ASSY
  7
SLDTEXTSTYLE0
  0
MTEXT
  5
C1
330
1F
100
AcDbEntity
  8
0
  6
CONTINUOUS
 62
     7
100
AcDbMText
 10
1.3712489489
 20
1.2496672684
 30
0.0
 40
0.06
 41
0.0
 71
     1
 72
     1
  1
PROPRIETARY AND CONFIDENTIAL
  7
SLDTEXTSTYLE0
  0
INSERT
  5
CC
330
1F
100
AcDbEntity
  8
0
  6
CONTINUOUS
 62
     7
100
AcDbBlockReference
  2
SW_NOTE_2
 10
1.2226209074
 20
1.0313492921
 30
0.0
  0
MTEXT
  5
CD
330
1F
100
AcDbEntity
  8
0
  6
CONTINUOUS
 62
     7
100
AcDbMText
 10
1.7387909509
 20
0.3105864247
 30
0.0
 40
0.09375
 41
0.0
 71
     1
 72
     1
  1
5
  7
SLDTEXTSTYLE0
  0
MTEXT
  5
CE
330
1F
100
AcDbEntity
  8
0
  6
CONTINUOUS
 62
     7
100
AcDbMText
 10
3.723800327
 20
0.3137237518
 30
0.0
 40
0.09375
 41
0.0
 71
     1
 72
     1
  1
4
  7
SLDTEXTSTYLE0
  0
MTEXT
  5
CF
330
1F
100
AcDbEntity
  8
0
  6
CONTINUOUS
 62
     7
100
AcDbMText
 10
5.6324457277
 20
0.3116191842
 30
0.0
 40
0.09375
 41
0.0
 71
     1
 72
     1
  1
3
  7
SLDTEXTSTYLE0
  0
MTEXT
  5
D0
330
1F
100
AcDbEntity
  8
0
  6
CONTINUOUS
 62
     7
100
AcDbMText
 10
7.6059721724
 20
0.3124391351
 30
0.0
 40
0.09375
 41
0.0
 71
     1
 72
     1
  1
2
  7
SLDTEXTSTYLE0
  0
MTEXT
  5
D1
330
1F
100
AcDbEntity
  8
0
  6
CONTINUOUS
 62
     7
100
AcDbMText
 10
9.6619921328
 20
0.301372012
 30
0.0
 40
0.09375
 41
0.0
 71
     1
 72
     1
  1
1
  7
SLDTEXTSTYLE0
  0
LINE
  5
D2
330
1F
100
AcDbEntity
  8
0
  6
CONTINUOUS
 62
     7
100
AcDbLine
 10
2.3416361034
 20
2.7567097825
 30
0.0
 11
4.3116361034
 21
2.7567097825
 31
0.0
  0
LINE
  5
D3
330
1F
100
AcDbEntity
  8
0
  6
CONTINUOUS
 62
     7
100
AcDbLine
 10
2.4228676943
 20
4.7567097825
 30
0.0
 11
2.3416361034
 21
4.7567097825
 31
0.0
  0
LINE
  5
D4
330
1F
100
AcDbEntity
  8
0
  6
CONTINUOUS
 62
     7
100
AcDbLine
 10
4.0094818675
 20
4.7567097825
 30
0.0
 11
2.6437781925
 21
4.7567097825
 31
0.0
  0
LINE
  5
D5
330
1F
100
AcDbEntity
  8
0
  6
CONTINUOUS
 62
     7
100
AcDbLine
 10
4.3116361034
 20
4.7567097825
 30
0.0
 11
4.2303923657
 21
4.7567097825
 31
0.0
  0
LINE
  5
D6
330
1F
100
AcDbEntity
  8
0
  6
CONTINUOUS
 62
     7
100
AcDbLine
 10
4.3116361034
 20
2.7567097825
 30
0.0
 11
4.3266361034
 21
2.7717097825
 31
0.0
  0
LINE
  5
D7
330
1F
100
AcDbEntity
  8
0
  6
CONTINUOUS
 62
     7
100
AcDbLine
 10
4.3266361034
 20
4.7417097825
 30
0.0
 11
4.3116361034
 21
4.7567097825
 31
0.0
  0
LINE
  5
D8
330
1F
100
AcDbEntity
  8
0
  6
CONTINUOUS
 62
     7
100
AcDbLine
 10
2.3416361034
 20
4.7567097825
 30
0.0
 11
2.3266361034
 21
4.7417097825
 31
0.0
  0
LINE
  5
D9
330
1F
100
AcDbEntity
  8
0
  6
CONTINUOUS
 62
     7
100
AcDbLine
 10
2.3266361034
 20
2.7717097825
 30
0.0
 11
2.3416361034
 21
2.7567097825
 31
0.0
  0
LINE
  5
DA
330
1F
100
AcDbEntity
  8
0
  6
CONTINUOUS
 62
     7
100
AcDbLine
 10
2.6238104679
 20
4.7546535282
 30
0.0
 11
2.6217542136
 21
4.7567097825
 31
0.0
  0
LINE
  5
DB
330
1F
100
AcDbEntity
  8
0
  6
CONTINUOUS
 62
     7
100
AcDbLine
 10
2.4449038199
 20
4.7567097825
 30
0.0
 11
2.4428481704
 21
4.7546541329
 31
0.0
  0
LINE
  5
DC
330
1F
100
AcDbEntity
  8
0
  6
CONTINUOUS
 62
     7
100
AcDbLine
 10
4.2104246411
 20
4.7546535282
 30
0.0
 11
4.2083683868
 21
4.7567097825
 31
0.0
  0
LINE
  5
DD
330
1F
100
AcDbEntity
  8
0
  6
CONTINUOUS
 62
     7
100
AcDbLine
 10
4.0315179931
 20
4.7567097825
 30
0.0
 11
4.0294623436
 21
4.7546541329
 31
0.0
  0
LINE
  5
DE
330
1F
100
AcDbEntity
  8
0
  6
CONTINUOUS
 62
     7
100
AcDbLine
 10
4.3116361034
 20
2.7567097825
 30
0.0
 11
4.3116361034
 21
4.7567097825
 31
0.0
  0
LINE
  5
DF
330
1F
100
AcDbEntity
  8
0
  6
CONTINUOUS
 62
     7
100
AcDbLine
 10
2.3416361034
 20
4.7567097825
 30
0.0
 11
2.3416361034
 21
2.7567097825
 31
0.0
  0
POLYLINE
  5
E0
330
1F
100
AcDbEntity
  8
0
  6
CONTINUOUS
 62
     7
100
AcDb2dPolyline
 66
     1
 10
0.0
 20
0.0
 30
0.0
  0
VERTEX
  5
208
330
E0
100
AcDbEntity
  8
0
  6
CONTINUOUS
 62
     7
100
AcDbVertex
100
AcDb2dVertex
 10
2.6437781925
 20
4.7567084483
 30
0.0
  0
VERTEX
  5
209
330
E0
100
AcDbEntity
  8
0
  6
CONTINUOUS
 62
     7
100
AcDbVertex
100
AcDb2dVertex
 10
2.6437902723
 20
4.7567097749
 30
0.0
  0
VERTEX
  5
20A
330
E0
100
AcDbEntity
  8
0
  6
CONTINUOUS
 62
     7
100
AcDbVertex
100
AcDb2dVertex
 10
2.6416596048
 20
4.7564713182
 30
0.0
  0
VERTEX
  5
20B
330
E0
100
AcDbEntity
  8
0
  6
CONTINUOUS
 62
     7
100
AcDbVertex
100
AcDb2dVertex
 10
2.6352667046
 20
4.7557872273
 30
0.0
  0
VERTEX
  5
20C
330
E0
100
AcDbEntity
  8
0
  6
CONTINUOUS
 62
     7
100
AcDbVertex
100
AcDb2dVertex
 10
2.6250529836
 20
4.7547623648
 30
0.0
  0
VERTEX
  5
20D
330
E0
100
AcDbEntity
  8
0
  6
CONTINUOUS
 62
     7
100
AcDbVertex
100
AcDb2dVertex
 10
2.6113976054
 20
4.7535662382
 30
0.0
  0
VERTEX
  5
20E
330
E0
100
AcDbEntity
  8
0
  6
CONTINUOUS
 62
     7
100
AcDbVertex
100
AcDb2dVertex
 10
2.5947528718
 20
4.7523725762
 30
0.0
  0
VERTEX
  5
20F
330
E0
100
AcDbEntity
  8
0
  6
CONTINUOUS
 62
     7
100
AcDbVertex
100
AcDb2dVertex
 10
2.5755359042
 20
4.7513520452
 30
0.0
  0
VERTEX
  5
210
330
E0
100
AcDbEntity
  8
0
  6
CONTINUOUS
 62
     7
100
AcDbVertex
100
AcDb2dVertex
 10
2.5547075625
 20
4.7506591177
 30
0.0
  0
VERTEX
  5
211
330
E0
100
AcDbEntity
  8
0
  6
CONTINUOUS
 62
     7
100
AcDbVertex
100
AcDb2dVertex
 10
2.5332730063
 20
4.7504191098
 30
0.0
  0
VERTEX
  5
212
330
E0
100
AcDbEntity
  8
0
  6
CONTINUOUS
 62
     7
100
AcDbVertex
100
AcDb2dVertex
 10
2.5118659621
 20
4.7506608837
 30
0.0
  0
VERTEX
  5
213
330
E0
100
AcDbEntity
  8
0
  6
CONTINUOUS
 62
     7
100
AcDbVertex
100
AcDb2dVertex
 10
2.4910127397
 20
4.7513570293
 30
0.0
  0
VERTEX
  5
214
330
E0
100
AcDbEntity
  8
0
  6
CONTINUOUS
 62
     7
100
AcDbVertex
100
AcDb2dVertex
 10
2.4718170237
 20
4.7523782932
 30
0.0
  0
VERTEX
  5
215
330
E0
100
AcDbEntity
  8
0
  6
CONTINUOUS
 62
     7
100
AcDbVertex
100
AcDb2dVertex
 10
2.4551698484
 20
4.7535735338
 30
0.0
  0
VERTEX
  5
216
330
E0
100
AcDbEntity
  8
0
  6
CONTINUOUS
 62
     7
100
AcDbVertex
100
AcDb2dVertex
 10
2.4415487936
 20
4.754768087
 30
0.0
  0
VERTEX
  5
217
330
E0
100
AcDbEntity
  8
0
  6
CONTINUOUS
 62
     7
100
AcDbVertex
100
AcDb2dVertex
 10
2.4313457086
 20
4.7557930124
 30
0.0
  0
VERTEX
  5
218
330
E0
100
AcDbEntity
  8
0
  6
CONTINUOUS
 62
     7
100
AcDbVertex
100
AcDb2dVertex
 10
2.4249767687
 20
4.756474198
 30
0.0
  0
VERTEX
  5
219
330
E0
100
AcDbEntity
  8
0
  6
CONTINUOUS
 62
     7
100
AcDbVertex
100
AcDb2dVertex
 10
2.4228676943
 20
4.7567097825
 30
0.0
  0
VERTEX
  5
21A
330
E0
100
AcDbEntity
  8
0
  6
CONTINUOUS
 62
     7
100
AcDbVertex
100
AcDb2dVertex
 10
2.4228676943
 20
4.7567097825
 30
0.0
  0
SEQEND
  5
21B
330
E0
100
AcDbEntity
  8
0
  6
CONTINUOUS
 62
     7
  0
POLYLINE
  5
E1
330
1F
100
AcDbEntity
  8
0
  6
CONTINUOUS
 62
     7
100
AcDb2dPolyline
 66
     1
 10
0.0
 20
0.0
 30
0.0
  0
VERTEX
  5
21C
330
E1
100
AcDbEntity
  8
0
  6
CONTINUOUS
 62
     7
100
AcDbVertex
100
AcDb2dVertex
 10
4.2303923657
 20
4.7567084483
 30
0.0
  0
VERTEX
  5
21D
330
E1
100
AcDbEntity
  8
0
  6
CONTINUOUS
 62
     7
100
AcDbVertex
100
AcDb2dVertex
 10
4.2304044455
 20
4.7567097749
 30
0.0
  0
VERTEX
  5
21E
330
E1
100
AcDbEntity
  8
0
  6
CONTINUOUS
 62
     7
100
AcDbVertex
100
AcDb2dVertex
 10
4.228273778
 20
4.7564713182
 30
0.0
  0
VERTEX
  5
21F
330
E1
100
AcDbEntity
  8
0
  6
CONTINUOUS
 62
     7
100
AcDbVertex
100
AcDb2dVertex
 10
4.2218808779
 20
4.7557872273
 30
0.0
  0
VERTEX
  5
220
330
E1
100
AcDbEntity
  8
0
  6
CONTINUOUS
 62
     7
100
AcDbVertex
100
AcDb2dVertex
 10
4.2116671568
 20
4.7547623648
 30
0.0
  0
VERTEX
  5
221
330
E1
100
AcDbEntity
  8
0
  6
CONTINUOUS
 62
     7
100
AcDbVertex
100
AcDb2dVertex
 10
4.1980117786
 20
4.7535662382
 30
0.0
  0
VERTEX
  5
222
330
E1
100
AcDbEntity
  8
0
  6
CONTINUOUS
 62
     7
100
AcDbVertex
100
AcDb2dVertex
 10
4.181367045
 20
4.7523725762
 30
0.0
  0
VERTEX
  5
223
330
E1
100
AcDbEntity
  8
0
  6
CONTINUOUS
 62
     7
100
AcDbVertex
100
AcDb2dVertex
 10
4.1621500774
 20
4.7513520452
 30
0.0
  0
VERTEX
  5
224
330
E1
100
AcDbEntity
  8
0
  6
CONTINUOUS
 62
     7
100
AcDbVertex
100
AcDb2dVertex
 10
4.1413217357
 20
4.7506591177
 30
0.0
  0
VERTEX
  5
225
330
E1
100
AcDbEntity
  8
0
  6
CONTINUOUS
 62
     7
100
AcDbVertex
100
AcDb2dVertex
 10
4.1198871796
 20
4.7504191098
 30
0.0
  0
VERTEX
  5
226
330
E1
100
AcDbEntity
  8
0
  6
CONTINUOUS
 62
     7
100
AcDbVertex
100
AcDb2dVertex
 10
4.0984801354
 20
4.7506608837
 30
0.0
  0
VERTEX
  5
227
330
E1
100
AcDbEntity
  8
0
  6
CONTINUOUS
 62
     7
100
AcDbVertex
100
AcDb2dVertex
 10
4.0776269129
 20
4.7513570293
 30
0.0
  0
VERTEX
  5
228
330
E1
100
AcDbEntity
  8
0
  6
CONTINUOUS
 62
     7
100
AcDbVertex
100
AcDb2dVertex
 10
4.0584311969
 20
4.7523782932
 30
0.0
  0
VERTEX
  5
229
330
E1
100
AcDbEntity
  8
0
  6
CONTINUOUS
 62
     7
100
AcDbVertex
100
AcDb2dVertex
 10
4.0417840217
 20
4.7535735338
 30
0.0
  0
VERTEX
  5
22A
330
E1
100
AcDbEntity
  8
0
  6
CONTINUOUS
 62
     7
100
AcDbVertex
100
AcDb2dVertex
 10
4.0281629668
 20
4.754768087
 30
0.0
  0
VERTEX
  5
22B
330
E1
100
AcDbEntity
  8
0
  6
CONTINUOUS
 62
     7
100
AcDbVertex
100
AcDb2dVertex
 10
4.0179598818
 20
4.7557930124
 30
0.0
  0
VERTEX
  5
22C
330
E1
100
AcDbEntity
  8
0
  6
CONTINUOUS
 62
     7
100
AcDbVertex
100
AcDb2dVertex
 10
4.0115909419
 20
4.756474198
 30
0.0
  0
VERTEX
  5
22D
330
E1
100
AcDbEntity
  8
0
  6
CONTINUOUS
 62
     7
100
AcDbVertex
100
AcDb2dVertex
 10
4.0094818675
 20
4.7567097825
 30
0.0
  0
VERTEX
  5
22E
330
E1
100
AcDbEntity
  8
0
  6
CONTINUOUS
 62
     7
100
AcDbVertex
100
AcDb2dVertex
 10
4.0094818675
 20
4.7567097825
 30
0.0
  0
SEQEND
  5
22F
330
E1
100
AcDbEntity
  8
0
  6
CONTINUOUS
 62
     7
  0
LINE
  5
E2
330
1F
100
AcDbEntity
  8
0
  6
CONTINUOUS
 62
     7
100
AcDbLine
 10
4.3266361034
 20
4.7417097825
 30
0.0
 11
4.3266361034
 21
2.7717097825
 31
0.0
  0
LINE
  5
E3
330
1F
100
AcDbEntity
  8
0
  6
CONTINUOUS
 62
     7
100
AcDbLine
 10
2.3266361034
 20
2.7717097825
 30
0.0
 11
2.3266361034
 21
4.7417097825
 31
0.0
  0
LINE
  5
E4
330
1F
100
AcDbEntity
  8
0
  6
CONTINUOUS
 62
     7
100
AcDbLine
 10
2.6217542136
 20
4.7567097825
 30
0.0
 11
2.4449038199
 21
4.7567097825
 31
0.0
  0
LINE
  5
E5
330
1F
100
AcDbEntity
  8
0
  6
CONTINUOUS
 62
     7
100
AcDbLine
 10
4.0315179931
 20
4.7567097825
 30
0.0
 11
4.2083683868
 21
4.7567097825
 31
0.0
  0
LINE
  5
E6
330
1F
100
AcDbEntity
  8
0
  6
HIDDEN
 62
     7
100
AcDbLine
 10
3.2766361034
 20
4.0079302549
 30
0.0
 11
3.2766361034
 21
3.50548931
 31
0.0
  0
LINE
  5
E7
330
1F
100
AcDbEntity
  8
0
  6
HIDDEN
 62
     7
100
AcDbLine
 10
3.3766361034
 20
4.0079302549
 30
0.0
 11
3.3766361034
 21
3.50548931
 31
0.0
  0
LINE
  5
E8
330
1F
100
AcDbEntity
  8
0
  6
HIDDEN
 62
     7
100
AcDbLine
 10
2.5333290168
 20
3.9714482099
 30
0.0
 11
2.5320042346
 21
3.97149586
 31
0.0
  0
SPLINE
  5
E9
330
1F
100
AcDbEntity
  8
0
  6
HIDDEN
 62
     7
100
AcDbSpline
210
0.0
220
0.0
230
1.0
 70
     8
 71
     3
 72
    27
 73
    23
 74
     0
 42
0.00000001
 43
0.00000001
 40
0.0
 40
0.0
 40
0.0
 40
0.0
 40
0.0238519381098304
 40
0.0725069671871568
 40
0.1225376227723121
 40
0.1720154572280675
 40
0.222750372665721
 40
0.275690891366037
 40
0.3300664670948331
 40
0.3845814410775364
 40
0.4408909628343144
 40
0.4918357440817248
 40
0.544470232018248
 40
0.5922989077280727
 40
0.6414128240042117
 40
0.6913334220380459
 40
0.7424945808344662
 40
0.796390309864934
 40
0.8518327367327765
 40
0.9057277991404588
 40
0.9614220047912423
 40
1.0
 40
1.0
 40
1.0
 40
1.0
 10
2.435254025337516
 20
3.992784560546753
 30
0.0
 10
2.435173403650401
 20
3.992818066096811
 30
0.0
 10
2.434928323607207
 20
3.992919918860617
 30
0.0
 10
2.437235963282434
 20
3.991960699817287
 30
0.0
 10
2.441807416835606
 20
3.99011851840464
 30
0.0
 10
2.448798175046329
 20
3.98744719429442
 30
0.0
 10
2.457936816168713
 20
3.98423061271968
 30
0.0
 10
2.469332579378451
 20
3.980674800043674
 30
0.0
 10
2.482804451109586
 20
3.97716353564156
 30
0.0
 10
2.498121753063319
 20
3.974122370154265
 30
0.0
 10
2.514308333347577
 20
3.972078987817576
 30
0.0
 10
2.530931779136282
 20
3.971255431736741
 30
0.0
 10
2.546762302398133
 20
3.97167991976156
 30
0.0
 10
2.561969999328821
 20
3.973191675802532
 30
0.0
 10
2.576125216358741
 20
3.975531721126461
 30
0.0
 10
2.589462210720718
 20
3.978548801173936
 30
0.0
 10
2.601754721714455
 20
3.981995554677277
 30
0.0
 10
2.612639354008907
 20
3.985561489185
 30
0.0
 10
2.621509629042625
 20
3.988813963129153
 30
0.0
 10
2.627848822540253
 20
3.991314727597343
 30
0.0
 10
2.631338956373356
 20
3.992756692533059
 30
0.0
 10
2.631476209183007
 20
3.992814424388413
 30
0.0
 10
2.631532375668829
 20
3.992838049372438
 30
0.0
  0
SPLINE
  5
EA
330
1F
100
AcDbEntity
  8
0
  6
HIDDEN
 62
     7
100
AcDbSpline
210
0.0
220
0.0
230
1.0
 70
     8
 71
     3
 72
     9
 73
     5
 74
     0
 42
0.00000001
 43
0.00000001
 40
0.0
 40
0.0
 40
0.0
 40
0.0
 40
0.4416250017013381
 40
1.0
 40
1.0
 40
1.0
 40
1.0
 10
2.542719074835025
 20
3.971777426613066
 30
0.0
 10
2.541349297087634
 20
3.971673532301336
 30
0.0
 10
2.538247620909624
 20
3.971438277704495
 30
0.0
 10
2.535091381785783
 20
3.971444651140937
 30
0.0
 10
2.533329016770379
 20
3.9714482099085
 30
0.0
  0
SPLINE
  5
EB
330
1F
100
AcDbEntity
  8
0
  6
HIDDEN
 62
     7
100
AcDbSpline
210
0.0
220
0.0
230
1.0
 70
     8
 71
     3
 72
    66
 73
    62
 74
     0
 42
0.00000001
 43
0.00000001
 40
-0.0312499999999997
 40
-0.0312499999999997
 40
0.0
 40
0.0
 40
0.0312499999999999
 40
0.0312499999999999
 40
0.0624999999999997
 40
0.0624999999999997
 40
0.0937499999999996
 40
0.0937499999999996
 40
0.1249999999999995
 40
0.1249999999999995
 40
0.1874999999999997
 40
0.1874999999999997
 40
0.2187499999999998
 40
0.2187499999999998
 40
0.2499999999999999
 40
0.2499999999999999
 40
0.28125
 40
0.28125
 40
0.3125000000000001
 40
0.3125000000000001
 40
0.3437500000000002
 40
0.3437500000000002
 40
0.3750000000000002
 40
0.3750000000000002
 40
0.4062500000000003
 40
0.4062500000000003
 40
0.4375000000000004
 40
0.4375000000000004
 40
0.4687500000000005
 40
0.4687500000000005
 40
0.5000000000000007
 40
0.5000000000000007
 40
0.5312500000000008
 40
0.5312500000000008
 40
0.5625000000000009
 40
0.5625000000000009
 40
0.5937500000000009
 40
0.5937500000000009
 40
0.625000000000001
 40
0.625000000000001
 40
0.6562500000000011
 40
0.6562500000000011
 40
0.6875000000000012
 40
0.6875000000000012
 40
0.7187500000000013
 40
0.7187500000000013
 40
0.7500000000000013
 40
0.7500000000000013
 40
0.8125000000000016
 40
0.8125000000000016
 40
0.8437500000000013
 40
0.8437500000000013
 40
0.8750000000000011
 40
0.8750000000000011
 40
0.9062500000000009
 40
0.9062500000000009
 40
0.9375000000000006
 40
0.9375000000000006
 40
0.9687500000000003
 40
0.9687500000000003
 40
1.0
 40
1.0
 40
1.03125
 40
1.03125
 10
2.434903819919986
 20
3.75012817757709
 30
0.0
 10
2.434903819919986
 20
3.763291387332989
 30
0.0
 10
2.435557213899113
 20
3.769749014633263
 30
0.0
 10
2.438104104387161
 20
3.782430650910511
 30
0.0
 10
2.440032159551823
 20
3.788721181240509
 30
0.0
 10
2.44500154193384
 20
3.800610698254855
 30
0.0
 10
2.448031564680115
 20
3.806236866454747
 30
0.0
 10
2.455173868980344
 20
3.816879212039528
 30
0.0
 10
2.459273086623101
 20
3.821851572024844
 30
0.0
 10
2.472730584719353
 20
3.835298624291414
 30
0.0
 10
2.483559394660219
 20
3.842582550307115
 30
0.0
 10
2.501261888002141
 20
3.849984246643966
 30
0.0
 10
2.507532129360135
 20
3.851915959756242
 30
0.0
 10
2.520265163793036
 20
3.854480081328221
 30
0.0
 10
2.526699328505858
 20
3.855126520897668
 30
0.0
 10
2.539705131358595
 20
3.855143274392121
 30
0.0
 10
2.546306389907091
 20
3.854490125058388
 30
0.0
 10
2.558998700162789
 20
3.851948823649767
 30
0.0
 10
2.565188413930016
 20
3.850061773595173
 30
0.0
 10
2.577166927953143
 20
3.845071838680182
 30
0.0
 10
2.582793833066647
 20
3.842040714404914
 30
0.0
 10
2.593385151671984
 20
3.834949137381686
 30
0.0
 10
2.59838551134598
 20
3.830842075861892
 30
0.0
 10
2.607382611500269
 20
3.821855845419781
 30
0.0
 10
2.611419222869302
 20
3.816962910649155
 30
0.0
 10
2.618567627695828
 20
3.806337385190299
 30
0.0
 10
2.621651509752676
 20
3.800615221026544
 30
0.0
 10
2.626597149158279
 20
3.788797253275238
 30
0.0
 10
2.62850173294941
 20
3.782643824294831
 30
0.0
 10
2.631098948039773
 20
3.769804093075324
 30
0.0
 10
2.631745877374913
 20
3.763317975320998
 30
0.0
 10
2.631762390220306
 20
3.750352294313226
 30
0.0
 10
2.631116951581057
 20
3.743771964092111
 30
0.0
 10
2.628562372482434
 20
3.731010068480939
 30
0.0
 10
2.626676303912771
 20
3.724842506065606
 30
0.0
 10
2.621711130141799
 20
3.712916616808716
 30
0.0
 10
2.618628317754466
 20
3.707190257093277
 30
0.0
 10
2.611528218575249
 20
3.696601222519625
 30
0.0
 10
2.607461687246476
 20
3.691648985413136
 30
0.0
 10
2.598402581352137
 20
3.682588319056986
 30
0.0
 10
2.593500115190312
 20
3.678559824884267
 30
0.0
 10
2.582940911718603
 20
3.671465211759768
 30
0.0
 10
2.577211034095152
 20
3.668374011134686
 30
0.0
 10
2.565348943876876
 20
3.663416887723725
 30
0.0
 10
2.559213594761261
 20
3.661528383037563
 30
0.0
 10
2.546511321490515
 20
3.658956332310808
 30
0.0
 10
2.53990746226331
 20
3.658290402679211
 30
0.0
 10
2.520434977336267
 20
3.658273068449525
 30
0.0
 10
2.507358573361327
 20
3.660907110903305
 30
0.0
 10
2.489565751789768
 20
3.66831538149353
 30
0.0
 10
2.483829242464759
 20
3.671398301981731
 30
0.0
 10
2.473223312573076
 20
3.678507604225777
 30
0.0
 10
2.468315488045566
 20
3.682536887798444
 30
0.0
 10
2.45926804497136
 20
3.691568784034878
 30
0.0
 10
2.455175901946942
 20
3.696542691018976
 30
0.0
 10
2.448080939605514
 20
3.70710379906418
 30
0.0
 10
2.445031645970505
 20
3.712739028683641
 30
0.0
 10
2.440011889963344
 20
3.724744696472437
 30
0.0
 10
2.438125498823997
 20
3.730911964273889
 30
0.0
 10
2.435570610437595
 20
3.743574667550741
 30
0.0
 10
2.434903819919986
 20
3.75012817757709
 30
0.0
 10
2.434903819919986
 20
3.763291387332989
 30
0.0
  0
LINE
  5
EC
330
1F
100
AcDbEntity
  8
0
  6
HIDDEN
 62
     7
100
AcDbLine
 10
4.11994319
 20
3.9714482099
 30
0.0
 11
4.1186184078
 21
3.97149586
 31
0.0
  0
SPLINE
  5
ED
330
1F
100
AcDbEntity
  8
0
  6
HIDDEN
 62
     7
100
AcDbSpline
210
0.0
220
0.0
230
1.0
 70
     8
 71
     3
 72
    27
 73
    23
 74
     0
 42
0.00000001
 43
0.00000001
 40
0.0
 40
0.0
 40
0.0
 40
0.0
 40
0.0238519381098304
 40
0.0725069671871568
 40
0.1225376227723121
 40
0.1720154572280675
 40
0.222750372665721
 40
0.275690891366037
 40
0.3300664670948331
 40
0.3845814410775364
 40
0.4408909628343144
 40
0.4918357440817248
 40
0.544470232018248
 40
0.5922989077280727
 40
0.6414128240042117
 40
0.6913334220380459
 40
0.7424945808344662
 40
0.796390309864934
 40
0.8518327367327765
 40
0.9057277991404588
 40
0.9614220047912423
 40
1.0
 40
1.0
 40
1.0
 40
1.0
 10
4.021868198565863
 20
3.992784560546753
 30
0.0
 10
4.021787576878748
 20
3.992818066096811
 30
0.0
 10
4.021542496835554
 20
3.992919918860617
 30
0.0
 10
4.023850136510781
 20
3.991960699817287
 30
0.0
 10
4.028421590063953
 20
3.99011851840464
 30
0.0
 10
4.035412348274676
 20
3.98744719429442
 30
0.0
 10
4.044550989397059
 20
3.98423061271968
 30
0.0
 10
4.055946752606798
 20
3.980674800043674
 30
0.0
 10
4.069418624337933
 20
3.97716353564156
 30
0.0
 10
4.084735926291667
 20
3.974122370154265
 30
0.0
 10
4.100922506575924
 20
3.972078987817576
 30
0.0
 10
4.117545952364628
 20
3.971255431736741
 30
0.0
 10
4.13337647562648
 20
3.97167991976156
 30
0.0
 10
4.148584172557168
 20
3.973191675802532
 30
0.0
 10
4.162739389587088
 20
3.975531721126461
 30
0.0
 10
4.176076383949065
 20
3.978548801173936
 30
0.0
 10
4.188368894942801
 20
3.981995554677277
 30
0.0
 10
4.199253527237254
 20
3.985561489185
 30
0.0
 10
4.208123802270972
 20
3.988813963129153
 30
0.0
 10
4.2144629957686
 20
3.991314727597343
 30
0.0
 10
4.217953129601701
 20
3.992756692533059
 30
0.0
 10
4.218090382411352
 20
3.992814424388413
 30
0.0
 10
4.218146548897177
 20
3.992838049372438
 30
0.0
  0
SPLINE
  5
EE
330
1F
100
AcDbEntity
  8
0
  6
HIDDEN
 62
     7
100
AcDbSpline
210
0.0
220
0.0
230
1.0
 70
     8
 71
     3
 72
     9
 73
     5
 74
     0
 42
0.00000001
 43
0.00000001
 40
0.0
 40
0.0
 40
0.0
 40
0.0
 40
0.4416250017013381
 40
1.0
 40
1.0
 40
1.0
 40
1.0
 10
4.129333248063372
 20
3.971777426613066
 30
0.0
 10
4.127963470315981
 20
3.971673532301336
 30
0.0
 10
4.124861794137971
 20
3.971438277704495
 30
0.0
 10
4.121705555014131
 20
3.971444651140937
 30
0.0
 10
4.119943189998726
 20
3.9714482099085
 30
0.0
  0
SPLINE
  5
EF
330
1F
100
AcDbEntity
  8
0
  6
HIDDEN
 62
     7
100
AcDbSpline
210
0.0
220
0.0
230
1.0
 70
     8
 71
     3
 72
    66
 73
    62
 74
     0
 42
0.00000001
 43
0.00000001
 40
-0.0312499999999997
 40
-0.0312499999999997
 40
0.0
 40
0.0
 40
0.0312499999999999
 40
0.0312499999999999
 40
0.0624999999999997
 40
0.0624999999999997
 40
0.0937499999999996
 40
0.0937499999999996
 40
0.1249999999999995
 40
0.1249999999999995
 40
0.1874999999999997
 40
0.1874999999999997
 40
0.2187499999999998
 40
0.2187499999999998
 40
0.2499999999999999
 40
0.2499999999999999
 40
0.28125
 40
0.28125
 40
0.3125000000000001
 40
0.3125000000000001
 40
0.3437500000000002
 40
0.3437500000000002
 40
0.3750000000000002
 40
0.3750000000000002
 40
0.4062500000000003
 40
0.4062500000000003
 40
0.4375000000000004
 40
0.4375000000000004
 40
0.4687500000000005
 40
0.4687500000000005
 40
0.5000000000000007
 40
0.5000000000000007
 40
0.5312500000000008
 40
0.5312500000000008
 40
0.5625000000000009
 40
0.5625000000000009
 40
0.5937500000000009
 40
0.5937500000000009
 40
0.625000000000001
 40
0.625000000000001
 40
0.6562500000000011
 40
0.6562500000000011
 40
0.6875000000000012
 40
0.6875000000000012
 40
0.7187500000000013
 40
0.7187500000000013
 40
0.7500000000000013
 40
0.7500000000000013
 40
0.8125000000000016
 40
0.8125000000000016
 40
0.8437500000000013
 40
0.8437500000000013
 40
0.8750000000000011
 40
0.8750000000000011
 40
0.9062500000000009
 40
0.9062500000000009
 40
0.9375000000000006
 40
0.9375000000000006
 40
0.9687500000000003
 40
0.9687500000000003
 40
1.0
 40
1.0
 40
1.03125
 40
1.03125
 10
4.021517993148333
 20
3.75012817757709
 30
0.0
 10
4.021517993148333
 20
3.763291387332989
 30
0.0
 10
4.02217138712746
 20
3.769749014633263
 30
0.0
 10
4.024718277615507
 20
3.782430650910511
 30
0.0
 10
4.02664633278017
 20
3.788721181240509
 30
0.0
 10
4.031615715162187
 20
3.800610698254855
 30
0.0
 10
4.034645737908462
 20
3.806236866454747
 30
0.0
 10
4.04178804220869
 20
3.816879212039528
 30
0.0
 10
4.045887259851447
 20
3.821851572024844
 30
0.0
 10
4.0593447579477
 20
3.835298624291414
 30
0.0
 10
4.070173567888566
 20
3.842582550307115
 30
0.0
 10
4.087876061230488
 20
3.849984246643966
 30
0.0
 10
4.094146302588482
 20
3.851915959756242
 30
0.0
 10
4.106879337021382
 20
3.854480081328221
 30
0.0
 10
4.113313501734205
 20
3.855126520897668
 30
0.0
 10
4.126319304586942
 20
3.855143274392121
 30
0.0
 10
4.132920563135439
 20
3.854490125058388
 30
0.0
 10
4.145612873391137
 20
3.851948823649767
 30
0.0
 10
4.151802587158362
 20
3.850061773595173
 30
0.0
 10
4.16378110118149
 20
3.845071838680182
 30
0.0
 10
4.169408006294994
 20
3.842040714404914
 30
0.0
 10
4.179999324900331
 20
3.834949137381686
 30
0.0
 10
4.184999684574327
 20
3.830842075861892
 30
0.0
 10
4.193996784728616
 20
3.821855845419781
 30
0.0
 10
4.198033396097649
 20
3.816962910649155
 30
0.0
 10
4.205181800924174
 20
3.806337385190299
 30
0.0
 10
4.208265682981022
 20
3.800615221026544
 30
0.0
 10
4.213211322386625
 20
3.788797253275238
 30
0.0
 10
4.215115906177756
 20
3.782643824294831
 30
0.0
 10
4.217713121268119
 20
3.769804093075324
 30
0.0
 10
4.21836005060326
 20
3.763317975320998
 30
0.0
 10
4.218376563448652
 20
3.750352294313226
 30
0.0
 10
4.217731124809403
 20
3.743771964092111
 30
0.0
 10
4.215176545710781
 20
3.731010068480939
 30
0.0
 10
4.213290477141117
 20
3.724842506065606
 30
0.0
 10
4.208325303370145
 20
3.712916616808716
 30
0.0
 10
4.205242490982812
 20
3.707190257093277
 30
0.0
 10
4.198142391803595
 20
3.696601222519625
 30
0.0
 10
4.194075860474823
 20
3.691648985413136
 30
0.0
 10
4.185016754580484
 20
3.682588319056986
 30
0.0
 10
4.180114288418658
 20
3.678559824884267
 30
0.0
 10
4.169555084946949
 20
3.671465211759768
 30
0.0
 10
4.163825207323498
 20
3.668374011134686
 30
0.0
 10
4.151963117105223
 20
3.663416887723725
 30
0.0
 10
4.145827767989607
 20
3.661528383037563
 30
0.0
 10
4.133125494718861
 20
3.658956332310808
 30
0.0
 10
4.126521635491657
 20
3.658290402679211
 30
0.0
 10
4.107049150564614
 20
3.658273068449525
 30
0.0
 10
4.093972746589674
 20
3.660907110903305
 30
0.0
 10
4.076179925018115
 20
3.66831538149353
 30
0.0
 10
4.070443415693106
 20
3.671398301981731
 30
0.0
 10
4.059837485801422
 20
3.678507604225777
 30
0.0
 10
4.054929661273913
 20
3.682536887798444
 30
0.0
 10
4.045882218199707
 20
3.691568784034878
 30
0.0
 10
4.041790075175289
 20
3.696542691018976
 30
0.0
 10
4.034695112833862
 20
3.70710379906418
 30
0.0
 10
4.031645819198853
 20
3.712739028683641
 30
0.0
 10
4.026626063191691
 20
3.724744696472437
 30
0.0
 10
4.024739672052343
 20
3.730911964273889
 30
0.0
 10
4.022184783665942
 20
3.743574667550741
 30
0.0
 10
4.021517993148333
 20
3.75012817757709
 30
0.0
 10
4.021517993148333
 20
3.763291387332989
 30
0.0
  0
SPLINE
  5
F0
330
1F
100
AcDbEntity
  8
0
  6
HIDDEN
 62
     7
100
AcDbSpline
210
0.0
220
0.0
230
1.0
 70
     8
 71
     3
 72
    24
 73
    20
 74
     0
 42
0.00000001
 43
0.00000001
 40
0.0
 40
0.0
 40
0.0
 40
0.0
 40
0.0508897569830234
 40
0.1094937245603888
 40
0.1758208699018907
 40
0.2498735594721818
 40
0.3242217917645993
 40
0.3906904824979411
 40
0.4492814624015637
 40
0.5000033036490074
 40
0.5507428884032125
 40
0.6093318973939489
 40
0.6757790513739228
 40
0.7500863163517473
 40
0.8242284124520832
 40
0.8905886774958808
 40
0.9491692687319596
 40
0.9999789895391417
 40
1.0
 40
1.0
 40
1.0
 40
1.0
 10
2.434903819919986
 20
4.743059036432559
 30
0.0
 10
2.435148978114889
 20
4.743016384603765
 30
0.0
 10
2.435676457227738
 20
4.742924615495974
 30
0.0
 10
2.440385284271824
 20
4.74229218387744
 30
0.0
 10
2.449259517303025
 20
4.741329513204768
 30
0.0
 10
2.463078647448416
 20
4.739963287473862
 30
0.0
 10
2.480550562373562
 20
4.73859867352251
 30
0.0
 10
2.499168356264865
 20
4.737620629965745
 30
0.0
 10
2.516786029110971
 20
4.737014450328268
 30
0.0
 10
2.533280744728181
 20
4.736780551396159
 30
0.0
 10
2.549776477097109
 20
4.737011590992339
 30
0.0
 10
2.567398657874554
 20
4.737615901588028
 30
0.0
 10
2.586016298650575
 20
4.738591905860035
 30
0.0
 10
2.603518188376036
 20
4.739958421200469
 30
0.0
 10
2.617313549051201
 20
4.741318218437647
 30
0.0
 10
2.626359746186171
 20
4.742307457383988
 30
0.0
 10
2.63061015492481
 20
4.742865700325261
 30
0.0
 10
2.632167378519891
 20
4.743123072063414
 30
0.0
 10
2.631753812281208
 20
4.74305897598023
 30
0.0
 10
2.631753641337036
 20
4.743058949486646
 30
0.0
  0
POLYLINE
  5
F1
330
1F
100
AcDbEntity
  8
0
  6
HIDDEN
 62
     7
100
AcDb2dPolyline
 66
     1
 10
0.0
 20
0.0
 30
0.0
  0
VERTEX
  5
230
330
F1
100
AcDbEntity
  8
0
  6
HIDDEN
 62
     7
100
AcDbVertex
100
AcDb2dVertex
 10
2.5837926961
 20
4.7385407955
 30
0.0
  0
VERTEX
  5
231
330
F1
100
AcDbEntity
  8
0
  6
HIDDEN
 62
     7
100
AcDbVertex
100
AcDb2dVertex
 10
2.5664588534
 20
4.7376301015
 30
0.0
  0
VERTEX
  5
232
330
F1
100
AcDbEntity
  8
0
  6
HIDDEN
 62
     7
100
AcDbVertex
100
AcDb2dVertex
 10
2.5489537845
 20
4.7370480336
 30
0.0
  0
VERTEX
  5
233
330
F1
100
AcDbEntity
  8
0
  6
HIDDEN
 62
     7
100
AcDbVertex
100
AcDb2dVertex
 10
2.5408731122
 20
4.7369026006
 30
0.0
  0
VERTEX
  5
234
330
F1
100
AcDbEntity
  8
0
  6
HIDDEN
 62
     7
100
AcDbVertex
100
AcDb2dVertex
 10
2.537037219
 20
4.7368662843
 30
0.0
  0
VERTEX
  5
235
330
F1
100
AcDbEntity
  8
0
  6
HIDDEN
 62
     7
100
AcDbVertex
100
AcDb2dVertex
 10
2.5351736284
 20
4.7368572262
 30
0.0
  0
VERTEX
  5
236
330
F1
100
AcDbEntity
  8
0
  6
HIDDEN
 62
     7
100
AcDbVertex
100
AcDb2dVertex
 10
2.5342557551
 20
4.7368549722
 30
0.0
  0
VERTEX
  5
237
330
F1
100
AcDbEntity
  8
0
  6
HIDDEN
 62
     7
100
AcDbVertex
100
AcDb2dVertex
 10
2.5338003363
 20
4.7368544139
 30
0.0
  0
VERTEX
  5
238
330
F1
100
AcDbEntity
  8
0
  6
HIDDEN
 62
     7
100
AcDbVertex
100
AcDb2dVertex
 10
2.5335735109
 20
4.736854277
 30
0.0
  0
VERTEX
  5
239
330
F1
100
AcDbEntity
  8
0
  6
HIDDEN
 62
     7
100
AcDbVertex
100
AcDb2dVertex
 10
2.5334603196
 20
4.736854244
 30
0.0
  0
VERTEX
  5
23A
330
F1
100
AcDbEntity
  8
0
  6
HIDDEN
 62
     7
100
AcDbVertex
100
AcDb2dVertex
 10
2.5334037795
 20
4.7368542365
 30
0.0
  0
VERTEX
  5
23B
330
F1
100
AcDbEntity
  8
0
  6
HIDDEN
 62
     7
100
AcDbVertex
100
AcDb2dVertex
 10
2.5333755233
 20
4.7368542349
 30
0.0
  0
VERTEX
  5
23C
330
F1
100
AcDbEntity
  8
0
  6
HIDDEN
 62
     7
100
AcDbVertex
100
AcDb2dVertex
 10
2.5333613986
 20
4.7368542347
 30
0.0
  0
VERTEX
  5
23D
330
F1
100
AcDbEntity
  8
0
  6
HIDDEN
 62
     7
100
AcDbVertex
100
AcDb2dVertex
 10
2.5333543372
 20
4.7368542347
 30
0.0
  0
VERTEX
  5
23E
330
F1
100
AcDbEntity
  8
0
  6
HIDDEN
 62
     7
100
AcDbVertex
100
AcDb2dVertex
 10
2.5333508067
 20
4.7368542347
 30
0.0
  0
VERTEX
  5
23F
330
F1
100
AcDbEntity
  8
0
  6
HIDDEN
 62
     7
100
AcDbVertex
100
AcDb2dVertex
 10
2.5333490415
 20
4.7368542348
 30
0.0
  0
VERTEX
  5
240
330
F1
100
AcDbEntity
  8
0
  6
HIDDEN
 62
     7
100
AcDbVertex
100
AcDb2dVertex
 10
2.5333481589
 20
4.7368542348
 30
0.0
  0
VERTEX
  5
241
330
F1
100
AcDbEntity
  8
0
  6
HIDDEN
 62
     7
100
AcDbVertex
100
AcDb2dVertex
 10
2.5333477176
 20
4.7368542348
 30
0.0
  0
VERTEX
  5
242
330
F1
100
AcDbEntity
  8
0
  6
HIDDEN
 62
     7
100
AcDbVertex
100
AcDb2dVertex
 10
2.5333472763
 20
4.7368542348
 30
0.0
  0
VERTEX
  5
243
330
F1
100
AcDbEntity
  8
0
  6
HIDDEN
 62
     7
100
AcDbVertex
100
AcDb2dVertex
 10
2.5333469219
 20
4.7368542348
 30
0.0
  0
VERTEX
  5
244
330
F1
100
AcDbEntity
  8
0
  6
HIDDEN
 62
     7
100
AcDbVertex
100
AcDb2dVertex
 10
2.5333460166
 20
4.7368542349
 30
0.0
  0
VERTEX
  5
245
330
F1
100
AcDbEntity
  8
0
  6
HIDDEN
 62
     7
100
AcDbVertex
100
AcDb2dVertex
 10
2.5332778706
 20
4.7368542517
 30
0.0
  0
SEQEND
  5
246
330
F1
100
AcDbEntity
  8
0
  6
HIDDEN
 62
     7
  0
SPLINE
  5
F2
330
1F
100
AcDbEntity
  8
0
  6
HIDDEN
 62
     7
100
AcDbSpline
210
0.0
220
0.0
230
1.0
 70
     8
 71
     3
 72
    24
 73
    20
 74
     0
 42
0.00000001
 43
0.00000001
 40
0.0
 40
0.0
 40
0.0
 40
0.0
 40
0.0508897569833725
 40
0.1094937245608539
 40
0.1758208699022394
 40
0.2498735594721821
 40
0.3242217917642488
 40
0.3906904824974736
 40
0.4492814624012133
 40
0.500003303649008
 40
0.5507428884034236
 40
0.6093318973942297
 40
0.6757790513741327
 40
0.7500863163517476
 40
0.8242284124518737
 40
0.8905886774956011
 40
0.9491692687317496
 40
0.9999789895391414
 40
1.0
 40
1.0
 40
1.0
 40
1.0
 10
4.021517993148333
 20
4.743059036432559
 30
0.0
 10
4.021763151343239
 20
4.743016384603765
 30
0.0
 10
4.022290630456093
 20
4.742924615495975
 30
0.0
 10
4.026999457500213
 20
4.742292183877443
 30
0.0
 10
4.035873690531422
 20
4.74132951320477
 30
0.0
 10
4.049692820676769
 20
4.739963287473862
 30
0.0
 10
4.067164735601838
 20
4.738598673522509
 30
0.0
 10
4.085782529493097
 20
4.737620629965743
 30
0.0
 10
4.103400202339233
 20
4.737014450328267
 30
0.0
 10
4.119894917956513
 20
4.73678055139616
 30
0.0
 10
4.136390650325507
 20
4.737011590992338
 30
0.0
 10
4.15401283110297
 20
4.737615901588027
 30
0.0
 10
4.172630471878962
 20
4.738591905860032
 30
0.0
 10
4.190132361604384
 20
4.739958421200475
 30
0.0
 10
4.203927722279497
 20
4.741318218437625
 30
0.0
 10
4.212973919414558
 20
4.742307457384063
 30
0.0
 10
4.217224328152948
 20
4.74286570032503
 30
0.0
 10
4.218781551748616
 20
4.743123072063844
 30
0.0
 10
4.218367985509555
 20
4.74305897598023
 30
0.0
 10
4.218367814565382
 20
4.743058949486646
 30
0.0
  0
POLYLINE
  5
F3
330
1F
100
AcDbEntity
  8
0
  6
HIDDEN
 62
     7
100
AcDb2dPolyline
 66
     1
 10
0.0
 20
0.0
 30
0.0
  0
VERTEX
  5
247
330
F3
100
AcDbEntity
  8
0
  6
HIDDEN
 62
     7
100
AcDbVertex
100
AcDb2dVertex
 10
4.1704068692
 20
4.7385407955
 30
0.0
  0
VERTEX
  5
248
330
F3
100
AcDbEntity
  8
0
  6
HIDDEN
 62
     7
100
AcDbVertex
100
AcDb2dVertex
 10
4.1530730266
 20
4.7376301015
 30
0.0
  0
VERTEX
  5
249
330
F3
100
AcDbEntity
  8
0
  6
HIDDEN
 62
     7
100
AcDbVertex
100
AcDb2dVertex
 10
4.1355679577
 20
4.7370480336
 30
0.0
  0
VERTEX
  5
24A
330
F3
100
AcDbEntity
  8
0
  6
HIDDEN
 62
     7
100
AcDbVertex
100
AcDb2dVertex
 10
4.1274872854
 20
4.7369026006
 30
0.0
  0
VERTEX
  5
24B
330
F3
100
AcDbEntity
  8
0
  6
HIDDEN
 62
     7
100
AcDbVertex
100
AcDb2dVertex
 10
4.1236513922
 20
4.7368662843
 30
0.0
  0
VERTEX
  5
24C
330
F3
100
AcDbEntity
  8
0
  6
HIDDEN
 62
     7
100
AcDbVertex
100
AcDb2dVertex
 10
4.1217878016
 20
4.7368572262
 30
0.0
  0
VERTEX
  5
24D
330
F3
100
AcDbEntity
  8
0
  6
HIDDEN
 62
     7
100
AcDbVertex
100
AcDb2dVertex
 10
4.1208699283
 20
4.7368549722
 30
0.0
  0
VERTEX
  5
24E
330
F3
100
AcDbEntity
  8
0
  6
HIDDEN
 62
     7
100
AcDbVertex
100
AcDb2dVertex
 10
4.1204145096
 20
4.7368544139
 30
0.0
  0
VERTEX
  5
24F
330
F3
100
AcDbEntity
  8
0
  6
HIDDEN
 62
     7
100
AcDbVertex
100
AcDb2dVertex
 10
4.1201876841
 20
4.736854277
 30
0.0
  0
VERTEX
  5
250
330
F3
100
AcDbEntity
  8
0
  6
HIDDEN
 62
     7
100
AcDbVertex
100
AcDb2dVertex
 10
4.1200744929
 20
4.736854244
 30
0.0
  0
VERTEX
  5
251
330
F3
100
AcDbEntity
  8
0
  6
HIDDEN
 62
     7
100
AcDbVertex
100
AcDb2dVertex
 10
4.1200179527
 20
4.7368542365
 30
0.0
  0
VERTEX
  5
252
330
F3
100
AcDbEntity
  8
0
  6
HIDDEN
 62
     7
100
AcDbVertex
100
AcDb2dVertex
 10
4.1199896965
 20
4.7368542349
 30
0.0
  0
VERTEX
  5
253
330
F3
100
AcDbEntity
  8
0
  6
HIDDEN
 62
     7
100
AcDbVertex
100
AcDb2dVertex
 10
4.1199755718
 20
4.7368542347
 30
0.0
  0
VERTEX
  5
254
330
F3
100
AcDbEntity
  8
0
  6
HIDDEN
 62
     7
100
AcDbVertex
100
AcDb2dVertex
 10
4.1199685104
 20
4.7368542347
 30
0.0
  0
VERTEX
  5
255
330
F3
100
AcDbEntity
  8
0
  6
HIDDEN
 62
     7
100
AcDbVertex
100
AcDb2dVertex
 10
4.1199649799
 20
4.7368542347
 30
0.0
  0
VERTEX
  5
256
330
F3
100
AcDbEntity
  8
0
  6
HIDDEN
 62
     7
100
AcDbVertex
100
AcDb2dVertex
 10
4.1199632147
 20
4.7368542348
 30
0.0
  0
VERTEX
  5
257
330
F3
100
AcDbEntity
  8
0
  6
HIDDEN
 62
     7
100
AcDbVertex
100
AcDb2dVertex
 10
4.1199623321
 20
4.7368542348
 30
0.0
  0
VERTEX
  5
258
330
F3
100
AcDbEntity
  8
0
  6
HIDDEN
 62
     7
100
AcDbVertex
100
AcDb2dVertex
 10
4.1199618908
 20
4.7368542348
 30
0.0
  0
VERTEX
  5
259
330
F3
100
AcDbEntity
  8
0
  6
HIDDEN
 62
     7
100
AcDbVertex
100
AcDb2dVertex
 10
4.1199614495
 20
4.7368542348
 30
0.0
  0
VERTEX
  5
25A
330
F3
100
AcDbEntity
  8
0
  6
HIDDEN
 62
     7
100
AcDbVertex
100
AcDb2dVertex
 10
4.1199610951
 20
4.7368542348
 30
0.0
  0
VERTEX
  5
25B
330
F3
100
AcDbEntity
  8
0
  6
HIDDEN
 62
     7
100
AcDbVertex
100
AcDb2dVertex
 10
4.1199601899
 20
4.7368542349
 30
0.0
  0
VERTEX
  5
25C
330
F3
100
AcDbEntity
  8
0
  6
HIDDEN
 62
     7
100
AcDbVertex
100
AcDb2dVertex
 10
4.1198920438
 20
4.7368542517
 30
0.0
  0
SEQEND
  5
25D
330
F3
100
AcDbEntity
  8
0
  6
HIDDEN
 62
     7
  0
CIRCLE
  5
F4
330
1F
100
AcDbEntity
  8
0
  6
HIDDEN
 62
     7
100
AcDbCircle
 10
4.11994319
 20
3.7567097825
 30
0.0
 40
0.0884251968503929
  0
POLYLINE
  5
F5
330
1F
100
AcDbEntity
  8
0
  6
HIDDEN
 62
     7
100
AcDb2dPolyline
 66
     1
 10
0.0
 20
0.0
 30
0.0
  0
VERTEX
  5
25E
330
F5
100
AcDbEntity
  8
0
  6
HIDDEN
 62
     7
100
AcDbVertex
100
AcDb2dVertex
 10
4.2183683868
 20
3.7567097825
 30
0.0
  0
VERTEX
  5
25F
330
F5
100
AcDbEntity
  8
0
  6
HIDDEN
 62
     7
100
AcDbVertex
100
AcDb2dVertex
 10
4.2171566093
 20
3.7413126894
 30
0.0
  0
VERTEX
  5
260
330
F5
100
AcDbEntity
  8
0
  6
HIDDEN
 62
     7
100
AcDbVertex
100
AcDb2dVertex
 10
4.2138320142
 20
3.7271732276
 30
0.0
  0
SEQEND
  5
261
330
F5
100
AcDbEntity
  8
0
  6
HIDDEN
 62
     7
  0
ARC
  5
F6
330
1F
100
AcDbEntity
  8
0
  6
HIDDEN
 62
     7
100
AcDbCircle
 10
4.11994319
 20
3.7567097825
 30
0.0
 40
0.0984251968503938
100
AcDbArc
 50
165.6650606593
 51
182.0204446388
  0
LINE
  5
F7
330
1F
100
AcDbEntity
  8
0
  6
HIDDEN
 62
     7
100
AcDbLine
 10
4.2183483483
 20
3.7586957839
 30
0.0
 11
4.2183683868
 21
3.7567097825
 31
0.0
  0
LINE
  5
F8
330
1F
100
AcDbEntity
  8
0
  6
HIDDEN
 62
     7
100
AcDbLine
 10
4.11994319
 20
3.685086218
 30
0.0
 11
4.0579153637
 21
3.7208980002
 31
0.0
  0
LINE
  5
F9
330
1F
100
AcDbEntity
  8
0
  6
HIDDEN
 62
     7
100
AcDbLine
 10
4.0579153637
 20
3.7925215647
 30
0.0
 11
4.11994319
 21
3.8283333469
 31
0.0
  0
LINE
  5
FA
330
1F
100
AcDbEntity
  8
0
  6
HIDDEN
 62
     7
100
AcDbLine
 10
4.11994319
 20
3.8283333469
 30
0.0
 11
4.1819710163
 21
3.7925215647
 31
0.0
  0
LINE
  5
FB
330
1F
100
AcDbEntity
  8
0
  6
HIDDEN
 62
     7
100
AcDbLine
 10
4.1819710163
 20
3.7925215647
 30
0.0
 11
4.1819710163
 21
3.7208980002
 31
0.0
  0
LINE
  5
FC
330
1F
100
AcDbEntity
  8
0
  6
HIDDEN
 62
     7
100
AcDbLine
 10
4.0579153637
 20
3.7208980002
 30
0.0
 11
4.0579153637
 21
3.7925215647
 31
0.0
  0
LINE
  5
FD
330
1F
100
AcDbEntity
  8
0
  6
HIDDEN
 62
     7
100
AcDbLine
 10
4.1819710163
 20
3.7208980002
 30
0.0
 11
4.11994319
 21
3.685086218
 31
0.0
  0
CIRCLE
  5
FE
330
1F
100
AcDbEntity
  8
0
  6
HIDDEN
 62
     7
100
AcDbCircle
 10
2.5333290168
 20
3.7567097825
 30
0.0
 40
0.0884251968503933
  0
LINE
  5
FF
330
1F
100
AcDbEntity
  8
0
  6
HIDDEN
 62
     7
100
AcDbLine
 10
2.5953568431
 20
3.7925215647
 30
0.0
 11
2.5333290168
 21
3.8283333469
 31
0.0
  0
LINE
  5
100
330
1F
100
AcDbEntity
  8
0
  6
HIDDEN
 62
     7
100
AcDbLine
 10
2.5333290168
 20
3.8283333469
 30
0.0
 11
2.4713011904
 21
3.7925215647
 31
0.0
  0
LINE
  5
101
330
1F
100
AcDbEntity
  8
0
  6
HIDDEN
 62
     7
100
AcDbLine
 10
2.4713011904
 20
3.7925215647
 30
0.0
 11
2.4713011904
 21
3.7208980002
 31
0.0
  0
LINE
  5
102
330
1F
100
AcDbEntity
  8
0
  6
HIDDEN
 62
     7
100
AcDbLine
 10
2.5953568431
 20
3.7208980002
 30
0.0
 11
2.5953568431
 21
3.7925215647
 31
0.0
  0
LINE
  5
103
330
1F
100
AcDbEntity
  8
0
  6
HIDDEN
 62
     7
100
AcDbLine
 10
2.4713011904
 20
3.7208980002
 30
0.0
 11
2.5333290168
 21
3.685086218
 31
0.0
  0
LINE
  5
104
330
1F
100
AcDbEntity
  8
0
  6
HIDDEN
 62
     7
100
AcDbLine
 10
2.5333290168
 20
3.685086218
 30
0.0
 11
2.5953568431
 21
3.7208980002
 31
0.0
  0
LINE
  5
105
330
1F
100
AcDbEntity
  8
0
  6
HIDDEN
 62
     7
100
AcDbLine
 10
2.4349038199
 20
4.7467097825
 30
0.0
 11
2.6317542136
 21
4.7467097825
 31
0.0
  0
LINE
  5
106
330
1F
100
AcDbEntity
  8
0
  6
HIDDEN
 62
     7
100
AcDbLine
 10
2.6317542136
 20
4.0029302549
 30
0.0
 11
2.4349038199
 21
4.0029302549
 31
0.0
  0
LINE
  5
107
330
1F
100
AcDbEntity
  8
0
  6
HIDDEN
 62
     7
100
AcDbLine
 10
2.4449038199
 20
3.9929302549
 30
0.0
 11
2.6217542136
 21
3.9929302549
 31
0.0
  0
LINE
  5
108
330
1F
100
AcDbEntity
  8
0
  6
HIDDEN
 62
     7
100
AcDbLine
 10
2.5333290168
 20
4.7067097825
 30
0.0
 11
2.5333290168
 21
4.7567097825
 31
0.0
  0
LINE
  5
109
330
1F
100
AcDbEntity
  8
0
  6
HIDDEN
 62
     7
100
AcDbLine
 10
2.5953568431
 20
4.7067097825
 30
0.0
 11
2.5333290168
 21
4.7067097825
 31
0.0
  0
LINE
  5
10A
330
1F
100
AcDbEntity
  8
0
  6
HIDDEN
 62
     7
100
AcDbLine
 10
2.5333290168
 20
4.7067097825
 30
0.0
 11
2.4713011904
 21
4.7067097825
 31
0.0
  0
LINE
  5
10B
330
1F
100
AcDbEntity
  8
0
  6
HIDDEN
 62
     7
100
AcDbLine
 10
2.4713011904
 20
4.7067097825
 30
0.0
 11
2.4713011904
 21
4.7567097825
 31
0.0
  0
LINE
  5
10C
330
1F
100
AcDbEntity
  8
0
  6
HIDDEN
 62
     7
100
AcDbLine
 10
2.5953568431
 20
4.7067097825
 30
0.0
 11
2.5953568431
 21
4.7567097825
 31
0.0
  0
LINE
  5
10D
330
1F
100
AcDbEntity
  8
0
  6
HIDDEN
 62
     7
100
AcDbLine
 10
4.2183683868
 20
4.7467097825
 30
0.0
 11
4.0215179931
 21
4.7467097825
 31
0.0
  0
LINE
  5
10E
330
1F
100
AcDbEntity
  8
0
  6
HIDDEN
 62
     7
100
AcDbLine
 10
4.0215179931
 20
4.0029302549
 30
0.0
 11
4.2183683868
 21
4.0029302549
 31
0.0
  0
LINE
  5
10F
330
1F
100
AcDbEntity
  8
0
  6
HIDDEN
 62
     7
100
AcDbLine
 10
4.2083683868
 20
3.9929302549
 30
0.0
 11
4.0315179931
 21
3.9929302549
 31
0.0
  0
LINE
  5
110
330
1F
100
AcDbEntity
  8
0
  6
HIDDEN
 62
     7
100
AcDbLine
 10
4.11994319
 20
4.7067097825
 30
0.0
 11
4.11994319
 21
4.7567097825
 31
0.0
  0
LINE
  5
111
330
1F
100
AcDbEntity
  8
0
  6
HIDDEN
 62
     7
100
AcDbLine
 10
4.0579153637
 20
4.7067097825
 30
0.0
 11
4.11994319
 21
4.7067097825
 31
0.0
  0
LINE
  5
112
330
1F
100
AcDbEntity
  8
0
  6
HIDDEN
 62
     7
100
AcDbLine
 10
4.11994319
 20
4.7067097825
 30
0.0
 11
4.1819710163
 21
4.7067097825
 31
0.0
  0
LINE
  5
113
330
1F
100
AcDbEntity
  8
0
  6
HIDDEN
 62
     7
100
AcDbLine
 10
4.1819710163
 20
4.7067097825
 30
0.0
 11
4.1819710163
 21
4.7567097825
 31
0.0
  0
LINE
  5
114
330
1F
100
AcDbEntity
  8
0
  6
HIDDEN
 62
     7
100
AcDbLine
 10
4.0579153637
 20
4.7067097825
 30
0.0
 11
4.0579153637
 21
4.7567097825
 31
0.0
  0
LINE
  5
115
330
1F
100
AcDbEntity
  8
0
  6
HIDDEN
 62
     7
100
AcDbLine
 10
2.3266361034
 20
3.50548931
 30
0.0
 11
2.3416361034
 21
3.52048931
 31
0.0
  0
LINE
  5
116
330
1F
100
AcDbEntity
  8
0
  6
HIDDEN
 62
     7
100
AcDbLine
 10
2.3416361034
 20
3.9929302549
 30
0.0
 11
2.3266361034
 21
4.0079302549
 31
0.0
  0
LINE
  5
117
330
1F
100
AcDbEntity
  8
0
  6
HIDDEN
 62
     7
100
AcDbLine
 10
3.3766361034
 20
4.0079302549
 30
0.0
 11
3.2766361034
 21
4.0079302549
 31
0.0
  0
LINE
  5
118
330
1F
100
AcDbEntity
  8
0
  6
HIDDEN
 62
     7
100
AcDbLine
 10
3.2766361034
 20
3.50548931
 30
0.0
 11
3.3766361034
 21
3.50548931
 31
0.0
  0
LINE
  5
119
330
1F
100
AcDbEntity
  8
0
  6
HIDDEN
 62
     7
100
AcDbLine
 10
4.3266361034
 20
4.0079302549
 30
0.0
 11
4.3116361034
 21
3.9929302549
 31
0.0
  0
LINE
  5
11A
330
1F
100
AcDbEntity
  8
0
  6
HIDDEN
 62
     7
100
AcDbLine
 10
4.3116361034
 20
3.52048931
 30
0.0
 11
4.3266361034
 21
3.50548931
 31
0.0
  0
LINE
  5
11B
330
1F
100
AcDbEntity
  8
0
  6
HIDDEN
 62
     7
100
AcDbLine
 10
2.4352540253
 20
3.9929302549
 30
0.0
 11
2.3416361034
 21
3.9929302549
 31
0.0
  0
LINE
  5
11C
330
1F
100
AcDbEntity
  8
0
  6
HIDDEN
 62
     7
100
AcDbLine
 10
3.2766361034
 20
3.9929302549
 30
0.0
 11
2.6315323757
 21
3.9929302549
 31
0.0
  0
LINE
  5
11D
330
1F
100
AcDbEntity
  8
0
  6
HIDDEN
 62
     7
100
AcDbLine
 10
2.3416361034
 20
3.52048931
 30
0.0
 11
3.2766361034
 21
3.52048931
 31
0.0
  0
LINE
  5
11E
330
1F
100
AcDbEntity
  8
0
  6
HIDDEN
 62
     7
100
AcDbLine
 10
4.0218681986
 20
3.9929302549
 30
0.0
 11
3.3766361034
 21
3.9929302549
 31
0.0
  0
LINE
  5
11F
330
1F
100
AcDbEntity
  8
0
  6
HIDDEN
 62
     7
100
AcDbLine
 10
4.3116361034
 20
3.9929302549
 30
0.0
 11
4.2181465489
 21
3.9929302549
 31
0.0
  0
LINE
  5
120
330
1F
100
AcDbEntity
  8
0
  6
HIDDEN
 62
     7
100
AcDbLine
 10
3.3766361034
 20
3.52048931
 30
0.0
 11
4.3116361034
 21
3.52048931
 31
0.0
  0
LINE
  5
121
330
1F
100
AcDbEntity
  8
0
  6
HIDDEN
 62
     7
100
AcDbLine
 10
2.422867674
 20
4.7567097837
 30
0.0
 11
2.4349038018
 21
4.7430590376
 31
0.0
  0
LINE
  5
122
330
1F
100
AcDbEntity
  8
0
  6
HIDDEN
 62
     7
100
AcDbLine
 10
2.631754155
 20
4.7430590293
 30
0.0
 11
2.6437902735
 21
4.7567097752
 31
0.0
  0
LINE
  5
123
330
1F
100
AcDbEntity
  8
0
  6
HIDDEN
 62
     7
100
AcDbLine
 10
4.0094818472
 20
4.7567097837
 30
0.0
 11
4.0215179751
 21
4.7430590376
 31
0.0
  0
LINE
  5
124
330
1F
100
AcDbEntity
  8
0
  6
HIDDEN
 62
     7
100
AcDbLine
 10
4.2183683283
 20
4.7430590293
 30
0.0
 11
4.2304044467
 21
4.7567097752
 31
0.0
  0
LINE
  5
125
330
1F
100
AcDbEntity
  8
0
  6
HIDDEN
 62
     7
100
AcDbLine
 10
2.6317542136
 20
3.9928381898
 30
0.0
 11
2.6317542136
 21
4.7430577065
 31
0.0
  0
LINE
  5
126
330
1F
100
AcDbEntity
  8
0
  6
HIDDEN
 62
     7
100
AcDbLine
 10
2.4349038199
 20
4.7430590364
 30
0.0
 11
2.4349038199
 21
3.9927845704
 31
0.0
  0
LINE
  5
127
330
1F
100
AcDbEntity
  8
0
  6
HIDDEN
 62
     7
100
AcDbLine
 10
4.2183683868
 20
3.9928381898
 30
0.0
 11
4.2183683868
 21
4.7430577065
 31
0.0
  0
LINE
  5
128
330
1F
100
AcDbEntity
  8
0
  6
HIDDEN
 62
     7
100
AcDbLine
 10
4.0215179931
 20
4.7430590364
 30
0.0
 11
4.0215179931
 21
3.9927845704
 31
0.0
  0
LINE
  5
129
330
1F
100
AcDbEntity
  8
0
  6
HIDDEN
 62
     7
100
AcDbLine
 10
2.6317542136
 20
4.7467097825
 30
0.0
 11
2.6238104679
 21
4.7546535282
 31
0.0
  0
LINE
  5
12A
330
1F
100
AcDbEntity
  8
0
  6
HIDDEN
 62
     7
100
AcDbLine
 10
2.4428481704
 20
4.7546541329
 30
0.0
 11
2.4349038199
 21
4.7467097825
 31
0.0
  0
LINE
  5
12B
330
1F
100
AcDbEntity
  8
0
  6
HIDDEN
 62
     7
100
AcDbLine
 10
2.6317542136
 20
4.0029302549
 30
0.0
 11
2.6317542136
 21
4.7467097825
 31
0.0
  0
LINE
  5
12C
330
1F
100
AcDbEntity
  8
0
  6
HIDDEN
 62
     7
100
AcDbLine
 10
2.4349038199
 20
4.7467097825
 30
0.0
 11
2.4349038199
 21
4.0029302549
 31
0.0
  0
LINE
  5
12D
330
1F
100
AcDbEntity
  8
0
  6
HIDDEN
 62
     7
100
AcDbLine
 10
2.4349038199
 20
4.0029302549
 30
0.0
 11
2.4449038199
 21
3.9929302549
 31
0.0
  0
LINE
  5
12E
330
1F
100
AcDbEntity
  8
0
  6
HIDDEN
 62
     7
100
AcDbLine
 10
2.6217542136
 20
3.9929302549
 30
0.0
 11
2.6317542136
 21
4.0029302549
 31
0.0
  0
LINE
  5
12F
330
1F
100
AcDbEntity
  8
0
  6
HIDDEN
 62
     7
100
AcDbLine
 10
4.2183683868
 20
4.0029302549
 30
0.0
 11
4.2183683868
 21
4.7467097825
 31
0.0
  0
LINE
  5
130
330
1F
100
AcDbEntity
  8
0
  6
HIDDEN
 62
     7
100
AcDbLine
 10
4.0215179931
 20
4.7467097825
 30
0.0
 11
4.0215179931
 21
4.0029302549
 31
0.0
  0
LINE
  5
131
330
1F
100
AcDbEntity
  8
0
  6
HIDDEN
 62
     7
100
AcDbLine
 10
4.2183683868
 20
4.7467097825
 30
0.0
 11
4.2104246411
 21
4.7546535282
 31
0.0
  0
LINE
  5
132
330
1F
100
AcDbEntity
  8
0
  6
HIDDEN
 62
     7
100
AcDbLine
 10
4.0294623436
 20
4.7546541329
 30
0.0
 11
4.0215179931
 21
4.7467097825
 31
0.0
  0
LINE
  5
133
330
1F
100
AcDbEntity
  8
0
  6
HIDDEN
 62
     7
100
AcDbLine
 10
4.0215179931
 20
4.0029302549
 30
0.0
 11
4.0315179931
 21
3.9929302549
 31
0.0
  0
LINE
  5
134
330
1F
100
AcDbEntity
  8
0
  6
HIDDEN
 62
     7
100
AcDbLine
 10
4.2083683868
 20
3.9929302549
 30
0.0
 11
4.2183683868
 21
4.0029302549
 31
0.0
  0
LINE
  5
135
330
1F
100
AcDbEntity
  8
0
  6
CONTINUOUS
 62
     7
100
AcDbLine
 10
9.2465754963
 20
3.6639754756
 30
0.0
 11
9.2508846063
 21
3.6682845856
 31
0.0
  0
LINE
  5
136
330
1F
100
AcDbEntity
  8
0
  6
CONTINUOUS
 62
     7
100
AcDbLine
 10
9.2508846063
 20
3.8451349793
 30
0.0
 11
9.2465754963
 21
3.8494440894
 31
0.0
  0
LINE
  5
137
330
1F
100
AcDbEntity
  8
0
  6
CONTINUOUS
 62
     7
100
AcDbLine
 10
8.3436189132
 20
4.7524006724
 30
0.0
 11
8.3393098032
 21
4.7567097825
 31
0.0
  0
LINE
  5
138
330
1F
100
AcDbEntity
  8
0
  6
CONTINUOUS
 62
     7
100
AcDbLine
 10
8.1624594095
 20
4.7567097825
 30
0.0
 11
8.1581502994
 21
4.7524006724
 31
0.0
  0
CIRCLE
  5
139
330
1F
100
AcDbEntity
  8
0
  6
CONTINUOUS
 62
     7
100
AcDbCircle
 10
8.2508846063
 20
3.7567097825
 30
0.0
 40
0.9850000000000012
  0
CIRCLE
  5
13A
330
1F
100
AcDbEntity
  8
0
  6
CONTINUOUS
 62
     7
100
AcDbCircle
 10
8.2508846063
 20
3.7567097825
 30
0.0
 40
1.000000000000002
  0
CIRCLE
  5
13B
330
1F
100
AcDbEntity
  8
0
  6
CONTINUOUS
 62
     7
100
AcDbCircle
 10
8.2508846063
 20
3.7567097825
 30
0.0
 40
0.251220472440945
  0
CIRCLE
  5
13C
330
1F
100
AcDbEntity
  8
0
  6
CONTINUOUS
 62
     7
100
AcDbCircle
 10
8.2508846063
 20
3.7567097825
 30
0.0
 40
0.2362204724409462
  0
LINE
  5
13D
330
1F
100
AcDbEntity
  8
0
  6
CONTINUOUS
 62
     7
100
AcDbLine
 10
9.2508846063
 20
3.8451349793
 30
0.0
 11
9.2508846063
 21
3.6682845856
 31
0.0
  0
LINE
  5
13E
330
1F
100
AcDbEntity
  8
0
  6
CONTINUOUS
 62
     7
100
AcDbLine
 10
8.1624594095
 20
4.7567097825
 30
0.0
 11
8.3393098032
 21
4.7567097825
 31
0.0
  0
SPLINE
  5
13F
330
1F
100
AcDbEntity
  8
0
  6
HIDDEN
 62
     7
100
AcDbSpline
210
0.0
220
0.0
230
1.0
 70
     8
 71
     3
 72
    31
 73
    27
 74
     0
 42
0.00000001
 43
0.00000001
 40
0.0
 40
0.0
 40
0.0
 40
0.0
 40
0.0506412873226892
 40
0.1092154448959567
 40
0.1756457555387733
 40
0.2499341847614004
 40
0.3240574869743228
 40
0.3904009307059797
 40
0.4489666726583618
 40
0.4997635139787693
 40
0.5507997913901339
 40
0.6095560768152006
 40
0.6760413785572307
 40
0.7502580837943259
 40
0.8245013616546704
 40
0.8908855304326444
 40
0.9494125230823165
 40
0.9757546872742013
 40
0.9881911571780514
 40
0.9942254831795895
 40
0.9971966520937927
 40
0.9986707368066388
 40
0.9994049041275892
 40
0.9997712690200555
 40
0.9999542717733474
 40
1.0
 40
1.0
 40
1.0
 40
1.0
 10
8.152461510015655
 20
4.736854561234354
 30
0.0
 10
8.152702352976707
 20
4.736897072857683
 30
0.0
 10
8.153221766532958
 20
4.73698875547676
 30
0.0
 10
8.15790977690404
 20
4.737623382336602
 30
0.0
 10
8.166784341538118
 20
4.738589740146104
 30
0.0
 10
8.180611096389999
 20
4.739958087420066
 30
0.0
 10
8.198074721319971
 20
4.741321635378068
 30
0.0
 10
8.216655860088437
 20
4.742296272015564
 30
0.0
 10
8.234266606121182
 20
4.742900243817215
 30
0.0
 10
8.250800429287072
 20
4.743132390902869
 30
0.0
 10
8.267357068766279
 20
4.742902062990888
 30
0.0
 10
8.28503130823334
 20
4.742298926122681
 30
0.0
 10
8.303657332207287
 20
4.741324213446843
 30
0.0
 10
8.321145056470064
 20
4.739959112266042
 30
0.0
 10
8.33495735029472
 20
4.738593285096094
 30
0.0
 10
8.343887736283616
 20
4.737617406768771
 30
0.0
 10
8.347782435435384
 20
4.737095737255395
 30
0.0
 10
8.34896326132286
 20
4.736912743583448
 30
0.0
 10
8.349227209938176
 20
4.736868557793547
 30
0.0
 10
8.34928950121961
 20
4.736857758581791
 30
0.0
 10
8.349304696863513
 20
4.736855099168371
 30
0.0
 10
8.349308484041075
 20
4.736854444392725
 30
0.0
 10
8.34930944983158
 20
4.736854283874724
 30
0.0
 10
8.349309699910377
 20
4.736854245822407
 30
0.0
 10
8.349309767037822
 20
4.73685423706682
 30
0.0
 10
8.349309780743454
 20
4.736854235908484
 30
0.0
 10
8.349309783483502
 20
4.736854235676907
 30
0.0
  0
LINE
  5
140
330
1F
100
AcDbEntity
  8
0
  6
HIDDEN
 62
     7
100
AcDbLine
 10
8.266205777
 20
4.7428695287
 30
0.0
 11
8.2508846063
 21
4.7430590364
 31
0.0
  0
LINE
  5
141
330
1F
100
AcDbEntity
  8
0
  6
HIDDEN
 62
     7
100
AcDbLine
 10
9.2408846063
 20
3.6582845856
 30
0.0
 11
9.2408846063
 21
3.8551349793
 31
0.0
  0
LINE
  5
142
330
1F
100
AcDbEntity
  8
0
  6
HIDDEN
 62
     7
100
AcDbLine
 10
8.4971050788
 20
3.7567097825
 30
0.0
 11
8.4971050788
 21
3.6582845856
 31
0.0
  0
LINE
  5
143
330
1F
100
AcDbEntity
  8
0
  6
HIDDEN
 62
     7
100
AcDbLine
 10
8.4971050788
 20
3.8551349793
 30
0.0
 11
8.4971050788
 21
3.7567097825
 31
0.0
  0
LINE
  5
144
330
1F
100
AcDbEntity
  8
0
  6
HIDDEN
 62
     7
100
AcDbLine
 10
8.4871050788
 20
3.7567097825
 30
0.0
 11
8.4871050788
 21
3.8451349793
 31
0.0
  0
LINE
  5
145
330
1F
100
AcDbEntity
  8
0
  6
HIDDEN
 62
     7
100
AcDbLine
 10
8.4871050788
 20
3.6682845856
 30
0.0
 11
8.4871050788
 21
3.7567097825
 31
0.0
  0
LINE
  5
146
330
1F
100
AcDbEntity
  8
0
  6
HIDDEN
 62
     7
100
AcDbLine
 10
9.2008846063
 20
3.7925215647
 30
0.0
 11
9.2508846063
 21
3.7925215647
 31
0.0
  0
LINE
  5
147
330
1F
100
AcDbEntity
  8
0
  6
HIDDEN
 62
     7
100
AcDbLine
 10
9.2008846063
 20
3.7208980002
 30
0.0
 11
9.2508846063
 21
3.7208980002
 31
0.0
  0
LINE
  5
148
330
1F
100
AcDbEntity
  8
0
  6
HIDDEN
 62
     7
100
AcDbLine
 10
9.2008846063
 20
3.7208980002
 30
0.0
 11
9.2008846063
 21
3.685086218
 31
0.0
  0
LINE
  5
149
330
1F
100
AcDbEntity
  8
0
  6
HIDDEN
 62
     7
100
AcDbLine
 10
9.2008846063
 20
3.7925215647
 30
0.0
 11
9.2008846063
 21
3.7208980002
 31
0.0
  0
LINE
  5
14A
330
1F
100
AcDbEntity
  8
0
  6
HIDDEN
 62
     7
100
AcDbLine
 10
9.2008846063
 20
3.8283333469
 30
0.0
 11
9.2008846063
 21
3.7925215647
 31
0.0
  0
LINE
  5
14B
330
1F
100
AcDbEntity
  8
0
  6
HIDDEN
 62
     7
100
AcDbLine
 10
9.2008846063
 20
3.685086218
 30
0.0
 11
9.2508846063
 21
3.685086218
 31
0.0
  0
LINE
  5
14C
330
1F
100
AcDbEntity
  8
0
  6
HIDDEN
 62
     7
100
AcDbLine
 10
9.2008846063
 20
3.8283333469
 30
0.0
 11
9.2508846063
 21
3.8283333469
 31
0.0
  0
LINE
  5
14D
330
1F
100
AcDbEntity
  8
0
  6
HIDDEN
 62
     7
100
AcDbLine
 10
8.2508846063
 20
3.9929302549
 30
0.0
 11
8.1624594095
 21
3.9929302549
 31
0.0
  0
LINE
  5
14E
330
1F
100
AcDbEntity
  8
0
  6
HIDDEN
 62
     7
100
AcDbLine
 10
8.3393098032
 20
3.9929302549
 30
0.0
 11
8.2508846063
 21
3.9929302549
 31
0.0
  0
LINE
  5
14F
330
1F
100
AcDbEntity
  8
0
  6
HIDDEN
 62
     7
100
AcDbLine
 10
8.2508846063
 20
4.0029302549
 30
0.0
 11
8.3493098032
 21
4.0029302549
 31
0.0
  0
LINE
  5
150
330
1F
100
AcDbEntity
  8
0
  6
HIDDEN
 62
     7
100
AcDbLine
 10
8.1524594095
 20
4.0029302549
 30
0.0
 11
8.2508846063
 21
4.0029302549
 31
0.0
  0
LINE
  5
151
330
1F
100
AcDbEntity
  8
0
  6
HIDDEN
 62
     7
100
AcDbLine
 10
8.3493098032
 20
4.7467097825
 30
0.0
 11
8.1524594095
 21
4.7467097825
 31
0.0
  0
LINE
  5
152
330
1F
100
AcDbEntity
  8
0
  6
HIDDEN
 62
     7
100
AcDbLine
 10
8.2866963886
 20
4.7067097825
 30
0.0
 11
8.3225081708
 21
4.7067097825
 31
0.0
  0
LINE
  5
153
330
1F
100
AcDbEntity
  8
0
  6
HIDDEN
 62
     7
100
AcDbLine
 10
8.2150728241
 20
4.7067097825
 30
0.0
 11
8.2866963886
 21
4.7067097825
 31
0.0
  0
LINE
  5
154
330
1F
100
AcDbEntity
  8
0
  6
HIDDEN
 62
     7
100
AcDbLine
 10
8.2866963886
 20
4.7067097825
 30
0.0
 11
8.2866963886
 21
4.7567097825
 31
0.0
  0
LINE
  5
155
330
1F
100
AcDbEntity
  8
0
  6
HIDDEN
 62
     7
100
AcDbLine
 10
8.2150728241
 20
4.7067097825
 30
0.0
 11
8.2150728241
 21
4.7567097825
 31
0.0
  0
LINE
  5
156
330
1F
100
AcDbEntity
  8
0
  6
HIDDEN
 62
     7
100
AcDbLine
 10
8.1792610419
 20
4.7067097825
 30
0.0
 11
8.2150728241
 21
4.7067097825
 31
0.0
  0
LINE
  5
157
330
1F
100
AcDbEntity
  8
0
  6
HIDDEN
 62
     7
100
AcDbLine
 10
8.3225081708
 20
4.7067097825
 30
0.0
 11
8.3225081708
 21
4.7567097825
 31
0.0
  0
LINE
  5
158
330
1F
100
AcDbEntity
  8
0
  6
HIDDEN
 62
     7
100
AcDbLine
 10
8.1792610419
 20
4.7067097825
 30
0.0
 11
8.1792610419
 21
4.7567097825
 31
0.0
  0
LINE
  5
159
330
1F
100
AcDbEntity
  8
0
  6
HIDDEN
 62
     7
100
AcDbLine
 10
8.1388945356
 20
4.7504191083
 30
0.0
 11
8.1524594093
 21
4.7368542346
 31
0.0
  0
LINE
  5
15A
330
1F
100
AcDbEntity
  8
0
  6
HIDDEN
 62
     7
100
AcDbLine
 10
8.3493098137
 20
4.7368542341
 30
0.0
 11
8.3628746887
 21
4.7504191078
 31
0.0
  0
LINE
  5
15B
330
1F
100
AcDbEntity
  8
0
  6
HIDDEN
 62
     7
100
AcDbLine
 10
8.3493098032
 20
3.9714482099
 30
0.0
 11
8.3493098032
 21
4.7368530176
 31
0.0
  0
LINE
  5
15C
330
1F
100
AcDbEntity
  8
0
  6
HIDDEN
 62
     7
100
AcDbLine
 10
8.1524594095
 20
4.7368548489
 30
0.0
 11
8.1524594095
 21
3.9715303996
 31
0.0
  0
LINE
  5
15D
330
1F
100
AcDbEntity
  8
0
  6
HIDDEN
 62
     7
100
AcDbLine
 10
8.4657416747
 20
3.6582845856
 30
0.0
 11
9.2460605966
 21
3.6582845856
 31
0.0
  0
LINE
  5
15E
330
1F
100
AcDbEntity
  8
0
  6
HIDDEN
 62
     7
100
AcDbLine
 10
9.246031604
 20
3.8551349793
 30
0.0
 11
8.465785777
 21
3.8551349793
 31
0.0
  0
LINE
  5
15F
330
1F
100
AcDbEntity
  8
0
  6
HIDDEN
 62
     7
100
AcDbLine
 10
9.2408846063
 20
3.6582845856
 30
0.0
 11
9.2465754963
 21
3.6639754756
 31
0.0
  0
LINE
  5
160
330
1F
100
AcDbEntity
  8
0
  6
HIDDEN
 62
     7
100
AcDbLine
 10
9.2465754963
 20
3.8494440894
 30
0.0
 11
9.2408846063
 21
3.8551349793
 31
0.0
  0
LINE
  5
161
330
1F
100
AcDbEntity
  8
0
  6
HIDDEN
 62
     7
100
AcDbLine
 10
8.4971050788
 20
3.6582845856
 30
0.0
 11
9.2408846063
 21
3.6582845856
 31
0.0
  0
LINE
  5
162
330
1F
100
AcDbEntity
  8
0
  6
HIDDEN
 62
     7
100
AcDbLine
 10
9.2408846063
 20
3.8551349793
 30
0.0
 11
8.4971050788
 21
3.8551349793
 31
0.0
  0
LINE
  5
163
330
1F
100
AcDbEntity
  8
0
  6
HIDDEN
 62
     7
100
AcDbLine
 10
8.4971050788
 20
3.8551349793
 30
0.0
 11
8.4871050788
 21
3.8451349793
 31
0.0
  0
LINE
  5
164
330
1F
100
AcDbEntity
  8
0
  6
HIDDEN
 62
     7
100
AcDbLine
 10
8.4871050788
 20
3.6682845856
 30
0.0
 11
8.4971050788
 21
3.6582845856
 31
0.0
  0
LINE
  5
165
330
1F
100
AcDbEntity
  8
0
  6
HIDDEN
 62
     7
100
AcDbLine
 10
8.1524594095
 20
4.0029302549
 30
0.0
 11
8.1624594095
 21
3.9929302549
 31
0.0
  0
LINE
  5
166
330
1F
100
AcDbEntity
  8
0
  6
HIDDEN
 62
     7
100
AcDbLine
 10
8.3393098032
 20
3.9929302549
 30
0.0
 11
8.3493098032
 21
4.0029302549
 31
0.0
  0
LINE
  5
167
330
1F
100
AcDbEntity
  8
0
  6
HIDDEN
 62
     7
100
AcDbLine
 10
8.3493098032
 20
4.7467097825
 30
0.0
 11
8.3436189132
 21
4.7524006724
 31
0.0
  0
LINE
  5
168
330
1F
100
AcDbEntity
  8
0
  6
HIDDEN
 62
     7
100
AcDbLine
 10
8.1581502994
 20
4.7524006724
 30
0.0
 11
8.1524594095
 21
4.7467097825
 31
0.0
  0
LINE
  5
169
330
1F
100
AcDbEntity
  8
0
  6
HIDDEN
 62
     7
100
AcDbLine
 10
8.3493098032
 20
4.0029302549
 30
0.0
 11
8.3493098032
 21
4.7467097825
 31
0.0
  0
LINE
  5
16A
330
1F
100
AcDbEntity
  8
0
  6
HIDDEN
 62
     7
100
AcDbLine
 10
8.1524594095
 20
4.7467097825
 30
0.0
 11
8.1524594095
 21
4.0029302549
 31
0.0
  0
LINE
  5
16B
330
1F
100
AcDbEntity
  8
0
  6
CONTINUOUS
 62
     7
100
AcDbLine
 10
2.3416361034
 20
5.6719771389
 30
0.0
 11
4.3116361034
 21
5.6719771389
 31
0.0
  0
LINE
  5
16C
330
1F
100
AcDbEntity
  8
0
  6
CONTINUOUS
 62
     7
100
AcDbLine
 10
2.4349038199
 20
7.6719771389
 30
0.0
 11
2.3416361034
 21
7.6719771389
 31
0.0
  0
LINE
  5
16D
330
1F
100
AcDbEntity
  8
0
  6
CONTINUOUS
 62
     7
100
AcDbLine
 10
4.0215179931
 20
7.6719771389
 30
0.0
 11
2.6314520489
 21
7.6719771389
 31
0.0
  0
LINE
  5
16E
330
1F
100
AcDbEntity
  8
0
  6
CONTINUOUS
 62
     7
100
AcDbLine
 10
4.3116361034
 20
7.6719771389
 30
0.0
 11
4.2180662222
 21
7.6719771389
 31
0.0
  0
LINE
  5
16F
330
1F
100
AcDbEntity
  8
0
  6
CONTINUOUS
 62
     7
100
AcDbLine
 10
2.3416361034
 20
7.6719771389
 30
0.0
 11
2.3266361034
 21
7.6569771389
 31
0.0
  0
LINE
  5
170
330
1F
100
AcDbEntity
  8
0
  6
CONTINUOUS
 62
     7
100
AcDbLine
 10
2.3266361034
 20
5.6869771389
 30
0.0
 11
2.3416361034
 21
5.6719771389
 31
0.0
  0
LINE
  5
171
330
1F
100
AcDbEntity
  8
0
  6
CONTINUOUS
 62
     7
100
AcDbLine
 10
4.3116361034
 20
5.6719771389
 30
0.0
 11
4.3266361034
 21
5.6869771389
 31
0.0
  0
LINE
  5
172
330
1F
100
AcDbEntity
  8
0
  6
CONTINUOUS
 62
     7
100
AcDbLine
 10
4.3266361034
 20
7.6569771389
 30
0.0
 11
4.3116361034
 21
7.6719771389
 31
0.0
  0
LINE
  5
173
330
1F
100
AcDbEntity
  8
0
  6
CONTINUOUS
 62
     7
100
AcDbLine
 10
4.2092221383
 20
7.6711233875
 30
0.0
 11
4.2083683868
 21
7.6719771389
 31
0.0
  0
LINE
  5
174
330
1F
100
AcDbEntity
  8
0
  6
CONTINUOUS
 62
     7
100
AcDbLine
 10
4.0315179931
 20
7.6719771389
 30
0.0
 11
4.0306640707
 21
7.6711232165
 31
0.0
  0
LINE
  5
175
330
1F
100
AcDbEntity
  8
0
  6
CONTINUOUS
 62
     7
100
AcDbLine
 10
2.622607965
 20
7.6711233875
 30
0.0
 11
2.6217542136
 21
7.6719771389
 31
0.0
  0
LINE
  5
176
330
1F
100
AcDbEntity
  8
0
  6
CONTINUOUS
 62
     7
100
AcDbLine
 10
2.4449038199
 20
7.6719771389
 30
0.0
 11
2.4440498975
 21
7.6711232165
 31
0.0
  0
LINE
  5
177
330
1F
100
AcDbEntity
  8
0
  6
CONTINUOUS
 62
     7
100
AcDbLine
 10
4.3116361034
 20
5.6719771389
 30
0.0
 11
4.3116361034
 21
7.6719771389
 31
0.0
  0
LINE
  5
178
330
1F
100
AcDbEntity
  8
0
  6
CONTINUOUS
 62
     7
100
AcDbLine
 10
2.3416361034
 20
7.6719771389
 30
0.0
 11
2.3416361034
 21
5.6719771389
 31
0.0
  0
SPLINE
  5
179
330
1F
100
AcDbEntity
  8
0
  6
CONTINUOUS
 62
     7
100
AcDbSpline
210
0.0
220
0.0
230
1.0
 70
     8
 71
     3
 72
    39
 73
    35
 74
     0
 42
0.00000001
 43
0.00000001
 40
-0.0943715545702496
 40
-0.0628388545070703
 40
-0.0312426280098324
 40
0.0
 40
0.0312777913074263
 40
0.0628780783964981
 40
0.0944274328696026
 40
0.1255647190567449
 40
0.1565969894070049
 40
0.1879211724745146
 40
0.2191570055934347
 40
0.2500192378832817
 40
0.2808187495465915
 40
0.3120953853003104
 40
0.343355251422395
 40
0.3743841042460616
 40
0.4054925464476981
 40
0.4371236868911644
 40
0.4688239516154137
 40
0.5001557223546949
 40
0.5314141654495402
 40
0.5630239510495535
 40
0.5945090070806276
 40
0.625627423964138
 40
0.6566551255068651
 40
0.6879522171014352
 40
0.7192095930905252
 40
0.7500723837297176
 40
0.780898286161439
 40
0.8122034233346762
 40
0.8434827761403684
 40
0.8745412907282344
 40
0.9056284454297504
 40
0.9371611454929297
 40
0.9687573719901676
 40
1.0
 40
1.031277791307426
 40
1.062878078396498
 40
1.094427432869603
 10
2.424273001729583
 20
6.650044912764362
 30
0.0
 10
2.422160433365758
 20
6.671986178343238
 30
0.0
 10
2.424306764483384
 20
6.693923315361745
 30
0.0
 10
2.430748917302584
 20
6.715057560589041
 30
0.0
 10
2.440920354030693
 20
6.73461973735501
 30
0.0
 10
2.454704927059816
 20
6.751658672460792
 30
0.0
 10
2.471512813080683
 20
6.765644491231044
 30
0.0
 10
2.490817371269427
 20
6.775965154892144
 30
0.0
 10
2.511679404706394
 20
6.782508981819514
 30
0.0
 10
2.533334356204244
 20
6.784686060612192
 30
0.0
 10
2.555002022614979
 20
6.782530149352139
 30
0.0
 10
2.575843801833523
 20
6.775982919410954
 30
0.0
 10
2.595138330391717
 20
6.765659403703944
 30
0.0
 10
2.611927335047728
 20
6.751685583560982
 30
0.0
 10
2.62571273562979
 20
6.734632160270182
 30
0.0
 10
2.635890328994523
 20
6.715033805494468
 30
0.0
 10
2.642359929832478
 20
6.693850382218882
 30
0.0
 10
2.64450066472858
 20
6.671870900831339
 30
0.0
 10
2.642362708731185
 20
6.649912753209287
 30
0.0
 10
2.635904385583643
 20
6.628799741772519
 30
0.0
 10
2.625712710765832
 20
6.609267655645535
 30
0.0
 10
2.611917539683333
 20
6.592264446929941
 30
0.0
 10
2.595112220813411
 20
6.578295868286241
 30
0.0
 10
2.575811328493728
 20
6.567974951432392
 30
0.0
 10
2.554950156544722
 20
6.561429180407196
 30
0.0
 10
2.533281299211645
 20
6.559266443638266
 30
0.0
 10
2.51160315621761
 20
6.561447939640384
 30
0.0
 10
2.490750705679039
 20
6.568017817917806
 30
0.0
 10
2.471447747605388
 20
6.578363424641518
 30
0.0
 10
2.454658810708645
 20
6.592345955027795
 30
0.0
 10
2.440877479147427
 20
6.609374889106134
 30
0.0
 10
2.430715171818599
 20
6.628922995721114
 30
0.0
 10
2.424273001729583
 20
6.650044912764362
 30
0.0
 10
2.422160433365758
 20
6.671986178343238
 30
0.0
 10
2.424306764483384
 20
6.693923315361745
 30
0.0
  0
SPLINE
  5
17A
330
1F
100
AcDbEntity
  8
0
  6
CONTINUOUS
 62
     7
100
AcDbSpline
210
0.0
220
0.0
230
1.0
 70
     8
 71
     3
 72
    39
 73
    35
 74
     0
 42
0.00000001
 43
0.00000001
 40
-0.0943715545702493
 40
-0.0628388545070703
 40
-0.0312426280098324
 40
0.0
 40
0.0312777913077207
 40
0.0628780783965094
 40
0.0944274328700057
 40
0.125564719056749
 40
0.156596989407174
 40
0.1879211724745171
 40
0.2191570055934952
 40
0.250019237883282
 40
0.2808187495465312
 40
0.3120953853003079
 40
0.3433552514224432
 40
0.3743841042460658
 40
0.4054925464478084
 40
0.4371236868911644
 40
0.4688239516155694
 40
0.5001557223547007
 40
0.5314141654495481
 40
0.5630239510495479
 40
0.5945090070804814
 40
0.6256274239641382
 40
0.6566551255069872
 40
0.6879522171014402
 40
0.7192095930906455
 40
0.7500723837297177
 40
0.7808982861615592
 40
0.8122034233346809
 40
0.8434827761404903
 40
0.8745412907282344
 40
0.9056284454297507
 40
0.9371611454929297
 40
0.9687573719901676
 40
1.0
 40
1.031277791307721
 40
1.062878078396509
 40
1.094427432870006
 10
4.010887174957925
 20
6.650044912764362
 30
0.0
 10
4.008774606594115
 20
6.671986178343304
 30
0.0
 10
4.010920937711679
 20
6.693923315361824
 30
0.0
 10
4.017363090530996
 20
6.715057560589187
 30
0.0
 10
4.027534527259124
 20
6.734619737355066
 30
0.0
 10
4.041319100288248
 20
6.75165867246089
 30
0.0
 10
4.058126986309072
 20
6.765644491231055
 30
0.0
 10
4.077431544497819
 20
6.775965154892168
 30
0.0
 10
4.098293577934758
 20
6.782508981819502
 30
0.0
 10
4.11994852943259
 20
6.784686060612197
 30
0.0
 10
4.14161619584331
 20
6.782530149352128
 30
0.0
 10
4.162457975061865
 20
6.775982919410953
 30
0.0
 10
4.181752503620094
 20
6.765659403703968
 30
0.0
 10
4.198541508276098
 20
6.751685583560954
 30
0.0
 10
4.212326908858134
 20
6.73463216027015
 30
0.0
 10
4.222504502222891
 20
6.715033805494413
 30
0.0
 10
4.228974103060861
 20
6.693850382218853
 30
0.0
 10
4.231114837956932
 20
6.6718709008313
 30
0.0
 10
4.228976881959467
 20
6.649912753209298
 30
0.0
 10
4.222518558812007
 20
6.628799741772547
 30
0.0
 10
4.212326883994224
 20
6.609267655645545
 30
0.0
 10
4.198531712911677
 20
6.592264446929952
 30
0.0
 10
4.181726394041751
 20
6.578295868286202
 30
0.0
 10
4.162425501722022
 20
6.567974951432371
 30
0.0
 10
4.141564329773036
 20
6.561429180407215
 30
0.0
 10
4.119895472439938
 20
6.559266443638266
 30
0.0
 10
4.098217329445923
 20
6.561447939640365
 30
0.0
 10
4.077364878907335
 20
6.568017817917826
 30
0.0
 10
4.058061920833727
 20
6.578363424641556
 30
0.0
 10
4.041272983936969
 20
6.592345955027812
 30
0.0
 10
4.027491652375774
 20
6.609374889106137
 30
0.0
 10
4.017329345046947
 20
6.628922995721112
 30
0.0
 10
4.010887174957925
 20
6.650044912764362
 30
0.0
 10
4.008774606594115
 20
6.671986178343304
 30
0.0
 10
4.010920937711679
 20
6.693923315361824
 30
0.0
  0
SPLINE
  5
17B
330
1F
100
AcDbEntity
  8
0
  6
CONTINUOUS
 62
     7
100
AcDbSpline
210
0.0
220
0.0
230
1.0
 70
     8
 71
     3
 72
    26
 73
    22
 74
     0
 42
0.00000001
 43
0.00000001
 40
0.0
 40
0.0
 40
0.0
 40
0.0
 40
0.0177817237358505
 40
0.0720758784482671
 40
0.1247360336678368
 40
0.178913959404731
 40
0.2317472722653399
 40
0.286102075614861
 40
0.3391122521845193
 40
0.3936644319014809
 40
0.4465786352488115
 40
0.5010403323134599
 40
0.5537337135527677
 40
0.6079561099722677
 40
0.6606491039380273
 40
0.714857816695878
 40
0.7677704974440551
 40
0.8222112105304418
 40
0.8752218810173981
 40
0.9297794779454064
 40
1.0
 40
1.0
 40
1.0
 40
1.0
 10
4.218066222153951
 20
7.671947465065753
 30
0.0
 10
4.218149092042323
 20
7.671955601653053
 30
0.0
 10
4.218484994235494
 20
7.671988582239518
 30
0.0
 10
4.216227476622588
 20
7.671766376147991
 30
0.0
 10
4.211304302019234
 20
7.671300349920307
 30
0.0
 10
4.203680951118267
 20
7.670625505914511
 30
0.0
 10
4.193663929607583
 20
7.669828333578182
 30
0.0
 10
4.181627477948269
 20
7.669003232528308
 30
0.0
 10
4.167711072067649
 20
7.66823182822849
 30
0.0
 10
4.152552859199089
 20
7.667614143849987
 30
0.0
 10
4.136327428677665
 20
7.667211152481514
 30
0.0
 10
4.119813409917349
 20
7.66707513286292
 30
0.0
 10
4.103176988361209
 20
7.66721789791409
 30
0.0
 10
4.087189619989742
 20
7.667619483230511
 30
0.0
 10
4.071990809785992
 20
7.668241025680373
 30
0.0
 10
4.058256961986328
 20
7.669003704453333
 30
0.0
 10
4.04613462230094
 20
7.669834495757532
 30
0.0
 10
4.036162116819494
 20
7.670629507933753
 30
0.0
 10
4.028540232756713
 20
7.67130347847483
 30
0.0
 10
4.022785758382726
 20
7.671850745053411
 30
0.0
 10
4.021974525235573
 20
7.671931623506687
 30
0.0
 10
4.021517993148333
 20
7.671977138916427
 30
0.0
  0
SPLINE
  5
17C
330
1F
100
AcDbEntity
  8
0
  6
CONTINUOUS
 62
     7
100
AcDbSpline
210
0.0
220
0.0
230
1.0
 70
     8
 71
     3
 72
    26
 73
    22
 74
     0
 42
0.00000001
 43
0.00000001
 40
0.0
 40
0.0
 40
0.0
 40
0.0
 40
0.0177817237358507
 40
0.0720758784482673
 40
0.124736033667837
 40
0.1789139594047312
 40
0.2317472722653401
 40
0.2861020756148612
 40
0.3391122521845195
 40
0.393664431901481
 40
0.4465786352488116
 40
0.50104033231346
 40
0.5537337135527678
 40
0.6079561099722677
 40
0.6606491039380274
 40
0.7148578166958781
 40
0.7677704974440551
 40
0.8222112105304418
 40
0.8752218810173981
 40
0.9297794779454064
 40
1.0
 40
1.0
 40
1.0
 40
1.0
 10
2.631452048925604
 20
7.671947465065753
 30
0.0
 10
2.631534918813975
 20
7.671955601653053
 30
0.0
 10
2.631870821007148
 20
7.671988582239518
 30
0.0
 10
2.629613303394242
 20
7.671766376147991
 30
0.0
 10
2.624690128790887
 20
7.671300349920307
 30
0.0
 10
2.61706677788992
 20
7.670625505914511
 30
0.0
 10
2.607049756379237
 20
7.669828333578183
 30
0.0
 10
2.595013304719922
 20
7.669003232528308
 30
0.0
 10
2.581096898839303
 20
7.66823182822849
 30
0.0
 10
2.565938685970742
 20
7.667614143849987
 30
0.0
 10
2.549713255449317
 20
7.667211152481514
 30
0.0
 10
2.533199236689003
 20
7.667075132862921
 30
0.0
 10
2.516562815132863
 20
7.66721789791409
 30
0.0
 10
2.500575446761395
 20
7.667619483230511
 30
0.0
 10
2.485376636557645
 20
7.668241025680373
 30
0.0
 10
2.471642788757983
 20
7.669003704453333
 30
0.0
 10
2.459520449072594
 20
7.669834495757532
 30
0.0
 10
2.449547943591147
 20
7.670629507933753
 30
0.0
 10
2.441926059528366
 20
7.67130347847483
 30
0.0
 10
2.436171585154379
 20
7.671850745053411
 30
0.0
 10
2.435360352007226
 20
7.671931623506687
 30
0.0
 10
2.434903819919986
 20
7.671977138916427
 30
0.0
  0
SPLINE
  5
17D
330
1F
100
AcDbEntity
  8
0
  6
CONTINUOUS
 62
     7
100
AcDbSpline
210
0.0
220
0.0
230
1.0
 70
     8
 71
     3
 72
     9
 73
     5
 74
     0
 42
0.00000001
 43
0.00000001
 40
0.0
 40
0.0
 40
0.0
 40
0.0
 40
0.6580163940341645
 40
1.0
 40
1.0
 40
1.0
 40
1.0
 10
2.434903819919986
 20
6.671977138916426
 30
0.0
 10
2.435030335651981
 20
6.666705026873195
 30
0.0
 10
2.435222604010554
 20
6.658692898161768
 30
0.0
 10
2.437436733254976
 20
6.651024622878015
 30
0.0
 10
2.438193929158058
 20
6.648402198444938
 30
0.0
  0
SPLINE
  5
17E
330
1F
100
AcDbEntity
  8
0
  6
CONTINUOUS
 62
     7
100
AcDbSpline
210
0.0
220
0.0
230
1.0
 70
     8
 71
     3
 72
    17
 73
    13
 74
     0
 42
0.00000001
 43
0.00000001
 40
0.0
 40
0.0
 40
0.0
 40
0.0
 40
0.1030206371592542
 40
0.2218852600039956
 40
0.3563857693383475
 40
0.506526994450322
 40
0.6567219762764523
 40
0.7910178924929329
 40
0.9094186534874725
 40
0.962709146392834
 40
0.9878682641612958
 40
0.9999999999999999
 40
0.9999999999999999
 40
0.9999999999999999
 40
0.9999999999999999
 10
2.631751423639135
 20
6.671903235843153
 30
0.0
 10
2.631510854473722
 20
6.677153266730963
 30
0.0
 10
2.630992717979052
 20
6.688460753276306
 30
0.0
 10
2.626277750585883
 20
6.70612385806908
 30
0.0
 10
2.617376411118391
 20
6.724749876499904
 30
0.0
 10
2.60352566191147
 20
6.742237513267883
 30
0.0
 10
2.586038427276848
 20
6.756050158478679
 30
0.0
 10
2.567436076935872
 20
6.764979404612747
 30
0.0
 10
2.552264878491983
 20
6.768877136167127
 30
0.0
 10
2.542305064079076
 20
6.770053130126962
 30
0.0
 10
2.537700451558608
 20
6.770323028002747
 30
0.0
 10
2.535802614287549
 20
6.770369578489901
 30
0.0
 10
2.53518519585353
 20
6.770384722638094
 30
0.0
  0
SPLINE
  5
17F
330
1F
100
AcDbEntity
  8
0
  6
CONTINUOUS
 62
     7
100
AcDbSpline
210
0.0
220
0.0
230
1.0
 70
     8
 71
     3
 72
    14
 73
    10
 74
     0
 42
0.00000001
 43
0.00000001
 40
0.0
 40
0.0
 40
0.0
 40
0.0
 40
0.0616827350987871
 40
0.2212078339892125
 40
0.3996321153997392
 40
0.5776863063316782
 40
0.7370925741254163
 40
0.8778567272774674
 40
0.9999999999999999
 40
0.9999999999999999
 40
0.9999999999999999
 40
0.9999999999999999
 10
2.507901576350961
 20
6.766642043132169
 30
0.0
 10
2.505321633425125
 20
6.766042201075673
 30
0.0
 10
2.49606939152103
 20
6.763891035731907
 30
0.0
 10
2.480657926112262
 20
6.755896599192825
 30
0.0
 10
2.46311361053896
 20
6.742273818615931
 30
0.0
 10
2.449283949663113
 20
6.72473580870489
 30
0.0
 10
2.440389625201436
 20
6.706147998597321
 30
0.0
 10
2.435676810775686
 20
6.688510588695812
 30
0.0
 10
2.435149023040624
 20
6.677221772085007
 30
0.0
 10
2.434903819919986
 20
6.671977138916426
 30
0.0
  0
SPLINE
  5
180
330
1F
100
AcDbEntity
  8
0
  6
CONTINUOUS
 62
     7
100
AcDbSpline
210
0.0
220
0.0
230
1.0
 70
     8
 71
     3
 72
    29
 73
    25
 74
     0
 42
0.00000001
 43
0.00000001
 40
-0.125163269225631
 40
-0.0765528984230767
 40
-0.0348311103231034
 40
0.0
 40
0.0348359800792784
 40
0.0765270564834046
 40
0.1250713895930825
 40
0.1737951813814222
 40
0.2155290937038796
 40
0.250270377184083
 40
0.3048623250701913
 40
0.3749792924326928
 40
0.4235768430736433
 40
0.4652711795975812
 40
0.5000601138882387
 40
0.5548957908259359
 40
0.6250044587656732
 40
0.6736730253539162
 40
0.7153680356622059
 40
0.7500869133925597
 40
0.7501165418613652
 40
0.8047040363356287
 40
0.874836730774369
 40
0.9234471015769233
 40
0.9651688896768966
 40
1.0
 40
1.034835980079278
 40
1.076527056483405
 40
1.125071389593083
 10
4.023243725311876
 20
6.694899635064514
 30
0.0
 10
4.020732365573735
 20
6.671976266838363
 30
0.0
 10
4.023244790213746
 20
6.649058387026681
 30
0.0
 10
4.032129328491282
 20
6.624658257309437
 30
0.0
 10
4.049236528345047
 20
6.601311053547622
 30
0.0
 10
4.072579772361563
 20
6.584178722683703
 30
0.0
 10
4.097009522235812
 20
6.575285218438423
 30
0.0
 10
4.123964398759731
 20
6.572318745209516
 30
0.0
 10
4.156889951758601
 20
6.577961555671274
 30
0.0
 10
4.187981802355845
 20
6.597656883236565
 30
0.0
 10
4.207706888662647
 20
6.624572490037112
 30
0.0
 10
4.216620445271065
 20
6.648974961975312
 30
0.0
 10
4.219610765457482
 20
6.675979052139458
 30
0.0
 10
4.213951336544967
 20
6.708969206202738
 30
0.0
 10
4.194194069220492
 20
6.740096561414969
 30
0.0
 10
4.167239119506564
 20
6.75979973220007
 30
0.0
 10
4.14283872823278
 20
6.768681409858189
 30
0.0
 10
4.127087564030406
 20
6.770401672412422
 30
0.0
 10
4.108735521652807
 20
6.770403377864829
 30
0.0
 10
4.08292910847268
 20
6.765972705721698
 30
0.0
 10
4.051864740561517
 20
6.746259991156047
 30
0.0
 10
4.032145263633811
 20
6.719320413991925
 30
0.0
 10
4.023243725311876
 20
6.694899635064514
 30
0.0
 10
4.020732365573735
 20
6.671976266838363
 30
0.0
 10
4.023244790213746
 20
6.649058387026681
 30
0.0
  0
LINE
  5
181
330
1F
100
AcDbEntity
  8
0
  6
CONTINUOUS
 62
     7
100
AcDbLine
 10
2.3266361034
 20
5.6869771389
 30
0.0
 11
2.3266361034
 21
7.6569771389
 31
0.0
  0
LINE
  5
182
330
1F
100
AcDbEntity
  8
0
  6
CONTINUOUS
 62
     7
100
AcDbLine
 10
4.3266361034
 20
7.6569771389
 30
0.0
 11
4.3266361034
 21
5.6869771389
 31
0.0
  0
LINE
  5
183
330
1F
100
AcDbEntity
  8
0
  6
CONTINUOUS
 62
     7
100
AcDbLine
 10
4.0315179931
 20
7.6719771389
 30
0.0
 11
4.2083683868
 21
7.6719771389
 31
0.0
  0
LINE
  5
184
330
1F
100
AcDbEntity
  8
0
  6
CONTINUOUS
 62
     7
100
AcDbLine
 10
2.6217542136
 20
7.6719771389
 30
0.0
 11
2.4449038199
 21
7.6719771389
 31
0.0
  0
CIRCLE
  5
185
330
1F
100
AcDbEntity
  8
0
  6
CONTINUOUS
 62
     7
100
AcDbCircle
 10
2.5333290168
 20
6.6719771389
 30
0.0
 40
0.0884251968503933
  0
LINE
  5
186
330
1F
100
AcDbEntity
  8
0
  6
CONTINUOUS
 62
     7
100
AcDbLine
 10
2.4713011904
 20
6.6361653567
 30
0.0
 11
2.4713011904
 21
6.7077889212
 31
0.0
  0
LINE
  5
187
330
1F
100
AcDbEntity
  8
0
  6
CONTINUOUS
 62
     7
100
AcDbLine
 10
2.5333290168
 20
6.6003535744
 30
0.0
 11
2.4713011904
 21
6.6361653567
 31
0.0
  0
LINE
  5
188
330
1F
100
AcDbEntity
  8
0
  6
CONTINUOUS
 62
     7
100
AcDbLine
 10
2.5953568431
 20
6.6361653567
 30
0.0
 11
2.5333290168
 21
6.6003535744
 31
0.0
  0
LINE
  5
189
330
1F
100
AcDbEntity
  8
0
  6
CONTINUOUS
 62
     7
100
AcDbLine
 10
2.5953568431
 20
6.7077889212
 30
0.0
 11
2.5953568431
 21
6.6361653567
 31
0.0
  0
LINE
  5
18A
330
1F
100
AcDbEntity
  8
0
  6
CONTINUOUS
 62
     7
100
AcDbLine
 10
2.5333290168
 20
6.7436007034
 30
0.0
 11
2.5953568431
 21
6.7077889212
 31
0.0
  0
LINE
  5
18B
330
1F
100
AcDbEntity
  8
0
  6
CONTINUOUS
 62
     7
100
AcDbLine
 10
2.4713011904
 20
6.7077889212
 30
0.0
 11
2.5333290168
 21
6.7436007034
 31
0.0
  0
CIRCLE
  5
18C
330
1F
100
AcDbEntity
  8
0
  6
CONTINUOUS
 62
     7
100
AcDbCircle
 10
2.5333290168
 20
6.6719771389
 30
0.0
 40
0.0984251968503935
  0
CIRCLE
  5
18D
330
1F
100
AcDbEntity
  8
0
  6
CONTINUOUS
 62
     7
100
AcDbCircle
 10
4.11994319
 20
6.6719771389
 30
0.0
 40
0.0884251968503937
  0
LINE
  5
18E
330
1F
100
AcDbEntity
  8
0
  6
CONTINUOUS
 62
     7
100
AcDbLine
 10
4.11994319
 20
6.7436007034
 30
0.0
 11
4.0579153637
 21
6.7077889212
 31
0.0
  0
LINE
  5
18F
330
1F
100
AcDbEntity
  8
0
  6
CONTINUOUS
 62
     7
100
AcDbLine
 10
4.0579153637
 20
6.7077889212
 30
0.0
 11
4.0579153637
 21
6.6361653567
 31
0.0
  0
LINE
  5
190
330
1F
100
AcDbEntity
  8
0
  6
CONTINUOUS
 62
     7
100
AcDbLine
 10
4.0579153637
 20
6.6361653567
 30
0.0
 11
4.11994319
 21
6.6003535744
 31
0.0
  0
LINE
  5
191
330
1F
100
AcDbEntity
  8
0
  6
CONTINUOUS
 62
     7
100
AcDbLine
 10
4.11994319
 20
6.6003535744
 30
0.0
 11
4.1819710163
 21
6.6361653567
 31
0.0
  0
LINE
  5
192
330
1F
100
AcDbEntity
  8
0
  6
CONTINUOUS
 62
     7
100
AcDbLine
 10
4.1819710163
 20
6.6361653567
 30
0.0
 11
4.1819710163
 21
6.7077889212
 31
0.0
  0
LINE
  5
193
330
1F
100
AcDbEntity
  8
0
  6
CONTINUOUS
 62
     7
100
AcDbLine
 10
4.1819710163
 20
6.7077889212
 30
0.0
 11
4.11994319
 21
6.7436007034
 31
0.0
  0
CIRCLE
  5
194
330
1F
100
AcDbEntity
  8
0
  6
CONTINUOUS
 62
     7
100
AcDbCircle
 10
4.11994319
 20
6.6719771389
 30
0.0
 40
0.0984251968503935
  0
SPLINE
  5
195
330
1F
100
AcDbEntity
  8
0
  6
HIDDEN
 62
     7
100
AcDbSpline
210
0.0
220
0.0
230
1.0
 70
     8
 71
     3
 72
    23
 73
    19
 74
     0
 42
0.00000001
 43
0.00000001
 40
0.0
 40
0.0
 40
0.0
 40
0.0
 40
0.0348474656721543
 40
0.1067271153522219
 40
0.1869790447360831
 40
0.2675512578774097
 40
0.3395843022667912
 40
0.403080161891087
 40
0.4580481265339581
 40
0.5130353200618286
 40
0.5765290437804242
 40
0.648538748490714
 40
0.7290665647835692
 40
0.8094153852672307
 40
0.8813309272292026
 40
0.9448155285100276
 40
0.9998787294537451
 40
1.0
 40
1.0
 40
1.0
 40
1.0
 10
2.438193929158058
 20
6.648402198444938
 30
0.0
 10
2.438932605533505
 20
6.645170196686767
 30
0.0
 10
2.441194945052601
 20
6.635271565098801
 30
0.0
 10
2.449402332266638
 20
6.619280320118722
 30
0.0
 10
2.463038273890615
 20
6.601762934635923
 30
0.0
 10
2.480560174991977
 20
6.58794750813654
 30
0.0
 10
2.499166215139882
 20
6.57899242591032
 30
0.0
 10
2.516786490919276
 20
6.574459732676689
 30
0.0
 10
2.533280629085481
 20
6.573134495948554
 30
0.0
 10
2.549776513544526
 20
6.574443352872187
 30
0.0
 10
2.567398644972327
 20
6.57895959368528
 30
0.0
 10
2.58601630744742
 20
6.587890439097936
 30
0.0
 10
2.603518166161356
 20
6.601700138397676
 30
0.0
 10
2.617313624270144
 20
6.619166949318914
 30
0.0
 10
2.626359510994643
 20
6.637752003442316
 30
0.0
 10
2.630610878941195
 20
6.655347438411942
 30
0.0
 10
2.63216731856385
 20
6.666665667072579
 30
0.0
 10
2.631752335584312
 20
6.671891751270259
 30
0.0
 10
2.631751423639135
 20
6.671903235843153
 30
0.0
  0
ARC
  5
196
330
1F
100
AcDbEntity
  8
0
  6
HIDDEN
 62
     7
100
AcDbCircle
 10
2.5334204067
 20
6.6819315339
 30
0.0
 40
0.0884707922652837
100
AcDbArc
 50
88.8570049804
 51
106.7647972298
  0
LINE
  5
197
330
1F
100
AcDbEntity
  8
0
  6
HIDDEN
 62
     7
100
AcDbLine
 10
3.3766361034
 20
6.9231976114
 30
0.0
 11
3.3766361034
 21
6.4207566665
 31
0.0
  0
LINE
  5
198
330
1F
100
AcDbEntity
  8
0
  6
HIDDEN
 62
     7
100
AcDbLine
 10
3.2766361034
 20
6.9231976114
 30
0.0
 11
3.2766361034
 21
6.4207566665
 31
0.0
  0
SPLINE
  5
199
330
1F
100
AcDbEntity
  8
0
  6
HIDDEN
 62
     7
100
AcDbSpline
210
0.0
220
0.0
230
1.0
 70
     8
 71
     3
 72
    27
 73
    23
 74
     0
 42
0.00000001
 43
0.00000001
 40
0.0
 40
0.0
 40
0.0
 40
0.0
 40
0.0499047892114995
 40
0.1013287788931374
 40
0.1512154205832923
 40
0.2024326964084825
 40
0.2546229546205545
 40
0.3081864636760535
 40
0.3627977947844082
 40
0.4191437704789759
 40
0.4710394553259381
 40
0.5247000727818215
 40
0.5727511783248683
 40
0.6221472085980914
 40
0.6713138596046005
 40
0.7216971236501478
 40
0.7749607755837452
 40
0.8296939224124708
 40
0.8840365455742222
 40
0.940165603153605
 40
0.9910682314851925
 40
1.0
 40
1.0
 40
1.0
 40
1.0
 10
4.021517993148333
 20
6.908197611357371
 30
0.0
 10
4.021757633102075
 20
6.908097250401569
 30
0.0
 10
4.02224420812364
 20
6.907893473304005
 30
0.0
 10
4.026140077970948
 20
6.906294503497951
 30
0.0
 10
4.03224707035226
 20
6.903901344902133
 30
0.0
 10
4.040599348061636
 20
6.900848197298291
 30
0.0
 10
4.051167458463791
 20
6.89737039258662
 30
0.0
 10
4.063835143256464
 20
6.893793677554265
 30
0.0
 10
4.078505306234015
 20
6.890498863655297
 30
0.0
 10
4.094388359803775
 20
6.88802675424512
 30
0.0
 10
4.111030435653991
 20
6.886688793671926
 30
0.0
 10
4.127127907416548
 20
6.886638605342445
 30
0.0
 10
4.142709794004812
 20
6.887751232782858
 30
0.0
 10
4.157195530498325
 20
6.889774128589652
 30
0.0
 10
4.170902073557376
 20
6.892555936987195
 30
0.0
 10
4.18363478146988
 20
6.895860378900981
 30
0.0
 10
4.195144503878668
 20
6.8994273839209
 30
0.0
 10
4.204845452137786
 20
6.902844179320819
 30
0.0
 10
4.212369877438665
 20
6.905740457514747
 30
0.0
 10
4.216789038006824
 20
6.907538329117338
 30
0.0
 10
4.218648214045705
 20
6.908313782609053
 30
0.0
 10
4.218236536037829
 20
6.908142851575036
 30
0.0
 10
4.218175082879399
 20
6.90811733587657
 30
0.0
  0
SPLINE
  5
19A
330
1F
100
AcDbEntity
  8
0
  6
HIDDEN
 62
     7
100
AcDbSpline
210
0.0
220
0.0
230
1.0
 70
     8
 71
     3
 72
    27
 73
    23
 74
     0
 42
0.00000001
 43
0.00000001
 40
0.0
 40
0.0
 40
0.0
 40
0.0
 40
0.0499047892114995
 40
0.1013287788931374
 40
0.1512154205832923
 40
0.2024326964084825
 40
0.2546229546205545
 40
0.3081864636760535
 40
0.3627977947844082
 40
0.4191437704789759
 40
0.4710394553259381
 40
0.5247000727818215
 40
0.5727511783248683
 40
0.6221472085980914
 40
0.6713138596046005
 40
0.7216971236501478
 40
0.7749607755837452
 40
0.8296939224124708
 40
0.8840365455742222
 40
0.940165603153605
 40
0.9910682314851925
 40
1.0
 40
1.0
 40
1.0
 40
1.0
 10
2.434903819919986
 20
6.908197611357371
 30
0.0
 10
2.435143459873728
 20
6.908097250401569
 30
0.0
 10
2.435630034895293
 20
6.907893473304005
 30
0.0
 10
2.439525904742601
 20
6.906294503497951
 30
0.0
 10
2.445632897123914
 20
6.903901344902133
 30
0.0
 10
2.453985174833289
 20
6.900848197298291
 30
0.0
 10
2.464553285235445
 20
6.89737039258662
 30
0.0
 10
2.477220970028117
 20
6.893793677554265
 30
0.0
 10
2.491891133005668
 20
6.890498863655297
 30
0.0
 10
2.507774186575428
 20
6.88802675424512
 30
0.0
 10
2.524416262425643
 20
6.886688793671926
 30
0.0
 10
2.540513734188202
 20
6.886638605342445
 30
0.0
 10
2.556095620776465
 20
6.887751232782858
 30
0.0
 10
2.570581357269979
 20
6.889774128589652
 30
0.0
 10
2.584287900329028
 20
6.892555936987195
 30
0.0
 10
2.597020608241535
 20
6.895860378900981
 30
0.0
 10
2.608530330650321
 20
6.8994273839209
 30
0.0
 10
2.61823127890944
 20
6.902844179320819
 30
0.0
 10
2.625755704210318
 20
6.905740457514747
 30
0.0
 10
2.630174864778476
 20
6.907538329117338
 30
0.0
 10
2.63203404081736
 20
6.908313782609053
 30
0.0
 10
2.631622362809483
 20
6.908142851575036
 30
0.0
 10
2.631560909651053
 20
6.90811733587657
 30
0.0
  0
LINE
  5
19B
330
1F
100
AcDbEntity
  8
0
  6
HIDDEN
 62
     7
100
AcDbLine
 10
4.2183683868
 20
7.6619771389
 30
0.0
 11
4.0215179931
 21
7.6619771389
 31
0.0
  0
LINE
  5
19C
330
1F
100
AcDbEntity
  8
0
  6
HIDDEN
 62
     7
100
AcDbLine
 10
4.0215179931
 20
6.9181976114
 30
0.0
 11
4.2183683868
 21
6.9181976114
 31
0.0
  0
LINE
  5
19D
330
1F
100
AcDbEntity
  8
0
  6
HIDDEN
 62
     7
100
AcDbLine
 10
4.2083683868
 20
6.9081976114
 30
0.0
 11
4.0315179931
 21
6.9081976114
 31
0.0
  0
LINE
  5
19E
330
1F
100
AcDbEntity
  8
0
  6
HIDDEN
 62
     7
100
AcDbLine
 10
4.11994319
 20
7.6219771389
 30
0.0
 11
4.11994319
 21
7.6719771389
 31
0.0
  0
LINE
  5
19F
330
1F
100
AcDbEntity
  8
0
  6
HIDDEN
 62
     7
100
AcDbLine
 10
4.0579153637
 20
7.6219771389
 30
0.0
 11
4.11994319
 21
7.6219771389
 31
0.0
  0
LINE
  5
1A0
330
1F
100
AcDbEntity
  8
0
  6
HIDDEN
 62
     7
100
AcDbLine
 10
4.11994319
 20
7.6219771389
 30
0.0
 11
4.1819710163
 21
7.6219771389
 31
0.0
  0
LINE
  5
1A1
330
1F
100
AcDbEntity
  8
0
  6
HIDDEN
 62
     7
100
AcDbLine
 10
4.1819710163
 20
7.6219771389
 30
0.0
 11
4.1819710163
 21
7.6719771389
 31
0.0
  0
LINE
  5
1A2
330
1F
100
AcDbEntity
  8
0
  6
HIDDEN
 62
     7
100
AcDbLine
 10
4.0579153637
 20
7.6219771389
 30
0.0
 11
4.0579153637
 21
7.6719771389
 31
0.0
  0
LINE
  5
1A3
330
1F
100
AcDbEntity
  8
0
  6
HIDDEN
 62
     7
100
AcDbLine
 10
2.4349038199
 20
7.6619771389
 30
0.0
 11
2.6317542136
 21
7.6619771389
 31
0.0
  0
LINE
  5
1A4
330
1F
100
AcDbEntity
  8
0
  6
HIDDEN
 62
     7
100
AcDbLine
 10
2.6317542136
 20
6.9181976114
 30
0.0
 11
2.4349038199
 21
6.9181976114
 31
0.0
  0
LINE
  5
1A5
330
1F
100
AcDbEntity
  8
0
  6
HIDDEN
 62
     7
100
AcDbLine
 10
2.4449038199
 20
6.9081976114
 30
0.0
 11
2.6217542136
 21
6.9081976114
 31
0.0
  0
LINE
  5
1A6
330
1F
100
AcDbEntity
  8
0
  6
HIDDEN
 62
     7
100
AcDbLine
 10
2.5333290168
 20
7.6219771389
 30
0.0
 11
2.5333290168
 21
7.6719771389
 31
0.0
  0
LINE
  5
1A7
330
1F
100
AcDbEntity
  8
0
  6
HIDDEN
 62
     7
100
AcDbLine
 10
2.5333290168
 20
7.6219771389
 30
0.0
 11
2.4713011904
 21
7.6219771389
 31
0.0
  0
LINE
  5
1A8
330
1F
100
AcDbEntity
  8
0
  6
HIDDEN
 62
     7
100
AcDbLine
 10
2.5953568431
 20
7.6219771389
 30
0.0
 11
2.5333290168
 21
7.6219771389
 31
0.0
  0
LINE
  5
1A9
330
1F
100
AcDbEntity
  8
0
  6
HIDDEN
 62
     7
100
AcDbLine
 10
2.4713011904
 20
7.6219771389
 30
0.0
 11
2.4713011904
 21
7.6719771389
 31
0.0
  0
LINE
  5
1AA
330
1F
100
AcDbEntity
  8
0
  6
HIDDEN
 62
     7
100
AcDbLine
 10
2.5953568431
 20
7.6219771389
 30
0.0
 11
2.5953568431
 21
7.6719771389
 31
0.0
  0
LINE
  5
1AB
330
1F
100
AcDbEntity
  8
0
  6
HIDDEN
 62
     7
100
AcDbLine
 10
3.3766361034
 20
6.9231976114
 30
0.0
 11
3.2766361034
 21
6.9231976114
 31
0.0
  0
LINE
  5
1AC
330
1F
100
AcDbEntity
  8
0
  6
HIDDEN
 62
     7
100
AcDbLine
 10
3.2766361034
 20
6.4207566665
 30
0.0
 11
3.3766361034
 21
6.4207566665
 31
0.0
  0
LINE
  5
1AD
330
1F
100
AcDbEntity
  8
0
  6
HIDDEN
 62
     7
100
AcDbLine
 10
2.3266361034
 20
6.4207566665
 30
0.0
 11
2.3416361034
 21
6.4357566665
 31
0.0
  0
LINE
  5
1AE
330
1F
100
AcDbEntity
  8
0
  6
HIDDEN
 62
     7
100
AcDbLine
 10
2.3416361034
 20
6.9081976114
 30
0.0
 11
2.3266361034
 21
6.9231976114
 31
0.0
  0
LINE
  5
1AF
330
1F
100
AcDbEntity
  8
0
  6
HIDDEN
 62
     7
100
AcDbLine
 10
4.3266361034
 20
6.9231976114
 30
0.0
 11
4.3116361034
 21
6.9081976114
 31
0.0
  0
LINE
  5
1B0
330
1F
100
AcDbEntity
  8
0
  6
HIDDEN
 62
     7
100
AcDbLine
 10
4.3116361034
 20
6.4357566665
 30
0.0
 11
4.3266361034
 21
6.4207566665
 31
0.0
  0
LINE
  5
1B1
330
1F
100
AcDbEntity
  8
0
  6
HIDDEN
 62
     7
100
AcDbLine
 10
4.0215179931
 20
6.9081976114
 30
0.0
 11
3.3766361034
 21
6.9081976114
 31
0.0
  0
LINE
  5
1B2
330
1F
100
AcDbEntity
  8
0
  6
HIDDEN
 62
     7
100
AcDbLine
 10
4.3116361034
 20
6.9081976114
 30
0.0
 11
4.2181750829
 21
6.9081976114
 31
0.0
  0
LINE
  5
1B3
330
1F
100
AcDbEntity
  8
0
  6
HIDDEN
 62
     7
100
AcDbLine
 10
3.3766361034
 20
6.4357566665
 30
0.0
 11
4.3116361034
 21
6.4357566665
 31
0.0
  0
LINE
  5
1B4
330
1F
100
AcDbEntity
  8
0
  6
HIDDEN
 62
     7
100
AcDbLine
 10
2.4349038199
 20
6.9081976114
 30
0.0
 11
2.3416361034
 21
6.9081976114
 31
0.0
  0
LINE
  5
1B5
330
1F
100
AcDbEntity
  8
0
  6
HIDDEN
 62
     7
100
AcDbLine
 10
3.2766361034
 20
6.9081976114
 30
0.0
 11
2.6315609097
 21
6.9081976114
 31
0.0
  0
LINE
  5
1B6
330
1F
100
AcDbEntity
  8
0
  6
HIDDEN
 62
     7
100
AcDbLine
 10
2.3416361034
 20
6.4357566665
 30
0.0
 11
3.2766361034
 21
6.4357566665
 31
0.0
  0
LINE
  5
1B7
330
1F
100
AcDbEntity
  8
0
  6
HIDDEN
 62
     7
100
AcDbLine
 10
4.2183683868
 20
6.9081175376
 30
0.0
 11
4.2183683868
 21
7.6719771389
 31
0.0
  0
LINE
  5
1B8
330
1F
100
AcDbEntity
  8
0
  6
HIDDEN
 62
     7
100
AcDbLine
 10
4.0215179931
 20
7.6719771389
 30
0.0
 11
4.0215179931
 21
6.9081976114
 31
0.0
  0
LINE
  5
1B9
330
1F
100
AcDbEntity
  8
0
  6
HIDDEN
 62
     7
100
AcDbLine
 10
2.6317542136
 20
6.9081175376
 30
0.0
 11
2.6317542136
 21
7.6719771389
 31
0.0
  0
LINE
  5
1BA
330
1F
100
AcDbEntity
  8
0
  6
HIDDEN
 62
     7
100
AcDbLine
 10
2.4349038199
 20
7.6719771389
 30
0.0
 11
2.4349038199
 21
6.9081976114
 31
0.0
  0
LINE
  5
1BB
330
1F
100
AcDbEntity
  8
0
  6
HIDDEN
 62
     7
100
AcDbLine
 10
4.2183683868
 20
7.6619771389
 30
0.0
 11
4.2092221383
 21
7.6711233875
 31
0.0
  0
LINE
  5
1BC
330
1F
100
AcDbEntity
  8
0
  6
HIDDEN
 62
     7
100
AcDbLine
 10
4.0306640707
 20
7.6711232165
 30
0.0
 11
4.0215179931
 21
7.6619771389
 31
0.0
  0
LINE
  5
1BD
330
1F
100
AcDbEntity
  8
0
  6
HIDDEN
 62
     7
100
AcDbLine
 10
4.2183683868
 20
6.9181976114
 30
0.0
 11
4.2183683868
 21
7.6619771389
 31
0.0
  0
LINE
  5
1BE
330
1F
100
AcDbEntity
  8
0
  6
HIDDEN
 62
     7
100
AcDbLine
 10
4.0215179931
 20
7.6619771389
 30
0.0
 11
4.0215179931
 21
6.9181976114
 31
0.0
  0
LINE
  5
1BF
330
1F
100
AcDbEntity
  8
0
  6
HIDDEN
 62
     7
100
AcDbLine
 10
4.0215179931
 20
6.9181976114
 30
0.0
 11
4.0315179931
 21
6.9081976114
 31
0.0
  0
LINE
  5
1C0
330
1F
100
AcDbEntity
  8
0
  6
HIDDEN
 62
     7
100
AcDbLine
 10
4.2083683868
 20
6.9081976114
 30
0.0
 11
4.2183683868
 21
6.9181976114
 31
0.0
  0
LINE
  5
1C1
330
1F
100
AcDbEntity
  8
0
  6
HIDDEN
 62
     7
100
AcDbLine
 10
2.6317542136
 20
7.6619771389
 30
0.0
 11
2.622607965
 21
7.6711233875
 31
0.0
  0
LINE
  5
1C2
330
1F
100
AcDbEntity
  8
0
  6
HIDDEN
 62
     7
100
AcDbLine
 10
2.4440498975
 20
7.6711232165
 30
0.0
 11
2.4349038199
 21
7.6619771389
 31
0.0
  0
LINE
  5
1C3
330
1F
100
AcDbEntity
  8
0
  6
HIDDEN
 62
     7
100
AcDbLine
 10
2.6317542136
 20
6.9181976114
 30
0.0
 11
2.6317542136
 21
7.6619771389
 31
0.0
  0
LINE
  5
1C4
330
1F
100
AcDbEntity
  8
0
  6
HIDDEN
 62
     7
100
AcDbLine
 10
2.4349038199
 20
7.6619771389
 30
0.0
 11
2.4349038199
 21
6.9181976114
 31
0.0
  0
LINE
  5
1C5
330
1F
100
AcDbEntity
  8
0
  6
HIDDEN
 62
     7
100
AcDbLine
 10
2.4349038199
 20
6.9181976114
 30
0.0
 11
2.4449038199
 21
6.9081976114
 31
0.0
  0
LINE
  5
1C6
330
1F
100
AcDbEntity
  8
0
  6
HIDDEN
 62
     7
100
AcDbLine
 10
2.6217542136
 20
6.9081976114
 30
0.0
 11
2.6317542136
 21
6.9181976114
 31
0.0
  0
LINE
  5
1C7
330
1F
100
AcDbEntity
  8
0
  6
CONTINUOUS
 62
     7
100
AcDbLine
 10
8.8701554932
 20
5.632284164
 30
0.0
 11
8.8807603711
 21
5.63840822
 31
0.0
  0
LINE
  5
1C8
330
1F
100
AcDbEntity
  8
0
  6
CONTINUOUS
 62
     7
100
AcDbLine
 10
9.5771473497
 20
6.8447165547
 30
0.0
 11
9.5771473497
 21
6.8569626764
 31
0.0
  0
LINE
  5
1C9
330
1F
100
AcDbEntity
  8
0
  6
CONTINUOUS
 62
     7
100
AcDbLine
 10
6.9770808432
 20
6.3868717482
 30
0.0
 11
8.3700812022
 21
5.5827097581
 31
0.0
  0
LINE
  5
1CA
330
1F
100
AcDbEntity
  8
0
  6
CONTINUOUS
 62
     7
100
AcDbLine
 10
9.3699999348
 20
7.3148074828
 30
0.0
 11
7.9769995758
 21
8.118969473
 31
0.0
  0
LINE
  5
1CB
330
1F
100
AcDbEntity
  8
0
  6
CONTINUOUS
 62
     7
100
AcDbLine
 10
7.4769252848
 20
8.0693950671
 30
0.0
 11
7.4663204069
 21
8.0632710111
 31
0.0
  0
LINE
  5
1CC
330
1F
100
AcDbEntity
  8
0
  6
CONTINUOUS
 62
     7
100
AcDbLine
 10
6.7699334283
 20
6.8569626764
 30
0.0
 11
6.7699334283
 21
6.8447165547
 31
0.0
  0
LINE
  5
1CD
330
1F
100
AcDbEntity
  8
0
  6
CONTINUOUS
 62
     7
100
AcDbLine
 10
8.9015161452
 20
6.5512376856
 30
0.0
 11
8.9085860637
 21
6.5471549816
 31
0.0
  0
LINE
  5
1CE
330
1F
100
AcDbEntity
  8
0
  6
CONTINUOUS
 62
     7
100
AcDbLine
 10
7.6821960014
 20
8.0232172247
 30
0.0
 11
7.6751237846
 21
8.0273012557
 31
0.0
  0
LINE
  5
1CF
330
1F
100
AcDbEntity
  8
0
  6
CONTINUOUS
 62
     7
100
AcDbLine
 10
7.5500513524
 20
8.0273012557
 30
0.0
 11
7.5429791356
 21
8.0232172247
 31
0.0
  0
LINE
  5
1D0
330
1F
100
AcDbEntity
  8
0
  6
CONTINUOUS
 62
     7
100
AcDbLine
 10
7.7110127653
 20
7.9748012592
 30
0.0
 11
7.7110127653
 21
7.9830461896
 31
0.0
  0
LINE
  5
1D1
330
1F
100
AcDbEntity
  8
0
  6
CONTINUOUS
 62
     7
100
AcDbLine
 10
7.5141623716
 20
7.9830461896
 30
0.0
 11
7.5141623716
 21
7.9743246509
 31
0.0
  0
LINE
  5
1D2
330
1F
100
AcDbEntity
  8
0
  6
CONTINUOUS
 62
     7
100
AcDbLine
 10
8.8041016424
 20
7.3755548841
 30
0.0
 11
8.7970294256
 21
7.379638915
 31
0.0
  0
LINE
  5
1D3
330
1F
100
AcDbEntity
  8
0
  6
CONTINUOUS
 62
     7
100
AcDbLine
 10
8.6719569934
 20
7.379638915
 30
0.0
 11
8.6648847766
 21
7.3755548841
 31
0.0
  0
LINE
  5
1D4
330
1F
100
AcDbEntity
  8
0
  6
CONTINUOUS
 62
     7
100
AcDbLine
 10
8.8329184064
 20
7.3271389185
 30
0.0
 11
8.8329184064
 21
7.335383849
 31
0.0
  0
LINE
  5
1D5
330
1F
100
AcDbEntity
  8
0
  6
CONTINUOUS
 62
     7
100
AcDbLine
 10
8.6360680127
 20
7.335383849
 30
0.0
 11
8.6360680127
 21
7.3266623102
 31
0.0
  0
POLYLINE
  5
1D6
330
1F
100
AcDbEntity
  8
0
  6
CONTINUOUS
 62
     7
100
AcDb2dPolyline
 66
     1
 10
0.0
 20
0.0
 30
0.0
  0
VERTEX
  5
262
330
1D6
100
AcDbEntity
  8
0
  6
CONTINUOUS
 62
     7
100
AcDbVertex
100
AcDb2dVertex
 10
9.5771473497
 20
6.8447165547
 30
0.0
  0
VERTEX
  5
263
330
1D6
100
AcDbEntity
  8
0
  6
CONTINUOUS
 62
     7
100
AcDbVertex
100
AcDb2dVertex
 10
9.5763083847
 20
6.8836970028
 30
0.0
  0
VERTEX
  5
264
330
1D6
100
AcDbEntity
  8
0
  6
CONTINUOUS
 62
     7
100
AcDbVertex
100
AcDb2dVertex
 10
9.5737935109
 20
6.9216148952
 30
0.0
  0
VERTEX
  5
265
330
1D6
100
AcDbEntity
  8
0
  6
CONTINUOUS
 62
     7
100
AcDbVertex
100
AcDb2dVertex
 10
9.5696087869
 20
6.9583788845
 30
0.0
  0
VERTEX
  5
266
330
1D6
100
AcDbEntity
  8
0
  6
CONTINUOUS
 62
     7
100
AcDbVertex
100
AcDb2dVertex
 10
9.563764294
 20
6.9939004029
 30
0.0
  0
VERTEX
  5
267
330
1D6
100
AcDbEntity
  8
0
  6
CONTINUOUS
 62
     7
100
AcDbVertex
100
AcDb2dVertex
 10
9.5562741121
 20
7.028093876
 30
0.0
  0
VERTEX
  5
268
330
1D6
100
AcDbEntity
  8
0
  6
CONTINUOUS
 62
     7
100
AcDbVertex
100
AcDb2dVertex
 10
9.5471562858
 20
7.0608769288
 30
0.0
  0
VERTEX
  5
269
330
1D6
100
AcDbEntity
  8
0
  6
CONTINUOUS
 62
     7
100
AcDbVertex
100
AcDb2dVertex
 10
9.5364327806
 20
7.0921705839
 30
0.0
  0
VERTEX
  5
26A
330
1D6
100
AcDbEntity
  8
0
  6
CONTINUOUS
 62
     7
100
AcDbVertex
100
AcDb2dVertex
 10
9.5241294304
 20
7.1218994523
 30
0.0
  0
VERTEX
  5
26B
330
1D6
100
AcDbEntity
  8
0
  6
CONTINUOUS
 62
     7
100
AcDbVertex
100
AcDb2dVertex
 10
9.5102758751
 20
7.1499919145
 30
0.0
  0
VERTEX
  5
26C
330
1D6
100
AcDbEntity
  8
0
  6
CONTINUOUS
 62
     7
100
AcDbVertex
100
AcDb2dVertex
 10
9.4949054891
 20
7.1763802933
 30
0.0
  0
VERTEX
  5
26D
330
1D6
100
AcDbEntity
  8
0
  6
CONTINUOUS
 62
     7
100
AcDbVertex
100
AcDb2dVertex
 10
9.478055301
 20
7.2010010167
 30
0.0
  0
VERTEX
  5
26E
330
1D6
100
AcDbEntity
  8
0
  6
CONTINUOUS
 62
     7
100
AcDbVertex
100
AcDb2dVertex
 10
9.4597659044
 20
7.2237947713
 30
0.0
  0
VERTEX
  5
26F
330
1D6
100
AcDbEntity
  8
0
  6
CONTINUOUS
 62
     7
100
AcDbVertex
100
AcDb2dVertex
 10
9.44008136
 20
7.244706645
 30
0.0
  0
VERTEX
  5
270
330
1D6
100
AcDbEntity
  8
0
  6
CONTINUOUS
 62
     7
100
AcDbVertex
100
AcDb2dVertex
 10
9.4190490897
 20
7.2636862591
 30
0.0
  0
VERTEX
  5
271
330
1D6
100
AcDbEntity
  8
0
  6
CONTINUOUS
 62
     7
100
AcDbVertex
100
AcDb2dVertex
 10
9.396719762
 20
7.2806878902
 30
0.0
  0
VERTEX
  5
272
330
1D6
100
AcDbEntity
  8
0
  6
CONTINUOUS
 62
     7
100
AcDbVertex
100
AcDb2dVertex
 10
9.3731471702
 20
7.2956705798
 30
0.0
  0
VERTEX
  5
273
330
1D6
100
AcDbEntity
  8
0
  6
CONTINUOUS
 62
     7
100
AcDbVertex
100
AcDb2dVertex
 10
9.3483881028
 20
7.3085982334
 30
0.0
  0
VERTEX
  5
274
330
1D6
100
AcDbEntity
  8
0
  6
CONTINUOUS
 62
     7
100
AcDbVertex
100
AcDb2dVertex
 10
9.3225022065
 20
7.319439707
 30
0.0
  0
VERTEX
  5
275
330
1D6
100
AcDbEntity
  8
0
  6
CONTINUOUS
 62
     7
100
AcDbVertex
100
AcDb2dVertex
 10
9.2955518427
 20
7.3281688827
 30
0.0
  0
VERTEX
  5
276
330
1D6
100
AcDbEntity
  8
0
  6
CONTINUOUS
 62
     7
100
AcDbVertex
100
AcDb2dVertex
 10
9.2676019372
 20
7.334764731
 30
0.0
  0
VERTEX
  5
277
330
1D6
100
AcDbEntity
  8
0
  6
CONTINUOUS
 62
     7
100
AcDbVertex
100
AcDb2dVertex
 10
9.2387198238
 20
7.3392113619
 30
0.0
  0
VERTEX
  5
278
330
1D6
100
AcDbEntity
  8
0
  6
CONTINUOUS
 62
     7
100
AcDbVertex
100
AcDb2dVertex
 10
9.208975082
 20
7.3414980633
 30
0.0
  0
VERTEX
  5
279
330
1D6
100
AcDbEntity
  8
0
  6
CONTINUOUS
 62
     7
100
AcDbVertex
100
AcDb2dVertex
 10
9.1784393695
 20
7.3416193261
 30
0.0
  0
VERTEX
  5
27A
330
1D6
100
AcDbEntity
  8
0
  6
CONTINUOUS
 62
     7
100
AcDbVertex
100
AcDb2dVertex
 10
9.1471862495
 20
7.3395748583
 30
0.0
  0
VERTEX
  5
27B
330
1D6
100
AcDbEntity
  8
0
  6
CONTINUOUS
 62
     7
100
AcDbVertex
100
AcDb2dVertex
 10
9.1152910135
 20
7.3353695852
 30
0.0
  0
VERTEX
  5
27C
330
1D6
100
AcDbEntity
  8
0
  6
CONTINUOUS
 62
     7
100
AcDbVertex
100
AcDb2dVertex
 10
9.0828305
 20
7.3290136376
 30
0.0
  0
VERTEX
  5
27D
330
1D6
100
AcDbEntity
  8
0
  6
CONTINUOUS
 62
     7
100
AcDbVertex
100
AcDb2dVertex
 10
9.0498829091
 20
7.3205223276
 30
0.0
  0
VERTEX
  5
27E
330
1D6
100
AcDbEntity
  8
0
  6
CONTINUOUS
 62
     7
100
AcDbVertex
100
AcDb2dVertex
 10
9.0165276145
 20
7.3099161114
 30
0.0
  0
VERTEX
  5
27F
330
1D6
100
AcDbEntity
  8
0
  6
CONTINUOUS
 62
     7
100
AcDbVertex
100
AcDb2dVertex
 10
8.982844972
 20
7.2972205405
 30
0.0
  0
VERTEX
  5
280
330
1D6
100
AcDbEntity
  8
0
  6
CONTINUOUS
 62
     7
100
AcDbVertex
100
AcDb2dVertex
 10
8.948916126
 20
7.2824661995
 30
0.0
  0
VERTEX
  5
281
330
1D6
100
AcDbEntity
  8
0
  6
CONTINUOUS
 62
     7
100
AcDbVertex
100
AcDb2dVertex
 10
8.9148228142
 20
7.2656886329
 30
0.0
  0
VERTEX
  5
282
330
1D6
100
AcDbEntity
  8
0
  6
CONTINUOUS
 62
     7
100
AcDbVertex
100
AcDb2dVertex
 10
8.8806471702
 20
7.2469282593
 30
0.0
  0
VERTEX
  5
283
330
1D6
100
AcDbEntity
  8
0
  6
CONTINUOUS
 62
     7
100
AcDbVertex
100
AcDb2dVertex
 10
8.8464715262
 20
7.2262302742
 30
0.0
  0
VERTEX
  5
284
330
1D6
100
AcDbEntity
  8
0
  6
CONTINUOUS
 62
     7
100
AcDbVertex
100
AcDb2dVertex
 10
8.8123782144
 20
7.2036445408
 30
0.0
  0
VERTEX
  5
285
330
1D6
100
AcDbEntity
  8
0
  6
CONTINUOUS
 62
     7
100
AcDbVertex
100
AcDb2dVertex
 10
8.7784493684
 20
7.1792254701
 30
0.0
  0
VERTEX
  5
286
330
1D6
100
AcDbEntity
  8
0
  6
CONTINUOUS
 62
     7
100
AcDbVertex
100
AcDb2dVertex
 10
8.7447667259
 20
7.1530318898
 30
0.0
  0
VERTEX
  5
287
330
1D6
100
AcDbEntity
  8
0
  6
CONTINUOUS
 62
     7
100
AcDbVertex
100
AcDb2dVertex
 10
8.7114114313
 20
7.1251269025
 30
0.0
  0
VERTEX
  5
288
330
1D6
100
AcDbEntity
  8
0
  6
CONTINUOUS
 62
     7
100
AcDbVertex
100
AcDb2dVertex
 10
8.6784638404
 20
7.0955777338
 30
0.0
  0
VERTEX
  5
289
330
1D6
100
AcDbEntity
  8
0
  6
CONTINUOUS
 62
     7
100
AcDbVertex
100
AcDb2dVertex
 10
8.6460033268
 20
7.0644555702
 30
0.0
  0
VERTEX
  5
28A
330
1D6
100
AcDbEntity
  8
0
  6
CONTINUOUS
 62
     7
100
AcDbVertex
100
AcDb2dVertex
 10
8.6141080909
 20
7.0318353877
 30
0.0
  0
VERTEX
  5
28B
330
1D6
100
AcDbEntity
  8
0
  6
CONTINUOUS
 62
     7
100
AcDbVertex
100
AcDb2dVertex
 10
8.5828549709
 20
6.9977957713
 30
0.0
  0
VERTEX
  5
28C
330
1D6
100
AcDbEntity
  8
0
  6
CONTINUOUS
 62
     7
100
AcDbVertex
100
AcDb2dVertex
 10
8.5523192584
 20
6.9624187252
 30
0.0
  0
VERTEX
  5
28D
330
1D6
100
AcDbEntity
  8
0
  6
CONTINUOUS
 62
     7
100
AcDbVertex
100
AcDb2dVertex
 10
8.5225745166
 20
6.925789476
 30
0.0
  0
VERTEX
  5
28E
330
1D6
100
AcDbEntity
  8
0
  6
CONTINUOUS
 62
     7
100
AcDbVertex
100
AcDb2dVertex
 10
8.4936924032
 20
6.8879962667
 30
0.0
  0
VERTEX
  5
28F
330
1D6
100
AcDbEntity
  8
0
  6
CONTINUOUS
 62
     7
100
AcDbVertex
100
AcDb2dVertex
 10
8.4657424977
 20
6.8491301444
 30
0.0
  0
VERTEX
  5
290
330
1D6
100
AcDbEntity
  8
0
  6
CONTINUOUS
 62
     7
100
AcDbVertex
100
AcDb2dVertex
 10
8.4387921339
 20
6.8092847411
 30
0.0
  0
VERTEX
  5
291
330
1D6
100
AcDbEntity
  8
0
  6
CONTINUOUS
 62
     7
100
AcDbVertex
100
AcDb2dVertex
 10
8.4129062376
 20
6.7685560478
 30
0.0
  0
VERTEX
  5
292
330
1D6
100
AcDbEntity
  8
0
  6
CONTINUOUS
 62
     7
100
AcDbVertex
100
AcDb2dVertex
 10
8.3881471702
 20
6.7270421834
 30
0.0
  0
VERTEX
  5
293
330
1D6
100
AcDbEntity
  8
0
  6
CONTINUOUS
 62
     7
100
AcDbVertex
100
AcDb2dVertex
 10
8.3645745784
 20
6.6848431586
 30
0.0
  0
VERTEX
  5
294
330
1D6
100
AcDbEntity
  8
0
  6
CONTINUOUS
 62
     7
100
AcDbVertex
100
AcDb2dVertex
 10
8.3422452507
 20
6.6420606345
 30
0.0
  0
VERTEX
  5
295
330
1D6
100
AcDbEntity
  8
0
  6
CONTINUOUS
 62
     7
100
AcDbVertex
100
AcDb2dVertex
 10
8.3212129804
 20
6.5987976779
 30
0.0
  0
VERTEX
  5
296
330
1D6
100
AcDbEntity
  8
0
  6
CONTINUOUS
 62
     7
100
AcDbVertex
100
AcDb2dVertex
 10
8.301528436
 20
6.5551585131
 30
0.0
  0
VERTEX
  5
297
330
1D6
100
AcDbEntity
  8
0
  6
CONTINUOUS
 62
     7
100
AcDbVertex
100
AcDb2dVertex
 10
8.2832390394
 20
6.5112482707
 30
0.0
  0
VERTEX
  5
298
330
1D6
100
AcDbEntity
  8
0
  6
CONTINUOUS
 62
     7
100
AcDbVertex
100
AcDb2dVertex
 10
8.2663888513
 20
6.4671727342
 30
0.0
  0
VERTEX
  5
299
330
1D6
100
AcDbEntity
  8
0
  6
CONTINUOUS
 62
     7
100
AcDbVertex
100
AcDb2dVertex
 10
8.2510184653
 20
6.4230380855
 30
0.0
  0
VERTEX
  5
29A
330
1D6
100
AcDbEntity
  8
0
  6
CONTINUOUS
 62
     7
100
AcDbVertex
100
AcDb2dVertex
 10
8.23716491
 20
6.3789506488
 30
0.0
  0
VERTEX
  5
29B
330
1D6
100
AcDbEntity
  8
0
  6
CONTINUOUS
 62
     7
100
AcDbVertex
100
AcDb2dVertex
 10
8.2248615598
 20
6.3350166347
 30
0.0
  0
VERTEX
  5
29C
330
1D6
100
AcDbEntity
  8
0
  6
CONTINUOUS
 62
     7
100
AcDbVertex
100
AcDb2dVertex
 10
8.2141380546
 20
6.291341884
 30
0.0
  0
VERTEX
  5
29D
330
1D6
100
AcDbEntity
  8
0
  6
CONTINUOUS
 62
     7
100
AcDbVertex
100
AcDb2dVertex
 10
8.2050202282
 20
6.248031613
 30
0.0
  0
VERTEX
  5
29E
330
1D6
100
AcDbEntity
  8
0
  6
CONTINUOUS
 62
     7
100
AcDbVertex
100
AcDb2dVertex
 10
8.1975300464
 20
6.2051901599
 30
0.0
  0
VERTEX
  5
29F
330
1D6
100
AcDbEntity
  8
0
  6
CONTINUOUS
 62
     7
100
AcDbVertex
100
AcDb2dVertex
 10
8.1916855535
 20
6.1629207336
 30
0.0
  0
VERTEX
  5
2A0
330
1D6
100
AcDbEntity
  8
0
  6
CONTINUOUS
 62
     7
100
AcDbVertex
100
AcDb2dVertex
 10
8.1875008295
 20
6.1213251649
 30
0.0
  0
VERTEX
  5
2A1
330
1D6
100
AcDbEntity
  8
0
  6
CONTINUOUS
 62
     7
100
AcDbVertex
100
AcDb2dVertex
 10
8.1849859557
 20
6.080503661
 30
0.0
  0
VERTEX
  5
2A2
330
1D6
100
AcDbEntity
  8
0
  6
CONTINUOUS
 62
     7
100
AcDbVertex
100
AcDb2dVertex
 10
8.1841469907
 20
6.0405545646
 30
0.0
  0
VERTEX
  5
2A3
330
1D6
100
AcDbEntity
  8
0
  6
CONTINUOUS
 62
     7
100
AcDbVertex
100
AcDb2dVertex
 10
8.1849859557
 20
6.0015741165
 30
0.0
  0
VERTEX
  5
2A4
330
1D6
100
AcDbEntity
  8
0
  6
CONTINUOUS
 62
     7
100
AcDbVertex
100
AcDb2dVertex
 10
8.1875008295
 20
5.963656224
 30
0.0
  0
VERTEX
  5
2A5
330
1D6
100
AcDbEntity
  8
0
  6
CONTINUOUS
 62
     7
100
AcDbVertex
100
AcDb2dVertex
 10
8.1916855535
 20
5.9268922348
 30
0.0
  0
VERTEX
  5
2A6
330
1D6
100
AcDbEntity
  8
0
  6
CONTINUOUS
 62
     7
100
AcDbVertex
100
AcDb2dVertex
 10
8.1975300464
 20
5.8913707163
 30
0.0
  0
VERTEX
  5
2A7
330
1D6
100
AcDbEntity
  8
0
  6
CONTINUOUS
 62
     7
100
AcDbVertex
100
AcDb2dVertex
 10
8.2050202282
 20
5.8571772432
 30
0.0
  0
VERTEX
  5
2A8
330
1D6
100
AcDbEntity
  8
0
  6
CONTINUOUS
 62
     7
100
AcDbVertex
100
AcDb2dVertex
 10
8.2141380546
 20
5.8243941905
 30
0.0
  0
VERTEX
  5
2A9
330
1D6
100
AcDbEntity
  8
0
  6
CONTINUOUS
 62
     7
100
AcDbVertex
100
AcDb2dVertex
 10
8.2248615598
 20
5.7931005353
 30
0.0
  0
VERTEX
  5
2AA
330
1D6
100
AcDbEntity
  8
0
  6
CONTINUOUS
 62
     7
100
AcDbVertex
100
AcDb2dVertex
 10
8.23716491
 20
5.7633716669
 30
0.0
  0
VERTEX
  5
2AB
330
1D6
100
AcDbEntity
  8
0
  6
CONTINUOUS
 62
     7
100
AcDbVertex
100
AcDb2dVertex
 10
8.2510184653
 20
5.7352792047
 30
0.0
  0
VERTEX
  5
2AC
330
1D6
100
AcDbEntity
  8
0
  6
CONTINUOUS
 62
     7
100
AcDbVertex
100
AcDb2dVertex
 10
8.2663888513
 20
5.708890826
 30
0.0
  0
VERTEX
  5
2AD
330
1D6
100
AcDbEntity
  8
0
  6
CONTINUOUS
 62
     7
100
AcDbVertex
100
AcDb2dVertex
 10
8.2832390394
 20
5.6842701026
 30
0.0
  0
VERTEX
  5
2AE
330
1D6
100
AcDbEntity
  8
0
  6
CONTINUOUS
 62
     7
100
AcDbVertex
100
AcDb2dVertex
 10
8.301528436
 20
5.6614763479
 30
0.0
  0
VERTEX
  5
2AF
330
1D6
100
AcDbEntity
  8
0
  6
CONTINUOUS
 62
     7
100
AcDbVertex
100
AcDb2dVertex
 10
8.3212129804
 20
5.6405644743
 30
0.0
  0
VERTEX
  5
2B0
330
1D6
100
AcDbEntity
  8
0
  6
CONTINUOUS
 62
     7
100
AcDbVertex
100
AcDb2dVertex
 10
8.3422452507
 20
5.6215848601
 30
0.0
  0
VERTEX
  5
2B1
330
1D6
100
AcDbEntity
  8
0
  6
CONTINUOUS
 62
     7
100
AcDbVertex
100
AcDb2dVertex
 10
8.3645745784
 20
5.604583229
 30
0.0
  0
VERTEX
  5
2B2
330
1D6
100
AcDbEntity
  8
0
  6
CONTINUOUS
 62
     7
100
AcDbVertex
100
AcDb2dVertex
 10
8.3881471702
 20
5.5896005394
 30
0.0
  0
VERTEX
  5
2B3
330
1D6
100
AcDbEntity
  8
0
  6
CONTINUOUS
 62
     7
100
AcDbVertex
100
AcDb2dVertex
 10
8.4129062376
 20
5.5766728858
 30
0.0
  0
VERTEX
  5
2B4
330
1D6
100
AcDbEntity
  8
0
  6
CONTINUOUS
 62
     7
100
AcDbVertex
100
AcDb2dVertex
 10
8.4387921339
 20
5.5658314122
 30
0.0
  0
VERTEX
  5
2B5
330
1D6
100
AcDbEntity
  8
0
  6
CONTINUOUS
 62
     7
100
AcDbVertex
100
AcDb2dVertex
 10
8.4657424977
 20
5.5571022366
 30
0.0
  0
VERTEX
  5
2B6
330
1D6
100
AcDbEntity
  8
0
  6
CONTINUOUS
 62
     7
100
AcDbVertex
100
AcDb2dVertex
 10
8.4936924032
 20
5.5505063883
 30
0.0
  0
VERTEX
  5
2B7
330
1D6
100
AcDbEntity
  8
0
  6
CONTINUOUS
 62
     7
100
AcDbVertex
100
AcDb2dVertex
 10
8.5225745166
 20
5.5460597573
 30
0.0
  0
VERTEX
  5
2B8
330
1D6
100
AcDbEntity
  8
0
  6
CONTINUOUS
 62
     7
100
AcDbVertex
100
AcDb2dVertex
 10
8.5523192584
 20
5.543773056
 30
0.0
  0
VERTEX
  5
2B9
330
1D6
100
AcDbEntity
  8
0
  6
CONTINUOUS
 62
     7
100
AcDbVertex
100
AcDb2dVertex
 10
8.5828549709
 20
5.5436517931
 30
0.0
  0
VERTEX
  5
2BA
330
1D6
100
AcDbEntity
  8
0
  6
CONTINUOUS
 62
     7
100
AcDbVertex
100
AcDb2dVertex
 10
8.6141080909
 20
5.5456962609
 30
0.0
  0
VERTEX
  5
2BB
330
1D6
100
AcDbEntity
  8
0
  6
CONTINUOUS
 62
     7
100
AcDbVertex
100
AcDb2dVertex
 10
8.6460033268
 20
5.5499015341
 30
0.0
  0
VERTEX
  5
2BC
330
1D6
100
AcDbEntity
  8
0
  6
CONTINUOUS
 62
     7
100
AcDbVertex
100
AcDb2dVertex
 10
8.6784638404
 20
5.5562574817
 30
0.0
  0
VERTEX
  5
2BD
330
1D6
100
AcDbEntity
  8
0
  6
CONTINUOUS
 62
     7
100
AcDbVertex
100
AcDb2dVertex
 10
8.7114114313
 20
5.5647487917
 30
0.0
  0
VERTEX
  5
2BE
330
1D6
100
AcDbEntity
  8
0
  6
CONTINUOUS
 62
     7
100
AcDbVertex
100
AcDb2dVertex
 10
8.7447667259
 20
5.5753550078
 30
0.0
  0
VERTEX
  5
2BF
330
1D6
100
AcDbEntity
  8
0
  6
CONTINUOUS
 62
     7
100
AcDbVertex
100
AcDb2dVertex
 10
8.7784493684
 20
5.5880505788
 30
0.0
  0
VERTEX
  5
2C0
330
1D6
100
AcDbEntity
  8
0
  6
CONTINUOUS
 62
     7
100
AcDbVertex
100
AcDb2dVertex
 10
8.8123782144
 20
5.6028049198
 30
0.0
  0
VERTEX
  5
2C1
330
1D6
100
AcDbEntity
  8
0
  6
CONTINUOUS
 62
     7
100
AcDbVertex
100
AcDb2dVertex
 10
8.8464715262
 20
5.6195824864
 30
0.0
  0
VERTEX
  5
2C2
330
1D6
100
AcDbEntity
  8
0
  6
CONTINUOUS
 62
     7
100
AcDbVertex
100
AcDb2dVertex
 10
8.8806471702
 20
5.6383428599
 30
0.0
  0
VERTEX
  5
2C3
330
1D6
100
AcDbEntity
  8
0
  6
CONTINUOUS
 62
     7
100
AcDbVertex
100
AcDb2dVertex
 10
8.9148228142
 20
5.659040845
 30
0.0
  0
VERTEX
  5
2C4
330
1D6
100
AcDbEntity
  8
0
  6
CONTINUOUS
 62
     7
100
AcDbVertex
100
AcDb2dVertex
 10
8.948916126
 20
5.6816265784
 30
0.0
  0
VERTEX
  5
2C5
330
1D6
100
AcDbEntity
  8
0
  6
CONTINUOUS
 62
     7
100
AcDbVertex
100
AcDb2dVertex
 10
8.982844972
 20
5.7060456491
 30
0.0
  0
VERTEX
  5
2C6
330
1D6
100
AcDbEntity
  8
0
  6
CONTINUOUS
 62
     7
100
AcDbVertex
100
AcDb2dVertex
 10
9.0165276145
 20
5.7322392294
 30
0.0
  0
VERTEX
  5
2C7
330
1D6
100
AcDbEntity
  8
0
  6
CONTINUOUS
 62
     7
100
AcDbVertex
100
AcDb2dVertex
 10
9.0498829091
 20
5.7601442167
 30
0.0
  0
VERTEX
  5
2C8
330
1D6
100
AcDbEntity
  8
0
  6
CONTINUOUS
 62
     7
100
AcDbVertex
100
AcDb2dVertex
 10
9.0828305
 20
5.7896933854
 30
0.0
  0
VERTEX
  5
2C9
330
1D6
100
AcDbEntity
  8
0
  6
CONTINUOUS
 62
     7
100
AcDbVertex
100
AcDb2dVertex
 10
9.1152910135
 20
5.820815549
 30
0.0
  0
VERTEX
  5
2CA
330
1D6
100
AcDbEntity
  8
0
  6
CONTINUOUS
 62
     7
100
AcDbVertex
100
AcDb2dVertex
 10
9.1471862495
 20
5.8534357315
 30
0.0
  0
VERTEX
  5
2CB
330
1D6
100
AcDbEntity
  8
0
  6
CONTINUOUS
 62
     7
100
AcDbVertex
100
AcDb2dVertex
 10
9.1784393695
 20
5.887475348
 30
0.0
  0
VERTEX
  5
2CC
330
1D6
100
AcDbEntity
  8
0
  6
CONTINUOUS
 62
     7
100
AcDbVertex
100
AcDb2dVertex
 10
9.208975082
 20
5.922852394
 30
0.0
  0
VERTEX
  5
2CD
330
1D6
100
AcDbEntity
  8
0
  6
CONTINUOUS
 62
     7
100
AcDbVertex
100
AcDb2dVertex
 10
9.2387198238
 20
5.9594816432
 30
0.0
  0
VERTEX
  5
2CE
330
1D6
100
AcDbEntity
  8
0
  6
CONTINUOUS
 62
     7
100
AcDbVertex
100
AcDb2dVertex
 10
9.2676019372
 20
5.9972748525
 30
0.0
  0
VERTEX
  5
2CF
330
1D6
100
AcDbEntity
  8
0
  6
CONTINUOUS
 62
     7
100
AcDbVertex
100
AcDb2dVertex
 10
9.2955518427
 20
6.0361409748
 30
0.0
  0
VERTEX
  5
2D0
330
1D6
100
AcDbEntity
  8
0
  6
CONTINUOUS
 62
     7
100
AcDbVertex
100
AcDb2dVertex
 10
9.3225022065
 20
6.0759863782
 30
0.0
  0
VERTEX
  5
2D1
330
1D6
100
AcDbEntity
  8
0
  6
CONTINUOUS
 62
     7
100
AcDbVertex
100
AcDb2dVertex
 10
9.3483881028
 20
6.1167150715
 30
0.0
  0
VERTEX
  5
2D2
330
1D6
100
AcDbEntity
  8
0
  6
CONTINUOUS
 62
     7
100
AcDbVertex
100
AcDb2dVertex
 10
9.3731471702
 20
6.1582289358
 30
0.0
  0
VERTEX
  5
2D3
330
1D6
100
AcDbEntity
  8
0
  6
CONTINUOUS
 62
     7
100
AcDbVertex
100
AcDb2dVertex
 10
9.396719762
 20
6.2004279606
 30
0.0
  0
VERTEX
  5
2D4
330
1D6
100
AcDbEntity
  8
0
  6
CONTINUOUS
 62
     7
100
AcDbVertex
100
AcDb2dVertex
 10
9.4190490897
 20
6.2432104847
 30
0.0
  0
VERTEX
  5
2D5
330
1D6
100
AcDbEntity
  8
0
  6
CONTINUOUS
 62
     7
100
AcDbVertex
100
AcDb2dVertex
 10
9.44008136
 20
6.2864734413
 30
0.0
  0
VERTEX
  5
2D6
330
1D6
100
AcDbEntity
  8
0
  6
CONTINUOUS
 62
     7
100
AcDbVertex
100
AcDb2dVertex
 10
9.4597659044
 20
6.3301126061
 30
0.0
  0
VERTEX
  5
2D7
330
1D6
100
AcDbEntity
  8
0
  6
CONTINUOUS
 62
     7
100
AcDbVertex
100
AcDb2dVertex
 10
9.478055301
 20
6.3740228486
 30
0.0
  0
VERTEX
  5
2D8
330
1D6
100
AcDbEntity
  8
0
  6
CONTINUOUS
 62
     7
100
AcDbVertex
100
AcDb2dVertex
 10
9.4949054891
 20
6.4180983851
 30
0.0
  0
VERTEX
  5
2D9
330
1D6
100
AcDbEntity
  8
0
  6
CONTINUOUS
 62
     7
100
AcDbVertex
100
AcDb2dVertex
 10
9.5102758751
 20
6.4622330338
 30
0.0
  0
VERTEX
  5
2DA
330
1D6
100
AcDbEntity
  8
0
  6
CONTINUOUS
 62
     7
100
AcDbVertex
100
AcDb2dVertex
 10
9.5241294304
 20
6.5063204704
 30
0.0
  0
VERTEX
  5
2DB
330
1D6
100
AcDbEntity
  8
0
  6
CONTINUOUS
 62
     7
100
AcDbVertex
100
AcDb2dVertex
 10
9.5364327806
 20
6.5502544846
 30
0.0
  0
VERTEX
  5
2DC
330
1D6
100
AcDbEntity
  8
0
  6
CONTINUOUS
 62
     7
100
AcDbVertex
100
AcDb2dVertex
 10
9.5471562858
 20
6.5939292353
 30
0.0
  0
VERTEX
  5
2DD
330
1D6
100
AcDbEntity
  8
0
  6
CONTINUOUS
 62
     7
100
AcDbVertex
100
AcDb2dVertex
 10
9.5562741121
 20
6.6372395063
 30
0.0
  0
VERTEX
  5
2DE
330
1D6
100
AcDbEntity
  8
0
  6
CONTINUOUS
 62
     7
100
AcDbVertex
100
AcDb2dVertex
 10
9.563764294
 20
6.6800809593
 30
0.0
  0
VERTEX
  5
2DF
330
1D6
100
AcDbEntity
  8
0
  6
CONTINUOUS
 62
     7
100
AcDbVertex
100
AcDb2dVertex
 10
9.5696087869
 20
6.7223503856
 30
0.0
  0
VERTEX
  5
2E0
330
1D6
100
AcDbEntity
  8
0
  6
CONTINUOUS
 62
     7
100
AcDbVertex
100
AcDb2dVertex
 10
9.5737935109
 20
6.7639459544
 30
0.0
  0
VERTEX
  5
2E1
330
1D6
100
AcDbEntity
  8
0
  6
CONTINUOUS
 62
     7
100
AcDbVertex
100
AcDb2dVertex
 10
9.5763083847
 20
6.8047674583
 30
0.0
  0
VERTEX
  5
2E2
330
1D6
100
AcDbEntity
  8
0
  6
CONTINUOUS
 62
     7
100
AcDbVertex
100
AcDb2dVertex
 10
9.5771473497
 20
6.8447165547
 30
0.0
  0
SEQEND
  5
2E3
330
1D6
100
AcDbEntity
  8
0
  6
CONTINUOUS
 62
     7
  0
POLYLINE
  5
1D7
330
1F
100
AcDbEntity
  8
0
  6
CONTINUOUS
 62
     7
100
AcDb2dPolyline
 66
     1
 10
0.0
 20
0.0
 30
0.0
  0
VERTEX
  5
2E4
330
1D7
100
AcDbEntity
  8
0
  6
CONTINUOUS
 62
     7
100
AcDbVertex
100
AcDb2dVertex
 10
8.8701554932
 20
5.632284164
 30
0.0
  0
VERTEX
  5
2E5
330
1D7
100
AcDbEntity
  8
0
  6
CONTINUOUS
 62
     7
100
AcDbVertex
100
AcDb2dVertex
 10
8.8442155983
 20
5.6178541272
 30
0.0
  0
VERTEX
  5
2E6
330
1D7
100
AcDbEntity
  8
0
  6
CONTINUOUS
 62
     7
100
AcDbVertex
100
AcDb2dVertex
 10
8.8098418566
 20
5.600430263
 30
0.0
  0
VERTEX
  5
2E7
330
1D7
100
AcDbEntity
  8
0
  6
CONTINUOUS
 62
     7
100
AcDbVertex
100
AcDb2dVertex
 10
8.7756108997
 20
5.58501854
 30
0.0
  0
VERTEX
  5
2E8
330
1D7
100
AcDbEntity
  8
0
  6
CONTINUOUS
 62
     7
100
AcDbVertex
100
AcDb2dVertex
 10
8.7416039194
 20
5.5716555131
 30
0.0
  0
VERTEX
  5
2E9
330
1D7
100
AcDbEntity
  8
0
  6
CONTINUOUS
 62
     7
100
AcDbVertex
100
AcDb2dVertex
 10
8.7079015767
 20
5.5603728778
 30
0.0
  0
VERTEX
  5
2EA
330
1D7
100
AcDbEntity
  8
0
  6
CONTINUOUS
 62
     7
100
AcDbVertex
100
AcDb2dVertex
 10
8.6745838098
 20
5.5511973953
 30
0.0
  0
VERTEX
  5
2EB
330
1D7
100
AcDbEntity
  8
0
  6
CONTINUOUS
 62
     7
100
AcDbVertex
100
AcDb2dVertex
 10
8.6417296447
 20
5.5441508289
 30
0.0
  0
VERTEX
  5
2EC
330
1D7
100
AcDbEntity
  8
0
  6
CONTINUOUS
 62
     7
100
AcDbVertex
100
AcDb2dVertex
 10
8.609417008
 20
5.5392498922
 30
0.0
  0
VERTEX
  5
2ED
330
1D7
100
AcDbEntity
  8
0
  6
CONTINUOUS
 62
     7
100
AcDbVertex
100
AcDb2dVertex
 10
8.5777225415
 20
5.5365062098
 30
0.0
  0
VERTEX
  5
2EE
330
1D7
100
AcDbEntity
  8
0
  6
CONTINUOUS
 62
     7
100
AcDbVertex
100
AcDb2dVertex
 10
8.546721421
 20
5.5359262893
 30
0.0
  0
VERTEX
  5
2EF
330
1D7
100
AcDbEntity
  8
0
  6
CONTINUOUS
 62
     7
100
AcDbVertex
100
AcDb2dVertex
 10
8.5164871779
 20
5.5375115062
 30
0.0
  0
VERTEX
  5
2F0
330
1D7
100
AcDbEntity
  8
0
  6
CONTINUOUS
 62
     7
100
AcDbVertex
100
AcDb2dVertex
 10
8.4870915243
 20
5.5412581006
 30
0.0
  0
VERTEX
  5
2F1
330
1D7
100
AcDbEntity
  8
0
  6
CONTINUOUS
 62
     7
100
AcDbVertex
100
AcDb2dVertex
 10
8.4586041836
 20
5.547157186
 30
0.0
  0
VERTEX
  5
2F2
330
1D7
100
AcDbEntity
  8
0
  6
CONTINUOUS
 62
     7
100
AcDbVertex
100
AcDb2dVertex
 10
8.4310927245
 20
5.5551947703
 30
0.0
  0
VERTEX
  5
2F3
330
1D7
100
AcDbEntity
  8
0
  6
CONTINUOUS
 62
     7
100
AcDbVertex
100
AcDb2dVertex
 10
8.4046224012
 20
5.5653517894
 30
0.0
  0
VERTEX
  5
2F4
330
1D7
100
AcDbEntity
  8
0
  6
CONTINUOUS
 62
     7
100
AcDbVertex
100
AcDb2dVertex
 10
8.3792559984
 20
5.5776041519
 30
0.0
  0
VERTEX
  5
2F5
330
1D7
100
AcDbEntity
  8
0
  6
CONTINUOUS
 62
     7
100
AcDbVertex
100
AcDb2dVertex
 10
8.3550536823
 20
5.5919227966
 30
0.0
  0
VERTEX
  5
2F6
330
1D7
100
AcDbEntity
  8
0
  6
CONTINUOUS
 62
     7
100
AcDbVertex
100
AcDb2dVertex
 10
8.3320728583
 20
5.6082737611
 30
0.0
  0
VERTEX
  5
2F7
330
1D7
100
AcDbEntity
  8
0
  6
CONTINUOUS
 62
     7
100
AcDbVertex
100
AcDb2dVertex
 10
8.3103680342
 20
5.6266182629
 30
0.0
  0
VERTEX
  5
2F8
330
1D7
100
AcDbEntity
  8
0
  6
CONTINUOUS
 62
     7
100
AcDbVertex
100
AcDb2dVertex
 10
8.2899906916
 20
5.6469127908
 30
0.0
  0
VERTEX
  5
2F9
330
1D7
100
AcDbEntity
  8
0
  6
CONTINUOUS
 62
     7
100
AcDbVertex
100
AcDb2dVertex
 10
8.2709891631
 20
5.6691092084
 30
0.0
  0
VERTEX
  5
2FA
330
1D7
100
AcDbEntity
  8
0
  6
CONTINUOUS
 62
     7
100
AcDbVertex
100
AcDb2dVertex
 10
8.2534085184
 20
5.6931548683
 30
0.0
  0
VERTEX
  5
2FB
330
1D7
100
AcDbEntity
  8
0
  6
CONTINUOUS
 62
     7
100
AcDbVertex
100
AcDb2dVertex
 10
8.2372904569
 20
5.7189927368
 30
0.0
  0
VERTEX
  5
2FC
330
1D7
100
AcDbEntity
  8
0
  6
CONTINUOUS
 62
     7
100
AcDbVertex
100
AcDb2dVertex
 10
8.2226732086
 20
5.7465615293
 30
0.0
  0
VERTEX
  5
2FD
330
1D7
100
AcDbEntity
  8
0
  6
CONTINUOUS
 62
     7
100
AcDbVertex
100
AcDb2dVertex
 10
8.2095914442
 20
5.7757958558
 30
0.0
  0
VERTEX
  5
2FE
330
1D7
100
AcDbEntity
  8
0
  6
CONTINUOUS
 62
     7
100
AcDbVertex
100
AcDb2dVertex
 10
8.1980761922
 20
5.8066263756
 30
0.0
  0
VERTEX
  5
2FF
330
1D7
100
AcDbEntity
  8
0
  6
CONTINUOUS
 62
     7
100
AcDbVertex
100
AcDb2dVertex
 10
8.1881547655
 20
5.8389799621
 30
0.0
  0
VERTEX
  5
300
330
1D7
100
AcDbEntity
  8
0
  6
CONTINUOUS
 62
     7
100
AcDbVertex
100
AcDb2dVertex
 10
8.1798506965
 20
5.8727798763
 30
0.0
  0
VERTEX
  5
301
330
1D7
100
AcDbEntity
  8
0
  6
CONTINUOUS
 62
     7
100
AcDbVertex
100
AcDb2dVertex
 10
8.1731836816
 20
5.9079459484
 30
0.0
  0
VERTEX
  5
302
330
1D7
100
AcDbEntity
  8
0
  6
CONTINUOUS
 62
     7
100
AcDbVertex
100
AcDb2dVertex
 10
8.1681695343
 20
5.9443947684
 30
0.0
  0
VERTEX
  5
303
330
1D7
100
AcDbEntity
  8
0
  6
CONTINUOUS
 62
     7
100
AcDbVertex
100
AcDb2dVertex
 10
8.1648201476
 20
5.9820398837
 30
0.0
  0
VERTEX
  5
304
330
1D7
100
AcDbEntity
  8
0
  6
CONTINUOUS
 62
     7
100
AcDbVertex
100
AcDb2dVertex
 10
8.1631434658
 20
6.0207920043
 30
0.0
  0
VERTEX
  5
305
330
1D7
100
AcDbEntity
  8
0
  6
CONTINUOUS
 62
     7
100
AcDbVertex
100
AcDb2dVertex
 10
8.1631434658
 20
6.0605592144
 30
0.0
  0
VERTEX
  5
306
330
1D7
100
AcDbEntity
  8
0
  6
CONTINUOUS
 62
     7
100
AcDbVertex
100
AcDb2dVertex
 10
8.1648201476
 20
6.1012471907
 30
0.0
  0
VERTEX
  5
307
330
1D7
100
AcDbEntity
  8
0
  6
CONTINUOUS
 62
     7
100
AcDbVertex
100
AcDb2dVertex
 10
8.1681695343
 20
6.1427594256
 30
0.0
  0
VERTEX
  5
308
330
1D7
100
AcDbEntity
  8
0
  6
CONTINUOUS
 62
     7
100
AcDbVertex
100
AcDb2dVertex
 10
8.1731836816
 20
6.1849974569
 30
0.0
  0
VERTEX
  5
309
330
1D7
100
AcDbEntity
  8
0
  6
CONTINUOUS
 62
     7
100
AcDbVertex
100
AcDb2dVertex
 10
8.1798506965
 20
6.2278611005
 30
0.0
  0
VERTEX
  5
30A
330
1D7
100
AcDbEntity
  8
0
  6
CONTINUOUS
 62
     7
100
AcDbVertex
100
AcDb2dVertex
 10
8.1881547655
 20
6.2712486886
 30
0.0
  0
VERTEX
  5
30B
330
1D7
100
AcDbEntity
  8
0
  6
CONTINUOUS
 62
     7
100
AcDbVertex
100
AcDb2dVertex
 10
8.1980761922
 20
6.3150573106
 30
0.0
  0
VERTEX
  5
30C
330
1D7
100
AcDbEntity
  8
0
  6
CONTINUOUS
 62
     7
100
AcDbVertex
100
AcDb2dVertex
 10
8.2095914442
 20
6.3591830574
 30
0.0
  0
VERTEX
  5
30D
330
1D7
100
AcDbEntity
  8
0
  6
CONTINUOUS
 62
     7
100
AcDbVertex
100
AcDb2dVertex
 10
8.2226732086
 20
6.4035212675
 30
0.0
  0
VERTEX
  5
30E
330
1D7
100
AcDbEntity
  8
0
  6
CONTINUOUS
 62
     7
100
AcDbVertex
100
AcDb2dVertex
 10
8.2372904569
 20
6.4479667756
 30
0.0
  0
VERTEX
  5
30F
330
1D7
100
AcDbEntity
  8
0
  6
CONTINUOUS
 62
     7
100
AcDbVertex
100
AcDb2dVertex
 10
8.2534085184
 20
6.4924141619
 30
0.0
  0
VERTEX
  5
310
330
1D7
100
AcDbEntity
  8
0
  6
CONTINUOUS
 62
     7
100
AcDbVertex
100
AcDb2dVertex
 10
8.2709891631
 20
6.5367580021
 30
0.0
  0
VERTEX
  5
311
330
1D7
100
AcDbEntity
  8
0
  6
CONTINUOUS
 62
     7
100
AcDbVertex
100
AcDb2dVertex
 10
8.2899906916
 20
6.5808931174
 30
0.0
  0
VERTEX
  5
312
330
1D7
100
AcDbEntity
  8
0
  6
CONTINUOUS
 62
     7
100
AcDbVertex
100
AcDb2dVertex
 10
8.3103680342
 20
6.6247148244
 30
0.0
  0
VERTEX
  5
313
330
1D7
100
AcDbEntity
  8
0
  6
CONTINUOUS
 62
     7
100
AcDbVertex
100
AcDb2dVertex
 10
8.3320728583
 20
6.6681191826
 30
0.0
  0
VERTEX
  5
314
330
1D7
100
AcDbEntity
  8
0
  6
CONTINUOUS
 62
     7
100
AcDbVertex
100
AcDb2dVertex
 10
8.3550536823
 20
6.7110032418
 30
0.0
  0
VERTEX
  5
315
330
1D7
100
AcDbEntity
  8
0
  6
CONTINUOUS
 62
     7
100
AcDbVertex
100
AcDb2dVertex
 10
8.3792559984
 20
6.7532652858
 30
0.0
  0
VERTEX
  5
316
330
1D7
100
AcDbEntity
  8
0
  6
CONTINUOUS
 62
     7
100
AcDbVertex
100
AcDb2dVertex
 10
8.4046224012
 20
6.7948050736
 30
0.0
  0
VERTEX
  5
317
330
1D7
100
AcDbEntity
  8
0
  6
CONTINUOUS
 62
     7
100
AcDbVertex
100
AcDb2dVertex
 10
8.4310927245
 20
6.8355240775
 30
0.0
  0
VERTEX
  5
318
330
1D7
100
AcDbEntity
  8
0
  6
CONTINUOUS
 62
     7
100
AcDbVertex
100
AcDb2dVertex
 10
8.4586041836
 20
6.8753257164
 30
0.0
  0
VERTEX
  5
319
330
1D7
100
AcDbEntity
  8
0
  6
CONTINUOUS
 62
     7
100
AcDbVertex
100
AcDb2dVertex
 10
8.4870915243
 20
6.9141155852
 30
0.0
  0
VERTEX
  5
31A
330
1D7
100
AcDbEntity
  8
0
  6
CONTINUOUS
 62
     7
100
AcDbVertex
100
AcDb2dVertex
 10
8.5164871779
 20
6.9518016788
 30
0.0
  0
VERTEX
  5
31B
330
1D7
100
AcDbEntity
  8
0
  6
CONTINUOUS
 62
     7
100
AcDbVertex
100
AcDb2dVertex
 10
8.546721421
 20
6.9882946098
 30
0.0
  0
VERTEX
  5
31C
330
1D7
100
AcDbEntity
  8
0
  6
CONTINUOUS
 62
     7
100
AcDbVertex
100
AcDb2dVertex
 10
8.5777225415
 20
7.0235078211
 30
0.0
  0
VERTEX
  5
31D
330
1D7
100
AcDbEntity
  8
0
  6
CONTINUOUS
 62
     7
100
AcDbVertex
100
AcDb2dVertex
 10
8.609417008
 20
7.0573577908
 30
0.0
  0
VERTEX
  5
31E
330
1D7
100
AcDbEntity
  8
0
  6
CONTINUOUS
 62
     7
100
AcDbVertex
100
AcDb2dVertex
 10
8.6417296447
 20
7.0897642304
 30
0.0
  0
VERTEX
  5
31F
330
1D7
100
AcDbEntity
  8
0
  6
CONTINUOUS
 62
     7
100
AcDbVertex
100
AcDb2dVertex
 10
8.6745838098
 20
7.1206502756
 30
0.0
  0
VERTEX
  5
320
330
1D7
100
AcDbEntity
  8
0
  6
CONTINUOUS
 62
     7
100
AcDbVertex
100
AcDb2dVertex
 10
8.7079015767
 20
7.149942668
 30
0.0
  0
VERTEX
  5
321
330
1D7
100
AcDbEntity
  8
0
  6
CONTINUOUS
 62
     7
100
AcDbVertex
100
AcDb2dVertex
 10
8.7416039194
 20
7.1775719293
 30
0.0
  0
VERTEX
  5
322
330
1D7
100
AcDbEntity
  8
0
  6
CONTINUOUS
 62
     7
100
AcDbVertex
100
AcDb2dVertex
 10
8.7756108997
 20
7.203472526
 30
0.0
  0
VERTEX
  5
323
330
1D7
100
AcDbEntity
  8
0
  6
CONTINUOUS
 62
     7
100
AcDbVertex
100
AcDb2dVertex
 10
8.8098418566
 20
7.2275830247
 30
0.0
  0
VERTEX
  5
324
330
1D7
100
AcDbEntity
  8
0
  6
CONTINUOUS
 62
     7
100
AcDbVertex
100
AcDb2dVertex
 10
8.8442155983
 20
7.2498462379
 30
0.0
  0
VERTEX
  5
325
330
1D7
100
AcDbEntity
  8
0
  6
CONTINUOUS
 62
     7
100
AcDbVertex
100
AcDb2dVertex
 10
8.8786505939
 20
7.2702093598
 30
0.0
  0
VERTEX
  5
326
330
1D7
100
AcDbEntity
  8
0
  6
CONTINUOUS
 62
     7
100
AcDbVertex
100
AcDb2dVertex
 10
8.9130651676
 20
7.2886240913
 30
0.0
  0
VERTEX
  5
327
330
1D7
100
AcDbEntity
  8
0
  6
CONTINUOUS
 62
     7
100
AcDbVertex
100
AcDb2dVertex
 10
8.9473776916
 20
7.3050467547
 30
0.0
  0
VERTEX
  5
328
330
1D7
100
AcDbEntity
  8
0
  6
CONTINUOUS
 62
     7
100
AcDbVertex
100
AcDb2dVertex
 10
8.9815067805
 20
7.3194383972
 30
0.0
  0
VERTEX
  5
329
330
1D7
100
AcDbEntity
  8
0
  6
CONTINUOUS
 62
     7
100
AcDbVertex
100
AcDb2dVertex
 10
9.0153714839
 20
7.3317648835
 30
0.0
  0
VERTEX
  5
32A
330
1D7
100
AcDbEntity
  8
0
  6
CONTINUOUS
 62
     7
100
AcDbVertex
100
AcDb2dVertex
 10
9.0488914783
 20
7.3419969765
 30
0.0
  0
VERTEX
  5
32B
330
1D7
100
AcDbEntity
  8
0
  6
CONTINUOUS
 62
     7
100
AcDbVertex
100
AcDb2dVertex
 10
9.0819872582
 20
7.3501104068
 30
0.0
  0
VERTEX
  5
32C
330
1D7
100
AcDbEntity
  8
0
  6
CONTINUOUS
 62
     7
100
AcDbVertex
100
AcDb2dVertex
 10
9.114580324
 20
7.3560859303
 30
0.0
  0
VERTEX
  5
32D
330
1D7
100
AcDbEntity
  8
0
  6
CONTINUOUS
 62
     7
100
AcDbVertex
100
AcDb2dVertex
 10
9.1465933685
 20
7.3599093736
 30
0.0
  0
VERTEX
  5
32E
330
1D7
100
AcDbEntity
  8
0
  6
CONTINUOUS
 62
     7
100
AcDbVertex
100
AcDb2dVertex
 10
9.1779504603
 20
7.361571668
 30
0.0
  0
VERTEX
  5
32F
330
1D7
100
AcDbEntity
  8
0
  6
CONTINUOUS
 62
     7
100
AcDbVertex
100
AcDb2dVertex
 10
9.2085772238
 20
7.3610688707
 30
0.0
  0
VERTEX
  5
330
330
1D7
100
AcDbEntity
  8
0
  6
CONTINUOUS
 62
     7
100
AcDbVertex
100
AcDb2dVertex
 10
9.2384010158
 20
7.3584021743
 30
0.0
  0
VERTEX
  5
331
330
1D7
100
AcDbEntity
  8
0
  6
CONTINUOUS
 62
     7
100
AcDbVertex
100
AcDb2dVertex
 10
9.2673510975
 20
7.3535779038
 30
0.0
  0
VERTEX
  5
332
330
1D7
100
AcDbEntity
  8
0
  6
CONTINUOUS
 62
     7
100
AcDbVertex
100
AcDb2dVertex
 10
9.2953588026
 20
7.346607502
 30
0.0
  0
VERTEX
  5
333
330
1D7
100
AcDbEntity
  8
0
  6
CONTINUOUS
 62
     7
100
AcDbVertex
100
AcDb2dVertex
 10
9.3223576998
 20
7.3375075019
 30
0.0
  0
VERTEX
  5
334
330
1D7
100
AcDbEntity
  8
0
  6
CONTINUOUS
 62
     7
100
AcDbVertex
100
AcDb2dVertex
 10
9.3482837507
 20
7.3262994876
 30
0.0
  0
VERTEX
  5
335
330
1D7
100
AcDbEntity
  8
0
  6
CONTINUOUS
 62
     7
100
AcDbVertex
100
AcDb2dVertex
 10
9.3730754616
 20
7.3130100433
 30
0.0
  0
VERTEX
  5
336
330
1D7
100
AcDbEntity
  8
0
  6
CONTINUOUS
 62
     7
100
AcDbVertex
100
AcDb2dVertex
 10
9.3966740293
 20
7.2976706901
 30
0.0
  0
VERTEX
  5
337
330
1D7
100
AcDbEntity
  8
0
  6
CONTINUOUS
 62
     7
100
AcDbVertex
100
AcDb2dVertex
 10
9.4190234807
 20
7.2803178113
 30
0.0
  0
VERTEX
  5
338
330
1D7
100
AcDbEntity
  8
0
  6
CONTINUOUS
 62
     7
100
AcDbVertex
100
AcDb2dVertex
 10
9.4400708052
 20
7.2609925659
 30
0.0
  0
VERTEX
  5
339
330
1D7
100
AcDbEntity
  8
0
  6
CONTINUOUS
 62
     7
100
AcDbVertex
100
AcDb2dVertex
 10
9.459766081
 20
7.2397407914
 30
0.0
  0
VERTEX
  5
33A
330
1D7
100
AcDbEntity
  8
0
  6
CONTINUOUS
 62
     7
100
AcDbVertex
100
AcDb2dVertex
 10
9.478062593
 20
7.2166128945
 30
0.0
  0
VERTEX
  5
33B
330
1D7
100
AcDbEntity
  8
0
  6
CONTINUOUS
 62
     7
100
AcDbVertex
100
AcDb2dVertex
 10
9.494916944
 20
7.1916637321
 30
0.0
  0
VERTEX
  5
33C
330
1D7
100
AcDbEntity
  8
0
  6
CONTINUOUS
 62
     7
100
AcDbVertex
100
AcDb2dVertex
 10
9.5102891572
 20
7.1649524809
 30
0.0
  0
VERTEX
  5
33D
330
1D7
100
AcDbEntity
  8
0
  6
CONTINUOUS
 62
     7
100
AcDbVertex
100
AcDb2dVertex
 10
9.5241427715
 20
7.136542497
 30
0.0
  0
VERTEX
  5
33E
330
1D7
100
AcDbEntity
  8
0
  6
CONTINUOUS
 62
     7
100
AcDbVertex
100
AcDb2dVertex
 10
9.5364449277
 20
7.1065011657
 30
0.0
  0
VERTEX
  5
33F
330
1D7
100
AcDbEntity
  8
0
  6
CONTINUOUS
 62
     7
100
AcDbVertex
100
AcDb2dVertex
 10
9.5471664463
 20
7.0748997418
 30
0.0
  0
VERTEX
  5
340
330
1D7
100
AcDbEntity
  8
0
  6
CONTINUOUS
 62
     7
100
AcDbVertex
100
AcDb2dVertex
 10
9.5562818972
 20
7.0418131803
 30
0.0
  0
VERTEX
  5
341
330
1D7
100
AcDbEntity
  8
0
  6
CONTINUOUS
 62
     7
100
AcDbVertex
100
AcDb2dVertex
 10
9.5637696595
 20
7.0073199589
 30
0.0
  0
VERTEX
  5
342
330
1D7
100
AcDbEntity
  8
0
  6
CONTINUOUS
 62
     7
100
AcDbVertex
100
AcDb2dVertex
 10
9.569611973
 20
6.9715018917
 30
0.0
  0
VERTEX
  5
343
330
1D7
100
AcDbEntity
  8
0
  6
CONTINUOUS
 62
     7
100
AcDbVertex
100
AcDb2dVertex
 10
9.5737949804
 20
6.9344439352
 30
0.0
  0
VERTEX
  5
344
330
1D7
100
AcDbEntity
  8
0
  6
CONTINUOUS
 62
     7
100
AcDbVertex
100
AcDb2dVertex
 10
9.5763087601
 20
6.8962339869
 30
0.0
  0
VERTEX
  5
345
330
1D7
100
AcDbEntity
  8
0
  6
CONTINUOUS
 62
     7
100
AcDbVertex
100
AcDb2dVertex
 10
9.5771473497
 20
6.8569626764
 30
0.0
  0
VERTEX
  5
346
330
1D7
100
AcDbEntity
  8
0
  6
CONTINUOUS
 62
     7
100
AcDbVertex
100
AcDb2dVertex
 10
9.5771473497
 20
6.8569626764
 30
0.0
  0
SEQEND
  5
347
330
1D7
100
AcDbEntity
  8
0
  6
CONTINUOUS
 62
     7
  0
POLYLINE
  5
1D8
330
1F
100
AcDbEntity
  8
0
  6
CONTINUOUS
 62
     7
100
AcDb2dPolyline
 66
     1
 10
0.0
 20
0.0
 30
0.0
  0
VERTEX
  5
348
330
1D8
100
AcDbEntity
  8
0
  6
CONTINUOUS
 62
     7
100
AcDbVertex
100
AcDb2dVertex
 10
7.9769995758
 20
8.118969473
 30
0.0
  0
VERTEX
  5
349
330
1D8
100
AcDbEntity
  8
0
  6
CONTINUOUS
 62
     7
100
AcDbVertex
100
AcDb2dVertex
 10
7.9552833917
 20
8.1304614777
 30
0.0
  0
VERTEX
  5
34A
330
1D8
100
AcDbEntity
  8
0
  6
CONTINUOUS
 62
     7
100
AcDbVertex
100
AcDb2dVertex
 10
7.9293573408
 20
8.141669492
 30
0.0
  0
VERTEX
  5
34B
330
1D8
100
AcDbEntity
  8
0
  6
CONTINUOUS
 62
     7
100
AcDbVertex
100
AcDb2dVertex
 10
7.9023584436
 20
8.1507694922
 30
0.0
  0
VERTEX
  5
34C
330
1D8
100
AcDbEntity
  8
0
  6
CONTINUOUS
 62
     7
100
AcDbVertex
100
AcDb2dVertex
 10
7.8743507386
 20
8.157739894
 30
0.0
  0
VERTEX
  5
34D
330
1D8
100
AcDbEntity
  8
0
  6
CONTINUOUS
 62
     7
100
AcDbVertex
100
AcDb2dVertex
 10
7.8454006569
 20
8.1625641644
 30
0.0
  0
VERTEX
  5
34E
330
1D8
100
AcDbEntity
  8
0
  6
CONTINUOUS
 62
     7
100
AcDbVertex
100
AcDb2dVertex
 10
7.8155768649
 20
8.1652308608
 30
0.0
  0
VERTEX
  5
34F
330
1D8
100
AcDbEntity
  8
0
  6
CONTINUOUS
 62
     7
100
AcDbVertex
100
AcDb2dVertex
 10
7.7849501013
 20
8.1657336581
 30
0.0
  0
VERTEX
  5
350
330
1D8
100
AcDbEntity
  8
0
  6
CONTINUOUS
 62
     7
100
AcDbVertex
100
AcDb2dVertex
 10
7.7535930095
 20
8.1640713637
 30
0.0
  0
VERTEX
  5
351
330
1D8
100
AcDbEntity
  8
0
  6
CONTINUOUS
 62
     7
100
AcDbVertex
100
AcDb2dVertex
 10
7.7215799651
 20
8.1602479204
 30
0.0
  0
VERTEX
  5
352
330
1D8
100
AcDbEntity
  8
0
  6
CONTINUOUS
 62
     7
100
AcDbVertex
100
AcDb2dVertex
 10
7.6889868993
 20
8.154272397
 30
0.0
  0
VERTEX
  5
353
330
1D8
100
AcDbEntity
  8
0
  6
CONTINUOUS
 62
     7
100
AcDbVertex
100
AcDb2dVertex
 10
7.6558911194
 20
8.1461589667
 30
0.0
  0
VERTEX
  5
354
330
1D8
100
AcDbEntity
  8
0
  6
CONTINUOUS
 62
     7
100
AcDbVertex
100
AcDb2dVertex
 10
7.6223711249
 20
8.1359268737
 30
0.0
  0
VERTEX
  5
355
330
1D8
100
AcDbEntity
  8
0
  6
CONTINUOUS
 62
     7
100
AcDbVertex
100
AcDb2dVertex
 10
7.5885064215
 20
8.1236003873
 30
0.0
  0
VERTEX
  5
356
330
1D8
100
AcDbEntity
  8
0
  6
CONTINUOUS
 62
     7
100
AcDbVertex
100
AcDb2dVertex
 10
7.5543773326
 20
8.1092087448
 30
0.0
  0
VERTEX
  5
357
330
1D8
100
AcDbEntity
  8
0
  6
CONTINUOUS
 62
     7
100
AcDbVertex
100
AcDb2dVertex
 10
7.5200648086
 20
8.0927860814
 30
0.0
  0
VERTEX
  5
358
330
1D8
100
AcDbEntity
  8
0
  6
CONTINUOUS
 62
     7
100
AcDbVertex
100
AcDb2dVertex
 10
7.485650235
 20
8.0743713499
 30
0.0
  0
VERTEX
  5
359
330
1D8
100
AcDbEntity
  8
0
  6
CONTINUOUS
 62
     7
100
AcDbVertex
100
AcDb2dVertex
 10
7.4512152394
 20
8.054008228
 30
0.0
  0
VERTEX
  5
35A
330
1D8
100
AcDbEntity
  8
0
  6
CONTINUOUS
 62
     7
100
AcDbVertex
100
AcDb2dVertex
 10
7.4168414977
 20
8.0317450148
 30
0.0
  0
VERTEX
  5
35B
330
1D8
100
AcDbEntity
  8
0
  6
CONTINUOUS
 62
     7
100
AcDbVertex
100
AcDb2dVertex
 10
7.3826105407
 20
8.0076345161
 30
0.0
  0
VERTEX
  5
35C
330
1D8
100
AcDbEntity
  8
0
  6
CONTINUOUS
 62
     7
100
AcDbVertex
100
AcDb2dVertex
 10
7.3486035605
 20
7.9817339195
 30
0.0
  0
VERTEX
  5
35D
330
1D8
100
AcDbEntity
  8
0
  6
CONTINUOUS
 62
     7
100
AcDbVertex
100
AcDb2dVertex
 10
7.3149012178
 20
7.9541046582
 30
0.0
  0
VERTEX
  5
35E
330
1D8
100
AcDbEntity
  8
0
  6
CONTINUOUS
 62
     7
100
AcDbVertex
100
AcDb2dVertex
 10
7.2815834509
 20
7.9248122658
 30
0.0
  0
VERTEX
  5
35F
330
1D8
100
AcDbEntity
  8
0
  6
CONTINUOUS
 62
     7
100
AcDbVertex
100
AcDb2dVertex
 10
7.2487292858
 20
7.8939262206
 30
0.0
  0
VERTEX
  5
360
330
1D8
100
AcDbEntity
  8
0
  6
CONTINUOUS
 62
     7
100
AcDbVertex
100
AcDb2dVertex
 10
7.216416649
 20
7.8615197809
 30
0.0
  0
VERTEX
  5
361
330
1D8
100
AcDbEntity
  8
0
  6
CONTINUOUS
 62
     7
100
AcDbVertex
100
AcDb2dVertex
 10
7.1847221825
 20
7.8276698113
 30
0.0
  0
VERTEX
  5
362
330
1D8
100
AcDbEntity
  8
0
  6
CONTINUOUS
 62
     7
100
AcDbVertex
100
AcDb2dVertex
 10
7.1537210621
 20
7.7924566
 30
0.0
  0
VERTEX
  5
363
330
1D8
100
AcDbEntity
  8
0
  6
CONTINUOUS
 62
     7
100
AcDbVertex
100
AcDb2dVertex
 10
7.1234868189
 20
7.755963669
 30
0.0
  0
VERTEX
  5
364
330
1D8
100
AcDbEntity
  8
0
  6
CONTINUOUS
 62
     7
100
AcDbVertex
100
AcDb2dVertex
 10
7.0940911654
 20
7.7182775754
 30
0.0
  0
VERTEX
  5
365
330
1D8
100
AcDbEntity
  8
0
  6
CONTINUOUS
 62
     7
100
AcDbVertex
100
AcDb2dVertex
 10
7.0656038246
 20
7.6794877065
 30
0.0
  0
VERTEX
  5
366
330
1D8
100
AcDbEntity
  8
0
  6
CONTINUOUS
 62
     7
100
AcDbVertex
100
AcDb2dVertex
 10
7.0380923656
 20
7.6396860676
 30
0.0
  0
VERTEX
  5
367
330
1D8
100
AcDbEntity
  8
0
  6
CONTINUOUS
 62
     7
100
AcDbVertex
100
AcDb2dVertex
 10
7.0116220423
 20
7.5989670638
 30
0.0
  0
VERTEX
  5
368
330
1D8
100
AcDbEntity
  8
0
  6
CONTINUOUS
 62
     7
100
AcDbVertex
100
AcDb2dVertex
 10
6.9862556394
 20
7.557427276
 30
0.0
  0
VERTEX
  5
369
330
1D8
100
AcDbEntity
  8
0
  6
CONTINUOUS
 62
     7
100
AcDbVertex
100
AcDb2dVertex
 10
6.9620533234
 20
7.515165232
 30
0.0
  0
VERTEX
  5
36A
330
1D8
100
AcDbEntity
  8
0
  6
CONTINUOUS
 62
     7
100
AcDbVertex
100
AcDb2dVertex
 10
6.9390724994
 20
7.4722811728
 30
0.0
  0
VERTEX
  5
36B
330
1D8
100
AcDbEntity
  8
0
  6
CONTINUOUS
 62
     7
100
AcDbVertex
100
AcDb2dVertex
 10
6.9173676753
 20
7.4288768145
 30
0.0
  0
VERTEX
  5
36C
330
1D8
100
AcDbEntity
  8
0
  6
CONTINUOUS
 62
     7
100
AcDbVertex
100
AcDb2dVertex
 10
6.8969903326
 20
7.3850551076
 30
0.0
  0
VERTEX
  5
36D
330
1D8
100
AcDbEntity
  8
0
  6
CONTINUOUS
 62
     7
100
AcDbVertex
100
AcDb2dVertex
 10
6.8779888042
 20
7.3409199922
 30
0.0
  0
VERTEX
  5
36E
330
1D8
100
AcDbEntity
  8
0
  6
CONTINUOUS
 62
     7
100
AcDbVertex
100
AcDb2dVertex
 10
6.8604081595
 20
7.2965761521
 30
0.0
  0
VERTEX
  5
36F
330
1D8
100
AcDbEntity
  8
0
  6
CONTINUOUS
 62
     7
100
AcDbVertex
100
AcDb2dVertex
 10
6.8442900979
 20
7.2521287658
 30
0.0
  0
VERTEX
  5
370
330
1D8
100
AcDbEntity
  8
0
  6
CONTINUOUS
 62
     7
100
AcDbVertex
100
AcDb2dVertex
 10
6.8296728497
 20
7.2076832576
 30
0.0
  0
VERTEX
  5
371
330
1D8
100
AcDbEntity
  8
0
  6
CONTINUOUS
 62
     7
100
AcDbVertex
100
AcDb2dVertex
 10
6.8165910853
 20
7.1633450475
 30
0.0
  0
VERTEX
  5
372
330
1D8
100
AcDbEntity
  8
0
  6
CONTINUOUS
 62
     7
100
AcDbVertex
100
AcDb2dVertex
 10
6.8050758333
 20
7.1192193007
 30
0.0
  0
VERTEX
  5
373
330
1D8
100
AcDbEntity
  8
0
  6
CONTINUOUS
 62
     7
100
AcDbVertex
100
AcDb2dVertex
 10
6.7951544065
 20
7.0754106787
 30
0.0
  0
VERTEX
  5
374
330
1D8
100
AcDbEntity
  8
0
  6
CONTINUOUS
 62
     7
100
AcDbVertex
100
AcDb2dVertex
 10
6.7868503376
 20
7.0320230906
 30
0.0
  0
VERTEX
  5
375
330
1D8
100
AcDbEntity
  8
0
  6
CONTINUOUS
 62
     7
100
AcDbVertex
100
AcDb2dVertex
 10
6.7801833227
 20
6.989159447
 30
0.0
  0
VERTEX
  5
376
330
1D8
100
AcDbEntity
  8
0
  6
CONTINUOUS
 62
     7
100
AcDbVertex
100
AcDb2dVertex
 10
6.7751691754
 20
6.9469214158
 30
0.0
  0
VERTEX
  5
377
330
1D8
100
AcDbEntity
  8
0
  6
CONTINUOUS
 62
     7
100
AcDbVertex
100
AcDb2dVertex
 10
6.7718197887
 20
6.9054091808
 30
0.0
  0
VERTEX
  5
378
330
1D8
100
AcDbEntity
  8
0
  6
CONTINUOUS
 62
     7
100
AcDbVertex
100
AcDb2dVertex
 10
6.7701431068
 20
6.8647212046
 30
0.0
  0
VERTEX
  5
379
330
1D8
100
AcDbEntity
  8
0
  6
CONTINUOUS
 62
     7
100
AcDbVertex
100
AcDb2dVertex
 10
6.7701431068
 20
6.8249539944
 30
0.0
  0
VERTEX
  5
37A
330
1D8
100
AcDbEntity
  8
0
  6
CONTINUOUS
 62
     7
100
AcDbVertex
100
AcDb2dVertex
 10
6.7718197887
 20
6.7862018738
 30
0.0
  0
VERTEX
  5
37B
330
1D8
100
AcDbEntity
  8
0
  6
CONTINUOUS
 62
     7
100
AcDbVertex
100
AcDb2dVertex
 10
6.7751691754
 20
6.7485567585
 30
0.0
  0
VERTEX
  5
37C
330
1D8
100
AcDbEntity
  8
0
  6
CONTINUOUS
 62
     7
100
AcDbVertex
100
AcDb2dVertex
 10
6.7801833227
 20
6.7121079385
 30
0.0
  0
VERTEX
  5
37D
330
1D8
100
AcDbEntity
  8
0
  6
CONTINUOUS
 62
     7
100
AcDbVertex
100
AcDb2dVertex
 10
6.7868503376
 20
6.6769418664
 30
0.0
  0
VERTEX
  5
37E
330
1D8
100
AcDbEntity
  8
0
  6
CONTINUOUS
 62
     7
100
AcDbVertex
100
AcDb2dVertex
 10
6.7951544065
 20
6.6431419523
 30
0.0
  0
VERTEX
  5
37F
330
1D8
100
AcDbEntity
  8
0
  6
CONTINUOUS
 62
     7
100
AcDbVertex
100
AcDb2dVertex
 10
6.8050758333
 20
6.6107883657
 30
0.0
  0
VERTEX
  5
380
330
1D8
100
AcDbEntity
  8
0
  6
CONTINUOUS
 62
     7
100
AcDbVertex
100
AcDb2dVertex
 10
6.8165910853
 20
6.5799578459
 30
0.0
  0
VERTEX
  5
381
330
1D8
100
AcDbEntity
  8
0
  6
CONTINUOUS
 62
     7
100
AcDbVertex
100
AcDb2dVertex
 10
6.8296728497
 20
6.5507235195
 30
0.0
  0
VERTEX
  5
382
330
1D8
100
AcDbEntity
  8
0
  6
CONTINUOUS
 62
     7
100
AcDbVertex
100
AcDb2dVertex
 10
6.8442900979
 20
6.5231547269
 30
0.0
  0
VERTEX
  5
383
330
1D8
100
AcDbEntity
  8
0
  6
CONTINUOUS
 62
     7
100
AcDbVertex
100
AcDb2dVertex
 10
6.8604081595
 20
6.4973168584
 30
0.0
  0
VERTEX
  5
384
330
1D8
100
AcDbEntity
  8
0
  6
CONTINUOUS
 62
     7
100
AcDbVertex
100
AcDb2dVertex
 10
6.8779888042
 20
6.4732711986
 30
0.0
  0
VERTEX
  5
385
330
1D8
100
AcDbEntity
  8
0
  6
CONTINUOUS
 62
     7
100
AcDbVertex
100
AcDb2dVertex
 10
6.8969903326
 20
6.451074781
 30
0.0
  0
VERTEX
  5
386
330
1D8
100
AcDbEntity
  8
0
  6
CONTINUOUS
 62
     7
100
AcDbVertex
100
AcDb2dVertex
 10
6.9173676753
 20
6.4307802531
 30
0.0
  0
VERTEX
  5
387
330
1D8
100
AcDbEntity
  8
0
  6
CONTINUOUS
 62
     7
100
AcDbVertex
100
AcDb2dVertex
 10
6.9390724994
 20
6.4124357513
 30
0.0
  0
VERTEX
  5
388
330
1D8
100
AcDbEntity
  8
0
  6
CONTINUOUS
 62
     7
100
AcDbVertex
100
AcDb2dVertex
 10
6.9620533234
 20
6.3960847867
 30
0.0
  0
VERTEX
  5
389
330
1D8
100
AcDbEntity
  8
0
  6
CONTINUOUS
 62
     7
100
AcDbVertex
100
AcDb2dVertex
 10
6.9770808432
 20
6.3868717482
 30
0.0
  0
SEQEND
  5
38A
330
1D8
100
AcDbEntity
  8
0
  6
CONTINUOUS
 62
     7
  0
SPLINE
  5
1D9
330
1F
100
AcDbEntity
  8
0
  6
CONTINUOUS
 62
     7
100
AcDbSpline
210
0.0
220
0.0
230
1.0
 70
     8
 71
     3
 72
    39
 73
    35
 74
     0
 42
0.00000001
 43
0.00000001
 40
-0.0943715545702496
 40
-0.0628388545070703
 40
-0.0312426280098324
 40
0.0
 40
0.0312777913074263
 40
0.0628780783964981
 40
0.0944274328696026
 40
0.1255647190567449
 40
0.1565969894070049
 40
0.1879211724745146
 40
0.2191570055934347
 40
0.2500192378832817
 40
0.2808187495465915
 40
0.3120953853003104
 40
0.343355251422395
 40
0.3743841042460616
 40
0.4054925464476981
 40
0.4371236868911644
 40
0.4688239516154137
 40
0.5001557223546949
 40
0.5314141654495402
 40
0.5630239510495535
 40
0.5945090070806276
 40
0.625627423964138
 40
0.6566551255068651
 40
0.6879522171014352
 40
0.7192095930905252
 40
0.7500723837297176
 40
0.780898286161439
 40
0.8122034233346762
 40
0.8434827761403684
 40
0.8745412907282344
 40
0.9056284454297504
 40
0.9371611454929297
 40
0.9687573719901676
 40
1.0
 40
1.031277791307426
 40
1.062878078396498
 40
1.094427432869603
 10
7.519964894888937
 20
8.026643343021249
 30
0.0
 10
7.533985901151794
 20
8.036660715882515
 30
0.0
 10
7.551015484785344
 20
8.044540707369347
 30
0.0
 10
7.570514942844722
 20
8.049970355977234
 30
0.0
 10
7.591539782575563
 20
8.052946817745315
 30
0.0
 10
7.613335294197714
 20
8.053269344718533
 30
0.0
 10
7.635109731673372
 20
8.05111106752172
 30
0.0
 10
7.65605792693755
 20
8.046596141757766
 30
0.0
 10
7.675436796645426
 20
8.040167647693853
 30
0.0
 10
7.692288586873302
 20
8.032014193961915
 30
0.0
 10
7.706085481253199
 20
8.022489881040418
 30
0.0
 10
7.716193253981226
 20
8.011893771733169
 30
0.0
 10
7.722536718002409
 20
8.000651527910646
 30
0.0
 10
7.724527354061878
 20
7.989099734970893
 30
0.0
 10
7.722216513043458
 20
7.97751835237392
 30
0.0
 10
7.715555028765813
 20
7.966222265779005
 30
0.0
 10
7.705150785142988
 20
7.955502366207529
 30
0.0
 10
7.691122672968651
 20
7.945853624097716
 30
0.0
 10
7.674084154699165
 20
7.937561958629958
 30
0.0
 10
7.654588277048235
 20
7.931010689222588
 30
0.0
 10
7.633570404121803
 20
7.926340956265238
 30
0.0
 10
7.611792660917014
 20
7.924027022687055
 30
0.0
 10
7.590032229301592
 20
7.924179718045541
 30
0.0
 10
7.569086447163972
 20
7.926997622787584
 30
0.0
 10
7.549706811935323
 20
7.932257207177376
 30
0.0
 10
7.532855330139308
 20
7.940018483971526
 30
0.0
 10
7.519069118840922
 20
7.949961012643783
 30
0.0
 10
7.508969815142278
 20
7.961740940301041
 30
0.0
 10
7.502636011261265
 20
7.974692878860846
 30
0.0
 10
7.500651582186948
 20
7.988259345090349
 30
0.0
 10
7.502947983949404
 20
8.001840819914975
 30
0.0
 10
7.509584746271496
 20
8.014824538195507
 30
0.0
 10
7.519964894888937
 20
8.026643343021249
 30
0.0
 10
7.533985901151794
 20
8.036660715882515
 30
0.0
 10
7.551015484785344
 20
8.044540707369347
 30
0.0
  0
SPLINE
  5
1DA
330
1F
100
AcDbEntity
  8
0
  6
CONTINUOUS
 62
     7
100
AcDbSpline
210
0.0
220
0.0
230
1.0
 70
     8
 71
     3
 72
    39
 73
    35
 74
     0
 42
0.00000001
 43
0.00000001
 40
-0.0943715545702493
 40
-0.0628388545070703
 40
-0.0312426280098324
 40
0.0
 40
0.0312777913077207
 40
0.0628780783965094
 40
0.0944274328700057
 40
0.125564719056749
 40
0.156596989407174
 40
0.1879211724745171
 40
0.2191570055934952
 40
0.250019237883282
 40
0.2808187495465312
 40
0.3120953853003079
 40
0.3433552514224432
 40
0.3743841042460658
 40
0.4054925464478084
 40
0.4371236868911644
 40
0.4688239516155694
 40
0.5001557223547007
 40
0.5314141654495481
 40
0.5630239510495479
 40
0.5945090070804814
 40
0.6256274239641382
 40
0.6566551255069872
 40
0.6879522171014402
 40
0.7192095930906455
 40
0.7500723837297177
 40
0.7808982861615592
 40
0.8122034233346809
 40
0.8434827761404903
 40
0.8745412907282344
 40
0.9056284454297507
 40
0.9371611454929297
 40
0.9687573719901676
 40
1.0
 40
1.031277791307721
 40
1.062878078396509
 40
1.094427432870006
 10
8.641870535905383
 20
7.378981002342998
 30
0.0
 10
8.655891542168298
 20
7.388998375204285
 30
0.0
 10
8.672921125801814
 20
7.396878366691146
 30
0.0
 10
8.69242058386132
 20
7.402308015299008
 30
0.0
 10
8.713445423592113
 20
7.405284477067048
 30
0.0
 10
8.735240935214295
 20
7.405607004040278
 30
0.0
 10
8.757015372689859
 20
7.403448726843454
 30
0.0
 10
8.77796356795405
 20
7.398933801079503
 30
0.0
 10
8.797342437661879
 20
7.392505307015589
 30
0.0
 10
8.814194227889754
 20
7.384351853283665
 30
0.0
 10
8.827991122269632
 20
7.374827540362168
 30
0.0
 10
8.83809889499767
 20
7.364231431054916
 30
0.0
 10
8.844442359018897
 20
7.35298918723239
 30
0.0
 10
8.846432995078324
 20
7.341437394292623
 30
0.0
 10
8.844122154059882
 20
7.329856011695658
 30
0.0
 10
8.837460669782237
 20
7.318559925100723
 30
0.0
 10
8.827056426159443
 20
7.30784002552925
 30
0.0
 10
8.813028313985077
 20
7.298191283419444
 30
0.0
 10
8.795989795715577
 20
7.289899617951736
 30
0.0
 10
8.776493918064718
 20
7.28334834854434
 30
0.0
 10
8.755476045138291
 20
7.278678615586973
 30
0.0
 10
8.733698301933469
 20
7.276364682008809
 30
0.0
 10
8.711937870318007
 20
7.276517377367272
 30
0.0
 10
8.690992088180371
 20
7.279335282109343
 30
0.0
 10
8.671612452951761
 20
7.284594866499146
 30
0.0
 10
8.654760971155719
 20
7.292356143293295
 30
0.0
 10
8.640974759857334
 20
7.302298671965533
 30
0.0
 10
8.630875456158705
 20
7.31407859962282
 30
0.0
 10
8.624541652277735
 20
7.327030538182615
 30
0.0
 10
8.622557223203394
 20
7.340597004412113
 30
0.0
 10
8.624853624965855
 20
7.354178479236723
 30
0.0
 10
8.631490387287947
 20
7.367162197517255
 30
0.0
 10
8.641870535905383
 20
7.378981002342998
 30
0.0
 10
8.655891542168298
 20
7.388998375204285
 30
0.0
 10
8.672921125801814
 20
7.396878366691146
 30
0.0
  0
POLYLINE
  5
1DB
330
1F
100
AcDbEntity
  8
0
  6
CONTINUOUS
 62
     7
100
AcDb2dPolyline
 66
     1
 10
0.0
 20
0.0
 30
0.0
  0
VERTEX
  5
38B
330
1DB
100
AcDbEntity
  8
0
  6
CONTINUOUS
 62
     7
100
AcDbVertex
100
AcDb2dVertex
 10
9.0582868698
 20
6.5451847754
 30
0.0
  0
VERTEX
  5
38C
330
1DB
100
AcDbEntity
  8
0
  6
CONTINUOUS
 62
     7
100
AcDbVertex
100
AcDb2dVertex
 10
9.0574314861
 20
6.5245845436
 30
0.0
  0
VERTEX
  5
38D
330
1DB
100
AcDbEntity
  8
0
  6
CONTINUOUS
 62
     7
100
AcDbVertex
100
AcDb2dVertex
 10
9.0548735728
 20
6.5031950982
 30
0.0
  0
VERTEX
  5
38E
330
1DB
100
AcDbEntity
  8
0
  6
CONTINUOUS
 62
     7
100
AcDbVertex
100
AcDb2dVertex
 10
9.050637764
 20
6.4812224314
 30
0.0
  0
VERTEX
  5
38F
330
1DB
100
AcDbEntity
  8
0
  6
CONTINUOUS
 62
     7
100
AcDbVertex
100
AcDb2dVertex
 10
9.0447648528
 20
6.4588781519
 30
0.0
  0
VERTEX
  5
390
330
1DB
100
AcDbEntity
  8
0
  6
CONTINUOUS
 62
     7
100
AcDbVertex
100
AcDb2dVertex
 10
9.0373113987
 20
6.4363774474
 30
0.0
  0
VERTEX
  5
391
330
1DB
100
AcDbEntity
  8
0
  6
CONTINUOUS
 62
     7
100
AcDbVertex
100
AcDb2dVertex
 10
9.0283491824
 20
6.4139370119
 30
0.0
  0
VERTEX
  5
392
330
1DB
100
AcDbEntity
  8
0
  6
CONTINUOUS
 62
     7
100
AcDbVertex
100
AcDb2dVertex
 10
9.0179645149
 20
6.3917729591
 30
0.0
  0
VERTEX
  5
393
330
1DB
100
AcDbEntity
  8
0
  6
CONTINUOUS
 62
     7
100
AcDbVertex
100
AcDb2dVertex
 10
9.0062574064
 20
6.3700987409
 30
0.0
  0
VERTEX
  5
394
330
1DB
100
AcDbEntity
  8
0
  6
CONTINUOUS
 62
     7
100
AcDbVertex
100
AcDb2dVertex
 10
8.9933406026
 20
6.349123092
 30
0.0
  0
VERTEX
  5
395
330
1DB
100
AcDbEntity
  8
0
  6
CONTINUOUS
 62
     7
100
AcDbVertex
100
AcDb2dVertex
 10
8.9793384995
 20
6.3290480193
 30
0.0
  0
VERTEX
  5
396
330
1DB
100
AcDbEntity
  8
0
  6
CONTINUOUS
 62
     7
100
AcDbVertex
100
AcDb2dVertex
 10
8.9643859449
 20
6.3100668566
 30
0.0
  0
VERTEX
  5
397
330
1DB
100
AcDbEntity
  8
0
  6
CONTINUOUS
 62
     7
100
AcDbVertex
100
AcDb2dVertex
 10
8.9486269402
 20
6.2923624031
 30
0.0
  0
VERTEX
  5
398
330
1DB
100
AcDbEntity
  8
0
  6
CONTINUOUS
 62
     7
100
AcDbVertex
100
AcDb2dVertex
 10
8.9322132531
 20
6.2761051622
 30
0.0
  0
VERTEX
  5
399
330
1DB
100
AcDbEntity
  8
0
  6
CONTINUOUS
 62
     7
100
AcDbVertex
100
AcDb2dVertex
 10
8.9153029564
 20
6.2614517
 30
0.0
  0
VERTEX
  5
39A
330
1DB
100
AcDbEntity
  8
0
  6
CONTINUOUS
 62
     7
100
AcDbVertex
100
AcDb2dVertex
 10
8.8980589056
 20
6.2485431375
 30
0.0
  0
VERTEX
  5
39B
330
1DB
100
AcDbEntity
  8
0
  6
CONTINUOUS
 62
     7
100
AcDbVertex
100
AcDb2dVertex
 10
8.8806471702
 20
6.2375037911
 30
0.0
  0
VERTEX
  5
39C
330
1DB
100
AcDbEntity
  8
0
  6
CONTINUOUS
 62
     7
100
AcDbVertex
100
AcDb2dVertex
 10
8.8632354348
 20
6.2284399758
 30
0.0
  0
VERTEX
  5
39D
330
1DB
100
AcDbEntity
  8
0
  6
CONTINUOUS
 62
     7
100
AcDbVertex
100
AcDb2dVertex
 10
8.845991384
 20
6.221438981
 30
0.0
  0
VERTEX
  5
39E
330
1DB
100
AcDbEntity
  8
0
  6
CONTINUOUS
 62
     7
100
AcDbVertex
100
AcDb2dVertex
 10
8.8290810873
 20
6.2165682302
 30
0.0
  0
VERTEX
  5
39F
330
1DB
100
AcDbEntity
  8
0
  6
CONTINUOUS
 62
     7
100
AcDbVertex
100
AcDb2dVertex
 10
8.8126674002
 20
6.2138746313
 30
0.0
  0
VERTEX
  5
3A0
330
1DB
100
AcDbEntity
  8
0
  6
CONTINUOUS
 62
     7
100
AcDbVertex
100
AcDb2dVertex
 10
8.7969083954
 20
6.2133841253
 30
0.0
  0
VERTEX
  5
3A1
330
1DB
100
AcDbEntity
  8
0
  6
CONTINUOUS
 62
     7
100
AcDbVertex
100
AcDb2dVertex
 10
8.7819558409
 20
6.2151014359
 30
0.0
  0
VERTEX
  5
3A2
330
1DB
100
AcDbEntity
  8
0
  6
CONTINUOUS
 62
     7
100
AcDbVertex
100
AcDb2dVertex
 10
8.7679537377
 20
6.2190100244
 30
0.0
  0
VERTEX
  5
3A3
330
1DB
100
AcDbEntity
  8
0
  6
CONTINUOUS
 62
     7
100
AcDbVertex
100
AcDb2dVertex
 10
8.755036934
 20
6.2250722492
 30
0.0
  0
VERTEX
  5
3A4
330
1DB
100
AcDbEntity
  8
0
  6
CONTINUOUS
 62
     7
100
AcDbVertex
100
AcDb2dVertex
 10
8.7433298254
 20
6.2332297275
 30
0.0
  0
VERTEX
  5
3A5
330
1DB
100
AcDbEntity
  8
0
  6
CONTINUOUS
 62
     7
100
AcDbVertex
100
AcDb2dVertex
 10
8.732945158
 20
6.2434038985
 30
0.0
  0
VERTEX
  5
3A6
330
1DB
100
AcDbEntity
  8
0
  6
CONTINUOUS
 62
     7
100
AcDbVertex
100
AcDb2dVertex
 10
8.7239829417
 20
6.2554967793
 30
0.0
  0
VERTEX
  5
3A7
330
1DB
100
AcDbEntity
  8
0
  6
CONTINUOUS
 62
     7
100
AcDbVertex
100
AcDb2dVertex
 10
8.7165294875
 20
6.2693919088
 30
0.0
  0
VERTEX
  5
3A8
330
1DB
100
AcDbEntity
  8
0
  6
CONTINUOUS
 62
     7
100
AcDbVertex
100
AcDb2dVertex
 10
8.7106565764
 20
6.2849554694
 30
0.0
  0
VERTEX
  5
3A9
330
1DB
100
AcDbEntity
  8
0
  6
CONTINUOUS
 62
     7
100
AcDbVertex
100
AcDb2dVertex
 10
8.7064207676
 20
6.3020375755
 30
0.0
  0
VERTEX
  5
3AA
330
1DB
100
AcDbEntity
  8
0
  6
CONTINUOUS
 62
     7
100
AcDbVertex
100
AcDb2dVertex
 10
8.7038628543
 20
6.320473717
 30
0.0
  0
VERTEX
  5
3AB
330
1DB
100
AcDbEntity
  8
0
  6
CONTINUOUS
 62
     7
100
AcDbVertex
100
AcDb2dVertex
 10
8.7030074706
 20
6.3400863438
 30
0.0
  0
VERTEX
  5
3AC
330
1DB
100
AcDbEntity
  8
0
  6
CONTINUOUS
 62
     7
100
AcDbVertex
100
AcDb2dVertex
 10
8.7038628543
 20
6.3606865757
 30
0.0
  0
VERTEX
  5
3AD
330
1DB
100
AcDbEntity
  8
0
  6
CONTINUOUS
 62
     7
100
AcDbVertex
100
AcDb2dVertex
 10
8.7064207676
 20
6.382076021
 30
0.0
  0
VERTEX
  5
3AE
330
1DB
100
AcDbEntity
  8
0
  6
CONTINUOUS
 62
     7
100
AcDbVertex
100
AcDb2dVertex
 10
8.7106565764
 20
6.4040486879
 30
0.0
  0
VERTEX
  5
3AF
330
1DB
100
AcDbEntity
  8
0
  6
CONTINUOUS
 62
     7
100
AcDbVertex
100
AcDb2dVertex
 10
8.7165294875
 20
6.4263929674
 30
0.0
  0
VERTEX
  5
3B0
330
1DB
100
AcDbEntity
  8
0
  6
CONTINUOUS
 62
     7
100
AcDbVertex
100
AcDb2dVertex
 10
8.7239829417
 20
6.4488936719
 30
0.0
  0
VERTEX
  5
3B1
330
1DB
100
AcDbEntity
  8
0
  6
CONTINUOUS
 62
     7
100
AcDbVertex
100
AcDb2dVertex
 10
8.732945158
 20
6.4713341074
 30
0.0
  0
VERTEX
  5
3B2
330
1DB
100
AcDbEntity
  8
0
  6
CONTINUOUS
 62
     7
100
AcDbVertex
100
AcDb2dVertex
 10
8.7433298254
 20
6.4934981602
 30
0.0
  0
VERTEX
  5
3B3
330
1DB
100
AcDbEntity
  8
0
  6
CONTINUOUS
 62
     7
100
AcDbVertex
100
AcDb2dVertex
 10
8.755036934
 20
6.5151723783
 30
0.0
  0
VERTEX
  5
3B4
330
1DB
100
AcDbEntity
  8
0
  6
CONTINUOUS
 62
     7
100
AcDbVertex
100
AcDb2dVertex
 10
8.7679537377
 20
6.5361480272
 30
0.0
  0
VERTEX
  5
3B5
330
1DB
100
AcDbEntity
  8
0
  6
CONTINUOUS
 62
     7
100
AcDbVertex
100
AcDb2dVertex
 10
8.7819558409
 20
6.5562231
 30
0.0
  0
VERTEX
  5
3B6
330
1DB
100
AcDbEntity
  8
0
  6
CONTINUOUS
 62
     7
100
AcDbVertex
100
AcDb2dVertex
 10
8.7969083954
 20
6.5752042626
 30
0.0
  0
VERTEX
  5
3B7
330
1DB
100
AcDbEntity
  8
0
  6
CONTINUOUS
 62
     7
100
AcDbVertex
100
AcDb2dVertex
 10
8.8126674002
 20
6.5929087162
 30
0.0
  0
VERTEX
  5
3B8
330
1DB
100
AcDbEntity
  8
0
  6
CONTINUOUS
 62
     7
100
AcDbVertex
100
AcDb2dVertex
 10
8.8290810873
 20
6.6091659571
 30
0.0
  0
VERTEX
  5
3B9
330
1DB
100
AcDbEntity
  8
0
  6
CONTINUOUS
 62
     7
100
AcDbVertex
100
AcDb2dVertex
 10
8.845991384
 20
6.6238194192
 30
0.0
  0
VERTEX
  5
3BA
330
1DB
100
AcDbEntity
  8
0
  6
CONTINUOUS
 62
     7
100
AcDbVertex
100
AcDb2dVertex
 10
8.8632354348
 20
6.6367279817
 30
0.0
  0
VERTEX
  5
3BB
330
1DB
100
AcDbEntity
  8
0
  6
CONTINUOUS
 62
     7
100
AcDbVertex
100
AcDb2dVertex
 10
8.8806471702
 20
6.6477673282
 30
0.0
  0
VERTEX
  5
3BC
330
1DB
100
AcDbEntity
  8
0
  6
CONTINUOUS
 62
     7
100
AcDbVertex
100
AcDb2dVertex
 10
8.8980589056
 20
6.6568311435
 30
0.0
  0
VERTEX
  5
3BD
330
1DB
100
AcDbEntity
  8
0
  6
CONTINUOUS
 62
     7
100
AcDbVertex
100
AcDb2dVertex
 10
8.9153029564
 20
6.6638321383
 30
0.0
  0
VERTEX
  5
3BE
330
1DB
100
AcDbEntity
  8
0
  6
CONTINUOUS
 62
     7
100
AcDbVertex
100
AcDb2dVertex
 10
8.9322132531
 20
6.6687028891
 30
0.0
  0
VERTEX
  5
3BF
330
1DB
100
AcDbEntity
  8
0
  6
CONTINUOUS
 62
     7
100
AcDbVertex
100
AcDb2dVertex
 10
8.9486269402
 20
6.6713964879
 30
0.0
  0
VERTEX
  5
3C0
330
1DB
100
AcDbEntity
  8
0
  6
CONTINUOUS
 62
     7
100
AcDbVertex
100
AcDb2dVertex
 10
8.9643859449
 20
6.671886994
 30
0.0
  0
VERTEX
  5
3C1
330
1DB
100
AcDbEntity
  8
0
  6
CONTINUOUS
 62
     7
100
AcDbVertex
100
AcDb2dVertex
 10
8.9793384995
 20
6.6701696834
 30
0.0
  0
VERTEX
  5
3C2
330
1DB
100
AcDbEntity
  8
0
  6
CONTINUOUS
 62
     7
100
AcDbVertex
100
AcDb2dVertex
 10
8.9933406026
 20
6.6662610948
 30
0.0
  0
VERTEX
  5
3C3
330
1DB
100
AcDbEntity
  8
0
  6
CONTINUOUS
 62
     7
100
AcDbVertex
100
AcDb2dVertex
 10
9.0062574064
 20
6.6601988701
 30
0.0
  0
VERTEX
  5
3C4
330
1DB
100
AcDbEntity
  8
0
  6
CONTINUOUS
 62
     7
100
AcDbVertex
100
AcDb2dVertex
 10
9.0179645149
 20
6.6520413917
 30
0.0
  0
VERTEX
  5
3C5
330
1DB
100
AcDbEntity
  8
0
  6
CONTINUOUS
 62
     7
100
AcDbVertex
100
AcDb2dVertex
 10
9.0283491824
 20
6.6418672208
 30
0.0
  0
VERTEX
  5
3C6
330
1DB
100
AcDbEntity
  8
0
  6
CONTINUOUS
 62
     7
100
AcDbVertex
100
AcDb2dVertex
 10
9.0373113987
 20
6.62977434
 30
0.0
  0
VERTEX
  5
3C7
330
1DB
100
AcDbEntity
  8
0
  6
CONTINUOUS
 62
     7
100
AcDbVertex
100
AcDb2dVertex
 10
9.0447648528
 20
6.6158792104
 30
0.0
  0
VERTEX
  5
3C8
330
1DB
100
AcDbEntity
  8
0
  6
CONTINUOUS
 62
     7
100
AcDbVertex
100
AcDb2dVertex
 10
9.050637764
 20
6.6003156498
 30
0.0
  0
VERTEX
  5
3C9
330
1DB
100
AcDbEntity
  8
0
  6
CONTINUOUS
 62
     7
100
AcDbVertex
100
AcDb2dVertex
 10
9.0548735728
 20
6.5832335438
 30
0.0
  0
VERTEX
  5
3CA
330
1DB
100
AcDbEntity
  8
0
  6
CONTINUOUS
 62
     7
100
AcDbVertex
100
AcDb2dVertex
 10
9.0574314861
 20
6.5647974022
 30
0.0
  0
VERTEX
  5
3CB
330
1DB
100
AcDbEntity
  8
0
  6
CONTINUOUS
 62
     7
100
AcDbVertex
100
AcDb2dVertex
 10
9.0582868698
 20
6.5451847754
 30
0.0
  0
SEQEND
  5
3CC
330
1DB
100
AcDbEntity
  8
0
  6
CONTINUOUS
 62
     7
  0
SPLINE
  5
1DC
330
1F
100
AcDbEntity
  8
0
  6
CONTINUOUS
 62
     7
100
AcDbSpline
210
0.0
220
0.0
230
1.0
 70
     8
 71
     3
 72
    11
 73
     7
 74
     0
 42
0.00000001
 43
0.00000001
 40
0.0
 40
0.0
 40
0.0
 40
0.0
 40
0.3282401409820141
 40
0.6225160448590521
 40
0.8819150698739365
 40
1.0
 40
1.0
 40
1.0
 40
1.0
 10
8.636075459809362
 20
7.329874343147162
 30
0.0
 10
8.636574910001844
 20
7.325075378263536
 30
0.0
 10
8.637522130404253
 20
7.315974015371614
 30
0.0
 10
8.644718676798846
 20
7.30400348297359
 30
0.0
 10
8.652363024233491
 20
7.295583537231169
 30
0.0
 10
8.658215285310401
 20
7.291726612651226
 30
0.0
 10
8.660045995810636
 20
7.290520085424514
 30
0.0
  0
SPLINE
  5
1DD
330
1F
100
AcDbEntity
  8
0
  6
CONTINUOUS
 62
     7
100
AcDbSpline
210
0.0
220
0.0
230
1.0
 70
     8
 71
     3
 72
    10
 73
     6
 74
     0
 42
0.00000001
 43
0.00000001
 40
0.0
 40
0.0
 40
0.0
 40
0.0
 40
0.2263943592001376
 40
0.5922729749306704
 40
1.0
 40
1.0
 40
1.0
 40
1.0
 10
8.81701514002025
 20
7.301509247631195
 30
0.0
 10
8.81928114958994
 20
7.303476108920781
 30
0.0
 10
8.825209284168047
 20
7.308621638126431
 30
0.0
 10
8.83136004551652
 20
7.318240356402708
 30
0.0
 10
8.83237757467618
 20
7.325858613325168
 30
0.0
 10
8.83291386101551
 20
7.329873797635351
 30
0.0
  0
ARC
  5
1DE
330
1F
100
AcDbEntity
  8
0
  6
CONTINUOUS
 62
     7
100
AcDbCircle
 10
8.9359540065
 20
6.5619647843
 30
0.0
 40
0.1025024600562062
100
AcDbArc
 50
350.5780750237
 51
126.3256322185
  0
POLYLINE
  5
1DF
330
1F
100
AcDbEntity
  8
0
  6
CONTINUOUS
 62
     7
100
AcDb2dPolyline
 66
     1
 10
0.0
 20
0.0
 30
0.0
  0
VERTEX
  5
3CD
330
1DF
100
AcDbEntity
  8
0
  6
CONTINUOUS
 62
     7
100
AcDbVertex
100
AcDb2dVertex
 10
8.7030890818
 20
6.3463507748
 30
0.0
  0
VERTEX
  5
3CE
330
1DF
100
AcDbEntity
  8
0
  6
CONTINUOUS
 62
     7
100
AcDbVertex
100
AcDb2dVertex
 10
8.7038644634
 20
6.3333134811
 30
0.0
  0
VERTEX
  5
3CF
330
1DF
100
AcDbEntity
  8
0
  6
CONTINUOUS
 62
     7
100
AcDbVertex
100
AcDb2dVertex
 10
8.7064266479
 20
6.31547912
 30
0.0
  0
VERTEX
  5
3D0
330
1DF
100
AcDbEntity
  8
0
  6
CONTINUOUS
 62
     7
100
AcDbVertex
100
AcDb2dVertex
 10
8.7106677326
 20
6.299012387
 30
0.0
  0
VERTEX
  5
3D1
330
1DF
100
AcDbEntity
  8
0
  6
CONTINUOUS
 62
     7
100
AcDbVertex
100
AcDb2dVertex
 10
8.7165441983
 20
6.2840822529
 30
0.0
  0
VERTEX
  5
3D2
330
1DF
100
AcDbEntity
  8
0
  6
CONTINUOUS
 62
     7
100
AcDbVertex
100
AcDb2dVertex
 10
8.7239957445
 20
6.2708419212
 30
0.0
  0
VERTEX
  5
3D3
330
1DF
100
AcDbEntity
  8
0
  6
CONTINUOUS
 62
     7
100
AcDbVertex
100
AcDb2dVertex
 10
8.7329459082
 20
6.2594272556
 30
0.0
  0
VERTEX
  5
3D4
330
1DF
100
AcDbEntity
  8
0
  6
CONTINUOUS
 62
     7
100
AcDbVertex
100
AcDb2dVertex
 10
8.7433028487
 20
6.249955386
 30
0.0
  0
VERTEX
  5
3D5
330
1DF
100
AcDbEntity
  8
0
  6
CONTINUOUS
 62
     7
100
AcDbVertex
100
AcDb2dVertex
 10
8.7549602896
 20
6.2425235067
 30
0.0
  0
VERTEX
  5
3D6
330
1DF
100
AcDbEntity
  8
0
  6
CONTINUOUS
 62
     7
100
AcDbVertex
100
AcDb2dVertex
 10
8.7677986099
 20
6.2372078787
 30
0.0
  0
VERTEX
  5
3D7
330
1DF
100
AcDbEntity
  8
0
  6
CONTINUOUS
 62
     7
100
AcDbVertex
100
AcDb2dVertex
 10
8.7816860711
 20
6.2340630475
 30
0.0
  0
VERTEX
  5
3D8
330
1DF
100
AcDbEntity
  8
0
  6
CONTINUOUS
 62
     7
100
AcDbVertex
100
AcDb2dVertex
 10
8.796480169
 20
6.2331212835
 30
0.0
  0
VERTEX
  5
3D9
330
1DF
100
AcDbEntity
  8
0
  6
CONTINUOUS
 62
     7
100
AcDbVertex
100
AcDb2dVertex
 10
8.8120290962
 20
6.2343922503
 30
0.0
  0
VERTEX
  5
3DA
330
1DF
100
AcDbEntity
  8
0
  6
CONTINUOUS
 62
     7
100
AcDbVertex
100
AcDb2dVertex
 10
8.8281732995
 20
6.2378629062
 30
0.0
  0
VERTEX
  5
3DB
330
1DF
100
AcDbEntity
  8
0
  6
CONTINUOUS
 62
     7
100
AcDbVertex
100
AcDb2dVertex
 10
8.8447471177
 20
6.2434976375
 30
0.0
  0
VERTEX
  5
3DC
330
1DF
100
AcDbEntity
  8
0
  6
CONTINUOUS
 62
     7
100
AcDbVertex
100
AcDb2dVertex
 10
8.8615804809
 20
6.2512386243
 30
0.0
  0
VERTEX
  5
3DD
330
1DF
100
AcDbEntity
  8
0
  6
CONTINUOUS
 62
     7
100
AcDbVertex
100
AcDb2dVertex
 10
8.878500656
 20
6.2610064335
 30
0.0
  0
VERTEX
  5
3DE
330
1DF
100
AcDbEntity
  8
0
  6
CONTINUOUS
 62
     7
100
AcDbVertex
100
AcDb2dVertex
 10
8.8953340193
 20
6.2727008342
 30
0.0
  0
VERTEX
  5
3DF
330
1DF
100
AcDbEntity
  8
0
  6
CONTINUOUS
 62
     7
100
AcDbVertex
100
AcDb2dVertex
 10
8.9119078374
 20
6.2862018261
 30
0.0
  0
VERTEX
  5
3E0
330
1DF
100
AcDbEntity
  8
0
  6
CONTINUOUS
 62
     7
100
AcDbVertex
100
AcDb2dVertex
 10
8.9280520408
 20
6.3013708706
 30
0.0
  0
VERTEX
  5
3E1
330
1DF
100
AcDbEntity
  8
0
  6
CONTINUOUS
 62
     7
100
AcDbVertex
100
AcDb2dVertex
 10
8.9436009679
 20
6.3180523129
 30
0.0
  0
VERTEX
  5
3E2
330
1DF
100
AcDbEntity
  8
0
  6
CONTINUOUS
 62
     7
100
AcDbVertex
100
AcDb2dVertex
 10
8.9583950658
 20
6.3360749788
 30
0.0
  0
VERTEX
  5
3E3
330
1DF
100
AcDbEntity
  8
0
  6
CONTINUOUS
 62
     7
100
AcDbVertex
100
AcDb2dVertex
 10
8.972282527
 20
6.3552539313
 30
0.0
  0
VERTEX
  5
3E4
330
1DF
100
AcDbEntity
  8
0
  6
CONTINUOUS
 62
     7
100
AcDbVertex
100
AcDb2dVertex
 10
8.9851208473
 20
6.3753923685
 30
0.0
  0
VERTEX
  5
3E5
330
1DF
100
AcDbEntity
  8
0
  6
CONTINUOUS
 62
     7
100
AcDbVertex
100
AcDb2dVertex
 10
8.9967782883
 20
6.3962836426
 30
0.0
  0
VERTEX
  5
3E6
330
1DF
100
AcDbEntity
  8
0
  6
CONTINUOUS
 62
     7
100
AcDbVertex
100
AcDb2dVertex
 10
9.0071352287
 20
6.4177133811
 30
0.0
  0
VERTEX
  5
3E7
330
1DF
100
AcDbEntity
  8
0
  6
CONTINUOUS
 62
     7
100
AcDbVertex
100
AcDb2dVertex
 10
9.0160853924
 20
6.4394616858
 30
0.0
  0
VERTEX
  5
3E8
330
1DF
100
AcDbEntity
  8
0
  6
CONTINUOUS
 62
     7
100
AcDbVertex
100
AcDb2dVertex
 10
9.0235369386
 20
6.4613053896
 30
0.0
  0
VERTEX
  5
3E9
330
1DF
100
AcDbEntity
  8
0
  6
CONTINUOUS
 62
     7
100
AcDbVertex
100
AcDb2dVertex
 10
9.0294134043
 20
6.4830203465
 30
0.0
  0
VERTEX
  5
3EA
330
1DF
100
AcDbEntity
  8
0
  6
CONTINUOUS
 62
     7
100
AcDbVertex
100
AcDb2dVertex
 10
9.0336544891
 20
6.5043837318
 30
0.0
  0
VERTEX
  5
3EB
330
1DF
100
AcDbEntity
  8
0
  6
CONTINUOUS
 62
     7
100
AcDbVertex
100
AcDb2dVertex
 10
9.0362166736
 20
6.5251763281
 30
0.0
  0
VERTEX
  5
3EC
330
1DF
100
AcDbEntity
  8
0
  6
CONTINUOUS
 62
     7
100
AcDbVertex
100
AcDb2dVertex
 10
9.0370736664
 20
6.5451847754
 30
0.0
  0
SEQEND
  5
3ED
330
1DF
100
AcDbEntity
  8
0
  6
CONTINUOUS
 62
     7
  0
SPLINE
  5
1E0
330
1F
100
AcDbEntity
  8
0
  6
CONTINUOUS
 62
     7
100
AcDbSpline
210
0.0
220
0.0
230
1.0
 70
     8
 71
     3
 72
    30
 73
    26
 74
     0
 42
0.00000001
 43
0.00000001
 40
0.0
 40
0.0
 40
0.0
 40
0.0
 40
0.0345323304797053
 40
0.0806457948311701
 40
0.1280314870153347
 40
0.1750790799790803
 40
0.2236732938905667
 40
0.26774268177052
 40
0.3132290563630127
 40
0.3552058896256865
 40
0.3983337596181334
 40
0.4416708592321261
 40
0.4861060260796665
 40
0.532492721229268
 40
0.5801811894538149
 40
0.6270812072757371
 40
0.6755675146585309
 40
0.718874602144438
 40
0.7635684007037816
 40
0.8049853670055889
 40
0.8474780495489285
 40
0.8914159137662965
 40
0.9364609081368163
 40
0.9835093535628626
 40
1.0
 40
1.0
 40
1.0
 40
1.0
 10
8.92862850089089
 20
6.663001848590677
 30
0.0
 10
8.931617321600912
 20
6.660110351413612
 30
0.0
 10
8.938597326090015
 20
6.653357633457502
 30
0.0
 10
8.948481292793193
 20
6.641575767499885
 30
0.0
 10
8.957792102233178
 20
6.627998347916069
 30
0.0
 10
8.965098015045525
 20
6.613596756833411
 30
0.0
 10
8.969708709315569
 20
6.59928705743356
 30
0.0
 10
8.971534754559116
 20
6.5853097392782
 30
0.0
 10
8.970652186099711
 20
6.572546798479363
 30
0.0
 10
8.967291774622552
 20
6.560816809349173
 30
0.0
 10
8.961792290225732
 20
6.550498273633276
 30
0.0
 10
8.954203448043241
 20
6.541540136735298
 30
0.0
 10
8.944715202214732
 20
6.534234321727882
 30
0.0
 10
8.933503899847363
 20
6.528942360035032
 30
0.0
 10
8.921073419899104
 20
6.526188116974486
 30
0.0
 10
8.907950179228115
 20
6.526331453781072
 30
0.0
 10
8.895274648896873
 20
6.529525833416228
 30
0.0
 10
8.883395989458885
 20
6.535578332657386
 30
0.0
 10
8.87303664911822
 20
6.543807687563478
 30
0.0
 10
8.86387405222043
 20
6.554089965052333
 30
0.0
 10
8.855957082919849
 20
6.565998864227964
 30
0.0
 10
8.849056642038747
 20
6.579631730338789
 30
0.0
 10
8.843289444119575
 20
6.59477785858838
 30
0.0
 10
8.839437323132337
 20
6.607393625711118
 30
0.0
 10
8.837943163542173
 20
6.614806888120602
 30
0.0
 10
8.837555376169083
 20
6.616730892473761
 30
0.0
  0
ARC
  5
1E1
330
1F
100
AcDbEntity
  8
0
  6
CONTINUOUS
 62
     7
100
AcDbCircle
 10
8.2821528223
 20
6.7881389924
 30
0.0
 40
1.513784725406395
100
AcDbArc
 50
122.6112070127
 51
177.39416952
  0
SPLINE
  5
1E2
330
1F
100
AcDbEntity
  8
0
  6
CONTINUOUS
 62
     7
100
AcDbSpline
210
0.0
220
0.0
230
1.0
 70
     8
 71
     3
 72
    11
 73
     7
 74
     0
 42
0.00000001
 43
0.00000001
 40
0.0
 40
0.0
 40
0.0
 40
0.0
 40
0.3282401409835798
 40
0.6225160448611469
 40
0.8819150698755217
 40
0.9999999999999999
 40
0.9999999999999999
 40
0.9999999999999999
 40
0.9999999999999999
 10
7.514169818792912
 20
7.977536683825415
 30
0.0
 10
7.514669268985399
 20
7.972737718941767
 30
0.0
 10
7.515616489387815
 20
7.96363635604982
 30
0.0
 10
7.522813035782448
 20
7.951665823651779
 30
0.0
 10
7.530457383217093
 20
7.943245877909384
 30
0.0
 10
7.536309644293971
 20
7.939388953329463
 30
0.0
 10
7.538140354794182
 20
7.938182426102768
 30
0.0
  0
SPLINE
  5
1E3
330
1F
100
AcDbEntity
  8
0
  6
CONTINUOUS
 62
     7
100
AcDbSpline
210
0.0
220
0.0
230
1.0
 70
     8
 71
     3
 72
    10
 73
     6
 74
     0
 42
0.00000001
 43
0.00000001
 40
0.0
 40
0.0
 40
0.0
 40
0.0
 40
0.226394359200822
 40
0.5922729749314021
 40
0.9999999999999999
 40
0.9999999999999999
 40
0.9999999999999999
 40
0.9999999999999999
 10
7.695109499003838
 20
7.949171588309482
 30
0.0
 10
7.697375508573531
 20
7.951138449599073
 30
0.0
 10
7.70330364315163
 20
7.956283978804727
 30
0.0
 10
7.709454404500079
 20
7.965902697080993
 30
0.0
 10
7.710471933659733
 20
7.973520954003433
 30
0.0
 10
7.71100821999906
 20
7.977536138313604
 30
0.0
  0
ARC
  5
1E4
330
1F
100
AcDbEntity
  8
0
  6
CONTINUOUS
 62
     7
100
AcDbCircle
 10
8.8434755855
 20
6.5842081432
 30
0.0
 40
0.1206174207302777
100
AcDbArc
 50
1.487425239
 51
25.106920825
  0
POLYLINE
  5
1E5
330
1F
100
AcDbEntity
  8
0
  6
CONTINUOUS
 62
     7
100
AcDb2dPolyline
 66
     1
 10
0.0
 20
0.0
 30
0.0
  0
VERTEX
  5
3EE
330
1E5
100
AcDbEntity
  8
0
  6
CONTINUOUS
 62
     7
100
AcDbVertex
100
AcDb2dVertex
 10
8.8455810917
 20
6.6234877395
 30
0.0
  0
VERTEX
  5
3EF
330
1E5
100
AcDbEntity
  8
0
  6
CONTINUOUS
 62
     7
100
AcDbVertex
100
AcDb2dVertex
 10
8.8465362821
 20
6.6208149402
 30
0.0
  0
VERTEX
  5
3F0
330
1E5
100
AcDbEntity
  8
0
  6
CONTINUOUS
 62
     7
100
AcDbVertex
100
AcDb2dVertex
 10
8.8521844635
 20
6.6075711737
 30
0.0
  0
VERTEX
  5
3F1
330
1E5
100
AcDbEntity
  8
0
  6
CONTINUOUS
 62
     7
100
AcDbVertex
100
AcDb2dVertex
 10
8.8591785617
 20
6.5947601202
 30
0.0
  0
VERTEX
  5
3F2
330
1E5
100
AcDbEntity
  8
0
  6
CONTINUOUS
 62
     7
100
AcDbVertex
100
AcDb2dVertex
 10
8.8673277961
 20
6.5827312318
 30
0.0
  0
VERTEX
  5
3F3
330
1E5
100
AcDbEntity
  8
0
  6
CONTINUOUS
 62
     7
100
AcDbVertex
100
AcDb2dVertex
 10
8.8764098767
 20
6.5718126251
 30
0.0
  0
VERTEX
  5
3F4
330
1E5
100
AcDbEntity
  8
0
  6
CONTINUOUS
 62
     7
100
AcDbVertex
100
AcDb2dVertex
 10
8.886177068
 20
6.5623021313
 30
0.0
  0
VERTEX
  5
3F5
330
1E5
100
AcDbEntity
  8
0
  6
CONTINUOUS
 62
     7
100
AcDbVertex
100
AcDb2dVertex
 10
8.8963629466
 20
6.554459172
 30
0.0
  0
VERTEX
  5
3F6
330
1E5
100
AcDbEntity
  8
0
  6
CONTINUOUS
 62
     7
100
AcDbVertex
100
AcDb2dVertex
 10
8.9066896682
 20
6.5484976825
 30
0.0
  0
VERTEX
  5
3F7
330
1E5
100
AcDbEntity
  8
0
  6
CONTINUOUS
 62
     7
100
AcDbVertex
100
AcDb2dVertex
 10
8.9168755468
 20
6.5445802767
 30
0.0
  0
VERTEX
  5
3F8
330
1E5
100
AcDbEntity
  8
0
  6
CONTINUOUS
 62
     7
100
AcDbVertex
100
AcDb2dVertex
 10
8.9266427382
 20
6.5428138114
 30
0.0
  0
VERTEX
  5
3F9
330
1E5
100
AcDbEntity
  8
0
  6
CONTINUOUS
 62
     7
100
AcDbVertex
100
AcDb2dVertex
 10
8.9357248188
 20
6.543246471
 30
0.0
  0
VERTEX
  5
3FA
330
1E5
100
AcDbEntity
  8
0
  6
CONTINUOUS
 62
     7
100
AcDbVertex
100
AcDb2dVertex
 10
8.9438740531
 20
6.5458664538
 30
0.0
  0
VERTEX
  5
3FB
330
1E5
100
AcDbEntity
  8
0
  6
CONTINUOUS
 62
     7
100
AcDbVertex
100
AcDb2dVertex
 10
8.9508681514
 20
6.5506022933
 30
0.0
  0
VERTEX
  5
3FC
330
1E5
100
AcDbEntity
  8
0
  6
CONTINUOUS
 62
     7
100
AcDbVertex
100
AcDb2dVertex
 10
8.9565163327
 20
6.5573248084
 30
0.0
  0
VERTEX
  5
3FD
330
1E5
100
AcDbEntity
  8
0
  6
CONTINUOUS
 62
     7
100
AcDbVertex
100
AcDb2dVertex
 10
8.9606645296
 20
6.5658506262
 30
0.0
  0
VERTEX
  5
3FE
330
1E5
100
AcDbEntity
  8
0
  6
CONTINUOUS
 62
     7
100
AcDbVertex
100
AcDb2dVertex
 10
8.9631995898
 20
6.5759471847
 30
0.0
  0
VERTEX
  5
3FF
330
1E5
100
AcDbEntity
  8
0
  6
CONTINUOUS
 62
     7
100
AcDbVertex
100
AcDb2dVertex
 10
8.9640523637
 20
6.5873390761
 30
0.0
  0
SEQEND
  5
400
330
1E5
100
AcDbEntity
  8
0
  6
CONTINUOUS
 62
     7
  0
ARC
  5
1E6
330
1F
100
AcDbEntity
  8
0
  6
CONTINUOUS
 62
     7
100
AcDbCircle
 10
8.9390685379
 20
6.5933000953
 30
0.0
 40
0.0553041838883194
100
AcDbArc
 50
236.5521030101
 51
282.3375544195
  0
POLYLINE
  5
1E7
330
1F
100
AcDbEntity
  8
0
  6
CONTINUOUS
 62
     7
100
AcDb2dPolyline
 66
     1
 10
0.0
 20
0.0
 30
0.0
  0
VERTEX
  5
401
330
1E7
100
AcDbEntity
  8
0
  6
CONTINUOUS
 62
     7
100
AcDbVertex
100
AcDb2dVertex
 10
7.6821846926
 20
7.9428686251
 30
0.0
  0
VERTEX
  5
402
330
1E7
100
AcDbEntity
  8
0
  6
CONTINUOUS
 62
     7
100
AcDbVertex
100
AcDb2dVertex
 10
7.6922152254
 20
7.9496484334
 30
0.0
  0
VERTEX
  5
403
330
1E7
100
AcDbEntity
  8
0
  6
CONTINUOUS
 62
     7
100
AcDbVertex
100
AcDb2dVertex
 10
7.700285061
 20
7.9572506053
 30
0.0
  0
VERTEX
  5
404
330
1E7
100
AcDbEntity
  8
0
  6
CONTINUOUS
 62
     7
100
AcDbVertex
100
AcDb2dVertex
 10
7.7061954933
 20
7.9654879501
 30
0.0
  0
VERTEX
  5
405
330
1E7
100
AcDbEntity
  8
0
  6
CONTINUOUS
 62
     7
100
AcDbVertex
100
AcDb2dVertex
 10
7.7098009878
 20
7.974157637
 30
0.0
  0
VERTEX
  5
406
330
1E7
100
AcDbEntity
  8
0
  6
CONTINUOUS
 62
     7
100
AcDbVertex
100
AcDb2dVertex
 10
7.7110127653
 20
7.9830461896
 30
0.0
  0
VERTEX
  5
407
330
1E7
100
AcDbEntity
  8
0
  6
CONTINUOUS
 62
     7
100
AcDbVertex
100
AcDb2dVertex
 10
7.7098009878
 20
7.9919347422
 30
0.0
  0
VERTEX
  5
408
330
1E7
100
AcDbEntity
  8
0
  6
CONTINUOUS
 62
     7
100
AcDbVertex
100
AcDb2dVertex
 10
7.7061954933
 20
8.0006044292
 30
0.0
  0
VERTEX
  5
409
330
1E7
100
AcDbEntity
  8
0
  6
CONTINUOUS
 62
     7
100
AcDbVertex
100
AcDb2dVertex
 10
7.700285061
 20
8.008841774
 30
0.0
  0
VERTEX
  5
40A
330
1E7
100
AcDbEntity
  8
0
  6
CONTINUOUS
 62
     7
100
AcDbVertex
100
AcDb2dVertex
 10
7.6922152254
 20
8.0164439459
 30
0.0
  0
VERTEX
  5
40B
330
1E7
100
AcDbEntity
  8
0
  6
CONTINUOUS
 62
     7
100
AcDbVertex
100
AcDb2dVertex
 10
7.6821960014
 20
8.0232172247
 30
0.0
  0
SEQEND
  5
40C
330
1E7
100
AcDbEntity
  8
0
  6
CONTINUOUS
 62
     7
  0
POLYLINE
  5
1E8
330
1F
100
AcDbEntity
  8
0
  6
CONTINUOUS
 62
     7
100
AcDb2dPolyline
 66
     1
 10
0.0
 20
0.0
 30
0.0
  0
VERTEX
  5
40D
330
1E8
100
AcDbEntity
  8
0
  6
CONTINUOUS
 62
     7
100
AcDbVertex
100
AcDb2dVertex
 10
7.5429791356
 20
8.0232172247
 30
0.0
  0
VERTEX
  5
40E
330
1E8
100
AcDbEntity
  8
0
  6
CONTINUOUS
 62
     7
100
AcDbVertex
100
AcDb2dVertex
 10
7.5329599116
 20
8.0164439459
 30
0.0
  0
VERTEX
  5
40F
330
1E8
100
AcDbEntity
  8
0
  6
CONTINUOUS
 62
     7
100
AcDbVertex
100
AcDb2dVertex
 10
7.524890076
 20
8.008841774
 30
0.0
  0
VERTEX
  5
410
330
1E8
100
AcDbEntity
  8
0
  6
CONTINUOUS
 62
     7
100
AcDbVertex
100
AcDb2dVertex
 10
7.5189796437
 20
8.0006044292
 30
0.0
  0
VERTEX
  5
411
330
1E8
100
AcDbEntity
  8
0
  6
CONTINUOUS
 62
     7
100
AcDbVertex
100
AcDb2dVertex
 10
7.5153741491
 20
7.9919347422
 30
0.0
  0
VERTEX
  5
412
330
1E8
100
AcDbEntity
  8
0
  6
CONTINUOUS
 62
     7
100
AcDbVertex
100
AcDb2dVertex
 10
7.5141623716
 20
7.9830461896
 30
0.0
  0
VERTEX
  5
413
330
1E8
100
AcDbEntity
  8
0
  6
CONTINUOUS
 62
     7
100
AcDbVertex
100
AcDb2dVertex
 10
7.5153741491
 20
7.974157637
 30
0.0
  0
VERTEX
  5
414
330
1E8
100
AcDbEntity
  8
0
  6
CONTINUOUS
 62
     7
100
AcDbVertex
100
AcDb2dVertex
 10
7.5189796437
 20
7.9654879501
 30
0.0
  0
VERTEX
  5
415
330
1E8
100
AcDbEntity
  8
0
  6
CONTINUOUS
 62
     7
100
AcDbVertex
100
AcDb2dVertex
 10
7.524890076
 20
7.9572506053
 30
0.0
  0
VERTEX
  5
416
330
1E8
100
AcDbEntity
  8
0
  6
CONTINUOUS
 62
     7
100
AcDbVertex
100
AcDb2dVertex
 10
7.5329599116
 20
7.9496484334
 30
0.0
  0
VERTEX
  5
417
330
1E8
100
AcDbEntity
  8
0
  6
CONTINUOUS
 62
     7
100
AcDbVertex
100
AcDb2dVertex
 10
7.5429904444
 20
7.9428686251
 30
0.0
  0
VERTEX
  5
418
330
1E8
100
AcDbEntity
  8
0
  6
CONTINUOUS
 62
     7
100
AcDbVertex
100
AcDb2dVertex
 10
7.5547346893
 20
7.9370781218
 30
0.0
  0
VERTEX
  5
419
330
1E8
100
AcDbEntity
  8
0
  6
CONTINUOUS
 62
     7
100
AcDbVertex
100
AcDb2dVertex
 10
7.5679034642
 20
7.9324195048
 30
0.0
  0
VERTEX
  5
41A
330
1E8
100
AcDbEntity
  8
0
  6
CONTINUOUS
 62
     7
100
AcDbVertex
100
AcDb2dVertex
 10
7.58217251
 20
7.9290074849
 30
0.0
  0
VERTEX
  5
41B
330
1E8
100
AcDbEntity
  8
0
  6
CONTINUOUS
 62
     7
100
AcDbVertex
100
AcDb2dVertex
 10
7.5971904755
 20
7.9269260772
 30
0.0
  0
VERTEX
  5
41C
330
1E8
100
AcDbEntity
  8
0
  6
CONTINUOUS
 62
     7
100
AcDbVertex
100
AcDb2dVertex
 10
7.6125875685
 20
7.9262265329
 30
0.0
  0
VERTEX
  5
41D
330
1E8
100
AcDbEntity
  8
0
  6
CONTINUOUS
 62
     7
100
AcDbVertex
100
AcDb2dVertex
 10
7.6279846615
 20
7.9269260772
 30
0.0
  0
VERTEX
  5
41E
330
1E8
100
AcDbEntity
  8
0
  6
CONTINUOUS
 62
     7
100
AcDbVertex
100
AcDb2dVertex
 10
7.643002627
 20
7.9290074849
 30
0.0
  0
VERTEX
  5
41F
330
1E8
100
AcDbEntity
  8
0
  6
CONTINUOUS
 62
     7
100
AcDbVertex
100
AcDb2dVertex
 10
7.6572716728
 20
7.9324195048
 30
0.0
  0
VERTEX
  5
420
330
1E8
100
AcDbEntity
  8
0
  6
CONTINUOUS
 62
     7
100
AcDbVertex
100
AcDb2dVertex
 10
7.6704404477
 20
7.9370781218
 30
0.0
  0
VERTEX
  5
421
330
1E8
100
AcDbEntity
  8
0
  6
CONTINUOUS
 62
     7
100
AcDbVertex
100
AcDb2dVertex
 10
7.6821846926
 20
7.9428686251
 30
0.0
  0
SEQEND
  5
422
330
1E8
100
AcDbEntity
  8
0
  6
CONTINUOUS
 62
     7
  0
POLYLINE
  5
1E9
330
1F
100
AcDbEntity
  8
0
  6
CONTINUOUS
 62
     7
100
AcDb2dPolyline
 66
     1
 10
0.0
 20
0.0
 30
0.0
  0
VERTEX
  5
423
330
1E9
100
AcDbEntity
  8
0
  6
CONTINUOUS
 62
     7
100
AcDbVertex
100
AcDb2dVertex
 10
7.6751136248
 20
7.9551160738
 30
0.0
  0
VERTEX
  5
424
330
1E9
100
AcDbEntity
  8
0
  6
CONTINUOUS
 62
     7
100
AcDbVertex
100
AcDb2dVertex
 10
7.6639694003
 20
7.9496672417
 30
0.0
  0
VERTEX
  5
425
330
1E9
100
AcDbEntity
  8
0
  6
CONTINUOUS
 62
     7
100
AcDbVertex
100
AcDb2dVertex
 10
7.6514236133
 20
7.9453516313
 30
0.0
  0
VERTEX
  5
426
330
1E9
100
AcDbEntity
  8
0
  6
CONTINUOUS
 62
     7
100
AcDbVertex
100
AcDb2dVertex
 10
7.6378184803
 20
7.9422869613
 30
0.0
  0
VERTEX
  5
427
330
1E9
100
AcDbEntity
  8
0
  6
CONTINUOUS
 62
     7
100
AcDbVertex
100
AcDb2dVertex
 10
7.6235251138
 20
7.9405568279
 30
0.0
  0
VERTEX
  5
428
330
1E9
100
AcDbEntity
  8
0
  6
CONTINUOUS
 62
     7
100
AcDbVertex
100
AcDb2dVertex
 10
7.6089333995
 20
7.9402084245
 30
0.0
  0
VERTEX
  5
429
330
1E9
100
AcDbEntity
  8
0
  6
CONTINUOUS
 62
     7
100
AcDbVertex
100
AcDb2dVertex
 10
7.5944413615
 20
7.9412512547
 30
0.0
  0
VERTEX
  5
42A
330
1E9
100
AcDbEntity
  8
0
  6
CONTINUOUS
 62
     7
100
AcDbVertex
100
AcDb2dVertex
 10
7.5804443046
 20
7.9436568728
 30
0.0
  0
VERTEX
  5
42B
330
1E9
100
AcDbEntity
  8
0
  6
CONTINUOUS
 62
     7
100
AcDbVertex
100
AcDb2dVertex
 10
7.5673240323
 20
7.9473596599
 30
0.0
  0
VERTEX
  5
42C
330
1E9
100
AcDbEntity
  8
0
  6
CONTINUOUS
 62
     7
100
AcDbVertex
100
AcDb2dVertex
 10
7.5554384312
 20
7.9522586135
 30
0.0
  0
VERTEX
  5
42D
330
1E9
100
AcDbEntity
  8
0
  6
CONTINUOUS
 62
     7
100
AcDbVertex
100
AcDb2dVertex
 10
7.5451117095
 20
7.958220103
 30
0.0
  0
VERTEX
  5
42E
330
1E9
100
AcDbEntity
  8
0
  6
CONTINUOUS
 62
     7
100
AcDbVertex
100
AcDb2dVertex
 10
7.5366255535
 20
7.9650815145
 30
0.0
  0
VERTEX
  5
42F
330
1E9
100
AcDbEntity
  8
0
  6
CONTINUOUS
 62
     7
100
AcDbVertex
100
AcDb2dVertex
 10
7.5302114431
 20
7.9726556865
 30
0.0
  0
VERTEX
  5
430
330
1E9
100
AcDbEntity
  8
0
  6
CONTINUOUS
 62
     7
100
AcDbVertex
100
AcDb2dVertex
 10
7.5260443388
 20
7.9807360154
 30
0.0
  0
VERTEX
  5
431
330
1E9
100
AcDbEntity
  8
0
  6
CONTINUOUS
 62
     7
100
AcDbVertex
100
AcDb2dVertex
 10
7.5242379081
 20
7.9891020909
 30
0.0
  0
VERTEX
  5
432
330
1E9
100
AcDbEntity
  8
0
  6
CONTINUOUS
 62
     7
100
AcDbVertex
100
AcDb2dVertex
 10
7.5248414259
 20
7.9975257082
 30
0.0
  0
VERTEX
  5
433
330
1E9
100
AcDbEntity
  8
0
  6
CONTINUOUS
 62
     7
100
AcDbVertex
100
AcDb2dVertex
 10
7.5278384297
 20
8.0057770931
 30
0.0
  0
VERTEX
  5
434
330
1E9
100
AcDbEntity
  8
0
  6
CONTINUOUS
 62
     7
100
AcDbVertex
100
AcDb2dVertex
 10
7.5331471691
 20
8.0136311692
 30
0.0
  0
VERTEX
  5
435
330
1E9
100
AcDbEntity
  8
0
  6
CONTINUOUS
 62
     7
100
AcDbVertex
100
AcDb2dVertex
 10
7.5406228355
 20
8.0208736979
 30
0.0
  0
VERTEX
  5
436
330
1E9
100
AcDbEntity
  8
0
  6
CONTINUOUS
 62
     7
100
AcDbVertex
100
AcDb2dVertex
 10
7.5500615122
 20
8.0273071218
 30
0.0
  0
VERTEX
  5
437
330
1E9
100
AcDbEntity
  8
0
  6
CONTINUOUS
 62
     7
100
AcDbVertex
100
AcDb2dVertex
 10
7.5612057367
 20
8.0327559538
 30
0.0
  0
VERTEX
  5
438
330
1E9
100
AcDbEntity
  8
0
  6
CONTINUOUS
 62
     7
100
AcDbVertex
100
AcDb2dVertex
 10
7.5737515237
 20
8.0370715642
 30
0.0
  0
VERTEX
  5
439
330
1E9
100
AcDbEntity
  8
0
  6
CONTINUOUS
 62
     7
100
AcDbVertex
100
AcDb2dVertex
 10
7.5873566567
 20
8.0401362342
 30
0.0
  0
VERTEX
  5
43A
330
1E9
100
AcDbEntity
  8
0
  6
CONTINUOUS
 62
     7
100
AcDbVertex
100
AcDb2dVertex
 10
7.6016500232
 20
8.0418663677
 30
0.0
  0
VERTEX
  5
43B
330
1E9
100
AcDbEntity
  8
0
  6
CONTINUOUS
 62
     7
100
AcDbVertex
100
AcDb2dVertex
 10
7.6162417375
 20
8.0422147711
 30
0.0
  0
VERTEX
  5
43C
330
1E9
100
AcDbEntity
  8
0
  6
CONTINUOUS
 62
     7
100
AcDbVertex
100
AcDb2dVertex
 10
7.6307337755
 20
8.0411719408
 30
0.0
  0
VERTEX
  5
43D
330
1E9
100
AcDbEntity
  8
0
  6
CONTINUOUS
 62
     7
100
AcDbVertex
100
AcDb2dVertex
 10
7.6447308323
 20
8.0387663227
 30
0.0
  0
VERTEX
  5
43E
330
1E9
100
AcDbEntity
  8
0
  6
CONTINUOUS
 62
     7
100
AcDbVertex
100
AcDb2dVertex
 10
7.6578511047
 20
8.0350635356
 30
0.0
  0
VERTEX
  5
43F
330
1E9
100
AcDbEntity
  8
0
  6
CONTINUOUS
 62
     7
100
AcDbVertex
100
AcDb2dVertex
 10
7.6697367058
 20
8.030164582
 30
0.0
  0
VERTEX
  5
440
330
1E9
100
AcDbEntity
  8
0
  6
CONTINUOUS
 62
     7
100
AcDbVertex
100
AcDb2dVertex
 10
7.6800634274
 20
8.0242030925
 30
0.0
  0
VERTEX
  5
441
330
1E9
100
AcDbEntity
  8
0
  6
CONTINUOUS
 62
     7
100
AcDbVertex
100
AcDb2dVertex
 10
7.6885495835
 20
8.017341681
 30
0.0
  0
VERTEX
  5
442
330
1E9
100
AcDbEntity
  8
0
  6
CONTINUOUS
 62
     7
100
AcDbVertex
100
AcDb2dVertex
 10
7.6949636938
 20
8.009767509
 30
0.0
  0
VERTEX
  5
443
330
1E9
100
AcDbEntity
  8
0
  6
CONTINUOUS
 62
     7
100
AcDbVertex
100
AcDb2dVertex
 10
7.6991307982
 20
8.0016871801
 30
0.0
  0
VERTEX
  5
444
330
1E9
100
AcDbEntity
  8
0
  6
CONTINUOUS
 62
     7
100
AcDbVertex
100
AcDb2dVertex
 10
7.7009372289
 20
7.9933211046
 30
0.0
  0
VERTEX
  5
445
330
1E9
100
AcDbEntity
  8
0
  6
CONTINUOUS
 62
     7
100
AcDbVertex
100
AcDb2dVertex
 10
7.7003337111
 20
7.9848974873
 30
0.0
  0
VERTEX
  5
446
330
1E9
100
AcDbEntity
  8
0
  6
CONTINUOUS
 62
     7
100
AcDbVertex
100
AcDb2dVertex
 10
7.6973367073
 20
7.9766461024
 30
0.0
  0
VERTEX
  5
447
330
1E9
100
AcDbEntity
  8
0
  6
CONTINUOUS
 62
     7
100
AcDbVertex
100
AcDb2dVertex
 10
7.6920279679
 20
7.9687920263
 30
0.0
  0
VERTEX
  5
448
330
1E9
100
AcDbEntity
  8
0
  6
CONTINUOUS
 62
     7
100
AcDbVertex
100
AcDb2dVertex
 10
7.6845523015
 20
7.9615494976
 30
0.0
  0
VERTEX
  5
449
330
1E9
100
AcDbEntity
  8
0
  6
CONTINUOUS
 62
     7
100
AcDbVertex
100
AcDb2dVertex
 10
7.6751136248
 20
7.9551160738
 30
0.0
  0
SEQEND
  5
44A
330
1E9
100
AcDbEntity
  8
0
  6
CONTINUOUS
 62
     7
  0
LINE
  5
1EA
330
1F
100
AcDbEntity
  8
0
  6
CONTINUOUS
 62
     7
100
AcDbLine
 10
7.5434045178
 20
8.0019130933
 30
0.0
 11
7.5940500259
 21
8.0311501228
 31
0.0
  0
LINE
  5
1EB
330
1F
100
AcDbEntity
  8
0
  6
CONTINUOUS
 62
     7
100
AcDbLine
 10
7.5619420604
 20
7.9619745682
 30
0.0
 11
7.5434045178
 21
8.0019130933
 31
0.0
  0
LINE
  5
1EC
330
1F
100
AcDbEntity
  8
0
  6
CONTINUOUS
 62
     7
100
AcDbLine
 10
7.6311251111
 20
7.9512730727
 30
0.0
 11
7.5619420604
 21
7.9619745682
 31
0.0
  0
LINE
  5
1ED
330
1F
100
AcDbEntity
  8
0
  6
CONTINUOUS
 62
     7
100
AcDbLine
 10
7.6817706192
 20
7.9805101022
 30
0.0
 11
7.6311251111
 21
7.9512730727
 31
0.0
  0
LINE
  5
1EE
330
1F
100
AcDbEntity
  8
0
  6
CONTINUOUS
 62
     7
100
AcDbLine
 10
7.6632330766
 20
8.0204486273
 30
0.0
 11
7.6817706192
 21
7.9805101022
 31
0.0
  0
LINE
  5
1EF
330
1F
100
AcDbEntity
  8
0
  6
CONTINUOUS
 62
     7
100
AcDbLine
 10
7.5940500259
 20
8.0311501228
 30
0.0
 11
7.6632330766
 21
8.0204486273
 31
0.0
  0
LINE
  5
1F0
330
1F
100
AcDbEntity
  8
0
  6
CONTINUOUS
 62
     7
100
AcDbLine
 10
7.6632330766
 20
7.9796215867
 30
0.0
 11
7.6668252658
 21
7.9718823334
 31
0.0
  0
LINE
  5
1F1
330
1F
100
AcDbEntity
  8
0
  6
CONTINUOUS
 62
     7
100
AcDbLine
 10
7.5583498712
 20
7.9697138216
 30
0.0
 11
7.5940500259
 21
7.9903230822
 31
0.0
  0
LINE
  5
1F2
330
1F
100
AcDbEntity
  8
0
  6
CONTINUOUS
 62
     7
100
AcDbLine
 10
7.5940500259
 20
7.9903230822
 30
0.0
 11
7.6632330766
 21
7.9796215867
 31
0.0
  0
LINE
  5
1F3
330
1F
100
AcDbEntity
  8
0
  6
CONTINUOUS
 62
     7
100
AcDbLine
 10
7.6632330766
 20
7.9796215867
 30
0.0
 11
7.6632330766
 21
8.0204486273
 31
0.0
  0
LINE
  5
1F4
330
1F
100
AcDbEntity
  8
0
  6
CONTINUOUS
 62
     7
100
AcDbLine
 10
7.5940500259
 20
7.9903230822
 30
0.0
 11
7.5940500259
 21
8.0311501228
 31
0.0
  0
POLYLINE
  5
1F5
330
1F
100
AcDbEntity
  8
0
  6
CONTINUOUS
 62
     7
100
AcDb2dPolyline
 66
     1
 10
0.0
 20
0.0
 30
0.0
  0
VERTEX
  5
44B
330
1F5
100
AcDbEntity
  8
0
  6
CONTINUOUS
 62
     7
100
AcDbVertex
100
AcDb2dVertex
 10
8.8041016424
 20
7.3755548841
 30
0.0
  0
VERTEX
  5
44C
330
1F5
100
AcDbEntity
  8
0
  6
CONTINUOUS
 62
     7
100
AcDbVertex
100
AcDb2dVertex
 10
8.8141208664
 20
7.3687816052
 30
0.0
  0
VERTEX
  5
44D
330
1F5
100
AcDbEntity
  8
0
  6
CONTINUOUS
 62
     7
100
AcDbVertex
100
AcDb2dVertex
 10
8.822190702
 20
7.3611794333
 30
0.0
  0
VERTEX
  5
44E
330
1F5
100
AcDbEntity
  8
0
  6
CONTINUOUS
 62
     7
100
AcDbVertex
100
AcDb2dVertex
 10
8.8281011343
 20
7.3529420885
 30
0.0
  0
VERTEX
  5
44F
330
1F5
100
AcDbEntity
  8
0
  6
CONTINUOUS
 62
     7
100
AcDbVertex
100
AcDb2dVertex
 10
8.8317066289
 20
7.3442724016
 30
0.0
  0
VERTEX
  5
450
330
1F5
100
AcDbEntity
  8
0
  6
CONTINUOUS
 62
     7
100
AcDbVertex
100
AcDb2dVertex
 10
8.8329184064
 20
7.335383849
 30
0.0
  0
VERTEX
  5
451
330
1F5
100
AcDbEntity
  8
0
  6
CONTINUOUS
 62
     7
100
AcDbVertex
100
AcDb2dVertex
 10
8.8317066289
 20
7.3264952964
 30
0.0
  0
VERTEX
  5
452
330
1F5
100
AcDbEntity
  8
0
  6
CONTINUOUS
 62
     7
100
AcDbVertex
100
AcDb2dVertex
 10
8.8281011343
 20
7.3178256094
 30
0.0
  0
VERTEX
  5
453
330
1F5
100
AcDbEntity
  8
0
  6
CONTINUOUS
 62
     7
100
AcDbVertex
100
AcDb2dVertex
 10
8.822190702
 20
7.3095882646
 30
0.0
  0
VERTEX
  5
454
330
1F5
100
AcDbEntity
  8
0
  6
CONTINUOUS
 62
     7
100
AcDbVertex
100
AcDb2dVertex
 10
8.8141208664
 20
7.3019860927
 30
0.0
  0
VERTEX
  5
455
330
1F5
100
AcDbEntity
  8
0
  6
CONTINUOUS
 62
     7
100
AcDbVertex
100
AcDb2dVertex
 10
8.8040903336
 20
7.2952062844
 30
0.0
  0
VERTEX
  5
456
330
1F5
100
AcDbEntity
  8
0
  6
CONTINUOUS
 62
     7
100
AcDbVertex
100
AcDb2dVertex
 10
8.7923460887
 20
7.2894157811
 30
0.0
  0
VERTEX
  5
457
330
1F5
100
AcDbEntity
  8
0
  6
CONTINUOUS
 62
     7
100
AcDbVertex
100
AcDb2dVertex
 10
8.7791773138
 20
7.2847571641
 30
0.0
  0
VERTEX
  5
458
330
1F5
100
AcDbEntity
  8
0
  6
CONTINUOUS
 62
     7
100
AcDbVertex
100
AcDb2dVertex
 10
8.764908268
 20
7.2813451442
 30
0.0
  0
VERTEX
  5
459
330
1F5
100
AcDbEntity
  8
0
  6
CONTINUOUS
 62
     7
100
AcDbVertex
100
AcDb2dVertex
 10
8.7498903025
 20
7.2792637365
 30
0.0
  0
VERTEX
  5
45A
330
1F5
100
AcDbEntity
  8
0
  6
CONTINUOUS
 62
     7
100
AcDbVertex
100
AcDb2dVertex
 10
8.7344932095
 20
7.2785641923
 30
0.0
  0
VERTEX
  5
45B
330
1F5
100
AcDbEntity
  8
0
  6
CONTINUOUS
 62
     7
100
AcDbVertex
100
AcDb2dVertex
 10
8.7190961165
 20
7.2792637365
 30
0.0
  0
VERTEX
  5
45C
330
1F5
100
AcDbEntity
  8
0
  6
CONTINUOUS
 62
     7
100
AcDbVertex
100
AcDb2dVertex
 10
8.704078151
 20
7.2813451442
 30
0.0
  0
VERTEX
  5
45D
330
1F5
100
AcDbEntity
  8
0
  6
CONTINUOUS
 62
     7
100
AcDbVertex
100
AcDb2dVertex
 10
8.6898091052
 20
7.2847571641
 30
0.0
  0
VERTEX
  5
45E
330
1F5
100
AcDbEntity
  8
0
  6
CONTINUOUS
 62
     7
100
AcDbVertex
100
AcDb2dVertex
 10
8.6766403303
 20
7.2894157811
 30
0.0
  0
VERTEX
  5
45F
330
1F5
100
AcDbEntity
  8
0
  6
CONTINUOUS
 62
     7
100
AcDbVertex
100
AcDb2dVertex
 10
8.6648960854
 20
7.2952062844
 30
0.0
  0
VERTEX
  5
460
330
1F5
100
AcDbEntity
  8
0
  6
CONTINUOUS
 62
     7
100
AcDbVertex
100
AcDb2dVertex
 10
8.6548655526
 20
7.3019860927
 30
0.0
  0
VERTEX
  5
461
330
1F5
100
AcDbEntity
  8
0
  6
CONTINUOUS
 62
     7
100
AcDbVertex
100
AcDb2dVertex
 10
8.646795717
 20
7.3095882646
 30
0.0
  0
VERTEX
  5
462
330
1F5
100
AcDbEntity
  8
0
  6
CONTINUOUS
 62
     7
100
AcDbVertex
100
AcDb2dVertex
 10
8.6408852847
 20
7.3178256094
 30
0.0
  0
VERTEX
  5
463
330
1F5
100
AcDbEntity
  8
0
  6
CONTINUOUS
 62
     7
100
AcDbVertex
100
AcDb2dVertex
 10
8.6372797902
 20
7.3264952964
 30
0.0
  0
VERTEX
  5
464
330
1F5
100
AcDbEntity
  8
0
  6
CONTINUOUS
 62
     7
100
AcDbVertex
100
AcDb2dVertex
 10
8.6360680127
 20
7.335383849
 30
0.0
  0
VERTEX
  5
465
330
1F5
100
AcDbEntity
  8
0
  6
CONTINUOUS
 62
     7
100
AcDbVertex
100
AcDb2dVertex
 10
8.6372797902
 20
7.3442724016
 30
0.0
  0
VERTEX
  5
466
330
1F5
100
AcDbEntity
  8
0
  6
CONTINUOUS
 62
     7
100
AcDbVertex
100
AcDb2dVertex
 10
8.6408852847
 20
7.3529420885
 30
0.0
  0
VERTEX
  5
467
330
1F5
100
AcDbEntity
  8
0
  6
CONTINUOUS
 62
     7
100
AcDbVertex
100
AcDb2dVertex
 10
8.646795717
 20
7.3611794333
 30
0.0
  0
VERTEX
  5
468
330
1F5
100
AcDbEntity
  8
0
  6
CONTINUOUS
 62
     7
100
AcDbVertex
100
AcDb2dVertex
 10
8.6548655526
 20
7.3687816052
 30
0.0
  0
VERTEX
  5
469
330
1F5
100
AcDbEntity
  8
0
  6
CONTINUOUS
 62
     7
100
AcDbVertex
100
AcDb2dVertex
 10
8.6648960854
 20
7.3755614135
 30
0.0
  0
SEQEND
  5
46A
330
1F5
100
AcDbEntity
  8
0
  6
CONTINUOUS
 62
     7
  0
POLYLINE
  5
1F6
330
1F
100
AcDbEntity
  8
0
  6
CONTINUOUS
 62
     7
100
AcDb2dPolyline
 66
     1
 10
0.0
 20
0.0
 30
0.0
  0
VERTEX
  5
46B
330
1F6
100
AcDbEntity
  8
0
  6
CONTINUOUS
 62
     7
100
AcDbVertex
100
AcDb2dVertex
 10
8.6719671532
 20
7.3796447811
 30
0.0
  0
VERTEX
  5
46C
330
1F6
100
AcDbEntity
  8
0
  6
CONTINUOUS
 62
     7
100
AcDbVertex
100
AcDb2dVertex
 10
8.6625284765
 20
7.3732113572
 30
0.0
  0
VERTEX
  5
46D
330
1F6
100
AcDbEntity
  8
0
  6
CONTINUOUS
 62
     7
100
AcDbVertex
100
AcDb2dVertex
 10
8.6550528101
 20
7.3659688285
 30
0.0
  0
VERTEX
  5
46E
330
1F6
100
AcDbEntity
  8
0
  6
CONTINUOUS
 62
     7
100
AcDbVertex
100
AcDb2dVertex
 10
8.6497440707
 20
7.3581147524
 30
0.0
  0
VERTEX
  5
46F
330
1F6
100
AcDbEntity
  8
0
  6
CONTINUOUS
 62
     7
100
AcDbVertex
100
AcDb2dVertex
 10
8.6467470669
 20
7.3498633676
 30
0.0
  0
VERTEX
  5
470
330
1F6
100
AcDbEntity
  8
0
  6
CONTINUOUS
 62
     7
100
AcDbVertex
100
AcDb2dVertex
 10
8.6461435491
 20
7.3414397502
 30
0.0
  0
VERTEX
  5
471
330
1F6
100
AcDbEntity
  8
0
  6
CONTINUOUS
 62
     7
100
AcDbVertex
100
AcDb2dVertex
 10
8.6479499798
 20
7.3330736747
 30
0.0
  0
VERTEX
  5
472
330
1F6
100
AcDbEntity
  8
0
  6
CONTINUOUS
 62
     7
100
AcDbVertex
100
AcDb2dVertex
 10
8.6521170842
 20
7.3249933458
 30
0.0
  0
VERTEX
  5
473
330
1F6
100
AcDbEntity
  8
0
  6
CONTINUOUS
 62
     7
100
AcDbVertex
100
AcDb2dVertex
 10
8.6585311945
 20
7.3174191738
 30
0.0
  0
VERTEX
  5
474
330
1F6
100
AcDbEntity
  8
0
  6
CONTINUOUS
 62
     7
100
AcDbVertex
100
AcDb2dVertex
 10
8.6670173506
 20
7.3105577623
 30
0.0
  0
VERTEX
  5
475
330
1F6
100
AcDbEntity
  8
0
  6
CONTINUOUS
 62
     7
100
AcDbVertex
100
AcDb2dVertex
 10
8.6773440722
 20
7.3045962729
 30
0.0
  0
VERTEX
  5
476
330
1F6
100
AcDbEntity
  8
0
  6
CONTINUOUS
 62
     7
100
AcDbVertex
100
AcDb2dVertex
 10
8.6892296733
 20
7.2996973192
 30
0.0
  0
VERTEX
  5
477
330
1F6
100
AcDbEntity
  8
0
  6
CONTINUOUS
 62
     7
100
AcDbVertex
100
AcDb2dVertex
 10
8.7023499457
 20
7.2959945322
 30
0.0
  0
VERTEX
  5
478
330
1F6
100
AcDbEntity
  8
0
  6
CONTINUOUS
 62
     7
100
AcDbVertex
100
AcDb2dVertex
 10
8.7163470025
 20
7.293588914
 30
0.0
  0
VERTEX
  5
479
330
1F6
100
AcDbEntity
  8
0
  6
CONTINUOUS
 62
     7
100
AcDbVertex
100
AcDb2dVertex
 10
8.7308390405
 20
7.2925460838
 30
0.0
  0
VERTEX
  5
47A
330
1F6
100
AcDbEntity
  8
0
  6
CONTINUOUS
 62
     7
100
AcDbVertex
100
AcDb2dVertex
 10
8.7454307548
 20
7.2928944872
 30
0.0
  0
VERTEX
  5
47B
330
1F6
100
AcDbEntity
  8
0
  6
CONTINUOUS
 62
     7
100
AcDbVertex
100
AcDb2dVertex
 10
8.7597241213
 20
7.2946246206
 30
0.0
  0
VERTEX
  5
47C
330
1F6
100
AcDbEntity
  8
0
  6
CONTINUOUS
 62
     7
100
AcDbVertex
100
AcDb2dVertex
 10
8.7733292543
 20
7.2976892907
 30
0.0
  0
VERTEX
  5
47D
330
1F6
100
AcDbEntity
  8
0
  6
CONTINUOUS
 62
     7
100
AcDbVertex
100
AcDb2dVertex
 10
8.7858750413
 20
7.302004901
 30
0.0
  0
VERTEX
  5
47E
330
1F6
100
AcDbEntity
  8
0
  6
CONTINUOUS
 62
     7
100
AcDbVertex
100
AcDb2dVertex
 10
8.7970192658
 20
7.3074537331
 30
0.0
  0
VERTEX
  5
47F
330
1F6
100
AcDbEntity
  8
0
  6
CONTINUOUS
 62
     7
100
AcDbVertex
100
AcDb2dVertex
 10
8.8064579425
 20
7.313887157
 30
0.0
  0
VERTEX
  5
480
330
1F6
100
AcDbEntity
  8
0
  6
CONTINUOUS
 62
     7
100
AcDbVertex
100
AcDb2dVertex
 10
8.8139336089
 20
7.3211296856
 30
0.0
  0
VERTEX
  5
481
330
1F6
100
AcDbEntity
  8
0
  6
CONTINUOUS
 62
     7
100
AcDbVertex
100
AcDb2dVertex
 10
8.8192423483
 20
7.3289837617
 30
0.0
  0
VERTEX
  5
482
330
1F6
100
AcDbEntity
  8
0
  6
CONTINUOUS
 62
     7
100
AcDbVertex
100
AcDb2dVertex
 10
8.8222393521
 20
7.3372351466
 30
0.0
  0
VERTEX
  5
483
330
1F6
100
AcDbEntity
  8
0
  6
CONTINUOUS
 62
     7
100
AcDbVertex
100
AcDb2dVertex
 10
8.8228428699
 20
7.3456587639
 30
0.0
  0
VERTEX
  5
484
330
1F6
100
AcDbEntity
  8
0
  6
CONTINUOUS
 62
     7
100
AcDbVertex
100
AcDb2dVertex
 10
8.8210364392
 20
7.3540248394
 30
0.0
  0
VERTEX
  5
485
330
1F6
100
AcDbEntity
  8
0
  6
CONTINUOUS
 62
     7
100
AcDbVertex
100
AcDb2dVertex
 10
8.8168693349
 20
7.3621051683
 30
0.0
  0
VERTEX
  5
486
330
1F6
100
AcDbEntity
  8
0
  6
CONTINUOUS
 62
     7
100
AcDbVertex
100
AcDb2dVertex
 10
8.8104552245
 20
7.3696793404
 30
0.0
  0
VERTEX
  5
487
330
1F6
100
AcDbEntity
  8
0
  6
CONTINUOUS
 62
     7
100
AcDbVertex
100
AcDb2dVertex
 10
8.8019690685
 20
7.3765407518
 30
0.0
  0
VERTEX
  5
488
330
1F6
100
AcDbEntity
  8
0
  6
CONTINUOUS
 62
     7
100
AcDbVertex
100
AcDb2dVertex
 10
8.7916423468
 20
7.3825022413
 30
0.0
  0
VERTEX
  5
489
330
1F6
100
AcDbEntity
  8
0
  6
CONTINUOUS
 62
     7
100
AcDbVertex
100
AcDb2dVertex
 10
8.7797567457
 20
7.3874011949
 30
0.0
  0
VERTEX
  5
48A
330
1F6
100
AcDbEntity
  8
0
  6
CONTINUOUS
 62
     7
100
AcDbVertex
100
AcDb2dVertex
 10
8.7666364734
 20
7.391103982
 30
0.0
  0
VERTEX
  5
48B
330
1F6
100
AcDbEntity
  8
0
  6
CONTINUOUS
 62
     7
100
AcDbVertex
100
AcDb2dVertex
 10
8.7526394165
 20
7.3935096002
 30
0.0
  0
VERTEX
  5
48C
330
1F6
100
AcDbEntity
  8
0
  6
CONTINUOUS
 62
     7
100
AcDbVertex
100
AcDb2dVertex
 10
8.7381473785
 20
7.3945524304
 30
0.0
  0
VERTEX
  5
48D
330
1F6
100
AcDbEntity
  8
0
  6
CONTINUOUS
 62
     7
100
AcDbVertex
100
AcDb2dVertex
 10
8.7235556642
 20
7.394204027
 30
0.0
  0
VERTEX
  5
48E
330
1F6
100
AcDbEntity
  8
0
  6
CONTINUOUS
 62
     7
100
AcDbVertex
100
AcDb2dVertex
 10
8.7092622977
 20
7.3924738935
 30
0.0
  0
VERTEX
  5
48F
330
1F6
100
AcDbEntity
  8
0
  6
CONTINUOUS
 62
     7
100
AcDbVertex
100
AcDb2dVertex
 10
8.6956571647
 20
7.3894092235
 30
0.0
  0
VERTEX
  5
490
330
1F6
100
AcDbEntity
  8
0
  6
CONTINUOUS
 62
     7
100
AcDbVertex
100
AcDb2dVertex
 10
8.6831113777
 20
7.3850936132
 30
0.0
  0
VERTEX
  5
491
330
1F6
100
AcDbEntity
  8
0
  6
CONTINUOUS
 62
     7
100
AcDbVertex
100
AcDb2dVertex
 10
8.6719671532
 20
7.3796447811
 30
0.0
  0
SEQEND
  5
492
330
1F6
100
AcDbEntity
  8
0
  6
CONTINUOUS
 62
     7
  0
LINE
  5
1F7
330
1F
100
AcDbEntity
  8
0
  6
CONTINUOUS
 62
     7
100
AcDbLine
 10
8.7851387176
 20
7.3727862866
 30
0.0
 11
8.7159556669
 21
7.3834877821
 31
0.0
  0
LINE
  5
1F8
330
1F
100
AcDbEntity
  8
0
  6
CONTINUOUS
 62
     7
100
AcDbLine
 10
8.7159556669
 20
7.3834877821
 30
0.0
 11
8.6653101588
 21
7.3542507526
 31
0.0
  0
LINE
  5
1F9
330
1F
100
AcDbEntity
  8
0
  6
CONTINUOUS
 62
     7
100
AcDbLine
 10
8.6653101588
 20
7.3542507526
 30
0.0
 11
8.6838477014
 21
7.3143122276
 31
0.0
  0
LINE
  5
1FA
330
1F
100
AcDbEntity
  8
0
  6
CONTINUOUS
 62
     7
100
AcDbLine
 10
8.6838477014
 20
7.3143122276
 30
0.0
 11
8.7530307521
 21
7.303610732
 31
0.0
  0
LINE
  5
1FB
330
1F
100
AcDbEntity
  8
0
  6
CONTINUOUS
 62
     7
100
AcDbLine
 10
8.7530307521
 20
7.303610732
 30
0.0
 11
8.8036762602
 21
7.3328477615
 31
0.0
  0
LINE
  5
1FC
330
1F
100
AcDbEntity
  8
0
  6
CONTINUOUS
 62
     7
100
AcDbLine
 10
8.8036762602
 20
7.3328477615
 30
0.0
 11
8.7851387176
 21
7.3727862866
 31
0.0
  0
LINE
  5
1FD
330
1F
100
AcDbEntity
  8
0
  6
CONTINUOUS
 62
     7
100
AcDbLine
 10
8.7159556669
 20
7.3426607415
 30
0.0
 11
8.6802555122
 21
7.3220514809
 31
0.0
  0
LINE
  5
1FE
330
1F
100
AcDbEntity
  8
0
  6
CONTINUOUS
 62
     7
100
AcDbLine
 10
8.7851387176
 20
7.331959246
 30
0.0
 11
8.7159556669
 21
7.3426607415
 31
0.0
  0
LINE
  5
1FF
330
1F
100
AcDbEntity
  8
0
  6
CONTINUOUS
 62
     7
100
AcDbLine
 10
8.7887309068
 20
7.3242199927
 30
0.0
 11
8.7851387176
 21
7.331959246
 31
0.0
  0
LINE
  5
200
330
1F
100
AcDbEntity
  8
0
  6
CONTINUOUS
 62
     7
100
AcDbLine
 10
8.7851387176
 20
7.331959246
 30
0.0
 11
8.7851387176
 21
7.3727862866
 31
0.0
  0
LINE
  5
201
330
1F
100
AcDbEntity
  8
0
  6
CONTINUOUS
 62
     7
100
AcDbLine
 10
8.7159556669
 20
7.3426607415
 30
0.0
 11
8.7159556669
 21
7.3834877821
 31
0.0
  0
ENDSEC
  0
SECTION
  2
OBJECTS
  0
DICTIONARY
  5
C
330
0
100
AcDbDictionary
  3
ACAD_GROUP
350
D
  3
ACAD_LAYOUT
350
1A
  3
ACAD_MLEADERSTYLE
350
204
  3
ACAD_MLINESTYLE
350
17
  3
ACAD_PLOTSETTINGS
350
19
  3
ACAD_SCALELIST
350
6F
  3
ACAD_VISUALSTYLE
350
2A
  3
ACDBVARIABLEDICTIONARY
350
202
1001
ACAD
1000
TREAT_AS_HARD
1070
     0
  0
DICTIONARY
  5
D
102
{ACAD_REACTORS
330
C
102
}
330
C
100
AcDbDictionary
1001
ACAD
1000
TREAT_AS_HARD
1070
     0
  0
DICTIONARY
  5
1A
102
{ACAD_REACTORS
330
C
102
}
330
C
100
AcDbDictionary
1001
ACAD
1000
TREAT_AS_HARD
1070
     0
  0
DICTIONARY
  5
204
102
{ACAD_REACTORS
330
C
102
}
330
C
100
AcDbDictionary
1001
ACAD
1000
TREAT_AS_HARD
1070
     0
  0
DICTIONARY
  5
17
102
{ACAD_REACTORS
330
C
102
}
330
C
100
AcDbDictionary
  3
STANDARD
350
18
1001
ACAD
1000
TREAT_AS_HARD
1070
     0
  0
DICTIONARY
  5
19
102
{ACAD_REACTORS
330
C
102
}
330
C
100
AcDbDictionary
1001
ACAD
1000
TREAT_AS_HARD
1070
     0
  0
DICTIONARY
  5
6F
102
{ACAD_REACTORS
330
C
102
}
330
C
100
AcDbDictionary
  3
A0
350
70
  3
A1
350
71
  3
A2
350
72
  3
A3
350
73
  3
A4
350
74
  3
A5
350
75
  3
A6
350
76
  3
A7
350
77
  3
A8
350
78
  3
A9
350
79
  3
B0
350
7A
  3
B1
350
7B
  3
B2
350
7C
  3
B3
350
7D
  3
B4
350
7E
  3
B5
350
7F
  3
B6
350
80
  3
B7
350
81
  3
B8
350
82
  3
B9
350
83
  3
C0
350
84
  3
C1
350
85
  3
C2
350
86
  3
C3
350
87
  3
C4
350
88
  3
C5
350
89
  3
C6
350
8A
  3
C7
350
8B
  3
C8
350
8C
  3
C9
350
8D
  3
D0
350
8E
  3
D1
350
8F
  3
D2
350
90
1001
ACAD
1000
TREAT_AS_HARD
1070
     0
  0
DICTIONARY
  5
2A
102
{ACAD_REACTORS
330
C
102
}
330
C
100
AcDbDictionary
  3
2DWIREFRAME
350
2F
  3
3D_HIDDEN
350
31
  3
3DWIREFRAME
350
30
  3
BASIC
350
32
  3
BRIGHTEN
350
36
  3
COLORCHANGE
350
3A
  3
CONCEPTUAL
350
34
  3
DIM
350
35
  3
FACEPATTERN
350
39
  3
FLAT
350
2B
  3
FLATWITHEDGES
350
2C
  3
GOURAUD
350
2D
  3
GOURAUDWITHEDGES
350
2E
  3
LINEPATTERN
350
38
  3
REALISTIC
350
33
  3
THICKEN
350
37
1001
ACAD
1000
TREAT_AS_HARD
1070
     0
  0
DICTIONARY
  5
202
102
{ACAD_REACTORS
330
C
102
}
330
C
100
AcDbDictionary
  3
CANNOSCALE
350
205
  3
DIMASSOC
350
206
  3
HIDETEXT
350
207
1001
ACAD
1000
TREAT_AS_HARD
1070
     0
  0
MLINESTYLE
  5
18
102
{ACAD_REACTORS
330
17
102
}
330
17
100
AcDbMlineStyle
  2
Standard
 70
     0
  3

 62
   256
 51
90.0
 52
90.0
 71
     2
 49
0.5
 62
   256
  6
BYLAYER
 49
-0.5
 62
   256
  6
BYLAYER
  0
ACAD_PROXY_OBJECT
  5
70
102
{ACAD_REACTORS
330
6F
102
}
330
6F
100
AcDbZombieObject
 90
      499
 91
      502
 93
       41
310
903313A31580
  0
ACAD_PROXY_OBJECT
  5
71
102
{ACAD_REACTORS
330
6F
102
}
330
6F
100
AcDbZombieObject
 90
      499
 91
      502
 93
      105
310
903313A324000000000000004000
  0
ACAD_PROXY_OBJECT
  5
72
102
{ACAD_REACTORS
330
6F
102
}
330
6F
100
AcDbZombieObject
 90
      499
 91
      502
 93
      105
310
903313A344000000000000104000
  0
ACAD_PROXY_OBJECT
  5
73
102
{ACAD_REACTORS
330
6F
102
}
330
6F
100
AcDbZombieObject
 90
      499
 91
      502
 93
      105
310
903313A354000000000000144000
  0
ACAD_PROXY_OBJECT
  5
74
102
{ACAD_REACTORS
330
6F
102
}
330
6F
100
AcDbZombieObject
 90
      499
 91
      502
 93
      105
310
903313A384000000000000204000
  0
ACAD_PROXY_OBJECT
  5
75
102
{ACAD_REACTORS
330
6F
102
}
330
6F
100
AcDbZombieObject
 90
      499
 91
      502
 93
      113
310
904313A31304000000000000244000
  0
ACAD_PROXY_OBJECT
  5
76
102
{ACAD_REACTORS
330
6F
102
}
330
6F
100
AcDbZombieObject
 90
      499
 91
      502
 93
      113
310
904313A31364000000000000304000
  0
ACAD_PROXY_OBJECT
  5
77
102
{ACAD_REACTORS
330
6F
102
}
330
6F
100
AcDbZombieObject
 90
      499
 91
      502
 93
      113
310
904313A32304000000000000344000
  0
ACAD_PROXY_OBJECT
  5
78
102
{ACAD_REACTORS
330
6F
102
}
330
6F
100
AcDbZombieObject
 90
      499
 91
      502
 93
      113
310
904313A333040000000000003E4000
  0
ACAD_PROXY_OBJECT
  5
79
102
{ACAD_REACTORS
330
6F
102
}
330
6F
100
AcDbZombieObject
 90
      499
 91
      502
 93
      113
310
904313A34304000000000000444000
  0
ACAD_PROXY_OBJECT
  5
7A
102
{ACAD_REACTORS
330
6F
102
}
330
6F
100
AcDbZombieObject
 90
      499
 91
      502
 93
      113
310
904313A35304000000000000494000
  0
ACAD_PROXY_OBJECT
  5
7B
102
{ACAD_REACTORS
330
6F
102
}
330
6F
100
AcDbZombieObject
 90
      499
 91
      502
 93
      121
310
905313A3130304000000000000594000
  0
ACAD_PROXY_OBJECT
  5
7C
102
{ACAD_REACTORS
330
6F
102
}
330
6F
100
AcDbZombieObject
 90
      499
 91
      502
 93
      105
310
903323A310000000000000010100
  0
ACAD_PROXY_OBJECT
  5
7D
102
{ACAD_REACTORS
330
6F
102
}
330
6F
100
AcDbZombieObject
 90
      499
 91
      502
 93
      105
310
903343A310000000000000410100
  0
ACAD_PROXY_OBJECT
  5
7E
102
{ACAD_REACTORS
330
6F
102
}
330
6F
100
AcDbZombieObject
 90
      499
 91
      502
 93
      105
310
903383A310000000000000810100
  0
ACAD_PROXY_OBJECT
  5
7F
102
{ACAD_REACTORS
330
6F
102
}
330
6F
100
AcDbZombieObject
 90
      499
 91
      502
 93
      113
310
90431303A310000000000000910100
  0
ACAD_PROXY_OBJECT
  5
80
102
{ACAD_REACTORS
330
6F
102
}
330
6F
100
AcDbZombieObject
 90
      499
 91
      502
 93
      121
310
9053130303A310000000000001650100
  0
ACAD_PROXY_OBJECT
  5
81
102
{ACAD_REACTORS
330
6F
102
}
330
6F
100
AcDbZombieObject
 90
      499
 91
      502
 93
      257
310
90E312F31323822203D2031272D3022000000000000200FC000000000000284000
  0
ACAD_PROXY_OBJECT
  5
82
102
{ACAD_REACTORS
330
6F
102
}
330
6F
100
AcDbZombieObject
 90
      499
 91
      502
 93
      249
310
90D312F363422203D2031272D3022000000000000240FC000000000000284000
  0
ACAD_PROXY_OBJECT
  5
83
102
{ACAD_REACTORS
330
6F
102
}
330
6F
100
AcDbZombieObject
 90
      499
 91
      502
 93
      249
310
90D312F333222203D2031272D3022000000000000280FC000000000000284000
  0
ACAD_PROXY_OBJECT
  5
84
102
{ACAD_REACTORS
330
6F
102
}
330
6F
100
AcDbZombieObject
 90
      499
 91
      502
 93
      249
310
90D312F313622203D2031272D30220000000000002C0FC000000000000284000
  0
ACAD_PROXY_OBJECT
  5
85
102
{ACAD_REACTORS
330
6F
102
}
330
6F
100
AcDbZombieObject
 90
      499
 91
      502
 93
      249
310
90D332F333222203D2031272D30220000000000002E0FC000000000000284000
  0
ACAD_PROXY_OBJECT
  5
86
102
{ACAD_REACTORS
330
6F
102
}
330
6F
100
AcDbZombieObject
 90
      499
 91
      502
 93
      241
310
90C312F3822203D2031272D3022000000000000300FC000000000000284000
  0
ACAD_PROXY_OBJECT
  5
87
102
{ACAD_REACTORS
330
6F
102
}
330
6F
100
AcDbZombieObject
 90
      499
 91
      502
 93
      249
310
90D332F313622203D2031272D3022000000000000320FC000000000000284000
  0
ACAD_PROXY_OBJECT
  5
88
102
{ACAD_REACTORS
330
6F
102
}
330
6F
100
AcDbZombieObject
 90
      499
 91
      502
 93
      241
310
90C312F3422203D2031272D3022000000000000340FC000000000000284000
  0
ACAD_PROXY_OBJECT
  5
89
102
{ACAD_REACTORS
330
6F
102
}
330
6F
100
AcDbZombieObject
 90
      499
 91
      502
 93
      241
310
90C332F3822203D2031272D3022000000000000360FC000000000000284000
  0
ACAD_PROXY_OBJECT
  5
8A
102
{ACAD_REACTORS
330
6F
102
}
330
6F
100
AcDbZombieObject
 90
      499
 91
      502
 93
      241
310
90C312F3222203D2031272D3022000000000000380FC000000000000284000
  0
ACAD_PROXY_OBJECT
  5
8B
102
{ACAD_REACTORS
330
6F
102
}
330
6F
100
AcDbZombieObject
 90
      499
 91
      502
 93
      241
310
90C332F3422203D2031272D30220000000000003A0FC000000000000284000
  0
ACAD_PROXY_OBJECT
  5
8C
102
{ACAD_REACTORS
330
6F
102
}
330
6F
100
AcDbZombieObject
 90
      499
 91
      502
 93
      161
310
90A3122203D2031272D30224000000000000284000
  0
ACAD_PROXY_OBJECT
  5
8D
102
{ACAD_REACTORS
330
6F
102
}
330
6F
100
AcDbZombieObject
 90
      499
 91
      502
 93
      257
310
90E312D312F3222203D2031272D30220000000000003E0FC000000000000284000
  0
ACAD_PROXY_OBJECT
  5
8E
102
{ACAD_REACTORS
330
6F
102
}
330
6F
100
AcDbZombieObject
 90
      499
 91
      502
 93
      225
310
90A3322203D2031272D302200000000000002100000000000000284000
  0
ACAD_PROXY_OBJECT
  5
8F
102
{ACAD_REACTORS
330
6F
102
}
330
6F
100
AcDbZombieObject
 90
      499
 91
      502
 93
      225
310
90A3622203D2031272D302200000000000006100000000000000284000
  0
ACAD_PROXY_OBJECT
  5
90
102
{ACAD_REACTORS
330
6F
102
}
330
6F
100
AcDbZombieObject
 90
      499
 91
      502
 93
      249
310
90D31272D3022203D2031272D30220000000000000A100000000000000284000
  0
ACAD_PROXY_OBJECT
  5
2F
102
{ACAD_REACTORS
330
2A
102
}
330
2A
100
AcDbZombieObject
 90
      499
 91
      501
 93
      436
310
42CC9915DA5C99599C985B595049028333333333333E3BF0000000000000FB0107901411070040501600405405064090741402480A0340
1001
ACAD
1000
AcDbSavedByObjectVersion
1070
     0
  0
ACAD_PROXY_OBJECT
  5
31
102
{ACAD_REACTORS
330
2A
102
}
330
2A
100
AcDbZombieObject
 90
      499
 91
      501
 93
      500
310
424CD108121A5919195B90640502408333333333333E3BF0000000000000FB01079024090700405020000000000001110200405405064090740C02480A0340
1001
ACAD
1000
AcDbSavedByObjectVersion
1070
     0
  0
ACAD_PROXY_OBJECT
  5
30
102
{ACAD_REACTORS
330
2A
102
}
330
2A
100
AcDbZombieObject
 90
      499
 91
      501
 93
      436
310
42CCD915DA5C99599C985B595059028333333333333E3BF0000000000000FB0107901411070040501600405405064090741402480A0340
1001
ACAD
1000
AcDbSavedByObjectVersion
1070
     0
  0
ACAD_PROXY_OBJECT
  5
32
102
{ACAD_REACTORS
330
2A
102
}
330
2A
100
AcDbZombieObject
 90
      499
 91
      501
 93
      388
310
4150985CDA58D07406404333333333333E3BF0000000000000FB0107A41107004050150841D405064090741402480A0350
1001
ACAD
1000
AcDbSavedByObjectVersion
1070
     0
  0
ACAD_PROXY_OBJECT
  5
36
102
{ACAD_REACTORS
330
2A
102
}
330
2A
100
AcDbZombieObject
 90
      499
 91
      501
 93
      428
310
42109C9A59DA1D195B90C409028333333333333E3BF0000000000000FB010790141107004050150841D405064090741402480A029950
1001
ACAD
1000
AcDbSavedByObjectVersion
1070
     0
  0
ACAD_PROXY_OBJECT
  5
3A
102
{ACAD_REACTORS
330
2A
102
}
330
2A
100
AcDbZombieObject
 90
      499
 91
      501
 93
      452
310
42D0DBDB1BDC90DA185B99D95104090240C333333333333E3BF0000000000000FB0108901411070040501508421405064090741402480A0350
1001
ACAD
1000
AcDbSavedByObjectVersion
1070
     0
  0
ACAD_PROXY_OBJECT
  5
34
102
{ACAD_REACTORS
330
2A
102
}
330
2A
100
AcDbZombieObject
 90
      499
 91
      501
 93
      500
310
4290DBDB98D95C1D1D585B10940D028333333333333E3BF0000000000000FB0107902409070040501000000000000111010841D405064090740C02480A0340
1001
ACAD
1000
AcDbSavedByObjectVersion
1070
     0
  0
ACAD_PROXY_OBJECT
  5
35
102
{ACAD_REACTORS
330
2A
102
}
330
2A
100
AcDbZombieObject
 90
      499
 91
      501
 93
      412
310
40D11A5B50B409028333333333333E3BF0000000000000FB010790141107004050150841D405064090741402480A02677FFFFFD0
1001
ACAD
1000
AcDbSavedByObjectVersion
1070
     0
  0
ACAD_PROXY_OBJECT
  5
39
102
{ACAD_REACTORS
330
2A
102
}
330
2A
100
AcDbZombieObject
 90
      499
 91
      501
 93
      444
310
42D19858D95C185D1D195C9B90F409028333333333333E3BF0000000000000FB010790141107004050150841D405064090741402480A0350
1001
ACAD
1000
AcDbSavedByObjectVersion
1070
     0
  0
ACAD_PROXY_OBJECT
  5
2B
102
{ACAD_REACTORS
330
2A
102
}
330
2A
100
AcDbZombieObject
 90
      499
 91
      501
 93
      388
310
41119B185D240901404333333333333E3BF0000000000000F9010740A41107004050150841D405064090741402480A1B50
1001
ACAD
1000
AcDbSavedByObjectVersion
1070
     0
  0
ACAD_PROXY_OBJECT
  5
2C
102
{ACAD_REACTORS
330
2A
102
}
330
2A
100
AcDbZombieObject
 90
      499
 91
      501
 93
      476
310
43519B185D15DA5D1A115919D95CD0140901404333333333333E3BF0000000000000F9010740901411070040501600405405064090741402480A1B50
1001
ACAD
1000
AcDbSavedByObjectVersion
1070
     0
  0
ACAD_PROXY_OBJECT
  5
2D
102
{ACAD_REACTORS
330
2A
102
}
330
2A
100
AcDbZombieObject
 90
      499
 91
      501
 93
      412
310
41D1DBDD5C985D5910240902404333333333333E3BF0000000000000F9010740A411070040501641D405064090741402480A1B50
1001
ACAD
1000
AcDbSavedByObjectVersion
1070
     0
  0
ACAD_PROXY_OBJECT
  5
2E
102
{ACAD_REACTORS
330
2A
102
}
330
2A
100
AcDbZombieObject
 90
      499
 91
      501
 93
      500
310
4411DBDD5C985D5915DA5D1A115919D95CD0340902404333333333333E3BF0000000000000F9010740901411070040501600405405064090741402480A1B50
1001
ACAD
1000
AcDbSavedByObjectVersion
1070
     0
  0
ACAD_PROXY_OBJECT
  5
38
102
{ACAD_REACTORS
330
2A
102
}
330
2A
100
AcDbZombieObject
 90
      499
 91
      501
 93
      444
310
42D31A5B995C185D1D195C9B90E409028333333333333E3BF0000000000000FB010790141107004050750841D405064090741402483A0350
1001
ACAD
1000
AcDbSavedByObjectVersion
1070
     0
  0
ACAD_PROXY_OBJECT
  5
33
102
{ACAD_REACTORS
330
2A
102
}
330
2A
100
AcDbZombieObject
 90
      499
 91
      501
 93
      420
310
425499585B1A5CDD1A58D08409028333333333333E3BF0000000000000FB01079019070040501508421405064090741402480A1B40
1001
ACAD
1000
AcDbSavedByObjectVersion
1070
     0
  0
ACAD_PROXY_OBJECT
  5
37
102
{ACAD_REACTORS
330
2A
102
}
330
2A
100
AcDbZombieObject
 90
      499
 91
      501
 93
      412
310
41D51A1A58DAD95B90D409028333333333333E3BF0000000000000FB010790141107004050150C41D405064090741402480A0350
1001
ACAD
1000
AcDbSavedByObjectVersion
1070
     0
  0
DICTIONARYVAR
  5
205
102
{ACAD_REACTORS
330
202
102
}
330
202
100
DictionaryVariables
280
     0
  1
1:1
  0
DICTIONARYVAR
  5
206
102
{ACAD_REACTORS
330
202
102
}
330
202
100
DictionaryVariables
280
     0
  1
2
  0
DICTIONARYVAR
  5
207
102
{ACAD_REACTORS
330
202
102
}
330
202
100
DictionaryVariables
280
     0
  1
1
  0
ENDSEC
  0
EOF
