  0
SECTION
  2
HEADER
  9
$ACADVER
  1
AC1012
  9
$DWGCODEPAGE
  3
ansi_1252
  9
$INSBASE
 10
0.0
 20
0.0
 30
0.0
  9
$EXTMIN
 10
0.0
 20
0.0
 30
0.0
  9
$EXTMAX
 10
11.0
 20
8.5
 30
0.0
  9
$LIMMIN
 10
0.0
 20
0.0
  9
$LIMMAX
 10
11.0
 20
8.5
  9
$ORTHOMODE
 70
     0
  9
$REGENMODE
 70
     1
  9
$FILLMODE
 70
     1
  9
$QTEXTMODE
 70
     0
  9
$MIRRTEXT
 70
     1
  9
$DRAGMODE
 70
     2
  9
$LTSCALE
 40
1.0
  9
$OSMODE
 70
    37
  9
$ATTMODE
 70
     1
  9
$TEXTSIZE
 40
0.125
  9
$TRACEWID
 40
0.05
  9
$TEXTSTYLE
  7
STANDARD
  9
$CLAYER
  8
0
  9
$CELTYPE
  6
BYLAYER
  9
$CECOLOR
 62
   256
  9
$CELTSCALE
 40
1.0
  9
$DELOBJ
 70
     1
  9
$DISPSILH
 70
     0
  9
$DIMSCALE
 40
1.0
  9
$DIMASZ
 40
0.13
  9
$DIMEXO
 40
0.05
  9
$DIMDLI
 40
0.38
  9
$DIMRND
 40
0.0
  9
$DIMDLE
 40
0.0
  9
$DIMEXE
 40
0.125
  9
$DIMTP
 40
0.0
  9
$DIMTM
 40
0.0
  9
$DIMTXT
 40
0.125
  9
$DIMCEN
 40
0.09
  9
$DIMTSZ
 40
0.0
  9
$DIMTOL
 70
     0
  9
$DIMLIM
 70
     0
  9
$DIMTIH
 70
     1
  9
$DIMTOH
 70
     1
  9
$DIMSE1
 70
     0
  9
$DIMSE2
 70
     0
  9
$DIMTAD
 70
     0
  9
$DIMZIN
 70
     0
  9
$DIMBLK
  1

  9
$DIMASO
 70
     1
  9
$DIMSHO
 70
     1
  9
$DIMPOST
  1

  9
$DIMAPOST
  1

  9
$DIMALT
 70
     0
  9
$DIMALTD
 70
     2
  9
$DIMALTF
 40
25.4
  9
$DIMLFAC
 40
1.0
  9
$DIMTOFL
 70
     0
  9
$DIMTVP
 40
0.0
  9
$DIMTIX
 70
     0
  9
$DIMSOXD
 70
     0
  9
$DIMSAH
 70
     0
  9
$DIMBLK1
  1

  9
$DIMBLK2
  1

  9
$DIMSTYLE
  2
STANDARD
  9
$DIMCLRD
 70
     0
  9
$DIMCLRE
 70
     0
  9
$DIMCLRT
 70
     0
  9
$DIMTFAC
 40
1.0
  9
$DIMGAP
 40
0.06
  9
$DIMJUST
 70
     0
  9
$DIMSD1
 70
     0
  9
$DIMSD2
 70
     0
  9
$DIMTOLJ
 70
     1
  9
$DIMTZIN
 70
     0
  9
$DIMALTZ
 70
     0
  9
$DIMALTTZ
 70
     0
  9
$DIMFIT
 70
     3
  9
$DIMUPT
 70
     0
  9
$DIMUNIT
 70
     2
  9
$DIMDEC
 70
     3
  9
$DIMTDEC
 70
     3
  9
$DIMALTU
 70
     2
  9
$DIMALTTD
 70
     2
  9
$DIMTXSTY
  7
STANDARD
  9
$DIMAUNIT
 70
     0
  9
$LUNITS
 70
     2
  9
$LUPREC
 70
     2
  9
$SKETCHINC
 40
0.1
  9
$FILLETRAD
 40
0.5
  9
$AUNITS
 70
     0
  9
$AUPREC
 70
     2
  9
$MENU
  1
.
  9
$ELEVATION
 40
0.0
  9
$PELEVATION
 40
0.0
  9
$THICKNESS
 40
0.0
  9
$LIMCHECK
 70
     0
  9
$CHAMFERA
 40
0.5
  9
$CHAMFERB
 40
0.5
  9
$CHAMFERC
 40
1.0
  9
$CHAMFERD
 40
0.0
  9
$SKPOLY
 70
     0
  9
$TDCREATE
 40
2455784.013927697
  9
$TDUPDATE
 40
2455784.013927708
  9
$TDINDWG
 40
0.0000000116
  9
$TDUSRTIMER
 40
0.0000000116
  9
$USRTIMER
 70
     1
  9
$ANGBASE
 50
0.0
  9
$ANGDIR
 70
     0
  9
$PDMODE
 70
     0
  9
$PDSIZE
 40
-1.0
  9
$PLINEWID
 40
0.0
  9
$COORDS
 70
     1
  9
$SPLFRAME
 70
     0
  9
$SPLINETYPE
 70
     6
  9
$SPLINESEGS
 70
     8
  9
$ATTDIA
 70
     0
  9
$ATTREQ
 70
     1
  9
$HANDLING
 70
     1
  9
$HANDSEED
  5
47F
  9
$SURFTAB1
 70
     6
  9
$SURFTAB2
 70
     6
  9
$SURFTYPE
 70
     6
  9
$SURFU
 70
     6
  9
$SURFV
 70
     6
  9
$UCSNAME
  2

  9
$UCSORG
 10
0.0
 20
0.0
 30
0.0
  9
$UCSXDIR
 10
1.0
 20
0.0
 30
0.0
  9
$UCSYDIR
 10
0.0
 20
1.0
 30
0.0
  9
$PUCSNAME
  2

  9
$PUCSORG
 10
0.0
 20
0.0
 30
0.0
  9
$PUCSXDIR
 10
1.0
 20
0.0
 30
0.0
  9
$PUCSYDIR
 10
0.0
 20
1.0
 30
0.0
  9
$USERI1
 70
     0
  9
$USERI2
 70
     0
  9
$USERI3
 70
     0
  9
$USERI4
 70
     0
  9
$USERI5
 70
     0
  9
$USERR1
 40
0.0
  9
$USERR2
 40
0.0
  9
$USERR3
 40
0.0
  9
$USERR4
 40
0.0
  9
$USERR5
 40
0.0
  9
$WORLDVIEW
 70
     1
  9
$SHADEDGE
 70
     3
  9
$SHADEDIF
 70
    70
  9
$TILEMODE
 70
     1
  9
$MAXACTVP
 70
    64
  9
$PINSBASE
 10
0.0
 20
0.0
 30
0.0
  9
$PLIMCHECK
 70
     0
  9
$PEXTMIN
 10
1.0000000000E+20
 20
1.0000000000E+20
 30
1.0000000000E+20
  9
$PEXTMAX
 10
-1.0000000000E+20
 20
-1.0000000000E+20
 30
-1.0000000000E+20
  9
$PLIMMIN
 10
0.0
 20
0.0
  9
$PLIMMAX
 10
12.0
 20
9.0
  9
$UNITMODE
 70
     0
  9
$VISRETAIN
 70
     1
  9
$PLINEGEN
 70
     0
  9
$PSLTSCALE
 70
     1
  9
$TREEDEPTH
 70
  3020
  9
$PICKSTYLE
 70
     1
  9
$CMLSTYLE
  2
STANDARD
  9
$CMLJUST
 70
     0
  9
$CMLSCALE
 40
1.0
  9
$SAVEIMAGES
 70
     1
  0
ENDSEC
  0
SECTION
  2
CLASSES
  0
CLASS
  1
ACDBDICTIONARYWDFLT
  2
AcDbDictionaryWithDefault
  3
ObjectDBX Classes
 90
    32768
280
     0
281
     0
  0
CLASS
  1
VISUALSTYLE
  2
AcDbVisualStyle
  3
ObjectDBX Classes
 90
     4095
280
     0
281
     0
  0
CLASS
  1
SCALE
  2
AcDbScale
  3
ObjectDBX Classes
 90
     1153
280
     0
281
     0
  0
CLASS
  1
DICTIONARYVAR
  2
AcDbDictionaryVar
  3
ObjectDBX Classes
 90
        0
280
     0
281
     0
  0
CLASS
  1
XRECORD
  2
AcDbXrecord
  3
AutoCAD 2000
 90
    32768
280
     0
281
     0
  0
CLASS
  1
LWPOLYLINE
  2
AcDbPolyline
  3
AutoCAD 2000
 90
    32768
280
     0
281
     1
  0
CLASS
  1
HATCH
  2
AcDbHatch
  3
AutoCAD 2000
 90
    32768
280
     0
281
     1
  0
CLASS
  1
ACDBPLACEHOLDER
  2
AcDbPlaceHolder
  3
ObjectDBX Classes
 90
        0
280
     0
281
     0
  0
CLASS
  1
LAYOUT
  2
AcDbLayout
  3
ObjectDBX Classes
 90
        0
280
     0
281
     0
  0
ENDSEC
  0
SECTION
  2
TABLES
  0
TABLE
  2
VPORT
  5
8
330
0
100
AcDbSymbolTable
 70
     1
  0
VPORT
  5
29
330
8
100
AcDbSymbolTableRecord
100
AcDbViewportTableRecord
  2
*ACTIVE
 70
     0
 10
0.0
 20
0.0
 11
1.0
 21
1.0
 12
5.5
 22
4.25
 13
0.0
 23
0.0
 14
0.5
 24
0.5
 15
0.5
 25
0.5
 16
0.0
 26
0.0
 36
1.0
 17
0.0
 27
0.0
 37
0.0
 40
8.5
 41
1.2941176471
 42
50.0
 43
0.0
 44
0.0
 50
0.0
 51
0.0
 71
     0
 72
  2000
 73
     1
 74
     3
 75
     0
 76
     0
 77
     0
 78
     0
  0
ENDTAB
  0
TABLE
  2
LTYPE
  5
5
330
0
100
AcDbSymbolTable
 70
     6
  0
LTYPE
  5
14
330
5
100
AcDbSymbolTableRecord
100
AcDbLinetypeTableRecord
  2
BYBLOCK
 70
     0
  3

 72
    65
 73
     0
 40
0.0
  0
LTYPE
  5
15
330
5
100
AcDbSymbolTableRecord
100
AcDbLinetypeTableRecord
  2
BYLAYER
 70
     0
  3

 72
    65
 73
     0
 40
0.0
  0
LTYPE
  5
16
330
5
100
AcDbSymbolTableRecord
100
AcDbLinetypeTableRecord
  2
CONTINUOUS
 70
     0
  3
Solid line
 72
    65
 73
     0
 40
0.0
  0
LTYPE
  5
3B
330
5
100
AcDbSymbolTableRecord
100
AcDbLinetypeTableRecord
  2
HIDDEN
 70
     0
  3
Hidden __ __ __ __ __ __ __ __ __ __ __ __ __ __
 72
    65
 73
     2
 40
0.075
 49
0.05
 74
     0
 49
-0.025
 74
     0
  0
LTYPE
  5
3C
330
5
100
AcDbSymbolTableRecord
100
AcDbLinetypeTableRecord
  2
PHANTOM
 70
     0
  3
Phantom ______  __  __  ______  __  __  ______
 72
    65
 73
     6
 40
0.5
 49
0.25
 74
     0
 49
-0.05
 74
     0
 49
0.05
 74
     0
 49
-0.05
 74
     0
 49
0.05
 74
     0
 49
-0.05
 74
     0
  0
LTYPE
  5
3D
330
5
100
AcDbSymbolTableRecord
100
AcDbLinetypeTableRecord
  2
CENTER
 70
     0
  3
Center ____ _ ____ _ ____ _ ____ _ ____ _ ____
 72
    65
 73
     4
 40
0.4
 49
0.25
 74
     0
 49
-0.05
 74
     0
 49
0.05
 74
     0
 49
-0.05
 74
     0
  0
LTYPE
  5
3E
330
5
100
AcDbSymbolTableRecord
100
AcDbLinetypeTableRecord
  2
CENTERX2
 70
     0
  3
Center (2x) ________  __  ________  __  _____
 72
    65
 73
     4
 40
0.8
 49
0.5
 74
     0
 49
-0.1
 74
     0
 49
0.1
 74
     0
 49
-0.1
 74
     0
  0
LTYPE
  5
3F
330
5
100
AcDbSymbolTableRecord
100
AcDbLinetypeTableRecord
  2
DOT2
 70
     0
  3
Dot (.5x) ........................................
 72
    65
 73
     2
 40
0.025
 49
0.0
 74
     0
 49
-0.025
 74
     0
  0
ENDTAB
  0
TABLE
  2
LAYER
  5
2
330
0
100
AcDbSymbolTable
 70
     2
  0
LAYER
  5
10
330
2
100
AcDbSymbolTableRecord
100
AcDbLayerTableRecord
  2
0
 70
     0
 62
     7
  6
CONTINUOUS
  0
LAYER
  5
40
330
2
100
AcDbSymbolTableRecord
100
AcDbLayerTableRecord
  2
FORMAT
 70
     0
 62
     7
  6
CONTINUOUS
  0
ENDTAB
  0
TABLE
  2
STYLE
  5
3
330
0
100
AcDbSymbolTable
 70
     4
  0
STYLE
  5
11
330
3
100
AcDbSymbolTableRecord
100
AcDbTextStyleTableRecord
  2
STANDARD
 70
     0
 40
0.0
 41
1.0
 50
0.0
 71
     0
 42
0.2
  3
txt
  4

  0
STYLE
  5
6E
330
3
100
AcDbSymbolTableRecord
100
AcDbTextStyleTableRecord
  2
SLDTEXTSTYLE0
 70
     0
 40
0.0
 41
0.75
 50
0.0
 71
     0
 42
0.2
  3
TXT
  4

  0
STYLE
  5
93
330
3
100
AcDbSymbolTableRecord
100
AcDbTextStyleTableRecord
  2
SLDTEXTSTYLE1
 70
     0
 40
0.0
 41
0.6875
 50
0.0
 71
     0
 42
0.2
  3
TXT
  4

  0
STYLE
  5
99
330
3
100
AcDbSymbolTableRecord
100
AcDbTextStyleTableRecord
  2
SLDTEXTSTYLE2
 70
     0
 40
0.0
 41
0.6944444444
 50
0.0
 71
     0
 42
0.2
  3
TXT
  4

  0
ENDTAB
  0
TABLE
  2
VIEW
  5
6
330
0
100
AcDbSymbolTable
 70
     0
  0
ENDTAB
  0
TABLE
  2
UCS
  5
7
330
0
100
AcDbSymbolTable
 70
     0
  0
ENDTAB
  0
TABLE
  2
APPID
  5
9
330
0
100
AcDbSymbolTable
 70
     1
  0
APPID
  5
12
330
9
100
AcDbSymbolTableRecord
100
AcDbRegAppTableRecord
  2
ACAD
 70
     0
  0
ENDTAB
  0
TABLE
  2
DIMSTYLE
  5
A
330
0
100
AcDbSymbolTable
 70
     1
  0
DIMSTYLE
105
27
330
A
100
AcDbSymbolTableRecord
100
AcDbDimStyleTableRecord
  2
STANDARD
 70
     0
  3

  4

  5

  6

  7

 40
1.0
 41
0.18
 42
0.0625
 43
0.38
 44
0.18
 45
0.0
 46
0.0
 47
0.0
 48
0.0
140
0.18
141
0.09
142
0.0
143
25.4
144
1.0
145
0.0
146
1.0
147
0.09
 71
     0
 72
     0
 73
     1
 74
     1
 75
     0
 76
     0
 77
     0
 78
     0
170
     0
171
     2
172
     0
173
     0
174
     0
175
     0
176
     0
177
     0
178
     0
270
     2
271
     4
272
     4
273
     2
274
     2
340
11
275
     0
280
     0
281
     0
282
     0
283
     1
284
     0
285
     0
286
     0
287
     3
288
     0
  0
ENDTAB
  0
TABLE
  2
BLOCK_RECORD
  5
1
330
0
100
AcDbSymbolTable
 70
     4
  0
BLOCK_RECORD
  5
1F
330
1
100
AcDbSymbolTableRecord
100
AcDbBlockTableRecord
  2
*MODEL_SPACE
  0
BLOCK_RECORD
  5
1B
330
1
100
AcDbSymbolTableRecord
100
AcDbBlockTableRecord
  2
*PAPER_SPACE
  0
BLOCK_RECORD
  5
A8
330
1
100
AcDbSymbolTableRecord
100
AcDbBlockTableRecord
  2
SW_NOTE_0
  0
BLOCK_RECORD
  5
AE
330
1
100
AcDbSymbolTableRecord
100
AcDbBlockTableRecord
  2
SW_NOTE_1
  0
BLOCK_RECORD
  5
C2
330
1
100
AcDbSymbolTableRecord
100
AcDbBlockTableRecord
  2
SW_NOTE_2
  0
ENDTAB
  0
ENDSEC
  0
SECTION
  2
BLOCKS
  0
BLOCK
  5
20
330
1F
100
AcDbEntity
  8
0
100
AcDbBlockBegin
  2
*MODEL_SPACE
 70
     0
 10
0.0
 20
0.0
 30
0.0
  3
*MODEL_SPACE
  1

  0
ENDBLK
  5
21
330
1F
100
AcDbEntity
  8
0
100
AcDbBlockEnd
  0
BLOCK
  5
1C
330
1B
100
AcDbEntity
 67
     1
  8
0
100
AcDbBlockBegin
  2
*PAPER_SPACE
 70
     0
 10
0.0
 20
0.0
 30
0.0
  3
*PAPER_SPACE
  1

  0
ENDBLK
  5
1D
330
1B
100
AcDbEntity
 67
     1
  8
0
100
AcDbBlockEnd
  0
BLOCK
  5
A9
330
A8
100
AcDbEntity
  8
0
100
AcDbBlockBegin
  2
SW_NOTE_0
 70
     0
 10
0.0
 20
0.0
 30
0.0
  3
SW_NOTE_0
  1

  0
MTEXT
  5
AB
330
A8
100
AcDbEntity
  8
0
  6
CONTINUOUS
 62
     0
100
AcDbMText
 10
0.0
 20
0.0773440644
 30
0.0
 40
0.06
 41
0.0
 71
     1
 72
     1
  1
INTERPRET GEOMETRIC
  7
SLDTEXTSTYLE0
  0
MTEXT
  5
AC
330
A8
100
AcDbEntity
  8
0
  6
CONTINUOUS
 62
     0
100
AcDbMText
 10
0.0
 20
-0.0220260102
 30
0.0
 40
0.06
 41
0.0
 71
     1
 72
     1
  1
TOLERANCING PER:
  7
SLDTEXTSTYLE0
  0
ENDBLK
  5
AA
330
A8
100
AcDbEntity
  8
0
100
AcDbBlockEnd
  0
BLOCK
  5
AF
330
AE
100
AcDbEntity
  8
0
100
AcDbBlockBegin
  2
SW_NOTE_1
 70
     0
 10
0.0
 20
0.0
 30
0.0
  3
SW_NOTE_1
  1

  0
MTEXT
  5
B1
330
AE
100
AcDbEntity
  8
0
  6
CONTINUOUS
 62
     0
100
AcDbMText
 10
0.0
 20
0.0837894031
 30
0.0
 40
0.065
 41
0.0
 71
     1
 72
     1
  1
DIMENSIONS ARE IN INCHES
  7
SLDTEXTSTYLE0
  0
MTEXT
  5
B2
330
AE
100
AcDbEntity
  8
0
  6
CONTINUOUS
 62
     0
100
AcDbMText
 10
0.0
 20
-0.0205806729
 30
0.0
 40
0.065
 41
0.0
 71
     1
 72
     1
  1
TOLERANCES:
  7
SLDTEXTSTYLE0
  0
MTEXT
  5
B3
330
AE
100
AcDbEntity
  8
0
  6
CONTINUOUS
 62
     0
100
AcDbMText
 10
0.0
 20
-0.1249507489
 30
0.0
 40
0.065
 41
0.0
 71
     1
 72
     1
  1
FRACTIONAL
  7
SLDTEXTSTYLE0
  0
MTEXT
  5
B4
330
AE
100
AcDbEntity
  8
0
  6
CONTINUOUS
 62
     0
100
AcDbMText
 10
0.5175850875
 20
-0.1249507489
 30
0.0
 40
0.065
 41
0.0
 71
     1
 72
     1
  1
%%p
  7
SLDTEXTSTYLE0
  0
MTEXT
  5
B5
330
AE
100
AcDbEntity
  8
0
  6
CONTINUOUS
 62
     0
100
AcDbMText
 10
0.0
 20
-0.2293208248
 30
0.0
 40
0.065
 41
0.0
 71
     1
 72
     1
  1
ANGULAR: MACH
  7
SLDTEXTSTYLE0
  0
MTEXT
  5
B6
330
AE
100
AcDbEntity
  8
0
  6
CONTINUOUS
 62
     0
100
AcDbMText
 10
0.7233732769
 20
-0.2293208248
 30
0.0
 40
0.065
 41
0.0
 71
     1
 72
     1
  1
%%p
  7
SLDTEXTSTYLE0
  0
MTEXT
  5
B7
330
AE
100
AcDbEntity
  8
0
  6
CONTINUOUS
 62
     0
100
AcDbMText
 10
0.7852857683
 20
-0.2293208248
 30
0.0
 40
0.065
 41
0.0
 71
     1
 72
     1
  1
     BEND 
  7
SLDTEXTSTYLE0
  0
MTEXT
  5
B8
330
AE
100
AcDbEntity
  8
0
  6
CONTINUOUS
 62
     0
100
AcDbMText
 10
1.14784136
 20
-0.2293208248
 30
0.0
 40
0.065
 41
0.0
 71
     1
 72
     1
  1
%%p
  7
SLDTEXTSTYLE0
  0
MTEXT
  5
B9
330
AE
100
AcDbEntity
  8
0
  6
CONTINUOUS
 62
     0
100
AcDbMText
 10
0.0
 20
-0.3336909008
 30
0.0
 40
0.065
 41
0.0
 71
     1
 72
     1
  1
TWO PLACE DECIMAL    
  7
SLDTEXTSTYLE0
  0
MTEXT
  5
BA
330
AE
100
AcDbEntity
  8
0
  6
CONTINUOUS
 62
     0
100
AcDbMText
 10
0.9794349188
 20
-0.3336909008
 30
0.0
 40
0.065
 41
0.0
 71
     1
 72
     1
  1
%%p
  7
SLDTEXTSTYLE0
  0
MTEXT
  5
BB
330
AE
100
AcDbEntity
  8
0
  6
CONTINUOUS
 62
     0
100
AcDbMText
 10
0.0
 20
-0.4380609768
 30
0.0
 40
0.065
 41
0.0
 71
     1
 72
     1
  1
THREE PLACE DECIMAL  
  7
SLDTEXTSTYLE0
  0
MTEXT
  5
BC
330
AE
100
AcDbEntity
  8
0
  6
CONTINUOUS
 62
     0
100
AcDbMText
 10
0.9738038639
 20
-0.4380609768
 30
0.0
 40
0.065
 41
0.0
 71
     1
 72
     1
  1
%%p
  7
SLDTEXTSTYLE0
  0
ENDBLK
  5
B0
330
AE
100
AcDbEntity
  8
0
100
AcDbBlockEnd
  0
BLOCK
  5
C3
330
C2
100
AcDbEntity
  8
0
100
AcDbBlockBegin
  2
SW_NOTE_2
 70
     0
 10
0.0
 20
0.0
 30
0.0
  3
SW_NOTE_2
  1

  0
MTEXT
  5
C5
330
C2
100
AcDbEntity
  8
0
  6
CONTINUOUS
 62
     0
100
AcDbMText
 10
0.0
 20
0.0773440644
 30
0.0
 40
0.06
 41
0.0
 71
     1
 72
     1
  1
THE INFORMATION CONTAINED IN THIS
  7
SLDTEXTSTYLE0
  0
MTEXT
  5
C6
330
C2
100
AcDbEntity
  8
0
  6
CONTINUOUS
 62
     0
100
AcDbMText
 10
0.0
 20
-0.0220260102
 30
0.0
 40
0.06
 41
0.0
 71
     1
 72
     1
  1
DRAWING IS THE SOLE PROPERTY OF
  7
SLDTEXTSTYLE0
  0
MTEXT
  5
C7
330
C2
100
AcDbEntity
  8
0
  6
CONTINUOUS
 62
     0
100
AcDbMText
 10
0.0
 20
-0.1213960848
 30
0.0
 40
0.06
 41
0.0
 71
     1
 72
     1
  1
Candy Controls.  ANY 
  7
SLDTEXTSTYLE0
  0
MTEXT
  5
C8
330
C2
100
AcDbEntity
  8
0
  6
CONTINUOUS
 62
     0
100
AcDbMText
 10
0.0
 20
-0.2207661593
 30
0.0
 40
0.06
 41
0.0
 71
     1
 72
     1
  1
REPRODUCTION IN PART OR AS A WHOLE
  7
SLDTEXTSTYLE0
  0
MTEXT
  5
C9
330
C2
100
AcDbEntity
  8
0
  6
CONTINUOUS
 62
     0
100
AcDbMText
 10
0.0
 20
-0.3201362339
 30
0.0
 40
0.06
 41
0.0
 71
     1
 72
     1
  1
WITHOUT THE WRITTEN PERMISSION OF
  7
SLDTEXTSTYLE0
  0
MTEXT
  5
CA
330
C2
100
AcDbEntity
  8
0
  6
CONTINUOUS
 62
     0
100
AcDbMText
 10
0.0
 20
-0.4195063085
 30
0.0
 40
0.06
 41
0.0
 71
     1
 72
     1
  1
Candy Controls IS 
  7
SLDTEXTSTYLE0
  0
MTEXT
  5
CB
330
C2
100
AcDbEntity
  8
0
  6
CONTINUOUS
 62
     0
100
AcDbMText
 10
0.0
 20
-0.518876383
 30
0.0
 40
0.06
 41
0.0
 71
     1
 72
     1
  1
PROHIBITED.
  7
SLDTEXTSTYLE0
  0
ENDBLK
  5
C4
330
C2
100
AcDbEntity
  8
0
100
AcDbBlockEnd
  0
ENDSEC
  0
SECTION
  2
ENTITIES
  0
LINE
  5
41
330
1F
100
AcDbEntity
  8
0
  6
CONTINUOUS
 62
     7
100
AcDbLine
 10
0.329927
 20
8.1920731707
 30
0.0
 11
10.629927
 21
8.1920731707
 31
0.0
  0
LINE
  5
42
330
1F
100
AcDbEntity
  8
0
  6
CONTINUOUS
 62
     7
100
AcDbLine
 10
0.329927
 20
8.1920731707
 30
0.0
 11
0.329927
 21
0.3920731707
 31
0.0
  0
LINE
  5
43
330
1F
100
AcDbEntity
  8
0
  6
CONTINUOUS
 62
     7
100
AcDbLine
 10
10.629927
 20
0.3920731707
 30
0.0
 11
0.329927
 21
0.3920731707
 31
0.0
  0
LINE
  5
44
330
1F
100
AcDbEntity
  8
0
  6
CONTINUOUS
 62
     7
100
AcDbLine
 10
10.629927
 20
0.3920731707
 30
0.0
 11
10.629927
 21
8.1920731707
 31
0.0
  0
LINE
  5
45
330
1F
100
AcDbEntity
  8
0
  6
CONTINUOUS
 62
     7
100
AcDbLine
 10
4.7981841288
 20
0.3920731707
 30
0.0
 11
4.7981841288
 21
2.3564211366
 31
0.0
  0
LINE
  5
46
330
1F
100
AcDbEntity
  8
0
  6
CONTINUOUS
 62
     7
100
AcDbLine
 10
2.8210345579
 20
2.3564211366
 30
0.0
 11
10.629927
 21
2.3564211366
 31
0.0
  0
LINE
  5
47
330
1F
100
AcDbEntity
  8
0
  6
CONTINUOUS
 62
     7
100
AcDbLine
 10
6.1796352514
 20
2.3564211366
 30
0.0
 11
6.1796352514
 21
0.3920731707
 31
0.0
  0
LINE
  5
48
330
1F
100
AcDbEntity
  8
0
  6
CONTINUOUS
 62
     7
100
AcDbLine
 10
7.8712070044
 20
2.3564211366
 30
0.0
 11
7.8712070044
 21
0.3920731707
 31
0.0
  0
LINE
  5
49
330
1F
100
AcDbEntity
  8
0
  6
CONTINUOUS
 62
     7
100
AcDbLine
 10
7.8712070044
 20
0.6049590101
 30
0.0
 11
10.629927
 21
0.6049590101
 31
0.0
  0
LINE
  5
4A
330
1F
100
AcDbEntity
  8
0
  6
CONTINUOUS
 62
     7
100
AcDbLine
 10
7.8712070044
 20
1.1119362457
 30
0.0
 11
10.629927
 21
1.1119362457
 31
0.0
  0
LINE
  5
4B
330
1F
100
AcDbEntity
  8
0
  6
CONTINUOUS
 62
     7
100
AcDbLine
 10
7.8712070044
 20
1.9892703708
 30
0.0
 11
10.629927
 21
1.9892703708
 31
0.0
  0
LINE
  5
4C
330
1F
100
AcDbEntity
  8
0
  6
CONTINUOUS
 62
     7
100
AcDbLine
 10
8.266751752
 20
1.1119362457
 30
0.0
 11
8.266751752
 21
0.6049590101
 31
0.0
  0
LINE
  5
4D
330
1F
100
AcDbEntity
  8
0
  6
CONTINUOUS
 62
     7
100
AcDbLine
 10
8.6943435176
 20
0.6049590101
 30
0.0
 11
8.6943435176
 21
0.3920731707
 31
0.0
  0
LINE
  5
4E
330
1F
100
AcDbEntity
  8
0
  6
CONTINUOUS
 62
     7
100
AcDbLine
 10
10.0579917045
 20
1.1119362457
 30
0.0
 11
10.0579917045
 21
0.6049590101
 31
0.0
  0
LINE
  5
4F
330
1F
100
AcDbEntity
  8
0
  6
CONTINUOUS
 62
     7
100
AcDbLine
 10
9.6662556631
 20
0.6049590101
 30
0.0
 11
9.6662556631
 21
0.3920731707
 31
0.0
  0
LINE
  5
50
330
1F
100
AcDbEntity
  8
0
  6
CONTINUOUS
 62
     7
100
AcDbLine
 10
2.8210345579
 20
0.5883479999
 30
0.0
 11
6.1796352514
 21
0.5883479999
 31
0.0
  0
LINE
  5
51
330
1F
100
AcDbEntity
  8
0
  6
CONTINUOUS
 62
     7
100
AcDbLine
 10
6.1796352514
 20
1.7939211366
 30
0.0
 11
7.8712070044
 21
1.7939211366
 31
0.0
  0
LINE
  5
52
330
1F
100
AcDbEntity
  8
0
  6
CONTINUOUS
 62
     7
100
AcDbLine
 10
6.1796352514
 20
1.9814211366
 30
0.0
 11
7.8712070044
 21
1.9814211366
 31
0.0
  0
LINE
  5
53
330
1F
100
AcDbEntity
  8
0
  6
CONTINUOUS
 62
     7
100
AcDbLine
 10
6.1796352514
 20
2.1689211366
 30
0.0
 11
7.8712070044
 21
2.1689211366
 31
0.0
  0
LINE
  5
54
330
1F
100
AcDbEntity
  8
0
  6
CONTINUOUS
 62
     7
100
AcDbLine
 10
7.8712070044
 20
1.2314211366
 30
0.0
 11
6.1796352514
 21
1.2314211366
 31
0.0
  0
LINE
  5
55
330
1F
100
AcDbEntity
  8
0
  6
CONTINUOUS
 62
     7
100
AcDbLine
 10
7.3921580388
 20
2.3564211366
 30
0.0
 11
7.3921580388
 21
1.2314211366
 31
0.0
  0
LINE
  5
56
330
1F
100
AcDbEntity
  8
0
  6
CONTINUOUS
 62
     7
100
AcDbLine
 10
6.9236308342
 20
2.3564211366
 30
0.0
 11
6.9236308342
 21
1.2314211366
 31
0.0
  0
LINE
  5
57
330
1F
100
AcDbEntity
  8
0
  6
CONTINUOUS
 62
     7
100
AcDbLine
 10
4.7981841288
 20
0.8557965305
 30
0.0
 11
6.1796352514
 21
0.8557965305
 31
0.0
  0
LINE
  5
58
330
1F
100
AcDbEntity
  8
0
  6
CONTINUOUS
 62
     7
100
AcDbLine
 10
4.7981841288
 20
1.1257965305
 30
0.0
 11
6.1796352514
 21
1.1257965305
 31
0.0
  0
LINE
  5
59
330
1F
100
AcDbEntity
  8
0
  6
CONTINUOUS
 62
     7
100
AcDbLine
 10
2.8210345579
 20
0.3920731707
 30
0.0
 11
2.8210345579
 21
2.3564211366
 31
0.0
  0
LINE
  5
5A
330
1F
100
AcDbEntity
  8
0
  6
CONTINUOUS
 62
     7
100
AcDbLine
 10
2.8210345579
 20
1.1064211366
 30
0.0
 11
4.7981841288
 21
1.1064211366
 31
0.0
  0
LINE
  5
5B
330
1F
100
AcDbEntity
  8
0
  6
CONTINUOUS
 62
     7
100
AcDbLine
 10
2.8210345579
 20
1.3564211366
 30
0.0
 11
4.7981841288
 21
1.3564211366
 31
0.0
  0
LINE
  5
5C
330
1F
100
AcDbEntity
  8
0
  6
CONTINUOUS
 62
     7
100
AcDbLine
 10
2.8210345579
 20
1.6064211366
 30
0.0
 11
4.7981841288
 21
1.6064211366
 31
0.0
  0
LINE
  5
5D
330
1F
100
AcDbEntity
  8
0
  6
CONTINUOUS
 62
     7
100
AcDbLine
 10
2.8210345579
 20
1.8564211366
 30
0.0
 11
4.7981841288
 21
1.8564211366
 31
0.0
  0
LINE
  5
5E
330
1F
100
AcDbEntity
  8
0
  6
CONTINUOUS
 62
     7
100
AcDbLine
 10
3.8190146875
 20
2.3564211366
 30
0.0
 11
3.8190146875
 21
0.5883479999
 31
0.0
  0
LINE
  5
5F
330
1F
100
AcDbEntity
  8
0
  6
CONTINUOUS
 62
     7
100
AcDbLine
 10
6.1796352514
 20
2.2020813496
 30
0.0
 11
4.7981841288
 21
2.2020813496
 31
0.0
  0
LINE
  5
60
330
1F
100
AcDbEntity
  8
0
  6
CONTINUOUS
 62
     7
100
AcDbLine
 10
7.8712070044
 20
1.6064211366
 30
0.0
 11
6.1796352514
 21
1.6064211366
 31
0.0
  0
LINE
  5
61
330
1F
100
AcDbEntity
  8
0
  6
CONTINUOUS
 62
     7
100
AcDbLine
 10
7.8712070044
 20
1.4189211366
 30
0.0
 11
6.1796352514
 21
1.4189211366
 31
0.0
  0
LINE
  5
62
330
1F
100
AcDbEntity
  8
0
  6
CONTINUOUS
 62
     7
100
AcDbLine
 10
2.8210345579
 20
2.1064211366
 30
0.0
 11
4.7981841288
 21
2.1064211366
 31
0.0
  0
LINE
  5
63
330
1F
100
AcDbEntity
  8
0
  6
CONTINUOUS
 62
     7
100
AcDbLine
 10
4.7981841288
 20
1.3957965305
 30
0.0
 11
6.1796352514
 21
1.3957965305
 31
0.0
  0
LINE
  5
64
330
1F
100
AcDbEntity
  8
0
  6
CONTINUOUS
 62
     7
100
AcDbLine
 10
2.8210345579
 20
0.8564211366
 30
0.0
 11
4.7981841288
 21
0.8564211366
 31
0.0
  0
LINE
  5
65
330
1F
100
AcDbEntity
  8
0
  6
CONTINUOUS
 62
     7
100
AcDbLine
 10
1.1838252943
 20
0.3920731707
 30
0.0
 11
1.1838252943
 21
1.3064211366
 31
0.0
  0
LINE
  5
66
330
1F
100
AcDbEntity
  8
0
  6
CONTINUOUS
 62
     7
100
AcDbLine
 10
2.8210345579
 20
1.3064211366
 30
0.0
 11
1.1838252943
 21
1.3064211366
 31
0.0
  0
LINE
  5
67
330
1F
100
AcDbEntity
  8
0
  6
CONTINUOUS
 62
     7
100
AcDbLine
 10
8.660927
 20
0.3920731707
 30
0.0
 11
8.660927
 21
0.3072739649
 31
0.0
  0
LINE
  5
68
330
1F
100
AcDbEntity
  8
0
  6
CONTINUOUS
 62
     7
100
AcDbLine
 10
6.692177
 20
0.3920731707
 30
0.0
 11
6.692177
 21
0.3072739649
 31
0.0
  0
LINE
  5
69
330
1F
100
AcDbEntity
  8
0
  6
CONTINUOUS
 62
     7
100
AcDbLine
 10
4.723427
 20
0.3920731707
 30
0.0
 11
4.723427
 21
0.3072739649
 31
0.0
  0
LINE
  5
6A
330
1F
100
AcDbEntity
  8
0
  6
CONTINUOUS
 62
     7
100
AcDbLine
 10
2.754677
 20
0.3920731707
 30
0.0
 11
2.754677
 21
0.3072739649
 31
0.0
  0
LINE
  5
6B
330
1F
100
AcDbEntity
  8
0
  6
CONTINUOUS
 62
     7
100
AcDbLine
 10
2.754677
 20
0.3920731707
 30
0.0
 11
2.7672319738
 21
0.3575
 31
0.0
  0
LINE
  5
6C
330
1F
100
AcDbEntity
  8
0
  6
CONTINUOUS
 62
     7
100
AcDbLine
 10
2.7672319738
 20
0.3575
 30
0.0
 11
2.7414258825
 21
0.3575
 31
0.0
  0
LINE
  5
6D
330
1F
100
AcDbEntity
  8
0
  6
CONTINUOUS
 62
     7
100
AcDbLine
 10
2.7414258825
 20
0.3575
 30
0.0
 11
2.754677
 21
0.3920731707
 31
0.0
  0
MTEXT
  5
91
330
1F
100
AcDbEntity
  8
0
  6
CONTINUOUS
 62
     7
100
AcDbMText
 10
4.9775846961
 20
0.5178452352
 30
0.0
 40
0.0625
 41
0.0
 71
     1
 72
     1
  1
DO NOT SCALE DRAWING
  7
SLDTEXTSTYLE0
  0
MTEXT
  5
92
330
1F
100
AcDbEntity
  8
0
  6
CONTINUOUS
 62
     7
100
AcDbMText
 10
8.5266605784
 20
0.9417064595
 30
0.0
 40
0.125
 41
0.0
 71
     1
 72
     1
  1
CL2-200_CLAMP
  7
SLDTEXTSTYLE0
  0
MTEXT
  5
94
330
1F
100
AcDbEntity
  8
0
  6
CONTINUOUS
 62
     7
100
AcDbMText
 10
9.7571278483
 20
0.5524239532
 30
0.0
 40
0.1
 41
0.0
 71
     1
 72
     1
  1
SHEET 1 OF 1
  7
SLDTEXTSTYLE1
  0
MTEXT
  5
95
330
1F
100
AcDbEntity
  8
0
  6
CONTINUOUS
 62
     7
100
AcDbMText
 10
4.8448077858
 20
2.3132954224
 30
0.0
 40
0.07
 41
0.0
 71
     1
 72
     1
  1
UNLESS OTHERWISE SPECIFIED:
  7
SLDTEXTSTYLE0
  0
MTEXT
  5
96
330
1F
100
AcDbEntity
  8
0
  6
CONTINUOUS
 62
     7
100
AcDbMText
 10
7.9586139647
 20
0.5520987879
 30
0.0
 40
0.1
 41
0.0
 71
     1
 72
     1
  1
SCALE: 1:1
  7
SLDTEXTSTYLE0
  0
MTEXT
  5
97
330
1F
100
AcDbEntity
  8
0
  6
CONTINUOUS
 62
     7
100
AcDbMText
 10
8.7023691647
 20
0.5486763345
 30
0.0
 40
0.1
 41
0.0
 71
     1
 72
     1
  1
WEIGHT: 
  7
SLDTEXTSTYLE0
  0
MTEXT
  5
98
330
1F
100
AcDbEntity
  8
0
  6
CONTINUOUS
 62
     7
100
AcDbMText
 10
10.2277580983
 20
1.081966299
 30
0.0
 40
0.1
 41
0.0
 71
     1
 72
     1
  1
REV
  7
SLDTEXTSTYLE0
  0
MTEXT
  5
9A
330
1F
100
AcDbEntity
  8
0
  6
CONTINUOUS
 62
     7
100
AcDbMText
 10
8.2984570898
 20
1.0858725293
 30
0.0
 40
0.1
 41
0.0
 71
     1
 72
     1
  1
DWG.  NO.
  7
SLDTEXTSTYLE2
  0
MTEXT
  5
9B
330
1F
100
AcDbEntity
  8
0
  6
CONTINUOUS
 62
     7
100
AcDbMText
 10
7.9598482632
 20
0.9442140768
 30
0.0
 40
0.25
 41
0.0
 71
     1
 72
     1
  1
A
  7
SLDTEXTSTYLE0
  0
MTEXT
  5
9C
330
1F
100
AcDbEntity
  8
0
  6
CONTINUOUS
 62
     7
100
AcDbMText
 10
7.9519581822
 20
1.0872713483
 30
0.0
 40
0.1
 41
0.0
 71
     1
 72
     1
  1
SIZE
  7
SLDTEXTSTYLE0
  0
MTEXT
  5
9D
330
1F
100
AcDbEntity
  8
0
  6
CONTINUOUS
 62
     7
100
AcDbMText
 10
7.9170704177
 20
1.9547881128
 30
0.0
 40
0.1
 41
0.0
 71
     1
 72
     1
  1
TITLE:
  7
SLDTEXTSTYLE0
  0
MTEXT
  5
9E
330
1F
100
AcDbEntity
  8
0
  6
CONTINUOUS
 62
     7
100
AcDbMText
 10
7.0363774929
 20
2.2906161274
 30
0.0
 40
0.065
 41
0.0
 71
     1
 72
     1
  1
NAME
  7
SLDTEXTSTYLE0
  0
MTEXT
  5
9F
330
1F
100
AcDbEntity
  8
0
  6
CONTINUOUS
 62
     7
100
AcDbMText
 10
7.5281510634
 20
2.2888799118
 30
0.0
 40
0.065
 41
0.0
 71
     1
 72
     1
  1
DATE
  7
SLDTEXTSTYLE0
  0
MTEXT
  5
A0
330
1F
100
AcDbEntity
  8
0
  6
CONTINUOUS
 62
     7
100
AcDbMText
 10
6.2277147029
 20
1.1876913145
 30
0.0
 40
0.065
 41
0.0
 71
     1
 72
     1
  1
COMMENTS:
  7
SLDTEXTSTYLE0
  0
MTEXT
  5
A1
330
1F
100
AcDbEntity
  8
0
  6
CONTINUOUS
 62
     7
100
AcDbMText
 10
6.2268411461
 20
1.3536101679
 30
0.0
 40
0.065
 41
0.0
 71
     1
 72
     1
  1
Q.A.
  7
SLDTEXTSTYLE0
  0
MTEXT
  5
A2
330
1F
100
AcDbEntity
  8
0
  6
CONTINUOUS
 62
     7
100
AcDbMText
 10
6.2284654509
 20
1.5395328424
 30
0.0
 40
0.065
 41
0.0
 71
     1
 72
     1
  1
MFG APPR.
  7
SLDTEXTSTYLE0
  0
MTEXT
  5
A3
330
1F
100
AcDbEntity
  8
0
  6
CONTINUOUS
 62
     7
100
AcDbMText
 10
6.2235171344
 20
1.7267501785
 30
0.0
 40
0.065
 41
0.0
 71
     1
 72
     1
  1
ENG APPR.
  7
SLDTEXTSTYLE0
  0
MTEXT
  5
A4
330
1F
100
AcDbEntity
  8
0
  6
CONTINUOUS
 62
     7
100
AcDbMText
 10
6.2264103951
 20
1.9092699088
 30
0.0
 40
0.065
 41
0.0
 71
     1
 72
     1
  1
CHECKED
  7
SLDTEXTSTYLE0
  0
MTEXT
  5
A5
330
1F
100
AcDbEntity
  8
0
  6
CONTINUOUS
 62
     7
100
AcDbMText
 10
6.2242794356
 20
2.1016301232
 30
0.0
 40
0.065
 41
0.0
 71
     1
 72
     1
  1
DRAWN
  7
SLDTEXTSTYLE0
  0
MTEXT
  5
A6
330
1F
100
AcDbEntity
  8
0
  6
CONTINUOUS
 62
     7
100
AcDbMText
 10
4.8208600979
 20
0.834523235
 30
0.0
 40
0.06
 41
0.0
 71
     1
 72
     1
  1
FINISH
  7
SLDTEXTSTYLE0
  0
MTEXT
  5
A7
330
1F
100
AcDbEntity
  8
0
  6
CONTINUOUS
 62
     7
100
AcDbMText
 10
4.8181240648
 20
1.1028217587
 30
0.0
 40
0.06
 41
0.0
 71
     1
 72
     1
  1
MATERIAL
  7
SLDTEXTSTYLE0
  0
INSERT
  5
AD
330
1F
100
AcDbEntity
  8
0
  6
CONTINUOUS
 62
     7
100
AcDbBlockReference
  2
SW_NOTE_0
 10
4.8231926633
 20
1.2646542947
 30
0.0
  0
INSERT
  5
BD
330
1F
100
AcDbEntity
  8
0
  6
CONTINUOUS
 62
     7
100
AcDbBlockReference
  2
SW_NOTE_1
 10
4.8353339353
 20
2.0049168724
 30
0.0
  0
MTEXT
  5
BE
330
1F
100
AcDbEntity
  8
0
  6
CONTINUOUS
 62
     7
100
AcDbMText
 10
3.5531400086
 20
0.5200091997
 30
0.0
 40
0.0625
 41
0.0
 71
     1
 72
     1
  1
APPLICATION
  7
SLDTEXTSTYLE0
  0
MTEXT
  5
BF
330
1F
100
AcDbEntity
  8
0
  6
CONTINUOUS
 62
     7
100
AcDbMText
 10
4.1005607758
 20
0.7502454275
 30
0.0
 40
0.0625
 41
0.0
 71
     1
 72
     1
  1
USED ON
  7
SLDTEXTSTYLE0
  0
MTEXT
  5
C0
330
1F
100
AcDbEntity
  8
0
  6
CONTINUOUS
 62
     7
100
AcDbMText
 10
3.1040019536
 20
0.7492094783
 30
0.0
 40
0.0625
 41
0.0
 71
     1
 72
     1
  1
NEXT ASSY
  7
SLDTEXTSTYLE0
  0
MTEXT
  5
C1
330
1F
100
AcDbEntity
  8
0
  6
CONTINUOUS
 62
     7
100
AcDbMText
 10
1.3712489489
 20
1.2496672684
 30
0.0
 40
0.06
 41
0.0
 71
     1
 72
     1
  1
PROPRIETARY AND CONFIDENTIAL
  7
SLDTEXTSTYLE0
  0
INSERT
  5
CC
330
1F
100
AcDbEntity
  8
0
  6
CONTINUOUS
 62
     7
100
AcDbBlockReference
  2
SW_NOTE_2
 10
1.2226209074
 20
1.0313492921
 30
0.0
  0
MTEXT
  5
CD
330
1F
100
AcDbEntity
  8
0
  6
CONTINUOUS
 62
     7
100
AcDbMText
 10
1.7387909509
 20
0.3105864247
 30
0.0
 40
0.09375
 41
0.0
 71
     1
 72
     1
  1
5
  7
SLDTEXTSTYLE0
  0
MTEXT
  5
CE
330
1F
100
AcDbEntity
  8
0
  6
CONTINUOUS
 62
     7
100
AcDbMText
 10
3.723800327
 20
0.3137237518
 30
0.0
 40
0.09375
 41
0.0
 71
     1
 72
     1
  1
4
  7
SLDTEXTSTYLE0
  0
MTEXT
  5
CF
330
1F
100
AcDbEntity
  8
0
  6
CONTINUOUS
 62
     7
100
AcDbMText
 10
5.6324457277
 20
0.3116191842
 30
0.0
 40
0.09375
 41
0.0
 71
     1
 72
     1
  1
3
  7
SLDTEXTSTYLE0
  0
MTEXT
  5
D0
330
1F
100
AcDbEntity
  8
0
  6
CONTINUOUS
 62
     7
100
AcDbMText
 10
7.6059721724
 20
0.3124391351
 30
0.0
 40
0.09375
 41
0.0
 71
     1
 72
     1
  1
2
  7
SLDTEXTSTYLE0
  0
MTEXT
  5
D1
330
1F
100
AcDbEntity
  8
0
  6
CONTINUOUS
 62
     7
100
AcDbMText
 10
9.6619921328
 20
0.301372012
 30
0.0
 40
0.09375
 41
0.0
 71
     1
 72
     1
  1
1
  7
SLDTEXTSTYLE0
  0
LINE
  5
D2
330
1F
100
AcDbEntity
  8
0
  6
CONTINUOUS
 62
     7
100
AcDbLine
 10
2.86994319
 20
2.7586782864
 30
0.0
 11
3.7833290168
 21
2.7586782864
 31
0.0
  0
LINE
  5
D3
330
1F
100
AcDbEntity
  8
0
  6
CONTINUOUS
 62
     7
100
AcDbLine
 10
2.3326990955
 20
2.7586782864
 30
0.0
 11
2.8502581506
 21
2.7586782864
 31
0.0
  0
LINE
  5
D4
330
1F
100
AcDbEntity
  8
0
  6
CONTINUOUS
 62
     7
100
AcDbLine
 10
2.8502581506
 20
4.7586782864
 30
0.0
 11
2.3326990955
 21
4.7586782864
 31
0.0
  0
LINE
  5
D5
330
1F
100
AcDbEntity
  8
0
  6
CONTINUOUS
 62
     7
100
AcDbLine
 10
4.3205731113
 20
4.7586782864
 30
0.0
 11
2.86994319
 21
4.7586782864
 31
0.0
  0
LINE
  5
D6
330
1F
100
AcDbEntity
  8
0
  6
CONTINUOUS
 62
     7
100
AcDbLine
 10
4.3305731113
 20
4.7486782864
 30
0.0
 11
4.3205731113
 21
4.7586782864
 31
0.0
  0
LINE
  5
D7
330
1F
100
AcDbEntity
  8
0
  6
CONTINUOUS
 62
     7
100
AcDbLine
 10
2.3326990955
 20
4.7586782864
 30
0.0
 11
2.3226990955
 21
4.7486782864
 31
0.0
  0
LINE
  5
D8
330
1F
100
AcDbEntity
  8
0
  6
CONTINUOUS
 62
     7
100
AcDbLine
 10
2.3226990955
 20
2.7686782864
 30
0.0
 11
2.3326990955
 21
2.7586782864
 31
0.0
  0
LINE
  5
D9
330
1F
100
AcDbEntity
  8
0
  6
CONTINUOUS
 62
     7
100
AcDbLine
 10
2.3326990955
 20
4.7586782864
 30
0.0
 11
2.3326990955
 21
2.7586782864
 31
0.0
  0
LINE
  5
DA
330
1F
100
AcDbEntity
  8
0
  6
CONTINUOUS
 62
     7
100
AcDbLine
 10
2.8502581506
 20
4.5447697161
 30
0.0
 11
2.8502581506
 21
4.7586782864
 31
0.0
  0
LINE
  5
DB
330
1F
100
AcDbEntity
  8
0
  6
CONTINUOUS
 62
     7
100
AcDbLine
 10
2.86994319
 20
4.5447697161
 30
0.0
 11
2.8502581506
 21
4.5447697161
 31
0.0
  0
LINE
  5
DC
330
1F
100
AcDbEntity
  8
0
  6
CONTINUOUS
 62
     7
100
AcDbLine
 10
2.86994319
 20
2.9725868567
 30
0.0
 11
2.86994319
 21
2.7586782864
 31
0.0
  0
LINE
  5
DD
330
1F
100
AcDbEntity
  8
0
  6
CONTINUOUS
 62
     7
100
AcDbLine
 10
2.86994319
 20
4.7586782864
 30
0.0
 11
2.86994319
 21
4.5447697161
 31
0.0
  0
LINE
  5
DE
330
1F
100
AcDbEntity
  8
0
  6
CONTINUOUS
 62
     7
100
AcDbLine
 10
2.8502581506
 20
2.9725868567
 30
0.0
 11
2.86994319
 21
2.9725868567
 31
0.0
  0
LINE
  5
DF
330
1F
100
AcDbEntity
  8
0
  6
CONTINUOUS
 62
     7
100
AcDbLine
 10
2.8502581506
 20
2.7586782864
 30
0.0
 11
2.8502581506
 21
2.9725868567
 31
0.0
  0
LINE
  5
E0
330
1F
100
AcDbEntity
  8
0
  6
CONTINUOUS
 62
     7
100
AcDbLine
 10
4.3205731113
 20
2.7587267252
 30
0.0
 11
3.8030140561
 21
2.7587267252
 31
0.0
  0
LINE
  5
E1
330
1F
100
AcDbEntity
  8
0
  6
CONTINUOUS
 62
     7
100
AcDbLine
 10
3.8030140561
 20
4.1405680502
 30
0.0
 11
3.8030140561
 21
2.7587267252
 31
0.0
  0
LINE
  5
E2
330
1F
100
AcDbEntity
  8
0
  6
CONTINUOUS
 62
     7
100
AcDbLine
 10
3.7833290168
 20
4.1405680502
 30
0.0
 11
3.8030140561
 21
4.1405680502
 31
0.0
  0
LINE
  5
E3
330
1F
100
AcDbEntity
  8
0
  6
CONTINUOUS
 62
     7
100
AcDbLine
 10
3.7833290168
 20
2.7586782864
 30
0.0
 11
3.7833290168
 21
4.1405680502
 31
0.0
  0
LINE
  5
E4
330
1F
100
AcDbEntity
  8
0
  6
CONTINUOUS
 62
     7
100
AcDbLine
 10
4.3205731113
 20
2.7587267252
 30
0.0
 11
4.3205731113
 21
4.7586782864
 31
0.0
  0
SPLINE
  5
E5
330
1F
100
AcDbEntity
  8
0
  6
CONTINUOUS
 62
     7
100
AcDbSpline
210
0.0
220
0.0
230
1.0
 70
     8
 71
     3
 72
    86
 73
    82
 74
     0
 42
0.00000001
 43
0.00000001
 40
-0.03125
 40
-0.03125
 40
0.0
 40
0.0
 40
0.0625
 40
0.0625
 40
0.0937499999999999
 40
0.0937499999999999
 40
0.1249999999999997
 40
0.1249999999999997
 40
0.1562499999999995
 40
0.1562499999999995
 40
0.1874999999999994
 40
0.1874999999999994
 40
0.2031249999999993
 40
0.2031249999999993
 40
0.2187499999999992
 40
0.2187499999999992
 40
0.2499999999999989
 40
0.2499999999999989
 40
0.2656249999999988
 40
0.2656249999999988
 40
0.2812499999999987
 40
0.2812499999999987
 40
0.2968749999999987
 40
0.2968749999999987
 40
0.3124999999999986
 40
0.3124999999999986
 40
0.3281249999999986
 40
0.3281249999999986
 40
0.3437499999999986
 40
0.3437499999999986
 40
0.3749999999999983
 40
0.3749999999999983
 40
0.4062499999999981
 40
0.4062499999999981
 40
0.4374999999999979
 40
0.4374999999999979
 40
0.4687499999999977
 40
0.4687499999999977
 40
0.4999999999999975
 40
0.4999999999999975
 40
0.5312499999999972
 40
0.5312499999999972
 40
0.562499999999997
 40
0.562499999999997
 40
0.578124999999997
 40
0.578124999999997
 40
0.593749999999997
 40
0.593749999999997
 40
0.624999999999997
 40
0.624999999999997
 40
0.6562499999999971
 40
0.6562499999999971
 40
0.6874999999999971
 40
0.6874999999999971
 40
0.7031249999999972
 40
0.7031249999999972
 40
0.7187499999999973
 40
0.7187499999999973
 40
0.7343749999999974
 40
0.7343749999999974
 40
0.7499999999999976
 40
0.7499999999999976
 40
0.7812499999999981
 40
0.7812499999999981
 40
0.8124999999999987
 40
0.8124999999999987
 40
0.8281249999999989
 40
0.8281249999999989
 40
0.8437499999999991
 40
0.8437499999999991
 40
0.8593749999999993
 40
0.8593749999999993
 40
0.8749999999999996
 40
0.8749999999999996
 40
0.9062499999999998
 40
0.9062499999999998
 40
0.9374999999999999
 40
0.9374999999999999
 40
0.96875
 40
0.96875
 40
1.0
 40
1.0
 40
1.0625
 40
1.0625
 10
4.283329016770379
 20
3.153767214679829
 30
0.0
 10
4.283329016770379
 20
3.114550091663999
 30
0.0
 10
4.278747718777409
 20
3.090025288145815
 30
0.0
 10
4.266182681093832
 20
3.055356262337217
 30
0.0
 10
4.261028222193876
 20
3.044219639754122
 30
0.0
 10
4.249045657592167
 20
3.023141700522739
 30
0.0
 10
4.242196202028024
 20
3.013132609732652
 30
0.0
 10
4.226660017767034
 20
2.994131118865317
 30
0.0
 10
4.217907271727819
 20
2.985079945886255
 30
0.0
 10
4.198526975187922
 20
2.968364762720661
 30
0.0
 10
4.187940661262963
 20
2.960702602096481
 30
0.0
 10
4.170273890103902
 20
2.950363611754123
 30
0.0
 10
4.164046143276117
 20
2.947095807847412
 30
0.0
 10
4.151072034157269
 20
2.941105791254905
 30
0.0
 10
4.144324703068143
 20
2.938377584274347
 30
0.0
 10
4.12314383311273
 20
2.931087458893359
 30
0.0
 10
4.107560945772046
 20
2.927408383396103
 30
0.0
 10
4.083277801284615
 20
2.924634111531849
 30
0.0
 10
4.074879581115097
 20
2.924151971623154
 30
0.0
 10
4.058314133334775
 20
2.924167021647255
 30
0.0
 10
4.050117405203147
 20
2.924648017196605
 30
0.0
 10
4.03388703579967
 20
2.926518548876831
 30
0.0
 10
4.025853466807246
 20
2.927920532050325
 30
0.0
 10
4.010580570543286
 20
2.931436395848006
 30
0.0
 10
4.003245827773879
 20
2.933558615184767
 30
0.0
 10
3.989080199613303
 20
2.938446569670943
 30
0.0
 10
3.982241561156519
 20
2.94122263638844
 30
0.0
 10
3.969330966024823
 20
2.947202610983326
 30
0.0
 10
3.963206144064024
 20
2.950423336574167
 30
0.0
 10
3.945647489039371
 20
2.960708025248898
 30
0.0
 10
3.934948366675804
 20
2.968451671864884
 30
0.0
 10
3.915605490714208
 20
2.985153749698706
 30
0.0
 10
3.906990111933888
 20
2.994066441231068
 30
0.0
 10
3.891502078898098
 20
3.01298452220518
 30
0.0
 10
3.88463477657458
 20
3.022990966515614
 30
0.0
 10
3.872580884366036
 20
3.044167847513633
 30
0.0
 10
3.867439505705296
 20
3.055290162647904
 30
0.0
 10
3.859117964523023
 20
3.078190083846336
 30
0.0
 10
3.855900770082442
 20
3.090029773894743
 30
0.0
 10
3.851482339167369
 20
3.114545351409889
 30
0.0
 10
3.850281834430525
 20
3.127321970644818
 30
0.0
 10
3.850235166205536
 20
3.153289403769102
 30
0.0
 10
3.851370039141958
 20
3.166410544503513
 30
0.0
 10
3.855000145324365
 20
3.18626220849211
 30
0.0
 10
3.856533144633815
 20
3.192907612329799
 30
0.0
 10
3.860302351149248
 20
3.206246321443508
 30
0.0
 10
3.862552011208779
 20
3.212968059054828
 30
0.0
 10
3.870314601150729
 20
3.232810964868271
 30
0.0
 10
3.87684493006449
 20
3.245702809925167
 30
0.0
 10
3.892920463253597
 20
3.270599815920682
 30
0.0
 10
3.902578627745154
 20
3.282671686547096
 30
0.0
 10
3.924286630925041
 20
3.304449977752518
 30
0.0
 10
3.936406634276514
 20
3.314317040448328
 30
0.0
 10
3.956682973437869
 20
3.327316664029302
 30
0.0
 10
3.963770371230045
 20
3.331322587129157
 30
0.0
 10
3.978245529938781
 20
3.338462285407797
 30
0.0
 10
3.985680926327457
 20
3.341628149419161
 30
0.0
 10
4.000949177349218
 20
3.347136047553698
 30
0.0
 10
4.008781940845148
 20
3.349478288352511
 30
0.0
 10
4.02486278554099
 20
3.353292316892412
 30
0.0
 10
4.03306731475914
 20
3.354746141344779
 30
0.0
 10
4.057601869762732
 20
3.357661228938995
 30
0.0
 10
4.07407676386646
 20
3.35774886195997
 30
0.0
 10
4.107214494182298
 20
3.354076289886301
 30
0.0
 10
4.123189212562775
 20
3.350394250770409
 30
0.0
 10
4.146300328689709
 20
3.342271005238666
 30
0.0
 10
4.153909755051498
 20
3.339099730508694
 30
0.0
 10
4.168546085785675
 20
3.332006512940153
 30
0.0
 10
4.175571120916957
 20
3.328094494015417
 30
0.0
 10
4.18906037786221
 20
3.319585907321876
 30
0.0
 10
4.195524468704521
 20
3.314989149970462
 30
0.0
 10
4.207896857087227
 20
3.305133319300917
 30
0.0
 10
4.213814458410824
 20
3.2998572258042
 30
0.0
 10
4.230337365076204
 20
3.283459893614184
 30
0.0
 10
4.239877599274732
 20
3.271665174282297
 30
0.0
 10
4.256241176345428
 20
3.246623658237707
 30
0.0
 10
4.262902670339386
 20
3.233590994222273
 30
0.0
 10
4.273338425743737
 20
3.207235786333475
 30
0.0
 10
4.277172064093123
 20
3.193735142023799
 30
0.0
 10
4.282153698557847
 20
3.167008326303912
 30
0.0
 10
4.283329016770379
 20
3.153767214679829
 30
0.0
 10
4.283329016770379
 20
3.114550091663999
 30
0.0
  0
LINE
  5
E6
330
1F
100
AcDbEntity
  8
0
  6
CONTINUOUS
 62
     7
100
AcDbLine
 10
4.3305731113
 20
4.7486782864
 30
0.0
 11
4.3305731113
 21
2.7687272145
 31
0.0
  0
LINE
  5
E7
330
1F
100
AcDbEntity
  8
0
  6
CONTINUOUS
 62
     7
100
AcDbLine
 10
4.3205731113
 20
2.7587267252
 30
0.0
 11
4.3305731113
 21
2.7687272145
 31
0.0
  0
LINE
  5
E8
330
1F
100
AcDbEntity
  8
0
  6
CONTINUOUS
 62
     7
100
AcDbLine
 10
2.3226990955
 20
2.7686782864
 30
0.0
 11
2.3226990955
 21
4.7486782864
 31
0.0
  0
CIRCLE
  5
E9
330
1F
100
AcDbEntity
  8
0
  6
CONTINUOUS
 62
     7
100
AcDbCircle
 10
4.0667935837
 20
3.1406948403
 30
0.0
 40
0.1889763779527556
  0
LINE
  5
EA
330
1F
100
AcDbEntity
  8
0
  6
CONTINUOUS
 62
     7
100
AcDbLine
 10
4.1652187805
 20
3.0838690264
 30
0.0
 11
4.1652187805
 21
3.1975206542
 31
0.0
  0
LINE
  5
EB
330
1F
100
AcDbEntity
  8
0
  6
CONTINUOUS
 62
     7
100
AcDbLine
 10
3.9683683868
 20
3.1975206542
 30
0.0
 11
3.9683683868
 21
3.0838690264
 31
0.0
  0
LINE
  5
EC
330
1F
100
AcDbEntity
  8
0
  6
CONTINUOUS
 62
     7
100
AcDbLine
 10
3.9683683868
 20
3.0838690264
 30
0.0
 11
4.0667935837
 21
3.0270432125
 31
0.0
  0
LINE
  5
ED
330
1F
100
AcDbEntity
  8
0
  6
CONTINUOUS
 62
     7
100
AcDbLine
 10
4.0667935837
 20
3.0270432125
 30
0.0
 11
4.1652187805
 21
3.0838690264
 31
0.0
  0
LINE
  5
EE
330
1F
100
AcDbEntity
  8
0
  6
CONTINUOUS
 62
     7
100
AcDbLine
 10
4.0667935837
 20
3.2543464681
 30
0.0
 11
3.9683683868
 21
3.1975206542
 31
0.0
  0
LINE
  5
EF
330
1F
100
AcDbEntity
  8
0
  6
CONTINUOUS
 62
     7
100
AcDbLine
 10
4.1652187805
 20
3.1975206542
 30
0.0
 11
4.0667935837
 21
3.2543464681
 31
0.0
  0
CIRCLE
  5
F0
330
1F
100
AcDbEntity
  8
0
  6
CONTINUOUS
 62
     7
100
AcDbCircle
 10
4.0667935837
 20
3.1406948403
 30
0.0
 40
0.1968503937007871
  0
SPLINE
  5
F1
330
1F
100
AcDbEntity
  8
0
  6
HIDDEN
 62
     7
100
AcDbSpline
210
0.0
220
0.0
230
1.0
 70
     8
 71
     3
 72
    84
 73
    80
 74
     0
 42
0.00000001
 43
0.00000001
 40
-0.03125
 40
-0.03125
 40
0.0
 40
0.0
 40
0.015625
 40
0.015625
 40
0.03125
 40
0.03125
 40
0.0624999999999998
 40
0.0624999999999998
 40
0.0937499999999997
 40
0.0937499999999997
 40
0.1249999999999995
 40
0.1249999999999995
 40
0.1874999999999992
 40
0.1874999999999992
 40
0.2187499999999989
 40
0.2187499999999989
 40
0.2499999999999987
 40
0.2499999999999987
 40
0.2812499999999984
 40
0.2812499999999984
 40
0.3124999999999982
 40
0.3124999999999982
 40
0.3281249999999981
 40
0.3281249999999981
 40
0.343749999999998
 40
0.343749999999998
 40
0.3749999999999979
 40
0.3749999999999979
 40
0.390624999999998
 40
0.390624999999998
 40
0.4062499999999981
 40
0.4062499999999981
 40
0.4374999999999982
 40
0.4374999999999982
 40
0.4531249999999983
 40
0.4531249999999983
 40
0.4687499999999984
 40
0.4687499999999984
 40
0.4843749999999985
 40
0.4843749999999985
 40
0.4999999999999986
 40
0.4999999999999986
 40
0.5312499999999987
 40
0.5312499999999987
 40
0.5468749999999989
 40
0.5468749999999989
 40
0.562499999999999
 40
0.562499999999999
 40
0.5937499999999991
 40
0.5937499999999991
 40
0.6093749999999992
 40
0.6093749999999992
 40
0.6249999999999992
 40
0.6249999999999992
 40
0.6562499999999993
 40
0.6562499999999993
 40
0.6718749999999993
 40
0.6718749999999993
 40
0.6874999999999993
 40
0.6874999999999993
 40
0.7187499999999994
 40
0.7187499999999994
 40
0.7499999999999994
 40
0.7499999999999994
 40
0.7812499999999994
 40
0.7812499999999994
 40
0.8124999999999996
 40
0.8124999999999996
 40
0.8437499999999996
 40
0.8437499999999996
 40
0.8749999999999996
 40
0.8749999999999996
 40
0.9062499999999997
 40
0.9062499999999997
 40
0.9374999999999998
 40
0.9374999999999998
 40
0.96875
 40
0.96875
 40
1.0
 40
1.0
 40
1.015625
 40
1.015625
 10
2.603227662848627
 20
3.207698939783238
 30
0.0
 10
2.578104103180074
 20
3.207698939783238
 30
0.0
 10
2.569887018481264
 20
3.206964555463235
 30
0.0
 10
2.553737377837455
 20
3.204175429184246
 30
0.0
 10
2.54573255476537
 20
3.202093409169846
 30
0.0
 10
2.522682123979843
 20
3.194251719233634
 30
0.0
 10
2.508677405697815
 20
3.187034639680096
 30
0.0
 10
2.482634474702521
 20
3.170138256567167
 30
0.0
 10
2.471031659959527
 20
3.160743307815081
 30
0.0
 10
2.449765376064113
 20
3.140848786826124
 30
0.0
 10
2.440059240443291
 20
3.130257054775563
 30
0.0
 10
2.413909437978105
 20
3.097946713262851
 30
0.0
 10
2.400322516460926
 20
3.075835308299146
 30
0.0
 10
2.384946938010409
 20
3.042519461539125
 30
0.0
 10
2.380705685094862
 20
3.031381670919961
 30
0.0
 10
2.374274418410691
 20
3.009703743422663
 30
0.0
 10
2.372043178040498
 20
2.999082567705283
 30
0.0
 10
2.369707365003409
 20
2.978289175372854
 30
0.0
 10
2.369601800522758
 20
2.96809972889945
 30
0.0
 10
2.37189519721001
 20
2.948246449956537
 30
0.0
 10
2.374265252377538
 20
2.938820527286589
 30
0.0
 10
2.379835896145741
 20
2.925403264641042
 30
0.0
 10
2.38203039993643
 20
2.92105133215747
 30
0.0
 10
2.387150688543526
 20
2.912586317057009
 30
0.0
 10
2.390097374775692
 20
2.908449960157347
 30
0.0
 10
2.399974531079191
 20
2.896603272070301
 30
0.0
 10
2.407902719107509
 20
2.889453736366691
 30
0.0
 10
2.421957333213514
 20
2.879748738354763
 30
0.0
 10
2.427004597062012
 20
2.876684369866918
 30
0.0
 10
2.437880493895698
 20
2.870889799071908
 30
0.0
 10
2.443745193783503
 20
2.868148869210728
 30
0.0
 10
2.4620699626167
 20
2.86063922762734
 30
0.0
 10
2.475373714138316
 20
2.856494889483003
 30
0.0
 10
2.497032648603545
 20
2.851432915802905
 30
0.0
 10
2.504598795228426
 20
2.849930936917136
 30
0.0
 10
2.520006808920182
 20
2.847371724135437
 30
0.0
 10
2.527834624228004
 20
2.846311977521815
 30
0.0
 10
2.543733400837589
 20
2.844603722327801
 30
0.0
 10
2.551804345843657
 20
2.843955224255718
 30
0.0
 10
2.568195058062128
 20
2.843065769522856
 30
0.0
 10
2.576568780899647
 20
2.842826430815763
 30
0.0
 10
2.601417923086716
 20
2.842744598430006
 30
0.0
 10
2.617769302788346
 20
2.843506495976629
 30
0.0
 10
2.641973554041655
 20
2.845925327860371
 30
0.0
 10
2.64995900991222
 20
2.846948490621797
 30
0.0
 10
2.665387500754473
 20
2.849387767246855
 30
0.0
 10
2.672885751489792
 20
2.850808854184176
 30
0.0
 10
2.694745120415898
 20
2.855703179635317
 30
0.0
 10
2.708569111107075
 20
2.859859952382453
 30
0.0
 10
2.727085855077104
 20
2.867213163258716
 30
0.0
 10
2.732929887144948
 20
2.869857889740356
 30
0.0
 10
2.74398048620436
 20
2.875557101609508
 30
0.0
 10
2.749213060104982
 20
2.878630205739483
 30
0.0
 10
2.763740158962754
 20
2.88836566933274
 30
0.0
 10
2.771856808864201
 20
2.895505256326105
 30
0.0
 10
2.78194399272302
 20
2.907251356829002
 30
0.0
 10
2.784966817047397
 20
2.911360628103585
 30
0.0
 10
2.790254742660527
 20
2.919818712544263
 30
0.0
 10
2.792526221263824
 20
2.924168110727248
 30
0.0
 10
2.798311769780657
 20
2.937580285423063
 30
0.0
 10
2.800806096154264
 20
2.947023947620153
 30
0.0
 10
2.803311755878232
 20
2.966844878328432
 30
0.0
 10
2.803305808995686
 20
2.97703439877695
 30
0.0
 10
2.801115380099824
 20
2.997966381775111
 30
0.0
 10
2.798915950064786
 20
3.008750526149518
 30
0.0
 10
2.792505773382433
 20
3.030680057383136
 30
0.0
 10
2.788337177808103
 20
3.041711141146826
 30
0.0
 10
2.778199359327367
 20
3.063870654866686
 30
0.0
 10
2.772230875263439
 20
3.074999686759981
 30
0.0
 10
2.75841065795311
 20
3.097278757354116
 30
0.0
 10
2.750589281642462
 20
3.108365106932486
 30
0.0
 10
2.733242494285269
 20
3.129863135781137
 30
0.0
 10
2.723689075495757
 20
3.140338660914706
 30
0.0
 10
2.702350040116093
 20
3.160389324052109
 30
0.0
 10
2.690527324725692
 20
3.169974731324894
 30
0.0
 10
2.66469746495395
 20
3.186793769150523
 30
0.0
 10
2.650378608737514
 20
3.194195331757787
 30
0.0
 10
2.619826183285483
 20
3.204631274276192
 30
0.0
 10
2.603227662848627
 20
3.207698939783238
 30
0.0
 10
2.578104103180074
 20
3.207698939783238
 30
0.0
  0
SPLINE
  5
F2
330
1F
100
AcDbEntity
  8
0
  6
HIDDEN
 62
     7
100
AcDbSpline
210
0.0
220
0.0
230
1.0
 70
     8
 71
     3
 72
    70
 73
    66
 74
     0
 42
0.00000001
 43
0.00000001
 40
-0.0312499999999998
 40
-0.0312499999999998
 40
0.0
 40
0.0
 40
0.0312500000000004
 40
0.0312500000000004
 40
0.0468750000000007
 40
0.0468750000000007
 40
0.0625000000000009
 40
0.0625000000000009
 40
0.0937500000000011
 40
0.0937500000000011
 40
0.1250000000000012
 40
0.1250000000000012
 40
0.1875000000000013
 40
0.1875000000000013
 40
0.2187500000000014
 40
0.2187500000000014
 40
0.2500000000000014
 40
0.2500000000000014
 40
0.2812500000000016
 40
0.2812500000000016
 40
0.3125000000000016
 40
0.3125000000000016
 40
0.3437500000000018
 40
0.3437500000000018
 40
0.3750000000000019
 40
0.3750000000000019
 40
0.4062500000000021
 40
0.4062500000000021
 40
0.4375000000000022
 40
0.4375000000000022
 40
0.4531250000000023
 40
0.4531250000000023
 40
0.4687500000000024
 40
0.4687500000000024
 40
0.4843750000000026
 40
0.4843750000000026
 40
0.5000000000000027
 40
0.5000000000000027
 40
0.5312500000000024
 40
0.5312500000000024
 40
0.5625000000000022
 40
0.5625000000000022
 40
0.593750000000002
 40
0.593750000000002
 40
0.6250000000000017
 40
0.6250000000000017
 40
0.6562500000000014
 40
0.6562500000000014
 40
0.6875000000000012
 40
0.6875000000000012
 40
0.7500000000000012
 40
0.7500000000000012
 40
0.8125000000000009
 40
0.8125000000000009
 40
0.8437500000000008
 40
0.8437500000000008
 40
0.8750000000000006
 40
0.8750000000000006
 40
0.9062500000000004
 40
0.9062500000000004
 40
0.9375000000000003
 40
0.9375000000000003
 40
0.9687500000000002
 40
0.9687500000000002
 40
1.0
 40
1.0
 40
1.03125
 40
1.03125
 10
2.576585333860132
 20
4.422484395811495
 30
0.0
 10
2.596371912279052
 20
4.422484395811495
 30
0.0
 10
2.605936223067675
 20
4.423744417357669
 30
0.0
 10
2.619851140668207
 20
4.427265440970663
 30
0.0
 10
2.624411845612916
 20
4.428717806215118
 30
0.0
 10
2.633110211409673
 20
4.43201981511675
 30
0.0
 10
2.637289382723947
 20
4.433878816028596
 30
0.0
 10
2.649376452630345
 20
4.439993044526081
 30
0.0
 10
2.656805017979608
 20
4.444783390920082
 30
0.0
 10
2.670112475160888
 20
4.455016362771016
 30
0.0
 10
2.676089895024514
 20
4.460512463922094
 30
0.0
 10
2.692298552504955
 20
4.477867278713194
 30
0.0
 10
2.700398104368473
 20
4.490058881059311
 30
0.0
 10
2.709125753088167
 20
4.508683837753072
 30
0.0
 10
2.711450899963572
 20
4.514990041146365
 30
0.0
 10
2.714793797060106
 20
4.527377533522341
 30
0.0
 10
2.715835537498621
 20
4.53350007351644
 30
0.0
 10
2.716617513916533
 20
4.545597703535203
 30
0.0
 10
2.716352431820246
 20
4.551606588923406
 30
0.0
 10
2.714376810809366
 20
4.563322712736726
 30
0.0
 10
2.712685847335427
 20
4.568963234340944
 30
0.0
 10
2.7077964890143
 20
4.579819565178881
 30
0.0
 10
2.70457568794257
 20
4.585065226311586
 30
0.0
 10
2.696473996260607
 20
4.594990194675439
 30
0.0
 10
2.691671699116952
 20
4.599587935261583
 30
0.0
 10
2.680429754837926
 20
4.60807106679668
 30
0.0
 10
2.673892332887096
 20
4.61199378586515
 30
0.0
 10
2.65956480104964
 20
4.618769198809096
 30
0.0
 10
2.651757191797589
 20
4.621661969495418
 30
0.0
 10
2.638985700141385
 20
4.625254229092548
 30
0.0
 10
2.634518223022632
 20
4.626330838802291
 30
0.0
 10
2.625466395344578
 20
4.628166591538649
 30
0.0
 10
2.620861160444358
 20
4.628933966114253
 30
0.0
 10
2.611492371543567
 20
4.630175488937611
 30
0.0
 10
2.60672884198715
 20
4.630649674244597
 30
0.0
 10
2.597037458987029
 20
4.631298390042357
 30
0.0
 10
2.59208352148293
 20
4.631471024803687
 30
0.0
 10
2.577409676839046
 20
4.631516095436456
 30
0.0
 10
2.567748608046545
 20
4.630938336638837
 30
0.0
 10
2.548670208081024
 20
4.628540082597951
 30
0.0
 10
2.539557966788406
 20
4.626750389040294
 30
0.0
 10
2.522410102078073
 20
4.622067072682394
 30
0.0
 10
2.514321973490204
 20
4.619141090064444
 30
0.0
 10
2.499833535020894
 20
4.612417421052531
 30
0.0
 10
2.493265795521263
 20
4.60854952823752
 30
0.0
 10
2.481822237577679
 20
4.600063240325427
 30
0.0
 10
2.47695496136905
 20
4.595474371679307
 30
0.0
 10
2.468750623220072
 20
4.585601852977958
 30
0.0
 10
2.465450343046874
 20
4.580338129246986
 30
0.0
 10
2.457938478516782
 20
4.564015528358066
 30
0.0
 10
2.455983022051588
 20
4.55213460882841
 30
0.0
 10
2.457422880422807
 20
4.52785926813152
 30
0.0
 10
2.460825343821335
 20
4.515195599324856
 30
0.0
 10
2.469463734878589
 20
4.496618175524662
 30
0.0
 10
2.472935706331357
 20
4.490467253267268
 30
0.0
 10
2.481151554711099
 20
4.478294466923185
 30
0.0
 10
2.485926377697164
 20
4.472248185890525
 30
0.0
 10
2.496634607673543
 20
4.460741293581945
 30
0.0
 10
2.502587686339797
 20
4.455235034329182
 30
0.0
 10
2.515961426594433
 20
4.444909818977426
 30
0.0
 10
2.523385380881105
 20
4.440111412081286
 30
0.0
 10
2.539437108581819
 20
4.431953175545556
 30
0.0
 10
2.548281840583228
 20
4.428504722478921
 30
0.0
 10
2.566770558211567
 20
4.423789675618203
 30
0.0
 10
2.576585333860132
 20
4.422484395811495
 30
0.0
 10
2.596371912279052
 20
4.422484395811495
 30
0.0
  0
LINE
  5
F3
330
1F
100
AcDbEntity
  8
0
  6
HIDDEN
 62
     7
100
AcDbLine
 10
2.86994319
 20
4.5447697161
 30
0.0
 11
2.86994319
 21
2.9725868567
 31
0.0
  0
LINE
  5
F4
330
1F
100
AcDbEntity
  8
0
  6
HIDDEN
 62
     7
100
AcDbLine
 10
2.8502581506
 20
4.5447697161
 30
0.0
 11
2.8502581506
 21
2.9725868567
 31
0.0
  0
CIRCLE
  5
F5
330
1F
100
AcDbEntity
  8
0
  6
HIDDEN
 62
     7
100
AcDbCircle
 10
4.0667935837
 20
3.1406948403
 30
0.0
 40
0.1299212598425195
  0
LINE
  5
F6
330
1F
100
AcDbEntity
  8
0
  6
HIDDEN
 62
     7
100
AcDbLine
 10
2.3326990955
 20
3.7685208061
 30
0.0
 11
2.3226990955
 21
3.7685208061
 31
0.0
  0
LINE
  5
F7
330
1F
100
AcDbEntity
  8
0
  6
HIDDEN
 62
     7
100
AcDbLine
 10
2.3326990955
 20
3.7488357667
 30
0.0
 11
2.3226990955
 21
3.7488357667
 31
0.0
  0
LINE
  5
F8
330
1F
100
AcDbEntity
  8
0
  6
HIDDEN
 62
     7
100
AcDbLine
 10
4.3305731113
 20
3.5126546171
 30
0.0
 11
4.3205731113
 21
3.5226629555
 31
0.0
  0
LINE
  5
F9
330
1F
100
AcDbEntity
  8
0
  6
HIDDEN
 62
     7
100
AcDbLine
 10
2.3326990955
 20
3.7685208061
 30
0.0
 11
2.8502581506
 21
3.7685208061
 31
0.0
  0
LINE
  5
FA
330
1F
100
AcDbEntity
  8
0
  6
HIDDEN
 62
     7
100
AcDbLine
 10
2.3326990955
 20
3.7488357667
 30
0.0
 11
2.8502581506
 21
3.7488357667
 31
0.0
  0
LINE
  5
FB
330
1F
100
AcDbEntity
  8
0
  6
HIDDEN
 62
     7
100
AcDbLine
 10
3.8030140561
 20
3.5226629555
 30
0.0
 11
4.3205731113
 21
3.5226629555
 31
0.0
  0
LINE
  5
FC
330
1F
100
AcDbEntity
  8
0
  6
HIDDEN
 62
     7
100
AcDbLine
 10
2.8030140561
 20
3.2311192313
 30
0.0
 11
2.36994319
 21
3.2311192313
 31
0.0
  0
CIRCLE
  5
FD
330
1F
100
AcDbEntity
  8
0
  6
HIDDEN
 62
     7
100
AcDbCircle
 10
4.0667935837
 20
3.1406948403
 30
0.0
 40
0.1181102362204722
  0
CIRCLE
  5
FE
330
1F
100
AcDbEntity
  8
0
  6
HIDDEN
 62
     7
100
AcDbCircle
 10
4.0667935837
 20
3.1406948403
 30
0.0
 40
0.1102362204724412
  0
LINE
  5
FF
330
1F
100
AcDbEntity
  8
0
  6
HIDDEN
 62
     7
100
AcDbLine
 10
2.7833290168
 20
3.0027727746
 30
0.0
 11
2.3896282294
 21
3.0027727746
 31
0.0
  0
LINE
  5
100
330
1F
100
AcDbEntity
  8
0
  6
HIDDEN
 62
     7
100
AcDbLine
 10
2.3896282294
 20
3.2232452155
 30
0.0
 11
2.7833290168
 21
3.2232452155
 31
0.0
  0
LINE
  5
101
330
1F
100
AcDbEntity
  8
0
  6
HIDDEN
 62
     7
100
AcDbLine
 10
2.3975022451
 20
2.9948987588
 30
0.0
 11
2.775455001
 21
2.9948987588
 31
0.0
  0
LINE
  5
102
330
1F
100
AcDbEntity
  8
0
  6
HIDDEN
 62
     7
100
AcDbLine
 10
2.4683683868
 20
4.5027727746
 30
0.0
 11
2.7045888593
 21
4.5027727746
 31
0.0
  0
LINE
  5
103
330
1F
100
AcDbEntity
  8
0
  6
HIDDEN
 62
     7
100
AcDbLine
 10
2.6967148435
 20
4.5106467903
 30
0.0
 11
2.4762424026
 21
4.5106467903
 31
0.0
  0
LINE
  5
104
330
1F
100
AcDbEntity
  8
0
  6
HIDDEN
 62
     7
100
AcDbLine
 10
2.5864786231
 20
3.0539538769
 30
0.0
 11
2.5864786231
 21
2.9948987588
 31
0.0
  0
LINE
  5
105
330
1F
100
AcDbEntity
  8
0
  6
HIDDEN
 62
     7
100
AcDbLine
 10
2.5864786231
 20
3.0539538769
 30
0.0
 11
2.6849038199
 21
3.0539538769
 31
0.0
  0
LINE
  5
106
330
1F
100
AcDbEntity
  8
0
  6
HIDDEN
 62
     7
100
AcDbLine
 10
2.4880534262
 20
3.0539538769
 30
0.0
 11
2.5864786231
 21
3.0539538769
 31
0.0
  0
LINE
  5
107
330
1F
100
AcDbEntity
  8
0
  6
HIDDEN
 62
     7
100
AcDbLine
 10
2.6849038199
 20
3.0539538769
 30
0.0
 11
2.6849038199
 21
2.9948987588
 31
0.0
  0
LINE
  5
108
330
1F
100
AcDbEntity
  8
0
  6
HIDDEN
 62
     7
100
AcDbLine
 10
2.4880534262
 20
3.0539538769
 30
0.0
 11
2.4880534262
 21
2.9948987588
 31
0.0
  0
LINE
  5
109
330
1F
100
AcDbEntity
  8
0
  6
HIDDEN
 62
     7
100
AcDbLine
 10
2.3226990955
 20
3.512457814
 30
0.0
 11
2.3326990955
 21
3.522457814
 31
0.0
  0
LINE
  5
10A
330
1F
100
AcDbEntity
  8
0
  6
HIDDEN
 62
     7
100
AcDbLine
 10
2.3326990955
 20
3.9948987588
 30
0.0
 11
2.3226990955
 21
4.0048987588
 31
0.0
  0
LINE
  5
10B
330
1F
100
AcDbEntity
  8
0
  6
HIDDEN
 62
     7
100
AcDbLine
 10
4.3305731113
 20
4.0048987588
 30
0.0
 11
4.3205731113
 21
3.9948987588
 31
0.0
  0
LINE
  5
10C
330
1F
100
AcDbEntity
  8
0
  6
HIDDEN
 62
     7
100
AcDbLine
 10
3.7833290168
 20
3.9948987588
 30
0.0
 11
2.86994319
 21
3.9948987588
 31
0.0
  0
LINE
  5
10D
330
1F
100
AcDbEntity
  8
0
  6
HIDDEN
 62
     7
100
AcDbLine
 10
2.86994319
 20
3.522457814
 30
0.0
 11
3.7833290168
 21
3.522457814
 31
0.0
  0
LINE
  5
10E
330
1F
100
AcDbEntity
  8
0
  6
HIDDEN
 62
     7
100
AcDbLine
 10
2.8502581506
 20
3.9948987588
 30
0.0
 11
2.3326990955
 21
3.9948987588
 31
0.0
  0
LINE
  5
10F
330
1F
100
AcDbEntity
  8
0
  6
HIDDEN
 62
     7
100
AcDbLine
 10
2.3326990955
 20
3.522457814
 30
0.0
 11
2.8502581506
 21
3.522457814
 31
0.0
  0
LINE
  5
110
330
1F
100
AcDbEntity
  8
0
  6
HIDDEN
 62
     7
100
AcDbLine
 10
4.3205731113
 20
3.9948987588
 30
0.0
 11
3.8030140561
 21
3.9948987588
 31
0.0
  0
LINE
  5
111
330
1F
100
AcDbEntity
  8
0
  6
HIDDEN
 62
     7
100
AcDbLine
 10
2.8030140561
 20
2.9728522007
 30
0.0
 11
2.8030140561
 21
3.2311192313
 31
0.0
  0
LINE
  5
112
330
1F
100
AcDbEntity
  8
0
  6
HIDDEN
 62
     7
100
AcDbLine
 10
2.36994319
 20
3.2311192313
 30
0.0
 11
2.36994319
 21
2.972800628
 31
0.0
  0
LINE
  5
113
330
1F
100
AcDbEntity
  8
0
  6
HIDDEN
 62
     7
100
AcDbLine
 10
2.7163998829
 20
3.2311192313
 30
0.0
 11
2.7163998829
 21
3.7488357667
 31
0.0
  0
LINE
  5
114
330
1F
100
AcDbEntity
  8
0
  6
HIDDEN
 62
     7
100
AcDbLine
 10
2.4565573632
 20
3.7488357667
 30
0.0
 11
2.4565573632
 21
3.2311192313
 31
0.0
  0
LINE
  5
115
330
1F
100
AcDbEntity
  8
0
  6
HIDDEN
 62
     7
100
AcDbLine
 10
2.7163998829
 20
3.7685208061
 30
0.0
 11
2.7163998829
 21
4.5446740246
 31
0.0
  0
LINE
  5
116
330
1F
100
AcDbEntity
  8
0
  6
HIDDEN
 62
     7
100
AcDbLine
 10
2.4565573632
 20
4.5447385262
 30
0.0
 11
2.4565573632
 21
3.7685208061
 31
0.0
  0
LINE
  5
117
330
1F
100
AcDbEntity
  8
0
  6
HIDDEN
 62
     7
100
AcDbLine
 10
2.3896282294
 20
3.2232452155
 30
0.0
 11
2.3896282294
 21
3.0027727746
 31
0.0
  0
LINE
  5
118
330
1F
100
AcDbEntity
  8
0
  6
HIDDEN
 62
     7
100
AcDbLine
 10
2.7833290168
 20
3.0027727746
 30
0.0
 11
2.7833290168
 21
3.2232452155
 31
0.0
  0
LINE
  5
119
330
1F
100
AcDbEntity
  8
0
  6
HIDDEN
 62
     7
100
AcDbLine
 10
2.7833290168
 20
3.2232452155
 30
0.0
 11
2.775455001
 21
3.2311192313
 31
0.0
  0
LINE
  5
11A
330
1F
100
AcDbEntity
  8
0
  6
HIDDEN
 62
     7
100
AcDbLine
 10
2.3975022451
 20
3.2311192313
 30
0.0
 11
2.3896282294
 21
3.2232452155
 31
0.0
  0
LINE
  5
11B
330
1F
100
AcDbEntity
  8
0
  6
HIDDEN
 62
     7
100
AcDbLine
 10
2.3896282294
 20
3.0027727746
 30
0.0
 11
2.3975022451
 21
2.9948987588
 31
0.0
  0
LINE
  5
11C
330
1F
100
AcDbEntity
  8
0
  6
HIDDEN
 62
     7
100
AcDbLine
 10
2.775455001
 20
2.9948987588
 30
0.0
 11
2.7833290168
 21
3.0027727746
 31
0.0
  0
LINE
  5
11D
330
1F
100
AcDbEntity
  8
0
  6
HIDDEN
 62
     7
100
AcDbLine
 10
2.7045888593
 20
3.2311192313
 30
0.0
 11
2.7045888593
 21
4.5027727746
 31
0.0
  0
LINE
  5
11E
330
1F
100
AcDbEntity
  8
0
  6
HIDDEN
 62
     7
100
AcDbLine
 10
2.4683683868
 20
4.5027727746
 30
0.0
 11
2.4683683868
 21
3.2311192313
 31
0.0
  0
LINE
  5
11F
330
1F
100
AcDbEntity
  8
0
  6
HIDDEN
 62
     7
100
AcDbLine
 10
2.7045888593
 20
4.5027727746
 30
0.0
 11
2.6967148435
 21
4.5106467903
 31
0.0
  0
LINE
  5
120
330
1F
100
AcDbEntity
  8
0
  6
HIDDEN
 62
     7
100
AcDbLine
 10
2.4762424026
 20
4.5106467903
 30
0.0
 11
2.4683683868
 21
4.5027727746
 31
0.0
  0
LINE
  5
121
330
1F
100
AcDbEntity
  8
0
  6
CONTINUOUS
 62
     7
100
AcDbLine
 10
7.4949790945
 20
2.9438444466
 30
0.0
 11
7.6711900198
 21
2.9438444466
 31
0.0
  0
LINE
  5
122
330
1F
100
AcDbEntity
  8
0
  6
CONTINUOUS
 62
     7
100
AcDbLine
 10
7.4871050788
 20
2.9517184624
 30
0.0
 11
7.4949790945
 21
2.9438444466
 31
0.0
  0
LINE
  5
123
330
1F
100
AcDbEntity
  8
0
  6
CONTINUOUS
 62
     7
100
AcDbLine
 10
8.2410420866
 20
3.0225846041
 30
0.0
 11
8.260727126
 21
3.0225846041
 31
0.0
  0
LINE
  5
124
330
1F
100
AcDbEntity
  8
0
  6
CONTINUOUS
 62
     7
100
AcDbLine
 10
8.9277642787
 20
3.0225846041
 30
0.0
 11
8.9949790945
 21
3.0225846041
 31
0.0
  0
LINE
  5
125
330
1F
100
AcDbEntity
  8
0
  6
CONTINUOUS
 62
     7
100
AcDbLine
 10
8.260727126
 20
3.2588050766
 30
0.0
 11
8.2410420866
 21
3.2588050766
 31
0.0
  0
LINE
  5
126
330
1F
100
AcDbEntity
  8
0
  6
CONTINUOUS
 62
     7
100
AcDbLine
 10
8.9949790945
 20
3.0225846041
 30
0.0
 11
9.0028531103
 21
3.0304586199
 31
0.0
  0
LINE
  5
127
330
1F
100
AcDbEntity
  8
0
  6
CONTINUOUS
 62
     7
100
AcDbLine
 10
9.0657184461
 20
3.0027727746
 30
0.0
 11
9.0657184461
 21
3.1789836999
 31
0.0
  0
LINE
  5
128
330
1F
100
AcDbEntity
  8
0
  6
CONTINUOUS
 62
     7
100
AcDbLine
 10
9.0578444303
 20
2.9948987588
 30
0.0
 11
9.0657184461
 21
3.0027727746
 31
0.0
  0
LINE
  5
129
330
1F
100
AcDbEntity
  8
0
  6
CONTINUOUS
 62
     7
100
AcDbLine
 10
8.9869782886
 20
4.4355579588
 30
0.0
 11
8.9869782886
 21
4.5027727746
 31
0.0
  0
LINE
  5
12A
330
1F
100
AcDbEntity
  8
0
  6
CONTINUOUS
 62
     7
100
AcDbLine
 10
8.9869782886
 20
4.5027727746
 30
0.0
 11
8.9791042728
 21
4.5106467903
 31
0.0
  0
ARC
  5
12B
330
1F
100
AcDbEntity
  8
0
  6
CONTINUOUS
 62
     7
100
AcDbCircle
 10
8.2508846063
 20
3.7586782864
 30
0.0
 40
0.9900000000000002
100
AcDbArc
 50
270.5696405336
 51
269.4303594664
  0
LINE
  5
12C
330
1F
100
AcDbEntity
  8
0
  6
CONTINUOUS
 62
     7
100
AcDbLine
 10
8.2410420866
 20
2.7587267252
 30
0.0
 11
8.2410420866
 21
2.7687272145
 31
0.0
  0
ARC
  5
12D
330
1F
100
AcDbEntity
  8
0
  6
CONTINUOUS
 62
     7
100
AcDbCircle
 10
8.2508846063
 20
3.7586782864
 30
0.0
 40
1.0
100
AcDbArc
 50
270.5639439433
 51
269.4360560567
  0
LINE
  5
12E
330
1F
100
AcDbEntity
  8
0
  6
CONTINUOUS
 62
     7
100
AcDbLine
 10
8.260727126
 20
2.7587267252
 30
0.0
 11
8.260727126
 21
2.7687272145
 31
0.0
  0
ARC
  5
12F
330
1F
100
AcDbEntity
  8
0
  6
CONTINUOUS
 62
     7
100
AcDbCircle
 10
8.2508846063
 20
3.7586782864
 30
0.0
 40
0.2462204724409457
100
AcDbArc
 50
272.2909757688
 51
267.7090242312
  0
LINE
  5
130
330
1F
100
AcDbEntity
  8
0
  6
CONTINUOUS
 62
     7
100
AcDbLine
 10
8.2410420866
 20
2.7687272145
 30
0.0
 11
8.2410420866
 21
3.5126546171
 31
0.0
  0
LINE
  5
131
330
1F
100
AcDbEntity
  8
0
  6
CONTINUOUS
 62
     7
100
AcDbLine
 10
8.260727126
 20
2.7687272145
 30
0.0
 11
8.260727126
 21
3.5126546171
 31
0.0
  0
ARC
  5
132
330
1F
100
AcDbEntity
  8
0
  6
CONTINUOUS
 62
     7
100
AcDbCircle
 10
8.2508846063
 20
3.7586782864
 30
0.0
 40
0.2362204724409452
100
AcDbArc
 50
272.3880154633
 51
267.6119845367
  0
LINE
  5
133
330
1F
100
AcDbEntity
  8
0
  6
CONTINUOUS
 62
     7
100
AcDbLine
 10
8.2410420866
 20
3.5126546171
 30
0.0
 11
8.2410420866
 21
3.5226629555
 31
0.0
  0
LINE
  5
134
330
1F
100
AcDbEntity
  8
0
  6
CONTINUOUS
 62
     7
100
AcDbLine
 10
8.260727126
 20
3.5126546171
 30
0.0
 11
8.260727126
 21
3.5226629555
 31
0.0
  0
LINE
  5
135
330
1F
100
AcDbEntity
  8
0
  6
CONTINUOUS
 62
     7
100
AcDbLine
 10
8.2410420866
 20
3.5226629555
 30
0.0
 11
8.260727126
 21
3.5226629555
 31
0.0
  0
POLYLINE
  5
136
330
1F
100
AcDbEntity
  8
0
  6
CONTINUOUS
 62
     7
100
AcDb2dPolyline
 66
     1
 10
0.0
 20
0.0
 30
0.0
  0
VERTEX
  5
215
330
136
100
AcDbEntity
  8
0
  6
CONTINUOUS
 62
     7
100
AcDbVertex
100
AcDb2dVertex
 10
8.260727126
 20
2.7587267252
 30
0.0
  0
VERTEX
  5
216
330
136
100
AcDbEntity
  8
0
  6
CONTINUOUS
 62
     7
100
AcDbVertex
100
AcDb2dVertex
 10
8.2508846063
 20
2.7586782864
 30
0.0
  0
VERTEX
  5
217
330
136
100
AcDbEntity
  8
0
  6
CONTINUOUS
 62
     7
100
AcDbVertex
100
AcDb2dVertex
 10
8.2410420866
 20
2.7587267252
 30
0.0
  0
SEQEND
  5
218
330
136
100
AcDbEntity
  8
0
  6
CONTINUOUS
 62
     7
  0
LINE
  5
137
330
1F
100
AcDbEntity
  8
0
  6
CONTINUOUS
 62
     7
100
AcDbLine
 10
7.4949790945
 20
3.1039975572
 30
0.0
 11
7.4949790945
 21
2.9438444466
 31
0.0
  0
LINE
  5
138
330
1F
100
AcDbEntity
  8
0
  6
CONTINUOUS
 62
     7
100
AcDbLine
 10
7.4871050788
 20
2.9517184624
 30
0.0
 11
7.4871050788
 21
3.1132010728
 31
0.0
  0
LINE
  5
139
330
1F
100
AcDbEntity
  8
0
  6
CONTINUOUS
 62
     7
100
AcDbLine
 10
8.9949790945
 20
3.0225846041
 30
0.0
 11
8.9949790945
 21
3.0906038948
 31
0.0
  0
LINE
  5
13A
330
1F
100
AcDbEntity
  8
0
  6
CONTINUOUS
 62
     7
100
AcDbLine
 10
9.0028531103
 20
3.0994792504
 30
0.0
 11
9.0028531103
 21
3.0304586199
 31
0.0
  0
LINE
  5
13B
330
1F
100
AcDbEntity
  8
0
  6
CONTINUOUS
 62
     7
100
AcDbLine
 10
9.0657184461
 20
3.0027727746
 30
0.0
 11
8.9055653355
 21
3.0027727746
 31
0.0
  0
LINE
  5
13C
330
1F
100
AcDbEntity
  8
0
  6
CONTINUOUS
 62
     7
100
AcDbLine
 10
8.8963618199
 20
2.9948987588
 30
0.0
 11
9.0578444303
 21
2.9948987588
 31
0.0
  0
LINE
  5
13D
330
1F
100
AcDbEntity
  8
0
  6
CONTINUOUS
 62
     7
100
AcDbLine
 10
8.9189589979
 20
4.5027727746
 30
0.0
 11
8.9869782886
 21
4.5027727746
 31
0.0
  0
LINE
  5
13E
330
1F
100
AcDbEntity
  8
0
  6
CONTINUOUS
 62
     7
100
AcDbLine
 10
8.9791042728
 20
4.5106467903
 30
0.0
 11
8.9100836423
 21
4.5106467903
 31
0.0
  0
LINE
  5
13F
330
1F
100
AcDbEntity
  8
0
  6
HIDDEN
 62
     7
100
AcDbLine
 10
7.7233255512
 20
3.1406948403
 30
0.0
 11
7.7233255512
 21
3.3572302734
 31
0.0
  0
LINE
  5
140
330
1F
100
AcDbEntity
  8
0
  6
HIDDEN
 62
     7
100
AcDbLine
 10
7.7233255512
 20
2.9241594073
 30
0.0
 11
7.7233255512
 21
3.1406948403
 31
0.0
  0
LINE
  5
141
330
1F
100
AcDbEntity
  8
0
  6
HIDDEN
 62
     7
100
AcDbLine
 10
7.3266767248
 20
4.1405680502
 30
0.0
 11
9.1750924879
 21
4.1405680502
 31
0.0
  0
ARC
  5
142
330
1F
100
AcDbEntity
  8
0
  6
HIDDEN
 62
     7
100
AcDbCircle
 10
8.2508846063
 20
3.7586782864
 30
0.0
 40
0.2362204724409452
100
AcDbArc
 50
180.0
 51
267.6119845367
  0
ARC
  5
143
330
1F
100
AcDbEntity
  8
0
  6
HIDDEN
 62
     7
100
AcDbCircle
 10
8.2508846063
 20
3.7586782864
 30
0.0
 40
0.2362204724409451
100
AcDbArc
 50
272.3880154633
 51
180.0
  0
LINE
  5
144
330
1F
100
AcDbEntity
  8
0
  6
HIDDEN
 62
     7
100
AcDbLine
 10
7.6327743701
 20
4.5447697161
 30
0.0
 11
7.6327743701
 21
2.9725868567
 31
0.0
  0
LINE
  5
145
330
1F
100
AcDbEntity
  8
0
  6
HIDDEN
 62
     7
100
AcDbLine
 10
8.4868999372
 20
3.7685208061
 30
0.0
 11
9.2508361676
 21
3.7685208061
 31
0.0
  0
LINE
  5
146
330
1F
100
AcDbEntity
  8
0
  6
HIDDEN
 62
     7
100
AcDbLine
 10
8.4868999372
 20
3.7488357667
 30
0.0
 11
9.2508361676
 21
3.7488357667
 31
0.0
  0
LINE
  5
147
330
1F
100
AcDbEntity
  8
0
  6
HIDDEN
 62
     7
100
AcDbLine
 10
9.0854034854
 20
3.2311192313
 30
0.0
 11
8.6523326193
 21
3.2311192313
 31
0.0
  0
LINE
  5
148
330
1F
100
AcDbEntity
  8
0
  6
HIDDEN
 62
     7
100
AcDbLine
 10
8.2410420866
 20
3.5126546171
 30
0.0
 11
8.260727126
 21
3.5126546171
 31
0.0
  0
POLYLINE
  5
149
330
1F
100
AcDbEntity
  8
0
  6
HIDDEN
 62
     7
100
AcDb2dPolyline
 66
     1
 10
0.0
 20
0.0
 30
0.0
  0
VERTEX
  5
219
330
149
100
AcDbEntity
  8
0
  6
HIDDEN
 62
     7
100
AcDbVertex
100
AcDb2dVertex
 10
8.260727126
 20
2.7687272145
 30
0.0
  0
VERTEX
  5
21A
330
149
100
AcDbEntity
  8
0
  6
HIDDEN
 62
     7
100
AcDbVertex
100
AcDb2dVertex
 10
8.2459632857
 20
2.7686905185
 30
0.0
  0
VERTEX
  5
21B
330
149
100
AcDbEntity
  8
0
  6
HIDDEN
 62
     7
100
AcDbVertex
100
AcDb2dVertex
 10
8.2410420866
 20
2.7687272145
 30
0.0
  0
SEQEND
  5
21C
330
149
100
AcDbEntity
  8
0
  6
HIDDEN
 62
     7
  0
LINE
  5
14A
330
1F
100
AcDbEntity
  8
0
  6
HIDDEN
 62
     7
100
AcDbLine
 10
7.7154515355
 20
3.1406948403
 30
0.0
 11
7.7154515355
 21
3.337545234
 31
0.0
  0
LINE
  5
14B
330
1F
100
AcDbEntity
  8
0
  6
HIDDEN
 62
     7
100
AcDbLine
 10
7.7154515355
 20
2.9438444466
 30
0.0
 11
7.7154515355
 21
3.1406948403
 31
0.0
  0
LINE
  5
14C
330
1F
100
AcDbEntity
  8
0
  6
HIDDEN
 62
     7
100
AcDbLine
 10
7.4949790945
 20
3.1406948403
 30
0.0
 11
7.4949790945
 21
3.1039975572
 31
0.0
  0
LINE
  5
14D
330
1F
100
AcDbEntity
  8
0
  6
HIDDEN
 62
     7
100
AcDbLine
 10
7.4949790945
 20
3.337545234
 30
0.0
 11
7.4949790945
 21
3.1406948403
 31
0.0
  0
LINE
  5
14E
330
1F
100
AcDbEntity
  8
0
  6
HIDDEN
 62
     7
100
AcDbLine
 10
7.4871050788
 20
3.1406948403
 30
0.0
 11
7.4871050788
 21
3.3296712183
 31
0.0
  0
LINE
  5
14F
330
1F
100
AcDbEntity
  8
0
  6
HIDDEN
 62
     7
100
AcDbLine
 10
7.4871050788
 20
3.1132010728
 30
0.0
 11
7.4871050788
 21
3.1406948403
 31
0.0
  0
LINE
  5
150
330
1F
100
AcDbEntity
  8
0
  6
HIDDEN
 62
     7
100
AcDbLine
 10
8.9949790945
 20
3.0906038948
 30
0.0
 11
8.9949790945
 21
3.2588050766
 31
0.0
  0
LINE
  5
151
330
1F
100
AcDbEntity
  8
0
  6
HIDDEN
 62
     7
100
AcDbLine
 10
9.0028531103
 20
3.2509310608
 30
0.0
 11
9.0028531103
 21
3.0994792504
 31
0.0
  0
LINE
  5
152
330
1F
100
AcDbEntity
  8
0
  6
HIDDEN
 62
     7
100
AcDbLine
 10
7.5461601969
 20
3.0838690264
 30
0.0
 11
7.5461601969
 21
3.1975206542
 31
0.0
  0
LINE
  5
153
330
1F
100
AcDbEntity
  8
0
  6
HIDDEN
 62
     7
100
AcDbLine
 10
7.5461601969
 20
3.0270432125
 30
0.0
 11
7.5461601969
 21
3.0838690264
 31
0.0
  0
LINE
  5
154
330
1F
100
AcDbEntity
  8
0
  6
HIDDEN
 62
     7
100
AcDbLine
 10
7.5461601969
 20
3.0838690264
 30
0.0
 11
7.4871050788
 21
3.0838690264
 31
0.0
  0
LINE
  5
155
330
1F
100
AcDbEntity
  8
0
  6
HIDDEN
 62
     7
100
AcDbLine
 10
7.5461601969
 20
3.1975206542
 30
0.0
 11
7.5461601969
 21
3.2543464681
 31
0.0
  0
LINE
  5
156
330
1F
100
AcDbEntity
  8
0
  6
HIDDEN
 62
     7
100
AcDbLine
 10
7.5461601969
 20
3.1975206542
 30
0.0
 11
7.4871050788
 21
3.1975206542
 31
0.0
  0
LINE
  5
157
330
1F
100
AcDbEntity
  8
0
  6
HIDDEN
 62
     7
100
AcDbLine
 10
7.5461601969
 20
3.2543464681
 30
0.0
 11
7.4871050788
 21
3.2543464681
 31
0.0
  0
LINE
  5
158
330
1F
100
AcDbEntity
  8
0
  6
HIDDEN
 62
     7
100
AcDbLine
 10
7.5461601969
 20
3.0270432125
 30
0.0
 11
7.4871050788
 21
3.0270432125
 31
0.0
  0
LINE
  5
159
330
1F
100
AcDbEntity
  8
0
  6
HIDDEN
 62
     7
100
AcDbLine
 10
8.9055653355
 20
3.0027727746
 30
0.0
 11
8.6720176587
 21
3.0027727746
 31
0.0
  0
LINE
  5
15A
330
1F
100
AcDbEntity
  8
0
  6
HIDDEN
 62
     7
100
AcDbLine
 10
8.6720176587
 20
3.2232452155
 30
0.0
 11
9.0657184461
 21
3.2232452155
 31
0.0
  0
LINE
  5
15B
330
1F
100
AcDbEntity
  8
0
  6
HIDDEN
 62
     7
100
AcDbLine
 10
8.6798916744
 20
2.9948987588
 30
0.0
 11
8.8963618199
 21
2.9948987588
 31
0.0
  0
LINE
  5
15C
330
1F
100
AcDbEntity
  8
0
  6
HIDDEN
 62
     7
100
AcDbLine
 10
8.8688680524
 20
4.5027727746
 30
0.0
 11
8.9189589979
 21
4.5027727746
 31
0.0
  0
LINE
  5
15D
330
1F
100
AcDbEntity
  8
0
  6
HIDDEN
 62
     7
100
AcDbLine
 10
8.7507578162
 20
4.5027727746
 30
0.0
 11
8.8688680524
 21
4.5027727746
 31
0.0
  0
LINE
  5
15E
330
1F
100
AcDbEntity
  8
0
  6
HIDDEN
 62
     7
100
AcDbLine
 10
8.8688680524
 20
4.5106467903
 30
0.0
 11
8.7586318319
 21
4.5106467903
 31
0.0
  0
LINE
  5
15F
330
1F
100
AcDbEntity
  8
0
  6
HIDDEN
 62
     7
100
AcDbLine
 10
8.9100836423
 20
4.5106467903
 30
0.0
 11
8.8688680524
 21
4.5106467903
 31
0.0
  0
LINE
  5
160
330
1F
100
AcDbEntity
  8
0
  6
HIDDEN
 62
     7
100
AcDbLine
 10
8.9256938663
 20
3.0539538769
 30
0.0
 11
8.9825196802
 21
3.0539538769
 31
0.0
  0
LINE
  5
161
330
1F
100
AcDbEntity
  8
0
  6
HIDDEN
 62
     7
100
AcDbLine
 10
8.8120422385
 20
3.0539538769
 30
0.0
 11
8.9256938663
 21
3.0539538769
 31
0.0
  0
LINE
  5
162
330
1F
100
AcDbEntity
  8
0
  6
HIDDEN
 62
     7
100
AcDbLine
 10
8.9256938663
 20
3.0539538769
 30
0.0
 11
8.9256938663
 21
2.9948987588
 31
0.0
  0
LINE
  5
163
330
1F
100
AcDbEntity
  8
0
  6
HIDDEN
 62
     7
100
AcDbLine
 10
8.8120422385
 20
3.0539538769
 30
0.0
 11
8.8120422385
 21
2.9948987588
 31
0.0
  0
LINE
  5
164
330
1F
100
AcDbEntity
  8
0
  6
HIDDEN
 62
     7
100
AcDbLine
 10
8.7552164246
 20
3.0539538769
 30
0.0
 11
8.8120422385
 21
3.0539538769
 31
0.0
  0
LINE
  5
165
330
1F
100
AcDbEntity
  8
0
  6
HIDDEN
 62
     7
100
AcDbLine
 10
8.9825196802
 20
3.0539538769
 30
0.0
 11
8.9825196802
 21
2.9948987588
 31
0.0
  0
LINE
  5
166
330
1F
100
AcDbEntity
  8
0
  6
HIDDEN
 62
     7
100
AcDbLine
 10
8.7552164246
 20
3.0539538769
 30
0.0
 11
8.7552164246
 21
2.9948987588
 31
0.0
  0
LINE
  5
167
330
1F
100
AcDbEntity
  8
0
  6
HIDDEN
 62
     7
100
AcDbLine
 10
7.6994902725
 20
2.9241594073
 30
0.0
 11
7.7233255512
 21
2.9241594073
 31
0.0
  0
LINE
  5
168
330
1F
100
AcDbEntity
  8
0
  6
HIDDEN
 62
     7
100
AcDbLine
 10
7.7233255512
 20
3.3572302734
 30
0.0
 11
7.3352611057
 21
3.3572302734
 31
0.0
  0
LINE
  5
169
330
1F
100
AcDbEntity
  8
0
  6
HIDDEN
 62
     7
100
AcDbLine
 10
8.260727126
 20
3.0107735805
 30
0.0
 11
8.9147948875
 21
3.0107735805
 31
0.0
  0
LINE
  5
16A
330
1F
100
AcDbEntity
  8
0
  6
HIDDEN
 62
     7
100
AcDbLine
 10
9.1235228829
 20
3.2706161002
 30
0.0
 11
8.260727126
 21
3.2706161002
 31
0.0
  0
LINE
  5
16B
330
1F
100
AcDbEntity
  8
0
  6
HIDDEN
 62
     7
100
AcDbLine
 10
7.7233255512
 20
3.0107735805
 30
0.0
 11
8.2410420866
 21
3.0107735805
 31
0.0
  0
LINE
  5
16C
330
1F
100
AcDbEntity
  8
0
  6
HIDDEN
 62
     7
100
AcDbLine
 10
8.2410420866
 20
3.2706161002
 30
0.0
 11
7.7233255512
 21
3.2706161002
 31
0.0
  0
LINE
  5
16D
330
1F
100
AcDbEntity
  8
0
  6
HIDDEN
 62
     7
100
AcDbLine
 10
9.0854034854
 20
3.2076989398
 30
0.0
 11
9.0854034854
 21
3.2311192313
 31
0.0
  0
LINE
  5
16E
330
1F
100
AcDbEntity
  8
0
  6
HIDDEN
 62
     7
100
AcDbLine
 10
8.6523326193
 20
3.2311192313
 30
0.0
 11
8.6523326193
 21
2.8430714119
 31
0.0
  0
LINE
  5
16F
330
1F
100
AcDbEntity
  8
0
  6
HIDDEN
 62
     7
100
AcDbLine
 10
8.9987893122
 20
3.2311192313
 30
0.0
 11
8.9987893122
 21
3.7488357667
 31
0.0
  0
LINE
  5
170
330
1F
100
AcDbEntity
  8
0
  6
HIDDEN
 62
     7
100
AcDbLine
 10
8.7389467925
 20
3.7488357667
 30
0.0
 11
8.7389467925
 21
3.2311192313
 31
0.0
  0
LINE
  5
171
330
1F
100
AcDbEntity
  8
0
  6
HIDDEN
 62
     7
100
AcDbLine
 10
8.9987893122
 20
3.7685208061
 30
0.0
 11
8.9987893122
 21
4.4224843958
 31
0.0
  0
LINE
  5
172
330
1F
100
AcDbEntity
  8
0
  6
HIDDEN
 62
     7
100
AcDbLine
 10
8.7389467925
 20
4.6312822909
 30
0.0
 11
8.7389467925
 21
3.7685208061
 31
0.0
  0
LINE
  5
173
330
1F
100
AcDbEntity
  8
0
  6
HIDDEN
 62
     7
100
AcDbLine
 10
7.7154515355
 20
2.9438444466
 30
0.0
 11
7.7233255512
 21
2.9517184624
 31
0.0
  0
LINE
  5
174
330
1F
100
AcDbEntity
  8
0
  6
HIDDEN
 62
     7
100
AcDbLine
 10
7.7233255512
 20
3.3296712183
 30
0.0
 11
7.7154515355
 21
3.337545234
 31
0.0
  0
LINE
  5
175
330
1F
100
AcDbEntity
  8
0
  6
HIDDEN
 62
     7
100
AcDbLine
 10
7.7154515355
 20
3.337545234
 30
0.0
 11
7.4949790945
 21
3.337545234
 31
0.0
  0
LINE
  5
176
330
1F
100
AcDbEntity
  8
0
  6
HIDDEN
 62
     7
100
AcDbLine
 10
7.6711900198
 20
2.9438444466
 30
0.0
 11
7.7154515355
 21
2.9438444466
 31
0.0
  0
LINE
  5
177
330
1F
100
AcDbEntity
  8
0
  6
HIDDEN
 62
     7
100
AcDbLine
 10
7.4949790945
 20
3.337545234
 30
0.0
 11
7.4871050788
 21
3.3296712183
 31
0.0
  0
LINE
  5
178
330
1F
100
AcDbEntity
  8
0
  6
HIDDEN
 62
     7
100
AcDbLine
 10
7.7233255512
 20
3.0225846041
 30
0.0
 11
8.2410420866
 21
3.0225846041
 31
0.0
  0
LINE
  5
179
330
1F
100
AcDbEntity
  8
0
  6
HIDDEN
 62
     7
100
AcDbLine
 10
8.260727126
 20
3.0225846041
 30
0.0
 11
8.9277642787
 21
3.0225846041
 31
0.0
  0
LINE
  5
17A
330
1F
100
AcDbEntity
  8
0
  6
HIDDEN
 62
     7
100
AcDbLine
 10
8.9949790945
 20
3.2588050766
 30
0.0
 11
8.260727126
 21
3.2588050766
 31
0.0
  0
LINE
  5
17B
330
1F
100
AcDbEntity
  8
0
  6
HIDDEN
 62
     7
100
AcDbLine
 10
8.2410420866
 20
3.2588050766
 30
0.0
 11
7.7233255512
 21
3.2588050766
 31
0.0
  0
LINE
  5
17C
330
1F
100
AcDbEntity
  8
0
  6
HIDDEN
 62
     7
100
AcDbLine
 10
9.0028531103
 20
3.2509310608
 30
0.0
 11
8.9949790945
 21
3.2588050766
 31
0.0
  0
LINE
  5
17D
330
1F
100
AcDbEntity
  8
0
  6
HIDDEN
 62
     7
100
AcDbLine
 10
8.6720176587
 20
3.2232452155
 30
0.0
 11
8.6720176587
 21
3.0027727746
 31
0.0
  0
LINE
  5
17E
330
1F
100
AcDbEntity
  8
0
  6
HIDDEN
 62
     7
100
AcDbLine
 10
9.0657184461
 20
3.1789836999
 30
0.0
 11
9.0657184461
 21
3.2232452155
 31
0.0
  0
LINE
  5
17F
330
1F
100
AcDbEntity
  8
0
  6
HIDDEN
 62
     7
100
AcDbLine
 10
9.0657184461
 20
3.2232452155
 30
0.0
 11
9.0578444303
 21
3.2311192313
 31
0.0
  0
LINE
  5
180
330
1F
100
AcDbEntity
  8
0
  6
HIDDEN
 62
     7
100
AcDbLine
 10
8.6798916744
 20
3.2311192313
 30
0.0
 11
8.6720176587
 21
3.2232452155
 31
0.0
  0
LINE
  5
181
330
1F
100
AcDbEntity
  8
0
  6
HIDDEN
 62
     7
100
AcDbLine
 10
8.6720176587
 20
3.0027727746
 30
0.0
 11
8.6798916744
 21
2.9948987588
 31
0.0
  0
LINE
  5
182
330
1F
100
AcDbEntity
  8
0
  6
HIDDEN
 62
     7
100
AcDbLine
 10
8.9869782886
 20
3.2311192313
 30
0.0
 11
8.9869782886
 21
4.4355579588
 31
0.0
  0
LINE
  5
183
330
1F
100
AcDbEntity
  8
0
  6
HIDDEN
 62
     7
100
AcDbLine
 10
8.7507578162
 20
4.5027727746
 30
0.0
 11
8.7507578162
 21
3.2311192313
 31
0.0
  0
LINE
  5
184
330
1F
100
AcDbEntity
  8
0
  6
HIDDEN
 62
     7
100
AcDbLine
 10
8.7586318319
 20
4.5106467903
 30
0.0
 11
8.7507578162
 21
4.5027727746
 31
0.0
  0
LINE
  5
185
330
1F
100
AcDbEntity
  8
0
  6
CONTINUOUS
 62
     7
100
AcDbLine
 10
3.8030140561
 20
5.6719771389
 30
0.0
 11
4.3205731113
 21
5.6719771389
 31
0.0
  0
LINE
  5
186
330
1F
100
AcDbEntity
  8
0
  6
CONTINUOUS
 62
     7
100
AcDbLine
 10
2.3326990955
 20
5.6719771389
 30
0.0
 11
3.7833290168
 21
5.6719771389
 31
0.0
  0
LINE
  5
187
330
1F
100
AcDbEntity
  8
0
  6
CONTINUOUS
 62
     7
100
AcDbLine
 10
3.7833290168
 20
7.6719771389
 30
0.0
 11
2.86994319
 21
7.6719771389
 31
0.0
  0
LINE
  5
188
330
1F
100
AcDbEntity
  8
0
  6
CONTINUOUS
 62
     7
100
AcDbLine
 10
4.3205731113
 20
7.6719771389
 30
0.0
 11
3.8030140561
 21
7.6719771389
 31
0.0
  0
LINE
  5
189
330
1F
100
AcDbEntity
  8
0
  6
CONTINUOUS
 62
     7
100
AcDbLine
 10
2.3226990955
 20
5.6819771389
 30
0.0
 11
2.3326990955
 21
5.6719771389
 31
0.0
  0
LINE
  5
18A
330
1F
100
AcDbEntity
  8
0
  6
CONTINUOUS
 62
     7
100
AcDbLine
 10
4.3205731113
 20
5.6719771389
 30
0.0
 11
4.3305731113
 21
5.6819771389
 31
0.0
  0
LINE
  5
18B
330
1F
100
AcDbEntity
  8
0
  6
CONTINUOUS
 62
     7
100
AcDbLine
 10
4.3305731113
 20
7.6619771389
 30
0.0
 11
4.3205731113
 21
7.6719771389
 31
0.0
  0
LINE
  5
18C
330
1F
100
AcDbEntity
  8
0
  6
CONTINUOUS
 62
     7
100
AcDbLine
 10
2.3326990955
 20
7.6719287001
 30
0.0
 11
2.3326990955
 21
5.6719771389
 31
0.0
  0
LINE
  5
18D
330
1F
100
AcDbEntity
  8
0
  6
CONTINUOUS
 62
     7
100
AcDbLine
 10
2.8502581506
 20
7.6719287001
 30
0.0
 11
2.3326990955
 21
7.6719287001
 31
0.0
  0
LINE
  5
18E
330
1F
100
AcDbEntity
  8
0
  6
CONTINUOUS
 62
     7
100
AcDbLine
 10
2.8502581506
 20
6.0538669027
 30
0.0
 11
2.8502581506
 21
7.6719287001
 31
0.0
  0
LINE
  5
18F
330
1F
100
AcDbEntity
  8
0
  6
CONTINUOUS
 62
     7
100
AcDbLine
 10
2.86994319
 20
6.0538669027
 30
0.0
 11
2.8502581506
 21
6.0538669027
 31
0.0
  0
LINE
  5
190
330
1F
100
AcDbEntity
  8
0
  6
CONTINUOUS
 62
     7
100
AcDbLine
 10
2.86994319
 20
7.6719771389
 30
0.0
 11
2.86994319
 21
6.0538669027
 31
0.0
  0
LINE
  5
191
330
1F
100
AcDbEntity
  8
0
  6
CONTINUOUS
 62
     7
100
AcDbLine
 10
3.8030140561
 20
5.7477692574
 30
0.0
 11
3.8030140561
 21
5.6719771389
 31
0.0
  0
LINE
  5
192
330
1F
100
AcDbEntity
  8
0
  6
CONTINUOUS
 62
     7
100
AcDbLine
 10
3.7833290168
 20
5.7477692574
 30
0.0
 11
3.8030140561
 21
5.7477692574
 31
0.0
  0
LINE
  5
193
330
1F
100
AcDbEntity
  8
0
  6
CONTINUOUS
 62
     7
100
AcDbLine
 10
3.7833290168
 20
7.5961850205
 30
0.0
 11
3.7833290168
 21
7.6719771389
 31
0.0
  0
LINE
  5
194
330
1F
100
AcDbEntity
  8
0
  6
CONTINUOUS
 62
     7
100
AcDbLine
 10
3.7833290168
 20
5.6719771389
 30
0.0
 11
3.7833290168
 21
5.7477692574
 31
0.0
  0
LINE
  5
195
330
1F
100
AcDbEntity
  8
0
  6
CONTINUOUS
 62
     7
100
AcDbLine
 10
3.8030140561
 20
7.5961850205
 30
0.0
 11
3.7833290168
 21
7.5961850205
 31
0.0
  0
LINE
  5
196
330
1F
100
AcDbEntity
  8
0
  6
CONTINUOUS
 62
     7
100
AcDbLine
 10
3.8030140561
 20
7.6719771389
 30
0.0
 11
3.8030140561
 21
7.5961850205
 31
0.0
  0
LINE
  5
197
330
1F
100
AcDbEntity
  8
0
  6
CONTINUOUS
 62
     7
100
AcDbLine
 10
4.3205731113
 20
5.6719771389
 30
0.0
 11
4.3205731113
 21
7.6719771389
 31
0.0
  0
SPLINE
  5
198
330
1F
100
AcDbEntity
  8
0
  6
CONTINUOUS
 62
     7
100
AcDbSpline
210
0.0
220
0.0
230
1.0
 70
     8
 71
     3
 72
    70
 73
    66
 74
     0
 42
0.00000001
 43
0.00000001
 40
-0.0312499999999998
 40
-0.0312499999999998
 40
0.0
 40
0.0
 40
0.0312500000000004
 40
0.0312500000000004
 40
0.0468750000000007
 40
0.0468750000000007
 40
0.0625000000000009
 40
0.0625000000000009
 40
0.0937500000000011
 40
0.0937500000000011
 40
0.1250000000000012
 40
0.1250000000000012
 40
0.1875000000000013
 40
0.1875000000000013
 40
0.2187500000000014
 40
0.2187500000000014
 40
0.2500000000000014
 40
0.2500000000000014
 40
0.2812500000000016
 40
0.2812500000000016
 40
0.3125000000000016
 40
0.3125000000000016
 40
0.3437500000000018
 40
0.3437500000000018
 40
0.3750000000000019
 40
0.3750000000000019
 40
0.4062500000000021
 40
0.4062500000000021
 40
0.4375000000000022
 40
0.4375000000000022
 40
0.4531250000000023
 40
0.4531250000000023
 40
0.4687500000000024
 40
0.4687500000000024
 40
0.4843750000000026
 40
0.4843750000000026
 40
0.5000000000000027
 40
0.5000000000000027
 40
0.5312500000000024
 40
0.5312500000000024
 40
0.5625000000000022
 40
0.5625000000000022
 40
0.593750000000002
 40
0.593750000000002
 40
0.6250000000000017
 40
0.6250000000000017
 40
0.6562500000000014
 40
0.6562500000000014
 40
0.6875000000000012
 40
0.6875000000000012
 40
0.7500000000000012
 40
0.7500000000000012
 40
0.8125000000000009
 40
0.8125000000000009
 40
0.8437500000000008
 40
0.8437500000000008
 40
0.8750000000000006
 40
0.8750000000000006
 40
0.9062500000000004
 40
0.9062500000000004
 40
0.9375000000000003
 40
0.9375000000000003
 40
0.9687500000000002
 40
0.9687500000000002
 40
1.0
 40
1.0
 40
1.03125
 40
1.03125
 10
2.576585333860132
 20
7.419881844809774
 30
0.0
 10
2.596371912279052
 20
7.419881844809774
 30
0.0
 10
2.605936223067675
 20
7.418768259208346
 30
0.0
 10
2.619851140668207
 20
7.415612601161591
 30
0.0
 10
2.624411845612916
 20
7.414305912744075
 30
0.0
 10
2.633110211409673
 20
7.411312078082615
 30
0.0
 10
2.637289382723947
 20
7.409616561510012
 30
0.0
 10
2.649376452630345
 20
7.403988677275939
 30
0.0
 10
2.656805017979608
 20
7.399514021389417
 30
0.0
 10
2.670112475160888
 20
7.389725989979791
 30
0.0
 10
2.676089895024514
 20
7.38436454436234
 30
0.0
 10
2.692298552504955
 20
7.366984553317915
 30
0.0
 10
2.700398104368473
 20
7.354199619084311
 30
0.0
 10
2.709125753088167
 20
7.333473884640252
 30
0.0
 10
2.711450899963572
 20
7.326258559693657
 30
0.0
 10
2.714793797060106
 20
7.311659181352471
 30
0.0
 10
2.715835537498621
 20
7.304231008843482
 30
0.0
 10
2.716617513916533
 20
7.289108882358176
 30
0.0
 10
2.716352431820246
 20
7.281369886417052
 30
0.0
 10
2.714376810809366
 20
7.265813952202757
 30
0.0
 10
2.712685847335427
 20
7.258088357243596
 30
0.0
 10
2.7077964890143
 20
7.242779256461402
 30
0.0
 10
2.70457568794257
 20
7.235150610181059
 30
0.0
 10
2.696473996260607
 20
7.220303798189187
 30
0.0
 10
2.691671699116952
 20
7.213210849420669
 30
0.0
 10
2.680429754837926
 20
7.199798009614586
 30
0.0
 10
2.673892332887096
 20
7.193413418470758
 30
0.0
 10
2.65956480104964
 20
7.182160201800821
 30
0.0
 10
2.651757191797589
 20
7.177231531681257
 30
0.0
 10
2.638985700141385
 20
7.171028083420534
 30
0.0
 10
2.634518223022632
 20
7.169151634302372
 30
0.0
 10
2.625466395344578
 20
7.165934138846146
 30
0.0
 10
2.620861160444358
 20
7.164579054311945
 30
0.0
 10
2.611492371543567
 20
7.162379240354979
 30
0.0
 10
2.60672884198715
 20
7.161534427477407
 30
0.0
 10
2.597037458987029
 20
7.160377174463115
 30
0.0
 10
2.59208352148293
 20
7.160068151662447
 30
0.0
 10
2.577409676839046
 20
7.159987551605192
 30
0.0
 10
2.567748608046545
 20
7.161025566889694
 30
0.0
 10
2.548670208081024
 20
7.165278685296626
 30
0.0
 10
2.539557966788406
 20
7.168437321945363
 30
0.0
 10
2.522410102078073
 20
7.176538029629683
 30
0.0
 10
2.514321973490204
 20
7.181532191444221
 30
0.0
 10
2.499833535020894
 20
7.192718992438432
 30
0.0
 10
2.493265795521263
 20
7.199027482268042
 30
0.0
 10
2.481822237577679
 20
7.212471867325083
 30
0.0
 10
2.47695496136905
 20
7.219564046902627
 30
0.0
 10
2.468750623220072
 20
7.234361816139062
 30
0.0
 10
2.465450343046874
 20
7.242033093315039
 30
0.0
 10
2.457938478516782
 20
7.265093215857039
 30
0.0
 10
2.455983022051588
 20
7.280914952427175
 30
0.0
 10
2.457422880422807
 20
7.311303983079712
 30
0.0
 10
2.460825343821335
 20
7.326213538404272
 30
0.0
 10
2.469463734878589
 20
7.346907244795856
 30
0.0
 10
2.472935706331357
 20
7.353565846720032
 30
0.0
 10
2.481151554711099
 20
7.366405545135144
 30
0.0
 10
2.485926377697164
 20
7.372608522768315
 30
0.0
 10
2.496634607673543
 20
7.384138547196851
 30
0.0
 10
2.502587686339797
 20
7.389514425680098
 30
0.0
 10
2.515961426594433
 20
7.39939541245542
 30
0.0
 10
2.523385380881105
 20
7.403878526205316
 30
0.0
 10
2.539437108581819
 20
7.411390196102553
 30
0.0
 10
2.548281840583228
 20
7.414501595806663
 30
0.0
 10
2.566770558211567
 20
7.418728010012426
 30
0.0
 10
2.576585333860132
 20
7.419881844809774
 30
0.0
 10
2.596371912279052
 20
7.419881844809774
 30
0.0
  0
LINE
  5
199
330
1F
100
AcDbEntity
  8
0
  6
CONTINUOUS
 62
     7
100
AcDbLine
 10
2.3226990955
 20
7.6619282108
 30
0.0
 11
2.3326990955
 21
7.6719287001
 31
0.0
  0
LINE
  5
19A
330
1F
100
AcDbEntity
  8
0
  6
CONTINUOUS
 62
     7
100
AcDbLine
 10
2.3226990955
 20
5.6819771389
 30
0.0
 11
2.3226990955
 21
7.6619282108
 31
0.0
  0
LINE
  5
19B
330
1F
100
AcDbEntity
  8
0
  6
CONTINUOUS
 62
     7
100
AcDbLine
 10
4.3305731113
 20
7.6619771389
 30
0.0
 11
4.3305731113
 21
5.6819771389
 31
0.0
  0
LINE
  5
19C
330
1F
100
AcDbEntity
  8
0
  6
CONTINUOUS
 62
     7
100
AcDbLine
 10
2.5864786231
 20
7.1600393251
 30
0.0
 11
2.5890220794
 21
7.160064224
 31
0.0
  0
ARC
  5
19D
330
1F
100
AcDbEntity
  8
0
  6
CONTINUOUS
 62
     7
100
AcDbCircle
 10
2.5864786231
 20
7.289960585
 30
0.0
 40
0.129921259842521
100
AcDbArc
 50
80.9365342514
 51
95.4119885471
  0
LINE
  5
19E
330
1F
100
AcDbEntity
  8
0
  6
CONTINUOUS
 62
     7
100
AcDbLine
 10
2.5767347421
 20
7.1604052279
 30
0.0
 11
2.5864786231
 21
7.1600393251
 31
0.0
  0
CIRCLE
  5
19F
330
1F
100
AcDbEntity
  8
0
  6
CONTINUOUS
 62
     7
100
AcDbCircle
 10
2.5864786231
 20
7.289960585
 30
0.0
 40
0.1102362204724407
  0
CIRCLE
  5
1A0
330
1F
100
AcDbEntity
  8
0
  6
CONTINUOUS
 62
     7
100
AcDbCircle
 10
2.5864786231
 20
7.289960585
 30
0.0
 40
0.1181102362204727
  0
SPLINE
  5
1A1
330
1F
100
AcDbEntity
  8
0
  6
HIDDEN
 62
     7
100
AcDbSpline
210
0.0
220
0.0
230
1.0
 70
     8
 71
     3
 72
    74
 73
    70
 74
     0
 42
0.00000001
 43
0.00000001
 40
-0.0624999999999997
 40
-0.0624999999999997
 40
0.0
 40
0.0
 40
0.0624999999999993
 40
0.0624999999999993
 40
0.0937499999999992
 40
0.0937499999999992
 40
0.124999999999999
 40
0.124999999999999
 40
0.1562499999999988
 40
0.1562499999999988
 40
0.1718749999999989
 40
0.1718749999999989
 40
0.187499999999999
 40
0.187499999999999
 40
0.2187499999999991
 40
0.2187499999999991
 40
0.2343749999999994
 40
0.2343749999999994
 40
0.2499999999999997
 40
0.2499999999999997
 40
0.2812499999999998
 40
0.2812499999999998
 40
0.3124999999999999
 40
0.3124999999999999
 40
0.3437500000000001
 40
0.3437500000000001
 40
0.3750000000000002
 40
0.3750000000000002
 40
0.4062500000000003
 40
0.4062500000000003
 40
0.4375000000000004
 40
0.4375000000000004
 40
0.4687500000000006
 40
0.4687500000000006
 40
0.5000000000000007
 40
0.5000000000000007
 40
0.5312500000000008
 40
0.5312500000000008
 40
0.5625000000000009
 40
0.5625000000000009
 40
0.593750000000001
 40
0.593750000000001
 40
0.6250000000000011
 40
0.6250000000000011
 40
0.6562500000000012
 40
0.6562500000000012
 40
0.6875000000000013
 40
0.6875000000000013
 40
0.7187500000000014
 40
0.7187500000000014
 40
0.7343750000000013
 40
0.7343750000000013
 40
0.7500000000000011
 40
0.7500000000000011
 40
0.765625000000001
 40
0.765625000000001
 40
0.7812500000000009
 40
0.7812500000000009
 40
0.8125000000000008
 40
0.8125000000000008
 40
0.8437500000000007
 40
0.8437500000000007
 40
0.8750000000000006
 40
0.8750000000000006
 40
0.9062500000000004
 40
0.9062500000000004
 40
0.9375000000000003
 40
0.9375000000000003
 40
1.0
 40
1.0
 40
1.062499999999999
 40
1.062499999999999
 10
4.196714843542033
 20
7.446048289282996
 30
0.0
 10
4.196714843542033
 20
7.470288207232252
 30
0.0
 10
4.194058499895392
 20
7.481663756458315
 30
0.0
 10
4.185360289821745
 20
7.497639651347906
 30
0.0
 10
4.18164784058082
 20
7.502758203786204
 30
0.0
 10
4.172710978209669
 20
7.512226911379334
 30
0.0
 10
4.167464833756581
 20
7.516630531785276
 30
0.0
 10
4.155164597670947
 20
7.524757988414599
 30
0.0
 10
4.148339053393423
 20
7.528329797722767
 30
0.0
 10
4.137052970785742
 20
7.532983709282663
 30
0.0
 10
4.13311474145443
 20
7.534417123195199
 30
0.0
 10
4.124860938085294
 20
7.537042616166486
 30
0.0
 10
4.120516576623506
 20
7.538239544401681
 30
0.0
 10
4.10727156240277
 20
7.541357941227353
 30
0.0
 10
4.098070307167824
 20
7.542851821280412
 30
0.0
 10
4.083687688676767
 20
7.544220194731117
 30
0.0
 10
4.078764513191786
 20
7.544528460227323
 30
0.0
 10
4.069003164589039
 20
7.544826944400466
 30
0.0
 10
4.064137504002316
 20
7.544821671828474
 30
0.0
 10
4.049584770368471
 20
7.544350405968554
 30
0.0
 10
4.039812753435768
 20
7.543407003096529
 30
0.0
 10
4.021305671777169
 20
7.540359616359841
 30
0.0
 10
4.012456128241819
 20
7.538254075785127
 30
0.0
 10
3.995873320236048
 20
7.532927829528171
 30
0.0
 10
3.988336632669509
 20
7.529778630962835
 30
0.0
 10
3.974629833944052
 20
7.522513896585433
 30
0.0
 10
3.968516627268162
 20
7.518406689892203
 30
0.0
 10
3.958029601442951
 20
7.509546498798906
 30
0.0
 10
3.95355530260209
 20
7.504712185719677
 30
0.0
 10
3.946260291553235
 20
7.494517558412443
 30
0.0
 10
3.943438261866537
 20
7.489184056233605
 30
0.0
 10
3.939265024285953
 20
7.478043605905478
 30
0.0
 10
3.937922522070819
 20
7.472211193809217
 30
0.0
 10
3.936670766396243
 20
7.460395112184084
 30
0.0
 10
3.936742178010754
 20
7.454374169748157
 30
0.0
 10
3.938193580915598
 20
7.442106322941482
 30
0.0
 10
3.939589173453411
 20
7.435835063152196
 30
0.0
 10
3.943588915813903
 20
7.423398866136041
 30
0.0
 10
3.946192591624861
 20
7.417196113290503
 30
0.0
 10
3.952618372192957
 20
7.404846080175264
 30
0.0
 10
3.956468212938283
 20
7.39866005496144
 30
0.0
 10
3.965399772007065
 20
7.386583493565583
 30
0.0
 10
3.970439753930323
 20
7.380734439585177
 30
0.0
 10
3.981813790152959
 20
7.369527951342345
 30
0.0
 10
3.988210111995915
 20
7.364122008667712
 30
0.0
 10
4.002351751631324
 20
7.354266226388061
 30
0.0
 10
4.010020762264467
 20
7.349848565390857
 30
0.0
 10
4.026911775928689
 20
7.342433077548973
 30
0.0
 10
4.035980696472752
 20
7.339530956959186
 30
0.0
 10
4.050240686059564
 20
7.336874170503608
 30
0.0
 10
4.055158554392212
 20
7.336267641921932
 30
0.0
 10
4.064902056158909
 20
7.335695696907139
 30
0.0
 10
4.069767113774665
 20
7.335719020593532
 30
0.0
 10
4.079483937715326
 20
7.33637971075366
 30
0.0
 10
4.084379922090456
 20
7.337027745067834
 30
0.0
 10
4.093885691141375
 20
7.338886199741358
 30
0.0
 10
4.098501589429598
 20
7.340089579234682
 30
0.0
 10
4.111980344040783
 20
7.344427666746538
 30
0.0
 10
4.120441345732766
 20
7.348300725974615
 30
0.0
 10
4.135750142545288
 20
7.357116795467253
 30
0.0
 10
4.142789988049044
 20
7.362156220105127
 30
0.0
 10
4.155459867374867
 20
7.372877607887232
 30
0.0
 10
4.161065786752445
 20
7.37851993961538
 30
0.0
 10
4.171078264499992
 20
7.39020461569936
 30
0.0
 10
4.175501843575864
 20
7.396283447263074
 30
0.0
 10
4.183112354265589
 20
7.408606986192273
 30
0.0
 10
4.186278195844567
 20
7.414805010785033
 30
0.0
 10
4.193971415061487
 20
7.433452095531623
 30
0.0
 10
4.196714843542033
 20
7.446048289282996
 30
0.0
 10
4.196714843542033
 20
7.470288207232252
 30
0.0
  0
SPLINE
  5
1A2
330
1F
100
AcDbEntity
  8
0
  6
HIDDEN
 62
     7
100
AcDbSpline
210
0.0
220
0.0
230
1.0
 70
     8
 71
     3
 72
    86
 73
    82
 74
     0
 42
0.00000001
 43
0.00000001
 40
-0.03125
 40
-0.03125
 40
0.0
 40
0.0
 40
0.0625
 40
0.0625
 40
0.0937499999999999
 40
0.0937499999999999
 40
0.1249999999999997
 40
0.1249999999999997
 40
0.1562499999999995
 40
0.1562499999999995
 40
0.1874999999999994
 40
0.1874999999999994
 40
0.2031249999999993
 40
0.2031249999999993
 40
0.2187499999999992
 40
0.2187499999999992
 40
0.2499999999999989
 40
0.2499999999999989
 40
0.2656249999999988
 40
0.2656249999999988
 40
0.2812499999999987
 40
0.2812499999999987
 40
0.2968749999999987
 40
0.2968749999999987
 40
0.3124999999999986
 40
0.3124999999999986
 40
0.3281249999999986
 40
0.3281249999999986
 40
0.3437499999999986
 40
0.3437499999999986
 40
0.3749999999999983
 40
0.3749999999999983
 40
0.4062499999999981
 40
0.4062499999999981
 40
0.4374999999999979
 40
0.4374999999999979
 40
0.4687499999999977
 40
0.4687499999999977
 40
0.4999999999999975
 40
0.4999999999999975
 40
0.5312499999999972
 40
0.5312499999999972
 40
0.562499999999997
 40
0.562499999999997
 40
0.578124999999997
 40
0.578124999999997
 40
0.593749999999997
 40
0.593749999999997
 40
0.624999999999997
 40
0.624999999999997
 40
0.6562499999999971
 40
0.6562499999999971
 40
0.6874999999999971
 40
0.6874999999999971
 40
0.7031249999999972
 40
0.7031249999999972
 40
0.7187499999999973
 40
0.7187499999999973
 40
0.7343749999999974
 40
0.7343749999999974
 40
0.7499999999999976
 40
0.7499999999999976
 40
0.7812499999999981
 40
0.7812499999999981
 40
0.8124999999999987
 40
0.8124999999999987
 40
0.8281249999999989
 40
0.8281249999999989
 40
0.8437499999999991
 40
0.8437499999999991
 40
0.8593749999999993
 40
0.8593749999999993
 40
0.8749999999999996
 40
0.8749999999999996
 40
0.9062499999999998
 40
0.9062499999999998
 40
0.9374999999999999
 40
0.9374999999999999
 40
0.96875
 40
0.96875
 40
1.0
 40
1.0
 40
1.0625
 40
1.0625
 10
4.283329016770379
 20
5.875510524235807
 30
0.0
 10
4.283329016770379
 20
5.90633704025407
 30
0.0
 10
4.278747718777409
 20
5.92771401911611
 30
0.0
 10
4.266182681093832
 20
5.960925638412377
 30
0.0
 10
4.261028222193876
 20
5.972132170409848
 30
0.0
 10
4.249045657592167
 20
5.994319357623102
 30
0.0
 10
4.242196202028024
 20
6.005365102488744
 30
0.0
 10
4.226660017767034
 20
6.027246503904694
 30
0.0
 10
4.217907271727819
 20
6.03815904265062
 30
0.0
 10
4.198526975187922
 20
6.059127805156942
 30
0.0
 10
4.187940661262963
 20
6.069175593039448
 30
0.0
 10
4.170273890103902
 20
6.08319779920192
 30
0.0
 10
4.164046143276117
 20
6.087716460458208
 30
0.0
 10
4.151072034157269
 20
6.096128308867827
 30
0.0
 10
4.144324703068143
 20
6.10002868520662
 30
0.0
 10
4.12314383311273
 20
6.110580198576213
 30
0.0
 10
4.107560945772046
 20
6.116098078005406
 30
0.0
 10
4.083277801284615
 20
6.120276939643014
 30
0.0
 10
4.074879581115097
 20
6.121009054409912
 30
0.0
 10
4.058314133334775
 20
6.120986259499556
 30
0.0
 10
4.050117405203147
 20
6.12025586048245
 30
0.0
 10
4.03388703579967
 20
6.117438564721943
 30
0.0
 10
4.025853466807246
 20
6.115334134432273
 30
0.0
 10
4.010580570543286
 20
6.110122410922465
 30
0.0
 10
4.003245827773879
 20
6.107002795418111
 30
0.0
 10
3.989080199613303
 20
6.099929578385563
 30
0.0
 10
3.982241561156519
 20
6.095962541480637
 30
0.0
 10
3.969330966024823
 20
6.087568220091692
 30
0.0
 10
3.963206144064024
 20
6.083116119200488
 30
0.0
 10
3.945647489039371
 20
6.069169607348411
 30
0.0
 10
3.934948366675804
 20
6.05901602313238
 30
0.0
 10
3.915605490714208
 20
6.038069241108207
 30
0.0
 10
3.906990111933888
 20
6.027324575236804
 30
0.0
 10
3.891502078898098
 20
6.005532083662803
 30
0.0
 10
3.88463477657458
 20
5.994481322294718
 30
0.0
 10
3.872580884366036
 20
5.972183421524892
 30
0.0
 10
3.867439505705296
 20
5.960994245347952
 30
0.0
 10
3.859117964523023
 20
5.939046491605636
 30
0.0
 10
3.855900770082442
 20
5.928221021443158
 30
0.0
 10
3.851482339167369
 20
5.906891027674668
 30
0.0
 10
3.850281834430525
 20
5.896308298102319
 30
0.0
 10
3.850235166205536
 20
5.875875858399709
 30
0.0
 10
3.851370039141958
 20
5.866072419449565
 30
0.0
 10
3.855000145324365
 20
5.851973658742818
 30
0.0
 10
3.856533144633815
 20
5.847375264161566
 30
0.0
 10
3.860302351149248
 20
5.838380334951119
 30
0.0
 10
3.862552011208779
 20
5.833966387008044
 30
0.0
 10
3.870314601150729
 20
5.821265524859475
 30
0.0
 10
3.87684493006449
 20
5.813453448967994
 30
0.0
 10
3.892920463253597
 20
5.799058945543515
 30
0.0
 10
3.902578627745154
 20
5.792449411604759
 30
0.0
 10
3.924286630925041
 20
5.781006909426994
 30
0.0
 10
3.936406634276514
 20
5.776077709269386
 30
0.0
 10
3.956682973437869
 20
5.769785182076189
 30
0.0
 10
3.963770371230045
 20
5.76788497554347
 30
0.0
 10
3.978245529938781
 20
5.764544471396863
 30
0.0
 10
3.985680926327457
 20
5.763088620455812
 30
0.0
 10
4.000949177349218
 20
5.760581428266792
 30
0.0
 10
4.008781940845148
 20
5.759530032738553
 30
0.0
 10
4.02486278554099
 20
5.757829133558008
 30
0.0
 10
4.03306731475914
 20
5.757187573263987
 30
0.0
 10
4.057601869762732
 20
5.755904091311616
 30
0.0
 10
4.07407676386646
 20
5.755865998560273
 30
0.0
 10
4.107214494182298
 20
5.757482060043033
 30
0.0
 10
4.123189212562775
 20
5.75910281589372
 30
0.0
 10
4.146300328689709
 20
5.762794086914871
 30
0.0
 10
4.153909755051498
 20
5.764249670474633
 30
0.0
 10
4.168546085785675
 20
5.767562123970122
 30
0.0
 10
4.175571120916957
 20
5.769414167724892
 30
0.0
 10
4.18906037786221
 20
5.773522798470553
 30
0.0
 10
4.195524468704521
 20
5.775779418857228
 30
0.0
 10
4.207896857087227
 20
5.780726688120387
 30
0.0
 10
4.213814458410824
 20
5.783427017307716
 30
0.0
 10
4.230337365076204
 20
5.79202269909305
 30
0.0
 10
4.239877599274732
 20
5.798462900506218
 30
0.0
 10
4.256241176345428
 20
5.812902663764294
 30
0.0
 10
4.262902670339386
 20
5.820785140175065
 30
0.0
 10
4.273338425743737
 20
5.83761771262063
 30
0.0
 10
4.277172064093123
 20
5.846684730479556
 30
0.0
 10
4.282153698557847
 20
5.865630455335773
 30
0.0
 10
4.283329016770379
 20
5.875510524235807
 30
0.0
 10
4.283329016770379
 20
5.90633704025407
 30
0.0
  0
LINE
  5
1A3
330
1F
100
AcDbEntity
  8
0
  6
HIDDEN
 62
     7
100
AcDbLine
 10
3.7833290168
 20
5.7477692574
 30
0.0
 11
3.7833290168
 21
7.5961850205
 31
0.0
  0
LINE
  5
1A4
330
1F
100
AcDbEntity
  8
0
  6
HIDDEN
 62
     7
100
AcDbLine
 10
3.8030140561
 20
5.7477692574
 30
0.0
 11
3.8030140561
 21
7.5961850205
 31
0.0
  0
LINE
  5
1A5
330
1F
100
AcDbEntity
  8
0
  6
HIDDEN
 62
     7
100
AcDbLine
 10
2.3326990955
 20
6.9079924698
 30
0.0
 11
2.3226990955
 21
6.9180008082
 31
0.0
  0
LINE
  5
1A6
330
1F
100
AcDbEntity
  8
0
  6
HIDDEN
 62
     7
100
AcDbLine
 10
4.3305731113
 20
6.6621346192
 30
0.0
 11
4.3205731113
 21
6.6621346192
 31
0.0
  0
LINE
  5
1A7
330
1F
100
AcDbEntity
  8
0
  6
HIDDEN
 62
     7
100
AcDbLine
 10
4.3305731113
 20
6.6818196586
 30
0.0
 11
4.3205731113
 21
6.6818196586
 31
0.0
  0
LINE
  5
1A8
330
1F
100
AcDbEntity
  8
0
  6
HIDDEN
 62
     7
100
AcDbLine
 10
2.3326990955
 20
6.9079924698
 30
0.0
 11
2.8502581506
 21
6.9079924698
 31
0.0
  0
LINE
  5
1A9
330
1F
100
AcDbEntity
  8
0
  6
HIDDEN
 62
     7
100
AcDbLine
 10
3.8030140561
 20
6.6621346192
 30
0.0
 11
4.3205731113
 21
6.6621346192
 31
0.0
  0
LINE
  5
1AA
330
1F
100
AcDbEntity
  8
0
  6
HIDDEN
 62
     7
100
AcDbLine
 10
3.8030140561
 20
6.6818196586
 30
0.0
 11
4.3205731113
 21
6.6818196586
 31
0.0
  0
LINE
  5
1AB
330
1F
100
AcDbEntity
  8
0
  6
HIDDEN
 62
     7
100
AcDbLine
 10
4.2833290168
 20
6.1444180838
 30
0.0
 11
3.8502581506
 21
6.1444180838
 31
0.0
  0
CIRCLE
  5
1AC
330
1F
100
AcDbEntity
  8
0
  6
HIDDEN
 62
     7
100
AcDbCircle
 10
2.5864786231
 20
7.289960585
 30
0.0
 40
0.2165354330708666
  0
LINE
  5
1AD
330
1F
100
AcDbEntity
  8
0
  6
HIDDEN
 62
     7
100
AcDbLine
 10
3.86994319
 20
5.9160716271
 30
0.0
 11
4.2636439774
 21
5.9160716271
 31
0.0
  0
LINE
  5
1AE
330
1F
100
AcDbEntity
  8
0
  6
HIDDEN
 62
     7
100
AcDbLine
 10
4.2636439774
 20
6.1365440681
 30
0.0
 11
3.86994319
 21
6.1365440681
 31
0.0
  0
LINE
  5
1AF
330
1F
100
AcDbEntity
  8
0
  6
HIDDEN
 62
     7
100
AcDbLine
 10
4.2557699617
 20
5.9081976114
 30
0.0
 11
3.8778172057
 21
5.9081976114
 31
0.0
  0
LINE
  5
1B0
330
1F
100
AcDbEntity
  8
0
  6
HIDDEN
 62
     7
100
AcDbLine
 10
4.1849038199
 20
7.4160716271
 30
0.0
 11
3.9486833475
 21
7.4160716271
 31
0.0
  0
LINE
  5
1B1
330
1F
100
AcDbEntity
  8
0
  6
HIDDEN
 62
     7
100
AcDbLine
 10
3.9565573632
 20
7.4239456429
 30
0.0
 11
4.1770298042
 21
7.4239456429
 31
0.0
  0
LINE
  5
1B2
330
1F
100
AcDbEntity
  8
0
  6
HIDDEN
 62
     7
100
AcDbLine
 10
4.1652187805
 20
5.9672527295
 30
0.0
 11
4.0667935837
 21
5.9672527295
 31
0.0
  0
LINE
  5
1B3
330
1F
100
AcDbEntity
  8
0
  6
HIDDEN
 62
     7
100
AcDbLine
 10
4.0667935837
 20
5.9672527295
 30
0.0
 11
4.0667935837
 21
5.9081976114
 31
0.0
  0
LINE
  5
1B4
330
1F
100
AcDbEntity
  8
0
  6
HIDDEN
 62
     7
100
AcDbLine
 10
4.0667935837
 20
5.9672527295
 30
0.0
 11
3.9683683868
 21
5.9672527295
 31
0.0
  0
LINE
  5
1B5
330
1F
100
AcDbEntity
  8
0
  6
HIDDEN
 62
     7
100
AcDbLine
 10
3.9683683868
 20
5.9672527295
 30
0.0
 11
3.9683683868
 21
5.9081976114
 31
0.0
  0
LINE
  5
1B6
330
1F
100
AcDbEntity
  8
0
  6
HIDDEN
 62
     7
100
AcDbLine
 10
4.1652187805
 20
5.9672527295
 30
0.0
 11
4.1652187805
 21
5.9081976114
 31
0.0
  0
CIRCLE
  5
1B7
330
1F
100
AcDbEntity
  8
0
  6
HIDDEN
 62
     7
100
AcDbCircle
 10
2.5864786231
 20
7.289960585
 30
0.0
 40
0.1968503937007875
  0
CIRCLE
  5
1B8
330
1F
100
AcDbEntity
  8
0
  6
HIDDEN
 62
     7
100
AcDbCircle
 10
2.5864786231
 20
7.289960585
 30
0.0
 40
0.188976377952756
  0
LINE
  5
1B9
330
1F
100
AcDbEntity
  8
0
  6
HIDDEN
 62
     7
100
AcDbLine
 10
2.6849038199
 20
7.3467863989
 30
0.0
 11
2.5864786231
 21
7.4036122128
 31
0.0
  0
LINE
  5
1BA
330
1F
100
AcDbEntity
  8
0
  6
HIDDEN
 62
     7
100
AcDbLine
 10
2.5864786231
 20
7.4036122128
 30
0.0
 11
2.4880534262
 21
7.3467863989
 31
0.0
  0
LINE
  5
1BB
330
1F
100
AcDbEntity
  8
0
  6
HIDDEN
 62
     7
100
AcDbLine
 10
2.6849038199
 20
7.2331347711
 30
0.0
 11
2.6849038199
 21
7.3467863989
 31
0.0
  0
LINE
  5
1BC
330
1F
100
AcDbEntity
  8
0
  6
HIDDEN
 62
     7
100
AcDbLine
 10
2.4880534262
 20
7.3467863989
 30
0.0
 11
2.4880534262
 21
7.2331347711
 31
0.0
  0
LINE
  5
1BD
330
1F
100
AcDbEntity
  8
0
  6
HIDDEN
 62
     7
100
AcDbLine
 10
2.4880534262
 20
7.2331347711
 30
0.0
 11
2.5864786231
 21
7.1763089572
 31
0.0
  0
LINE
  5
1BE
330
1F
100
AcDbEntity
  8
0
  6
HIDDEN
 62
     7
100
AcDbLine
 10
2.5864786231
 20
7.1763089572
 30
0.0
 11
2.6849038199
 21
7.2331347711
 31
0.0
  0
LINE
  5
1BF
330
1F
100
AcDbEntity
  8
0
  6
HIDDEN
 62
     7
100
AcDbLine
 10
2.3226990955
 20
6.4257566665
 30
0.0
 11
2.3326990955
 21
6.4357566665
 31
0.0
  0
LINE
  5
1C0
330
1F
100
AcDbEntity
  8
0
  6
HIDDEN
 62
     7
100
AcDbLine
 10
4.3305731113
 20
6.9181976114
 30
0.0
 11
4.3205731113
 21
6.9081976114
 31
0.0
  0
LINE
  5
1C1
330
1F
100
AcDbEntity
  8
0
  6
HIDDEN
 62
     7
100
AcDbLine
 10
4.3205731113
 20
6.4357566665
 30
0.0
 11
4.3305731113
 21
6.4257566665
 31
0.0
  0
LINE
  5
1C2
330
1F
100
AcDbEntity
  8
0
  6
HIDDEN
 62
     7
100
AcDbLine
 10
3.7833290168
 20
6.9081976114
 30
0.0
 11
2.86994319
 21
6.9081976114
 31
0.0
  0
LINE
  5
1C3
330
1F
100
AcDbEntity
  8
0
  6
HIDDEN
 62
     7
100
AcDbLine
 10
2.86994319
 20
6.4357566665
 30
0.0
 11
3.7833290168
 21
6.4357566665
 31
0.0
  0
LINE
  5
1C4
330
1F
100
AcDbEntity
  8
0
  6
HIDDEN
 62
     7
100
AcDbLine
 10
2.3326990955
 20
6.4357566665
 30
0.0
 11
2.8502581506
 21
6.4357566665
 31
0.0
  0
LINE
  5
1C5
330
1F
100
AcDbEntity
  8
0
  6
HIDDEN
 62
     7
100
AcDbLine
 10
4.3205731113
 20
6.9081976114
 30
0.0
 11
3.8030140561
 21
6.9081976114
 31
0.0
  0
LINE
  5
1C6
330
1F
100
AcDbEntity
  8
0
  6
HIDDEN
 62
     7
100
AcDbLine
 10
3.8030140561
 20
6.4357566665
 30
0.0
 11
4.3205731113
 21
6.4357566665
 31
0.0
  0
LINE
  5
1C7
330
1F
100
AcDbEntity
  8
0
  6
HIDDEN
 62
     7
100
AcDbLine
 10
4.2833290168
 20
5.8857860296
 30
0.0
 11
4.2833290168
 21
6.1444180838
 31
0.0
  0
LINE
  5
1C8
330
1F
100
AcDbEntity
  8
0
  6
HIDDEN
 62
     7
100
AcDbLine
 10
3.8502581506
 20
6.1444180838
 30
0.0
 11
3.8502581506
 21
5.8861111615
 31
0.0
  0
LINE
  5
1C9
330
1F
100
AcDbEntity
  8
0
  6
HIDDEN
 62
     7
100
AcDbLine
 10
4.1967148435
 20
6.6818196586
 30
0.0
 11
4.1967148435
 21
7.4581682483
 31
0.0
  0
LINE
  5
1CA
330
1F
100
AcDbEntity
  8
0
  6
HIDDEN
 62
     7
100
AcDbLine
 10
3.9368723239
 20
7.4581584474
 30
0.0
 11
3.9368723239
 21
6.6818196586
 31
0.0
  0
LINE
  5
1CB
330
1F
100
AcDbEntity
  8
0
  6
HIDDEN
 62
     7
100
AcDbLine
 10
4.1967148435
 20
6.1444180838
 30
0.0
 11
4.1967148435
 21
6.6621346192
 31
0.0
  0
LINE
  5
1CC
330
1F
100
AcDbEntity
  8
0
  6
HIDDEN
 62
     7
100
AcDbLine
 10
3.9368723239
 20
6.6621346192
 30
0.0
 11
3.9368723239
 21
6.1444180838
 31
0.0
  0
LINE
  5
1CD
330
1F
100
AcDbEntity
  8
0
  6
HIDDEN
 62
     7
100
AcDbLine
 10
3.86994319
 20
6.1365440681
 30
0.0
 11
3.86994319
 21
5.9160716271
 31
0.0
  0
LINE
  5
1CE
330
1F
100
AcDbEntity
  8
0
  6
HIDDEN
 62
     7
100
AcDbLine
 10
4.2636439774
 20
5.9160716271
 30
0.0
 11
4.2636439774
 21
6.1365440681
 31
0.0
  0
LINE
  5
1CF
330
1F
100
AcDbEntity
  8
0
  6
HIDDEN
 62
     7
100
AcDbLine
 10
4.2636439774
 20
6.1365440681
 30
0.0
 11
4.2557699617
 21
6.1444180838
 31
0.0
  0
LINE
  5
1D0
330
1F
100
AcDbEntity
  8
0
  6
HIDDEN
 62
     7
100
AcDbLine
 10
3.8778172057
 20
6.1444180838
 30
0.0
 11
3.86994319
 21
6.1365440681
 31
0.0
  0
LINE
  5
1D1
330
1F
100
AcDbEntity
  8
0
  6
HIDDEN
 62
     7
100
AcDbLine
 10
3.86994319
 20
5.9160716271
 30
0.0
 11
3.8778172057
 21
5.9081976114
 31
0.0
  0
LINE
  5
1D2
330
1F
100
AcDbEntity
  8
0
  6
HIDDEN
 62
     7
100
AcDbLine
 10
4.2557699617
 20
5.9081976114
 30
0.0
 11
4.2636439774
 21
5.9160716271
 31
0.0
  0
LINE
  5
1D3
330
1F
100
AcDbEntity
  8
0
  6
HIDDEN
 62
     7
100
AcDbLine
 10
4.1849038199
 20
6.1444180838
 30
0.0
 11
4.1849038199
 21
7.4160716271
 31
0.0
  0
LINE
  5
1D4
330
1F
100
AcDbEntity
  8
0
  6
HIDDEN
 62
     7
100
AcDbLine
 10
3.9486833475
 20
7.4160716271
 30
0.0
 11
3.9486833475
 21
6.1444180838
 31
0.0
  0
LINE
  5
1D5
330
1F
100
AcDbEntity
  8
0
  6
HIDDEN
 62
     7
100
AcDbLine
 10
4.1849038199
 20
7.4160716271
 30
0.0
 11
4.1770298042
 21
7.4239456429
 31
0.0
  0
LINE
  5
1D6
330
1F
100
AcDbEntity
  8
0
  6
HIDDEN
 62
     7
100
AcDbLine
 10
3.9565573632
 20
7.4239456429
 30
0.0
 11
3.9486833475
 21
7.4160716271
 31
0.0
  0
LINE
  5
1D7
330
1F
100
AcDbEntity
  8
0
  6
CONTINUOUS
 62
     7
100
AcDbLine
 10
9.5834667685
 20
6.8467578362
 30
0.0
 11
9.5834667685
 21
6.8549219173
 31
0.0
  0
LINE
  5
1D8
330
1F
100
AcDbEntity
  8
0
  6
CONTINUOUS
 62
     7
100
AcDbLine
 10
8.3359823104
 20
5.6040019931
 30
0.0
 11
8.376400621
 21
5.580668999
 31
0.0
  0
LINE
  5
1D9
330
1F
100
AcDbEntity
  8
0
  6
CONTINUOUS
 62
     7
100
AcDbLine
 10
8.0104311035
 20
5.7919387045
 30
0.0
 11
8.025196598
 21
5.7834147659
 31
0.0
  0
LINE
  5
1DA
330
1F
100
AcDbEntity
  8
0
  6
CONTINUOUS
 62
     7
100
AcDbLine
 10
6.9707614243
 20
6.3921272349
 30
0.0
 11
7.9965116787
 21
5.7999742174
 31
0.0
  0
LINE
  5
1DB
330
1F
100
AcDbEntity
  8
0
  6
CONTINUOUS
 62
     7
100
AcDbLine
 10
8.0470510315
 20
8.0801369922
 30
0.0
 11
7.970680157
 21
8.1242249597
 31
0.0
  0
LINE
  5
1DC
330
1F
100
AcDbEntity
  8
0
  6
CONTINUOUS
 62
     7
100
AcDbLine
 10
8.3366496745
 20
7.9129552542
 30
0.0
 11
8.2168552598
 21
7.9821110978
 31
0.0
  0
LINE
  5
1DD
330
1F
100
AcDbEntity
  8
0
  6
CONTINUOUS
 62
     7
100
AcDbLine
 10
9.3763193537
 20
7.3127667238
 30
0.0
 11
8.3505690993
 21
7.9049197413
 31
0.0
  0
LINE
  5
1DE
330
1F
100
AcDbEntity
  8
0
  6
CONTINUOUS
 62
     7
100
AcDbLine
 10
7.4706058659
 20
8.0746505537
 30
0.0
 11
7.4635359474
 21
8.0705678497
 31
0.0
  0
LINE
  5
1DF
330
1F
100
AcDbEntity
  8
0
  6
CONTINUOUS
 62
     7
100
AcDbLine
 10
6.7636140095
 20
6.8581361225
 30
0.0
 11
6.7636140095
 21
6.8499720414
 31
0.0
  0
LINE
  5
1E0
330
1F
100
AcDbEntity
  8
0
  6
CONTINUOUS
 62
     7
100
AcDbLine
 10
8.0232106009
 20
5.8174944224
 30
0.0
 11
8.0232106009
 21
5.8110660121
 31
0.0
  0
LINE
  5
1E1
330
1F
100
AcDbEntity
  8
0
  6
CONTINUOUS
 62
     7
100
AcDbLine
 10
8.1568153611
 20
5.5796307026
 30
0.0
 11
8.1623822262
 21
5.5764159751
 31
0.0
  0
LINE
  5
1E2
330
1F
100
AcDbEntity
  8
0
  6
CONTINUOUS
 62
     7
100
AcDbLine
 10
8.2608220472
 20
5.5666572338
 30
0.0
 11
8.3310791594
 21
5.6072158013
 31
0.0
  0
LINE
  5
1E3
330
1F
100
AcDbEntity
  8
0
  6
CONTINUOUS
 62
     7
100
AcDbLine
 10
8.1706804203
 20
8.0626343736
 30
0.0
 11
8.1651117457
 21
8.065850146
 31
0.0
  0
LINE
  5
1E4
330
1F
100
AcDbEntity
  8
0
  6
CONTINUOUS
 62
     7
100
AcDbLine
 10
8.0091888561
 20
8.065850146
 30
0.0
 11
8.0036201814
 21
8.0626343736
 31
0.0
  0
LINE
  5
1E5
330
1F
100
AcDbEntity
  8
0
  6
CONTINUOUS
 62
     7
100
AcDbLine
 10
8.2052605371
 20
7.9866879218
 30
0.0
 11
8.2052605371
 21
8.0144291315
 31
0.0
  0
POLYLINE
  5
1E6
330
1F
100
AcDbEntity
  8
0
  6
CONTINUOUS
 62
     7
100
AcDb2dPolyline
 66
     1
 10
0.0
 20
0.0
 30
0.0
  0
VERTEX
  5
21D
330
1E6
100
AcDbEntity
  8
0
  6
CONTINUOUS
 62
     7
100
AcDbVertex
100
AcDb2dVertex
 10
8.8903907676
 20
5.6383181253
 30
0.0
  0
VERTEX
  5
21E
330
1E6
100
AcDbEntity
  8
0
  6
CONTINUOUS
 62
     7
100
AcDbVertex
100
AcDb2dVertex
 10
8.9246212527
 20
5.6594395885
 30
0.0
  0
VERTEX
  5
21F
330
1E6
100
AcDbEntity
  8
0
  6
CONTINUOUS
 62
     7
100
AcDbVertex
100
AcDb2dVertex
 10
8.958753134
 20
5.6824359191
 30
0.0
  0
VERTEX
  5
220
330
1E6
100
AcDbEntity
  8
0
  6
CONTINUOUS
 62
     7
100
AcDbVertex
100
AcDb2dVertex
 10
8.9927047042
 20
5.7072520671
 30
0.0
  0
VERTEX
  5
221
330
1E6
100
AcDbEntity
  8
0
  6
CONTINUOUS
 62
     7
100
AcDbVertex
100
AcDb2dVertex
 10
9.0263946879
 20
5.7338286259
 30
0.0
  0
VERTEX
  5
222
330
1E6
100
AcDbEntity
  8
0
  6
CONTINUOUS
 62
     7
100
AcDbVertex
100
AcDb2dVertex
 10
9.0597424357
 20
5.7621019747
 30
0.0
  0
VERTEX
  5
223
330
1E6
100
AcDbEntity
  8
0
  6
CONTINUOUS
 62
     7
100
AcDbVertex
100
AcDb2dVertex
 10
9.0926681175
 20
5.7920044308
 30
0.0
  0
VERTEX
  5
224
330
1E6
100
AcDbEntity
  8
0
  6
CONTINUOUS
 62
     7
100
AcDbVertex
100
AcDb2dVertex
 10
9.1250929137
 20
5.8234644119
 30
0.0
  0
VERTEX
  5
225
330
1E6
100
AcDbEntity
  8
0
  6
CONTINUOUS
 62
     7
100
AcDbVertex
100
AcDb2dVertex
 10
9.1569392035
 20
5.8564066069
 30
0.0
  0
VERTEX
  5
226
330
1E6
100
AcDbEntity
  8
0
  6
CONTINUOUS
 62
     7
100
AcDbVertex
100
AcDb2dVertex
 10
9.1881307513
 20
5.8907521565
 30
0.0
  0
VERTEX
  5
227
330
1E6
100
AcDbEntity
  8
0
  6
CONTINUOUS
 62
     7
100
AcDbVertex
100
AcDb2dVertex
 10
9.2185928886
 20
5.9264188421
 30
0.0
  0
VERTEX
  5
228
330
1E6
100
AcDbEntity
  8
0
  6
CONTINUOUS
 62
     7
100
AcDbVertex
100
AcDb2dVertex
 10
9.2482526931
 20
5.9633212825
 30
0.0
  0
VERTEX
  5
229
330
1E6
100
AcDbEntity
  8
0
  6
CONTINUOUS
 62
     7
100
AcDbVertex
100
AcDb2dVertex
 10
9.2770391632
 20
6.001371138
 30
0.0
  0
VERTEX
  5
22A
330
1E6
100
AcDbEntity
  8
0
  6
CONTINUOUS
 62
     7
100
AcDbVertex
100
AcDb2dVertex
 10
9.3048833879
 20
6.0404773223
 30
0.0
  0
VERTEX
  5
22B
330
1E6
100
AcDbEntity
  8
0
  6
CONTINUOUS
 62
     7
100
AcDbVertex
100
AcDb2dVertex
 10
9.3317187118
 20
6.0805462206
 30
0.0
  0
VERTEX
  5
22C
330
1E6
100
AcDbEntity
  8
0
  6
CONTINUOUS
 62
     7
100
AcDbVertex
100
AcDb2dVertex
 10
9.3574808948
 20
6.1214819131
 30
0.0
  0
VERTEX
  5
22D
330
1E6
100
AcDbEntity
  8
0
  6
CONTINUOUS
 62
     7
100
AcDbVertex
100
AcDb2dVertex
 10
9.3821082656
 20
6.1631864054
 30
0.0
  0
VERTEX
  5
22E
330
1E6
100
AcDbEntity
  8
0
  6
CONTINUOUS
 62
     7
100
AcDbVertex
100
AcDb2dVertex
 10
9.4055418695
 20
6.2055598623
 30
0.0
  0
VERTEX
  5
22F
330
1E6
100
AcDbEntity
  8
0
  6
CONTINUOUS
 62
     7
100
AcDbVertex
100
AcDb2dVertex
 10
9.4277256097
 20
6.2485008475
 30
0.0
  0
VERTEX
  5
230
330
1E6
100
AcDbEntity
  8
0
  6
CONTINUOUS
 62
     7
100
AcDbVertex
100
AcDb2dVertex
 10
9.4486063813
 20
6.2919065659
 30
0.0
  0
VERTEX
  5
231
330
1E6
100
AcDbEntity
  8
0
  6
CONTINUOUS
 62
     7
100
AcDbVertex
100
AcDb2dVertex
 10
9.4681341984
 20
6.3356731102
 30
0.0
  0
VERTEX
  5
232
330
1E6
100
AcDbEntity
  8
0
  6
CONTINUOUS
 62
     7
100
AcDbVertex
100
AcDb2dVertex
 10
9.486262314
 20
6.3796957089
 30
0.0
  0
VERTEX
  5
233
330
1E6
100
AcDbEntity
  8
0
  6
CONTINUOUS
 62
     7
100
AcDbVertex
100
AcDb2dVertex
 10
9.5029473319
 20
6.4238689778
 30
0.0
  0
VERTEX
  5
234
330
1E6
100
AcDbEntity
  8
0
  6
CONTINUOUS
 62
     7
100
AcDbVertex
100
AcDb2dVertex
 10
9.5181493103
 20
6.4680871721
 30
0.0
  0
VERTEX
  5
235
330
1E6
100
AcDbEntity
  8
0
  6
CONTINUOUS
 62
     7
100
AcDbVertex
100
AcDb2dVertex
 10
9.5318318577
 20
6.5122444392
 30
0.0
  0
VERTEX
  5
236
330
1E6
100
AcDbEntity
  8
0
  6
CONTINUOUS
 62
     7
100
AcDbVertex
100
AcDb2dVertex
 10
9.54396222
 20
6.5562350726
 30
0.0
  0
VERTEX
  5
237
330
1E6
100
AcDbEntity
  8
0
  6
CONTINUOUS
 62
     7
100
AcDbVertex
100
AcDb2dVertex
 10
9.5545113586
 20
6.5999537645
 30
0.0
  0
VERTEX
  5
238
330
1E6
100
AcDbEntity
  8
0
  6
CONTINUOUS
 62
     7
100
AcDbVertex
100
AcDb2dVertex
 10
9.5634540204
 20
6.6432958581
 30
0.0
  0
VERTEX
  5
239
330
1E6
100
AcDbEntity
  8
0
  6
CONTINUOUS
 62
     7
100
AcDbVertex
100
AcDb2dVertex
 10
9.5707687977
 20
6.6861575984
 30
0.0
  0
VERTEX
  5
23A
330
1E6
100
AcDbEntity
  8
0
  6
CONTINUOUS
 62
     7
100
AcDbVertex
100
AcDb2dVertex
 10
9.57643818
 20
6.72843638
 30
0.0
  0
VERTEX
  5
23B
330
1E6
100
AcDbEntity
  8
0
  6
CONTINUOUS
 62
     7
100
AcDbVertex
100
AcDb2dVertex
 10
9.5804485956
 20
6.7700309931
 30
0.0
  0
VERTEX
  5
23C
330
1E6
100
AcDbEntity
  8
0
  6
CONTINUOUS
 62
     7
100
AcDbVertex
100
AcDb2dVertex
 10
9.582790444
 20
6.8108418657
 30
0.0
  0
VERTEX
  5
23D
330
1E6
100
AcDbEntity
  8
0
  6
CONTINUOUS
 62
     7
100
AcDbVertex
100
AcDb2dVertex
 10
9.5834581191
 20
6.8507713022
 30
0.0
  0
VERTEX
  5
23E
330
1E6
100
AcDbEntity
  8
0
  6
CONTINUOUS
 62
     7
100
AcDbVertex
100
AcDb2dVertex
 10
9.5824500227
 20
6.8897237166
 30
0.0
  0
VERTEX
  5
23F
330
1E6
100
AcDbEntity
  8
0
  6
CONTINUOUS
 62
     7
100
AcDbVertex
100
AcDb2dVertex
 10
9.579768568
 20
6.9276058621
 30
0.0
  0
VERTEX
  5
240
330
1E6
100
AcDbEntity
  8
0
  6
CONTINUOUS
 62
     7
100
AcDbVertex
100
AcDb2dVertex
 10
9.575420174
 20
6.964327054
 30
0.0
  0
VERTEX
  5
241
330
1E6
100
AcDbEntity
  8
0
  6
CONTINUOUS
 62
     7
100
AcDbVertex
100
AcDb2dVertex
 10
9.5694152502
 20
6.9997993865
 30
0.0
  0
VERTEX
  5
242
330
1E6
100
AcDbEntity
  8
0
  6
CONTINUOUS
 62
     7
100
AcDbVertex
100
AcDb2dVertex
 10
9.5617681716
 20
7.0339379437
 30
0.0
  0
VERTEX
  5
243
330
1E6
100
AcDbEntity
  8
0
  6
CONTINUOUS
 62
     7
100
AcDbVertex
100
AcDb2dVertex
 10
9.5524972443
 20
7.0666610023
 30
0.0
  0
VERTEX
  5
244
330
1E6
100
AcDbEntity
  8
0
  6
CONTINUOUS
 62
     7
100
AcDbVertex
100
AcDb2dVertex
 10
9.5416246617
 20
7.0978902277
 30
0.0
  0
VERTEX
  5
245
330
1E6
100
AcDbEntity
  8
0
  6
CONTINUOUS
 62
     7
100
AcDbVertex
100
AcDb2dVertex
 10
9.5291764512
 20
7.1275508614
 30
0.0
  0
VERTEX
  5
246
330
1E6
100
AcDbEntity
  8
0
  6
CONTINUOUS
 62
     7
100
AcDbVertex
100
AcDb2dVertex
 10
9.5151824122
 20
7.1555718997
 30
0.0
  0
VERTEX
  5
247
330
1E6
100
AcDbEntity
  8
0
  6
CONTINUOUS
 62
     7
100
AcDbVertex
100
AcDb2dVertex
 10
9.4996760446
 20
7.1818862639
 30
0.0
  0
VERTEX
  5
248
330
1E6
100
AcDbEntity
  8
0
  6
CONTINUOUS
 62
     7
100
AcDbVertex
100
AcDb2dVertex
 10
9.4826944686
 20
7.206430961
 30
0.0
  0
VERTEX
  5
249
330
1E6
100
AcDbEntity
  8
0
  6
CONTINUOUS
 62
     7
100
AcDbVertex
100
AcDb2dVertex
 10
9.4642783358
 20
7.2291472343
 30
0.0
  0
VERTEX
  5
24A
330
1E6
100
AcDbEntity
  8
0
  6
CONTINUOUS
 62
     7
100
AcDbVertex
100
AcDb2dVertex
 10
9.4444717319
 20
7.249980704
 30
0.0
  0
VERTEX
  5
24B
330
1E6
100
AcDbEntity
  8
0
  6
CONTINUOUS
 62
     7
100
AcDbVertex
100
AcDb2dVertex
 10
9.4233220714
 20
7.2688814976
 30
0.0
  0
VERTEX
  5
24C
330
1E6
100
AcDbEntity
  8
0
  6
CONTINUOUS
 62
     7
100
AcDbVertex
100
AcDb2dVertex
 10
9.4008799837
 20
7.2858043691
 30
0.0
  0
VERTEX
  5
24D
330
1E6
100
AcDbEntity
  8
0
  6
CONTINUOUS
 62
     7
100
AcDbVertex
100
AcDb2dVertex
 10
9.3771991922
 20
7.3007088073
 30
0.0
  0
VERTEX
  5
24E
330
1E6
100
AcDbEntity
  8
0
  6
CONTINUOUS
 62
     7
100
AcDbVertex
100
AcDb2dVertex
 10
9.3523363855
 20
7.3135591331
 30
0.0
  0
VERTEX
  5
24F
330
1E6
100
AcDbEntity
  8
0
  6
CONTINUOUS
 62
     7
100
AcDbVertex
100
AcDb2dVertex
 10
9.3263510819
 20
7.3243245845
 30
0.0
  0
VERTEX
  5
250
330
1E6
100
AcDbEntity
  8
0
  6
CONTINUOUS
 62
     7
100
AcDbVertex
100
AcDb2dVertex
 10
9.2993054867
 20
7.3329793904
 30
0.0
  0
VERTEX
  5
251
330
1E6
100
AcDbEntity
  8
0
  6
CONTINUOUS
 62
     7
100
AcDbVertex
100
AcDb2dVertex
 10
9.2712643435
 20
7.3395028324
 30
0.0
  0
VERTEX
  5
252
330
1E6
100
AcDbEntity
  8
0
  6
CONTINUOUS
 62
     7
100
AcDbVertex
100
AcDb2dVertex
 10
9.2422947791
 20
7.3438792941
 30
0.0
  0
VERTEX
  5
253
330
1E6
100
AcDbEntity
  8
0
  6
CONTINUOUS
 62
     7
100
AcDbVertex
100
AcDb2dVertex
 10
9.2124661428
 20
7.3460982991
 30
0.0
  0
VERTEX
  5
254
330
1E6
100
AcDbEntity
  8
0
  6
CONTINUOUS
 62
     7
100
AcDbVertex
100
AcDb2dVertex
 10
9.1818498402
 20
7.3461545352
 30
0.0
  0
VERTEX
  5
255
330
1E6
100
AcDbEntity
  8
0
  6
CONTINUOUS
 62
     7
100
AcDbVertex
100
AcDb2dVertex
 10
9.1505191628
 20
7.3440478678
 30
0.0
  0
VERTEX
  5
256
330
1E6
100
AcDbEntity
  8
0
  6
CONTINUOUS
 62
     7
100
AcDbVertex
100
AcDb2dVertex
 10
9.1185491121
 20
7.33978334
 30
0.0
  0
VERTEX
  5
257
330
1E6
100
AcDbEntity
  8
0
  6
CONTINUOUS
 62
     7
100
AcDbVertex
100
AcDb2dVertex
 10
9.08601622
 20
7.3333711605
 30
0.0
  0
VERTEX
  5
258
330
1E6
100
AcDbEntity
  8
0
  6
CONTINUOUS
 62
     7
100
AcDbVertex
100
AcDb2dVertex
 10
9.0529983661
 20
7.3248266793
 30
0.0
  0
VERTEX
  5
259
330
1E6
100
AcDbEntity
  8
0
  6
CONTINUOUS
 62
     7
100
AcDbVertex
100
AcDb2dVertex
 10
9.0195745906
 20
7.3141703506
 30
0.0
  0
VERTEX
  5
25A
330
1E6
100
AcDbEntity
  8
0
  6
CONTINUOUS
 62
     7
100
AcDbVertex
100
AcDb2dVertex
 10
8.9858249056
 20
7.3014276844
 30
0.0
  0
VERTEX
  5
25B
330
1E6
100
AcDbEntity
  8
0
  6
CONTINUOUS
 62
     7
100
AcDbVertex
100
AcDb2dVertex
 10
8.9518301033
 20
7.2866291847
 30
0.0
  0
VERTEX
  5
25C
330
1E6
100
AcDbEntity
  8
0
  6
CONTINUOUS
 62
     7
100
AcDbVertex
100
AcDb2dVertex
 10
8.9176715628
 20
7.2698102774
 30
0.0
  0
VERTEX
  5
25D
330
1E6
100
AcDbEntity
  8
0
  6
CONTINUOUS
 62
     7
100
AcDbVertex
100
AcDb2dVertex
 10
8.8834310552
 20
7.2510112246
 30
0.0
  0
VERTEX
  5
25E
330
1E6
100
AcDbEntity
  8
0
  6
CONTINUOUS
 62
     7
100
AcDbVertex
100
AcDb2dVertex
 10
8.8491905475
 20
7.2302770287
 30
0.0
  0
VERTEX
  5
25F
330
1E6
100
AcDbEntity
  8
0
  6
CONTINUOUS
 62
     7
100
AcDbVertex
100
AcDb2dVertex
 10
8.815032007
 20
7.2076573247
 30
0.0
  0
VERTEX
  5
260
330
1E6
100
AcDbEntity
  8
0
  6
CONTINUOUS
 62
     7
100
AcDbVertex
100
AcDb2dVertex
 10
8.7810372048
 20
7.1832062611
 30
0.0
  0
VERTEX
  5
261
330
1E6
100
AcDbEntity
  8
0
  6
CONTINUOUS
 62
     7
100
AcDbVertex
100
AcDb2dVertex
 10
8.7472875197
 20
7.1569823705
 30
0.0
  0
VERTEX
  5
262
330
1E6
100
AcDbEntity
  8
0
  6
CONTINUOUS
 62
     7
100
AcDbVertex
100
AcDb2dVertex
 10
8.7138637442
 20
7.1290484293
 30
0.0
  0
VERTEX
  5
263
330
1E6
100
AcDbEntity
  8
0
  6
CONTINUOUS
 62
     7
100
AcDbVertex
100
AcDb2dVertex
 10
8.6808458903
 20
7.0994713078
 30
0.0
  0
VERTEX
  5
264
330
1E6
100
AcDbEntity
  8
0
  6
CONTINUOUS
 62
     7
100
AcDbVertex
100
AcDb2dVertex
 10
8.6483129982
 20
7.0683218097
 30
0.0
  0
VERTEX
  5
265
330
1E6
100
AcDbEntity
  8
0
  6
CONTINUOUS
 62
     7
100
AcDbVertex
100
AcDb2dVertex
 10
8.6163429475
 20
7.0356745025
 30
0.0
  0
VERTEX
  5
266
330
1E6
100
AcDbEntity
  8
0
  6
CONTINUOUS
 62
     7
100
AcDbVertex
100
AcDb2dVertex
 10
8.5850122701
 20
7.0016075398
 30
0.0
  0
VERTEX
  5
267
330
1E6
100
AcDbEntity
  8
0
  6
CONTINUOUS
 62
     7
100
AcDbVertex
100
AcDb2dVertex
 10
8.5543959675
 20
6.9662024732
 30
0.0
  0
VERTEX
  5
268
330
1E6
100
AcDbEntity
  8
0
  6
CONTINUOUS
 62
     7
100
AcDbVertex
100
AcDb2dVertex
 10
8.5245673312
 20
6.9295440578
 30
0.0
  0
VERTEX
  5
269
330
1E6
100
AcDbEntity
  8
0
  6
CONTINUOUS
 62
     7
100
AcDbVertex
100
AcDb2dVertex
 10
8.4955977668
 20
6.8917200489
 30
0.0
  0
VERTEX
  5
26A
330
1E6
100
AcDbEntity
  8
0
  6
CONTINUOUS
 62
     7
100
AcDbVertex
100
AcDb2dVertex
 10
8.4675566236
 20
6.8528209922
 30
0.0
  0
VERTEX
  5
26B
330
1E6
100
AcDbEntity
  8
0
  6
CONTINUOUS
 62
     7
100
AcDbVertex
100
AcDb2dVertex
 10
8.4405110284
 20
6.8129400068
 30
0.0
  0
VERTEX
  5
26C
330
1E6
100
AcDbEntity
  8
0
  6
CONTINUOUS
 62
     7
100
AcDbVertex
100
AcDb2dVertex
 10
8.4145257248
 20
6.7721725625
 30
0.0
  0
VERTEX
  5
26D
330
1E6
100
AcDbEntity
  8
0
  6
CONTINUOUS
 62
     7
100
AcDbVertex
100
AcDb2dVertex
 10
8.3896629181
 20
6.7306162511
 30
0.0
  0
VERTEX
  5
26E
330
1E6
100
AcDbEntity
  8
0
  6
CONTINUOUS
 62
     7
100
AcDbVertex
100
AcDb2dVertex
 10
8.3659821266
 20
6.6883705529
 30
0.0
  0
VERTEX
  5
26F
330
1E6
100
AcDbEntity
  8
0
  6
CONTINUOUS
 62
     7
100
AcDbVertex
100
AcDb2dVertex
 10
8.3435400389
 20
6.6455365985
 30
0.0
  0
VERTEX
  5
270
330
1E6
100
AcDbEntity
  8
0
  6
CONTINUOUS
 62
     7
100
AcDbVertex
100
AcDb2dVertex
 10
8.3223903784
 20
6.6022169266
 30
0.0
  0
VERTEX
  5
271
330
1E6
100
AcDbEntity
  8
0
  6
CONTINUOUS
 62
     7
100
AcDbVertex
100
AcDb2dVertex
 10
8.3025837745
 20
6.5585152389
 30
0.0
  0
VERTEX
  5
272
330
1E6
100
AcDbEntity
  8
0
  6
CONTINUOUS
 62
     7
100
AcDbVertex
100
AcDb2dVertex
 10
8.2841676417
 20
6.5145361512
 30
0.0
  0
VERTEX
  5
273
330
1E6
100
AcDbEntity
  8
0
  6
CONTINUOUS
 62
     7
100
AcDbVertex
100
AcDb2dVertex
 10
8.2671860657
 20
6.4703849438
 30
0.0
  0
VERTEX
  5
274
330
1E6
100
AcDbEntity
  8
0
  6
CONTINUOUS
 62
     7
100
AcDbVertex
100
AcDb2dVertex
 10
8.2516796981
 20
6.4261673086
 30
0.0
  0
VERTEX
  5
275
330
1E6
100
AcDbEntity
  8
0
  6
CONTINUOUS
 62
     7
100
AcDbVertex
100
AcDb2dVertex
 10
8.2376856591
 20
6.3819890969
 30
0.0
  0
VERTEX
  5
276
330
1E6
100
AcDbEntity
  8
0
  6
CONTINUOUS
 62
     7
100
AcDbVertex
100
AcDb2dVertex
 10
8.2252374486
 20
6.3379560653
 30
0.0
  0
VERTEX
  5
277
330
1E6
100
AcDbEntity
  8
0
  6
CONTINUOUS
 62
     7
100
AcDbVertex
100
AcDb2dVertex
 10
8.214364866
 20
6.2941736231
 30
0.0
  0
VERTEX
  5
278
330
1E6
100
AcDbEntity
  8
0
  6
CONTINUOUS
 62
     7
100
AcDbVertex
100
AcDb2dVertex
 10
8.2050939387
 20
6.2507465797
 30
0.0
  0
VERTEX
  5
279
330
1E6
100
AcDbEntity
  8
0
  6
CONTINUOUS
 62
     7
100
AcDbVertex
100
AcDb2dVertex
 10
8.1974468601
 20
6.2077788935
 30
0.0
  0
VERTEX
  5
27A
330
1E6
100
AcDbEntity
  8
0
  6
CONTINUOUS
 62
     7
100
AcDbVertex
100
AcDb2dVertex
 10
8.1914419363
 20
6.1653734236
 30
0.0
  0
VERTEX
  5
27B
330
1E6
100
AcDbEntity
  8
0
  6
CONTINUOUS
 62
     7
100
AcDbVertex
100
AcDb2dVertex
 10
8.1870935423
 20
6.1236316829
 30
0.0
  0
VERTEX
  5
27C
330
1E6
100
AcDbEntity
  8
0
  6
CONTINUOUS
 62
     7
100
AcDbVertex
100
AcDb2dVertex
 10
8.1844120876
 20
6.0826535956
 30
0.0
  0
VERTEX
  5
27D
330
1E6
100
AcDbEntity
  8
0
  6
CONTINUOUS
 62
     7
100
AcDbVertex
100
AcDb2dVertex
 10
8.1834039912
 20
6.0425372578
 30
0.0
  0
VERTEX
  5
27E
330
1E6
100
AcDbEntity
  8
0
  6
CONTINUOUS
 62
     7
100
AcDbVertex
100
AcDb2dVertex
 10
8.1840716663
 20
6.0033787027
 30
0.0
  0
VERTEX
  5
27F
330
1E6
100
AcDbEntity
  8
0
  6
CONTINUOUS
 62
     7
100
AcDbVertex
100
AcDb2dVertex
 10
8.1864135147
 20
5.9652716707
 30
0.0
  0
VERTEX
  5
280
330
1E6
100
AcDbEntity
  8
0
  6
CONTINUOUS
 62
     7
100
AcDbVertex
100
AcDb2dVertex
 10
8.1904239303
 20
5.9283073849
 30
0.0
  0
VERTEX
  5
281
330
1E6
100
AcDbEntity
  8
0
  6
CONTINUOUS
 62
     7
100
AcDbVertex
100
AcDb2dVertex
 10
8.1960933126
 20
5.8925743328
 30
0.0
  0
VERTEX
  5
282
330
1E6
100
AcDbEntity
  8
0
  6
CONTINUOUS
 62
     7
100
AcDbVertex
100
AcDb2dVertex
 10
8.20340809
 20
5.8581580547
 30
0.0
  0
VERTEX
  5
283
330
1E6
100
AcDbEntity
  8
0
  6
CONTINUOUS
 62
     7
100
AcDbVertex
100
AcDb2dVertex
 10
8.2123507517
 20
5.8251409385
 30
0.0
  0
VERTEX
  5
284
330
1E6
100
AcDbEntity
  8
0
  6
CONTINUOUS
 62
     7
100
AcDbVertex
100
AcDb2dVertex
 10
8.2228998903
 20
5.7936020228
 30
0.0
  0
VERTEX
  5
285
330
1E6
100
AcDbEntity
  8
0
  6
CONTINUOUS
 62
     7
100
AcDbVertex
100
AcDb2dVertex
 10
8.2350302526
 20
5.7636168076
 30
0.0
  0
VERTEX
  5
286
330
1E6
100
AcDbEntity
  8
0
  6
CONTINUOUS
 62
     7
100
AcDbVertex
100
AcDb2dVertex
 10
8.2487128
 20
5.7352570735
 30
0.0
  0
VERTEX
  5
287
330
1E6
100
AcDbEntity
  8
0
  6
CONTINUOUS
 62
     7
100
AcDbVertex
100
AcDb2dVertex
 10
8.2639147785
 20
5.7085907099
 30
0.0
  0
VERTEX
  5
288
330
1E6
100
AcDbEntity
  8
0
  6
CONTINUOUS
 62
     7
100
AcDbVertex
100
AcDb2dVertex
 10
8.2805997963
 20
5.6836815525
 30
0.0
  0
VERTEX
  5
289
330
1E6
100
AcDbEntity
  8
0
  6
CONTINUOUS
 62
     7
100
AcDbVertex
100
AcDb2dVertex
 10
8.2987279119
 20
5.6605892306
 30
0.0
  0
VERTEX
  5
28A
330
1E6
100
AcDbEntity
  8
0
  6
CONTINUOUS
 62
     7
100
AcDbVertex
100
AcDb2dVertex
 10
8.318255729
 20
5.639369024
 30
0.0
  0
VERTEX
  5
28B
330
1E6
100
AcDbEntity
  8
0
  6
CONTINUOUS
 62
     7
100
AcDbVertex
100
AcDb2dVertex
 10
8.3391365006
 20
5.6200717312
 30
0.0
  0
VERTEX
  5
28C
330
1E6
100
AcDbEntity
  8
0
  6
CONTINUOUS
 62
     7
100
AcDbVertex
100
AcDb2dVertex
 10
8.3613202408
 20
5.6027435473
 30
0.0
  0
VERTEX
  5
28D
330
1E6
100
AcDbEntity
  8
0
  6
CONTINUOUS
 62
     7
100
AcDbVertex
100
AcDb2dVertex
 10
8.3847538447
 20
5.5874259536
 30
0.0
  0
VERTEX
  5
28E
330
1E6
100
AcDbEntity
  8
0
  6
CONTINUOUS
 62
     7
100
AcDbVertex
100
AcDb2dVertex
 10
8.4093812155
 20
5.5741556185
 30
0.0
  0
VERTEX
  5
28F
330
1E6
100
AcDbEntity
  8
0
  6
CONTINUOUS
 62
     7
100
AcDbVertex
100
AcDb2dVertex
 10
8.4351433985
 20
5.5629643093
 30
0.0
  0
VERTEX
  5
290
330
1E6
100
AcDbEntity
  8
0
  6
CONTINUOUS
 62
     7
100
AcDbVertex
100
AcDb2dVertex
 10
8.4619787224
 20
5.5538788165
 30
0.0
  0
VERTEX
  5
291
330
1E6
100
AcDbEntity
  8
0
  6
CONTINUOUS
 62
     7
100
AcDbVertex
100
AcDb2dVertex
 10
8.4898229471
 20
5.5469208897
 30
0.0
  0
VERTEX
  5
292
330
1E6
100
AcDbEntity
  8
0
  6
CONTINUOUS
 62
     7
100
AcDbVertex
100
AcDb2dVertex
 10
8.5186094172
 20
5.5421071851
 30
0.0
  0
VERTEX
  5
293
330
1E6
100
AcDbEntity
  8
0
  6
CONTINUOUS
 62
     7
100
AcDbVertex
100
AcDb2dVertex
 10
8.5482692217
 20
5.5394492261
 30
0.0
  0
VERTEX
  5
294
330
1E6
100
AcDbEntity
  8
0
  6
CONTINUOUS
 62
     7
100
AcDbVertex
100
AcDb2dVertex
 10
8.578731359
 20
5.5389533756
 30
0.0
  0
VERTEX
  5
295
330
1E6
100
AcDbEntity
  8
0
  6
CONTINUOUS
 62
     7
100
AcDbVertex
100
AcDb2dVertex
 10
8.6099229068
 20
5.5406208204
 30
0.0
  0
VERTEX
  5
296
330
1E6
100
AcDbEntity
  8
0
  6
CONTINUOUS
 62
     7
100
AcDbVertex
100
AcDb2dVertex
 10
8.6417691966
 20
5.5444475691
 30
0.0
  0
VERTEX
  5
297
330
1E6
100
AcDbEntity
  8
0
  6
CONTINUOUS
 62
     7
100
AcDbVertex
100
AcDb2dVertex
 10
8.6741939928
 20
5.5504244608
 30
0.0
  0
VERTEX
  5
298
330
1E6
100
AcDbEntity
  8
0
  6
CONTINUOUS
 62
     7
100
AcDbVertex
100
AcDb2dVertex
 10
8.7071196746
 20
5.5585371877
 30
0.0
  0
VERTEX
  5
299
330
1E6
100
AcDbEntity
  8
0
  6
CONTINUOUS
 62
     7
100
AcDbVertex
100
AcDb2dVertex
 10
8.7404674224
 20
5.568766329
 30
0.0
  0
VERTEX
  5
29A
330
1E6
100
AcDbEntity
  8
0
  6
CONTINUOUS
 62
     7
100
AcDbVertex
100
AcDb2dVertex
 10
8.7741574061
 20
5.5810873974
 30
0.0
  0
VERTEX
  5
29B
330
1E6
100
AcDbEntity
  8
0
  6
CONTINUOUS
 62
     7
100
AcDbVertex
100
AcDb2dVertex
 10
8.8081089763
 20
5.5954708981
 30
0.0
  0
VERTEX
  5
29C
330
1E6
100
AcDbEntity
  8
0
  6
CONTINUOUS
 62
     7
100
AcDbVertex
100
AcDb2dVertex
 10
8.8422408576
 20
5.6118823987
 30
0.0
  0
VERTEX
  5
29D
330
1E6
100
AcDbEntity
  8
0
  6
CONTINUOUS
 62
     7
100
AcDbVertex
100
AcDb2dVertex
 10
8.8764713427
 20
5.6302826124
 30
0.0
  0
SEQEND
  5
29E
330
1E6
100
AcDbEntity
  8
0
  6
CONTINUOUS
 62
     7
  0
LINE
  5
1E7
330
1F
100
AcDbEntity
  8
0
  6
CONTINUOUS
 62
     7
100
AcDbLine
 10
8.8694002749
 20
5.6261988453
 30
0.0
 11
8.8764713427
 21
5.6302826124
 31
0.0
  0
POLYLINE
  5
1E8
330
1F
100
AcDbEntity
  8
0
  6
CONTINUOUS
 62
     7
100
AcDb2dPolyline
 66
     1
 10
0.0
 20
0.0
 30
0.0
  0
VERTEX
  5
29F
330
1E8
100
AcDbEntity
  8
0
  6
CONTINUOUS
 62
     7
100
AcDbVertex
100
AcDb2dVertex
 10
8.8694002749
 20
5.6261988453
 30
0.0
  0
VERTEX
  5
2A0
330
1E8
100
AcDbEntity
  8
0
  6
CONTINUOUS
 62
     7
100
AcDbVertex
100
AcDb2dVertex
 10
8.8348228126
 20
5.6076081743
 30
0.0
  0
VERTEX
  5
2A1
330
1E8
100
AcDbEntity
  8
0
  6
CONTINUOUS
 62
     7
100
AcDbVertex
100
AcDb2dVertex
 10
8.800344791
 20
5.5910263478
 30
0.0
  0
VERTEX
  5
2A2
330
1E8
100
AcDbEntity
  8
0
  6
CONTINUOUS
 62
     7
100
AcDbVertex
100
AcDb2dVertex
 10
8.7660487512
 20
5.5764930627
 30
0.0
  0
VERTEX
  5
2A3
330
1E8
100
AcDbEntity
  8
0
  6
CONTINUOUS
 62
     7
100
AcDbVertex
100
AcDb2dVertex
 10
8.7320167986
 20
5.5640431123
 30
0.0
  0
VERTEX
  5
2A4
330
1E8
100
AcDbEntity
  8
0
  6
CONTINUOUS
 62
     7
100
AcDbVertex
100
AcDb2dVertex
 10
8.6983304063
 20
5.5537063017
 30
0.0
  0
VERTEX
  5
2A5
330
1E8
100
AcDbEntity
  8
0
  6
CONTINUOUS
 62
     7
100
AcDbVertex
100
AcDb2dVertex
 10
8.6650702202
 20
5.5455073776
 30
0.0
  0
VERTEX
  5
2A6
330
1E8
100
AcDbEntity
  8
0
  6
CONTINUOUS
 62
     7
100
AcDbVertex
100
AcDb2dVertex
 10
8.6323158657
 20
5.5394659683
 30
0.0
  0
VERTEX
  5
2A7
330
1E8
100
AcDbEntity
  8
0
  6
CONTINUOUS
 62
     7
100
AcDbVertex
100
AcDb2dVertex
 10
8.6001457575
 20
5.5355965372
 30
0.0
  0
VERTEX
  5
2A8
330
1E8
100
AcDbEntity
  8
0
  6
CONTINUOUS
 62
     7
100
AcDbVertex
100
AcDb2dVertex
 10
8.5686369113
 20
5.5339083476
 30
0.0
  0
VERTEX
  5
2A9
330
1E8
100
AcDbEntity
  8
0
  6
CONTINUOUS
 62
     7
100
AcDbVertex
100
AcDb2dVertex
 10
8.53786476
 20
5.5344054411
 30
0.0
  0
VERTEX
  5
2AA
330
1E8
100
AcDbEntity
  8
0
  6
CONTINUOUS
 62
     7
100
AcDbVertex
100
AcDb2dVertex
 10
8.5079029726
 20
5.5370866277
 30
0.0
  0
VERTEX
  5
2AB
330
1E8
100
AcDbEntity
  8
0
  6
CONTINUOUS
 62
     7
100
AcDbVertex
100
AcDb2dVertex
 10
8.4788232782
 20
5.5419454886
 30
0.0
  0
VERTEX
  5
2AC
330
1E8
100
AcDbEntity
  8
0
  6
CONTINUOUS
 62
     7
100
AcDbVertex
100
AcDb2dVertex
 10
8.4506952941
 20
5.5489703916
 30
0.0
  0
VERTEX
  5
2AD
330
1E8
100
AcDbEntity
  8
0
  6
CONTINUOUS
 62
     7
100
AcDbVertex
100
AcDb2dVertex
 10
8.4235863593
 20
5.5581445189
 30
0.0
  0
VERTEX
  5
2AE
330
1E8
100
AcDbEntity
  8
0
  6
CONTINUOUS
 62
     7
100
AcDbVertex
100
AcDb2dVertex
 10
8.3975613731
 20
5.5694459074
 30
0.0
  0
VERTEX
  5
2AF
330
1E8
100
AcDbEntity
  8
0
  6
CONTINUOUS
 62
     7
100
AcDbVertex
100
AcDb2dVertex
 10
8.3726826398
 20
5.5828475015
 30
0.0
  0
VERTEX
  5
2B0
330
1E8
100
AcDbEntity
  8
0
  6
CONTINUOUS
 62
     7
100
AcDbVertex
100
AcDb2dVertex
 10
8.3490097196
 20
5.5983172175
 30
0.0
  0
VERTEX
  5
2B1
330
1E8
100
AcDbEntity
  8
0
  6
CONTINUOUS
 62
     7
100
AcDbVertex
100
AcDb2dVertex
 10
8.3265992857
 20
5.6158180206
 30
0.0
  0
VERTEX
  5
2B2
330
1E8
100
AcDbEntity
  8
0
  6
CONTINUOUS
 62
     7
100
AcDbVertex
100
AcDb2dVertex
 10
8.3055049894
 20
5.6353080135
 30
0.0
  0
VERTEX
  5
2B3
330
1E8
100
AcDbEntity
  8
0
  6
CONTINUOUS
 62
     7
100
AcDbVertex
100
AcDb2dVertex
 10
8.2857773306
 20
5.6567405368
 30
0.0
  0
VERTEX
  5
2B4
330
1E8
100
AcDbEntity
  8
0
  6
CONTINUOUS
 62
     7
100
AcDbVertex
100
AcDb2dVertex
 10
8.2674635378
 20
5.6800642807
 30
0.0
  0
VERTEX
  5
2B5
330
1E8
100
AcDbEntity
  8
0
  6
CONTINUOUS
 62
     7
100
AcDbVertex
100
AcDb2dVertex
 10
8.2506074546
 20
5.7052234077
 30
0.0
  0
VERTEX
  5
2B6
330
1E8
100
AcDbEntity
  8
0
  6
CONTINUOUS
 62
     7
100
AcDbVertex
100
AcDb2dVertex
 10
8.2352494346
 20
5.7321576863
 30
0.0
  0
VERTEX
  5
2B7
330
1E8
100
AcDbEntity
  8
0
  6
CONTINUOUS
 62
     7
100
AcDbVertex
100
AcDb2dVertex
 10
8.2214262454
 20
5.7608026355
 30
0.0
  0
VERTEX
  5
2B8
330
1E8
100
AcDbEntity
  8
0
  6
CONTINUOUS
 62
     7
100
AcDbVertex
100
AcDb2dVertex
 10
8.2091709799
 20
5.7910896785
 30
0.0
  0
VERTEX
  5
2B9
330
1E8
100
AcDbEntity
  8
0
  6
CONTINUOUS
 62
     7
100
AcDbVertex
100
AcDb2dVertex
 10
8.1985129774
 20
5.8229463078
 30
0.0
  0
VERTEX
  5
2BA
330
1E8
100
AcDbEntity
  8
0
  6
CONTINUOUS
 62
     7
100
AcDbVertex
100
AcDb2dVertex
 10
8.1894777534
 20
5.8562962579
 30
0.0
  0
VERTEX
  5
2BB
330
1E8
100
AcDbEntity
  8
0
  6
CONTINUOUS
 62
     7
100
AcDbVertex
100
AcDb2dVertex
 10
8.1820869384
 20
5.8910596884
 30
0.0
  0
VERTEX
  5
2BC
330
1E8
100
AcDbEntity
  8
0
  6
CONTINUOUS
 62
     7
100
AcDbVertex
100
AcDb2dVertex
 10
8.1763582261
 20
5.927153375
 30
0.0
  0
VERTEX
  5
2BD
330
1E8
100
AcDbEntity
  8
0
  6
CONTINUOUS
 62
     7
100
AcDbVertex
100
AcDb2dVertex
 10
8.1723053311
 20
5.9644909088
 30
0.0
  0
VERTEX
  5
2BE
330
1E8
100
AcDbEntity
  8
0
  6
CONTINUOUS
 62
     7
100
AcDbVertex
100
AcDb2dVertex
 10
8.1699379563
 20
6.0029829029
 30
0.0
  0
VERTEX
  5
2BF
330
1E8
100
AcDbEntity
  8
0
  6
CONTINUOUS
 62
     7
100
AcDbVertex
100
AcDb2dVertex
 10
8.1692617691
 20
6.0425372069
 30
0.0
  0
VERTEX
  5
2C0
330
1E8
100
AcDbEntity
  8
0
  6
CONTINUOUS
 62
     7
100
AcDbVertex
100
AcDb2dVertex
 10
8.1702783882
 20
6.083059127
 30
0.0
  0
VERTEX
  5
2C1
330
1E8
100
AcDbEntity
  8
0
  6
CONTINUOUS
 62
     7
100
AcDbVertex
100
AcDb2dVertex
 10
8.1729853801
 20
6.1244516529
 30
0.0
  0
VERTEX
  5
2C2
330
1E8
100
AcDbEntity
  8
0
  6
CONTINUOUS
 62
     7
100
AcDbVertex
100
AcDb2dVertex
 10
8.1773762639
 20
6.1666156902
 30
0.0
  0
VERTEX
  5
2C3
330
1E8
100
AcDbEntity
  8
0
  6
CONTINUOUS
 62
     7
100
AcDbVertex
100
AcDb2dVertex
 10
8.1834405279
 20
6.2094502973
 30
0.0
  0
VERTEX
  5
2C4
330
1E8
100
AcDbEntity
  8
0
  6
CONTINUOUS
 62
     7
100
AcDbVertex
100
AcDb2dVertex
 10
8.1911636541
 20
6.2528529274
 30
0.0
  0
VERTEX
  5
2C5
330
1E8
100
AcDbEntity
  8
0
  6
CONTINUOUS
 62
     7
100
AcDbVertex
100
AcDb2dVertex
 10
8.2005271533
 20
6.2967196739
 30
0.0
  0
VERTEX
  5
2C6
330
1E8
100
AcDbEntity
  8
0
  6
CONTINUOUS
 62
     7
100
AcDbVertex
100
AcDb2dVertex
 10
8.2115086089
 20
6.3409455188
 30
0.0
  0
VERTEX
  5
2C7
330
1E8
100
AcDbEntity
  8
0
  6
CONTINUOUS
 62
     7
100
AcDbVertex
100
AcDb2dVertex
 10
8.2240817312
 20
6.3854245847
 30
0.0
  0
VERTEX
  5
2C8
330
1E8
100
AcDbEntity
  8
0
  6
CONTINUOUS
 62
     7
100
AcDbVertex
100
AcDb2dVertex
 10
8.23821642
 20
6.4300503879
 30
0.0
  0
VERTEX
  5
2C9
330
1E8
100
AcDbEntity
  8
0
  6
CONTINUOUS
 62
     7
100
AcDbVertex
100
AcDb2dVertex
 10
8.2538788364
 20
6.4747160932
 30
0.0
  0
VERTEX
  5
2CA
330
1E8
100
AcDbEntity
  8
0
  6
CONTINUOUS
 62
     7
100
AcDbVertex
100
AcDb2dVertex
 10
8.2710314844
 20
6.5193147704
 30
0.0
  0
VERTEX
  5
2CB
330
1E8
100
AcDbEntity
  8
0
  6
CONTINUOUS
 62
     7
100
AcDbVertex
100
AcDb2dVertex
 10
8.2896333002
 20
6.5637396491
 30
0.0
  0
VERTEX
  5
2CC
330
1E8
100
AcDbEntity
  8
0
  6
CONTINUOUS
 62
     7
100
AcDbVertex
100
AcDb2dVertex
 10
8.3096397508
 20
6.6078843755
 30
0.0
  0
VERTEX
  5
2CD
330
1E8
100
AcDbEntity
  8
0
  6
CONTINUOUS
 62
     7
100
AcDbVertex
100
AcDb2dVertex
 10
8.3310029402
 20
6.6516432662
 30
0.0
  0
VERTEX
  5
2CE
330
1E8
100
AcDbEntity
  8
0
  6
CONTINUOUS
 62
     7
100
AcDbVertex
100
AcDb2dVertex
 10
8.3536717247
 20
6.6949115616
 30
0.0
  0
VERTEX
  5
2CF
330
1E8
100
AcDbEntity
  8
0
  6
CONTINUOUS
 62
     7
100
AcDbVertex
100
AcDb2dVertex
 10
8.3775918346
 20
6.7375856767
 30
0.0
  0
VERTEX
  5
2D0
330
1E8
100
AcDbEntity
  8
0
  6
CONTINUOUS
 62
     7
100
AcDbVertex
100
AcDb2dVertex
 10
8.402706005
 20
6.7795634487
 30
0.0
  0
VERTEX
  5
2D1
330
1E8
100
AcDbEntity
  8
0
  6
CONTINUOUS
 62
     7
100
AcDbVertex
100
AcDb2dVertex
 10
8.4289541118
 20
6.8207443822
 30
0.0
  0
VERTEX
  5
2D2
330
1E8
100
AcDbEntity
  8
0
  6
CONTINUOUS
 62
     7
100
AcDbVertex
100
AcDb2dVertex
 10
8.4562733167
 20
6.8610298891
 30
0.0
  0
VERTEX
  5
2D3
330
1E8
100
AcDbEntity
  8
0
  6
CONTINUOUS
 62
     7
100
AcDbVertex
100
AcDb2dVertex
 10
8.4845982171
 20
6.9003235253
 30
0.0
  0
VERTEX
  5
2D4
330
1E8
100
AcDbEntity
  8
0
  6
CONTINUOUS
 62
     7
100
AcDbVertex
100
AcDb2dVertex
 10
8.5138610024
 20
6.9385312209
 30
0.0
  0
VERTEX
  5
2D5
330
1E8
100
AcDbEntity
  8
0
  6
CONTINUOUS
 62
     7
100
AcDbVertex
100
AcDb2dVertex
 10
8.5439916171
 20
6.9755615062
 30
0.0
  0
VERTEX
  5
2D6
330
1E8
100
AcDbEntity
  8
0
  6
CONTINUOUS
 62
     7
100
AcDbVertex
100
AcDb2dVertex
 10
8.574917928
 20
7.0113257298
 30
0.0
  0
VERTEX
  5
2D7
330
1E8
100
AcDbEntity
  8
0
  6
CONTINUOUS
 62
     7
100
AcDbVertex
100
AcDb2dVertex
 10
8.6065658968
 20
7.0457382716
 30
0.0
  0
VERTEX
  5
2D8
330
1E8
100
AcDbEntity
  8
0
  6
CONTINUOUS
 62
     7
100
AcDbVertex
100
AcDb2dVertex
 10
8.6388597578
 20
7.0787167472
 30
0.0
  0
VERTEX
  5
2D9
330
1E8
100
AcDbEntity
  8
0
  6
CONTINUOUS
 62
     7
100
AcDbVertex
100
AcDb2dVertex
 10
8.6717221987
 20
7.1101822056
 30
0.0
  0
VERTEX
  5
2DA
330
1E8
100
AcDbEntity
  8
0
  6
CONTINUOUS
 62
     7
100
AcDbVertex
100
AcDb2dVertex
 10
8.7050745464
 20
7.1400593179
 30
0.0
  0
VERTEX
  5
2DB
330
1E8
100
AcDbEntity
  8
0
  6
CONTINUOUS
 62
     7
100
AcDbVertex
100
AcDb2dVertex
 10
8.7388369546
 20
7.1682765578
 30
0.0
  0
VERTEX
  5
2DC
330
1E8
100
AcDbEntity
  8
0
  6
CONTINUOUS
 62
     7
100
AcDbVertex
100
AcDb2dVertex
 10
8.7729285956
 20
7.1947663725
 30
0.0
  0
VERTEX
  5
2DD
330
1E8
100
AcDbEntity
  8
0
  6
CONTINUOUS
 62
     7
100
AcDbVertex
100
AcDb2dVertex
 10
8.8072678532
 20
7.2194653451
 30
0.0
  0
VERTEX
  5
2DE
330
1E8
100
AcDbEntity
  8
0
  6
CONTINUOUS
 62
     7
100
AcDbVertex
100
AcDb2dVertex
 10
8.8417725188
 20
7.2423143457
 30
0.0
  0
VERTEX
  5
2DF
330
1E8
100
AcDbEntity
  8
0
  6
CONTINUOUS
 62
     7
100
AcDbVertex
100
AcDb2dVertex
 10
8.8763599873
 20
7.2632586733
 30
0.0
  0
VERTEX
  5
2E0
330
1E8
100
AcDbEntity
  8
0
  6
CONTINUOUS
 62
     7
100
AcDbVertex
100
AcDb2dVertex
 10
8.9109474559
 20
7.2822481869
 30
0.0
  0
VERTEX
  5
2E1
330
1E8
100
AcDbEntity
  8
0
  6
CONTINUOUS
 62
     7
100
AcDbVertex
100
AcDb2dVertex
 10
8.9454521214
 20
7.2992374251
 30
0.0
  0
VERTEX
  5
2E2
330
1E8
100
AcDbEntity
  8
0
  6
CONTINUOUS
 62
     7
100
AcDbVertex
100
AcDb2dVertex
 10
8.9797913791
 20
7.3141857155
 30
0.0
  0
VERTEX
  5
2E3
330
1E8
100
AcDbEntity
  8
0
  6
CONTINUOUS
 62
     7
100
AcDbVertex
100
AcDb2dVertex
 10
9.01388302
 20
7.3270572716
 30
0.0
  0
VERTEX
  5
2E4
330
1E8
100
AcDbEntity
  8
0
  6
CONTINUOUS
 62
     7
100
AcDbVertex
100
AcDb2dVertex
 10
9.0476454283
 20
7.3378212786
 30
0.0
  0
VERTEX
  5
2E5
330
1E8
100
AcDbEntity
  8
0
  6
CONTINUOUS
 62
     7
100
AcDbVertex
100
AcDb2dVertex
 10
9.080997776
 20
7.3464519672
 30
0.0
  0
VERTEX
  5
2E6
330
1E8
100
AcDbEntity
  8
0
  6
CONTINUOUS
 62
     7
100
AcDbVertex
100
AcDb2dVertex
 10
9.1138602169
 20
7.3529286755
 30
0.0
  0
VERTEX
  5
2E7
330
1E8
100
AcDbEntity
  8
0
  6
CONTINUOUS
 62
     7
100
AcDbVertex
100
AcDb2dVertex
 10
9.1461540779
 20
7.357235898
 30
0.0
  0
VERTEX
  5
2E8
330
1E8
100
AcDbEntity
  8
0
  6
CONTINUOUS
 62
     7
100
AcDbVertex
100
AcDb2dVertex
 10
9.1778020467
 20
7.3593633233
 30
0.0
  0
VERTEX
  5
2E9
330
1E8
100
AcDbEntity
  8
0
  6
CONTINUOUS
 62
     7
100
AcDbVertex
100
AcDb2dVertex
 10
9.2087283575
 20
7.3593058582
 30
0.0
  0
VERTEX
  5
2EA
330
1E8
100
AcDbEntity
  8
0
  6
CONTINUOUS
 62
     7
100
AcDbVertex
100
AcDb2dVertex
 10
9.2388589723
 20
7.3570636402
 30
0.0
  0
VERTEX
  5
2EB
330
1E8
100
AcDbEntity
  8
0
  6
CONTINUOUS
 62
     7
100
AcDbVertex
100
AcDb2dVertex
 10
9.2681217576
 20
7.3526420374
 30
0.0
  0
VERTEX
  5
2EC
330
1E8
100
AcDbEntity
  8
0
  6
CONTINUOUS
 62
     7
100
AcDbVertex
100
AcDb2dVertex
 10
9.2964466579
 20
7.346051635
 30
0.0
  0
VERTEX
  5
2ED
330
1E8
100
AcDbEntity
  8
0
  6
CONTINUOUS
 62
     7
100
AcDbVertex
100
AcDb2dVertex
 10
9.3237658629
 20
7.3373082107
 30
0.0
  0
VERTEX
  5
2EE
330
1E8
100
AcDbEntity
  8
0
  6
CONTINUOUS
 62
     7
100
AcDbVertex
100
AcDb2dVertex
 10
9.3500139697
 20
7.3264326964
 30
0.0
  0
VERTEX
  5
2EF
330
1E8
100
AcDbEntity
  8
0
  6
CONTINUOUS
 62
     7
100
AcDbVertex
100
AcDb2dVertex
 10
9.37512814
 20
7.3134511282
 30
0.0
  0
VERTEX
  5
2F0
330
1E8
100
AcDbEntity
  8
0
  6
CONTINUOUS
 62
     7
100
AcDbVertex
100
AcDb2dVertex
 10
9.39904825
 20
7.2983945842
 30
0.0
  0
VERTEX
  5
2F1
330
1E8
100
AcDbEntity
  8
0
  6
CONTINUOUS
 62
     7
100
AcDbVertex
100
AcDb2dVertex
 10
9.4217170345
 20
7.2812991102
 30
0.0
  0
VERTEX
  5
2F2
330
1E8
100
AcDbEntity
  8
0
  6
CONTINUOUS
 62
     7
100
AcDbVertex
100
AcDb2dVertex
 10
9.4430802239
 20
7.262205633
 30
0.0
  0
VERTEX
  5
2F3
330
1E8
100
AcDbEntity
  8
0
  6
CONTINUOUS
 62
     7
100
AcDbVertex
100
AcDb2dVertex
 10
9.4630866744
 20
7.2411598627
 30
0.0
  0
VERTEX
  5
2F4
330
1E8
100
AcDbEntity
  8
0
  6
CONTINUOUS
 62
     7
100
AcDbVertex
100
AcDb2dVertex
 10
9.4816884903
 20
7.2182121834
 30
0.0
  0
VERTEX
  5
2F5
330
1E8
100
AcDbEntity
  8
0
  6
CONTINUOUS
 62
     7
100
AcDbVertex
100
AcDb2dVertex
 10
9.4988411383
 20
7.1934175321
 30
0.0
  0
VERTEX
  5
2F6
330
1E8
100
AcDbEntity
  8
0
  6
CONTINUOUS
 62
     7
100
AcDbVertex
100
AcDb2dVertex
 10
9.5145035547
 20
7.1668352678
 30
0.0
  0
VERTEX
  5
2F7
330
1E8
100
AcDbEntity
  8
0
  6
CONTINUOUS
 62
     7
100
AcDbVertex
100
AcDb2dVertex
 10
9.5286382434
 20
7.1385290289
 30
0.0
  0
VERTEX
  5
2F8
330
1E8
100
AcDbEntity
  8
0
  6
CONTINUOUS
 62
     7
100
AcDbVertex
100
AcDb2dVertex
 10
9.5412113658
 20
7.1085665811
 30
0.0
  0
VERTEX
  5
2F9
330
1E8
100
AcDbEntity
  8
0
  6
CONTINUOUS
 62
     7
100
AcDbVertex
100
AcDb2dVertex
 10
9.5521928214
 20
7.0770196549
 30
0.0
  0
VERTEX
  5
2FA
330
1E8
100
AcDbEntity
  8
0
  6
CONTINUOUS
 62
     7
100
AcDbVertex
100
AcDb2dVertex
 10
9.5615563205
 20
7.0439637745
 30
0.0
  0
VERTEX
  5
2FB
330
1E8
100
AcDbEntity
  8
0
  6
CONTINUOUS
 62
     7
100
AcDbVertex
100
AcDb2dVertex
 10
9.5692794468
 20
7.0094780761
 30
0.0
  0
VERTEX
  5
2FC
330
1E8
100
AcDbEntity
  8
0
  6
CONTINUOUS
 62
     7
100
AcDbVertex
100
AcDb2dVertex
 10
9.5753437108
 20
6.9736451191
 30
0.0
  0
VERTEX
  5
2FD
330
1E8
100
AcDbEntity
  8
0
  6
CONTINUOUS
 62
     7
100
AcDbVertex
100
AcDb2dVertex
 10
9.5797345946
 20
6.9365506884
 30
0.0
  0
VERTEX
  5
2FE
330
1E8
100
AcDbEntity
  8
0
  6
CONTINUOUS
 62
     7
100
AcDbVertex
100
AcDb2dVertex
 10
9.5824415864
 20
6.8982835888
 30
0.0
  0
VERTEX
  5
2FF
330
1E8
100
AcDbEntity
  8
0
  6
CONTINUOUS
 62
     7
100
AcDbVertex
100
AcDb2dVertex
 10
9.5834582056
 20
6.8589354322
 30
0.0
  0
VERTEX
  5
300
330
1E8
100
AcDbEntity
  8
0
  6
CONTINUOUS
 62
     7
100
AcDbVertex
100
AcDb2dVertex
 10
9.5834667685
 20
6.8549219173
 30
0.0
  0
SEQEND
  5
301
330
1E8
100
AcDbEntity
  8
0
  6
CONTINUOUS
 62
     7
  0
LINE
  5
1E9
330
1F
100
AcDbEntity
  8
0
  6
CONTINUOUS
 62
     7
100
AcDbLine
 10
8.8833196998
 20
5.6342343582
 30
0.0
 11
8.8903907676
 21
5.6383181253
 31
0.0
  0
POLYLINE
  5
1EA
330
1F
100
AcDbEntity
  8
0
  6
CONTINUOUS
 62
     7
100
AcDb2dPolyline
 66
     1
 10
0.0
 20
0.0
 30
0.0
  0
VERTEX
  5
302
330
1EA
100
AcDbEntity
  8
0
  6
CONTINUOUS
 62
     7
100
AcDbVertex
100
AcDb2dVertex
 10
7.970680157
 20
8.1242249597
 30
0.0
  0
VERTEX
  5
303
330
1EA
100
AcDbEntity
  8
0
  6
CONTINUOUS
 62
     7
100
AcDbVertex
100
AcDb2dVertex
 10
7.9670161963
 20
8.1263093469
 30
0.0
  0
VERTEX
  5
304
330
1EA
100
AcDbEntity
  8
0
  6
CONTINUOUS
 62
     7
100
AcDbVertex
100
AcDb2dVertex
 10
7.9417852184
 20
8.1390804279
 30
0.0
  0
VERTEX
  5
305
330
1EA
100
AcDbEntity
  8
0
  6
CONTINUOUS
 62
     7
100
AcDbVertex
100
AcDb2dVertex
 10
7.9154265034
 20
8.1497426075
 30
0.0
  0
VERTEX
  5
306
330
1EA
100
AcDbEntity
  8
0
  6
CONTINUOUS
 62
     7
100
AcDbVertex
100
AcDb2dVertex
 10
7.8880031547
 20
8.1582703601
 30
0.0
  0
VERTEX
  5
307
330
1EA
100
AcDbEntity
  8
0
  6
CONTINUOUS
 62
     7
100
AcDbVertex
100
AcDb2dVertex
 10
7.859580824
 20
8.1646432701
 30
0.0
  0
VERTEX
  5
308
330
1EA
100
AcDbEntity
  8
0
  6
CONTINUOUS
 62
     7
100
AcDbVertex
100
AcDb2dVertex
 10
7.8302275552
 20
8.1688460806
 30
0.0
  0
VERTEX
  5
309
330
1EA
100
AcDbEntity
  8
0
  6
CONTINUOUS
 62
     7
100
AcDbVertex
100
AcDb2dVertex
 10
7.8000136204
 20
8.1708687301
 30
0.0
  0
VERTEX
  5
30A
330
1EA
100
AcDbEntity
  8
0
  6
CONTINUOUS
 62
     7
100
AcDbVertex
100
AcDb2dVertex
 10
7.7690113524
 20
8.1707063763
 30
0.0
  0
VERTEX
  5
30B
330
1EA
100
AcDbEntity
  8
0
  6
CONTINUOUS
 62
     7
100
AcDbVertex
100
AcDb2dVertex
 10
7.7372949712
 20
8.1683594078
 30
0.0
  0
VERTEX
  5
30C
330
1EA
100
AcDbEntity
  8
0
  6
CONTINUOUS
 62
     7
100
AcDbVertex
100
AcDb2dVertex
 10
7.7049404063
 20
8.1638334434
 30
0.0
  0
VERTEX
  5
30D
330
1EA
100
AcDbEntity
  8
0
  6
CONTINUOUS
 62
     7
100
AcDbVertex
100
AcDb2dVertex
 10
7.6720251154
 20
8.1571393183
 30
0.0
  0
VERTEX
  5
30E
330
1EA
100
AcDbEntity
  8
0
  6
CONTINUOUS
 62
     7
100
AcDbVertex
100
AcDb2dVertex
 10
7.638627898
 20
8.1482930583
 30
0.0
  0
VERTEX
  5
30F
330
1EA
100
AcDbEntity
  8
0
  6
CONTINUOUS
 62
     7
100
AcDbVertex
100
AcDb2dVertex
 10
7.6048287079
 20
8.1373158416
 30
0.0
  0
VERTEX
  5
310
330
1EA
100
AcDbEntity
  8
0
  6
CONTINUOUS
 62
     7
100
AcDbVertex
100
AcDb2dVertex
 10
7.570708461
 20
8.1242339478
 30
0.0
  0
VERTEX
  5
311
330
1EA
100
AcDbEntity
  8
0
  6
CONTINUOUS
 62
     7
100
AcDbVertex
100
AcDb2dVertex
 10
7.5363488416
 20
8.1090786953
 30
0.0
  0
VERTEX
  5
312
330
1EA
100
AcDbEntity
  8
0
  6
CONTINUOUS
 62
     7
100
AcDbVertex
100
AcDb2dVertex
 10
7.5018321075
 20
8.0918863659
 30
0.0
  0
VERTEX
  5
313
330
1EA
100
AcDbEntity
  8
0
  6
CONTINUOUS
 62
     7
100
AcDbVertex
100
AcDb2dVertex
 10
7.4672408923
 20
8.0726981185
 30
0.0
  0
VERTEX
  5
314
330
1EA
100
AcDbEntity
  8
0
  6
CONTINUOUS
 62
     7
100
AcDbVertex
100
AcDb2dVertex
 10
7.4326580081
 20
8.05155989
 30
0.0
  0
VERTEX
  5
315
330
1EA
100
AcDbEntity
  8
0
  6
CONTINUOUS
 62
     7
100
AcDbVertex
100
AcDb2dVertex
 10
7.3981662468
 20
8.0285222859
 30
0.0
  0
VERTEX
  5
316
330
1EA
100
AcDbEntity
  8
0
  6
CONTINUOUS
 62
     7
100
AcDbVertex
100
AcDb2dVertex
 10
7.3638481825
 20
8.0036404585
 30
0.0
  0
VERTEX
  5
317
330
1EA
100
AcDbEntity
  8
0
  6
CONTINUOUS
 62
     7
100
AcDbVertex
100
AcDb2dVertex
 10
7.3297859733
 20
7.9769739753
 30
0.0
  0
VERTEX
  5
318
330
1EA
100
AcDbEntity
  8
0
  6
CONTINUOUS
 62
     7
100
AcDbVertex
100
AcDb2dVertex
 10
7.2960611646
 20
7.9485866766
 30
0.0
  0
VERTEX
  5
319
330
1EA
100
AcDbEntity
  8
0
  6
CONTINUOUS
 62
     7
100
AcDbVertex
100
AcDb2dVertex
 10
7.2627544944
 20
7.918546522
 30
0.0
  0
VERTEX
  5
31A
330
1EA
100
AcDbEntity
  8
0
  6
CONTINUOUS
 62
     7
100
AcDbVertex
100
AcDb2dVertex
 10
7.2299456993
 20
7.8869254281
 30
0.0
  0
VERTEX
  5
31B
330
1EA
100
AcDbEntity
  8
0
  6
CONTINUOUS
 62
     7
100
AcDbVertex
100
AcDb2dVertex
 10
7.1977133244
 20
7.8537990965
 30
0.0
  0
VERTEX
  5
31C
330
1EA
100
AcDbEntity
  8
0
  6
CONTINUOUS
 62
     7
100
AcDbVertex
100
AcDb2dVertex
 10
7.1661345345
 20
7.8192468323
 30
0.0
  0
VERTEX
  5
31D
330
1EA
100
AcDbEntity
  8
0
  6
CONTINUOUS
 62
     7
100
AcDbVertex
100
AcDb2dVertex
 10
7.1352849298
 20
7.7833513542
 30
0.0
  0
VERTEX
  5
31E
330
1EA
100
AcDbEntity
  8
0
  6
CONTINUOUS
 62
     7
100
AcDbVertex
100
AcDb2dVertex
 10
7.1052383649
 20
7.7461985966
 30
0.0
  0
VERTEX
  5
31F
330
1EA
100
AcDbEntity
  8
0
  6
CONTINUOUS
 62
     7
100
AcDbVertex
100
AcDb2dVertex
 10
7.0760667718
 20
7.7078775041
 30
0.0
  0
VERTEX
  5
320
330
1EA
100
AcDbEntity
  8
0
  6
CONTINUOUS
 62
     7
100
AcDbVertex
100
AcDb2dVertex
 10
7.0478399878
 20
7.6684798179
 30
0.0
  0
VERTEX
  5
321
330
1EA
100
AcDbEntity
  8
0
  6
CONTINUOUS
 62
     7
100
AcDbVertex
100
AcDb2dVertex
 10
7.0206255884
 20
7.6280998568
 30
0.0
  0
VERTEX
  5
322
330
1EA
100
AcDbEntity
  8
0
  6
CONTINUOUS
 62
     7
100
AcDbVertex
100
AcDb2dVertex
 10
6.9944887253
 20
7.5868342914
 30
0.0
  0
VERTEX
  5
323
330
1EA
100
AcDbEntity
  8
0
  6
CONTINUOUS
 62
     7
100
AcDbVertex
100
AcDb2dVertex
 10
6.9694919708
 20
7.544781912
 30
0.0
  0
VERTEX
  5
324
330
1EA
100
AcDbEntity
  8
0
  6
CONTINUOUS
 62
     7
100
AcDbVertex
100
AcDb2dVertex
 10
6.9456951675
 20
7.502043393
 30
0.0
  0
VERTEX
  5
325
330
1EA
100
AcDbEntity
  8
0
  6
CONTINUOUS
 62
     7
100
AcDbVertex
100
AcDb2dVertex
 10
6.9231552854
 20
7.458721051
 30
0.0
  0
VERTEX
  5
326
330
1EA
100
AcDbEntity
  8
0
  6
CONTINUOUS
 62
     7
100
AcDbVertex
100
AcDb2dVertex
 10
6.9019262854
 20
7.4149186007
 30
0.0
  0
VERTEX
  5
327
330
1EA
100
AcDbEntity
  8
0
  6
CONTINUOUS
 62
     7
100
AcDbVertex
100
AcDb2dVertex
 10
6.8820589902
 20
7.3707409058
 30
0.0
  0
VERTEX
  5
328
330
1EA
100
AcDbEntity
  8
0
  6
CONTINUOUS
 62
     7
100
AcDbVertex
100
AcDb2dVertex
 10
6.8636009624
 20
7.3262937287
 30
0.0
  0
VERTEX
  5
329
330
1EA
100
AcDbEntity
  8
0
  6
CONTINUOUS
 62
     7
100
AcDbVertex
100
AcDb2dVertex
 10
6.8465963908
 20
7.2816834767
 30
0.0
  0
VERTEX
  5
32A
330
1EA
100
AcDbEntity
  8
0
  6
CONTINUOUS
 62
     7
100
AcDbVertex
100
AcDb2dVertex
 10
6.8310859848
 20
7.2370169476
 30
0.0
  0
VERTEX
  5
32B
330
1EA
100
AcDbEntity
  8
0
  6
CONTINUOUS
 62
     7
100
AcDbVertex
100
AcDb2dVertex
 10
6.8171068765
 20
7.1924010739
 30
0.0
  0
VERTEX
  5
32C
330
1EA
100
AcDbEntity
  8
0
  6
CONTINUOUS
 62
     7
100
AcDbVertex
100
AcDb2dVertex
 10
6.8046925323
 20
7.1479426669
 30
0.0
  0
VERTEX
  5
32D
330
1EA
100
AcDbEntity
  8
0
  6
CONTINUOUS
 62
     7
100
AcDbVertex
100
AcDb2dVertex
 10
6.7938726722
 20
7.1037481607
 30
0.0
  0
VERTEX
  5
32E
330
1EA
100
AcDbEntity
  8
0
  6
CONTINUOUS
 62
     7
100
AcDbVertex
100
AcDb2dVertex
 10
6.7846731992
 20
7.059923358
 30
0.0
  0
VERTEX
  5
32F
330
1EA
100
AcDbEntity
  8
0
  6
CONTINUOUS
 62
     7
100
AcDbVertex
100
AcDb2dVertex
 10
6.7771161371
 20
7.016573176
 30
0.0
  0
VERTEX
  5
330
330
1EA
100
AcDbEntity
  8
0
  6
CONTINUOUS
 62
     7
100
AcDbVertex
100
AcDb2dVertex
 10
6.7712195775
 20
6.9738013959
 30
0.0
  0
VERTEX
  5
331
330
1EA
100
AcDbEntity
  8
0
  6
CONTINUOUS
 62
     7
100
AcDbVertex
100
AcDb2dVertex
 10
6.766997637
 20
6.9317104142
 30
0.0
  0
VERTEX
  5
332
330
1EA
100
AcDbEntity
  8
0
  6
CONTINUOUS
 62
     7
100
AcDbVertex
100
AcDb2dVertex
 10
6.7644604229
 20
6.8904009976
 30
0.0
  0
VERTEX
  5
333
330
1EA
100
AcDbEntity
  8
0
  6
CONTINUOUS
 62
     7
100
AcDbVertex
100
AcDb2dVertex
 10
6.7636140095
 20
6.8499720414
 30
0.0
  0
VERTEX
  5
334
330
1EA
100
AcDbEntity
  8
0
  6
CONTINUOUS
 62
     7
100
AcDbVertex
100
AcDb2dVertex
 10
6.7644604229
 20
6.8105203334
 30
0.0
  0
VERTEX
  5
335
330
1EA
100
AcDbEntity
  8
0
  6
CONTINUOUS
 62
     7
100
AcDbVertex
100
AcDb2dVertex
 10
6.766997637
 20
6.7721403217
 30
0.0
  0
VERTEX
  5
336
330
1EA
100
AcDbEntity
  8
0
  6
CONTINUOUS
 62
     7
100
AcDbVertex
100
AcDb2dVertex
 10
6.7712195775
 20
6.7349238887
 30
0.0
  0
VERTEX
  5
337
330
1EA
100
AcDbEntity
  8
0
  6
CONTINUOUS
 62
     7
100
AcDbVertex
100
AcDb2dVertex
 10
6.7771161371
 20
6.6989601315
 30
0.0
  0
VERTEX
  5
338
330
1EA
100
AcDbEntity
  8
0
  6
CONTINUOUS
 62
     7
100
AcDbVertex
100
AcDb2dVertex
 10
6.7846731992
 20
6.6643351477
 30
0.0
  0
VERTEX
  5
339
330
1EA
100
AcDbEntity
  8
0
  6
CONTINUOUS
 62
     7
100
AcDbVertex
100
AcDb2dVertex
 10
6.7938726722
 20
6.6311318303
 30
0.0
  0
VERTEX
  5
33A
330
1EA
100
AcDbEntity
  8
0
  6
CONTINUOUS
 62
     7
100
AcDbVertex
100
AcDb2dVertex
 10
6.8046925323
 20
6.5994296687
 30
0.0
  0
VERTEX
  5
33B
330
1EA
100
AcDbEntity
  8
0
  6
CONTINUOUS
 62
     7
100
AcDbVertex
100
AcDb2dVertex
 10
6.8171068765
 20
6.5693045585
 30
0.0
  0
VERTEX
  5
33C
330
1EA
100
AcDbEntity
  8
0
  6
CONTINUOUS
 62
     7
100
AcDbVertex
100
AcDb2dVertex
 10
6.8310859848
 20
6.5408286196
 30
0.0
  0
VERTEX
  5
33D
330
1EA
100
AcDbEntity
  8
0
  6
CONTINUOUS
 62
     7
100
AcDbVertex
100
AcDb2dVertex
 10
6.8465963908
 20
6.5140700241
 30
0.0
  0
VERTEX
  5
33E
330
1EA
100
AcDbEntity
  8
0
  6
CONTINUOUS
 62
     7
100
AcDbVertex
100
AcDb2dVertex
 10
6.8636009624
 20
6.4890928325
 30
0.0
  0
VERTEX
  5
33F
330
1EA
100
AcDbEntity
  8
0
  6
CONTINUOUS
 62
     7
100
AcDbVertex
100
AcDb2dVertex
 10
6.8820589902
 20
6.4659568407
 30
0.0
  0
VERTEX
  5
340
330
1EA
100
AcDbEntity
  8
0
  6
CONTINUOUS
 62
     7
100
AcDbVertex
100
AcDb2dVertex
 10
6.9019262854
 20
6.4447174367
 30
0.0
  0
VERTEX
  5
341
330
1EA
100
AcDbEntity
  8
0
  6
CONTINUOUS
 62
     7
100
AcDbVertex
100
AcDb2dVertex
 10
6.9231552854
 20
6.425425468
 30
0.0
  0
VERTEX
  5
342
330
1EA
100
AcDbEntity
  8
0
  6
CONTINUOUS
 62
     7
100
AcDbVertex
100
AcDb2dVertex
 10
6.9456951675
 20
6.40812712
 30
0.0
  0
VERTEX
  5
343
330
1EA
100
AcDbEntity
  8
0
  6
CONTINUOUS
 62
     7
100
AcDbVertex
100
AcDb2dVertex
 10
6.9694919708
 20
6.3928638052
 30
0.0
  0
VERTEX
  5
344
330
1EA
100
AcDbEntity
  8
0
  6
CONTINUOUS
 62
     7
100
AcDbVertex
100
AcDb2dVertex
 10
6.9707614243
 20
6.3921272349
 30
0.0
  0
SEQEND
  5
345
330
1EA
100
AcDbEntity
  8
0
  6
CONTINUOUS
 62
     7
  0
POLYLINE
  5
1EB
330
1F
100
AcDbEntity
  8
0
  6
CONTINUOUS
 62
     7
100
AcDb2dPolyline
 66
     1
 10
0.0
 20
0.0
 30
0.0
  0
VERTEX
  5
346
330
1EB
100
AcDbEntity
  8
0
  6
CONTINUOUS
 62
     7
100
AcDbVertex
100
AcDb2dVertex
 10
7.3996203686
 20
7.4364670206
 30
0.0
  0
VERTEX
  5
347
330
1EB
100
AcDbEntity
  8
0
  6
CONTINUOUS
 62
     7
100
AcDbVertex
100
AcDb2dVertex
 10
7.4276564027
 20
7.4768365119
 30
0.0
  0
VERTEX
  5
348
330
1EB
100
AcDbEntity
  8
0
  6
CONTINUOUS
 62
     7
100
AcDbVertex
100
AcDb2dVertex
 10
7.4566942786
 20
7.5161529805
 30
0.0
  0
VERTEX
  5
349
330
1EB
100
AcDbEntity
  8
0
  6
CONTINUOUS
 62
     7
100
AcDbVertex
100
AcDb2dVertex
 10
7.4866628743
 20
7.5543201291
 30
0.0
  0
VERTEX
  5
34A
330
1EB
100
AcDbEntity
  8
0
  6
CONTINUOUS
 62
     7
100
AcDbVertex
100
AcDb2dVertex
 10
7.517488788
 20
7.5912444751
 30
0.0
  0
VERTEX
  5
34B
330
1EB
100
AcDbEntity
  8
0
  6
CONTINUOUS
 62
     7
100
AcDbVertex
100
AcDb2dVertex
 10
7.5490965182
 20
7.6268355804
 30
0.0
  0
VERTEX
  5
34C
330
1EB
100
AcDbEntity
  8
0
  6
CONTINUOUS
 62
     7
100
AcDbVertex
100
AcDb2dVertex
 10
7.5814086484
 20
7.6610062721
 30
0.0
  0
VERTEX
  5
34D
330
1EB
100
AcDbEntity
  8
0
  6
CONTINUOUS
 62
     7
100
AcDbVertex
100
AcDb2dVertex
 10
7.614346037
 20
7.6936728562
 30
0.0
  0
VERTEX
  5
34E
330
1EB
100
AcDbEntity
  8
0
  6
CONTINUOUS
 62
     7
100
AcDbVertex
100
AcDb2dVertex
 10
7.6478280107
 20
7.7247553229
 30
0.0
  0
VERTEX
  5
34F
330
1EB
100
AcDbEntity
  8
0
  6
CONTINUOUS
 62
     7
100
AcDbVertex
100
AcDb2dVertex
 10
7.6817725627
 20
7.7541775423
 30
0.0
  0
VERTEX
  5
350
330
1EB
100
AcDbEntity
  8
0
  6
CONTINUOUS
 62
     7
100
AcDbVertex
100
AcDb2dVertex
 10
7.7160965528
 20
7.7818674508
 30
0.0
  0
VERTEX
  5
351
330
1EB
100
AcDbEntity
  8
0
  6
CONTINUOUS
 62
     7
100
AcDbVertex
100
AcDb2dVertex
 10
7.7507159117
 20
7.807757228
 30
0.0
  0
VERTEX
  5
352
330
1EB
100
AcDbEntity
  8
0
  6
CONTINUOUS
 62
     7
100
AcDbVertex
100
AcDb2dVertex
 10
7.7855458468
 20
7.8317834623
 30
0.0
  0
VERTEX
  5
353
330
1EB
100
AcDbEntity
  8
0
  6
CONTINUOUS
 62
     7
100
AcDbVertex
100
AcDb2dVertex
 10
7.8205010493
 20
7.8538873065
 30
0.0
  0
VERTEX
  5
354
330
1EB
100
AcDbEntity
  8
0
  6
CONTINUOUS
 62
     7
100
AcDbVertex
100
AcDb2dVertex
 10
7.855495904
 20
7.874014622
 30
0.0
  0
VERTEX
  5
355
330
1EB
100
AcDbEntity
  8
0
  6
CONTINUOUS
 62
     7
100
AcDbVertex
100
AcDb2dVertex
 10
7.8904446984
 20
7.8921161111
 30
0.0
  0
VERTEX
  5
356
330
1EB
100
AcDbEntity
  8
0
  6
CONTINUOUS
 62
     7
100
AcDbVertex
100
AcDb2dVertex
 10
7.9252618328
 20
7.9081474381
 30
0.0
  0
VERTEX
  5
357
330
1EB
100
AcDbEntity
  8
0
  6
CONTINUOUS
 62
     7
100
AcDbVertex
100
AcDb2dVertex
 10
7.95986203
 20
7.9220693377
 30
0.0
  0
VERTEX
  5
358
330
1EB
100
AcDbEntity
  8
0
  6
CONTINUOUS
 62
     7
100
AcDbVertex
100
AcDb2dVertex
 10
7.9941605442
 20
7.9338477111
 30
0.0
  0
VERTEX
  5
359
330
1EB
100
AcDbEntity
  8
0
  6
CONTINUOUS
 62
     7
100
AcDbVertex
100
AcDb2dVertex
 10
8.0280733684
 20
7.9434537096
 30
0.0
  0
VERTEX
  5
35A
330
1EB
100
AcDbEntity
  8
0
  6
CONTINUOUS
 62
     7
100
AcDbVertex
100
AcDb2dVertex
 10
8.0615174404
 20
7.9508638055
 30
0.0
  0
VERTEX
  5
35B
330
1EB
100
AcDbEntity
  8
0
  6
CONTINUOUS
 62
     7
100
AcDbVertex
100
AcDb2dVertex
 10
8.0944108459
 20
7.9560598493
 30
0.0
  0
VERTEX
  5
35C
330
1EB
100
AcDbEntity
  8
0
  6
CONTINUOUS
 62
     7
100
AcDbVertex
100
AcDb2dVertex
 10
8.1266730196
 20
7.9590291143
 30
0.0
  0
VERTEX
  5
35D
330
1EB
100
AcDbEntity
  8
0
  6
CONTINUOUS
 62
     7
100
AcDbVertex
100
AcDb2dVertex
 10
8.1582249421
 20
7.9597643279
 30
0.0
  0
VERTEX
  5
35E
330
1EB
100
AcDbEntity
  8
0
  6
CONTINUOUS
 62
     7
100
AcDbVertex
100
AcDb2dVertex
 10
8.1889893337
 20
7.9582636895
 30
0.0
  0
VERTEX
  5
35F
330
1EB
100
AcDbEntity
  8
0
  6
CONTINUOUS
 62
     7
100
AcDbVertex
100
AcDb2dVertex
 10
8.2188908434
 20
7.9545308745
 30
0.0
  0
VERTEX
  5
360
330
1EB
100
AcDbEntity
  8
0
  6
CONTINUOUS
 62
     7
100
AcDbVertex
100
AcDb2dVertex
 10
8.2478562339
 20
7.9485750257
 30
0.0
  0
VERTEX
  5
361
330
1EB
100
AcDbEntity
  8
0
  6
CONTINUOUS
 62
     7
100
AcDbVertex
100
AcDb2dVertex
 10
8.2758145606
 20
7.9404107306
 30
0.0
  0
VERTEX
  5
362
330
1EB
100
AcDbEntity
  8
0
  6
CONTINUOUS
 62
     7
100
AcDbVertex
100
AcDb2dVertex
 10
8.3026973455
 20
7.9300579859
 30
0.0
  0
VERTEX
  5
363
330
1EB
100
AcDbEntity
  8
0
  6
CONTINUOUS
 62
     7
100
AcDbVertex
100
AcDb2dVertex
 10
8.3284387449
 20
7.9175421486
 30
0.0
  0
VERTEX
  5
364
330
1EB
100
AcDbEntity
  8
0
  6
CONTINUOUS
 62
     7
100
AcDbVertex
100
AcDb2dVertex
 10
8.3435609588
 20
7.9088536086
 30
0.0
  0
SEQEND
  5
365
330
1EB
100
AcDbEntity
  8
0
  6
CONTINUOUS
 62
     7
  0
LINE
  5
1EC
330
1F
100
AcDbEntity
  8
0
  6
CONTINUOUS
 62
     7
100
AcDbLine
 10
7.4135397935
 20
7.4284315077
 30
0.0
 11
7.3996203686
 21
7.4364670206
 31
0.0
  0
POLYLINE
  5
1ED
330
1F
100
AcDbEntity
  8
0
  6
CONTINUOUS
 62
     7
100
AcDb2dPolyline
 66
     1
 10
0.0
 20
0.0
 30
0.0
  0
VERTEX
  5
366
330
1ED
100
AcDbEntity
  8
0
  6
CONTINUOUS
 62
     7
100
AcDbVertex
100
AcDb2dVertex
 10
8.3505690993
 20
7.9049197413
 30
0.0
  0
VERTEX
  5
367
330
1ED
100
AcDbEntity
  8
0
  6
CONTINUOUS
 62
     7
100
AcDbVertex
100
AcDb2dVertex
 10
8.3375089953
 20
7.9120752458
 30
0.0
  0
VERTEX
  5
368
330
1ED
100
AcDbEntity
  8
0
  6
CONTINUOUS
 62
     7
100
AcDbVertex
100
AcDb2dVertex
 10
8.3117191804
 20
7.9241051212
 30
0.0
  0
VERTEX
  5
369
330
1ED
100
AcDbEntity
  8
0
  6
CONTINUOUS
 62
     7
100
AcDbVertex
100
AcDb2dVertex
 10
8.2848148729
 20
7.9339954023
 30
0.0
  0
VERTEX
  5
36A
330
1ED
100
AcDbEntity
  8
0
  6
CONTINUOUS
 62
     7
100
AcDbVertex
100
AcDb2dVertex
 10
8.2568610997
 20
7.9417221844
 30
0.0
  0
VERTEX
  5
36B
330
1ED
100
AcDbEntity
  8
0
  6
CONTINUOUS
 62
     7
100
AcDbVertex
100
AcDb2dVertex
 10
8.2279254248
 20
7.9472667922
 30
0.0
  0
VERTEX
  5
36C
330
1ED
100
AcDbEntity
  8
0
  6
CONTINUOUS
 62
     7
100
AcDbVertex
100
AcDb2dVertex
 10
8.198077785
 20
7.9506158244
 30
0.0
  0
VERTEX
  5
36D
330
1ED
100
AcDbEntity
  8
0
  6
CONTINUOUS
 62
     7
100
AcDbVertex
100
AcDb2dVertex
 10
8.1673903216
 20
7.9517611864
 30
0.0
  0
VERTEX
  5
36E
330
1ED
100
AcDbEntity
  8
0
  6
CONTINUOUS
 62
     7
100
AcDbVertex
100
AcDb2dVertex
 10
8.1359372055
 20
7.9507001099
 30
0.0
  0
VERTEX
  5
36F
330
1ED
100
AcDbEntity
  8
0
  6
CONTINUOUS
 62
     7
100
AcDbVertex
100
AcDb2dVertex
 10
8.1037944583
 20
7.9474351596
 30
0.0
  0
VERTEX
  5
370
330
1ED
100
AcDbEntity
  8
0
  6
CONTINUOUS
 62
     7
100
AcDbVertex
100
AcDb2dVertex
 10
8.0710397685
 20
7.9419742267
 30
0.0
  0
VERTEX
  5
371
330
1ED
100
AcDbEntity
  8
0
  6
CONTINUOUS
 62
     7
100
AcDbVertex
100
AcDb2dVertex
 10
8.0377523035
 20
7.9343305102
 30
0.0
  0
VERTEX
  5
372
330
1ED
100
AcDbEntity
  8
0
  6
CONTINUOUS
 62
     7
100
AcDbVertex
100
AcDb2dVertex
 10
8.0040125185
 20
7.9245224849
 30
0.0
  0
VERTEX
  5
373
330
1ED
100
AcDbEntity
  8
0
  6
CONTINUOUS
 62
     7
100
AcDbVertex
100
AcDb2dVertex
 10
7.9699019619
 20
7.9125738565
 30
0.0
  0
VERTEX
  5
374
330
1ED
100
AcDbEntity
  8
0
  6
CONTINUOUS
 62
     7
100
AcDbVertex
100
AcDb2dVertex
 10
7.9355030782
 20
7.8985135047
 30
0.0
  0
VERTEX
  5
375
330
1ED
100
AcDbEntity
  8
0
  6
CONTINUOUS
 62
     7
100
AcDbVertex
100
AcDb2dVertex
 10
7.9008990089
 20
7.882375413
 30
0.0
  0
VERTEX
  5
376
330
1ED
100
AcDbEntity
  8
0
  6
CONTINUOUS
 62
     7
100
AcDbVertex
100
AcDb2dVertex
 10
7.8661733914
 20
7.864198587
 30
0.0
  0
VERTEX
  5
377
330
1ED
100
AcDbEntity
  8
0
  6
CONTINUOUS
 62
     7
100
AcDbVertex
100
AcDb2dVertex
 10
7.8314101569
 20
7.8440269596
 30
0.0
  0
VERTEX
  5
378
330
1ED
100
AcDbEntity
  8
0
  6
CONTINUOUS
 62
     7
100
AcDbVertex
100
AcDb2dVertex
 10
7.7966933273
 20
7.8219092853
 30
0.0
  0
VERTEX
  5
379
330
1ED
100
AcDbEntity
  8
0
  6
CONTINUOUS
 62
     7
100
AcDbVertex
100
AcDb2dVertex
 10
7.7621068127
 20
7.7978990221
 30
0.0
  0
VERTEX
  5
37A
330
1ED
100
AcDbEntity
  8
0
  6
CONTINUOUS
 62
     7
100
AcDbVertex
100
AcDb2dVertex
 10
7.727734208
 20
7.7720542024
 30
0.0
  0
VERTEX
  5
37B
330
1ED
100
AcDbEntity
  8
0
  6
CONTINUOUS
 62
     7
100
AcDbVertex
100
AcDb2dVertex
 10
7.693658591
 20
7.7444372925
 30
0.0
  0
VERTEX
  5
37C
330
1ED
100
AcDbEntity
  8
0
  6
CONTINUOUS
 62
     7
100
AcDbVertex
100
AcDb2dVertex
 10
7.659962322
 20
7.7151150421
 30
0.0
  0
VERTEX
  5
37D
330
1ED
100
AcDbEntity
  8
0
  6
CONTINUOUS
 62
     7
100
AcDbVertex
100
AcDb2dVertex
 10
7.6267268441
 20
7.6841583224
 30
0.0
  0
VERTEX
  5
37E
330
1ED
100
AcDbEntity
  8
0
  6
CONTINUOUS
 62
     7
100
AcDbVertex
100
AcDb2dVertex
 10
7.5940324869
 20
7.6516419552
 30
0.0
  0
VERTEX
  5
37F
330
1ED
100
AcDbEntity
  8
0
  6
CONTINUOUS
 62
     7
100
AcDbVertex
100
AcDb2dVertex
 10
7.561958272
 20
7.6176445321
 30
0.0
  0
VERTEX
  5
380
330
1ED
100
AcDbEntity
  8
0
  6
CONTINUOUS
 62
     7
100
AcDbVertex
100
AcDb2dVertex
 10
7.5305817222
 20
7.5822482241
 30
0.0
  0
VERTEX
  5
381
330
1ED
100
AcDbEntity
  8
0
  6
CONTINUOUS
 62
     7
100
AcDbVertex
100
AcDb2dVertex
 10
7.499978674
 20
7.5455385833
 30
0.0
  0
VERTEX
  5
382
330
1ED
100
AcDbEntity
  8
0
  6
CONTINUOUS
 62
     7
100
AcDbVertex
100
AcDb2dVertex
 10
7.4702230944
 20
7.5076043364
 30
0.0
  0
VERTEX
  5
383
330
1ED
100
AcDbEntity
  8
0
  6
CONTINUOUS
 62
     7
100
AcDbVertex
100
AcDb2dVertex
 10
7.4413869021
 20
7.4685371697
 30
0.0
  0
VERTEX
  5
384
330
1ED
100
AcDbEntity
  8
0
  6
CONTINUOUS
 62
     7
100
AcDbVertex
100
AcDb2dVertex
 10
7.4135397935
 20
7.4284315077
 30
0.0
  0
SEQEND
  5
385
330
1ED
100
AcDbEntity
  8
0
  6
CONTINUOUS
 62
     7
  0
POLYLINE
  5
1EE
330
1F
100
AcDbEntity
  8
0
  6
CONTINUOUS
 62
     7
100
AcDb2dPolyline
 66
     1
 10
0.0
 20
0.0
 30
0.0
  0
VERTEX
  5
386
330
1EE
100
AcDbEntity
  8
0
  6
CONTINUOUS
 62
     7
100
AcDbVertex
100
AcDb2dVertex
 10
7.8568768095
 20
6.5925507389
 30
0.0
  0
VERTEX
  5
387
330
1EE
100
AcDbEntity
  8
0
  6
CONTINUOUS
 62
     7
100
AcDbVertex
100
AcDb2dVertex
 10
7.8444775189
 20
6.5481938199
 30
0.0
  0
VERTEX
  5
388
330
1EE
100
AcDbEntity
  8
0
  6
CONTINUOUS
 62
     7
100
AcDbVertex
100
AcDb2dVertex
 10
7.8336650349
 20
6.5040985289
 30
0.0
  0
VERTEX
  5
389
330
1EE
100
AcDbEntity
  8
0
  6
CONTINUOUS
 62
     7
100
AcDbVertex
100
AcDb2dVertex
 10
7.8244651226
 20
6.4603699408
 30
0.0
  0
VERTEX
  5
38A
330
1EE
100
AcDbEntity
  8
0
  6
CONTINUOUS
 62
     7
100
AcDbVertex
100
AcDb2dVertex
 10
7.8168997046
 20
6.4171122564
 30
0.0
  0
VERTEX
  5
38B
330
1EE
100
AcDbEntity
  8
0
  6
CONTINUOUS
 62
     7
100
AcDbVertex
100
AcDb2dVertex
 10
7.8109868085
 20
6.3744285548
 30
0.0
  0
VERTEX
  5
38C
330
1EE
100
AcDbEntity
  8
0
  6
CONTINUOUS
 62
     7
100
AcDbVertex
100
AcDb2dVertex
 10
7.8067405241
 20
6.332420547
 30
0.0
  0
VERTEX
  5
38D
330
1EE
100
AcDbEntity
  8
0
  6
CONTINUOUS
 62
     7
100
AcDbVertex
100
AcDb2dVertex
 10
7.80417097
 20
6.2911883342
 30
0.0
  0
VERTEX
  5
38E
330
1EE
100
AcDbEntity
  8
0
  6
CONTINUOUS
 62
     7
100
AcDbVertex
100
AcDb2dVertex
 10
7.8032842692
 20
6.2508301688
 30
0.0
  0
VERTEX
  5
38F
330
1EE
100
AcDbEntity
  8
0
  6
CONTINUOUS
 62
     7
100
AcDbVertex
100
AcDb2dVertex
 10
7.8040825345
 20
6.2114422204
 30
0.0
  0
VERTEX
  5
390
330
1EE
100
AcDbEntity
  8
0
  6
CONTINUOUS
 62
     7
100
AcDbVertex
100
AcDb2dVertex
 10
7.8065638638
 20
6.1731183466
 30
0.0
  0
VERTEX
  5
391
330
1EE
100
AcDbEntity
  8
0
  6
CONTINUOUS
 62
     7
100
AcDbVertex
100
AcDb2dVertex
 10
7.8107223444
 20
6.1359498697
 30
0.0
  0
VERTEX
  5
392
330
1EE
100
AcDbEntity
  8
0
  6
CONTINUOUS
 62
     7
100
AcDbVertex
100
AcDb2dVertex
 10
7.8165480669
 20
6.1000253584
 30
0.0
  0
VERTEX
  5
393
330
1EE
100
AcDbEntity
  8
0
  6
CONTINUOUS
 62
     7
100
AcDbVertex
100
AcDb2dVertex
 10
7.8240271492
 20
6.0654304175
 30
0.0
  0
VERTEX
  5
394
330
1EE
100
AcDbEntity
  8
0
  6
CONTINUOUS
 62
     7
100
AcDbVertex
100
AcDb2dVertex
 10
7.8331417695
 20
6.0322474834
 30
0.0
  0
VERTEX
  5
395
330
1EE
100
AcDbEntity
  8
0
  6
CONTINUOUS
 62
     7
100
AcDbVertex
100
AcDb2dVertex
 10
7.8438702083
 20
6.0005556279
 30
0.0
  0
VERTEX
  5
396
330
1EE
100
AcDbEntity
  8
0
  6
CONTINUOUS
 62
     7
100
AcDbVertex
100
AcDb2dVertex
 10
7.856186901
 20
5.9704303695
 30
0.0
  0
VERTEX
  5
397
330
1EE
100
AcDbEntity
  8
0
  6
CONTINUOUS
 62
     7
100
AcDbVertex
100
AcDb2dVertex
 10
7.8700624979
 20
5.9419434939
 30
0.0
  0
VERTEX
  5
398
330
1EE
100
AcDbEntity
  8
0
  6
CONTINUOUS
 62
     7
100
AcDbVertex
100
AcDb2dVertex
 10
7.8854639349
 20
5.9151628826
 30
0.0
  0
VERTEX
  5
399
330
1EE
100
AcDbEntity
  8
0
  6
CONTINUOUS
 62
     7
100
AcDbVertex
100
AcDb2dVertex
 10
7.9023545119
 20
5.8901523512
 30
0.0
  0
VERTEX
  5
39A
330
1EE
100
AcDbEntity
  8
0
  6
CONTINUOUS
 62
     7
100
AcDbVertex
100
AcDb2dVertex
 10
7.9206939801
 20
5.8669714974
 30
0.0
  0
VERTEX
  5
39B
330
1EE
100
AcDbEntity
  8
0
  6
CONTINUOUS
 62
     7
100
AcDbVertex
100
AcDb2dVertex
 10
7.9404386385
 20
5.8456755589
 30
0.0
  0
VERTEX
  5
39C
330
1EE
100
AcDbEntity
  8
0
  6
CONTINUOUS
 62
     7
100
AcDbVertex
100
AcDb2dVertex
 10
7.9615414373
 20
5.8263152819
 30
0.0
  0
VERTEX
  5
39D
330
1EE
100
AcDbEntity
  8
0
  6
CONTINUOUS
 62
     7
100
AcDbVertex
100
AcDb2dVertex
 10
7.9839520907
 20
5.8089368002
 30
0.0
  0
VERTEX
  5
39E
330
1EE
100
AcDbEntity
  8
0
  6
CONTINUOUS
 62
     7
100
AcDbVertex
100
AcDb2dVertex
 10
8.0076171962
 20
5.7935815249
 30
0.0
  0
VERTEX
  5
39F
330
1EE
100
AcDbEntity
  8
0
  6
CONTINUOUS
 62
     7
100
AcDbVertex
100
AcDb2dVertex
 10
8.0104311035
 20
5.7919387045
 30
0.0
  0
SEQEND
  5
3A0
330
1EE
100
AcDbEntity
  8
0
  6
CONTINUOUS
 62
     7
  0
LINE
  5
1EF
330
1F
100
AcDbEntity
  8
0
  6
CONTINUOUS
 62
     7
100
AcDbLine
 10
7.8429573847
 20
6.6005862518
 30
0.0
 11
7.8568768095
 21
6.5925507389
 31
0.0
  0
POLYLINE
  5
1F0
330
1F
100
AcDbEntity
  8
0
  6
CONTINUOUS
 62
     7
100
AcDb2dPolyline
 66
     1
 10
0.0
 20
0.0
 30
0.0
  0
VERTEX
  5
3A1
330
1F0
100
AcDbEntity
  8
0
  6
CONTINUOUS
 62
     7
100
AcDbVertex
100
AcDb2dVertex
 10
8.0035198192
 20
5.79604035
 30
0.0
  0
VERTEX
  5
3A2
330
1F0
100
AcDbEntity
  8
0
  6
CONTINUOUS
 62
     7
100
AcDbVertex
100
AcDb2dVertex
 10
7.9966428561
 20
5.79989853
 30
0.0
  0
VERTEX
  5
3A3
330
1F0
100
AcDbEntity
  8
0
  6
CONTINUOUS
 62
     7
100
AcDbVertex
100
AcDb2dVertex
 10
7.972712857
 20
5.8150878032
 30
0.0
  0
VERTEX
  5
3A4
330
1F0
100
AcDbEntity
  8
0
  6
CONTINUOUS
 62
     7
100
AcDbVertex
100
AcDb2dVertex
 10
7.9500435338
 20
5.8323252613
 30
0.0
  0
VERTEX
  5
3A5
330
1F0
100
AcDbEntity
  8
0
  6
CONTINUOUS
 62
     7
100
AcDbVertex
100
AcDb2dVertex
 10
7.9286894511
 20
5.851569414
 30
0.0
  0
VERTEX
  5
3A6
330
1F0
100
AcDbEntity
  8
0
  6
CONTINUOUS
 62
     7
100
AcDbVertex
100
AcDb2dVertex
 10
7.9087020079
 20
5.8727739411
 30
0.0
  0
VERTEX
  5
3A7
330
1F0
100
AcDbEntity
  8
0
  6
CONTINUOUS
 62
     7
100
AcDbVertex
100
AcDb2dVertex
 10
7.8901293135
 20
5.8958878037
 30
0.0
  0
VERTEX
  5
3A8
330
1F0
100
AcDbEntity
  8
0
  6
CONTINUOUS
 62
     7
100
AcDbVertex
100
AcDb2dVertex
 10
7.8730160719
 20
5.9208553671
 30
0.0
  0
VERTEX
  5
3A9
330
1F0
100
AcDbEntity
  8
0
  6
CONTINUOUS
 62
     7
100
AcDbVertex
100
AcDb2dVertex
 10
7.8574034746
 20
5.9476165349
 30
0.0
  0
VERTEX
  5
3AA
330
1F0
100
AcDbEntity
  8
0
  6
CONTINUOUS
 62
     7
100
AcDbVertex
100
AcDb2dVertex
 10
7.8433291006
 20
5.9761068934
 30
0.0
  0
VERTEX
  5
3AB
330
1F0
100
AcDbEntity
  8
0
  6
CONTINUOUS
 62
     7
100
AcDbVertex
100
AcDb2dVertex
 10
7.8308268267
 20
6.006257867
 30
0.0
  0
VERTEX
  5
3AC
330
1F0
100
AcDbEntity
  8
0
  6
CONTINUOUS
 62
     7
100
AcDbVertex
100
AcDb2dVertex
 10
7.8199267457
 20
6.0379968828
 30
0.0
  0
VERTEX
  5
3AD
330
1F0
100
AcDbEntity
  8
0
  6
CONTINUOUS
 62
     7
100
AcDbVertex
100
AcDb2dVertex
 10
7.8106550939
 20
6.0712475456
 30
0.0
  0
VERTEX
  5
3AE
330
1F0
100
AcDbEntity
  8
0
  6
CONTINUOUS
 62
     7
100
AcDbVertex
100
AcDb2dVertex
 10
7.8030341879
 20
6.1059298217
 30
0.0
  0
VERTEX
  5
3AF
330
1F0
100
AcDbEntity
  8
0
  6
CONTINUOUS
 62
     7
100
AcDbVertex
100
AcDb2dVertex
 10
7.7970823711
 20
6.1419602316
 30
0.0
  0
VERTEX
  5
3B0
330
1F0
100
AcDbEntity
  8
0
  6
CONTINUOUS
 62
     7
100
AcDbVertex
100
AcDb2dVertex
 10
7.7928139695
 20
6.1792520506
 30
0.0
  0
VERTEX
  5
3B1
330
1F0
100
AcDbEntity
  8
0
  6
CONTINUOUS
 62
     7
100
AcDbVertex
100
AcDb2dVertex
 10
7.7902392569
 20
6.2177155182
 30
0.0
  0
VERTEX
  5
3B2
330
1F0
100
AcDbEntity
  8
0
  6
CONTINUOUS
 62
     7
100
AcDbVertex
100
AcDb2dVertex
 10
7.7893644307
 20
6.2572580535
 30
0.0
  0
VERTEX
  5
3B3
330
1F0
100
AcDbEntity
  8
0
  6
CONTINUOUS
 62
     7
100
AcDbVertex
100
AcDb2dVertex
 10
7.7901915966
 20
6.2977844784
 30
0.0
  0
VERTEX
  5
3B4
330
1F0
100
AcDbEntity
  8
0
  6
CONTINUOUS
 62
     7
100
AcDbVertex
100
AcDb2dVertex
 10
7.7927187635
 20
6.3391972465
 30
0.0
  0
VERTEX
  5
3B5
330
1F0
100
AcDbEntity
  8
0
  6
CONTINUOUS
 62
     7
100
AcDbVertex
100
AcDb2dVertex
 10
7.7969398487
 20
6.3813966782
 30
0.0
  0
VERTEX
  5
3B6
330
1F0
100
AcDbEntity
  8
0
  6
CONTINUOUS
 62
     7
100
AcDbVertex
100
AcDb2dVertex
 10
7.802844692
 20
6.4242812001
 30
0.0
  0
VERTEX
  5
3B7
330
1F0
100
AcDbEntity
  8
0
  6
CONTINUOUS
 62
     7
100
AcDbVertex
100
AcDb2dVertex
 10
7.8104190807
 20
6.4677475901
 30
0.0
  0
VERTEX
  5
3B8
330
1F0
100
AcDbEntity
  8
0
  6
CONTINUOUS
 62
     7
100
AcDbVertex
100
AcDb2dVertex
 10
7.8196447833
 20
6.5116912254
 30
0.0
  0
VERTEX
  5
3B9
330
1F0
100
AcDbEntity
  8
0
  6
CONTINUOUS
 62
     7
100
AcDbVertex
100
AcDb2dVertex
 10
7.8304995938
 20
6.5560063345
 30
0.0
  0
VERTEX
  5
3BA
330
1F0
100
AcDbEntity
  8
0
  6
CONTINUOUS
 62
     7
100
AcDbVertex
100
AcDb2dVertex
 10
7.8429573847
 20
6.6005862518
 30
0.0
  0
SEQEND
  5
3BB
330
1F0
100
AcDbEntity
  8
0
  6
CONTINUOUS
 62
     7
  0
LINE
  5
1F1
330
1F
100
AcDbEntity
  8
0
  6
CONTINUOUS
 62
     7
100
AcDbLine
 10
8.8833196998
 20
5.6342343582
 30
0.0
 11
8.8764713427
 21
5.6381878306
 31
0.0
  0
SPLINE
  5
1F2
330
1F
100
AcDbEntity
  8
0
  6
CONTINUOUS
 62
     7
100
AcDbSpline
210
0.0
220
0.0
230
1.0
 70
     8
 71
     3
 72
    10
 73
     6
 74
     0
 42
0.00000001
 43
0.00000001
 40
0.0
 40
0.0
 40
0.0
 40
0.0
 40
0.1198985854511188
 40
0.7786433249536291
 40
1.0
 40
1.0
 40
1.0
 40
1.0
 10
8.20526053710772
 20
7.98752191494958
 30
0.0
 10
8.20570679530947
 20
7.987290124006296
 30
0.0
 10
8.208604877623715
 20
7.985784831261646
 30
0.0
 10
8.211294869950535
 20
7.984502790698839
 30
0.0
 10
8.212513239000305
 20
7.983958358789065
 30
0.0
 10
8.212819674278533
 20
7.983821427254421
 30
0.0
  0
SPLINE
  5
1F3
330
1F
100
AcDbEntity
  8
0
  6
CONTINUOUS
 62
     7
100
AcDbSpline
210
0.0
220
0.0
230
1.0
 70
     8
 71
     3
 72
    34
 73
    30
 74
     0
 42
0.00000001
 43
0.00000001
 40
0.0
 40
0.0
 40
0.0
 40
0.0
 40
0.0043911684022773
 40
0.0564858874714618
 40
0.1100741738719168
 40
0.1629003155800219
 40
0.2171748774581087
 40
0.2617896375416399
 40
0.3075958193523903
 40
0.3446649588828751
 40
0.382737232308997
 40
0.4198514869006582
 40
0.4583837548834939
 40
0.4906514224083262
 40
0.5240525756454184
 40
0.5534269926206404
 40
0.5836874437532713
 40
0.612572427411279
 40
0.6422280654620768
 40
0.6724636180732664
 40
0.7034273865560309
 40
0.7367778428471309
 40
0.7708664206383898
 40
0.8092694074170995
 40
0.8484794997812255
 40
0.8938329946936193
 40
0.9401627206857385
 40
0.992876655499712
 40
1.0
 40
1.0
 40
1.0
 40
1.0
 10
8.21684458770787
 20
7.982092808359468
 30
0.0
 10
8.216877055624483
 20
7.982081958677381
 30
0.0
 10
8.21729470735548
 20
7.981942393562749
 30
0.0
 10
8.213375070588484
 20
7.983667255483361
 30
0.0
 10
8.204317517672093
 20
7.987117000560226
 30
0.0
 10
8.189665631445516
 20
7.99226233251801
 30
0.0
 10
8.171412524768096
 20
7.998291268272165
 30
0.0
 10
8.150175121980638
 20
8.005133622362365
 30
0.0
 10
8.12860599595313
 20
8.012099555712402
 30
0.0
 10
8.106063292113586
 20
8.019594028457828
 30
0.0
 10
8.083802107005077
 20
8.027349010429402
 30
0.0
 10
8.060564313094327
 20
8.036019396147003
 30
0.0
 10
8.038653473107647
 20
8.044972341905686
 30
0.0
 10
8.018571131348253
 20
8.054098225252007
 30
0.0
 10
8.001815214665926
 20
8.062650212563305
 30
0.0
 10
7.987506453603437
 20
8.070973646461225
 30
0.0
 10
7.976164726810002
 20
8.078623355735743
 30
0.0
 10
7.967338255010522
 20
8.085772978814015
 30
0.0
 10
7.961167206562534
 20
8.092180016390548
 30
0.0
 10
7.957640546383853
 20
8.097753401029141
 30
0.0
 10
7.956819544587368
 20
8.102337582556334
 30
0.0
 10
7.958851148535055
 20
8.105656979191648
 30
0.0
 10
7.963939973464663
 20
8.107520775723888
 30
0.0
 10
7.972171406488706
 20
8.107556456045403
 30
0.0
 10
7.984067316030504
 20
8.105383151391422
 30
0.0
 10
7.999405511802594
 20
8.100718047321026
 30
0.0
 10
8.019110800031516
 20
8.092736908031663
 30
0.0
 10
8.034773550173139
 20
8.085610235881525
 30
0.0
 10
8.04468772238749
 20
8.080295013312393
 30
0.0
 10
8.045867957600846
 20
8.079662261257328
 30
0.0
  0
SPLINE
  5
1F4
330
1F
100
AcDbEntity
  8
0
  6
CONTINUOUS
 62
     7
100
AcDbSpline
210
0.0
220
0.0
230
1.0
 70
     8
 71
     3
 72
    10
 73
     6
 74
     0
 42
0.00000001
 43
0.00000001
 40
0.0
 40
0.0
 40
0.0
 40
0.0
 40
0.4471836608378887
 40
0.9050027333970757
 40
1.0
 40
1.0
 40
1.0
 40
1.0
 10
8.294103370844827
 20
5.636385947507724
 30
0.0
 10
8.301524611403417
 20
5.629994326027776
 30
0.0
 10
8.316543592593689
 20
5.617059070523688
 30
0.0
 10
8.330185166528013
 20
5.607022479167643
 30
0.0
 10
8.335236163533226
 20
5.60462929456678
 30
0.0
 10
8.336104138799373
 20
5.604218044067377
 30
0.0
  0
POLYLINE
  5
1F5
330
1F
100
AcDbEntity
  8
0
  6
CONTINUOUS
 62
     7
100
AcDb2dPolyline
 66
     1
 10
0.0
 20
0.0
 30
0.0
  0
VERTEX
  5
3BC
330
1F5
100
AcDbEntity
  8
0
  6
CONTINUOUS
 62
     7
100
AcDbVertex
100
AcDb2dVertex
 10
8.025612527
 20
5.7845547908
 30
0.0
  0
VERTEX
  5
3BD
330
1F5
100
AcDbEntity
  8
0
  6
CONTINUOUS
 62
     7
100
AcDbVertex
100
AcDb2dVertex
 10
8.0097003724
 20
5.7956084098
 30
0.0
  0
VERTEX
  5
3BE
330
1F5
100
AcDbEntity
  8
0
  6
CONTINUOUS
 62
     7
100
AcDbVertex
100
AcDb2dVertex
 10
7.9936581635
 20
5.8081694548
 30
0.0
  0
VERTEX
  5
3BF
330
1F5
100
AcDbEntity
  8
0
  6
CONTINUOUS
 62
     7
100
AcDbVertex
100
AcDb2dVertex
 10
7.9737929389
 20
5.8270211575
 30
0.0
  0
VERTEX
  5
3C0
330
1F5
100
AcDbEntity
  8
0
  6
CONTINUOUS
 62
     7
100
AcDbVertex
100
AcDb2dVertex
 10
7.9606580314
 20
5.8448140651
 30
0.0
  0
VERTEX
  5
3C1
330
1F5
100
AcDbEntity
  8
0
  6
CONTINUOUS
 62
     7
100
AcDbVertex
100
AcDb2dVertex
 10
7.9561475529
 20
5.8572520617
 30
0.0
  0
VERTEX
  5
3C2
330
1F5
100
AcDbEntity
  8
0
  6
CONTINUOUS
 62
     7
100
AcDbVertex
100
AcDb2dVertex
 10
7.9577843187
 20
5.8672110369
 30
0.0
  0
VERTEX
  5
3C3
330
1F5
100
AcDbEntity
  8
0
  6
CONTINUOUS
 62
     7
100
AcDbVertex
100
AcDb2dVertex
 10
7.9657040321
 20
5.8732343706
 30
0.0
  0
VERTEX
  5
3C4
330
1F5
100
AcDbEntity
  8
0
  6
CONTINUOUS
 62
     7
100
AcDbVertex
100
AcDb2dVertex
 10
7.9803457866
 20
5.8747162064
 30
0.0
  0
VERTEX
  5
3C5
330
1F5
100
AcDbEntity
  8
0
  6
CONTINUOUS
 62
     7
100
AcDbVertex
100
AcDb2dVertex
 10
7.9975607407
 20
5.8716004653
 30
0.0
  0
VERTEX
  5
3C6
330
1F5
100
AcDbEntity
  8
0
  6
CONTINUOUS
 62
     7
100
AcDbVertex
100
AcDb2dVertex
 10
8.0192435632
 20
5.8638774128
 30
0.0
  0
VERTEX
  5
3C7
330
1F5
100
AcDbEntity
  8
0
  6
CONTINUOUS
 62
     7
100
AcDbVertex
100
AcDb2dVertex
 10
8.0414727079
 20
5.8530237102
 30
0.0
  0
VERTEX
  5
3C8
330
1F5
100
AcDbEntity
  8
0
  6
CONTINUOUS
 62
     7
100
AcDbVertex
100
AcDb2dVertex
 10
8.0663122431
 20
5.8382297424
 30
0.0
  0
VERTEX
  5
3C9
330
1F5
100
AcDbEntity
  8
0
  6
CONTINUOUS
 62
     7
100
AcDbVertex
100
AcDb2dVertex
 10
8.0910589901
 20
5.8212004197
 30
0.0
  0
VERTEX
  5
3CA
330
1F5
100
AcDbEntity
  8
0
  6
CONTINUOUS
 62
     7
100
AcDbVertex
100
AcDb2dVertex
 10
8.1170190997
 20
5.8012607336
 30
0.0
  0
VERTEX
  5
3CB
330
1F5
100
AcDbEntity
  8
0
  6
CONTINUOUS
 62
     7
100
AcDbVertex
100
AcDb2dVertex
 10
8.1424031998
 20
5.7800139244
 30
0.0
  0
VERTEX
  5
3CC
330
1F5
100
AcDbEntity
  8
0
  6
CONTINUOUS
 62
     7
100
AcDbVertex
100
AcDb2dVertex
 10
8.167853821
 20
5.7572644918
 30
0.0
  0
VERTEX
  5
3CD
330
1F5
100
AcDbEntity
  8
0
  6
CONTINUOUS
 62
     7
100
AcDbVertex
100
AcDb2dVertex
 10
8.1926002104
 20
5.7340498374
 30
0.0
  0
VERTEX
  5
3CE
330
1F5
100
AcDbEntity
  8
0
  6
CONTINUOUS
 62
     7
100
AcDbVertex
100
AcDb2dVertex
 10
8.216474924
 20
5.7109455211
 30
0.0
  0
VERTEX
  5
3CF
330
1F5
100
AcDbEntity
  8
0
  6
CONTINUOUS
 62
     7
100
AcDbVertex
100
AcDb2dVertex
 10
8.2399686344
 20
5.687895603
 30
0.0
  0
VERTEX
  5
3D0
330
1F5
100
AcDbEntity
  8
0
  6
CONTINUOUS
 62
     7
100
AcDbVertex
100
AcDb2dVertex
 10
8.2618105042
 20
5.6665846483
 30
0.0
  0
VERTEX
  5
3D1
330
1F5
100
AcDbEntity
  8
0
  6
CONTINUOUS
 62
     7
100
AcDbVertex
100
AcDb2dVertex
 10
8.2786803603
 20
5.6505114013
 30
0.0
  0
VERTEX
  5
3D2
330
1F5
100
AcDbEntity
  8
0
  6
CONTINUOUS
 62
     7
100
AcDbVertex
100
AcDb2dVertex
 10
8.2941033708
 20
5.6363859475
 30
0.0
  0
VERTEX
  5
3D3
330
1F5
100
AcDbEntity
  8
0
  6
CONTINUOUS
 62
     7
100
AcDbVertex
100
AcDb2dVertex
 10
8.2941033708
 20
5.6363859475
 30
0.0
  0
SEQEND
  5
3D4
330
1F5
100
AcDbEntity
  8
0
  6
CONTINUOUS
 62
     7
  0
POLYLINE
  5
1F6
330
1F
100
AcDbEntity
  8
0
  6
CONTINUOUS
 62
     7
100
AcDb2dPolyline
 66
     1
 10
0.0
 20
0.0
 30
0.0
  0
VERTEX
  5
3D5
330
1F6
100
AcDbEntity
  8
0
  6
CONTINUOUS
 62
     7
100
AcDbVertex
100
AcDb2dVertex
 10
8.8764713427
 20
6.2377296977
 30
0.0
  0
VERTEX
  5
3D6
330
1F6
100
AcDbEntity
  8
0
  6
CONTINUOUS
 62
     7
100
AcDbVertex
100
AcDb2dVertex
 10
8.8594034742
 20
6.2296397146
 30
0.0
  0
VERTEX
  5
3D7
330
1F6
100
AcDbEntity
  8
0
  6
CONTINUOUS
 62
     7
100
AcDbVertex
100
AcDb2dVertex
 10
8.8425683675
 20
6.2236130837
 30
0.0
  0
VERTEX
  5
3D8
330
1F6
100
AcDbEntity
  8
0
  6
CONTINUOUS
 62
     7
100
AcDbVertex
100
AcDb2dVertex
 10
8.8261291089
 20
6.2197081865
 30
0.0
  0
VERTEX
  5
3D9
330
1F6
100
AcDbEntity
  8
0
  6
CONTINUOUS
 62
     7
100
AcDbVertex
100
AcDb2dVertex
 10
8.8102449501
 20
6.2179628509
 30
0.0
  0
VERTEX
  5
3DA
330
1F6
100
AcDbEntity
  8
0
  6
CONTINUOUS
 62
     7
100
AcDbVertex
100
AcDb2dVertex
 10
8.7950697653
 20
6.2183939844
 30
0.0
  0
VERTEX
  5
3DB
330
1F6
100
AcDbEntity
  8
0
  6
CONTINUOUS
 62
     7
100
AcDbVertex
100
AcDb2dVertex
 10
8.7807505608
 20
6.2209974106
 30
0.0
  0
VERTEX
  5
3DC
330
1F6
100
AcDbEntity
  8
0
  6
CONTINUOUS
 62
     7
100
AcDbVertex
100
AcDb2dVertex
 10
8.7674260506
 20
6.2257479092
 30
0.0
  0
VERTEX
  5
3DD
330
1F6
100
AcDbEntity
  8
0
  6
CONTINUOUS
 62
     7
100
AcDbVertex
100
AcDb2dVertex
 10
8.7552253129
 20
6.232599461
 30
0.0
  0
VERTEX
  5
3DE
330
1F6
100
AcDbEntity
  8
0
  6
CONTINUOUS
 62
     7
100
AcDbVertex
100
AcDb2dVertex
 10
8.7442665396
 20
6.2414856931
 30
0.0
  0
VERTEX
  5
3DF
330
1F6
100
AcDbEntity
  8
0
  6
CONTINUOUS
 62
     7
100
AcDbVertex
100
AcDb2dVertex
 10
8.7346558915
 20
6.252320522
 30
0.0
  0
VERTEX
  5
3E0
330
1F6
100
AcDbEntity
  8
0
  6
CONTINUOUS
 62
     7
100
AcDbVertex
100
AcDb2dVertex
 10
8.7264864695
 20
6.2649989878
 30
0.0
  0
VERTEX
  5
3E1
330
1F6
100
AcDbEntity
  8
0
  6
CONTINUOUS
 62
     7
100
AcDbVertex
100
AcDb2dVertex
 10
8.719837413
 20
6.2793982706
 30
0.0
  0
VERTEX
  5
3E2
330
1F6
100
AcDbEntity
  8
0
  6
CONTINUOUS
 62
     7
100
AcDbVertex
100
AcDb2dVertex
 10
8.7147731333
 20
6.2953788807
 30
0.0
  0
VERTEX
  5
3E3
330
1F6
100
AcDbEntity
  8
0
  6
CONTINUOUS
 62
     7
100
AcDbVertex
100
AcDb2dVertex
 10
8.7113426896
 20
6.3127860095
 30
0.0
  0
VERTEX
  5
3E4
330
1F6
100
AcDbEntity
  8
0
  6
CONTINUOUS
 62
     7
100
AcDbVertex
100
AcDb2dVertex
 10
8.7095793134
 20
6.3314510293
 30
0.0
  0
VERTEX
  5
3E5
330
1F6
100
AcDbEntity
  8
0
  6
CONTINUOUS
 62
     7
100
AcDbVertex
100
AcDb2dVertex
 10
8.709500087
 20
6.3511931269
 30
0.0
  0
VERTEX
  5
3E6
330
1F6
100
AcDbEntity
  8
0
  6
CONTINUOUS
 62
     7
100
AcDbVertex
100
AcDb2dVertex
 10
8.711105778
 20
6.3718210551
 30
0.0
  0
VERTEX
  5
3E7
330
1F6
100
AcDbEntity
  8
0
  6
CONTINUOUS
 62
     7
100
AcDbVertex
100
AcDb2dVertex
 10
8.7143808315
 20
6.3931349855
 30
0.0
  0
VERTEX
  5
3E8
330
1F6
100
AcDbEntity
  8
0
  6
CONTINUOUS
 62
     7
100
AcDbVertex
100
AcDb2dVertex
 10
8.7192935213
 20
6.4149284442
 30
0.0
  0
VERTEX
  5
3E9
330
1F6
100
AcDbEntity
  8
0
  6
CONTINUOUS
 62
     7
100
AcDbVertex
100
AcDb2dVertex
 10
8.7257962567
 20
6.4369903119
 30
0.0
  0
VERTEX
  5
3EA
330
1F6
100
AcDbEntity
  8
0
  6
CONTINUOUS
 62
     7
100
AcDbVertex
100
AcDb2dVertex
 10
8.7338260439
 20
6.4591068692
 30
0.0
  0
VERTEX
  5
3EB
330
1F6
100
AcDbEntity
  8
0
  6
CONTINUOUS
 62
     7
100
AcDbVertex
100
AcDb2dVertex
 10
8.7433050963
 20
6.4810638669
 30
0.0
  0
VERTEX
  5
3EC
330
1F6
100
AcDbEntity
  8
0
  6
CONTINUOUS
 62
     7
100
AcDbVertex
100
AcDb2dVertex
 10
8.7541415875
 20
6.5026486015
 30
0.0
  0
VERTEX
  5
3ED
330
1F6
100
AcDbEntity
  8
0
  6
CONTINUOUS
 62
     7
100
AcDbVertex
100
AcDb2dVertex
 10
8.7662305415
 20
6.5236519757
 30
0.0
  0
VERTEX
  5
3EE
330
1F6
100
AcDbEntity
  8
0
  6
CONTINUOUS
 62
     7
100
AcDbVertex
100
AcDb2dVertex
 10
8.7794548492
 20
6.543870524
 30
0.0
  0
VERTEX
  5
3EF
330
1F6
100
AcDbEntity
  8
0
  6
CONTINUOUS
 62
     7
100
AcDbVertex
100
AcDb2dVertex
 10
8.7936864032
 20
6.5631083838
 30
0.0
  0
VERTEX
  5
3F0
330
1F6
100
AcDbEntity
  8
0
  6
CONTINUOUS
 62
     7
100
AcDbVertex
100
AcDb2dVertex
 10
8.8087873385
 20
6.5811791926
 30
0.0
  0
VERTEX
  5
3F1
330
1F6
100
AcDbEntity
  8
0
  6
CONTINUOUS
 62
     7
100
AcDbVertex
100
AcDb2dVertex
 10
8.824611368
 20
6.5979078935
 30
0.0
  0
VERTEX
  5
3F2
330
1F6
100
AcDbEntity
  8
0
  6
CONTINUOUS
 62
     7
100
AcDbVertex
100
AcDb2dVertex
 10
8.8410052001
 20
6.6131324309
 30
0.0
  0
VERTEX
  5
3F3
330
1F6
100
AcDbEntity
  8
0
  6
CONTINUOUS
 62
     7
100
AcDbVertex
100
AcDb2dVertex
 10
8.8578100232
 20
6.6267053206
 30
0.0
  0
VERTEX
  5
3F4
330
1F6
100
AcDbEntity
  8
0
  6
CONTINUOUS
 62
     7
100
AcDbVertex
100
AcDb2dVertex
 10
8.8748630443
 20
6.6384950781
 30
0.0
  0
VERTEX
  5
3F5
330
1F6
100
AcDbEntity
  8
0
  6
CONTINUOUS
 62
     7
100
AcDbVertex
100
AcDb2dVertex
 10
8.891999066
 20
6.6483874929
 30
0.0
  0
VERTEX
  5
3F6
330
1F6
100
AcDbEntity
  8
0
  6
CONTINUOUS
 62
     7
100
AcDbVertex
100
AcDb2dVertex
 10
8.9090520871
 20
6.6562867344
 30
0.0
  0
VERTEX
  5
3F7
330
1F6
100
AcDbEntity
  8
0
  6
CONTINUOUS
 62
     7
100
AcDbVertex
100
AcDb2dVertex
 10
8.9258569102
 20
6.6621162805
 30
0.0
  0
VERTEX
  5
3F8
330
1F6
100
AcDbEntity
  8
0
  6
CONTINUOUS
 62
     7
100
AcDbVertex
100
AcDb2dVertex
 10
8.9422507423
 20
6.6658196587
 30
0.0
  0
VERTEX
  5
3F9
330
1F6
100
AcDbEntity
  8
0
  6
CONTINUOUS
 62
     7
100
AcDbVertex
100
AcDb2dVertex
 10
8.9580747718
 20
6.6673609935
 30
0.0
  0
VERTEX
  5
3FA
330
1F6
100
AcDbEntity
  8
0
  6
CONTINUOUS
 62
     7
100
AcDbVertex
100
AcDb2dVertex
 10
8.9731757071
 20
6.6667253534
 30
0.0
  0
VERTEX
  5
3FB
330
1F6
100
AcDbEntity
  8
0
  6
CONTINUOUS
 62
     7
100
AcDbVertex
100
AcDb2dVertex
 10
8.9874072611
 20
6.6639188961
 30
0.0
  0
VERTEX
  5
3FC
330
1F6
100
AcDbEntity
  8
0
  6
CONTINUOUS
 62
     7
100
AcDbVertex
100
AcDb2dVertex
 10
9.0006315688
 20
6.6589688085
 30
0.0
  0
VERTEX
  5
3FD
330
1F6
100
AcDbEntity
  8
0
  6
CONTINUOUS
 62
     7
100
AcDbVertex
100
AcDb2dVertex
 10
9.0127205228
 20
6.6519230434
 30
0.0
  0
VERTEX
  5
3FE
330
1F6
100
AcDbEntity
  8
0
  6
CONTINUOUS
 62
     7
100
AcDbVertex
100
AcDb2dVertex
 10
9.023557014
 20
6.6428498553
 30
0.0
  0
VERTEX
  5
3FF
330
1F6
100
AcDbEntity
  8
0
  6
CONTINUOUS
 62
     7
100
AcDbVertex
100
AcDb2dVertex
 10
9.0330360664
 20
6.6318371384
 30
0.0
  0
VERTEX
  5
400
330
1F6
100
AcDbEntity
  8
0
  6
CONTINUOUS
 62
     7
100
AcDbVertex
100
AcDb2dVertex
 10
9.0410658536
 20
6.6189915762
 30
0.0
  0
VERTEX
  5
401
330
1F6
100
AcDbEntity
  8
0
  6
CONTINUOUS
 62
     7
100
AcDbVertex
100
AcDb2dVertex
 10
9.047568589
 20
6.604437607
 30
0.0
  0
VERTEX
  5
402
330
1F6
100
AcDbEntity
  8
0
  6
CONTINUOUS
 62
     7
100
AcDbVertex
100
AcDb2dVertex
 10
9.0524812788
 20
6.5883162192
 30
0.0
  0
VERTEX
  5
403
330
1F6
100
AcDbEntity
  8
0
  6
CONTINUOUS
 62
     7
100
AcDbVertex
100
AcDb2dVertex
 10
9.0557563323
 20
6.5707835851
 30
0.0
  0
VERTEX
  5
404
330
1F6
100
AcDbEntity
  8
0
  6
CONTINUOUS
 62
     7
100
AcDbVertex
100
AcDb2dVertex
 10
9.0573620233
 20
6.5520095482
 30
0.0
  0
VERTEX
  5
405
330
1F6
100
AcDbEntity
  8
0
  6
CONTINUOUS
 62
     7
100
AcDbVertex
100
AcDb2dVertex
 10
9.057282797
 20
6.5321759778
 30
0.0
  0
VERTEX
  5
406
330
1F6
100
AcDbEntity
  8
0
  6
CONTINUOUS
 62
     7
100
AcDbVertex
100
AcDb2dVertex
 10
9.0555194207
 20
6.5114750072
 30
0.0
  0
VERTEX
  5
407
330
1F6
100
AcDbEntity
  8
0
  6
CONTINUOUS
 62
     7
100
AcDbVertex
100
AcDb2dVertex
 10
9.052088977
 20
6.4901071724
 30
0.0
  0
VERTEX
  5
408
330
1F6
100
AcDbEntity
  8
0
  6
CONTINUOUS
 62
     7
100
AcDbVertex
100
AcDb2dVertex
 10
9.0470246973
 20
6.4682794694
 30
0.0
  0
VERTEX
  5
409
330
1F6
100
AcDbEntity
  8
0
  6
CONTINUOUS
 62
     7
100
AcDbVertex
100
AcDb2dVertex
 10
9.0403756409
 20
6.4462033494
 30
0.0
  0
VERTEX
  5
40A
330
1F6
100
AcDbEntity
  8
0
  6
CONTINUOUS
 62
     7
100
AcDbVertex
100
AcDb2dVertex
 10
9.0322062188
 20
6.4240926697
 30
0.0
  0
VERTEX
  5
40B
330
1F6
100
AcDbEntity
  8
0
  6
CONTINUOUS
 62
     7
100
AcDbVertex
100
AcDb2dVertex
 10
9.0225955707
 20
6.4021616226
 30
0.0
  0
VERTEX
  5
40C
330
1F6
100
AcDbEntity
  8
0
  6
CONTINUOUS
 62
     7
100
AcDbVertex
100
AcDb2dVertex
 10
9.0116367974
 20
6.3806226603
 30
0.0
  0
VERTEX
  5
40D
330
1F6
100
AcDbEntity
  8
0
  6
CONTINUOUS
 62
     7
100
AcDbVertex
100
AcDb2dVertex
 10
8.9994360597
 20
6.3596844366
 30
0.0
  0
VERTEX
  5
40E
330
1F6
100
AcDbEntity
  8
0
  6
CONTINUOUS
 62
     7
100
AcDbVertex
100
AcDb2dVertex
 10
8.9861115495
 20
6.3395497859
 30
0.0
  0
VERTEX
  5
40F
330
1F6
100
AcDbEntity
  8
0
  6
CONTINUOUS
 62
     7
100
AcDbVertex
100
AcDb2dVertex
 10
8.971792345
 20
6.3204137581
 30
0.0
  0
VERTEX
  5
410
330
1F6
100
AcDbEntity
  8
0
  6
CONTINUOUS
 62
     7
100
AcDbVertex
100
AcDb2dVertex
 10
8.9566171602
 20
6.3024617292
 30
0.0
  0
VERTEX
  5
411
330
1F6
100
AcDbEntity
  8
0
  6
CONTINUOUS
 62
     7
100
AcDbVertex
100
AcDb2dVertex
 10
8.9407330014
 20
6.2858676054
 30
0.0
  0
VERTEX
  5
412
330
1F6
100
AcDbEntity
  8
0
  6
CONTINUOUS
 62
     7
100
AcDbVertex
100
AcDb2dVertex
 10
8.9242937428
 20
6.2707921386
 30
0.0
  0
VERTEX
  5
413
330
1F6
100
AcDbEntity
  8
0
  6
CONTINUOUS
 62
     7
100
AcDbVertex
100
AcDb2dVertex
 10
8.9074586361
 20
6.2573813691
 30
0.0
  0
VERTEX
  5
414
330
1F6
100
AcDbEntity
  8
0
  6
CONTINUOUS
 62
     7
100
AcDbVertex
100
AcDb2dVertex
 10
8.8903907676
 20
6.2457652106
 30
0.0
  0
SEQEND
  5
415
330
1F6
100
AcDbEntity
  8
0
  6
CONTINUOUS
 62
     7
  0
LINE
  5
1F7
330
1F
100
AcDbEntity
  8
0
  6
CONTINUOUS
 62
     7
100
AcDbLine
 10
8.8764713427
 20
5.6302826124
 30
0.0
 11
8.8764713427
 21
6.2377296977
 31
0.0
  0
LINE
  5
1F8
330
1F
100
AcDbEntity
  8
0
  6
CONTINUOUS
 62
     7
100
AcDbLine
 10
8.8903907676
 20
5.6383181253
 30
0.0
 11
8.8903907676
 21
6.2457652106
 31
0.0
  0
POLYLINE
  5
1F9
330
1F
100
AcDbEntity
  8
0
  6
CONTINUOUS
 62
     7
100
AcDb2dPolyline
 66
     1
 10
0.0
 20
0.0
 30
0.0
  0
VERTEX
  5
416
330
1F9
100
AcDbEntity
  8
0
  6
CONTINUOUS
 62
     7
100
AcDbVertex
100
AcDb2dVertex
 10
8.8833196998
 20
6.258019468
 30
0.0
  0
VERTEX
  5
417
330
1F9
100
AcDbEntity
  8
0
  6
CONTINUOUS
 62
     7
100
AcDbVertex
100
AcDb2dVertex
 10
8.9002165162
 20
6.2695837419
 30
0.0
  0
VERTEX
  5
418
330
1F9
100
AcDbEntity
  8
0
  6
CONTINUOUS
 62
     7
100
AcDbVertex
100
AcDb2dVertex
 10
8.9168671073
 20
6.2829762336
 30
0.0
  0
VERTEX
  5
419
330
1F9
100
AcDbEntity
  8
0
  6
CONTINUOUS
 62
     7
100
AcDbVertex
100
AcDb2dVertex
 10
8.9330996205
 20
6.298058718
 30
0.0
  0
VERTEX
  5
41A
330
1F9
100
AcDbEntity
  8
0
  6
CONTINUOUS
 62
     7
100
AcDbVertex
100
AcDb2dVertex
 10
8.9487465187
 20
6.3146755272
 30
0.0
  0
VERTEX
  5
41B
330
1F9
100
AcDbEntity
  8
0
  6
CONTINUOUS
 62
     7
100
AcDbVertex
100
AcDb2dVertex
 10
8.9636463088
 20
6.3326551577
 30
0.0
  0
VERTEX
  5
41C
330
1F9
100
AcDbEntity
  8
0
  6
CONTINUOUS
 62
     7
100
AcDbVertex
100
AcDb2dVertex
 10
8.9776452086
 20
6.35181204
 30
0.0
  0
VERTEX
  5
41D
330
1F9
100
AcDbEntity
  8
0
  6
CONTINUOUS
 62
     7
100
AcDbVertex
100
AcDb2dVertex
 10
8.9905987342
 20
6.3719484541
 30
0.0
  0
VERTEX
  5
41E
330
1F9
100
AcDbEntity
  8
0
  6
CONTINUOUS
 62
     7
100
AcDbVertex
100
AcDb2dVertex
 10
9.002373191
 20
6.3928565702
 30
0.0
  0
VERTEX
  5
41F
330
1F9
100
AcDbEntity
  8
0
  6
CONTINUOUS
 62
     7
100
AcDbVertex
100
AcDb2dVertex
 10
9.0128470538
 20
6.4143205938
 30
0.0
  0
VERTEX
  5
420
330
1F9
100
AcDbEntity
  8
0
  6
CONTINUOUS
 62
     7
100
AcDbVertex
100
AcDb2dVertex
 10
9.0219122208
 20
6.4361189926
 30
0.0
  0
VERTEX
  5
421
330
1F9
100
AcDbEntity
  8
0
  6
CONTINUOUS
 62
     7
100
AcDbVertex
100
AcDb2dVertex
 10
9.0294751297
 20
6.4580267833
 30
0.0
  0
VERTEX
  5
422
330
1F9
100
AcDbEntity
  8
0
  6
CONTINUOUS
 62
     7
100
AcDbVertex
100
AcDb2dVertex
 10
9.0354577229
 20
6.4798178535
 30
0.0
  0
VERTEX
  5
423
330
1F9
100
AcDbEntity
  8
0
  6
CONTINUOUS
 62
     7
100
AcDbVertex
100
AcDb2dVertex
 10
9.0397982535
 20
6.5012672957
 30
0.0
  0
VERTEX
  5
424
330
1F9
100
AcDbEntity
  8
0
  6
CONTINUOUS
 62
     7
100
AcDbVertex
100
AcDb2dVertex
 10
9.0424519225
 20
6.522153728
 30
0.0
  0
VERTEX
  5
425
330
1F9
100
AcDbEntity
  8
0
  6
CONTINUOUS
 62
     7
100
AcDbVertex
100
AcDb2dVertex
 10
9.0433913412
 20
6.5422615797
 30
0.0
  0
VERTEX
  5
426
330
1F9
100
AcDbEntity
  8
0
  6
CONTINUOUS
 62
     7
100
AcDbVertex
100
AcDb2dVertex
 10
9.0426068137
 20
6.5613833158
 30
0.0
  0
VERTEX
  5
427
330
1F9
100
AcDbEntity
  8
0
  6
CONTINUOUS
 62
     7
100
AcDbVertex
100
AcDb2dVertex
 10
9.0401064372
 20
6.5793215791
 30
0.0
  0
VERTEX
  5
428
330
1F9
100
AcDbEntity
  8
0
  6
CONTINUOUS
 62
     7
100
AcDbVertex
100
AcDb2dVertex
 10
9.0359160183
 20
6.595891227
 30
0.0
  0
VERTEX
  5
429
330
1F9
100
AcDbEntity
  8
0
  6
CONTINUOUS
 62
     7
100
AcDbVertex
100
AcDb2dVertex
 10
9.0300788067
 20
6.6109212427
 30
0.0
  0
VERTEX
  5
42A
330
1F9
100
AcDbEntity
  8
0
  6
CONTINUOUS
 62
     7
100
AcDbVertex
100
AcDb2dVertex
 10
9.0226550489
 20
6.6242565
 30
0.0
  0
VERTEX
  5
42B
330
1F9
100
AcDbEntity
  8
0
  6
CONTINUOUS
 62
     7
100
AcDbVertex
100
AcDb2dVertex
 10
9.013721366
 20
6.6357593644
 30
0.0
  0
VERTEX
  5
42C
330
1F9
100
AcDbEntity
  8
0
  6
CONTINUOUS
 62
     7
100
AcDbVertex
100
AcDb2dVertex
 10
9.0033699636
 20
6.6453111138
 30
0.0
  0
VERTEX
  5
42D
330
1F9
100
AcDbEntity
  8
0
  6
CONTINUOUS
 62
     7
100
AcDbVertex
100
AcDb2dVertex
 10
8.9917076793
 20
6.6528131638
 30
0.0
  0
VERTEX
  5
42E
330
1F9
100
AcDbEntity
  8
0
  6
CONTINUOUS
 62
     7
100
AcDbVertex
100
AcDb2dVertex
 10
8.9788548808
 20
6.6581880849
 30
0.0
  0
VERTEX
  5
42F
330
1F9
100
AcDbEntity
  8
0
  6
CONTINUOUS
 62
     7
100
AcDbVertex
100
AcDb2dVertex
 10
8.9649442229
 20
6.6613804021
 30
0.0
  0
VERTEX
  5
430
330
1F9
100
AcDbEntity
  8
0
  6
CONTINUOUS
 62
     7
100
AcDbVertex
100
AcDb2dVertex
 10
8.9501192789
 20
6.6623571672
 30
0.0
  0
VERTEX
  5
431
330
1F9
100
AcDbEntity
  8
0
  6
CONTINUOUS
 62
     7
100
AcDbVertex
100
AcDb2dVertex
 10
8.9345330583
 20
6.6611082989
 30
0.0
  0
VERTEX
  5
432
330
1F9
100
AcDbEntity
  8
0
  6
CONTINUOUS
 62
     7
100
AcDbVertex
100
AcDb2dVertex
 10
8.918346428
 20
6.6576466869
 30
0.0
  0
VERTEX
  5
433
330
1F9
100
AcDbEntity
  8
0
  6
CONTINUOUS
 62
     7
100
AcDbVertex
100
AcDb2dVertex
 10
8.9017264518
 20
6.6520080588
 30
0.0
  0
VERTEX
  5
434
330
1F9
100
AcDbEntity
  8
0
  6
CONTINUOUS
 62
     7
100
AcDbVertex
100
AcDb2dVertex
 10
8.8848446659
 20
6.6442506114
 30
0.0
  0
VERTEX
  5
435
330
1F9
100
AcDbEntity
  8
0
  6
CONTINUOUS
 62
     7
100
AcDbVertex
100
AcDb2dVertex
 10
8.8798311609
 20
6.6415637293
 30
0.0
  0
SEQEND
  5
436
330
1F9
100
AcDbEntity
  8
0
  6
CONTINUOUS
 62
     7
  0
ARC
  5
1FA
330
1F
100
AcDbEntity
  8
0
  6
CONTINUOUS
 62
     7
100
AcDbCircle
 10
8.8101866027
 20
6.3327068508
 30
0.0
 40
0.1017316886015433
100
AcDbArc
 50
172.3365760363
 51
305.595372805
  0
LINE
  5
1FB
330
1F
100
AcDbEntity
  8
0
  6
CONTINUOUS
 62
     7
100
AcDbLine
 10
8.8764713427
 20
6.2377296977
 30
0.0
 11
8.8694002749
 21
6.2499839551
 31
0.0
  0
LINE
  5
1FC
330
1F
100
AcDbEntity
  8
0
  6
CONTINUOUS
 62
     7
100
AcDbLine
 10
8.8903907676
 20
6.2457652106
 30
0.0
 11
8.8833196998
 21
6.258019468
 31
0.0
  0
LINE
  5
1FD
330
1F
100
AcDbEntity
  8
0
  6
CONTINUOUS
 62
     7
100
AcDbLine
 10
8.7094730798
 20
6.3423079597
 30
0.0
 11
8.8694002749
 21
6.2499839551
 31
0.0
  0
LINE
  5
1FE
330
1F
100
AcDbEntity
  8
0
  6
CONTINUOUS
 62
     7
100
AcDbLine
 10
8.7098599332
 20
6.3581556598
 30
0.0
 11
8.8833196998
 21
6.258019468
 31
0.0
  0
ARC
  5
1FF
330
1F
100
AcDbEntity
  8
0
  6
CONTINUOUS
 62
     7
100
AcDbCircle
 10
8.2802431771
 20
6.7908487709
 30
0.0
 40
1.518121082093505
100
AcDbArc
 50
122.545717163
 51
177.4596593697
  0
POLYLINE
  5
200
330
1F
100
AcDbEntity
  8
0
  6
CONTINUOUS
 62
     7
100
AcDb2dPolyline
 66
     1
 10
0.0
 20
0.0
 30
0.0
  0
VERTEX
  5
437
330
200
100
AcDbEntity
  8
0
  6
CONTINUOUS
 62
     7
100
AcDbVertex
100
AcDb2dVertex
 10
8.0310155185
 20
5.8585242904
 30
0.0
  0
VERTEX
  5
438
330
200
100
AcDbEntity
  8
0
  6
CONTINUOUS
 62
     7
100
AcDbVertex
100
AcDb2dVertex
 10
8.0307092738
 20
5.8577014668
 30
0.0
  0
VERTEX
  5
439
330
200
100
AcDbEntity
  8
0
  6
CONTINUOUS
 62
     7
100
AcDbVertex
100
AcDb2dVertex
 10
8.0265608957
 20
5.8434684491
 30
0.0
  0
VERTEX
  5
43A
330
200
100
AcDbEntity
  8
0
  6
CONTINUOUS
 62
     7
100
AcDbVertex
100
AcDb2dVertex
 10
8.0240508161
 20
5.8278578602
 30
0.0
  0
VERTEX
  5
43B
330
200
100
AcDbEntity
  8
0
  6
CONTINUOUS
 62
     7
100
AcDbVertex
100
AcDb2dVertex
 10
8.0232106009
 20
5.8110660121
 30
0.0
  0
VERTEX
  5
43C
330
200
100
AcDbEntity
  8
0
  6
CONTINUOUS
 62
     7
100
AcDbVertex
100
AcDb2dVertex
 10
8.0240508161
 20
5.7933040721
 30
0.0
  0
VERTEX
  5
43D
330
200
100
AcDbEntity
  8
0
  6
CONTINUOUS
 62
     7
100
AcDbVertex
100
AcDb2dVertex
 10
8.0265608957
 20
5.774795407
 30
0.0
  0
VERTEX
  5
43E
330
200
100
AcDbEntity
  8
0
  6
CONTINUOUS
 62
     7
100
AcDbVertex
100
AcDb2dVertex
 10
8.0307092738
 20
5.7557727739
 30
0.0
  0
VERTEX
  5
43F
330
200
100
AcDbEntity
  8
0
  6
CONTINUOUS
 62
     7
100
AcDbVertex
100
AcDb2dVertex
 10
8.0364437823
 20
5.7364753934
 30
0.0
  0
VERTEX
  5
440
330
200
100
AcDbEntity
  8
0
  6
CONTINUOUS
 62
     7
100
AcDbVertex
100
AcDb2dVertex
 10
8.0436923063
 20
5.7171459414
 30
0.0
  0
VERTEX
  5
441
330
200
100
AcDbEntity
  8
0
  6
CONTINUOUS
 62
     7
100
AcDbVertex
100
AcDb2dVertex
 10
8.0523636916
 20
5.6980274969
 30
0.0
  0
VERTEX
  5
442
330
200
100
AcDbEntity
  8
0
  6
CONTINUOUS
 62
     7
100
AcDbVertex
100
AcDb2dVertex
 10
8.0623488902
 20
5.6793604854
 30
0.0
  0
VERTEX
  5
443
330
200
100
AcDbEntity
  8
0
  6
CONTINUOUS
 62
     7
100
AcDbVertex
100
AcDb2dVertex
 10
8.0735223327
 20
5.6613796555
 30
0.0
  0
VERTEX
  5
444
330
200
100
AcDbEntity
  8
0
  6
CONTINUOUS
 62
     7
100
AcDbVertex
100
AcDb2dVertex
 10
8.0857435065
 20
5.6443111265
 30
0.0
  0
VERTEX
  5
445
330
200
100
AcDbEntity
  8
0
  6
CONTINUOUS
 62
     7
100
AcDbVertex
100
AcDb2dVertex
 10
8.0988587231
 20
5.628369545
 30
0.0
  0
VERTEX
  5
446
330
200
100
AcDbEntity
  8
0
  6
CONTINUOUS
 62
     7
100
AcDbVertex
100
AcDb2dVertex
 10
8.1127030513
 20
5.6137553858
 30
0.0
  0
VERTEX
  5
447
330
200
100
AcDbEntity
  8
0
  6
CONTINUOUS
 62
     7
100
AcDbVertex
100
AcDb2dVertex
 10
8.1271023904
 20
5.6006524303
 30
0.0
  0
VERTEX
  5
448
330
200
100
AcDbEntity
  8
0
  6
CONTINUOUS
 62
     7
100
AcDbVertex
100
AcDb2dVertex
 10
8.1418756606
 20
5.5892254557
 30
0.0
  0
VERTEX
  5
449
330
200
100
AcDbEntity
  8
0
  6
CONTINUOUS
 62
     7
100
AcDbVertex
100
AcDb2dVertex
 10
8.1568370792
 20
5.579618163
 30
0.0
  0
VERTEX
  5
44A
330
200
100
AcDbEntity
  8
0
  6
CONTINUOUS
 62
     7
100
AcDbVertex
100
AcDb2dVertex
 10
8.1717984978
 20
5.5719513695
 30
0.0
  0
VERTEX
  5
44B
330
200
100
AcDbEntity
  8
0
  6
CONTINUOUS
 62
     7
100
AcDbVertex
100
AcDb2dVertex
 10
8.186571768
 20
5.5663214894
 30
0.0
  0
VERTEX
  5
44C
330
200
100
AcDbEntity
  8
0
  6
CONTINUOUS
 62
     7
100
AcDbVertex
100
AcDb2dVertex
 10
8.2009711071
 20
5.5627993218
 30
0.0
  0
VERTEX
  5
44D
330
200
100
AcDbEntity
  8
0
  6
CONTINUOUS
 62
     7
100
AcDbVertex
100
AcDb2dVertex
 10
8.2148154353
 20
5.56142916
 30
0.0
  0
VERTEX
  5
44E
330
200
100
AcDbEntity
  8
0
  6
CONTINUOUS
 62
     7
100
AcDbVertex
100
AcDb2dVertex
 10
8.227930652
 20
5.5622282346
 30
0.0
  0
VERTEX
  5
44F
330
200
100
AcDbEntity
  8
0
  6
CONTINUOUS
 62
     7
100
AcDbVertex
100
AcDb2dVertex
 10
8.2401518257
 20
5.5651864967
 30
0.0
  0
VERTEX
  5
450
330
200
100
AcDbEntity
  8
0
  6
CONTINUOUS
 62
     7
100
AcDbVertex
100
AcDb2dVertex
 10
8.2513252682
 20
5.5702667446
 30
0.0
  0
VERTEX
  5
451
330
200
100
AcDbEntity
  8
0
  6
CONTINUOUS
 62
     7
100
AcDbVertex
100
AcDb2dVertex
 10
8.2613104669
 20
5.577405091
 30
0.0
  0
VERTEX
  5
452
330
200
100
AcDbEntity
  8
0
  6
CONTINUOUS
 62
     7
100
AcDbVertex
100
AcDb2dVertex
 10
8.2699818521
 20
5.5865117673
 30
0.0
  0
VERTEX
  5
453
330
200
100
AcDbEntity
  8
0
  6
CONTINUOUS
 62
     7
100
AcDbVertex
100
AcDb2dVertex
 10
8.2772303761
 20
5.5974722516
 30
0.0
  0
VERTEX
  5
454
330
200
100
AcDbEntity
  8
0
  6
CONTINUOUS
 62
     7
100
AcDbVertex
100
AcDb2dVertex
 10
8.2829648846
 20
5.6101487094
 30
0.0
  0
VERTEX
  5
455
330
200
100
AcDbEntity
  8
0
  6
CONTINUOUS
 62
     7
100
AcDbVertex
100
AcDb2dVertex
 10
8.2871132627
 20
5.6243817271
 30
0.0
  0
VERTEX
  5
456
330
200
100
AcDbEntity
  8
0
  6
CONTINUOUS
 62
     7
100
AcDbVertex
100
AcDb2dVertex
 10
8.2896233423
 20
5.6399923161
 30
0.0
  0
VERTEX
  5
457
330
200
100
AcDbEntity
  8
0
  6
CONTINUOUS
 62
     7
100
AcDbVertex
100
AcDb2dVertex
 10
8.2896845708
 20
5.6405964687
 30
0.0
  0
SEQEND
  5
458
330
200
100
AcDbEntity
  8
0
  6
CONTINUOUS
 62
     7
  0
POLYLINE
  5
201
330
1F
100
AcDbEntity
  8
0
  6
CONTINUOUS
 62
     7
100
AcDb2dPolyline
 66
     1
 10
0.0
 20
0.0
 30
0.0
  0
VERTEX
  5
459
330
201
100
AcDbEntity
  8
0
  6
CONTINUOUS
 62
     7
100
AcDbVertex
100
AcDb2dVertex
 10
8.2997441275
 20
5.63170119
 30
0.0
  0
VERTEX
  5
45A
330
201
100
AcDbEntity
  8
0
  6
CONTINUOUS
 62
     7
100
AcDbVertex
100
AcDb2dVertex
 10
8.2982300931
 20
5.6235790419
 30
0.0
  0
VERTEX
  5
45B
330
201
100
AcDbEntity
  8
0
  6
CONTINUOUS
 62
     7
100
AcDbVertex
100
AcDb2dVertex
 10
8.2940571691
 20
5.6089470093
 30
0.0
  0
VERTEX
  5
45C
330
201
100
AcDbEntity
  8
0
  6
CONTINUOUS
 62
     7
100
AcDbVertex
100
AcDb2dVertex
 10
8.2882861643
 20
5.5958710574
 30
0.0
  0
VERTEX
  5
45D
330
201
100
AcDbEntity
  8
0
  6
CONTINUOUS
 62
     7
100
AcDbVertex
100
AcDb2dVertex
 10
8.2809871308
 20
5.5845099105
 30
0.0
  0
VERTEX
  5
45E
330
201
100
AcDbEntity
  8
0
  6
CONTINUOUS
 62
     7
100
AcDbVertex
100
AcDb2dVertex
 10
8.2722486691
 20
5.5750014776
 30
0.0
  0
VERTEX
  5
45F
330
201
100
AcDbEntity
  8
0
  6
CONTINUOUS
 62
     7
100
AcDbVertex
100
AcDb2dVertex
 10
8.2621768522
 20
5.5674611781
 30
0.0
  0
VERTEX
  5
460
330
201
100
AcDbEntity
  8
0
  6
CONTINUOUS
 62
     7
100
AcDbVertex
100
AcDb2dVertex
 10
8.2508939384
 20
5.5619805411
 30
0.0
  0
VERTEX
  5
461
330
201
100
AcDbEntity
  8
0
  6
CONTINUOUS
 62
     7
100
AcDbVertex
100
AcDb2dVertex
 10
8.2385368868
 20
5.558626094
 30
0.0
  0
VERTEX
  5
462
330
201
100
AcDbEntity
  8
0
  6
CONTINUOUS
 62
     7
100
AcDbVertex
100
AcDb2dVertex
 10
8.2252556955
 20
5.5574385554
 30
0.0
  0
VERTEX
  5
463
330
201
100
AcDbEntity
  8
0
  6
CONTINUOUS
 62
     7
100
AcDbVertex
100
AcDb2dVertex
 10
8.21121158
 20
5.5584323402
 30
0.0
  0
VERTEX
  5
464
330
201
100
AcDbEntity
  8
0
  6
CONTINUOUS
 62
     7
100
AcDbVertex
100
AcDb2dVertex
 10
8.196575017
 20
5.5615953855
 30
0.0
  0
VERTEX
  5
465
330
201
100
AcDbEntity
  8
0
  6
CONTINUOUS
 62
     7
100
AcDbVertex
100
AcDb2dVertex
 10
8.1815236744
 20
5.5668892959
 30
0.0
  0
VERTEX
  5
466
330
201
100
AcDbEntity
  8
0
  6
CONTINUOUS
 62
     7
100
AcDbVertex
100
AcDb2dVertex
 10
8.1662402551
 20
5.5742498107
 30
0.0
  0
VERTEX
  5
467
330
201
100
AcDbEntity
  8
0
  6
CONTINUOUS
 62
     7
100
AcDbVertex
100
AcDb2dVertex
 10
8.1623822262
 20
5.5764159751
 30
0.0
  0
SEQEND
  5
468
330
201
100
AcDbEntity
  8
0
  6
CONTINUOUS
 62
     7
  0
ARC
  5
202
330
1F
100
AcDbEntity
  8
0
  6
CONTINUOUS
 62
     7
100
AcDbCircle
 10
8.1690762374
 20
5.8193202836
 30
0.0
 40
0.1458770635973111
100
AcDbArc
 50
164.0116936418
 51
180.7171577775
  0
LINE
  5
203
330
1F
100
AcDbEntity
  8
0
  6
CONTINUOUS
 62
     7
100
AcDbLine
 10
8.1568370792
 20
5.6411238957
 30
0.0
 11
8.2264342033
 21
5.6473469273
 31
0.0
  0
LINE
  5
204
330
1F
100
AcDbEntity
  8
0
  6
CONTINUOUS
 62
     7
100
AcDbLine
 10
8.2264342033
 20
5.6473469273
 30
0.0
 11
8.2264342033
 21
5.7011743709
 31
0.0
  0
LINE
  5
205
330
1F
100
AcDbEntity
  8
0
  6
CONTINUOUS
 62
     7
100
AcDbLine
 10
8.0914737886
 20
5.8208818174
 30
0.0
 11
8.0872399551
 21
5.8205032489
 31
0.0
  0
LINE
  5
206
330
1F
100
AcDbEntity
  8
0
  6
CONTINUOUS
 62
     7
100
AcDbLine
 10
8.0872399551
 20
5.8205032489
 30
0.0
 11
8.0872399551
 21
5.7277020565
 31
0.0
  0
LINE
  5
207
330
1F
100
AcDbEntity
  8
0
  6
CONTINUOUS
 62
     7
100
AcDbLine
 10
8.0872399551
 20
5.7277020565
 30
0.0
 11
8.1568370792
 21
5.6411238957
 31
0.0
  0
LINE
  5
208
330
1F
100
AcDbEntity
  8
0
  6
CONTINUOUS
 62
     7
100
AcDbLine
 10
8.1289982296
 20
5.7912340521
 30
0.0
 11
8.1289982296
 21
5.7518085952
 31
0.0
  0
LINE
  5
209
330
1F
100
AcDbEntity
  8
0
  6
CONTINUOUS
 62
     7
100
AcDbLine
 10
8.1985953537
 20
5.6652304344
 30
0.0
 11
8.2264342033
 21
5.6677196471
 31
0.0
  0
LINE
  5
20A
330
1F
100
AcDbEntity
  8
0
  6
CONTINUOUS
 62
     7
100
AcDbLine
 10
8.1289982296
 20
5.7518085952
 30
0.0
 11
8.1985953537
 21
5.6652304344
 31
0.0
  0
LINE
  5
20B
330
1F
100
AcDbEntity
  8
0
  6
CONTINUOUS
 62
     7
100
AcDbLine
 10
8.1985953537
 20
5.6652304344
 30
0.0
 11
8.1568370792
 21
5.6411238957
 31
0.0
  0
LINE
  5
20C
330
1F
100
AcDbEntity
  8
0
  6
CONTINUOUS
 62
     7
100
AcDbLine
 10
8.1289982296
 20
5.7518085952
 30
0.0
 11
8.0872399551
 21
5.7277020565
 31
0.0
  0
POLYLINE
  5
20D
330
1F
100
AcDbEntity
  8
0
  6
CONTINUOUS
 62
     7
100
AcDb2dPolyline
 66
     1
 10
0.0
 20
0.0
 30
0.0
  0
VERTEX
  5
469
330
20D
100
AcDbEntity
  8
0
  6
CONTINUOUS
 62
     7
100
AcDbVertex
100
AcDb2dVertex
 10
8.0032157869
 20
8.062113546
 30
0.0
  0
VERTEX
  5
46A
330
20D
100
AcDbEntity
  8
0
  6
CONTINUOUS
 62
     7
100
AcDbVertex
100
AcDb2dVertex
 10
8.0092015219
 20
8.065857459
 30
0.0
  0
VERTEX
  5
46B
330
20D
100
AcDbEntity
  8
0
  6
CONTINUOUS
 62
     7
100
AcDbVertex
100
AcDb2dVertex
 10
8.021689808
 20
8.0720615927
 30
0.0
  0
VERTEX
  5
46C
330
20D
100
AcDbEntity
  8
0
  6
CONTINUOUS
 62
     7
100
AcDbVertex
100
AcDb2dVertex
 10
8.0356403734
 20
8.0771219358
 30
0.0
  0
VERTEX
  5
46D
330
20D
100
AcDbEntity
  8
0
  6
CONTINUOUS
 62
     7
100
AcDbVertex
100
AcDb2dVertex
 10
8.0507415854
 20
8.0809254487
 30
0.0
  0
VERTEX
  5
46E
330
20D
100
AcDbEntity
  8
0
  6
CONTINUOUS
 62
     7
100
AcDbVertex
100
AcDb2dVertex
 10
8.066656108
 20
8.0833871672
 30
0.0
  0
VERTEX
  5
46F
330
20D
100
AcDbEntity
  8
0
  6
CONTINUOUS
 62
     7
100
AcDbVertex
100
AcDb2dVertex
 10
8.083028437
 20
8.0844521004
 30
0.0
  0
VERTEX
  5
470
330
20D
100
AcDbEntity
  8
0
  6
CONTINUOUS
 62
     7
100
AcDbVertex
100
AcDb2dVertex
 10
8.0994928416
 20
8.0840964597
 30
0.0
  0
VERTEX
  5
471
330
20D
100
AcDbEntity
  8
0
  6
CONTINUOUS
 62
     7
100
AcDbVertex
100
AcDb2dVertex
 10
8.1156815342
 20
8.0823281894
 30
0.0
  0
VERTEX
  5
472
330
20D
100
AcDbEntity
  8
0
  6
CONTINUOUS
 62
     7
100
AcDbVertex
100
AcDb2dVertex
 10
8.1312328862
 20
8.0791867897
 30
0.0
  0
VERTEX
  5
473
330
20D
100
AcDbEntity
  8
0
  6
CONTINUOUS
 62
     7
100
AcDbVertex
100
AcDb2dVertex
 10
8.1457995062
 20
8.0747424344
 30
0.0
  0
VERTEX
  5
474
330
20D
100
AcDbEntity
  8
0
  6
CONTINUOUS
 62
     7
100
AcDbVertex
100
AcDb2dVertex
 10
8.1590559998
 20
8.069094403
 30
0.0
  0
VERTEX
  5
475
330
20D
100
AcDbEntity
  8
0
  6
CONTINUOUS
 62
     7
100
AcDbVertex
100
AcDb2dVertex
 10
8.1707062389
 20
8.0623688631
 30
0.0
  0
VERTEX
  5
476
330
20D
100
AcDbEntity
  8
0
  6
CONTINUOUS
 62
     7
100
AcDbVertex
100
AcDb2dVertex
 10
8.1804899764
 20
8.0547160522
 30
0.0
  0
VERTEX
  5
477
330
20D
100
AcDbEntity
  8
0
  6
CONTINUOUS
 62
     7
100
AcDbVertex
100
AcDb2dVertex
 10
8.1881886598
 20
8.0463069215
 30
0.0
  0
VERTEX
  5
478
330
20D
100
AcDbEntity
  8
0
  6
CONTINUOUS
 62
     7
100
AcDbVertex
100
AcDb2dVertex
 10
8.1936303132
 20
8.0373293171
 30
0.0
  0
VERTEX
  5
479
330
20D
100
AcDbEntity
  8
0
  6
CONTINUOUS
 62
     7
100
AcDbVertex
100
AcDb2dVertex
 10
8.1966933791
 20
8.0279837838
 30
0.0
  0
VERTEX
  5
47A
330
20D
100
AcDbEntity
  8
0
  6
CONTINUOUS
 62
     7
100
AcDbVertex
100
AcDb2dVertex
 10
8.1973094337
 20
8.0184790853
 30
0.0
  0
VERTEX
  5
47B
330
20D
100
AcDbEntity
  8
0
  6
CONTINUOUS
 62
     7
100
AcDbVertex
100
AcDb2dVertex
 10
8.1954647153
 20
8.009027541
 30
0.0
  0
VERTEX
  5
47C
330
20D
100
AcDbEntity
  8
0
  6
CONTINUOUS
 62
     7
100
AcDbVertex
100
AcDb2dVertex
 10
8.1912004318
 20
7.9998402826
 30
0.0
  0
VERTEX
  5
47D
330
20D
100
AcDbEntity
  8
0
  6
CONTINUOUS
 62
     7
100
AcDbVertex
100
AcDb2dVertex
 10
8.186494355
 20
7.9932766569
 30
0.0
  0
SEQEND
  5
47E
330
20D
100
AcDbEntity
  8
0
  6
CONTINUOUS
 62
     7
  0
ARC
  5
20E
330
1F
100
AcDbEntity
  8
0
  6
CONTINUOUS
 62
     7
100
AcDbCircle
 10
8.1537531456
 20
8.0151798288
 30
0.0
 40
0.0503831961406274
100
AcDbArc
 50
329.6199463584
 51
70.3684269892
  0
ENDSEC
  0
SECTION
  2
OBJECTS
  0
DICTIONARY
  5
C
330
0
100
AcDbDictionary
  3
ACAD_GROUP
350
D
  3
ACAD_LAYOUT
350
1A
  3
ACAD_MLEADERSTYLE
350
211
  3
ACAD_MLINESTYLE
350
17
  3
ACAD_PLOTSETTINGS
350
19
  3
ACAD_SCALELIST
350
6F
  3
ACAD_VISUALSTYLE
350
2A
  3
ACDBVARIABLEDICTIONARY
350
20F
1001
ACAD
1000
TREAT_AS_HARD
1070
     0
  0
DICTIONARY
  5
D
102
{ACAD_REACTORS
330
C
102
}
330
C
100
AcDbDictionary
1001
ACAD
1000
TREAT_AS_HARD
1070
     0
  0
DICTIONARY
  5
1A
102
{ACAD_REACTORS
330
C
102
}
330
C
100
AcDbDictionary
1001
ACAD
1000
TREAT_AS_HARD
1070
     0
  0
DICTIONARY
  5
211
102
{ACAD_REACTORS
330
C
102
}
330
C
100
AcDbDictionary
1001
ACAD
1000
TREAT_AS_HARD
1070
     0
  0
DICTIONARY
  5
17
102
{ACAD_REACTORS
330
C
102
}
330
C
100
AcDbDictionary
  3
STANDARD
350
18
1001
ACAD
1000
TREAT_AS_HARD
1070
     0
  0
DICTIONARY
  5
19
102
{ACAD_REACTORS
330
C
102
}
330
C
100
AcDbDictionary
1001
ACAD
1000
TREAT_AS_HARD
1070
     0
  0
DICTIONARY
  5
6F
102
{ACAD_REACTORS
330
C
102
}
330
C
100
AcDbDictionary
  3
A0
350
70
  3
A1
350
71
  3
A2
350
72
  3
A3
350
73
  3
A4
350
74
  3
A5
350
75
  3
A6
350
76
  3
A7
350
77
  3
A8
350
78
  3
A9
350
79
  3
B0
350
7A
  3
B1
350
7B
  3
B2
350
7C
  3
B3
350
7D
  3
B4
350
7E
  3
B5
350
7F
  3
B6
350
80
  3
B7
350
81
  3
B8
350
82
  3
B9
350
83
  3
C0
350
84
  3
C1
350
85
  3
C2
350
86
  3
C3
350
87
  3
C4
350
88
  3
C5
350
89
  3
C6
350
8A
  3
C7
350
8B
  3
C8
350
8C
  3
C9
350
8D
  3
D0
350
8E
  3
D1
350
8F
  3
D2
350
90
1001
ACAD
1000
TREAT_AS_HARD
1070
     0
  0
DICTIONARY
  5
2A
102
{ACAD_REACTORS
330
C
102
}
330
C
100
AcDbDictionary
  3
2DWIREFRAME
350
2F
  3
3D_HIDDEN
350
31
  3
3DWIREFRAME
350
30
  3
BASIC
350
32
  3
BRIGHTEN
350
36
  3
COLORCHANGE
350
3A
  3
CONCEPTUAL
350
34
  3
DIM
350
35
  3
FACEPATTERN
350
39
  3
FLAT
350
2B
  3
FLATWITHEDGES
350
2C
  3
GOURAUD
350
2D
  3
GOURAUDWITHEDGES
350
2E
  3
LINEPATTERN
350
38
  3
REALISTIC
350
33
  3
THICKEN
350
37
1001
ACAD
1000
TREAT_AS_HARD
1070
     0
  0
DICTIONARY
  5
20F
102
{ACAD_REACTORS
330
C
102
}
330
C
100
AcDbDictionary
  3
CANNOSCALE
350
212
  3
DIMASSOC
350
213
  3
HIDETEXT
350
214
1001
ACAD
1000
TREAT_AS_HARD
1070
     0
  0
MLINESTYLE
  5
18
102
{ACAD_REACTORS
330
17
102
}
330
17
100
AcDbMlineStyle
  2
Standard
 70
     0
  3

 62
   256
 51
90.0
 52
90.0
 71
     2
 49
0.5
 62
   256
  6
BYLAYER
 49
-0.5
 62
   256
  6
BYLAYER
  0
ACAD_PROXY_OBJECT
  5
70
102
{ACAD_REACTORS
330
6F
102
}
330
6F
100
AcDbZombieObject
 90
      499
 91
      502
 93
       41
310
903313A31580
  0
ACAD_PROXY_OBJECT
  5
71
102
{ACAD_REACTORS
330
6F
102
}
330
6F
100
AcDbZombieObject
 90
      499
 91
      502
 93
      105
310
903313A324000000000000004000
  0
ACAD_PROXY_OBJECT
  5
72
102
{ACAD_REACTORS
330
6F
102
}
330
6F
100
AcDbZombieObject
 90
      499
 91
      502
 93
      105
310
903313A344000000000000104000
  0
ACAD_PROXY_OBJECT
  5
73
102
{ACAD_REACTORS
330
6F
102
}
330
6F
100
AcDbZombieObject
 90
      499
 91
      502
 93
      105
310
903313A354000000000000144000
  0
ACAD_PROXY_OBJECT
  5
74
102
{ACAD_REACTORS
330
6F
102
}
330
6F
100
AcDbZombieObject
 90
      499
 91
      502
 93
      105
310
903313A384000000000000204000
  0
ACAD_PROXY_OBJECT
  5
75
102
{ACAD_REACTORS
330
6F
102
}
330
6F
100
AcDbZombieObject
 90
      499
 91
      502
 93
      113
310
904313A31304000000000000244000
  0
ACAD_PROXY_OBJECT
  5
76
102
{ACAD_REACTORS
330
6F
102
}
330
6F
100
AcDbZombieObject
 90
      499
 91
      502
 93
      113
310
904313A31364000000000000304000
  0
ACAD_PROXY_OBJECT
  5
77
102
{ACAD_REACTORS
330
6F
102
}
330
6F
100
AcDbZombieObject
 90
      499
 91
      502
 93
      113
310
904313A32304000000000000344000
  0
ACAD_PROXY_OBJECT
  5
78
102
{ACAD_REACTORS
330
6F
102
}
330
6F
100
AcDbZombieObject
 90
      499
 91
      502
 93
      113
310
904313A333040000000000003E4000
  0
ACAD_PROXY_OBJECT
  5
79
102
{ACAD_REACTORS
330
6F
102
}
330
6F
100
AcDbZombieObject
 90
      499
 91
      502
 93
      113
310
904313A34304000000000000444000
  0
ACAD_PROXY_OBJECT
  5
7A
102
{ACAD_REACTORS
330
6F
102
}
330
6F
100
AcDbZombieObject
 90
      499
 91
      502
 93
      113
310
904313A35304000000000000494000
  0
ACAD_PROXY_OBJECT
  5
7B
102
{ACAD_REACTORS
330
6F
102
}
330
6F
100
AcDbZombieObject
 90
      499
 91
      502
 93
      121
310
905313A3130304000000000000594000
  0
ACAD_PROXY_OBJECT
  5
7C
102
{ACAD_REACTORS
330
6F
102
}
330
6F
100
AcDbZombieObject
 90
      499
 91
      502
 93
      105
310
903323A310000000000000010100
  0
ACAD_PROXY_OBJECT
  5
7D
102
{ACAD_REACTORS
330
6F
102
}
330
6F
100
AcDbZombieObject
 90
      499
 91
      502
 93
      105
310
903343A310000000000000410100
  0
ACAD_PROXY_OBJECT
  5
7E
102
{ACAD_REACTORS
330
6F
102
}
330
6F
100
AcDbZombieObject
 90
      499
 91
      502
 93
      105
310
903383A310000000000000810100
  0
ACAD_PROXY_OBJECT
  5
7F
102
{ACAD_REACTORS
330
6F
102
}
330
6F
100
AcDbZombieObject
 90
      499
 91
      502
 93
      113
310
90431303A310000000000000910100
  0
ACAD_PROXY_OBJECT
  5
80
102
{ACAD_REACTORS
330
6F
102
}
330
6F
100
AcDbZombieObject
 90
      499
 91
      502
 93
      121
310
9053130303A310000000000001650100
  0
ACAD_PROXY_OBJECT
  5
81
102
{ACAD_REACTORS
330
6F
102
}
330
6F
100
AcDbZombieObject
 90
      499
 91
      502
 93
      257
310
90E312F31323822203D2031272D3022000000000000200FC000000000000284000
  0
ACAD_PROXY_OBJECT
  5
82
102
{ACAD_REACTORS
330
6F
102
}
330
6F
100
AcDbZombieObject
 90
      499
 91
      502
 93
      249
310
90D312F363422203D2031272D3022000000000000240FC000000000000284000
  0
ACAD_PROXY_OBJECT
  5
83
102
{ACAD_REACTORS
330
6F
102
}
330
6F
100
AcDbZombieObject
 90
      499
 91
      502
 93
      249
310
90D312F333222203D2031272D3022000000000000280FC000000000000284000
  0
ACAD_PROXY_OBJECT
  5
84
102
{ACAD_REACTORS
330
6F
102
}
330
6F
100
AcDbZombieObject
 90
      499
 91
      502
 93
      249
310
90D312F313622203D2031272D30220000000000002C0FC000000000000284000
  0
ACAD_PROXY_OBJECT
  5
85
102
{ACAD_REACTORS
330
6F
102
}
330
6F
100
AcDbZombieObject
 90
      499
 91
      502
 93
      249
310
90D332F333222203D2031272D30220000000000002E0FC000000000000284000
  0
ACAD_PROXY_OBJECT
  5
86
102
{ACAD_REACTORS
330
6F
102
}
330
6F
100
AcDbZombieObject
 90
      499
 91
      502
 93
      241
310
90C312F3822203D2031272D3022000000000000300FC000000000000284000
  0
ACAD_PROXY_OBJECT
  5
87
102
{ACAD_REACTORS
330
6F
102
}
330
6F
100
AcDbZombieObject
 90
      499
 91
      502
 93
      249
310
90D332F313622203D2031272D3022000000000000320FC000000000000284000
  0
ACAD_PROXY_OBJECT
  5
88
102
{ACAD_REACTORS
330
6F
102
}
330
6F
100
AcDbZombieObject
 90
      499
 91
      502
 93
      241
310
90C312F3422203D2031272D3022000000000000340FC000000000000284000
  0
ACAD_PROXY_OBJECT
  5
89
102
{ACAD_REACTORS
330
6F
102
}
330
6F
100
AcDbZombieObject
 90
      499
 91
      502
 93
      241
310
90C332F3822203D2031272D3022000000000000360FC000000000000284000
  0
ACAD_PROXY_OBJECT
  5
8A
102
{ACAD_REACTORS
330
6F
102
}
330
6F
100
AcDbZombieObject
 90
      499
 91
      502
 93
      241
310
90C312F3222203D2031272D3022000000000000380FC000000000000284000
  0
ACAD_PROXY_OBJECT
  5
8B
102
{ACAD_REACTORS
330
6F
102
}
330
6F
100
AcDbZombieObject
 90
      499
 91
      502
 93
      241
310
90C332F3422203D2031272D30220000000000003A0FC000000000000284000
  0
ACAD_PROXY_OBJECT
  5
8C
102
{ACAD_REACTORS
330
6F
102
}
330
6F
100
AcDbZombieObject
 90
      499
 91
      502
 93
      161
310
90A3122203D2031272D30224000000000000284000
  0
ACAD_PROXY_OBJECT
  5
8D
102
{ACAD_REACTORS
330
6F
102
}
330
6F
100
AcDbZombieObject
 90
      499
 91
      502
 93
      257
310
90E312D312F3222203D2031272D30220000000000003E0FC000000000000284000
  0
ACAD_PROXY_OBJECT
  5
8E
102
{ACAD_REACTORS
330
6F
102
}
330
6F
100
AcDbZombieObject
 90
      499
 91
      502
 93
      225
310
90A3322203D2031272D302200000000000002100000000000000284000
  0
ACAD_PROXY_OBJECT
  5
8F
102
{ACAD_REACTORS
330
6F
102
}
330
6F
100
AcDbZombieObject
 90
      499
 91
      502
 93
      225
310
90A3622203D2031272D302200000000000006100000000000000284000
  0
ACAD_PROXY_OBJECT
  5
90
102
{ACAD_REACTORS
330
6F
102
}
330
6F
100
AcDbZombieObject
 90
      499
 91
      502
 93
      249
310
90D31272D3022203D2031272D30220000000000000A100000000000000284000
  0
ACAD_PROXY_OBJECT
  5
2F
102
{ACAD_REACTORS
330
2A
102
}
330
2A
100
AcDbZombieObject
 90
      499
 91
      501
 93
      436
310
42CC9915DA5C99599C985B595049028333333333333E3BF0000000000000FB0107901411070040501600405405064090741402480A0340
1001
ACAD
1000
AcDbSavedByObjectVersion
1070
     0
  0
ACAD_PROXY_OBJECT
  5
31
102
{ACAD_REACTORS
330
2A
102
}
330
2A
100
AcDbZombieObject
 90
      499
 91
      501
 93
      500
310
424CD108121A5919195B90640502408333333333333E3BF0000000000000FB01079024090700405020000000000001110200405405064090740C02480A0340
1001
ACAD
1000
AcDbSavedByObjectVersion
1070
     0
  0
ACAD_PROXY_OBJECT
  5
30
102
{ACAD_REACTORS
330
2A
102
}
330
2A
100
AcDbZombieObject
 90
      499
 91
      501
 93
      436
310
42CCD915DA5C99599C985B595059028333333333333E3BF0000000000000FB0107901411070040501600405405064090741402480A0340
1001
ACAD
1000
AcDbSavedByObjectVersion
1070
     0
  0
ACAD_PROXY_OBJECT
  5
32
102
{ACAD_REACTORS
330
2A
102
}
330
2A
100
AcDbZombieObject
 90
      499
 91
      501
 93
      388
310
4150985CDA58D07406404333333333333E3BF0000000000000FB0107A41107004050150841D405064090741402480A0350
1001
ACAD
1000
AcDbSavedByObjectVersion
1070
     0
  0
ACAD_PROXY_OBJECT
  5
36
102
{ACAD_REACTORS
330
2A
102
}
330
2A
100
AcDbZombieObject
 90
      499
 91
      501
 93
      428
310
42109C9A59DA1D195B90C409028333333333333E3BF0000000000000FB010790141107004050150841D405064090741402480A029950
1001
ACAD
1000
AcDbSavedByObjectVersion
1070
     0
  0
ACAD_PROXY_OBJECT
  5
3A
102
{ACAD_REACTORS
330
2A
102
}
330
2A
100
AcDbZombieObject
 90
      499
 91
      501
 93
      452
310
42D0DBDB1BDC90DA185B99D95104090240C333333333333E3BF0000000000000FB0108901411070040501508421405064090741402480A0350
1001
ACAD
1000
AcDbSavedByObjectVersion
1070
     0
  0
ACAD_PROXY_OBJECT
  5
34
102
{ACAD_REACTORS
330
2A
102
}
330
2A
100
AcDbZombieObject
 90
      499
 91
      501
 93
      500
310
4290DBDB98D95C1D1D585B10940D028333333333333E3BF0000000000000FB0107902409070040501000000000000111010841D405064090740C02480A0340
1001
ACAD
1000
AcDbSavedByObjectVersion
1070
     0
  0
ACAD_PROXY_OBJECT
  5
35
102
{ACAD_REACTORS
330
2A
102
}
330
2A
100
AcDbZombieObject
 90
      499
 91
      501
 93
      412
310
40D11A5B50B409028333333333333E3BF0000000000000FB010790141107004050150841D405064090741402480A02677FFFFFD0
1001
ACAD
1000
AcDbSavedByObjectVersion
1070
     0
  0
ACAD_PROXY_OBJECT
  5
39
102
{ACAD_REACTORS
330
2A
102
}
330
2A
100
AcDbZombieObject
 90
      499
 91
      501
 93
      444
310
42D19858D95C185D1D195C9B90F409028333333333333E3BF0000000000000FB010790141107004050150841D405064090741402480A0350
1001
ACAD
1000
AcDbSavedByObjectVersion
1070
     0
  0
ACAD_PROXY_OBJECT
  5
2B
102
{ACAD_REACTORS
330
2A
102
}
330
2A
100
AcDbZombieObject
 90
      499
 91
      501
 93
      388
310
41119B185D240901404333333333333E3BF0000000000000F9010740A41107004050150841D405064090741402480A1B50
1001
ACAD
1000
AcDbSavedByObjectVersion
1070
     0
  0
ACAD_PROXY_OBJECT
  5
2C
102
{ACAD_REACTORS
330
2A
102
}
330
2A
100
AcDbZombieObject
 90
      499
 91
      501
 93
      476
310
43519B185D15DA5D1A115919D95CD0140901404333333333333E3BF0000000000000F9010740901411070040501600405405064090741402480A1B50
1001
ACAD
1000
AcDbSavedByObjectVersion
1070
     0
  0
ACAD_PROXY_OBJECT
  5
2D
102
{ACAD_REACTORS
330
2A
102
}
330
2A
100
AcDbZombieObject
 90
      499
 91
      501
 93
      412
310
41D1DBDD5C985D5910240902404333333333333E3BF0000000000000F9010740A411070040501641D405064090741402480A1B50
1001
ACAD
1000
AcDbSavedByObjectVersion
1070
     0
  0
ACAD_PROXY_OBJECT
  5
2E
102
{ACAD_REACTORS
330
2A
102
}
330
2A
100
AcDbZombieObject
 90
      499
 91
      501
 93
      500
310
4411DBDD5C985D5915DA5D1A115919D95CD0340902404333333333333E3BF0000000000000F9010740901411070040501600405405064090741402480A1B50
1001
ACAD
1000
AcDbSavedByObjectVersion
1070
     0
  0
ACAD_PROXY_OBJECT
  5
38
102
{ACAD_REACTORS
330
2A
102
}
330
2A
100
AcDbZombieObject
 90
      499
 91
      501
 93
      444
310
42D31A5B995C185D1D195C9B90E409028333333333333E3BF0000000000000FB010790141107004050750841D405064090741402483A0350
1001
ACAD
1000
AcDbSavedByObjectVersion
1070
     0
  0
ACAD_PROXY_OBJECT
  5
33
102
{ACAD_REACTORS
330
2A
102
}
330
2A
100
AcDbZombieObject
 90
      499
 91
      501
 93
      420
310
425499585B1A5CDD1A58D08409028333333333333E3BF0000000000000FB01079019070040501508421405064090741402480A1B40
1001
ACAD
1000
AcDbSavedByObjectVersion
1070
     0
  0
ACAD_PROXY_OBJECT
  5
37
102
{ACAD_REACTORS
330
2A
102
}
330
2A
100
AcDbZombieObject
 90
      499
 91
      501
 93
      412
310
41D51A1A58DAD95B90D409028333333333333E3BF0000000000000FB010790141107004050150C41D405064090741402480A0350
1001
ACAD
1000
AcDbSavedByObjectVersion
1070
     0
  0
DICTIONARYVAR
  5
212
102
{ACAD_REACTORS
330
20F
102
}
330
20F
100
DictionaryVariables
280
     0
  1
1:1
  0
DICTIONARYVAR
  5
213
102
{ACAD_REACTORS
330
20F
102
}
330
20F
100
DictionaryVariables
280
     0
  1
2
  0
DICTIONARYVAR
  5
214
102
{ACAD_REACTORS
330
20F
102
}
330
20F
100
DictionaryVariables
280
     0
  1
1
  0
ENDSEC
  0
EOF
