  0
SECTION
  2
HEADER
  9
$ACADVER
  1
AC1012
  9
$DWGCODEPAGE
  3
ansi_1252
  9
$INSBASE
 10
0.0
 20
0.0
 30
0.0
  9
$EXTMIN
 10
0.0
 20
0.0
 30
0.0
  9
$EXTMAX
 10
11.0
 20
8.5
 30
0.0
  9
$LIMMIN
 10
0.0
 20
0.0
  9
$LIMMAX
 10
11.0
 20
8.5
  9
$ORTHOMODE
 70
     0
  9
$REGENMODE
 70
     1
  9
$FILLMODE
 70
     1
  9
$QTEXTMODE
 70
     0
  9
$MIRRTEXT
 70
     1
  9
$DRAGMODE
 70
     2
  9
$LTSCALE
 40
1.0
  9
$OSMODE
 70
    37
  9
$ATTMODE
 70
     1
  9
$TEXTSIZE
 40
0.125
  9
$TRACEWID
 40
0.05
  9
$TEXTSTYLE
  7
STANDARD
  9
$CLAYER
  8
0
  9
$CELTYPE
  6
BYLAYER
  9
$CECOLOR
 62
   256
  9
$CELTSCALE
 40
1.0
  9
$DELOBJ
 70
     1
  9
$DISPSILH
 70
     0
  9
$DIMSCALE
 40
1.0
  9
$DIMASZ
 40
0.13
  9
$DIMEXO
 40
0.05
  9
$DIMDLI
 40
0.38
  9
$DIMRND
 40
0.0
  9
$DIMDLE
 40
0.0
  9
$DIMEXE
 40
0.125
  9
$DIMTP
 40
0.0
  9
$DIMTM
 40
0.0
  9
$DIMTXT
 40
0.125
  9
$DIMCEN
 40
0.09
  9
$DIMTSZ
 40
0.0
  9
$DIMTOL
 70
     0
  9
$DIMLIM
 70
     0
  9
$DIMTIH
 70
     1
  9
$DIMTOH
 70
     1
  9
$DIMSE1
 70
     0
  9
$DIMSE2
 70
     0
  9
$DIMTAD
 70
     0
  9
$DIMZIN
 70
     0
  9
$DIMBLK
  1

  9
$DIMASO
 70
     1
  9
$DIMSHO
 70
     1
  9
$DIMPOST
  1

  9
$DIMAPOST
  1

  9
$DIMALT
 70
     0
  9
$DIMALTD
 70
     2
  9
$DIMALTF
 40
25.4
  9
$DIMLFAC
 40
1.0
  9
$DIMTOFL
 70
     0
  9
$DIMTVP
 40
0.0
  9
$DIMTIX
 70
     0
  9
$DIMSOXD
 70
     0
  9
$DIMSAH
 70
     0
  9
$DIMBLK1
  1

  9
$DIMBLK2
  1

  9
$DIMSTYLE
  2
STANDARD
  9
$DIMCLRD
 70
     0
  9
$DIMCLRE
 70
     0
  9
$DIMCLRT
 70
     0
  9
$DIMTFAC
 40
1.0
  9
$DIMGAP
 40
0.06
  9
$DIMJUST
 70
     0
  9
$DIMSD1
 70
     0
  9
$DIMSD2
 70
     0
  9
$DIMTOLJ
 70
     1
  9
$DIMTZIN
 70
     0
  9
$DIMALTZ
 70
     0
  9
$DIMALTTZ
 70
     0
  9
$DIMFIT
 70
     3
  9
$DIMUPT
 70
     0
  9
$DIMUNIT
 70
     2
  9
$DIMDEC
 70
     3
  9
$DIMTDEC
 70
     3
  9
$DIMALTU
 70
     2
  9
$DIMALTTD
 70
     2
  9
$DIMTXSTY
  7
STANDARD
  9
$DIMAUNIT
 70
     0
  9
$LUNITS
 70
     2
  9
$LUPREC
 70
     2
  9
$SKETCHINC
 40
0.1
  9
$FILLETRAD
 40
0.5
  9
$AUNITS
 70
     0
  9
$AUPREC
 70
     2
  9
$MENU
  1
.
  9
$ELEVATION
 40
0.0
  9
$PELEVATION
 40
0.0
  9
$THICKNESS
 40
0.0
  9
$LIMCHECK
 70
     0
  9
$CHAMFERA
 40
0.5
  9
$CHAMFERB
 40
0.5
  9
$CHAMFERC
 40
1.0
  9
$CHAMFERD
 40
0.0
  9
$SKPOLY
 70
     0
  9
$TDCREATE
 40
2455784.013482442
  9
$TDUPDATE
 40
2455784.013482454
  9
$TDINDWG
 40
0.0000000116
  9
$TDUSRTIMER
 40
0.0000000116
  9
$USRTIMER
 70
     1
  9
$ANGBASE
 50
0.0
  9
$ANGDIR
 70
     0
  9
$PDMODE
 70
     0
  9
$PDSIZE
 40
-1.0
  9
$PLINEWID
 40
0.0
  9
$COORDS
 70
     1
  9
$SPLFRAME
 70
     0
  9
$SPLINETYPE
 70
     6
  9
$SPLINESEGS
 70
     8
  9
$ATTDIA
 70
     0
  9
$ATTREQ
 70
     1
  9
$HANDLING
 70
     1
  9
$HANDSEED
  5
465
  9
$SURFTAB1
 70
     6
  9
$SURFTAB2
 70
     6
  9
$SURFTYPE
 70
     6
  9
$SURFU
 70
     6
  9
$SURFV
 70
     6
  9
$UCSNAME
  2

  9
$UCSORG
 10
0.0
 20
0.0
 30
0.0
  9
$UCSXDIR
 10
1.0
 20
0.0
 30
0.0
  9
$UCSYDIR
 10
0.0
 20
1.0
 30
0.0
  9
$PUCSNAME
  2

  9
$PUCSORG
 10
0.0
 20
0.0
 30
0.0
  9
$PUCSXDIR
 10
1.0
 20
0.0
 30
0.0
  9
$PUCSYDIR
 10
0.0
 20
1.0
 30
0.0
  9
$USERI1
 70
     0
  9
$USERI2
 70
     0
  9
$USERI3
 70
     0
  9
$USERI4
 70
     0
  9
$USERI5
 70
     0
  9
$USERR1
 40
0.0
  9
$USERR2
 40
0.0
  9
$USERR3
 40
0.0
  9
$USERR4
 40
0.0
  9
$USERR5
 40
0.0
  9
$WORLDVIEW
 70
     1
  9
$SHADEDGE
 70
     3
  9
$SHADEDIF
 70
    70
  9
$TILEMODE
 70
     1
  9
$MAXACTVP
 70
    64
  9
$PINSBASE
 10
0.0
 20
0.0
 30
0.0
  9
$PLIMCHECK
 70
     0
  9
$PEXTMIN
 10
1.0000000000E+20
 20
1.0000000000E+20
 30
1.0000000000E+20
  9
$PEXTMAX
 10
-1.0000000000E+20
 20
-1.0000000000E+20
 30
-1.0000000000E+20
  9
$PLIMMIN
 10
0.0
 20
0.0
  9
$PLIMMAX
 10
12.0
 20
9.0
  9
$UNITMODE
 70
     0
  9
$VISRETAIN
 70
     1
  9
$PLINEGEN
 70
     0
  9
$PSLTSCALE
 70
     1
  9
$TREEDEPTH
 70
  3020
  9
$PICKSTYLE
 70
     1
  9
$CMLSTYLE
  2
STANDARD
  9
$CMLJUST
 70
     0
  9
$CMLSCALE
 40
1.0
  9
$SAVEIMAGES
 70
     1
  0
ENDSEC
  0
SECTION
  2
CLASSES
  0
CLASS
  1
ACDBDICTIONARYWDFLT
  2
AcDbDictionaryWithDefault
  3
ObjectDBX Classes
 90
    32768
280
     0
281
     0
  0
CLASS
  1
VISUALSTYLE
  2
AcDbVisualStyle
  3
ObjectDBX Classes
 90
     4095
280
     0
281
     0
  0
CLASS
  1
SCALE
  2
AcDbScale
  3
ObjectDBX Classes
 90
     1153
280
     0
281
     0
  0
CLASS
  1
DICTIONARYVAR
  2
AcDbDictionaryVar
  3
ObjectDBX Classes
 90
        0
280
     0
281
     0
  0
CLASS
  1
XRECORD
  2
AcDbXrecord
  3
AutoCAD 2000
 90
    32768
280
     0
281
     0
  0
CLASS
  1
LWPOLYLINE
  2
AcDbPolyline
  3
AutoCAD 2000
 90
    32768
280
     0
281
     1
  0
CLASS
  1
HATCH
  2
AcDbHatch
  3
AutoCAD 2000
 90
    32768
280
     0
281
     1
  0
CLASS
  1
ACDBPLACEHOLDER
  2
AcDbPlaceHolder
  3
ObjectDBX Classes
 90
        0
280
     0
281
     0
  0
CLASS
  1
LAYOUT
  2
AcDbLayout
  3
ObjectDBX Classes
 90
        0
280
     0
281
     0
  0
ENDSEC
  0
SECTION
  2
TABLES
  0
TABLE
  2
VPORT
  5
8
330
0
100
AcDbSymbolTable
 70
     1
  0
VPORT
  5
29
330
8
100
AcDbSymbolTableRecord
100
AcDbViewportTableRecord
  2
*ACTIVE
 70
     0
 10
0.0
 20
0.0
 11
1.0
 21
1.0
 12
5.5
 22
4.25
 13
0.0
 23
0.0
 14
0.5
 24
0.5
 15
0.5
 25
0.5
 16
0.0
 26
0.0
 36
1.0
 17
0.0
 27
0.0
 37
0.0
 40
8.5
 41
1.2941176471
 42
50.0
 43
0.0
 44
0.0
 50
0.0
 51
0.0
 71
     0
 72
  2000
 73
     1
 74
     3
 75
     0
 76
     0
 77
     0
 78
     0
  0
ENDTAB
  0
TABLE
  2
LTYPE
  5
5
330
0
100
AcDbSymbolTable
 70
     6
  0
LTYPE
  5
14
330
5
100
AcDbSymbolTableRecord
100
AcDbLinetypeTableRecord
  2
BYBLOCK
 70
     0
  3

 72
    65
 73
     0
 40
0.0
  0
LTYPE
  5
15
330
5
100
AcDbSymbolTableRecord
100
AcDbLinetypeTableRecord
  2
BYLAYER
 70
     0
  3

 72
    65
 73
     0
 40
0.0
  0
LTYPE
  5
16
330
5
100
AcDbSymbolTableRecord
100
AcDbLinetypeTableRecord
  2
CONTINUOUS
 70
     0
  3
Solid line
 72
    65
 73
     0
 40
0.0
  0
LTYPE
  5
3B
330
5
100
AcDbSymbolTableRecord
100
AcDbLinetypeTableRecord
  2
HIDDEN
 70
     0
  3
Hidden __ __ __ __ __ __ __ __ __ __ __ __ __ __
 72
    65
 73
     2
 40
0.075
 49
0.05
 74
     0
 49
-0.025
 74
     0
  0
LTYPE
  5
3C
330
5
100
AcDbSymbolTableRecord
100
AcDbLinetypeTableRecord
  2
PHANTOM
 70
     0
  3
Phantom ______  __  __  ______  __  __  ______
 72
    65
 73
     6
 40
0.5
 49
0.25
 74
     0
 49
-0.05
 74
     0
 49
0.05
 74
     0
 49
-0.05
 74
     0
 49
0.05
 74
     0
 49
-0.05
 74
     0
  0
LTYPE
  5
3D
330
5
100
AcDbSymbolTableRecord
100
AcDbLinetypeTableRecord
  2
CENTER
 70
     0
  3
Center ____ _ ____ _ ____ _ ____ _ ____ _ ____
 72
    65
 73
     4
 40
0.4
 49
0.25
 74
     0
 49
-0.05
 74
     0
 49
0.05
 74
     0
 49
-0.05
 74
     0
  0
LTYPE
  5
3E
330
5
100
AcDbSymbolTableRecord
100
AcDbLinetypeTableRecord
  2
CENTERX2
 70
     0
  3
Center (2x) ________  __  ________  __  _____
 72
    65
 73
     4
 40
0.8
 49
0.5
 74
     0
 49
-0.1
 74
     0
 49
0.1
 74
     0
 49
-0.1
 74
     0
  0
LTYPE
  5
3F
330
5
100
AcDbSymbolTableRecord
100
AcDbLinetypeTableRecord
  2
DOT2
 70
     0
  3
Dot (.5x) ........................................
 72
    65
 73
     2
 40
0.025
 49
0.0
 74
     0
 49
-0.025
 74
     0
  0
ENDTAB
  0
TABLE
  2
LAYER
  5
2
330
0
100
AcDbSymbolTable
 70
     2
  0
LAYER
  5
10
330
2
100
AcDbSymbolTableRecord
100
AcDbLayerTableRecord
  2
0
 70
     0
 62
     7
  6
CONTINUOUS
  0
LAYER
  5
40
330
2
100
AcDbSymbolTableRecord
100
AcDbLayerTableRecord
  2
FORMAT
 70
     0
 62
     7
  6
CONTINUOUS
  0
ENDTAB
  0
TABLE
  2
STYLE
  5
3
330
0
100
AcDbSymbolTable
 70
     4
  0
STYLE
  5
11
330
3
100
AcDbSymbolTableRecord
100
AcDbTextStyleTableRecord
  2
STANDARD
 70
     0
 40
0.0
 41
1.0
 50
0.0
 71
     0
 42
0.2
  3
txt
  4

  0
STYLE
  5
6E
330
3
100
AcDbSymbolTableRecord
100
AcDbTextStyleTableRecord
  2
SLDTEXTSTYLE0
 70
     0
 40
0.0
 41
0.75
 50
0.0
 71
     0
 42
0.2
  3
TXT
  4

  0
STYLE
  5
93
330
3
100
AcDbSymbolTableRecord
100
AcDbTextStyleTableRecord
  2
SLDTEXTSTYLE1
 70
     0
 40
0.0
 41
0.6875
 50
0.0
 71
     0
 42
0.2
  3
TXT
  4

  0
STYLE
  5
99
330
3
100
AcDbSymbolTableRecord
100
AcDbTextStyleTableRecord
  2
SLDTEXTSTYLE2
 70
     0
 40
0.0
 41
0.6944444444
 50
0.0
 71
     0
 42
0.2
  3
TXT
  4

  0
ENDTAB
  0
TABLE
  2
VIEW
  5
6
330
0
100
AcDbSymbolTable
 70
     0
  0
ENDTAB
  0
TABLE
  2
UCS
  5
7
330
0
100
AcDbSymbolTable
 70
     0
  0
ENDTAB
  0
TABLE
  2
APPID
  5
9
330
0
100
AcDbSymbolTable
 70
     1
  0
APPID
  5
12
330
9
100
AcDbSymbolTableRecord
100
AcDbRegAppTableRecord
  2
ACAD
 70
     0
  0
ENDTAB
  0
TABLE
  2
DIMSTYLE
  5
A
330
0
100
AcDbSymbolTable
 70
     1
  0
DIMSTYLE
105
27
330
A
100
AcDbSymbolTableRecord
100
AcDbDimStyleTableRecord
  2
STANDARD
 70
     0
  3

  4

  5

  6

  7

 40
1.0
 41
0.18
 42
0.0625
 43
0.38
 44
0.18
 45
0.0
 46
0.0
 47
0.0
 48
0.0
140
0.18
141
0.09
142
0.0
143
25.4
144
1.0
145
0.0
146
1.0
147
0.09
 71
     0
 72
     0
 73
     1
 74
     1
 75
     0
 76
     0
 77
     0
 78
     0
170
     0
171
     2
172
     0
173
     0
174
     0
175
     0
176
     0
177
     0
178
     0
270
     2
271
     4
272
     4
273
     2
274
     2
340
11
275
     0
280
     0
281
     0
282
     0
283
     1
284
     0
285
     0
286
     0
287
     3
288
     0
  0
ENDTAB
  0
TABLE
  2
BLOCK_RECORD
  5
1
330
0
100
AcDbSymbolTable
 70
     4
  0
BLOCK_RECORD
  5
1F
330
1
100
AcDbSymbolTableRecord
100
AcDbBlockTableRecord
  2
*MODEL_SPACE
  0
BLOCK_RECORD
  5
1B
330
1
100
AcDbSymbolTableRecord
100
AcDbBlockTableRecord
  2
*PAPER_SPACE
  0
BLOCK_RECORD
  5
A8
330
1
100
AcDbSymbolTableRecord
100
AcDbBlockTableRecord
  2
SW_NOTE_0
  0
BLOCK_RECORD
  5
AE
330
1
100
AcDbSymbolTableRecord
100
AcDbBlockTableRecord
  2
SW_NOTE_1
  0
BLOCK_RECORD
  5
C2
330
1
100
AcDbSymbolTableRecord
100
AcDbBlockTableRecord
  2
SW_NOTE_2
  0
ENDTAB
  0
ENDSEC
  0
SECTION
  2
BLOCKS
  0
BLOCK
  5
20
330
1F
100
AcDbEntity
  8
0
100
AcDbBlockBegin
  2
*MODEL_SPACE
 70
     0
 10
0.0
 20
0.0
 30
0.0
  3
*MODEL_SPACE
  1

  0
ENDBLK
  5
21
330
1F
100
AcDbEntity
  8
0
100
AcDbBlockEnd
  0
BLOCK
  5
1C
330
1B
100
AcDbEntity
 67
     1
  8
0
100
AcDbBlockBegin
  2
*PAPER_SPACE
 70
     0
 10
0.0
 20
0.0
 30
0.0
  3
*PAPER_SPACE
  1

  0
ENDBLK
  5
1D
330
1B
100
AcDbEntity
 67
     1
  8
0
100
AcDbBlockEnd
  0
BLOCK
  5
A9
330
A8
100
AcDbEntity
  8
0
100
AcDbBlockBegin
  2
SW_NOTE_0
 70
     0
 10
0.0
 20
0.0
 30
0.0
  3
SW_NOTE_0
  1

  0
MTEXT
  5
AB
330
A8
100
AcDbEntity
  8
0
  6
CONTINUOUS
 62
     0
100
AcDbMText
 10
0.0
 20
0.0773440644
 30
0.0
 40
0.06
 41
0.0
 71
     1
 72
     1
  1
INTERPRET GEOMETRIC
  7
SLDTEXTSTYLE0
  0
MTEXT
  5
AC
330
A8
100
AcDbEntity
  8
0
  6
CONTINUOUS
 62
     0
100
AcDbMText
 10
0.0
 20
-0.0220260102
 30
0.0
 40
0.06
 41
0.0
 71
     1
 72
     1
  1
TOLERANCING PER:
  7
SLDTEXTSTYLE0
  0
ENDBLK
  5
AA
330
A8
100
AcDbEntity
  8
0
100
AcDbBlockEnd
  0
BLOCK
  5
AF
330
AE
100
AcDbEntity
  8
0
100
AcDbBlockBegin
  2
SW_NOTE_1
 70
     0
 10
0.0
 20
0.0
 30
0.0
  3
SW_NOTE_1
  1

  0
MTEXT
  5
B1
330
AE
100
AcDbEntity
  8
0
  6
CONTINUOUS
 62
     0
100
AcDbMText
 10
0.0
 20
0.0837894031
 30
0.0
 40
0.065
 41
0.0
 71
     1
 72
     1
  1
DIMENSIONS ARE IN INCHES
  7
SLDTEXTSTYLE0
  0
MTEXT
  5
B2
330
AE
100
AcDbEntity
  8
0
  6
CONTINUOUS
 62
     0
100
AcDbMText
 10
0.0
 20
-0.0205806729
 30
0.0
 40
0.065
 41
0.0
 71
     1
 72
     1
  1
TOLERANCES:
  7
SLDTEXTSTYLE0
  0
MTEXT
  5
B3
330
AE
100
AcDbEntity
  8
0
  6
CONTINUOUS
 62
     0
100
AcDbMText
 10
0.0
 20
-0.1249507489
 30
0.0
 40
0.065
 41
0.0
 71
     1
 72
     1
  1
FRACTIONAL
  7
SLDTEXTSTYLE0
  0
MTEXT
  5
B4
330
AE
100
AcDbEntity
  8
0
  6
CONTINUOUS
 62
     0
100
AcDbMText
 10
0.5175850875
 20
-0.1249507489
 30
0.0
 40
0.065
 41
0.0
 71
     1
 72
     1
  1
%%p
  7
SLDTEXTSTYLE0
  0
MTEXT
  5
B5
330
AE
100
AcDbEntity
  8
0
  6
CONTINUOUS
 62
     0
100
AcDbMText
 10
0.0
 20
-0.2293208248
 30
0.0
 40
0.065
 41
0.0
 71
     1
 72
     1
  1
ANGULAR: MACH
  7
SLDTEXTSTYLE0
  0
MTEXT
  5
B6
330
AE
100
AcDbEntity
  8
0
  6
CONTINUOUS
 62
     0
100
AcDbMText
 10
0.7233732769
 20
-0.2293208248
 30
0.0
 40
0.065
 41
0.0
 71
     1
 72
     1
  1
%%p
  7
SLDTEXTSTYLE0
  0
MTEXT
  5
B7
330
AE
100
AcDbEntity
  8
0
  6
CONTINUOUS
 62
     0
100
AcDbMText
 10
0.7852857683
 20
-0.2293208248
 30
0.0
 40
0.065
 41
0.0
 71
     1
 72
     1
  1
     BEND 
  7
SLDTEXTSTYLE0
  0
MTEXT
  5
B8
330
AE
100
AcDbEntity
  8
0
  6
CONTINUOUS
 62
     0
100
AcDbMText
 10
1.14784136
 20
-0.2293208248
 30
0.0
 40
0.065
 41
0.0
 71
     1
 72
     1
  1
%%p
  7
SLDTEXTSTYLE0
  0
MTEXT
  5
B9
330
AE
100
AcDbEntity
  8
0
  6
CONTINUOUS
 62
     0
100
AcDbMText
 10
0.0
 20
-0.3336909008
 30
0.0
 40
0.065
 41
0.0
 71
     1
 72
     1
  1
TWO PLACE DECIMAL    
  7
SLDTEXTSTYLE0
  0
MTEXT
  5
BA
330
AE
100
AcDbEntity
  8
0
  6
CONTINUOUS
 62
     0
100
AcDbMText
 10
0.9794349188
 20
-0.3336909008
 30
0.0
 40
0.065
 41
0.0
 71
     1
 72
     1
  1
%%p
  7
SLDTEXTSTYLE0
  0
MTEXT
  5
BB
330
AE
100
AcDbEntity
  8
0
  6
CONTINUOUS
 62
     0
100
AcDbMText
 10
0.0
 20
-0.4380609768
 30
0.0
 40
0.065
 41
0.0
 71
     1
 72
     1
  1
THREE PLACE DECIMAL  
  7
SLDTEXTSTYLE0
  0
MTEXT
  5
BC
330
AE
100
AcDbEntity
  8
0
  6
CONTINUOUS
 62
     0
100
AcDbMText
 10
0.9738038639
 20
-0.4380609768
 30
0.0
 40
0.065
 41
0.0
 71
     1
 72
     1
  1
%%p
  7
SLDTEXTSTYLE0
  0
ENDBLK
  5
B0
330
AE
100
AcDbEntity
  8
0
100
AcDbBlockEnd
  0
BLOCK
  5
C3
330
C2
100
AcDbEntity
  8
0
100
AcDbBlockBegin
  2
SW_NOTE_2
 70
     0
 10
0.0
 20
0.0
 30
0.0
  3
SW_NOTE_2
  1

  0
MTEXT
  5
C5
330
C2
100
AcDbEntity
  8
0
  6
CONTINUOUS
 62
     0
100
AcDbMText
 10
0.0
 20
0.0773440644
 30
0.0
 40
0.06
 41
0.0
 71
     1
 72
     1
  1
THE INFORMATION CONTAINED IN THIS
  7
SLDTEXTSTYLE0
  0
MTEXT
  5
C6
330
C2
100
AcDbEntity
  8
0
  6
CONTINUOUS
 62
     0
100
AcDbMText
 10
0.0
 20
-0.0220260102
 30
0.0
 40
0.06
 41
0.0
 71
     1
 72
     1
  1
DRAWING IS THE SOLE PROPERTY OF
  7
SLDTEXTSTYLE0
  0
MTEXT
  5
C7
330
C2
100
AcDbEntity
  8
0
  6
CONTINUOUS
 62
     0
100
AcDbMText
 10
0.0
 20
-0.1213960848
 30
0.0
 40
0.06
 41
0.0
 71
     1
 72
     1
  1
Candy Controls.  ANY 
  7
SLDTEXTSTYLE0
  0
MTEXT
  5
C8
330
C2
100
AcDbEntity
  8
0
  6
CONTINUOUS
 62
     0
100
AcDbMText
 10
0.0
 20
-0.2207661593
 30
0.0
 40
0.06
 41
0.0
 71
     1
 72
     1
  1
REPRODUCTION IN PART OR AS A WHOLE
  7
SLDTEXTSTYLE0
  0
MTEXT
  5
C9
330
C2
100
AcDbEntity
  8
0
  6
CONTINUOUS
 62
     0
100
AcDbMText
 10
0.0
 20
-0.3201362339
 30
0.0
 40
0.06
 41
0.0
 71
     1
 72
     1
  1
WITHOUT THE WRITTEN PERMISSION OF
  7
SLDTEXTSTYLE0
  0
MTEXT
  5
CA
330
C2
100
AcDbEntity
  8
0
  6
CONTINUOUS
 62
     0
100
AcDbMText
 10
0.0
 20
-0.4195063085
 30
0.0
 40
0.06
 41
0.0
 71
     1
 72
     1
  1
Candy Controls IS 
  7
SLDTEXTSTYLE0
  0
MTEXT
  5
CB
330
C2
100
AcDbEntity
  8
0
  6
CONTINUOUS
 62
     0
100
AcDbMText
 10
0.0
 20
-0.518876383
 30
0.0
 40
0.06
 41
0.0
 71
     1
 72
     1
  1
PROHIBITED.
  7
SLDTEXTSTYLE0
  0
ENDBLK
  5
C4
330
C2
100
AcDbEntity
  8
0
100
AcDbBlockEnd
  0
ENDSEC
  0
SECTION
  2
ENTITIES
  0
LINE
  5
41
330
1F
100
AcDbEntity
  8
0
  6
CONTINUOUS
 62
     7
100
AcDbLine
 10
0.329927
 20
8.1920731707
 30
0.0
 11
10.629927
 21
8.1920731707
 31
0.0
  0
LINE
  5
42
330
1F
100
AcDbEntity
  8
0
  6
CONTINUOUS
 62
     7
100
AcDbLine
 10
0.329927
 20
8.1920731707
 30
0.0
 11
0.329927
 21
0.3920731707
 31
0.0
  0
LINE
  5
43
330
1F
100
AcDbEntity
  8
0
  6
CONTINUOUS
 62
     7
100
AcDbLine
 10
10.629927
 20
0.3920731707
 30
0.0
 11
0.329927
 21
0.3920731707
 31
0.0
  0
LINE
  5
44
330
1F
100
AcDbEntity
  8
0
  6
CONTINUOUS
 62
     7
100
AcDbLine
 10
10.629927
 20
0.3920731707
 30
0.0
 11
10.629927
 21
8.1920731707
 31
0.0
  0
LINE
  5
45
330
1F
100
AcDbEntity
  8
0
  6
CONTINUOUS
 62
     7
100
AcDbLine
 10
4.7981841288
 20
0.3920731707
 30
0.0
 11
4.7981841288
 21
2.3564211366
 31
0.0
  0
LINE
  5
46
330
1F
100
AcDbEntity
  8
0
  6
CONTINUOUS
 62
     7
100
AcDbLine
 10
2.8210345579
 20
2.3564211366
 30
0.0
 11
10.629927
 21
2.3564211366
 31
0.0
  0
LINE
  5
47
330
1F
100
AcDbEntity
  8
0
  6
CONTINUOUS
 62
     7
100
AcDbLine
 10
6.1796352514
 20
2.3564211366
 30
0.0
 11
6.1796352514
 21
0.3920731707
 31
0.0
  0
LINE
  5
48
330
1F
100
AcDbEntity
  8
0
  6
CONTINUOUS
 62
     7
100
AcDbLine
 10
7.8712070044
 20
2.3564211366
 30
0.0
 11
7.8712070044
 21
0.3920731707
 31
0.0
  0
LINE
  5
49
330
1F
100
AcDbEntity
  8
0
  6
CONTINUOUS
 62
     7
100
AcDbLine
 10
7.8712070044
 20
0.6049590101
 30
0.0
 11
10.629927
 21
0.6049590101
 31
0.0
  0
LINE
  5
4A
330
1F
100
AcDbEntity
  8
0
  6
CONTINUOUS
 62
     7
100
AcDbLine
 10
7.8712070044
 20
1.1119362457
 30
0.0
 11
10.629927
 21
1.1119362457
 31
0.0
  0
LINE
  5
4B
330
1F
100
AcDbEntity
  8
0
  6
CONTINUOUS
 62
     7
100
AcDbLine
 10
7.8712070044
 20
1.9892703708
 30
0.0
 11
10.629927
 21
1.9892703708
 31
0.0
  0
LINE
  5
4C
330
1F
100
AcDbEntity
  8
0
  6
CONTINUOUS
 62
     7
100
AcDbLine
 10
8.266751752
 20
1.1119362457
 30
0.0
 11
8.266751752
 21
0.6049590101
 31
0.0
  0
LINE
  5
4D
330
1F
100
AcDbEntity
  8
0
  6
CONTINUOUS
 62
     7
100
AcDbLine
 10
8.6943435176
 20
0.6049590101
 30
0.0
 11
8.6943435176
 21
0.3920731707
 31
0.0
  0
LINE
  5
4E
330
1F
100
AcDbEntity
  8
0
  6
CONTINUOUS
 62
     7
100
AcDbLine
 10
10.0579917045
 20
1.1119362457
 30
0.0
 11
10.0579917045
 21
0.6049590101
 31
0.0
  0
LINE
  5
4F
330
1F
100
AcDbEntity
  8
0
  6
CONTINUOUS
 62
     7
100
AcDbLine
 10
9.6662556631
 20
0.6049590101
 30
0.0
 11
9.6662556631
 21
0.3920731707
 31
0.0
  0
LINE
  5
50
330
1F
100
AcDbEntity
  8
0
  6
CONTINUOUS
 62
     7
100
AcDbLine
 10
2.8210345579
 20
0.5883479999
 30
0.0
 11
6.1796352514
 21
0.5883479999
 31
0.0
  0
LINE
  5
51
330
1F
100
AcDbEntity
  8
0
  6
CONTINUOUS
 62
     7
100
AcDbLine
 10
6.1796352514
 20
1.7939211366
 30
0.0
 11
7.8712070044
 21
1.7939211366
 31
0.0
  0
LINE
  5
52
330
1F
100
AcDbEntity
  8
0
  6
CONTINUOUS
 62
     7
100
AcDbLine
 10
6.1796352514
 20
1.9814211366
 30
0.0
 11
7.8712070044
 21
1.9814211366
 31
0.0
  0
LINE
  5
53
330
1F
100
AcDbEntity
  8
0
  6
CONTINUOUS
 62
     7
100
AcDbLine
 10
6.1796352514
 20
2.1689211366
 30
0.0
 11
7.8712070044
 21
2.1689211366
 31
0.0
  0
LINE
  5
54
330
1F
100
AcDbEntity
  8
0
  6
CONTINUOUS
 62
     7
100
AcDbLine
 10
7.8712070044
 20
1.2314211366
 30
0.0
 11
6.1796352514
 21
1.2314211366
 31
0.0
  0
LINE
  5
55
330
1F
100
AcDbEntity
  8
0
  6
CONTINUOUS
 62
     7
100
AcDbLine
 10
7.3921580388
 20
2.3564211366
 30
0.0
 11
7.3921580388
 21
1.2314211366
 31
0.0
  0
LINE
  5
56
330
1F
100
AcDbEntity
  8
0
  6
CONTINUOUS
 62
     7
100
AcDbLine
 10
6.9236308342
 20
2.3564211366
 30
0.0
 11
6.9236308342
 21
1.2314211366
 31
0.0
  0
LINE
  5
57
330
1F
100
AcDbEntity
  8
0
  6
CONTINUOUS
 62
     7
100
AcDbLine
 10
4.7981841288
 20
0.8557965305
 30
0.0
 11
6.1796352514
 21
0.8557965305
 31
0.0
  0
LINE
  5
58
330
1F
100
AcDbEntity
  8
0
  6
CONTINUOUS
 62
     7
100
AcDbLine
 10
4.7981841288
 20
1.1257965305
 30
0.0
 11
6.1796352514
 21
1.1257965305
 31
0.0
  0
LINE
  5
59
330
1F
100
AcDbEntity
  8
0
  6
CONTINUOUS
 62
     7
100
AcDbLine
 10
2.8210345579
 20
0.3920731707
 30
0.0
 11
2.8210345579
 21
2.3564211366
 31
0.0
  0
LINE
  5
5A
330
1F
100
AcDbEntity
  8
0
  6
CONTINUOUS
 62
     7
100
AcDbLine
 10
2.8210345579
 20
1.1064211366
 30
0.0
 11
4.7981841288
 21
1.1064211366
 31
0.0
  0
LINE
  5
5B
330
1F
100
AcDbEntity
  8
0
  6
CONTINUOUS
 62
     7
100
AcDbLine
 10
2.8210345579
 20
1.3564211366
 30
0.0
 11
4.7981841288
 21
1.3564211366
 31
0.0
  0
LINE
  5
5C
330
1F
100
AcDbEntity
  8
0
  6
CONTINUOUS
 62
     7
100
AcDbLine
 10
2.8210345579
 20
1.6064211366
 30
0.0
 11
4.7981841288
 21
1.6064211366
 31
0.0
  0
LINE
  5
5D
330
1F
100
AcDbEntity
  8
0
  6
CONTINUOUS
 62
     7
100
AcDbLine
 10
2.8210345579
 20
1.8564211366
 30
0.0
 11
4.7981841288
 21
1.8564211366
 31
0.0
  0
LINE
  5
5E
330
1F
100
AcDbEntity
  8
0
  6
CONTINUOUS
 62
     7
100
AcDbLine
 10
3.8190146875
 20
2.3564211366
 30
0.0
 11
3.8190146875
 21
0.5883479999
 31
0.0
  0
LINE
  5
5F
330
1F
100
AcDbEntity
  8
0
  6
CONTINUOUS
 62
     7
100
AcDbLine
 10
6.1796352514
 20
2.2020813496
 30
0.0
 11
4.7981841288
 21
2.2020813496
 31
0.0
  0
LINE
  5
60
330
1F
100
AcDbEntity
  8
0
  6
CONTINUOUS
 62
     7
100
AcDbLine
 10
7.8712070044
 20
1.6064211366
 30
0.0
 11
6.1796352514
 21
1.6064211366
 31
0.0
  0
LINE
  5
61
330
1F
100
AcDbEntity
  8
0
  6
CONTINUOUS
 62
     7
100
AcDbLine
 10
7.8712070044
 20
1.4189211366
 30
0.0
 11
6.1796352514
 21
1.4189211366
 31
0.0
  0
LINE
  5
62
330
1F
100
AcDbEntity
  8
0
  6
CONTINUOUS
 62
     7
100
AcDbLine
 10
2.8210345579
 20
2.1064211366
 30
0.0
 11
4.7981841288
 21
2.1064211366
 31
0.0
  0
LINE
  5
63
330
1F
100
AcDbEntity
  8
0
  6
CONTINUOUS
 62
     7
100
AcDbLine
 10
4.7981841288
 20
1.3957965305
 30
0.0
 11
6.1796352514
 21
1.3957965305
 31
0.0
  0
LINE
  5
64
330
1F
100
AcDbEntity
  8
0
  6
CONTINUOUS
 62
     7
100
AcDbLine
 10
2.8210345579
 20
0.8564211366
 30
0.0
 11
4.7981841288
 21
0.8564211366
 31
0.0
  0
LINE
  5
65
330
1F
100
AcDbEntity
  8
0
  6
CONTINUOUS
 62
     7
100
AcDbLine
 10
1.1838252943
 20
0.3920731707
 30
0.0
 11
1.1838252943
 21
1.3064211366
 31
0.0
  0
LINE
  5
66
330
1F
100
AcDbEntity
  8
0
  6
CONTINUOUS
 62
     7
100
AcDbLine
 10
2.8210345579
 20
1.3064211366
 30
0.0
 11
1.1838252943
 21
1.3064211366
 31
0.0
  0
LINE
  5
67
330
1F
100
AcDbEntity
  8
0
  6
CONTINUOUS
 62
     7
100
AcDbLine
 10
8.660927
 20
0.3920731707
 30
0.0
 11
8.660927
 21
0.3072739649
 31
0.0
  0
LINE
  5
68
330
1F
100
AcDbEntity
  8
0
  6
CONTINUOUS
 62
     7
100
AcDbLine
 10
6.692177
 20
0.3920731707
 30
0.0
 11
6.692177
 21
0.3072739649
 31
0.0
  0
LINE
  5
69
330
1F
100
AcDbEntity
  8
0
  6
CONTINUOUS
 62
     7
100
AcDbLine
 10
4.723427
 20
0.3920731707
 30
0.0
 11
4.723427
 21
0.3072739649
 31
0.0
  0
LINE
  5
6A
330
1F
100
AcDbEntity
  8
0
  6
CONTINUOUS
 62
     7
100
AcDbLine
 10
2.754677
 20
0.3920731707
 30
0.0
 11
2.754677
 21
0.3072739649
 31
0.0
  0
LINE
  5
6B
330
1F
100
AcDbEntity
  8
0
  6
CONTINUOUS
 62
     7
100
AcDbLine
 10
2.754677
 20
0.3920731707
 30
0.0
 11
2.7672319738
 21
0.3575
 31
0.0
  0
LINE
  5
6C
330
1F
100
AcDbEntity
  8
0
  6
CONTINUOUS
 62
     7
100
AcDbLine
 10
2.7672319738
 20
0.3575
 30
0.0
 11
2.7414258825
 21
0.3575
 31
0.0
  0
LINE
  5
6D
330
1F
100
AcDbEntity
  8
0
  6
CONTINUOUS
 62
     7
100
AcDbLine
 10
2.7414258825
 20
0.3575
 30
0.0
 11
2.754677
 21
0.3920731707
 31
0.0
  0
MTEXT
  5
91
330
1F
100
AcDbEntity
  8
0
  6
CONTINUOUS
 62
     7
100
AcDbMText
 10
4.9775846961
 20
0.5178452352
 30
0.0
 40
0.0625
 41
0.0
 71
     1
 72
     1
  1
DO NOT SCALE DRAWING
  7
SLDTEXTSTYLE0
  0
MTEXT
  5
92
330
1F
100
AcDbEntity
  8
0
  6
CONTINUOUS
 62
     7
100
AcDbMText
 10
8.8601675224
 20
0.9417064595
 30
0.0
 40
0.125
 41
0.0
 71
     1
 72
     1
  1
CL2-150
  7
SLDTEXTSTYLE0
  0
MTEXT
  5
94
330
1F
100
AcDbEntity
  8
0
  6
CONTINUOUS
 62
     7
100
AcDbMText
 10
9.7571278483
 20
0.5524239532
 30
0.0
 40
0.1
 41
0.0
 71
     1
 72
     1
  1
SHEET 1 OF 1
  7
SLDTEXTSTYLE1
  0
MTEXT
  5
95
330
1F
100
AcDbEntity
  8
0
  6
CONTINUOUS
 62
     7
100
AcDbMText
 10
4.8448077858
 20
2.3132954224
 30
0.0
 40
0.07
 41
0.0
 71
     1
 72
     1
  1
UNLESS OTHERWISE SPECIFIED:
  7
SLDTEXTSTYLE0
  0
MTEXT
  5
96
330
1F
100
AcDbEntity
  8
0
  6
CONTINUOUS
 62
     7
100
AcDbMText
 10
7.9586139647
 20
0.5520987879
 30
0.0
 40
0.1
 41
0.0
 71
     1
 72
     1
  1
SCALE: 1:1
  7
SLDTEXTSTYLE0
  0
MTEXT
  5
97
330
1F
100
AcDbEntity
  8
0
  6
CONTINUOUS
 62
     7
100
AcDbMText
 10
8.7023691647
 20
0.5486763345
 30
0.0
 40
0.1
 41
0.0
 71
     1
 72
     1
  1
WEIGHT: 
  7
SLDTEXTSTYLE0
  0
MTEXT
  5
98
330
1F
100
AcDbEntity
  8
0
  6
CONTINUOUS
 62
     7
100
AcDbMText
 10
10.2277580983
 20
1.081966299
 30
0.0
 40
0.1
 41
0.0
 71
     1
 72
     1
  1
REV
  7
SLDTEXTSTYLE0
  0
MTEXT
  5
9A
330
1F
100
AcDbEntity
  8
0
  6
CONTINUOUS
 62
     7
100
AcDbMText
 10
8.2984570898
 20
1.0858725293
 30
0.0
 40
0.1
 41
0.0
 71
     1
 72
     1
  1
DWG.  NO.
  7
SLDTEXTSTYLE2
  0
MTEXT
  5
9B
330
1F
100
AcDbEntity
  8
0
  6
CONTINUOUS
 62
     7
100
AcDbMText
 10
7.9598482632
 20
0.9442140768
 30
0.0
 40
0.25
 41
0.0
 71
     1
 72
     1
  1
A
  7
SLDTEXTSTYLE0
  0
MTEXT
  5
9C
330
1F
100
AcDbEntity
  8
0
  6
CONTINUOUS
 62
     7
100
AcDbMText
 10
7.9519581822
 20
1.0872713483
 30
0.0
 40
0.1
 41
0.0
 71
     1
 72
     1
  1
SIZE
  7
SLDTEXTSTYLE0
  0
MTEXT
  5
9D
330
1F
100
AcDbEntity
  8
0
  6
CONTINUOUS
 62
     7
100
AcDbMText
 10
7.9170704177
 20
1.9547881128
 30
0.0
 40
0.1
 41
0.0
 71
     1
 72
     1
  1
TITLE:
  7
SLDTEXTSTYLE0
  0
MTEXT
  5
9E
330
1F
100
AcDbEntity
  8
0
  6
CONTINUOUS
 62
     7
100
AcDbMText
 10
7.0363774929
 20
2.2906161274
 30
0.0
 40
0.065
 41
0.0
 71
     1
 72
     1
  1
NAME
  7
SLDTEXTSTYLE0
  0
MTEXT
  5
9F
330
1F
100
AcDbEntity
  8
0
  6
CONTINUOUS
 62
     7
100
AcDbMText
 10
7.5281510634
 20
2.2888799118
 30
0.0
 40
0.065
 41
0.0
 71
     1
 72
     1
  1
DATE
  7
SLDTEXTSTYLE0
  0
MTEXT
  5
A0
330
1F
100
AcDbEntity
  8
0
  6
CONTINUOUS
 62
     7
100
AcDbMText
 10
6.2277147029
 20
1.1876913145
 30
0.0
 40
0.065
 41
0.0
 71
     1
 72
     1
  1
COMMENTS:
  7
SLDTEXTSTYLE0
  0
MTEXT
  5
A1
330
1F
100
AcDbEntity
  8
0
  6
CONTINUOUS
 62
     7
100
AcDbMText
 10
6.2268411461
 20
1.3536101679
 30
0.0
 40
0.065
 41
0.0
 71
     1
 72
     1
  1
Q.A.
  7
SLDTEXTSTYLE0
  0
MTEXT
  5
A2
330
1F
100
AcDbEntity
  8
0
  6
CONTINUOUS
 62
     7
100
AcDbMText
 10
6.2284654509
 20
1.5395328424
 30
0.0
 40
0.065
 41
0.0
 71
     1
 72
     1
  1
MFG APPR.
  7
SLDTEXTSTYLE0
  0
MTEXT
  5
A3
330
1F
100
AcDbEntity
  8
0
  6
CONTINUOUS
 62
     7
100
AcDbMText
 10
6.2235171344
 20
1.7267501785
 30
0.0
 40
0.065
 41
0.0
 71
     1
 72
     1
  1
ENG APPR.
  7
SLDTEXTSTYLE0
  0
MTEXT
  5
A4
330
1F
100
AcDbEntity
  8
0
  6
CONTINUOUS
 62
     7
100
AcDbMText
 10
6.2264103951
 20
1.9092699088
 30
0.0
 40
0.065
 41
0.0
 71
     1
 72
     1
  1
CHECKED
  7
SLDTEXTSTYLE0
  0
MTEXT
  5
A5
330
1F
100
AcDbEntity
  8
0
  6
CONTINUOUS
 62
     7
100
AcDbMText
 10
6.2242794356
 20
2.1016301232
 30
0.0
 40
0.065
 41
0.0
 71
     1
 72
     1
  1
DRAWN
  7
SLDTEXTSTYLE0
  0
MTEXT
  5
A6
330
1F
100
AcDbEntity
  8
0
  6
CONTINUOUS
 62
     7
100
AcDbMText
 10
4.8208600979
 20
0.834523235
 30
0.0
 40
0.06
 41
0.0
 71
     1
 72
     1
  1
FINISH
  7
SLDTEXTSTYLE0
  0
MTEXT
  5
A7
330
1F
100
AcDbEntity
  8
0
  6
CONTINUOUS
 62
     7
100
AcDbMText
 10
4.8181240648
 20
1.1028217587
 30
0.0
 40
0.06
 41
0.0
 71
     1
 72
     1
  1
MATERIAL
  7
SLDTEXTSTYLE0
  0
INSERT
  5
AD
330
1F
100
AcDbEntity
  8
0
  6
CONTINUOUS
 62
     7
100
AcDbBlockReference
  2
SW_NOTE_0
 10
4.8231926633
 20
1.2646542947
 30
0.0
  0
INSERT
  5
BD
330
1F
100
AcDbEntity
  8
0
  6
CONTINUOUS
 62
     7
100
AcDbBlockReference
  2
SW_NOTE_1
 10
4.8353339353
 20
2.0049168724
 30
0.0
  0
MTEXT
  5
BE
330
1F
100
AcDbEntity
  8
0
  6
CONTINUOUS
 62
     7
100
AcDbMText
 10
3.5531400086
 20
0.5200091997
 30
0.0
 40
0.0625
 41
0.0
 71
     1
 72
     1
  1
APPLICATION
  7
SLDTEXTSTYLE0
  0
MTEXT
  5
BF
330
1F
100
AcDbEntity
  8
0
  6
CONTINUOUS
 62
     7
100
AcDbMText
 10
4.1005607758
 20
0.7502454275
 30
0.0
 40
0.0625
 41
0.0
 71
     1
 72
     1
  1
USED ON
  7
SLDTEXTSTYLE0
  0
MTEXT
  5
C0
330
1F
100
AcDbEntity
  8
0
  6
CONTINUOUS
 62
     7
100
AcDbMText
 10
3.1040019536
 20
0.7492094783
 30
0.0
 40
0.0625
 41
0.0
 71
     1
 72
     1
  1
NEXT ASSY
  7
SLDTEXTSTYLE0
  0
MTEXT
  5
C1
330
1F
100
AcDbEntity
  8
0
  6
CONTINUOUS
 62
     7
100
AcDbMText
 10
1.3712489489
 20
1.2496672684
 30
0.0
 40
0.06
 41
0.0
 71
     1
 72
     1
  1
PROPRIETARY AND CONFIDENTIAL
  7
SLDTEXTSTYLE0
  0
INSERT
  5
CC
330
1F
100
AcDbEntity
  8
0
  6
CONTINUOUS
 62
     7
100
AcDbBlockReference
  2
SW_NOTE_2
 10
1.2226209074
 20
1.0313492921
 30
0.0
  0
MTEXT
  5
CD
330
1F
100
AcDbEntity
  8
0
  6
CONTINUOUS
 62
     7
100
AcDbMText
 10
1.7387909509
 20
0.3105864247
 30
0.0
 40
0.09375
 41
0.0
 71
     1
 72
     1
  1
5
  7
SLDTEXTSTYLE0
  0
MTEXT
  5
CE
330
1F
100
AcDbEntity
  8
0
  6
CONTINUOUS
 62
     7
100
AcDbMText
 10
3.723800327
 20
0.3137237518
 30
0.0
 40
0.09375
 41
0.0
 71
     1
 72
     1
  1
4
  7
SLDTEXTSTYLE0
  0
MTEXT
  5
CF
330
1F
100
AcDbEntity
  8
0
  6
CONTINUOUS
 62
     7
100
AcDbMText
 10
5.6324457277
 20
0.3116191842
 30
0.0
 40
0.09375
 41
0.0
 71
     1
 72
     1
  1
3
  7
SLDTEXTSTYLE0
  0
MTEXT
  5
D0
330
1F
100
AcDbEntity
  8
0
  6
CONTINUOUS
 62
     7
100
AcDbMText
 10
7.6059721724
 20
0.3124391351
 30
0.0
 40
0.09375
 41
0.0
 71
     1
 72
     1
  1
2
  7
SLDTEXTSTYLE0
  0
MTEXT
  5
D1
330
1F
100
AcDbEntity
  8
0
  6
CONTINUOUS
 62
     7
100
AcDbMText
 10
9.6619921328
 20
0.301372012
 30
0.0
 40
0.09375
 41
0.0
 71
     1
 72
     1
  1
1
  7
SLDTEXTSTYLE0
  0
LINE
  5
D2
330
1F
100
AcDbEntity
  8
0
  6
CONTINUOUS
 62
     7
100
AcDbLine
 10
2.5916361034
 20
3.0067097825
 30
0.0
 11
4.0616361034
 21
3.0067097825
 31
0.0
  0
LINE
  5
D3
330
1F
100
AcDbEntity
  8
0
  6
CONTINUOUS
 62
     7
100
AcDbLine
 10
2.6456819455
 20
4.5067097825
 30
0.0
 11
2.5916361034
 21
4.5067097825
 31
0.0
  0
LINE
  5
D4
330
1F
100
AcDbEntity
  8
0
  6
CONTINUOUS
 62
     7
100
AcDbLine
 10
3.818910292
 20
4.5067097825
 30
0.0
 11
2.8343514586
 21
4.5067097825
 31
0.0
  0
LINE
  5
D5
330
1F
100
AcDbEntity
  8
0
  6
CONTINUOUS
 62
     7
100
AcDbLine
 10
4.0616361034
 20
4.5067097825
 30
0.0
 11
4.0075798051
 21
4.5067097825
 31
0.0
  0
LINE
  5
D6
330
1F
100
AcDbEntity
  8
0
  6
CONTINUOUS
 62
     7
100
AcDbLine
 10
4.0616361034
 20
3.0067097825
 30
0.0
 11
4.0766361034
 21
3.0217097825
 31
0.0
  0
LINE
  5
D7
330
1F
100
AcDbEntity
  8
0
  6
CONTINUOUS
 62
     7
100
AcDbLine
 10
4.0766361034
 20
4.4917097825
 30
0.0
 11
4.0616361034
 21
4.5067097825
 31
0.0
  0
LINE
  5
D8
330
1F
100
AcDbEntity
  8
0
  6
CONTINUOUS
 62
     7
100
AcDbLine
 10
2.5916361034
 20
4.5067097825
 30
0.0
 11
2.5766361034
 21
4.4917097825
 31
0.0
  0
LINE
  5
D9
330
1F
100
AcDbEntity
  8
0
  6
CONTINUOUS
 62
     7
100
AcDbLine
 10
2.5766361034
 20
3.0217097825
 30
0.0
 11
2.5916361034
 21
3.0067097825
 31
0.0
  0
LINE
  5
DA
330
1F
100
AcDbEntity
  8
0
  6
CONTINUOUS
 62
     7
100
AcDbLine
 10
2.8149534821
 20
4.5044553959
 30
0.0
 11
2.8126990955
 21
4.5067097825
 31
0.0
  0
LINE
  5
DB
330
1F
100
AcDbEntity
  8
0
  6
CONTINUOUS
 62
     7
100
AcDbLine
 10
2.6673447648
 20
4.5067097825
 30
0.0
 11
2.6650907295
 21
4.5044557472
 31
0.0
  0
LINE
  5
DC
330
1F
100
AcDbEntity
  8
0
  6
CONTINUOUS
 62
     7
100
AcDbLine
 10
3.9881818285
 20
4.5044553959
 30
0.0
 11
3.985927442
 21
4.5067097825
 31
0.0
  0
LINE
  5
DD
330
1F
100
AcDbEntity
  8
0
  6
CONTINUOUS
 62
     7
100
AcDbLine
 10
3.8405731113
 20
4.5067097825
 30
0.0
 11
3.838319076
 21
4.5044557472
 31
0.0
  0
LINE
  5
DE
330
1F
100
AcDbEntity
  8
0
  6
CONTINUOUS
 62
     7
100
AcDbLine
 10
4.0616361034
 20
3.0067097825
 30
0.0
 11
4.0616361034
 21
4.5067097825
 31
0.0
  0
LINE
  5
DF
330
1F
100
AcDbEntity
  8
0
  6
CONTINUOUS
 62
     7
100
AcDbLine
 10
2.5916361034
 20
4.5067097825
 30
0.0
 11
2.5916361034
 21
3.0067097825
 31
0.0
  0
POLYLINE
  5
E0
330
1F
100
AcDbEntity
  8
0
  6
CONTINUOUS
 62
     7
100
AcDb2dPolyline
 66
     1
 10
0.0
 20
0.0
 30
0.0
  0
VERTEX
  5
206
330
E0
100
AcDbEntity
  8
0
  6
CONTINUOUS
 62
     7
100
AcDbVertex
100
AcDb2dVertex
 10
2.8343514586
 20
4.5067084632
 30
0.0
  0
VERTEX
  5
207
330
E0
100
AcDbEntity
  8
0
  6
CONTINUOUS
 62
     7
100
AcDbVertex
100
AcDb2dVertex
 10
2.8343618567
 20
4.5067097749
 30
0.0
  0
VERTEX
  5
208
330
E0
100
AcDbEntity
  8
0
  6
CONTINUOUS
 62
     7
100
AcDbVertex
100
AcDb2dVertex
 10
2.8325420356
 20
4.506475751
 30
0.0
  0
VERTEX
  5
209
330
E0
100
AcDbEntity
  8
0
  6
CONTINUOUS
 62
     7
100
AcDbVertex
100
AcDb2dVertex
 10
2.827080317
 20
4.5058041665
 30
0.0
  0
VERTEX
  5
20A
330
E0
100
AcDbEntity
  8
0
  6
CONTINUOUS
 62
     7
100
AcDbVertex
100
AcDb2dVertex
 10
2.8183580204
 20
4.5047982594
 30
0.0
  0
VERTEX
  5
20B
330
E0
100
AcDbEntity
  8
0
  6
CONTINUOUS
 62
     7
100
AcDbVertex
100
AcDb2dVertex
 10
2.8066955888
 20
4.5036237618
 30
0.0
  0
VERTEX
  5
20C
330
E0
100
AcDbEntity
  8
0
  6
CONTINUOUS
 62
     7
100
AcDbVertex
100
AcDb2dVertex
 10
2.7924817473
 20
4.5024513897
 30
0.0
  0
VERTEX
  5
20D
330
E0
100
AcDbEntity
  8
0
  6
CONTINUOUS
 62
     7
100
AcDbVertex
100
AcDb2dVertex
 10
2.7760712951
 20
4.501448704
 30
0.0
  0
VERTEX
  5
20E
330
E0
100
AcDbEntity
  8
0
  6
CONTINUOUS
 62
     7
100
AcDbVertex
100
AcDb2dVertex
 10
2.7582807286
 20
4.5007674988
 30
0.0
  0
VERTEX
  5
20F
330
E0
100
AcDbEntity
  8
0
  6
CONTINUOUS
 62
     7
100
AcDbVertex
100
AcDb2dVertex
 10
2.7399715382
 20
4.5005314077
 30
0.0
  0
VERTEX
  5
210
330
E0
100
AcDbEntity
  8
0
  6
CONTINUOUS
 62
     7
100
AcDbVertex
100
AcDb2dVertex
 10
2.7216903624
 20
4.5007690362
 30
0.0
  0
VERTEX
  5
211
330
E0
100
AcDbEntity
  8
0
  6
CONTINUOUS
 62
     7
100
AcDbVertex
100
AcDb2dVertex
 10
2.703874625
 20
4.501453643
 30
0.0
  0
VERTEX
  5
212
330
E0
100
AcDbEntity
  8
0
  6
CONTINUOUS
 62
     7
100
AcDbVertex
100
AcDb2dVertex
 10
2.6874858562
 20
4.5024569646
 30
0.0
  0
VERTEX
  5
213
330
E0
100
AcDbEntity
  8
0
  6
CONTINUOUS
 62
     7
100
AcDbVertex
100
AcDb2dVertex
 10
2.6732691121
 20
4.5036310938
 30
0.0
  0
VERTEX
  5
214
330
E0
100
AcDbEntity
  8
0
  6
CONTINUOUS
 62
     7
100
AcDbVertex
100
AcDb2dVertex
 10
2.6616383371
 20
4.5048038634
 30
0.0
  0
VERTEX
  5
215
330
E0
100
AcDbEntity
  8
0
  6
CONTINUOUS
 62
     7
100
AcDbVertex
100
AcDb2dVertex
 10
2.6529244928
 20
4.5058098551
 30
0.0
  0
VERTEX
  5
216
330
E0
100
AcDbEntity
  8
0
  6
CONTINUOUS
 62
     7
100
AcDbVertex
100
AcDb2dVertex
 10
2.6474827969
 20
4.50647857
 30
0.0
  0
VERTEX
  5
217
330
E0
100
AcDbEntity
  8
0
  6
CONTINUOUS
 62
     7
100
AcDbVertex
100
AcDb2dVertex
 10
2.6456819455
 20
4.5067097825
 30
0.0
  0
VERTEX
  5
218
330
E0
100
AcDbEntity
  8
0
  6
CONTINUOUS
 62
     7
100
AcDbVertex
100
AcDb2dVertex
 10
2.6456819455
 20
4.5067097825
 30
0.0
  0
SEQEND
  5
219
330
E0
100
AcDbEntity
  8
0
  6
CONTINUOUS
 62
     7
  0
POLYLINE
  5
E1
330
1F
100
AcDbEntity
  8
0
  6
CONTINUOUS
 62
     7
100
AcDb2dPolyline
 66
     1
 10
0.0
 20
0.0
 30
0.0
  0
VERTEX
  5
21A
330
E1
100
AcDbEntity
  8
0
  6
CONTINUOUS
 62
     7
100
AcDbVertex
100
AcDb2dVertex
 10
4.0075798051
 20
4.5067084632
 30
0.0
  0
VERTEX
  5
21B
330
E1
100
AcDbEntity
  8
0
  6
CONTINUOUS
 62
     7
100
AcDbVertex
100
AcDb2dVertex
 10
4.0075902032
 20
4.5067097749
 30
0.0
  0
VERTEX
  5
21C
330
E1
100
AcDbEntity
  8
0
  6
CONTINUOUS
 62
     7
100
AcDbVertex
100
AcDb2dVertex
 10
4.0057703821
 20
4.506475751
 30
0.0
  0
VERTEX
  5
21D
330
E1
100
AcDbEntity
  8
0
  6
CONTINUOUS
 62
     7
100
AcDbVertex
100
AcDb2dVertex
 10
4.0003086635
 20
4.5058041665
 30
0.0
  0
VERTEX
  5
21E
330
E1
100
AcDbEntity
  8
0
  6
CONTINUOUS
 62
     7
100
AcDbVertex
100
AcDb2dVertex
 10
3.9915863668
 20
4.5047982594
 30
0.0
  0
VERTEX
  5
21F
330
E1
100
AcDbEntity
  8
0
  6
CONTINUOUS
 62
     7
100
AcDbVertex
100
AcDb2dVertex
 10
3.9799239353
 20
4.5036237618
 30
0.0
  0
VERTEX
  5
220
330
E1
100
AcDbEntity
  8
0
  6
CONTINUOUS
 62
     7
100
AcDbVertex
100
AcDb2dVertex
 10
3.9657100938
 20
4.5024513897
 30
0.0
  0
VERTEX
  5
221
330
E1
100
AcDbEntity
  8
0
  6
CONTINUOUS
 62
     7
100
AcDbVertex
100
AcDb2dVertex
 10
3.9492996415
 20
4.501448704
 30
0.0
  0
VERTEX
  5
222
330
E1
100
AcDbEntity
  8
0
  6
CONTINUOUS
 62
     7
100
AcDbVertex
100
AcDb2dVertex
 10
3.9315090751
 20
4.5007674988
 30
0.0
  0
VERTEX
  5
223
330
E1
100
AcDbEntity
  8
0
  6
CONTINUOUS
 62
     7
100
AcDbVertex
100
AcDb2dVertex
 10
3.9131998847
 20
4.5005314077
 30
0.0
  0
VERTEX
  5
224
330
E1
100
AcDbEntity
  8
0
  6
CONTINUOUS
 62
     7
100
AcDbVertex
100
AcDb2dVertex
 10
3.8949187089
 20
4.5007690362
 30
0.0
  0
VERTEX
  5
225
330
E1
100
AcDbEntity
  8
0
  6
CONTINUOUS
 62
     7
100
AcDbVertex
100
AcDb2dVertex
 10
3.8771029715
 20
4.501453643
 30
0.0
  0
VERTEX
  5
226
330
E1
100
AcDbEntity
  8
0
  6
CONTINUOUS
 62
     7
100
AcDbVertex
100
AcDb2dVertex
 10
3.8607142027
 20
4.5024569646
 30
0.0
  0
VERTEX
  5
227
330
E1
100
AcDbEntity
  8
0
  6
CONTINUOUS
 62
     7
100
AcDbVertex
100
AcDb2dVertex
 10
3.8464974586
 20
4.5036310938
 30
0.0
  0
VERTEX
  5
228
330
E1
100
AcDbEntity
  8
0
  6
CONTINUOUS
 62
     7
100
AcDbVertex
100
AcDb2dVertex
 10
3.8348666835
 20
4.5048038634
 30
0.0
  0
VERTEX
  5
229
330
E1
100
AcDbEntity
  8
0
  6
CONTINUOUS
 62
     7
100
AcDbVertex
100
AcDb2dVertex
 10
3.8261528393
 20
4.5058098551
 30
0.0
  0
VERTEX
  5
22A
330
E1
100
AcDbEntity
  8
0
  6
CONTINUOUS
 62
     7
100
AcDbVertex
100
AcDb2dVertex
 10
3.8207111433
 20
4.50647857
 30
0.0
  0
VERTEX
  5
22B
330
E1
100
AcDbEntity
  8
0
  6
CONTINUOUS
 62
     7
100
AcDbVertex
100
AcDb2dVertex
 10
3.818910292
 20
4.5067097825
 30
0.0
  0
VERTEX
  5
22C
330
E1
100
AcDbEntity
  8
0
  6
CONTINUOUS
 62
     7
100
AcDbVertex
100
AcDb2dVertex
 10
3.818910292
 20
4.5067097825
 30
0.0
  0
SEQEND
  5
22D
330
E1
100
AcDbEntity
  8
0
  6
CONTINUOUS
 62
     7
  0
LINE
  5
E2
330
1F
100
AcDbEntity
  8
0
  6
CONTINUOUS
 62
     7
100
AcDbLine
 10
4.0766361034
 20
4.4917097825
 30
0.0
 11
4.0766361034
 21
3.0217097825
 31
0.0
  0
LINE
  5
E3
330
1F
100
AcDbEntity
  8
0
  6
CONTINUOUS
 62
     7
100
AcDbLine
 10
2.5766361034
 20
3.0217097825
 30
0.0
 11
2.5766361034
 21
4.4917097825
 31
0.0
  0
LINE
  5
E4
330
1F
100
AcDbEntity
  8
0
  6
CONTINUOUS
 62
     7
100
AcDbLine
 10
2.8126990955
 20
4.5067097825
 30
0.0
 11
2.6673447648
 21
4.5067097825
 31
0.0
  0
LINE
  5
E5
330
1F
100
AcDbEntity
  8
0
  6
CONTINUOUS
 62
     7
100
AcDbLine
 10
3.8405731113
 20
4.5067097825
 30
0.0
 11
3.985927442
 21
4.5067097825
 31
0.0
  0
LINE
  5
E6
330
1F
100
AcDbEntity
  8
0
  6
HIDDEN
 62
     7
100
AcDbLine
 10
3.2766361034
 20
3.9291900974
 30
0.0
 11
3.2766361034
 21
3.5842294675
 31
0.0
  0
LINE
  5
E7
330
1F
100
AcDbEntity
  8
0
  6
HIDDEN
 62
     7
100
AcDbLine
 10
3.3766361034
 20
3.9291900974
 30
0.0
 11
3.3766361034
 21
3.5842294675
 31
0.0
  0
LINE
  5
E8
330
1F
100
AcDbEntity
  8
0
  6
HIDDEN
 62
     7
100
AcDbLine
 10
2.7400219302
 20
3.8907416292
 30
0.0
 11
2.7366639315
 21
3.8908987311
 31
0.0
  0
SPLINE
  5
E9
330
1F
100
AcDbEntity
  8
0
  6
HIDDEN
 62
     7
100
AcDbSpline
210
0.0
220
0.0
230
1.0
 70
     8
 71
     3
 72
    28
 73
    24
 74
     0
 42
0.00000001
 43
0.00000001
 40
0.0
 40
0.0
 40
0.0
 40
0.0
 40
0.0167392699681736
 40
0.0633378122615667
 40
0.1112633245424437
 40
0.1585583474032454
 40
0.2069916517225379
 40
0.2590870418622316
 40
0.3124883720256216
 40
0.368249374227905
 40
0.425899105915662
 40
0.4769891053179335
 40
0.5300236594044603
 40
0.5748845294269596
 40
0.6209499418005748
 40
0.6679565202274417
 40
0.7160147826028413
 40
0.769592580337333
 40
0.8246047299849872
 40
0.8799400495022215
 40
0.9372288218481121
 40
0.9871785055457818
 40
1.0
 40
1.0
 40
1.0
 40
1.0
 10
2.657603368306504
 20
3.914054582878641
 30
0.0
 10
2.657528963936714
 20
3.91409355870888
 30
0.0
 10
2.65724743373772
 20
3.914241034902469
 30
0.0
 10
2.65884740606997
 20
3.913401467911953
 30
0.0
 10
2.662158542020275
 20
3.911702858021286
 30
0.0
 10
2.667380155514392
 20
3.909130934104381
 30
0.0
 10
2.674312442911477
 20
3.905927916293977
 30
0.0
 10
2.683105771657418
 20
3.902233237439429
 30
0.0
 10
2.693835640137606
 20
3.898335548966104
 30
0.0
 10
2.706368736734831
 20
3.894697021819872
 30
0.0
 10
2.719951780653845
 20
3.892000728733764
 30
0.0
 10
2.734062468705388
 20
3.890636240477332
 30
0.0
 10
2.747292307082286
 20
3.89073024502836
 30
0.0
 10
2.75979764913552
 20
3.892029837919742
 30
0.0
 10
2.771238796045111
 20
3.89418432676139
 30
0.0
 10
2.782135549952315
 20
3.897082491026571
 30
0.0
 10
2.792561649528456
 20
3.9005686200954
 30
0.0
 10
2.802212996033514
 20
3.904388960813018
 30
0.0
 10
2.810597983087808
 20
3.908138998275431
 30
0.0
 10
2.817216521179768
 20
3.911359164976714
 30
0.0
 10
2.821175207524351
 20
3.913389465221812
 30
0.0
 10
2.822863975825087
 20
3.914276431346988
 30
0.0
 10
2.822551901016396
 20
3.914112982591933
 30
0.0
 10
2.822488157343794
 20
3.914079596930421
 30
0.0
  0
LINE
  5
EA
330
1F
100
AcDbEntity
  8
0
  6
HIDDEN
 62
     7
100
AcDbLine
 10
2.7444244619
 20
3.8909522453
 30
0.0
 11
2.7400219302
 21
3.8907416292
 31
0.0
  0
SPLINE
  5
EB
330
1F
100
AcDbEntity
  8
0
  6
HIDDEN
 62
     7
100
AcDbSpline
210
0.0
220
0.0
230
1.0
 70
     8
 71
     3
 72
    64
 73
    60
 74
     0
 42
0.00000001
 43
0.00000001
 40
-0.0312500000000001
 40
-0.0312500000000001
 40
0.0
 40
0.0
 40
0.0312499999999998
 40
0.0312499999999998
 40
0.0624999999999996
 40
0.0624999999999996
 40
0.1249999999999994
 40
0.1249999999999994
 40
0.1562499999999994
 40
0.1562499999999994
 40
0.1874999999999993
 40
0.1874999999999993
 40
0.2187499999999993
 40
0.2187499999999993
 40
0.2499999999999992
 40
0.2499999999999992
 40
0.2812499999999992
 40
0.2812499999999992
 40
0.3124999999999991
 40
0.3124999999999991
 40
0.3437499999999991
 40
0.3437499999999991
 40
0.374999999999999
 40
0.374999999999999
 40
0.4374999999999989
 40
0.4374999999999989
 40
0.4687499999999989
 40
0.4687499999999989
 40
0.4999999999999989
 40
0.4999999999999989
 40
0.5312499999999989
 40
0.5312499999999989
 40
0.5624999999999989
 40
0.5624999999999989
 40
0.5937499999999989
 40
0.5937499999999989
 40
0.6249999999999989
 40
0.6249999999999989
 40
0.6562499999999989
 40
0.6562499999999989
 40
0.6874999999999989
 40
0.6874999999999989
 40
0.7499999999999991
 40
0.7499999999999991
 40
0.7812499999999992
 40
0.7812499999999992
 40
0.8124999999999993
 40
0.8124999999999993
 40
0.8437499999999994
 40
0.8437499999999994
 40
0.8749999999999996
 40
0.8749999999999996
 40
0.9062499999999997
 40
0.9062499999999997
 40
0.9374999999999998
 40
0.9374999999999998
 40
0.9687499999999999
 40
0.9687499999999999
 40
1.0
 40
1.0
 40
1.03125
 40
1.03125
 10
2.657344764801875
 20
3.751139957688539
 30
0.0
 10
2.657344764801875
 20
3.76227960722154
 30
0.0
 10
2.657901701561634
 20
3.767737732683496
 30
0.0
 10
2.660066208389251
 20
3.778445241672439
 30
0.0
 10
2.661703568618366
 20
3.783747076095547
 30
0.0
 10
2.667990154331959
 20
3.79870985702667
 30
0.0
 10
2.674109969421401
 20
3.807728657580979
 30
0.0
 10
2.685330600957254
 20
3.818937764990856
 30
0.0
 10
2.689463038298778
 20
3.82234345859587
 30
0.0
 10
2.698318466081248
 20
3.828297505381245
 30
0.0
 10
2.702992420549264
 20
3.830825002085994
 30
0.0
 10
2.712873263350613
 20
3.834986217308411
 30
0.0
 10
2.71815826993465
 20
3.836630339377821
 30
0.0
 10
2.7288563690148
 20
3.83881121546037
 30
0.0
 10
2.734283206919303
 20
3.839371291647824
 30
0.0
 10
2.74530031002414
 20
3.839401963176002
 30
0.0
 10
2.750880864625429
 20
3.838852401897552
 30
0.0
 10
2.76158904040657
 20
3.83671094583491
 30
0.0
 10
2.766846267967712
 20
3.835101718830941
 30
0.0
 10
2.776842732836318
 20
3.830932887198653
 30
0.0
 10
2.781546153753153
 20
3.828401920526671
 30
0.0
 10
2.790422842842004
 20
3.822465176203764
 30
0.0
 10
2.794574028712985
 20
3.819060023092744
 30
0.0
 10
2.8058235950278
 20
3.807871640759418
 30
0.0
 10
2.811971141675073
 20
3.798834143600462
 30
0.0
 10
2.818257444649381
 20
3.783979311884107
 30
0.0
 10
2.81990584812378
 20
3.778718729754118
 30
0.0
 10
2.822118990889032
 20
3.767930599274438
 30
0.0
 10
2.822680332285757
 20
3.762484139245669
 30
0.0
 10
2.822716942643411
 20
3.751485842495857
 30
0.0
 10
2.82217084586042
 20
3.745889734516429
 30
0.0
 10
2.820025367895822
 20
3.735146671858111
 30
0.0
 10
2.818429796201434
 20
3.729921424933011
 30
0.0
 10
2.81421915625535
 20
3.719829148028731
 30
0.0
 10
2.811666439344049
 20
3.715102813523913
 30
0.0
 10
2.805713556468598
 20
3.7062252720302
 30
0.0
 10
2.802279754523378
 20
3.702050904408903
 30
0.0
 10
2.794787384183933
 20
3.694545687598498
 30
0.0
 10
2.790711788931011
 20
3.691176375953119
 30
0.0
 10
2.781850718214451
 20
3.685194457943897
 30
0.0
 10
2.777098960367895
 20
3.682618660059752
 30
0.0
 10
2.762294900951552
 20
3.676371895332493
 30
0.0
 10
2.751241263502768
 20
3.674066353468725
 30
0.0
 10
2.734789401096626
 20
3.674016322364471
 30
0.0
 10
2.729206549239942
 20
3.674559308410667
 30
0.0
 10
2.718436003106053
 20
3.676711528702445
 30
0.0
 10
2.713242352845645
 20
3.678301129129927
 30
0.0
 10
2.70320676140765
 20
3.682482388406714
 30
0.0
 10
2.698461077630679
 20
3.685039976165644
 30
0.0
 10
2.689611059726671
 20
3.690963225596565
 30
0.0
 10
2.685443415993121
 20
3.694380367731522
 30
0.0
 10
2.677910914454721
 20
3.70188285589011
 30
0.0
 10
2.674532292833722
 20
3.705963150058867
 30
0.0
 10
2.668540420889653
 20
3.714822945272478
 30
0.0
 10
2.665927018495388
 20
3.719634892426436
 30
0.0
 10
2.661738290980819
 20
3.729575390217232
 30
0.0
 10
2.660123847852579
 20
3.734750891723967
 30
0.0
 10
2.657915947559541
 20
3.745551643731556
 30
0.0
 10
2.657344764801875
 20
3.751139957688539
 30
0.0
 10
2.657344764801875
 20
3.76227960722154
 30
0.0
  0
LINE
  5
EC
330
1F
100
AcDbEntity
  8
0
  6
HIDDEN
 62
     7
100
AcDbLine
 10
3.9132502766
 20
3.8907416292
 30
0.0
 11
3.9098922779
 21
3.8908987311
 31
0.0
  0
SPLINE
  5
ED
330
1F
100
AcDbEntity
  8
0
  6
HIDDEN
 62
     7
100
AcDbSpline
210
0.0
220
0.0
230
1.0
 70
     8
 71
     3
 72
    28
 73
    24
 74
     0
 42
0.00000001
 43
0.00000001
 40
0.0
 40
0.0
 40
0.0
 40
0.0
 40
0.0167392699681737
 40
0.0633378122615666
 40
0.1112633245424435
 40
0.1585583474032454
 40
0.2069916517225376
 40
0.2590870418622316
 40
0.3124883720256214
 40
0.368249374227905
 40
0.425899105915662
 40
0.4769891053179338
 40
0.5300236594044606
 40
0.5748845294269597
 40
0.6209499418005748
 40
0.6679565202274422
 40
0.7160147826028415
 40
0.7695925803373334
 40
0.8246047299849875
 40
0.8799400495022215
 40
0.9372288218481121
 40
0.9871785055457818
 40
1.0
 40
1.0
 40
1.0
 40
1.0
 10
3.830831714763197
 20
3.914054582878641
 30
0.0
 10
3.830757310393407
 20
3.91409355870888
 30
0.0
 10
3.830475780194414
 20
3.914241034902469
 30
0.0
 10
3.832075752526663
 20
3.913401467911953
 30
0.0
 10
3.835386888476967
 20
3.911702858021286
 30
0.0
 10
3.840608501971085
 20
3.909130934104381
 30
0.0
 10
3.847540789368171
 20
3.905927916293977
 30
0.0
 10
3.856334118114111
 20
3.902233237439429
 30
0.0
 10
3.867063986594299
 20
3.898335548966104
 30
0.0
 10
3.879597083191524
 20
3.894697021819872
 30
0.0
 10
3.893180127110537
 20
3.892000728733764
 30
0.0
 10
3.907290815162081
 20
3.890636240477332
 30
0.0
 10
3.920520653538979
 20
3.89073024502836
 30
0.0
 10
3.933025995592213
 20
3.892029837919742
 30
0.0
 10
3.944467142501804
 20
3.89418432676139
 30
0.0
 10
3.955363896409009
 20
3.897082491026571
 30
0.0
 10
3.965789995985149
 20
3.9005686200954
 30
0.0
 10
3.975441342490208
 20
3.904388960813018
 30
0.0
 10
3.983826329544502
 20
3.908138998275431
 30
0.0
 10
3.99044486763646
 20
3.911359164976714
 30
0.0
 10
3.994403553981045
 20
3.913389465221812
 30
0.0
 10
3.99609232228178
 20
3.914276431346988
 30
0.0
 10
3.995780247473089
 20
3.914112982591933
 30
0.0
 10
3.995716503800487
 20
3.914079596930421
 30
0.0
  0
LINE
  5
EE
330
1F
100
AcDbEntity
  8
0
  6
HIDDEN
 62
     7
100
AcDbLine
 10
3.9176528083
 20
3.8909522453
 30
0.0
 11
3.9132502766
 21
3.8907416292
 31
0.0
  0
SPLINE
  5
EF
330
1F
100
AcDbEntity
  8
0
  6
HIDDEN
 62
     7
100
AcDbSpline
210
0.0
220
0.0
230
1.0
 70
     8
 71
     3
 72
    64
 73
    60
 74
     0
 42
0.00000001
 43
0.00000001
 40
-0.03125
 40
-0.03125
 40
0.0
 40
0.0
 40
0.03125
 40
0.03125
 40
0.0624999999999999
 40
0.0624999999999999
 40
0.1249999999999999
 40
0.1249999999999999
 40
0.1562499999999999
 40
0.1562499999999999
 40
0.1874999999999999
 40
0.1874999999999999
 40
0.2187499999999999
 40
0.2187499999999999
 40
0.2499999999999999
 40
0.2499999999999999
 40
0.2812499999999999
 40
0.2812499999999999
 40
0.3125
 40
0.3125
 40
0.34375
 40
0.34375
 40
0.3750000000000001
 40
0.3750000000000001
 40
0.4375000000000001
 40
0.4375000000000001
 40
0.4687500000000001
 40
0.4687500000000001
 40
0.5000000000000001
 40
0.5000000000000001
 40
0.5312500000000001
 40
0.5312500000000001
 40
0.5625
 40
0.5625
 40
0.59375
 40
0.59375
 40
0.625
 40
0.625
 40
0.65625
 40
0.65625
 40
0.6874999999999999
 40
0.6874999999999999
 40
0.7500000000000002
 40
0.7500000000000002
 40
0.7812500000000002
 40
0.7812500000000002
 40
0.8125000000000001
 40
0.8125000000000001
 40
0.8437500000000001
 40
0.8437500000000001
 40
0.8750000000000001
 40
0.8750000000000001
 40
0.9062500000000001
 40
0.9062500000000001
 40
0.9375
 40
0.9375
 40
0.96875
 40
0.96875
 40
1.0
 40
1.0
 40
1.03125
 40
1.03125
 10
3.830573111258568
 20
3.751139957688539
 30
0.0
 10
3.830573111258568
 20
3.76227960722154
 30
0.0
 10
3.831130048018327
 20
3.767737732683496
 30
0.0
 10
3.833294554845943
 20
3.778445241672439
 30
0.0
 10
3.834931915075059
 20
3.783747076095547
 30
0.0
 10
3.841218500788652
 20
3.79870985702667
 30
0.0
 10
3.847338315878095
 20
3.807728657580979
 30
0.0
 10
3.858558947413947
 20
3.818937764990856
 30
0.0
 10
3.862691384755472
 20
3.82234345859587
 30
0.0
 10
3.871546812537941
 20
3.828297505381245
 30
0.0
 10
3.876220767005957
 20
3.830825002085994
 30
0.0
 10
3.886101609807306
 20
3.834986217308411
 30
0.0
 10
3.891386616391343
 20
3.836630339377821
 30
0.0
 10
3.902084715471494
 20
3.83881121546037
 30
0.0
 10
3.907511553375997
 20
3.839371291647824
 30
0.0
 10
3.918528656480833
 20
3.839401963176002
 30
0.0
 10
3.924109211082123
 20
3.838852401897552
 30
0.0
 10
3.934817386863263
 20
3.83671094583491
 30
0.0
 10
3.940074614424405
 20
3.835101718830941
 30
0.0
 10
3.95007107929301
 20
3.830932887198653
 30
0.0
 10
3.954774500209846
 20
3.828401920526671
 30
0.0
 10
3.963651189298697
 20
3.822465176203764
 30
0.0
 10
3.967802375169678
 20
3.819060023092744
 30
0.0
 10
3.979051941484493
 20
3.807871640759418
 30
0.0
 10
3.985199488131766
 20
3.798834143600462
 30
0.0
 10
3.991485791106074
 20
3.783979311884107
 30
0.0
 10
3.993134194580474
 20
3.778718729754118
 30
0.0
 10
3.995347337345725
 20
3.767930599274438
 30
0.0
 10
3.995908678742451
 20
3.762484139245669
 30
0.0
 10
3.995945289100105
 20
3.751485842495857
 30
0.0
 10
3.995399192317114
 20
3.745889734516429
 30
0.0
 10
3.993253714352515
 20
3.735146671858111
 30
0.0
 10
3.991658142658127
 20
3.729921424933011
 30
0.0
 10
3.987447502712043
 20
3.719829148028732
 30
0.0
 10
3.984894785800743
 20
3.715102813523913
 30
0.0
 10
3.978941902925291
 20
3.7062252720302
 30
0.0
 10
3.975508100980071
 20
3.702050904408903
 30
0.0
 10
3.968015730640626
 20
3.694545687598499
 30
0.0
 10
3.963940135387704
 20
3.691176375953119
 30
0.0
 10
3.955079064671145
 20
3.685194457943897
 30
0.0
 10
3.950327306824589
 20
3.682618660059752
 30
0.0
 10
3.935523247408245
 20
3.676371895332493
 30
0.0
 10
3.924469609959461
 20
3.674066353468725
 30
0.0
 10
3.908017747553319
 20
3.67401632236447
 30
0.0
 10
3.902434895696636
 20
3.674559308410667
 30
0.0
 10
3.891664349562747
 20
3.676711528702445
 30
0.0
 10
3.886470699302338
 20
3.678301129129927
 30
0.0
 10
3.876435107864344
 20
3.682482388406714
 30
0.0
 10
3.871689424087373
 20
3.685039976165644
 30
0.0
 10
3.862839406183364
 20
3.690963225596565
 30
0.0
 10
3.858671762449814
 20
3.694380367731522
 30
0.0
 10
3.851139260911413
 20
3.70188285589011
 30
0.0
 10
3.847760639290415
 20
3.705963150058867
 30
0.0
 10
3.841768767346346
 20
3.714822945272478
 30
0.0
 10
3.839155364952082
 20
3.719634892426436
 30
0.0
 10
3.834966637437512
 20
3.729575390217232
 30
0.0
 10
3.833352194309271
 20
3.734750891723967
 30
0.0
 10
3.831144294016234
 20
3.745551643731556
 30
0.0
 10
3.830573111258568
 20
3.751139957688539
 30
0.0
 10
3.830573111258568
 20
3.76227960722154
 30
0.0
  0
SPLINE
  5
F0
330
1F
100
AcDbEntity
  8
0
  6
HIDDEN
 62
     7
100
AcDbSpline
210
0.0
220
0.0
230
1.0
 70
     8
 71
     3
 72
    25
 73
    21
 74
     0
 42
0.00000001
 43
0.00000001
 40
0.0
 40
0.0
 40
0.0
 40
0.0
 40
0.0217270919097304
 40
0.0449787813259452
 40
0.0697578510679288
 40
0.096066567696554
 40
0.1239067924401945
 40
0.1532800635308242
 40
0.1841876583234802
 40
0.2166306408552978
 40
0.2506098987426554
 40
0.3480378139684829
 40
0.4314325807681813
 40
0.5008007370685502
 40
0.6098302752605691
 40
0.7500189498370279
 40
0.8471305371516337
 40
0.930448729165695
 40
0.9999816379060358
 40
1.0
 40
1.0
 40
1.0
 40
1.0
 10
2.657344764801875
 20
4.493205978759716
 30
0.0
 10
2.657381881739134
 20
4.493198282093313
 30
0.0
 10
2.657458720121895
 20
4.49318234868278
 30
0.0
 10
2.658111930102665
 20
4.493063238527628
 30
0.0
 10
2.659254080072307
 20
4.492876144779384
 30
0.0
 10
2.661008660581191
 20
4.492612735558746
 30
0.0
 10
2.663446196388391
 20
4.492275344900236
 30
0.0
 10
2.666648836705082
 20
4.491863539321531
 30
0.0
 10
2.67068657402767
 20
4.491376262725407
 30
0.0
 10
2.675623251854823
 20
4.490818429787548
 30
0.0
 10
2.685061297014747
 20
4.48977625008726
 30
0.0
 10
2.700243462009497
 20
4.488480949876618
 30
0.0
 10
2.72075857115618
 20
4.487432484410202
 30
0.0
 10
2.743398446044058
 20
4.486936685196323
 30
0.0
 10
2.771059098990073
 20
4.487833918553109
 30
0.0
 10
2.797169447105517
 20
4.489901913208162
 30
0.0
 10
2.81373781685787
 20
4.491879825281073
 30
0.0
 10
2.821229969913425
 20
4.492911626318534
 30
0.0
 10
2.8226926141816
 20
4.493205532703908
 30
0.0
 10
2.822699048078365
 20
4.493205971564679
 30
0.0
 10
2.822699049776965
 20
4.493205971680541
 30
0.0
  0
SPLINE
  5
F1
330
1F
100
AcDbEntity
  8
0
  6
HIDDEN
 62
     7
100
AcDbSpline
210
0.0
220
0.0
230
1.0
 70
     8
 71
     3
 72
    25
 73
    21
 74
     0
 42
0.00000001
 43
0.00000001
 40
0.0
 40
0.0
 40
0.0
 40
0.0
 40
0.0217270919096074
 40
0.0449787813257306
 40
0.0697578510676538
 40
0.0960665676962493
 40
0.1239067924398916
 40
0.1532800635305539
 40
0.1841876583232738
 40
0.216630640855186
 40
0.2506098987426695
 40
0.3480378139708472
 40
0.4314325807705501
 40
0.5008007370685668
 40
0.6098302752591892
 40
0.7500189498370387
 40
0.8471305371549518
 40
0.9304487291690183
 40
0.9999816379060356
 40
1.0
 40
1.0
 40
1.0
 40
1.0
 10
3.830573111258568
 20
4.493205978759716
 30
0.0
 10
3.830610228195827
 20
4.493198282093313
 30
0.0
 10
3.830687066578586
 20
4.49318234868278
 30
0.0
 10
3.83134027655935
 20
4.493063238527628
 30
0.0
 10
3.832482426528985
 20
4.492876144779384
 30
0.0
 10
3.83423700703786
 20
4.492612735558745
 30
0.0
 10
3.836674542845055
 20
4.492275344900235
 30
0.0
 10
3.839877183161743
 20
4.49186353932153
 30
0.0
 10
3.843914920484334
 20
4.491376262725407
 30
0.0
 10
3.848851598311497
 20
4.490818429787548
 30
0.0
 10
3.858289643471566
 20
4.489776250087248
 30
0.0
 10
3.873471808466546
 20
4.488480949876592
 30
0.0
 10
3.893986917613282
 20
4.48743248441016
 30
0.0
 10
3.916626792500834
 20
4.486936685196329
 30
0.0
 10
3.944287445446634
 20
4.487833918553205
 30
0.0
 10
3.970397793562389
 20
4.48990191320817
 30
0.0
 10
3.98696616331488
 20
4.491879825281076
 30
0.0
 10
3.994458316370231
 20
4.492911626318429
 30
0.0
 10
3.995920960638275
 20
4.493205532704065
 30
0.0
 10
3.995927394535058
 20
4.493205971564679
 30
0.0
 10
3.995927396233659
 20
4.493205971680541
 30
0.0
  0
CIRCLE
  5
F2
330
1F
100
AcDbEntity
  8
0
  6
HIDDEN
 62
     7
100
AcDbCircle
 10
3.9132502766
 20
3.7567097825
 30
0.0
 40
0.0726771653543308
  0
POLYLINE
  5
F3
330
1F
100
AcDbEntity
  8
0
  6
HIDDEN
 62
     7
100
AcDb2dPolyline
 66
     1
 10
0.0
 20
0.0
 30
0.0
  0
VERTEX
  5
22E
330
F3
100
AcDbEntity
  8
0
  6
HIDDEN
 62
     7
100
AcDbVertex
100
AcDb2dVertex
 10
3.995927442
 20
3.7567097825
 30
0.0
  0
VERTEX
  5
22F
330
F3
100
AcDbEntity
  8
0
  6
HIDDEN
 62
     7
100
AcDbVertex
100
AcDb2dVertex
 10
3.9950040063
 20
3.7443873904
 30
0.0
  0
VERTEX
  5
230
330
F3
100
AcDbEntity
  8
0
  6
HIDDEN
 62
     7
100
AcDbVertex
100
AcDb2dVertex
 10
3.9927671413
 20
3.7340695108
 30
0.0
  0
SEQEND
  5
231
330
F3
100
AcDbEntity
  8
0
  6
HIDDEN
 62
     7
  0
ARC
  5
F4
330
1F
100
AcDbEntity
  8
0
  6
HIDDEN
 62
     7
100
AcDbCircle
 10
3.9132502766
 20
3.7567097825
 30
0.0
 40
0.0826771653543305
100
AcDbArc
 50
176.4254075639
 51
191.0128736029
  0
LINE
  5
F5
330
1F
100
AcDbEntity
  8
0
  6
HIDDEN
 62
     7
100
AcDbLine
 10
3.9958186644
 20
3.7609494777
 30
0.0
 11
3.995927442
 21
3.7567097825
 31
0.0
  0
LINE
  5
F6
330
1F
100
AcDbEntity
  8
0
  6
HIDDEN
 62
     7
100
AcDbLine
 10
3.9132502766
 20
3.7030730589
 30
0.0
 11
3.8667995114
 21
3.7298914207
 31
0.0
  0
LINE
  5
F7
330
1F
100
AcDbEntity
  8
0
  6
HIDDEN
 62
     7
100
AcDbLine
 10
3.8667995114
 20
3.7835281442
 30
0.0
 11
3.9132502766
 21
3.810346506
 31
0.0
  0
LINE
  5
F8
330
1F
100
AcDbEntity
  8
0
  6
HIDDEN
 62
     7
100
AcDbLine
 10
3.9132502766
 20
3.810346506
 30
0.0
 11
3.9597010418
 21
3.7835281442
 31
0.0
  0
LINE
  5
F9
330
1F
100
AcDbEntity
  8
0
  6
HIDDEN
 62
     7
100
AcDbLine
 10
3.9597010418
 20
3.7835281442
 30
0.0
 11
3.9597010418
 21
3.7298914207
 31
0.0
  0
LINE
  5
FA
330
1F
100
AcDbEntity
  8
0
  6
HIDDEN
 62
     7
100
AcDbLine
 10
3.8667995114
 20
3.7298914207
 30
0.0
 11
3.8667995114
 21
3.7835281442
 31
0.0
  0
LINE
  5
FB
330
1F
100
AcDbEntity
  8
0
  6
HIDDEN
 62
     7
100
AcDbLine
 10
3.9597010418
 20
3.7298914207
 30
0.0
 11
3.9132502766
 21
3.7030730589
 31
0.0
  0
CIRCLE
  5
FC
330
1F
100
AcDbEntity
  8
0
  6
HIDDEN
 62
     7
100
AcDbCircle
 10
2.7400219302
 20
3.7567097825
 30
0.0
 40
0.0726771653543308
  0
LINE
  5
FD
330
1F
100
AcDbEntity
  8
0
  6
HIDDEN
 62
     7
100
AcDbLine
 10
2.7864726953
 20
3.7835281442
 30
0.0
 11
2.7400219302
 21
3.810346506
 31
0.0
  0
LINE
  5
FE
330
1F
100
AcDbEntity
  8
0
  6
HIDDEN
 62
     7
100
AcDbLine
 10
2.7400219302
 20
3.810346506
 30
0.0
 11
2.693571165
 21
3.7835281442
 31
0.0
  0
LINE
  5
FF
330
1F
100
AcDbEntity
  8
0
  6
HIDDEN
 62
     7
100
AcDbLine
 10
2.693571165
 20
3.7835281442
 30
0.0
 11
2.693571165
 21
3.7298914207
 31
0.0
  0
LINE
  5
100
330
1F
100
AcDbEntity
  8
0
  6
HIDDEN
 62
     7
100
AcDbLine
 10
2.7864726953
 20
3.7298914207
 30
0.0
 11
2.7864726953
 21
3.7835281442
 31
0.0
  0
LINE
  5
101
330
1F
100
AcDbEntity
  8
0
  6
HIDDEN
 62
     7
100
AcDbLine
 10
2.693571165
 20
3.7298914207
 30
0.0
 11
2.7400219302
 21
3.7030730589
 31
0.0
  0
LINE
  5
102
330
1F
100
AcDbEntity
  8
0
  6
HIDDEN
 62
     7
100
AcDbLine
 10
2.7400219302
 20
3.7030730589
 30
0.0
 11
2.7864726953
 21
3.7298914207
 31
0.0
  0
LINE
  5
103
330
1F
100
AcDbEntity
  8
0
  6
HIDDEN
 62
     7
100
AcDbLine
 10
2.6573447648
 20
4.4967097825
 30
0.0
 11
2.8226990955
 21
4.4967097825
 31
0.0
  0
LINE
  5
104
330
1F
100
AcDbEntity
  8
0
  6
HIDDEN
 62
     7
100
AcDbLine
 10
2.8226990955
 20
3.9241900974
 30
0.0
 11
2.6573447648
 21
3.9241900974
 31
0.0
  0
LINE
  5
105
330
1F
100
AcDbEntity
  8
0
  6
HIDDEN
 62
     7
100
AcDbLine
 10
2.6673447648
 20
3.9141900974
 30
0.0
 11
2.8126990955
 21
3.9141900974
 31
0.0
  0
LINE
  5
106
330
1F
100
AcDbEntity
  8
0
  6
HIDDEN
 62
     7
100
AcDbLine
 10
2.7400219302
 20
4.4567097825
 30
0.0
 11
2.7400219302
 21
4.5067097825
 31
0.0
  0
LINE
  5
107
330
1F
100
AcDbEntity
  8
0
  6
HIDDEN
 62
     7
100
AcDbLine
 10
2.7864726953
 20
4.4567097825
 30
0.0
 11
2.7400219302
 21
4.4567097825
 31
0.0
  0
LINE
  5
108
330
1F
100
AcDbEntity
  8
0
  6
HIDDEN
 62
     7
100
AcDbLine
 10
2.7400219302
 20
4.4567097825
 30
0.0
 11
2.693571165
 21
4.4567097825
 31
0.0
  0
LINE
  5
109
330
1F
100
AcDbEntity
  8
0
  6
HIDDEN
 62
     7
100
AcDbLine
 10
2.693571165
 20
4.4567097825
 30
0.0
 11
2.693571165
 21
4.5067097825
 31
0.0
  0
LINE
  5
10A
330
1F
100
AcDbEntity
  8
0
  6
HIDDEN
 62
     7
100
AcDbLine
 10
2.7864726953
 20
4.4567097825
 30
0.0
 11
2.7864726953
 21
4.5067097825
 31
0.0
  0
LINE
  5
10B
330
1F
100
AcDbEntity
  8
0
  6
HIDDEN
 62
     7
100
AcDbLine
 10
3.995927442
 20
4.4967097825
 30
0.0
 11
3.8305731113
 21
4.4967097825
 31
0.0
  0
LINE
  5
10C
330
1F
100
AcDbEntity
  8
0
  6
HIDDEN
 62
     7
100
AcDbLine
 10
3.8305731113
 20
3.9241900974
 30
0.0
 11
3.995927442
 21
3.9241900974
 31
0.0
  0
LINE
  5
10D
330
1F
100
AcDbEntity
  8
0
  6
HIDDEN
 62
     7
100
AcDbLine
 10
3.985927442
 20
3.9141900974
 30
0.0
 11
3.8405731113
 21
3.9141900974
 31
0.0
  0
LINE
  5
10E
330
1F
100
AcDbEntity
  8
0
  6
HIDDEN
 62
     7
100
AcDbLine
 10
3.9132502766
 20
4.4567097825
 30
0.0
 11
3.9132502766
 21
4.5067097825
 31
0.0
  0
LINE
  5
10F
330
1F
100
AcDbEntity
  8
0
  6
HIDDEN
 62
     7
100
AcDbLine
 10
3.8667995114
 20
4.4567097825
 30
0.0
 11
3.9132502766
 21
4.4567097825
 31
0.0
  0
LINE
  5
110
330
1F
100
AcDbEntity
  8
0
  6
HIDDEN
 62
     7
100
AcDbLine
 10
3.9132502766
 20
4.4567097825
 30
0.0
 11
3.9597010418
 21
4.4567097825
 31
0.0
  0
LINE
  5
111
330
1F
100
AcDbEntity
  8
0
  6
HIDDEN
 62
     7
100
AcDbLine
 10
3.9597010418
 20
4.4567097825
 30
0.0
 11
3.9597010418
 21
4.5067097825
 31
0.0
  0
LINE
  5
112
330
1F
100
AcDbEntity
  8
0
  6
HIDDEN
 62
     7
100
AcDbLine
 10
3.8667995114
 20
4.4567097825
 30
0.0
 11
3.8667995114
 21
4.5067097825
 31
0.0
  0
LINE
  5
113
330
1F
100
AcDbEntity
  8
0
  6
HIDDEN
 62
     7
100
AcDbLine
 10
4.0766361034
 20
3.9291900974
 30
0.0
 11
4.0616361034
 21
3.9141900974
 31
0.0
  0
LINE
  5
114
330
1F
100
AcDbEntity
  8
0
  6
HIDDEN
 62
     7
100
AcDbLine
 10
4.0616361034
 20
3.5992294675
 30
0.0
 11
4.0766361034
 21
3.5842294675
 31
0.0
  0
LINE
  5
115
330
1F
100
AcDbEntity
  8
0
  6
HIDDEN
 62
     7
100
AcDbLine
 10
2.5766361034
 20
3.5842294675
 30
0.0
 11
2.5916361034
 21
3.5992294675
 31
0.0
  0
LINE
  5
116
330
1F
100
AcDbEntity
  8
0
  6
HIDDEN
 62
     7
100
AcDbLine
 10
2.5916361034
 20
3.9141900974
 30
0.0
 11
2.5766361034
 21
3.9291900974
 31
0.0
  0
LINE
  5
117
330
1F
100
AcDbEntity
  8
0
  6
HIDDEN
 62
     7
100
AcDbLine
 10
3.3766361034
 20
3.9291900974
 30
0.0
 11
3.2766361034
 21
3.9291900974
 31
0.0
  0
LINE
  5
118
330
1F
100
AcDbEntity
  8
0
  6
HIDDEN
 62
     7
100
AcDbLine
 10
3.2766361034
 20
3.5842294675
 30
0.0
 11
3.3766361034
 21
3.5842294675
 31
0.0
  0
LINE
  5
119
330
1F
100
AcDbEntity
  8
0
  6
HIDDEN
 62
     7
100
AcDbLine
 10
2.6576033683
 20
3.9141900974
 30
0.0
 11
2.5916361034
 21
3.9141900974
 31
0.0
  0
LINE
  5
11A
330
1F
100
AcDbEntity
  8
0
  6
HIDDEN
 62
     7
100
AcDbLine
 10
3.2766361034
 20
3.9141900974
 30
0.0
 11
2.8224881573
 21
3.9141900974
 31
0.0
  0
LINE
  5
11B
330
1F
100
AcDbEntity
  8
0
  6
HIDDEN
 62
     7
100
AcDbLine
 10
2.5916361034
 20
3.5992294675
 30
0.0
 11
3.2766361034
 21
3.5992294675
 31
0.0
  0
LINE
  5
11C
330
1F
100
AcDbEntity
  8
0
  6
HIDDEN
 62
     7
100
AcDbLine
 10
3.8308317148
 20
3.9141900974
 30
0.0
 11
3.3766361034
 21
3.9141900974
 31
0.0
  0
LINE
  5
11D
330
1F
100
AcDbEntity
  8
0
  6
HIDDEN
 62
     7
100
AcDbLine
 10
4.0616361034
 20
3.9141900974
 30
0.0
 11
3.9957165038
 21
3.9141900974
 31
0.0
  0
LINE
  5
11E
330
1F
100
AcDbEntity
  8
0
  6
HIDDEN
 62
     7
100
AcDbLine
 10
3.3766361034
 20
3.5992294675
 30
0.0
 11
4.0616361034
 21
3.5992294675
 31
0.0
  0
LINE
  5
11F
330
1F
100
AcDbEntity
  8
0
  6
HIDDEN
 62
     7
100
AcDbLine
 10
2.645681926
 20
4.5067097838
 30
0.0
 11
2.6573447477
 21
4.4932059801
 31
0.0
  0
LINE
  5
120
330
1F
100
AcDbEntity
  8
0
  6
HIDDEN
 62
     7
100
AcDbLine
 10
2.8226990454
 20
4.4932059717
 30
0.0
 11
2.8343618576
 21
4.5067097752
 31
0.0
  0
LINE
  5
121
330
1F
100
AcDbEntity
  8
0
  6
HIDDEN
 62
     7
100
AcDbLine
 10
3.8189102725
 20
4.5067097838
 30
0.0
 11
3.8305730942
 21
4.4932059801
 31
0.0
  0
LINE
  5
122
330
1F
100
AcDbEntity
  8
0
  6
HIDDEN
 62
     7
100
AcDbLine
 10
3.9959273918
 20
4.4932059717
 30
0.0
 11
4.007590204
 21
4.5067097752
 31
0.0
  0
LINE
  5
123
330
1F
100
AcDbEntity
  8
0
  6
HIDDEN
 62
     7
100
AcDbLine
 10
2.8226990955
 20
3.9140797362
 30
0.0
 11
2.8226990955
 21
4.4932046699
 31
0.0
  0
LINE
  5
124
330
1F
100
AcDbEntity
  8
0
  6
HIDDEN
 62
     7
100
AcDbLine
 10
2.6573447648
 20
4.4932059788
 30
0.0
 11
2.6573447648
 21
3.914054681
 31
0.0
  0
LINE
  5
125
330
1F
100
AcDbEntity
  8
0
  6
HIDDEN
 62
     7
100
AcDbLine
 10
3.995927442
 20
3.9140797362
 30
0.0
 11
3.995927442
 21
4.4932046699
 31
0.0
  0
LINE
  5
126
330
1F
100
AcDbEntity
  8
0
  6
HIDDEN
 62
     7
100
AcDbLine
 10
3.8305731113
 20
4.4932059788
 30
0.0
 11
3.8305731113
 21
3.914054681
 31
0.0
  0
LINE
  5
127
330
1F
100
AcDbEntity
  8
0
  6
HIDDEN
 62
     7
100
AcDbLine
 10
2.8226990955
 20
4.4967097825
 30
0.0
 11
2.8149534821
 21
4.5044553959
 31
0.0
  0
LINE
  5
128
330
1F
100
AcDbEntity
  8
0
  6
HIDDEN
 62
     7
100
AcDbLine
 10
2.6650907295
 20
4.5044557472
 30
0.0
 11
2.6573447648
 21
4.4967097825
 31
0.0
  0
LINE
  5
129
330
1F
100
AcDbEntity
  8
0
  6
HIDDEN
 62
     7
100
AcDbLine
 10
2.8226990955
 20
3.9241900974
 30
0.0
 11
2.8226990955
 21
4.4967097825
 31
0.0
  0
LINE
  5
12A
330
1F
100
AcDbEntity
  8
0
  6
HIDDEN
 62
     7
100
AcDbLine
 10
2.6573447648
 20
4.4967097825
 30
0.0
 11
2.6573447648
 21
3.9241900974
 31
0.0
  0
LINE
  5
12B
330
1F
100
AcDbEntity
  8
0
  6
HIDDEN
 62
     7
100
AcDbLine
 10
2.6573447648
 20
3.9241900974
 30
0.0
 11
2.6673447648
 21
3.9141900974
 31
0.0
  0
LINE
  5
12C
330
1F
100
AcDbEntity
  8
0
  6
HIDDEN
 62
     7
100
AcDbLine
 10
2.8126990955
 20
3.9141900974
 30
0.0
 11
2.8226990955
 21
3.9241900974
 31
0.0
  0
LINE
  5
12D
330
1F
100
AcDbEntity
  8
0
  6
HIDDEN
 62
     7
100
AcDbLine
 10
3.995927442
 20
3.9241900974
 30
0.0
 11
3.995927442
 21
4.4967097825
 31
0.0
  0
LINE
  5
12E
330
1F
100
AcDbEntity
  8
0
  6
HIDDEN
 62
     7
100
AcDbLine
 10
3.8305731113
 20
4.4967097825
 30
0.0
 11
3.8305731113
 21
3.9241900974
 31
0.0
  0
LINE
  5
12F
330
1F
100
AcDbEntity
  8
0
  6
HIDDEN
 62
     7
100
AcDbLine
 10
3.995927442
 20
4.4967097825
 30
0.0
 11
3.9881818285
 21
4.5044553959
 31
0.0
  0
LINE
  5
130
330
1F
100
AcDbEntity
  8
0
  6
HIDDEN
 62
     7
100
AcDbLine
 10
3.838319076
 20
4.5044557472
 30
0.0
 11
3.8305731113
 21
4.4967097825
 31
0.0
  0
LINE
  5
131
330
1F
100
AcDbEntity
  8
0
  6
HIDDEN
 62
     7
100
AcDbLine
 10
3.8305731113
 20
3.9241900974
 30
0.0
 11
3.8405731113
 21
3.9141900974
 31
0.0
  0
LINE
  5
132
330
1F
100
AcDbEntity
  8
0
  6
HIDDEN
 62
     7
100
AcDbLine
 10
3.985927442
 20
3.9141900974
 30
0.0
 11
3.995927442
 21
3.9241900974
 31
0.0
  0
LINE
  5
133
330
1F
100
AcDbEntity
  8
0
  6
CONTINUOUS
 62
     7
100
AcDbLine
 10
8.9969627451
 20
3.6801107559
 30
0.0
 11
9.0008846063
 21
3.6840326171
 31
0.0
  0
LINE
  5
134
330
1F
100
AcDbEntity
  8
0
  6
CONTINUOUS
 62
     7
100
AcDbLine
 10
9.0008846063
 20
3.8293869478
 30
0.0
 11
8.9969627451
 21
3.8333088091
 31
0.0
  0
LINE
  5
135
330
1F
100
AcDbEntity
  8
0
  6
CONTINUOUS
 62
     7
100
AcDbLine
 10
8.3274836329
 20
4.5027879212
 30
0.0
 11
8.3235617717
 21
4.5067097825
 31
0.0
  0
LINE
  5
136
330
1F
100
AcDbEntity
  8
0
  6
CONTINUOUS
 62
     7
100
AcDbLine
 10
8.178207441
 20
4.5067097825
 30
0.0
 11
8.1742855797
 21
4.5027879212
 31
0.0
  0
CIRCLE
  5
137
330
1F
100
AcDbEntity
  8
0
  6
CONTINUOUS
 62
     7
100
AcDbCircle
 10
8.2508846063
 20
3.7567097825
 30
0.0
 40
0.172480314960632
  0
CIRCLE
  5
138
330
1F
100
AcDbEntity
  8
0
  6
CONTINUOUS
 62
     7
100
AcDbCircle
 10
8.2508846063
 20
3.7567097825
 30
0.0
 40
0.735000000000003
  0
CIRCLE
  5
139
330
1F
100
AcDbEntity
  8
0
  6
CONTINUOUS
 62
     7
100
AcDbCircle
 10
8.2508846063
 20
3.7567097825
 30
0.0
 40
0.7500000000000018
  0
CIRCLE
  5
13A
330
1F
100
AcDbEntity
  8
0
  6
CONTINUOUS
 62
     7
100
AcDbCircle
 10
8.2508846063
 20
3.7567097825
 30
0.0
 40
0.1574803149606314
  0
LINE
  5
13B
330
1F
100
AcDbEntity
  8
0
  6
CONTINUOUS
 62
     7
100
AcDbLine
 10
9.0008846063
 20
3.8293869478
 30
0.0
 11
9.0008846063
 21
3.6840326171
 31
0.0
  0
LINE
  5
13C
330
1F
100
AcDbEntity
  8
0
  6
CONTINUOUS
 62
     7
100
AcDbLine
 10
8.178207441
 20
4.5067097825
 30
0.0
 11
8.3235617717
 21
4.5067097825
 31
0.0
  0
SPLINE
  5
13D
330
1F
100
AcDbEntity
  8
0
  6
HIDDEN
 62
     7
100
AcDbSpline
210
0.0
220
0.0
230
1.0
 70
     8
 71
     3
 72
    25
 73
    21
 74
     0
 42
0.00000001
 43
0.00000001
 40
0.0
 40
0.0
 40
0.0
 40
0.0
 40
0.0505922866025182
 40
0.109142297147647
 40
0.1755816032944151
 40
0.2499163487268983
 40
0.3240288302633124
 40
0.3903620736497587
 40
0.4489225349488524
 40
0.4997252448069369
 40
0.5507651501282428
 40
0.6095145474347046
 40
0.6759887253481048
 40
0.7501944184604333
 40
0.8244799789109634
 40
0.8908719038469409
 40
0.9211436439790424
 40
0.9494387221246516
 40
0.9757601089237555
 40
1.0
 40
1.0
 40
1.0
 40
1.0
 10
8.168209162420197
 20
4.48713915650027
 30
0.0
 10
8.168411147338535
 20
4.487180757582147
 30
0.0
 10
8.168846887635267
 20
4.487270503232024
 30
0.0
 10
8.172782519086395
 20
4.487891455883815
 30
0.0
 10
8.180236914781439
 20
4.488836884816097
 30
0.0
 10
8.191850419486114
 20
4.490174908983846
 30
0.0
 10
8.206517049182414
 20
4.491507824883048
 30
0.0
 10
8.222122793404278
 20
4.492460434306947
 30
0.0
 10
8.236918223767962
 20
4.493050765058969
 30
0.0
 10
8.25081300776846
 20
4.493277657571179
 30
0.0
 10
8.264726857789235
 20
4.4930526718979
 30
0.0
 10
8.279575359452172
 20
4.492463213836161
 30
0.0
 10
8.295218830925075
 20
4.491510552845547
 30
0.0
 10
8.309905743380114
 20
4.49017613304115
 30
0.0
 10
8.321507216919606
 20
4.488840541773226
 30
0.0
 10
8.327946059672849
 20
4.488021223870324
 30
0.0
 10
8.331101126741558
 20
4.487559100207377
 30
0.0
 10
8.332580197046271
 20
4.487321210047337
 30
0.0
 10
8.333415276583272
 20
4.487169406401867
 30
0.0
 10
8.333513545425303
 20
4.487148895097917
 30
0.0
 10
8.333560657091128
 20
4.487139061648399
 30
0.0
  0
LINE
  5
13E
330
1F
100
AcDbEntity
  8
0
  6
HIDDEN
 62
     7
100
AcDbLine
 10
8.2637240762
 20
4.4930213319
 30
0.0
 11
8.2508846063
 21
4.4932059788
 31
0.0
  0
LINE
  5
13F
330
1F
100
AcDbEntity
  8
0
  6
HIDDEN
 62
     7
100
AcDbLine
 10
8.9908846063
 20
3.6740326171
 30
0.0
 11
8.9908846063
 21
3.8393869478
 31
0.0
  0
LINE
  5
140
330
1F
100
AcDbEntity
  8
0
  6
HIDDEN
 62
     7
100
AcDbLine
 10
8.4183649213
 20
3.7567097825
 30
0.0
 11
8.4183649213
 21
3.6740326171
 31
0.0
  0
LINE
  5
141
330
1F
100
AcDbEntity
  8
0
  6
HIDDEN
 62
     7
100
AcDbLine
 10
8.4183649213
 20
3.8393869478
 30
0.0
 11
8.4183649213
 21
3.7567097825
 31
0.0
  0
LINE
  5
142
330
1F
100
AcDbEntity
  8
0
  6
HIDDEN
 62
     7
100
AcDbLine
 10
8.4083649213
 20
3.7567097825
 30
0.0
 11
8.4083649213
 21
3.8293869478
 31
0.0
  0
LINE
  5
143
330
1F
100
AcDbEntity
  8
0
  6
HIDDEN
 62
     7
100
AcDbLine
 10
8.4083649213
 20
3.6840326171
 30
0.0
 11
8.4083649213
 21
3.7567097825
 31
0.0
  0
LINE
  5
144
330
1F
100
AcDbEntity
  8
0
  6
HIDDEN
 62
     7
100
AcDbLine
 10
8.9508846063
 20
3.7835281442
 30
0.0
 11
9.0008846063
 21
3.7835281442
 31
0.0
  0
LINE
  5
145
330
1F
100
AcDbEntity
  8
0
  6
HIDDEN
 62
     7
100
AcDbLine
 10
8.9508846063
 20
3.7298914207
 30
0.0
 11
9.0008846063
 21
3.7298914207
 31
0.0
  0
LINE
  5
146
330
1F
100
AcDbEntity
  8
0
  6
HIDDEN
 62
     7
100
AcDbLine
 10
8.9508846063
 20
3.7298914207
 30
0.0
 11
8.9508846063
 21
3.7030730589
 31
0.0
  0
LINE
  5
147
330
1F
100
AcDbEntity
  8
0
  6
HIDDEN
 62
     7
100
AcDbLine
 10
8.9508846063
 20
3.7835281442
 30
0.0
 11
8.9508846063
 21
3.7298914207
 31
0.0
  0
LINE
  5
148
330
1F
100
AcDbEntity
  8
0
  6
HIDDEN
 62
     7
100
AcDbLine
 10
8.9508846063
 20
3.810346506
 30
0.0
 11
8.9508846063
 21
3.7835281442
 31
0.0
  0
LINE
  5
149
330
1F
100
AcDbEntity
  8
0
  6
HIDDEN
 62
     7
100
AcDbLine
 10
8.9508846063
 20
3.7030730589
 30
0.0
 11
9.0008846063
 21
3.7030730589
 31
0.0
  0
LINE
  5
14A
330
1F
100
AcDbEntity
  8
0
  6
HIDDEN
 62
     7
100
AcDbLine
 10
8.9508846063
 20
3.810346506
 30
0.0
 11
9.0008846063
 21
3.810346506
 31
0.0
  0
LINE
  5
14B
330
1F
100
AcDbEntity
  8
0
  6
HIDDEN
 62
     7
100
AcDbLine
 10
8.2508846063
 20
3.9141900974
 30
0.0
 11
8.178207441
 21
3.9141900974
 31
0.0
  0
LINE
  5
14C
330
1F
100
AcDbEntity
  8
0
  6
HIDDEN
 62
     7
100
AcDbLine
 10
8.3235617717
 20
3.9141900974
 30
0.0
 11
8.2508846063
 21
3.9141900974
 31
0.0
  0
LINE
  5
14D
330
1F
100
AcDbEntity
  8
0
  6
HIDDEN
 62
     7
100
AcDbLine
 10
8.2508846063
 20
3.9241900974
 30
0.0
 11
8.3335617717
 21
3.9241900974
 31
0.0
  0
LINE
  5
14E
330
1F
100
AcDbEntity
  8
0
  6
HIDDEN
 62
     7
100
AcDbLine
 10
8.168207441
 20
3.9241900974
 30
0.0
 11
8.2508846063
 21
3.9241900974
 31
0.0
  0
LINE
  5
14F
330
1F
100
AcDbEntity
  8
0
  6
HIDDEN
 62
     7
100
AcDbLine
 10
8.3335617717
 20
4.4967097825
 30
0.0
 11
8.168207441
 21
4.4967097825
 31
0.0
  0
LINE
  5
150
330
1F
100
AcDbEntity
  8
0
  6
HIDDEN
 62
     7
100
AcDbLine
 10
8.2777029681
 20
4.4567097825
 30
0.0
 11
8.2777029681
 21
4.5067097825
 31
0.0
  0
LINE
  5
151
330
1F
100
AcDbEntity
  8
0
  6
HIDDEN
 62
     7
100
AcDbLine
 10
8.2240662445
 20
4.4567097825
 30
0.0
 11
8.2777029681
 21
4.4567097825
 31
0.0
  0
LINE
  5
152
330
1F
100
AcDbEntity
  8
0
  6
HIDDEN
 62
     7
100
AcDbLine
 10
8.2777029681
 20
4.4567097825
 30
0.0
 11
8.3045213299
 21
4.4567097825
 31
0.0
  0
LINE
  5
153
330
1F
100
AcDbEntity
  8
0
  6
HIDDEN
 62
     7
100
AcDbLine
 10
8.1972478828
 20
4.4567097825
 30
0.0
 11
8.2240662445
 21
4.4567097825
 31
0.0
  0
LINE
  5
154
330
1F
100
AcDbEntity
  8
0
  6
HIDDEN
 62
     7
100
AcDbLine
 10
8.2240662445
 20
4.4567097825
 30
0.0
 11
8.2240662445
 21
4.5067097825
 31
0.0
  0
LINE
  5
155
330
1F
100
AcDbEntity
  8
0
  6
HIDDEN
 62
     7
100
AcDbLine
 10
8.3045213299
 20
4.4567097825
 30
0.0
 11
8.3045213299
 21
4.5067097825
 31
0.0
  0
LINE
  5
156
330
1F
100
AcDbEntity
  8
0
  6
HIDDEN
 62
     7
100
AcDbLine
 10
8.1972478828
 20
4.4567097825
 30
0.0
 11
8.1972478828
 21
4.5067097825
 31
0.0
  0
LINE
  5
157
330
1F
100
AcDbEntity
  8
0
  6
HIDDEN
 62
     7
100
AcDbLine
 10
8.154814882
 20
4.5005314063
 30
0.0
 11
8.1682074432
 21
4.4871388447
 31
0.0
  0
LINE
  5
158
330
1F
100
AcDbEntity
  8
0
  6
HIDDEN
 62
     7
100
AcDbLine
 10
8.3335617788
 20
4.487138844
 30
0.0
 11
8.3469543416
 21
4.5005314056
 31
0.0
  0
LINE
  5
159
330
1F
100
AcDbEntity
  8
0
  6
HIDDEN
 62
     7
100
AcDbLine
 10
8.3335617717
 20
3.8907416292
 30
0.0
 11
8.3335617717
 21
4.4871389627
 31
0.0
  0
LINE
  5
15A
330
1F
100
AcDbEntity
  8
0
  6
HIDDEN
 62
     7
100
AcDbLine
 10
8.168207441
 20
4.4871394778
 30
0.0
 11
8.168207441
 21
3.8909218641
 31
0.0
  0
LINE
  5
15B
330
1F
100
AcDbEntity
  8
0
  6
HIDDEN
 62
     7
100
AcDbLine
 10
8.3850372559
 20
3.6740326171
 30
0.0
 11
8.9963435091
 21
3.6740326171
 31
0.0
  0
LINE
  5
15C
330
1F
100
AcDbEntity
  8
0
  6
HIDDEN
 62
     7
100
AcDbLine
 10
8.9963146064
 20
3.8393869478
 30
0.0
 11
8.3850897814
 21
3.8393869478
 31
0.0
  0
LINE
  5
15D
330
1F
100
AcDbEntity
  8
0
  6
HIDDEN
 62
     7
100
AcDbLine
 10
8.9908846063
 20
3.6740326171
 30
0.0
 11
8.9969627451
 21
3.6801107559
 31
0.0
  0
LINE
  5
15E
330
1F
100
AcDbEntity
  8
0
  6
HIDDEN
 62
     7
100
AcDbLine
 10
8.9969627451
 20
3.8333088091
 30
0.0
 11
8.9908846063
 21
3.8393869478
 31
0.0
  0
LINE
  5
15F
330
1F
100
AcDbEntity
  8
0
  6
HIDDEN
 62
     7
100
AcDbLine
 10
8.4183649213
 20
3.6740326171
 30
0.0
 11
8.9908846063
 21
3.6740326171
 31
0.0
  0
LINE
  5
160
330
1F
100
AcDbEntity
  8
0
  6
HIDDEN
 62
     7
100
AcDbLine
 10
8.9908846063
 20
3.8393869478
 30
0.0
 11
8.4183649213
 21
3.8393869478
 31
0.0
  0
LINE
  5
161
330
1F
100
AcDbEntity
  8
0
  6
HIDDEN
 62
     7
100
AcDbLine
 10
8.4183649213
 20
3.8393869478
 30
0.0
 11
8.4083649213
 21
3.8293869478
 31
0.0
  0
LINE
  5
162
330
1F
100
AcDbEntity
  8
0
  6
HIDDEN
 62
     7
100
AcDbLine
 10
8.4083649213
 20
3.6840326171
 30
0.0
 11
8.4183649213
 21
3.6740326171
 31
0.0
  0
LINE
  5
163
330
1F
100
AcDbEntity
  8
0
  6
HIDDEN
 62
     7
100
AcDbLine
 10
8.168207441
 20
3.9241900974
 30
0.0
 11
8.178207441
 21
3.9141900974
 31
0.0
  0
LINE
  5
164
330
1F
100
AcDbEntity
  8
0
  6
HIDDEN
 62
     7
100
AcDbLine
 10
8.3235617717
 20
3.9141900974
 30
0.0
 11
8.3335617717
 21
3.9241900974
 31
0.0
  0
LINE
  5
165
330
1F
100
AcDbEntity
  8
0
  6
HIDDEN
 62
     7
100
AcDbLine
 10
8.3335617717
 20
4.4967097825
 30
0.0
 11
8.3274836329
 21
4.5027879212
 31
0.0
  0
LINE
  5
166
330
1F
100
AcDbEntity
  8
0
  6
HIDDEN
 62
     7
100
AcDbLine
 10
8.1742855797
 20
4.5027879212
 30
0.0
 11
8.168207441
 21
4.4967097825
 31
0.0
  0
LINE
  5
167
330
1F
100
AcDbEntity
  8
0
  6
HIDDEN
 62
     7
100
AcDbLine
 10
8.3335617717
 20
3.9241900974
 30
0.0
 11
8.3335617717
 21
4.4967097825
 31
0.0
  0
LINE
  5
168
330
1F
100
AcDbEntity
  8
0
  6
HIDDEN
 62
     7
100
AcDbLine
 10
8.168207441
 20
4.4967097825
 30
0.0
 11
8.168207441
 21
3.9241900974
 31
0.0
  0
LINE
  5
169
330
1F
100
AcDbEntity
  8
0
  6
CONTINUOUS
 62
     7
100
AcDbLine
 10
2.5916361034
 20
5.9219771389
 30
0.0
 11
4.0616361034
 21
5.9219771389
 31
0.0
  0
LINE
  5
16A
330
1F
100
AcDbEntity
  8
0
  6
CONTINUOUS
 62
     7
100
AcDbLine
 10
2.6573447648
 20
7.4219771389
 30
0.0
 11
2.5916361034
 21
7.4219771389
 31
0.0
  0
LINE
  5
16B
330
1F
100
AcDbEntity
  8
0
  6
CONTINUOUS
 62
     7
100
AcDbLine
 10
3.8305731113
 20
7.4219771389
 30
0.0
 11
2.8224485117
 21
7.4219771389
 31
0.0
  0
LINE
  5
16C
330
1F
100
AcDbEntity
  8
0
  6
CONTINUOUS
 62
     7
100
AcDbLine
 10
4.0616361034
 20
7.4219771389
 30
0.0
 11
3.9956768582
 21
7.4219771389
 31
0.0
  0
LINE
  5
16D
330
1F
100
AcDbEntity
  8
0
  6
CONTINUOUS
 62
     7
100
AcDbLine
 10
2.5916361034
 20
7.4219771389
 30
0.0
 11
2.5766361034
 21
7.4069771389
 31
0.0
  0
LINE
  5
16E
330
1F
100
AcDbEntity
  8
0
  6
CONTINUOUS
 62
     7
100
AcDbLine
 10
2.5766361034
 20
5.9369771389
 30
0.0
 11
2.5916361034
 21
5.9219771389
 31
0.0
  0
LINE
  5
16F
330
1F
100
AcDbEntity
  8
0
  6
CONTINUOUS
 62
     7
100
AcDbLine
 10
4.0616361034
 20
5.9219771389
 30
0.0
 11
4.0766361034
 21
5.9369771389
 31
0.0
  0
LINE
  5
170
330
1F
100
AcDbEntity
  8
0
  6
CONTINUOUS
 62
     7
100
AcDbLine
 10
4.0766361034
 20
7.4069771389
 30
0.0
 11
4.0616361034
 21
7.4219771389
 31
0.0
  0
LINE
  5
171
330
1F
100
AcDbEntity
  8
0
  6
CONTINUOUS
 62
     7
100
AcDbLine
 10
3.9868655178
 20
7.4210390631
 30
0.0
 11
3.985927442
 21
7.4219771389
 31
0.0
  0
LINE
  5
172
330
1F
100
AcDbEntity
  8
0
  6
CONTINUOUS
 62
     7
100
AcDbLine
 10
3.8405731113
 20
7.4219771389
 30
0.0
 11
3.8396348094
 21
7.421038837
 31
0.0
  0
LINE
  5
173
330
1F
100
AcDbEntity
  8
0
  6
CONTINUOUS
 62
     7
100
AcDbLine
 10
2.8136371714
 20
7.4210390631
 30
0.0
 11
2.8126990955
 21
7.4219771389
 31
0.0
  0
LINE
  5
174
330
1F
100
AcDbEntity
  8
0
  6
CONTINUOUS
 62
     7
100
AcDbLine
 10
2.6673447648
 20
7.4219771389
 30
0.0
 11
2.6664064629
 21
7.421038837
 31
0.0
  0
LINE
  5
175
330
1F
100
AcDbEntity
  8
0
  6
CONTINUOUS
 62
     7
100
AcDbLine
 10
4.0616361034
 20
5.9219771389
 30
0.0
 11
4.0616361034
 21
7.4219771389
 31
0.0
  0
LINE
  5
176
330
1F
100
AcDbEntity
  8
0
  6
CONTINUOUS
 62
     7
100
AcDbLine
 10
2.5916361034
 20
7.4219771389
 30
0.0
 11
2.5916361034
 21
5.9219771389
 31
0.0
  0
SPLINE
  5
177
330
1F
100
AcDbEntity
  8
0
  6
CONTINUOUS
 62
     7
100
AcDbSpline
210
0.0
220
0.0
230
1.0
 70
     8
 71
     3
 72
    39
 73
    35
 74
     0
 42
0.00000001
 43
0.00000001
 40
-0.09453286757118
 40
-0.0629631265624861
 40
-0.0313058230047879
 40
0.0
 40
0.031344944644498
 40
0.0630071853289871
 40
0.0945934196288402
 40
0.1257511757427436
 40
0.1567710186428298
 40
0.1880531408531625
 40
0.2192292329966229
 40
0.2500194898318577
 40
0.2807418644841997
 40
0.3119689149990376
 40
0.3431862639342467
 40
0.3742089095802812
 40
0.4053316679640341
 40
0.4370024275197968
 40
0.468759116034584
 40
0.5001569003168108
 40
0.5314768117384013
 40
0.5631482240303722
 40
0.594669057959001
 40
0.6258067394828368
 40
0.6568240206349234
 40
0.6880816586659962
 40
0.7192823341865537
 40
0.7500754651043657
 40
0.7808240426727849
 40
0.8120797289703681
 40
0.8433140080609678
 40
0.8743656935279048
 40
0.90546713242882
 40
0.9370368734375139
 40
0.9686941769952121
 40
1.0
 40
1.031344944644498
 40
1.063007185328987
 40
1.09459341962884
 10
2.646881108446256
 20
6.653161790860943
 30
0.0
 10
2.645077671002226
 20
6.671985737491735
 30
0.0
 10
2.646912820484947
 20
6.690805907404952
 30
0.0
 10
2.65241531134053
 20
6.708935827058996
 30
0.0
 10
2.661101993792026
 20
6.725714750819996
 30
0.0
 10
2.672870787231695
 20
6.740329037068205
 30
0.0
 10
2.687221453324222
 20
6.752326204226036
 30
0.0
 10
2.70370719295698
 20
6.761180464429155
 30
0.0
 10
2.721526404965429
 20
6.766795367386115
 30
0.0
 10
2.740025711927511
 20
6.768663866780936
 30
0.0
 10
2.758537846826663
 20
6.766812455376455
 30
0.0
 10
2.776340163808348
 20
6.761192946822671
 30
0.0
 10
2.792820007170148
 20
6.752334866396664
 30
0.0
 10
2.807154814750305
 20
6.74034837252223
 30
0.0
 10
2.818924775059416
 20
6.725721353832733
 30
0.0
 10
2.82761496107196
 20
6.708912507644516
 30
0.0
 10
2.833139987771817
 20
6.690741015832305
 30
0.0
 10
2.834968660068822
 20
6.671886072376459
 30
0.0
 10
2.833142768098404
 20
6.653048337327222
 30
0.0
 10
2.827627297347036
 20
6.634937767005654
 30
0.0
 10
2.818924181105867
 20
6.618184652949631
 30
0.0
 10
2.807145595403426
 20
6.603601391978839
 30
0.0
 10
2.792795954006718
 20
6.59161932358221
 30
0.0
 10
2.776312065876436
 20
6.5827641395101
 30
0.0
 10
2.758492303396265
 20
6.577146516252786
 30
0.0
 10
2.739980203894859
 20
6.575288803415201
 30
0.0
 10
2.72145849412934
 20
6.57716119494408
 30
0.0
 10
2.703647622812666
 20
6.582800323096234
 30
0.0
 10
2.687161592730539
 20
6.591677866814984
 30
0.0
 10
2.672827983757027
 20
6.603672100827919
 30
0.0
 10
2.66106178796365
 20
6.618277572147909
 30
0.0
 10
2.652383849486684
 20
6.635043377719684
 30
0.0
 10
2.646881108446256
 20
6.653161790860943
 30
0.0
 10
2.645077671002226
 20
6.671985737491735
 30
0.0
 10
2.646912820484947
 20
6.690805907404952
 30
0.0
  0
SPLINE
  5
178
330
1F
100
AcDbEntity
  8
0
  6
CONTINUOUS
 62
     7
100
AcDbSpline
210
0.0
220
0.0
230
1.0
 70
     8
 71
     3
 72
    39
 73
    35
 74
     0
 42
0.00000001
 43
0.00000001
 40
-0.0945328675712537
 40
-0.0629631265624891
 40
-0.0313058230048622
 40
0.0
 40
0.031344944644275
 40
0.0630071853289788
 40
0.094593419628564
 40
0.1257511757427418
 40
0.1567710186427758
 40
0.1880531408531625
 40
0.219229232996623
 40
0.2500194898318577
 40
0.280741864484139
 40
0.3119689149990351
 40
0.3431862639344052
 40
0.3742089095802898
 40
0.4053316679643294
 40
0.4370024275198001
 40
0.4687591160346577
 40
0.5001569003168109
 40
0.5314768117382537
 40
0.5631482240303665
 40
0.594669057959076
 40
0.6258067394828454
 40
0.656824020635142
 40
0.6880816586659962
 40
0.7192823341865535
 40
0.750075465104366
 40
0.7808240426727858
 40
0.8120797289703685
 40
0.8433140080609679
 40
0.8743656935279048
 40
0.9054671324287463
 40
0.9370368734375109
 40
0.9686941769951378
 40
1.0
 40
1.031344944644275
 40
1.063007185328979
 40
1.094593419628564
 10
3.82010945490294
 20
6.653161790860925
 30
0.0
 10
3.818306017458914
 20
6.671985737491678
 30
0.0
 10
3.82014116694167
 20
6.690805907404901
 30
0.0
 10
3.825643657797184
 20
6.708935827058905
 30
0.0
 10
3.834330340248662
 20
6.725714750819968
 30
0.0
 10
3.846099133688347
 20
6.740329037068155
 30
0.0
 10
3.860449799780898
 20
6.752326204226041
 30
0.0
 10
3.876935539413663
 20
6.76118046442915
 30
0.0
 10
3.89475475142212
 20
6.766795367386115
 30
0.0
 10
3.913254058384191
 20
6.768663866780937
 30
0.0
 10
3.931766193283343
 20
6.766812455376448
 30
0.0
 10
3.949568510265054
 20
6.761192946822658
 30
0.0
 10
3.966048353626897
 20
6.75233486639669
 30
0.0
 10
3.980383161207057
 20
6.740348372522163
 30
0.0
 10
3.992153121516117
 20
6.72572135383267
 30
0.0
 10
4.000843307528686
 20
6.708912507644451
 30
0.0
 10
4.006368334228495
 20
6.690741015832288
 30
0.0
 10
4.008197006525521
 20
6.671886072376473
 30
0.0
 10
4.006371114555076
 20
6.653048337327255
 30
0.0
 10
4.000855643803729
 20
6.634937767005672
 30
0.0
 10
3.992152527562608
 20
6.618184652949581
 30
0.0
 10
3.980373941860074
 20
6.603601391978801
 30
0.0
 10
3.966024300463352
 20
6.591619323582219
 30
0.0
 10
3.949540412333092
 20
6.582764139510076
 30
0.0
 10
3.931720649852956
 20
6.577146516252789
 30
0.0
 10
3.913208550351551
 20
6.575288803415201
 30
0.0
 10
3.894686840586031
 20
6.577161194944081
 30
0.0
 10
3.876875969269357
 20
6.582800323096234
 30
0.0
 10
3.860389939187232
 20
6.591677866814985
 30
0.0
 10
3.846056330213727
 20
6.603672100827907
 30
0.0
 10
3.834290134420361
 20
6.618277572147903
 30
0.0
 10
3.825612195943386
 20
6.635043377719656
 30
0.0
 10
3.82010945490294
 20
6.653161790860925
 30
0.0
 10
3.818306017458914
 20
6.671985737491678
 30
0.0
 10
3.82014116694167
 20
6.690805907404901
 30
0.0
  0
SPLINE
  5
179
330
1F
100
AcDbEntity
  8
0
  6
CONTINUOUS
 62
     7
100
AcDbSpline
210
0.0
220
0.0
230
1.0
 70
     8
 71
     3
 72
    26
 73
    22
 74
     0
 42
0.00000001
 43
0.00000001
 40
0.0
 40
0.0
 40
0.0
 40
0.0
 40
0.0173634833762585
 40
0.071615952746186
 40
0.1242081974416224
 40
0.17831397501399
 40
0.2311216802669886
 40
0.2854473787150136
 40
0.3384780983727919
 40
0.3930524848023673
 40
0.4459649876385868
 40
0.5004283028215013
 40
0.5530629833122027
 40
0.6072253402946157
 40
0.6598572086393907
 40
0.7139999365842321
 40
0.7669068598855386
 40
0.8213398811692078
 40
0.8743721831707842
 40
0.9289543873482851
 40
1.0
 40
1.0
 40
1.0
 40
1.0
 10
3.995676858189196
 20
7.421949578729314
 30
0.0
 10
3.995746256025865
 20
7.421957209989063
 30
0.0
 10
3.996032488464595
 20
7.421988685236616
 30
0.0
 10
3.994153910879297
 20
7.421781563394403
 30
0.0
 10
3.990044570911699
 20
7.421345658929054
 30
0.0
 10
3.983668930673042
 20
7.420712842853952
 30
0.0
 10
3.975283875177527
 20
7.419964090884847
 30
0.0
 10
3.965196486053862
 20
7.419187479291674
 30
0.0
 10
3.953523294677079
 20
7.41845991013957
 30
0.0
 10
3.940798909189726
 20
7.417875954368057
 30
0.0
 10
3.927173523714457
 20
7.417493565271637
 30
0.0
 10
3.913306937917683
 20
7.417362463463562
 30
0.0
 10
3.899338057546447
 20
7.417493756368169
 30
0.0
 10
3.885915187157006
 20
7.417868664174238
 30
0.0
 10
3.873149905443765
 20
7.418450867753585
 30
0.0
 10
3.86160478536898
 20
7.419166789741596
 30
0.0
 10
3.851402692194393
 20
7.41994815667168
 30
0.0
 10
3.842995857959376
 20
7.420697556900386
 30
0.0
 10
3.836558073400057
 20
7.421334385798049
 30
0.0
 10
3.831659645325301
 20
7.421855779436643
 30
0.0
 10
3.83096560697414
 20
7.421933299448049
 30
0.0
 10
3.830573111258568
 20
7.421977138916427
 30
0.0
  0
SPLINE
  5
17A
330
1F
100
AcDbEntity
  8
0
  6
CONTINUOUS
 62
     7
100
AcDbSpline
210
0.0
220
0.0
230
1.0
 70
     8
 71
     3
 72
    26
 73
    22
 74
     0
 42
0.00000001
 43
0.00000001
 40
0.0
 40
0.0
 40
0.0
 40
0.0
 40
0.017363483376259
 40
0.0716159527461862
 40
0.1242081974416224
 40
0.1783139750139901
 40
0.2311216802669888
 40
0.285447378715014
 40
0.3384780983727921
 40
0.393052484802367
 40
0.4459649876385869
 40
0.5004283028215014
 40
0.5530629833122027
 40
0.6072253402946157
 40
0.659857208639391
 40
0.7139999365842321
 40
0.7669068598855391
 40
0.821339881169208
 40
0.874372183170784
 40
0.9289543873482847
 40
1.0
 40
1.0
 40
1.0
 40
1.0
 10
2.822448511732502
 20
7.421949578729314
 30
0.0
 10
2.822517909569172
 20
7.421957209989063
 30
0.0
 10
2.822804142007903
 20
7.421988685236615
 30
0.0
 10
2.820925564422604
 20
7.421781563394405
 30
0.0
 10
2.816816224455006
 20
7.421345658929054
 30
0.0
 10
2.810440584216348
 20
7.420712842853952
 30
0.0
 10
2.802055528720834
 20
7.419964090884847
 30
0.0
 10
2.791968139597169
 20
7.419187479291674
 30
0.0
 10
2.780294948220386
 20
7.41845991013957
 30
0.0
 10
2.767570562733033
 20
7.417875954368057
 30
0.0
 10
2.753945177257764
 20
7.417493565271637
 30
0.0
 10
2.74007859146099
 20
7.417362463463562
 30
0.0
 10
2.726109711089753
 20
7.417493756368169
 30
0.0
 10
2.712686840700313
 20
7.417868664174238
 30
0.0
 10
2.699921558987072
 20
7.418450867753585
 30
0.0
 10
2.688376438912287
 20
7.419166789741596
 30
0.0
 10
2.678174345737699
 20
7.41994815667168
 30
0.0
 10
2.669767511502683
 20
7.420697556900386
 30
0.0
 10
2.663329726943365
 20
7.421334385798048
 30
0.0
 10
2.658431298868609
 20
7.421855779436643
 30
0.0
 10
2.657737260517446
 20
7.42193329944805
 30
0.0
 10
2.657344764801875
 20
7.421977138916427
 30
0.0
  0
LINE
  5
17B
330
1F
100
AcDbEntity
  8
0
  6
CONTINUOUS
 62
     7
100
AcDbLine
 10
2.6573447648
 20
6.6719771389
 30
0.0
 11
2.6577556733
 21
6.6668503865
 31
0.0
  0
SPLINE
  5
17C
330
1F
100
AcDbEntity
  8
0
  6
CONTINUOUS
 62
     7
100
AcDbSpline
210
0.0
220
0.0
230
1.0
 70
     8
 71
     3
 72
     9
 73
     5
 74
     0
 42
0.00000001
 43
0.00000001
 40
0.0
 40
0.0
 40
0.0
 40
0.0
 40
0.6110699865557275
 40
1.0
 40
1.0
 40
1.0
 40
1.0
 10
2.822695877759819
 20
6.671925366959219
 30
0.0
 10
2.822576360850555
 20
6.676354006595037
 30
0.0
 10
2.822380774564379
 20
6.683601359162261
 30
0.0
 10
2.820349538528156
 20
6.690535875928762
 30
0.0
 10
2.819559529869279
 20
6.693232917627986
 30
0.0
  0
SPLINE
  5
17D
330
1F
100
AcDbEntity
  8
0
  6
CONTINUOUS
 62
     7
100
AcDbSpline
210
0.0
220
0.0
230
1.0
 70
     8
 71
     3
 72
     9
 73
     5
 74
     0
 42
0.00000001
 43
0.00000001
 40
0.0
 40
0.0
 40
0.0
 40
0.0
 40
0.1647600630837763
 40
1.0
 40
1.0
 40
1.0
 40
1.0
 10
2.659049394525661
 20
6.687665696249151
 30
0.0
 10
2.658820790419271
 20
6.68682717598291
 30
0.0
 10
2.657433293339514
 20
6.681737834242291
 30
0.0
 10
2.657385055212249
 20
6.676419349650971
 30
0.0
 10
2.657344764801875
 20
6.671977138916426
 30
0.0
  0
SPLINE
  5
17E
330
1F
100
AcDbEntity
  8
0
  6
CONTINUOUS
 62
     7
100
AcDbSpline
210
0.0
220
0.0
230
1.0
 70
     8
 71
     3
 72
    28
 73
    24
 74
     0
 42
0.00000001
 43
0.00000001
 40
-0.1252324143402013
 40
-0.0765949231226895
 40
-0.0348521675833328
 40
0.0
 40
0.0547060426875435
 40
0.1246624107763215
 40
0.1734384953438611
 40
0.2151890571657578
 40
0.2499173693744522
 40
0.304501663441411
 40
0.3746853949787851
 40
0.4233031138780662
 40
0.4650153394776267
 40
0.4998261329636694
 40
0.5546899991027568
 40
0.6248272590749143
 40
0.6735474793411498
 40
0.7152606007389933
 40
0.749970098667109
 40
0.7500001882393282
 40
0.804596359477151
 40
0.8747675856597987
 40
0.9234050768773105
 40
0.9651478324166672
 40
1.0
 40
1.054706042687543
 40
1.124662410776321
 40
1.173438495343861
 10
3.83202481211973
 20
6.691237350503168
 30
0.0
 10
3.829533910700996
 20
6.668556993993105
 30
0.0
 10
3.834300104377168
 20
6.640893446612387
 30
0.0
 10
3.850855975952601
 20
6.614792142613906
 30
0.0
 10
3.873463959178279
 20
6.598232219563612
 30
0.0
 10
3.893988488686047
 20
6.590754377665376
 30
0.0
 10
3.916626149470715
 20
6.588265178446074
 30
0.0
 10
3.94428774106452
 20
6.593004169762879
 30
0.0
 10
3.970397629726504
 20
6.609544291635374
 30
0.0
 10
3.986966429636317
 20
6.63214817011661
 30
0.0
 10
3.994457555909988
 20
6.652646562631052
 30
0.0
 10
3.996972198009174
 20
6.67533867410498
 30
0.0
 10
3.99221356915738
 20
6.703060227550009
 30
0.0
 10
3.975616353096171
 20
6.729201182734055
 30
0.0
 10
3.952978134342943
 20
6.745748967357443
 30
0.0
 10
3.932479958634131
 20
6.753209166040052
 30
0.0
 10
3.919249302750419
 20
6.754653738639393
 30
0.0
 10
3.903835655140613
 20
6.754655193220403
 30
0.0
 10
3.882153359597874
 20
6.750931410437924
 30
0.0
 10
3.856068788216742
 20
6.734376453757156
 30
0.0
 10
3.839505481141782
 20
6.711756722348565
 30
0.0
 10
3.83202481211973
 20
6.691237350503168
 30
0.0
 10
3.829533910700996
 20
6.668556993993105
 30
0.0
 10
3.834300104377168
 20
6.640893446612387
 30
0.0
  0
LINE
  5
17F
330
1F
100
AcDbEntity
  8
0
  6
CONTINUOUS
 62
     7
100
AcDbLine
 10
2.5766361034
 20
5.9369771389
 30
0.0
 11
2.5766361034
 21
7.4069771389
 31
0.0
  0
LINE
  5
180
330
1F
100
AcDbEntity
  8
0
  6
CONTINUOUS
 62
     7
100
AcDbLine
 10
4.0766361034
 20
7.4069771389
 30
0.0
 11
4.0766361034
 21
5.9369771389
 31
0.0
  0
LINE
  5
181
330
1F
100
AcDbEntity
  8
0
  6
CONTINUOUS
 62
     7
100
AcDbLine
 10
3.8405731113
 20
7.4219771389
 30
0.0
 11
3.985927442
 21
7.4219771389
 31
0.0
  0
LINE
  5
182
330
1F
100
AcDbEntity
  8
0
  6
CONTINUOUS
 62
     7
100
AcDbLine
 10
2.8126990955
 20
7.4219771389
 30
0.0
 11
2.6673447648
 21
7.4219771389
 31
0.0
  0
CIRCLE
  5
183
330
1F
100
AcDbEntity
  8
0
  6
CONTINUOUS
 62
     7
100
AcDbCircle
 10
2.7400219302
 20
6.6719771389
 30
0.0
 40
0.0726771653543308
  0
LINE
  5
184
330
1F
100
AcDbEntity
  8
0
  6
CONTINUOUS
 62
     7
100
AcDbLine
 10
2.693571165
 20
6.6451587771
 30
0.0
 11
2.693571165
 21
6.6987955007
 31
0.0
  0
LINE
  5
185
330
1F
100
AcDbEntity
  8
0
  6
CONTINUOUS
 62
     7
100
AcDbLine
 10
2.7400219302
 20
6.6183404153
 30
0.0
 11
2.693571165
 21
6.6451587771
 31
0.0
  0
LINE
  5
186
330
1F
100
AcDbEntity
  8
0
  6
CONTINUOUS
 62
     7
100
AcDbLine
 10
2.7864726953
 20
6.6451587771
 30
0.0
 11
2.7400219302
 21
6.6183404153
 31
0.0
  0
LINE
  5
187
330
1F
100
AcDbEntity
  8
0
  6
CONTINUOUS
 62
     7
100
AcDbLine
 10
2.7864726953
 20
6.6987955007
 30
0.0
 11
2.7864726953
 21
6.6451587771
 31
0.0
  0
LINE
  5
188
330
1F
100
AcDbEntity
  8
0
  6
CONTINUOUS
 62
     7
100
AcDbLine
 10
2.7400219302
 20
6.7256138625
 30
0.0
 11
2.7864726953
 21
6.6987955007
 31
0.0
  0
LINE
  5
189
330
1F
100
AcDbEntity
  8
0
  6
CONTINUOUS
 62
     7
100
AcDbLine
 10
2.693571165
 20
6.6987955007
 30
0.0
 11
2.7400219302
 21
6.7256138625
 31
0.0
  0
CIRCLE
  5
18A
330
1F
100
AcDbEntity
  8
0
  6
CONTINUOUS
 62
     7
100
AcDbCircle
 10
2.7400219302
 20
6.6719771389
 30
0.0
 40
0.0826771653543301
  0
CIRCLE
  5
18B
330
1F
100
AcDbEntity
  8
0
  6
CONTINUOUS
 62
     7
100
AcDbCircle
 10
3.9132502766
 20
6.6719771389
 30
0.0
 40
0.0726771653543308
  0
LINE
  5
18C
330
1F
100
AcDbEntity
  8
0
  6
CONTINUOUS
 62
     7
100
AcDbLine
 10
3.9132502766
 20
6.7256138625
 30
0.0
 11
3.8667995114
 21
6.6987955007
 31
0.0
  0
LINE
  5
18D
330
1F
100
AcDbEntity
  8
0
  6
CONTINUOUS
 62
     7
100
AcDbLine
 10
3.8667995114
 20
6.6987955007
 30
0.0
 11
3.8667995114
 21
6.6451587771
 31
0.0
  0
LINE
  5
18E
330
1F
100
AcDbEntity
  8
0
  6
CONTINUOUS
 62
     7
100
AcDbLine
 10
3.8667995114
 20
6.6451587771
 30
0.0
 11
3.9132502766
 21
6.6183404153
 31
0.0
  0
LINE
  5
18F
330
1F
100
AcDbEntity
  8
0
  6
CONTINUOUS
 62
     7
100
AcDbLine
 10
3.9132502766
 20
6.6183404153
 30
0.0
 11
3.9597010418
 21
6.6451587771
 31
0.0
  0
LINE
  5
190
330
1F
100
AcDbEntity
  8
0
  6
CONTINUOUS
 62
     7
100
AcDbLine
 10
3.9597010418
 20
6.6451587771
 30
0.0
 11
3.9597010418
 21
6.6987955007
 31
0.0
  0
LINE
  5
191
330
1F
100
AcDbEntity
  8
0
  6
CONTINUOUS
 62
     7
100
AcDbLine
 10
3.9597010418
 20
6.6987955007
 30
0.0
 11
3.9132502766
 21
6.7256138625
 31
0.0
  0
CIRCLE
  5
192
330
1F
100
AcDbEntity
  8
0
  6
CONTINUOUS
 62
     7
100
AcDbCircle
 10
3.9132502766
 20
6.6719771389
 30
0.0
 40
0.0826771653543306
  0
SPLINE
  5
193
330
1F
100
AcDbEntity
  8
0
  6
HIDDEN
 62
     7
100
AcDbSpline
210
0.0
220
0.0
230
1.0
 70
     8
 71
     3
 72
    24
 73
    20
 74
     0
 42
0.00000001
 43
0.00000001
 40
0.0
 40
0.0
 40
0.0
 40
0.0
 40
0.0317107596789522
 40
0.0914921657143453
 40
0.1591436762163247
 40
0.2346721279870622
 40
0.310564975613317
 40
0.3783816662594187
 40
0.4381283017519657
 40
0.4898198974972797
 40
0.5415311131928939
 40
0.6012776433718826
 40
0.6690746936672771
 40
0.7449285333146072
 40
0.8205555669109297
 40
0.8882443869620236
 40
0.948001581465683
 40
0.9998424882323957
 40
1.0
 40
1.0
 40
1.0
 40
1.0
 10
2.657755673341005
 20
6.66685038652608
 30
0.0
 10
2.657903145636904
 20
6.664161026392095
 30
0.0
 10
2.658328634015964
 20
6.656401660626805
 30
0.0
 10
2.661995535379633
 20
6.643285639533787
 30
0.0
 10
2.669394623076766
 20
6.627675921185188
 30
0.0
 10
2.681018811073989
 20
6.613002425285968
 30
0.0
 10
2.695689401987304
 20
6.601388422053609
 30
0.0
 10
2.711332559991538
 20
6.593868430760766
 30
0.0
 10
2.726128960784472
 20
6.590062178176033
 30
0.0
 10
2.739979270195438
 20
6.588949731573198
 30
0.0
 10
2.753830602020944
 20
6.590047807060677
 30
0.0
 10
2.768631717991078
 20
6.593839162451673
 30
0.0
 10
2.784274494926395
 20
6.601340852918423
 30
0.0
 10
2.798976230285184
 20
6.612940021046698
 30
0.0
 10
2.810564052217027
 20
6.62760931914555
 30
0.0
 10
2.818163978233472
 20
6.643218380390135
 30
0.0
 10
2.821737894313341
 20
6.658000860831301
 30
0.0
 10
2.82304639113111
 20
6.667516212058727
 30
0.0
 10
2.822696936315966
 20
6.671912051238879
 30
0.0
 10
2.822695877759819
 20
6.671925366959219
 30
0.0
  0
SPLINE
  5
194
330
1F
100
AcDbEntity
  8
0
  6
HIDDEN
 62
     7
100
AcDbSpline
210
0.0
220
0.0
230
1.0
 70
     8
 71
     3
 72
    25
 73
    21
 74
     0
 42
0.00000001
 43
0.00000001
 40
0.0
 40
0.0
 40
0.0
 40
0.0
 40
0.0307897655901858
 40
0.1084287177466574
 40
0.195097743797612
 40
0.2818600514281018
 40
0.3594029356793431
 40
0.3947590131456957
 40
0.4278064352785797
 40
0.4585486716564539
 40
0.486990133596565
 40
0.5154309111845886
 40
0.5462072539827109
 40
0.5792868410594817
 40
0.6146731260436872
 40
0.6922702879366271
 40
0.7790789182043691
 40
0.865700507855773
 40
0.9432457036021102
 40
1.0
 40
1.0
 40
1.0
 40
1.0
 10
2.819559529869279
 20
6.693232917627986
 30
0.0
 10
2.819043847681967
 20
6.695457658887556
 30
0.0
 10
2.817227830013003
 20
6.703292270079597
 30
0.0
 10
2.810478039383669
 20
6.716277342815827
 30
0.0
 10
2.799023344820186
 20
6.731008015547941
 30
0.0
 10
2.784289195820583
 20
6.742596889189836
 30
0.0
 10
2.770875804029641
 20
6.749040190405065
 30
0.0
 10
2.760525911463213
 20
6.752191555608499
 30
0.0
 10
2.753325162474368
 20
6.753679842173881
 30
0.0
 10
2.746532073120953
 20
6.754485206768021
 30
0.0
 10
2.740037570363244
 20
6.75473497372582
 30
0.0
 10
2.733540448283693
 20
6.754487564969938
 30
0.0
 10
2.726742271480897
 20
6.753683882046041
 30
0.0
 10
2.7195340425867
 20
6.752195930634378
 30
0.0
 10
2.709175882006419
 20
6.74904352381055
 30
0.0
 10
2.695748451622579
 20
6.742598068901665
 30
0.0
 10
2.681034080609743
 20
6.730998154161294
 30
0.0
 10
2.669504408979987
 20
6.71629784765318
 30
0.0
 10
2.662107375774304
 20
6.701516225208255
 30
0.0
 10
2.659957796162127
 20
6.691780124085472
 30
0.0
 10
2.659049394525661
 20
6.687665696249151
 30
0.0
  0
LINE
  5
195
330
1F
100
AcDbEntity
  8
0
  6
HIDDEN
 62
     7
100
AcDbLine
 10
3.3766361034
 20
6.8444574539
 30
0.0
 11
3.3766361034
 21
6.499496824
 31
0.0
  0
LINE
  5
196
330
1F
100
AcDbEntity
  8
0
  6
HIDDEN
 62
     7
100
AcDbLine
 10
3.2766361034
 20
6.8444574539
 30
0.0
 11
3.2766361034
 21
6.499496824
 31
0.0
  0
SPLINE
  5
197
330
1F
100
AcDbEntity
  8
0
  6
HIDDEN
 62
     7
100
AcDbSpline
210
0.0
220
0.0
230
1.0
 70
     8
 71
     3
 72
    27
 73
    23
 74
     0
 42
0.00000001
 43
0.00000001
 40
0.0
 40
0.0
 40
0.0
 40
0.0
 40
0.0482403566458009
 40
0.0979859933239826
 40
0.1462013016414079
 40
0.1956609672556619
 40
0.2470502649005908
 40
0.2996999805282186
 40
0.3553763151986944
 40
0.4128640816833686
 40
0.4648782323537638
 40
0.518907117251207
 40
0.5641083293532165
 40
0.6105764537616716
 40
0.6569555125866782
 40
0.7043734482229314
 40
0.7572612022607361
 40
0.811517037586107
 40
0.867121274904257
 40
0.9246482163409747
 40
0.9753065297109148
 40
1.0
 40
1.0
 40
1.0
 40
1.0
 10
3.830573111258568
 20
6.829457453877056
 30
0.0
 10
3.830764327927977
 20
6.829356638178836
 30
0.0
 10
3.831152727943956
 20
6.829151860954544
 30
0.0
 10
3.834254931299481
 20
6.827543533123223
 30
0.0
 10
3.839094223282249
 20
6.825129526398846
 30
0.0
 10
3.845721213901273
 20
6.822009991944082
 30
0.0
 10
3.854139190440231
 20
6.818382881815276
 30
0.0
 10
3.86442866990804
 20
6.814495804112535
 30
0.0
 10
3.876570567478521
 20
6.810745651319134
 30
0.0
 10
3.889957703850928
 20
6.807788996372409
 30
0.0
 10
3.904085075603135
 20
6.806078740455712
 30
0.0
 10
3.917513389709529
 20
6.805859988575895
 30
0.0
 10
3.93026261899939
 20
6.806913875795138
 30
0.0
 10
3.941864340753938
 20
6.808879138786872
 30
0.0
 10
3.952894326989936
 20
6.811625555681145
 30
0.0
 10
3.963442583337442
 20
6.814990821522455
 30
0.0
 10
3.973291380197473
 20
6.818758399383579
 30
0.0
 10
3.98203317847239
 20
6.82257262750399
 30
0.0
 10
3.989124616835162
 20
6.825966165397984
 30
0.0
 10
3.993700808565074
 20
6.828291049138262
 30
0.0
 10
3.995887202777396
 20
6.829436211224465
 30
0.0
 10
3.995698820753892
 20
6.829337546997209
 30
0.0
 10
3.995637086237806
 20
6.829305213825437
 30
0.0
  0
SPLINE
  5
198
330
1F
100
AcDbEntity
  8
0
  6
HIDDEN
 62
     7
100
AcDbSpline
210
0.0
220
0.0
230
1.0
 70
     8
 71
     3
 72
    27
 73
    23
 74
     0
 42
0.00000001
 43
0.00000001
 40
0.0
 40
0.0
 40
0.0
 40
0.0
 40
0.0482403566458009
 40
0.0979859933239827
 40
0.1462013016414081
 40
0.1956609672556622
 40
0.2470502649005915
 40
0.2996999805282189
 40
0.3553763151986951
 40
0.4128640816833686
 40
0.4648782323537633
 40
0.5189071172512064
 40
0.564108329353216
 40
0.6105764537616708
 40
0.6569555125866777
 40
0.7043734482229309
 40
0.7572612022607356
 40
0.8115170375861069
 40
0.8671212749042572
 40
0.9246482163409748
 40
0.9753065297109148
 40
1.0
 40
1.0
 40
1.0
 40
1.0
 10
2.657344764801875
 20
6.829457453877056
 30
0.0
 10
2.657535981471283
 20
6.829356638178836
 30
0.0
 10
2.657924381487263
 20
6.829151860954544
 30
0.0
 10
2.661026584842788
 20
6.827543533123223
 30
0.0
 10
2.665865876825556
 20
6.825129526398846
 30
0.0
 10
2.67249286744458
 20
6.822009991944082
 30
0.0
 10
2.680910843983538
 20
6.818382881815276
 30
0.0
 10
2.691200323451348
 20
6.814495804112535
 30
0.0
 10
2.703342221021828
 20
6.810745651319134
 30
0.0
 10
2.716729357394235
 20
6.807788996372409
 30
0.0
 10
2.730856729146442
 20
6.806078740455712
 30
0.0
 10
2.744285043252837
 20
6.805859988575895
 30
0.0
 10
2.757034272542696
 20
6.806913875795138
 30
0.0
 10
2.768635994297245
 20
6.808879138786872
 30
0.0
 10
2.779665980533243
 20
6.811625555681145
 30
0.0
 10
2.790214236880748
 20
6.814990821522455
 30
0.0
 10
2.80006303374078
 20
6.818758399383579
 30
0.0
 10
2.808804832015697
 20
6.82257262750399
 30
0.0
 10
2.815896270378468
 20
6.825966165397984
 30
0.0
 10
2.820472462108381
 20
6.828291049138262
 30
0.0
 10
2.822658856320703
 20
6.829436211224465
 30
0.0
 10
2.822470474297199
 20
6.829337546997209
 30
0.0
 10
2.822408739781114
 20
6.829305213825437
 30
0.0
  0
LINE
  5
199
330
1F
100
AcDbEntity
  8
0
  6
HIDDEN
 62
     7
100
AcDbLine
 10
3.995927442
 20
7.4119771389
 30
0.0
 11
3.8305731113
 21
7.4119771389
 31
0.0
  0
LINE
  5
19A
330
1F
100
AcDbEntity
  8
0
  6
HIDDEN
 62
     7
100
AcDbLine
 10
3.8305731113
 20
6.8394574539
 30
0.0
 11
3.995927442
 21
6.8394574539
 31
0.0
  0
LINE
  5
19B
330
1F
100
AcDbEntity
  8
0
  6
HIDDEN
 62
     7
100
AcDbLine
 10
3.985927442
 20
6.8294574539
 30
0.0
 11
3.8405731113
 21
6.8294574539
 31
0.0
  0
LINE
  5
19C
330
1F
100
AcDbEntity
  8
0
  6
HIDDEN
 62
     7
100
AcDbLine
 10
3.9132502766
 20
7.3719771389
 30
0.0
 11
3.9132502766
 21
7.4219771389
 31
0.0
  0
LINE
  5
19D
330
1F
100
AcDbEntity
  8
0
  6
HIDDEN
 62
     7
100
AcDbLine
 10
3.8667995114
 20
7.3719771389
 30
0.0
 11
3.9132502766
 21
7.3719771389
 31
0.0
  0
LINE
  5
19E
330
1F
100
AcDbEntity
  8
0
  6
HIDDEN
 62
     7
100
AcDbLine
 10
3.9132502766
 20
7.3719771389
 30
0.0
 11
3.9597010418
 21
7.3719771389
 31
0.0
  0
LINE
  5
19F
330
1F
100
AcDbEntity
  8
0
  6
HIDDEN
 62
     7
100
AcDbLine
 10
3.9597010418
 20
7.3719771389
 30
0.0
 11
3.9597010418
 21
7.4219771389
 31
0.0
  0
LINE
  5
1A0
330
1F
100
AcDbEntity
  8
0
  6
HIDDEN
 62
     7
100
AcDbLine
 10
3.8667995114
 20
7.3719771389
 30
0.0
 11
3.8667995114
 21
7.4219771389
 31
0.0
  0
LINE
  5
1A1
330
1F
100
AcDbEntity
  8
0
  6
HIDDEN
 62
     7
100
AcDbLine
 10
2.6573447648
 20
7.4119771389
 30
0.0
 11
2.8226990955
 21
7.4119771389
 31
0.0
  0
LINE
  5
1A2
330
1F
100
AcDbEntity
  8
0
  6
HIDDEN
 62
     7
100
AcDbLine
 10
2.8226990955
 20
6.8394574539
 30
0.0
 11
2.6573447648
 21
6.8394574539
 31
0.0
  0
LINE
  5
1A3
330
1F
100
AcDbEntity
  8
0
  6
HIDDEN
 62
     7
100
AcDbLine
 10
2.6673447648
 20
6.8294574539
 30
0.0
 11
2.8126990955
 21
6.8294574539
 31
0.0
  0
LINE
  5
1A4
330
1F
100
AcDbEntity
  8
0
  6
HIDDEN
 62
     7
100
AcDbLine
 10
2.7400219302
 20
7.3719771389
 30
0.0
 11
2.7400219302
 21
7.4219771389
 31
0.0
  0
LINE
  5
1A5
330
1F
100
AcDbEntity
  8
0
  6
HIDDEN
 62
     7
100
AcDbLine
 10
2.7400219302
 20
7.3719771389
 30
0.0
 11
2.693571165
 21
7.3719771389
 31
0.0
  0
LINE
  5
1A6
330
1F
100
AcDbEntity
  8
0
  6
HIDDEN
 62
     7
100
AcDbLine
 10
2.7864726953
 20
7.3719771389
 30
0.0
 11
2.7400219302
 21
7.3719771389
 31
0.0
  0
LINE
  5
1A7
330
1F
100
AcDbEntity
  8
0
  6
HIDDEN
 62
     7
100
AcDbLine
 10
2.693571165
 20
7.3719771389
 30
0.0
 11
2.693571165
 21
7.4219771389
 31
0.0
  0
LINE
  5
1A8
330
1F
100
AcDbEntity
  8
0
  6
HIDDEN
 62
     7
100
AcDbLine
 10
2.7864726953
 20
7.3719771389
 30
0.0
 11
2.7864726953
 21
7.4219771389
 31
0.0
  0
LINE
  5
1A9
330
1F
100
AcDbEntity
  8
0
  6
HIDDEN
 62
     7
100
AcDbLine
 10
4.0766361034
 20
6.8444574539
 30
0.0
 11
4.0616361034
 21
6.8294574539
 31
0.0
  0
LINE
  5
1AA
330
1F
100
AcDbEntity
  8
0
  6
HIDDEN
 62
     7
100
AcDbLine
 10
4.0616361034
 20
6.514496824
 30
0.0
 11
4.0766361034
 21
6.499496824
 31
0.0
  0
LINE
  5
1AB
330
1F
100
AcDbEntity
  8
0
  6
HIDDEN
 62
     7
100
AcDbLine
 10
3.3766361034
 20
6.8444574539
 30
0.0
 11
3.2766361034
 21
6.8444574539
 31
0.0
  0
LINE
  5
1AC
330
1F
100
AcDbEntity
  8
0
  6
HIDDEN
 62
     7
100
AcDbLine
 10
3.2766361034
 20
6.499496824
 30
0.0
 11
3.3766361034
 21
6.499496824
 31
0.0
  0
LINE
  5
1AD
330
1F
100
AcDbEntity
  8
0
  6
HIDDEN
 62
     7
100
AcDbLine
 10
2.5766361034
 20
6.499496824
 30
0.0
 11
2.5916361034
 21
6.514496824
 31
0.0
  0
LINE
  5
1AE
330
1F
100
AcDbEntity
  8
0
  6
HIDDEN
 62
     7
100
AcDbLine
 10
2.5916361034
 20
6.8294574539
 30
0.0
 11
2.5766361034
 21
6.8444574539
 31
0.0
  0
LINE
  5
1AF
330
1F
100
AcDbEntity
  8
0
  6
HIDDEN
 62
     7
100
AcDbLine
 10
3.8305731113
 20
6.8294574539
 30
0.0
 11
3.3766361034
 21
6.8294574539
 31
0.0
  0
LINE
  5
1B0
330
1F
100
AcDbEntity
  8
0
  6
HIDDEN
 62
     7
100
AcDbLine
 10
4.0616361034
 20
6.8294574539
 30
0.0
 11
3.9956370862
 21
6.8294574539
 31
0.0
  0
LINE
  5
1B1
330
1F
100
AcDbEntity
  8
0
  6
HIDDEN
 62
     7
100
AcDbLine
 10
3.3766361034
 20
6.514496824
 30
0.0
 11
4.0616361034
 21
6.514496824
 31
0.0
  0
LINE
  5
1B2
330
1F
100
AcDbEntity
  8
0
  6
HIDDEN
 62
     7
100
AcDbLine
 10
2.6573447648
 20
6.8294574539
 30
0.0
 11
2.5916361034
 21
6.8294574539
 31
0.0
  0
LINE
  5
1B3
330
1F
100
AcDbEntity
  8
0
  6
HIDDEN
 62
     7
100
AcDbLine
 10
3.2766361034
 20
6.8294574539
 30
0.0
 11
2.8224087398
 21
6.8294574539
 31
0.0
  0
LINE
  5
1B4
330
1F
100
AcDbEntity
  8
0
  6
HIDDEN
 62
     7
100
AcDbLine
 10
2.5916361034
 20
6.514496824
 30
0.0
 11
3.2766361034
 21
6.514496824
 31
0.0
  0
LINE
  5
1B5
330
1F
100
AcDbEntity
  8
0
  6
HIDDEN
 62
     7
100
AcDbLine
 10
3.995927442
 20
6.8293052164
 30
0.0
 11
3.995927442
 21
7.4219771389
 31
0.0
  0
LINE
  5
1B6
330
1F
100
AcDbEntity
  8
0
  6
HIDDEN
 62
     7
100
AcDbLine
 10
3.8305731113
 20
7.4219771389
 30
0.0
 11
3.8305731113
 21
6.8294574539
 31
0.0
  0
LINE
  5
1B7
330
1F
100
AcDbEntity
  8
0
  6
HIDDEN
 62
     7
100
AcDbLine
 10
2.8226990955
 20
6.8293052164
 30
0.0
 11
2.8226990955
 21
7.4219771389
 31
0.0
  0
LINE
  5
1B8
330
1F
100
AcDbEntity
  8
0
  6
HIDDEN
 62
     7
100
AcDbLine
 10
2.6573447648
 20
7.4219771389
 30
0.0
 11
2.6573447648
 21
6.8294574539
 31
0.0
  0
LINE
  5
1B9
330
1F
100
AcDbEntity
  8
0
  6
HIDDEN
 62
     7
100
AcDbLine
 10
3.995927442
 20
7.4119771389
 30
0.0
 11
3.9868655178
 21
7.4210390631
 31
0.0
  0
LINE
  5
1BA
330
1F
100
AcDbEntity
  8
0
  6
HIDDEN
 62
     7
100
AcDbLine
 10
3.8396348094
 20
7.421038837
 30
0.0
 11
3.8305731113
 21
7.4119771389
 31
0.0
  0
LINE
  5
1BB
330
1F
100
AcDbEntity
  8
0
  6
HIDDEN
 62
     7
100
AcDbLine
 10
3.995927442
 20
6.8394574539
 30
0.0
 11
3.995927442
 21
7.4119771389
 31
0.0
  0
LINE
  5
1BC
330
1F
100
AcDbEntity
  8
0
  6
HIDDEN
 62
     7
100
AcDbLine
 10
3.8305731113
 20
7.4119771389
 30
0.0
 11
3.8305731113
 21
6.8394574539
 31
0.0
  0
LINE
  5
1BD
330
1F
100
AcDbEntity
  8
0
  6
HIDDEN
 62
     7
100
AcDbLine
 10
3.8305731113
 20
6.8394574539
 30
0.0
 11
3.8405731113
 21
6.8294574539
 31
0.0
  0
LINE
  5
1BE
330
1F
100
AcDbEntity
  8
0
  6
HIDDEN
 62
     7
100
AcDbLine
 10
3.985927442
 20
6.8294574539
 30
0.0
 11
3.995927442
 21
6.8394574539
 31
0.0
  0
LINE
  5
1BF
330
1F
100
AcDbEntity
  8
0
  6
HIDDEN
 62
     7
100
AcDbLine
 10
2.8226990955
 20
7.4119771389
 30
0.0
 11
2.8136371714
 21
7.4210390631
 31
0.0
  0
LINE
  5
1C0
330
1F
100
AcDbEntity
  8
0
  6
HIDDEN
 62
     7
100
AcDbLine
 10
2.6664064629
 20
7.421038837
 30
0.0
 11
2.6573447648
 21
7.4119771389
 31
0.0
  0
LINE
  5
1C1
330
1F
100
AcDbEntity
  8
0
  6
HIDDEN
 62
     7
100
AcDbLine
 10
2.8226990955
 20
6.8394574539
 30
0.0
 11
2.8226990955
 21
7.4119771389
 31
0.0
  0
LINE
  5
1C2
330
1F
100
AcDbEntity
  8
0
  6
HIDDEN
 62
     7
100
AcDbLine
 10
2.6573447648
 20
7.4119771389
 30
0.0
 11
2.6573447648
 21
6.8394574539
 31
0.0
  0
LINE
  5
1C3
330
1F
100
AcDbEntity
  8
0
  6
HIDDEN
 62
     7
100
AcDbLine
 10
2.6573447648
 20
6.8394574539
 30
0.0
 11
2.6673447648
 21
6.8294574539
 31
0.0
  0
LINE
  5
1C4
330
1F
100
AcDbEntity
  8
0
  6
HIDDEN
 62
     7
100
AcDbLine
 10
2.8126990955
 20
6.8294574539
 30
0.0
 11
2.8226990955
 21
6.8394574539
 31
0.0
  0
LINE
  5
1C5
330
1F
100
AcDbEntity
  8
0
  6
CONTINUOUS
 62
     7
100
AcDbLine
 10
8.6933500667
 20
5.9384537921
 30
0.0
 11
8.7039549446
 21
5.9445778481
 31
0.0
  0
LINE
  5
1C6
330
1F
100
AcDbEntity
  8
0
  6
CONTINUOUS
 62
     7
100
AcDbLine
 10
9.2235939591
 20
6.8447165547
 30
0.0
 11
9.2235939591
 21
6.8569626764
 31
0.0
  0
LINE
  5
1C7
330
1F
100
AcDbEntity
  8
0
  6
CONTINUOUS
 62
     7
100
AcDbLine
 10
7.2788473801
 20
6.5013329498
 30
0.0
 11
8.3182943484
 21
5.9012729877
 31
0.0
  0
LINE
  5
1C8
330
1F
100
AcDbEntity
  8
0
  6
CONTINUOUS
 62
     7
100
AcDbLine
 10
9.0682333979
 20
7.2003462812
 30
0.0
 11
8.0287864296
 21
7.8004062434
 31
0.0
  0
LINE
  5
1C9
330
1F
100
AcDbEntity
  8
0
  6
CONTINUOUS
 62
     7
100
AcDbLine
 10
7.6537307113
 20
7.763225439
 30
0.0
 11
7.6431258334
 21
7.757101383
 31
0.0
  0
LINE
  5
1CA
330
1F
100
AcDbEntity
  8
0
  6
CONTINUOUS
 62
     7
100
AcDbLine
 10
7.1234868189
 20
6.8569626764
 30
0.0
 11
7.1234868189
 21
6.8447165547
 31
0.0
  0
LINE
  5
1CB
330
1F
100
AcDbEntity
  8
0
  6
CONTINUOUS
 62
     7
100
AcDbLine
 10
8.699686295
 20
6.616326385
 30
0.0
 11
8.7067562136
 21
6.612243681
 31
0.0
  0
LINE
  5
1CC
330
1F
100
AcDbEntity
  8
0
  6
CONTINUOUS
 62
     7
100
AcDbLine
 10
7.8172126128
 20
7.7282817706
 30
0.0
 11
7.810140396
 21
7.7323658015
 31
0.0
  0
LINE
  5
1CD
330
1F
100
AcDbEntity
  8
0
  6
CONTINUOUS
 62
     7
100
AcDbLine
 10
7.7073426623
 20
7.7323658015
 30
0.0
 11
7.7002704456
 21
7.7282817706
 31
0.0
  0
LINE
  5
1CE
330
1F
100
AcDbEntity
  8
0
  6
CONTINUOUS
 62
     7
100
AcDbLine
 10
7.8414186945
 20
7.6871831922
 30
0.0
 11
7.8414186945
 21
7.6945381011
 31
0.0
  0
LINE
  5
1CF
330
1F
100
AcDbEntity
  8
0
  6
CONTINUOUS
 62
     7
100
AcDbLine
 10
7.6760643638
 20
7.6945381011
 30
0.0
 11
7.6760643638
 21
7.6867690193
 31
0.0
  0
LINE
  5
1D0
330
1F
100
AcDbEntity
  8
0
  6
CONTINUOUS
 62
     7
100
AcDbLine
 10
8.6468103324
 20
7.2493652011
 30
0.0
 11
8.6397381157
 21
7.253449232
 31
0.0
  0
LINE
  5
1D1
330
1F
100
AcDbEntity
  8
0
  6
CONTINUOUS
 62
     7
100
AcDbLine
 10
8.536940382
 20
7.253449232
 30
0.0
 11
8.5298681652
 21
7.2493652011
 31
0.0
  0
LINE
  5
1D2
330
1F
100
AcDbEntity
  8
0
  6
CONTINUOUS
 62
     7
100
AcDbLine
 10
8.6710164142
 20
7.2082666226
 30
0.0
 11
8.6710164142
 21
7.2156215316
 31
0.0
  0
LINE
  5
1D3
330
1F
100
AcDbEntity
  8
0
  6
CONTINUOUS
 62
     7
100
AcDbLine
 10
8.5056620835
 20
7.2156215316
 30
0.0
 11
8.5056620835
 21
7.2078524498
 31
0.0
  0
POLYLINE
  5
1D4
330
1F
100
AcDbEntity
  8
0
  6
CONTINUOUS
 62
     7
100
AcDb2dPolyline
 66
     1
 10
0.0
 20
0.0
 30
0.0
  0
VERTEX
  5
232
330
1D4
100
AcDbEntity
  8
0
  6
CONTINUOUS
 62
     7
100
AcDbVertex
100
AcDb2dVertex
 10
9.2235939591
 20
6.8447165547
 30
0.0
  0
VERTEX
  5
233
330
1D4
100
AcDbEntity
  8
0
  6
CONTINUOUS
 62
     7
100
AcDbVertex
100
AcDb2dVertex
 10
9.2229580338
 20
6.8740294636
 30
0.0
  0
VERTEX
  5
234
330
1D4
100
AcDbEntity
  8
0
  6
CONTINUOUS
 62
     7
100
AcDbVertex
100
AcDb2dVertex
 10
9.2210518144
 20
6.9025364153
 30
0.0
  0
VERTEX
  5
235
330
1D4
100
AcDbEntity
  8
0
  6
CONTINUOUS
 62
     7
100
AcDbVertex
100
AcDb2dVertex
 10
9.2178799655
 20
6.9301676485
 30
0.0
  0
VERTEX
  5
236
330
1D4
100
AcDbEntity
  8
0
  6
CONTINUOUS
 62
     7
100
AcDbVertex
100
AcDb2dVertex
 10
9.2134502493
 20
6.9568555449
 30
0.0
  0
VERTEX
  5
237
330
1D4
100
AcDbEntity
  8
0
  6
CONTINUOUS
 62
     7
100
AcDbVertex
100
AcDb2dVertex
 10
9.2077735059
 20
6.9825347947
 30
0.0
  0
VERTEX
  5
238
330
1D4
100
AcDbEntity
  8
0
  6
CONTINUOUS
 62
     7
100
AcDbVertex
100
AcDb2dVertex
 10
9.2008636275
 20
7.0071425566
 30
0.0
  0
VERTEX
  5
239
330
1D4
100
AcDbEntity
  8
0
  6
CONTINUOUS
 62
     7
100
AcDbVertex
100
AcDb2dVertex
 10
9.1927375234
 20
7.0306186112
 30
0.0
  0
VERTEX
  5
23A
330
1D4
100
AcDbEntity
  8
0
  6
CONTINUOUS
 62
     7
100
AcDbVertex
100
AcDb2dVertex
 10
9.1834150798
 20
7.0529055086
 30
0.0
  0
VERTEX
  5
23B
330
1D4
100
AcDbEntity
  8
0
  6
CONTINUOUS
 62
     7
100
AcDbVertex
100
AcDb2dVertex
 10
9.1729191102
 20
7.0739487092
 30
0.0
  0
VERTEX
  5
23C
330
1D4
100
AcDbEntity
  8
0
  6
CONTINUOUS
 62
     7
100
AcDbVertex
100
AcDb2dVertex
 10
9.1612753
 20
7.0936967166
 30
0.0
  0
VERTEX
  5
23D
330
1D4
100
AcDbEntity
  8
0
  6
CONTINUOUS
 62
     7
100
AcDbVertex
100
AcDb2dVertex
 10
9.1485121436
 20
7.1121012042
 30
0.0
  0
VERTEX
  5
23E
330
1D4
100
AcDbEntity
  8
0
  6
CONTINUOUS
 62
     7
100
AcDbVertex
100
AcDb2dVertex
 10
9.1346608744
 20
7.1291171332
 30
0.0
  0
VERTEX
  5
23F
330
1D4
100
AcDbEntity
  8
0
  6
CONTINUOUS
 62
     7
100
AcDbVertex
100
AcDb2dVertex
 10
9.119755389
 20
7.1447028626
 30
0.0
  0
VERTEX
  5
240
330
1D4
100
AcDbEntity
  8
0
  6
CONTINUOUS
 62
     7
100
AcDbVertex
100
AcDb2dVertex
 10
9.1038321635
 20
7.1588202516
 30
0.0
  0
VERTEX
  5
241
330
1D4
100
AcDbEntity
  8
0
  6
CONTINUOUS
 62
     7
100
AcDbVertex
100
AcDb2dVertex
 10
9.0869301647
 20
7.1714347526
 30
0.0
  0
VERTEX
  5
242
330
1D4
100
AcDbEntity
  8
0
  6
CONTINUOUS
 62
     7
100
AcDbVertex
100
AcDb2dVertex
 10
9.0690907546
 20
7.1825154957
 30
0.0
  0
VERTEX
  5
243
330
1D4
100
AcDbEntity
  8
0
  6
CONTINUOUS
 62
     7
100
AcDbVertex
100
AcDb2dVertex
 10
9.0503575894
 20
7.1920353646
 30
0.0
  0
VERTEX
  5
244
330
1D4
100
AcDbEntity
  8
0
  6
CONTINUOUS
 62
     7
100
AcDbVertex
100
AcDb2dVertex
 10
9.0307765121
 20
7.1999710626
 30
0.0
  0
VERTEX
  5
245
330
1D4
100
AcDbEntity
  8
0
  6
CONTINUOUS
 62
     7
100
AcDbVertex
100
AcDb2dVertex
 10
9.0103954409
 20
7.2063031696
 30
0.0
  0
VERTEX
  5
246
330
1D4
100
AcDbEntity
  8
0
  6
CONTINUOUS
 62
     7
100
AcDbVertex
100
AcDb2dVertex
 10
8.9892642518
 20
7.2110161899
 30
0.0
  0
VERTEX
  5
247
330
1D4
100
AcDbEntity
  8
0
  6
CONTINUOUS
 62
     7
100
AcDbVertex
100
AcDb2dVertex
 10
8.9674346563
 20
7.21409859
 30
0.0
  0
VERTEX
  5
248
330
1D4
100
AcDbEntity
  8
0
  6
CONTINUOUS
 62
     7
100
AcDbVertex
100
AcDb2dVertex
 10
8.9449600751
 20
7.2155428267
 30
0.0
  0
VERTEX
  5
249
330
1D4
100
AcDbEntity
  8
0
  6
CONTINUOUS
 62
     7
100
AcDbVertex
100
AcDb2dVertex
 10
8.9218955072
 20
7.2153453657
 30
0.0
  0
VERTEX
  5
24A
330
1D4
100
AcDbEntity
  8
0
  6
CONTINUOUS
 62
     7
100
AcDbVertex
100
AcDb2dVertex
 10
8.8982973956
 20
7.2135066903
 30
0.0
  0
VERTEX
  5
24B
330
1D4
100
AcDbEntity
  8
0
  6
CONTINUOUS
 62
     7
100
AcDbVertex
100
AcDb2dVertex
 10
8.8742234887
 20
7.2100313
 30
0.0
  0
VERTEX
  5
24C
330
1D4
100
AcDbEntity
  8
0
  6
CONTINUOUS
 62
     7
100
AcDbVertex
100
AcDb2dVertex
 10
8.8497326994
 20
7.2049276997
 30
0.0
  0
VERTEX
  5
24D
330
1D4
100
AcDbEntity
  8
0
  6
CONTINUOUS
 62
     7
100
AcDbVertex
100
AcDb2dVertex
 10
8.8248849608
 20
7.1982083787
 30
0.0
  0
VERTEX
  5
24E
330
1D4
100
AcDbEntity
  8
0
  6
CONTINUOUS
 62
     7
100
AcDbVertex
100
AcDb2dVertex
 10
8.7997410795
 20
7.1898897803
 30
0.0
  0
VERTEX
  5
24F
330
1D4
100
AcDbEntity
  8
0
  6
CONTINUOUS
 62
     7
100
AcDbVertex
100
AcDb2dVertex
 10
8.7743625867
 20
7.1799922615
 30
0.0
  0
VERTEX
  5
250
330
1D4
100
AcDbEntity
  8
0
  6
CONTINUOUS
 62
     7
100
AcDbVertex
100
AcDb2dVertex
 10
8.748811588
 20
7.1685400433
 30
0.0
  0
VERTEX
  5
251
330
1D4
100
AcDbEntity
  8
0
  6
CONTINUOUS
 62
     7
100
AcDbVertex
100
AcDb2dVertex
 10
8.7231506108
 20
7.1555611511
 30
0.0
  0
VERTEX
  5
252
330
1D4
100
AcDbEntity
  8
0
  6
CONTINUOUS
 62
     7
100
AcDbVertex
100
AcDb2dVertex
 10
8.6974424519
 20
7.1410873464
 30
0.0
  0
VERTEX
  5
253
330
1D4
100
AcDbEntity
  8
0
  6
CONTINUOUS
 62
     7
100
AcDbVertex
100
AcDb2dVertex
 10
8.6717500234
 20
7.1251540491
 30
0.0
  0
VERTEX
  5
254
330
1D4
100
AcDbEntity
  8
0
  6
CONTINUOUS
 62
     7
100
AcDbVertex
100
AcDb2dVertex
 10
8.646136199
 20
7.1078002506
 30
0.0
  0
VERTEX
  5
255
330
1D4
100
AcDbEntity
  8
0
  6
CONTINUOUS
 62
     7
100
AcDbVertex
100
AcDb2dVertex
 10
8.6206636602
 20
7.0890684186
 30
0.0
  0
VERTEX
  5
256
330
1D4
100
AcDbEntity
  8
0
  6
CONTINUOUS
 62
     7
100
AcDbVertex
100
AcDb2dVertex
 10
8.5953947423
 20
7.069004393
 30
0.0
  0
VERTEX
  5
257
330
1D4
100
AcDbEntity
  8
0
  6
CONTINUOUS
 62
     7
100
AcDbVertex
100
AcDb2dVertex
 10
8.5703912827
 20
7.0476572739
 30
0.0
  0
VERTEX
  5
258
330
1D4
100
AcDbEntity
  8
0
  6
CONTINUOUS
 62
     7
100
AcDbVertex
100
AcDb2dVertex
 10
8.5457144691
 20
7.0250793011
 30
0.0
  0
VERTEX
  5
259
330
1D4
100
AcDbEntity
  8
0
  6
CONTINUOUS
 62
     7
100
AcDbVertex
100
AcDb2dVertex
 10
8.5214246897
 20
7.0013257268
 30
0.0
  0
VERTEX
  5
25A
330
1D4
100
AcDbEntity
  8
0
  6
CONTINUOUS
 62
     7
100
AcDbVertex
100
AcDb2dVertex
 10
8.4975813857
 20
6.97645468
 30
0.0
  0
VERTEX
  5
25B
330
1D4
100
AcDbEntity
  8
0
  6
CONTINUOUS
 62
     7
100
AcDbVertex
100
AcDb2dVertex
 10
8.4742429057
 20
6.9505270243
 30
0.0
  0
VERTEX
  5
25C
330
1D4
100
AcDbEntity
  8
0
  6
CONTINUOUS
 62
     7
100
AcDbVertex
100
AcDb2dVertex
 10
8.4514663629
 20
6.9236062091
 30
0.0
  0
VERTEX
  5
25D
330
1D4
100
AcDbEntity
  8
0
  6
CONTINUOUS
 62
     7
100
AcDbVertex
100
AcDb2dVertex
 10
8.4293074952
 20
6.8957581139
 30
0.0
  0
VERTEX
  5
25E
330
1D4
100
AcDbEntity
  8
0
  6
CONTINUOUS
 62
     7
100
AcDbVertex
100
AcDb2dVertex
 10
8.4078205291
 20
6.8670508879
 30
0.0
  0
VERTEX
  5
25F
330
1D4
100
AcDbEntity
  8
0
  6
CONTINUOUS
 62
     7
100
AcDbVertex
100
AcDb2dVertex
 10
8.3870580468
 20
6.8375547824
 30
0.0
  0
VERTEX
  5
260
330
1D4
100
AcDbEntity
  8
0
  6
CONTINUOUS
 62
     7
100
AcDbVertex
100
AcDb2dVertex
 10
8.3670708577
 20
6.8073419793
 30
0.0
  0
VERTEX
  5
261
330
1D4
100
AcDbEntity
  8
0
  6
CONTINUOUS
 62
     7
100
AcDbVertex
100
AcDb2dVertex
 10
8.3479078736
 20
6.7764864144
 30
0.0
  0
VERTEX
  5
262
330
1D4
100
AcDbEntity
  8
0
  6
CONTINUOUS
 62
     7
100
AcDbVertex
100
AcDb2dVertex
 10
8.3296159897
 20
6.7450635964
 30
0.0
  0
VERTEX
  5
263
330
1D4
100
AcDbEntity
  8
0
  6
CONTINUOUS
 62
     7
100
AcDbVertex
100
AcDb2dVertex
 10
8.3122399692
 20
6.7131504223
 30
0.0
  0
VERTEX
  5
264
330
1D4
100
AcDbEntity
  8
0
  6
CONTINUOUS
 62
     7
100
AcDbVertex
100
AcDb2dVertex
 10
8.2958223342
 20
6.680824989
 30
0.0
  0
VERTEX
  5
265
330
1D4
100
AcDbEntity
  8
0
  6
CONTINUOUS
 62
     7
100
AcDbVertex
100
AcDb2dVertex
 10
8.2804032614
 20
6.6481664021
 30
0.0
  0
VERTEX
  5
266
330
1D4
100
AcDbEntity
  8
0
  6
CONTINUOUS
 62
     7
100
AcDbVertex
100
AcDb2dVertex
 10
8.2660204838
 20
6.6152545827
 30
0.0
  0
VERTEX
  5
267
330
1D4
100
AcDbEntity
  8
0
  6
CONTINUOUS
 62
     7
100
AcDbVertex
100
AcDb2dVertex
 10
8.2527091985
 20
6.5821700716
 30
0.0
  0
VERTEX
  5
268
330
1D4
100
AcDbEntity
  8
0
  6
CONTINUOUS
 62
     7
100
AcDbVertex
100
AcDb2dVertex
 10
8.2405019804
 20
6.5489938321
 30
0.0
  0
VERTEX
  5
269
330
1D4
100
AcDbEntity
  8
0
  6
CONTINUOUS
 62
     7
100
AcDbVertex
100
AcDb2dVertex
 10
8.2294287027
 20
6.515807052
 30
0.0
  0
VERTEX
  5
26A
330
1D4
100
AcDbEntity
  8
0
  6
CONTINUOUS
 62
     7
100
AcDbVertex
100
AcDb2dVertex
 10
8.2195164635
 20
6.482690945
 30
0.0
  0
VERTEX
  5
26B
330
1D4
100
AcDbEntity
  8
0
  6
CONTINUOUS
 62
     7
100
AcDbVertex
100
AcDb2dVertex
 10
8.2107895198
 20
6.4497265516
 30
0.0
  0
VERTEX
  5
26C
330
1D4
100
AcDbEntity
  8
0
  6
CONTINUOUS
 62
     7
100
AcDbVertex
100
AcDb2dVertex
 10
8.2032692278
 20
6.4169945413
 30
0.0
  0
VERTEX
  5
26D
330
1D4
100
AcDbEntity
  8
0
  6
CONTINUOUS
 62
     7
100
AcDbVertex
100
AcDb2dVertex
 10
8.1969739909
 20
6.3845750148
 30
0.0
  0
VERTEX
  5
26E
330
1D4
100
AcDbEntity
  8
0
  6
CONTINUOUS
 62
     7
100
AcDbVertex
100
AcDb2dVertex
 10
8.1919192146
 20
6.3525473082
 30
0.0
  0
VERTEX
  5
26F
330
1D4
100
AcDbEntity
  8
0
  6
CONTINUOUS
 62
     7
100
AcDbVertex
100
AcDb2dVertex
 10
8.1881172689
 20
6.3209897985
 30
0.0
  0
VERTEX
  5
270
330
1D4
100
AcDbEntity
  8
0
  6
CONTINUOUS
 62
     7
100
AcDbVertex
100
AcDb2dVertex
 10
8.1855774577
 20
6.2899797123
 30
0.0
  0
VERTEX
  5
271
330
1D4
100
AcDbEntity
  8
0
  6
CONTINUOUS
 62
     7
100
AcDbVertex
100
AcDb2dVertex
 10
8.1843059963
 20
6.2595929365
 30
0.0
  0
VERTEX
  5
272
330
1D4
100
AcDbEntity
  8
0
  6
CONTINUOUS
 62
     7
100
AcDbVertex
100
AcDb2dVertex
 10
8.1843059963
 20
6.2299038325
 30
0.0
  0
VERTEX
  5
273
330
1D4
100
AcDbEntity
  8
0
  6
CONTINUOUS
 62
     7
100
AcDbVertex
100
AcDb2dVertex
 10
8.1855774577
 20
6.2009850547
 30
0.0
  0
VERTEX
  5
274
330
1D4
100
AcDbEntity
  8
0
  6
CONTINUOUS
 62
     7
100
AcDbVertex
100
AcDb2dVertex
 10
8.1881172689
 20
6.1729073721
 30
0.0
  0
VERTEX
  5
275
330
1D4
100
AcDbEntity
  8
0
  6
CONTINUOUS
 62
     7
100
AcDbVertex
100
AcDb2dVertex
 10
8.1919192146
 20
6.1457394956
 30
0.0
  0
VERTEX
  5
276
330
1D4
100
AcDbEntity
  8
0
  6
CONTINUOUS
 62
     7
100
AcDbVertex
100
AcDb2dVertex
 10
8.1969739909
 20
6.1195479093
 30
0.0
  0
VERTEX
  5
277
330
1D4
100
AcDbEntity
  8
0
  6
CONTINUOUS
 62
     7
100
AcDbVertex
100
AcDb2dVertex
 10
8.2032692278
 20
6.0943967086
 30
0.0
  0
VERTEX
  5
278
330
1D4
100
AcDbEntity
  8
0
  6
CONTINUOUS
 62
     7
100
AcDbVertex
100
AcDb2dVertex
 10
8.2107895198
 20
6.0703474427
 30
0.0
  0
VERTEX
  5
279
330
1D4
100
AcDbEntity
  8
0
  6
CONTINUOUS
 62
     7
100
AcDbVertex
100
AcDb2dVertex
 10
8.2195164635
 20
6.0474589641
 30
0.0
  0
VERTEX
  5
27A
330
1D4
100
AcDbEntity
  8
0
  6
CONTINUOUS
 62
     7
100
AcDbVertex
100
AcDb2dVertex
 10
8.2294287027
 20
6.0257872848
 30
0.0
  0
VERTEX
  5
27B
330
1D4
100
AcDbEntity
  8
0
  6
CONTINUOUS
 62
     7
100
AcDbVertex
100
AcDb2dVertex
 10
8.2405019804
 20
6.005385439
 30
0.0
  0
VERTEX
  5
27C
330
1D4
100
AcDbEntity
  8
0
  6
CONTINUOUS
 62
     7
100
AcDbVertex
100
AcDb2dVertex
 10
8.2527091985
 20
5.9863033535
 30
0.0
  0
VERTEX
  5
27D
330
1D4
100
AcDbEntity
  8
0
  6
CONTINUOUS
 62
     7
100
AcDbVertex
100
AcDb2dVertex
 10
8.2660204838
 20
5.9685877253
 30
0.0
  0
VERTEX
  5
27E
330
1D4
100
AcDbEntity
  8
0
  6
CONTINUOUS
 62
     7
100
AcDbVertex
100
AcDb2dVertex
 10
8.2804032614
 20
5.9522819074
 30
0.0
  0
VERTEX
  5
27F
330
1D4
100
AcDbEntity
  8
0
  6
CONTINUOUS
 62
     7
100
AcDbVertex
100
AcDb2dVertex
 10
8.2958223342
 20
5.9374258031
 30
0.0
  0
VERTEX
  5
280
330
1D4
100
AcDbEntity
  8
0
  6
CONTINUOUS
 62
     7
100
AcDbVertex
100
AcDb2dVertex
 10
8.3122399692
 20
5.9240557676
 30
0.0
  0
VERTEX
  5
281
330
1D4
100
AcDbEntity
  8
0
  6
CONTINUOUS
 62
     7
100
AcDbVertex
100
AcDb2dVertex
 10
8.3296159897
 20
5.9122045198
 30
0.0
  0
VERTEX
  5
282
330
1D4
100
AcDbEntity
  8
0
  6
CONTINUOUS
 62
     7
100
AcDbVertex
100
AcDb2dVertex
 10
8.3479078736
 20
5.9019010614
 30
0.0
  0
VERTEX
  5
283
330
1D4
100
AcDbEntity
  8
0
  6
CONTINUOUS
 62
     7
100
AcDbVertex
100
AcDb2dVertex
 10
8.3670708577
 20
5.893170607
 30
0.0
  0
VERTEX
  5
284
330
1D4
100
AcDbEntity
  8
0
  6
CONTINUOUS
 62
     7
100
AcDbVertex
100
AcDb2dVertex
 10
8.3870580468
 20
5.8860345213
 30
0.0
  0
VERTEX
  5
285
330
1D4
100
AcDbEntity
  8
0
  6
CONTINUOUS
 62
     7
100
AcDbVertex
100
AcDb2dVertex
 10
8.4078205291
 20
5.8805102675
 30
0.0
  0
VERTEX
  5
286
330
1D4
100
AcDbEntity
  8
0
  6
CONTINUOUS
 62
     7
100
AcDbVertex
100
AcDb2dVertex
 10
8.4293074952
 20
5.8766113645
 30
0.0
  0
VERTEX
  5
287
330
1D4
100
AcDbEntity
  8
0
  6
CONTINUOUS
 62
     7
100
AcDbVertex
100
AcDb2dVertex
 10
8.4514663629
 20
5.8743473534
 30
0.0
  0
VERTEX
  5
288
330
1D4
100
AcDbEntity
  8
0
  6
CONTINUOUS
 62
     7
100
AcDbVertex
100
AcDb2dVertex
 10
8.4742429057
 20
5.8737237748
 30
0.0
  0
VERTEX
  5
289
330
1D4
100
AcDbEntity
  8
0
  6
CONTINUOUS
 62
     7
100
AcDbVertex
100
AcDb2dVertex
 10
8.4975813857
 20
5.8747421545
 30
0.0
  0
VERTEX
  5
28A
330
1D4
100
AcDbEntity
  8
0
  6
CONTINUOUS
 62
     7
100
AcDbVertex
100
AcDb2dVertex
 10
8.5214246897
 20
5.8774000005
 30
0.0
  0
VERTEX
  5
28B
330
1D4
100
AcDbEntity
  8
0
  6
CONTINUOUS
 62
     7
100
AcDbVertex
100
AcDb2dVertex
 10
8.5457144691
 20
5.8816908086
 30
0.0
  0
VERTEX
  5
28C
330
1D4
100
AcDbEntity
  8
0
  6
CONTINUOUS
 62
     7
100
AcDbVertex
100
AcDb2dVertex
 10
8.5703912827
 20
5.8876040784
 30
0.0
  0
VERTEX
  5
28D
330
1D4
100
AcDbEntity
  8
0
  6
CONTINUOUS
 62
     7
100
AcDbVertex
100
AcDb2dVertex
 10
8.5953947423
 20
5.8951253392
 30
0.0
  0
VERTEX
  5
28E
330
1D4
100
AcDbEntity
  8
0
  6
CONTINUOUS
 62
     7
100
AcDbVertex
100
AcDb2dVertex
 10
8.6206636602
 20
5.9042361852
 30
0.0
  0
VERTEX
  5
28F
330
1D4
100
AcDbEntity
  8
0
  6
CONTINUOUS
 62
     7
100
AcDbVertex
100
AcDb2dVertex
 10
8.646136199
 20
5.9149143205
 30
0.0
  0
VERTEX
  5
290
330
1D4
100
AcDbEntity
  8
0
  6
CONTINUOUS
 62
     7
100
AcDbVertex
100
AcDb2dVertex
 10
8.6717500234
 20
5.9271336142
 30
0.0
  0
VERTEX
  5
291
330
1D4
100
AcDbEntity
  8
0
  6
CONTINUOUS
 62
     7
100
AcDbVertex
100
AcDb2dVertex
 10
8.6974424519
 20
5.9408641634
 30
0.0
  0
VERTEX
  5
292
330
1D4
100
AcDbEntity
  8
0
  6
CONTINUOUS
 62
     7
100
AcDbVertex
100
AcDb2dVertex
 10
8.7231506108
 20
5.9560723672
 30
0.0
  0
VERTEX
  5
293
330
1D4
100
AcDbEntity
  8
0
  6
CONTINUOUS
 62
     7
100
AcDbVertex
100
AcDb2dVertex
 10
8.748811588
 20
5.9727210086
 30
0.0
  0
VERTEX
  5
294
330
1D4
100
AcDbEntity
  8
0
  6
CONTINUOUS
 62
     7
100
AcDbVertex
100
AcDb2dVertex
 10
8.7743625867
 20
5.9907693456
 30
0.0
  0
VERTEX
  5
295
330
1D4
100
AcDbEntity
  8
0
  6
CONTINUOUS
 62
     7
100
AcDbVertex
100
AcDb2dVertex
 10
8.7997410795
 20
6.0101732109
 30
0.0
  0
VERTEX
  5
296
330
1D4
100
AcDbEntity
  8
0
  6
CONTINUOUS
 62
     7
100
AcDbVertex
100
AcDb2dVertex
 10
8.8248849608
 20
6.0308851199
 30
0.0
  0
VERTEX
  5
297
330
1D4
100
AcDbEntity
  8
0
  6
CONTINUOUS
 62
     7
100
AcDbVertex
100
AcDb2dVertex
 10
8.8497326994
 20
6.0528543872
 30
0.0
  0
VERTEX
  5
298
330
1D4
100
AcDbEntity
  8
0
  6
CONTINUOUS
 62
     7
100
AcDbVertex
100
AcDb2dVertex
 10
8.8742234887
 20
6.0760272503
 30
0.0
  0
VERTEX
  5
299
330
1D4
100
AcDbEntity
  8
0
  6
CONTINUOUS
 62
     7
100
AcDbVertex
100
AcDb2dVertex
 10
8.8982973956
 20
6.1003470013
 30
0.0
  0
VERTEX
  5
29A
330
1D4
100
AcDbEntity
  8
0
  6
CONTINUOUS
 62
     7
100
AcDbVertex
100
AcDb2dVertex
 10
8.9218955072
 20
6.1257541257
 30
0.0
  0
VERTEX
  5
29B
330
1D4
100
AcDbEntity
  8
0
  6
CONTINUOUS
 62
     7
100
AcDbVertex
100
AcDb2dVertex
 10
8.9449600751
 20
6.1521864479
 30
0.0
  0
VERTEX
  5
29C
330
1D4
100
AcDbEntity
  8
0
  6
CONTINUOUS
 62
     7
100
AcDbVertex
100
AcDb2dVertex
 10
8.9674346563
 20
6.1795792838
 30
0.0
  0
VERTEX
  5
29D
330
1D4
100
AcDbEntity
  8
0
  6
CONTINUOUS
 62
     7
100
AcDbVertex
100
AcDb2dVertex
 10
8.9892642518
 20
6.2078655984
 30
0.0
  0
VERTEX
  5
29E
330
1D4
100
AcDbEntity
  8
0
  6
CONTINUOUS
 62
     7
100
AcDbVertex
100
AcDb2dVertex
 10
9.0103954409
 20
6.2369761703
 30
0.0
  0
VERTEX
  5
29F
330
1D4
100
AcDbEntity
  8
0
  6
CONTINUOUS
 62
     7
100
AcDbVertex
100
AcDb2dVertex
 10
9.0307765121
 20
6.2668397612
 30
0.0
  0
VERTEX
  5
2A0
330
1D4
100
AcDbEntity
  8
0
  6
CONTINUOUS
 62
     7
100
AcDbVertex
100
AcDb2dVertex
 10
9.0503575894
 20
6.2973832897
 30
0.0
  0
VERTEX
  5
2A1
330
1D4
100
AcDbEntity
  8
0
  6
CONTINUOUS
 62
     7
100
AcDbVertex
100
AcDb2dVertex
 10
9.0690907546
 20
6.3285320109
 30
0.0
  0
VERTEX
  5
2A2
330
1D4
100
AcDbEntity
  8
0
  6
CONTINUOUS
 62
     7
100
AcDbVertex
100
AcDb2dVertex
 10
9.0869301647
 20
6.3602096985
 30
0.0
  0
VERTEX
  5
2A3
330
1D4
100
AcDbEntity
  8
0
  6
CONTINUOUS
 62
     7
100
AcDbVertex
100
AcDb2dVertex
 10
9.1038321635
 20
6.3923388319
 30
0.0
  0
VERTEX
  5
2A4
330
1D4
100
AcDbEntity
  8
0
  6
CONTINUOUS
 62
     7
100
AcDbVertex
100
AcDb2dVertex
 10
9.119755389
 20
6.4248407857
 30
0.0
  0
VERTEX
  5
2A5
330
1D4
100
AcDbEntity
  8
0
  6
CONTINUOUS
 62
     7
100
AcDbVertex
100
AcDb2dVertex
 10
9.1346608744
 20
6.4576360223
 30
0.0
  0
VERTEX
  5
2A6
330
1D4
100
AcDbEntity
  8
0
  6
CONTINUOUS
 62
     7
100
AcDbVertex
100
AcDb2dVertex
 10
9.1485121436
 20
6.4906442862
 30
0.0
  0
VERTEX
  5
2A7
330
1D4
100
AcDbEntity
  8
0
  6
CONTINUOUS
 62
     7
100
AcDbVertex
100
AcDb2dVertex
 10
9.1612753
 20
6.5237848006
 30
0.0
  0
VERTEX
  5
2A8
330
1D4
100
AcDbEntity
  8
0
  6
CONTINUOUS
 62
     7
100
AcDbVertex
100
AcDb2dVertex
 10
9.1729191102
 20
6.5569764651
 30
0.0
  0
VERTEX
  5
2A9
330
1D4
100
AcDbEntity
  8
0
  6
CONTINUOUS
 62
     7
100
AcDbVertex
100
AcDb2dVertex
 10
9.1834150798
 20
6.5901380543
 30
0.0
  0
VERTEX
  5
2AA
330
1D4
100
AcDbEntity
  8
0
  6
CONTINUOUS
 62
     7
100
AcDbVertex
100
AcDb2dVertex
 10
9.1927375234
 20
6.623188416
 30
0.0
  0
VERTEX
  5
2AB
330
1D4
100
AcDbEntity
  8
0
  6
CONTINUOUS
 62
     7
100
AcDbVertex
100
AcDb2dVertex
 10
9.2008636275
 20
6.6560466706
 30
0.0
  0
VERTEX
  5
2AC
330
1D4
100
AcDbEntity
  8
0
  6
CONTINUOUS
 62
     7
100
AcDbVertex
100
AcDb2dVertex
 10
9.2077735059
 20
6.6886324083
 30
0.0
  0
VERTEX
  5
2AD
330
1D4
100
AcDbEntity
  8
0
  6
CONTINUOUS
 62
     7
100
AcDbVertex
100
AcDb2dVertex
 10
9.2134502493
 20
6.7208658865
 30
0.0
  0
VERTEX
  5
2AE
330
1D4
100
AcDbEntity
  8
0
  6
CONTINUOUS
 62
     7
100
AcDbVertex
100
AcDb2dVertex
 10
9.2178799655
 20
6.7526682244
 30
0.0
  0
VERTEX
  5
2AF
330
1D4
100
AcDbEntity
  8
0
  6
CONTINUOUS
 62
     7
100
AcDbVertex
100
AcDb2dVertex
 10
9.2210518144
 20
6.7839615963
 30
0.0
  0
VERTEX
  5
2B0
330
1D4
100
AcDbEntity
  8
0
  6
CONTINUOUS
 62
     7
100
AcDbVertex
100
AcDb2dVertex
 10
9.2229580338
 20
6.8146694221
 30
0.0
  0
VERTEX
  5
2B1
330
1D4
100
AcDbEntity
  8
0
  6
CONTINUOUS
 62
     7
100
AcDbVertex
100
AcDb2dVertex
 10
9.2235939591
 20
6.8447165547
 30
0.0
  0
SEQEND
  5
2B2
330
1D4
100
AcDbEntity
  8
0
  6
CONTINUOUS
 62
     7
  0
POLYLINE
  5
1D5
330
1F
100
AcDbEntity
  8
0
  6
CONTINUOUS
 62
     7
100
AcDb2dPolyline
 66
     1
 10
0.0
 20
0.0
 30
0.0
  0
VERTEX
  5
2B3
330
1D5
100
AcDbEntity
  8
0
  6
CONTINUOUS
 62
     7
100
AcDbVertex
100
AcDb2dVertex
 10
8.6933500667
 20
5.9384537921
 30
0.0
  0
VERTEX
  5
2B4
330
1D5
100
AcDbEntity
  8
0
  6
CONTINUOUS
 62
     7
100
AcDbVertex
100
AcDb2dVertex
 10
8.6738951455
 20
5.9276312645
 30
0.0
  0
VERTEX
  5
2B5
330
1D5
100
AcDbEntity
  8
0
  6
CONTINUOUS
 62
     7
100
AcDbVertex
100
AcDb2dVertex
 10
8.6481148393
 20
5.9145633664
 30
0.0
  0
VERTEX
  5
2B6
330
1D5
100
AcDbEntity
  8
0
  6
CONTINUOUS
 62
     7
100
AcDbVertex
100
AcDb2dVertex
 10
8.6224416216
 20
5.9030045741
 30
0.0
  0
VERTEX
  5
2B7
330
1D5
100
AcDbEntity
  8
0
  6
CONTINUOUS
 62
     7
100
AcDbVertex
100
AcDb2dVertex
 10
8.5969363864
 20
5.8929823039
 30
0.0
  0
VERTEX
  5
2B8
330
1D5
100
AcDbEntity
  8
0
  6
CONTINUOUS
 62
     7
100
AcDbVertex
100
AcDb2dVertex
 10
8.5716596294
 20
5.8845203274
 30
0.0
  0
VERTEX
  5
2B9
330
1D5
100
AcDbEntity
  8
0
  6
CONTINUOUS
 62
     7
100
AcDbVertex
100
AcDb2dVertex
 10
8.5466713042
 20
5.8776387156
 30
0.0
  0
VERTEX
  5
2BA
330
1D5
100
AcDbEntity
  8
0
  6
CONTINUOUS
 62
     7
100
AcDbVertex
100
AcDb2dVertex
 10
8.5220306804
 20
5.8723537908
 30
0.0
  0
VERTEX
  5
2BB
330
1D5
100
AcDbEntity
  8
0
  6
CONTINUOUS
 62
     7
100
AcDbVertex
100
AcDb2dVertex
 10
8.4977962028
 20
5.8686780883
 30
0.0
  0
VERTEX
  5
2BC
330
1D5
100
AcDbEntity
  8
0
  6
CONTINUOUS
 62
     7
100
AcDbVertex
100
AcDb2dVertex
 10
8.4740253529
 20
5.8666203264
 30
0.0
  0
VERTEX
  5
2BD
330
1D5
100
AcDbEntity
  8
0
  6
CONTINUOUS
 62
     7
100
AcDbVertex
100
AcDb2dVertex
 10
8.4507745126
 20
5.866185386
 30
0.0
  0
VERTEX
  5
2BE
330
1D5
100
AcDbEntity
  8
0
  6
CONTINUOUS
 62
     7
100
AcDbVertex
100
AcDb2dVertex
 10
8.4280988302
 20
5.8673742987
 30
0.0
  0
VERTEX
  5
2BF
330
1D5
100
AcDbEntity
  8
0
  6
CONTINUOUS
 62
     7
100
AcDbVertex
100
AcDb2dVertex
 10
8.4060520901
 20
5.8701842445
 30
0.0
  0
VERTEX
  5
2C0
330
1D5
100
AcDbEntity
  8
0
  6
CONTINUOUS
 62
     7
100
AcDbVertex
100
AcDb2dVertex
 10
8.3846865845
 20
5.8746085586
 30
0.0
  0
VERTEX
  5
2C1
330
1D5
100
AcDbEntity
  8
0
  6
CONTINUOUS
 62
     7
100
AcDbVertex
100
AcDb2dVertex
 10
8.3640529902
 20
5.8806367468
 30
0.0
  0
VERTEX
  5
2C2
330
1D5
100
AcDbEntity
  8
0
  6
CONTINUOUS
 62
     7
100
AcDbVertex
100
AcDb2dVertex
 10
8.3442002477
 20
5.8882545112
 30
0.0
  0
VERTEX
  5
2C3
330
1D5
100
AcDbEntity
  8
0
  6
CONTINUOUS
 62
     7
100
AcDbVertex
100
AcDb2dVertex
 10
8.3251754456
 20
5.897443783
 30
0.0
  0
VERTEX
  5
2C4
330
1D5
100
AcDbEntity
  8
0
  6
CONTINUOUS
 62
     7
100
AcDbVertex
100
AcDb2dVertex
 10
8.3070237086
 20
5.9081827665
 30
0.0
  0
VERTEX
  5
2C5
330
1D5
100
AcDbEntity
  8
0
  6
CONTINUOUS
 62
     7
100
AcDbVertex
100
AcDb2dVertex
 10
8.2897880905
 20
5.92044599
 30
0.0
  0
VERTEX
  5
2C6
330
1D5
100
AcDbEntity
  8
0
  6
CONTINUOUS
 62
     7
100
AcDbVertex
100
AcDb2dVertex
 10
8.2735094725
 20
5.9342043663
 30
0.0
  0
VERTEX
  5
2C7
330
1D5
100
AcDbEntity
  8
0
  6
CONTINUOUS
 62
     7
100
AcDbVertex
100
AcDb2dVertex
 10
8.2582264655
 20
5.9494252622
 30
0.0
  0
VERTEX
  5
2C8
330
1D5
100
AcDbEntity
  8
0
  6
CONTINUOUS
 62
     7
100
AcDbVertex
100
AcDb2dVertex
 10
8.2439753192
 20
5.9660725754
 30
0.0
  0
VERTEX
  5
2C9
330
1D5
100
AcDbEntity
  8
0
  6
CONTINUOUS
 62
     7
100
AcDbVertex
100
AcDb2dVertex
 10
8.2307898357
 20
5.9841068203
 30
0.0
  0
VERTEX
  5
2CA
330
1D5
100
AcDbEntity
  8
0
  6
CONTINUOUS
 62
     7
100
AcDbVertex
100
AcDb2dVertex
 10
8.2187012895
 20
6.0034852217
 30
0.0
  0
VERTEX
  5
2CB
330
1D5
100
AcDbEntity
  8
0
  6
CONTINUOUS
 62
     7
100
AcDbVertex
100
AcDb2dVertex
 10
8.2077383533
 20
6.0241618161
 30
0.0
  0
VERTEX
  5
2CC
330
1D5
100
AcDbEntity
  8
0
  6
CONTINUOUS
 62
     7
100
AcDbVertex
100
AcDb2dVertex
 10
8.19792703
 20
6.0460875609
 30
0.0
  0
VERTEX
  5
2CD
330
1D5
100
AcDbEntity
  8
0
  6
CONTINUOUS
 62
     7
100
AcDbVertex
100
AcDb2dVertex
 10
8.189290591
 20
6.0692104508
 30
0.0
  0
VERTEX
  5
2CE
330
1D5
100
AcDbEntity
  8
0
  6
CONTINUOUS
 62
     7
100
AcDbVertex
100
AcDb2dVertex
 10
8.1818495209
 20
6.0934756407
 30
0.0
  0
VERTEX
  5
2CF
330
1D5
100
AcDbEntity
  8
0
  6
CONTINUOUS
 62
     7
100
AcDbVertex
100
AcDb2dVertex
 10
8.1756214692
 20
6.1188255763
 30
0.0
  0
VERTEX
  5
2D0
330
1D5
100
AcDbEntity
  8
0
  6
CONTINUOUS
 62
     7
100
AcDbVertex
100
AcDb2dVertex
 10
8.1706212081
 20
6.1452001304
 30
0.0
  0
VERTEX
  5
2D1
330
1D5
100
AcDbEntity
  8
0
  6
CONTINUOUS
 62
     7
100
AcDbVertex
100
AcDb2dVertex
 10
8.1668605976
 20
6.1725367454
 30
0.0
  0
VERTEX
  5
2D2
330
1D5
100
AcDbEntity
  8
0
  6
CONTINUOUS
 62
     7
100
AcDbVertex
100
AcDb2dVertex
 10
8.1643485575
 20
6.2007705819
 30
0.0
  0
VERTEX
  5
2D3
330
1D5
100
AcDbEntity
  8
0
  6
CONTINUOUS
 62
     7
100
AcDbVertex
100
AcDb2dVertex
 10
8.1630910461
 20
6.2298346723
 30
0.0
  0
VERTEX
  5
2D4
330
1D5
100
AcDbEntity
  8
0
  6
CONTINUOUS
 62
     7
100
AcDbVertex
100
AcDb2dVertex
 10
8.1630910461
 20
6.2596600799
 30
0.0
  0
VERTEX
  5
2D5
330
1D5
100
AcDbEntity
  8
0
  6
CONTINUOUS
 62
     7
100
AcDbVertex
100
AcDb2dVertex
 10
8.1643485575
 20
6.2901760621
 30
0.0
  0
VERTEX
  5
2D6
330
1D5
100
AcDbEntity
  8
0
  6
CONTINUOUS
 62
     7
100
AcDbVertex
100
AcDb2dVertex
 10
8.1668605976
 20
6.3213102383
 30
0.0
  0
VERTEX
  5
2D7
330
1D5
100
AcDbEntity
  8
0
  6
CONTINUOUS
 62
     7
100
AcDbVertex
100
AcDb2dVertex
 10
8.1706212081
 20
6.3529887618
 30
0.0
  0
VERTEX
  5
2D8
330
1D5
100
AcDbEntity
  8
0
  6
CONTINUOUS
 62
     7
100
AcDbVertex
100
AcDb2dVertex
 10
8.1756214692
 20
6.3851364944
 30
0.0
  0
VERTEX
  5
2D9
330
1D5
100
AcDbEntity
  8
0
  6
CONTINUOUS
 62
     7
100
AcDbVertex
100
AcDb2dVertex
 10
8.1818495209
 20
6.4176771855
 30
0.0
  0
VERTEX
  5
2DA
330
1D5
100
AcDbEntity
  8
0
  6
CONTINUOUS
 62
     7
100
AcDbVertex
100
AcDb2dVertex
 10
8.189290591
 20
6.450533652
 30
0.0
  0
VERTEX
  5
2DB
330
1D5
100
AcDbEntity
  8
0
  6
CONTINUOUS
 62
     7
100
AcDbVertex
100
AcDb2dVertex
 10
8.19792703
 20
6.4836279621
 30
0.0
  0
VERTEX
  5
2DC
330
1D5
100
AcDbEntity
  8
0
  6
CONTINUOUS
 62
     7
100
AcDbVertex
100
AcDb2dVertex
 10
8.2077383533
 20
6.5168816197
 30
0.0
  0
VERTEX
  5
2DD
330
1D5
100
AcDbEntity
  8
0
  6
CONTINUOUS
 62
     7
100
AcDbVertex
100
AcDb2dVertex
 10
8.2187012895
 20
6.5502157508
 30
0.0
  0
VERTEX
  5
2DE
330
1D5
100
AcDbEntity
  8
0
  6
CONTINUOUS
 62
     7
100
AcDbVertex
100
AcDb2dVertex
 10
8.2307898357
 20
6.5835512905
 30
0.0
  0
VERTEX
  5
2DF
330
1D5
100
AcDbEntity
  8
0
  6
CONTINUOUS
 62
     7
100
AcDbVertex
100
AcDb2dVertex
 10
8.2439753192
 20
6.6168091706
 30
0.0
  0
VERTEX
  5
2E0
330
1D5
100
AcDbEntity
  8
0
  6
CONTINUOUS
 62
     7
100
AcDbVertex
100
AcDb2dVertex
 10
8.2582264655
 20
6.6499105072
 30
0.0
  0
VERTEX
  5
2E1
330
1D5
100
AcDbEntity
  8
0
  6
CONTINUOUS
 62
     7
100
AcDbVertex
100
AcDb2dVertex
 10
8.2735094725
 20
6.6827767874
 30
0.0
  0
VERTEX
  5
2E2
330
1D5
100
AcDbEntity
  8
0
  6
CONTINUOUS
 62
     7
100
AcDbVertex
100
AcDb2dVertex
 10
8.2897880905
 20
6.7153300561
 30
0.0
  0
VERTEX
  5
2E3
330
1D5
100
AcDbEntity
  8
0
  6
CONTINUOUS
 62
     7
100
AcDbVertex
100
AcDb2dVertex
 10
8.3070237086
 20
6.7474931005
 30
0.0
  0
VERTEX
  5
2E4
330
1D5
100
AcDbEntity
  8
0
  6
CONTINUOUS
 62
     7
100
AcDbVertex
100
AcDb2dVertex
 10
8.3251754456
 20
6.7791896335
 30
0.0
  0
VERTEX
  5
2E5
330
1D5
100
AcDbEntity
  8
0
  6
CONTINUOUS
 62
     7
100
AcDbVertex
100
AcDb2dVertex
 10
8.3442002477
 20
6.8103444743
 30
0.0
  0
VERTEX
  5
2E6
330
1D5
100
AcDbEntity
  8
0
  6
CONTINUOUS
 62
     7
100
AcDbVertex
100
AcDb2dVertex
 10
8.3640529902
 20
6.8408837272
 30
0.0
  0
VERTEX
  5
2E7
330
1D5
100
AcDbEntity
  8
0
  6
CONTINUOUS
 62
     7
100
AcDbVertex
100
AcDb2dVertex
 10
8.3846865845
 20
6.8707349564
 30
0.0
  0
VERTEX
  5
2E8
330
1D5
100
AcDbEntity
  8
0
  6
CONTINUOUS
 62
     7
100
AcDbVertex
100
AcDb2dVertex
 10
8.4060520901
 20
6.899827358
 30
0.0
  0
VERTEX
  5
2E9
330
1D5
100
AcDbEntity
  8
0
  6
CONTINUOUS
 62
     7
100
AcDbVertex
100
AcDb2dVertex
 10
8.4280988302
 20
6.9280919282
 30
0.0
  0
VERTEX
  5
2EA
330
1D5
100
AcDbEntity
  8
0
  6
CONTINUOUS
 62
     7
100
AcDbVertex
100
AcDb2dVertex
 10
8.4507745126
 20
6.9554616265
 30
0.0
  0
VERTEX
  5
2EB
330
1D5
100
AcDbEntity
  8
0
  6
CONTINUOUS
 62
     7
100
AcDbVertex
100
AcDb2dVertex
 10
8.4740253529
 20
6.9818715349
 30
0.0
  0
VERTEX
  5
2EC
330
1D5
100
AcDbEntity
  8
0
  6
CONTINUOUS
 62
     7
100
AcDbVertex
100
AcDb2dVertex
 10
8.4977962028
 20
7.0072590122
 30
0.0
  0
VERTEX
  5
2ED
330
1D5
100
AcDbEntity
  8
0
  6
CONTINUOUS
 62
     7
100
AcDbVertex
100
AcDb2dVertex
 10
8.5220306804
 20
7.0315638419
 30
0.0
  0
VERTEX
  5
2EE
330
1D5
100
AcDbEntity
  8
0
  6
CONTINUOUS
 62
     7
100
AcDbVertex
100
AcDb2dVertex
 10
8.5466713042
 20
7.0547283758
 30
0.0
  0
VERTEX
  5
2EF
330
1D5
100
AcDbEntity
  8
0
  6
CONTINUOUS
 62
     7
100
AcDbVertex
100
AcDb2dVertex
 10
8.5716596294
 20
7.0766976701
 30
0.0
  0
VERTEX
  5
2F0
330
1D5
100
AcDbEntity
  8
0
  6
CONTINUOUS
 62
     7
100
AcDbVertex
100
AcDb2dVertex
 10
8.5969363864
 20
7.0974196161
 30
0.0
  0
VERTEX
  5
2F1
330
1D5
100
AcDbEntity
  8
0
  6
CONTINUOUS
 62
     7
100
AcDbVertex
100
AcDb2dVertex
 10
8.6224416216
 20
7.1168450636
 30
0.0
  0
VERTEX
  5
2F2
330
1D5
100
AcDbEntity
  8
0
  6
CONTINUOUS
 62
     7
100
AcDbVertex
100
AcDb2dVertex
 10
8.6481148393
 20
7.1349279376
 30
0.0
  0
VERTEX
  5
2F3
330
1D5
100
AcDbEntity
  8
0
  6
CONTINUOUS
 62
     7
100
AcDbVertex
100
AcDb2dVertex
 10
8.6738951455
 20
7.1516253475
 30
0.0
  0
VERTEX
  5
2F4
330
1D5
100
AcDbEntity
  8
0
  6
CONTINUOUS
 62
     7
100
AcDbVertex
100
AcDb2dVertex
 10
8.6997213923
 20
7.1668976889
 30
0.0
  0
VERTEX
  5
2F5
330
1D5
100
AcDbEntity
  8
0
  6
CONTINUOUS
 62
     7
100
AcDbVertex
100
AcDb2dVertex
 10
8.7255323225
 20
7.1807087375
 30
0.0
  0
VERTEX
  5
2F6
330
1D5
100
AcDbEntity
  8
0
  6
CONTINUOUS
 62
     7
100
AcDbVertex
100
AcDb2dVertex
 10
8.7512667155
 20
7.1930257351
 30
0.0
  0
VERTEX
  5
2F7
330
1D5
100
AcDbEntity
  8
0
  6
CONTINUOUS
 62
     7
100
AcDbVertex
100
AcDb2dVertex
 10
8.7768635322
 20
7.203819467
 30
0.0
  0
VERTEX
  5
2F8
330
1D5
100
AcDbEntity
  8
0
  6
CONTINUOUS
 62
     7
100
AcDbVertex
100
AcDb2dVertex
 10
8.8022620597
 20
7.2130643317
 30
0.0
  0
VERTEX
  5
2F9
330
1D5
100
AcDbEntity
  8
0
  6
CONTINUOUS
 62
     7
100
AcDbVertex
100
AcDb2dVertex
 10
8.8274020556
 20
7.2207384015
 30
0.0
  0
VERTEX
  5
2FA
330
1D5
100
AcDbEntity
  8
0
  6
CONTINUOUS
 62
     7
100
AcDbVertex
100
AcDb2dVertex
 10
8.8522238905
 20
7.2268234742
 30
0.0
  0
VERTEX
  5
2FB
330
1D5
100
AcDbEntity
  8
0
  6
CONTINUOUS
 62
     7
100
AcDbVertex
100
AcDb2dVertex
 10
8.8766686898
 20
7.2313051168
 30
0.0
  0
VERTEX
  5
2FC
330
1D5
100
AcDbEntity
  8
0
  6
CONTINUOUS
 62
     7
100
AcDbVertex
100
AcDb2dVertex
 10
8.9006784732
 20
7.2341726993
 30
0.0
  0
VERTEX
  5
2FD
330
1D5
100
AcDbEntity
  8
0
  6
CONTINUOUS
 62
     7
100
AcDbVertex
100
AcDb2dVertex
 10
8.924196292
 20
7.2354194201
 30
0.0
  0
VERTEX
  5
2FE
330
1D5
100
AcDbEntity
  8
0
  6
CONTINUOUS
 62
     7
100
AcDbVertex
100
AcDb2dVertex
 10
8.9471663647
 20
7.2350423221
 30
0.0
  0
VERTEX
  5
2FF
330
1D5
100
AcDbEntity
  8
0
  6
CONTINUOUS
 62
     7
100
AcDbVertex
100
AcDb2dVertex
 10
8.9695342087
 20
7.2330422998
 30
0.0
  0
VERTEX
  5
300
330
1D5
100
AcDbEntity
  8
0
  6
CONTINUOUS
 62
     7
100
AcDbVertex
100
AcDb2dVertex
 10
8.99124677
 20
7.229424097
 30
0.0
  0
VERTEX
  5
301
330
1D5
100
AcDbEntity
  8
0
  6
CONTINUOUS
 62
     7
100
AcDbVertex
100
AcDb2dVertex
 10
9.0122525488
 20
7.2241962956
 30
0.0
  0
VERTEX
  5
302
330
1D5
100
AcDbEntity
  8
0
  6
CONTINUOUS
 62
     7
100
AcDbVertex
100
AcDb2dVertex
 10
9.0325017216
 20
7.2173712955
 30
0.0
  0
VERTEX
  5
303
330
1D5
100
AcDbEntity
  8
0
  6
CONTINUOUS
 62
     7
100
AcDbVertex
100
AcDb2dVertex
 10
9.0519462598
 20
7.2089652848
 30
0.0
  0
VERTEX
  5
304
330
1D5
100
AcDbEntity
  8
0
  6
CONTINUOUS
 62
     7
100
AcDbVertex
100
AcDb2dVertex
 10
9.070540043
 20
7.1989982016
 30
0.0
  0
VERTEX
  5
305
330
1D5
100
AcDbEntity
  8
0
  6
CONTINUOUS
 62
     7
100
AcDbVertex
100
AcDb2dVertex
 10
9.0882389688
 20
7.1874936867
 30
0.0
  0
VERTEX
  5
306
330
1D5
100
AcDbEntity
  8
0
  6
CONTINUOUS
 62
     7
100
AcDbVertex
100
AcDb2dVertex
 10
9.1050010573
 20
7.1744790275
 30
0.0
  0
VERTEX
  5
307
330
1D5
100
AcDbEntity
  8
0
  6
CONTINUOUS
 62
     7
100
AcDbVertex
100
AcDb2dVertex
 10
9.1207865507
 20
7.1599850935
 30
0.0
  0
VERTEX
  5
308
330
1D5
100
AcDbEntity
  8
0
  6
CONTINUOUS
 62
     7
100
AcDbVertex
100
AcDb2dVertex
 10
9.1355580076
 20
7.1440462626
 30
0.0
  0
VERTEX
  5
309
330
1D5
100
AcDbEntity
  8
0
  6
CONTINUOUS
 62
     7
100
AcDbVertex
100
AcDb2dVertex
 10
9.1492803916
 20
7.12670034
 30
0.0
  0
VERTEX
  5
30A
330
1D5
100
AcDbEntity
  8
0
  6
CONTINUOUS
 62
     7
100
AcDbVertex
100
AcDb2dVertex
 10
9.1619211548
 20
7.1079884682
 30
0.0
  0
VERTEX
  5
30B
330
1D5
100
AcDbEntity
  8
0
  6
CONTINUOUS
 62
     7
100
AcDbVertex
100
AcDb2dVertex
 10
9.1734503147
 20
7.0879550298
 30
0.0
  0
VERTEX
  5
30C
330
1D5
100
AcDbEntity
  8
0
  6
CONTINUOUS
 62
     7
100
AcDbVertex
100
AcDb2dVertex
 10
9.1838405255
 20
7.0666475419
 30
0.0
  0
VERTEX
  5
30D
330
1D5
100
AcDbEntity
  8
0
  6
CONTINUOUS
 62
     7
100
AcDbVertex
100
AcDb2dVertex
 10
9.1930671426
 20
7.0441165434
 30
0.0
  0
VERTEX
  5
30E
330
1D5
100
AcDbEntity
  8
0
  6
CONTINUOUS
 62
     7
100
AcDbVertex
100
AcDb2dVertex
 10
9.2011082816
 20
7.0204154754
 30
0.0
  0
VERTEX
  5
30F
330
1D5
100
AcDbEntity
  8
0
  6
CONTINUOUS
 62
     7
100
AcDbVertex
100
AcDb2dVertex
 10
9.2079448697
 20
6.9956005543
 30
0.0
  0
VERTEX
  5
310
330
1D5
100
AcDbEntity
  8
0
  6
CONTINUOUS
 62
     7
100
AcDbVertex
100
AcDb2dVertex
 10
9.2135606914
 20
6.9697306383
 30
0.0
  0
VERTEX
  5
311
330
1D5
100
AcDbEntity
  8
0
  6
CONTINUOUS
 62
     7
100
AcDbVertex
100
AcDb2dVertex
 10
9.2179424265
 20
6.9428670879
 30
0.0
  0
VERTEX
  5
312
330
1D5
100
AcDbEntity
  8
0
  6
CONTINUOUS
 62
     7
100
AcDbVertex
100
AcDb2dVertex
 10
9.2210796821
 20
6.9150736205
 30
0.0
  0
VERTEX
  5
313
330
1D5
100
AcDbEntity
  8
0
  6
CONTINUOUS
 62
     7
100
AcDbVertex
100
AcDb2dVertex
 10
9.2229650169
 20
6.8864161593
 30
0.0
  0
VERTEX
  5
314
330
1D5
100
AcDbEntity
  8
0
  6
CONTINUOUS
 62
     7
100
AcDbVertex
100
AcDb2dVertex
 10
9.2235939591
 20
6.8569626764
 30
0.0
  0
VERTEX
  5
315
330
1D5
100
AcDbEntity
  8
0
  6
CONTINUOUS
 62
     7
100
AcDbVertex
100
AcDb2dVertex
 10
9.2235939591
 20
6.8569626764
 30
0.0
  0
SEQEND
  5
316
330
1D5
100
AcDbEntity
  8
0
  6
CONTINUOUS
 62
     7
  0
POLYLINE
  5
1D6
330
1F
100
AcDbEntity
  8
0
  6
CONTINUOUS
 62
     7
100
AcDb2dPolyline
 66
     1
 10
0.0
 20
0.0
 30
0.0
  0
VERTEX
  5
317
330
1D6
100
AcDbEntity
  8
0
  6
CONTINUOUS
 62
     7
100
AcDbVertex
100
AcDb2dVertex
 10
8.0287864296
 20
7.8004062434
 30
0.0
  0
VERTEX
  5
318
330
1D6
100
AcDbEntity
  8
0
  6
CONTINUOUS
 62
     7
100
AcDbVertex
100
AcDb2dVertex
 10
8.0124992915
 20
7.809025247
 30
0.0
  0
VERTEX
  5
319
330
1D6
100
AcDbEntity
  8
0
  6
CONTINUOUS
 62
     7
100
AcDbVertex
100
AcDb2dVertex
 10
7.9930547533
 20
7.8174312577
 30
0.0
  0
VERTEX
  5
31A
330
1D6
100
AcDbEntity
  8
0
  6
CONTINUOUS
 62
     7
100
AcDbVertex
100
AcDb2dVertex
 10
7.9728055804
 20
7.8242562578
 30
0.0
  0
VERTEX
  5
31B
330
1D6
100
AcDbEntity
  8
0
  6
CONTINUOUS
 62
     7
100
AcDbVertex
100
AcDb2dVertex
 10
7.9517998016
 20
7.8294840592
 30
0.0
  0
VERTEX
  5
31C
330
1D6
100
AcDbEntity
  8
0
  6
CONTINUOUS
 62
     7
100
AcDbVertex
100
AcDb2dVertex
 10
7.9300872403
 20
7.833102262
 30
0.0
  0
VERTEX
  5
31D
330
1D6
100
AcDbEntity
  8
0
  6
CONTINUOUS
 62
     7
100
AcDbVertex
100
AcDb2dVertex
 10
7.9077193963
 20
7.8351022843
 30
0.0
  0
VERTEX
  5
31E
330
1D6
100
AcDbEntity
  8
0
  6
CONTINUOUS
 62
     7
100
AcDbVertex
100
AcDb2dVertex
 10
7.8847493237
 20
7.8354793823
 30
0.0
  0
VERTEX
  5
31F
330
1D6
100
AcDbEntity
  8
0
  6
CONTINUOUS
 62
     7
100
AcDbVertex
100
AcDb2dVertex
 10
7.8612315048
 20
7.8342326615
 30
0.0
  0
VERTEX
  5
320
330
1D6
100
AcDbEntity
  8
0
  6
CONTINUOUS
 62
     7
100
AcDbVertex
100
AcDb2dVertex
 10
7.8372217215
 20
7.831365079
 30
0.0
  0
VERTEX
  5
321
330
1D6
100
AcDbEntity
  8
0
  6
CONTINUOUS
 62
     7
100
AcDbVertex
100
AcDb2dVertex
 10
7.8127769222
 20
7.8268834364
 30
0.0
  0
VERTEX
  5
322
330
1D6
100
AcDbEntity
  8
0
  6
CONTINUOUS
 62
     7
100
AcDbVertex
100
AcDb2dVertex
 10
7.7879550872
 20
7.8207983637
 30
0.0
  0
VERTEX
  5
323
330
1D6
100
AcDbEntity
  8
0
  6
CONTINUOUS
 62
     7
100
AcDbVertex
100
AcDb2dVertex
 10
7.7628150914
 20
7.8131242939
 30
0.0
  0
VERTEX
  5
324
330
1D6
100
AcDbEntity
  8
0
  6
CONTINUOUS
 62
     7
100
AcDbVertex
100
AcDb2dVertex
 10
7.7374165638
 20
7.8038794292
 30
0.0
  0
VERTEX
  5
325
330
1D6
100
AcDbEntity
  8
0
  6
CONTINUOUS
 62
     7
100
AcDbVertex
100
AcDb2dVertex
 10
7.7118197472
 20
7.7930856973
 30
0.0
  0
VERTEX
  5
326
330
1D6
100
AcDbEntity
  8
0
  6
CONTINUOUS
 62
     7
100
AcDbVertex
100
AcDb2dVertex
 10
7.6860853541
 20
7.7807686997
 30
0.0
  0
VERTEX
  5
327
330
1D6
100
AcDbEntity
  8
0
  6
CONTINUOUS
 62
     7
100
AcDbVertex
100
AcDb2dVertex
 10
7.6602744239
 20
7.7669576511
 30
0.0
  0
VERTEX
  5
328
330
1D6
100
AcDbEntity
  8
0
  6
CONTINUOUS
 62
     7
100
AcDbVertex
100
AcDb2dVertex
 10
7.6344481772
 20
7.7516853097
 30
0.0
  0
VERTEX
  5
329
330
1D6
100
AcDbEntity
  8
0
  6
CONTINUOUS
 62
     7
100
AcDbVertex
100
AcDb2dVertex
 10
7.608667871
 20
7.7349878998
 30
0.0
  0
VERTEX
  5
32A
330
1D6
100
AcDbEntity
  8
0
  6
CONTINUOUS
 62
     7
100
AcDbVertex
100
AcDb2dVertex
 10
7.5829946532
 20
7.7169050258
 30
0.0
  0
VERTEX
  5
32B
330
1D6
100
AcDbEntity
  8
0
  6
CONTINUOUS
 62
     7
100
AcDbVertex
100
AcDb2dVertex
 10
7.557489418
 20
7.6974795783
 30
0.0
  0
VERTEX
  5
32C
330
1D6
100
AcDbEntity
  8
0
  6
CONTINUOUS
 62
     7
100
AcDbVertex
100
AcDb2dVertex
 10
7.532212661
 20
7.6767576323
 30
0.0
  0
VERTEX
  5
32D
330
1D6
100
AcDbEntity
  8
0
  6
CONTINUOUS
 62
     7
100
AcDbVertex
100
AcDb2dVertex
 10
7.5072243358
 20
7.654788338
 30
0.0
  0
VERTEX
  5
32E
330
1D6
100
AcDbEntity
  8
0
  6
CONTINUOUS
 62
     7
100
AcDbVertex
100
AcDb2dVertex
 10
7.482583712
 20
7.6316238041
 30
0.0
  0
VERTEX
  5
32F
330
1D6
100
AcDbEntity
  8
0
  6
CONTINUOUS
 62
     7
100
AcDbVertex
100
AcDb2dVertex
 10
7.4583492344
 20
7.6073189744
 30
0.0
  0
VERTEX
  5
330
330
1D6
100
AcDbEntity
  8
0
  6
CONTINUOUS
 62
     7
100
AcDbVertex
100
AcDb2dVertex
 10
7.4345783846
 20
7.5819314971
 30
0.0
  0
VERTEX
  5
331
330
1D6
100
AcDbEntity
  8
0
  6
CONTINUOUS
 62
     7
100
AcDbVertex
100
AcDb2dVertex
 10
7.4113275442
 20
7.5555215887
 30
0.0
  0
VERTEX
  5
332
330
1D6
100
AcDbEntity
  8
0
  6
CONTINUOUS
 62
     7
100
AcDbVertex
100
AcDb2dVertex
 10
7.3886518619
 20
7.5281518904
 30
0.0
  0
VERTEX
  5
333
330
1D6
100
AcDbEntity
  8
0
  6
CONTINUOUS
 62
     7
100
AcDbVertex
100
AcDb2dVertex
 10
7.3666051217
 20
7.4998873202
 30
0.0
  0
VERTEX
  5
334
330
1D6
100
AcDbEntity
  8
0
  6
CONTINUOUS
 62
     7
100
AcDbVertex
100
AcDb2dVertex
 10
7.3452396162
 20
7.4707949186
 30
0.0
  0
VERTEX
  5
335
330
1D6
100
AcDbEntity
  8
0
  6
CONTINUOUS
 62
     7
100
AcDbVertex
100
AcDb2dVertex
 10
7.3246060219
 20
7.4409436894
 30
0.0
  0
VERTEX
  5
336
330
1D6
100
AcDbEntity
  8
0
  6
CONTINUOUS
 62
     7
100
AcDbVertex
100
AcDb2dVertex
 10
7.3047532794
 20
7.4104044365
 30
0.0
  0
VERTEX
  5
337
330
1D6
100
AcDbEntity
  8
0
  6
CONTINUOUS
 62
     7
100
AcDbVertex
100
AcDb2dVertex
 10
7.2857284773
 20
7.3792495956
 30
0.0
  0
VERTEX
  5
338
330
1D6
100
AcDbEntity
  8
0
  6
CONTINUOUS
 62
     7
100
AcDbVertex
100
AcDb2dVertex
 10
7.2675767402
 20
7.3475530627
 30
0.0
  0
VERTEX
  5
339
330
1D6
100
AcDbEntity
  8
0
  6
CONTINUOUS
 62
     7
100
AcDbVertex
100
AcDb2dVertex
 10
7.2503411222
 20
7.3153900182
 30
0.0
  0
VERTEX
  5
33A
330
1D6
100
AcDbEntity
  8
0
  6
CONTINUOUS
 62
     7
100
AcDbVertex
100
AcDb2dVertex
 10
7.2340625041
 20
7.2828367496
 30
0.0
  0
VERTEX
  5
33B
330
1D6
100
AcDbEntity
  8
0
  6
CONTINUOUS
 62
     7
100
AcDbVertex
100
AcDb2dVertex
 10
7.2187794971
 20
7.2499704694
 30
0.0
  0
VERTEX
  5
33C
330
1D6
100
AcDbEntity
  8
0
  6
CONTINUOUS
 62
     7
100
AcDbVertex
100
AcDb2dVertex
 10
7.2045283508
 20
7.2168691328
 30
0.0
  0
VERTEX
  5
33D
330
1D6
100
AcDbEntity
  8
0
  6
CONTINUOUS
 62
     7
100
AcDbVertex
100
AcDb2dVertex
 10
7.1913428673
 20
7.1836112527
 30
0.0
  0
VERTEX
  5
33E
330
1D6
100
AcDbEntity
  8
0
  6
CONTINUOUS
 62
     7
100
AcDbVertex
100
AcDb2dVertex
 10
7.1792543211
 20
7.150275713
 30
0.0
  0
VERTEX
  5
33F
330
1D6
100
AcDbEntity
  8
0
  6
CONTINUOUS
 62
     7
100
AcDbVertex
100
AcDb2dVertex
 10
7.1682913849
 20
7.1169415819
 30
0.0
  0
VERTEX
  5
340
330
1D6
100
AcDbEntity
  8
0
  6
CONTINUOUS
 62
     7
100
AcDbVertex
100
AcDb2dVertex
 10
7.1584800617
 20
7.0836879243
 30
0.0
  0
VERTEX
  5
341
330
1D6
100
AcDbEntity
  8
0
  6
CONTINUOUS
 62
     7
100
AcDbVertex
100
AcDb2dVertex
 10
7.1498436226
 20
7.0505936142
 30
0.0
  0
VERTEX
  5
342
330
1D6
100
AcDbEntity
  8
0
  6
CONTINUOUS
 62
     7
100
AcDbVertex
100
AcDb2dVertex
 10
7.1424025526
 20
7.0177371477
 30
0.0
  0
VERTEX
  5
343
330
1D6
100
AcDbEntity
  8
0
  6
CONTINUOUS
 62
     7
100
AcDbVertex
100
AcDb2dVertex
 10
7.1361745008
 20
6.9851964566
 30
0.0
  0
VERTEX
  5
344
330
1D6
100
AcDbEntity
  8
0
  6
CONTINUOUS
 62
     7
100
AcDbVertex
100
AcDb2dVertex
 10
7.1311742397
 20
6.9530487239
 30
0.0
  0
VERTEX
  5
345
330
1D6
100
AcDbEntity
  8
0
  6
CONTINUOUS
 62
     7
100
AcDbVertex
100
AcDb2dVertex
 10
7.1274136292
 20
6.9213702005
 30
0.0
  0
VERTEX
  5
346
330
1D6
100
AcDbEntity
  8
0
  6
CONTINUOUS
 62
     7
100
AcDbVertex
100
AcDb2dVertex
 10
7.1249015892
 20
6.8902360243
 30
0.0
  0
VERTEX
  5
347
330
1D6
100
AcDbEntity
  8
0
  6
CONTINUOUS
 62
     7
100
AcDbVertex
100
AcDb2dVertex
 10
7.1236440778
 20
6.8597200421
 30
0.0
  0
VERTEX
  5
348
330
1D6
100
AcDbEntity
  8
0
  6
CONTINUOUS
 62
     7
100
AcDbVertex
100
AcDb2dVertex
 10
7.1236440778
 20
6.8298946345
 30
0.0
  0
VERTEX
  5
349
330
1D6
100
AcDbEntity
  8
0
  6
CONTINUOUS
 62
     7
100
AcDbVertex
100
AcDb2dVertex
 10
7.1249015892
 20
6.800830544
 30
0.0
  0
VERTEX
  5
34A
330
1D6
100
AcDbEntity
  8
0
  6
CONTINUOUS
 62
     7
100
AcDbVertex
100
AcDb2dVertex
 10
7.1274136292
 20
6.7725967075
 30
0.0
  0
VERTEX
  5
34B
330
1D6
100
AcDbEntity
  8
0
  6
CONTINUOUS
 62
     7
100
AcDbVertex
100
AcDb2dVertex
 10
7.1311742397
 20
6.7452600926
 30
0.0
  0
VERTEX
  5
34C
330
1D6
100
AcDbEntity
  8
0
  6
CONTINUOUS
 62
     7
100
AcDbVertex
100
AcDb2dVertex
 10
7.1361745008
 20
6.7188855385
 30
0.0
  0
VERTEX
  5
34D
330
1D6
100
AcDbEntity
  8
0
  6
CONTINUOUS
 62
     7
100
AcDbVertex
100
AcDb2dVertex
 10
7.1424025526
 20
6.6935356029
 30
0.0
  0
VERTEX
  5
34E
330
1D6
100
AcDbEntity
  8
0
  6
CONTINUOUS
 62
     7
100
AcDbVertex
100
AcDb2dVertex
 10
7.1498436226
 20
6.669270413
 30
0.0
  0
VERTEX
  5
34F
330
1D6
100
AcDbEntity
  8
0
  6
CONTINUOUS
 62
     7
100
AcDbVertex
100
AcDb2dVertex
 10
7.1584800617
 20
6.6461475231
 30
0.0
  0
VERTEX
  5
350
330
1D6
100
AcDbEntity
  8
0
  6
CONTINUOUS
 62
     7
100
AcDbVertex
100
AcDb2dVertex
 10
7.1682913849
 20
6.6242217783
 30
0.0
  0
VERTEX
  5
351
330
1D6
100
AcDbEntity
  8
0
  6
CONTINUOUS
 62
     7
100
AcDbVertex
100
AcDb2dVertex
 10
7.1792543211
 20
6.6035451839
 30
0.0
  0
VERTEX
  5
352
330
1D6
100
AcDbEntity
  8
0
  6
CONTINUOUS
 62
     7
100
AcDbVertex
100
AcDb2dVertex
 10
7.1913428673
 20
6.5841667825
 30
0.0
  0
VERTEX
  5
353
330
1D6
100
AcDbEntity
  8
0
  6
CONTINUOUS
 62
     7
100
AcDbVertex
100
AcDb2dVertex
 10
7.2045283508
 20
6.5661325376
 30
0.0
  0
VERTEX
  5
354
330
1D6
100
AcDbEntity
  8
0
  6
CONTINUOUS
 62
     7
100
AcDbVertex
100
AcDb2dVertex
 10
7.2187794971
 20
6.5494852244
 30
0.0
  0
VERTEX
  5
355
330
1D6
100
AcDbEntity
  8
0
  6
CONTINUOUS
 62
     7
100
AcDbVertex
100
AcDb2dVertex
 10
7.2340625041
 20
6.5342643285
 30
0.0
  0
VERTEX
  5
356
330
1D6
100
AcDbEntity
  8
0
  6
CONTINUOUS
 62
     7
100
AcDbVertex
100
AcDb2dVertex
 10
7.2503411222
 20
6.5205059521
 30
0.0
  0
VERTEX
  5
357
330
1D6
100
AcDbEntity
  8
0
  6
CONTINUOUS
 62
     7
100
AcDbVertex
100
AcDb2dVertex
 10
7.2675767402
 20
6.5082427287
 30
0.0
  0
VERTEX
  5
358
330
1D6
100
AcDbEntity
  8
0
  6
CONTINUOUS
 62
     7
100
AcDbVertex
100
AcDb2dVertex
 10
7.2788473801
 20
6.5013329498
 30
0.0
  0
SEQEND
  5
359
330
1D6
100
AcDbEntity
  8
0
  6
CONTINUOUS
 62
     7
  0
SPLINE
  5
1D7
330
1F
100
AcDbEntity
  8
0
  6
CONTINUOUS
 62
     7
100
AcDbSpline
210
0.0
220
0.0
230
1.0
 70
     8
 71
     3
 72
    39
 73
    35
 74
     0
 42
0.00000001
 43
0.00000001
 40
-0.09453286757118
 40
-0.0629631265624861
 40
-0.0313058230047879
 40
0.0
 40
0.031344944644498
 40
0.0630071853289871
 40
0.0945934196288402
 40
0.1257511757427436
 40
0.1567710186428298
 40
0.1880531408531625
 40
0.2192292329966229
 40
0.2500194898318577
 40
0.2807418644841997
 40
0.3119689149990376
 40
0.3431862639342467
 40
0.3742089095802812
 40
0.4053316679640341
 40
0.4370024275197968
 40
0.468759116034584
 40
0.5001569003168108
 40
0.5314768117384013
 40
0.5631482240303722
 40
0.594669057959001
 40
0.6258067394828368
 40
0.6568240206349234
 40
0.6880816586659962
 40
0.7192823341865537
 40
0.7500754651043657
 40
0.7808240426727849
 40
0.8120797289703681
 40
0.8433140080609678
 40
0.8743656935279048
 40
0.90546713242882
 40
0.9370368734375139
 40
0.9686941769952121
 40
1.0
 40
1.031344944644498
 40
1.063007185328987
 40
1.09459341962884
 10
7.67957656233362
 20
7.732913421916805
 30
0.0
 10
7.691611879798828
 20
7.741528382392723
 30
0.0
 10
7.706217396211268
 20
7.748266743987843
 30
0.0
 10
7.72292803393841
 20
7.752864124352742
 30
0.0
 10
7.740934936778292
 20
7.755326399435324
 30
0.0
 10
7.759590591334177
 20
7.755500373755468
 30
0.0
 10
7.778221322895076
 20
7.753551205623423
 30
0.0
 10
7.796139408614291
 20
7.749602953859926
 30
0.0
 10
7.812709830217437
 20
7.744047158827274
 30
0.0
 10
7.827112044210298
 20
7.737059202735041
 30
0.0
 10
7.838892954772852
 20
7.728944120263143
 30
0.0
 10
7.847507501226119
 20
7.719957789568216
 30
0.0
 10
7.852896901482615
 20
7.71044817942114
 30
0.0
 10
7.854557410028284
 20
7.700691523697571
 30
0.0
 10
7.852537164673268
 20
7.690904901558643
 30
0.0
 10
7.8467964050089
 20
7.681338655790116
 30
0.0
 10
7.837854003769916
 20
7.672223191469045
 30
0.0
 10
7.825814611975178
 20
7.663973566663079
 30
0.0
 10
7.811203221185671
 20
7.656832050957919
 30
0.0
 10
7.794497087330407
 20
7.651132159310725
 30
0.0
 10
7.776496814263814
 20
7.647005087388069
 30
0.0
 10
7.757856173716572
 20
7.644874197356004
 30
0.0
 10
7.739236843161466
 20
7.64485326466807
 30
0.0
 10
7.721319413378179
 20
7.647134152767429
 30
0.0
 10
7.704746678989919
 20
7.651540802120218
 30
0.0
 10
7.690343046553521
 20
7.658141121522696
 30
0.0
 10
7.678570200726259
 20
7.6666656943275
 30
0.0
 10
7.669963478595767
 20
7.676814454522328
 30
0.0
 10
7.664583466293658
 20
7.688002742376697
 30
0.0
 10
7.662929278395296
 20
7.699737419857133
 30
0.0
 10
7.66493694937382
 20
7.711488630760961
 30
0.0
 10
7.670655935041895
 20
7.722714734195359
 30
0.0
 10
7.67957656233362
 20
7.732913421916805
 30
0.0
 10
7.691611879798828
 20
7.741528382392723
 30
0.0
 10
7.706217396211268
 20
7.748266743987843
 30
0.0
  0
SPLINE
  5
1D8
330
1F
100
AcDbEntity
  8
0
  6
CONTINUOUS
 62
     7
100
AcDbSpline
210
0.0
220
0.0
230
1.0
 70
     8
 71
     3
 72
    39
 73
    35
 74
     0
 42
0.00000001
 43
0.00000001
 40
-0.0945328675712537
 40
-0.0629631265624891
 40
-0.0313058230048622
 40
0.0
 40
0.031344944644275
 40
0.0630071853289788
 40
0.094593419628564
 40
0.1257511757427418
 40
0.1567710186427758
 40
0.1880531408531625
 40
0.219229232996623
 40
0.2500194898318577
 40
0.280741864484139
 40
0.3119689149990351
 40
0.3431862639344052
 40
0.3742089095802898
 40
0.4053316679643294
 40
0.4370024275198001
 40
0.4687591160346577
 40
0.5001569003168109
 40
0.5314768117382537
 40
0.5631482240303665
 40
0.594669057959076
 40
0.6258067394828454
 40
0.656824020635142
 40
0.6880816586659962
 40
0.7192823341865535
 40
0.750075465104366
 40
0.7808240426727858
 40
0.8120797289703685
 40
0.8433140080609679
 40
0.8743656935279048
 40
0.9054671324287463
 40
0.9370368734375109
 40
0.9686941769951378
 40
1.0
 40
1.031344944644275
 40
1.063007185328979
 40
1.094593419628564
 10
8.509174281993406
 20
7.253996852383007
 30
0.0
 10
8.521209599458588
 20
7.262611812858909
 30
0.0
 10
8.53581511587106
 20
7.269350174454015
 30
0.0
 10
8.552525753598124
 20
7.27394755481893
 30
0.0
 10
8.570532656438038
 20
7.276409829901541
 30
0.0
 10
8.589188310993917
 20
7.276583804221674
 30
0.0
 10
8.607819042554873
 20
7.274634636089638
 30
0.0
 10
8.625737128274087
 20
7.270686384326132
 30
0.0
 10
8.642307549877243
 20
7.26513058929348
 30
0.0
 10
8.656709763870095
 20
7.258142633201251
 30
0.0
 10
8.668490674432647
 20
7.250027550729351
 30
0.0
 10
8.677105220885926
 20
7.24104122003441
 30
0.0
 10
8.682494621142478
 20
7.231531609887331
 30
0.0
 10
8.684155129688085
 20
7.22177495416373
 30
0.0
 10
8.682134884333035
 20
7.211988332024824
 30
0.0
 10
8.676394124668683
 20
7.202422086256283
 30
0.0
 10
8.667451723429698
 20
7.193306621935251
 30
0.0
 10
8.655412331634999
 20
7.185056997129287
 30
0.0
 10
8.640800940845486
 20
7.177915481424146
 30
0.0
 10
8.624094806990223
 20
7.17221558977694
 30
0.0
 10
8.60609453392362
 20
7.168088517854232
 30
0.0
 10
8.587453893376319
 20
7.165957627822209
 30
0.0
 10
8.568834562821237
 20
7.165936695134303
 30
0.0
 10
8.550917133037943
 20
7.168217583233638
 30
0.0
 10
8.534344398649726
 20
7.172624232586425
 30
0.0
 10
8.519940766213326
 20
7.179224551988902
 30
0.0
 10
8.508167920386065
 20
7.187749124793706
 30
0.0
 10
8.499561198255572
 20
7.197897884988534
 30
0.0
 10
8.494181185953465
 20
7.209086172842903
 30
0.0
 10
8.492526998055098
 20
7.22082085032333
 30
0.0
 10
8.494534669033637
 20
7.232572061227156
 30
0.0
 10
8.50025365470169
 20
7.243798164661548
 30
0.0
 10
8.509174281993406
 20
7.253996852383007
 30
0.0
 10
8.521209599458588
 20
7.262611812858909
 30
0.0
 10
8.53581511587106
 20
7.269350174454015
 30
0.0
  0
POLYLINE
  5
1D9
330
1F
100
AcDbEntity
  8
0
  6
CONTINUOUS
 62
     7
100
AcDb2dPolyline
 66
     1
 10
0.0
 20
0.0
 30
0.0
  0
VERTEX
  5
35A
330
1D9
100
AcDbEntity
  8
0
  6
CONTINUOUS
 62
     7
100
AcDbVertex
100
AcDb2dVertex
 10
8.8258324752
 20
6.6150937377
 30
0.0
  0
VERTEX
  5
35B
330
1D9
100
AcDbEntity
  8
0
  6
CONTINUOUS
 62
     7
100
AcDbVertex
100
AcDb2dVertex
 10
8.8251860614
 20
6.600239548
 30
0.0
  0
VERTEX
  5
35C
330
1D9
100
AcDbEntity
  8
0
  6
CONTINUOUS
 62
     7
100
AcDbVertex
100
AcDb2dVertex
 10
8.8232536723
 20
6.5847964829
 30
0.0
  0
VERTEX
  5
35D
330
1D9
100
AcDbEntity
  8
0
  6
CONTINUOUS
 62
     7
100
AcDbVertex
100
AcDb2dVertex
 10
8.8200557915
 20
6.5689282428
 30
0.0
  0
VERTEX
  5
35E
330
1D9
100
AcDbEntity
  8
0
  6
CONTINUOUS
 62
     7
100
AcDbVertex
100
AcDb2dVertex
 10
8.8156263175
 20
6.5528030349
 30
0.0
  0
VERTEX
  5
35F
330
1D9
100
AcDbEntity
  8
0
  6
CONTINUOUS
 62
     7
100
AcDbVertex
100
AcDb2dVertex
 10
8.8100122037
 20
6.5365917906
 30
0.0
  0
VERTEX
  5
360
330
1D9
100
AcDbEntity
  8
0
  6
CONTINUOUS
 62
     7
100
AcDbVertex
100
AcDb2dVertex
 10
8.8032729613
 20
6.5204663529
 30
0.0
  0
VERTEX
  5
361
330
1D9
100
AcDbEntity
  8
0
  6
CONTINUOUS
 62
     7
100
AcDbVertex
100
AcDb2dVertex
 10
8.7954800277
 20
6.5045976557
 30
0.0
  0
VERTEX
  5
362
330
1D9
100
AcDbEntity
  8
0
  6
CONTINUOUS
 62
     7
100
AcDbVertex
100
AcDb2dVertex
 10
8.7867160101
 20
6.4891539109
 30
0.0
  0
VERTEX
  5
363
330
1D9
100
AcDbEntity
  8
0
  6
CONTINUOUS
 62
     7
100
AcDbVertex
100
AcDb2dVertex
 10
8.7770738092
 20
6.4742988262
 30
0.0
  0
VERTEX
  5
364
330
1D9
100
AcDbEntity
  8
0
  6
CONTINUOUS
 62
     7
100
AcDbVertex
100
AcDb2dVertex
 10
8.7666556347
 20
6.4601898691
 30
0.0
  0
VERTEX
  5
365
330
1D9
100
AcDbEntity
  8
0
  6
CONTINUOUS
 62
     7
100
AcDbVertex
100
AcDb2dVertex
 10
8.7555719219
 20
6.4469765981
 30
0.0
  0
VERTEX
  5
366
330
1D9
100
AcDbEntity
  8
0
  6
CONTINUOUS
 62
     7
100
AcDbVertex
100
AcDb2dVertex
 10
8.743940161
 20
6.4347990771
 30
0.0
  0
VERTEX
  5
367
330
1D9
100
AcDbEntity
  8
0
  6
CONTINUOUS
 62
     7
100
AcDbVertex
100
AcDb2dVertex
 10
8.7318836514
 20
6.4237863909
 30
0.0
  0
VERTEX
  5
368
330
1D9
100
AcDbEntity
  8
0
  6
CONTINUOUS
 62
     7
100
AcDbVertex
100
AcDb2dVertex
 10
8.7195301951
 20
6.4140552768
 30
0.0
  0
VERTEX
  5
369
330
1D9
100
AcDbEntity
  8
0
  6
CONTINUOUS
 62
     7
100
AcDbVertex
100
AcDb2dVertex
 10
8.7070107419
 20
6.4057088869
 30
0.0
  0
VERTEX
  5
36A
330
1D9
100
AcDbEntity
  8
0
  6
CONTINUOUS
 62
     7
100
AcDbVertex
100
AcDb2dVertex
 10
8.6944580012
 20
6.398835695
 30
0.0
  0
VERTEX
  5
36B
330
1D9
100
AcDbEntity
  8
0
  6
CONTINUOUS
 62
     7
100
AcDbVertex
100
AcDb2dVertex
 10
8.6820050349
 20
6.3935085588
 30
0.0
  0
VERTEX
  5
36C
330
1D9
100
AcDbEntity
  8
0
  6
CONTINUOUS
 62
     7
100
AcDbVertex
100
AcDb2dVertex
 10
8.6697838478
 20
6.3897839471
 30
0.0
  0
VERTEX
  5
36D
330
1D9
100
AcDbEntity
  8
0
  6
CONTINUOUS
 62
     7
100
AcDbVertex
100
AcDb2dVertex
 10
8.6579239874
 20
6.3877013418
 30
0.0
  0
VERTEX
  5
36E
330
1D9
100
AcDbEntity
  8
0
  6
CONTINUOUS
 62
     7
100
AcDbVertex
100
AcDb2dVertex
 10
8.6465511712
 20
6.387282819
 30
0.0
  0
VERTEX
  5
36F
330
1D9
100
AcDbEntity
  8
0
  6
CONTINUOUS
 62
     7
100
AcDbVertex
100
AcDb2dVertex
 10
8.6357859539
 20
6.3885328151
 30
0.0
  0
VERTEX
  5
370
330
1D9
100
AcDbEntity
  8
0
  6
CONTINUOUS
 62
     7
100
AcDbVertex
100
AcDb2dVertex
 10
8.6257424494
 20
6.39143808
 30
0.0
  0
VERTEX
  5
371
330
1D9
100
AcDbEntity
  8
0
  6
CONTINUOUS
 62
     7
100
AcDbVertex
100
AcDb2dVertex
 10
8.6165271215
 20
6.395967817
 30
0.0
  0
VERTEX
  5
372
330
1D9
100
AcDbEntity
  8
0
  6
CONTINUOUS
 62
     7
100
AcDbVertex
100
AcDb2dVertex
 10
8.6082376548
 20
6.4020740098
 30
0.0
  0
VERTEX
  5
373
330
1D9
100
AcDbEntity
  8
0
  6
CONTINUOUS
 62
     7
100
AcDbVertex
100
AcDb2dVertex
 10
8.6009619198
 20
6.4096919313
 30
0.0
  0
VERTEX
  5
374
330
1D9
100
AcDbEntity
  8
0
  6
CONTINUOUS
 62
     7
100
AcDbVertex
100
AcDb2dVertex
 10
8.5947770411
 20
6.4187408295
 30
0.0
  0
VERTEX
  5
375
330
1D9
100
AcDbEntity
  8
0
  6
CONTINUOUS
 62
     7
100
AcDbVertex
100
AcDb2dVertex
 10
8.5897485799
 20
6.429124784
 30
0.0
  0
VERTEX
  5
376
330
1D9
100
AcDbEntity
  8
0
  6
CONTINUOUS
 62
     7
100
AcDbVertex
100
AcDb2dVertex
 10
8.5859298392
 20
6.4407337222
 30
0.0
  0
VERTEX
  5
377
330
1D9
100
AcDbEntity
  8
0
  6
CONTINUOUS
 62
     7
100
AcDbVertex
100
AcDb2dVertex
 10
8.5833612986
 20
6.4534445865
 30
0.0
  0
VERTEX
  5
378
330
1D9
100
AcDbEntity
  8
0
  6
CONTINUOUS
 62
     7
100
AcDbVertex
100
AcDb2dVertex
 10
8.5820701852
 20
6.4671226385
 30
0.0
  0
VERTEX
  5
379
330
1D9
100
AcDbEntity
  8
0
  6
CONTINUOUS
 62
     7
100
AcDbVertex
100
AcDb2dVertex
 10
8.5820701852
 20
6.4816228876
 30
0.0
  0
VERTEX
  5
37A
330
1D9
100
AcDbEntity
  8
0
  6
CONTINUOUS
 62
     7
100
AcDbVertex
100
AcDb2dVertex
 10
8.5833612986
 20
6.4967916274
 30
0.0
  0
VERTEX
  5
37B
330
1D9
100
AcDbEntity
  8
0
  6
CONTINUOUS
 62
     7
100
AcDbVertex
100
AcDb2dVertex
 10
8.5859298392
 20
6.5124680655
 30
0.0
  0
VERTEX
  5
37C
330
1D9
100
AcDbEntity
  8
0
  6
CONTINUOUS
 62
     7
100
AcDbVertex
100
AcDb2dVertex
 10
8.5897485799
 20
6.5284860279
 30
0.0
  0
VERTEX
  5
37D
330
1D9
100
AcDbEntity
  8
0
  6
CONTINUOUS
 62
     7
100
AcDbVertex
100
AcDb2dVertex
 10
8.5947770411
 20
6.5446757201
 30
0.0
  0
VERTEX
  5
37E
330
1D9
100
AcDbEntity
  8
0
  6
CONTINUOUS
 62
     7
100
AcDbVertex
100
AcDb2dVertex
 10
8.6009619198
 20
6.5608655273
 30
0.0
  0
VERTEX
  5
37F
330
1D9
100
AcDbEntity
  8
0
  6
CONTINUOUS
 62
     7
100
AcDbVertex
100
AcDb2dVertex
 10
8.6082376548
 20
6.5768838336
 30
0.0
  0
VERTEX
  5
380
330
1D9
100
AcDbEntity
  8
0
  6
CONTINUOUS
 62
     7
100
AcDbVertex
100
AcDb2dVertex
 10
8.6165271215
 20
6.5925608409
 30
0.0
  0
VERTEX
  5
381
330
1D9
100
AcDbEntity
  8
0
  6
CONTINUOUS
 62
     7
100
AcDbVertex
100
AcDb2dVertex
 10
8.6257424494
 20
6.6077303691
 30
0.0
  0
VERTEX
  5
382
330
1D9
100
AcDbEntity
  8
0
  6
CONTINUOUS
 62
     7
100
AcDbVertex
100
AcDb2dVertex
 10
8.6357859539
 20
6.6222316173
 30
0.0
  0
VERTEX
  5
383
330
1D9
100
AcDbEntity
  8
0
  6
CONTINUOUS
 62
     7
100
AcDbVertex
100
AcDb2dVertex
 10
8.6465511712
 20
6.6359108689
 30
0.0
  0
VERTEX
  5
384
330
1D9
100
AcDbEntity
  8
0
  6
CONTINUOUS
 62
     7
100
AcDbVertex
100
AcDb2dVertex
 10
8.6579239874
 20
6.6486231201
 30
0.0
  0
VERTEX
  5
385
330
1D9
100
AcDbEntity
  8
0
  6
CONTINUOUS
 62
     7
100
AcDbVertex
100
AcDb2dVertex
 10
8.6697838478
 20
6.6602336182
 30
0.0
  0
VERTEX
  5
386
330
1D9
100
AcDbEntity
  8
0
  6
CONTINUOUS
 62
     7
100
AcDbVertex
100
AcDb2dVertex
 10
8.6820050349
 20
6.6706192888
 30
0.0
  0
VERTEX
  5
387
330
1D9
100
AcDbEntity
  8
0
  6
CONTINUOUS
 62
     7
100
AcDbVertex
100
AcDb2dVertex
 10
8.6944580012
 20
6.6796700413
 30
0.0
  0
VERTEX
  5
388
330
1D9
100
AcDbEntity
  8
0
  6
CONTINUOUS
 62
     7
100
AcDbVertex
100
AcDb2dVertex
 10
8.7070107419
 20
6.6872899355
 30
0.0
  0
VERTEX
  5
389
330
1D9
100
AcDbEntity
  8
0
  6
CONTINUOUS
 62
     7
100
AcDbVertex
100
AcDb2dVertex
 10
8.7195301951
 20
6.6933981985
 30
0.0
  0
VERTEX
  5
38A
330
1D9
100
AcDbEntity
  8
0
  6
CONTINUOUS
 62
     7
100
AcDbVertex
100
AcDb2dVertex
 10
8.7318836514
 20
6.6979300814
 30
0.0
  0
VERTEX
  5
38B
330
1D9
100
AcDbEntity
  8
0
  6
CONTINUOUS
 62
     7
100
AcDbVertex
100
AcDb2dVertex
 10
8.743940161
 20
6.7008375449
 30
0.0
  0
VERTEX
  5
38C
330
1D9
100
AcDbEntity
  8
0
  6
CONTINUOUS
 62
     7
100
AcDbVertex
100
AcDb2dVertex
 10
8.7555719219
 20
6.7020897693
 30
0.0
  0
VERTEX
  5
38D
330
1D9
100
AcDbEntity
  8
0
  6
CONTINUOUS
 62
     7
100
AcDbVertex
100
AcDb2dVertex
 10
8.7666556347
 20
6.7016734807
 30
0.0
  0
VERTEX
  5
38E
330
1D9
100
AcDbEntity
  8
0
  6
CONTINUOUS
 62
     7
100
AcDbVertex
100
AcDb2dVertex
 10
8.7770738092
 20
6.6995930918
 30
0.0
  0
VERTEX
  5
38F
330
1D9
100
AcDbEntity
  8
0
  6
CONTINUOUS
 62
     7
100
AcDbVertex
100
AcDb2dVertex
 10
8.7867160101
 20
6.6958706552
 30
0.0
  0
VERTEX
  5
390
330
1D9
100
AcDbEntity
  8
0
  6
CONTINUOUS
 62
     7
100
AcDbVertex
100
AcDb2dVertex
 10
8.7954800277
 20
6.6905456298
 30
0.0
  0
VERTEX
  5
391
330
1D9
100
AcDbEntity
  8
0
  6
CONTINUOUS
 62
     7
100
AcDbVertex
100
AcDb2dVertex
 10
8.8032729613
 20
6.6836744621
 30
0.0
  0
VERTEX
  5
392
330
1D9
100
AcDbEntity
  8
0
  6
CONTINUOUS
 62
     7
100
AcDbVertex
100
AcDb2dVertex
 10
8.8100122037
 20
6.6753299882
 30
0.0
  0
VERTEX
  5
393
330
1D9
100
AcDbEntity
  8
0
  6
CONTINUOUS
 62
     7
100
AcDbVertex
100
AcDb2dVertex
 10
8.8156263175
 20
6.6656006617
 30
0.0
  0
VERTEX
  5
394
330
1D9
100
AcDbEntity
  8
0
  6
CONTINUOUS
 62
     7
100
AcDbVertex
100
AcDb2dVertex
 10
8.8200557915
 20
6.6545896157
 30
0.0
  0
VERTEX
  5
395
330
1D9
100
AcDbEntity
  8
0
  6
CONTINUOUS
 62
     7
100
AcDbVertex
100
AcDb2dVertex
 10
8.8232536723
 20
6.6424135701
 30
0.0
  0
VERTEX
  5
396
330
1D9
100
AcDbEntity
  8
0
  6
CONTINUOUS
 62
     7
100
AcDbVertex
100
AcDb2dVertex
 10
8.8251860614
 20
6.629201594
 30
0.0
  0
VERTEX
  5
397
330
1D9
100
AcDbEntity
  8
0
  6
CONTINUOUS
 62
     7
100
AcDbVertex
100
AcDb2dVertex
 10
8.8258324752
 20
6.6150937377
 30
0.0
  0
SEQEND
  5
398
330
1D9
100
AcDbEntity
  8
0
  6
CONTINUOUS
 62
     7
  0
SPLINE
  5
1DA
330
1F
100
AcDbEntity
  8
0
  6
CONTINUOUS
 62
     7
100
AcDbSpline
210
0.0
220
0.0
230
1.0
 70
     8
 71
     3
 72
    11
 73
     7
 74
     0
 42
0.00000001
 43
0.00000001
 40
0.0
 40
0.0
 40
0.0
 40
0.0
 40
0.3346367658417133
 40
0.6345136908241809
 40
0.8987058411411158
 40
1.0
 40
1.0
 40
1.0
 40
1.0
 10
8.505668431726818
 20
7.210289265754112
 30
0.0
 10
8.506087006976573
 20
7.206203016553737
 30
0.0
 10
8.506880678663968
 20
7.198454970533644
 30
0.0
 10
8.512941798273
 20
7.188298593016821
 30
0.0
 10
8.51914924921689
 20
7.18133695118566
 30
0.0
 10
8.523808284131926
 20
7.178239711445097
 30
0.0
 10
8.525099530920013
 20
7.177381314601144
 30
0.0
  0
SPLINE
  5
1DB
330
1F
100
AcDbEntity
  8
0
  6
CONTINUOUS
 62
     7
100
AcDbSpline
210
0.0
220
0.0
230
1.0
 70
     8
 71
     3
 72
    10
 73
     6
 74
     0
 42
0.00000001
 43
0.00000001
 40
0.0
 40
0.0
 40
0.0
 40
0.0
 40
0.1809264178059198
 40
0.5682933984741281
 40
1.0
 40
1.0
 40
1.0
 40
1.0
 10
8.658992385308654
 20
7.18799280682626
 30
0.0
 10
8.66041783590829
 20
7.189232154338924
 30
0.0
 10
8.664895203975643
 20
7.193124968989231
 30
0.0
 10
8.669684920532196
 20
7.200677655738155
 30
0.0
 10
8.6705544358829
 20
7.206971479161572
 30
0.0
 10
8.67101272867269
 20
7.210288745375247
 30
0.0
  0
ARC
  5
1DC
330
1F
100
AcDbEntity
  8
0
  6
CONTINUOUS
 62
     7
100
AcDbCircle
 10
8.737287017
 20
6.626153146
 30
0.0
 40
0.0682344710535162
100
AcDbArc
 50
350.6723821232
 51
124.7152660542
  0
POLYLINE
  5
1DD
330
1F
100
AcDbEntity
  8
0
  6
CONTINUOUS
 62
     7
100
AcDb2dPolyline
 66
     1
 10
0.0
 20
0.0
 30
0.0
  0
VERTEX
  5
399
330
1DD
100
AcDbEntity
  8
0
  6
CONTINUOUS
 62
     7
100
AcDbVertex
100
AcDb2dVertex
 10
8.5820291041
 20
6.4806114294
 30
0.0
  0
VERTEX
  5
39A
330
1DD
100
AcDbEntity
  8
0
  6
CONTINUOUS
 62
     7
100
AcDbVertex
100
AcDb2dVertex
 10
8.582066299
 20
6.4797728495
 30
0.0
  0
VERTEX
  5
39B
330
1DD
100
AcDbEntity
  8
0
  6
CONTINUOUS
 62
     7
100
AcDbVertex
100
AcDb2dVertex
 10
8.583326212
 20
6.4668901411
 30
0.0
  0
VERTEX
  5
39C
330
1DD
100
AcDbEntity
  8
0
  6
CONTINUOUS
 62
     7
100
AcDbVertex
100
AcDb2dVertex
 10
8.5858317626
 20
6.4549582741
 30
0.0
  0
VERTEX
  5
39D
330
1DD
100
AcDbEntity
  8
0
  6
CONTINUOUS
 62
     7
100
AcDbVertex
100
AcDb2dVertex
 10
8.5895545619
 20
6.4441124412
 30
0.0
  0
VERTEX
  5
39E
330
1DD
100
AcDbEntity
  8
0
  6
CONTINUOUS
 62
     7
100
AcDbVertex
100
AcDb2dVertex
 10
8.5944524291
 20
6.4344755303
 30
0.0
  0
VERTEX
  5
39F
330
1DD
100
AcDbEntity
  8
0
  6
CONTINUOUS
 62
     7
100
AcDbVertex
100
AcDb2dVertex
 10
8.6004698695
 20
6.4261567312
 30
0.0
  0
VERTEX
  5
3A0
330
1DD
100
AcDbEntity
  8
0
  6
CONTINUOUS
 62
     7
100
AcDbVertex
100
AcDb2dVertex
 10
8.6075387031
 20
6.4192502993
 30
0.0
  0
VERTEX
  5
3A1
330
1DD
100
AcDbEntity
  8
0
  6
CONTINUOUS
 62
     7
100
AcDbVertex
100
AcDb2dVertex
 10
8.6155788371
 20
6.4138344872
 30
0.0
  0
VERTEX
  5
3A2
330
1DD
100
AcDbEntity
  8
0
  6
CONTINUOUS
 62
     7
100
AcDbVertex
100
AcDb2dVertex
 10
8.6244991735
 20
6.4099706583
 30
0.0
  0
VERTEX
  5
3A3
330
1DD
100
AcDbEntity
  8
0
  6
CONTINUOUS
 62
     7
100
AcDbVertex
100
AcDb2dVertex
 10
8.6341986415
 20
6.4077025913
 30
0.0
  0
VERTEX
  5
3A4
330
1DD
100
AcDbEntity
  8
0
  6
CONTINUOUS
 62
     7
100
AcDbVertex
100
AcDb2dVertex
 10
8.6445673422
 20
6.4070559842
 30
0.0
  0
VERTEX
  5
3A5
330
1DD
100
AcDbEntity
  8
0
  6
CONTINUOUS
 62
     7
100
AcDbVertex
100
AcDb2dVertex
 10
8.655487794
 20
6.4080381635
 30
0.0
  0
VERTEX
  5
3A6
330
1DD
100
AcDbEntity
  8
0
  6
CONTINUOUS
 62
     7
100
AcDbVertex
100
AcDb2dVertex
 10
8.6668362639
 20
6.4106380006
 30
0.0
  0
VERTEX
  5
3A7
330
1DD
100
AcDbEntity
  8
0
  6
CONTINUOUS
 62
     7
100
AcDbVertex
100
AcDb2dVertex
 10
8.6784841692
 20
6.4148260382
 30
0.0
  0
VERTEX
  5
3A8
330
1DD
100
AcDbEntity
  8
0
  6
CONTINUOUS
 62
     7
100
AcDbVertex
100
AcDb2dVertex
 10
8.6902995344
 20
6.4205548244
 30
0.0
  0
VERTEX
  5
3A9
330
1DD
100
AcDbEntity
  8
0
  6
CONTINUOUS
 62
     7
100
AcDbVertex
100
AcDb2dVertex
 10
8.7021484868
 20
6.4277594496
 30
0.0
  0
VERTEX
  5
3AA
330
1DD
100
AcDbEntity
  8
0
  6
CONTINUOUS
 62
     7
100
AcDbVertex
100
AcDb2dVertex
 10
8.7138967729
 20
6.4363582826
 30
0.0
  0
VERTEX
  5
3AB
330
1DD
100
AcDbEntity
  8
0
  6
CONTINUOUS
 62
     7
100
AcDbVertex
100
AcDb2dVertex
 10
8.72541128
 20
6.4462538951
 30
0.0
  0
VERTEX
  5
3AC
330
1DD
100
AcDbEntity
  8
0
  6
CONTINUOUS
 62
     7
100
AcDbVertex
100
AcDb2dVertex
 10
8.7365615442
 20
6.4573341659
 30
0.0
  0
VERTEX
  5
3AD
330
1DD
100
AcDbEntity
  8
0
  6
CONTINUOUS
 62
     7
100
AcDbVertex
100
AcDb2dVertex
 10
8.7472212285
 20
6.4694735512
 30
0.0
  0
VERTEX
  5
3AE
330
1DD
100
AcDbEntity
  8
0
  6
CONTINUOUS
 62
     7
100
AcDbVertex
100
AcDb2dVertex
 10
8.7572695544
 20
6.4825345067
 30
0.0
  0
VERTEX
  5
3AF
330
1DD
100
AcDbEntity
  8
0
  6
CONTINUOUS
 62
     7
100
AcDbVertex
100
AcDb2dVertex
 10
8.7665926703
 20
6.4963690468
 30
0.0
  0
VERTEX
  5
3B0
330
1DD
100
AcDbEntity
  8
0
  6
CONTINUOUS
 62
     7
100
AcDbVertex
100
AcDb2dVertex
 10
8.7750849416
 20
6.5108204204
 30
0.0
  0
VERTEX
  5
3B1
330
1DD
100
AcDbEntity
  8
0
  6
CONTINUOUS
 62
     7
100
AcDbVertex
100
AcDb2dVertex
 10
8.7826501476
 20
6.5257248879
 30
0.0
  0
VERTEX
  5
3B2
330
1DD
100
AcDbEntity
  8
0
  6
CONTINUOUS
 62
     7
100
AcDbVertex
100
AcDb2dVertex
 10
8.7892025713
 20
6.5409135755
 30
0.0
  0
VERTEX
  5
3B3
330
1DD
100
AcDbEntity
  8
0
  6
CONTINUOUS
 62
     7
100
AcDbVertex
100
AcDb2dVertex
 10
8.7946679713
 20
6.5562143894
 30
0.0
  0
VERTEX
  5
3B4
330
1DD
100
AcDbEntity
  8
0
  6
CONTINUOUS
 62
     7
100
AcDbVertex
100
AcDb2dVertex
 10
8.7989844223
 20
6.5714539653
 30
0.0
  0
VERTEX
  5
3B5
330
1DD
100
AcDbEntity
  8
0
  6
CONTINUOUS
 62
     7
100
AcDbVertex
100
AcDb2dVertex
 10
8.8021030173
 20
6.5864596327
 30
0.0
  0
VERTEX
  5
3B6
330
1DD
100
AcDbEntity
  8
0
  6
CONTINUOUS
 62
     7
100
AcDbVertex
100
AcDb2dVertex
 10
8.8039884212
 20
6.6010613713
 30
0.0
  0
VERTEX
  5
3B7
330
1DD
100
AcDbEntity
  8
0
  6
CONTINUOUS
 62
     7
100
AcDbVertex
100
AcDb2dVertex
 10
8.8046192718
 20
6.6150937377
 30
0.0
  0
SEQEND
  5
3B8
330
1DD
100
AcDbEntity
  8
0
  6
CONTINUOUS
 62
     7
  0
SPLINE
  5
1DE
330
1F
100
AcDbEntity
  8
0
  6
CONTINUOUS
 62
     7
100
AcDbSpline
210
0.0
220
0.0
230
1.0
 70
     8
 71
     3
 72
    27
 73
    23
 74
     0
 42
0.00000001
 43
0.00000001
 40
0.0
 40
0.0
 40
0.0
 40
0.0
 40
0.0543189188091416
 40
0.1115820765414853
 40
0.1708253011630524
 40
0.2229949761531005
 40
0.2769826486758135
 40
0.3247542236583571
 40
0.3738511138056496
 40
0.4229710846774094
 40
0.4732640949799605
 40
0.5275492696730139
 40
0.5832261455858428
 40
0.6406104038107082
 40
0.7000121292539426
 40
0.7516762651874639
 40
0.805258445941355
 40
0.8512499837244859
 40
0.8984294200123008
 40
0.9475382649270346
 40
0.9977500059445169
 40
1.0
 40
1.0
 40
1.0
 40
1.0
 10
8.734542930771918
 20
6.693315823966024
 30
0.0
 10
8.737508029687342
 20
6.6898537878343
 30
0.0
 10
8.743598944259785
 20
6.682742063427624
 30
0.0
 10
8.750833694126637
 20
6.671007923903719
 30
0.0
 10
8.755855459289137
 20
6.659011375367962
 30
0.0
 10
8.758293798673199
 20
6.647130561221652
 30
0.0
 10
8.758224836026248
 20
6.636313661598916
 30
0.0
 10
8.755959503000732
 20
6.62630663545244
 30
0.0
 10
8.751881123514412
 20
6.617434660386991
 30
0.0
 10
8.746020756725436
 20
6.60949022384167
 30
0.0
 10
8.738456623672054
 20
6.602597766292676
 30
0.0
 10
8.729265571145428
 20
6.597056218394021
 30
0.0
 10
8.718641667602228
 20
6.593294123720445
 30
0.0
 10
8.707062123264148
 20
6.591822543811997
 30
0.0
 10
8.69564615513634
 20
6.593105553983208
 30
0.0
 10
8.684992064708139
 20
6.597073866756775
 30
0.0
 10
8.67605808522416
 20
6.603046558055834
 30
0.0
 10
8.668463550108296
 20
6.610734822052948
 30
0.0
 10
8.662100689947357
 20
6.619603953101877
 30
0.0
 10
8.656717836798434
 20
6.630004863190782
 30
0.0
 10
8.653391951611615
 20
6.637675824795288
 30
0.0
 10
8.652124749551268
 20
6.641938190781174
 30
0.0
 10
8.652070401423076
 20
6.642120996365419
 30
0.0
  0
ARC
  5
1DF
330
1F
100
AcDbEntity
  8
0
  6
CONTINUOUS
 62
     7
100
AcDbCircle
 10
8.2491346644
 20
6.8071999693
 30
0.0
 40
1.12674726489256
100
AcDbArc
 50
122.5366636214
 51
177.4687129113
  0
SPLINE
  5
1E0
330
1F
100
AcDbEntity
  8
0
  6
CONTINUOUS
 62
     7
100
AcDbSpline
210
0.0
220
0.0
230
1.0
 70
     8
 71
     3
 72
    11
 73
     7
 74
     0
 42
0.00000001
 43
0.00000001
 40
0.0
 40
0.0
 40
0.0
 40
0.0
 40
0.3346367658316662
 40
0.6345136908101654
 40
0.8987058411292279
 40
1.0
 40
1.0
 40
1.0
 40
1.0
 10
7.676070712067012
 20
7.689205835287907
 30
0.0
 10
7.676489287316746
 20
7.685119586087642
 30
0.0
 10
7.677282959004105
 20
7.677371540067694
 30
0.0
 10
7.683344078612946
 20
7.667215162550948
 30
0.0
 10
7.689551529556877
 20
7.660253520719642
 30
0.0
 10
7.694210564472104
 20
7.657156280978937
 30
0.0
 10
7.695501811260344
 20
7.656297884134875
 30
0.0
  0
SPLINE
  5
1E1
330
1F
100
AcDbEntity
  8
0
  6
CONTINUOUS
 62
     7
100
AcDbSpline
210
0.0
220
0.0
230
1.0
 70
     8
 71
     3
 72
    10
 73
     6
 74
     0
 42
0.00000001
 43
0.00000001
 40
0.0
 40
0.0
 40
0.0
 40
0.0
 40
0.1809264178050206
 40
0.5682933984734286
 40
1.0
 40
1.0
 40
1.0
 40
1.0
 10
7.829394665648844
 20
7.66690937636005
 30
0.0
 10
7.830820116248474
 20
7.668148723872709
 30
0.0
 10
7.835297484315825
 20
7.672041538523009
 30
0.0
 10
7.840087200872385
 20
7.679594225271935
 30
0.0
 10
7.840956716223092
 20
7.68588804869536
 30
0.0
 10
7.841415009012883
 20
7.689205314909043
 30
0.0
  0
ARC
  5
1E2
330
1F
100
AcDbEntity
  8
0
  6
CONTINUOUS
 62
     7
100
AcDbCircle
 10
8.653095289
 20
6.6436171843
 30
0.0
 40
0.0980188012369013
100
AcDbArc
 50
1.392003041
 51
24.2770892873
  0
POLYLINE
  5
1E3
330
1F
100
AcDbEntity
  8
0
  6
CONTINUOUS
 62
     7
100
AcDb2dPolyline
 66
     1
 10
0.0
 20
0.0
 30
0.0
  0
VERTEX
  5
3B9
330
1E3
100
AcDbEntity
  8
0
  6
CONTINUOUS
 62
     7
100
AcDbVertex
100
AcDb2dVertex
 10
8.6635566188
 20
6.6543346987
 30
0.0
  0
VERTEX
  5
3BA
330
1E3
100
AcDbEntity
  8
0
  6
CONTINUOUS
 62
     7
100
AcDbVertex
100
AcDb2dVertex
 10
8.6694880598
 20
6.6450931253
 30
0.0
  0
VERTEX
  5
3BB
330
1E3
100
AcDbEntity
  8
0
  6
CONTINUOUS
 62
     7
100
AcDbVertex
100
AcDb2dVertex
 10
8.6763638412
 20
6.6362582451
 30
0.0
  0
VERTEX
  5
3BC
330
1E3
100
AcDbEntity
  8
0
  6
CONTINUOUS
 62
     7
100
AcDbVertex
100
AcDb2dVertex
 10
8.6838141045
 20
6.6283937006
 30
0.0
  0
VERTEX
  5
3BD
330
1E3
100
AcDbEntity
  8
0
  6
CONTINUOUS
 62
     7
100
AcDbVertex
100
AcDb2dVertex
 10
8.6916553995
 20
6.621693143
 30
0.0
  0
VERTEX
  5
3BE
330
1E3
100
AcDbEntity
  8
0
  6
CONTINUOUS
 62
     7
100
AcDbVertex
100
AcDb2dVertex
 10
8.6996946474
 20
6.6163215625
 30
0.0
  0
VERTEX
  5
3BF
330
1E3
100
AcDbEntity
  8
0
  6
CONTINUOUS
 62
     7
100
AcDbVertex
100
AcDb2dVertex
 10
8.7077338954
 20
6.6124112249
 30
0.0
  0
VERTEX
  5
3C0
330
1E3
100
AcDbEntity
  8
0
  6
CONTINUOUS
 62
     7
100
AcDbVertex
100
AcDb2dVertex
 10
8.7155751904
 20
6.610058416
 30
0.0
  0
VERTEX
  5
3C1
330
1E3
100
AcDbEntity
  8
0
  6
CONTINUOUS
 62
     7
100
AcDbVertex
100
AcDb2dVertex
 10
8.7230254537
 20
6.6093210695
 30
0.0
  0
VERTEX
  5
3C2
330
1E3
100
AcDbEntity
  8
0
  6
CONTINUOUS
 62
     7
100
AcDbVertex
100
AcDb2dVertex
 10
8.7299012351
 20
6.6102173415
 30
0.0
  0
VERTEX
  5
3C3
330
1E3
100
AcDbEntity
  8
0
  6
CONTINUOUS
 62
     7
100
AcDbVertex
100
AcDb2dVertex
 10
8.7360332301
 20
6.6127251628
 30
0.0
  0
VERTEX
  5
3C4
330
1E3
100
AcDbEntity
  8
0
  6
CONTINUOUS
 62
     7
100
AcDbVertex
100
AcDb2dVertex
 10
8.7412704486
 20
6.6167827824
 30
0.0
  0
VERTEX
  5
3C5
330
1E3
100
AcDbEntity
  8
0
  6
CONTINUOUS
 62
     7
100
AcDbVertex
100
AcDb2dVertex
 10
8.7454839329
 20
6.6222902883
 30
0.0
  0
VERTEX
  5
3C6
330
1E3
100
AcDbEntity
  8
0
  6
CONTINUOUS
 62
     7
100
AcDbVertex
100
AcDb2dVertex
 10
8.748569933
 20
6.6291120674
 30
0.0
  0
VERTEX
  5
3C7
330
1E3
100
AcDbEntity
  8
0
  6
CONTINUOUS
 62
     7
100
AcDbVertex
100
AcDb2dVertex
 10
8.7504524614
 20
6.637080145
 30
0.0
  0
VERTEX
  5
3C8
330
1E3
100
AcDbEntity
  8
0
  6
CONTINUOUS
 62
     7
100
AcDbVertex
100
AcDb2dVertex
 10
8.7510851639
 20
6.6459983204
 30
0.0
  0
SEQEND
  5
3C9
330
1E3
100
AcDbEntity
  8
0
  6
CONTINUOUS
 62
     7
  0
ARC
  5
1E4
330
1F
100
AcDbEntity
  8
0
  6
CONTINUOUS
 62
     7
100
AcDbCircle
 10
8.7326008227
 20
6.6519810296
 30
0.0
 40
0.0474025389396583
100
AcDbArc
 50
236.9605939864
 51
281.2094606793
  0
POLYLINE
  5
1E5
330
1F
100
AcDbEntity
  8
0
  6
CONTINUOUS
 62
     7
100
AcDb2dPolyline
 66
     1
 10
0.0
 20
0.0
 30
0.0
  0
VERTEX
  5
3CA
330
1E5
100
AcDbEntity
  8
0
  6
CONTINUOUS
 62
     7
100
AcDbVertex
100
AcDb2dVertex
 10
7.8172031134
 20
7.6607889469
 30
0.0
  0
VERTEX
  5
3CB
330
1E5
100
AcDbEntity
  8
0
  6
CONTINUOUS
 62
     7
100
AcDbVertex
100
AcDb2dVertex
 10
7.8252633929
 20
7.6661959475
 30
0.0
  0
VERTEX
  5
3CC
330
1E5
100
AcDbEntity
  8
0
  6
CONTINUOUS
 62
     7
100
AcDbVertex
100
AcDb2dVertex
 10
7.8318376838
 20
7.6722360649
 30
0.0
  0
VERTEX
  5
3CD
330
1E5
100
AcDbEntity
  8
0
  6
CONTINUOUS
 62
     7
100
AcDbVertex
100
AcDb2dVertex
 10
7.8367791273
 20
7.678774373
 30
0.0
  0
VERTEX
  5
3CE
330
1E5
100
AcDbEntity
  8
0
  6
CONTINUOUS
 62
     7
100
AcDbVertex
100
AcDb2dVertex
 10
7.8399773399
 20
7.6856648168
 30
0.0
  0
VERTEX
  5
3CF
330
1E5
100
AcDbEntity
  8
0
  6
CONTINUOUS
 62
     7
100
AcDbVertex
100
AcDb2dVertex
 10
7.8413608788
 20
7.692753475
 30
0.0
  0
VERTEX
  5
3D0
330
1E5
100
AcDbEntity
  8
0
  6
CONTINUOUS
 62
     7
100
AcDbVertex
100
AcDb2dVertex
 10
7.8408988379
 20
7.6998819989
 30
0.0
  0
VERTEX
  5
3D1
330
1E5
100
AcDbEntity
  8
0
  6
CONTINUOUS
 62
     7
100
AcDbVertex
100
AcDb2dVertex
 10
7.8386015384
 20
7.7068911489
 30
0.0
  0
VERTEX
  5
3D2
330
1E5
100
AcDbEntity
  8
0
  6
CONTINUOUS
 62
     7
100
AcDbVertex
100
AcDb2dVertex
 10
7.8345202984
 20
7.7136243522
 30
0.0
  0
VERTEX
  5
3D3
330
1E5
100
AcDbEntity
  8
0
  6
CONTINUOUS
 62
     7
100
AcDbVertex
100
AcDb2dVertex
 10
7.8287462858
 20
7.7199312002
 30
0.0
  0
VERTEX
  5
3D4
330
1E5
100
AcDbEntity
  8
0
  6
CONTINUOUS
 62
     7
100
AcDbVertex
100
AcDb2dVertex
 10
7.8214084827
 20
7.7256708084
 30
0.0
  0
VERTEX
  5
3D5
330
1E5
100
AcDbEntity
  8
0
  6
CONTINUOUS
 62
     7
100
AcDbVertex
100
AcDb2dVertex
 10
7.8172126128
 20
7.7282817706
 30
0.0
  0
SEQEND
  5
3D6
330
1E5
100
AcDbEntity
  8
0
  6
CONTINUOUS
 62
     7
  0
POLYLINE
  5
1E6
330
1F
100
AcDbEntity
  8
0
  6
CONTINUOUS
 62
     7
100
AcDb2dPolyline
 66
     1
 10
0.0
 20
0.0
 30
0.0
  0
VERTEX
  5
3D7
330
1E6
100
AcDbEntity
  8
0
  6
CONTINUOUS
 62
     7
100
AcDbVertex
100
AcDb2dVertex
 10
7.7002704456
 20
7.7282817706
 30
0.0
  0
VERTEX
  5
3D8
330
1E6
100
AcDbEntity
  8
0
  6
CONTINUOUS
 62
     7
100
AcDbVertex
100
AcDb2dVertex
 10
7.6922196655
 20
7.7228802547
 30
0.0
  0
VERTEX
  5
3D9
330
1E6
100
AcDbEntity
  8
0
  6
CONTINUOUS
 62
     7
100
AcDbVertex
100
AcDb2dVertex
 10
7.6856453746
 20
7.7168401373
 30
0.0
  0
VERTEX
  5
3DA
330
1E6
100
AcDbEntity
  8
0
  6
CONTINUOUS
 62
     7
100
AcDbVertex
100
AcDb2dVertex
 10
7.680703931
 20
7.7103018291
 30
0.0
  0
VERTEX
  5
3DB
330
1E6
100
AcDbEntity
  8
0
  6
CONTINUOUS
 62
     7
100
AcDbVertex
100
AcDb2dVertex
 10
7.6775057184
 20
7.7034113854
 30
0.0
  0
VERTEX
  5
3DC
330
1E6
100
AcDbEntity
  8
0
  6
CONTINUOUS
 62
     7
100
AcDbVertex
100
AcDb2dVertex
 10
7.6761221796
 20
7.6963227271
 30
0.0
  0
VERTEX
  5
3DD
330
1E6
100
AcDbEntity
  8
0
  6
CONTINUOUS
 62
     7
100
AcDbVertex
100
AcDb2dVertex
 10
7.6765842205
 20
7.6891942033
 30
0.0
  0
VERTEX
  5
3DE
330
1E6
100
AcDbEntity
  8
0
  6
CONTINUOUS
 62
     7
100
AcDbVertex
100
AcDb2dVertex
 10
7.6788815199
 20
7.6821850533
 30
0.0
  0
VERTEX
  5
3DF
330
1E6
100
AcDbEntity
  8
0
  6
CONTINUOUS
 62
     7
100
AcDbVertex
100
AcDb2dVertex
 10
7.68296276
 20
7.67545185
 30
0.0
  0
VERTEX
  5
3E0
330
1E6
100
AcDbEntity
  8
0
  6
CONTINUOUS
 62
     7
100
AcDbVertex
100
AcDb2dVertex
 10
7.6887367725
 20
7.6691450019
 30
0.0
  0
VERTEX
  5
3E1
330
1E6
100
AcDbEntity
  8
0
  6
CONTINUOUS
 62
     7
100
AcDbVertex
100
AcDb2dVertex
 10
7.6960745757
 20
7.6634053938
 30
0.0
  0
VERTEX
  5
3E2
330
1E6
100
AcDbEntity
  8
0
  6
CONTINUOUS
 62
     7
100
AcDbVertex
100
AcDb2dVertex
 10
7.704812255
 20
7.6583612389
 30
0.0
  0
VERTEX
  5
3E3
330
1E6
100
AcDbEntity
  8
0
  6
CONTINUOUS
 62
     7
100
AcDbVertex
100
AcDb2dVertex
 10
7.7147546252
 20
7.6541252153
 30
0.0
  0
VERTEX
  5
3E4
330
1E6
100
AcDbEntity
  8
0
  6
CONTINUOUS
 62
     7
100
AcDbVertex
100
AcDb2dVertex
 10
7.7256795902
 20
7.6507919488
 30
0.0
  0
VERTEX
  5
3E5
330
1E6
100
AcDbEntity
  8
0
  6
CONTINUOUS
 62
     7
100
AcDbVertex
100
AcDb2dVertex
 10
7.7373431042
 20
7.6484358991
 30
0.0
  0
VERTEX
  5
3E6
330
1E6
100
AcDbEntity
  8
0
  6
CONTINUOUS
 62
     7
100
AcDbVertex
100
AcDb2dVertex
 10
7.7494846237
 20
7.6471096963
 30
0.0
  0
VERTEX
  5
3E7
330
1E6
100
AcDbEntity
  8
0
  6
CONTINUOUS
 62
     7
100
AcDbVertex
100
AcDb2dVertex
 10
7.7618329271
 20
7.6468429658
 30
0.0
  0
VERTEX
  5
3E8
330
1E6
100
AcDbEntity
  8
0
  6
CONTINUOUS
 62
     7
100
AcDbVertex
100
AcDb2dVertex
 10
7.7741121739
 20
7.6476416658
 30
0.0
  0
VERTEX
  5
3E9
330
1E6
100
AcDbEntity
  8
0
  6
CONTINUOUS
 62
     7
100
AcDbVertex
100
AcDb2dVertex
 10
7.7860480658
 20
7.6494879546
 30
0.0
  0
VERTEX
  5
3EA
330
1E6
100
AcDbEntity
  8
0
  6
CONTINUOUS
 62
     7
100
AcDbVertex
100
AcDb2dVertex
 10
7.787722939
 20
7.6498380177
 30
0.0
  0
SEQEND
  5
3EB
330
1E6
100
AcDbEntity
  8
0
  6
CONTINUOUS
 62
     7
  0
ARC
  5
1E7
330
1F
100
AcDbEntity
  8
0
  6
CONTINUOUS
 62
     7
100
AcDbCircle
 10
7.7673117253
 20
7.7501003377
 30
0.0
 40
0.1023018824015343
100
AcDbArc
 50
282.4114711179
 51
299.1887256046
  0
POLYLINE
  5
1E8
330
1F
100
AcDbEntity
  8
0
  6
CONTINUOUS
 62
     7
100
AcDb2dPolyline
 66
     1
 10
0.0
 20
0.0
 30
0.0
  0
VERTEX
  5
3EC
330
1E8
100
AcDbEntity
  8
0
  6
CONTINUOUS
 62
     7
100
AcDbVertex
100
AcDb2dVertex
 10
7.8101320456
 20
7.6730363955
 30
0.0
  0
VERTEX
  5
3ED
330
1E8
100
AcDbEntity
  8
0
  6
CONTINUOUS
 62
     7
100
AcDbVertex
100
AcDb2dVertex
 10
7.8014600951
 20
7.6687606879
 30
0.0
  0
VERTEX
  5
3EE
330
1E8
100
AcDbEntity
  8
0
  6
CONTINUOUS
 62
     7
100
AcDbVertex
100
AcDb2dVertex
 10
7.7917362718
 20
7.6653207651
 30
0.0
  0
VERTEX
  5
3EF
330
1E8
100
AcDbEntity
  8
0
  6
CONTINUOUS
 62
     7
100
AcDbVertex
100
AcDb2dVertex
 10
7.7812000084
 20
7.6628013296
 30
0.0
  0
VERTEX
  5
3F0
330
1E8
100
AcDbEntity
  8
0
  6
CONTINUOUS
 62
     7
100
AcDbVertex
100
AcDb2dVertex
 10
7.7701107427
 20
7.6612644182
 30
0.0
  0
VERTEX
  5
3F1
330
1E8
100
AcDbEntity
  8
0
  6
CONTINUOUS
 62
     7
100
AcDbVertex
100
AcDb2dVertex
 10
7.7587415292
 20
7.6607478747
 30
0.0
  0
VERTEX
  5
3F2
330
1E8
100
AcDbEntity
  8
0
  6
CONTINUOUS
 62
     7
100
AcDbVertex
100
AcDb2dVertex
 10
7.7473723157
 20
7.6612644182
 30
0.0
  0
VERTEX
  5
3F3
330
1E8
100
AcDbEntity
  8
0
  6
CONTINUOUS
 62
     7
100
AcDbVertex
100
AcDb2dVertex
 10
7.73628305
 20
7.6628013296
 30
0.0
  0
VERTEX
  5
3F4
330
1E8
100
AcDbEntity
  8
0
  6
CONTINUOUS
 62
     7
100
AcDbVertex
100
AcDb2dVertex
 10
7.7257467866
 20
7.6653207651
 30
0.0
  0
VERTEX
  5
3F5
330
1E8
100
AcDbEntity
  8
0
  6
CONTINUOUS
 62
     7
100
AcDbVertex
100
AcDb2dVertex
 10
7.7160229632
 20
7.6687606879
 30
0.0
  0
VERTEX
  5
3F6
330
1E8
100
AcDbEntity
  8
0
  6
CONTINUOUS
 62
     7
100
AcDbVertex
100
AcDb2dVertex
 10
7.7073510127
 20
7.6730363955
 30
0.0
  0
VERTEX
  5
3F7
330
1E8
100
AcDbEntity
  8
0
  6
CONTINUOUS
 62
     7
100
AcDbVertex
100
AcDb2dVertex
 10
7.6999444673
 20
7.678042606
 30
0.0
  0
VERTEX
  5
3F8
330
1E8
100
AcDbEntity
  8
0
  6
CONTINUOUS
 62
     7
100
AcDbVertex
100
AcDb2dVertex
 10
7.6939857007
 20
7.6836560497
 30
0.0
  0
VERTEX
  5
3F9
330
1E8
100
AcDbEntity
  8
0
  6
CONTINUOUS
 62
     7
100
AcDbVertex
100
AcDb2dVertex
 10
7.6896214375
 20
7.6897385051
 30
0.0
  0
VERTEX
  5
3FA
330
1E8
100
AcDbEntity
  8
0
  6
CONTINUOUS
 62
     7
100
AcDbVertex
100
AcDb2dVertex
 10
7.6869591403
 20
7.696140202
 30
0.0
  0
VERTEX
  5
3FB
330
1E8
100
AcDbEntity
  8
0
  6
CONTINUOUS
 62
     7
100
AcDbVertex
100
AcDb2dVertex
 10
7.6860643638
 20
7.7027035092
 30
0.0
  0
VERTEX
  5
3FC
330
1E8
100
AcDbEntity
  8
0
  6
CONTINUOUS
 62
     7
100
AcDbVertex
100
AcDb2dVertex
 10
7.6869591403
 20
7.7092668165
 30
0.0
  0
VERTEX
  5
3FD
330
1E8
100
AcDbEntity
  8
0
  6
CONTINUOUS
 62
     7
100
AcDbVertex
100
AcDb2dVertex
 10
7.6896214375
 20
7.7156685133
 30
0.0
  0
VERTEX
  5
3FE
330
1E8
100
AcDbEntity
  8
0
  6
CONTINUOUS
 62
     7
100
AcDbVertex
100
AcDb2dVertex
 10
7.6939857007
 20
7.7217509687
 30
0.0
  0
VERTEX
  5
3FF
330
1E8
100
AcDbEntity
  8
0
  6
CONTINUOUS
 62
     7
100
AcDbVertex
100
AcDb2dVertex
 10
7.6999444673
 20
7.7273644124
 30
0.0
  0
VERTEX
  5
400
330
1E8
100
AcDbEntity
  8
0
  6
CONTINUOUS
 62
     7
100
AcDbVertex
100
AcDb2dVertex
 10
7.7073510127
 20
7.7323706229
 30
0.0
  0
VERTEX
  5
401
330
1E8
100
AcDbEntity
  8
0
  6
CONTINUOUS
 62
     7
100
AcDbVertex
100
AcDb2dVertex
 10
7.7160229632
 20
7.7366463305
 30
0.0
  0
VERTEX
  5
402
330
1E8
100
AcDbEntity
  8
0
  6
CONTINUOUS
 62
     7
100
AcDbVertex
100
AcDb2dVertex
 10
7.7257467866
 20
7.7400862533
 30
0.0
  0
VERTEX
  5
403
330
1E8
100
AcDbEntity
  8
0
  6
CONTINUOUS
 62
     7
100
AcDbVertex
100
AcDb2dVertex
 10
7.73628305
 20
7.7426056888
 30
0.0
  0
VERTEX
  5
404
330
1E8
100
AcDbEntity
  8
0
  6
CONTINUOUS
 62
     7
100
AcDbVertex
100
AcDb2dVertex
 10
7.7473723157
 20
7.7441426002
 30
0.0
  0
VERTEX
  5
405
330
1E8
100
AcDbEntity
  8
0
  6
CONTINUOUS
 62
     7
100
AcDbVertex
100
AcDb2dVertex
 10
7.7587415292
 20
7.7446591437
 30
0.0
  0
VERTEX
  5
406
330
1E8
100
AcDbEntity
  8
0
  6
CONTINUOUS
 62
     7
100
AcDbVertex
100
AcDb2dVertex
 10
7.7701107427
 20
7.7441426002
 30
0.0
  0
VERTEX
  5
407
330
1E8
100
AcDbEntity
  8
0
  6
CONTINUOUS
 62
     7
100
AcDbVertex
100
AcDb2dVertex
 10
7.7812000084
 20
7.7426056888
 30
0.0
  0
VERTEX
  5
408
330
1E8
100
AcDbEntity
  8
0
  6
CONTINUOUS
 62
     7
100
AcDbVertex
100
AcDb2dVertex
 10
7.7917362718
 20
7.7400862533
 30
0.0
  0
VERTEX
  5
409
330
1E8
100
AcDbEntity
  8
0
  6
CONTINUOUS
 62
     7
100
AcDbVertex
100
AcDb2dVertex
 10
7.8014600951
 20
7.7366463305
 30
0.0
  0
VERTEX
  5
40A
330
1E8
100
AcDbEntity
  8
0
  6
CONTINUOUS
 62
     7
100
AcDbVertex
100
AcDb2dVertex
 10
7.8101320456
 20
7.7323706229
 30
0.0
  0
VERTEX
  5
40B
330
1E8
100
AcDbEntity
  8
0
  6
CONTINUOUS
 62
     7
100
AcDbVertex
100
AcDb2dVertex
 10
7.817538591
 20
7.7273644124
 30
0.0
  0
VERTEX
  5
40C
330
1E8
100
AcDbEntity
  8
0
  6
CONTINUOUS
 62
     7
100
AcDbVertex
100
AcDb2dVertex
 10
7.8234973577
 20
7.7217509687
 30
0.0
  0
VERTEX
  5
40D
330
1E8
100
AcDbEntity
  8
0
  6
CONTINUOUS
 62
     7
100
AcDbVertex
100
AcDb2dVertex
 10
7.8278616209
 20
7.7156685133
 30
0.0
  0
VERTEX
  5
40E
330
1E8
100
AcDbEntity
  8
0
  6
CONTINUOUS
 62
     7
100
AcDbVertex
100
AcDb2dVertex
 10
7.830523918
 20
7.7092668165
 30
0.0
  0
VERTEX
  5
40F
330
1E8
100
AcDbEntity
  8
0
  6
CONTINUOUS
 62
     7
100
AcDbVertex
100
AcDb2dVertex
 10
7.8314186945
 20
7.7027035092
 30
0.0
  0
VERTEX
  5
410
330
1E8
100
AcDbEntity
  8
0
  6
CONTINUOUS
 62
     7
100
AcDbVertex
100
AcDb2dVertex
 10
7.830523918
 20
7.696140202
 30
0.0
  0
VERTEX
  5
411
330
1E8
100
AcDbEntity
  8
0
  6
CONTINUOUS
 62
     7
100
AcDbVertex
100
AcDb2dVertex
 10
7.8278616209
 20
7.6897385051
 30
0.0
  0
VERTEX
  5
412
330
1E8
100
AcDbEntity
  8
0
  6
CONTINUOUS
 62
     7
100
AcDbVertex
100
AcDb2dVertex
 10
7.8234973577
 20
7.6836560497
 30
0.0
  0
VERTEX
  5
413
330
1E8
100
AcDbEntity
  8
0
  6
CONTINUOUS
 62
     7
100
AcDbVertex
100
AcDb2dVertex
 10
7.817538591
 20
7.678042606
 30
0.0
  0
VERTEX
  5
414
330
1E8
100
AcDbEntity
  8
0
  6
CONTINUOUS
 62
     7
100
AcDbVertex
100
AcDb2dVertex
 10
7.8101320456
 20
7.6730363955
 30
0.0
  0
SEQEND
  5
415
330
1E8
100
AcDbEntity
  8
0
  6
CONTINUOUS
 62
     7
  0
LINE
  5
1E9
330
1F
100
AcDbEntity
  8
0
  6
CONTINUOUS
 62
     7
100
AcDbLine
 10
7.7069324326
 20
7.7107175359
 30
0.0
 11
7.7448593236
 21
7.732612264
 31
0.0
  0
LINE
  5
1EA
330
1F
100
AcDbEntity
  8
0
  6
CONTINUOUS
 62
     7
100
AcDbLine
 10
7.7208146382
 20
7.6808087811
 30
0.0
 11
7.7069324326
 21
7.7107175359
 31
0.0
  0
LINE
  5
1EB
330
1F
100
AcDbEntity
  8
0
  6
CONTINUOUS
 62
     7
100
AcDbLine
 10
7.7726237347
 20
7.6727947544
 30
0.0
 11
7.7208146382
 21
7.6808087811
 31
0.0
  0
LINE
  5
1EC
330
1F
100
AcDbEntity
  8
0
  6
CONTINUOUS
 62
     7
100
AcDbLine
 10
7.8105506257
 20
7.6946894825
 30
0.0
 11
7.7726237347
 21
7.6727947544
 31
0.0
  0
LINE
  5
1ED
330
1F
100
AcDbEntity
  8
0
  6
CONTINUOUS
 62
     7
100
AcDbLine
 10
7.7966684201
 20
7.7245982373
 30
0.0
 11
7.8105506257
 21
7.6946894825
 31
0.0
  0
LINE
  5
1EE
330
1F
100
AcDbEntity
  8
0
  6
CONTINUOUS
 62
     7
100
AcDbLine
 10
7.7448593236
 20
7.732612264
 30
0.0
 11
7.7966684201
 21
7.7245982373
 31
0.0
  0
LINE
  5
1EF
330
1F
100
AcDbEntity
  8
0
  6
CONTINUOUS
 62
     7
100
AcDbLine
 10
7.7247823598
 20
7.6801950389
 30
0.0
 11
7.7448593236
 21
7.6917852234
 31
0.0
  0
LINE
  5
1F0
330
1F
100
AcDbEntity
  8
0
  6
CONTINUOUS
 62
     7
100
AcDbLine
 10
7.7448593236
 20
7.6917852234
 30
0.0
 11
7.7927006985
 21
7.6843849389
 31
0.0
  0
LINE
  5
1F1
330
1F
100
AcDbEntity
  8
0
  6
CONTINUOUS
 62
     7
100
AcDbLine
 10
7.7966684201
 20
7.6866754558
 30
0.0
 11
7.7966684201
 21
7.7245982373
 31
0.0
  0
LINE
  5
1F2
330
1F
100
AcDbEntity
  8
0
  6
CONTINUOUS
 62
     7
100
AcDbLine
 10
7.7448593236
 20
7.6917852234
 30
0.0
 11
7.7448593236
 21
7.732612264
 31
0.0
  0
POLYLINE
  5
1F3
330
1F
100
AcDbEntity
  8
0
  6
CONTINUOUS
 62
     7
100
AcDb2dPolyline
 66
     1
 10
0.0
 20
0.0
 30
0.0
  0
VERTEX
  5
416
330
1F3
100
AcDbEntity
  8
0
  6
CONTINUOUS
 62
     7
100
AcDbVertex
100
AcDb2dVertex
 10
8.6468103324
 20
7.2493652011
 30
0.0
  0
VERTEX
  5
417
330
1F3
100
AcDbEntity
  8
0
  6
CONTINUOUS
 62
     7
100
AcDbVertex
100
AcDb2dVertex
 10
8.6510062023
 20
7.2467542389
 30
0.0
  0
VERTEX
  5
418
330
1F3
100
AcDbEntity
  8
0
  6
CONTINUOUS
 62
     7
100
AcDbVertex
100
AcDb2dVertex
 10
8.6583440055
 20
7.2410146307
 30
0.0
  0
VERTEX
  5
419
330
1F3
100
AcDbEntity
  8
0
  6
CONTINUOUS
 62
     7
100
AcDbVertex
100
AcDb2dVertex
 10
8.664118018
 20
7.2347077827
 30
0.0
  0
VERTEX
  5
41A
330
1F3
100
AcDbEntity
  8
0
  6
CONTINUOUS
 62
     7
100
AcDbVertex
100
AcDb2dVertex
 10
8.6681992581
 20
7.2279745794
 30
0.0
  0
VERTEX
  5
41B
330
1F3
100
AcDbEntity
  8
0
  6
CONTINUOUS
 62
     7
100
AcDbVertex
100
AcDb2dVertex
 10
8.6704965575
 20
7.2209654294
 30
0.0
  0
VERTEX
  5
41C
330
1F3
100
AcDbEntity
  8
0
  6
CONTINUOUS
 62
     7
100
AcDbVertex
100
AcDb2dVertex
 10
8.6709585984
 20
7.2138369055
 30
0.0
  0
VERTEX
  5
41D
330
1F3
100
AcDbEntity
  8
0
  6
CONTINUOUS
 62
     7
100
AcDbVertex
100
AcDb2dVertex
 10
8.6695750596
 20
7.2067482473
 30
0.0
  0
VERTEX
  5
41E
330
1F3
100
AcDbEntity
  8
0
  6
CONTINUOUS
 62
     7
100
AcDbVertex
100
AcDb2dVertex
 10
8.666376847
 20
7.1998578035
 30
0.0
  0
VERTEX
  5
41F
330
1F3
100
AcDbEntity
  8
0
  6
CONTINUOUS
 62
     7
100
AcDbVertex
100
AcDb2dVertex
 10
8.6614354034
 20
7.1933194954
 30
0.0
  0
VERTEX
  5
420
330
1F3
100
AcDbEntity
  8
0
  6
CONTINUOUS
 62
     7
100
AcDbVertex
100
AcDb2dVertex
 10
8.6548611125
 20
7.1872793779
 30
0.0
  0
VERTEX
  5
421
330
1F3
100
AcDbEntity
  8
0
  6
CONTINUOUS
 62
     7
100
AcDbVertex
100
AcDb2dVertex
 10
8.6468008331
 20
7.1818723773
 30
0.0
  0
VERTEX
  5
422
330
1F3
100
AcDbEntity
  8
0
  6
CONTINUOUS
 62
     7
100
AcDbVertex
100
AcDb2dVertex
 10
8.6374346185
 20
7.1772192771
 30
0.0
  0
VERTEX
  5
423
330
1F3
100
AcDbEntity
  8
0
  6
CONTINUOUS
 62
     7
100
AcDbVertex
100
AcDb2dVertex
 10
8.6269716945
 20
7.1734240197
 30
0.0
  0
VERTEX
  5
424
330
1F3
100
AcDbEntity
  8
0
  6
CONTINUOUS
 62
     7
100
AcDbVertex
100
AcDb2dVertex
 10
8.621503328
 20
7.1719011524
 30
0.0
  0
SEQEND
  5
425
330
1F3
100
AcDbEntity
  8
0
  6
CONTINUOUS
 62
     7
  0
POLYLINE
  5
1F4
330
1F
100
AcDbEntity
  8
0
  6
CONTINUOUS
 62
     7
100
AcDb2dPolyline
 66
     1
 10
0.0
 20
0.0
 30
0.0
  0
VERTEX
  5
426
330
1F4
100
AcDbEntity
  8
0
  6
CONTINUOUS
 62
     7
100
AcDbVertex
100
AcDb2dVertex
 10
8.6204772884
 20
7.1716465285
 30
0.0
  0
VERTEX
  5
427
330
1F4
100
AcDbEntity
  8
0
  6
CONTINUOUS
 62
     7
100
AcDbVertex
100
AcDb2dVertex
 10
8.6156457854
 20
7.1705713851
 30
0.0
  0
VERTEX
  5
428
330
1F4
100
AcDbEntity
  8
0
  6
CONTINUOUS
 62
     7
100
AcDbVertex
100
AcDb2dVertex
 10
8.6037098935
 20
7.1687250962
 30
0.0
  0
VERTEX
  5
429
330
1F4
100
AcDbEntity
  8
0
  6
CONTINUOUS
 62
     7
100
AcDbVertex
100
AcDb2dVertex
 10
8.5914306468
 20
7.1679263963
 30
0.0
  0
VERTEX
  5
42A
330
1F4
100
AcDbEntity
  8
0
  6
CONTINUOUS
 62
     7
100
AcDbVertex
100
AcDb2dVertex
 10
8.5790823433
 20
7.1681931268
 30
0.0
  0
VERTEX
  5
42B
330
1F4
100
AcDbEntity
  8
0
  6
CONTINUOUS
 62
     7
100
AcDbVertex
100
AcDb2dVertex
 10
8.5669408238
 20
7.1695193295
 30
0.0
  0
VERTEX
  5
42C
330
1F4
100
AcDbEntity
  8
0
  6
CONTINUOUS
 62
     7
100
AcDbVertex
100
AcDb2dVertex
 10
8.5552773098
 20
7.1718753793
 30
0.0
  0
VERTEX
  5
42D
330
1F4
100
AcDbEntity
  8
0
  6
CONTINUOUS
 62
     7
100
AcDbVertex
100
AcDb2dVertex
 10
8.5443523449
 20
7.1752086458
 30
0.0
  0
VERTEX
  5
42E
330
1F4
100
AcDbEntity
  8
0
  6
CONTINUOUS
 62
     7
100
AcDbVertex
100
AcDb2dVertex
 10
8.5344099747
 20
7.1794446694
 30
0.0
  0
VERTEX
  5
42F
330
1F4
100
AcDbEntity
  8
0
  6
CONTINUOUS
 62
     7
100
AcDbVertex
100
AcDb2dVertex
 10
8.5256722953
 20
7.1844888243
 30
0.0
  0
VERTEX
  5
430
330
1F4
100
AcDbEntity
  8
0
  6
CONTINUOUS
 62
     7
100
AcDbVertex
100
AcDb2dVertex
 10
8.5183344922
 20
7.1902284324
 30
0.0
  0
VERTEX
  5
431
330
1F4
100
AcDbEntity
  8
0
  6
CONTINUOUS
 62
     7
100
AcDbVertex
100
AcDb2dVertex
 10
8.5125604796
 20
7.1965352804
 30
0.0
  0
VERTEX
  5
432
330
1F4
100
AcDbEntity
  8
0
  6
CONTINUOUS
 62
     7
100
AcDbVertex
100
AcDb2dVertex
 10
8.5084792396
 20
7.2032684838
 30
0.0
  0
VERTEX
  5
433
330
1F4
100
AcDbEntity
  8
0
  6
CONTINUOUS
 62
     7
100
AcDbVertex
100
AcDb2dVertex
 10
8.5061819401
 20
7.2102776338
 30
0.0
  0
VERTEX
  5
434
330
1F4
100
AcDbEntity
  8
0
  6
CONTINUOUS
 62
     7
100
AcDbVertex
100
AcDb2dVertex
 10
8.5057198992
 20
7.2174061576
 30
0.0
  0
VERTEX
  5
435
330
1F4
100
AcDbEntity
  8
0
  6
CONTINUOUS
 62
     7
100
AcDbVertex
100
AcDb2dVertex
 10
8.5071034381
 20
7.2244948159
 30
0.0
  0
VERTEX
  5
436
330
1F4
100
AcDbEntity
  8
0
  6
CONTINUOUS
 62
     7
100
AcDbVertex
100
AcDb2dVertex
 10
8.5103016507
 20
7.2313852596
 30
0.0
  0
VERTEX
  5
437
330
1F4
100
AcDbEntity
  8
0
  6
CONTINUOUS
 62
     7
100
AcDbVertex
100
AcDb2dVertex
 10
8.5152430942
 20
7.2379235677
 30
0.0
  0
VERTEX
  5
438
330
1F4
100
AcDbEntity
  8
0
  6
CONTINUOUS
 62
     7
100
AcDbVertex
100
AcDb2dVertex
 10
8.5218173851
 20
7.2439636852
 30
0.0
  0
VERTEX
  5
439
330
1F4
100
AcDbEntity
  8
0
  6
CONTINUOUS
 62
     7
100
AcDbVertex
100
AcDb2dVertex
 10
8.5298776646
 20
7.2493706858
 30
0.0
  0
SEQEND
  5
43A
330
1F4
100
AcDbEntity
  8
0
  6
CONTINUOUS
 62
     7
  0
POLYLINE
  5
1F5
330
1F
100
AcDbEntity
  8
0
  6
CONTINUOUS
 62
     7
100
AcDb2dPolyline
 66
     1
 10
0.0
 20
0.0
 30
0.0
  0
VERTEX
  5
43B
330
1F5
100
AcDbEntity
  8
0
  6
CONTINUOUS
 62
     7
100
AcDbVertex
100
AcDb2dVertex
 10
8.5369487324
 20
7.2534540534
 30
0.0
  0
VERTEX
  5
43C
330
1F5
100
AcDbEntity
  8
0
  6
CONTINUOUS
 62
     7
100
AcDbVertex
100
AcDb2dVertex
 10
8.529542187
 20
7.2484478429
 30
0.0
  0
VERTEX
  5
43D
330
1F5
100
AcDbEntity
  8
0
  6
CONTINUOUS
 62
     7
100
AcDbVertex
100
AcDb2dVertex
 10
8.5235834203
 20
7.2428343992
 30
0.0
  0
VERTEX
  5
43E
330
1F5
100
AcDbEntity
  8
0
  6
CONTINUOUS
 62
     7
100
AcDbVertex
100
AcDb2dVertex
 10
8.5192191571
 20
7.2367519438
 30
0.0
  0
VERTEX
  5
43F
330
1F5
100
AcDbEntity
  8
0
  6
CONTINUOUS
 62
     7
100
AcDbVertex
100
AcDb2dVertex
 10
8.51655686
 20
7.2303502469
 30
0.0
  0
VERTEX
  5
440
330
1F5
100
AcDbEntity
  8
0
  6
CONTINUOUS
 62
     7
100
AcDbVertex
100
AcDb2dVertex
 10
8.5156620835
 20
7.2237869397
 30
0.0
  0
VERTEX
  5
441
330
1F5
100
AcDbEntity
  8
0
  6
CONTINUOUS
 62
     7
100
AcDbVertex
100
AcDb2dVertex
 10
8.51655686
 20
7.2172236324
 30
0.0
  0
VERTEX
  5
442
330
1F5
100
AcDbEntity
  8
0
  6
CONTINUOUS
 62
     7
100
AcDbVertex
100
AcDb2dVertex
 10
8.5192191571
 20
7.2108219356
 30
0.0
  0
VERTEX
  5
443
330
1F5
100
AcDbEntity
  8
0
  6
CONTINUOUS
 62
     7
100
AcDbVertex
100
AcDb2dVertex
 10
8.5235834203
 20
7.2047394802
 30
0.0
  0
VERTEX
  5
444
330
1F5
100
AcDbEntity
  8
0
  6
CONTINUOUS
 62
     7
100
AcDbVertex
100
AcDb2dVertex
 10
8.529542187
 20
7.1991260365
 30
0.0
  0
VERTEX
  5
445
330
1F5
100
AcDbEntity
  8
0
  6
CONTINUOUS
 62
     7
100
AcDbVertex
100
AcDb2dVertex
 10
8.5369487324
 20
7.194119826
 30
0.0
  0
VERTEX
  5
446
330
1F5
100
AcDbEntity
  8
0
  6
CONTINUOUS
 62
     7
100
AcDbVertex
100
AcDb2dVertex
 10
8.5456206829
 20
7.1898441184
 30
0.0
  0
VERTEX
  5
447
330
1F5
100
AcDbEntity
  8
0
  6
CONTINUOUS
 62
     7
100
AcDbVertex
100
AcDb2dVertex
 10
8.5553445062
 20
7.1864041956
 30
0.0
  0
VERTEX
  5
448
330
1F5
100
AcDbEntity
  8
0
  6
CONTINUOUS
 62
     7
100
AcDbVertex
100
AcDb2dVertex
 10
8.5658807696
 20
7.1838847601
 30
0.0
  0
VERTEX
  5
449
330
1F5
100
AcDbEntity
  8
0
  6
CONTINUOUS
 62
     7
100
AcDbVertex
100
AcDb2dVertex
 10
8.5769700353
 20
7.1823478487
 30
0.0
  0
VERTEX
  5
44A
330
1F5
100
AcDbEntity
  8
0
  6
CONTINUOUS
 62
     7
100
AcDbVertex
100
AcDb2dVertex
 10
8.5883392488
 20
7.1818313052
 30
0.0
  0
VERTEX
  5
44B
330
1F5
100
AcDbEntity
  8
0
  6
CONTINUOUS
 62
     7
100
AcDbVertex
100
AcDb2dVertex
 10
8.5997084623
 20
7.1823478487
 30
0.0
  0
VERTEX
  5
44C
330
1F5
100
AcDbEntity
  8
0
  6
CONTINUOUS
 62
     7
100
AcDbVertex
100
AcDb2dVertex
 10
8.610797728
 20
7.1838847601
 30
0.0
  0
VERTEX
  5
44D
330
1F5
100
AcDbEntity
  8
0
  6
CONTINUOUS
 62
     7
100
AcDbVertex
100
AcDb2dVertex
 10
8.6213339914
 20
7.1864041956
 30
0.0
  0
VERTEX
  5
44E
330
1F5
100
AcDbEntity
  8
0
  6
CONTINUOUS
 62
     7
100
AcDbVertex
100
AcDb2dVertex
 10
8.6310578148
 20
7.1898441184
 30
0.0
  0
VERTEX
  5
44F
330
1F5
100
AcDbEntity
  8
0
  6
CONTINUOUS
 62
     7
100
AcDbVertex
100
AcDb2dVertex
 10
8.6397297653
 20
7.194119826
 30
0.0
  0
VERTEX
  5
450
330
1F5
100
AcDbEntity
  8
0
  6
CONTINUOUS
 62
     7
100
AcDbVertex
100
AcDb2dVertex
 10
8.6471363107
 20
7.1991260365
 30
0.0
  0
VERTEX
  5
451
330
1F5
100
AcDbEntity
  8
0
  6
CONTINUOUS
 62
     7
100
AcDbVertex
100
AcDb2dVertex
 10
8.6530950773
 20
7.2047394802
 30
0.0
  0
VERTEX
  5
452
330
1F5
100
AcDbEntity
  8
0
  6
CONTINUOUS
 62
     7
100
AcDbVertex
100
AcDb2dVertex
 10
8.6574593405
 20
7.2108219356
 30
0.0
  0
VERTEX
  5
453
330
1F5
100
AcDbEntity
  8
0
  6
CONTINUOUS
 62
     7
100
AcDbVertex
100
AcDb2dVertex
 10
8.6601216377
 20
7.2172236324
 30
0.0
  0
VERTEX
  5
454
330
1F5
100
AcDbEntity
  8
0
  6
CONTINUOUS
 62
     7
100
AcDbVertex
100
AcDb2dVertex
 10
8.6610164142
 20
7.2237869397
 30
0.0
  0
VERTEX
  5
455
330
1F5
100
AcDbEntity
  8
0
  6
CONTINUOUS
 62
     7
100
AcDbVertex
100
AcDb2dVertex
 10
8.6601216377
 20
7.2303502469
 30
0.0
  0
VERTEX
  5
456
330
1F5
100
AcDbEntity
  8
0
  6
CONTINUOUS
 62
     7
100
AcDbVertex
100
AcDb2dVertex
 10
8.6574593405
 20
7.2367519438
 30
0.0
  0
VERTEX
  5
457
330
1F5
100
AcDbEntity
  8
0
  6
CONTINUOUS
 62
     7
100
AcDbVertex
100
AcDb2dVertex
 10
8.6530950773
 20
7.2428343992
 30
0.0
  0
VERTEX
  5
458
330
1F5
100
AcDbEntity
  8
0
  6
CONTINUOUS
 62
     7
100
AcDbVertex
100
AcDb2dVertex
 10
8.6471363107
 20
7.2484478429
 30
0.0
  0
VERTEX
  5
459
330
1F5
100
AcDbEntity
  8
0
  6
CONTINUOUS
 62
     7
100
AcDbVertex
100
AcDb2dVertex
 10
8.6397297653
 20
7.2534540534
 30
0.0
  0
VERTEX
  5
45A
330
1F5
100
AcDbEntity
  8
0
  6
CONTINUOUS
 62
     7
100
AcDbVertex
100
AcDb2dVertex
 10
8.6310578148
 20
7.257729761
 30
0.0
  0
VERTEX
  5
45B
330
1F5
100
AcDbEntity
  8
0
  6
CONTINUOUS
 62
     7
100
AcDbVertex
100
AcDb2dVertex
 10
8.6213339914
 20
7.2611696838
 30
0.0
  0
VERTEX
  5
45C
330
1F5
100
AcDbEntity
  8
0
  6
CONTINUOUS
 62
     7
100
AcDbVertex
100
AcDb2dVertex
 10
8.610797728
 20
7.2636891193
 30
0.0
  0
VERTEX
  5
45D
330
1F5
100
AcDbEntity
  8
0
  6
CONTINUOUS
 62
     7
100
AcDbVertex
100
AcDb2dVertex
 10
8.5997084623
 20
7.2652260307
 30
0.0
  0
VERTEX
  5
45E
330
1F5
100
AcDbEntity
  8
0
  6
CONTINUOUS
 62
     7
100
AcDbVertex
100
AcDb2dVertex
 10
8.5883392488
 20
7.2657425742
 30
0.0
  0
VERTEX
  5
45F
330
1F5
100
AcDbEntity
  8
0
  6
CONTINUOUS
 62
     7
100
AcDbVertex
100
AcDb2dVertex
 10
8.5769700353
 20
7.2652260307
 30
0.0
  0
VERTEX
  5
460
330
1F5
100
AcDbEntity
  8
0
  6
CONTINUOUS
 62
     7
100
AcDbVertex
100
AcDb2dVertex
 10
8.5658807696
 20
7.2636891193
 30
0.0
  0
VERTEX
  5
461
330
1F5
100
AcDbEntity
  8
0
  6
CONTINUOUS
 62
     7
100
AcDbVertex
100
AcDb2dVertex
 10
8.5553445062
 20
7.2611696838
 30
0.0
  0
VERTEX
  5
462
330
1F5
100
AcDbEntity
  8
0
  6
CONTINUOUS
 62
     7
100
AcDbVertex
100
AcDb2dVertex
 10
8.5456206829
 20
7.257729761
 30
0.0
  0
VERTEX
  5
463
330
1F5
100
AcDbEntity
  8
0
  6
CONTINUOUS
 62
     7
100
AcDbVertex
100
AcDb2dVertex
 10
8.5369487324
 20
7.2534540534
 30
0.0
  0
SEQEND
  5
464
330
1F5
100
AcDbEntity
  8
0
  6
CONTINUOUS
 62
     7
  0
LINE
  5
1F6
330
1F
100
AcDbEntity
  8
0
  6
CONTINUOUS
 62
     7
100
AcDbLine
 10
8.6262661398
 20
7.2456816678
 30
0.0
 11
8.5744570433
 21
7.2536956945
 31
0.0
  0
LINE
  5
1F7
330
1F
100
AcDbEntity
  8
0
  6
CONTINUOUS
 62
     7
100
AcDbLine
 10
8.5744570433
 20
7.2536956945
 30
0.0
 11
8.5365301523
 21
7.2318009664
 31
0.0
  0
LINE
  5
1F8
330
1F
100
AcDbEntity
  8
0
  6
CONTINUOUS
 62
     7
100
AcDbLine
 10
8.5365301523
 20
7.2318009664
 30
0.0
 11
8.5504123579
 21
7.2018922116
 31
0.0
  0
LINE
  5
1F9
330
1F
100
AcDbEntity
  8
0
  6
CONTINUOUS
 62
     7
100
AcDbLine
 10
8.5504123579
 20
7.2018922116
 30
0.0
 11
8.6022214544
 21
7.1938781849
 31
0.0
  0
LINE
  5
1FA
330
1F
100
AcDbEntity
  8
0
  6
CONTINUOUS
 62
     7
100
AcDbLine
 10
8.6022214544
 20
7.1938781849
 30
0.0
 11
8.6401483454
 21
7.215772913
 31
0.0
  0
LINE
  5
1FB
330
1F
100
AcDbEntity
  8
0
  6
CONTINUOUS
 62
     7
100
AcDbLine
 10
8.6401483454
 20
7.215772913
 30
0.0
 11
8.6262661398
 21
7.2456816678
 31
0.0
  0
LINE
  5
1FC
330
1F
100
AcDbEntity
  8
0
  6
CONTINUOUS
 62
     7
100
AcDbLine
 10
8.5744570433
 20
7.2128686539
 30
0.0
 11
8.5543800795
 21
7.2012784694
 31
0.0
  0
LINE
  5
1FD
330
1F
100
AcDbEntity
  8
0
  6
CONTINUOUS
 62
     7
100
AcDbLine
 10
8.6222984182
 20
7.2054683694
 30
0.0
 11
8.5744570433
 21
7.2128686539
 31
0.0
  0
LINE
  5
1FE
330
1F
100
AcDbEntity
  8
0
  6
CONTINUOUS
 62
     7
100
AcDbLine
 10
8.6262661398
 20
7.2077588863
 30
0.0
 11
8.6262661398
 21
7.2456816678
 31
0.0
  0
LINE
  5
1FF
330
1F
100
AcDbEntity
  8
0
  6
CONTINUOUS
 62
     7
100
AcDbLine
 10
8.5744570433
 20
7.2128686539
 30
0.0
 11
8.5744570433
 21
7.2536956945
 31
0.0
  0
ENDSEC
  0
SECTION
  2
OBJECTS
  0
DICTIONARY
  5
C
330
0
100
AcDbDictionary
  3
ACAD_GROUP
350
D
  3
ACAD_LAYOUT
350
1A
  3
ACAD_MLEADERSTYLE
350
202
  3
ACAD_MLINESTYLE
350
17
  3
ACAD_PLOTSETTINGS
350
19
  3
ACAD_SCALELIST
350
6F
  3
ACAD_VISUALSTYLE
350
2A
  3
ACDBVARIABLEDICTIONARY
350
200
1001
ACAD
1000
TREAT_AS_HARD
1070
     0
  0
DICTIONARY
  5
D
102
{ACAD_REACTORS
330
C
102
}
330
C
100
AcDbDictionary
1001
ACAD
1000
TREAT_AS_HARD
1070
     0
  0
DICTIONARY
  5
1A
102
{ACAD_REACTORS
330
C
102
}
330
C
100
AcDbDictionary
1001
ACAD
1000
TREAT_AS_HARD
1070
     0
  0
DICTIONARY
  5
202
102
{ACAD_REACTORS
330
C
102
}
330
C
100
AcDbDictionary
1001
ACAD
1000
TREAT_AS_HARD
1070
     0
  0
DICTIONARY
  5
17
102
{ACAD_REACTORS
330
C
102
}
330
C
100
AcDbDictionary
  3
STANDARD
350
18
1001
ACAD
1000
TREAT_AS_HARD
1070
     0
  0
DICTIONARY
  5
19
102
{ACAD_REACTORS
330
C
102
}
330
C
100
AcDbDictionary
1001
ACAD
1000
TREAT_AS_HARD
1070
     0
  0
DICTIONARY
  5
6F
102
{ACAD_REACTORS
330
C
102
}
330
C
100
AcDbDictionary
  3
A0
350
70
  3
A1
350
71
  3
A2
350
72
  3
A3
350
73
  3
A4
350
74
  3
A5
350
75
  3
A6
350
76
  3
A7
350
77
  3
A8
350
78
  3
A9
350
79
  3
B0
350
7A
  3
B1
350
7B
  3
B2
350
7C
  3
B3
350
7D
  3
B4
350
7E
  3
B5
350
7F
  3
B6
350
80
  3
B7
350
81
  3
B8
350
82
  3
B9
350
83
  3
C0
350
84
  3
C1
350
85
  3
C2
350
86
  3
C3
350
87
  3
C4
350
88
  3
C5
350
89
  3
C6
350
8A
  3
C7
350
8B
  3
C8
350
8C
  3
C9
350
8D
  3
D0
350
8E
  3
D1
350
8F
  3
D2
350
90
1001
ACAD
1000
TREAT_AS_HARD
1070
     0
  0
DICTIONARY
  5
2A
102
{ACAD_REACTORS
330
C
102
}
330
C
100
AcDbDictionary
  3
2DWIREFRAME
350
2F
  3
3D_HIDDEN
350
31
  3
3DWIREFRAME
350
30
  3
BASIC
350
32
  3
BRIGHTEN
350
36
  3
COLORCHANGE
350
3A
  3
CONCEPTUAL
350
34
  3
DIM
350
35
  3
FACEPATTERN
350
39
  3
FLAT
350
2B
  3
FLATWITHEDGES
350
2C
  3
GOURAUD
350
2D
  3
GOURAUDWITHEDGES
350
2E
  3
LINEPATTERN
350
38
  3
REALISTIC
350
33
  3
THICKEN
350
37
1001
ACAD
1000
TREAT_AS_HARD
1070
     0
  0
DICTIONARY
  5
200
102
{ACAD_REACTORS
330
C
102
}
330
C
100
AcDbDictionary
  3
CANNOSCALE
350
203
  3
DIMASSOC
350
204
  3
HIDETEXT
350
205
1001
ACAD
1000
TREAT_AS_HARD
1070
     0
  0
MLINESTYLE
  5
18
102
{ACAD_REACTORS
330
17
102
}
330
17
100
AcDbMlineStyle
  2
Standard
 70
     0
  3

 62
   256
 51
90.0
 52
90.0
 71
     2
 49
0.5
 62
   256
  6
BYLAYER
 49
-0.5
 62
   256
  6
BYLAYER
  0
ACAD_PROXY_OBJECT
  5
70
102
{ACAD_REACTORS
330
6F
102
}
330
6F
100
AcDbZombieObject
 90
      499
 91
      502
 93
       41
310
903313A31580
  0
ACAD_PROXY_OBJECT
  5
71
102
{ACAD_REACTORS
330
6F
102
}
330
6F
100
AcDbZombieObject
 90
      499
 91
      502
 93
      105
310
903313A324000000000000004000
  0
ACAD_PROXY_OBJECT
  5
72
102
{ACAD_REACTORS
330
6F
102
}
330
6F
100
AcDbZombieObject
 90
      499
 91
      502
 93
      105
310
903313A344000000000000104000
  0
ACAD_PROXY_OBJECT
  5
73
102
{ACAD_REACTORS
330
6F
102
}
330
6F
100
AcDbZombieObject
 90
      499
 91
      502
 93
      105
310
903313A354000000000000144000
  0
ACAD_PROXY_OBJECT
  5
74
102
{ACAD_REACTORS
330
6F
102
}
330
6F
100
AcDbZombieObject
 90
      499
 91
      502
 93
      105
310
903313A384000000000000204000
  0
ACAD_PROXY_OBJECT
  5
75
102
{ACAD_REACTORS
330
6F
102
}
330
6F
100
AcDbZombieObject
 90
      499
 91
      502
 93
      113
310
904313A31304000000000000244000
  0
ACAD_PROXY_OBJECT
  5
76
102
{ACAD_REACTORS
330
6F
102
}
330
6F
100
AcDbZombieObject
 90
      499
 91
      502
 93
      113
310
904313A31364000000000000304000
  0
ACAD_PROXY_OBJECT
  5
77
102
{ACAD_REACTORS
330
6F
102
}
330
6F
100
AcDbZombieObject
 90
      499
 91
      502
 93
      113
310
904313A32304000000000000344000
  0
ACAD_PROXY_OBJECT
  5
78
102
{ACAD_REACTORS
330
6F
102
}
330
6F
100
AcDbZombieObject
 90
      499
 91
      502
 93
      113
310
904313A333040000000000003E4000
  0
ACAD_PROXY_OBJECT
  5
79
102
{ACAD_REACTORS
330
6F
102
}
330
6F
100
AcDbZombieObject
 90
      499
 91
      502
 93
      113
310
904313A34304000000000000444000
  0
ACAD_PROXY_OBJECT
  5
7A
102
{ACAD_REACTORS
330
6F
102
}
330
6F
100
AcDbZombieObject
 90
      499
 91
      502
 93
      113
310
904313A35304000000000000494000
  0
ACAD_PROXY_OBJECT
  5
7B
102
{ACAD_REACTORS
330
6F
102
}
330
6F
100
AcDbZombieObject
 90
      499
 91
      502
 93
      121
310
905313A3130304000000000000594000
  0
ACAD_PROXY_OBJECT
  5
7C
102
{ACAD_REACTORS
330
6F
102
}
330
6F
100
AcDbZombieObject
 90
      499
 91
      502
 93
      105
310
903323A310000000000000010100
  0
ACAD_PROXY_OBJECT
  5
7D
102
{ACAD_REACTORS
330
6F
102
}
330
6F
100
AcDbZombieObject
 90
      499
 91
      502
 93
      105
310
903343A310000000000000410100
  0
ACAD_PROXY_OBJECT
  5
7E
102
{ACAD_REACTORS
330
6F
102
}
330
6F
100
AcDbZombieObject
 90
      499
 91
      502
 93
      105
310
903383A310000000000000810100
  0
ACAD_PROXY_OBJECT
  5
7F
102
{ACAD_REACTORS
330
6F
102
}
330
6F
100
AcDbZombieObject
 90
      499
 91
      502
 93
      113
310
90431303A310000000000000910100
  0
ACAD_PROXY_OBJECT
  5
80
102
{ACAD_REACTORS
330
6F
102
}
330
6F
100
AcDbZombieObject
 90
      499
 91
      502
 93
      121
310
9053130303A310000000000001650100
  0
ACAD_PROXY_OBJECT
  5
81
102
{ACAD_REACTORS
330
6F
102
}
330
6F
100
AcDbZombieObject
 90
      499
 91
      502
 93
      257
310
90E312F31323822203D2031272D3022000000000000200FC000000000000284000
  0
ACAD_PROXY_OBJECT
  5
82
102
{ACAD_REACTORS
330
6F
102
}
330
6F
100
AcDbZombieObject
 90
      499
 91
      502
 93
      249
310
90D312F363422203D2031272D3022000000000000240FC000000000000284000
  0
ACAD_PROXY_OBJECT
  5
83
102
{ACAD_REACTORS
330
6F
102
}
330
6F
100
AcDbZombieObject
 90
      499
 91
      502
 93
      249
310
90D312F333222203D2031272D3022000000000000280FC000000000000284000
  0
ACAD_PROXY_OBJECT
  5
84
102
{ACAD_REACTORS
330
6F
102
}
330
6F
100
AcDbZombieObject
 90
      499
 91
      502
 93
      249
310
90D312F313622203D2031272D30220000000000002C0FC000000000000284000
  0
ACAD_PROXY_OBJECT
  5
85
102
{ACAD_REACTORS
330
6F
102
}
330
6F
100
AcDbZombieObject
 90
      499
 91
      502
 93
      249
310
90D332F333222203D2031272D30220000000000002E0FC000000000000284000
  0
ACAD_PROXY_OBJECT
  5
86
102
{ACAD_REACTORS
330
6F
102
}
330
6F
100
AcDbZombieObject
 90
      499
 91
      502
 93
      241
310
90C312F3822203D2031272D3022000000000000300FC000000000000284000
  0
ACAD_PROXY_OBJECT
  5
87
102
{ACAD_REACTORS
330
6F
102
}
330
6F
100
AcDbZombieObject
 90
      499
 91
      502
 93
      249
310
90D332F313622203D2031272D3022000000000000320FC000000000000284000
  0
ACAD_PROXY_OBJECT
  5
88
102
{ACAD_REACTORS
330
6F
102
}
330
6F
100
AcDbZombieObject
 90
      499
 91
      502
 93
      241
310
90C312F3422203D2031272D3022000000000000340FC000000000000284000
  0
ACAD_PROXY_OBJECT
  5
89
102
{ACAD_REACTORS
330
6F
102
}
330
6F
100
AcDbZombieObject
 90
      499
 91
      502
 93
      241
310
90C332F3822203D2031272D3022000000000000360FC000000000000284000
  0
ACAD_PROXY_OBJECT
  5
8A
102
{ACAD_REACTORS
330
6F
102
}
330
6F
100
AcDbZombieObject
 90
      499
 91
      502
 93
      241
310
90C312F3222203D2031272D3022000000000000380FC000000000000284000
  0
ACAD_PROXY_OBJECT
  5
8B
102
{ACAD_REACTORS
330
6F
102
}
330
6F
100
AcDbZombieObject
 90
      499
 91
      502
 93
      241
310
90C332F3422203D2031272D30220000000000003A0FC000000000000284000
  0
ACAD_PROXY_OBJECT
  5
8C
102
{ACAD_REACTORS
330
6F
102
}
330
6F
100
AcDbZombieObject
 90
      499
 91
      502
 93
      161
310
90A3122203D2031272D30224000000000000284000
  0
ACAD_PROXY_OBJECT
  5
8D
102
{ACAD_REACTORS
330
6F
102
}
330
6F
100
AcDbZombieObject
 90
      499
 91
      502
 93
      257
310
90E312D312F3222203D2031272D30220000000000003E0FC000000000000284000
  0
ACAD_PROXY_OBJECT
  5
8E
102
{ACAD_REACTORS
330
6F
102
}
330
6F
100
AcDbZombieObject
 90
      499
 91
      502
 93
      225
310
90A3322203D2031272D302200000000000002100000000000000284000
  0
ACAD_PROXY_OBJECT
  5
8F
102
{ACAD_REACTORS
330
6F
102
}
330
6F
100
AcDbZombieObject
 90
      499
 91
      502
 93
      225
310
90A3622203D2031272D302200000000000006100000000000000284000
  0
ACAD_PROXY_OBJECT
  5
90
102
{ACAD_REACTORS
330
6F
102
}
330
6F
100
AcDbZombieObject
 90
      499
 91
      502
 93
      249
310
90D31272D3022203D2031272D30220000000000000A100000000000000284000
  0
ACAD_PROXY_OBJECT
  5
2F
102
{ACAD_REACTORS
330
2A
102
}
330
2A
100
AcDbZombieObject
 90
      499
 91
      501
 93
      436
310
42CC9915DA5C99599C985B595049028333333333333E3BF0000000000000FB0107901411070040501600405405064090741402480A0340
1001
ACAD
1000
AcDbSavedByObjectVersion
1070
     0
  0
ACAD_PROXY_OBJECT
  5
31
102
{ACAD_REACTORS
330
2A
102
}
330
2A
100
AcDbZombieObject
 90
      499
 91
      501
 93
      500
310
424CD108121A5919195B90640502408333333333333E3BF0000000000000FB01079024090700405020000000000001110200405405064090740C02480A0340
1001
ACAD
1000
AcDbSavedByObjectVersion
1070
     0
  0
ACAD_PROXY_OBJECT
  5
30
102
{ACAD_REACTORS
330
2A
102
}
330
2A
100
AcDbZombieObject
 90
      499
 91
      501
 93
      436
310
42CCD915DA5C99599C985B595059028333333333333E3BF0000000000000FB0107901411070040501600405405064090741402480A0340
1001
ACAD
1000
AcDbSavedByObjectVersion
1070
     0
  0
ACAD_PROXY_OBJECT
  5
32
102
{ACAD_REACTORS
330
2A
102
}
330
2A
100
AcDbZombieObject
 90
      499
 91
      501
 93
      388
310
4150985CDA58D07406404333333333333E3BF0000000000000FB0107A41107004050150841D405064090741402480A0350
1001
ACAD
1000
AcDbSavedByObjectVersion
1070
     0
  0
ACAD_PROXY_OBJECT
  5
36
102
{ACAD_REACTORS
330
2A
102
}
330
2A
100
AcDbZombieObject
 90
      499
 91
      501
 93
      428
310
42109C9A59DA1D195B90C409028333333333333E3BF0000000000000FB010790141107004050150841D405064090741402480A029950
1001
ACAD
1000
AcDbSavedByObjectVersion
1070
     0
  0
ACAD_PROXY_OBJECT
  5
3A
102
{ACAD_REACTORS
330
2A
102
}
330
2A
100
AcDbZombieObject
 90
      499
 91
      501
 93
      452
310
42D0DBDB1BDC90DA185B99D95104090240C333333333333E3BF0000000000000FB0108901411070040501508421405064090741402480A0350
1001
ACAD
1000
AcDbSavedByObjectVersion
1070
     0
  0
ACAD_PROXY_OBJECT
  5
34
102
{ACAD_REACTORS
330
2A
102
}
330
2A
100
AcDbZombieObject
 90
      499
 91
      501
 93
      500
310
4290DBDB98D95C1D1D585B10940D028333333333333E3BF0000000000000FB0107902409070040501000000000000111010841D405064090740C02480A0340
1001
ACAD
1000
AcDbSavedByObjectVersion
1070
     0
  0
ACAD_PROXY_OBJECT
  5
35
102
{ACAD_REACTORS
330
2A
102
}
330
2A
100
AcDbZombieObject
 90
      499
 91
      501
 93
      412
310
40D11A5B50B409028333333333333E3BF0000000000000FB010790141107004050150841D405064090741402480A02677FFFFFD0
1001
ACAD
1000
AcDbSavedByObjectVersion
1070
     0
  0
ACAD_PROXY_OBJECT
  5
39
102
{ACAD_REACTORS
330
2A
102
}
330
2A
100
AcDbZombieObject
 90
      499
 91
      501
 93
      444
310
42D19858D95C185D1D195C9B90F409028333333333333E3BF0000000000000FB010790141107004050150841D405064090741402480A0350
1001
ACAD
1000
AcDbSavedByObjectVersion
1070
     0
  0
ACAD_PROXY_OBJECT
  5
2B
102
{ACAD_REACTORS
330
2A
102
}
330
2A
100
AcDbZombieObject
 90
      499
 91
      501
 93
      388
310
41119B185D240901404333333333333E3BF0000000000000F9010740A41107004050150841D405064090741402480A1B50
1001
ACAD
1000
AcDbSavedByObjectVersion
1070
     0
  0
ACAD_PROXY_OBJECT
  5
2C
102
{ACAD_REACTORS
330
2A
102
}
330
2A
100
AcDbZombieObject
 90
      499
 91
      501
 93
      476
310
43519B185D15DA5D1A115919D95CD0140901404333333333333E3BF0000000000000F9010740901411070040501600405405064090741402480A1B50
1001
ACAD
1000
AcDbSavedByObjectVersion
1070
     0
  0
ACAD_PROXY_OBJECT
  5
2D
102
{ACAD_REACTORS
330
2A
102
}
330
2A
100
AcDbZombieObject
 90
      499
 91
      501
 93
      412
310
41D1DBDD5C985D5910240902404333333333333E3BF0000000000000F9010740A411070040501641D405064090741402480A1B50
1001
ACAD
1000
AcDbSavedByObjectVersion
1070
     0
  0
ACAD_PROXY_OBJECT
  5
2E
102
{ACAD_REACTORS
330
2A
102
}
330
2A
100
AcDbZombieObject
 90
      499
 91
      501
 93
      500
310
4411DBDD5C985D5915DA5D1A115919D95CD0340902404333333333333E3BF0000000000000F9010740901411070040501600405405064090741402480A1B50
1001
ACAD
1000
AcDbSavedByObjectVersion
1070
     0
  0
ACAD_PROXY_OBJECT
  5
38
102
{ACAD_REACTORS
330
2A
102
}
330
2A
100
AcDbZombieObject
 90
      499
 91
      501
 93
      444
310
42D31A5B995C185D1D195C9B90E409028333333333333E3BF0000000000000FB010790141107004050750841D405064090741402483A0350
1001
ACAD
1000
AcDbSavedByObjectVersion
1070
     0
  0
ACAD_PROXY_OBJECT
  5
33
102
{ACAD_REACTORS
330
2A
102
}
330
2A
100
AcDbZombieObject
 90
      499
 91
      501
 93
      420
310
425499585B1A5CDD1A58D08409028333333333333E3BF0000000000000FB01079019070040501508421405064090741402480A1B40
1001
ACAD
1000
AcDbSavedByObjectVersion
1070
     0
  0
ACAD_PROXY_OBJECT
  5
37
102
{ACAD_REACTORS
330
2A
102
}
330
2A
100
AcDbZombieObject
 90
      499
 91
      501
 93
      412
310
41D51A1A58DAD95B90D409028333333333333E3BF0000000000000FB010790141107004050150C41D405064090741402480A0350
1001
ACAD
1000
AcDbSavedByObjectVersion
1070
     0
  0
DICTIONARYVAR
  5
203
102
{ACAD_REACTORS
330
200
102
}
330
200
100
DictionaryVariables
280
     0
  1
1:1
  0
DICTIONARYVAR
  5
204
102
{ACAD_REACTORS
330
200
102
}
330
200
100
DictionaryVariables
280
     0
  1
2
  0
DICTIONARYVAR
  5
205
102
{ACAD_REACTORS
330
200
102
}
330
200
100
DictionaryVariables
280
     0
  1
1
  0
ENDSEC
  0
EOF
