  0
SECTION
  2
HEADER
  9
$ACADVER
  1
AC1012
  9
$DWGCODEPAGE
  3
ansi_1252
  9
$INSBASE
 10
0.0
 20
0.0
 30
0.0
  9
$EXTMIN
 10
0.0
 20
0.0
 30
0.0
  9
$EXTMAX
 10
11.0
 20
8.5
 30
0.0
  9
$LIMMIN
 10
0.0
 20
0.0
  9
$LIMMAX
 10
11.0
 20
8.5
  9
$ORTHOMODE
 70
     0
  9
$REGENMODE
 70
     1
  9
$FILLMODE
 70
     1
  9
$QTEXTMODE
 70
     0
  9
$MIRRTEXT
 70
     1
  9
$DRAGMODE
 70
     2
  9
$LTSCALE
 40
1.0
  9
$OSMODE
 70
    37
  9
$ATTMODE
 70
     1
  9
$TEXTSIZE
 40
0.125
  9
$TRACEWID
 40
0.05
  9
$TEXTSTYLE
  7
STANDARD
  9
$CLAYER
  8
0
  9
$CELTYPE
  6
BYLAYER
  9
$CECOLOR
 62
   256
  9
$CELTSCALE
 40
1.0
  9
$DELOBJ
 70
     1
  9
$DISPSILH
 70
     0
  9
$DIMSCALE
 40
1.0
  9
$DIMASZ
 40
0.13
  9
$DIMEXO
 40
0.05
  9
$DIMDLI
 40
0.38
  9
$DIMRND
 40
0.0
  9
$DIMDLE
 40
0.0
  9
$DIMEXE
 40
0.125
  9
$DIMTP
 40
0.0
  9
$DIMTM
 40
0.0
  9
$DIMTXT
 40
0.125
  9
$DIMCEN
 40
0.09
  9
$DIMTSZ
 40
0.0
  9
$DIMTOL
 70
     0
  9
$DIMLIM
 70
     0
  9
$DIMTIH
 70
     1
  9
$DIMTOH
 70
     1
  9
$DIMSE1
 70
     0
  9
$DIMSE2
 70
     0
  9
$DIMTAD
 70
     0
  9
$DIMZIN
 70
     0
  9
$DIMBLK
  1

  9
$DIMASO
 70
     1
  9
$DIMSHO
 70
     1
  9
$DIMPOST
  1

  9
$DIMAPOST
  1

  9
$DIMALT
 70
     0
  9
$DIMALTD
 70
     2
  9
$DIMALTF
 40
25.4
  9
$DIMLFAC
 40
1.0
  9
$DIMTOFL
 70
     0
  9
$DIMTVP
 40
0.0
  9
$DIMTIX
 70
     0
  9
$DIMSOXD
 70
     0
  9
$DIMSAH
 70
     0
  9
$DIMBLK1
  1

  9
$DIMBLK2
  1

  9
$DIMSTYLE
  2
STANDARD
  9
$DIMCLRD
 70
     0
  9
$DIMCLRE
 70
     0
  9
$DIMCLRT
 70
     0
  9
$DIMTFAC
 40
1.0
  9
$DIMGAP
 40
0.06
  9
$DIMJUST
 70
     0
  9
$DIMSD1
 70
     0
  9
$DIMSD2
 70
     0
  9
$DIMTOLJ
 70
     1
  9
$DIMTZIN
 70
     0
  9
$DIMALTZ
 70
     0
  9
$DIMALTTZ
 70
     0
  9
$DIMFIT
 70
     3
  9
$DIMUPT
 70
     0
  9
$DIMUNIT
 70
     2
  9
$DIMDEC
 70
     3
  9
$DIMTDEC
 70
     3
  9
$DIMALTU
 70
     2
  9
$DIMALTTD
 70
     2
  9
$DIMTXSTY
  7
STANDARD
  9
$DIMAUNIT
 70
     0
  9
$LUNITS
 70
     2
  9
$LUPREC
 70
     2
  9
$SKETCHINC
 40
0.1
  9
$FILLETRAD
 40
0.5
  9
$AUNITS
 70
     0
  9
$AUPREC
 70
     2
  9
$MENU
  1
.
  9
$ELEVATION
 40
0.0
  9
$PELEVATION
 40
0.0
  9
$THICKNESS
 40
0.0
  9
$LIMCHECK
 70
     0
  9
$CHAMFERA
 40
0.5
  9
$CHAMFERB
 40
0.5
  9
$CHAMFERC
 40
1.0
  9
$CHAMFERD
 40
0.0
  9
$SKPOLY
 70
     0
  9
$TDCREATE
 40
2455784.013632303
  9
$TDUPDATE
 40
2455784.013632315
  9
$TDINDWG
 40
0.0000000116
  9
$TDUSRTIMER
 40
0.0000000116
  9
$USRTIMER
 70
     1
  9
$ANGBASE
 50
0.0
  9
$ANGDIR
 70
     0
  9
$PDMODE
 70
     0
  9
$PDSIZE
 40
-1.0
  9
$PLINEWID
 40
0.0
  9
$COORDS
 70
     1
  9
$SPLFRAME
 70
     0
  9
$SPLINETYPE
 70
     6
  9
$SPLINESEGS
 70
     8
  9
$ATTDIA
 70
     0
  9
$ATTREQ
 70
     1
  9
$HANDLING
 70
     1
  9
$HANDSEED
  5
47C
  9
$SURFTAB1
 70
     6
  9
$SURFTAB2
 70
     6
  9
$SURFTYPE
 70
     6
  9
$SURFU
 70
     6
  9
$SURFV
 70
     6
  9
$UCSNAME
  2

  9
$UCSORG
 10
0.0
 20
0.0
 30
0.0
  9
$UCSXDIR
 10
1.0
 20
0.0
 30
0.0
  9
$UCSYDIR
 10
0.0
 20
1.0
 30
0.0
  9
$PUCSNAME
  2

  9
$PUCSORG
 10
0.0
 20
0.0
 30
0.0
  9
$PUCSXDIR
 10
1.0
 20
0.0
 30
0.0
  9
$PUCSYDIR
 10
0.0
 20
1.0
 30
0.0
  9
$USERI1
 70
     0
  9
$USERI2
 70
     0
  9
$USERI3
 70
     0
  9
$USERI4
 70
     0
  9
$USERI5
 70
     0
  9
$USERR1
 40
0.0
  9
$USERR2
 40
0.0
  9
$USERR3
 40
0.0
  9
$USERR4
 40
0.0
  9
$USERR5
 40
0.0
  9
$WORLDVIEW
 70
     1
  9
$SHADEDGE
 70
     3
  9
$SHADEDIF
 70
    70
  9
$TILEMODE
 70
     1
  9
$MAXACTVP
 70
    64
  9
$PINSBASE
 10
0.0
 20
0.0
 30
0.0
  9
$PLIMCHECK
 70
     0
  9
$PEXTMIN
 10
1.0000000000E+20
 20
1.0000000000E+20
 30
1.0000000000E+20
  9
$PEXTMAX
 10
-1.0000000000E+20
 20
-1.0000000000E+20
 30
-1.0000000000E+20
  9
$PLIMMIN
 10
0.0
 20
0.0
  9
$PLIMMAX
 10
12.0
 20
9.0
  9
$UNITMODE
 70
     0
  9
$VISRETAIN
 70
     1
  9
$PLINEGEN
 70
     0
  9
$PSLTSCALE
 70
     1
  9
$TREEDEPTH
 70
  3020
  9
$PICKSTYLE
 70
     1
  9
$CMLSTYLE
  2
STANDARD
  9
$CMLJUST
 70
     0
  9
$CMLSCALE
 40
1.0
  9
$SAVEIMAGES
 70
     1
  0
ENDSEC
  0
SECTION
  2
CLASSES
  0
CLASS
  1
ACDBDICTIONARYWDFLT
  2
AcDbDictionaryWithDefault
  3
ObjectDBX Classes
 90
    32768
280
     0
281
     0
  0
CLASS
  1
VISUALSTYLE
  2
AcDbVisualStyle
  3
ObjectDBX Classes
 90
     4095
280
     0
281
     0
  0
CLASS
  1
SCALE
  2
AcDbScale
  3
ObjectDBX Classes
 90
     1153
280
     0
281
     0
  0
CLASS
  1
DICTIONARYVAR
  2
AcDbDictionaryVar
  3
ObjectDBX Classes
 90
        0
280
     0
281
     0
  0
CLASS
  1
XRECORD
  2
AcDbXrecord
  3
AutoCAD 2000
 90
    32768
280
     0
281
     0
  0
CLASS
  1
LWPOLYLINE
  2
AcDbPolyline
  3
AutoCAD 2000
 90
    32768
280
     0
281
     1
  0
CLASS
  1
HATCH
  2
AcDbHatch
  3
AutoCAD 2000
 90
    32768
280
     0
281
     1
  0
CLASS
  1
ACDBPLACEHOLDER
  2
AcDbPlaceHolder
  3
ObjectDBX Classes
 90
        0
280
     0
281
     0
  0
CLASS
  1
LAYOUT
  2
AcDbLayout
  3
ObjectDBX Classes
 90
        0
280
     0
281
     0
  0
ENDSEC
  0
SECTION
  2
TABLES
  0
TABLE
  2
VPORT
  5
8
330
0
100
AcDbSymbolTable
 70
     1
  0
VPORT
  5
29
330
8
100
AcDbSymbolTableRecord
100
AcDbViewportTableRecord
  2
*ACTIVE
 70
     0
 10
0.0
 20
0.0
 11
1.0
 21
1.0
 12
5.5
 22
4.25
 13
0.0
 23
0.0
 14
0.5
 24
0.5
 15
0.5
 25
0.5
 16
0.0
 26
0.0
 36
1.0
 17
0.0
 27
0.0
 37
0.0
 40
8.5
 41
1.2941176471
 42
50.0
 43
0.0
 44
0.0
 50
0.0
 51
0.0
 71
     0
 72
  2000
 73
     1
 74
     3
 75
     0
 76
     0
 77
     0
 78
     0
  0
ENDTAB
  0
TABLE
  2
LTYPE
  5
5
330
0
100
AcDbSymbolTable
 70
     6
  0
LTYPE
  5
14
330
5
100
AcDbSymbolTableRecord
100
AcDbLinetypeTableRecord
  2
BYBLOCK
 70
     0
  3

 72
    65
 73
     0
 40
0.0
  0
LTYPE
  5
15
330
5
100
AcDbSymbolTableRecord
100
AcDbLinetypeTableRecord
  2
BYLAYER
 70
     0
  3

 72
    65
 73
     0
 40
0.0
  0
LTYPE
  5
16
330
5
100
AcDbSymbolTableRecord
100
AcDbLinetypeTableRecord
  2
CONTINUOUS
 70
     0
  3
Solid line
 72
    65
 73
     0
 40
0.0
  0
LTYPE
  5
3B
330
5
100
AcDbSymbolTableRecord
100
AcDbLinetypeTableRecord
  2
HIDDEN
 70
     0
  3
Hidden __ __ __ __ __ __ __ __ __ __ __ __ __ __
 72
    65
 73
     2
 40
0.075
 49
0.05
 74
     0
 49
-0.025
 74
     0
  0
LTYPE
  5
3C
330
5
100
AcDbSymbolTableRecord
100
AcDbLinetypeTableRecord
  2
PHANTOM
 70
     0
  3
Phantom ______  __  __  ______  __  __  ______
 72
    65
 73
     6
 40
0.5
 49
0.25
 74
     0
 49
-0.05
 74
     0
 49
0.05
 74
     0
 49
-0.05
 74
     0
 49
0.05
 74
     0
 49
-0.05
 74
     0
  0
LTYPE
  5
3D
330
5
100
AcDbSymbolTableRecord
100
AcDbLinetypeTableRecord
  2
CENTER
 70
     0
  3
Center ____ _ ____ _ ____ _ ____ _ ____ _ ____
 72
    65
 73
     4
 40
0.4
 49
0.25
 74
     0
 49
-0.05
 74
     0
 49
0.05
 74
     0
 49
-0.05
 74
     0
  0
LTYPE
  5
3E
330
5
100
AcDbSymbolTableRecord
100
AcDbLinetypeTableRecord
  2
CENTERX2
 70
     0
  3
Center (2x) ________  __  ________  __  _____
 72
    65
 73
     4
 40
0.8
 49
0.5
 74
     0
 49
-0.1
 74
     0
 49
0.1
 74
     0
 49
-0.1
 74
     0
  0
LTYPE
  5
3F
330
5
100
AcDbSymbolTableRecord
100
AcDbLinetypeTableRecord
  2
DOT2
 70
     0
  3
Dot (.5x) ........................................
 72
    65
 73
     2
 40
0.025
 49
0.0
 74
     0
 49
-0.025
 74
     0
  0
ENDTAB
  0
TABLE
  2
LAYER
  5
2
330
0
100
AcDbSymbolTable
 70
     2
  0
LAYER
  5
10
330
2
100
AcDbSymbolTableRecord
100
AcDbLayerTableRecord
  2
0
 70
     0
 62
     7
  6
CONTINUOUS
  0
LAYER
  5
40
330
2
100
AcDbSymbolTableRecord
100
AcDbLayerTableRecord
  2
FORMAT
 70
     0
 62
     7
  6
CONTINUOUS
  0
ENDTAB
  0
TABLE
  2
STYLE
  5
3
330
0
100
AcDbSymbolTable
 70
     4
  0
STYLE
  5
11
330
3
100
AcDbSymbolTableRecord
100
AcDbTextStyleTableRecord
  2
STANDARD
 70
     0
 40
0.0
 41
1.0
 50
0.0
 71
     0
 42
0.2
  3
txt
  4

  0
STYLE
  5
6E
330
3
100
AcDbSymbolTableRecord
100
AcDbTextStyleTableRecord
  2
SLDTEXTSTYLE0
 70
     0
 40
0.0
 41
0.75
 50
0.0
 71
     0
 42
0.2
  3
TXT
  4

  0
STYLE
  5
93
330
3
100
AcDbSymbolTableRecord
100
AcDbTextStyleTableRecord
  2
SLDTEXTSTYLE1
 70
     0
 40
0.0
 41
0.6875
 50
0.0
 71
     0
 42
0.2
  3
TXT
  4

  0
STYLE
  5
99
330
3
100
AcDbSymbolTableRecord
100
AcDbTextStyleTableRecord
  2
SLDTEXTSTYLE2
 70
     0
 40
0.0
 41
0.6944444444
 50
0.0
 71
     0
 42
0.2
  3
TXT
  4

  0
ENDTAB
  0
TABLE
  2
VIEW
  5
6
330
0
100
AcDbSymbolTable
 70
     0
  0
ENDTAB
  0
TABLE
  2
UCS
  5
7
330
0
100
AcDbSymbolTable
 70
     0
  0
ENDTAB
  0
TABLE
  2
APPID
  5
9
330
0
100
AcDbSymbolTable
 70
     1
  0
APPID
  5
12
330
9
100
AcDbSymbolTableRecord
100
AcDbRegAppTableRecord
  2
ACAD
 70
     0
  0
ENDTAB
  0
TABLE
  2
DIMSTYLE
  5
A
330
0
100
AcDbSymbolTable
 70
     1
  0
DIMSTYLE
105
27
330
A
100
AcDbSymbolTableRecord
100
AcDbDimStyleTableRecord
  2
STANDARD
 70
     0
  3

  4

  5

  6

  7

 40
1.0
 41
0.18
 42
0.0625
 43
0.38
 44
0.18
 45
0.0
 46
0.0
 47
0.0
 48
0.0
140
0.18
141
0.09
142
0.0
143
25.4
144
1.0
145
0.0
146
1.0
147
0.09
 71
     0
 72
     0
 73
     1
 74
     1
 75
     0
 76
     0
 77
     0
 78
     0
170
     0
171
     2
172
     0
173
     0
174
     0
175
     0
176
     0
177
     0
178
     0
270
     2
271
     4
272
     4
273
     2
274
     2
340
11
275
     0
280
     0
281
     0
282
     0
283
     1
284
     0
285
     0
286
     0
287
     3
288
     0
  0
ENDTAB
  0
TABLE
  2
BLOCK_RECORD
  5
1
330
0
100
AcDbSymbolTable
 70
     4
  0
BLOCK_RECORD
  5
1F
330
1
100
AcDbSymbolTableRecord
100
AcDbBlockTableRecord
  2
*MODEL_SPACE
  0
BLOCK_RECORD
  5
1B
330
1
100
AcDbSymbolTableRecord
100
AcDbBlockTableRecord
  2
*PAPER_SPACE
  0
BLOCK_RECORD
  5
A8
330
1
100
AcDbSymbolTableRecord
100
AcDbBlockTableRecord
  2
SW_NOTE_0
  0
BLOCK_RECORD
  5
AE
330
1
100
AcDbSymbolTableRecord
100
AcDbBlockTableRecord
  2
SW_NOTE_1
  0
BLOCK_RECORD
  5
C2
330
1
100
AcDbSymbolTableRecord
100
AcDbBlockTableRecord
  2
SW_NOTE_2
  0
ENDTAB
  0
ENDSEC
  0
SECTION
  2
BLOCKS
  0
BLOCK
  5
20
330
1F
100
AcDbEntity
  8
0
100
AcDbBlockBegin
  2
*MODEL_SPACE
 70
     0
 10
0.0
 20
0.0
 30
0.0
  3
*MODEL_SPACE
  1

  0
ENDBLK
  5
21
330
1F
100
AcDbEntity
  8
0
100
AcDbBlockEnd
  0
BLOCK
  5
1C
330
1B
100
AcDbEntity
 67
     1
  8
0
100
AcDbBlockBegin
  2
*PAPER_SPACE
 70
     0
 10
0.0
 20
0.0
 30
0.0
  3
*PAPER_SPACE
  1

  0
ENDBLK
  5
1D
330
1B
100
AcDbEntity
 67
     1
  8
0
100
AcDbBlockEnd
  0
BLOCK
  5
A9
330
A8
100
AcDbEntity
  8
0
100
AcDbBlockBegin
  2
SW_NOTE_0
 70
     0
 10
0.0
 20
0.0
 30
0.0
  3
SW_NOTE_0
  1

  0
MTEXT
  5
AB
330
A8
100
AcDbEntity
  8
0
  6
CONTINUOUS
 62
     0
100
AcDbMText
 10
0.0
 20
0.0773440644
 30
0.0
 40
0.06
 41
0.0
 71
     1
 72
     1
  1
INTERPRET GEOMETRIC
  7
SLDTEXTSTYLE0
  0
MTEXT
  5
AC
330
A8
100
AcDbEntity
  8
0
  6
CONTINUOUS
 62
     0
100
AcDbMText
 10
0.0
 20
-0.0220260102
 30
0.0
 40
0.06
 41
0.0
 71
     1
 72
     1
  1
TOLERANCING PER:
  7
SLDTEXTSTYLE0
  0
ENDBLK
  5
AA
330
A8
100
AcDbEntity
  8
0
100
AcDbBlockEnd
  0
BLOCK
  5
AF
330
AE
100
AcDbEntity
  8
0
100
AcDbBlockBegin
  2
SW_NOTE_1
 70
     0
 10
0.0
 20
0.0
 30
0.0
  3
SW_NOTE_1
  1

  0
MTEXT
  5
B1
330
AE
100
AcDbEntity
  8
0
  6
CONTINUOUS
 62
     0
100
AcDbMText
 10
0.0
 20
0.0837894031
 30
0.0
 40
0.065
 41
0.0
 71
     1
 72
     1
  1
DIMENSIONS ARE IN INCHES
  7
SLDTEXTSTYLE0
  0
MTEXT
  5
B2
330
AE
100
AcDbEntity
  8
0
  6
CONTINUOUS
 62
     0
100
AcDbMText
 10
0.0
 20
-0.0205806729
 30
0.0
 40
0.065
 41
0.0
 71
     1
 72
     1
  1
TOLERANCES:
  7
SLDTEXTSTYLE0
  0
MTEXT
  5
B3
330
AE
100
AcDbEntity
  8
0
  6
CONTINUOUS
 62
     0
100
AcDbMText
 10
0.0
 20
-0.1249507489
 30
0.0
 40
0.065
 41
0.0
 71
     1
 72
     1
  1
FRACTIONAL
  7
SLDTEXTSTYLE0
  0
MTEXT
  5
B4
330
AE
100
AcDbEntity
  8
0
  6
CONTINUOUS
 62
     0
100
AcDbMText
 10
0.5175850875
 20
-0.1249507489
 30
0.0
 40
0.065
 41
0.0
 71
     1
 72
     1
  1
%%p
  7
SLDTEXTSTYLE0
  0
MTEXT
  5
B5
330
AE
100
AcDbEntity
  8
0
  6
CONTINUOUS
 62
     0
100
AcDbMText
 10
0.0
 20
-0.2293208248
 30
0.0
 40
0.065
 41
0.0
 71
     1
 72
     1
  1
ANGULAR: MACH
  7
SLDTEXTSTYLE0
  0
MTEXT
  5
B6
330
AE
100
AcDbEntity
  8
0
  6
CONTINUOUS
 62
     0
100
AcDbMText
 10
0.7233732769
 20
-0.2293208248
 30
0.0
 40
0.065
 41
0.0
 71
     1
 72
     1
  1
%%p
  7
SLDTEXTSTYLE0
  0
MTEXT
  5
B7
330
AE
100
AcDbEntity
  8
0
  6
CONTINUOUS
 62
     0
100
AcDbMText
 10
0.7852857683
 20
-0.2293208248
 30
0.0
 40
0.065
 41
0.0
 71
     1
 72
     1
  1
     BEND 
  7
SLDTEXTSTYLE0
  0
MTEXT
  5
B8
330
AE
100
AcDbEntity
  8
0
  6
CONTINUOUS
 62
     0
100
AcDbMText
 10
1.14784136
 20
-0.2293208248
 30
0.0
 40
0.065
 41
0.0
 71
     1
 72
     1
  1
%%p
  7
SLDTEXTSTYLE0
  0
MTEXT
  5
B9
330
AE
100
AcDbEntity
  8
0
  6
CONTINUOUS
 62
     0
100
AcDbMText
 10
0.0
 20
-0.3336909008
 30
0.0
 40
0.065
 41
0.0
 71
     1
 72
     1
  1
TWO PLACE DECIMAL    
  7
SLDTEXTSTYLE0
  0
MTEXT
  5
BA
330
AE
100
AcDbEntity
  8
0
  6
CONTINUOUS
 62
     0
100
AcDbMText
 10
0.9794349188
 20
-0.3336909008
 30
0.0
 40
0.065
 41
0.0
 71
     1
 72
     1
  1
%%p
  7
SLDTEXTSTYLE0
  0
MTEXT
  5
BB
330
AE
100
AcDbEntity
  8
0
  6
CONTINUOUS
 62
     0
100
AcDbMText
 10
0.0
 20
-0.4380609768
 30
0.0
 40
0.065
 41
0.0
 71
     1
 72
     1
  1
THREE PLACE DECIMAL  
  7
SLDTEXTSTYLE0
  0
MTEXT
  5
BC
330
AE
100
AcDbEntity
  8
0
  6
CONTINUOUS
 62
     0
100
AcDbMText
 10
0.9738038639
 20
-0.4380609768
 30
0.0
 40
0.065
 41
0.0
 71
     1
 72
     1
  1
%%p
  7
SLDTEXTSTYLE0
  0
ENDBLK
  5
B0
330
AE
100
AcDbEntity
  8
0
100
AcDbBlockEnd
  0
BLOCK
  5
C3
330
C2
100
AcDbEntity
  8
0
100
AcDbBlockBegin
  2
SW_NOTE_2
 70
     0
 10
0.0
 20
0.0
 30
0.0
  3
SW_NOTE_2
  1

  0
MTEXT
  5
C5
330
C2
100
AcDbEntity
  8
0
  6
CONTINUOUS
 62
     0
100
AcDbMText
 10
0.0
 20
0.0773440644
 30
0.0
 40
0.06
 41
0.0
 71
     1
 72
     1
  1
THE INFORMATION CONTAINED IN THIS
  7
SLDTEXTSTYLE0
  0
MTEXT
  5
C6
330
C2
100
AcDbEntity
  8
0
  6
CONTINUOUS
 62
     0
100
AcDbMText
 10
0.0
 20
-0.0220260102
 30
0.0
 40
0.06
 41
0.0
 71
     1
 72
     1
  1
DRAWING IS THE SOLE PROPERTY OF
  7
SLDTEXTSTYLE0
  0
MTEXT
  5
C7
330
C2
100
AcDbEntity
  8
0
  6
CONTINUOUS
 62
     0
100
AcDbMText
 10
0.0
 20
-0.1213960848
 30
0.0
 40
0.06
 41
0.0
 71
     1
 72
     1
  1
Candy Controls.  ANY 
  7
SLDTEXTSTYLE0
  0
MTEXT
  5
C8
330
C2
100
AcDbEntity
  8
0
  6
CONTINUOUS
 62
     0
100
AcDbMText
 10
0.0
 20
-0.2207661593
 30
0.0
 40
0.06
 41
0.0
 71
     1
 72
     1
  1
REPRODUCTION IN PART OR AS A WHOLE
  7
SLDTEXTSTYLE0
  0
MTEXT
  5
C9
330
C2
100
AcDbEntity
  8
0
  6
CONTINUOUS
 62
     0
100
AcDbMText
 10
0.0
 20
-0.3201362339
 30
0.0
 40
0.06
 41
0.0
 71
     1
 72
     1
  1
WITHOUT THE WRITTEN PERMISSION OF
  7
SLDTEXTSTYLE0
  0
MTEXT
  5
CA
330
C2
100
AcDbEntity
  8
0
  6
CONTINUOUS
 62
     0
100
AcDbMText
 10
0.0
 20
-0.4195063085
 30
0.0
 40
0.06
 41
0.0
 71
     1
 72
     1
  1
Candy Controls IS 
  7
SLDTEXTSTYLE0
  0
MTEXT
  5
CB
330
C2
100
AcDbEntity
  8
0
  6
CONTINUOUS
 62
     0
100
AcDbMText
 10
0.0
 20
-0.518876383
 30
0.0
 40
0.06
 41
0.0
 71
     1
 72
     1
  1
PROHIBITED.
  7
SLDTEXTSTYLE0
  0
ENDBLK
  5
C4
330
C2
100
AcDbEntity
  8
0
100
AcDbBlockEnd
  0
ENDSEC
  0
SECTION
  2
ENTITIES
  0
LINE
  5
41
330
1F
100
AcDbEntity
  8
0
  6
CONTINUOUS
 62
     7
100
AcDbLine
 10
0.329927
 20
8.1920731707
 30
0.0
 11
10.629927
 21
8.1920731707
 31
0.0
  0
LINE
  5
42
330
1F
100
AcDbEntity
  8
0
  6
CONTINUOUS
 62
     7
100
AcDbLine
 10
0.329927
 20
8.1920731707
 30
0.0
 11
0.329927
 21
0.3920731707
 31
0.0
  0
LINE
  5
43
330
1F
100
AcDbEntity
  8
0
  6
CONTINUOUS
 62
     7
100
AcDbLine
 10
10.629927
 20
0.3920731707
 30
0.0
 11
0.329927
 21
0.3920731707
 31
0.0
  0
LINE
  5
44
330
1F
100
AcDbEntity
  8
0
  6
CONTINUOUS
 62
     7
100
AcDbLine
 10
10.629927
 20
0.3920731707
 30
0.0
 11
10.629927
 21
8.1920731707
 31
0.0
  0
LINE
  5
45
330
1F
100
AcDbEntity
  8
0
  6
CONTINUOUS
 62
     7
100
AcDbLine
 10
4.7981841288
 20
0.3920731707
 30
0.0
 11
4.7981841288
 21
2.3564211366
 31
0.0
  0
LINE
  5
46
330
1F
100
AcDbEntity
  8
0
  6
CONTINUOUS
 62
     7
100
AcDbLine
 10
2.8210345579
 20
2.3564211366
 30
0.0
 11
10.629927
 21
2.3564211366
 31
0.0
  0
LINE
  5
47
330
1F
100
AcDbEntity
  8
0
  6
CONTINUOUS
 62
     7
100
AcDbLine
 10
6.1796352514
 20
2.3564211366
 30
0.0
 11
6.1796352514
 21
0.3920731707
 31
0.0
  0
LINE
  5
48
330
1F
100
AcDbEntity
  8
0
  6
CONTINUOUS
 62
     7
100
AcDbLine
 10
7.8712070044
 20
2.3564211366
 30
0.0
 11
7.8712070044
 21
0.3920731707
 31
0.0
  0
LINE
  5
49
330
1F
100
AcDbEntity
  8
0
  6
CONTINUOUS
 62
     7
100
AcDbLine
 10
7.8712070044
 20
0.6049590101
 30
0.0
 11
10.629927
 21
0.6049590101
 31
0.0
  0
LINE
  5
4A
330
1F
100
AcDbEntity
  8
0
  6
CONTINUOUS
 62
     7
100
AcDbLine
 10
7.8712070044
 20
1.1119362457
 30
0.0
 11
10.629927
 21
1.1119362457
 31
0.0
  0
LINE
  5
4B
330
1F
100
AcDbEntity
  8
0
  6
CONTINUOUS
 62
     7
100
AcDbLine
 10
7.8712070044
 20
1.9892703708
 30
0.0
 11
10.629927
 21
1.9892703708
 31
0.0
  0
LINE
  5
4C
330
1F
100
AcDbEntity
  8
0
  6
CONTINUOUS
 62
     7
100
AcDbLine
 10
8.266751752
 20
1.1119362457
 30
0.0
 11
8.266751752
 21
0.6049590101
 31
0.0
  0
LINE
  5
4D
330
1F
100
AcDbEntity
  8
0
  6
CONTINUOUS
 62
     7
100
AcDbLine
 10
8.6943435176
 20
0.6049590101
 30
0.0
 11
8.6943435176
 21
0.3920731707
 31
0.0
  0
LINE
  5
4E
330
1F
100
AcDbEntity
  8
0
  6
CONTINUOUS
 62
     7
100
AcDbLine
 10
10.0579917045
 20
1.1119362457
 30
0.0
 11
10.0579917045
 21
0.6049590101
 31
0.0
  0
LINE
  5
4F
330
1F
100
AcDbEntity
  8
0
  6
CONTINUOUS
 62
     7
100
AcDbLine
 10
9.6662556631
 20
0.6049590101
 30
0.0
 11
9.6662556631
 21
0.3920731707
 31
0.0
  0
LINE
  5
50
330
1F
100
AcDbEntity
  8
0
  6
CONTINUOUS
 62
     7
100
AcDbLine
 10
2.8210345579
 20
0.5883479999
 30
0.0
 11
6.1796352514
 21
0.5883479999
 31
0.0
  0
LINE
  5
51
330
1F
100
AcDbEntity
  8
0
  6
CONTINUOUS
 62
     7
100
AcDbLine
 10
6.1796352514
 20
1.7939211366
 30
0.0
 11
7.8712070044
 21
1.7939211366
 31
0.0
  0
LINE
  5
52
330
1F
100
AcDbEntity
  8
0
  6
CONTINUOUS
 62
     7
100
AcDbLine
 10
6.1796352514
 20
1.9814211366
 30
0.0
 11
7.8712070044
 21
1.9814211366
 31
0.0
  0
LINE
  5
53
330
1F
100
AcDbEntity
  8
0
  6
CONTINUOUS
 62
     7
100
AcDbLine
 10
6.1796352514
 20
2.1689211366
 30
0.0
 11
7.8712070044
 21
2.1689211366
 31
0.0
  0
LINE
  5
54
330
1F
100
AcDbEntity
  8
0
  6
CONTINUOUS
 62
     7
100
AcDbLine
 10
7.8712070044
 20
1.2314211366
 30
0.0
 11
6.1796352514
 21
1.2314211366
 31
0.0
  0
LINE
  5
55
330
1F
100
AcDbEntity
  8
0
  6
CONTINUOUS
 62
     7
100
AcDbLine
 10
7.3921580388
 20
2.3564211366
 30
0.0
 11
7.3921580388
 21
1.2314211366
 31
0.0
  0
LINE
  5
56
330
1F
100
AcDbEntity
  8
0
  6
CONTINUOUS
 62
     7
100
AcDbLine
 10
6.9236308342
 20
2.3564211366
 30
0.0
 11
6.9236308342
 21
1.2314211366
 31
0.0
  0
LINE
  5
57
330
1F
100
AcDbEntity
  8
0
  6
CONTINUOUS
 62
     7
100
AcDbLine
 10
4.7981841288
 20
0.8557965305
 30
0.0
 11
6.1796352514
 21
0.8557965305
 31
0.0
  0
LINE
  5
58
330
1F
100
AcDbEntity
  8
0
  6
CONTINUOUS
 62
     7
100
AcDbLine
 10
4.7981841288
 20
1.1257965305
 30
0.0
 11
6.1796352514
 21
1.1257965305
 31
0.0
  0
LINE
  5
59
330
1F
100
AcDbEntity
  8
0
  6
CONTINUOUS
 62
     7
100
AcDbLine
 10
2.8210345579
 20
0.3920731707
 30
0.0
 11
2.8210345579
 21
2.3564211366
 31
0.0
  0
LINE
  5
5A
330
1F
100
AcDbEntity
  8
0
  6
CONTINUOUS
 62
     7
100
AcDbLine
 10
2.8210345579
 20
1.1064211366
 30
0.0
 11
4.7981841288
 21
1.1064211366
 31
0.0
  0
LINE
  5
5B
330
1F
100
AcDbEntity
  8
0
  6
CONTINUOUS
 62
     7
100
AcDbLine
 10
2.8210345579
 20
1.3564211366
 30
0.0
 11
4.7981841288
 21
1.3564211366
 31
0.0
  0
LINE
  5
5C
330
1F
100
AcDbEntity
  8
0
  6
CONTINUOUS
 62
     7
100
AcDbLine
 10
2.8210345579
 20
1.6064211366
 30
0.0
 11
4.7981841288
 21
1.6064211366
 31
0.0
  0
LINE
  5
5D
330
1F
100
AcDbEntity
  8
0
  6
CONTINUOUS
 62
     7
100
AcDbLine
 10
2.8210345579
 20
1.8564211366
 30
0.0
 11
4.7981841288
 21
1.8564211366
 31
0.0
  0
LINE
  5
5E
330
1F
100
AcDbEntity
  8
0
  6
CONTINUOUS
 62
     7
100
AcDbLine
 10
3.8190146875
 20
2.3564211366
 30
0.0
 11
3.8190146875
 21
0.5883479999
 31
0.0
  0
LINE
  5
5F
330
1F
100
AcDbEntity
  8
0
  6
CONTINUOUS
 62
     7
100
AcDbLine
 10
6.1796352514
 20
2.2020813496
 30
0.0
 11
4.7981841288
 21
2.2020813496
 31
0.0
  0
LINE
  5
60
330
1F
100
AcDbEntity
  8
0
  6
CONTINUOUS
 62
     7
100
AcDbLine
 10
7.8712070044
 20
1.6064211366
 30
0.0
 11
6.1796352514
 21
1.6064211366
 31
0.0
  0
LINE
  5
61
330
1F
100
AcDbEntity
  8
0
  6
CONTINUOUS
 62
     7
100
AcDbLine
 10
7.8712070044
 20
1.4189211366
 30
0.0
 11
6.1796352514
 21
1.4189211366
 31
0.0
  0
LINE
  5
62
330
1F
100
AcDbEntity
  8
0
  6
CONTINUOUS
 62
     7
100
AcDbLine
 10
2.8210345579
 20
2.1064211366
 30
0.0
 11
4.7981841288
 21
2.1064211366
 31
0.0
  0
LINE
  5
63
330
1F
100
AcDbEntity
  8
0
  6
CONTINUOUS
 62
     7
100
AcDbLine
 10
4.7981841288
 20
1.3957965305
 30
0.0
 11
6.1796352514
 21
1.3957965305
 31
0.0
  0
LINE
  5
64
330
1F
100
AcDbEntity
  8
0
  6
CONTINUOUS
 62
     7
100
AcDbLine
 10
2.8210345579
 20
0.8564211366
 30
0.0
 11
4.7981841288
 21
0.8564211366
 31
0.0
  0
LINE
  5
65
330
1F
100
AcDbEntity
  8
0
  6
CONTINUOUS
 62
     7
100
AcDbLine
 10
1.1838252943
 20
0.3920731707
 30
0.0
 11
1.1838252943
 21
1.3064211366
 31
0.0
  0
LINE
  5
66
330
1F
100
AcDbEntity
  8
0
  6
CONTINUOUS
 62
     7
100
AcDbLine
 10
2.8210345579
 20
1.3064211366
 30
0.0
 11
1.1838252943
 21
1.3064211366
 31
0.0
  0
LINE
  5
67
330
1F
100
AcDbEntity
  8
0
  6
CONTINUOUS
 62
     7
100
AcDbLine
 10
8.660927
 20
0.3920731707
 30
0.0
 11
8.660927
 21
0.3072739649
 31
0.0
  0
LINE
  5
68
330
1F
100
AcDbEntity
  8
0
  6
CONTINUOUS
 62
     7
100
AcDbLine
 10
6.692177
 20
0.3920731707
 30
0.0
 11
6.692177
 21
0.3072739649
 31
0.0
  0
LINE
  5
69
330
1F
100
AcDbEntity
  8
0
  6
CONTINUOUS
 62
     7
100
AcDbLine
 10
4.723427
 20
0.3920731707
 30
0.0
 11
4.723427
 21
0.3072739649
 31
0.0
  0
LINE
  5
6A
330
1F
100
AcDbEntity
  8
0
  6
CONTINUOUS
 62
     7
100
AcDbLine
 10
2.754677
 20
0.3920731707
 30
0.0
 11
2.754677
 21
0.3072739649
 31
0.0
  0
LINE
  5
6B
330
1F
100
AcDbEntity
  8
0
  6
CONTINUOUS
 62
     7
100
AcDbLine
 10
2.754677
 20
0.3920731707
 30
0.0
 11
2.7672319738
 21
0.3575
 31
0.0
  0
LINE
  5
6C
330
1F
100
AcDbEntity
  8
0
  6
CONTINUOUS
 62
     7
100
AcDbLine
 10
2.7672319738
 20
0.3575
 30
0.0
 11
2.7414258825
 21
0.3575
 31
0.0
  0
LINE
  5
6D
330
1F
100
AcDbEntity
  8
0
  6
CONTINUOUS
 62
     7
100
AcDbLine
 10
2.7414258825
 20
0.3575
 30
0.0
 11
2.754677
 21
0.3920731707
 31
0.0
  0
MTEXT
  5
91
330
1F
100
AcDbEntity
  8
0
  6
CONTINUOUS
 62
     7
100
AcDbMText
 10
4.9775846961
 20
0.5178452352
 30
0.0
 40
0.0625
 41
0.0
 71
     1
 72
     1
  1
DO NOT SCALE DRAWING
  7
SLDTEXTSTYLE0
  0
MTEXT
  5
92
330
1F
100
AcDbEntity
  8
0
  6
CONTINUOUS
 62
     7
100
AcDbMText
 10
8.5300459727
 20
0.9417064595
 30
0.0
 40
0.125
 41
0.0
 71
     1
 72
     1
  1
CL2-150_CLAMP
  7
SLDTEXTSTYLE0
  0
MTEXT
  5
94
330
1F
100
AcDbEntity
  8
0
  6
CONTINUOUS
 62
     7
100
AcDbMText
 10
9.7571278483
 20
0.5524239532
 30
0.0
 40
0.1
 41
0.0
 71
     1
 72
     1
  1
SHEET 1 OF 1
  7
SLDTEXTSTYLE1
  0
MTEXT
  5
95
330
1F
100
AcDbEntity
  8
0
  6
CONTINUOUS
 62
     7
100
AcDbMText
 10
4.8448077858
 20
2.3132954224
 30
0.0
 40
0.07
 41
0.0
 71
     1
 72
     1
  1
UNLESS OTHERWISE SPECIFIED:
  7
SLDTEXTSTYLE0
  0
MTEXT
  5
96
330
1F
100
AcDbEntity
  8
0
  6
CONTINUOUS
 62
     7
100
AcDbMText
 10
7.9586139647
 20
0.5520987879
 30
0.0
 40
0.1
 41
0.0
 71
     1
 72
     1
  1
SCALE: 1:1
  7
SLDTEXTSTYLE0
  0
MTEXT
  5
97
330
1F
100
AcDbEntity
  8
0
  6
CONTINUOUS
 62
     7
100
AcDbMText
 10
8.7023691647
 20
0.5486763345
 30
0.0
 40
0.1
 41
0.0
 71
     1
 72
     1
  1
WEIGHT: 
  7
SLDTEXTSTYLE0
  0
MTEXT
  5
98
330
1F
100
AcDbEntity
  8
0
  6
CONTINUOUS
 62
     7
100
AcDbMText
 10
10.2277580983
 20
1.081966299
 30
0.0
 40
0.1
 41
0.0
 71
     1
 72
     1
  1
REV
  7
SLDTEXTSTYLE0
  0
MTEXT
  5
9A
330
1F
100
AcDbEntity
  8
0
  6
CONTINUOUS
 62
     7
100
AcDbMText
 10
8.2984570898
 20
1.0858725293
 30
0.0
 40
0.1
 41
0.0
 71
     1
 72
     1
  1
DWG.  NO.
  7
SLDTEXTSTYLE2
  0
MTEXT
  5
9B
330
1F
100
AcDbEntity
  8
0
  6
CONTINUOUS
 62
     7
100
AcDbMText
 10
7.9598482632
 20
0.9442140768
 30
0.0
 40
0.25
 41
0.0
 71
     1
 72
     1
  1
A
  7
SLDTEXTSTYLE0
  0
MTEXT
  5
9C
330
1F
100
AcDbEntity
  8
0
  6
CONTINUOUS
 62
     7
100
AcDbMText
 10
7.9519581822
 20
1.0872713483
 30
0.0
 40
0.1
 41
0.0
 71
     1
 72
     1
  1
SIZE
  7
SLDTEXTSTYLE0
  0
MTEXT
  5
9D
330
1F
100
AcDbEntity
  8
0
  6
CONTINUOUS
 62
     7
100
AcDbMText
 10
7.9170704177
 20
1.9547881128
 30
0.0
 40
0.1
 41
0.0
 71
     1
 72
     1
  1
TITLE:
  7
SLDTEXTSTYLE0
  0
MTEXT
  5
9E
330
1F
100
AcDbEntity
  8
0
  6
CONTINUOUS
 62
     7
100
AcDbMText
 10
7.0363774929
 20
2.2906161274
 30
0.0
 40
0.065
 41
0.0
 71
     1
 72
     1
  1
NAME
  7
SLDTEXTSTYLE0
  0
MTEXT
  5
9F
330
1F
100
AcDbEntity
  8
0
  6
CONTINUOUS
 62
     7
100
AcDbMText
 10
7.5281510634
 20
2.2888799118
 30
0.0
 40
0.065
 41
0.0
 71
     1
 72
     1
  1
DATE
  7
SLDTEXTSTYLE0
  0
MTEXT
  5
A0
330
1F
100
AcDbEntity
  8
0
  6
CONTINUOUS
 62
     7
100
AcDbMText
 10
6.2277147029
 20
1.1876913145
 30
0.0
 40
0.065
 41
0.0
 71
     1
 72
     1
  1
COMMENTS:
  7
SLDTEXTSTYLE0
  0
MTEXT
  5
A1
330
1F
100
AcDbEntity
  8
0
  6
CONTINUOUS
 62
     7
100
AcDbMText
 10
6.2268411461
 20
1.3536101679
 30
0.0
 40
0.065
 41
0.0
 71
     1
 72
     1
  1
Q.A.
  7
SLDTEXTSTYLE0
  0
MTEXT
  5
A2
330
1F
100
AcDbEntity
  8
0
  6
CONTINUOUS
 62
     7
100
AcDbMText
 10
6.2284654509
 20
1.5395328424
 30
0.0
 40
0.065
 41
0.0
 71
     1
 72
     1
  1
MFG APPR.
  7
SLDTEXTSTYLE0
  0
MTEXT
  5
A3
330
1F
100
AcDbEntity
  8
0
  6
CONTINUOUS
 62
     7
100
AcDbMText
 10
6.2235171344
 20
1.7267501785
 30
0.0
 40
0.065
 41
0.0
 71
     1
 72
     1
  1
ENG APPR.
  7
SLDTEXTSTYLE0
  0
MTEXT
  5
A4
330
1F
100
AcDbEntity
  8
0
  6
CONTINUOUS
 62
     7
100
AcDbMText
 10
6.2264103951
 20
1.9092699088
 30
0.0
 40
0.065
 41
0.0
 71
     1
 72
     1
  1
CHECKED
  7
SLDTEXTSTYLE0
  0
MTEXT
  5
A5
330
1F
100
AcDbEntity
  8
0
  6
CONTINUOUS
 62
     7
100
AcDbMText
 10
6.2242794356
 20
2.1016301232
 30
0.0
 40
0.065
 41
0.0
 71
     1
 72
     1
  1
DRAWN
  7
SLDTEXTSTYLE0
  0
MTEXT
  5
A6
330
1F
100
AcDbEntity
  8
0
  6
CONTINUOUS
 62
     7
100
AcDbMText
 10
4.8208600979
 20
0.834523235
 30
0.0
 40
0.06
 41
0.0
 71
     1
 72
     1
  1
FINISH
  7
SLDTEXTSTYLE0
  0
MTEXT
  5
A7
330
1F
100
AcDbEntity
  8
0
  6
CONTINUOUS
 62
     7
100
AcDbMText
 10
4.8181240648
 20
1.1028217587
 30
0.0
 40
0.06
 41
0.0
 71
     1
 72
     1
  1
MATERIAL
  7
SLDTEXTSTYLE0
  0
INSERT
  5
AD
330
1F
100
AcDbEntity
  8
0
  6
CONTINUOUS
 62
     7
100
AcDbBlockReference
  2
SW_NOTE_0
 10
4.8231926633
 20
1.2646542947
 30
0.0
  0
INSERT
  5
BD
330
1F
100
AcDbEntity
  8
0
  6
CONTINUOUS
 62
     7
100
AcDbBlockReference
  2
SW_NOTE_1
 10
4.8353339353
 20
2.0049168724
 30
0.0
  0
MTEXT
  5
BE
330
1F
100
AcDbEntity
  8
0
  6
CONTINUOUS
 62
     7
100
AcDbMText
 10
3.5531400086
 20
0.5200091997
 30
0.0
 40
0.0625
 41
0.0
 71
     1
 72
     1
  1
APPLICATION
  7
SLDTEXTSTYLE0
  0
MTEXT
  5
BF
330
1F
100
AcDbEntity
  8
0
  6
CONTINUOUS
 62
     7
100
AcDbMText
 10
4.1005607758
 20
0.7502454275
 30
0.0
 40
0.0625
 41
0.0
 71
     1
 72
     1
  1
USED ON
  7
SLDTEXTSTYLE0
  0
MTEXT
  5
C0
330
1F
100
AcDbEntity
  8
0
  6
CONTINUOUS
 62
     7
100
AcDbMText
 10
3.1040019536
 20
0.7492094783
 30
0.0
 40
0.0625
 41
0.0
 71
     1
 72
     1
  1
NEXT ASSY
  7
SLDTEXTSTYLE0
  0
MTEXT
  5
C1
330
1F
100
AcDbEntity
  8
0
  6
CONTINUOUS
 62
     7
100
AcDbMText
 10
1.3712489489
 20
1.2496672684
 30
0.0
 40
0.06
 41
0.0
 71
     1
 72
     1
  1
PROPRIETARY AND CONFIDENTIAL
  7
SLDTEXTSTYLE0
  0
INSERT
  5
CC
330
1F
100
AcDbEntity
  8
0
  6
CONTINUOUS
 62
     7
100
AcDbBlockReference
  2
SW_NOTE_2
 10
1.2226209074
 20
1.0313492921
 30
0.0
  0
MTEXT
  5
CD
330
1F
100
AcDbEntity
  8
0
  6
CONTINUOUS
 62
     7
100
AcDbMText
 10
1.7387909509
 20
0.3105864247
 30
0.0
 40
0.09375
 41
0.0
 71
     1
 72
     1
  1
5
  7
SLDTEXTSTYLE0
  0
MTEXT
  5
CE
330
1F
100
AcDbEntity
  8
0
  6
CONTINUOUS
 62
     7
100
AcDbMText
 10
3.723800327
 20
0.3137237518
 30
0.0
 40
0.09375
 41
0.0
 71
     1
 72
     1
  1
4
  7
SLDTEXTSTYLE0
  0
MTEXT
  5
CF
330
1F
100
AcDbEntity
  8
0
  6
CONTINUOUS
 62
     7
100
AcDbMText
 10
5.6324457277
 20
0.3116191842
 30
0.0
 40
0.09375
 41
0.0
 71
     1
 72
     1
  1
3
  7
SLDTEXTSTYLE0
  0
MTEXT
  5
D0
330
1F
100
AcDbEntity
  8
0
  6
CONTINUOUS
 62
     7
100
AcDbMText
 10
7.6059721724
 20
0.3124391351
 30
0.0
 40
0.09375
 41
0.0
 71
     1
 72
     1
  1
2
  7
SLDTEXTSTYLE0
  0
MTEXT
  5
D1
330
1F
100
AcDbEntity
  8
0
  6
CONTINUOUS
 62
     7
100
AcDbMText
 10
9.6619921328
 20
0.301372012
 30
0.0
 40
0.09375
 41
0.0
 71
     1
 72
     1
  1
1
  7
SLDTEXTSTYLE0
  0
LINE
  5
D2
330
1F
100
AcDbEntity
  8
0
  6
CONTINUOUS
 62
     7
100
AcDbLine
 10
2.9978959459
 20
3.0086782864
 30
0.0
 11
3.6553762609
 21
3.0086782864
 31
0.0
  0
LINE
  5
D3
330
1F
100
AcDbEntity
  8
0
  6
CONTINUOUS
 62
     7
100
AcDbLine
 10
2.5236439774
 20
3.0086782864
 30
0.0
 11
2.9782109065
 21
3.0086782864
 31
0.0
  0
LINE
  5
D4
330
1F
100
AcDbEntity
  8
0
  6
CONTINUOUS
 62
     7
100
AcDbLine
 10
2.9782109065
 20
4.5086782864
 30
0.0
 11
2.5236439774
 21
4.5086782864
 31
0.0
  0
LINE
  5
D5
330
1F
100
AcDbEntity
  8
0
  6
CONTINUOUS
 62
     7
100
AcDbLine
 10
4.1296282294
 20
4.5086782864
 30
0.0
 11
2.9978959459
 21
4.5086782864
 31
0.0
  0
LINE
  5
D6
330
1F
100
AcDbEntity
  8
0
  6
CONTINUOUS
 62
     7
100
AcDbLine
 10
4.1396282294
 20
4.4986782864
 30
0.0
 11
4.1296282294
 21
4.5086782864
 31
0.0
  0
LINE
  5
D7
330
1F
100
AcDbEntity
  8
0
  6
CONTINUOUS
 62
     7
100
AcDbLine
 10
2.5236439774
 20
4.5086782864
 30
0.0
 11
2.5136439774
 21
4.4986782864
 31
0.0
  0
LINE
  5
D8
330
1F
100
AcDbEntity
  8
0
  6
CONTINUOUS
 62
     7
100
AcDbLine
 10
2.5136439774
 20
3.0186782864
 30
0.0
 11
2.5236439774
 21
3.0086782864
 31
0.0
  0
LINE
  5
D9
330
1F
100
AcDbEntity
  8
0
  6
CONTINUOUS
 62
     7
100
AcDbLine
 10
2.5236439774
 20
4.5086782864
 30
0.0
 11
2.5236439774
 21
3.0086782864
 31
0.0
  0
LINE
  5
DA
330
1F
100
AcDbEntity
  8
0
  6
CONTINUOUS
 62
     7
100
AcDbLine
 10
2.9782109065
 20
4.3558548679
 30
0.0
 11
2.9782109065
 21
4.5086782864
 31
0.0
  0
LINE
  5
DB
330
1F
100
AcDbEntity
  8
0
  6
CONTINUOUS
 62
     7
100
AcDbLine
 10
2.9978959459
 20
4.3558548679
 30
0.0
 11
2.9782109065
 21
4.3558548679
 31
0.0
  0
LINE
  5
DC
330
1F
100
AcDbEntity
  8
0
  6
CONTINUOUS
 62
     7
100
AcDbLine
 10
2.9978959459
 20
3.1615017049
 30
0.0
 11
2.9978959459
 21
3.0086782864
 31
0.0
  0
LINE
  5
DD
330
1F
100
AcDbEntity
  8
0
  6
CONTINUOUS
 62
     7
100
AcDbLine
 10
2.9978959459
 20
4.5086782864
 30
0.0
 11
2.9978959459
 21
4.3558548679
 31
0.0
  0
LINE
  5
DE
330
1F
100
AcDbEntity
  8
0
  6
CONTINUOUS
 62
     7
100
AcDbLine
 10
2.9782109065
 20
3.1615017049
 30
0.0
 11
2.9978959459
 21
3.1615017049
 31
0.0
  0
LINE
  5
DF
330
1F
100
AcDbEntity
  8
0
  6
CONTINUOUS
 62
     7
100
AcDbLine
 10
2.9782109065
 20
3.0086782864
 30
0.0
 11
2.9782109065
 21
3.1615017049
 31
0.0
  0
LINE
  5
E0
330
1F
100
AcDbEntity
  8
0
  6
CONTINUOUS
 62
     7
100
AcDbLine
 10
4.1296282294
 20
3.0087428726
 30
0.0
 11
3.6750613002
 21
3.0087428726
 31
0.0
  0
LINE
  5
E1
330
1F
100
AcDbEntity
  8
0
  6
CONTINUOUS
 62
     7
100
AcDbLine
 10
3.6750613002
 20
4.0549381289
 30
0.0
 11
3.6750613002
 21
3.0087428726
 31
0.0
  0
LINE
  5
E2
330
1F
100
AcDbEntity
  8
0
  6
CONTINUOUS
 62
     7
100
AcDbLine
 10
3.6553762609
 20
4.0549381289
 30
0.0
 11
3.6750613002
 21
4.0549381289
 31
0.0
  0
LINE
  5
E3
330
1F
100
AcDbEntity
  8
0
  6
CONTINUOUS
 62
     7
100
AcDbLine
 10
3.6553762609
 20
3.0086782864
 30
0.0
 11
3.6553762609
 21
4.0549381289
 31
0.0
  0
LINE
  5
E4
330
1F
100
AcDbEntity
  8
0
  6
CONTINUOUS
 62
     7
100
AcDbLine
 10
4.1296282294
 20
3.0087428726
 30
0.0
 11
4.1296282294
 21
4.5086782864
 31
0.0
  0
SPLINE
  5
E5
330
1F
100
AcDbEntity
  8
0
  6
CONTINUOUS
 62
     7
100
AcDbSpline
210
0.0
220
0.0
230
1.0
 70
     8
 71
     3
 72
    76
 73
    72
 74
     0
 42
0.00000001
 43
0.00000001
 40
-0.0312500000000001
 40
-0.0312500000000001
 40
0.0
 40
0.0
 40
0.0624999999999996
 40
0.0624999999999996
 40
0.0937499999999994
 40
0.0937499999999994
 40
0.1249999999999992
 40
0.1249999999999992
 40
0.1562499999999991
 40
0.1562499999999991
 40
0.1874999999999988
 40
0.1874999999999988
 40
0.2187499999999986
 40
0.2187499999999986
 40
0.2499999999999984
 40
0.2499999999999984
 40
0.2656249999999983
 40
0.2656249999999983
 40
0.2812499999999982
 40
0.2812499999999982
 40
0.2968749999999982
 40
0.2968749999999982
 40
0.3124999999999981
 40
0.3124999999999981
 40
0.3437499999999978
 40
0.3437499999999978
 40
0.3749999999999976
 40
0.3749999999999976
 40
0.4062499999999975
 40
0.4062499999999975
 40
0.4374999999999973
 40
0.4374999999999973
 40
0.4687499999999972
 40
0.4687499999999972
 40
0.4999999999999971
 40
0.4999999999999971
 40
0.5624999999999969
 40
0.5624999999999969
 40
0.593749999999997
 40
0.593749999999997
 40
0.609374999999997
 40
0.609374999999997
 40
0.6249999999999971
 40
0.6249999999999971
 40
0.6562499999999973
 40
0.6562499999999973
 40
0.6874999999999976
 40
0.6874999999999976
 40
0.7187499999999978
 40
0.7187499999999978
 40
0.749999999999998
 40
0.749999999999998
 40
0.7812499999999983
 40
0.7812499999999983
 40
0.7968749999999984
 40
0.7968749999999984
 40
0.8124999999999988
 40
0.8124999999999988
 40
0.8437499999999991
 40
0.8437499999999991
 40
0.8593749999999991
 40
0.8593749999999991
 40
0.8749999999999991
 40
0.8749999999999991
 40
0.9062499999999993
 40
0.9062499999999993
 40
0.9374999999999997
 40
0.9374999999999997
 40
0.9687499999999999
 40
0.9687499999999999
 40
1.0
 40
1.0
 40
1.0625
 40
1.0625
 10
4.104195158502663
 20
3.317191216552139
 30
0.0
 10
4.104195158502663
 20
3.280990652543228
 30
0.0
 10
4.099906598185635
 20
3.25856323997015
 30
0.0
 10
4.088425672059034
 20
3.227122678634615
 30
0.0
 10
4.083741413891006
 20
3.21707143658432
 30
0.0
 10
4.07293117479304
 20
3.198118584983876
 30
0.0
 10
4.066785398820589
 20
3.18915662070916
 30
0.0
 10
4.052948952729858
 20
3.17219861860089
 30
0.0
 10
4.04520692436845
 20
3.164159127836412
 30
0.0
 10
4.028212157842129
 20
3.149341674944314
 30
0.0
 10
4.018968887115191
 20
3.142542433621546
 30
0.0
 10
3.998486115468932
 20
3.130235590722506
 30
0.0
 10
3.987189274031793
 20
3.124714426460398
 30
0.0
 10
3.962491403700351
 20
3.115699604600422
 30
0.0
 10
3.948788898917425
 20
3.112128935203756
 30
0.0
 10
3.927012800868974
 20
3.109121965914355
 30
0.0
 10
3.919412959890232
 20
3.108500419870966
 30
0.0
 10
3.904378574589659
 20
3.108152745601193
 30
0.0
 10
3.896899408670111
 20
3.108409288942096
 30
0.0
 10
3.882014954830643
 20
3.109767442083152
 30
0.0
 10
3.874685331961525
 20
3.110870893466197
 30
0.0
 10
3.860699217686947
 20
3.113747138891973
 30
0.0
 10
3.853912493052897
 20
3.1155438885228
 30
0.0
 10
3.834595690557007
 20
3.12171118386568
 30
0.0
 10
3.823071050555227
 20
3.126808567182562
 30
0.0
 10
3.801721163147234
 20
3.138564353699569
 30
0.0
 10
3.792056651878179
 20
3.145166796497909
 30
0.0
 10
3.774509588878835
 20
3.159410300300346
 30
0.0
 10
3.766565107795353
 20
3.167095940826953
 30
0.0
 10
3.752081471213668
 20
3.183616886762228
 30
0.0
 10
3.745536429144515
 20
3.192488074949995
 30
0.0
 10
3.734090697172839
 20
3.211039832483986
 30
0.0
 10
3.729146151804067
 20
3.220763635110481
 30
0.0
 10
3.720844976955876
 20
3.241176672094337
 30
0.0
 10
3.717476081622087
 20
3.251921838854674
 30
0.0
 10
3.710155655588328
 20
3.285408278526116
 30
0.0
 10
3.70894472460016
 20
3.308946027461068
 30
0.0
 10
3.714401809308415
 20
3.346110570788965
 30
0.0
 10
3.717413300430014
 20
3.358463402657023
 30
0.0
 10
3.723909810421005
 20
3.37684555291905
 30
0.0
 10
3.726406870744381
 20
3.382948036287448
 30
0.0
 10
3.73212241561958
 20
3.395080874436546
 30
0.0
 10
3.735358638430359
 20
3.401133137865389
 30
0.0
 10
3.745982825216012
 20
3.418701396852911
 30
0.0
 10
3.754329316813312
 20
3.429770667021921
 30
0.0
 10
3.773736669045
 20
3.450380361608059
 30
0.0
 10
3.784954285694257
 20
3.459989191916861
 30
0.0
 10
3.809098721985435
 20
3.476326756809307
 30
0.0
 10
3.822117944046411
 20
3.483205812329871
 30
0.0
 10
3.850182483898787
 20
3.494092844999341
 30
0.0
 10
3.864643587014019
 20
3.497871609725233
 30
0.0
 10
3.894329413185133
 20
3.502115460051201
 30
0.0
 10
3.909674899969981
 20
3.502530630598849
 30
0.0
 10
3.932067675515726
 20
3.500559778134404
 30
0.0
 10
3.939476652881945
 20
3.499479589503133
 30
0.0
 10
3.954182930158643
 20
3.496468551763119
 30
0.0
 10
3.961528429998705
 20
3.494519290729742
 30
0.0
 10
3.982905739598831
 20
3.487512796757418
 30
0.0
 10
3.996348586097336
 20
3.481324810777287
 30
0.0
 10
4.015323056964282
 20
3.469882718713909
 30
0.0
 10
4.021454802351195
 20
3.465692124437134
 30
0.0
 10
4.033006525401068
 20
3.456822183107525
 30
0.0
 10
4.038469424871448
 20
3.452119480660358
 30
0.0
 10
4.053953544347082
 20
3.437262921551166
 30
0.0
 10
4.063149355889102
 20
3.426228007236859
 30
0.0
 10
4.078545289719964
 20
3.403264790808317
 30
0.0
 10
4.084831024195938
 20
3.391298545614787
 30
0.0
 10
4.094818831187581
 20
3.366612870145672
 30
0.0
 10
4.098392347843786
 20
3.354200720118313
 30
0.0
 10
4.103078743195881
 20
3.329534966666088
 30
0.0
 10
4.104195158502663
 20
3.317191216552139
 30
0.0
 10
4.104195158502663
 20
3.280990652543228
 30
0.0
  0
LINE
  5
E6
330
1F
100
AcDbEntity
  8
0
  6
CONTINUOUS
 62
     7
100
AcDbLine
 10
4.1396282294
 20
4.4986782864
 30
0.0
 11
4.1396282294
 21
3.0187437455
 31
0.0
  0
LINE
  5
E7
330
1F
100
AcDbEntity
  8
0
  6
CONTINUOUS
 62
     7
100
AcDbLine
 10
4.1296282294
 20
3.0087428726
 30
0.0
 11
4.1396282294
 21
3.0187437455
 31
0.0
  0
LINE
  5
E8
330
1F
100
AcDbEntity
  8
0
  6
CONTINUOUS
 62
     7
100
AcDbLine
 10
2.5136439774
 20
3.0186782864
 30
0.0
 11
2.5136439774
 21
4.4986782864
 31
0.0
  0
CIRCLE
  5
E9
330
1F
100
AcDbEntity
  8
0
  6
CONTINUOUS
 62
     7
100
AcDbCircle
 10
3.9073447648
 20
3.3051243619
 30
0.0
 40
0.159448818897638
  0
LINE
  5
EA
330
1F
100
AcDbEntity
  8
0
  6
CONTINUOUS
 62
     7
100
AcDbLine
 10
3.9860849223
 20
3.2596637108
 30
0.0
 11
3.9860849223
 21
3.350585013
 31
0.0
  0
LINE
  5
EB
330
1F
100
AcDbEntity
  8
0
  6
CONTINUOUS
 62
     7
100
AcDbLine
 10
3.8286046073
 20
3.350585013
 30
0.0
 11
3.8286046073
 21
3.2596637108
 31
0.0
  0
LINE
  5
EC
330
1F
100
AcDbEntity
  8
0
  6
CONTINUOUS
 62
     7
100
AcDbLine
 10
3.8286046073
 20
3.2596637108
 30
0.0
 11
3.9073447648
 21
3.2142030596
 31
0.0
  0
LINE
  5
ED
330
1F
100
AcDbEntity
  8
0
  6
CONTINUOUS
 62
     7
100
AcDbLine
 10
3.9073447648
 20
3.2142030596
 30
0.0
 11
3.9860849223
 21
3.2596637108
 31
0.0
  0
LINE
  5
EE
330
1F
100
AcDbEntity
  8
0
  6
CONTINUOUS
 62
     7
100
AcDbLine
 10
3.9073447648
 20
3.3960456641
 30
0.0
 11
3.8286046073
 21
3.350585013
 31
0.0
  0
LINE
  5
EF
330
1F
100
AcDbEntity
  8
0
  6
CONTINUOUS
 62
     7
100
AcDbLine
 10
3.9860849223
 20
3.350585013
 30
0.0
 11
3.9073447648
 21
3.3960456641
 31
0.0
  0
CIRCLE
  5
F0
330
1F
100
AcDbEntity
  8
0
  6
CONTINUOUS
 62
     7
100
AcDbCircle
 10
3.9073447648
 20
3.3051243619
 30
0.0
 40
0.1673228346456694
  0
SPLINE
  5
F1
330
1F
100
AcDbEntity
  8
0
  6
HIDDEN
 62
     7
100
AcDbSpline
210
0.0
220
0.0
230
1.0
 70
     8
 71
     3
 72
    88
 73
    84
 74
     0
 42
0.00000001
 43
0.00000001
 40
-0.015625
 40
-0.015625
 40
0.0
 40
0.0
 40
0.0156249999999998
 40
0.0156249999999998
 40
0.0312499999999997
 40
0.0312499999999997
 40
0.0468749999999995
 40
0.0468749999999995
 40
0.0624999999999993
 40
0.0624999999999993
 40
0.0937499999999991
 40
0.0937499999999991
 40
0.1249999999999989
 40
0.1249999999999989
 40
0.1874999999999987
 40
0.1874999999999987
 40
0.2187499999999987
 40
0.2187499999999987
 40
0.2499999999999987
 40
0.2499999999999987
 40
0.2812499999999987
 40
0.2812499999999987
 40
0.3124999999999987
 40
0.3124999999999987
 40
0.3281249999999988
 40
0.3281249999999988
 40
0.3437499999999988
 40
0.3437499999999988
 40
0.3749999999999987
 40
0.3749999999999987
 40
0.3906249999999988
 40
0.3906249999999988
 40
0.4062499999999988
 40
0.4062499999999988
 40
0.4374999999999989
 40
0.4374999999999989
 40
0.4531249999999989
 40
0.4531249999999989
 40
0.4687499999999989
 40
0.4687499999999989
 40
0.4843749999999989
 40
0.4843749999999989
 40
0.4999999999999989
 40
0.4999999999999989
 40
0.5312499999999989
 40
0.5312499999999989
 40
0.5624999999999989
 40
0.5624999999999989
 40
0.5781249999999989
 40
0.5781249999999989
 40
0.593749999999999
 40
0.593749999999999
 40
0.609374999999999
 40
0.609374999999999
 40
0.6249999999999991
 40
0.6249999999999991
 40
0.656249999999999
 40
0.656249999999999
 40
0.6718749999999989
 40
0.6718749999999989
 40
0.6874999999999989
 40
0.6874999999999989
 40
0.718749999999999
 40
0.718749999999999
 40
0.749999999999999
 40
0.749999999999999
 40
0.7812499999999991
 40
0.7812499999999991
 40
0.8124999999999992
 40
0.8124999999999992
 40
0.8437499999999993
 40
0.8437499999999993
 40
0.8749999999999994
 40
0.8749999999999994
 40
0.9062499999999996
 40
0.9062499999999996
 40
0.9374999999999998
 40
0.9374999999999998
 40
0.96875
 40
0.96875
 40
0.984375
 40
0.984375
 40
1.0
 40
1.0
 40
1.015625
 40
1.015625
 10
2.753561732154215
 20
3.385215807884028
 30
0.0
 10
2.738293151780245
 20
3.385215807884029
 30
0.0
 10
2.730820702947076
 20
3.384443454579044
 30
0.0
 10
2.716162689969018
 20
3.381537975386155
 30
0.0
 10
2.708908125822932
 20
3.379371722700097
 30
0.0
 10
2.695144876616109
 20
3.374050995208366
 30
0.0
 10
2.688594946545824
 20
3.370904045221375
 30
0.0
 10
2.676012901007204
 20
3.36387711896915
 30
0.0
 10
2.669947830875353
 20
3.359969806733469
 30
0.0
 10
2.652693631564589
 20
3.347602870649655
 30
0.0
 10
2.64240305379634
 20
3.338539250805053
 30
0.0
 10
2.623439639425926
 20
3.319516434869448
 30
0.0
 10
2.614737101204319
 20
3.309476612414372
 30
0.0
 10
2.59120720137107
 20
3.279172138294309
 30
0.0
 10
2.578693888113778
 20
3.258626187229444
 30
0.0
 10
2.564230884356351
 20
3.227913212633407
 30
0.0
 10
2.560175588927812
 20
3.217697851082467
 30
0.0
 10
2.55389541851663
 20
3.19791649441508
 30
0.0
 10
2.551631405165478
 20
3.188274193051464
 30
0.0
 10
2.549034608568941
 20
3.169501358347997
 30
0.0
 10
2.548698510909167
 20
3.160370823834696
 30
0.0
 10
2.550353158525749
 20
3.142633071048697
 30
0.0
 10
2.552332703452795
 20
3.134248909689182
 30
0.0
 10
2.557202596806888
 20
3.122462891234171
 30
0.0
 10
2.559144734397644
 20
3.118660595731255
 30
0.0
 10
2.563721566924317
 20
3.11130483698843
 30
0.0
 10
2.566376188892364
 20
3.107730867764658
 30
0.0
 10
2.575315220858203
 20
3.097570624743817
 30
0.0
 10
2.582548988699463
 20
3.091527441871426
 30
0.0
 10
2.595449422772151
 20
3.083425537486637
 30
0.0
 10
2.600093111283292
 20
3.08088607514671
 30
0.0
 10
2.61012134680236
 20
3.076116237275668
 30
0.0
 10
2.615491631843561
 20
3.07389811508154
 30
0.0
 10
2.63227498980244
 20
3.067857585154442
 30
0.0
 10
2.644489656703458
 20
3.064572464604053
 30
0.0
 10
2.664428579285297
 20
3.060595042536313
 30
0.0
 10
2.671362804184272
 20
3.059430393905235
 30
0.0
 10
2.685385399578174
 20
3.057464748315947
 30
0.0
 10
2.692521183734219
 20
3.056653071006608
 30
0.0
 10
2.707039610556432
 20
3.055346722498669
 30
0.0
 10
2.714422219280836
 20
3.054852040821943
 30
0.0
 10
2.729442602097415
 20
3.054175723024375
 30
0.0
 10
2.737040957886016
 20
3.053998178122895
 30
0.0
 10
2.759600100802104
 20
3.053941118581307
 30
0.0
 10
2.774519334760209
 20
3.054515908241762
 30
0.0
 10
2.804102096253076
 20
3.05700290543008
 30
0.0
 10
2.818157409060032
 20
3.058865965579175
 30
0.0
 10
2.83818548346463
 20
3.062697171523586
 30
0.0
 10
2.844722253869731
 20
3.064159963234501
 30
0.0
 10
2.857229907554856
 20
3.067429956622645
 30
0.0
 10
2.863178240545918
 20
3.06922795018085
 30
0.0
 10
2.874491618305933
 20
3.073171318972409
 30
0.0
 10
2.879856522833777
 20
3.075316701445198
 30
0.0
 10
2.89001065389448
 20
3.079988385750588
 30
0.0
 10
2.894820621775462
 20
3.082530244393858
 30
0.0
 10
2.908094174016876
 20
3.090609193824535
 30
0.0
 10
2.915502983302843
 20
3.096625606219068
 30
0.0
 10
2.924658592565625
 20
3.106706158688522
 30
0.0
 10
2.927383484835691
 20
3.11025273886047
 30
0.0
 10
2.932103602831419
 20
3.117571654059651
 30
0.0
 10
2.934115569208329
 20
3.121359760383929
 30
0.0
 10
2.939186367225705
 20
3.133117303337492
 30
0.0
 10
2.941290219290847
 20
3.141544647961423
 30
0.0
 10
2.943141557580801
 20
3.159176069459813
 30
0.0
 10
2.942905541908133
 20
3.168325658842207
 30
0.0
 10
2.940429013561453
 20
3.18728739401156
 30
0.0
 10
2.93816192807303
 20
3.197158966136756
 30
0.0
 10
2.931900437573528
 20
3.217113312537947
 30
0.0
 10
2.927912259883975
 20
3.227227049302412
 30
0.0
 10
2.918342638743032
 20
3.2476918764726
 30
0.0
 10
2.912723517629168
 20
3.258103424595555
 30
0.0
 10
2.900022871530283
 20
3.278790800676273
 30
0.0
 10
2.892977365663278
 20
3.289028472928996
 30
0.0
 10
2.877389475035784
 20
3.309148436991466
 30
0.0
 10
2.868854076344169
 20
3.319035230454008
 30
0.0
 10
2.849878117459849
 20
3.338150799474265
 30
0.0
 10
2.839374877285036
 20
3.347427572857521
 30
0.0
 10
2.816376086777052
 20
3.363955890760818
 30
0.0
 10
2.803627689086455
 20
3.371360075905931
 30
0.0
 10
2.783136470879521
 20
3.379306564149447
 30
0.0
 10
2.776052165463168
 20
3.381447758935066
 30
0.0
 10
2.761241546481409
 20
3.38442050571003
 30
0.0
 10
2.753561732154215
 20
3.385215807884028
 30
0.0
 10
2.738293151780245
 20
3.385215807884029
 30
0.0
  0
SPLINE
  5
F2
330
1F
100
AcDbEntity
  8
0
  6
HIDDEN
 62
     7
100
AcDbSpline
210
0.0
220
0.0
230
1.0
 70
     8
 71
     3
 72
    62
 73
    58
 74
     0
 42
0.00000001
 43
0.00000001
 40
-0.0312500000000003
 40
-0.0312500000000003
 40
0.0
 40
0.0
 40
0.0312499999999998
 40
0.0312499999999998
 40
0.0624999999999997
 40
0.0624999999999997
 40
0.0937499999999995
 40
0.0937499999999995
 40
0.1249999999999994
 40
0.1249999999999994
 40
0.1874999999999991
 40
0.1874999999999991
 40
0.2187499999999989
 40
0.2187499999999989
 40
0.2499999999999988
 40
0.2499999999999988
 40
0.3124999999999989
 40
0.3124999999999989
 40
0.3437499999999989
 40
0.3437499999999989
 40
0.3749999999999988
 40
0.3749999999999988
 40
0.4062499999999987
 40
0.4062499999999987
 40
0.4374999999999986
 40
0.4374999999999986
 40
0.4687499999999985
 40
0.4687499999999985
 40
0.4999999999999984
 40
0.4999999999999984
 40
0.5312499999999984
 40
0.5312499999999984
 40
0.5624999999999983
 40
0.5624999999999983
 40
0.5937499999999983
 40
0.5937499999999983
 40
0.6249999999999982
 40
0.6249999999999982
 40
0.6562499999999982
 40
0.6562499999999982
 40
0.6874999999999982
 40
0.6874999999999982
 40
0.7499999999999986
 40
0.7499999999999986
 40
0.8124999999999988
 40
0.8124999999999988
 40
0.843749999999999
 40
0.843749999999999
 40
0.8749999999999991
 40
0.8749999999999991
 40
0.9062499999999993
 40
0.9062499999999993
 40
0.9374999999999996
 40
0.9374999999999996
 40
0.9687499999999997
 40
0.9687499999999997
 40
1.0
 40
1.0
 40
1.03125
 40
1.03125
 10
2.737736749264378
 20
4.255524785477557
 30
0.0
 10
2.75411813467008
 20
4.255524785477557
 30
0.0
 10
2.762036975931895
 20
4.256565472083058
 30
0.0
 10
2.777400161010108
 20
4.260436944495609
 30
0.0
 10
2.784674655785879
 20
4.263243655279849
 30
0.0
 10
2.798044406734455
 20
4.26995875447738
 30
0.0
 10
2.804219628742301
 20
4.273904656521319
 30
0.0
 10
2.815294433436341
 20
4.282323695123191
 30
0.0
 10
2.820275763156177
 20
4.286840366575787
 30
0.0
 10
2.833803685267191
 20
4.301080899515219
 30
0.0
 10
2.840618575154451
 20
4.311093010244441
 30
0.0
 10
2.847977082201514
 20
4.326313592730541
 30
0.0
 10
2.84994743921451
 20
4.331464662082617
 30
0.0
 10
2.852792067422902
 20
4.341564760842921
 30
0.0
 10
2.853686220675824
 20
4.346544990363016
 30
0.0
 10
2.854726798339102
 20
4.361269170255756
 30
0.0
 10
2.853180271359556
 20
4.370878791612244
 30
0.0
 10
2.847034269350655
 20
4.383944237083064
 30
0.0
 10
2.844327552558768
 20
4.388138087281995
 30
0.0
 10
2.837522442723373
 20
4.396030479256468
 30
0.0
 10
2.833488478354736
 20
4.399667660250628
 30
0.0
 10
2.824052056119879
 20
4.406348653201438
 30
0.0
 10
2.818571038390331
 20
4.409418592877899
 30
0.0
 10
2.806592649891399
 20
4.414692728287839
 30
0.0
 10
2.80007221522491
 20
4.416932618776429
 30
0.0
 10
2.785872027447615
 20
4.420627781666107
 30
0.0
 10
2.778262389993675
 20
4.422048699155076
 30
0.0
 10
2.762718585025779
 20
4.423946079241926
 30
0.0
 10
2.754563214695653
 20
4.424447298145694
 30
0.0
 10
2.738381087905484
 20
4.424489521287152
 30
0.0
 10
2.7303806552123
 20
4.424048141506866
 30
0.0
 10
2.714562825144101
 20
4.422210445839496
 30
0.0
 10
2.707003496314337
 20
4.420838886648078
 30
0.0
 10
2.692744619425058
 20
4.41723031839009
 30
0.0
 10
2.685996378786665
 20
4.414965625243358
 30
0.0
 10
2.673892099647842
 20
4.409731451287032
 30
0.0
 10
2.66839932453965
 20
4.406710646056097
 30
0.0
 10
2.658795422778358
 20
4.40002558906576
 30
0.0
 10
2.654710891738921
 20
4.396396497752961
 30
0.0
 10
2.647828983093718
 20
4.388553928645004
 30
0.0
 10
2.645055002567176
 20
4.384344464600657
 30
0.0
 10
2.638764892062629
 20
4.37125418070353
 30
0.0
 10
2.637154239997531
 20
4.361658914575258
 30
0.0
 10
2.638441324252168
 20
4.341953753738866
 30
0.0
 10
2.641343290380564
 20
4.331630494430141
 30
0.0
 10
2.648633610025106
 20
4.316440739258149
 30
0.0
 10
2.651556761906348
 20
4.31140294654861
 30
0.0
 10
2.658458361735498
 20
4.301418076326595
 30
0.0
 10
2.66245416866562
 20
4.296462172848066
 30
0.0
 10
2.671392303961875
 20
4.287021367211373
 30
0.0
 10
2.676354347739432
 20
4.282496499555085
 30
0.0
 10
2.687488102680419
 20
4.274000899220496
 30
0.0
 10
2.693651080033976
 20
4.270054431705033
 30
0.0
 10
2.706969851736698
 20
4.263334128308914
 30
0.0
 10
2.714301339173578
 20
4.260490799096915
 30
0.0
 10
2.729611283885515
 20
4.256602691572402
 30
0.0
 10
2.737736749264378
 20
4.255524785477557
 30
0.0
 10
2.75411813467008
 20
4.255524785477557
 30
0.0
  0
LINE
  5
F3
330
1F
100
AcDbEntity
  8
0
  6
HIDDEN
 62
     7
100
AcDbLine
 10
2.9978959459
 20
4.3558548679
 30
0.0
 11
2.9978959459
 21
3.1615017049
 31
0.0
  0
LINE
  5
F4
330
1F
100
AcDbEntity
  8
0
  6
HIDDEN
 62
     7
100
AcDbLine
 10
2.9782109065
 20
4.3558548679
 30
0.0
 11
2.9782109065
 21
3.1615017049
 31
0.0
  0
CIRCLE
  5
F5
330
1F
100
AcDbEntity
  8
0
  6
HIDDEN
 62
     7
100
AcDbCircle
 10
3.9073447648
 20
3.3051243619
 30
0.0
 40
0.1082677165354333
  0
LINE
  5
F6
330
1F
100
AcDbEntity
  8
0
  6
HIDDEN
 62
     7
100
AcDbLine
 10
4.1396282294
 20
3.5914874353
 30
0.0
 11
4.1296282294
 21
3.6015058511
 31
0.0
  0
LINE
  5
F7
330
1F
100
AcDbEntity
  8
0
  6
HIDDEN
 62
     7
100
AcDbLine
 10
2.5236439774
 20
3.7685208061
 30
0.0
 11
2.5136439774
 21
3.7685208061
 31
0.0
  0
LINE
  5
F8
330
1F
100
AcDbEntity
  8
0
  6
HIDDEN
 62
     7
100
AcDbLine
 10
2.5236439774
 20
3.7488357667
 30
0.0
 11
2.5136439774
 21
3.7488357667
 31
0.0
  0
LINE
  5
F9
330
1F
100
AcDbEntity
  8
0
  6
HIDDEN
 62
     7
100
AcDbLine
 10
2.5236439774
 20
3.7685208061
 30
0.0
 11
2.9782109065
 21
3.7685208061
 31
0.0
  0
LINE
  5
FA
330
1F
100
AcDbEntity
  8
0
  6
HIDDEN
 62
     7
100
AcDbLine
 10
2.5236439774
 20
3.7488357667
 30
0.0
 11
2.9782109065
 21
3.7488357667
 31
0.0
  0
LINE
  5
FB
330
1F
100
AcDbEntity
  8
0
  6
HIDDEN
 62
     7
100
AcDbLine
 10
3.6750613002
 20
3.6015058511
 30
0.0
 11
4.1296282294
 21
3.6015058511
 31
0.0
  0
LINE
  5
FC
330
1F
100
AcDbEntity
  8
0
  6
HIDDEN
 62
     7
100
AcDbLine
 10
2.9427778357
 20
3.4023790738
 30
0.0
 11
2.5490770483
 21
3.4023790738
 31
0.0
  0
CIRCLE
  5
FD
330
1F
100
AcDbEntity
  8
0
  6
HIDDEN
 62
     7
100
AcDbCircle
 10
3.9073447648
 20
3.3051243619
 30
0.0
 40
0.0984251968503935
  0
CIRCLE
  5
FE
330
1F
100
AcDbEntity
  8
0
  6
HIDDEN
 62
     7
100
AcDbCircle
 10
3.9073447648
 20
3.3051243619
 30
0.0
 40
0.0905511811023625
  0
LINE
  5
FF
330
1F
100
AcDbEntity
  8
0
  6
HIDDEN
 62
     7
100
AcDbLine
 10
2.9132502766
 20
3.2134026958
 30
0.0
 11
2.5786046073
 21
3.2134026958
 31
0.0
  0
LINE
  5
100
330
1F
100
AcDbEntity
  8
0
  6
HIDDEN
 62
     7
100
AcDbLine
 10
2.5786046073
 20
3.394505058
 30
0.0
 11
2.9132502766
 21
3.394505058
 31
0.0
  0
LINE
  5
101
330
1F
100
AcDbEntity
  8
0
  6
HIDDEN
 62
     7
100
AcDbLine
 10
2.5864786231
 20
3.2055286801
 30
0.0
 11
2.9053762609
 21
3.2055286801
 31
0.0
  0
LINE
  5
102
330
1F
100
AcDbEntity
  8
0
  6
HIDDEN
 62
     7
100
AcDbLine
 10
2.6475022451
 20
4.3590719872
 30
0.0
 11
2.8443526388
 21
4.3590719872
 31
0.0
  0
LINE
  5
103
330
1F
100
AcDbEntity
  8
0
  6
HIDDEN
 62
     7
100
AcDbLine
 10
2.8364786231
 20
4.3669460029
 30
0.0
 11
2.6553762609
 21
4.3669460029
 31
0.0
  0
LINE
  5
104
330
1F
100
AcDbEntity
  8
0
  6
HIDDEN
 62
     7
100
AcDbLine
 10
2.745927442
 20
3.2645837982
 30
0.0
 11
2.745927442
 21
3.2055286801
 31
0.0
  0
LINE
  5
105
330
1F
100
AcDbEntity
  8
0
  6
HIDDEN
 62
     7
100
AcDbLine
 10
2.745927442
 20
3.2645837982
 30
0.0
 11
2.8246675994
 21
3.2645837982
 31
0.0
  0
LINE
  5
106
330
1F
100
AcDbEntity
  8
0
  6
HIDDEN
 62
     7
100
AcDbLine
 10
2.6671872845
 20
3.2645837982
 30
0.0
 11
2.745927442
 21
3.2645837982
 31
0.0
  0
LINE
  5
107
330
1F
100
AcDbEntity
  8
0
  6
HIDDEN
 62
     7
100
AcDbLine
 10
2.8246675994
 20
3.2645837982
 30
0.0
 11
2.8246675994
 21
3.2055286801
 31
0.0
  0
LINE
  5
108
330
1F
100
AcDbEntity
  8
0
  6
HIDDEN
 62
     7
100
AcDbLine
 10
2.6671872845
 20
3.2645837982
 30
0.0
 11
2.6671872845
 21
3.2055286801
 31
0.0
  0
LINE
  5
109
330
1F
100
AcDbEntity
  8
0
  6
HIDDEN
 62
     7
100
AcDbLine
 10
4.1396282294
 20
3.9261586014
 30
0.0
 11
4.1296282294
 21
3.9161586014
 31
0.0
  0
LINE
  5
10A
330
1F
100
AcDbEntity
  8
0
  6
HIDDEN
 62
     7
100
AcDbLine
 10
2.5136439774
 20
3.5911979714
 30
0.0
 11
2.5236439774
 21
3.6011979714
 31
0.0
  0
LINE
  5
10B
330
1F
100
AcDbEntity
  8
0
  6
HIDDEN
 62
     7
100
AcDbLine
 10
2.5236439774
 20
3.9161586014
 30
0.0
 11
2.5136439774
 21
3.9261586014
 31
0.0
  0
LINE
  5
10C
330
1F
100
AcDbEntity
  8
0
  6
HIDDEN
 62
     7
100
AcDbLine
 10
3.6553762609
 20
3.9161586014
 30
0.0
 11
2.9978959459
 21
3.9161586014
 31
0.0
  0
LINE
  5
10D
330
1F
100
AcDbEntity
  8
0
  6
HIDDEN
 62
     7
100
AcDbLine
 10
2.9978959459
 20
3.6011979714
 30
0.0
 11
3.6553762609
 21
3.6011979714
 31
0.0
  0
LINE
  5
10E
330
1F
100
AcDbEntity
  8
0
  6
HIDDEN
 62
     7
100
AcDbLine
 10
2.9782109065
 20
3.9161586014
 30
0.0
 11
2.5236439774
 21
3.9161586014
 31
0.0
  0
LINE
  5
10F
330
1F
100
AcDbEntity
  8
0
  6
HIDDEN
 62
     7
100
AcDbLine
 10
2.5236439774
 20
3.6011979714
 30
0.0
 11
2.9782109065
 21
3.6011979714
 31
0.0
  0
LINE
  5
110
330
1F
100
AcDbEntity
  8
0
  6
HIDDEN
 62
     7
100
AcDbLine
 10
4.1296282294
 20
3.9161586014
 30
0.0
 11
3.6750613002
 21
3.9161586014
 31
0.0
  0
LINE
  5
111
330
1F
100
AcDbEntity
  8
0
  6
HIDDEN
 62
     7
100
AcDbLine
 10
2.9427778357
 20
3.1616645796
 30
0.0
 11
2.9427778357
 21
3.4023790738
 31
0.0
  0
LINE
  5
112
330
1F
100
AcDbEntity
  8
0
  6
HIDDEN
 62
     7
100
AcDbLine
 10
2.5490770483
 20
3.4023790738
 30
0.0
 11
2.5490770483
 21
3.1617207882
 31
0.0
  0
LINE
  5
113
330
1F
100
AcDbEntity
  8
0
  6
HIDDEN
 62
     7
100
AcDbLine
 10
2.8541951585
 20
3.4023790738
 30
0.0
 11
2.8541951585
 21
3.7488357667
 31
0.0
  0
LINE
  5
114
330
1F
100
AcDbEntity
  8
0
  6
HIDDEN
 62
     7
100
AcDbLine
 10
2.6376597254
 20
3.7488357667
 30
0.0
 11
2.6376597254
 21
3.4023790738
 31
0.0
  0
LINE
  5
115
330
1F
100
AcDbEntity
  8
0
  6
HIDDEN
 62
     7
100
AcDbLine
 10
2.8541951585
 20
3.7685208061
 30
0.0
 11
2.8541951585
 21
4.3558175472
 31
0.0
  0
LINE
  5
116
330
1F
100
AcDbEntity
  8
0
  6
HIDDEN
 62
     7
100
AcDbLine
 10
2.6376597254
 20
4.3558789287
 30
0.0
 11
2.6376597254
 21
3.7685208061
 31
0.0
  0
LINE
  5
117
330
1F
100
AcDbEntity
  8
0
  6
HIDDEN
 62
     7
100
AcDbLine
 10
2.5786046073
 20
3.394505058
 30
0.0
 11
2.5786046073
 21
3.2134026958
 31
0.0
  0
LINE
  5
118
330
1F
100
AcDbEntity
  8
0
  6
HIDDEN
 62
     7
100
AcDbLine
 10
2.9132502766
 20
3.2134026958
 30
0.0
 11
2.9132502766
 21
3.394505058
 31
0.0
  0
LINE
  5
119
330
1F
100
AcDbEntity
  8
0
  6
HIDDEN
 62
     7
100
AcDbLine
 10
2.9132502766
 20
3.394505058
 30
0.0
 11
2.9053762609
 21
3.4023790738
 31
0.0
  0
LINE
  5
11A
330
1F
100
AcDbEntity
  8
0
  6
HIDDEN
 62
     7
100
AcDbLine
 10
2.5864786231
 20
3.4023790738
 30
0.0
 11
2.5786046073
 21
3.394505058
 31
0.0
  0
LINE
  5
11B
330
1F
100
AcDbEntity
  8
0
  6
HIDDEN
 62
     7
100
AcDbLine
 10
2.5786046073
 20
3.2134026958
 30
0.0
 11
2.5864786231
 21
3.2055286801
 31
0.0
  0
LINE
  5
11C
330
1F
100
AcDbEntity
  8
0
  6
HIDDEN
 62
     7
100
AcDbLine
 10
2.9053762609
 20
3.2055286801
 30
0.0
 11
2.9132502766
 21
3.2134026958
 31
0.0
  0
LINE
  5
11D
330
1F
100
AcDbEntity
  8
0
  6
HIDDEN
 62
     7
100
AcDbLine
 10
2.8443526388
 20
3.4023790738
 30
0.0
 11
2.8443526388
 21
4.3590719872
 31
0.0
  0
LINE
  5
11E
330
1F
100
AcDbEntity
  8
0
  6
HIDDEN
 62
     7
100
AcDbLine
 10
2.6475022451
 20
4.3590719872
 30
0.0
 11
2.6475022451
 21
3.4023790738
 31
0.0
  0
LINE
  5
11F
330
1F
100
AcDbEntity
  8
0
  6
HIDDEN
 62
     7
100
AcDbLine
 10
2.8443526388
 20
4.3590719872
 30
0.0
 11
2.8364786231
 21
4.3669460029
 31
0.0
  0
LINE
  5
120
330
1F
100
AcDbEntity
  8
0
  6
HIDDEN
 62
     7
100
AcDbLine
 10
2.6553762609
 20
4.3669460029
 30
0.0
 11
2.6475022451
 21
4.3590719872
 31
0.0
  0
LINE
  5
121
330
1F
100
AcDbEntity
  8
0
  6
CONTINUOUS
 62
     7
100
AcDbLine
 10
7.7056090158
 20
3.1378015272
 30
0.0
 11
7.8301566064
 21
3.1378015272
 31
0.0
  0
LINE
  5
122
330
1F
100
AcDbEntity
  8
0
  6
CONTINUOUS
 62
     7
100
AcDbLine
 10
7.697735
 20
3.145675543
 30
0.0
 11
7.7056090158
 21
3.1378015272
 31
0.0
  0
LINE
  5
123
330
1F
100
AcDbEntity
  8
0
  6
CONTINUOUS
 62
     7
100
AcDbLine
 10
8.8512783071
 20
3.206699165
 30
0.0
 11
8.8591523229
 21
3.2145731808
 31
0.0
  0
LINE
  5
124
330
1F
100
AcDbEntity
  8
0
  6
CONTINUOUS
 62
     7
100
AcDbLine
 10
8.2410420866
 20
3.206699165
 30
0.0
 11
8.260727126
 21
3.206699165
 31
0.0
  0
LINE
  5
125
330
1F
100
AcDbEntity
  8
0
  6
CONTINUOUS
 62
     7
100
AcDbLine
 10
8.7586434562
 20
3.206699165
 30
0.0
 11
8.8512783071
 21
3.206699165
 31
0.0
  0
LINE
  5
126
330
1F
100
AcDbEntity
  8
0
  6
CONTINUOUS
 62
     7
100
AcDbLine
 10
8.260727126
 20
3.4035495587
 30
0.0
 11
8.2410420866
 21
3.4035495587
 31
0.0
  0
LINE
  5
127
330
1F
100
AcDbEntity
  8
0
  6
CONTINUOUS
 62
     7
100
AcDbLine
 10
8.8717613655
 20
3.2134026958
 30
0.0
 11
8.8717613655
 21
3.3379502864
 31
0.0
  0
LINE
  5
128
330
1F
100
AcDbEntity
  8
0
  6
CONTINUOUS
 62
     7
100
AcDbLine
 10
8.8638873497
 20
3.2055286801
 30
0.0
 11
8.8717613655
 21
3.2134026958
 31
0.0
  0
LINE
  5
129
330
1F
100
AcDbEntity
  8
0
  6
CONTINUOUS
 62
     7
100
AcDbLine
 10
8.8028637277
 20
4.2664371362
 30
0.0
 11
8.8028637277
 21
4.3590719872
 31
0.0
  0
LINE
  5
12A
330
1F
100
AcDbEntity
  8
0
  6
CONTINUOUS
 62
     7
100
AcDbLine
 10
8.8028637277
 20
4.3590719872
 30
0.0
 11
8.7949897119
 21
4.3669460029
 31
0.0
  0
ARC
  5
12B
330
1F
100
AcDbEntity
  8
0
  6
CONTINUOUS
 62
     7
100
AcDbCircle
 10
8.2508846063
 20
3.7586782864
 30
0.0
 40
0.1674803149606321
100
AcDbArc
 50
273.3691120895
 51
266.6308879105
  0
LINE
  5
12C
330
1F
100
AcDbEntity
  8
0
  6
CONTINUOUS
 62
     7
100
AcDbLine
 10
8.2410420866
 20
3.0187437455
 30
0.0
 11
8.2410420866
 21
3.5914874353
 31
0.0
  0
ARC
  5
12D
330
1F
100
AcDbEntity
  8
0
  6
CONTINUOUS
 62
     7
100
AcDbCircle
 10
8.2508846063
 20
3.7586782864
 30
0.0
 40
0.7400000000000009
100
AcDbArc
 50
270.7620965764
 51
269.2379034236
  0
LINE
  5
12E
330
1F
100
AcDbEntity
  8
0
  6
CONTINUOUS
 62
     7
100
AcDbLine
 10
8.260727126
 20
3.0187437455
 30
0.0
 11
8.260727126
 21
3.5914874353
 31
0.0
  0
LINE
  5
12F
330
1F
100
AcDbEntity
  8
0
  6
CONTINUOUS
 62
     7
100
AcDbLine
 10
8.2410420866
 20
3.0087428726
 30
0.0
 11
8.2410420866
 21
3.0187437455
 31
0.0
  0
ARC
  5
130
330
1F
100
AcDbEntity
  8
0
  6
CONTINUOUS
 62
     7
100
AcDbCircle
 10
8.2508846063
 20
3.7586782864
 30
0.0
 40
0.7500000000000003
100
AcDbArc
 50
270.7519347014
 51
269.2480652986
  0
LINE
  5
131
330
1F
100
AcDbEntity
  8
0
  6
CONTINUOUS
 62
     7
100
AcDbLine
 10
8.260727126
 20
3.0087428726
 30
0.0
 11
8.260727126
 21
3.0187437455
 31
0.0
  0
ARC
  5
132
330
1F
100
AcDbEntity
  8
0
  6
CONTINUOUS
 62
     7
100
AcDbCircle
 10
8.2508846063
 20
3.7586782864
 30
0.0
 40
0.1574803149606299
100
AcDbArc
 50
273.5833216985
 51
266.4166783015
  0
LINE
  5
133
330
1F
100
AcDbEntity
  8
0
  6
CONTINUOUS
 62
     7
100
AcDbLine
 10
8.2410420866
 20
3.5914874353
 30
0.0
 11
8.2410420866
 21
3.6015058511
 31
0.0
  0
LINE
  5
134
330
1F
100
AcDbEntity
  8
0
  6
CONTINUOUS
 62
     7
100
AcDbLine
 10
8.260727126
 20
3.5914874353
 30
0.0
 11
8.260727126
 21
3.6015058511
 31
0.0
  0
ARC
  5
135
330
1F
100
AcDbEntity
  8
0
  6
CONTINUOUS
 62
     7
100
AcDbCircle
 10
8.2508846063
 20
3.7586782864
 30
0.0
 40
0.1574803149606299
100
AcDbArc
 50
266.4166783015
 51
273.5833216985
  0
POLYLINE
  5
136
330
1F
100
AcDbEntity
  8
0
  6
CONTINUOUS
 62
     7
100
AcDb2dPolyline
 66
     1
 10
0.0
 20
0.0
 30
0.0
  0
VERTEX
  5
215
330
136
100
AcDbEntity
  8
0
  6
CONTINUOUS
 62
     7
100
AcDbVertex
100
AcDb2dVertex
 10
8.260727126
 20
3.0087428726
 30
0.0
  0
VERTEX
  5
216
330
136
100
AcDbEntity
  8
0
  6
CONTINUOUS
 62
     7
100
AcDbVertex
100
AcDb2dVertex
 10
8.2508846063
 20
3.0086782864
 30
0.0
  0
VERTEX
  5
217
330
136
100
AcDbEntity
  8
0
  6
CONTINUOUS
 62
     7
100
AcDbVertex
100
AcDb2dVertex
 10
8.2410420866
 20
3.0087428726
 30
0.0
  0
SEQEND
  5
218
330
136
100
AcDbEntity
  8
0
  6
CONTINUOUS
 62
     7
  0
LINE
  5
137
330
1F
100
AcDbEntity
  8
0
  6
CONTINUOUS
 62
     7
100
AcDbLine
 10
7.7056090158
 20
3.2437272884
 30
0.0
 11
7.7056090158
 21
3.1378015272
 31
0.0
  0
LINE
  5
138
330
1F
100
AcDbEntity
  8
0
  6
CONTINUOUS
 62
     7
100
AcDbLine
 10
7.697735
 20
3.145675543
 30
0.0
 11
7.697735
 21
3.2521948088
 31
0.0
  0
LINE
  5
139
330
1F
100
AcDbEntity
  8
0
  6
CONTINUOUS
 62
     7
100
AcDbLine
 10
8.8591523229
 20
3.3199182324
 30
0.0
 11
8.8591523229
 21
3.2145731808
 31
0.0
  0
LINE
  5
13A
330
1F
100
AcDbEntity
  8
0
  6
CONTINUOUS
 62
     7
100
AcDbLine
 10
8.8512783071
 20
3.206699165
 30
0.0
 11
8.8512783071
 21
3.3092036997
 31
0.0
  0
LINE
  5
13B
330
1F
100
AcDbEntity
  8
0
  6
CONTINUOUS
 62
     7
100
AcDbLine
 10
8.8717613655
 20
3.2134026958
 30
0.0
 11
8.8579818379
 21
3.2134026958
 31
0.0
  0
LINE
  5
13C
330
1F
100
AcDbEntity
  8
0
  6
CONTINUOUS
 62
     7
100
AcDbLine
 10
8.7573680839
 20
3.2055286801
 30
0.0
 11
8.8638873497
 21
3.2055286801
 31
0.0
  0
LINE
  5
13D
330
1F
100
AcDbEntity
  8
0
  6
CONTINUOUS
 62
     7
100
AcDbLine
 10
8.700359193
 20
4.3590719872
 30
0.0
 11
8.8028637277
 21
4.3590719872
 31
0.0
  0
LINE
  5
13E
330
1F
100
AcDbEntity
  8
0
  6
CONTINUOUS
 62
     7
100
AcDbLine
 10
8.7044385308
 20
4.3669460029
 30
0.0
 11
8.6896446604
 21
4.3669460029
 31
0.0
  0
LINE
  5
13F
330
1F
100
AcDbEntity
  8
0
  6
CONTINUOUS
 62
     7
100
AcDbLine
 10
8.7949897119
 20
4.3669460029
 30
0.0
 11
8.7044385308
 21
4.3669460029
 31
0.0
  0
LINE
  5
140
330
1F
100
AcDbEntity
  8
0
  6
HIDDEN
 62
     7
100
AcDbLine
 10
7.8945853937
 20
3.3051243619
 30
0.0
 11
7.8945853937
 21
3.5019747556
 31
0.0
  0
LINE
  5
141
330
1F
100
AcDbEntity
  8
0
  6
HIDDEN
 62
     7
100
AcDbLine
 10
7.8945853937
 20
3.1082739682
 30
0.0
 11
7.8945853937
 21
3.3051243619
 31
0.0
  0
LINE
  5
142
330
1F
100
AcDbEntity
  8
0
  6
HIDDEN
 62
     7
100
AcDbLine
 10
7.5618779984
 20
4.0549381289
 30
0.0
 11
8.9398912142
 21
4.0549381289
 31
0.0
  0
ARC
  5
143
330
1F
100
AcDbEntity
  8
0
  6
HIDDEN
 62
     7
100
AcDbCircle
 10
8.2508846063
 20
3.7586782864
 30
0.0
 40
0.1574803149606299
100
AcDbArc
 50
180.0
 51
266.4166783015
  0
ARC
  5
144
330
1F
100
AcDbEntity
  8
0
  6
HIDDEN
 62
     7
100
AcDbCircle
 10
8.2508846063
 20
3.7586782864
 30
0.0
 40
0.1574803149606296
100
AcDbArc
 50
273.5833216985
 51
180.0
  0
LINE
  5
145
330
1F
100
AcDbEntity
  8
0
  6
HIDDEN
 62
     7
100
AcDbLine
 10
7.7971444488
 20
4.3558548679
 30
0.0
 11
7.7971444488
 21
3.1615017049
 31
0.0
  0
LINE
  5
146
330
1F
100
AcDbEntity
  8
0
  6
HIDDEN
 62
     7
100
AcDbLine
 10
8.4080570416
 20
3.7685208061
 30
0.0
 11
9.0008200201
 21
3.7685208061
 31
0.0
  0
LINE
  5
147
330
1F
100
AcDbEntity
  8
0
  6
HIDDEN
 62
     7
100
AcDbLine
 10
8.4080570416
 20
3.7488357667
 30
0.0
 11
9.0008200201
 21
3.7488357667
 31
0.0
  0
LINE
  5
148
330
1F
100
AcDbEntity
  8
0
  6
HIDDEN
 62
     7
100
AcDbLine
 10
8.9012889245
 20
3.4023790738
 30
0.0
 11
8.5075881371
 21
3.4023790738
 31
0.0
  0
ARC
  5
149
330
1F
100
AcDbEntity
  8
0
  6
HIDDEN
 62
     7
100
AcDbCircle
 10
8.2508846063
 20
3.7586782864
 30
0.0
 40
0.1674803149606323
100
AcDbArc
 50
266.6308879105
 51
273.3691120895
  0
LINE
  5
14A
330
1F
100
AcDbEntity
  8
0
  6
HIDDEN
 62
     7
100
AcDbLine
 10
8.260727126
 20
3.0187437455
 30
0.0
 11
8.2410420866
 21
3.0187437455
 31
0.0
  0
LINE
  5
14B
330
1F
100
AcDbEntity
  8
0
  6
HIDDEN
 62
     7
100
AcDbLine
 10
7.886711378
 20
3.3051243619
 30
0.0
 11
7.886711378
 21
3.4724471965
 31
0.0
  0
LINE
  5
14C
330
1F
100
AcDbEntity
  8
0
  6
HIDDEN
 62
     7
100
AcDbLine
 10
7.886711378
 20
3.1378015272
 30
0.0
 11
7.886711378
 21
3.3051243619
 31
0.0
  0
LINE
  5
14D
330
1F
100
AcDbEntity
  8
0
  6
HIDDEN
 62
     7
100
AcDbLine
 10
7.7056090158
 20
3.3051243619
 30
0.0
 11
7.7056090158
 21
3.2437272884
 31
0.0
  0
LINE
  5
14E
330
1F
100
AcDbEntity
  8
0
  6
HIDDEN
 62
     7
100
AcDbLine
 10
7.7056090158
 20
3.4724471965
 30
0.0
 11
7.7056090158
 21
3.3051243619
 31
0.0
  0
LINE
  5
14F
330
1F
100
AcDbEntity
  8
0
  6
HIDDEN
 62
     7
100
AcDbLine
 10
7.697735
 20
3.3051243619
 30
0.0
 11
7.697735
 21
3.4645731808
 31
0.0
  0
LINE
  5
150
330
1F
100
AcDbEntity
  8
0
  6
HIDDEN
 62
     7
100
AcDbLine
 10
7.697735
 20
3.2521948088
 30
0.0
 11
7.697735
 21
3.3051243619
 31
0.0
  0
LINE
  5
151
330
1F
100
AcDbEntity
  8
0
  6
HIDDEN
 62
     7
100
AcDbLine
 10
8.8591523229
 20
3.395675543
 30
0.0
 11
8.8591523229
 21
3.3199182324
 31
0.0
  0
LINE
  5
152
330
1F
100
AcDbEntity
  8
0
  6
HIDDEN
 62
     7
100
AcDbLine
 10
8.8512783071
 20
3.3092036997
 30
0.0
 11
8.8512783071
 21
3.4035495587
 31
0.0
  0
LINE
  5
153
330
1F
100
AcDbEntity
  8
0
  6
HIDDEN
 62
     7
100
AcDbLine
 10
7.7567901181
 20
3.2596637108
 30
0.0
 11
7.7567901181
 21
3.350585013
 31
0.0
  0
LINE
  5
154
330
1F
100
AcDbEntity
  8
0
  6
HIDDEN
 62
     7
100
AcDbLine
 10
7.7567901181
 20
3.2142030596
 30
0.0
 11
7.7567901181
 21
3.2596637108
 31
0.0
  0
LINE
  5
155
330
1F
100
AcDbEntity
  8
0
  6
HIDDEN
 62
     7
100
AcDbLine
 10
7.7567901181
 20
3.2596637108
 30
0.0
 11
7.697735
 21
3.2596637108
 31
0.0
  0
LINE
  5
156
330
1F
100
AcDbEntity
  8
0
  6
HIDDEN
 62
     7
100
AcDbLine
 10
7.7567901181
 20
3.350585013
 30
0.0
 11
7.7567901181
 21
3.3960456641
 31
0.0
  0
LINE
  5
157
330
1F
100
AcDbEntity
  8
0
  6
HIDDEN
 62
     7
100
AcDbLine
 10
7.7567901181
 20
3.350585013
 30
0.0
 11
7.697735
 21
3.350585013
 31
0.0
  0
LINE
  5
158
330
1F
100
AcDbEntity
  8
0
  6
HIDDEN
 62
     7
100
AcDbLine
 10
7.7567901181
 20
3.2142030596
 30
0.0
 11
7.697735
 21
3.2142030596
 31
0.0
  0
LINE
  5
159
330
1F
100
AcDbEntity
  8
0
  6
HIDDEN
 62
     7
100
AcDbLine
 10
7.7567901181
 20
3.3960456641
 30
0.0
 11
7.697735
 21
3.3960456641
 31
0.0
  0
LINE
  5
15A
330
1F
100
AcDbEntity
  8
0
  6
HIDDEN
 62
     7
100
AcDbLine
 10
8.8579818379
 20
3.2134026958
 30
0.0
 11
8.5371156962
 21
3.2134026958
 31
0.0
  0
LINE
  5
15B
330
1F
100
AcDbEntity
  8
0
  6
HIDDEN
 62
     7
100
AcDbLine
 10
8.5371156962
 20
3.394505058
 30
0.0
 11
8.8717613655
 21
3.394505058
 31
0.0
  0
LINE
  5
15C
330
1F
100
AcDbEntity
  8
0
  6
HIDDEN
 62
     7
100
AcDbLine
 10
8.5449897119
 20
3.2055286801
 30
0.0
 11
8.7573680839
 21
3.2055286801
 31
0.0
  0
LINE
  5
15D
330
1F
100
AcDbEntity
  8
0
  6
HIDDEN
 62
     7
100
AcDbLine
 10
8.606013334
 20
4.3590719872
 30
0.0
 11
8.700359193
 21
4.3590719872
 31
0.0
  0
LINE
  5
15E
330
1F
100
AcDbEntity
  8
0
  6
HIDDEN
 62
     7
100
AcDbLine
 10
8.6896446604
 20
4.3669460029
 30
0.0
 11
8.6138873497
 21
4.3669460029
 31
0.0
  0
LINE
  5
15F
330
1F
100
AcDbEntity
  8
0
  6
HIDDEN
 62
     7
100
AcDbLine
 10
8.749899182
 20
3.2645837982
 30
0.0
 11
8.7953598331
 21
3.2645837982
 31
0.0
  0
LINE
  5
160
330
1F
100
AcDbEntity
  8
0
  6
HIDDEN
 62
     7
100
AcDbLine
 10
8.6589778797
 20
3.2645837982
 30
0.0
 11
8.749899182
 21
3.2645837982
 31
0.0
  0
LINE
  5
161
330
1F
100
AcDbEntity
  8
0
  6
HIDDEN
 62
     7
100
AcDbLine
 10
8.749899182
 20
3.2645837982
 30
0.0
 11
8.749899182
 21
3.2055286801
 31
0.0
  0
LINE
  5
162
330
1F
100
AcDbEntity
  8
0
  6
HIDDEN
 62
     7
100
AcDbLine
 10
8.6589778797
 20
3.2645837982
 30
0.0
 11
8.6589778797
 21
3.2055286801
 31
0.0
  0
LINE
  5
163
330
1F
100
AcDbEntity
  8
0
  6
HIDDEN
 62
     7
100
AcDbLine
 10
8.6135172286
 20
3.2645837982
 30
0.0
 11
8.6589778797
 21
3.2645837982
 31
0.0
  0
LINE
  5
164
330
1F
100
AcDbEntity
  8
0
  6
HIDDEN
 62
     7
100
AcDbLine
 10
8.7953598331
 20
3.2645837982
 30
0.0
 11
8.7953598331
 21
3.2055286801
 31
0.0
  0
LINE
  5
165
330
1F
100
AcDbEntity
  8
0
  6
HIDDEN
 62
     7
100
AcDbLine
 10
8.6135172286
 20
3.2645837982
 30
0.0
 11
8.6135172286
 21
3.2055286801
 31
0.0
  0
LINE
  5
166
330
1F
100
AcDbEntity
  8
0
  6
HIDDEN
 62
     7
100
AcDbLine
 10
7.8771247863
 20
3.1082739682
 30
0.0
 11
7.8945853937
 21
3.1082739682
 31
0.0
  0
LINE
  5
167
330
1F
100
AcDbEntity
  8
0
  6
HIDDEN
 62
     7
100
AcDbLine
 10
7.8945853937
 20
3.5019747556
 30
0.0
 11
7.5463665622
 21
3.5019747556
 31
0.0
  0
LINE
  5
168
330
1F
100
AcDbEntity
  8
0
  6
HIDDEN
 62
     7
100
AcDbLine
 10
8.260727126
 20
3.1968566453
 30
0.0
 11
8.7478334252
 21
3.1968566453
 31
0.0
  0
LINE
  5
169
330
1F
100
AcDbEntity
  8
0
  6
HIDDEN
 62
     7
100
AcDbLine
 10
8.9165447086
 20
3.4133920784
 30
0.0
 11
8.260727126
 21
3.4133920784
 31
0.0
  0
LINE
  5
16A
330
1F
100
AcDbEntity
  8
0
  6
HIDDEN
 62
     7
100
AcDbLine
 10
7.8945853937
 20
3.1968566453
 30
0.0
 11
8.2410420866
 21
3.1968566453
 31
0.0
  0
LINE
  5
16B
330
1F
100
AcDbEntity
  8
0
  6
HIDDEN
 62
     7
100
AcDbLine
 10
8.2410420866
 20
3.4133920784
 30
0.0
 11
7.8945853937
 21
3.4133920784
 31
0.0
  0
LINE
  5
16C
330
1F
100
AcDbEntity
  8
0
  6
HIDDEN
 62
     7
100
AcDbLine
 10
8.9012889245
 20
3.3852158079
 30
0.0
 11
8.9012889245
 21
3.4023790738
 31
0.0
  0
LINE
  5
16D
330
1F
100
AcDbEntity
  8
0
  6
HIDDEN
 62
     7
100
AcDbLine
 10
8.5075881371
 20
3.4023790738
 30
0.0
 11
8.5075881371
 21
3.0541963654
 31
0.0
  0
LINE
  5
16E
330
1F
100
AcDbEntity
  8
0
  6
HIDDEN
 62
     7
100
AcDbLine
 10
8.8127062474
 20
3.4023790738
 30
0.0
 11
8.8127062474
 21
3.7488357667
 31
0.0
  0
LINE
  5
16F
330
1F
100
AcDbEntity
  8
0
  6
HIDDEN
 62
     7
100
AcDbLine
 10
8.5961708143
 20
3.7488357667
 30
0.0
 11
8.5961708143
 21
3.4023790738
 31
0.0
  0
LINE
  5
170
330
1F
100
AcDbEntity
  8
0
  6
HIDDEN
 62
     7
100
AcDbLine
 10
8.8127062474
 20
3.7685208061
 30
0.0
 11
8.8127062474
 21
4.2555247855
 31
0.0
  0
LINE
  5
171
330
1F
100
AcDbEntity
  8
0
  6
HIDDEN
 62
     7
100
AcDbLine
 10
8.5961708143
 20
4.4243039937
 30
0.0
 11
8.5961708143
 21
3.7685208061
 31
0.0
  0
LINE
  5
172
330
1F
100
AcDbEntity
  8
0
  6
HIDDEN
 62
     7
100
AcDbLine
 10
7.886711378
 20
3.1378015272
 30
0.0
 11
7.8945853937
 21
3.145675543
 31
0.0
  0
LINE
  5
173
330
1F
100
AcDbEntity
  8
0
  6
HIDDEN
 62
     7
100
AcDbLine
 10
7.8945853937
 20
3.4645731808
 30
0.0
 11
7.886711378
 21
3.4724471965
 31
0.0
  0
LINE
  5
174
330
1F
100
AcDbEntity
  8
0
  6
HIDDEN
 62
     7
100
AcDbLine
 10
7.886711378
 20
3.4724471965
 30
0.0
 11
7.7056090158
 21
3.4724471965
 31
0.0
  0
LINE
  5
175
330
1F
100
AcDbEntity
  8
0
  6
HIDDEN
 62
     7
100
AcDbLine
 10
7.8301566064
 20
3.1378015272
 30
0.0
 11
7.886711378
 21
3.1378015272
 31
0.0
  0
LINE
  5
176
330
1F
100
AcDbEntity
  8
0
  6
HIDDEN
 62
     7
100
AcDbLine
 10
7.7056090158
 20
3.4724471965
 30
0.0
 11
7.697735
 21
3.4645731808
 31
0.0
  0
LINE
  5
177
330
1F
100
AcDbEntity
  8
0
  6
HIDDEN
 62
     7
100
AcDbLine
 10
8.8591523229
 20
3.395675543
 30
0.0
 11
8.8512783071
 21
3.4035495587
 31
0.0
  0
LINE
  5
178
330
1F
100
AcDbEntity
  8
0
  6
HIDDEN
 62
     7
100
AcDbLine
 10
7.8945853937
 20
3.206699165
 30
0.0
 11
8.2410420866
 21
3.206699165
 31
0.0
  0
LINE
  5
179
330
1F
100
AcDbEntity
  8
0
  6
HIDDEN
 62
     7
100
AcDbLine
 10
8.260727126
 20
3.206699165
 30
0.0
 11
8.7586434562
 21
3.206699165
 31
0.0
  0
LINE
  5
17A
330
1F
100
AcDbEntity
  8
0
  6
HIDDEN
 62
     7
100
AcDbLine
 10
8.8512783071
 20
3.4035495587
 30
0.0
 11
8.260727126
 21
3.4035495587
 31
0.0
  0
LINE
  5
17B
330
1F
100
AcDbEntity
  8
0
  6
HIDDEN
 62
     7
100
AcDbLine
 10
8.2410420866
 20
3.4035495587
 30
0.0
 11
7.8945853937
 21
3.4035495587
 31
0.0
  0
LINE
  5
17C
330
1F
100
AcDbEntity
  8
0
  6
HIDDEN
 62
     7
100
AcDbLine
 10
8.5371156962
 20
3.394505058
 30
0.0
 11
8.5371156962
 21
3.2134026958
 31
0.0
  0
LINE
  5
17D
330
1F
100
AcDbEntity
  8
0
  6
HIDDEN
 62
     7
100
AcDbLine
 10
8.8717613655
 20
3.3379502864
 30
0.0
 11
8.8717613655
 21
3.394505058
 31
0.0
  0
LINE
  5
17E
330
1F
100
AcDbEntity
  8
0
  6
HIDDEN
 62
     7
100
AcDbLine
 10
8.8717613655
 20
3.394505058
 30
0.0
 11
8.8638873497
 21
3.4023790738
 31
0.0
  0
LINE
  5
17F
330
1F
100
AcDbEntity
  8
0
  6
HIDDEN
 62
     7
100
AcDbLine
 10
8.5449897119
 20
3.4023790738
 30
0.0
 11
8.5371156962
 21
3.394505058
 31
0.0
  0
LINE
  5
180
330
1F
100
AcDbEntity
  8
0
  6
HIDDEN
 62
     7
100
AcDbLine
 10
8.5371156962
 20
3.2134026958
 30
0.0
 11
8.5449897119
 21
3.2055286801
 31
0.0
  0
LINE
  5
181
330
1F
100
AcDbEntity
  8
0
  6
HIDDEN
 62
     7
100
AcDbLine
 10
8.8028637277
 20
3.4023790738
 30
0.0
 11
8.8028637277
 21
4.2664371362
 31
0.0
  0
LINE
  5
182
330
1F
100
AcDbEntity
  8
0
  6
HIDDEN
 62
     7
100
AcDbLine
 10
8.606013334
 20
4.3590719872
 30
0.0
 11
8.606013334
 21
3.4023790738
 31
0.0
  0
LINE
  5
183
330
1F
100
AcDbEntity
  8
0
  6
HIDDEN
 62
     7
100
AcDbLine
 10
8.6138873497
 20
4.3669460029
 30
0.0
 11
8.606013334
 21
4.3590719872
 31
0.0
  0
LINE
  5
184
330
1F
100
AcDbEntity
  8
0
  6
CONTINUOUS
 62
     7
100
AcDbLine
 10
3.6750613002
 20
5.9219771389
 30
0.0
 11
4.1296282294
 21
5.9219771389
 31
0.0
  0
LINE
  5
185
330
1F
100
AcDbEntity
  8
0
  6
CONTINUOUS
 62
     7
100
AcDbLine
 10
2.5236439774
 20
5.9219771389
 30
0.0
 11
3.6553762609
 21
5.9219771389
 31
0.0
  0
LINE
  5
186
330
1F
100
AcDbEntity
  8
0
  6
CONTINUOUS
 62
     7
100
AcDbLine
 10
3.6553762609
 20
7.4219771389
 30
0.0
 11
2.9978959459
 21
7.4219771389
 31
0.0
  0
LINE
  5
187
330
1F
100
AcDbEntity
  8
0
  6
CONTINUOUS
 62
     7
100
AcDbLine
 10
4.1296282294
 20
7.4219771389
 30
0.0
 11
3.6750613002
 21
7.4219771389
 31
0.0
  0
LINE
  5
188
330
1F
100
AcDbEntity
  8
0
  6
CONTINUOUS
 62
     7
100
AcDbLine
 10
2.5136439774
 20
5.9319771389
 30
0.0
 11
2.5236439774
 21
5.9219771389
 31
0.0
  0
LINE
  5
189
330
1F
100
AcDbEntity
  8
0
  6
CONTINUOUS
 62
     7
100
AcDbLine
 10
4.1296282294
 20
5.9219771389
 30
0.0
 11
4.1396282294
 21
5.9319771389
 31
0.0
  0
LINE
  5
18A
330
1F
100
AcDbEntity
  8
0
  6
CONTINUOUS
 62
     7
100
AcDbLine
 10
4.1396282294
 20
7.4119771389
 30
0.0
 11
4.1296282294
 21
7.4219771389
 31
0.0
  0
LINE
  5
18B
330
1F
100
AcDbEntity
  8
0
  6
CONTINUOUS
 62
     7
100
AcDbLine
 10
2.5236439774
 20
7.4219125527
 30
0.0
 11
2.5236439774
 21
5.9219771389
 31
0.0
  0
LINE
  5
18C
330
1F
100
AcDbEntity
  8
0
  6
CONTINUOUS
 62
     7
100
AcDbLine
 10
2.9782109065
 20
7.4219125527
 30
0.0
 11
2.5236439774
 21
7.4219125527
 31
0.0
  0
LINE
  5
18D
330
1F
100
AcDbEntity
  8
0
  6
CONTINUOUS
 62
     7
100
AcDbLine
 10
2.9782109065
 20
6.2182369814
 30
0.0
 11
2.9782109065
 21
7.4219125527
 31
0.0
  0
LINE
  5
18E
330
1F
100
AcDbEntity
  8
0
  6
CONTINUOUS
 62
     7
100
AcDbLine
 10
2.9978959459
 20
6.2182369814
 30
0.0
 11
2.9782109065
 21
6.2182369814
 31
0.0
  0
LINE
  5
18F
330
1F
100
AcDbEntity
  8
0
  6
CONTINUOUS
 62
     7
100
AcDbLine
 10
2.9978959459
 20
7.4219771389
 30
0.0
 11
2.9978959459
 21
6.2182369814
 31
0.0
  0
LINE
  5
190
330
1F
100
AcDbEntity
  8
0
  6
CONTINUOUS
 62
     7
100
AcDbLine
 10
3.6750613002
 20
5.982970531
 30
0.0
 11
3.6750613002
 21
5.9219771389
 31
0.0
  0
LINE
  5
191
330
1F
100
AcDbEntity
  8
0
  6
CONTINUOUS
 62
     7
100
AcDbLine
 10
3.6553762609
 20
5.982970531
 30
0.0
 11
3.6750613002
 21
5.982970531
 31
0.0
  0
LINE
  5
192
330
1F
100
AcDbEntity
  8
0
  6
CONTINUOUS
 62
     7
100
AcDbLine
 10
3.6553762609
 20
7.3609837468
 30
0.0
 11
3.6553762609
 21
7.4219771389
 31
0.0
  0
LINE
  5
193
330
1F
100
AcDbEntity
  8
0
  6
CONTINUOUS
 62
     7
100
AcDbLine
 10
3.6553762609
 20
5.9219771389
 30
0.0
 11
3.6553762609
 21
5.982970531
 31
0.0
  0
LINE
  5
194
330
1F
100
AcDbEntity
  8
0
  6
CONTINUOUS
 62
     7
100
AcDbLine
 10
3.6750613002
 20
7.3609837468
 30
0.0
 11
3.6553762609
 21
7.3609837468
 31
0.0
  0
LINE
  5
195
330
1F
100
AcDbEntity
  8
0
  6
CONTINUOUS
 62
     7
100
AcDbLine
 10
3.6750613002
 20
7.4219771389
 30
0.0
 11
3.6750613002
 21
7.3609837468
 31
0.0
  0
LINE
  5
196
330
1F
100
AcDbEntity
  8
0
  6
CONTINUOUS
 62
     7
100
AcDbLine
 10
4.1296282294
 20
5.9219771389
 30
0.0
 11
4.1296282294
 21
7.4219771389
 31
0.0
  0
SPLINE
  5
197
330
1F
100
AcDbEntity
  8
0
  6
CONTINUOUS
 62
     7
100
AcDbSpline
210
0.0
220
0.0
230
1.0
 70
     8
 71
     3
 72
    62
 73
    58
 74
     0
 42
0.00000001
 43
0.00000001
 40
-0.0312500000000003
 40
-0.0312500000000003
 40
0.0
 40
0.0
 40
0.0312499999999998
 40
0.0312499999999998
 40
0.0624999999999997
 40
0.0624999999999997
 40
0.0937499999999995
 40
0.0937499999999995
 40
0.1249999999999994
 40
0.1249999999999994
 40
0.1874999999999991
 40
0.1874999999999991
 40
0.2187499999999989
 40
0.2187499999999989
 40
0.2499999999999988
 40
0.2499999999999988
 40
0.3124999999999989
 40
0.3124999999999989
 40
0.3437499999999989
 40
0.3437499999999989
 40
0.3749999999999988
 40
0.3749999999999988
 40
0.4062499999999987
 40
0.4062499999999987
 40
0.4374999999999986
 40
0.4374999999999986
 40
0.4687499999999985
 40
0.4687499999999985
 40
0.4999999999999984
 40
0.4999999999999984
 40
0.5312499999999984
 40
0.5312499999999984
 40
0.5624999999999983
 40
0.5624999999999983
 40
0.5937499999999983
 40
0.5937499999999983
 40
0.6249999999999982
 40
0.6249999999999982
 40
0.6562499999999982
 40
0.6562499999999982
 40
0.6874999999999982
 40
0.6874999999999982
 40
0.7499999999999986
 40
0.7499999999999986
 40
0.8124999999999988
 40
0.8124999999999988
 40
0.843749999999999
 40
0.843749999999999
 40
0.8749999999999991
 40
0.8749999999999991
 40
0.9062499999999993
 40
0.9062499999999993
 40
0.9374999999999996
 40
0.9374999999999996
 40
0.9687499999999997
 40
0.9687499999999997
 40
1.0
 40
1.0
 40
1.03125
 40
1.03125
 10
2.737736749264378
 20
7.233798779961405
 30
0.0
 10
2.75411813467008
 20
7.233798779961404
 30
0.0
 10
2.762036975931895
 20
7.232882738139692
 30
0.0
 10
2.777400161010108
 20
7.229422194445165
 30
0.0
 10
2.784674655785879
 20
7.226895702586186
 30
0.0
 10
2.798044406734455
 20
7.220714878406464
 30
0.0
 10
2.804219628742301
 20
7.217023781737653
 30
0.0
 10
2.815294433436341
 20
7.208940397661443
 30
0.0
 10
2.820275763156177
 20
7.204509133997443
 30
0.0
 10
2.833803685267191
 20
7.19012908592916
 30
0.0
 10
2.840618575154451
 20
7.179494018172681
 30
0.0
 10
2.847977082201514
 20
7.162231166398849
 30
0.0
 10
2.84994743921451
 20
7.156206960255879
 30
0.0
 10
2.852792067422902
 20
7.144000559896156
 30
0.0
 10
2.853686220675824
 20
7.137784954319523
 30
0.0
 10
2.854726798339102
 20
7.118789131590678
 30
0.0
 10
2.853180271359556
 20
7.105511096716853
 30
0.0
 10
2.847034269350655
 20
7.086226796364626
 30
0.0
 10
2.844327552558768
 20
7.079818610363382
 30
0.0
 10
2.837522442723373
 20
7.067371232219987
 30
0.0
 10
2.833488478354736
 20
7.061432173916317
 30
0.0
 10
2.824052056119879
 20
7.050217403356069
 30
0.0
 10
2.818571038390331
 20
7.044892546554353
 30
0.0
 10
2.806592649891399
 20
7.035534424310647
 30
0.0
 10
2.80007221522491
 20
7.031443939847653
 30
0.0
 10
2.785872027447615
 20
7.024593095420035
 30
0.0
 10
2.778262389993675
 20
7.021896948580198
 30
0.0
 10
2.762718585025779
 20
7.018276058234944
 30
0.0
 10
2.754563214695653
 20
7.017305424887025
 30
0.0
 10
2.738381087905484
 20
7.017224009416759
 30
0.0
 10
2.7303806552123
 20
7.018079552384596
 30
0.0
 10
2.714562825144101
 20
7.021589778966829
 30
0.0
 10
2.707003496314337
 20
7.024195570167079
 30
0.0
 10
2.692744619425058
 20
7.030897331989129
 30
0.0
 10
2.685996378786665
 20
7.035041074807454
 30
0.0
 10
2.673892099647842
 20
7.044345597786727
 30
0.0
 10
2.66839932453965
 20
7.04959711866769
 30
0.0
 10
2.658795422778358
 20
7.060842701331325
 30
0.0
 10
2.654710891738921
 20
7.066779964866583
 30
0.0
 10
2.647828983093718
 20
7.079175449050467
 30
0.0
 10
2.645055002567176
 20
7.085622539752006
 30
0.0
 10
2.638764892062629
 20
7.104982347262546
 30
0.0
 10
2.637154239997531
 20
7.118265741896691
 30
0.0
 10
2.638441324252168
 20
7.143728009933795
 30
0.0
 10
2.641343290380564
 20
7.156188361360701
 30
0.0
 10
2.648633610025106
 20
7.173434745631058
 30
0.0
 10
2.651556761906348
 20
7.178977002482581
 30
0.0
 10
2.658458361735498
 20
7.189651681484524
 30
0.0
 10
2.66245416866562
 20
7.194790223345269
 30
0.0
 10
2.671392303961875
 20
7.204329107760425
 30
0.0
 10
2.676354347739432
 20
7.208772419875976
 30
0.0
 10
2.687488102680419
 20
7.21693337459909
 30
0.0
 10
2.693651080033976
 20
7.220625751927233
 30
0.0
 10
2.706969851736698
 20
7.226813460522201
 30
0.0
 10
2.714301339173578
 20
7.229373767944574
 30
0.0
 10
2.729611283885515
 20
7.232849750732074
 30
0.0
 10
2.737736749264378
 20
7.233798779961405
 30
0.0
 10
2.75411813467008
 20
7.233798779961404
 30
0.0
  0
LINE
  5
198
330
1F
100
AcDbEntity
  8
0
  6
CONTINUOUS
 62
     7
100
AcDbLine
 10
2.5136439774
 20
7.4119116798
 30
0.0
 11
2.5236439774
 21
7.4219125527
 31
0.0
  0
LINE
  5
199
330
1F
100
AcDbEntity
  8
0
  6
CONTINUOUS
 62
     7
100
AcDbLine
 10
2.5136439774
 20
5.9319771389
 30
0.0
 11
2.5136439774
 21
7.4119116798
 31
0.0
  0
LINE
  5
19A
330
1F
100
AcDbEntity
  8
0
  6
CONTINUOUS
 62
     7
100
AcDbLine
 10
4.1396282294
 20
7.4119771389
 30
0.0
 11
4.1396282294
 21
5.9319771389
 31
0.0
  0
LINE
  5
19B
330
1F
100
AcDbEntity
  8
0
  6
CONTINUOUS
 62
     7
100
AcDbLine
 10
2.745927442
 20
7.0172633469
 30
0.0
 11
2.7483252343
 21
7.017289902
 31
0.0
  0
ARC
  5
19C
330
1F
100
AcDbEntity
  8
0
  6
CONTINUOUS
 62
     7
100
AcDbCircle
 10
2.745927442
 20
7.1255310634
 30
0.0
 40
0.1082677165354321
100
AcDbArc
 50
89.0564137073
 51
102.9272363689
  0
LINE
  5
19D
330
1F
100
AcDbEntity
  8
0
  6
CONTINUOUS
 62
     7
100
AcDbLine
 10
2.7394605629
 20
7.0174566542
 30
0.0
 11
2.745927442
 21
7.0172633469
 31
0.0
  0
CIRCLE
  5
19E
330
1F
100
AcDbEntity
  8
0
  6
CONTINUOUS
 62
     7
100
AcDbCircle
 10
2.745927442
 20
7.1255310634
 30
0.0
 40
0.0905511811023629
  0
CIRCLE
  5
19F
330
1F
100
AcDbEntity
  8
0
  6
CONTINUOUS
 62
     7
100
AcDbCircle
 10
2.745927442
 20
7.1255310634
 30
0.0
 40
0.098425196850394
  0
SPLINE
  5
1A0
330
1F
100
AcDbEntity
  8
0
  6
HIDDEN
 62
     7
100
AcDbSpline
210
0.0
220
0.0
230
1.0
 70
     8
 71
     3
 72
    68
 73
    64
 74
     0
 42
0.00000001
 43
0.00000001
 40
-0.0625000000000002
 40
-0.0625000000000002
 40
0.0
 40
0.0
 40
0.0624999999999996
 40
0.0624999999999996
 40
0.0937499999999996
 40
0.0937499999999996
 40
0.1249999999999996
 40
0.1249999999999996
 40
0.1562499999999996
 40
0.1562499999999996
 40
0.1874999999999996
 40
0.1874999999999996
 40
0.2187499999999996
 40
0.2187499999999996
 40
0.2499999999999996
 40
0.2499999999999996
 40
0.2812499999999996
 40
0.2812499999999996
 40
0.3124999999999996
 40
0.3124999999999996
 40
0.3437499999999996
 40
0.3437499999999996
 40
0.3749999999999996
 40
0.3749999999999996
 40
0.4062499999999996
 40
0.4062499999999996
 40
0.4374999999999996
 40
0.4374999999999996
 40
0.4687499999999996
 40
0.4687499999999996
 40
0.4999999999999996
 40
0.4999999999999996
 40
0.5312499999999996
 40
0.5312499999999996
 40
0.5624999999999996
 40
0.5624999999999996
 40
0.5937499999999996
 40
0.5937499999999996
 40
0.6249999999999996
 40
0.6249999999999996
 40
0.6562499999999996
 40
0.6562499999999996
 40
0.6874999999999996
 40
0.6874999999999996
 40
0.7187499999999996
 40
0.7187499999999996
 40
0.7343749999999994
 40
0.7343749999999994
 40
0.7499999999999993
 40
0.7499999999999993
 40
0.7656249999999992
 40
0.7656249999999992
 40
0.7812499999999991
 40
0.7812499999999991
 40
0.8124999999999992
 40
0.8124999999999992
 40
0.8437499999999993
 40
0.8437499999999993
 40
0.8749999999999994
 40
0.8749999999999994
 40
0.9374999999999998
 40
0.9374999999999998
 40
1.0
 40
1.0
 40
1.0625
 40
1.0625
 10
4.015612481337308
 20
7.259473390221592
 30
0.0
 10
4.015612481337308
 20
7.279116962007124
 30
0.0
 10
4.013369442596536
 20
7.288269076313656
 30
0.0
 10
4.006019873455579
 20
7.301030205652044
 30
0.0
 10
4.002878208204952
 20
7.305106527358307
 30
0.0
 10
3.995329753358929
 20
7.312602832321051
 30
0.0
 10
3.990902036015766
 20
7.316069366707523
 30
0.0
 10
3.980547423098626
 20
7.322429673732618
 30
0.0
 10
3.974814522959625
 20
7.325204548368988
 30
0.0
 10
3.962201157024854
 20
7.330001849968133
 30
0.0
 10
3.955205594016699
 20
7.33204703904796
 30
0.0
 10
3.9405082555679
 20
7.335212307235205
 30
0.0
 10
3.932858962321405
 20
7.336341280404491
 30
0.0
 10
3.916934611340995
 20
7.337705230390645
 30
0.0
 10
3.908749884581988
 20
7.337918262903808
 30
0.0
 10
3.892687124788874
 20
7.337407087566442
 30
0.0
 10
3.884597577530133
 20
7.336671345755567
 30
0.0
 10
3.869265880561168
 20
7.334306630296599
 30
0.0
 10
3.861933136318451
 20
7.332677975730667
 30
0.0
 10
3.848141623439604
 20
7.328532639875559
 30
0.0
 10
3.841866914558354
 20
7.326076153370434
 30
0.0
 10
3.830449181154623
 20
7.32038506577681
 30
0.0
 10
3.82533669561855
 20
7.317146235659746
 30
0.0
 10
3.816581097571754
 20
7.310133220192342
 30
0.0
 10
3.81285048879653
 20
7.306296371789721
 30
0.0
 10
3.806763465049754
 20
7.298146166709917
 30
0.0
 10
3.80441912736299
 20
7.293869693103815
 30
0.0
 10
3.80097295131536
 20
7.28490989224172
 30
0.0
 10
3.799877117350003
 20
7.280200178512874
 30
0.0
 10
3.79889532630355
 20
7.270632299739927
 30
0.0
 10
3.798992953192182
 20
7.265746702680747
 30
0.0
 10
3.800287133925035
 20
7.255772353954964
 30
0.0
 10
3.801497239467898
 20
7.250662549150058
 30
0.0
 10
3.804925591371657
 20
7.240514319480097
 30
0.0
 10
3.807143548769817
 20
7.235445183181295
 30
0.0
 10
3.812591924170152
 20
7.225339244491393
 30
0.0
 10
3.815848338271637
 20
7.220267806480863
 30
0.0
 10
3.823361688873378
 20
7.210379481327006
 30
0.0
 10
3.827591282595052
 20
7.205585022451264
 30
0.0
 10
3.837115998421706
 20
7.196392886587352
 30
0.0
 10
3.842465225761767
 20
7.191954203736847
 30
0.0
 10
3.854255977566408
 20
7.183872226146442
 30
0.0
 10
3.86064158799201
 20
7.180249293030257
 30
0.0
 10
3.874689541631974
 20
7.174178600837961
 30
0.0
 10
3.882212831318347
 20
7.171813341039925
 30
0.0
 10
3.89403931154837
 20
7.169667424091054
 30
0.0
 10
3.898114040968719
 20
7.169183802549954
 30
0.0
 10
3.906182046882641
 20
7.168745621147902
 30
0.0
 10
3.910209209423624
 20
7.168781889931909
 30
0.0
 10
3.918249965050038
 20
7.169360733053772
 30
0.0
 10
3.922299704548827
 20
7.169912198062793
 30
0.0
 10
3.93016008603634
 20
7.171476186085425
 30
0.0
 10
3.933976841565878
 20
7.17248314454292
 30
0.0
 10
3.945122114059517
 20
7.176099361066749
 30
0.0
 10
3.952120275684386
 20
7.179312580680293
 30
0.0
 10
3.964793645300781
 20
7.18660440049224
 30
0.0
 10
3.970624079493677
 20
7.190759858742081
 30
0.0
 10
3.981145889640279
 20
7.199597554478427
 30
0.0
 10
3.985807543486044
 20
7.204240475293116
 30
0.0
 10
3.998311368043989
 20
7.218636791186152
 30
0.0
 10
4.004696471924245
 20
7.228919091370794
 30
0.0
 10
4.013296279915878
 20
7.249221358751966
 30
0.0
 10
4.015612481337308
 20
7.259473390221592
 30
0.0
 10
4.015612481337308
 20
7.279116962007124
 30
0.0
  0
SPLINE
  5
1A1
330
1F
100
AcDbEntity
  8
0
  6
HIDDEN
 62
     7
100
AcDbSpline
210
0.0
220
0.0
230
1.0
 70
     8
 71
     3
 72
    76
 73
    72
 74
     0
 42
0.00000001
 43
0.00000001
 40
-0.0312500000000001
 40
-0.0312500000000001
 40
0.0
 40
0.0
 40
0.0624999999999996
 40
0.0624999999999996
 40
0.0937499999999994
 40
0.0937499999999994
 40
0.1249999999999992
 40
0.1249999999999992
 40
0.1562499999999991
 40
0.1562499999999991
 40
0.1874999999999988
 40
0.1874999999999988
 40
0.2187499999999986
 40
0.2187499999999986
 40
0.2499999999999984
 40
0.2499999999999984
 40
0.2656249999999983
 40
0.2656249999999983
 40
0.2812499999999982
 40
0.2812499999999982
 40
0.2968749999999982
 40
0.2968749999999982
 40
0.3124999999999981
 40
0.3124999999999981
 40
0.3437499999999978
 40
0.3437499999999978
 40
0.3749999999999976
 40
0.3749999999999976
 40
0.4062499999999975
 40
0.4062499999999975
 40
0.4374999999999973
 40
0.4374999999999973
 40
0.4687499999999972
 40
0.4687499999999972
 40
0.4999999999999971
 40
0.4999999999999971
 40
0.5624999999999969
 40
0.5624999999999969
 40
0.593749999999997
 40
0.593749999999997
 40
0.609374999999997
 40
0.609374999999997
 40
0.6249999999999971
 40
0.6249999999999971
 40
0.6562499999999973
 40
0.6562499999999973
 40
0.6874999999999976
 40
0.6874999999999976
 40
0.7187499999999978
 40
0.7187499999999978
 40
0.749999999999998
 40
0.749999999999998
 40
0.7812499999999983
 40
0.7812499999999983
 40
0.7968749999999984
 40
0.7968749999999984
 40
0.8124999999999988
 40
0.8124999999999988
 40
0.8437499999999991
 40
0.8437499999999991
 40
0.8593749999999991
 40
0.8593749999999991
 40
0.8749999999999991
 40
0.8749999999999991
 40
0.9062499999999993
 40
0.9062499999999993
 40
0.9374999999999997
 40
0.9374999999999997
 40
0.9687499999999999
 40
0.9687499999999999
 40
1.0
 40
1.0
 40
1.0625
 40
1.0625
 10
4.104195158502663
 20
6.06549653010493
 30
0.0
 10
4.104195158502663
 20
6.092984244945625
 30
0.0
 10
4.099906598185635
 20
6.112303812791499
 30
0.0
 10
4.088425672059034
 20
6.14267480681316
 30
0.0
 10
4.083741413891006
 20
6.152980799603641
 30
0.0
 10
4.07293117479304
 20
6.17351149201997
 30
0.0
 10
4.066785398820589
 20
6.183794674447218
 30
0.0
 10
4.052948952729858
 20
6.204303486071824
 30
0.0
 10
4.04520692436845
 20
6.214591956520188
 30
0.0
 10
4.028212157842129
 20
6.234526422932632
 30
0.0
 10
4.018968887115191
 20
6.244194319325196
 30
0.0
 10
3.998486115468932
 20
6.262488057173999
 30
0.0
 10
3.987189274031793
 20
6.271148467586339
 30
0.0
 10
3.962491403700351
 20
6.285774841899459
 30
0.0
 10
3.948788898917425
 20
6.291858908659139
 30
0.0
 10
3.927012800868974
 20
6.297036384061124
 30
0.0
 10
3.919412959890232
 20
6.298120396699492
 30
0.0
 10
3.904378574589659
 20
6.298725692042164
 30
0.0
 10
3.896899408670111
 20
6.298276621464546
 30
0.0
 10
3.882014954830643
 20
6.295923204052444
 30
0.0
 10
3.874685331961525
 20
6.294017324774053
 30
0.0
 10
3.860699217686947
 20
6.289130101027714
 30
0.0
 10
3.853912493052897
 20
6.286109498889482
 30
0.0
 10
3.834595690557007
 20
6.275952306778878
 30
0.0
 10
3.823071050555227
 20
6.267805700466354
 30
0.0
 10
3.801721163147234
 20
6.249990641273027
 30
0.0
 10
3.792056651878179
 20
6.24041009406881
 30
0.0
 10
3.774509588878835
 20
6.220840415432042
 30
0.0
 10
3.766565107795353
 20
6.210779742008324
 30
0.0
 10
3.752081471213668
 20
6.190337131073534
 30
0.0
 10
3.745536429144515
 20
6.179919785878204
 30
0.0
 10
3.734090697172839
 20
6.159352599889113
 30
0.0
 10
3.729146151804067
 20
6.149144336756746
 30
0.0
 10
3.720844976955876
 20
6.1289316617446
 30
0.0
 10
3.717476081622087
 20
6.118877629857078
 30
0.0
 10
3.710155655588328
 20
6.089396538635109
 30
0.0
 10
3.70894472460016
 20
6.071023703733454
 30
0.0
 10
3.714401809308415
 20
6.045467830096998
 30
0.0
 10
3.717413300430014
 20
6.037522182412017
 30
0.0
 10
3.723909810421005
 20
6.026411476185244
 30
0.0
 10
3.726406870744381
 20
6.022842800063659
 30
0.0
 10
3.73212241561958
 20
6.015969873148168
 30
0.0
 10
3.735358638430359
 20
6.012655194328963
 30
0.0
 10
3.745982825216012
 20
6.003328087487001
 30
0.0
 10
3.754329316813312
 20
5.997848553132904
 30
0.0
 10
3.773736669045
 20
5.988177488562537
 30
0.0
 10
3.784954285694257
 20
5.983963088189807
 30
0.0
 10
3.809098721985435
 20
5.977098643855639
 30
0.0
 10
3.822117944046411
 20
5.974374844561064
 30
0.0
 10
3.850182483898787
 20
5.970173327827579
 30
0.0
 10
3.864643587014019
 20
5.968780873320598
 30
0.0
 10
3.894329413185133
 20
5.96722141763287
 30
0.0
 10
3.909674899969981
 20
5.967072652208358
 30
0.0
 10
3.932067675515726
 20
5.967792983363188
 30
0.0
 10
3.939476652881945
 20
5.968188382520835
 30
0.0
 10
3.954182930158643
 20
5.96930464538648
 30
0.0
 10
3.961528429998705
 20
5.970032505951618
 30
0.0
 10
3.982905739598831
 20
5.972695902087578
 30
0.0
 10
3.996348586097336
 20
5.975096190907242
 30
0.0
 10
4.015323056964282
 20
5.979796438793326
 30
0.0
 10
4.021454802351195
 20
5.981555203984469
 30
0.0
 10
4.033006525401068
 20
5.98538684460537
 30
0.0
 10
4.038469424871448
 20
5.987469041401928
 30
0.0
 10
4.053953544347082
 20
5.994252481712315
 30
0.0
 10
4.063149355889102
 20
5.999560792011291
 30
0.0
 10
4.078545289719964
 20
6.011410579928944
 30
0.0
 10
4.084831024195938
 20
6.017961096033255
 30
0.0
 10
4.094818831187581
 20
6.032454216992837
 30
0.0
 10
4.098392347843786
 20
6.04021929942334
 30
0.0
 10
4.103078743195881
 20
6.056708026645804
 30
0.0
 10
4.104195158502663
 20
6.06549653010493
 30
0.0
 10
4.104195158502663
 20
6.092984244945625
 30
0.0
  0
LINE
  5
1A2
330
1F
100
AcDbEntity
  8
0
  6
HIDDEN
 62
     7
100
AcDbLine
 10
3.6553762609
 20
5.982970531
 30
0.0
 11
3.6553762609
 21
7.3609837468
 31
0.0
  0
LINE
  5
1A3
330
1F
100
AcDbEntity
  8
0
  6
HIDDEN
 62
     7
100
AcDbLine
 10
3.6750613002
 20
5.982970531
 30
0.0
 11
3.6750613002
 21
7.3609837468
 31
0.0
  0
LINE
  5
1A4
330
1F
100
AcDbEntity
  8
0
  6
HIDDEN
 62
     7
100
AcDbLine
 10
4.1396282294
 20
6.6621346192
 30
0.0
 11
4.1296282294
 21
6.6621346192
 31
0.0
  0
LINE
  5
1A5
330
1F
100
AcDbEntity
  8
0
  6
HIDDEN
 62
     7
100
AcDbLine
 10
4.1396282294
 20
6.6818196586
 30
0.0
 11
4.1296282294
 21
6.6818196586
 31
0.0
  0
LINE
  5
1A6
330
1F
100
AcDbEntity
  8
0
  6
HIDDEN
 62
     7
100
AcDbLine
 10
2.5236439774
 20
6.8291495742
 30
0.0
 11
2.5136439774
 21
6.8391679901
 31
0.0
  0
LINE
  5
1A7
330
1F
100
AcDbEntity
  8
0
  6
HIDDEN
 62
     7
100
AcDbLine
 10
2.5236439774
 20
6.8291495742
 30
0.0
 11
2.9782109065
 21
6.8291495742
 31
0.0
  0
LINE
  5
1A8
330
1F
100
AcDbEntity
  8
0
  6
HIDDEN
 62
     7
100
AcDbLine
 10
3.6750613002
 20
6.6621346192
 30
0.0
 11
4.1296282294
 21
6.6621346192
 31
0.0
  0
LINE
  5
1A9
330
1F
100
AcDbEntity
  8
0
  6
HIDDEN
 62
     7
100
AcDbLine
 10
3.6750613002
 20
6.6818196586
 30
0.0
 11
4.1296282294
 21
6.6818196586
 31
0.0
  0
LINE
  5
1AA
330
1F
100
AcDbEntity
  8
0
  6
HIDDEN
 62
     7
100
AcDbLine
 10
4.1041951585
 20
6.3156779263
 30
0.0
 11
3.7104943711
 21
6.3156779263
 31
0.0
  0
CIRCLE
  5
1AB
330
1F
100
AcDbEntity
  8
0
  6
HIDDEN
 62
     7
100
AcDbCircle
 10
2.745927442
 20
7.1255310634
 30
0.0
 40
0.1968503937007862
  0
LINE
  5
1AC
330
1F
100
AcDbEntity
  8
0
  6
HIDDEN
 62
     7
100
AcDbLine
 10
4.0746675994
 20
6.3078039106
 30
0.0
 11
3.7400219302
 21
6.3078039106
 31
0.0
  0
LINE
  5
1AD
330
1F
100
AcDbEntity
  8
0
  6
HIDDEN
 62
     7
100
AcDbLine
 10
3.7400219302
 20
6.1267015484
 30
0.0
 11
4.0746675994
 21
6.1267015484
 31
0.0
  0
LINE
  5
1AE
330
1F
100
AcDbEntity
  8
0
  6
HIDDEN
 62
     7
100
AcDbLine
 10
4.0667935837
 20
6.1188275326
 30
0.0
 11
3.7478959459
 21
6.1188275326
 31
0.0
  0
LINE
  5
1AF
330
1F
100
AcDbEntity
  8
0
  6
HIDDEN
 62
     7
100
AcDbLine
 10
4.0057699617
 20
7.2723708397
 30
0.0
 11
3.808919568
 21
7.2723708397
 31
0.0
  0
LINE
  5
1B0
330
1F
100
AcDbEntity
  8
0
  6
HIDDEN
 62
     7
100
AcDbLine
 10
3.8167935837
 20
7.2802448555
 30
0.0
 11
3.9978959459
 21
7.2802448555
 31
0.0
  0
LINE
  5
1B1
330
1F
100
AcDbEntity
  8
0
  6
HIDDEN
 62
     7
100
AcDbLine
 10
3.9073447648
 20
6.1778826507
 30
0.0
 11
3.8286046073
 21
6.1778826507
 31
0.0
  0
LINE
  5
1B2
330
1F
100
AcDbEntity
  8
0
  6
HIDDEN
 62
     7
100
AcDbLine
 10
3.9073447648
 20
6.1778826507
 30
0.0
 11
3.9073447648
 21
6.1188275326
 31
0.0
  0
LINE
  5
1B3
330
1F
100
AcDbEntity
  8
0
  6
HIDDEN
 62
     7
100
AcDbLine
 10
3.9860849223
 20
6.1778826507
 30
0.0
 11
3.9073447648
 21
6.1778826507
 31
0.0
  0
LINE
  5
1B4
330
1F
100
AcDbEntity
  8
0
  6
HIDDEN
 62
     7
100
AcDbLine
 10
3.8286046073
 20
6.1778826507
 30
0.0
 11
3.8286046073
 21
6.1188275326
 31
0.0
  0
LINE
  5
1B5
330
1F
100
AcDbEntity
  8
0
  6
HIDDEN
 62
     7
100
AcDbLine
 10
3.9860849223
 20
6.1778826507
 30
0.0
 11
3.9860849223
 21
6.1188275326
 31
0.0
  0
CIRCLE
  5
1B6
330
1F
100
AcDbEntity
  8
0
  6
HIDDEN
 62
     7
100
AcDbCircle
 10
2.745927442
 20
7.1255310634
 30
0.0
 40
0.1673228346456694
  0
CIRCLE
  5
1B7
330
1F
100
AcDbEntity
  8
0
  6
HIDDEN
 62
     7
100
AcDbCircle
 10
2.745927442
 20
7.1255310634
 30
0.0
 40
0.1594488188976375
  0
LINE
  5
1B8
330
1F
100
AcDbEntity
  8
0
  6
HIDDEN
 62
     7
100
AcDbLine
 10
2.8246675994
 20
7.1709917145
 30
0.0
 11
2.745927442
 21
7.2164523657
 31
0.0
  0
LINE
  5
1B9
330
1F
100
AcDbEntity
  8
0
  6
HIDDEN
 62
     7
100
AcDbLine
 10
2.745927442
 20
7.2164523657
 30
0.0
 11
2.6671872845
 21
7.1709917145
 31
0.0
  0
LINE
  5
1BA
330
1F
100
AcDbEntity
  8
0
  6
HIDDEN
 62
     7
100
AcDbLine
 10
2.8246675994
 20
7.0800704123
 30
0.0
 11
2.8246675994
 21
7.1709917145
 31
0.0
  0
LINE
  5
1BB
330
1F
100
AcDbEntity
  8
0
  6
HIDDEN
 62
     7
100
AcDbLine
 10
2.6671872845
 20
7.1709917145
 30
0.0
 11
2.6671872845
 21
7.0800704123
 31
0.0
  0
LINE
  5
1BC
330
1F
100
AcDbEntity
  8
0
  6
HIDDEN
 62
     7
100
AcDbLine
 10
2.745927442
 20
7.0346097612
 30
0.0
 11
2.8246675994
 21
7.0800704123
 31
0.0
  0
LINE
  5
1BD
330
1F
100
AcDbEntity
  8
0
  6
HIDDEN
 62
     7
100
AcDbLine
 10
2.6671872845
 20
7.0800704123
 30
0.0
 11
2.745927442
 21
7.0346097612
 31
0.0
  0
LINE
  5
1BE
330
1F
100
AcDbEntity
  8
0
  6
HIDDEN
 62
     7
100
AcDbLine
 10
4.1396282294
 20
6.8394574539
 30
0.0
 11
4.1296282294
 21
6.8294574539
 31
0.0
  0
LINE
  5
1BF
330
1F
100
AcDbEntity
  8
0
  6
HIDDEN
 62
     7
100
AcDbLine
 10
4.1296282294
 20
6.514496824
 30
0.0
 11
4.1396282294
 21
6.504496824
 31
0.0
  0
LINE
  5
1C0
330
1F
100
AcDbEntity
  8
0
  6
HIDDEN
 62
     7
100
AcDbLine
 10
2.5136439774
 20
6.504496824
 30
0.0
 11
2.5236439774
 21
6.514496824
 31
0.0
  0
LINE
  5
1C1
330
1F
100
AcDbEntity
  8
0
  6
HIDDEN
 62
     7
100
AcDbLine
 10
3.6553762609
 20
6.8294574539
 30
0.0
 11
2.9978959459
 21
6.8294574539
 31
0.0
  0
LINE
  5
1C2
330
1F
100
AcDbEntity
  8
0
  6
HIDDEN
 62
     7
100
AcDbLine
 10
2.9978959459
 20
6.514496824
 30
0.0
 11
3.6553762609
 21
6.514496824
 31
0.0
  0
LINE
  5
1C3
330
1F
100
AcDbEntity
  8
0
  6
HIDDEN
 62
     7
100
AcDbLine
 10
2.5236439774
 20
6.514496824
 30
0.0
 11
2.9782109065
 21
6.514496824
 31
0.0
  0
LINE
  5
1C4
330
1F
100
AcDbEntity
  8
0
  6
HIDDEN
 62
     7
100
AcDbLine
 10
4.1296282294
 20
6.8294574539
 30
0.0
 11
3.6750613002
 21
6.8294574539
 31
0.0
  0
LINE
  5
1C5
330
1F
100
AcDbEntity
  8
0
  6
HIDDEN
 62
     7
100
AcDbLine
 10
3.6750613002
 20
6.514496824
 30
0.0
 11
4.1296282294
 21
6.514496824
 31
0.0
  0
LINE
  5
1C6
330
1F
100
AcDbEntity
  8
0
  6
HIDDEN
 62
     7
100
AcDbLine
 10
4.1041951585
 20
6.0746591017
 30
0.0
 11
4.1041951585
 21
6.3156779263
 31
0.0
  0
LINE
  5
1C7
330
1F
100
AcDbEntity
  8
0
  6
HIDDEN
 62
     7
100
AcDbLine
 10
3.7104943711
 20
6.3156779263
 30
0.0
 11
3.7104943711
 21
6.0747415919
 31
0.0
  0
LINE
  5
1C8
330
1F
100
AcDbEntity
  8
0
  6
HIDDEN
 62
     7
100
AcDbLine
 10
4.0156124813
 20
6.6818196586
 30
0.0
 11
4.0156124813
 21
7.2692951761
 31
0.0
  0
LINE
  5
1C9
330
1F
100
AcDbEntity
  8
0
  6
HIDDEN
 62
     7
100
AcDbLine
 10
3.7990770483
 20
7.2692663031
 30
0.0
 11
3.7990770483
 21
6.6818196586
 31
0.0
  0
LINE
  5
1CA
330
1F
100
AcDbEntity
  8
0
  6
HIDDEN
 62
     7
100
AcDbLine
 10
4.0156124813
 20
6.3156779263
 30
0.0
 11
4.0156124813
 21
6.6621346192
 31
0.0
  0
LINE
  5
1CB
330
1F
100
AcDbEntity
  8
0
  6
HIDDEN
 62
     7
100
AcDbLine
 10
3.7990770483
 20
6.6621346192
 30
0.0
 11
3.7990770483
 21
6.3156779263
 31
0.0
  0
LINE
  5
1CC
330
1F
100
AcDbEntity
  8
0
  6
HIDDEN
 62
     7
100
AcDbLine
 10
4.0746675994
 20
6.3078039106
 30
0.0
 11
4.0667935837
 21
6.3156779263
 31
0.0
  0
LINE
  5
1CD
330
1F
100
AcDbEntity
  8
0
  6
HIDDEN
 62
     7
100
AcDbLine
 10
3.7478959459
 20
6.3156779263
 30
0.0
 11
3.7400219302
 21
6.3078039106
 31
0.0
  0
LINE
  5
1CE
330
1F
100
AcDbEntity
  8
0
  6
HIDDEN
 62
     7
100
AcDbLine
 10
3.7400219302
 20
6.3078039106
 30
0.0
 11
3.7400219302
 21
6.1267015484
 31
0.0
  0
LINE
  5
1CF
330
1F
100
AcDbEntity
  8
0
  6
HIDDEN
 62
     7
100
AcDbLine
 10
4.0746675994
 20
6.1267015484
 30
0.0
 11
4.0746675994
 21
6.3078039106
 31
0.0
  0
LINE
  5
1D0
330
1F
100
AcDbEntity
  8
0
  6
HIDDEN
 62
     7
100
AcDbLine
 10
3.7400219302
 20
6.1267015484
 30
0.0
 11
3.7478959459
 21
6.1188275326
 31
0.0
  0
LINE
  5
1D1
330
1F
100
AcDbEntity
  8
0
  6
HIDDEN
 62
     7
100
AcDbLine
 10
4.0667935837
 20
6.1188275326
 30
0.0
 11
4.0746675994
 21
6.1267015484
 31
0.0
  0
LINE
  5
1D2
330
1F
100
AcDbEntity
  8
0
  6
HIDDEN
 62
     7
100
AcDbLine
 10
4.0057699617
 20
6.3156779263
 30
0.0
 11
4.0057699617
 21
7.2723708397
 31
0.0
  0
LINE
  5
1D3
330
1F
100
AcDbEntity
  8
0
  6
HIDDEN
 62
     7
100
AcDbLine
 10
3.808919568
 20
7.2723708397
 30
0.0
 11
3.808919568
 21
6.3156779263
 31
0.0
  0
LINE
  5
1D4
330
1F
100
AcDbEntity
  8
0
  6
HIDDEN
 62
     7
100
AcDbLine
 10
4.0057699617
 20
7.2723708397
 30
0.0
 11
3.9978959459
 21
7.2802448555
 31
0.0
  0
LINE
  5
1D5
330
1F
100
AcDbEntity
  8
0
  6
HIDDEN
 62
     7
100
AcDbLine
 10
3.8167935837
 20
7.2802448555
 30
0.0
 11
3.808919568
 21
7.2723708397
 31
0.0
  0
LINE
  5
1D6
330
1F
100
AcDbEntity
  8
0
  6
CONTINUOUS
 62
     7
100
AcDbLine
 10
9.2716716524
 20
6.8226512975
 30
0.0
 11
9.2716716524
 21
6.8308153786
 31
0.0
  0
LINE
  5
1D7
330
1F
100
AcDbEntity
  8
0
  6
CONTINUOUS
 62
     7
100
AcDbLine
 10
8.3372773368
 20
5.8919217055
 30
0.0
 11
8.3663720418
 21
5.8751256899
 31
0.0
  0
LINE
  5
1D8
330
1F
100
AcDbEntity
  8
0
  6
CONTINUOUS
 62
     7
100
AcDbLine
 10
8.0449446837
 20
6.060681754
 30
0.0
 11
8.0812096856
 21
6.0397464141
 31
0.0
  0
LINE
  5
1D9
330
1F
100
AcDbEntity
  8
0
  6
CONTINUOUS
 62
     7
100
AcDbLine
 10
7.2307696867
 20
6.5306949752
 30
0.0
 11
8.0310252589
 21
6.0687172669
 31
0.0
  0
LINE
  5
1DA
330
1F
100
AcDbEntity
  8
0
  6
CONTINUOUS
 62
     7
100
AcDbLine
 10
8.0187689541
 20
7.8077965727
 30
0.0
 11
7.9807087362
 21
7.8297682688
 31
0.0
  0
LINE
  5
1DB
330
1F
100
AcDbEntity
  8
0
  6
CONTINUOUS
 62
     7
100
AcDbLine
 10
8.3021360943
 20
7.6442122047
 30
0.0
 11
8.1915906799
 21
7.708028714
 31
0.0
  0
LINE
  5
1DC
330
1F
100
AcDbEntity
  8
0
  6
CONTINUOUS
 62
     7
100
AcDbLine
 10
9.1163110913
 20
7.1741989834
 30
0.0
 11
8.3160555191
 21
7.6361766917
 31
0.0
  0
LINE
  5
1DD
330
1F
100
AcDbEntity
  8
0
  6
CONTINUOUS
 62
     7
100
AcDbLine
 10
7.6056530179
 20
7.7925874644
 30
0.0
 11
7.5985830994
 21
7.7885047604
 31
0.0
  0
LINE
  5
1DE
330
1F
100
AcDbEntity
  8
0
  6
CONTINUOUS
 62
     7
100
AcDbLine
 10
7.0754091256
 20
6.8822426612
 30
0.0
 11
7.0754091256
 21
6.8740785801
 31
0.0
  0
LINE
  5
1DF
330
1F
100
AcDbEntity
  8
0
  6
CONTINUOUS
 62
     7
100
AcDbLine
 10
8.0802802427
 20
6.0907722108
 30
0.0
 11
8.0802802427
 21
6.0843438005
 31
0.0
  0
LINE
  5
1E0
330
1F
100
AcDbEntity
  8
0
  6
CONTINUOUS
 62
     7
100
AcDbLine
 10
8.1930092591
 20
5.8890702581
 30
0.0
 11
8.1985761242
 21
5.8858555306
 31
0.0
  0
LINE
  5
1E1
330
1F
100
AcDbEntity
  8
0
  6
CONTINUOUS
 62
     7
100
AcDbLine
 10
8.2822499721
 20
5.8775606004
 30
0.0
 11
8.3235475008
 21
5.9014011563
 31
0.0
  0
LINE
  5
1E2
330
1F
100
AcDbEntity
  8
0
  6
CONTINUOUS
 62
     7
100
AcDbLine
 10
8.1532368451
 20
7.8050541568
 30
0.0
 11
8.1476681705
 21
7.8082699292
 31
0.0
  0
LINE
  5
1E3
330
1F
100
AcDbEntity
  8
0
  6
CONTINUOUS
 62
     7
100
AcDbLine
 10
8.019588654
 20
7.8082699292
 30
0.0
 11
8.0140199794
 21
7.8050541568
 31
0.0
  0
LINE
  5
1E4
330
1F
100
AcDbEntity
  8
0
  6
CONTINUOUS
 62
     7
100
AcDbLine
 10
8.1820536091
 20
7.711326354
 30
0.0
 11
8.1820536091
 21
7.7648831217
 31
0.0
  0
POLYLINE
  5
1E5
330
1F
100
AcDbEntity
  8
0
  6
CONTINUOUS
 62
     7
100
AcDb2dPolyline
 66
     1
 10
0.0
 20
0.0
 30
0.0
  0
VERTEX
  5
219
330
1E5
100
AcDbEntity
  8
0
  6
CONTINUOUS
 62
     7
100
AcDbVertex
100
AcDb2dVertex
 10
8.7553723467
 20
5.9204113018
 30
0.0
  0
VERTEX
  5
21A
330
1E5
100
AcDbEntity
  8
0
  6
CONTINUOUS
 62
     7
100
AcDbVertex
100
AcDb2dVertex
 10
8.781333442
 20
5.9365419375
 30
0.0
  0
VERTEX
  5
21B
330
1E5
100
AcDbEntity
  8
0
  6
CONTINUOUS
 62
     7
100
AcDbVertex
100
AcDb2dVertex
 10
8.8072133823
 20
5.9541123179
 30
0.0
  0
VERTEX
  5
21C
330
1E5
100
AcDbEntity
  8
0
  6
CONTINUOUS
 62
     7
100
AcDbVertex
100
AcDb2dVertex
 10
8.8329483698
 20
5.9730791293
 30
0.0
  0
VERTEX
  5
21D
330
1E5
100
AcDbEntity
  8
0
  6
CONTINUOUS
 62
     7
100
AcDbVertex
100
AcDb2dVertex
 10
8.8584749636
 20
5.9933956155
 30
0.0
  0
VERTEX
  5
21E
330
1E5
100
AcDbEntity
  8
0
  6
CONTINUOUS
 62
     7
100
AcDbVertex
100
AcDb2dVertex
 10
8.8837302368
 20
6.0150116933
 30
0.0
  0
VERTEX
  5
21F
330
1E5
100
AcDbEntity
  8
0
  6
CONTINUOUS
 62
     7
100
AcDbVertex
100
AcDb2dVertex
 10
8.9086519312
 20
6.0378740758
 30
0.0
  0
VERTEX
  5
220
330
1E5
100
AcDbEntity
  8
0
  6
CONTINUOUS
 62
     7
100
AcDbVertex
100
AcDb2dVertex
 10
8.933178611
 20
6.0619264035
 30
0.0
  0
VERTEX
  5
221
330
1E5
100
AcDbEntity
  8
0
  6
CONTINUOUS
 62
     7
100
AcDbVertex
100
AcDb2dVertex
 10
8.9572498142
 20
6.0871093839
 30
0.0
  0
VERTEX
  5
222
330
1E5
100
AcDbEntity
  8
0
  6
CONTINUOUS
 62
     7
100
AcDbVertex
100
AcDb2dVertex
 10
8.9808062015
 20
6.113360937
 30
0.0
  0
VERTEX
  5
223
330
1E5
100
AcDbEntity
  8
0
  6
CONTINUOUS
 62
     7
100
AcDbVertex
100
AcDb2dVertex
 10
9.0037897028
 20
6.1406163486
 30
0.0
  0
VERTEX
  5
224
330
1E5
100
AcDbEntity
  8
0
  6
CONTINUOUS
 62
     7
100
AcDbVertex
100
AcDb2dVertex
 10
9.0261436602
 20
6.16880843
 30
0.0
  0
VERTEX
  5
225
330
1E5
100
AcDbEntity
  8
0
  6
CONTINUOUS
 62
     7
100
AcDbVertex
100
AcDb2dVertex
 10
9.0478129678
 20
6.1978676833
 30
0.0
  0
VERTEX
  5
226
330
1E5
100
AcDbEntity
  8
0
  6
CONTINUOUS
 62
     7
100
AcDbVertex
100
AcDb2dVertex
 10
9.0687442074
 20
6.227722473
 30
0.0
  0
VERTEX
  5
227
330
1E5
100
AcDbEntity
  8
0
  6
CONTINUOUS
 62
     7
100
AcDbVertex
100
AcDb2dVertex
 10
9.0888857802
 20
6.2582992024
 30
0.0
  0
VERTEX
  5
228
330
1E5
100
AcDbEntity
  8
0
  6
CONTINUOUS
 62
     7
100
AcDbVertex
100
AcDb2dVertex
 10
9.1081880342
 20
6.2895224952
 30
0.0
  0
VERTEX
  5
229
330
1E5
100
AcDbEntity
  8
0
  6
CONTINUOUS
 62
     7
100
AcDbVertex
100
AcDb2dVertex
 10
9.1266033862
 20
6.3213153812
 30
0.0
  0
VERTEX
  5
22A
330
1E5
100
AcDbEntity
  8
0
  6
CONTINUOUS
 62
     7
100
AcDbVertex
100
AcDb2dVertex
 10
9.1440864398
 20
6.3535994859
 30
0.0
  0
VERTEX
  5
22B
330
1E5
100
AcDbEntity
  8
0
  6
CONTINUOUS
 62
     7
100
AcDbVertex
100
AcDb2dVertex
 10
9.1605940963
 20
6.386295224
 30
0.0
  0
VERTEX
  5
22C
330
1E5
100
AcDbEntity
  8
0
  6
CONTINUOUS
 62
     7
100
AcDbVertex
100
AcDb2dVertex
 10
9.1760856619
 20
6.4193219956
 30
0.0
  0
VERTEX
  5
22D
330
1E5
100
AcDbEntity
  8
0
  6
CONTINUOUS
 62
     7
100
AcDbVertex
100
AcDb2dVertex
 10
9.1905229476
 20
6.4525983845
 30
0.0
  0
VERTEX
  5
22E
330
1E5
100
AcDbEntity
  8
0
  6
CONTINUOUS
 62
     7
100
AcDbVertex
100
AcDb2dVertex
 10
9.203870363
 20
6.4860423594
 30
0.0
  0
VERTEX
  5
22F
330
1E5
100
AcDbEntity
  8
0
  6
CONTINUOUS
 62
     7
100
AcDbVertex
100
AcDb2dVertex
 10
9.2160950049
 20
6.5195714755
 30
0.0
  0
VERTEX
  5
230
330
1E5
100
AcDbEntity
  8
0
  6
CONTINUOUS
 62
     7
100
AcDbVertex
100
AcDb2dVertex
 10
9.2271667376
 20
6.5531030786
 30
0.0
  0
VERTEX
  5
231
330
1E5
100
AcDbEntity
  8
0
  6
CONTINUOUS
 62
     7
100
AcDbVertex
100
AcDb2dVertex
 10
9.2370582676
 20
6.586554508
 30
0.0
  0
VERTEX
  5
232
330
1E5
100
AcDbEntity
  8
0
  6
CONTINUOUS
 62
     7
100
AcDbVertex
100
AcDb2dVertex
 10
9.2457452106
 20
6.6198433008
 30
0.0
  0
VERTEX
  5
233
330
1E5
100
AcDbEntity
  8
0
  6
CONTINUOUS
 62
     7
100
AcDbVertex
100
AcDb2dVertex
 10
9.2532061521
 20
6.6528873949
 30
0.0
  0
VERTEX
  5
234
330
1E5
100
AcDbEntity
  8
0
  6
CONTINUOUS
 62
     7
100
AcDbVertex
100
AcDb2dVertex
 10
9.2594226997
 20
6.6856053316
 30
0.0
  0
VERTEX
  5
235
330
1E5
100
AcDbEntity
  8
0
  6
CONTINUOUS
 62
     7
100
AcDbVertex
100
AcDb2dVertex
 10
9.2643795286
 20
6.7179164562
 30
0.0
  0
VERTEX
  5
236
330
1E5
100
AcDbEntity
  8
0
  6
CONTINUOUS
 62
     7
100
AcDbVertex
100
AcDb2dVertex
 10
9.2680644196
 20
6.7497411167
 30
0.0
  0
VERTEX
  5
237
330
1E5
100
AcDbEntity
  8
0
  6
CONTINUOUS
 62
     7
100
AcDbVertex
100
AcDb2dVertex
 10
9.2704682886
 20
6.7810008604
 30
0.0
  0
VERTEX
  5
238
330
1E5
100
AcDbEntity
  8
0
  6
CONTINUOUS
 62
     7
100
AcDbVertex
100
AcDb2dVertex
 10
9.27158521
 20
6.8116186272
 30
0.0
  0
VERTEX
  5
239
330
1E5
100
AcDbEntity
  8
0
  6
CONTINUOUS
 62
     7
100
AcDbVertex
100
AcDb2dVertex
 10
9.2714124302
 20
6.8415189396
 30
0.0
  0
VERTEX
  5
23A
330
1E5
100
AcDbEntity
  8
0
  6
CONTINUOUS
 62
     7
100
AcDbVertex
100
AcDb2dVertex
 10
9.2699503752
 20
6.8706280887
 30
0.0
  0
VERTEX
  5
23B
330
1E5
100
AcDbEntity
  8
0
  6
CONTINUOUS
 62
     7
100
AcDbVertex
100
AcDb2dVertex
 10
9.2672026492
 20
6.898874316
 30
0.0
  0
VERTEX
  5
23C
330
1E5
100
AcDbEntity
  8
0
  6
CONTINUOUS
 62
     7
100
AcDbVertex
100
AcDb2dVertex
 10
9.2631760257
 20
6.9261879902
 30
0.0
  0
VERTEX
  5
23D
330
1E5
100
AcDbEntity
  8
0
  6
CONTINUOUS
 62
     7
100
AcDbVertex
100
AcDb2dVertex
 10
9.2578804311
 20
6.9525017788
 30
0.0
  0
VERTEX
  5
23E
330
1E5
100
AcDbEntity
  8
0
  6
CONTINUOUS
 62
     7
100
AcDbVertex
100
AcDb2dVertex
 10
9.2513289197
 20
6.9777508144
 30
0.0
  0
VERTEX
  5
23F
330
1E5
100
AcDbEntity
  8
0
  6
CONTINUOUS
 62
     7
100
AcDbVertex
100
AcDb2dVertex
 10
9.2435376421
 20
7.001872854
 30
0.0
  0
VERTEX
  5
240
330
1E5
100
AcDbEntity
  8
0
  6
CONTINUOUS
 62
     7
100
AcDbVertex
100
AcDb2dVertex
 10
9.2345258049
 20
7.0248084332
 30
0.0
  0
VERTEX
  5
241
330
1E5
100
AcDbEntity
  8
0
  6
CONTINUOUS
 62
     7
100
AcDbVertex
100
AcDb2dVertex
 10
9.2243156238
 20
7.0465010123
 30
0.0
  0
VERTEX
  5
242
330
1E5
100
AcDbEntity
  8
0
  6
CONTINUOUS
 62
     7
100
AcDbVertex
100
AcDb2dVertex
 10
9.2129322683
 20
7.0668971156
 30
0.0
  0
VERTEX
  5
243
330
1E5
100
AcDbEntity
  8
0
  6
CONTINUOUS
 62
     7
100
AcDbVertex
100
AcDb2dVertex
 10
9.2004038003
 20
7.0859464637
 30
0.0
  0
VERTEX
  5
244
330
1E5
100
AcDbEntity
  8
0
  6
CONTINUOUS
 62
     7
100
AcDbVertex
100
AcDb2dVertex
 10
9.1867611043
 20
7.1036020969
 30
0.0
  0
VERTEX
  5
245
330
1E5
100
AcDbEntity
  8
0
  6
CONTINUOUS
 62
     7
100
AcDbVertex
100
AcDb2dVertex
 10
9.1720378117
 20
7.1198204915
 30
0.0
  0
VERTEX
  5
246
330
1E5
100
AcDbEntity
  8
0
  6
CONTINUOUS
 62
     7
100
AcDbVertex
100
AcDb2dVertex
 10
9.1562702176
 20
7.1345616664
 30
0.0
  0
VERTEX
  5
247
330
1E5
100
AcDbEntity
  8
0
  6
CONTINUOUS
 62
     7
100
AcDbVertex
100
AcDb2dVertex
 10
9.1394971917
 20
7.1477892826
 30
0.0
  0
VERTEX
  5
248
330
1E5
100
AcDbEntity
  8
0
  6
CONTINUOUS
 62
     7
100
AcDbVertex
100
AcDb2dVertex
 10
9.121760082
 20
7.1594707318
 30
0.0
  0
VERTEX
  5
249
330
1E5
100
AcDbEntity
  8
0
  6
CONTINUOUS
 62
     7
100
AcDbVertex
100
AcDb2dVertex
 10
9.1031026132
 20
7.1695772175
 30
0.0
  0
VERTEX
  5
24A
330
1E5
100
AcDbEntity
  8
0
  6
CONTINUOUS
 62
     7
100
AcDbVertex
100
AcDb2dVertex
 10
9.0835707789
 20
7.1780838257
 30
0.0
  0
VERTEX
  5
24B
330
1E5
100
AcDbEntity
  8
0
  6
CONTINUOUS
 62
     7
100
AcDbVertex
100
AcDb2dVertex
 10
9.063212728
 20
7.1849695861
 30
0.0
  0
VERTEX
  5
24C
330
1E5
100
AcDbEntity
  8
0
  6
CONTINUOUS
 62
     7
100
AcDbVertex
100
AcDb2dVertex
 10
9.0420786464
 20
7.1902175245
 30
0.0
  0
VERTEX
  5
24D
330
1E5
100
AcDbEntity
  8
0
  6
CONTINUOUS
 62
     7
100
AcDbVertex
100
AcDb2dVertex
 10
9.0202206327
 20
7.1938147038
 30
0.0
  0
VERTEX
  5
24E
330
1E5
100
AcDbEntity
  8
0
  6
CONTINUOUS
 62
     7
100
AcDbVertex
100
AcDb2dVertex
 10
8.9976925703
 20
7.1957522563
 30
0.0
  0
VERTEX
  5
24F
330
1E5
100
AcDbEntity
  8
0
  6
CONTINUOUS
 62
     7
100
AcDbVertex
100
AcDb2dVertex
 10
8.9745499944
 20
7.1960254058
 30
0.0
  0
VERTEX
  5
250
330
1E5
100
AcDbEntity
  8
0
  6
CONTINUOUS
 62
     7
100
AcDbVertex
100
AcDb2dVertex
 10
8.9508499551
 20
7.1946334789
 30
0.0
  0
VERTEX
  5
251
330
1E5
100
AcDbEntity
  8
0
  6
CONTINUOUS
 62
     7
100
AcDbVertex
100
AcDb2dVertex
 10
8.9266508765
 20
7.1915799069
 30
0.0
  0
VERTEX
  5
252
330
1E5
100
AcDbEntity
  8
0
  6
CONTINUOUS
 62
     7
100
AcDbVertex
100
AcDb2dVertex
 10
8.9020124131
 20
7.1868722173
 30
0.0
  0
VERTEX
  5
253
330
1E5
100
AcDbEntity
  8
0
  6
CONTINUOUS
 62
     7
100
AcDbVertex
100
AcDb2dVertex
 10
8.8769953026
 20
7.1805220153
 30
0.0
  0
VERTEX
  5
254
330
1E5
100
AcDbEntity
  8
0
  6
CONTINUOUS
 62
     7
100
AcDbVertex
100
AcDb2dVertex
 10
8.851661216
 20
7.1725449551
 30
0.0
  0
VERTEX
  5
255
330
1E5
100
AcDbEntity
  8
0
  6
CONTINUOUS
 62
     7
100
AcDbVertex
100
AcDb2dVertex
 10
8.8260726057
 20
7.1629607014
 30
0.0
  0
VERTEX
  5
256
330
1E5
100
AcDbEntity
  8
0
  6
CONTINUOUS
 62
     7
100
AcDbVertex
100
AcDb2dVertex
 10
8.8002925515
 20
7.1517928809
 30
0.0
  0
VERTEX
  5
257
330
1E5
100
AcDbEntity
  8
0
  6
CONTINUOUS
 62
     7
100
AcDbVertex
100
AcDb2dVertex
 10
8.7743846054
 20
7.139069024
 30
0.0
  0
VERTEX
  5
258
330
1E5
100
AcDbEntity
  8
0
  6
CONTINUOUS
 62
     7
100
AcDbVertex
100
AcDb2dVertex
 10
8.7484126343
 20
7.1248204969
 30
0.0
  0
VERTEX
  5
259
330
1E5
100
AcDbEntity
  8
0
  6
CONTINUOUS
 62
     7
100
AcDbVertex
100
AcDb2dVertex
 10
8.7224406633
 20
7.1090824245
 30
0.0
  0
VERTEX
  5
25A
330
1E5
100
AcDbEntity
  8
0
  6
CONTINUOUS
 62
     7
100
AcDbVertex
100
AcDb2dVertex
 10
8.6965327171
 20
7.0918936035
 30
0.0
  0
VERTEX
  5
25B
330
1E5
100
AcDbEntity
  8
0
  6
CONTINUOUS
 62
     7
100
AcDbVertex
100
AcDb2dVertex
 10
8.670752663
 20
7.0732964071
 30
0.0
  0
VERTEX
  5
25C
330
1E5
100
AcDbEntity
  8
0
  6
CONTINUOUS
 62
     7
100
AcDbVertex
100
AcDb2dVertex
 10
8.6451640527
 20
7.0533366801
 30
0.0
  0
VERTEX
  5
25D
330
1E5
100
AcDbEntity
  8
0
  6
CONTINUOUS
 62
     7
100
AcDbVertex
100
AcDb2dVertex
 10
8.6198299661
 20
7.0320636265
 30
0.0
  0
VERTEX
  5
25E
330
1E5
100
AcDbEntity
  8
0
  6
CONTINUOUS
 62
     7
100
AcDbVertex
100
AcDb2dVertex
 10
8.5948128555
 20
7.0095296875
 30
0.0
  0
VERTEX
  5
25F
330
1E5
100
AcDbEntity
  8
0
  6
CONTINUOUS
 62
     7
100
AcDbVertex
100
AcDb2dVertex
 10
8.5701743922
 20
6.9857904129
 30
0.0
  0
VERTEX
  5
260
330
1E5
100
AcDbEntity
  8
0
  6
CONTINUOUS
 62
     7
100
AcDbVertex
100
AcDb2dVertex
 10
8.5459753136
 20
6.9609043235
 30
0.0
  0
VERTEX
  5
261
330
1E5
100
AcDbEntity
  8
0
  6
CONTINUOUS
 62
     7
100
AcDbVertex
100
AcDb2dVertex
 10
8.5222752742
 20
6.9349327674
 30
0.0
  0
VERTEX
  5
262
330
1E5
100
AcDbEntity
  8
0
  6
CONTINUOUS
 62
     7
100
AcDbVertex
100
AcDb2dVertex
 10
8.4991326984
 20
6.9079397685
 30
0.0
  0
VERTEX
  5
263
330
1E5
100
AcDbEntity
  8
0
  6
CONTINUOUS
 62
     7
100
AcDbVertex
100
AcDb2dVertex
 10
8.476604636
 20
6.8799918688
 30
0.0
  0
VERTEX
  5
264
330
1E5
100
AcDbEntity
  8
0
  6
CONTINUOUS
 62
     7
100
AcDbVertex
100
AcDb2dVertex
 10
8.4547466223
 20
6.8511579641
 30
0.0
  0
VERTEX
  5
265
330
1E5
100
AcDbEntity
  8
0
  6
CONTINUOUS
 62
     7
100
AcDbVertex
100
AcDb2dVertex
 10
8.4336125407
 20
6.8215091344
 30
0.0
  0
VERTEX
  5
266
330
1E5
100
AcDbEntity
  8
0
  6
CONTINUOUS
 62
     7
100
AcDbVertex
100
AcDb2dVertex
 10
8.4132544898
 20
6.7911184688
 30
0.0
  0
VERTEX
  5
267
330
1E5
100
AcDbEntity
  8
0
  6
CONTINUOUS
 62
     7
100
AcDbVertex
100
AcDb2dVertex
 10
8.3937226555
 20
6.7600608847
 30
0.0
  0
VERTEX
  5
268
330
1E5
100
AcDbEntity
  8
0
  6
CONTINUOUS
 62
     7
100
AcDbVertex
100
AcDb2dVertex
 10
8.3750651867
 20
6.7284129441
 30
0.0
  0
VERTEX
  5
269
330
1E5
100
AcDbEntity
  8
0
  6
CONTINUOUS
 62
     7
100
AcDbVertex
100
AcDb2dVertex
 10
8.357328077
 20
6.6962526639
 30
0.0
  0
VERTEX
  5
26A
330
1E5
100
AcDbEntity
  8
0
  6
CONTINUOUS
 62
     7
100
AcDbVertex
100
AcDb2dVertex
 10
8.3405550511
 20
6.6636593242
 30
0.0
  0
VERTEX
  5
26B
330
1E5
100
AcDbEntity
  8
0
  6
CONTINUOUS
 62
     7
100
AcDbVertex
100
AcDb2dVertex
 10
8.324787457
 20
6.6307132726
 30
0.0
  0
VERTEX
  5
26C
330
1E5
100
AcDbEntity
  8
0
  6
CONTINUOUS
 62
     7
100
AcDbVertex
100
AcDb2dVertex
 10
8.3100641644
 20
6.5974957263
 30
0.0
  0
VERTEX
  5
26D
330
1E5
100
AcDbEntity
  8
0
  6
CONTINUOUS
 62
     7
100
AcDbVertex
100
AcDb2dVertex
 10
8.2964214684
 20
6.5640885715
 30
0.0
  0
VERTEX
  5
26E
330
1E5
100
AcDbEntity
  8
0
  6
CONTINUOUS
 62
     7
100
AcDbVertex
100
AcDb2dVertex
 10
8.2838930003
 20
6.5305741622
 30
0.0
  0
VERTEX
  5
26F
330
1E5
100
AcDbEntity
  8
0
  6
CONTINUOUS
 62
     7
100
AcDbVertex
100
AcDb2dVertex
 10
8.2725096449
 20
6.4970351164
 30
0.0
  0
VERTEX
  5
270
330
1E5
100
AcDbEntity
  8
0
  6
CONTINUOUS
 62
     7
100
AcDbVertex
100
AcDb2dVertex
 10
8.2622994637
 20
6.4635541131
 30
0.0
  0
VERTEX
  5
271
330
1E5
100
AcDbEntity
  8
0
  6
CONTINUOUS
 62
     7
100
AcDbVertex
100
AcDb2dVertex
 10
8.2532876266
 20
6.4302136882
 30
0.0
  0
VERTEX
  5
272
330
1E5
100
AcDbEntity
  8
0
  6
CONTINUOUS
 62
     7
100
AcDbVertex
100
AcDb2dVertex
 10
8.245496349
 20
6.3970960308
 30
0.0
  0
VERTEX
  5
273
330
1E5
100
AcDbEntity
  8
0
  6
CONTINUOUS
 62
     7
100
AcDbVertex
100
AcDb2dVertex
 10
8.2389448376
 20
6.3642827813
 30
0.0
  0
VERTEX
  5
274
330
1E5
100
AcDbEntity
  8
0
  6
CONTINUOUS
 62
     7
100
AcDbVertex
100
AcDb2dVertex
 10
8.2336492429
 20
6.3318548293
 30
0.0
  0
VERTEX
  5
275
330
1E5
100
AcDbEntity
  8
0
  6
CONTINUOUS
 62
     7
100
AcDbVertex
100
AcDb2dVertex
 10
8.2296226195
 20
6.2998921146
 30
0.0
  0
VERTEX
  5
276
330
1E5
100
AcDbEntity
  8
0
  6
CONTINUOUS
 62
     7
100
AcDbVertex
100
AcDb2dVertex
 10
8.2268748935
 20
6.2684734304
 30
0.0
  0
VERTEX
  5
277
330
1E5
100
AcDbEntity
  8
0
  6
CONTINUOUS
 62
     7
100
AcDbVertex
100
AcDb2dVertex
 10
8.2254128385
 20
6.2376762285
 30
0.0
  0
VERTEX
  5
278
330
1E5
100
AcDbEntity
  8
0
  6
CONTINUOUS
 62
     7
100
AcDbVertex
100
AcDb2dVertex
 10
8.2252400587
 20
6.2075764287
 30
0.0
  0
VERTEX
  5
279
330
1E5
100
AcDbEntity
  8
0
  6
CONTINUOUS
 62
     7
100
AcDbVertex
100
AcDb2dVertex
 10
8.22635698
 20
6.1782482319
 30
0.0
  0
VERTEX
  5
27A
330
1E5
100
AcDbEntity
  8
0
  6
CONTINUOUS
 62
     7
100
AcDbVertex
100
AcDb2dVertex
 10
8.2287608491
 20
6.1497639363
 30
0.0
  0
VERTEX
  5
27B
330
1E5
100
AcDbEntity
  8
0
  6
CONTINUOUS
 62
     7
100
AcDbVertex
100
AcDb2dVertex
 10
8.23244574
 20
6.1221937603
 30
0.0
  0
VERTEX
  5
27C
330
1E5
100
AcDbEntity
  8
0
  6
CONTINUOUS
 62
     7
100
AcDbVertex
100
AcDb2dVertex
 10
8.237402569
 20
6.0956056686
 30
0.0
  0
VERTEX
  5
27D
330
1E5
100
AcDbEntity
  8
0
  6
CONTINUOUS
 62
     7
100
AcDbVertex
100
AcDb2dVertex
 10
8.2436191165
 20
6.070065205
 30
0.0
  0
VERTEX
  5
27E
330
1E5
100
AcDbEntity
  8
0
  6
CONTINUOUS
 62
     7
100
AcDbVertex
100
AcDb2dVertex
 10
8.2510800581
 20
6.0456353305
 30
0.0
  0
VERTEX
  5
27F
330
1E5
100
AcDbEntity
  8
0
  6
CONTINUOUS
 62
     7
100
AcDbVertex
100
AcDb2dVertex
 10
8.2597670011
 20
6.0223762687
 30
0.0
  0
VERTEX
  5
280
330
1E5
100
AcDbEntity
  8
0
  6
CONTINUOUS
 62
     7
100
AcDbVertex
100
AcDb2dVertex
 10
8.2696585311
 20
6.0003453567
 30
0.0
  0
VERTEX
  5
281
330
1E5
100
AcDbEntity
  8
0
  6
CONTINUOUS
 62
     7
100
AcDbVertex
100
AcDb2dVertex
 10
8.2807302637
 20
5.9795969041
 30
0.0
  0
VERTEX
  5
282
330
1E5
100
AcDbEntity
  8
0
  6
CONTINUOUS
 62
     7
100
AcDbVertex
100
AcDb2dVertex
 10
8.2929549056
 20
5.9601820591
 30
0.0
  0
VERTEX
  5
283
330
1E5
100
AcDbEntity
  8
0
  6
CONTINUOUS
 62
     7
100
AcDbVertex
100
AcDb2dVertex
 10
8.3063023211
 20
5.9421486821
 30
0.0
  0
VERTEX
  5
284
330
1E5
100
AcDbEntity
  8
0
  6
CONTINUOUS
 62
     7
100
AcDbVertex
100
AcDb2dVertex
 10
8.3207396067
 20
5.9255412284
 30
0.0
  0
VERTEX
  5
285
330
1E5
100
AcDbEntity
  8
0
  6
CONTINUOUS
 62
     7
100
AcDbVertex
100
AcDb2dVertex
 10
8.3362311724
 20
5.9104006377
 30
0.0
  0
VERTEX
  5
286
330
1E5
100
AcDbEntity
  8
0
  6
CONTINUOUS
 62
     7
100
AcDbVertex
100
AcDb2dVertex
 10
8.3527388289
 20
5.8967642341
 30
0.0
  0
VERTEX
  5
287
330
1E5
100
AcDbEntity
  8
0
  6
CONTINUOUS
 62
     7
100
AcDbVertex
100
AcDb2dVertex
 10
8.3702218824
 20
5.8846656334
 30
0.0
  0
VERTEX
  5
288
330
1E5
100
AcDbEntity
  8
0
  6
CONTINUOUS
 62
     7
100
AcDbVertex
100
AcDb2dVertex
 10
8.3886372345
 20
5.8741346604
 30
0.0
  0
VERTEX
  5
289
330
1E5
100
AcDbEntity
  8
0
  6
CONTINUOUS
 62
     7
100
AcDbVertex
100
AcDb2dVertex
 10
8.4079394885
 20
5.8651972756
 30
0.0
  0
VERTEX
  5
28A
330
1E5
100
AcDbEntity
  8
0
  6
CONTINUOUS
 62
     7
100
AcDbVertex
100
AcDb2dVertex
 10
8.4280810613
 20
5.8578755112
 30
0.0
  0
VERTEX
  5
28B
330
1E5
100
AcDbEntity
  8
0
  6
CONTINUOUS
 62
     7
100
AcDbVertex
100
AcDb2dVertex
 10
8.4490123008
 20
5.8521874163
 30
0.0
  0
VERTEX
  5
28C
330
1E5
100
AcDbEntity
  8
0
  6
CONTINUOUS
 62
     7
100
AcDbVertex
100
AcDb2dVertex
 10
8.4706816084
 20
5.8481470129
 30
0.0
  0
VERTEX
  5
28D
330
1E5
100
AcDbEntity
  8
0
  6
CONTINUOUS
 62
     7
100
AcDbVertex
100
AcDb2dVertex
 10
8.4930355659
 20
5.8457642614
 30
0.0
  0
VERTEX
  5
28E
330
1E5
100
AcDbEntity
  8
0
  6
CONTINUOUS
 62
     7
100
AcDbVertex
100
AcDb2dVertex
 10
8.5160190672
 20
5.8450450356
 30
0.0
  0
VERTEX
  5
28F
330
1E5
100
AcDbEntity
  8
0
  6
CONTINUOUS
 62
     7
100
AcDbVertex
100
AcDb2dVertex
 10
8.5395754545
 20
5.8459911084
 30
0.0
  0
VERTEX
  5
290
330
1E5
100
AcDbEntity
  8
0
  6
CONTINUOUS
 62
     7
100
AcDbVertex
100
AcDb2dVertex
 10
8.5636466576
 20
5.8486001476
 30
0.0
  0
VERTEX
  5
291
330
1E5
100
AcDbEntity
  8
0
  6
CONTINUOUS
 62
     7
100
AcDbVertex
100
AcDb2dVertex
 10
8.5881733375
 20
5.8528657216
 30
0.0
  0
VERTEX
  5
292
330
1E5
100
AcDbEntity
  8
0
  6
CONTINUOUS
 62
     7
100
AcDbVertex
100
AcDb2dVertex
 10
8.6130950319
 20
5.8587773151
 30
0.0
  0
VERTEX
  5
293
330
1E5
100
AcDbEntity
  8
0
  6
CONTINUOUS
 62
     7
100
AcDbVertex
100
AcDb2dVertex
 10
8.6383503051
 20
5.866320355
 30
0.0
  0
VERTEX
  5
294
330
1E5
100
AcDbEntity
  8
0
  6
CONTINUOUS
 62
     7
100
AcDbVertex
100
AcDb2dVertex
 10
8.6638768989
 20
5.8754762466
 30
0.0
  0
VERTEX
  5
295
330
1E5
100
AcDbEntity
  8
0
  6
CONTINUOUS
 62
     7
100
AcDbVertex
100
AcDb2dVertex
 10
8.6896118863
 20
5.8862224193
 30
0.0
  0
VERTEX
  5
296
330
1E5
100
AcDbEntity
  8
0
  6
CONTINUOUS
 62
     7
100
AcDbVertex
100
AcDb2dVertex
 10
8.7154918267
 20
5.898532382
 30
0.0
  0
VERTEX
  5
297
330
1E5
100
AcDbEntity
  8
0
  6
CONTINUOUS
 62
     7
100
AcDbVertex
100
AcDb2dVertex
 10
8.7414529219
 20
5.9123757889
 30
0.0
  0
SEQEND
  5
298
330
1E5
100
AcDbEntity
  8
0
  6
CONTINUOUS
 62
     7
  0
LINE
  5
1E6
330
1F
100
AcDbEntity
  8
0
  6
CONTINUOUS
 62
     7
100
AcDbLine
 10
8.7343818541
 20
5.9082917086
 30
0.0
 11
8.7414529219
 21
5.9123757889
 31
0.0
  0
POLYLINE
  5
1E7
330
1F
100
AcDbEntity
  8
0
  6
CONTINUOUS
 62
     7
100
AcDb2dPolyline
 66
     1
 10
0.0
 20
0.0
 30
0.0
  0
VERTEX
  5
299
330
1E7
100
AcDbEntity
  8
0
  6
CONTINUOUS
 62
     7
100
AcDbVertex
100
AcDb2dVertex
 10
8.7343818541
 20
5.9082917086
 30
0.0
  0
VERTEX
  5
29A
330
1E7
100
AcDbEntity
  8
0
  6
CONTINUOUS
 62
     7
100
AcDbVertex
100
AcDb2dVertex
 10
8.7080682656
 20
5.8942549853
 30
0.0
  0
VERTEX
  5
29B
330
1E7
100
AcDbEntity
  8
0
  6
CONTINUOUS
 62
     7
100
AcDbVertex
100
AcDb2dVertex
 10
8.6818367102
 20
5.8817724895
 30
0.0
  0
VERTEX
  5
29C
330
1E7
100
AcDbEntity
  8
0
  6
CONTINUOUS
 62
     7
100
AcDbVertex
100
AcDb2dVertex
 10
8.6557518601
 20
5.8708749961
 30
0.0
  0
VERTEX
  5
29D
330
1E7
100
AcDbEntity
  8
0
  6
CONTINUOUS
 62
     7
100
AcDbVertex
100
AcDb2dVertex
 10
8.6298780258
 20
5.8615893722
 30
0.0
  0
VERTEX
  5
29E
330
1E7
100
AcDbEntity
  8
0
  6
CONTINUOUS
 62
     7
100
AcDbVertex
100
AcDb2dVertex
 10
8.6042789974
 20
5.8539385107
 30
0.0
  0
VERTEX
  5
29F
330
1E7
100
AcDbEntity
  8
0
  6
CONTINUOUS
 62
     7
100
AcDbVertex
100
AcDb2dVertex
 10
8.5790178878
 20
5.8479412743
 30
0.0
  0
VERTEX
  5
2A0
330
1E7
100
AcDbEntity
  8
0
  6
CONTINUOUS
 62
     7
100
AcDbVertex
100
AcDb2dVertex
 10
8.5541569764
 20
5.843612449
 30
0.0
  0
VERTEX
  5
2A1
330
1E7
100
AcDbEntity
  8
0
  6
CONTINUOUS
 62
     7
100
AcDbVertex
100
AcDb2dVertex
 10
8.5297575562
 20
5.840962707
 30
0.0
  0
VERTEX
  5
2A2
330
1E7
100
AcDbEntity
  8
0
  6
CONTINUOUS
 62
     7
100
AcDbVertex
100
AcDb2dVertex
 10
8.5058797824
 20
5.8399985812
 30
0.0
  0
VERTEX
  5
2A3
330
1E7
100
AcDbEntity
  8
0
  6
CONTINUOUS
 62
     7
100
AcDbVertex
100
AcDb2dVertex
 10
8.482582524
 20
5.8407224486
 30
0.0
  0
VERTEX
  5
2A4
330
1E7
100
AcDbEntity
  8
0
  6
CONTINUOUS
 62
     7
100
AcDbVertex
100
AcDb2dVertex
 10
8.4599232189
 20
5.8431325245
 30
0.0
  0
VERTEX
  5
2A5
330
1E7
100
AcDbEntity
  8
0
  6
CONTINUOUS
 62
     7
100
AcDbVertex
100
AcDb2dVertex
 10
8.4379577321
 20
5.847222867
 30
0.0
  0
VERTEX
  5
2A6
330
1E7
100
AcDbEntity
  8
0
  6
CONTINUOUS
 62
     7
100
AcDbVertex
100
AcDb2dVertex
 10
8.4167402181
 20
5.8529833916
 30
0.0
  0
VERTEX
  5
2A7
330
1E7
100
AcDbEntity
  8
0
  6
CONTINUOUS
 62
     7
100
AcDbVertex
100
AcDb2dVertex
 10
8.3963229872
 20
5.8603998962
 30
0.0
  0
VERTEX
  5
2A8
330
1E7
100
AcDbEntity
  8
0
  6
CONTINUOUS
 62
     7
100
AcDbVertex
100
AcDb2dVertex
 10
8.3767563767
 20
5.8694540959
 30
0.0
  0
VERTEX
  5
2A9
330
1E7
100
AcDbEntity
  8
0
  6
CONTINUOUS
 62
     7
100
AcDbVertex
100
AcDb2dVertex
 10
8.3580886269
 20
5.8801236681
 30
0.0
  0
VERTEX
  5
2AA
330
1E7
100
AcDbEntity
  8
0
  6
CONTINUOUS
 62
     7
100
AcDbVertex
100
AcDb2dVertex
 10
8.3403657619
 20
5.8923823077
 30
0.0
  0
VERTEX
  5
2AB
330
1E7
100
AcDbEntity
  8
0
  6
CONTINUOUS
 62
     7
100
AcDbVertex
100
AcDb2dVertex
 10
8.3236314761
 20
5.9061997919
 30
0.0
  0
VERTEX
  5
2AC
330
1E7
100
AcDbEntity
  8
0
  6
CONTINUOUS
 62
     7
100
AcDbVertex
100
AcDb2dVertex
 10
8.3079270269
 20
5.9215420545
 30
0.0
  0
VERTEX
  5
2AD
330
1E7
100
AcDbEntity
  8
0
  6
CONTINUOUS
 62
     7
100
AcDbVertex
100
AcDb2dVertex
 10
8.2932911326
 20
5.9383712702
 30
0.0
  0
VERTEX
  5
2AE
330
1E7
100
AcDbEntity
  8
0
  6
CONTINUOUS
 62
     7
100
AcDbVertex
100
AcDb2dVertex
 10
8.2797598769
 20
5.9566459478
 30
0.0
  0
VERTEX
  5
2AF
330
1E7
100
AcDbEntity
  8
0
  6
CONTINUOUS
 62
     7
100
AcDbVertex
100
AcDb2dVertex
 10
8.2673666203
 20
5.9763210321
 30
0.0
  0
VERTEX
  5
2B0
330
1E7
100
AcDbEntity
  8
0
  6
CONTINUOUS
 62
     7
100
AcDbVertex
100
AcDb2dVertex
 10
8.2561419176
 20
5.9973480156
 30
0.0
  0
VERTEX
  5
2B1
330
1E7
100
AcDbEntity
  8
0
  6
CONTINUOUS
 62
     7
100
AcDbVertex
100
AcDb2dVertex
 10
8.2461134425
 20
6.0196750576
 30
0.0
  0
VERTEX
  5
2B2
330
1E7
100
AcDbEntity
  8
0
  6
CONTINUOUS
 62
     7
100
AcDbVertex
100
AcDb2dVertex
 10
8.2373059195
 20
6.0432471124
 30
0.0
  0
VERTEX
  5
2B3
330
1E7
100
AcDbEntity
  8
0
  6
CONTINUOUS
 62
     7
100
AcDbVertex
100
AcDb2dVertex
 10
8.229741063
 20
6.0680060645
 30
0.0
  0
VERTEX
  5
2B4
330
1E7
100
AcDbEntity
  8
0
  6
CONTINUOUS
 62
     7
100
AcDbVertex
100
AcDb2dVertex
 10
8.2234375237
 20
6.0938908724
 30
0.0
  0
VERTEX
  5
2B5
330
1E7
100
AcDbEntity
  8
0
  6
CONTINUOUS
 62
     7
100
AcDbVertex
100
AcDb2dVertex
 10
8.2184108426
 20
6.1208377188
 30
0.0
  0
VERTEX
  5
2B6
330
1E7
100
AcDbEntity
  8
0
  6
CONTINUOUS
 62
     7
100
AcDbVertex
100
AcDb2dVertex
 10
8.2146734125
 20
6.1487801681
 30
0.0
  0
VERTEX
  5
2B7
330
1E7
100
AcDbEntity
  8
0
  6
CONTINUOUS
 62
     7
100
AcDbVertex
100
AcDb2dVertex
 10
8.2122344478
 20
6.17764933
 30
0.0
  0
VERTEX
  5
2B8
330
1E7
100
AcDbEntity
  8
0
  6
CONTINUOUS
 62
     7
100
AcDbVertex
100
AcDb2dVertex
 10
8.2110999617
 20
6.2073740294
 30
0.0
  0
VERTEX
  5
2B9
330
1E7
100
AcDbEntity
  8
0
  6
CONTINUOUS
 62
     7
100
AcDbVertex
100
AcDb2dVertex
 10
8.2112727512
 20
6.2378809822
 30
0.0
  0
VERTEX
  5
2BA
330
1E7
100
AcDbEntity
  8
0
  6
CONTINUOUS
 62
     7
100
AcDbVertex
100
AcDb2dVertex
 10
8.2127523903
 20
6.2690949754
 30
0.0
  0
VERTEX
  5
2BB
330
1E7
100
AcDbEntity
  8
0
  6
CONTINUOUS
 62
     7
100
AcDbVertex
100
AcDb2dVertex
 10
8.2155352309
 20
6.300939053
 30
0.0
  0
VERTEX
  5
2BC
330
1E7
100
AcDbEntity
  8
0
  6
CONTINUOUS
 62
     7
100
AcDbVertex
100
AcDb2dVertex
 10
8.2196144123
 20
6.3333347056
 30
0.0
  0
VERTEX
  5
2BD
330
1E7
100
AcDbEntity
  8
0
  6
CONTINUOUS
 62
     7
100
AcDbVertex
100
AcDb2dVertex
 10
8.2249798774
 20
6.3662020638
 30
0.0
  0
VERTEX
  5
2BE
330
1E7
100
AcDbEntity
  8
0
  6
CONTINUOUS
 62
     7
100
AcDbVertex
100
AcDb2dVertex
 10
8.2316183981
 20
6.3994600952
 30
0.0
  0
VERTEX
  5
2BF
330
1E7
100
AcDbEntity
  8
0
  6
CONTINUOUS
 62
     7
100
AcDbVertex
100
AcDb2dVertex
 10
8.2395136075
 20
6.4330268046
 30
0.0
  0
VERTEX
  5
2C0
330
1E7
100
AcDbEntity
  8
0
  6
CONTINUOUS
 62
     7
100
AcDbVertex
100
AcDb2dVertex
 10
8.2486460405
 20
6.4668194352
 30
0.0
  0
VERTEX
  5
2C1
330
1E7
100
AcDbEntity
  8
0
  6
CONTINUOUS
 62
     7
100
AcDbVertex
100
AcDb2dVertex
 10
8.2589931817
 20
6.5007546737
 30
0.0
  0
VERTEX
  5
2C2
330
1E7
100
AcDbEntity
  8
0
  6
CONTINUOUS
 62
     7
100
AcDbVertex
100
AcDb2dVertex
 10
8.2705295209
 20
6.534748855
 30
0.0
  0
VERTEX
  5
2C3
330
1E7
100
AcDbEntity
  8
0
  6
CONTINUOUS
 62
     7
100
AcDbVertex
100
AcDb2dVertex
 10
8.283226616
 20
6.5687181686
 30
0.0
  0
VERTEX
  5
2C4
330
1E7
100
AcDbEntity
  8
0
  6
CONTINUOUS
 62
     7
100
AcDbVertex
100
AcDb2dVertex
 10
8.2970531632
 20
6.6025788654
 30
0.0
  0
VERTEX
  5
2C5
330
1E7
100
AcDbEntity
  8
0
  6
CONTINUOUS
 62
     7
100
AcDbVertex
100
AcDb2dVertex
 10
8.311975074
 20
6.6362474643
 30
0.0
  0
VERTEX
  5
2C6
330
1E7
100
AcDbEntity
  8
0
  6
CONTINUOUS
 62
     7
100
AcDbVertex
100
AcDb2dVertex
 10
8.3279555595
 20
6.6696409574
 30
0.0
  0
VERTEX
  5
2C7
330
1E7
100
AcDbEntity
  8
0
  6
CONTINUOUS
 62
     7
100
AcDbVertex
100
AcDb2dVertex
 10
8.3449552208
 20
6.7026770153
 30
0.0
  0
VERTEX
  5
2C8
330
1E7
100
AcDbEntity
  8
0
  6
CONTINUOUS
 62
     7
100
AcDbVertex
100
AcDb2dVertex
 10
8.3629321464
 20
6.7352741898
 30
0.0
  0
VERTEX
  5
2C9
330
1E7
100
AcDbEntity
  8
0
  6
CONTINUOUS
 62
     7
100
AcDbVertex
100
AcDb2dVertex
 10
8.3818420154
 20
6.7673521147
 30
0.0
  0
VERTEX
  5
2CA
330
1E7
100
AcDbEntity
  8
0
  6
CONTINUOUS
 62
     7
100
AcDbVertex
100
AcDb2dVertex
 10
8.4016382067
 20
6.798831704
 30
0.0
  0
VERTEX
  5
2CB
330
1E7
100
AcDbEntity
  8
0
  6
CONTINUOUS
 62
     7
100
AcDbVertex
100
AcDb2dVertex
 10
8.4222719142
 20
6.829635347
 30
0.0
  0
VERTEX
  5
2CC
330
1E7
100
AcDbEntity
  8
0
  6
CONTINUOUS
 62
     7
100
AcDbVertex
100
AcDb2dVertex
 10
8.4436922667
 20
6.8596870991
 30
0.0
  0
VERTEX
  5
2CD
330
1E7
100
AcDbEntity
  8
0
  6
CONTINUOUS
 62
     7
100
AcDbVertex
100
AcDb2dVertex
 10
8.4658464539
 20
6.8889128699
 30
0.0
  0
VERTEX
  5
2CE
330
1E7
100
AcDbEntity
  8
0
  6
CONTINUOUS
 62
     7
100
AcDbVertex
100
AcDb2dVertex
 10
8.4886798561
 20
6.9172406051
 30
0.0
  0
VERTEX
  5
2CF
330
1E7
100
AcDbEntity
  8
0
  6
CONTINUOUS
 62
     7
100
AcDbVertex
100
AcDb2dVertex
 10
8.5121361789
 20
6.9446004646
 30
0.0
  0
VERTEX
  5
2D0
330
1E7
100
AcDbEntity
  8
0
  6
CONTINUOUS
 62
     7
100
AcDbVertex
100
AcDb2dVertex
 10
8.5361575925
 20
6.9709249945
 30
0.0
  0
VERTEX
  5
2D1
330
1E7
100
AcDbEntity
  8
0
  6
CONTINUOUS
 62
     7
100
AcDbVertex
100
AcDb2dVertex
 10
8.5606848736
 20
6.9961492933
 30
0.0
  0
VERTEX
  5
2D2
330
1E7
100
AcDbEntity
  8
0
  6
CONTINUOUS
 62
     7
100
AcDbVertex
100
AcDb2dVertex
 10
8.5856575518
 20
7.0202111722
 30
0.0
  0
VERTEX
  5
2D3
330
1E7
100
AcDbEntity
  8
0
  6
CONTINUOUS
 62
     7
100
AcDbVertex
100
AcDb2dVertex
 10
8.6110140586
 20
7.0430513083
 30
0.0
  0
VERTEX
  5
2D4
330
1E7
100
AcDbEntity
  8
0
  6
CONTINUOUS
 62
     7
100
AcDbVertex
100
AcDb2dVertex
 10
8.6366918792
 20
7.0646133907
 30
0.0
  0
VERTEX
  5
2D5
330
1E7
100
AcDbEntity
  8
0
  6
CONTINUOUS
 62
     7
100
AcDbVertex
100
AcDb2dVertex
 10
8.6626277068
 20
7.0848442596
 30
0.0
  0
VERTEX
  5
2D6
330
1E7
100
AcDbEntity
  8
0
  6
CONTINUOUS
 62
     7
100
AcDbVertex
100
AcDb2dVertex
 10
8.6887575981
 20
7.103694037
 30
0.0
  0
VERTEX
  5
2D7
330
1E7
100
AcDbEntity
  8
0
  6
CONTINUOUS
 62
     7
100
AcDbVertex
100
AcDb2dVertex
 10
8.7150171317
 20
7.1211162501
 30
0.0
  0
VERTEX
  5
2D8
330
1E7
100
AcDbEntity
  8
0
  6
CONTINUOUS
 62
     7
100
AcDbVertex
100
AcDb2dVertex
 10
8.7413415665
 20
7.1370679456
 30
0.0
  0
VERTEX
  5
2D9
330
1E7
100
AcDbEntity
  8
0
  6
CONTINUOUS
 62
     7
100
AcDbVertex
100
AcDb2dVertex
 10
8.7676660013
 20
7.1515097956
 30
0.0
  0
VERTEX
  5
2DA
330
1E7
100
AcDbEntity
  8
0
  6
CONTINUOUS
 62
     7
100
AcDbVertex
100
AcDb2dVertex
 10
8.7939255349
 20
7.1644061946
 30
0.0
  0
VERTEX
  5
2DB
330
1E7
100
AcDbEntity
  8
0
  6
CONTINUOUS
 62
     7
100
AcDbVertex
100
AcDb2dVertex
 10
8.8200554263
 20
7.1757253476
 30
0.0
  0
VERTEX
  5
2DC
330
1E7
100
AcDbEntity
  8
0
  6
CONTINUOUS
 62
     7
100
AcDbVertex
100
AcDb2dVertex
 10
8.8459912538
 20
7.1854393478
 30
0.0
  0
VERTEX
  5
2DD
330
1E7
100
AcDbEntity
  8
0
  6
CONTINUOUS
 62
     7
100
AcDbVertex
100
AcDb2dVertex
 10
8.8716690745
 20
7.1935242461
 30
0.0
  0
VERTEX
  5
2DE
330
1E7
100
AcDbEntity
  8
0
  6
CONTINUOUS
 62
     7
100
AcDbVertex
100
AcDb2dVertex
 10
8.8970255813
 20
7.1999601096
 30
0.0
  0
VERTEX
  5
2DF
330
1E7
100
AcDbEntity
  8
0
  6
CONTINUOUS
 62
     7
100
AcDbVertex
100
AcDb2dVertex
 10
8.9219982595
 20
7.2047310712
 30
0.0
  0
VERTEX
  5
2E0
330
1E7
100
AcDbEntity
  8
0
  6
CONTINUOUS
 62
     7
100
AcDbVertex
100
AcDb2dVertex
 10
8.9465255405
 20
7.2078253683
 30
0.0
  0
VERTEX
  5
2E1
330
1E7
100
AcDbEntity
  8
0
  6
CONTINUOUS
 62
     7
100
AcDbVertex
100
AcDb2dVertex
 10
8.9705469541
 20
7.2092353722
 30
0.0
  0
VERTEX
  5
2E2
330
1E7
100
AcDbEntity
  8
0
  6
CONTINUOUS
 62
     7
100
AcDbVertex
100
AcDb2dVertex
 10
8.994003277
 20
7.2089576066
 30
0.0
  0
VERTEX
  5
2E3
330
1E7
100
AcDbEntity
  8
0
  6
CONTINUOUS
 62
     7
100
AcDbVertex
100
AcDb2dVertex
 10
9.0168366791
 20
7.2069927564
 30
0.0
  0
VERTEX
  5
2E4
330
1E7
100
AcDbEntity
  8
0
  6
CONTINUOUS
 62
     7
100
AcDbVertex
100
AcDb2dVertex
 10
9.0389908663
 20
7.2033456657
 30
0.0
  0
VERTEX
  5
2E5
330
1E7
100
AcDbEntity
  8
0
  6
CONTINUOUS
 62
     7
100
AcDbVertex
100
AcDb2dVertex
 10
9.0604112189
 20
7.1980253261
 30
0.0
  0
VERTEX
  5
2E6
330
1E7
100
AcDbEntity
  8
0
  6
CONTINUOUS
 62
     7
100
AcDbVertex
100
AcDb2dVertex
 10
9.0810449263
 20
7.1910448548
 30
0.0
  0
VERTEX
  5
2E7
330
1E7
100
AcDbEntity
  8
0
  6
CONTINUOUS
 62
     7
100
AcDbVertex
100
AcDb2dVertex
 10
9.1008411176
 20
7.1824214614
 30
0.0
  0
VERTEX
  5
2E8
330
1E7
100
AcDbEntity
  8
0
  6
CONTINUOUS
 62
     7
100
AcDbVertex
100
AcDb2dVertex
 10
9.1197509866
 20
7.1721764065
 30
0.0
  0
VERTEX
  5
2E9
330
1E7
100
AcDbEntity
  8
0
  6
CONTINUOUS
 62
     7
100
AcDbVertex
100
AcDb2dVertex
 10
9.1377279122
 20
7.1603349485
 30
0.0
  0
VERTEX
  5
2EA
330
1E7
100
AcDbEntity
  8
0
  6
CONTINUOUS
 62
     7
100
AcDbVertex
100
AcDb2dVertex
 10
9.1547275735
 20
7.1469262817
 30
0.0
  0
VERTEX
  5
2EB
330
1E7
100
AcDbEntity
  8
0
  6
CONTINUOUS
 62
     7
100
AcDbVertex
100
AcDb2dVertex
 10
9.170708059
 20
7.1319834645
 30
0.0
  0
VERTEX
  5
2EC
330
1E7
100
AcDbEntity
  8
0
  6
CONTINUOUS
 62
     7
100
AcDbVertex
100
AcDb2dVertex
 10
9.1856299698
 20
7.1155433372
 30
0.0
  0
VERTEX
  5
2ED
330
1E7
100
AcDbEntity
  8
0
  6
CONTINUOUS
 62
     7
100
AcDbVertex
100
AcDb2dVertex
 10
9.199456517
 20
7.0976464319
 30
0.0
  0
VERTEX
  5
2EE
330
1E7
100
AcDbEntity
  8
0
  6
CONTINUOUS
 62
     7
100
AcDbVertex
100
AcDb2dVertex
 10
9.2121536122
 20
7.0783368722
 30
0.0
  0
VERTEX
  5
2EF
330
1E7
100
AcDbEntity
  8
0
  6
CONTINUOUS
 62
     7
100
AcDbVertex
100
AcDb2dVertex
 10
9.2236899513
 20
7.0576622647
 30
0.0
  0
VERTEX
  5
2F0
330
1E7
100
AcDbEntity
  8
0
  6
CONTINUOUS
 62
     7
100
AcDbVertex
100
AcDb2dVertex
 10
9.2340370925
 20
7.0356735812
 30
0.0
  0
VERTEX
  5
2F1
330
1E7
100
AcDbEntity
  8
0
  6
CONTINUOUS
 62
     7
100
AcDbVertex
100
AcDb2dVertex
 10
9.2431695255
 20
7.0124250332
 30
0.0
  0
VERTEX
  5
2F2
330
1E7
100
AcDbEntity
  8
0
  6
CONTINUOUS
 62
     7
100
AcDbVertex
100
AcDb2dVertex
 10
9.2510647349
 20
6.9879739386
 30
0.0
  0
VERTEX
  5
2F3
330
1E7
100
AcDbEntity
  8
0
  6
CONTINUOUS
 62
     7
100
AcDbVertex
100
AcDb2dVertex
 10
9.2577032556
 20
6.96238058
 30
0.0
  0
VERTEX
  5
2F4
330
1E7
100
AcDbEntity
  8
0
  6
CONTINUOUS
 62
     7
100
AcDbVertex
100
AcDb2dVertex
 10
9.2630687207
 20
6.935708056
 30
0.0
  0
VERTEX
  5
2F5
330
1E7
100
AcDbEntity
  8
0
  6
CONTINUOUS
 62
     7
100
AcDbVertex
100
AcDb2dVertex
 10
9.2671479021
 20
6.908022126
 30
0.0
  0
VERTEX
  5
2F6
330
1E7
100
AcDbEntity
  8
0
  6
CONTINUOUS
 62
     7
100
AcDbVertex
100
AcDb2dVertex
 10
9.2699307428
 20
6.8793910478
 30
0.0
  0
VERTEX
  5
2F7
330
1E7
100
AcDbEntity
  8
0
  6
CONTINUOUS
 62
     7
100
AcDbVertex
100
AcDb2dVertex
 10
9.2714103818
 20
6.8498854095
 30
0.0
  0
VERTEX
  5
2F8
330
1E7
100
AcDbEntity
  8
0
  6
CONTINUOUS
 62
     7
100
AcDbVertex
100
AcDb2dVertex
 10
9.2716716524
 20
6.8308153786
 30
0.0
  0
SEQEND
  5
2F9
330
1E7
100
AcDbEntity
  8
0
  6
CONTINUOUS
 62
     7
  0
LINE
  5
1E8
330
1F
100
AcDbEntity
  8
0
  6
CONTINUOUS
 62
     7
100
AcDbLine
 10
8.7483012789
 20
5.9163272215
 30
0.0
 11
8.7553723467
 21
5.9204113018
 31
0.0
  0
POLYLINE
  5
1E9
330
1F
100
AcDbEntity
  8
0
  6
CONTINUOUS
 62
     7
100
AcDb2dPolyline
 66
     1
 10
0.0
 20
0.0
 30
0.0
  0
VERTEX
  5
2FA
330
1E9
100
AcDbEntity
  8
0
  6
CONTINUOUS
 62
     7
100
AcDbVertex
100
AcDb2dVertex
 10
7.9807087362
 20
7.8297682688
 30
0.0
  0
VERTEX
  5
2FB
330
1E9
100
AcDbEntity
  8
0
  6
CONTINUOUS
 62
     7
100
AcDbVertex
100
AcDb2dVertex
 10
7.9723005082
 20
7.8344093033
 30
0.0
  0
VERTEX
  5
2FC
330
1E9
100
AcDbEntity
  8
0
  6
CONTINUOUS
 62
     7
100
AcDbVertex
100
AcDb2dVertex
 10
7.9528247976
 20
7.8436319253
 30
0.0
  0
VERTEX
  5
2FD
330
1E9
100
AcDbEntity
  8
0
  6
CONTINUOUS
 62
     7
100
AcDbVertex
100
AcDb2dVertex
 10
7.9324933704
 20
7.8512189777
 30
0.0
  0
VERTEX
  5
2FE
330
1E9
100
AcDbEntity
  8
0
  6
CONTINUOUS
 62
     7
100
AcDbVertex
100
AcDb2dVertex
 10
7.9113563524
 20
7.8571517553
 30
0.0
  0
VERTEX
  5
2FF
330
1E9
100
AcDbEntity
  8
0
  6
CONTINUOUS
 62
     7
100
AcDbVertex
100
AcDb2dVertex
 10
7.8894658557
 20
7.8614156311
 30
0.0
  0
VERTEX
  5
300
330
1E9
100
AcDbEntity
  8
0
  6
CONTINUOUS
 62
     7
100
AcDbVertex
100
AcDb2dVertex
 10
7.8668758497
 20
7.8640000928
 30
0.0
  0
VERTEX
  5
301
330
1E9
100
AcDbEntity
  8
0
  6
CONTINUOUS
 62
     7
100
AcDbVertex
100
AcDb2dVertex
 10
7.8436420286
 20
7.8648987686
 30
0.0
  0
VERTEX
  5
302
330
1E9
100
AcDbEntity
  8
0
  6
CONTINUOUS
 62
     7
100
AcDbVertex
100
AcDb2dVertex
 10
7.8198216738
 20
7.864109443
 30
0.0
  0
VERTEX
  5
303
330
1E9
100
AcDbEntity
  8
0
  6
CONTINUOUS
 62
     7
100
AcDbVertex
100
AcDb2dVertex
 10
7.7954735129
 20
7.8616340618
 30
0.0
  0
VERTEX
  5
304
330
1E9
100
AcDbEntity
  8
0
  6
CONTINUOUS
 62
     7
100
AcDbVertex
100
AcDb2dVertex
 10
7.7706575747
 20
7.857478728
 30
0.0
  0
VERTEX
  5
305
330
1E9
100
AcDbEntity
  8
0
  6
CONTINUOUS
 62
     7
100
AcDbVertex
100
AcDb2dVertex
 10
7.7454350412
 20
7.8516536864
 30
0.0
  0
VERTEX
  5
306
330
1E9
100
AcDbEntity
  8
0
  6
CONTINUOUS
 62
     7
100
AcDbVertex
100
AcDb2dVertex
 10
7.7198680968
 20
7.8441732981
 30
0.0
  0
VERTEX
  5
307
330
1E9
100
AcDbEntity
  8
0
  6
CONTINUOUS
 62
     7
100
AcDbVertex
100
AcDb2dVertex
 10
7.6940197752
 20
7.8350560056
 30
0.0
  0
VERTEX
  5
308
330
1E9
100
AcDbEntity
  8
0
  6
CONTINUOUS
 62
     7
100
AcDbVertex
100
AcDb2dVertex
 10
7.6679538038
 20
7.8243242869
 30
0.0
  0
VERTEX
  5
309
330
1E9
100
AcDbEntity
  8
0
  6
CONTINUOUS
 62
     7
100
AcDbVertex
100
AcDb2dVertex
 10
7.6417344464
 20
7.8120046004
 30
0.0
  0
VERTEX
  5
30A
330
1E9
100
AcDbEntity
  8
0
  6
CONTINUOUS
 62
     7
100
AcDbVertex
100
AcDb2dVertex
 10
7.6154263451
 20
7.7981273194
 30
0.0
  0
VERTEX
  5
30B
330
1E9
100
AcDbEntity
  8
0
  6
CONTINUOUS
 62
     7
100
AcDbVertex
100
AcDb2dVertex
 10
7.5890943608
 20
7.7827266576
 30
0.0
  0
VERTEX
  5
30C
330
1E9
100
AcDbEntity
  8
0
  6
CONTINUOUS
 62
     7
100
AcDbVertex
100
AcDb2dVertex
 10
7.5628034133
 20
7.7658405841
 30
0.0
  0
VERTEX
  5
30D
330
1E9
100
AcDbEntity
  8
0
  6
CONTINUOUS
 62
     7
100
AcDbVertex
100
AcDb2dVertex
 10
7.5366183212
 20
7.7475107305
 30
0.0
  0
VERTEX
  5
30E
330
1E9
100
AcDbEntity
  8
0
  6
CONTINUOUS
 62
     7
100
AcDbVertex
100
AcDb2dVertex
 10
7.5106036421
 20
7.7277822878
 30
0.0
  0
VERTEX
  5
30F
330
1E9
100
AcDbEntity
  8
0
  6
CONTINUOUS
 62
     7
100
AcDbVertex
100
AcDb2dVertex
 10
7.4848235134
 20
7.7067038952
 30
0.0
  0
VERTEX
  5
310
330
1E9
100
AcDbEntity
  8
0
  6
CONTINUOUS
 62
     7
100
AcDbVertex
100
AcDb2dVertex
 10
7.4593414943
 20
7.68432752
 30
0.0
  0
VERTEX
  5
311
330
1E9
100
AcDbEntity
  8
0
  6
CONTINUOUS
 62
     7
100
AcDbVertex
100
AcDb2dVertex
 10
7.4342204092
 20
7.6607083299
 30
0.0
  0
VERTEX
  5
312
330
1E9
100
AcDbEntity
  8
0
  6
CONTINUOUS
 62
     7
100
AcDbVertex
100
AcDb2dVertex
 10
7.4095221922
 20
7.6359045562
 30
0.0
  0
VERTEX
  5
313
330
1E9
100
AcDbEntity
  8
0
  6
CONTINUOUS
 62
     7
100
AcDbVertex
100
AcDb2dVertex
 10
7.3853077354
 20
7.609977351
 30
0.0
  0
VERTEX
  5
314
330
1E9
100
AcDbEntity
  8
0
  6
CONTINUOUS
 62
     7
100
AcDbVertex
100
AcDb2dVertex
 10
7.3616367377
 20
7.5829906363
 30
0.0
  0
VERTEX
  5
315
330
1E9
100
AcDbEntity
  8
0
  6
CONTINUOUS
 62
     7
100
AcDbVertex
100
AcDb2dVertex
 10
7.3385675586
 20
7.5550109458
 30
0.0
  0
VERTEX
  5
316
330
1E9
100
AcDbEntity
  8
0
  6
CONTINUOUS
 62
     7
100
AcDbVertex
100
AcDb2dVertex
 10
7.3161570734
 20
7.5261072617
 30
0.0
  0
VERTEX
  5
317
330
1E9
100
AcDbEntity
  8
0
  6
CONTINUOUS
 62
     7
100
AcDbVertex
100
AcDb2dVertex
 10
7.2944605339
 20
7.4963508442
 30
0.0
  0
VERTEX
  5
318
330
1E9
100
AcDbEntity
  8
0
  6
CONTINUOUS
 62
     7
100
AcDbVertex
100
AcDb2dVertex
 10
7.2735314313
 20
7.4658150556
 30
0.0
  0
VERTEX
  5
319
330
1E9
100
AcDbEntity
  8
0
  6
CONTINUOUS
 62
     7
100
AcDbVertex
100
AcDb2dVertex
 10
7.253421365
 20
7.43457518
 30
0.0
  0
VERTEX
  5
31A
330
1E9
100
AcDbEntity
  8
0
  6
CONTINUOUS
 62
     7
100
AcDbVertex
100
AcDb2dVertex
 10
7.234179915
 20
7.4027082372
 30
0.0
  0
VERTEX
  5
31B
330
1E9
100
AcDbEntity
  8
0
  6
CONTINUOUS
 62
     7
100
AcDbVertex
100
AcDb2dVertex
 10
7.2158545199
 20
7.3702927931
 30
0.0
  0
VERTEX
  5
31C
330
1E9
100
AcDbEntity
  8
0
  6
CONTINUOUS
 62
     7
100
AcDbVertex
100
AcDb2dVertex
 10
7.1984903596
 20
7.3374087657
 30
0.0
  0
VERTEX
  5
31D
330
1E9
100
AcDbEntity
  8
0
  6
CONTINUOUS
 62
     7
100
AcDbVertex
100
AcDb2dVertex
 10
7.1821302444
 20
7.3041372284
 30
0.0
  0
VERTEX
  5
31E
330
1E9
100
AcDbEntity
  8
0
  6
CONTINUOUS
 62
     7
100
AcDbVertex
100
AcDb2dVertex
 10
7.1668145091
 20
7.2705602101
 30
0.0
  0
VERTEX
  5
31F
330
1E9
100
AcDbEntity
  8
0
  6
CONTINUOUS
 62
     7
100
AcDbVertex
100
AcDb2dVertex
 10
7.1525809136
 20
7.2367604927
 30
0.0
  0
VERTEX
  5
320
330
1E9
100
AcDbEntity
  8
0
  6
CONTINUOUS
 62
     7
100
AcDbVertex
100
AcDb2dVertex
 10
7.1394645499
 20
7.202821407
 30
0.0
  0
VERTEX
  5
321
330
1E9
100
AcDbEntity
  8
0
  6
CONTINUOUS
 62
     7
100
AcDbVertex
100
AcDb2dVertex
 10
7.1274977554
 20
7.1688266277
 30
0.0
  0
VERTEX
  5
322
330
1E9
100
AcDbEntity
  8
0
  6
CONTINUOUS
 62
     7
100
AcDbVertex
100
AcDb2dVertex
 10
7.1167100336
 20
7.1348599667
 30
0.0
  0
VERTEX
  5
323
330
1E9
100
AcDbEntity
  8
0
  6
CONTINUOUS
 62
     7
100
AcDbVertex
100
AcDb2dVertex
 10
7.1071279809
 20
7.1010051665
 30
0.0
  0
VERTEX
  5
324
330
1E9
100
AcDbEntity
  8
0
  6
CONTINUOUS
 62
     7
100
AcDbVertex
100
AcDb2dVertex
 10
7.0987752211
 20
7.0673456939
 30
0.0
  0
VERTEX
  5
325
330
1E9
100
AcDbEntity
  8
0
  6
CONTINUOUS
 62
     7
100
AcDbVertex
100
AcDb2dVertex
 10
7.0916723475
 20
7.0339645341
 30
0.0
  0
VERTEX
  5
326
330
1E9
100
AcDbEntity
  8
0
  6
CONTINUOUS
 62
     7
100
AcDbVertex
100
AcDb2dVertex
 10
7.0858368717
 20
7.0009439861
 30
0.0
  0
VERTEX
  5
327
330
1E9
100
AcDbEntity
  8
0
  6
CONTINUOUS
 62
     7
100
AcDbVertex
100
AcDb2dVertex
 10
7.0812831806
 20
6.9683654598
 30
0.0
  0
VERTEX
  5
328
330
1E9
100
AcDbEntity
  8
0
  6
CONTINUOUS
 62
     7
100
AcDbVertex
100
AcDb2dVertex
 10
7.0780225012
 20
6.9363092756
 30
0.0
  0
VERTEX
  5
329
330
1E9
100
AcDbEntity
  8
0
  6
CONTINUOUS
 62
     7
100
AcDbVertex
100
AcDb2dVertex
 10
7.0760628724
 20
6.9048544658
 30
0.0
  0
VERTEX
  5
32A
330
1E9
100
AcDbEntity
  8
0
  6
CONTINUOUS
 62
     7
100
AcDbVertex
100
AcDb2dVertex
 10
7.0754091256
 20
6.8740785801
 30
0.0
  0
VERTEX
  5
32B
330
1E9
100
AcDbEntity
  8
0
  6
CONTINUOUS
 62
     7
100
AcDbVertex
100
AcDb2dVertex
 10
7.0760628724
 20
6.8440574945
 30
0.0
  0
VERTEX
  5
32C
330
1E9
100
AcDbEntity
  8
0
  6
CONTINUOUS
 62
     7
100
AcDbVertex
100
AcDb2dVertex
 10
7.0780225012
 20
6.8148652239
 30
0.0
  0
VERTEX
  5
32D
330
1E9
100
AcDbEntity
  8
0
  6
CONTINUOUS
 62
     7
100
AcDbVertex
100
AcDb2dVertex
 10
7.0812831806
 20
6.7865737399
 30
0.0
  0
VERTEX
  5
32E
330
1E9
100
AcDbEntity
  8
0
  6
CONTINUOUS
 62
     7
100
AcDbVertex
100
AcDb2dVertex
 10
7.0858368717
 20
6.7592527935
 30
0.0
  0
VERTEX
  5
32F
330
1E9
100
AcDbEntity
  8
0
  6
CONTINUOUS
 62
     7
100
AcDbVertex
100
AcDb2dVertex
 10
7.0916723475
 20
6.7329697424
 30
0.0
  0
VERTEX
  5
330
330
1E9
100
AcDbEntity
  8
0
  6
CONTINUOUS
 62
     7
100
AcDbVertex
100
AcDb2dVertex
 10
7.0987752211
 20
6.7077893859
 30
0.0
  0
VERTEX
  5
331
330
1E9
100
AcDbEntity
  8
0
  6
CONTINUOUS
 62
     7
100
AcDbVertex
100
AcDb2dVertex
 10
7.1071279809
 20
6.6837738044
 30
0.0
  0
VERTEX
  5
332
330
1E9
100
AcDbEntity
  8
0
  6
CONTINUOUS
 62
     7
100
AcDbVertex
100
AcDb2dVertex
 10
7.1167100336
 20
6.6609822069
 30
0.0
  0
VERTEX
  5
333
330
1E9
100
AcDbEntity
  8
0
  6
CONTINUOUS
 62
     7
100
AcDbVertex
100
AcDb2dVertex
 10
7.1274977554
 20
6.6394707843
 30
0.0
  0
VERTEX
  5
334
330
1E9
100
AcDbEntity
  8
0
  6
CONTINUOUS
 62
     7
100
AcDbVertex
100
AcDb2dVertex
 10
7.1394645499
 20
6.6192925718
 30
0.0
  0
VERTEX
  5
335
330
1E9
100
AcDbEntity
  8
0
  6
CONTINUOUS
 62
     7
100
AcDbVertex
100
AcDb2dVertex
 10
7.1525809136
 20
6.6004973174
 30
0.0
  0
VERTEX
  5
336
330
1E9
100
AcDbEntity
  8
0
  6
CONTINUOUS
 62
     7
100
AcDbVertex
100
AcDb2dVertex
 10
7.1668145091
 20
6.5831313596
 30
0.0
  0
VERTEX
  5
337
330
1E9
100
AcDbEntity
  8
0
  6
CONTINUOUS
 62
     7
100
AcDbVertex
100
AcDb2dVertex
 10
7.1821302444
 20
6.5672375128
 30
0.0
  0
VERTEX
  5
338
330
1E9
100
AcDbEntity
  8
0
  6
CONTINUOUS
 62
     7
100
AcDbVertex
100
AcDb2dVertex
 10
7.1984903596
 20
6.5528549625
 30
0.0
  0
VERTEX
  5
339
330
1E9
100
AcDbEntity
  8
0
  6
CONTINUOUS
 62
     7
100
AcDbVertex
100
AcDb2dVertex
 10
7.2158545199
 20
6.5400191678
 30
0.0
  0
VERTEX
  5
33A
330
1E9
100
AcDbEntity
  8
0
  6
CONTINUOUS
 62
     7
100
AcDbVertex
100
AcDb2dVertex
 10
7.2307696867
 20
6.5306949752
 30
0.0
  0
SEQEND
  5
33B
330
1E9
100
AcDbEntity
  8
0
  6
CONTINUOUS
 62
     7
  0
POLYLINE
  5
1EA
330
1F
100
AcDbEntity
  8
0
  6
CONTINUOUS
 62
     7
100
AcDb2dPolyline
 66
     1
 10
0.0
 20
0.0
 30
0.0
  0
VERTEX
  5
33C
330
1EA
100
AcDbEntity
  8
0
  6
CONTINUOUS
 62
     7
100
AcDbVertex
100
AcDb2dVertex
 10
7.6063238273
 20
7.297076036
 30
0.0
  0
VERTEX
  5
33D
330
1EA
100
AcDbEntity
  8
0
  6
CONTINUOUS
 62
     7
100
AcDbVertex
100
AcDb2dVertex
 10
7.6279032303
 20
7.3274996132
 30
0.0
  0
VERTEX
  5
33E
330
1EA
100
AcDbEntity
  8
0
  6
CONTINUOUS
 62
     7
100
AcDbVertex
100
AcDb2dVertex
 10
7.6502356903
 20
7.3570856824
 30
0.0
  0
VERTEX
  5
33F
330
1EA
100
AcDbEntity
  8
0
  6
CONTINUOUS
 62
     7
100
AcDbVertex
100
AcDb2dVertex
 10
7.6732650104
 20
7.385759794
 30
0.0
  0
VERTEX
  5
340
330
1EA
100
AcDbEntity
  8
0
  6
CONTINUOUS
 62
     7
100
AcDbVertex
100
AcDb2dVertex
 10
7.6969332405
 20
7.4134497936
 30
0.0
  0
VERTEX
  5
341
330
1EA
100
AcDbEntity
  8
0
  6
CONTINUOUS
 62
     7
100
AcDbVertex
100
AcDb2dVertex
 10
7.7211808225
 20
7.4400860027
 30
0.0
  0
VERTEX
  5
342
330
1EA
100
AcDbEntity
  8
0
  6
CONTINUOUS
 62
     7
100
AcDbVertex
100
AcDb2dVertex
 10
7.7459467406
 20
7.465601395
 30
0.0
  0
VERTEX
  5
343
330
1EA
100
AcDbEntity
  8
0
  6
CONTINUOUS
 62
     7
100
AcDbVertex
100
AcDb2dVertex
 10
7.7711686746
 20
7.4899317641
 30
0.0
  0
VERTEX
  5
344
330
1EA
100
AcDbEntity
  8
0
  6
CONTINUOUS
 62
     7
100
AcDbVertex
100
AcDb2dVertex
 10
7.7967831569
 20
7.5130158861
 30
0.0
  0
VERTEX
  5
345
330
1EA
100
AcDbEntity
  8
0
  6
CONTINUOUS
 62
     7
100
AcDbVertex
100
AcDb2dVertex
 10
7.8227257319
 20
7.5347956727
 30
0.0
  0
VERTEX
  5
346
330
1EA
100
AcDbEntity
  8
0
  6
CONTINUOUS
 62
     7
100
AcDbVertex
100
AcDb2dVertex
 10
7.8489311185
 20
7.5552163179
 30
0.0
  0
VERTEX
  5
347
330
1EA
100
AcDbEntity
  8
0
  6
CONTINUOUS
 62
     7
100
AcDbVertex
100
AcDb2dVertex
 10
7.8753333744
 20
7.5742264358
 30
0.0
  0
VERTEX
  5
348
330
1EA
100
AcDbEntity
  8
0
  6
CONTINUOUS
 62
     7
100
AcDbVertex
100
AcDb2dVertex
 10
7.9018660617
 20
7.5917781901
 30
0.0
  0
VERTEX
  5
349
330
1EA
100
AcDbEntity
  8
0
  6
CONTINUOUS
 62
     7
100
AcDbVertex
100
AcDb2dVertex
 10
7.9284624145
 20
7.6078274139
 30
0.0
  0
VERTEX
  5
34A
330
1EA
100
AcDbEntity
  8
0
  6
CONTINUOUS
 62
     7
100
AcDbVertex
100
AcDb2dVertex
 10
7.9550555064
 20
7.6223337216
 30
0.0
  0
VERTEX
  5
34B
330
1EA
100
AcDbEntity
  8
0
  6
CONTINUOUS
 62
     7
100
AcDbVertex
100
AcDb2dVertex
 10
7.9815784194
 20
7.63526061
 30
0.0
  0
VERTEX
  5
34C
330
1EA
100
AcDbEntity
  8
0
  6
CONTINUOUS
 62
     7
100
AcDbVertex
100
AcDb2dVertex
 10
8.0079644122
 20
7.6465755501
 30
0.0
  0
VERTEX
  5
34D
330
1EA
100
AcDbEntity
  8
0
  6
CONTINUOUS
 62
     7
100
AcDbVertex
100
AcDb2dVertex
 10
8.0341470878
 20
7.6562500695
 30
0.0
  0
VERTEX
  5
34E
330
1EA
100
AcDbEntity
  8
0
  6
CONTINUOUS
 62
     7
100
AcDbVertex
100
AcDb2dVertex
 10
8.060060561
 20
7.6642598234
 30
0.0
  0
VERTEX
  5
34F
330
1EA
100
AcDbEntity
  8
0
  6
CONTINUOUS
 62
     7
100
AcDbVertex
100
AcDb2dVertex
 10
8.0856396239
 20
7.6705846565
 30
0.0
  0
VERTEX
  5
350
330
1EA
100
AcDbEntity
  8
0
  6
CONTINUOUS
 62
     7
100
AcDbVertex
100
AcDb2dVertex
 10
8.1108199102
 20
7.6752086531
 30
0.0
  0
VERTEX
  5
351
330
1EA
100
AcDbEntity
  8
0
  6
CONTINUOUS
 62
     7
100
AcDbVertex
100
AcDb2dVertex
 10
8.1355380569
 20
7.6781201774
 30
0.0
  0
VERTEX
  5
352
330
1EA
100
AcDbEntity
  8
0
  6
CONTINUOUS
 62
     7
100
AcDbVertex
100
AcDb2dVertex
 10
8.1597318642
 20
7.6793119031
 30
0.0
  0
VERTEX
  5
353
330
1EA
100
AcDbEntity
  8
0
  6
CONTINUOUS
 62
     7
100
AcDbVertex
100
AcDb2dVertex
 10
8.1833404514
 20
7.6787808313
 30
0.0
  0
VERTEX
  5
354
330
1EA
100
AcDbEntity
  8
0
  6
CONTINUOUS
 62
     7
100
AcDbVertex
100
AcDb2dVertex
 10
8.2063044106
 20
7.6765282983
 30
0.0
  0
VERTEX
  5
355
330
1EA
100
AcDbEntity
  8
0
  6
CONTINUOUS
 62
     7
100
AcDbVertex
100
AcDb2dVertex
 10
8.2285659562
 20
7.6725599725
 30
0.0
  0
VERTEX
  5
356
330
1EA
100
AcDbEntity
  8
0
  6
CONTINUOUS
 62
     7
100
AcDbVertex
100
AcDb2dVertex
 10
8.2500690697
 20
7.6668858395
 30
0.0
  0
VERTEX
  5
357
330
1EA
100
AcDbEntity
  8
0
  6
CONTINUOUS
 62
     7
100
AcDbVertex
100
AcDb2dVertex
 10
8.2707596415
 20
7.6595201776
 30
0.0
  0
VERTEX
  5
358
330
1EA
100
AcDbEntity
  8
0
  6
CONTINUOUS
 62
     7
100
AcDbVertex
100
AcDb2dVertex
 10
8.2905856064
 20
7.6504815215
 30
0.0
  0
VERTEX
  5
359
330
1EA
100
AcDbEntity
  8
0
  6
CONTINUOUS
 62
     7
100
AcDbVertex
100
AcDb2dVertex
 10
8.3090312334
 20
7.6400825919
 30
0.0
  0
SEQEND
  5
35A
330
1EA
100
AcDbEntity
  8
0
  6
CONTINUOUS
 62
     7
  0
LINE
  5
1EB
330
1F
100
AcDbEntity
  8
0
  6
CONTINUOUS
 62
     7
100
AcDbLine
 10
7.6202432521
 20
7.289040523
 30
0.0
 11
7.6063238273
 21
7.297076036
 31
0.0
  0
POLYLINE
  5
1EC
330
1F
100
AcDbEntity
  8
0
  6
CONTINUOUS
 62
     7
100
AcDb2dPolyline
 66
     1
 10
0.0
 20
0.0
 30
0.0
  0
VERTEX
  5
35B
330
1EC
100
AcDbEntity
  8
0
  6
CONTINUOUS
 62
     7
100
AcDbVertex
100
AcDb2dVertex
 10
8.3160555191
 20
7.6361766917
 30
0.0
  0
VERTEX
  5
35C
330
1EC
100
AcDbEntity
  8
0
  6
CONTINUOUS
 62
     7
100
AcDbVertex
100
AcDb2dVertex
 10
8.3145343515
 20
7.6370477481
 30
0.0
  0
VERTEX
  5
35D
330
1EC
100
AcDbEntity
  8
0
  6
CONTINUOUS
 62
     7
100
AcDbVertex
100
AcDb2dVertex
 10
8.2955065162
 20
7.6468052489
 30
0.0
  0
VERTEX
  5
35E
330
1EC
100
AcDbEntity
  8
0
  6
CONTINUOUS
 62
     7
100
AcDbVertex
100
AcDb2dVertex
 10
8.2756158511
 20
7.6549555905
 30
0.0
  0
VERTEX
  5
35F
330
1EC
100
AcDbEntity
  8
0
  6
CONTINUOUS
 62
     7
100
AcDbVertex
100
AcDb2dVertex
 10
8.2549107797
 20
7.661478931
 30
0.0
  0
VERTEX
  5
360
330
1EC
100
AcDbEntity
  8
0
  6
CONTINUOUS
 62
     7
100
AcDbVertex
100
AcDb2dVertex
 10
8.2334417079
 20
7.6663593895
 30
0.0
  0
VERTEX
  5
361
330
1EC
100
AcDbEntity
  8
0
  6
CONTINUOUS
 62
     7
100
AcDbVertex
100
AcDb2dVertex
 10
8.2112609019
 20
7.6695850845
 30
0.0
  0
VERTEX
  5
362
330
1EC
100
AcDbEntity
  8
0
  6
CONTINUOUS
 62
     7
100
AcDbVertex
100
AcDb2dVertex
 10
8.1884223604
 20
7.6711481633
 30
0.0
  0
VERTEX
  5
363
330
1EC
100
AcDbEntity
  8
0
  6
CONTINUOUS
 62
     7
100
AcDbVertex
100
AcDb2dVertex
 10
8.1649816833
 20
7.6710448204
 30
0.0
  0
VERTEX
  5
364
330
1EC
100
AcDbEntity
  8
0
  6
CONTINUOUS
 62
     7
100
AcDbVertex
100
AcDb2dVertex
 10
8.1409959366
 20
7.6692753075
 30
0.0
  0
VERTEX
  5
365
330
1EC
100
AcDbEntity
  8
0
  6
CONTINUOUS
 62
     7
100
AcDbVertex
100
AcDb2dVertex
 10
8.1165235131
 20
7.6658439325
 30
0.0
  0
VERTEX
  5
366
330
1EC
100
AcDbEntity
  8
0
  6
CONTINUOUS
 62
     7
100
AcDbVertex
100
AcDb2dVertex
 10
8.0916239903
 20
7.6607590489
 30
0.0
  0
VERTEX
  5
367
330
1EC
100
AcDbEntity
  8
0
  6
CONTINUOUS
 62
     7
100
AcDbVertex
100
AcDb2dVertex
 10
8.0663579858
 20
7.6540330358
 30
0.0
  0
VERTEX
  5
368
330
1EC
100
AcDbEntity
  8
0
  6
CONTINUOUS
 62
     7
100
AcDbVertex
100
AcDb2dVertex
 10
8.040787009
 20
7.6456822676
 30
0.0
  0
VERTEX
  5
369
330
1EC
100
AcDbEntity
  8
0
  6
CONTINUOUS
 62
     7
100
AcDbVertex
100
AcDb2dVertex
 10
8.0149733121
 20
7.635727074
 30
0.0
  0
VERTEX
  5
36A
330
1EC
100
AcDbEntity
  8
0
  6
CONTINUOUS
 62
     7
100
AcDbVertex
100
AcDb2dVertex
 10
7.9889797379
 20
7.6241916907
 30
0.0
  0
VERTEX
  5
36B
330
1EC
100
AcDbEntity
  8
0
  6
CONTINUOUS
 62
     7
100
AcDbVertex
100
AcDb2dVertex
 10
7.9628695674
 20
7.6111042004
 30
0.0
  0
VERTEX
  5
36C
330
1EC
100
AcDbEntity
  8
0
  6
CONTINUOUS
 62
     7
100
AcDbVertex
100
AcDb2dVertex
 10
7.9367063651
 20
7.5964964644
 30
0.0
  0
VERTEX
  5
36D
330
1EC
100
AcDbEntity
  8
0
  6
CONTINUOUS
 62
     7
100
AcDbVertex
100
AcDb2dVertex
 10
7.910553825
 20
7.5804040449
 30
0.0
  0
VERTEX
  5
36E
330
1EC
100
AcDbEntity
  8
0
  6
CONTINUOUS
 62
     7
100
AcDbVertex
100
AcDb2dVertex
 10
7.8844756149
 20
7.5628661186
 30
0.0
  0
VERTEX
  5
36F
330
1EC
100
AcDbEntity
  8
0
  6
CONTINUOUS
 62
     7
100
AcDbVertex
100
AcDb2dVertex
 10
7.8585352216
 20
7.5439253812
 30
0.0
  0
VERTEX
  5
370
330
1EC
100
AcDbEntity
  8
0
  6
CONTINUOUS
 62
     7
100
AcDbVertex
100
AcDb2dVertex
 10
7.8327957966
 20
7.5236279436
 30
0.0
  0
VERTEX
  5
371
330
1EC
100
AcDbEntity
  8
0
  6
CONTINUOUS
 62
     7
100
AcDbVertex
100
AcDb2dVertex
 10
7.8073200019
 20
7.5020232195
 30
0.0
  0
VERTEX
  5
372
330
1EC
100
AcDbEntity
  8
0
  6
CONTINUOUS
 62
     7
100
AcDbVertex
100
AcDb2dVertex
 10
7.782169858
 20
7.4791638051
 30
0.0
  0
VERTEX
  5
373
330
1EC
100
AcDbEntity
  8
0
  6
CONTINUOUS
 62
     7
100
AcDbVertex
100
AcDb2dVertex
 10
7.7574065922
 20
7.4551053513
 30
0.0
  0
VERTEX
  5
374
330
1EC
100
AcDbEntity
  8
0
  6
CONTINUOUS
 62
     7
100
AcDbVertex
100
AcDb2dVertex
 10
7.7330904903
 20
7.4299064279
 30
0.0
  0
VERTEX
  5
375
330
1EC
100
AcDbEntity
  8
0
  6
CONTINUOUS
 62
     7
100
AcDbVertex
100
AcDb2dVertex
 10
7.7092807495
 20
7.4036283811
 30
0.0
  0
VERTEX
  5
376
330
1EC
100
AcDbEntity
  8
0
  6
CONTINUOUS
 62
     7
100
AcDbVertex
100
AcDb2dVertex
 10
7.6860353339
 20
7.3763351845
 30
0.0
  0
VERTEX
  5
377
330
1EC
100
AcDbEntity
  8
0
  6
CONTINUOUS
 62
     7
100
AcDbVertex
100
AcDb2dVertex
 10
7.6634108342
 20
7.3480932826
 30
0.0
  0
VERTEX
  5
378
330
1EC
100
AcDbEntity
  8
0
  6
CONTINUOUS
 62
     7
100
AcDbVertex
100
AcDb2dVertex
 10
7.6414623292
 20
7.31897143
 30
0.0
  0
VERTEX
  5
379
330
1EC
100
AcDbEntity
  8
0
  6
CONTINUOUS
 62
     7
100
AcDbVertex
100
AcDb2dVertex
 10
7.6202432521
 20
7.289040523
 30
0.0
  0
SEQEND
  5
37A
330
1EC
100
AcDbEntity
  8
0
  6
CONTINUOUS
 62
     7
  0
POLYLINE
  5
1ED
330
1F
100
AcDbEntity
  8
0
  6
CONTINUOUS
 62
     7
100
AcDb2dPolyline
 66
     1
 10
0.0
 20
0.0
 30
0.0
  0
VERTEX
  5
37B
330
1ED
100
AcDbEntity
  8
0
  6
CONTINUOUS
 62
     7
100
AcDbVertex
100
AcDb2dVertex
 10
7.9327129637
 20
6.6708713613
 30
0.0
  0
VERTEX
  5
37C
330
1ED
100
AcDbEntity
  8
0
  6
CONTINUOUS
 62
     7
100
AcDbVertex
100
AcDb2dVertex
 10
7.922786663
 20
6.6365178753
 30
0.0
  0
VERTEX
  5
37D
330
1ED
100
AcDbEntity
  8
0
  6
CONTINUOUS
 62
     7
100
AcDbVertex
100
AcDb2dVertex
 10
7.9141205097
 20
6.6023512097
 30
0.0
  0
VERTEX
  5
37E
330
1ED
100
AcDbEntity
  8
0
  6
CONTINUOUS
 62
     7
100
AcDbVertex
100
AcDb2dVertex
 10
7.9067364712
 20
6.568457972
 30
0.0
  0
VERTEX
  5
37F
330
1ED
100
AcDbEntity
  8
0
  6
CONTINUOUS
 62
     7
100
AcDbVertex
100
AcDb2dVertex
 10
7.900653265
 20
6.5349240767
 30
0.0
  0
VERTEX
  5
380
330
1ED
100
AcDbEntity
  8
0
  6
CONTINUOUS
 62
     7
100
AcDbVertex
100
AcDb2dVertex
 10
7.8958863112
 20
6.5018345276
 30
0.0
  0
VERTEX
  5
381
330
1ED
100
AcDbEntity
  8
0
  6
CONTINUOUS
 62
     7
100
AcDbVertex
100
AcDb2dVertex
 10
7.8924476933
 20
6.4692732018
 30
0.0
  0
VERTEX
  5
382
330
1ED
100
AcDbEntity
  8
0
  6
CONTINUOUS
 62
     7
100
AcDbVertex
100
AcDb2dVertex
 10
7.8903461278
 20
6.4373226377
 30
0.0
  0
VERTEX
  5
383
330
1ED
100
AcDbEntity
  8
0
  6
CONTINUOUS
 62
     7
100
AcDbVertex
100
AcDb2dVertex
 10
7.8895869417
 20
6.4060638254
 30
0.0
  0
VERTEX
  5
384
330
1ED
100
AcDbEntity
  8
0
  6
CONTINUOUS
 62
     7
100
AcDbVertex
100
AcDb2dVertex
 10
7.8901720596
 20
6.3755760016
 30
0.0
  0
VERTEX
  5
385
330
1ED
100
AcDbEntity
  8
0
  6
CONTINUOUS
 62
     7
100
AcDbVertex
100
AcDb2dVertex
 10
7.8920999983
 20
6.3459364485
 30
0.0
  0
VERTEX
  5
386
330
1ED
100
AcDbEntity
  8
0
  6
CONTINUOUS
 62
     7
100
AcDbVertex
100
AcDb2dVertex
 10
7.8953658706
 20
6.3172202981
 30
0.0
  0
VERTEX
  5
387
330
1ED
100
AcDbEntity
  8
0
  6
CONTINUOUS
 62
     7
100
AcDbVertex
100
AcDb2dVertex
 10
7.8999613981
 20
6.2895003419
 30
0.0
  0
VERTEX
  5
388
330
1ED
100
AcDbEntity
  8
0
  6
CONTINUOUS
 62
     7
100
AcDbVertex
100
AcDb2dVertex
 10
7.9058749318
 20
6.2628468459
 30
0.0
  0
VERTEX
  5
389
330
1ED
100
AcDbEntity
  8
0
  6
CONTINUOUS
 62
     7
100
AcDbVertex
100
AcDb2dVertex
 10
7.9130914816
 20
6.2373273729
 30
0.0
  0
VERTEX
  5
38A
330
1ED
100
AcDbEntity
  8
0
  6
CONTINUOUS
 62
     7
100
AcDbVertex
100
AcDb2dVertex
 10
7.9215927548
 20
6.2130066112
 30
0.0
  0
VERTEX
  5
38B
330
1ED
100
AcDbEntity
  8
0
  6
CONTINUOUS
 62
     7
100
AcDbVertex
100
AcDb2dVertex
 10
7.9313572017
 20
6.1899462104
 30
0.0
  0
VERTEX
  5
38C
330
1ED
100
AcDbEntity
  8
0
  6
CONTINUOUS
 62
     7
100
AcDbVertex
100
AcDb2dVertex
 10
7.9423600709
 20
6.1682046253
 30
0.0
  0
VERTEX
  5
38D
330
1ED
100
AcDbEntity
  8
0
  6
CONTINUOUS
 62
     7
100
AcDbVertex
100
AcDb2dVertex
 10
7.9545734717
 20
6.1478369679
 30
0.0
  0
VERTEX
  5
38E
330
1ED
100
AcDbEntity
  8
0
  6
CONTINUOUS
 62
     7
100
AcDbVertex
100
AcDb2dVertex
 10
7.9679664448
 20
6.128894867
 30
0.0
  0
VERTEX
  5
38F
330
1ED
100
AcDbEntity
  8
0
  6
CONTINUOUS
 62
     7
100
AcDbVertex
100
AcDb2dVertex
 10
7.982505041
 20
6.1114263384
 30
0.0
  0
VERTEX
  5
390
330
1ED
100
AcDbEntity
  8
0
  6
CONTINUOUS
 62
     7
100
AcDbVertex
100
AcDb2dVertex
 10
7.998152407
 20
6.0954756622
 30
0.0
  0
VERTEX
  5
391
330
1ED
100
AcDbEntity
  8
0
  6
CONTINUOUS
 62
     7
100
AcDbVertex
100
AcDb2dVertex
 10
8.014868879
 20
6.0810832711
 30
0.0
  0
VERTEX
  5
392
330
1ED
100
AcDbEntity
  8
0
  6
CONTINUOUS
 62
     7
100
AcDbVertex
100
AcDb2dVertex
 10
8.0326120831
 20
6.0682856478
 30
0.0
  0
VERTEX
  5
393
330
1ED
100
AcDbEntity
  8
0
  6
CONTINUOUS
 62
     7
100
AcDbVertex
100
AcDb2dVertex
 10
8.0449446837
 20
6.060681754
 30
0.0
  0
SEQEND
  5
394
330
1ED
100
AcDbEntity
  8
0
  6
CONTINUOUS
 62
     7
  0
LINE
  5
1EE
330
1F
100
AcDbEntity
  8
0
  6
CONTINUOUS
 62
     7
100
AcDbLine
 10
7.9187935389
 20
6.6789068742
 30
0.0
 11
7.9327129637
 21
6.6708713613
 31
0.0
  0
POLYLINE
  5
1EF
330
1F
100
AcDbEntity
  8
0
  6
CONTINUOUS
 62
     7
100
AcDb2dPolyline
 66
     1
 10
0.0
 20
0.0
 30
0.0
  0
VERTEX
  5
395
330
1EF
100
AcDbEntity
  8
0
  6
CONTINUOUS
 62
     7
100
AcDbVertex
100
AcDb2dVertex
 10
8.0380495446
 20
6.0648113668
 30
0.0
  0
VERTEX
  5
396
330
1EF
100
AcDbEntity
  8
0
  6
CONTINUOUS
 62
     7
100
AcDbVertex
100
AcDb2dVertex
 10
8.0289927082
 20
6.0699034215
 30
0.0
  0
VERTEX
  5
397
330
1EF
100
AcDbEntity
  8
0
  6
CONTINUOUS
 62
     7
100
AcDbVertex
100
AcDb2dVertex
 10
8.0110267792
 20
6.0815648162
 30
0.0
  0
VERTEX
  5
398
330
1EF
100
AcDbEntity
  8
0
  6
CONTINUOUS
 62
     7
100
AcDbVertex
100
AcDb2dVertex
 10
7.9940253753
 20
6.0947810268
 30
0.0
  0
VERTEX
  5
399
330
1EF
100
AcDbEntity
  8
0
  6
CONTINUOUS
 62
     7
100
AcDbVertex
100
AcDb2dVertex
 10
7.9780300142
 20
6.1095197788
 30
0.0
  0
VERTEX
  5
39A
330
1EF
100
AcDbEntity
  8
0
  6
CONTINUOUS
 62
     7
100
AcDbVertex
100
AcDb2dVertex
 10
7.9630797574
 20
6.1257450798
 30
0.0
  0
VERTEX
  5
39B
330
1EF
100
AcDbEntity
  8
0
  6
CONTINUOUS
 62
     7
100
AcDbVertex
100
AcDb2dVertex
 10
7.9492111137
 20
6.143417307
 30
0.0
  0
VERTEX
  5
39C
330
1EF
100
AcDbEntity
  8
0
  6
CONTINUOUS
 62
     7
100
AcDbVertex
100
AcDb2dVertex
 10
7.9364579509
 20
6.1624933042
 30
0.0
  0
VERTEX
  5
39D
330
1EF
100
AcDbEntity
  8
0
  6
CONTINUOUS
 62
     7
100
AcDbVertex
100
AcDb2dVertex
 10
7.9248514126
 20
6.1829264873
 30
0.0
  0
VERTEX
  5
39E
330
1EF
100
AcDbEntity
  8
0
  6
CONTINUOUS
 62
     7
100
AcDbVertex
100
AcDb2dVertex
 10
7.9144198423
 20
6.2046669578
 30
0.0
  0
VERTEX
  5
39F
330
1EF
100
AcDbEntity
  8
0
  6
CONTINUOUS
 62
     7
100
AcDbVertex
100
AcDb2dVertex
 10
7.9051887144
 20
6.2276616246
 30
0.0
  0
VERTEX
  5
3A0
330
1EF
100
AcDbEntity
  8
0
  6
CONTINUOUS
 62
     7
100
AcDbVertex
100
AcDb2dVertex
 10
7.8971805715
 20
6.251854334
 30
0.0
  0
VERTEX
  5
3A1
330
1EF
100
AcDbEntity
  8
0
  6
CONTINUOUS
 62
     7
100
AcDbVertex
100
AcDb2dVertex
 10
7.8904149698
 20
6.2771860067
 30
0.0
  0
VERTEX
  5
3A2
330
1EF
100
AcDbEntity
  8
0
  6
CONTINUOUS
 62
     7
100
AcDbVertex
100
AcDb2dVertex
 10
7.8849084311
 20
6.3035947819
 30
0.0
  0
VERTEX
  5
3A3
330
1EF
100
AcDbEntity
  8
0
  6
CONTINUOUS
 62
     7
100
AcDbVertex
100
AcDb2dVertex
 10
7.8806744025
 20
6.3310161684
 30
0.0
  0
VERTEX
  5
3A4
330
1EF
100
AcDbEntity
  8
0
  6
CONTINUOUS
 62
     7
100
AcDbVertex
100
AcDb2dVertex
 10
7.8777232238
 20
6.3593832023
 30
0.0
  0
VERTEX
  5
3A5
330
1EF
100
AcDbEntity
  8
0
  6
CONTINUOUS
 62
     7
100
AcDbVertex
100
AcDb2dVertex
 10
7.8760621017
 20
6.3886266104
 30
0.0
  0
VERTEX
  5
3A6
330
1EF
100
AcDbEntity
  8
0
  6
CONTINUOUS
 62
     7
100
AcDbVertex
100
AcDb2dVertex
 10
7.8756950927
 20
6.4186749793
 30
0.0
  0
VERTEX
  5
3A7
330
1EF
100
AcDbEntity
  8
0
  6
CONTINUOUS
 62
     7
100
AcDbVertex
100
AcDb2dVertex
 10
7.8766230933
 20
6.4494549298
 30
0.0
  0
VERTEX
  5
3A8
330
1EF
100
AcDbEntity
  8
0
  6
CONTINUOUS
 62
     7
100
AcDbVertex
100
AcDb2dVertex
 10
7.878843837
 20
6.4808912965
 30
0.0
  0
VERTEX
  5
3A9
330
1EF
100
AcDbEntity
  8
0
  6
CONTINUOUS
 62
     7
100
AcDbVertex
100
AcDb2dVertex
 10
7.8823519008
 20
6.5129073105
 30
0.0
  0
VERTEX
  5
3AA
330
1EF
100
AcDbEntity
  8
0
  6
CONTINUOUS
 62
     7
100
AcDbVertex
100
AcDb2dVertex
 10
7.887138718
 20
6.5454247877
 30
0.0
  0
VERTEX
  5
3AB
330
1EF
100
AcDbEntity
  8
0
  6
CONTINUOUS
 62
     7
100
AcDbVertex
100
AcDb2dVertex
 10
7.8931925988
 20
6.5783643194
 30
0.0
  0
VERTEX
  5
3AC
330
1EF
100
AcDbEntity
  8
0
  6
CONTINUOUS
 62
     7
100
AcDbVertex
100
AcDb2dVertex
 10
7.9004987596
 20
6.6116454661
 30
0.0
  0
VERTEX
  5
3AD
330
1EF
100
AcDbEntity
  8
0
  6
CONTINUOUS
 62
     7
100
AcDbVertex
100
AcDb2dVertex
 10
7.9090393584
 20
6.6451869542
 30
0.0
  0
VERTEX
  5
3AE
330
1EF
100
AcDbEntity
  8
0
  6
CONTINUOUS
 62
     7
100
AcDbVertex
100
AcDb2dVertex
 10
7.9187935389
 20
6.6789068742
 30
0.0
  0
SEQEND
  5
3AF
330
1EF
100
AcDbEntity
  8
0
  6
CONTINUOUS
 62
     7
  0
LINE
  5
1F0
330
1F
100
AcDbEntity
  8
0
  6
CONTINUOUS
 62
     7
100
AcDbLine
 10
8.7483012789
 20
5.9163272215
 30
0.0
 11
8.7414529219
 21
5.9202806938
 31
0.0
  0
SPLINE
  5
1F1
330
1F
100
AcDbEntity
  8
0
  6
CONTINUOUS
 62
     7
100
AcDbSpline
210
0.0
220
0.0
230
1.0
 70
     8
 71
     3
 72
    35
 73
    31
 74
     0
 42
0.00000001
 43
0.00000001
 40
0.0
 40
0.0
 40
0.0
 40
0.0
 40
0.0047979216258098
 40
0.0309243113144099
 40
0.0696104349555004
 40
0.1093804039473986
 40
0.1611912171588678
 40
0.2144910816856633
 40
0.2668893631745395
 40
0.3207788828375076
 40
0.3640906771604426
 40
0.4085632124624421
 40
0.4450667005893064
 40
0.4825678693230315
 40
0.519111384372229
 40
0.5570112934450758
 40
0.5892648972679391
 40
0.6226183792538359
 40
0.6524082466113093
 40
0.6830921285017221
 40
0.7124447026521318
 40
0.7425921848272702
 40
0.7730720256368815
 40
0.804304404979775
 40
0.8374946247182368
 40
0.8714379339067378
 40
0.9091735579491405
 40
0.9477158408662664
 40
0.9919059414416845
 40
0.9999999999999999
 40
0.9999999999999999
 40
0.9999999999999999
 40
0.9999999999999999
 10
8.182053609123246
 20
7.712555757191319
 30
0.0
 10
8.182430509587267
 20
7.712360362212594
 30
0.0
 10
8.18485976712688
 20
7.71110097208023
 30
0.0
 10
8.188351610314765
 20
7.709445512859111
 30
0.0
 10
8.19174787432986
 20
7.707895777461999
 30
0.0
 10
8.192267713252285
 20
7.707712717070049
 30
0.0
 10
8.18902423701039
 20
7.708968054895402
 30
0.0
 10
8.181094430092404
 20
7.711709866738808
 30
0.0
 10
8.168879345410717
 20
7.715582013523676
 30
0.0
 10
8.153601318065657
 20
7.720152906833424
 30
0.0
 10
8.135993864863247
 20
7.725312129775184
 30
0.0
 10
8.118229464189813
 20
7.730567618421544
 30
0.0
 10
8.0996136493287
 20
7.736289525296942
 30
0.0
 10
8.081169014122848
 20
7.742293691878853
 30
0.0
 10
8.06197002082425
 20
7.74906923647517
 30
0.0
 10
8.04382627212665
 20
7.756171107856756
 30
0.0
 10
8.027125490928851
 20
7.763532885335705
 30
0.0
 10
8.01304171557359
 20
7.770592696000604
 30
0.0
 10
8.000943460528312
 20
7.777592975233918
 30
0.0
 10
7.991293587613984
 20
7.784156661600007
 30
0.0
 10
7.983784421070493
 20
7.790385406276457
 30
0.0
 10
7.978568531436079
 20
7.796039501924375
 30
0.0
 10
7.975635238060081
 20
7.801029240908194
 30
0.0
 10
7.975035652593082
 20
7.805191439158272
 30
0.0
 10
7.976858980627804
 20
7.808302995665995
 30
0.0
 10
7.981244430818275
 20
7.810188366046641
 30
0.0
 10
7.988195141146722
 20
7.810587832163078
 30
0.0
 10
7.998244737173938
 20
7.80903184136802
 30
0.0
 10
8.006956460654086
 20
7.806899157334731
 30
0.0
 10
8.012967196966349
 20
7.804603901154757
 30
0.0
 10
8.01389771306331
 20
7.804248574833459
 30
0.0
  0
SPLINE
  5
1F2
330
1F
100
AcDbEntity
  8
0
  6
CONTINUOUS
 62
     7
100
AcDbSpline
210
0.0
220
0.0
230
1.0
 70
     8
 71
     3
 72
    12
 73
     8
 74
     0
 42
0.00000001
 43
0.00000001
 40
0.0
 40
0.0
 40
0.0
 40
0.0
 40
0.23853670692251
 40
0.4771050771586121
 40
0.7216774240629453
 40
0.9662715986679347
 40
0.9999999999999999
 40
0.9999999999999999
 40
0.9999999999999999
 40
0.9999999999999999
 10
8.300990035019655
 20
5.920871284122279
 30
0.0
 10
8.304422154396796
 20
5.91769165469309
 30
0.0
 10
8.311286848729903
 20
5.911331973771355
 30
0.0
 10
8.320524763486166
 20
5.903554822378323
 30
0.0
 10
8.328901572514553
 20
5.897251280792181
 30
0.0
 10
8.334504153680038
 20
5.893409428078168
 30
0.0
 10
8.33699916648909
 20
5.892120509178733
 30
0.0
 10
8.337301523540324
 20
5.89196431209778
 30
0.0
  0
POLYLINE
  5
1F3
330
1F
100
AcDbEntity
  8
0
  6
CONTINUOUS
 62
     7
100
AcDb2dPolyline
 66
     1
 10
0.0
 20
0.0
 30
0.0
  0
VERTEX
  5
3B0
330
1F3
100
AcDbEntity
  8
0
  6
CONTINUOUS
 62
     7
100
AcDbVertex
100
AcDb2dVertex
 10
8.0874667576
 20
6.0362532848
 30
0.0
  0
VERTEX
  5
3B1
330
1F3
100
AcDbEntity
  8
0
  6
CONTINUOUS
 62
     7
100
AcDbVertex
100
AcDb2dVertex
 10
8.0712133256
 20
6.0456731969
 30
0.0
  0
VERTEX
  5
3B2
330
1F3
100
AcDbEntity
  8
0
  6
CONTINUOUS
 62
     7
100
AcDbVertex
100
AcDb2dVertex
 10
8.0541159066
 20
6.0566796587
 30
0.0
  0
VERTEX
  5
3B3
330
1F3
100
AcDbEntity
  8
0
  6
CONTINUOUS
 62
     7
100
AcDbVertex
100
AcDb2dVertex
 10
8.0407426249
 20
6.0663058207
 30
0.0
  0
VERTEX
  5
3B4
330
1F3
100
AcDbEntity
  8
0
  6
CONTINUOUS
 62
     7
100
AcDbVertex
100
AcDb2dVertex
 10
8.028831456
 20
6.0759567826
 30
0.0
  0
VERTEX
  5
3B5
330
1F3
100
AcDbEntity
  8
0
  6
CONTINUOUS
 62
     7
100
AcDbVertex
100
AcDb2dVertex
 10
8.018291352
 20
6.0857955403
 30
0.0
  0
VERTEX
  5
3B6
330
1F3
100
AcDbEntity
  8
0
  6
CONTINUOUS
 62
     7
100
AcDbVertex
100
AcDb2dVertex
 10
8.0096247361
 20
6.0954379588
 30
0.0
  0
VERTEX
  5
3B7
330
1F3
100
AcDbEntity
  8
0
  6
CONTINUOUS
 62
     7
100
AcDbVertex
100
AcDb2dVertex
 10
8.0001568158
 20
6.1099303355
 30
0.0
  0
VERTEX
  5
3B8
330
1F3
100
AcDbEntity
  8
0
  6
CONTINUOUS
 62
     7
100
AcDbVertex
100
AcDb2dVertex
 10
7.9975131482
 20
6.1167689717
 30
0.0
  0
VERTEX
  5
3B9
330
1F3
100
AcDbEntity
  8
0
  6
CONTINUOUS
 62
     7
100
AcDbVertex
100
AcDb2dVertex
 10
7.9964655133
 20
6.1230322721
 30
0.0
  0
VERTEX
  5
3BA
330
1F3
100
AcDbEntity
  8
0
  6
CONTINUOUS
 62
     7
100
AcDbVertex
100
AcDb2dVertex
 10
7.9970356426
 20
6.1284541408
 30
0.0
  0
VERTEX
  5
3BB
330
1F3
100
AcDbEntity
  8
0
  6
CONTINUOUS
 62
     7
100
AcDbVertex
100
AcDb2dVertex
 10
7.9991914744
 20
6.1330674049
 30
0.0
  0
VERTEX
  5
3BC
330
1F3
100
AcDbEntity
  8
0
  6
CONTINUOUS
 62
     7
100
AcDbVertex
100
AcDb2dVertex
 10
8.0031113639
 20
6.136857422
 30
0.0
  0
VERTEX
  5
3BD
330
1F3
100
AcDbEntity
  8
0
  6
CONTINUOUS
 62
     7
100
AcDbVertex
100
AcDb2dVertex
 10
8.0086951109
 20
6.139498666
 30
0.0
  0
VERTEX
  5
3BE
330
1F3
100
AcDbEntity
  8
0
  6
CONTINUOUS
 62
     7
100
AcDbVertex
100
AcDb2dVertex
 10
8.0216819781
 20
6.1410066377
 30
0.0
  0
VERTEX
  5
3BF
330
1F3
100
AcDbEntity
  8
0
  6
CONTINUOUS
 62
     7
100
AcDbVertex
100
AcDb2dVertex
 10
8.0392963608
 20
6.1382888211
 30
0.0
  0
VERTEX
  5
3C0
330
1F3
100
AcDbEntity
  8
0
  6
CONTINUOUS
 62
     7
100
AcDbVertex
100
AcDb2dVertex
 10
8.058115505
 20
6.1319390388
 30
0.0
  0
VERTEX
  5
3C1
330
1F3
100
AcDbEntity
  8
0
  6
CONTINUOUS
 62
     7
100
AcDbVertex
100
AcDb2dVertex
 10
8.0797575515
 20
6.1215542621
 30
0.0
  0
VERTEX
  5
3C2
330
1F3
100
AcDbEntity
  8
0
  6
CONTINUOUS
 62
     7
100
AcDbVertex
100
AcDb2dVertex
 10
8.1017977804
 20
6.1082868645
 30
0.0
  0
VERTEX
  5
3C3
330
1F3
100
AcDbEntity
  8
0
  6
CONTINUOUS
 62
     7
100
AcDbVertex
100
AcDb2dVertex
 10
8.125335378
 20
6.0915871259
 30
0.0
  0
VERTEX
  5
3C4
330
1F3
100
AcDbEntity
  8
0
  6
CONTINUOUS
 62
     7
100
AcDbVertex
100
AcDb2dVertex
 10
8.1484280686
 20
6.0729925378
 30
0.0
  0
VERTEX
  5
3C5
330
1F3
100
AcDbEntity
  8
0
  6
CONTINUOUS
 62
     7
100
AcDbVertex
100
AcDb2dVertex
 10
8.1719302315
 20
6.0521133493
 30
0.0
  0
VERTEX
  5
3C6
330
1F3
100
AcDbEntity
  8
0
  6
CONTINUOUS
 62
     7
100
AcDbVertex
100
AcDb2dVertex
 10
8.194367692
 20
6.0306212783
 30
0.0
  0
VERTEX
  5
3C7
330
1F3
100
AcDbEntity
  8
0
  6
CONTINUOUS
 62
     7
100
AcDbVertex
100
AcDb2dVertex
 10
8.216333956
 20
6.0084147714
 30
0.0
  0
VERTEX
  5
3C8
330
1F3
100
AcDbEntity
  8
0
  6
CONTINUOUS
 62
     7
100
AcDbVertex
100
AcDb2dVertex
 10
8.2372105111
 20
5.9865862304
 30
0.0
  0
VERTEX
  5
3C9
330
1F3
100
AcDbEntity
  8
0
  6
CONTINUOUS
 62
     7
100
AcDbVertex
100
AcDb2dVertex
 10
8.2569473886
 20
5.965688312
 30
0.0
  0
VERTEX
  5
3CA
330
1F3
100
AcDbEntity
  8
0
  6
CONTINUOUS
 62
     7
100
AcDbVertex
100
AcDb2dVertex
 10
8.2761311392
 20
5.9455916659
 30
0.0
  0
VERTEX
  5
3CB
330
1F3
100
AcDbEntity
  8
0
  6
CONTINUOUS
 62
     7
100
AcDbVertex
100
AcDb2dVertex
 10
8.2936404308
 20
5.9279379133
 30
0.0
  0
VERTEX
  5
3CC
330
1F3
100
AcDbEntity
  8
0
  6
CONTINUOUS
 62
     7
100
AcDbVertex
100
AcDb2dVertex
 10
8.300990035
 20
5.9208712841
 30
0.0
  0
VERTEX
  5
3CD
330
1F3
100
AcDbEntity
  8
0
  6
CONTINUOUS
 62
     7
100
AcDbVertex
100
AcDb2dVertex
 10
8.300990035
 20
5.9208712841
 30
0.0
  0
SEQEND
  5
3CE
330
1F3
100
AcDbEntity
  8
0
  6
CONTINUOUS
 62
     7
  0
POLYLINE
  5
1F4
330
1F
100
AcDbEntity
  8
0
  6
CONTINUOUS
 62
     7
100
AcDb2dPolyline
 66
     1
 10
0.0
 20
0.0
 30
0.0
  0
VERTEX
  5
3CF
330
1F4
100
AcDbEntity
  8
0
  6
CONTINUOUS
 62
     7
100
AcDbVertex
100
AcDb2dVertex
 10
8.7414529219
 20
6.3800443863
 30
0.0
  0
VERTEX
  5
3D0
330
1F4
100
AcDbEntity
  8
0
  6
CONTINUOUS
 62
     7
100
AcDbVertex
100
AcDb2dVertex
 10
8.729159024
 20
6.3745303486
 30
0.0
  0
VERTEX
  5
3D1
330
1F4
100
AcDbEntity
  8
0
  6
CONTINUOUS
 62
     7
100
AcDbVertex
100
AcDb2dVertex
 10
8.7170751945
 20
6.3706098039
 30
0.0
  0
VERTEX
  5
3D2
330
1F4
100
AcDbEntity
  8
0
  6
CONTINUOUS
 62
     7
100
AcDbVertex
100
AcDb2dVertex
 10
8.7053332754
 20
6.3683255276
 30
0.0
  0
VERTEX
  5
3D3
330
1F4
100
AcDbEntity
  8
0
  6
CONTINUOUS
 62
     7
100
AcDbVertex
100
AcDb2dVertex
 10
8.6940613781
 20
6.3677024426
 30
0.0
  0
VERTEX
  5
3D4
330
1F4
100
AcDbEntity
  8
0
  6
CONTINUOUS
 62
     7
100
AcDbVertex
100
AcDb2dVertex
 10
8.6833824857
 20
6.3687473472
 30
0.0
  0
VERTEX
  5
3D5
330
1F4
100
AcDbEntity
  8
0
  6
CONTINUOUS
 62
     7
100
AcDbVertex
100
AcDb2dVertex
 10
8.6734131115
 20
6.3714488407
 30
0.0
  0
VERTEX
  5
3D6
330
1F4
100
AcDbEntity
  8
0
  6
CONTINUOUS
 62
     7
100
AcDbVertex
100
AcDb2dVertex
 10
8.6642620272
 20
6.3757774483
 30
0.0
  0
VERTEX
  5
3D7
330
1F4
100
AcDbEntity
  8
0
  6
CONTINUOUS
 62
     7
100
AcDbVertex
100
AcDb2dVertex
 10
8.6560290768
 20
6.3816859423
 30
0.0
  0
VERTEX
  5
3D8
330
1F4
100
AcDbEntity
  8
0
  6
CONTINUOUS
 62
     7
100
AcDbVertex
100
AcDb2dVertex
 10
8.6488040867
 20
6.3891098574
 30
0.0
  0
VERTEX
  5
3D9
330
1F4
100
AcDbEntity
  8
0
  6
CONTINUOUS
 62
     7
100
AcDbVertex
100
AcDb2dVertex
 10
8.6426658859
 20
6.3979681942
 30
0.0
  0
VERTEX
  5
3DA
330
1F4
100
AcDbEntity
  8
0
  6
CONTINUOUS
 62
     7
100
AcDbVertex
100
AcDb2dVertex
 10
8.6376814459
 20
6.4081643029
 30
0.0
  0
VERTEX
  5
3DB
330
1F4
100
AcDbEntity
  8
0
  6
CONTINUOUS
 62
     7
100
AcDbVertex
100
AcDb2dVertex
 10
8.6339051498
 20
6.4195869379
 30
0.0
  0
VERTEX
  5
3DC
330
1F4
100
AcDbEntity
  8
0
  6
CONTINUOUS
 62
     7
100
AcDbVertex
100
AcDb2dVertex
 10
8.6313781995
 20
6.4321114713
 30
0.0
  0
VERTEX
  5
3DD
330
1F4
100
AcDbEntity
  8
0
  6
CONTINUOUS
 62
     7
100
AcDbVertex
100
AcDb2dVertex
 10
8.6301281654
 20
6.445601253
 30
0.0
  0
VERTEX
  5
3DE
330
1F4
100
AcDbEntity
  8
0
  6
CONTINUOUS
 62
     7
100
AcDbVertex
100
AcDb2dVertex
 10
8.6301686861
 20
6.4599091011
 30
0.0
  0
VERTEX
  5
3DF
330
1F4
100
AcDbEntity
  8
0
  6
CONTINUOUS
 62
     7
100
AcDbVertex
100
AcDb2dVertex
 10
8.6314993196
 20
6.4748789086
 30
0.0
  0
VERTEX
  5
3E0
330
1F4
100
AcDbEntity
  8
0
  6
CONTINUOUS
 62
     7
100
AcDbVertex
100
AcDb2dVertex
 10
8.6341055478
 20
6.4903473458
 30
0.0
  0
VERTEX
  5
3E1
330
1F4
100
AcDbEntity
  8
0
  6
CONTINUOUS
 62
     7
100
AcDbVertex
100
AcDb2dVertex
 10
8.6379589352
 20
6.5061456426
 30
0.0
  0
VERTEX
  5
3E2
330
1F4
100
AcDbEntity
  8
0
  6
CONTINUOUS
 62
     7
100
AcDbVertex
100
AcDb2dVertex
 10
8.6430174391
 20
6.5221014303
 30
0.0
  0
VERTEX
  5
3E3
330
1F4
100
AcDbEntity
  8
0
  6
CONTINUOUS
 62
     7
100
AcDbVertex
100
AcDb2dVertex
 10
8.649225868
 20
6.5380406214
 30
0.0
  0
VERTEX
  5
3E4
330
1F4
100
AcDbEntity
  8
0
  6
CONTINUOUS
 62
     7
100
AcDbVertex
100
AcDb2dVertex
 10
8.6565164844
 20
6.5537893099
 30
0.0
  0
VERTEX
  5
3E5
330
1F4
100
AcDbEntity
  8
0
  6
CONTINUOUS
 62
     7
100
AcDbVertex
100
AcDb2dVertex
 10
8.6648097432
 20
6.569175668
 30
0.0
  0
VERTEX
  5
3E6
330
1F4
100
AcDbEntity
  8
0
  6
CONTINUOUS
 62
     7
100
AcDbVertex
100
AcDb2dVertex
 10
8.6740151599
 20
6.5840318214
 30
0.0
  0
VERTEX
  5
3E7
330
1F4
100
AcDbEntity
  8
0
  6
CONTINUOUS
 62
     7
100
AcDbVertex
100
AcDb2dVertex
 10
8.6840322979
 20
6.5981956803
 30
0.0
  0
VERTEX
  5
3E8
330
1F4
100
AcDbEntity
  8
0
  6
CONTINUOUS
 62
     7
100
AcDbVertex
100
AcDb2dVertex
 10
8.6947518641
 20
6.6115127086
 30
0.0
  0
VERTEX
  5
3E9
330
1F4
100
AcDbEntity
  8
0
  6
CONTINUOUS
 62
     7
100
AcDbVertex
100
AcDb2dVertex
 10
8.7060569017
 20
6.6238376095
 30
0.0
  0
VERTEX
  5
3EA
330
1F4
100
AcDbEntity
  8
0
  6
CONTINUOUS
 62
     7
100
AcDbVertex
100
AcDb2dVertex
 10
8.7178240659
 20
6.6350359108
 30
0.0
  0
VERTEX
  5
3EB
330
1F4
100
AcDbEntity
  8
0
  6
CONTINUOUS
 62
     7
100
AcDbVertex
100
AcDb2dVertex
 10
8.7299249698
 20
6.6449854324
 30
0.0
  0
VERTEX
  5
3EC
330
1F4
100
AcDbEntity
  8
0
  6
CONTINUOUS
 62
     7
100
AcDbVertex
100
AcDb2dVertex
 10
8.7422275853
 20
6.653577619
 30
0.0
  0
VERTEX
  5
3ED
330
1F4
100
AcDbEntity
  8
0
  6
CONTINUOUS
 62
     7
100
AcDbVertex
100
AcDb2dVertex
 10
8.7545976834
 20
6.6607187246
 30
0.0
  0
VERTEX
  5
3EE
330
1F4
100
AcDbEntity
  8
0
  6
CONTINUOUS
 62
     7
100
AcDbVertex
100
AcDb2dVertex
 10
8.7669002988
 20
6.6663308355
 30
0.0
  0
VERTEX
  5
3EF
330
1F4
100
AcDbEntity
  8
0
  6
CONTINUOUS
 62
     7
100
AcDbVertex
100
AcDb2dVertex
 10
8.7790012027
 20
6.6703527202
 30
0.0
  0
VERTEX
  5
3F0
330
1F4
100
AcDbEntity
  8
0
  6
CONTINUOUS
 62
     7
100
AcDbVertex
100
AcDb2dVertex
 10
8.7907683669
 20
6.6727404974
 30
0.0
  0
VERTEX
  5
3F1
330
1F4
100
AcDbEntity
  8
0
  6
CONTINUOUS
 62
     7
100
AcDbVertex
100
AcDb2dVertex
 10
8.8020734045
 20
6.6734681151
 30
0.0
  0
VERTEX
  5
3F2
330
1F4
100
AcDbEntity
  8
0
  6
CONTINUOUS
 62
     7
100
AcDbVertex
100
AcDb2dVertex
 10
8.8127929708
 20
6.6725276346
 30
0.0
  0
VERTEX
  5
3F3
330
1F4
100
AcDbEntity
  8
0
  6
CONTINUOUS
 62
     7
100
AcDbVertex
100
AcDb2dVertex
 10
8.8228101088
 20
6.669929317
 30
0.0
  0
VERTEX
  5
3F4
330
1F4
100
AcDbEntity
  8
0
  6
CONTINUOUS
 62
     7
100
AcDbVertex
100
AcDb2dVertex
 10
8.8320155255
 20
6.6657015116
 30
0.0
  0
VERTEX
  5
3F5
330
1F4
100
AcDbEntity
  8
0
  6
CONTINUOUS
 62
     7
100
AcDbVertex
100
AcDb2dVertex
 10
8.8403087843
 20
6.6598903462
 30
0.0
  0
VERTEX
  5
3F6
330
1F4
100
AcDbEntity
  8
0
  6
CONTINUOUS
 62
     7
100
AcDbVertex
100
AcDb2dVertex
 10
8.8475994006
 20
6.6525592242
 30
0.0
  0
VERTEX
  5
3F7
330
1F4
100
AcDbEntity
  8
0
  6
CONTINUOUS
 62
     7
100
AcDbVertex
100
AcDb2dVertex
 10
8.8538078296
 20
6.6437881326
 30
0.0
  0
VERTEX
  5
3F8
330
1F4
100
AcDbEntity
  8
0
  6
CONTINUOUS
 62
     7
100
AcDbVertex
100
AcDb2dVertex
 10
8.8588663335
 20
6.6336727692
 30
0.0
  0
VERTEX
  5
3F9
330
1F4
100
AcDbEntity
  8
0
  6
CONTINUOUS
 62
     7
100
AcDbVertex
100
AcDb2dVertex
 10
8.8627197209
 20
6.6223234987
 30
0.0
  0
VERTEX
  5
3FA
330
1F4
100
AcDbEntity
  8
0
  6
CONTINUOUS
 62
     7
100
AcDbVertex
100
AcDb2dVertex
 10
8.8653259491
 20
6.6098641486
 30
0.0
  0
VERTEX
  5
3FB
330
1F4
100
AcDbEntity
  8
0
  6
CONTINUOUS
 62
     7
100
AcDbVertex
100
AcDb2dVertex
 10
8.8666565826
 20
6.5964306578
 30
0.0
  0
VERTEX
  5
3FC
330
1F4
100
AcDbEntity
  8
0
  6
CONTINUOUS
 62
     7
100
AcDbVertex
100
AcDb2dVertex
 10
8.8666971033
 20
6.5821695939
 30
0.0
  0
VERTEX
  5
3FD
330
1F4
100
AcDbEntity
  8
0
  6
CONTINUOUS
 62
     7
100
AcDbVertex
100
AcDb2dVertex
 10
8.8654470692
 20
6.5672365536
 30
0.0
  0
VERTEX
  5
3FE
330
1F4
100
AcDbEntity
  8
0
  6
CONTINUOUS
 62
     7
100
AcDbVertex
100
AcDb2dVertex
 10
8.8629201188
 20
6.5517944654
 30
0.0
  0
VERTEX
  5
3FF
330
1F4
100
AcDbEntity
  8
0
  6
CONTINUOUS
 62
     7
100
AcDbVertex
100
AcDb2dVertex
 10
8.8591438228
 20
6.5360118118
 30
0.0
  0
VERTEX
  5
400
330
1F4
100
AcDbEntity
  8
0
  6
CONTINUOUS
 62
     7
100
AcDbVertex
100
AcDb2dVertex
 10
8.8541593828
 20
6.5200607911
 30
0.0
  0
VERTEX
  5
401
330
1F4
100
AcDbEntity
  8
0
  6
CONTINUOUS
 62
     7
100
AcDbVertex
100
AcDb2dVertex
 10
8.848021182
 20
6.5041154385
 30
0.0
  0
VERTEX
  5
402
330
1F4
100
AcDbEntity
  8
0
  6
CONTINUOUS
 62
     7
100
AcDbVertex
100
AcDb2dVertex
 10
8.8407961919
 20
6.4883497274
 30
0.0
  0
VERTEX
  5
403
330
1F4
100
AcDbEntity
  8
0
  6
CONTINUOUS
 62
     7
100
AcDbVertex
100
AcDb2dVertex
 10
8.8325632415
 20
6.4729356712
 30
0.0
  0
VERTEX
  5
404
330
1F4
100
AcDbEntity
  8
0
  6
CONTINUOUS
 62
     7
100
AcDbVertex
100
AcDb2dVertex
 10
8.8234121572
 20
6.4580414466
 30
0.0
  0
VERTEX
  5
405
330
1F4
100
AcDbEntity
  8
0
  6
CONTINUOUS
 62
     7
100
AcDbVertex
100
AcDb2dVertex
 10
8.813442783
 20
6.4438295586
 30
0.0
  0
VERTEX
  5
406
330
1F4
100
AcDbEntity
  8
0
  6
CONTINUOUS
 62
     7
100
AcDbVertex
100
AcDb2dVertex
 10
8.8027638906
 20
6.4304550674
 30
0.0
  0
VERTEX
  5
407
330
1F4
100
AcDbEntity
  8
0
  6
CONTINUOUS
 62
     7
100
AcDbVertex
100
AcDb2dVertex
 10
8.7914919933
 20
6.4180638967
 30
0.0
  0
VERTEX
  5
408
330
1F4
100
AcDbEntity
  8
0
  6
CONTINUOUS
 62
     7
100
AcDbVertex
100
AcDb2dVertex
 10
8.7797500742
 20
6.4067912417
 30
0.0
  0
VERTEX
  5
409
330
1F4
100
AcDbEntity
  8
0
  6
CONTINUOUS
 62
     7
100
AcDbVertex
100
AcDb2dVertex
 10
8.7676662447
 20
6.396760094
 30
0.0
  0
VERTEX
  5
40A
330
1F4
100
AcDbEntity
  8
0
  6
CONTINUOUS
 62
     7
100
AcDbVertex
100
AcDb2dVertex
 10
8.7553723467
 20
6.3880798992
 30
0.0
  0
SEQEND
  5
40B
330
1F4
100
AcDbEntity
  8
0
  6
CONTINUOUS
 62
     7
  0
LINE
  5
1F5
330
1F
100
AcDbEntity
  8
0
  6
CONTINUOUS
 62
     7
100
AcDbLine
 10
8.7414529219
 20
5.9123757889
 30
0.0
 11
8.7414529219
 21
6.3800443863
 31
0.0
  0
LINE
  5
1F6
330
1F
100
AcDbEntity
  8
0
  6
CONTINUOUS
 62
     7
100
AcDbLine
 10
8.7553723467
 20
5.9204113018
 30
0.0
 11
8.7553723467
 21
6.3880798992
 31
0.0
  0
POLYLINE
  5
1F7
330
1F
100
AcDbEntity
  8
0
  6
CONTINUOUS
 62
     7
100
AcDb2dPolyline
 66
     1
 10
0.0
 20
0.0
 30
0.0
  0
VERTEX
  5
40C
330
1F7
100
AcDbEntity
  8
0
  6
CONTINUOUS
 62
     7
100
AcDbVertex
100
AcDb2dVertex
 10
8.7483012789
 20
6.4003423852
 30
0.0
  0
VERTEX
  5
40D
330
1F7
100
AcDbEntity
  8
0
  6
CONTINUOUS
 62
     7
100
AcDbVertex
100
AcDb2dVertex
 10
8.7602443307
 20
6.4088517962
 30
0.0
  0
VERTEX
  5
40E
330
1F7
100
AcDbEntity
  8
0
  6
CONTINUOUS
 62
     7
100
AcDbVertex
100
AcDb2dVertex
 10
8.7719669644
 20
6.4187116305
 30
0.0
  0
VERTEX
  5
40F
330
1F7
100
AcDbEntity
  8
0
  6
CONTINUOUS
 62
     7
100
AcDbVertex
100
AcDb2dVertex
 10
8.7833324869
 20
6.4298069162
 30
0.0
  0
VERTEX
  5
410
330
1F7
100
AcDbEntity
  8
0
  6
CONTINUOUS
 62
     7
100
AcDbVertex
100
AcDb2dVertex
 10
8.794208369
 20
6.4420082754
 30
0.0
  0
VERTEX
  5
411
330
1F7
100
AcDbEntity
  8
0
  6
CONTINUOUS
 62
     7
100
AcDbVertex
100
AcDb2dVertex
 10
8.8044677911
 20
6.4551734327
 30
0.0
  0
VERTEX
  5
412
330
1F7
100
AcDbEntity
  8
0
  6
CONTINUOUS
 62
     7
100
AcDbVertex
100
AcDb2dVertex
 10
8.8139911219
 20
6.469148874
 30
0.0
  0
VERTEX
  5
413
330
1F7
100
AcDbEntity
  8
0
  6
CONTINUOUS
 62
     7
100
AcDbVertex
100
AcDb2dVertex
 10
8.8226673136
 20
6.483771637
 30
0.0
  0
VERTEX
  5
414
330
1F7
100
AcDbEntity
  8
0
  6
CONTINUOUS
 62
     7
100
AcDbVertex
100
AcDb2dVertex
 10
8.8303951962
 20
6.4988712111
 30
0.0
  0
VERTEX
  5
415
330
1F7
100
AcDbEntity
  8
0
  6
CONTINUOUS
 62
     7
100
AcDbVertex
100
AcDb2dVertex
 10
8.8370846578
 20
6.5142715258
 30
0.0
  0
VERTEX
  5
416
330
1F7
100
AcDbEntity
  8
0
  6
CONTINUOUS
 62
     7
100
AcDbVertex
100
AcDb2dVertex
 10
8.8426576951
 20
6.5297930039
 30
0.0
  0
VERTEX
  5
417
330
1F7
100
AcDbEntity
  8
0
  6
CONTINUOUS
 62
     7
100
AcDbVertex
100
AcDb2dVertex
 10
8.847049323
 20
6.5452546552
 30
0.0
  0
VERTEX
  5
418
330
1F7
100
AcDbEntity
  8
0
  6
CONTINUOUS
 62
     7
100
AcDbVertex
100
AcDb2dVertex
 10
8.8502083324
 20
6.5604761872
 30
0.0
  0
VERTEX
  5
419
330
1F7
100
AcDbEntity
  8
0
  6
CONTINUOUS
 62
     7
100
AcDbVertex
100
AcDb2dVertex
 10
8.8520978872
 20
6.5752801073
 30
0.0
  0
VERTEX
  5
41A
330
1F7
100
AcDbEntity
  8
0
  6
CONTINUOUS
 62
     7
100
AcDbVertex
100
AcDb2dVertex
 10
8.8526959542
 20
6.5894937926
 30
0.0
  0
VERTEX
  5
41B
330
1F7
100
AcDbEntity
  8
0
  6
CONTINUOUS
 62
     7
100
AcDbVertex
100
AcDb2dVertex
 10
8.8519955593
 20
6.6029515026
 30
0.0
  0
VERTEX
  5
41C
330
1F7
100
AcDbEntity
  8
0
  6
CONTINUOUS
 62
     7
100
AcDbVertex
100
AcDb2dVertex
 10
8.8500048698
 20
6.6154963119
 30
0.0
  0
VERTEX
  5
41D
330
1F7
100
AcDbEntity
  8
0
  6
CONTINUOUS
 62
     7
100
AcDbVertex
100
AcDb2dVertex
 10
8.8467470982
 20
6.6269819404
 30
0.0
  0
VERTEX
  5
41E
330
1F7
100
AcDbEntity
  8
0
  6
CONTINUOUS
 62
     7
100
AcDbVertex
100
AcDb2dVertex
 10
8.8422602322
 20
6.6372744583
 30
0.0
  0
VERTEX
  5
41F
330
1F7
100
AcDbEntity
  8
0
  6
CONTINUOUS
 62
     7
100
AcDbVertex
100
AcDb2dVertex
 10
8.8365965914
 20
6.6462538484
 30
0.0
  0
VERTEX
  5
420
330
1F7
100
AcDbEntity
  8
0
  6
CONTINUOUS
 62
     7
100
AcDbVertex
100
AcDb2dVertex
 10
8.8298222176
 20
6.6538154055
 30
0.0
  0
VERTEX
  5
421
330
1F7
100
AcDbEntity
  8
0
  6
CONTINUOUS
 62
     7
100
AcDbVertex
100
AcDb2dVertex
 10
8.822016104
 20
6.6598709571
 30
0.0
  0
VERTEX
  5
422
330
1F7
100
AcDbEntity
  8
0
  6
CONTINUOUS
 62
     7
100
AcDbVertex
100
AcDb2dVertex
 10
8.8132692749
 20
6.6643498917
 30
0.0
  0
VERTEX
  5
423
330
1F7
100
AcDbEntity
  8
0
  6
CONTINUOUS
 62
     7
100
AcDbVertex
100
AcDb2dVertex
 10
8.8036837238
 20
6.6671999821
 30
0.0
  0
VERTEX
  5
424
330
1F7
100
AcDbEntity
  8
0
  6
CONTINUOUS
 62
     7
100
AcDbVertex
100
AcDb2dVertex
 10
8.7933712241
 20
6.6683879944
 30
0.0
  0
VERTEX
  5
425
330
1F7
100
AcDbEntity
  8
0
  6
CONTINUOUS
 62
     7
100
AcDbVertex
100
AcDb2dVertex
 10
8.7824520261
 20
6.6679000757
 30
0.0
  0
VERTEX
  5
426
330
1F7
100
AcDbEntity
  8
0
  6
CONTINUOUS
 62
     7
100
AcDbVertex
100
AcDb2dVertex
 10
8.7710534545
 20
6.6657419154
 30
0.0
  0
VERTEX
  5
427
330
1F7
100
AcDbEntity
  8
0
  6
CONTINUOUS
 62
     7
100
AcDbVertex
100
AcDb2dVertex
 10
8.7593084237
 20
6.6619386791
 30
0.0
  0
VERTEX
  5
428
330
1F7
100
AcDbEntity
  8
0
  6
CONTINUOUS
 62
     7
100
AcDbVertex
100
AcDb2dVertex
 10
8.747353888
 20
6.6565347148
 30
0.0
  0
VERTEX
  5
429
330
1F7
100
AcDbEntity
  8
0
  6
CONTINUOUS
 62
     7
100
AcDbVertex
100
AcDb2dVertex
 10
8.7448040199
 20
6.6551880964
 30
0.0
  0
SEQEND
  5
42A
330
1F7
100
AcDbEntity
  8
0
  6
CONTINUOUS
 62
     7
  0
ARC
  5
1F8
330
1F
100
AcDbEntity
  8
0
  6
CONTINUOUS
 62
     7
100
AcDbCircle
 10
8.6970905287
 20
6.4485752512
 30
0.0
 40
0.067503877001804
100
AcDbArc
 50
173.3517344841
 51
303.5340428575
  0
LINE
  5
1F9
330
1F
100
AcDbEntity
  8
0
  6
CONTINUOUS
 62
     7
100
AcDbLine
 10
8.7414529219
 20
6.3800443863
 30
0.0
 11
8.7343818541
 21
6.3923068723
 31
0.0
  0
LINE
  5
1FA
330
1F
100
AcDbEntity
  8
0
  6
CONTINUOUS
 62
     7
100
AcDbLine
 10
8.7553723467
 20
6.3880798992
 30
0.0
 11
8.7483012789
 21
6.4003423852
 31
0.0
  0
LINE
  5
1FB
330
1F
100
AcDbEntity
  8
0
  6
CONTINUOUS
 62
     7
100
AcDbLine
 10
8.6302050044
 20
6.4524468875
 30
0.0
 11
8.7343818541
 21
6.3923068723
 31
0.0
  0
LINE
  5
1FC
330
1F
100
AcDbEntity
  8
0
  6
CONTINUOUS
 62
     7
100
AcDbLine
 10
8.6307536516
 20
6.468201186
 30
0.0
 11
8.7483012789
 21
6.4003423852
 31
0.0
  0
ARC
  5
1FD
330
1F
100
AcDbEntity
  8
0
  6
CONTINUOUS
 62
     7
100
AcDbCircle
 10
8.2110467093
 20
6.8307950415
 30
0.0
 40
1.13680234831304
100
AcDbArc
 50
122.5992651174
 51
177.4061114153
  0
POLYLINE
  5
1FE
330
1F
100
AcDbEntity
  8
0
  6
CONTINUOUS
 62
     7
100
AcDb2dPolyline
 66
     1
 10
0.0
 20
0.0
 30
0.0
  0
VERTEX
  5
42B
330
1FE
100
AcDbEntity
  8
0
  6
CONTINUOUS
 62
     7
100
AcDbVertex
100
AcDb2dVertex
 10
8.0849137562
 20
6.1186098575
 30
0.0
  0
VERTEX
  5
42C
330
1FE
100
AcDbEntity
  8
0
  6
CONTINUOUS
 62
     7
100
AcDbVertex
100
AcDb2dVertex
 10
8.0829162128
 20
6.1108104793
 30
0.0
  0
VERTEX
  5
42D
330
1FE
100
AcDbEntity
  8
0
  6
CONTINUOUS
 62
     7
100
AcDbVertex
100
AcDb2dVertex
 10
8.0809411724
 20
6.0980389682
 30
0.0
  0
VERTEX
  5
42E
330
1FE
100
AcDbEntity
  8
0
  6
CONTINUOUS
 62
     7
100
AcDbVertex
100
AcDb2dVertex
 10
8.0802802427
 20
6.0843438005
 30
0.0
  0
VERTEX
  5
42F
330
1FE
100
AcDbEntity
  8
0
  6
CONTINUOUS
 62
     7
100
AcDbVertex
100
AcDb2dVertex
 10
8.0809411724
 20
6.0698855395
 30
0.0
  0
VERTEX
  5
430
330
1FE
100
AcDbEntity
  8
0
  6
CONTINUOUS
 62
     7
100
AcDbVertex
100
AcDb2dVertex
 10
8.0829162128
 20
6.0548336952
 30
0.0
  0
VERTEX
  5
431
330
1FE
100
AcDbEntity
  8
0
  6
CONTINUOUS
 62
     7
100
AcDbVertex
100
AcDb2dVertex
 10
8.0861822084
 20
6.0393647367
 30
0.0
  0
VERTEX
  5
432
330
1FE
100
AcDbEntity
  8
0
  6
CONTINUOUS
 62
     7
100
AcDbVertex
100
AcDb2dVertex
 10
8.0907008683
 20
6.0236600233
 30
0.0
  0
VERTEX
  5
433
330
1FE
100
AcDbEntity
  8
0
  6
CONTINUOUS
 62
     7
100
AcDbVertex
100
AcDb2dVertex
 10
8.0964192154
 20
6.0079036785
 30
0.0
  0
VERTEX
  5
434
330
1FE
100
AcDbEntity
  8
0
  6
CONTINUOUS
 62
     7
100
AcDbVertex
100
AcDb2dVertex
 10
8.1032702073
 20
5.992280431
 30
0.0
  0
VERTEX
  5
435
330
1FE
100
AcDbEntity
  8
0
  6
CONTINUOUS
 62
     7
100
AcDbVertex
100
AcDb2dVertex
 10
8.1111735224
 20
5.9769734491
 30
0.0
  0
VERTEX
  5
436
330
1FE
100
AcDbEntity
  8
0
  6
CONTINUOUS
 62
     7
100
AcDbVertex
100
AcDb2dVertex
 10
8.1200365015
 20
5.9621621931
 30
0.0
  0
VERTEX
  5
437
330
1FE
100
AcDbEntity
  8
0
  6
CONTINUOUS
 62
     7
100
AcDbVertex
100
AcDb2dVertex
 10
8.1297552343
 20
5.9480203115
 30
0.0
  0
VERTEX
  5
438
330
1FE
100
AcDbEntity
  8
0
  6
CONTINUOUS
 62
     7
100
AcDbVertex
100
AcDb2dVertex
 10
8.1402157775
 20
5.934713605
 30
0.0
  0
VERTEX
  5
439
330
1FE
100
AcDbEntity
  8
0
  6
CONTINUOUS
 62
     7
100
AcDbVertex
100
AcDb2dVertex
 10
8.1512954909
 20
5.9223980825
 30
0.0
  0
VERTEX
  5
43A
330
1FE
100
AcDbEntity
  8
0
  6
CONTINUOUS
 62
     7
100
AcDbVertex
100
AcDb2dVertex
 10
8.1628644749
 20
5.9112181322
 30
0.0
  0
VERTEX
  5
43B
330
1FE
100
AcDbEntity
  8
0
  6
CONTINUOUS
 62
     7
100
AcDbVertex
100
AcDb2dVertex
 10
8.1747870938
 20
5.9013048288
 30
0.0
  0
VERTEX
  5
43C
330
1FE
100
AcDbEntity
  8
0
  6
CONTINUOUS
 62
     7
100
AcDbVertex
100
AcDb2dVertex
 10
8.1869235658
 20
5.8927743968
 30
0.0
  0
VERTEX
  5
43D
330
1FE
100
AcDbEntity
  8
0
  6
CONTINUOUS
 62
     7
100
AcDbVertex
100
AcDb2dVertex
 10
8.1991316018
 20
5.8857268476
 30
0.0
  0
VERTEX
  5
43E
330
1FE
100
AcDbEntity
  8
0
  6
CONTINUOUS
 62
     7
100
AcDbVertex
100
AcDb2dVertex
 10
8.2112680737
 20
5.8802448074
 30
0.0
  0
VERTEX
  5
43F
330
1FE
100
AcDbEntity
  8
0
  6
CONTINUOUS
 62
     7
100
AcDbVertex
100
AcDb2dVertex
 10
8.2231906926
 20
5.876392548
 30
0.0
  0
VERTEX
  5
440
330
1FE
100
AcDbEntity
  8
0
  6
CONTINUOUS
 62
     7
100
AcDbVertex
100
AcDb2dVertex
 10
8.2347596766
 20
5.8742152337
 30
0.0
  0
VERTEX
  5
441
330
1FE
100
AcDbEntity
  8
0
  6
CONTINUOUS
 62
     7
100
AcDbVertex
100
AcDb2dVertex
 10
8.24583939
 20
5.8737383914
 30
0.0
  0
VERTEX
  5
442
330
1FE
100
AcDbEntity
  8
0
  6
CONTINUOUS
 62
     7
100
AcDbVertex
100
AcDb2dVertex
 10
8.2562999332
 20
5.8749676118
 30
0.0
  0
VERTEX
  5
443
330
1FE
100
AcDbEntity
  8
0
  6
CONTINUOUS
 62
     7
100
AcDbVertex
100
AcDb2dVertex
 10
8.266018666
 20
5.8778884833
 30
0.0
  0
VERTEX
  5
444
330
1FE
100
AcDbEntity
  8
0
  6
CONTINUOUS
 62
     7
100
AcDbVertex
100
AcDb2dVertex
 10
8.2748816451
 20
5.8824667615
 30
0.0
  0
VERTEX
  5
445
330
1FE
100
AcDbEntity
  8
0
  6
CONTINUOUS
 62
     7
100
AcDbVertex
100
AcDb2dVertex
 10
8.2827849602
 20
5.88864877
 30
0.0
  0
VERTEX
  5
446
330
1FE
100
AcDbEntity
  8
0
  6
CONTINUOUS
 62
     7
100
AcDbVertex
100
AcDb2dVertex
 10
8.2896359521
 20
5.8963620307
 30
0.0
  0
VERTEX
  5
447
330
1FE
100
AcDbEntity
  8
0
  6
CONTINUOUS
 62
     7
100
AcDbVertex
100
AcDb2dVertex
 10
8.2953542992
 20
5.9055161125
 30
0.0
  0
VERTEX
  5
448
330
1FE
100
AcDbEntity
  8
0
  6
CONTINUOUS
 62
     7
100
AcDbVertex
100
AcDb2dVertex
 10
8.2998729591
 20
5.9160036921
 30
0.0
  0
VERTEX
  5
449
330
1FE
100
AcDbEntity
  8
0
  6
CONTINUOUS
 62
     7
100
AcDbVertex
100
AcDb2dVertex
 10
8.3014852109
 20
5.9210732003
 30
0.0
  0
SEQEND
  5
44A
330
1FE
100
AcDbEntity
  8
0
  6
CONTINUOUS
 62
     7
  0
POLYLINE
  5
1FF
330
1F
100
AcDbEntity
  8
0
  6
CONTINUOUS
 62
     7
100
AcDb2dPolyline
 66
     1
 10
0.0
 20
0.0
 30
0.0
  0
VERTEX
  5
44B
330
1FF
100
AcDbEntity
  8
0
  6
CONTINUOUS
 62
     7
100
AcDbVertex
100
AcDb2dVertex
 10
8.3101291397
 20
5.9124930787
 30
0.0
  0
VERTEX
  5
44C
330
1FF
100
AcDbEntity
  8
0
  6
CONTINUOUS
 62
     7
100
AcDbVertex
100
AcDb2dVertex
 10
8.3066815859
 20
5.9045027279
 30
0.0
  0
VERTEX
  5
44D
330
1FF
100
AcDbEntity
  8
0
  6
CONTINUOUS
 62
     7
100
AcDbVertex
100
AcDb2dVertex
 10
8.3010592455
 20
5.8950062437
 30
0.0
  0
VERTEX
  5
44E
330
1FF
100
AcDbEntity
  8
0
  6
CONTINUOUS
 62
     7
100
AcDbVertex
100
AcDb2dVertex
 10
8.2943142892
 20
5.886906283
 30
0.0
  0
VERTEX
  5
44F
330
1FF
100
AcDbEntity
  8
0
  6
CONTINUOUS
 62
     7
100
AcDbVertex
100
AcDb2dVertex
 10
8.2865206162
 20
5.8802915905
 30
0.0
  0
VERTEX
  5
450
330
1FF
100
AcDbEntity
  8
0
  6
CONTINUOUS
 62
     7
100
AcDbVertex
100
AcDb2dVertex
 10
8.2777636157
 20
5.8752346383
 30
0.0
  0
VERTEX
  5
451
330
1FF
100
AcDbEntity
  8
0
  6
CONTINUOUS
 62
     7
100
AcDbVertex
100
AcDb2dVertex
 10
8.2681392311
 20
5.8717908314
 30
0.0
  0
VERTEX
  5
452
330
1FF
100
AcDbEntity
  8
0
  6
CONTINUOUS
 62
     7
100
AcDbVertex
100
AcDb2dVertex
 10
8.2577529092
 20
5.8699979008
 30
0.0
  0
VERTEX
  5
453
330
1FF
100
AcDbEntity
  8
0
  6
CONTINUOUS
 62
     7
100
AcDbVertex
100
AcDb2dVertex
 10
8.2467184448
 20
5.8698754903
 30
0.0
  0
VERTEX
  5
454
330
1FF
100
AcDbEntity
  8
0
  6
CONTINUOUS
 62
     7
100
AcDbVertex
100
AcDb2dVertex
 10
8.2351567337
 20
5.871424941
 30
0.0
  0
VERTEX
  5
455
330
1FF
100
AcDbEntity
  8
0
  6
CONTINUOUS
 62
     7
100
AcDbVertex
100
AcDb2dVertex
 10
8.2231944485
 20
5.8746292769
 30
0.0
  0
VERTEX
  5
456
330
1FF
100
AcDbEntity
  8
0
  6
CONTINUOUS
 62
     7
100
AcDbVertex
100
AcDb2dVertex
 10
8.2109626504
 20
5.8794533905
 30
0.0
  0
VERTEX
  5
457
330
1FF
100
AcDbEntity
  8
0
  6
CONTINUOUS
 62
     7
100
AcDbVertex
100
AcDb2dVertex
 10
8.1985953537
 20
5.8858444278
 30
0.0
  0
VERTEX
  5
458
330
1FF
100
AcDbEntity
  8
0
  6
CONTINUOUS
 62
     7
100
AcDbVertex
100
AcDb2dVertex
 10
8.1985761242
 20
5.8858555306
 30
0.0
  0
SEQEND
  5
459
330
1FF
100
AcDbEntity
  8
0
  6
CONTINUOUS
 62
     7
  0
ARC
  5
200
330
1F
100
AcDbEntity
  8
0
  6
CONTINUOUS
 62
     7
100
AcDbCircle
 10
8.2090939699
 20
6.09195032
 30
0.0
 40
0.1288191144870696
100
AcDbArc
 50
167.6410244126
 51
180.5240031946
  0
LINE
  5
201
330
1F
100
AcDbEntity
  8
0
  6
CONTINUOUS
 62
     7
100
AcDbLine
 10
8.1930275838
 20
5.9450151919
 30
0.0
 11
8.2487052831
 21
5.9499936173
 31
0.0
  0
LINE
  5
202
330
1F
100
AcDbEntity
  8
0
  6
CONTINUOUS
 62
     7
100
AcDbLine
 10
8.2487052831
 20
5.9499936173
 30
0.0
 11
8.2487052831
 21
5.9744152674
 31
0.0
  0
LINE
  5
203
330
1F
100
AcDbEntity
  8
0
  6
CONTINUOUS
 62
     7
100
AcDbLine
 10
8.1373498845
 20
6.0819128613
 30
0.0
 11
8.1373498845
 21
6.0142777205
 31
0.0
  0
LINE
  5
204
330
1F
100
AcDbEntity
  8
0
  6
CONTINUOUS
 62
     7
100
AcDbLine
 10
8.1373498845
 20
6.0142777205
 30
0.0
 11
8.1930275838
 21
5.9450151919
 31
0.0
  0
LINE
  5
205
330
1F
100
AcDbEntity
  8
0
  6
CONTINUOUS
 62
     7
100
AcDbLine
 10
8.1791081589
 20
6.0452378597
 30
0.0
 11
8.1791081589
 21
6.0383842593
 31
0.0
  0
LINE
  5
206
330
1F
100
AcDbEntity
  8
0
  6
CONTINUOUS
 62
     7
100
AcDbLine
 10
8.2347858582
 20
5.9691217307
 30
0.0
 11
8.2487052831
 21
5.970366337
 31
0.0
  0
LINE
  5
207
330
1F
100
AcDbEntity
  8
0
  6
CONTINUOUS
 62
     7
100
AcDbLine
 10
8.1791081589
 20
6.0383842593
 30
0.0
 11
8.2347858582
 21
5.9691217307
 31
0.0
  0
LINE
  5
208
330
1F
100
AcDbEntity
  8
0
  6
CONTINUOUS
 62
     7
100
AcDbLine
 10
8.2347858582
 20
5.9691217307
 30
0.0
 11
8.1930275838
 21
5.9450151919
 31
0.0
  0
LINE
  5
209
330
1F
100
AcDbEntity
  8
0
  6
CONTINUOUS
 62
     7
100
AcDbLine
 10
8.1791081589
 20
6.0383842593
 30
0.0
 11
8.1373498845
 21
6.0142777205
 31
0.0
  0
POLYLINE
  5
20A
330
1F
100
AcDbEntity
  8
0
  6
CONTINUOUS
 62
     7
100
AcDb2dPolyline
 66
     1
 10
0.0
 20
0.0
 30
0.0
  0
VERTEX
  5
45A
330
20A
100
AcDbEntity
  8
0
  6
CONTINUOUS
 62
     7
100
AcDbVertex
100
AcDb2dVertex
 10
8.1476577665
 20
7.7343492175
 30
0.0
  0
VERTEX
  5
45B
330
20A
100
AcDbEntity
  8
0
  6
CONTINUOUS
 62
     7
100
AcDbVertex
100
AcDb2dVertex
 10
8.1378937128
 20
7.7294650167
 30
0.0
  0
VERTEX
  5
45C
330
20A
100
AcDbEntity
  8
0
  6
CONTINUOUS
 62
     7
100
AcDbVertex
100
AcDb2dVertex
 10
8.1308341279
 20
7.7267037477
 30
0.0
  0
SEQEND
  5
45D
330
20A
100
AcDbEntity
  8
0
  6
CONTINUOUS
 62
     7
  0
POLYLINE
  5
20B
330
1F
100
AcDbEntity
  8
0
  6
CONTINUOUS
 62
     7
100
AcDb2dPolyline
 66
     1
 10
0.0
 20
0.0
 30
0.0
  0
VERTEX
  5
45E
330
20B
100
AcDbEntity
  8
0
  6
CONTINUOUS
 62
     7
100
AcDbVertex
100
AcDb2dVertex
 10
7.9949396472
 20
7.7818600411
 30
0.0
  0
VERTEX
  5
45F
330
20B
100
AcDbEntity
  8
0
  6
CONTINUOUS
 62
     7
100
AcDbVertex
100
AcDb2dVertex
 10
7.9951466094
 20
7.7824242327
 30
0.0
  0
VERTEX
  5
460
330
20B
100
AcDbEntity
  8
0
  6
CONTINUOUS
 62
     7
100
AcDbVertex
100
AcDb2dVertex
 10
7.998786508
 20
7.7895804968
 30
0.0
  0
VERTEX
  5
461
330
20B
100
AcDbEntity
  8
0
  6
CONTINUOUS
 62
     7
100
AcDbVertex
100
AcDb2dVertex
 10
8.0041535431
 20
7.7963648788
 30
0.0
  0
VERTEX
  5
462
330
20B
100
AcDbEntity
  8
0
  6
CONTINUOUS
 62
     7
100
AcDbVertex
100
AcDb2dVertex
 10
8.0111384574
 20
7.8026392681
 30
0.0
  0
VERTEX
  5
463
330
20B
100
AcDbEntity
  8
0
  6
CONTINUOUS
 62
     7
100
AcDbVertex
100
AcDb2dVertex
 10
8.0195990581
 20
7.8082759363
 30
0.0
  0
VERTEX
  5
464
330
20B
100
AcDbEntity
  8
0
  6
CONTINUOUS
 62
     7
100
AcDbVertex
100
AcDb2dVertex
 10
8.0293631118
 20
7.8131601371
 30
0.0
  0
VERTEX
  5
465
330
20B
100
AcDbEntity
  8
0
  6
CONTINUOUS
 62
     7
100
AcDbVertex
100
AcDb2dVertex
 10
8.0402318505
 20
7.8171924423
 30
0.0
  0
VERTEX
  5
466
330
20B
100
AcDbEntity
  8
0
  6
CONTINUOUS
 62
     7
100
AcDbVertex
100
AcDb2dVertex
 10
8.0519840181
 20
7.8202907657
 30
0.0
  0
VERTEX
  5
467
330
20B
100
AcDbEntity
  8
0
  6
CONTINUOUS
 62
     7
100
AcDbVertex
100
AcDb2dVertex
 10
8.0643803742
 20
7.8223920344
 30
0.0
  0
VERTEX
  5
468
330
20B
100
AcDbEntity
  8
0
  6
CONTINUOUS
 62
     7
100
AcDbVertex
100
AcDb2dVertex
 10
8.077168565
 20
7.8234534727
 30
0.0
  0
VERTEX
  5
469
330
20B
100
AcDbEntity
  8
0
  6
CONTINUOUS
 62
     7
100
AcDbVertex
100
AcDb2dVertex
 10
8.0900882596
 20
7.8234534727
 30
0.0
  0
VERTEX
  5
46A
330
20B
100
AcDbEntity
  8
0
  6
CONTINUOUS
 62
     7
100
AcDbVertex
100
AcDb2dVertex
 10
8.1028764503
 20
7.8223920344
 30
0.0
  0
VERTEX
  5
46B
330
20B
100
AcDbEntity
  8
0
  6
CONTINUOUS
 62
     7
100
AcDbVertex
100
AcDb2dVertex
 10
8.1152728065
 20
7.8202907657
 30
0.0
  0
VERTEX
  5
46C
330
20B
100
AcDbEntity
  8
0
  6
CONTINUOUS
 62
     7
100
AcDbVertex
100
AcDb2dVertex
 10
8.1270249741
 20
7.8171924423
 30
0.0
  0
VERTEX
  5
46D
330
20B
100
AcDbEntity
  8
0
  6
CONTINUOUS
 62
     7
100
AcDbVertex
100
AcDb2dVertex
 10
8.1378937128
 20
7.8131601371
 30
0.0
  0
VERTEX
  5
46E
330
20B
100
AcDbEntity
  8
0
  6
CONTINUOUS
 62
     7
100
AcDbVertex
100
AcDb2dVertex
 10
8.1476577665
 20
7.8082759363
 30
0.0
  0
VERTEX
  5
46F
330
20B
100
AcDbEntity
  8
0
  6
CONTINUOUS
 62
     7
100
AcDbVertex
100
AcDb2dVertex
 10
8.1561183672
 20
7.8026392681
 30
0.0
  0
VERTEX
  5
470
330
20B
100
AcDbEntity
  8
0
  6
CONTINUOUS
 62
     7
100
AcDbVertex
100
AcDb2dVertex
 10
8.1631032814
 20
7.7963648788
 30
0.0
  0
VERTEX
  5
471
330
20B
100
AcDbEntity
  8
0
  6
CONTINUOUS
 62
     7
100
AcDbVertex
100
AcDb2dVertex
 10
8.1684703165
 20
7.7895804968
 30
0.0
  0
VERTEX
  5
472
330
20B
100
AcDbEntity
  8
0
  6
CONTINUOUS
 62
     7
100
AcDbVertex
100
AcDb2dVertex
 10
8.1721102151
 20
7.7824242327
 30
0.0
  0
VERTEX
  5
473
330
20B
100
AcDbEntity
  8
0
  6
CONTINUOUS
 62
     7
100
AcDbVertex
100
AcDb2dVertex
 10
8.1739488793
 20
7.7750417674
 30
0.0
  0
VERTEX
  5
474
330
20B
100
AcDbEntity
  8
0
  6
CONTINUOUS
 62
     7
100
AcDbVertex
100
AcDb2dVertex
 10
8.1739488793
 20
7.7675833864
 30
0.0
  0
VERTEX
  5
475
330
20B
100
AcDbEntity
  8
0
  6
CONTINUOUS
 62
     7
100
AcDbVertex
100
AcDb2dVertex
 10
8.1721102151
 20
7.7602009211
 30
0.0
  0
VERTEX
  5
476
330
20B
100
AcDbEntity
  8
0
  6
CONTINUOUS
 62
     7
100
AcDbVertex
100
AcDb2dVertex
 10
8.1684703165
 20
7.753044657
 30
0.0
  0
VERTEX
  5
477
330
20B
100
AcDbEntity
  8
0
  6
CONTINUOUS
 62
     7
100
AcDbVertex
100
AcDb2dVertex
 10
8.1631032814
 20
7.746260275
 30
0.0
  0
VERTEX
  5
478
330
20B
100
AcDbEntity
  8
0
  6
CONTINUOUS
 62
     7
100
AcDbVertex
100
AcDb2dVertex
 10
8.1561183672
 20
7.7399858857
 30
0.0
  0
VERTEX
  5
479
330
20B
100
AcDbEntity
  8
0
  6
CONTINUOUS
 62
     7
100
AcDbVertex
100
AcDb2dVertex
 10
8.1476577665
 20
7.7343492175
 30
0.0
  0
VERTEX
  5
47A
330
20B
100
AcDbEntity
  8
0
  6
CONTINUOUS
 62
     7
100
AcDbVertex
100
AcDb2dVertex
 10
8.1476577665
 20
7.7343492175
 30
0.0
  0
SEQEND
  5
47B
330
20B
100
AcDbEntity
  8
0
  6
CONTINUOUS
 62
     7
  0
ARC
  5
20C
330
1F
100
AcDbEntity
  8
0
  6
CONTINUOUS
 62
     7
100
AcDbCircle
 10
8.1378148461
 20
7.7648820267
 30
0.0
 40
0.0430306645004744
100
AcDbArc
 50
290.9855661758
 51
68.9983055364
  0
ARC
  5
20D
330
1F
100
AcDbEntity
  8
0
  6
CONTINUOUS
 62
     7
100
AcDbCircle
 10
8.0436119641
 20
7.7494158658
 30
0.0
 40
0.063018290868494
100
AcDbArc
 50
118.0068882862
 51
146.4211386597
  0
LINE
  5
20E
330
1F
100
AcDbEntity
  8
0
  6
CONTINUOUS
 62
     7
100
AcDbLine
 10
8.1476340751
 20
7.7217183868
 30
0.0
 11
8.1532255364
 21
7.7247055571
 31
0.0
  0
ENDSEC
  0
SECTION
  2
OBJECTS
  0
DICTIONARY
  5
C
330
0
100
AcDbDictionary
  3
ACAD_GROUP
350
D
  3
ACAD_LAYOUT
350
1A
  3
ACAD_MLEADERSTYLE
350
211
  3
ACAD_MLINESTYLE
350
17
  3
ACAD_PLOTSETTINGS
350
19
  3
ACAD_SCALELIST
350
6F
  3
ACAD_VISUALSTYLE
350
2A
  3
ACDBVARIABLEDICTIONARY
350
20F
1001
ACAD
1000
TREAT_AS_HARD
1070
     0
  0
DICTIONARY
  5
D
102
{ACAD_REACTORS
330
C
102
}
330
C
100
AcDbDictionary
1001
ACAD
1000
TREAT_AS_HARD
1070
     0
  0
DICTIONARY
  5
1A
102
{ACAD_REACTORS
330
C
102
}
330
C
100
AcDbDictionary
1001
ACAD
1000
TREAT_AS_HARD
1070
     0
  0
DICTIONARY
  5
211
102
{ACAD_REACTORS
330
C
102
}
330
C
100
AcDbDictionary
1001
ACAD
1000
TREAT_AS_HARD
1070
     0
  0
DICTIONARY
  5
17
102
{ACAD_REACTORS
330
C
102
}
330
C
100
AcDbDictionary
  3
STANDARD
350
18
1001
ACAD
1000
TREAT_AS_HARD
1070
     0
  0
DICTIONARY
  5
19
102
{ACAD_REACTORS
330
C
102
}
330
C
100
AcDbDictionary
1001
ACAD
1000
TREAT_AS_HARD
1070
     0
  0
DICTIONARY
  5
6F
102
{ACAD_REACTORS
330
C
102
}
330
C
100
AcDbDictionary
  3
A0
350
70
  3
A1
350
71
  3
A2
350
72
  3
A3
350
73
  3
A4
350
74
  3
A5
350
75
  3
A6
350
76
  3
A7
350
77
  3
A8
350
78
  3
A9
350
79
  3
B0
350
7A
  3
B1
350
7B
  3
B2
350
7C
  3
B3
350
7D
  3
B4
350
7E
  3
B5
350
7F
  3
B6
350
80
  3
B7
350
81
  3
B8
350
82
  3
B9
350
83
  3
C0
350
84
  3
C1
350
85
  3
C2
350
86
  3
C3
350
87
  3
C4
350
88
  3
C5
350
89
  3
C6
350
8A
  3
C7
350
8B
  3
C8
350
8C
  3
C9
350
8D
  3
D0
350
8E
  3
D1
350
8F
  3
D2
350
90
1001
ACAD
1000
TREAT_AS_HARD
1070
     0
  0
DICTIONARY
  5
2A
102
{ACAD_REACTORS
330
C
102
}
330
C
100
AcDbDictionary
  3
2DWIREFRAME
350
2F
  3
3D_HIDDEN
350
31
  3
3DWIREFRAME
350
30
  3
BASIC
350
32
  3
BRIGHTEN
350
36
  3
COLORCHANGE
350
3A
  3
CONCEPTUAL
350
34
  3
DIM
350
35
  3
FACEPATTERN
350
39
  3
FLAT
350
2B
  3
FLATWITHEDGES
350
2C
  3
GOURAUD
350
2D
  3
GOURAUDWITHEDGES
350
2E
  3
LINEPATTERN
350
38
  3
REALISTIC
350
33
  3
THICKEN
350
37
1001
ACAD
1000
TREAT_AS_HARD
1070
     0
  0
DICTIONARY
  5
20F
102
{ACAD_REACTORS
330
C
102
}
330
C
100
AcDbDictionary
  3
CANNOSCALE
350
212
  3
DIMASSOC
350
213
  3
HIDETEXT
350
214
1001
ACAD
1000
TREAT_AS_HARD
1070
     0
  0
MLINESTYLE
  5
18
102
{ACAD_REACTORS
330
17
102
}
330
17
100
AcDbMlineStyle
  2
Standard
 70
     0
  3

 62
   256
 51
90.0
 52
90.0
 71
     2
 49
0.5
 62
   256
  6
BYLAYER
 49
-0.5
 62
   256
  6
BYLAYER
  0
ACAD_PROXY_OBJECT
  5
70
102
{ACAD_REACTORS
330
6F
102
}
330
6F
100
AcDbZombieObject
 90
      499
 91
      502
 93
       41
310
903313A31580
  0
ACAD_PROXY_OBJECT
  5
71
102
{ACAD_REACTORS
330
6F
102
}
330
6F
100
AcDbZombieObject
 90
      499
 91
      502
 93
      105
310
903313A324000000000000004000
  0
ACAD_PROXY_OBJECT
  5
72
102
{ACAD_REACTORS
330
6F
102
}
330
6F
100
AcDbZombieObject
 90
      499
 91
      502
 93
      105
310
903313A344000000000000104000
  0
ACAD_PROXY_OBJECT
  5
73
102
{ACAD_REACTORS
330
6F
102
}
330
6F
100
AcDbZombieObject
 90
      499
 91
      502
 93
      105
310
903313A354000000000000144000
  0
ACAD_PROXY_OBJECT
  5
74
102
{ACAD_REACTORS
330
6F
102
}
330
6F
100
AcDbZombieObject
 90
      499
 91
      502
 93
      105
310
903313A384000000000000204000
  0
ACAD_PROXY_OBJECT
  5
75
102
{ACAD_REACTORS
330
6F
102
}
330
6F
100
AcDbZombieObject
 90
      499
 91
      502
 93
      113
310
904313A31304000000000000244000
  0
ACAD_PROXY_OBJECT
  5
76
102
{ACAD_REACTORS
330
6F
102
}
330
6F
100
AcDbZombieObject
 90
      499
 91
      502
 93
      113
310
904313A31364000000000000304000
  0
ACAD_PROXY_OBJECT
  5
77
102
{ACAD_REACTORS
330
6F
102
}
330
6F
100
AcDbZombieObject
 90
      499
 91
      502
 93
      113
310
904313A32304000000000000344000
  0
ACAD_PROXY_OBJECT
  5
78
102
{ACAD_REACTORS
330
6F
102
}
330
6F
100
AcDbZombieObject
 90
      499
 91
      502
 93
      113
310
904313A333040000000000003E4000
  0
ACAD_PROXY_OBJECT
  5
79
102
{ACAD_REACTORS
330
6F
102
}
330
6F
100
AcDbZombieObject
 90
      499
 91
      502
 93
      113
310
904313A34304000000000000444000
  0
ACAD_PROXY_OBJECT
  5
7A
102
{ACAD_REACTORS
330
6F
102
}
330
6F
100
AcDbZombieObject
 90
      499
 91
      502
 93
      113
310
904313A35304000000000000494000
  0
ACAD_PROXY_OBJECT
  5
7B
102
{ACAD_REACTORS
330
6F
102
}
330
6F
100
AcDbZombieObject
 90
      499
 91
      502
 93
      121
310
905313A3130304000000000000594000
  0
ACAD_PROXY_OBJECT
  5
7C
102
{ACAD_REACTORS
330
6F
102
}
330
6F
100
AcDbZombieObject
 90
      499
 91
      502
 93
      105
310
903323A310000000000000010100
  0
ACAD_PROXY_OBJECT
  5
7D
102
{ACAD_REACTORS
330
6F
102
}
330
6F
100
AcDbZombieObject
 90
      499
 91
      502
 93
      105
310
903343A310000000000000410100
  0
ACAD_PROXY_OBJECT
  5
7E
102
{ACAD_REACTORS
330
6F
102
}
330
6F
100
AcDbZombieObject
 90
      499
 91
      502
 93
      105
310
903383A310000000000000810100
  0
ACAD_PROXY_OBJECT
  5
7F
102
{ACAD_REACTORS
330
6F
102
}
330
6F
100
AcDbZombieObject
 90
      499
 91
      502
 93
      113
310
90431303A310000000000000910100
  0
ACAD_PROXY_OBJECT
  5
80
102
{ACAD_REACTORS
330
6F
102
}
330
6F
100
AcDbZombieObject
 90
      499
 91
      502
 93
      121
310
9053130303A310000000000001650100
  0
ACAD_PROXY_OBJECT
  5
81
102
{ACAD_REACTORS
330
6F
102
}
330
6F
100
AcDbZombieObject
 90
      499
 91
      502
 93
      257
310
90E312F31323822203D2031272D3022000000000000200FC000000000000284000
  0
ACAD_PROXY_OBJECT
  5
82
102
{ACAD_REACTORS
330
6F
102
}
330
6F
100
AcDbZombieObject
 90
      499
 91
      502
 93
      249
310
90D312F363422203D2031272D3022000000000000240FC000000000000284000
  0
ACAD_PROXY_OBJECT
  5
83
102
{ACAD_REACTORS
330
6F
102
}
330
6F
100
AcDbZombieObject
 90
      499
 91
      502
 93
      249
310
90D312F333222203D2031272D3022000000000000280FC000000000000284000
  0
ACAD_PROXY_OBJECT
  5
84
102
{ACAD_REACTORS
330
6F
102
}
330
6F
100
AcDbZombieObject
 90
      499
 91
      502
 93
      249
310
90D312F313622203D2031272D30220000000000002C0FC000000000000284000
  0
ACAD_PROXY_OBJECT
  5
85
102
{ACAD_REACTORS
330
6F
102
}
330
6F
100
AcDbZombieObject
 90
      499
 91
      502
 93
      249
310
90D332F333222203D2031272D30220000000000002E0FC000000000000284000
  0
ACAD_PROXY_OBJECT
  5
86
102
{ACAD_REACTORS
330
6F
102
}
330
6F
100
AcDbZombieObject
 90
      499
 91
      502
 93
      241
310
90C312F3822203D2031272D3022000000000000300FC000000000000284000
  0
ACAD_PROXY_OBJECT
  5
87
102
{ACAD_REACTORS
330
6F
102
}
330
6F
100
AcDbZombieObject
 90
      499
 91
      502
 93
      249
310
90D332F313622203D2031272D3022000000000000320FC000000000000284000
  0
ACAD_PROXY_OBJECT
  5
88
102
{ACAD_REACTORS
330
6F
102
}
330
6F
100
AcDbZombieObject
 90
      499
 91
      502
 93
      241
310
90C312F3422203D2031272D3022000000000000340FC000000000000284000
  0
ACAD_PROXY_OBJECT
  5
89
102
{ACAD_REACTORS
330
6F
102
}
330
6F
100
AcDbZombieObject
 90
      499
 91
      502
 93
      241
310
90C332F3822203D2031272D3022000000000000360FC000000000000284000
  0
ACAD_PROXY_OBJECT
  5
8A
102
{ACAD_REACTORS
330
6F
102
}
330
6F
100
AcDbZombieObject
 90
      499
 91
      502
 93
      241
310
90C312F3222203D2031272D3022000000000000380FC000000000000284000
  0
ACAD_PROXY_OBJECT
  5
8B
102
{ACAD_REACTORS
330
6F
102
}
330
6F
100
AcDbZombieObject
 90
      499
 91
      502
 93
      241
310
90C332F3422203D2031272D30220000000000003A0FC000000000000284000
  0
ACAD_PROXY_OBJECT
  5
8C
102
{ACAD_REACTORS
330
6F
102
}
330
6F
100
AcDbZombieObject
 90
      499
 91
      502
 93
      161
310
90A3122203D2031272D30224000000000000284000
  0
ACAD_PROXY_OBJECT
  5
8D
102
{ACAD_REACTORS
330
6F
102
}
330
6F
100
AcDbZombieObject
 90
      499
 91
      502
 93
      257
310
90E312D312F3222203D2031272D30220000000000003E0FC000000000000284000
  0
ACAD_PROXY_OBJECT
  5
8E
102
{ACAD_REACTORS
330
6F
102
}
330
6F
100
AcDbZombieObject
 90
      499
 91
      502
 93
      225
310
90A3322203D2031272D302200000000000002100000000000000284000
  0
ACAD_PROXY_OBJECT
  5
8F
102
{ACAD_REACTORS
330
6F
102
}
330
6F
100
AcDbZombieObject
 90
      499
 91
      502
 93
      225
310
90A3622203D2031272D302200000000000006100000000000000284000
  0
ACAD_PROXY_OBJECT
  5
90
102
{ACAD_REACTORS
330
6F
102
}
330
6F
100
AcDbZombieObject
 90
      499
 91
      502
 93
      249
310
90D31272D3022203D2031272D30220000000000000A100000000000000284000
  0
ACAD_PROXY_OBJECT
  5
2F
102
{ACAD_REACTORS
330
2A
102
}
330
2A
100
AcDbZombieObject
 90
      499
 91
      501
 93
      436
310
42CC9915DA5C99599C985B595049028333333333333E3BF0000000000000FB0107901411070040501600405405064090741402480A0340
1001
ACAD
1000
AcDbSavedByObjectVersion
1070
     0
  0
ACAD_PROXY_OBJECT
  5
31
102
{ACAD_REACTORS
330
2A
102
}
330
2A
100
AcDbZombieObject
 90
      499
 91
      501
 93
      500
310
424CD108121A5919195B90640502408333333333333E3BF0000000000000FB01079024090700405020000000000001110200405405064090740C02480A0340
1001
ACAD
1000
AcDbSavedByObjectVersion
1070
     0
  0
ACAD_PROXY_OBJECT
  5
30
102
{ACAD_REACTORS
330
2A
102
}
330
2A
100
AcDbZombieObject
 90
      499
 91
      501
 93
      436
310
42CCD915DA5C99599C985B595059028333333333333E3BF0000000000000FB0107901411070040501600405405064090741402480A0340
1001
ACAD
1000
AcDbSavedByObjectVersion
1070
     0
  0
ACAD_PROXY_OBJECT
  5
32
102
{ACAD_REACTORS
330
2A
102
}
330
2A
100
AcDbZombieObject
 90
      499
 91
      501
 93
      388
310
4150985CDA58D07406404333333333333E3BF0000000000000FB0107A41107004050150841D405064090741402480A0350
1001
ACAD
1000
AcDbSavedByObjectVersion
1070
     0
  0
ACAD_PROXY_OBJECT
  5
36
102
{ACAD_REACTORS
330
2A
102
}
330
2A
100
AcDbZombieObject
 90
      499
 91
      501
 93
      428
310
42109C9A59DA1D195B90C409028333333333333E3BF0000000000000FB010790141107004050150841D405064090741402480A029950
1001
ACAD
1000
AcDbSavedByObjectVersion
1070
     0
  0
ACAD_PROXY_OBJECT
  5
3A
102
{ACAD_REACTORS
330
2A
102
}
330
2A
100
AcDbZombieObject
 90
      499
 91
      501
 93
      452
310
42D0DBDB1BDC90DA185B99D95104090240C333333333333E3BF0000000000000FB0108901411070040501508421405064090741402480A0350
1001
ACAD
1000
AcDbSavedByObjectVersion
1070
     0
  0
ACAD_PROXY_OBJECT
  5
34
102
{ACAD_REACTORS
330
2A
102
}
330
2A
100
AcDbZombieObject
 90
      499
 91
      501
 93
      500
310
4290DBDB98D95C1D1D585B10940D028333333333333E3BF0000000000000FB0107902409070040501000000000000111010841D405064090740C02480A0340
1001
ACAD
1000
AcDbSavedByObjectVersion
1070
     0
  0
ACAD_PROXY_OBJECT
  5
35
102
{ACAD_REACTORS
330
2A
102
}
330
2A
100
AcDbZombieObject
 90
      499
 91
      501
 93
      412
310
40D11A5B50B409028333333333333E3BF0000000000000FB010790141107004050150841D405064090741402480A02677FFFFFD0
1001
ACAD
1000
AcDbSavedByObjectVersion
1070
     0
  0
ACAD_PROXY_OBJECT
  5
39
102
{ACAD_REACTORS
330
2A
102
}
330
2A
100
AcDbZombieObject
 90
      499
 91
      501
 93
      444
310
42D19858D95C185D1D195C9B90F409028333333333333E3BF0000000000000FB010790141107004050150841D405064090741402480A0350
1001
ACAD
1000
AcDbSavedByObjectVersion
1070
     0
  0
ACAD_PROXY_OBJECT
  5
2B
102
{ACAD_REACTORS
330
2A
102
}
330
2A
100
AcDbZombieObject
 90
      499
 91
      501
 93
      388
310
41119B185D240901404333333333333E3BF0000000000000F9010740A41107004050150841D405064090741402480A1B50
1001
ACAD
1000
AcDbSavedByObjectVersion
1070
     0
  0
ACAD_PROXY_OBJECT
  5
2C
102
{ACAD_REACTORS
330
2A
102
}
330
2A
100
AcDbZombieObject
 90
      499
 91
      501
 93
      476
310
43519B185D15DA5D1A115919D95CD0140901404333333333333E3BF0000000000000F9010740901411070040501600405405064090741402480A1B50
1001
ACAD
1000
AcDbSavedByObjectVersion
1070
     0
  0
ACAD_PROXY_OBJECT
  5
2D
102
{ACAD_REACTORS
330
2A
102
}
330
2A
100
AcDbZombieObject
 90
      499
 91
      501
 93
      412
310
41D1DBDD5C985D5910240902404333333333333E3BF0000000000000F9010740A411070040501641D405064090741402480A1B50
1001
ACAD
1000
AcDbSavedByObjectVersion
1070
     0
  0
ACAD_PROXY_OBJECT
  5
2E
102
{ACAD_REACTORS
330
2A
102
}
330
2A
100
AcDbZombieObject
 90
      499
 91
      501
 93
      500
310
4411DBDD5C985D5915DA5D1A115919D95CD0340902404333333333333E3BF0000000000000F9010740901411070040501600405405064090741402480A1B50
1001
ACAD
1000
AcDbSavedByObjectVersion
1070
     0
  0
ACAD_PROXY_OBJECT
  5
38
102
{ACAD_REACTORS
330
2A
102
}
330
2A
100
AcDbZombieObject
 90
      499
 91
      501
 93
      444
310
42D31A5B995C185D1D195C9B90E409028333333333333E3BF0000000000000FB010790141107004050750841D405064090741402483A0350
1001
ACAD
1000
AcDbSavedByObjectVersion
1070
     0
  0
ACAD_PROXY_OBJECT
  5
33
102
{ACAD_REACTORS
330
2A
102
}
330
2A
100
AcDbZombieObject
 90
      499
 91
      501
 93
      420
310
425499585B1A5CDD1A58D08409028333333333333E3BF0000000000000FB01079019070040501508421405064090741402480A1B40
1001
ACAD
1000
AcDbSavedByObjectVersion
1070
     0
  0
ACAD_PROXY_OBJECT
  5
37
102
{ACAD_REACTORS
330
2A
102
}
330
2A
100
AcDbZombieObject
 90
      499
 91
      501
 93
      412
310
41D51A1A58DAD95B90D409028333333333333E3BF0000000000000FB010790141107004050150C41D405064090741402480A0350
1001
ACAD
1000
AcDbSavedByObjectVersion
1070
     0
  0
DICTIONARYVAR
  5
212
102
{ACAD_REACTORS
330
20F
102
}
330
20F
100
DictionaryVariables
280
     0
  1
1:1
  0
DICTIONARYVAR
  5
213
102
{ACAD_REACTORS
330
20F
102
}
330
20F
100
DictionaryVariables
280
     0
  1
2
  0
DICTIONARYVAR
  5
214
102
{ACAD_REACTORS
330
20F
102
}
330
20F
100
DictionaryVariables
280
     0
  1
1
  0
ENDSEC
  0
EOF
