  0
SECTION
  2
HEADER
  9
$ACADVER
  1
AC1012
  9
$DWGCODEPAGE
  3
ansi_1252
  9
$INSBASE
 10
0.0
 20
0.0
 30
0.0
  9
$EXTMIN
 10
0.0
 20
0.0
 30
0.0
  9
$EXTMAX
 10
11.0
 20
8.5
 30
0.0
  9
$LIMMIN
 10
0.0
 20
0.0
  9
$LIMMAX
 10
11.0
 20
8.5
  9
$ORTHOMODE
 70
     0
  9
$REGENMODE
 70
     1
  9
$FILLMODE
 70
     1
  9
$QTEXTMODE
 70
     0
  9
$MIRRTEXT
 70
     1
  9
$DRAGMODE
 70
     2
  9
$LTSCALE
 40
1.0
  9
$OSMODE
 70
    37
  9
$ATTMODE
 70
     1
  9
$TEXTSIZE
 40
0.125
  9
$TRACEWID
 40
0.05
  9
$TEXTSTYLE
  7
STANDARD
  9
$CLAYER
  8
0
  9
$CELTYPE
  6
BYLAYER
  9
$CECOLOR
 62
   256
  9
$CELTSCALE
 40
1.0
  9
$DELOBJ
 70
     1
  9
$DISPSILH
 70
     0
  9
$DIMSCALE
 40
1.0
  9
$DIMASZ
 40
0.13
  9
$DIMEXO
 40
0.05
  9
$DIMDLI
 40
0.38
  9
$DIMRND
 40
0.0
  9
$DIMDLE
 40
0.0
  9
$DIMEXE
 40
0.125
  9
$DIMTP
 40
0.0
  9
$DIMTM
 40
0.0
  9
$DIMTXT
 40
0.125
  9
$DIMCEN
 40
0.09
  9
$DIMTSZ
 40
0.0
  9
$DIMTOL
 70
     0
  9
$DIMLIM
 70
     0
  9
$DIMTIH
 70
     1
  9
$DIMTOH
 70
     1
  9
$DIMSE1
 70
     0
  9
$DIMSE2
 70
     0
  9
$DIMTAD
 70
     0
  9
$DIMZIN
 70
     0
  9
$DIMBLK
  1

  9
$DIMASO
 70
     1
  9
$DIMSHO
 70
     1
  9
$DIMPOST
  1

  9
$DIMAPOST
  1

  9
$DIMALT
 70
     0
  9
$DIMALTD
 70
     2
  9
$DIMALTF
 40
25.4
  9
$DIMLFAC
 40
1.0
  9
$DIMTOFL
 70
     0
  9
$DIMTVP
 40
0.0
  9
$DIMTIX
 70
     0
  9
$DIMSOXD
 70
     0
  9
$DIMSAH
 70
     0
  9
$DIMBLK1
  1

  9
$DIMBLK2
  1

  9
$DIMSTYLE
  2
STANDARD
  9
$DIMCLRD
 70
     0
  9
$DIMCLRE
 70
     0
  9
$DIMCLRT
 70
     0
  9
$DIMTFAC
 40
1.0
  9
$DIMGAP
 40
0.06
  9
$DIMJUST
 70
     0
  9
$DIMSD1
 70
     0
  9
$DIMSD2
 70
     0
  9
$DIMTOLJ
 70
     1
  9
$DIMTZIN
 70
     0
  9
$DIMALTZ
 70
     0
  9
$DIMALTTZ
 70
     0
  9
$DIMFIT
 70
     3
  9
$DIMUPT
 70
     0
  9
$DIMUNIT
 70
     2
  9
$DIMDEC
 70
     3
  9
$DIMTDEC
 70
     3
  9
$DIMALTU
 70
     2
  9
$DIMALTTD
 70
     2
  9
$DIMTXSTY
  7
STANDARD
  9
$DIMAUNIT
 70
     0
  9
$LUNITS
 70
     2
  9
$LUPREC
 70
     2
  9
$SKETCHINC
 40
0.1
  9
$FILLETRAD
 40
0.5
  9
$AUNITS
 70
     0
  9
$AUPREC
 70
     2
  9
$MENU
  1
.
  9
$ELEVATION
 40
0.0
  9
$PELEVATION
 40
0.0
  9
$THICKNESS
 40
0.0
  9
$LIMCHECK
 70
     0
  9
$CHAMFERA
 40
0.5
  9
$CHAMFERB
 40
0.5
  9
$CHAMFERC
 40
1.0
  9
$CHAMFERD
 40
0.0
  9
$SKPOLY
 70
     0
  9
$TDCREATE
 40
2455784.01319265
  9
$TDUPDATE
 40
2455784.013192662
  9
$TDINDWG
 40
0.0000000116
  9
$TDUSRTIMER
 40
0.0000000116
  9
$USRTIMER
 70
     1
  9
$ANGBASE
 50
0.0
  9
$ANGDIR
 70
     0
  9
$PDMODE
 70
     0
  9
$PDSIZE
 40
-1.0
  9
$PLINEWID
 40
0.0
  9
$COORDS
 70
     1
  9
$SPLFRAME
 70
     0
  9
$SPLINETYPE
 70
     6
  9
$SPLINESEGS
 70
     8
  9
$ATTDIA
 70
     0
  9
$ATTREQ
 70
     1
  9
$HANDLING
 70
     1
  9
$HANDSEED
  5
477
  9
$SURFTAB1
 70
     6
  9
$SURFTAB2
 70
     6
  9
$SURFTYPE
 70
     6
  9
$SURFU
 70
     6
  9
$SURFV
 70
     6
  9
$UCSNAME
  2

  9
$UCSORG
 10
0.0
 20
0.0
 30
0.0
  9
$UCSXDIR
 10
1.0
 20
0.0
 30
0.0
  9
$UCSYDIR
 10
0.0
 20
1.0
 30
0.0
  9
$PUCSNAME
  2

  9
$PUCSORG
 10
0.0
 20
0.0
 30
0.0
  9
$PUCSXDIR
 10
1.0
 20
0.0
 30
0.0
  9
$PUCSYDIR
 10
0.0
 20
1.0
 30
0.0
  9
$USERI1
 70
     0
  9
$USERI2
 70
     0
  9
$USERI3
 70
     0
  9
$USERI4
 70
     0
  9
$USERI5
 70
     0
  9
$USERR1
 40
0.0
  9
$USERR2
 40
0.0
  9
$USERR3
 40
0.0
  9
$USERR4
 40
0.0
  9
$USERR5
 40
0.0
  9
$WORLDVIEW
 70
     1
  9
$SHADEDGE
 70
     3
  9
$SHADEDIF
 70
    70
  9
$TILEMODE
 70
     1
  9
$MAXACTVP
 70
    64
  9
$PINSBASE
 10
0.0
 20
0.0
 30
0.0
  9
$PLIMCHECK
 70
     0
  9
$PEXTMIN
 10
1.0000000000E+20
 20
1.0000000000E+20
 30
1.0000000000E+20
  9
$PEXTMAX
 10
-1.0000000000E+20
 20
-1.0000000000E+20
 30
-1.0000000000E+20
  9
$PLIMMIN
 10
0.0
 20
0.0
  9
$PLIMMAX
 10
12.0
 20
9.0
  9
$UNITMODE
 70
     0
  9
$VISRETAIN
 70
     1
  9
$PLINEGEN
 70
     0
  9
$PSLTSCALE
 70
     1
  9
$TREEDEPTH
 70
  3020
  9
$PICKSTYLE
 70
     1
  9
$CMLSTYLE
  2
STANDARD
  9
$CMLJUST
 70
     0
  9
$CMLSCALE
 40
1.0
  9
$SAVEIMAGES
 70
     1
  0
ENDSEC
  0
SECTION
  2
CLASSES
  0
CLASS
  1
ACDBDICTIONARYWDFLT
  2
AcDbDictionaryWithDefault
  3
ObjectDBX Classes
 90
    32768
280
     0
281
     0
  0
CLASS
  1
VISUALSTYLE
  2
AcDbVisualStyle
  3
ObjectDBX Classes
 90
     4095
280
     0
281
     0
  0
CLASS
  1
SCALE
  2
AcDbScale
  3
ObjectDBX Classes
 90
     1153
280
     0
281
     0
  0
CLASS
  1
DICTIONARYVAR
  2
AcDbDictionaryVar
  3
ObjectDBX Classes
 90
        0
280
     0
281
     0
  0
CLASS
  1
XRECORD
  2
AcDbXrecord
  3
AutoCAD 2000
 90
    32768
280
     0
281
     0
  0
CLASS
  1
LWPOLYLINE
  2
AcDbPolyline
  3
AutoCAD 2000
 90
    32768
280
     0
281
     1
  0
CLASS
  1
HATCH
  2
AcDbHatch
  3
AutoCAD 2000
 90
    32768
280
     0
281
     1
  0
CLASS
  1
ACDBPLACEHOLDER
  2
AcDbPlaceHolder
  3
ObjectDBX Classes
 90
        0
280
     0
281
     0
  0
CLASS
  1
LAYOUT
  2
AcDbLayout
  3
ObjectDBX Classes
 90
        0
280
     0
281
     0
  0
ENDSEC
  0
SECTION
  2
TABLES
  0
TABLE
  2
VPORT
  5
8
330
0
100
AcDbSymbolTable
 70
     1
  0
VPORT
  5
29
330
8
100
AcDbSymbolTableRecord
100
AcDbViewportTableRecord
  2
*ACTIVE
 70
     0
 10
0.0
 20
0.0
 11
1.0
 21
1.0
 12
5.5
 22
4.25
 13
0.0
 23
0.0
 14
0.5
 24
0.5
 15
0.5
 25
0.5
 16
0.0
 26
0.0
 36
1.0
 17
0.0
 27
0.0
 37
0.0
 40
8.5
 41
1.2941176471
 42
50.0
 43
0.0
 44
0.0
 50
0.0
 51
0.0
 71
     0
 72
  2000
 73
     1
 74
     3
 75
     0
 76
     0
 77
     0
 78
     0
  0
ENDTAB
  0
TABLE
  2
LTYPE
  5
5
330
0
100
AcDbSymbolTable
 70
     6
  0
LTYPE
  5
14
330
5
100
AcDbSymbolTableRecord
100
AcDbLinetypeTableRecord
  2
BYBLOCK
 70
     0
  3

 72
    65
 73
     0
 40
0.0
  0
LTYPE
  5
15
330
5
100
AcDbSymbolTableRecord
100
AcDbLinetypeTableRecord
  2
BYLAYER
 70
     0
  3

 72
    65
 73
     0
 40
0.0
  0
LTYPE
  5
16
330
5
100
AcDbSymbolTableRecord
100
AcDbLinetypeTableRecord
  2
CONTINUOUS
 70
     0
  3
Solid line
 72
    65
 73
     0
 40
0.0
  0
LTYPE
  5
3B
330
5
100
AcDbSymbolTableRecord
100
AcDbLinetypeTableRecord
  2
HIDDEN
 70
     0
  3
Hidden __ __ __ __ __ __ __ __ __ __ __ __ __ __
 72
    65
 73
     2
 40
0.075
 49
0.05
 74
     0
 49
-0.025
 74
     0
  0
LTYPE
  5
3C
330
5
100
AcDbSymbolTableRecord
100
AcDbLinetypeTableRecord
  2
PHANTOM
 70
     0
  3
Phantom ______  __  __  ______  __  __  ______
 72
    65
 73
     6
 40
0.5
 49
0.25
 74
     0
 49
-0.05
 74
     0
 49
0.05
 74
     0
 49
-0.05
 74
     0
 49
0.05
 74
     0
 49
-0.05
 74
     0
  0
LTYPE
  5
3D
330
5
100
AcDbSymbolTableRecord
100
AcDbLinetypeTableRecord
  2
CENTER
 70
     0
  3
Center ____ _ ____ _ ____ _ ____ _ ____ _ ____
 72
    65
 73
     4
 40
0.4
 49
0.25
 74
     0
 49
-0.05
 74
     0
 49
0.05
 74
     0
 49
-0.05
 74
     0
  0
LTYPE
  5
3E
330
5
100
AcDbSymbolTableRecord
100
AcDbLinetypeTableRecord
  2
CENTERX2
 70
     0
  3
Center (2x) ________  __  ________  __  _____
 72
    65
 73
     4
 40
0.8
 49
0.5
 74
     0
 49
-0.1
 74
     0
 49
0.1
 74
     0
 49
-0.1
 74
     0
  0
LTYPE
  5
3F
330
5
100
AcDbSymbolTableRecord
100
AcDbLinetypeTableRecord
  2
DOT2
 70
     0
  3
Dot (.5x) ........................................
 72
    65
 73
     2
 40
0.025
 49
0.0
 74
     0
 49
-0.025
 74
     0
  0
ENDTAB
  0
TABLE
  2
LAYER
  5
2
330
0
100
AcDbSymbolTable
 70
     2
  0
LAYER
  5
10
330
2
100
AcDbSymbolTableRecord
100
AcDbLayerTableRecord
  2
0
 70
     0
 62
     7
  6
CONTINUOUS
  0
LAYER
  5
40
330
2
100
AcDbSymbolTableRecord
100
AcDbLayerTableRecord
  2
FORMAT
 70
     0
 62
     7
  6
CONTINUOUS
  0
ENDTAB
  0
TABLE
  2
STYLE
  5
3
330
0
100
AcDbSymbolTable
 70
     4
  0
STYLE
  5
11
330
3
100
AcDbSymbolTableRecord
100
AcDbTextStyleTableRecord
  2
STANDARD
 70
     0
 40
0.0
 41
1.0
 50
0.0
 71
     0
 42
0.2
  3
txt
  4

  0
STYLE
  5
6E
330
3
100
AcDbSymbolTableRecord
100
AcDbTextStyleTableRecord
  2
SLDTEXTSTYLE0
 70
     0
 40
0.0
 41
0.75
 50
0.0
 71
     0
 42
0.2
  3
TXT
  4

  0
STYLE
  5
93
330
3
100
AcDbSymbolTableRecord
100
AcDbTextStyleTableRecord
  2
SLDTEXTSTYLE1
 70
     0
 40
0.0
 41
0.6875
 50
0.0
 71
     0
 42
0.2
  3
TXT
  4

  0
STYLE
  5
99
330
3
100
AcDbSymbolTableRecord
100
AcDbTextStyleTableRecord
  2
SLDTEXTSTYLE2
 70
     0
 40
0.0
 41
0.6944444444
 50
0.0
 71
     0
 42
0.2
  3
TXT
  4

  0
ENDTAB
  0
TABLE
  2
VIEW
  5
6
330
0
100
AcDbSymbolTable
 70
     0
  0
ENDTAB
  0
TABLE
  2
UCS
  5
7
330
0
100
AcDbSymbolTable
 70
     0
  0
ENDTAB
  0
TABLE
  2
APPID
  5
9
330
0
100
AcDbSymbolTable
 70
     1
  0
APPID
  5
12
330
9
100
AcDbSymbolTableRecord
100
AcDbRegAppTableRecord
  2
ACAD
 70
     0
  0
ENDTAB
  0
TABLE
  2
DIMSTYLE
  5
A
330
0
100
AcDbSymbolTable
 70
     1
  0
DIMSTYLE
105
27
330
A
100
AcDbSymbolTableRecord
100
AcDbDimStyleTableRecord
  2
STANDARD
 70
     0
  3

  4

  5

  6

  7

 40
1.0
 41
0.18
 42
0.0625
 43
0.38
 44
0.18
 45
0.0
 46
0.0
 47
0.0
 48
0.0
140
0.18
141
0.09
142
0.0
143
25.4
144
1.0
145
0.0
146
1.0
147
0.09
 71
     0
 72
     0
 73
     1
 74
     1
 75
     0
 76
     0
 77
     0
 78
     0
170
     0
171
     2
172
     0
173
     0
174
     0
175
     0
176
     0
177
     0
178
     0
270
     2
271
     4
272
     4
273
     2
274
     2
340
11
275
     0
280
     0
281
     0
282
     0
283
     1
284
     0
285
     0
286
     0
287
     3
288
     0
  0
ENDTAB
  0
TABLE
  2
BLOCK_RECORD
  5
1
330
0
100
AcDbSymbolTable
 70
     4
  0
BLOCK_RECORD
  5
1F
330
1
100
AcDbSymbolTableRecord
100
AcDbBlockTableRecord
  2
*MODEL_SPACE
  0
BLOCK_RECORD
  5
1B
330
1
100
AcDbSymbolTableRecord
100
AcDbBlockTableRecord
  2
*PAPER_SPACE
  0
BLOCK_RECORD
  5
A8
330
1
100
AcDbSymbolTableRecord
100
AcDbBlockTableRecord
  2
SW_NOTE_0
  0
BLOCK_RECORD
  5
AE
330
1
100
AcDbSymbolTableRecord
100
AcDbBlockTableRecord
  2
SW_NOTE_1
  0
BLOCK_RECORD
  5
C2
330
1
100
AcDbSymbolTableRecord
100
AcDbBlockTableRecord
  2
SW_NOTE_2
  0
ENDTAB
  0
ENDSEC
  0
SECTION
  2
BLOCKS
  0
BLOCK
  5
20
330
1F
100
AcDbEntity
  8
0
100
AcDbBlockBegin
  2
*MODEL_SPACE
 70
     0
 10
0.0
 20
0.0
 30
0.0
  3
*MODEL_SPACE
  1

  0
ENDBLK
  5
21
330
1F
100
AcDbEntity
  8
0
100
AcDbBlockEnd
  0
BLOCK
  5
1C
330
1B
100
AcDbEntity
 67
     1
  8
0
100
AcDbBlockBegin
  2
*PAPER_SPACE
 70
     0
 10
0.0
 20
0.0
 30
0.0
  3
*PAPER_SPACE
  1

  0
ENDBLK
  5
1D
330
1B
100
AcDbEntity
 67
     1
  8
0
100
AcDbBlockEnd
  0
BLOCK
  5
A9
330
A8
100
AcDbEntity
  8
0
100
AcDbBlockBegin
  2
SW_NOTE_0
 70
     0
 10
0.0
 20
0.0
 30
0.0
  3
SW_NOTE_0
  1

  0
MTEXT
  5
AB
330
A8
100
AcDbEntity
  8
0
  6
CONTINUOUS
 62
     0
100
AcDbMText
 10
0.0
 20
0.0773440644
 30
0.0
 40
0.06
 41
0.0
 71
     1
 72
     1
  1
INTERPRET GEOMETRIC
  7
SLDTEXTSTYLE0
  0
MTEXT
  5
AC
330
A8
100
AcDbEntity
  8
0
  6
CONTINUOUS
 62
     0
100
AcDbMText
 10
0.0
 20
-0.0220260102
 30
0.0
 40
0.06
 41
0.0
 71
     1
 72
     1
  1
TOLERANCING PER:
  7
SLDTEXTSTYLE0
  0
ENDBLK
  5
AA
330
A8
100
AcDbEntity
  8
0
100
AcDbBlockEnd
  0
BLOCK
  5
AF
330
AE
100
AcDbEntity
  8
0
100
AcDbBlockBegin
  2
SW_NOTE_1
 70
     0
 10
0.0
 20
0.0
 30
0.0
  3
SW_NOTE_1
  1

  0
MTEXT
  5
B1
330
AE
100
AcDbEntity
  8
0
  6
CONTINUOUS
 62
     0
100
AcDbMText
 10
0.0
 20
0.0837894031
 30
0.0
 40
0.065
 41
0.0
 71
     1
 72
     1
  1
DIMENSIONS ARE IN INCHES
  7
SLDTEXTSTYLE0
  0
MTEXT
  5
B2
330
AE
100
AcDbEntity
  8
0
  6
CONTINUOUS
 62
     0
100
AcDbMText
 10
0.0
 20
-0.0205806729
 30
0.0
 40
0.065
 41
0.0
 71
     1
 72
     1
  1
TOLERANCES:
  7
SLDTEXTSTYLE0
  0
MTEXT
  5
B3
330
AE
100
AcDbEntity
  8
0
  6
CONTINUOUS
 62
     0
100
AcDbMText
 10
0.0
 20
-0.1249507489
 30
0.0
 40
0.065
 41
0.0
 71
     1
 72
     1
  1
FRACTIONAL
  7
SLDTEXTSTYLE0
  0
MTEXT
  5
B4
330
AE
100
AcDbEntity
  8
0
  6
CONTINUOUS
 62
     0
100
AcDbMText
 10
0.5175850875
 20
-0.1249507489
 30
0.0
 40
0.065
 41
0.0
 71
     1
 72
     1
  1
%%p
  7
SLDTEXTSTYLE0
  0
MTEXT
  5
B5
330
AE
100
AcDbEntity
  8
0
  6
CONTINUOUS
 62
     0
100
AcDbMText
 10
0.0
 20
-0.2293208248
 30
0.0
 40
0.065
 41
0.0
 71
     1
 72
     1
  1
ANGULAR: MACH
  7
SLDTEXTSTYLE0
  0
MTEXT
  5
B6
330
AE
100
AcDbEntity
  8
0
  6
CONTINUOUS
 62
     0
100
AcDbMText
 10
0.7233732769
 20
-0.2293208248
 30
0.0
 40
0.065
 41
0.0
 71
     1
 72
     1
  1
%%p
  7
SLDTEXTSTYLE0
  0
MTEXT
  5
B7
330
AE
100
AcDbEntity
  8
0
  6
CONTINUOUS
 62
     0
100
AcDbMText
 10
0.7852857683
 20
-0.2293208248
 30
0.0
 40
0.065
 41
0.0
 71
     1
 72
     1
  1
     BEND 
  7
SLDTEXTSTYLE0
  0
MTEXT
  5
B8
330
AE
100
AcDbEntity
  8
0
  6
CONTINUOUS
 62
     0
100
AcDbMText
 10
1.14784136
 20
-0.2293208248
 30
0.0
 40
0.065
 41
0.0
 71
     1
 72
     1
  1
%%p
  7
SLDTEXTSTYLE0
  0
MTEXT
  5
B9
330
AE
100
AcDbEntity
  8
0
  6
CONTINUOUS
 62
     0
100
AcDbMText
 10
0.0
 20
-0.3336909008
 30
0.0
 40
0.065
 41
0.0
 71
     1
 72
     1
  1
TWO PLACE DECIMAL    
  7
SLDTEXTSTYLE0
  0
MTEXT
  5
BA
330
AE
100
AcDbEntity
  8
0
  6
CONTINUOUS
 62
     0
100
AcDbMText
 10
0.9794349188
 20
-0.3336909008
 30
0.0
 40
0.065
 41
0.0
 71
     1
 72
     1
  1
%%p
  7
SLDTEXTSTYLE0
  0
MTEXT
  5
BB
330
AE
100
AcDbEntity
  8
0
  6
CONTINUOUS
 62
     0
100
AcDbMText
 10
0.0
 20
-0.4380609768
 30
0.0
 40
0.065
 41
0.0
 71
     1
 72
     1
  1
THREE PLACE DECIMAL  
  7
SLDTEXTSTYLE0
  0
MTEXT
  5
BC
330
AE
100
AcDbEntity
  8
0
  6
CONTINUOUS
 62
     0
100
AcDbMText
 10
0.9738038639
 20
-0.4380609768
 30
0.0
 40
0.065
 41
0.0
 71
     1
 72
     1
  1
%%p
  7
SLDTEXTSTYLE0
  0
ENDBLK
  5
B0
330
AE
100
AcDbEntity
  8
0
100
AcDbBlockEnd
  0
BLOCK
  5
C3
330
C2
100
AcDbEntity
  8
0
100
AcDbBlockBegin
  2
SW_NOTE_2
 70
     0
 10
0.0
 20
0.0
 30
0.0
  3
SW_NOTE_2
  1

  0
MTEXT
  5
C5
330
C2
100
AcDbEntity
  8
0
  6
CONTINUOUS
 62
     0
100
AcDbMText
 10
0.0
 20
0.0773440644
 30
0.0
 40
0.06
 41
0.0
 71
     1
 72
     1
  1
THE INFORMATION CONTAINED IN THIS
  7
SLDTEXTSTYLE0
  0
MTEXT
  5
C6
330
C2
100
AcDbEntity
  8
0
  6
CONTINUOUS
 62
     0
100
AcDbMText
 10
0.0
 20
-0.0220260102
 30
0.0
 40
0.06
 41
0.0
 71
     1
 72
     1
  1
DRAWING IS THE SOLE PROPERTY OF
  7
SLDTEXTSTYLE0
  0
MTEXT
  5
C7
330
C2
100
AcDbEntity
  8
0
  6
CONTINUOUS
 62
     0
100
AcDbMText
 10
0.0
 20
-0.1213960848
 30
0.0
 40
0.06
 41
0.0
 71
     1
 72
     1
  1
Candy Controls.  ANY 
  7
SLDTEXTSTYLE0
  0
MTEXT
  5
C8
330
C2
100
AcDbEntity
  8
0
  6
CONTINUOUS
 62
     0
100
AcDbMText
 10
0.0
 20
-0.2207661593
 30
0.0
 40
0.06
 41
0.0
 71
     1
 72
     1
  1
REPRODUCTION IN PART OR AS A WHOLE
  7
SLDTEXTSTYLE0
  0
MTEXT
  5
C9
330
C2
100
AcDbEntity
  8
0
  6
CONTINUOUS
 62
     0
100
AcDbMText
 10
0.0
 20
-0.3201362339
 30
0.0
 40
0.06
 41
0.0
 71
     1
 72
     1
  1
WITHOUT THE WRITTEN PERMISSION OF
  7
SLDTEXTSTYLE0
  0
MTEXT
  5
CA
330
C2
100
AcDbEntity
  8
0
  6
CONTINUOUS
 62
     0
100
AcDbMText
 10
0.0
 20
-0.4195063085
 30
0.0
 40
0.06
 41
0.0
 71
     1
 72
     1
  1
Candy Controls IS 
  7
SLDTEXTSTYLE0
  0
MTEXT
  5
CB
330
C2
100
AcDbEntity
  8
0
  6
CONTINUOUS
 62
     0
100
AcDbMText
 10
0.0
 20
-0.518876383
 30
0.0
 40
0.06
 41
0.0
 71
     1
 72
     1
  1
PROHIBITED.
  7
SLDTEXTSTYLE0
  0
ENDBLK
  5
C4
330
C2
100
AcDbEntity
  8
0
100
AcDbBlockEnd
  0
ENDSEC
  0
SECTION
  2
ENTITIES
  0
LINE
  5
41
330
1F
100
AcDbEntity
  8
0
  6
CONTINUOUS
 62
     7
100
AcDbLine
 10
0.329927
 20
8.1920731707
 30
0.0
 11
10.629927
 21
8.1920731707
 31
0.0
  0
LINE
  5
42
330
1F
100
AcDbEntity
  8
0
  6
CONTINUOUS
 62
     7
100
AcDbLine
 10
0.329927
 20
8.1920731707
 30
0.0
 11
0.329927
 21
0.3920731707
 31
0.0
  0
LINE
  5
43
330
1F
100
AcDbEntity
  8
0
  6
CONTINUOUS
 62
     7
100
AcDbLine
 10
10.629927
 20
0.3920731707
 30
0.0
 11
0.329927
 21
0.3920731707
 31
0.0
  0
LINE
  5
44
330
1F
100
AcDbEntity
  8
0
  6
CONTINUOUS
 62
     7
100
AcDbLine
 10
10.629927
 20
0.3920731707
 30
0.0
 11
10.629927
 21
8.1920731707
 31
0.0
  0
LINE
  5
45
330
1F
100
AcDbEntity
  8
0
  6
CONTINUOUS
 62
     7
100
AcDbLine
 10
4.7981841288
 20
0.3920731707
 30
0.0
 11
4.7981841288
 21
2.3564211366
 31
0.0
  0
LINE
  5
46
330
1F
100
AcDbEntity
  8
0
  6
CONTINUOUS
 62
     7
100
AcDbLine
 10
2.8210345579
 20
2.3564211366
 30
0.0
 11
10.629927
 21
2.3564211366
 31
0.0
  0
LINE
  5
47
330
1F
100
AcDbEntity
  8
0
  6
CONTINUOUS
 62
     7
100
AcDbLine
 10
6.1796352514
 20
2.3564211366
 30
0.0
 11
6.1796352514
 21
0.3920731707
 31
0.0
  0
LINE
  5
48
330
1F
100
AcDbEntity
  8
0
  6
CONTINUOUS
 62
     7
100
AcDbLine
 10
7.8712070044
 20
2.3564211366
 30
0.0
 11
7.8712070044
 21
0.3920731707
 31
0.0
  0
LINE
  5
49
330
1F
100
AcDbEntity
  8
0
  6
CONTINUOUS
 62
     7
100
AcDbLine
 10
7.8712070044
 20
0.6049590101
 30
0.0
 11
10.629927
 21
0.6049590101
 31
0.0
  0
LINE
  5
4A
330
1F
100
AcDbEntity
  8
0
  6
CONTINUOUS
 62
     7
100
AcDbLine
 10
7.8712070044
 20
1.1119362457
 30
0.0
 11
10.629927
 21
1.1119362457
 31
0.0
  0
LINE
  5
4B
330
1F
100
AcDbEntity
  8
0
  6
CONTINUOUS
 62
     7
100
AcDbLine
 10
7.8712070044
 20
1.9892703708
 30
0.0
 11
10.629927
 21
1.9892703708
 31
0.0
  0
LINE
  5
4C
330
1F
100
AcDbEntity
  8
0
  6
CONTINUOUS
 62
     7
100
AcDbLine
 10
8.266751752
 20
1.1119362457
 30
0.0
 11
8.266751752
 21
0.6049590101
 31
0.0
  0
LINE
  5
4D
330
1F
100
AcDbEntity
  8
0
  6
CONTINUOUS
 62
     7
100
AcDbLine
 10
8.6943435176
 20
0.6049590101
 30
0.0
 11
8.6943435176
 21
0.3920731707
 31
0.0
  0
LINE
  5
4E
330
1F
100
AcDbEntity
  8
0
  6
CONTINUOUS
 62
     7
100
AcDbLine
 10
10.0579917045
 20
1.1119362457
 30
0.0
 11
10.0579917045
 21
0.6049590101
 31
0.0
  0
LINE
  5
4F
330
1F
100
AcDbEntity
  8
0
  6
CONTINUOUS
 62
     7
100
AcDbLine
 10
9.6662556631
 20
0.6049590101
 30
0.0
 11
9.6662556631
 21
0.3920731707
 31
0.0
  0
LINE
  5
50
330
1F
100
AcDbEntity
  8
0
  6
CONTINUOUS
 62
     7
100
AcDbLine
 10
2.8210345579
 20
0.5883479999
 30
0.0
 11
6.1796352514
 21
0.5883479999
 31
0.0
  0
LINE
  5
51
330
1F
100
AcDbEntity
  8
0
  6
CONTINUOUS
 62
     7
100
AcDbLine
 10
6.1796352514
 20
1.7939211366
 30
0.0
 11
7.8712070044
 21
1.7939211366
 31
0.0
  0
LINE
  5
52
330
1F
100
AcDbEntity
  8
0
  6
CONTINUOUS
 62
     7
100
AcDbLine
 10
6.1796352514
 20
1.9814211366
 30
0.0
 11
7.8712070044
 21
1.9814211366
 31
0.0
  0
LINE
  5
53
330
1F
100
AcDbEntity
  8
0
  6
CONTINUOUS
 62
     7
100
AcDbLine
 10
6.1796352514
 20
2.1689211366
 30
0.0
 11
7.8712070044
 21
2.1689211366
 31
0.0
  0
LINE
  5
54
330
1F
100
AcDbEntity
  8
0
  6
CONTINUOUS
 62
     7
100
AcDbLine
 10
7.8712070044
 20
1.2314211366
 30
0.0
 11
6.1796352514
 21
1.2314211366
 31
0.0
  0
LINE
  5
55
330
1F
100
AcDbEntity
  8
0
  6
CONTINUOUS
 62
     7
100
AcDbLine
 10
7.3921580388
 20
2.3564211366
 30
0.0
 11
7.3921580388
 21
1.2314211366
 31
0.0
  0
LINE
  5
56
330
1F
100
AcDbEntity
  8
0
  6
CONTINUOUS
 62
     7
100
AcDbLine
 10
6.9236308342
 20
2.3564211366
 30
0.0
 11
6.9236308342
 21
1.2314211366
 31
0.0
  0
LINE
  5
57
330
1F
100
AcDbEntity
  8
0
  6
CONTINUOUS
 62
     7
100
AcDbLine
 10
4.7981841288
 20
0.8557965305
 30
0.0
 11
6.1796352514
 21
0.8557965305
 31
0.0
  0
LINE
  5
58
330
1F
100
AcDbEntity
  8
0
  6
CONTINUOUS
 62
     7
100
AcDbLine
 10
4.7981841288
 20
1.1257965305
 30
0.0
 11
6.1796352514
 21
1.1257965305
 31
0.0
  0
LINE
  5
59
330
1F
100
AcDbEntity
  8
0
  6
CONTINUOUS
 62
     7
100
AcDbLine
 10
2.8210345579
 20
0.3920731707
 30
0.0
 11
2.8210345579
 21
2.3564211366
 31
0.0
  0
LINE
  5
5A
330
1F
100
AcDbEntity
  8
0
  6
CONTINUOUS
 62
     7
100
AcDbLine
 10
2.8210345579
 20
1.1064211366
 30
0.0
 11
4.7981841288
 21
1.1064211366
 31
0.0
  0
LINE
  5
5B
330
1F
100
AcDbEntity
  8
0
  6
CONTINUOUS
 62
     7
100
AcDbLine
 10
2.8210345579
 20
1.3564211366
 30
0.0
 11
4.7981841288
 21
1.3564211366
 31
0.0
  0
LINE
  5
5C
330
1F
100
AcDbEntity
  8
0
  6
CONTINUOUS
 62
     7
100
AcDbLine
 10
2.8210345579
 20
1.6064211366
 30
0.0
 11
4.7981841288
 21
1.6064211366
 31
0.0
  0
LINE
  5
5D
330
1F
100
AcDbEntity
  8
0
  6
CONTINUOUS
 62
     7
100
AcDbLine
 10
2.8210345579
 20
1.8564211366
 30
0.0
 11
4.7981841288
 21
1.8564211366
 31
0.0
  0
LINE
  5
5E
330
1F
100
AcDbEntity
  8
0
  6
CONTINUOUS
 62
     7
100
AcDbLine
 10
3.8190146875
 20
2.3564211366
 30
0.0
 11
3.8190146875
 21
0.5883479999
 31
0.0
  0
LINE
  5
5F
330
1F
100
AcDbEntity
  8
0
  6
CONTINUOUS
 62
     7
100
AcDbLine
 10
6.1796352514
 20
2.2020813496
 30
0.0
 11
4.7981841288
 21
2.2020813496
 31
0.0
  0
LINE
  5
60
330
1F
100
AcDbEntity
  8
0
  6
CONTINUOUS
 62
     7
100
AcDbLine
 10
7.8712070044
 20
1.6064211366
 30
0.0
 11
6.1796352514
 21
1.6064211366
 31
0.0
  0
LINE
  5
61
330
1F
100
AcDbEntity
  8
0
  6
CONTINUOUS
 62
     7
100
AcDbLine
 10
7.8712070044
 20
1.4189211366
 30
0.0
 11
6.1796352514
 21
1.4189211366
 31
0.0
  0
LINE
  5
62
330
1F
100
AcDbEntity
  8
0
  6
CONTINUOUS
 62
     7
100
AcDbLine
 10
2.8210345579
 20
2.1064211366
 30
0.0
 11
4.7981841288
 21
2.1064211366
 31
0.0
  0
LINE
  5
63
330
1F
100
AcDbEntity
  8
0
  6
CONTINUOUS
 62
     7
100
AcDbLine
 10
4.7981841288
 20
1.3957965305
 30
0.0
 11
6.1796352514
 21
1.3957965305
 31
0.0
  0
LINE
  5
64
330
1F
100
AcDbEntity
  8
0
  6
CONTINUOUS
 62
     7
100
AcDbLine
 10
2.8210345579
 20
0.8564211366
 30
0.0
 11
4.7981841288
 21
0.8564211366
 31
0.0
  0
LINE
  5
65
330
1F
100
AcDbEntity
  8
0
  6
CONTINUOUS
 62
     7
100
AcDbLine
 10
1.1838252943
 20
0.3920731707
 30
0.0
 11
1.1838252943
 21
1.3064211366
 31
0.0
  0
LINE
  5
66
330
1F
100
AcDbEntity
  8
0
  6
CONTINUOUS
 62
     7
100
AcDbLine
 10
2.8210345579
 20
1.3064211366
 30
0.0
 11
1.1838252943
 21
1.3064211366
 31
0.0
  0
LINE
  5
67
330
1F
100
AcDbEntity
  8
0
  6
CONTINUOUS
 62
     7
100
AcDbLine
 10
8.660927
 20
0.3920731707
 30
0.0
 11
8.660927
 21
0.3072739649
 31
0.0
  0
LINE
  5
68
330
1F
100
AcDbEntity
  8
0
  6
CONTINUOUS
 62
     7
100
AcDbLine
 10
6.692177
 20
0.3920731707
 30
0.0
 11
6.692177
 21
0.3072739649
 31
0.0
  0
LINE
  5
69
330
1F
100
AcDbEntity
  8
0
  6
CONTINUOUS
 62
     7
100
AcDbLine
 10
4.723427
 20
0.3920731707
 30
0.0
 11
4.723427
 21
0.3072739649
 31
0.0
  0
LINE
  5
6A
330
1F
100
AcDbEntity
  8
0
  6
CONTINUOUS
 62
     7
100
AcDbLine
 10
2.754677
 20
0.3920731707
 30
0.0
 11
2.754677
 21
0.3072739649
 31
0.0
  0
LINE
  5
6B
330
1F
100
AcDbEntity
  8
0
  6
CONTINUOUS
 62
     7
100
AcDbLine
 10
2.754677
 20
0.3920731707
 30
0.0
 11
2.7672319738
 21
0.3575
 31
0.0
  0
LINE
  5
6C
330
1F
100
AcDbEntity
  8
0
  6
CONTINUOUS
 62
     7
100
AcDbLine
 10
2.7672319738
 20
0.3575
 30
0.0
 11
2.7414258825
 21
0.3575
 31
0.0
  0
LINE
  5
6D
330
1F
100
AcDbEntity
  8
0
  6
CONTINUOUS
 62
     7
100
AcDbLine
 10
2.7414258825
 20
0.3575
 30
0.0
 11
2.754677
 21
0.3920731707
 31
0.0
  0
MTEXT
  5
91
330
1F
100
AcDbEntity
  8
0
  6
CONTINUOUS
 62
     7
100
AcDbMText
 10
4.9775846961
 20
0.5178452352
 30
0.0
 40
0.0625
 41
0.0
 71
     1
 72
     1
  1
DO NOT SCALE DRAWING
  7
SLDTEXTSTYLE0
  0
MTEXT
  5
92
330
1F
100
AcDbEntity
  8
0
  6
CONTINUOUS
 62
     7
100
AcDbMText
 10
8.863176776
 20
0.9417064595
 30
0.0
 40
0.125
 41
0.0
 71
     1
 72
     1
  1
CL2-112
  7
SLDTEXTSTYLE0
  0
MTEXT
  5
94
330
1F
100
AcDbEntity
  8
0
  6
CONTINUOUS
 62
     7
100
AcDbMText
 10
9.7571278483
 20
0.5524239532
 30
0.0
 40
0.1
 41
0.0
 71
     1
 72
     1
  1
SHEET 1 OF 1
  7
SLDTEXTSTYLE1
  0
MTEXT
  5
95
330
1F
100
AcDbEntity
  8
0
  6
CONTINUOUS
 62
     7
100
AcDbMText
 10
4.8448077858
 20
2.3132954224
 30
0.0
 40
0.07
 41
0.0
 71
     1
 72
     1
  1
UNLESS OTHERWISE SPECIFIED:
  7
SLDTEXTSTYLE0
  0
MTEXT
  5
96
330
1F
100
AcDbEntity
  8
0
  6
CONTINUOUS
 62
     7
100
AcDbMText
 10
7.9586139647
 20
0.5520987879
 30
0.0
 40
0.1
 41
0.0
 71
     1
 72
     1
  1
SCALE: 1:1
  7
SLDTEXTSTYLE0
  0
MTEXT
  5
97
330
1F
100
AcDbEntity
  8
0
  6
CONTINUOUS
 62
     7
100
AcDbMText
 10
8.7023691647
 20
0.5486763345
 30
0.0
 40
0.1
 41
0.0
 71
     1
 72
     1
  1
WEIGHT: 
  7
SLDTEXTSTYLE0
  0
MTEXT
  5
98
330
1F
100
AcDbEntity
  8
0
  6
CONTINUOUS
 62
     7
100
AcDbMText
 10
10.2277580983
 20
1.081966299
 30
0.0
 40
0.1
 41
0.0
 71
     1
 72
     1
  1
REV
  7
SLDTEXTSTYLE0
  0
MTEXT
  5
9A
330
1F
100
AcDbEntity
  8
0
  6
CONTINUOUS
 62
     7
100
AcDbMText
 10
8.2984570898
 20
1.0858725293
 30
0.0
 40
0.1
 41
0.0
 71
     1
 72
     1
  1
DWG.  NO.
  7
SLDTEXTSTYLE2
  0
MTEXT
  5
9B
330
1F
100
AcDbEntity
  8
0
  6
CONTINUOUS
 62
     7
100
AcDbMText
 10
7.9598482632
 20
0.9442140768
 30
0.0
 40
0.25
 41
0.0
 71
     1
 72
     1
  1
A
  7
SLDTEXTSTYLE0
  0
MTEXT
  5
9C
330
1F
100
AcDbEntity
  8
0
  6
CONTINUOUS
 62
     7
100
AcDbMText
 10
7.9519581822
 20
1.0872713483
 30
0.0
 40
0.1
 41
0.0
 71
     1
 72
     1
  1
SIZE
  7
SLDTEXTSTYLE0
  0
MTEXT
  5
9D
330
1F
100
AcDbEntity
  8
0
  6
CONTINUOUS
 62
     7
100
AcDbMText
 10
7.9170704177
 20
1.9547881128
 30
0.0
 40
0.1
 41
0.0
 71
     1
 72
     1
  1
TITLE:
  7
SLDTEXTSTYLE0
  0
MTEXT
  5
9E
330
1F
100
AcDbEntity
  8
0
  6
CONTINUOUS
 62
     7
100
AcDbMText
 10
7.0363774929
 20
2.2906161274
 30
0.0
 40
0.065
 41
0.0
 71
     1
 72
     1
  1
NAME
  7
SLDTEXTSTYLE0
  0
MTEXT
  5
9F
330
1F
100
AcDbEntity
  8
0
  6
CONTINUOUS
 62
     7
100
AcDbMText
 10
7.5281510634
 20
2.2888799118
 30
0.0
 40
0.065
 41
0.0
 71
     1
 72
     1
  1
DATE
  7
SLDTEXTSTYLE0
  0
MTEXT
  5
A0
330
1F
100
AcDbEntity
  8
0
  6
CONTINUOUS
 62
     7
100
AcDbMText
 10
6.2277147029
 20
1.1876913145
 30
0.0
 40
0.065
 41
0.0
 71
     1
 72
     1
  1
COMMENTS:
  7
SLDTEXTSTYLE0
  0
MTEXT
  5
A1
330
1F
100
AcDbEntity
  8
0
  6
CONTINUOUS
 62
     7
100
AcDbMText
 10
6.2268411461
 20
1.3536101679
 30
0.0
 40
0.065
 41
0.0
 71
     1
 72
     1
  1
Q.A.
  7
SLDTEXTSTYLE0
  0
MTEXT
  5
A2
330
1F
100
AcDbEntity
  8
0
  6
CONTINUOUS
 62
     7
100
AcDbMText
 10
6.2284654509
 20
1.5395328424
 30
0.0
 40
0.065
 41
0.0
 71
     1
 72
     1
  1
MFG APPR.
  7
SLDTEXTSTYLE0
  0
MTEXT
  5
A3
330
1F
100
AcDbEntity
  8
0
  6
CONTINUOUS
 62
     7
100
AcDbMText
 10
6.2235171344
 20
1.7267501785
 30
0.0
 40
0.065
 41
0.0
 71
     1
 72
     1
  1
ENG APPR.
  7
SLDTEXTSTYLE0
  0
MTEXT
  5
A4
330
1F
100
AcDbEntity
  8
0
  6
CONTINUOUS
 62
     7
100
AcDbMText
 10
6.2264103951
 20
1.9092699088
 30
0.0
 40
0.065
 41
0.0
 71
     1
 72
     1
  1
CHECKED
  7
SLDTEXTSTYLE0
  0
MTEXT
  5
A5
330
1F
100
AcDbEntity
  8
0
  6
CONTINUOUS
 62
     7
100
AcDbMText
 10
6.2242794356
 20
2.1016301232
 30
0.0
 40
0.065
 41
0.0
 71
     1
 72
     1
  1
DRAWN
  7
SLDTEXTSTYLE0
  0
MTEXT
  5
A6
330
1F
100
AcDbEntity
  8
0
  6
CONTINUOUS
 62
     7
100
AcDbMText
 10
4.8208600979
 20
0.834523235
 30
0.0
 40
0.06
 41
0.0
 71
     1
 72
     1
  1
FINISH
  7
SLDTEXTSTYLE0
  0
MTEXT
  5
A7
330
1F
100
AcDbEntity
  8
0
  6
CONTINUOUS
 62
     7
100
AcDbMText
 10
4.8181240648
 20
1.1028217587
 30
0.0
 40
0.06
 41
0.0
 71
     1
 72
     1
  1
MATERIAL
  7
SLDTEXTSTYLE0
  0
INSERT
  5
AD
330
1F
100
AcDbEntity
  8
0
  6
CONTINUOUS
 62
     7
100
AcDbBlockReference
  2
SW_NOTE_0
 10
4.8231926633
 20
1.2646542947
 30
0.0
  0
INSERT
  5
BD
330
1F
100
AcDbEntity
  8
0
  6
CONTINUOUS
 62
     7
100
AcDbBlockReference
  2
SW_NOTE_1
 10
4.8353339353
 20
2.0049168724
 30
0.0
  0
MTEXT
  5
BE
330
1F
100
AcDbEntity
  8
0
  6
CONTINUOUS
 62
     7
100
AcDbMText
 10
3.5531400086
 20
0.5200091997
 30
0.0
 40
0.0625
 41
0.0
 71
     1
 72
     1
  1
APPLICATION
  7
SLDTEXTSTYLE0
  0
MTEXT
  5
BF
330
1F
100
AcDbEntity
  8
0
  6
CONTINUOUS
 62
     7
100
AcDbMText
 10
4.1005607758
 20
0.7502454275
 30
0.0
 40
0.0625
 41
0.0
 71
     1
 72
     1
  1
USED ON
  7
SLDTEXTSTYLE0
  0
MTEXT
  5
C0
330
1F
100
AcDbEntity
  8
0
  6
CONTINUOUS
 62
     7
100
AcDbMText
 10
3.1040019536
 20
0.7492094783
 30
0.0
 40
0.0625
 41
0.0
 71
     1
 72
     1
  1
NEXT ASSY
  7
SLDTEXTSTYLE0
  0
MTEXT
  5
C1
330
1F
100
AcDbEntity
  8
0
  6
CONTINUOUS
 62
     7
100
AcDbMText
 10
1.3712489489
 20
1.2496672684
 30
0.0
 40
0.06
 41
0.0
 71
     1
 72
     1
  1
PROPRIETARY AND CONFIDENTIAL
  7
SLDTEXTSTYLE0
  0
INSERT
  5
CC
330
1F
100
AcDbEntity
  8
0
  6
CONTINUOUS
 62
     7
100
AcDbBlockReference
  2
SW_NOTE_2
 10
1.2226209074
 20
1.0313492921
 30
0.0
  0
MTEXT
  5
CD
330
1F
100
AcDbEntity
  8
0
  6
CONTINUOUS
 62
     7
100
AcDbMText
 10
1.7387909509
 20
0.3105864247
 30
0.0
 40
0.09375
 41
0.0
 71
     1
 72
     1
  1
5
  7
SLDTEXTSTYLE0
  0
MTEXT
  5
CE
330
1F
100
AcDbEntity
  8
0
  6
CONTINUOUS
 62
     7
100
AcDbMText
 10
3.723800327
 20
0.3137237518
 30
0.0
 40
0.09375
 41
0.0
 71
     1
 72
     1
  1
4
  7
SLDTEXTSTYLE0
  0
MTEXT
  5
CF
330
1F
100
AcDbEntity
  8
0
  6
CONTINUOUS
 62
     7
100
AcDbMText
 10
5.6324457277
 20
0.3116191842
 30
0.0
 40
0.09375
 41
0.0
 71
     1
 72
     1
  1
3
  7
SLDTEXTSTYLE0
  0
MTEXT
  5
D0
330
1F
100
AcDbEntity
  8
0
  6
CONTINUOUS
 62
     7
100
AcDbMText
 10
7.6059721724
 20
0.3124391351
 30
0.0
 40
0.09375
 41
0.0
 71
     1
 72
     1
  1
2
  7
SLDTEXTSTYLE0
  0
MTEXT
  5
D1
330
1F
100
AcDbEntity
  8
0
  6
CONTINUOUS
 62
     7
100
AcDbMText
 10
9.6619921328
 20
0.301372012
 30
0.0
 40
0.09375
 41
0.0
 71
     1
 72
     1
  1
1
  7
SLDTEXTSTYLE0
  0
LINE
  5
D2
330
1F
100
AcDbEntity
  8
0
  6
CONTINUOUS
 62
     7
100
AcDbLine
 10
2.7786439774
 20
3.1937176565
 30
0.0
 11
3.8746282294
 21
3.1937176565
 31
0.0
  0
LINE
  5
D3
330
1F
100
AcDbEntity
  8
0
  6
CONTINUOUS
 62
     7
100
AcDbLine
 10
2.8119996889
 20
4.3197019084
 30
0.0
 11
2.7786439774
 21
4.3197019084
 31
0.0
  0
LINE
  5
D4
330
1F
100
AcDbEntity
  8
0
  6
CONTINUOUS
 62
     7
100
AcDbLine
 10
3.654519374
 20
4.3197019084
 30
0.0
 11
2.9987424011
 21
4.3197019084
 31
0.0
  0
LINE
  5
D5
330
1F
100
AcDbEntity
  8
0
  6
CONTINUOUS
 62
     7
100
AcDbLine
 10
3.8746282294
 20
4.3197019084
 30
0.0
 11
3.8412620861
 21
4.3197019084
 31
0.0
  0
LINE
  5
D6
330
1F
100
AcDbEntity
  8
0
  6
CONTINUOUS
 62
     7
100
AcDbLine
 10
3.8746282294
 20
3.1937176565
 30
0.0
 11
3.8896282294
 21
3.2087176565
 31
0.0
  0
LINE
  5
D7
330
1F
100
AcDbEntity
  8
0
  6
CONTINUOUS
 62
     7
100
AcDbLine
 10
3.8896282294
 20
4.3047019084
 30
0.0
 11
3.8746282294
 21
4.3197019084
 31
0.0
  0
LINE
  5
D8
330
1F
100
AcDbEntity
  8
0
  6
CONTINUOUS
 62
     7
100
AcDbLine
 10
2.7786439774
 20
4.3197019084
 30
0.0
 11
2.7636439774
 21
4.3047019084
 31
0.0
  0
LINE
  5
D9
330
1F
100
AcDbEntity
  8
0
  6
CONTINUOUS
 62
     7
100
AcDbLine
 10
2.7636439774
 20
3.2087176565
 30
0.0
 11
2.7786439774
 21
3.1937176565
 31
0.0
  0
LINE
  5
DA
330
1F
100
AcDbEntity
  8
0
  6
CONTINUOUS
 62
     7
100
AcDbLine
 10
2.9808547968
 20
4.3169005378
 30
0.0
 11
2.9780534262
 21
4.3197019084
 31
0.0
  0
LINE
  5
DB
330
1F
100
AcDbEntity
  8
0
  6
CONTINUOUS
 62
     7
100
AcDbLine
 10
2.8326990955
 20
4.3197019084
 30
0.0
 11
2.8298985666
 21
4.3169013795
 31
0.0
  0
LINE
  5
DC
330
1F
100
AcDbEntity
  8
0
  6
CONTINUOUS
 62
     7
100
AcDbLine
 10
3.8233744819
 20
4.3169005378
 30
0.0
 11
3.8205731113
 21
4.3197019084
 31
0.0
  0
LINE
  5
DD
330
1F
100
AcDbEntity
  8
0
  6
CONTINUOUS
 62
     7
100
AcDbLine
 10
3.6752187805
 20
4.3197019084
 30
0.0
 11
3.6724182517
 21
4.3169013795
 31
0.0
  0
LINE
  5
DE
330
1F
100
AcDbEntity
  8
0
  6
CONTINUOUS
 62
     7
100
AcDbLine
 10
3.8746282294
 20
3.1937176565
 30
0.0
 11
3.8746282294
 21
4.3197019084
 31
0.0
  0
LINE
  5
DF
330
1F
100
AcDbEntity
  8
0
  6
CONTINUOUS
 62
     7
100
AcDbLine
 10
2.7786439774
 20
4.3197019084
 30
0.0
 11
2.7786439774
 21
3.1937176565
 31
0.0
  0
POLYLINE
  5
E0
330
1F
100
AcDbEntity
  8
0
  6
CONTINUOUS
 62
     7
100
AcDb2dPolyline
 66
     1
 10
0.0
 20
0.0
 30
0.0
  0
VERTEX
  5
200
330
E0
100
AcDbEntity
  8
0
  6
CONTINUOUS
 62
     7
100
AcDbVertex
100
AcDb2dVertex
 10
2.9987424011
 20
4.319700154
 30
0.0
  0
VERTEX
  5
201
330
E0
100
AcDbEntity
  8
0
  6
CONTINUOUS
 62
     7
100
AcDbVertex
100
AcDb2dVertex
 10
2.9987527745
 20
4.3197018983
 30
0.0
  0
VERTEX
  5
202
330
E0
100
AcDbEntity
  8
0
  6
CONTINUOUS
 62
     7
100
AcDbVertex
100
AcDb2dVertex
 10
2.9969506043
 20
4.3193928447
 30
0.0
  0
VERTEX
  5
203
330
E0
100
AcDbEntity
  8
0
  6
CONTINUOUS
 62
     7
100
AcDbVertex
100
AcDb2dVertex
 10
2.9915400981
 20
4.3185054845
 30
0.0
  0
VERTEX
  5
204
330
E0
100
AcDbEntity
  8
0
  6
CONTINUOUS
 62
     7
100
AcDbVertex
100
AcDb2dVertex
 10
2.9829071507
 20
4.3171766868
 30
0.0
  0
VERTEX
  5
205
330
E0
100
AcDbEntity
  8
0
  6
CONTINUOUS
 62
     7
100
AcDbVertex
100
AcDb2dVertex
 10
2.97136594
 20
4.3156237903
 30
0.0
  0
VERTEX
  5
206
330
E0
100
AcDbEntity
  8
0
  6
CONTINUOUS
 62
     7
100
AcDbVertex
100
AcDb2dVertex
 10
2.9572986676
 20
4.3140717549
 30
0.0
  0
VERTEX
  5
207
330
E0
100
AcDbEntity
  8
0
  6
CONTINUOUS
 62
     7
100
AcDbVertex
100
AcDb2dVertex
 10
2.9410649902
 20
4.3127434615
 30
0.0
  0
VERTEX
  5
208
330
E0
100
AcDbEntity
  8
0
  6
CONTINUOUS
 62
     7
100
AcDbVertex
100
AcDb2dVertex
 10
2.9234435007
 20
4.3118388519
 30
0.0
  0
VERTEX
  5
209
330
E0
100
AcDbEntity
  8
0
  6
CONTINUOUS
 62
     7
100
AcDbVertex
100
AcDb2dVertex
 10
2.9053176532
 20
4.3115250607
 30
0.0
  0
VERTEX
  5
20A
330
E0
100
AcDbEntity
  8
0
  6
CONTINUOUS
 62
     7
100
AcDbVertex
100
AcDb2dVertex
 10
2.8872221893
 20
4.3118405
 30
0.0
  0
VERTEX
  5
20B
330
E0
100
AcDbEntity
  8
0
  6
CONTINUOUS
 62
     7
100
AcDbVertex
100
AcDb2dVertex
 10
2.8695761293
 20
4.3127500007
 30
0.0
  0
VERTEX
  5
20C
330
E0
100
AcDbEntity
  8
0
  6
CONTINUOUS
 62
     7
100
AcDbVertex
100
AcDb2dVertex
 10
2.8533693138
 20
4.3140794096
 30
0.0
  0
VERTEX
  5
20D
330
E0
100
AcDbEntity
  8
0
  6
CONTINUOUS
 62
     7
100
AcDbVertex
100
AcDb2dVertex
 10
2.8393040365
 20
4.315634013
 30
0.0
  0
VERTEX
  5
20E
330
E0
100
AcDbEntity
  8
0
  6
CONTINUOUS
 62
     7
100
AcDbVertex
100
AcDb2dVertex
 10
2.8277970186
 20
4.3171845586
 30
0.0
  0
VERTEX
  5
20F
330
E0
100
AcDbEntity
  8
0
  6
CONTINUOUS
 62
     7
100
AcDbVertex
100
AcDb2dVertex
 10
2.8191748405
 20
4.3185128889
 30
0.0
  0
VERTEX
  5
210
330
E0
100
AcDbEntity
  8
0
  6
CONTINUOUS
 62
     7
100
AcDbVertex
100
AcDb2dVertex
 10
2.8137828745
 20
4.3193965354
 30
0.0
  0
VERTEX
  5
211
330
E0
100
AcDbEntity
  8
0
  6
CONTINUOUS
 62
     7
100
AcDbVertex
100
AcDb2dVertex
 10
2.8119996889
 20
4.3197019084
 30
0.0
  0
VERTEX
  5
212
330
E0
100
AcDbEntity
  8
0
  6
CONTINUOUS
 62
     7
100
AcDbVertex
100
AcDb2dVertex
 10
2.8119996889
 20
4.3197019084
 30
0.0
  0
SEQEND
  5
213
330
E0
100
AcDbEntity
  8
0
  6
CONTINUOUS
 62
     7
  0
POLYLINE
  5
E1
330
1F
100
AcDbEntity
  8
0
  6
CONTINUOUS
 62
     7
100
AcDb2dPolyline
 66
     1
 10
0.0
 20
0.0
 30
0.0
  0
VERTEX
  5
214
330
E1
100
AcDbEntity
  8
0
  6
CONTINUOUS
 62
     7
100
AcDbVertex
100
AcDb2dVertex
 10
3.8412620861
 20
4.319700154
 30
0.0
  0
VERTEX
  5
215
330
E1
100
AcDbEntity
  8
0
  6
CONTINUOUS
 62
     7
100
AcDbVertex
100
AcDb2dVertex
 10
3.8412724595
 20
4.3197018983
 30
0.0
  0
VERTEX
  5
216
330
E1
100
AcDbEntity
  8
0
  6
CONTINUOUS
 62
     7
100
AcDbVertex
100
AcDb2dVertex
 10
3.8394702894
 20
4.3193928447
 30
0.0
  0
VERTEX
  5
217
330
E1
100
AcDbEntity
  8
0
  6
CONTINUOUS
 62
     7
100
AcDbVertex
100
AcDb2dVertex
 10
3.8340597831
 20
4.3185054845
 30
0.0
  0
VERTEX
  5
218
330
E1
100
AcDbEntity
  8
0
  6
CONTINUOUS
 62
     7
100
AcDbVertex
100
AcDb2dVertex
 10
3.8254268357
 20
4.3171766868
 30
0.0
  0
VERTEX
  5
219
330
E1
100
AcDbEntity
  8
0
  6
CONTINUOUS
 62
     7
100
AcDbVertex
100
AcDb2dVertex
 10
3.813885625
 20
4.3156237903
 30
0.0
  0
VERTEX
  5
21A
330
E1
100
AcDbEntity
  8
0
  6
CONTINUOUS
 62
     7
100
AcDbVertex
100
AcDb2dVertex
 10
3.7998183526
 20
4.3140717549
 30
0.0
  0
VERTEX
  5
21B
330
E1
100
AcDbEntity
  8
0
  6
CONTINUOUS
 62
     7
100
AcDbVertex
100
AcDb2dVertex
 10
3.7835846752
 20
4.3127434615
 30
0.0
  0
VERTEX
  5
21C
330
E1
100
AcDbEntity
  8
0
  6
CONTINUOUS
 62
     7
100
AcDbVertex
100
AcDb2dVertex
 10
3.7659631857
 20
4.3118388519
 30
0.0
  0
VERTEX
  5
21D
330
E1
100
AcDbEntity
  8
0
  6
CONTINUOUS
 62
     7
100
AcDbVertex
100
AcDb2dVertex
 10
3.7478373382
 20
4.3115250607
 30
0.0
  0
VERTEX
  5
21E
330
E1
100
AcDbEntity
  8
0
  6
CONTINUOUS
 62
     7
100
AcDbVertex
100
AcDb2dVertex
 10
3.7297418743
 20
4.3118405
 30
0.0
  0
VERTEX
  5
21F
330
E1
100
AcDbEntity
  8
0
  6
CONTINUOUS
 62
     7
100
AcDbVertex
100
AcDb2dVertex
 10
3.7120958143
 20
4.3127500007
 30
0.0
  0
VERTEX
  5
220
330
E1
100
AcDbEntity
  8
0
  6
CONTINUOUS
 62
     7
100
AcDbVertex
100
AcDb2dVertex
 10
3.6958889989
 20
4.3140794096
 30
0.0
  0
VERTEX
  5
221
330
E1
100
AcDbEntity
  8
0
  6
CONTINUOUS
 62
     7
100
AcDbVertex
100
AcDb2dVertex
 10
3.6818237215
 20
4.315634013
 30
0.0
  0
VERTEX
  5
222
330
E1
100
AcDbEntity
  8
0
  6
CONTINUOUS
 62
     7
100
AcDbVertex
100
AcDb2dVertex
 10
3.6703167036
 20
4.3171845586
 30
0.0
  0
VERTEX
  5
223
330
E1
100
AcDbEntity
  8
0
  6
CONTINUOUS
 62
     7
100
AcDbVertex
100
AcDb2dVertex
 10
3.6616945256
 20
4.3185128889
 30
0.0
  0
VERTEX
  5
224
330
E1
100
AcDbEntity
  8
0
  6
CONTINUOUS
 62
     7
100
AcDbVertex
100
AcDb2dVertex
 10
3.6563025596
 20
4.3193965354
 30
0.0
  0
VERTEX
  5
225
330
E1
100
AcDbEntity
  8
0
  6
CONTINUOUS
 62
     7
100
AcDbVertex
100
AcDb2dVertex
 10
3.654519374
 20
4.3197019084
 30
0.0
  0
VERTEX
  5
226
330
E1
100
AcDbEntity
  8
0
  6
CONTINUOUS
 62
     7
100
AcDbVertex
100
AcDb2dVertex
 10
3.654519374
 20
4.3197019084
 30
0.0
  0
SEQEND
  5
227
330
E1
100
AcDbEntity
  8
0
  6
CONTINUOUS
 62
     7
  0
LINE
  5
E2
330
1F
100
AcDbEntity
  8
0
  6
CONTINUOUS
 62
     7
100
AcDbLine
 10
3.8896282294
 20
4.3047019084
 30
0.0
 11
3.8896282294
 21
3.2087176565
 31
0.0
  0
LINE
  5
E3
330
1F
100
AcDbEntity
  8
0
  6
CONTINUOUS
 62
     7
100
AcDbLine
 10
2.7636439774
 20
3.2087176565
 30
0.0
 11
2.7636439774
 21
4.3047019084
 31
0.0
  0
LINE
  5
E4
330
1F
100
AcDbEntity
  8
0
  6
CONTINUOUS
 62
     7
100
AcDbLine
 10
2.9780534262
 20
4.3197019084
 30
0.0
 11
2.8326990955
 21
4.3197019084
 31
0.0
  0
LINE
  5
E5
330
1F
100
AcDbEntity
  8
0
  6
CONTINUOUS
 62
     7
100
AcDbLine
 10
3.6752187805
 20
4.3197019084
 30
0.0
 11
3.8205731113
 21
4.3197019084
 31
0.0
  0
LINE
  5
E6
330
1F
100
AcDbEntity
  8
0
  6
HIDDEN
 62
     7
100
AcDbLine
 10
3.2766361034
 20
3.8898200187
 30
0.0
 11
3.2766361034
 21
3.6235995462
 31
0.0
  0
LINE
  5
E7
330
1F
100
AcDbEntity
  8
0
  6
HIDDEN
 62
     7
100
AcDbLine
 10
3.3766361034
 20
3.8898200187
 30
0.0
 11
3.3766361034
 21
3.6235995462
 31
0.0
  0
SPLINE
  5
E8
330
1F
100
AcDbEntity
  8
0
  6
HIDDEN
 62
     7
100
AcDbSpline
210
0.0
220
0.0
230
1.0
 70
     8
 71
     3
 72
    29
 73
    25
 74
     0
 42
0.00000001
 43
0.00000001
 40
0.0
 40
0.0
 40
0.0
 40
0.0
 40
0.0283860432686249
 40
0.0728061275198824
 40
0.1150785717819935
 40
0.158352824513794
 40
0.2054606941073949
 40
0.2535620329667769
 40
0.3089710859946679
 40
0.3658205280533038
 40
0.4083737109502583
 40
0.4519861959526482
 40
0.4946185928911201
 40
0.538927001653548
 40
0.5759474893867655
 40
0.6138104338661691
 40
0.668198706030948
 40
0.7241363118013152
 40
0.7796029570322056
 40
0.8365708886902198
 40
0.8830516931452298
 40
0.9307962184456626
 40
0.9773275117078369
 40
0.9999999999999999
 40
0.9999999999999999
 40
0.9999999999999999
 40
0.9999999999999999
 10
2.822883356056806
 20
3.874691142583122
 30
0.0
 10
2.822879705623979
 20
3.874693624898989
 30
0.0
 10
2.822870342787624
 20
3.874699991682971
 30
0.0
 10
2.8247489047612
 20
3.873388715474735
 30
0.0
 10
2.828159970856847
 20
3.871051159285256
 30
0.0
 10
2.833098182768605
 20
3.867761715391299
 30
0.0
 10
2.839585864868489
 20
3.863629671140971
 30
0.0
 10
2.847997085647604
 20
3.858629250690365
 30
0.0
 10
2.858350982215564
 20
3.853105188501306
 30
0.0
 10
2.869706409570723
 20
3.848078081309304
 30
0.0
 10
2.881227368613104
 20
3.844241860654664
 30
0.0
 10
2.892326018696362
 20
3.841810354782566
 30
0.0
 10
2.904055847323918
 20
3.840789837831208
 30
0.0
 10
2.915255376954786
 20
3.841404471780347
 30
0.0
 10
2.925667947385141
 20
3.843296657442841
 30
0.0
 10
2.936397388329522
 20
3.846371658900676
 30
0.0
 10
2.947749052727447
 20
3.850900634852485
 30
0.0
 10
2.959046956072951
 20
3.856552288785428
 30
0.0
 10
2.969003151522535
 20
3.862281279149295
 30
0.0
 10
2.97677619705245
 20
3.867181755722654
 30
0.0
 10
2.982537430837813
 20
3.871010772344694
 30
0.0
 10
2.986175276991637
 20
3.87350705036854
 30
0.0
 10
2.988018778858443
 20
3.874795685558931
 30
0.0
 10
2.987852583144544
 20
3.874679516422751
 30
0.0
 10
2.987798134235931
 20
3.874641457182045
 30
0.0
  0
SPLINE
  5
E9
330
1F
100
AcDbEntity
  8
0
  6
HIDDEN
 62
     7
100
AcDbSpline
210
0.0
220
0.0
230
1.0
 70
     8
 71
     3
 72
    62
 73
    58
 74
     0
 42
0.00000001
 43
0.00000001
 40
-0.0312499999999997
 40
-0.0312499999999997
 40
0.0
 40
0.0
 40
0.0312500000000002
 40
0.0312500000000002
 40
0.0625000000000003
 40
0.0625000000000003
 40
0.1250000000000007
 40
0.1250000000000007
 40
0.1562500000000007
 40
0.1562500000000007
 40
0.1875000000000007
 40
0.1875000000000007
 40
0.2187500000000007
 40
0.2187500000000007
 40
0.2500000000000007
 40
0.2500000000000007
 40
0.2812500000000008
 40
0.2812500000000008
 40
0.3125000000000008
 40
0.3125000000000008
 40
0.3750000000000008
 40
0.3750000000000008
 40
0.4062500000000009
 40
0.4062500000000009
 40
0.4375000000000009
 40
0.4375000000000009
 40
0.4687500000000009
 40
0.4687500000000009
 40
0.500000000000001
 40
0.500000000000001
 40
0.531250000000001
 40
0.531250000000001
 40
0.5625000000000011
 40
0.5625000000000011
 40
0.6250000000000011
 40
0.6250000000000011
 40
0.6562500000000012
 40
0.6562500000000012
 40
0.6875000000000012
 40
0.6875000000000012
 40
0.7187500000000013
 40
0.7187500000000013
 40
0.7500000000000013
 40
0.7500000000000013
 40
0.7812500000000013
 40
0.7812500000000013
 40
0.8125000000000014
 40
0.8125000000000014
 40
0.8750000000000011
 40
0.8750000000000011
 40
0.9062500000000009
 40
0.9062500000000009
 40
0.9375000000000006
 40
0.9375000000000006
 40
0.9687500000000003
 40
0.9687500000000003
 40
1.0
 40
1.0
 40
1.03125
 40
1.03125
 10
2.822699095510537
 20
3.751027326043562
 30
0.0
 10
2.822699095510536
 20
3.762392238866517
 30
0.0
 10
2.823278429697285
 20
3.767946116149977
 30
0.0
 10
2.825516466718434
 20
3.778816848208191
 30
0.0
 10
2.827203561346403
 20
3.784168611807126
 30
0.0
 10
2.833592799549774
 20
3.799141217807941
 30
0.0
 10
2.839715728667816
 20
3.808020349841573
 30
0.0
 10
2.850803650155271
 20
3.819035422179725
 30
0.0
 10
2.854877700242526
 20
3.82237942971711
 30
0.0
 10
2.863512579120604
 20
3.828194321673447
 30
0.0
 10
2.868094263161425
 20
3.830696330832688
 30
0.0
 10
2.877908890097832
 20
3.834873074585961
 30
0.0
 10
2.883171595256987
 20
3.836539856332283
 30
0.0
 10
2.89396395810564
 20
3.838780771335006
 30
0.0
 10
2.899650361773043
 20
3.839379497400238
 30
0.0
 10
2.910884944818652
 20
3.8393942555478
 30
0.0
 10
2.916467273930341
 20
3.838829165990378
 30
0.0
 10
2.927393144760485
 20
3.83659633042508
 30
0.0
 10
2.932571578005627
 20
3.834971233235577
 30
0.0
 10
2.947436614454333
 20
3.828696902507803
 30
0.0
 10
2.9560525514635
 20
3.822875428059989
 30
0.0
 10
2.967259866535665
 20
3.811787449201561
 30
0.0
 10
2.97060778053361
 20
3.807779186627308
 30
0.0
 10
2.976559048537288
 20
3.799091924212945
 30
0.0
 10
2.979182057777947
 20
3.794367563293367
 30
0.0
 10
2.983498118738027
 20
3.784321001879182
 30
0.0
 10
2.985162585407983
 20
3.779088305888369
 30
0.0
 10
2.987446176817329
 20
3.76816337537217
 30
0.0
 10
2.98804121802959
 20
3.762485797776539
 30
0.0
 10
2.988065253450406
 20
3.751288712336666
 30
0.0
 10
2.987496686541308
 20
3.745618694791362
 30
0.0
 10
2.985255621163017
 20
3.734662915620919
 30
0.0
 10
2.983609022048501
 20
3.729411567572479
 30
0.0
 10
2.977176394768504
 20
3.714278313106247
 30
0.0
 10
2.97104604399772
 20
3.705407188581394
 30
0.0
 10
2.959936968573472
 20
3.694372926853183
 30
0.0
 10
2.955929369674474
 20
3.691079111896519
 30
0.0
 10
2.947233921214992
 20
3.685218957880898
 30
0.0
 10
2.942556538747441
 20
3.682672272980501
 30
0.0
 10
2.932741652398036
 20
3.67851092556535
 30
0.0
 10
2.927502159118434
 20
3.676854848297896
 30
0.0
 10
2.916621793444516
 20
3.674612864852921
 30
0.0
 10
2.911063071015386
 20
3.6740321298582
 30
0.0
 10
2.899675292066588
 20
3.674033104949392
 30
0.0
 10
2.894099737967036
 20
3.674617688484906
 30
0.0
 10
2.883236583087539
 20
3.676859256289067
 30
0.0
 10
2.877983864379217
 20
3.678520552785143
 30
0.0
 10
2.863270463578153
 20
3.684764268987113
 30
0.0
 10
2.854496340600751
 20
3.690711147972252
 30
0.0
 10
2.843386027634854
 20
3.701755321787338
 30
0.0
 10
2.839978373297948
 20
3.705852332150886
 30
0.0
 10
2.834042937047843
 20
3.714579972784564
 30
0.0
 10
2.831477996431977
 20
3.719238694082396
 30
0.0
 10
2.827209650904798
 20
3.729232209101954
 30
0.0
 10
2.825518127091257
 20
3.734598988046409
 30
0.0
 10
2.823282027508525
 20
3.745451647226726
 30
0.0
 10
2.822699095510537
 20
3.751027326043562
 30
0.0
 10
2.822699095510536
 20
3.762392238866517
 30
0.0
  0
SPLINE
  5
EA
330
1F
100
AcDbEntity
  8
0
  6
HIDDEN
 62
     7
100
AcDbSpline
210
0.0
220
0.0
230
1.0
 70
     8
 71
     3
 72
    29
 73
    25
 74
     0
 42
0.00000001
 43
0.00000001
 40
0.0
 40
0.0
 40
0.0
 40
0.0
 40
0.0283860432686249
 40
0.0728061275198824
 40
0.1150785717819935
 40
0.158352824513794
 40
0.2054606941073949
 40
0.2535620329667769
 40
0.3089710859946679
 40
0.3658205280533038
 40
0.4083737109502583
 40
0.4519861959526482
 40
0.4946185928911201
 40
0.538927001653548
 40
0.5759474893867655
 40
0.6138104338661691
 40
0.668198706030948
 40
0.7241363118013152
 40
0.7796029570322056
 40
0.8365708886902198
 40
0.8830516931452298
 40
0.9307962184456626
 40
0.9773275117078369
 40
0.9999999999999999
 40
0.9999999999999999
 40
0.9999999999999999
 40
0.9999999999999999
 10
3.665403041096176
 20
3.874691142583122
 30
0.0
 10
3.665399390663349
 20
3.874693624898989
 30
0.0
 10
3.665390027826994
 20
3.874699991682971
 30
0.0
 10
3.667268589800571
 20
3.873388715474735
 30
0.0
 10
3.670679655896217
 20
3.871051159285256
 30
0.0
 10
3.675617867807975
 20
3.867761715391299
 30
0.0
 10
3.682105549907859
 20
3.863629671140971
 30
0.0
 10
3.690516770686975
 20
3.858629250690365
 30
0.0
 10
3.700870667254934
 20
3.853105188501306
 30
0.0
 10
3.712226094610093
 20
3.848078081309304
 30
0.0
 10
3.723747053652475
 20
3.844241860654664
 30
0.0
 10
3.734845703735732
 20
3.841810354782566
 30
0.0
 10
3.746575532363288
 20
3.840789837831208
 30
0.0
 10
3.757775061994156
 20
3.841404471780347
 30
0.0
 10
3.768187632424511
 20
3.843296657442841
 30
0.0
 10
3.778917073368893
 20
3.846371658900676
 30
0.0
 10
3.790268737766818
 20
3.850900634852485
 30
0.0
 10
3.801566641112322
 20
3.856552288785428
 30
0.0
 10
3.811522836561906
 20
3.862281279149295
 30
0.0
 10
3.81929588209182
 20
3.867181755722654
 30
0.0
 10
3.825057115877183
 20
3.871010772344694
 30
0.0
 10
3.828694962031007
 20
3.87350705036854
 30
0.0
 10
3.830538463897814
 20
3.874795685558931
 30
0.0
 10
3.830372268183915
 20
3.874679516422751
 30
0.0
 10
3.8303178192753
 20
3.874641457182045
 30
0.0
  0
SPLINE
  5
EB
330
1F
100
AcDbEntity
  8
0
  6
HIDDEN
 62
     7
100
AcDbSpline
210
0.0
220
0.0
230
1.0
 70
     8
 71
     3
 72
    62
 73
    58
 74
     0
 42
0.00000001
 43
0.00000001
 40
-0.0312499999999997
 40
-0.0312499999999997
 40
0.0
 40
0.0
 40
0.0312500000000002
 40
0.0312500000000002
 40
0.0625000000000003
 40
0.0625000000000003
 40
0.1250000000000007
 40
0.1250000000000007
 40
0.1562500000000007
 40
0.1562500000000007
 40
0.1875000000000007
 40
0.1875000000000007
 40
0.2187500000000007
 40
0.2187500000000007
 40
0.2500000000000007
 40
0.2500000000000007
 40
0.2812500000000008
 40
0.2812500000000008
 40
0.3125000000000008
 40
0.3125000000000008
 40
0.3750000000000008
 40
0.3750000000000008
 40
0.4062500000000009
 40
0.4062500000000009
 40
0.4375000000000009
 40
0.4375000000000009
 40
0.4687500000000009
 40
0.4687500000000009
 40
0.500000000000001
 40
0.500000000000001
 40
0.531250000000001
 40
0.531250000000001
 40
0.5625000000000011
 40
0.5625000000000011
 40
0.6250000000000011
 40
0.6250000000000011
 40
0.6562500000000012
 40
0.6562500000000012
 40
0.6875000000000012
 40
0.6875000000000012
 40
0.7187500000000013
 40
0.7187500000000013
 40
0.7500000000000013
 40
0.7500000000000013
 40
0.7812500000000013
 40
0.7812500000000013
 40
0.8125000000000014
 40
0.8125000000000014
 40
0.8750000000000011
 40
0.8750000000000011
 40
0.9062500000000009
 40
0.9062500000000009
 40
0.9375000000000006
 40
0.9375000000000006
 40
0.9687500000000003
 40
0.9687500000000003
 40
1.0
 40
1.0
 40
1.03125
 40
1.03125
 10
3.665218780549907
 20
3.751027326043562
 30
0.0
 10
3.665218780549907
 20
3.762392238866517
 30
0.0
 10
3.665798114736656
 20
3.767946116149977
 30
0.0
 10
3.668036151757805
 20
3.778816848208191
 30
0.0
 10
3.669723246385773
 20
3.784168611807126
 30
0.0
 10
3.676112484589145
 20
3.799141217807941
 30
0.0
 10
3.682235413707187
 20
3.808020349841573
 30
0.0
 10
3.693323335194642
 20
3.819035422179725
 30
0.0
 10
3.697397385281896
 20
3.82237942971711
 30
0.0
 10
3.706032264159975
 20
3.828194321673447
 30
0.0
 10
3.710613948200796
 20
3.830696330832688
 30
0.0
 10
3.720428575137203
 20
3.834873074585961
 30
0.0
 10
3.725691280296358
 20
3.836539856332283
 30
0.0
 10
3.73648364314501
 20
3.838780771335006
 30
0.0
 10
3.742170046812414
 20
3.839379497400238
 30
0.0
 10
3.753404629858023
 20
3.8393942555478
 30
0.0
 10
3.758986958969712
 20
3.838829165990378
 30
0.0
 10
3.769912829799856
 20
3.83659633042508
 30
0.0
 10
3.775091263044997
 20
3.834971233235577
 30
0.0
 10
3.789956299493703
 20
3.828696902507803
 30
0.0
 10
3.798572236502872
 20
3.822875428059989
 30
0.0
 10
3.809779551575035
 20
3.811787449201561
 30
0.0
 10
3.813127465572981
 20
3.807779186627308
 30
0.0
 10
3.819078733576659
 20
3.799091924212945
 30
0.0
 10
3.821701742817318
 20
3.794367563293367
 30
0.0
 10
3.826017803777398
 20
3.784321001879182
 30
0.0
 10
3.827682270447354
 20
3.779088305888369
 30
0.0
 10
3.829965861856699
 20
3.76816337537217
 30
0.0
 10
3.830560903068961
 20
3.762485797776539
 30
0.0
 10
3.830584938489777
 20
3.751288712336666
 30
0.0
 10
3.830016371580678
 20
3.745618694791362
 30
0.0
 10
3.827775306202387
 20
3.734662915620919
 30
0.0
 10
3.826128707087872
 20
3.729411567572479
 30
0.0
 10
3.819696079807874
 20
3.714278313106247
 30
0.0
 10
3.81356572903709
 20
3.705407188581394
 30
0.0
 10
3.802456653612842
 20
3.694372926853183
 30
0.0
 10
3.798449054713845
 20
3.691079111896519
 30
0.0
 10
3.789753606254362
 20
3.685218957880898
 30
0.0
 10
3.785076223786811
 20
3.682672272980501
 30
0.0
 10
3.775261337437407
 20
3.67851092556535
 30
0.0
 10
3.770021844157804
 20
3.676854848297896
 30
0.0
 10
3.759141478483885
 20
3.674612864852921
 30
0.0
 10
3.753582756054757
 20
3.6740321298582
 30
0.0
 10
3.742194977105958
 20
3.674033104949392
 30
0.0
 10
3.736619423006406
 20
3.674617688484906
 30
0.0
 10
3.725756268126909
 20
3.676859256289067
 30
0.0
 10
3.720503549418587
 20
3.678520552785143
 30
0.0
 10
3.705790148617524
 20
3.684764268987113
 30
0.0
 10
3.697016025640122
 20
3.690711147972252
 30
0.0
 10
3.685905712674225
 20
3.701755321787338
 30
0.0
 10
3.682498058337319
 20
3.705852332150886
 30
0.0
 10
3.676562622087214
 20
3.714579972784564
 30
0.0
 10
3.673997681471348
 20
3.719238694082396
 30
0.0
 10
3.669729335944169
 20
3.729232209101954
 30
0.0
 10
3.668037812130628
 20
3.734598988046409
 30
0.0
 10
3.665801712547896
 20
3.745451647226726
 30
0.0
 10
3.665218780549907
 20
3.751027326043562
 30
0.0
 10
3.665218780549907
 20
3.762392238866517
 30
0.0
  0
SPLINE
  5
EC
330
1F
100
AcDbEntity
  8
0
  6
HIDDEN
 62
     7
100
AcDbSpline
210
0.0
220
0.0
230
1.0
 70
     8
 71
     3
 72
    28
 73
    24
 74
     0
 42
0.00000001
 43
0.00000001
 40
0.0
 40
0.0
 40
0.0
 40
0.0
 40
0.0407387360130527
 40
0.0876035580551977
 40
0.1406206003480941
 40
0.1998049112095919
 40
0.259426765138209
 40
0.3126222367939884
 40
0.3594052584236824
 40
0.3998012816460081
 40
0.4402330133243471
 40
0.4870277785038922
 40
0.5402112523807068
 40
0.5997975794042352
 40
0.6590713719869804
 40
0.71212420543983
 40
0.758970849099009
 40
0.7996372255767205
 40
0.8404986642092892
 40
0.8874943746105758
 40
0.940650603178334
 40
0.9999824722489301
 40
1.0
 40
1.0
 40
1.0
 40
1.0
 10
3.665218780549907
 20
4.306584453919136
 30
0.0
 10
3.665425745685229
 20
4.306529747638623
 30
0.0
 10
3.665870798330991
 20
4.306412108622543
 30
0.0
 10
3.669836961918084
 20
4.305599872638602
 30
0.0
 10
3.677295454338441
 20
4.304363176755801
 30
0.0
 10
3.688899814458397
 20
4.302606610647111
 30
0.0
 10
3.703574575303327
 20
4.300849707328625
 30
0.0
 10
3.719226991037938
 20
4.299587659075058
 30
0.0
 10
3.734015369685896
 20
4.298805322237649
 30
0.0
 10
3.747847693223483
 20
4.298502896332231
 30
0.0
 10
3.7616827502322
 20
4.298801869490822
 30
0.0
 10
3.77647939768943
 20
4.299581545970827
 30
0.0
 10
3.79213563170152
 20
4.30084104708664
 30
0.0
 10
3.806831571615239
 20
4.3025984988074
 30
0.0
 10
3.818443333398385
 20
4.304352674252453
 30
0.0
 10
3.825967357227808
 20
4.305604650137822
 30
0.0
 10
3.829796278178404
 20
4.306380727057777
 30
0.0
 10
3.830930626382916
 20
4.306678471096194
 30
0.0
 10
3.829811657507151
 20
4.306383668617085
 30
0.0
 10
3.826041868742158
 20
4.30560632695354
 30
0.0
 10
3.818265827946588
 20
4.304366465677226
 30
0.0
 10
3.81135920401873
 20
4.303184997943829
 30
0.0
 10
3.806335224119202
 20
4.302602906675904
 30
0.0
 10
3.806333740379286
 20
4.302602734765971
 30
0.0
  0
SPLINE
  5
ED
330
1F
100
AcDbEntity
  8
0
  6
HIDDEN
 62
     7
100
AcDbSpline
210
0.0
220
0.0
230
1.0
 70
     8
 71
     3
 72
    28
 73
    24
 74
     0
 42
0.00000001
 43
0.00000001
 40
0.0
 40
0.0
 40
0.0
 40
0.0
 40
0.0407387360129138
 40
0.0876035580550128
 40
0.1406206003479559
 40
0.1998049112095919
 40
0.2594267651383506
 40
0.3126222367941767
 40
0.3594052584238228
 40
0.3998012816460054
 40
0.4402330133243453
 40
0.4870277785038912
 40
0.5402112523807062
 40
0.5997975794042347
 40
0.6590713719869801
 40
0.7121242054398295
 40
0.7589708490990081
 40
0.7996372255767193
 40
0.8404986642093114
 40
0.8874943746106058
 40
0.9406506031783562
 40
0.9999824722489289
 40
1.0
 40
1.0
 40
1.0
 40
1.0
 10
2.822699095510536
 20
4.306584453919136
 30
0.0
 10
2.822906060645858
 20
4.306529747638623
 30
0.0
 10
2.823351113291618
 20
4.306412108622542
 30
0.0
 10
2.827317276878695
 20
4.305599872638601
 30
0.0
 10
2.834775769299049
 20
4.3043631767558
 30
0.0
 10
2.846380129419024
 20
4.302606610647111
 30
0.0
 10
2.861054890263986
 20
4.300849707328627
 30
0.0
 10
2.876707305998616
 20
4.299587659075058
 30
0.0
 10
2.891495684646561
 20
4.29880532223765
 30
0.0
 10
2.905328008184128
 20
4.298502896332231
 30
0.0
 10
2.91916306519283
 20
4.298801869490822
 30
0.0
 10
2.933959712650059
 20
4.299581545970827
 30
0.0
 10
2.94961594666215
 20
4.30084104708664
 30
0.0
 10
2.964311886575868
 20
4.3025984988074
 30
0.0
 10
2.975923648359014
 20
4.304352674252453
 30
0.0
 10
2.983447672188437
 20
4.305604650137822
 30
0.0
 10
2.987276593139033
 20
4.306380727057777
 30
0.0
 10
2.988410941343546
 20
4.306678471096193
 30
0.0
 10
2.987291972467781
 20
4.306383668617087
 30
0.0
 10
2.98352218370278
 20
4.305606326953531
 30
0.0
 10
2.975746142907238
 20
4.304366465677269
 30
0.0
 10
2.968839518979298
 20
4.303184997943726
 30
0.0
 10
2.963815539079831
 20
4.302602906675904
 30
0.0
 10
2.963814055339915
 20
4.302602734765971
 30
0.0
  0
CIRCLE
  5
EE
330
1F
100
AcDbEntity
  8
0
  6
HIDDEN
 62
     7
100
AcDbCircle
 10
3.7478959459
 20
3.7567097825
 30
0.0
 40
0.0726771653543303
  0
POLYLINE
  5
EF
330
1F
100
AcDbEntity
  8
0
  6
HIDDEN
 62
     7
100
AcDb2dPolyline
 66
     1
 10
0.0
 20
0.0
 30
0.0
  0
VERTEX
  5
228
330
EF
100
AcDbEntity
  8
0
  6
HIDDEN
 62
     7
100
AcDbVertex
100
AcDb2dVertex
 10
3.8305731113
 20
3.7567097825
 30
0.0
  0
VERTEX
  5
229
330
EF
100
AcDbEntity
  8
0
  6
HIDDEN
 62
     7
100
AcDbVertex
100
AcDb2dVertex
 10
3.8298943329
 20
3.7461372612
 30
0.0
  0
VERTEX
  5
22A
330
EF
100
AcDbEntity
  8
0
  6
HIDDEN
 62
     7
100
AcDbVertex
100
AcDb2dVertex
 10
3.8283055404
 20
3.7374793173
 30
0.0
  0
SEQEND
  5
22B
330
EF
100
AcDbEntity
  8
0
  6
HIDDEN
 62
     7
  0
POLYLINE
  5
F0
330
1F
100
AcDbEntity
  8
0
  6
HIDDEN
 62
     7
100
AcDb2dPolyline
 66
     1
 10
0.0
 20
0.0
 30
0.0
  0
VERTEX
  5
22C
330
F0
100
AcDbEntity
  8
0
  6
HIDDEN
 62
     7
100
AcDbVertex
100
AcDb2dVertex
 10
3.6653830809
 20
3.7515001012
 30
0.0
  0
VERTEX
  5
22D
330
F0
100
AcDbEntity
  8
0
  6
HIDDEN
 62
     7
100
AcDbVertex
100
AcDb2dVertex
 10
3.6653886497
 20
3.7620069266
 30
0.0
  0
VERTEX
  5
22E
330
F0
100
AcDbEntity
  8
0
  6
HIDDEN
 62
     7
100
AcDbVertex
100
AcDb2dVertex
 10
3.6662279677
 20
3.769588253
 30
0.0
  0
SEQEND
  5
22F
330
F0
100
AcDbEntity
  8
0
  6
HIDDEN
 62
     7
  0
LINE
  5
F1
330
1F
100
AcDbEntity
  8
0
  6
HIDDEN
 62
     7
100
AcDbLine
 10
3.8305681737
 20
3.7576133439
 30
0.0
 11
3.8305731113
 21
3.7567097825
 31
0.0
  0
LINE
  5
F2
330
1F
100
AcDbEntity
  8
0
  6
HIDDEN
 62
     7
100
AcDbLine
 10
3.7478959459
 20
3.7087383625
 30
0.0
 11
3.7063514775
 21
3.7327240725
 31
0.0
  0
LINE
  5
F3
330
1F
100
AcDbEntity
  8
0
  6
HIDDEN
 62
     7
100
AcDbLine
 10
3.7063514775
 20
3.7806954924
 30
0.0
 11
3.7478959459
 21
3.8046812024
 31
0.0
  0
LINE
  5
F4
330
1F
100
AcDbEntity
  8
0
  6
HIDDEN
 62
     7
100
AcDbLine
 10
3.7478959459
 20
3.8046812024
 30
0.0
 11
3.7894404143
 21
3.7806954924
 31
0.0
  0
LINE
  5
F5
330
1F
100
AcDbEntity
  8
0
  6
HIDDEN
 62
     7
100
AcDbLine
 10
3.7894404143
 20
3.7806954924
 30
0.0
 11
3.7894404143
 21
3.7327240725
 31
0.0
  0
LINE
  5
F6
330
1F
100
AcDbEntity
  8
0
  6
HIDDEN
 62
     7
100
AcDbLine
 10
3.7063514775
 20
3.7327240725
 30
0.0
 11
3.7063514775
 21
3.7806954924
 31
0.0
  0
LINE
  5
F7
330
1F
100
AcDbEntity
  8
0
  6
HIDDEN
 62
     7
100
AcDbLine
 10
3.7894404143
 20
3.7327240725
 30
0.0
 11
3.7478959459
 21
3.7087383625
 31
0.0
  0
CIRCLE
  5
F8
330
1F
100
AcDbEntity
  8
0
  6
HIDDEN
 62
     7
100
AcDbCircle
 10
2.9053762609
 20
3.7567097825
 30
0.0
 40
0.0726771653543308
  0
LINE
  5
F9
330
1F
100
AcDbEntity
  8
0
  6
HIDDEN
 62
     7
100
AcDbLine
 10
2.9469207292
 20
3.7806954924
 30
0.0
 11
2.9053762609
 21
3.8046812024
 31
0.0
  0
LINE
  5
FA
330
1F
100
AcDbEntity
  8
0
  6
HIDDEN
 62
     7
100
AcDbLine
 10
2.9053762609
 20
3.8046812024
 30
0.0
 11
2.8638317925
 21
3.7806954924
 31
0.0
  0
LINE
  5
FB
330
1F
100
AcDbEntity
  8
0
  6
HIDDEN
 62
     7
100
AcDbLine
 10
2.8638317925
 20
3.7806954924
 30
0.0
 11
2.8638317925
 21
3.7327240725
 31
0.0
  0
LINE
  5
FC
330
1F
100
AcDbEntity
  8
0
  6
HIDDEN
 62
     7
100
AcDbLine
 10
2.9469207292
 20
3.7327240725
 30
0.0
 11
2.9469207292
 21
3.7806954924
 31
0.0
  0
LINE
  5
FD
330
1F
100
AcDbEntity
  8
0
  6
HIDDEN
 62
     7
100
AcDbLine
 10
2.8638317925
 20
3.7327240725
 30
0.0
 11
2.9053762609
 21
3.7087383625
 31
0.0
  0
LINE
  5
FE
330
1F
100
AcDbEntity
  8
0
  6
HIDDEN
 62
     7
100
AcDbLine
 10
2.9053762609
 20
3.7087383625
 30
0.0
 11
2.9469207292
 21
3.7327240725
 31
0.0
  0
LINE
  5
FF
330
1F
100
AcDbEntity
  8
0
  6
HIDDEN
 62
     7
100
AcDbLine
 10
2.8226990955
 20
4.3097019084
 30
0.0
 11
2.9880534262
 21
4.3097019084
 31
0.0
  0
LINE
  5
100
330
1F
100
AcDbEntity
  8
0
  6
HIDDEN
 62
     7
100
AcDbLine
 10
2.9880534262
 20
3.8848200187
 30
0.0
 11
2.8226990955
 21
3.8848200187
 31
0.0
  0
LINE
  5
101
330
1F
100
AcDbEntity
  8
0
  6
HIDDEN
 62
     7
100
AcDbLine
 10
2.8326990955
 20
3.8748200187
 30
0.0
 11
2.9780534262
 21
3.8748200187
 31
0.0
  0
LINE
  5
102
330
1F
100
AcDbEntity
  8
0
  6
HIDDEN
 62
     7
100
AcDbLine
 10
2.9053762609
 20
4.2697019084
 30
0.0
 11
2.9053762609
 21
4.3197019084
 31
0.0
  0
LINE
  5
103
330
1F
100
AcDbEntity
  8
0
  6
HIDDEN
 62
     7
100
AcDbLine
 10
2.9469207292
 20
4.2697019084
 30
0.0
 11
2.9053762609
 21
4.2697019084
 31
0.0
  0
LINE
  5
104
330
1F
100
AcDbEntity
  8
0
  6
HIDDEN
 62
     7
100
AcDbLine
 10
2.9053762609
 20
4.2697019084
 30
0.0
 11
2.8638317925
 21
4.2697019084
 31
0.0
  0
LINE
  5
105
330
1F
100
AcDbEntity
  8
0
  6
HIDDEN
 62
     7
100
AcDbLine
 10
2.8638317925
 20
4.2697019084
 30
0.0
 11
2.8638317925
 21
4.3197019084
 31
0.0
  0
LINE
  5
106
330
1F
100
AcDbEntity
  8
0
  6
HIDDEN
 62
     7
100
AcDbLine
 10
2.9469207292
 20
4.2697019084
 30
0.0
 11
2.9469207292
 21
4.3197019084
 31
0.0
  0
LINE
  5
107
330
1F
100
AcDbEntity
  8
0
  6
HIDDEN
 62
     7
100
AcDbLine
 10
3.8305731113
 20
4.3097019084
 30
0.0
 11
3.6652187805
 21
4.3097019084
 31
0.0
  0
LINE
  5
108
330
1F
100
AcDbEntity
  8
0
  6
HIDDEN
 62
     7
100
AcDbLine
 10
3.6652187805
 20
3.8848200187
 30
0.0
 11
3.8305731113
 21
3.8848200187
 31
0.0
  0
LINE
  5
109
330
1F
100
AcDbEntity
  8
0
  6
HIDDEN
 62
     7
100
AcDbLine
 10
3.8205731113
 20
3.8748200187
 30
0.0
 11
3.6752187805
 21
3.8748200187
 31
0.0
  0
LINE
  5
10A
330
1F
100
AcDbEntity
  8
0
  6
HIDDEN
 62
     7
100
AcDbLine
 10
3.7478959459
 20
4.2697019084
 30
0.0
 11
3.7478959459
 21
4.3197019084
 31
0.0
  0
LINE
  5
10B
330
1F
100
AcDbEntity
  8
0
  6
HIDDEN
 62
     7
100
AcDbLine
 10
3.7063514775
 20
4.2697019084
 30
0.0
 11
3.7478959459
 21
4.2697019084
 31
0.0
  0
LINE
  5
10C
330
1F
100
AcDbEntity
  8
0
  6
HIDDEN
 62
     7
100
AcDbLine
 10
3.7478959459
 20
4.2697019084
 30
0.0
 11
3.7894404143
 21
4.2697019084
 31
0.0
  0
LINE
  5
10D
330
1F
100
AcDbEntity
  8
0
  6
HIDDEN
 62
     7
100
AcDbLine
 10
3.7894404143
 20
4.2697019084
 30
0.0
 11
3.7894404143
 21
4.3197019084
 31
0.0
  0
LINE
  5
10E
330
1F
100
AcDbEntity
  8
0
  6
HIDDEN
 62
     7
100
AcDbLine
 10
3.7063514775
 20
4.2697019084
 30
0.0
 11
3.7063514775
 21
4.3197019084
 31
0.0
  0
LINE
  5
10F
330
1F
100
AcDbEntity
  8
0
  6
HIDDEN
 62
     7
100
AcDbLine
 10
3.8896282294
 20
3.8898200187
 30
0.0
 11
3.8746282294
 21
3.8748200187
 31
0.0
  0
LINE
  5
110
330
1F
100
AcDbEntity
  8
0
  6
HIDDEN
 62
     7
100
AcDbLine
 10
3.8746282294
 20
3.6385995462
 30
0.0
 11
3.8896282294
 21
3.6235995462
 31
0.0
  0
LINE
  5
111
330
1F
100
AcDbEntity
  8
0
  6
HIDDEN
 62
     7
100
AcDbLine
 10
2.7636439774
 20
3.6235995462
 30
0.0
 11
2.7786439774
 21
3.6385995462
 31
0.0
  0
LINE
  5
112
330
1F
100
AcDbEntity
  8
0
  6
HIDDEN
 62
     7
100
AcDbLine
 10
2.7786439774
 20
3.8748200187
 30
0.0
 11
2.7636439774
 21
3.8898200187
 31
0.0
  0
LINE
  5
113
330
1F
100
AcDbEntity
  8
0
  6
HIDDEN
 62
     7
100
AcDbLine
 10
3.3766361034
 20
3.8898200187
 30
0.0
 11
3.2766361034
 21
3.8898200187
 31
0.0
  0
LINE
  5
114
330
1F
100
AcDbEntity
  8
0
  6
HIDDEN
 62
     7
100
AcDbLine
 10
3.2766361034
 20
3.6235995462
 30
0.0
 11
3.3766361034
 21
3.6235995462
 31
0.0
  0
LINE
  5
115
330
1F
100
AcDbEntity
  8
0
  6
HIDDEN
 62
     7
100
AcDbLine
 10
2.8228833561
 20
3.8748200187
 30
0.0
 11
2.7786439774
 21
3.8748200187
 31
0.0
  0
LINE
  5
116
330
1F
100
AcDbEntity
  8
0
  6
HIDDEN
 62
     7
100
AcDbLine
 10
3.2766361034
 20
3.8748200187
 30
0.0
 11
2.9877981342
 21
3.8748200187
 31
0.0
  0
LINE
  5
117
330
1F
100
AcDbEntity
  8
0
  6
HIDDEN
 62
     7
100
AcDbLine
 10
2.7786439774
 20
3.6385995462
 30
0.0
 11
3.2766361034
 21
3.6385995462
 31
0.0
  0
LINE
  5
118
330
1F
100
AcDbEntity
  8
0
  6
HIDDEN
 62
     7
100
AcDbLine
 10
3.6654030411
 20
3.8748200187
 30
0.0
 11
3.3766361034
 21
3.8748200187
 31
0.0
  0
LINE
  5
119
330
1F
100
AcDbEntity
  8
0
  6
HIDDEN
 62
     7
100
AcDbLine
 10
3.8746282294
 20
3.8748200187
 30
0.0
 11
3.8303178193
 21
3.8748200187
 31
0.0
  0
LINE
  5
11A
330
1F
100
AcDbEntity
  8
0
  6
HIDDEN
 62
     7
100
AcDbLine
 10
3.3766361034
 20
3.6385995462
 30
0.0
 11
3.8746282294
 21
3.6385995462
 31
0.0
  0
LINE
  5
11B
330
1F
100
AcDbEntity
  8
0
  6
HIDDEN
 62
     7
100
AcDbLine
 10
3.6545193485
 20
4.3197019107
 30
0.0
 11
3.6652187581
 21
4.3065844561
 31
0.0
  0
LINE
  5
11C
330
1F
100
AcDbEntity
  8
0
  6
HIDDEN
 62
     7
100
AcDbLine
 10
3.8305730599
 20
4.3065844442
 30
0.0
 11
3.8412724598
 21
4.3197018985
 31
0.0
  0
LINE
  5
11D
330
1F
100
AcDbEntity
  8
0
  6
HIDDEN
 62
     7
100
AcDbLine
 10
2.8119996635
 20
4.3197019107
 30
0.0
 11
2.822699073
 21
4.3065844561
 31
0.0
  0
LINE
  5
11E
330
1F
100
AcDbEntity
  8
0
  6
HIDDEN
 62
     7
100
AcDbLine
 10
2.9880533749
 20
4.3065844442
 30
0.0
 11
2.9987527748
 21
4.3197018985
 31
0.0
  0
LINE
  5
11F
330
1F
100
AcDbEntity
  8
0
  6
HIDDEN
 62
     7
100
AcDbLine
 10
2.9880534262
 20
3.8746414591
 30
0.0
 11
2.9880534262
 21
4.3065827235
 31
0.0
  0
LINE
  5
120
330
1F
100
AcDbEntity
  8
0
  6
HIDDEN
 62
     7
100
AcDbLine
 10
2.8226990955
 20
4.3065844539
 30
0.0
 11
2.8226990955
 21
3.8746911754
 31
0.0
  0
LINE
  5
121
330
1F
100
AcDbEntity
  8
0
  6
HIDDEN
 62
     7
100
AcDbLine
 10
3.8305731113
 20
3.8746414591
 30
0.0
 11
3.8305731113
 21
4.3065827235
 31
0.0
  0
LINE
  5
122
330
1F
100
AcDbEntity
  8
0
  6
HIDDEN
 62
     7
100
AcDbLine
 10
3.6652187805
 20
4.3065844539
 30
0.0
 11
3.6652187805
 21
3.8746911754
 31
0.0
  0
LINE
  5
123
330
1F
100
AcDbEntity
  8
0
  6
HIDDEN
 62
     7
100
AcDbLine
 10
2.9880534262
 20
4.3097019084
 30
0.0
 11
2.9808547968
 21
4.3169005378
 31
0.0
  0
LINE
  5
124
330
1F
100
AcDbEntity
  8
0
  6
HIDDEN
 62
     7
100
AcDbLine
 10
2.8298985666
 20
4.3169013795
 30
0.0
 11
2.8226990955
 21
4.3097019084
 31
0.0
  0
LINE
  5
125
330
1F
100
AcDbEntity
  8
0
  6
HIDDEN
 62
     7
100
AcDbLine
 10
2.9880534262
 20
3.8848200187
 30
0.0
 11
2.9880534262
 21
4.3097019084
 31
0.0
  0
LINE
  5
126
330
1F
100
AcDbEntity
  8
0
  6
HIDDEN
 62
     7
100
AcDbLine
 10
2.8226990955
 20
4.3097019084
 30
0.0
 11
2.8226990955
 21
3.8848200187
 31
0.0
  0
LINE
  5
127
330
1F
100
AcDbEntity
  8
0
  6
HIDDEN
 62
     7
100
AcDbLine
 10
2.8226990955
 20
3.8848200187
 30
0.0
 11
2.8326990955
 21
3.8748200187
 31
0.0
  0
LINE
  5
128
330
1F
100
AcDbEntity
  8
0
  6
HIDDEN
 62
     7
100
AcDbLine
 10
2.9780534262
 20
3.8748200187
 30
0.0
 11
2.9880534262
 21
3.8848200187
 31
0.0
  0
LINE
  5
129
330
1F
100
AcDbEntity
  8
0
  6
HIDDEN
 62
     7
100
AcDbLine
 10
3.8305731113
 20
3.8848200187
 30
0.0
 11
3.8305731113
 21
4.3097019084
 31
0.0
  0
LINE
  5
12A
330
1F
100
AcDbEntity
  8
0
  6
HIDDEN
 62
     7
100
AcDbLine
 10
3.6652187805
 20
4.3097019084
 30
0.0
 11
3.6652187805
 21
3.8848200187
 31
0.0
  0
LINE
  5
12B
330
1F
100
AcDbEntity
  8
0
  6
HIDDEN
 62
     7
100
AcDbLine
 10
3.8305731113
 20
4.3097019084
 30
0.0
 11
3.8233744819
 21
4.3169005378
 31
0.0
  0
LINE
  5
12C
330
1F
100
AcDbEntity
  8
0
  6
HIDDEN
 62
     7
100
AcDbLine
 10
3.6724182517
 20
4.3169013795
 30
0.0
 11
3.6652187805
 21
4.3097019084
 31
0.0
  0
LINE
  5
12D
330
1F
100
AcDbEntity
  8
0
  6
HIDDEN
 62
     7
100
AcDbLine
 10
3.6652187805
 20
3.8848200187
 30
0.0
 11
3.6752187805
 21
3.8748200187
 31
0.0
  0
LINE
  5
12E
330
1F
100
AcDbEntity
  8
0
  6
HIDDEN
 62
     7
100
AcDbLine
 10
3.8205731113
 20
3.8748200187
 30
0.0
 11
3.8305731113
 21
3.8848200187
 31
0.0
  0
LINE
  5
12F
330
1F
100
AcDbEntity
  8
0
  6
CONTINUOUS
 62
     7
100
AcDbLine
 10
8.8084299213
 20
3.6785858061
 30
0.0
 11
8.8138767323
 21
3.6840326171
 31
0.0
  0
LINE
  5
130
330
1F
100
AcDbEntity
  8
0
  6
CONTINUOUS
 62
     7
100
AcDbLine
 10
8.8138767323
 20
3.8293869478
 30
0.0
 11
8.8084299213
 21
3.8348337588
 31
0.0
  0
LINE
  5
131
330
1F
100
AcDbEntity
  8
0
  6
CONTINUOUS
 62
     7
100
AcDbLine
 10
8.3290085827
 20
4.3142550974
 30
0.0
 11
8.3235617717
 21
4.3197019084
 31
0.0
  0
LINE
  5
132
330
1F
100
AcDbEntity
  8
0
  6
CONTINUOUS
 62
     7
100
AcDbLine
 10
8.178207441
 20
4.3197019084
 30
0.0
 11
8.1727606299
 21
4.3142550974
 31
0.0
  0
CIRCLE
  5
133
330
1F
100
AcDbEntity
  8
0
  6
CONTINUOUS
 62
     7
100
AcDbCircle
 10
8.2508846063
 20
3.7567097825
 30
0.0
 40
0.5479921259842513
  0
CIRCLE
  5
134
330
1F
100
AcDbEntity
  8
0
  6
CONTINUOUS
 62
     7
100
AcDbCircle
 10
8.2508846063
 20
3.7567097825
 30
0.0
 40
0.5629921259842536
  0
CIRCLE
  5
135
330
1F
100
AcDbEntity
  8
0
  6
CONTINUOUS
 62
     7
100
AcDbCircle
 10
8.2508846063
 20
3.7567097825
 30
0.0
 40
0.1331102362204728
  0
CIRCLE
  5
136
330
1F
100
AcDbEntity
  8
0
  6
CONTINUOUS
 62
     7
100
AcDbCircle
 10
8.2508846063
 20
3.7567097825
 30
0.0
 40
0.118110236220474
  0
LINE
  5
137
330
1F
100
AcDbEntity
  8
0
  6
CONTINUOUS
 62
     7
100
AcDbLine
 10
8.8138767323
 20
3.8293869478
 30
0.0
 11
8.8138767323
 21
3.6840326171
 31
0.0
  0
LINE
  5
138
330
1F
100
AcDbEntity
  8
0
  6
CONTINUOUS
 62
     7
100
AcDbLine
 10
8.178207441
 20
4.3197019084
 30
0.0
 11
8.3235617717
 21
4.3197019084
 31
0.0
  0
SPLINE
  5
139
330
1F
100
AcDbEntity
  8
0
  6
HIDDEN
 62
     7
100
AcDbSpline
210
0.0
220
0.0
230
1.0
 70
     8
 71
     3
 72
    25
 73
    21
 74
     0
 42
0.00000001
 43
0.00000001
 40
0.0
 40
0.0
 40
0.0
 40
0.0
 40
0.0504767447173888
 40
0.1089693270761575
 40
0.175447675966875
 40
0.2499294716871316
 40
0.3240206051944822
 40
0.3903356559955771
 40
0.4488930854848097
 40
0.4997252964432056
 40
0.5508013314514558
 40
0.6095450915837898
 40
0.6759893843471231
 40
0.7501531123794314
 40
0.8245908947382552
 40
0.8910243274370518
 40
0.9212788670084249
 40
0.9495337715099373
 40
0.9757943680236634
 40
0.9999999999999999
 40
0.9999999999999999
 40
0.9999999999999999
 40
0.9999999999999999
 10
8.168208730168576
 20
4.298598429232959
 30
0.0
 10
8.168409756348035
 20
4.298653430956972
 30
0.0
 10
8.168843732184296
 20
4.298772168821056
 30
0.0
 10
8.172772821210062
 20
4.299591335389993
 30
0.0
 10
8.180226576858386
 20
4.3008379113335
 30
0.0
 10
8.191837582331306
 20
4.302599378471735
 30
0.0
 10
8.206496514028924
 20
4.304352461764686
 30
0.0
 10
8.222095403684284
 20
4.305604708891938
 30
0.0
 10
8.236898134502542
 20
4.306380679448874
 30
0.0
 10
8.250812893911508
 20
4.306678594003717
 30
0.0
 10
8.26474657840875
 20
4.306383185134462
 30
0.0
 10
8.279601833300255
 20
4.30560855088976
 30
0.0
 10
8.295235894998566
 20
4.304356523517193
 30
0.0
 10
8.309913992696883
 20
4.302601612318266
 30
0.0
 10
8.321513611266818
 20
4.300843313968792
 30
0.0
 10
8.327955578017267
 20
4.299762366188183
 30
0.0
 10
8.33110773958324
 20
4.299152698333505
 30
0.0
 10
8.332583529870234
 20
4.298838919639276
 30
0.0
 10
8.333416220478258
 20
4.298638519606601
 30
0.0
 10
8.333514135093756
 20
4.29861133341284
 30
0.0
 10
8.333561098879613
 20
4.298598293821399
 30
0.0
  0
LINE
  5
13A
330
1F
100
AcDbEntity
  8
0
  6
HIDDEN
 62
     7
100
AcDbLine
 10
8.2625921135
 20
4.3063633803
 30
0.0
 11
8.2508846063
 21
4.3065844539
 31
0.0
  0
LINE
  5
13B
330
1F
100
AcDbEntity
  8
0
  6
HIDDEN
 62
     7
100
AcDbLine
 10
8.8038767323
 20
3.6740326171
 30
0.0
 11
8.8038767323
 21
3.8393869478
 31
0.0
  0
LINE
  5
13C
330
1F
100
AcDbEntity
  8
0
  6
HIDDEN
 62
     7
100
AcDbLine
 10
8.3789948425
 20
3.7567097825
 30
0.0
 11
8.3789948425
 21
3.6740326171
 31
0.0
  0
LINE
  5
13D
330
1F
100
AcDbEntity
  8
0
  6
HIDDEN
 62
     7
100
AcDbLine
 10
8.3789948425
 20
3.8393869478
 30
0.0
 11
8.3789948425
 21
3.7567097825
 31
0.0
  0
LINE
  5
13E
330
1F
100
AcDbEntity
  8
0
  6
HIDDEN
 62
     7
100
AcDbLine
 10
8.3689948425
 20
3.7567097825
 30
0.0
 11
8.3689948425
 21
3.8293869478
 31
0.0
  0
LINE
  5
13F
330
1F
100
AcDbEntity
  8
0
  6
HIDDEN
 62
     7
100
AcDbLine
 10
8.3689948425
 20
3.6840326171
 30
0.0
 11
8.3689948425
 21
3.7567097825
 31
0.0
  0
LINE
  5
140
330
1F
100
AcDbEntity
  8
0
  6
HIDDEN
 62
     7
100
AcDbLine
 10
8.7638767323
 20
3.7806954924
 30
0.0
 11
8.8138767323
 21
3.7806954924
 31
0.0
  0
LINE
  5
141
330
1F
100
AcDbEntity
  8
0
  6
HIDDEN
 62
     7
100
AcDbLine
 10
8.7638767323
 20
3.7327240725
 30
0.0
 11
8.8138767323
 21
3.7327240725
 31
0.0
  0
LINE
  5
142
330
1F
100
AcDbEntity
  8
0
  6
HIDDEN
 62
     7
100
AcDbLine
 10
8.7638767323
 20
3.7327240725
 30
0.0
 11
8.7638767323
 21
3.7087383625
 31
0.0
  0
LINE
  5
143
330
1F
100
AcDbEntity
  8
0
  6
HIDDEN
 62
     7
100
AcDbLine
 10
8.7638767323
 20
3.7806954924
 30
0.0
 11
8.7638767323
 21
3.7327240725
 31
0.0
  0
LINE
  5
144
330
1F
100
AcDbEntity
  8
0
  6
HIDDEN
 62
     7
100
AcDbLine
 10
8.7638767323
 20
3.8046812024
 30
0.0
 11
8.7638767323
 21
3.7806954924
 31
0.0
  0
LINE
  5
145
330
1F
100
AcDbEntity
  8
0
  6
HIDDEN
 62
     7
100
AcDbLine
 10
8.7638767323
 20
3.8046812024
 30
0.0
 11
8.8138767323
 21
3.8046812024
 31
0.0
  0
LINE
  5
146
330
1F
100
AcDbEntity
  8
0
  6
HIDDEN
 62
     7
100
AcDbLine
 10
8.7638767323
 20
3.7087383625
 30
0.0
 11
8.8138767323
 21
3.7087383625
 31
0.0
  0
LINE
  5
147
330
1F
100
AcDbEntity
  8
0
  6
HIDDEN
 62
     7
100
AcDbLine
 10
8.2508846063
 20
3.8748200187
 30
0.0
 11
8.178207441
 21
3.8748200187
 31
0.0
  0
LINE
  5
148
330
1F
100
AcDbEntity
  8
0
  6
HIDDEN
 62
     7
100
AcDbLine
 10
8.3235617717
 20
3.8748200187
 30
0.0
 11
8.2508846063
 21
3.8748200187
 31
0.0
  0
LINE
  5
149
330
1F
100
AcDbEntity
  8
0
  6
HIDDEN
 62
     7
100
AcDbLine
 10
8.2508846063
 20
3.8848200187
 30
0.0
 11
8.3335617717
 21
3.8848200187
 31
0.0
  0
LINE
  5
14A
330
1F
100
AcDbEntity
  8
0
  6
HIDDEN
 62
     7
100
AcDbLine
 10
8.168207441
 20
3.8848200187
 30
0.0
 11
8.2508846063
 21
3.8848200187
 31
0.0
  0
LINE
  5
14B
330
1F
100
AcDbEntity
  8
0
  6
HIDDEN
 62
     7
100
AcDbLine
 10
8.3335617717
 20
4.3097019084
 30
0.0
 11
8.168207441
 21
4.3097019084
 31
0.0
  0
LINE
  5
14C
330
1F
100
AcDbEntity
  8
0
  6
HIDDEN
 62
     7
100
AcDbLine
 10
8.2748703163
 20
4.2697019084
 30
0.0
 11
8.2988560263
 21
4.2697019084
 31
0.0
  0
LINE
  5
14D
330
1F
100
AcDbEntity
  8
0
  6
HIDDEN
 62
     7
100
AcDbLine
 10
8.2268988963
 20
4.2697019084
 30
0.0
 11
8.2748703163
 21
4.2697019084
 31
0.0
  0
LINE
  5
14E
330
1F
100
AcDbEntity
  8
0
  6
HIDDEN
 62
     7
100
AcDbLine
 10
8.2748703163
 20
4.2697019084
 30
0.0
 11
8.2748703163
 21
4.3197019084
 31
0.0
  0
LINE
  5
14F
330
1F
100
AcDbEntity
  8
0
  6
HIDDEN
 62
     7
100
AcDbLine
 10
8.2268988963
 20
4.2697019084
 30
0.0
 11
8.2268988963
 21
4.3197019084
 31
0.0
  0
LINE
  5
150
330
1F
100
AcDbEntity
  8
0
  6
HIDDEN
 62
     7
100
AcDbLine
 10
8.2029131863
 20
4.2697019084
 30
0.0
 11
8.2268988963
 21
4.2697019084
 31
0.0
  0
LINE
  5
151
330
1F
100
AcDbEntity
  8
0
  6
HIDDEN
 62
     7
100
AcDbLine
 10
8.2988560263
 20
4.2697019084
 30
0.0
 11
8.2988560263
 21
4.3197019084
 31
0.0
  0
LINE
  5
152
330
1F
100
AcDbEntity
  8
0
  6
HIDDEN
 62
     7
100
AcDbLine
 10
8.2029131863
 20
4.2697019084
 30
0.0
 11
8.2029131863
 21
4.3197019084
 31
0.0
  0
LINE
  5
153
330
1F
100
AcDbEntity
  8
0
  6
HIDDEN
 62
     7
100
AcDbLine
 10
8.1552805158
 20
4.3115250594
 30
0.0
 11
8.1682074518
 21
4.2985981216
 31
0.0
  0
LINE
  5
154
330
1F
100
AcDbEntity
  8
0
  6
HIDDEN
 62
     7
100
AcDbLine
 10
8.333561774
 20
4.2985981197
 30
0.0
 11
8.3464887121
 21
4.3115250574
 31
0.0
  0
LINE
  5
155
330
1F
100
AcDbEntity
  8
0
  6
HIDDEN
 62
     7
100
AcDbLine
 10
8.3335617717
 20
3.8410573623
 30
0.0
 11
8.3335617717
 21
4.2985982738
 31
0.0
  0
LINE
  5
156
330
1F
100
AcDbEntity
  8
0
  6
HIDDEN
 62
     7
100
AcDbLine
 10
8.168207441
 20
4.2985991037
 30
0.0
 11
8.168207441
 21
3.8411473978
 31
0.0
  0
LINE
  5
157
330
1F
100
AcDbEntity
  8
0
  6
HIDDEN
 62
     7
100
AcDbLine
 10
8.3352602318
 20
3.6740326171
 30
0.0
 11
8.8078135296
 21
3.6740326171
 31
0.0
  0
LINE
  5
158
330
1F
100
AcDbEntity
  8
0
  6
HIDDEN
 62
     7
100
AcDbLine
 10
8.8077790224
 20
3.8393869478
 30
0.0
 11
8.3354109481
 21
3.8393869478
 31
0.0
  0
LINE
  5
159
330
1F
100
AcDbEntity
  8
0
  6
HIDDEN
 62
     7
100
AcDbLine
 10
8.8038767323
 20
3.6740326171
 30
0.0
 11
8.8084299213
 21
3.6785858061
 31
0.0
  0
LINE
  5
15A
330
1F
100
AcDbEntity
  8
0
  6
HIDDEN
 62
     7
100
AcDbLine
 10
8.8084299213
 20
3.8348337588
 30
0.0
 11
8.8038767323
 21
3.8393869478
 31
0.0
  0
LINE
  5
15B
330
1F
100
AcDbEntity
  8
0
  6
HIDDEN
 62
     7
100
AcDbLine
 10
8.3789948425
 20
3.6740326171
 30
0.0
 11
8.8038767323
 21
3.6740326171
 31
0.0
  0
LINE
  5
15C
330
1F
100
AcDbEntity
  8
0
  6
HIDDEN
 62
     7
100
AcDbLine
 10
8.8038767323
 20
3.8393869478
 30
0.0
 11
8.3789948425
 21
3.8393869478
 31
0.0
  0
LINE
  5
15D
330
1F
100
AcDbEntity
  8
0
  6
HIDDEN
 62
     7
100
AcDbLine
 10
8.3789948425
 20
3.8393869478
 30
0.0
 11
8.3689948425
 21
3.8293869478
 31
0.0
  0
LINE
  5
15E
330
1F
100
AcDbEntity
  8
0
  6
HIDDEN
 62
     7
100
AcDbLine
 10
8.3689948425
 20
3.6840326171
 30
0.0
 11
8.3789948425
 21
3.6740326171
 31
0.0
  0
LINE
  5
15F
330
1F
100
AcDbEntity
  8
0
  6
HIDDEN
 62
     7
100
AcDbLine
 10
8.168207441
 20
3.8848200187
 30
0.0
 11
8.178207441
 21
3.8748200187
 31
0.0
  0
LINE
  5
160
330
1F
100
AcDbEntity
  8
0
  6
HIDDEN
 62
     7
100
AcDbLine
 10
8.3235617717
 20
3.8748200187
 30
0.0
 11
8.3335617717
 21
3.8848200187
 31
0.0
  0
LINE
  5
161
330
1F
100
AcDbEntity
  8
0
  6
HIDDEN
 62
     7
100
AcDbLine
 10
8.3335617717
 20
4.3097019084
 30
0.0
 11
8.3290085827
 21
4.3142550974
 31
0.0
  0
LINE
  5
162
330
1F
100
AcDbEntity
  8
0
  6
HIDDEN
 62
     7
100
AcDbLine
 10
8.1727606299
 20
4.3142550974
 30
0.0
 11
8.168207441
 21
4.3097019084
 31
0.0
  0
LINE
  5
163
330
1F
100
AcDbEntity
  8
0
  6
HIDDEN
 62
     7
100
AcDbLine
 10
8.3335617717
 20
3.8848200187
 30
0.0
 11
8.3335617717
 21
4.3097019084
 31
0.0
  0
LINE
  5
164
330
1F
100
AcDbEntity
  8
0
  6
HIDDEN
 62
     7
100
AcDbLine
 10
8.168207441
 20
4.3097019084
 30
0.0
 11
8.168207441
 21
3.8848200187
 31
0.0
  0
LINE
  5
165
330
1F
100
AcDbEntity
  8
0
  6
CONTINUOUS
 62
     7
100
AcDbLine
 10
2.7786439774
 20
6.1089850129
 30
0.0
 11
3.8746282294
 21
6.1089850129
 31
0.0
  0
LINE
  5
166
330
1F
100
AcDbEntity
  8
0
  6
CONTINUOUS
 62
     7
100
AcDbLine
 10
2.8226990955
 20
7.2349692649
 30
0.0
 11
2.7786439774
 21
7.2349692649
 31
0.0
  0
LINE
  5
167
330
1F
100
AcDbEntity
  8
0
  6
CONTINUOUS
 62
     7
100
AcDbLine
 10
3.6652187805
 20
7.2349692649
 30
0.0
 11
2.9878163212
 21
7.2349692649
 31
0.0
  0
LINE
  5
168
330
1F
100
AcDbEntity
  8
0
  6
CONTINUOUS
 62
     7
100
AcDbLine
 10
3.8746282294
 20
7.2349692649
 30
0.0
 11
3.8303360063
 21
7.2349692649
 31
0.0
  0
LINE
  5
169
330
1F
100
AcDbEntity
  8
0
  6
CONTINUOUS
 62
     7
100
AcDbLine
 10
2.7786439774
 20
7.2349692649
 30
0.0
 11
2.7636439774
 21
7.2199692649
 31
0.0
  0
LINE
  5
16A
330
1F
100
AcDbEntity
  8
0
  6
CONTINUOUS
 62
     7
100
AcDbLine
 10
2.7636439774
 20
6.1239850129
 30
0.0
 11
2.7786439774
 21
6.1089850129
 31
0.0
  0
LINE
  5
16B
330
1F
100
AcDbEntity
  8
0
  6
CONTINUOUS
 62
     7
100
AcDbLine
 10
3.8746282294
 20
6.1089850129
 30
0.0
 11
3.8896282294
 21
6.1239850129
 31
0.0
  0
LINE
  5
16C
330
1F
100
AcDbEntity
  8
0
  6
CONTINUOUS
 62
     7
100
AcDbLine
 10
3.8896282294
 20
7.2199692649
 30
0.0
 11
3.8746282294
 21
7.2349692649
 31
0.0
  0
LINE
  5
16D
330
1F
100
AcDbEntity
  8
0
  6
CONTINUOUS
 62
     7
100
AcDbLine
 10
3.8217875205
 20
7.2337548556
 30
0.0
 11
3.8205731113
 21
7.2349692649
 31
0.0
  0
LINE
  5
16E
330
1F
100
AcDbEntity
  8
0
  6
CONTINUOUS
 62
     7
100
AcDbLine
 10
3.6752187805
 20
7.2349692649
 30
0.0
 11
3.6740038673
 21
7.2337543517
 31
0.0
  0
LINE
  5
16F
330
1F
100
AcDbEntity
  8
0
  6
CONTINUOUS
 62
     7
100
AcDbLine
 10
2.9792678355
 20
7.2337548556
 30
0.0
 11
2.9780534262
 21
7.2349692649
 31
0.0
  0
LINE
  5
170
330
1F
100
AcDbEntity
  8
0
  6
CONTINUOUS
 62
     7
100
AcDbLine
 10
2.8326990955
 20
7.2349692649
 30
0.0
 11
2.8314841823
 21
7.2337543517
 31
0.0
  0
LINE
  5
171
330
1F
100
AcDbEntity
  8
0
  6
CONTINUOUS
 62
     7
100
AcDbLine
 10
3.8746282294
 20
6.1089850129
 30
0.0
 11
3.8746282294
 21
7.2349692649
 31
0.0
  0
LINE
  5
172
330
1F
100
AcDbEntity
  8
0
  6
CONTINUOUS
 62
     7
100
AcDbLine
 10
2.7786439774
 20
7.2349692649
 30
0.0
 11
2.7786439774
 21
6.1089850129
 31
0.0
  0
SPLINE
  5
173
330
1F
100
AcDbEntity
  8
0
  6
CONTINUOUS
 62
     7
100
AcDbSpline
210
0.0
220
0.0
230
1.0
 70
     8
 71
     3
 72
    39
 73
    35
 74
     0
 42
0.00000001
 43
0.00000001
 40
-0.094718484142245
 40
-0.0631148936934891
 40
-0.0313796573865747
 40
0.0
 40
0.0314236088732642
 40
0.0631736340506382
 40
0.0948059492734355
 40
0.1259955878889364
 40
0.1570099956926543
 40
0.1882258602346547
 40
0.2193355822921361
 40
0.2500197563318773
 40
0.2806409185479109
 40
0.3118127935696493
 40
0.3429773690883969
 40
0.3740019046473577
 40
0.4051510868094202
 40
0.4368626304854145
 40
0.4686894460529303
 40
0.5001577239641284
 40
0.5315486107022344
 40
0.5632961543732639
 40
0.5948624186784449
 40
0.6260286212253179
 40
0.6570471044111938
 40
0.6882488879822679
 40
0.719393022508111
 40
0.7500871189095023
 40
0.7807320181341603
 40
0.8119318546050643
 40
0.8431041879582993
 40
0.8741536748632119
 40
0.905281515857755
 40
0.9368851063065109
 40
0.9686203426134253
 40
1.0
 40
1.031423608873264
 40
1.063173634050638
 40
1.094805949273435
 10
2.813186758683471
 20
6.65324284825496
 30
0.0
 10
2.811400549691056
 20
6.671986698227843
 30
0.0
 10
2.813222238703262
 20
6.69072838332272
 30
0.0
 10
2.818675582567519
 20
6.708775339613096
 30
0.0
 10
2.827277010898399
 20
6.725468319829293
 30
0.0
 10
2.838917612270822
 20
6.740003463071345
 30
0.0
 10
2.853108429600623
 20
6.751937143422032
 30
0.0
 10
2.869420605717599
 20
6.760747680454472
 30
0.0
 10
2.887058520287577
 20
6.766336585549948
 30
0.0
 10
2.905380807021722
 20
6.76819597741907
 30
0.0
 10
2.92371739064428
 20
6.766347351087082
 30
0.0
 10
2.941342761389614
 20
6.760748600481516
 30
0.0
 10
2.957654183746581
 20
6.751930832140841
 30
0.0
 10
2.971832593728149
 20
6.740006952824981
 30
0.0
 10
2.983474035485553
 20
6.725459610460629
 30
0.0
 10
2.992073248874453
 20
6.708740084847197
 30
0.0
 10
2.997542019567525
 20
6.690656235901328
 30
0.0
 10
2.999353861168461
 20
6.671885606415463
 30
0.0
 10
2.997545504398621
 20
6.653130726121877
 30
0.0
 10
2.992083948182281
 20
6.635105764260498
 30
0.0
 10
2.98346966401779
 20
6.618439815783272
 30
0.0
 10
2.971817019083032
 20
6.603936144235963
 30
0.0
 10
2.957622624994672
 20
6.592018623291117
 30
0.0
 10
2.941307408620474
 20
6.583205374095871
 30
0.0
 10
2.923664511250795
 20
6.577610591081807
 30
0.0
 10
2.905327279316387
 20
6.575756447583016
 30
0.0
 10
2.886979777091977
 20
6.577622135706865
 30
0.0
 10
2.869348398953397
 20
6.583240718789766
 30
0.0
 10
2.853034721890849
 20
6.592079028041354
 30
0.0
 10
2.838861855904635
 20
6.604011533698561
 30
0.0
 10
2.827226029451095
 20
6.618536052220964
 30
0.0
 10
2.818636258442279
 20
6.635211524083541
 30
0.0
 10
2.813186758683471
 20
6.65324284825496
 30
0.0
 10
2.811400549691056
 20
6.671986698227843
 30
0.0
 10
2.813222238703262
 20
6.69072838332272
 30
0.0
  0
SPLINE
  5
174
330
1F
100
AcDbEntity
  8
0
  6
CONTINUOUS
 62
     7
100
AcDbSpline
210
0.0
220
0.0
230
1.0
 70
     8
 71
     3
 72
    39
 73
    35
 74
     0
 42
0.00000001
 43
0.00000001
 40
-0.0947184841421886
 40
-0.0631148936934888
 40
-0.031379657386574
 40
0.0
 40
0.03142360887306
 40
0.0631736340506306
 40
0.0948059492733454
 40
0.1259955878889406
 40
0.1570099956927328
 40
0.1882258602346531
 40
0.2193355822921058
 40
0.250019756331877
 40
0.2806409185478804
 40
0.3118127935696473
 40
0.3429773690883652
 40
0.3740019046473566
 40
0.4051510868093648
 40
0.4368626304854115
 40
0.4686894460529532
 40
0.5001577239641306
 40
0.5315486107023865
 40
0.5632961543732666
 40
0.5948624186785756
 40
0.6260286212253201
 40
0.6570471044111482
 40
0.6882488879822636
 40
0.7193930225080117
 40
0.7500871189095015
 40
0.7807320181341675
 40
0.8119318546050648
 40
0.843104187958363
 40
0.8741536748632146
 40
0.9052815158578112
 40
0.9368851063065111
 40
0.9686203426134259
 40
0.9999999999999999
 40
1.03142360887306
 40
1.063173634050631
 40
1.094805949273345
 10
3.655706443722844
 20
6.65324284825496
 30
0.0
 10
3.653920234730421
 20
6.671986698227803
 30
0.0
 10
3.65574192374266
 20
6.690728383322675
 30
0.0
 10
3.661195267606871
 20
6.708775339613041
 30
0.0
 10
3.669796695937711
 20
6.725468319829311
 30
0.0
 10
3.681437297310195
 20
6.740003463071341
 30
0.0
 10
3.695628114640019
 20
6.751937143422021
 30
0.0
 10
3.711940290756977
 20
6.760747680454479
 30
0.0
 10
3.729578205326941
 20
6.766336585549951
 30
0.0
 10
3.747900492061082
 20
6.76819597741907
 30
0.0
 10
3.766237075683644
 20
6.766347351087077
 30
0.0
 10
3.783862446428973
 20
6.760748600481522
 30
0.0
 10
3.800173868785949
 20
6.751930832140849
 30
0.0
 10
3.814352278767508
 20
6.740006952824994
 30
0.0
 10
3.82599372052491
 20
6.725459610460634
 30
0.0
 10
3.834592933913819
 20
6.708740084847203
 30
0.0
 10
3.840061704606921
 20
6.690656235901329
 30
0.0
 10
3.841873546207828
 20
6.671885606415429
 30
0.0
 10
3.840065189437987
 20
6.653130726121848
 30
0.0
 10
3.834603633221632
 20
6.635105764260446
 30
0.0
 10
3.825989349057142
 20
6.618439815783253
 30
0.0
 10
3.814336704122395
 20
6.603936144235946
 30
0.0
 10
3.800142310034032
 20
6.592018623291146
 30
0.0
 10
3.783827093659872
 20
6.583205374095879
 30
0.0
 10
3.766184196290188
 20
6.577610591081792
 30
0.0
 10
3.747846964355776
 20
6.575756447583019
 30
0.0
 10
3.729499462131346
 20
6.577622135706862
 30
0.0
 10
3.711868083992756
 20
6.583240718789773
 30
0.0
 10
3.695554406930205
 20
6.592079028041354
 30
0.0
 10
3.681381540943989
 20
6.604011533698577
 30
0.0
 10
3.669745714490468
 20
6.618536052220978
 30
0.0
 10
3.661155943481643
 20
6.635211524083552
 30
0.0
 10
3.655706443722844
 20
6.65324284825496
 30
0.0
 10
3.653920234730421
 20
6.671986698227803
 30
0.0
 10
3.65574192374266
 20
6.690728383322675
 30
0.0
  0
SPLINE
  5
175
330
1F
100
AcDbEntity
  8
0
  6
CONTINUOUS
 62
     7
100
AcDbSpline
210
0.0
220
0.0
230
1.0
 70
     8
 71
     3
 72
    26
 73
    22
 74
     0
 42
0.00000001
 43
0.00000001
 40
0.0
 40
0.0
 40
0.0
 40
0.0
 40
0.0157717622545569
 40
0.0698697359009919
 40
0.1222036559316335
 40
0.1760353807758611
 40
0.2287398429754016
 40
0.2829486693302667
 40
0.3360563399250546
 40
0.3907134902588033
 40
0.4436263125437981
 40
0.4981030579540738
 40
0.5505175179658904
 40
0.6044551569728481
 40
0.6568488643309265
 40
0.7107349849279807
 40
0.7636129621905575
 40
0.8180089847957925
 40
0.8711259447312011
 40
0.9258038485948136
 40
1.0
 40
1.0
 40
1.0
 40
1.0
 10
3.83033600626242
 20
7.234934531438012
 30
0.0
 10
3.830403931246043
 20
7.234944480291856
 30
0.0
 10
3.830704842494279
 20
7.234988554237388
 30
0.0
 10
3.828892316535187
 20
7.234722218604453
 30
0.0
 10
3.824881896380344
 20
7.234154349846185
 30
0.0
 10
3.818612262948681
 20
7.233321926924545
 30
0.0
 10
3.810338770020218
 20
7.232330903444122
 30
0.0
 10
3.800340971089186
 20
7.23129480135126
 30
0.0
 10
3.788732457664265
 20
7.230316475953914
 30
0.0
 10
3.776041255085105
 20
7.229524165274897
 30
0.0
 10
3.762430854959801
 20
7.228998138704406
 30
0.0
 10
3.748583070519593
 20
7.228807501014916
 30
0.0
 10
3.734635118302043
 20
7.228967061166233
 30
0.0
 10
3.721237454190314
 20
7.2294517713366
 30
0.0
 10
3.708480071829325
 20
7.230214386579199
 30
0.0
 10
3.696904135364115
 20
7.2311597325625
 30
0.0
 10
3.686630730519278
 20
7.232199085444782
 30
0.0
 10
3.678111144541229
 20
7.233204496250421
 30
0.0
 10
3.671538747241443
 20
7.234066687409841
 30
0.0
 10
3.666389947192325
 20
7.234794807608174
 30
0.0
 10
3.665646691955252
 20
7.234905523104674
 30
0.0
 10
3.665218780549907
 20
7.234969264900679
 30
0.0
  0
SPLINE
  5
176
330
1F
100
AcDbEntity
  8
0
  6
CONTINUOUS
 62
     7
100
AcDbSpline
210
0.0
220
0.0
230
1.0
 70
     8
 71
     3
 72
    26
 73
    22
 74
     0
 42
0.00000001
 43
0.00000001
 40
0.0
 40
0.0
 40
0.0
 40
0.0
 40
0.0157717622545569
 40
0.0698697359009919
 40
0.1222036559316335
 40
0.1760353807758611
 40
0.2287398429754016
 40
0.2829486693302667
 40
0.3360563399250546
 40
0.3907134902588033
 40
0.4436263125437981
 40
0.4981030579540738
 40
0.5505175179658904
 40
0.6044551569728481
 40
0.6568488643309265
 40
0.7107349849279807
 40
0.7636129621905575
 40
0.8180089847957925
 40
0.8711259447312011
 40
0.9258038485948136
 40
1.0
 40
1.0
 40
1.0
 40
1.0
 10
2.987816321223049
 20
7.234934531438012
 30
0.0
 10
2.987884246206673
 20
7.234944480291856
 30
0.0
 10
2.988185157454908
 20
7.234988554237388
 30
0.0
 10
2.986372631495816
 20
7.234722218604452
 30
0.0
 10
2.982362211340974
 20
7.234154349846185
 30
0.0
 10
2.97609257790931
 20
7.233321926924545
 30
0.0
 10
2.967819084980847
 20
7.232330903444122
 30
0.0
 10
2.957821286049815
 20
7.23129480135126
 30
0.0
 10
2.946212772624894
 20
7.230316475953914
 30
0.0
 10
2.933521570045735
 20
7.229524165274897
 30
0.0
 10
2.919911169920431
 20
7.228998138704406
 30
0.0
 10
2.906063385480222
 20
7.228807501014916
 30
0.0
 10
2.892115433262672
 20
7.228967061166233
 30
0.0
 10
2.878717769150943
 20
7.2294517713366
 30
0.0
 10
2.865960386789954
 20
7.230214386579199
 30
0.0
 10
2.854384450324745
 20
7.2311597325625
 30
0.0
 10
2.844111045479907
 20
7.232199085444782
 30
0.0
 10
2.835591459501859
 20
7.233204496250421
 30
0.0
 10
2.829019062202073
 20
7.234066687409841
 30
0.0
 10
2.823870262152955
 20
7.234794807608174
 30
0.0
 10
2.823127006915882
 20
7.234905523104674
 30
0.0
 10
2.822699095510536
 20
7.234969264900679
 30
0.0
  0
SPLINE
  5
177
330
1F
100
AcDbEntity
  8
0
  6
CONTINUOUS
 62
     7
100
AcDbSpline
210
0.0
220
0.0
230
1.0
 70
     8
 71
     3
 72
     9
 73
     5
 74
     0
 42
0.00000001
 43
0.00000001
 40
0.0
 40
0.0
 40
0.0
 40
0.0
 40
0.9952920432237218
 40
0.9999999999999999
 40
0.9999999999999999
 40
0.9999999999999999
 40
0.9999999999999999
 10
2.822699095510536
 20
6.671977138916426
 30
0.0
 10
2.822680304848978
 20
6.66751570190779
 30
0.0
 10
2.822661425303334
 20
6.663033161291686
 30
0.0
 10
2.823768480560902
 20
6.65874637706337
 30
0.0
 10
2.823773692529203
 20
6.658726195068513
 30
0.0
  0
ARC
  5
178
330
1F
100
AcDbEntity
  8
0
  6
CONTINUOUS
 62
     7
100
AcDbCircle
 10
2.9053742755
 20
6.6719792104
 30
0.0
 40
0.0826751799716779
100
AcDbArc
 50
359.9688286812
 51
180.001435605
  0
SPLINE
  5
179
330
1F
100
AcDbEntity
  8
0
  6
CONTINUOUS
 62
     7
100
AcDbSpline
210
0.0
220
0.0
230
1.0
 70
     8
 71
     3
 72
    32
 73
    28
 74
     0
 42
0.00000001
 43
0.00000001
 40
-0.0881855841564424
 40
-0.0549139779914996
 40
-0.0255242111049331
 40
0.0
 40
0.0546885612513425
 40
0.1245753555836346
 40
0.1619374893852947
 40
0.1952725200608789
 40
0.2245891782759572
 40
0.249903413329676
 40
0.3043583288210901
 40
0.3745950645394106
 40
0.4117390851205189
 40
0.4449847313293021
 40
0.4743412583948391
 40
0.4998249107651266
 40
0.554670591180222
 40
0.6247338078302239
 40
0.6620516134712174
 40
0.6953566079371606
 40
0.7246576096419696
 40
0.7499706474693718
 40
0.7500003075669784
 40
0.8044438875307695
 40
0.8746516664675019
 40
0.9118144158435576
 40
0.9450860220085004
 40
0.9744757888950669
 40
1.0
 40
1.054688561251343
 40
1.124575355583635
 40
1.161937489385295
 10
3.665982348158413
 20
6.685889736585478
 30
0.0
 10
3.664456394364473
 20
6.66694261133357
 30
0.0
 10
3.668952067958537
 20
6.640862590159744
 30
0.0
 10
3.684442211803975
 20
6.616488163159921
 30
0.0
 10
3.703573411065
 20
6.601387031780328
 30
0.0
 10
3.719226587797788
 20
6.593859272415048
 30
0.0
 10
3.734017484035068
 20
6.59006197208717
 30
0.0
 10
3.752874192964025
 20
6.588544152699242
 30
0.0
 10
3.778938003808713
 20
6.59299949609836
 30
0.0
 10
3.803322465425412
 20
6.608461505092667
 30
0.0
 10
3.818437025220594
 20
6.627587921120692
 30
0.0
 10
3.825968699451147
 20
6.643187512386112
 30
0.0
 10
3.829796191712266
 20
6.657992841164076
 30
0.0
 10
3.831342105222113
 20
6.676952471801377
 30
0.0
 10
3.826853727700979
 20
6.703089606313207
 30
0.0
 10
3.81132137025086
 20
6.727504988634534
 30
0.0
 10
3.792164267731951
 20
6.7425998712235
 30
0.0
 10
3.776518554145798
 20
6.750110623548709
 30
0.0
 10
3.761739655972861
 20
6.753899177753567
 30
0.0
 10
3.752280589002023
 20
6.754653896125241
 30
0.0
 10
3.738492578015999
 20
6.754655181101084
 30
0.0
 10
3.716802442493164
 20
6.750936102602433
 30
0.0
 10
3.692441842602364
 20
6.735466884082744
 30
0.0
 10
3.677331544283342
 20
6.716331329180649
 30
0.0
 10
3.669803100108844
 20
6.700714998397244
 30
0.0
 10
3.665982348158413
 20
6.685889736585478
 30
0.0
 10
3.664456394364473
 20
6.66694261133357
 30
0.0
 10
3.668952067958537
 20
6.640862590159744
 30
0.0
  0
LINE
  5
17A
330
1F
100
AcDbEntity
  8
0
  6
CONTINUOUS
 62
     7
100
AcDbLine
 10
2.7636439774
 20
6.1239850129
 30
0.0
 11
2.7636439774
 21
7.2199692649
 31
0.0
  0
LINE
  5
17B
330
1F
100
AcDbEntity
  8
0
  6
CONTINUOUS
 62
     7
100
AcDbLine
 10
3.8896282294
 20
7.2199692649
 30
0.0
 11
3.8896282294
 21
6.1239850129
 31
0.0
  0
LINE
  5
17C
330
1F
100
AcDbEntity
  8
0
  6
CONTINUOUS
 62
     7
100
AcDbLine
 10
3.6752187805
 20
7.2349692649
 30
0.0
 11
3.8205731113
 21
7.2349692649
 31
0.0
  0
LINE
  5
17D
330
1F
100
AcDbEntity
  8
0
  6
CONTINUOUS
 62
     7
100
AcDbLine
 10
2.9780534262
 20
7.2349692649
 30
0.0
 11
2.8326990955
 21
7.2349692649
 31
0.0
  0
CIRCLE
  5
17E
330
1F
100
AcDbEntity
  8
0
  6
CONTINUOUS
 62
     7
100
AcDbCircle
 10
2.9053762609
 20
6.6719771389
 30
0.0
 40
0.0726771653543303
  0
LINE
  5
17F
330
1F
100
AcDbEntity
  8
0
  6
CONTINUOUS
 62
     7
100
AcDbLine
 10
2.8638317925
 20
6.6479914289
 30
0.0
 11
2.8638317925
 21
6.6959628489
 31
0.0
  0
LINE
  5
180
330
1F
100
AcDbEntity
  8
0
  6
CONTINUOUS
 62
     7
100
AcDbLine
 10
2.9053762609
 20
6.6240057189
 30
0.0
 11
2.8638317925
 21
6.6479914289
 31
0.0
  0
LINE
  5
181
330
1F
100
AcDbEntity
  8
0
  6
CONTINUOUS
 62
     7
100
AcDbLine
 10
2.9469207292
 20
6.6479914289
 30
0.0
 11
2.9053762609
 21
6.6240057189
 31
0.0
  0
LINE
  5
182
330
1F
100
AcDbEntity
  8
0
  6
CONTINUOUS
 62
     7
100
AcDbLine
 10
2.9469207292
 20
6.6959628489
 30
0.0
 11
2.9469207292
 21
6.6479914289
 31
0.0
  0
LINE
  5
183
330
1F
100
AcDbEntity
  8
0
  6
CONTINUOUS
 62
     7
100
AcDbLine
 10
2.9053762609
 20
6.7199485589
 30
0.0
 11
2.9469207292
 21
6.6959628489
 31
0.0
  0
LINE
  5
184
330
1F
100
AcDbEntity
  8
0
  6
CONTINUOUS
 62
     7
100
AcDbLine
 10
2.8638317925
 20
6.6959628489
 30
0.0
 11
2.9053762609
 21
6.7199485589
 31
0.0
  0
CIRCLE
  5
185
330
1F
100
AcDbEntity
  8
0
  6
CONTINUOUS
 62
     7
100
AcDbCircle
 10
2.9053762609
 20
6.6719771389
 30
0.0
 40
0.0826771653543301
  0
CIRCLE
  5
186
330
1F
100
AcDbEntity
  8
0
  6
CONTINUOUS
 62
     7
100
AcDbCircle
 10
3.7478959459
 20
6.6719771389
 30
0.0
 40
0.0726771653543303
  0
LINE
  5
187
330
1F
100
AcDbEntity
  8
0
  6
CONTINUOUS
 62
     7
100
AcDbLine
 10
3.7478959459
 20
6.7199485589
 30
0.0
 11
3.7063514775
 21
6.6959628489
 31
0.0
  0
LINE
  5
188
330
1F
100
AcDbEntity
  8
0
  6
CONTINUOUS
 62
     7
100
AcDbLine
 10
3.7063514775
 20
6.6959628489
 30
0.0
 11
3.7063514775
 21
6.6479914289
 31
0.0
  0
LINE
  5
189
330
1F
100
AcDbEntity
  8
0
  6
CONTINUOUS
 62
     7
100
AcDbLine
 10
3.7063514775
 20
6.6479914289
 30
0.0
 11
3.7478959459
 21
6.6240057189
 31
0.0
  0
LINE
  5
18A
330
1F
100
AcDbEntity
  8
0
  6
CONTINUOUS
 62
     7
100
AcDbLine
 10
3.7478959459
 20
6.6240057189
 30
0.0
 11
3.7894404143
 21
6.6479914289
 31
0.0
  0
LINE
  5
18B
330
1F
100
AcDbEntity
  8
0
  6
CONTINUOUS
 62
     7
100
AcDbLine
 10
3.7894404143
 20
6.6479914289
 30
0.0
 11
3.7894404143
 21
6.6959628489
 31
0.0
  0
LINE
  5
18C
330
1F
100
AcDbEntity
  8
0
  6
CONTINUOUS
 62
     7
100
AcDbLine
 10
3.7894404143
 20
6.6959628489
 30
0.0
 11
3.7478959459
 21
6.7199485589
 31
0.0
  0
CIRCLE
  5
18D
330
1F
100
AcDbEntity
  8
0
  6
CONTINUOUS
 62
     7
100
AcDbCircle
 10
3.7478959459
 20
6.6719771389
 30
0.0
 40
0.0826771653543306
  0
SPLINE
  5
18E
330
1F
100
AcDbEntity
  8
0
  6
HIDDEN
 62
     7
100
AcDbSpline
210
0.0
220
0.0
230
1.0
 70
     8
 71
     3
 72
    23
 73
    19
 74
     0
 42
0.00000001
 43
0.00000001
 40
0.0
 40
0.0
 40
0.0
 40
0.0
 40
0.0615030427461663
 40
0.1313672254022009
 40
0.2093584396529295
 40
0.2879262343283533
 40
0.3580255455592861
 40
0.4196747328201504
 40
0.4729073354496569
 40
0.5261869935540718
 40
0.5878516560938228
 40
0.6579351570307813
 40
0.7364561354733702
 40
0.8145652659079821
 40
0.8844766130233116
 40
0.946209639383831
 40
0.999798504988581
 40
0.9999999999999999
 40
0.9999999999999999
 40
0.9999999999999999
 40
0.9999999999999999
 10
2.823773692529203
 20
6.658726195068513
 30
0.0
 10
2.824849570823003
 20
6.653778242396753
 30
0.0
 10
2.827147589587868
 20
6.643209678877169
 30
0.0
 10
2.834832750414654
 20
6.627666530829531
 30
0.0
 10
2.846363960396026
 20
6.612989408219131
 30
0.0
 10
2.861058736762348
 20
6.601381175776599
 30
0.0
 10
2.87670645361648
 20
6.593860726386823
 30
0.0
 10
2.891495863218099
 20
6.59006118771986
 30
0.0
 10
2.905327977848171
 20
6.588950990085932
 30
0.0
 10
2.919163017325165
 20
6.590044880041499
 30
0.0
 10
2.933959997573023
 20
6.59382946077305
 30
0.0
 10
2.949614644340437
 20
6.601330540170593
 30
0.0
 10
2.964317368976136
 20
6.612927189525637
 30
0.0
 10
2.975904287732939
 20
6.627588762001897
 30
0.0
 10
2.983508409513953
 20
6.643191058847165
 30
0.0
 10
2.987089456534652
 20
6.657980556813749
 30
0.0
 10
2.988401794311684
 20
6.667511963089956
 30
0.0
 10
2.988050758150213
 20
6.671917727954719
 30
0.0
 10
2.988049443192764
 20
6.671934231648533
 30
0.0
  0
LINE
  5
18F
330
1F
100
AcDbEntity
  8
0
  6
HIDDEN
 62
     7
100
AcDbLine
 10
3.3766361034
 20
6.8050873751
 30
0.0
 11
3.3766361034
 21
6.5388669027
 31
0.0
  0
LINE
  5
190
330
1F
100
AcDbEntity
  8
0
  6
HIDDEN
 62
     7
100
AcDbLine
 10
3.2766361034
 20
6.8050873751
 30
0.0
 11
3.2766361034
 21
6.5388669027
 31
0.0
  0
SPLINE
  5
191
330
1F
100
AcDbEntity
  8
0
  6
HIDDEN
 62
     7
100
AcDbSpline
210
0.0
220
0.0
230
1.0
 70
     8
 71
     3
 72
    29
 73
    25
 74
     0
 42
0.00000001
 43
0.00000001
 40
0.0
 40
0.0
 40
0.0
 40
0.0
 40
0.0449008228998418
 40
0.0912657753496402
 40
0.1361330286274912
 40
0.182113671758937
 40
0.2310727294778934
 40
0.2810673073550399
 40
0.3383797110266412
 40
0.3974316005783115
 40
0.4368960644863074
 40
0.4773889544303978
 40
0.5169052983027024
 40
0.5577509315369575
 40
0.5949327045784565
 40
0.6328635621153075
 40
0.6895938858448679
 40
0.7479506338156302
 40
0.8052816760452894
 40
0.8644038870319847
 40
0.9090820956552724
 40
0.954992204894252
 40
0.9997084671911457
 40
1.0
 40
1.0
 40
1.0
 40
1.0
 10
3.665218780549907
 20
6.790087375136899
 30
0.0
 10
3.665391475480149
 20
6.789966162648567
 30
0.0
 10
3.665742496590445
 20
6.789719785165589
 30
0.0
 10
3.668534016373925
 20
6.787781262364055
 30
0.0
 10
3.672850150893422
 20
6.78485673519862
 30
0.0
 10
3.67874812071974
 20
6.781005544689875
 30
0.0
 10
3.686235832952036
 20
6.776387874988068
 30
0.0
 10
3.695677367502543
 20
6.771052543314666
 30
0.0
 10
3.70716580043442
 20
6.765408849265961
 30
0.0
 10
3.719315746273101
 20
6.760779008065461
 30
0.0
 10
3.731067531449459
 20
6.757784369918387
 30
0.0
 10
3.741670167974943
 20
6.756324078808312
 30
0.0
 10
3.752603707200902
 20
6.75622176444805
 30
0.0
 10
3.76308465956659
 20
6.75748404170883
 30
0.0
 10
3.772977393068598
 20
6.759822570983903
 30
0.0
 10
3.783577431413319
 20
6.763366068584802
 30
0.0
 10
3.794835216143476
 20
6.768319305018396
 30
0.0
 10
3.805969376703116
 20
6.774266295856281
 30
0.0
 10
3.815557954325663
 20
6.780040910853946
 30
0.0
 10
3.822560908579211
 20
6.784597901888922
 30
0.0
 10
3.827333041167918
 20
6.787833771093399
 30
0.0
 10
3.829818869002919
 20
6.789558575676334
 30
0.0
 10
3.830871775203264
 20
6.790295841645944
 30
0.0
 10
3.83056918853414
 20
6.790084637060853
 30
0.0
 10
3.830567228563842
 20
6.790083269007479
 30
0.0
  0
SPLINE
  5
192
330
1F
100
AcDbEntity
  8
0
  6
HIDDEN
 62
     7
100
AcDbSpline
210
0.0
220
0.0
230
1.0
 70
     8
 71
     3
 72
    29
 73
    25
 74
     0
 42
0.00000001
 43
0.00000001
 40
0.0
 40
0.0
 40
0.0
 40
0.0
 40
0.0449008228998418
 40
0.0912657753496402
 40
0.1361330286274912
 40
0.182113671758937
 40
0.2310727294778934
 40
0.2810673073550399
 40
0.3383797110266412
 40
0.3974316005783115
 40
0.4368960644863074
 40
0.4773889544303978
 40
0.5169052983027024
 40
0.5577509315369575
 40
0.5949327045784565
 40
0.6328635621153075
 40
0.6895938858448679
 40
0.7479506338156302
 40
0.8052816760452894
 40
0.8644038870319847
 40
0.9090820956552724
 40
0.954992204894252
 40
0.9997084671911457
 40
1.0
 40
1.0
 40
1.0
 40
1.0
 10
2.822699095510536
 20
6.790087375136899
 30
0.0
 10
2.822871790440778
 20
6.789966162648567
 30
0.0
 10
2.823222811551075
 20
6.789719785165589
 30
0.0
 10
2.826014331334555
 20
6.787781262364055
 30
0.0
 10
2.830330465854052
 20
6.78485673519862
 30
0.0
 10
2.836228435680369
 20
6.781005544689875
 30
0.0
 10
2.843716147912666
 20
6.776387874988068
 30
0.0
 10
2.853157682463173
 20
6.771052543314666
 30
0.0
 10
2.86464611539505
 20
6.765408849265961
 30
0.0
 10
2.876796061233731
 20
6.760779008065461
 30
0.0
 10
2.888547846410089
 20
6.757784369918387
 30
0.0
 10
2.899150482935573
 20
6.756324078808312
 30
0.0
 10
2.910084022161532
 20
6.75622176444805
 30
0.0
 10
2.92056497452722
 20
6.75748404170883
 30
0.0
 10
2.930457708029227
 20
6.759822570983903
 30
0.0
 10
2.941057746373949
 20
6.763366068584802
 30
0.0
 10
2.952315531104105
 20
6.768319305018396
 30
0.0
 10
2.963449691663746
 20
6.774266295856281
 30
0.0
 10
2.973038269286293
 20
6.780040910853946
 30
0.0
 10
2.980041223539841
 20
6.784597901888922
 30
0.0
 10
2.984813356128547
 20
6.787833771093399
 30
0.0
 10
2.987299183963551
 20
6.789558575676334
 30
0.0
 10
2.988352090163889
 20
6.790295841645944
 30
0.0
 10
2.98804950349477
 20
6.790084637060853
 30
0.0
 10
2.988047543524472
 20
6.790083269007479
 30
0.0
  0
LINE
  5
193
330
1F
100
AcDbEntity
  8
0
  6
HIDDEN
 62
     7
100
AcDbLine
 10
3.8305731113
 20
7.2249692649
 30
0.0
 11
3.6652187805
 21
7.2249692649
 31
0.0
  0
LINE
  5
194
330
1F
100
AcDbEntity
  8
0
  6
HIDDEN
 62
     7
100
AcDbLine
 10
3.6652187805
 20
6.8000873751
 30
0.0
 11
3.8305731113
 21
6.8000873751
 31
0.0
  0
LINE
  5
195
330
1F
100
AcDbEntity
  8
0
  6
HIDDEN
 62
     7
100
AcDbLine
 10
3.8205731113
 20
6.7900873751
 30
0.0
 11
3.6752187805
 21
6.7900873751
 31
0.0
  0
LINE
  5
196
330
1F
100
AcDbEntity
  8
0
  6
HIDDEN
 62
     7
100
AcDbLine
 10
3.7478959459
 20
7.1849692649
 30
0.0
 11
3.7478959459
 21
7.2349692649
 31
0.0
  0
LINE
  5
197
330
1F
100
AcDbEntity
  8
0
  6
HIDDEN
 62
     7
100
AcDbLine
 10
3.7063514775
 20
7.1849692649
 30
0.0
 11
3.7478959459
 21
7.1849692649
 31
0.0
  0
LINE
  5
198
330
1F
100
AcDbEntity
  8
0
  6
HIDDEN
 62
     7
100
AcDbLine
 10
3.7478959459
 20
7.1849692649
 30
0.0
 11
3.7894404143
 21
7.1849692649
 31
0.0
  0
LINE
  5
199
330
1F
100
AcDbEntity
  8
0
  6
HIDDEN
 62
     7
100
AcDbLine
 10
3.7894404143
 20
7.1849692649
 30
0.0
 11
3.7894404143
 21
7.2349692649
 31
0.0
  0
LINE
  5
19A
330
1F
100
AcDbEntity
  8
0
  6
HIDDEN
 62
     7
100
AcDbLine
 10
3.7063514775
 20
7.1849692649
 30
0.0
 11
3.7063514775
 21
7.2349692649
 31
0.0
  0
LINE
  5
19B
330
1F
100
AcDbEntity
  8
0
  6
HIDDEN
 62
     7
100
AcDbLine
 10
2.8226990955
 20
7.2249692649
 30
0.0
 11
2.9880534262
 21
7.2249692649
 31
0.0
  0
LINE
  5
19C
330
1F
100
AcDbEntity
  8
0
  6
HIDDEN
 62
     7
100
AcDbLine
 10
2.9880534262
 20
6.8000873751
 30
0.0
 11
2.8226990955
 21
6.8000873751
 31
0.0
  0
LINE
  5
19D
330
1F
100
AcDbEntity
  8
0
  6
HIDDEN
 62
     7
100
AcDbLine
 10
2.8326990955
 20
6.7900873751
 30
0.0
 11
2.9780534262
 21
6.7900873751
 31
0.0
  0
LINE
  5
19E
330
1F
100
AcDbEntity
  8
0
  6
HIDDEN
 62
     7
100
AcDbLine
 10
2.9053762609
 20
7.1849692649
 30
0.0
 11
2.9053762609
 21
7.2349692649
 31
0.0
  0
LINE
  5
19F
330
1F
100
AcDbEntity
  8
0
  6
HIDDEN
 62
     7
100
AcDbLine
 10
2.9053762609
 20
7.1849692649
 30
0.0
 11
2.8638317925
 21
7.1849692649
 31
0.0
  0
LINE
  5
1A0
330
1F
100
AcDbEntity
  8
0
  6
HIDDEN
 62
     7
100
AcDbLine
 10
2.9469207292
 20
7.1849692649
 30
0.0
 11
2.9053762609
 21
7.1849692649
 31
0.0
  0
LINE
  5
1A1
330
1F
100
AcDbEntity
  8
0
  6
HIDDEN
 62
     7
100
AcDbLine
 10
2.8638317925
 20
7.1849692649
 30
0.0
 11
2.8638317925
 21
7.2349692649
 31
0.0
  0
LINE
  5
1A2
330
1F
100
AcDbEntity
  8
0
  6
HIDDEN
 62
     7
100
AcDbLine
 10
2.9469207292
 20
7.1849692649
 30
0.0
 11
2.9469207292
 21
7.2349692649
 31
0.0
  0
LINE
  5
1A3
330
1F
100
AcDbEntity
  8
0
  6
HIDDEN
 62
     7
100
AcDbLine
 10
3.8896282294
 20
6.8050873751
 30
0.0
 11
3.8746282294
 21
6.7900873751
 31
0.0
  0
LINE
  5
1A4
330
1F
100
AcDbEntity
  8
0
  6
HIDDEN
 62
     7
100
AcDbLine
 10
3.8746282294
 20
6.5538669027
 30
0.0
 11
3.8896282294
 21
6.5388669027
 31
0.0
  0
LINE
  5
1A5
330
1F
100
AcDbEntity
  8
0
  6
HIDDEN
 62
     7
100
AcDbLine
 10
3.3766361034
 20
6.8050873751
 30
0.0
 11
3.2766361034
 21
6.8050873751
 31
0.0
  0
LINE
  5
1A6
330
1F
100
AcDbEntity
  8
0
  6
HIDDEN
 62
     7
100
AcDbLine
 10
3.2766361034
 20
6.5388669027
 30
0.0
 11
3.3766361034
 21
6.5388669027
 31
0.0
  0
LINE
  5
1A7
330
1F
100
AcDbEntity
  8
0
  6
HIDDEN
 62
     7
100
AcDbLine
 10
2.7636439774
 20
6.5388669027
 30
0.0
 11
2.7786439774
 21
6.5538669027
 31
0.0
  0
LINE
  5
1A8
330
1F
100
AcDbEntity
  8
0
  6
HIDDEN
 62
     7
100
AcDbLine
 10
2.7786439774
 20
6.7900873751
 30
0.0
 11
2.7636439774
 21
6.8050873751
 31
0.0
  0
LINE
  5
1A9
330
1F
100
AcDbEntity
  8
0
  6
HIDDEN
 62
     7
100
AcDbLine
 10
3.6652187805
 20
6.7900873751
 30
0.0
 11
3.3766361034
 21
6.7900873751
 31
0.0
  0
LINE
  5
1AA
330
1F
100
AcDbEntity
  8
0
  6
HIDDEN
 62
     7
100
AcDbLine
 10
3.8746282294
 20
6.7900873751
 30
0.0
 11
3.8305672286
 21
6.7900873751
 31
0.0
  0
LINE
  5
1AB
330
1F
100
AcDbEntity
  8
0
  6
HIDDEN
 62
     7
100
AcDbLine
 10
3.3766361034
 20
6.5538669027
 30
0.0
 11
3.8746282294
 21
6.5538669027
 31
0.0
  0
LINE
  5
1AC
330
1F
100
AcDbEntity
  8
0
  6
HIDDEN
 62
     7
100
AcDbLine
 10
2.8226990955
 20
6.7900873751
 30
0.0
 11
2.7786439774
 21
6.7900873751
 31
0.0
  0
LINE
  5
1AD
330
1F
100
AcDbEntity
  8
0
  6
HIDDEN
 62
     7
100
AcDbLine
 10
3.2766361034
 20
6.7900873751
 30
0.0
 11
2.9880475435
 21
6.7900873751
 31
0.0
  0
LINE
  5
1AE
330
1F
100
AcDbEntity
  8
0
  6
HIDDEN
 62
     7
100
AcDbLine
 10
2.7786439774
 20
6.5538669027
 30
0.0
 11
3.2766361034
 21
6.5538669027
 31
0.0
  0
LINE
  5
1AF
330
1F
100
AcDbEntity
  8
0
  6
HIDDEN
 62
     7
100
AcDbLine
 10
3.8305731113
 20
6.7900832807
 30
0.0
 11
3.8305731113
 21
7.2349692649
 31
0.0
  0
LINE
  5
1B0
330
1F
100
AcDbEntity
  8
0
  6
HIDDEN
 62
     7
100
AcDbLine
 10
3.6652187805
 20
7.2349692649
 30
0.0
 11
3.6652187805
 21
6.7900873751
 31
0.0
  0
LINE
  5
1B1
330
1F
100
AcDbEntity
  8
0
  6
HIDDEN
 62
     7
100
AcDbLine
 10
2.9880534262
 20
6.7900832807
 30
0.0
 11
2.9880534262
 21
7.2349692649
 31
0.0
  0
LINE
  5
1B2
330
1F
100
AcDbEntity
  8
0
  6
HIDDEN
 62
     7
100
AcDbLine
 10
2.8226990955
 20
7.2349692649
 30
0.0
 11
2.8226990955
 21
6.7900873751
 31
0.0
  0
LINE
  5
1B3
330
1F
100
AcDbEntity
  8
0
  6
HIDDEN
 62
     7
100
AcDbLine
 10
3.8305731113
 20
7.2249692649
 30
0.0
 11
3.8217875205
 21
7.2337548556
 31
0.0
  0
LINE
  5
1B4
330
1F
100
AcDbEntity
  8
0
  6
HIDDEN
 62
     7
100
AcDbLine
 10
3.6740038673
 20
7.2337543517
 30
0.0
 11
3.6652187805
 21
7.2249692649
 31
0.0
  0
LINE
  5
1B5
330
1F
100
AcDbEntity
  8
0
  6
HIDDEN
 62
     7
100
AcDbLine
 10
3.8305731113
 20
6.8000873751
 30
0.0
 11
3.8305731113
 21
7.2249692649
 31
0.0
  0
LINE
  5
1B6
330
1F
100
AcDbEntity
  8
0
  6
HIDDEN
 62
     7
100
AcDbLine
 10
3.6652187805
 20
7.2249692649
 30
0.0
 11
3.6652187805
 21
6.8000873751
 31
0.0
  0
LINE
  5
1B7
330
1F
100
AcDbEntity
  8
0
  6
HIDDEN
 62
     7
100
AcDbLine
 10
3.6652187805
 20
6.8000873751
 30
0.0
 11
3.6752187805
 21
6.7900873751
 31
0.0
  0
LINE
  5
1B8
330
1F
100
AcDbEntity
  8
0
  6
HIDDEN
 62
     7
100
AcDbLine
 10
3.8205731113
 20
6.7900873751
 30
0.0
 11
3.8305731113
 21
6.8000873751
 31
0.0
  0
LINE
  5
1B9
330
1F
100
AcDbEntity
  8
0
  6
HIDDEN
 62
     7
100
AcDbLine
 10
2.9880534262
 20
7.2249692649
 30
0.0
 11
2.9792678355
 21
7.2337548556
 31
0.0
  0
LINE
  5
1BA
330
1F
100
AcDbEntity
  8
0
  6
HIDDEN
 62
     7
100
AcDbLine
 10
2.8314841823
 20
7.2337543517
 30
0.0
 11
2.8226990955
 21
7.2249692649
 31
0.0
  0
LINE
  5
1BB
330
1F
100
AcDbEntity
  8
0
  6
HIDDEN
 62
     7
100
AcDbLine
 10
2.9880534262
 20
6.8000873751
 30
0.0
 11
2.9880534262
 21
7.2249692649
 31
0.0
  0
LINE
  5
1BC
330
1F
100
AcDbEntity
  8
0
  6
HIDDEN
 62
     7
100
AcDbLine
 10
2.8226990955
 20
7.2249692649
 30
0.0
 11
2.8226990955
 21
6.8000873751
 31
0.0
  0
LINE
  5
1BD
330
1F
100
AcDbEntity
  8
0
  6
HIDDEN
 62
     7
100
AcDbLine
 10
2.8226990955
 20
6.8000873751
 30
0.0
 11
2.8326990955
 21
6.7900873751
 31
0.0
  0
LINE
  5
1BE
330
1F
100
AcDbEntity
  8
0
  6
HIDDEN
 62
     7
100
AcDbLine
 10
2.9780534262
 20
6.7900873751
 30
0.0
 11
2.9880534262
 21
6.8000873751
 31
0.0
  0
LINE
  5
1BF
330
1F
100
AcDbEntity
  8
0
  6
CONTINUOUS
 62
     7
100
AcDbLine
 10
8.561094039
 20
6.167478317
 30
0.0
 11
8.5716989169
 21
6.1736023731
 31
0.0
  0
LINE
  5
1C0
330
1F
100
AcDbEntity
  8
0
  6
CONTINUOUS
 62
     7
100
AcDbLine
 10
8.9591248874
 20
6.8447165547
 30
0.0
 11
8.9591248874
 21
6.8569626764
 31
0.0
  0
LINE
  5
1C1
330
1F
100
AcDbEntity
  8
0
  6
CONTINUOUS
 62
     7
100
AcDbLine
 10
7.5045782541
 20
6.5869535337
 30
0.0
 11
8.2795561508
 21
6.1395683169
 31
0.0
  0
LINE
  5
1C2
330
1F
100
AcDbEntity
  8
0
  6
CONTINUOUS
 62
     7
100
AcDbLine
 10
8.8425025239
 20
7.1147256973
 30
0.0
 11
8.0675246272
 21
7.5621109142
 31
0.0
  0
LINE
  5
1C3
330
1F
100
AcDbEntity
  8
0
  6
CONTINUOUS
 62
     7
100
AcDbLine
 10
7.785986739
 20
7.534200914
 30
0.0
 11
7.7753818611
 21
7.528076858
 31
0.0
  0
LINE
  5
1C4
330
1F
100
AcDbEntity
  8
0
  6
CONTINUOUS
 62
     7
100
AcDbLine
 10
7.3879558906
 20
6.8569626764
 30
0.0
 11
7.3879558906
 21
6.8447165547
 31
0.0
  0
LINE
  5
1C5
330
1F
100
AcDbEntity
  8
0
  6
CONTINUOUS
 62
     7
100
AcDbLine
 10
8.5549242768
 20
6.6677536676
 30
0.0
 11
8.5619941954
 21
6.6636709636
 31
0.0
  0
LINE
  5
1C6
330
1F
100
AcDbEntity
  8
0
  6
CONTINUOUS
 62
     7
100
AcDbLine
 10
7.9341357813
 20
7.5080839008
 30
0.0
 11
7.9270635645
 21
7.5121679318
 31
0.0
  0
LINE
  5
1C7
330
1F
100
AcDbEntity
  8
0
  6
CONTINUOUS
 62
     7
100
AcDbLine
 10
7.8242658309
 20
7.5121679318
 30
0.0
 11
7.8171936141
 21
7.5080839008
 31
0.0
  0
LINE
  5
1C8
330
1F
100
AcDbEntity
  8
0
  6
CONTINUOUS
 62
     7
100
AcDbLine
 10
7.9583418631
 20
7.466808842
 30
0.0
 11
7.9583418631
 21
7.4743402314
 31
0.0
  0
LINE
  5
1C9
330
1F
100
AcDbEntity
  8
0
  6
CONTINUOUS
 62
     7
100
AcDbLine
 10
7.7929875324
 20
7.4743402314
 30
0.0
 11
7.7929875324
 21
7.466330108
 31
0.0
  0
LINE
  5
1CA
330
1F
100
AcDbEntity
  8
0
  6
CONTINUOUS
 62
     7
100
AcDbLine
 10
8.5298871639
 20
7.1641639482
 30
0.0
 11
8.5228149471
 21
7.1682479792
 31
0.0
  0
LINE
  5
1CB
330
1F
100
AcDbEntity
  8
0
  6
CONTINUOUS
 62
     7
100
AcDbLine
 10
8.4200172135
 20
7.1682479792
 30
0.0
 11
8.4129449967
 21
7.1641639482
 31
0.0
  0
LINE
  5
1CC
330
1F
100
AcDbEntity
  8
0
  6
CONTINUOUS
 62
     7
100
AcDbLine
 10
8.5540932456
 20
7.123282787
 30
0.0
 11
8.5540932456
 21
7.1304202787
 31
0.0
  0
LINE
  5
1CD
330
1F
100
AcDbEntity
  8
0
  6
CONTINUOUS
 62
     7
100
AcDbLine
 10
8.3887389149
 20
7.1304202787
 30
0.0
 11
8.3887389149
 21
7.1224101553
 31
0.0
  0
POLYLINE
  5
1CE
330
1F
100
AcDbEntity
  8
0
  6
CONTINUOUS
 62
     7
100
AcDb2dPolyline
 66
     1
 10
0.0
 20
0.0
 30
0.0
  0
VERTEX
  5
230
330
1CE
100
AcDbEntity
  8
0
  6
CONTINUOUS
 62
     7
100
AcDbVertex
100
AcDb2dVertex
 10
8.9591248874
 20
6.8447165547
 30
0.0
  0
VERTEX
  5
231
330
1CE
100
AcDbEntity
  8
0
  6
CONTINUOUS
 62
     7
100
AcDbVertex
100
AcDb2dVertex
 10
8.9586507622
 20
6.8665713075
 30
0.0
  0
VERTEX
  5
232
330
1CE
100
AcDbEntity
  8
0
  6
CONTINUOUS
 62
     7
100
AcDbVertex
100
AcDb2dVertex
 10
8.9572295468
 20
6.8878251647
 30
0.0
  0
VERTEX
  5
233
330
1CE
100
AcDbEntity
  8
0
  6
CONTINUOUS
 62
     7
100
AcDbVertex
100
AcDb2dVertex
 10
8.9548647194
 20
6.9084261146
 30
0.0
  0
VERTEX
  5
234
330
1CE
100
AcDbEntity
  8
0
  6
CONTINUOUS
 62
     7
100
AcDbVertex
100
AcDb2dVertex
 10
8.9515620668
 20
6.9283237433
 30
0.0
  0
VERTEX
  5
235
330
1CE
100
AcDbEntity
  8
0
  6
CONTINUOUS
 62
     7
100
AcDbVertex
100
AcDb2dVertex
 10
8.9473296714
 20
6.9474693579
 30
0.0
  0
VERTEX
  5
236
330
1CE
100
AcDbEntity
  8
0
  6
CONTINUOUS
 62
     7
100
AcDbVertex
100
AcDb2dVertex
 10
8.9421778904
 20
6.9658161058
 30
0.0
  0
VERTEX
  5
237
330
1CE
100
AcDbEntity
  8
0
  6
CONTINUOUS
 62
     7
100
AcDbVertex
100
AcDb2dVertex
 10
8.9361193312
 20
6.9833190896
 30
0.0
  0
VERTEX
  5
238
330
1CE
100
AcDbEntity
  8
0
  6
CONTINUOUS
 62
     7
100
AcDbVertex
100
AcDb2dVertex
 10
8.9291688201
 20
6.9999354764
 30
0.0
  0
VERTEX
  5
239
330
1CE
100
AcDbEntity
  8
0
  6
CONTINUOUS
 62
     7
100
AcDbVertex
100
AcDb2dVertex
 10
8.9213433661
 20
7.0156246032
 30
0.0
  0
VERTEX
  5
23A
330
1CE
100
AcDbEntity
  8
0
  6
CONTINUOUS
 62
     7
100
AcDbVertex
100
AcDb2dVertex
 10
8.9126621194
 20
7.0303480761
 30
0.0
  0
VERTEX
  5
23B
330
1CE
100
AcDbEntity
  8
0
  6
CONTINUOUS
 62
     7
100
AcDbVertex
100
AcDb2dVertex
 10
8.9031463245
 20
7.0440698643
 30
0.0
  0
VERTEX
  5
23C
330
1CE
100
AcDbEntity
  8
0
  6
CONTINUOUS
 62
     7
100
AcDbVertex
100
AcDb2dVertex
 10
8.8928192681
 20
7.0567563882
 30
0.0
  0
VERTEX
  5
23D
330
1CE
100
AcDbEntity
  8
0
  6
CONTINUOUS
 62
     7
100
AcDbVertex
100
AcDb2dVertex
 10
8.8817062223
 20
7.0683766018
 30
0.0
  0
VERTEX
  5
23E
330
1CE
100
AcDbEntity
  8
0
  6
CONTINUOUS
 62
     7
100
AcDbVertex
100
AcDb2dVertex
 10
8.8698343826
 20
7.0789020685
 30
0.0
  0
VERTEX
  5
23F
330
1CE
100
AcDbEntity
  8
0
  6
CONTINUOUS
 62
     7
100
AcDbVertex
100
AcDb2dVertex
 10
8.8572328013
 20
7.0883070307
 30
0.0
  0
VERTEX
  5
240
330
1CE
100
AcDbEntity
  8
0
  6
CONTINUOUS
 62
     7
100
AcDbVertex
100
AcDb2dVertex
 10
8.8439323167
 20
7.0965684729
 30
0.0
  0
VERTEX
  5
241
330
1CE
100
AcDbEntity
  8
0
  6
CONTINUOUS
 62
     7
100
AcDbVertex
100
AcDb2dVertex
 10
8.8299654771
 20
7.1036661779
 30
0.0
  0
VERTEX
  5
242
330
1CE
100
AcDbEntity
  8
0
  6
CONTINUOUS
 62
     7
100
AcDbVertex
100
AcDb2dVertex
 10
8.8153664619
 20
7.1095827765
 30
0.0
  0
VERTEX
  5
243
330
1CE
100
AcDbEntity
  8
0
  6
CONTINUOUS
 62
     7
100
AcDbVertex
100
AcDb2dVertex
 10
8.8001709973
 20
7.1143037898
 30
0.0
  0
VERTEX
  5
244
330
1CE
100
AcDbEntity
  8
0
  6
CONTINUOUS
 62
     7
100
AcDbVertex
100
AcDb2dVertex
 10
8.7844162691
 20
7.1178176647
 30
0.0
  0
VERTEX
  5
245
330
1CE
100
AcDbEntity
  8
0
  6
CONTINUOUS
 62
     7
100
AcDbVertex
100
AcDb2dVertex
 10
8.7681408317
 20
7.1201158021
 30
0.0
  0
VERTEX
  5
246
330
1CE
100
AcDbEntity
  8
0
  6
CONTINUOUS
 62
     7
100
AcDbVertex
100
AcDb2dVertex
 10
8.751384514
 20
7.1211925781
 30
0.0
  0
VERTEX
  5
247
330
1CE
100
AcDbEntity
  8
0
  6
CONTINUOUS
 62
     7
100
AcDbVertex
100
AcDb2dVertex
 10
8.7341883213
 20
7.1210453576
 30
0.0
  0
VERTEX
  5
248
330
1CE
100
AcDbEntity
  8
0
  6
CONTINUOUS
 62
     7
100
AcDbVertex
100
AcDb2dVertex
 10
8.7165943358
 20
7.1196745009
 30
0.0
  0
VERTEX
  5
249
330
1CE
100
AcDbEntity
  8
0
  6
CONTINUOUS
 62
     7
100
AcDbVertex
100
AcDb2dVertex
 10
8.6986456128
 20
7.1170833628
 30
0.0
  0
VERTEX
  5
24A
330
1CE
100
AcDbEntity
  8
0
  6
CONTINUOUS
 62
     7
100
AcDbVertex
100
AcDb2dVertex
 10
8.6803860758
 20
7.1132782841
 30
0.0
  0
VERTEX
  5
24B
330
1CE
100
AcDbEntity
  8
0
  6
CONTINUOUS
 62
     7
100
AcDbVertex
100
AcDb2dVertex
 10
8.661860409
 20
7.1082685766
 30
0.0
  0
VERTEX
  5
24C
330
1CE
100
AcDbEntity
  8
0
  6
CONTINUOUS
 62
     7
100
AcDbVertex
100
AcDb2dVertex
 10
8.6431139478
 20
7.1020664999
 30
0.0
  0
VERTEX
  5
24D
330
1CE
100
AcDbEntity
  8
0
  6
CONTINUOUS
 62
     7
100
AcDbVertex
100
AcDb2dVertex
 10
8.6241925679
 20
7.0946872314
 30
0.0
  0
VERTEX
  5
24E
330
1CE
100
AcDbEntity
  8
0
  6
CONTINUOUS
 62
     7
100
AcDbVertex
100
AcDb2dVertex
 10
8.6051425732
 20
7.0861488295
 30
0.0
  0
VERTEX
  5
24F
330
1CE
100
AcDbEntity
  8
0
  6
CONTINUOUS
 62
     7
100
AcDbVertex
100
AcDb2dVertex
 10
8.5860105821
 20
7.076472189
 30
0.0
  0
VERTEX
  5
250
330
1CE
100
AcDbEntity
  8
0
  6
CONTINUOUS
 62
     7
100
AcDbVertex
100
AcDb2dVertex
 10
8.5668434139
 20
7.0656809904
 30
0.0
  0
VERTEX
  5
251
330
1CE
100
AcDbEntity
  8
0
  6
CONTINUOUS
 62
     7
100
AcDbVertex
100
AcDb2dVertex
 10
8.5476879737
 20
7.0538016415
 30
0.0
  0
VERTEX
  5
252
330
1CE
100
AcDbEntity
  8
0
  6
CONTINUOUS
 62
     7
100
AcDbVertex
100
AcDb2dVertex
 10
8.5285911383
 20
7.040863213
 30
0.0
  0
VERTEX
  5
253
330
1CE
100
AcDbEntity
  8
0
  6
CONTINUOUS
 62
     7
100
AcDbVertex
100
AcDb2dVertex
 10
8.5095996407
 20
7.0268973675
 30
0.0
  0
VERTEX
  5
254
330
1CE
100
AcDbEntity
  8
0
  6
CONTINUOUS
 62
     7
100
AcDbVertex
100
AcDb2dVertex
 10
8.4907599563
 20
7.0119382817
 30
0.0
  0
VERTEX
  5
255
330
1CE
100
AcDbEntity
  8
0
  6
CONTINUOUS
 62
     7
100
AcDbVertex
100
AcDb2dVertex
 10
8.472118189
 20
6.996022563
 30
0.0
  0
VERTEX
  5
256
330
1CE
100
AcDbEntity
  8
0
  6
CONTINUOUS
 62
     7
100
AcDbVertex
100
AcDb2dVertex
 10
8.4537199583
 20
6.9791891599
 30
0.0
  0
VERTEX
  5
257
330
1CE
100
AcDbEntity
  8
0
  6
CONTINUOUS
 62
     7
100
AcDbVertex
100
AcDb2dVertex
 10
8.4356102877
 20
6.9614792665
 30
0.0
  0
VERTEX
  5
258
330
1CE
100
AcDbEntity
  8
0
  6
CONTINUOUS
 62
     7
100
AcDbVertex
100
AcDb2dVertex
 10
8.4178334948
 20
6.9429362219
 30
0.0
  0
VERTEX
  5
259
330
1CE
100
AcDbEntity
  8
0
  6
CONTINUOUS
 62
     7
100
AcDbVertex
100
AcDb2dVertex
 10
8.4004330821
 20
6.923605404
 30
0.0
  0
VERTEX
  5
25A
330
1CE
100
AcDbEntity
  8
0
  6
CONTINUOUS
 62
     7
100
AcDbVertex
100
AcDb2dVertex
 10
8.3834516316
 20
6.9035341185
 30
0.0
  0
VERTEX
  5
25B
330
1CE
100
AcDbEntity
  8
0
  6
CONTINUOUS
 62
     7
100
AcDbVertex
100
AcDb2dVertex
 10
8.3669306996
 20
6.8827714833
 30
0.0
  0
VERTEX
  5
25C
330
1CE
100
AcDbEntity
  8
0
  6
CONTINUOUS
 62
     7
100
AcDbVertex
100
AcDb2dVertex
 10
8.3509107156
 20
6.8613683081
 30
0.0
  0
VERTEX
  5
25D
330
1CE
100
AcDbEntity
  8
0
  6
CONTINUOUS
 62
     7
100
AcDbVertex
100
AcDb2dVertex
 10
8.3354308833
 20
6.8393769699
 30
0.0
  0
VERTEX
  5
25E
330
1CE
100
AcDbEntity
  8
0
  6
CONTINUOUS
 62
     7
100
AcDbVertex
100
AcDb2dVertex
 10
8.3205290842
 20
6.8168512853
 30
0.0
  0
VERTEX
  5
25F
330
1CE
100
AcDbEntity
  8
0
  6
CONTINUOUS
 62
     7
100
AcDbVertex
100
AcDb2dVertex
 10
8.3062417858
 20
6.7938463783
 30
0.0
  0
VERTEX
  5
260
330
1CE
100
AcDbEntity
  8
0
  6
CONTINUOUS
 62
     7
100
AcDbVertex
100
AcDb2dVertex
 10
8.2926039513
 20
6.7704185459
 30
0.0
  0
VERTEX
  5
261
330
1CE
100
AcDbEntity
  8
0
  6
CONTINUOUS
 62
     7
100
AcDbVertex
100
AcDb2dVertex
 10
8.2796489548
 20
6.7466251199
 30
0.0
  0
VERTEX
  5
262
330
1CE
100
AcDbEntity
  8
0
  6
CONTINUOUS
 62
     7
100
AcDbVertex
100
AcDb2dVertex
 10
8.2674084994
 20
6.7225243268
 30
0.0
  0
VERTEX
  5
263
330
1CE
100
AcDbEntity
  8
0
  6
CONTINUOUS
 62
     7
100
AcDbVertex
100
AcDb2dVertex
 10
8.2559125395
 20
6.6981751452
 30
0.0
  0
VERTEX
  5
264
330
1CE
100
AcDbEntity
  8
0
  6
CONTINUOUS
 62
     7
100
AcDbVertex
100
AcDb2dVertex
 10
8.2451892078
 20
6.6736371617
 30
0.0
  0
VERTEX
  5
265
330
1CE
100
AcDbEntity
  8
0
  6
CONTINUOUS
 62
     7
100
AcDbVertex
100
AcDb2dVertex
 10
8.2352647458
 20
6.6489704249
 30
0.0
  0
VERTEX
  5
266
330
1CE
100
AcDbEntity
  8
0
  6
CONTINUOUS
 62
     7
100
AcDbVertex
100
AcDb2dVertex
 10
8.2261634405
 20
6.6242352983
 30
0.0
  0
VERTEX
  5
267
330
1CE
100
AcDbEntity
  8
0
  6
CONTINUOUS
 62
     7
100
AcDbVertex
100
AcDb2dVertex
 10
8.2179075644
 20
6.599492313
 30
0.0
  0
VERTEX
  5
268
330
1CE
100
AcDbEntity
  8
0
  6
CONTINUOUS
 62
     7
100
AcDbVertex
100
AcDb2dVertex
 10
8.2105173208
 20
6.5748020193
 30
0.0
  0
VERTEX
  5
269
330
1CE
100
AcDbEntity
  8
0
  6
CONTINUOUS
 62
     7
100
AcDbVertex
100
AcDb2dVertex
 10
8.204010795
 20
6.5502248383
 30
0.0
  0
VERTEX
  5
26A
330
1CE
100
AcDbEntity
  8
0
  6
CONTINUOUS
 62
     7
100
AcDbVertex
100
AcDb2dVertex
 10
8.1984039095
 20
6.5258209146
 30
0.0
  0
VERTEX
  5
26B
330
1CE
100
AcDbEntity
  8
0
  6
CONTINUOUS
 62
     7
100
AcDbVertex
100
AcDb2dVertex
 10
8.1937103854
 20
6.5016499687
 30
0.0
  0
VERTEX
  5
26C
330
1CE
100
AcDbEntity
  8
0
  6
CONTINUOUS
 62
     7
100
AcDbVertex
100
AcDb2dVertex
 10
8.1899417084
 20
6.477771151
 30
0.0
  0
VERTEX
  5
26D
330
1CE
100
AcDbEntity
  8
0
  6
CONTINUOUS
 62
     7
100
AcDbVertex
100
AcDb2dVertex
 10
8.1871071012
 20
6.4542428968
 30
0.0
  0
VERTEX
  5
26E
330
1CE
100
AcDbEntity
  8
0
  6
CONTINUOUS
 62
     7
100
AcDbVertex
100
AcDb2dVertex
 10
8.1852135004
 20
6.4311227838
 30
0.0
  0
VERTEX
  5
26F
330
1CE
100
AcDbEntity
  8
0
  6
CONTINUOUS
 62
     7
100
AcDbVertex
100
AcDb2dVertex
 10
8.1842655402
 20
6.4084673907
 30
0.0
  0
VERTEX
  5
270
330
1CE
100
AcDbEntity
  8
0
  6
CONTINUOUS
 62
     7
100
AcDbVertex
100
AcDb2dVertex
 10
8.1842655402
 20
6.3863321592
 30
0.0
  0
VERTEX
  5
271
330
1CE
100
AcDbEntity
  8
0
  6
CONTINUOUS
 62
     7
100
AcDbVertex
100
AcDb2dVertex
 10
8.1852135004
 20
6.3647712578
 30
0.0
  0
VERTEX
  5
272
330
1CE
100
AcDbEntity
  8
0
  6
CONTINUOUS
 62
     7
100
AcDbVertex
100
AcDb2dVertex
 10
8.1871071012
 20
6.3438374497
 30
0.0
  0
VERTEX
  5
273
330
1CE
100
AcDbEntity
  8
0
  6
CONTINUOUS
 62
     7
100
AcDbVertex
100
AcDb2dVertex
 10
8.1899417084
 20
6.3235819633
 30
0.0
  0
VERTEX
  5
274
330
1CE
100
AcDbEntity
  8
0
  6
CONTINUOUS
 62
     7
100
AcDbVertex
100
AcDb2dVertex
 10
8.1937103854
 20
6.3040543674
 30
0.0
  0
VERTEX
  5
275
330
1CE
100
AcDbEntity
  8
0
  6
CONTINUOUS
 62
     7
100
AcDbVertex
100
AcDb2dVertex
 10
8.1984039095
 20
6.2853024491
 30
0.0
  0
VERTEX
  5
276
330
1CE
100
AcDbEntity
  8
0
  6
CONTINUOUS
 62
     7
100
AcDbVertex
100
AcDb2dVertex
 10
8.204010795
 20
6.2673720976
 30
0.0
  0
VERTEX
  5
277
330
1CE
100
AcDbEntity
  8
0
  6
CONTINUOUS
 62
     7
100
AcDbVertex
100
AcDb2dVertex
 10
8.2105173208
 20
6.2503071914
 30
0.0
  0
VERTEX
  5
278
330
1CE
100
AcDbEntity
  8
0
  6
CONTINUOUS
 62
     7
100
AcDbVertex
100
AcDb2dVertex
 10
8.2179075644
 20
6.2341494913
 30
0.0
  0
VERTEX
  5
279
330
1CE
100
AcDbEntity
  8
0
  6
CONTINUOUS
 62
     7
100
AcDbVertex
100
AcDb2dVertex
 10
8.2261634405
 20
6.2189385377
 30
0.0
  0
VERTEX
  5
27A
330
1CE
100
AcDbEntity
  8
0
  6
CONTINUOUS
 62
     7
100
AcDbVertex
100
AcDb2dVertex
 10
8.2352647458
 20
6.2047115546
 30
0.0
  0
VERTEX
  5
27B
330
1CE
100
AcDbEntity
  8
0
  6
CONTINUOUS
 62
     7
100
AcDbVertex
100
AcDb2dVertex
 10
8.2451892078
 20
6.1915033576
 30
0.0
  0
VERTEX
  5
27C
330
1CE
100
AcDbEntity
  8
0
  6
CONTINUOUS
 62
     7
100
AcDbVertex
100
AcDb2dVertex
 10
8.2559125395
 20
6.1793462695
 30
0.0
  0
VERTEX
  5
27D
330
1CE
100
AcDbEntity
  8
0
  6
CONTINUOUS
 62
     7
100
AcDbVertex
100
AcDb2dVertex
 10
8.2674084994
 20
6.1682700406
 30
0.0
  0
VERTEX
  5
27E
330
1CE
100
AcDbEntity
  8
0
  6
CONTINUOUS
 62
     7
100
AcDbVertex
100
AcDb2dVertex
 10
8.2796489548
 20
6.1583017765
 30
0.0
  0
VERTEX
  5
27F
330
1CE
100
AcDbEntity
  8
0
  6
CONTINUOUS
 62
     7
100
AcDbVertex
100
AcDb2dVertex
 10
8.2926039513
 20
6.149465871
 30
0.0
  0
VERTEX
  5
280
330
1CE
100
AcDbEntity
  8
0
  6
CONTINUOUS
 62
     7
100
AcDbVertex
100
AcDb2dVertex
 10
8.3062417858
 20
6.1417839471
 30
0.0
  0
VERTEX
  5
281
330
1CE
100
AcDbEntity
  8
0
  6
CONTINUOUS
 62
     7
100
AcDbVertex
100
AcDb2dVertex
 10
8.3205290842
 20
6.1352748039
 30
0.0
  0
VERTEX
  5
282
330
1CE
100
AcDbEntity
  8
0
  6
CONTINUOUS
 62
     7
100
AcDbVertex
100
AcDb2dVertex
 10
8.3354308833
 20
6.1299543702
 30
0.0
  0
VERTEX
  5
283
330
1CE
100
AcDbEntity
  8
0
  6
CONTINUOUS
 62
     7
100
AcDbVertex
100
AcDb2dVertex
 10
8.3509107156
 20
6.125835666
 30
0.0
  0
VERTEX
  5
284
330
1CE
100
AcDbEntity
  8
0
  6
CONTINUOUS
 62
     7
100
AcDbVertex
100
AcDb2dVertex
 10
8.3669306996
 20
6.1229287705
 30
0.0
  0
VERTEX
  5
285
330
1CE
100
AcDbEntity
  8
0
  6
CONTINUOUS
 62
     7
100
AcDbVertex
100
AcDb2dVertex
 10
8.3834516316
 20
6.1212407974
 30
0.0
  0
VERTEX
  5
286
330
1CE
100
AcDbEntity
  8
0
  6
CONTINUOUS
 62
     7
100
AcDbVertex
100
AcDb2dVertex
 10
8.4004330821
 20
6.1207758774
 30
0.0
  0
VERTEX
  5
287
330
1CE
100
AcDbEntity
  8
0
  6
CONTINUOUS
 62
     7
100
AcDbVertex
100
AcDb2dVertex
 10
8.4178334948
 20
6.1215351483
 30
0.0
  0
VERTEX
  5
288
330
1CE
100
AcDbEntity
  8
0
  6
CONTINUOUS
 62
     7
100
AcDbVertex
100
AcDb2dVertex
 10
8.4356102877
 20
6.123516752
 30
0.0
  0
VERTEX
  5
289
330
1CE
100
AcDbEntity
  8
0
  6
CONTINUOUS
 62
     7
100
AcDbVertex
100
AcDb2dVertex
 10
8.4537199583
 20
6.1267158391
 30
0.0
  0
VERTEX
  5
28A
330
1CE
100
AcDbEntity
  8
0
  6
CONTINUOUS
 62
     7
100
AcDbVertex
100
AcDb2dVertex
 10
8.472118189
 20
6.131124581
 30
0.0
  0
VERTEX
  5
28B
330
1CE
100
AcDbEntity
  8
0
  6
CONTINUOUS
 62
     7
100
AcDbVertex
100
AcDb2dVertex
 10
8.4907599563
 20
6.1367321887
 30
0.0
  0
VERTEX
  5
28C
330
1CE
100
AcDbEntity
  8
0
  6
CONTINUOUS
 62
     7
100
AcDbVertex
100
AcDb2dVertex
 10
8.5095996407
 20
6.1435249395
 30
0.0
  0
VERTEX
  5
28D
330
1CE
100
AcDbEntity
  8
0
  6
CONTINUOUS
 62
     7
100
AcDbVertex
100
AcDb2dVertex
 10
8.5285911383
 20
6.1514862104
 30
0.0
  0
VERTEX
  5
28E
330
1CE
100
AcDbEntity
  8
0
  6
CONTINUOUS
 62
     7
100
AcDbVertex
100
AcDb2dVertex
 10
8.5476879737
 20
6.1605965189
 30
0.0
  0
VERTEX
  5
28F
330
1CE
100
AcDbEntity
  8
0
  6
CONTINUOUS
 62
     7
100
AcDbVertex
100
AcDb2dVertex
 10
8.5668434139
 20
6.1708335703
 30
0.0
  0
VERTEX
  5
290
330
1CE
100
AcDbEntity
  8
0
  6
CONTINUOUS
 62
     7
100
AcDbVertex
100
AcDb2dVertex
 10
8.5860105821
 20
6.1821723131
 30
0.0
  0
VERTEX
  5
291
330
1CE
100
AcDbEntity
  8
0
  6
CONTINUOUS
 62
     7
100
AcDbVertex
100
AcDb2dVertex
 10
8.6051425732
 20
6.1945849994
 30
0.0
  0
VERTEX
  5
292
330
1CE
100
AcDbEntity
  8
0
  6
CONTINUOUS
 62
     7
100
AcDbVertex
100
AcDb2dVertex
 10
8.6241925679
 20
6.2080412532
 30
0.0
  0
VERTEX
  5
293
330
1CE
100
AcDbEntity
  8
0
  6
CONTINUOUS
 62
     7
100
AcDbVertex
100
AcDb2dVertex
 10
8.6431139478
 20
6.2225081449
 30
0.0
  0
VERTEX
  5
294
330
1CE
100
AcDbEntity
  8
0
  6
CONTINUOUS
 62
     7
100
AcDbVertex
100
AcDb2dVertex
 10
8.661860409
 20
6.2379502715
 30
0.0
  0
VERTEX
  5
295
330
1CE
100
AcDbEntity
  8
0
  6
CONTINUOUS
 62
     7
100
AcDbVertex
100
AcDb2dVertex
 10
8.6803860758
 20
6.2543298436
 30
0.0
  0
VERTEX
  5
296
330
1CE
100
AcDbEntity
  8
0
  6
CONTINUOUS
 62
     7
100
AcDbVertex
100
AcDb2dVertex
 10
8.6986456128
 20
6.2716067777
 30
0.0
  0
VERTEX
  5
297
330
1CE
100
AcDbEntity
  8
0
  6
CONTINUOUS
 62
     7
100
AcDbVertex
100
AcDb2dVertex
 10
8.7165943358
 20
6.289738794
 30
0.0
  0
VERTEX
  5
298
330
1CE
100
AcDbEntity
  8
0
  6
CONTINUOUS
 62
     7
100
AcDbVertex
100
AcDb2dVertex
 10
8.7341883213
 20
6.3086815207
 30
0.0
  0
VERTEX
  5
299
330
1CE
100
AcDbEntity
  8
0
  6
CONTINUOUS
 62
     7
100
AcDbVertex
100
AcDb2dVertex
 10
8.751384514
 20
6.3283886016
 30
0.0
  0
VERTEX
  5
29A
330
1CE
100
AcDbEntity
  8
0
  6
CONTINUOUS
 62
     7
100
AcDbVertex
100
AcDb2dVertex
 10
8.7681408317
 20
6.3488118103
 30
0.0
  0
VERTEX
  5
29B
330
1CE
100
AcDbEntity
  8
0
  6
CONTINUOUS
 62
     7
100
AcDbVertex
100
AcDb2dVertex
 10
8.7844162691
 20
6.3699011676
 30
0.0
  0
VERTEX
  5
29C
330
1CE
100
AcDbEntity
  8
0
  6
CONTINUOUS
 62
     7
100
AcDbVertex
100
AcDb2dVertex
 10
8.8001709973
 20
6.3916050645
 30
0.0
  0
VERTEX
  5
29D
330
1CE
100
AcDbEntity
  8
0
  6
CONTINUOUS
 62
     7
100
AcDbVertex
100
AcDb2dVertex
 10
8.8153664619
 20
6.4138703878
 30
0.0
  0
VERTEX
  5
29E
330
1CE
100
AcDbEntity
  8
0
  6
CONTINUOUS
 62
     7
100
AcDbVertex
100
AcDb2dVertex
 10
8.8299654771
 20
6.4366426506
 30
0.0
  0
VERTEX
  5
29F
330
1CE
100
AcDbEntity
  8
0
  6
CONTINUOUS
 62
     7
100
AcDbVertex
100
AcDb2dVertex
 10
8.8439323167
 20
6.4598661253
 30
0.0
  0
VERTEX
  5
2A0
330
1CE
100
AcDbEntity
  8
0
  6
CONTINUOUS
 62
     7
100
AcDbVertex
100
AcDb2dVertex
 10
8.8572328013
 20
6.4834839803
 30
0.0
  0
VERTEX
  5
2A1
330
1CE
100
AcDbEntity
  8
0
  6
CONTINUOUS
 62
     7
100
AcDbVertex
100
AcDb2dVertex
 10
8.8698343826
 20
6.5074384185
 30
0.0
  0
VERTEX
  5
2A2
330
1CE
100
AcDbEntity
  8
0
  6
CONTINUOUS
 62
     7
100
AcDbVertex
100
AcDb2dVertex
 10
8.8817062223
 20
6.5316708196
 30
0.0
  0
VERTEX
  5
2A3
330
1CE
100
AcDbEntity
  8
0
  6
CONTINUOUS
 62
     7
100
AcDbVertex
100
AcDb2dVertex
 10
8.8928192681
 20
6.5561218828
 30
0.0
  0
VERTEX
  5
2A4
330
1CE
100
AcDbEntity
  8
0
  6
CONTINUOUS
 62
     7
100
AcDbVertex
100
AcDb2dVertex
 10
8.9031463245
 20
6.5807317721
 30
0.0
  0
VERTEX
  5
2A5
330
1CE
100
AcDbEntity
  8
0
  6
CONTINUOUS
 62
     7
100
AcDbVertex
100
AcDb2dVertex
 10
8.9126621194
 20
6.6054402632
 30
0.0
  0
VERTEX
  5
2A6
330
1CE
100
AcDbEntity
  8
0
  6
CONTINUOUS
 62
     7
100
AcDbVertex
100
AcDb2dVertex
 10
8.9213433661
 20
6.6301868902
 30
0.0
  0
VERTEX
  5
2A7
330
1CE
100
AcDbEntity
  8
0
  6
CONTINUOUS
 62
     7
100
AcDbVertex
100
AcDb2dVertex
 10
8.9291688201
 20
6.6549110939
 30
0.0
  0
VERTEX
  5
2A8
330
1CE
100
AcDbEntity
  8
0
  6
CONTINUOUS
 62
     7
100
AcDbVertex
100
AcDb2dVertex
 10
8.9361193312
 20
6.6795523701
 30
0.0
  0
VERTEX
  5
2A9
330
1CE
100
AcDbEntity
  8
0
  6
CONTINUOUS
 62
     7
100
AcDbVertex
100
AcDb2dVertex
 10
8.9421778904
 20
6.7040504174
 30
0.0
  0
VERTEX
  5
2AA
330
1CE
100
AcDbEntity
  8
0
  6
CONTINUOUS
 62
     7
100
AcDbVertex
100
AcDb2dVertex
 10
8.9473296714
 20
6.728345285
 30
0.0
  0
VERTEX
  5
2AB
330
1CE
100
AcDbEntity
  8
0
  6
CONTINUOUS
 62
     7
100
AcDbVertex
100
AcDb2dVertex
 10
8.9515620668
 20
6.7523775194
 30
0.0
  0
VERTEX
  5
2AC
330
1CE
100
AcDbEntity
  8
0
  6
CONTINUOUS
 62
     7
100
AcDbVertex
100
AcDb2dVertex
 10
8.9548647194
 20
6.7760883095
 30
0.0
  0
VERTEX
  5
2AD
330
1CE
100
AcDbEntity
  8
0
  6
CONTINUOUS
 62
     7
100
AcDbVertex
100
AcDb2dVertex
 10
8.9572295468
 20
6.7994196311
 30
0.0
  0
VERTEX
  5
2AE
330
1CE
100
AcDbEntity
  8
0
  6
CONTINUOUS
 62
     7
100
AcDbVertex
100
AcDb2dVertex
 10
8.9586507622
 20
6.8223143886
 30
0.0
  0
VERTEX
  5
2AF
330
1CE
100
AcDbEntity
  8
0
  6
CONTINUOUS
 62
     7
100
AcDbVertex
100
AcDb2dVertex
 10
8.9591248874
 20
6.8447165547
 30
0.0
  0
SEQEND
  5
2B0
330
1CE
100
AcDbEntity
  8
0
  6
CONTINUOUS
 62
     7
  0
POLYLINE
  5
1CF
330
1F
100
AcDbEntity
  8
0
  6
CONTINUOUS
 62
     7
100
AcDb2dPolyline
 66
     1
 10
0.0
 20
0.0
 30
0.0
  0
VERTEX
  5
2B1
330
1CF
100
AcDbEntity
  8
0
  6
CONTINUOUS
 62
     7
100
AcDbVertex
100
AcDb2dVertex
 10
8.561094039
 20
6.167478317
 30
0.0
  0
VERTEX
  5
2B2
330
1CF
100
AcDbEntity
  8
0
  6
CONTINUOUS
 62
     7
100
AcDbVertex
100
AcDb2dVertex
 10
8.5464900825
 20
6.1593543199
 30
0.0
  0
VERTEX
  5
2B3
330
1CF
100
AcDbEntity
  8
0
  6
CONTINUOUS
 62
     7
100
AcDbVertex
100
AcDb2dVertex
 10
8.5271379366
 20
6.1495448216
 30
0.0
  0
VERTEX
  5
2B4
330
1CF
100
AcDbEntity
  8
0
  6
CONTINUOUS
 62
     7
100
AcDbVertex
100
AcDb2dVertex
 10
8.5078661773
 20
6.1408681429
 30
0.0
  0
VERTEX
  5
2B5
330
1CF
100
AcDbEntity
  8
0
  6
CONTINUOUS
 62
     7
100
AcDbVertex
100
AcDb2dVertex
 10
8.4887205152
 20
6.133344864
 30
0.0
  0
VERTEX
  5
2B6
330
1CF
100
AcDbEntity
  8
0
  6
CONTINUOUS
 62
     7
100
AcDbVertex
100
AcDb2dVertex
 10
8.4697463617
 20
6.1269928291
 30
0.0
  0
VERTEX
  5
2B7
330
1CF
100
AcDbEntity
  8
0
  6
CONTINUOUS
 62
     7
100
AcDbVertex
100
AcDb2dVertex
 10
8.4509887212
 20
6.1218271047
 30
0.0
  0
VERTEX
  5
2B8
330
1CF
100
AcDbEntity
  8
0
  6
CONTINUOUS
 62
     7
100
AcDbVertex
100
AcDb2dVertex
 10
8.432492085
 20
6.1178599433
 30
0.0
  0
VERTEX
  5
2B9
330
1CF
100
AcDbEntity
  8
0
  6
CONTINUOUS
 62
     7
100
AcDbVertex
100
AcDb2dVertex
 10
8.4143003249
 20
6.1151007546
 30
0.0
  0
VERTEX
  5
2BA
330
1CF
100
AcDbEntity
  8
0
  6
CONTINUOUS
 62
     7
100
AcDbVertex
100
AcDb2dVertex
 10
8.3964565898
 20
6.113556083
 30
0.0
  0
VERTEX
  5
2BB
330
1CF
100
AcDbEntity
  8
0
  6
CONTINUOUS
 62
     7
100
AcDbVertex
100
AcDb2dVertex
 10
8.3790032031
 20
6.1132295923
 30
0.0
  0
VERTEX
  5
2BC
330
1CF
100
AcDbEntity
  8
0
  6
CONTINUOUS
 62
     7
100
AcDbVertex
100
AcDb2dVertex
 10
8.3619815623
 20
6.1141220569
 30
0.0
  0
VERTEX
  5
2BD
330
1CF
100
AcDbEntity
  8
0
  6
CONTINUOUS
 62
     7
100
AcDbVertex
100
AcDb2dVertex
 10
8.3454320408
 20
6.1162313601
 30
0.0
  0
VERTEX
  5
2BE
330
1CF
100
AcDbEntity
  8
0
  6
CONTINUOUS
 62
     7
100
AcDbVertex
100
AcDb2dVertex
 10
8.3293938923
 20
6.1195524987
 30
0.0
  0
VERTEX
  5
2BF
330
1CF
100
AcDbEntity
  8
0
  6
CONTINUOUS
 62
     7
100
AcDbVertex
100
AcDb2dVertex
 10
8.3139051574
 20
6.1240775954
 30
0.0
  0
VERTEX
  5
2C0
330
1CF
100
AcDbEntity
  8
0
  6
CONTINUOUS
 62
     7
100
AcDbVertex
100
AcDb2dVertex
 10
8.2990025739
 20
6.1297959172
 30
0.0
  0
VERTEX
  5
2C1
330
1CF
100
AcDbEntity
  8
0
  6
CONTINUOUS
 62
     7
100
AcDbVertex
100
AcDb2dVertex
 10
8.2847214888
 20
6.1366939008
 30
0.0
  0
VERTEX
  5
2C2
330
1CF
100
AcDbEntity
  8
0
  6
CONTINUOUS
 62
     7
100
AcDbVertex
100
AcDb2dVertex
 10
8.2710957754
 20
6.144755185
 30
0.0
  0
VERTEX
  5
2C3
330
1CF
100
AcDbEntity
  8
0
  6
CONTINUOUS
 62
     7
100
AcDbVertex
100
AcDb2dVertex
 10
8.2581577525
 20
6.1539606493
 30
0.0
  0
VERTEX
  5
2C4
330
1CF
100
AcDbEntity
  8
0
  6
CONTINUOUS
 62
     7
100
AcDbVertex
100
AcDb2dVertex
 10
8.2459381074
 20
6.1642884594
 30
0.0
  0
VERTEX
  5
2C5
330
1CF
100
AcDbEntity
  8
0
  6
CONTINUOUS
 62
     7
100
AcDbVertex
100
AcDb2dVertex
 10
8.2344658239
 20
6.1757141188
 30
0.0
  0
VERTEX
  5
2C6
330
1CF
100
AcDbEntity
  8
0
  6
CONTINUOUS
 62
     7
100
AcDbVertex
100
AcDb2dVertex
 10
8.2237681131
 20
6.1882105271
 30
0.0
  0
VERTEX
  5
2C7
330
1CF
100
AcDbEntity
  8
0
  6
CONTINUOUS
 62
     7
100
AcDbVertex
100
AcDb2dVertex
 10
8.2138703485
 20
6.2017480443
 30
0.0
  0
VERTEX
  5
2C8
330
1CF
100
AcDbEntity
  8
0
  6
CONTINUOUS
 62
     7
100
AcDbVertex
100
AcDb2dVertex
 10
8.2047960068
 20
6.2162945608
 30
0.0
  0
VERTEX
  5
2C9
330
1CF
100
AcDbEntity
  8
0
  6
CONTINUOUS
 62
     7
100
AcDbVertex
100
AcDb2dVertex
 10
8.1965666111
 20
6.2318155739
 30
0.0
  0
VERTEX
  5
2CA
330
1CF
100
AcDbEntity
  8
0
  6
CONTINUOUS
 62
     7
100
AcDbVertex
100
AcDb2dVertex
 10
8.1892016808
 20
6.2482742695
 30
0.0
  0
VERTEX
  5
2CB
330
1CF
100
AcDbEntity
  8
0
  6
CONTINUOUS
 62
     7
100
AcDbVertex
100
AcDb2dVertex
 10
8.1827186846
 20
6.2656316094
 30
0.0
  0
VERTEX
  5
2CC
330
1CF
100
AcDbEntity
  8
0
  6
CONTINUOUS
 62
     7
100
AcDbVertex
100
AcDb2dVertex
 10
8.1771329994
 20
6.2838464239
 30
0.0
  0
VERTEX
  5
2CD
330
1CF
100
AcDbEntity
  8
0
  6
CONTINUOUS
 62
     7
100
AcDbVertex
100
AcDb2dVertex
 10
8.172457874
 20
6.3028755094
 30
0.0
  0
VERTEX
  5
2CE
330
1CF
100
AcDbEntity
  8
0
  6
CONTINUOUS
 62
     7
100
AcDbVertex
100
AcDb2dVertex
 10
8.1687043971
 20
6.3226737311
 30
0.0
  0
VERTEX
  5
2CF
330
1CF
100
AcDbEntity
  8
0
  6
CONTINUOUS
 62
     7
100
AcDbVertex
100
AcDb2dVertex
 10
8.1658814717
 20
6.3431941297
 30
0.0
  0
VERTEX
  5
2D0
330
1CF
100
AcDbEntity
  8
0
  6
CONTINUOUS
 62
     7
100
AcDbVertex
100
AcDb2dVertex
 10
8.1639957933
 20
6.3643880332
 30
0.0
  0
VERTEX
  5
2D1
330
1CF
100
AcDbEntity
  8
0
  6
CONTINUOUS
 62
     7
100
AcDbVertex
100
AcDb2dVertex
 10
8.1630518346
 20
6.386205172
 30
0.0
  0
VERTEX
  5
2D2
330
1CF
100
AcDbEntity
  8
0
  6
CONTINUOUS
 62
     7
100
AcDbVertex
100
AcDb2dVertex
 10
8.1630518346
 20
6.4085937982
 30
0.0
  0
VERTEX
  5
2D3
330
1CF
100
AcDbEntity
  8
0
  6
CONTINUOUS
 62
     7
100
AcDbVertex
100
AcDb2dVertex
 10
8.1639957933
 20
6.4315008084
 30
0.0
  0
VERTEX
  5
2D4
330
1CF
100
AcDbEntity
  8
0
  6
CONTINUOUS
 62
     7
100
AcDbVertex
100
AcDb2dVertex
 10
8.1658814717
 20
6.4548718699
 30
0.0
  0
VERTEX
  5
2D5
330
1CF
100
AcDbEntity
  8
0
  6
CONTINUOUS
 62
     7
100
AcDbVertex
100
AcDb2dVertex
 10
8.1687043971
 20
6.4786515489
 30
0.0
  0
VERTEX
  5
2D6
330
1CF
100
AcDbEntity
  8
0
  6
CONTINUOUS
 62
     7
100
AcDbVertex
100
AcDb2dVertex
 10
8.172457874
 20
6.5027834427
 30
0.0
  0
VERTEX
  5
2D7
330
1CF
100
AcDbEntity
  8
0
  6
CONTINUOUS
 62
     7
100
AcDbVertex
100
AcDb2dVertex
 10
8.1771329994
 20
6.5272103132
 30
0.0
  0
VERTEX
  5
2D8
330
1CF
100
AcDbEntity
  8
0
  6
CONTINUOUS
 62
     7
100
AcDbVertex
100
AcDb2dVertex
 10
8.1827186846
 20
6.5518742224
 30
0.0
  0
VERTEX
  5
2D9
330
1CF
100
AcDbEntity
  8
0
  6
CONTINUOUS
 62
     7
100
AcDbVertex
100
AcDb2dVertex
 10
8.1892016808
 20
6.5767166704
 30
0.0
  0
VERTEX
  5
2DA
330
1CF
100
AcDbEntity
  8
0
  6
CONTINUOUS
 62
     7
100
AcDbVertex
100
AcDb2dVertex
 10
8.1965666111
 20
6.6016787336
 30
0.0
  0
VERTEX
  5
2DB
330
1CF
100
AcDbEntity
  8
0
  6
CONTINUOUS
 62
     7
100
AcDbVertex
100
AcDb2dVertex
 10
8.2047960068
 20
6.6267012047
 30
0.0
  0
VERTEX
  5
2DC
330
1CF
100
AcDbEntity
  8
0
  6
CONTINUOUS
 62
     7
100
AcDbVertex
100
AcDb2dVertex
 10
8.2138703485
 20
6.6517247332
 30
0.0
  0
VERTEX
  5
2DD
330
1CF
100
AcDbEntity
  8
0
  6
CONTINUOUS
 62
     7
100
AcDbVertex
100
AcDb2dVertex
 10
8.2237681131
 20
6.676689966
 30
0.0
  0
VERTEX
  5
2DE
330
1CF
100
AcDbEntity
  8
0
  6
CONTINUOUS
 62
     7
100
AcDbVertex
100
AcDb2dVertex
 10
8.2344658239
 20
6.7015376885
 30
0.0
  0
VERTEX
  5
2DF
330
1CF
100
AcDbEntity
  8
0
  6
CONTINUOUS
 62
     7
100
AcDbVertex
100
AcDb2dVertex
 10
8.2459381074
 20
6.7262089644
 30
0.0
  0
VERTEX
  5
2E0
330
1CF
100
AcDbEntity
  8
0
  6
CONTINUOUS
 62
     7
100
AcDbVertex
100
AcDb2dVertex
 10
8.2581577525
 20
6.7506452763
 30
0.0
  0
VERTEX
  5
2E1
330
1CF
100
AcDbEntity
  8
0
  6
CONTINUOUS
 62
     7
100
AcDbVertex
100
AcDb2dVertex
 10
8.2710957754
 20
6.774788664
 30
0.0
  0
VERTEX
  5
2E2
330
1CF
100
AcDbEntity
  8
0
  6
CONTINUOUS
 62
     7
100
AcDbVertex
100
AcDb2dVertex
 10
8.2847214888
 20
6.798581862
 30
0.0
  0
VERTEX
  5
2E3
330
1CF
100
AcDbEntity
  8
0
  6
CONTINUOUS
 62
     7
100
AcDbVertex
100
AcDb2dVertex
 10
8.2990025739
 20
6.8219684354
 30
0.0
  0
VERTEX
  5
2E4
330
1CF
100
AcDbEntity
  8
0
  6
CONTINUOUS
 62
     7
100
AcDbVertex
100
AcDb2dVertex
 10
8.3139051574
 20
6.844892914
 30
0.0
  0
VERTEX
  5
2E5
330
1CF
100
AcDbEntity
  8
0
  6
CONTINUOUS
 62
     7
100
AcDbVertex
100
AcDb2dVertex
 10
8.3293938923
 20
6.8673009233
 30
0.0
  0
VERTEX
  5
2E6
330
1CF
100
AcDbEntity
  8
0
  6
CONTINUOUS
 62
     7
100
AcDbVertex
100
AcDb2dVertex
 10
8.3454320408
 20
6.889139314
 30
0.0
  0
VERTEX
  5
2E7
330
1CF
100
AcDbEntity
  8
0
  6
CONTINUOUS
 62
     7
100
AcDbVertex
100
AcDb2dVertex
 10
8.3619815623
 20
6.910356288
 30
0.0
  0
VERTEX
  5
2E8
330
1CF
100
AcDbEntity
  8
0
  6
CONTINUOUS
 62
     7
100
AcDbVertex
100
AcDb2dVertex
 10
8.3790032031
 20
6.9309015208
 30
0.0
  0
VERTEX
  5
2E9
330
1CF
100
AcDbEntity
  8
0
  6
CONTINUOUS
 62
     7
100
AcDbVertex
100
AcDb2dVertex
 10
8.3964565898
 20
6.9507262815
 30
0.0
  0
VERTEX
  5
2EA
330
1CF
100
AcDbEntity
  8
0
  6
CONTINUOUS
 62
     7
100
AcDbVertex
100
AcDb2dVertex
 10
8.4143003249
 20
6.9697835479
 30
0.0
  0
VERTEX
  5
2EB
330
1CF
100
AcDbEntity
  8
0
  6
CONTINUOUS
 62
     7
100
AcDbVertex
100
AcDb2dVertex
 10
8.432492085
 20
6.9880281182
 30
0.0
  0
VERTEX
  5
2EC
330
1CF
100
AcDbEntity
  8
0
  6
CONTINUOUS
 62
     7
100
AcDbVertex
100
AcDb2dVertex
 10
8.4509887212
 20
7.0054167185
 30
0.0
  0
VERTEX
  5
2ED
330
1CF
100
AcDbEntity
  8
0
  6
CONTINUOUS
 62
     7
100
AcDbVertex
100
AcDb2dVertex
 10
8.4697463617
 20
7.0219081047
 30
0.0
  0
VERTEX
  5
2EE
330
1CF
100
AcDbEntity
  8
0
  6
CONTINUOUS
 62
     7
100
AcDbVertex
100
AcDb2dVertex
 10
8.4887205152
 20
7.0374631613
 30
0.0
  0
VERTEX
  5
2EF
330
1CF
100
AcDbEntity
  8
0
  6
CONTINUOUS
 62
     7
100
AcDbVertex
100
AcDb2dVertex
 10
8.5078661773
 20
7.0520449933
 30
0.0
  0
VERTEX
  5
2F0
330
1CF
100
AcDbEntity
  8
0
  6
CONTINUOUS
 62
     7
100
AcDbVertex
100
AcDb2dVertex
 10
8.5271379366
 20
7.0656190142
 30
0.0
  0
VERTEX
  5
2F1
330
1CF
100
AcDbEntity
  8
0
  6
CONTINUOUS
 62
     7
100
AcDbVertex
100
AcDb2dVertex
 10
8.5464900825
 20
7.0781530279
 30
0.0
  0
VERTEX
  5
2F2
330
1CF
100
AcDbEntity
  8
0
  6
CONTINUOUS
 62
     7
100
AcDbVertex
100
AcDb2dVertex
 10
8.5658767139
 20
7.0896173052
 30
0.0
  0
VERTEX
  5
2F3
330
1CF
100
AcDbEntity
  8
0
  6
CONTINUOUS
 62
     7
100
AcDbVertex
100
AcDb2dVertex
 10
8.5852518478
 20
7.0999846541
 30
0.0
  0
VERTEX
  5
2F4
330
1CF
100
AcDbEntity
  8
0
  6
CONTINUOUS
 62
     7
100
AcDbVertex
100
AcDb2dVertex
 10
8.6045695287
 20
7.1092304842
 30
0.0
  0
VERTEX
  5
2F5
330
1CF
100
AcDbEntity
  8
0
  6
CONTINUOUS
 62
     7
100
AcDbVertex
100
AcDb2dVertex
 10
8.623783937
 20
7.1173328657
 30
0.0
  0
VERTEX
  5
2F6
330
1CF
100
AcDbEntity
  8
0
  6
CONTINUOUS
 62
     7
100
AcDbVertex
100
AcDb2dVertex
 10
8.6428494983
 20
7.1242725804
 30
0.0
  0
VERTEX
  5
2F7
330
1CF
100
AcDbEntity
  8
0
  6
CONTINUOUS
 62
     7
100
AcDbVertex
100
AcDb2dVertex
 10
8.6617209913
 20
7.1300331682
 30
0.0
  0
VERTEX
  5
2F8
330
1CF
100
AcDbEntity
  8
0
  6
CONTINUOUS
 62
     7
100
AcDbVertex
100
AcDb2dVertex
 10
8.6803536548
 20
7.1346009656
 30
0.0
  0
VERTEX
  5
2F9
330
1CF
100
AcDbEntity
  8
0
  6
CONTINUOUS
 62
     7
100
AcDbVertex
100
AcDb2dVertex
 10
8.6987032942
 20
7.1379651382
 30
0.0
  0
VERTEX
  5
2FA
330
1CF
100
AcDbEntity
  8
0
  6
CONTINUOUS
 62
     7
100
AcDbVertex
100
AcDb2dVertex
 10
8.7167263861
 20
7.1401177067
 30
0.0
  0
VERTEX
  5
2FB
330
1CF
100
AcDbEntity
  8
0
  6
CONTINUOUS
 62
     7
100
AcDbVertex
100
AcDb2dVertex
 10
8.7343801819
 20
7.1410535654
 30
0.0
  0
VERTEX
  5
2FC
330
1CF
100
AcDbEntity
  8
0
  6
CONTINUOUS
 62
     7
100
AcDbVertex
100
AcDb2dVertex
 10
8.7516228086
 20
7.1407704944
 30
0.0
  0
VERTEX
  5
2FD
330
1CF
100
AcDbEntity
  8
0
  6
CONTINUOUS
 62
     7
100
AcDbVertex
100
AcDb2dVertex
 10
8.7684133687
 20
7.1392691654
 30
0.0
  0
VERTEX
  5
2FE
330
1CF
100
AcDbEntity
  8
0
  6
CONTINUOUS
 62
     7
100
AcDbVertex
100
AcDb2dVertex
 10
8.7847120368
 20
7.1365531391
 30
0.0
  0
VERTEX
  5
2FF
330
1CF
100
AcDbEntity
  8
0
  6
CONTINUOUS
 62
     7
100
AcDbVertex
100
AcDb2dVertex
 10
8.8004801542
 20
7.1326288578
 30
0.0
  0
VERTEX
  5
300
330
1CF
100
AcDbEntity
  8
0
  6
CONTINUOUS
 62
     7
100
AcDbVertex
100
AcDb2dVertex
 10
8.8156803207
 20
7.1275056293
 30
0.0
  0
VERTEX
  5
301
330
1CF
100
AcDbEntity
  8
0
  6
CONTINUOUS
 62
     7
100
AcDbVertex
100
AcDb2dVertex
 10
8.8302764832
 20
7.1211956055
 30
0.0
  0
VERTEX
  5
302
330
1CF
100
AcDbEntity
  8
0
  6
CONTINUOUS
 62
     7
100
AcDbVertex
100
AcDb2dVertex
 10
8.8442340212
 20
7.113713753
 30
0.0
  0
VERTEX
  5
303
330
1CF
100
AcDbEntity
  8
0
  6
CONTINUOUS
 62
     7
100
AcDbVertex
100
AcDb2dVertex
 10
8.8575198291
 20
7.105077818
 30
0.0
  0
VERTEX
  5
304
330
1CF
100
AcDbEntity
  8
0
  6
CONTINUOUS
 62
     7
100
AcDbVertex
100
AcDb2dVertex
 10
8.8701023942
 20
7.0953082838
 30
0.0
  0
VERTEX
  5
305
330
1CF
100
AcDbEntity
  8
0
  6
CONTINUOUS
 62
     7
100
AcDbVertex
100
AcDb2dVertex
 10
8.8819518722
 20
7.0844283228
 30
0.0
  0
VERTEX
  5
306
330
1CF
100
AcDbEntity
  8
0
  6
CONTINUOUS
 62
     7
100
AcDbVertex
100
AcDb2dVertex
 10
8.8930401574
 20
7.0724637411
 30
0.0
  0
VERTEX
  5
307
330
1CF
100
AcDbEntity
  8
0
  6
CONTINUOUS
 62
     7
100
AcDbVertex
100
AcDb2dVertex
 10
8.9033409496
 20
7.0594429173
 30
0.0
  0
VERTEX
  5
308
330
1CF
100
AcDbEntity
  8
0
  6
CONTINUOUS
 62
     7
100
AcDbVertex
100
AcDb2dVertex
 10
8.9128298164
 20
7.0453967353
 30
0.0
  0
VERTEX
  5
309
330
1CF
100
AcDbEntity
  8
0
  6
CONTINUOUS
 62
     7
100
AcDbVertex
100
AcDb2dVertex
 10
8.9214842515
 20
7.0303585112
 30
0.0
  0
VERTEX
  5
30A
330
1CF
100
AcDbEntity
  8
0
  6
CONTINUOUS
 62
     7
100
AcDbVertex
100
AcDb2dVertex
 10
8.9292837272
 20
7.014363914
 30
0.0
  0
VERTEX
  5
30B
330
1CF
100
AcDbEntity
  8
0
  6
CONTINUOUS
 62
     7
100
AcDbVertex
100
AcDb2dVertex
 10
8.9362097443
 20
6.997450881
 30
0.0
  0
VERTEX
  5
30C
330
1CF
100
AcDbEntity
  8
0
  6
CONTINUOUS
 62
     7
100
AcDbVertex
100
AcDb2dVertex
 10
8.9422458749
 20
6.9796595282
 30
0.0
  0
VERTEX
  5
30D
330
1CF
100
AcDbEntity
  8
0
  6
CONTINUOUS
 62
     7
100
AcDbVertex
100
AcDb2dVertex
 10
8.9473778019
 20
6.9610320546
 30
0.0
  0
VERTEX
  5
30E
330
1CF
100
AcDbEntity
  8
0
  6
CONTINUOUS
 62
     7
100
AcDbVertex
100
AcDb2dVertex
 10
8.9515933531
 20
6.9416126425
 30
0.0
  0
VERTEX
  5
30F
330
1CF
100
AcDbEntity
  8
0
  6
CONTINUOUS
 62
     7
100
AcDbVertex
100
AcDb2dVertex
 10
8.9548825296
 20
6.9214473527
 30
0.0
  0
VERTEX
  5
310
330
1CF
100
AcDbEntity
  8
0
  6
CONTINUOUS
 62
     7
100
AcDbVertex
100
AcDb2dVertex
 10
8.9572375298
 20
6.900584015
 30
0.0
  0
VERTEX
  5
311
330
1CF
100
AcDbEntity
  8
0
  6
CONTINUOUS
 62
     7
100
AcDbVertex
100
AcDb2dVertex
 10
8.958652768
 20
6.879072115
 30
0.0
  0
VERTEX
  5
312
330
1CF
100
AcDbEntity
  8
0
  6
CONTINUOUS
 62
     7
100
AcDbVertex
100
AcDb2dVertex
 10
8.9591248874
 20
6.8569626764
 30
0.0
  0
VERTEX
  5
313
330
1CF
100
AcDbEntity
  8
0
  6
CONTINUOUS
 62
     7
100
AcDbVertex
100
AcDb2dVertex
 10
8.9591248874
 20
6.8569626764
 30
0.0
  0
SEQEND
  5
314
330
1CF
100
AcDbEntity
  8
0
  6
CONTINUOUS
 62
     7
  0
POLYLINE
  5
1D0
330
1F
100
AcDbEntity
  8
0
  6
CONTINUOUS
 62
     7
100
AcDb2dPolyline
 66
     1
 10
0.0
 20
0.0
 30
0.0
  0
VERTEX
  5
315
330
1D0
100
AcDbEntity
  8
0
  6
CONTINUOUS
 62
     7
100
AcDbVertex
100
AcDb2dVertex
 10
8.0675246272
 20
7.5621109142
 30
0.0
  0
VERTEX
  5
316
330
1D0
100
AcDbEntity
  8
0
  6
CONTINUOUS
 62
     7
100
AcDbVertex
100
AcDb2dVertex
 10
8.0552985866
 20
7.5685808224
 30
0.0
  0
VERTEX
  5
317
330
1D0
100
AcDbEntity
  8
0
  6
CONTINUOUS
 62
     7
100
AcDbVertex
100
AcDb2dVertex
 10
8.040702424
 20
7.5748908462
 30
0.0
  0
VERTEX
  5
318
330
1D0
100
AcDbEntity
  8
0
  6
CONTINUOUS
 62
     7
100
AcDbVertex
100
AcDb2dVertex
 10
8.0255022575
 20
7.5800140746
 30
0.0
  0
VERTEX
  5
319
330
1D0
100
AcDbEntity
  8
0
  6
CONTINUOUS
 62
     7
100
AcDbVertex
100
AcDb2dVertex
 10
8.0097341401
 20
7.583938356
 30
0.0
  0
VERTEX
  5
31A
330
1D0
100
AcDbEntity
  8
0
  6
CONTINUOUS
 62
     7
100
AcDbVertex
100
AcDb2dVertex
 10
7.9934354721
 20
7.5866543822
 30
0.0
  0
VERTEX
  5
31B
330
1D0
100
AcDbEntity
  8
0
  6
CONTINUOUS
 62
     7
100
AcDbVertex
100
AcDb2dVertex
 10
7.976644912
 20
7.5881557113
 30
0.0
  0
VERTEX
  5
31C
330
1D0
100
AcDbEntity
  8
0
  6
CONTINUOUS
 62
     7
100
AcDbVertex
100
AcDb2dVertex
 10
7.9594022853
 20
7.5884387822
 30
0.0
  0
VERTEX
  5
31D
330
1D0
100
AcDbEntity
  8
0
  6
CONTINUOUS
 62
     7
100
AcDbVertex
100
AcDb2dVertex
 10
7.9417484895
 20
7.5875029236
 30
0.0
  0
VERTEX
  5
31E
330
1D0
100
AcDbEntity
  8
0
  6
CONTINUOUS
 62
     7
100
AcDbVertex
100
AcDb2dVertex
 10
7.9237253975
 20
7.5853503551
 30
0.0
  0
VERTEX
  5
31F
330
1D0
100
AcDbEntity
  8
0
  6
CONTINUOUS
 62
     7
100
AcDbVertex
100
AcDb2dVertex
 10
7.9053757581
 20
7.5819861824
 30
0.0
  0
VERTEX
  5
320
330
1D0
100
AcDbEntity
  8
0
  6
CONTINUOUS
 62
     7
100
AcDbVertex
100
AcDb2dVertex
 10
7.8867430947
 20
7.5774183851
 30
0.0
  0
VERTEX
  5
321
330
1D0
100
AcDbEntity
  8
0
  6
CONTINUOUS
 62
     7
100
AcDbVertex
100
AcDb2dVertex
 10
7.8678716017
 20
7.5716577973
 30
0.0
  0
VERTEX
  5
322
330
1D0
100
AcDbEntity
  8
0
  6
CONTINUOUS
 62
     7
100
AcDbVertex
100
AcDb2dVertex
 10
7.8488060404
 20
7.5647180825
 30
0.0
  0
VERTEX
  5
323
330
1D0
100
AcDbEntity
  8
0
  6
CONTINUOUS
 62
     7
100
AcDbVertex
100
AcDb2dVertex
 10
7.829591632
 20
7.5566157011
 30
0.0
  0
VERTEX
  5
324
330
1D0
100
AcDbEntity
  8
0
  6
CONTINUOUS
 62
     7
100
AcDbVertex
100
AcDb2dVertex
 10
7.8102739512
 20
7.5473698709
 30
0.0
  0
VERTEX
  5
325
330
1D0
100
AcDbEntity
  8
0
  6
CONTINUOUS
 62
     7
100
AcDbVertex
100
AcDb2dVertex
 10
7.7908988172
 20
7.5370025221
 30
0.0
  0
VERTEX
  5
326
330
1D0
100
AcDbEntity
  8
0
  6
CONTINUOUS
 62
     7
100
AcDbVertex
100
AcDb2dVertex
 10
7.7715121858
 20
7.5255382448
 30
0.0
  0
VERTEX
  5
327
330
1D0
100
AcDbEntity
  8
0
  6
CONTINUOUS
 62
     7
100
AcDbVertex
100
AcDb2dVertex
 10
7.7521600399
 20
7.5130042311
 30
0.0
  0
VERTEX
  5
328
330
1D0
100
AcDbEntity
  8
0
  6
CONTINUOUS
 62
     7
100
AcDbVertex
100
AcDb2dVertex
 10
7.7328882807
 20
7.4994302102
 30
0.0
  0
VERTEX
  5
329
330
1D0
100
AcDbEntity
  8
0
  6
CONTINUOUS
 62
     7
100
AcDbVertex
100
AcDb2dVertex
 10
7.7137426186
 20
7.4848483782
 30
0.0
  0
VERTEX
  5
32A
330
1D0
100
AcDbEntity
  8
0
  6
CONTINUOUS
 62
     7
100
AcDbVertex
100
AcDb2dVertex
 10
7.694768465
 20
7.4692933216
 30
0.0
  0
VERTEX
  5
32B
330
1D0
100
AcDbEntity
  8
0
  6
CONTINUOUS
 62
     7
100
AcDbVertex
100
AcDb2dVertex
 10
7.6760108246
 20
7.4528019353
 30
0.0
  0
VERTEX
  5
32C
330
1D0
100
AcDbEntity
  8
0
  6
CONTINUOUS
 62
     7
100
AcDbVertex
100
AcDb2dVertex
 10
7.6575141883
 20
7.4354133351
 30
0.0
  0
VERTEX
  5
32D
330
1D0
100
AcDbEntity
  8
0
  6
CONTINUOUS
 62
     7
100
AcDbVertex
100
AcDb2dVertex
 10
7.6393224283
 20
7.4171687647
 30
0.0
  0
VERTEX
  5
32E
330
1D0
100
AcDbEntity
  8
0
  6
CONTINUOUS
 62
     7
100
AcDbVertex
100
AcDb2dVertex
 10
7.6214786932
 20
7.3981114984
 30
0.0
  0
VERTEX
  5
32F
330
1D0
100
AcDbEntity
  8
0
  6
CONTINUOUS
 62
     7
100
AcDbVertex
100
AcDb2dVertex
 10
7.6040253065
 20
7.3782867377
 30
0.0
  0
VERTEX
  5
330
330
1D0
100
AcDbEntity
  8
0
  6
CONTINUOUS
 62
     7
100
AcDbVertex
100
AcDb2dVertex
 10
7.5870036657
 20
7.3577415049
 30
0.0
  0
VERTEX
  5
331
330
1D0
100
AcDbEntity
  8
0
  6
CONTINUOUS
 62
     7
100
AcDbVertex
100
AcDb2dVertex
 10
7.5704541442
 20
7.3365245309
 30
0.0
  0
VERTEX
  5
332
330
1D0
100
AcDbEntity
  8
0
  6
CONTINUOUS
 62
     7
100
AcDbVertex
100
AcDb2dVertex
 10
7.5544159956
 20
7.3146861402
 30
0.0
  0
VERTEX
  5
333
330
1D0
100
AcDbEntity
  8
0
  6
CONTINUOUS
 62
     7
100
AcDbVertex
100
AcDb2dVertex
 10
7.5389272608
 20
7.2922781309
 30
0.0
  0
VERTEX
  5
334
330
1D0
100
AcDbEntity
  8
0
  6
CONTINUOUS
 62
     7
100
AcDbVertex
100
AcDb2dVertex
 10
7.5240246772
 20
7.2693536523
 30
0.0
  0
VERTEX
  5
335
330
1D0
100
AcDbEntity
  8
0
  6
CONTINUOUS
 62
     7
100
AcDbVertex
100
AcDb2dVertex
 10
7.5097435922
 20
7.2459670789
 30
0.0
  0
VERTEX
  5
336
330
1D0
100
AcDbEntity
  8
0
  6
CONTINUOUS
 62
     7
100
AcDbVertex
100
AcDb2dVertex
 10
7.4961178788
 20
7.2221738809
 30
0.0
  0
VERTEX
  5
337
330
1D0
100
AcDbEntity
  8
0
  6
CONTINUOUS
 62
     7
100
AcDbVertex
100
AcDb2dVertex
 10
7.4831798558
 20
7.1980304932
 30
0.0
  0
VERTEX
  5
338
330
1D0
100
AcDbEntity
  8
0
  6
CONTINUOUS
 62
     7
100
AcDbVertex
100
AcDb2dVertex
 10
7.4709602108
 20
7.1735941813
 30
0.0
  0
VERTEX
  5
339
330
1D0
100
AcDbEntity
  8
0
  6
CONTINUOUS
 62
     7
100
AcDbVertex
100
AcDb2dVertex
 10
7.4594879273
 20
7.1489229053
 30
0.0
  0
VERTEX
  5
33A
330
1D0
100
AcDbEntity
  8
0
  6
CONTINUOUS
 62
     7
100
AcDbVertex
100
AcDb2dVertex
 10
7.4487902164
 20
7.1240751829
 30
0.0
  0
VERTEX
  5
33B
330
1D0
100
AcDbEntity
  8
0
  6
CONTINUOUS
 62
     7
100
AcDbVertex
100
AcDb2dVertex
 10
7.4388924519
 20
7.0991099501
 30
0.0
  0
VERTEX
  5
33C
330
1D0
100
AcDbEntity
  8
0
  6
CONTINUOUS
 62
     7
100
AcDbVertex
100
AcDb2dVertex
 10
7.4298181101
 20
7.0740864216
 30
0.0
  0
VERTEX
  5
33D
330
1D0
100
AcDbEntity
  8
0
  6
CONTINUOUS
 62
     7
100
AcDbVertex
100
AcDb2dVertex
 10
7.4215887145
 20
7.0490639504
 30
0.0
  0
VERTEX
  5
33E
330
1D0
100
AcDbEntity
  8
0
  6
CONTINUOUS
 62
     7
100
AcDbVertex
100
AcDb2dVertex
 10
7.4142237841
 20
7.0241018873
 30
0.0
  0
VERTEX
  5
33F
330
1D0
100
AcDbEntity
  8
0
  6
CONTINUOUS
 62
     7
100
AcDbVertex
100
AcDb2dVertex
 10
7.4077407879
 20
6.9992594393
 30
0.0
  0
VERTEX
  5
340
330
1D0
100
AcDbEntity
  8
0
  6
CONTINUOUS
 62
     7
100
AcDbVertex
100
AcDb2dVertex
 10
7.4021551028
 20
6.97459553
 30
0.0
  0
VERTEX
  5
341
330
1D0
100
AcDbEntity
  8
0
  6
CONTINUOUS
 62
     7
100
AcDbVertex
100
AcDb2dVertex
 10
7.3974799773
 20
6.9501686596
 30
0.0
  0
VERTEX
  5
342
330
1D0
100
AcDbEntity
  8
0
  6
CONTINUOUS
 62
     7
100
AcDbVertex
100
AcDb2dVertex
 10
7.3937265005
 20
6.9260367657
 30
0.0
  0
VERTEX
  5
343
330
1D0
100
AcDbEntity
  8
0
  6
CONTINUOUS
 62
     7
100
AcDbVertex
100
AcDb2dVertex
 10
7.390903575
 20
6.9022570867
 30
0.0
  0
VERTEX
  5
344
330
1D0
100
AcDbEntity
  8
0
  6
CONTINUOUS
 62
     7
100
AcDbVertex
100
AcDb2dVertex
 10
7.3890178966
 20
6.8788860253
 30
0.0
  0
VERTEX
  5
345
330
1D0
100
AcDbEntity
  8
0
  6
CONTINUOUS
 62
     7
100
AcDbVertex
100
AcDb2dVertex
 10
7.388073938
 20
6.8559790151
 30
0.0
  0
VERTEX
  5
346
330
1D0
100
AcDbEntity
  8
0
  6
CONTINUOUS
 62
     7
100
AcDbVertex
100
AcDb2dVertex
 10
7.388073938
 20
6.8335903889
 30
0.0
  0
VERTEX
  5
347
330
1D0
100
AcDbEntity
  8
0
  6
CONTINUOUS
 62
     7
100
AcDbVertex
100
AcDb2dVertex
 10
7.3890178966
 20
6.8117732501
 30
0.0
  0
VERTEX
  5
348
330
1D0
100
AcDbEntity
  8
0
  6
CONTINUOUS
 62
     7
100
AcDbVertex
100
AcDb2dVertex
 10
7.390903575
 20
6.7905793466
 30
0.0
  0
VERTEX
  5
349
330
1D0
100
AcDbEntity
  8
0
  6
CONTINUOUS
 62
     7
100
AcDbVertex
100
AcDb2dVertex
 10
7.3937265005
 20
6.7700589479
 30
0.0
  0
VERTEX
  5
34A
330
1D0
100
AcDbEntity
  8
0
  6
CONTINUOUS
 62
     7
100
AcDbVertex
100
AcDb2dVertex
 10
7.3974799773
 20
6.7502607263
 30
0.0
  0
VERTEX
  5
34B
330
1D0
100
AcDbEntity
  8
0
  6
CONTINUOUS
 62
     7
100
AcDbVertex
100
AcDb2dVertex
 10
7.4021551028
 20
6.7312316407
 30
0.0
  0
VERTEX
  5
34C
330
1D0
100
AcDbEntity
  8
0
  6
CONTINUOUS
 62
     7
100
AcDbVertex
100
AcDb2dVertex
 10
7.4077407879
 20
6.7130168263
 30
0.0
  0
VERTEX
  5
34D
330
1D0
100
AcDbEntity
  8
0
  6
CONTINUOUS
 62
     7
100
AcDbVertex
100
AcDb2dVertex
 10
7.4142237841
 20
6.6956594864
 30
0.0
  0
VERTEX
  5
34E
330
1D0
100
AcDbEntity
  8
0
  6
CONTINUOUS
 62
     7
100
AcDbVertex
100
AcDb2dVertex
 10
7.4215887145
 20
6.6792007908
 30
0.0
  0
VERTEX
  5
34F
330
1D0
100
AcDbEntity
  8
0
  6
CONTINUOUS
 62
     7
100
AcDbVertex
100
AcDb2dVertex
 10
7.4298181101
 20
6.6636797777
 30
0.0
  0
VERTEX
  5
350
330
1D0
100
AcDbEntity
  8
0
  6
CONTINUOUS
 62
     7
100
AcDbVertex
100
AcDb2dVertex
 10
7.4388924519
 20
6.6491332611
 30
0.0
  0
VERTEX
  5
351
330
1D0
100
AcDbEntity
  8
0
  6
CONTINUOUS
 62
     7
100
AcDbVertex
100
AcDb2dVertex
 10
7.4487902164
 20
6.635595744
 30
0.0
  0
VERTEX
  5
352
330
1D0
100
AcDbEntity
  8
0
  6
CONTINUOUS
 62
     7
100
AcDbVertex
100
AcDb2dVertex
 10
7.4594879273
 20
6.6230993356
 30
0.0
  0
VERTEX
  5
353
330
1D0
100
AcDbEntity
  8
0
  6
CONTINUOUS
 62
     7
100
AcDbVertex
100
AcDb2dVertex
 10
7.4709602108
 20
6.6116736762
 30
0.0
  0
VERTEX
  5
354
330
1D0
100
AcDbEntity
  8
0
  6
CONTINUOUS
 62
     7
100
AcDbVertex
100
AcDb2dVertex
 10
7.4831798558
 20
6.6013458662
 30
0.0
  0
VERTEX
  5
355
330
1D0
100
AcDbEntity
  8
0
  6
CONTINUOUS
 62
     7
100
AcDbVertex
100
AcDb2dVertex
 10
7.4961178788
 20
6.5921404019
 30
0.0
  0
VERTEX
  5
356
330
1D0
100
AcDbEntity
  8
0
  6
CONTINUOUS
 62
     7
100
AcDbVertex
100
AcDb2dVertex
 10
7.5045782541
 20
6.5869535337
 30
0.0
  0
SEQEND
  5
357
330
1D0
100
AcDbEntity
  8
0
  6
CONTINUOUS
 62
     7
  0
SPLINE
  5
1D1
330
1F
100
AcDbEntity
  8
0
  6
CONTINUOUS
 62
     7
100
AcDbSpline
210
0.0
220
0.0
230
1.0
 70
     8
 71
     3
 72
    39
 73
    35
 74
     0
 42
0.00000001
 43
0.00000001
 40
-0.094718484142245
 40
-0.0631148936934891
 40
-0.0313796573865747
 40
0.0
 40
0.0314236088732642
 40
0.0631736340506382
 40
0.0948059492734355
 40
0.1259955878889364
 40
0.1570099956926543
 40
0.1882258602346547
 40
0.2193355822921361
 40
0.2500197563318773
 40
0.2806409185479109
 40
0.3118127935696493
 40
0.3429773690883969
 40
0.3740019046473577
 40
0.4051510868094202
 40
0.4368626304854145
 40
0.4686894460529303
 40
0.5001577239641284
 40
0.5315486107022344
 40
0.5632961543732639
 40
0.5948624186784449
 40
0.6260286212253179
 40
0.6570471044111938
 40
0.6882488879822679
 40
0.719393022508111
 40
0.7500871189095023
 40
0.7807320181341603
 40
0.8119318546050643
 40
0.8431041879582993
 40
0.8741536748632119
 40
0.905281515857755
 40
0.9368851063065109
 40
0.9686203426134253
 40
1.0
 40
1.031423608873264
 40
1.063173634050638
 40
1.094805949273435
 10
7.797229731598967
 20
7.512318621453757
 30
0.0
 10
7.809220594529183
 20
7.520956297647734
 30
0.0
 10
7.823761095804377
 20
7.527605537272819
 30
0.0
 10
7.840378317403637
 20
7.532010200461569
 30
0.0
 10
7.858264165213378
 20
7.534202078490056
 30
0.0
 10
7.876773211732881
 20
7.534078080457862
 30
0.0
 10
7.895246021197846
 20
7.531848206729903
 30
0.0
 10
7.913010462027603
 20
7.527681589087917
 30
0.0
 10
7.929434303718443
 20
7.522001240395507
 30
0.0
 10
7.94370490551454
 20
7.5150165200341
 30
0.0
 10
7.955363651922616
 20
7.507039832321925
 30
0.0
 10
7.963867756578201
 20
7.498322993050889
 30
0.0
 10
7.969166570148986
 20
7.489170327401376
 30
0.0
 10
7.970760764071101
 20
7.479822704467336
 30
0.0
 10
7.968705982046475
 20
7.470439054137429
 30
0.0
 10
7.962964054207156
 20
7.461216448661424
 30
0.0
 10
7.954043846829403
 20
7.452338287443481
 30
0.0
 10
7.942052172915266
 20
7.444191880256594
 30
0.0
 10
7.927511768544572
 20
7.437013844644816
 30
0.0
 10
7.910904292345356
 20
7.431147840909417
 30
0.0
 10
7.893028468414424
 20
7.426750250587012
 30
0.0
 10
7.874533159659094
 20
7.424283179189586
 30
0.0
 10
7.856069247469347
 20
7.42390583607741
 30
0.0
 10
7.83830073906438
 20
7.425863487736411
 30
0.0
 10
7.82186921768599
 20
7.430018823682944
 30
0.0
 10
7.807591759195692
 20
7.436483508257701
 30
0.0
 10
7.795937356678928
 20
7.445000023802056
 30
0.0
 10
7.787443027834054
 20
7.45525659080347
 30
0.0
 10
7.782157144563061
 20
7.466630861962355
 30
0.0
 10
7.780572970582118
 20
7.478594402921368
 30
0.0
 10
7.78261558433277
 20
7.490576415277688
 30
0.0
 10
7.788333038237112
 20
7.501998848449814
 30
0.0
 10
7.797229731598967
 20
7.512318621453757
 30
0.0
 10
7.809220594529183
 20
7.520956297647734
 30
0.0
 10
7.823761095804377
 20
7.527605537272819
 30
0.0
  0
SPLINE
  5
1D2
330
1F
100
AcDbEntity
  8
0
  6
CONTINUOUS
 62
     7
100
AcDbSpline
210
0.0
220
0.0
230
1.0
 70
     8
 71
     3
 72
    39
 73
    35
 74
     0
 42
0.00000001
 43
0.00000001
 40
-0.0947184841421886
 40
-0.0631148936934888
 40
-0.031379657386574
 40
0.0
 40
0.03142360887306
 40
0.0631736340506306
 40
0.0948059492733454
 40
0.1259955878889406
 40
0.1570099956927328
 40
0.1882258602346531
 40
0.2193355822921058
 40
0.250019756331877
 40
0.2806409185478804
 40
0.3118127935696473
 40
0.3429773690883652
 40
0.3740019046473566
 40
0.4051510868093648
 40
0.4368626304854115
 40
0.4686894460529532
 40
0.5001577239641306
 40
0.5315486107023865
 40
0.5632961543732666
 40
0.5948624186785756
 40
0.6260286212253201
 40
0.6570471044111482
 40
0.6882488879822636
 40
0.7193930225080117
 40
0.7500871189095015
 40
0.7807320181341675
 40
0.8119318546050648
 40
0.843104187958363
 40
0.8741536748632146
 40
0.9052815158578112
 40
0.9368851063065111
 40
0.9686203426134259
 40
0.9999999999999999
 40
1.03142360887306
 40
1.063173634050631
 40
1.094805949273345
 10
8.39298111417346
 20
7.168398668835528
 30
0.0
 10
8.404971977103642
 20
7.17703634502949
 30
0.0
 10
8.419512478378856
 20
7.183685584654562
 30
0.0
 10
8.436129699978077
 20
7.188090247843329
 30
0.0
 10
8.454015547787842
 20
7.190282125871858
 30
0.0
 10
8.472524594307373
 20
7.19015812783963
 30
0.0
 10
8.490997403772349
 20
7.18792825411166
 30
0.0
 10
8.508761844602104
 20
7.183761636469688
 30
0.0
 10
8.525185686292932
 20
7.178081287777283
 30
0.0
 10
8.539456288089024
 20
7.171096567415876
 30
0.0
 10
8.5511150344971
 20
7.163119879703699
 30
0.0
 10
8.559619139152689
 20
7.154403040432668
 30
0.0
 10
8.564917952723484
 20
7.145250374783151
 30
0.0
 10
8.566512146645595
 20
7.135902751849117
 30
0.0
 10
8.564457364620962
 20
7.126519101519206
 30
0.0
 10
8.558715436781648
 20
7.1172964960432
 30
0.0
 10
8.549795229403914
 20
7.108418334825242
 30
0.0
 10
8.537803555489731
 20
7.100271927638353
 30
0.0
 10
8.523263151119039
 20
7.093093892026576
 30
0.0
 10
8.506655674919797
 20
7.087227888291172
 30
0.0
 10
8.48877985098889
 20
7.082830297968781
 30
0.0
 10
8.47028454223357
 20
7.080363226571353
 30
0.0
 10
8.451820630043851
 20
7.079985883459201
 30
0.0
 10
8.434052121638898
 20
7.081943535118176
 30
0.0
 10
8.417620600260488
 20
7.086098871064699
 30
0.0
 10
8.403343141770199
 20
7.092563555639467
 30
0.0
 10
8.391688739253418
 20
7.101080071183826
 30
0.0
 10
8.383194410408542
 20
7.11133663818525
 30
0.0
 10
8.377908527137542
 20
7.122710909344132
 30
0.0
 10
8.37632435315661
 20
7.134674450303154
 30
0.0
 10
8.378366966907276
 20
7.146656462659466
 30
0.0
 10
8.384084420811607
 20
7.158078895831593
 30
0.0
 10
8.39298111417346
 20
7.168398668835528
 30
0.0
 10
8.404971977103642
 20
7.17703634502949
 30
0.0
 10
8.419512478378856
 20
7.183685584654562
 30
0.0
  0
POLYLINE
  5
1D3
330
1F
100
AcDbEntity
  8
0
  6
CONTINUOUS
 62
     7
100
AcDb2dPolyline
 66
     1
 10
0.0
 20
0.0
 30
0.0
  0
VERTEX
  5
358
330
1D3
100
AcDbEntity
  8
0
  6
CONTINUOUS
 62
     7
100
AcDbVertex
100
AcDb2dVertex
 10
8.6657590897
 20
6.6753600846
 30
0.0
  0
VERTEX
  5
359
330
1D3
100
AcDbEntity
  8
0
  6
CONTINUOUS
 62
     7
100
AcDbVertex
100
AcDb2dVertex
 10
8.6652761743
 20
6.6640853245
 30
0.0
  0
VERTEX
  5
35A
330
1D3
100
AcDbEntity
  8
0
  6
CONTINUOUS
 62
     7
100
AcDbVertex
100
AcDb2dVertex
 10
8.6638323833
 20
6.6523686965
 30
0.0
  0
VERTEX
  5
35B
330
1D3
100
AcDbEntity
  8
0
  6
CONTINUOUS
 62
     7
100
AcDbVertex
100
AcDb2dVertex
 10
8.661442532
 20
6.6403304289
 30
0.0
  0
VERTEX
  5
35C
330
1D3
100
AcDbEntity
  8
0
  6
CONTINUOUS
 62
     7
100
AcDbVertex
100
AcDb2dVertex
 10
8.6581311436
 20
6.6280940506
 30
0.0
  0
VERTEX
  5
35D
330
1D3
100
AcDbEntity
  8
0
  6
CONTINUOUS
 62
     7
100
AcDbVertex
100
AcDb2dVertex
 10
8.6539321973
 20
6.6157851236
 30
0.0
  0
VERTEX
  5
35E
330
1D3
100
AcDbEntity
  8
0
  6
CONTINUOUS
 62
     7
100
AcDbVertex
100
AcDb2dVertex
 10
8.6488887801
 20
6.6035299539
 30
0.0
  0
VERTEX
  5
35F
330
1D3
100
AcDbEntity
  8
0
  6
CONTINUOUS
 62
     7
100
AcDbVertex
100
AcDb2dVertex
 10
8.6430526441
 20
6.5914542963
 30
0.0
  0
VERTEX
  5
360
330
1D3
100
AcDbEntity
  8
0
  6
CONTINUOUS
 62
     7
100
AcDbVertex
100
AcDb2dVertex
 10
8.6364836762
 20
6.5796820633
 30
0.0
  0
VERTEX
  5
361
330
1D3
100
AcDbEntity
  8
0
  6
CONTINUOUS
 62
     7
100
AcDbVertex
100
AcDb2dVertex
 10
8.6292492827
 20
6.5683340539
 30
0.0
  0
VERTEX
  5
362
330
1D3
100
AcDbEntity
  8
0
  6
CONTINUOUS
 62
     7
100
AcDbVertex
100
AcDb2dVertex
 10
8.6214236983
 20
6.5575267142
 30
0.0
  0
VERTEX
  5
363
330
1D3
100
AcDbEntity
  8
0
  6
CONTINUOUS
 62
     7
100
AcDbVertex
100
AcDb2dVertex
 10
8.6130872241
 20
6.5473709419
 30
0.0
  0
VERTEX
  5
364
330
1D3
100
AcDbEntity
  8
0
  6
CONTINUOUS
 62
     7
100
AcDbVertex
100
AcDb2dVertex
 10
8.6043254037
 20
6.5379709492
 30
0.0
  0
VERTEX
  5
365
330
1D3
100
AcDbEntity
  8
0
  6
CONTINUOUS
 62
     7
100
AcDbVertex
100
AcDb2dVertex
 10
8.5952281451
 20
6.5294231926
 30
0.0
  0
VERTEX
  5
366
330
1D3
100
AcDbEntity
  8
0
  6
CONTINUOUS
 62
     7
100
AcDbVertex
100
AcDb2dVertex
 10
8.5858887986
 20
6.5218153837
 30
0.0
  0
VERTEX
  5
367
330
1D3
100
AcDbEntity
  8
0
  6
CONTINUOUS
 62
     7
100
AcDbVertex
100
AcDb2dVertex
 10
8.5764031984
 20
6.5152255889
 30
0.0
  0
VERTEX
  5
368
330
1D3
100
AcDbEntity
  8
0
  6
CONTINUOUS
 62
     7
100
AcDbVertex
100
AcDb2dVertex
 10
8.5668686797
 20
6.5097214284
 30
0.0
  0
VERTEX
  5
369
330
1D3
100
AcDbEntity
  8
0
  6
CONTINUOUS
 62
     7
100
AcDbVertex
100
AcDb2dVertex
 10
8.5573830795
 20
6.5053593824
 30
0.0
  0
VERTEX
  5
36A
330
1D3
100
AcDbEntity
  8
0
  6
CONTINUOUS
 62
     7
100
AcDbVertex
100
AcDb2dVertex
 10
8.548043733
 20
6.5021842113
 30
0.0
  0
VERTEX
  5
36B
330
1D3
100
AcDbEntity
  8
0
  6
CONTINUOUS
 62
     7
100
AcDbVertex
100
AcDb2dVertex
 10
8.5389464744
 20
6.5002284967
 30
0.0
  0
VERTEX
  5
36C
330
1D3
100
AcDbEntity
  8
0
  6
CONTINUOUS
 62
     7
100
AcDbVertex
100
AcDb2dVertex
 10
8.530184654
 20
6.4995123069
 30
0.0
  0
VERTEX
  5
36D
330
1D3
100
AcDbEntity
  8
0
  6
CONTINUOUS
 62
     7
100
AcDbVertex
100
AcDb2dVertex
 10
8.5218481798
 20
6.5000429909
 30
0.0
  0
VERTEX
  5
36E
330
1D3
100
AcDbEntity
  8
0
  6
CONTINUOUS
 62
     7
100
AcDbVertex
100
AcDb2dVertex
 10
8.5140225954
 20
6.5018151033
 30
0.0
  0
VERTEX
  5
36F
330
1D3
100
AcDbEntity
  8
0
  6
CONTINUOUS
 62
     7
100
AcDbVertex
100
AcDb2dVertex
 10
8.5067882019
 20
6.5048104596
 30
0.0
  0
VERTEX
  5
370
330
1D3
100
AcDbEntity
  8
0
  6
CONTINUOUS
 62
     7
100
AcDbVertex
100
AcDb2dVertex
 10
8.5002192339
 20
6.5089983237
 30
0.0
  0
VERTEX
  5
371
330
1D3
100
AcDbEntity
  8
0
  6
CONTINUOUS
 62
     7
100
AcDbVertex
100
AcDb2dVertex
 10
8.494383098
 20
6.5143357222
 30
0.0
  0
VERTEX
  5
372
330
1D3
100
AcDbEntity
  8
0
  6
CONTINUOUS
 62
     7
100
AcDbVertex
100
AcDb2dVertex
 10
8.4893396807
 20
6.5207678862
 30
0.0
  0
VERTEX
  5
373
330
1D3
100
AcDbEntity
  8
0
  6
CONTINUOUS
 62
     7
100
AcDbVertex
100
AcDb2dVertex
 10
8.4851407345
 20
6.5282288131
 30
0.0
  0
VERTEX
  5
374
330
1D3
100
AcDbEntity
  8
0
  6
CONTINUOUS
 62
     7
100
AcDbVertex
100
AcDb2dVertex
 10
8.481829346
 20
6.5366419437
 30
0.0
  0
VERTEX
  5
375
330
1D3
100
AcDbEntity
  8
0
  6
CONTINUOUS
 62
     7
100
AcDbVertex
100
AcDb2dVertex
 10
8.4794394948
 20
6.5459209478
 30
0.0
  0
VERTEX
  5
376
330
1D3
100
AcDbEntity
  8
0
  6
CONTINUOUS
 62
     7
100
AcDbVertex
100
AcDb2dVertex
 10
8.4779957038
 20
6.5559706102
 30
0.0
  0
VERTEX
  5
377
330
1D3
100
AcDbEntity
  8
0
  6
CONTINUOUS
 62
     7
100
AcDbVertex
100
AcDb2dVertex
 10
8.4775127884
 20
6.566687808
 30
0.0
  0
VERTEX
  5
378
330
1D3
100
AcDbEntity
  8
0
  6
CONTINUOUS
 62
     7
100
AcDbVertex
100
AcDb2dVertex
 10
8.4779957038
 20
6.577962568
 30
0.0
  0
VERTEX
  5
379
330
1D3
100
AcDbEntity
  8
0
  6
CONTINUOUS
 62
     7
100
AcDbVertex
100
AcDb2dVertex
 10
8.4794394948
 20
6.589679196
 30
0.0
  0
VERTEX
  5
37A
330
1D3
100
AcDbEntity
  8
0
  6
CONTINUOUS
 62
     7
100
AcDbVertex
100
AcDb2dVertex
 10
8.481829346
 20
6.6017174636
 30
0.0
  0
VERTEX
  5
37B
330
1D3
100
AcDbEntity
  8
0
  6
CONTINUOUS
 62
     7
100
AcDbVertex
100
AcDb2dVertex
 10
8.4851407345
 20
6.6139538419
 30
0.0
  0
VERTEX
  5
37C
330
1D3
100
AcDbEntity
  8
0
  6
CONTINUOUS
 62
     7
100
AcDbVertex
100
AcDb2dVertex
 10
8.4893396807
 20
6.626262769
 30
0.0
  0
VERTEX
  5
37D
330
1D3
100
AcDbEntity
  8
0
  6
CONTINUOUS
 62
     7
100
AcDbVertex
100
AcDb2dVertex
 10
8.494383098
 20
6.6385179386
 30
0.0
  0
VERTEX
  5
37E
330
1D3
100
AcDbEntity
  8
0
  6
CONTINUOUS
 62
     7
100
AcDbVertex
100
AcDb2dVertex
 10
8.5002192339
 20
6.6505935963
 30
0.0
  0
VERTEX
  5
37F
330
1D3
100
AcDbEntity
  8
0
  6
CONTINUOUS
 62
     7
100
AcDbVertex
100
AcDb2dVertex
 10
8.5067882019
 20
6.6623658293
 30
0.0
  0
VERTEX
  5
380
330
1D3
100
AcDbEntity
  8
0
  6
CONTINUOUS
 62
     7
100
AcDbVertex
100
AcDb2dVertex
 10
8.5140225954
 20
6.6737138386
 30
0.0
  0
VERTEX
  5
381
330
1D3
100
AcDbEntity
  8
0
  6
CONTINUOUS
 62
     7
100
AcDbVertex
100
AcDb2dVertex
 10
8.5218481798
 20
6.6845211784
 30
0.0
  0
VERTEX
  5
382
330
1D3
100
AcDbEntity
  8
0
  6
CONTINUOUS
 62
     7
100
AcDbVertex
100
AcDb2dVertex
 10
8.530184654
 20
6.6946769506
 30
0.0
  0
VERTEX
  5
383
330
1D3
100
AcDbEntity
  8
0
  6
CONTINUOUS
 62
     7
100
AcDbVertex
100
AcDb2dVertex
 10
8.5389464744
 20
6.7040769433
 30
0.0
  0
VERTEX
  5
384
330
1D3
100
AcDbEntity
  8
0
  6
CONTINUOUS
 62
     7
100
AcDbVertex
100
AcDb2dVertex
 10
8.548043733
 20
6.7126246999
 30
0.0
  0
VERTEX
  5
385
330
1D3
100
AcDbEntity
  8
0
  6
CONTINUOUS
 62
     7
100
AcDbVertex
100
AcDb2dVertex
 10
8.5573830795
 20
6.7202325088
 30
0.0
  0
VERTEX
  5
386
330
1D3
100
AcDbEntity
  8
0
  6
CONTINUOUS
 62
     7
100
AcDbVertex
100
AcDb2dVertex
 10
8.5668686797
 20
6.7268223036
 30
0.0
  0
VERTEX
  5
387
330
1D3
100
AcDbEntity
  8
0
  6
CONTINUOUS
 62
     7
100
AcDbVertex
100
AcDb2dVertex
 10
8.5764031984
 20
6.7323264641
 30
0.0
  0
VERTEX
  5
388
330
1D3
100
AcDbEntity
  8
0
  6
CONTINUOUS
 62
     7
100
AcDbVertex
100
AcDb2dVertex
 10
8.5858887986
 20
6.7366885101
 30
0.0
  0
VERTEX
  5
389
330
1D3
100
AcDbEntity
  8
0
  6
CONTINUOUS
 62
     7
100
AcDbVertex
100
AcDb2dVertex
 10
8.5952281451
 20
6.7398636812
 30
0.0
  0
VERTEX
  5
38A
330
1D3
100
AcDbEntity
  8
0
  6
CONTINUOUS
 62
     7
100
AcDbVertex
100
AcDb2dVertex
 10
8.6043254037
 20
6.7418193958
 30
0.0
  0
VERTEX
  5
38B
330
1D3
100
AcDbEntity
  8
0
  6
CONTINUOUS
 62
     7
100
AcDbVertex
100
AcDb2dVertex
 10
8.6130872241
 20
6.7425355856
 30
0.0
  0
VERTEX
  5
38C
330
1D3
100
AcDbEntity
  8
0
  6
CONTINUOUS
 62
     7
100
AcDbVertex
100
AcDb2dVertex
 10
8.6214236983
 20
6.7420049016
 30
0.0
  0
VERTEX
  5
38D
330
1D3
100
AcDbEntity
  8
0
  6
CONTINUOUS
 62
     7
100
AcDbVertex
100
AcDb2dVertex
 10
8.6292492827
 20
6.7402327893
 30
0.0
  0
VERTEX
  5
38E
330
1D3
100
AcDbEntity
  8
0
  6
CONTINUOUS
 62
     7
100
AcDbVertex
100
AcDb2dVertex
 10
8.6364836762
 20
6.7372374329
 30
0.0
  0
VERTEX
  5
38F
330
1D3
100
AcDbEntity
  8
0
  6
CONTINUOUS
 62
     7
100
AcDbVertex
100
AcDb2dVertex
 10
8.6430526441
 20
6.7330495689
 30
0.0
  0
VERTEX
  5
390
330
1D3
100
AcDbEntity
  8
0
  6
CONTINUOUS
 62
     7
100
AcDbVertex
100
AcDb2dVertex
 10
8.6488887801
 20
6.7277121703
 30
0.0
  0
VERTEX
  5
391
330
1D3
100
AcDbEntity
  8
0
  6
CONTINUOUS
 62
     7
100
AcDbVertex
100
AcDb2dVertex
 10
8.6539321973
 20
6.7212800063
 30
0.0
  0
VERTEX
  5
392
330
1D3
100
AcDbEntity
  8
0
  6
CONTINUOUS
 62
     7
100
AcDbVertex
100
AcDb2dVertex
 10
8.6581311436
 20
6.7138190794
 30
0.0
  0
VERTEX
  5
393
330
1D3
100
AcDbEntity
  8
0
  6
CONTINUOUS
 62
     7
100
AcDbVertex
100
AcDb2dVertex
 10
8.661442532
 20
6.7054059488
 30
0.0
  0
VERTEX
  5
394
330
1D3
100
AcDbEntity
  8
0
  6
CONTINUOUS
 62
     7
100
AcDbVertex
100
AcDb2dVertex
 10
8.6638323833
 20
6.6961269448
 30
0.0
  0
VERTEX
  5
395
330
1D3
100
AcDbEntity
  8
0
  6
CONTINUOUS
 62
     7
100
AcDbVertex
100
AcDb2dVertex
 10
8.6652761743
 20
6.6860772823
 30
0.0
  0
VERTEX
  5
396
330
1D3
100
AcDbEntity
  8
0
  6
CONTINUOUS
 62
     7
100
AcDbVertex
100
AcDb2dVertex
 10
8.6657590897
 20
6.6753600846
 30
0.0
  0
SEQEND
  5
397
330
1D3
100
AcDbEntity
  8
0
  6
CONTINUOUS
 62
     7
  0
SPLINE
  5
1D4
330
1F
100
AcDbEntity
  8
0
  6
CONTINUOUS
 62
     7
100
AcDbSpline
210
0.0
220
0.0
230
1.0
 70
     8
 71
     3
 72
    11
 73
     7
 74
     0
 42
0.00000001
 43
0.00000001
 40
0.0
 40
0.0
 40
0.0
 40
0.0
 40
0.3337752792998139
 40
0.6324414809129792
 40
0.895104954611294
 40
1.0
 40
1.0
 40
1.0
 40
1.0
 10
8.38874542983278
 20
7.124626818698362
 30
0.0
 10
8.389164975248077
 20
7.120416243820403
 30
0.0
 10
8.389959935031552
 20
7.112437995051058
 30
0.0
 10
8.396025247010027
 20
7.102032612401418
 30
0.0
 10
8.40228466016739
 20
7.094887191282864
 30
0.0
 10
8.406999890005002
 20
7.09173566285724
 30
0.0
 10
8.40834553762885
 20
7.090836269427125
 30
0.0
  0
SPLINE
  5
1D5
330
1F
100
AcDbEntity
  8
0
  6
CONTINUOUS
 62
     7
100
AcDbSpline
210
0.0
220
0.0
230
1.0
 70
     8
 71
     3
 72
    10
 73
     6
 74
     0
 42
0.00000001
 43
0.00000001
 40
0.0
 40
0.0
 40
0.0
 40
0.0
 40
0.0611356930411016
 40
0.5051271679656013
 40
1.0
 40
1.0
 40
1.0
 40
1.0
 10
8.544972014634787
 20
7.105600615431741
 30
0.0
 10
8.54538143053129
 20
7.105961176415643
 30
0.0
 10
8.548764185874902
 20
7.108940273234829
 30
0.0
 10
8.55268984073549
 20
7.115381533883907
 30
0.0
 10
8.553606780455032
 20
7.121435258271963
 30
0.0
 10
8.554090096896452
 20
7.124626159992336
 30
0.0
  0
ARC
  5
1D6
330
1F
100
AcDbEntity
  8
0
  6
CONTINUOUS
 62
     7
100
AcDbCircle
 10
8.5942348464
 20
6.6837789235
 30
0.0
 40
0.0510105634431196
100
AcDbArc
 50
350.5003786391
 51
123.393096908
  0
POLYLINE
  5
1D7
330
1F
100
AcDbEntity
  8
0
  6
CONTINUOUS
 62
     7
100
AcDb2dPolyline
 66
     1
 10
0.0
 20
0.0
 30
0.0
  0
VERTEX
  5
398
330
1D7
100
AcDbEntity
  8
0
  6
CONTINUOUS
 62
     7
100
AcDbVertex
100
AcDb2dVertex
 10
8.4776713461
 20
6.5730855286
 30
0.0
  0
VERTEX
  5
399
330
1D7
100
AcDbEntity
  8
0
  6
CONTINUOUS
 62
     7
100
AcDbVertex
100
AcDb2dVertex
 10
8.4785760914
 20
6.5642073871
 30
0.0
  0
VERTEX
  5
39A
330
1D7
100
AcDbEntity
  8
0
  6
CONTINUOUS
 62
     7
100
AcDbVertex
100
AcDb2dVertex
 10
8.4804552544
 20
6.5552584868
 30
0.0
  0
VERTEX
  5
39B
330
1D7
100
AcDbEntity
  8
0
  6
CONTINUOUS
 62
     7
100
AcDbVertex
100
AcDb2dVertex
 10
8.4832473539
 20
6.5471241122
 30
0.0
  0
VERTEX
  5
39C
330
1D7
100
AcDbEntity
  8
0
  6
CONTINUOUS
 62
     7
100
AcDbVertex
100
AcDb2dVertex
 10
8.4869207543
 20
6.539896429
 30
0.0
  0
VERTEX
  5
39D
330
1D7
100
AcDbEntity
  8
0
  6
CONTINUOUS
 62
     7
100
AcDbVertex
100
AcDb2dVertex
 10
8.4914338346
 20
6.5336573296
 30
0.0
  0
VERTEX
  5
39E
330
1D7
100
AcDbEntity
  8
0
  6
CONTINUOUS
 62
     7
100
AcDbVertex
100
AcDb2dVertex
 10
8.4967354598
 20
6.5284775057
 30
0.0
  0
VERTEX
  5
39F
330
1D7
100
AcDbEntity
  8
0
  6
CONTINUOUS
 62
     7
100
AcDbVertex
100
AcDb2dVertex
 10
8.5027655602
 20
6.5244156467
 30
0.0
  0
VERTEX
  5
3A0
330
1D7
100
AcDbEntity
  8
0
  6
CONTINUOUS
 62
     7
100
AcDbVertex
100
AcDb2dVertex
 10
8.5094558126
 20
6.521517775
 30
0.0
  0
VERTEX
  5
3A1
330
1D7
100
AcDbEntity
  8
0
  6
CONTINUOUS
 62
     7
100
AcDbVertex
100
AcDb2dVertex
 10
8.5167304136
 20
6.5198167247
 30
0.0
  0
VERTEX
  5
3A2
330
1D7
100
AcDbEntity
  8
0
  6
CONTINUOUS
 62
     7
100
AcDbVertex
100
AcDb2dVertex
 10
8.5245069391
 20
6.5193317694
 30
0.0
  0
VERTEX
  5
3A3
330
1D7
100
AcDbEntity
  8
0
  6
CONTINUOUS
 62
     7
100
AcDbVertex
100
AcDb2dVertex
 10
8.5326972779
 20
6.5200684039
 30
0.0
  0
VERTEX
  5
3A4
330
1D7
100
AcDbEntity
  8
0
  6
CONTINUOUS
 62
     7
100
AcDbVertex
100
AcDb2dVertex
 10
8.5412086304
 20
6.5220182817
 30
0.0
  0
VERTEX
  5
3A5
330
1D7
100
AcDbEntity
  8
0
  6
CONTINUOUS
 62
     7
100
AcDbVertex
100
AcDb2dVertex
 10
8.5499445593
 20
6.5251593099
 30
0.0
  0
VERTEX
  5
3A6
330
1D7
100
AcDbEntity
  8
0
  6
CONTINUOUS
 62
     7
100
AcDbVertex
100
AcDb2dVertex
 10
8.5588060832
 20
6.5294558996
 30
0.0
  0
VERTEX
  5
3A7
330
1D7
100
AcDbEntity
  8
0
  6
CONTINUOUS
 62
     7
100
AcDbVertex
100
AcDb2dVertex
 10
8.5676927975
 20
6.5348593685
 30
0.0
  0
VERTEX
  5
3A8
330
1D7
100
AcDbEntity
  8
0
  6
CONTINUOUS
 62
     7
100
AcDbVertex
100
AcDb2dVertex
 10
8.5765040121
 20
6.5413084932
 30
0.0
  0
VERTEX
  5
3A9
330
1D7
100
AcDbEntity
  8
0
  6
CONTINUOUS
 62
     7
100
AcDbVertex
100
AcDb2dVertex
 10
8.5851398925
 20
6.5487302026
 30
0.0
  0
VERTEX
  5
3AA
330
1D7
100
AcDbEntity
  8
0
  6
CONTINUOUS
 62
     7
100
AcDbVertex
100
AcDb2dVertex
 10
8.5935025906
 20
6.5570404057
 30
0.0
  0
VERTEX
  5
3AB
330
1D7
100
AcDbEntity
  8
0
  6
CONTINUOUS
 62
     7
100
AcDbVertex
100
AcDb2dVertex
 10
8.6014973538
 20
6.5661449447
 30
0.0
  0
VERTEX
  5
3AC
330
1D7
100
AcDbEntity
  8
0
  6
CONTINUOUS
 62
     7
100
AcDbVertex
100
AcDb2dVertex
 10
8.6090335982
 20
6.5759406613
 30
0.0
  0
VERTEX
  5
3AD
330
1D7
100
AcDbEntity
  8
0
  6
CONTINUOUS
 62
     7
100
AcDbVertex
100
AcDb2dVertex
 10
8.6160259352
 20
6.5863165664
 30
0.0
  0
VERTEX
  5
3AE
330
1D7
100
AcDbEntity
  8
0
  6
CONTINUOUS
 62
     7
100
AcDbVertex
100
AcDb2dVertex
 10
8.6223951387
 20
6.5971550966
 30
0.0
  0
VERTEX
  5
3AF
330
1D7
100
AcDbEntity
  8
0
  6
CONTINUOUS
 62
     7
100
AcDbVertex
100
AcDb2dVertex
 10
8.6280690431
 20
6.6083334472
 30
0.0
  0
VERTEX
  5
3B0
330
1D7
100
AcDbEntity
  8
0
  6
CONTINUOUS
 62
     7
100
AcDbVertex
100
AcDb2dVertex
 10
8.6329833609
 20
6.6197249629
 30
0.0
  0
VERTEX
  5
3B1
330
1D7
100
AcDbEntity
  8
0
  6
CONTINUOUS
 62
     7
100
AcDbVertex
100
AcDb2dVertex
 10
8.6370824109
 20
6.6312005733
 30
0.0
  0
VERTEX
  5
3B2
330
1D7
100
AcDbEntity
  8
0
  6
CONTINUOUS
 62
     7
100
AcDbVertex
100
AcDb2dVertex
 10
8.6403197492
 20
6.6426302553
 30
0.0
  0
VERTEX
  5
3B3
330
1D7
100
AcDbEntity
  8
0
  6
CONTINUOUS
 62
     7
100
AcDbVertex
100
AcDb2dVertex
 10
8.6426586954
 20
6.6538845058
 30
0.0
  0
VERTEX
  5
3B4
330
1D7
100
AcDbEntity
  8
0
  6
CONTINUOUS
 62
     7
100
AcDbVertex
100
AcDb2dVertex
 10
8.6440727483
 20
6.6648358098
 30
0.0
  0
VERTEX
  5
3B5
330
1D7
100
AcDbEntity
  8
0
  6
CONTINUOUS
 62
     7
100
AcDbVertex
100
AcDb2dVertex
 10
8.6445458863
 20
6.6753600846
 30
0.0
  0
SEQEND
  5
3B6
330
1D7
100
AcDbEntity
  8
0
  6
CONTINUOUS
 62
     7
  0
SPLINE
  5
1D8
330
1F
100
AcDbEntity
  8
0
  6
CONTINUOUS
 62
     7
100
AcDbSpline
210
0.0
220
0.0
230
1.0
 70
     8
 71
     3
 72
    26
 73
    22
 74
     0
 42
0.00000001
 43
0.00000001
 40
0.0
 40
0.0
 40
0.0
 40
0.0
 40
0.0687594749000717
 40
0.1225905317626667
 40
0.177905858342777
 40
0.2317827646145323
 40
0.2874527330587684
 40
0.3380094503905566
 40
0.389858389677415
 40
0.4441229964947848
 40
0.4995478808101103
 40
0.5630838547051686
 40
0.628079716767202
 40
0.6854396720682641
 40
0.7442402534006858
 40
0.7898613896797453
 40
0.8367512553231993
 40
0.8824033267085615
 40
0.929381311034531
 40
0.9880366306106546
 40
0.9999999999999999
 40
0.9999999999999999
 40
0.9999999999999999
 40
0.9999999999999999
 10
8.595548862537683
 20
6.734332759333714
 30
0.0
 10
8.598590255434964
 20
6.730594629337342
 30
0.0
 10
8.604012722274893
 20
6.723929957381672
 30
0.0
 10
8.609447018419829
 20
6.713397171955641
 30
0.0
 10
8.612663001400223
 20
6.703440058757792
 30
0.0
 10
8.613761336279428
 20
6.693261193854292
 30
0.0
 10
8.61268164278521
 20
6.683592655243974
 30
0.0
 10
8.60963633157928
 20
6.674565815030675
 30
0.0
 10
8.604916041732032
 20
6.666334045571775
 30
0.0
 10
8.598495090440176
 20
6.658791752765588
 30
0.0
 10
8.590212195739994
 20
6.651898089414698
 30
0.0
 10
8.580160183511815
 20
6.646083402283584
 30
0.0
 10
8.56904025095337
 20
6.642035154516123
 30
0.0
 10
8.557708731717295
 20
6.640037536974323
 30
0.0
 10
8.547517317881645
 20
6.640182717482054
 30
0.0
 10
8.538364454605695
 20
6.642207127626538
 30
0.0
 10
8.530637097785087
 20
6.645696568812106
 30
0.0
 10
8.5237460506354
 20
6.65080300291338
 30
0.0
 10
8.517516415493802
 20
6.657920113464401
 30
0.0
 10
8.513382233532846
 20
6.664260591593683
 30
0.0
 10
8.511604971906785
 20
6.668709098015232
 30
0.0
 10
8.511303889606255
 20
6.669462710498436
 30
0.0
  0
ARC
  5
1D9
330
1F
100
AcDbEntity
  8
0
  6
CONTINUOUS
 62
     7
100
AcDbCircle
 10
8.2272023613
 20
6.8198612183
 30
0.0
 40
0.8400661620890034
100
AcDbArc
 50
122.5366636214
 51
177.4687129113
  0
SPLINE
  5
1DA
330
1F
100
AcDbEntity
  8
0
  6
CONTINUOUS
 62
     7
100
AcDbSpline
210
0.0
220
0.0
230
1.0
 70
     8
 71
     3
 72
    11
 73
     7
 74
     0
 42
0.00000001
 43
0.00000001
 40
0.0
 40
0.0
 40
0.0
 40
0.0
 40
0.3337752793007173
 40
0.6324414809142381
 40
0.8951049546123658
 40
1.0
 40
1.0
 40
1.0
 40
1.0
 10
7.792994047258285
 20
7.46854677131659
 30
0.0
 10
7.793413592673587
 20
7.464336196438622
 30
0.0
 10
7.794208552457064
 20
7.456357947669267
 30
0.0
 10
7.800273864435556
 20
7.445952565019619
 30
0.0
 10
7.806533277592917
 20
7.43880714390108
 30
0.0
 10
7.811248507430511
 20
7.435655615475468
 30
0.0
 10
7.812594155054346
 20
7.434756222045362
 30
0.0
  0
SPLINE
  5
1DB
330
1F
100
AcDbEntity
  8
0
  6
CONTINUOUS
 62
     7
100
AcDbSpline
210
0.0
220
0.0
230
1.0
 70
     8
 71
     3
 72
    10
 73
     6
 74
     0
 42
0.00000001
 43
0.00000001
 40
0.0
 40
0.0
 40
0.0
 40
0.0
 40
0.0611356930394805
 40
0.5051271679648022
 40
1.0
 40
1.0
 40
1.0
 40
1.0
 10
7.949220632060333
 20
7.449520568050005
 30
0.0
 10
7.949630047956823
 20
7.449881129033898
 30
0.0
 10
7.953012803300422
 20
7.452860225853073
 30
0.0
 10
7.956938458160998
 20
7.45930148650214
 30
0.0
 10
7.95785539788054
 20
7.465355210890192
 30
0.0
 10
7.95833871432196
 20
7.468546112610565
 30
0.0
  0
ARC
  5
1DC
330
1F
100
AcDbEntity
  8
0
  6
CONTINUOUS
 62
     7
100
AcDbCircle
 10
8.5126694663
 20
6.6956654236
 30
0.0
 40
0.0936702188523088
100
AcDbArc
 50
1.0767220481
 51
20.2574728132
  0
POLYLINE
  5
1DD
330
1F
100
AcDbEntity
  8
0
  6
CONTINUOUS
 62
     7
100
AcDb2dPolyline
 66
     1
 10
0.0
 20
0.0
 30
0.0
  0
VERTEX
  5
3B7
330
1DD
100
AcDbEntity
  8
0
  6
CONTINUOUS
 62
     7
100
AcDbVertex
100
AcDb2dVertex
 10
8.527984555
 20
6.69211907
 30
0.0
  0
VERTEX
  5
3B8
330
1DD
100
AcDbEntity
  8
0
  6
CONTINUOUS
 62
     7
100
AcDbVertex
100
AcDb2dVertex
 10
8.5312896494
 20
6.6880509721
 30
0.0
  0
VERTEX
  5
3B9
330
1DD
100
AcDbEntity
  8
0
  6
CONTINUOUS
 62
     7
100
AcDbVertex
100
AcDb2dVertex
 10
8.537722993
 20
6.681110217
 30
0.0
  0
VERTEX
  5
3BA
330
1DD
100
AcDbEntity
  8
0
  6
CONTINUOUS
 62
     7
100
AcDbVertex
100
AcDb2dVertex
 10
8.5444769197
 20
6.675026029
 30
0.0
  0
VERTEX
  5
3BB
330
1DD
100
AcDbEntity
  8
0
  6
CONTINUOUS
 62
     7
100
AcDbVertex
100
AcDb2dVertex
 10
8.5514256164
 20
6.6699117448
 30
0.0
  0
VERTEX
  5
3BC
330
1DD
100
AcDbEntity
  8
0
  6
CONTINUOUS
 62
     7
100
AcDbVertex
100
AcDb2dVertex
 10
8.5584396421
 20
6.6658626339
 30
0.0
  0
VERTEX
  5
3BD
330
1DD
100
AcDbEntity
  8
0
  6
CONTINUOUS
 62
     7
100
AcDbVertex
100
AcDb2dVertex
 10
8.5653883388
 20
6.6629541236
 30
0.0
  0
VERTEX
  5
3BE
330
1DD
100
AcDbEntity
  8
0
  6
CONTINUOUS
 62
     7
100
AcDbVertex
100
AcDb2dVertex
 10
8.5721422655
 20
6.661240394
 30
0.0
  0
VERTEX
  5
3BF
330
1DD
100
AcDbEntity
  8
0
  6
CONTINUOUS
 62
     7
100
AcDbVertex
100
AcDb2dVertex
 10
8.5785756091
 20
6.6607533685
 30
0.0
  0
VERTEX
  5
3C0
330
1DD
100
AcDbEntity
  8
0
  6
CONTINUOUS
 62
     7
100
AcDbVertex
100
AcDb2dVertex
 10
8.5845685288
 20
6.6615021196
 30
0.0
  0
VERTEX
  5
3C1
330
1DD
100
AcDbEntity
  8
0
  6
CONTINUOUS
 62
     7
100
AcDbVertex
100
AcDb2dVertex
 10
8.5900093878
 20
6.6634726994
 30
0.0
  0
VERTEX
  5
3C2
330
1DD
100
AcDbEntity
  8
0
  6
CONTINUOUS
 62
     7
100
AcDbVertex
100
AcDb2dVertex
 10
8.5947968331
 20
6.6666283997
 30
0.0
  0
VERTEX
  5
3C3
330
1DD
100
AcDbEntity
  8
0
  6
CONTINUOUS
 62
     7
100
AcDbVertex
100
AcDb2dVertex
 10
8.5988416837
 20
6.6709104359
 30
0.0
  0
VERTEX
  5
3C4
330
1DD
100
AcDbEntity
  8
0
  6
CONTINUOUS
 62
     7
100
AcDbVertex
100
AcDb2dVertex
 10
8.6020685917
 20
6.6762390416
 30
0.0
  0
VERTEX
  5
3C5
330
1DD
100
AcDbEntity
  8
0
  6
CONTINUOUS
 62
     7
100
AcDbVertex
100
AcDb2dVertex
 10
8.604417446
 20
6.6825149551
 30
0.0
  0
VERTEX
  5
3C6
330
1DD
100
AcDbEntity
  8
0
  6
CONTINUOUS
 62
     7
100
AcDbVertex
100
AcDb2dVertex
 10
8.6058444917
 20
6.689621268
 30
0.0
  0
VERTEX
  5
3C7
330
1DD
100
AcDbEntity
  8
0
  6
CONTINUOUS
 62
     7
100
AcDbVertex
100
AcDb2dVertex
 10
8.6063231457
 20
6.697425603
 30
0.0
  0
SEQEND
  5
3C8
330
1DD
100
AcDbEntity
  8
0
  6
CONTINUOUS
 62
     7
  0
ARC
  5
1DE
330
1F
100
AcDbEntity
  8
0
  6
CONTINUOUS
 62
     7
100
AcDbCircle
 10
8.5879187478
 20
6.7034354886
 30
0.0
 40
0.0474689358085093
100
AcDbArc
 50
236.8975887974
 51
280.2960056159
  0
POLYLINE
  5
1DF
330
1F
100
AcDbEntity
  8
0
  6
CONTINUOUS
 62
     7
100
AcDb2dPolyline
 66
     1
 10
0.0
 20
0.0
 30
0.0
  0
VERTEX
  5
3C9
330
1DF
100
AcDbEntity
  8
0
  6
CONTINUOUS
 62
     7
100
AcDbVertex
100
AcDb2dVertex
 10
7.934126282
 20
7.4405910771
 30
0.0
  0
VERTEX
  5
3CA
330
1DF
100
AcDbEntity
  8
0
  6
CONTINUOUS
 62
     7
100
AcDbVertex
100
AcDb2dVertex
 10
7.9411222146
 20
7.4451839033
 30
0.0
  0
VERTEX
  5
3CB
330
1DF
100
AcDbEntity
  8
0
  6
CONTINUOUS
 62
     7
100
AcDbVertex
100
AcDb2dVertex
 10
7.9470433367
 20
7.4502554755
 30
0.0
  0
VERTEX
  5
3CC
330
1DF
100
AcDbEntity
  8
0
  6
CONTINUOUS
 62
     7
100
AcDbVertex
100
AcDb2dVertex
 10
7.9517924235
 20
7.4557225188
 30
0.0
  0
VERTEX
  5
3CD
330
1DF
100
AcDbEntity
  8
0
  6
CONTINUOUS
 62
     7
100
AcDbVertex
100
AcDb2dVertex
 10
7.9552914951
 20
7.4614952644
 30
0.0
  0
VERTEX
  5
3CE
330
1DF
100
AcDbEntity
  8
0
  6
CONTINUOUS
 62
     7
100
AcDbVertex
100
AcDb2dVertex
 10
7.9574830969
 20
7.467478924
 30
0.0
  0
VERTEX
  5
3CF
330
1DF
100
AcDbEntity
  8
0
  6
CONTINUOUS
 62
     7
100
AcDbVertex
100
AcDb2dVertex
 10
7.9583312428
 20
7.4735752461
 30
0.0
  0
VERTEX
  5
3D0
330
1DF
100
AcDbEntity
  8
0
  6
CONTINUOUS
 62
     7
100
AcDbVertex
100
AcDb2dVertex
 10
7.9578220064
 20
7.4796841292
 30
0.0
  0
VERTEX
  5
3D1
330
1DF
100
AcDbEntity
  8
0
  6
CONTINUOUS
 62
     7
100
AcDbVertex
100
AcDb2dVertex
 10
7.9559637492
 20
7.4857052656
 30
0.0
  0
VERTEX
  5
3D2
330
1DF
100
AcDbEntity
  8
0
  6
CONTINUOUS
 62
     7
100
AcDbVertex
100
AcDb2dVertex
 10
7.9527869839
 20
7.4915397885
 30
0.0
  0
VERTEX
  5
3D3
330
1DF
100
AcDbEntity
  8
0
  6
CONTINUOUS
 62
     7
100
AcDbVertex
100
AcDb2dVertex
 10
7.9483438727
 20
7.4970918952
 30
0.0
  0
VERTEX
  5
3D4
330
1DF
100
AcDbEntity
  8
0
  6
CONTINUOUS
 62
     7
100
AcDbVertex
100
AcDb2dVertex
 10
7.9427073714
 20
7.5022704202
 30
0.0
  0
VERTEX
  5
3D5
330
1DF
100
AcDbEntity
  8
0
  6
CONTINUOUS
 62
     7
100
AcDbVertex
100
AcDb2dVertex
 10
7.9359700314
 20
7.5069903322
 30
0.0
  0
VERTEX
  5
3D6
330
1DF
100
AcDbEntity
  8
0
  6
CONTINUOUS
 62
     7
100
AcDbVertex
100
AcDb2dVertex
 10
7.9341357813
 20
7.5080839008
 30
0.0
  0
SEQEND
  5
3D7
330
1DF
100
AcDbEntity
  8
0
  6
CONTINUOUS
 62
     7
  0
POLYLINE
  5
1E0
330
1F
100
AcDbEntity
  8
0
  6
CONTINUOUS
 62
     7
100
AcDb2dPolyline
 66
     1
 10
0.0
 20
0.0
 30
0.0
  0
VERTEX
  5
3D8
330
1E0
100
AcDbEntity
  8
0
  6
CONTINUOUS
 62
     7
100
AcDbVertex
100
AcDb2dVertex
 10
7.8171936141
 20
7.5080839008
 30
0.0
  0
VERTEX
  5
3D9
330
1E0
100
AcDbEntity
  8
0
  6
CONTINUOUS
 62
     7
100
AcDbVertex
100
AcDb2dVertex
 10
7.8135775825
 20
7.5058577286
 30
0.0
  0
VERTEX
  5
3DA
330
1E0
100
AcDbEntity
  8
0
  6
CONTINUOUS
 62
     7
100
AcDbVertex
100
AcDb2dVertex
 10
7.8071057581
 20
7.5010155807
 30
0.0
  0
VERTEX
  5
3DB
330
1E0
100
AcDbEntity
  8
0
  6
CONTINUOUS
 62
     7
100
AcDbVertex
100
AcDb2dVertex
 10
7.8017596695
 20
7.4957354243
 30
0.0
  0
VERTEX
  5
3DC
330
1E0
100
AcDbEntity
  8
0
  6
CONTINUOUS
 62
     7
100
AcDbVertex
100
AcDb2dVertex
 10
7.7976270995
 20
7.4901039594
 30
0.0
  0
VERTEX
  5
3DD
330
1E0
100
AcDbEntity
  8
0
  6
CONTINUOUS
 62
     7
100
AcDbVertex
100
AcDb2dVertex
 10
7.7947759047
 20
7.4842136546
 30
0.0
  0
VERTEX
  5
3DE
330
1E0
100
AcDbEntity
  8
0
  6
CONTINUOUS
 62
     7
100
AcDbVertex
100
AcDb2dVertex
 10
7.7932529017
 20
7.4781612284
 30
0.0
  0
VERTEX
  5
3DF
330
1E0
100
AcDbEntity
  8
0
  6
CONTINUOUS
 62
     7
100
AcDbVertex
100
AcDb2dVertex
 10
7.7930830981
 20
7.4720460615
 30
0.0
  0
VERTEX
  5
3E0
330
1E0
100
AcDbEntity
  8
0
  6
CONTINUOUS
 62
     7
100
AcDbVertex
100
AcDb2dVertex
 10
7.794269282
 20
7.4659685648
 30
0.0
  0
VERTEX
  5
3E1
330
1E0
100
AcDbEntity
  8
0
  6
CONTINUOUS
 62
     7
100
AcDbVertex
100
AcDb2dVertex
 10
7.7967919764
 20
7.4600285307
 30
0.0
  0
VERTEX
  5
3E2
330
1E0
100
AcDbEntity
  8
0
  6
CONTINUOUS
 62
     7
100
AcDbVertex
100
AcDb2dVertex
 10
7.8006097587
 20
7.4543234943
 30
0.0
  0
VERTEX
  5
3E3
330
1E0
100
AcDbEntity
  8
0
  6
CONTINUOUS
 62
     7
100
AcDbVertex
100
AcDb2dVertex
 10
7.8056599411
 20
7.4489471322
 30
0.0
  0
VERTEX
  5
3E4
330
1E0
100
AcDbEntity
  8
0
  6
CONTINUOUS
 62
     7
100
AcDbVertex
100
AcDb2dVertex
 10
7.8118595996
 20
7.4439877241
 30
0.0
  0
VERTEX
  5
3E5
330
1E0
100
AcDbEntity
  8
0
  6
CONTINUOUS
 62
     7
100
AcDbVertex
100
AcDb2dVertex
 10
7.8191069361
 20
7.4395267033
 30
0.0
  0
VERTEX
  5
3E6
330
1E0
100
AcDbEntity
  8
0
  6
CONTINUOUS
 62
     7
100
AcDbVertex
100
AcDb2dVertex
 10
7.8272829494
 20
7.4356373196
 30
0.0
  0
VERTEX
  5
3E7
330
1E0
100
AcDbEntity
  8
0
  6
CONTINUOUS
 62
     7
100
AcDbVertex
100
AcDb2dVertex
 10
7.8362533897
 20
7.4323834367
 30
0.0
  0
VERTEX
  5
3E8
330
1E0
100
AcDbEntity
  8
0
  6
CONTINUOUS
 62
     7
100
AcDbVertex
100
AcDb2dVertex
 10
7.8458709626
 20
7.4298184832
 30
0.0
  0
VERTEX
  5
3E9
330
1E0
100
AcDbEntity
  8
0
  6
CONTINUOUS
 62
     7
100
AcDbVertex
100
AcDb2dVertex
 10
7.8559777478
 20
7.4279845756
 30
0.0
  0
VERTEX
  5
3EA
330
1E0
100
AcDbEntity
  8
0
  6
CONTINUOUS
 62
     7
100
AcDbVertex
100
AcDb2dVertex
 10
7.8664077922
 20
7.4269118266
 30
0.0
  0
VERTEX
  5
3EB
330
1E0
100
AcDbEntity
  8
0
  6
CONTINUOUS
 62
     7
100
AcDbVertex
100
AcDb2dVertex
 10
7.8769898347
 20
7.4266178507
 30
0.0
  0
VERTEX
  5
3EC
330
1E0
100
AcDbEntity
  8
0
  6
CONTINUOUS
 62
     7
100
AcDbVertex
100
AcDb2dVertex
 10
7.8875501185
 20
7.4271074749
 30
0.0
  0
VERTEX
  5
3ED
330
1E0
100
AcDbEntity
  8
0
  6
CONTINUOUS
 62
     7
100
AcDbVertex
100
AcDb2dVertex
 10
7.897915244
 20
7.4283726597
 30
0.0
  0
VERTEX
  5
3EE
330
1E0
100
AcDbEntity
  8
0
  6
CONTINUOUS
 62
     7
100
AcDbVertex
100
AcDb2dVertex
 10
7.9015525848
 20
7.4290118187
 30
0.0
  0
SEQEND
  5
3EF
330
1E0
100
AcDbEntity
  8
0
  6
CONTINUOUS
 62
     7
  0
LINE
  5
1E1
330
1F
100
AcDbEntity
  8
0
  6
CONTINUOUS
 62
     7
100
AcDbLine
 10
7.9294847651
 20
7.4381092111
 30
0.0
 11
7.934126282
 21
7.4405910771
 31
0.0
  0
POLYLINE
  5
1E2
330
1F
100
AcDbEntity
  8
0
  6
CONTINUOUS
 62
     7
100
AcDb2dPolyline
 66
     1
 10
0.0
 20
0.0
 30
0.0
  0
VERTEX
  5
3F0
330
1E2
100
AcDbEntity
  8
0
  6
CONTINUOUS
 62
     7
100
AcDbVertex
100
AcDb2dVertex
 10
7.9270552142
 20
7.4528385258
 30
0.0
  0
VERTEX
  5
3F1
330
1E2
100
AcDbEntity
  8
0
  6
CONTINUOUS
 62
     7
100
AcDbVertex
100
AcDb2dVertex
 10
7.9195788857
 20
7.4490751755
 30
0.0
  0
VERTEX
  5
3F2
330
1E2
100
AcDbEntity
  8
0
  6
CONTINUOUS
 62
     7
100
AcDbVertex
100
AcDb2dVertex
 10
7.911284519
 20
7.4459345714
 30
0.0
  0
VERTEX
  5
3F3
330
1E2
100
AcDbEntity
  8
0
  6
CONTINUOUS
 62
     7
100
AcDbVertex
100
AcDb2dVertex
 10
7.9023266224
 20
7.4434752171
 30
0.0
  0
VERTEX
  5
3F4
330
1E2
100
AcDbEntity
  8
0
  6
CONTINUOUS
 62
     7
100
AcDbVertex
100
AcDb2dVertex
 10
7.8928720646
 20
7.4417429258
 30
0.0
  0
VERTEX
  5
3F5
330
1E2
100
AcDbEntity
  8
0
  6
CONTINUOUS
 62
     7
100
AcDbVertex
100
AcDb2dVertex
 10
7.8830969662
 20
7.4407699667
 30
0.0
  0
VERTEX
  5
3F6
330
1E2
100
AcDbEntity
  8
0
  6
CONTINUOUS
 62
     7
100
AcDbVertex
100
AcDb2dVertex
 10
7.8731834186
 20
7.4405744642
 30
0.0
  0
VERTEX
  5
3F7
330
1E2
100
AcDbEntity
  8
0
  6
CONTINUOUS
 62
     7
100
AcDbVertex
100
AcDb2dVertex
 10
7.8633160926
 20
7.4411600601
 30
0.0
  0
VERTEX
  5
3F8
330
1E2
100
AcDbEntity
  8
0
  6
CONTINUOUS
 62
     7
100
AcDbVertex
100
AcDb2dVertex
 10
7.8536787977
 20
7.442515846
 30
0.0
  0
VERTEX
  5
3F9
330
1E2
100
AcDbEntity
  8
0
  6
CONTINUOUS
 62
     7
100
AcDbVertex
100
AcDb2dVertex
 10
7.8444510585
 20
7.4446165661
 30
0.0
  0
VERTEX
  5
3FA
330
1E2
100
AcDbEntity
  8
0
  6
CONTINUOUS
 62
     7
100
AcDbVertex
100
AcDb2dVertex
 10
7.8358047704
 20
7.4474230879
 30
0.0
  0
VERTEX
  5
3FB
330
1E2
100
AcDbEntity
  8
0
  6
CONTINUOUS
 62
     7
100
AcDbVertex
100
AcDb2dVertex
 10
7.8279009973
 20
7.4508831313
 30
0.0
  0
VERTEX
  5
3FC
330
1E2
100
AcDbEntity
  8
0
  6
CONTINUOUS
 62
     7
100
AcDbVertex
100
AcDb2dVertex
 10
7.8208869715
 20
7.4549322421
 30
0.0
  0
VERTEX
  5
3FD
330
1E2
100
AcDbEntity
  8
0
  6
CONTINUOUS
 62
     7
100
AcDbVertex
100
AcDb2dVertex
 10
7.8148933512
 20
7.4594949932
 30
0.0
  0
VERTEX
  5
3FE
330
1E2
100
AcDbEntity
  8
0
  6
CONTINUOUS
 62
     7
100
AcDbVertex
100
AcDb2dVertex
 10
7.8100317861
 20
7.4644863891
 30
0.0
  0
VERTEX
  5
3FF
330
1E2
100
AcDbEntity
  8
0
  6
CONTINUOUS
 62
     7
100
AcDbVertex
100
AcDb2dVertex
 10
7.8063928379
 20
7.4698134496
 30
0.0
  0
VERTEX
  5
400
330
1E2
100
AcDbEntity
  8
0
  6
CONTINUOUS
 62
     7
100
AcDbVertex
100
AcDb2dVertex
 10
7.8040442934
 20
7.4753769415
 30
0.0
  0
VERTEX
  5
401
330
1E2
100
AcDbEntity
  8
0
  6
CONTINUOUS
 62
     7
100
AcDbVertex
100
AcDb2dVertex
 10
7.8030299015
 20
7.4810732275
 30
0.0
  0
VERTEX
  5
402
330
1E2
100
AcDbEntity
  8
0
  6
CONTINUOUS
 62
     7
100
AcDbVertex
100
AcDb2dVertex
 10
7.8033685585
 20
7.4867961967
 30
0.0
  0
VERTEX
  5
403
330
1E2
100
AcDbEntity
  8
0
  6
CONTINUOUS
 62
     7
100
AcDbVertex
100
AcDb2dVertex
 10
7.8050539557
 20
7.492439241
 30
0.0
  0
VERTEX
  5
404
330
1E2
100
AcDbEntity
  8
0
  6
CONTINUOUS
 62
     7
100
AcDbVertex
100
AcDb2dVertex
 10
7.8080546975
 20
7.497897241
 30
0.0
  0
VERTEX
  5
405
330
1E2
100
AcDbEntity
  8
0
  6
CONTINUOUS
 62
     7
100
AcDbVertex
100
AcDb2dVertex
 10
7.8123148856
 20
7.5030685246
 30
0.0
  0
VERTEX
  5
406
330
1E2
100
AcDbEntity
  8
0
  6
CONTINUOUS
 62
     7
100
AcDbVertex
100
AcDb2dVertex
 10
7.8177551609
 20
7.5078567606
 30
0.0
  0
VERTEX
  5
407
330
1E2
100
AcDbEntity
  8
0
  6
CONTINUOUS
 62
     7
100
AcDbVertex
100
AcDb2dVertex
 10
7.8242741813
 20
7.5121727532
 30
0.0
  0
VERTEX
  5
408
330
1E2
100
AcDbEntity
  8
0
  6
CONTINUOUS
 62
     7
100
AcDbVertex
100
AcDb2dVertex
 10
7.8317505097
 20
7.5159361035
 30
0.0
  0
VERTEX
  5
409
330
1E2
100
AcDbEntity
  8
0
  6
CONTINUOUS
 62
     7
100
AcDbVertex
100
AcDb2dVertex
 10
7.8400448764
 20
7.5190767076
 30
0.0
  0
VERTEX
  5
40A
330
1E2
100
AcDbEntity
  8
0
  6
CONTINUOUS
 62
     7
100
AcDbVertex
100
AcDb2dVertex
 10
7.849002773
 20
7.5215360618
 30
0.0
  0
VERTEX
  5
40B
330
1E2
100
AcDbEntity
  8
0
  6
CONTINUOUS
 62
     7
100
AcDbVertex
100
AcDb2dVertex
 10
7.8584573308
 20
7.5232683532
 30
0.0
  0
VERTEX
  5
40C
330
1E2
100
AcDbEntity
  8
0
  6
CONTINUOUS
 62
     7
100
AcDbVertex
100
AcDb2dVertex
 10
7.8682324293
 20
7.5242413123
 30
0.0
  0
VERTEX
  5
40D
330
1E2
100
AcDbEntity
  8
0
  6
CONTINUOUS
 62
     7
100
AcDbVertex
100
AcDb2dVertex
 10
7.8781459768
 20
7.5244368148
 30
0.0
  0
VERTEX
  5
40E
330
1E2
100
AcDbEntity
  8
0
  6
CONTINUOUS
 62
     7
100
AcDbVertex
100
AcDb2dVertex
 10
7.8880133029
 20
7.5238512188
 30
0.0
  0
VERTEX
  5
40F
330
1E2
100
AcDbEntity
  8
0
  6
CONTINUOUS
 62
     7
100
AcDbVertex
100
AcDb2dVertex
 10
7.8976505977
 20
7.522495433
 30
0.0
  0
VERTEX
  5
410
330
1E2
100
AcDbEntity
  8
0
  6
CONTINUOUS
 62
     7
100
AcDbVertex
100
AcDb2dVertex
 10
7.9068783369
 20
7.5203947129
 30
0.0
  0
VERTEX
  5
411
330
1E2
100
AcDbEntity
  8
0
  6
CONTINUOUS
 62
     7
100
AcDbVertex
100
AcDb2dVertex
 10
7.915524625
 20
7.5175881911
 30
0.0
  0
VERTEX
  5
412
330
1E2
100
AcDbEntity
  8
0
  6
CONTINUOUS
 62
     7
100
AcDbVertex
100
AcDb2dVertex
 10
7.9234283982
 20
7.5141281477
 30
0.0
  0
VERTEX
  5
413
330
1E2
100
AcDbEntity
  8
0
  6
CONTINUOUS
 62
     7
100
AcDbVertex
100
AcDb2dVertex
 10
7.9304424239
 20
7.5100790368
 30
0.0
  0
VERTEX
  5
414
330
1E2
100
AcDbEntity
  8
0
  6
CONTINUOUS
 62
     7
100
AcDbVertex
100
AcDb2dVertex
 10
7.9364360442
 20
7.5055162857
 30
0.0
  0
VERTEX
  5
415
330
1E2
100
AcDbEntity
  8
0
  6
CONTINUOUS
 62
     7
100
AcDbVertex
100
AcDb2dVertex
 10
7.9412976094
 20
7.5005248898
 30
0.0
  0
VERTEX
  5
416
330
1E2
100
AcDbEntity
  8
0
  6
CONTINUOUS
 62
     7
100
AcDbVertex
100
AcDb2dVertex
 10
7.9449365575
 20
7.4951978294
 30
0.0
  0
VERTEX
  5
417
330
1E2
100
AcDbEntity
  8
0
  6
CONTINUOUS
 62
     7
100
AcDbVertex
100
AcDb2dVertex
 10
7.947285102
 20
7.4896343375
 30
0.0
  0
VERTEX
  5
418
330
1E2
100
AcDbEntity
  8
0
  6
CONTINUOUS
 62
     7
100
AcDbVertex
100
AcDb2dVertex
 10
7.9482994939
 20
7.4839380514
 30
0.0
  0
VERTEX
  5
419
330
1E2
100
AcDbEntity
  8
0
  6
CONTINUOUS
 62
     7
100
AcDbVertex
100
AcDb2dVertex
 10
7.947960837
 20
7.4782150822
 30
0.0
  0
VERTEX
  5
41A
330
1E2
100
AcDbEntity
  8
0
  6
CONTINUOUS
 62
     7
100
AcDbVertex
100
AcDb2dVertex
 10
7.9462754397
 20
7.472572038
 30
0.0
  0
VERTEX
  5
41B
330
1E2
100
AcDbEntity
  8
0
  6
CONTINUOUS
 62
     7
100
AcDbVertex
100
AcDb2dVertex
 10
7.943274698
 20
7.467114038
 30
0.0
  0
VERTEX
  5
41C
330
1E2
100
AcDbEntity
  8
0
  6
CONTINUOUS
 62
     7
100
AcDbVertex
100
AcDb2dVertex
 10
7.9390145098
 20
7.4619427543
 30
0.0
  0
VERTEX
  5
41D
330
1E2
100
AcDbEntity
  8
0
  6
CONTINUOUS
 62
     7
100
AcDbVertex
100
AcDb2dVertex
 10
7.9335742346
 20
7.4571545184
 30
0.0
  0
VERTEX
  5
41E
330
1E2
100
AcDbEntity
  8
0
  6
CONTINUOUS
 62
     7
100
AcDbVertex
100
AcDb2dVertex
 10
7.9270552142
 20
7.4528385258
 30
0.0
  0
SEQEND
  5
41F
330
1E2
100
AcDbEntity
  8
0
  6
CONTINUOUS
 62
     7
  0
LINE
  5
1E3
330
1F
100
AcDbEntity
  8
0
  6
CONTINUOUS
 62
     7
100
AcDbLine
 10
7.8293278642
 20
7.4896731959
 30
0.0
 11
7.8632487806
 21
7.5092553241
 31
0.0
  0
LINE
  5
1E4
330
1F
100
AcDbEntity
  8
0
  6
CONTINUOUS
 62
     7
100
AcDbLine
 10
7.8417437813
 20
7.4629235113
 30
0.0
 11
7.8293278642
 21
7.4896731959
 31
0.0
  0
LINE
  5
1E5
330
1F
100
AcDbEntity
  8
0
  6
CONTINUOUS
 62
     7
100
AcDbLine
 10
7.8880806148
 20
7.4557559549
 30
0.0
 11
7.8417437813
 21
7.4629235113
 31
0.0
  0
LINE
  5
1E6
330
1F
100
AcDbEntity
  8
0
  6
CONTINUOUS
 62
     7
100
AcDbLine
 10
7.9220015312
 20
7.4753380831
 30
0.0
 11
7.8880806148
 21
7.4557559549
 31
0.0
  0
LINE
  5
1E7
330
1F
100
AcDbEntity
  8
0
  6
CONTINUOUS
 62
     7
100
AcDbLine
 10
7.9095856141
 20
7.5020877677
 30
0.0
 11
7.9220015312
 21
7.4753380831
 31
0.0
  0
LINE
  5
1E8
330
1F
100
AcDbEntity
  8
0
  6
CONTINUOUS
 62
     7
100
AcDbLine
 10
7.8632487806
 20
7.5092553241
 30
0.0
 11
7.9095856141
 21
7.5020877677
 31
0.0
  0
LINE
  5
1E9
330
1F
100
AcDbEntity
  8
0
  6
CONTINUOUS
 62
     7
100
AcDbLine
 10
7.851183766
 20
7.4614632988
 30
0.0
 11
7.8632487806
 21
7.4684282835
 31
0.0
  0
LINE
  5
1EA
330
1F
100
AcDbEntity
  8
0
  6
CONTINUOUS
 62
     7
100
AcDbLine
 10
7.8632487806
 20
7.4684282835
 30
0.0
 11
7.9001456294
 21
7.4627209396
 31
0.0
  0
LINE
  5
1EB
330
1F
100
AcDbEntity
  8
0
  6
CONTINUOUS
 62
     7
100
AcDbLine
 10
7.9095856141
 20
7.4681705267
 30
0.0
 11
7.9095856141
 21
7.5020877677
 31
0.0
  0
LINE
  5
1EC
330
1F
100
AcDbEntity
  8
0
  6
CONTINUOUS
 62
     7
100
AcDbLine
 10
7.8632487806
 20
7.4684282835
 30
0.0
 11
7.8632487806
 21
7.5092553241
 31
0.0
  0
POLYLINE
  5
1ED
330
1F
100
AcDbEntity
  8
0
  6
CONTINUOUS
 62
     7
100
AcDb2dPolyline
 66
     1
 10
0.0
 20
0.0
 30
0.0
  0
VERTEX
  5
420
330
1ED
100
AcDbEntity
  8
0
  6
CONTINUOUS
 62
     7
100
AcDbVertex
100
AcDb2dVertex
 10
8.5298871639
 20
7.1641639482
 30
0.0
  0
VERTEX
  5
421
330
1ED
100
AcDbEntity
  8
0
  6
CONTINUOUS
 62
     7
100
AcDbVertex
100
AcDb2dVertex
 10
8.5352211784
 20
7.160772786
 30
0.0
  0
VERTEX
  5
422
330
1ED
100
AcDbEntity
  8
0
  6
CONTINUOUS
 62
     7
100
AcDbVertex
100
AcDb2dVertex
 10
8.5414208369
 20
7.1558133779
 30
0.0
  0
VERTEX
  5
423
330
1ED
100
AcDbEntity
  8
0
  6
CONTINUOUS
 62
     7
100
AcDbVertex
100
AcDb2dVertex
 10
8.5464710193
 20
7.1504370158
 30
0.0
  0
VERTEX
  5
424
330
1ED
100
AcDbEntity
  8
0
  6
CONTINUOUS
 62
     7
100
AcDbVertex
100
AcDb2dVertex
 10
8.5502888016
 20
7.1447319794
 30
0.0
  0
VERTEX
  5
425
330
1ED
100
AcDbEntity
  8
0
  6
CONTINUOUS
 62
     7
100
AcDbVertex
100
AcDb2dVertex
 10
8.552811496
 20
7.1387919453
 30
0.0
  0
VERTEX
  5
426
330
1ED
100
AcDbEntity
  8
0
  6
CONTINUOUS
 62
     7
100
AcDbVertex
100
AcDb2dVertex
 10
8.5539976799
 20
7.1327144486
 30
0.0
  0
VERTEX
  5
427
330
1ED
100
AcDbEntity
  8
0
  6
CONTINUOUS
 62
     7
100
AcDbVertex
100
AcDb2dVertex
 10
8.5538278763
 20
7.1265992817
 30
0.0
  0
VERTEX
  5
428
330
1ED
100
AcDbEntity
  8
0
  6
CONTINUOUS
 62
     7
100
AcDbVertex
100
AcDb2dVertex
 10
8.5523048733
 20
7.1205468556
 30
0.0
  0
VERTEX
  5
429
330
1ED
100
AcDbEntity
  8
0
  6
CONTINUOUS
 62
     7
100
AcDbVertex
100
AcDb2dVertex
 10
8.5494536785
 20
7.1146565507
 30
0.0
  0
VERTEX
  5
42A
330
1ED
100
AcDbEntity
  8
0
  6
CONTINUOUS
 62
     7
100
AcDbVertex
100
AcDb2dVertex
 10
8.5453211085
 20
7.1090250858
 30
0.0
  0
VERTEX
  5
42B
330
1ED
100
AcDbEntity
  8
0
  6
CONTINUOUS
 62
     7
100
AcDbVertex
100
AcDb2dVertex
 10
8.5399750199
 20
7.1037449294
 30
0.0
  0
VERTEX
  5
42C
330
1ED
100
AcDbEntity
  8
0
  6
CONTINUOUS
 62
     7
100
AcDbVertex
100
AcDb2dVertex
 10
8.5335031955
 20
7.0989027815
 30
0.0
  0
VERTEX
  5
42D
330
1ED
100
AcDbEntity
  8
0
  6
CONTINUOUS
 62
     7
100
AcDbVertex
100
AcDb2dVertex
 10
8.5260119024
 20
7.09457815
 30
0.0
  0
VERTEX
  5
42E
330
1ED
100
AcDbEntity
  8
0
  6
CONTINUOUS
 62
     7
100
AcDbVertex
100
AcDb2dVertex
 10
8.5226740762
 20
7.0929715598
 30
0.0
  0
SEQEND
  5
42F
330
1ED
100
AcDbEntity
  8
0
  6
CONTINUOUS
 62
     7
  0
POLYLINE
  5
1EE
330
1F
100
AcDbEntity
  8
0
  6
CONTINUOUS
 62
     7
100
AcDb2dPolyline
 66
     1
 10
0.0
 20
0.0
 30
0.0
  0
VERTEX
  5
430
330
1EE
100
AcDbEntity
  8
0
  6
CONTINUOUS
 62
     7
100
AcDbVertex
100
AcDb2dVertex
 10
8.4983458773
 20
7.0852946185
 30
0.0
  0
VERTEX
  5
431
330
1EE
100
AcDbEntity
  8
0
  6
CONTINUOUS
 62
     7
100
AcDbVertex
100
AcDb2dVertex
 10
8.4885192041
 20
7.0837241725
 30
0.0
  0
VERTEX
  5
432
330
1EE
100
AcDbEntity
  8
0
  6
CONTINUOUS
 62
     7
100
AcDbVertex
100
AcDb2dVertex
 10
8.4780349584
 20
7.0828449616
 30
0.0
  0
VERTEX
  5
433
330
1EE
100
AcDbEntity
  8
0
  6
CONTINUOUS
 62
     7
100
AcDbVertex
100
AcDb2dVertex
 10
8.4674420309
 20
7.082746936
 30
0.0
  0
VERTEX
  5
434
330
1EE
100
AcDbEntity
  8
0
  6
CONTINUOUS
 62
     7
100
AcDbVertex
100
AcDb2dVertex
 10
8.4569143572
 20
7.0834317054
 30
0.0
  0
VERTEX
  5
435
330
1EE
100
AcDbEntity
  8
0
  6
CONTINUOUS
 62
     7
100
AcDbVertex
100
AcDb2dVertex
 10
8.4466248015
 20
7.0848880259
 30
0.0
  0
VERTEX
  5
436
330
1EE
100
AcDbEntity
  8
0
  6
CONTINUOUS
 62
     7
100
AcDbVertex
100
AcDb2dVertex
 10
8.4367423178
 20
7.0870919847
 30
0.0
  0
VERTEX
  5
437
330
1EE
100
AcDbEntity
  8
0
  6
CONTINUOUS
 62
     7
100
AcDbVertex
100
AcDb2dVertex
 10
8.4274291763
 20
7.090007393
 30
0.0
  0
VERTEX
  5
438
330
1EE
100
AcDbEntity
  8
0
  6
CONTINUOUS
 62
     7
100
AcDbVertex
100
AcDb2dVertex
 10
8.4188382986
 20
7.0935863796
 30
0.0
  0
VERTEX
  5
439
330
1EE
100
AcDbEntity
  8
0
  6
CONTINUOUS
 62
     7
100
AcDbVertex
100
AcDb2dVertex
 10
8.4111107466
 20
7.0977701779
 30
0.0
  0
VERTEX
  5
43A
330
1EE
100
AcDbEntity
  8
0
  6
CONTINUOUS
 62
     7
100
AcDbVertex
100
AcDb2dVertex
 10
8.4043734066
 20
7.10249009
 30
0.0
  0
VERTEX
  5
43B
330
1EE
100
AcDbEntity
  8
0
  6
CONTINUOUS
 62
     7
100
AcDbVertex
100
AcDb2dVertex
 10
8.3987369053
 20
7.1076686149
 30
0.0
  0
VERTEX
  5
43C
330
1EE
100
AcDbEntity
  8
0
  6
CONTINUOUS
 62
     7
100
AcDbVertex
100
AcDb2dVertex
 10
8.3942937941
 20
7.1132207216
 30
0.0
  0
VERTEX
  5
43D
330
1EE
100
AcDbEntity
  8
0
  6
CONTINUOUS
 62
     7
100
AcDbVertex
100
AcDb2dVertex
 10
8.3911170288
 20
7.1190552445
 30
0.0
  0
VERTEX
  5
43E
330
1EE
100
AcDbEntity
  8
0
  6
CONTINUOUS
 62
     7
100
AcDbVertex
100
AcDb2dVertex
 10
8.3892587716
 20
7.1250763809
 30
0.0
  0
VERTEX
  5
43F
330
1EE
100
AcDbEntity
  8
0
  6
CONTINUOUS
 62
     7
100
AcDbVertex
100
AcDb2dVertex
 10
8.3887495352
 20
7.1311852641
 30
0.0
  0
VERTEX
  5
440
330
1EE
100
AcDbEntity
  8
0
  6
CONTINUOUS
 62
     7
100
AcDbVertex
100
AcDb2dVertex
 10
8.3895976811
 20
7.1372815861
 30
0.0
  0
VERTEX
  5
441
330
1EE
100
AcDbEntity
  8
0
  6
CONTINUOUS
 62
     7
100
AcDbVertex
100
AcDb2dVertex
 10
8.3917892829
 20
7.1432652457
 30
0.0
  0
VERTEX
  5
442
330
1EE
100
AcDbEntity
  8
0
  6
CONTINUOUS
 62
     7
100
AcDbVertex
100
AcDb2dVertex
 10
8.3952883545
 20
7.1490379913
 30
0.0
  0
VERTEX
  5
443
330
1EE
100
AcDbEntity
  8
0
  6
CONTINUOUS
 62
     7
100
AcDbVertex
100
AcDb2dVertex
 10
8.4000374413
 20
7.1545050346
 30
0.0
  0
VERTEX
  5
444
330
1EE
100
AcDbEntity
  8
0
  6
CONTINUOUS
 62
     7
100
AcDbVertex
100
AcDb2dVertex
 10
8.4059585634
 20
7.1595766068
 30
0.0
  0
VERTEX
  5
445
330
1EE
100
AcDbEntity
  8
0
  6
CONTINUOUS
 62
     7
100
AcDbVertex
100
AcDb2dVertex
 10
8.412954496
 20
7.164169433
 30
0.0
  0
SEQEND
  5
446
330
1EE
100
AcDbEntity
  8
0
  6
CONTINUOUS
 62
     7
  0
POLYLINE
  5
1EF
330
1F
100
AcDbEntity
  8
0
  6
CONTINUOUS
 62
     7
100
AcDb2dPolyline
 66
     1
 10
0.0
 20
0.0
 30
0.0
  0
VERTEX
  5
447
330
1EF
100
AcDbEntity
  8
0
  6
CONTINUOUS
 62
     7
100
AcDbVertex
100
AcDb2dVertex
 10
8.4200255638
 20
7.1682528005
 30
0.0
  0
VERTEX
  5
448
330
1EF
100
AcDbEntity
  8
0
  6
CONTINUOUS
 62
     7
100
AcDbVertex
100
AcDb2dVertex
 10
8.4135065435
 20
7.163936808
 30
0.0
  0
VERTEX
  5
449
330
1EF
100
AcDbEntity
  8
0
  6
CONTINUOUS
 62
     7
100
AcDbVertex
100
AcDb2dVertex
 10
8.4080662682
 20
7.159148572
 30
0.0
  0
VERTEX
  5
44A
330
1EF
100
AcDbEntity
  8
0
  6
CONTINUOUS
 62
     7
100
AcDbVertex
100
AcDb2dVertex
 10
8.40380608
 20
7.1539772884
 30
0.0
  0
VERTEX
  5
44B
330
1EF
100
AcDbEntity
  8
0
  6
CONTINUOUS
 62
     7
100
AcDbVertex
100
AcDb2dVertex
 10
8.4008053383
 20
7.1485192884
 30
0.0
  0
VERTEX
  5
44C
330
1EF
100
AcDbEntity
  8
0
  6
CONTINUOUS
 62
     7
100
AcDbVertex
100
AcDb2dVertex
 10
8.399119941
 20
7.1428762441
 30
0.0
  0
VERTEX
  5
44D
330
1EF
100
AcDbEntity
  8
0
  6
CONTINUOUS
 62
     7
100
AcDbVertex
100
AcDb2dVertex
 10
8.3987812841
 20
7.1371532749
 30
0.0
  0
VERTEX
  5
44E
330
1EF
100
AcDbEntity
  8
0
  6
CONTINUOUS
 62
     7
100
AcDbVertex
100
AcDb2dVertex
 10
8.399795676
 20
7.1314569888
 30
0.0
  0
VERTEX
  5
44F
330
1EF
100
AcDbEntity
  8
0
  6
CONTINUOUS
 62
     7
100
AcDbVertex
100
AcDb2dVertex
 10
8.4021442205
 20
7.1258934969
 30
0.0
  0
VERTEX
  5
450
330
1EF
100
AcDbEntity
  8
0
  6
CONTINUOUS
 62
     7
100
AcDbVertex
100
AcDb2dVertex
 10
8.4057831686
 20
7.1205664365
 30
0.0
  0
VERTEX
  5
451
330
1EF
100
AcDbEntity
  8
0
  6
CONTINUOUS
 62
     7
100
AcDbVertex
100
AcDb2dVertex
 10
8.4106447338
 20
7.1155750406
 30
0.0
  0
VERTEX
  5
452
330
1EF
100
AcDbEntity
  8
0
  6
CONTINUOUS
 62
     7
100
AcDbVertex
100
AcDb2dVertex
 10
8.4166383541
 20
7.1110122895
 30
0.0
  0
VERTEX
  5
453
330
1EF
100
AcDbEntity
  8
0
  6
CONTINUOUS
 62
     7
100
AcDbVertex
100
AcDb2dVertex
 10
8.4236523799
 20
7.1069631786
 30
0.0
  0
VERTEX
  5
454
330
1EF
100
AcDbEntity
  8
0
  6
CONTINUOUS
 62
     7
100
AcDbVertex
100
AcDb2dVertex
 10
8.431556153
 20
7.1035031353
 30
0.0
  0
VERTEX
  5
455
330
1EF
100
AcDbEntity
  8
0
  6
CONTINUOUS
 62
     7
100
AcDbVertex
100
AcDb2dVertex
 10
8.4402024411
 20
7.1006966135
 30
0.0
  0
VERTEX
  5
456
330
1EF
100
AcDbEntity
  8
0
  6
CONTINUOUS
 62
     7
100
AcDbVertex
100
AcDb2dVertex
 10
8.4494301803
 20
7.0985958934
 30
0.0
  0
VERTEX
  5
457
330
1EF
100
AcDbEntity
  8
0
  6
CONTINUOUS
 62
     7
100
AcDbVertex
100
AcDb2dVertex
 10
8.4590674751
 20
7.0972401075
 30
0.0
  0
VERTEX
  5
458
330
1EF
100
AcDbEntity
  8
0
  6
CONTINUOUS
 62
     7
100
AcDbVertex
100
AcDb2dVertex
 10
8.4689348012
 20
7.0966545116
 30
0.0
  0
VERTEX
  5
459
330
1EF
100
AcDbEntity
  8
0
  6
CONTINUOUS
 62
     7
100
AcDbVertex
100
AcDb2dVertex
 10
8.4788483488
 20
7.096850014
 30
0.0
  0
VERTEX
  5
45A
330
1EF
100
AcDbEntity
  8
0
  6
CONTINUOUS
 62
     7
100
AcDbVertex
100
AcDb2dVertex
 10
8.4886234472
 20
7.0978229732
 30
0.0
  0
VERTEX
  5
45B
330
1EF
100
AcDbEntity
  8
0
  6
CONTINUOUS
 62
     7
100
AcDbVertex
100
AcDb2dVertex
 10
8.498078005
 20
7.0995552645
 30
0.0
  0
VERTEX
  5
45C
330
1EF
100
AcDbEntity
  8
0
  6
CONTINUOUS
 62
     7
100
AcDbVertex
100
AcDb2dVertex
 10
8.5070359016
 20
7.1020146188
 30
0.0
  0
VERTEX
  5
45D
330
1EF
100
AcDbEntity
  8
0
  6
CONTINUOUS
 62
     7
100
AcDbVertex
100
AcDb2dVertex
 10
8.5153302683
 20
7.1051552228
 30
0.0
  0
VERTEX
  5
45E
330
1EF
100
AcDbEntity
  8
0
  6
CONTINUOUS
 62
     7
100
AcDbVertex
100
AcDb2dVertex
 10
8.5228065967
 20
7.1089185732
 30
0.0
  0
VERTEX
  5
45F
330
1EF
100
AcDbEntity
  8
0
  6
CONTINUOUS
 62
     7
100
AcDbVertex
100
AcDb2dVertex
 10
8.5293256171
 20
7.1132345657
 30
0.0
  0
VERTEX
  5
460
330
1EF
100
AcDbEntity
  8
0
  6
CONTINUOUS
 62
     7
100
AcDbVertex
100
AcDb2dVertex
 10
8.5347658924
 20
7.1180228017
 30
0.0
  0
VERTEX
  5
461
330
1EF
100
AcDbEntity
  8
0
  6
CONTINUOUS
 62
     7
100
AcDbVertex
100
AcDb2dVertex
 10
8.5390260805
 20
7.1231940853
 30
0.0
  0
VERTEX
  5
462
330
1EF
100
AcDbEntity
  8
0
  6
CONTINUOUS
 62
     7
100
AcDbVertex
100
AcDb2dVertex
 10
8.5420268223
 20
7.1286520854
 30
0.0
  0
VERTEX
  5
463
330
1EF
100
AcDbEntity
  8
0
  6
CONTINUOUS
 62
     7
100
AcDbVertex
100
AcDb2dVertex
 10
8.5437122195
 20
7.1342951296
 30
0.0
  0
VERTEX
  5
464
330
1EF
100
AcDbEntity
  8
0
  6
CONTINUOUS
 62
     7
100
AcDbVertex
100
AcDb2dVertex
 10
8.5440508765
 20
7.1400180988
 30
0.0
  0
VERTEX
  5
465
330
1EF
100
AcDbEntity
  8
0
  6
CONTINUOUS
 62
     7
100
AcDbVertex
100
AcDb2dVertex
 10
8.5430364846
 20
7.1457143849
 30
0.0
  0
VERTEX
  5
466
330
1EF
100
AcDbEntity
  8
0
  6
CONTINUOUS
 62
     7
100
AcDbVertex
100
AcDb2dVertex
 10
8.5406879401
 20
7.1512778768
 30
0.0
  0
VERTEX
  5
467
330
1EF
100
AcDbEntity
  8
0
  6
CONTINUOUS
 62
     7
100
AcDbVertex
100
AcDb2dVertex
 10
8.5370489919
 20
7.1566049372
 30
0.0
  0
VERTEX
  5
468
330
1EF
100
AcDbEntity
  8
0
  6
CONTINUOUS
 62
     7
100
AcDbVertex
100
AcDb2dVertex
 10
8.5321874268
 20
7.1615963331
 30
0.0
  0
VERTEX
  5
469
330
1EF
100
AcDbEntity
  8
0
  6
CONTINUOUS
 62
     7
100
AcDbVertex
100
AcDb2dVertex
 10
8.5261938065
 20
7.1661590842
 30
0.0
  0
VERTEX
  5
46A
330
1EF
100
AcDbEntity
  8
0
  6
CONTINUOUS
 62
     7
100
AcDbVertex
100
AcDb2dVertex
 10
8.5191797807
 20
7.1702081951
 30
0.0
  0
VERTEX
  5
46B
330
1EF
100
AcDbEntity
  8
0
  6
CONTINUOUS
 62
     7
100
AcDbVertex
100
AcDb2dVertex
 10
8.5112760076
 20
7.1736682385
 30
0.0
  0
VERTEX
  5
46C
330
1EF
100
AcDbEntity
  8
0
  6
CONTINUOUS
 62
     7
100
AcDbVertex
100
AcDb2dVertex
 10
8.5026297195
 20
7.1764747603
 30
0.0
  0
VERTEX
  5
46D
330
1EF
100
AcDbEntity
  8
0
  6
CONTINUOUS
 62
     7
100
AcDbVertex
100
AcDb2dVertex
 10
8.4934019803
 20
7.1785754803
 30
0.0
  0
VERTEX
  5
46E
330
1EF
100
AcDbEntity
  8
0
  6
CONTINUOUS
 62
     7
100
AcDbVertex
100
AcDb2dVertex
 10
8.4837646854
 20
7.1799312662
 30
0.0
  0
VERTEX
  5
46F
330
1EF
100
AcDbEntity
  8
0
  6
CONTINUOUS
 62
     7
100
AcDbVertex
100
AcDb2dVertex
 10
8.4738973594
 20
7.1805168622
 30
0.0
  0
VERTEX
  5
470
330
1EF
100
AcDbEntity
  8
0
  6
CONTINUOUS
 62
     7
100
AcDbVertex
100
AcDb2dVertex
 10
8.4639838118
 20
7.1803213597
 30
0.0
  0
VERTEX
  5
471
330
1EF
100
AcDbEntity
  8
0
  6
CONTINUOUS
 62
     7
100
AcDbVertex
100
AcDb2dVertex
 10
8.4542087134
 20
7.1793484006
 30
0.0
  0
VERTEX
  5
472
330
1EF
100
AcDbEntity
  8
0
  6
CONTINUOUS
 62
     7
100
AcDbVertex
100
AcDb2dVertex
 10
8.4447541556
 20
7.1776161092
 30
0.0
  0
VERTEX
  5
473
330
1EF
100
AcDbEntity
  8
0
  6
CONTINUOUS
 62
     7
100
AcDbVertex
100
AcDb2dVertex
 10
8.435796259
 20
7.175156755
 30
0.0
  0
VERTEX
  5
474
330
1EF
100
AcDbEntity
  8
0
  6
CONTINUOUS
 62
     7
100
AcDbVertex
100
AcDb2dVertex
 10
8.4275018923
 20
7.1720161509
 30
0.0
  0
VERTEX
  5
475
330
1EF
100
AcDbEntity
  8
0
  6
CONTINUOUS
 62
     7
100
AcDbVertex
100
AcDb2dVertex
 10
8.4200255638
 20
7.1682528005
 30
0.0
  0
SEQEND
  5
476
330
1EF
100
AcDbEntity
  8
0
  6
CONTINUOUS
 62
     7
  0
LINE
  5
1F0
330
1F
100
AcDbEntity
  8
0
  6
CONTINUOUS
 62
     7
100
AcDbLine
 10
8.5053369967
 20
7.1581678151
 30
0.0
 11
8.4590001632
 21
7.1653353714
 31
0.0
  0
LINE
  5
1F1
330
1F
100
AcDbEntity
  8
0
  6
CONTINUOUS
 62
     7
100
AcDbLine
 10
8.4590001632
 20
7.1653353714
 30
0.0
 11
8.4250792468
 21
7.1457532432
 31
0.0
  0
LINE
  5
1F2
330
1F
100
AcDbEntity
  8
0
  6
CONTINUOUS
 62
     7
100
AcDbLine
 10
8.4250792468
 20
7.1457532432
 30
0.0
 11
8.4374951639
 21
7.1190035587
 31
0.0
  0
LINE
  5
1F3
330
1F
100
AcDbEntity
  8
0
  6
CONTINUOUS
 62
     7
100
AcDbLine
 10
8.4374951639
 20
7.1190035587
 30
0.0
 11
8.4838319974
 21
7.1118360023
 31
0.0
  0
LINE
  5
1F4
330
1F
100
AcDbEntity
  8
0
  6
CONTINUOUS
 62
     7
100
AcDbLine
 10
8.4838319974
 20
7.1118360023
 30
0.0
 11
8.5177529138
 21
7.1314181305
 31
0.0
  0
LINE
  5
1F5
330
1F
100
AcDbEntity
  8
0
  6
CONTINUOUS
 62
     7
100
AcDbLine
 10
8.5177529138
 20
7.1314181305
 30
0.0
 11
8.5053369967
 21
7.1581678151
 31
0.0
  0
LINE
  5
1F6
330
1F
100
AcDbEntity
  8
0
  6
CONTINUOUS
 62
     7
100
AcDbLine
 10
8.4590001632
 20
7.1245083309
 30
0.0
 11
8.4469351486
 21
7.1175433462
 31
0.0
  0
LINE
  5
1F7
330
1F
100
AcDbEntity
  8
0
  6
CONTINUOUS
 62
     7
100
AcDbLine
 10
8.495897012
 20
7.1188009869
 30
0.0
 11
8.4590001632
 21
7.1245083309
 31
0.0
  0
LINE
  5
1F8
330
1F
100
AcDbEntity
  8
0
  6
CONTINUOUS
 62
     7
100
AcDbLine
 10
8.5053369967
 20
7.1242505741
 30
0.0
 11
8.5053369967
 21
7.1581678151
 31
0.0
  0
LINE
  5
1F9
330
1F
100
AcDbEntity
  8
0
  6
CONTINUOUS
 62
     7
100
AcDbLine
 10
8.4590001632
 20
7.1245083309
 30
0.0
 11
8.4590001632
 21
7.1653353714
 31
0.0
  0
ENDSEC
  0
SECTION
  2
OBJECTS
  0
DICTIONARY
  5
C
330
0
100
AcDbDictionary
  3
ACAD_GROUP
350
D
  3
ACAD_LAYOUT
350
1A
  3
ACAD_MLEADERSTYLE
350
1FC
  3
ACAD_MLINESTYLE
350
17
  3
ACAD_PLOTSETTINGS
350
19
  3
ACAD_SCALELIST
350
6F
  3
ACAD_VISUALSTYLE
350
2A
  3
ACDBVARIABLEDICTIONARY
350
1FA
1001
ACAD
1000
TREAT_AS_HARD
1070
     0
  0
DICTIONARY
  5
D
102
{ACAD_REACTORS
330
C
102
}
330
C
100
AcDbDictionary
1001
ACAD
1000
TREAT_AS_HARD
1070
     0
  0
DICTIONARY
  5
1A
102
{ACAD_REACTORS
330
C
102
}
330
C
100
AcDbDictionary
1001
ACAD
1000
TREAT_AS_HARD
1070
     0
  0
DICTIONARY
  5
1FC
102
{ACAD_REACTORS
330
C
102
}
330
C
100
AcDbDictionary
1001
ACAD
1000
TREAT_AS_HARD
1070
     0
  0
DICTIONARY
  5
17
102
{ACAD_REACTORS
330
C
102
}
330
C
100
AcDbDictionary
  3
STANDARD
350
18
1001
ACAD
1000
TREAT_AS_HARD
1070
     0
  0
DICTIONARY
  5
19
102
{ACAD_REACTORS
330
C
102
}
330
C
100
AcDbDictionary
1001
ACAD
1000
TREAT_AS_HARD
1070
     0
  0
DICTIONARY
  5
6F
102
{ACAD_REACTORS
330
C
102
}
330
C
100
AcDbDictionary
  3
A0
350
70
  3
A1
350
71
  3
A2
350
72
  3
A3
350
73
  3
A4
350
74
  3
A5
350
75
  3
A6
350
76
  3
A7
350
77
  3
A8
350
78
  3
A9
350
79
  3
B0
350
7A
  3
B1
350
7B
  3
B2
350
7C
  3
B3
350
7D
  3
B4
350
7E
  3
B5
350
7F
  3
B6
350
80
  3
B7
350
81
  3
B8
350
82
  3
B9
350
83
  3
C0
350
84
  3
C1
350
85
  3
C2
350
86
  3
C3
350
87
  3
C4
350
88
  3
C5
350
89
  3
C6
350
8A
  3
C7
350
8B
  3
C8
350
8C
  3
C9
350
8D
  3
D0
350
8E
  3
D1
350
8F
  3
D2
350
90
1001
ACAD
1000
TREAT_AS_HARD
1070
     0
  0
DICTIONARY
  5
2A
102
{ACAD_REACTORS
330
C
102
}
330
C
100
AcDbDictionary
  3
2DWIREFRAME
350
2F
  3
3D_HIDDEN
350
31
  3
3DWIREFRAME
350
30
  3
BASIC
350
32
  3
BRIGHTEN
350
36
  3
COLORCHANGE
350
3A
  3
CONCEPTUAL
350
34
  3
DIM
350
35
  3
FACEPATTERN
350
39
  3
FLAT
350
2B
  3
FLATWITHEDGES
350
2C
  3
GOURAUD
350
2D
  3
GOURAUDWITHEDGES
350
2E
  3
LINEPATTERN
350
38
  3
REALISTIC
350
33
  3
THICKEN
350
37
1001
ACAD
1000
TREAT_AS_HARD
1070
     0
  0
DICTIONARY
  5
1FA
102
{ACAD_REACTORS
330
C
102
}
330
C
100
AcDbDictionary
  3
CANNOSCALE
350
1FD
  3
DIMASSOC
350
1FE
  3
HIDETEXT
350
1FF
1001
ACAD
1000
TREAT_AS_HARD
1070
     0
  0
MLINESTYLE
  5
18
102
{ACAD_REACTORS
330
17
102
}
330
17
100
AcDbMlineStyle
  2
Standard
 70
     0
  3

 62
   256
 51
90.0
 52
90.0
 71
     2
 49
0.5
 62
   256
  6
BYLAYER
 49
-0.5
 62
   256
  6
BYLAYER
  0
ACAD_PROXY_OBJECT
  5
70
102
{ACAD_REACTORS
330
6F
102
}
330
6F
100
AcDbZombieObject
 90
      499
 91
      502
 93
       41
310
903313A31580
  0
ACAD_PROXY_OBJECT
  5
71
102
{ACAD_REACTORS
330
6F
102
}
330
6F
100
AcDbZombieObject
 90
      499
 91
      502
 93
      105
310
903313A324000000000000004000
  0
ACAD_PROXY_OBJECT
  5
72
102
{ACAD_REACTORS
330
6F
102
}
330
6F
100
AcDbZombieObject
 90
      499
 91
      502
 93
      105
310
903313A344000000000000104000
  0
ACAD_PROXY_OBJECT
  5
73
102
{ACAD_REACTORS
330
6F
102
}
330
6F
100
AcDbZombieObject
 90
      499
 91
      502
 93
      105
310
903313A354000000000000144000
  0
ACAD_PROXY_OBJECT
  5
74
102
{ACAD_REACTORS
330
6F
102
}
330
6F
100
AcDbZombieObject
 90
      499
 91
      502
 93
      105
310
903313A384000000000000204000
  0
ACAD_PROXY_OBJECT
  5
75
102
{ACAD_REACTORS
330
6F
102
}
330
6F
100
AcDbZombieObject
 90
      499
 91
      502
 93
      113
310
904313A31304000000000000244000
  0
ACAD_PROXY_OBJECT
  5
76
102
{ACAD_REACTORS
330
6F
102
}
330
6F
100
AcDbZombieObject
 90
      499
 91
      502
 93
      113
310
904313A31364000000000000304000
  0
ACAD_PROXY_OBJECT
  5
77
102
{ACAD_REACTORS
330
6F
102
}
330
6F
100
AcDbZombieObject
 90
      499
 91
      502
 93
      113
310
904313A32304000000000000344000
  0
ACAD_PROXY_OBJECT
  5
78
102
{ACAD_REACTORS
330
6F
102
}
330
6F
100
AcDbZombieObject
 90
      499
 91
      502
 93
      113
310
904313A333040000000000003E4000
  0
ACAD_PROXY_OBJECT
  5
79
102
{ACAD_REACTORS
330
6F
102
}
330
6F
100
AcDbZombieObject
 90
      499
 91
      502
 93
      113
310
904313A34304000000000000444000
  0
ACAD_PROXY_OBJECT
  5
7A
102
{ACAD_REACTORS
330
6F
102
}
330
6F
100
AcDbZombieObject
 90
      499
 91
      502
 93
      113
310
904313A35304000000000000494000
  0
ACAD_PROXY_OBJECT
  5
7B
102
{ACAD_REACTORS
330
6F
102
}
330
6F
100
AcDbZombieObject
 90
      499
 91
      502
 93
      121
310
905313A3130304000000000000594000
  0
ACAD_PROXY_OBJECT
  5
7C
102
{ACAD_REACTORS
330
6F
102
}
330
6F
100
AcDbZombieObject
 90
      499
 91
      502
 93
      105
310
903323A310000000000000010100
  0
ACAD_PROXY_OBJECT
  5
7D
102
{ACAD_REACTORS
330
6F
102
}
330
6F
100
AcDbZombieObject
 90
      499
 91
      502
 93
      105
310
903343A310000000000000410100
  0
ACAD_PROXY_OBJECT
  5
7E
102
{ACAD_REACTORS
330
6F
102
}
330
6F
100
AcDbZombieObject
 90
      499
 91
      502
 93
      105
310
903383A310000000000000810100
  0
ACAD_PROXY_OBJECT
  5
7F
102
{ACAD_REACTORS
330
6F
102
}
330
6F
100
AcDbZombieObject
 90
      499
 91
      502
 93
      113
310
90431303A310000000000000910100
  0
ACAD_PROXY_OBJECT
  5
80
102
{ACAD_REACTORS
330
6F
102
}
330
6F
100
AcDbZombieObject
 90
      499
 91
      502
 93
      121
310
9053130303A310000000000001650100
  0
ACAD_PROXY_OBJECT
  5
81
102
{ACAD_REACTORS
330
6F
102
}
330
6F
100
AcDbZombieObject
 90
      499
 91
      502
 93
      257
310
90E312F31323822203D2031272D3022000000000000200FC000000000000284000
  0
ACAD_PROXY_OBJECT
  5
82
102
{ACAD_REACTORS
330
6F
102
}
330
6F
100
AcDbZombieObject
 90
      499
 91
      502
 93
      249
310
90D312F363422203D2031272D3022000000000000240FC000000000000284000
  0
ACAD_PROXY_OBJECT
  5
83
102
{ACAD_REACTORS
330
6F
102
}
330
6F
100
AcDbZombieObject
 90
      499
 91
      502
 93
      249
310
90D312F333222203D2031272D3022000000000000280FC000000000000284000
  0
ACAD_PROXY_OBJECT
  5
84
102
{ACAD_REACTORS
330
6F
102
}
330
6F
100
AcDbZombieObject
 90
      499
 91
      502
 93
      249
310
90D312F313622203D2031272D30220000000000002C0FC000000000000284000
  0
ACAD_PROXY_OBJECT
  5
85
102
{ACAD_REACTORS
330
6F
102
}
330
6F
100
AcDbZombieObject
 90
      499
 91
      502
 93
      249
310
90D332F333222203D2031272D30220000000000002E0FC000000000000284000
  0
ACAD_PROXY_OBJECT
  5
86
102
{ACAD_REACTORS
330
6F
102
}
330
6F
100
AcDbZombieObject
 90
      499
 91
      502
 93
      241
310
90C312F3822203D2031272D3022000000000000300FC000000000000284000
  0
ACAD_PROXY_OBJECT
  5
87
102
{ACAD_REACTORS
330
6F
102
}
330
6F
100
AcDbZombieObject
 90
      499
 91
      502
 93
      249
310
90D332F313622203D2031272D3022000000000000320FC000000000000284000
  0
ACAD_PROXY_OBJECT
  5
88
102
{ACAD_REACTORS
330
6F
102
}
330
6F
100
AcDbZombieObject
 90
      499
 91
      502
 93
      241
310
90C312F3422203D2031272D3022000000000000340FC000000000000284000
  0
ACAD_PROXY_OBJECT
  5
89
102
{ACAD_REACTORS
330
6F
102
}
330
6F
100
AcDbZombieObject
 90
      499
 91
      502
 93
      241
310
90C332F3822203D2031272D3022000000000000360FC000000000000284000
  0
ACAD_PROXY_OBJECT
  5
8A
102
{ACAD_REACTORS
330
6F
102
}
330
6F
100
AcDbZombieObject
 90
      499
 91
      502
 93
      241
310
90C312F3222203D2031272D3022000000000000380FC000000000000284000
  0
ACAD_PROXY_OBJECT
  5
8B
102
{ACAD_REACTORS
330
6F
102
}
330
6F
100
AcDbZombieObject
 90
      499
 91
      502
 93
      241
310
90C332F3422203D2031272D30220000000000003A0FC000000000000284000
  0
ACAD_PROXY_OBJECT
  5
8C
102
{ACAD_REACTORS
330
6F
102
}
330
6F
100
AcDbZombieObject
 90
      499
 91
      502
 93
      161
310
90A3122203D2031272D30224000000000000284000
  0
ACAD_PROXY_OBJECT
  5
8D
102
{ACAD_REACTORS
330
6F
102
}
330
6F
100
AcDbZombieObject
 90
      499
 91
      502
 93
      257
310
90E312D312F3222203D2031272D30220000000000003E0FC000000000000284000
  0
ACAD_PROXY_OBJECT
  5
8E
102
{ACAD_REACTORS
330
6F
102
}
330
6F
100
AcDbZombieObject
 90
      499
 91
      502
 93
      225
310
90A3322203D2031272D302200000000000002100000000000000284000
  0
ACAD_PROXY_OBJECT
  5
8F
102
{ACAD_REACTORS
330
6F
102
}
330
6F
100
AcDbZombieObject
 90
      499
 91
      502
 93
      225
310
90A3622203D2031272D302200000000000006100000000000000284000
  0
ACAD_PROXY_OBJECT
  5
90
102
{ACAD_REACTORS
330
6F
102
}
330
6F
100
AcDbZombieObject
 90
      499
 91
      502
 93
      249
310
90D31272D3022203D2031272D30220000000000000A100000000000000284000
  0
ACAD_PROXY_OBJECT
  5
2F
102
{ACAD_REACTORS
330
2A
102
}
330
2A
100
AcDbZombieObject
 90
      499
 91
      501
 93
      436
310
42CC9915DA5C99599C985B595049028333333333333E3BF0000000000000FB0107901411070040501600405405064090741402480A0340
1001
ACAD
1000
AcDbSavedByObjectVersion
1070
     0
  0
ACAD_PROXY_OBJECT
  5
31
102
{ACAD_REACTORS
330
2A
102
}
330
2A
100
AcDbZombieObject
 90
      499
 91
      501
 93
      500
310
424CD108121A5919195B90640502408333333333333E3BF0000000000000FB01079024090700405020000000000001110200405405064090740C02480A0340
1001
ACAD
1000
AcDbSavedByObjectVersion
1070
     0
  0
ACAD_PROXY_OBJECT
  5
30
102
{ACAD_REACTORS
330
2A
102
}
330
2A
100
AcDbZombieObject
 90
      499
 91
      501
 93
      436
310
42CCD915DA5C99599C985B595059028333333333333E3BF0000000000000FB0107901411070040501600405405064090741402480A0340
1001
ACAD
1000
AcDbSavedByObjectVersion
1070
     0
  0
ACAD_PROXY_OBJECT
  5
32
102
{ACAD_REACTORS
330
2A
102
}
330
2A
100
AcDbZombieObject
 90
      499
 91
      501
 93
      388
310
4150985CDA58D07406404333333333333E3BF0000000000000FB0107A41107004050150841D405064090741402480A0350
1001
ACAD
1000
AcDbSavedByObjectVersion
1070
     0
  0
ACAD_PROXY_OBJECT
  5
36
102
{ACAD_REACTORS
330
2A
102
}
330
2A
100
AcDbZombieObject
 90
      499
 91
      501
 93
      428
310
42109C9A59DA1D195B90C409028333333333333E3BF0000000000000FB010790141107004050150841D405064090741402480A029950
1001
ACAD
1000
AcDbSavedByObjectVersion
1070
     0
  0
ACAD_PROXY_OBJECT
  5
3A
102
{ACAD_REACTORS
330
2A
102
}
330
2A
100
AcDbZombieObject
 90
      499
 91
      501
 93
      452
310
42D0DBDB1BDC90DA185B99D95104090240C333333333333E3BF0000000000000FB0108901411070040501508421405064090741402480A0350
1001
ACAD
1000
AcDbSavedByObjectVersion
1070
     0
  0
ACAD_PROXY_OBJECT
  5
34
102
{ACAD_REACTORS
330
2A
102
}
330
2A
100
AcDbZombieObject
 90
      499
 91
      501
 93
      500
310
4290DBDB98D95C1D1D585B10940D028333333333333E3BF0000000000000FB0107902409070040501000000000000111010841D405064090740C02480A0340
1001
ACAD
1000
AcDbSavedByObjectVersion
1070
     0
  0
ACAD_PROXY_OBJECT
  5
35
102
{ACAD_REACTORS
330
2A
102
}
330
2A
100
AcDbZombieObject
 90
      499
 91
      501
 93
      412
310
40D11A5B50B409028333333333333E3BF0000000000000FB010790141107004050150841D405064090741402480A02677FFFFFD0
1001
ACAD
1000
AcDbSavedByObjectVersion
1070
     0
  0
ACAD_PROXY_OBJECT
  5
39
102
{ACAD_REACTORS
330
2A
102
}
330
2A
100
AcDbZombieObject
 90
      499
 91
      501
 93
      444
310
42D19858D95C185D1D195C9B90F409028333333333333E3BF0000000000000FB010790141107004050150841D405064090741402480A0350
1001
ACAD
1000
AcDbSavedByObjectVersion
1070
     0
  0
ACAD_PROXY_OBJECT
  5
2B
102
{ACAD_REACTORS
330
2A
102
}
330
2A
100
AcDbZombieObject
 90
      499
 91
      501
 93
      388
310
41119B185D240901404333333333333E3BF0000000000000F9010740A41107004050150841D405064090741402480A1B50
1001
ACAD
1000
AcDbSavedByObjectVersion
1070
     0
  0
ACAD_PROXY_OBJECT
  5
2C
102
{ACAD_REACTORS
330
2A
102
}
330
2A
100
AcDbZombieObject
 90
      499
 91
      501
 93
      476
310
43519B185D15DA5D1A115919D95CD0140901404333333333333E3BF0000000000000F9010740901411070040501600405405064090741402480A1B50
1001
ACAD
1000
AcDbSavedByObjectVersion
1070
     0
  0
ACAD_PROXY_OBJECT
  5
2D
102
{ACAD_REACTORS
330
2A
102
}
330
2A
100
AcDbZombieObject
 90
      499
 91
      501
 93
      412
310
41D1DBDD5C985D5910240902404333333333333E3BF0000000000000F9010740A411070040501641D405064090741402480A1B50
1001
ACAD
1000
AcDbSavedByObjectVersion
1070
     0
  0
ACAD_PROXY_OBJECT
  5
2E
102
{ACAD_REACTORS
330
2A
102
}
330
2A
100
AcDbZombieObject
 90
      499
 91
      501
 93
      500
310
4411DBDD5C985D5915DA5D1A115919D95CD0340902404333333333333E3BF0000000000000F9010740901411070040501600405405064090741402480A1B50
1001
ACAD
1000
AcDbSavedByObjectVersion
1070
     0
  0
ACAD_PROXY_OBJECT
  5
38
102
{ACAD_REACTORS
330
2A
102
}
330
2A
100
AcDbZombieObject
 90
      499
 91
      501
 93
      444
310
42D31A5B995C185D1D195C9B90E409028333333333333E3BF0000000000000FB010790141107004050750841D405064090741402483A0350
1001
ACAD
1000
AcDbSavedByObjectVersion
1070
     0
  0
ACAD_PROXY_OBJECT
  5
33
102
{ACAD_REACTORS
330
2A
102
}
330
2A
100
AcDbZombieObject
 90
      499
 91
      501
 93
      420
310
425499585B1A5CDD1A58D08409028333333333333E3BF0000000000000FB01079019070040501508421405064090741402480A1B40
1001
ACAD
1000
AcDbSavedByObjectVersion
1070
     0
  0
ACAD_PROXY_OBJECT
  5
37
102
{ACAD_REACTORS
330
2A
102
}
330
2A
100
AcDbZombieObject
 90
      499
 91
      501
 93
      412
310
41D51A1A58DAD95B90D409028333333333333E3BF0000000000000FB010790141107004050150C41D405064090741402480A0350
1001
ACAD
1000
AcDbSavedByObjectVersion
1070
     0
  0
DICTIONARYVAR
  5
1FD
102
{ACAD_REACTORS
330
1FA
102
}
330
1FA
100
DictionaryVariables
280
     0
  1
1:1
  0
DICTIONARYVAR
  5
1FE
102
{ACAD_REACTORS
330
1FA
102
}
330
1FA
100
DictionaryVariables
280
     0
  1
2
  0
DICTIONARYVAR
  5
1FF
102
{ACAD_REACTORS
330
1FA
102
}
330
1FA
100
DictionaryVariables
280
     0
  1
1
  0
ENDSEC
  0
EOF
