  0
SECTION
  2
HEADER
  9
$ACADVER
  1
AC1012
  9
$DWGCODEPAGE
  3
ansi_1252
  9
$INSBASE
 10
0.0
 20
0.0
 30
0.0
  9
$EXTMIN
 10
0.0
 20
0.0
 30
0.0
  9
$EXTMAX
 10
11.0
 20
8.5
 30
0.0
  9
$LIMMIN
 10
0.0
 20
0.0
  9
$LIMMAX
 10
11.0
 20
8.5
  9
$ORTHOMODE
 70
     0
  9
$REGENMODE
 70
     1
  9
$FILLMODE
 70
     1
  9
$QTEXTMODE
 70
     0
  9
$MIRRTEXT
 70
     1
  9
$DRAGMODE
 70
     2
  9
$LTSCALE
 40
1.0
  9
$OSMODE
 70
    37
  9
$ATTMODE
 70
     1
  9
$TEXTSIZE
 40
0.125
  9
$TRACEWID
 40
0.05
  9
$TEXTSTYLE
  7
STANDARD
  9
$CLAYER
  8
0
  9
$CELTYPE
  6
BYLAYER
  9
$CECOLOR
 62
   256
  9
$CELTSCALE
 40
1.0
  9
$DELOBJ
 70
     1
  9
$DISPSILH
 70
     0
  9
$DIMSCALE
 40
1.0
  9
$DIMASZ
 40
0.13
  9
$DIMEXO
 40
0.05
  9
$DIMDLI
 40
0.38
  9
$DIMRND
 40
0.0
  9
$DIMDLE
 40
0.0
  9
$DIMEXE
 40
0.125
  9
$DIMTP
 40
0.0
  9
$DIMTM
 40
0.0
  9
$DIMTXT
 40
0.125
  9
$DIMCEN
 40
0.09
  9
$DIMTSZ
 40
0.0
  9
$DIMTOL
 70
     0
  9
$DIMLIM
 70
     0
  9
$DIMTIH
 70
     1
  9
$DIMTOH
 70
     1
  9
$DIMSE1
 70
     0
  9
$DIMSE2
 70
     0
  9
$DIMTAD
 70
     0
  9
$DIMZIN
 70
     0
  9
$DIMBLK
  1

  9
$DIMASO
 70
     1
  9
$DIMSHO
 70
     1
  9
$DIMPOST
  1

  9
$DIMAPOST
  1

  9
$DIMALT
 70
     0
  9
$DIMALTD
 70
     2
  9
$DIMALTF
 40
25.4
  9
$DIMLFAC
 40
1.0
  9
$DIMTOFL
 70
     0
  9
$DIMTVP
 40
0.0
  9
$DIMTIX
 70
     0
  9
$DIMSOXD
 70
     0
  9
$DIMSAH
 70
     0
  9
$DIMBLK1
  1

  9
$DIMBLK2
  1

  9
$DIMSTYLE
  2
STANDARD
  9
$DIMCLRD
 70
     0
  9
$DIMCLRE
 70
     0
  9
$DIMCLRT
 70
     0
  9
$DIMTFAC
 40
1.0
  9
$DIMGAP
 40
0.06
  9
$DIMJUST
 70
     0
  9
$DIMSD1
 70
     0
  9
$DIMSD2
 70
     0
  9
$DIMTOLJ
 70
     1
  9
$DIMTZIN
 70
     0
  9
$DIMALTZ
 70
     0
  9
$DIMALTTZ
 70
     0
  9
$DIMFIT
 70
     3
  9
$DIMUPT
 70
     0
  9
$DIMUNIT
 70
     2
  9
$DIMDEC
 70
     3
  9
$DIMTDEC
 70
     3
  9
$DIMALTU
 70
     2
  9
$DIMALTTD
 70
     2
  9
$DIMTXSTY
  7
STANDARD
  9
$DIMAUNIT
 70
     0
  9
$LUNITS
 70
     2
  9
$LUPREC
 70
     2
  9
$SKETCHINC
 40
0.1
  9
$FILLETRAD
 40
0.5
  9
$AUNITS
 70
     0
  9
$AUPREC
 70
     2
  9
$MENU
  1
.
  9
$ELEVATION
 40
0.0
  9
$PELEVATION
 40
0.0
  9
$THICKNESS
 40
0.0
  9
$LIMCHECK
 70
     0
  9
$CHAMFERA
 40
0.5
  9
$CHAMFERB
 40
0.5
  9
$CHAMFERC
 40
1.0
  9
$CHAMFERD
 40
0.0
  9
$SKPOLY
 70
     0
  9
$TDCREATE
 40
2455784.013338356
  9
$TDUPDATE
 40
2455784.013338368
  9
$TDINDWG
 40
0.0000000116
  9
$TDUSRTIMER
 40
0.0000000116
  9
$USRTIMER
 70
     1
  9
$ANGBASE
 50
0.0
  9
$ANGDIR
 70
     0
  9
$PDMODE
 70
     0
  9
$PDSIZE
 40
-1.0
  9
$PLINEWID
 40
0.0
  9
$COORDS
 70
     1
  9
$SPLFRAME
 70
     0
  9
$SPLINETYPE
 70
     6
  9
$SPLINESEGS
 70
     8
  9
$ATTDIA
 70
     0
  9
$ATTREQ
 70
     1
  9
$HANDLING
 70
     1
  9
$HANDSEED
  5
44E
  9
$SURFTAB1
 70
     6
  9
$SURFTAB2
 70
     6
  9
$SURFTYPE
 70
     6
  9
$SURFU
 70
     6
  9
$SURFV
 70
     6
  9
$UCSNAME
  2

  9
$UCSORG
 10
0.0
 20
0.0
 30
0.0
  9
$UCSXDIR
 10
1.0
 20
0.0
 30
0.0
  9
$UCSYDIR
 10
0.0
 20
1.0
 30
0.0
  9
$PUCSNAME
  2

  9
$PUCSORG
 10
0.0
 20
0.0
 30
0.0
  9
$PUCSXDIR
 10
1.0
 20
0.0
 30
0.0
  9
$PUCSYDIR
 10
0.0
 20
1.0
 30
0.0
  9
$USERI1
 70
     0
  9
$USERI2
 70
     0
  9
$USERI3
 70
     0
  9
$USERI4
 70
     0
  9
$USERI5
 70
     0
  9
$USERR1
 40
0.0
  9
$USERR2
 40
0.0
  9
$USERR3
 40
0.0
  9
$USERR4
 40
0.0
  9
$USERR5
 40
0.0
  9
$WORLDVIEW
 70
     1
  9
$SHADEDGE
 70
     3
  9
$SHADEDIF
 70
    70
  9
$TILEMODE
 70
     1
  9
$MAXACTVP
 70
    64
  9
$PINSBASE
 10
0.0
 20
0.0
 30
0.0
  9
$PLIMCHECK
 70
     0
  9
$PEXTMIN
 10
1.0000000000E+20
 20
1.0000000000E+20
 30
1.0000000000E+20
  9
$PEXTMAX
 10
-1.0000000000E+20
 20
-1.0000000000E+20
 30
-1.0000000000E+20
  9
$PLIMMIN
 10
0.0
 20
0.0
  9
$PLIMMAX
 10
12.0
 20
9.0
  9
$UNITMODE
 70
     0
  9
$VISRETAIN
 70
     1
  9
$PLINEGEN
 70
     0
  9
$PSLTSCALE
 70
     1
  9
$TREEDEPTH
 70
  3020
  9
$PICKSTYLE
 70
     1
  9
$CMLSTYLE
  2
STANDARD
  9
$CMLJUST
 70
     0
  9
$CMLSCALE
 40
1.0
  9
$SAVEIMAGES
 70
     1
  0
ENDSEC
  0
SECTION
  2
CLASSES
  0
CLASS
  1
ACDBDICTIONARYWDFLT
  2
AcDbDictionaryWithDefault
  3
ObjectDBX Classes
 90
    32768
280
     0
281
     0
  0
CLASS
  1
VISUALSTYLE
  2
AcDbVisualStyle
  3
ObjectDBX Classes
 90
     4095
280
     0
281
     0
  0
CLASS
  1
SCALE
  2
AcDbScale
  3
ObjectDBX Classes
 90
     1153
280
     0
281
     0
  0
CLASS
  1
DICTIONARYVAR
  2
AcDbDictionaryVar
  3
ObjectDBX Classes
 90
        0
280
     0
281
     0
  0
CLASS
  1
XRECORD
  2
AcDbXrecord
  3
AutoCAD 2000
 90
    32768
280
     0
281
     0
  0
CLASS
  1
LWPOLYLINE
  2
AcDbPolyline
  3
AutoCAD 2000
 90
    32768
280
     0
281
     1
  0
CLASS
  1
HATCH
  2
AcDbHatch
  3
AutoCAD 2000
 90
    32768
280
     0
281
     1
  0
CLASS
  1
ACDBPLACEHOLDER
  2
AcDbPlaceHolder
  3
ObjectDBX Classes
 90
        0
280
     0
281
     0
  0
CLASS
  1
LAYOUT
  2
AcDbLayout
  3
ObjectDBX Classes
 90
        0
280
     0
281
     0
  0
ENDSEC
  0
SECTION
  2
TABLES
  0
TABLE
  2
VPORT
  5
8
330
0
100
AcDbSymbolTable
 70
     1
  0
VPORT
  5
29
330
8
100
AcDbSymbolTableRecord
100
AcDbViewportTableRecord
  2
*ACTIVE
 70
     0
 10
0.0
 20
0.0
 11
1.0
 21
1.0
 12
5.5
 22
4.25
 13
0.0
 23
0.0
 14
0.5
 24
0.5
 15
0.5
 25
0.5
 16
0.0
 26
0.0
 36
1.0
 17
0.0
 27
0.0
 37
0.0
 40
8.5
 41
1.2941176471
 42
50.0
 43
0.0
 44
0.0
 50
0.0
 51
0.0
 71
     0
 72
  2000
 73
     1
 74
     3
 75
     0
 76
     0
 77
     0
 78
     0
  0
ENDTAB
  0
TABLE
  2
LTYPE
  5
5
330
0
100
AcDbSymbolTable
 70
     6
  0
LTYPE
  5
14
330
5
100
AcDbSymbolTableRecord
100
AcDbLinetypeTableRecord
  2
BYBLOCK
 70
     0
  3

 72
    65
 73
     0
 40
0.0
  0
LTYPE
  5
15
330
5
100
AcDbSymbolTableRecord
100
AcDbLinetypeTableRecord
  2
BYLAYER
 70
     0
  3

 72
    65
 73
     0
 40
0.0
  0
LTYPE
  5
16
330
5
100
AcDbSymbolTableRecord
100
AcDbLinetypeTableRecord
  2
CONTINUOUS
 70
     0
  3
Solid line
 72
    65
 73
     0
 40
0.0
  0
LTYPE
  5
3B
330
5
100
AcDbSymbolTableRecord
100
AcDbLinetypeTableRecord
  2
HIDDEN
 70
     0
  3
Hidden __ __ __ __ __ __ __ __ __ __ __ __ __ __
 72
    65
 73
     2
 40
0.075
 49
0.05
 74
     0
 49
-0.025
 74
     0
  0
LTYPE
  5
3C
330
5
100
AcDbSymbolTableRecord
100
AcDbLinetypeTableRecord
  2
PHANTOM
 70
     0
  3
Phantom ______  __  __  ______  __  __  ______
 72
    65
 73
     6
 40
0.5
 49
0.25
 74
     0
 49
-0.05
 74
     0
 49
0.05
 74
     0
 49
-0.05
 74
     0
 49
0.05
 74
     0
 49
-0.05
 74
     0
  0
LTYPE
  5
3D
330
5
100
AcDbSymbolTableRecord
100
AcDbLinetypeTableRecord
  2
CENTER
 70
     0
  3
Center ____ _ ____ _ ____ _ ____ _ ____ _ ____
 72
    65
 73
     4
 40
0.4
 49
0.25
 74
     0
 49
-0.05
 74
     0
 49
0.05
 74
     0
 49
-0.05
 74
     0
  0
LTYPE
  5
3E
330
5
100
AcDbSymbolTableRecord
100
AcDbLinetypeTableRecord
  2
CENTERX2
 70
     0
  3
Center (2x) ________  __  ________  __  _____
 72
    65
 73
     4
 40
0.8
 49
0.5
 74
     0
 49
-0.1
 74
     0
 49
0.1
 74
     0
 49
-0.1
 74
     0
  0
LTYPE
  5
3F
330
5
100
AcDbSymbolTableRecord
100
AcDbLinetypeTableRecord
  2
DOT2
 70
     0
  3
Dot (.5x) ........................................
 72
    65
 73
     2
 40
0.025
 49
0.0
 74
     0
 49
-0.025
 74
     0
  0
ENDTAB
  0
TABLE
  2
LAYER
  5
2
330
0
100
AcDbSymbolTable
 70
     2
  0
LAYER
  5
10
330
2
100
AcDbSymbolTableRecord
100
AcDbLayerTableRecord
  2
0
 70
     0
 62
     7
  6
CONTINUOUS
  0
LAYER
  5
40
330
2
100
AcDbSymbolTableRecord
100
AcDbLayerTableRecord
  2
FORMAT
 70
     0
 62
     7
  6
CONTINUOUS
  0
ENDTAB
  0
TABLE
  2
STYLE
  5
3
330
0
100
AcDbSymbolTable
 70
     4
  0
STYLE
  5
11
330
3
100
AcDbSymbolTableRecord
100
AcDbTextStyleTableRecord
  2
STANDARD
 70
     0
 40
0.0
 41
1.0
 50
0.0
 71
     0
 42
0.2
  3
txt
  4

  0
STYLE
  5
6E
330
3
100
AcDbSymbolTableRecord
100
AcDbTextStyleTableRecord
  2
SLDTEXTSTYLE0
 70
     0
 40
0.0
 41
0.75
 50
0.0
 71
     0
 42
0.2
  3
TXT
  4

  0
STYLE
  5
93
330
3
100
AcDbSymbolTableRecord
100
AcDbTextStyleTableRecord
  2
SLDTEXTSTYLE1
 70
     0
 40
0.0
 41
0.6875
 50
0.0
 71
     0
 42
0.2
  3
TXT
  4

  0
STYLE
  5
99
330
3
100
AcDbSymbolTableRecord
100
AcDbTextStyleTableRecord
  2
SLDTEXTSTYLE2
 70
     0
 40
0.0
 41
0.6944444444
 50
0.0
 71
     0
 42
0.2
  3
TXT
  4

  0
ENDTAB
  0
TABLE
  2
VIEW
  5
6
330
0
100
AcDbSymbolTable
 70
     0
  0
ENDTAB
  0
TABLE
  2
UCS
  5
7
330
0
100
AcDbSymbolTable
 70
     0
  0
ENDTAB
  0
TABLE
  2
APPID
  5
9
330
0
100
AcDbSymbolTable
 70
     1
  0
APPID
  5
12
330
9
100
AcDbSymbolTableRecord
100
AcDbRegAppTableRecord
  2
ACAD
 70
     0
  0
ENDTAB
  0
TABLE
  2
DIMSTYLE
  5
A
330
0
100
AcDbSymbolTable
 70
     1
  0
DIMSTYLE
105
27
330
A
100
AcDbSymbolTableRecord
100
AcDbDimStyleTableRecord
  2
STANDARD
 70
     0
  3

  4

  5

  6

  7

 40
1.0
 41
0.18
 42
0.0625
 43
0.38
 44
0.18
 45
0.0
 46
0.0
 47
0.0
 48
0.0
140
0.18
141
0.09
142
0.0
143
25.4
144
1.0
145
0.0
146
1.0
147
0.09
 71
     0
 72
     0
 73
     1
 74
     1
 75
     0
 76
     0
 77
     0
 78
     0
170
     0
171
     2
172
     0
173
     0
174
     0
175
     0
176
     0
177
     0
178
     0
270
     2
271
     4
272
     4
273
     2
274
     2
340
11
275
     0
280
     0
281
     0
282
     0
283
     1
284
     0
285
     0
286
     0
287
     3
288
     0
  0
ENDTAB
  0
TABLE
  2
BLOCK_RECORD
  5
1
330
0
100
AcDbSymbolTable
 70
     4
  0
BLOCK_RECORD
  5
1F
330
1
100
AcDbSymbolTableRecord
100
AcDbBlockTableRecord
  2
*MODEL_SPACE
  0
BLOCK_RECORD
  5
1B
330
1
100
AcDbSymbolTableRecord
100
AcDbBlockTableRecord
  2
*PAPER_SPACE
  0
BLOCK_RECORD
  5
A8
330
1
100
AcDbSymbolTableRecord
100
AcDbBlockTableRecord
  2
SW_NOTE_0
  0
BLOCK_RECORD
  5
AE
330
1
100
AcDbSymbolTableRecord
100
AcDbBlockTableRecord
  2
SW_NOTE_1
  0
BLOCK_RECORD
  5
C2
330
1
100
AcDbSymbolTableRecord
100
AcDbBlockTableRecord
  2
SW_NOTE_2
  0
ENDTAB
  0
ENDSEC
  0
SECTION
  2
BLOCKS
  0
BLOCK
  5
20
330
1F
100
AcDbEntity
  8
0
100
AcDbBlockBegin
  2
*MODEL_SPACE
 70
     0
 10
0.0
 20
0.0
 30
0.0
  3
*MODEL_SPACE
  1

  0
ENDBLK
  5
21
330
1F
100
AcDbEntity
  8
0
100
AcDbBlockEnd
  0
BLOCK
  5
1C
330
1B
100
AcDbEntity
 67
     1
  8
0
100
AcDbBlockBegin
  2
*PAPER_SPACE
 70
     0
 10
0.0
 20
0.0
 30
0.0
  3
*PAPER_SPACE
  1

  0
ENDBLK
  5
1D
330
1B
100
AcDbEntity
 67
     1
  8
0
100
AcDbBlockEnd
  0
BLOCK
  5
A9
330
A8
100
AcDbEntity
  8
0
100
AcDbBlockBegin
  2
SW_NOTE_0
 70
     0
 10
0.0
 20
0.0
 30
0.0
  3
SW_NOTE_0
  1

  0
MTEXT
  5
AB
330
A8
100
AcDbEntity
  8
0
  6
CONTINUOUS
 62
     0
100
AcDbMText
 10
0.0
 20
0.0773440644
 30
0.0
 40
0.06
 41
0.0
 71
     1
 72
     1
  1
INTERPRET GEOMETRIC
  7
SLDTEXTSTYLE0
  0
MTEXT
  5
AC
330
A8
100
AcDbEntity
  8
0
  6
CONTINUOUS
 62
     0
100
AcDbMText
 10
0.0
 20
-0.0220260102
 30
0.0
 40
0.06
 41
0.0
 71
     1
 72
     1
  1
TOLERANCING PER:
  7
SLDTEXTSTYLE0
  0
ENDBLK
  5
AA
330
A8
100
AcDbEntity
  8
0
100
AcDbBlockEnd
  0
BLOCK
  5
AF
330
AE
100
AcDbEntity
  8
0
100
AcDbBlockBegin
  2
SW_NOTE_1
 70
     0
 10
0.0
 20
0.0
 30
0.0
  3
SW_NOTE_1
  1

  0
MTEXT
  5
B1
330
AE
100
AcDbEntity
  8
0
  6
CONTINUOUS
 62
     0
100
AcDbMText
 10
0.0
 20
0.0837894031
 30
0.0
 40
0.065
 41
0.0
 71
     1
 72
     1
  1
DIMENSIONS ARE IN INCHES
  7
SLDTEXTSTYLE0
  0
MTEXT
  5
B2
330
AE
100
AcDbEntity
  8
0
  6
CONTINUOUS
 62
     0
100
AcDbMText
 10
0.0
 20
-0.0205806729
 30
0.0
 40
0.065
 41
0.0
 71
     1
 72
     1
  1
TOLERANCES:
  7
SLDTEXTSTYLE0
  0
MTEXT
  5
B3
330
AE
100
AcDbEntity
  8
0
  6
CONTINUOUS
 62
     0
100
AcDbMText
 10
0.0
 20
-0.1249507489
 30
0.0
 40
0.065
 41
0.0
 71
     1
 72
     1
  1
FRACTIONAL
  7
SLDTEXTSTYLE0
  0
MTEXT
  5
B4
330
AE
100
AcDbEntity
  8
0
  6
CONTINUOUS
 62
     0
100
AcDbMText
 10
0.5175850875
 20
-0.1249507489
 30
0.0
 40
0.065
 41
0.0
 71
     1
 72
     1
  1
%%p
  7
SLDTEXTSTYLE0
  0
MTEXT
  5
B5
330
AE
100
AcDbEntity
  8
0
  6
CONTINUOUS
 62
     0
100
AcDbMText
 10
0.0
 20
-0.2293208248
 30
0.0
 40
0.065
 41
0.0
 71
     1
 72
     1
  1
ANGULAR: MACH
  7
SLDTEXTSTYLE0
  0
MTEXT
  5
B6
330
AE
100
AcDbEntity
  8
0
  6
CONTINUOUS
 62
     0
100
AcDbMText
 10
0.7233732769
 20
-0.2293208248
 30
0.0
 40
0.065
 41
0.0
 71
     1
 72
     1
  1
%%p
  7
SLDTEXTSTYLE0
  0
MTEXT
  5
B7
330
AE
100
AcDbEntity
  8
0
  6
CONTINUOUS
 62
     0
100
AcDbMText
 10
0.7852857683
 20
-0.2293208248
 30
0.0
 40
0.065
 41
0.0
 71
     1
 72
     1
  1
     BEND 
  7
SLDTEXTSTYLE0
  0
MTEXT
  5
B8
330
AE
100
AcDbEntity
  8
0
  6
CONTINUOUS
 62
     0
100
AcDbMText
 10
1.14784136
 20
-0.2293208248
 30
0.0
 40
0.065
 41
0.0
 71
     1
 72
     1
  1
%%p
  7
SLDTEXTSTYLE0
  0
MTEXT
  5
B9
330
AE
100
AcDbEntity
  8
0
  6
CONTINUOUS
 62
     0
100
AcDbMText
 10
0.0
 20
-0.3336909008
 30
0.0
 40
0.065
 41
0.0
 71
     1
 72
     1
  1
TWO PLACE DECIMAL    
  7
SLDTEXTSTYLE0
  0
MTEXT
  5
BA
330
AE
100
AcDbEntity
  8
0
  6
CONTINUOUS
 62
     0
100
AcDbMText
 10
0.9794349188
 20
-0.3336909008
 30
0.0
 40
0.065
 41
0.0
 71
     1
 72
     1
  1
%%p
  7
SLDTEXTSTYLE0
  0
MTEXT
  5
BB
330
AE
100
AcDbEntity
  8
0
  6
CONTINUOUS
 62
     0
100
AcDbMText
 10
0.0
 20
-0.4380609768
 30
0.0
 40
0.065
 41
0.0
 71
     1
 72
     1
  1
THREE PLACE DECIMAL  
  7
SLDTEXTSTYLE0
  0
MTEXT
  5
BC
330
AE
100
AcDbEntity
  8
0
  6
CONTINUOUS
 62
     0
100
AcDbMText
 10
0.9738038639
 20
-0.4380609768
 30
0.0
 40
0.065
 41
0.0
 71
     1
 72
     1
  1
%%p
  7
SLDTEXTSTYLE0
  0
ENDBLK
  5
B0
330
AE
100
AcDbEntity
  8
0
100
AcDbBlockEnd
  0
BLOCK
  5
C3
330
C2
100
AcDbEntity
  8
0
100
AcDbBlockBegin
  2
SW_NOTE_2
 70
     0
 10
0.0
 20
0.0
 30
0.0
  3
SW_NOTE_2
  1

  0
MTEXT
  5
C5
330
C2
100
AcDbEntity
  8
0
  6
CONTINUOUS
 62
     0
100
AcDbMText
 10
0.0
 20
0.0773440644
 30
0.0
 40
0.06
 41
0.0
 71
     1
 72
     1
  1
THE INFORMATION CONTAINED IN THIS
  7
SLDTEXTSTYLE0
  0
MTEXT
  5
C6
330
C2
100
AcDbEntity
  8
0
  6
CONTINUOUS
 62
     0
100
AcDbMText
 10
0.0
 20
-0.0220260102
 30
0.0
 40
0.06
 41
0.0
 71
     1
 72
     1
  1
DRAWING IS THE SOLE PROPERTY OF
  7
SLDTEXTSTYLE0
  0
MTEXT
  5
C7
330
C2
100
AcDbEntity
  8
0
  6
CONTINUOUS
 62
     0
100
AcDbMText
 10
0.0
 20
-0.1213960848
 30
0.0
 40
0.06
 41
0.0
 71
     1
 72
     1
  1
Candy Controls.  ANY 
  7
SLDTEXTSTYLE0
  0
MTEXT
  5
C8
330
C2
100
AcDbEntity
  8
0
  6
CONTINUOUS
 62
     0
100
AcDbMText
 10
0.0
 20
-0.2207661593
 30
0.0
 40
0.06
 41
0.0
 71
     1
 72
     1
  1
REPRODUCTION IN PART OR AS A WHOLE
  7
SLDTEXTSTYLE0
  0
MTEXT
  5
C9
330
C2
100
AcDbEntity
  8
0
  6
CONTINUOUS
 62
     0
100
AcDbMText
 10
0.0
 20
-0.3201362339
 30
0.0
 40
0.06
 41
0.0
 71
     1
 72
     1
  1
WITHOUT THE WRITTEN PERMISSION OF
  7
SLDTEXTSTYLE0
  0
MTEXT
  5
CA
330
C2
100
AcDbEntity
  8
0
  6
CONTINUOUS
 62
     0
100
AcDbMText
 10
0.0
 20
-0.4195063085
 30
0.0
 40
0.06
 41
0.0
 71
     1
 72
     1
  1
Candy Controls IS 
  7
SLDTEXTSTYLE0
  0
MTEXT
  5
CB
330
C2
100
AcDbEntity
  8
0
  6
CONTINUOUS
 62
     0
100
AcDbMText
 10
0.0
 20
-0.518876383
 30
0.0
 40
0.06
 41
0.0
 71
     1
 72
     1
  1
PROHIBITED.
  7
SLDTEXTSTYLE0
  0
ENDBLK
  5
C4
330
C2
100
AcDbEntity
  8
0
100
AcDbBlockEnd
  0
ENDSEC
  0
SECTION
  2
ENTITIES
  0
LINE
  5
41
330
1F
100
AcDbEntity
  8
0
  6
CONTINUOUS
 62
     7
100
AcDbLine
 10
0.329927
 20
8.1920731707
 30
0.0
 11
10.629927
 21
8.1920731707
 31
0.0
  0
LINE
  5
42
330
1F
100
AcDbEntity
  8
0
  6
CONTINUOUS
 62
     7
100
AcDbLine
 10
0.329927
 20
8.1920731707
 30
0.0
 11
0.329927
 21
0.3920731707
 31
0.0
  0
LINE
  5
43
330
1F
100
AcDbEntity
  8
0
  6
CONTINUOUS
 62
     7
100
AcDbLine
 10
10.629927
 20
0.3920731707
 30
0.0
 11
0.329927
 21
0.3920731707
 31
0.0
  0
LINE
  5
44
330
1F
100
AcDbEntity
  8
0
  6
CONTINUOUS
 62
     7
100
AcDbLine
 10
10.629927
 20
0.3920731707
 30
0.0
 11
10.629927
 21
8.1920731707
 31
0.0
  0
LINE
  5
45
330
1F
100
AcDbEntity
  8
0
  6
CONTINUOUS
 62
     7
100
AcDbLine
 10
4.7981841288
 20
0.3920731707
 30
0.0
 11
4.7981841288
 21
2.3564211366
 31
0.0
  0
LINE
  5
46
330
1F
100
AcDbEntity
  8
0
  6
CONTINUOUS
 62
     7
100
AcDbLine
 10
2.8210345579
 20
2.3564211366
 30
0.0
 11
10.629927
 21
2.3564211366
 31
0.0
  0
LINE
  5
47
330
1F
100
AcDbEntity
  8
0
  6
CONTINUOUS
 62
     7
100
AcDbLine
 10
6.1796352514
 20
2.3564211366
 30
0.0
 11
6.1796352514
 21
0.3920731707
 31
0.0
  0
LINE
  5
48
330
1F
100
AcDbEntity
  8
0
  6
CONTINUOUS
 62
     7
100
AcDbLine
 10
7.8712070044
 20
2.3564211366
 30
0.0
 11
7.8712070044
 21
0.3920731707
 31
0.0
  0
LINE
  5
49
330
1F
100
AcDbEntity
  8
0
  6
CONTINUOUS
 62
     7
100
AcDbLine
 10
7.8712070044
 20
0.6049590101
 30
0.0
 11
10.629927
 21
0.6049590101
 31
0.0
  0
LINE
  5
4A
330
1F
100
AcDbEntity
  8
0
  6
CONTINUOUS
 62
     7
100
AcDbLine
 10
7.8712070044
 20
1.1119362457
 30
0.0
 11
10.629927
 21
1.1119362457
 31
0.0
  0
LINE
  5
4B
330
1F
100
AcDbEntity
  8
0
  6
CONTINUOUS
 62
     7
100
AcDbLine
 10
7.8712070044
 20
1.9892703708
 30
0.0
 11
10.629927
 21
1.9892703708
 31
0.0
  0
LINE
  5
4C
330
1F
100
AcDbEntity
  8
0
  6
CONTINUOUS
 62
     7
100
AcDbLine
 10
8.266751752
 20
1.1119362457
 30
0.0
 11
8.266751752
 21
0.6049590101
 31
0.0
  0
LINE
  5
4D
330
1F
100
AcDbEntity
  8
0
  6
CONTINUOUS
 62
     7
100
AcDbLine
 10
8.6943435176
 20
0.6049590101
 30
0.0
 11
8.6943435176
 21
0.3920731707
 31
0.0
  0
LINE
  5
4E
330
1F
100
AcDbEntity
  8
0
  6
CONTINUOUS
 62
     7
100
AcDbLine
 10
10.0579917045
 20
1.1119362457
 30
0.0
 11
10.0579917045
 21
0.6049590101
 31
0.0
  0
LINE
  5
4F
330
1F
100
AcDbEntity
  8
0
  6
CONTINUOUS
 62
     7
100
AcDbLine
 10
9.6662556631
 20
0.6049590101
 30
0.0
 11
9.6662556631
 21
0.3920731707
 31
0.0
  0
LINE
  5
50
330
1F
100
AcDbEntity
  8
0
  6
CONTINUOUS
 62
     7
100
AcDbLine
 10
2.8210345579
 20
0.5883479999
 30
0.0
 11
6.1796352514
 21
0.5883479999
 31
0.0
  0
LINE
  5
51
330
1F
100
AcDbEntity
  8
0
  6
CONTINUOUS
 62
     7
100
AcDbLine
 10
6.1796352514
 20
1.7939211366
 30
0.0
 11
7.8712070044
 21
1.7939211366
 31
0.0
  0
LINE
  5
52
330
1F
100
AcDbEntity
  8
0
  6
CONTINUOUS
 62
     7
100
AcDbLine
 10
6.1796352514
 20
1.9814211366
 30
0.0
 11
7.8712070044
 21
1.9814211366
 31
0.0
  0
LINE
  5
53
330
1F
100
AcDbEntity
  8
0
  6
CONTINUOUS
 62
     7
100
AcDbLine
 10
6.1796352514
 20
2.1689211366
 30
0.0
 11
7.8712070044
 21
2.1689211366
 31
0.0
  0
LINE
  5
54
330
1F
100
AcDbEntity
  8
0
  6
CONTINUOUS
 62
     7
100
AcDbLine
 10
7.8712070044
 20
1.2314211366
 30
0.0
 11
6.1796352514
 21
1.2314211366
 31
0.0
  0
LINE
  5
55
330
1F
100
AcDbEntity
  8
0
  6
CONTINUOUS
 62
     7
100
AcDbLine
 10
7.3921580388
 20
2.3564211366
 30
0.0
 11
7.3921580388
 21
1.2314211366
 31
0.0
  0
LINE
  5
56
330
1F
100
AcDbEntity
  8
0
  6
CONTINUOUS
 62
     7
100
AcDbLine
 10
6.9236308342
 20
2.3564211366
 30
0.0
 11
6.9236308342
 21
1.2314211366
 31
0.0
  0
LINE
  5
57
330
1F
100
AcDbEntity
  8
0
  6
CONTINUOUS
 62
     7
100
AcDbLine
 10
4.7981841288
 20
0.8557965305
 30
0.0
 11
6.1796352514
 21
0.8557965305
 31
0.0
  0
LINE
  5
58
330
1F
100
AcDbEntity
  8
0
  6
CONTINUOUS
 62
     7
100
AcDbLine
 10
4.7981841288
 20
1.1257965305
 30
0.0
 11
6.1796352514
 21
1.1257965305
 31
0.0
  0
LINE
  5
59
330
1F
100
AcDbEntity
  8
0
  6
CONTINUOUS
 62
     7
100
AcDbLine
 10
2.8210345579
 20
0.3920731707
 30
0.0
 11
2.8210345579
 21
2.3564211366
 31
0.0
  0
LINE
  5
5A
330
1F
100
AcDbEntity
  8
0
  6
CONTINUOUS
 62
     7
100
AcDbLine
 10
2.8210345579
 20
1.1064211366
 30
0.0
 11
4.7981841288
 21
1.1064211366
 31
0.0
  0
LINE
  5
5B
330
1F
100
AcDbEntity
  8
0
  6
CONTINUOUS
 62
     7
100
AcDbLine
 10
2.8210345579
 20
1.3564211366
 30
0.0
 11
4.7981841288
 21
1.3564211366
 31
0.0
  0
LINE
  5
5C
330
1F
100
AcDbEntity
  8
0
  6
CONTINUOUS
 62
     7
100
AcDbLine
 10
2.8210345579
 20
1.6064211366
 30
0.0
 11
4.7981841288
 21
1.6064211366
 31
0.0
  0
LINE
  5
5D
330
1F
100
AcDbEntity
  8
0
  6
CONTINUOUS
 62
     7
100
AcDbLine
 10
2.8210345579
 20
1.8564211366
 30
0.0
 11
4.7981841288
 21
1.8564211366
 31
0.0
  0
LINE
  5
5E
330
1F
100
AcDbEntity
  8
0
  6
CONTINUOUS
 62
     7
100
AcDbLine
 10
3.8190146875
 20
2.3564211366
 30
0.0
 11
3.8190146875
 21
0.5883479999
 31
0.0
  0
LINE
  5
5F
330
1F
100
AcDbEntity
  8
0
  6
CONTINUOUS
 62
     7
100
AcDbLine
 10
6.1796352514
 20
2.2020813496
 30
0.0
 11
4.7981841288
 21
2.2020813496
 31
0.0
  0
LINE
  5
60
330
1F
100
AcDbEntity
  8
0
  6
CONTINUOUS
 62
     7
100
AcDbLine
 10
7.8712070044
 20
1.6064211366
 30
0.0
 11
6.1796352514
 21
1.6064211366
 31
0.0
  0
LINE
  5
61
330
1F
100
AcDbEntity
  8
0
  6
CONTINUOUS
 62
     7
100
AcDbLine
 10
7.8712070044
 20
1.4189211366
 30
0.0
 11
6.1796352514
 21
1.4189211366
 31
0.0
  0
LINE
  5
62
330
1F
100
AcDbEntity
  8
0
  6
CONTINUOUS
 62
     7
100
AcDbLine
 10
2.8210345579
 20
2.1064211366
 30
0.0
 11
4.7981841288
 21
2.1064211366
 31
0.0
  0
LINE
  5
63
330
1F
100
AcDbEntity
  8
0
  6
CONTINUOUS
 62
     7
100
AcDbLine
 10
4.7981841288
 20
1.3957965305
 30
0.0
 11
6.1796352514
 21
1.3957965305
 31
0.0
  0
LINE
  5
64
330
1F
100
AcDbEntity
  8
0
  6
CONTINUOUS
 62
     7
100
AcDbLine
 10
2.8210345579
 20
0.8564211366
 30
0.0
 11
4.7981841288
 21
0.8564211366
 31
0.0
  0
LINE
  5
65
330
1F
100
AcDbEntity
  8
0
  6
CONTINUOUS
 62
     7
100
AcDbLine
 10
1.1838252943
 20
0.3920731707
 30
0.0
 11
1.1838252943
 21
1.3064211366
 31
0.0
  0
LINE
  5
66
330
1F
100
AcDbEntity
  8
0
  6
CONTINUOUS
 62
     7
100
AcDbLine
 10
2.8210345579
 20
1.3064211366
 30
0.0
 11
1.1838252943
 21
1.3064211366
 31
0.0
  0
LINE
  5
67
330
1F
100
AcDbEntity
  8
0
  6
CONTINUOUS
 62
     7
100
AcDbLine
 10
8.660927
 20
0.3920731707
 30
0.0
 11
8.660927
 21
0.3072739649
 31
0.0
  0
LINE
  5
68
330
1F
100
AcDbEntity
  8
0
  6
CONTINUOUS
 62
     7
100
AcDbLine
 10
6.692177
 20
0.3920731707
 30
0.0
 11
6.692177
 21
0.3072739649
 31
0.0
  0
LINE
  5
69
330
1F
100
AcDbEntity
  8
0
  6
CONTINUOUS
 62
     7
100
AcDbLine
 10
4.723427
 20
0.3920731707
 30
0.0
 11
4.723427
 21
0.3072739649
 31
0.0
  0
LINE
  5
6A
330
1F
100
AcDbEntity
  8
0
  6
CONTINUOUS
 62
     7
100
AcDbLine
 10
2.754677
 20
0.3920731707
 30
0.0
 11
2.754677
 21
0.3072739649
 31
0.0
  0
LINE
  5
6B
330
1F
100
AcDbEntity
  8
0
  6
CONTINUOUS
 62
     7
100
AcDbLine
 10
2.754677
 20
0.3920731707
 30
0.0
 11
2.7672319738
 21
0.3575
 31
0.0
  0
LINE
  5
6C
330
1F
100
AcDbEntity
  8
0
  6
CONTINUOUS
 62
     7
100
AcDbLine
 10
2.7672319738
 20
0.3575
 30
0.0
 11
2.7414258825
 21
0.3575
 31
0.0
  0
LINE
  5
6D
330
1F
100
AcDbEntity
  8
0
  6
CONTINUOUS
 62
     7
100
AcDbLine
 10
2.7414258825
 20
0.3575
 30
0.0
 11
2.754677
 21
0.3920731707
 31
0.0
  0
MTEXT
  5
91
330
1F
100
AcDbEntity
  8
0
  6
CONTINUOUS
 62
     7
100
AcDbMText
 10
4.9775846961
 20
0.5178452352
 30
0.0
 40
0.0625
 41
0.0
 71
     1
 72
     1
  1
DO NOT SCALE DRAWING
  7
SLDTEXTSTYLE0
  0
MTEXT
  5
92
330
1F
100
AcDbEntity
  8
0
  6
CONTINUOUS
 62
     7
100
AcDbMText
 10
8.5330552446
 20
0.9417064595
 30
0.0
 40
0.125
 41
0.0
 71
     1
 72
     1
  1
CL2-112_CLAMP
  7
SLDTEXTSTYLE0
  0
MTEXT
  5
94
330
1F
100
AcDbEntity
  8
0
  6
CONTINUOUS
 62
     7
100
AcDbMText
 10
9.7571278483
 20
0.5524239532
 30
0.0
 40
0.1
 41
0.0
 71
     1
 72
     1
  1
SHEET 1 OF 1
  7
SLDTEXTSTYLE1
  0
MTEXT
  5
95
330
1F
100
AcDbEntity
  8
0
  6
CONTINUOUS
 62
     7
100
AcDbMText
 10
4.8448077858
 20
2.3132954224
 30
0.0
 40
0.07
 41
0.0
 71
     1
 72
     1
  1
UNLESS OTHERWISE SPECIFIED:
  7
SLDTEXTSTYLE0
  0
MTEXT
  5
96
330
1F
100
AcDbEntity
  8
0
  6
CONTINUOUS
 62
     7
100
AcDbMText
 10
7.9586139647
 20
0.5520987879
 30
0.0
 40
0.1
 41
0.0
 71
     1
 72
     1
  1
SCALE: 1:1
  7
SLDTEXTSTYLE0
  0
MTEXT
  5
97
330
1F
100
AcDbEntity
  8
0
  6
CONTINUOUS
 62
     7
100
AcDbMText
 10
8.7023691647
 20
0.5486763345
 30
0.0
 40
0.1
 41
0.0
 71
     1
 72
     1
  1
WEIGHT: 
  7
SLDTEXTSTYLE0
  0
MTEXT
  5
98
330
1F
100
AcDbEntity
  8
0
  6
CONTINUOUS
 62
     7
100
AcDbMText
 10
10.2277580983
 20
1.081966299
 30
0.0
 40
0.1
 41
0.0
 71
     1
 72
     1
  1
REV
  7
SLDTEXTSTYLE0
  0
MTEXT
  5
9A
330
1F
100
AcDbEntity
  8
0
  6
CONTINUOUS
 62
     7
100
AcDbMText
 10
8.2984570898
 20
1.0858725293
 30
0.0
 40
0.1
 41
0.0
 71
     1
 72
     1
  1
DWG.  NO.
  7
SLDTEXTSTYLE2
  0
MTEXT
  5
9B
330
1F
100
AcDbEntity
  8
0
  6
CONTINUOUS
 62
     7
100
AcDbMText
 10
7.9598482632
 20
0.9442140768
 30
0.0
 40
0.25
 41
0.0
 71
     1
 72
     1
  1
A
  7
SLDTEXTSTYLE0
  0
MTEXT
  5
9C
330
1F
100
AcDbEntity
  8
0
  6
CONTINUOUS
 62
     7
100
AcDbMText
 10
7.9519581822
 20
1.0872713483
 30
0.0
 40
0.1
 41
0.0
 71
     1
 72
     1
  1
SIZE
  7
SLDTEXTSTYLE0
  0
MTEXT
  5
9D
330
1F
100
AcDbEntity
  8
0
  6
CONTINUOUS
 62
     7
100
AcDbMText
 10
7.9170704177
 20
1.9547881128
 30
0.0
 40
0.1
 41
0.0
 71
     1
 72
     1
  1
TITLE:
  7
SLDTEXTSTYLE0
  0
MTEXT
  5
9E
330
1F
100
AcDbEntity
  8
0
  6
CONTINUOUS
 62
     7
100
AcDbMText
 10
7.0363774929
 20
2.2906161274
 30
0.0
 40
0.065
 41
0.0
 71
     1
 72
     1
  1
NAME
  7
SLDTEXTSTYLE0
  0
MTEXT
  5
9F
330
1F
100
AcDbEntity
  8
0
  6
CONTINUOUS
 62
     7
100
AcDbMText
 10
7.5281510634
 20
2.2888799118
 30
0.0
 40
0.065
 41
0.0
 71
     1
 72
     1
  1
DATE
  7
SLDTEXTSTYLE0
  0
MTEXT
  5
A0
330
1F
100
AcDbEntity
  8
0
  6
CONTINUOUS
 62
     7
100
AcDbMText
 10
6.2277147029
 20
1.1876913145
 30
0.0
 40
0.065
 41
0.0
 71
     1
 72
     1
  1
COMMENTS:
  7
SLDTEXTSTYLE0
  0
MTEXT
  5
A1
330
1F
100
AcDbEntity
  8
0
  6
CONTINUOUS
 62
     7
100
AcDbMText
 10
6.2268411461
 20
1.3536101679
 30
0.0
 40
0.065
 41
0.0
 71
     1
 72
     1
  1
Q.A.
  7
SLDTEXTSTYLE0
  0
MTEXT
  5
A2
330
1F
100
AcDbEntity
  8
0
  6
CONTINUOUS
 62
     7
100
AcDbMText
 10
6.2284654509
 20
1.5395328424
 30
0.0
 40
0.065
 41
0.0
 71
     1
 72
     1
  1
MFG APPR.
  7
SLDTEXTSTYLE0
  0
MTEXT
  5
A3
330
1F
100
AcDbEntity
  8
0
  6
CONTINUOUS
 62
     7
100
AcDbMText
 10
6.2235171344
 20
1.7267501785
 30
0.0
 40
0.065
 41
0.0
 71
     1
 72
     1
  1
ENG APPR.
  7
SLDTEXTSTYLE0
  0
MTEXT
  5
A4
330
1F
100
AcDbEntity
  8
0
  6
CONTINUOUS
 62
     7
100
AcDbMText
 10
6.2264103951
 20
1.9092699088
 30
0.0
 40
0.065
 41
0.0
 71
     1
 72
     1
  1
CHECKED
  7
SLDTEXTSTYLE0
  0
MTEXT
  5
A5
330
1F
100
AcDbEntity
  8
0
  6
CONTINUOUS
 62
     7
100
AcDbMText
 10
6.2242794356
 20
2.1016301232
 30
0.0
 40
0.065
 41
0.0
 71
     1
 72
     1
  1
DRAWN
  7
SLDTEXTSTYLE0
  0
MTEXT
  5
A6
330
1F
100
AcDbEntity
  8
0
  6
CONTINUOUS
 62
     7
100
AcDbMText
 10
4.8208600979
 20
0.834523235
 30
0.0
 40
0.06
 41
0.0
 71
     1
 72
     1
  1
FINISH
  7
SLDTEXTSTYLE0
  0
MTEXT
  5
A7
330
1F
100
AcDbEntity
  8
0
  6
CONTINUOUS
 62
     7
100
AcDbMText
 10
4.8181240648
 20
1.1028217587
 30
0.0
 40
0.06
 41
0.0
 71
     1
 72
     1
  1
MATERIAL
  7
SLDTEXTSTYLE0
  0
INSERT
  5
AD
330
1F
100
AcDbEntity
  8
0
  6
CONTINUOUS
 62
     7
100
AcDbBlockReference
  2
SW_NOTE_0
 10
4.8231926633
 20
1.2646542947
 30
0.0
  0
INSERT
  5
BD
330
1F
100
AcDbEntity
  8
0
  6
CONTINUOUS
 62
     7
100
AcDbBlockReference
  2
SW_NOTE_1
 10
4.8353339353
 20
2.0049168724
 30
0.0
  0
MTEXT
  5
BE
330
1F
100
AcDbEntity
  8
0
  6
CONTINUOUS
 62
     7
100
AcDbMText
 10
3.5531400086
 20
0.5200091997
 30
0.0
 40
0.0625
 41
0.0
 71
     1
 72
     1
  1
APPLICATION
  7
SLDTEXTSTYLE0
  0
MTEXT
  5
BF
330
1F
100
AcDbEntity
  8
0
  6
CONTINUOUS
 62
     7
100
AcDbMText
 10
4.1005607758
 20
0.7502454275
 30
0.0
 40
0.0625
 41
0.0
 71
     1
 72
     1
  1
USED ON
  7
SLDTEXTSTYLE0
  0
MTEXT
  5
C0
330
1F
100
AcDbEntity
  8
0
  6
CONTINUOUS
 62
     7
100
AcDbMText
 10
3.1040019536
 20
0.7492094783
 30
0.0
 40
0.0625
 41
0.0
 71
     1
 72
     1
  1
NEXT ASSY
  7
SLDTEXTSTYLE0
  0
MTEXT
  5
C1
330
1F
100
AcDbEntity
  8
0
  6
CONTINUOUS
 62
     7
100
AcDbMText
 10
1.3712489489
 20
1.2496672684
 30
0.0
 40
0.06
 41
0.0
 71
     1
 72
     1
  1
PROPRIETARY AND CONFIDENTIAL
  7
SLDTEXTSTYLE0
  0
INSERT
  5
CC
330
1F
100
AcDbEntity
  8
0
  6
CONTINUOUS
 62
     7
100
AcDbBlockReference
  2
SW_NOTE_2
 10
1.2226209074
 20
1.0313492921
 30
0.0
  0
MTEXT
  5
CD
330
1F
100
AcDbEntity
  8
0
  6
CONTINUOUS
 62
     7
100
AcDbMText
 10
1.7387909509
 20
0.3105864247
 30
0.0
 40
0.09375
 41
0.0
 71
     1
 72
     1
  1
5
  7
SLDTEXTSTYLE0
  0
MTEXT
  5
CE
330
1F
100
AcDbEntity
  8
0
  6
CONTINUOUS
 62
     7
100
AcDbMText
 10
3.723800327
 20
0.3137237518
 30
0.0
 40
0.09375
 41
0.0
 71
     1
 72
     1
  1
4
  7
SLDTEXTSTYLE0
  0
MTEXT
  5
CF
330
1F
100
AcDbEntity
  8
0
  6
CONTINUOUS
 62
     7
100
AcDbMText
 10
5.6324457277
 20
0.3116191842
 30
0.0
 40
0.09375
 41
0.0
 71
     1
 72
     1
  1
3
  7
SLDTEXTSTYLE0
  0
MTEXT
  5
D0
330
1F
100
AcDbEntity
  8
0
  6
CONTINUOUS
 62
     7
100
AcDbMText
 10
7.6059721724
 20
0.3124391351
 30
0.0
 40
0.09375
 41
0.0
 71
     1
 72
     1
  1
2
  7
SLDTEXTSTYLE0
  0
MTEXT
  5
D1
330
1F
100
AcDbEntity
  8
0
  6
CONTINUOUS
 62
     7
100
AcDbMText
 10
9.6619921328
 20
0.301372012
 30
0.0
 40
0.09375
 41
0.0
 71
     1
 72
     1
  1
1
  7
SLDTEXTSTYLE0
  0
LINE
  5
D2
330
1F
100
AcDbEntity
  8
0
  6
CONTINUOUS
 62
     7
100
AcDbLine
 10
2.9900219302
 20
3.1956861604
 30
0.0
 11
3.6632502766
 21
3.1956861604
 31
0.0
  0
LINE
  5
D3
330
1F
100
AcDbEntity
  8
0
  6
CONTINUOUS
 62
     7
100
AcDbLine
 10
2.5866361034
 20
3.1956861604
 30
0.0
 11
2.9703368908
 21
3.1956861604
 31
0.0
  0
LINE
  5
D4
330
1F
100
AcDbEntity
  8
0
  6
CONTINUOUS
 62
     7
100
AcDbLine
 10
2.9703368908
 20
4.3216704124
 30
0.0
 11
2.5866361034
 21
4.3216704124
 31
0.0
  0
LINE
  5
D5
330
1F
100
AcDbEntity
  8
0
  6
CONTINUOUS
 62
     7
100
AcDbLine
 10
4.0666361034
 20
4.3216704124
 30
0.0
 11
2.9900219302
 21
4.3216704124
 31
0.0
  0
LINE
  5
D6
330
1F
100
AcDbEntity
  8
0
  6
CONTINUOUS
 62
     7
100
AcDbLine
 10
4.0766361034
 20
4.3116704124
 30
0.0
 11
4.0666361034
 21
4.3216704124
 31
0.0
  0
LINE
  5
D7
330
1F
100
AcDbEntity
  8
0
  6
CONTINUOUS
 62
     7
100
AcDbLine
 10
2.5866361034
 20
4.3216704124
 30
0.0
 11
2.5766361034
 21
4.3116704124
 31
0.0
  0
LINE
  5
D8
330
1F
100
AcDbEntity
  8
0
  6
CONTINUOUS
 62
     7
100
AcDbLine
 10
2.5766361034
 20
3.2056861604
 30
0.0
 11
2.5866361034
 21
3.1956861604
 31
0.0
  0
LINE
  5
D9
330
1F
100
AcDbEntity
  8
0
  6
CONTINUOUS
 62
     7
100
AcDbLine
 10
2.5866361034
 20
4.3216704124
 30
0.0
 11
2.5866361034
 21
3.1956861604
 31
0.0
  0
LINE
  5
DA
330
1F
100
AcDbEntity
  8
0
  6
CONTINUOUS
 62
     7
100
AcDbLine
 10
2.9703368908
 20
4.2069918228
 30
0.0
 11
2.9703368908
 21
4.3216704124
 31
0.0
  0
LINE
  5
DB
330
1F
100
AcDbEntity
  8
0
  6
CONTINUOUS
 62
     7
100
AcDbLine
 10
2.9900219302
 20
4.2069918228
 30
0.0
 11
2.9703368908
 21
4.2069918228
 31
0.0
  0
LINE
  5
DC
330
1F
100
AcDbEntity
  8
0
  6
CONTINUOUS
 62
     7
100
AcDbLine
 10
2.9900219302
 20
3.3103647499
 30
0.0
 11
2.9900219302
 21
3.1956861604
 31
0.0
  0
LINE
  5
DD
330
1F
100
AcDbEntity
  8
0
  6
CONTINUOUS
 62
     7
100
AcDbLine
 10
2.9900219302
 20
4.3216704124
 30
0.0
 11
2.9900219302
 21
4.2069918228
 31
0.0
  0
LINE
  5
DE
330
1F
100
AcDbEntity
  8
0
  6
CONTINUOUS
 62
     7
100
AcDbLine
 10
2.9703368908
 20
3.3103647499
 30
0.0
 11
2.9900219302
 21
3.3103647499
 31
0.0
  0
LINE
  5
DF
330
1F
100
AcDbEntity
  8
0
  6
CONTINUOUS
 62
     7
100
AcDbLine
 10
2.9703368908
 20
3.1956861604
 30
0.0
 11
2.9703368908
 21
3.3103647499
 31
0.0
  0
LINE
  5
E0
330
1F
100
AcDbEntity
  8
0
  6
CONTINUOUS
 62
     7
100
AcDbLine
 10
4.0666361034
 20
3.195772203
 30
0.0
 11
3.682935316
 21
3.195772203
 31
0.0
  0
LINE
  5
E1
330
1F
100
AcDbEntity
  8
0
  6
CONTINUOUS
 62
     7
100
AcDbLine
 10
3.682935316
 20
3.9811192313
 30
0.0
 11
3.682935316
 21
3.195772203
 31
0.0
  0
LINE
  5
E2
330
1F
100
AcDbEntity
  8
0
  6
CONTINUOUS
 62
     7
100
AcDbLine
 10
3.6632502766
 20
3.9811192313
 30
0.0
 11
3.682935316
 21
3.9811192313
 31
0.0
  0
LINE
  5
E3
330
1F
100
AcDbEntity
  8
0
  6
CONTINUOUS
 62
     7
100
AcDbLine
 10
3.6632502766
 20
3.1956861604
 30
0.0
 11
3.6632502766
 21
3.9811192313
 31
0.0
  0
LINE
  5
E4
330
1F
100
AcDbEntity
  8
0
  6
CONTINUOUS
 62
     7
100
AcDbLine
 10
4.0666361034
 20
3.195772203
 30
0.0
 11
4.0666361034
 21
4.3216704124
 31
0.0
  0
SPLINE
  5
E5
330
1F
100
AcDbEntity
  8
0
  6
CONTINUOUS
 62
     7
100
AcDbSpline
210
0.0
220
0.0
230
1.0
 70
     8
 71
     3
 72
    72
 73
    68
 74
     0
 42
0.00000001
 43
0.00000001
 40
-0.0312499999999998
 40
-0.0312499999999998
 40
0.0
 40
0.0
 40
0.0625000000000006
 40
0.0625000000000006
 40
0.093750000000001
 40
0.093750000000001
 40
0.1250000000000014
 40
0.1250000000000014
 40
0.1562500000000017
 40
0.1562500000000017
 40
0.1875000000000021
 40
0.1875000000000021
 40
0.2187500000000022
 40
0.2187500000000022
 40
0.2500000000000022
 40
0.2500000000000022
 40
0.2656250000000022
 40
0.2656250000000022
 40
0.2812500000000021
 40
0.2812500000000021
 40
0.296875000000002
 40
0.296875000000002
 40
0.3125000000000019
 40
0.3125000000000019
 40
0.3281250000000018
 40
0.3281250000000018
 40
0.3437500000000018
 40
0.3437500000000018
 40
0.3750000000000017
 40
0.3750000000000017
 40
0.4375000000000018
 40
0.4375000000000018
 40
0.4687500000000018
 40
0.4687500000000018
 40
0.5000000000000017
 40
0.5000000000000017
 40
0.5312500000000017
 40
0.5312500000000017
 40
0.5625000000000016
 40
0.5625000000000016
 40
0.5937500000000016
 40
0.5937500000000016
 40
0.6250000000000016
 40
0.6250000000000016
 40
0.6562500000000014
 40
0.6562500000000014
 40
0.6875000000000014
 40
0.6875000000000014
 40
0.7187500000000014
 40
0.7187500000000014
 40
0.7500000000000013
 40
0.7500000000000013
 40
0.7812500000000013
 40
0.7812500000000013
 40
0.8125000000000013
 40
0.8125000000000013
 40
0.8437500000000013
 40
0.8437500000000013
 40
0.875000000000001
 40
0.875000000000001
 40
0.9062500000000008
 40
0.9062500000000008
 40
0.9375000000000006
 40
0.9375000000000006
 40
0.9687500000000002
 40
0.9687500000000002
 40
1.0
 40
1.0
 40
1.062500000000001
 40
1.062500000000001
 10
4.007738465589277
 20
3.426146986731567
 30
0.0
 10
4.007738465589277
 20
3.402832635471738
 30
0.0
 10
4.004999909110795
 20
3.388274506668063
 30
0.0
 10
3.997509271459311
 20
3.367717262143631
 30
0.0
 10
3.994435312961448
 20
3.361112460733803
 30
0.0
 10
3.987299231253711
 20
3.348630041575475
 30
0.0
 10
3.983223555332025
 20
3.342709445587022
 30
0.0
 10
3.973988592522769
 20
3.331481566079404
 30
0.0
 10
3.968788938977799
 20
3.326139391166978
 30
0.0
 10
3.957306089677497
 20
3.316298741781535
 30
0.0
 10
3.951040251019892
 20
3.311794455164441
 30
0.0
 10
3.937117510274352
 20
3.303702953884239
 30
0.0
 10
3.929442893217705
 20
3.300124369461624
 30
0.0
 10
3.912805385312581
 20
3.294444606518946
 30
0.0
 10
3.903641441433282
 20
3.29230322869902
 30
0.0
 10
3.889390309041649
 20
3.290694241087718
 30
0.0
 10
3.884466508168954
 20
3.290416043560835
 30
0.0
 10
3.874743572693934
 20
3.290429772356446
 30
0.0
 10
3.86993527728636
 20
3.290712641038584
 30
0.0
 10
3.860419163434869
 20
3.291806255937987
 30
0.0
 10
3.855698605481584
 20
3.292626046093392
 30
0.0
 10
3.846719312782184
 20
3.294683433593064
 30
0.0
 10
3.842407055987243
 20
3.295925017615533
 30
0.0
 10
3.834078301928585
 20
3.298784039300306
 30
0.0
 10
3.830046589593162
 20
3.300411420546864
 30
0.0
 10
3.822425203403653
 20
3.303923428446201
 30
0.0
 10
3.818809213053783
 20
3.30581543676589
 30
0.0
 10
3.80844126626884
 20
3.31185847774157
 30
0.0
 10
3.802129679758564
 20
3.316401601526196
 30
0.0
 10
3.784916305789276
 20
3.331193873040477
 30
0.0
 10
3.775853767896729
 20
3.342361374539849
 30
0.0
 10
3.76511695872138
 20
3.361147844684576
 30
0.0
 10
3.76204819273857
 20
3.367757991333732
 30
0.0
 10
3.757092412746981
 20
3.381353736749861
 30
0.0
 10
3.755178664764124
 20
3.388381723608972
 30
0.0
 10
3.752553700667325
 20
3.40293013810738
 30
0.0
 10
3.751841726871479
 20
3.410497123184907
 30
0.0
 10
3.751824342284626
 20
3.425966358705045
 30
0.0
 10
3.752511351840262
 20
3.433773545795828
 30
0.0
 10
3.755419086319349
 20
3.44950115041778
 30
0.0
 10
3.757665985169247
 20
3.457490731411669
 30
0.0
 10
3.76386618271657
 20
3.47320152349761
 30
0.0
 10
3.767770972033067
 20
3.480839045635007
 30
0.0
 10
3.77735276968435
 20
3.495553799125861
 30
0.0
 10
3.783101938198579
 20
3.502677521267066
 30
0.0
 10
3.795994105509308
 20
3.515501966318592
 30
0.0
 10
3.803175734238838
 20
3.521294611641196
 30
0.0
 10
3.819146644151665
 20
3.531443339579222
 30
0.0
 10
3.827753237708702
 20
3.535659598757699
 30
0.0
 10
3.845721981544693
 20
3.542079181645777
 30
0.0
 10
3.855297116630127
 20
3.544334278597207
 30
0.0
 10
3.874493307424019
 20
3.546583517444757
 30
0.0
 10
3.884150349773112
 20
3.546627073644819
 30
0.0
 10
3.903586513560755
 20
3.544474817222526
 30
0.0
 10
3.912972785267751
 20
3.542320791350714
 30
0.0
 10
3.931071064559316
 20
3.535991949315129
 30
0.0
 10
3.93980625766242
 20
3.531767120723905
 30
0.0
 10
3.955720125593476
 20
3.521787731316066
 30
0.0
 10
3.963096099471684
 20
3.515923299006241
 30
0.0
 10
3.976168820533923
 20
3.50303061882996
 30
0.0
 10
3.981831636721465
 20
3.496072094512791
 30
0.0
 10
3.991550945226646
 20
3.481293407424173
 30
0.0
 10
3.995539869279749
 20
3.473544624183794
 30
0.0
 10
4.001765733009251
 20
3.457917003531919
 30
0.0
 10
4.004053606541443
 20
3.449915911107742
 30
0.0
 10
4.007035752805353
 20
3.434019447499816
 30
0.0
 10
4.007738465589277
 20
3.426146986731567
 30
0.0
 10
4.007738465589277
 20
3.402832635471738
 30
0.0
  0
LINE
  5
E6
330
1F
100
AcDbEntity
  8
0
  6
CONTINUOUS
 62
     7
100
AcDbLine
 10
4.0766361034
 20
4.3116704124
 30
0.0
 11
4.0766361034
 21
3.2057737592
 31
0.0
  0
LINE
  5
E7
330
1F
100
AcDbEntity
  8
0
  6
CONTINUOUS
 62
     7
100
AcDbLine
 10
4.0666361034
 20
3.195772203
 30
0.0
 11
4.0766361034
 21
3.2057737592
 31
0.0
  0
LINE
  5
E8
330
1F
100
AcDbEntity
  8
0
  6
CONTINUOUS
 62
     7
100
AcDbLine
 10
2.5766361034
 20
3.2056861604
 30
0.0
 11
2.5766361034
 21
4.3116704124
 31
0.0
  0
CIRCLE
  5
E9
330
1F
100
AcDbEntity
  8
0
  6
CONTINUOUS
 62
     7
100
AcDbCircle
 10
3.8797857097
 20
3.4183755363
 30
0.0
 40
0.1003937007874014
  0
CIRCLE
  5
EA
330
1F
100
AcDbEntity
  8
0
  6
CONTINUOUS
 62
     7
100
AcDbCircle
 10
3.8797857097
 20
3.4183755363
 30
0.0
 40
0.1082677165354333
  0
LINE
  5
EB
330
1F
100
AcDbEntity
  8
0
  6
CONTINUOUS
 62
     7
100
AcDbLine
 10
3.8305731113
 20
3.3899626294
 30
0.0
 11
3.8797857097
 21
3.3615497224
 31
0.0
  0
LINE
  5
EC
330
1F
100
AcDbEntity
  8
0
  6
CONTINUOUS
 62
     7
100
AcDbLine
 10
3.9289983081
 20
3.3899626294
 30
0.0
 11
3.9289983081
 21
3.4467884433
 31
0.0
  0
LINE
  5
ED
330
1F
100
AcDbEntity
  8
0
  6
CONTINUOUS
 62
     7
100
AcDbLine
 10
3.8797857097
 20
3.3615497224
 30
0.0
 11
3.9289983081
 21
3.3899626294
 31
0.0
  0
LINE
  5
EE
330
1F
100
AcDbEntity
  8
0
  6
CONTINUOUS
 62
     7
100
AcDbLine
 10
3.8305731113
 20
3.4467884433
 30
0.0
 11
3.8305731113
 21
3.3899626294
 31
0.0
  0
LINE
  5
EF
330
1F
100
AcDbEntity
  8
0
  6
CONTINUOUS
 62
     7
100
AcDbLine
 10
3.8797857097
 20
3.4752013502
 30
0.0
 11
3.8305731113
 21
3.4467884433
 31
0.0
  0
LINE
  5
F0
330
1F
100
AcDbEntity
  8
0
  6
CONTINUOUS
 62
     7
100
AcDbLine
 10
3.9289983081
 20
3.4467884433
 30
0.0
 11
3.8797857097
 21
3.4752013502
 31
0.0
  0
SPLINE
  5
F1
330
1F
100
AcDbEntity
  8
0
  6
HIDDEN
 62
     7
100
AcDbSpline
210
0.0
220
0.0
230
1.0
 70
     8
 71
     3
 72
    64
 73
    60
 74
     0
 42
0.00000001
 43
0.00000001
 40
-0.0312499999999999
 40
-0.0312499999999999
 40
0.0
 40
0.0
 40
0.015625
 40
0.015625
 40
0.0312500000000001
 40
0.0312500000000001
 40
0.0625000000000001
 40
0.0625000000000001
 40
0.0937500000000001
 40
0.0937500000000001
 40
0.1250000000000001
 40
0.1250000000000001
 40
0.1875000000000004
 40
0.1875000000000004
 40
0.2187500000000006
 40
0.2187500000000006
 40
0.2500000000000008
 40
0.2500000000000008
 40
0.3125000000000012
 40
0.3125000000000012
 40
0.3437500000000013
 40
0.3437500000000013
 40
0.3750000000000014
 40
0.3750000000000014
 40
0.4062500000000016
 40
0.4062500000000016
 40
0.4375000000000017
 40
0.4375000000000017
 40
0.4531250000000017
 40
0.4531250000000017
 40
0.4687500000000018
 40
0.4687500000000018
 40
0.5000000000000017
 40
0.5000000000000017
 40
0.5312500000000017
 40
0.5312500000000017
 40
0.5625000000000016
 40
0.5625000000000016
 40
0.5937500000000016
 40
0.5937500000000016
 40
0.6250000000000016
 40
0.6250000000000016
 40
0.6562500000000014
 40
0.6562500000000014
 40
0.6875000000000014
 40
0.6875000000000014
 40
0.750000000000001
 40
0.750000000000001
 40
0.8125000000000007
 40
0.8125000000000007
 40
0.8750000000000002
 40
0.8750000000000002
 40
0.9062500000000002
 40
0.9062500000000002
 40
0.9375000000000002
 40
0.9375000000000002
 40
0.9687500000000001
 40
0.9687500000000001
 40
1.0
 40
1.0
 40
1.015625
 40
1.015625
 10
2.783310380951755
 20
3.446113229109369
 30
0.0
 10
2.768574555152133
 20
3.446113229109369
 30
0.0
 10
2.763753564711091
 20
3.445690277494944
 30
0.0
 10
2.754276148975417
 20
3.444083213319567
 30
0.0
 10
2.749579677533308
 20
3.442884490493608
 30
0.0
 10
2.736022034985944
 20
3.438356822502374
 30
0.0
 10
2.727787248184807
 20
3.43419312340979
 30
0.0
 10
2.712417314531957
 20
3.42441184239423
 30
0.0
 10
2.705552834574606
 20
3.418963136253604
 30
0.0
 10
2.69297299712101
 20
3.407435936031537
 30
0.0
 10
2.687228626467486
 20
3.401303926970114
 30
0.0
 10
2.671700201586933
 20
3.382554124259563
 30
0.0
 10
2.663622055625503
 20
3.369740444666738
 30
0.0
 10
2.65447147074124
 20
3.350478238640259
 30
0.0
 10
2.651941146073254
 20
3.344035494156266
 30
0.0
 10
2.648107534625506
 20
3.33152209491109
 30
0.0
 10
2.646778509259939
 20
3.325403477538191
 30
0.0
 10
2.644696759417684
 20
3.307474888421012
 30
0.0
 10
2.645908950503337
 20
3.295952001241474
 30
0.0
 10
2.652581248363618
 20
3.280700834890671
 30
0.0
 10
2.655642624208023
 20
3.275869161887659
 30
0.0
 10
2.663503098838281
 20
3.266974973965061
 30
0.0
 10
2.668229189664128
 20
3.262969497519254
 30
0.0
 10
2.679382974677265
 20
3.255750736067101
 30
0.0
 10
2.68592406350454
 20
3.252498324676151
 30
0.0
 10
2.700370587753671
 20
3.246986051616002
 30
0.0
 10
2.70822985804145
 20
3.244714437411254
 30
0.0
 10
2.72101587615002
 20
3.241947941668613
 30
0.0
 10
2.725478385251247
 20
3.241129670198137
 30
0.0
 10
2.734524610987899
 20
3.239742177914898
 30
0.0
 10
2.739121092101137
 20
3.239168054621831
 30
0.0
 10
2.753127333742794
 20
3.237780780014468
 30
0.0
 10
2.762888365536616
 20
3.237297887790092
 30
0.0
 10
2.782298404016504
 20
3.237242708722898
 30
0.0
 10
2.791891139593735
 20
3.237655420866859
 30
0.0
 10
2.810849890635092
 20
3.239408703998296
 30
0.0
 10
2.819980430238045
 20
3.240736488819421
 30
0.0
 10
2.837139150517697
 20
3.244300146667912
 30
0.0
 10
2.845296765763592
 20
3.246577752635537
 30
0.0
 10
2.859894770403135
 20
3.251982101841846
 30
0.0
 10
2.866475161587579
 20
3.255145338937126
 30
0.0
 10
2.877989732217413
 20
3.262382884575843
 30
0.0
 10
2.882822313414256
 20
3.266380752748249
 30
0.0
 10
2.890839577219229
 20
3.275193838332073
 30
0.0
 10
2.894004423312034
 20
3.280022077980262
 30
0.0
 10
2.900924977488216
 20
3.295259928964763
 30
0.0
 10
2.902266794265333
 20
3.306729659724322
 30
0.0
 10
2.899658921308607
 20
3.33079816047245
 30
0.0
 10
2.89571181174375
 20
3.343611187632374
 30
0.0
 10
2.883634200603843
 20
3.369249562556228
 30
0.0
 10
2.875378665536864
 20
3.38238993471571
 30
0.0
 10
2.859952327932941
 20
3.401070545011503
 30
0.0
 10
2.8542924709077
 20
3.407142641206027
 30
0.0
 10
2.841660155633329
 20
3.418767472785684
 30
0.0
 10
2.834676540082871
 20
3.424316794914608
 30
0.0
 10
2.819439008727804
 20
3.434049642660287
 30
0.0
 10
2.811005688117905
 20
3.438326225863326
 30
0.0
 10
2.793049610949561
 20
3.444347263468694
 30
0.0
 10
2.783310380951755
 20
3.446113229109369
 30
0.0
 10
2.768574555152133
 20
3.446113229109369
 30
0.0
  0
SPLINE
  5
F2
330
1F
100
AcDbEntity
  8
0
  6
HIDDEN
 62
     7
100
AcDbSpline
210
0.0
220
0.0
230
1.0
 70
     8
 71
     3
 72
    52
 73
    48
 74
     0
 42
0.00000001
 43
0.00000001
 40
-0.0624999999999996
 40
-0.0624999999999996
 40
0.0
 40
0.0
 40
0.03125
 40
0.03125
 40
0.0625
 40
0.0625
 40
0.0937500000000001
 40
0.0937500000000001
 40
0.1250000000000001
 40
0.1250000000000001
 40
0.1875000000000001
 40
0.1875000000000001
 40
0.2187500000000002
 40
0.2187500000000002
 40
0.2500000000000004
 40
0.2500000000000004
 40
0.3125000000000008
 40
0.3125000000000008
 40
0.3750000000000012
 40
0.3750000000000012
 40
0.4062500000000012
 40
0.4062500000000012
 40
0.4375000000000012
 40
0.4375000000000012
 40
0.5000000000000014
 40
0.5000000000000014
 40
0.5625000000000017
 40
0.5625000000000017
 40
0.5937500000000019
 40
0.5937500000000019
 40
0.625000000000002
 40
0.625000000000002
 40
0.6875000000000018
 40
0.6875000000000018
 40
0.7500000000000016
 40
0.7500000000000016
 40
0.8125000000000012
 40
0.8125000000000012
 40
0.843750000000001
 40
0.843750000000001
 40
0.8750000000000008
 40
0.8750000000000008
 40
0.9062500000000006
 40
0.9062500000000006
 40
0.9375000000000004
 40
0.9375000000000004
 40
1.0
 40
1.0
 40
1.03125
 40
1.03125
 10
2.763392515005122
 20
4.147422838281861
 30
0.0
 10
2.778533488125449
 20
4.147422838281861
 30
0.0
 10
2.783423505053888
 20
4.148014700154541
 30
0.0
 10
2.792925211590566
 20
4.150234939231245
 30
0.0
 10
2.797451679951406
 20
4.151856554272949
 30
0.0
 10
2.805773353562478
 20
4.155767988105748
 30
0.0
 10
2.809635482153034
 20
4.158087815425702
 30
0.0
 10
2.816552258944046
 20
4.163069021151359
 30
0.0
 10
2.819658902633868
 20
4.165754521149133
 30
0.0
 10
2.828075936458
 20
4.174263225316526
 30
0.0
 10
2.832291290110969
 20
4.180307428541516
 30
0.0
 10
2.836781291435669
 20
4.189544662334558
 30
0.0
 10
2.837969869119624
 20
4.192678489475333
 30
0.0
 10
2.839660292121441
 20
4.198840730099669
 30
0.0
 10
2.840174788656998
 20
4.201889789626471
 30
0.0
 10
2.840698510998145
 20
4.210936931795137
 30
0.0
 10
2.839658117066948
 20
4.216864898089406
 30
0.0
 10
2.834489208096179
 20
4.227707735972564
 30
0.0
 10
2.830281659095116
 20
4.232752759487989
 30
0.0
 10
2.821557445144292
 20
4.239119391194334
 30
0.0
 10
2.818186209702818
 20
4.241082367836162
 30
0.0
 10
2.810825035571508
 20
4.244472133298711
 30
0.0
 10
2.80681969325638
 20
4.245921780872729
 30
0.0
 10
2.793732225742867
 20
4.249523800665909
 30
0.0
 10
2.783807158958171
 20
4.250815579791793
 30
0.0
 10
2.763838267683008
 20
4.250871299647931
 30
0.0
 10
2.753887254405792
 20
4.249635189826615
 30
0.0
 10
2.740731050376906
 20
4.246110749599778
 30
0.0
 10
2.736583636901804
 20
4.244642605976006
 30
0.0
 10
2.729141548752479
 20
4.241272837312796
 30
0.0
 10
2.72576465202759
 20
4.239339198096773
 30
0.0
 10
2.716890293391259
 20
4.232962798649204
 30
0.0
 10
2.71264713477182
 20
4.227945911482701
 30
0.0
 10
2.707367123758247
 20
4.217074764780705
 30
0.0
 10
2.706292136483593
 20
4.211146038800418
 30
0.0
 10
2.706933641721296
 20
4.199052305090286
 30
0.0
 10
2.708653439214378
 20
4.192751822844856
 30
0.0
 10
2.713101825292255
 20
4.183537178057341
 30
0.0
 10
2.714896016654228
 20
4.180493809784343
 30
0.0
 10
2.719151803371149
 20
4.17448703144312
 30
0.0
 10
2.721634254255286
 20
4.171505989315306
 30
0.0
 10
2.727206594043537
 20
4.165853721430638
 30
0.0
 10
2.730304372519887
 20
4.163161851390516
 30
0.0
 10
2.737252069444854
 20
4.158140576246718
 30
0.0
 10
2.7411080601777
 20
4.155819437468634
 30
0.0
 10
2.753552869849846
 20
4.14994510813843
 30
0.0
 10
2.763392515005122
 20
4.147422838281861
 30
0.0
 10
2.778533488125449
 20
4.147422838281861
 30
0.0
  0
LINE
  5
F3
330
1F
100
AcDbEntity
  8
0
  6
HIDDEN
 62
     7
100
AcDbLine
 10
2.9900219302
 20
4.2069918228
 30
0.0
 11
2.9900219302
 21
3.3103647499
 31
0.0
  0
LINE
  5
F4
330
1F
100
AcDbEntity
  8
0
  6
HIDDEN
 62
     7
100
AcDbLine
 10
2.9703368908
 20
4.2069918228
 30
0.0
 11
2.9703368908
 21
3.3103647499
 31
0.0
  0
CIRCLE
  5
F5
330
1F
100
AcDbEntity
  8
0
  6
HIDDEN
 62
     7
100
AcDbCircle
 10
3.8797857097
 20
3.4183755363
 30
0.0
 40
0.066929133858268
  0
LINE
  5
F6
330
1F
100
AcDbEntity
  8
0
  6
HIDDEN
 62
     7
100
AcDbLine
 10
4.0766361034
 20
3.6309467029
 30
0.0
 11
4.0666361034
 21
3.6409788696
 31
0.0
  0
LINE
  5
F7
330
1F
100
AcDbEntity
  8
0
  6
HIDDEN
 62
     7
100
AcDbLine
 10
2.5866361034
 20
3.7685208061
 30
0.0
 11
2.5766361034
 21
3.7685208061
 31
0.0
  0
LINE
  5
F8
330
1F
100
AcDbEntity
  8
0
  6
HIDDEN
 62
     7
100
AcDbLine
 10
2.5866361034
 20
3.7488357667
 30
0.0
 11
2.5766361034
 21
3.7488357667
 31
0.0
  0
LINE
  5
F9
330
1F
100
AcDbEntity
  8
0
  6
HIDDEN
 62
     7
100
AcDbLine
 10
2.5866361034
 20
3.7685208061
 30
0.0
 11
2.9703368908
 21
3.7685208061
 31
0.0
  0
LINE
  5
FA
330
1F
100
AcDbEntity
  8
0
  6
HIDDEN
 62
     7
100
AcDbLine
 10
2.5866361034
 20
3.7488357667
 30
0.0
 11
2.9703368908
 21
3.7488357667
 31
0.0
  0
LINE
  5
FB
330
1F
100
AcDbEntity
  8
0
  6
HIDDEN
 62
     7
100
AcDbLine
 10
3.682935316
 20
3.6409788696
 30
0.0
 11
4.0666361034
 21
3.6409788696
 31
0.0
  0
LINE
  5
FC
330
1F
100
AcDbEntity
  8
0
  6
HIDDEN
 62
     7
100
AcDbLine
 10
2.901439253
 20
3.4712767116
 30
0.0
 11
2.6455337412
 21
3.4712767116
 31
0.0
  0
CIRCLE
  5
FD
330
1F
100
AcDbEntity
  8
0
  6
HIDDEN
 62
     7
100
AcDbCircle
 10
3.8797857097
 20
3.4183755363
 30
0.0
 40
0.0590551181102366
  0
CIRCLE
  5
FE
330
1F
100
AcDbEntity
  8
0
  6
HIDDEN
 62
     7
100
AcDbCircle
 10
3.8797857097
 20
3.4183755363
 30
0.0
 40
0.0511811023622042
  0
LINE
  5
FF
330
1F
100
AcDbEntity
  8
0
  6
HIDDEN
 62
     7
100
AcDbLine
 10
2.8817542136
 20
3.3610404911
 30
0.0
 11
2.6652187805
 21
3.3610404911
 31
0.0
  0
LINE
  5
100
330
1F
100
AcDbEntity
  8
0
  6
HIDDEN
 62
     7
100
AcDbLine
 10
2.6652187805
 20
3.4634026958
 30
0.0
 11
2.8817542136
 21
3.4634026958
 31
0.0
  0
LINE
  5
101
330
1F
100
AcDbEntity
  8
0
  6
HIDDEN
 62
     7
100
AcDbLine
 10
2.6730927963
 20
3.3531664754
 30
0.0
 11
2.8738801979
 21
3.3531664754
 31
0.0
  0
LINE
  5
102
330
1F
100
AcDbEntity
  8
0
  6
HIDDEN
 62
     7
100
AcDbLine
 10
2.714431379
 20
4.1917491525
 30
0.0
 11
2.8325416152
 21
4.1917491525
 31
0.0
  0
LINE
  5
103
330
1F
100
AcDbEntity
  8
0
  6
HIDDEN
 62
     7
100
AcDbLine
 10
2.8246675994
 20
4.1996231683
 30
0.0
 11
2.7223053947
 21
4.1996231683
 31
0.0
  0
LINE
  5
104
330
1F
100
AcDbEntity
  8
0
  6
HIDDEN
 62
     7
100
AcDbLine
 10
2.7734864971
 20
3.4122215935
 30
0.0
 11
2.7734864971
 21
3.3531664754
 31
0.0
  0
LINE
  5
105
330
1F
100
AcDbEntity
  8
0
  6
HIDDEN
 62
     7
100
AcDbLine
 10
2.7734864971
 20
3.4122215935
 30
0.0
 11
2.8226990955
 21
3.4122215935
 31
0.0
  0
LINE
  5
106
330
1F
100
AcDbEntity
  8
0
  6
HIDDEN
 62
     7
100
AcDbLine
 10
2.7242738987
 20
3.4122215935
 30
0.0
 11
2.7734864971
 21
3.4122215935
 31
0.0
  0
LINE
  5
107
330
1F
100
AcDbEntity
  8
0
  6
HIDDEN
 62
     7
100
AcDbLine
 10
2.8226990955
 20
3.4122215935
 30
0.0
 11
2.8226990955
 21
3.3531664754
 31
0.0
  0
LINE
  5
108
330
1F
100
AcDbEntity
  8
0
  6
HIDDEN
 62
     7
100
AcDbLine
 10
2.7242738987
 20
3.4122215935
 30
0.0
 11
2.7242738987
 21
3.3531664754
 31
0.0
  0
LINE
  5
109
330
1F
100
AcDbEntity
  8
0
  6
HIDDEN
 62
     7
100
AcDbLine
 10
4.0766361034
 20
3.8867885226
 30
0.0
 11
4.0666361034
 21
3.8767885226
 31
0.0
  0
LINE
  5
10A
330
1F
100
AcDbEntity
  8
0
  6
HIDDEN
 62
     7
100
AcDbLine
 10
2.5766361034
 20
3.6305680502
 30
0.0
 11
2.5866361034
 21
3.6405680502
 31
0.0
  0
LINE
  5
10B
330
1F
100
AcDbEntity
  8
0
  6
HIDDEN
 62
     7
100
AcDbLine
 10
2.5866361034
 20
3.8767885226
 30
0.0
 11
2.5766361034
 21
3.8867885226
 31
0.0
  0
LINE
  5
10C
330
1F
100
AcDbEntity
  8
0
  6
HIDDEN
 62
     7
100
AcDbLine
 10
3.6632502766
 20
3.8767885226
 30
0.0
 11
2.9900219302
 21
3.8767885226
 31
0.0
  0
LINE
  5
10D
330
1F
100
AcDbEntity
  8
0
  6
HIDDEN
 62
     7
100
AcDbLine
 10
2.9900219302
 20
3.6405680502
 30
0.0
 11
3.6632502766
 21
3.6405680502
 31
0.0
  0
LINE
  5
10E
330
1F
100
AcDbEntity
  8
0
  6
HIDDEN
 62
     7
100
AcDbLine
 10
2.9703368908
 20
3.8767885226
 30
0.0
 11
2.5866361034
 21
3.8767885226
 31
0.0
  0
LINE
  5
10F
330
1F
100
AcDbEntity
  8
0
  6
HIDDEN
 62
     7
100
AcDbLine
 10
2.5866361034
 20
3.6405680502
 30
0.0
 11
2.9703368908
 21
3.6405680502
 31
0.0
  0
LINE
  5
110
330
1F
100
AcDbEntity
  8
0
  6
HIDDEN
 62
     7
100
AcDbLine
 10
4.0666361034
 20
3.8767885226
 30
0.0
 11
3.682935316
 21
3.8767885226
 31
0.0
  0
LINE
  5
111
330
1F
100
AcDbEntity
  8
0
  6
HIDDEN
 62
     7
100
AcDbLine
 10
2.901439253
 20
3.3103891745
 30
0.0
 11
2.901439253
 21
3.4712767116
 31
0.0
  0
LINE
  5
112
330
1F
100
AcDbEntity
  8
0
  6
HIDDEN
 62
     7
100
AcDbLine
 10
2.6455337412
 20
3.4712767116
 30
0.0
 11
2.6455337412
 21
3.3103630545
 31
0.0
  0
LINE
  5
113
330
1F
100
AcDbEntity
  8
0
  6
HIDDEN
 62
     7
100
AcDbLine
 10
2.8404156309
 20
3.4712767116
 30
0.0
 11
2.8404156309
 21
3.7488357667
 31
0.0
  0
LINE
  5
114
330
1F
100
AcDbEntity
  8
0
  6
HIDDEN
 62
     7
100
AcDbLine
 10
2.7065573632
 20
3.7488357667
 30
0.0
 11
2.7065573632
 21
3.4712767116
 31
0.0
  0
LINE
  5
115
330
1F
100
AcDbEntity
  8
0
  6
HIDDEN
 62
     7
100
AcDbLine
 10
2.8404156309
 20
3.7685208061
 30
0.0
 11
2.8404156309
 21
4.2070963288
 31
0.0
  0
LINE
  5
116
330
1F
100
AcDbEntity
  8
0
  6
HIDDEN
 62
     7
100
AcDbLine
 10
2.7065573632
 20
4.2071159045
 30
0.0
 11
2.7065573632
 21
3.7685208061
 31
0.0
  0
LINE
  5
117
330
1F
100
AcDbEntity
  8
0
  6
HIDDEN
 62
     7
100
AcDbLine
 10
2.6652187805
 20
3.4634026958
 30
0.0
 11
2.6652187805
 21
3.3610404911
 31
0.0
  0
LINE
  5
118
330
1F
100
AcDbEntity
  8
0
  6
HIDDEN
 62
     7
100
AcDbLine
 10
2.8817542136
 20
3.3610404911
 30
0.0
 11
2.8817542136
 21
3.4634026958
 31
0.0
  0
LINE
  5
119
330
1F
100
AcDbEntity
  8
0
  6
HIDDEN
 62
     7
100
AcDbLine
 10
2.8817542136
 20
3.4634026958
 30
0.0
 11
2.8738801979
 21
3.4712767116
 31
0.0
  0
LINE
  5
11A
330
1F
100
AcDbEntity
  8
0
  6
HIDDEN
 62
     7
100
AcDbLine
 10
2.6730927963
 20
3.4712767116
 30
0.0
 11
2.6652187805
 21
3.4634026958
 31
0.0
  0
LINE
  5
11B
330
1F
100
AcDbEntity
  8
0
  6
HIDDEN
 62
     7
100
AcDbLine
 10
2.6652187805
 20
3.3610404911
 30
0.0
 11
2.6730927963
 21
3.3531664754
 31
0.0
  0
LINE
  5
11C
330
1F
100
AcDbEntity
  8
0
  6
HIDDEN
 62
     7
100
AcDbLine
 10
2.8738801979
 20
3.3531664754
 30
0.0
 11
2.8817542136
 21
3.3610404911
 31
0.0
  0
LINE
  5
11D
330
1F
100
AcDbEntity
  8
0
  6
HIDDEN
 62
     7
100
AcDbLine
 10
2.8325416152
 20
3.4712767116
 30
0.0
 11
2.8325416152
 21
4.1917491525
 31
0.0
  0
LINE
  5
11E
330
1F
100
AcDbEntity
  8
0
  6
HIDDEN
 62
     7
100
AcDbLine
 10
2.714431379
 20
4.1917491525
 30
0.0
 11
2.714431379
 21
3.4712767116
 31
0.0
  0
LINE
  5
11F
330
1F
100
AcDbEntity
  8
0
  6
HIDDEN
 62
     7
100
AcDbLine
 10
2.8325416152
 20
4.1917491525
 30
0.0
 11
2.8246675994
 21
4.1996231683
 31
0.0
  0
LINE
  5
120
330
1F
100
AcDbEntity
  8
0
  6
HIDDEN
 62
     7
100
AcDbLine
 10
2.7223053947
 20
4.1996231683
 30
0.0
 11
2.714431379
 21
4.1917491525
 31
0.0
  0
LINE
  5
121
330
1F
100
AcDbEntity
  8
0
  6
CONTINUOUS
 62
     7
100
AcDbLine
 10
7.853246811
 20
3.3101078198
 30
0.0
 11
7.9106719223
 21
3.3101078198
 31
0.0
  0
LINE
  5
122
330
1F
100
AcDbEntity
  8
0
  6
CONTINUOUS
 62
     7
100
AcDbLine
 10
7.8453727953
 20
3.3179818355
 30
0.0
 11
7.853246811
 21
3.3101078198
 31
0.0
  0
LINE
  5
123
330
1F
100
AcDbEntity
  8
0
  6
CONTINUOUS
 62
     7
100
AcDbLine
 10
8.6839554725
 20
3.3593204182
 30
0.0
 11
8.6918294882
 21
3.3671944339
 31
0.0
  0
LINE
  5
124
330
1F
100
AcDbEntity
  8
0
  6
CONTINUOUS
 62
     7
100
AcDbLine
 10
8.2410420866
 20
3.3593204182
 30
0.0
 11
8.260727126
 21
3.3593204182
 31
0.0
  0
LINE
  5
125
330
1F
100
AcDbEntity
  8
0
  6
CONTINUOUS
 62
     7
100
AcDbLine
 10
8.6477138228
 20
3.3593204182
 30
0.0
 11
8.6839554725
 21
3.3593204182
 31
0.0
  0
LINE
  5
126
330
1F
100
AcDbEntity
  8
0
  6
CONTINUOUS
 62
     7
100
AcDbLine
 10
8.260727126
 20
3.4774306544
 30
0.0
 11
8.2410420866
 21
3.4774306544
 31
0.0
  0
LINE
  5
127
330
1F
100
AcDbEntity
  8
0
  6
CONTINUOUS
 62
     7
100
AcDbLine
 10
8.6994550729
 20
3.3610404911
 30
0.0
 11
8.6994550729
 21
3.4184656023
 31
0.0
  0
LINE
  5
128
330
1F
100
AcDbEntity
  8
0
  6
CONTINUOUS
 62
     7
100
AcDbLine
 10
8.6915810572
 20
3.3531664754
 30
0.0
 11
8.6994550729
 21
3.3610404911
 31
0.0
  0
LINE
  5
129
330
1F
100
AcDbEntity
  8
0
  6
CONTINUOUS
 62
     7
100
AcDbLine
 10
8.6502424745
 20
4.1555075028
 30
0.0
 11
8.6502424745
 21
4.1917491525
 31
0.0
  0
LINE
  5
12A
330
1F
100
AcDbEntity
  8
0
  6
CONTINUOUS
 62
     7
100
AcDbLine
 10
8.6502424745
 20
4.1917491525
 30
0.0
 11
8.6423684588
 21
4.1996231683
 31
0.0
  0
ARC
  5
12B
330
1F
100
AcDbEntity
  8
0
  6
CONTINUOUS
 62
     7
100
AcDbCircle
 10
8.2508846063
 20
3.7586782864
 30
0.0
 40
0.1281102362204747
100
AcDbArc
 50
274.4062919208
 51
265.5937080793
  0
LINE
  5
12C
330
1F
100
AcDbEntity
  8
0
  6
CONTINUOUS
 62
     7
100
AcDbLine
 10
8.2410420866
 20
3.2057737592
 30
0.0
 11
8.2410420866
 21
3.6309467029
 31
0.0
  0
ARC
  5
12D
330
1F
100
AcDbEntity
  8
0
  6
CONTINUOUS
 62
     7
100
AcDbCircle
 10
8.2508846063
 20
3.7586782864
 30
0.0
 40
0.5529921259842531
100
AcDbArc
 50
271.0198420385
 51
268.9801579615
  0
LINE
  5
12E
330
1F
100
AcDbEntity
  8
0
  6
CONTINUOUS
 62
     7
100
AcDbLine
 10
8.260727126
 20
3.2057737592
 30
0.0
 11
8.260727126
 21
3.6309467029
 31
0.0
  0
LINE
  5
12F
330
1F
100
AcDbEntity
  8
0
  6
CONTINUOUS
 62
     7
100
AcDbLine
 10
8.2410420866
 20
3.195772203
 30
0.0
 11
8.2410420866
 21
3.2057737592
 31
0.0
  0
ARC
  5
130
330
1F
100
AcDbEntity
  8
0
  6
CONTINUOUS
 62
     7
100
AcDbCircle
 10
8.2508846063
 20
3.7586782864
 30
0.0
 40
0.5629921259842521
100
AcDbArc
 50
271.0017254991
 51
268.9982745009
  0
LINE
  5
131
330
1F
100
AcDbEntity
  8
0
  6
CONTINUOUS
 62
     7
100
AcDbLine
 10
8.260727126
 20
3.195772203
 30
0.0
 11
8.260727126
 21
3.2057737592
 31
0.0
  0
ARC
  5
132
330
1F
100
AcDbEntity
  8
0
  6
CONTINUOUS
 62
     7
100
AcDbCircle
 10
8.2508846063
 20
3.7586782864
 30
0.0
 40
0.1181102362204727
100
AcDbArc
 50
274.7801918472
 51
265.2198081528
  0
LINE
  5
133
330
1F
100
AcDbEntity
  8
0
  6
CONTINUOUS
 62
     7
100
AcDbLine
 10
8.2410420866
 20
3.6309467029
 30
0.0
 11
8.2410420866
 21
3.6409788696
 31
0.0
  0
LINE
  5
134
330
1F
100
AcDbEntity
  8
0
  6
CONTINUOUS
 62
     7
100
AcDbLine
 10
8.260727126
 20
3.6309467029
 30
0.0
 11
8.260727126
 21
3.6409788696
 31
0.0
  0
POLYLINE
  5
135
330
1F
100
AcDbEntity
  8
0
  6
CONTINUOUS
 62
     7
100
AcDb2dPolyline
 66
     1
 10
0.0
 20
0.0
 30
0.0
  0
VERTEX
  5
210
330
135
100
AcDbEntity
  8
0
  6
CONTINUOUS
 62
     7
100
AcDbVertex
100
AcDb2dVertex
 10
8.2410420866
 20
3.6409788696
 30
0.0
  0
VERTEX
  5
211
330
135
100
AcDbEntity
  8
0
  6
CONTINUOUS
 62
     7
100
AcDbVertex
100
AcDb2dVertex
 10
8.2542573682
 20
3.6406162164
 30
0.0
  0
VERTEX
  5
212
330
135
100
AcDbEntity
  8
0
  6
CONTINUOUS
 62
     7
100
AcDbVertex
100
AcDb2dVertex
 10
8.260727126
 20
3.6409788696
 30
0.0
  0
SEQEND
  5
213
330
135
100
AcDbEntity
  8
0
  6
CONTINUOUS
 62
     7
  0
POLYLINE
  5
136
330
1F
100
AcDbEntity
  8
0
  6
CONTINUOUS
 62
     7
100
AcDb2dPolyline
 66
     1
 10
0.0
 20
0.0
 30
0.0
  0
VERTEX
  5
214
330
136
100
AcDbEntity
  8
0
  6
CONTINUOUS
 62
     7
100
AcDbVertex
100
AcDb2dVertex
 10
8.260727126
 20
3.195772203
 30
0.0
  0
VERTEX
  5
215
330
136
100
AcDbEntity
  8
0
  6
CONTINUOUS
 62
     7
100
AcDbVertex
100
AcDb2dVertex
 10
8.2508846063
 20
3.1956861604
 30
0.0
  0
VERTEX
  5
216
330
136
100
AcDbEntity
  8
0
  6
CONTINUOUS
 62
     7
100
AcDbVertex
100
AcDb2dVertex
 10
8.2410420866
 20
3.195772203
 30
0.0
  0
SEQEND
  5
217
330
136
100
AcDbEntity
  8
0
  6
CONTINUOUS
 62
     7
  0
LINE
  5
137
330
1F
100
AcDbEntity
  8
0
  6
CONTINUOUS
 62
     7
100
AcDbLine
 10
7.853246811
 20
3.3601255073
 30
0.0
 11
7.853246811
 21
3.3101078198
 31
0.0
  0
LINE
  5
138
330
1F
100
AcDbEntity
  8
0
  6
CONTINUOUS
 62
     7
100
AcDbLine
 10
7.8453727953
 20
3.3179818355
 30
0.0
 11
7.8453727953
 21
3.3681398055
 31
0.0
  0
LINE
  5
139
330
1F
100
AcDbEntity
  8
0
  6
CONTINUOUS
 62
     7
100
AcDbLine
 10
8.6918294882
 20
3.4086386528
 30
0.0
 11
8.6918294882
 21
3.3671944339
 31
0.0
  0
LINE
  5
13A
330
1F
100
AcDbEntity
  8
0
  6
CONTINUOUS
 62
     7
100
AcDbLine
 10
8.6839554725
 20
3.3593204182
 30
0.0
 11
8.6839554725
 21
3.3989426073
 31
0.0
  0
LINE
  5
13B
330
1F
100
AcDbEntity
  8
0
  6
CONTINUOUS
 62
     7
100
AcDbLine
 10
8.6994550729
 20
3.3610404911
 30
0.0
 11
8.6856755454
 21
3.3610404911
 31
0.0
  0
LINE
  5
13C
330
1F
100
AcDbEntity
  8
0
  6
CONTINUOUS
 62
     7
100
AcDbLine
 10
8.6414230872
 20
3.3531664754
 30
0.0
 11
8.6915810572
 21
3.3531664754
 31
0.0
  0
LINE
  5
13D
330
1F
100
AcDbEntity
  8
0
  6
CONTINUOUS
 62
     7
100
AcDbLine
 10
8.6106202854
 20
4.1917491525
 30
0.0
 11
8.6502424745
 21
4.1917491525
 31
0.0
  0
LINE
  5
13E
330
1F
100
AcDbEntity
  8
0
  6
CONTINUOUS
 62
     7
100
AcDbLine
 10
8.6423684588
 20
4.1996231683
 30
0.0
 11
8.6009242399
 21
4.1996231683
 31
0.0
  0
LINE
  5
13F
330
1F
100
AcDbEntity
  8
0
  6
HIDDEN
 62
     7
100
AcDbLine
 10
7.9634830315
 20
3.4183755363
 30
0.0
 11
7.9634830315
 21
3.5463282922
 31
0.0
  0
LINE
  5
140
330
1F
100
AcDbEntity
  8
0
  6
HIDDEN
 62
     7
100
AcDbLine
 10
7.9634830315
 20
3.2904227804
 30
0.0
 11
7.9634830315
 21
3.4183755363
 31
0.0
  0
LINE
  5
141
330
1F
100
AcDbEntity
  8
0
  6
HIDDEN
 62
     7
100
AcDbLine
 10
7.7336997651
 20
3.9811192313
 30
0.0
 11
8.7680694475
 21
3.9811192313
 31
0.0
  0
ARC
  5
142
330
1F
100
AcDbEntity
  8
0
  6
HIDDEN
 62
     7
100
AcDbCircle
 10
8.2508846063
 20
3.7586782864
 30
0.0
 40
0.1181102362204725
100
AcDbArc
 50
180.0
 51
265.2198081528
  0
ARC
  5
143
330
1F
100
AcDbEntity
  8
0
  6
HIDDEN
 62
     7
100
AcDbCircle
 10
8.2508846063
 20
3.7586782864
 30
0.0
 40
0.1181102362204725
100
AcDbArc
 50
274.7801918472
 51
180.0
  0
LINE
  5
144
330
1F
100
AcDbEntity
  8
0
  6
HIDDEN
 62
     7
100
AcDbLine
 10
7.9103334252
 20
4.2069918228
 30
0.0
 11
7.9103334252
 21
3.3103647499
 31
0.0
  0
LINE
  5
145
330
1F
100
AcDbEntity
  8
0
  6
HIDDEN
 62
     7
100
AcDbLine
 10
8.3685840231
 20
3.7685208061
 30
0.0
 11
8.8137906897
 21
3.7685208061
 31
0.0
  0
LINE
  5
146
330
1F
100
AcDbEntity
  8
0
  6
HIDDEN
 62
     7
100
AcDbLine
 10
8.3685840231
 20
3.7488357667
 30
0.0
 11
8.8137906897
 21
3.7488357667
 31
0.0
  0
LINE
  5
147
330
1F
100
AcDbEntity
  8
0
  6
HIDDEN
 62
     7
100
AcDbLine
 10
8.7191401123
 20
3.4712767116
 30
0.0
 11
8.4632346005
 21
3.4712767116
 31
0.0
  0
ARC
  5
148
330
1F
100
AcDbEntity
  8
0
  6
HIDDEN
 62
     7
100
AcDbCircle
 10
8.2508846063
 20
3.7586782864
 30
0.0
 40
0.128110236220475
100
AcDbArc
 50
265.5937080792
 51
274.4062919207
  0
POLYLINE
  5
149
330
1F
100
AcDbEntity
  8
0
  6
HIDDEN
 62
     7
100
AcDb2dPolyline
 66
     1
 10
0.0
 20
0.0
 30
0.0
  0
VERTEX
  5
218
330
149
100
AcDbEntity
  8
0
  6
HIDDEN
 62
     7
100
AcDbVertex
100
AcDb2dVertex
 10
8.260727126
 20
3.2057737592
 30
0.0
  0
VERTEX
  5
219
330
149
100
AcDbEntity
  8
0
  6
HIDDEN
 62
     7
100
AcDbVertex
100
AcDb2dVertex
 10
8.2459631516
 20
3.2057080605
 30
0.0
  0
VERTEX
  5
21A
330
149
100
AcDbEntity
  8
0
  6
HIDDEN
 62
     7
100
AcDbVertex
100
AcDb2dVertex
 10
8.2410420866
 20
3.2057737592
 30
0.0
  0
SEQEND
  5
21B
330
149
100
AcDbEntity
  8
0
  6
HIDDEN
 62
     7
  0
LINE
  5
14A
330
1F
100
AcDbEntity
  8
0
  6
HIDDEN
 62
     7
100
AcDbLine
 10
7.9556090158
 20
3.4183755363
 30
0.0
 11
7.9556090158
 21
3.5266432528
 31
0.0
  0
LINE
  5
14B
330
1F
100
AcDbEntity
  8
0
  6
HIDDEN
 62
     7
100
AcDbLine
 10
7.9556090158
 20
3.3101078198
 30
0.0
 11
7.9556090158
 21
3.4183755363
 31
0.0
  0
LINE
  5
14C
330
1F
100
AcDbEntity
  8
0
  6
HIDDEN
 62
     7
100
AcDbLine
 10
7.853246811
 20
3.4183755363
 30
0.0
 11
7.853246811
 21
3.3601255073
 31
0.0
  0
LINE
  5
14D
330
1F
100
AcDbEntity
  8
0
  6
HIDDEN
 62
     7
100
AcDbLine
 10
7.853246811
 20
3.5266432528
 30
0.0
 11
7.853246811
 21
3.4183755363
 31
0.0
  0
LINE
  5
14E
330
1F
100
AcDbEntity
  8
0
  6
HIDDEN
 62
     7
100
AcDbLine
 10
7.8453727953
 20
3.4183755363
 30
0.0
 11
7.8453727953
 21
3.5187692371
 31
0.0
  0
LINE
  5
14F
330
1F
100
AcDbEntity
  8
0
  6
HIDDEN
 62
     7
100
AcDbLine
 10
7.8453727953
 20
3.3681398055
 30
0.0
 11
7.8453727953
 21
3.4183755363
 31
0.0
  0
LINE
  5
150
330
1F
100
AcDbEntity
  8
0
  6
HIDDEN
 62
     7
100
AcDbLine
 10
8.6918294882
 20
3.4695566387
 30
0.0
 11
8.6918294882
 21
3.4086386528
 31
0.0
  0
LINE
  5
151
330
1F
100
AcDbEntity
  8
0
  6
HIDDEN
 62
     7
100
AcDbLine
 10
8.6839554725
 20
3.3989426073
 30
0.0
 11
8.6839554725
 21
3.4774306544
 31
0.0
  0
LINE
  5
152
330
1F
100
AcDbEntity
  8
0
  6
HIDDEN
 62
     7
100
AcDbLine
 10
7.9044279134
 20
3.3899626294
 30
0.0
 11
7.9044279134
 21
3.4467884433
 31
0.0
  0
LINE
  5
153
330
1F
100
AcDbEntity
  8
0
  6
HIDDEN
 62
     7
100
AcDbLine
 10
7.9044279134
 20
3.3615497224
 30
0.0
 11
7.9044279134
 21
3.3899626294
 31
0.0
  0
LINE
  5
154
330
1F
100
AcDbEntity
  8
0
  6
HIDDEN
 62
     7
100
AcDbLine
 10
7.9044279134
 20
3.3899626294
 30
0.0
 11
7.8453727953
 21
3.3899626294
 31
0.0
  0
LINE
  5
155
330
1F
100
AcDbEntity
  8
0
  6
HIDDEN
 62
     7
100
AcDbLine
 10
7.9044279134
 20
3.4467884433
 30
0.0
 11
7.9044279134
 21
3.4752013502
 31
0.0
  0
LINE
  5
156
330
1F
100
AcDbEntity
  8
0
  6
HIDDEN
 62
     7
100
AcDbLine
 10
7.9044279134
 20
3.4467884433
 30
0.0
 11
7.8453727953
 21
3.4467884433
 31
0.0
  0
LINE
  5
157
330
1F
100
AcDbEntity
  8
0
  6
HIDDEN
 62
     7
100
AcDbLine
 10
7.9044279134
 20
3.3615497224
 30
0.0
 11
7.8453727953
 21
3.3615497224
 31
0.0
  0
LINE
  5
158
330
1F
100
AcDbEntity
  8
0
  6
HIDDEN
 62
     7
100
AcDbLine
 10
7.9044279134
 20
3.4752013502
 30
0.0
 11
7.8453727953
 21
3.4752013502
 31
0.0
  0
LINE
  5
159
330
1F
100
AcDbEntity
  8
0
  6
HIDDEN
 62
     7
100
AcDbLine
 10
8.6856755454
 20
3.3610404911
 30
0.0
 11
8.4829196399
 21
3.3610404911
 31
0.0
  0
LINE
  5
15A
330
1F
100
AcDbEntity
  8
0
  6
HIDDEN
 62
     7
100
AcDbLine
 10
8.4829196399
 20
3.4634026958
 30
0.0
 11
8.6994550729
 21
3.4634026958
 31
0.0
  0
LINE
  5
15B
330
1F
100
AcDbEntity
  8
0
  6
HIDDEN
 62
     7
100
AcDbLine
 10
8.4907936556
 20
3.3531664754
 30
0.0
 11
8.6414230872
 21
3.3531664754
 31
0.0
  0
LINE
  5
15C
330
1F
100
AcDbEntity
  8
0
  6
HIDDEN
 62
     7
100
AcDbLine
 10
8.5911873564
 20
4.1917491525
 30
0.0
 11
8.6106202854
 21
4.1917491525
 31
0.0
  0
LINE
  5
15D
330
1F
100
AcDbEntity
  8
0
  6
HIDDEN
 62
     7
100
AcDbLine
 10
8.5321322383
 20
4.1917491525
 30
0.0
 11
8.5911873564
 21
4.1917491525
 31
0.0
  0
LINE
  5
15E
330
1F
100
AcDbEntity
  8
0
  6
HIDDEN
 62
     7
100
AcDbLine
 10
8.5911873564
 20
4.1996231683
 30
0.0
 11
8.540006254
 21
4.1996231683
 31
0.0
  0
LINE
  5
15F
330
1F
100
AcDbEntity
  8
0
  6
HIDDEN
 62
     7
100
AcDbLine
 10
8.6009242399
 20
4.1996231683
 30
0.0
 11
8.5911873564
 21
4.1996231683
 31
0.0
  0
LINE
  5
160
330
1F
100
AcDbEntity
  8
0
  6
HIDDEN
 62
     7
100
AcDbLine
 10
8.6196002634
 20
3.4122215935
 30
0.0
 11
8.6480131703
 21
3.4122215935
 31
0.0
  0
LINE
  5
161
330
1F
100
AcDbEntity
  8
0
  6
HIDDEN
 62
     7
100
AcDbLine
 10
8.5627744495
 20
3.4122215935
 30
0.0
 11
8.6196002634
 21
3.4122215935
 31
0.0
  0
LINE
  5
162
330
1F
100
AcDbEntity
  8
0
  6
HIDDEN
 62
     7
100
AcDbLine
 10
8.6196002634
 20
3.4122215935
 30
0.0
 11
8.6196002634
 21
3.3531664754
 31
0.0
  0
LINE
  5
163
330
1F
100
AcDbEntity
  8
0
  6
HIDDEN
 62
     7
100
AcDbLine
 10
8.5627744495
 20
3.4122215935
 30
0.0
 11
8.5627744495
 21
3.3531664754
 31
0.0
  0
LINE
  5
164
330
1F
100
AcDbEntity
  8
0
  6
HIDDEN
 62
     7
100
AcDbLine
 10
8.5343615425
 20
3.4122215935
 30
0.0
 11
8.5627744495
 21
3.4122215935
 31
0.0
  0
LINE
  5
165
330
1F
100
AcDbEntity
  8
0
  6
HIDDEN
 62
     7
100
AcDbLine
 10
8.6480131703
 20
3.4122215935
 30
0.0
 11
8.6480131703
 21
3.3531664754
 31
0.0
  0
LINE
  5
166
330
1F
100
AcDbEntity
  8
0
  6
HIDDEN
 62
     7
100
AcDbLine
 10
8.5343615425
 20
3.4122215935
 30
0.0
 11
8.5343615425
 21
3.3531664754
 31
0.0
  0
LINE
  5
167
330
1F
100
AcDbEntity
  8
0
  6
HIDDEN
 62
     7
100
AcDbLine
 10
7.938081383
 20
3.2904227804
 30
0.0
 11
7.9634830315
 21
3.2904227804
 31
0.0
  0
LINE
  5
168
330
1F
100
AcDbEntity
  8
0
  6
HIDDEN
 62
     7
100
AcDbLine
 10
7.9634830315
 20
3.5463282922
 30
0.0
 11
7.7296139841
 21
3.5463282922
 31
0.0
  0
LINE
  5
169
330
1F
100
AcDbEntity
  8
0
  6
HIDDEN
 62
     7
100
AcDbLine
 10
8.260727126
 20
3.3514464025
 30
0.0
 11
8.6397387954
 21
3.3514464025
 31
0.0
  0
LINE
  5
16A
330
1F
100
AcDbEntity
  8
0
  6
HIDDEN
 62
     7
100
AcDbLine
 10
8.7429565666
 20
3.4853046702
 30
0.0
 11
8.260727126
 21
3.4853046702
 31
0.0
  0
LINE
  5
16B
330
1F
100
AcDbEntity
  8
0
  6
HIDDEN
 62
     7
100
AcDbLine
 10
7.9634830315
 20
3.3514464025
 30
0.0
 11
8.2410420866
 21
3.3514464025
 31
0.0
  0
LINE
  5
16C
330
1F
100
AcDbEntity
  8
0
  6
HIDDEN
 62
     7
100
AcDbLine
 10
8.2410420866
 20
3.4853046702
 30
0.0
 11
7.9634830315
 21
3.4853046702
 31
0.0
  0
LINE
  5
16D
330
1F
100
AcDbEntity
  8
0
  6
HIDDEN
 62
     7
100
AcDbLine
 10
8.7191401123
 20
3.4461132291
 30
0.0
 11
8.7191401123
 21
3.4712767116
 31
0.0
  0
LINE
  5
16E
330
1F
100
AcDbEntity
  8
0
  6
HIDDEN
 62
     7
100
AcDbLine
 10
8.4632346005
 20
3.4712767116
 30
0.0
 11
8.4632346005
 21
3.2374290664
 31
0.0
  0
LINE
  5
16F
330
1F
100
AcDbEntity
  8
0
  6
HIDDEN
 62
     7
100
AcDbLine
 10
8.6581164903
 20
3.4712767116
 30
0.0
 11
8.6581164903
 21
3.7488357667
 31
0.0
  0
LINE
  5
170
330
1F
100
AcDbEntity
  8
0
  6
HIDDEN
 62
     7
100
AcDbLine
 10
8.5242582225
 20
3.7488357667
 30
0.0
 11
8.5242582225
 21
3.4712767116
 31
0.0
  0
LINE
  5
171
330
1F
100
AcDbEntity
  8
0
  6
HIDDEN
 62
     7
100
AcDbLine
 10
8.6581164903
 20
3.7685208061
 30
0.0
 11
8.6581164903
 21
4.1474228383
 31
0.0
  0
LINE
  5
172
330
1F
100
AcDbEntity
  8
0
  6
HIDDEN
 62
     7
100
AcDbLine
 10
8.5242582225
 20
4.2507390146
 30
0.0
 11
8.5242582225
 21
3.7685208061
 31
0.0
  0
LINE
  5
173
330
1F
100
AcDbEntity
  8
0
  6
HIDDEN
 62
     7
100
AcDbLine
 10
7.9556090158
 20
3.3101078198
 30
0.0
 11
7.9634830315
 21
3.3179818355
 31
0.0
  0
LINE
  5
174
330
1F
100
AcDbEntity
  8
0
  6
HIDDEN
 62
     7
100
AcDbLine
 10
7.9634830315
 20
3.5187692371
 30
0.0
 11
7.9556090158
 21
3.5266432528
 31
0.0
  0
LINE
  5
175
330
1F
100
AcDbEntity
  8
0
  6
HIDDEN
 62
     7
100
AcDbLine
 10
7.9556090158
 20
3.5266432528
 30
0.0
 11
7.853246811
 21
3.5266432528
 31
0.0
  0
LINE
  5
176
330
1F
100
AcDbEntity
  8
0
  6
HIDDEN
 62
     7
100
AcDbLine
 10
7.9106719223
 20
3.3101078198
 30
0.0
 11
7.9556090158
 21
3.3101078198
 31
0.0
  0
LINE
  5
177
330
1F
100
AcDbEntity
  8
0
  6
HIDDEN
 62
     7
100
AcDbLine
 10
7.853246811
 20
3.5266432528
 30
0.0
 11
7.8453727953
 21
3.5187692371
 31
0.0
  0
LINE
  5
178
330
1F
100
AcDbEntity
  8
0
  6
HIDDEN
 62
     7
100
AcDbLine
 10
8.6918294882
 20
3.4695566387
 30
0.0
 11
8.6839554725
 21
3.4774306544
 31
0.0
  0
LINE
  5
179
330
1F
100
AcDbEntity
  8
0
  6
HIDDEN
 62
     7
100
AcDbLine
 10
7.9634830315
 20
3.3593204182
 30
0.0
 11
8.2410420866
 21
3.3593204182
 31
0.0
  0
LINE
  5
17A
330
1F
100
AcDbEntity
  8
0
  6
HIDDEN
 62
     7
100
AcDbLine
 10
8.260727126
 20
3.3593204182
 30
0.0
 11
8.6477138228
 21
3.3593204182
 31
0.0
  0
LINE
  5
17B
330
1F
100
AcDbEntity
  8
0
  6
HIDDEN
 62
     7
100
AcDbLine
 10
8.6839554725
 20
3.4774306544
 30
0.0
 11
8.260727126
 21
3.4774306544
 31
0.0
  0
LINE
  5
17C
330
1F
100
AcDbEntity
  8
0
  6
HIDDEN
 62
     7
100
AcDbLine
 10
8.2410420866
 20
3.4774306544
 30
0.0
 11
7.9634830315
 21
3.4774306544
 31
0.0
  0
LINE
  5
17D
330
1F
100
AcDbEntity
  8
0
  6
HIDDEN
 62
     7
100
AcDbLine
 10
8.4829196399
 20
3.4634026958
 30
0.0
 11
8.4829196399
 21
3.3610404911
 31
0.0
  0
LINE
  5
17E
330
1F
100
AcDbEntity
  8
0
  6
HIDDEN
 62
     7
100
AcDbLine
 10
8.6994550729
 20
3.4184656023
 30
0.0
 11
8.6994550729
 21
3.4634026958
 31
0.0
  0
LINE
  5
17F
330
1F
100
AcDbEntity
  8
0
  6
HIDDEN
 62
     7
100
AcDbLine
 10
8.6994550729
 20
3.4634026958
 30
0.0
 11
8.6915810572
 21
3.4712767116
 31
0.0
  0
LINE
  5
180
330
1F
100
AcDbEntity
  8
0
  6
HIDDEN
 62
     7
100
AcDbLine
 10
8.4907936556
 20
3.4712767116
 30
0.0
 11
8.4829196399
 21
3.4634026958
 31
0.0
  0
LINE
  5
181
330
1F
100
AcDbEntity
  8
0
  6
HIDDEN
 62
     7
100
AcDbLine
 10
8.4829196399
 20
3.3610404911
 30
0.0
 11
8.4907936556
 21
3.3531664754
 31
0.0
  0
LINE
  5
182
330
1F
100
AcDbEntity
  8
0
  6
HIDDEN
 62
     7
100
AcDbLine
 10
8.6502424745
 20
3.4712767116
 30
0.0
 11
8.6502424745
 21
4.1555075028
 31
0.0
  0
LINE
  5
183
330
1F
100
AcDbEntity
  8
0
  6
HIDDEN
 62
     7
100
AcDbLine
 10
8.5321322383
 20
4.1917491525
 30
0.0
 11
8.5321322383
 21
3.4712767116
 31
0.0
  0
LINE
  5
184
330
1F
100
AcDbEntity
  8
0
  6
HIDDEN
 62
     7
100
AcDbLine
 10
8.540006254
 20
4.1996231683
 30
0.0
 11
8.5321322383
 21
4.1917491525
 31
0.0
  0
LINE
  5
185
330
1F
100
AcDbEntity
  8
0
  6
CONTINUOUS
 62
     7
100
AcDbLine
 10
3.682935316
 20
6.1089850129
 30
0.0
 11
4.0666361034
 21
6.1089850129
 31
0.0
  0
LINE
  5
186
330
1F
100
AcDbEntity
  8
0
  6
CONTINUOUS
 62
     7
100
AcDbLine
 10
2.5866361034
 20
6.1089850129
 30
0.0
 11
3.6632502766
 21
6.1089850129
 31
0.0
  0
LINE
  5
187
330
1F
100
AcDbEntity
  8
0
  6
CONTINUOUS
 62
     7
100
AcDbLine
 10
3.6632502766
 20
7.2349692649
 30
0.0
 11
2.9900219302
 21
7.2349692649
 31
0.0
  0
LINE
  5
188
330
1F
100
AcDbEntity
  8
0
  6
CONTINUOUS
 62
     7
100
AcDbLine
 10
4.0666361034
 20
7.2349692649
 30
0.0
 11
3.682935316
 21
7.2349692649
 31
0.0
  0
LINE
  5
189
330
1F
100
AcDbEntity
  8
0
  6
CONTINUOUS
 62
     7
100
AcDbLine
 10
2.5766361034
 20
6.1189850129
 30
0.0
 11
2.5866361034
 21
6.1089850129
 31
0.0
  0
LINE
  5
18A
330
1F
100
AcDbEntity
  8
0
  6
CONTINUOUS
 62
     7
100
AcDbLine
 10
4.0666361034
 20
6.1089850129
 30
0.0
 11
4.0766361034
 21
6.1189850129
 31
0.0
  0
LINE
  5
18B
330
1F
100
AcDbEntity
  8
0
  6
CONTINUOUS
 62
     7
100
AcDbLine
 10
4.0766361034
 20
7.2249692649
 30
0.0
 11
4.0666361034
 21
7.2349692649
 31
0.0
  0
LINE
  5
18C
330
1F
100
AcDbEntity
  8
0
  6
CONTINUOUS
 62
     7
100
AcDbLine
 10
2.5866361034
 20
7.2348832223
 30
0.0
 11
2.5866361034
 21
6.1089850129
 31
0.0
  0
LINE
  5
18D
330
1F
100
AcDbEntity
  8
0
  6
CONTINUOUS
 62
     7
100
AcDbLine
 10
2.9703368908
 20
7.2348832223
 30
0.0
 11
2.5866361034
 21
7.2348832223
 31
0.0
  0
LINE
  5
18E
330
1F
100
AcDbEntity
  8
0
  6
CONTINUOUS
 62
     7
100
AcDbLine
 10
2.9703368908
 20
6.3314259578
 30
0.0
 11
2.9703368908
 21
7.2348832223
 31
0.0
  0
LINE
  5
18F
330
1F
100
AcDbEntity
  8
0
  6
CONTINUOUS
 62
     7
100
AcDbLine
 10
2.9900219302
 20
6.3314259578
 30
0.0
 11
2.9703368908
 21
6.3314259578
 31
0.0
  0
LINE
  5
190
330
1F
100
AcDbEntity
  8
0
  6
CONTINUOUS
 62
     7
100
AcDbLine
 10
2.9900219302
 20
7.2349692649
 30
0.0
 11
2.9900219302
 21
6.3314259578
 31
0.0
  0
LINE
  5
191
330
1F
100
AcDbEntity
  8
0
  6
CONTINUOUS
 62
     7
100
AcDbLine
 10
3.682935316
 20
6.1547922977
 30
0.0
 11
3.682935316
 21
6.1089850129
 31
0.0
  0
LINE
  5
192
330
1F
100
AcDbEntity
  8
0
  6
CONTINUOUS
 62
     7
100
AcDbLine
 10
3.6632502766
 20
6.1547922977
 30
0.0
 11
3.682935316
 21
6.1547922977
 31
0.0
  0
LINE
  5
193
330
1F
100
AcDbEntity
  8
0
  6
CONTINUOUS
 62
     7
100
AcDbLine
 10
3.6632502766
 20
7.1891619801
 30
0.0
 11
3.6632502766
 21
7.2349692649
 31
0.0
  0
LINE
  5
194
330
1F
100
AcDbEntity
  8
0
  6
CONTINUOUS
 62
     7
100
AcDbLine
 10
3.6632502766
 20
6.1089850129
 30
0.0
 11
3.6632502766
 21
6.1547922977
 31
0.0
  0
LINE
  5
195
330
1F
100
AcDbEntity
  8
0
  6
CONTINUOUS
 62
     7
100
AcDbLine
 10
3.682935316
 20
7.1891619801
 30
0.0
 11
3.6632502766
 21
7.1891619801
 31
0.0
  0
LINE
  5
196
330
1F
100
AcDbEntity
  8
0
  6
CONTINUOUS
 62
     7
100
AcDbLine
 10
3.682935316
 20
7.2349692649
 30
0.0
 11
3.682935316
 21
7.1891619801
 31
0.0
  0
LINE
  5
197
330
1F
100
AcDbEntity
  8
0
  6
CONTINUOUS
 62
     7
100
AcDbLine
 10
4.0666361034
 20
6.1089850129
 30
0.0
 11
4.0666361034
 21
7.2349692649
 31
0.0
  0
SPLINE
  5
198
330
1F
100
AcDbEntity
  8
0
  6
CONTINUOUS
 62
     7
100
AcDbSpline
210
0.0
220
0.0
230
1.0
 70
     8
 71
     3
 72
    52
 73
    48
 74
     0
 42
0.00000001
 43
0.00000001
 40
-0.0624999999999996
 40
-0.0624999999999996
 40
0.0
 40
0.0
 40
0.03125
 40
0.03125
 40
0.0625
 40
0.0625
 40
0.0937500000000001
 40
0.0937500000000001
 40
0.1250000000000001
 40
0.1250000000000001
 40
0.1875000000000001
 40
0.1875000000000001
 40
0.2187500000000002
 40
0.2187500000000002
 40
0.2500000000000004
 40
0.2500000000000004
 40
0.3125000000000008
 40
0.3125000000000008
 40
0.3750000000000012
 40
0.3750000000000012
 40
0.4062500000000012
 40
0.4062500000000012
 40
0.4375000000000012
 40
0.4375000000000012
 40
0.5000000000000014
 40
0.5000000000000014
 40
0.5625000000000017
 40
0.5625000000000017
 40
0.5937500000000019
 40
0.5937500000000019
 40
0.625000000000002
 40
0.625000000000002
 40
0.6875000000000018
 40
0.6875000000000018
 40
0.7500000000000016
 40
0.7500000000000016
 40
0.8125000000000012
 40
0.8125000000000012
 40
0.843750000000001
 40
0.843750000000001
 40
0.8750000000000008
 40
0.8750000000000008
 40
0.9062500000000006
 40
0.9062500000000006
 40
0.9375000000000004
 40
0.9375000000000004
 40
1.0
 40
1.0
 40
1.03125
 40
1.03125
 10
2.763392515005122
 20
7.079209022855117
 30
0.0
 10
2.778533488125449
 20
7.079209022855117
 30
0.0
 10
2.783423505053888
 20
7.078646126182438
 30
0.0
 10
2.792925211590566
 20
7.076508838419404
 30
0.0
 10
2.797451679951406
 20
7.074939322634376
 30
0.0
 10
2.805773353562478
 20
7.071085445812547
 30
0.0
 10
2.809635482153034
 20
7.068770298096878
 30
0.0
 10
2.816552258944046
 20
7.063692490538127
 30
0.0
 10
2.819658902633868
 20
7.060906686414665
 30
0.0
 10
2.828075936458
 20
7.051868928855479
 30
0.0
 10
2.832291290110969
 20
7.045177795714669
 30
0.0
 10
2.836781291435669
 20
7.034381239967245
 30
0.0
 10
2.837969869119624
 20
7.03062439423296
 30
0.0
 10
2.839660292121441
 20
7.023034190080124
 30
0.0
 10
2.840174788656998
 20
7.019177598369485
 30
0.0
 10
2.840698510998145
 20
7.007417295236883
 30
0.0
 10
2.839658117066948
 20
6.999263667091034
 30
0.0
 10
2.834489208096179
 20
6.983526201006961
 30
0.0
 10
2.830281659095116
 20
6.975750556273272
 30
0.0
 10
2.821557445144292
 20
6.965494888022032
 30
0.0
 10
2.818186209702818
 20
6.96224849148018
 30
0.0
 10
2.810825035571508
 20
6.956539072809131
 30
0.0
 10
2.80681969325638
 20
6.954040501592647
 30
0.0
 10
2.793732225742867
 20
6.947756277482557
 30
0.0
 10
2.783807158958171
 20
6.945401756786427
 30
0.0
 10
2.763838267683008
 20
6.945301442472253
 30
0.0
 10
2.753887254405792
 20
6.947556207377088
 30
0.0
 10
2.740731050376906
 20
6.953713399011523
 30
0.0
 10
2.736583636901804
 20
6.956247660496189
 30
0.0
 10
2.729141548752479
 20
6.96193152976011
 30
0.0
 10
2.72576465202759
 20
6.965134946512483
 30
0.0
 10
2.716890293391259
 20
6.975423095313204
 30
0.0
 10
2.71264713477182
 20
6.983168403901159
 30
0.0
 10
2.707367123758247
 20
6.998970680078782
 30
0.0
 10
2.706292136483593
 20
7.007136145805667
 30
0.0
 10
2.706933641721296
 20
7.022875059292179
 30
0.0
 10
2.708653439214378
 20
7.030626929237994
 30
0.0
 10
2.713101825292255
 20
7.041405615620277
 30
0.0
 10
2.714896016654228
 20
7.044873901655438
 30
0.0
 10
2.719151803371149
 20
7.051560356373421
 30
0.0
 10
2.721634254255286
 20
7.054796192961637
 30
0.0
 10
2.727206594043537
 20
7.060802685327793
 30
0.0
 10
2.730304372519887
 20
7.063596900755775
 30
0.0
 10
2.737252069444854
 20
7.068717445919687
 30
0.0
 10
2.7411080601777
 20
7.071034275478384
 30
0.0
 10
2.753552869849846
 20
7.07682358007349
 30
0.0
 10
2.763392515005122
 20
7.079209022855117
 30
0.0
 10
2.778533488125449
 20
7.079209022855117
 30
0.0
  0
LINE
  5
199
330
1F
100
AcDbEntity
  8
0
  6
CONTINUOUS
 62
     7
100
AcDbLine
 10
2.5766361034
 20
7.2248816661
 30
0.0
 11
2.5866361034
 21
7.2348832223
 31
0.0
  0
LINE
  5
19A
330
1F
100
AcDbEntity
  8
0
  6
CONTINUOUS
 62
     7
100
AcDbLine
 10
2.5766361034
 20
6.1189850129
 30
0.0
 11
2.5766361034
 21
7.2248816661
 31
0.0
  0
LINE
  5
19B
330
1F
100
AcDbEntity
  8
0
  6
CONTINUOUS
 62
     7
100
AcDbLine
 10
4.0766361034
 20
7.2249692649
 30
0.0
 11
4.0766361034
 21
6.1189850129
 31
0.0
  0
LINE
  5
19C
330
1F
100
AcDbEntity
  8
0
  6
CONTINUOUS
 62
     7
100
AcDbLine
 10
2.7734864971
 20
6.9453507551
 30
0.0
 11
2.774674548
 21
6.9453613004
 31
0.0
  0
POLYLINE
  5
19D
330
1F
100
AcDbEntity
  8
0
  6
CONTINUOUS
 62
     7
100
AcDb2dPolyline
 66
     1
 10
0.0
 20
0.0
 30
0.0
  0
VERTEX
  5
21C
330
19D
100
AcDbEntity
  8
0
  6
CONTINUOUS
 62
     7
100
AcDbVertex
100
AcDb2dVertex
 10
2.7832154062
 20
7.0784981439
 30
0.0
  0
VERTEX
  5
21D
330
19D
100
AcDbEntity
  8
0
  6
CONTINUOUS
 62
     7
100
AcDbVertex
100
AcDb2dVertex
 10
2.7734864971
 20
7.0792090229
 30
0.0
  0
VERTEX
  5
21E
330
19D
100
AcDbEntity
  8
0
  6
CONTINUOUS
 62
     7
100
AcDbVertex
100
AcDb2dVertex
 10
2.7645111139
 20
7.0786044806
 30
0.0
  0
SEQEND
  5
21F
330
19D
100
AcDbEntity
  8
0
  6
CONTINUOUS
 62
     7
  0
LINE
  5
19E
330
1F
100
AcDbEntity
  8
0
  6
CONTINUOUS
 62
     7
100
AcDbLine
 10
2.7718448595
 20
6.9453708912
 30
0.0
 11
2.7734864971
 21
6.9453507551
 31
0.0
  0
CIRCLE
  5
19F
330
1F
100
AcDbEntity
  8
0
  6
CONTINUOUS
 62
     7
100
AcDbCircle
 10
2.7734864971
 20
7.012279889
 30
0.0
 40
0.0511811023622046
  0
CIRCLE
  5
1A0
330
1F
100
AcDbEntity
  8
0
  6
CONTINUOUS
 62
     7
100
AcDbCircle
 10
2.7734864971
 20
7.012279889
 30
0.0
 40
0.0590551181102361
  0
SPLINE
  5
1A1
330
1F
100
AcDbEntity
  8
0
  6
HIDDEN
 62
     7
100
AcDbSpline
210
0.0
220
0.0
230
1.0
 70
     8
 71
     3
 72
    72
 73
    68
 74
     0
 42
0.00000001
 43
0.00000001
 40
-0.0312499999999998
 40
-0.0312499999999998
 40
0.0
 40
0.0
 40
0.0625000000000006
 40
0.0625000000000006
 40
0.093750000000001
 40
0.093750000000001
 40
0.1250000000000014
 40
0.1250000000000014
 40
0.1562500000000017
 40
0.1562500000000017
 40
0.1875000000000021
 40
0.1875000000000021
 40
0.2187500000000022
 40
0.2187500000000022
 40
0.2500000000000022
 40
0.2500000000000022
 40
0.2656250000000022
 40
0.2656250000000022
 40
0.2812500000000021
 40
0.2812500000000021
 40
0.296875000000002
 40
0.296875000000002
 40
0.3125000000000019
 40
0.3125000000000019
 40
0.3281250000000018
 40
0.3281250000000018
 40
0.3437500000000018
 40
0.3437500000000018
 40
0.3750000000000017
 40
0.3750000000000017
 40
0.4375000000000018
 40
0.4375000000000018
 40
0.4687500000000018
 40
0.4687500000000018
 40
0.5000000000000017
 40
0.5000000000000017
 40
0.5312500000000017
 40
0.5312500000000017
 40
0.5625000000000016
 40
0.5625000000000016
 40
0.5937500000000016
 40
0.5937500000000016
 40
0.6250000000000016
 40
0.6250000000000016
 40
0.6562500000000014
 40
0.6562500000000014
 40
0.6875000000000014
 40
0.6875000000000014
 40
0.7187500000000014
 40
0.7187500000000014
 40
0.7500000000000013
 40
0.7500000000000013
 40
0.7812500000000013
 40
0.7812500000000013
 40
0.8125000000000013
 40
0.8125000000000013
 40
0.8437500000000013
 40
0.8437500000000013
 40
0.875000000000001
 40
0.875000000000001
 40
0.9062500000000008
 40
0.9062500000000008
 40
0.9375000000000006
 40
0.9375000000000006
 40
0.9687500000000002
 40
0.9687500000000002
 40
1.0
 40
1.0
 40
1.062500000000001
 40
1.062500000000001
 10
4.007738465589277
 20
6.217578377677406
 30
0.0
 10
4.007738465589277
 20
6.23526823262063
 30
0.0
 10
4.004999909110795
 20
6.247580436908195
 30
0.0
 10
3.997509271459311
 20
6.266764283572289
 30
0.0
 10
3.994435312961448
 20
6.273251955309187
 30
0.0
 10
3.987299231253711
 20
6.286100481554522
 30
0.0
 10
3.983223555332025
 20
6.292501440127087
 30
0.0
 10
3.973988592522769
 20
6.30518721996219
 30
0.0
 10
3.968788938977799
 20
6.311517241462944
 30
0.0
 10
3.957306089677497
 20
6.323664675652629
 30
0.0
 10
3.951040251019892
 20
6.329485335329808
 30
0.0
 10
3.937117510274352
 20
6.340309774006812
 30
0.0
 10
3.929442893217705
 20
6.345307580051041
 30
0.0
 10
3.912805385312581
 20
6.353430775112006
 30
0.0
 10
3.903641441433282
 20
6.35660728663786
 30
0.0
 10
3.889390309041649
 20
6.35900430731296
 30
0.0
 10
3.884466508168954
 20
6.359422174131314
 30
0.0
 10
3.874743572693934
 20
6.359401606962001
 30
0.0
 10
3.86993527728636
 20
6.358976737918851
 30
0.0
 10
3.860419163434869
 20
6.357347827765304
 30
0.0
 10
3.855698605481584
 20
6.356131015644202
 30
0.0
 10
3.846719312782184
 20
6.353116290191568
 30
0.0
 10
3.842407055987243
 20
6.351312570061767
 30
0.0
 10
3.834078301928585
 20
6.347225487690425
 30
0.0
 10
3.830046589593162
 20
6.344928798870318
 30
0.0
 10
3.822425203403653
 20
6.340062758039165
 30
0.0
 10
3.818809213053783
 20
6.337482467693902
 30
0.0
 10
3.80844126626884
 20
6.329402417975281
 30
0.0
 10
3.802129679758564
 20
6.323533773981262
 30
0.0
 10
3.784916305789276
 20
6.305285916286636
 30
0.0
 10
3.775853767896729
 20
6.292552058825716
 30
0.0
 10
3.76511695872138
 20
6.273216008689241
 30
0.0
 10
3.76204819273857
 20
6.266726702680268
 30
0.0
 10
3.757092412746981
 20
6.254038414465823
 30
0.0
 10
3.755178664764124
 20
6.247794204924458
 30
0.0
 10
3.752553700667325
 20
6.235521000351478
 30
0.0
 10
3.751841726871479
 20
6.229456717897213
 30
0.0
 10
3.751824342284626
 20
6.217711557338758
 30
0.0
 10
3.752511351840262
 20
6.212099328588017
 30
0.0
 10
3.755419086319349
 20
6.201381569998593
 30
0.0
 10
3.757665985169247
 20
6.196234675849543
 30
0.0
 10
3.76386618271657
 20
6.186644415635462
 30
0.0
 10
3.767770972033067
 20
6.18224673852811
 30
0.0
 10
3.77735276968435
 20
6.174186005036105
 30
0.0
 10
3.783101938198579
 20
6.170504391489605
 30
0.0
 10
3.795994105509308
 20
6.164161635498195
 30
0.0
 10
3.803175734238838
 20
6.161447846972043
 30
0.0
 10
3.819146644151665
 20
6.156850507962034
 30
0.0
 10
3.827753237708702
 20
6.155029409827579
 30
0.0
 10
3.845721981544693
 20
6.152306938243559
 30
0.0
 10
3.855297116630127
 20
6.151383000649218
 30
0.0
 10
3.874493307424019
 20
6.150462595053144
 30
0.0
 10
3.884150349773112
 20
6.150445002930534
 30
0.0
 10
3.903586513560755
 20
6.151325278755226
 30
0.0
 10
3.912972785267751
 20
6.15220663453228
 30
0.0
 10
3.931071064559316
 20
6.154886490995216
 30
0.0
 10
3.93980625766242
 20
6.15670881922926
 30
0.0
 10
3.955720125593476
 20
6.16121987436319
 30
0.0
 10
3.963096099471684
 20
6.163959588948188
 30
0.0
 10
3.976168820533923
 20
6.170323787441048
 30
0.0
 10
3.981831636721465
 20
6.173911848848648
 30
0.0
 10
3.991550945226646
 20
6.18198869608986
 30
0.0
 10
3.995539869279749
 20
6.186443769389883
 30
0.0
 10
4.001765733009251
 20
6.195966100199445
 30
0.0
 10
4.004053606541443
 20
6.201107356413194
 30
0.0
 10
4.007035752805353
 20
6.211923669420766
 30
0.0
 10
4.007738465589277
 20
6.217578377677406
 30
0.0
 10
4.007738465589277
 20
6.23526823262063
 30
0.0
  0
SPLINE
  5
1A2
330
1F
100
AcDbEntity
  8
0
  6
HIDDEN
 62
     7
100
AcDbSpline
210
0.0
220
0.0
230
1.0
 70
     8
 71
     3
 72
    54
 73
    50
 74
     0
 42
0.00000001
 43
0.00000001
 40
-0.0625000000000008
 40
-0.0625000000000008
 40
0.0
 40
0.0
 40
0.0625000000000005
 40
0.0625000000000005
 40
0.0937500000000004
 40
0.0937500000000004
 40
0.1250000000000002
 40
0.1250000000000002
 40
0.15625
 40
0.15625
 40
0.1874999999999998
 40
0.1874999999999998
 40
0.2187499999999996
 40
0.2187499999999996
 40
0.2499999999999994
 40
0.2499999999999994
 40
0.2812499999999992
 40
0.2812499999999992
 40
0.3124999999999989
 40
0.3124999999999989
 40
0.3437499999999988
 40
0.3437499999999988
 40
0.3749999999999986
 40
0.3749999999999986
 40
0.4374999999999981
 40
0.4374999999999981
 40
0.4687499999999977
 40
0.4687499999999977
 40
0.4999999999999972
 40
0.4999999999999972
 40
0.562499999999997
 40
0.562499999999997
 40
0.6249999999999968
 40
0.6249999999999968
 40
0.6874999999999967
 40
0.6874999999999967
 40
0.7187499999999969
 40
0.7187499999999969
 40
0.7499999999999971
 40
0.7499999999999971
 40
0.7812499999999973
 40
0.7812499999999973
 40
0.8124999999999976
 40
0.8124999999999976
 40
0.8749999999999983
 40
0.8749999999999983
 40
0.9374999999999992
 40
0.9374999999999992
 40
1.0
 40
1.0
 40
1.0625
 40
1.0625
 10
3.946714843542033
 20
7.114428263875944
 30
0.0
 10
3.946714843542033
 20
7.126530299806134
 30
0.0
 10
3.945335228378741
 20
7.132218936907179
 30
0.0
 10
3.940863256895629
 20
7.140224035244809
 30
0.0
 10
3.93895531975577
 20
7.142795765141677
 30
0.0
 10
3.934375430135543
 20
7.147556375259601
 30
0.0
 10
3.931692049662024
 20
7.149772872658994
 30
0.0
 10
3.925418653523022
 20
7.153868976492479
 30
0.0
 10
3.921926135871385
 20
7.155682114480803
 30
0.0
 10
3.914258590456575
 20
7.158829778593273
 30
0.0
 10
3.910014004158723
 20
7.160184351238529
 30
0.0
 10
3.901008684673201
 20
7.162318677095376
 30
0.0
 10
3.89632173857918
 20
7.163091408820851
 30
0.0
 10
3.886566835945836
 20
7.16405460594674
 30
0.0
 10
3.881502920855542
 20
7.16423252589022
 30
0.0
 10
3.871595403755357
 20
7.163965994680502
 30
0.0
 10
3.866606729284072
 20
7.163518297205189
 30
0.0
 10
3.857106898585538
 20
7.162033915876266
 30
0.0
 10
3.852589332094104
 20
7.161007593376599
 30
0.0
 10
3.844017201813397
 20
7.158372721197667
 30
0.0
 10
3.840119323777116
 20
7.15681227192994
 30
0.0
 10
3.833018491647916
 20
7.153217237545115
 30
0.0
 10
3.829821433939677
 20
7.15117286311477
 30
0.0
 10
3.821578038163497
 20
7.144567193361574
 30
0.0
 10
3.817710155435247
 20
7.139405340687965
 30
0.0
 10
3.814300686366237
 20
7.131098273757771
 30
0.0
 10
3.813544227873689
 20
7.12819491613853
 30
0.0
 10
3.812778455734857
 20
7.122303645856022
 30
0.0
 10
3.812759909734068
 20
7.119307298110356
 30
0.0
 10
3.8137265319666
 20
7.110166323341634
 30
0.0
 10
3.815746027130495
 20
7.103881146699718
 30
0.0
 10
3.822267938403118
 20
7.091645990476605
 30
0.0
 10
3.826855535923863
 20
7.085539691283572
 30
0.0
 10
3.838579078385707
 20
7.074515875894637
 30
0.0
 10
3.845861921477719
 20
7.06945180502469
 30
0.0
 10
3.85882225508273
 20
7.064051261887289
 30
0.0
 10
3.863485686301451
 20
7.062631469080991
 30
0.0
 10
3.873158462684672
 20
7.060878830311226
 30
0.0
 10
3.878242022125034
 20
7.06054789521288
 30
0.0
 10
3.888155024845516
 20
7.061077864487868
 30
0.0
 10
3.893124855024247
 20
7.061944703966459
 30
0.0
 10
3.90238700297197
 20
7.064615230815974
 30
0.0
 10
3.906795063340714
 20
7.066440595624735
 30
0.0
 10
3.918781004749939
 20
7.07275401276408
 30
0.0
 10
3.92543140461517
 20
7.07817575582134
 30
0.0
 10
3.93593161455951
 20
7.089630818837244
 30
0.0
 10
3.939932912352699
 20
7.095833019090175
 30
0.0
 10
3.945293359378083
 20
7.108168701179507
 30
0.0
 10
3.946714843542033
 20
7.114428263875944
 30
0.0
 10
3.946714843542033
 20
7.126530299806134
 30
0.0
  0
LINE
  5
1A3
330
1F
100
AcDbEntity
  8
0
  6
HIDDEN
 62
     7
100
AcDbLine
 10
3.6632502766
 20
6.1547922977
 30
0.0
 11
3.6632502766
 21
7.1891619801
 31
0.0
  0
LINE
  5
1A4
330
1F
100
AcDbEntity
  8
0
  6
HIDDEN
 62
     7
100
AcDbLine
 10
3.682935316
 20
6.1547922977
 30
0.0
 11
3.682935316
 21
7.1891619801
 31
0.0
  0
LINE
  5
1A5
330
1F
100
AcDbEntity
  8
0
  6
HIDDEN
 62
     7
100
AcDbLine
 10
4.0766361034
 20
6.6621346192
 30
0.0
 11
4.0666361034
 21
6.6621346192
 31
0.0
  0
LINE
  5
1A6
330
1F
100
AcDbEntity
  8
0
  6
HIDDEN
 62
     7
100
AcDbLine
 10
4.0766361034
 20
6.6818196586
 30
0.0
 11
4.0666361034
 21
6.6818196586
 31
0.0
  0
LINE
  5
1A7
330
1F
100
AcDbEntity
  8
0
  6
HIDDEN
 62
     7
100
AcDbLine
 10
2.5866361034
 20
6.7896765557
 30
0.0
 11
2.5766361034
 21
6.7997087224
 31
0.0
  0
LINE
  5
1A8
330
1F
100
AcDbEntity
  8
0
  6
HIDDEN
 62
     7
100
AcDbLine
 10
2.5866361034
 20
6.7896765557
 30
0.0
 11
2.9703368908
 21
6.7896765557
 31
0.0
  0
LINE
  5
1A9
330
1F
100
AcDbEntity
  8
0
  6
HIDDEN
 62
     7
100
AcDbLine
 10
3.682935316
 20
6.6621346192
 30
0.0
 11
4.0666361034
 21
6.6621346192
 31
0.0
  0
LINE
  5
1AA
330
1F
100
AcDbEntity
  8
0
  6
HIDDEN
 62
     7
100
AcDbLine
 10
3.682935316
 20
6.6818196586
 30
0.0
 11
4.0666361034
 21
6.6818196586
 31
0.0
  0
LINE
  5
1AB
330
1F
100
AcDbEntity
  8
0
  6
HIDDEN
 62
     7
100
AcDbLine
 10
4.0077384656
 20
6.3845755641
 30
0.0
 11
3.7518329538
 21
6.3845755641
 31
0.0
  0
CIRCLE
  5
1AC
330
1F
100
AcDbEntity
  8
0
  6
HIDDEN
 62
     7
100
AcDbCircle
 10
2.7734864971
 20
7.012279889
 30
0.0
 40
0.127952755905512
  0
LINE
  5
1AD
330
1F
100
AcDbEntity
  8
0
  6
HIDDEN
 62
     7
100
AcDbLine
 10
3.9880534262
 20
6.3767015484
 30
0.0
 11
3.7715179931
 21
6.3767015484
 31
0.0
  0
LINE
  5
1AE
330
1F
100
AcDbEntity
  8
0
  6
HIDDEN
 62
     7
100
AcDbLine
 10
3.7715179931
 20
6.2743393436
 30
0.0
 11
3.9880534262
 21
6.2743393436
 31
0.0
  0
LINE
  5
1AF
330
1F
100
AcDbEntity
  8
0
  6
HIDDEN
 62
     7
100
AcDbLine
 10
3.9801794105
 20
6.2664653279
 30
0.0
 11
3.7793920089
 21
6.2664653279
 31
0.0
  0
LINE
  5
1B0
330
1F
100
AcDbEntity
  8
0
  6
HIDDEN
 62
     7
100
AcDbLine
 10
3.8286046073
 20
7.1129220208
 30
0.0
 11
3.930966812
 21
7.1129220208
 31
0.0
  0
LINE
  5
1B1
330
1F
100
AcDbEntity
  8
0
  6
HIDDEN
 62
     7
100
AcDbLine
 10
3.9388408278
 20
7.1050480051
 30
0.0
 11
3.8207305916
 21
7.1050480051
 31
0.0
  0
LINE
  5
1B2
330
1F
100
AcDbEntity
  8
0
  6
HIDDEN
 62
     7
100
AcDbLine
 10
3.9289983081
 20
6.325520446
 30
0.0
 11
3.8797857097
 21
6.325520446
 31
0.0
  0
LINE
  5
1B3
330
1F
100
AcDbEntity
  8
0
  6
HIDDEN
 62
     7
100
AcDbLine
 10
3.8797857097
 20
6.325520446
 30
0.0
 11
3.8797857097
 21
6.2664653279
 31
0.0
  0
LINE
  5
1B4
330
1F
100
AcDbEntity
  8
0
  6
HIDDEN
 62
     7
100
AcDbLine
 10
3.8797857097
 20
6.325520446
 30
0.0
 11
3.8305731113
 21
6.325520446
 31
0.0
  0
LINE
  5
1B5
330
1F
100
AcDbEntity
  8
0
  6
HIDDEN
 62
     7
100
AcDbLine
 10
3.8305731113
 20
6.325520446
 30
0.0
 11
3.8305731113
 21
6.2664653279
 31
0.0
  0
LINE
  5
1B6
330
1F
100
AcDbEntity
  8
0
  6
HIDDEN
 62
     7
100
AcDbLine
 10
3.9289983081
 20
6.325520446
 30
0.0
 11
3.9289983081
 21
6.2664653279
 31
0.0
  0
CIRCLE
  5
1B7
330
1F
100
AcDbEntity
  8
0
  6
HIDDEN
 62
     7
100
AcDbCircle
 10
2.7734864971
 20
7.012279889
 30
0.0
 40
0.1082677165354333
  0
CIRCLE
  5
1B8
330
1F
100
AcDbEntity
  8
0
  6
HIDDEN
 62
     7
100
AcDbCircle
 10
2.7734864971
 20
7.012279889
 30
0.0
 40
0.1003937007874018
  0
LINE
  5
1B9
330
1F
100
AcDbEntity
  8
0
  6
HIDDEN
 62
     7
100
AcDbLine
 10
2.8226990955
 20
7.0406927959
 30
0.0
 11
2.7734864971
 21
7.0691057029
 31
0.0
  0
LINE
  5
1BA
330
1F
100
AcDbEntity
  8
0
  6
HIDDEN
 62
     7
100
AcDbLine
 10
2.7734864971
 20
7.0691057029
 30
0.0
 11
2.7242738987
 21
7.0406927959
 31
0.0
  0
LINE
  5
1BB
330
1F
100
AcDbEntity
  8
0
  6
HIDDEN
 62
     7
100
AcDbLine
 10
2.8226990955
 20
6.983866982
 30
0.0
 11
2.8226990955
 21
7.0406927959
 31
0.0
  0
LINE
  5
1BC
330
1F
100
AcDbEntity
  8
0
  6
HIDDEN
 62
     7
100
AcDbLine
 10
2.7242738987
 20
7.0406927959
 30
0.0
 11
2.7242738987
 21
6.983866982
 31
0.0
  0
LINE
  5
1BD
330
1F
100
AcDbEntity
  8
0
  6
HIDDEN
 62
     7
100
AcDbLine
 10
2.7734864971
 20
6.9554540751
 30
0.0
 11
2.8226990955
 21
6.983866982
 31
0.0
  0
LINE
  5
1BE
330
1F
100
AcDbEntity
  8
0
  6
HIDDEN
 62
     7
100
AcDbLine
 10
2.7242738987
 20
6.983866982
 30
0.0
 11
2.7734864971
 21
6.9554540751
 31
0.0
  0
LINE
  5
1BF
330
1F
100
AcDbEntity
  8
0
  6
HIDDEN
 62
     7
100
AcDbLine
 10
4.0766361034
 20
6.8000873751
 30
0.0
 11
4.0666361034
 21
6.7900873751
 31
0.0
  0
LINE
  5
1C0
330
1F
100
AcDbEntity
  8
0
  6
HIDDEN
 62
     7
100
AcDbLine
 10
4.0666361034
 20
6.5538669027
 30
0.0
 11
4.0766361034
 21
6.5438669027
 31
0.0
  0
LINE
  5
1C1
330
1F
100
AcDbEntity
  8
0
  6
HIDDEN
 62
     7
100
AcDbLine
 10
2.5766361034
 20
6.5438669027
 30
0.0
 11
2.5866361034
 21
6.5538669027
 31
0.0
  0
LINE
  5
1C2
330
1F
100
AcDbEntity
  8
0
  6
HIDDEN
 62
     7
100
AcDbLine
 10
3.6632502766
 20
6.7900873751
 30
0.0
 11
2.9900219302
 21
6.7900873751
 31
0.0
  0
LINE
  5
1C3
330
1F
100
AcDbEntity
  8
0
  6
HIDDEN
 62
     7
100
AcDbLine
 10
2.9900219302
 20
6.5538669027
 30
0.0
 11
3.6632502766
 21
6.5538669027
 31
0.0
  0
LINE
  5
1C4
330
1F
100
AcDbEntity
  8
0
  6
HIDDEN
 62
     7
100
AcDbLine
 10
2.5866361034
 20
6.5538669027
 30
0.0
 11
2.9703368908
 21
6.5538669027
 31
0.0
  0
LINE
  5
1C5
330
1F
100
AcDbEntity
  8
0
  6
HIDDEN
 62
     7
100
AcDbLine
 10
4.0666361034
 20
6.7900873751
 30
0.0
 11
3.682935316
 21
6.7900873751
 31
0.0
  0
LINE
  5
1C6
330
1F
100
AcDbEntity
  8
0
  6
HIDDEN
 62
     7
100
AcDbLine
 10
3.682935316
 20
6.5538669027
 30
0.0
 11
4.0666361034
 21
6.5538669027
 31
0.0
  0
LINE
  5
1C7
330
1F
100
AcDbEntity
  8
0
  6
HIDDEN
 62
     7
100
AcDbLine
 10
4.0077384656
 20
6.223474996
 30
0.0
 11
4.0077384656
 21
6.3845755641
 31
0.0
  0
LINE
  5
1C8
330
1F
100
AcDbEntity
  8
0
  6
HIDDEN
 62
     7
100
AcDbLine
 10
3.7518329538
 20
6.3845755641
 30
0.0
 11
3.7518329538
 21
6.2236089869
 31
0.0
  0
LINE
  5
1C9
330
1F
100
AcDbEntity
  8
0
  6
HIDDEN
 62
     7
100
AcDbLine
 10
3.9467148435
 20
6.6818196586
 30
0.0
 11
3.9467148435
 21
7.1204792818
 31
0.0
  0
LINE
  5
1CA
330
1F
100
AcDbEntity
  8
0
  6
HIDDEN
 62
     7
100
AcDbLine
 10
3.8128565758
 20
7.1204588622
 30
0.0
 11
3.8128565758
 21
6.6818196586
 31
0.0
  0
LINE
  5
1CB
330
1F
100
AcDbEntity
  8
0
  6
HIDDEN
 62
     7
100
AcDbLine
 10
3.9467148435
 20
6.3845755641
 30
0.0
 11
3.9467148435
 21
6.6621346192
 31
0.0
  0
LINE
  5
1CC
330
1F
100
AcDbEntity
  8
0
  6
HIDDEN
 62
     7
100
AcDbLine
 10
3.8128565758
 20
6.6621346192
 30
0.0
 11
3.8128565758
 21
6.3845755641
 31
0.0
  0
LINE
  5
1CD
330
1F
100
AcDbEntity
  8
0
  6
HIDDEN
 62
     7
100
AcDbLine
 10
3.9880534262
 20
6.3767015484
 30
0.0
 11
3.9801794105
 21
6.3845755641
 31
0.0
  0
LINE
  5
1CE
330
1F
100
AcDbEntity
  8
0
  6
HIDDEN
 62
     7
100
AcDbLine
 10
3.7793920089
 20
6.3845755641
 30
0.0
 11
3.7715179931
 21
6.3767015484
 31
0.0
  0
LINE
  5
1CF
330
1F
100
AcDbEntity
  8
0
  6
HIDDEN
 62
     7
100
AcDbLine
 10
3.7715179931
 20
6.3767015484
 30
0.0
 11
3.7715179931
 21
6.2743393436
 31
0.0
  0
LINE
  5
1D0
330
1F
100
AcDbEntity
  8
0
  6
HIDDEN
 62
     7
100
AcDbLine
 10
3.9880534262
 20
6.2743393436
 30
0.0
 11
3.9880534262
 21
6.3767015484
 31
0.0
  0
LINE
  5
1D1
330
1F
100
AcDbEntity
  8
0
  6
HIDDEN
 62
     7
100
AcDbLine
 10
3.7715179931
 20
6.2743393436
 30
0.0
 11
3.7793920089
 21
6.2664653279
 31
0.0
  0
LINE
  5
1D2
330
1F
100
AcDbEntity
  8
0
  6
HIDDEN
 62
     7
100
AcDbLine
 10
3.9801794105
 20
6.2664653279
 30
0.0
 11
3.9880534262
 21
6.2743393436
 31
0.0
  0
LINE
  5
1D3
330
1F
100
AcDbEntity
  8
0
  6
HIDDEN
 62
     7
100
AcDbLine
 10
3.9388408278
 20
7.1050480051
 30
0.0
 11
3.930966812
 21
7.1129220208
 31
0.0
  0
LINE
  5
1D4
330
1F
100
AcDbEntity
  8
0
  6
HIDDEN
 62
     7
100
AcDbLine
 10
3.8286046073
 20
7.1129220208
 30
0.0
 11
3.8207305916
 21
7.1050480051
 31
0.0
  0
LINE
  5
1D5
330
1F
100
AcDbEntity
  8
0
  6
HIDDEN
 62
     7
100
AcDbLine
 10
3.9388408278
 20
6.3845755641
 30
0.0
 11
3.9388408278
 21
7.1050480051
 31
0.0
  0
LINE
  5
1D6
330
1F
100
AcDbEntity
  8
0
  6
HIDDEN
 62
     7
100
AcDbLine
 10
3.8207305916
 20
7.1050480051
 30
0.0
 11
3.8207305916
 21
6.3845755641
 31
0.0
  0
LINE
  5
1D7
330
1F
100
AcDbEntity
  8
0
  6
CONTINUOUS
 62
     7
100
AcDbLine
 10
9.0948949571
 20
6.7720275661
 30
0.0
 11
9.0948949571
 21
6.7801916472
 31
0.0
  0
LINE
  5
1D8
330
1F
100
AcDbEntity
  8
0
  6
CONTINUOUS
 62
     7
100
AcDbLine
 10
8.3634734453
 20
6.0927312577
 30
0.0
 11
8.4153262205
 21
6.0627972877
 31
0.0
  0
LINE
  5
1D9
330
1F
100
AcDbEntity
  8
0
  6
CONTINUOUS
 62
     7
100
AcDbLine
 10
8.1440087918
 20
6.2194255054
 30
0.0
 11
8.2025237499
 21
6.1856455391
 31
0.0
  0
LINE
  5
1DA
330
1F
100
AcDbEntity
  8
0
  6
CONTINUOUS
 62
     7
100
AcDbLine
 10
7.3688081844
 20
6.6669392905
 30
0.0
 11
8.130089367
 21
6.2274610183
 31
0.0
  0
LINE
  5
1DB
330
1F
100
AcDbEntity
  8
0
  6
CONTINUOUS
 62
     7
100
AcDbLine
 10
7.9989815691
 20
7.6032873432
 30
0.0
 11
7.9317545575
 21
7.642096671
 31
0.0
  0
LINE
  5
1DC
330
1F
100
AcDbEntity
  8
0
  6
CONTINUOUS
 62
     7
100
AcDbLine
 10
8.2030719862
 20
7.4854684533
 30
0.0
 11
8.0876812076
 21
7.5520821318
 31
0.0
  0
LINE
  5
1DD
330
1F
100
AcDbEntity
  8
0
  6
CONTINUOUS
 62
     7
100
AcDbLine
 10
8.9782725936
 20
7.0379546682
 30
0.0
 11
8.216991411
 21
7.4774329404
 31
0.0
  0
LINE
  5
1DE
330
1F
100
AcDbEntity
  8
0
  6
CONTINUOUS
 62
     7
100
AcDbLine
 10
7.6502166692
 20
7.6141866708
 30
0.0
 11
7.6431467506
 21
7.6101039668
 31
0.0
  0
LINE
  5
1DF
330
1F
100
AcDbEntity
  8
0
  6
CONTINUOUS
 62
     7
100
AcDbLine
 10
7.2521858209
 20
6.9328663926
 30
0.0
 11
7.2521858209
 21
6.9247023114
 31
0.0
  0
LINE
  5
1E0
330
1F
100
AcDbEntity
  8
0
  6
CONTINUOUS
 62
     7
100
AcDbLine
 10
8.2069470086
 20
6.2306559429
 30
0.0
 11
8.2069470086
 21
6.2242275326
 31
0.0
  0
LINE
  5
1E1
330
1F
100
AcDbEntity
  8
0
  6
CONTINUOUS
 62
     7
100
AcDbLine
 10
8.2779245375
 20
6.1012775244
 30
0.0
 11
8.2834914025
 21
6.0980627969
 31
0.0
  0
LINE
  5
1E2
330
1F
100
AcDbEntity
  8
0
  6
CONTINUOUS
 62
     7
100
AcDbLine
 10
8.3376333041
 20
6.0926954891
 30
0.0
 11
8.3521001243
 21
6.1010470067
 31
0.0
  0
LINE
  5
1E3
330
1F
100
AcDbEntity
  8
0
  6
CONTINUOUS
 62
     7
100
AcDbLine
 10
8.0647999933
 20
7.5948805127
 30
0.0
 11
8.0592313187
 21
7.5980962851
 31
0.0
  0
LINE
  5
1E4
330
1F
100
AcDbEntity
  8
0
  6
CONTINUOUS
 62
     7
100
AcDbLine
 10
7.9868385485
 20
7.5980962851
 30
0.0
 11
7.9812698739
 21
7.5948805127
 31
0.0
  0
LINE
  5
1E5
330
1F
100
AcDbEntity
  8
0
  6
CONTINUOUS
 62
     7
100
AcDbLine
 10
8.0820900517
 20
7.5525596227
 30
0.0
 11
8.0820900517
 21
7.5707778916
 31
0.0
  0
POLYLINE
  5
1E6
330
1F
100
AcDbEntity
  8
0
  6
CONTINUOUS
 62
     7
100
AcDb2dPolyline
 66
     1
 10
0.0
 20
0.0
 30
0.0
  0
VERTEX
  5
220
330
1E6
100
AcDbEntity
  8
0
  6
CONTINUOUS
 62
     7
100
AcDbVertex
100
AcDb2dVertex
 10
8.7108301873
 20
6.0988425823
 30
0.0
  0
VERTEX
  5
221
330
1E6
100
AcDbEntity
  8
0
  6
CONTINUOUS
 62
     7
100
AcDbVertex
100
AcDb2dVertex
 10
8.7311663305
 20
6.1116123546
 30
0.0
  0
VERTEX
  5
222
330
1E6
100
AcDbEntity
  8
0
  6
CONTINUOUS
 62
     7
100
AcDbVertex
100
AcDb2dVertex
 10
8.7514285029
 20
6.1255600994
 30
0.0
  0
VERTEX
  5
223
330
1E6
100
AcDbEntity
  8
0
  6
CONTINUOUS
 62
     7
100
AcDbVertex
100
AcDb2dVertex
 10
8.7715617946
 20
6.1406480188
 30
0.0
  0
VERTEX
  5
224
330
1E6
100
AcDbEntity
  8
0
  6
CONTINUOUS
 62
     7
100
AcDbVertex
100
AcDb2dVertex
 10
8.7915116451
 20
6.156835225
 30
0.0
  0
VERTEX
  5
225
330
1E6
100
AcDbEntity
  8
0
  6
CONTINUOUS
 62
     7
100
AcDbVertex
100
AcDb2dVertex
 10
8.811223991
 20
6.1740778512
 30
0.0
  0
VERTEX
  5
226
330
1E6
100
AcDbEntity
  8
0
  6
CONTINUOUS
 62
     7
100
AcDbVertex
100
AcDb2dVertex
 10
8.8306454124
 20
6.1923291704
 30
0.0
  0
VERTEX
  5
227
330
1E6
100
AcDbEntity
  8
0
  6
CONTINUOUS
 62
     7
100
AcDbVertex
100
AcDb2dVertex
 10
8.8497232781
 20
6.2115397224
 30
0.0
  0
VERTEX
  5
228
330
1E6
100
AcDbEntity
  8
0
  6
CONTINUOUS
 62
     7
100
AcDbVertex
100
AcDb2dVertex
 10
8.8684058875
 20
6.231657447
 30
0.0
  0
VERTEX
  5
229
330
1E6
100
AcDbEntity
  8
0
  6
CONTINUOUS
 62
     7
100
AcDbVertex
100
AcDb2dVertex
 10
8.8866426115
 20
6.2526278259
 30
0.0
  0
VERTEX
  5
22A
330
1E6
100
AcDbEntity
  8
0
  6
CONTINUOUS
 62
     7
100
AcDbVertex
100
AcDb2dVertex
 10
8.9043840291
 20
6.2743940301
 30
0.0
  0
VERTEX
  5
22B
330
1E6
100
AcDbEntity
  8
0
  6
CONTINUOUS
 62
     7
100
AcDbVertex
100
AcDb2dVertex
 10
8.9215820618
 20
6.2968970739
 30
0.0
  0
VERTEX
  5
22C
330
1E6
100
AcDbEntity
  8
0
  6
CONTINUOUS
 62
     7
100
AcDbVertex
100
AcDb2dVertex
 10
8.9381901033
 20
6.3200759748
 30
0.0
  0
VERTEX
  5
22D
330
1E6
100
AcDbEntity
  8
0
  6
CONTINUOUS
 62
     7
100
AcDbVertex
100
AcDb2dVertex
 10
8.9541631466
 20
6.3438679189
 30
0.0
  0
VERTEX
  5
22E
330
1E6
100
AcDbEntity
  8
0
  6
CONTINUOUS
 62
     7
100
AcDbVertex
100
AcDb2dVertex
 10
8.9694579051
 20
6.3682084306
 30
0.0
  0
VERTEX
  5
22F
330
1E6
100
AcDbEntity
  8
0
  6
CONTINUOUS
 62
     7
100
AcDbVertex
100
AcDb2dVertex
 10
8.9840329306
 20
6.3930315481
 30
0.0
  0
VERTEX
  5
230
330
1E6
100
AcDbEntity
  8
0
  6
CONTINUOUS
 62
     7
100
AcDbVertex
100
AcDb2dVertex
 10
8.9978487252
 20
6.4182700015
 30
0.0
  0
VERTEX
  5
231
330
1E6
100
AcDbEntity
  8
0
  6
CONTINUOUS
 62
     7
100
AcDbVertex
100
AcDb2dVertex
 10
9.0108678487
 20
6.4438553954
 30
0.0
  0
VERTEX
  5
232
330
1E6
100
AcDbEntity
  8
0
  6
CONTINUOUS
 62
     7
100
AcDbVertex
100
AcDb2dVertex
 10
9.0230550196
 20
6.4697183944
 30
0.0
  0
VERTEX
  5
233
330
1E6
100
AcDbEntity
  8
0
  6
CONTINUOUS
 62
     7
100
AcDbVertex
100
AcDb2dVertex
 10
9.0343772111
 20
6.4957889105
 30
0.0
  0
VERTEX
  5
234
330
1E6
100
AcDbEntity
  8
0
  6
CONTINUOUS
 62
     7
100
AcDbVertex
100
AcDb2dVertex
 10
9.0448037405
 20
6.5219962936
 30
0.0
  0
VERTEX
  5
235
330
1E6
100
AcDbEntity
  8
0
  6
CONTINUOUS
 62
     7
100
AcDbVertex
100
AcDb2dVertex
 10
9.0543063521
 20
6.5482695224
 30
0.0
  0
VERTEX
  5
236
330
1E6
100
AcDbEntity
  8
0
  6
CONTINUOUS
 62
     7
100
AcDbVertex
100
AcDb2dVertex
 10
9.0628592943
 20
6.5745373975
 30
0.0
  0
VERTEX
  5
237
330
1E6
100
AcDbEntity
  8
0
  6
CONTINUOUS
 62
     7
100
AcDbVertex
100
AcDb2dVertex
 10
9.0704393889
 20
6.6007287338
 30
0.0
  0
VERTEX
  5
238
330
1E6
100
AcDbEntity
  8
0
  6
CONTINUOUS
 62
     7
100
AcDbVertex
100
AcDb2dVertex
 10
9.077026094
 20
6.6267725536
 30
0.0
  0
VERTEX
  5
239
330
1E6
100
AcDbEntity
  8
0
  6
CONTINUOUS
 62
     7
100
AcDbVertex
100
AcDb2dVertex
 10
9.08260156
 20
6.652598279
 30
0.0
  0
VERTEX
  5
23A
330
1E6
100
AcDbEntity
  8
0
  6
CONTINUOUS
 62
     7
100
AcDbVertex
100
AcDb2dVertex
 10
9.0871506774
 20
6.6781359232
 30
0.0
  0
VERTEX
  5
23B
330
1E6
100
AcDbEntity
  8
0
  6
CONTINUOUS
 62
     7
100
AcDbVertex
100
AcDb2dVertex
 10
9.0906611183
 20
6.7033162801
 30
0.0
  0
VERTEX
  5
23C
330
1E6
100
AcDbEntity
  8
0
  6
CONTINUOUS
 62
     7
100
AcDbVertex
100
AcDb2dVertex
 10
9.0931233696
 20
6.7280711117
 30
0.0
  0
VERTEX
  5
23D
330
1E6
100
AcDbEntity
  8
0
  6
CONTINUOUS
 62
     7
100
AcDbVertex
100
AcDb2dVertex
 10
9.0945307586
 20
6.7523333333
 30
0.0
  0
VERTEX
  5
23E
330
1E6
100
AcDbEntity
  8
0
  6
CONTINUOUS
 62
     7
100
AcDbVertex
100
AcDb2dVertex
 10
9.0948794714
 20
6.7760371951
 30
0.0
  0
VERTEX
  5
23F
330
1E6
100
AcDbEntity
  8
0
  6
CONTINUOUS
 62
     7
100
AcDbVertex
100
AcDb2dVertex
 10
9.0941685629
 20
6.7991184603
 30
0.0
  0
VERTEX
  5
240
330
1E6
100
AcDbEntity
  8
0
  6
CONTINUOUS
 62
     7
100
AcDbVertex
100
AcDb2dVertex
 10
9.0923999597
 20
6.8215145795
 30
0.0
  0
VERTEX
  5
241
330
1E6
100
AcDbEntity
  8
0
  6
CONTINUOUS
 62
     7
100
AcDbVertex
100
AcDb2dVertex
 10
9.0895784547
 20
6.8431648601
 30
0.0
  0
VERTEX
  5
242
330
1E6
100
AcDbEntity
  8
0
  6
CONTINUOUS
 62
     7
100
AcDbVertex
100
AcDb2dVertex
 10
9.085711694
 20
6.8640106305
 30
0.0
  0
VERTEX
  5
243
330
1E6
100
AcDbEntity
  8
0
  6
CONTINUOUS
 62
     7
100
AcDbVertex
100
AcDb2dVertex
 10
9.0808101564
 20
6.8839953992
 30
0.0
  0
VERTEX
  5
244
330
1E6
100
AcDbEntity
  8
0
  6
CONTINUOUS
 62
     7
100
AcDbVertex
100
AcDb2dVertex
 10
9.074887125
 20
6.9030650084
 30
0.0
  0
VERTEX
  5
245
330
1E6
100
AcDbEntity
  8
0
  6
CONTINUOUS
 62
     7
100
AcDbVertex
100
AcDb2dVertex
 10
9.0679586509
 20
6.9211677799
 30
0.0
  0
VERTEX
  5
246
330
1E6
100
AcDbEntity
  8
0
  6
CONTINUOUS
 62
     7
100
AcDbVertex
100
AcDb2dVertex
 10
9.0600435101
 20
6.938254656
 30
0.0
  0
VERTEX
  5
247
330
1E6
100
AcDbEntity
  8
0
  6
CONTINUOUS
 62
     7
100
AcDbVertex
100
AcDb2dVertex
 10
9.0511631523
 20
6.9542793316
 30
0.0
  0
VERTEX
  5
248
330
1E6
100
AcDbEntity
  8
0
  6
CONTINUOUS
 62
     7
100
AcDbVertex
100
AcDb2dVertex
 10
9.041341643
 20
6.9691983805
 30
0.0
  0
VERTEX
  5
249
330
1E6
100
AcDbEntity
  8
0
  6
CONTINUOUS
 62
     7
100
AcDbVertex
100
AcDb2dVertex
 10
9.0306055982
 20
6.9829713726
 30
0.0
  0
VERTEX
  5
24A
330
1E6
100
AcDbEntity
  8
0
  6
CONTINUOUS
 62
     7
100
AcDbVertex
100
AcDb2dVertex
 10
9.0189841122
 20
6.9955609836
 30
0.0
  0
VERTEX
  5
24B
330
1E6
100
AcDbEntity
  8
0
  6
CONTINUOUS
 62
     7
100
AcDbVertex
100
AcDb2dVertex
 10
9.0065086788
 20
7.0069330959
 30
0.0
  0
VERTEX
  5
24C
330
1E6
100
AcDbEntity
  8
0
  6
CONTINUOUS
 62
     7
100
AcDbVertex
100
AcDb2dVertex
 10
8.993213106
 20
7.0170568915
 30
0.0
  0
VERTEX
  5
24D
330
1E6
100
AcDbEntity
  8
0
  6
CONTINUOUS
 62
     7
100
AcDbVertex
100
AcDb2dVertex
 10
8.9791334245
 20
7.0259049354
 30
0.0
  0
VERTEX
  5
24E
330
1E6
100
AcDbEntity
  8
0
  6
CONTINUOUS
 62
     7
100
AcDbVertex
100
AcDb2dVertex
 10
8.9643077896
 20
7.0334532496
 30
0.0
  0
VERTEX
  5
24F
330
1E6
100
AcDbEntity
  8
0
  6
CONTINUOUS
 62
     7
100
AcDbVertex
100
AcDb2dVertex
 10
8.9487763783
 20
7.0396813784
 30
0.0
  0
VERTEX
  5
250
330
1E6
100
AcDbEntity
  8
0
  6
CONTINUOUS
 62
     7
100
AcDbVertex
100
AcDb2dVertex
 10
8.9325812802
 20
7.0445724439
 30
0.0
  0
VERTEX
  5
251
330
1E6
100
AcDbEntity
  8
0
  6
CONTINUOUS
 62
     7
100
AcDbVertex
100
AcDb2dVertex
 10
8.9157663836
 20
7.0481131913
 30
0.0
  0
VERTEX
  5
252
330
1E6
100
AcDbEntity
  8
0
  6
CONTINUOUS
 62
     7
100
AcDbVertex
100
AcDb2dVertex
 10
8.8983772561
 20
7.0502940254
 30
0.0
  0
VERTEX
  5
253
330
1E6
100
AcDbEntity
  8
0
  6
CONTINUOUS
 62
     7
100
AcDbVertex
100
AcDb2dVertex
 10
8.8804610219
 20
7.0511090362
 30
0.0
  0
VERTEX
  5
254
330
1E6
100
AcDbEntity
  8
0
  6
CONTINUOUS
 62
     7
100
AcDbVertex
100
AcDb2dVertex
 10
8.8620662331
 20
7.050556015
 30
0.0
  0
VERTEX
  5
255
330
1E6
100
AcDbEntity
  8
0
  6
CONTINUOUS
 62
     7
100
AcDbVertex
100
AcDb2dVertex
 10
8.8432427392
 20
7.0486364605
 30
0.0
  0
VERTEX
  5
256
330
1E6
100
AcDbEntity
  8
0
  6
CONTINUOUS
 62
     7
100
AcDbVertex
100
AcDb2dVertex
 10
8.8240415511
 20
7.0453555747
 30
0.0
  0
VERTEX
  5
257
330
1E6
100
AcDbEntity
  8
0
  6
CONTINUOUS
 62
     7
100
AcDbVertex
100
AcDb2dVertex
 10
8.8045147035
 20
7.0407222486
 30
0.0
  0
VERTEX
  5
258
330
1E6
100
AcDbEntity
  8
0
  6
CONTINUOUS
 62
     7
100
AcDbVertex
100
AcDb2dVertex
 10
8.7847151133
 20
7.0347490384
 30
0.0
  0
VERTEX
  5
259
330
1E6
100
AcDbEntity
  8
0
  6
CONTINUOUS
 62
     7
100
AcDbVertex
100
AcDb2dVertex
 10
8.7646964369
 20
7.0274521313
 30
0.0
  0
VERTEX
  5
25A
330
1E6
100
AcDbEntity
  8
0
  6
CONTINUOUS
 62
     7
100
AcDbVertex
100
AcDb2dVertex
 10
8.7445129242
 20
7.0188513016
 30
0.0
  0
VERTEX
  5
25B
330
1E6
100
AcDbEntity
  8
0
  6
CONTINUOUS
 62
     7
100
AcDbVertex
100
AcDb2dVertex
 10
8.7242192718
 20
7.0089698574
 30
0.0
  0
VERTEX
  5
25C
330
1E6
100
AcDbEntity
  8
0
  6
CONTINUOUS
 62
     7
100
AcDbVertex
100
AcDb2dVertex
 10
8.7038704749
 20
6.9978345769
 30
0.0
  0
VERTEX
  5
25D
330
1E6
100
AcDbEntity
  8
0
  6
CONTINUOUS
 62
     7
100
AcDbVertex
100
AcDb2dVertex
 10
8.683521678
 20
6.9854756365
 30
0.0
  0
VERTEX
  5
25E
330
1E6
100
AcDbEntity
  8
0
  6
CONTINUOUS
 62
     7
100
AcDbVertex
100
AcDb2dVertex
 10
8.6632280256
 20
6.9719265285
 30
0.0
  0
VERTEX
  5
25F
330
1E6
100
AcDbEntity
  8
0
  6
CONTINUOUS
 62
     7
100
AcDbVertex
100
AcDb2dVertex
 10
8.6430445129
 20
6.9572239704
 30
0.0
  0
VERTEX
  5
260
330
1E6
100
AcDbEntity
  8
0
  6
CONTINUOUS
 62
     7
100
AcDbVertex
100
AcDb2dVertex
 10
8.6230258365
 20
6.9414078057
 30
0.0
  0
VERTEX
  5
261
330
1E6
100
AcDbEntity
  8
0
  6
CONTINUOUS
 62
     7
100
AcDbVertex
100
AcDb2dVertex
 10
8.6032262463
 20
6.9245208957
 30
0.0
  0
VERTEX
  5
262
330
1E6
100
AcDbEntity
  8
0
  6
CONTINUOUS
 62
     7
100
AcDbVertex
100
AcDb2dVertex
 10
8.5836993987
 20
6.9066090034
 30
0.0
  0
VERTEX
  5
263
330
1E6
100
AcDbEntity
  8
0
  6
CONTINUOUS
 62
     7
100
AcDbVertex
100
AcDb2dVertex
 10
8.5644982106
 20
6.8877206693
 30
0.0
  0
VERTEX
  5
264
330
1E6
100
AcDbEntity
  8
0
  6
CONTINUOUS
 62
     7
100
AcDbVertex
100
AcDb2dVertex
 10
8.5456747167
 20
6.8679070803
 30
0.0
  0
VERTEX
  5
265
330
1E6
100
AcDbEntity
  8
0
  6
CONTINUOUS
 62
     7
100
AcDbVertex
100
AcDb2dVertex
 10
8.5272799279
 20
6.8472219305
 30
0.0
  0
VERTEX
  5
266
330
1E6
100
AcDbEntity
  8
0
  6
CONTINUOUS
 62
     7
100
AcDbVertex
100
AcDb2dVertex
 10
8.5093636936
 20
6.8257212759
 30
0.0
  0
VERTEX
  5
267
330
1E6
100
AcDbEntity
  8
0
  6
CONTINUOUS
 62
     7
100
AcDbVertex
100
AcDb2dVertex
 10
8.4919745662
 20
6.8034633826
 30
0.0
  0
VERTEX
  5
268
330
1E6
100
AcDbEntity
  8
0
  6
CONTINUOUS
 62
     7
100
AcDbVertex
100
AcDb2dVertex
 10
8.4751596695
 20
6.7805085688
 30
0.0
  0
VERTEX
  5
269
330
1E6
100
AcDbEntity
  8
0
  6
CONTINUOUS
 62
     7
100
AcDbVertex
100
AcDb2dVertex
 10
8.4589645715
 20
6.7569190411
 30
0.0
  0
VERTEX
  5
26A
330
1E6
100
AcDbEntity
  8
0
  6
CONTINUOUS
 62
     7
100
AcDbVertex
100
AcDb2dVertex
 10
8.4434331602
 20
6.7327587265
 30
0.0
  0
VERTEX
  5
26B
330
1E6
100
AcDbEntity
  8
0
  6
CONTINUOUS
 62
     7
100
AcDbVertex
100
AcDb2dVertex
 10
8.4286075253
 20
6.7080930986
 30
0.0
  0
VERTEX
  5
26C
330
1E6
100
AcDbEntity
  8
0
  6
CONTINUOUS
 62
     7
100
AcDbVertex
100
AcDb2dVertex
 10
8.4145278437
 20
6.6829890004
 30
0.0
  0
VERTEX
  5
26D
330
1E6
100
AcDbEntity
  8
0
  6
CONTINUOUS
 62
     7
100
AcDbVertex
100
AcDb2dVertex
 10
8.401232271
 20
6.6575144632
 30
0.0
  0
VERTEX
  5
26E
330
1E6
100
AcDbEntity
  8
0
  6
CONTINUOUS
 62
     7
100
AcDbVertex
100
AcDb2dVertex
 10
8.3887568376
 20
6.6317385221
 30
0.0
  0
VERTEX
  5
26F
330
1E6
100
AcDbEntity
  8
0
  6
CONTINUOUS
 62
     7
100
AcDbVertex
100
AcDb2dVertex
 10
8.3771353516
 20
6.6057310291
 30
0.0
  0
VERTEX
  5
270
330
1E6
100
AcDbEntity
  8
0
  6
CONTINUOUS
 62
     7
100
AcDbVertex
100
AcDb2dVertex
 10
8.3663993068
 20
6.5795624635
 30
0.0
  0
VERTEX
  5
271
330
1E6
100
AcDbEntity
  8
0
  6
CONTINUOUS
 62
     7
100
AcDbVertex
100
AcDb2dVertex
 10
8.3565777975
 20
6.5533037413
 30
0.0
  0
VERTEX
  5
272
330
1E6
100
AcDbEntity
  8
0
  6
CONTINUOUS
 62
     7
100
AcDbVertex
100
AcDb2dVertex
 10
8.3476974397
 20
6.5270260228
 30
0.0
  0
VERTEX
  5
273
330
1E6
100
AcDbEntity
  8
0
  6
CONTINUOUS
 62
     7
100
AcDbVertex
100
AcDb2dVertex
 10
8.3397822989
 20
6.5008005197
 30
0.0
  0
VERTEX
  5
274
330
1E6
100
AcDbEntity
  8
0
  6
CONTINUOUS
 62
     7
100
AcDbVertex
100
AcDb2dVertex
 10
8.3328538248
 20
6.4746983022
 30
0.0
  0
VERTEX
  5
275
330
1E6
100
AcDbEntity
  8
0
  6
CONTINUOUS
 62
     7
100
AcDbVertex
100
AcDb2dVertex
 10
8.3269307933
 20
6.4487901065
 30
0.0
  0
VERTEX
  5
276
330
1E6
100
AcDbEntity
  8
0
  6
CONTINUOUS
 62
     7
100
AcDbVertex
100
AcDb2dVertex
 10
8.3220292558
 20
6.4231461429
 30
0.0
  0
VERTEX
  5
277
330
1E6
100
AcDbEntity
  8
0
  6
CONTINUOUS
 62
     7
100
AcDbVertex
100
AcDb2dVertex
 10
8.3181624951
 20
6.3978359057
 30
0.0
  0
VERTEX
  5
278
330
1E6
100
AcDbEntity
  8
0
  6
CONTINUOUS
 62
     7
100
AcDbVertex
100
AcDb2dVertex
 10
8.31534099
 20
6.3729279848
 30
0.0
  0
VERTEX
  5
279
330
1E6
100
AcDbEntity
  8
0
  6
CONTINUOUS
 62
     7
100
AcDbVertex
100
AcDb2dVertex
 10
8.3135723869
 20
6.3484898797
 30
0.0
  0
VERTEX
  5
27A
330
1E6
100
AcDbEntity
  8
0
  6
CONTINUOUS
 62
     7
100
AcDbVertex
100
AcDb2dVertex
 10
8.3128614784
 20
6.3245878171
 30
0.0
  0
VERTEX
  5
27B
330
1E6
100
AcDbEntity
  8
0
  6
CONTINUOUS
 62
     7
100
AcDbVertex
100
AcDb2dVertex
 10
8.3132101912
 20
6.3012865705
 30
0.0
  0
VERTEX
  5
27C
330
1E6
100
AcDbEntity
  8
0
  6
CONTINUOUS
 62
     7
100
AcDbVertex
100
AcDb2dVertex
 10
8.3146175802
 20
6.2786492857
 30
0.0
  0
VERTEX
  5
27D
330
1E6
100
AcDbEntity
  8
0
  6
CONTINUOUS
 62
     7
100
AcDbVertex
100
AcDb2dVertex
 10
8.3170798315
 20
6.2567373089
 30
0.0
  0
VERTEX
  5
27E
330
1E6
100
AcDbEntity
  8
0
  6
CONTINUOUS
 62
     7
100
AcDbVertex
100
AcDb2dVertex
 10
8.3205902724
 20
6.2356100209
 30
0.0
  0
VERTEX
  5
27F
330
1E6
100
AcDbEntity
  8
0
  6
CONTINUOUS
 62
     7
100
AcDbVertex
100
AcDb2dVertex
 10
8.3251393898
 20
6.2153246758
 30
0.0
  0
VERTEX
  5
280
330
1E6
100
AcDbEntity
  8
0
  6
CONTINUOUS
 62
     7
100
AcDbVertex
100
AcDb2dVertex
 10
8.3307148558
 20
6.1959362463
 30
0.0
  0
VERTEX
  5
281
330
1E6
100
AcDbEntity
  8
0
  6
CONTINUOUS
 62
     7
100
AcDbVertex
100
AcDb2dVertex
 10
8.3373015609
 20
6.1774972744
 30
0.0
  0
VERTEX
  5
282
330
1E6
100
AcDbEntity
  8
0
  6
CONTINUOUS
 62
     7
100
AcDbVertex
100
AcDb2dVertex
 10
8.3448816554
 20
6.160057729
 30
0.0
  0
VERTEX
  5
283
330
1E6
100
AcDbEntity
  8
0
  6
CONTINUOUS
 62
     7
100
AcDbVertex
100
AcDb2dVertex
 10
8.3534345976
 20
6.1436648708
 30
0.0
  0
VERTEX
  5
284
330
1E6
100
AcDbEntity
  8
0
  6
CONTINUOUS
 62
     7
100
AcDbVertex
100
AcDb2dVertex
 10
8.3629372093
 20
6.1283631239
 30
0.0
  0
VERTEX
  5
285
330
1E6
100
AcDbEntity
  8
0
  6
CONTINUOUS
 62
     7
100
AcDbVertex
100
AcDb2dVertex
 10
8.3733637387
 20
6.1141939554
 30
0.0
  0
VERTEX
  5
286
330
1E6
100
AcDbEntity
  8
0
  6
CONTINUOUS
 62
     7
100
AcDbVertex
100
AcDb2dVertex
 10
8.3846859302
 20
6.1011957633
 30
0.0
  0
VERTEX
  5
287
330
1E6
100
AcDbEntity
  8
0
  6
CONTINUOUS
 62
     7
100
AcDbVertex
100
AcDb2dVertex
 10
8.3968731011
 20
6.0894037723
 30
0.0
  0
VERTEX
  5
288
330
1E6
100
AcDbEntity
  8
0
  6
CONTINUOUS
 62
     7
100
AcDbVertex
100
AcDb2dVertex
 10
8.4098922245
 20
6.0788499384
 30
0.0
  0
VERTEX
  5
289
330
1E6
100
AcDbEntity
  8
0
  6
CONTINUOUS
 62
     7
100
AcDbVertex
100
AcDb2dVertex
 10
8.4237080192
 20
6.0695628619
 30
0.0
  0
VERTEX
  5
28A
330
1E6
100
AcDbEntity
  8
0
  6
CONTINUOUS
 62
     7
100
AcDbVertex
100
AcDb2dVertex
 10
8.4382830447
 20
6.0615677107
 30
0.0
  0
VERTEX
  5
28B
330
1E6
100
AcDbEntity
  8
0
  6
CONTINUOUS
 62
     7
100
AcDbVertex
100
AcDb2dVertex
 10
8.4535778032
 20
6.0548861513
 30
0.0
  0
VERTEX
  5
28C
330
1E6
100
AcDbEntity
  8
0
  6
CONTINUOUS
 62
     7
100
AcDbVertex
100
AcDb2dVertex
 10
8.4695508464
 20
6.0495362904
 30
0.0
  0
VERTEX
  5
28D
330
1E6
100
AcDbEntity
  8
0
  6
CONTINUOUS
 62
     7
100
AcDbVertex
100
AcDb2dVertex
 10
8.486158888
 20
6.0455326261
 30
0.0
  0
VERTEX
  5
28E
330
1E6
100
AcDbEntity
  8
0
  6
CONTINUOUS
 62
     7
100
AcDbVertex
100
AcDb2dVertex
 10
8.5033569206
 20
6.0428860081
 30
0.0
  0
VERTEX
  5
28F
330
1E6
100
AcDbEntity
  8
0
  6
CONTINUOUS
 62
     7
100
AcDbVertex
100
AcDb2dVertex
 10
8.5210983383
 20
6.0416036087
 30
0.0
  0
VERTEX
  5
290
330
1E6
100
AcDbEntity
  8
0
  6
CONTINUOUS
 62
     7
100
AcDbVertex
100
AcDb2dVertex
 10
8.5393350623
 20
6.0416889032
 30
0.0
  0
VERTEX
  5
291
330
1E6
100
AcDbEntity
  8
0
  6
CONTINUOUS
 62
     7
100
AcDbVertex
100
AcDb2dVertex
 10
8.5580176717
 20
6.0431416603
 30
0.0
  0
VERTEX
  5
292
330
1E6
100
AcDbEntity
  8
0
  6
CONTINUOUS
 62
     7
100
AcDbVertex
100
AcDb2dVertex
 10
8.5770955374
 20
6.0459579432
 30
0.0
  0
VERTEX
  5
293
330
1E6
100
AcDbEntity
  8
0
  6
CONTINUOUS
 62
     7
100
AcDbVertex
100
AcDb2dVertex
 10
8.5965169588
 20
6.0501301198
 30
0.0
  0
VERTEX
  5
294
330
1E6
100
AcDbEntity
  8
0
  6
CONTINUOUS
 62
     7
100
AcDbVertex
100
AcDb2dVertex
 10
8.6162293047
 20
6.0556468837
 30
0.0
  0
VERTEX
  5
295
330
1E6
100
AcDbEntity
  8
0
  6
CONTINUOUS
 62
     7
100
AcDbVertex
100
AcDb2dVertex
 10
8.6361791552
 20
6.0624932846
 30
0.0
  0
VERTEX
  5
296
330
1E6
100
AcDbEntity
  8
0
  6
CONTINUOUS
 62
     7
100
AcDbVertex
100
AcDb2dVertex
 10
8.6563124469
 20
6.0706507691
 30
0.0
  0
VERTEX
  5
297
330
1E6
100
AcDbEntity
  8
0
  6
CONTINUOUS
 62
     7
100
AcDbVertex
100
AcDb2dVertex
 10
8.6765746193
 20
6.0800972305
 30
0.0
  0
VERTEX
  5
298
330
1E6
100
AcDbEntity
  8
0
  6
CONTINUOUS
 62
     7
100
AcDbVertex
100
AcDb2dVertex
 10
8.6969107625
 20
6.0908070694
 30
0.0
  0
SEQEND
  5
299
330
1E6
100
AcDbEntity
  8
0
  6
CONTINUOUS
 62
     7
  0
LINE
  5
1E7
330
1F
100
AcDbEntity
  8
0
  6
CONTINUOUS
 62
     7
100
AcDbLine
 10
8.6898396947
 20
6.0867224312
 30
0.0
 11
8.6969107625
 21
6.0908070694
 31
0.0
  0
POLYLINE
  5
1E8
330
1F
100
AcDbEntity
  8
0
  6
CONTINUOUS
 62
     7
100
AcDb2dPolyline
 66
     1
 10
0.0
 20
0.0
 30
0.0
  0
VERTEX
  5
29A
330
1E8
100
AcDbEntity
  8
0
  6
CONTINUOUS
 62
     7
100
AcDbVertex
100
AcDb2dVertex
 10
8.6898396947
 20
6.0867224312
 30
0.0
  0
VERTEX
  5
29B
330
1E8
100
AcDbEntity
  8
0
  6
CONTINUOUS
 62
     7
100
AcDbVertex
100
AcDb2dVertex
 10
8.6693043212
 20
6.075895108
 30
0.0
  0
VERTEX
  5
29C
330
1E8
100
AcDbEntity
  8
0
  6
CONTINUOUS
 62
     7
100
AcDbVertex
100
AcDb2dVertex
 10
8.6488422471
 20
6.0663327072
 30
0.0
  0
VERTEX
  5
29D
330
1E8
100
AcDbEntity
  8
0
  6
CONTINUOUS
 62
     7
100
AcDbVertex
100
AcDb2dVertex
 10
8.6285080223
 20
6.0580607212
 30
0.0
  0
VERTEX
  5
29E
330
1E8
100
AcDbEntity
  8
0
  6
CONTINUOUS
 62
     7
100
AcDbVertex
100
AcDb2dVertex
 10
8.6083558561
 20
6.0511012025
 30
0.0
  0
VERTEX
  5
29F
330
1E8
100
AcDbEntity
  8
0
  6
CONTINUOUS
 62
     7
100
AcDbVertex
100
AcDb2dVertex
 10
8.5884394723
 20
6.0454727044
 30
0.0
  0
VERTEX
  5
2A0
330
1E8
100
AcDbEntity
  8
0
  6
CONTINUOUS
 62
     7
100
AcDbVertex
100
AcDb2dVertex
 10
8.5688119661
 20
6.041190232
 30
0.0
  0
VERTEX
  5
2A1
330
1E8
100
AcDbEntity
  8
0
  6
CONTINUOUS
 62
     7
100
AcDbVertex
100
AcDb2dVertex
 10
8.5495256627
 20
6.038265202
 30
0.0
  0
VERTEX
  5
2A2
330
1E8
100
AcDbEntity
  8
0
  6
CONTINUOUS
 62
     7
100
AcDbVertex
100
AcDb2dVertex
 10
8.5306319775
 20
6.0367054123
 30
0.0
  0
VERTEX
  5
2A3
330
1E8
100
AcDbEntity
  8
0
  6
CONTINUOUS
 62
     7
100
AcDbVertex
100
AcDb2dVertex
 10
8.5121812794
 20
6.0365150211
 30
0.0
  0
VERTEX
  5
2A4
330
1E8
100
AcDbEntity
  8
0
  6
CONTINUOUS
 62
     7
100
AcDbVertex
100
AcDb2dVertex
 10
8.4942227563
 20
6.0376945359
 30
0.0
  0
VERTEX
  5
2A5
330
1E8
100
AcDbEntity
  8
0
  6
CONTINUOUS
 62
     7
100
AcDbVertex
100
AcDb2dVertex
 10
8.4768042839
 20
6.0402408123
 30
0.0
  0
VERTEX
  5
2A6
330
1E8
100
AcDbEntity
  8
0
  6
CONTINUOUS
 62
     7
100
AcDbVertex
100
AcDb2dVertex
 10
8.4599722983
 20
6.0441470622
 30
0.0
  0
VERTEX
  5
2A7
330
1E8
100
AcDbEntity
  8
0
  6
CONTINUOUS
 62
     7
100
AcDbVertex
100
AcDb2dVertex
 10
8.443771672
 20
6.0494028719
 30
0.0
  0
VERTEX
  5
2A8
330
1E8
100
AcDbEntity
  8
0
  6
CONTINUOUS
 62
     7
100
AcDbVertex
100
AcDb2dVertex
 10
8.4282455943
 20
6.0559942297
 30
0.0
  0
VERTEX
  5
2A9
330
1E8
100
AcDbEntity
  8
0
  6
CONTINUOUS
 62
     7
100
AcDbVertex
100
AcDb2dVertex
 10
8.4134354565
 20
6.0639035639
 30
0.0
  0
VERTEX
  5
2AA
330
1E8
100
AcDbEntity
  8
0
  6
CONTINUOUS
 62
     7
100
AcDbVertex
100
AcDb2dVertex
 10
8.3993807408
 20
6.0731097888
 30
0.0
  0
VERTEX
  5
2AB
330
1E8
100
AcDbEntity
  8
0
  6
CONTINUOUS
 62
     7
100
AcDbVertex
100
AcDb2dVertex
 10
8.386118916
 20
6.0835883615
 30
0.0
  0
VERTEX
  5
2AC
330
1E8
100
AcDbEntity
  8
0
  6
CONTINUOUS
 62
     7
100
AcDbVertex
100
AcDb2dVertex
 10
8.3736853369
 20
6.0953113471
 30
0.0
  0
VERTEX
  5
2AD
330
1E8
100
AcDbEntity
  8
0
  6
CONTINUOUS
 62
     7
100
AcDbVertex
100
AcDb2dVertex
 10
8.3621131501
 20
6.1082474931
 30
0.0
  0
VERTEX
  5
2AE
330
1E8
100
AcDbEntity
  8
0
  6
CONTINUOUS
 62
     7
100
AcDbVertex
100
AcDb2dVertex
 10
8.3514332061
 20
6.122362313
 30
0.0
  0
VERTEX
  5
2AF
330
1E8
100
AcDbEntity
  8
0
  6
CONTINUOUS
 62
     7
100
AcDbVertex
100
AcDb2dVertex
 10
8.3416739767
 20
6.137618178
 30
0.0
  0
VERTEX
  5
2B0
330
1E8
100
AcDbEntity
  8
0
  6
CONTINUOUS
 62
     7
100
AcDbVertex
100
AcDb2dVertex
 10
8.332861479
 20
6.1539744174
 30
0.0
  0
VERTEX
  5
2B1
330
1E8
100
AcDbEntity
  8
0
  6
CONTINUOUS
 62
     7
100
AcDbVertex
100
AcDb2dVertex
 10
8.3250192064
 20
6.1713874269
 30
0.0
  0
VERTEX
  5
2B2
330
1E8
100
AcDbEntity
  8
0
  6
CONTINUOUS
 62
     7
100
AcDbVertex
100
AcDb2dVertex
 10
8.3181680656
 20
6.189810785
 30
0.0
  0
VERTEX
  5
2B3
330
1E8
100
AcDbEntity
  8
0
  6
CONTINUOUS
 62
     7
100
AcDbVertex
100
AcDb2dVertex
 10
8.3123263211
 20
6.2091953768
 30
0.0
  0
VERTEX
  5
2B4
330
1E8
100
AcDbEntity
  8
0
  6
CONTINUOUS
 62
     7
100
AcDbVertex
100
AcDb2dVertex
 10
8.3075095466
 20
6.2294895246
 30
0.0
  0
VERTEX
  5
2B5
330
1E8
100
AcDbEntity
  8
0
  6
CONTINUOUS
 62
     7
100
AcDbVertex
100
AcDb2dVertex
 10
8.303730583
 20
6.2506391263
 30
0.0
  0
VERTEX
  5
2B6
330
1E8
100
AcDbEntity
  8
0
  6
CONTINUOUS
 62
     7
100
AcDbVertex
100
AcDb2dVertex
 10
8.3009995048
 20
6.2725877989
 30
0.0
  0
VERTEX
  5
2B7
330
1E8
100
AcDbEntity
  8
0
  6
CONTINUOUS
 62
     7
100
AcDbVertex
100
AcDb2dVertex
 10
8.2993235928
 20
6.2952770292
 30
0.0
  0
VERTEX
  5
2B8
330
1E8
100
AcDbEntity
  8
0
  6
CONTINUOUS
 62
     7
100
AcDbVertex
100
AcDb2dVertex
 10
8.2987073147
 20
6.3186463298
 30
0.0
  0
VERTEX
  5
2B9
330
1E8
100
AcDbEntity
  8
0
  6
CONTINUOUS
 62
     7
100
AcDbVertex
100
AcDb2dVertex
 10
8.2991523135
 20
6.3426334004
 30
0.0
  0
VERTEX
  5
2BA
330
1E8
100
AcDbEntity
  8
0
  6
CONTINUOUS
 62
     7
100
AcDbVertex
100
AcDb2dVertex
 10
8.3006574029
 20
6.3671742936
 30
0.0
  0
VERTEX
  5
2BB
330
1E8
100
AcDbEntity
  8
0
  6
CONTINUOUS
 62
     7
100
AcDbVertex
100
AcDb2dVertex
 10
8.3032185705
 20
6.3922035857
 30
0.0
  0
VERTEX
  5
2BC
330
1E8
100
AcDbEntity
  8
0
  6
CONTINUOUS
 62
     7
100
AcDbVertex
100
AcDb2dVertex
 10
8.3068289885
 20
6.4176545508
 30
0.0
  0
VERTEX
  5
2BD
330
1E8
100
AcDbEntity
  8
0
  6
CONTINUOUS
 62
     7
100
AcDbVertex
100
AcDb2dVertex
 10
8.3114790317
 20
6.443459339
 30
0.0
  0
VERTEX
  5
2BE
330
1E8
100
AcDbEntity
  8
0
  6
CONTINUOUS
 62
     7
100
AcDbVertex
100
AcDb2dVertex
 10
8.3171563036
 20
6.4695491572
 30
0.0
  0
VERTEX
  5
2BF
330
1E8
100
AcDbEntity
  8
0
  6
CONTINUOUS
 62
     7
100
AcDbVertex
100
AcDb2dVertex
 10
8.3238456691
 20
6.4958544522
 30
0.0
  0
VERTEX
  5
2C0
330
1E8
100
AcDbEntity
  8
0
  6
CONTINUOUS
 62
     7
100
AcDbVertex
100
AcDb2dVertex
 10
8.331529295
 20
6.5223050966
 30
0.0
  0
VERTEX
  5
2C1
330
1E8
100
AcDbEntity
  8
0
  6
CONTINUOUS
 62
     7
100
AcDbVertex
100
AcDb2dVertex
 10
8.3401866974
 20
6.5488305754
 30
0.0
  0
VERTEX
  5
2C2
330
1E8
100
AcDbEntity
  8
0
  6
CONTINUOUS
 62
     7
100
AcDbVertex
100
AcDb2dVertex
 10
8.3497947966
 20
6.5753601742
 30
0.0
  0
VERTEX
  5
2C3
330
1E8
100
AcDbEntity
  8
0
  6
CONTINUOUS
 62
     7
100
AcDbVertex
100
AcDb2dVertex
 10
8.3603279781
 20
6.6018231673
 30
0.0
  0
VERTEX
  5
2C4
330
1E8
100
AcDbEntity
  8
0
  6
CONTINUOUS
 62
     7
100
AcDbVertex
100
AcDb2dVertex
 10
8.3717581615
 20
6.6281490069
 30
0.0
  0
VERTEX
  5
2C5
330
1E8
100
AcDbEntity
  8
0
  6
CONTINUOUS
 62
     7
100
AcDbVertex
100
AcDb2dVertex
 10
8.384054875
 20
6.6542675109
 30
0.0
  0
VERTEX
  5
2C6
330
1E8
100
AcDbEntity
  8
0
  6
CONTINUOUS
 62
     7
100
AcDbVertex
100
AcDb2dVertex
 10
8.3971853367
 20
6.6801090495
 30
0.0
  0
VERTEX
  5
2C7
330
1E8
100
AcDbEntity
  8
0
  6
CONTINUOUS
 62
     7
100
AcDbVertex
100
AcDb2dVertex
 10
8.411114542
 20
6.7056047317
 30
0.0
  0
VERTEX
  5
2C8
330
1E8
100
AcDbEntity
  8
0
  6
CONTINUOUS
 62
     7
100
AcDbVertex
100
AcDb2dVertex
 10
8.4258053568
 20
6.7306865883
 30
0.0
  0
VERTEX
  5
2C9
330
1E8
100
AcDbEntity
  8
0
  6
CONTINUOUS
 62
     7
100
AcDbVertex
100
AcDb2dVertex
 10
8.4412186168
 20
6.7552877534
 30
0.0
  0
VERTEX
  5
2CA
330
1E8
100
AcDbEntity
  8
0
  6
CONTINUOUS
 62
     7
100
AcDbVertex
100
AcDb2dVertex
 10
8.4573132318
 20
6.7793426425
 30
0.0
  0
VERTEX
  5
2CB
330
1E8
100
AcDbEntity
  8
0
  6
CONTINUOUS
 62
     7
100
AcDbVertex
100
AcDb2dVertex
 10
8.4740462949
 20
6.8027871276
 30
0.0
  0
VERTEX
  5
2CC
330
1E8
100
AcDbEntity
  8
0
  6
CONTINUOUS
 62
     7
100
AcDbVertex
100
AcDb2dVertex
 10
8.4913731972
 20
6.8255587077
 30
0.0
  0
VERTEX
  5
2CD
330
1E8
100
AcDbEntity
  8
0
  6
CONTINUOUS
 62
     7
100
AcDbVertex
100
AcDb2dVertex
 10
8.509247747
 20
6.847596676
 30
0.0
  0
VERTEX
  5
2CE
330
1E8
100
AcDbEntity
  8
0
  6
CONTINUOUS
 62
     7
100
AcDbVertex
100
AcDb2dVertex
 10
8.5276222923
 20
6.8688422812
 30
0.0
  0
VERTEX
  5
2CF
330
1E8
100
AcDbEntity
  8
0
  6
CONTINUOUS
 62
     7
100
AcDbVertex
100
AcDb2dVertex
 10
8.5464478482
 20
6.8892388846
 30
0.0
  0
VERTEX
  5
2D0
330
1E8
100
AcDbEntity
  8
0
  6
CONTINUOUS
 62
     7
100
AcDbVertex
100
AcDb2dVertex
 10
8.5656742275
 20
6.9087321106
 30
0.0
  0
VERTEX
  5
2D1
330
1E8
100
AcDbEntity
  8
0
  6
CONTINUOUS
 62
     7
100
AcDbVertex
100
AcDb2dVertex
 10
8.5852501745
 20
6.927269992
 30
0.0
  0
VERTEX
  5
2D2
330
1E8
100
AcDbEntity
  8
0
  6
CONTINUOUS
 62
     7
100
AcDbVertex
100
AcDb2dVertex
 10
8.6051235015
 20
6.9448031087
 30
0.0
  0
VERTEX
  5
2D3
330
1E8
100
AcDbEntity
  8
0
  6
CONTINUOUS
 62
     7
100
AcDbVertex
100
AcDb2dVertex
 10
8.6252412281
 20
6.9612847189
 30
0.0
  0
VERTEX
  5
2D4
330
1E8
100
AcDbEntity
  8
0
  6
CONTINUOUS
 62
     7
100
AcDbVertex
100
AcDb2dVertex
 10
8.6455497221
 20
6.9766708842
 30
0.0
  0
VERTEX
  5
2D5
330
1E8
100
AcDbEntity
  8
0
  6
CONTINUOUS
 62
     7
100
AcDbVertex
100
AcDb2dVertex
 10
8.6659948432
 20
6.9909205865
 30
0.0
  0
VERTEX
  5
2D6
330
1E8
100
AcDbEntity
  8
0
  6
CONTINUOUS
 62
     7
100
AcDbVertex
100
AcDb2dVertex
 10
8.6865220863
 20
7.0039958373
 30
0.0
  0
VERTEX
  5
2D7
330
1E8
100
AcDbEntity
  8
0
  6
CONTINUOUS
 62
     7
100
AcDbVertex
100
AcDb2dVertex
 10
8.7070767279
 20
7.0158617793
 30
0.0
  0
VERTEX
  5
2D8
330
1E8
100
AcDbEntity
  8
0
  6
CONTINUOUS
 62
     7
100
AcDbVertex
100
AcDb2dVertex
 10
8.727603971
 20
7.0264867789
 30
0.0
  0
VERTEX
  5
2D9
330
1E8
100
AcDbEntity
  8
0
  6
CONTINUOUS
 62
     7
100
AcDbVertex
100
AcDb2dVertex
 10
8.748049092
 20
7.035842511
 30
0.0
  0
VERTEX
  5
2DA
330
1E8
100
AcDbEntity
  8
0
  6
CONTINUOUS
 62
     7
100
AcDbVertex
100
AcDb2dVertex
 10
8.7683575861
 20
7.0439040338
 30
0.0
  0
VERTEX
  5
2DB
330
1E8
100
AcDbEntity
  8
0
  6
CONTINUOUS
 62
     7
100
AcDbVertex
100
AcDb2dVertex
 10
8.7884753126
 20
7.0506498563
 30
0.0
  0
VERTEX
  5
2DC
330
1E8
100
AcDbEntity
  8
0
  6
CONTINUOUS
 62
     7
100
AcDbVertex
100
AcDb2dVertex
 10
8.8083486396
 20
7.0560619945
 30
0.0
  0
VERTEX
  5
2DD
330
1E8
100
AcDbEntity
  8
0
  6
CONTINUOUS
 62
     7
100
AcDbVertex
100
AcDb2dVertex
 10
8.8279245866
 20
7.0601260204
 30
0.0
  0
VERTEX
  5
2DE
330
1E8
100
AcDbEntity
  8
0
  6
CONTINUOUS
 62
     7
100
AcDbVertex
100
AcDb2dVertex
 10
8.847150966
 20
7.0628310995
 30
0.0
  0
VERTEX
  5
2DF
330
1E8
100
AcDbEntity
  8
0
  6
CONTINUOUS
 62
     7
100
AcDbVertex
100
AcDb2dVertex
 10
8.8659765219
 20
7.0641700203
 30
0.0
  0
VERTEX
  5
2E0
330
1E8
100
AcDbEntity
  8
0
  6
CONTINUOUS
 62
     7
100
AcDbVertex
100
AcDb2dVertex
 10
8.8843510671
 20
7.0641392135
 30
0.0
  0
VERTEX
  5
2E1
330
1E8
100
AcDbEntity
  8
0
  6
CONTINUOUS
 62
     7
100
AcDbVertex
100
AcDb2dVertex
 10
8.9022256169
 20
7.0627387611
 30
0.0
  0
VERTEX
  5
2E2
330
1E8
100
AcDbEntity
  8
0
  6
CONTINUOUS
 62
     7
100
AcDbVertex
100
AcDb2dVertex
 10
8.9195525193
 20
7.0599723966
 30
0.0
  0
VERTEX
  5
2E3
330
1E8
100
AcDbEntity
  8
0
  6
CONTINUOUS
 62
     7
100
AcDbVertex
100
AcDb2dVertex
 10
8.9362855824
 20
7.0558474949
 30
0.0
  0
VERTEX
  5
2E4
330
1E8
100
AcDbEntity
  8
0
  6
CONTINUOUS
 62
     7
100
AcDbVertex
100
AcDb2dVertex
 10
8.9523801973
 20
7.0503750527
 30
0.0
  0
VERTEX
  5
2E5
330
1E8
100
AcDbEntity
  8
0
  6
CONTINUOUS
 62
     7
100
AcDbVertex
100
AcDb2dVertex
 10
8.9677934574
 20
7.0435696588
 30
0.0
  0
VERTEX
  5
2E6
330
1E8
100
AcDbEntity
  8
0
  6
CONTINUOUS
 62
     7
100
AcDbVertex
100
AcDb2dVertex
 10
8.9824842722
 20
7.035449456
 30
0.0
  0
VERTEX
  5
2E7
330
1E8
100
AcDbEntity
  8
0
  6
CONTINUOUS
 62
     7
100
AcDbVertex
100
AcDb2dVertex
 10
8.9964134774
 20
7.0260360919
 30
0.0
  0
VERTEX
  5
2E8
330
1E8
100
AcDbEntity
  8
0
  6
CONTINUOUS
 62
     7
100
AcDbVertex
100
AcDb2dVertex
 10
9.0095439391
 20
7.0153546616
 30
0.0
  0
VERTEX
  5
2E9
330
1E8
100
AcDbEntity
  8
0
  6
CONTINUOUS
 62
     7
100
AcDbVertex
100
AcDb2dVertex
 10
9.0218406526
 20
7.0034336409
 30
0.0
  0
VERTEX
  5
2EA
330
1E8
100
AcDbEntity
  8
0
  6
CONTINUOUS
 62
     7
100
AcDbVertex
100
AcDb2dVertex
 10
9.033270836
 20
6.9903048101
 30
0.0
  0
VERTEX
  5
2EB
330
1E8
100
AcDbEntity
  8
0
  6
CONTINUOUS
 62
     7
100
AcDbVertex
100
AcDb2dVertex
 10
9.0438040176
 20
6.9760031695
 30
0.0
  0
VERTEX
  5
2EC
330
1E8
100
AcDbEntity
  8
0
  6
CONTINUOUS
 62
     7
100
AcDbVertex
100
AcDb2dVertex
 10
9.0534121167
 20
6.9605668459
 30
0.0
  0
VERTEX
  5
2ED
330
1E8
100
AcDbEntity
  8
0
  6
CONTINUOUS
 62
     7
100
AcDbVertex
100
AcDb2dVertex
 10
9.0620695191
 20
6.9440369912
 30
0.0
  0
VERTEX
  5
2EE
330
1E8
100
AcDbEntity
  8
0
  6
CONTINUOUS
 62
     7
100
AcDbVertex
100
AcDb2dVertex
 10
9.069753145
 20
6.9264576724
 30
0.0
  0
VERTEX
  5
2EF
330
1E8
100
AcDbEntity
  8
0
  6
CONTINUOUS
 62
     7
100
AcDbVertex
100
AcDb2dVertex
 10
9.0764425106
 20
6.9078757544
 30
0.0
  0
VERTEX
  5
2F0
330
1E8
100
AcDbEntity
  8
0
  6
CONTINUOUS
 62
     7
100
AcDbVertex
100
AcDb2dVertex
 10
9.0821197825
 20
6.8883407749
 30
0.0
  0
VERTEX
  5
2F1
330
1E8
100
AcDbEntity
  8
0
  6
CONTINUOUS
 62
     7
100
AcDbVertex
100
AcDb2dVertex
 10
9.0867698257
 20
6.8679048123
 30
0.0
  0
VERTEX
  5
2F2
330
1E8
100
AcDbEntity
  8
0
  6
CONTINUOUS
 62
     7
100
AcDbVertex
100
AcDb2dVertex
 10
9.0903802436
 20
6.846622347
 30
0.0
  0
VERTEX
  5
2F3
330
1E8
100
AcDbEntity
  8
0
  6
CONTINUOUS
 62
     7
100
AcDbVertex
100
AcDb2dVertex
 10
9.0929414112
 20
6.8245501161
 30
0.0
  0
VERTEX
  5
2F4
330
1E8
100
AcDbEntity
  8
0
  6
CONTINUOUS
 62
     7
100
AcDbVertex
100
AcDb2dVertex
 10
9.0944465006
 20
6.8017469622
 30
0.0
  0
VERTEX
  5
2F5
330
1E8
100
AcDbEntity
  8
0
  6
CONTINUOUS
 62
     7
100
AcDbVertex
100
AcDb2dVertex
 10
9.0948949571
 20
6.7801916472
 30
0.0
  0
SEQEND
  5
2F6
330
1E8
100
AcDbEntity
  8
0
  6
CONTINUOUS
 62
     7
  0
LINE
  5
1E9
330
1F
100
AcDbEntity
  8
0
  6
CONTINUOUS
 62
     7
100
AcDbLine
 10
8.7037591195
 20
6.0947579441
 30
0.0
 11
8.7108301873
 21
6.0988425823
 31
0.0
  0
POLYLINE
  5
1EA
330
1F
100
AcDbEntity
  8
0
  6
CONTINUOUS
 62
     7
100
AcDb2dPolyline
 66
     1
 10
0.0
 20
0.0
 30
0.0
  0
VERTEX
  5
2F7
330
1EA
100
AcDbEntity
  8
0
  6
CONTINUOUS
 62
     7
100
AcDbVertex
100
AcDb2dVertex
 10
7.9317545575
 20
7.642096671
 30
0.0
  0
VERTEX
  5
2F8
330
1EA
100
AcDbEntity
  8
0
  6
CONTINUOUS
 62
     7
100
AcDbVertex
100
AcDb2dVertex
 10
7.9298970687
 20
7.6431549185
 30
0.0
  0
VERTEX
  5
2F9
330
1EA
100
AcDbEntity
  8
0
  6
CONTINUOUS
 62
     7
100
AcDbVertex
100
AcDb2dVertex
 10
7.9148984602
 20
7.6507262729
 30
0.0
  0
VERTEX
  5
2FA
330
1EA
100
AcDbEntity
  8
0
  6
CONTINUOUS
 62
     7
100
AcDbVertex
100
AcDb2dVertex
 10
7.8991944068
 20
7.6569747817
 30
0.0
  0
VERTEX
  5
2FB
330
1EA
100
AcDbEntity
  8
0
  6
CONTINUOUS
 62
     7
100
AcDbVertex
100
AcDb2dVertex
 10
7.8828267742
 20
7.6618837868
 30
0.0
  0
VERTEX
  5
2FC
330
1EA
100
AcDbEntity
  8
0
  6
CONTINUOUS
 62
     7
100
AcDbVertex
100
AcDb2dVertex
 10
7.8658391969
 20
7.6654402013
 30
0.0
  0
VERTEX
  5
2FD
330
1EA
100
AcDbEntity
  8
0
  6
CONTINUOUS
 62
     7
100
AcDbVertex
100
AcDb2dVertex
 10
7.8482769623
 20
7.6676345442
 30
0.0
  0
VERTEX
  5
2FE
330
1EA
100
AcDbEntity
  8
0
  6
CONTINUOUS
 62
     7
100
AcDbVertex
100
AcDb2dVertex
 10
7.8301868896
 20
7.6684609655
 30
0.0
  0
VERTEX
  5
2FF
330
1EA
100
AcDbEntity
  8
0
  6
CONTINUOUS
 62
     7
100
AcDbVertex
100
AcDb2dVertex
 10
7.8116172053
 20
7.667917262
 30
0.0
  0
VERTEX
  5
300
330
1EA
100
AcDbEntity
  8
0
  6
CONTINUOUS
 62
     7
100
AcDbVertex
100
AcDb2dVertex
 10
7.7926174146
 20
7.6660048832
 30
0.0
  0
VERTEX
  5
301
330
1EA
100
AcDbEntity
  8
0
  6
CONTINUOUS
 62
     7
100
AcDbVertex
100
AcDb2dVertex
 10
7.773238169
 20
7.6627289274
 30
0.0
  0
VERTEX
  5
302
330
1EA
100
AcDbEntity
  8
0
  6
CONTINUOUS
 62
     7
100
AcDbVertex
100
AcDb2dVertex
 10
7.7535311319
 20
7.6580981279
 30
0.0
  0
VERTEX
  5
303
330
1EA
100
AcDbEntity
  8
0
  6
CONTINUOUS
 62
     7
100
AcDbVertex
100
AcDb2dVertex
 10
7.7335488404
 20
7.65212483
 30
0.0
  0
VERTEX
  5
304
330
1EA
100
AcDbEntity
  8
0
  6
CONTINUOUS
 62
     7
100
AcDbVertex
100
AcDb2dVertex
 10
7.7133445656
 20
7.6448249581
 30
0.0
  0
VERTEX
  5
305
330
1EA
100
AcDbEntity
  8
0
  6
CONTINUOUS
 62
     7
100
AcDbVertex
100
AcDb2dVertex
 10
7.69297217
 20
7.6362179728
 30
0.0
  0
VERTEX
  5
306
330
1EA
100
AcDbEntity
  8
0
  6
CONTINUOUS
 62
     7
100
AcDbVertex
100
AcDb2dVertex
 10
7.6724859647
 20
7.6263268196
 30
0.0
  0
VERTEX
  5
307
330
1EA
100
AcDbEntity
  8
0
  6
CONTINUOUS
 62
     7
100
AcDbVertex
100
AcDb2dVertex
 10
7.651940564
 20
7.6151778674
 30
0.0
  0
VERTEX
  5
308
330
1EA
100
AcDbEntity
  8
0
  6
CONTINUOUS
 62
     7
100
AcDbVertex
100
AcDb2dVertex
 10
7.63139074
 20
7.6028008383
 30
0.0
  0
VERTEX
  5
309
330
1EA
100
AcDbEntity
  8
0
  6
CONTINUOUS
 62
     7
100
AcDbVertex
100
AcDb2dVertex
 10
7.6108912767
 20
7.5892287283
 30
0.0
  0
VERTEX
  5
30A
330
1EA
100
AcDbEntity
  8
0
  6
CONTINUOUS
 62
     7
100
AcDbVertex
100
AcDb2dVertex
 10
7.5904968238
 20
7.5744977194
 30
0.0
  0
VERTEX
  5
30B
330
1EA
100
AcDbEntity
  8
0
  6
CONTINUOUS
 62
     7
100
AcDbVertex
100
AcDb2dVertex
 10
7.570261751
 20
7.5586470832
 30
0.0
  0
VERTEX
  5
30C
330
1EA
100
AcDbEntity
  8
0
  6
CONTINUOUS
 62
     7
100
AcDbVertex
100
AcDb2dVertex
 10
7.5502400032
 20
7.5417190759
 30
0.0
  0
VERTEX
  5
30D
330
1EA
100
AcDbEntity
  8
0
  6
CONTINUOUS
 62
     7
100
AcDbVertex
100
AcDb2dVertex
 10
7.5304849564
 20
7.5237588261
 30
0.0
  0
VERTEX
  5
30E
330
1EA
100
AcDbEntity
  8
0
  6
CONTINUOUS
 62
     7
100
AcDbVertex
100
AcDb2dVertex
 10
7.5110492759
 20
7.5048142141
 30
0.0
  0
VERTEX
  5
30F
330
1EA
100
AcDbEntity
  8
0
  6
CONTINUOUS
 62
     7
100
AcDbVertex
100
AcDb2dVertex
 10
7.4919847753
 20
7.4849357446
 30
0.0
  0
VERTEX
  5
310
330
1EA
100
AcDbEntity
  8
0
  6
CONTINUOUS
 62
     7
100
AcDbVertex
100
AcDb2dVertex
 10
7.4733422789
 20
7.4641764117
 30
0.0
  0
VERTEX
  5
311
330
1EA
100
AcDbEntity
  8
0
  6
CONTINUOUS
 62
     7
100
AcDbVertex
100
AcDb2dVertex
 10
7.4551714858
 20
7.4425915579
 30
0.0
  0
VERTEX
  5
312
330
1EA
100
AcDbEntity
  8
0
  6
CONTINUOUS
 62
     7
100
AcDbVertex
100
AcDb2dVertex
 10
7.4375208378
 20
7.4202387265
 30
0.0
  0
VERTEX
  5
313
330
1EA
100
AcDbEntity
  8
0
  6
CONTINUOUS
 62
     7
100
AcDbVertex
100
AcDb2dVertex
 10
7.4204373898
 20
7.3971775079
 30
0.0
  0
VERTEX
  5
314
330
1EA
100
AcDbEntity
  8
0
  6
CONTINUOUS
 62
     7
100
AcDbVertex
100
AcDb2dVertex
 10
7.4039666847
 20
7.3734693814
 30
0.0
  0
VERTEX
  5
315
330
1EA
100
AcDbEntity
  8
0
  6
CONTINUOUS
 62
     7
100
AcDbVertex
100
AcDb2dVertex
 10
7.3881526319
 20
7.3491775505
 30
0.0
  0
VERTEX
  5
316
330
1EA
100
AcDbEntity
  8
0
  6
CONTINUOUS
 62
     7
100
AcDbVertex
100
AcDb2dVertex
 10
7.3730373903
 20
7.3243667752
 30
0.0
  0
VERTEX
  5
317
330
1EA
100
AcDbEntity
  8
0
  6
CONTINUOUS
 62
     7
100
AcDbVertex
100
AcDb2dVertex
 10
7.3586612556
 20
7.2991031985
 30
0.0
  0
VERTEX
  5
318
330
1EA
100
AcDbEntity
  8
0
  6
CONTINUOUS
 62
     7
100
AcDbVertex
100
AcDb2dVertex
 10
7.3450625533
 20
7.273454171
 30
0.0
  0
VERTEX
  5
319
330
1EA
100
AcDbEntity
  8
0
  6
CONTINUOUS
 62
     7
100
AcDbVertex
100
AcDb2dVertex
 10
7.3322775363
 20
7.2474880705
 30
0.0
  0
VERTEX
  5
31A
330
1EA
100
AcDbEntity
  8
0
  6
CONTINUOUS
 62
     7
100
AcDbVertex
100
AcDb2dVertex
 10
7.3203402884
 20
7.2212741203
 30
0.0
  0
VERTEX
  5
31B
330
1EA
100
AcDbEntity
  8
0
  6
CONTINUOUS
 62
     7
100
AcDbVertex
100
AcDb2dVertex
 10
7.309282633
 20
7.1948822044
 30
0.0
  0
VERTEX
  5
31C
330
1EA
100
AcDbEntity
  8
0
  6
CONTINUOUS
 62
     7
100
AcDbVertex
100
AcDb2dVertex
 10
7.2991340489
 20
7.1683826811
 30
0.0
  0
VERTEX
  5
31D
330
1EA
100
AcDbEntity
  8
0
  6
CONTINUOUS
 62
     7
100
AcDbVertex
100
AcDb2dVertex
 10
7.2899215913
 20
7.1418461959
 30
0.0
  0
VERTEX
  5
31E
330
1EA
100
AcDbEntity
  8
0
  6
CONTINUOUS
 62
     7
100
AcDbVertex
100
AcDb2dVertex
 10
7.2816698197
 20
7.1153434925
 30
0.0
  0
VERTEX
  5
31F
330
1EA
100
AcDbEntity
  8
0
  6
CONTINUOUS
 62
     7
100
AcDbVertex
100
AcDb2dVertex
 10
7.2744007326
 20
7.0889452246
 30
0.0
  0
VERTEX
  5
320
330
1EA
100
AcDbEntity
  8
0
  6
CONTINUOUS
 62
     7
100
AcDbVertex
100
AcDb2dVertex
 10
7.2681337088
 20
7.0627217677
 30
0.0
  0
VERTEX
  5
321
330
1EA
100
AcDbEntity
  8
0
  6
CONTINUOUS
 62
     7
100
AcDbVertex
100
AcDb2dVertex
 10
7.2628854555
 20
7.036743031
 30
0.0
  0
VERTEX
  5
322
330
1EA
100
AcDbEntity
  8
0
  6
CONTINUOUS
 62
     7
100
AcDbVertex
100
AcDb2dVertex
 10
7.2586699641
 20
7.0110782716
 30
0.0
  0
VERTEX
  5
323
330
1EA
100
AcDbEntity
  8
0
  6
CONTINUOUS
 62
     7
100
AcDbVertex
100
AcDb2dVertex
 10
7.2554984727
 20
6.9857959092
 30
0.0
  0
VERTEX
  5
324
330
1EA
100
AcDbEntity
  8
0
  6
CONTINUOUS
 62
     7
100
AcDbVertex
100
AcDb2dVertex
 10
7.2533794362
 20
6.9609633443
 30
0.0
  0
VERTEX
  5
325
330
1EA
100
AcDbEntity
  8
0
  6
CONTINUOUS
 62
     7
100
AcDbVertex
100
AcDb2dVertex
 10
7.2523185038
 20
6.9366467783
 30
0.0
  0
VERTEX
  5
326
330
1EA
100
AcDbEntity
  8
0
  6
CONTINUOUS
 62
     7
100
AcDbVertex
100
AcDb2dVertex
 10
7.2523185038
 20
6.9129110369
 30
0.0
  0
VERTEX
  5
327
330
1EA
100
AcDbEntity
  8
0
  6
CONTINUOUS
 62
     7
100
AcDbVertex
100
AcDb2dVertex
 10
7.2533794362
 20
6.8898193974
 30
0.0
  0
VERTEX
  5
328
330
1EA
100
AcDbEntity
  8
0
  6
CONTINUOUS
 62
     7
100
AcDbVertex
100
AcDb2dVertex
 10
7.2554984727
 20
6.86743342
 30
0.0
  0
VERTEX
  5
329
330
1EA
100
AcDbEntity
  8
0
  6
CONTINUOUS
 62
     7
100
AcDbVertex
100
AcDb2dVertex
 10
7.2586699641
 20
6.8458127837
 30
0.0
  0
VERTEX
  5
32A
330
1EA
100
AcDbEntity
  8
0
  6
CONTINUOUS
 62
     7
100
AcDbVertex
100
AcDb2dVertex
 10
7.2628854555
 20
6.825015127
 30
0.0
  0
VERTEX
  5
32B
330
1EA
100
AcDbEntity
  8
0
  6
CONTINUOUS
 62
     7
100
AcDbVertex
100
AcDb2dVertex
 10
7.2681337088
 20
6.8050958946
 30
0.0
  0
VERTEX
  5
32C
330
1EA
100
AcDbEntity
  8
0
  6
CONTINUOUS
 62
     7
100
AcDbVertex
100
AcDb2dVertex
 10
7.2744007326
 20
6.7861081894
 30
0.0
  0
VERTEX
  5
32D
330
1EA
100
AcDbEntity
  8
0
  6
CONTINUOUS
 62
     7
100
AcDbVertex
100
AcDb2dVertex
 10
7.2816698197
 20
6.7681026309
 30
0.0
  0
VERTEX
  5
32E
330
1EA
100
AcDbEntity
  8
0
  6
CONTINUOUS
 62
     7
100
AcDbVertex
100
AcDb2dVertex
 10
7.2899215913
 20
6.7511272201
 30
0.0
  0
VERTEX
  5
32F
330
1EA
100
AcDbEntity
  8
0
  6
CONTINUOUS
 62
     7
100
AcDbVertex
100
AcDb2dVertex
 10
7.2991340489
 20
6.735227212
 30
0.0
  0
VERTEX
  5
330
330
1EA
100
AcDbEntity
  8
0
  6
CONTINUOUS
 62
     7
100
AcDbVertex
100
AcDb2dVertex
 10
7.309282633
 20
6.7204449945
 30
0.0
  0
VERTEX
  5
331
330
1EA
100
AcDbEntity
  8
0
  6
CONTINUOUS
 62
     7
100
AcDbVertex
100
AcDb2dVertex
 10
7.3203402884
 20
6.7068199758
 30
0.0
  0
VERTEX
  5
332
330
1EA
100
AcDbEntity
  8
0
  6
CONTINUOUS
 62
     7
100
AcDbVertex
100
AcDb2dVertex
 10
7.3322775363
 20
6.6943884787
 30
0.0
  0
VERTEX
  5
333
330
1EA
100
AcDbEntity
  8
0
  6
CONTINUOUS
 62
     7
100
AcDbVertex
100
AcDb2dVertex
 10
7.3450625533
 20
6.6831836446
 30
0.0
  0
VERTEX
  5
334
330
1EA
100
AcDbEntity
  8
0
  6
CONTINUOUS
 62
     7
100
AcDbVertex
100
AcDb2dVertex
 10
7.3586612556
 20
6.6732353445
 30
0.0
  0
VERTEX
  5
335
330
1EA
100
AcDbEntity
  8
0
  6
CONTINUOUS
 62
     7
100
AcDbVertex
100
AcDb2dVertex
 10
7.3688081844
 20
6.6669392905
 30
0.0
  0
SEQEND
  5
336
330
1EA
100
AcDbEntity
  8
0
  6
CONTINUOUS
 62
     7
  0
POLYLINE
  5
1EB
330
1F
100
AcDbEntity
  8
0
  6
CONTINUOUS
 62
     7
100
AcDb2dPolyline
 66
     1
 10
0.0
 20
0.0
 30
0.0
  0
VERTEX
  5
337
330
1EB
100
AcDbEntity
  8
0
  6
CONTINUOUS
 62
     7
100
AcDbVertex
100
AcDb2dVertex
 10
7.6807927501
 20
7.2249416887
 30
0.0
  0
VERTEX
  5
338
330
1EB
100
AcDbEntity
  8
0
  6
CONTINUOUS
 62
     7
100
AcDbVertex
100
AcDb2dVertex
 10
7.6977435903
 20
7.2488023725
 30
0.0
  0
VERTEX
  5
339
330
1EB
100
AcDbEntity
  8
0
  6
CONTINUOUS
 62
     7
100
AcDbVertex
100
AcDb2dVertex
 10
7.7153101418
 20
7.2719729239
 30
0.0
  0
VERTEX
  5
33A
330
1EB
100
AcDbEntity
  8
0
  6
CONTINUOUS
 62
     7
100
AcDbVertex
100
AcDb2dVertex
 10
7.7334440881
 20
7.2943896125
 30
0.0
  0
VERTEX
  5
33B
330
1EB
100
AcDbEntity
  8
0
  6
CONTINUOUS
 62
     7
100
AcDbVertex
100
AcDb2dVertex
 10
7.7520955519
 20
7.3159907813
 30
0.0
  0
VERTEX
  5
33C
330
1EB
100
AcDbEntity
  8
0
  6
CONTINUOUS
 62
     7
100
AcDbVertex
100
AcDb2dVertex
 10
7.7712132325
 20
7.3367170167
 30
0.0
  0
VERTEX
  5
33D
330
1EB
100
AcDbEntity
  8
0
  6
CONTINUOUS
 62
     7
100
AcDbVertex
100
AcDb2dVertex
 10
7.7907445471
 20
7.3565113114
 30
0.0
  0
VERTEX
  5
33E
330
1EB
100
AcDbEntity
  8
0
  6
CONTINUOUS
 62
     7
100
AcDbVertex
100
AcDb2dVertex
 10
7.8106357749
 20
7.3753192213
 30
0.0
  0
VERTEX
  5
33F
330
1EB
100
AcDbEntity
  8
0
  6
CONTINUOUS
 62
     7
100
AcDbVertex
100
AcDb2dVertex
 10
7.8308322054
 20
7.3930890155
 30
0.0
  0
VERTEX
  5
340
330
1EB
100
AcDbEntity
  8
0
  6
CONTINUOUS
 62
     7
100
AcDbVertex
100
AcDb2dVertex
 10
7.8512782883
 20
7.4097718184
 30
0.0
  0
VERTEX
  5
341
330
1EB
100
AcDbEntity
  8
0
  6
CONTINUOUS
 62
     7
100
AcDbVertex
100
AcDb2dVertex
 10
7.8719177871
 20
7.425321744
 30
0.0
  0
VERTEX
  5
342
330
1EB
100
AcDbEntity
  8
0
  6
CONTINUOUS
 62
     7
100
AcDbVertex
100
AcDb2dVertex
 10
7.892693933
 20
7.4396960225
 30
0.0
  0
VERTEX
  5
343
330
1EB
100
AcDbEntity
  8
0
  6
CONTINUOUS
 62
     7
100
AcDbVertex
100
AcDb2dVertex
 10
7.9135495815
 20
7.4528551177
 30
0.0
  0
VERTEX
  5
344
330
1EB
100
AcDbEntity
  8
0
  6
CONTINUOUS
 62
     7
100
AcDbVertex
100
AcDb2dVertex
 10
7.9344273692
 20
7.4647628354
 30
0.0
  0
VERTEX
  5
345
330
1EB
100
AcDbEntity
  8
0
  6
CONTINUOUS
 62
     7
100
AcDbVertex
100
AcDb2dVertex
 10
7.955269872
 20
7.4753864238
 30
0.0
  0
VERTEX
  5
346
330
1EB
100
AcDbEntity
  8
0
  6
CONTINUOUS
 62
     7
100
AcDbVertex
100
AcDb2dVertex
 10
7.976019763
 20
7.4846966626
 30
0.0
  0
VERTEX
  5
347
330
1EB
100
AcDbEntity
  8
0
  6
CONTINUOUS
 62
     7
100
AcDbVertex
100
AcDb2dVertex
 10
7.9966199696
 20
7.4926679443
 30
0.0
  0
VERTEX
  5
348
330
1EB
100
AcDbEntity
  8
0
  6
CONTINUOUS
 62
     7
100
AcDbVertex
100
AcDb2dVertex
 10
8.0170138314
 20
7.4992783438
 30
0.0
  0
VERTEX
  5
349
330
1EB
100
AcDbEntity
  8
0
  6
CONTINUOUS
 62
     7
100
AcDbVertex
100
AcDb2dVertex
 10
8.0371452551
 20
7.5045096794
 30
0.0
  0
VERTEX
  5
34A
330
1EB
100
AcDbEntity
  8
0
  6
CONTINUOUS
 62
     7
100
AcDbVertex
100
AcDb2dVertex
 10
8.0569588695
 20
7.5083475623
 30
0.0
  0
VERTEX
  5
34B
330
1EB
100
AcDbEntity
  8
0
  6
CONTINUOUS
 62
     7
100
AcDbVertex
100
AcDb2dVertex
 10
8.0764001774
 20
7.5107814365
 30
0.0
  0
VERTEX
  5
34C
330
1EB
100
AcDbEntity
  8
0
  6
CONTINUOUS
 62
     7
100
AcDbVertex
100
AcDb2dVertex
 10
8.0954157059
 20
7.5118046075
 30
0.0
  0
VERTEX
  5
34D
330
1EB
100
AcDbEntity
  8
0
  6
CONTINUOUS
 62
     7
100
AcDbVertex
100
AcDb2dVertex
 10
8.1139531527
 20
7.5114142613
 30
0.0
  0
VERTEX
  5
34E
330
1EB
100
AcDbEntity
  8
0
  6
CONTINUOUS
 62
     7
100
AcDbVertex
100
AcDb2dVertex
 10
8.131961531
 20
7.5096114714
 30
0.0
  0
VERTEX
  5
34F
330
1EB
100
AcDbEntity
  8
0
  6
CONTINUOUS
 62
     7
100
AcDbVertex
100
AcDb2dVertex
 10
8.1493913089
 20
7.5064011964
 30
0.0
  0
VERTEX
  5
350
330
1EB
100
AcDbEntity
  8
0
  6
CONTINUOUS
 62
     7
100
AcDbVertex
100
AcDb2dVertex
 10
8.1661945458
 20
7.5017922661
 30
0.0
  0
VERTEX
  5
351
330
1EB
100
AcDbEntity
  8
0
  6
CONTINUOUS
 62
     7
100
AcDbVertex
100
AcDb2dVertex
 10
8.1823250248
 20
7.4957973573
 30
0.0
  0
VERTEX
  5
352
330
1EB
100
AcDbEntity
  8
0
  6
CONTINUOUS
 62
     7
100
AcDbVertex
100
AcDb2dVertex
 10
8.197738379
 20
7.488432959
 30
0.0
  0
VERTEX
  5
353
330
1EB
100
AcDbEntity
  8
0
  6
CONTINUOUS
 62
     7
100
AcDbVertex
100
AcDb2dVertex
 10
8.2099456704
 20
7.4813016755
 30
0.0
  0
SEQEND
  5
354
330
1EB
100
AcDbEntity
  8
0
  6
CONTINUOUS
 62
     7
  0
LINE
  5
1EC
330
1F
100
AcDbEntity
  8
0
  6
CONTINUOUS
 62
     7
100
AcDbLine
 10
7.694712175
 20
7.2169061758
 30
0.0
 11
7.6807927501
 21
7.2249416887
 31
0.0
  0
POLYLINE
  5
1ED
330
1F
100
AcDbEntity
  8
0
  6
CONTINUOUS
 62
     7
100
AcDb2dPolyline
 66
     1
 10
0.0
 20
0.0
 30
0.0
  0
VERTEX
  5
355
330
1ED
100
AcDbEntity
  8
0
  6
CONTINUOUS
 62
     7
100
AcDbVertex
100
AcDb2dVertex
 10
8.216991411
 20
7.4774329404
 30
0.0
  0
VERTEX
  5
356
330
1ED
100
AcDbEntity
  8
0
  6
CONTINUOUS
 62
     7
100
AcDbVertex
100
AcDb2dVertex
 10
8.2052956779
 20
7.4836456796
 30
0.0
  0
VERTEX
  5
357
330
1ED
100
AcDbEntity
  8
0
  6
CONTINUOUS
 62
     7
100
AcDbVertex
100
AcDb2dVertex
 10
8.1898260062
 20
7.4903441876
 30
0.0
  0
VERTEX
  5
358
330
1ED
100
AcDbEntity
  8
0
  6
CONTINUOUS
 62
     7
100
AcDbVertex
100
AcDb2dVertex
 10
8.1736783801
 20
7.4957084484
 30
0.0
  0
VERTEX
  5
359
330
1ED
100
AcDbEntity
  8
0
  6
CONTINUOUS
 62
     7
100
AcDbVertex
100
AcDb2dVertex
 10
8.156895847
 20
7.4997241617
 30
0.0
  0
VERTEX
  5
35A
330
1ED
100
AcDbEntity
  8
0
  6
CONTINUOUS
 62
     7
100
AcDbVertex
100
AcDb2dVertex
 10
8.1395231472
 20
7.5023806218
 30
0.0
  0
VERTEX
  5
35B
330
1ED
100
AcDbEntity
  8
0
  6
CONTINUOUS
 62
     7
100
AcDbVertex
100
AcDb2dVertex
 10
8.1216065945
 20
7.5036707471
 30
0.0
  0
VERTEX
  5
35C
330
1ED
100
AcDbEntity
  8
0
  6
CONTINUOUS
 62
     7
100
AcDbVertex
100
AcDb2dVertex
 10
8.103193952
 20
7.5035910982
 30
0.0
  0
VERTEX
  5
35D
330
1ED
100
AcDbEntity
  8
0
  6
CONTINUOUS
 62
     7
100
AcDbVertex
100
AcDb2dVertex
 10
8.0843343058
 20
7.5021418874
 30
0.0
  0
VERTEX
  5
35E
330
1ED
100
AcDbEntity
  8
0
  6
CONTINUOUS
 62
     7
100
AcDbVertex
100
AcDb2dVertex
 10
8.0650779335
 20
7.4993269782
 30
0.0
  0
VERTEX
  5
35F
330
1ED
100
AcDbEntity
  8
0
  6
CONTINUOUS
 62
     7
100
AcDbVertex
100
AcDb2dVertex
 10
8.0454761703
 20
7.4951538747
 30
0.0
  0
VERTEX
  5
360
330
1ED
100
AcDbEntity
  8
0
  6
CONTINUOUS
 62
     7
100
AcDbVertex
100
AcDb2dVertex
 10
8.0255812722
 20
7.4896337021
 30
0.0
  0
VERTEX
  5
361
330
1ED
100
AcDbEntity
  8
0
  6
CONTINUOUS
 62
     7
100
AcDbVertex
100
AcDb2dVertex
 10
8.0054462766
 20
7.4827811763
 30
0.0
  0
VERTEX
  5
362
330
1ED
100
AcDbEntity
  8
0
  6
CONTINUOUS
 62
     7
100
AcDbVertex
100
AcDb2dVertex
 10
7.9851248611
 20
7.4746145655
 30
0.0
  0
VERTEX
  5
363
330
1ED
100
AcDbEntity
  8
0
  6
CONTINUOUS
 62
     7
100
AcDbVertex
100
AcDb2dVertex
 10
7.9646712002
 20
7.4651556409
 30
0.0
  0
VERTEX
  5
364
330
1ED
100
AcDbEntity
  8
0
  6
CONTINUOUS
 62
     7
100
AcDbVertex
100
AcDb2dVertex
 10
7.9441398208
 20
7.4544296187
 30
0.0
  0
VERTEX
  5
365
330
1ED
100
AcDbEntity
  8
0
  6
CONTINUOUS
 62
     7
100
AcDbVertex
100
AcDb2dVertex
 10
7.9235854573
 20
7.4424650935
 30
0.0
  0
VERTEX
  5
366
330
1ED
100
AcDbEntity
  8
0
  6
CONTINUOUS
 62
     7
100
AcDbVertex
100
AcDb2dVertex
 10
7.9030629051
 20
7.4292939611
 30
0.0
  0
VERTEX
  5
367
330
1ED
100
AcDbEntity
  8
0
  6
CONTINUOUS
 62
     7
100
AcDbVertex
100
AcDb2dVertex
 10
7.882626875
 20
7.4149513342
 30
0.0
  0
VERTEX
  5
368
330
1ED
100
AcDbEntity
  8
0
  6
CONTINUOUS
 62
     7
100
AcDbVertex
100
AcDb2dVertex
 10
7.862331847
 20
7.3994754486
 30
0.0
  0
VERTEX
  5
369
330
1ED
100
AcDbEntity
  8
0
  6
CONTINUOUS
 62
     7
100
AcDbVertex
100
AcDb2dVertex
 10
7.8422319252
 20
7.3829075613
 30
0.0
  0
VERTEX
  5
36A
330
1ED
100
AcDbEntity
  8
0
  6
CONTINUOUS
 62
     7
100
AcDbVertex
100
AcDb2dVertex
 10
7.8223806937
 20
7.3652918401
 30
0.0
  0
VERTEX
  5
36B
330
1ED
100
AcDbEntity
  8
0
  6
CONTINUOUS
 62
     7
100
AcDbVertex
100
AcDb2dVertex
 10
7.8028310735
 20
7.3466752466
 30
0.0
  0
VERTEX
  5
36C
330
1ED
100
AcDbEntity
  8
0
  6
CONTINUOUS
 62
     7
100
AcDbVertex
100
AcDb2dVertex
 10
7.7836351817
 20
7.3271074104
 30
0.0
  0
VERTEX
  5
36D
330
1ED
100
AcDbEntity
  8
0
  6
CONTINUOUS
 62
     7
100
AcDbVertex
100
AcDb2dVertex
 10
7.7648441921
 20
7.306640497
 30
0.0
  0
VERTEX
  5
36E
330
1ED
100
AcDbEntity
  8
0
  6
CONTINUOUS
 62
     7
100
AcDbVertex
100
AcDb2dVertex
 10
7.7465081993
 20
7.2853290689
 30
0.0
  0
VERTEX
  5
36F
330
1ED
100
AcDbEntity
  8
0
  6
CONTINUOUS
 62
     7
100
AcDbVertex
100
AcDb2dVertex
 10
7.728676085
 20
7.2632299397
 30
0.0
  0
VERTEX
  5
370
330
1ED
100
AcDbEntity
  8
0
  6
CONTINUOUS
 62
     7
100
AcDbVertex
100
AcDb2dVertex
 10
7.7113953875
 20
7.2404020231
 30
0.0
  0
VERTEX
  5
371
330
1ED
100
AcDbEntity
  8
0
  6
CONTINUOUS
 62
     7
100
AcDbVertex
100
AcDb2dVertex
 10
7.694712175
 20
7.2169061758
 30
0.0
  0
SEQEND
  5
372
330
1ED
100
AcDbEntity
  8
0
  6
CONTINUOUS
 62
     7
  0
POLYLINE
  5
1EE
330
1F
100
AcDbEntity
  8
0
  6
CONTINUOUS
 62
     7
100
AcDb2dPolyline
 66
     1
 10
0.0
 20
0.0
 30
0.0
  0
VERTEX
  5
373
330
1EE
100
AcDbEntity
  8
0
  6
CONTINUOUS
 62
     7
100
AcDbVertex
100
AcDb2dVertex
 10
8.05977707
 20
6.6775193555
 30
0.0
  0
VERTEX
  5
374
330
1EE
100
AcDbEntity
  8
0
  6
CONTINUOUS
 62
     7
100
AcDbVertex
100
AcDb2dVertex
 10
8.0521560276
 20
6.6511117355
 30
0.0
  0
VERTEX
  5
375
330
1EE
100
AcDbEntity
  8
0
  6
CONTINUOUS
 62
     7
100
AcDbVertex
100
AcDb2dVertex
 10
8.0455274454
 20
6.6248527016
 30
0.0
  0
VERTEX
  5
376
330
1EE
100
AcDbEntity
  8
0
  6
CONTINUOUS
 62
     7
100
AcDbVertex
100
AcDb2dVertex
 10
8.0399089448
 20
6.5988120615
 30
0.0
  0
VERTEX
  5
377
330
1EE
100
AcDbEntity
  8
0
  6
CONTINUOUS
 62
     7
100
AcDbVertex
100
AcDb2dVertex
 10
8.0353154622
 20
6.5730590424
 30
0.0
  0
VERTEX
  5
378
330
1EE
100
AcDbEntity
  8
0
  6
CONTINUOUS
 62
     7
100
AcDbVertex
100
AcDb2dVertex
 10
8.0317592092
 20
6.5476621067
 30
0.0
  0
VERTEX
  5
379
330
1EE
100
AcDbEntity
  8
0
  6
CONTINUOUS
 62
     7
100
AcDbVertex
100
AcDb2dVertex
 10
8.0292496398
 20
6.5226887706
 30
0.0
  0
VERTEX
  5
37A
330
1EE
100
AcDbEntity
  8
0
  6
CONTINUOUS
 62
     7
100
AcDbVertex
100
AcDb2dVertex
 10
8.0277934254
 20
6.4982054236
 30
0.0
  0
VERTEX
  5
37B
330
1EE
100
AcDbEntity
  8
0
  6
CONTINUOUS
 62
     7
100
AcDbVertex
100
AcDb2dVertex
 10
8.0273944373
 20
6.4742771532
 30
0.0
  0
VERTEX
  5
37C
330
1EE
100
AcDbEntity
  8
0
  6
CONTINUOUS
 62
     7
100
AcDbVertex
100
AcDb2dVertex
 10
8.0280537362
 20
6.4509675707
 30
0.0
  0
VERTEX
  5
37D
330
1EE
100
AcDbEntity
  8
0
  6
CONTINUOUS
 62
     7
100
AcDbVertex
100
AcDb2dVertex
 10
8.0297695693
 20
6.4283386432
 30
0.0
  0
VERTEX
  5
37E
330
1EE
100
AcDbEntity
  8
0
  6
CONTINUOUS
 62
     7
100
AcDbVertex
100
AcDb2dVertex
 10
8.0325373754
 20
6.4064505279
 30
0.0
  0
VERTEX
  5
37F
330
1EE
100
AcDbEntity
  8
0
  6
CONTINUOUS
 62
     7
100
AcDbVertex
100
AcDb2dVertex
 10
8.0363497963
 20
6.3853614128
 30
0.0
  0
VERTEX
  5
380
330
1EE
100
AcDbEntity
  8
0
  6
CONTINUOUS
 62
     7
100
AcDbVertex
100
AcDb2dVertex
 10
8.041196697
 20
6.3651273618
 30
0.0
  0
VERTEX
  5
381
330
1EE
100
AcDbEntity
  8
0
  6
CONTINUOUS
 62
     7
100
AcDbVertex
100
AcDb2dVertex
 10
8.0470651924
 20
6.3458021658
 30
0.0
  0
VERTEX
  5
382
330
1EE
100
AcDbEntity
  8
0
  6
CONTINUOUS
 62
     7
100
AcDbVertex
100
AcDb2dVertex
 10
8.0539396815
 20
6.3274371992
 30
0.0
  0
VERTEX
  5
383
330
1EE
100
AcDbEntity
  8
0
  6
CONTINUOUS
 62
     7
100
AcDbVertex
100
AcDb2dVertex
 10
8.061801889
 20
6.3100812841
 30
0.0
  0
VERTEX
  5
384
330
1EE
100
AcDbEntity
  8
0
  6
CONTINUOUS
 62
     7
100
AcDbVertex
100
AcDb2dVertex
 10
8.0706309137
 20
6.2937805599
 30
0.0
  0
VERTEX
  5
385
330
1EE
100
AcDbEntity
  8
0
  6
CONTINUOUS
 62
     7
100
AcDbVertex
100
AcDb2dVertex
 10
8.0804032844
 20
6.2785783609
 30
0.0
  0
VERTEX
  5
386
330
1EE
100
AcDbEntity
  8
0
  6
CONTINUOUS
 62
     7
100
AcDbVertex
100
AcDb2dVertex
 10
8.0910930218
 20
6.2645151011
 30
0.0
  0
VERTEX
  5
387
330
1EE
100
AcDbEntity
  8
0
  6
CONTINUOUS
 62
     7
100
AcDbVertex
100
AcDb2dVertex
 10
8.1026717082
 20
6.2516281665
 30
0.0
  0
VERTEX
  5
388
330
1EE
100
AcDbEntity
  8
0
  6
CONTINUOUS
 62
     7
100
AcDbVertex
100
AcDb2dVertex
 10
8.1151085623
 20
6.2399518163
 30
0.0
  0
VERTEX
  5
389
330
1EE
100
AcDbEntity
  8
0
  6
CONTINUOUS
 62
     7
100
AcDbVertex
100
AcDb2dVertex
 10
8.1283705218
 20
6.229517091
 30
0.0
  0
VERTEX
  5
38A
330
1EE
100
AcDbEntity
  8
0
  6
CONTINUOUS
 62
     7
100
AcDbVertex
100
AcDb2dVertex
 10
8.1424223306
 20
6.2203517308
 30
0.0
  0
VERTEX
  5
38B
330
1EE
100
AcDbEntity
  8
0
  6
CONTINUOUS
 62
     7
100
AcDbVertex
100
AcDb2dVertex
 10
8.1440087918
 20
6.2194255054
 30
0.0
  0
SEQEND
  5
38C
330
1EE
100
AcDbEntity
  8
0
  6
CONTINUOUS
 62
     7
  0
LINE
  5
1EF
330
1F
100
AcDbEntity
  8
0
  6
CONTINUOUS
 62
     7
100
AcDbLine
 10
8.0458576452
 20
6.6855548684
 30
0.0
 11
8.05977707
 21
6.6775193555
 31
0.0
  0
POLYLINE
  5
1F0
330
1F
100
AcDbEntity
  8
0
  6
CONTINUOUS
 62
     7
100
AcDb2dPolyline
 66
     1
 10
0.0
 20
0.0
 30
0.0
  0
VERTEX
  5
38D
330
1F0
100
AcDbEntity
  8
0
  6
CONTINUOUS
 62
     7
100
AcDbVertex
100
AcDb2dVertex
 10
8.1371351076
 20
6.2235922832
 30
0.0
  0
VERTEX
  5
38E
330
1F0
100
AcDbEntity
  8
0
  6
CONTINUOUS
 62
     7
100
AcDbVertex
100
AcDb2dVertex
 10
8.1314808696
 20
6.2266656232
 30
0.0
  0
VERTEX
  5
38F
330
1F0
100
AcDbEntity
  8
0
  6
CONTINUOUS
 62
     7
100
AcDbVertex
100
AcDb2dVertex
 10
8.1171482093
 20
6.2356525652
 30
0.0
  0
VERTEX
  5
390
330
1F0
100
AcDbEntity
  8
0
  6
CONTINUOUS
 62
     7
100
AcDbVertex
100
AcDb2dVertex
 10
8.1036122542
 20
6.2459367613
 30
0.0
  0
VERTEX
  5
391
330
1F0
100
AcDbEntity
  8
0
  6
CONTINUOUS
 62
     7
100
AcDbVertex
100
AcDb2dVertex
 10
8.0909096334
 20
6.2574903819
 30
0.0
  0
VERTEX
  5
392
330
1F0
100
AcDbEntity
  8
0
  6
CONTINUOUS
 62
     7
100
AcDbVertex
100
AcDb2dVertex
 10
8.0790747213
 20
6.2702821619
 30
0.0
  0
VERTEX
  5
393
330
1F0
100
AcDbEntity
  8
0
  6
CONTINUOUS
 62
     7
100
AcDbVertex
100
AcDb2dVertex
 10
8.0681395437
 20
6.2842774861
 30
0.0
  0
VERTEX
  5
394
330
1F0
100
AcDbEntity
  8
0
  6
CONTINUOUS
 62
     7
100
AcDbVertex
100
AcDb2dVertex
 10
8.0581336922
 20
6.299438482
 30
0.0
  0
VERTEX
  5
395
330
1F0
100
AcDbEntity
  8
0
  6
CONTINUOUS
 62
     7
100
AcDbVertex
100
AcDb2dVertex
 10
8.0490842431
 20
6.315724123
 30
0.0
  0
VERTEX
  5
396
330
1F0
100
AcDbEntity
  8
0
  6
CONTINUOUS
 62
     7
100
AcDbVertex
100
AcDb2dVertex
 10
8.0410156849
 20
6.3330903391
 30
0.0
  0
VERTEX
  5
397
330
1F0
100
AcDbEntity
  8
0
  6
CONTINUOUS
 62
     7
100
AcDbVertex
100
AcDb2dVertex
 10
8.0339498516
 20
6.3514901361
 30
0.0
  0
VERTEX
  5
398
330
1F0
100
AcDbEntity
  8
0
  6
CONTINUOUS
 62
     7
100
AcDbVertex
100
AcDb2dVertex
 10
8.0279058639
 20
6.3708737229
 30
0.0
  0
VERTEX
  5
399
330
1F0
100
AcDbEntity
  8
0
  6
CONTINUOUS
 62
     7
100
AcDbVertex
100
AcDb2dVertex
 10
8.0229000773
 20
6.3911886462
 30
0.0
  0
VERTEX
  5
39A
330
1F0
100
AcDbEntity
  8
0
  6
CONTINUOUS
 62
     7
100
AcDbVertex
100
AcDb2dVertex
 10
8.0189460377
 20
6.4123799325
 30
0.0
  0
VERTEX
  5
39B
330
1F0
100
AcDbEntity
  8
0
  6
CONTINUOUS
 62
     7
100
AcDbVertex
100
AcDb2dVertex
 10
8.016054445
 20
6.4343902366
 30
0.0
  0
VERTEX
  5
39C
330
1F0
100
AcDbEntity
  8
0
  6
CONTINUOUS
 62
     7
100
AcDbVertex
100
AcDb2dVertex
 10
8.0142331241
 20
6.4571599973
 30
0.0
  0
VERTEX
  5
39D
330
1F0
100
AcDbEntity
  8
0
  6
CONTINUOUS
 62
     7
100
AcDbVertex
100
AcDb2dVertex
 10
8.0134870035
 20
6.4806275979
 30
0.0
  0
VERTEX
  5
39E
330
1F0
100
AcDbEntity
  8
0
  6
CONTINUOUS
 62
     7
100
AcDbVertex
100
AcDb2dVertex
 10
8.0138181024
 20
6.5047295336
 30
0.0
  0
VERTEX
  5
39F
330
1F0
100
AcDbEntity
  8
0
  6
CONTINUOUS
 62
     7
100
AcDbVertex
100
AcDb2dVertex
 10
8.0152255248
 20
6.5294005829
 30
0.0
  0
VERTEX
  5
3A0
330
1F0
100
AcDbEntity
  8
0
  6
CONTINUOUS
 62
     7
100
AcDbVertex
100
AcDb2dVertex
 10
8.017705462
 20
6.5545739842
 30
0.0
  0
VERTEX
  5
3A1
330
1F0
100
AcDbEntity
  8
0
  6
CONTINUOUS
 62
     7
100
AcDbVertex
100
AcDb2dVertex
 10
8.0212512033
 20
6.5801816167
 30
0.0
  0
VERTEX
  5
3A2
330
1F0
100
AcDbEntity
  8
0
  6
CONTINUOUS
 62
     7
100
AcDbVertex
100
AcDb2dVertex
 10
8.0258531535
 20
6.6061541844
 30
0.0
  0
VERTEX
  5
3A3
330
1F0
100
AcDbEntity
  8
0
  6
CONTINUOUS
 62
     7
100
AcDbVertex
100
AcDb2dVertex
 10
8.0314988595
 20
6.6324214036
 30
0.0
  0
VERTEX
  5
3A4
330
1F0
100
AcDbEntity
  8
0
  6
CONTINUOUS
 62
     7
100
AcDbVertex
100
AcDb2dVertex
 10
8.0381730437
 20
6.6589121936
 30
0.0
  0
VERTEX
  5
3A5
330
1F0
100
AcDbEntity
  8
0
  6
CONTINUOUS
 62
     7
100
AcDbVertex
100
AcDb2dVertex
 10
8.0458576452
 20
6.6855548684
 30
0.0
  0
SEQEND
  5
3A6
330
1F0
100
AcDbEntity
  8
0
  6
CONTINUOUS
 62
     7
  0
LINE
  5
1F1
330
1F
100
AcDbEntity
  8
0
  6
CONTINUOUS
 62
     7
100
AcDbLine
 10
8.7037591195
 20
6.0947579441
 30
0.0
 11
8.6969107625
 21
6.0987114164
 31
0.0
  0
SPLINE
  5
1F2
330
1F
100
AcDbEntity
  8
0
  6
CONTINUOUS
 62
     7
100
AcDbSpline
210
0.0
220
0.0
230
1.0
 70
     8
 71
     3
 72
    36
 73
    32
 74
     0
 42
0.00000001
 43
0.00000001
 40
0.0
 40
0.0
 40
0.0
 40
0.0
 40
0.0174770615427557
 40
0.0419946109059476
 40
0.0770706440650305
 40
0.1131384343895533
 40
0.1593988340719075
 40
0.2069892555363221
 40
0.2538380689423216
 40
0.3019508224523841
 40
0.3427640189223612
 40
0.3846786442975181
 40
0.4187893379476408
 40
0.4538258633778267
 40
0.4879770875098803
 40
0.5234283579897956
 40
0.5531717301366487
 40
0.5839601411725206
 40
0.6110328383255306
 40
0.6389223459258319
 40
0.6655420121992909
 40
0.6928709014105018
 40
0.7207552457214419
 40
0.7493109129066469
 40
0.7800711904471086
 40
0.8115153342007128
 40
0.8468463386757523
 40
0.8829300764460837
 40
0.9243492015443765
 40
0.9666845130425655
 40
1.0
 40
1.0
 40
1.0
 40
1.0
 10
8.082090051724025
 20
7.555228935167333
 30
0.0
 10
8.08303378270942
 20
7.554700015298209
 30
0.0
 10
8.085301418801137
 20
7.553429104621954
 30
0.0
 10
8.088006911153325
 20
7.551909799799172
 30
0.0
 10
8.089935783576502
 20
7.55074914768391
 30
0.0
 10
8.090144304170403
 20
7.550327460407257
 30
0.0
 10
8.088032812365366
 20
7.5508094176519
 30
0.0
 10
8.083142440942021
 20
7.552241096642841
 30
0.0
 10
8.0757396825294
 20
7.554451535380547
 30
0.0
 10
8.066454306660194
 20
7.557221730090577
 30
0.0
 10
8.055614497744111
 20
7.560486532094424
 30
0.0
 10
8.044477863633425
 20
7.563927913829775
 30
0.0
 10
8.032838676260008
 20
7.567688538511081
 30
0.0
 10
8.021336803156844
 20
7.571623921348203
 30
0.0
 10
8.009345594877416
 20
7.576051224080765
 30
0.0
 10
7.998043512822808
 20
7.580643780366597
 30
0.0
 10
7.987683696992765
 20
7.585339123914406
 30
0.0
 10
7.97903838529712
 20
7.589748513667674
 30
0.0
 10
7.971659951891793
 20
7.594044112484051
 30
0.0
 10
7.965815920201762
 20
7.59799551598214
 30
0.0
 10
7.961272750635652
 20
7.601693710682022
 30
0.0
 10
7.958101584425759
 20
7.605016502806529
 30
0.0
 10
7.956298706105772
 20
7.607920016993083
 30
0.0
 10
7.955898985536835
 20
7.610327566026625
 30
0.0
 10
7.956982853941394
 20
7.612099458413283
 30
0.0
 10
7.959660108044421
 20
7.61314223834359
 30
0.0
 10
7.963982271480861
 20
7.613263080649572
 30
0.0
 10
7.970196173544635
 20
7.612295384973249
 30
0.0
 10
7.978259712882098
 20
7.610020356722313
 30
0.0
 10
7.987229929864285
 20
7.606770978740858
 30
0.0
 10
7.993896507410064
 20
7.603741868539331
 30
0.0
 10
7.996832369050803
 20
7.60240789343964
 30
0.0
  0
SPLINE
  5
1F3
330
1F
100
AcDbEntity
  8
0
  6
CONTINUOUS
 62
     7
100
AcDbSpline
210
0.0
220
0.0
230
1.0
 70
     8
 71
     3
 72
    10
 73
     6
 74
     0
 42
0.00000001
 43
0.00000001
 40
0.0
 40
0.0
 40
0.0
 40
0.0
 40
0.4086277523514452
 40
0.8275453147076046
 40
1.0
 40
1.0
 40
1.0
 40
1.0
 10
8.338013581358776
 20
6.113466754931133
 30
0.0
 10
8.342308136460268
 20
6.10953313077669
 30
0.0
 10
8.351005389479774
 20
6.101566828389988
 30
0.0
 10
8.359366353762367
 20
6.095070532857871
 30
0.0
 10
8.362632072371953
 20
6.09340950818709
 30
0.0
 10
8.363584414111543
 20
6.092925123794685
 30
0.0
  0
POLYLINE
  5
1F4
330
1F
100
AcDbEntity
  8
0
  6
CONTINUOUS
 62
     7
100
AcDb2dPolyline
 66
     1
 10
0.0
 20
0.0
 30
0.0
  0
VERTEX
  5
3A7
330
1F4
100
AcDbEntity
  8
0
  6
CONTINUOUS
 62
     7
100
AcDbVertex
100
AcDb2dVertex
 10
8.2162643706
 20
6.1782777075
 30
0.0
  0
VERTEX
  5
3A8
330
1F4
100
AcDbEntity
  8
0
  6
CONTINUOUS
 62
     7
100
AcDbVertex
100
AcDb2dVertex
 10
8.2021088148
 20
6.1858853438
 30
0.0
  0
VERTEX
  5
3A9
330
1F4
100
AcDbEntity
  8
0
  6
CONTINUOUS
 62
     7
100
AcDbVertex
100
AcDb2dVertex
 10
8.1898062585
 20
6.1933104299
 30
0.0
  0
VERTEX
  5
3AA
330
1F4
100
AcDbEntity
  8
0
  6
CONTINUOUS
 62
     7
100
AcDbVertex
100
AcDb2dVertex
 10
8.178528723
 20
6.2007755635
 30
0.0
  0
VERTEX
  5
3AB
330
1F4
100
AcDbEntity
  8
0
  6
CONTINUOUS
 62
     7
100
AcDbVertex
100
AcDb2dVertex
 10
8.1681189725
 20
6.2084604603
 30
0.0
  0
VERTEX
  5
3AC
330
1F4
100
AcDbEntity
  8
0
  6
CONTINUOUS
 62
     7
100
AcDbVertex
100
AcDb2dVertex
 10
8.1590661083
 20
6.2160730018
 30
0.0
  0
VERTEX
  5
3AD
330
1F4
100
AcDbEntity
  8
0
  6
CONTINUOUS
 62
     7
100
AcDbVertex
100
AcDb2dVertex
 10
8.1483427837
 20
6.2271835631
 30
0.0
  0
VERTEX
  5
3AE
330
1F4
100
AcDbEntity
  8
0
  6
CONTINUOUS
 62
     7
100
AcDbVertex
100
AcDb2dVertex
 10
8.1415187162
 20
6.2376637551
 30
0.0
  0
VERTEX
  5
3AF
330
1F4
100
AcDbEntity
  8
0
  6
CONTINUOUS
 62
     7
100
AcDbVertex
100
AcDb2dVertex
 10
8.1394854962
 20
6.2450820547
 30
0.0
  0
VERTEX
  5
3B0
330
1F4
100
AcDbEntity
  8
0
  6
CONTINUOUS
 62
     7
100
AcDbVertex
100
AcDb2dVertex
 10
8.1410272277
 20
6.2510192535
 30
0.0
  0
VERTEX
  5
3B1
330
1F4
100
AcDbEntity
  8
0
  6
CONTINUOUS
 62
     7
100
AcDbVertex
100
AcDb2dVertex
 10
8.1461388007
 20
6.2546255676
 30
0.0
  0
VERTEX
  5
3B2
330
1F4
100
AcDbEntity
  8
0
  6
CONTINUOUS
 62
     7
100
AcDbVertex
100
AcDb2dVertex
 10
8.1550418016
 20
6.255579193
 30
0.0
  0
VERTEX
  5
3B3
330
1F4
100
AcDbEntity
  8
0
  6
CONTINUOUS
 62
     7
100
AcDbVertex
100
AcDb2dVertex
 10
8.1654127849
 20
6.253814841
 30
0.0
  0
VERTEX
  5
3B4
330
1F4
100
AcDbEntity
  8
0
  6
CONTINUOUS
 62
     7
100
AcDbVertex
100
AcDb2dVertex
 10
8.1783007561
 20
6.2493268033
 30
0.0
  0
VERTEX
  5
3B5
330
1F4
100
AcDbEntity
  8
0
  6
CONTINUOUS
 62
     7
100
AcDbVertex
100
AcDb2dVertex
 10
8.1915888385
 20
6.2428780543
 30
0.0
  0
VERTEX
  5
3B6
330
1F4
100
AcDbEntity
  8
0
  6
CONTINUOUS
 62
     7
100
AcDbVertex
100
AcDb2dVertex
 10
8.2063517168
 20
6.2340409921
 30
0.0
  0
VERTEX
  5
3B7
330
1F4
100
AcDbEntity
  8
0
  6
CONTINUOUS
 62
     7
100
AcDbVertex
100
AcDb2dVertex
 10
8.2210721801
 20
6.2237738624
 30
0.0
  0
VERTEX
  5
3B8
330
1F4
100
AcDbEntity
  8
0
  6
CONTINUOUS
 62
     7
100
AcDbVertex
100
AcDb2dVertex
 10
8.2364598903
 20
6.2117107775
 30
0.0
  0
VERTEX
  5
3B9
330
1F4
100
AcDbEntity
  8
0
  6
CONTINUOUS
 62
     7
100
AcDbVertex
100
AcDb2dVertex
 10
8.2514291072
 20
6.1988486751
 30
0.0
  0
VERTEX
  5
3BA
330
1F4
100
AcDbEntity
  8
0
  6
CONTINUOUS
 62
     7
100
AcDbVertex
100
AcDb2dVertex
 10
8.2663966094
 20
6.1850470194
 30
0.0
  0
VERTEX
  5
3BB
330
1F4
100
AcDbEntity
  8
0
  6
CONTINUOUS
 62
     7
100
AcDbVertex
100
AcDb2dVertex
 10
8.2808036983
 20
6.1710468673
 30
0.0
  0
VERTEX
  5
3BC
330
1F4
100
AcDbEntity
  8
0
  6
CONTINUOUS
 62
     7
100
AcDbVertex
100
AcDb2dVertex
 10
8.2946673554
 20
6.1571003787
 30
0.0
  0
VERTEX
  5
3BD
330
1F4
100
AcDbEntity
  8
0
  6
CONTINUOUS
 62
     7
100
AcDbVertex
100
AcDb2dVertex
 10
8.3081404311
 20
6.1433164021
 30
0.0
  0
VERTEX
  5
3BE
330
1F4
100
AcDbEntity
  8
0
  6
CONTINUOUS
 62
     7
100
AcDbVertex
100
AcDb2dVertex
 10
8.3206307102
 20
6.1305711544
 30
0.0
  0
VERTEX
  5
3BF
330
1F4
100
AcDbEntity
  8
0
  6
CONTINUOUS
 62
     7
100
AcDbVertex
100
AcDb2dVertex
 10
8.3297029045
 20
6.1214994971
 30
0.0
  0
VERTEX
  5
3C0
330
1F4
100
AcDbEntity
  8
0
  6
CONTINUOUS
 62
     7
100
AcDbVertex
100
AcDb2dVertex
 10
8.3380135814
 20
6.1134667549
 30
0.0
  0
VERTEX
  5
3C1
330
1F4
100
AcDbEntity
  8
0
  6
CONTINUOUS
 62
     7
100
AcDbVertex
100
AcDb2dVertex
 10
8.3380135814
 20
6.1134667549
 30
0.0
  0
SEQEND
  5
3C2
330
1F4
100
AcDbEntity
  8
0
  6
CONTINUOUS
 62
     7
  0
POLYLINE
  5
1F5
330
1F
100
AcDbEntity
  8
0
  6
CONTINUOUS
 62
     7
100
AcDb2dPolyline
 66
     1
 10
0.0
 20
0.0
 30
0.0
  0
VERTEX
  5
3C3
330
1F5
100
AcDbEntity
  8
0
  6
CONTINUOUS
 62
     7
100
AcDbVertex
100
AcDb2dVertex
 10
8.6969107625
 20
6.43797813
 30
0.0
  0
VERTEX
  5
3C4
330
1F5
100
AcDbEntity
  8
0
  6
CONTINUOUS
 62
     7
100
AcDbVertex
100
AcDb2dVertex
 10
8.6870863417
 20
6.433808634
 30
0.0
  0
VERTEX
  5
3C5
330
1F5
100
AcDbEntity
  8
0
  6
CONTINUOUS
 62
     7
100
AcDbVertex
100
AcDb2dVertex
 10
8.677462794
 20
6.4309853664
 30
0.0
  0
VERTEX
  5
3C6
330
1F5
100
AcDbEntity
  8
0
  6
CONTINUOUS
 62
     7
100
AcDbVertex
100
AcDb2dVertex
 10
8.6681552945
 20
6.4295421161
 30
0.0
  0
VERTEX
  5
3C7
330
1F5
100
AcDbEntity
  8
0
  6
CONTINUOUS
 62
     7
100
AcDbVertex
100
AcDb2dVertex
 10
8.6592752356
 20
6.4294961561
 30
0.0
  0
VERTEX
  5
3C8
330
1F5
100
AcDbEntity
  8
0
  6
CONTINUOUS
 62
     7
100
AcDbVertex
100
AcDb2dVertex
 10
8.6509288943
 20
6.4308480364
 30
0.0
  0
VERTEX
  5
3C9
330
1F5
100
AcDbEntity
  8
0
  6
CONTINUOUS
 62
     7
100
AcDbVertex
100
AcDb2dVertex
 10
8.6432161598
 20
6.4335815775
 30
0.0
  0
VERTEX
  5
3CA
330
1F5
100
AcDbEntity
  8
0
  6
CONTINUOUS
 62
     7
100
AcDbVertex
100
AcDb2dVertex
 10
8.6362293384
 20
6.4376640645
 30
0.0
  0
VERTEX
  5
3CB
330
1F5
100
AcDbEntity
  8
0
  6
CONTINUOUS
 62
     7
100
AcDbVertex
100
AcDb2dVertex
 10
8.6300520487
 20
6.4430466379
 30
0.0
  0
VERTEX
  5
3CC
330
1F5
100
AcDbEntity
  8
0
  6
CONTINUOUS
 62
     7
100
AcDbVertex
100
AcDb2dVertex
 10
8.6247582208
 20
6.449664879
 30
0.0
  0
VERTEX
  5
3CD
330
1F5
100
AcDbEntity
  8
0
  6
CONTINUOUS
 62
     7
100
AcDbVertex
100
AcDb2dVertex
 10
8.6204112113
 20
6.4574395802
 30
0.0
  0
VERTEX
  5
3CE
330
1F5
100
AcDbEntity
  8
0
  6
CONTINUOUS
 62
     7
100
AcDbVertex
100
AcDb2dVertex
 10
8.6170630454
 20
6.4662776938
 30
0.0
  0
VERTEX
  5
3CF
330
1F5
100
AcDbEntity
  8
0
  6
CONTINUOUS
 62
     7
100
AcDbVertex
100
AcDb2dVertex
 10
8.6147537942
 20
6.4760734449
 30
0.0
  0
VERTEX
  5
3D0
330
1F5
100
AcDbEntity
  8
0
  6
CONTINUOUS
 62
     7
100
AcDbVertex
100
AcDb2dVertex
 10
8.6135110948
 20
6.4867095974
 30
0.0
  0
VERTEX
  5
3D1
330
1F5
100
AcDbEntity
  8
0
  6
CONTINUOUS
 62
     7
100
AcDbVertex
100
AcDb2dVertex
 10
8.6133498198
 20
6.4980588576
 30
0.0
  0
VERTEX
  5
3D2
330
1F5
100
AcDbEntity
  8
0
  6
CONTINUOUS
 62
     7
100
AcDbVertex
100
AcDb2dVertex
 10
8.6142718996
 20
6.5099853971
 30
0.0
  0
VERTEX
  5
3D3
330
1F5
100
AcDbEntity
  8
0
  6
CONTINUOUS
 62
     7
100
AcDbVertex
100
AcDb2dVertex
 10
8.6162662984
 20
6.5223464786
 30
0.0
  0
VERTEX
  5
3D4
330
1F5
100
AcDbEntity
  8
0
  6
CONTINUOUS
 62
     7
100
AcDbVertex
100
AcDb2dVertex
 10
8.6193091474
 20
6.5349941641
 30
0.0
  0
VERTEX
  5
3D5
330
1F5
100
AcDbEntity
  8
0
  6
CONTINUOUS
 62
     7
100
AcDbVertex
100
AcDb2dVertex
 10
8.6233640296
 20
6.5477770858
 30
0.0
  0
VERTEX
  5
3D6
330
1F5
100
AcDbEntity
  8
0
  6
CONTINUOUS
 62
     7
100
AcDbVertex
100
AcDb2dVertex
 10
8.6283824159
 20
6.5605422571
 30
0.0
  0
VERTEX
  5
3D7
330
1F5
100
AcDbEntity
  8
0
  6
CONTINUOUS
 62
     7
100
AcDbVertex
100
AcDb2dVertex
 10
8.6343042462
 20
6.573136904
 30
0.0
  0
VERTEX
  5
3D8
330
1F5
100
AcDbEntity
  8
0
  6
CONTINUOUS
 62
     7
100
AcDbVertex
100
AcDb2dVertex
 10
8.6410586478
 20
6.5854102932
 30
0.0
  0
VERTEX
  5
3D9
330
1F5
100
AcDbEntity
  8
0
  6
CONTINUOUS
 62
     7
100
AcDbVertex
100
AcDb2dVertex
 10
8.6485647837
 20
6.5972155364
 30
0.0
  0
VERTEX
  5
3DA
330
1F5
100
AcDbEntity
  8
0
  6
CONTINUOUS
 62
     7
100
AcDbVertex
100
AcDb2dVertex
 10
8.6567328202
 20
6.6084113479
 30
0.0
  0
VERTEX
  5
3DB
330
1F5
100
AcDbEntity
  8
0
  6
CONTINUOUS
 62
     7
100
AcDbVertex
100
AcDb2dVertex
 10
8.665465002
 20
6.618863736
 30
0.0
  0
VERTEX
  5
3DC
330
1F5
100
AcDbEntity
  8
0
  6
CONTINUOUS
 62
     7
100
AcDbVertex
100
AcDb2dVertex
 10
8.6746568219
 20
6.6284476059
 30
0.0
  0
VERTEX
  5
3DD
330
1F5
100
AcDbEntity
  8
0
  6
CONTINUOUS
 62
     7
100
AcDbVertex
100
AcDb2dVertex
 10
8.684198272
 20
6.6370482576
 30
0.0
  0
VERTEX
  5
3DE
330
1F5
100
AcDbEntity
  8
0
  6
CONTINUOUS
 62
     7
100
AcDbVertex
100
AcDb2dVertex
 10
8.6939751597
 20
6.6445627581
 30
0.0
  0
VERTEX
  5
3DF
330
1F5
100
AcDbEntity
  8
0
  6
CONTINUOUS
 62
     7
100
AcDbVertex
100
AcDb2dVertex
 10
8.7038704749
 20
6.6509011737
 30
0.0
  0
VERTEX
  5
3E0
330
1F5
100
AcDbEntity
  8
0
  6
CONTINUOUS
 62
     7
100
AcDbVertex
100
AcDb2dVertex
 10
8.7137657901
 20
6.6559876459
 30
0.0
  0
VERTEX
  5
3E1
330
1F5
100
AcDbEntity
  8
0
  6
CONTINUOUS
 62
     7
100
AcDbVertex
100
AcDb2dVertex
 10
8.7235426778
 20
6.6597612996
 30
0.0
  0
VERTEX
  5
3E2
330
1F5
100
AcDbEntity
  8
0
  6
CONTINUOUS
 62
     7
100
AcDbVertex
100
AcDb2dVertex
 10
8.7330841278
 20
6.6621769716
 30
0.0
  0
VERTEX
  5
3E3
330
1F5
100
AcDbEntity
  8
0
  6
CONTINUOUS
 62
     7
100
AcDbVertex
100
AcDb2dVertex
 10
8.7422759478
 20
6.6632057511
 30
0.0
  0
VERTEX
  5
3E4
330
1F5
100
AcDbEntity
  8
0
  6
CONTINUOUS
 62
     7
100
AcDbVertex
100
AcDb2dVertex
 10
8.7510081295
 20
6.6628353255
 30
0.0
  0
VERTEX
  5
3E5
330
1F5
100
AcDbEntity
  8
0
  6
CONTINUOUS
 62
     7
100
AcDbVertex
100
AcDb2dVertex
 10
8.7591761661
 20
6.6610701282
 30
0.0
  0
VERTEX
  5
3E6
330
1F5
100
AcDbEntity
  8
0
  6
CONTINUOUS
 62
     7
100
AcDbVertex
100
AcDb2dVertex
 10
8.766682302
 20
6.6579312851
 30
0.0
  0
VERTEX
  5
3E7
330
1F5
100
AcDbEntity
  8
0
  6
CONTINUOUS
 62
     7
100
AcDbVertex
100
AcDb2dVertex
 10
8.7734367036
 20
6.6534563619
 30
0.0
  0
VERTEX
  5
3E8
330
1F5
100
AcDbEntity
  8
0
  6
CONTINUOUS
 62
     7
100
AcDbVertex
100
AcDb2dVertex
 10
8.7793585339
 20
6.6476989148
 30
0.0
  0
VERTEX
  5
3E9
330
1F5
100
AcDbEntity
  8
0
  6
CONTINUOUS
 62
     7
100
AcDbVertex
100
AcDb2dVertex
 10
8.7843769202
 20
6.6407278491
 30
0.0
  0
VERTEX
  5
3EA
330
1F5
100
AcDbEntity
  8
0
  6
CONTINUOUS
 62
     7
100
AcDbVertex
100
AcDb2dVertex
 10
8.7884318024
 20
6.6326265947
 30
0.0
  0
VERTEX
  5
3EB
330
1F5
100
AcDbEntity
  8
0
  6
CONTINUOUS
 62
     7
100
AcDbVertex
100
AcDb2dVertex
 10
8.7914746514
 20
6.6234921078
 30
0.0
  0
VERTEX
  5
3EC
330
1F5
100
AcDbEntity
  8
0
  6
CONTINUOUS
 62
     7
100
AcDbVertex
100
AcDb2dVertex
 10
8.7934690502
 20
6.6134337102
 30
0.0
  0
VERTEX
  5
3ED
330
1F5
100
AcDbEntity
  8
0
  6
CONTINUOUS
 62
     7
100
AcDbVertex
100
AcDb2dVertex
 10
8.7943911299
 20
6.6025717813
 30
0.0
  0
VERTEX
  5
3EE
330
1F5
100
AcDbEntity
  8
0
  6
CONTINUOUS
 62
     7
100
AcDbVertex
100
AcDb2dVertex
 10
8.794229855
 20
6.5910363171
 30
0.0
  0
VERTEX
  5
3EF
330
1F5
100
AcDbEntity
  8
0
  6
CONTINUOUS
 62
     7
100
AcDbVertex
100
AcDb2dVertex
 10
8.7929871556
 20
6.5789653743
 30
0.0
  0
VERTEX
  5
3F0
330
1F5
100
AcDbEntity
  8
0
  6
CONTINUOUS
 62
     7
100
AcDbVertex
100
AcDb2dVertex
 10
8.7906779044
 20
6.5665034185
 30
0.0
  0
VERTEX
  5
3F1
330
1F5
100
AcDbEntity
  8
0
  6
CONTINUOUS
 62
     7
100
AcDbVertex
100
AcDb2dVertex
 10
8.7873297385
 20
6.5537995949
 30
0.0
  0
VERTEX
  5
3F2
330
1F5
100
AcDbEntity
  8
0
  6
CONTINUOUS
 62
     7
100
AcDbVertex
100
AcDb2dVertex
 10
8.782982729
 20
6.5410059433
 30
0.0
  0
VERTEX
  5
3F3
330
1F5
100
AcDbEntity
  8
0
  6
CONTINUOUS
 62
     7
100
AcDbVertex
100
AcDb2dVertex
 10
8.7776889011
 20
6.5282755787
 30
0.0
  0
VERTEX
  5
3F4
330
1F5
100
AcDbEntity
  8
0
  6
CONTINUOUS
 62
     7
100
AcDbVertex
100
AcDb2dVertex
 10
8.7715116114
 20
6.5157608584
 30
0.0
  0
VERTEX
  5
3F5
330
1F5
100
AcDbEntity
  8
0
  6
CONTINUOUS
 62
     7
100
AcDbVertex
100
AcDb2dVertex
 10
8.76452479
 20
6.5036115592
 30
0.0
  0
VERTEX
  5
3F6
330
1F5
100
AcDbEntity
  8
0
  6
CONTINUOUS
 62
     7
100
AcDbVertex
100
AcDb2dVertex
 10
8.7568120555
 20
6.4919730842
 30
0.0
  0
VERTEX
  5
3F7
330
1F5
100
AcDbEntity
  8
0
  6
CONTINUOUS
 62
     7
100
AcDbVertex
100
AcDb2dVertex
 10
8.7484657141
 20
6.4809847234
 30
0.0
  0
VERTEX
  5
3F8
330
1F5
100
AcDbEntity
  8
0
  6
CONTINUOUS
 62
     7
100
AcDbVertex
100
AcDb2dVertex
 10
8.7395856553
 20
6.4707779857
 30
0.0
  0
VERTEX
  5
3F9
330
1F5
100
AcDbEntity
  8
0
  6
CONTINUOUS
 62
     7
100
AcDbVertex
100
AcDb2dVertex
 10
8.7302781557
 20
6.4614750257
 30
0.0
  0
VERTEX
  5
3FA
330
1F5
100
AcDbEntity
  8
0
  6
CONTINUOUS
 62
     7
100
AcDbVertex
100
AcDb2dVertex
 10
8.7206546081
 20
6.4531871817
 30
0.0
  0
VERTEX
  5
3FB
330
1F5
100
AcDbEntity
  8
0
  6
CONTINUOUS
 62
     7
100
AcDbVertex
100
AcDb2dVertex
 10
8.7108301873
 20
6.4460136429
 30
0.0
  0
SEQEND
  5
3FC
330
1F5
100
AcDbEntity
  8
0
  6
CONTINUOUS
 62
     7
  0
LINE
  5
1F6
330
1F
100
AcDbEntity
  8
0
  6
CONTINUOUS
 62
     7
100
AcDbLine
 10
8.6969107625
 20
6.0908070694
 30
0.0
 11
8.6969107625
 21
6.43797813
 31
0.0
  0
LINE
  5
1F7
330
1F
100
AcDbEntity
  8
0
  6
CONTINUOUS
 62
     7
100
AcDbLine
 10
8.7108301873
 20
6.0988425823
 30
0.0
 11
8.7108301873
 21
6.4460136429
 31
0.0
  0
POLYLINE
  5
1F8
330
1F
100
AcDbEntity
  8
0
  6
CONTINUOUS
 62
     7
100
AcDb2dPolyline
 66
     1
 10
0.0
 20
0.0
 30
0.0
  0
VERTEX
  5
3FD
330
1F8
100
AcDbEntity
  8
0
  6
CONTINUOUS
 62
     7
100
AcDbVertex
100
AcDb2dVertex
 10
8.7037591195
 20
6.4582873571
 30
0.0
  0
VERTEX
  5
3FE
330
1F8
100
AcDbEntity
  8
0
  6
CONTINUOUS
 62
     7
100
AcDbVertex
100
AcDb2dVertex
 10
8.7131210038
 20
6.465216022
 30
0.0
  0
VERTEX
  5
3FF
330
1F8
100
AcDbEntity
  8
0
  6
CONTINUOUS
 62
     7
100
AcDbVertex
100
AcDb2dVertex
 10
8.7222737216
 20
6.4732360385
 30
0.0
  0
VERTEX
  5
400
330
1F8
100
AcDbEntity
  8
0
  6
CONTINUOUS
 62
     7
100
AcDbVertex
100
AcDb2dVertex
 10
8.7310999782
 20
6.4822446276
 30
0.0
  0
VERTEX
  5
401
330
1F8
100
AcDbEntity
  8
0
  6
CONTINUOUS
 62
     7
100
AcDbVertex
100
AcDb2dVertex
 10
8.7394866621
 20
6.4921263413
 30
0.0
  0
VERTEX
  5
402
330
1F8
100
AcDbEntity
  8
0
  6
CONTINUOUS
 62
     7
100
AcDbVertex
100
AcDb2dVertex
 10
8.7473262955
 20
6.5027545425
 30
0.0
  0
VERTEX
  5
403
330
1F8
100
AcDbEntity
  8
0
  6
CONTINUOUS
 62
     7
100
AcDbVertex
100
AcDb2dVertex
 10
8.7545184109
 20
6.5139930273
 30
0.0
  0
VERTEX
  5
404
330
1F8
100
AcDbEntity
  8
0
  6
CONTINUOUS
 62
     7
100
AcDbVertex
100
AcDb2dVertex
 10
8.7609708391
 20
6.525697771
 30
0.0
  0
VERTEX
  5
405
330
1F8
100
AcDbEntity
  8
0
  6
CONTINUOUS
 62
     7
100
AcDbVertex
100
AcDb2dVertex
 10
8.7666008903
 20
6.5377187738
 30
0.0
  0
VERTEX
  5
406
330
1F8
100
AcDbEntity
  8
0
  6
CONTINUOUS
 62
     7
100
AcDbVertex
100
AcDb2dVertex
 10
8.7713364135
 20
6.5499019825
 30
0.0
  0
VERTEX
  5
407
330
1F8
100
AcDbEntity
  8
0
  6
CONTINUOUS
 62
     7
100
AcDbVertex
100
AcDb2dVertex
 10
8.7751167215
 20
6.5620912657
 30
0.0
  0
VERTEX
  5
408
330
1F8
100
AcDbEntity
  8
0
  6
CONTINUOUS
 62
     7
100
AcDbVertex
100
AcDb2dVertex
 10
8.7778933686
 20
6.5741304138
 30
0.0
  0
VERTEX
  5
409
330
1F8
100
AcDbEntity
  8
0
  6
CONTINUOUS
 62
     7
100
AcDbVertex
100
AcDb2dVertex
 10
8.779630771
 20
6.5858651413
 30
0.0
  0
VERTEX
  5
40A
330
1F8
100
AcDbEntity
  8
0
  6
CONTINUOUS
 62
     7
100
AcDbVertex
100
AcDb2dVertex
 10
8.7803066635
 20
6.597145064
 30
0.0
  0
VERTEX
  5
40B
330
1F8
100
AcDbEntity
  8
0
  6
CONTINUOUS
 62
     7
100
AcDbVertex
100
AcDb2dVertex
 10
8.7799123843
 20
6.6078256262
 30
0.0
  0
VERTEX
  5
40C
330
1F8
100
AcDbEntity
  8
0
  6
CONTINUOUS
 62
     7
100
AcDbVertex
100
AcDb2dVertex
 10
8.7784529862
 20
6.6177699532
 30
0.0
  0
VERTEX
  5
40D
330
1F8
100
AcDbEntity
  8
0
  6
CONTINUOUS
 62
     7
100
AcDbVertex
100
AcDb2dVertex
 10
8.7759471717
 20
6.6268506051
 30
0.0
  0
VERTEX
  5
40E
330
1F8
100
AcDbEntity
  8
0
  6
CONTINUOUS
 62
     7
100
AcDbVertex
100
AcDb2dVertex
 10
8.7724270538
 20
6.6349512106
 30
0.0
  0
VERTEX
  5
40F
330
1F8
100
AcDbEntity
  8
0
  6
CONTINUOUS
 62
     7
100
AcDbVertex
100
AcDb2dVertex
 10
8.7679377438
 20
6.641967958
 30
0.0
  0
VERTEX
  5
410
330
1F8
100
AcDbEntity
  8
0
  6
CONTINUOUS
 62
     7
100
AcDbVertex
100
AcDb2dVertex
 10
8.7625367737
 20
6.6478109254
 30
0.0
  0
VERTEX
  5
411
330
1F8
100
AcDbEntity
  8
0
  6
CONTINUOUS
 62
     7
100
AcDbVertex
100
AcDb2dVertex
 10
8.7562933586
 20
6.6524052333
 30
0.0
  0
VERTEX
  5
412
330
1F8
100
AcDbEntity
  8
0
  6
CONTINUOUS
 62
     7
100
AcDbVertex
100
AcDb2dVertex
 10
8.7492875098
 20
6.6556920042
 30
0.0
  0
VERTEX
  5
413
330
1F8
100
AcDbEntity
  8
0
  6
CONTINUOUS
 62
     7
100
AcDbVertex
100
AcDb2dVertex
 10
8.7416090095
 20
6.6576291172
 30
0.0
  0
VERTEX
  5
414
330
1F8
100
AcDbEntity
  8
0
  6
CONTINUOUS
 62
     7
100
AcDbVertex
100
AcDb2dVertex
 10
8.73335626
 20
6.6581917474
 30
0.0
  0
VERTEX
  5
415
330
1F8
100
AcDbEntity
  8
0
  6
CONTINUOUS
 62
     7
100
AcDbVertex
100
AcDb2dVertex
 10
8.724635023
 20
6.6573726847
 30
0.0
  0
VERTEX
  5
416
330
1F8
100
AcDbEntity
  8
0
  6
CONTINUOUS
 62
     7
100
AcDbVertex
100
AcDb2dVertex
 10
8.7155570638
 20
6.6551824256
 30
0.0
  0
VERTEX
  5
417
330
1F8
100
AcDbEntity
  8
0
  6
CONTINUOUS
 62
     7
100
AcDbVertex
100
AcDb2dVertex
 10
8.7062387193
 20
6.6516490389
 30
0.0
  0
VERTEX
  5
418
330
1F8
100
AcDbEntity
  8
0
  6
CONTINUOUS
 62
     7
100
AcDbVertex
100
AcDb2dVertex
 10
8.7002489605
 20
6.6487268906
 30
0.0
  0
SEQEND
  5
419
330
1F8
100
AcDbEntity
  8
0
  6
CONTINUOUS
 62
     7
  0
ARC
  5
1F9
330
1F
100
AcDbEntity
  8
0
  6
CONTINUOUS
 62
     7
100
AcDbCircle
 10
8.6631560433
 20
6.4926647555
 30
0.0
 40
0.0501086050319175
100
AcDbArc
 50
173.6517952653
 51
302.175632526
  0
LINE
  5
1FA
330
1F
100
AcDbEntity
  8
0
  6
CONTINUOUS
 62
     7
100
AcDbLine
 10
8.6969107625
 20
6.43797813
 30
0.0
 11
8.6898396947
 21
6.4502518442
 31
0.0
  0
LINE
  5
1FB
330
1F
100
AcDbEntity
  8
0
  6
CONTINUOUS
 62
     7
100
AcDbLine
 10
8.7108301873
 20
6.4460136429
 30
0.0
 11
8.7037591195
 21
6.4582873571
 31
0.0
  0
LINE
  5
1FC
330
1F
100
AcDbEntity
  8
0
  6
CONTINUOUS
 62
     7
100
AcDbLine
 10
8.6135744836
 20
6.4942788134
 30
0.0
 11
8.6898396947
 21
6.4502518442
 31
0.0
  0
LINE
  5
1FD
330
1F
100
AcDbEntity
  8
0
  6
CONTINUOUS
 62
     7
100
AcDbLine
 10
8.6142676176
 20
6.5099497015
 30
0.0
 11
8.7037591195
 21
6.4582873571
 31
0.0
  0
ARC
  5
1FE
330
1F
100
AcDbEntity
  8
0
  6
CONTINUOUS
 62
     7
100
AcDbCircle
 10
8.0991421754
 20
6.8953961538
 30
0.0
 40
0.8477848107069148
100
AcDbArc
 50
122.538550158
 51
177.4668263747
  0
POLYLINE
  5
1FF
330
1F
100
AcDbEntity
  8
0
  6
CONTINUOUS
 62
     7
100
AcDb2dPolyline
 66
     1
 10
0.0
 20
0.0
 30
0.0
  0
VERTEX
  5
41A
330
1FF
100
AcDbEntity
  8
0
  6
CONTINUOUS
 62
     7
100
AcDbVertex
100
AcDb2dVertex
 10
8.2074096373
 20
6.2333039969
 30
0.0
  0
VERTEX
  5
41B
330
1FF
100
AcDbEntity
  8
0
  6
CONTINUOUS
 62
     7
100
AcDbVertex
100
AcDb2dVertex
 10
8.2070816515
 20
6.2291962942
 30
0.0
  0
VERTEX
  5
41C
330
1FF
100
AcDbEntity
  8
0
  6
CONTINUOUS
 62
     7
100
AcDbVertex
100
AcDb2dVertex
 10
8.2070816515
 20
6.2191033155
 30
0.0
  0
VERTEX
  5
41D
330
1FF
100
AcDbEntity
  8
0
  6
CONTINUOUS
 62
     7
100
AcDbVertex
100
AcDb2dVertex
 10
8.2081557323
 20
6.2084667827
 30
0.0
  0
VERTEX
  5
41E
330
1FF
100
AcDbEntity
  8
0
  6
CONTINUOUS
 62
     7
100
AcDbVertex
100
AcDb2dVertex
 10
8.2102876121
 20
6.1974479348
 30
0.0
  0
VERTEX
  5
41F
330
1FF
100
AcDbEntity
  8
0
  6
CONTINUOUS
 62
     7
100
AcDbVertex
100
AcDb2dVertex
 10
8.2134449735
 20
6.1862138065
 30
0.0
  0
VERTEX
  5
420
330
1FF
100
AcDbEntity
  8
0
  6
CONTINUOUS
 62
     7
100
AcDbVertex
100
AcDb2dVertex
 10
8.2175799543
 20
6.1749346955
 30
0.0
  0
VERTEX
  5
421
330
1FF
100
AcDbEntity
  8
0
  6
CONTINUOUS
 62
     7
100
AcDbVertex
100
AcDb2dVertex
 10
8.2226298724
 20
6.1637815817
 30
0.0
  0
VERTEX
  5
422
330
1FF
100
AcDbEntity
  8
0
  6
CONTINUOUS
 62
     7
100
AcDbVertex
100
AcDb2dVertex
 10
8.2285181761
 20
6.152923535
 30
0.0
  0
VERTEX
  5
423
330
1FF
100
AcDbEntity
  8
0
  6
CONTINUOUS
 62
     7
100
AcDbVertex
100
AcDb2dVertex
 10
8.2351556049
 20
6.1425251523
 30
0.0
  0
VERTEX
  5
424
330
1FF
100
AcDbEntity
  8
0
  6
CONTINUOUS
 62
     7
100
AcDbVertex
100
AcDb2dVertex
 10
8.2424415419
 20
6.1327440624
 30
0.0
  0
VERTEX
  5
425
330
1FF
100
AcDbEntity
  8
0
  6
CONTINUOUS
 62
     7
100
AcDbVertex
100
AcDb2dVertex
 10
8.2502655399
 20
6.1237285368
 30
0.0
  0
VERTEX
  5
426
330
1FF
100
AcDbEntity
  8
0
  6
CONTINUOUS
 62
     7
100
AcDbVertex
100
AcDb2dVertex
 10
8.258508995
 20
6.1156152415
 30
0.0
  0
VERTEX
  5
427
330
1FF
100
AcDbEntity
  8
0
  6
CONTINUOUS
 62
     7
100
AcDbVertex
100
AcDb2dVertex
 10
8.2670469448
 20
6.1085271659
 30
0.0
  0
VERTEX
  5
428
330
1FF
100
AcDbEntity
  8
0
  6
CONTINUOUS
 62
     7
100
AcDbVertex
100
AcDb2dVertex
 10
8.2757499627
 20
6.102571758
 30
0.0
  0
VERTEX
  5
429
330
1FF
100
AcDbEntity
  8
0
  6
CONTINUOUS
 62
     7
100
AcDbVertex
100
AcDb2dVertex
 10
8.2844861199
 20
6.0978392957
 30
0.0
  0
VERTEX
  5
42A
330
1FF
100
AcDbEntity
  8
0
  6
CONTINUOUS
 62
     7
100
AcDbVertex
100
AcDb2dVertex
 10
8.2931229851
 20
6.0944015183
 30
0.0
  0
VERTEX
  5
42B
330
1FF
100
AcDbEntity
  8
0
  6
CONTINUOUS
 62
     7
100
AcDbVertex
100
AcDb2dVertex
 10
8.3015296322
 20
6.0923105389
 30
0.0
  0
VERTEX
  5
42C
330
1FF
100
AcDbEntity
  8
0
  6
CONTINUOUS
 62
     7
100
AcDbVertex
100
AcDb2dVertex
 10
8.309578625
 20
6.0915980548
 30
0.0
  0
VERTEX
  5
42D
330
1FF
100
AcDbEntity
  8
0
  6
CONTINUOUS
 62
     7
100
AcDbVertex
100
AcDb2dVertex
 10
8.3171479491
 20
6.0922748665
 30
0.0
  0
VERTEX
  5
42E
330
1FF
100
AcDbEntity
  8
0
  6
CONTINUOUS
 62
     7
100
AcDbVertex
100
AcDb2dVertex
 10
8.3241228611
 20
6.0943307141
 30
0.0
  0
VERTEX
  5
42F
330
1FF
100
AcDbEntity
  8
0
  6
CONTINUOUS
 62
     7
100
AcDbVertex
100
AcDb2dVertex
 10
8.3303976285
 20
6.0977344331
 30
0.0
  0
VERTEX
  5
430
330
1FF
100
AcDbEntity
  8
0
  6
CONTINUOUS
 62
     7
100
AcDbVertex
100
AcDb2dVertex
 10
8.3358771322
 20
6.1024344266
 30
0.0
  0
VERTEX
  5
431
330
1FF
100
AcDbEntity
  8
0
  6
CONTINUOUS
 62
     7
100
AcDbVertex
100
AcDb2dVertex
 10
8.3404783085
 20
6.1083594475
 30
0.0
  0
VERTEX
  5
432
330
1FF
100
AcDbEntity
  8
0
  6
CONTINUOUS
 62
     7
100
AcDbVertex
100
AcDb2dVertex
 10
8.3415810043
 20
6.1101937762
 30
0.0
  0
SEQEND
  5
433
330
1FF
100
AcDbEntity
  8
0
  6
CONTINUOUS
 62
     7
  0
ARC
  5
200
330
1F
100
AcDbEntity
  8
0
  6
CONTINUOUS
 62
     7
100
AcDbCircle
 10
8.3135926941
 20
6.136089016
 30
0.0
 40
0.0484982587521353
100
AcDbArc
 50
231.635106828
 51
317.3412012928
  0
LINE
  5
201
330
1F
100
AcDbEntity
  8
0
  6
CONTINUOUS
 62
     7
100
AcDbLine
 10
8.2069470086
 20
6.2306559429
 30
0.0
 11
8.2069889309
 21
6.2335569936
 31
0.0
  0
LINE
  5
202
330
1F
100
AcDbEntity
  8
0
  6
CONTINUOUS
 62
     7
100
AcDbLine
 10
8.2779360752
 20
6.1368458205
 30
0.0
 11
8.3115372237
 21
6.1398502695
 31
0.0
  0
LINE
  5
203
330
1F
100
AcDbEntity
  8
0
  6
CONTINUOUS
 62
     7
100
AcDbLine
 10
8.2431375131
 20
6.205973118
 30
0.0
 11
8.2431375131
 21
6.1801349009
 31
0.0
  0
LINE
  5
204
330
1F
100
AcDbEntity
  8
0
  6
CONTINUOUS
 62
     7
100
AcDbLine
 10
8.2431375131
 20
6.1801349009
 30
0.0
 11
8.2779360752
 21
6.1368458205
 31
0.0
  0
LINE
  5
205
330
1F
100
AcDbEntity
  8
0
  6
CONTINUOUS
 62
     7
100
AcDbLine
 10
8.3012882239
 20
6.150326729
 30
0.0
 11
8.2779360752
 21
6.1368458205
 31
0.0
  0
LINE
  5
206
330
1F
100
AcDbEntity
  8
0
  6
CONTINUOUS
 62
     7
100
AcDbLine
 10
8.2607176075
 20
6.1902836733
 30
0.0
 11
8.2431375131
 21
6.1801349009
 31
0.0
  0
POLYLINE
  5
207
330
1F
100
AcDbEntity
  8
0
  6
CONTINUOUS
 62
     7
100
AcDb2dPolyline
 66
     1
 10
0.0
 20
0.0
 30
0.0
  0
VERTEX
  5
434
330
207
100
AcDbEntity
  8
0
  6
CONTINUOUS
 62
     7
100
AcDbVertex
100
AcDb2dVertex
 10
7.9774477375
 20
7.5906385976
 30
0.0
  0
VERTEX
  5
435
330
207
100
AcDbEntity
  8
0
  6
CONTINUOUS
 62
     7
100
AcDbVertex
100
AcDb2dVertex
 10
7.981109829
 20
7.5941543633
 30
0.0
  0
VERTEX
  5
436
330
207
100
AcDbEntity
  8
0
  6
CONTINUOUS
 62
     7
100
AcDbVertex
100
AcDb2dVertex
 10
7.9868444291
 20
7.5980996804
 30
0.0
  0
VERTEX
  5
437
330
207
100
AcDbEntity
  8
0
  6
CONTINUOUS
 62
     7
100
AcDbVertex
100
AcDb2dVertex
 10
7.9936786593
 20
7.6014101946
 30
0.0
  0
VERTEX
  5
438
330
207
100
AcDbEntity
  8
0
  6
CONTINUOUS
 62
     7
100
AcDbVertex
100
AcDb2dVertex
 10
8.0014048651
 20
7.6039853174
 30
0.0
  0
VERTEX
  5
439
330
207
100
AcDbEntity
  8
0
  6
CONTINUOUS
 62
     7
100
AcDbVertex
100
AcDb2dVertex
 10
8.0097882896
 20
7.6057468052
 30
0.0
  0
VERTEX
  5
43A
330
207
100
AcDbEntity
  8
0
  6
CONTINUOUS
 62
     7
100
AcDbVertex
100
AcDb2dVertex
 10
8.0185742066
 20
7.606641136
 30
0.0
  0
VERTEX
  5
43B
330
207
100
AcDbEntity
  8
0
  6
CONTINUOUS
 62
     7
100
AcDbVertex
100
AcDb2dVertex
 10
8.0274956606
 20
7.606641136
 30
0.0
  0
VERTEX
  5
43C
330
207
100
AcDbEntity
  8
0
  6
CONTINUOUS
 62
     7
100
AcDbVertex
100
AcDb2dVertex
 10
8.0362815777
 20
7.6057468052
 30
0.0
  0
VERTEX
  5
43D
330
207
100
AcDbEntity
  8
0
  6
CONTINUOUS
 62
     7
100
AcDbVertex
100
AcDb2dVertex
 10
8.0446650021
 20
7.6039853174
 30
0.0
  0
VERTEX
  5
43E
330
207
100
AcDbEntity
  8
0
  6
CONTINUOUS
 62
     7
100
AcDbVertex
100
AcDb2dVertex
 10
8.0523912079
 20
7.6014101946
 30
0.0
  0
VERTEX
  5
43F
330
207
100
AcDbEntity
  8
0
  6
CONTINUOUS
 62
     7
100
AcDbVertex
100
AcDb2dVertex
 10
8.0592254382
 20
7.5980996804
 30
0.0
  0
VERTEX
  5
440
330
207
100
AcDbEntity
  8
0
  6
CONTINUOUS
 62
     7
100
AcDbVertex
100
AcDb2dVertex
 10
8.0649600382
 20
7.5941543633
 30
0.0
  0
VERTEX
  5
441
330
207
100
AcDbEntity
  8
0
  6
CONTINUOUS
 62
     7
100
AcDbVertex
100
AcDb2dVertex
 10
8.0694207652
 20
7.5896941196
 30
0.0
  0
VERTEX
  5
442
330
207
100
AcDbEntity
  8
0
  6
CONTINUOUS
 62
     7
100
AcDbVertex
100
AcDb2dVertex
 10
8.0724720822
 20
7.5848544717
 30
0.0
  0
VERTEX
  5
443
330
207
100
AcDbEntity
  8
0
  6
CONTINUOUS
 62
     7
100
AcDbVertex
100
AcDb2dVertex
 10
8.0740212764
 20
7.5797824697
 30
0.0
  0
VERTEX
  5
444
330
207
100
AcDbEntity
  8
0
  6
CONTINUOUS
 62
     7
100
AcDbVertex
100
AcDb2dVertex
 10
8.0740212764
 20
7.574632224
 30
0.0
  0
VERTEX
  5
445
330
207
100
AcDbEntity
  8
0
  6
CONTINUOUS
 62
     7
100
AcDbVertex
100
AcDb2dVertex
 10
8.0724720822
 20
7.569560222
 30
0.0
  0
VERTEX
  5
446
330
207
100
AcDbEntity
  8
0
  6
CONTINUOUS
 62
     7
100
AcDbVertex
100
AcDb2dVertex
 10
8.0694207652
 20
7.5647205741
 30
0.0
  0
VERTEX
  5
447
330
207
100
AcDbEntity
  8
0
  6
CONTINUOUS
 62
     7
100
AcDbVertex
100
AcDb2dVertex
 10
8.0649600382
 20
7.5602603304
 30
0.0
  0
VERTEX
  5
448
330
207
100
AcDbEntity
  8
0
  6
CONTINUOUS
 62
     7
100
AcDbVertex
100
AcDb2dVertex
 10
8.0625140778
 20
7.5584042219
 30
0.0
  0
SEQEND
  5
449
330
207
100
AcDbEntity
  8
0
  6
CONTINUOUS
 62
     7
  0
ARC
  5
208
330
1F
100
AcDbEntity
  8
0
  6
CONTINUOUS
 62
     7
100
AcDbCircle
 10
8.0563993671
 20
7.5713128969
 30
0.0
 40
0.0250200526387874
100
AcDbArc
 50
318.2133727529
 51
70.3814995598
  0
POLYLINE
  5
209
330
1F
100
AcDbEntity
  8
0
  6
CONTINUOUS
 62
     7
100
AcDb2dPolyline
 66
     1
 10
0.0
 20
0.0
 30
0.0
  0
VERTEX
  5
44A
330
209
100
AcDbEntity
  8
0
  6
CONTINUOUS
 62
     7
100
AcDbVertex
100
AcDb2dVertex
 10
7.9812698739
 20
7.5948805127
 30
0.0
  0
VERTEX
  5
44B
330
209
100
AcDbEntity
  8
0
  6
CONTINUOUS
 62
     7
100
AcDbVertex
100
AcDb2dVertex
 10
7.9780519233
 20
7.5928664898
 30
0.0
  0
VERTEX
  5
44C
330
209
100
AcDbEntity
  8
0
  6
CONTINUOUS
 62
     7
100
AcDbVertex
100
AcDb2dVertex
 10
7.9760920033
 20
7.5914627497
 30
0.0
  0
SEQEND
  5
44D
330
209
100
AcDbEntity
  8
0
  6
CONTINUOUS
 62
     7
  0
ENDSEC
  0
SECTION
  2
OBJECTS
  0
DICTIONARY
  5
C
330
0
100
AcDbDictionary
  3
ACAD_GROUP
350
D
  3
ACAD_LAYOUT
350
1A
  3
ACAD_MLEADERSTYLE
350
20C
  3
ACAD_MLINESTYLE
350
17
  3
ACAD_PLOTSETTINGS
350
19
  3
ACAD_SCALELIST
350
6F
  3
ACAD_VISUALSTYLE
350
2A
  3
ACDBVARIABLEDICTIONARY
350
20A
1001
ACAD
1000
TREAT_AS_HARD
1070
     0
  0
DICTIONARY
  5
D
102
{ACAD_REACTORS
330
C
102
}
330
C
100
AcDbDictionary
1001
ACAD
1000
TREAT_AS_HARD
1070
     0
  0
DICTIONARY
  5
1A
102
{ACAD_REACTORS
330
C
102
}
330
C
100
AcDbDictionary
1001
ACAD
1000
TREAT_AS_HARD
1070
     0
  0
DICTIONARY
  5
20C
102
{ACAD_REACTORS
330
C
102
}
330
C
100
AcDbDictionary
1001
ACAD
1000
TREAT_AS_HARD
1070
     0
  0
DICTIONARY
  5
17
102
{ACAD_REACTORS
330
C
102
}
330
C
100
AcDbDictionary
  3
STANDARD
350
18
1001
ACAD
1000
TREAT_AS_HARD
1070
     0
  0
DICTIONARY
  5
19
102
{ACAD_REACTORS
330
C
102
}
330
C
100
AcDbDictionary
1001
ACAD
1000
TREAT_AS_HARD
1070
     0
  0
DICTIONARY
  5
6F
102
{ACAD_REACTORS
330
C
102
}
330
C
100
AcDbDictionary
  3
A0
350
70
  3
A1
350
71
  3
A2
350
72
  3
A3
350
73
  3
A4
350
74
  3
A5
350
75
  3
A6
350
76
  3
A7
350
77
  3
A8
350
78
  3
A9
350
79
  3
B0
350
7A
  3
B1
350
7B
  3
B2
350
7C
  3
B3
350
7D
  3
B4
350
7E
  3
B5
350
7F
  3
B6
350
80
  3
B7
350
81
  3
B8
350
82
  3
B9
350
83
  3
C0
350
84
  3
C1
350
85
  3
C2
350
86
  3
C3
350
87
  3
C4
350
88
  3
C5
350
89
  3
C6
350
8A
  3
C7
350
8B
  3
C8
350
8C
  3
C9
350
8D
  3
D0
350
8E
  3
D1
350
8F
  3
D2
350
90
1001
ACAD
1000
TREAT_AS_HARD
1070
     0
  0
DICTIONARY
  5
2A
102
{ACAD_REACTORS
330
C
102
}
330
C
100
AcDbDictionary
  3
2DWIREFRAME
350
2F
  3
3D_HIDDEN
350
31
  3
3DWIREFRAME
350
30
  3
BASIC
350
32
  3
BRIGHTEN
350
36
  3
COLORCHANGE
350
3A
  3
CONCEPTUAL
350
34
  3
DIM
350
35
  3
FACEPATTERN
350
39
  3
FLAT
350
2B
  3
FLATWITHEDGES
350
2C
  3
GOURAUD
350
2D
  3
GOURAUDWITHEDGES
350
2E
  3
LINEPATTERN
350
38
  3
REALISTIC
350
33
  3
THICKEN
350
37
1001
ACAD
1000
TREAT_AS_HARD
1070
     0
  0
DICTIONARY
  5
20A
102
{ACAD_REACTORS
330
C
102
}
330
C
100
AcDbDictionary
  3
CANNOSCALE
350
20D
  3
DIMASSOC
350
20E
  3
HIDETEXT
350
20F
1001
ACAD
1000
TREAT_AS_HARD
1070
     0
  0
MLINESTYLE
  5
18
102
{ACAD_REACTORS
330
17
102
}
330
17
100
AcDbMlineStyle
  2
Standard
 70
     0
  3

 62
   256
 51
90.0
 52
90.0
 71
     2
 49
0.5
 62
   256
  6
BYLAYER
 49
-0.5
 62
   256
  6
BYLAYER
  0
ACAD_PROXY_OBJECT
  5
70
102
{ACAD_REACTORS
330
6F
102
}
330
6F
100
AcDbZombieObject
 90
      499
 91
      502
 93
       41
310
903313A31580
  0
ACAD_PROXY_OBJECT
  5
71
102
{ACAD_REACTORS
330
6F
102
}
330
6F
100
AcDbZombieObject
 90
      499
 91
      502
 93
      105
310
903313A324000000000000004000
  0
ACAD_PROXY_OBJECT
  5
72
102
{ACAD_REACTORS
330
6F
102
}
330
6F
100
AcDbZombieObject
 90
      499
 91
      502
 93
      105
310
903313A344000000000000104000
  0
ACAD_PROXY_OBJECT
  5
73
102
{ACAD_REACTORS
330
6F
102
}
330
6F
100
AcDbZombieObject
 90
      499
 91
      502
 93
      105
310
903313A354000000000000144000
  0
ACAD_PROXY_OBJECT
  5
74
102
{ACAD_REACTORS
330
6F
102
}
330
6F
100
AcDbZombieObject
 90
      499
 91
      502
 93
      105
310
903313A384000000000000204000
  0
ACAD_PROXY_OBJECT
  5
75
102
{ACAD_REACTORS
330
6F
102
}
330
6F
100
AcDbZombieObject
 90
      499
 91
      502
 93
      113
310
904313A31304000000000000244000
  0
ACAD_PROXY_OBJECT
  5
76
102
{ACAD_REACTORS
330
6F
102
}
330
6F
100
AcDbZombieObject
 90
      499
 91
      502
 93
      113
310
904313A31364000000000000304000
  0
ACAD_PROXY_OBJECT
  5
77
102
{ACAD_REACTORS
330
6F
102
}
330
6F
100
AcDbZombieObject
 90
      499
 91
      502
 93
      113
310
904313A32304000000000000344000
  0
ACAD_PROXY_OBJECT
  5
78
102
{ACAD_REACTORS
330
6F
102
}
330
6F
100
AcDbZombieObject
 90
      499
 91
      502
 93
      113
310
904313A333040000000000003E4000
  0
ACAD_PROXY_OBJECT
  5
79
102
{ACAD_REACTORS
330
6F
102
}
330
6F
100
AcDbZombieObject
 90
      499
 91
      502
 93
      113
310
904313A34304000000000000444000
  0
ACAD_PROXY_OBJECT
  5
7A
102
{ACAD_REACTORS
330
6F
102
}
330
6F
100
AcDbZombieObject
 90
      499
 91
      502
 93
      113
310
904313A35304000000000000494000
  0
ACAD_PROXY_OBJECT
  5
7B
102
{ACAD_REACTORS
330
6F
102
}
330
6F
100
AcDbZombieObject
 90
      499
 91
      502
 93
      121
310
905313A3130304000000000000594000
  0
ACAD_PROXY_OBJECT
  5
7C
102
{ACAD_REACTORS
330
6F
102
}
330
6F
100
AcDbZombieObject
 90
      499
 91
      502
 93
      105
310
903323A310000000000000010100
  0
ACAD_PROXY_OBJECT
  5
7D
102
{ACAD_REACTORS
330
6F
102
}
330
6F
100
AcDbZombieObject
 90
      499
 91
      502
 93
      105
310
903343A310000000000000410100
  0
ACAD_PROXY_OBJECT
  5
7E
102
{ACAD_REACTORS
330
6F
102
}
330
6F
100
AcDbZombieObject
 90
      499
 91
      502
 93
      105
310
903383A310000000000000810100
  0
ACAD_PROXY_OBJECT
  5
7F
102
{ACAD_REACTORS
330
6F
102
}
330
6F
100
AcDbZombieObject
 90
      499
 91
      502
 93
      113
310
90431303A310000000000000910100
  0
ACAD_PROXY_OBJECT
  5
80
102
{ACAD_REACTORS
330
6F
102
}
330
6F
100
AcDbZombieObject
 90
      499
 91
      502
 93
      121
310
9053130303A310000000000001650100
  0
ACAD_PROXY_OBJECT
  5
81
102
{ACAD_REACTORS
330
6F
102
}
330
6F
100
AcDbZombieObject
 90
      499
 91
      502
 93
      257
310
90E312F31323822203D2031272D3022000000000000200FC000000000000284000
  0
ACAD_PROXY_OBJECT
  5
82
102
{ACAD_REACTORS
330
6F
102
}
330
6F
100
AcDbZombieObject
 90
      499
 91
      502
 93
      249
310
90D312F363422203D2031272D3022000000000000240FC000000000000284000
  0
ACAD_PROXY_OBJECT
  5
83
102
{ACAD_REACTORS
330
6F
102
}
330
6F
100
AcDbZombieObject
 90
      499
 91
      502
 93
      249
310
90D312F333222203D2031272D3022000000000000280FC000000000000284000
  0
ACAD_PROXY_OBJECT
  5
84
102
{ACAD_REACTORS
330
6F
102
}
330
6F
100
AcDbZombieObject
 90
      499
 91
      502
 93
      249
310
90D312F313622203D2031272D30220000000000002C0FC000000000000284000
  0
ACAD_PROXY_OBJECT
  5
85
102
{ACAD_REACTORS
330
6F
102
}
330
6F
100
AcDbZombieObject
 90
      499
 91
      502
 93
      249
310
90D332F333222203D2031272D30220000000000002E0FC000000000000284000
  0
ACAD_PROXY_OBJECT
  5
86
102
{ACAD_REACTORS
330
6F
102
}
330
6F
100
AcDbZombieObject
 90
      499
 91
      502
 93
      241
310
90C312F3822203D2031272D3022000000000000300FC000000000000284000
  0
ACAD_PROXY_OBJECT
  5
87
102
{ACAD_REACTORS
330
6F
102
}
330
6F
100
AcDbZombieObject
 90
      499
 91
      502
 93
      249
310
90D332F313622203D2031272D3022000000000000320FC000000000000284000
  0
ACAD_PROXY_OBJECT
  5
88
102
{ACAD_REACTORS
330
6F
102
}
330
6F
100
AcDbZombieObject
 90
      499
 91
      502
 93
      241
310
90C312F3422203D2031272D3022000000000000340FC000000000000284000
  0
ACAD_PROXY_OBJECT
  5
89
102
{ACAD_REACTORS
330
6F
102
}
330
6F
100
AcDbZombieObject
 90
      499
 91
      502
 93
      241
310
90C332F3822203D2031272D3022000000000000360FC000000000000284000
  0
ACAD_PROXY_OBJECT
  5
8A
102
{ACAD_REACTORS
330
6F
102
}
330
6F
100
AcDbZombieObject
 90
      499
 91
      502
 93
      241
310
90C312F3222203D2031272D3022000000000000380FC000000000000284000
  0
ACAD_PROXY_OBJECT
  5
8B
102
{ACAD_REACTORS
330
6F
102
}
330
6F
100
AcDbZombieObject
 90
      499
 91
      502
 93
      241
310
90C332F3422203D2031272D30220000000000003A0FC000000000000284000
  0
ACAD_PROXY_OBJECT
  5
8C
102
{ACAD_REACTORS
330
6F
102
}
330
6F
100
AcDbZombieObject
 90
      499
 91
      502
 93
      161
310
90A3122203D2031272D30224000000000000284000
  0
ACAD_PROXY_OBJECT
  5
8D
102
{ACAD_REACTORS
330
6F
102
}
330
6F
100
AcDbZombieObject
 90
      499
 91
      502
 93
      257
310
90E312D312F3222203D2031272D30220000000000003E0FC000000000000284000
  0
ACAD_PROXY_OBJECT
  5
8E
102
{ACAD_REACTORS
330
6F
102
}
330
6F
100
AcDbZombieObject
 90
      499
 91
      502
 93
      225
310
90A3322203D2031272D302200000000000002100000000000000284000
  0
ACAD_PROXY_OBJECT
  5
8F
102
{ACAD_REACTORS
330
6F
102
}
330
6F
100
AcDbZombieObject
 90
      499
 91
      502
 93
      225
310
90A3622203D2031272D302200000000000006100000000000000284000
  0
ACAD_PROXY_OBJECT
  5
90
102
{ACAD_REACTORS
330
6F
102
}
330
6F
100
AcDbZombieObject
 90
      499
 91
      502
 93
      249
310
90D31272D3022203D2031272D30220000000000000A100000000000000284000
  0
ACAD_PROXY_OBJECT
  5
2F
102
{ACAD_REACTORS
330
2A
102
}
330
2A
100
AcDbZombieObject
 90
      499
 91
      501
 93
      436
310
42CC9915DA5C99599C985B595049028333333333333E3BF0000000000000FB0107901411070040501600405405064090741402480A0340
1001
ACAD
1000
AcDbSavedByObjectVersion
1070
     0
  0
ACAD_PROXY_OBJECT
  5
31
102
{ACAD_REACTORS
330
2A
102
}
330
2A
100
AcDbZombieObject
 90
      499
 91
      501
 93
      500
310
424CD108121A5919195B90640502408333333333333E3BF0000000000000FB01079024090700405020000000000001110200405405064090740C02480A0340
1001
ACAD
1000
AcDbSavedByObjectVersion
1070
     0
  0
ACAD_PROXY_OBJECT
  5
30
102
{ACAD_REACTORS
330
2A
102
}
330
2A
100
AcDbZombieObject
 90
      499
 91
      501
 93
      436
310
42CCD915DA5C99599C985B595059028333333333333E3BF0000000000000FB0107901411070040501600405405064090741402480A0340
1001
ACAD
1000
AcDbSavedByObjectVersion
1070
     0
  0
ACAD_PROXY_OBJECT
  5
32
102
{ACAD_REACTORS
330
2A
102
}
330
2A
100
AcDbZombieObject
 90
      499
 91
      501
 93
      388
310
4150985CDA58D07406404333333333333E3BF0000000000000FB0107A41107004050150841D405064090741402480A0350
1001
ACAD
1000
AcDbSavedByObjectVersion
1070
     0
  0
ACAD_PROXY_OBJECT
  5
36
102
{ACAD_REACTORS
330
2A
102
}
330
2A
100
AcDbZombieObject
 90
      499
 91
      501
 93
      428
310
42109C9A59DA1D195B90C409028333333333333E3BF0000000000000FB010790141107004050150841D405064090741402480A029950
1001
ACAD
1000
AcDbSavedByObjectVersion
1070
     0
  0
ACAD_PROXY_OBJECT
  5
3A
102
{ACAD_REACTORS
330
2A
102
}
330
2A
100
AcDbZombieObject
 90
      499
 91
      501
 93
      452
310
42D0DBDB1BDC90DA185B99D95104090240C333333333333E3BF0000000000000FB0108901411070040501508421405064090741402480A0350
1001
ACAD
1000
AcDbSavedByObjectVersion
1070
     0
  0
ACAD_PROXY_OBJECT
  5
34
102
{ACAD_REACTORS
330
2A
102
}
330
2A
100
AcDbZombieObject
 90
      499
 91
      501
 93
      500
310
4290DBDB98D95C1D1D585B10940D028333333333333E3BF0000000000000FB0107902409070040501000000000000111010841D405064090740C02480A0340
1001
ACAD
1000
AcDbSavedByObjectVersion
1070
     0
  0
ACAD_PROXY_OBJECT
  5
35
102
{ACAD_REACTORS
330
2A
102
}
330
2A
100
AcDbZombieObject
 90
      499
 91
      501
 93
      412
310
40D11A5B50B409028333333333333E3BF0000000000000FB010790141107004050150841D405064090741402480A02677FFFFFD0
1001
ACAD
1000
AcDbSavedByObjectVersion
1070
     0
  0
ACAD_PROXY_OBJECT
  5
39
102
{ACAD_REACTORS
330
2A
102
}
330
2A
100
AcDbZombieObject
 90
      499
 91
      501
 93
      444
310
42D19858D95C185D1D195C9B90F409028333333333333E3BF0000000000000FB010790141107004050150841D405064090741402480A0350
1001
ACAD
1000
AcDbSavedByObjectVersion
1070
     0
  0
ACAD_PROXY_OBJECT
  5
2B
102
{ACAD_REACTORS
330
2A
102
}
330
2A
100
AcDbZombieObject
 90
      499
 91
      501
 93
      388
310
41119B185D240901404333333333333E3BF0000000000000F9010740A41107004050150841D405064090741402480A1B50
1001
ACAD
1000
AcDbSavedByObjectVersion
1070
     0
  0
ACAD_PROXY_OBJECT
  5
2C
102
{ACAD_REACTORS
330
2A
102
}
330
2A
100
AcDbZombieObject
 90
      499
 91
      501
 93
      476
310
43519B185D15DA5D1A115919D95CD0140901404333333333333E3BF0000000000000F9010740901411070040501600405405064090741402480A1B50
1001
ACAD
1000
AcDbSavedByObjectVersion
1070
     0
  0
ACAD_PROXY_OBJECT
  5
2D
102
{ACAD_REACTORS
330
2A
102
}
330
2A
100
AcDbZombieObject
 90
      499
 91
      501
 93
      412
310
41D1DBDD5C985D5910240902404333333333333E3BF0000000000000F9010740A411070040501641D405064090741402480A1B50
1001
ACAD
1000
AcDbSavedByObjectVersion
1070
     0
  0
ACAD_PROXY_OBJECT
  5
2E
102
{ACAD_REACTORS
330
2A
102
}
330
2A
100
AcDbZombieObject
 90
      499
 91
      501
 93
      500
310
4411DBDD5C985D5915DA5D1A115919D95CD0340902404333333333333E3BF0000000000000F9010740901411070040501600405405064090741402480A1B50
1001
ACAD
1000
AcDbSavedByObjectVersion
1070
     0
  0
ACAD_PROXY_OBJECT
  5
38
102
{ACAD_REACTORS
330
2A
102
}
330
2A
100
AcDbZombieObject
 90
      499
 91
      501
 93
      444
310
42D31A5B995C185D1D195C9B90E409028333333333333E3BF0000000000000FB010790141107004050750841D405064090741402483A0350
1001
ACAD
1000
AcDbSavedByObjectVersion
1070
     0
  0
ACAD_PROXY_OBJECT
  5
33
102
{ACAD_REACTORS
330
2A
102
}
330
2A
100
AcDbZombieObject
 90
      499
 91
      501
 93
      420
310
425499585B1A5CDD1A58D08409028333333333333E3BF0000000000000FB01079019070040501508421405064090741402480A1B40
1001
ACAD
1000
AcDbSavedByObjectVersion
1070
     0
  0
ACAD_PROXY_OBJECT
  5
37
102
{ACAD_REACTORS
330
2A
102
}
330
2A
100
AcDbZombieObject
 90
      499
 91
      501
 93
      412
310
41D51A1A58DAD95B90D409028333333333333E3BF0000000000000FB010790141107004050150C41D405064090741402480A0350
1001
ACAD
1000
AcDbSavedByObjectVersion
1070
     0
  0
DICTIONARYVAR
  5
20D
102
{ACAD_REACTORS
330
20A
102
}
330
20A
100
DictionaryVariables
280
     0
  1
1:1
  0
DICTIONARYVAR
  5
20E
102
{ACAD_REACTORS
330
20A
102
}
330
20A
100
DictionaryVariables
280
     0
  1
2
  0
DICTIONARYVAR
  5
20F
102
{ACAD_REACTORS
330
20A
102
}
330
20A
100
DictionaryVariables
280
     0
  1
1
  0
ENDSEC
  0
EOF
